  0
SECTION
  2
HEADER
  9
$ACADVER
  1
AC1014
  9
$ACADMAINTVER
 70
     9
  9
$DWGCODEPAGE
  3
ANSI_1252
  9
$INSBASE
 10
0.0
 20
0.0
 30
0.0
  9
$EXTMIN
 10
-1.092366141732283
 20
-0.1833543307086614
 30
0.0
  9
$EXTMAX
 10
1.152405511811024
 20
3.939444881889764
 30
0.0
  9
$LIMMIN
 10
0.0
 20
0.0
  9
$LIMMAX
 10
12.0
 20
9.0
  9
$ORTHOMODE
 70
     0
  9
$REGENMODE
 70
     1
  9
$FILLMODE
 70
     1
  9
$QTEXTMODE
 70
     0
  9
$MIRRTEXT
 70
     1
  9
$DRAGMODE
 70
     2
  9
$LTSCALE
 40
1.0
  9
$OSMODE
 70
    37
  9
$ATTMODE
 70
     1
  9
$TEXTSIZE
 40
0.2
  9
$TRACEWID
 40
0.05
  9
$TEXTSTYLE
  7
STANDARD
  9
$CLAYER
  8
0
  9
$CELTYPE
  6
BYLAYER
  9
$CECOLOR
 62
   256
  9
$CELTSCALE
 40
1.0
  9
$DELOBJ
 70
     1
  9
$DISPSILH
 70
     0
  9
$DIMSCALE
 40
1.0
  9
$DIMASZ
 40
0.18
  9
$DIMEXO
 40
0.0625
  9
$DIMDLI
 40
0.38
  9
$DIMRND
 40
0.0
  9
$DIMDLE
 40
0.0
  9
$DIMEXE
 40
0.18
  9
$DIMTP
 40
0.0
  9
$DIMTM
 40
0.0
  9
$DIMTXT
 40
0.18
  9
$DIMCEN
 40
0.09
  9
$DIMTSZ
 40
0.0
  9
$DIMTOL
 70
     0
  9
$DIMLIM
 70
     0
  9
$DIMTIH
 70
     1
  9
$DIMTOH
 70
     1
  9
$DIMSE1
 70
     0
  9
$DIMSE2
 70
     0
  9
$DIMTAD
 70
     0
  9
$DIMZIN
 70
     0
  9
$DIMBLK
  1

  9
$DIMASO
 70
     1
  9
$DIMSHO
 70
     1
  9
$DIMPOST
  1

  9
$DIMAPOST
  1

  9
$DIMALT
 70
     0
  9
$DIMALTD
 70
     2
  9
$DIMALTF
 40
25.4
  9
$DIMLFAC
 40
1.0
  9
$DIMTOFL
 70
     0
  9
$DIMTVP
 40
0.0
  9
$DIMTIX
 70
     0
  9
$DIMSOXD
 70
     0
  9
$DIMSAH
 70
     0
  9
$DIMBLK1
  1

  9
$DIMBLK2
  1

  9
$DIMSTYLE
  2
STANDARD
  9
$DIMCLRD
 70
     0
  9
$DIMCLRE
 70
     0
  9
$DIMCLRT
 70
     0
  9
$DIMTFAC
 40
1.0
  9
$DIMGAP
 40
0.09
  9
$DIMJUST
 70
     0
  9
$DIMSD1
 70
     0
  9
$DIMSD2
 70
     0
  9
$DIMTOLJ
 70
     1
  9
$DIMTZIN
 70
     0
  9
$DIMALTZ
 70
     0
  9
$DIMALTTZ
 70
     0
  9
$DIMFIT
 70
     3
  9
$DIMUPT
 70
     0
  9
$DIMUNIT
 70
     2
  9
$DIMDEC
 70
     4
  9
$DIMTDEC
 70
     4
  9
$DIMALTU
 70
     2
  9
$DIMALTTD
 70
     2
  9
$DIMTXSTY
  7
STANDARD
  9
$DIMAUNIT
 70
     0
  9
$LUNITS
 70
     2
  9
$LUPREC
 70
     4
  9
$SKETCHINC
 40
0.1
  9
$FILLETRAD
 40
0.5
  9
$AUNITS
 70
     0
  9
$AUPREC
 70
     0
  9
$MENU
  1
.
  9
$ELEVATION
 40
0.0
  9
$PELEVATION
 40
0.0
  9
$THICKNESS
 40
0.0
  9
$LIMCHECK
 70
     0
  9
$CHAMFERA
 40
0.5
  9
$CHAMFERB
 40
0.5
  9
$CHAMFERC
 40
1.0
  9
$CHAMFERD
 40
0.0
  9
$SKPOLY
 70
     0
  9
$TDCREATE
 40
2454201.377449364
  9
$TDUPDATE
 40
2454201.419116042
  9
$TDINDWG
 40
0.0000000116
  9
$TDUSRTIMER
 40
0.0000000116
  9
$USRTIMER
 70
     1
  9
$ANGBASE
 50
0.0
  9
$ANGDIR
 70
     0
  9
$PDMODE
 70
     0
  9
$PDSIZE
 40
0.0
  9
$PLINEWID
 40
0.0
  9
$COORDS
 70
     1
  9
$SPLFRAME
 70
     0
  9
$SPLINETYPE
 70
     6
  9
$SPLINESEGS
 70
     8
  9
$ATTDIA
 70
     0
  9
$ATTREQ
 70
     1
  9
$HANDLING
 70
     1
  9
$HANDSEED
  5
CE
  9
$SURFTAB1
 70
     6
  9
$SURFTAB2
 70
     6
  9
$SURFTYPE
 70
     6
  9
$SURFU
 70
     6
  9
$SURFV
 70
     6
  9
$UCSNAME
  2

  9
$UCSORG
 10
0.0
 20
0.0
 30
0.0
  9
$UCSXDIR
 10
1.0
 20
0.0
 30
0.0
  9
$UCSYDIR
 10
0.0
 20
1.0
 30
0.0
  9
$PUCSNAME
  2

  9
$PUCSORG
 10
0.0
 20
0.0
 30
0.0
  9
$PUCSXDIR
 10
1.0
 20
0.0
 30
0.0
  9
$PUCSYDIR
 10
0.0
 20
1.0
 30
0.0
  9
$USERI1
 70
     0
  9
$USERI2
 70
     0
  9
$USERI3
 70
     0
  9
$USERI4
 70
     0
  9
$USERI5
 70
     0
  9
$USERR1
 40
0.0
  9
$USERR2
 40
0.0
  9
$USERR3
 40
0.0
  9
$USERR4
 40
0.0
  9
$USERR5
 40
0.0
  9
$WORLDVIEW
 70
     1
  9
$SHADEDGE
 70
     3
  9
$SHADEDIF
 70
    70
  9
$TILEMODE
 70
     1
  9
$MAXACTVP
 70
    64
  9
$PINSBASE
 10
0.0
 20
0.0
 30
0.0
  9
$PLIMCHECK
 70
     0
  9
$PEXTMIN
 10
1.000000000000000E+20
 20
1.000000000000000E+20
 30
1.000000000000000E+20
  9
$PEXTMAX
 10
-1.000000000000000E+20
 20
-1.000000000000000E+20
 30
-1.000000000000000E+20
  9
$PLIMMIN
 10
0.0
 20
0.0
  9
$PLIMMAX
 10
12.0
 20
9.0
  9
$UNITMODE
 70
     0
  9
$VISRETAIN
 70
     1
  9
$PLINEGEN
 70
     0
  9
$PSLTSCALE
 70
     1
  9
$TREEDEPTH
 70
  3020
  9
$PICKSTYLE
 70
     1
  9
$CMLSTYLE
  2
STANDARD
  9
$CMLJUST
 70
     0
  9
$CMLSCALE
 40
1.0
  9
$PROXYGRAPHICS
 70
     1
  9
$MEASUREMENT
 70
     0
  0
ENDSEC
  0
SECTION
  2
CLASSES
  0
CLASS
  1
ACDBDICTIONARYWDFLT
  2
AcDbDictionaryWithDefault
  3
ObjectDBX Classes
 90
        0
280
     0
281
     0
  0
CLASS
  1
XRECORD
  2
AcDbXrecord
  3
AutoCAD 2000
 90
        0
280
     0
281
     0
  0
CLASS
  1
LWPOLYLINE
  2
AcDbPolyline
  3
AutoCAD 2000
 90
        0
280
     0
281
     1
  0
CLASS
  1
HATCH
  2
AcDbHatch
  3
AutoCAD 2000
 90
        0
280
     0
281
     1
  0
CLASS
  1
ACDBPLACEHOLDER
  2
AcDbPlaceHolder
  3
ObjectDBX Classes
 90
        0
280
     0
281
     0
  0
CLASS
  1
LAYOUT
  2
AcDbLayout
  3
ObjectDBX Classes
 90
        0
280
     0
281
     0
  0
ENDSEC
  0
SECTION
  2
TABLES
  0
TABLE
  2
VPORT
  5
8
330
0
100
AcDbSymbolTable
 70
     2
  0
VPORT
  5
29
102
{ACAD_XDICTIONARY
360
CC
102
}
330
8
100
AcDbSymbolTableRecord
100
AcDbViewportTableRecord
  2
*ACTIVE
 70
     0
 10
0.0
 20
0.0
 11
1.0
 21
1.0
 12
10.42990654205607
 22
4.5
 13
0.0
 23
0.0
 14
0.5
 24
0.5
 15
0.5
 25
0.5
 16
0.0
 26
0.0
 36
1.0
 17
0.0
 27
0.0
 37
0.0
 40
9.0
 41
1.972972972850329
 42
50.0
 43
0.0
 44
0.0
 50
0.0
 51
0.0
 71
     0
 72
   100
 73
     1
 74
     3
 75
     0
 76
     0
 77
     0
 78
     0
  0
ENDTAB
  0
TABLE
  2
LTYPE
  5
5
330
0
100
AcDbSymbolTable
 70
     1
  0
LTYPE
  5
14
330
5
100
AcDbSymbolTableRecord
100
AcDbLinetypeTableRecord
  2
BYBLOCK
 70
     0
  3

 72
    65
 73
     0
 40
0.0
  0
LTYPE
  5
15
330
5
100
AcDbSymbolTableRecord
100
AcDbLinetypeTableRecord
  2
BYLAYER
 70
     0
  3

 72
    65
 73
     0
 40
0.0
  0
LTYPE
  5
16
330
5
100
AcDbSymbolTableRecord
100
AcDbLinetypeTableRecord
  2
CONTINUOUS
 70
     0
  3
Solid line
 72
    65
 73
     0
 40
0.0
  0
ENDTAB
  0
TABLE
  2
LAYER
  5
2
330
0
100
AcDbSymbolTable
 70
     2
  0
LAYER
  5
10
330
2
100
AcDbSymbolTableRecord
100
AcDbLayerTableRecord
  2
0
 70
     0
 62
     7
  6
CONTINUOUS
  0
LAYER
  5
2B
330
2
100
AcDbSymbolTableRecord
100
AcDbLayerTableRecord
  2
LAYER_1
 70
     0
 62
     7
  6
CONTINUOUS
  0
ENDTAB
  0
TABLE
  2
STYLE
  5
3
330
0
100
AcDbSymbolTable
 70
     1
  0
STYLE
  5
11
330
3
100
AcDbSymbolTableRecord
100
AcDbTextStyleTableRecord
  2
STANDARD
 70
     0
 40
0.0
 41
1.0
 50
0.0
 71
     0
 42
0.2
  3
txt
  4

  0
ENDTAB
  0
TABLE
  2
VIEW
  5
6
330
0
100
AcDbSymbolTable
 70
     0
  0
ENDTAB
  0
TABLE
  2
UCS
  5
7
330
0
100
AcDbSymbolTable
 70
     0
  0
ENDTAB
  0
TABLE
  2
APPID
  5
9
330
0
100
AcDbSymbolTable
 70
     2
  0
APPID
  5
12
330
9
100
AcDbSymbolTableRecord
100
AcDbRegAppTableRecord
  2
ACAD
 70
     0
  0
APPID
  5
2A
330
9
100
AcDbSymbolTableRecord
100
AcDbRegAppTableRecord
  2
ODA
 70
     0
  0
ENDTAB
  0
TABLE
  2
DIMSTYLE
  5
A
330
0
100
AcDbSymbolTable
 70
     1
  0
DIMSTYLE
105
27
330
A
100
AcDbSymbolTableRecord
100
AcDbDimStyleTableRecord
  2
STANDARD
 70
     0
  3

  4

  5

  6

  7

 40
1.0
 41
0.18
 42
0.0625
 43
0.38
 44
0.18
 45
0.0
 46
0.0
 47
0.0
 48
0.0
140
0.18
141
0.09
142
0.0
143
25.4
144
1.0
145
0.0
146
1.0
147
0.09
 71
     0
 72
     0
 73
     1
 74
     1
 75
     0
 76
     0
 77
     0
 78
     0
170
     0
171
     2
172
     0
173
     0
174
     0
175
     0
176
     0
177
     0
178
     0
270
     2
271
     4
272
     4
273
     2
274
     2
340
11
275
     0
280
     0
281
     0
282
     0
283
     1
284
     0
285
     0
286
     0
287
     3
288
     0
  0
ENDTAB
  0
TABLE
  2
BLOCK_RECORD
  5
1
330
0
100
AcDbSymbolTable
 70
     1
  0
BLOCK_RECORD
  5
1F
330
1
100
AcDbSymbolTableRecord
100
AcDbBlockTableRecord
  2
*MODEL_SPACE
  0
BLOCK_RECORD
  5
1B
330
1
100
AcDbSymbolTableRecord
100
AcDbBlockTableRecord
  2
*PAPER_SPACE
  0
ENDTAB
  0
ENDSEC
  0
SECTION
  2
BLOCKS
  0
BLOCK
  5
20
330
1F
100
AcDbEntity
  8
0
100
AcDbBlockBegin
  2
*MODEL_SPACE
 70
     0
 71
     0
 10
0.0
 20
0.0
 30
0.0
  3
*MODEL_SPACE
  1

  0
ENDBLK
  5
21
330
1F
100
AcDbEntity
  8
0
100
AcDbBlockEnd
  0
BLOCK
  5
1C
330
1B
100
AcDbEntity
 67
     1
  8
0
100
AcDbBlockBegin
  2
*PAPER_SPACE
 70
     0
 71
     0
 10
0.0
 20
0.0
 30
0.0
  3
*PAPER_SPACE
  1

  0
ENDBLK
  5
1D
330
1B
100
AcDbEntity
 67
     1
  8
0
100
AcDbBlockEnd
  0
ENDSEC
  0
SECTION
  2
ENTITIES
  0
SPLINE
  5
2C
330
1F
100
AcDbEntity
  8
LAYER_1
 62
   250
100
AcDbSpline
210
0.0
220
0.0
230
1.0
 70
    11
 71
     3
 72
    20
 73
    16
 74
     0
 42
0.0000000001
 43
0.0000000001
 40
0.0
 40
0.0
 40
0.0
 40
0.0
 40
0.25
 40
0.25
 40
0.25
 40
0.25
 40
0.5
 40
0.5
 40
0.5
 40
0.5
 40
0.75
 40
0.75
 40
0.75
 40
0.75
 40
1.0
 40
1.0
 40
1.0
 40
1.0
 10
-0.8515118110236221
 20
3.603051181102362
 30
0.0
 10
-0.412248031496063
 20
4.042314960629922
 30
0.0
 10
0.3002165354330709
 20
4.042314960629922
 30
0.0
 10
0.7394803149606299
 20
3.603051181102362
 30
0.0
 10
0.7394803149606299
 20
3.603051181102362
 30
0.0
 10
0.7394803149606299
 20
3.603051181102362
 30
0.0
 10
0.2126141732283465
 20
3.076267716535433
 30
0.0
 10
0.2126141732283465
 20
3.076267716535433
 30
0.0
 10
0.2126141732283465
 20
3.076267716535433
 30
0.0
 10
0.0661929133858268
 20
3.222688976377953
 30
0.0
 10
-0.1712913385826772
 20
3.222688976377953
 30
0.0
 10
-0.3177125984251968
 20
3.076267716535433
 30
0.0
 10
-0.3177125984251968
 20
3.076267716535433
 30
0.0
 10
-0.3177125984251968
 20
3.076267716535433
 30
0.0
 10
-0.8515118110236221
 20
3.603051181102362
 30
0.0
 10
-0.8515118110236221
 20
3.603051181102362
 30
0.0
  0
SPLINE
  5
2D
330
1F
100
AcDbEntity
  8
LAYER_1
 62
   251
100
AcDbSpline
210
0.0
220
0.0
230
1.0
 70
    11
 71
     3
 72
    20
 73
    16
 74
     0
 42
0.0000000001
 43
0.0000000001
 40
0.0
 40
0.0
 40
0.0
 40
0.0
 40
0.25
 40
0.25
 40
0.25
 40
0.25
 40
0.5
 40
0.5
 40
0.5
 40
0.5
 40
0.75
 40
0.75
 40
0.75
 40
0.75
 40
1.0
 40
1.0
 40
1.0
 40
1.0
 10
-0.8179330708661418
 20
1.11042125984252
 30
0.0
 10
-0.8179330708661418
 20
1.11042125984252
 30
0.0
 10
-0.1673346456692914
 20
1.474551181102362
 30
0.0
 10
-0.1673346456692914
 20
1.474551181102362
 30
0.0
 10
-0.1673346456692914
 20
1.474551181102362
 30
0.0
 10
-0.1673346456692914
 20
1.474551181102362
 30
0.0
 10
-0.1178661417322835
 20
1.499
 30
0.0
 10
-0.1178661417322835
 20
1.499
 30
0.0
 10
-0.1178661417322835
 20
1.499
 30
0.0
 10
-0.1178661417322835
 20
1.499
 30
0.0
 10
-0.7684645669291339
 20
1.134870078740158
 30
0.0
 10
-0.7684645669291339
 20
1.134870078740158
 30
0.0
 10
-0.7684645669291339
 20
1.134870078740158
 30
0.0
 10
-0.7684645669291339
 20
1.134870078740158
 30
0.0
 10
-0.8179330708661418
 20
1.11042125984252
 30
0.0
 10
-0.8179330708661418
 20
1.11042125984252
 30
0.0
  0
SPLINE
  5
2E
330
1F
100
AcDbEntity
  8
LAYER_1
 62
     8
100
AcDbSpline
210
0.0
220
0.0
230
1.0
 70
    11
 71
     3
 72
    20
 73
    16
 74
     0
 42
0.0000000001
 43
0.0000000001
 40
0.0
 40
0.0
 40
0.0
 40
0.0
 40
0.25
 40
0.25
 40
0.25
 40
0.25
 40
0.5
 40
0.5
 40
0.5
 40
0.5
 40
0.75
 40
0.75
 40
0.75
 40
0.75
 40
1.0
 40
1.0
 40
1.0
 40
1.0
 10
-0.7684645669291339
 20
1.134870078740158
 30
0.0
 10
-0.7684645669291339
 20
1.134870078740158
 30
0.0
 10
-0.1178661417322835
 20
1.499
 30
0.0
 10
-0.1178661417322835
 20
1.499
 30
0.0
 10
-0.1178661417322835
 20
1.499
 30
0.0
 10
-0.1178661417322835
 20
1.499
 30
0.0
 10
-0.067503937007874
 20
1.52088188976378
 30
0.0
 10
-0.067503937007874
 20
1.52088188976378
 30
0.0
 10
-0.067503937007874
 20
1.52088188976378
 30
0.0
 10
-0.067503937007874
 20
1.52088188976378
 30
0.0
 10
-0.7181023622047245
 20
1.156751968503937
 30
0.0
 10
-0.7181023622047245
 20
1.156751968503937
 30
0.0
 10
-0.7181023622047245
 20
1.156751968503937
 30
0.0
 10
-0.7181023622047245
 20
1.156751968503937
 30
0.0
 10
-0.7684645669291339
 20
1.134870078740158
 30
0.0
 10
-0.7684645669291339
 20
1.134870078740158
 30
0.0
  0
SPLINE
  5
2F
330
1F
100
AcDbEntity
  8
LAYER_1
 62
   252
100
AcDbSpline
210
0.0
220
0.0
230
1.0
 70
    11
 71
     3
 72
    20
 73
    16
 74
     0
 42
0.0000000001
 43
0.0000000001
 40
0.0
 40
0.0
 40
0.0
 40
0.0
 40
0.25
 40
0.25
 40
0.25
 40
0.25
 40
0.5
 40
0.5
 40
0.5
 40
0.5
 40
0.75
 40
0.75
 40
0.75
 40
0.75
 40
1.0
 40
1.0
 40
1.0
 40
1.0
 10
-0.7181023622047245
 20
1.156751968503937
 30
0.0
 10
-0.7181023622047245
 20
1.156751968503937
 30
0.0
 10
-0.067503937007874
 20
1.52088188976378
 30
0.0
 10
-0.067503937007874
 20
1.52088188976378
 30
0.0
 10
-0.067503937007874
 20
1.52088188976378
 30
0.0
 10
-0.067503937007874
 20
1.52088188976378
 30
0.0
 10
-0.0163307086614173
 20
1.540181102362205
 30
0.0
 10
-0.0163307086614173
 20
1.540181102362205
 30
0.0
 10
-0.0163307086614173
 20
1.540181102362205
 30
0.0
 10
-0.0163307086614173
 20
1.540181102362205
 30
0.0
 10
-0.6669291338582677
 20
1.176051181102362
 30
0.0
 10
-0.6669291338582677
 20
1.176051181102362
 30
0.0
 10
-0.6669291338582677
 20
1.176051181102362
 30
0.0
 10
-0.6669291338582677
 20
1.176051181102362
 30
0.0
 10
-0.7181023622047245
 20
1.156751968503937
 30
0.0
 10
-0.7181023622047245
 20
1.156751968503937
 30
0.0
  0
SPLINE
  5
30
330
1F
100
AcDbEntity
  8
LAYER_1
 62
   252
100
AcDbSpline
210
0.0
220
0.0
230
1.0
 70
    11
 71
     3
 72
    20
 73
    16
 74
     0
 42
0.0000000001
 43
0.0000000001
 40
0.0
 40
0.0
 40
0.0
 40
0.0
 40
0.25
 40
0.25
 40
0.25
 40
0.25
 40
0.5
 40
0.5
 40
0.5
 40
0.5
 40
0.75
 40
0.75
 40
0.75
 40
0.75
 40
1.0
 40
1.0
 40
1.0
 40
1.0
 10
-0.6669291338582677
 20
1.176051181102362
 30
0.0
 10
-0.6669291338582677
 20
1.176051181102362
 30
0.0
 10
-0.0163307086614173
 20
1.540181102362205
 30
0.0
 10
-0.0163307086614173
 20
1.540181102362205
 30
0.0
 10
-0.0163307086614173
 20
1.540181102362205
 30
0.0
 10
-0.0163307086614173
 20
1.540181102362205
 30
0.0
 10
0.0355393700787402
 20
1.556913385826772
 30
0.0
 10
0.0355393700787402
 20
1.556913385826772
 30
0.0
 10
0.0355393700787402
 20
1.556913385826772
 30
0.0
 10
0.0355393700787402
 20
1.556913385826772
 30
0.0
 10
-0.6150590551181102
 20
1.192783464566929
 30
0.0
 10
-0.6150590551181102
 20
1.192783464566929
 30
0.0
 10
-0.6150590551181102
 20
1.192783464566929
 30
0.0
 10
-0.6150590551181102
 20
1.192783464566929
 30
0.0
 10
-0.6669291338582677
 20
1.176051181102362
 30
0.0
 10
-0.6669291338582677
 20
1.176051181102362
 30
0.0
  0
SPLINE
  5
31
330
1F
100
AcDbEntity
  8
LAYER_1
 62
   252
100
AcDbSpline
210
0.0
220
0.0
230
1.0
 70
    11
 71
     3
 72
    20
 73
    16
 74
     0
 42
0.0000000001
 43
0.0000000001
 40
0.0
 40
0.0
 40
0.0
 40
0.0
 40
0.25
 40
0.25
 40
0.25
 40
0.25
 40
0.5
 40
0.5
 40
0.5
 40
0.5
 40
0.75
 40
0.75
 40
0.75
 40
0.75
 40
1.0
 40
1.0
 40
1.0
 40
1.0
 10
-0.6150590551181102
 20
1.192783464566929
 30
0.0
 10
-0.6150590551181102
 20
1.192783464566929
 30
0.0
 10
0.0355393700787402
 20
1.556913385826772
 30
0.0
 10
0.0355393700787402
 20
1.556913385826772
 30
0.0
 10
0.0355393700787402
 20
1.556913385826772
 30
0.0
 10
0.0355393700787402
 20
1.556913385826772
 30
0.0
 10
0.088011811023622
 20
1.571066929133858
 30
0.0
 10
0.088011811023622
 20
1.571066929133858
 30
0.0
 10
0.088011811023622
 20
1.571066929133858
 30
0.0
 10
0.088011811023622
 20
1.571066929133858
 30
0.0
 10
-0.5625866141732284
 20
1.206937007874016
 30
0.0
 10
-0.5625866141732284
 20
1.206937007874016
 30
0.0
 10
-0.5625866141732284
 20
1.206937007874016
 30
0.0
 10
-0.5625866141732284
 20
1.206937007874016
 30
0.0
 10
-0.6150590551181102
 20
1.192783464566929
 30
0.0
 10
-0.6150590551181102
 20
1.192783464566929
 30
0.0
  0
SPLINE
  5
32
330
1F
100
AcDbEntity
  8
LAYER_1
 62
   252
100
AcDbSpline
210
0.0
220
0.0
230
1.0
 70
    11
 71
     3
 72
    20
 73
    16
 74
     0
 42
0.0000000001
 43
0.0000000001
 40
0.0
 40
0.0
 40
0.0
 40
0.0
 40
0.25
 40
0.25
 40
0.25
 40
0.25
 40
0.5
 40
0.5
 40
0.5
 40
0.5
 40
0.75
 40
0.75
 40
0.75
 40
0.75
 40
1.0
 40
1.0
 40
1.0
 40
1.0
 10
-0.5625866141732284
 20
1.206937007874016
 30
0.0
 10
-0.5625866141732284
 20
1.206937007874016
 30
0.0
 10
0.088011811023622
 20
1.571066929133858
 30
0.0
 10
0.088011811023622
 20
1.571066929133858
 30
0.0
 10
0.088011811023622
 20
1.571066929133858
 30
0.0
 10
0.088011811023622
 20
1.571066929133858
 30
0.0
 10
0.1409803149606299
 20
1.582653543307087
 30
0.0
 10
0.1409803149606299
 20
1.582653543307087
 30
0.0
 10
0.1409803149606299
 20
1.582653543307087
 30
0.0
 10
0.1409803149606299
 20
1.582653543307087
 30
0.0
 10
-0.5096181102362205
 20
1.218523622047244
 30
0.0
 10
-0.5096181102362205
 20
1.218523622047244
 30
0.0
 10
-0.5096181102362205
 20
1.218523622047244
 30
0.0
 10
-0.5096181102362205
 20
1.218523622047244
 30
0.0
 10
-0.5625866141732284
 20
1.206937007874016
 30
0.0
 10
-0.5625866141732284
 20
1.206937007874016
 30
0.0
  0
SPLINE
  5
33
330
1F
100
AcDbEntity
  8
LAYER_1
 62
   252
100
AcDbSpline
210
0.0
220
0.0
230
1.0
 70
    11
 71
     3
 72
    20
 73
    16
 74
     0
 42
0.0000000001
 43
0.0000000001
 40
0.0
 40
0.0
 40
0.0
 40
0.0
 40
0.25
 40
0.25
 40
0.25
 40
0.25
 40
0.5
 40
0.5
 40
0.5
 40
0.5
 40
0.75
 40
0.75
 40
0.75
 40
0.75
 40
1.0
 40
1.0
 40
1.0
 40
1.0
 10
-0.5096181102362205
 20
1.218523622047244
 30
0.0
 10
-0.5096181102362205
 20
1.218523622047244
 30
0.0
 10
0.1409803149606299
 20
1.582653543307087
 30
0.0
 10
0.1409803149606299
 20
1.582653543307087
 30
0.0
 10
0.1409803149606299
 20
1.582653543307087
 30
0.0
 10
0.1409803149606299
 20
1.582653543307087
 30
0.0
 10
0.1943503937007874
 20
1.591661417322835
 30
0.0
 10
0.1943503937007874
 20
1.591661417322835
 30
0.0
 10
0.1943503937007874
 20
1.591661417322835
 30
0.0
 10
0.1943503937007874
 20
1.591661417322835
 30
0.0
 10
-0.456248031496063
 20
1.227531496062992
 30
0.0
 10
-0.456248031496063
 20
1.227531496062992
 30
0.0
 10
-0.456248031496063
 20
1.227531496062992
 30
0.0
 10
-0.456248031496063
 20
1.227531496062992
 30
0.0
 10
-0.5096181102362205
 20
1.218523622047244
 30
0.0
 10
-0.5096181102362205
 20
1.218523622047244
 30
0.0
  0
SPLINE
  5
34
330
1F
100
AcDbEntity
  8
LAYER_1
 62
   252
100
AcDbSpline
210
0.0
220
0.0
230
1.0
 70
    11
 71
     3
 72
    20
 73
    16
 74
     0
 42
0.0000000001
 43
0.0000000001
 40
0.0
 40
0.0
 40
0.0
 40
0.0
 40
0.25
 40
0.25
 40
0.25
 40
0.25
 40
0.5
 40
0.5
 40
0.5
 40
0.5
 40
0.75
 40
0.75
 40
0.75
 40
0.75
 40
1.0
 40
1.0
 40
1.0
 40
1.0
 10
-0.456248031496063
 20
1.227531496062992
 30
0.0
 10
-0.456248031496063
 20
1.227531496062992
 30
0.0
 10
0.1943503937007874
 20
1.591661417322835
 30
0.0
 10
0.1943503937007874
 20
1.591661417322835
 30
0.0
 10
0.1943503937007874
 20
1.591661417322835
 30
0.0
 10
0.1943503937007874
 20
1.591661417322835
 30
0.0
 10
0.2480196850393701
 20
1.59809842519685
 30
0.0
 10
0.2480196850393701
 20
1.59809842519685
 30
0.0
 10
0.2480196850393701
 20
1.59809842519685
 30
0.0
 10
0.2480196850393701
 20
1.59809842519685
 30
0.0
 10
-0.4025787401574804
 20
1.233968503937008
 30
0.0
 10
-0.4025787401574804
 20
1.233968503937008
 30
0.0
 10
-0.4025787401574804
 20
1.233968503937008
 30
0.0
 10
-0.4025787401574804
 20
1.233968503937008
 30
0.0
 10
-0.456248031496063
 20
1.227531496062992
 30
0.0
 10
-0.456248031496063
 20
1.227531496062992
 30
0.0
  0
SPLINE
  5
35
330
1F
100
AcDbEntity
  8
LAYER_1
 62
   252
100
AcDbSpline
210
0.0
220
0.0
230
1.0
 70
    11
 71
     3
 72
    20
 73
    16
 74
     0
 42
0.0000000001
 43
0.0000000001
 40
0.0
 40
0.0
 40
0.0
 40
0.0
 40
0.25
 40
0.25
 40
0.25
 40
0.25
 40
0.5
 40
0.5
 40
0.5
 40
0.5
 40
0.75
 40
0.75
 40
0.75
 40
0.75
 40
1.0
 40
1.0
 40
1.0
 40
1.0
 10
-0.4025787401574804
 20
1.233968503937008
 30
0.0
 10
-0.4025787401574804
 20
1.233968503937008
 30
0.0
 10
0.2480196850393701
 20
1.59809842519685
 30
0.0
 10
0.2480196850393701
 20
1.59809842519685
 30
0.0
 10
0.2480196850393701
 20
1.59809842519685
 30
0.0
 10
0.2480196850393701
 20
1.59809842519685
 30
0.0
 10
0.3018937007874016
 20
1.60196062992126
 30
0.0
 10
0.3018937007874016
 20
1.60196062992126
 30
0.0
 10
0.3018937007874016
 20
1.60196062992126
 30
0.0
 10
0.3018937007874016
 20
1.60196062992126
 30
0.0
 10
-0.3487047244094488
 20
1.237830708661417
 30
0.0
 10
-0.3487047244094488
 20
1.237830708661417
 30
0.0
 10
-0.3487047244094488
 20
1.237830708661417
 30
0.0
 10
-0.3487047244094488
 20
1.237830708661417
 30
0.0
 10
-0.4025787401574804
 20
1.233968503937008
 30
0.0
 10
-0.4025787401574804
 20
1.233968503937008
 30
0.0
  0
SPLINE
  5
36
330
1F
100
AcDbEntity
  8
LAYER_1
 62
   252
100
AcDbSpline
210
0.0
220
0.0
230
1.0
 70
    11
 71
     3
 72
    20
 73
    16
 74
     0
 42
0.0000000001
 43
0.0000000001
 40
0.0
 40
0.0
 40
0.0
 40
0.0
 40
0.25
 40
0.25
 40
0.25
 40
0.25
 40
0.5
 40
0.5
 40
0.5
 40
0.5
 40
0.75
 40
0.75
 40
0.75
 40
0.75
 40
1.0
 40
1.0
 40
1.0
 40
1.0
 10
-0.3487047244094488
 20
1.237830708661417
 30
0.0
 10
-0.3487047244094488
 20
1.237830708661417
 30
0.0
 10
0.3018937007874016
 20
1.60196062992126
 30
0.0
 10
0.3018937007874016
 20
1.60196062992126
 30
0.0
 10
0.3018937007874016
 20
1.60196062992126
 30
0.0
 10
0.3018937007874016
 20
1.60196062992126
 30
0.0
 10
0.3558543307086614
 20
1.603248031496063
 30
0.0
 10
0.3558543307086614
 20
1.603248031496063
 30
0.0
 10
0.3558543307086614
 20
1.603248031496063
 30
0.0
 10
0.3558543307086614
 20
1.603248031496063
 30
0.0
 10
-0.294744094488189
 20
1.239118110236221
 30
0.0
 10
-0.294744094488189
 20
1.239118110236221
 30
0.0
 10
-0.294744094488189
 20
1.239118110236221
 30
0.0
 10
-0.294744094488189
 20
1.239118110236221
 30
0.0
 10
-0.3487047244094488
 20
1.237830708661417
 30
0.0
 10
-0.3487047244094488
 20
1.237830708661417
 30
0.0
  0
SPLINE
  5
37
330
1F
100
AcDbEntity
  8
LAYER_1
 62
   252
100
AcDbSpline
210
0.0
220
0.0
230
1.0
 70
    11
 71
     3
 72
    20
 73
    16
 74
     0
 42
0.0000000001
 43
0.0000000001
 40
0.0
 40
0.0
 40
0.0
 40
0.0
 40
0.25
 40
0.25
 40
0.25
 40
0.25
 40
0.5
 40
0.5
 40
0.5
 40
0.5
 40
0.75
 40
0.75
 40
0.75
 40
0.75
 40
1.0
 40
1.0
 40
1.0
 40
1.0
 10
-0.294744094488189
 20
1.239118110236221
 30
0.0
 10
-0.294744094488189
 20
1.239118110236221
 30
0.0
 10
0.3558543307086614
 20
1.603248031496063
 30
0.0
 10
0.3558543307086614
 20
1.603248031496063
 30
0.0
 10
0.3558543307086614
 20
1.603248031496063
 30
0.0
 10
0.3558543307086614
 20
1.603248031496063
 30
0.0
 10
0.4098267716535433
 20
1.60196062992126
 30
0.0
 10
0.4098267716535433
 20
1.60196062992126
 30
0.0
 10
0.4098267716535433
 20
1.60196062992126
 30
0.0
 10
0.4098267716535433
 20
1.60196062992126
 30
0.0
 10
-0.2407716535433071
 20
1.237830708661417
 30
0.0
 10
-0.2407716535433071
 20
1.237830708661417
 30
0.0
 10
-0.2407716535433071
 20
1.237830708661417
 30
0.0
 10
-0.2407716535433071
 20
1.237830708661417
 30
0.0
 10
-0.294744094488189
 20
1.239118110236221
 30
0.0
 10
-0.294744094488189
 20
1.239118110236221
 30
0.0
  0
SPLINE
  5
38
330
1F
100
AcDbEntity
  8
LAYER_1
 62
   253
100
AcDbSpline
210
0.0
220
0.0
230
1.0
 70
    11
 71
     3
 72
    20
 73
    16
 74
     0
 42
0.0000000001
 43
0.0000000001
 40
0.0
 40
0.0
 40
0.0
 40
0.0
 40
0.25
 40
0.25
 40
0.25
 40
0.25
 40
0.5
 40
0.5
 40
0.5
 40
0.5
 40
0.75
 40
0.75
 40
0.75
 40
0.75
 40
1.0
 40
1.0
 40
1.0
 40
1.0
 10
-0.2407716535433071
 20
1.237830708661417
 30
0.0
 10
-0.2407716535433071
 20
1.237830708661417
 30
0.0
 10
0.4098267716535433
 20
1.60196062992126
 30
0.0
 10
0.4098267716535433
 20
1.60196062992126
 30
0.0
 10
0.4098267716535433
 20
1.60196062992126
 30
0.0
 10
0.4098267716535433
 20
1.60196062992126
 30
0.0
 10
0.4636968503937008
 20
1.59809842519685
 30
0.0
 10
0.4636968503937008
 20
1.59809842519685
 30
0.0
 10
0.4636968503937008
 20
1.59809842519685
 30
0.0
 10
0.4636968503937008
 20
1.59809842519685
 30
0.0
 10
-0.1869015748031496
 20
1.233968503937008
 30
0.0
 10
-0.1869015748031496
 20
1.233968503937008
 30
0.0
 10
-0.1869015748031496
 20
1.233968503937008
 30
0.0
 10
-0.1869015748031496
 20
1.233968503937008
 30
0.0
 10
-0.2407716535433071
 20
1.237830708661417
 30
0.0
 10
-0.2407716535433071
 20
1.237830708661417
 30
0.0
  0
SPLINE
  5
39
330
1F
100
AcDbEntity
  8
LAYER_1
 62
   253
100
AcDbSpline
210
0.0
220
0.0
230
1.0
 70
    11
 71
     3
 72
    20
 73
    16
 74
     0
 42
0.0000000001
 43
0.0000000001
 40
0.0
 40
0.0
 40
0.0
 40
0.0
 40
0.25
 40
0.25
 40
0.25
 40
0.25
 40
0.5
 40
0.5
 40
0.5
 40
0.5
 40
0.75
 40
0.75
 40
0.75
 40
0.75
 40
1.0
 40
1.0
 40
1.0
 40
1.0
 10
-0.1869015748031496
 20
1.233968503937008
 30
0.0
 10
-0.1869015748031496
 20
1.233968503937008
 30
0.0
 10
0.4636968503937008
 20
1.59809842519685
 30
0.0
 10
0.4636968503937008
 20
1.59809842519685
 30
0.0
 10
0.4636968503937008
 20
1.59809842519685
 30
0.0
 10
0.4636968503937008
 20
1.59809842519685
 30
0.0
 10
0.5173700787401575
 20
1.591661417322835
 30
0.0
 10
0.5173700787401575
 20
1.591661417322835
 30
0.0
 10
0.5173700787401575
 20
1.591661417322835
 30
0.0
 10
0.5173700787401575
 20
1.591661417322835
 30
0.0
 10
-0.1332283464566929
 20
1.227531496062992
 30
0.0
 10
-0.1332283464566929
 20
1.227531496062992
 30
0.0
 10
-0.1332283464566929
 20
1.227531496062992
 30
0.0
 10
-0.1332283464566929
 20
1.227531496062992
 30
0.0
 10
-0.1869015748031496
 20
1.233968503937008
 30
0.0
 10
-0.1869015748031496
 20
1.233968503937008
 30
0.0
  0
SPLINE
  5
3A
330
1F
100
AcDbEntity
  8
LAYER_1
 62
   253
100
AcDbSpline
210
0.0
220
0.0
230
1.0
 70
    11
 71
     3
 72
    20
 73
    16
 74
     0
 42
0.0000000001
 43
0.0000000001
 40
0.0
 40
0.0
 40
0.0
 40
0.0
 40
0.25
 40
0.25
 40
0.25
 40
0.25
 40
0.5
 40
0.5
 40
0.5
 40
0.5
 40
0.75
 40
0.75
 40
0.75
 40
0.75
 40
1.0
 40
1.0
 40
1.0
 40
1.0
 10
-0.1332283464566929
 20
1.227531496062992
 30
0.0
 10
-0.1332283464566929
 20
1.227531496062992
 30
0.0
 10
0.5173700787401575
 20
1.591661417322835
 30
0.0
 10
0.5173700787401575
 20
1.591661417322835
 30
0.0
 10
0.5173700787401575
 20
1.591661417322835
 30
0.0
 10
0.5173700787401575
 20
1.591661417322835
 30
0.0
 10
0.570736220472441
 20
1.582653543307087
 30
0.0
 10
0.570736220472441
 20
1.582653543307087
 30
0.0
 10
0.570736220472441
 20
1.582653543307087
 30
0.0
 10
0.570736220472441
 20
1.582653543307087
 30
0.0
 10
-0.0798622047244095
 20
1.218523622047244
 30
0.0
 10
-0.0798622047244095
 20
1.218523622047244
 30
0.0
 10
-0.0798622047244095
 20
1.218523622047244
 30
0.0
 10
-0.0798622047244095
 20
1.218523622047244
 30
0.0
 10
-0.1332283464566929
 20
1.227531496062992
 30
0.0
 10
-0.1332283464566929
 20
1.227531496062992
 30
0.0
  0
SPLINE
  5
3B
330
1F
100
AcDbEntity
  8
LAYER_1
 62
   253
100
AcDbSpline
210
0.0
220
0.0
230
1.0
 70
    11
 71
     3
 72
    20
 73
    16
 74
     0
 42
0.0000000001
 43
0.0000000001
 40
0.0
 40
0.0
 40
0.0
 40
0.0
 40
0.25
 40
0.25
 40
0.25
 40
0.25
 40
0.5
 40
0.5
 40
0.5
 40
0.5
 40
0.75
 40
0.75
 40
0.75
 40
0.75
 40
1.0
 40
1.0
 40
1.0
 40
1.0
 10
-0.0798622047244095
 20
1.218523622047244
 30
0.0
 10
-0.0798622047244095
 20
1.218523622047244
 30
0.0
 10
0.570736220472441
 20
1.582653543307087
 30
0.0
 10
0.570736220472441
 20
1.582653543307087
 30
0.0
 10
0.570736220472441
 20
1.582653543307087
 30
0.0
 10
0.570736220472441
 20
1.582653543307087
 30
0.0
 10
0.6237047244094488
 20
1.571066929133858
 30
0.0
 10
0.6237047244094488
 20
1.571066929133858
 30
0.0
 10
0.6237047244094488
 20
1.571066929133858
 30
0.0
 10
0.6237047244094488
 20
1.571066929133858
 30
0.0
 10
-0.0268937007874016
 20
1.206937007874016
 30
0.0
 10
-0.0268937007874016
 20
1.206937007874016
 30
0.0
 10
-0.0268937007874016
 20
1.206937007874016
 30
0.0
 10
-0.0268937007874016
 20
1.206937007874016
 30
0.0
 10
-0.0798622047244095
 20
1.218523622047244
 30
0.0
 10
-0.0798622047244095
 20
1.218523622047244
 30
0.0
  0
SPLINE
  5
3C
330
1F
100
AcDbEntity
  8
LAYER_1
 62
   253
100
AcDbSpline
210
0.0
220
0.0
230
1.0
 70
    11
 71
     3
 72
    20
 73
    16
 74
     0
 42
0.0000000001
 43
0.0000000001
 40
0.0
 40
0.0
 40
0.0
 40
0.0
 40
0.25
 40
0.25
 40
0.25
 40
0.25
 40
0.5
 40
0.5
 40
0.5
 40
0.5
 40
0.75
 40
0.75
 40
0.75
 40
0.75
 40
1.0
 40
1.0
 40
1.0
 40
1.0
 10
-0.0268937007874016
 20
1.206937007874016
 30
0.0
 10
-0.0268937007874016
 20
1.206937007874016
 30
0.0
 10
0.6237047244094488
 20
1.571066929133858
 30
0.0
 10
0.6237047244094488
 20
1.571066929133858
 30
0.0
 10
0.6237047244094488
 20
1.571066929133858
 30
0.0
 10
0.6237047244094488
 20
1.571066929133858
 30
0.0
 10
0.6761692913385827
 20
1.556913385826772
 30
0.0
 10
0.6761692913385827
 20
1.556913385826772
 30
0.0
 10
0.6761692913385827
 20
1.556913385826772
 30
0.0
 10
0.6761692913385827
 20
1.556913385826772
 30
0.0
 10
0.0255708661417323
 20
1.192783464566929
 30
0.0
 10
0.0255708661417323
 20
1.192783464566929
 30
0.0
 10
0.0255708661417323
 20
1.192783464566929
 30
0.0
 10
0.0255708661417323
 20
1.192783464566929
 30
0.0
 10
-0.0268937007874016
 20
1.206937007874016
 30
0.0
 10
-0.0268937007874016
 20
1.206937007874016
 30
0.0
  0
SPLINE
  5
3D
330
1F
100
AcDbEntity
  8
LAYER_1
 62
   253
100
AcDbSpline
210
0.0
220
0.0
230
1.0
 70
    11
 71
     3
 72
    20
 73
    16
 74
     0
 42
0.0000000001
 43
0.0000000001
 40
0.0
 40
0.0
 40
0.0
 40
0.0
 40
0.25
 40
0.25
 40
0.25
 40
0.25
 40
0.5
 40
0.5
 40
0.5
 40
0.5
 40
0.75
 40
0.75
 40
0.75
 40
0.75
 40
1.0
 40
1.0
 40
1.0
 40
1.0
 10
0.0255708661417323
 20
1.192783464566929
 30
0.0
 10
0.0255708661417323
 20
1.192783464566929
 30
0.0
 10
0.6761692913385827
 20
1.556913385826772
 30
0.0
 10
0.6761692913385827
 20
1.556913385826772
 30
0.0
 10
0.6761692913385827
 20
1.556913385826772
 30
0.0
 10
0.6761692913385827
 20
1.556913385826772
 30
0.0
 10
0.7280354330708662
 20
1.540181102362205
 30
0.0
 10
0.7280354330708662
 20
1.540181102362205
 30
0.0
 10
0.7280354330708662
 20
1.540181102362205
 30
0.0
 10
0.7280354330708662
 20
1.540181102362205
 30
0.0
 10
0.0774370078740158
 20
1.176051181102362
 30
0.0
 10
0.0774370078740158
 20
1.176051181102362
 30
0.0
 10
0.0774370078740158
 20
1.176051181102362
 30
0.0
 10
0.0774370078740158
 20
1.176051181102362
 30
0.0
 10
0.0255708661417323
 20
1.192783464566929
 30
0.0
 10
0.0255708661417323
 20
1.192783464566929
 30
0.0
  0
SPLINE
  5
3E
330
1F
100
AcDbEntity
  8
LAYER_1
 62
   253
100
AcDbSpline
210
0.0
220
0.0
230
1.0
 70
    11
 71
     3
 72
    20
 73
    16
 74
     0
 42
0.0000000001
 43
0.0000000001
 40
0.0
 40
0.0
 40
0.0
 40
0.0
 40
0.25
 40
0.25
 40
0.25
 40
0.25
 40
0.5
 40
0.5
 40
0.5
 40
0.5
 40
0.75
 40
0.75
 40
0.75
 40
0.75
 40
1.0
 40
1.0
 40
1.0
 40
1.0
 10
0.0774370078740158
 20
1.176051181102362
 30
0.0
 10
0.0774370078740158
 20
1.176051181102362
 30
0.0
 10
0.7280354330708662
 20
1.540181102362205
 30
0.0
 10
0.7280354330708662
 20
1.540181102362205
 30
0.0
 10
0.7280354330708662
 20
1.540181102362205
 30
0.0
 10
0.7280354330708662
 20
1.540181102362205
 30
0.0
 10
0.7792086614173228
 20
1.52088188976378
 30
0.0
 10
0.7792086614173228
 20
1.52088188976378
 30
0.0
 10
0.7792086614173228
 20
1.52088188976378
 30
0.0
 10
0.7792086614173228
 20
1.52088188976378
 30
0.0
 10
0.1286102362204724
 20
1.156751968503937
 30
0.0
 10
0.1286102362204724
 20
1.156751968503937
 30
0.0
 10
0.1286102362204724
 20
1.156751968503937
 30
0.0
 10
0.1286102362204724
 20
1.156751968503937
 30
0.0
 10
0.0774370078740158
 20
1.176051181102362
 30
0.0
 10
0.0774370078740158
 20
1.176051181102362
 30
0.0
  0
SPLINE
  5
3F
330
1F
100
AcDbEntity
  8
LAYER_1
 62
   253
100
AcDbSpline
210
0.0
220
0.0
230
1.0
 70
    11
 71
     3
 72
    20
 73
    16
 74
     0
 42
0.0000000001
 43
0.0000000001
 40
0.0
 40
0.0
 40
0.0
 40
0.0
 40
0.25
 40
0.25
 40
0.25
 40
0.25
 40
0.5
 40
0.5
 40
0.5
 40
0.5
 40
0.75
 40
0.75
 40
0.75
 40
0.75
 40
1.0
 40
1.0
 40
1.0
 40
1.0
 10
0.1286102362204724
 20
1.156751968503937
 30
0.0
 10
0.1286102362204724
 20
1.156751968503937
 30
0.0
 10
0.7792086614173228
 20
1.52088188976378
 30
0.0
 10
0.7792086614173228
 20
1.52088188976378
 30
0.0
 10
0.7792086614173228
 20
1.52088188976378
 30
0.0
 10
0.7792086614173228
 20
1.52088188976378
 30
0.0
 10
0.8295708661417324
 20
1.499
 30
0.0
 10
0.8295708661417324
 20
1.499
 30
0.0
 10
0.8295708661417324
 20
1.499
 30
0.0
 10
0.8295708661417324
 20
1.499
 30
0.0
 10
0.1789724409448819
 20
1.134870078740158
 30
0.0
 10
0.1789724409448819
 20
1.134870078740158
 30
0.0
 10
0.1789724409448819
 20
1.134870078740158
 30
0.0
 10
0.1789724409448819
 20
1.134870078740158
 30
0.0
 10
0.1286102362204724
 20
1.156751968503937
 30
0.0
 10
0.1286102362204724
 20
1.156751968503937
 30
0.0
  0
SPLINE
  5
40
330
1F
100
AcDbEntity
  8
LAYER_1
 62
   253
100
AcDbSpline
210
0.0
220
0.0
230
1.0
 70
    11
 71
     3
 72
    20
 73
    16
 74
     0
 42
0.0000000001
 43
0.0000000001
 40
0.0
 40
0.0
 40
0.0
 40
0.0
 40
0.25
 40
0.25
 40
0.25
 40
0.25
 40
0.5
 40
0.5
 40
0.5
 40
0.5
 40
0.75
 40
0.75
 40
0.75
 40
0.75
 40
1.0
 40
1.0
 40
1.0
 40
1.0
 10
0.1789724409448819
 20
1.134870078740158
 30
0.0
 10
0.1789724409448819
 20
1.134870078740158
 30
0.0
 10
0.8295708661417324
 20
1.499
 30
0.0
 10
0.8295708661417324
 20
1.499
 30
0.0
 10
0.8295708661417324
 20
1.499
 30
0.0
 10
0.8295708661417324
 20
1.499
 30
0.0
 10
0.8790393700787402
 20
1.474551181102362
 30
0.0
 10
0.8790393700787402
 20
1.474551181102362
 30
0.0
 10
0.8790393700787402
 20
1.474551181102362
 30
0.0
 10
0.8790393700787402
 20
1.474551181102362
 30
0.0
 10
0.2284409448818898
 20
1.11042125984252
 30
0.0
 10
0.2284409448818898
 20
1.11042125984252
 30
0.0
 10
0.2284409448818898
 20
1.11042125984252
 30
0.0
 10
0.2284409448818898
 20
1.11042125984252
 30
0.0
 10
0.1789724409448819
 20
1.134870078740158
 30
0.0
 10
0.1789724409448819
 20
1.134870078740158
 30
0.0
  0
SPLINE
  5
41
330
1F
100
AcDbEntity
  8
LAYER_1
 62
   253
100
AcDbSpline
210
0.0
220
0.0
230
1.0
 70
    11
 71
     3
 72
    20
 73
    16
 74
     0
 42
0.0000000001
 43
0.0000000001
 40
0.0
 40
0.0
 40
0.0
 40
0.0
 40
0.25
 40
0.25
 40
0.25
 40
0.25
 40
0.5
 40
0.5
 40
0.5
 40
0.5
 40
0.75
 40
0.75
 40
0.75
 40
0.75
 40
1.0
 40
1.0
 40
1.0
 40
1.0
 10
0.2284409448818898
 20
1.11042125984252
 30
0.0
 10
0.2284409448818898
 20
1.11042125984252
 30
0.0
 10
0.8790393700787402
 20
1.474551181102362
 30
0.0
 10
0.8790393700787402
 20
1.474551181102362
 30
0.0
 10
0.8790393700787402
 20
1.474551181102362
 30
0.0
 10
0.8790393700787402
 20
1.474551181102362
 30
0.0
 10
0.9275078740157481
 20
1.447527559055118
 30
0.0
 10
0.9275078740157481
 20
1.447527559055118
 30
0.0
 10
0.9275078740157481
 20
1.447527559055118
 30
0.0
 10
0.9275078740157481
 20
1.447527559055118
 30
0.0
 10
0.2769094488188977
 20
1.083397637795276
 30
0.0
 10
0.2769094488188977
 20
1.083397637795276
 30
0.0
 10
0.2769094488188977
 20
1.083397637795276
 30
0.0
 10
0.2769094488188977
 20
1.083397637795276
 30
0.0
 10
0.2284409448818898
 20
1.11042125984252
 30
0.0
 10
0.2284409448818898
 20
1.11042125984252
 30
0.0
  0
SPLINE
  5
42
330
1F
100
AcDbEntity
  8
LAYER_1
 62
   253
100
AcDbSpline
210
0.0
220
0.0
230
1.0
 70
    11
 71
     3
 72
    20
 73
    16
 74
     0
 42
0.0000000001
 43
0.0000000001
 40
0.0
 40
0.0
 40
0.0
 40
0.0
 40
0.25
 40
0.25
 40
0.25
 40
0.25
 40
0.5
 40
0.5
 40
0.5
 40
0.5
 40
0.75
 40
0.75
 40
0.75
 40
0.75
 40
1.0
 40
1.0
 40
1.0
 40
1.0
 10
0.2769094488188977
 20
1.083397637795276
 30
0.0
 10
0.2769094488188977
 20
1.083397637795276
 30
0.0
 10
0.9275078740157481
 20
1.447527559055118
 30
0.0
 10
0.9275078740157481
 20
1.447527559055118
 30
0.0
 10
0.9275078740157481
 20
1.447527559055118
 30
0.0
 10
0.9275078740157481
 20
1.447527559055118
 30
0.0
 10
0.9748779527559055
 20
1.417929133858268
 30
0.0
 10
0.9748779527559055
 20
1.417929133858268
 30
0.0
 10
0.9748779527559055
 20
1.417929133858268
 30
0.0
 10
0.9748779527559055
 20
1.417929133858268
 30
0.0
 10
0.3242795275590552
 20
1.053799212598425
 30
0.0
 10
0.3242795275590552
 20
1.053799212598425
 30
0.0
 10
0.3242795275590552
 20
1.053799212598425
 30
0.0
 10
0.3242795275590552
 20
1.053799212598425
 30
0.0
 10
0.2769094488188977
 20
1.083397637795276
 30
0.0
 10
0.2769094488188977
 20
1.083397637795276
 30
0.0
  0
SPLINE
  5
43
330
1F
100
AcDbEntity
  8
LAYER_1
 62
   253
100
AcDbSpline
210
0.0
220
0.0
230
1.0
 70
    11
 71
     3
 72
    20
 73
    16
 74
     0
 42
0.0000000001
 43
0.0000000001
 40
0.0
 40
0.0
 40
0.0
 40
0.0
 40
0.25
 40
0.25
 40
0.25
 40
0.25
 40
0.5
 40
0.5
 40
0.5
 40
0.5
 40
0.75
 40
0.75
 40
0.75
 40
0.75
 40
1.0
 40
1.0
 40
1.0
 40
1.0
 10
0.3242795275590552
 20
1.053799212598425
 30
0.0
 10
0.3242795275590552
 20
1.053799212598425
 30
0.0
 10
0.9748779527559055
 20
1.417929133858268
 30
0.0
 10
0.9748779527559055
 20
1.417929133858268
 30
0.0
 10
0.9748779527559055
 20
1.417929133858268
 30
0.0
 10
0.9748779527559055
 20
1.417929133858268
 30
0.0
 10
1.021043307086614
 20
1.385755905511811
 30
0.0
 10
1.021043307086614
 20
1.385755905511811
 30
0.0
 10
1.021043307086614
 20
1.385755905511811
 30
0.0
 10
1.021043307086614
 20
1.385755905511811
 30
0.0
 10
0.3704448818897638
 20
1.021625984251969
 30
0.0
 10
0.3704448818897638
 20
1.021625984251969
 30
0.0
 10
0.3704448818897638
 20
1.021625984251969
 30
0.0
 10
0.3704448818897638
 20
1.021625984251969
 30
0.0
 10
0.3242795275590552
 20
1.053799212598425
 30
0.0
 10
0.3242795275590552
 20
1.053799212598425
 30
0.0
  0
SPLINE
  5
44
330
1F
100
AcDbEntity
  8
LAYER_1
 62
   253
100
AcDbSpline
210
0.0
220
0.0
230
1.0
 70
    11
 71
     3
 72
    20
 73
    16
 74
     0
 42
0.0000000001
 43
0.0000000001
 40
0.0
 40
0.0
 40
0.0
 40
0.0
 40
0.25
 40
0.25
 40
0.25
 40
0.25
 40
0.5
 40
0.5
 40
0.5
 40
0.5
 40
0.75
 40
0.75
 40
0.75
 40
0.75
 40
1.0
 40
1.0
 40
1.0
 40
1.0
 10
0.3704448818897638
 20
1.021625984251969
 30
0.0
 10
0.3704448818897638
 20
1.021625984251969
 30
0.0
 10
1.021043307086614
 20
1.385755905511811
 30
0.0
 10
1.021043307086614
 20
1.385755905511811
 30
0.0
 10
1.021043307086614
 20
1.385755905511811
 30
0.0
 10
1.021043307086614
 20
1.385755905511811
 30
0.0
 10
1.065909448818898
 20
1.351011811023622
 30
0.0
 10
1.065909448818898
 20
1.351011811023622
 30
0.0
 10
1.065909448818898
 20
1.351011811023622
 30
0.0
 10
1.065909448818898
 20
1.351011811023622
 30
0.0
 10
0.4153110236220473
 20
0.9868818897637796
 30
0.0
 10
0.4153110236220473
 20
0.9868818897637796
 30
0.0
 10
0.4153110236220473
 20
0.9868818897637796
 30
0.0
 10
0.4153110236220473
 20
0.9868818897637796
 30
0.0
 10
0.3704448818897638
 20
1.021625984251969
 30
0.0
 10
0.3704448818897638
 20
1.021625984251969
 30
0.0
  0
SPLINE
  5
45
330
1F
100
AcDbEntity
  8
LAYER_1
 62
   253
100
AcDbSpline
210
0.0
220
0.0
230
1.0
 70
    11
 71
     3
 72
    20
 73
    16
 74
     0
 42
0.0000000001
 43
0.0000000001
 40
0.0
 40
0.0
 40
0.0
 40
0.0
 40
0.25
 40
0.25
 40
0.25
 40
0.25
 40
0.5
 40
0.5
 40
0.5
 40
0.5
 40
0.75
 40
0.75
 40
0.75
 40
0.75
 40
1.0
 40
1.0
 40
1.0
 40
1.0
 10
0.4153110236220473
 20
0.9868818897637796
 30
0.0
 10
0.4153110236220473
 20
0.9868818897637796
 30
0.0
 10
1.065909448818898
 20
1.351011811023622
 30
0.0
 10
1.065909448818898
 20
1.351011811023622
 30
0.0
 10
1.065909448818898
 20
1.351011811023622
 30
0.0
 10
1.065909448818898
 20
1.351011811023622
 30
0.0
 10
1.109374015748032
 20
1.313688976377953
 30
0.0
 10
1.109374015748032
 20
1.313688976377953
 30
0.0
 10
1.109374015748032
 20
1.313688976377953
 30
0.0
 10
1.109374015748032
 20
1.313688976377953
 30
0.0
 10
0.4587755905511811
 20
0.9495590551181102
 30
0.0
 10
0.4587755905511811
 20
0.9495590551181102
 30
0.0
 10
0.4587755905511811
 20
0.9495590551181102
 30
0.0
 10
0.4587755905511811
 20
0.9495590551181102
 30
0.0
 10
0.4153110236220473
 20
0.9868818897637796
 30
0.0
 10
0.4153110236220473
 20
0.9868818897637796
 30
0.0
  0
SPLINE
  5
46
330
1F
100
AcDbEntity
  8
LAYER_1
 62
   253
100
AcDbSpline
210
0.0
220
0.0
230
1.0
 70
    11
 71
     3
 72
    20
 73
    16
 74
     0
 42
0.0000000001
 43
0.0000000001
 40
0.0
 40
0.0
 40
0.0
 40
0.0
 40
0.25
 40
0.25
 40
0.25
 40
0.25
 40
0.5
 40
0.5
 40
0.5
 40
0.5
 40
0.75
 40
0.75
 40
0.75
 40
0.75
 40
1.0
 40
1.0
 40
1.0
 40
1.0
 10
0.4587755905511811
 20
0.9495590551181102
 30
0.0
 10
0.4587755905511811
 20
0.9495590551181102
 30
0.0
 10
1.109374015748032
 20
1.313688976377953
 30
0.0
 10
1.109374015748032
 20
1.313688976377953
 30
0.0
 10
1.109374015748032
 20
1.313688976377953
 30
0.0
 10
1.109374015748032
 20
1.313688976377953
 30
0.0
 10
1.151346456692914
 20
1.273803149606299
 30
0.0
 10
1.151346456692914
 20
1.273803149606299
 30
0.0
 10
1.151346456692914
 20
1.273803149606299
 30
0.0
 10
1.151346456692914
 20
1.273803149606299
 30
0.0
 10
0.5007480314960631
 20
0.9096732283464567
 30
0.0
 10
0.5007480314960631
 20
0.9096732283464567
 30
0.0
 10
0.5007480314960631
 20
0.9096732283464567
 30
0.0
 10
0.5007480314960631
 20
0.9096732283464567
 30
0.0
 10
0.4587755905511811
 20
0.9495590551181102
 30
0.0
 10
0.4587755905511811
 20
0.9495590551181102
 30
0.0
  0
SPLINE
  5
47
330
1F
100
AcDbEntity
  8
LAYER_1
 62
   250
100
AcDbSpline
210
0.0
220
0.0
230
1.0
 70
    11
 71
     3
 72
   220
 73
   216
 74
     0
 42
0.0000000001
 43
0.0000000001
 40
0.0
 40
0.0
 40
0.0
 40
0.0
 40
0.0185185185185185
 40
0.0185185185185185
 40
0.0185185185185185
 40
0.0185185185185185
 40
0.037037037037037
 40
0.037037037037037
 40
0.037037037037037
 40
0.037037037037037
 40
0.0555555555555556
 40
0.0555555555555556
 40
0.0555555555555556
 40
0.0555555555555556
 40
0.0740740740740741
 40
0.0740740740740741
 40
0.0740740740740741
 40
0.0740740740740741
 40
0.0925925925925926
 40
0.0925925925925926
 40
0.0925925925925926
 40
0.0925925925925926
 40
0.1111111111111111
 40
0.1111111111111111
 40
0.1111111111111111
 40
0.1111111111111111
 40
0.1296296296296296
 40
0.1296296296296296
 40
0.1296296296296296
 40
0.1296296296296296
 40
0.1481481481481481
 40
0.1481481481481481
 40
0.1481481481481481
 40
0.1481481481481481
 40
0.1666666666666667
 40
0.1666666666666667
 40
0.1666666666666667
 40
0.1666666666666667
 40
0.1851851851851852
 40
0.1851851851851852
 40
0.1851851851851852
 40
0.1851851851851852
 40
0.2037037037037037
 40
0.2037037037037037
 40
0.2037037037037037
 40
0.2037037037037037
 40
0.2222222222222222
 40
0.2222222222222222
 40
0.2222222222222222
 40
0.2222222222222222
 40
0.2407407407407407
 40
0.2407407407407407
 40
0.2407407407407407
 40
0.2407407407407407
 40
0.2592592592592592
 40
0.2592592592592592
 40
0.2592592592592592
 40
0.2592592592592592
 40
0.2777777777777778
 40
0.2777777777777778
 40
0.2777777777777778
 40
0.2777777777777778
 40
0.2962962962962963
 40
0.2962962962962963
 40
0.2962962962962963
 40
0.2962962962962963
 40
0.3148148148148148
 40
0.3148148148148148
 40
0.3148148148148148
 40
0.3148148148148148
 40
0.3333333333333333
 40
0.3333333333333333
 40
0.3333333333333333
 40
0.3333333333333333
 40
0.3518518518518518
 40
0.3518518518518518
 40
0.3518518518518518
 40
0.3518518518518518
 40
0.3703703703703702
 40
0.3703703703703702
 40
0.3703703703703702
 40
0.3703703703703702
 40
0.3888888888888887
 40
0.3888888888888887
 40
0.3888888888888887
 40
0.3888888888888887
 40
0.4074074074074072
 40
0.4074074074074072
 40
0.4074074074074072
 40
0.4074074074074072
 40
0.4259259259259257
 40
0.4259259259259257
 40
0.4259259259259257
 40
0.4259259259259257
 40
0.4444444444444442
 40
0.4444444444444442
 40
0.4444444444444442
 40
0.4444444444444442
 40
0.4629629629629627
 40
0.4629629629629627
 40
0.4629629629629627
 40
0.4629629629629627
 40
0.4814814814814812
 40
0.4814814814814812
 40
0.4814814814814812
 40
0.4814814814814812
 40
0.4999999999999997
 40
0.4999999999999997
 40
0.4999999999999997
 40
0.4999999999999997
 40
0.5185185185185182
 40
0.5185185185185182
 40
0.5185185185185182
 40
0.5185185185185182
 40
0.5370370370370367
 40
0.5370370370370367
 40
0.5370370370370367
 40
0.5370370370370367
 40
0.5555555555555551
 40
0.5555555555555551
 40
0.5555555555555551
 40
0.5555555555555551
 40
0.5740740740740736
 40
0.5740740740740736
 40
0.5740740740740736
 40
0.5740740740740736
 40
0.5925925925925921
 40
0.5925925925925921
 40
0.5925925925925921
 40
0.5925925925925921
 40
0.6111111111111106
 40
0.6111111111111106
 40
0.6111111111111106
 40
0.6111111111111106
 40
0.6296296296296291
 40
0.6296296296296291
 40
0.6296296296296291
 40
0.6296296296296291
 40
0.6481481481481476
 40
0.6481481481481476
 40
0.6481481481481476
 40
0.6481481481481476
 40
0.6666666666666661
 40
0.6666666666666661
 40
0.6666666666666661
 40
0.6666666666666661
 40
0.6851851851851846
 40
0.6851851851851846
 40
0.6851851851851846
 40
0.6851851851851846
 40
0.7037037037037031
 40
0.7037037037037031
 40
0.7037037037037031
 40
0.7037037037037031
 40
0.7222222222222215
 40
0.7222222222222215
 40
0.7222222222222215
 40
0.7222222222222215
 40
0.74074074074074
 40
0.74074074074074
 40
0.74074074074074
 40
0.74074074074074
 40
0.7592592592592585
 40
0.7592592592592585
 40
0.7592592592592585
 40
0.7592592592592585
 40
0.777777777777777
 40
0.777777777777777
 40
0.777777777777777
 40
0.777777777777777
 40
0.7962962962962955
 40
0.7962962962962955
 40
0.7962962962962955
 40
0.7962962962962955
 40
0.814814814814814
 40
0.814814814814814
 40
0.814814814814814
 40
0.814814814814814
 40
0.8333333333333325
 40
0.8333333333333325
 40
0.8333333333333325
 40
0.8333333333333325
 40
0.851851851851851
 40
0.851851851851851
 40
0.851851851851851
 40
0.851851851851851
 40
0.8703703703703695
 40
0.8703703703703695
 40
0.8703703703703695
 40
0.8703703703703695
 40
0.888888888888888
 40
0.888888888888888
 40
0.888888888888888
 40
0.888888888888888
 40
0.9074074074074064
 40
0.9074074074074064
 40
0.9074074074074064
 40
0.9074074074074064
 40
0.9259259259259249
 40
0.9259259259259249
 40
0.9259259259259249
 40
0.9259259259259249
 40
0.9444444444444434
 40
0.9444444444444434
 40
0.9444444444444434
 40
0.9444444444444434
 40
0.9629629629629619
 40
0.9629629629629619
 40
0.9629629629629619
 40
0.9629629629629619
 40
0.9814814814814804
 40
0.9814814814814804
 40
0.9814814814814804
 40
0.9814814814814804
 40
1.0
 40
1.0
 40
1.0
 40
1.0
 10
-0.8179330708661418
 20
1.11042125984252
 30
0.0
 10
-0.8179330708661418
 20
1.11042125984252
 30
0.0
 10
-0.1673346456692914
 20
1.474551181102362
 30
0.0
 10
-0.1673346456692914
 20
1.474551181102362
 30
0.0
 10
-0.1673346456692914
 20
1.474551181102362
 30
0.0
 10
-0.1673346456692914
 20
1.474551181102362
 30
0.0
 10
-0.1178661417322835
 20
1.499
 30
0.0
 10
-0.1178661417322835
 20
1.499
 30
0.0
 10
-0.1178661417322835
 20
1.499
 30
0.0
 10
-0.1178661417322835
 20
1.499
 30
0.0
 10
-0.067503937007874
 20
1.52088188976378
 30
0.0
 10
-0.067503937007874
 20
1.52088188976378
 30
0.0
 10
-0.067503937007874
 20
1.52088188976378
 30
0.0
 10
-0.067503937007874
 20
1.52088188976378
 30
0.0
 10
-0.0163307086614173
 20
1.540181102362205
 30
0.0
 10
-0.0163307086614173
 20
1.540181102362205
 30
0.0
 10
-0.0163307086614173
 20
1.540181102362205
 30
0.0
 10
-0.0163307086614173
 20
1.540181102362205
 30
0.0
 10
0.0355393700787402
 20
1.556913385826772
 30
0.0
 10
0.0355393700787402
 20
1.556913385826772
 30
0.0
 10
0.0355393700787402
 20
1.556913385826772
 30
0.0
 10
0.0355393700787402
 20
1.556913385826772
 30
0.0
 10
0.088011811023622
 20
1.571066929133858
 30
0.0
 10
0.088011811023622
 20
1.571066929133858
 30
0.0
 10
0.088011811023622
 20
1.571066929133858
 30
0.0
 10
0.088011811023622
 20
1.571066929133858
 30
0.0
 10
0.1409803149606299
 20
1.582653543307087
 30
0.0
 10
0.1409803149606299
 20
1.582653543307087
 30
0.0
 10
0.1409803149606299
 20
1.582653543307087
 30
0.0
 10
0.1409803149606299
 20
1.582653543307087
 30
0.0
 10
0.1943503937007874
 20
1.591661417322835
 30
0.0
 10
0.1943503937007874
 20
1.591661417322835
 30
0.0
 10
0.1943503937007874
 20
1.591661417322835
 30
0.0
 10
0.1943503937007874
 20
1.591661417322835
 30
0.0
 10
0.2480196850393701
 20
1.59809842519685
 30
0.0
 10
0.2480196850393701
 20
1.59809842519685
 30
0.0
 10
0.2480196850393701
 20
1.59809842519685
 30
0.0
 10
0.2480196850393701
 20
1.59809842519685
 30
0.0
 10
0.3018937007874016
 20
1.60196062992126
 30
0.0
 10
0.3018937007874016
 20
1.60196062992126
 30
0.0
 10
0.3018937007874016
 20
1.60196062992126
 30
0.0
 10
0.3018937007874016
 20
1.60196062992126
 30
0.0
 10
0.3558543307086614
 20
1.603248031496063
 30
0.0
 10
0.3558543307086614
 20
1.603248031496063
 30
0.0
 10
0.3558543307086614
 20
1.603248031496063
 30
0.0
 10
0.3558543307086614
 20
1.603248031496063
 30
0.0
 10
0.4098267716535433
 20
1.60196062992126
 30
0.0
 10
0.4098267716535433
 20
1.60196062992126
 30
0.0
 10
0.4098267716535433
 20
1.60196062992126
 30
0.0
 10
0.4098267716535433
 20
1.60196062992126
 30
0.0
 10
0.4636968503937008
 20
1.59809842519685
 30
0.0
 10
0.4636968503937008
 20
1.59809842519685
 30
0.0
 10
0.4636968503937008
 20
1.59809842519685
 30
0.0
 10
0.4636968503937008
 20
1.59809842519685
 30
0.0
 10
0.5173700787401575
 20
1.591661417322835
 30
0.0
 10
0.5173700787401575
 20
1.591661417322835
 30
0.0
 10
0.5173700787401575
 20
1.591661417322835
 30
0.0
 10
0.5173700787401575
 20
1.591661417322835
 30
0.0
 10
0.570736220472441
 20
1.582653543307087
 30
0.0
 10
0.570736220472441
 20
1.582653543307087
 30
0.0
 10
0.570736220472441
 20
1.582653543307087
 30
0.0
 10
0.570736220472441
 20
1.582653543307087
 30
0.0
 10
0.6237047244094488
 20
1.571066929133858
 30
0.0
 10
0.6237047244094488
 20
1.571066929133858
 30
0.0
 10
0.6237047244094488
 20
1.571066929133858
 30
0.0
 10
0.6237047244094488
 20
1.571066929133858
 30
0.0
 10
0.6761692913385827
 20
1.556913385826772
 30
0.0
 10
0.6761692913385827
 20
1.556913385826772
 30
0.0
 10
0.6761692913385827
 20
1.556913385826772
 30
0.0
 10
0.6761692913385827
 20
1.556913385826772
 30
0.0
 10
0.7280354330708662
 20
1.540181102362205
 30
0.0
 10
0.7280354330708662
 20
1.540181102362205
 30
0.0
 10
0.7280354330708662
 20
1.540181102362205
 30
0.0
 10
0.7280354330708662
 20
1.540181102362205
 30
0.0
 10
0.7792086614173228
 20
1.52088188976378
 30
0.0
 10
0.7792086614173228
 20
1.52088188976378
 30
0.0
 10
0.7792086614173228
 20
1.52088188976378
 30
0.0
 10
0.7792086614173228
 20
1.52088188976378
 30
0.0
 10
0.8295708661417324
 20
1.499
 30
0.0
 10
0.8295708661417324
 20
1.499
 30
0.0
 10
0.8295708661417324
 20
1.499
 30
0.0
 10
0.8295708661417324
 20
1.499
 30
0.0
 10
0.8790393700787402
 20
1.474551181102362
 30
0.0
 10
0.8790393700787402
 20
1.474551181102362
 30
0.0
 10
0.8790393700787402
 20
1.474551181102362
 30
0.0
 10
0.8790393700787402
 20
1.474551181102362
 30
0.0
 10
0.9275078740157481
 20
1.447527559055118
 30
0.0
 10
0.9275078740157481
 20
1.447527559055118
 30
0.0
 10
0.9275078740157481
 20
1.447527559055118
 30
0.0
 10
0.9275078740157481
 20
1.447527559055118
 30
0.0
 10
0.9748779527559055
 20
1.417929133858268
 30
0.0
 10
0.9748779527559055
 20
1.417929133858268
 30
0.0
 10
0.9748779527559055
 20
1.417929133858268
 30
0.0
 10
0.9748779527559055
 20
1.417929133858268
 30
0.0
 10
1.021043307086614
 20
1.385755905511811
 30
0.0
 10
1.021043307086614
 20
1.385755905511811
 30
0.0
 10
1.021043307086614
 20
1.385755905511811
 30
0.0
 10
1.021043307086614
 20
1.385755905511811
 30
0.0
 10
1.065909448818898
 20
1.351011811023622
 30
0.0
 10
1.065909448818898
 20
1.351011811023622
 30
0.0
 10
1.065909448818898
 20
1.351011811023622
 30
0.0
 10
1.065909448818898
 20
1.351011811023622
 30
0.0
 10
1.109374015748032
 20
1.313688976377953
 30
0.0
 10
1.109374015748032
 20
1.313688976377953
 30
0.0
 10
1.109374015748032
 20
1.313688976377953
 30
0.0
 10
1.109374015748032
 20
1.313688976377953
 30
0.0
 10
1.151346456692914
 20
1.273803149606299
 30
0.0
 10
1.151346456692914
 20
1.273803149606299
 30
0.0
 10
1.151346456692914
 20
1.273803149606299
 30
0.0
 10
1.151346456692914
 20
1.273803149606299
 30
0.0
 10
0.5007480314960631
 20
0.9096732283464567
 30
0.0
 10
0.5007480314960631
 20
0.9096732283464567
 30
0.0
 10
0.5007480314960631
 20
0.9096732283464567
 30
0.0
 10
0.5007480314960631
 20
0.9096732283464567
 30
0.0
 10
0.4587755905511811
 20
0.9495590551181102
 30
0.0
 10
0.4587755905511811
 20
0.9495590551181102
 30
0.0
 10
0.4587755905511811
 20
0.9495590551181102
 30
0.0
 10
0.4587755905511811
 20
0.9495590551181102
 30
0.0
 10
0.4153110236220473
 20
0.9868818897637796
 30
0.0
 10
0.4153110236220473
 20
0.9868818897637796
 30
0.0
 10
0.4153110236220473
 20
0.9868818897637796
 30
0.0
 10
0.4153110236220473
 20
0.9868818897637796
 30
0.0
 10
0.3704448818897638
 20
1.021625984251969
 30
0.0
 10
0.3704448818897638
 20
1.021625984251969
 30
0.0
 10
0.3704448818897638
 20
1.021625984251969
 30
0.0
 10
0.3704448818897638
 20
1.021625984251969
 30
0.0
 10
0.3242795275590552
 20
1.053799212598425
 30
0.0
 10
0.3242795275590552
 20
1.053799212598425
 30
0.0
 10
0.3242795275590552
 20
1.053799212598425
 30
0.0
 10
0.3242795275590552
 20
1.053799212598425
 30
0.0
 10
0.2769094488188977
 20
1.083397637795276
 30
0.0
 10
0.2769094488188977
 20
1.083397637795276
 30
0.0
 10
0.2769094488188977
 20
1.083397637795276
 30
0.0
 10
0.2769094488188977
 20
1.083397637795276
 30
0.0
 10
0.2284409448818898
 20
1.11042125984252
 30
0.0
 10
0.2284409448818898
 20
1.11042125984252
 30
0.0
 10
0.2284409448818898
 20
1.11042125984252
 30
0.0
 10
0.2284409448818898
 20
1.11042125984252
 30
0.0
 10
0.1789724409448819
 20
1.134870078740158
 30
0.0
 10
0.1789724409448819
 20
1.134870078740158
 30
0.0
 10
0.1789724409448819
 20
1.134870078740158
 30
0.0
 10
0.1789724409448819
 20
1.134870078740158
 30
0.0
 10
0.1286102362204724
 20
1.156751968503937
 30
0.0
 10
0.1286102362204724
 20
1.156751968503937
 30
0.0
 10
0.1286102362204724
 20
1.156751968503937
 30
0.0
 10
0.1286102362204724
 20
1.156751968503937
 30
0.0
 10
0.0774370078740158
 20
1.176051181102362
 30
0.0
 10
0.0774370078740158
 20
1.176051181102362
 30
0.0
 10
0.0774370078740158
 20
1.176051181102362
 30
0.0
 10
0.0774370078740158
 20
1.176051181102362
 30
0.0
 10
0.0255708661417323
 20
1.192783464566929
 30
0.0
 10
0.0255708661417323
 20
1.192783464566929
 30
0.0
 10
0.0255708661417323
 20
1.192783464566929
 30
0.0
 10
0.0255708661417323
 20
1.192783464566929
 30
0.0
 10
-0.0268937007874016
 20
1.206937007874016
 30
0.0
 10
-0.0268937007874016
 20
1.206937007874016
 30
0.0
 10
-0.0268937007874016
 20
1.206937007874016
 30
0.0
 10
-0.0268937007874016
 20
1.206937007874016
 30
0.0
 10
-0.0798622047244095
 20
1.218523622047244
 30
0.0
 10
-0.0798622047244095
 20
1.218523622047244
 30
0.0
 10
-0.0798622047244095
 20
1.218523622047244
 30
0.0
 10
-0.0798622047244095
 20
1.218523622047244
 30
0.0
 10
-0.1332283464566929
 20
1.227531496062992
 30
0.0
 10
-0.1332283464566929
 20
1.227531496062992
 30
0.0
 10
-0.1332283464566929
 20
1.227531496062992
 30
0.0
 10
-0.1332283464566929
 20
1.227531496062992
 30
0.0
 10
-0.1869015748031496
 20
1.233968503937008
 30
0.0
 10
-0.1869015748031496
 20
1.233968503937008
 30
0.0
 10
-0.1869015748031496
 20
1.233968503937008
 30
0.0
 10
-0.1869015748031496
 20
1.233968503937008
 30
0.0
 10
-0.2407716535433071
 20
1.237830708661417
 30
0.0
 10
-0.2407716535433071
 20
1.237830708661417
 30
0.0
 10
-0.2407716535433071
 20
1.237830708661417
 30
0.0
 10
-0.2407716535433071
 20
1.237830708661417
 30
0.0
 10
-0.294744094488189
 20
1.239118110236221
 30
0.0
 10
-0.294744094488189
 20
1.239118110236221
 30
0.0
 10
-0.294744094488189
 20
1.239118110236221
 30
0.0
 10
-0.294744094488189
 20
1.239118110236221
 30
0.0
 10
-0.3487047244094488
 20
1.237830708661417
 30
0.0
 10
-0.3487047244094488
 20
1.237830708661417
 30
0.0
 10
-0.3487047244094488
 20
1.237830708661417
 30
0.0
 10
-0.3487047244094488
 20
1.237830708661417
 30
0.0
 10
-0.4025787401574804
 20
1.233968503937008
 30
0.0
 10
-0.4025787401574804
 20
1.233968503937008
 30
0.0
 10
-0.4025787401574804
 20
1.233968503937008
 30
0.0
 10
-0.4025787401574804
 20
1.233968503937008
 30
0.0
 10
-0.456248031496063
 20
1.227531496062992
 30
0.0
 10
-0.456248031496063
 20
1.227531496062992
 30
0.0
 10
-0.456248031496063
 20
1.227531496062992
 30
0.0
 10
-0.456248031496063
 20
1.227531496062992
 30
0.0
 10
-0.5096181102362205
 20
1.218523622047244
 30
0.0
 10
-0.5096181102362205
 20
1.218523622047244
 30
0.0
 10
-0.5096181102362205
 20
1.218523622047244
 30
0.0
 10
-0.5096181102362205
 20
1.218523622047244
 30
0.0
 10
-0.5625866141732284
 20
1.206937007874016
 30
0.0
 10
-0.5625866141732284
 20
1.206937007874016
 30
0.0
 10
-0.5625866141732284
 20
1.206937007874016
 30
0.0
 10
-0.5625866141732284
 20
1.206937007874016
 30
0.0
 10
-0.6150590551181102
 20
1.192783464566929
 30
0.0
 10
-0.6150590551181102
 20
1.192783464566929
 30
0.0
 10
-0.6150590551181102
 20
1.192783464566929
 30
0.0
 10
-0.6150590551181102
 20
1.192783464566929
 30
0.0
 10
-0.6669291338582677
 20
1.176051181102362
 30
0.0
 10
-0.6669291338582677
 20
1.176051181102362
 30
0.0
 10
-0.6669291338582677
 20
1.176051181102362
 30
0.0
 10
-0.6669291338582677
 20
1.176051181102362
 30
0.0
 10
-0.7181023622047245
 20
1.156751968503937
 30
0.0
 10
-0.7181023622047245
 20
1.156751968503937
 30
0.0
 10
-0.7181023622047245
 20
1.156751968503937
 30
0.0
 10
-0.7181023622047245
 20
1.156751968503937
 30
0.0
 10
-0.7684645669291339
 20
1.134870078740158
 30
0.0
 10
-0.7684645669291339
 20
1.134870078740158
 30
0.0
 10
-0.7684645669291339
 20
1.134870078740158
 30
0.0
 10
-0.7684645669291339
 20
1.134870078740158
 30
0.0
 10
-0.8179330708661418
 20
1.11042125984252
 30
0.0
 10
-0.8179330708661418
 20
1.11042125984252
 30
0.0
  0
SPLINE
  5
48
330
1F
100
AcDbEntity
  8
LAYER_1
 62
     8
100
AcDbSpline
210
0.0
220
0.0
230
1.0
 70
    11
 71
     3
 72
    20
 73
    16
 74
     0
 42
0.0000000001
 43
0.0000000001
 40
0.0
 40
0.0
 40
0.0
 40
0.0
 40
0.25
 40
0.25
 40
0.25
 40
0.25
 40
0.5
 40
0.5
 40
0.5
 40
0.5
 40
0.75
 40
0.75
 40
0.75
 40
0.75
 40
1.0
 40
1.0
 40
1.0
 40
1.0
 10
0.5007480314960631
 20
0.9096732283464567
 30
0.0
 10
0.5007480314960631
 20
0.9096732283464567
 30
0.0
 10
1.151346456692914
 20
1.273803149606299
 30
0.0
 10
1.151346456692914
 20
1.273803149606299
 30
0.0
 10
1.151346456692914
 20
1.273803149606299
 30
0.0
 10
1.151346456692914
 20
1.273803149606299
 30
0.0
 10
0.62448031496063
 20
0.7470196850393701
 30
0.0
 10
0.62448031496063
 20
0.7470196850393701
 30
0.0
 10
0.62448031496063
 20
0.7470196850393701
 30
0.0
 10
0.62448031496063
 20
0.7470196850393701
 30
0.0
 10
-0.0261181102362205
 20
0.3828897637795276
 30
0.0
 10
-0.0261181102362205
 20
0.3828897637795276
 30
0.0
 10
-0.0261181102362205
 20
0.3828897637795276
 30
0.0
 10
-0.0261181102362205
 20
0.3828897637795276
 30
0.0
 10
0.5007480314960631
 20
0.9096732283464567
 30
0.0
 10
0.5007480314960631
 20
0.9096732283464567
 30
0.0
  0
SPLINE
  5
49
330
1F
100
AcDbEntity
  8
LAYER_1
 62
   250
100
AcDbSpline
210
0.0
220
0.0
230
1.0
 70
    11
 71
     3
 72
    20
 73
    16
 74
     0
 42
0.0000000001
 43
0.0000000001
 40
0.0
 40
0.0
 40
0.0
 40
0.0
 40
0.25
 40
0.25
 40
0.25
 40
0.25
 40
0.5
 40
0.5
 40
0.5
 40
0.5
 40
0.75
 40
0.75
 40
0.75
 40
0.75
 40
1.0
 40
1.0
 40
1.0
 40
1.0
 10
0.5007480314960631
 20
0.9096732283464567
 30
0.0
 10
0.5007480314960631
 20
0.9096732283464567
 30
0.0
 10
1.151346456692914
 20
1.273803149606299
 30
0.0
 10
1.151346456692914
 20
1.273803149606299
 30
0.0
 10
1.151346456692914
 20
1.273803149606299
 30
0.0
 10
1.151346456692914
 20
1.273803149606299
 30
0.0
 10
0.62448031496063
 20
0.7470196850393701
 30
0.0
 10
0.62448031496063
 20
0.7470196850393701
 30
0.0
 10
0.62448031496063
 20
0.7470196850393701
 30
0.0
 10
0.62448031496063
 20
0.7470196850393701
 30
0.0
 10
-0.0261181102362205
 20
0.3828897637795276
 30
0.0
 10
-0.0261181102362205
 20
0.3828897637795276
 30
0.0
 10
-0.0261181102362205
 20
0.3828897637795276
 30
0.0
 10
-0.0261181102362205
 20
0.3828897637795276
 30
0.0
 10
0.5007480314960631
 20
0.9096732283464567
 30
0.0
 10
0.5007480314960631
 20
0.9096732283464567
 30
0.0
  0
SPLINE
  5
4A
330
1F
100
AcDbEntity
  8
LAYER_1
 62
   251
100
AcDbSpline
210
0.0
220
0.0
230
1.0
 70
    11
 71
     3
 72
    28
 73
    24
 74
     0
 42
0.0000000001
 43
0.0000000001
 40
0.0
 40
0.0
 40
0.0
 40
0.0
 40
0.1666666666666667
 40
0.1666666666666667
 40
0.1666666666666667
 40
0.1666666666666667
 40
0.3333333333333333
 40
0.3333333333333333
 40
0.3333333333333333
 40
0.3333333333333333
 40
0.5
 40
0.5
 40
0.5
 40
0.5
 40
0.6666666666666666
 40
0.6666666666666666
 40
0.6666666666666666
 40
0.6666666666666666
 40
0.8333333333333333
 40
0.8333333333333333
 40
0.8333333333333333
 40
0.8333333333333333
 40
1.0
 40
1.0
 40
1.0
 40
1.0
 10
-0.4818267716535433
 20
0.4407874015748032
 30
0.0
 10
-0.4818267716535433
 20
0.4407874015748032
 30
0.0
 10
0.1687716535433071
 20
0.8049173228346457
 30
0.0
 10
0.1687716535433071
 20
0.8049173228346457
 30
0.0
 10
0.1687716535433071
 20
0.8049173228346457
 30
0.0
 10
0.1687716535433071
 20
0.8049173228346457
 30
0.0
 10
0.1529803149606299
 20
0.7950551181102362
 30
0.0
 10
0.1529803149606299
 20
0.7950551181102362
 30
0.0
 10
0.1529803149606299
 20
0.7950551181102362
 30
0.0
 10
0.1529803149606299
 20
0.7950551181102362
 30
0.0
 10
0.1375944881889764
 20
0.7843267716535434
 30
0.0
 10
0.1375944881889764
 20
0.7843267716535434
 30
0.0
 10
0.1375944881889764
 20
0.7843267716535434
 30
0.0
 10
0.1375944881889764
 20
0.7843267716535434
 30
0.0
 10
-0.5130039370078741
 20
0.4201968503937008
 30
0.0
 10
-0.5130039370078741
 20
0.4201968503937008
 30
0.0
 10
-0.5130039370078741
 20
0.4201968503937008
 30
0.0
 10
-0.5130039370078741
 20
0.4201968503937008
 30
0.0
 10
-0.4976181102362205
 20
0.4309251968503937
 30
0.0
 10
-0.4976181102362205
 20
0.4309251968503937
 30
0.0
 10
-0.4976181102362205
 20
0.4309251968503937
 30
0.0
 10
-0.4976181102362205
 20
0.4309251968503937
 30
0.0
 10
-0.4818267716535433
 20
0.4407874015748032
 30
0.0
 10
-0.4818267716535433
 20
0.4407874015748032
 30
0.0
  0
SPLINE
  5
4B
330
1F
100
AcDbEntity
  8
LAYER_1
 62
   251
100
AcDbSpline
210
0.0
220
0.0
230
1.0
 70
    11
 71
     3
 72
    28
 73
    24
 74
     0
 42
0.0000000001
 43
0.0000000001
 40
0.0
 40
0.0
 40
0.0
 40
0.0
 40
0.1666666666666667
 40
0.1666666666666667
 40
0.1666666666666667
 40
0.1666666666666667
 40
0.3333333333333333
 40
0.3333333333333333
 40
0.3333333333333333
 40
0.3333333333333333
 40
0.5
 40
0.5
 40
0.5
 40
0.5
 40
0.6666666666666666
 40
0.6666666666666666
 40
0.6666666666666666
 40
0.6666666666666666
 40
0.8333333333333333
 40
0.8333333333333333
 40
0.8333333333333333
 40
0.8333333333333333
 40
1.0
 40
1.0
 40
1.0
 40
1.0
 10
-0.5130039370078741
 20
0.4201968503937008
 30
0.0
 10
-0.5130039370078741
 20
0.4201968503937008
 30
0.0
 10
0.1375944881889764
 20
0.7843267716535434
 30
0.0
 10
0.1375944881889764
 20
0.7843267716535434
 30
0.0
 10
0.1375944881889764
 20
0.7843267716535434
 30
0.0
 10
0.1375944881889764
 20
0.7843267716535434
 30
0.0
 10
0.1226338582677165
 20
0.772748031496063
 30
0.0
 10
0.1226338582677165
 20
0.772748031496063
 30
0.0
 10
0.1226338582677165
 20
0.772748031496063
 30
0.0
 10
0.1226338582677165
 20
0.772748031496063
 30
0.0
 10
0.1081456692913386
 20
0.7603110236220473
 30
0.0
 10
0.1081456692913386
 20
0.7603110236220473
 30
0.0
 10
0.1081456692913386
 20
0.7603110236220473
 30
0.0
 10
0.1081456692913386
 20
0.7603110236220473
 30
0.0
 10
-0.5424527559055118
 20
0.3961811023622047
 30
0.0
 10
-0.5424527559055118
 20
0.3961811023622047
 30
0.0
 10
-0.5424527559055118
 20
0.3961811023622047
 30
0.0
 10
-0.5424527559055118
 20
0.3961811023622047
 30
0.0
 10
-0.5279645669291339
 20
0.4086181102362205
 30
0.0
 10
-0.5279645669291339
 20
0.4086181102362205
 30
0.0
 10
-0.5279645669291339
 20
0.4086181102362205
 30
0.0
 10
-0.5279645669291339
 20
0.4086181102362205
 30
0.0
 10
-0.5130039370078741
 20
0.4201968503937008
 30
0.0
 10
-0.5130039370078741
 20
0.4201968503937008
 30
0.0
  0
SPLINE
  5
4C
330
1F
100
AcDbEntity
  8
LAYER_1
 62
   251
100
AcDbSpline
210
0.0
220
0.0
230
1.0
 70
    11
 71
     3
 72
    20
 73
    16
 74
     0
 42
0.0000000001
 43
0.0000000001
 40
0.0
 40
0.0
 40
0.0
 40
0.0
 40
0.25
 40
0.25
 40
0.25
 40
0.25
 40
0.5
 40
0.5
 40
0.5
 40
0.5
 40
0.75
 40
0.75
 40
0.75
 40
0.75
 40
1.0
 40
1.0
 40
1.0
 40
1.0
 10
-0.5424527559055118
 20
0.3961811023622047
 30
0.0
 10
-0.5424527559055118
 20
0.3961811023622047
 30
0.0
 10
0.1081456692913386
 20
0.7603110236220473
 30
0.0
 10
0.1081456692913386
 20
0.7603110236220473
 30
0.0
 10
0.1081456692913386
 20
0.7603110236220473
 30
0.0
 10
0.1081456692913386
 20
0.7603110236220473
 30
0.0
 10
0.0941535433070866
 20
0.7470196850393701
 30
0.0
 10
0.0941535433070866
 20
0.7470196850393701
 30
0.0
 10
0.0941535433070866
 20
0.7470196850393701
 30
0.0
 10
0.0941535433070866
 20
0.7470196850393701
 30
0.0
 10
-0.5564448818897638
 20
0.3828897637795276
 30
0.0
 10
-0.5564448818897638
 20
0.3828897637795276
 30
0.0
 10
-0.5564448818897638
 20
0.3828897637795276
 30
0.0
 10
-0.5564448818897638
 20
0.3828897637795276
 30
0.0
 10
-0.5424527559055118
 20
0.3961811023622047
 30
0.0
 10
-0.5424527559055118
 20
0.3961811023622047
 30
0.0
  0
SPLINE
  5
4D
330
1F
100
AcDbEntity
  8
LAYER_1
 62
   250
100
AcDbSpline
210
0.0
220
0.0
230
1.0
 70
    11
 71
     3
 72
    52
 73
    48
 74
     0
 42
0.0000000001
 43
0.0000000001
 40
0.0
 40
0.0
 40
0.0
 40
0.0
 40
0.0833333333333333
 40
0.0833333333333333
 40
0.0833333333333333
 40
0.0833333333333333
 40
0.1666666666666667
 40
0.1666666666666667
 40
0.1666666666666667
 40
0.1666666666666667
 40
0.25
 40
0.25
 40
0.25
 40
0.25
 40
0.3333333333333333
 40
0.3333333333333333
 40
0.3333333333333333
 40
0.3333333333333333
 40
0.4166666666666666
 40
0.4166666666666666
 40
0.4166666666666666
 40
0.4166666666666666
 40
0.4999999999999999
 40
0.4999999999999999
 40
0.4999999999999999
 40
0.4999999999999999
 40
0.5833333333333333
 40
0.5833333333333333
 40
0.5833333333333333
 40
0.5833333333333333
 40
0.6666666666666666
 40
0.6666666666666666
 40
0.6666666666666666
 40
0.6666666666666666
 40
0.75
 40
0.75
 40
0.75
 40
0.75
 40
0.8333333333333334
 40
0.8333333333333334
 40
0.8333333333333334
 40
0.8333333333333334
 40
0.9166666666666667
 40
0.9166666666666667
 40
0.9166666666666667
 40
0.9166666666666667
 40
1.0
 40
1.0
 40
1.0
 40
1.0
 10
-0.4818267716535433
 20
0.4407874015748032
 30
0.0
 10
-0.4818267716535433
 20
0.4407874015748032
 30
0.0
 10
0.1687716535433071
 20
0.8049173228346457
 30
0.0
 10
0.1687716535433071
 20
0.8049173228346457
 30
0.0
 10
0.1687716535433071
 20
0.8049173228346457
 30
0.0
 10
0.1687716535433071
 20
0.8049173228346457
 30
0.0
 10
0.1529803149606299
 20
0.7950551181102362
 30
0.0
 10
0.1529803149606299
 20
0.7950551181102362
 30
0.0
 10
0.1529803149606299
 20
0.7950551181102362
 30
0.0
 10
0.1529803149606299
 20
0.7950551181102362
 30
0.0
 10
0.1375944881889764
 20
0.7843267716535434
 30
0.0
 10
0.1375944881889764
 20
0.7843267716535434
 30
0.0
 10
0.1375944881889764
 20
0.7843267716535434
 30
0.0
 10
0.1375944881889764
 20
0.7843267716535434
 30
0.0
 10
0.1226338582677165
 20
0.772748031496063
 30
0.0
 10
0.1226338582677165
 20
0.772748031496063
 30
0.0
 10
0.1226338582677165
 20
0.772748031496063
 30
0.0
 10
0.1226338582677165
 20
0.772748031496063
 30
0.0
 10
0.1081456692913386
 20
0.7603110236220473
 30
0.0
 10
0.1081456692913386
 20
0.7603110236220473
 30
0.0
 10
0.1081456692913386
 20
0.7603110236220473
 30
0.0
 10
0.1081456692913386
 20
0.7603110236220473
 30
0.0
 10
0.0941535433070866
 20
0.7470196850393701
 30
0.0
 10
0.0941535433070866
 20
0.7470196850393701
 30
0.0
 10
0.0941535433070866
 20
0.7470196850393701
 30
0.0
 10
0.0941535433070866
 20
0.7470196850393701
 30
0.0
 10
-0.5564448818897638
 20
0.3828897637795276
 30
0.0
 10
-0.5564448818897638
 20
0.3828897637795276
 30
0.0
 10
-0.5564448818897638
 20
0.3828897637795276
 30
0.0
 10
-0.5564448818897638
 20
0.3828897637795276
 30
0.0
 10
-0.5424527559055118
 20
0.3961811023622047
 30
0.0
 10
-0.5424527559055118
 20
0.3961811023622047
 30
0.0
 10
-0.5424527559055118
 20
0.3961811023622047
 30
0.0
 10
-0.5424527559055118
 20
0.3961811023622047
 30
0.0
 10
-0.5279645669291339
 20
0.4086181102362205
 30
0.0
 10
-0.5279645669291339
 20
0.4086181102362205
 30
0.0
 10
-0.5279645669291339
 20
0.4086181102362205
 30
0.0
 10
-0.5279645669291339
 20
0.4086181102362205
 30
0.0
 10
-0.5130039370078741
 20
0.4201968503937008
 30
0.0
 10
-0.5130039370078741
 20
0.4201968503937008
 30
0.0
 10
-0.5130039370078741
 20
0.4201968503937008
 30
0.0
 10
-0.5130039370078741
 20
0.4201968503937008
 30
0.0
 10
-0.4976181102362205
 20
0.4309251968503937
 30
0.0
 10
-0.4976181102362205
 20
0.4309251968503937
 30
0.0
 10
-0.4976181102362205
 20
0.4309251968503937
 30
0.0
 10
-0.4976181102362205
 20
0.4309251968503937
 30
0.0
 10
-0.4818267716535433
 20
0.4407874015748032
 30
0.0
 10
-0.4818267716535433
 20
0.4407874015748032
 30
0.0
  0
SPLINE
  5
4E
330
1F
100
AcDbEntity
  8
LAYER_1
 62
   251
100
AcDbSpline
210
0.0
220
0.0
230
1.0
 70
    11
 71
     3
 72
    20
 73
    16
 74
     0
 42
0.0000000001
 43
0.0000000001
 40
0.0
 40
0.0
 40
0.0
 40
0.0
 40
0.25
 40
0.25
 40
0.25
 40
0.25
 40
0.5
 40
0.5
 40
0.5
 40
0.5
 40
0.75
 40
0.75
 40
0.75
 40
0.75
 40
1.0
 40
1.0
 40
1.0
 40
1.0
 10
-0.8179330708661418
 20
1.11042125984252
 30
0.0
 10
-0.8179330708661418
 20
1.11042125984252
 30
0.0
 10
-0.1673346456692914
 20
1.474551181102362
 30
0.0
 10
-0.1673346456692914
 20
1.474551181102362
 30
0.0
 10
-0.1673346456692914
 20
1.474551181102362
 30
0.0
 10
-0.1673346456692914
 20
1.474551181102362
 30
0.0
 10
-0.1178661417322835
 20
1.499
 30
0.0
 10
-0.1178661417322835
 20
1.499
 30
0.0
 10
-0.1178661417322835
 20
1.499
 30
0.0
 10
-0.1178661417322835
 20
1.499
 30
0.0
 10
-0.7684645669291339
 20
1.134870078740158
 30
0.0
 10
-0.7684645669291339
 20
1.134870078740158
 30
0.0
 10
-0.7684645669291339
 20
1.134870078740158
 30
0.0
 10
-0.7684645669291339
 20
1.134870078740158
 30
0.0
 10
-0.8179330708661418
 20
1.11042125984252
 30
0.0
 10
-0.8179330708661418
 20
1.11042125984252
 30
0.0
  0
SPLINE
  5
4F
330
1F
100
AcDbEntity
  8
LAYER_1
 62
     8
100
AcDbSpline
210
0.0
220
0.0
230
1.0
 70
    11
 71
     3
 72
    20
 73
    16
 74
     0
 42
0.0000000001
 43
0.0000000001
 40
0.0
 40
0.0
 40
0.0
 40
0.0
 40
0.25
 40
0.25
 40
0.25
 40
0.25
 40
0.5
 40
0.5
 40
0.5
 40
0.5
 40
0.75
 40
0.75
 40
0.75
 40
0.75
 40
1.0
 40
1.0
 40
1.0
 40
1.0
 10
-0.7684645669291339
 20
1.134870078740158
 30
0.0
 10
-0.7684645669291339
 20
1.134870078740158
 30
0.0
 10
-0.1178661417322835
 20
1.499
 30
0.0
 10
-0.1178661417322835
 20
1.499
 30
0.0
 10
-0.1178661417322835
 20
1.499
 30
0.0
 10
-0.1178661417322835
 20
1.499
 30
0.0
 10
-0.067503937007874
 20
1.52088188976378
 30
0.0
 10
-0.067503937007874
 20
1.52088188976378
 30
0.0
 10
-0.067503937007874
 20
1.52088188976378
 30
0.0
 10
-0.067503937007874
 20
1.52088188976378
 30
0.0
 10
-0.7181023622047245
 20
1.156751968503937
 30
0.0
 10
-0.7181023622047245
 20
1.156751968503937
 30
0.0
 10
-0.7181023622047245
 20
1.156751968503937
 30
0.0
 10
-0.7181023622047245
 20
1.156751968503937
 30
0.0
 10
-0.7684645669291339
 20
1.134870078740158
 30
0.0
 10
-0.7684645669291339
 20
1.134870078740158
 30
0.0
  0
SPLINE
  5
50
330
1F
100
AcDbEntity
  8
LAYER_1
 62
   252
100
AcDbSpline
210
0.0
220
0.0
230
1.0
 70
    11
 71
     3
 72
    20
 73
    16
 74
     0
 42
0.0000000001
 43
0.0000000001
 40
0.0
 40
0.0
 40
0.0
 40
0.0
 40
0.25
 40
0.25
 40
0.25
 40
0.25
 40
0.5
 40
0.5
 40
0.5
 40
0.5
 40
0.75
 40
0.75
 40
0.75
 40
0.75
 40
1.0
 40
1.0
 40
1.0
 40
1.0
 10
-0.7181023622047245
 20
1.156751968503937
 30
0.0
 10
-0.7181023622047245
 20
1.156751968503937
 30
0.0
 10
-0.067503937007874
 20
1.52088188976378
 30
0.0
 10
-0.067503937007874
 20
1.52088188976378
 30
0.0
 10
-0.067503937007874
 20
1.52088188976378
 30
0.0
 10
-0.067503937007874
 20
1.52088188976378
 30
0.0
 10
-0.0163307086614173
 20
1.540181102362205
 30
0.0
 10
-0.0163307086614173
 20
1.540181102362205
 30
0.0
 10
-0.0163307086614173
 20
1.540181102362205
 30
0.0
 10
-0.0163307086614173
 20
1.540181102362205
 30
0.0
 10
-0.6669291338582677
 20
1.176051181102362
 30
0.0
 10
-0.6669291338582677
 20
1.176051181102362
 30
0.0
 10
-0.6669291338582677
 20
1.176051181102362
 30
0.0
 10
-0.6669291338582677
 20
1.176051181102362
 30
0.0
 10
-0.7181023622047245
 20
1.156751968503937
 30
0.0
 10
-0.7181023622047245
 20
1.156751968503937
 30
0.0
  0
SPLINE
  5
51
330
1F
100
AcDbEntity
  8
LAYER_1
 62
   252
100
AcDbSpline
210
0.0
220
0.0
230
1.0
 70
    11
 71
     3
 72
    20
 73
    16
 74
     0
 42
0.0000000001
 43
0.0000000001
 40
0.0
 40
0.0
 40
0.0
 40
0.0
 40
0.25
 40
0.25
 40
0.25
 40
0.25
 40
0.5
 40
0.5
 40
0.5
 40
0.5
 40
0.75
 40
0.75
 40
0.75
 40
0.75
 40
1.0
 40
1.0
 40
1.0
 40
1.0
 10
-0.6669291338582677
 20
1.176051181102362
 30
0.0
 10
-0.6669291338582677
 20
1.176051181102362
 30
0.0
 10
-0.0163307086614173
 20
1.540181102362205
 30
0.0
 10
-0.0163307086614173
 20
1.540181102362205
 30
0.0
 10
-0.0163307086614173
 20
1.540181102362205
 30
0.0
 10
-0.0163307086614173
 20
1.540181102362205
 30
0.0
 10
0.0355393700787402
 20
1.556913385826772
 30
0.0
 10
0.0355393700787402
 20
1.556913385826772
 30
0.0
 10
0.0355393700787402
 20
1.556913385826772
 30
0.0
 10
0.0355393700787402
 20
1.556913385826772
 30
0.0
 10
-0.6150590551181102
 20
1.192783464566929
 30
0.0
 10
-0.6150590551181102
 20
1.192783464566929
 30
0.0
 10
-0.6150590551181102
 20
1.192783464566929
 30
0.0
 10
-0.6150590551181102
 20
1.192783464566929
 30
0.0
 10
-0.6669291338582677
 20
1.176051181102362
 30
0.0
 10
-0.6669291338582677
 20
1.176051181102362
 30
0.0
  0
SPLINE
  5
52
330
1F
100
AcDbEntity
  8
LAYER_1
 62
   252
100
AcDbSpline
210
0.0
220
0.0
230
1.0
 70
    11
 71
     3
 72
    20
 73
    16
 74
     0
 42
0.0000000001
 43
0.0000000001
 40
0.0
 40
0.0
 40
0.0
 40
0.0
 40
0.25
 40
0.25
 40
0.25
 40
0.25
 40
0.5
 40
0.5
 40
0.5
 40
0.5
 40
0.75
 40
0.75
 40
0.75
 40
0.75
 40
1.0
 40
1.0
 40
1.0
 40
1.0
 10
-0.6150590551181102
 20
1.192783464566929
 30
0.0
 10
-0.6150590551181102
 20
1.192783464566929
 30
0.0
 10
0.0355393700787402
 20
1.556913385826772
 30
0.0
 10
0.0355393700787402
 20
1.556913385826772
 30
0.0
 10
0.0355393700787402
 20
1.556913385826772
 30
0.0
 10
0.0355393700787402
 20
1.556913385826772
 30
0.0
 10
0.088011811023622
 20
1.571066929133858
 30
0.0
 10
0.088011811023622
 20
1.571066929133858
 30
0.0
 10
0.088011811023622
 20
1.571066929133858
 30
0.0
 10
0.088011811023622
 20
1.571066929133858
 30
0.0
 10
-0.5625866141732284
 20
1.206937007874016
 30
0.0
 10
-0.5625866141732284
 20
1.206937007874016
 30
0.0
 10
-0.5625866141732284
 20
1.206937007874016
 30
0.0
 10
-0.5625866141732284
 20
1.206937007874016
 30
0.0
 10
-0.6150590551181102
 20
1.192783464566929
 30
0.0
 10
-0.6150590551181102
 20
1.192783464566929
 30
0.0
  0
SPLINE
  5
53
330
1F
100
AcDbEntity
  8
LAYER_1
 62
   252
100
AcDbSpline
210
0.0
220
0.0
230
1.0
 70
    11
 71
     3
 72
    20
 73
    16
 74
     0
 42
0.0000000001
 43
0.0000000001
 40
0.0
 40
0.0
 40
0.0
 40
0.0
 40
0.25
 40
0.25
 40
0.25
 40
0.25
 40
0.5
 40
0.5
 40
0.5
 40
0.5
 40
0.75
 40
0.75
 40
0.75
 40
0.75
 40
1.0
 40
1.0
 40
1.0
 40
1.0
 10
-0.5625866141732284
 20
1.206937007874016
 30
0.0
 10
-0.5625866141732284
 20
1.206937007874016
 30
0.0
 10
0.088011811023622
 20
1.571066929133858
 30
0.0
 10
0.088011811023622
 20
1.571066929133858
 30
0.0
 10
0.088011811023622
 20
1.571066929133858
 30
0.0
 10
0.088011811023622
 20
1.571066929133858
 30
0.0
 10
0.1409803149606299
 20
1.582653543307087
 30
0.0
 10
0.1409803149606299
 20
1.582653543307087
 30
0.0
 10
0.1409803149606299
 20
1.582653543307087
 30
0.0
 10
0.1409803149606299
 20
1.582653543307087
 30
0.0
 10
-0.5096181102362205
 20
1.218523622047244
 30
0.0
 10
-0.5096181102362205
 20
1.218523622047244
 30
0.0
 10
-0.5096181102362205
 20
1.218523622047244
 30
0.0
 10
-0.5096181102362205
 20
1.218523622047244
 30
0.0
 10
-0.5625866141732284
 20
1.206937007874016
 30
0.0
 10
-0.5625866141732284
 20
1.206937007874016
 30
0.0
  0
SPLINE
  5
54
330
1F
100
AcDbEntity
  8
LAYER_1
 62
   252
100
AcDbSpline
210
0.0
220
0.0
230
1.0
 70
    11
 71
     3
 72
    20
 73
    16
 74
     0
 42
0.0000000001
 43
0.0000000001
 40
0.0
 40
0.0
 40
0.0
 40
0.0
 40
0.25
 40
0.25
 40
0.25
 40
0.25
 40
0.5
 40
0.5
 40
0.5
 40
0.5
 40
0.75
 40
0.75
 40
0.75
 40
0.75
 40
1.0
 40
1.0
 40
1.0
 40
1.0
 10
-0.5096181102362205
 20
1.218523622047244
 30
0.0
 10
-0.5096181102362205
 20
1.218523622047244
 30
0.0
 10
0.1409803149606299
 20
1.582653543307087
 30
0.0
 10
0.1409803149606299
 20
1.582653543307087
 30
0.0
 10
0.1409803149606299
 20
1.582653543307087
 30
0.0
 10
0.1409803149606299
 20
1.582653543307087
 30
0.0
 10
0.1943503937007874
 20
1.591661417322835
 30
0.0
 10
0.1943503937007874
 20
1.591661417322835
 30
0.0
 10
0.1943503937007874
 20
1.591661417322835
 30
0.0
 10
0.1943503937007874
 20
1.591661417322835
 30
0.0
 10
-0.456248031496063
 20
1.227531496062992
 30
0.0
 10
-0.456248031496063
 20
1.227531496062992
 30
0.0
 10
-0.456248031496063
 20
1.227531496062992
 30
0.0
 10
-0.456248031496063
 20
1.227531496062992
 30
0.0
 10
-0.5096181102362205
 20
1.218523622047244
 30
0.0
 10
-0.5096181102362205
 20
1.218523622047244
 30
0.0
  0
SPLINE
  5
55
330
1F
100
AcDbEntity
  8
LAYER_1
 62
   252
100
AcDbSpline
210
0.0
220
0.0
230
1.0
 70
    11
 71
     3
 72
    20
 73
    16
 74
     0
 42
0.0000000001
 43
0.0000000001
 40
0.0
 40
0.0
 40
0.0
 40
0.0
 40
0.25
 40
0.25
 40
0.25
 40
0.25
 40
0.5
 40
0.5
 40
0.5
 40
0.5
 40
0.75
 40
0.75
 40
0.75
 40
0.75
 40
1.0
 40
1.0
 40
1.0
 40
1.0
 10
-0.456248031496063
 20
1.227531496062992
 30
0.0
 10
-0.456248031496063
 20
1.227531496062992
 30
0.0
 10
0.1943503937007874
 20
1.591661417322835
 30
0.0
 10
0.1943503937007874
 20
1.591661417322835
 30
0.0
 10
0.1943503937007874
 20
1.591661417322835
 30
0.0
 10
0.1943503937007874
 20
1.591661417322835
 30
0.0
 10
0.2480196850393701
 20
1.59809842519685
 30
0.0
 10
0.2480196850393701
 20
1.59809842519685
 30
0.0
 10
0.2480196850393701
 20
1.59809842519685
 30
0.0
 10
0.2480196850393701
 20
1.59809842519685
 30
0.0
 10
-0.4025787401574804
 20
1.233968503937008
 30
0.0
 10
-0.4025787401574804
 20
1.233968503937008
 30
0.0
 10
-0.4025787401574804
 20
1.233968503937008
 30
0.0
 10
-0.4025787401574804
 20
1.233968503937008
 30
0.0
 10
-0.456248031496063
 20
1.227531496062992
 30
0.0
 10
-0.456248031496063
 20
1.227531496062992
 30
0.0
  0
SPLINE
  5
56
330
1F
100
AcDbEntity
  8
LAYER_1
 62
   252
100
AcDbSpline
210
0.0
220
0.0
230
1.0
 70
    11
 71
     3
 72
    20
 73
    16
 74
     0
 42
0.0000000001
 43
0.0000000001
 40
0.0
 40
0.0
 40
0.0
 40
0.0
 40
0.25
 40
0.25
 40
0.25
 40
0.25
 40
0.5
 40
0.5
 40
0.5
 40
0.5
 40
0.75
 40
0.75
 40
0.75
 40
0.75
 40
1.0
 40
1.0
 40
1.0
 40
1.0
 10
-0.4025787401574804
 20
1.233968503937008
 30
0.0
 10
-0.4025787401574804
 20
1.233968503937008
 30
0.0
 10
0.2480196850393701
 20
1.59809842519685
 30
0.0
 10
0.2480196850393701
 20
1.59809842519685
 30
0.0
 10
0.2480196850393701
 20
1.59809842519685
 30
0.0
 10
0.2480196850393701
 20
1.59809842519685
 30
0.0
 10
0.3018937007874016
 20
1.60196062992126
 30
0.0
 10
0.3018937007874016
 20
1.60196062992126
 30
0.0
 10
0.3018937007874016
 20
1.60196062992126
 30
0.0
 10
0.3018937007874016
 20
1.60196062992126
 30
0.0
 10
-0.3487047244094488
 20
1.237830708661417
 30
0.0
 10
-0.3487047244094488
 20
1.237830708661417
 30
0.0
 10
-0.3487047244094488
 20
1.237830708661417
 30
0.0
 10
-0.3487047244094488
 20
1.237830708661417
 30
0.0
 10
-0.4025787401574804
 20
1.233968503937008
 30
0.0
 10
-0.4025787401574804
 20
1.233968503937008
 30
0.0
  0
SPLINE
  5
57
330
1F
100
AcDbEntity
  8
LAYER_1
 62
   252
100
AcDbSpline
210
0.0
220
0.0
230
1.0
 70
    11
 71
     3
 72
    20
 73
    16
 74
     0
 42
0.0000000001
 43
0.0000000001
 40
0.0
 40
0.0
 40
0.0
 40
0.0
 40
0.25
 40
0.25
 40
0.25
 40
0.25
 40
0.5
 40
0.5
 40
0.5
 40
0.5
 40
0.75
 40
0.75
 40
0.75
 40
0.75
 40
1.0
 40
1.0
 40
1.0
 40
1.0
 10
-0.3487047244094488
 20
1.237830708661417
 30
0.0
 10
-0.3487047244094488
 20
1.237830708661417
 30
0.0
 10
0.3018937007874016
 20
1.60196062992126
 30
0.0
 10
0.3018937007874016
 20
1.60196062992126
 30
0.0
 10
0.3018937007874016
 20
1.60196062992126
 30
0.0
 10
0.3018937007874016
 20
1.60196062992126
 30
0.0
 10
0.3558543307086614
 20
1.603248031496063
 30
0.0
 10
0.3558543307086614
 20
1.603248031496063
 30
0.0
 10
0.3558543307086614
 20
1.603248031496063
 30
0.0
 10
0.3558543307086614
 20
1.603248031496063
 30
0.0
 10
-0.294744094488189
 20
1.239118110236221
 30
0.0
 10
-0.294744094488189
 20
1.239118110236221
 30
0.0
 10
-0.294744094488189
 20
1.239118110236221
 30
0.0
 10
-0.294744094488189
 20
1.239118110236221
 30
0.0
 10
-0.3487047244094488
 20
1.237830708661417
 30
0.0
 10
-0.3487047244094488
 20
1.237830708661417
 30
0.0
  0
SPLINE
  5
58
330
1F
100
AcDbEntity
  8
LAYER_1
 62
   252
100
AcDbSpline
210
0.0
220
0.0
230
1.0
 70
    11
 71
     3
 72
    20
 73
    16
 74
     0
 42
0.0000000001
 43
0.0000000001
 40
0.0
 40
0.0
 40
0.0
 40
0.0
 40
0.25
 40
0.25
 40
0.25
 40
0.25
 40
0.5
 40
0.5
 40
0.5
 40
0.5
 40
0.75
 40
0.75
 40
0.75
 40
0.75
 40
1.0
 40
1.0
 40
1.0
 40
1.0
 10
-0.294744094488189
 20
1.239118110236221
 30
0.0
 10
-0.294744094488189
 20
1.239118110236221
 30
0.0
 10
0.3558543307086614
 20
1.603248031496063
 30
0.0
 10
0.3558543307086614
 20
1.603248031496063
 30
0.0
 10
0.3558543307086614
 20
1.603248031496063
 30
0.0
 10
0.3558543307086614
 20
1.603248031496063
 30
0.0
 10
0.4098267716535433
 20
1.60196062992126
 30
0.0
 10
0.4098267716535433
 20
1.60196062992126
 30
0.0
 10
0.4098267716535433
 20
1.60196062992126
 30
0.0
 10
0.4098267716535433
 20
1.60196062992126
 30
0.0
 10
-0.2407716535433071
 20
1.237830708661417
 30
0.0
 10
-0.2407716535433071
 20
1.237830708661417
 30
0.0
 10
-0.2407716535433071
 20
1.237830708661417
 30
0.0
 10
-0.2407716535433071
 20
1.237830708661417
 30
0.0
 10
-0.294744094488189
 20
1.239118110236221
 30
0.0
 10
-0.294744094488189
 20
1.239118110236221
 30
0.0
  0
SPLINE
  5
59
330
1F
100
AcDbEntity
  8
LAYER_1
 62
   253
100
AcDbSpline
210
0.0
220
0.0
230
1.0
 70
    11
 71
     3
 72
    20
 73
    16
 74
     0
 42
0.0000000001
 43
0.0000000001
 40
0.0
 40
0.0
 40
0.0
 40
0.0
 40
0.25
 40
0.25
 40
0.25
 40
0.25
 40
0.5
 40
0.5
 40
0.5
 40
0.5
 40
0.75
 40
0.75
 40
0.75
 40
0.75
 40
1.0
 40
1.0
 40
1.0
 40
1.0
 10
-0.2407716535433071
 20
1.237830708661417
 30
0.0
 10
-0.2407716535433071
 20
1.237830708661417
 30
0.0
 10
0.4098267716535433
 20
1.60196062992126
 30
0.0
 10
0.4098267716535433
 20
1.60196062992126
 30
0.0
 10
0.4098267716535433
 20
1.60196062992126
 30
0.0
 10
0.4098267716535433
 20
1.60196062992126
 30
0.0
 10
0.4636968503937008
 20
1.59809842519685
 30
0.0
 10
0.4636968503937008
 20
1.59809842519685
 30
0.0
 10
0.4636968503937008
 20
1.59809842519685
 30
0.0
 10
0.4636968503937008
 20
1.59809842519685
 30
0.0
 10
-0.1869015748031496
 20
1.233968503937008
 30
0.0
 10
-0.1869015748031496
 20
1.233968503937008
 30
0.0
 10
-0.1869015748031496
 20
1.233968503937008
 30
0.0
 10
-0.1869015748031496
 20
1.233968503937008
 30
0.0
 10
-0.2407716535433071
 20
1.237830708661417
 30
0.0
 10
-0.2407716535433071
 20
1.237830708661417
 30
0.0
  0
SPLINE
  5
5A
330
1F
100
AcDbEntity
  8
LAYER_1
 62
   253
100
AcDbSpline
210
0.0
220
0.0
230
1.0
 70
    11
 71
     3
 72
    20
 73
    16
 74
     0
 42
0.0000000001
 43
0.0000000001
 40
0.0
 40
0.0
 40
0.0
 40
0.0
 40
0.25
 40
0.25
 40
0.25
 40
0.25
 40
0.5
 40
0.5
 40
0.5
 40
0.5
 40
0.75
 40
0.75
 40
0.75
 40
0.75
 40
1.0
 40
1.0
 40
1.0
 40
1.0
 10
-0.1869015748031496
 20
1.233968503937008
 30
0.0
 10
-0.1869015748031496
 20
1.233968503937008
 30
0.0
 10
0.4636968503937008
 20
1.59809842519685
 30
0.0
 10
0.4636968503937008
 20
1.59809842519685
 30
0.0
 10
0.4636968503937008
 20
1.59809842519685
 30
0.0
 10
0.4636968503937008
 20
1.59809842519685
 30
0.0
 10
0.5173700787401575
 20
1.591661417322835
 30
0.0
 10
0.5173700787401575
 20
1.591661417322835
 30
0.0
 10
0.5173700787401575
 20
1.591661417322835
 30
0.0
 10
0.5173700787401575
 20
1.591661417322835
 30
0.0
 10
-0.1332283464566929
 20
1.227531496062992
 30
0.0
 10
-0.1332283464566929
 20
1.227531496062992
 30
0.0
 10
-0.1332283464566929
 20
1.227531496062992
 30
0.0
 10
-0.1332283464566929
 20
1.227531496062992
 30
0.0
 10
-0.1869015748031496
 20
1.233968503937008
 30
0.0
 10
-0.1869015748031496
 20
1.233968503937008
 30
0.0
  0
SPLINE
  5
5B
330
1F
100
AcDbEntity
  8
LAYER_1
 62
   253
100
AcDbSpline
210
0.0
220
0.0
230
1.0
 70
    11
 71
     3
 72
    20
 73
    16
 74
     0
 42
0.0000000001
 43
0.0000000001
 40
0.0
 40
0.0
 40
0.0
 40
0.0
 40
0.25
 40
0.25
 40
0.25
 40
0.25
 40
0.5
 40
0.5
 40
0.5
 40
0.5
 40
0.75
 40
0.75
 40
0.75
 40
0.75
 40
1.0
 40
1.0
 40
1.0
 40
1.0
 10
-0.1332283464566929
 20
1.227531496062992
 30
0.0
 10
-0.1332283464566929
 20
1.227531496062992
 30
0.0
 10
0.5173700787401575
 20
1.591661417322835
 30
0.0
 10
0.5173700787401575
 20
1.591661417322835
 30
0.0
 10
0.5173700787401575
 20
1.591661417322835
 30
0.0
 10
0.5173700787401575
 20
1.591661417322835
 30
0.0
 10
0.570736220472441
 20
1.582653543307087
 30
0.0
 10
0.570736220472441
 20
1.582653543307087
 30
0.0
 10
0.570736220472441
 20
1.582653543307087
 30
0.0
 10
0.570736220472441
 20
1.582653543307087
 30
0.0
 10
-0.0798622047244095
 20
1.218523622047244
 30
0.0
 10
-0.0798622047244095
 20
1.218523622047244
 30
0.0
 10
-0.0798622047244095
 20
1.218523622047244
 30
0.0
 10
-0.0798622047244095
 20
1.218523622047244
 30
0.0
 10
-0.1332283464566929
 20
1.227531496062992
 30
0.0
 10
-0.1332283464566929
 20
1.227531496062992
 30
0.0
  0
SPLINE
  5
5C
330
1F
100
AcDbEntity
  8
LAYER_1
 62
   253
100
AcDbSpline
210
0.0
220
0.0
230
1.0
 70
    11
 71
     3
 72
    20
 73
    16
 74
     0
 42
0.0000000001
 43
0.0000000001
 40
0.0
 40
0.0
 40
0.0
 40
0.0
 40
0.25
 40
0.25
 40
0.25
 40
0.25
 40
0.5
 40
0.5
 40
0.5
 40
0.5
 40
0.75
 40
0.75
 40
0.75
 40
0.75
 40
1.0
 40
1.0
 40
1.0
 40
1.0
 10
-0.0798622047244095
 20
1.218523622047244
 30
0.0
 10
-0.0798622047244095
 20
1.218523622047244
 30
0.0
 10
0.570736220472441
 20
1.582653543307087
 30
0.0
 10
0.570736220472441
 20
1.582653543307087
 30
0.0
 10
0.570736220472441
 20
1.582653543307087
 30
0.0
 10
0.570736220472441
 20
1.582653543307087
 30
0.0
 10
0.6237047244094488
 20
1.571066929133858
 30
0.0
 10
0.6237047244094488
 20
1.571066929133858
 30
0.0
 10
0.6237047244094488
 20
1.571066929133858
 30
0.0
 10
0.6237047244094488
 20
1.571066929133858
 30
0.0
 10
-0.0268937007874016
 20
1.206937007874016
 30
0.0
 10
-0.0268937007874016
 20
1.206937007874016
 30
0.0
 10
-0.0268937007874016
 20
1.206937007874016
 30
0.0
 10
-0.0268937007874016
 20
1.206937007874016
 30
0.0
 10
-0.0798622047244095
 20
1.218523622047244
 30
0.0
 10
-0.0798622047244095
 20
1.218523622047244
 30
0.0
  0
SPLINE
  5
5D
330
1F
100
AcDbEntity
  8
LAYER_1
 62
   253
100
AcDbSpline
210
0.0
220
0.0
230
1.0
 70
    11
 71
     3
 72
    20
 73
    16
 74
     0
 42
0.0000000001
 43
0.0000000001
 40
0.0
 40
0.0
 40
0.0
 40
0.0
 40
0.25
 40
0.25
 40
0.25
 40
0.25
 40
0.5
 40
0.5
 40
0.5
 40
0.5
 40
0.75
 40
0.75
 40
0.75
 40
0.75
 40
1.0
 40
1.0
 40
1.0
 40
1.0
 10
-0.0268937007874016
 20
1.206937007874016
 30
0.0
 10
-0.0268937007874016
 20
1.206937007874016
 30
0.0
 10
0.6237047244094488
 20
1.571066929133858
 30
0.0
 10
0.6237047244094488
 20
1.571066929133858
 30
0.0
 10
0.6237047244094488
 20
1.571066929133858
 30
0.0
 10
0.6237047244094488
 20
1.571066929133858
 30
0.0
 10
0.6761692913385827
 20
1.556913385826772
 30
0.0
 10
0.6761692913385827
 20
1.556913385826772
 30
0.0
 10
0.6761692913385827
 20
1.556913385826772
 30
0.0
 10
0.6761692913385827
 20
1.556913385826772
 30
0.0
 10
0.0255708661417323
 20
1.192783464566929
 30
0.0
 10
0.0255708661417323
 20
1.192783464566929
 30
0.0
 10
0.0255708661417323
 20
1.192783464566929
 30
0.0
 10
0.0255708661417323
 20
1.192783464566929
 30
0.0
 10
-0.0268937007874016
 20
1.206937007874016
 30
0.0
 10
-0.0268937007874016
 20
1.206937007874016
 30
0.0
  0
SPLINE
  5
5E
330
1F
100
AcDbEntity
  8
LAYER_1
 62
   253
100
AcDbSpline
210
0.0
220
0.0
230
1.0
 70
    11
 71
     3
 72
    20
 73
    16
 74
     0
 42
0.0000000001
 43
0.0000000001
 40
0.0
 40
0.0
 40
0.0
 40
0.0
 40
0.25
 40
0.25
 40
0.25
 40
0.25
 40
0.5
 40
0.5
 40
0.5
 40
0.5
 40
0.75
 40
0.75
 40
0.75
 40
0.75
 40
1.0
 40
1.0
 40
1.0
 40
1.0
 10
0.0255708661417323
 20
1.192783464566929
 30
0.0
 10
0.0255708661417323
 20
1.192783464566929
 30
0.0
 10
0.6761692913385827
 20
1.556913385826772
 30
0.0
 10
0.6761692913385827
 20
1.556913385826772
 30
0.0
 10
0.6761692913385827
 20
1.556913385826772
 30
0.0
 10
0.6761692913385827
 20
1.556913385826772
 30
0.0
 10
0.7280354330708662
 20
1.540181102362205
 30
0.0
 10
0.7280354330708662
 20
1.540181102362205
 30
0.0
 10
0.7280354330708662
 20
1.540181102362205
 30
0.0
 10
0.7280354330708662
 20
1.540181102362205
 30
0.0
 10
0.0774370078740158
 20
1.176051181102362
 30
0.0
 10
0.0774370078740158
 20
1.176051181102362
 30
0.0
 10
0.0774370078740158
 20
1.176051181102362
 30
0.0
 10
0.0774370078740158
 20
1.176051181102362
 30
0.0
 10
0.0255708661417323
 20
1.192783464566929
 30
0.0
 10
0.0255708661417323
 20
1.192783464566929
 30
0.0
  0
SPLINE
  5
5F
330
1F
100
AcDbEntity
  8
LAYER_1
 62
   253
100
AcDbSpline
210
0.0
220
0.0
230
1.0
 70
    11
 71
     3
 72
    20
 73
    16
 74
     0
 42
0.0000000001
 43
0.0000000001
 40
0.0
 40
0.0
 40
0.0
 40
0.0
 40
0.25
 40
0.25
 40
0.25
 40
0.25
 40
0.5
 40
0.5
 40
0.5
 40
0.5
 40
0.75
 40
0.75
 40
0.75
 40
0.75
 40
1.0
 40
1.0
 40
1.0
 40
1.0
 10
0.0774370078740158
 20
1.176051181102362
 30
0.0
 10
0.0774370078740158
 20
1.176051181102362
 30
0.0
 10
0.7280354330708662
 20
1.540181102362205
 30
0.0
 10
0.7280354330708662
 20
1.540181102362205
 30
0.0
 10
0.7280354330708662
 20
1.540181102362205
 30
0.0
 10
0.7280354330708662
 20
1.540181102362205
 30
0.0
 10
0.7792086614173228
 20
1.52088188976378
 30
0.0
 10
0.7792086614173228
 20
1.52088188976378
 30
0.0
 10
0.7792086614173228
 20
1.52088188976378
 30
0.0
 10
0.7792086614173228
 20
1.52088188976378
 30
0.0
 10
0.1286102362204724
 20
1.156751968503937
 30
0.0
 10
0.1286102362204724
 20
1.156751968503937
 30
0.0
 10
0.1286102362204724
 20
1.156751968503937
 30
0.0
 10
0.1286102362204724
 20
1.156751968503937
 30
0.0
 10
0.0774370078740158
 20
1.176051181102362
 30
0.0
 10
0.0774370078740158
 20
1.176051181102362
 30
0.0
  0
SPLINE
  5
60
330
1F
100
AcDbEntity
  8
LAYER_1
 62
   253
100
AcDbSpline
210
0.0
220
0.0
230
1.0
 70
    11
 71
     3
 72
    20
 73
    16
 74
     0
 42
0.0000000001
 43
0.0000000001
 40
0.0
 40
0.0
 40
0.0
 40
0.0
 40
0.25
 40
0.25
 40
0.25
 40
0.25
 40
0.5
 40
0.5
 40
0.5
 40
0.5
 40
0.75
 40
0.75
 40
0.75
 40
0.75
 40
1.0
 40
1.0
 40
1.0
 40
1.0
 10
0.1286102362204724
 20
1.156751968503937
 30
0.0
 10
0.1286102362204724
 20
1.156751968503937
 30
0.0
 10
0.7792086614173228
 20
1.52088188976378
 30
0.0
 10
0.7792086614173228
 20
1.52088188976378
 30
0.0
 10
0.7792086614173228
 20
1.52088188976378
 30
0.0
 10
0.7792086614173228
 20
1.52088188976378
 30
0.0
 10
0.8295708661417324
 20
1.499
 30
0.0
 10
0.8295708661417324
 20
1.499
 30
0.0
 10
0.8295708661417324
 20
1.499
 30
0.0
 10
0.8295708661417324
 20
1.499
 30
0.0
 10
0.1789724409448819
 20
1.134870078740158
 30
0.0
 10
0.1789724409448819
 20
1.134870078740158
 30
0.0
 10
0.1789724409448819
 20
1.134870078740158
 30
0.0
 10
0.1789724409448819
 20
1.134870078740158
 30
0.0
 10
0.1286102362204724
 20
1.156751968503937
 30
0.0
 10
0.1286102362204724
 20
1.156751968503937
 30
0.0
  0
SPLINE
  5
61
330
1F
100
AcDbEntity
  8
LAYER_1
 62
   253
100
AcDbSpline
210
0.0
220
0.0
230
1.0
 70
    11
 71
     3
 72
    20
 73
    16
 74
     0
 42
0.0000000001
 43
0.0000000001
 40
0.0
 40
0.0
 40
0.0
 40
0.0
 40
0.25
 40
0.25
 40
0.25
 40
0.25
 40
0.5
 40
0.5
 40
0.5
 40
0.5
 40
0.75
 40
0.75
 40
0.75
 40
0.75
 40
1.0
 40
1.0
 40
1.0
 40
1.0
 10
0.1789724409448819
 20
1.134870078740158
 30
0.0
 10
0.1789724409448819
 20
1.134870078740158
 30
0.0
 10
0.8295708661417324
 20
1.499
 30
0.0
 10
0.8295708661417324
 20
1.499
 30
0.0
 10
0.8295708661417324
 20
1.499
 30
0.0
 10
0.8295708661417324
 20
1.499
 30
0.0
 10
0.8790393700787402
 20
1.474551181102362
 30
0.0
 10
0.8790393700787402
 20
1.474551181102362
 30
0.0
 10
0.8790393700787402
 20
1.474551181102362
 30
0.0
 10
0.8790393700787402
 20
1.474551181102362
 30
0.0
 10
0.2284409448818898
 20
1.11042125984252
 30
0.0
 10
0.2284409448818898
 20
1.11042125984252
 30
0.0
 10
0.2284409448818898
 20
1.11042125984252
 30
0.0
 10
0.2284409448818898
 20
1.11042125984252
 30
0.0
 10
0.1789724409448819
 20
1.134870078740158
 30
0.0
 10
0.1789724409448819
 20
1.134870078740158
 30
0.0
  0
SPLINE
  5
62
330
1F
100
AcDbEntity
  8
LAYER_1
 62
   253
100
AcDbSpline
210
0.0
220
0.0
230
1.0
 70
    11
 71
     3
 72
    20
 73
    16
 74
     0
 42
0.0000000001
 43
0.0000000001
 40
0.0
 40
0.0
 40
0.0
 40
0.0
 40
0.25
 40
0.25
 40
0.25
 40
0.25
 40
0.5
 40
0.5
 40
0.5
 40
0.5
 40
0.75
 40
0.75
 40
0.75
 40
0.75
 40
1.0
 40
1.0
 40
1.0
 40
1.0
 10
0.2284409448818898
 20
1.11042125984252
 30
0.0
 10
0.2284409448818898
 20
1.11042125984252
 30
0.0
 10
0.8790393700787402
 20
1.474551181102362
 30
0.0
 10
0.8790393700787402
 20
1.474551181102362
 30
0.0
 10
0.8790393700787402
 20
1.474551181102362
 30
0.0
 10
0.8790393700787402
 20
1.474551181102362
 30
0.0
 10
0.9275078740157481
 20
1.447527559055118
 30
0.0
 10
0.9275078740157481
 20
1.447527559055118
 30
0.0
 10
0.9275078740157481
 20
1.447527559055118
 30
0.0
 10
0.9275078740157481
 20
1.447527559055118
 30
0.0
 10
0.2769094488188977
 20
1.083397637795276
 30
0.0
 10
0.2769094488188977
 20
1.083397637795276
 30
0.0
 10
0.2769094488188977
 20
1.083397637795276
 30
0.0
 10
0.2769094488188977
 20
1.083397637795276
 30
0.0
 10
0.2284409448818898
 20
1.11042125984252
 30
0.0
 10
0.2284409448818898
 20
1.11042125984252
 30
0.0
  0
SPLINE
  5
63
330
1F
100
AcDbEntity
  8
LAYER_1
 62
   253
100
AcDbSpline
210
0.0
220
0.0
230
1.0
 70
    11
 71
     3
 72
    20
 73
    16
 74
     0
 42
0.0000000001
 43
0.0000000001
 40
0.0
 40
0.0
 40
0.0
 40
0.0
 40
0.25
 40
0.25
 40
0.25
 40
0.25
 40
0.5
 40
0.5
 40
0.5
 40
0.5
 40
0.75
 40
0.75
 40
0.75
 40
0.75
 40
1.0
 40
1.0
 40
1.0
 40
1.0
 10
0.2769094488188977
 20
1.083397637795276
 30
0.0
 10
0.2769094488188977
 20
1.083397637795276
 30
0.0
 10
0.9275078740157481
 20
1.447527559055118
 30
0.0
 10
0.9275078740157481
 20
1.447527559055118
 30
0.0
 10
0.9275078740157481
 20
1.447527559055118
 30
0.0
 10
0.9275078740157481
 20
1.447527559055118
 30
0.0
 10
0.9748779527559055
 20
1.417929133858268
 30
0.0
 10
0.9748779527559055
 20
1.417929133858268
 30
0.0
 10
0.9748779527559055
 20
1.417929133858268
 30
0.0
 10
0.9748779527559055
 20
1.417929133858268
 30
0.0
 10
0.3242795275590552
 20
1.053799212598425
 30
0.0
 10
0.3242795275590552
 20
1.053799212598425
 30
0.0
 10
0.3242795275590552
 20
1.053799212598425
 30
0.0
 10
0.3242795275590552
 20
1.053799212598425
 30
0.0
 10
0.2769094488188977
 20
1.083397637795276
 30
0.0
 10
0.2769094488188977
 20
1.083397637795276
 30
0.0
  0
SPLINE
  5
64
330
1F
100
AcDbEntity
  8
LAYER_1
 62
   253
100
AcDbSpline
210
0.0
220
0.0
230
1.0
 70
    11
 71
     3
 72
    20
 73
    16
 74
     0
 42
0.0000000001
 43
0.0000000001
 40
0.0
 40
0.0
 40
0.0
 40
0.0
 40
0.25
 40
0.25
 40
0.25
 40
0.25
 40
0.5
 40
0.5
 40
0.5
 40
0.5
 40
0.75
 40
0.75
 40
0.75
 40
0.75
 40
1.0
 40
1.0
 40
1.0
 40
1.0
 10
0.3242795275590552
 20
1.053799212598425
 30
0.0
 10
0.3242795275590552
 20
1.053799212598425
 30
0.0
 10
0.9748779527559055
 20
1.417929133858268
 30
0.0
 10
0.9748779527559055
 20
1.417929133858268
 30
0.0
 10
0.9748779527559055
 20
1.417929133858268
 30
0.0
 10
0.9748779527559055
 20
1.417929133858268
 30
0.0
 10
1.021043307086614
 20
1.385755905511811
 30
0.0
 10
1.021043307086614
 20
1.385755905511811
 30
0.0
 10
1.021043307086614
 20
1.385755905511811
 30
0.0
 10
1.021043307086614
 20
1.385755905511811
 30
0.0
 10
0.3704448818897638
 20
1.021625984251969
 30
0.0
 10
0.3704448818897638
 20
1.021625984251969
 30
0.0
 10
0.3704448818897638
 20
1.021625984251969
 30
0.0
 10
0.3704448818897638
 20
1.021625984251969
 30
0.0
 10
0.3242795275590552
 20
1.053799212598425
 30
0.0
 10
0.3242795275590552
 20
1.053799212598425
 30
0.0
  0
SPLINE
  5
65
330
1F
100
AcDbEntity
  8
LAYER_1
 62
   253
100
AcDbSpline
210
0.0
220
0.0
230
1.0
 70
    11
 71
     3
 72
    20
 73
    16
 74
     0
 42
0.0000000001
 43
0.0000000001
 40
0.0
 40
0.0
 40
0.0
 40
0.0
 40
0.25
 40
0.25
 40
0.25
 40
0.25
 40
0.5
 40
0.5
 40
0.5
 40
0.5
 40
0.75
 40
0.75
 40
0.75
 40
0.75
 40
1.0
 40
1.0
 40
1.0
 40
1.0
 10
0.3704448818897638
 20
1.021625984251969
 30
0.0
 10
0.3704448818897638
 20
1.021625984251969
 30
0.0
 10
1.021043307086614
 20
1.385755905511811
 30
0.0
 10
1.021043307086614
 20
1.385755905511811
 30
0.0
 10
1.021043307086614
 20
1.385755905511811
 30
0.0
 10
1.021043307086614
 20
1.385755905511811
 30
0.0
 10
1.065909448818898
 20
1.351011811023622
 30
0.0
 10
1.065909448818898
 20
1.351011811023622
 30
0.0
 10
1.065909448818898
 20
1.351011811023622
 30
0.0
 10
1.065909448818898
 20
1.351011811023622
 30
0.0
 10
0.4153110236220473
 20
0.9868818897637796
 30
0.0
 10
0.4153110236220473
 20
0.9868818897637796
 30
0.0
 10
0.4153110236220473
 20
0.9868818897637796
 30
0.0
 10
0.4153110236220473
 20
0.9868818897637796
 30
0.0
 10
0.3704448818897638
 20
1.021625984251969
 30
0.0
 10
0.3704448818897638
 20
1.021625984251969
 30
0.0
  0
SPLINE
  5
66
330
1F
100
AcDbEntity
  8
LAYER_1
 62
   253
100
AcDbSpline
210
0.0
220
0.0
230
1.0
 70
    11
 71
     3
 72
    20
 73
    16
 74
     0
 42
0.0000000001
 43
0.0000000001
 40
0.0
 40
0.0
 40
0.0
 40
0.0
 40
0.25
 40
0.25
 40
0.25
 40
0.25
 40
0.5
 40
0.5
 40
0.5
 40
0.5
 40
0.75
 40
0.75
 40
0.75
 40
0.75
 40
1.0
 40
1.0
 40
1.0
 40
1.0
 10
0.4153110236220473
 20
0.9868818897637796
 30
0.0
 10
0.4153110236220473
 20
0.9868818897637796
 30
0.0
 10
1.065909448818898
 20
1.351011811023622
 30
0.0
 10
1.065909448818898
 20
1.351011811023622
 30
0.0
 10
1.065909448818898
 20
1.351011811023622
 30
0.0
 10
1.065909448818898
 20
1.351011811023622
 30
0.0
 10
1.109374015748032
 20
1.313688976377953
 30
0.0
 10
1.109374015748032
 20
1.313688976377953
 30
0.0
 10
1.109374015748032
 20
1.313688976377953
 30
0.0
 10
1.109374015748032
 20
1.313688976377953
 30
0.0
 10
0.4587755905511811
 20
0.9495590551181102
 30
0.0
 10
0.4587755905511811
 20
0.9495590551181102
 30
0.0
 10
0.4587755905511811
 20
0.9495590551181102
 30
0.0
 10
0.4587755905511811
 20
0.9495590551181102
 30
0.0
 10
0.4153110236220473
 20
0.9868818897637796
 30
0.0
 10
0.4153110236220473
 20
0.9868818897637796
 30
0.0
  0
SPLINE
  5
67
330
1F
100
AcDbEntity
  8
LAYER_1
 62
   253
100
AcDbSpline
210
0.0
220
0.0
230
1.0
 70
    11
 71
     3
 72
    20
 73
    16
 74
     0
 42
0.0000000001
 43
0.0000000001
 40
0.0
 40
0.0
 40
0.0
 40
0.0
 40
0.25
 40
0.25
 40
0.25
 40
0.25
 40
0.5
 40
0.5
 40
0.5
 40
0.5
 40
0.75
 40
0.75
 40
0.75
 40
0.75
 40
1.0
 40
1.0
 40
1.0
 40
1.0
 10
0.4587755905511811
 20
0.9495590551181102
 30
0.0
 10
0.4587755905511811
 20
0.9495590551181102
 30
0.0
 10
1.109374015748032
 20
1.313688976377953
 30
0.0
 10
1.109374015748032
 20
1.313688976377953
 30
0.0
 10
1.109374015748032
 20
1.313688976377953
 30
0.0
 10
1.109374015748032
 20
1.313688976377953
 30
0.0
 10
1.151346456692914
 20
1.273803149606299
 30
0.0
 10
1.151346456692914
 20
1.273803149606299
 30
0.0
 10
1.151346456692914
 20
1.273803149606299
 30
0.0
 10
1.151346456692914
 20
1.273803149606299
 30
0.0
 10
0.5007480314960631
 20
0.9096732283464567
 30
0.0
 10
0.5007480314960631
 20
0.9096732283464567
 30
0.0
 10
0.5007480314960631
 20
0.9096732283464567
 30
0.0
 10
0.5007480314960631
 20
0.9096732283464567
 30
0.0
 10
0.4587755905511811
 20
0.9495590551181102
 30
0.0
 10
0.4587755905511811
 20
0.9495590551181102
 30
0.0
  0
SPLINE
  5
68
330
1F
100
AcDbEntity
  8
LAYER_1
 62
   250
100
AcDbSpline
210
0.0
220
0.0
230
1.0
 70
    11
 71
     3
 72
   220
 73
   216
 74
     0
 42
0.0000000001
 43
0.0000000001
 40
0.0
 40
0.0
 40
0.0
 40
0.0
 40
0.0185185185185185
 40
0.0185185185185185
 40
0.0185185185185185
 40
0.0185185185185185
 40
0.037037037037037
 40
0.037037037037037
 40
0.037037037037037
 40
0.037037037037037
 40
0.0555555555555556
 40
0.0555555555555556
 40
0.0555555555555556
 40
0.0555555555555556
 40
0.0740740740740741
 40
0.0740740740740741
 40
0.0740740740740741
 40
0.0740740740740741
 40
0.0925925925925926
 40
0.0925925925925926
 40
0.0925925925925926
 40
0.0925925925925926
 40
0.1111111111111111
 40
0.1111111111111111
 40
0.1111111111111111
 40
0.1111111111111111
 40
0.1296296296296296
 40
0.1296296296296296
 40
0.1296296296296296
 40
0.1296296296296296
 40
0.1481481481481481
 40
0.1481481481481481
 40
0.1481481481481481
 40
0.1481481481481481
 40
0.1666666666666667
 40
0.1666666666666667
 40
0.1666666666666667
 40
0.1666666666666667
 40
0.1851851851851852
 40
0.1851851851851852
 40
0.1851851851851852
 40
0.1851851851851852
 40
0.2037037037037037
 40
0.2037037037037037
 40
0.2037037037037037
 40
0.2037037037037037
 40
0.2222222222222222
 40
0.2222222222222222
 40
0.2222222222222222
 40
0.2222222222222222
 40
0.2407407407407407
 40
0.2407407407407407
 40
0.2407407407407407
 40
0.2407407407407407
 40
0.2592592592592592
 40
0.2592592592592592
 40
0.2592592592592592
 40
0.2592592592592592
 40
0.2777777777777778
 40
0.2777777777777778
 40
0.2777777777777778
 40
0.2777777777777778
 40
0.2962962962962963
 40
0.2962962962962963
 40
0.2962962962962963
 40
0.2962962962962963
 40
0.3148148148148148
 40
0.3148148148148148
 40
0.3148148148148148
 40
0.3148148148148148
 40
0.3333333333333333
 40
0.3333333333333333
 40
0.3333333333333333
 40
0.3333333333333333
 40
0.3518518518518518
 40
0.3518518518518518
 40
0.3518518518518518
 40
0.3518518518518518
 40
0.3703703703703702
 40
0.3703703703703702
 40
0.3703703703703702
 40
0.3703703703703702
 40
0.3888888888888887
 40
0.3888888888888887
 40
0.3888888888888887
 40
0.3888888888888887
 40
0.4074074074074072
 40
0.4074074074074072
 40
0.4074074074074072
 40
0.4074074074074072
 40
0.4259259259259257
 40
0.4259259259259257
 40
0.4259259259259257
 40
0.4259259259259257
 40
0.4444444444444442
 40
0.4444444444444442
 40
0.4444444444444442
 40
0.4444444444444442
 40
0.4629629629629627
 40
0.4629629629629627
 40
0.4629629629629627
 40
0.4629629629629627
 40
0.4814814814814812
 40
0.4814814814814812
 40
0.4814814814814812
 40
0.4814814814814812
 40
0.4999999999999997
 40
0.4999999999999997
 40
0.4999999999999997
 40
0.4999999999999997
 40
0.5185185185185182
 40
0.5185185185185182
 40
0.5185185185185182
 40
0.5185185185185182
 40
0.5370370370370367
 40
0.5370370370370367
 40
0.5370370370370367
 40
0.5370370370370367
 40
0.5555555555555551
 40
0.5555555555555551
 40
0.5555555555555551
 40
0.5555555555555551
 40
0.5740740740740736
 40
0.5740740740740736
 40
0.5740740740740736
 40
0.5740740740740736
 40
0.5925925925925921
 40
0.5925925925925921
 40
0.5925925925925921
 40
0.5925925925925921
 40
0.6111111111111106
 40
0.6111111111111106
 40
0.6111111111111106
 40
0.6111111111111106
 40
0.6296296296296291
 40
0.6296296296296291
 40
0.6296296296296291
 40
0.6296296296296291
 40
0.6481481481481476
 40
0.6481481481481476
 40
0.6481481481481476
 40
0.6481481481481476
 40
0.6666666666666661
 40
0.6666666666666661
 40
0.6666666666666661
 40
0.6666666666666661
 40
0.6851851851851846
 40
0.6851851851851846
 40
0.6851851851851846
 40
0.6851851851851846
 40
0.7037037037037031
 40
0.7037037037037031
 40
0.7037037037037031
 40
0.7037037037037031
 40
0.7222222222222215
 40
0.7222222222222215
 40
0.7222222222222215
 40
0.7222222222222215
 40
0.74074074074074
 40
0.74074074074074
 40
0.74074074074074
 40
0.74074074074074
 40
0.7592592592592585
 40
0.7592592592592585
 40
0.7592592592592585
 40
0.7592592592592585
 40
0.777777777777777
 40
0.777777777777777
 40
0.777777777777777
 40
0.777777777777777
 40
0.7962962962962955
 40
0.7962962962962955
 40
0.7962962962962955
 40
0.7962962962962955
 40
0.814814814814814
 40
0.814814814814814
 40
0.814814814814814
 40
0.814814814814814
 40
0.8333333333333325
 40
0.8333333333333325
 40
0.8333333333333325
 40
0.8333333333333325
 40
0.851851851851851
 40
0.851851851851851
 40
0.851851851851851
 40
0.851851851851851
 40
0.8703703703703695
 40
0.8703703703703695
 40
0.8703703703703695
 40
0.8703703703703695
 40
0.888888888888888
 40
0.888888888888888
 40
0.888888888888888
 40
0.888888888888888
 40
0.9074074074074064
 40
0.9074074074074064
 40
0.9074074074074064
 40
0.9074074074074064
 40
0.9259259259259249
 40
0.9259259259259249
 40
0.9259259259259249
 40
0.9259259259259249
 40
0.9444444444444434
 40
0.9444444444444434
 40
0.9444444444444434
 40
0.9444444444444434
 40
0.9629629629629619
 40
0.9629629629629619
 40
0.9629629629629619
 40
0.9629629629629619
 40
0.9814814814814804
 40
0.9814814814814804
 40
0.9814814814814804
 40
0.9814814814814804
 40
1.0
 40
1.0
 40
1.0
 40
1.0
 10
-0.8179330708661418
 20
1.11042125984252
 30
0.0
 10
-0.8179330708661418
 20
1.11042125984252
 30
0.0
 10
-0.1673346456692914
 20
1.474551181102362
 30
0.0
 10
-0.1673346456692914
 20
1.474551181102362
 30
0.0
 10
-0.1673346456692914
 20
1.474551181102362
 30
0.0
 10
-0.1673346456692914
 20
1.474551181102362
 30
0.0
 10
-0.1178661417322835
 20
1.499
 30
0.0
 10
-0.1178661417322835
 20
1.499
 30
0.0
 10
-0.1178661417322835
 20
1.499
 30
0.0
 10
-0.1178661417322835
 20
1.499
 30
0.0
 10
-0.067503937007874
 20
1.52088188976378
 30
0.0
 10
-0.067503937007874
 20
1.52088188976378
 30
0.0
 10
-0.067503937007874
 20
1.52088188976378
 30
0.0
 10
-0.067503937007874
 20
1.52088188976378
 30
0.0
 10
-0.0163307086614173
 20
1.540181102362205
 30
0.0
 10
-0.0163307086614173
 20
1.540181102362205
 30
0.0
 10
-0.0163307086614173
 20
1.540181102362205
 30
0.0
 10
-0.0163307086614173
 20
1.540181102362205
 30
0.0
 10
0.0355393700787402
 20
1.556913385826772
 30
0.0
 10
0.0355393700787402
 20
1.556913385826772
 30
0.0
 10
0.0355393700787402
 20
1.556913385826772
 30
0.0
 10
0.0355393700787402
 20
1.556913385826772
 30
0.0
 10
0.088011811023622
 20
1.571066929133858
 30
0.0
 10
0.088011811023622
 20
1.571066929133858
 30
0.0
 10
0.088011811023622
 20
1.571066929133858
 30
0.0
 10
0.088011811023622
 20
1.571066929133858
 30
0.0
 10
0.1409803149606299
 20
1.582653543307087
 30
0.0
 10
0.1409803149606299
 20
1.582653543307087
 30
0.0
 10
0.1409803149606299
 20
1.582653543307087
 30
0.0
 10
0.1409803149606299
 20
1.582653543307087
 30
0.0
 10
0.1943503937007874
 20
1.591661417322835
 30
0.0
 10
0.1943503937007874
 20
1.591661417322835
 30
0.0
 10
0.1943503937007874
 20
1.591661417322835
 30
0.0
 10
0.1943503937007874
 20
1.591661417322835
 30
0.0
 10
0.2480196850393701
 20
1.59809842519685
 30
0.0
 10
0.2480196850393701
 20
1.59809842519685
 30
0.0
 10
0.2480196850393701
 20
1.59809842519685
 30
0.0
 10
0.2480196850393701
 20
1.59809842519685
 30
0.0
 10
0.3018937007874016
 20
1.60196062992126
 30
0.0
 10
0.3018937007874016
 20
1.60196062992126
 30
0.0
 10
0.3018937007874016
 20
1.60196062992126
 30
0.0
 10
0.3018937007874016
 20
1.60196062992126
 30
0.0
 10
0.3558543307086614
 20
1.603248031496063
 30
0.0
 10
0.3558543307086614
 20
1.603248031496063
 30
0.0
 10
0.3558543307086614
 20
1.603248031496063
 30
0.0
 10
0.3558543307086614
 20
1.603248031496063
 30
0.0
 10
0.4098267716535433
 20
1.60196062992126
 30
0.0
 10
0.4098267716535433
 20
1.60196062992126
 30
0.0
 10
0.4098267716535433
 20
1.60196062992126
 30
0.0
 10
0.4098267716535433
 20
1.60196062992126
 30
0.0
 10
0.4636968503937008
 20
1.59809842519685
 30
0.0
 10
0.4636968503937008
 20
1.59809842519685
 30
0.0
 10
0.4636968503937008
 20
1.59809842519685
 30
0.0
 10
0.4636968503937008
 20
1.59809842519685
 30
0.0
 10
0.5173700787401575
 20
1.591661417322835
 30
0.0
 10
0.5173700787401575
 20
1.591661417322835
 30
0.0
 10
0.5173700787401575
 20
1.591661417322835
 30
0.0
 10
0.5173700787401575
 20
1.591661417322835
 30
0.0
 10
0.570736220472441
 20
1.582653543307087
 30
0.0
 10
0.570736220472441
 20
1.582653543307087
 30
0.0
 10
0.570736220472441
 20
1.582653543307087
 30
0.0
 10
0.570736220472441
 20
1.582653543307087
 30
0.0
 10
0.6237047244094488
 20
1.571066929133858
 30
0.0
 10
0.6237047244094488
 20
1.571066929133858
 30
0.0
 10
0.6237047244094488
 20
1.571066929133858
 30
0.0
 10
0.6237047244094488
 20
1.571066929133858
 30
0.0
 10
0.6761692913385827
 20
1.556913385826772
 30
0.0
 10
0.6761692913385827
 20
1.556913385826772
 30
0.0
 10
0.6761692913385827
 20
1.556913385826772
 30
0.0
 10
0.6761692913385827
 20
1.556913385826772
 30
0.0
 10
0.7280354330708662
 20
1.540181102362205
 30
0.0
 10
0.7280354330708662
 20
1.540181102362205
 30
0.0
 10
0.7280354330708662
 20
1.540181102362205
 30
0.0
 10
0.7280354330708662
 20
1.540181102362205
 30
0.0
 10
0.7792086614173228
 20
1.52088188976378
 30
0.0
 10
0.7792086614173228
 20
1.52088188976378
 30
0.0
 10
0.7792086614173228
 20
1.52088188976378
 30
0.0
 10
0.7792086614173228
 20
1.52088188976378
 30
0.0
 10
0.8295708661417324
 20
1.499
 30
0.0
 10
0.8295708661417324
 20
1.499
 30
0.0
 10
0.8295708661417324
 20
1.499
 30
0.0
 10
0.8295708661417324
 20
1.499
 30
0.0
 10
0.8790393700787402
 20
1.474551181102362
 30
0.0
 10
0.8790393700787402
 20
1.474551181102362
 30
0.0
 10
0.8790393700787402
 20
1.474551181102362
 30
0.0
 10
0.8790393700787402
 20
1.474551181102362
 30
0.0
 10
0.9275078740157481
 20
1.447527559055118
 30
0.0
 10
0.9275078740157481
 20
1.447527559055118
 30
0.0
 10
0.9275078740157481
 20
1.447527559055118
 30
0.0
 10
0.9275078740157481
 20
1.447527559055118
 30
0.0
 10
0.9748779527559055
 20
1.417929133858268
 30
0.0
 10
0.9748779527559055
 20
1.417929133858268
 30
0.0
 10
0.9748779527559055
 20
1.417929133858268
 30
0.0
 10
0.9748779527559055
 20
1.417929133858268
 30
0.0
 10
1.021043307086614
 20
1.385755905511811
 30
0.0
 10
1.021043307086614
 20
1.385755905511811
 30
0.0
 10
1.021043307086614
 20
1.385755905511811
 30
0.0
 10
1.021043307086614
 20
1.385755905511811
 30
0.0
 10
1.065909448818898
 20
1.351011811023622
 30
0.0
 10
1.065909448818898
 20
1.351011811023622
 30
0.0
 10
1.065909448818898
 20
1.351011811023622
 30
0.0
 10
1.065909448818898
 20
1.351011811023622
 30
0.0
 10
1.109374015748032
 20
1.313688976377953
 30
0.0
 10
1.109374015748032
 20
1.313688976377953
 30
0.0
 10
1.109374015748032
 20
1.313688976377953
 30
0.0
 10
1.109374015748032
 20
1.313688976377953
 30
0.0
 10
1.151346456692914
 20
1.273803149606299
 30
0.0
 10
1.151346456692914
 20
1.273803149606299
 30
0.0
 10
1.151346456692914
 20
1.273803149606299
 30
0.0
 10
1.151346456692914
 20
1.273803149606299
 30
0.0
 10
0.5007480314960631
 20
0.9096732283464567
 30
0.0
 10
0.5007480314960631
 20
0.9096732283464567
 30
0.0
 10
0.5007480314960631
 20
0.9096732283464567
 30
0.0
 10
0.5007480314960631
 20
0.9096732283464567
 30
0.0
 10
0.4587755905511811
 20
0.9495590551181102
 30
0.0
 10
0.4587755905511811
 20
0.9495590551181102
 30
0.0
 10
0.4587755905511811
 20
0.9495590551181102
 30
0.0
 10
0.4587755905511811
 20
0.9495590551181102
 30
0.0
 10
0.4153110236220473
 20
0.9868818897637796
 30
0.0
 10
0.4153110236220473
 20
0.9868818897637796
 30
0.0
 10
0.4153110236220473
 20
0.9868818897637796
 30
0.0
 10
0.4153110236220473
 20
0.9868818897637796
 30
0.0
 10
0.3704448818897638
 20
1.021625984251969
 30
0.0
 10
0.3704448818897638
 20
1.021625984251969
 30
0.0
 10
0.3704448818897638
 20
1.021625984251969
 30
0.0
 10
0.3704448818897638
 20
1.021625984251969
 30
0.0
 10
0.3242795275590552
 20
1.053799212598425
 30
0.0
 10
0.3242795275590552
 20
1.053799212598425
 30
0.0
 10
0.3242795275590552
 20
1.053799212598425
 30
0.0
 10
0.3242795275590552
 20
1.053799212598425
 30
0.0
 10
0.2769094488188977
 20
1.083397637795276
 30
0.0
 10
0.2769094488188977
 20
1.083397637795276
 30
0.0
 10
0.2769094488188977
 20
1.083397637795276
 30
0.0
 10
0.2769094488188977
 20
1.083397637795276
 30
0.0
 10
0.2284409448818898
 20
1.11042125984252
 30
0.0
 10
0.2284409448818898
 20
1.11042125984252
 30
0.0
 10
0.2284409448818898
 20
1.11042125984252
 30
0.0
 10
0.2284409448818898
 20
1.11042125984252
 30
0.0
 10
0.1789724409448819
 20
1.134870078740158
 30
0.0
 10
0.1789724409448819
 20
1.134870078740158
 30
0.0
 10
0.1789724409448819
 20
1.134870078740158
 30
0.0
 10
0.1789724409448819
 20
1.134870078740158
 30
0.0
 10
0.1286102362204724
 20
1.156751968503937
 30
0.0
 10
0.1286102362204724
 20
1.156751968503937
 30
0.0
 10
0.1286102362204724
 20
1.156751968503937
 30
0.0
 10
0.1286102362204724
 20
1.156751968503937
 30
0.0
 10
0.0774370078740158
 20
1.176051181102362
 30
0.0
 10
0.0774370078740158
 20
1.176051181102362
 30
0.0
 10
0.0774370078740158
 20
1.176051181102362
 30
0.0
 10
0.0774370078740158
 20
1.176051181102362
 30
0.0
 10
0.0255708661417323
 20
1.192783464566929
 30
0.0
 10
0.0255708661417323
 20
1.192783464566929
 30
0.0
 10
0.0255708661417323
 20
1.192783464566929
 30
0.0
 10
0.0255708661417323
 20
1.192783464566929
 30
0.0
 10
-0.0268937007874016
 20
1.206937007874016
 30
0.0
 10
-0.0268937007874016
 20
1.206937007874016
 30
0.0
 10
-0.0268937007874016
 20
1.206937007874016
 30
0.0
 10
-0.0268937007874016
 20
1.206937007874016
 30
0.0
 10
-0.0798622047244095
 20
1.218523622047244
 30
0.0
 10
-0.0798622047244095
 20
1.218523622047244
 30
0.0
 10
-0.0798622047244095
 20
1.218523622047244
 30
0.0
 10
-0.0798622047244095
 20
1.218523622047244
 30
0.0
 10
-0.1332283464566929
 20
1.227531496062992
 30
0.0
 10
-0.1332283464566929
 20
1.227531496062992
 30
0.0
 10
-0.1332283464566929
 20
1.227531496062992
 30
0.0
 10
-0.1332283464566929
 20
1.227531496062992
 30
0.0
 10
-0.1869015748031496
 20
1.233968503937008
 30
0.0
 10
-0.1869015748031496
 20
1.233968503937008
 30
0.0
 10
-0.1869015748031496
 20
1.233968503937008
 30
0.0
 10
-0.1869015748031496
 20
1.233968503937008
 30
0.0
 10
-0.2407716535433071
 20
1.237830708661417
 30
0.0
 10
-0.2407716535433071
 20
1.237830708661417
 30
0.0
 10
-0.2407716535433071
 20
1.237830708661417
 30
0.0
 10
-0.2407716535433071
 20
1.237830708661417
 30
0.0
 10
-0.294744094488189
 20
1.239118110236221
 30
0.0
 10
-0.294744094488189
 20
1.239118110236221
 30
0.0
 10
-0.294744094488189
 20
1.239118110236221
 30
0.0
 10
-0.294744094488189
 20
1.239118110236221
 30
0.0
 10
-0.3487047244094488
 20
1.237830708661417
 30
0.0
 10
-0.3487047244094488
 20
1.237830708661417
 30
0.0
 10
-0.3487047244094488
 20
1.237830708661417
 30
0.0
 10
-0.3487047244094488
 20
1.237830708661417
 30
0.0
 10
-0.4025787401574804
 20
1.233968503937008
 30
0.0
 10
-0.4025787401574804
 20
1.233968503937008
 30
0.0
 10
-0.4025787401574804
 20
1.233968503937008
 30
0.0
 10
-0.4025787401574804
 20
1.233968503937008
 30
0.0
 10
-0.456248031496063
 20
1.227531496062992
 30
0.0
 10
-0.456248031496063
 20
1.227531496062992
 30
0.0
 10
-0.456248031496063
 20
1.227531496062992
 30
0.0
 10
-0.456248031496063
 20
1.227531496062992
 30
0.0
 10
-0.5096181102362205
 20
1.218523622047244
 30
0.0
 10
-0.5096181102362205
 20
1.218523622047244
 30
0.0
 10
-0.5096181102362205
 20
1.218523622047244
 30
0.0
 10
-0.5096181102362205
 20
1.218523622047244
 30
0.0
 10
-0.5625866141732284
 20
1.206937007874016
 30
0.0
 10
-0.5625866141732284
 20
1.206937007874016
 30
0.0
 10
-0.5625866141732284
 20
1.206937007874016
 30
0.0
 10
-0.5625866141732284
 20
1.206937007874016
 30
0.0
 10
-0.6150590551181102
 20
1.192783464566929
 30
0.0
 10
-0.6150590551181102
 20
1.192783464566929
 30
0.0
 10
-0.6150590551181102
 20
1.192783464566929
 30
0.0
 10
-0.6150590551181102
 20
1.192783464566929
 30
0.0
 10
-0.6669291338582677
 20
1.176051181102362
 30
0.0
 10
-0.6669291338582677
 20
1.176051181102362
 30
0.0
 10
-0.6669291338582677
 20
1.176051181102362
 30
0.0
 10
-0.6669291338582677
 20
1.176051181102362
 30
0.0
 10
-0.7181023622047245
 20
1.156751968503937
 30
0.0
 10
-0.7181023622047245
 20
1.156751968503937
 30
0.0
 10
-0.7181023622047245
 20
1.156751968503937
 30
0.0
 10
-0.7181023622047245
 20
1.156751968503937
 30
0.0
 10
-0.7684645669291339
 20
1.134870078740158
 30
0.0
 10
-0.7684645669291339
 20
1.134870078740158
 30
0.0
 10
-0.7684645669291339
 20
1.134870078740158
 30
0.0
 10
-0.7684645669291339
 20
1.134870078740158
 30
0.0
 10
-0.8179330708661418
 20
1.11042125984252
 30
0.0
 10
-0.8179330708661418
 20
1.11042125984252
 30
0.0
  0
SPLINE
  5
69
330
1F
100
AcDbEntity
  8
LAYER_1
 62
     8
100
AcDbSpline
210
0.0
220
0.0
230
1.0
 70
    11
 71
     3
 72
    20
 73
    16
 74
     0
 42
0.0000000001
 43
0.0000000001
 40
0.0
 40
0.0
 40
0.0
 40
0.0
 40
0.25
 40
0.25
 40
0.25
 40
0.25
 40
0.5
 40
0.5
 40
0.5
 40
0.5
 40
0.75
 40
0.75
 40
0.75
 40
0.75
 40
1.0
 40
1.0
 40
1.0
 40
1.0
 10
0.5007480314960631
 20
0.9096732283464567
 30
0.0
 10
0.5007480314960631
 20
0.9096732283464567
 30
0.0
 10
1.151346456692914
 20
1.273803149606299
 30
0.0
 10
1.151346456692914
 20
1.273803149606299
 30
0.0
 10
1.151346456692914
 20
1.273803149606299
 30
0.0
 10
1.151346456692914
 20
1.273803149606299
 30
0.0
 10
0.62448031496063
 20
0.7470196850393701
 30
0.0
 10
0.62448031496063
 20
0.7470196850393701
 30
0.0
 10
0.62448031496063
 20
0.7470196850393701
 30
0.0
 10
0.62448031496063
 20
0.7470196850393701
 30
0.0
 10
-0.0261181102362205
 20
0.3828897637795276
 30
0.0
 10
-0.0261181102362205
 20
0.3828897637795276
 30
0.0
 10
-0.0261181102362205
 20
0.3828897637795276
 30
0.0
 10
-0.0261181102362205
 20
0.3828897637795276
 30
0.0
 10
0.5007480314960631
 20
0.9096732283464567
 30
0.0
 10
0.5007480314960631
 20
0.9096732283464567
 30
0.0
  0
SPLINE
  5
6A
330
1F
100
AcDbEntity
  8
LAYER_1
 62
   250
100
AcDbSpline
210
0.0
220
0.0
230
1.0
 70
    11
 71
     3
 72
    20
 73
    16
 74
     0
 42
0.0000000001
 43
0.0000000001
 40
0.0
 40
0.0
 40
0.0
 40
0.0
 40
0.25
 40
0.25
 40
0.25
 40
0.25
 40
0.5
 40
0.5
 40
0.5
 40
0.5
 40
0.75
 40
0.75
 40
0.75
 40
0.75
 40
1.0
 40
1.0
 40
1.0
 40
1.0
 10
0.5007480314960631
 20
0.9096732283464567
 30
0.0
 10
0.5007480314960631
 20
0.9096732283464567
 30
0.0
 10
1.151346456692914
 20
1.273803149606299
 30
0.0
 10
1.151346456692914
 20
1.273803149606299
 30
0.0
 10
1.151346456692914
 20
1.273803149606299
 30
0.0
 10
1.151346456692914
 20
1.273803149606299
 30
0.0
 10
0.62448031496063
 20
0.7470196850393701
 30
0.0
 10
0.62448031496063
 20
0.7470196850393701
 30
0.0
 10
0.62448031496063
 20
0.7470196850393701
 30
0.0
 10
0.62448031496063
 20
0.7470196850393701
 30
0.0
 10
-0.0261181102362205
 20
0.3828897637795276
 30
0.0
 10
-0.0261181102362205
 20
0.3828897637795276
 30
0.0
 10
-0.0261181102362205
 20
0.3828897637795276
 30
0.0
 10
-0.0261181102362205
 20
0.3828897637795276
 30
0.0
 10
0.5007480314960631
 20
0.9096732283464567
 30
0.0
 10
0.5007480314960631
 20
0.9096732283464567
 30
0.0
  0
SPLINE
  5
6B
330
1F
100
AcDbEntity
  8
LAYER_1
 62
   251
100
AcDbSpline
210
0.0
220
0.0
230
1.0
 70
    11
 71
     3
 72
    28
 73
    24
 74
     0
 42
0.0000000001
 43
0.0000000001
 40
0.0
 40
0.0
 40
0.0
 40
0.0
 40
0.1666666666666667
 40
0.1666666666666667
 40
0.1666666666666667
 40
0.1666666666666667
 40
0.3333333333333333
 40
0.3333333333333333
 40
0.3333333333333333
 40
0.3333333333333333
 40
0.5
 40
0.5
 40
0.5
 40
0.5
 40
0.6666666666666666
 40
0.6666666666666666
 40
0.6666666666666666
 40
0.6666666666666666
 40
0.8333333333333333
 40
0.8333333333333333
 40
0.8333333333333333
 40
0.8333333333333333
 40
1.0
 40
1.0
 40
1.0
 40
1.0
 10
-0.4818267716535433
 20
0.4407874015748032
 30
0.0
 10
-0.4818267716535433
 20
0.4407874015748032
 30
0.0
 10
0.1687716535433071
 20
0.8049173228346457
 30
0.0
 10
0.1687716535433071
 20
0.8049173228346457
 30
0.0
 10
0.1687716535433071
 20
0.8049173228346457
 30
0.0
 10
0.1687716535433071
 20
0.8049173228346457
 30
0.0
 10
0.1529803149606299
 20
0.7950551181102362
 30
0.0
 10
0.1529803149606299
 20
0.7950551181102362
 30
0.0
 10
0.1529803149606299
 20
0.7950551181102362
 30
0.0
 10
0.1529803149606299
 20
0.7950551181102362
 30
0.0
 10
0.1375944881889764
 20
0.7843267716535434
 30
0.0
 10
0.1375944881889764
 20
0.7843267716535434
 30
0.0
 10
0.1375944881889764
 20
0.7843267716535434
 30
0.0
 10
0.1375944881889764
 20
0.7843267716535434
 30
0.0
 10
-0.5130039370078741
 20
0.4201968503937008
 30
0.0
 10
-0.5130039370078741
 20
0.4201968503937008
 30
0.0
 10
-0.5130039370078741
 20
0.4201968503937008
 30
0.0
 10
-0.5130039370078741
 20
0.4201968503937008
 30
0.0
 10
-0.4976181102362205
 20
0.4309251968503937
 30
0.0
 10
-0.4976181102362205
 20
0.4309251968503937
 30
0.0
 10
-0.4976181102362205
 20
0.4309251968503937
 30
0.0
 10
-0.4976181102362205
 20
0.4309251968503937
 30
0.0
 10
-0.4818267716535433
 20
0.4407874015748032
 30
0.0
 10
-0.4818267716535433
 20
0.4407874015748032
 30
0.0
  0
SPLINE
  5
6C
330
1F
100
AcDbEntity
  8
LAYER_1
 62
   251
100
AcDbSpline
210
0.0
220
0.0
230
1.0
 70
    11
 71
     3
 72
    28
 73
    24
 74
     0
 42
0.0000000001
 43
0.0000000001
 40
0.0
 40
0.0
 40
0.0
 40
0.0
 40
0.1666666666666667
 40
0.1666666666666667
 40
0.1666666666666667
 40
0.1666666666666667
 40
0.3333333333333333
 40
0.3333333333333333
 40
0.3333333333333333
 40
0.3333333333333333
 40
0.5
 40
0.5
 40
0.5
 40
0.5
 40
0.6666666666666666
 40
0.6666666666666666
 40
0.6666666666666666
 40
0.6666666666666666
 40
0.8333333333333333
 40
0.8333333333333333
 40
0.8333333333333333
 40
0.8333333333333333
 40
1.0
 40
1.0
 40
1.0
 40
1.0
 10
-0.5130039370078741
 20
0.4201968503937008
 30
0.0
 10
-0.5130039370078741
 20
0.4201968503937008
 30
0.0
 10
0.1375944881889764
 20
0.7843267716535434
 30
0.0
 10
0.1375944881889764
 20
0.7843267716535434
 30
0.0
 10
0.1375944881889764
 20
0.7843267716535434
 30
0.0
 10
0.1375944881889764
 20
0.7843267716535434
 30
0.0
 10
0.1226338582677165
 20
0.772748031496063
 30
0.0
 10
0.1226338582677165
 20
0.772748031496063
 30
0.0
 10
0.1226338582677165
 20
0.772748031496063
 30
0.0
 10
0.1226338582677165
 20
0.772748031496063
 30
0.0
 10
0.1081456692913386
 20
0.7603110236220473
 30
0.0
 10
0.1081456692913386
 20
0.7603110236220473
 30
0.0
 10
0.1081456692913386
 20
0.7603110236220473
 30
0.0
 10
0.1081456692913386
 20
0.7603110236220473
 30
0.0
 10
-0.5424527559055118
 20
0.3961811023622047
 30
0.0
 10
-0.5424527559055118
 20
0.3961811023622047
 30
0.0
 10
-0.5424527559055118
 20
0.3961811023622047
 30
0.0
 10
-0.5424527559055118
 20
0.3961811023622047
 30
0.0
 10
-0.5279645669291339
 20
0.4086181102362205
 30
0.0
 10
-0.5279645669291339
 20
0.4086181102362205
 30
0.0
 10
-0.5279645669291339
 20
0.4086181102362205
 30
0.0
 10
-0.5279645669291339
 20
0.4086181102362205
 30
0.0
 10
-0.5130039370078741
 20
0.4201968503937008
 30
0.0
 10
-0.5130039370078741
 20
0.4201968503937008
 30
0.0
  0
SPLINE
  5
6D
330
1F
100
AcDbEntity
  8
LAYER_1
 62
   251
100
AcDbSpline
210
0.0
220
0.0
230
1.0
 70
    11
 71
     3
 72
    20
 73
    16
 74
     0
 42
0.0000000001
 43
0.0000000001
 40
0.0
 40
0.0
 40
0.0
 40
0.0
 40
0.25
 40
0.25
 40
0.25
 40
0.25
 40
0.5
 40
0.5
 40
0.5
 40
0.5
 40
0.75
 40
0.75
 40
0.75
 40
0.75
 40
1.0
 40
1.0
 40
1.0
 40
1.0
 10
-0.5424527559055118
 20
0.3961811023622047
 30
0.0
 10
-0.5424527559055118
 20
0.3961811023622047
 30
0.0
 10
0.1081456692913386
 20
0.7603110236220473
 30
0.0
 10
0.1081456692913386
 20
0.7603110236220473
 30
0.0
 10
0.1081456692913386
 20
0.7603110236220473
 30
0.0
 10
0.1081456692913386
 20
0.7603110236220473
 30
0.0
 10
0.0941535433070866
 20
0.7470196850393701
 30
0.0
 10
0.0941535433070866
 20
0.7470196850393701
 30
0.0
 10
0.0941535433070866
 20
0.7470196850393701
 30
0.0
 10
0.0941535433070866
 20
0.7470196850393701
 30
0.0
 10
-0.5564448818897638
 20
0.3828897637795276
 30
0.0
 10
-0.5564448818897638
 20
0.3828897637795276
 30
0.0
 10
-0.5564448818897638
 20
0.3828897637795276
 30
0.0
 10
-0.5564448818897638
 20
0.3828897637795276
 30
0.0
 10
-0.5424527559055118
 20
0.3961811023622047
 30
0.0
 10
-0.5424527559055118
 20
0.3961811023622047
 30
0.0
  0
SPLINE
  5
6E
330
1F
100
AcDbEntity
  8
LAYER_1
 62
   250
100
AcDbSpline
210
0.0
220
0.0
230
1.0
 70
    11
 71
     3
 72
    52
 73
    48
 74
     0
 42
0.0000000001
 43
0.0000000001
 40
0.0
 40
0.0
 40
0.0
 40
0.0
 40
0.0833333333333333
 40
0.0833333333333333
 40
0.0833333333333333
 40
0.0833333333333333
 40
0.1666666666666667
 40
0.1666666666666667
 40
0.1666666666666667
 40
0.1666666666666667
 40
0.25
 40
0.25
 40
0.25
 40
0.25
 40
0.3333333333333333
 40
0.3333333333333333
 40
0.3333333333333333
 40
0.3333333333333333
 40
0.4166666666666666
 40
0.4166666666666666
 40
0.4166666666666666
 40
0.4166666666666666
 40
0.4999999999999999
 40
0.4999999999999999
 40
0.4999999999999999
 40
0.4999999999999999
 40
0.5833333333333333
 40
0.5833333333333333
 40
0.5833333333333333
 40
0.5833333333333333
 40
0.6666666666666666
 40
0.6666666666666666
 40
0.6666666666666666
 40
0.6666666666666666
 40
0.75
 40
0.75
 40
0.75
 40
0.75
 40
0.8333333333333334
 40
0.8333333333333334
 40
0.8333333333333334
 40
0.8333333333333334
 40
0.9166666666666667
 40
0.9166666666666667
 40
0.9166666666666667
 40
0.9166666666666667
 40
1.0
 40
1.0
 40
1.0
 40
1.0
 10
-0.4818267716535433
 20
0.4407874015748032
 30
0.0
 10
-0.4818267716535433
 20
0.4407874015748032
 30
0.0
 10
0.1687716535433071
 20
0.8049173228346457
 30
0.0
 10
0.1687716535433071
 20
0.8049173228346457
 30
0.0
 10
0.1687716535433071
 20
0.8049173228346457
 30
0.0
 10
0.1687716535433071
 20
0.8049173228346457
 30
0.0
 10
0.1529803149606299
 20
0.7950551181102362
 30
0.0
 10
0.1529803149606299
 20
0.7950551181102362
 30
0.0
 10
0.1529803149606299
 20
0.7950551181102362
 30
0.0
 10
0.1529803149606299
 20
0.7950551181102362
 30
0.0
 10
0.1375944881889764
 20
0.7843267716535434
 30
0.0
 10
0.1375944881889764
 20
0.7843267716535434
 30
0.0
 10
0.1375944881889764
 20
0.7843267716535434
 30
0.0
 10
0.1375944881889764
 20
0.7843267716535434
 30
0.0
 10
0.1226338582677165
 20
0.772748031496063
 30
0.0
 10
0.1226338582677165
 20
0.772748031496063
 30
0.0
 10
0.1226338582677165
 20
0.772748031496063
 30
0.0
 10
0.1226338582677165
 20
0.772748031496063
 30
0.0
 10
0.1081456692913386
 20
0.7603110236220473
 30
0.0
 10
0.1081456692913386
 20
0.7603110236220473
 30
0.0
 10
0.1081456692913386
 20
0.7603110236220473
 30
0.0
 10
0.1081456692913386
 20
0.7603110236220473
 30
0.0
 10
0.0941535433070866
 20
0.7470196850393701
 30
0.0
 10
0.0941535433070866
 20
0.7470196850393701
 30
0.0
 10
0.0941535433070866
 20
0.7470196850393701
 30
0.0
 10
0.0941535433070866
 20
0.7470196850393701
 30
0.0
 10
-0.5564448818897638
 20
0.3828897637795276
 30
0.0
 10
-0.5564448818897638
 20
0.3828897637795276
 30
0.0
 10
-0.5564448818897638
 20
0.3828897637795276
 30
0.0
 10
-0.5564448818897638
 20
0.3828897637795276
 30
0.0
 10
-0.5424527559055118
 20
0.3961811023622047
 30
0.0
 10
-0.5424527559055118
 20
0.3961811023622047
 30
0.0
 10
-0.5424527559055118
 20
0.3961811023622047
 30
0.0
 10
-0.5424527559055118
 20
0.3961811023622047
 30
0.0
 10
-0.5279645669291339
 20
0.4086181102362205
 30
0.0
 10
-0.5279645669291339
 20
0.4086181102362205
 30
0.0
 10
-0.5279645669291339
 20
0.4086181102362205
 30
0.0
 10
-0.5279645669291339
 20
0.4086181102362205
 30
0.0
 10
-0.5130039370078741
 20
0.4201968503937008
 30
0.0
 10
-0.5130039370078741
 20
0.4201968503937008
 30
0.0
 10
-0.5130039370078741
 20
0.4201968503937008
 30
0.0
 10
-0.5130039370078741
 20
0.4201968503937008
 30
0.0
 10
-0.4976181102362205
 20
0.4309251968503937
 30
0.0
 10
-0.4976181102362205
 20
0.4309251968503937
 30
0.0
 10
-0.4976181102362205
 20
0.4309251968503937
 30
0.0
 10
-0.4976181102362205
 20
0.4309251968503937
 30
0.0
 10
-0.4818267716535433
 20
0.4407874015748032
 30
0.0
 10
-0.4818267716535433
 20
0.4407874015748032
 30
0.0
  0
SPLINE
  5
6F
330
1F
100
AcDbEntity
  8
LAYER_1
 62
     7
100
AcDbSpline
210
0.0
220
0.0
230
1.0
 70
    11
 71
     3
 72
    20
 73
    16
 74
     0
 42
0.0000000001
 43
0.0000000001
 40
0.0
 40
0.0
 40
0.0
 40
0.0
 40
0.25
 40
0.25
 40
0.25
 40
0.25
 40
0.5
 40
0.5
 40
0.5
 40
0.5
 40
0.75
 40
0.75
 40
0.75
 40
0.75
 40
1.0
 40
1.0
 40
1.0
 40
1.0
 10
-1.090244094488189
 20
0.9096732283464567
 30
0.0
 10
-0.6509803149606299
 20
1.348937007874016
 30
0.0
 10
0.0614842519685039
 20
1.348937007874016
 30
0.0
 10
0.5007480314960631
 20
0.9096732283464567
 30
0.0
 10
0.5007480314960631
 20
0.9096732283464567
 30
0.0
 10
0.5007480314960631
 20
0.9096732283464567
 30
0.0
 10
-0.0261181102362205
 20
0.3828897637795276
 30
0.0
 10
-0.0261181102362205
 20
0.3828897637795276
 30
0.0
 10
-0.0261181102362205
 20
0.3828897637795276
 30
0.0
 10
-0.1725393700787402
 20
0.5293110236220473
 30
0.0
 10
-0.4100236220472441
 20
0.5293110236220473
 30
0.0
 10
-0.5564448818897638
 20
0.3828897637795276
 30
0.0
 10
-0.5564448818897638
 20
0.3828897637795276
 30
0.0
 10
-0.5564448818897638
 20
0.3828897637795276
 30
0.0
 10
-1.090244094488189
 20
0.9096732283464567
 30
0.0
 10
-1.090244094488189
 20
0.9096732283464567
 30
0.0
  0
SPLINE
  5
70
330
1F
100
AcDbEntity
  8
LAYER_1
 62
   250
100
AcDbSpline
210
0.0
220
0.0
230
1.0
 70
    11
 71
     3
 72
   104
 73
   100
 74
     0
 42
0.0000000001
 43
0.0000000001
 40
0.0
 40
0.0
 40
0.0
 40
0.0
 40
0.04
 40
0.04
 40
0.04
 40
0.04
 40
0.08
 40
0.08
 40
0.08
 40
0.08
 40
0.12
 40
0.12
 40
0.12
 40
0.12
 40
0.16
 40
0.16
 40
0.16
 40
0.16
 40
0.2
 40
0.2
 40
0.2
 40
0.2
 40
0.24
 40
0.24
 40
0.24
 40
0.24
 40
0.28
 40
0.28
 40
0.28
 40
0.28
 40
0.32
 40
0.32
 40
0.32
 40
0.32
 40
0.36
 40
0.36
 40
0.36
 40
0.36
 40
0.4
 40
0.4
 40
0.4
 40
0.4
 40
0.44
 40
0.44
 40
0.44
 40
0.44
 40
0.4799999999999999
 40
0.4799999999999999
 40
0.4799999999999999
 40
0.4799999999999999
 40
0.5199999999999999
 40
0.5199999999999999
 40
0.5199999999999999
 40
0.5199999999999999
 40
0.5599999999999999
 40
0.5599999999999999
 40
0.5599999999999999
 40
0.5599999999999999
 40
0.6
 40
0.6
 40
0.6
 40
0.6
 40
0.64
 40
0.64
 40
0.64
 40
0.64
 40
0.6800000000000001
 40
0.6800000000000001
 40
0.6800000000000001
 40
0.6800000000000001
 40
0.7200000000000001
 40
0.7200000000000001
 40
0.7200000000000001
 40
0.7200000000000001
 40
0.7600000000000001
 40
0.7600000000000001
 40
0.7600000000000001
 40
0.7600000000000001
 40
0.8000000000000002
 40
0.8000000000000002
 40
0.8000000000000002
 40
0.8000000000000002
 40
0.8400000000000002
 40
0.8400000000000002
 40
0.8400000000000002
 40
0.8400000000000002
 40
0.8800000000000002
 40
0.8800000000000002
 40
0.8800000000000002
 40
0.8800000000000002
 40
0.9200000000000003
 40
0.9200000000000003
 40
0.9200000000000003
 40
0.9200000000000003
 40
0.9600000000000003
 40
0.9600000000000003
 40
0.9600000000000003
 40
0.9600000000000003
 40
1.0
 40
1.0
 40
1.0
 40
1.0
 10
-0.3380511811023622
 20
0.1539803149606299
 30
0.0
 10
-0.3380511811023622
 20
0.1539803149606299
 30
0.0
 10
-0.2840787401574803
 20
0.1539803149606299
 30
0.0
 10
-0.2840787401574803
 20
0.1539803149606299
 30
0.0
 10
-0.2840787401574803
 20
0.1539803149606299
 30
0.0
 10
-0.2709094488188977
 20
0.1539803149606299
 30
0.0
 10
-0.2618818897637795
 20
0.1533700787401575
 30
0.0
 10
-0.256996062992126
 20
0.1521732283464567
 30
0.0
 10
-0.256996062992126
 20
0.1521732283464567
 30
0.0
 10
-0.2497716535433071
 20
0.1504527559055118
 30
0.0
 10
-0.2440787401574803
 20
0.1473149606299213
 30
0.0
 10
-0.2398543307086614
 20
0.142755905511811
 30
0.0
 10
-0.2398543307086614
 20
0.142755905511811
 30
0.0
 10
-0.2356614173228347
 20
0.1382007874015748
 30
0.0
 10
-0.2335511811023622
 20
0.1327007874015748
 30
0.0
 10
-0.2335511811023622
 20
0.1263149606299213
 30
0.0
 10
-0.2335511811023622
 20
0.1263149606299213
 30
0.0
 10
-0.2335511811023622
 20
0.1217007874015748
 30
0.0
 10
-0.2346614173228347
 20
0.1175629921259843
 30
0.0
 10
-0.2368818897637795
 20
0.1138976377952756
 30
0.0
 10
-0.2368818897637795
 20
0.1138976377952756
 30
0.0
 10
-0.2391062992125984
 20
0.1102283464566929
 30
0.0
 10
-0.2423543307086614
 20
0.1070905511811024
 30
0.0
 10
-0.2465787401574803
 20
0.104507874015748
 30
0.0
 10
-0.2465787401574803
 20
0.104507874015748
 30
0.0
 10
-0.2492992125984252
 20
0.1028149606299213
 30
0.0
 10
-0.2529685039370079
 20
0.1013700787401575
 30
0.0
 10
-0.2576338582677166
 20
0.1001732283464567
 30
0.0
 10
-0.2576338582677166
 20
0.1001732283464567
 30
0.0
 10
-0.2517165354330709
 20
0.0990905511811024
 30
0.0
 10
-0.2472165354330709
 20
0.0977874015748032
 30
0.0
 10
-0.2441338582677166
 20
0.0962874015748032
 30
0.0
 10
-0.2441338582677166
 20
0.0962874015748032
 30
0.0
 10
-0.2394685039370079
 20
0.094007874015748
 30
0.0
 10
-0.2357716535433071
 20
0.090759842519685
 30
0.0
 10
-0.2330787401574803
 20
0.086507874015748
 30
0.0
 10
-0.2330787401574803
 20
0.086507874015748
 30
0.0
 10
-0.2303543307086614
 20
0.0822874015748032
 30
0.0
 10
-0.228996062992126
 20
0.077507874015748
 30
0.0
 10
-0.228996062992126
 20
0.0722007874015748
 30
0.0
 10
-0.228996062992126
 20
0.0722007874015748
 30
0.0
 10
-0.228996062992126
 20
0.0670354330708661
 30
0.0
 10
-0.2303267716535433
 20
0.062259842519685
 30
0.0
 10
-0.232996062992126
 20
0.0578700787401575
 30
0.0
 10
-0.232996062992126
 20
0.0578700787401575
 30
0.0
 10
-0.2356338582677165
 20
0.0534803149606299
 30
0.0
 10
-0.2394094488188976
 20
0.0498700787401575
 30
0.0
 10
-0.244244094488189
 20
0.0470354330708661
 30
0.0
 10
-0.244244094488189
 20
0.0470354330708661
 30
0.0
 10
-0.2491062992125984
 20
0.0442322834645669
 30
0.0
 10
-0.2547716535433071
 20
0.0424251968503937
 30
0.0
 10
-0.2612165354330709
 20
0.0416181102362205
 30
0.0
 10
-0.2612165354330709
 20
0.0416181102362205
 30
0.0
 10
-0.2676889763779528
 20
0.0408425196850394
 30
0.0
 10
-0.2743267716535433
 20
0.0404527559055118
 30
0.0
 10
-0.2811614173228347
 20
0.0404527559055118
 30
0.0
 10
-0.2811614173228347
 20
0.0404527559055118
 30
0.0
 10
-0.2811614173228347
 20
0.0404527559055118
 30
0.0
 10
-0.3380511811023622
 20
0.0404527559055118
 30
0.0
 10
-0.3380511811023622
 20
0.0404527559055118
 30
0.0
 10
-0.3380511811023622
 20
0.0404527559055118
 30
0.0
 10
-0.3380511811023622
 20
0.0404527559055118
 30
0.0
 10
-0.3380511811023622
 20
0.0472874015748031
 30
0.0
 10
-0.3380511811023622
 20
0.0472874015748031
 30
0.0
 10
-0.3380511811023622
 20
0.0472874015748031
 30
0.0
 10
-0.3380511811023622
 20
0.0472874015748031
 30
0.0
 10
-0.3342165354330709
 20
0.0472874015748031
 30
0.0
 10
-0.3342165354330709
 20
0.0472874015748031
 30
0.0
 10
-0.3342165354330709
 20
0.0472874015748031
 30
0.0
 10
-0.3305196850393701
 20
0.0472874015748031
 30
0.0
 10
-0.3280196850393701
 20
0.0478700787401575
 30
0.0
 10
-0.3266614173228347
 20
0.049007874015748
 30
0.0
 10
-0.3266614173228347
 20
0.049007874015748
 30
0.0
 10
-0.3246889763779527
 20
0.0505629921259843
 30
0.0
 10
-0.3237165354330709
 20
0.0531732283464567
 30
0.0
 10
-0.3237165354330709
 20
0.0568149606299213
 30
0.0
 10
-0.3237165354330709
 20
0.0568149606299213
 30
0.0
 10
-0.3237165354330709
 20
0.0568149606299213
 30
0.0
 10
-0.3237165354330709
 20
0.1356732283464567
 30
0.0
 10
-0.3237165354330709
 20
0.1356732283464567
 30
0.0
 10
-0.3237165354330709
 20
0.1356732283464567
 30
0.0
 10
-0.3237165354330709
 20
0.1393700787401575
 30
0.0
 10
-0.3240196850393701
 20
0.1418700787401575
 30
0.0
 10
-0.3246062992125984
 20
0.1432283464566929
 30
0.0
 10
-0.3246062992125984
 20
0.1432283464566929
 30
0.0
 10
-0.3252165354330709
 20
0.1445905511811024
 30
0.0
 10
-0.3261062992125984
 20
0.1455629921259843
 30
0.0
 10
-0.3272992125984252
 20
0.1461732283464567
 30
0.0
 10
-0.3272992125984252
 20
0.1461732283464567
 30
0.0
 10
-0.328492125984252
 20
0.146755905511811
 30
0.0
 10
-0.3307992125984252
 20
0.1470629921259843
 30
0.0
 10
-0.3342165354330709
 20
0.1470629921259843
 30
0.0
 10
-0.3342165354330709
 20
0.1470629921259843
 30
0.0
 10
-0.3342165354330709
 20
0.1470629921259843
 30
0.0
 10
-0.3380511811023622
 20
0.1470629921259843
 30
0.0
 10
-0.3380511811023622
 20
0.1470629921259843
 30
0.0
 10
-0.3380511811023622
 20
0.1470629921259843
 30
0.0
 10
-0.3380511811023622
 20
0.1470629921259843
 30
0.0
 10
-0.3380511811023622
 20
0.1539803149606299
 30
0.0
 10
-0.3380511811023622
 20
0.1539803149606299
 30
0.0
  0
SPLINE
  5
71
330
1F
100
AcDbEntity
  8
LAYER_1
 62
   250
100
AcDbSpline
210
0.0
220
0.0
230
1.0
 70
    11
 71
     3
 72
    40
 73
    36
 74
     0
 42
0.0000000001
 43
0.0000000001
 40
0.0
 40
0.0
 40
0.0
 40
0.0
 40
0.1111111111111111
 40
0.1111111111111111
 40
0.1111111111111111
 40
0.1111111111111111
 40
0.2222222222222222
 40
0.2222222222222222
 40
0.2222222222222222
 40
0.2222222222222222
 40
0.3333333333333333
 40
0.3333333333333333
 40
0.3333333333333333
 40
0.3333333333333333
 40
0.4444444444444444
 40
0.4444444444444444
 40
0.4444444444444444
 40
0.4444444444444444
 40
0.5555555555555556
 40
0.5555555555555556
 40
0.5555555555555556
 40
0.5555555555555556
 40
0.6666666666666667
 40
0.6666666666666667
 40
0.6666666666666667
 40
0.6666666666666667
 40
0.7777777777777779
 40
0.7777777777777779
 40
0.7777777777777779
 40
0.7777777777777779
 40
0.8888888888888891
 40
0.8888888888888891
 40
0.8888888888888891
 40
0.8888888888888891
 40
1.0
 40
1.0
 40
1.0
 40
1.0
 10
-0.308492125984252
 20
0.1449527559055118
 30
0.0
 10
-0.308492125984252
 20
0.1449527559055118
 30
0.0
 10
-0.308492125984252
 20
0.1033700787401575
 30
0.0
 10
-0.308492125984252
 20
0.1033700787401575
 30
0.0
 10
-0.308492125984252
 20
0.1033700787401575
 30
0.0
 10
-0.308492125984252
 20
0.1033700787401575
 30
0.0
 10
-0.287744094488189
 20
0.1033700787401575
 30
0.0
 10
-0.287744094488189
 20
0.1033700787401575
 30
0.0
 10
-0.287744094488189
 20
0.1033700787401575
 30
0.0
 10
-0.2780511811023622
 20
0.1033700787401575
 30
0.0
 10
-0.2713818897637795
 20
0.1038149606299213
 30
0.0
 10
-0.2678267716535433
 20
0.1047283464566929
 30
0.0
 10
-0.2678267716535433
 20
0.1047283464566929
 30
0.0
 10
-0.2622165354330709
 20
0.1062007874015748
 30
0.0
 10
-0.2579685039370079
 20
0.1087007874015748
 30
0.0
 10
-0.254996062992126
 20
0.1122283464566929
 30
0.0
 10
-0.254996062992126
 20
0.1122283464566929
 30
0.0
 10
-0.2520511811023622
 20
0.115755905511811
 30
0.0
 10
-0.2505511811023622
 20
0.1202874015748032
 30
0.0
 10
-0.2505511811023622
 20
0.1258149606299213
 30
0.0
 10
-0.2505511811023622
 20
0.1258149606299213
 30
0.0
 10
-0.2505511811023622
 20
0.1304803149606299
 30
0.0
 10
-0.2519094488188977
 20
0.1343700787401575
 30
0.0
 10
-0.2545787401574803
 20
0.137507874015748
 30
0.0
 10
-0.2545787401574803
 20
0.137507874015748
 30
0.0
 10
-0.2572716535433071
 20
0.1406181102362205
 30
0.0
 10
-0.2608818897637795
 20
0.142755905511811
 30
0.0
 10
-0.2653818897637795
 20
0.1438976377952756
 30
0.0
 10
-0.2653818897637795
 20
0.1438976377952756
 30
0.0
 10
-0.2682992125984252
 20
0.1445905511811024
 30
0.0
 10
-0.2743818897637795
 20
0.1449527559055118
 30
0.0
 10
-0.2836062992125984
 20
0.1449527559055118
 30
0.0
 10
-0.2836062992125984
 20
0.1449527559055118
 30
0.0
 10
-0.2836062992125984
 20
0.1449527559055118
 30
0.0
 10
-0.308492125984252
 20
0.1449527559055118
 30
0.0
 10
-0.308492125984252
 20
0.1449527559055118
 30
0.0
  0
SPLINE
  5
72
330
1F
100
AcDbEntity
  8
LAYER_1
 62
   250
100
AcDbSpline
210
0.0
220
0.0
230
1.0
 70
    11
 71
     3
 72
    52
 73
    48
 74
     0
 42
0.0000000001
 43
0.0000000001
 40
0.0
 40
0.0
 40
0.0
 40
0.0
 40
0.0833333333333333
 40
0.0833333333333333
 40
0.0833333333333333
 40
0.0833333333333333
 40
0.1666666666666667
 40
0.1666666666666667
 40
0.1666666666666667
 40
0.1666666666666667
 40
0.25
 40
0.25
 40
0.25
 40
0.25
 40
0.3333333333333333
 40
0.3333333333333333
 40
0.3333333333333333
 40
0.3333333333333333
 40
0.4166666666666666
 40
0.4166666666666666
 40
0.4166666666666666
 40
0.4166666666666666
 40
0.4999999999999999
 40
0.4999999999999999
 40
0.4999999999999999
 40
0.4999999999999999
 40
0.5833333333333333
 40
0.5833333333333333
 40
0.5833333333333333
 40
0.5833333333333333
 40
0.6666666666666666
 40
0.6666666666666666
 40
0.6666666666666666
 40
0.6666666666666666
 40
0.75
 40
0.75
 40
0.75
 40
0.75
 40
0.8333333333333334
 40
0.8333333333333334
 40
0.8333333333333334
 40
0.8333333333333334
 40
0.9166666666666667
 40
0.9166666666666667
 40
0.9166666666666667
 40
0.9166666666666667
 40
1.0
 40
1.0
 40
1.0
 40
1.0
 10
-0.308492125984252
 20
0.0955354330708661
 30
0.0
 10
-0.308492125984252
 20
0.0955354330708661
 30
0.0
 10
-0.308492125984252
 20
0.0582874015748032
 30
0.0
 10
-0.308492125984252
 20
0.0582874015748032
 30
0.0
 10
-0.308492125984252
 20
0.0582874015748032
 30
0.0
 10
-0.308492125984252
 20
0.0545354330708661
 30
0.0
 10
-0.3083267716535433
 20
0.0523149606299213
 30
0.0
 10
-0.3080236220472441
 20
0.0515905511811024
 30
0.0
 10
-0.3080236220472441
 20
0.0515905511811024
 30
0.0
 10
-0.3075787401574803
 20
0.0506181102362205
 30
0.0
 10
-0.3067165354330709
 20
0.0499527559055118
 30
0.0
 10
-0.3054094488188976
 20
0.0495629921259843
 30
0.0
 10
-0.3054094488188976
 20
0.0495629921259843
 30
0.0
 10
-0.304492125984252
 20
0.0492874015748032
 30
0.0
 10
-0.3018818897637796
 20
0.0491456692913386
 30
0.0
 10
-0.2976062992125985
 20
0.0491456692913386
 30
0.0
 10
-0.2976062992125985
 20
0.0491456692913386
 30
0.0
 10
-0.2976062992125985
 20
0.0491456692913386
 30
0.0
 10
-0.2865236220472441
 20
0.0491456692913386
 30
0.0
 10
-0.2865236220472441
 20
0.0491456692913386
 30
0.0
 10
-0.2865236220472441
 20
0.0491456692913386
 30
0.0
 10
-0.2755787401574804
 20
0.0491456692913386
 30
0.0
 10
-0.267744094488189
 20
0.049759842519685
 30
0.0
 10
-0.2630511811023622
 20
0.0509803149606299
 30
0.0
 10
-0.2630511811023622
 20
0.0509803149606299
 30
0.0
 10
-0.2583543307086614
 20
0.0522007874015748
 30
0.0
 10
-0.2543543307086614
 20
0.0547874015748031
 30
0.0
 10
-0.2510511811023622
 20
0.0587322834645669
 30
0.0
 10
-0.2510511811023622
 20
0.0587322834645669
 30
0.0
 10
-0.247744094488189
 20
0.0626456692913386
 30
0.0
 10
-0.2460787401574803
 20
0.0673976377952756
 30
0.0
 10
-0.2460787401574803
 20
0.0729251968503937
 30
0.0
 10
-0.2460787401574803
 20
0.0729251968503937
 30
0.0
 10
-0.2460787401574803
 20
0.0775905511811024
 30
0.0
 10
-0.2474370078740158
 20
0.0817283464566929
 30
0.0
 10
-0.2501062992125984
 20
0.0853425196850394
 30
0.0
 10
-0.2501062992125984
 20
0.0853425196850394
 30
0.0
 10
-0.2527992125984252
 20
0.0889527559055118
 30
0.0
 10
-0.2565236220472441
 20
0.0915354330708661
 30
0.0
 10
-0.2612716535433071
 20
0.0931456692913386
 30
0.0
 10
-0.2612716535433071
 20
0.0931456692913386
 30
0.0
 10
-0.2660236220472441
 20
0.094759842519685
 30
0.0
 10
-0.2744370078740158
 20
0.0955354330708661
 30
0.0
 10
-0.2865236220472441
 20
0.0955354330708661
 30
0.0
 10
-0.2865236220472441
 20
0.0955354330708661
 30
0.0
 10
-0.2865236220472441
 20
0.0955354330708661
 30
0.0
 10
-0.308492125984252
 20
0.0955354330708661
 30
0.0
 10
-0.308492125984252
 20
0.0955354330708661
 30
0.0
  0
SPLINE
  5
73
330
1F
100
AcDbEntity
  8
LAYER_1
 62
   250
100
AcDbSpline
210
0.0
220
0.0
230
1.0
 70
    11
 71
     3
 72
   112
 73
   108
 74
     0
 42
0.0000000001
 43
0.0000000001
 40
0.0
 40
0.0
 40
0.0
 40
0.0
 40
0.037037037037037
 40
0.037037037037037
 40
0.037037037037037
 40
0.037037037037037
 40
0.0740740740740741
 40
0.0740740740740741
 40
0.0740740740740741
 40
0.0740740740740741
 40
0.1111111111111111
 40
0.1111111111111111
 40
0.1111111111111111
 40
0.1111111111111111
 40
0.1481481481481481
 40
0.1481481481481481
 40
0.1481481481481481
 40
0.1481481481481481
 40
0.1851851851851852
 40
0.1851851851851852
 40
0.1851851851851852
 40
0.1851851851851852
 40
0.2222222222222222
 40
0.2222222222222222
 40
0.2222222222222222
 40
0.2222222222222222
 40
0.2592592592592592
 40
0.2592592592592592
 40
0.2592592592592592
 40
0.2592592592592592
 40
0.2962962962962963
 40
0.2962962962962963
 40
0.2962962962962963
 40
0.2962962962962963
 40
0.3333333333333333
 40
0.3333333333333333
 40
0.3333333333333333
 40
0.3333333333333333
 40
0.3703703703703704
 40
0.3703703703703704
 40
0.3703703703703704
 40
0.3703703703703704
 40
0.4074074074074074
 40
0.4074074074074074
 40
0.4074074074074074
 40
0.4074074074074074
 40
0.4444444444444444
 40
0.4444444444444444
 40
0.4444444444444444
 40
0.4444444444444444
 40
0.4814814814814815
 40
0.4814814814814815
 40
0.4814814814814815
 40
0.4814814814814815
 40
0.5185185185185185
 40
0.5185185185185185
 40
0.5185185185185185
 40
0.5185185185185185
 40
0.5555555555555556
 40
0.5555555555555556
 40
0.5555555555555556
 40
0.5555555555555556
 40
0.5925925925925926
 40
0.5925925925925926
 40
0.5925925925925926
 40
0.5925925925925926
 40
0.6296296296296295
 40
0.6296296296296295
 40
0.6296296296296295
 40
0.6296296296296295
 40
0.6666666666666665
 40
0.6666666666666665
 40
0.6666666666666665
 40
0.6666666666666665
 40
0.7037037037037035
 40
0.7037037037037035
 40
0.7037037037037035
 40
0.7037037037037035
 40
0.7407407407407405
 40
0.7407407407407405
 40
0.7407407407407405
 40
0.7407407407407405
 40
0.7777777777777775
 40
0.7777777777777775
 40
0.7777777777777775
 40
0.7777777777777775
 40
0.8148148148148144
 40
0.8148148148148144
 40
0.8148148148148144
 40
0.8148148148148144
 40
0.8518518518518514
 40
0.8518518518518514
 40
0.8518518518518514
 40
0.8518518518518514
 40
0.8888888888888884
 40
0.8888888888888884
 40
0.8888888888888884
 40
0.8888888888888884
 40
0.9259259259259254
 40
0.9259259259259254
 40
0.9259259259259254
 40
0.9259259259259254
 40
0.9629629629629624
 40
0.9629629629629624
 40
0.9629629629629624
 40
0.9629629629629624
 40
1.0
 40
1.0
 40
1.0
 40
1.0
 10
-0.1713858267716535
 20
0.1539803149606299
 30
0.0
 10
-0.1713858267716535
 20
0.1539803149606299
 30
0.0
 10
-0.1579685039370079
 20
0.1539803149606299
 30
0.0
 10
-0.1579685039370079
 20
0.1539803149606299
 30
0.0
 10
-0.1579685039370079
 20
0.1539803149606299
 30
0.0
 10
-0.1579685039370079
 20
0.1539803149606299
 30
0.0
 10
-0.1227204724409449
 20
0.0590905511811024
 30
0.0
 10
-0.1227204724409449
 20
0.0590905511811024
 30
0.0
 10
-0.1227204724409449
 20
0.0590905511811024
 30
0.0
 10
-0.120996062992126
 20
0.0543149606299213
 30
0.0
 10
-0.119248031496063
 20
0.0511456692913386
 30
0.0
 10
-0.1174685039370079
 20
0.0496181102362205
 30
0.0
 10
-0.1174685039370079
 20
0.0496181102362205
 30
0.0
 10
-0.1157204724409449
 20
0.0480629921259843
 30
0.0
 10
-0.1133307086614173
 20
0.0472874015748031
 30
0.0
 10
-0.1103582677165354
 20
0.0472874015748031
 30
0.0
 10
-0.1103582677165354
 20
0.0472874015748031
 30
0.0
 10
-0.1103582677165354
 20
0.0472874015748031
 30
0.0
 10
-0.1085787401574803
 20
0.0472874015748031
 30
0.0
 10
-0.1085787401574803
 20
0.0472874015748031
 30
0.0
 10
-0.1085787401574803
 20
0.0472874015748031
 30
0.0
 10
-0.1085787401574803
 20
0.0472874015748031
 30
0.0
 10
-0.1085787401574803
 20
0.0404527559055118
 30
0.0
 10
-0.1085787401574803
 20
0.0404527559055118
 30
0.0
 10
-0.1085787401574803
 20
0.0404527559055118
 30
0.0
 10
-0.1085787401574803
 20
0.0404527559055118
 30
0.0
 10
-0.1490236220472441
 20
0.0404527559055118
 30
0.0
 10
-0.1490236220472441
 20
0.0404527559055118
 30
0.0
 10
-0.1490236220472441
 20
0.0404527559055118
 30
0.0
 10
-0.1490236220472441
 20
0.0404527559055118
 30
0.0
 10
-0.1490236220472441
 20
0.0472874015748031
 30
0.0
 10
-0.1490236220472441
 20
0.0472874015748031
 30
0.0
 10
-0.1490236220472441
 20
0.0472874015748031
 30
0.0
 10
-0.1477204724409449
 20
0.0473976377952756
 30
0.0
 10
-0.1464409448818898
 20
0.0474527559055118
 30
0.0
 10
-0.1451889763779528
 20
0.0474527559055118
 30
0.0
 10
-0.1451889763779528
 20
0.0474527559055118
 30
0.0
 10
-0.1425787401574803
 20
0.0474527559055118
 30
0.0
 10
-0.1408858267716535
 20
0.0477322834645669
 30
0.0
 10
-0.1400511811023622
 20
0.048259842519685
 30
0.0
 10
-0.1400511811023622
 20
0.048259842519685
 30
0.0
 10
-0.138496062992126
 20
0.0492874015748032
 30
0.0
 10
-0.1376929133858268
 20
0.0505905511811024
 30
0.0
 10
-0.1376929133858268
 20
0.0521732283464567
 30
0.0
 10
-0.1376929133858268
 20
0.0521732283464567
 30
0.0
 10
-0.1376929133858268
 20
0.0533149606299213
 30
0.0
 10
-0.1384685039370079
 20
0.0560905511811024
 30
0.0
 10
-0.1399685039370079
 20
0.0605629921259843
 30
0.0
 10
-0.1399685039370079
 20
0.0605629921259843
 30
0.0
 10
-0.1399685039370079
 20
0.0605629921259843
 30
0.0
 10
-0.1474685039370079
 20
0.0825354330708662
 30
0.0
 10
-0.1474685039370079
 20
0.0825354330708662
 30
0.0
 10
-0.1474685039370079
 20
0.0825354330708662
 30
0.0
 10
-0.1474685039370079
 20
0.0825354330708662
 30
0.0
 10
-0.1886338582677165
 20
0.0825354330708662
 30
0.0
 10
-0.1886338582677165
 20
0.0825354330708662
 30
0.0
 10
-0.1886338582677165
 20
0.0825354330708662
 30
0.0
 10
-0.1886338582677165
 20
0.0825354330708662
 30
0.0
 10
-0.1974409448818898
 20
0.0579527559055118
 30
0.0
 10
-0.1974409448818898
 20
0.0579527559055118
 30
0.0
 10
-0.1974409448818898
 20
0.0579527559055118
 30
0.0
 10
-0.1983582677165355
 20
0.0553976377952756
 30
0.0
 10
-0.1988307086614173
 20
0.0536456692913386
 30
0.0
 10
-0.1988307086614173
 20
0.0526456692913386
 30
0.0
 10
-0.1988307086614173
 20
0.0526456692913386
 30
0.0
 10
-0.1988307086614173
 20
0.0515629921259843
 30
0.0
 10
-0.1985236220472441
 20
0.0506181102362205
 30
0.0
 10
-0.1979685039370079
 20
0.0498149606299213
 30
0.0
 10
-0.1979685039370079
 20
0.0498149606299213
 30
0.0
 10
-0.1973858267716536
 20
0.049007874015748
 30
0.0
 10
-0.1966338582677165
 20
0.0483976377952756
 30
0.0
 10
-0.1956338582677165
 20
0.0479803149606299
 30
0.0
 10
-0.1956338582677165
 20
0.0479803149606299
 30
0.0
 10
-0.1946614173228347
 20
0.0475629921259843
 30
0.0
 10
-0.1931062992125984
 20
0.0473700787401575
 30
0.0
 10
-0.1909133858267717
 20
0.0473700787401575
 30
0.0
 10
-0.1909133858267717
 20
0.0473700787401575
 30
0.0
 10
-0.1894685039370079
 20
0.0473700787401575
 30
0.0
 10
-0.1882755905511811
 20
0.0473425196850394
 30
0.0
 10
-0.1873582677165354
 20
0.0472874015748031
 30
0.0
 10
-0.1873582677165354
 20
0.0472874015748031
 30
0.0
 10
-0.1873582677165354
 20
0.0472874015748031
 30
0.0
 10
-0.1873582677165354
 20
0.0404527559055118
 30
0.0
 10
-0.1873582677165354
 20
0.0404527559055118
 30
0.0
 10
-0.1873582677165354
 20
0.0404527559055118
 30
0.0
 10
-0.1873582677165354
 20
0.0404527559055118
 30
0.0
 10
-0.2212755905511811
 20
0.0404527559055118
 30
0.0
 10
-0.2212755905511811
 20
0.0404527559055118
 30
0.0
 10
-0.2212755905511811
 20
0.0404527559055118
 30
0.0
 10
-0.2212755905511811
 20
0.0404527559055118
 30
0.0
 10
-0.2212755905511811
 20
0.0472874015748031
 30
0.0
 10
-0.2212755905511811
 20
0.0472874015748031
 30
0.0
 10
-0.2212755905511811
 20
0.0472874015748031
 30
0.0
 10
-0.2181338582677166
 20
0.0472874015748031
 30
0.0
 10
-0.2158582677165354
 20
0.0475905511811024
 30
0.0
 10
-0.214496062992126
 20
0.0482322834645669
 30
0.0
 10
-0.214496062992126
 20
0.0482322834645669
 30
0.0
 10
-0.2131062992125984
 20
0.0488425196850394
 30
0.0
 10
-0.2118858267716536
 20
0.0498425196850394
 30
0.0
 10
-0.2108582677165354
 20
0.0512322834645669
 30
0.0
 10
-0.2108582677165354
 20
0.0512322834645669
 30
0.0
 10
-0.2098307086614173
 20
0.0526181102362205
 30
0.0
 10
-0.2084685039370079
 20
0.0555354330708661
 30
0.0
 10
-0.2068031496062992
 20
0.0599803149606299
 30
0.0
 10
-0.2068031496062992
 20
0.0599803149606299
 30
0.0
 10
-0.2068031496062992
 20
0.0599803149606299
 30
0.0
 10
-0.1713858267716535
 20
0.1539803149606299
 30
0.0
 10
-0.1713858267716535
 20
0.1539803149606299
 30
0.0
  0
SPLINE
  5
74
330
1F
100
AcDbEntity
  8
LAYER_1
 62
   250
100
AcDbSpline
210
0.0
220
0.0
230
1.0
 70
    11
 71
     3
 72
    16
 73
    12
 74
     0
 42
0.0000000001
 43
0.0000000001
 40
0.0
 40
0.0
 40
0.0
 40
0.0
 40
0.3333333333333333
 40
0.3333333333333333
 40
0.3333333333333333
 40
0.3333333333333333
 40
0.6666666666666666
 40
0.6666666666666666
 40
0.6666666666666666
 40
0.6666666666666666
 40
1.0
 40
1.0
 40
1.0
 40
1.0
 10
-0.1856338582677166
 20
0.090507874015748
 30
0.0
 10
-0.1856338582677166
 20
0.090507874015748
 30
0.0
 10
-0.1505511811023622
 20
0.090507874015748
 30
0.0
 10
-0.1505511811023622
 20
0.090507874015748
 30
0.0
 10
-0.1505511811023622
 20
0.090507874015748
 30
0.0
 10
-0.1505511811023622
 20
0.090507874015748
 30
0.0
 10
-0.1681338582677165
 20
0.1393425196850394
 30
0.0
 10
-0.1681338582677165
 20
0.1393425196850394
 30
0.0
 10
-0.1681338582677165
 20
0.1393425196850394
 30
0.0
 10
-0.1681338582677165
 20
0.1393425196850394
 30
0.0
 10
-0.1856338582677166
 20
0.090507874015748
 30
0.0
 10
-0.1856338582677166
 20
0.090507874015748
 30
0.0
  0
SPLINE
  5
75
330
1F
100
AcDbEntity
  8
LAYER_1
 62
   250
100
AcDbSpline
210
0.0
220
0.0
230
1.0
 70
    11
 71
     3
 72
    72
 73
    68
 74
     0
 42
0.0000000001
 43
0.0000000001
 40
0.0
 40
0.0
 40
0.0
 40
0.0
 40
0.0588235294117647
 40
0.0588235294117647
 40
0.0588235294117647
 40
0.0588235294117647
 40
0.1176470588235294
 40
0.1176470588235294
 40
0.1176470588235294
 40
0.1176470588235294
 40
0.1764705882352941
 40
0.1764705882352941
 40
0.1764705882352941
 40
0.1764705882352941
 40
0.2352941176470588
 40
0.2352941176470588
 40
0.2352941176470588
 40
0.2352941176470588
 40
0.2941176470588235
 40
0.2941176470588235
 40
0.2941176470588235
 40
0.2941176470588235
 40
0.3529411764705883
 40
0.3529411764705883
 40
0.3529411764705883
 40
0.3529411764705883
 40
0.411764705882353
 40
0.411764705882353
 40
0.411764705882353
 40
0.411764705882353
 40
0.4705882352941177
 40
0.4705882352941177
 40
0.4705882352941177
 40
0.4705882352941177
 40
0.5294117647058824
 40
0.5294117647058824
 40
0.5294117647058824
 40
0.5294117647058824
 40
0.5882352941176471
 40
0.5882352941176471
 40
0.5882352941176471
 40
0.5882352941176471
 40
0.6470588235294118
 40
0.6470588235294118
 40
0.6470588235294118
 40
0.6470588235294118
 40
0.7058823529411765
 40
0.7058823529411765
 40
0.7058823529411765
 40
0.7058823529411765
 40
0.7647058823529412
 40
0.7647058823529412
 40
0.7647058823529412
 40
0.7647058823529412
 40
0.823529411764706
 40
0.823529411764706
 40
0.823529411764706
 40
0.823529411764706
 40
0.8823529411764707
 40
0.8823529411764707
 40
0.8823529411764707
 40
0.8823529411764707
 40
0.9411764705882354
 40
0.9411764705882354
 40
0.9411764705882354
 40
0.9411764705882354
 40
1.0
 40
1.0
 40
1.0
 40
1.0
 10
0.0544488188976378
 20
0.1539803149606299
 30
0.0
 10
0.0544488188976378
 20
0.1539803149606299
 30
0.0
 10
0.0605314960629921
 20
0.1539803149606299
 30
0.0
 10
0.0605314960629921
 20
0.1539803149606299
 30
0.0
 10
0.0605314960629921
 20
0.1539803149606299
 30
0.0
 10
0.0605314960629921
 20
0.1539803149606299
 30
0.0
 10
0.0605314960629921
 20
0.0597322834645669
 30
0.0
 10
0.0605314960629921
 20
0.0597322834645669
 30
0.0
 10
0.0605314960629921
 20
0.0597322834645669
 30
0.0
 10
0.0605314960629921
 20
0.0552874015748031
 30
0.0
 10
0.0608385826771654
 20
0.0524251968503937
 30
0.0
 10
0.0613937007874016
 20
0.0511456692913386
 30
0.0
 10
0.0613937007874016
 20
0.0511456692913386
 30
0.0
 10
0.0619763779527559
 20
0.0498700787401575
 30
0.0
 10
0.0628937007874016
 20
0.0489251968503937
 30
0.0
 10
0.0641968503937008
 20
0.048259842519685
 30
0.0
 10
0.0641968503937008
 20
0.048259842519685
 30
0.0
 10
0.065503937007874
 20
0.0476181102362205
 30
0.0
 10
0.0680866141732284
 20
0.0472874015748031
 30
0.0
 10
0.0719488188976378
 20
0.0472874015748031
 30
0.0
 10
0.0719488188976378
 20
0.0472874015748031
 30
0.0
 10
0.0719488188976378
 20
0.0472874015748031
 30
0.0
 10
0.0799212598425197
 20
0.0472874015748031
 30
0.0
 10
0.0799212598425197
 20
0.0472874015748031
 30
0.0
 10
0.0799212598425197
 20
0.0472874015748031
 30
0.0
 10
0.0799212598425197
 20
0.0472874015748031
 30
0.0
 10
0.0799212598425197
 20
0.0404527559055118
 30
0.0
 10
0.0799212598425197
 20
0.0404527559055118
 30
0.0
 10
0.0799212598425197
 20
0.0404527559055118
 30
0.0
 10
0.0799212598425197
 20
0.0404527559055118
 30
0.0
 10
0.0262834645669291
 20
0.0404527559055118
 30
0.0
 10
0.0262834645669291
 20
0.0404527559055118
 30
0.0
 10
0.0262834645669291
 20
0.0404527559055118
 30
0.0
 10
0.0262834645669291
 20
0.0404527559055118
 30
0.0
 10
0.0262834645669291
 20
0.0472874015748031
 30
0.0
 10
0.0262834645669291
 20
0.0472874015748031
 30
0.0
 10
0.0262834645669291
 20
0.0472874015748031
 30
0.0
 10
0.0262834645669291
 20
0.0472874015748031
 30
0.0
 10
0.0351417322834646
 20
0.0472874015748031
 30
0.0
 10
0.0351417322834646
 20
0.0472874015748031
 30
0.0
 10
0.0351417322834646
 20
0.0472874015748031
 30
0.0
 10
0.039003937007874
 20
0.0472874015748031
 30
0.0
 10
0.0415590551181102
 20
0.0476181102362205
 30
0.0
 10
0.0428385826771654
 20
0.0483149606299213
 30
0.0
 10
0.0428385826771654
 20
0.0483149606299213
 30
0.0
 10
0.0441141732283465
 20
0.0489803149606299
 30
0.0
 10
0.0451141732283465
 20
0.0500629921259843
 30
0.0
 10
0.0458110236220472
 20
0.0515629921259843
 30
0.0
 10
0.0458110236220472
 20
0.0515629921259843
 30
0.0
 10
0.046503937007874
 20
0.0530629921259843
 30
0.0
 10
0.0468661417322835
 20
0.0557874015748032
 30
0.0
 10
0.0468661417322835
 20
0.0597322834645669
 30
0.0
 10
0.0468661417322835
 20
0.0597322834645669
 30
0.0
 10
0.0468661417322835
 20
0.0597322834645669
 30
0.0
 10
0.0468661417322835
 20
0.1372007874015748
 30
0.0
 10
0.0468661417322835
 20
0.1372007874015748
 30
0.0
 10
0.0468661417322835
 20
0.1372007874015748
 30
0.0
 10
0.0468661417322835
 20
0.1372007874015748
 30
0.0
 10
0.0262834645669291
 20
0.1372007874015748
 30
0.0
 10
0.0262834645669291
 20
0.1372007874015748
 30
0.0
 10
0.0262834645669291
 20
0.1372007874015748
 30
0.0
 10
0.0262834645669291
 20
0.1372007874015748
 30
0.0
 10
0.0262834645669291
 20
0.1442007874015748
 30
0.0
 10
0.0262834645669291
 20
0.1442007874015748
 30
0.0
 10
0.0262834645669291
 20
0.1442007874015748
 30
0.0
 10
0.037503937007874
 20
0.1457834645669291
 30
0.0
 10
0.0468937007874016
 20
0.1490354330708661
 30
0.0
 10
0.0544488188976378
 20
0.1539803149606299
 30
0.0
  0
SPLINE
  5
76
330
1F
100
AcDbEntity
  8
LAYER_1
 62
   250
100
AcDbSpline
210
0.0
220
0.0
230
1.0
 70
    11
 71
     3
 72
    76
 73
    72
 74
     0
 42
0.0000000001
 43
0.0000000001
 40
0.0
 40
0.0
 40
0.0
 40
0.0
 40
0.0555555555555556
 40
0.0555555555555556
 40
0.0555555555555556
 40
0.0555555555555556
 40
0.1111111111111111
 40
0.1111111111111111
 40
0.1111111111111111
 40
0.1111111111111111
 40
0.1666666666666667
 40
0.1666666666666667
 40
0.1666666666666667
 40
0.1666666666666667
 40
0.2222222222222222
 40
0.2222222222222222
 40
0.2222222222222222
 40
0.2222222222222222
 40
0.2777777777777778
 40
0.2777777777777778
 40
0.2777777777777778
 40
0.2777777777777778
 40
0.3333333333333334
 40
0.3333333333333334
 40
0.3333333333333334
 40
0.3333333333333334
 40
0.388888888888889
 40
0.388888888888889
 40
0.388888888888889
 40
0.388888888888889
 40
0.4444444444444445
 40
0.4444444444444445
 40
0.4444444444444445
 40
0.4444444444444445
 40
0.5000000000000001
 40
0.5000000000000001
 40
0.5000000000000001
 40
0.5000000000000001
 40
0.5555555555555557
 40
0.5555555555555557
 40
0.5555555555555557
 40
0.5555555555555557
 40
0.6111111111111113
 40
0.6111111111111113
 40
0.6111111111111113
 40
0.6111111111111113
 40
0.6666666666666669
 40
0.6666666666666669
 40
0.6666666666666669
 40
0.6666666666666669
 40
0.7222222222222224
 40
0.7222222222222224
 40
0.7222222222222224
 40
0.7222222222222224
 40
0.777777777777778
 40
0.777777777777778
 40
0.777777777777778
 40
0.777777777777778
 40
0.8333333333333336
 40
0.8333333333333336
 40
0.8333333333333336
 40
0.8333333333333336
 40
0.8888888888888892
 40
0.8888888888888892
 40
0.8888888888888892
 40
0.8888888888888892
 40
0.9444444444444448
 40
0.9444444444444448
 40
0.9444444444444448
 40
0.9444444444444448
 40
1.0
 40
1.0
 40
1.0
 40
1.0
 10
0.166255905511811
 20
0.1034527559055118
 30
0.0
 10
0.1726732283464567
 20
0.101007874015748
 30
0.0
 10
0.1775590551181102
 20
0.0987007874015748
 30
0.0
 10
0.1809212598425197
 20
0.0965354330708662
 30
0.0
 10
0.1809212598425197
 20
0.0965354330708662
 30
0.0
 10
0.1858385826771654
 20
0.0933700787401575
 30
0.0
 10
0.1895590551181103
 20
0.0896732283464567
 30
0.0
 10
0.1920590551181103
 20
0.0854251968503937
 30
0.0
 10
0.1920590551181103
 20
0.0854251968503937
 30
0.0
 10
0.1945590551181103
 20
0.0811456692913386
 30
0.0
 10
0.1958110236220473
 20
0.0765354330708661
 30
0.0
 10
0.1958110236220473
 20
0.0715354330708661
 30
0.0
 10
0.1958110236220473
 20
0.0715354330708661
 30
0.0
 10
0.1958110236220473
 20
0.0625905511811024
 30
0.0
 10
0.1919488188976378
 20
0.0548425196850394
 30
0.0
 10
0.184255905511811
 20
0.0483149606299213
 30
0.0
 10
0.184255905511811
 20
0.0483149606299213
 30
0.0
 10
0.1765314960629921
 20
0.041759842519685
 30
0.0
 10
0.1661456692913386
 20
0.038507874015748
 30
0.0
 10
0.1530866141732284
 20
0.038507874015748
 30
0.0
 10
0.1530866141732284
 20
0.038507874015748
 30
0.0
 10
0.139255905511811
 20
0.038507874015748
 30
0.0
 10
0.1283937007874016
 20
0.0422007874015748
 30
0.0
 10
0.1205314960629921
 20
0.0495629921259843
 30
0.0
 10
0.1205314960629921
 20
0.0495629921259843
 30
0.0
 10
0.1142834645669291
 20
0.0554803149606299
 30
0.0
 10
0.1111732283464567
 20
0.0621732283464567
 30
0.0
 10
0.1111732283464567
 20
0.0696732283464567
 30
0.0
 10
0.1111732283464567
 20
0.0696732283464567
 30
0.0
 10
0.1111732283464567
 20
0.0757007874015748
 30
0.0
 10
0.1132834645669291
 20
0.0810905511811024
 30
0.0
 10
0.117503937007874
 20
0.0858700787401575
 30
0.0
 10
0.117503937007874
 20
0.0858700787401575
 30
0.0
 10
0.1226181102362205
 20
0.0915629921259843
 30
0.0
 10
0.1298937007874016
 20
0.096007874015748
 30
0.0
 10
0.1393385826771654
 20
0.0992007874015748
 30
0.0
 10
0.1393385826771654
 20
0.0992007874015748
 30
0.0
 10
0.1319488188976378
 20
0.1026732283464567
 30
0.0
 10
0.1266456692913386
 20
0.1062007874015748
 30
0.0
 10
0.1233661417322835
 20
0.1097874015748032
 30
0.0
 10
0.1233661417322835
 20
0.1097874015748032
 30
0.0
 10
0.1192007874015748
 20
0.114507874015748
 30
0.0
 10
0.1171181102362205
 20
0.1201732283464567
 30
0.0
 10
0.1171181102362205
 20
0.1267834645669291
 30
0.0
 10
0.1171181102362205
 20
0.1267834645669291
 30
0.0
 10
0.1171181102362205
 20
0.1349803149606299
 30
0.0
 10
0.1202007874015748
 20
0.1416181102362205
 30
0.0
 10
0.1263937007874016
 20
0.1466456692913386
 30
0.0
 10
0.1263937007874016
 20
0.1466456692913386
 30
0.0
 10
0.1339763779527559
 20
0.1528425196850394
 30
0.0
 10
0.1434763779527559
 20
0.1559251968503937
 30
0.0
 10
0.1548661417322835
 20
0.1559251968503937
 30
0.0
 10
0.1548661417322835
 20
0.1559251968503937
 30
0.0
 10
0.1652834645669291
 20
0.1559251968503937
 30
0.0
 10
0.1737007874015748
 20
0.153255905511811
 30
0.0
 10
0.1801456692913386
 20
0.1479251968503937
 30
0.0
 10
0.1801456692913386
 20
0.1479251968503937
 30
0.0
 10
0.1865590551181103
 20
0.1425629921259843
 30
0.0
 10
0.1897834645669291
 20
0.1364527559055118
 30
0.0
 10
0.1897834645669291
 20
0.1295629921259843
 30
0.0
 10
0.1897834645669291
 20
0.1295629921259843
 30
0.0
 10
0.1897834645669291
 20
0.1261456692913386
 30
0.0
 10
0.1889763779527559
 20
0.1228700787401575
 30
0.0
 10
0.1873937007874016
 20
0.119755905511811
 30
0.0
 10
0.1873937007874016
 20
0.119755905511811
 30
0.0
 10
0.1857834645669292
 20
0.1166456692913386
 30
0.0
 10
0.1833385826771654
 20
0.1137283464566929
 30
0.0
 10
0.180003937007874
 20
0.1110629921259843
 30
0.0
 10
0.180003937007874
 20
0.1110629921259843
 30
0.0
 10
0.1767007874015748
 20
0.1083700787401575
 30
0.0
 10
0.1721141732283465
 20
0.1058425196850394
 30
0.0
 10
0.166255905511811
 20
0.1034527559055118
 30
0.0
  0
SPLINE
  5
77
330
1F
100
AcDbEntity
  8
LAYER_1
 62
   250
100
AcDbSpline
210
0.0
220
0.0
230
1.0
 70
    11
 71
     3
 72
    48
 73
    44
 74
     0
 42
0.0000000001
 43
0.0000000001
 40
0.0
 40
0.0
 40
0.0
 40
0.0
 40
0.0909090909090909
 40
0.0909090909090909
 40
0.0909090909090909
 40
0.0909090909090909
 40
0.1818181818181818
 40
0.1818181818181818
 40
0.1818181818181818
 40
0.1818181818181818
 40
0.2727272727272727
 40
0.2727272727272727
 40
0.2727272727272727
 40
0.2727272727272727
 40
0.3636363636363637
 40
0.3636363636363637
 40
0.3636363636363637
 40
0.3636363636363637
 40
0.4545454545454546
 40
0.4545454545454546
 40
0.4545454545454546
 40
0.4545454545454546
 40
0.5454545454545455
 40
0.5454545454545455
 40
0.5454545454545455
 40
0.5454545454545455
 40
0.6363636363636365
 40
0.6363636363636365
 40
0.6363636363636365
 40
0.6363636363636365
 40
0.7272727272727274
 40
0.7272727272727274
 40
0.7272727272727274
 40
0.7272727272727274
 40
0.8181818181818183
 40
0.8181818181818183
 40
0.8181818181818183
 40
0.8181818181818183
 40
0.9090909090909093
 40
0.9090909090909093
 40
0.9090909090909093
 40
0.9090909090909093
 40
1.0
 40
1.0
 40
1.0
 40
1.0
 10
0.1588661417322835
 20
0.1064527559055118
 30
0.0
 10
0.1650314960629921
 20
0.1111181102362205
 30
0.0
 10
0.1690590551181102
 20
0.1143700787401575
 30
0.0
 10
0.1708937007874016
 20
0.1162283464566929
 30
0.0
 10
0.1708937007874016
 20
0.1162283464566929
 30
0.0
 10
0.172755905511811
 20
0.1180629921259843
 30
0.0
 10
0.1741732283464567
 20
0.1201732283464567
 30
0.0
 10
0.1751732283464567
 20
0.1225354330708662
 30
0.0
 10
0.1751732283464567
 20
0.1225354330708662
 30
0.0
 10
0.1761732283464567
 20
0.1248976377952756
 30
0.0
 10
0.1766732283464567
 20
0.1271732283464567
 30
0.0
 10
0.1766732283464567
 20
0.1293976377952756
 30
0.0
 10
0.1766732283464567
 20
0.1293976377952756
 30
0.0
 10
0.1766732283464567
 20
0.1325905511811024
 30
0.0
 10
0.1757283464566929
 20
0.1356456692913386
 30
0.0
 10
0.1738385826771654
 20
0.1385629921259843
 30
0.0
 10
0.1738385826771654
 20
0.1385629921259843
 30
0.0
 10
0.1719212598425197
 20
0.1414527559055118
 30
0.0
 10
0.1691456692913386
 20
0.1438149606299213
 30
0.0
 10
0.1654763779527559
 20
0.1455905511811024
 30
0.0
 10
0.1654763779527559
 20
0.1455905511811024
 30
0.0
 10
0.1618385826771654
 20
0.1473976377952756
 30
0.0
 10
0.1577283464566929
 20
0.1482834645669292
 30
0.0
 10
0.1531732283464567
 20
0.1482834645669292
 30
0.0
 10
0.1531732283464567
 20
0.1482834645669292
 30
0.0
 10
0.1464212598425197
 20
0.1482834645669292
 30
0.0
 10
0.1408385826771654
 20
0.1464251968503937
 30
0.0
 10
0.1363937007874016
 20
0.1427007874015748
 30
0.0
 10
0.1363937007874016
 20
0.1427007874015748
 30
0.0
 10
0.1319488188976378
 20
0.1389803149606299
 30
0.0
 10
0.1297283464566929
 20
0.1347007874015748
 30
0.0
 10
0.1297283464566929
 20
0.1298149606299213
 30
0.0
 10
0.1297283464566929
 20
0.1298149606299213
 30
0.0
 10
0.1297283464566929
 20
0.1258976377952756
 30
0.0
 10
0.1311181102362205
 20
0.1223976377952756
 30
0.0
 10
0.1338661417322835
 20
0.1193149606299213
 30
0.0
 10
0.1338661417322835
 20
0.1193149606299213
 30
0.0
 10
0.1366456692913386
 20
0.1162283464566929
 30
0.0
 10
0.1417834645669291
 20
0.1131732283464567
 30
0.0
 10
0.1493385826771654
 20
0.1102007874015748
 30
0.0
 10
0.1493385826771654
 20
0.1102007874015748
 30
0.0
 10
0.1493385826771654
 20
0.1102007874015748
 30
0.0
 10
0.1588661417322835
 20
0.1064527559055118
 30
0.0
 10
0.1588661417322835
 20
0.1064527559055118
 30
0.0
  0
SPLINE
  5
78
330
1F
100
AcDbEntity
  8
LAYER_1
 62
   250
100
AcDbSpline
210
0.0
220
0.0
230
1.0
 70
    11
 71
     3
 72
    40
 73
    36
 74
     0
 42
0.0000000001
 43
0.0000000001
 40
0.0
 40
0.0
 40
0.0
 40
0.0
 40
0.1111111111111111
 40
0.1111111111111111
 40
0.1111111111111111
 40
0.1111111111111111
 40
0.2222222222222222
 40
0.2222222222222222
 40
0.2222222222222222
 40
0.2222222222222222
 40
0.3333333333333333
 40
0.3333333333333333
 40
0.3333333333333333
 40
0.3333333333333333
 40
0.4444444444444444
 40
0.4444444444444444
 40
0.4444444444444444
 40
0.4444444444444444
 40
0.5555555555555556
 40
0.5555555555555556
 40
0.5555555555555556
 40
0.5555555555555556
 40
0.6666666666666667
 40
0.6666666666666667
 40
0.6666666666666667
 40
0.6666666666666667
 40
0.7777777777777779
 40
0.7777777777777779
 40
0.7777777777777779
 40
0.7777777777777779
 40
0.8888888888888891
 40
0.8888888888888891
 40
0.8888888888888891
 40
0.8888888888888891
 40
1.0
 40
1.0
 40
1.0
 40
1.0
 10
0.1473937007874016
 20
0.0960354330708662
 30
0.0
 10
0.1397283464566929
 20
0.0926732283464567
 30
0.0
 10
0.1336732283464567
 20
0.0883149606299213
 30
0.0
 10
0.1292283464566929
 20
0.0829251968503937
 30
0.0
 10
0.1292283464566929
 20
0.0829251968503937
 30
0.0
 10
0.125755905511811
 20
0.0787007874015748
 30
0.0
 10
0.1240314960629921
 20
0.0743149606299213
 30
0.0
 10
0.1240314960629921
 20
0.069759842519685
 30
0.0
 10
0.1240314960629921
 20
0.069759842519685
 30
0.0
 10
0.1240314960629921
 20
0.0635629921259843
 30
0.0
 10
0.126755905511811
 20
0.0580629921259843
 30
0.0
 10
0.132255905511811
 20
0.053259842519685
 30
0.0
 10
0.132255905511811
 20
0.053259842519685
 30
0.0
 10
0.1377283464566929
 20
0.0484803149606299
 30
0.0
 10
0.1448110236220473
 20
0.0460629921259843
 30
0.0
 10
0.1534763779527559
 20
0.0460629921259843
 30
0.0
 10
0.1534763779527559
 20
0.0460629921259843
 30
0.0
 10
0.1623385826771654
 20
0.0460629921259843
 30
0.0
 10
0.1697007874015748
 20
0.0488149606299213
 30
0.0
 10
0.1756141732283465
 20
0.0542874015748031
 30
0.0
 10
0.1756141732283465
 20
0.0542874015748031
 30
0.0
 10
0.1804488188976378
 20
0.0587322834645669
 30
0.0
 10
0.1828661417322835
 20
0.063507874015748
 30
0.0
 10
0.1828661417322835
 20
0.0686181102362205
 30
0.0
 10
0.1828661417322835
 20
0.0686181102362205
 30
0.0
 10
0.1828661417322835
 20
0.0726181102362205
 30
0.0
 10
0.1812834645669292
 20
0.0764527559055118
 30
0.0
 10
0.1781141732283465
 20
0.0801181102362205
 30
0.0
 10
0.1781141732283465
 20
0.0801181102362205
 30
0.0
 10
0.1749212598425197
 20
0.0837874015748031
 30
0.0
 10
0.1690314960629921
 20
0.0873425196850394
 30
0.0
 10
0.1603937007874016
 20
0.0908149606299213
 30
0.0
 10
0.1603937007874016
 20
0.0908149606299213
 30
0.0
 10
0.1603937007874016
 20
0.0908149606299213
 30
0.0
 10
0.1473937007874016
 20
0.0960354330708662
 30
0.0
 10
0.1473937007874016
 20
0.0960354330708662
 30
0.0
  0
SPLINE
  5
79
330
1F
100
AcDbEntity
  8
LAYER_1
 62
   250
100
AcDbSpline
210
0.0
220
0.0
230
1.0
 70
    11
 71
     3
 72
    48
 73
    44
 74
     0
 42
0.0000000001
 43
0.0000000001
 40
0.0
 40
0.0
 40
0.0
 40
0.0
 40
0.0909090909090909
 40
0.0909090909090909
 40
0.0909090909090909
 40
0.0909090909090909
 40
0.1818181818181818
 40
0.1818181818181818
 40
0.1818181818181818
 40
0.1818181818181818
 40
0.2727272727272727
 40
0.2727272727272727
 40
0.2727272727272727
 40
0.2727272727272727
 40
0.3636363636363637
 40
0.3636363636363637
 40
0.3636363636363637
 40
0.3636363636363637
 40
0.4545454545454546
 40
0.4545454545454546
 40
0.4545454545454546
 40
0.4545454545454546
 40
0.5454545454545455
 40
0.5454545454545455
 40
0.5454545454545455
 40
0.5454545454545455
 40
0.6363636363636365
 40
0.6363636363636365
 40
0.6363636363636365
 40
0.6363636363636365
 40
0.7272727272727274
 40
0.7272727272727274
 40
0.7272727272727274
 40
0.7272727272727274
 40
0.8181818181818183
 40
0.8181818181818183
 40
0.8181818181818183
 40
0.8181818181818183
 40
0.9090909090909093
 40
0.9090909090909093
 40
0.9090909090909093
 40
0.9090909090909093
 40
1.0
 40
1.0
 40
1.0
 40
1.0
 10
0.2655629921259843
 20
0.1539803149606299
 30
0.0
 10
0.2655629921259843
 20
0.1539803149606299
 30
0.0
 10
0.2793110236220472
 20
0.1539803149606299
 30
0.0
 10
0.2793110236220472
 20
0.1539803149606299
 30
0.0
 10
0.2793110236220472
 20
0.1539803149606299
 30
0.0
 10
0.2793110236220472
 20
0.1539803149606299
 30
0.0
 10
0.2793110236220472
 20
0.0879803149606299
 30
0.0
 10
0.2793110236220472
 20
0.0879803149606299
 30
0.0
 10
0.2793110236220472
 20
0.0879803149606299
 30
0.0
 10
0.2793110236220472
 20
0.0879803149606299
 30
0.0
 10
0.3006456692913386
 20
0.0879803149606299
 30
0.0
 10
0.3006456692913386
 20
0.0879803149606299
 30
0.0
 10
0.3006456692913386
 20
0.0879803149606299
 30
0.0
 10
0.3006456692913386
 20
0.0879803149606299
 30
0.0
 10
0.3006456692913386
 20
0.0778149606299213
 30
0.0
 10
0.3006456692913386
 20
0.0778149606299213
 30
0.0
 10
0.3006456692913386
 20
0.0778149606299213
 30
0.0
 10
0.3006456692913386
 20
0.0778149606299213
 30
0.0
 10
0.2793110236220472
 20
0.0778149606299213
 30
0.0
 10
0.2793110236220472
 20
0.0778149606299213
 30
0.0
 10
0.2793110236220472
 20
0.0778149606299213
 30
0.0
 10
0.2793110236220472
 20
0.0778149606299213
 30
0.0
 10
0.2793110236220472
 20
0.0404527559055118
 30
0.0
 10
0.2793110236220472
 20
0.0404527559055118
 30
0.0
 10
0.2793110236220472
 20
0.0404527559055118
 30
0.0
 10
0.2793110236220472
 20
0.0404527559055118
 30
0.0
 10
0.2655629921259843
 20
0.0404527559055118
 30
0.0
 10
0.2655629921259843
 20
0.0404527559055118
 30
0.0
 10
0.2655629921259843
 20
0.0404527559055118
 30
0.0
 10
0.2655629921259843
 20
0.0404527559055118
 30
0.0
 10
0.2655629921259843
 20
0.0778149606299213
 30
0.0
 10
0.2655629921259843
 20
0.0778149606299213
 30
0.0
 10
0.2655629921259843
 20
0.0778149606299213
 30
0.0
 10
0.2655629921259843
 20
0.0778149606299213
 30
0.0
 10
0.2120905511811024
 20
0.0778149606299213
 30
0.0
 10
0.2120905511811024
 20
0.0778149606299213
 30
0.0
 10
0.2120905511811024
 20
0.0778149606299213
 30
0.0
 10
0.2120905511811024
 20
0.0778149606299213
 30
0.0
 10
0.2120905511811024
 20
0.0921181102362205
 30
0.0
 10
0.2120905511811024
 20
0.0921181102362205
 30
0.0
 10
0.2120905511811024
 20
0.0921181102362205
 30
0.0
 10
0.2120905511811024
 20
0.0921181102362205
 30
0.0
 10
0.2655629921259843
 20
0.1539803149606299
 30
0.0
 10
0.2655629921259843
 20
0.1539803149606299
 30
0.0
  0
SPLINE
  5
7A
330
1F
100
AcDbEntity
  8
LAYER_1
 62
   250
100
AcDbSpline
210
0.0
220
0.0
230
1.0
 70
    11
 71
     3
 72
    16
 73
    12
 74
     0
 42
0.0000000001
 43
0.0000000001
 40
0.0
 40
0.0
 40
0.0
 40
0.0
 40
0.3333333333333333
 40
0.3333333333333333
 40
0.3333333333333333
 40
0.3333333333333333
 40
0.6666666666666666
 40
0.6666666666666666
 40
0.6666666666666666
 40
0.6666666666666666
 40
1.0
 40
1.0
 40
1.0
 40
1.0
 10
0.2655629921259843
 20
0.0879803149606299
 30
0.0
 10
0.2655629921259843
 20
0.0879803149606299
 30
0.0
 10
0.2655629921259843
 20
0.1413700787401575
 30
0.0
 10
0.2655629921259843
 20
0.1413700787401575
 30
0.0
 10
0.2655629921259843
 20
0.1413700787401575
 30
0.0
 10
0.2655629921259843
 20
0.1413700787401575
 30
0.0
 10
0.219507874015748
 20
0.0879803149606299
 30
0.0
 10
0.219507874015748
 20
0.0879803149606299
 30
0.0
 10
0.219507874015748
 20
0.0879803149606299
 30
0.0
 10
0.219507874015748
 20
0.0879803149606299
 30
0.0
 10
0.2655629921259843
 20
0.0879803149606299
 30
0.0
 10
0.2655629921259843
 20
0.0879803149606299
 30
0.0
  0
SPLINE
  5
7B
330
1F
100
AcDbEntity
  8
LAYER_1
 62
   250
100
AcDbSpline
210
0.0
220
0.0
230
1.0
 70
    11
 71
     3
 72
    48
 73
    44
 74
     0
 42
0.0000000001
 43
0.0000000001
 40
0.0
 40
0.0
 40
0.0
 40
0.0
 40
0.0909090909090909
 40
0.0909090909090909
 40
0.0909090909090909
 40
0.0909090909090909
 40
0.1818181818181818
 40
0.1818181818181818
 40
0.1818181818181818
 40
0.1818181818181818
 40
0.2727272727272727
 40
0.2727272727272727
 40
0.2727272727272727
 40
0.2727272727272727
 40
0.3636363636363637
 40
0.3636363636363637
 40
0.3636363636363637
 40
0.3636363636363637
 40
0.4545454545454546
 40
0.4545454545454546
 40
0.4545454545454546
 40
0.4545454545454546
 40
0.5454545454545455
 40
0.5454545454545455
 40
0.5454545454545455
 40
0.5454545454545455
 40
0.6363636363636365
 40
0.6363636363636365
 40
0.6363636363636365
 40
0.6363636363636365
 40
0.7272727272727274
 40
0.7272727272727274
 40
0.7272727272727274
 40
0.7272727272727274
 40
0.8181818181818183
 40
0.8181818181818183
 40
0.8181818181818183
 40
0.8181818181818183
 40
0.9090909090909093
 40
0.9090909090909093
 40
0.9090909090909093
 40
0.9090909090909093
 40
1.0
 40
1.0
 40
1.0
 40
1.0
 10
0.3689251968503937
 20
0.1539803149606299
 30
0.0
 10
0.3689251968503937
 20
0.1539803149606299
 30
0.0
 10
0.3826732283464567
 20
0.1539803149606299
 30
0.0
 10
0.3826732283464567
 20
0.1539803149606299
 30
0.0
 10
0.3826732283464567
 20
0.1539803149606299
 30
0.0
 10
0.3826732283464567
 20
0.1539803149606299
 30
0.0
 10
0.3826732283464567
 20
0.0879803149606299
 30
0.0
 10
0.3826732283464567
 20
0.0879803149606299
 30
0.0
 10
0.3826732283464567
 20
0.0879803149606299
 30
0.0
 10
0.3826732283464567
 20
0.0879803149606299
 30
0.0
 10
0.4040078740157481
 20
0.0879803149606299
 30
0.0
 10
0.4040078740157481
 20
0.0879803149606299
 30
0.0
 10
0.4040078740157481
 20
0.0879803149606299
 30
0.0
 10
0.4040078740157481
 20
0.0879803149606299
 30
0.0
 10
0.4040078740157481
 20
0.0778149606299213
 30
0.0
 10
0.4040078740157481
 20
0.0778149606299213
 30
0.0
 10
0.4040078740157481
 20
0.0778149606299213
 30
0.0
 10
0.4040078740157481
 20
0.0778149606299213
 30
0.0
 10
0.3826732283464567
 20
0.0778149606299213
 30
0.0
 10
0.3826732283464567
 20
0.0778149606299213
 30
0.0
 10
0.3826732283464567
 20
0.0778149606299213
 30
0.0
 10
0.3826732283464567
 20
0.0778149606299213
 30
0.0
 10
0.3826732283464567
 20
0.0404527559055118
 30
0.0
 10
0.3826732283464567
 20
0.0404527559055118
 30
0.0
 10
0.3826732283464567
 20
0.0404527559055118
 30
0.0
 10
0.3826732283464567
 20
0.0404527559055118
 30
0.0
 10
0.3689251968503937
 20
0.0404527559055118
 30
0.0
 10
0.3689251968503937
 20
0.0404527559055118
 30
0.0
 10
0.3689251968503937
 20
0.0404527559055118
 30
0.0
 10
0.3689251968503937
 20
0.0404527559055118
 30
0.0
 10
0.3689251968503937
 20
0.0778149606299213
 30
0.0
 10
0.3689251968503937
 20
0.0778149606299213
 30
0.0
 10
0.3689251968503937
 20
0.0778149606299213
 30
0.0
 10
0.3689251968503937
 20
0.0778149606299213
 30
0.0
 10
0.3154527559055118
 20
0.0778149606299213
 30
0.0
 10
0.3154527559055118
 20
0.0778149606299213
 30
0.0
 10
0.3154527559055118
 20
0.0778149606299213
 30
0.0
 10
0.3154527559055118
 20
0.0778149606299213
 30
0.0
 10
0.3154527559055118
 20
0.0921181102362205
 30
0.0
 10
0.3154527559055118
 20
0.0921181102362205
 30
0.0
 10
0.3154527559055118
 20
0.0921181102362205
 30
0.0
 10
0.3154527559055118
 20
0.0921181102362205
 30
0.0
 10
0.3689251968503937
 20
0.1539803149606299
 30
0.0
 10
0.3689251968503937
 20
0.1539803149606299
 30
0.0
  0
SPLINE
  5
7C
330
1F
100
AcDbEntity
  8
LAYER_1
 62
   250
100
AcDbSpline
210
0.0
220
0.0
230
1.0
 70
    11
 71
     3
 72
    16
 73
    12
 74
     0
 42
0.0000000001
 43
0.0000000001
 40
0.0
 40
0.0
 40
0.0
 40
0.0
 40
0.3333333333333333
 40
0.3333333333333333
 40
0.3333333333333333
 40
0.3333333333333333
 40
0.6666666666666666
 40
0.6666666666666666
 40
0.6666666666666666
 40
0.6666666666666666
 40
1.0
 40
1.0
 40
1.0
 40
1.0
 10
0.3689251968503937
 20
0.0879803149606299
 30
0.0
 10
0.3689251968503937
 20
0.0879803149606299
 30
0.0
 10
0.3689251968503937
 20
0.1413700787401575
 30
0.0
 10
0.3689251968503937
 20
0.1413700787401575
 30
0.0
 10
0.3689251968503937
 20
0.1413700787401575
 30
0.0
 10
0.3689251968503937
 20
0.1413700787401575
 30
0.0
 10
0.3228700787401575
 20
0.0879803149606299
 30
0.0
 10
0.3228700787401575
 20
0.0879803149606299
 30
0.0
 10
0.3228700787401575
 20
0.0879803149606299
 30
0.0
 10
0.3228700787401575
 20
0.0879803149606299
 30
0.0
 10
0.3689251968503937
 20
0.0879803149606299
 30
0.0
 10
0.3689251968503937
 20
0.0879803149606299
 30
0.0
  0
SPLINE
  5
7D
330
1F
100
AcDbEntity
  8
LAYER_1
 62
   250
100
AcDbSpline
210
0.0
220
0.0
230
1.0
 70
    11
 71
     3
 72
    80
 73
    76
 74
     0
 42
0.0000000001
 43
0.0000000001
 40
0.0
 40
0.0
 40
0.0
 40
0.0
 40
0.0526315789473684
 40
0.0526315789473684
 40
0.0526315789473684
 40
0.0526315789473684
 40
0.1052631578947368
 40
0.1052631578947368
 40
0.1052631578947368
 40
0.1052631578947368
 40
0.1578947368421053
 40
0.1578947368421053
 40
0.1578947368421053
 40
0.1578947368421053
 40
0.2105263157894737
 40
0.2105263157894737
 40
0.2105263157894737
 40
0.2105263157894737
 40
0.2631578947368421
 40
0.2631578947368421
 40
0.2631578947368421
 40
0.2631578947368421
 40
0.3157894736842105
 40
0.3157894736842105
 40
0.3157894736842105
 40
0.3157894736842105
 40
0.3684210526315789
 40
0.3684210526315789
 40
0.3684210526315789
 40
0.3684210526315789
 40
0.4210526315789474
 40
0.4210526315789474
 40
0.4210526315789474
 40
0.4210526315789474
 40
0.4736842105263158
 40
0.4736842105263158
 40
0.4736842105263158
 40
0.4736842105263158
 40
0.5263157894736842
 40
0.5263157894736842
 40
0.5263157894736842
 40
0.5263157894736842
 40
0.5789473684210527
 40
0.5789473684210527
 40
0.5789473684210527
 40
0.5789473684210527
 40
0.631578947368421
 40
0.631578947368421
 40
0.631578947368421
 40
0.631578947368421
 40
0.6842105263157894
 40
0.6842105263157894
 40
0.6842105263157894
 40
0.6842105263157894
 40
0.7368421052631577
 40
0.7368421052631577
 40
0.7368421052631577
 40
0.7368421052631577
 40
0.7894736842105261
 40
0.7894736842105261
 40
0.7894736842105261
 40
0.7894736842105261
 40
0.8421052631578945
 40
0.8421052631578945
 40
0.8421052631578945
 40
0.8421052631578945
 40
0.8947368421052628
 40
0.8947368421052628
 40
0.8947368421052628
 40
0.8947368421052628
 40
0.9473684210526312
 40
0.9473684210526312
 40
0.9473684210526312
 40
0.9473684210526312
 40
1.0
 40
1.0
 40
1.0
 40
1.0
 10
-0.506755905511811
 20
-0.0293818897637795
 30
0.0
 10
-0.506755905511811
 20
-0.0293818897637795
 30
0.0
 10
-0.5013661417322834
 20
-0.0293818897637795
 30
0.0
 10
-0.5013661417322834
 20
-0.0293818897637795
 30
0.0
 10
-0.5013661417322834
 20
-0.0293818897637795
 30
0.0
 10
-0.5013661417322834
 20
-0.0293818897637795
 30
0.0
 10
-0.5003937007874016
 20
-0.0335196850393701
 30
0.0
 10
-0.5003937007874016
 20
-0.0335196850393701
 30
0.0
 10
-0.5003937007874016
 20
-0.0335196850393701
 30
0.0
 10
-0.5003937007874016
 20
-0.0335196850393701
 30
0.0
 10
-0.4292834645669292
 20
-0.0335196850393701
 30
0.0
 10
-0.4292834645669292
 20
-0.0335196850393701
 30
0.0
 10
-0.4292834645669292
 20
-0.0335196850393701
 30
0.0
 10
-0.4292834645669292
 20
-0.0335196850393701
 30
0.0
 10
-0.4292834645669292
 20
-0.0404370078740158
 30
0.0
 10
-0.4292834645669292
 20
-0.0404370078740158
 30
0.0
 10
-0.4292834645669292
 20
-0.0404370078740158
 30
0.0
 10
-0.4377834645669291
 20
-0.0502716535433071
 30
0.0
 10
-0.445507874015748
 20
-0.0614370078740158
 30
0.0
 10
-0.4524212598425197
 20
-0.0740196850393701
 30
0.0
 10
-0.4524212598425197
 20
-0.0740196850393701
 30
0.0
 10
-0.4593385826771654
 20
-0.0865748031496063
 30
0.0
 10
-0.4647007874015748
 20
-0.0993543307086614
 30
0.0
 10
-0.4685078740157481
 20
-0.1123818897637795
 30
0.0
 10
-0.4685078740157481
 20
-0.1123818897637795
 30
0.0
 10
-0.4712559055118111
 20
-0.1217677165354331
 30
0.0
 10
-0.473503937007874
 20
-0.1333267716535433
 30
0.0
 10
-0.475255905511811
 20
-0.1470472440944882
 30
0.0
 10
-0.475255905511811
 20
-0.1470472440944882
 30
0.0
 10
-0.475255905511811
 20
-0.1470472440944882
 30
0.0
 10
-0.4919212598425197
 20
-0.1470472440944882
 30
0.0
 10
-0.4919212598425197
 20
-0.1470472440944882
 30
0.0
 10
-0.4919212598425197
 20
-0.1470472440944882
 30
0.0
 10
-0.4903110236220473
 20
-0.1349370078740158
 30
0.0
 10
-0.4876456692913386
 20
-0.1236299212598425
 30
0.0
 10
-0.4839212598425197
 20
-0.1131023622047244
 30
0.0
 10
-0.4839212598425197
 20
-0.1131023622047244
 30
0.0
 10
-0.4802007874015749
 20
-0.1025748031496063
 30
0.0
 10
-0.4748385826771654
 20
-0.0915748031496063
 30
0.0
 10
-0.4678110236220472
 20
-0.0801023622047244
 30
0.0
 10
-0.4678110236220472
 20
-0.0801023622047244
 30
0.0
 10
-0.4607834645669292
 20
-0.0686299212598425
 30
0.0
 10
-0.4522559055118111
 20
-0.0571850393700787
 30
0.0
 10
-0.4422007874015748
 20
-0.045744094488189
 30
0.0
 10
-0.4422007874015748
 20
-0.045744094488189
 30
0.0
 10
-0.4422007874015748
 20
-0.045744094488189
 30
0.0
 10
-0.4929212598425197
 20
-0.045744094488189
 30
0.0
 10
-0.4929212598425197
 20
-0.045744094488189
 30
0.0
 10
-0.4929212598425197
 20
-0.045744094488189
 30
0.0
 10
-0.4965905511811024
 20
-0.045744094488189
 30
0.0
 10
-0.4991181102362205
 20
-0.0459094488188976
 30
0.0
 10
-0.5004763779527559
 20
-0.0462992125984252
 30
0.0
 10
-0.5004763779527559
 20
-0.0462992125984252
 30
0.0
 10
-0.5018385826771654
 20
-0.0466850393700787
 30
0.0
 10
-0.5028937007874016
 20
-0.0472716535433071
 30
0.0
 10
-0.5036456692913386
 20
-0.0480748031496063
 30
0.0
 10
-0.5036456692913386
 20
-0.0480748031496063
 30
0.0
 10
-0.5044212598425197
 20
-0.0489094488188976
 30
0.0
 10
-0.5050629921259843
 20
-0.0503543307086614
 30
0.0
 10
-0.5056181102362205
 20
-0.0524094488188976
 30
0.0
 10
-0.5056181102362205
 20
-0.0524094488188976
 30
0.0
 10
-0.5056181102362205
 20
-0.0524094488188976
 30
0.0
 10
-0.5060039370078741
 20
-0.0539370078740158
 30
0.0
 10
-0.5060039370078741
 20
-0.0539370078740158
 30
0.0
 10
-0.5060039370078741
 20
-0.0539370078740158
 30
0.0
 10
-0.5060039370078741
 20
-0.0539370078740158
 30
0.0
 10
-0.5087834645669291
 20
-0.0635472440944882
 30
0.0
 10
-0.5087834645669291
 20
-0.0635472440944882
 30
0.0
 10
-0.5087834645669291
 20
-0.0635472440944882
 30
0.0
 10
-0.5087834645669291
 20
-0.0635472440944882
 30
0.0
 10
-0.5157007874015748
 20
-0.0620748031496063
 30
0.0
 10
-0.5157007874015748
 20
-0.0620748031496063
 30
0.0
 10
-0.5157007874015748
 20
-0.0620748031496063
 30
0.0
 10
-0.5157007874015748
 20
-0.0620748031496063
 30
0.0
 10
-0.506755905511811
 20
-0.0293818897637795
 30
0.0
 10
-0.506755905511811
 20
-0.0293818897637795
 30
0.0
  0
SPLINE
  5
7E
330
1F
100
AcDbEntity
  8
LAYER_1
 62
   250
100
AcDbSpline
210
0.0
220
0.0
230
1.0
 70
    11
 71
     3
 72
    20
 73
    16
 74
     0
 42
0.0000000001
 43
0.0000000001
 40
0.0
 40
0.0
 40
0.0
 40
0.0
 40
0.25
 40
0.25
 40
0.25
 40
0.25
 40
0.5
 40
0.5
 40
0.5
 40
0.5
 40
0.75
 40
0.75
 40
0.75
 40
0.75
 40
1.0
 40
1.0
 40
1.0
 40
1.0
 10
-0.3399763779527559
 20
-0.0276574803149606
 30
0.0
 10
-0.3399763779527559
 20
-0.0276574803149606
 30
0.0
 10
-0.3955590551181102
 20
-0.1833543307086614
 30
0.0
 10
-0.3955590551181102
 20
-0.1833543307086614
 30
0.0
 10
-0.3955590551181102
 20
-0.1833543307086614
 30
0.0
 10
-0.3955590551181102
 20
-0.1833543307086614
 30
0.0
 10
-0.4076141732283465
 20
-0.1833543307086614
 30
0.0
 10
-0.4076141732283465
 20
-0.1833543307086614
 30
0.0
 10
-0.4076141732283465
 20
-0.1833543307086614
 30
0.0
 10
-0.4076141732283465
 20
-0.1833543307086614
 30
0.0
 10
-0.3523661417322835
 20
-0.0276574803149606
 30
0.0
 10
-0.3523661417322835
 20
-0.0276574803149606
 30
0.0
 10
-0.3523661417322835
 20
-0.0276574803149606
 30
0.0
 10
-0.3523661417322835
 20
-0.0276574803149606
 30
0.0
 10
-0.3399763779527559
 20
-0.0276574803149606
 30
0.0
 10
-0.3399763779527559
 20
-0.0276574803149606
 30
0.0
  0
SPLINE
  5
7F
330
1F
100
AcDbEntity
  8
LAYER_1
 62
   250
100
AcDbSpline
210
0.0
220
0.0
230
1.0
 70
    11
 71
     3
 72
    76
 73
    72
 74
     0
 42
0.0000000001
 43
0.0000000001
 40
0.0
 40
0.0
 40
0.0
 40
0.0
 40
0.0555555555555556
 40
0.0555555555555556
 40
0.0555555555555556
 40
0.0555555555555556
 40
0.1111111111111111
 40
0.1111111111111111
 40
0.1111111111111111
 40
0.1111111111111111
 40
0.1666666666666667
 40
0.1666666666666667
 40
0.1666666666666667
 40
0.1666666666666667
 40
0.2222222222222222
 40
0.2222222222222222
 40
0.2222222222222222
 40
0.2222222222222222
 40
0.2777777777777778
 40
0.2777777777777778
 40
0.2777777777777778
 40
0.2777777777777778
 40
0.3333333333333334
 40
0.3333333333333334
 40
0.3333333333333334
 40
0.3333333333333334
 40
0.388888888888889
 40
0.388888888888889
 40
0.388888888888889
 40
0.388888888888889
 40
0.4444444444444445
 40
0.4444444444444445
 40
0.4444444444444445
 40
0.4444444444444445
 40
0.5000000000000001
 40
0.5000000000000001
 40
0.5000000000000001
 40
0.5000000000000001
 40
0.5555555555555557
 40
0.5555555555555557
 40
0.5555555555555557
 40
0.5555555555555557
 40
0.6111111111111113
 40
0.6111111111111113
 40
0.6111111111111113
 40
0.6111111111111113
 40
0.6666666666666669
 40
0.6666666666666669
 40
0.6666666666666669
 40
0.6666666666666669
 40
0.7222222222222224
 40
0.7222222222222224
 40
0.7222222222222224
 40
0.7222222222222224
 40
0.777777777777778
 40
0.777777777777778
 40
0.777777777777778
 40
0.777777777777778
 40
0.8333333333333336
 40
0.8333333333333336
 40
0.8333333333333336
 40
0.8333333333333336
 40
0.8888888888888892
 40
0.8888888888888892
 40
0.8888888888888892
 40
0.8888888888888892
 40
0.9444444444444448
 40
0.9444444444444448
 40
0.9444444444444448
 40
0.9444444444444448
 40
1.0
 40
1.0
 40
1.0
 40
1.0
 10
-0.2569763779527559
 20
-0.0840472440944882
 30
0.0
 10
-0.2505590551181102
 20
-0.086492125984252
 30
0.0
 10
-0.2456732283464567
 20
-0.0887992125984252
 30
0.0
 10
-0.2423110236220473
 20
-0.0909645669291339
 30
0.0
 10
-0.2423110236220473
 20
-0.0909645669291339
 30
0.0
 10
-0.2373937007874016
 20
-0.0941299212598425
 30
0.0
 10
-0.2336732283464567
 20
-0.0978267716535433
 30
0.0
 10
-0.2311732283464567
 20
-0.1020748031496063
 30
0.0
 10
-0.2311732283464567
 20
-0.1020748031496063
 30
0.0
 10
-0.2286732283464567
 20
-0.1063543307086614
 30
0.0
 10
-0.2274212598425197
 20
-0.1109645669291339
 30
0.0
 10
-0.2274212598425197
 20
-0.1159645669291339
 30
0.0
 10
-0.2274212598425197
 20
-0.1159645669291339
 30
0.0
 10
-0.2274212598425197
 20
-0.1249094488188976
 30
0.0
 10
-0.2312834645669291
 20
-0.1326574803149606
 30
0.0
 10
-0.2389763779527559
 20
-0.1391850393700788
 30
0.0
 10
-0.2389763779527559
 20
-0.1391850393700788
 30
0.0
 10
-0.2467007874015748
 20
-0.145740157480315
 30
0.0
 10
-0.2570866141732284
 20
-0.148992125984252
 30
0.0
 10
-0.2701456692913386
 20
-0.148992125984252
 30
0.0
 10
-0.2701456692913386
 20
-0.148992125984252
 30
0.0
 10
-0.2839763779527559
 20
-0.148992125984252
 30
0.0
 10
-0.2948385826771653
 20
-0.1452992125984252
 30
0.0
 10
-0.3027007874015748
 20
-0.1379370078740158
 30
0.0
 10
-0.3027007874015748
 20
-0.1379370078740158
 30
0.0
 10
-0.3089488188976378
 20
-0.1320196850393701
 30
0.0
 10
-0.3120590551181103
 20
-0.1253267716535433
 30
0.0
 10
-0.3120590551181103
 20
-0.1178267716535433
 30
0.0
 10
-0.3120590551181103
 20
-0.1178267716535433
 30
0.0
 10
-0.3120590551181103
 20
-0.1117992125984252
 30
0.0
 10
-0.3099488188976378
 20
-0.1064094488188977
 30
0.0
 10
-0.305728346456693
 20
-0.1016299212598425
 30
0.0
 10
-0.305728346456693
 20
-0.1016299212598425
 30
0.0
 10
-0.3006141732283465
 20
-0.0959370078740158
 30
0.0
 10
-0.2933385826771653
 20
-0.091492125984252
 30
0.0
 10
-0.2838937007874016
 20
-0.0882992125984252
 30
0.0
 10
-0.2838937007874016
 20
-0.0882992125984252
 30
0.0
 10
-0.2912834645669292
 20
-0.0848267716535433
 30
0.0
 10
-0.2965866141732284
 20
-0.0812992125984252
 30
0.0
 10
-0.2998661417322835
 20
-0.0777125984251969
 30
0.0
 10
-0.2998661417322835
 20
-0.0777125984251969
 30
0.0
 10
-0.3040314960629921
 20
-0.072992125984252
 30
0.0
 10
-0.3061141732283464
 20
-0.0673267716535433
 30
0.0
 10
-0.3061141732283464
 20
-0.0607165354330709
 30
0.0
 10
-0.3061141732283464
 20
-0.0607165354330709
 30
0.0
 10
-0.3061141732283464
 20
-0.0525196850393701
 30
0.0
 10
-0.3030314960629921
 20
-0.0458818897637795
 30
0.0
 10
-0.2968385826771653
 20
-0.0408543307086614
 30
0.0
 10
-0.2968385826771653
 20
-0.0408543307086614
 30
0.0
 10
-0.289255905511811
 20
-0.0346574803149606
 30
0.0
 10
-0.279755905511811
 20
-0.0315748031496063
 30
0.0
 10
-0.2683661417322835
 20
-0.0315748031496063
 30
0.0
 10
-0.2683661417322835
 20
-0.0315748031496063
 30
0.0
 10
-0.2579488188976378
 20
-0.0315748031496063
 30
0.0
 10
-0.2495314960629921
 20
-0.034244094488189
 30
0.0
 10
-0.2430866141732284
 20
-0.0395748031496063
 30
0.0
 10
-0.2430866141732284
 20
-0.0395748031496063
 30
0.0
 10
-0.2366732283464567
 20
-0.0449370078740158
 30
0.0
 10
-0.2334488188976378
 20
-0.0510472440944882
 30
0.0
 10
-0.2334488188976378
 20
-0.0579370078740157
 30
0.0
 10
-0.2334488188976378
 20
-0.0579370078740157
 30
0.0
 10
-0.2334488188976378
 20
-0.0613543307086614
 30
0.0
 10
-0.234255905511811
 20
-0.0646299212598425
 30
0.0
 10
-0.2358385826771654
 20
-0.067744094488189
 30
0.0
 10
-0.2358385826771654
 20
-0.067744094488189
 30
0.0
 10
-0.2374488188976378
 20
-0.0708543307086614
 30
0.0
 10
-0.2398937007874016
 20
-0.0737716535433071
 30
0.0
 10
-0.2432283464566929
 20
-0.0764370078740158
 30
0.0
 10
-0.2432283464566929
 20
-0.0764370078740158
 30
0.0
 10
-0.2465314960629921
 20
-0.0791299212598425
 30
0.0
 10
-0.2511181102362205
 20
-0.0816574803149606
 30
0.0
 10
-0.2569763779527559
 20
-0.0840472440944882
 30
0.0
  0
SPLINE
  5
80
330
1F
100
AcDbEntity
  8
LAYER_1
 62
   250
100
AcDbSpline
210
0.0
220
0.0
230
1.0
 70
    11
 71
     3
 72
    48
 73
    44
 74
     0
 42
0.0000000001
 43
0.0000000001
 40
0.0
 40
0.0
 40
0.0
 40
0.0
 40
0.0909090909090909
 40
0.0909090909090909
 40
0.0909090909090909
 40
0.0909090909090909
 40
0.1818181818181818
 40
0.1818181818181818
 40
0.1818181818181818
 40
0.1818181818181818
 40
0.2727272727272727
 40
0.2727272727272727
 40
0.2727272727272727
 40
0.2727272727272727
 40
0.3636363636363637
 40
0.3636363636363637
 40
0.3636363636363637
 40
0.3636363636363637
 40
0.4545454545454546
 40
0.4545454545454546
 40
0.4545454545454546
 40
0.4545454545454546
 40
0.5454545454545455
 40
0.5454545454545455
 40
0.5454545454545455
 40
0.5454545454545455
 40
0.6363636363636365
 40
0.6363636363636365
 40
0.6363636363636365
 40
0.6363636363636365
 40
0.7272727272727274
 40
0.7272727272727274
 40
0.7272727272727274
 40
0.7272727272727274
 40
0.8181818181818183
 40
0.8181818181818183
 40
0.8181818181818183
 40
0.8181818181818183
 40
0.9090909090909093
 40
0.9090909090909093
 40
0.9090909090909093
 40
0.9090909090909093
 40
1.0
 40
1.0
 40
1.0
 40
1.0
 10
-0.2643661417322835
 20
-0.0810472440944882
 30
0.0
 10
-0.2582007874015748
 20
-0.0763818897637795
 30
0.0
 10
-0.2541732283464567
 20
-0.0731299212598425
 30
0.0
 10
-0.2523385826771654
 20
-0.0712716535433071
 30
0.0
 10
-0.2523385826771654
 20
-0.0712716535433071
 30
0.0
 10
-0.2504763779527559
 20
-0.0694370078740158
 30
0.0
 10
-0.2490590551181103
 20
-0.0673267716535433
 30
0.0
 10
-0.2480590551181102
 20
-0.0649645669291339
 30
0.0
 10
-0.2480590551181102
 20
-0.0649645669291339
 30
0.0
 10
-0.2470590551181102
 20
-0.0626023622047244
 30
0.0
 10
-0.2465590551181102
 20
-0.0603267716535433
 30
0.0
 10
-0.2465590551181102
 20
-0.0581023622047244
 30
0.0
 10
-0.2465590551181102
 20
-0.0581023622047244
 30
0.0
 10
-0.2465590551181102
 20
-0.0549094488188976
 30
0.0
 10
-0.247503937007874
 20
-0.0518543307086614
 30
0.0
 10
-0.2493937007874016
 20
-0.0489370078740158
 30
0.0
 10
-0.2493937007874016
 20
-0.0489370078740158
 30
0.0
 10
-0.2513110236220473
 20
-0.0460472440944882
 30
0.0
 10
-0.2540866141732284
 20
-0.0436850393700787
 30
0.0
 10
-0.2577559055118111
 20
-0.0419094488188976
 30
0.0
 10
-0.2577559055118111
 20
-0.0419094488188976
 30
0.0
 10
-0.2613937007874016
 20
-0.0401023622047244
 30
0.0
 10
-0.265503937007874
 20
-0.0392165354330709
 30
0.0
 10
-0.2700590551181102
 20
-0.0392165354330709
 30
0.0
 10
-0.2700590551181102
 20
-0.0392165354330709
 30
0.0
 10
-0.2768110236220472
 20
-0.0392165354330709
 30
0.0
 10
-0.2823937007874016
 20
-0.0410748031496063
 30
0.0
 10
-0.2868385826771654
 20
-0.0447992125984252
 30
0.0
 10
-0.2868385826771654
 20
-0.0447992125984252
 30
0.0
 10
-0.2912834645669292
 20
-0.0485196850393701
 30
0.0
 10
-0.293503937007874
 20
-0.0527992125984252
 30
0.0
 10
-0.293503937007874
 20
-0.0576850393700787
 30
0.0
 10
-0.293503937007874
 20
-0.0576850393700787
 30
0.0
 10
-0.293503937007874
 20
-0.0616023622047244
 30
0.0
 10
-0.2921141732283465
 20
-0.0651023622047244
 30
0.0
 10
-0.2893661417322835
 20
-0.0681850393700787
 30
0.0
 10
-0.2893661417322835
 20
-0.0681850393700787
 30
0.0
 10
-0.2865866141732283
 20
-0.0712716535433071
 30
0.0
 10
-0.2814488188976378
 20
-0.0743267716535433
 30
0.0
 10
-0.2738937007874016
 20
-0.0772992125984252
 30
0.0
 10
-0.2738937007874016
 20
-0.0772992125984252
 30
0.0
 10
-0.2738937007874016
 20
-0.0772992125984252
 30
0.0
 10
-0.2643661417322835
 20
-0.0810472440944882
 30
0.0
 10
-0.2643661417322835
 20
-0.0810472440944882
 30
0.0
  0
SPLINE
  5
81
330
1F
100
AcDbEntity
  8
LAYER_1
 62
   250
100
AcDbSpline
210
0.0
220
0.0
230
1.0
 70
    11
 71
     3
 72
    40
 73
    36
 74
     0
 42
0.0000000001
 43
0.0000000001
 40
0.0
 40
0.0
 40
0.0
 40
0.0
 40
0.1111111111111111
 40
0.1111111111111111
 40
0.1111111111111111
 40
0.1111111111111111
 40
0.2222222222222222
 40
0.2222222222222222
 40
0.2222222222222222
 40
0.2222222222222222
 40
0.3333333333333333
 40
0.3333333333333333
 40
0.3333333333333333
 40
0.3333333333333333
 40
0.4444444444444444
 40
0.4444444444444444
 40
0.4444444444444444
 40
0.4444444444444444
 40
0.5555555555555556
 40
0.5555555555555556
 40
0.5555555555555556
 40
0.5555555555555556
 40
0.6666666666666667
 40
0.6666666666666667
 40
0.6666666666666667
 40
0.6666666666666667
 40
0.7777777777777779
 40
0.7777777777777779
 40
0.7777777777777779
 40
0.7777777777777779
 40
0.8888888888888891
 40
0.8888888888888891
 40
0.8888888888888891
 40
0.8888888888888891
 40
1.0
 40
1.0
 40
1.0
 40
1.0
 10
-0.2758385826771654
 20
-0.0914645669291339
 30
0.0
 10
-0.283503937007874
 20
-0.0948267716535433
 30
0.0
 10
-0.2895590551181103
 20
-0.0991850393700787
 30
0.0
 10
-0.294003937007874
 20
-0.1045748031496063
 30
0.0
 10
-0.294003937007874
 20
-0.1045748031496063
 30
0.0
 10
-0.2974763779527559
 20
-0.1087992125984252
 30
0.0
 10
-0.2992007874015748
 20
-0.1131850393700788
 30
0.0
 10
-0.2992007874015748
 20
-0.117740157480315
 30
0.0
 10
-0.2992007874015748
 20
-0.117740157480315
 30
0.0
 10
-0.2992007874015748
 20
-0.1239370078740158
 30
0.0
 10
-0.2964763779527559
 20
-0.1294370078740157
 30
0.0
 10
-0.2909763779527559
 20
-0.134240157480315
 30
0.0
 10
-0.2909763779527559
 20
-0.134240157480315
 30
0.0
 10
-0.285503937007874
 20
-0.1390196850393701
 30
0.0
 10
-0.2784212598425197
 20
-0.1414370078740158
 30
0.0
 10
-0.2697559055118111
 20
-0.1414370078740158
 30
0.0
 10
-0.2697559055118111
 20
-0.1414370078740158
 30
0.0
 10
-0.2608937007874016
 20
-0.1414370078740158
 30
0.0
 10
-0.2535314960629921
 20
-0.1386850393700788
 30
0.0
 10
-0.2476181102362205
 20
-0.1332125984251969
 30
0.0
 10
-0.2476181102362205
 20
-0.1332125984251969
 30
0.0
 10
-0.2427834645669292
 20
-0.1287677165354331
 30
0.0
 10
-0.2403661417322835
 20
-0.123992125984252
 30
0.0
 10
-0.2403661417322835
 20
-0.1188818897637795
 30
0.0
 10
-0.2403661417322835
 20
-0.1188818897637795
 30
0.0
 10
-0.2403661417322835
 20
-0.1148818897637795
 30
0.0
 10
-0.2419488188976378
 20
-0.1110472440944882
 30
0.0
 10
-0.2451181102362205
 20
-0.1073818897637795
 30
0.0
 10
-0.2451181102362205
 20
-0.1073818897637795
 30
0.0
 10
-0.2483110236220473
 20
-0.1037125984251969
 30
0.0
 10
-0.2542007874015748
 20
-0.1001574803149606
 30
0.0
 10
-0.2628385826771654
 20
-0.0966850393700787
 30
0.0
 10
-0.2628385826771654
 20
-0.0966850393700787
 30
0.0
 10
-0.2628385826771654
 20
-0.0966850393700787
 30
0.0
 10
-0.2758385826771654
 20
-0.0914645669291339
 30
0.0
 10
-0.2758385826771654
 20
-0.0914645669291339
 30
0.0
  0
SPLINE
  5
82
330
1F
100
AcDbEntity
  8
LAYER_1
 62
   250
100
AcDbSpline
210
0.0
220
0.0
230
1.0
 70
    11
 71
     3
 72
    60
 73
    56
 74
     0
 42
0.0000000001
 43
0.0000000001
 40
0.0
 40
0.0
 40
0.0
 40
0.0
 40
0.0714285714285714
 40
0.0714285714285714
 40
0.0714285714285714
 40
0.0714285714285714
 40
0.1428571428571429
 40
0.1428571428571429
 40
0.1428571428571429
 40
0.1428571428571429
 40
0.2142857142857143
 40
0.2142857142857143
 40
0.2142857142857143
 40
0.2142857142857143
 40
0.2857142857142857
 40
0.2857142857142857
 40
0.2857142857142857
 40
0.2857142857142857
 40
0.3571428571428571
 40
0.3571428571428571
 40
0.3571428571428571
 40
0.3571428571428571
 40
0.4285714285714285
 40
0.4285714285714285
 40
0.4285714285714285
 40
0.4285714285714285
 40
0.4999999999999999
 40
0.4999999999999999
 40
0.4999999999999999
 40
0.4999999999999999
 40
0.5714285714285713
 40
0.5714285714285713
 40
0.5714285714285713
 40
0.5714285714285713
 40
0.6428571428571427
 40
0.6428571428571427
 40
0.6428571428571427
 40
0.6428571428571427
 40
0.7142857142857141
 40
0.7142857142857141
 40
0.7142857142857141
 40
0.7142857142857141
 40
0.7857142857142855
 40
0.7857142857142855
 40
0.7857142857142855
 40
0.7857142857142855
 40
0.8571428571428569
 40
0.8571428571428569
 40
0.8571428571428569
 40
0.8571428571428569
 40
0.9285714285714283
 40
0.9285714285714283
 40
0.9285714285714283
 40
0.9285714285714283
 40
1.0
 40
1.0
 40
1.0
 40
1.0
 10
-0.2079763779527559
 20
-0.0756023622047244
 30
0.0
 10
-0.2079763779527559
 20
-0.0756023622047244
 30
0.0
 10
-0.2123661417322835
 20
-0.0702125984251969
 30
0.0
 10
-0.2123661417322835
 20
-0.0702125984251969
 30
0.0
 10
-0.2123661417322835
 20
-0.0702125984251969
 30
0.0
 10
-0.201251968503937
 20
-0.0611574803149606
 30
0.0
 10
-0.1956692913385827
 20
-0.0536023622047244
 30
0.0
 10
-0.1956692913385827
 20
-0.0475196850393701
 30
0.0
 10
-0.1956692913385827
 20
-0.0475196850393701
 30
0.0
 10
-0.1956692913385827
 20
-0.0468267716535433
 30
0.0
 10
-0.1957244094488189
 20
-0.0459370078740158
 30
0.0
 10
-0.1958385826771654
 20
-0.0449094488188976
 30
0.0
 10
-0.1958385826771654
 20
-0.0449094488188976
 30
0.0
 10
-0.196751968503937
 20
-0.0452992125984252
 30
0.0
 10
-0.1976692913385827
 20
-0.0456023622047244
 30
0.0
 10
-0.1985314960629921
 20
-0.0457992125984252
 30
0.0
 10
-0.1985314960629921
 20
-0.0457992125984252
 30
0.0
 10
-0.1993937007874016
 20
-0.0460196850393701
 30
0.0
 10
-0.2001968503937008
 20
-0.0461299212598425
 30
0.0
 10
-0.2009763779527559
 20
-0.0461299212598425
 30
0.0
 10
-0.2009763779527559
 20
-0.0461299212598425
 30
0.0
 10
-0.2035866141732284
 20
-0.0461299212598425
 30
0.0
 10
-0.2056692913385827
 20
-0.0452992125984252
 30
0.0
 10
-0.2072244094488189
 20
-0.0436023622047244
 30
0.0
 10
-0.2072244094488189
 20
-0.0436023622047244
 30
0.0
 10
-0.2088110236220473
 20
-0.0419370078740157
 30
0.0
 10
-0.2095866141732284
 20
-0.0397992125984252
 30
0.0
 10
-0.2095866141732284
 20
-0.0371850393700787
 30
0.0
 10
-0.2095866141732284
 20
-0.0371850393700787
 30
0.0
 10
-0.2095866141732284
 20
-0.0346299212598425
 30
0.0
 10
-0.2086417322834646
 20
-0.0324094488188976
 30
0.0
 10
-0.206751968503937
 20
-0.0305196850393701
 30
0.0
 10
-0.206751968503937
 20
-0.0305196850393701
 30
0.0
 10
-0.2048385826771654
 20
-0.0286023622047244
 30
0.0
 10
-0.2025590551181102
 20
-0.0276574803149606
 30
0.0
 10
-0.1999212598425197
 20
-0.0276574803149606
 30
0.0
 10
-0.1999212598425197
 20
-0.0276574803149606
 30
0.0
 10
-0.1962244094488189
 20
-0.0276574803149606
 30
0.0
 10
-0.1930590551181103
 20
-0.0291299212598425
 30
0.0
 10
-0.1904212598425197
 20
-0.0321023622047244
 30
0.0
 10
-0.1904212598425197
 20
-0.0321023622047244
 30
0.0
 10
-0.1878110236220472
 20
-0.0350472440944882
 30
0.0
 10
-0.1864763779527559
 20
-0.0388543307086614
 30
0.0
 10
-0.1864763779527559
 20
-0.0435196850393701
 30
0.0
 10
-0.1864763779527559
 20
-0.0435196850393701
 30
0.0
 10
-0.1864763779527559
 20
-0.0465748031496063
 30
0.0
 10
-0.1871141732283465
 20
-0.0497716535433071
 30
0.0
 10
-0.1883661417322835
 20
-0.0531023622047244
 30
0.0
 10
-0.1883661417322835
 20
-0.0531023622047244
 30
0.0
 10
-0.1896141732283465
 20
-0.0564370078740158
 30
0.0
 10
-0.1914212598425197
 20
-0.0595196850393701
 30
0.0
 10
-0.1938110236220473
 20
-0.0623818897637795
 30
0.0
 10
-0.1938110236220473
 20
-0.0623818897637795
 30
0.0
 10
-0.1961968503937008
 20
-0.0652125984251968
 30
0.0
 10
-0.2009212598425197
 20
-0.0696299212598425
 30
0.0
 10
-0.2079763779527559
 20
-0.0756023622047244
 30
0.0
  0
SPLINE
  5
83
330
1F
100
AcDbEntity
  8
LAYER_1
 62
   250
100
AcDbSpline
210
0.0
220
0.0
230
1.0
 70
    11
 71
     3
 72
    60
 73
    56
 74
     0
 42
0.0000000001
 43
0.0000000001
 40
0.0
 40
0.0
 40
0.0
 40
0.0
 40
0.0714285714285714
 40
0.0714285714285714
 40
0.0714285714285714
 40
0.0714285714285714
 40
0.1428571428571429
 40
0.1428571428571429
 40
0.1428571428571429
 40
0.1428571428571429
 40
0.2142857142857143
 40
0.2142857142857143
 40
0.2142857142857143
 40
0.2142857142857143
 40
0.2857142857142857
 40
0.2857142857142857
 40
0.2857142857142857
 40
0.2857142857142857
 40
0.3571428571428571
 40
0.3571428571428571
 40
0.3571428571428571
 40
0.3571428571428571
 40
0.4285714285714285
 40
0.4285714285714285
 40
0.4285714285714285
 40
0.4285714285714285
 40
0.4999999999999999
 40
0.4999999999999999
 40
0.4999999999999999
 40
0.4999999999999999
 40
0.5714285714285713
 40
0.5714285714285713
 40
0.5714285714285713
 40
0.5714285714285713
 40
0.6428571428571427
 40
0.6428571428571427
 40
0.6428571428571427
 40
0.6428571428571427
 40
0.7142857142857141
 40
0.7142857142857141
 40
0.7142857142857141
 40
0.7142857142857141
 40
0.7857142857142855
 40
0.7857142857142855
 40
0.7857142857142855
 40
0.7857142857142855
 40
0.8571428571428569
 40
0.8571428571428569
 40
0.8571428571428569
 40
0.8571428571428569
 40
0.9285714285714283
 40
0.9285714285714283
 40
0.9285714285714283
 40
0.9285714285714283
 40
1.0
 40
1.0
 40
1.0
 40
1.0
 10
-0.1789212598425197
 20
-0.0756023622047244
 30
0.0
 10
-0.1789212598425197
 20
-0.0756023622047244
 30
0.0
 10
-0.1833110236220473
 20
-0.0702125984251969
 30
0.0
 10
-0.1833110236220473
 20
-0.0702125984251969
 30
0.0
 10
-0.1833110236220473
 20
-0.0702125984251969
 30
0.0
 10
-0.1721968503937008
 20
-0.0611574803149606
 30
0.0
 10
-0.1666141732283465
 20
-0.0536023622047244
 30
0.0
 10
-0.1666141732283465
 20
-0.0475196850393701
 30
0.0
 10
-0.1666141732283465
 20
-0.0475196850393701
 30
0.0
 10
-0.1666141732283465
 20
-0.0468267716535433
 30
0.0
 10
-0.1666692913385827
 20
-0.0459370078740158
 30
0.0
 10
-0.1667834645669291
 20
-0.0449094488188976
 30
0.0
 10
-0.1667834645669291
 20
-0.0449094488188976
 30
0.0
 10
-0.1676968503937008
 20
-0.0452992125984252
 30
0.0
 10
-0.1686141732283465
 20
-0.0456023622047244
 30
0.0
 10
-0.1694763779527559
 20
-0.0457992125984252
 30
0.0
 10
-0.1694763779527559
 20
-0.0457992125984252
 30
0.0
 10
-0.1703385826771654
 20
-0.0460196850393701
 30
0.0
 10
-0.1711692913385827
 20
-0.0461299212598425
 30
0.0
 10
-0.172003937007874
 20
-0.0461299212598425
 30
0.0
 10
-0.172003937007874
 20
-0.0461299212598425
 30
0.0
 10
-0.1745590551181102
 20
-0.0461299212598425
 30
0.0
 10
-0.1766141732283465
 20
-0.0452992125984252
 30
0.0
 10
-0.1781692913385827
 20
-0.0436023622047244
 30
0.0
 10
-0.1781692913385827
 20
-0.0436023622047244
 30
0.0
 10
-0.179751968503937
 20
-0.0419370078740157
 30
0.0
 10
-0.1805314960629921
 20
-0.0397992125984252
 30
0.0
 10
-0.1805314960629921
 20
-0.0371850393700787
 30
0.0
 10
-0.1805314960629921
 20
-0.0371850393700787
 30
0.0
 10
-0.1805314960629921
 20
-0.0346299212598425
 30
0.0
 10
-0.1795866141732284
 20
-0.0324094488188976
 30
0.0
 10
-0.1776968503937008
 20
-0.0305196850393701
 30
0.0
 10
-0.1776968503937008
 20
-0.0305196850393701
 30
0.0
 10
-0.1758110236220473
 20
-0.0286023622047244
 30
0.0
 10
-0.173503937007874
 20
-0.0276574803149606
 30
0.0
 10
-0.1708661417322835
 20
-0.0276574803149606
 30
0.0
 10
-0.1708661417322835
 20
-0.0276574803149606
 30
0.0
 10
-0.1671692913385827
 20
-0.0276574803149606
 30
0.0
 10
-0.164003937007874
 20
-0.0291299212598425
 30
0.0
 10
-0.1613661417322835
 20
-0.0321023622047244
 30
0.0
 10
-0.1613661417322835
 20
-0.0321023622047244
 30
0.0
 10
-0.158755905511811
 20
-0.0350472440944882
 30
0.0
 10
-0.1574212598425197
 20
-0.0388543307086614
 30
0.0
 10
-0.1574212598425197
 20
-0.0435196850393701
 30
0.0
 10
-0.1574212598425197
 20
-0.0435196850393701
 30
0.0
 10
-0.1574212598425197
 20
-0.0465748031496063
 30
0.0
 10
-0.1580590551181103
 20
-0.0497716535433071
 30
0.0
 10
-0.1593110236220472
 20
-0.0531023622047244
 30
0.0
 10
-0.1593110236220472
 20
-0.0531023622047244
 30
0.0
 10
-0.1605590551181103
 20
-0.0564370078740158
 30
0.0
 10
-0.1623661417322835
 20
-0.0595196850393701
 30
0.0
 10
-0.164751968503937
 20
-0.0623818897637795
 30
0.0
 10
-0.164751968503937
 20
-0.0623818897637795
 30
0.0
 10
-0.1671417322834646
 20
-0.0652125984251968
 30
0.0
 10
-0.1718661417322835
 20
-0.0696299212598425
 30
0.0
 10
-0.1789212598425197
 20
-0.0756023622047244
 30
0.0
  0
SPLINE
  5
84
330
1F
100
AcDbEntity
  8
LAYER_1
 62
   250
100
AcDbSpline
210
0.0
220
0.0
230
1.0
 70
    11
 71
     3
 72
   204
 73
   200
 74
     0
 42
0.0000000001
 43
0.0000000001
 40
0.0
 40
0.0
 40
0.0
 40
0.0
 40
0.02
 40
0.02
 40
0.02
 40
0.02
 40
0.04
 40
0.04
 40
0.04
 40
0.04
 40
0.06
 40
0.06
 40
0.06
 40
0.06
 40
0.08
 40
0.08
 40
0.08
 40
0.08
 40
0.1
 40
0.1
 40
0.1
 40
0.1
 40
0.12
 40
0.12
 40
0.12
 40
0.12
 40
0.14
 40
0.14
 40
0.14
 40
0.14
 40
0.16
 40
0.16
 40
0.16
 40
0.16
 40
0.18
 40
0.18
 40
0.18
 40
0.18
 40
0.2
 40
0.2
 40
0.2
 40
0.2
 40
0.22
 40
0.22
 40
0.22
 40
0.22
 40
0.24
 40
0.24
 40
0.24
 40
0.24
 40
0.26
 40
0.26
 40
0.26
 40
0.26
 40
0.28
 40
0.28
 40
0.28
 40
0.28
 40
0.3
 40
0.3
 40
0.3
 40
0.3
 40
0.32
 40
0.32
 40
0.32
 40
0.32
 40
0.34
 40
0.34
 40
0.34
 40
0.34
 40
0.36
 40
0.36
 40
0.36
 40
0.36
 40
0.3800000000000001
 40
0.3800000000000001
 40
0.3800000000000001
 40
0.3800000000000001
 40
0.4000000000000001
 40
0.4000000000000001
 40
0.4000000000000001
 40
0.4000000000000001
 40
0.4200000000000001
 40
0.4200000000000001
 40
0.4200000000000001
 40
0.4200000000000001
 40
0.4400000000000001
 40
0.4400000000000001
 40
0.4400000000000001
 40
0.4400000000000001
 40
0.4600000000000001
 40
0.4600000000000001
 40
0.4600000000000001
 40
0.4600000000000001
 40
0.4800000000000002
 40
0.4800000000000002
 40
0.4800000000000002
 40
0.4800000000000002
 40
0.5000000000000001
 40
0.5000000000000001
 40
0.5000000000000001
 40
0.5000000000000001
 40
0.5200000000000001
 40
0.5200000000000001
 40
0.5200000000000001
 40
0.5200000000000001
 40
0.5400000000000002
 40
0.5400000000000002
 40
0.5400000000000002
 40
0.5400000000000002
 40
0.5600000000000002
 40
0.5600000000000002
 40
0.5600000000000002
 40
0.5600000000000002
 40
0.5800000000000002
 40
0.5800000000000002
 40
0.5800000000000002
 40
0.5800000000000002
 40
0.6000000000000002
 40
0.6000000000000002
 40
0.6000000000000002
 40
0.6000000000000002
 40
0.6200000000000002
 40
0.6200000000000002
 40
0.6200000000000002
 40
0.6200000000000002
 40
0.6400000000000002
 40
0.6400000000000002
 40
0.6400000000000002
 40
0.6400000000000002
 40
0.6600000000000003
 40
0.6600000000000003
 40
0.6600000000000003
 40
0.6600000000000003
 40
0.6800000000000003
 40
0.6800000000000003
 40
0.6800000000000003
 40
0.6800000000000003
 40
0.7000000000000003
 40
0.7000000000000003
 40
0.7000000000000003
 40
0.7000000000000003
 40
0.7200000000000003
 40
0.7200000000000003
 40
0.7200000000000003
 40
0.7200000000000003
 40
0.7400000000000003
 40
0.7400000000000003
 40
0.7400000000000003
 40
0.7400000000000003
 40
0.7600000000000003
 40
0.7600000000000003
 40
0.7600000000000003
 40
0.7600000000000003
 40
0.7800000000000004
 40
0.7800000000000004
 40
0.7800000000000004
 40
0.7800000000000004
 40
0.8000000000000004
 40
0.8000000000000004
 40
0.8000000000000004
 40
0.8000000000000004
 40
0.8200000000000004
 40
0.8200000000000004
 40
0.8200000000000004
 40
0.8200000000000004
 40
0.8400000000000004
 40
0.8400000000000004
 40
0.8400000000000004
 40
0.8400000000000004
 40
0.8600000000000004
 40
0.8600000000000004
 40
0.8600000000000004
 40
0.8600000000000004
 40
0.8800000000000005
 40
0.8800000000000005
 40
0.8800000000000005
 40
0.8800000000000005
 40
0.9000000000000005
 40
0.9000000000000005
 40
0.9000000000000005
 40
0.9000000000000005
 40
0.9200000000000005
 40
0.9200000000000005
 40
0.9200000000000005
 40
0.9200000000000005
 40
0.9400000000000005
 40
0.9400000000000005
 40
0.9400000000000005
 40
0.9400000000000005
 40
0.9600000000000005
 40
0.9600000000000005
 40
0.9600000000000005
 40
0.9600000000000005
 40
0.9800000000000005
 40
0.9800000000000005
 40
0.9800000000000005
 40
0.9800000000000005
 40
1.0
 40
1.0
 40
1.0
 40
1.0
 10
-0.0951141732283465
 20
-0.0685196850393701
 30
0.0
 10
-0.0951141732283465
 20
-0.0685196850393701
 30
0.0
 10
-0.0541692913385827
 20
-0.0685196850393701
 30
0.0
 10
-0.0541692913385827
 20
-0.0685196850393701
 30
0.0
 10
-0.0541692913385827
 20
-0.0685196850393701
 30
0.0
 10
-0.0541692913385827
 20
-0.0685196850393701
 30
0.0
 10
-0.0541692913385827
 20
-0.0753543307086614
 30
0.0
 10
-0.0541692913385827
 20
-0.0753543307086614
 30
0.0
 10
-0.0541692913385827
 20
-0.0753543307086614
 30
0.0
 10
-0.0541692913385827
 20
-0.0753543307086614
 30
0.0
 10
-0.057003937007874
 20
-0.0753543307086614
 30
0.0
 10
-0.057003937007874
 20
-0.0753543307086614
 30
0.0
 10
-0.057003937007874
 20
-0.0753543307086614
 30
0.0
 10
-0.0586417322834646
 20
-0.0753543307086614
 30
0.0
 10
-0.0601417322834646
 20
-0.0755472440944882
 30
0.0
 10
-0.061503937007874
 20
-0.0759094488188976
 30
0.0
 10
-0.061503937007874
 20
-0.0759094488188976
 30
0.0
 10
-0.0623070866141732
 20
-0.0761299212598425
 30
0.0
 10
-0.0629763779527559
 20
-0.0765472440944882
 30
0.0
 10
-0.0634763779527559
 20
-0.0771850393700787
 30
0.0
 10
-0.0634763779527559
 20
-0.0771850393700787
 30
0.0
 10
-0.064003937007874
 20
-0.0777992125984252
 30
0.0
 10
-0.064251968503937
 20
-0.0783818897637795
 30
0.0
 10
-0.064251968503937
 20
-0.0789370078740158
 30
0.0
 10
-0.064251968503937
 20
-0.0789370078740158
 30
0.0
 10
-0.064251968503937
 20
-0.0801850393700787
 30
0.0
 10
-0.0632244094488189
 20
-0.0820472440944882
 30
0.0
 10
-0.0611692913385827
 20
-0.0845472440944882
 30
0.0
 10
-0.0611692913385827
 20
-0.0845472440944882
 30
0.0
 10
-0.0611692913385827
 20
-0.0845472440944882
 30
0.0
 10
-0.0495314960629921
 20
-0.0991850393700787
 30
0.0
 10
-0.0495314960629921
 20
-0.0991850393700787
 30
0.0
 10
-0.0495314960629921
 20
-0.0991850393700787
 30
0.0
 10
-0.0495314960629921
 20
-0.0991850393700787
 30
0.0
 10
-0.0359488188976378
 20
-0.0845472440944882
 30
0.0
 10
-0.0359488188976378
 20
-0.0845472440944882
 30
0.0
 10
-0.0359488188976378
 20
-0.0845472440944882
 30
0.0
 10
-0.0334488188976378
 20
-0.0818267716535433
 30
0.0
 10
-0.0321968503937008
 20
-0.0797992125984252
 30
0.0
 10
-0.0321968503937008
 20
-0.0784370078740158
 30
0.0
 10
-0.0321968503937008
 20
-0.0784370078740158
 30
0.0
 10
-0.0321968503937008
 20
-0.0774645669291339
 30
0.0
 10
-0.0326417322834646
 20
-0.0767125984251969
 30
0.0
 10
-0.033503937007874
 20
-0.0761574803149606
 30
0.0
 10
-0.033503937007874
 20
-0.0761574803149606
 30
0.0
 10
-0.0343661417322835
 20
-0.0756299212598425
 30
0.0
 10
-0.0362244094488189
 20
-0.0753543307086614
 30
0.0
 10
-0.0391141732283465
 20
-0.0753543307086614
 30
0.0
 10
-0.0391141732283465
 20
-0.0753543307086614
 30
0.0
 10
-0.0391141732283465
 20
-0.0753543307086614
 30
0.0
 10
-0.0421968503937008
 20
-0.0753543307086614
 30
0.0
 10
-0.0421968503937008
 20
-0.0753543307086614
 30
0.0
 10
-0.0421968503937008
 20
-0.0753543307086614
 30
0.0
 10
-0.0421968503937008
 20
-0.0753543307086614
 30
0.0
 10
-0.0421968503937008
 20
-0.0685196850393701
 30
0.0
 10
-0.0421968503937008
 20
-0.0685196850393701
 30
0.0
 10
-0.0421968503937008
 20
-0.0685196850393701
 30
0.0
 10
-0.0421968503937008
 20
-0.0685196850393701
 30
0.0
 10
-0.0074488188976378
 20
-0.0685196850393701
 30
0.0
 10
-0.0074488188976378
 20
-0.0685196850393701
 30
0.0
 10
-0.0074488188976378
 20
-0.0685196850393701
 30
0.0
 10
-0.0074488188976378
 20
-0.0685196850393701
 30
0.0
 10
-0.0074488188976378
 20
-0.0753543307086614
 30
0.0
 10
-0.0074488188976378
 20
-0.0753543307086614
 30
0.0
 10
-0.0074488188976378
 20
-0.0753543307086614
 30
0.0
 10
-0.0108661417322835
 20
-0.0755196850393701
 30
0.0
 10
-0.0138110236220472
 20
-0.0762125984251969
 30
0.0
 10
-0.0162795275590551
 20
-0.0774645669291339
 30
0.0
 10
-0.0162795275590551
 20
-0.0774645669291339
 30
0.0
 10
-0.018751968503937
 20
-0.0787125984251969
 30
0.0
 10
-0.0216692913385827
 20
-0.0810748031496063
 30
0.0
 10
-0.0250314960629921
 20
-0.0845472440944882
 30
0.0
 10
-0.0250314960629921
 20
-0.0845472440944882
 30
0.0
 10
-0.0250314960629921
 20
-0.0845472440944882
 30
0.0
 10
-0.0436692913385827
 20
-0.1039094488188977
 30
0.0
 10
-0.0436692913385827
 20
-0.1039094488188977
 30
0.0
 10
-0.0436692913385827
 20
-0.1039094488188977
 30
0.0
 10
-0.0436692913385827
 20
-0.1039094488188977
 30
0.0
 10
-0.0204763779527559
 20
-0.1303543307086614
 30
0.0
 10
-0.0204763779527559
 20
-0.1303543307086614
 30
0.0
 10
-0.0204763779527559
 20
-0.1303543307086614
 30
0.0
 10
-0.0204763779527559
 20
-0.1303543307086614
 30
0.0
 10
-0.0195866141732283
 20
-0.131492125984252
 30
0.0
 10
-0.0195866141732283
 20
-0.131492125984252
 30
0.0
 10
-0.0195866141732283
 20
-0.131492125984252
 30
0.0
 10
-0.0173110236220472
 20
-0.1344370078740158
 30
0.0
 10
-0.014751968503937
 20
-0.1367992125984252
 30
0.0
 10
-0.0119212598425197
 20
-0.1385748031496063
 30
0.0
 10
-0.0119212598425197
 20
-0.1385748031496063
 30
0.0
 10
-0.0103661417322835
 20
-0.1396023622047244
 30
0.0
 10
-0.0079212598425197
 20
-0.1401574803149606
 30
0.0
 10
-0.0046141732283465
 20
-0.1402125984251968
 30
0.0
 10
-0.0046141732283465
 20
-0.1402125984251968
 30
0.0
 10
-0.0046141732283465
 20
-0.1402125984251968
 30
0.0
 10
-0.0046141732283465
 20
-0.1470472440944882
 30
0.0
 10
-0.0046141732283465
 20
-0.1470472440944882
 30
0.0
 10
-0.0046141732283465
 20
-0.1470472440944882
 30
0.0
 10
-0.0046141732283465
 20
-0.1470472440944882
 30
0.0
 10
-0.0445590551181102
 20
-0.1470472440944882
 30
0.0
 10
-0.0445590551181102
 20
-0.1470472440944882
 30
0.0
 10
-0.0445590551181102
 20
-0.1470472440944882
 30
0.0
 10
-0.0445590551181102
 20
-0.1470472440944882
 30
0.0
 10
-0.0445590551181102
 20
-0.1402125984251968
 30
0.0
 10
-0.0445590551181102
 20
-0.1402125984251968
 30
0.0
 10
-0.0445590551181102
 20
-0.1402125984251968
 30
0.0
 10
-0.0445590551181102
 20
-0.1402125984251968
 30
0.0
 10
-0.0411417322834646
 20
-0.1402125984251968
 30
0.0
 10
-0.0411417322834646
 20
-0.1402125984251968
 30
0.0
 10
-0.0411417322834646
 20
-0.1402125984251968
 30
0.0
 10
-0.0385314960629921
 20
-0.1402125984251968
 30
0.0
 10
-0.0368937007874016
 20
-0.1400472440944882
 30
0.0
 10
-0.0361692913385827
 20
-0.1397125984251968
 30
0.0
 10
-0.0361692913385827
 20
-0.1397125984251968
 30
0.0
 10
-0.035003937007874
 20
-0.1391850393700788
 30
0.0
 10
-0.0343937007874016
 20
-0.1382677165354331
 30
0.0
 10
-0.0343937007874016
 20
-0.1369645669291339
 30
0.0
 10
-0.0343937007874016
 20
-0.1369645669291339
 30
0.0
 10
-0.0343937007874016
 20
-0.1357677165354331
 30
0.0
 10
-0.0356968503937008
 20
-0.1335748031496063
 30
0.0
 10
-0.0383110236220472
 20
-0.1303543307086614
 30
0.0
 10
-0.0383110236220472
 20
-0.1303543307086614
 30
0.0
 10
-0.0383110236220472
 20
-0.1303543307086614
 30
0.0
 10
-0.0531141732283465
 20
-0.1122125984251969
 30
0.0
 10
-0.0531141732283465
 20
-0.1122125984251969
 30
0.0
 10
-0.0531141732283465
 20
-0.1122125984251969
 30
0.0
 10
-0.0531141732283465
 20
-0.1122125984251969
 30
0.0
 10
-0.0696417322834646
 20
-0.1303543307086614
 30
0.0
 10
-0.0696417322834646
 20
-0.1303543307086614
 30
0.0
 10
-0.0696417322834646
 20
-0.1303543307086614
 30
0.0
 10
-0.0696417322834646
 20
-0.1303543307086614
 30
0.0
 10
-0.071251968503937
 20
-0.1323267716535433
 30
0.0
 10
-0.071251968503937
 20
-0.1323267716535433
 30
0.0
 10
-0.071251968503937
 20
-0.1323267716535433
 30
0.0
 10
-0.071251968503937
 20
-0.1323267716535433
 30
0.0
 10
-0.0721417322834646
 20
-0.1332992125984252
 30
0.0
 10
-0.0721417322834646
 20
-0.1332992125984252
 30
0.0
 10
-0.0721417322834646
 20
-0.1332992125984252
 30
0.0
 10
-0.073503937007874
 20
-0.1347677165354331
 30
0.0
 10
-0.0741968503937008
 20
-0.1360472440944882
 30
0.0
 10
-0.0741968503937008
 20
-0.1371850393700788
 30
0.0
 10
-0.0741968503937008
 20
-0.1371850393700788
 30
0.0
 10
-0.0741968503937008
 20
-0.138240157480315
 30
0.0
 10
-0.0737795275590551
 20
-0.138992125984252
 30
0.0
 10
-0.0729212598425197
 20
-0.139492125984252
 30
0.0
 10
-0.0729212598425197
 20
-0.139492125984252
 30
0.0
 10
-0.0720866141732284
 20
-0.1399645669291339
 30
0.0
 10
-0.0701968503937008
 20
-0.1402125984251968
 30
0.0
 10
-0.0672795275590551
 20
-0.1402125984251968
 30
0.0
 10
-0.0672795275590551
 20
-0.1402125984251968
 30
0.0
 10
-0.0672795275590551
 20
-0.1402125984251968
 30
0.0
 10
-0.064003937007874
 20
-0.1402125984251968
 30
0.0
 10
-0.064003937007874
 20
-0.1402125984251968
 30
0.0
 10
-0.064003937007874
 20
-0.1402125984251968
 30
0.0
 10
-0.064003937007874
 20
-0.1402125984251968
 30
0.0
 10
-0.064003937007874
 20
-0.1470472440944882
 30
0.0
 10
-0.064003937007874
 20
-0.1470472440944882
 30
0.0
 10
-0.064003937007874
 20
-0.1470472440944882
 30
0.0
 10
-0.064003937007874
 20
-0.1470472440944882
 30
0.0
 10
-0.0982795275590551
 20
-0.1470472440944882
 30
0.0
 10
-0.0982795275590551
 20
-0.1470472440944882
 30
0.0
 10
-0.0982795275590551
 20
-0.1470472440944882
 30
0.0
 10
-0.0982795275590551
 20
-0.1470472440944882
 30
0.0
 10
-0.0982795275590551
 20
-0.1402125984251968
 30
0.0
 10
-0.0982795275590551
 20
-0.1402125984251968
 30
0.0
 10
-0.0982795275590551
 20
-0.1402125984251968
 30
0.0
 10
-0.0956141732283465
 20
-0.1401574803149606
 30
0.0
 10
-0.0935314960629921
 20
-0.1398818897637795
 30
0.0
 10
-0.092003937007874
 20
-0.1393543307086614
 30
0.0
 10
-0.092003937007874
 20
-0.1393543307086614
 30
0.0
 10
-0.090503937007874
 20
-0.1388543307086614
 30
0.0
 10
-0.0890314960629921
 20
-0.1380472440944882
 30
0.0
 10
-0.0876141732283465
 20
-0.1369645669291339
 30
0.0
 10
-0.0876141732283465
 20
-0.1369645669291339
 30
0.0
 10
-0.0851692913385827
 20
-0.134992125984252
 30
0.0
 10
-0.0834212598425197
 20
-0.1334645669291339
 30
0.0
 10
-0.0823346456692913
 20
-0.1323267716535433
 30
0.0
 10
-0.0823346456692913
 20
-0.1323267716535433
 30
0.0
 10
-0.0823346456692913
 20
-0.1323267716535433
 30
0.0
 10
-0.0584763779527559
 20
-0.1078267716535433
 30
0.0
 10
-0.0584763779527559
 20
-0.1078267716535433
 30
0.0
 10
-0.0584763779527559
 20
-0.1078267716535433
 30
0.0
 10
-0.0584763779527559
 20
-0.1078267716535433
 30
0.0
 10
-0.078751968503937
 20
-0.0845472440944882
 30
0.0
 10
-0.078751968503937
 20
-0.0845472440944882
 30
0.0
 10
-0.078751968503937
 20
-0.0845472440944882
 30
0.0
 10
-0.0813070866141732
 20
-0.0816574803149606
 30
0.0
 10
-0.0833070866141732
 20
-0.0796574803149606
 30
0.0
 10
-0.0848070866141732
 20
-0.078492125984252
 30
0.0
 10
-0.0848070866141732
 20
-0.078492125984252
 30
0.0
 10
-0.0863070866141732
 20
-0.0773267716535433
 30
0.0
 10
-0.087751968503937
 20
-0.076492125984252
 30
0.0
 10
-0.0891692913385827
 20
-0.0760472440944882
 30
0.0
 10
-0.0891692913385827
 20
-0.0760472440944882
 30
0.0
 10
-0.0905866141732283
 20
-0.0755748031496063
 30
0.0
 10
-0.0925590551181102
 20
-0.0753543307086614
 30
0.0
 10
-0.0951141732283465
 20
-0.0753543307086614
 30
0.0
 10
-0.0951141732283465
 20
-0.0753543307086614
 30
0.0
 10
-0.0951141732283465
 20
-0.0753543307086614
 30
0.0
 10
-0.0951141732283465
 20
-0.0685196850393701
 30
0.0
 10
-0.0951141732283465
 20
-0.0685196850393701
 30
0.0
  0
SPLINE
  5
85
330
1F
100
AcDbEntity
  8
LAYER_1
 62
   250
100
AcDbSpline
210
0.0
220
0.0
230
1.0
 70
    11
 71
     3
 72
    72
 73
    68
 74
     0
 42
0.0000000001
 43
0.0000000001
 40
0.0
 40
0.0
 40
0.0
 40
0.0
 40
0.0588235294117647
 40
0.0588235294117647
 40
0.0588235294117647
 40
0.0588235294117647
 40
0.1176470588235294
 40
0.1176470588235294
 40
0.1176470588235294
 40
0.1176470588235294
 40
0.1764705882352941
 40
0.1764705882352941
 40
0.1764705882352941
 40
0.1764705882352941
 40
0.2352941176470588
 40
0.2352941176470588
 40
0.2352941176470588
 40
0.2352941176470588
 40
0.2941176470588235
 40
0.2941176470588235
 40
0.2941176470588235
 40
0.2941176470588235
 40
0.3529411764705883
 40
0.3529411764705883
 40
0.3529411764705883
 40
0.3529411764705883
 40
0.411764705882353
 40
0.411764705882353
 40
0.411764705882353
 40
0.411764705882353
 40
0.4705882352941177
 40
0.4705882352941177
 40
0.4705882352941177
 40
0.4705882352941177
 40
0.5294117647058824
 40
0.5294117647058824
 40
0.5294117647058824
 40
0.5294117647058824
 40
0.5882352941176471
 40
0.5882352941176471
 40
0.5882352941176471
 40
0.5882352941176471
 40
0.6470588235294118
 40
0.6470588235294118
 40
0.6470588235294118
 40
0.6470588235294118
 40
0.7058823529411765
 40
0.7058823529411765
 40
0.7058823529411765
 40
0.7058823529411765
 40
0.7647058823529412
 40
0.7647058823529412
 40
0.7647058823529412
 40
0.7647058823529412
 40
0.823529411764706
 40
0.823529411764706
 40
0.823529411764706
 40
0.823529411764706
 40
0.8823529411764707
 40
0.8823529411764707
 40
0.8823529411764707
 40
0.8823529411764707
 40
0.9411764705882354
 40
0.9411764705882354
 40
0.9411764705882354
 40
0.9411764705882354
 40
1.0
 40
1.0
 40
1.0
 40
1.0
 10
0.1045236220472441
 20
-0.0335196850393701
 30
0.0
 10
0.1045236220472441
 20
-0.0335196850393701
 30
0.0
 10
0.1106062992125984
 20
-0.0335196850393701
 30
0.0
 10
0.1106062992125984
 20
-0.0335196850393701
 30
0.0
 10
0.1106062992125984
 20
-0.0335196850393701
 30
0.0
 10
0.1106062992125984
 20
-0.0335196850393701
 30
0.0
 10
0.1106062992125984
 20
-0.1277677165354331
 30
0.0
 10
0.1106062992125984
 20
-0.1277677165354331
 30
0.0
 10
0.1106062992125984
 20
-0.1277677165354331
 30
0.0
 10
0.1106062992125984
 20
-0.1322125984251969
 30
0.0
 10
0.1109133858267717
 20
-0.1350748031496063
 30
0.0
 10
0.1114685039370079
 20
-0.1363543307086614
 30
0.0
 10
0.1114685039370079
 20
-0.1363543307086614
 30
0.0
 10
0.1120511811023622
 20
-0.1376299212598425
 30
0.0
 10
0.1129685039370079
 20
-0.1385748031496063
 30
0.0
 10
0.1142716535433071
 20
-0.139240157480315
 30
0.0
 10
0.1142716535433071
 20
-0.139240157480315
 30
0.0
 10
0.1155787401574803
 20
-0.1398818897637795
 30
0.0
 10
0.1181614173228347
 20
-0.1402125984251968
 30
0.0
 10
0.1220236220472441
 20
-0.1402125984251968
 30
0.0
 10
0.1220236220472441
 20
-0.1402125984251968
 30
0.0
 10
0.1220236220472441
 20
-0.1402125984251968
 30
0.0
 10
0.129996062992126
 20
-0.1402125984251968
 30
0.0
 10
0.129996062992126
 20
-0.1402125984251968
 30
0.0
 10
0.129996062992126
 20
-0.1402125984251968
 30
0.0
 10
0.129996062992126
 20
-0.1402125984251968
 30
0.0
 10
0.129996062992126
 20
-0.1470472440944882
 30
0.0
 10
0.129996062992126
 20
-0.1470472440944882
 30
0.0
 10
0.129996062992126
 20
-0.1470472440944882
 30
0.0
 10
0.129996062992126
 20
-0.1470472440944882
 30
0.0
 10
0.0763582677165354
 20
-0.1470472440944882
 30
0.0
 10
0.0763582677165354
 20
-0.1470472440944882
 30
0.0
 10
0.0763582677165354
 20
-0.1470472440944882
 30
0.0
 10
0.0763582677165354
 20
-0.1470472440944882
 30
0.0
 10
0.0763582677165354
 20
-0.1402125984251968
 30
0.0
 10
0.0763582677165354
 20
-0.1402125984251968
 30
0.0
 10
0.0763582677165354
 20
-0.1402125984251968
 30
0.0
 10
0.0763582677165354
 20
-0.1402125984251968
 30
0.0
 10
0.0852165354330709
 20
-0.1402125984251968
 30
0.0
 10
0.0852165354330709
 20
-0.1402125984251968
 30
0.0
 10
0.0852165354330709
 20
-0.1402125984251968
 30
0.0
 10
0.0890787401574803
 20
-0.1402125984251968
 30
0.0
 10
0.0916338582677165
 20
-0.1398818897637795
 30
0.0
 10
0.0929133858267717
 20
-0.1391850393700788
 30
0.0
 10
0.0929133858267717
 20
-0.1391850393700788
 30
0.0
 10
0.0941889763779528
 20
-0.1385196850393701
 30
0.0
 10
0.0951889763779528
 20
-0.1374370078740158
 30
0.0
 10
0.0958858267716535
 20
-0.1359370078740158
 30
0.0
 10
0.0958858267716535
 20
-0.1359370078740158
 30
0.0
 10
0.0965787401574803
 20
-0.1344370078740158
 30
0.0
 10
0.0969409448818898
 20
-0.1317125984251969
 30
0.0
 10
0.0969409448818898
 20
-0.1277677165354331
 30
0.0
 10
0.0969409448818898
 20
-0.1277677165354331
 30
0.0
 10
0.0969409448818898
 20
-0.1277677165354331
 30
0.0
 10
0.0969409448818898
 20
-0.0502992125984252
 30
0.0
 10
0.0969409448818898
 20
-0.0502992125984252
 30
0.0
 10
0.0969409448818898
 20
-0.0502992125984252
 30
0.0
 10
0.0969409448818898
 20
-0.0502992125984252
 30
0.0
 10
0.0763582677165354
 20
-0.0502992125984252
 30
0.0
 10
0.0763582677165354
 20
-0.0502992125984252
 30
0.0
 10
0.0763582677165354
 20
-0.0502992125984252
 30
0.0
 10
0.0763582677165354
 20
-0.0502992125984252
 30
0.0
 10
0.0763582677165354
 20
-0.0432992125984252
 30
0.0
 10
0.0763582677165354
 20
-0.0432992125984252
 30
0.0
 10
0.0763582677165354
 20
-0.0432992125984252
 30
0.0
 10
0.0875787401574803
 20
-0.0417165354330709
 30
0.0
 10
0.0969685039370079
 20
-0.0384645669291339
 30
0.0
 10
0.1045236220472441
 20
-0.0335196850393701
 30
0.0
  0
SPLINE
  5
86
330
1F
100
AcDbEntity
  8
LAYER_1
 62
   250
100
AcDbSpline
210
0.0
220
0.0
230
1.0
 70
    11
 71
     3
 72
    20
 73
    16
 74
     0
 42
0.0000000001
 43
0.0000000001
 40
0.0
 40
0.0
 40
0.0
 40
0.0
 40
0.25
 40
0.25
 40
0.25
 40
0.25
 40
0.5
 40
0.5
 40
0.5
 40
0.5
 40
0.75
 40
0.75
 40
0.75
 40
0.75
 40
1.0
 40
1.0
 40
1.0
 40
1.0
 10
0.160996062992126
 20
-0.1005748031496063
 30
0.0
 10
0.160996062992126
 20
-0.1005748031496063
 30
0.0
 10
0.2093307086614173
 20
-0.1005748031496063
 30
0.0
 10
0.2093307086614173
 20
-0.1005748031496063
 30
0.0
 10
0.2093307086614173
 20
-0.1005748031496063
 30
0.0
 10
0.2093307086614173
 20
-0.1005748031496063
 30
0.0
 10
0.2093307086614173
 20
-0.1106574803149606
 30
0.0
 10
0.2093307086614173
 20
-0.1106574803149606
 30
0.0
 10
0.2093307086614173
 20
-0.1106574803149606
 30
0.0
 10
0.2093307086614173
 20
-0.1106574803149606
 30
0.0
 10
0.160996062992126
 20
-0.1106574803149606
 30
0.0
 10
0.160996062992126
 20
-0.1106574803149606
 30
0.0
 10
0.160996062992126
 20
-0.1106574803149606
 30
0.0
 10
0.160996062992126
 20
-0.1106574803149606
 30
0.0
 10
0.160996062992126
 20
-0.1005748031496063
 30
0.0
 10
0.160996062992126
 20
-0.1005748031496063
 30
0.0
  0
SPLINE
  5
87
330
1F
100
AcDbEntity
  8
LAYER_1
 62
   250
100
AcDbSpline
210
0.0
220
0.0
230
1.0
 70
    11
 71
     3
 72
   132
 73
   128
 74
     0
 42
0.0000000001
 43
0.0000000001
 40
0.0
 40
0.0
 40
0.0
 40
0.0
 40
0.03125
 40
0.03125
 40
0.03125
 40
0.03125
 40
0.0625
 40
0.0625
 40
0.0625
 40
0.0625
 40
0.09375
 40
0.09375
 40
0.09375
 40
0.09375
 40
0.125
 40
0.125
 40
0.125
 40
0.125
 40
0.15625
 40
0.15625
 40
0.15625
 40
0.15625
 40
0.1875
 40
0.1875
 40
0.1875
 40
0.1875
 40
0.21875
 40
0.21875
 40
0.21875
 40
0.21875
 40
0.25
 40
0.25
 40
0.25
 40
0.25
 40
0.28125
 40
0.28125
 40
0.28125
 40
0.28125
 40
0.3125
 40
0.3125
 40
0.3125
 40
0.3125
 40
0.34375
 40
0.34375
 40
0.34375
 40
0.34375
 40
0.375
 40
0.375
 40
0.375
 40
0.375
 40
0.40625
 40
0.40625
 40
0.40625
 40
0.40625
 40
0.4375
 40
0.4375
 40
0.4375
 40
0.4375
 40
0.46875
 40
0.46875
 40
0.46875
 40
0.46875
 40
0.5
 40
0.5
 40
0.5
 40
0.5
 40
0.53125
 40
0.53125
 40
0.53125
 40
0.53125
 40
0.5625
 40
0.5625
 40
0.5625
 40
0.5625
 40
0.59375
 40
0.59375
 40
0.59375
 40
0.59375
 40
0.625
 40
0.625
 40
0.625
 40
0.625
 40
0.65625
 40
0.65625
 40
0.65625
 40
0.65625
 40
0.6875
 40
0.6875
 40
0.6875
 40
0.6875
 40
0.71875
 40
0.71875
 40
0.71875
 40
0.71875
 40
0.75
 40
0.75
 40
0.75
 40
0.75
 40
0.78125
 40
0.78125
 40
0.78125
 40
0.78125
 40
0.8125
 40
0.8125
 40
0.8125
 40
0.8125
 40
0.84375
 40
0.84375
 40
0.84375
 40
0.84375
 40
0.875
 40
0.875
 40
0.875
 40
0.875
 40
0.90625
 40
0.90625
 40
0.90625
 40
0.90625
 40
0.9375
 40
0.9375
 40
0.9375
 40
0.9375
 40
0.96875
 40
0.96875
 40
0.96875
 40
0.96875
 40
1.0
 40
1.0
 40
1.0
 40
1.0
 10
0.2409133858267717
 20
-0.0335196850393701
 30
0.0
 10
0.2409133858267717
 20
-0.0335196850393701
 30
0.0
 10
0.2915236220472441
 20
-0.0335196850393701
 30
0.0
 10
0.2915236220472441
 20
-0.0335196850393701
 30
0.0
 10
0.2915236220472441
 20
-0.0335196850393701
 30
0.0
 10
0.2946062992125985
 20
-0.0335196850393701
 30
0.0
 10
0.296496062992126
 20
-0.0333543307086614
 30
0.0
 10
0.2971338582677165
 20
-0.0330196850393701
 30
0.0
 10
0.2971338582677165
 20
-0.0330196850393701
 30
0.0
 10
0.2980511811023622
 20
-0.032492125984252
 30
0.0
 10
0.2986062992125985
 20
-0.0313267716535433
 30
0.0
 10
0.2987716535433071
 20
-0.0295472440944882
 30
0.0
 10
0.2987716535433071
 20
-0.0295472440944882
 30
0.0
 10
0.2987716535433071
 20
-0.0295472440944882
 30
0.0
 10
0.3047165354330709
 20
-0.0295472440944882
 30
0.0
 10
0.3047165354330709
 20
-0.0295472440944882
 30
0.0
 10
0.3047165354330709
 20
-0.0295472440944882
 30
0.0
 10
0.3047165354330709
 20
-0.0295472440944882
 30
0.0
 10
0.3047165354330709
 20
-0.0467165354330709
 30
0.0
 10
0.3047165354330709
 20
-0.0467165354330709
 30
0.0
 10
0.3047165354330709
 20
-0.0467165354330709
 30
0.0
 10
0.3047165354330709
 20
-0.0467165354330709
 30
0.0
 10
0.2484685039370079
 20
-0.0467165354330709
 30
0.0
 10
0.2484685039370079
 20
-0.0467165354330709
 30
0.0
 10
0.2484685039370079
 20
-0.0467165354330709
 30
0.0
 10
0.2484685039370079
 20
-0.0467165354330709
 30
0.0
 10
0.2470787401574803
 20
-0.0753543307086614
 30
0.0
 10
0.2470787401574803
 20
-0.0753543307086614
 30
0.0
 10
0.2470787401574803
 20
-0.0753543307086614
 30
0.0
 10
0.2494133858267717
 20
-0.0746850393700787
 30
0.0
 10
0.2523858267716536
 20
-0.0741574803149606
 30
0.0
 10
0.2559685039370079
 20
-0.0737125984251969
 30
0.0
 10
0.2559685039370079
 20
-0.0737125984251969
 30
0.0
 10
0.2605787401574803
 20
-0.0731850393700787
 30
0.0
 10
0.2646889763779527
 20
-0.0729094488188976
 30
0.0
 10
0.2683307086614173
 20
-0.0729094488188976
 30
0.0
 10
0.2683307086614173
 20
-0.0729094488188976
 30
0.0
 10
0.2773858267716536
 20
-0.0729094488188976
 30
0.0
 10
0.2852716535433071
 20
-0.0745472440944882
 30
0.0
 10
0.2920236220472441
 20
-0.0777992125984252
 30
0.0
 10
0.2920236220472441
 20
-0.0777992125984252
 30
0.0
 10
0.298744094488189
 20
-0.0810472440944882
 30
0.0
 10
0.3038543307086614
 20
-0.0855196850393701
 30
0.0
 10
0.3073543307086614
 20
-0.0911850393700787
 30
0.0
 10
0.3073543307086614
 20
-0.0911850393700787
 30
0.0
 10
0.3108543307086614
 20
-0.0968543307086614
 30
0.0
 10
0.3126062992125984
 20
-0.1031850393700787
 30
0.0
 10
0.3126062992125984
 20
-0.1101850393700787
 30
0.0
 10
0.3126062992125984
 20
-0.1101850393700787
 30
0.0
 10
0.3126062992125984
 20
-0.1210196850393701
 30
0.0
 10
0.3085236220472441
 20
-0.1302125984251969
 30
0.0
 10
0.3003858267716535
 20
-0.137740157480315
 30
0.0
 10
0.3003858267716535
 20
-0.137740157480315
 30
0.0
 10
0.292244094488189
 20
-0.145240157480315
 30
0.0
 10
0.2818858267716536
 20
-0.148992125984252
 30
0.0
 10
0.2692992125984252
 20
-0.148992125984252
 30
0.0
 10
0.2692992125984252
 20
-0.148992125984252
 30
0.0
 10
0.2620236220472441
 20
-0.148992125984252
 30
0.0
 10
0.2554685039370079
 20
-0.1476850393700787
 30
0.0
 10
0.2495787401574803
 20
-0.1451023622047244
 30
0.0
 10
0.2495787401574803
 20
-0.1451023622047244
 30
0.0
 10
0.2436889763779528
 20
-0.142492125984252
 30
0.0
 10
0.2390787401574803
 20
-0.1390472440944882
 30
0.0
 10
0.2357716535433071
 20
-0.1347992125984252
 30
0.0
 10
0.2357716535433071
 20
-0.1347992125984252
 30
0.0
 10
0.2324685039370079
 20
-0.1305472440944882
 30
0.0
 10
0.2308031496062992
 20
-0.1267992125984252
 30
0.0
 10
0.2308031496062992
 20
-0.1236023622047244
 30
0.0
 10
0.2308031496062992
 20
-0.1236023622047244
 30
0.0
 10
0.2308031496062992
 20
-0.121492125984252
 30
0.0
 10
0.2315236220472441
 20
-0.1196574803149606
 30
0.0
 10
0.2329409448818898
 20
-0.1181023622047244
 30
0.0
 10
0.2329409448818898
 20
-0.1181023622047244
 30
0.0
 10
0.2343307086614173
 20
-0.1165748031496063
 30
0.0
 10
0.2361614173228347
 20
-0.1157992125984252
 30
0.0
 10
0.2383858267716535
 20
-0.1157992125984252
 30
0.0
 10
0.2383858267716535
 20
-0.1157992125984252
 30
0.0
 10
0.2406614173228347
 20
-0.1157992125984252
 30
0.0
 10
0.2426614173228347
 20
-0.116740157480315
 30
0.0
 10
0.2444133858267717
 20
-0.1186574803149606
 30
0.0
 10
0.2444133858267717
 20
-0.1186574803149606
 30
0.0
 10
0.2453858267716536
 20
-0.1196299212598425
 30
0.0
 10
0.2465511811023622
 20
-0.1220196850393701
 30
0.0
 10
0.2479133858267717
 20
-0.1257992125984252
 30
0.0
 10
0.2479133858267717
 20
-0.1257992125984252
 30
0.0
 10
0.249744094488189
 20
-0.1311299212598425
 30
0.0
 10
0.252496062992126
 20
-0.1350196850393701
 30
0.0
 10
0.2561338582677166
 20
-0.1375196850393701
 30
0.0
 10
0.2561338582677166
 20
-0.1375196850393701
 30
0.0
 10
0.2596889763779527
 20
-0.1400748031496063
 30
0.0
 10
0.2642165354330709
 20
-0.1413543307086614
 30
0.0
 10
0.2696338582677165
 20
-0.1413543307086614
 30
0.0
 10
0.2696338582677165
 20
-0.1413543307086614
 30
0.0
 10
0.2750511811023622
 20
-0.1413543307086614
 30
0.0
 10
0.2798858267716536
 20
-0.1401574803149606
 30
0.0
 10
0.2841062992125985
 20
-0.1377992125984252
 30
0.0
 10
0.2841062992125985
 20
-0.1377992125984252
 30
0.0
 10
0.2883582677165354
 20
-0.1354645669291339
 30
0.0
 10
0.2916889763779528
 20
-0.1320472440944882
 30
0.0
 10
0.2941338582677165
 20
-0.1276299212598425
 30
0.0
 10
0.2941338582677165
 20
-0.1276299212598425
 30
0.0
 10
0.2965787401574803
 20
-0.1232125984251969
 30
0.0
 10
0.2977992125984252
 20
-0.1182992125984252
 30
0.0
 10
0.2977992125984252
 20
-0.1128818897637795
 30
0.0
 10
0.2977992125984252
 20
-0.1128818897637795
 30
0.0
 10
0.2977992125984252
 20
-0.1071574803149606
 30
0.0
 10
0.2964685039370079
 20
-0.1021023622047244
 30
0.0
 10
0.2938267716535433
 20
-0.0976574803149606
 30
0.0
 10
0.2938267716535433
 20
-0.0976574803149606
 30
0.0
 10
0.2912165354330709
 20
-0.0932125984251969
 30
0.0
 10
0.2874409448818898
 20
-0.089744094488189
 30
0.0
 10
0.2825236220472441
 20
-0.0873267716535433
 30
0.0
 10
0.2825236220472441
 20
-0.0873267716535433
 30
0.0
 10
0.2776062992125984
 20
-0.0848818897637795
 30
0.0
 10
0.2716338582677165
 20
-0.0836574803149606
 30
0.0
 10
0.2645787401574803
 20
-0.0836574803149606
 30
0.0
 10
0.2645787401574803
 20
-0.0836574803149606
 30
0.0
 10
0.2602992125984252
 20
-0.0836574803149606
 30
0.0
 10
0.2556889763779528
 20
-0.0841023622047244
 30
0.0
 10
0.2507992125984252
 20
-0.0850472440944882
 30
0.0
 10
0.2507992125984252
 20
-0.0850472440944882
 30
0.0
 10
0.2458858267716536
 20
-0.0859645669291339
 30
0.0
 10
0.2416614173228347
 20
-0.0871299212598425
 30
0.0
 10
0.2381338582677166
 20
-0.0885472440944882
 30
0.0
 10
0.2381338582677166
 20
-0.0885472440944882
 30
0.0
 10
0.2381338582677166
 20
-0.0885472440944882
 30
0.0
 10
0.2409133858267717
 20
-0.0335196850393701
 30
0.0
 10
0.2409133858267717
 20
-0.0335196850393701
 30
0.0
  0
SPLINE
  5
88
330
1F
100
AcDbEntity
  8
LAYER_1
 62
   250
100
AcDbSpline
210
0.0
220
0.0
230
1.0
 70
    11
 71
     3
 72
    20
 73
    16
 74
     0
 42
0.0000000001
 43
0.0000000001
 40
0.0
 40
0.0
 40
0.0
 40
0.0
 40
0.25
 40
0.25
 40
0.25
 40
0.25
 40
0.5
 40
0.5
 40
0.5
 40
0.5
 40
0.75
 40
0.75
 40
0.75
 40
0.75
 40
1.0
 40
1.0
 40
1.0
 40
1.0
 10
0.4033582677165354
 20
-0.0276574803149606
 30
0.0
 10
0.4033582677165354
 20
-0.0276574803149606
 30
0.0
 10
0.3477755905511811
 20
-0.1833543307086614
 30
0.0
 10
0.3477755905511811
 20
-0.1833543307086614
 30
0.0
 10
0.3477755905511811
 20
-0.1833543307086614
 30
0.0
 10
0.3477755905511811
 20
-0.1833543307086614
 30
0.0
 10
0.3357204724409449
 20
-0.1833543307086614
 30
0.0
 10
0.3357204724409449
 20
-0.1833543307086614
 30
0.0
 10
0.3357204724409449
 20
-0.1833543307086614
 30
0.0
 10
0.3357204724409449
 20
-0.1833543307086614
 30
0.0
 10
0.3909685039370079
 20
-0.0276574803149606
 30
0.0
 10
0.3909685039370079
 20
-0.0276574803149606
 30
0.0
 10
0.3909685039370079
 20
-0.0276574803149606
 30
0.0
 10
0.3909685039370079
 20
-0.0276574803149606
 30
0.0
 10
0.4033582677165354
 20
-0.0276574803149606
 30
0.0
 10
0.4033582677165354
 20
-0.0276574803149606
 30
0.0
  0
SPLINE
  5
89
330
1F
100
AcDbEntity
  8
LAYER_1
 62
   250
100
AcDbSpline
210
0.0
220
0.0
230
1.0
 70
    11
 71
     3
 72
    76
 73
    72
 74
     0
 42
0.0000000001
 43
0.0000000001
 40
0.0
 40
0.0
 40
0.0
 40
0.0
 40
0.0555555555555556
 40
0.0555555555555556
 40
0.0555555555555556
 40
0.0555555555555556
 40
0.1111111111111111
 40
0.1111111111111111
 40
0.1111111111111111
 40
0.1111111111111111
 40
0.1666666666666667
 40
0.1666666666666667
 40
0.1666666666666667
 40
0.1666666666666667
 40
0.2222222222222222
 40
0.2222222222222222
 40
0.2222222222222222
 40
0.2222222222222222
 40
0.2777777777777778
 40
0.2777777777777778
 40
0.2777777777777778
 40
0.2777777777777778
 40
0.3333333333333334
 40
0.3333333333333334
 40
0.3333333333333334
 40
0.3333333333333334
 40
0.388888888888889
 40
0.388888888888889
 40
0.388888888888889
 40
0.388888888888889
 40
0.4444444444444445
 40
0.4444444444444445
 40
0.4444444444444445
 40
0.4444444444444445
 40
0.5000000000000001
 40
0.5000000000000001
 40
0.5000000000000001
 40
0.5000000000000001
 40
0.5555555555555557
 40
0.5555555555555557
 40
0.5555555555555557
 40
0.5555555555555557
 40
0.6111111111111113
 40
0.6111111111111113
 40
0.6111111111111113
 40
0.6111111111111113
 40
0.6666666666666669
 40
0.6666666666666669
 40
0.6666666666666669
 40
0.6666666666666669
 40
0.7222222222222224
 40
0.7222222222222224
 40
0.7222222222222224
 40
0.7222222222222224
 40
0.777777777777778
 40
0.777777777777778
 40
0.777777777777778
 40
0.777777777777778
 40
0.8333333333333336
 40
0.8333333333333336
 40
0.8333333333333336
 40
0.8333333333333336
 40
0.8888888888888892
 40
0.8888888888888892
 40
0.8888888888888892
 40
0.8888888888888892
 40
0.9444444444444448
 40
0.9444444444444448
 40
0.9444444444444448
 40
0.9444444444444448
 40
1.0
 40
1.0
 40
1.0
 40
1.0
 10
0.4863582677165355
 20
-0.0840472440944882
 30
0.0
 10
0.4927755905511811
 20
-0.086492125984252
 30
0.0
 10
0.4976614173228346
 20
-0.0887992125984252
 30
0.0
 10
0.5010236220472442
 20
-0.0909645669291339
 30
0.0
 10
0.5010236220472442
 20
-0.0909645669291339
 30
0.0
 10
0.5059409448818898
 20
-0.0941299212598425
 30
0.0
 10
0.5096614173228347
 20
-0.0978267716535433
 30
0.0
 10
0.5121614173228347
 20
-0.1020748031496063
 30
0.0
 10
0.5121614173228347
 20
-0.1020748031496063
 30
0.0
 10
0.5146614173228347
 20
-0.1063543307086614
 30
0.0
 10
0.5159133858267717
 20
-0.1109645669291339
 30
0.0
 10
0.5159133858267717
 20
-0.1159645669291339
 30
0.0
 10
0.5159133858267717
 20
-0.1159645669291339
 30
0.0
 10
0.5159133858267717
 20
-0.1249094488188976
 30
0.0
 10
0.5120511811023623
 20
-0.1326574803149606
 30
0.0
 10
0.5043582677165355
 20
-0.1391850393700788
 30
0.0
 10
0.5043582677165355
 20
-0.1391850393700788
 30
0.0
 10
0.4966338582677166
 20
-0.145740157480315
 30
0.0
 10
0.486248031496063
 20
-0.148992125984252
 30
0.0
 10
0.4731889763779528
 20
-0.148992125984252
 30
0.0
 10
0.4731889763779528
 20
-0.148992125984252
 30
0.0
 10
0.4593582677165354
 20
-0.148992125984252
 30
0.0
 10
0.448496062992126
 20
-0.1452992125984252
 30
0.0
 10
0.4406338582677166
 20
-0.1379370078740158
 30
0.0
 10
0.4406338582677166
 20
-0.1379370078740158
 30
0.0
 10
0.4343858267716536
 20
-0.1320196850393701
 30
0.0
 10
0.4312755905511811
 20
-0.1253267716535433
 30
0.0
 10
0.4312755905511811
 20
-0.1178267716535433
 30
0.0
 10
0.4312755905511811
 20
-0.1178267716535433
 30
0.0
 10
0.4312755905511811
 20
-0.1117992125984252
 30
0.0
 10
0.4333858267716536
 20
-0.1064094488188977
 30
0.0
 10
0.4376062992125984
 20
-0.1016299212598425
 30
0.0
 10
0.4376062992125984
 20
-0.1016299212598425
 30
0.0
 10
0.4427204724409449
 20
-0.0959370078740158
 30
0.0
 10
0.449996062992126
 20
-0.091492125984252
 30
0.0
 10
0.4594409448818898
 20
-0.0882992125984252
 30
0.0
 10
0.4594409448818898
 20
-0.0882992125984252
 30
0.0
 10
0.4520511811023622
 20
-0.0848267716535433
 30
0.0
 10
0.446748031496063
 20
-0.0812992125984252
 30
0.0
 10
0.4434685039370079
 20
-0.0777125984251969
 30
0.0
 10
0.4434685039370079
 20
-0.0777125984251969
 30
0.0
 10
0.4393031496062992
 20
-0.072992125984252
 30
0.0
 10
0.4372204724409449
 20
-0.0673267716535433
 30
0.0
 10
0.4372204724409449
 20
-0.0607165354330709
 30
0.0
 10
0.4372204724409449
 20
-0.0607165354330709
 30
0.0
 10
0.4372204724409449
 20
-0.0525196850393701
 30
0.0
 10
0.4403031496062992
 20
-0.0458818897637795
 30
0.0
 10
0.446496062992126
 20
-0.0408543307086614
 30
0.0
 10
0.446496062992126
 20
-0.0408543307086614
 30
0.0
 10
0.4540787401574803
 20
-0.0346574803149606
 30
0.0
 10
0.4635787401574804
 20
-0.0315748031496063
 30
0.0
 10
0.4749685039370079
 20
-0.0315748031496063
 30
0.0
 10
0.4749685039370079
 20
-0.0315748031496063
 30
0.0
 10
0.4853858267716535
 20
-0.0315748031496063
 30
0.0
 10
0.4938031496062992
 20
-0.034244094488189
 30
0.0
 10
0.500248031496063
 20
-0.0395748031496063
 30
0.0
 10
0.500248031496063
 20
-0.0395748031496063
 30
0.0
 10
0.5066614173228347
 20
-0.0449370078740158
 30
0.0
 10
0.5098858267716536
 20
-0.0510472440944882
 30
0.0
 10
0.5098858267716536
 20
-0.0579370078740157
 30
0.0
 10
0.5098858267716536
 20
-0.0579370078740157
 30
0.0
 10
0.5098858267716536
 20
-0.0613543307086614
 30
0.0
 10
0.5090787401574803
 20
-0.0646299212598425
 30
0.0
 10
0.507496062992126
 20
-0.067744094488189
 30
0.0
 10
0.507496062992126
 20
-0.067744094488189
 30
0.0
 10
0.5058858267716536
 20
-0.0708543307086614
 30
0.0
 10
0.5034409448818897
 20
-0.0737716535433071
 30
0.0
 10
0.5001062992125984
 20
-0.0764370078740158
 30
0.0
 10
0.5001062992125984
 20
-0.0764370078740158
 30
0.0
 10
0.4968031496062992
 20
-0.0791299212598425
 30
0.0
 10
0.4922165354330709
 20
-0.0816574803149606
 30
0.0
 10
0.4863582677165355
 20
-0.0840472440944882
 30
0.0
  0
SPLINE
  5
8A
330
1F
100
AcDbEntity
  8
LAYER_1
 62
   250
100
AcDbSpline
210
0.0
220
0.0
230
1.0
 70
    11
 71
     3
 72
    48
 73
    44
 74
     0
 42
0.0000000001
 43
0.0000000001
 40
0.0
 40
0.0
 40
0.0
 40
0.0
 40
0.0909090909090909
 40
0.0909090909090909
 40
0.0909090909090909
 40
0.0909090909090909
 40
0.1818181818181818
 40
0.1818181818181818
 40
0.1818181818181818
 40
0.1818181818181818
 40
0.2727272727272727
 40
0.2727272727272727
 40
0.2727272727272727
 40
0.2727272727272727
 40
0.3636363636363637
 40
0.3636363636363637
 40
0.3636363636363637
 40
0.3636363636363637
 40
0.4545454545454546
 40
0.4545454545454546
 40
0.4545454545454546
 40
0.4545454545454546
 40
0.5454545454545455
 40
0.5454545454545455
 40
0.5454545454545455
 40
0.5454545454545455
 40
0.6363636363636365
 40
0.6363636363636365
 40
0.6363636363636365
 40
0.6363636363636365
 40
0.7272727272727274
 40
0.7272727272727274
 40
0.7272727272727274
 40
0.7272727272727274
 40
0.8181818181818183
 40
0.8181818181818183
 40
0.8181818181818183
 40
0.8181818181818183
 40
0.9090909090909093
 40
0.9090909090909093
 40
0.9090909090909093
 40
0.9090909090909093
 40
1.0
 40
1.0
 40
1.0
 40
1.0
 10
0.4789685039370079
 20
-0.0810472440944882
 30
0.0
 10
0.4851338582677165
 20
-0.0763818897637795
 30
0.0
 10
0.4891614173228347
 20
-0.0731299212598425
 30
0.0
 10
0.490996062992126
 20
-0.0712716535433071
 30
0.0
 10
0.490996062992126
 20
-0.0712716535433071
 30
0.0
 10
0.4928582677165355
 20
-0.0694370078740158
 30
0.0
 10
0.4942755905511811
 20
-0.0673267716535433
 30
0.0
 10
0.4952755905511811
 20
-0.0649645669291339
 30
0.0
 10
0.4952755905511811
 20
-0.0649645669291339
 30
0.0
 10
0.4962755905511811
 20
-0.0626023622047244
 30
0.0
 10
0.4967755905511812
 20
-0.0603267716535433
 30
0.0
 10
0.4967755905511812
 20
-0.0581023622047244
 30
0.0
 10
0.4967755905511812
 20
-0.0581023622047244
 30
0.0
 10
0.4967755905511812
 20
-0.0549094488188976
 30
0.0
 10
0.4958307086614173
 20
-0.0518543307086614
 30
0.0
 10
0.4939409448818898
 20
-0.0489370078740158
 30
0.0
 10
0.4939409448818898
 20
-0.0489370078740158
 30
0.0
 10
0.4920236220472441
 20
-0.0460472440944882
 30
0.0
 10
0.489248031496063
 20
-0.0436850393700787
 30
0.0
 10
0.4855787401574803
 20
-0.0419094488188976
 30
0.0
 10
0.4855787401574803
 20
-0.0419094488188976
 30
0.0
 10
0.4819409448818898
 20
-0.0401023622047244
 30
0.0
 10
0.4778307086614174
 20
-0.0392165354330709
 30
0.0
 10
0.4732755905511811
 20
-0.0392165354330709
 30
0.0
 10
0.4732755905511811
 20
-0.0392165354330709
 30
0.0
 10
0.4665236220472441
 20
-0.0392165354330709
 30
0.0
 10
0.4609409448818898
 20
-0.0410748031496063
 30
0.0
 10
0.456496062992126
 20
-0.0447992125984252
 30
0.0
 10
0.456496062992126
 20
-0.0447992125984252
 30
0.0
 10
0.4520511811023622
 20
-0.0485196850393701
 30
0.0
 10
0.4498307086614173
 20
-0.0527992125984252
 30
0.0
 10
0.4498307086614173
 20
-0.0576850393700787
 30
0.0
 10
0.4498307086614173
 20
-0.0576850393700787
 30
0.0
 10
0.4498307086614173
 20
-0.0616023622047244
 30
0.0
 10
0.4512204724409449
 20
-0.0651023622047244
 30
0.0
 10
0.4539685039370079
 20
-0.0681850393700787
 30
0.0
 10
0.4539685039370079
 20
-0.0681850393700787
 30
0.0
 10
0.456748031496063
 20
-0.0712716535433071
 30
0.0
 10
0.4618858267716536
 20
-0.0743267716535433
 30
0.0
 10
0.4694409448818898
 20
-0.0772992125984252
 30
0.0
 10
0.4694409448818898
 20
-0.0772992125984252
 30
0.0
 10
0.4694409448818898
 20
-0.0772992125984252
 30
0.0
 10
0.4789685039370079
 20
-0.0810472440944882
 30
0.0
 10
0.4789685039370079
 20
-0.0810472440944882
 30
0.0
  0
SPLINE
  5
8B
330
1F
100
AcDbEntity
  8
LAYER_1
 62
   250
100
AcDbSpline
210
0.0
220
0.0
230
1.0
 70
    11
 71
     3
 72
    40
 73
    36
 74
     0
 42
0.0000000001
 43
0.0000000001
 40
0.0
 40
0.0
 40
0.0
 40
0.0
 40
0.1111111111111111
 40
0.1111111111111111
 40
0.1111111111111111
 40
0.1111111111111111
 40
0.2222222222222222
 40
0.2222222222222222
 40
0.2222222222222222
 40
0.2222222222222222
 40
0.3333333333333333
 40
0.3333333333333333
 40
0.3333333333333333
 40
0.3333333333333333
 40
0.4444444444444444
 40
0.4444444444444444
 40
0.4444444444444444
 40
0.4444444444444444
 40
0.5555555555555556
 40
0.5555555555555556
 40
0.5555555555555556
 40
0.5555555555555556
 40
0.6666666666666667
 40
0.6666666666666667
 40
0.6666666666666667
 40
0.6666666666666667
 40
0.7777777777777779
 40
0.7777777777777779
 40
0.7777777777777779
 40
0.7777777777777779
 40
0.8888888888888891
 40
0.8888888888888891
 40
0.8888888888888891
 40
0.8888888888888891
 40
1.0
 40
1.0
 40
1.0
 40
1.0
 10
0.467496062992126
 20
-0.0914645669291339
 30
0.0
 10
0.4598307086614173
 20
-0.0948267716535433
 30
0.0
 10
0.4537755905511811
 20
-0.0991850393700787
 30
0.0
 10
0.4493307086614173
 20
-0.1045748031496063
 30
0.0
 10
0.4493307086614173
 20
-0.1045748031496063
 30
0.0
 10
0.4458582677165355
 20
-0.1087992125984252
 30
0.0
 10
0.4441338582677166
 20
-0.1131850393700788
 30
0.0
 10
0.4441338582677166
 20
-0.117740157480315
 30
0.0
 10
0.4441338582677166
 20
-0.117740157480315
 30
0.0
 10
0.4441338582677166
 20
-0.1239370078740158
 30
0.0
 10
0.4468582677165355
 20
-0.1294370078740157
 30
0.0
 10
0.4523582677165354
 20
-0.134240157480315
 30
0.0
 10
0.4523582677165354
 20
-0.134240157480315
 30
0.0
 10
0.4578307086614173
 20
-0.1390196850393701
 30
0.0
 10
0.4649133858267717
 20
-0.1414370078740158
 30
0.0
 10
0.4735787401574804
 20
-0.1414370078740158
 30
0.0
 10
0.4735787401574804
 20
-0.1414370078740158
 30
0.0
 10
0.4824409448818898
 20
-0.1414370078740158
 30
0.0
 10
0.4898031496062992
 20
-0.1386850393700788
 30
0.0
 10
0.4957165354330709
 20
-0.1332125984251969
 30
0.0
 10
0.4957165354330709
 20
-0.1332125984251969
 30
0.0
 10
0.5005511811023622
 20
-0.1287677165354331
 30
0.0
 10
0.5029685039370079
 20
-0.123992125984252
 30
0.0
 10
0.5029685039370079
 20
-0.1188818897637795
 30
0.0
 10
0.5029685039370079
 20
-0.1188818897637795
 30
0.0
 10
0.5029685039370079
 20
-0.1148818897637795
 30
0.0
 10
0.5013858267716536
 20
-0.1110472440944882
 30
0.0
 10
0.4982165354330709
 20
-0.1073818897637795
 30
0.0
 10
0.4982165354330709
 20
-0.1073818897637795
 30
0.0
 10
0.4950236220472441
 20
-0.1037125984251969
 30
0.0
 10
0.4891338582677166
 20
-0.1001574803149606
 30
0.0
 10
0.480496062992126
 20
-0.0966850393700787
 30
0.0
 10
0.480496062992126
 20
-0.0966850393700787
 30
0.0
 10
0.480496062992126
 20
-0.0966850393700787
 30
0.0
 10
0.467496062992126
 20
-0.0914645669291339
 30
0.0
 10
0.467496062992126
 20
-0.0914645669291339
 30
0.0
  0
SPLINE
  5
8C
330
1F
100
AcDbEntity
  8
LAYER_1
 62
   250
100
AcDbSpline
210
0.0
220
0.0
230
1.0
 70
    11
 71
     3
 72
    60
 73
    56
 74
     0
 42
0.0000000001
 43
0.0000000001
 40
0.0
 40
0.0
 40
0.0
 40
0.0
 40
0.0714285714285714
 40
0.0714285714285714
 40
0.0714285714285714
 40
0.0714285714285714
 40
0.1428571428571429
 40
0.1428571428571429
 40
0.1428571428571429
 40
0.1428571428571429
 40
0.2142857142857143
 40
0.2142857142857143
 40
0.2142857142857143
 40
0.2142857142857143
 40
0.2857142857142857
 40
0.2857142857142857
 40
0.2857142857142857
 40
0.2857142857142857
 40
0.3571428571428571
 40
0.3571428571428571
 40
0.3571428571428571
 40
0.3571428571428571
 40
0.4285714285714285
 40
0.4285714285714285
 40
0.4285714285714285
 40
0.4285714285714285
 40
0.4999999999999999
 40
0.4999999999999999
 40
0.4999999999999999
 40
0.4999999999999999
 40
0.5714285714285713
 40
0.5714285714285713
 40
0.5714285714285713
 40
0.5714285714285713
 40
0.6428571428571427
 40
0.6428571428571427
 40
0.6428571428571427
 40
0.6428571428571427
 40
0.7142857142857141
 40
0.7142857142857141
 40
0.7142857142857141
 40
0.7142857142857141
 40
0.7857142857142855
 40
0.7857142857142855
 40
0.7857142857142855
 40
0.7857142857142855
 40
0.8571428571428569
 40
0.8571428571428569
 40
0.8571428571428569
 40
0.8571428571428569
 40
0.9285714285714283
 40
0.9285714285714283
 40
0.9285714285714283
 40
0.9285714285714283
 40
1.0
 40
1.0
 40
1.0
 40
1.0
 10
0.5353582677165355
 20
-0.0756023622047244
 30
0.0
 10
0.5353582677165355
 20
-0.0756023622047244
 30
0.0
 10
0.5309685039370079
 20
-0.0702125984251969
 30
0.0
 10
0.5309685039370079
 20
-0.0702125984251969
 30
0.0
 10
0.5309685039370079
 20
-0.0702125984251969
 30
0.0
 10
0.5420826771653543
 20
-0.0611574803149606
 30
0.0
 10
0.5476653543307087
 20
-0.0536023622047244
 30
0.0
 10
0.5476653543307087
 20
-0.0475196850393701
 30
0.0
 10
0.5476653543307087
 20
-0.0475196850393701
 30
0.0
 10
0.5476653543307087
 20
-0.0468267716535433
 30
0.0
 10
0.5476102362204725
 20
-0.0459370078740158
 30
0.0
 10
0.5474960629921261
 20
-0.0449094488188976
 30
0.0
 10
0.5474960629921261
 20
-0.0449094488188976
 30
0.0
 10
0.5465826771653544
 20
-0.0452992125984252
 30
0.0
 10
0.5456653543307087
 20
-0.0456023622047244
 30
0.0
 10
0.5448031496062993
 20
-0.0457992125984252
 30
0.0
 10
0.5448031496062993
 20
-0.0457992125984252
 30
0.0
 10
0.5439409448818898
 20
-0.0460196850393701
 30
0.0
 10
0.5431377952755906
 20
-0.0461299212598425
 30
0.0
 10
0.5423582677165355
 20
-0.0461299212598425
 30
0.0
 10
0.5423582677165355
 20
-0.0461299212598425
 30
0.0
 10
0.539748031496063
 20
-0.0461299212598425
 30
0.0
 10
0.5376653543307087
 20
-0.0452992125984252
 30
0.0
 10
0.5361102362204725
 20
-0.0436023622047244
 30
0.0
 10
0.5361102362204725
 20
-0.0436023622047244
 30
0.0
 10
0.5345236220472441
 20
-0.0419370078740157
 30
0.0
 10
0.533748031496063
 20
-0.0397992125984252
 30
0.0
 10
0.533748031496063
 20
-0.0371850393700787
 30
0.0
 10
0.533748031496063
 20
-0.0371850393700787
 30
0.0
 10
0.533748031496063
 20
-0.0346299212598425
 30
0.0
 10
0.5346929133858268
 20
-0.0324094488188976
 30
0.0
 10
0.5365826771653544
 20
-0.0305196850393701
 30
0.0
 10
0.5365826771653544
 20
-0.0305196850393701
 30
0.0
 10
0.5384960629921261
 20
-0.0286023622047244
 30
0.0
 10
0.5407755905511811
 20
-0.0276574803149606
 30
0.0
 10
0.5434133858267717
 20
-0.0276574803149606
 30
0.0
 10
0.5434133858267717
 20
-0.0276574803149606
 30
0.0
 10
0.5471102362204725
 20
-0.0276574803149606
 30
0.0
 10
0.5502755905511811
 20
-0.0291299212598425
 30
0.0
 10
0.5529133858267716
 20
-0.0321023622047244
 30
0.0
 10
0.5529133858267716
 20
-0.0321023622047244
 30
0.0
 10
0.5555236220472442
 20
-0.0350472440944882
 30
0.0
 10
0.5568582677165355
 20
-0.0388543307086614
 30
0.0
 10
0.5568582677165355
 20
-0.0435196850393701
 30
0.0
 10
0.5568582677165355
 20
-0.0435196850393701
 30
0.0
 10
0.5568582677165355
 20
-0.0465748031496063
 30
0.0
 10
0.5562204724409449
 20
-0.0497716535433071
 30
0.0
 10
0.5549685039370079
 20
-0.0531023622047244
 30
0.0
 10
0.5549685039370079
 20
-0.0531023622047244
 30
0.0
 10
0.5537204724409449
 20
-0.0564370078740158
 30
0.0
 10
0.5519133858267716
 20
-0.0595196850393701
 30
0.0
 10
0.5495236220472441
 20
-0.0623818897637795
 30
0.0
 10
0.5495236220472441
 20
-0.0623818897637795
 30
0.0
 10
0.5471377952755906
 20
-0.0652125984251968
 30
0.0
 10
0.5424133858267717
 20
-0.0696299212598425
 30
0.0
 10
0.5353582677165355
 20
-0.0756023622047244
 30
0.0
  0
SPLINE
  5
8D
330
1F
100
AcDbEntity
  8
LAYER_1
 62
   250
100
AcDbSpline
210
0.0
220
0.0
230
1.0
 70
    11
 71
     3
 72
    60
 73
    56
 74
     0
 42
0.0000000001
 43
0.0000000001
 40
0.0
 40
0.0
 40
0.0
 40
0.0
 40
0.0714285714285714
 40
0.0714285714285714
 40
0.0714285714285714
 40
0.0714285714285714
 40
0.1428571428571429
 40
0.1428571428571429
 40
0.1428571428571429
 40
0.1428571428571429
 40
0.2142857142857143
 40
0.2142857142857143
 40
0.2142857142857143
 40
0.2142857142857143
 40
0.2857142857142857
 40
0.2857142857142857
 40
0.2857142857142857
 40
0.2857142857142857
 40
0.3571428571428571
 40
0.3571428571428571
 40
0.3571428571428571
 40
0.3571428571428571
 40
0.4285714285714285
 40
0.4285714285714285
 40
0.4285714285714285
 40
0.4285714285714285
 40
0.4999999999999999
 40
0.4999999999999999
 40
0.4999999999999999
 40
0.4999999999999999
 40
0.5714285714285713
 40
0.5714285714285713
 40
0.5714285714285713
 40
0.5714285714285713
 40
0.6428571428571427
 40
0.6428571428571427
 40
0.6428571428571427
 40
0.6428571428571427
 40
0.7142857142857141
 40
0.7142857142857141
 40
0.7142857142857141
 40
0.7142857142857141
 40
0.7857142857142855
 40
0.7857142857142855
 40
0.7857142857142855
 40
0.7857142857142855
 40
0.8571428571428569
 40
0.8571428571428569
 40
0.8571428571428569
 40
0.8571428571428569
 40
0.9285714285714283
 40
0.9285714285714283
 40
0.9285714285714283
 40
0.9285714285714283
 40
1.0
 40
1.0
 40
1.0
 40
1.0
 10
0.5644133858267717
 20
-0.0756023622047244
 30
0.0
 10
0.5644133858267717
 20
-0.0756023622047244
 30
0.0
 10
0.5600236220472441
 20
-0.0702125984251969
 30
0.0
 10
0.5600236220472441
 20
-0.0702125984251969
 30
0.0
 10
0.5600236220472441
 20
-0.0702125984251969
 30
0.0
 10
0.5711377952755906
 20
-0.0611574803149606
 30
0.0
 10
0.5767204724409449
 20
-0.0536023622047244
 30
0.0
 10
0.5767204724409449
 20
-0.0475196850393701
 30
0.0
 10
0.5767204724409449
 20
-0.0475196850393701
 30
0.0
 10
0.5767204724409449
 20
-0.0468267716535433
 30
0.0
 10
0.5766653543307087
 20
-0.0459370078740158
 30
0.0
 10
0.5765511811023623
 20
-0.0449094488188976
 30
0.0
 10
0.5765511811023623
 20
-0.0449094488188976
 30
0.0
 10
0.5756377952755906
 20
-0.0452992125984252
 30
0.0
 10
0.5747204724409449
 20
-0.0456023622047244
 30
0.0
 10
0.5738582677165355
 20
-0.0457992125984252
 30
0.0
 10
0.5738582677165355
 20
-0.0457992125984252
 30
0.0
 10
0.572996062992126
 20
-0.0460196850393701
 30
0.0
 10
0.5721653543307087
 20
-0.0461299212598425
 30
0.0
 10
0.5713307086614173
 20
-0.0461299212598425
 30
0.0
 10
0.5713307086614173
 20
-0.0461299212598425
 30
0.0
 10
0.5687755905511811
 20
-0.0461299212598425
 30
0.0
 10
0.5667204724409449
 20
-0.0452992125984252
 30
0.0
 10
0.5651653543307087
 20
-0.0436023622047244
 30
0.0
 10
0.5651653543307087
 20
-0.0436023622047244
 30
0.0
 10
0.5635826771653544
 20
-0.0419370078740157
 30
0.0
 10
0.5628031496062992
 20
-0.0397992125984252
 30
0.0
 10
0.5628031496062992
 20
-0.0371850393700787
 30
0.0
 10
0.5628031496062992
 20
-0.0371850393700787
 30
0.0
 10
0.5628031496062992
 20
-0.0346299212598425
 30
0.0
 10
0.563748031496063
 20
-0.0324094488188976
 30
0.0
 10
0.5656377952755906
 20
-0.0305196850393701
 30
0.0
 10
0.5656377952755906
 20
-0.0305196850393701
 30
0.0
 10
0.5675236220472442
 20
-0.0286023622047244
 30
0.0
 10
0.5698307086614174
 20
-0.0276574803149606
 30
0.0
 10
0.5724685039370079
 20
-0.0276574803149606
 30
0.0
 10
0.5724685039370079
 20
-0.0276574803149606
 30
0.0
 10
0.5761653543307087
 20
-0.0276574803149606
 30
0.0
 10
0.5793307086614173
 20
-0.0291299212598425
 30
0.0
 10
0.5819685039370079
 20
-0.0321023622047244
 30
0.0
 10
0.5819685039370079
 20
-0.0321023622047244
 30
0.0
 10
0.5845787401574804
 20
-0.0350472440944882
 30
0.0
 10
0.5859133858267717
 20
-0.0388543307086614
 30
0.0
 10
0.5859133858267717
 20
-0.0435196850393701
 30
0.0
 10
0.5859133858267717
 20
-0.0435196850393701
 30
0.0
 10
0.5859133858267717
 20
-0.0465748031496063
 30
0.0
 10
0.5852755905511812
 20
-0.0497716535433071
 30
0.0
 10
0.5840236220472441
 20
-0.0531023622047244
 30
0.0
 10
0.5840236220472441
 20
-0.0531023622047244
 30
0.0
 10
0.5827755905511811
 20
-0.0564370078740158
 30
0.0
 10
0.5809685039370079
 20
-0.0595196850393701
 30
0.0
 10
0.5785826771653544
 20
-0.0623818897637795
 30
0.0
 10
0.5785826771653544
 20
-0.0623818897637795
 30
0.0
 10
0.5761929133858268
 20
-0.0652125984251968
 30
0.0
 10
0.5714685039370079
 20
-0.0696299212598425
 30
0.0
 10
0.5644133858267717
 20
-0.0756023622047244
 30
0.0
  0
SPLINE
  5
8E
330
1F
100
AcDbEntity
  8
LAYER_1
 62
   250
100
AcDbSpline
210
0.0
220
0.0
230
1.0
 70
    11
 71
     3
 72
   104
 73
   100
 74
     0
 42
0.0000000001
 43
0.0000000001
 40
0.0
 40
0.0
 40
0.0
 40
0.0
 40
0.04
 40
0.04
 40
0.04
 40
0.04
 40
0.08
 40
0.08
 40
0.08
 40
0.08
 40
0.12
 40
0.12
 40
0.12
 40
0.12
 40
0.16
 40
0.16
 40
0.16
 40
0.16
 40
0.2
 40
0.2
 40
0.2
 40
0.2
 40
0.24
 40
0.24
 40
0.24
 40
0.24
 40
0.28
 40
0.28
 40
0.28
 40
0.28
 40
0.32
 40
0.32
 40
0.32
 40
0.32
 40
0.36
 40
0.36
 40
0.36
 40
0.36
 40
0.4
 40
0.4
 40
0.4
 40
0.4
 40
0.44
 40
0.44
 40
0.44
 40
0.44
 40
0.4799999999999999
 40
0.4799999999999999
 40
0.4799999999999999
 40
0.4799999999999999
 40
0.5199999999999999
 40
0.5199999999999999
 40
0.5199999999999999
 40
0.5199999999999999
 40
0.5599999999999999
 40
0.5599999999999999
 40
0.5599999999999999
 40
0.5599999999999999
 40
0.6
 40
0.6
 40
0.6
 40
0.6
 40
0.64
 40
0.64
 40
0.64
 40
0.64
 40
0.6800000000000001
 40
0.6800000000000001
 40
0.6800000000000001
 40
0.6800000000000001
 40
0.7200000000000001
 40
0.7200000000000001
 40
0.7200000000000001
 40
0.7200000000000001
 40
0.7600000000000001
 40
0.7600000000000001
 40
0.7600000000000001
 40
0.7600000000000001
 40
0.8000000000000002
 40
0.8000000000000002
 40
0.8000000000000002
 40
0.8000000000000002
 40
0.8400000000000002
 40
0.8400000000000002
 40
0.8400000000000002
 40
0.8400000000000002
 40
0.8800000000000002
 40
0.8800000000000002
 40
0.8800000000000002
 40
0.8800000000000002
 40
0.9200000000000003
 40
0.9200000000000003
 40
0.9200000000000003
 40
0.9200000000000003
 40
0.9600000000000003
 40
0.9600000000000003
 40
0.9600000000000003
 40
0.9600000000000003
 40
1.0
 40
1.0
 40
1.0
 40
1.0
 10
-0.4144330708661417
 20
2.847358267716535
 30
0.0
 10
-0.4144330708661417
 20
2.847358267716535
 30
0.0
 10
-0.3604606299212599
 20
2.847358267716535
 30
0.0
 10
-0.3604606299212599
 20
2.847358267716535
 30
0.0
 10
-0.3604606299212599
 20
2.847358267716535
 30
0.0
 10
-0.3472913385826772
 20
2.847358267716535
 30
0.0
 10
-0.3382637795275591
 20
2.846748031496063
 30
0.0
 10
-0.3333779527559055
 20
2.845551181102362
 30
0.0
 10
-0.3333779527559055
 20
2.845551181102362
 30
0.0
 10
-0.3261535433070866
 20
2.843830708661418
 30
0.0
 10
-0.3204606299212598
 20
2.840692913385827
 30
0.0
 10
-0.3162362204724409
 20
2.836133858267717
 30
0.0
 10
-0.3162362204724409
 20
2.836133858267717
 30
0.0
 10
-0.3120433070866142
 20
2.831578740157481
 30
0.0
 10
-0.3099330708661418
 20
2.826078740157481
 30
0.0
 10
-0.3099330708661418
 20
2.819692913385827
 30
0.0
 10
-0.3099330708661418
 20
2.819692913385827
 30
0.0
 10
-0.3099330708661418
 20
2.81507874015748
 30
0.0
 10
-0.3110433070866142
 20
2.81094094488189
 30
0.0
 10
-0.3132637795275591
 20
2.807275590551181
 30
0.0
 10
-0.3132637795275591
 20
2.807275590551181
 30
0.0
 10
-0.315488188976378
 20
2.803606299212599
 30
0.0
 10
-0.3187362204724409
 20
2.800468503937008
 30
0.0
 10
-0.3229606299212599
 20
2.797885826771654
 30
0.0
 10
-0.3229606299212599
 20
2.797885826771654
 30
0.0
 10
-0.3256811023622047
 20
2.796192913385827
 30
0.0
 10
-0.3293503937007874
 20
2.794748031496063
 30
0.0
 10
-0.3340157480314961
 20
2.793551181102362
 30
0.0
 10
-0.3340157480314961
 20
2.793551181102362
 30
0.0
 10
-0.3280984251968504
 20
2.792468503937008
 30
0.0
 10
-0.3235984251968504
 20
2.791165354330709
 30
0.0
 10
-0.3205157480314961
 20
2.789665354330709
 30
0.0
 10
-0.3205157480314961
 20
2.789665354330709
 30
0.0
 10
-0.3158503937007874
 20
2.787385826771654
 30
0.0
 10
-0.3121535433070866
 20
2.784137795275591
 30
0.0
 10
-0.3094606299212598
 20
2.779885826771654
 30
0.0
 10
-0.3094606299212598
 20
2.779885826771654
 30
0.0
 10
-0.306736220472441
 20
2.775665354330709
 30
0.0
 10
-0.3053779527559055
 20
2.770885826771654
 30
0.0
 10
-0.3053779527559055
 20
2.76557874015748
 30
0.0
 10
-0.3053779527559055
 20
2.76557874015748
 30
0.0
 10
-0.3053779527559055
 20
2.760413385826772
 30
0.0
 10
-0.3067086614173228
 20
2.755637795275591
 30
0.0
 10
-0.3093779527559055
 20
2.751248031496063
 30
0.0
 10
-0.3093779527559055
 20
2.751248031496063
 30
0.0
 10
-0.3120157480314961
 20
2.746858267716536
 30
0.0
 10
-0.3157913385826772
 20
2.743248031496063
 30
0.0
 10
-0.3206259842519685
 20
2.740413385826772
 30
0.0
 10
-0.3206259842519685
 20
2.740413385826772
 30
0.0
 10
-0.325488188976378
 20
2.737610236220473
 30
0.0
 10
-0.3311535433070866
 20
2.735803149606299
 30
0.0
 10
-0.3375984251968504
 20
2.734996062992126
 30
0.0
 10
-0.3375984251968504
 20
2.734996062992126
 30
0.0
 10
-0.3440708661417323
 20
2.734220472440945
 30
0.0
 10
-0.3507086614173229
 20
2.733830708661417
 30
0.0
 10
-0.3575433070866142
 20
2.733830708661417
 30
0.0
 10
-0.3575433070866142
 20
2.733830708661417
 30
0.0
 10
-0.3575433070866142
 20
2.733830708661417
 30
0.0
 10
-0.4144330708661417
 20
2.733830708661417
 30
0.0
 10
-0.4144330708661417
 20
2.733830708661417
 30
0.0
 10
-0.4144330708661417
 20
2.733830708661417
 30
0.0
 10
-0.4144330708661417
 20
2.733830708661417
 30
0.0
 10
-0.4144330708661417
 20
2.740665354330709
 30
0.0
 10
-0.4144330708661417
 20
2.740665354330709
 30
0.0
 10
-0.4144330708661417
 20
2.740665354330709
 30
0.0
 10
-0.4144330708661417
 20
2.740665354330709
 30
0.0
 10
-0.4105984251968504
 20
2.740665354330709
 30
0.0
 10
-0.4105984251968504
 20
2.740665354330709
 30
0.0
 10
-0.4105984251968504
 20
2.740665354330709
 30
0.0
 10
-0.4069015748031497
 20
2.740665354330709
 30
0.0
 10
-0.4044015748031496
 20
2.741248031496063
 30
0.0
 10
-0.4030433070866142
 20
2.742385826771653
 30
0.0
 10
-0.4030433070866142
 20
2.742385826771653
 30
0.0
 10
-0.4010708661417323
 20
2.74394094488189
 30
0.0
 10
-0.4000984251968504
 20
2.746551181102362
 30
0.0
 10
-0.4000984251968504
 20
2.750192913385827
 30
0.0
 10
-0.4000984251968504
 20
2.750192913385827
 30
0.0
 10
-0.4000984251968504
 20
2.750192913385827
 30
0.0
 10
-0.4000984251968504
 20
2.829051181102362
 30
0.0
 10
-0.4000984251968504
 20
2.829051181102362
 30
0.0
 10
-0.4000984251968504
 20
2.829051181102362
 30
0.0
 10
-0.4000984251968504
 20
2.832748031496063
 30
0.0
 10
-0.4004015748031496
 20
2.835248031496063
 30
0.0
 10
-0.400988188976378
 20
2.836606299212598
 30
0.0
 10
-0.400988188976378
 20
2.836606299212598
 30
0.0
 10
-0.4015984251968504
 20
2.837968503937008
 30
0.0
 10
-0.402488188976378
 20
2.83894094488189
 30
0.0
 10
-0.4036811023622047
 20
2.839551181102362
 30
0.0
 10
-0.4036811023622047
 20
2.839551181102362
 30
0.0
 10
-0.4048740157480315
 20
2.840133858267717
 30
0.0
 10
-0.4071811023622047
 20
2.84044094488189
 30
0.0
 10
-0.4105984251968504
 20
2.84044094488189
 30
0.0
 10
-0.4105984251968504
 20
2.84044094488189
 30
0.0
 10
-0.4105984251968504
 20
2.84044094488189
 30
0.0
 10
-0.4144330708661417
 20
2.84044094488189
 30
0.0
 10
-0.4144330708661417
 20
2.84044094488189
 30
0.0
 10
-0.4144330708661417
 20
2.84044094488189
 30
0.0
 10
-0.4144330708661417
 20
2.84044094488189
 30
0.0
 10
-0.4144330708661417
 20
2.847358267716535
 30
0.0
 10
-0.4144330708661417
 20
2.847358267716535
 30
0.0
  0
SPLINE
  5
8F
330
1F
100
AcDbEntity
  8
LAYER_1
 62
   250
100
AcDbSpline
210
0.0
220
0.0
230
1.0
 70
    11
 71
     3
 72
    40
 73
    36
 74
     0
 42
0.0000000001
 43
0.0000000001
 40
0.0
 40
0.0
 40
0.0
 40
0.0
 40
0.1111111111111111
 40
0.1111111111111111
 40
0.1111111111111111
 40
0.1111111111111111
 40
0.2222222222222222
 40
0.2222222222222222
 40
0.2222222222222222
 40
0.2222222222222222
 40
0.3333333333333333
 40
0.3333333333333333
 40
0.3333333333333333
 40
0.3333333333333333
 40
0.4444444444444444
 40
0.4444444444444444
 40
0.4444444444444444
 40
0.4444444444444444
 40
0.5555555555555556
 40
0.5555555555555556
 40
0.5555555555555556
 40
0.5555555555555556
 40
0.6666666666666667
 40
0.6666666666666667
 40
0.6666666666666667
 40
0.6666666666666667
 40
0.7777777777777779
 40
0.7777777777777779
 40
0.7777777777777779
 40
0.7777777777777779
 40
0.8888888888888891
 40
0.8888888888888891
 40
0.8888888888888891
 40
0.8888888888888891
 40
1.0
 40
1.0
 40
1.0
 40
1.0
 10
-0.3848740157480315
 20
2.838330708661418
 30
0.0
 10
-0.3848740157480315
 20
2.838330708661418
 30
0.0
 10
-0.3848740157480315
 20
2.796748031496063
 30
0.0
 10
-0.3848740157480315
 20
2.796748031496063
 30
0.0
 10
-0.3848740157480315
 20
2.796748031496063
 30
0.0
 10
-0.3848740157480315
 20
2.796748031496063
 30
0.0
 10
-0.3641259842519685
 20
2.796748031496063
 30
0.0
 10
-0.3641259842519685
 20
2.796748031496063
 30
0.0
 10
-0.3641259842519685
 20
2.796748031496063
 30
0.0
 10
-0.3544330708661417
 20
2.796748031496063
 30
0.0
 10
-0.3477637795275591
 20
2.797192913385827
 30
0.0
 10
-0.3442086614173229
 20
2.798106299212599
 30
0.0
 10
-0.3442086614173229
 20
2.798106299212599
 30
0.0
 10
-0.3385984251968504
 20
2.799578740157481
 30
0.0
 10
-0.3343503937007874
 20
2.802078740157481
 30
0.0
 10
-0.3313779527559055
 20
2.805606299212599
 30
0.0
 10
-0.3313779527559055
 20
2.805606299212599
 30
0.0
 10
-0.3284330708661418
 20
2.809133858267717
 30
0.0
 10
-0.3269330708661418
 20
2.813665354330709
 30
0.0
 10
-0.3269330708661418
 20
2.819192913385827
 30
0.0
 10
-0.3269330708661418
 20
2.819192913385827
 30
0.0
 10
-0.3269330708661418
 20
2.823858267716536
 30
0.0
 10
-0.3282913385826772
 20
2.827748031496063
 30
0.0
 10
-0.3309606299212599
 20
2.830885826771654
 30
0.0
 10
-0.3309606299212599
 20
2.830885826771654
 30
0.0
 10
-0.3336535433070866
 20
2.833996062992126
 30
0.0
 10
-0.3372637795275591
 20
2.836133858267717
 30
0.0
 10
-0.341763779527559
 20
2.837275590551181
 30
0.0
 10
-0.341763779527559
 20
2.837275590551181
 30
0.0
 10
-0.3446811023622047
 20
2.837968503937008
 30
0.0
 10
-0.3507637795275591
 20
2.838330708661418
 30
0.0
 10
-0.359988188976378
 20
2.838330708661418
 30
0.0
 10
-0.359988188976378
 20
2.838330708661418
 30
0.0
 10
-0.359988188976378
 20
2.838330708661418
 30
0.0
 10
-0.3848740157480315
 20
2.838330708661418
 30
0.0
 10
-0.3848740157480315
 20
2.838330708661418
 30
0.0
  0
SPLINE
  5
90
330
1F
100
AcDbEntity
  8
LAYER_1
 62
   250
100
AcDbSpline
210
0.0
220
0.0
230
1.0
 70
    11
 71
     3
 72
    52
 73
    48
 74
     0
 42
0.0000000001
 43
0.0000000001
 40
0.0
 40
0.0
 40
0.0
 40
0.0
 40
0.0833333333333333
 40
0.0833333333333333
 40
0.0833333333333333
 40
0.0833333333333333
 40
0.1666666666666667
 40
0.1666666666666667
 40
0.1666666666666667
 40
0.1666666666666667
 40
0.25
 40
0.25
 40
0.25
 40
0.25
 40
0.3333333333333333
 40
0.3333333333333333
 40
0.3333333333333333
 40
0.3333333333333333
 40
0.4166666666666666
 40
0.4166666666666666
 40
0.4166666666666666
 40
0.4166666666666666
 40
0.4999999999999999
 40
0.4999999999999999
 40
0.4999999999999999
 40
0.4999999999999999
 40
0.5833333333333333
 40
0.5833333333333333
 40
0.5833333333333333
 40
0.5833333333333333
 40
0.6666666666666666
 40
0.6666666666666666
 40
0.6666666666666666
 40
0.6666666666666666
 40
0.75
 40
0.75
 40
0.75
 40
0.75
 40
0.8333333333333334
 40
0.8333333333333334
 40
0.8333333333333334
 40
0.8333333333333334
 40
0.9166666666666667
 40
0.9166666666666667
 40
0.9166666666666667
 40
0.9166666666666667
 40
1.0
 40
1.0
 40
1.0
 40
1.0
 10
-0.3848740157480315
 20
2.788913385826772
 30
0.0
 10
-0.3848740157480315
 20
2.788913385826772
 30
0.0
 10
-0.3848740157480315
 20
2.751665354330709
 30
0.0
 10
-0.3848740157480315
 20
2.751665354330709
 30
0.0
 10
-0.3848740157480315
 20
2.751665354330709
 30
0.0
 10
-0.3848740157480315
 20
2.747913385826772
 30
0.0
 10
-0.3847086614173229
 20
2.745692913385827
 30
0.0
 10
-0.3844055118110236
 20
2.744968503937008
 30
0.0
 10
-0.3844055118110236
 20
2.744968503937008
 30
0.0
 10
-0.3839606299212598
 20
2.743996062992126
 30
0.0
 10
-0.3830984251968504
 20
2.743330708661417
 30
0.0
 10
-0.3817913385826772
 20
2.74294094488189
 30
0.0
 10
-0.3817913385826772
 20
2.74294094488189
 30
0.0
 10
-0.3808740157480315
 20
2.742665354330709
 30
0.0
 10
-0.3782637795275591
 20
2.742523622047244
 30
0.0
 10
-0.373988188976378
 20
2.742523622047244
 30
0.0
 10
-0.373988188976378
 20
2.742523622047244
 30
0.0
 10
-0.373988188976378
 20
2.742523622047244
 30
0.0
 10
-0.3629055118110237
 20
2.742523622047244
 30
0.0
 10
-0.3629055118110237
 20
2.742523622047244
 30
0.0
 10
-0.3629055118110237
 20
2.742523622047244
 30
0.0
 10
-0.3519606299212599
 20
2.742523622047244
 30
0.0
 10
-0.3441259842519685
 20
2.743137795275591
 30
0.0
 10
-0.3394330708661418
 20
2.744358267716536
 30
0.0
 10
-0.3394330708661418
 20
2.744358267716536
 30
0.0
 10
-0.334736220472441
 20
2.74557874015748
 30
0.0
 10
-0.3307362204724409
 20
2.748165354330709
 30
0.0
 10
-0.3274330708661418
 20
2.752110236220473
 30
0.0
 10
-0.3274330708661418
 20
2.752110236220473
 30
0.0
 10
-0.3241259842519685
 20
2.756023622047244
 30
0.0
 10
-0.3224606299212598
 20
2.760775590551181
 30
0.0
 10
-0.3224606299212598
 20
2.7663031496063
 30
0.0
 10
-0.3224606299212598
 20
2.7663031496063
 30
0.0
 10
-0.3224606299212598
 20
2.770968503937008
 30
0.0
 10
-0.3238188976377953
 20
2.775106299212598
 30
0.0
 10
-0.326488188976378
 20
2.778720472440945
 30
0.0
 10
-0.326488188976378
 20
2.778720472440945
 30
0.0
 10
-0.3291811023622047
 20
2.782330708661418
 30
0.0
 10
-0.3329055118110236
 20
2.784913385826772
 30
0.0
 10
-0.3376535433070866
 20
2.786523622047244
 30
0.0
 10
-0.3376535433070866
 20
2.786523622047244
 30
0.0
 10
-0.3424055118110236
 20
2.788137795275591
 30
0.0
 10
-0.3508188976377953
 20
2.788913385826772
 30
0.0
 10
-0.3629055118110237
 20
2.788913385826772
 30
0.0
 10
-0.3629055118110237
 20
2.788913385826772
 30
0.0
 10
-0.3629055118110237
 20
2.788913385826772
 30
0.0
 10
-0.3848740157480315
 20
2.788913385826772
 30
0.0
 10
-0.3848740157480315
 20
2.788913385826772
 30
0.0
  0
SPLINE
  5
91
330
1F
100
AcDbEntity
  8
LAYER_1
 62
   250
100
AcDbSpline
210
0.0
220
0.0
230
1.0
 70
    11
 71
     3
 72
   112
 73
   108
 74
     0
 42
0.0000000001
 43
0.0000000001
 40
0.0
 40
0.0
 40
0.0
 40
0.0
 40
0.037037037037037
 40
0.037037037037037
 40
0.037037037037037
 40
0.037037037037037
 40
0.0740740740740741
 40
0.0740740740740741
 40
0.0740740740740741
 40
0.0740740740740741
 40
0.1111111111111111
 40
0.1111111111111111
 40
0.1111111111111111
 40
0.1111111111111111
 40
0.1481481481481481
 40
0.1481481481481481
 40
0.1481481481481481
 40
0.1481481481481481
 40
0.1851851851851852
 40
0.1851851851851852
 40
0.1851851851851852
 40
0.1851851851851852
 40
0.2222222222222222
 40
0.2222222222222222
 40
0.2222222222222222
 40
0.2222222222222222
 40
0.2592592592592592
 40
0.2592592592592592
 40
0.2592592592592592
 40
0.2592592592592592
 40
0.2962962962962963
 40
0.2962962962962963
 40
0.2962962962962963
 40
0.2962962962962963
 40
0.3333333333333333
 40
0.3333333333333333
 40
0.3333333333333333
 40
0.3333333333333333
 40
0.3703703703703704
 40
0.3703703703703704
 40
0.3703703703703704
 40
0.3703703703703704
 40
0.4074074074074074
 40
0.4074074074074074
 40
0.4074074074074074
 40
0.4074074074074074
 40
0.4444444444444444
 40
0.4444444444444444
 40
0.4444444444444444
 40
0.4444444444444444
 40
0.4814814814814815
 40
0.4814814814814815
 40
0.4814814814814815
 40
0.4814814814814815
 40
0.5185185185185185
 40
0.5185185185185185
 40
0.5185185185185185
 40
0.5185185185185185
 40
0.5555555555555556
 40
0.5555555555555556
 40
0.5555555555555556
 40
0.5555555555555556
 40
0.5925925925925926
 40
0.5925925925925926
 40
0.5925925925925926
 40
0.5925925925925926
 40
0.6296296296296295
 40
0.6296296296296295
 40
0.6296296296296295
 40
0.6296296296296295
 40
0.6666666666666665
 40
0.6666666666666665
 40
0.6666666666666665
 40
0.6666666666666665
 40
0.7037037037037035
 40
0.7037037037037035
 40
0.7037037037037035
 40
0.7037037037037035
 40
0.7407407407407405
 40
0.7407407407407405
 40
0.7407407407407405
 40
0.7407407407407405
 40
0.7777777777777775
 40
0.7777777777777775
 40
0.7777777777777775
 40
0.7777777777777775
 40
0.8148148148148144
 40
0.8148148148148144
 40
0.8148148148148144
 40
0.8148148148148144
 40
0.8518518518518514
 40
0.8518518518518514
 40
0.8518518518518514
 40
0.8518518518518514
 40
0.8888888888888884
 40
0.8888888888888884
 40
0.8888888888888884
 40
0.8888888888888884
 40
0.9259259259259254
 40
0.9259259259259254
 40
0.9259259259259254
 40
0.9259259259259254
 40
0.9629629629629624
 40
0.9629629629629624
 40
0.9629629629629624
 40
0.9629629629629624
 40
1.0
 40
1.0
 40
1.0
 40
1.0
 10
-0.2477677165354331
 20
2.847358267716535
 30
0.0
 10
-0.2477677165354331
 20
2.847358267716535
 30
0.0
 10
-0.2343503937007874
 20
2.847358267716535
 30
0.0
 10
-0.2343503937007874
 20
2.847358267716535
 30
0.0
 10
-0.2343503937007874
 20
2.847358267716535
 30
0.0
 10
-0.2343503937007874
 20
2.847358267716535
 30
0.0
 10
-0.1991023622047244
 20
2.752468503937008
 30
0.0
 10
-0.1991023622047244
 20
2.752468503937008
 30
0.0
 10
-0.1991023622047244
 20
2.752468503937008
 30
0.0
 10
-0.1973779527559055
 20
2.747692913385827
 30
0.0
 10
-0.1956299212598425
 20
2.744523622047244
 30
0.0
 10
-0.1938503937007874
 20
2.742996062992126
 30
0.0
 10
-0.1938503937007874
 20
2.742996062992126
 30
0.0
 10
-0.1921023622047244
 20
2.74144094488189
 30
0.0
 10
-0.1897125984251969
 20
2.740665354330709
 30
0.0
 10
-0.186740157480315
 20
2.740665354330709
 30
0.0
 10
-0.186740157480315
 20
2.740665354330709
 30
0.0
 10
-0.186740157480315
 20
2.740665354330709
 30
0.0
 10
-0.1849606299212599
 20
2.740665354330709
 30
0.0
 10
-0.1849606299212599
 20
2.740665354330709
 30
0.0
 10
-0.1849606299212599
 20
2.740665354330709
 30
0.0
 10
-0.1849606299212599
 20
2.740665354330709
 30
0.0
 10
-0.1849606299212599
 20
2.733830708661417
 30
0.0
 10
-0.1849606299212599
 20
2.733830708661417
 30
0.0
 10
-0.1849606299212599
 20
2.733830708661417
 30
0.0
 10
-0.1849606299212599
 20
2.733830708661417
 30
0.0
 10
-0.2254055118110236
 20
2.733830708661417
 30
0.0
 10
-0.2254055118110236
 20
2.733830708661417
 30
0.0
 10
-0.2254055118110236
 20
2.733830708661417
 30
0.0
 10
-0.2254055118110236
 20
2.733830708661417
 30
0.0
 10
-0.2254055118110236
 20
2.740665354330709
 30
0.0
 10
-0.2254055118110236
 20
2.740665354330709
 30
0.0
 10
-0.2254055118110236
 20
2.740665354330709
 30
0.0
 10
-0.2241023622047244
 20
2.740775590551181
 30
0.0
 10
-0.2228228346456693
 20
2.740830708661417
 30
0.0
 10
-0.2215708661417323
 20
2.740830708661417
 30
0.0
 10
-0.2215708661417323
 20
2.740830708661417
 30
0.0
 10
-0.2189606299212599
 20
2.740830708661417
 30
0.0
 10
-0.2172677165354331
 20
2.741110236220473
 30
0.0
 10
-0.2164330708661418
 20
2.741637795275591
 30
0.0
 10
-0.2164330708661418
 20
2.741637795275591
 30
0.0
 10
-0.2148779527559055
 20
2.742665354330709
 30
0.0
 10
-0.2140748031496063
 20
2.743968503937008
 30
0.0
 10
-0.2140748031496063
 20
2.745551181102362
 30
0.0
 10
-0.2140748031496063
 20
2.745551181102362
 30
0.0
 10
-0.2140748031496063
 20
2.746692913385827
 30
0.0
 10
-0.2148503937007874
 20
2.749468503937008
 30
0.0
 10
-0.2163503937007874
 20
2.75394094488189
 30
0.0
 10
-0.2163503937007874
 20
2.75394094488189
 30
0.0
 10
-0.2163503937007874
 20
2.75394094488189
 30
0.0
 10
-0.2238503937007874
 20
2.775913385826772
 30
0.0
 10
-0.2238503937007874
 20
2.775913385826772
 30
0.0
 10
-0.2238503937007874
 20
2.775913385826772
 30
0.0
 10
-0.2238503937007874
 20
2.775913385826772
 30
0.0
 10
-0.2650157480314961
 20
2.775913385826772
 30
0.0
 10
-0.2650157480314961
 20
2.775913385826772
 30
0.0
 10
-0.2650157480314961
 20
2.775913385826772
 30
0.0
 10
-0.2650157480314961
 20
2.775913385826772
 30
0.0
 10
-0.2738228346456693
 20
2.751330708661417
 30
0.0
 10
-0.2738228346456693
 20
2.751330708661417
 30
0.0
 10
-0.2738228346456693
 20
2.751330708661417
 30
0.0
 10
-0.274740157480315
 20
2.748775590551181
 30
0.0
 10
-0.2752125984251969
 20
2.747023622047244
 30
0.0
 10
-0.2752125984251969
 20
2.746023622047244
 30
0.0
 10
-0.2752125984251969
 20
2.746023622047244
 30
0.0
 10
-0.2752125984251969
 20
2.74494094488189
 30
0.0
 10
-0.2749055118110236
 20
2.743996062992126
 30
0.0
 10
-0.2743503937007874
 20
2.743192913385827
 30
0.0
 10
-0.2743503937007874
 20
2.743192913385827
 30
0.0
 10
-0.2737677165354331
 20
2.742385826771653
 30
0.0
 10
-0.2730157480314961
 20
2.741775590551181
 30
0.0
 10
-0.2720157480314961
 20
2.741358267716536
 30
0.0
 10
-0.2720157480314961
 20
2.741358267716536
 30
0.0
 10
-0.2710433070866142
 20
2.74094094488189
 30
0.0
 10
-0.2694881889763779
 20
2.740748031496063
 30
0.0
 10
-0.2672952755905512
 20
2.740748031496063
 30
0.0
 10
-0.2672952755905512
 20
2.740748031496063
 30
0.0
 10
-0.2658503937007874
 20
2.740748031496063
 30
0.0
 10
-0.2646574803149606
 20
2.740720472440945
 30
0.0
 10
-0.263740157480315
 20
2.740665354330709
 30
0.0
 10
-0.263740157480315
 20
2.740665354330709
 30
0.0
 10
-0.263740157480315
 20
2.740665354330709
 30
0.0
 10
-0.263740157480315
 20
2.733830708661417
 30
0.0
 10
-0.263740157480315
 20
2.733830708661417
 30
0.0
 10
-0.263740157480315
 20
2.733830708661417
 30
0.0
 10
-0.263740157480315
 20
2.733830708661417
 30
0.0
 10
-0.2976574803149606
 20
2.733830708661417
 30
0.0
 10
-0.2976574803149606
 20
2.733830708661417
 30
0.0
 10
-0.2976574803149606
 20
2.733830708661417
 30
0.0
 10
-0.2976574803149606
 20
2.733830708661417
 30
0.0
 10
-0.2976574803149606
 20
2.740665354330709
 30
0.0
 10
-0.2976574803149606
 20
2.740665354330709
 30
0.0
 10
-0.2976574803149606
 20
2.740665354330709
 30
0.0
 10
-0.2945157480314961
 20
2.740665354330709
 30
0.0
 10
-0.292240157480315
 20
2.740968503937008
 30
0.0
 10
-0.2908779527559055
 20
2.741610236220473
 30
0.0
 10
-0.2908779527559055
 20
2.741610236220473
 30
0.0
 10
-0.289488188976378
 20
2.742220472440945
 30
0.0
 10
-0.2882677165354331
 20
2.743220472440945
 30
0.0
 10
-0.287240157480315
 20
2.744610236220473
 30
0.0
 10
-0.287240157480315
 20
2.744610236220473
 30
0.0
 10
-0.2862125984251969
 20
2.745996062992126
 30
0.0
 10
-0.2848503937007874
 20
2.748913385826772
 30
0.0
 10
-0.2831850393700788
 20
2.753358267716536
 30
0.0
 10
-0.2831850393700788
 20
2.753358267716536
 30
0.0
 10
-0.2831850393700788
 20
2.753358267716536
 30
0.0
 10
-0.2477677165354331
 20
2.847358267716535
 30
0.0
 10
-0.2477677165354331
 20
2.847358267716535
 30
0.0
  0
SPLINE
  5
92
330
1F
100
AcDbEntity
  8
LAYER_1
 62
   250
100
AcDbSpline
210
0.0
220
0.0
230
1.0
 70
    11
 71
     3
 72
    16
 73
    12
 74
     0
 42
0.0000000001
 43
0.0000000001
 40
0.0
 40
0.0
 40
0.0
 40
0.0
 40
0.3333333333333333
 40
0.3333333333333333
 40
0.3333333333333333
 40
0.3333333333333333
 40
0.6666666666666666
 40
0.6666666666666666
 40
0.6666666666666666
 40
0.6666666666666666
 40
1.0
 40
1.0
 40
1.0
 40
1.0
 10
-0.2620157480314961
 20
2.783885826771654
 30
0.0
 10
-0.2620157480314961
 20
2.783885826771654
 30
0.0
 10
-0.2269330708661417
 20
2.783885826771654
 30
0.0
 10
-0.2269330708661417
 20
2.783885826771654
 30
0.0
 10
-0.2269330708661417
 20
2.783885826771654
 30
0.0
 10
-0.2269330708661417
 20
2.783885826771654
 30
0.0
 10
-0.2445157480314961
 20
2.832720472440945
 30
0.0
 10
-0.2445157480314961
 20
2.832720472440945
 30
0.0
 10
-0.2445157480314961
 20
2.832720472440945
 30
0.0
 10
-0.2445157480314961
 20
2.832720472440945
 30
0.0
 10
-0.2620157480314961
 20
2.783885826771654
 30
0.0
 10
-0.2620157480314961
 20
2.783885826771654
 30
0.0
  0
SPLINE
  5
93
330
1F
100
AcDbEntity
  8
LAYER_1
 62
   250
100
AcDbSpline
210
0.0
220
0.0
230
1.0
 70
    11
 71
     3
 72
    72
 73
    68
 74
     0
 42
0.0000000001
 43
0.0000000001
 40
0.0
 40
0.0
 40
0.0
 40
0.0
 40
0.0588235294117647
 40
0.0588235294117647
 40
0.0588235294117647
 40
0.0588235294117647
 40
0.1176470588235294
 40
0.1176470588235294
 40
0.1176470588235294
 40
0.1176470588235294
 40
0.1764705882352941
 40
0.1764705882352941
 40
0.1764705882352941
 40
0.1764705882352941
 40
0.2352941176470588
 40
0.2352941176470588
 40
0.2352941176470588
 40
0.2352941176470588
 40
0.2941176470588235
 40
0.2941176470588235
 40
0.2941176470588235
 40
0.2941176470588235
 40
0.3529411764705883
 40
0.3529411764705883
 40
0.3529411764705883
 40
0.3529411764705883
 40
0.411764705882353
 40
0.411764705882353
 40
0.411764705882353
 40
0.411764705882353
 40
0.4705882352941177
 40
0.4705882352941177
 40
0.4705882352941177
 40
0.4705882352941177
 40
0.5294117647058824
 40
0.5294117647058824
 40
0.5294117647058824
 40
0.5294117647058824
 40
0.5882352941176471
 40
0.5882352941176471
 40
0.5882352941176471
 40
0.5882352941176471
 40
0.6470588235294118
 40
0.6470588235294118
 40
0.6470588235294118
 40
0.6470588235294118
 40
0.7058823529411765
 40
0.7058823529411765
 40
0.7058823529411765
 40
0.7058823529411765
 40
0.7647058823529412
 40
0.7647058823529412
 40
0.7647058823529412
 40
0.7647058823529412
 40
0.823529411764706
 40
0.823529411764706
 40
0.823529411764706
 40
0.823529411764706
 40
0.8823529411764707
 40
0.8823529411764707
 40
0.8823529411764707
 40
0.8823529411764707
 40
0.9411764705882354
 40
0.9411764705882354
 40
0.9411764705882354
 40
0.9411764705882354
 40
1.0
 40
1.0
 40
1.0
 40
1.0
 10
-0.0219330708661417
 20
2.847358267716535
 30
0.0
 10
-0.0219330708661417
 20
2.847358267716535
 30
0.0
 10
-0.0158503937007874
 20
2.847358267716535
 30
0.0
 10
-0.0158503937007874
 20
2.847358267716535
 30
0.0
 10
-0.0158503937007874
 20
2.847358267716535
 30
0.0
 10
-0.0158503937007874
 20
2.847358267716535
 30
0.0
 10
-0.0158503937007874
 20
2.753110236220473
 30
0.0
 10
-0.0158503937007874
 20
2.753110236220473
 30
0.0
 10
-0.0158503937007874
 20
2.753110236220473
 30
0.0
 10
-0.0158503937007874
 20
2.748665354330709
 30
0.0
 10
-0.0155433070866142
 20
2.745803149606299
 30
0.0
 10
-0.014988188976378
 20
2.744523622047244
 30
0.0
 10
-0.014988188976378
 20
2.744523622047244
 30
0.0
 10
-0.0144055118110236
 20
2.743248031496063
 30
0.0
 10
-0.013488188976378
 20
2.7423031496063
 30
0.0
 10
-0.0121850393700787
 20
2.741637795275591
 30
0.0
 10
-0.0121850393700787
 20
2.741637795275591
 30
0.0
 10
-0.0108779527559055
 20
2.740996062992126
 30
0.0
 10
-0.0082952755905512
 20
2.740665354330709
 30
0.0
 10
-0.0044330708661417
 20
2.740665354330709
 30
0.0
 10
-0.0044330708661417
 20
2.740665354330709
 30
0.0
 10
-0.0044330708661417
 20
2.740665354330709
 30
0.0
 10
0.0035393700787402
 20
2.740665354330709
 30
0.0
 10
0.0035393700787402
 20
2.740665354330709
 30
0.0
 10
0.0035393700787402
 20
2.740665354330709
 30
0.0
 10
0.0035393700787402
 20
2.740665354330709
 30
0.0
 10
0.0035393700787402
 20
2.733830708661417
 30
0.0
 10
0.0035393700787402
 20
2.733830708661417
 30
0.0
 10
0.0035393700787402
 20
2.733830708661417
 30
0.0
 10
0.0035393700787402
 20
2.733830708661417
 30
0.0
 10
-0.0500984251968504
 20
2.733830708661417
 30
0.0
 10
-0.0500984251968504
 20
2.733830708661417
 30
0.0
 10
-0.0500984251968504
 20
2.733830708661417
 30
0.0
 10
-0.0500984251968504
 20
2.733830708661417
 30
0.0
 10
-0.0500984251968504
 20
2.740665354330709
 30
0.0
 10
-0.0500984251968504
 20
2.740665354330709
 30
0.0
 10
-0.0500984251968504
 20
2.740665354330709
 30
0.0
 10
-0.0500984251968504
 20
2.740665354330709
 30
0.0
 10
-0.041240157480315
 20
2.740665354330709
 30
0.0
 10
-0.041240157480315
 20
2.740665354330709
 30
0.0
 10
-0.041240157480315
 20
2.740665354330709
 30
0.0
 10
-0.0373779527559055
 20
2.740665354330709
 30
0.0
 10
-0.0348228346456693
 20
2.740996062992126
 30
0.0
 10
-0.0335433070866142
 20
2.741692913385827
 30
0.0
 10
-0.0335433070866142
 20
2.741692913385827
 30
0.0
 10
-0.0322677165354331
 20
2.742358267716536
 30
0.0
 10
-0.0312677165354331
 20
2.74344094488189
 30
0.0
 10
-0.0305708661417323
 20
2.74494094488189
 30
0.0
 10
-0.0305708661417323
 20
2.74494094488189
 30
0.0
 10
-0.0298779527559055
 20
2.74644094488189
 30
0.0
 10
-0.0295157480314961
 20
2.749165354330709
 30
0.0
 10
-0.0295157480314961
 20
2.753110236220473
 30
0.0
 10
-0.0295157480314961
 20
2.753110236220473
 30
0.0
 10
-0.0295157480314961
 20
2.753110236220473
 30
0.0
 10
-0.0295157480314961
 20
2.83057874015748
 30
0.0
 10
-0.0295157480314961
 20
2.83057874015748
 30
0.0
 10
-0.0295157480314961
 20
2.83057874015748
 30
0.0
 10
-0.0295157480314961
 20
2.83057874015748
 30
0.0
 10
-0.0500984251968504
 20
2.83057874015748
 30
0.0
 10
-0.0500984251968504
 20
2.83057874015748
 30
0.0
 10
-0.0500984251968504
 20
2.83057874015748
 30
0.0
 10
-0.0500984251968504
 20
2.83057874015748
 30
0.0
 10
-0.0500984251968504
 20
2.83757874015748
 30
0.0
 10
-0.0500984251968504
 20
2.83757874015748
 30
0.0
 10
-0.0500984251968504
 20
2.83757874015748
 30
0.0
 10
-0.0388779527559055
 20
2.839161417322835
 30
0.0
 10
-0.029488188976378
 20
2.842413385826772
 30
0.0
 10
-0.0219330708661417
 20
2.847358267716535
 30
0.0
  0
SPLINE
  5
94
330
1F
100
AcDbEntity
  8
LAYER_1
 62
   250
100
AcDbSpline
210
0.0
220
0.0
230
1.0
 70
    11
 71
     3
 72
    76
 73
    72
 74
     0
 42
0.0000000001
 43
0.0000000001
 40
0.0
 40
0.0
 40
0.0
 40
0.0
 40
0.0555555555555556
 40
0.0555555555555556
 40
0.0555555555555556
 40
0.0555555555555556
 40
0.1111111111111111
 40
0.1111111111111111
 40
0.1111111111111111
 40
0.1111111111111111
 40
0.1666666666666667
 40
0.1666666666666667
 40
0.1666666666666667
 40
0.1666666666666667
 40
0.2222222222222222
 40
0.2222222222222222
 40
0.2222222222222222
 40
0.2222222222222222
 40
0.2777777777777778
 40
0.2777777777777778
 40
0.2777777777777778
 40
0.2777777777777778
 40
0.3333333333333334
 40
0.3333333333333334
 40
0.3333333333333334
 40
0.3333333333333334
 40
0.388888888888889
 40
0.388888888888889
 40
0.388888888888889
 40
0.388888888888889
 40
0.4444444444444445
 40
0.4444444444444445
 40
0.4444444444444445
 40
0.4444444444444445
 40
0.5000000000000001
 40
0.5000000000000001
 40
0.5000000000000001
 40
0.5000000000000001
 40
0.5555555555555557
 40
0.5555555555555557
 40
0.5555555555555557
 40
0.5555555555555557
 40
0.6111111111111113
 40
0.6111111111111113
 40
0.6111111111111113
 40
0.6111111111111113
 40
0.6666666666666669
 40
0.6666666666666669
 40
0.6666666666666669
 40
0.6666666666666669
 40
0.7222222222222224
 40
0.7222222222222224
 40
0.7222222222222224
 40
0.7222222222222224
 40
0.777777777777778
 40
0.777777777777778
 40
0.777777777777778
 40
0.777777777777778
 40
0.8333333333333336
 40
0.8333333333333336
 40
0.8333333333333336
 40
0.8333333333333336
 40
0.8888888888888892
 40
0.8888888888888892
 40
0.8888888888888892
 40
0.8888888888888892
 40
0.9444444444444448
 40
0.9444444444444448
 40
0.9444444444444448
 40
0.9444444444444448
 40
1.0
 40
1.0
 40
1.0
 40
1.0
 10
0.0898740157480315
 20
2.796830708661418
 30
0.0
 10
0.0962913385826772
 20
2.794385826771654
 30
0.0
 10
0.1011771653543307
 20
2.79207874015748
 30
0.0
 10
0.1045393700787402
 20
2.789913385826772
 30
0.0
 10
0.1045393700787402
 20
2.789913385826772
 30
0.0
 10
0.1094566929133858
 20
2.786748031496063
 30
0.0
 10
0.1131771653543307
 20
2.783051181102362
 30
0.0
 10
0.1156771653543307
 20
2.778803149606299
 30
0.0
 10
0.1156771653543307
 20
2.778803149606299
 30
0.0
 10
0.1181771653543307
 20
2.774523622047244
 30
0.0
 10
0.1194291338582677
 20
2.769913385826772
 30
0.0
 10
0.1194291338582677
 20
2.764913385826772
 30
0.0
 10
0.1194291338582677
 20
2.764913385826772
 30
0.0
 10
0.1194291338582677
 20
2.755968503937008
 30
0.0
 10
0.1155669291338583
 20
2.748220472440945
 30
0.0
 10
0.1078740157480315
 20
2.741692913385827
 30
0.0
 10
0.1078740157480315
 20
2.741692913385827
 30
0.0
 10
0.1001496062992126
 20
2.735137795275591
 30
0.0
 10
0.0897637795275591
 20
2.731885826771654
 30
0.0
 10
0.0767047244094488
 20
2.731885826771654
 30
0.0
 10
0.0767047244094488
 20
2.731885826771654
 30
0.0
 10
0.0628740157480315
 20
2.731885826771654
 30
0.0
 10
0.052011811023622
 20
2.735578740157481
 30
0.0
 10
0.0441496062992126
 20
2.74294094488189
 30
0.0
 10
0.0441496062992126
 20
2.74294094488189
 30
0.0
 10
0.0379015748031496
 20
2.748858267716535
 30
0.0
 10
0.0347913385826772
 20
2.755551181102363
 30
0.0
 10
0.0347913385826772
 20
2.763051181102362
 30
0.0
 10
0.0347913385826772
 20
2.763051181102362
 30
0.0
 10
0.0347913385826772
 20
2.769078740157481
 30
0.0
 10
0.0369015748031496
 20
2.774468503937008
 30
0.0
 10
0.0411220472440945
 20
2.779248031496063
 30
0.0
 10
0.0411220472440945
 20
2.779248031496063
 30
0.0
 10
0.0462362204724409
 20
2.78494094488189
 30
0.0
 10
0.053511811023622
 20
2.789385826771654
 30
0.0
 10
0.0629566929133858
 20
2.79257874015748
 30
0.0
 10
0.0629566929133858
 20
2.79257874015748
 30
0.0
 10
0.0555669291338583
 20
2.796051181102362
 30
0.0
 10
0.0502637795275591
 20
2.799578740157481
 30
0.0
 10
0.0469842519685039
 20
2.803165354330709
 30
0.0
 10
0.0469842519685039
 20
2.803165354330709
 30
0.0
 10
0.0428188976377953
 20
2.807885826771654
 30
0.0
 10
0.0407362204724409
 20
2.813551181102362
 30
0.0
 10
0.0407362204724409
 20
2.820161417322835
 30
0.0
 10
0.0407362204724409
 20
2.820161417322835
 30
0.0
 10
0.0407362204724409
 20
2.828358267716536
 30
0.0
 10
0.0438188976377953
 20
2.834996062992126
 30
0.0
 10
0.0500118110236221
 20
2.840023622047244
 30
0.0
 10
0.0500118110236221
 20
2.840023622047244
 30
0.0
 10
0.0575944881889764
 20
2.846220472440945
 30
0.0
 10
0.0670944881889764
 20
2.849303149606299
 30
0.0
 10
0.0784842519685039
 20
2.849303149606299
 30
0.0
 10
0.0784842519685039
 20
2.849303149606299
 30
0.0
 10
0.0889015748031496
 20
2.849303149606299
 30
0.0
 10
0.0973188976377953
 20
2.846633858267717
 30
0.0
 10
0.1037637795275591
 20
2.841303149606299
 30
0.0
 10
0.1037637795275591
 20
2.841303149606299
 30
0.0
 10
0.1101771653543307
 20
2.83594094488189
 30
0.0
 10
0.1134015748031496
 20
2.829830708661417
 30
0.0
 10
0.1134015748031496
 20
2.82294094488189
 30
0.0
 10
0.1134015748031496
 20
2.82294094488189
 30
0.0
 10
0.1134015748031496
 20
2.819523622047244
 30
0.0
 10
0.1125944881889764
 20
2.816248031496063
 30
0.0
 10
0.1110118110236221
 20
2.813133858267717
 30
0.0
 10
0.1110118110236221
 20
2.813133858267717
 30
0.0
 10
0.1094015748031496
 20
2.810023622047244
 30
0.0
 10
0.1069566929133858
 20
2.807106299212598
 30
0.0
 10
0.1036220472440945
 20
2.80444094488189
 30
0.0
 10
0.1036220472440945
 20
2.80444094488189
 30
0.0
 10
0.1003188976377953
 20
2.801748031496063
 30
0.0
 10
0.0957322834645669
 20
2.799220472440945
 30
0.0
 10
0.0898740157480315
 20
2.796830708661418
 30
0.0
  0
SPLINE
  5
95
330
1F
100
AcDbEntity
  8
LAYER_1
 62
   250
100
AcDbSpline
210
0.0
220
0.0
230
1.0
 70
    11
 71
     3
 72
    48
 73
    44
 74
     0
 42
0.0000000001
 43
0.0000000001
 40
0.0
 40
0.0
 40
0.0
 40
0.0
 40
0.0909090909090909
 40
0.0909090909090909
 40
0.0909090909090909
 40
0.0909090909090909
 40
0.1818181818181818
 40
0.1818181818181818
 40
0.1818181818181818
 40
0.1818181818181818
 40
0.2727272727272727
 40
0.2727272727272727
 40
0.2727272727272727
 40
0.2727272727272727
 40
0.3636363636363637
 40
0.3636363636363637
 40
0.3636363636363637
 40
0.3636363636363637
 40
0.4545454545454546
 40
0.4545454545454546
 40
0.4545454545454546
 40
0.4545454545454546
 40
0.5454545454545455
 40
0.5454545454545455
 40
0.5454545454545455
 40
0.5454545454545455
 40
0.6363636363636365
 40
0.6363636363636365
 40
0.6363636363636365
 40
0.6363636363636365
 40
0.7272727272727274
 40
0.7272727272727274
 40
0.7272727272727274
 40
0.7272727272727274
 40
0.8181818181818183
 40
0.8181818181818183
 40
0.8181818181818183
 40
0.8181818181818183
 40
0.9090909090909093
 40
0.9090909090909093
 40
0.9090909090909093
 40
0.9090909090909093
 40
1.0
 40
1.0
 40
1.0
 40
1.0
 10
0.0824842519685039
 20
2.799830708661418
 30
0.0
 10
0.0886496062992126
 20
2.804496062992126
 30
0.0
 10
0.0926771653543307
 20
2.807748031496063
 30
0.0
 10
0.0945118110236221
 20
2.809606299212599
 30
0.0
 10
0.0945118110236221
 20
2.809606299212599
 30
0.0
 10
0.0963740157480315
 20
2.81144094488189
 30
0.0
 10
0.0977913385826772
 20
2.813551181102362
 30
0.0
 10
0.0987913385826772
 20
2.815913385826772
 30
0.0
 10
0.0987913385826772
 20
2.815913385826772
 30
0.0
 10
0.0997913385826772
 20
2.818275590551181
 30
0.0
 10
0.1002913385826772
 20
2.820551181102363
 30
0.0
 10
0.1002913385826772
 20
2.822775590551181
 30
0.0
 10
0.1002913385826772
 20
2.822775590551181
 30
0.0
 10
0.1002913385826772
 20
2.825968503937008
 30
0.0
 10
0.0993464566929134
 20
2.829023622047244
 30
0.0
 10
0.0974566929133858
 20
2.83194094488189
 30
0.0
 10
0.0974566929133858
 20
2.83194094488189
 30
0.0
 10
0.0955393700787402
 20
2.834830708661417
 30
0.0
 10
0.0927637795275591
 20
2.837192913385827
 30
0.0
 10
0.0890944881889764
 20
2.838968503937008
 30
0.0
 10
0.0890944881889764
 20
2.838968503937008
 30
0.0
 10
0.0854566929133858
 20
2.840775590551181
 30
0.0
 10
0.0813464566929134
 20
2.841661417322835
 30
0.0
 10
0.0767913385826772
 20
2.841661417322835
 30
0.0
 10
0.0767913385826772
 20
2.841661417322835
 30
0.0
 10
0.0700393700787402
 20
2.841661417322835
 30
0.0
 10
0.0644566929133858
 20
2.839803149606299
 30
0.0
 10
0.060011811023622
 20
2.83607874015748
 30
0.0
 10
0.060011811023622
 20
2.83607874015748
 30
0.0
 10
0.0555669291338583
 20
2.832358267716536
 30
0.0
 10
0.0533464566929134
 20
2.82807874015748
 30
0.0
 10
0.0533464566929134
 20
2.823192913385827
 30
0.0
 10
0.0533464566929134
 20
2.823192913385827
 30
0.0
 10
0.0533464566929134
 20
2.819275590551181
 30
0.0
 10
0.054736220472441
 20
2.815775590551181
 30
0.0
 10
0.0574842519685039
 20
2.812692913385827
 30
0.0
 10
0.0574842519685039
 20
2.812692913385827
 30
0.0
 10
0.0602637795275591
 20
2.809606299212599
 30
0.0
 10
0.0654015748031496
 20
2.806551181102362
 30
0.0
 10
0.0729566929133858
 20
2.803578740157481
 30
0.0
 10
0.0729566929133858
 20
2.803578740157481
 30
0.0
 10
0.0729566929133858
 20
2.803578740157481
 30
0.0
 10
0.0824842519685039
 20
2.799830708661418
 30
0.0
 10
0.0824842519685039
 20
2.799830708661418
 30
0.0
  0
SPLINE
  5
96
330
1F
100
AcDbEntity
  8
LAYER_1
 62
   250
100
AcDbSpline
210
0.0
220
0.0
230
1.0
 70
    11
 71
     3
 72
    40
 73
    36
 74
     0
 42
0.0000000001
 43
0.0000000001
 40
0.0
 40
0.0
 40
0.0
 40
0.0
 40
0.1111111111111111
 40
0.1111111111111111
 40
0.1111111111111111
 40
0.1111111111111111
 40
0.2222222222222222
 40
0.2222222222222222
 40
0.2222222222222222
 40
0.2222222222222222
 40
0.3333333333333333
 40
0.3333333333333333
 40
0.3333333333333333
 40
0.3333333333333333
 40
0.4444444444444444
 40
0.4444444444444444
 40
0.4444444444444444
 40
0.4444444444444444
 40
0.5555555555555556
 40
0.5555555555555556
 40
0.5555555555555556
 40
0.5555555555555556
 40
0.6666666666666667
 40
0.6666666666666667
 40
0.6666666666666667
 40
0.6666666666666667
 40
0.7777777777777779
 40
0.7777777777777779
 40
0.7777777777777779
 40
0.7777777777777779
 40
0.8888888888888891
 40
0.8888888888888891
 40
0.8888888888888891
 40
0.8888888888888891
 40
1.0
 40
1.0
 40
1.0
 40
1.0
 10
0.0710118110236221
 20
2.789413385826772
 30
0.0
 10
0.0633464566929134
 20
2.786051181102363
 30
0.0
 10
0.0572913385826772
 20
2.781692913385827
 30
0.0
 10
0.0528464566929134
 20
2.776303149606299
 30
0.0
 10
0.0528464566929134
 20
2.776303149606299
 30
0.0
 10
0.0493740157480315
 20
2.77207874015748
 30
0.0
 10
0.0476496062992126
 20
2.767692913385827
 30
0.0
 10
0.0476496062992126
 20
2.763137795275591
 30
0.0
 10
0.0476496062992126
 20
2.763137795275591
 30
0.0
 10
0.0476496062992126
 20
2.75694094488189
 30
0.0
 10
0.0503740157480315
 20
2.75144094488189
 30
0.0
 10
0.0558740157480315
 20
2.746637795275591
 30
0.0
 10
0.0558740157480315
 20
2.746637795275591
 30
0.0
 10
0.0613464566929134
 20
2.741858267716536
 30
0.0
 10
0.0684291338582677
 20
2.73944094488189
 30
0.0
 10
0.0770944881889764
 20
2.73944094488189
 30
0.0
 10
0.0770944881889764
 20
2.73944094488189
 30
0.0
 10
0.0859566929133858
 20
2.73944094488189
 30
0.0
 10
0.0933188976377953
 20
2.742192913385827
 30
0.0
 10
0.0992322834645669
 20
2.747665354330709
 30
0.0
 10
0.0992322834645669
 20
2.747665354330709
 30
0.0
 10
0.1040669291338583
 20
2.752110236220473
 30
0.0
 10
0.106484251968504
 20
2.756885826771654
 30
0.0
 10
0.106484251968504
 20
2.761996062992126
 30
0.0
 10
0.106484251968504
 20
2.761996062992126
 30
0.0
 10
0.106484251968504
 20
2.765996062992126
 30
0.0
 10
0.1049015748031496
 20
2.769830708661417
 30
0.0
 10
0.1017322834645669
 20
2.773496062992126
 30
0.0
 10
0.1017322834645669
 20
2.773496062992126
 30
0.0
 10
0.0985393700787402
 20
2.777165354330709
 30
0.0
 10
0.0926496062992126
 20
2.780720472440945
 30
0.0
 10
0.0840118110236221
 20
2.784192913385827
 30
0.0
 10
0.0840118110236221
 20
2.784192913385827
 30
0.0
 10
0.0840118110236221
 20
2.784192913385827
 30
0.0
 10
0.0710118110236221
 20
2.789413385826772
 30
0.0
 10
0.0710118110236221
 20
2.789413385826772
 30
0.0
  0
SPLINE
  5
97
330
1F
100
AcDbEntity
  8
LAYER_1
 62
   250
100
AcDbSpline
210
0.0
220
0.0
230
1.0
 70
    11
 71
     3
 72
    48
 73
    44
 74
     0
 42
0.0000000001
 43
0.0000000001
 40
0.0
 40
0.0
 40
0.0
 40
0.0
 40
0.0909090909090909
 40
0.0909090909090909
 40
0.0909090909090909
 40
0.0909090909090909
 40
0.1818181818181818
 40
0.1818181818181818
 40
0.1818181818181818
 40
0.1818181818181818
 40
0.2727272727272727
 40
0.2727272727272727
 40
0.2727272727272727
 40
0.2727272727272727
 40
0.3636363636363637
 40
0.3636363636363637
 40
0.3636363636363637
 40
0.3636363636363637
 40
0.4545454545454546
 40
0.4545454545454546
 40
0.4545454545454546
 40
0.4545454545454546
 40
0.5454545454545455
 40
0.5454545454545455
 40
0.5454545454545455
 40
0.5454545454545455
 40
0.6363636363636365
 40
0.6363636363636365
 40
0.6363636363636365
 40
0.6363636363636365
 40
0.7272727272727274
 40
0.7272727272727274
 40
0.7272727272727274
 40
0.7272727272727274
 40
0.8181818181818183
 40
0.8181818181818183
 40
0.8181818181818183
 40
0.8181818181818183
 40
0.9090909090909093
 40
0.9090909090909093
 40
0.9090909090909093
 40
0.9090909090909093
 40
1.0
 40
1.0
 40
1.0
 40
1.0
 10
0.1891811023622047
 20
2.847358267716535
 30
0.0
 10
0.1891811023622047
 20
2.847358267716535
 30
0.0
 10
0.2029291338582677
 20
2.847358267716535
 30
0.0
 10
0.2029291338582677
 20
2.847358267716535
 30
0.0
 10
0.2029291338582677
 20
2.847358267716535
 30
0.0
 10
0.2029291338582677
 20
2.847358267716535
 30
0.0
 10
0.2029291338582677
 20
2.781358267716536
 30
0.0
 10
0.2029291338582677
 20
2.781358267716536
 30
0.0
 10
0.2029291338582677
 20
2.781358267716536
 30
0.0
 10
0.2029291338582677
 20
2.781358267716536
 30
0.0
 10
0.2242637795275591
 20
2.781358267716536
 30
0.0
 10
0.2242637795275591
 20
2.781358267716536
 30
0.0
 10
0.2242637795275591
 20
2.781358267716536
 30
0.0
 10
0.2242637795275591
 20
2.781358267716536
 30
0.0
 10
0.2242637795275591
 20
2.771192913385827
 30
0.0
 10
0.2242637795275591
 20
2.771192913385827
 30
0.0
 10
0.2242637795275591
 20
2.771192913385827
 30
0.0
 10
0.2242637795275591
 20
2.771192913385827
 30
0.0
 10
0.2029291338582677
 20
2.771192913385827
 30
0.0
 10
0.2029291338582677
 20
2.771192913385827
 30
0.0
 10
0.2029291338582677
 20
2.771192913385827
 30
0.0
 10
0.2029291338582677
 20
2.771192913385827
 30
0.0
 10
0.2029291338582677
 20
2.733830708661417
 30
0.0
 10
0.2029291338582677
 20
2.733830708661417
 30
0.0
 10
0.2029291338582677
 20
2.733830708661417
 30
0.0
 10
0.2029291338582677
 20
2.733830708661417
 30
0.0
 10
0.1891811023622047
 20
2.733830708661417
 30
0.0
 10
0.1891811023622047
 20
2.733830708661417
 30
0.0
 10
0.1891811023622047
 20
2.733830708661417
 30
0.0
 10
0.1891811023622047
 20
2.733830708661417
 30
0.0
 10
0.1891811023622047
 20
2.771192913385827
 30
0.0
 10
0.1891811023622047
 20
2.771192913385827
 30
0.0
 10
0.1891811023622047
 20
2.771192913385827
 30
0.0
 10
0.1891811023622047
 20
2.771192913385827
 30
0.0
 10
0.1357086614173229
 20
2.771192913385827
 30
0.0
 10
0.1357086614173229
 20
2.771192913385827
 30
0.0
 10
0.1357086614173229
 20
2.771192913385827
 30
0.0
 10
0.1357086614173229
 20
2.771192913385827
 30
0.0
 10
0.1357086614173229
 20
2.785496062992126
 30
0.0
 10
0.1357086614173229
 20
2.785496062992126
 30
0.0
 10
0.1357086614173229
 20
2.785496062992126
 30
0.0
 10
0.1357086614173229
 20
2.785496062992126
 30
0.0
 10
0.1891811023622047
 20
2.847358267716535
 30
0.0
 10
0.1891811023622047
 20
2.847358267716535
 30
0.0
  0
SPLINE
  5
98
330
1F
100
AcDbEntity
  8
LAYER_1
 62
   250
100
AcDbSpline
210
0.0
220
0.0
230
1.0
 70
    11
 71
     3
 72
    16
 73
    12
 74
     0
 42
0.0000000001
 43
0.0000000001
 40
0.0
 40
0.0
 40
0.0
 40
0.0
 40
0.3333333333333333
 40
0.3333333333333333
 40
0.3333333333333333
 40
0.3333333333333333
 40
0.6666666666666666
 40
0.6666666666666666
 40
0.6666666666666666
 40
0.6666666666666666
 40
1.0
 40
1.0
 40
1.0
 40
1.0
 10
0.1891811023622047
 20
2.781358267716536
 30
0.0
 10
0.1891811023622047
 20
2.781358267716536
 30
0.0
 10
0.1891811023622047
 20
2.834748031496063
 30
0.0
 10
0.1891811023622047
 20
2.834748031496063
 30
0.0
 10
0.1891811023622047
 20
2.834748031496063
 30
0.0
 10
0.1891811023622047
 20
2.834748031496063
 30
0.0
 10
0.1431259842519685
 20
2.781358267716536
 30
0.0
 10
0.1431259842519685
 20
2.781358267716536
 30
0.0
 10
0.1431259842519685
 20
2.781358267716536
 30
0.0
 10
0.1431259842519685
 20
2.781358267716536
 30
0.0
 10
0.1891811023622047
 20
2.781358267716536
 30
0.0
 10
0.1891811023622047
 20
2.781358267716536
 30
0.0
  0
SPLINE
  5
99
330
1F
100
AcDbEntity
  8
LAYER_1
 62
   250
100
AcDbSpline
210
0.0
220
0.0
230
1.0
 70
    11
 71
     3
 72
    48
 73
    44
 74
     0
 42
0.0000000001
 43
0.0000000001
 40
0.0
 40
0.0
 40
0.0
 40
0.0
 40
0.0909090909090909
 40
0.0909090909090909
 40
0.0909090909090909
 40
0.0909090909090909
 40
0.1818181818181818
 40
0.1818181818181818
 40
0.1818181818181818
 40
0.1818181818181818
 40
0.2727272727272727
 40
0.2727272727272727
 40
0.2727272727272727
 40
0.2727272727272727
 40
0.3636363636363637
 40
0.3636363636363637
 40
0.3636363636363637
 40
0.3636363636363637
 40
0.4545454545454546
 40
0.4545454545454546
 40
0.4545454545454546
 40
0.4545454545454546
 40
0.5454545454545455
 40
0.5454545454545455
 40
0.5454545454545455
 40
0.5454545454545455
 40
0.6363636363636365
 40
0.6363636363636365
 40
0.6363636363636365
 40
0.6363636363636365
 40
0.7272727272727274
 40
0.7272727272727274
 40
0.7272727272727274
 40
0.7272727272727274
 40
0.8181818181818183
 40
0.8181818181818183
 40
0.8181818181818183
 40
0.8181818181818183
 40
0.9090909090909093
 40
0.9090909090909093
 40
0.9090909090909093
 40
0.9090909090909093
 40
1.0
 40
1.0
 40
1.0
 40
1.0
 10
0.2925433070866142
 20
2.847358267716535
 30
0.0
 10
0.2925433070866142
 20
2.847358267716535
 30
0.0
 10
0.3062913385826772
 20
2.847358267716535
 30
0.0
 10
0.3062913385826772
 20
2.847358267716535
 30
0.0
 10
0.3062913385826772
 20
2.847358267716535
 30
0.0
 10
0.3062913385826772
 20
2.847358267716535
 30
0.0
 10
0.3062913385826772
 20
2.781358267716536
 30
0.0
 10
0.3062913385826772
 20
2.781358267716536
 30
0.0
 10
0.3062913385826772
 20
2.781358267716536
 30
0.0
 10
0.3062913385826772
 20
2.781358267716536
 30
0.0
 10
0.3276259842519685
 20
2.781358267716536
 30
0.0
 10
0.3276259842519685
 20
2.781358267716536
 30
0.0
 10
0.3276259842519685
 20
2.781358267716536
 30
0.0
 10
0.3276259842519685
 20
2.781358267716536
 30
0.0
 10
0.3276259842519685
 20
2.771192913385827
 30
0.0
 10
0.3276259842519685
 20
2.771192913385827
 30
0.0
 10
0.3276259842519685
 20
2.771192913385827
 30
0.0
 10
0.3276259842519685
 20
2.771192913385827
 30
0.0
 10
0.3062913385826772
 20
2.771192913385827
 30
0.0
 10
0.3062913385826772
 20
2.771192913385827
 30
0.0
 10
0.3062913385826772
 20
2.771192913385827
 30
0.0
 10
0.3062913385826772
 20
2.771192913385827
 30
0.0
 10
0.3062913385826772
 20
2.733830708661417
 30
0.0
 10
0.3062913385826772
 20
2.733830708661417
 30
0.0
 10
0.3062913385826772
 20
2.733830708661417
 30
0.0
 10
0.3062913385826772
 20
2.733830708661417
 30
0.0
 10
0.2925433070866142
 20
2.733830708661417
 30
0.0
 10
0.2925433070866142
 20
2.733830708661417
 30
0.0
 10
0.2925433070866142
 20
2.733830708661417
 30
0.0
 10
0.2925433070866142
 20
2.733830708661417
 30
0.0
 10
0.2925433070866142
 20
2.771192913385827
 30
0.0
 10
0.2925433070866142
 20
2.771192913385827
 30
0.0
 10
0.2925433070866142
 20
2.771192913385827
 30
0.0
 10
0.2925433070866142
 20
2.771192913385827
 30
0.0
 10
0.2390708661417323
 20
2.771192913385827
 30
0.0
 10
0.2390708661417323
 20
2.771192913385827
 30
0.0
 10
0.2390708661417323
 20
2.771192913385827
 30
0.0
 10
0.2390708661417323
 20
2.771192913385827
 30
0.0
 10
0.2390708661417323
 20
2.785496062992126
 30
0.0
 10
0.2390708661417323
 20
2.785496062992126
 30
0.0
 10
0.2390708661417323
 20
2.785496062992126
 30
0.0
 10
0.2390708661417323
 20
2.785496062992126
 30
0.0
 10
0.2925433070866142
 20
2.847358267716535
 30
0.0
 10
0.2925433070866142
 20
2.847358267716535
 30
0.0
  0
SPLINE
  5
9A
330
1F
100
AcDbEntity
  8
LAYER_1
 62
   250
100
AcDbSpline
210
0.0
220
0.0
230
1.0
 70
    11
 71
     3
 72
    16
 73
    12
 74
     0
 42
0.0000000001
 43
0.0000000001
 40
0.0
 40
0.0
 40
0.0
 40
0.0
 40
0.3333333333333333
 40
0.3333333333333333
 40
0.3333333333333333
 40
0.3333333333333333
 40
0.6666666666666666
 40
0.6666666666666666
 40
0.6666666666666666
 40
0.6666666666666666
 40
1.0
 40
1.0
 40
1.0
 40
1.0
 10
0.2925433070866142
 20
2.781358267716536
 30
0.0
 10
0.2925433070866142
 20
2.781358267716536
 30
0.0
 10
0.2925433070866142
 20
2.834748031496063
 30
0.0
 10
0.2925433070866142
 20
2.834748031496063
 30
0.0
 10
0.2925433070866142
 20
2.834748031496063
 30
0.0
 10
0.2925433070866142
 20
2.834748031496063
 30
0.0
 10
0.246488188976378
 20
2.781358267716536
 30
0.0
 10
0.246488188976378
 20
2.781358267716536
 30
0.0
 10
0.246488188976378
 20
2.781358267716536
 30
0.0
 10
0.246488188976378
 20
2.781358267716536
 30
0.0
 10
0.2925433070866142
 20
2.781358267716536
 30
0.0
 10
0.2925433070866142
 20
2.781358267716536
 30
0.0
  0
SPLINE
  5
9B
330
1F
100
AcDbEntity
  8
LAYER_1
 62
   250
100
AcDbSpline
210
0.0
220
0.0
230
1.0
 70
    11
 71
     3
 72
    80
 73
    76
 74
     0
 42
0.0000000001
 43
0.0000000001
 40
0.0
 40
0.0
 40
0.0
 40
0.0
 40
0.0526315789473684
 40
0.0526315789473684
 40
0.0526315789473684
 40
0.0526315789473684
 40
0.1052631578947368
 40
0.1052631578947368
 40
0.1052631578947368
 40
0.1052631578947368
 40
0.1578947368421053
 40
0.1578947368421053
 40
0.1578947368421053
 40
0.1578947368421053
 40
0.2105263157894737
 40
0.2105263157894737
 40
0.2105263157894737
 40
0.2105263157894737
 40
0.2631578947368421
 40
0.2631578947368421
 40
0.2631578947368421
 40
0.2631578947368421
 40
0.3157894736842105
 40
0.3157894736842105
 40
0.3157894736842105
 40
0.3157894736842105
 40
0.3684210526315789
 40
0.3684210526315789
 40
0.3684210526315789
 40
0.3684210526315789
 40
0.4210526315789474
 40
0.4210526315789474
 40
0.4210526315789474
 40
0.4210526315789474
 40
0.4736842105263158
 40
0.4736842105263158
 40
0.4736842105263158
 40
0.4736842105263158
 40
0.5263157894736842
 40
0.5263157894736842
 40
0.5263157894736842
 40
0.5263157894736842
 40
0.5789473684210527
 40
0.5789473684210527
 40
0.5789473684210527
 40
0.5789473684210527
 40
0.631578947368421
 40
0.631578947368421
 40
0.631578947368421
 40
0.631578947368421
 40
0.6842105263157894
 40
0.6842105263157894
 40
0.6842105263157894
 40
0.6842105263157894
 40
0.7368421052631577
 40
0.7368421052631577
 40
0.7368421052631577
 40
0.7368421052631577
 40
0.7894736842105261
 40
0.7894736842105261
 40
0.7894736842105261
 40
0.7894736842105261
 40
0.8421052631578945
 40
0.8421052631578945
 40
0.8421052631578945
 40
0.8421052631578945
 40
0.8947368421052628
 40
0.8947368421052628
 40
0.8947368421052628
 40
0.8947368421052628
 40
0.9473684210526312
 40
0.9473684210526312
 40
0.9473684210526312
 40
0.9473684210526312
 40
1.0
 40
1.0
 40
1.0
 40
1.0
 10
-0.5831377952755906
 20
2.663996062992126
 30
0.0
 10
-0.5831377952755906
 20
2.663996062992126
 30
0.0
 10
-0.577748031496063
 20
2.663996062992126
 30
0.0
 10
-0.577748031496063
 20
2.663996062992126
 30
0.0
 10
-0.577748031496063
 20
2.663996062992126
 30
0.0
 10
-0.577748031496063
 20
2.663996062992126
 30
0.0
 10
-0.5767755905511811
 20
2.659858267716535
 30
0.0
 10
-0.5767755905511811
 20
2.659858267716535
 30
0.0
 10
-0.5767755905511811
 20
2.659858267716535
 30
0.0
 10
-0.5767755905511811
 20
2.659858267716535
 30
0.0
 10
-0.5056653543307087
 20
2.659858267716535
 30
0.0
 10
-0.5056653543307087
 20
2.659858267716535
 30
0.0
 10
-0.5056653543307087
 20
2.659858267716535
 30
0.0
 10
-0.5056653543307087
 20
2.659858267716535
 30
0.0
 10
-0.5056653543307087
 20
2.65294094488189
 30
0.0
 10
-0.5056653543307087
 20
2.65294094488189
 30
0.0
 10
-0.5056653543307087
 20
2.65294094488189
 30
0.0
 10
-0.5141653543307087
 20
2.643106299212599
 30
0.0
 10
-0.5218897637795276
 20
2.63194094488189
 30
0.0
 10
-0.5288031496062993
 20
2.619358267716536
 30
0.0
 10
-0.5288031496062993
 20
2.619358267716536
 30
0.0
 10
-0.5357204724409449
 20
2.606803149606299
 30
0.0
 10
-0.5410826771653543
 20
2.594023622047244
 30
0.0
 10
-0.5448897637795276
 20
2.580996062992126
 30
0.0
 10
-0.5448897637795276
 20
2.580996062992126
 30
0.0
 10
-0.5476377952755905
 20
2.571610236220473
 30
0.0
 10
-0.5498858267716535
 20
2.560051181102363
 30
0.0
 10
-0.5516377952755905
 20
2.546330708661417
 30
0.0
 10
-0.5516377952755905
 20
2.546330708661417
 30
0.0
 10
-0.5516377952755905
 20
2.546330708661417
 30
0.0
 10
-0.5683031496062992
 20
2.546330708661417
 30
0.0
 10
-0.5683031496062992
 20
2.546330708661417
 30
0.0
 10
-0.5683031496062992
 20
2.546330708661417
 30
0.0
 10
-0.5666929133858268
 20
2.55844094488189
 30
0.0
 10
-0.5640275590551181
 20
2.569748031496063
 30
0.0
 10
-0.5603031496062992
 20
2.580275590551181
 30
0.0
 10
-0.5603031496062992
 20
2.580275590551181
 30
0.0
 10
-0.5565826771653544
 20
2.590803149606299
 30
0.0
 10
-0.5512204724409449
 20
2.601803149606299
 30
0.0
 10
-0.5441929133858268
 20
2.613275590551181
 30
0.0
 10
-0.5441929133858268
 20
2.613275590551181
 30
0.0
 10
-0.5371653543307087
 20
2.624748031496063
 30
0.0
 10
-0.5286377952755905
 20
2.636192913385827
 30
0.0
 10
-0.5185826771653543
 20
2.647633858267717
 30
0.0
 10
-0.5185826771653543
 20
2.647633858267717
 30
0.0
 10
-0.5185826771653543
 20
2.647633858267717
 30
0.0
 10
-0.5693031496062992
 20
2.647633858267717
 30
0.0
 10
-0.5693031496062992
 20
2.647633858267717
 30
0.0
 10
-0.5693031496062992
 20
2.647633858267717
 30
0.0
 10
-0.5729724409448819
 20
2.647633858267717
 30
0.0
 10
-0.5755
 20
2.647468503937008
 30
0.0
 10
-0.5768582677165355
 20
2.64707874015748
 30
0.0
 10
-0.5768582677165355
 20
2.64707874015748
 30
0.0
 10
-0.5782204724409449
 20
2.646692913385827
 30
0.0
 10
-0.5792755905511812
 20
2.646106299212598
 30
0.0
 10
-0.5800275590551182
 20
2.6453031496063
 30
0.0
 10
-0.5800275590551182
 20
2.6453031496063
 30
0.0
 10
-0.5808031496062992
 20
2.644468503937008
 30
0.0
 10
-0.5814448818897638
 20
2.643023622047244
 30
0.0
 10
-0.5820000000000001
 20
2.640968503937008
 30
0.0
 10
-0.5820000000000001
 20
2.640968503937008
 30
0.0
 10
-0.5820000000000001
 20
2.640968503937008
 30
0.0
 10
-0.5823858267716535
 20
2.63944094488189
 30
0.0
 10
-0.5823858267716535
 20
2.63944094488189
 30
0.0
 10
-0.5823858267716535
 20
2.63944094488189
 30
0.0
 10
-0.5823858267716535
 20
2.63944094488189
 30
0.0
 10
-0.5851653543307087
 20
2.629830708661417
 30
0.0
 10
-0.5851653543307087
 20
2.629830708661417
 30
0.0
 10
-0.5851653543307087
 20
2.629830708661417
 30
0.0
 10
-0.5851653543307087
 20
2.629830708661417
 30
0.0
 10
-0.5920826771653543
 20
2.631303149606299
 30
0.0
 10
-0.5920826771653543
 20
2.631303149606299
 30
0.0
 10
-0.5920826771653543
 20
2.631303149606299
 30
0.0
 10
-0.5920826771653543
 20
2.631303149606299
 30
0.0
 10
-0.5831377952755906
 20
2.663996062992126
 30
0.0
 10
-0.5831377952755906
 20
2.663996062992126
 30
0.0
  0
SPLINE
  5
9C
330
1F
100
AcDbEntity
  8
LAYER_1
 62
   250
100
AcDbSpline
210
0.0
220
0.0
230
1.0
 70
    11
 71
     3
 72
    20
 73
    16
 74
     0
 42
0.0000000001
 43
0.0000000001
 40
0.0
 40
0.0
 40
0.0
 40
0.0
 40
0.25
 40
0.25
 40
0.25
 40
0.25
 40
0.5
 40
0.5
 40
0.5
 40
0.5
 40
0.75
 40
0.75
 40
0.75
 40
0.75
 40
1.0
 40
1.0
 40
1.0
 40
1.0
 10
-0.4163582677165355
 20
2.665720472440945
 30
0.0
 10
-0.4163582677165355
 20
2.665720472440945
 30
0.0
 10
-0.4719409448818898
 20
2.510023622047244
 30
0.0
 10
-0.4719409448818898
 20
2.510023622047244
 30
0.0
 10
-0.4719409448818898
 20
2.510023622047244
 30
0.0
 10
-0.4719409448818898
 20
2.510023622047244
 30
0.0
 10
-0.483996062992126
 20
2.510023622047244
 30
0.0
 10
-0.483996062992126
 20
2.510023622047244
 30
0.0
 10
-0.483996062992126
 20
2.510023622047244
 30
0.0
 10
-0.483996062992126
 20
2.510023622047244
 30
0.0
 10
-0.428748031496063
 20
2.665720472440945
 30
0.0
 10
-0.428748031496063
 20
2.665720472440945
 30
0.0
 10
-0.428748031496063
 20
2.665720472440945
 30
0.0
 10
-0.428748031496063
 20
2.665720472440945
 30
0.0
 10
-0.4163582677165355
 20
2.665720472440945
 30
0.0
 10
-0.4163582677165355
 20
2.665720472440945
 30
0.0
  0
SPLINE
  5
9D
330
1F
100
AcDbEntity
  8
LAYER_1
 62
   250
100
AcDbSpline
210
0.0
220
0.0
230
1.0
 70
    11
 71
     3
 72
    76
 73
    72
 74
     0
 42
0.0000000001
 43
0.0000000001
 40
0.0
 40
0.0
 40
0.0
 40
0.0
 40
0.0555555555555556
 40
0.0555555555555556
 40
0.0555555555555556
 40
0.0555555555555556
 40
0.1111111111111111
 40
0.1111111111111111
 40
0.1111111111111111
 40
0.1111111111111111
 40
0.1666666666666667
 40
0.1666666666666667
 40
0.1666666666666667
 40
0.1666666666666667
 40
0.2222222222222222
 40
0.2222222222222222
 40
0.2222222222222222
 40
0.2222222222222222
 40
0.2777777777777778
 40
0.2777777777777778
 40
0.2777777777777778
 40
0.2777777777777778
 40
0.3333333333333334
 40
0.3333333333333334
 40
0.3333333333333334
 40
0.3333333333333334
 40
0.388888888888889
 40
0.388888888888889
 40
0.388888888888889
 40
0.388888888888889
 40
0.4444444444444445
 40
0.4444444444444445
 40
0.4444444444444445
 40
0.4444444444444445
 40
0.5000000000000001
 40
0.5000000000000001
 40
0.5000000000000001
 40
0.5000000000000001
 40
0.5555555555555557
 40
0.5555555555555557
 40
0.5555555555555557
 40
0.5555555555555557
 40
0.6111111111111113
 40
0.6111111111111113
 40
0.6111111111111113
 40
0.6111111111111113
 40
0.6666666666666669
 40
0.6666666666666669
 40
0.6666666666666669
 40
0.6666666666666669
 40
0.7222222222222224
 40
0.7222222222222224
 40
0.7222222222222224
 40
0.7222222222222224
 40
0.777777777777778
 40
0.777777777777778
 40
0.777777777777778
 40
0.777777777777778
 40
0.8333333333333336
 40
0.8333333333333336
 40
0.8333333333333336
 40
0.8333333333333336
 40
0.8888888888888892
 40
0.8888888888888892
 40
0.8888888888888892
 40
0.8888888888888892
 40
0.9444444444444448
 40
0.9444444444444448
 40
0.9444444444444448
 40
0.9444444444444448
 40
1.0
 40
1.0
 40
1.0
 40
1.0
 10
-0.3333582677165354
 20
2.609330708661418
 30
0.0
 10
-0.3269409448818898
 20
2.606885826771654
 30
0.0
 10
-0.3220551181102362
 20
2.60457874015748
 30
0.0
 10
-0.3186929133858268
 20
2.602413385826772
 30
0.0
 10
-0.3186929133858268
 20
2.602413385826772
 30
0.0
 10
-0.3137755905511811
 20
2.599248031496063
 30
0.0
 10
-0.3100551181102362
 20
2.595551181102362
 30
0.0
 10
-0.3075551181102362
 20
2.591303149606299
 30
0.0
 10
-0.3075551181102362
 20
2.591303149606299
 30
0.0
 10
-0.3050551181102362
 20
2.587023622047244
 30
0.0
 10
-0.3038031496062992
 20
2.582413385826772
 30
0.0
 10
-0.3038031496062992
 20
2.577413385826772
 30
0.0
 10
-0.3038031496062992
 20
2.577413385826772
 30
0.0
 10
-0.3038031496062992
 20
2.568468503937008
 30
0.0
 10
-0.3076653543307087
 20
2.560720472440945
 30
0.0
 10
-0.3153582677165355
 20
2.554192913385827
 30
0.0
 10
-0.3153582677165355
 20
2.554192913385827
 30
0.0
 10
-0.3230826771653543
 20
2.547637795275591
 30
0.0
 10
-0.3334685039370079
 20
2.544385826771654
 30
0.0
 10
-0.3465275590551181
 20
2.544385826771654
 30
0.0
 10
-0.3465275590551181
 20
2.544385826771654
 30
0.0
 10
-0.3603582677165355
 20
2.544385826771654
 30
0.0
 10
-0.3712204724409449
 20
2.548078740157481
 30
0.0
 10
-0.3790826771653543
 20
2.55544094488189
 30
0.0
 10
-0.3790826771653543
 20
2.55544094488189
 30
0.0
 10
-0.3853307086614173
 20
2.561358267716535
 30
0.0
 10
-0.3884409448818898
 20
2.568051181102363
 30
0.0
 10
-0.3884409448818898
 20
2.575551181102362
 30
0.0
 10
-0.3884409448818898
 20
2.575551181102362
 30
0.0
 10
-0.3884409448818898
 20
2.581578740157481
 30
0.0
 10
-0.3863307086614173
 20
2.586968503937008
 30
0.0
 10
-0.3821102362204725
 20
2.591748031496063
 30
0.0
 10
-0.3821102362204725
 20
2.591748031496063
 30
0.0
 10
-0.376996062992126
 20
2.59744094488189
 30
0.0
 10
-0.3697204724409449
 20
2.601885826771654
 30
0.0
 10
-0.3602755905511811
 20
2.60507874015748
 30
0.0
 10
-0.3602755905511811
 20
2.60507874015748
 30
0.0
 10
-0.3676653543307087
 20
2.608551181102362
 30
0.0
 10
-0.3729685039370079
 20
2.612078740157481
 30
0.0
 10
-0.376248031496063
 20
2.615665354330709
 30
0.0
 10
-0.376248031496063
 20
2.615665354330709
 30
0.0
 10
-0.3804133858267716
 20
2.620385826771654
 30
0.0
 10
-0.382496062992126
 20
2.626051181102362
 30
0.0
 10
-0.382496062992126
 20
2.632661417322835
 30
0.0
 10
-0.382496062992126
 20
2.632661417322835
 30
0.0
 10
-0.382496062992126
 20
2.640858267716535
 30
0.0
 10
-0.3794133858267716
 20
2.647496062992126
 30
0.0
 10
-0.3732204724409449
 20
2.652523622047244
 30
0.0
 10
-0.3732204724409449
 20
2.652523622047244
 30
0.0
 10
-0.3656377952755905
 20
2.658720472440945
 30
0.0
 10
-0.3561377952755906
 20
2.661803149606299
 30
0.0
 10
-0.344748031496063
 20
2.661803149606299
 30
0.0
 10
-0.344748031496063
 20
2.661803149606299
 30
0.0
 10
-0.3343307086614173
 20
2.661803149606299
 30
0.0
 10
-0.3259133858267717
 20
2.659133858267717
 30
0.0
 10
-0.3194685039370079
 20
2.653803149606299
 30
0.0
 10
-0.3194685039370079
 20
2.653803149606299
 30
0.0
 10
-0.3130551181102362
 20
2.64844094488189
 30
0.0
 10
-0.3098307086614173
 20
2.642330708661417
 30
0.0
 10
-0.3098307086614173
 20
2.63544094488189
 30
0.0
 10
-0.3098307086614173
 20
2.63544094488189
 30
0.0
 10
-0.3098307086614173
 20
2.632023622047244
 30
0.0
 10
-0.3106377952755905
 20
2.628748031496063
 30
0.0
 10
-0.3122204724409449
 20
2.625633858267717
 30
0.0
 10
-0.3122204724409449
 20
2.625633858267717
 30
0.0
 10
-0.3138307086614173
 20
2.622523622047244
 30
0.0
 10
-0.3162755905511811
 20
2.619606299212598
 30
0.0
 10
-0.3196102362204725
 20
2.61694094488189
 30
0.0
 10
-0.3196102362204725
 20
2.61694094488189
 30
0.0
 10
-0.3229133858267717
 20
2.614248031496063
 30
0.0
 10
-0.3275
 20
2.611720472440945
 30
0.0
 10
-0.3333582677165354
 20
2.609330708661418
 30
0.0
  0
SPLINE
  5
9E
330
1F
100
AcDbEntity
  8
LAYER_1
 62
   250
100
AcDbSpline
210
0.0
220
0.0
230
1.0
 70
    11
 71
     3
 72
    48
 73
    44
 74
     0
 42
0.0000000001
 43
0.0000000001
 40
0.0
 40
0.0
 40
0.0
 40
0.0
 40
0.0909090909090909
 40
0.0909090909090909
 40
0.0909090909090909
 40
0.0909090909090909
 40
0.1818181818181818
 40
0.1818181818181818
 40
0.1818181818181818
 40
0.1818181818181818
 40
0.2727272727272727
 40
0.2727272727272727
 40
0.2727272727272727
 40
0.2727272727272727
 40
0.3636363636363637
 40
0.3636363636363637
 40
0.3636363636363637
 40
0.3636363636363637
 40
0.4545454545454546
 40
0.4545454545454546
 40
0.4545454545454546
 40
0.4545454545454546
 40
0.5454545454545455
 40
0.5454545454545455
 40
0.5454545454545455
 40
0.5454545454545455
 40
0.6363636363636365
 40
0.6363636363636365
 40
0.6363636363636365
 40
0.6363636363636365
 40
0.7272727272727274
 40
0.7272727272727274
 40
0.7272727272727274
 40
0.7272727272727274
 40
0.8181818181818183
 40
0.8181818181818183
 40
0.8181818181818183
 40
0.8181818181818183
 40
0.9090909090909093
 40
0.9090909090909093
 40
0.9090909090909093
 40
0.9090909090909093
 40
1.0
 40
1.0
 40
1.0
 40
1.0
 10
-0.340748031496063
 20
2.612330708661418
 30
0.0
 10
-0.3345826771653543
 20
2.616996062992126
 30
0.0
 10
-0.3305551181102363
 20
2.620248031496063
 30
0.0
 10
-0.3287204724409449
 20
2.622106299212599
 30
0.0
 10
-0.3287204724409449
 20
2.622106299212599
 30
0.0
 10
-0.3268582677165354
 20
2.62394094488189
 30
0.0
 10
-0.3254409448818898
 20
2.626051181102362
 30
0.0
 10
-0.3244409448818898
 20
2.628413385826772
 30
0.0
 10
-0.3244409448818898
 20
2.628413385826772
 30
0.0
 10
-0.3234409448818898
 20
2.630775590551181
 30
0.0
 10
-0.3229409448818898
 20
2.633051181102363
 30
0.0
 10
-0.3229409448818898
 20
2.635275590551181
 30
0.0
 10
-0.3229409448818898
 20
2.635275590551181
 30
0.0
 10
-0.3229409448818898
 20
2.638468503937008
 30
0.0
 10
-0.3238858267716536
 20
2.641523622047244
 30
0.0
 10
-0.3257755905511811
 20
2.64444094488189
 30
0.0
 10
-0.3257755905511811
 20
2.64444094488189
 30
0.0
 10
-0.3276929133858268
 20
2.647330708661417
 30
0.0
 10
-0.3304685039370079
 20
2.649692913385827
 30
0.0
 10
-0.3341377952755906
 20
2.651468503937008
 30
0.0
 10
-0.3341377952755906
 20
2.651468503937008
 30
0.0
 10
-0.3377755905511811
 20
2.653275590551181
 30
0.0
 10
-0.3418858267716536
 20
2.654161417322835
 30
0.0
 10
-0.3464409448818898
 20
2.654161417322835
 30
0.0
 10
-0.3464409448818898
 20
2.654161417322835
 30
0.0
 10
-0.3531929133858268
 20
2.654161417322835
 30
0.0
 10
-0.3587755905511811
 20
2.652303149606299
 30
0.0
 10
-0.3632204724409449
 20
2.64857874015748
 30
0.0
 10
-0.3632204724409449
 20
2.64857874015748
 30
0.0
 10
-0.3676653543307087
 20
2.644858267716535
 30
0.0
 10
-0.3698858267716536
 20
2.64057874015748
 30
0.0
 10
-0.3698858267716536
 20
2.635692913385827
 30
0.0
 10
-0.3698858267716536
 20
2.635692913385827
 30
0.0
 10
-0.3698858267716536
 20
2.631775590551181
 30
0.0
 10
-0.368496062992126
 20
2.628275590551181
 30
0.0
 10
-0.365748031496063
 20
2.625192913385827
 30
0.0
 10
-0.365748031496063
 20
2.625192913385827
 30
0.0
 10
-0.3629685039370079
 20
2.622106299212599
 30
0.0
 10
-0.3578307086614174
 20
2.619051181102362
 30
0.0
 10
-0.3502755905511811
 20
2.616078740157481
 30
0.0
 10
-0.3502755905511811
 20
2.616078740157481
 30
0.0
 10
-0.3502755905511811
 20
2.616078740157481
 30
0.0
 10
-0.340748031496063
 20
2.612330708661418
 30
0.0
 10
-0.340748031496063
 20
2.612330708661418
 30
0.0
  0
SPLINE
  5
9F
330
1F
100
AcDbEntity
  8
LAYER_1
 62
   250
100
AcDbSpline
210
0.0
220
0.0
230
1.0
 70
    11
 71
     3
 72
    40
 73
    36
 74
     0
 42
0.0000000001
 43
0.0000000001
 40
0.0
 40
0.0
 40
0.0
 40
0.0
 40
0.1111111111111111
 40
0.1111111111111111
 40
0.1111111111111111
 40
0.1111111111111111
 40
0.2222222222222222
 40
0.2222222222222222
 40
0.2222222222222222
 40
0.2222222222222222
 40
0.3333333333333333
 40
0.3333333333333333
 40
0.3333333333333333
 40
0.3333333333333333
 40
0.4444444444444444
 40
0.4444444444444444
 40
0.4444444444444444
 40
0.4444444444444444
 40
0.5555555555555556
 40
0.5555555555555556
 40
0.5555555555555556
 40
0.5555555555555556
 40
0.6666666666666667
 40
0.6666666666666667
 40
0.6666666666666667
 40
0.6666666666666667
 40
0.7777777777777779
 40
0.7777777777777779
 40
0.7777777777777779
 40
0.7777777777777779
 40
0.8888888888888891
 40
0.8888888888888891
 40
0.8888888888888891
 40
0.8888888888888891
 40
1.0
 40
1.0
 40
1.0
 40
1.0
 10
-0.3522204724409449
 20
2.601913385826772
 30
0.0
 10
-0.3598858267716535
 20
2.598551181102363
 30
0.0
 10
-0.3659409448818898
 20
2.594192913385827
 30
0.0
 10
-0.3703858267716536
 20
2.588803149606299
 30
0.0
 10
-0.3703858267716536
 20
2.588803149606299
 30
0.0
 10
-0.3738582677165355
 20
2.58457874015748
 30
0.0
 10
-0.3755826771653543
 20
2.580192913385827
 30
0.0
 10
-0.3755826771653543
 20
2.575637795275591
 30
0.0
 10
-0.3755826771653543
 20
2.575637795275591
 30
0.0
 10
-0.3755826771653543
 20
2.56944094488189
 30
0.0
 10
-0.3728582677165355
 20
2.56394094488189
 30
0.0
 10
-0.3673582677165355
 20
2.559137795275591
 30
0.0
 10
-0.3673582677165355
 20
2.559137795275591
 30
0.0
 10
-0.3618858267716535
 20
2.554358267716536
 30
0.0
 10
-0.3548031496062992
 20
2.55194094488189
 30
0.0
 10
-0.3461377952755906
 20
2.55194094488189
 30
0.0
 10
-0.3461377952755906
 20
2.55194094488189
 30
0.0
 10
-0.3372755905511811
 20
2.55194094488189
 30
0.0
 10
-0.3299133858267717
 20
2.554692913385827
 30
0.0
 10
-0.324
 20
2.560165354330709
 30
0.0
 10
-0.324
 20
2.560165354330709
 30
0.0
 10
-0.3191653543307087
 20
2.564610236220473
 30
0.0
 10
-0.316748031496063
 20
2.569385826771654
 30
0.0
 10
-0.316748031496063
 20
2.574496062992126
 30
0.0
 10
-0.316748031496063
 20
2.574496062992126
 30
0.0
 10
-0.316748031496063
 20
2.578496062992126
 30
0.0
 10
-0.3183307086614173
 20
2.582330708661417
 30
0.0
 10
-0.3215
 20
2.585996062992126
 30
0.0
 10
-0.3215
 20
2.585996062992126
 30
0.0
 10
-0.3246929133858268
 20
2.589665354330709
 30
0.0
 10
-0.3305826771653543
 20
2.593220472440945
 30
0.0
 10
-0.3392204724409449
 20
2.596692913385827
 30
0.0
 10
-0.3392204724409449
 20
2.596692913385827
 30
0.0
 10
-0.3392204724409449
 20
2.596692913385827
 30
0.0
 10
-0.3522204724409449
 20
2.601913385826772
 30
0.0
 10
-0.3522204724409449
 20
2.601913385826772
 30
0.0
  0
SPLINE
  5
A0
330
1F
100
AcDbEntity
  8
LAYER_1
 62
   250
100
AcDbSpline
210
0.0
220
0.0
230
1.0
 70
    11
 71
     3
 72
    60
 73
    56
 74
     0
 42
0.0000000001
 43
0.0000000001
 40
0.0
 40
0.0
 40
0.0
 40
0.0
 40
0.0714285714285714
 40
0.0714285714285714
 40
0.0714285714285714
 40
0.0714285714285714
 40
0.1428571428571429
 40
0.1428571428571429
 40
0.1428571428571429
 40
0.1428571428571429
 40
0.2142857142857143
 40
0.2142857142857143
 40
0.2142857142857143
 40
0.2142857142857143
 40
0.2857142857142857
 40
0.2857142857142857
 40
0.2857142857142857
 40
0.2857142857142857
 40
0.3571428571428571
 40
0.3571428571428571
 40
0.3571428571428571
 40
0.3571428571428571
 40
0.4285714285714285
 40
0.4285714285714285
 40
0.4285714285714285
 40
0.4285714285714285
 40
0.4999999999999999
 40
0.4999999999999999
 40
0.4999999999999999
 40
0.4999999999999999
 40
0.5714285714285713
 40
0.5714285714285713
 40
0.5714285714285713
 40
0.5714285714285713
 40
0.6428571428571427
 40
0.6428571428571427
 40
0.6428571428571427
 40
0.6428571428571427
 40
0.7142857142857141
 40
0.7142857142857141
 40
0.7142857142857141
 40
0.7142857142857141
 40
0.7857142857142855
 40
0.7857142857142855
 40
0.7857142857142855
 40
0.7857142857142855
 40
0.8571428571428569
 40
0.8571428571428569
 40
0.8571428571428569
 40
0.8571428571428569
 40
0.9285714285714283
 40
0.9285714285714283
 40
0.9285714285714283
 40
0.9285714285714283
 40
1.0
 40
1.0
 40
1.0
 40
1.0
 10
-0.2843582677165354
 20
2.617775590551181
 30
0.0
 10
-0.2843582677165354
 20
2.617775590551181
 30
0.0
 10
-0.288748031496063
 20
2.623165354330709
 30
0.0
 10
-0.288748031496063
 20
2.623165354330709
 30
0.0
 10
-0.288748031496063
 20
2.623165354330709
 30
0.0
 10
-0.2776338582677165
 20
2.632220472440945
 30
0.0
 10
-0.2720511811023622
 20
2.639775590551181
 30
0.0
 10
-0.2720511811023622
 20
2.645858267716536
 30
0.0
 10
-0.2720511811023622
 20
2.645858267716536
 30
0.0
 10
-0.2720511811023622
 20
2.646551181102362
 30
0.0
 10
-0.2721062992125984
 20
2.64744094488189
 30
0.0
 10
-0.2722204724409449
 20
2.648468503937008
 30
0.0
 10
-0.2722204724409449
 20
2.648468503937008
 30
0.0
 10
-0.2731338582677165
 20
2.648078740157481
 30
0.0
 10
-0.2740511811023622
 20
2.647775590551181
 30
0.0
 10
-0.2749133858267717
 20
2.64757874015748
 30
0.0
 10
-0.2749133858267717
 20
2.64757874015748
 30
0.0
 10
-0.2757755905511811
 20
2.647358267716536
 30
0.0
 10
-0.2765787401574804
 20
2.647248031496063
 30
0.0
 10
-0.2773582677165354
 20
2.647248031496063
 30
0.0
 10
-0.2773582677165354
 20
2.647248031496063
 30
0.0
 10
-0.2799685039370079
 20
2.647248031496063
 30
0.0
 10
-0.2820511811023622
 20
2.648078740157481
 30
0.0
 10
-0.2836062992125984
 20
2.649775590551181
 30
0.0
 10
-0.2836062992125984
 20
2.649775590551181
 30
0.0
 10
-0.2851929133858268
 20
2.65144094488189
 30
0.0
 10
-0.2859685039370079
 20
2.653578740157481
 30
0.0
 10
-0.2859685039370079
 20
2.656192913385827
 30
0.0
 10
-0.2859685039370079
 20
2.656192913385827
 30
0.0
 10
-0.2859685039370079
 20
2.658748031496063
 30
0.0
 10
-0.2850236220472441
 20
2.660968503937008
 30
0.0
 10
-0.2831338582677165
 20
2.662858267716536
 30
0.0
 10
-0.2831338582677165
 20
2.662858267716536
 30
0.0
 10
-0.2812204724409449
 20
2.664775590551181
 30
0.0
 10
-0.2789409448818898
 20
2.665720472440945
 30
0.0
 10
-0.2763031496062992
 20
2.665720472440945
 30
0.0
 10
-0.2763031496062992
 20
2.665720472440945
 30
0.0
 10
-0.2726062992125984
 20
2.665720472440945
 30
0.0
 10
-0.2694409448818898
 20
2.664248031496063
 30
0.0
 10
-0.2668031496062993
 20
2.661275590551181
 30
0.0
 10
-0.2668031496062993
 20
2.661275590551181
 30
0.0
 10
-0.2641929133858268
 20
2.658330708661417
 30
0.0
 10
-0.2628582677165354
 20
2.654523622047244
 30
0.0
 10
-0.2628582677165354
 20
2.649858267716536
 30
0.0
 10
-0.2628582677165354
 20
2.649858267716536
 30
0.0
 10
-0.2628582677165354
 20
2.646803149606299
 30
0.0
 10
-0.263496062992126
 20
2.643606299212598
 30
0.0
 10
-0.264748031496063
 20
2.640275590551181
 30
0.0
 10
-0.264748031496063
 20
2.640275590551181
 30
0.0
 10
-0.265996062992126
 20
2.63694094488189
 30
0.0
 10
-0.2678031496062992
 20
2.633858267716536
 30
0.0
 10
-0.2701929133858268
 20
2.630996062992126
 30
0.0
 10
-0.2701929133858268
 20
2.630996062992126
 30
0.0
 10
-0.2725787401574804
 20
2.628165354330709
 30
0.0
 10
-0.2773031496062992
 20
2.623748031496063
 30
0.0
 10
-0.2843582677165354
 20
2.617775590551181
 30
0.0
  0
SPLINE
  5
A1
330
1F
100
AcDbEntity
  8
LAYER_1
 62
   250
100
AcDbSpline
210
0.0
220
0.0
230
1.0
 70
    11
 71
     3
 72
    60
 73
    56
 74
     0
 42
0.0000000001
 43
0.0000000001
 40
0.0
 40
0.0
 40
0.0
 40
0.0
 40
0.0714285714285714
 40
0.0714285714285714
 40
0.0714285714285714
 40
0.0714285714285714
 40
0.1428571428571429
 40
0.1428571428571429
 40
0.1428571428571429
 40
0.1428571428571429
 40
0.2142857142857143
 40
0.2142857142857143
 40
0.2142857142857143
 40
0.2142857142857143
 40
0.2857142857142857
 40
0.2857142857142857
 40
0.2857142857142857
 40
0.2857142857142857
 40
0.3571428571428571
 40
0.3571428571428571
 40
0.3571428571428571
 40
0.3571428571428571
 40
0.4285714285714285
 40
0.4285714285714285
 40
0.4285714285714285
 40
0.4285714285714285
 40
0.4999999999999999
 40
0.4999999999999999
 40
0.4999999999999999
 40
0.4999999999999999
 40
0.5714285714285713
 40
0.5714285714285713
 40
0.5714285714285713
 40
0.5714285714285713
 40
0.6428571428571427
 40
0.6428571428571427
 40
0.6428571428571427
 40
0.6428571428571427
 40
0.7142857142857141
 40
0.7142857142857141
 40
0.7142857142857141
 40
0.7142857142857141
 40
0.7857142857142855
 40
0.7857142857142855
 40
0.7857142857142855
 40
0.7857142857142855
 40
0.8571428571428569
 40
0.8571428571428569
 40
0.8571428571428569
 40
0.8571428571428569
 40
0.9285714285714283
 40
0.9285714285714283
 40
0.9285714285714283
 40
0.9285714285714283
 40
1.0
 40
1.0
 40
1.0
 40
1.0
 10
-0.2553031496062992
 20
2.617775590551181
 30
0.0
 10
-0.2553031496062992
 20
2.617775590551181
 30
0.0
 10
-0.2596929133858268
 20
2.623165354330709
 30
0.0
 10
-0.2596929133858268
 20
2.623165354330709
 30
0.0
 10
-0.2596929133858268
 20
2.623165354330709
 30
0.0
 10
-0.2485787401574803
 20
2.632220472440945
 30
0.0
 10
-0.242996062992126
 20
2.639775590551181
 30
0.0
 10
-0.242996062992126
 20
2.645858267716536
 30
0.0
 10
-0.242996062992126
 20
2.645858267716536
 30
0.0
 10
-0.242996062992126
 20
2.646551181102362
 30
0.0
 10
-0.2430511811023622
 20
2.64744094488189
 30
0.0
 10
-0.2431653543307087
 20
2.648468503937008
 30
0.0
 10
-0.2431653543307087
 20
2.648468503937008
 30
0.0
 10
-0.2440787401574803
 20
2.648078740157481
 30
0.0
 10
-0.244996062992126
 20
2.647775590551181
 30
0.0
 10
-0.2458582677165354
 20
2.64757874015748
 30
0.0
 10
-0.2458582677165354
 20
2.64757874015748
 30
0.0
 10
-0.2467204724409449
 20
2.647358267716536
 30
0.0
 10
-0.2475511811023622
 20
2.647248031496063
 30
0.0
 10
-0.2483858267716536
 20
2.647248031496063
 30
0.0
 10
-0.2483858267716536
 20
2.647248031496063
 30
0.0
 10
-0.2509409448818898
 20
2.647248031496063
 30
0.0
 10
-0.252996062992126
 20
2.648078740157481
 30
0.0
 10
-0.2545511811023622
 20
2.649775590551181
 30
0.0
 10
-0.2545511811023622
 20
2.649775590551181
 30
0.0
 10
-0.2561338582677166
 20
2.65144094488189
 30
0.0
 10
-0.2569133858267717
 20
2.653578740157481
 30
0.0
 10
-0.2569133858267717
 20
2.656192913385827
 30
0.0
 10
-0.2569133858267717
 20
2.656192913385827
 30
0.0
 10
-0.2569133858267717
 20
2.658748031496063
 30
0.0
 10
-0.2559685039370079
 20
2.660968503937008
 30
0.0
 10
-0.2540787401574803
 20
2.662858267716536
 30
0.0
 10
-0.2540787401574803
 20
2.662858267716536
 30
0.0
 10
-0.2521929133858268
 20
2.664775590551181
 30
0.0
 10
-0.2498858267716536
 20
2.665720472440945
 30
0.0
 10
-0.247248031496063
 20
2.665720472440945
 30
0.0
 10
-0.247248031496063
 20
2.665720472440945
 30
0.0
 10
-0.2435511811023622
 20
2.665720472440945
 30
0.0
 10
-0.2403858267716535
 20
2.664248031496063
 30
0.0
 10
-0.237748031496063
 20
2.661275590551181
 30
0.0
 10
-0.237748031496063
 20
2.661275590551181
 30
0.0
 10
-0.2351377952755906
 20
2.658330708661417
 30
0.0
 10
-0.2338031496062992
 20
2.654523622047244
 30
0.0
 10
-0.2338031496062992
 20
2.649858267716536
 30
0.0
 10
-0.2338031496062992
 20
2.649858267716536
 30
0.0
 10
-0.2338031496062992
 20
2.646803149606299
 30
0.0
 10
-0.2344409448818898
 20
2.643606299212598
 30
0.0
 10
-0.2356929133858268
 20
2.640275590551181
 30
0.0
 10
-0.2356929133858268
 20
2.640275590551181
 30
0.0
 10
-0.2369409448818898
 20
2.63694094488189
 30
0.0
 10
-0.238748031496063
 20
2.633858267716536
 30
0.0
 10
-0.2411338582677166
 20
2.630996062992126
 30
0.0
 10
-0.2411338582677166
 20
2.630996062992126
 30
0.0
 10
-0.2435236220472441
 20
2.628165354330709
 30
0.0
 10
-0.248248031496063
 20
2.623748031496063
 30
0.0
 10
-0.2553031496062992
 20
2.617775590551181
 30
0.0
  0
SPLINE
  5
A2
330
1F
100
AcDbEntity
  8
LAYER_1
 62
   250
100
AcDbSpline
210
0.0
220
0.0
230
1.0
 70
    11
 71
     3
 72
   204
 73
   200
 74
     0
 42
0.0000000001
 43
0.0000000001
 40
0.0
 40
0.0
 40
0.0
 40
0.0
 40
0.02
 40
0.02
 40
0.02
 40
0.02
 40
0.04
 40
0.04
 40
0.04
 40
0.04
 40
0.06
 40
0.06
 40
0.06
 40
0.06
 40
0.08
 40
0.08
 40
0.08
 40
0.08
 40
0.1
 40
0.1
 40
0.1
 40
0.1
 40
0.12
 40
0.12
 40
0.12
 40
0.12
 40
0.14
 40
0.14
 40
0.14
 40
0.14
 40
0.16
 40
0.16
 40
0.16
 40
0.16
 40
0.18
 40
0.18
 40
0.18
 40
0.18
 40
0.2
 40
0.2
 40
0.2
 40
0.2
 40
0.22
 40
0.22
 40
0.22
 40
0.22
 40
0.24
 40
0.24
 40
0.24
 40
0.24
 40
0.26
 40
0.26
 40
0.26
 40
0.26
 40
0.28
 40
0.28
 40
0.28
 40
0.28
 40
0.3
 40
0.3
 40
0.3
 40
0.3
 40
0.32
 40
0.32
 40
0.32
 40
0.32
 40
0.34
 40
0.34
 40
0.34
 40
0.34
 40
0.36
 40
0.36
 40
0.36
 40
0.36
 40
0.3800000000000001
 40
0.3800000000000001
 40
0.3800000000000001
 40
0.3800000000000001
 40
0.4000000000000001
 40
0.4000000000000001
 40
0.4000000000000001
 40
0.4000000000000001
 40
0.4200000000000001
 40
0.4200000000000001
 40
0.4200000000000001
 40
0.4200000000000001
 40
0.4400000000000001
 40
0.4400000000000001
 40
0.4400000000000001
 40
0.4400000000000001
 40
0.4600000000000001
 40
0.4600000000000001
 40
0.4600000000000001
 40
0.4600000000000001
 40
0.4800000000000002
 40
0.4800000000000002
 40
0.4800000000000002
 40
0.4800000000000002
 40
0.5000000000000001
 40
0.5000000000000001
 40
0.5000000000000001
 40
0.5000000000000001
 40
0.5200000000000001
 40
0.5200000000000001
 40
0.5200000000000001
 40
0.5200000000000001
 40
0.5400000000000002
 40
0.5400000000000002
 40
0.5400000000000002
 40
0.5400000000000002
 40
0.5600000000000002
 40
0.5600000000000002
 40
0.5600000000000002
 40
0.5600000000000002
 40
0.5800000000000002
 40
0.5800000000000002
 40
0.5800000000000002
 40
0.5800000000000002
 40
0.6000000000000002
 40
0.6000000000000002
 40
0.6000000000000002
 40
0.6000000000000002
 40
0.6200000000000002
 40
0.6200000000000002
 40
0.6200000000000002
 40
0.6200000000000002
 40
0.6400000000000002
 40
0.6400000000000002
 40
0.6400000000000002
 40
0.6400000000000002
 40
0.6600000000000003
 40
0.6600000000000003
 40
0.6600000000000003
 40
0.6600000000000003
 40
0.6800000000000003
 40
0.6800000000000003
 40
0.6800000000000003
 40
0.6800000000000003
 40
0.7000000000000003
 40
0.7000000000000003
 40
0.7000000000000003
 40
0.7000000000000003
 40
0.7200000000000003
 40
0.7200000000000003
 40
0.7200000000000003
 40
0.7200000000000003
 40
0.7400000000000003
 40
0.7400000000000003
 40
0.7400000000000003
 40
0.7400000000000003
 40
0.7600000000000003
 40
0.7600000000000003
 40
0.7600000000000003
 40
0.7600000000000003
 40
0.7800000000000004
 40
0.7800000000000004
 40
0.7800000000000004
 40
0.7800000000000004
 40
0.8000000000000004
 40
0.8000000000000004
 40
0.8000000000000004
 40
0.8000000000000004
 40
0.8200000000000004
 40
0.8200000000000004
 40
0.8200000000000004
 40
0.8200000000000004
 40
0.8400000000000004
 40
0.8400000000000004
 40
0.8400000000000004
 40
0.8400000000000004
 40
0.8600000000000004
 40
0.8600000000000004
 40
0.8600000000000004
 40
0.8600000000000004
 40
0.8800000000000005
 40
0.8800000000000005
 40
0.8800000000000005
 40
0.8800000000000005
 40
0.9000000000000005
 40
0.9000000000000005
 40
0.9000000000000005
 40
0.9000000000000005
 40
0.9200000000000005
 40
0.9200000000000005
 40
0.9200000000000005
 40
0.9200000000000005
 40
0.9400000000000005
 40
0.9400000000000005
 40
0.9400000000000005
 40
0.9400000000000005
 40
0.9600000000000005
 40
0.9600000000000005
 40
0.9600000000000005
 40
0.9600000000000005
 40
0.9800000000000005
 40
0.9800000000000005
 40
0.9800000000000005
 40
0.9800000000000005
 40
1.0
 40
1.0
 40
1.0
 40
1.0
 10
-0.171496062992126
 20
2.624858267716536
 30
0.0
 10
-0.171496062992126
 20
2.624858267716536
 30
0.0
 10
-0.1305511811023622
 20
2.624858267716536
 30
0.0
 10
-0.1305511811023622
 20
2.624858267716536
 30
0.0
 10
-0.1305511811023622
 20
2.624858267716536
 30
0.0
 10
-0.1305511811023622
 20
2.624858267716536
 30
0.0
 10
-0.1305511811023622
 20
2.618023622047244
 30
0.0
 10
-0.1305511811023622
 20
2.618023622047244
 30
0.0
 10
-0.1305511811023622
 20
2.618023622047244
 30
0.0
 10
-0.1305511811023622
 20
2.618023622047244
 30
0.0
 10
-0.1333858267716536
 20
2.618023622047244
 30
0.0
 10
-0.1333858267716536
 20
2.618023622047244
 30
0.0
 10
-0.1333858267716536
 20
2.618023622047244
 30
0.0
 10
-0.1350236220472441
 20
2.618023622047244
 30
0.0
 10
-0.1365236220472441
 20
2.617830708661417
 30
0.0
 10
-0.1378858267716535
 20
2.617468503937008
 30
0.0
 10
-0.1378858267716535
 20
2.617468503937008
 30
0.0
 10
-0.1386889763779528
 20
2.617248031496063
 30
0.0
 10
-0.1393582677165355
 20
2.616830708661417
 30
0.0
 10
-0.1398582677165355
 20
2.616192913385827
 30
0.0
 10
-0.1398582677165355
 20
2.616192913385827
 30
0.0
 10
-0.1403858267716535
 20
2.61557874015748
 30
0.0
 10
-0.1406338582677165
 20
2.614996062992126
 30
0.0
 10
-0.1406338582677165
 20
2.61444094488189
 30
0.0
 10
-0.1406338582677165
 20
2.61444094488189
 30
0.0
 10
-0.1406338582677165
 20
2.613192913385827
 30
0.0
 10
-0.1396062992125984
 20
2.611330708661417
 30
0.0
 10
-0.1375511811023622
 20
2.608830708661417
 30
0.0
 10
-0.1375511811023622
 20
2.608830708661417
 30
0.0
 10
-0.1375511811023622
 20
2.608830708661417
 30
0.0
 10
-0.1259133858267717
 20
2.594192913385827
 30
0.0
 10
-0.1259133858267717
 20
2.594192913385827
 30
0.0
 10
-0.1259133858267717
 20
2.594192913385827
 30
0.0
 10
-0.1259133858267717
 20
2.594192913385827
 30
0.0
 10
-0.1123307086614173
 20
2.608830708661417
 30
0.0
 10
-0.1123307086614173
 20
2.608830708661417
 30
0.0
 10
-0.1123307086614173
 20
2.608830708661417
 30
0.0
 10
-0.1098307086614173
 20
2.611551181102362
 30
0.0
 10
-0.1085787401574803
 20
2.613578740157481
 30
0.0
 10
-0.1085787401574803
 20
2.61494094488189
 30
0.0
 10
-0.1085787401574803
 20
2.61494094488189
 30
0.0
 10
-0.1085787401574803
 20
2.615913385826772
 30
0.0
 10
-0.1090236220472441
 20
2.616665354330709
 30
0.0
 10
-0.1098858267716536
 20
2.617220472440945
 30
0.0
 10
-0.1098858267716536
 20
2.617220472440945
 30
0.0
 10
-0.110748031496063
 20
2.617748031496063
 30
0.0
 10
-0.1126062992125984
 20
2.618023622047244
 30
0.0
 10
-0.115496062992126
 20
2.618023622047244
 30
0.0
 10
-0.115496062992126
 20
2.618023622047244
 30
0.0
 10
-0.115496062992126
 20
2.618023622047244
 30
0.0
 10
-0.1185787401574803
 20
2.618023622047244
 30
0.0
 10
-0.1185787401574803
 20
2.618023622047244
 30
0.0
 10
-0.1185787401574803
 20
2.618023622047244
 30
0.0
 10
-0.1185787401574803
 20
2.618023622047244
 30
0.0
 10
-0.1185787401574803
 20
2.624858267716536
 30
0.0
 10
-0.1185787401574803
 20
2.624858267716536
 30
0.0
 10
-0.1185787401574803
 20
2.624858267716536
 30
0.0
 10
-0.1185787401574803
 20
2.624858267716536
 30
0.0
 10
-0.0838307086614173
 20
2.624858267716536
 30
0.0
 10
-0.0838307086614173
 20
2.624858267716536
 30
0.0
 10
-0.0838307086614173
 20
2.624858267716536
 30
0.0
 10
-0.0838307086614173
 20
2.624858267716536
 30
0.0
 10
-0.0838307086614173
 20
2.618023622047244
 30
0.0
 10
-0.0838307086614173
 20
2.618023622047244
 30
0.0
 10
-0.0838307086614173
 20
2.618023622047244
 30
0.0
 10
-0.087248031496063
 20
2.617858267716536
 30
0.0
 10
-0.0901929133858268
 20
2.617165354330709
 30
0.0
 10
-0.0926614173228346
 20
2.615913385826772
 30
0.0
 10
-0.0926614173228346
 20
2.615913385826772
 30
0.0
 10
-0.0951338582677165
 20
2.614665354330709
 30
0.0
 10
-0.0980511811023622
 20
2.612303149606299
 30
0.0
 10
-0.1014133858267717
 20
2.608830708661417
 30
0.0
 10
-0.1014133858267717
 20
2.608830708661417
 30
0.0
 10
-0.1014133858267717
 20
2.608830708661417
 30
0.0
 10
-0.1200511811023622
 20
2.589468503937008
 30
0.0
 10
-0.1200511811023622
 20
2.589468503937008
 30
0.0
 10
-0.1200511811023622
 20
2.589468503937008
 30
0.0
 10
-0.1200511811023622
 20
2.589468503937008
 30
0.0
 10
-0.0968582677165354
 20
2.563023622047244
 30
0.0
 10
-0.0968582677165354
 20
2.563023622047244
 30
0.0
 10
-0.0968582677165354
 20
2.563023622047244
 30
0.0
 10
-0.0968582677165354
 20
2.563023622047244
 30
0.0
 10
-0.0959685039370079
 20
2.561885826771654
 30
0.0
 10
-0.0959685039370079
 20
2.561885826771654
 30
0.0
 10
-0.0959685039370079
 20
2.561885826771654
 30
0.0
 10
-0.0936929133858268
 20
2.55894094488189
 30
0.0
 10
-0.0911338582677165
 20
2.55657874015748
 30
0.0
 10
-0.0883031496062992
 20
2.5548031496063
 30
0.0
 10
-0.0883031496062992
 20
2.5548031496063
 30
0.0
 10
-0.086748031496063
 20
2.553775590551181
 30
0.0
 10
-0.0843031496062992
 20
2.553220472440945
 30
0.0
 10
-0.080996062992126
 20
2.553165354330709
 30
0.0
 10
-0.080996062992126
 20
2.553165354330709
 30
0.0
 10
-0.080996062992126
 20
2.553165354330709
 30
0.0
 10
-0.080996062992126
 20
2.546330708661417
 30
0.0
 10
-0.080996062992126
 20
2.546330708661417
 30
0.0
 10
-0.080996062992126
 20
2.546330708661417
 30
0.0
 10
-0.080996062992126
 20
2.546330708661417
 30
0.0
 10
-0.1209409448818898
 20
2.546330708661417
 30
0.0
 10
-0.1209409448818898
 20
2.546330708661417
 30
0.0
 10
-0.1209409448818898
 20
2.546330708661417
 30
0.0
 10
-0.1209409448818898
 20
2.546330708661417
 30
0.0
 10
-0.1209409448818898
 20
2.553165354330709
 30
0.0
 10
-0.1209409448818898
 20
2.553165354330709
 30
0.0
 10
-0.1209409448818898
 20
2.553165354330709
 30
0.0
 10
-0.1209409448818898
 20
2.553165354330709
 30
0.0
 10
-0.1175236220472441
 20
2.553165354330709
 30
0.0
 10
-0.1175236220472441
 20
2.553165354330709
 30
0.0
 10
-0.1175236220472441
 20
2.553165354330709
 30
0.0
 10
-0.1149133858267717
 20
2.553165354330709
 30
0.0
 10
-0.1132755905511811
 20
2.553330708661417
 30
0.0
 10
-0.1125511811023622
 20
2.553665354330709
 30
0.0
 10
-0.1125511811023622
 20
2.553665354330709
 30
0.0
 10
-0.1113858267716536
 20
2.554192913385827
 30
0.0
 10
-0.1107755905511811
 20
2.555110236220473
 30
0.0
 10
-0.1107755905511811
 20
2.556413385826772
 30
0.0
 10
-0.1107755905511811
 20
2.556413385826772
 30
0.0
 10
-0.1107755905511811
 20
2.557610236220473
 30
0.0
 10
-0.1120787401574803
 20
2.559803149606299
 30
0.0
 10
-0.1146929133858268
 20
2.563023622047244
 30
0.0
 10
-0.1146929133858268
 20
2.563023622047244
 30
0.0
 10
-0.1146929133858268
 20
2.563023622047244
 30
0.0
 10
-0.129496062992126
 20
2.581165354330709
 30
0.0
 10
-0.129496062992126
 20
2.581165354330709
 30
0.0
 10
-0.129496062992126
 20
2.581165354330709
 30
0.0
 10
-0.129496062992126
 20
2.581165354330709
 30
0.0
 10
-0.1460236220472441
 20
2.563023622047244
 30
0.0
 10
-0.1460236220472441
 20
2.563023622047244
 30
0.0
 10
-0.1460236220472441
 20
2.563023622047244
 30
0.0
 10
-0.1460236220472441
 20
2.563023622047244
 30
0.0
 10
-0.1476338582677166
 20
2.561051181102362
 30
0.0
 10
-0.1476338582677166
 20
2.561051181102362
 30
0.0
 10
-0.1476338582677166
 20
2.561051181102362
 30
0.0
 10
-0.1476338582677166
 20
2.561051181102362
 30
0.0
 10
-0.1485236220472441
 20
2.560078740157481
 30
0.0
 10
-0.1485236220472441
 20
2.560078740157481
 30
0.0
 10
-0.1485236220472441
 20
2.560078740157481
 30
0.0
 10
-0.1498858267716536
 20
2.558610236220472
 30
0.0
 10
-0.1505787401574803
 20
2.557330708661417
 30
0.0
 10
-0.1505787401574803
 20
2.556192913385827
 30
0.0
 10
-0.1505787401574803
 20
2.556192913385827
 30
0.0
 10
-0.1505787401574803
 20
2.555137795275591
 30
0.0
 10
-0.1501614173228346
 20
2.554385826771654
 30
0.0
 10
-0.1493031496062992
 20
2.553885826771654
 30
0.0
 10
-0.1493031496062992
 20
2.553885826771654
 30
0.0
 10
-0.1484685039370079
 20
2.553413385826772
 30
0.0
 10
-0.1465787401574803
 20
2.553165354330709
 30
0.0
 10
-0.1436614173228347
 20
2.553165354330709
 30
0.0
 10
-0.1436614173228347
 20
2.553165354330709
 30
0.0
 10
-0.1436614173228347
 20
2.553165354330709
 30
0.0
 10
-0.1403858267716535
 20
2.553165354330709
 30
0.0
 10
-0.1403858267716535
 20
2.553165354330709
 30
0.0
 10
-0.1403858267716535
 20
2.553165354330709
 30
0.0
 10
-0.1403858267716535
 20
2.553165354330709
 30
0.0
 10
-0.1403858267716535
 20
2.546330708661417
 30
0.0
 10
-0.1403858267716535
 20
2.546330708661417
 30
0.0
 10
-0.1403858267716535
 20
2.546330708661417
 30
0.0
 10
-0.1403858267716535
 20
2.546330708661417
 30
0.0
 10
-0.1746614173228347
 20
2.546330708661417
 30
0.0
 10
-0.1746614173228347
 20
2.546330708661417
 30
0.0
 10
-0.1746614173228347
 20
2.546330708661417
 30
0.0
 10
-0.1746614173228347
 20
2.546330708661417
 30
0.0
 10
-0.1746614173228347
 20
2.553165354330709
 30
0.0
 10
-0.1746614173228347
 20
2.553165354330709
 30
0.0
 10
-0.1746614173228347
 20
2.553165354330709
 30
0.0
 10
-0.171996062992126
 20
2.553220472440945
 30
0.0
 10
-0.1699133858267717
 20
2.553496062992126
 30
0.0
 10
-0.1683858267716536
 20
2.554023622047244
 30
0.0
 10
-0.1683858267716536
 20
2.554023622047244
 30
0.0
 10
-0.1668858267716536
 20
2.554523622047244
 30
0.0
 10
-0.1654133858267717
 20
2.555330708661417
 30
0.0
 10
-0.163996062992126
 20
2.556413385826772
 30
0.0
 10
-0.163996062992126
 20
2.556413385826772
 30
0.0
 10
-0.1615511811023622
 20
2.558385826771654
 30
0.0
 10
-0.1598031496062992
 20
2.559913385826772
 30
0.0
 10
-0.1587165354330709
 20
2.561051181102362
 30
0.0
 10
-0.1587165354330709
 20
2.561051181102362
 30
0.0
 10
-0.1587165354330709
 20
2.561051181102362
 30
0.0
 10
-0.1348582677165355
 20
2.585551181102362
 30
0.0
 10
-0.1348582677165355
 20
2.585551181102362
 30
0.0
 10
-0.1348582677165355
 20
2.585551181102362
 30
0.0
 10
-0.1348582677165355
 20
2.585551181102362
 30
0.0
 10
-0.1551338582677165
 20
2.608830708661417
 30
0.0
 10
-0.1551338582677165
 20
2.608830708661417
 30
0.0
 10
-0.1551338582677165
 20
2.608830708661417
 30
0.0
 10
-0.1576889763779528
 20
2.611720472440945
 30
0.0
 10
-0.1596889763779528
 20
2.613720472440945
 30
0.0
 10
-0.1611889763779528
 20
2.614885826771654
 30
0.0
 10
-0.1611889763779528
 20
2.614885826771654
 30
0.0
 10
-0.1626889763779528
 20
2.616051181102362
 30
0.0
 10
-0.1641338582677165
 20
2.616885826771654
 30
0.0
 10
-0.1655511811023622
 20
2.617330708661418
 30
0.0
 10
-0.1655511811023622
 20
2.617330708661418
 30
0.0
 10
-0.1669685039370079
 20
2.617803149606299
 30
0.0
 10
-0.1689409448818898
 20
2.618023622047244
 30
0.0
 10
-0.171496062992126
 20
2.618023622047244
 30
0.0
 10
-0.171496062992126
 20
2.618023622047244
 30
0.0
 10
-0.171496062992126
 20
2.618023622047244
 30
0.0
 10
-0.171496062992126
 20
2.624858267716536
 30
0.0
 10
-0.171496062992126
 20
2.624858267716536
 30
0.0
  0
SPLINE
  5
A3
330
1F
100
AcDbEntity
  8
LAYER_1
 62
   250
100
AcDbSpline
210
0.0
220
0.0
230
1.0
 70
    11
 71
     3
 72
    72
 73
    68
 74
     0
 42
0.0000000001
 43
0.0000000001
 40
0.0
 40
0.0
 40
0.0
 40
0.0
 40
0.0588235294117647
 40
0.0588235294117647
 40
0.0588235294117647
 40
0.0588235294117647
 40
0.1176470588235294
 40
0.1176470588235294
 40
0.1176470588235294
 40
0.1176470588235294
 40
0.1764705882352941
 40
0.1764705882352941
 40
0.1764705882352941
 40
0.1764705882352941
 40
0.2352941176470588
 40
0.2352941176470588
 40
0.2352941176470588
 40
0.2352941176470588
 40
0.2941176470588235
 40
0.2941176470588235
 40
0.2941176470588235
 40
0.2941176470588235
 40
0.3529411764705883
 40
0.3529411764705883
 40
0.3529411764705883
 40
0.3529411764705883
 40
0.411764705882353
 40
0.411764705882353
 40
0.411764705882353
 40
0.411764705882353
 40
0.4705882352941177
 40
0.4705882352941177
 40
0.4705882352941177
 40
0.4705882352941177
 40
0.5294117647058824
 40
0.5294117647058824
 40
0.5294117647058824
 40
0.5294117647058824
 40
0.5882352941176471
 40
0.5882352941176471
 40
0.5882352941176471
 40
0.5882352941176471
 40
0.6470588235294118
 40
0.6470588235294118
 40
0.6470588235294118
 40
0.6470588235294118
 40
0.7058823529411765
 40
0.7058823529411765
 40
0.7058823529411765
 40
0.7058823529411765
 40
0.7647058823529412
 40
0.7647058823529412
 40
0.7647058823529412
 40
0.7647058823529412
 40
0.823529411764706
 40
0.823529411764706
 40
0.823529411764706
 40
0.823529411764706
 40
0.8823529411764707
 40
0.8823529411764707
 40
0.8823529411764707
 40
0.8823529411764707
 40
0.9411764705882354
 40
0.9411764705882354
 40
0.9411764705882354
 40
0.9411764705882354
 40
1.0
 40
1.0
 40
1.0
 40
1.0
 10
0.0281417322834646
 20
2.659858267716535
 30
0.0
 10
0.0281417322834646
 20
2.659858267716535
 30
0.0
 10
0.0342244094488189
 20
2.659858267716535
 30
0.0
 10
0.0342244094488189
 20
2.659858267716535
 30
0.0
 10
0.0342244094488189
 20
2.659858267716535
 30
0.0
 10
0.0342244094488189
 20
2.659858267716535
 30
0.0
 10
0.0342244094488189
 20
2.565610236220473
 30
0.0
 10
0.0342244094488189
 20
2.565610236220473
 30
0.0
 10
0.0342244094488189
 20
2.565610236220473
 30
0.0
 10
0.0342244094488189
 20
2.561165354330709
 30
0.0
 10
0.0345314960629921
 20
2.558303149606299
 30
0.0
 10
0.0350866141732284
 20
2.557023622047244
 30
0.0
 10
0.0350866141732284
 20
2.557023622047244
 30
0.0
 10
0.0356692913385827
 20
2.555748031496063
 30
0.0
 10
0.0365866141732283
 20
2.5548031496063
 30
0.0
 10
0.0378897637795276
 20
2.554137795275591
 30
0.0
 10
0.0378897637795276
 20
2.554137795275591
 30
0.0
 10
0.0391968503937008
 20
2.553496062992126
 30
0.0
 10
0.0417795275590551
 20
2.553165354330709
 30
0.0
 10
0.0456417322834646
 20
2.553165354330709
 30
0.0
 10
0.0456417322834646
 20
2.553165354330709
 30
0.0
 10
0.0456417322834646
 20
2.553165354330709
 30
0.0
 10
0.0536141732283465
 20
2.553165354330709
 30
0.0
 10
0.0536141732283465
 20
2.553165354330709
 30
0.0
 10
0.0536141732283465
 20
2.553165354330709
 30
0.0
 10
0.0536141732283465
 20
2.553165354330709
 30
0.0
 10
0.0536141732283465
 20
2.546330708661417
 30
0.0
 10
0.0536141732283465
 20
2.546330708661417
 30
0.0
 10
0.0536141732283465
 20
2.546330708661417
 30
0.0
 10
0.0536141732283465
 20
2.546330708661417
 30
0.0
 10
-0.0000236220472441
 20
2.546330708661417
 30
0.0
 10
-0.0000236220472441
 20
2.546330708661417
 30
0.0
 10
-0.0000236220472441
 20
2.546330708661417
 30
0.0
 10
-0.0000236220472441
 20
2.546330708661417
 30
0.0
 10
-0.0000236220472441
 20
2.553165354330709
 30
0.0
 10
-0.0000236220472441
 20
2.553165354330709
 30
0.0
 10
-0.0000236220472441
 20
2.553165354330709
 30
0.0
 10
-0.0000236220472441
 20
2.553165354330709
 30
0.0
 10
0.0088346456692913
 20
2.553165354330709
 30
0.0
 10
0.0088346456692913
 20
2.553165354330709
 30
0.0
 10
0.0088346456692913
 20
2.553165354330709
 30
0.0
 10
0.0126968503937008
 20
2.553165354330709
 30
0.0
 10
0.015251968503937
 20
2.553496062992126
 30
0.0
 10
0.0165314960629921
 20
2.554192913385827
 30
0.0
 10
0.0165314960629921
 20
2.554192913385827
 30
0.0
 10
0.0178070866141732
 20
2.554858267716536
 30
0.0
 10
0.0188070866141732
 20
2.55594094488189
 30
0.0
 10
0.019503937007874
 20
2.55744094488189
 30
0.0
 10
0.019503937007874
 20
2.55744094488189
 30
0.0
 10
0.0201968503937008
 20
2.55894094488189
 30
0.0
 10
0.0205590551181102
 20
2.561665354330709
 30
0.0
 10
0.0205590551181102
 20
2.565610236220473
 30
0.0
 10
0.0205590551181102
 20
2.565610236220473
 30
0.0
 10
0.0205590551181102
 20
2.565610236220473
 30
0.0
 10
0.0205590551181102
 20
2.64307874015748
 30
0.0
 10
0.0205590551181102
 20
2.64307874015748
 30
0.0
 10
0.0205590551181102
 20
2.64307874015748
 30
0.0
 10
0.0205590551181102
 20
2.64307874015748
 30
0.0
 10
-0.0000236220472441
 20
2.64307874015748
 30
0.0
 10
-0.0000236220472441
 20
2.64307874015748
 30
0.0
 10
-0.0000236220472441
 20
2.64307874015748
 30
0.0
 10
-0.0000236220472441
 20
2.64307874015748
 30
0.0
 10
-0.0000236220472441
 20
2.65007874015748
 30
0.0
 10
-0.0000236220472441
 20
2.65007874015748
 30
0.0
 10
-0.0000236220472441
 20
2.65007874015748
 30
0.0
 10
0.0111968503937008
 20
2.651661417322835
 30
0.0
 10
0.0205866141732283
 20
2.654913385826772
 30
0.0
 10
0.0281417322834646
 20
2.659858267716535
 30
0.0
  0
SPLINE
  5
A4
330
1F
100
AcDbEntity
  8
LAYER_1
 62
   250
100
AcDbSpline
210
0.0
220
0.0
230
1.0
 70
    11
 71
     3
 72
    20
 73
    16
 74
     0
 42
0.0000000001
 43
0.0000000001
 40
0.0
 40
0.0
 40
0.0
 40
0.0
 40
0.25
 40
0.25
 40
0.25
 40
0.25
 40
0.5
 40
0.5
 40
0.5
 40
0.5
 40
0.75
 40
0.75
 40
0.75
 40
0.75
 40
1.0
 40
1.0
 40
1.0
 40
1.0
 10
0.0846141732283465
 20
2.592803149606299
 30
0.0
 10
0.0846141732283465
 20
2.592803149606299
 30
0.0
 10
0.1329488188976378
 20
2.592803149606299
 30
0.0
 10
0.1329488188976378
 20
2.592803149606299
 30
0.0
 10
0.1329488188976378
 20
2.592803149606299
 30
0.0
 10
0.1329488188976378
 20
2.592803149606299
 30
0.0
 10
0.1329488188976378
 20
2.582720472440945
 30
0.0
 10
0.1329488188976378
 20
2.582720472440945
 30
0.0
 10
0.1329488188976378
 20
2.582720472440945
 30
0.0
 10
0.1329488188976378
 20
2.582720472440945
 30
0.0
 10
0.0846141732283465
 20
2.582720472440945
 30
0.0
 10
0.0846141732283465
 20
2.582720472440945
 30
0.0
 10
0.0846141732283465
 20
2.582720472440945
 30
0.0
 10
0.0846141732283465
 20
2.582720472440945
 30
0.0
 10
0.0846141732283465
 20
2.592803149606299
 30
0.0
 10
0.0846141732283465
 20
2.592803149606299
 30
0.0
  0
SPLINE
  5
A5
330
1F
100
AcDbEntity
  8
LAYER_1
 62
   250
100
AcDbSpline
210
0.0
220
0.0
230
1.0
 70
    11
 71
     3
 72
   132
 73
   128
 74
     0
 42
0.0000000001
 43
0.0000000001
 40
0.0
 40
0.0
 40
0.0
 40
0.0
 40
0.03125
 40
0.03125
 40
0.03125
 40
0.03125
 40
0.0625
 40
0.0625
 40
0.0625
 40
0.0625
 40
0.09375
 40
0.09375
 40
0.09375
 40
0.09375
 40
0.125
 40
0.125
 40
0.125
 40
0.125
 40
0.15625
 40
0.15625
 40
0.15625
 40
0.15625
 40
0.1875
 40
0.1875
 40
0.1875
 40
0.1875
 40
0.21875
 40
0.21875
 40
0.21875
 40
0.21875
 40
0.25
 40
0.25
 40
0.25
 40
0.25
 40
0.28125
 40
0.28125
 40
0.28125
 40
0.28125
 40
0.3125
 40
0.3125
 40
0.3125
 40
0.3125
 40
0.34375
 40
0.34375
 40
0.34375
 40
0.34375
 40
0.375
 40
0.375
 40
0.375
 40
0.375
 40
0.40625
 40
0.40625
 40
0.40625
 40
0.40625
 40
0.4375
 40
0.4375
 40
0.4375
 40
0.4375
 40
0.46875
 40
0.46875
 40
0.46875
 40
0.46875
 40
0.5
 40
0.5
 40
0.5
 40
0.5
 40
0.53125
 40
0.53125
 40
0.53125
 40
0.53125
 40
0.5625
 40
0.5625
 40
0.5625
 40
0.5625
 40
0.59375
 40
0.59375
 40
0.59375
 40
0.59375
 40
0.625
 40
0.625
 40
0.625
 40
0.625
 40
0.65625
 40
0.65625
 40
0.65625
 40
0.65625
 40
0.6875
 40
0.6875
 40
0.6875
 40
0.6875
 40
0.71875
 40
0.71875
 40
0.71875
 40
0.71875
 40
0.75
 40
0.75
 40
0.75
 40
0.75
 40
0.78125
 40
0.78125
 40
0.78125
 40
0.78125
 40
0.8125
 40
0.8125
 40
0.8125
 40
0.8125
 40
0.84375
 40
0.84375
 40
0.84375
 40
0.84375
 40
0.875
 40
0.875
 40
0.875
 40
0.875
 40
0.90625
 40
0.90625
 40
0.90625
 40
0.90625
 40
0.9375
 40
0.9375
 40
0.9375
 40
0.9375
 40
0.96875
 40
0.96875
 40
0.96875
 40
0.96875
 40
1.0
 40
1.0
 40
1.0
 40
1.0
 10
0.1645314960629921
 20
2.659858267716535
 30
0.0
 10
0.1645314960629921
 20
2.659858267716535
 30
0.0
 10
0.2151417322834646
 20
2.659858267716535
 30
0.0
 10
0.2151417322834646
 20
2.659858267716535
 30
0.0
 10
0.2151417322834646
 20
2.659858267716535
 30
0.0
 10
0.2182244094488189
 20
2.659858267716535
 30
0.0
 10
0.2201141732283465
 20
2.660023622047244
 30
0.0
 10
0.220751968503937
 20
2.660358267716536
 30
0.0
 10
0.220751968503937
 20
2.660358267716536
 30
0.0
 10
0.2216692913385827
 20
2.660885826771654
 30
0.0
 10
0.2222244094488189
 20
2.662051181102362
 30
0.0
 10
0.2223897637795276
 20
2.663830708661418
 30
0.0
 10
0.2223897637795276
 20
2.663830708661418
 30
0.0
 10
0.2223897637795276
 20
2.663830708661418
 30
0.0
 10
0.2283346456692914
 20
2.663830708661418
 30
0.0
 10
0.2283346456692914
 20
2.663830708661418
 30
0.0
 10
0.2283346456692914
 20
2.663830708661418
 30
0.0
 10
0.2283346456692914
 20
2.663830708661418
 30
0.0
 10
0.2283346456692914
 20
2.646661417322835
 30
0.0
 10
0.2283346456692914
 20
2.646661417322835
 30
0.0
 10
0.2283346456692914
 20
2.646661417322835
 30
0.0
 10
0.2283346456692914
 20
2.646661417322835
 30
0.0
 10
0.1720866141732284
 20
2.646661417322835
 30
0.0
 10
0.1720866141732284
 20
2.646661417322835
 30
0.0
 10
0.1720866141732284
 20
2.646661417322835
 30
0.0
 10
0.1720866141732284
 20
2.646661417322835
 30
0.0
 10
0.1706968503937008
 20
2.618023622047244
 30
0.0
 10
0.1706968503937008
 20
2.618023622047244
 30
0.0
 10
0.1706968503937008
 20
2.618023622047244
 30
0.0
 10
0.1730314960629922
 20
2.618692913385827
 30
0.0
 10
0.176003937007874
 20
2.619220472440945
 30
0.0
 10
0.1795866141732284
 20
2.619665354330709
 30
0.0
 10
0.1795866141732284
 20
2.619665354330709
 30
0.0
 10
0.1841968503937008
 20
2.620192913385827
 30
0.0
 10
0.1883070866141732
 20
2.620468503937008
 30
0.0
 10
0.1919488188976378
 20
2.620468503937008
 30
0.0
 10
0.1919488188976378
 20
2.620468503937008
 30
0.0
 10
0.201003937007874
 20
2.620468503937008
 30
0.0
 10
0.2088897637795276
 20
2.618830708661418
 30
0.0
 10
0.2156417322834646
 20
2.61557874015748
 30
0.0
 10
0.2156417322834646
 20
2.61557874015748
 30
0.0
 10
0.2223622047244095
 20
2.612330708661418
 30
0.0
 10
0.2274724409448819
 20
2.607858267716535
 30
0.0
 10
0.2309724409448819
 20
2.602192913385827
 30
0.0
 10
0.2309724409448819
 20
2.602192913385827
 30
0.0
 10
0.2344724409448819
 20
2.596523622047244
 30
0.0
 10
0.2362244094488189
 20
2.590192913385827
 30
0.0
 10
0.2362244094488189
 20
2.583192913385827
 30
0.0
 10
0.2362244094488189
 20
2.583192913385827
 30
0.0
 10
0.2362244094488189
 20
2.572358267716536
 30
0.0
 10
0.2321417322834646
 20
2.563165354330709
 30
0.0
 10
0.224003937007874
 20
2.555637795275591
 30
0.0
 10
0.224003937007874
 20
2.555637795275591
 30
0.0
 10
0.2158622047244095
 20
2.548137795275591
 30
0.0
 10
0.205503937007874
 20
2.544385826771654
 30
0.0
 10
0.1929173228346457
 20
2.544385826771654
 30
0.0
 10
0.1929173228346457
 20
2.544385826771654
 30
0.0
 10
0.1856417322834646
 20
2.544385826771654
 30
0.0
 10
0.1790866141732284
 20
2.545692913385827
 30
0.0
 10
0.1731968503937008
 20
2.548275590551181
 30
0.0
 10
0.1731968503937008
 20
2.548275590551181
 30
0.0
 10
0.1673070866141732
 20
2.550885826771653
 30
0.0
 10
0.1626968503937008
 20
2.554330708661417
 30
0.0
 10
0.1593897637795276
 20
2.55857874015748
 30
0.0
 10
0.1593897637795276
 20
2.55857874015748
 30
0.0
 10
0.1560866141732284
 20
2.562830708661418
 30
0.0
 10
0.1544212598425197
 20
2.56657874015748
 30
0.0
 10
0.1544212598425197
 20
2.569775590551181
 30
0.0
 10
0.1544212598425197
 20
2.569775590551181
 30
0.0
 10
0.1544212598425197
 20
2.571885826771654
 30
0.0
 10
0.1551417322834646
 20
2.573720472440945
 30
0.0
 10
0.1565590551181103
 20
2.575275590551181
 30
0.0
 10
0.1565590551181103
 20
2.575275590551181
 30
0.0
 10
0.1579488188976378
 20
2.576803149606299
 30
0.0
 10
0.1597795275590551
 20
2.577578740157481
 30
0.0
 10
0.162003937007874
 20
2.577578740157481
 30
0.0
 10
0.162003937007874
 20
2.577578740157481
 30
0.0
 10
0.1642795275590551
 20
2.577578740157481
 30
0.0
 10
0.1662795275590551
 20
2.576637795275591
 30
0.0
 10
0.1680314960629921
 20
2.574720472440945
 30
0.0
 10
0.1680314960629921
 20
2.574720472440945
 30
0.0
 10
0.169003937007874
 20
2.573748031496063
 30
0.0
 10
0.1701692913385827
 20
2.571358267716536
 30
0.0
 10
0.1715314960629921
 20
2.56757874015748
 30
0.0
 10
0.1715314960629921
 20
2.56757874015748
 30
0.0
 10
0.1733622047244095
 20
2.562248031496063
 30
0.0
 10
0.1761141732283465
 20
2.558358267716536
 30
0.0
 10
0.179751968503937
 20
2.555858267716535
 30
0.0
 10
0.179751968503937
 20
2.555858267716535
 30
0.0
 10
0.1833070866141733
 20
2.553303149606299
 30
0.0
 10
0.1878346456692913
 20
2.552023622047244
 30
0.0
 10
0.193251968503937
 20
2.552023622047244
 30
0.0
 10
0.193251968503937
 20
2.552023622047244
 30
0.0
 10
0.1986692913385827
 20
2.552023622047244
 30
0.0
 10
0.203503937007874
 20
2.553220472440945
 30
0.0
 10
0.2077244094488189
 20
2.55557874015748
 30
0.0
 10
0.2077244094488189
 20
2.55557874015748
 30
0.0
 10
0.2119763779527559
 20
2.557913385826772
 30
0.0
 10
0.2153070866141733
 20
2.561330708661417
 30
0.0
 10
0.217751968503937
 20
2.565748031496063
 30
0.0
 10
0.217751968503937
 20
2.565748031496063
 30
0.0
 10
0.2201968503937008
 20
2.570165354330709
 30
0.0
 10
0.2214173228346457
 20
2.575078740157481
 30
0.0
 10
0.2214173228346457
 20
2.580496062992126
 30
0.0
 10
0.2214173228346457
 20
2.580496062992126
 30
0.0
 10
0.2214173228346457
 20
2.586220472440945
 30
0.0
 10
0.2200866141732284
 20
2.591275590551181
 30
0.0
 10
0.2174448818897638
 20
2.595720472440945
 30
0.0
 10
0.2174448818897638
 20
2.595720472440945
 30
0.0
 10
0.2148346456692913
 20
2.600165354330709
 30
0.0
 10
0.2110590551181102
 20
2.603633858267717
 30
0.0
 10
0.2061417322834646
 20
2.606051181102362
 30
0.0
 10
0.2061417322834646
 20
2.606051181102362
 30
0.0
 10
0.2012244094488189
 20
2.608496062992126
 30
0.0
 10
0.195251968503937
 20
2.609720472440945
 30
0.0
 10
0.1881968503937008
 20
2.609720472440945
 30
0.0
 10
0.1881968503937008
 20
2.609720472440945
 30
0.0
 10
0.1839173228346457
 20
2.609720472440945
 30
0.0
 10
0.1793070866141732
 20
2.609275590551181
 30
0.0
 10
0.1744173228346457
 20
2.608330708661418
 30
0.0
 10
0.1744173228346457
 20
2.608330708661418
 30
0.0
 10
0.169503937007874
 20
2.607413385826772
 30
0.0
 10
0.1652795275590551
 20
2.606248031496063
 30
0.0
 10
0.161751968503937
 20
2.604830708661417
 30
0.0
 10
0.161751968503937
 20
2.604830708661417
 30
0.0
 10
0.161751968503937
 20
2.604830708661417
 30
0.0
 10
0.1645314960629921
 20
2.659858267716535
 30
0.0
 10
0.1645314960629921
 20
2.659858267716535
 30
0.0
  0
SPLINE
  5
A6
330
1F
100
AcDbEntity
  8
LAYER_1
 62
   250
100
AcDbSpline
210
0.0
220
0.0
230
1.0
 70
    11
 71
     3
 72
    20
 73
    16
 74
     0
 42
0.0000000001
 43
0.0000000001
 40
0.0
 40
0.0
 40
0.0
 40
0.0
 40
0.25
 40
0.25
 40
0.25
 40
0.25
 40
0.5
 40
0.5
 40
0.5
 40
0.5
 40
0.75
 40
0.75
 40
0.75
 40
0.75
 40
1.0
 40
1.0
 40
1.0
 40
1.0
 10
0.3269763779527559
 20
2.665720472440945
 30
0.0
 10
0.3269763779527559
 20
2.665720472440945
 30
0.0
 10
0.2713937007874016
 20
2.510023622047244
 30
0.0
 10
0.2713937007874016
 20
2.510023622047244
 30
0.0
 10
0.2713937007874016
 20
2.510023622047244
 30
0.0
 10
0.2713937007874016
 20
2.510023622047244
 30
0.0
 10
0.2593385826771654
 20
2.510023622047244
 30
0.0
 10
0.2593385826771654
 20
2.510023622047244
 30
0.0
 10
0.2593385826771654
 20
2.510023622047244
 30
0.0
 10
0.2593385826771654
 20
2.510023622047244
 30
0.0
 10
0.3145866141732284
 20
2.665720472440945
 30
0.0
 10
0.3145866141732284
 20
2.665720472440945
 30
0.0
 10
0.3145866141732284
 20
2.665720472440945
 30
0.0
 10
0.3145866141732284
 20
2.665720472440945
 30
0.0
 10
0.3269763779527559
 20
2.665720472440945
 30
0.0
 10
0.3269763779527559
 20
2.665720472440945
 30
0.0
  0
SPLINE
  5
A7
330
1F
100
AcDbEntity
  8
LAYER_1
 62
   250
100
AcDbSpline
210
0.0
220
0.0
230
1.0
 70
    11
 71
     3
 72
    76
 73
    72
 74
     0
 42
0.0000000001
 43
0.0000000001
 40
0.0
 40
0.0
 40
0.0
 40
0.0
 40
0.0555555555555556
 40
0.0555555555555556
 40
0.0555555555555556
 40
0.0555555555555556
 40
0.1111111111111111
 40
0.1111111111111111
 40
0.1111111111111111
 40
0.1111111111111111
 40
0.1666666666666667
 40
0.1666666666666667
 40
0.1666666666666667
 40
0.1666666666666667
 40
0.2222222222222222
 40
0.2222222222222222
 40
0.2222222222222222
 40
0.2222222222222222
 40
0.2777777777777778
 40
0.2777777777777778
 40
0.2777777777777778
 40
0.2777777777777778
 40
0.3333333333333334
 40
0.3333333333333334
 40
0.3333333333333334
 40
0.3333333333333334
 40
0.388888888888889
 40
0.388888888888889
 40
0.388888888888889
 40
0.388888888888889
 40
0.4444444444444445
 40
0.4444444444444445
 40
0.4444444444444445
 40
0.4444444444444445
 40
0.5000000000000001
 40
0.5000000000000001
 40
0.5000000000000001
 40
0.5000000000000001
 40
0.5555555555555557
 40
0.5555555555555557
 40
0.5555555555555557
 40
0.5555555555555557
 40
0.6111111111111113
 40
0.6111111111111113
 40
0.6111111111111113
 40
0.6111111111111113
 40
0.6666666666666669
 40
0.6666666666666669
 40
0.6666666666666669
 40
0.6666666666666669
 40
0.7222222222222224
 40
0.7222222222222224
 40
0.7222222222222224
 40
0.7222222222222224
 40
0.777777777777778
 40
0.777777777777778
 40
0.777777777777778
 40
0.777777777777778
 40
0.8333333333333336
 40
0.8333333333333336
 40
0.8333333333333336
 40
0.8333333333333336
 40
0.8888888888888892
 40
0.8888888888888892
 40
0.8888888888888892
 40
0.8888888888888892
 40
0.9444444444444448
 40
0.9444444444444448
 40
0.9444444444444448
 40
0.9444444444444448
 40
1.0
 40
1.0
 40
1.0
 40
1.0
 10
0.4099763779527559
 20
2.609330708661418
 30
0.0
 10
0.4163937007874016
 20
2.606885826771654
 30
0.0
 10
0.4212795275590551
 20
2.60457874015748
 30
0.0
 10
0.4246417322834646
 20
2.602413385826772
 30
0.0
 10
0.4246417322834646
 20
2.602413385826772
 30
0.0
 10
0.4295590551181103
 20
2.599248031496063
 30
0.0
 10
0.4332795275590551
 20
2.595551181102362
 30
0.0
 10
0.4357795275590551
 20
2.591303149606299
 30
0.0
 10
0.4357795275590551
 20
2.591303149606299
 30
0.0
 10
0.4382795275590551
 20
2.587023622047244
 30
0.0
 10
0.4395314960629921
 20
2.582413385826772
 30
0.0
 10
0.4395314960629921
 20
2.577413385826772
 30
0.0
 10
0.4395314960629921
 20
2.577413385826772
 30
0.0
 10
0.4395314960629921
 20
2.568468503937008
 30
0.0
 10
0.4356692913385827
 20
2.560720472440945
 30
0.0
 10
0.427976377952756
 20
2.554192913385827
 30
0.0
 10
0.427976377952756
 20
2.554192913385827
 30
0.0
 10
0.420251968503937
 20
2.547637795275591
 30
0.0
 10
0.4098661417322835
 20
2.544385826771654
 30
0.0
 10
0.3968070866141732
 20
2.544385826771654
 30
0.0
 10
0.3968070866141732
 20
2.544385826771654
 30
0.0
 10
0.3829763779527559
 20
2.544385826771654
 30
0.0
 10
0.3721141732283465
 20
2.548078740157481
 30
0.0
 10
0.364251968503937
 20
2.55544094488189
 30
0.0
 10
0.364251968503937
 20
2.55544094488189
 30
0.0
 10
0.358003937007874
 20
2.561358267716535
 30
0.0
 10
0.3548937007874016
 20
2.568051181102363
 30
0.0
 10
0.3548937007874016
 20
2.575551181102362
 30
0.0
 10
0.3548937007874016
 20
2.575551181102362
 30
0.0
 10
0.3548937007874016
 20
2.581578740157481
 30
0.0
 10
0.357003937007874
 20
2.586968503937008
 30
0.0
 10
0.3612244094488189
 20
2.591748031496063
 30
0.0
 10
0.3612244094488189
 20
2.591748031496063
 30
0.0
 10
0.3663385826771654
 20
2.59744094488189
 30
0.0
 10
0.3736141732283465
 20
2.601885826771654
 30
0.0
 10
0.3830590551181102
 20
2.60507874015748
 30
0.0
 10
0.3830590551181102
 20
2.60507874015748
 30
0.0
 10
0.3756692913385827
 20
2.608551181102362
 30
0.0
 10
0.3703661417322835
 20
2.612078740157481
 30
0.0
 10
0.3670866141732284
 20
2.615665354330709
 30
0.0
 10
0.3670866141732284
 20
2.615665354330709
 30
0.0
 10
0.3629212598425197
 20
2.620385826771654
 30
0.0
 10
0.3608385826771653
 20
2.626051181102362
 30
0.0
 10
0.3608385826771653
 20
2.632661417322835
 30
0.0
 10
0.3608385826771653
 20
2.632661417322835
 30
0.0
 10
0.3608385826771653
 20
2.640858267716535
 30
0.0
 10
0.3639212598425197
 20
2.647496062992126
 30
0.0
 10
0.3701141732283464
 20
2.652523622047244
 30
0.0
 10
0.3701141732283464
 20
2.652523622047244
 30
0.0
 10
0.3776968503937008
 20
2.658720472440945
 30
0.0
 10
0.3871968503937008
 20
2.661803149606299
 30
0.0
 10
0.3985866141732284
 20
2.661803149606299
 30
0.0
 10
0.3985866141732284
 20
2.661803149606299
 30
0.0
 10
0.409003937007874
 20
2.661803149606299
 30
0.0
 10
0.4174212598425197
 20
2.659133858267717
 30
0.0
 10
0.4238661417322835
 20
2.653803149606299
 30
0.0
 10
0.4238661417322835
 20
2.653803149606299
 30
0.0
 10
0.4302795275590551
 20
2.64844094488189
 30
0.0
 10
0.433503937007874
 20
2.642330708661417
 30
0.0
 10
0.433503937007874
 20
2.63544094488189
 30
0.0
 10
0.433503937007874
 20
2.63544094488189
 30
0.0
 10
0.433503937007874
 20
2.632023622047244
 30
0.0
 10
0.4326968503937008
 20
2.628748031496063
 30
0.0
 10
0.4311141732283465
 20
2.625633858267717
 30
0.0
 10
0.4311141732283465
 20
2.625633858267717
 30
0.0
 10
0.429503937007874
 20
2.622523622047244
 30
0.0
 10
0.4270590551181103
 20
2.619606299212598
 30
0.0
 10
0.4237244094488189
 20
2.61694094488189
 30
0.0
 10
0.4237244094488189
 20
2.61694094488189
 30
0.0
 10
0.4204212598425197
 20
2.614248031496063
 30
0.0
 10
0.4158346456692914
 20
2.611720472440945
 30
0.0
 10
0.4099763779527559
 20
2.609330708661418
 30
0.0
  0
SPLINE
  5
A8
330
1F
100
AcDbEntity
  8
LAYER_1
 62
   250
100
AcDbSpline
210
0.0
220
0.0
230
1.0
 70
    11
 71
     3
 72
    48
 73
    44
 74
     0
 42
0.0000000001
 43
0.0000000001
 40
0.0
 40
0.0
 40
0.0
 40
0.0
 40
0.0909090909090909
 40
0.0909090909090909
 40
0.0909090909090909
 40
0.0909090909090909
 40
0.1818181818181818
 40
0.1818181818181818
 40
0.1818181818181818
 40
0.1818181818181818
 40
0.2727272727272727
 40
0.2727272727272727
 40
0.2727272727272727
 40
0.2727272727272727
 40
0.3636363636363637
 40
0.3636363636363637
 40
0.3636363636363637
 40
0.3636363636363637
 40
0.4545454545454546
 40
0.4545454545454546
 40
0.4545454545454546
 40
0.4545454545454546
 40
0.5454545454545455
 40
0.5454545454545455
 40
0.5454545454545455
 40
0.5454545454545455
 40
0.6363636363636365
 40
0.6363636363636365
 40
0.6363636363636365
 40
0.6363636363636365
 40
0.7272727272727274
 40
0.7272727272727274
 40
0.7272727272727274
 40
0.7272727272727274
 40
0.8181818181818183
 40
0.8181818181818183
 40
0.8181818181818183
 40
0.8181818181818183
 40
0.9090909090909093
 40
0.9090909090909093
 40
0.9090909090909093
 40
0.9090909090909093
 40
1.0
 40
1.0
 40
1.0
 40
1.0
 10
0.4025866141732284
 20
2.612330708661418
 30
0.0
 10
0.408751968503937
 20
2.616996062992126
 30
0.0
 10
0.4127795275590551
 20
2.620248031496063
 30
0.0
 10
0.4146141732283465
 20
2.622106299212599
 30
0.0
 10
0.4146141732283465
 20
2.622106299212599
 30
0.0
 10
0.4164763779527559
 20
2.62394094488189
 30
0.0
 10
0.4178937007874016
 20
2.626051181102362
 30
0.0
 10
0.4188937007874016
 20
2.628413385826772
 30
0.0
 10
0.4188937007874016
 20
2.628413385826772
 30
0.0
 10
0.4198937007874016
 20
2.630775590551181
 30
0.0
 10
0.4203937007874016
 20
2.633051181102363
 30
0.0
 10
0.4203937007874016
 20
2.635275590551181
 30
0.0
 10
0.4203937007874016
 20
2.635275590551181
 30
0.0
 10
0.4203937007874016
 20
2.638468503937008
 30
0.0
 10
0.4194488188976378
 20
2.641523622047244
 30
0.0
 10
0.4175590551181103
 20
2.64444094488189
 30
0.0
 10
0.4175590551181103
 20
2.64444094488189
 30
0.0
 10
0.4156417322834646
 20
2.647330708661417
 30
0.0
 10
0.4128661417322835
 20
2.649692913385827
 30
0.0
 10
0.4091968503937008
 20
2.651468503937008
 30
0.0
 10
0.4091968503937008
 20
2.651468503937008
 30
0.0
 10
0.4055590551181103
 20
2.653275590551181
 30
0.0
 10
0.4014488188976378
 20
2.654161417322835
 30
0.0
 10
0.3968937007874016
 20
2.654161417322835
 30
0.0
 10
0.3968937007874016
 20
2.654161417322835
 30
0.0
 10
0.3901417322834646
 20
2.654161417322835
 30
0.0
 10
0.3845590551181102
 20
2.652303149606299
 30
0.0
 10
0.3801141732283465
 20
2.64857874015748
 30
0.0
 10
0.3801141732283465
 20
2.64857874015748
 30
0.0
 10
0.3756692913385827
 20
2.644858267716535
 30
0.0
 10
0.3734488188976378
 20
2.64057874015748
 30
0.0
 10
0.3734488188976378
 20
2.635692913385827
 30
0.0
 10
0.3734488188976378
 20
2.635692913385827
 30
0.0
 10
0.3734488188976378
 20
2.631775590551181
 30
0.0
 10
0.3748385826771654
 20
2.628275590551181
 30
0.0
 10
0.3775866141732284
 20
2.625192913385827
 30
0.0
 10
0.3775866141732284
 20
2.625192913385827
 30
0.0
 10
0.3803661417322835
 20
2.622106299212599
 30
0.0
 10
0.3855039370078741
 20
2.619051181102362
 30
0.0
 10
0.3930590551181102
 20
2.616078740157481
 30
0.0
 10
0.3930590551181102
 20
2.616078740157481
 30
0.0
 10
0.3930590551181102
 20
2.616078740157481
 30
0.0
 10
0.4025866141732284
 20
2.612330708661418
 30
0.0
 10
0.4025866141732284
 20
2.612330708661418
 30
0.0
  0
SPLINE
  5
A9
330
1F
100
AcDbEntity
  8
LAYER_1
 62
   250
100
AcDbSpline
210
0.0
220
0.0
230
1.0
 70
    11
 71
     3
 72
    40
 73
    36
 74
     0
 42
0.0000000001
 43
0.0000000001
 40
0.0
 40
0.0
 40
0.0
 40
0.0
 40
0.1111111111111111
 40
0.1111111111111111
 40
0.1111111111111111
 40
0.1111111111111111
 40
0.2222222222222222
 40
0.2222222222222222
 40
0.2222222222222222
 40
0.2222222222222222
 40
0.3333333333333333
 40
0.3333333333333333
 40
0.3333333333333333
 40
0.3333333333333333
 40
0.4444444444444444
 40
0.4444444444444444
 40
0.4444444444444444
 40
0.4444444444444444
 40
0.5555555555555556
 40
0.5555555555555556
 40
0.5555555555555556
 40
0.5555555555555556
 40
0.6666666666666667
 40
0.6666666666666667
 40
0.6666666666666667
 40
0.6666666666666667
 40
0.7777777777777779
 40
0.7777777777777779
 40
0.7777777777777779
 40
0.7777777777777779
 40
0.8888888888888891
 40
0.8888888888888891
 40
0.8888888888888891
 40
0.8888888888888891
 40
1.0
 40
1.0
 40
1.0
 40
1.0
 10
0.3911141732283465
 20
2.601913385826772
 30
0.0
 10
0.3834488188976378
 20
2.598551181102363
 30
0.0
 10
0.3773937007874016
 20
2.594192913385827
 30
0.0
 10
0.3729488188976378
 20
2.588803149606299
 30
0.0
 10
0.3729488188976378
 20
2.588803149606299
 30
0.0
 10
0.3694763779527559
 20
2.58457874015748
 30
0.0
 10
0.367751968503937
 20
2.580192913385827
 30
0.0
 10
0.367751968503937
 20
2.575637795275591
 30
0.0
 10
0.367751968503937
 20
2.575637795275591
 30
0.0
 10
0.367751968503937
 20
2.56944094488189
 30
0.0
 10
0.3704763779527559
 20
2.56394094488189
 30
0.0
 10
0.3759763779527559
 20
2.559137795275591
 30
0.0
 10
0.3759763779527559
 20
2.559137795275591
 30
0.0
 10
0.3814488188976378
 20
2.554358267716536
 30
0.0
 10
0.3885314960629921
 20
2.55194094488189
 30
0.0
 10
0.3971968503937008
 20
2.55194094488189
 30
0.0
 10
0.3971968503937008
 20
2.55194094488189
 30
0.0
 10
0.4060590551181103
 20
2.55194094488189
 30
0.0
 10
0.4134212598425197
 20
2.554692913385827
 30
0.0
 10
0.4193346456692914
 20
2.560165354330709
 30
0.0
 10
0.4193346456692914
 20
2.560165354330709
 30
0.0
 10
0.4241692913385827
 20
2.564610236220473
 30
0.0
 10
0.4265866141732284
 20
2.569385826771654
 30
0.0
 10
0.4265866141732284
 20
2.574496062992126
 30
0.0
 10
0.4265866141732284
 20
2.574496062992126
 30
0.0
 10
0.4265866141732284
 20
2.578496062992126
 30
0.0
 10
0.425003937007874
 20
2.582330708661417
 30
0.0
 10
0.4218346456692914
 20
2.585996062992126
 30
0.0
 10
0.4218346456692914
 20
2.585996062992126
 30
0.0
 10
0.4186417322834646
 20
2.589665354330709
 30
0.0
 10
0.412751968503937
 20
2.593220472440945
 30
0.0
 10
0.4041141732283465
 20
2.596692913385827
 30
0.0
 10
0.4041141732283465
 20
2.596692913385827
 30
0.0
 10
0.4041141732283465
 20
2.596692913385827
 30
0.0
 10
0.3911141732283465
 20
2.601913385826772
 30
0.0
 10
0.3911141732283465
 20
2.601913385826772
 30
0.0
  0
SPLINE
  5
AA
330
1F
100
AcDbEntity
  8
LAYER_1
 62
   250
100
AcDbSpline
210
0.0
220
0.0
230
1.0
 70
    11
 71
     3
 72
    60
 73
    56
 74
     0
 42
0.0000000001
 43
0.0000000001
 40
0.0
 40
0.0
 40
0.0
 40
0.0
 40
0.0714285714285714
 40
0.0714285714285714
 40
0.0714285714285714
 40
0.0714285714285714
 40
0.1428571428571429
 40
0.1428571428571429
 40
0.1428571428571429
 40
0.1428571428571429
 40
0.2142857142857143
 40
0.2142857142857143
 40
0.2142857142857143
 40
0.2142857142857143
 40
0.2857142857142857
 40
0.2857142857142857
 40
0.2857142857142857
 40
0.2857142857142857
 40
0.3571428571428571
 40
0.3571428571428571
 40
0.3571428571428571
 40
0.3571428571428571
 40
0.4285714285714285
 40
0.4285714285714285
 40
0.4285714285714285
 40
0.4285714285714285
 40
0.4999999999999999
 40
0.4999999999999999
 40
0.4999999999999999
 40
0.4999999999999999
 40
0.5714285714285713
 40
0.5714285714285713
 40
0.5714285714285713
 40
0.5714285714285713
 40
0.6428571428571427
 40
0.6428571428571427
 40
0.6428571428571427
 40
0.6428571428571427
 40
0.7142857142857141
 40
0.7142857142857141
 40
0.7142857142857141
 40
0.7142857142857141
 40
0.7857142857142855
 40
0.7857142857142855
 40
0.7857142857142855
 40
0.7857142857142855
 40
0.8571428571428569
 40
0.8571428571428569
 40
0.8571428571428569
 40
0.8571428571428569
 40
0.9285714285714283
 40
0.9285714285714283
 40
0.9285714285714283
 40
0.9285714285714283
 40
1.0
 40
1.0
 40
1.0
 40
1.0
 10
0.4589763779527559
 20
2.617775590551181
 30
0.0
 10
0.4589763779527559
 20
2.617775590551181
 30
0.0
 10
0.4545866141732284
 20
2.623165354330709
 30
0.0
 10
0.4545866141732284
 20
2.623165354330709
 30
0.0
 10
0.4545866141732284
 20
2.623165354330709
 30
0.0
 10
0.4657007874015748
 20
2.632220472440945
 30
0.0
 10
0.4712834645669292
 20
2.639775590551181
 30
0.0
 10
0.4712834645669292
 20
2.645858267716536
 30
0.0
 10
0.4712834645669292
 20
2.645858267716536
 30
0.0
 10
0.4712834645669292
 20
2.646551181102362
 30
0.0
 10
0.4712283464566929
 20
2.64744094488189
 30
0.0
 10
0.4711141732283465
 20
2.648468503937008
 30
0.0
 10
0.4711141732283465
 20
2.648468503937008
 30
0.0
 10
0.4702007874015748
 20
2.648078740157481
 30
0.0
 10
0.4692834645669292
 20
2.647775590551181
 30
0.0
 10
0.4684212598425197
 20
2.64757874015748
 30
0.0
 10
0.4684212598425197
 20
2.64757874015748
 30
0.0
 10
0.4675590551181102
 20
2.647358267716536
 30
0.0
 10
0.4667559055118111
 20
2.647248031496063
 30
0.0
 10
0.4659763779527559
 20
2.647248031496063
 30
0.0
 10
0.4659763779527559
 20
2.647248031496063
 30
0.0
 10
0.4633661417322835
 20
2.647248031496063
 30
0.0
 10
0.4612834645669292
 20
2.648078740157481
 30
0.0
 10
0.4597283464566929
 20
2.649775590551181
 30
0.0
 10
0.4597283464566929
 20
2.649775590551181
 30
0.0
 10
0.4581417322834646
 20
2.65144094488189
 30
0.0
 10
0.4573661417322835
 20
2.653578740157481
 30
0.0
 10
0.4573661417322835
 20
2.656192913385827
 30
0.0
 10
0.4573661417322835
 20
2.656192913385827
 30
0.0
 10
0.4573661417322835
 20
2.658748031496063
 30
0.0
 10
0.4583110236220473
 20
2.660968503937008
 30
0.0
 10
0.4602007874015748
 20
2.662858267716536
 30
0.0
 10
0.4602007874015748
 20
2.662858267716536
 30
0.0
 10
0.4621141732283465
 20
2.664775590551181
 30
0.0
 10
0.4643937007874016
 20
2.665720472440945
 30
0.0
 10
0.4670314960629922
 20
2.665720472440945
 30
0.0
 10
0.4670314960629922
 20
2.665720472440945
 30
0.0
 10
0.4707283464566929
 20
2.665720472440945
 30
0.0
 10
0.4738937007874016
 20
2.664248031496063
 30
0.0
 10
0.4765314960629922
 20
2.661275590551181
 30
0.0
 10
0.4765314960629922
 20
2.661275590551181
 30
0.0
 10
0.4791417322834646
 20
2.658330708661417
 30
0.0
 10
0.4804763779527559
 20
2.654523622047244
 30
0.0
 10
0.4804763779527559
 20
2.649858267716536
 30
0.0
 10
0.4804763779527559
 20
2.649858267716536
 30
0.0
 10
0.4804763779527559
 20
2.646803149606299
 30
0.0
 10
0.4798385826771654
 20
2.643606299212598
 30
0.0
 10
0.4785866141732283
 20
2.640275590551181
 30
0.0
 10
0.4785866141732283
 20
2.640275590551181
 30
0.0
 10
0.4773385826771654
 20
2.63694094488189
 30
0.0
 10
0.4755314960629922
 20
2.633858267716536
 30
0.0
 10
0.4731417322834646
 20
2.630996062992126
 30
0.0
 10
0.4731417322834646
 20
2.630996062992126
 30
0.0
 10
0.4707559055118111
 20
2.628165354330709
 30
0.0
 10
0.4660314960629922
 20
2.623748031496063
 30
0.0
 10
0.4589763779527559
 20
2.617775590551181
 30
0.0
  0
SPLINE
  5
AB
330
1F
100
AcDbEntity
  8
LAYER_1
 62
   250
100
AcDbSpline
210
0.0
220
0.0
230
1.0
 70
    11
 71
     3
 72
    60
 73
    56
 74
     0
 42
0.0000000001
 43
0.0000000001
 40
0.0
 40
0.0
 40
0.0
 40
0.0
 40
0.0714285714285714
 40
0.0714285714285714
 40
0.0714285714285714
 40
0.0714285714285714
 40
0.1428571428571429
 40
0.1428571428571429
 40
0.1428571428571429
 40
0.1428571428571429
 40
0.2142857142857143
 40
0.2142857142857143
 40
0.2142857142857143
 40
0.2142857142857143
 40
0.2857142857142857
 40
0.2857142857142857
 40
0.2857142857142857
 40
0.2857142857142857
 40
0.3571428571428571
 40
0.3571428571428571
 40
0.3571428571428571
 40
0.3571428571428571
 40
0.4285714285714285
 40
0.4285714285714285
 40
0.4285714285714285
 40
0.4285714285714285
 40
0.4999999999999999
 40
0.4999999999999999
 40
0.4999999999999999
 40
0.4999999999999999
 40
0.5714285714285713
 40
0.5714285714285713
 40
0.5714285714285713
 40
0.5714285714285713
 40
0.6428571428571427
 40
0.6428571428571427
 40
0.6428571428571427
 40
0.6428571428571427
 40
0.7142857142857141
 40
0.7142857142857141
 40
0.7142857142857141
 40
0.7142857142857141
 40
0.7857142857142855
 40
0.7857142857142855
 40
0.7857142857142855
 40
0.7857142857142855
 40
0.8571428571428569
 40
0.8571428571428569
 40
0.8571428571428569
 40
0.8571428571428569
 40
0.9285714285714283
 40
0.9285714285714283
 40
0.9285714285714283
 40
0.9285714285714283
 40
1.0
 40
1.0
 40
1.0
 40
1.0
 10
0.4880314960629921
 20
2.617775590551181
 30
0.0
 10
0.4880314960629921
 20
2.617775590551181
 30
0.0
 10
0.4836417322834646
 20
2.623165354330709
 30
0.0
 10
0.4836417322834646
 20
2.623165354330709
 30
0.0
 10
0.4836417322834646
 20
2.623165354330709
 30
0.0
 10
0.494755905511811
 20
2.632220472440945
 30
0.0
 10
0.5003385826771654
 20
2.639775590551181
 30
0.0
 10
0.5003385826771654
 20
2.645858267716536
 30
0.0
 10
0.5003385826771654
 20
2.645858267716536
 30
0.0
 10
0.5003385826771654
 20
2.646551181102362
 30
0.0
 10
0.5002834645669292
 20
2.64744094488189
 30
0.0
 10
0.5001692913385827
 20
2.648468503937008
 30
0.0
 10
0.5001692913385827
 20
2.648468503937008
 30
0.0
 10
0.499255905511811
 20
2.648078740157481
 30
0.0
 10
0.4983385826771654
 20
2.647775590551181
 30
0.0
 10
0.4974763779527559
 20
2.64757874015748
 30
0.0
 10
0.4974763779527559
 20
2.64757874015748
 30
0.0
 10
0.4966141732283465
 20
2.647358267716536
 30
0.0
 10
0.4957834645669292
 20
2.647248031496063
 30
0.0
 10
0.4949488188976378
 20
2.647248031496063
 30
0.0
 10
0.4949488188976378
 20
2.647248031496063
 30
0.0
 10
0.4923937007874016
 20
2.647248031496063
 30
0.0
 10
0.4903385826771654
 20
2.648078740157481
 30
0.0
 10
0.4887834645669292
 20
2.649775590551181
 30
0.0
 10
0.4887834645669292
 20
2.649775590551181
 30
0.0
 10
0.4872007874015748
 20
2.65144094488189
 30
0.0
 10
0.4864212598425197
 20
2.653578740157481
 30
0.0
 10
0.4864212598425197
 20
2.656192913385827
 30
0.0
 10
0.4864212598425197
 20
2.656192913385827
 30
0.0
 10
0.4864212598425197
 20
2.658748031496063
 30
0.0
 10
0.4873661417322835
 20
2.660968503937008
 30
0.0
 10
0.489255905511811
 20
2.662858267716536
 30
0.0
 10
0.489255905511811
 20
2.662858267716536
 30
0.0
 10
0.4911417322834646
 20
2.664775590551181
 30
0.0
 10
0.4934488188976378
 20
2.665720472440945
 30
0.0
 10
0.4960866141732284
 20
2.665720472440945
 30
0.0
 10
0.4960866141732284
 20
2.665720472440945
 30
0.0
 10
0.4997834645669291
 20
2.665720472440945
 30
0.0
 10
0.5029488188976378
 20
2.664248031496063
 30
0.0
 10
0.5055866141732284
 20
2.661275590551181
 30
0.0
 10
0.5055866141732284
 20
2.661275590551181
 30
0.0
 10
0.5081968503937008
 20
2.658330708661417
 30
0.0
 10
0.5095314960629922
 20
2.654523622047244
 30
0.0
 10
0.5095314960629922
 20
2.649858267716536
 30
0.0
 10
0.5095314960629922
 20
2.649858267716536
 30
0.0
 10
0.5095314960629922
 20
2.646803149606299
 30
0.0
 10
0.5088937007874016
 20
2.643606299212598
 30
0.0
 10
0.5076417322834645
 20
2.640275590551181
 30
0.0
 10
0.5076417322834645
 20
2.640275590551181
 30
0.0
 10
0.5063937007874017
 20
2.63694094488189
 30
0.0
 10
0.5045866141732284
 20
2.633858267716536
 30
0.0
 10
0.5022007874015748
 20
2.630996062992126
 30
0.0
 10
0.5022007874015748
 20
2.630996062992126
 30
0.0
 10
0.4998110236220473
 20
2.628165354330709
 30
0.0
 10
0.4950866141732284
 20
2.623748031496063
 30
0.0
 10
0.4880314960629921
 20
2.617775590551181
 30
0.0
  0
ENDSEC
  0
SECTION
  2
OBJECTS
  0
DICTIONARY
  5
C
330
0
100
AcDbDictionary
  3
ACAD_GROUP
350
D
  3
ACAD_LAYOUT
350
1A
  3
ACAD_MLINESTYLE
350
17
  3
ACAD_PLOTSETTINGS
350
19
  3
ACDBHEADERROUNDTRIPXREC
350
AC
  0
DICTIONARY
  5
CC
330
29
100
AcDbDictionary
280
     1
  3
ACAD_XREC_ROUNDTRIP
360
CD
  0
DICTIONARY
  5
D
102
{ACAD_REACTORS
330
C
102
}
330
C
100
AcDbDictionary
  0
DICTIONARY
  5
1A
102
{ACAD_REACTORS
330
C
102
}
330
C
100
AcDbDictionary
  0
DICTIONARY
  5
17
102
{ACAD_REACTORS
330
C
102
}
330
C
100
AcDbDictionary
  3
STANDARD
350
18
  0
DICTIONARY
  5
19
102
{ACAD_REACTORS
330
C
102
}
330
C
100
AcDbDictionary
  0
DICTIONARY
  5
AC
102
{ACAD_REACTORS
330
C
102
}
330
C
100
AcDbDictionary
  3
CEPSNTYPE
350
B5
  3
DIMSTYLEDATA
350
CB
  3
FINGERPRINTGUID
350
B6
  3
HYPERLINKBASE
350
AF
  3
INSUNITS
350
B4
  3
LAYOUTDICT
350
B1
  3
LWETCUNION
350
B3
  3
PLOTSETDICT
350
B2
  3
PSVPSCALE
350
B8
  3
PUCSBASE
350
BB
  3
PUCSORGBACK
350
C1
  3
PUCSORGBOTTOM
350
BD
  3
PUCSORGFRONT
350
C0
  3
PUCSORGLEFT
350
BE
  3
PUCSORGRIGHT
350
BF
  3
PUCSORGTOP
350
BC
  3
PUCSORTHOREF
350
B9
  3
PUCSORTHOVIEW
350
BA
  3
STYLESHEET
350
B0
  3
TSTACKALIGN
350
AD
  3
TSTACKSIZE
350
AE
  3
UCSBASE
350
C4
  3
UCSORGBACK
350
CA
  3
UCSORGBOTTOM
350
C6
  3
UCSORGFRONT
350
C9
  3
UCSORGLEFT
350
C7
  3
UCSORGRIGHT
350
C8
  3
UCSORGTOP
350
C5
  3
UCSORTHOREF
350
C2
  3
UCSORTHOVIEW
350
C3
  3
VERSIONGUID
350
B7
  0
XRECORD
  5
CD
102
{ACAD_REACTORS
330
CC
102
}
330
CC
100
AcDbXrecord
102
UCS
 74
     0
 71
     1
 10
0.0
 20
0.0
 30
0.0
 10
1.0
 20
0.0
 30
0.0
 10
0.0
 20
1.0
 30
0.0
146
0.0
 79
     0
102
VIEW
281
     0
  0
MLINESTYLE
  5
18
102
{ACAD_REACTORS
330
17
102
}
330
17
100
AcDbMlineStyle
  2
Standard
 70
     0
  3

 62
   256
 51
90.0
 52
90.0
 71
     2
 49
0.5
 62
   256
  6
BYLAYER
 49
-0.5
 62
   256
  6
BYLAYER
  0
XRECORD
  5
B5
102
{ACAD_REACTORS
330
AC
102
}
330
AC
100
AcDbXrecord
 90
        0
  0
XRECORD
  5
CB
102
{ACAD_REACTORS
330
AC
102
}
330
AC
100
AcDbXrecord
1000
DSTYLE
1002
{
1070
   340
340
11
1002
}
  0
XRECORD
  5
B6
102
{ACAD_REACTORS
330
AC
102
}
330
AC
100
AcDbXrecord
  1
{FAEB1C30-E019-11D5-929B-00C0DF256EC4}
  0
XRECORD
  5
AF
102
{ACAD_REACTORS
330
AC
102
}
330
AC
100
AcDbXrecord
  1

  0
XRECORD
  5
B4
102
{ACAD_REACTORS
330
AC
102
}
330
AC
100
AcDbXrecord
 90
        1
  0
XRECORD
  5
B1
102
{ACAD_REACTORS
330
AC
102
}
330
AC
100
AcDbXrecord
340
1A
  0
XRECORD
  5
B3
102
{ACAD_REACTORS
330
AC
102
}
330
AC
100
AcDbXrecord
 90
     2560
  0
XRECORD
  5
B2
102
{ACAD_REACTORS
330
AC
102
}
330
AC
100
AcDbXrecord
340
19
  0
XRECORD
  5
B8
102
{ACAD_REACTORS
330
AC
102
}
330
AC
100
AcDbXrecord
 40
0.0
  0
XRECORD
  5
BB
102
{ACAD_REACTORS
330
AC
102
}
330
AC
100
AcDbXrecord
340
0
  0
XRECORD
  5
C1
102
{ACAD_REACTORS
330
AC
102
}
330
AC
100
AcDbXrecord
 10
0.0
 20
0.0
 30
0.0
  0
XRECORD
  5
BD
102
{ACAD_REACTORS
330
AC
102
}
330
AC
100
AcDbXrecord
 10
0.0
 20
0.0
 30
0.0
  0
XRECORD
  5
C0
102
{ACAD_REACTORS
330
AC
102
}
330
AC
100
AcDbXrecord
 10
0.0
 20
0.0
 30
0.0
  0
XRECORD
  5
BE
102
{ACAD_REACTORS
330
AC
102
}
330
AC
100
AcDbXrecord
 10
0.0
 20
0.0
 30
0.0
  0
XRECORD
  5
BF
102
{ACAD_REACTORS
330
AC
102
}
330
AC
100
AcDbXrecord
 10
0.0
 20
0.0
 30
0.0
  0
XRECORD
  5
BC
102
{ACAD_REACTORS
330
AC
102
}
330
AC
100
AcDbXrecord
 10
0.0
 20
0.0
 30
0.0
  0
XRECORD
  5
B9
102
{ACAD_REACTORS
330
AC
102
}
330
AC
100
AcDbXrecord
340
0
  0
XRECORD
  5
BA
102
{ACAD_REACTORS
330
AC
102
}
330
AC
100
AcDbXrecord
 70
     0
  0
XRECORD
  5
B0
102
{ACAD_REACTORS
330
AC
102
}
330
AC
100
AcDbXrecord
  1

  0
XRECORD
  5
AD
102
{ACAD_REACTORS
330
AC
102
}
330
AC
100
AcDbXrecord
 90
        1
  0
XRECORD
  5
AE
102
{ACAD_REACTORS
330
AC
102
}
330
AC
100
AcDbXrecord
 90
       70
  0
XRECORD
  5
C4
102
{ACAD_REACTORS
330
AC
102
}
330
AC
100
AcDbXrecord
340
0
  0
XRECORD
  5
CA
102
{ACAD_REACTORS
330
AC
102
}
330
AC
100
AcDbXrecord
 10
0.0
 20
0.0
 30
0.0
  0
XRECORD
  5
C6
102
{ACAD_REACTORS
330
AC
102
}
330
AC
100
AcDbXrecord
 10
0.0
 20
0.0
 30
0.0
  0
XRECORD
  5
C9
102
{ACAD_REACTORS
330
AC
102
}
330
AC
100
AcDbXrecord
 10
0.0
 20
0.0
 30
0.0
  0
XRECORD
  5
C7
102
{ACAD_REACTORS
330
AC
102
}
330
AC
100
AcDbXrecord
 10
0.0
 20
0.0
 30
0.0
  0
XRECORD
  5
C8
102
{ACAD_REACTORS
330
AC
102
}
330
AC
100
AcDbXrecord
 10
0.0
 20
0.0
 30
0.0
  0
XRECORD
  5
C5
102
{ACAD_REACTORS
330
AC
102
}
330
AC
100
AcDbXrecord
 10
0.0
 20
0.0
 30
0.0
  0
XRECORD
  5
C2
102
{ACAD_REACTORS
330
AC
102
}
330
AC
100
AcDbXrecord
340
0
  0
XRECORD
  5
C3
102
{ACAD_REACTORS
330
AC
102
}
330
AC
100
AcDbXrecord
 70
     0
  0
XRECORD
  5
B7
102
{ACAD_REACTORS
330
AC
102
}
330
AC
100
AcDbXrecord
  1
{FAEB1C32-E019-11D5-929B-00C0DF256EC4}
  0
ENDSEC
  0
EOF
