  0
SECTION
  2
HEADER
  9
$ACADVER
  1
AC1014
  9
$ACADMAINTVER
 70
     9
  9
$DWGCODEPAGE
  3
ANSI_1252
  9
$INSBASE
 10
0.0
 20
0.0
 30
0.0
  9
$EXTMIN
 10
-1.518728346456693
 20
-0.6339212598425197
 30
0.0
  9
$EXTMAX
 10
0.7426220472440945
 20
3.739527559055118
 30
0.0
  9
$LIMMIN
 10
0.0
 20
0.0
  9
$LIMMAX
 10
12.0
 20
9.0
  9
$ORTHOMODE
 70
     0
  9
$REGENMODE
 70
     1
  9
$FILLMODE
 70
     1
  9
$QTEXTMODE
 70
     0
  9
$MIRRTEXT
 70
     1
  9
$DRAGMODE
 70
     2
  9
$LTSCALE
 40
1.0
  9
$OSMODE
 70
    37
  9
$ATTMODE
 70
     1
  9
$TEXTSIZE
 40
0.2
  9
$TRACEWID
 40
0.05
  9
$TEXTSTYLE
  7
STANDARD
  9
$CLAYER
  8
0
  9
$CELTYPE
  6
BYLAYER
  9
$CECOLOR
 62
   256
  9
$CELTSCALE
 40
1.0
  9
$DELOBJ
 70
     1
  9
$DISPSILH
 70
     0
  9
$DIMSCALE
 40
1.0
  9
$DIMASZ
 40
0.18
  9
$DIMEXO
 40
0.0625
  9
$DIMDLI
 40
0.38
  9
$DIMRND
 40
0.0
  9
$DIMDLE
 40
0.0
  9
$DIMEXE
 40
0.18
  9
$DIMTP
 40
0.0
  9
$DIMTM
 40
0.0
  9
$DIMTXT
 40
0.18
  9
$DIMCEN
 40
0.09
  9
$DIMTSZ
 40
0.0
  9
$DIMTOL
 70
     0
  9
$DIMLIM
 70
     0
  9
$DIMTIH
 70
     1
  9
$DIMTOH
 70
     1
  9
$DIMSE1
 70
     0
  9
$DIMSE2
 70
     0
  9
$DIMTAD
 70
     0
  9
$DIMZIN
 70
     0
  9
$DIMBLK
  1

  9
$DIMASO
 70
     1
  9
$DIMSHO
 70
     1
  9
$DIMPOST
  1

  9
$DIMAPOST
  1

  9
$DIMALT
 70
     0
  9
$DIMALTD
 70
     2
  9
$DIMALTF
 40
25.4
  9
$DIMLFAC
 40
1.0
  9
$DIMTOFL
 70
     0
  9
$DIMTVP
 40
0.0
  9
$DIMTIX
 70
     0
  9
$DIMSOXD
 70
     0
  9
$DIMSAH
 70
     0
  9
$DIMBLK1
  1

  9
$DIMBLK2
  1

  9
$DIMSTYLE
  2
STANDARD
  9
$DIMCLRD
 70
     0
  9
$DIMCLRE
 70
     0
  9
$DIMCLRT
 70
     0
  9
$DIMTFAC
 40
1.0
  9
$DIMGAP
 40
0.09
  9
$DIMJUST
 70
     0
  9
$DIMSD1
 70
     0
  9
$DIMSD2
 70
     0
  9
$DIMTOLJ
 70
     1
  9
$DIMTZIN
 70
     0
  9
$DIMALTZ
 70
     0
  9
$DIMALTTZ
 70
     0
  9
$DIMFIT
 70
     3
  9
$DIMUPT
 70
     0
  9
$DIMUNIT
 70
     2
  9
$DIMDEC
 70
     4
  9
$DIMTDEC
 70
     4
  9
$DIMALTU
 70
     2
  9
$DIMALTTD
 70
     2
  9
$DIMTXSTY
  7
STANDARD
  9
$DIMAUNIT
 70
     0
  9
$LUNITS
 70
     2
  9
$LUPREC
 70
     4
  9
$SKETCHINC
 40
0.1
  9
$FILLETRAD
 40
0.5
  9
$AUNITS
 70
     0
  9
$AUPREC
 70
     0
  9
$MENU
  1
.
  9
$ELEVATION
 40
0.0
  9
$PELEVATION
 40
0.0
  9
$THICKNESS
 40
0.0
  9
$LIMCHECK
 70
     0
  9
$CHAMFERA
 40
0.5
  9
$CHAMFERB
 40
0.5
  9
$CHAMFERC
 40
1.0
  9
$CHAMFERD
 40
0.0
  9
$SKPOLY
 70
     0
  9
$TDCREATE
 40
2454201.364286562
  9
$TDUPDATE
 40
2454201.405953241
  9
$TDINDWG
 40
0.0000000116
  9
$TDUSRTIMER
 40
0.0000000116
  9
$USRTIMER
 70
     1
  9
$ANGBASE
 50
0.0
  9
$ANGDIR
 70
     0
  9
$PDMODE
 70
     0
  9
$PDSIZE
 40
0.0
  9
$PLINEWID
 40
0.0
  9
$COORDS
 70
     1
  9
$SPLFRAME
 70
     0
  9
$SPLINETYPE
 70
     6
  9
$SPLINESEGS
 70
     8
  9
$ATTDIA
 70
     0
  9
$ATTREQ
 70
     1
  9
$HANDLING
 70
     1
  9
$HANDSEED
  5
86
  9
$SURFTAB1
 70
     6
  9
$SURFTAB2
 70
     6
  9
$SURFTYPE
 70
     6
  9
$SURFU
 70
     6
  9
$SURFV
 70
     6
  9
$UCSNAME
  2

  9
$UCSORG
 10
0.0
 20
0.0
 30
0.0
  9
$UCSXDIR
 10
1.0
 20
0.0
 30
0.0
  9
$UCSYDIR
 10
0.0
 20
1.0
 30
0.0
  9
$PUCSNAME
  2

  9
$PUCSORG
 10
0.0
 20
0.0
 30
0.0
  9
$PUCSXDIR
 10
1.0
 20
0.0
 30
0.0
  9
$PUCSYDIR
 10
0.0
 20
1.0
 30
0.0
  9
$USERI1
 70
     0
  9
$USERI2
 70
     0
  9
$USERI3
 70
     0
  9
$USERI4
 70
     0
  9
$USERI5
 70
     0
  9
$USERR1
 40
0.0
  9
$USERR2
 40
0.0
  9
$USERR3
 40
0.0
  9
$USERR4
 40
0.0
  9
$USERR5
 40
0.0
  9
$WORLDVIEW
 70
     1
  9
$SHADEDGE
 70
     3
  9
$SHADEDIF
 70
    70
  9
$TILEMODE
 70
     1
  9
$MAXACTVP
 70
    64
  9
$PINSBASE
 10
0.0
 20
0.0
 30
0.0
  9
$PLIMCHECK
 70
     0
  9
$PEXTMIN
 10
1.000000000000000E+20
 20
1.000000000000000E+20
 30
1.000000000000000E+20
  9
$PEXTMAX
 10
-1.000000000000000E+20
 20
-1.000000000000000E+20
 30
-1.000000000000000E+20
  9
$PLIMMIN
 10
0.0
 20
0.0
  9
$PLIMMAX
 10
12.0
 20
9.0
  9
$UNITMODE
 70
     0
  9
$VISRETAIN
 70
     1
  9
$PLINEGEN
 70
     0
  9
$PSLTSCALE
 70
     1
  9
$TREEDEPTH
 70
  3020
  9
$PICKSTYLE
 70
     1
  9
$CMLSTYLE
  2
STANDARD
  9
$CMLJUST
 70
     0
  9
$CMLSCALE
 40
1.0
  9
$PROXYGRAPHICS
 70
     1
  9
$MEASUREMENT
 70
     0
  0
ENDSEC
  0
SECTION
  2
CLASSES
  0
CLASS
  1
ACDBDICTIONARYWDFLT
  2
AcDbDictionaryWithDefault
  3
ObjectDBX Classes
 90
        0
280
     0
281
     0
  0
CLASS
  1
XRECORD
  2
AcDbXrecord
  3
AutoCAD 2000
 90
        0
280
     0
281
     0
  0
CLASS
  1
LWPOLYLINE
  2
AcDbPolyline
  3
AutoCAD 2000
 90
        0
280
     0
281
     1
  0
CLASS
  1
HATCH
  2
AcDbHatch
  3
AutoCAD 2000
 90
        0
280
     0
281
     1
  0
CLASS
  1
ACDBPLACEHOLDER
  2
AcDbPlaceHolder
  3
ObjectDBX Classes
 90
        0
280
     0
281
     0
  0
CLASS
  1
LAYOUT
  2
AcDbLayout
  3
ObjectDBX Classes
 90
        0
280
     0
281
     0
  0
ENDSEC
  0
SECTION
  2
TABLES
  0
TABLE
  2
VPORT
  5
8
330
0
100
AcDbSymbolTable
 70
     2
  0
VPORT
  5
29
102
{ACAD_XDICTIONARY
360
84
102
}
330
8
100
AcDbSymbolTableRecord
100
AcDbViewportTableRecord
  2
*ACTIVE
 70
     0
 10
0.0
 20
0.0
 11
1.0
 21
1.0
 12
10.42990654205607
 22
4.5
 13
0.0
 23
0.0
 14
0.5
 24
0.5
 15
0.5
 25
0.5
 16
0.0
 26
0.0
 36
1.0
 17
0.0
 27
0.0
 37
0.0
 40
9.0
 41
1.972972972850329
 42
50.0
 43
0.0
 44
0.0
 50
0.0
 51
0.0
 71
     0
 72
   100
 73
     1
 74
     3
 75
     0
 76
     0
 77
     0
 78
     0
  0
ENDTAB
  0
TABLE
  2
LTYPE
  5
5
330
0
100
AcDbSymbolTable
 70
     1
  0
LTYPE
  5
14
330
5
100
AcDbSymbolTableRecord
100
AcDbLinetypeTableRecord
  2
BYBLOCK
 70
     0
  3

 72
    65
 73
     0
 40
0.0
  0
LTYPE
  5
15
330
5
100
AcDbSymbolTableRecord
100
AcDbLinetypeTableRecord
  2
BYLAYER
 70
     0
  3

 72
    65
 73
     0
 40
0.0
  0
LTYPE
  5
16
330
5
100
AcDbSymbolTableRecord
100
AcDbLinetypeTableRecord
  2
CONTINUOUS
 70
     0
  3
Solid line
 72
    65
 73
     0
 40
0.0
  0
ENDTAB
  0
TABLE
  2
LAYER
  5
2
330
0
100
AcDbSymbolTable
 70
     2
  0
LAYER
  5
10
330
2
100
AcDbSymbolTableRecord
100
AcDbLayerTableRecord
  2
0
 70
     0
 62
     7
  6
CONTINUOUS
  0
LAYER
  5
2B
330
2
100
AcDbSymbolTableRecord
100
AcDbLayerTableRecord
  2
LAYER_1
 70
     0
 62
     7
  6
CONTINUOUS
  0
ENDTAB
  0
TABLE
  2
STYLE
  5
3
330
0
100
AcDbSymbolTable
 70
     1
  0
STYLE
  5
11
330
3
100
AcDbSymbolTableRecord
100
AcDbTextStyleTableRecord
  2
STANDARD
 70
     0
 40
0.0
 41
1.0
 50
0.0
 71
     0
 42
0.2
  3
txt
  4

  0
ENDTAB
  0
TABLE
  2
VIEW
  5
6
330
0
100
AcDbSymbolTable
 70
     0
  0
ENDTAB
  0
TABLE
  2
UCS
  5
7
330
0
100
AcDbSymbolTable
 70
     0
  0
ENDTAB
  0
TABLE
  2
APPID
  5
9
330
0
100
AcDbSymbolTable
 70
     2
  0
APPID
  5
12
330
9
100
AcDbSymbolTableRecord
100
AcDbRegAppTableRecord
  2
ACAD
 70
     0
  0
APPID
  5
2A
330
9
100
AcDbSymbolTableRecord
100
AcDbRegAppTableRecord
  2
ODA
 70
     0
  0
ENDTAB
  0
TABLE
  2
DIMSTYLE
  5
A
330
0
100
AcDbSymbolTable
 70
     1
  0
DIMSTYLE
105
27
330
A
100
AcDbSymbolTableRecord
100
AcDbDimStyleTableRecord
  2
STANDARD
 70
     0
  3

  4

  5

  6

  7

 40
1.0
 41
0.18
 42
0.0625
 43
0.38
 44
0.18
 45
0.0
 46
0.0
 47
0.0
 48
0.0
140
0.18
141
0.09
142
0.0
143
25.4
144
1.0
145
0.0
146
1.0
147
0.09
 71
     0
 72
     0
 73
     1
 74
     1
 75
     0
 76
     0
 77
     0
 78
     0
170
     0
171
     2
172
     0
173
     0
174
     0
175
     0
176
     0
177
     0
178
     0
270
     2
271
     4
272
     4
273
     2
274
     2
340
11
275
     0
280
     0
281
     0
282
     0
283
     1
284
     0
285
     0
286
     0
287
     3
288
     0
  0
ENDTAB
  0
TABLE
  2
BLOCK_RECORD
  5
1
330
0
100
AcDbSymbolTable
 70
     1
  0
BLOCK_RECORD
  5
1F
330
1
100
AcDbSymbolTableRecord
100
AcDbBlockTableRecord
  2
*MODEL_SPACE
  0
BLOCK_RECORD
  5
1B
330
1
100
AcDbSymbolTableRecord
100
AcDbBlockTableRecord
  2
*PAPER_SPACE
  0
ENDTAB
  0
ENDSEC
  0
SECTION
  2
BLOCKS
  0
BLOCK
  5
20
330
1F
100
AcDbEntity
  8
0
100
AcDbBlockBegin
  2
*MODEL_SPACE
 70
     0
 71
     0
 10
0.0
 20
0.0
 30
0.0
  3
*MODEL_SPACE
  1

  0
ENDBLK
  5
21
330
1F
100
AcDbEntity
  8
0
100
AcDbBlockEnd
  0
BLOCK
  5
1C
330
1B
100
AcDbEntity
 67
     1
  8
0
100
AcDbBlockBegin
  2
*PAPER_SPACE
 70
     0
 71
     0
 10
0.0
 20
0.0
 30
0.0
  3
*PAPER_SPACE
  1

  0
ENDBLK
  5
1D
330
1B
100
AcDbEntity
 67
     1
  8
0
100
AcDbBlockEnd
  0
ENDSEC
  0
SECTION
  2
ENTITIES
  0
SPLINE
  5
2C
330
1F
100
AcDbEntity
  8
LAYER_1
 62
   250
100
AcDbSpline
210
0.0
220
0.0
230
1.0
 70
    11
 71
     3
 72
   104
 73
   100
 74
     0
 42
0.0000000001
 43
0.0000000001
 40
0.0
 40
0.0
 40
0.0
 40
0.0
 40
0.04
 40
0.04
 40
0.04
 40
0.04
 40
0.08
 40
0.08
 40
0.08
 40
0.08
 40
0.12
 40
0.12
 40
0.12
 40
0.12
 40
0.16
 40
0.16
 40
0.16
 40
0.16
 40
0.2
 40
0.2
 40
0.2
 40
0.2
 40
0.24
 40
0.24
 40
0.24
 40
0.24
 40
0.28
 40
0.28
 40
0.28
 40
0.28
 40
0.32
 40
0.32
 40
0.32
 40
0.32
 40
0.36
 40
0.36
 40
0.36
 40
0.36
 40
0.4
 40
0.4
 40
0.4
 40
0.4
 40
0.44
 40
0.44
 40
0.44
 40
0.44
 40
0.4799999999999999
 40
0.4799999999999999
 40
0.4799999999999999
 40
0.4799999999999999
 40
0.5199999999999999
 40
0.5199999999999999
 40
0.5199999999999999
 40
0.5199999999999999
 40
0.5599999999999999
 40
0.5599999999999999
 40
0.5599999999999999
 40
0.5599999999999999
 40
0.6
 40
0.6
 40
0.6
 40
0.6
 40
0.64
 40
0.64
 40
0.64
 40
0.64
 40
0.6800000000000001
 40
0.6800000000000001
 40
0.6800000000000001
 40
0.6800000000000001
 40
0.7200000000000001
 40
0.7200000000000001
 40
0.7200000000000001
 40
0.7200000000000001
 40
0.7600000000000001
 40
0.7600000000000001
 40
0.7600000000000001
 40
0.7600000000000001
 40
0.8000000000000002
 40
0.8000000000000002
 40
0.8000000000000002
 40
0.8000000000000002
 40
0.8400000000000002
 40
0.8400000000000002
 40
0.8400000000000002
 40
0.8400000000000002
 40
0.8800000000000002
 40
0.8800000000000002
 40
0.8800000000000002
 40
0.8800000000000002
 40
0.9200000000000003
 40
0.9200000000000003
 40
0.9200000000000003
 40
0.9200000000000003
 40
0.9600000000000003
 40
0.9600000000000003
 40
0.9600000000000003
 40
0.9600000000000003
 40
1.0
 40
1.0
 40
1.0
 40
1.0
 10
-1.115937007874016
 20
2.899775590551181
 30
0.0
 10
-1.115937007874016
 20
2.899775590551181
 30
0.0
 10
-1.061964566929134
 20
2.899775590551181
 30
0.0
 10
-1.061964566929134
 20
2.899775590551181
 30
0.0
 10
-1.061964566929134
 20
2.899775590551181
 30
0.0
 10
-1.048795275590551
 20
2.899775590551181
 30
0.0
 10
-1.039767716535433
 20
2.899165354330709
 30
0.0
 10
-1.03488188976378
 20
2.897968503937008
 30
0.0
 10
-1.03488188976378
 20
2.897968503937008
 30
0.0
 10
-1.027657480314961
 20
2.896248031496063
 30
0.0
 10
-1.021964566929134
 20
2.893110236220473
 30
0.0
 10
-1.017740157480315
 20
2.888551181102363
 30
0.0
 10
-1.017740157480315
 20
2.888551181102363
 30
0.0
 10
-1.013547244094488
 20
2.883996062992126
 30
0.0
 10
-1.011437007874016
 20
2.878496062992126
 30
0.0
 10
-1.011437007874016
 20
2.872110236220473
 30
0.0
 10
-1.011437007874016
 20
2.872110236220473
 30
0.0
 10
-1.011437007874016
 20
2.867496062992126
 30
0.0
 10
-1.012547244094488
 20
2.863358267716536
 30
0.0
 10
-1.014767716535433
 20
2.859692913385827
 30
0.0
 10
-1.014767716535433
 20
2.859692913385827
 30
0.0
 10
-1.016992125984252
 20
2.856023622047244
 30
0.0
 10
-1.020240157480315
 20
2.852885826771654
 30
0.0
 10
-1.024464566929134
 20
2.850303149606299
 30
0.0
 10
-1.024464566929134
 20
2.850303149606299
 30
0.0
 10
-1.027185039370079
 20
2.848610236220472
 30
0.0
 10
-1.030854330708662
 20
2.847165354330709
 30
0.0
 10
-1.03551968503937
 20
2.845968503937008
 30
0.0
 10
-1.03551968503937
 20
2.845968503937008
 30
0.0
 10
-1.029602362204724
 20
2.844885826771654
 30
0.0
 10
-1.025102362204724
 20
2.843582677165355
 30
0.0
 10
-1.02201968503937
 20
2.842082677165355
 30
0.0
 10
-1.02201968503937
 20
2.842082677165355
 30
0.0
 10
-1.017354330708661
 20
2.839803149606299
 30
0.0
 10
-1.013657480314961
 20
2.836555118110236
 30
0.0
 10
-1.010964566929134
 20
2.832303149606299
 30
0.0
 10
-1.010964566929134
 20
2.832303149606299
 30
0.0
 10
-1.008240157480315
 20
2.828082677165354
 30
0.0
 10
-1.00688188976378
 20
2.8233031496063
 30
0.0
 10
-1.00688188976378
 20
2.817996062992126
 30
0.0
 10
-1.00688188976378
 20
2.817996062992126
 30
0.0
 10
-1.00688188976378
 20
2.812830708661418
 30
0.0
 10
-1.008212598425197
 20
2.808055118110236
 30
0.0
 10
-1.01088188976378
 20
2.803665354330709
 30
0.0
 10
-1.01088188976378
 20
2.803665354330709
 30
0.0
 10
-1.01351968503937
 20
2.799275590551181
 30
0.0
 10
-1.017295275590551
 20
2.795665354330709
 30
0.0
 10
-1.022129921259843
 20
2.792830708661418
 30
0.0
 10
-1.022129921259843
 20
2.792830708661418
 30
0.0
 10
-1.026992125984252
 20
2.790027559055118
 30
0.0
 10
-1.032657480314961
 20
2.788220472440945
 30
0.0
 10
-1.039102362204724
 20
2.787413385826772
 30
0.0
 10
-1.039102362204724
 20
2.787413385826772
 30
0.0
 10
-1.045574803149606
 20
2.786637795275591
 30
0.0
 10
-1.052212598425197
 20
2.786248031496063
 30
0.0
 10
-1.059047244094488
 20
2.786248031496063
 30
0.0
 10
-1.059047244094488
 20
2.786248031496063
 30
0.0
 10
-1.059047244094488
 20
2.786248031496063
 30
0.0
 10
-1.115937007874016
 20
2.786248031496063
 30
0.0
 10
-1.115937007874016
 20
2.786248031496063
 30
0.0
 10
-1.115937007874016
 20
2.786248031496063
 30
0.0
 10
-1.115937007874016
 20
2.786248031496063
 30
0.0
 10
-1.115937007874016
 20
2.793082677165355
 30
0.0
 10
-1.115937007874016
 20
2.793082677165355
 30
0.0
 10
-1.115937007874016
 20
2.793082677165355
 30
0.0
 10
-1.115937007874016
 20
2.793082677165355
 30
0.0
 10
-1.112102362204724
 20
2.793082677165355
 30
0.0
 10
-1.112102362204724
 20
2.793082677165355
 30
0.0
 10
-1.112102362204724
 20
2.793082677165355
 30
0.0
 10
-1.108405511811024
 20
2.793082677165355
 30
0.0
 10
-1.105905511811024
 20
2.793665354330709
 30
0.0
 10
-1.104547244094488
 20
2.794803149606299
 30
0.0
 10
-1.104547244094488
 20
2.794803149606299
 30
0.0
 10
-1.102574803149606
 20
2.796358267716536
 30
0.0
 10
-1.101602362204724
 20
2.798968503937008
 30
0.0
 10
-1.101602362204724
 20
2.802610236220473
 30
0.0
 10
-1.101602362204724
 20
2.802610236220473
 30
0.0
 10
-1.101602362204724
 20
2.802610236220473
 30
0.0
 10
-1.101602362204724
 20
2.881468503937008
 30
0.0
 10
-1.101602362204724
 20
2.881468503937008
 30
0.0
 10
-1.101602362204724
 20
2.881468503937008
 30
0.0
 10
-1.101602362204724
 20
2.885165354330709
 30
0.0
 10
-1.101905511811024
 20
2.887665354330709
 30
0.0
 10
-1.102492125984252
 20
2.889023622047244
 30
0.0
 10
-1.102492125984252
 20
2.889023622047244
 30
0.0
 10
-1.103102362204725
 20
2.890385826771654
 30
0.0
 10
-1.103992125984252
 20
2.891358267716536
 30
0.0
 10
-1.105185039370079
 20
2.891968503937008
 30
0.0
 10
-1.105185039370079
 20
2.891968503937008
 30
0.0
 10
-1.106377952755905
 20
2.892551181102363
 30
0.0
 10
-1.108685039370079
 20
2.892858267716536
 30
0.0
 10
-1.112102362204724
 20
2.892858267716536
 30
0.0
 10
-1.112102362204724
 20
2.892858267716536
 30
0.0
 10
-1.112102362204724
 20
2.892858267716536
 30
0.0
 10
-1.115937007874016
 20
2.892858267716536
 30
0.0
 10
-1.115937007874016
 20
2.892858267716536
 30
0.0
 10
-1.115937007874016
 20
2.892858267716536
 30
0.0
 10
-1.115937007874016
 20
2.892858267716536
 30
0.0
 10
-1.115937007874016
 20
2.899775590551181
 30
0.0
 10
-1.115937007874016
 20
2.899775590551181
 30
0.0
  0
SPLINE
  5
2D
330
1F
100
AcDbEntity
  8
LAYER_1
 62
   250
100
AcDbSpline
210
0.0
220
0.0
230
1.0
 70
    11
 71
     3
 72
    40
 73
    36
 74
     0
 42
0.0000000001
 43
0.0000000001
 40
0.0
 40
0.0
 40
0.0
 40
0.0
 40
0.1111111111111111
 40
0.1111111111111111
 40
0.1111111111111111
 40
0.1111111111111111
 40
0.2222222222222222
 40
0.2222222222222222
 40
0.2222222222222222
 40
0.2222222222222222
 40
0.3333333333333333
 40
0.3333333333333333
 40
0.3333333333333333
 40
0.3333333333333333
 40
0.4444444444444444
 40
0.4444444444444444
 40
0.4444444444444444
 40
0.4444444444444444
 40
0.5555555555555556
 40
0.5555555555555556
 40
0.5555555555555556
 40
0.5555555555555556
 40
0.6666666666666667
 40
0.6666666666666667
 40
0.6666666666666667
 40
0.6666666666666667
 40
0.7777777777777779
 40
0.7777777777777779
 40
0.7777777777777779
 40
0.7777777777777779
 40
0.8888888888888891
 40
0.8888888888888891
 40
0.8888888888888891
 40
0.8888888888888891
 40
1.0
 40
1.0
 40
1.0
 40
1.0
 10
-1.086377952755906
 20
2.890748031496063
 30
0.0
 10
-1.086377952755906
 20
2.890748031496063
 30
0.0
 10
-1.086377952755906
 20
2.849165354330709
 30
0.0
 10
-1.086377952755906
 20
2.849165354330709
 30
0.0
 10
-1.086377952755906
 20
2.849165354330709
 30
0.0
 10
-1.086377952755906
 20
2.849165354330709
 30
0.0
 10
-1.065629921259843
 20
2.849165354330709
 30
0.0
 10
-1.065629921259843
 20
2.849165354330709
 30
0.0
 10
-1.065629921259843
 20
2.849165354330709
 30
0.0
 10
-1.055937007874016
 20
2.849165354330709
 30
0.0
 10
-1.049267716535433
 20
2.849610236220473
 30
0.0
 10
-1.045712598425197
 20
2.850523622047244
 30
0.0
 10
-1.045712598425197
 20
2.850523622047244
 30
0.0
 10
-1.040102362204725
 20
2.851996062992126
 30
0.0
 10
-1.035854330708661
 20
2.854496062992126
 30
0.0
 10
-1.03288188976378
 20
2.858023622047244
 30
0.0
 10
-1.03288188976378
 20
2.858023622047244
 30
0.0
 10
-1.029937007874016
 20
2.861551181102362
 30
0.0
 10
-1.028437007874016
 20
2.866082677165355
 30
0.0
 10
-1.028437007874016
 20
2.871610236220473
 30
0.0
 10
-1.028437007874016
 20
2.871610236220473
 30
0.0
 10
-1.028437007874016
 20
2.876275590551181
 30
0.0
 10
-1.029795275590551
 20
2.880165354330709
 30
0.0
 10
-1.032464566929134
 20
2.8833031496063
 30
0.0
 10
-1.032464566929134
 20
2.8833031496063
 30
0.0
 10
-1.035157480314961
 20
2.886413385826772
 30
0.0
 10
-1.038767716535433
 20
2.888551181102363
 30
0.0
 10
-1.043267716535433
 20
2.889692913385827
 30
0.0
 10
-1.043267716535433
 20
2.889692913385827
 30
0.0
 10
-1.046185039370079
 20
2.890385826771654
 30
0.0
 10
-1.052267716535433
 20
2.890748031496063
 30
0.0
 10
-1.061492125984252
 20
2.890748031496063
 30
0.0
 10
-1.061492125984252
 20
2.890748031496063
 30
0.0
 10
-1.061492125984252
 20
2.890748031496063
 30
0.0
 10
-1.086377952755906
 20
2.890748031496063
 30
0.0
 10
-1.086377952755906
 20
2.890748031496063
 30
0.0
  0
SPLINE
  5
2E
330
1F
100
AcDbEntity
  8
LAYER_1
 62
   250
100
AcDbSpline
210
0.0
220
0.0
230
1.0
 70
    11
 71
     3
 72
    52
 73
    48
 74
     0
 42
0.0000000001
 43
0.0000000001
 40
0.0
 40
0.0
 40
0.0
 40
0.0
 40
0.0833333333333333
 40
0.0833333333333333
 40
0.0833333333333333
 40
0.0833333333333333
 40
0.1666666666666667
 40
0.1666666666666667
 40
0.1666666666666667
 40
0.1666666666666667
 40
0.25
 40
0.25
 40
0.25
 40
0.25
 40
0.3333333333333333
 40
0.3333333333333333
 40
0.3333333333333333
 40
0.3333333333333333
 40
0.4166666666666666
 40
0.4166666666666666
 40
0.4166666666666666
 40
0.4166666666666666
 40
0.4999999999999999
 40
0.4999999999999999
 40
0.4999999999999999
 40
0.4999999999999999
 40
0.5833333333333333
 40
0.5833333333333333
 40
0.5833333333333333
 40
0.5833333333333333
 40
0.6666666666666666
 40
0.6666666666666666
 40
0.6666666666666666
 40
0.6666666666666666
 40
0.75
 40
0.75
 40
0.75
 40
0.75
 40
0.8333333333333334
 40
0.8333333333333334
 40
0.8333333333333334
 40
0.8333333333333334
 40
0.9166666666666667
 40
0.9166666666666667
 40
0.9166666666666667
 40
0.9166666666666667
 40
1.0
 40
1.0
 40
1.0
 40
1.0
 10
-1.086377952755906
 20
2.841330708661417
 30
0.0
 10
-1.086377952755906
 20
2.841330708661417
 30
0.0
 10
-1.086377952755906
 20
2.804082677165355
 30
0.0
 10
-1.086377952755906
 20
2.804082677165355
 30
0.0
 10
-1.086377952755906
 20
2.804082677165355
 30
0.0
 10
-1.086377952755906
 20
2.800330708661417
 30
0.0
 10
-1.086212598425197
 20
2.798110236220472
 30
0.0
 10
-1.085909448818898
 20
2.797385826771654
 30
0.0
 10
-1.085909448818898
 20
2.797385826771654
 30
0.0
 10
-1.085464566929134
 20
2.796413385826772
 30
0.0
 10
-1.084602362204725
 20
2.795748031496063
 30
0.0
 10
-1.083295275590551
 20
2.795358267716535
 30
0.0
 10
-1.083295275590551
 20
2.795358267716535
 30
0.0
 10
-1.082377952755906
 20
2.795082677165354
 30
0.0
 10
-1.079767716535433
 20
2.79494094488189
 30
0.0
 10
-1.075492125984252
 20
2.79494094488189
 30
0.0
 10
-1.075492125984252
 20
2.79494094488189
 30
0.0
 10
-1.075492125984252
 20
2.79494094488189
 30
0.0
 10
-1.064409448818898
 20
2.79494094488189
 30
0.0
 10
-1.064409448818898
 20
2.79494094488189
 30
0.0
 10
-1.064409448818898
 20
2.79494094488189
 30
0.0
 10
-1.053464566929134
 20
2.79494094488189
 30
0.0
 10
-1.045629921259843
 20
2.795555118110237
 30
0.0
 10
-1.040937007874016
 20
2.796775590551181
 30
0.0
 10
-1.040937007874016
 20
2.796775590551181
 30
0.0
 10
-1.036240157480315
 20
2.797996062992126
 30
0.0
 10
-1.032240157480315
 20
2.800582677165354
 30
0.0
 10
-1.028937007874016
 20
2.804527559055118
 30
0.0
 10
-1.028937007874016
 20
2.804527559055118
 30
0.0
 10
-1.025629921259843
 20
2.80844094488189
 30
0.0
 10
-1.023964566929134
 20
2.813192913385827
 30
0.0
 10
-1.023964566929134
 20
2.818720472440945
 30
0.0
 10
-1.023964566929134
 20
2.818720472440945
 30
0.0
 10
-1.023964566929134
 20
2.823385826771654
 30
0.0
 10
-1.025322834645669
 20
2.827523622047244
 30
0.0
 10
-1.027992125984252
 20
2.831137795275591
 30
0.0
 10
-1.027992125984252
 20
2.831137795275591
 30
0.0
 10
-1.030685039370079
 20
2.834748031496063
 30
0.0
 10
-1.034409448818898
 20
2.837330708661417
 30
0.0
 10
-1.039157480314961
 20
2.83894094488189
 30
0.0
 10
-1.039157480314961
 20
2.83894094488189
 30
0.0
 10
-1.043909448818898
 20
2.840555118110236
 30
0.0
 10
-1.052322834645669
 20
2.841330708661417
 30
0.0
 10
-1.064409448818898
 20
2.841330708661417
 30
0.0
 10
-1.064409448818898
 20
2.841330708661417
 30
0.0
 10
-1.064409448818898
 20
2.841330708661417
 30
0.0
 10
-1.086377952755906
 20
2.841330708661417
 30
0.0
 10
-1.086377952755906
 20
2.841330708661417
 30
0.0
  0
SPLINE
  5
2F
330
1F
100
AcDbEntity
  8
LAYER_1
 62
   250
100
AcDbSpline
210
0.0
220
0.0
230
1.0
 70
    11
 71
     3
 72
   112
 73
   108
 74
     0
 42
0.0000000001
 43
0.0000000001
 40
0.0
 40
0.0
 40
0.0
 40
0.0
 40
0.037037037037037
 40
0.037037037037037
 40
0.037037037037037
 40
0.037037037037037
 40
0.0740740740740741
 40
0.0740740740740741
 40
0.0740740740740741
 40
0.0740740740740741
 40
0.1111111111111111
 40
0.1111111111111111
 40
0.1111111111111111
 40
0.1111111111111111
 40
0.1481481481481481
 40
0.1481481481481481
 40
0.1481481481481481
 40
0.1481481481481481
 40
0.1851851851851852
 40
0.1851851851851852
 40
0.1851851851851852
 40
0.1851851851851852
 40
0.2222222222222222
 40
0.2222222222222222
 40
0.2222222222222222
 40
0.2222222222222222
 40
0.2592592592592592
 40
0.2592592592592592
 40
0.2592592592592592
 40
0.2592592592592592
 40
0.2962962962962963
 40
0.2962962962962963
 40
0.2962962962962963
 40
0.2962962962962963
 40
0.3333333333333333
 40
0.3333333333333333
 40
0.3333333333333333
 40
0.3333333333333333
 40
0.3703703703703704
 40
0.3703703703703704
 40
0.3703703703703704
 40
0.3703703703703704
 40
0.4074074074074074
 40
0.4074074074074074
 40
0.4074074074074074
 40
0.4074074074074074
 40
0.4444444444444444
 40
0.4444444444444444
 40
0.4444444444444444
 40
0.4444444444444444
 40
0.4814814814814815
 40
0.4814814814814815
 40
0.4814814814814815
 40
0.4814814814814815
 40
0.5185185185185185
 40
0.5185185185185185
 40
0.5185185185185185
 40
0.5185185185185185
 40
0.5555555555555556
 40
0.5555555555555556
 40
0.5555555555555556
 40
0.5555555555555556
 40
0.5925925925925926
 40
0.5925925925925926
 40
0.5925925925925926
 40
0.5925925925925926
 40
0.6296296296296295
 40
0.6296296296296295
 40
0.6296296296296295
 40
0.6296296296296295
 40
0.6666666666666665
 40
0.6666666666666665
 40
0.6666666666666665
 40
0.6666666666666665
 40
0.7037037037037035
 40
0.7037037037037035
 40
0.7037037037037035
 40
0.7037037037037035
 40
0.7407407407407405
 40
0.7407407407407405
 40
0.7407407407407405
 40
0.7407407407407405
 40
0.7777777777777775
 40
0.7777777777777775
 40
0.7777777777777775
 40
0.7777777777777775
 40
0.8148148148148144
 40
0.8148148148148144
 40
0.8148148148148144
 40
0.8148148148148144
 40
0.8518518518518514
 40
0.8518518518518514
 40
0.8518518518518514
 40
0.8518518518518514
 40
0.8888888888888884
 40
0.8888888888888884
 40
0.8888888888888884
 40
0.8888888888888884
 40
0.9259259259259254
 40
0.9259259259259254
 40
0.9259259259259254
 40
0.9259259259259254
 40
0.9629629629629624
 40
0.9629629629629624
 40
0.9629629629629624
 40
0.9629629629629624
 40
1.0
 40
1.0
 40
1.0
 40
1.0
 10
-0.9492716535433071
 20
2.899775590551181
 30
0.0
 10
-0.9492716535433071
 20
2.899775590551181
 30
0.0
 10
-0.9358543307086614
 20
2.899775590551181
 30
0.0
 10
-0.9358543307086614
 20
2.899775590551181
 30
0.0
 10
-0.9358543307086614
 20
2.899775590551181
 30
0.0
 10
-0.9358543307086614
 20
2.899775590551181
 30
0.0
 10
-0.9006062992125985
 20
2.804885826771653
 30
0.0
 10
-0.9006062992125985
 20
2.804885826771653
 30
0.0
 10
-0.9006062992125985
 20
2.804885826771653
 30
0.0
 10
-0.8988818897637796
 20
2.800110236220473
 30
0.0
 10
-0.8971338582677165
 20
2.79694094488189
 30
0.0
 10
-0.8953543307086614
 20
2.795413385826772
 30
0.0
 10
-0.8953543307086614
 20
2.795413385826772
 30
0.0
 10
-0.8936062992125985
 20
2.793858267716535
 30
0.0
 10
-0.8912165354330709
 20
2.793082677165355
 30
0.0
 10
-0.888244094488189
 20
2.793082677165355
 30
0.0
 10
-0.888244094488189
 20
2.793082677165355
 30
0.0
 10
-0.888244094488189
 20
2.793082677165355
 30
0.0
 10
-0.8864645669291339
 20
2.793082677165355
 30
0.0
 10
-0.8864645669291339
 20
2.793082677165355
 30
0.0
 10
-0.8864645669291339
 20
2.793082677165355
 30
0.0
 10
-0.8864645669291339
 20
2.793082677165355
 30
0.0
 10
-0.8864645669291339
 20
2.786248031496063
 30
0.0
 10
-0.8864645669291339
 20
2.786248031496063
 30
0.0
 10
-0.8864645669291339
 20
2.786248031496063
 30
0.0
 10
-0.8864645669291339
 20
2.786248031496063
 30
0.0
 10
-0.9269094488188977
 20
2.786248031496063
 30
0.0
 10
-0.9269094488188977
 20
2.786248031496063
 30
0.0
 10
-0.9269094488188977
 20
2.786248031496063
 30
0.0
 10
-0.9269094488188977
 20
2.786248031496063
 30
0.0
 10
-0.9269094488188977
 20
2.793082677165355
 30
0.0
 10
-0.9269094488188977
 20
2.793082677165355
 30
0.0
 10
-0.9269094488188977
 20
2.793082677165355
 30
0.0
 10
-0.9256062992125985
 20
2.793192913385827
 30
0.0
 10
-0.9243267716535434
 20
2.793248031496063
 30
0.0
 10
-0.9230748031496063
 20
2.793248031496063
 30
0.0
 10
-0.9230748031496063
 20
2.793248031496063
 30
0.0
 10
-0.9204645669291339
 20
2.793248031496063
 30
0.0
 10
-0.9187716535433071
 20
2.793527559055118
 30
0.0
 10
-0.9179370078740158
 20
2.794055118110236
 30
0.0
 10
-0.9179370078740158
 20
2.794055118110236
 30
0.0
 10
-0.9163818897637795
 20
2.795082677165354
 30
0.0
 10
-0.9155787401574803
 20
2.796385826771654
 30
0.0
 10
-0.9155787401574803
 20
2.797968503937008
 30
0.0
 10
-0.9155787401574803
 20
2.797968503937008
 30
0.0
 10
-0.9155787401574803
 20
2.799110236220473
 30
0.0
 10
-0.9163543307086615
 20
2.801885826771654
 30
0.0
 10
-0.9178543307086614
 20
2.806358267716536
 30
0.0
 10
-0.9178543307086614
 20
2.806358267716536
 30
0.0
 10
-0.9178543307086614
 20
2.806358267716536
 30
0.0
 10
-0.9253543307086615
 20
2.828330708661417
 30
0.0
 10
-0.9253543307086615
 20
2.828330708661417
 30
0.0
 10
-0.9253543307086615
 20
2.828330708661417
 30
0.0
 10
-0.9253543307086615
 20
2.828330708661417
 30
0.0
 10
-0.9665196850393701
 20
2.828330708661417
 30
0.0
 10
-0.9665196850393701
 20
2.828330708661417
 30
0.0
 10
-0.9665196850393701
 20
2.828330708661417
 30
0.0
 10
-0.9665196850393701
 20
2.828330708661417
 30
0.0
 10
-0.9753267716535433
 20
2.803748031496063
 30
0.0
 10
-0.9753267716535433
 20
2.803748031496063
 30
0.0
 10
-0.9753267716535433
 20
2.803748031496063
 30
0.0
 10
-0.9762440944881891
 20
2.801192913385827
 30
0.0
 10
-0.9767165354330709
 20
2.79944094488189
 30
0.0
 10
-0.9767165354330709
 20
2.79844094488189
 30
0.0
 10
-0.9767165354330709
 20
2.79844094488189
 30
0.0
 10
-0.9767165354330709
 20
2.797358267716536
 30
0.0
 10
-0.9764094488188977
 20
2.796413385826772
 30
0.0
 10
-0.9758543307086615
 20
2.795610236220472
 30
0.0
 10
-0.9758543307086615
 20
2.795610236220472
 30
0.0
 10
-0.9752716535433071
 20
2.794803149606299
 30
0.0
 10
-0.9745196850393701
 20
2.794192913385827
 30
0.0
 10
-0.9735196850393701
 20
2.793775590551181
 30
0.0
 10
-0.9735196850393701
 20
2.793775590551181
 30
0.0
 10
-0.9725472440944882
 20
2.793358267716536
 30
0.0
 10
-0.970992125984252
 20
2.793165354330709
 30
0.0
 10
-0.9687992125984253
 20
2.793165354330709
 30
0.0
 10
-0.9687992125984253
 20
2.793165354330709
 30
0.0
 10
-0.9673543307086615
 20
2.793165354330709
 30
0.0
 10
-0.9661614173228347
 20
2.793137795275591
 30
0.0
 10
-0.965244094488189
 20
2.793082677165355
 30
0.0
 10
-0.965244094488189
 20
2.793082677165355
 30
0.0
 10
-0.965244094488189
 20
2.793082677165355
 30
0.0
 10
-0.965244094488189
 20
2.786248031496063
 30
0.0
 10
-0.965244094488189
 20
2.786248031496063
 30
0.0
 10
-0.965244094488189
 20
2.786248031496063
 30
0.0
 10
-0.965244094488189
 20
2.786248031496063
 30
0.0
 10
-0.9991614173228347
 20
2.786248031496063
 30
0.0
 10
-0.9991614173228347
 20
2.786248031496063
 30
0.0
 10
-0.9991614173228347
 20
2.786248031496063
 30
0.0
 10
-0.9991614173228347
 20
2.786248031496063
 30
0.0
 10
-0.9991614173228347
 20
2.793082677165355
 30
0.0
 10
-0.9991614173228347
 20
2.793082677165355
 30
0.0
 10
-0.9991614173228347
 20
2.793082677165355
 30
0.0
 10
-0.9960196850393701
 20
2.793082677165355
 30
0.0
 10
-0.993744094488189
 20
2.793385826771654
 30
0.0
 10
-0.9923818897637796
 20
2.794027559055118
 30
0.0
 10
-0.9923818897637796
 20
2.794027559055118
 30
0.0
 10
-0.990992125984252
 20
2.794637795275591
 30
0.0
 10
-0.9897716535433071
 20
2.795637795275591
 30
0.0
 10
-0.988744094488189
 20
2.797027559055118
 30
0.0
 10
-0.988744094488189
 20
2.797027559055118
 30
0.0
 10
-0.9877165354330709
 20
2.798413385826772
 30
0.0
 10
-0.9863543307086614
 20
2.801330708661418
 30
0.0
 10
-0.9846889763779528
 20
2.805775590551181
 30
0.0
 10
-0.9846889763779528
 20
2.805775590551181
 30
0.0
 10
-0.9846889763779528
 20
2.805775590551181
 30
0.0
 10
-0.9492716535433071
 20
2.899775590551181
 30
0.0
 10
-0.9492716535433071
 20
2.899775590551181
 30
0.0
  0
SPLINE
  5
30
330
1F
100
AcDbEntity
  8
LAYER_1
 62
   250
100
AcDbSpline
210
0.0
220
0.0
230
1.0
 70
    11
 71
     3
 72
    16
 73
    12
 74
     0
 42
0.0000000001
 43
0.0000000001
 40
0.0
 40
0.0
 40
0.0
 40
0.0
 40
0.3333333333333333
 40
0.3333333333333333
 40
0.3333333333333333
 40
0.3333333333333333
 40
0.6666666666666666
 40
0.6666666666666666
 40
0.6666666666666666
 40
0.6666666666666666
 40
1.0
 40
1.0
 40
1.0
 40
1.0
 10
-0.9635196850393701
 20
2.836303149606299
 30
0.0
 10
-0.9635196850393701
 20
2.836303149606299
 30
0.0
 10
-0.9284370078740157
 20
2.836303149606299
 30
0.0
 10
-0.9284370078740157
 20
2.836303149606299
 30
0.0
 10
-0.9284370078740157
 20
2.836303149606299
 30
0.0
 10
-0.9284370078740157
 20
2.836303149606299
 30
0.0
 10
-0.9460196850393701
 20
2.885137795275591
 30
0.0
 10
-0.9460196850393701
 20
2.885137795275591
 30
0.0
 10
-0.9460196850393701
 20
2.885137795275591
 30
0.0
 10
-0.9460196850393701
 20
2.885137795275591
 30
0.0
 10
-0.9635196850393701
 20
2.836303149606299
 30
0.0
 10
-0.9635196850393701
 20
2.836303149606299
 30
0.0
  0
SPLINE
  5
31
330
1F
100
AcDbEntity
  8
LAYER_1
 62
   250
100
AcDbSpline
210
0.0
220
0.0
230
1.0
 70
    11
 71
     3
 72
    72
 73
    68
 74
     0
 42
0.0000000001
 43
0.0000000001
 40
0.0
 40
0.0
 40
0.0
 40
0.0
 40
0.0588235294117647
 40
0.0588235294117647
 40
0.0588235294117647
 40
0.0588235294117647
 40
0.1176470588235294
 40
0.1176470588235294
 40
0.1176470588235294
 40
0.1176470588235294
 40
0.1764705882352941
 40
0.1764705882352941
 40
0.1764705882352941
 40
0.1764705882352941
 40
0.2352941176470588
 40
0.2352941176470588
 40
0.2352941176470588
 40
0.2352941176470588
 40
0.2941176470588235
 40
0.2941176470588235
 40
0.2941176470588235
 40
0.2941176470588235
 40
0.3529411764705883
 40
0.3529411764705883
 40
0.3529411764705883
 40
0.3529411764705883
 40
0.411764705882353
 40
0.411764705882353
 40
0.411764705882353
 40
0.411764705882353
 40
0.4705882352941177
 40
0.4705882352941177
 40
0.4705882352941177
 40
0.4705882352941177
 40
0.5294117647058824
 40
0.5294117647058824
 40
0.5294117647058824
 40
0.5294117647058824
 40
0.5882352941176471
 40
0.5882352941176471
 40
0.5882352941176471
 40
0.5882352941176471
 40
0.6470588235294118
 40
0.6470588235294118
 40
0.6470588235294118
 40
0.6470588235294118
 40
0.7058823529411765
 40
0.7058823529411765
 40
0.7058823529411765
 40
0.7058823529411765
 40
0.7647058823529412
 40
0.7647058823529412
 40
0.7647058823529412
 40
0.7647058823529412
 40
0.823529411764706
 40
0.823529411764706
 40
0.823529411764706
 40
0.823529411764706
 40
0.8823529411764707
 40
0.8823529411764707
 40
0.8823529411764707
 40
0.8823529411764707
 40
0.9411764705882354
 40
0.9411764705882354
 40
0.9411764705882354
 40
0.9411764705882354
 40
1.0
 40
1.0
 40
1.0
 40
1.0
 10
-0.7234370078740158
 20
2.899775590551181
 30
0.0
 10
-0.7234370078740158
 20
2.899775590551181
 30
0.0
 10
-0.7173543307086614
 20
2.899775590551181
 30
0.0
 10
-0.7173543307086614
 20
2.899775590551181
 30
0.0
 10
-0.7173543307086614
 20
2.899775590551181
 30
0.0
 10
-0.7173543307086614
 20
2.899775590551181
 30
0.0
 10
-0.7173543307086614
 20
2.805527559055118
 30
0.0
 10
-0.7173543307086614
 20
2.805527559055118
 30
0.0
 10
-0.7173543307086614
 20
2.805527559055118
 30
0.0
 10
-0.7173543307086614
 20
2.801082677165355
 30
0.0
 10
-0.7170472440944882
 20
2.798220472440945
 30
0.0
 10
-0.7164921259842521
 20
2.79694094488189
 30
0.0
 10
-0.7164921259842521
 20
2.79694094488189
 30
0.0
 10
-0.7159094488188976
 20
2.795665354330709
 30
0.0
 10
-0.714992125984252
 20
2.794720472440945
 30
0.0
 10
-0.7136889763779528
 20
2.794055118110236
 30
0.0
 10
-0.7136889763779528
 20
2.794055118110236
 30
0.0
 10
-0.7123818897637796
 20
2.793413385826772
 30
0.0
 10
-0.7097992125984253
 20
2.793082677165355
 30
0.0
 10
-0.7059370078740158
 20
2.793082677165355
 30
0.0
 10
-0.7059370078740158
 20
2.793082677165355
 30
0.0
 10
-0.7059370078740158
 20
2.793082677165355
 30
0.0
 10
-0.6979645669291339
 20
2.793082677165355
 30
0.0
 10
-0.6979645669291339
 20
2.793082677165355
 30
0.0
 10
-0.6979645669291339
 20
2.793082677165355
 30
0.0
 10
-0.6979645669291339
 20
2.793082677165355
 30
0.0
 10
-0.6979645669291339
 20
2.786248031496063
 30
0.0
 10
-0.6979645669291339
 20
2.786248031496063
 30
0.0
 10
-0.6979645669291339
 20
2.786248031496063
 30
0.0
 10
-0.6979645669291339
 20
2.786248031496063
 30
0.0
 10
-0.7516023622047244
 20
2.786248031496063
 30
0.0
 10
-0.7516023622047244
 20
2.786248031496063
 30
0.0
 10
-0.7516023622047244
 20
2.786248031496063
 30
0.0
 10
-0.7516023622047244
 20
2.786248031496063
 30
0.0
 10
-0.7516023622047244
 20
2.793082677165355
 30
0.0
 10
-0.7516023622047244
 20
2.793082677165355
 30
0.0
 10
-0.7516023622047244
 20
2.793082677165355
 30
0.0
 10
-0.7516023622047244
 20
2.793082677165355
 30
0.0
 10
-0.742744094488189
 20
2.793082677165355
 30
0.0
 10
-0.742744094488189
 20
2.793082677165355
 30
0.0
 10
-0.742744094488189
 20
2.793082677165355
 30
0.0
 10
-0.7388818897637796
 20
2.793082677165355
 30
0.0
 10
-0.7363267716535433
 20
2.793413385826772
 30
0.0
 10
-0.7350472440944882
 20
2.794110236220472
 30
0.0
 10
-0.7350472440944882
 20
2.794110236220472
 30
0.0
 10
-0.7337716535433071
 20
2.794775590551181
 30
0.0
 10
-0.7327716535433071
 20
2.795858267716536
 30
0.0
 10
-0.7320748031496064
 20
2.797358267716536
 30
0.0
 10
-0.7320748031496064
 20
2.797358267716536
 30
0.0
 10
-0.7313818897637796
 20
2.798858267716536
 30
0.0
 10
-0.7310196850393701
 20
2.801582677165354
 30
0.0
 10
-0.7310196850393701
 20
2.805527559055118
 30
0.0
 10
-0.7310196850393701
 20
2.805527559055118
 30
0.0
 10
-0.7310196850393701
 20
2.805527559055118
 30
0.0
 10
-0.7310196850393701
 20
2.882996062992126
 30
0.0
 10
-0.7310196850393701
 20
2.882996062992126
 30
0.0
 10
-0.7310196850393701
 20
2.882996062992126
 30
0.0
 10
-0.7310196850393701
 20
2.882996062992126
 30
0.0
 10
-0.7516023622047244
 20
2.882996062992126
 30
0.0
 10
-0.7516023622047244
 20
2.882996062992126
 30
0.0
 10
-0.7516023622047244
 20
2.882996062992126
 30
0.0
 10
-0.7516023622047244
 20
2.882996062992126
 30
0.0
 10
-0.7516023622047244
 20
2.889996062992126
 30
0.0
 10
-0.7516023622047244
 20
2.889996062992126
 30
0.0
 10
-0.7516023622047244
 20
2.889996062992126
 30
0.0
 10
-0.7403818897637796
 20
2.891578740157481
 30
0.0
 10
-0.730992125984252
 20
2.894830708661417
 30
0.0
 10
-0.7234370078740158
 20
2.899775590551181
 30
0.0
  0
SPLINE
  5
32
330
1F
100
AcDbEntity
  8
LAYER_1
 62
   250
100
AcDbSpline
210
0.0
220
0.0
230
1.0
 70
    11
 71
     3
 72
    76
 73
    72
 74
     0
 42
0.0000000001
 43
0.0000000001
 40
0.0
 40
0.0
 40
0.0
 40
0.0
 40
0.0555555555555556
 40
0.0555555555555556
 40
0.0555555555555556
 40
0.0555555555555556
 40
0.1111111111111111
 40
0.1111111111111111
 40
0.1111111111111111
 40
0.1111111111111111
 40
0.1666666666666667
 40
0.1666666666666667
 40
0.1666666666666667
 40
0.1666666666666667
 40
0.2222222222222222
 40
0.2222222222222222
 40
0.2222222222222222
 40
0.2222222222222222
 40
0.2777777777777778
 40
0.2777777777777778
 40
0.2777777777777778
 40
0.2777777777777778
 40
0.3333333333333334
 40
0.3333333333333334
 40
0.3333333333333334
 40
0.3333333333333334
 40
0.388888888888889
 40
0.388888888888889
 40
0.388888888888889
 40
0.388888888888889
 40
0.4444444444444445
 40
0.4444444444444445
 40
0.4444444444444445
 40
0.4444444444444445
 40
0.5000000000000001
 40
0.5000000000000001
 40
0.5000000000000001
 40
0.5000000000000001
 40
0.5555555555555557
 40
0.5555555555555557
 40
0.5555555555555557
 40
0.5555555555555557
 40
0.6111111111111113
 40
0.6111111111111113
 40
0.6111111111111113
 40
0.6111111111111113
 40
0.6666666666666669
 40
0.6666666666666669
 40
0.6666666666666669
 40
0.6666666666666669
 40
0.7222222222222224
 40
0.7222222222222224
 40
0.7222222222222224
 40
0.7222222222222224
 40
0.777777777777778
 40
0.777777777777778
 40
0.777777777777778
 40
0.777777777777778
 40
0.8333333333333336
 40
0.8333333333333336
 40
0.8333333333333336
 40
0.8333333333333336
 40
0.8888888888888892
 40
0.8888888888888892
 40
0.8888888888888892
 40
0.8888888888888892
 40
0.9444444444444448
 40
0.9444444444444448
 40
0.9444444444444448
 40
0.9444444444444448
 40
1.0
 40
1.0
 40
1.0
 40
1.0
 10
-0.6116299212598425
 20
2.849248031496063
 30
0.0
 10
-0.6052125984251969
 20
2.846803149606299
 30
0.0
 10
-0.6003267716535433
 20
2.844496062992126
 30
0.0
 10
-0.5969645669291339
 20
2.842330708661418
 30
0.0
 10
-0.5969645669291339
 20
2.842330708661418
 30
0.0
 10
-0.5920472440944882
 20
2.839165354330709
 30
0.0
 10
-0.5883267716535433
 20
2.835468503937008
 30
0.0
 10
-0.5858267716535434
 20
2.831220472440945
 30
0.0
 10
-0.5858267716535434
 20
2.831220472440945
 30
0.0
 10
-0.5833267716535433
 20
2.82694094488189
 30
0.0
 10
-0.5820748031496064
 20
2.822330708661418
 30
0.0
 10
-0.5820748031496064
 20
2.817330708661417
 30
0.0
 10
-0.5820748031496064
 20
2.817330708661417
 30
0.0
 10
-0.5820748031496064
 20
2.808385826771654
 30
0.0
 10
-0.5859370078740158
 20
2.800637795275591
 30
0.0
 10
-0.5936299212598426
 20
2.794110236220472
 30
0.0
 10
-0.5936299212598426
 20
2.794110236220472
 30
0.0
 10
-0.6013543307086614
 20
2.787555118110237
 30
0.0
 10
-0.611740157480315
 20
2.784303149606299
 30
0.0
 10
-0.6247992125984252
 20
2.784303149606299
 30
0.0
 10
-0.6247992125984252
 20
2.784303149606299
 30
0.0
 10
-0.6386299212598425
 20
2.784303149606299
 30
0.0
 10
-0.649492125984252
 20
2.787996062992126
 30
0.0
 10
-0.6573543307086615
 20
2.795358267716535
 30
0.0
 10
-0.6573543307086615
 20
2.795358267716535
 30
0.0
 10
-0.6636023622047245
 20
2.801275590551181
 30
0.0
 10
-0.6667125984251969
 20
2.807968503937008
 30
0.0
 10
-0.6667125984251969
 20
2.815468503937008
 30
0.0
 10
-0.6667125984251969
 20
2.815468503937008
 30
0.0
 10
-0.6667125984251969
 20
2.821496062992126
 30
0.0
 10
-0.6646023622047245
 20
2.826885826771654
 30
0.0
 10
-0.6603818897637795
 20
2.831665354330709
 30
0.0
 10
-0.6603818897637795
 20
2.831665354330709
 30
0.0
 10
-0.6552677165354331
 20
2.837358267716536
 30
0.0
 10
-0.647992125984252
 20
2.841803149606299
 30
0.0
 10
-0.6385472440944883
 20
2.844996062992126
 30
0.0
 10
-0.6385472440944883
 20
2.844996062992126
 30
0.0
 10
-0.6459370078740158
 20
2.848468503937008
 30
0.0
 10
-0.6512401574803149
 20
2.851996062992126
 30
0.0
 10
-0.6545196850393701
 20
2.855582677165355
 30
0.0
 10
-0.6545196850393701
 20
2.855582677165355
 30
0.0
 10
-0.6586850393700787
 20
2.860303149606299
 30
0.0
 10
-0.6607677165354331
 20
2.865968503937008
 30
0.0
 10
-0.6607677165354331
 20
2.872578740157481
 30
0.0
 10
-0.6607677165354331
 20
2.872578740157481
 30
0.0
 10
-0.6607677165354331
 20
2.880775590551181
 30
0.0
 10
-0.6576850393700787
 20
2.887413385826772
 30
0.0
 10
-0.651492125984252
 20
2.89244094488189
 30
0.0
 10
-0.651492125984252
 20
2.89244094488189
 30
0.0
 10
-0.6439094488188977
 20
2.898637795275591
 30
0.0
 10
-0.6344094488188977
 20
2.901720472440945
 30
0.0
 10
-0.6230196850393701
 20
2.901720472440945
 30
0.0
 10
-0.6230196850393701
 20
2.901720472440945
 30
0.0
 10
-0.6126023622047244
 20
2.901720472440945
 30
0.0
 10
-0.6041850393700787
 20
2.899051181102363
 30
0.0
 10
-0.597740157480315
 20
2.893720472440945
 30
0.0
 10
-0.597740157480315
 20
2.893720472440945
 30
0.0
 10
-0.5913267716535433
 20
2.888358267716535
 30
0.0
 10
-0.5881023622047245
 20
2.882248031496063
 30
0.0
 10
-0.5881023622047245
 20
2.875358267716536
 30
0.0
 10
-0.5881023622047245
 20
2.875358267716536
 30
0.0
 10
-0.5881023622047245
 20
2.87194094488189
 30
0.0
 10
-0.5889094488188976
 20
2.868665354330709
 30
0.0
 10
-0.5904921259842519
 20
2.865551181102362
 30
0.0
 10
-0.5904921259842519
 20
2.865551181102362
 30
0.0
 10
-0.5921023622047245
 20
2.86244094488189
 30
0.0
 10
-0.5945472440944882
 20
2.859523622047244
 30
0.0
 10
-0.5978818897637795
 20
2.856858267716536
 30
0.0
 10
-0.5978818897637795
 20
2.856858267716536
 30
0.0
 10
-0.6011850393700787
 20
2.854165354330709
 30
0.0
 10
-0.6057716535433071
 20
2.851637795275591
 30
0.0
 10
-0.6116299212598425
 20
2.849248031496063
 30
0.0
  0
SPLINE
  5
33
330
1F
100
AcDbEntity
  8
LAYER_1
 62
   250
100
AcDbSpline
210
0.0
220
0.0
230
1.0
 70
    11
 71
     3
 72
    48
 73
    44
 74
     0
 42
0.0000000001
 43
0.0000000001
 40
0.0
 40
0.0
 40
0.0
 40
0.0
 40
0.0909090909090909
 40
0.0909090909090909
 40
0.0909090909090909
 40
0.0909090909090909
 40
0.1818181818181818
 40
0.1818181818181818
 40
0.1818181818181818
 40
0.1818181818181818
 40
0.2727272727272727
 40
0.2727272727272727
 40
0.2727272727272727
 40
0.2727272727272727
 40
0.3636363636363637
 40
0.3636363636363637
 40
0.3636363636363637
 40
0.3636363636363637
 40
0.4545454545454546
 40
0.4545454545454546
 40
0.4545454545454546
 40
0.4545454545454546
 40
0.5454545454545455
 40
0.5454545454545455
 40
0.5454545454545455
 40
0.5454545454545455
 40
0.6363636363636365
 40
0.6363636363636365
 40
0.6363636363636365
 40
0.6363636363636365
 40
0.7272727272727274
 40
0.7272727272727274
 40
0.7272727272727274
 40
0.7272727272727274
 40
0.8181818181818183
 40
0.8181818181818183
 40
0.8181818181818183
 40
0.8181818181818183
 40
0.9090909090909093
 40
0.9090909090909093
 40
0.9090909090909093
 40
0.9090909090909093
 40
1.0
 40
1.0
 40
1.0
 40
1.0
 10
-0.6190196850393701
 20
2.852248031496063
 30
0.0
 10
-0.6128543307086615
 20
2.856913385826772
 30
0.0
 10
-0.6088267716535434
 20
2.860165354330709
 30
0.0
 10
-0.606992125984252
 20
2.862023622047244
 30
0.0
 10
-0.606992125984252
 20
2.862023622047244
 30
0.0
 10
-0.6051299212598426
 20
2.863858267716536
 30
0.0
 10
-0.6037125984251969
 20
2.865968503937008
 30
0.0
 10
-0.6027125984251969
 20
2.868330708661417
 30
0.0
 10
-0.6027125984251969
 20
2.868330708661417
 30
0.0
 10
-0.6017125984251969
 20
2.870692913385827
 30
0.0
 10
-0.6012125984251969
 20
2.872968503937008
 30
0.0
 10
-0.6012125984251969
 20
2.875192913385827
 30
0.0
 10
-0.6012125984251969
 20
2.875192913385827
 30
0.0
 10
-0.6012125984251969
 20
2.878385826771654
 30
0.0
 10
-0.6021574803149606
 20
2.88144094488189
 30
0.0
 10
-0.6040472440944882
 20
2.884358267716535
 30
0.0
 10
-0.6040472440944882
 20
2.884358267716535
 30
0.0
 10
-0.6059645669291339
 20
2.887248031496063
 30
0.0
 10
-0.608740157480315
 20
2.889610236220473
 30
0.0
 10
-0.6124094488188977
 20
2.891385826771654
 30
0.0
 10
-0.6124094488188977
 20
2.891385826771654
 30
0.0
 10
-0.6160472440944882
 20
2.893192913385827
 30
0.0
 10
-0.6201574803149607
 20
2.894078740157481
 30
0.0
 10
-0.6247125984251969
 20
2.894078740157481
 30
0.0
 10
-0.6247125984251969
 20
2.894078740157481
 30
0.0
 10
-0.6314645669291339
 20
2.894078740157481
 30
0.0
 10
-0.6370472440944882
 20
2.892220472440945
 30
0.0
 10
-0.641492125984252
 20
2.888496062992126
 30
0.0
 10
-0.641492125984252
 20
2.888496062992126
 30
0.0
 10
-0.6459370078740158
 20
2.884775590551181
 30
0.0
 10
-0.6481574803149607
 20
2.880496062992126
 30
0.0
 10
-0.6481574803149607
 20
2.875610236220473
 30
0.0
 10
-0.6481574803149607
 20
2.875610236220473
 30
0.0
 10
-0.6481574803149607
 20
2.871692913385827
 30
0.0
 10
-0.6467677165354331
 20
2.868192913385827
 30
0.0
 10
-0.6440196850393701
 20
2.865110236220473
 30
0.0
 10
-0.6440196850393701
 20
2.865110236220473
 30
0.0
 10
-0.6412401574803149
 20
2.862023622047244
 30
0.0
 10
-0.6361023622047244
 20
2.858968503937008
 30
0.0
 10
-0.6285472440944883
 20
2.855996062992126
 30
0.0
 10
-0.6285472440944883
 20
2.855996062992126
 30
0.0
 10
-0.6285472440944883
 20
2.855996062992126
 30
0.0
 10
-0.6190196850393701
 20
2.852248031496063
 30
0.0
 10
-0.6190196850393701
 20
2.852248031496063
 30
0.0
  0
SPLINE
  5
34
330
1F
100
AcDbEntity
  8
LAYER_1
 62
   250
100
AcDbSpline
210
0.0
220
0.0
230
1.0
 70
    11
 71
     3
 72
    40
 73
    36
 74
     0
 42
0.0000000001
 43
0.0000000001
 40
0.0
 40
0.0
 40
0.0
 40
0.0
 40
0.1111111111111111
 40
0.1111111111111111
 40
0.1111111111111111
 40
0.1111111111111111
 40
0.2222222222222222
 40
0.2222222222222222
 40
0.2222222222222222
 40
0.2222222222222222
 40
0.3333333333333333
 40
0.3333333333333333
 40
0.3333333333333333
 40
0.3333333333333333
 40
0.4444444444444444
 40
0.4444444444444444
 40
0.4444444444444444
 40
0.4444444444444444
 40
0.5555555555555556
 40
0.5555555555555556
 40
0.5555555555555556
 40
0.5555555555555556
 40
0.6666666666666667
 40
0.6666666666666667
 40
0.6666666666666667
 40
0.6666666666666667
 40
0.7777777777777779
 40
0.7777777777777779
 40
0.7777777777777779
 40
0.7777777777777779
 40
0.8888888888888891
 40
0.8888888888888891
 40
0.8888888888888891
 40
0.8888888888888891
 40
1.0
 40
1.0
 40
1.0
 40
1.0
 10
-0.630492125984252
 20
2.841830708661417
 30
0.0
 10
-0.6381574803149607
 20
2.838468503937008
 30
0.0
 10
-0.6442125984251969
 20
2.834110236220472
 30
0.0
 10
-0.6486574803149606
 20
2.828720472440945
 30
0.0
 10
-0.6486574803149606
 20
2.828720472440945
 30
0.0
 10
-0.6521299212598426
 20
2.824496062992126
 30
0.0
 10
-0.6538543307086614
 20
2.820110236220473
 30
0.0
 10
-0.6538543307086614
 20
2.815555118110237
 30
0.0
 10
-0.6538543307086614
 20
2.815555118110237
 30
0.0
 10
-0.6538543307086614
 20
2.809358267716536
 30
0.0
 10
-0.6511299212598426
 20
2.803858267716536
 30
0.0
 10
-0.6456299212598425
 20
2.799055118110236
 30
0.0
 10
-0.6456299212598425
 20
2.799055118110236
 30
0.0
 10
-0.6401574803149607
 20
2.794275590551181
 30
0.0
 10
-0.6330748031496063
 20
2.791858267716536
 30
0.0
 10
-0.6244094488188977
 20
2.791858267716536
 30
0.0
 10
-0.6244094488188977
 20
2.791858267716536
 30
0.0
 10
-0.6155472440944882
 20
2.791858267716536
 30
0.0
 10
-0.6081850393700787
 20
2.794610236220473
 30
0.0
 10
-0.6022716535433071
 20
2.800082677165355
 30
0.0
 10
-0.6022716535433071
 20
2.800082677165355
 30
0.0
 10
-0.5974370078740158
 20
2.804527559055118
 30
0.0
 10
-0.5950196850393701
 20
2.809303149606299
 30
0.0
 10
-0.5950196850393701
 20
2.814413385826772
 30
0.0
 10
-0.5950196850393701
 20
2.814413385826772
 30
0.0
 10
-0.5950196850393701
 20
2.818413385826772
 30
0.0
 10
-0.5966023622047244
 20
2.822248031496063
 30
0.0
 10
-0.5997716535433071
 20
2.825913385826772
 30
0.0
 10
-0.5997716535433071
 20
2.825913385826772
 30
0.0
 10
-0.6029645669291339
 20
2.829582677165354
 30
0.0
 10
-0.6088543307086615
 20
2.833137795275591
 30
0.0
 10
-0.617492125984252
 20
2.836610236220472
 30
0.0
 10
-0.617492125984252
 20
2.836610236220472
 30
0.0
 10
-0.617492125984252
 20
2.836610236220472
 30
0.0
 10
-0.630492125984252
 20
2.841830708661417
 30
0.0
 10
-0.630492125984252
 20
2.841830708661417
 30
0.0
  0
SPLINE
  5
35
330
1F
100
AcDbEntity
  8
LAYER_1
 62
   250
100
AcDbSpline
210
0.0
220
0.0
230
1.0
 70
    11
 71
     3
 72
    48
 73
    44
 74
     0
 42
0.0000000001
 43
0.0000000001
 40
0.0
 40
0.0
 40
0.0
 40
0.0
 40
0.0909090909090909
 40
0.0909090909090909
 40
0.0909090909090909
 40
0.0909090909090909
 40
0.1818181818181818
 40
0.1818181818181818
 40
0.1818181818181818
 40
0.1818181818181818
 40
0.2727272727272727
 40
0.2727272727272727
 40
0.2727272727272727
 40
0.2727272727272727
 40
0.3636363636363637
 40
0.3636363636363637
 40
0.3636363636363637
 40
0.3636363636363637
 40
0.4545454545454546
 40
0.4545454545454546
 40
0.4545454545454546
 40
0.4545454545454546
 40
0.5454545454545455
 40
0.5454545454545455
 40
0.5454545454545455
 40
0.5454545454545455
 40
0.6363636363636365
 40
0.6363636363636365
 40
0.6363636363636365
 40
0.6363636363636365
 40
0.7272727272727274
 40
0.7272727272727274
 40
0.7272727272727274
 40
0.7272727272727274
 40
0.8181818181818183
 40
0.8181818181818183
 40
0.8181818181818183
 40
0.8181818181818183
 40
0.9090909090909093
 40
0.9090909090909093
 40
0.9090909090909093
 40
0.9090909090909093
 40
1.0
 40
1.0
 40
1.0
 40
1.0
 10
-0.5123228346456693
 20
2.899775590551181
 30
0.0
 10
-0.5123228346456693
 20
2.899775590551181
 30
0.0
 10
-0.4985748031496063
 20
2.899775590551181
 30
0.0
 10
-0.4985748031496063
 20
2.899775590551181
 30
0.0
 10
-0.4985748031496063
 20
2.899775590551181
 30
0.0
 10
-0.4985748031496063
 20
2.899775590551181
 30
0.0
 10
-0.4985748031496063
 20
2.833775590551181
 30
0.0
 10
-0.4985748031496063
 20
2.833775590551181
 30
0.0
 10
-0.4985748031496063
 20
2.833775590551181
 30
0.0
 10
-0.4985748031496063
 20
2.833775590551181
 30
0.0
 10
-0.477240157480315
 20
2.833775590551181
 30
0.0
 10
-0.477240157480315
 20
2.833775590551181
 30
0.0
 10
-0.477240157480315
 20
2.833775590551181
 30
0.0
 10
-0.477240157480315
 20
2.833775590551181
 30
0.0
 10
-0.477240157480315
 20
2.823610236220473
 30
0.0
 10
-0.477240157480315
 20
2.823610236220473
 30
0.0
 10
-0.477240157480315
 20
2.823610236220473
 30
0.0
 10
-0.477240157480315
 20
2.823610236220473
 30
0.0
 10
-0.4985748031496063
 20
2.823610236220473
 30
0.0
 10
-0.4985748031496063
 20
2.823610236220473
 30
0.0
 10
-0.4985748031496063
 20
2.823610236220473
 30
0.0
 10
-0.4985748031496063
 20
2.823610236220473
 30
0.0
 10
-0.4985748031496063
 20
2.786248031496063
 30
0.0
 10
-0.4985748031496063
 20
2.786248031496063
 30
0.0
 10
-0.4985748031496063
 20
2.786248031496063
 30
0.0
 10
-0.4985748031496063
 20
2.786248031496063
 30
0.0
 10
-0.5123228346456693
 20
2.786248031496063
 30
0.0
 10
-0.5123228346456693
 20
2.786248031496063
 30
0.0
 10
-0.5123228346456693
 20
2.786248031496063
 30
0.0
 10
-0.5123228346456693
 20
2.786248031496063
 30
0.0
 10
-0.5123228346456693
 20
2.823610236220473
 30
0.0
 10
-0.5123228346456693
 20
2.823610236220473
 30
0.0
 10
-0.5123228346456693
 20
2.823610236220473
 30
0.0
 10
-0.5123228346456693
 20
2.823610236220473
 30
0.0
 10
-0.5657952755905512
 20
2.823610236220473
 30
0.0
 10
-0.5657952755905512
 20
2.823610236220473
 30
0.0
 10
-0.5657952755905512
 20
2.823610236220473
 30
0.0
 10
-0.5657952755905512
 20
2.823610236220473
 30
0.0
 10
-0.5657952755905512
 20
2.837913385826772
 30
0.0
 10
-0.5657952755905512
 20
2.837913385826772
 30
0.0
 10
-0.5657952755905512
 20
2.837913385826772
 30
0.0
 10
-0.5657952755905512
 20
2.837913385826772
 30
0.0
 10
-0.5123228346456693
 20
2.899775590551181
 30
0.0
 10
-0.5123228346456693
 20
2.899775590551181
 30
0.0
  0
SPLINE
  5
36
330
1F
100
AcDbEntity
  8
LAYER_1
 62
   250
100
AcDbSpline
210
0.0
220
0.0
230
1.0
 70
    11
 71
     3
 72
    16
 73
    12
 74
     0
 42
0.0000000001
 43
0.0000000001
 40
0.0
 40
0.0
 40
0.0
 40
0.0
 40
0.3333333333333333
 40
0.3333333333333333
 40
0.3333333333333333
 40
0.3333333333333333
 40
0.6666666666666666
 40
0.6666666666666666
 40
0.6666666666666666
 40
0.6666666666666666
 40
1.0
 40
1.0
 40
1.0
 40
1.0
 10
-0.5123228346456693
 20
2.833775590551181
 30
0.0
 10
-0.5123228346456693
 20
2.833775590551181
 30
0.0
 10
-0.5123228346456693
 20
2.887165354330709
 30
0.0
 10
-0.5123228346456693
 20
2.887165354330709
 30
0.0
 10
-0.5123228346456693
 20
2.887165354330709
 30
0.0
 10
-0.5123228346456693
 20
2.887165354330709
 30
0.0
 10
-0.5583779527559055
 20
2.833775590551181
 30
0.0
 10
-0.5583779527559055
 20
2.833775590551181
 30
0.0
 10
-0.5583779527559055
 20
2.833775590551181
 30
0.0
 10
-0.5583779527559055
 20
2.833775590551181
 30
0.0
 10
-0.5123228346456693
 20
2.833775590551181
 30
0.0
 10
-0.5123228346456693
 20
2.833775590551181
 30
0.0
  0
SPLINE
  5
37
330
1F
100
AcDbEntity
  8
LAYER_1
 62
   250
100
AcDbSpline
210
0.0
220
0.0
230
1.0
 70
    11
 71
     3
 72
    48
 73
    44
 74
     0
 42
0.0000000001
 43
0.0000000001
 40
0.0
 40
0.0
 40
0.0
 40
0.0
 40
0.0909090909090909
 40
0.0909090909090909
 40
0.0909090909090909
 40
0.0909090909090909
 40
0.1818181818181818
 40
0.1818181818181818
 40
0.1818181818181818
 40
0.1818181818181818
 40
0.2727272727272727
 40
0.2727272727272727
 40
0.2727272727272727
 40
0.2727272727272727
 40
0.3636363636363637
 40
0.3636363636363637
 40
0.3636363636363637
 40
0.3636363636363637
 40
0.4545454545454546
 40
0.4545454545454546
 40
0.4545454545454546
 40
0.4545454545454546
 40
0.5454545454545455
 40
0.5454545454545455
 40
0.5454545454545455
 40
0.5454545454545455
 40
0.6363636363636365
 40
0.6363636363636365
 40
0.6363636363636365
 40
0.6363636363636365
 40
0.7272727272727274
 40
0.7272727272727274
 40
0.7272727272727274
 40
0.7272727272727274
 40
0.8181818181818183
 40
0.8181818181818183
 40
0.8181818181818183
 40
0.8181818181818183
 40
0.9090909090909093
 40
0.9090909090909093
 40
0.9090909090909093
 40
0.9090909090909093
 40
1.0
 40
1.0
 40
1.0
 40
1.0
 10
-0.4174330708661417
 20
2.901720472440945
 30
0.0
 10
-0.4090748031496063
 20
2.901720472440945
 30
0.0
 10
-0.4017677165354331
 20
2.899606299212599
 30
0.0
 10
-0.3955472440944882
 20
2.895330708661418
 30
0.0
 10
-0.3955472440944882
 20
2.895330708661418
 30
0.0
 10
-0.3892952755905512
 20
2.891078740157481
 30
0.0
 10
-0.384240157480315
 20
2.884385826771654
 30
0.0
 10
-0.3803228346456693
 20
2.875275590551181
 30
0.0
 10
-0.3803228346456693
 20
2.875275590551181
 30
0.0
 10
-0.3764055118110237
 20
2.866165354330709
 30
0.0
 10
-0.3744606299212598
 20
2.855110236220472
 30
0.0
 10
-0.3744606299212598
 20
2.842165354330709
 30
0.0
 10
-0.3744606299212598
 20
2.842165354330709
 30
0.0
 10
-0.3744606299212598
 20
2.82294094488189
 30
0.0
 10
-0.3792677165354331
 20
2.807996062992126
 30
0.0
 10
-0.3888779527559055
 20
2.797303149606299
 30
0.0
 10
-0.3888779527559055
 20
2.797303149606299
 30
0.0
 10
-0.3966850393700788
 20
2.788637795275591
 30
0.0
 10
-0.4065472440944882
 20
2.784303149606299
 30
0.0
 10
-0.418488188976378
 20
2.784303149606299
 30
0.0
 10
-0.418488188976378
 20
2.784303149606299
 30
0.0
 10
-0.4265748031496063
 20
2.784303149606299
 30
0.0
 10
-0.433740157480315
 20
2.78644094488189
 30
0.0
 10
-0.4399606299212598
 20
2.790775590551181
 30
0.0
 10
-0.4399606299212598
 20
2.790775590551181
 30
0.0
 10
-0.4462125984251969
 20
2.795082677165354
 30
0.0
 10
-0.4512677165354331
 20
2.801555118110236
 30
0.0
 10
-0.4551023622047244
 20
2.810165354330709
 30
0.0
 10
-0.4551023622047244
 20
2.810165354330709
 30
0.0
 10
-0.4589606299212599
 20
2.818803149606299
 30
0.0
 10
-0.4608779527559055
 20
2.829748031496063
 30
0.0
 10
-0.4608779527559055
 20
2.843051181102362
 30
0.0
 10
-0.4608779527559055
 20
2.843051181102362
 30
0.0
 10
-0.4608779527559055
 20
2.85644094488189
 30
0.0
 10
-0.458988188976378
 20
2.867385826771653
 30
0.0
 10
-0.455240157480315
 20
2.875858267716536
 30
0.0
 10
-0.455240157480315
 20
2.875858267716536
 30
0.0
 10
-0.4514606299212599
 20
2.884303149606299
 30
0.0
 10
-0.4463228346456693
 20
2.890748031496063
 30
0.0
 10
-0.4398228346456693
 20
2.895137795275591
 30
0.0
 10
-0.4398228346456693
 20
2.895137795275591
 30
0.0
 10
-0.4332952755905512
 20
2.899523622047244
 30
0.0
 10
-0.4258503937007874
 20
2.901720472440945
 30
0.0
 10
-0.4174330708661417
 20
2.901720472440945
 30
0.0
  0
SPLINE
  5
38
330
1F
100
AcDbEntity
  8
LAYER_1
 62
   250
100
AcDbSpline
210
0.0
220
0.0
230
1.0
 70
    11
 71
     3
 72
    56
 73
    52
 74
     0
 42
0.0000000001
 43
0.0000000001
 40
0.0
 40
0.0
 40
0.0
 40
0.0
 40
0.0769230769230769
 40
0.0769230769230769
 40
0.0769230769230769
 40
0.0769230769230769
 40
0.1538461538461539
 40
0.1538461538461539
 40
0.1538461538461539
 40
0.1538461538461539
 40
0.2307692307692308
 40
0.2307692307692308
 40
0.2307692307692308
 40
0.2307692307692308
 40
0.3076923076923077
 40
0.3076923076923077
 40
0.3076923076923077
 40
0.3076923076923077
 40
0.3846153846153846
 40
0.3846153846153846
 40
0.3846153846153846
 40
0.3846153846153846
 40
0.4615384615384616
 40
0.4615384615384616
 40
0.4615384615384616
 40
0.4615384615384616
 40
0.5384615384615386
 40
0.5384615384615386
 40
0.5384615384615386
 40
0.5384615384615386
 40
0.6153846153846154
 40
0.6153846153846154
 40
0.6153846153846154
 40
0.6153846153846154
 40
0.6923076923076923
 40
0.6923076923076923
 40
0.6923076923076923
 40
0.6923076923076923
 40
0.7692307692307692
 40
0.7692307692307692
 40
0.7692307692307692
 40
0.7692307692307692
 40
0.846153846153846
 40
0.846153846153846
 40
0.846153846153846
 40
0.846153846153846
 40
0.9230769230769229
 40
0.9230769230769229
 40
0.9230769230769229
 40
0.9230769230769229
 40
1.0
 40
1.0
 40
1.0
 40
1.0
 10
-0.4178228346456693
 20
2.893665354330709
 30
0.0
 10
-0.423488188976378
 20
2.893665354330709
 30
0.0
 10
-0.4284330708661417
 20
2.891610236220473
 30
0.0
 10
-0.432740157480315
 20
2.887496062992126
 30
0.0
 10
-0.432740157480315
 20
2.887496062992126
 30
0.0
 10
-0.4364606299212598
 20
2.883913385826772
 30
0.0
 10
-0.4394330708661418
 20
2.878275590551181
 30
0.0
 10
-0.4416023622047244
 20
2.870551181102362
 30
0.0
 10
-0.4416023622047244
 20
2.870551181102362
 30
0.0
 10
-0.4441023622047244
 20
2.861775590551181
 30
0.0
 10
-0.4453503937007874
 20
2.852051181102362
 30
0.0
 10
-0.4453503937007874
 20
2.841413385826772
 30
0.0
 10
-0.4453503937007874
 20
2.841413385826772
 30
0.0
 10
-0.4453503937007874
 20
2.833165354330709
 30
0.0
 10
-0.4445708661417323
 20
2.825692913385827
 30
0.0
 10
-0.4430157480314961
 20
2.818996062992126
 30
0.0
 10
-0.4430157480314961
 20
2.818996062992126
 30
0.0
 10
-0.441488188976378
 20
2.812303149606299
 30
0.0
 10
-0.4394330708661418
 20
2.807082677165354
 30
0.0
 10
-0.4368779527559055
 20
2.803385826771654
 30
0.0
 10
-0.4368779527559055
 20
2.803385826771654
 30
0.0
 10
-0.4343228346456693
 20
2.799665354330709
 30
0.0
 10
-0.4314330708661417
 20
2.796913385826772
 30
0.0
 10
-0.4282125984251969
 20
2.795110236220473
 30
0.0
 10
-0.4282125984251969
 20
2.795110236220473
 30
0.0
 10
-0.424988188976378
 20
2.793330708661418
 30
0.0
 10
-0.4215748031496063
 20
2.79244094488189
 30
0.0
 10
-0.417988188976378
 20
2.79244094488189
 30
0.0
 10
-0.417988188976378
 20
2.79244094488189
 30
0.0
 10
-0.4126299212598426
 20
2.79244094488189
 30
0.0
 10
-0.4076023622047244
 20
2.794527559055118
 30
0.0
 10
-0.4029330708661418
 20
2.798692913385827
 30
0.0
 10
-0.4029330708661418
 20
2.798692913385827
 30
0.0
 10
-0.3992125984251969
 20
2.802110236220472
 30
0.0
 10
-0.396240157480315
 20
2.807220472440945
 30
0.0
 10
-0.3940748031496063
 20
2.813996062992126
 30
0.0
 10
-0.3940748031496063
 20
2.813996062992126
 30
0.0
 10
-0.3914606299212599
 20
2.822248031496063
 30
0.0
 10
-0.3901574803149607
 20
2.83194094488189
 30
0.0
 10
-0.3901574803149607
 20
2.843051181102362
 30
0.0
 10
-0.3901574803149607
 20
2.843051181102362
 30
0.0
 10
-0.3901574803149607
 20
2.854551181102362
 30
0.0
 10
-0.391488188976378
 20
2.864330708661417
 30
0.0
 10
-0.3941574803149606
 20
2.872358267716535
 30
0.0
 10
-0.3941574803149606
 20
2.872358267716535
 30
0.0
 10
-0.3968228346456693
 20
2.880385826771654
 30
0.0
 10
-0.4000748031496063
 20
2.88594094488189
 30
0.0
 10
-0.4039606299212599
 20
2.889023622047244
 30
0.0
 10
-0.4039606299212599
 20
2.889023622047244
 30
0.0
 10
-0.4078503937007874
 20
2.892137795275591
 30
0.0
 10
-0.4124606299212599
 20
2.893665354330709
 30
0.0
 10
-0.4178228346456693
 20
2.893665354330709
 30
0.0
  0
SPLINE
  5
39
330
1F
100
AcDbEntity
  8
LAYER_1
 62
   250
100
AcDbSpline
210
0.0
220
0.0
230
1.0
 70
    11
 71
     3
 72
   172
 73
   168
 74
     0
 42
0.0000000001
 43
0.0000000001
 40
0.0
 40
0.0
 40
0.0
 40
0.0
 40
0.0238095238095238
 40
0.0238095238095238
 40
0.0238095238095238
 40
0.0238095238095238
 40
0.0476190476190476
 40
0.0476190476190476
 40
0.0476190476190476
 40
0.0476190476190476
 40
0.0714285714285714
 40
0.0714285714285714
 40
0.0714285714285714
 40
0.0714285714285714
 40
0.0952380952380952
 40
0.0952380952380952
 40
0.0952380952380952
 40
0.0952380952380952
 40
0.119047619047619
 40
0.119047619047619
 40
0.119047619047619
 40
0.119047619047619
 40
0.1428571428571429
 40
0.1428571428571429
 40
0.1428571428571429
 40
0.1428571428571429
 40
0.1666666666666667
 40
0.1666666666666667
 40
0.1666666666666667
 40
0.1666666666666667
 40
0.1904761904761905
 40
0.1904761904761905
 40
0.1904761904761905
 40
0.1904761904761905
 40
0.2142857142857143
 40
0.2142857142857143
 40
0.2142857142857143
 40
0.2142857142857143
 40
0.2380952380952381
 40
0.2380952380952381
 40
0.2380952380952381
 40
0.2380952380952381
 40
0.2619047619047619
 40
0.2619047619047619
 40
0.2619047619047619
 40
0.2619047619047619
 40
0.2857142857142857
 40
0.2857142857142857
 40
0.2857142857142857
 40
0.2857142857142857
 40
0.3095238095238095
 40
0.3095238095238095
 40
0.3095238095238095
 40
0.3095238095238095
 40
0.3333333333333334
 40
0.3333333333333334
 40
0.3333333333333334
 40
0.3333333333333334
 40
0.3571428571428572
 40
0.3571428571428572
 40
0.3571428571428572
 40
0.3571428571428572
 40
0.380952380952381
 40
0.380952380952381
 40
0.380952380952381
 40
0.380952380952381
 40
0.4047619047619049
 40
0.4047619047619049
 40
0.4047619047619049
 40
0.4047619047619049
 40
0.4285714285714287
 40
0.4285714285714287
 40
0.4285714285714287
 40
0.4285714285714287
 40
0.4523809523809526
 40
0.4523809523809526
 40
0.4523809523809526
 40
0.4523809523809526
 40
0.4761904761904764
 40
0.4761904761904764
 40
0.4761904761904764
 40
0.4761904761904764
 40
0.5000000000000002
 40
0.5000000000000002
 40
0.5000000000000002
 40
0.5000000000000002
 40
0.5238095238095241
 40
0.5238095238095241
 40
0.5238095238095241
 40
0.5238095238095241
 40
0.5476190476190479
 40
0.5476190476190479
 40
0.5476190476190479
 40
0.5476190476190479
 40
0.5714285714285717
 40
0.5714285714285717
 40
0.5714285714285717
 40
0.5714285714285717
 40
0.5952380952380956
 40
0.5952380952380956
 40
0.5952380952380956
 40
0.5952380952380956
 40
0.6190476190476194
 40
0.6190476190476194
 40
0.6190476190476194
 40
0.6190476190476194
 40
0.6428571428571432
 40
0.6428571428571432
 40
0.6428571428571432
 40
0.6428571428571432
 40
0.6666666666666671
 40
0.6666666666666671
 40
0.6666666666666671
 40
0.6666666666666671
 40
0.6904761904761909
 40
0.6904761904761909
 40
0.6904761904761909
 40
0.6904761904761909
 40
0.7142857142857148
 40
0.7142857142857148
 40
0.7142857142857148
 40
0.7142857142857148
 40
0.7380952380952386
 40
0.7380952380952386
 40
0.7380952380952386
 40
0.7380952380952386
 40
0.7619047619047624
 40
0.7619047619047624
 40
0.7619047619047624
 40
0.7619047619047624
 40
0.7857142857142863
 40
0.7857142857142863
 40
0.7857142857142863
 40
0.7857142857142863
 40
0.8095238095238101
 40
0.8095238095238101
 40
0.8095238095238101
 40
0.8095238095238101
 40
0.8333333333333339
 40
0.8333333333333339
 40
0.8333333333333339
 40
0.8333333333333339
 40
0.8571428571428578
 40
0.8571428571428578
 40
0.8571428571428578
 40
0.8571428571428578
 40
0.8809523809523816
 40
0.8809523809523816
 40
0.8809523809523816
 40
0.8809523809523816
 40
0.9047619047619054
 40
0.9047619047619054
 40
0.9047619047619054
 40
0.9047619047619054
 40
0.9285714285714293
 40
0.9285714285714293
 40
0.9285714285714293
 40
0.9285714285714293
 40
0.9523809523809531
 40
0.9523809523809531
 40
0.9523809523809531
 40
0.9523809523809531
 40
0.9761904761904769
 40
0.9761904761904769
 40
0.9761904761904769
 40
0.9761904761904769
 40
1.0
 40
1.0
 40
1.0
 40
1.0
 10
-0.908976377952756
 20
2.681913385826772
 30
0.0
 10
-0.908976377952756
 20
2.681913385826772
 30
0.0
 10
-0.9167834645669292
 20
2.683137795275591
 30
0.0
 10
-0.9167834645669292
 20
2.683137795275591
 30
0.0
 10
-0.9167834645669292
 20
2.683137795275591
 30
0.0
 10
-0.9160866141732283
 20
2.688996062992126
 30
0.0
 10
-0.9145590551181103
 20
2.693858267716536
 30
0.0
 10
-0.9122244094488189
 20
2.697720472440945
 30
0.0
 10
-0.9122244094488189
 20
2.697720472440945
 30
0.0
 10
-0.9091417322834646
 20
2.702913385826772
 30
0.0
 10
-0.9047834645669292
 20
2.706968503937008
 30
0.0
 10
-0.8991417322834646
 20
2.709858267716536
 30
0.0
 10
-0.8991417322834646
 20
2.709858267716536
 30
0.0
 10
-0.8934763779527559
 20
2.712775590551181
 30
0.0
 10
-0.8870039370078741
 20
2.714220472440945
 30
0.0
 10
-0.8796692913385827
 20
2.714220472440945
 30
0.0
 10
-0.8796692913385827
 20
2.714220472440945
 30
0.0
 10
-0.8724763779527559
 20
2.714220472440945
 30
0.0
 10
-0.8661141732283465
 20
2.71294094488189
 30
0.0
 10
-0.8606417322834646
 20
2.710358267716535
 30
0.0
 10
-0.8606417322834646
 20
2.710358267716535
 30
0.0
 10
-0.8551692913385827
 20
2.707775590551181
 30
0.0
 10
-0.8510314960629921
 20
2.704358267716536
 30
0.0
 10
-0.848228346456693
 20
2.700110236220473
 30
0.0
 10
-0.848228346456693
 20
2.700110236220473
 30
0.0
 10
-0.8454212598425197
 20
2.695858267716536
 30
0.0
 10
-0.8440314960629921
 20
2.691248031496063
 30
0.0
 10
-0.8440314960629921
 20
2.6863031496063
 30
0.0
 10
-0.8440314960629921
 20
2.6863031496063
 30
0.0
 10
-0.8440314960629921
 20
2.681968503937008
 30
0.0
 10
-0.8450866141732284
 20
2.678082677165354
 30
0.0
 10
-0.8472007874015748
 20
2.674665354330709
 30
0.0
 10
-0.8472007874015748
 20
2.674665354330709
 30
0.0
 10
-0.8493385826771653
 20
2.671248031496063
 30
0.0
 10
-0.852476377952756
 20
2.668192913385827
 30
0.0
 10
-0.8566417322834646
 20
2.665468503937008
 30
0.0
 10
-0.8566417322834646
 20
2.665468503937008
 30
0.0
 10
-0.8595866141732284
 20
2.663582677165354
 30
0.0
 10
-0.8633937007874016
 20
2.661913385826772
 30
0.0
 10
-0.8681141732283465
 20
2.660523622047244
 30
0.0
 10
-0.8681141732283465
 20
2.660523622047244
 30
0.0
 10
-0.8630866141732284
 20
2.6598031496063
 30
0.0
 10
-0.8589488188976379
 20
2.658637795275591
 30
0.0
 10
-0.855755905511811
 20
2.657023622047244
 30
0.0
 10
-0.855755905511811
 20
2.657023622047244
 30
0.0
 10
-0.8505590551181103
 20
2.654358267716535
 30
0.0
 10
-0.8464488188976378
 20
2.650692913385827
 30
0.0
 10
-0.843476377952756
 20
2.646023622047244
 30
0.0
 10
-0.843476377952756
 20
2.646023622047244
 30
0.0
 10
-0.840476377952756
 20
2.641358267716536
 30
0.0
 10
-0.839003937007874
 20
2.636248031496063
 30
0.0
 10
-0.839003937007874
 20
2.630637795275591
 30
0.0
 10
-0.839003937007874
 20
2.630637795275591
 30
0.0
 10
-0.839003937007874
 20
2.621692913385827
 30
0.0
 10
-0.8429212598425198
 20
2.613803149606299
 30
0.0
 10
-0.8507834645669292
 20
2.606996062992126
 30
0.0
 10
-0.8507834645669292
 20
2.606996062992126
 30
0.0
 10
-0.8586692913385827
 20
2.600192913385827
 30
0.0
 10
-0.8688385826771654
 20
2.596803149606299
 30
0.0
 10
-0.8813110236220473
 20
2.596803149606299
 30
0.0
 10
-0.8813110236220473
 20
2.596803149606299
 30
0.0
 10
-0.8936141732283465
 20
2.596803149606299
 30
0.0
 10
-0.903976377952756
 20
2.600082677165355
 30
0.0
 10
-0.9123937007874016
 20
2.606637795275591
 30
0.0
 10
-0.9123937007874016
 20
2.606637795275591
 30
0.0
 10
-0.9194488188976379
 20
2.612220472440945
 30
0.0
 10
-0.9229763779527559
 20
2.617858267716536
 30
0.0
 10
-0.9229763779527559
 20
2.623496062992126
 30
0.0
 10
-0.9229763779527559
 20
2.623496062992126
 30
0.0
 10
-0.9229763779527559
 20
2.625720472440945
 30
0.0
 10
-0.9222519685039371
 20
2.627582677165354
 30
0.0
 10
-0.9208110236220473
 20
2.629055118110236
 30
0.0
 10
-0.9208110236220473
 20
2.629055118110236
 30
0.0
 10
-0.9193937007874016
 20
2.630555118110237
 30
0.0
 10
-0.9175866141732284
 20
2.631303149606299
 30
0.0
 10
-0.9153937007874016
 20
2.631303149606299
 30
0.0
 10
-0.9153937007874016
 20
2.631303149606299
 30
0.0
 10
-0.9130314960629922
 20
2.631303149606299
 30
0.0
 10
-0.910976377952756
 20
2.630385826771654
 30
0.0
 10
-0.9093110236220473
 20
2.628523622047244
 30
0.0
 10
-0.9093110236220473
 20
2.628523622047244
 30
0.0
 10
-0.9083937007874016
 20
2.627496062992126
 30
0.0
 10
-0.9073110236220473
 20
2.625027559055118
 30
0.0
 10
-0.9061417322834646
 20
2.621137795275591
 30
0.0
 10
-0.9061417322834646
 20
2.621137795275591
 30
0.0
 10
-0.9044488188976378
 20
2.615637795275591
 30
0.0
 10
-0.9015866141732284
 20
2.611468503937008
 30
0.0
 10
-0.8975866141732284
 20
2.608610236220473
 30
0.0
 10
-0.8975866141732284
 20
2.608610236220473
 30
0.0
 10
-0.8935590551181103
 20
2.605720472440945
 30
0.0
 10
-0.8885866141732284
 20
2.604275590551181
 30
0.0
 10
-0.8826141732283465
 20
2.604275590551181
 30
0.0
 10
-0.8826141732283465
 20
2.604275590551181
 30
0.0
 10
-0.8772834645669292
 20
2.604275590551181
 30
0.0
 10
-0.8725314960629922
 20
2.60544094488189
 30
0.0
 10
-0.8683385826771654
 20
2.607775590551181
 30
0.0
 10
-0.8683385826771654
 20
2.607775590551181
 30
0.0
 10
-0.8641141732283465
 20
2.610110236220473
 30
0.0
 10
-0.8608110236220473
 20
2.613413385826772
 30
0.0
 10
-0.8583661417322835
 20
2.617720472440945
 30
0.0
 10
-0.8583661417322835
 20
2.617720472440945
 30
0.0
 10
-0.8559212598425198
 20
2.621996062992126
 30
0.0
 10
-0.8546968503937008
 20
2.626692913385827
 30
0.0
 10
-0.8546968503937008
 20
2.631775590551181
 30
0.0
 10
-0.8546968503937008
 20
2.631775590551181
 30
0.0
 10
-0.8546968503937008
 20
2.635913385826772
 30
0.0
 10
-0.8555866141732283
 20
2.639610236220473
 30
0.0
 10
-0.8573385826771653
 20
2.642885826771654
 30
0.0
 10
-0.8573385826771653
 20
2.642885826771654
 30
0.0
 10
-0.8591141732283465
 20
2.646192913385827
 30
0.0
 10
-0.8616141732283464
 20
2.648968503937008
 30
0.0
 10
-0.8648661417322835
 20
2.651248031496063
 30
0.0
 10
-0.8648661417322835
 20
2.651248031496063
 30
0.0
 10
-0.8673661417322836
 20
2.653023622047244
 30
0.0
 10
-0.8705590551181103
 20
2.654275590551181
 30
0.0
 10
-0.8744212598425197
 20
2.654968503937008
 30
0.0
 10
-0.8744212598425197
 20
2.654968503937008
 30
0.0
 10
-0.8783110236220473
 20
2.655692913385827
 30
0.0
 10
-0.8818110236220473
 20
2.656051181102362
 30
0.0
 10
-0.8848937007874016
 20
2.656051181102362
 30
0.0
 10
-0.8848937007874016
 20
2.656051181102362
 30
0.0
 10
-0.8848937007874016
 20
2.656051181102362
 30
0.0
 10
-0.8924488188976378
 20
2.656051181102362
 30
0.0
 10
-0.8924488188976378
 20
2.656051181102362
 30
0.0
 10
-0.8924488188976378
 20
2.656051181102362
 30
0.0
 10
-0.8924488188976378
 20
2.656051181102362
 30
0.0
 10
-0.8924488188976378
 20
2.66394094488189
 30
0.0
 10
-0.8924488188976378
 20
2.66394094488189
 30
0.0
 10
-0.8924488188976378
 20
2.66394094488189
 30
0.0
 10
-0.8924488188976378
 20
2.66394094488189
 30
0.0
 10
-0.8876417322834646
 20
2.66394094488189
 30
0.0
 10
-0.8876417322834646
 20
2.66394094488189
 30
0.0
 10
-0.8876417322834646
 20
2.66394094488189
 30
0.0
 10
-0.8828937007874016
 20
2.66394094488189
 30
0.0
 10
-0.8783385826771654
 20
2.664496062992126
 30
0.0
 10
-0.873976377952756
 20
2.665610236220473
 30
0.0
 10
-0.873976377952756
 20
2.665610236220473
 30
0.0
 10
-0.8696417322834646
 20
2.666720472440945
 30
0.0
 10
-0.8661692913385827
 20
2.668996062992126
 30
0.0
 10
-0.8635590551181103
 20
2.672468503937008
 30
0.0
 10
-0.8635590551181103
 20
2.672468503937008
 30
0.0
 10
-0.8609763779527559
 20
2.67594094488189
 30
0.0
 10
-0.8596692913385827
 20
2.679885826771653
 30
0.0
 10
-0.8596692913385827
 20
2.684275590551181
 30
0.0
 10
-0.8596692913385827
 20
2.684275590551181
 30
0.0
 10
-0.8596692913385827
 20
2.688078740157481
 30
0.0
 10
-0.8605590551181103
 20
2.691496062992126
 30
0.0
 10
-0.8623937007874016
 20
2.694523622047244
 30
0.0
 10
-0.8623937007874016
 20
2.694523622047244
 30
0.0
 10
-0.8641968503937009
 20
2.69757874015748
 30
0.0
 10
-0.8668661417322835
 20
2.699996062992126
 30
0.0
 10
-0.8703937007874016
 20
2.701775590551181
 30
0.0
 10
-0.8703937007874016
 20
2.701775590551181
 30
0.0
 10
-0.8739212598425197
 20
2.703551181102363
 30
0.0
 10
-0.8780039370078741
 20
2.704468503937008
 30
0.0
 10
-0.8826141732283465
 20
2.704468503937008
 30
0.0
 10
-0.8826141732283465
 20
2.704468503937008
 30
0.0
 10
-0.8871141732283465
 20
2.704468503937008
 30
0.0
 10
-0.8912559055118111
 20
2.703523622047244
 30
0.0
 10
-0.8950314960629922
 20
2.701692913385827
 30
0.0
 10
-0.8950314960629922
 20
2.701692913385827
 30
0.0
 10
-0.8987834645669292
 20
2.699858267716536
 30
0.0
 10
-0.9018110236220472
 20
2.697385826771654
 30
0.0
 10
-0.9040866141732283
 20
2.694275590551181
 30
0.0
 10
-0.9040866141732283
 20
2.694275590551181
 30
0.0
 10
-0.9063661417322835
 20
2.691192913385827
 30
0.0
 10
-0.9080039370078741
 20
2.68707874015748
 30
0.0
 10
-0.908976377952756
 20
2.681913385826772
 30
0.0
  0
SPLINE
  5
3A
330
1F
100
AcDbEntity
  8
LAYER_1
 62
   250
100
AcDbSpline
210
0.0
220
0.0
230
1.0
 70
    11
 71
     3
 72
    20
 73
    16
 74
     0
 42
0.0000000001
 43
0.0000000001
 40
0.0
 40
0.0
 40
0.0
 40
0.0
 40
0.25
 40
0.25
 40
0.25
 40
0.25
 40
0.5
 40
0.5
 40
0.5
 40
0.5
 40
0.75
 40
0.75
 40
0.75
 40
0.75
 40
1.0
 40
1.0
 40
1.0
 40
1.0
 10
-0.7461968503937008
 20
2.718137795275591
 30
0.0
 10
-0.7461968503937008
 20
2.718137795275591
 30
0.0
 10
-0.8017795275590551
 20
2.56244094488189
 30
0.0
 10
-0.8017795275590551
 20
2.56244094488189
 30
0.0
 10
-0.8017795275590551
 20
2.56244094488189
 30
0.0
 10
-0.8017795275590551
 20
2.56244094488189
 30
0.0
 10
-0.8138346456692914
 20
2.56244094488189
 30
0.0
 10
-0.8138346456692914
 20
2.56244094488189
 30
0.0
 10
-0.8138346456692914
 20
2.56244094488189
 30
0.0
 10
-0.8138346456692914
 20
2.56244094488189
 30
0.0
 10
-0.7585866141732284
 20
2.718137795275591
 30
0.0
 10
-0.7585866141732284
 20
2.718137795275591
 30
0.0
 10
-0.7585866141732284
 20
2.718137795275591
 30
0.0
 10
-0.7585866141732284
 20
2.718137795275591
 30
0.0
 10
-0.7461968503937008
 20
2.718137795275591
 30
0.0
 10
-0.7461968503937008
 20
2.718137795275591
 30
0.0
  0
SPLINE
  5
3B
330
1F
100
AcDbEntity
  8
LAYER_1
 62
   250
100
AcDbSpline
210
0.0
220
0.0
230
1.0
 70
    11
 71
     3
 72
    48
 73
    44
 74
     0
 42
0.0000000001
 43
0.0000000001
 40
0.0
 40
0.0
 40
0.0
 40
0.0
 40
0.0909090909090909
 40
0.0909090909090909
 40
0.0909090909090909
 40
0.0909090909090909
 40
0.1818181818181818
 40
0.1818181818181818
 40
0.1818181818181818
 40
0.1818181818181818
 40
0.2727272727272727
 40
0.2727272727272727
 40
0.2727272727272727
 40
0.2727272727272727
 40
0.3636363636363637
 40
0.3636363636363637
 40
0.3636363636363637
 40
0.3636363636363637
 40
0.4545454545454546
 40
0.4545454545454546
 40
0.4545454545454546
 40
0.4545454545454546
 40
0.5454545454545455
 40
0.5454545454545455
 40
0.5454545454545455
 40
0.5454545454545455
 40
0.6363636363636365
 40
0.6363636363636365
 40
0.6363636363636365
 40
0.6363636363636365
 40
0.7272727272727274
 40
0.7272727272727274
 40
0.7272727272727274
 40
0.7272727272727274
 40
0.8181818181818183
 40
0.8181818181818183
 40
0.8181818181818183
 40
0.8181818181818183
 40
0.9090909090909093
 40
0.9090909090909093
 40
0.9090909090909093
 40
0.9090909090909093
 40
1.0
 40
1.0
 40
1.0
 40
1.0
 10
-0.6672519685039371
 20
2.712275590551181
 30
0.0
 10
-0.6672519685039371
 20
2.712275590551181
 30
0.0
 10
-0.653503937007874
 20
2.712275590551181
 30
0.0
 10
-0.653503937007874
 20
2.712275590551181
 30
0.0
 10
-0.653503937007874
 20
2.712275590551181
 30
0.0
 10
-0.653503937007874
 20
2.712275590551181
 30
0.0
 10
-0.653503937007874
 20
2.646275590551181
 30
0.0
 10
-0.653503937007874
 20
2.646275590551181
 30
0.0
 10
-0.653503937007874
 20
2.646275590551181
 30
0.0
 10
-0.653503937007874
 20
2.646275590551181
 30
0.0
 10
-0.6321692913385827
 20
2.646275590551181
 30
0.0
 10
-0.6321692913385827
 20
2.646275590551181
 30
0.0
 10
-0.6321692913385827
 20
2.646275590551181
 30
0.0
 10
-0.6321692913385827
 20
2.646275590551181
 30
0.0
 10
-0.6321692913385827
 20
2.636110236220473
 30
0.0
 10
-0.6321692913385827
 20
2.636110236220473
 30
0.0
 10
-0.6321692913385827
 20
2.636110236220473
 30
0.0
 10
-0.6321692913385827
 20
2.636110236220473
 30
0.0
 10
-0.653503937007874
 20
2.636110236220473
 30
0.0
 10
-0.653503937007874
 20
2.636110236220473
 30
0.0
 10
-0.653503937007874
 20
2.636110236220473
 30
0.0
 10
-0.653503937007874
 20
2.636110236220473
 30
0.0
 10
-0.653503937007874
 20
2.598748031496063
 30
0.0
 10
-0.653503937007874
 20
2.598748031496063
 30
0.0
 10
-0.653503937007874
 20
2.598748031496063
 30
0.0
 10
-0.653503937007874
 20
2.598748031496063
 30
0.0
 10
-0.6672519685039371
 20
2.598748031496063
 30
0.0
 10
-0.6672519685039371
 20
2.598748031496063
 30
0.0
 10
-0.6672519685039371
 20
2.598748031496063
 30
0.0
 10
-0.6672519685039371
 20
2.598748031496063
 30
0.0
 10
-0.6672519685039371
 20
2.636110236220473
 30
0.0
 10
-0.6672519685039371
 20
2.636110236220473
 30
0.0
 10
-0.6672519685039371
 20
2.636110236220473
 30
0.0
 10
-0.6672519685039371
 20
2.636110236220473
 30
0.0
 10
-0.7207244094488189
 20
2.636110236220473
 30
0.0
 10
-0.7207244094488189
 20
2.636110236220473
 30
0.0
 10
-0.7207244094488189
 20
2.636110236220473
 30
0.0
 10
-0.7207244094488189
 20
2.636110236220473
 30
0.0
 10
-0.7207244094488189
 20
2.650413385826772
 30
0.0
 10
-0.7207244094488189
 20
2.650413385826772
 30
0.0
 10
-0.7207244094488189
 20
2.650413385826772
 30
0.0
 10
-0.7207244094488189
 20
2.650413385826772
 30
0.0
 10
-0.6672519685039371
 20
2.712275590551181
 30
0.0
 10
-0.6672519685039371
 20
2.712275590551181
 30
0.0
  0
SPLINE
  5
3C
330
1F
100
AcDbEntity
  8
LAYER_1
 62
   250
100
AcDbSpline
210
0.0
220
0.0
230
1.0
 70
    11
 71
     3
 72
    16
 73
    12
 74
     0
 42
0.0000000001
 43
0.0000000001
 40
0.0
 40
0.0
 40
0.0
 40
0.0
 40
0.3333333333333333
 40
0.3333333333333333
 40
0.3333333333333333
 40
0.3333333333333333
 40
0.6666666666666666
 40
0.6666666666666666
 40
0.6666666666666666
 40
0.6666666666666666
 40
1.0
 40
1.0
 40
1.0
 40
1.0
 10
-0.6672519685039371
 20
2.646275590551181
 30
0.0
 10
-0.6672519685039371
 20
2.646275590551181
 30
0.0
 10
-0.6672519685039371
 20
2.699665354330709
 30
0.0
 10
-0.6672519685039371
 20
2.699665354330709
 30
0.0
 10
-0.6672519685039371
 20
2.699665354330709
 30
0.0
 10
-0.6672519685039371
 20
2.699665354330709
 30
0.0
 10
-0.7133070866141733
 20
2.646275590551181
 30
0.0
 10
-0.7133070866141733
 20
2.646275590551181
 30
0.0
 10
-0.7133070866141733
 20
2.646275590551181
 30
0.0
 10
-0.7133070866141733
 20
2.646275590551181
 30
0.0
 10
-0.6672519685039371
 20
2.646275590551181
 30
0.0
 10
-0.6672519685039371
 20
2.646275590551181
 30
0.0
  0
SPLINE
  5
3D
330
1F
100
AcDbEntity
  8
LAYER_1
 62
   250
100
AcDbSpline
210
0.0
220
0.0
230
1.0
 70
    11
 71
     3
 72
    60
 73
    56
 74
     0
 42
0.0000000001
 43
0.0000000001
 40
0.0
 40
0.0
 40
0.0
 40
0.0
 40
0.0714285714285714
 40
0.0714285714285714
 40
0.0714285714285714
 40
0.0714285714285714
 40
0.1428571428571429
 40
0.1428571428571429
 40
0.1428571428571429
 40
0.1428571428571429
 40
0.2142857142857143
 40
0.2142857142857143
 40
0.2142857142857143
 40
0.2142857142857143
 40
0.2857142857142857
 40
0.2857142857142857
 40
0.2857142857142857
 40
0.2857142857142857
 40
0.3571428571428571
 40
0.3571428571428571
 40
0.3571428571428571
 40
0.3571428571428571
 40
0.4285714285714285
 40
0.4285714285714285
 40
0.4285714285714285
 40
0.4285714285714285
 40
0.4999999999999999
 40
0.4999999999999999
 40
0.4999999999999999
 40
0.4999999999999999
 40
0.5714285714285713
 40
0.5714285714285713
 40
0.5714285714285713
 40
0.5714285714285713
 40
0.6428571428571427
 40
0.6428571428571427
 40
0.6428571428571427
 40
0.6428571428571427
 40
0.7142857142857141
 40
0.7142857142857141
 40
0.7142857142857141
 40
0.7142857142857141
 40
0.7857142857142855
 40
0.7857142857142855
 40
0.7857142857142855
 40
0.7857142857142855
 40
0.8571428571428569
 40
0.8571428571428569
 40
0.8571428571428569
 40
0.8571428571428569
 40
0.9285714285714283
 40
0.9285714285714283
 40
0.9285714285714283
 40
0.9285714285714283
 40
1.0
 40
1.0
 40
1.0
 40
1.0
 10
-0.6141968503937009
 20
2.670192913385827
 30
0.0
 10
-0.6141968503937009
 20
2.670192913385827
 30
0.0
 10
-0.6185866141732284
 20
2.675582677165354
 30
0.0
 10
-0.6185866141732284
 20
2.675582677165354
 30
0.0
 10
-0.6185866141732284
 20
2.675582677165354
 30
0.0
 10
-0.607472440944882
 20
2.684637795275591
 30
0.0
 10
-0.6018897637795276
 20
2.692192913385827
 30
0.0
 10
-0.6018897637795276
 20
2.698275590551181
 30
0.0
 10
-0.6018897637795276
 20
2.698275590551181
 30
0.0
 10
-0.6018897637795276
 20
2.698968503937008
 30
0.0
 10
-0.6019448818897638
 20
2.699858267716536
 30
0.0
 10
-0.6020590551181103
 20
2.700885826771654
 30
0.0
 10
-0.6020590551181103
 20
2.700885826771654
 30
0.0
 10
-0.6029724409448819
 20
2.700496062992126
 30
0.0
 10
-0.6038897637795276
 20
2.700192913385827
 30
0.0
 10
-0.604751968503937
 20
2.699996062992126
 30
0.0
 10
-0.604751968503937
 20
2.699996062992126
 30
0.0
 10
-0.6056141732283464
 20
2.699775590551181
 30
0.0
 10
-0.6064173228346457
 20
2.699665354330709
 30
0.0
 10
-0.6071968503937009
 20
2.699665354330709
 30
0.0
 10
-0.6071968503937009
 20
2.699665354330709
 30
0.0
 10
-0.6098070866141733
 20
2.699665354330709
 30
0.0
 10
-0.6118897637795275
 20
2.700496062992126
 30
0.0
 10
-0.6134448818897638
 20
2.702192913385827
 30
0.0
 10
-0.6134448818897638
 20
2.702192913385827
 30
0.0
 10
-0.6150314960629921
 20
2.703858267716536
 30
0.0
 10
-0.6158070866141733
 20
2.705996062992126
 30
0.0
 10
-0.6158070866141733
 20
2.708610236220473
 30
0.0
 10
-0.6158070866141733
 20
2.708610236220473
 30
0.0
 10
-0.6158070866141733
 20
2.711165354330709
 30
0.0
 10
-0.6148622047244094
 20
2.713385826771654
 30
0.0
 10
-0.6129724409448819
 20
2.715275590551181
 30
0.0
 10
-0.6129724409448819
 20
2.715275590551181
 30
0.0
 10
-0.6110590551181102
 20
2.717192913385827
 30
0.0
 10
-0.6087795275590552
 20
2.718137795275591
 30
0.0
 10
-0.6061417322834646
 20
2.718137795275591
 30
0.0
 10
-0.6061417322834646
 20
2.718137795275591
 30
0.0
 10
-0.6024448818897638
 20
2.718137795275591
 30
0.0
 10
-0.5992795275590551
 20
2.716665354330709
 30
0.0
 10
-0.5966417322834646
 20
2.713692913385827
 30
0.0
 10
-0.5966417322834646
 20
2.713692913385827
 30
0.0
 10
-0.5940314960629921
 20
2.710748031496063
 30
0.0
 10
-0.5926968503937008
 20
2.70694094488189
 30
0.0
 10
-0.5926968503937008
 20
2.702275590551181
 30
0.0
 10
-0.5926968503937008
 20
2.702275590551181
 30
0.0
 10
-0.5926968503937008
 20
2.699220472440945
 30
0.0
 10
-0.5933346456692914
 20
2.696023622047244
 30
0.0
 10
-0.5945866141732283
 20
2.692692913385827
 30
0.0
 10
-0.5945866141732283
 20
2.692692913385827
 30
0.0
 10
-0.5958346456692913
 20
2.689358267716536
 30
0.0
 10
-0.5976417322834646
 20
2.686275590551181
 30
0.0
 10
-0.6000314960629921
 20
2.683413385826772
 30
0.0
 10
-0.6000314960629921
 20
2.683413385826772
 30
0.0
 10
-0.6024173228346457
 20
2.680582677165354
 30
0.0
 10
-0.6071417322834646
 20
2.676165354330709
 30
0.0
 10
-0.6141968503937009
 20
2.670192913385827
 30
0.0
  0
SPLINE
  5
3E
330
1F
100
AcDbEntity
  8
LAYER_1
 62
   250
100
AcDbSpline
210
0.0
220
0.0
230
1.0
 70
    11
 71
     3
 72
    60
 73
    56
 74
     0
 42
0.0000000001
 43
0.0000000001
 40
0.0
 40
0.0
 40
0.0
 40
0.0
 40
0.0714285714285714
 40
0.0714285714285714
 40
0.0714285714285714
 40
0.0714285714285714
 40
0.1428571428571429
 40
0.1428571428571429
 40
0.1428571428571429
 40
0.1428571428571429
 40
0.2142857142857143
 40
0.2142857142857143
 40
0.2142857142857143
 40
0.2142857142857143
 40
0.2857142857142857
 40
0.2857142857142857
 40
0.2857142857142857
 40
0.2857142857142857
 40
0.3571428571428571
 40
0.3571428571428571
 40
0.3571428571428571
 40
0.3571428571428571
 40
0.4285714285714285
 40
0.4285714285714285
 40
0.4285714285714285
 40
0.4285714285714285
 40
0.4999999999999999
 40
0.4999999999999999
 40
0.4999999999999999
 40
0.4999999999999999
 40
0.5714285714285713
 40
0.5714285714285713
 40
0.5714285714285713
 40
0.5714285714285713
 40
0.6428571428571427
 40
0.6428571428571427
 40
0.6428571428571427
 40
0.6428571428571427
 40
0.7142857142857141
 40
0.7142857142857141
 40
0.7142857142857141
 40
0.7142857142857141
 40
0.7857142857142855
 40
0.7857142857142855
 40
0.7857142857142855
 40
0.7857142857142855
 40
0.8571428571428569
 40
0.8571428571428569
 40
0.8571428571428569
 40
0.8571428571428569
 40
0.9285714285714283
 40
0.9285714285714283
 40
0.9285714285714283
 40
0.9285714285714283
 40
1.0
 40
1.0
 40
1.0
 40
1.0
 10
-0.5851417322834646
 20
2.670192913385827
 30
0.0
 10
-0.5851417322834646
 20
2.670192913385827
 30
0.0
 10
-0.5895314960629922
 20
2.675582677165354
 30
0.0
 10
-0.5895314960629922
 20
2.675582677165354
 30
0.0
 10
-0.5895314960629922
 20
2.675582677165354
 30
0.0
 10
-0.5784173228346456
 20
2.684637795275591
 30
0.0
 10
-0.5728346456692913
 20
2.692192913385827
 30
0.0
 10
-0.5728346456692913
 20
2.698275590551181
 30
0.0
 10
-0.5728346456692913
 20
2.698275590551181
 30
0.0
 10
-0.5728346456692913
 20
2.698968503937008
 30
0.0
 10
-0.5728897637795276
 20
2.699858267716536
 30
0.0
 10
-0.573003937007874
 20
2.700885826771654
 30
0.0
 10
-0.573003937007874
 20
2.700885826771654
 30
0.0
 10
-0.5739173228346457
 20
2.700496062992126
 30
0.0
 10
-0.5748346456692913
 20
2.700192913385827
 30
0.0
 10
-0.5756968503937008
 20
2.699996062992126
 30
0.0
 10
-0.5756968503937008
 20
2.699996062992126
 30
0.0
 10
-0.5765590551181102
 20
2.699775590551181
 30
0.0
 10
-0.5773897637795276
 20
2.699665354330709
 30
0.0
 10
-0.5782244094488189
 20
2.699665354330709
 30
0.0
 10
-0.5782244094488189
 20
2.699665354330709
 30
0.0
 10
-0.5807795275590552
 20
2.699665354330709
 30
0.0
 10
-0.5828346456692913
 20
2.700496062992126
 30
0.0
 10
-0.5843897637795276
 20
2.702192913385827
 30
0.0
 10
-0.5843897637795276
 20
2.702192913385827
 30
0.0
 10
-0.5859724409448819
 20
2.703858267716536
 30
0.0
 10
-0.5867519685039371
 20
2.705996062992126
 30
0.0
 10
-0.5867519685039371
 20
2.708610236220473
 30
0.0
 10
-0.5867519685039371
 20
2.708610236220473
 30
0.0
 10
-0.5867519685039371
 20
2.711165354330709
 30
0.0
 10
-0.5858070866141732
 20
2.713385826771654
 30
0.0
 10
-0.5839173228346457
 20
2.715275590551181
 30
0.0
 10
-0.5839173228346457
 20
2.715275590551181
 30
0.0
 10
-0.5820314960629921
 20
2.717192913385827
 30
0.0
 10
-0.5797244094488189
 20
2.718137795275591
 30
0.0
 10
-0.5770866141732284
 20
2.718137795275591
 30
0.0
 10
-0.5770866141732284
 20
2.718137795275591
 30
0.0
 10
-0.5733897637795276
 20
2.718137795275591
 30
0.0
 10
-0.5702244094488189
 20
2.716665354330709
 30
0.0
 10
-0.5675866141732284
 20
2.713692913385827
 30
0.0
 10
-0.5675866141732284
 20
2.713692913385827
 30
0.0
 10
-0.5649763779527559
 20
2.710748031496063
 30
0.0
 10
-0.5636417322834646
 20
2.70694094488189
 30
0.0
 10
-0.5636417322834646
 20
2.702275590551181
 30
0.0
 10
-0.5636417322834646
 20
2.702275590551181
 30
0.0
 10
-0.5636417322834646
 20
2.699220472440945
 30
0.0
 10
-0.5642795275590552
 20
2.696023622047244
 30
0.0
 10
-0.5655314960629921
 20
2.692692913385827
 30
0.0
 10
-0.5655314960629921
 20
2.692692913385827
 30
0.0
 10
-0.5667795275590551
 20
2.689358267716536
 30
0.0
 10
-0.5685866141732284
 20
2.686275590551181
 30
0.0
 10
-0.5709724409448819
 20
2.683413385826772
 30
0.0
 10
-0.5709724409448819
 20
2.683413385826772
 30
0.0
 10
-0.5733622047244095
 20
2.680582677165354
 30
0.0
 10
-0.5780866141732284
 20
2.676165354330709
 30
0.0
 10
-0.5851417322834646
 20
2.670192913385827
 30
0.0
  0
SPLINE
  5
3F
330
1F
100
AcDbEntity
  8
LAYER_1
 62
   250
100
AcDbSpline
210
0.0
220
0.0
230
1.0
 70
    11
 71
     3
 72
    36
 73
    32
 74
     0
 42
0.0000000001
 43
0.0000000001
 40
0.0
 40
0.0
 40
0.0
 40
0.0
 40
0.125
 40
0.125
 40
0.125
 40
0.125
 40
0.25
 40
0.25
 40
0.25
 40
0.25
 40
0.375
 40
0.375
 40
0.375
 40
0.375
 40
0.5
 40
0.5
 40
0.5
 40
0.5
 40
0.625
 40
0.625
 40
0.625
 40
0.625
 40
0.75
 40
0.75
 40
0.75
 40
0.75
 40
0.875
 40
0.875
 40
0.875
 40
0.875
 40
1.0
 40
1.0
 40
1.0
 40
1.0
 10
-1.511783464566929
 20
2.982610236220473
 30
0.0
 10
-1.511783464566929
 20
2.982610236220473
 30
0.0
 10
-0.7372322834645669
 20
2.982610236220473
 30
0.0
 10
-0.7372322834645669
 20
2.982610236220473
 30
0.0
 10
-0.7372322834645669
 20
2.982610236220473
 30
0.0
 10
-0.7372322834645669
 20
2.982610236220473
 30
0.0
 10
-0.7372322834645669
 20
3.107610236220473
 30
0.0
 10
-0.7372322834645669
 20
3.107610236220473
 30
0.0
 10
-0.7372322834645669
 20
3.107610236220473
 30
0.0
 10
-0.7372322834645669
 20
3.107610236220473
 30
0.0
 10
-0.2372322834645669
 20
3.107610236220473
 30
0.0
 10
-0.2372322834645669
 20
3.107610236220473
 30
0.0
 10
-0.2372322834645669
 20
3.107610236220473
 30
0.0
 10
-0.2372322834645669
 20
3.107610236220473
 30
0.0
 10
-0.2372322834645669
 20
3.357610236220473
 30
0.0
 10
-0.2372322834645669
 20
3.357610236220473
 30
0.0
 10
-0.2372322834645669
 20
3.357610236220473
 30
0.0
 10
-0.2372322834645669
 20
3.357610236220473
 30
0.0
 10
0.0752637795275591
 20
3.357610236220473
 30
0.0
 10
0.0752637795275591
 20
3.357610236220473
 30
0.0
 10
0.0752637795275591
 20
3.357610236220473
 30
0.0
 10
0.0752637795275591
 20
3.357610236220473
 30
0.0
 10
0.0752637795275591
 20
3.732610236220473
 30
0.0
 10
0.0752637795275591
 20
3.732610236220473
 30
0.0
 10
0.0752637795275591
 20
3.732610236220473
 30
0.0
 10
0.0752637795275591
 20
3.732610236220473
 30
0.0
 10
-1.511783464566929
 20
3.732610236220473
 30
0.0
 10
-1.511783464566929
 20
3.732610236220473
 30
0.0
 10
-1.511783464566929
 20
3.732610236220473
 30
0.0
 10
-1.511783464566929
 20
3.732610236220473
 30
0.0
 10
-1.511783464566929
 20
2.982610236220473
 30
0.0
 10
-1.511783464566929
 20
2.982610236220473
 30
0.0
  0
SPLINE
  5
40
330
1F
100
AcDbEntity
  8
LAYER_1
 62
   250
100
AcDbSpline
210
0.0
220
0.0
230
1.0
 70
    11
 71
     3
 72
   104
 73
   100
 74
     0
 42
0.0000000001
 43
0.0000000001
 40
0.0
 40
0.0
 40
0.0
 40
0.0
 40
0.04
 40
0.04
 40
0.04
 40
0.04
 40
0.08
 40
0.08
 40
0.08
 40
0.08
 40
0.12
 40
0.12
 40
0.12
 40
0.12
 40
0.16
 40
0.16
 40
0.16
 40
0.16
 40
0.2
 40
0.2
 40
0.2
 40
0.2
 40
0.24
 40
0.24
 40
0.24
 40
0.24
 40
0.28
 40
0.28
 40
0.28
 40
0.28
 40
0.32
 40
0.32
 40
0.32
 40
0.32
 40
0.36
 40
0.36
 40
0.36
 40
0.36
 40
0.4
 40
0.4
 40
0.4
 40
0.4
 40
0.44
 40
0.44
 40
0.44
 40
0.44
 40
0.4799999999999999
 40
0.4799999999999999
 40
0.4799999999999999
 40
0.4799999999999999
 40
0.5199999999999999
 40
0.5199999999999999
 40
0.5199999999999999
 40
0.5199999999999999
 40
0.5599999999999999
 40
0.5599999999999999
 40
0.5599999999999999
 40
0.5599999999999999
 40
0.6
 40
0.6
 40
0.6
 40
0.6
 40
0.64
 40
0.64
 40
0.64
 40
0.64
 40
0.6800000000000001
 40
0.6800000000000001
 40
0.6800000000000001
 40
0.6800000000000001
 40
0.7200000000000001
 40
0.7200000000000001
 40
0.7200000000000001
 40
0.7200000000000001
 40
0.7600000000000001
 40
0.7600000000000001
 40
0.7600000000000001
 40
0.7600000000000001
 40
0.8000000000000002
 40
0.8000000000000002
 40
0.8000000000000002
 40
0.8000000000000002
 40
0.8400000000000002
 40
0.8400000000000002
 40
0.8400000000000002
 40
0.8400000000000002
 40
0.8800000000000002
 40
0.8800000000000002
 40
0.8800000000000002
 40
0.8800000000000002
 40
0.9200000000000003
 40
0.9200000000000003
 40
0.9200000000000003
 40
0.9200000000000003
 40
0.9600000000000003
 40
0.9600000000000003
 40
0.9600000000000003
 40
0.9600000000000003
 40
1.0
 40
1.0
 40
1.0
 40
1.0
 10
-0.7446929133858268
 20
-0.2965866141732284
 30
0.0
 10
-0.7446929133858268
 20
-0.2965866141732284
 30
0.0
 10
-0.6907204724409449
 20
-0.2965866141732284
 30
0.0
 10
-0.6907204724409449
 20
-0.2965866141732284
 30
0.0
 10
-0.6907204724409449
 20
-0.2965866141732284
 30
0.0
 10
-0.6775511811023622
 20
-0.2965866141732284
 30
0.0
 10
-0.6685236220472441
 20
-0.2971968503937008
 30
0.0
 10
-0.6636377952755905
 20
-0.2983937007874016
 30
0.0
 10
-0.6636377952755905
 20
-0.2983937007874016
 30
0.0
 10
-0.6564133858267717
 20
-0.3001141732283465
 30
0.0
 10
-0.6507204724409449
 20
-0.303251968503937
 30
0.0
 10
-0.646496062992126
 20
-0.3078110236220473
 30
0.0
 10
-0.646496062992126
 20
-0.3078110236220473
 30
0.0
 10
-0.6423031496062992
 20
-0.3123661417322835
 30
0.0
 10
-0.6401929133858269
 20
-0.3178661417322835
 30
0.0
 10
-0.6401929133858269
 20
-0.324251968503937
 30
0.0
 10
-0.6401929133858269
 20
-0.324251968503937
 30
0.0
 10
-0.6401929133858269
 20
-0.3288661417322835
 30
0.0
 10
-0.6413031496062992
 20
-0.333003937007874
 30
0.0
 10
-0.6435236220472441
 20
-0.3366692913385827
 30
0.0
 10
-0.6435236220472441
 20
-0.3366692913385827
 30
0.0
 10
-0.645748031496063
 20
-0.3403385826771654
 30
0.0
 10
-0.648996062992126
 20
-0.3434763779527559
 30
0.0
 10
-0.6532204724409449
 20
-0.3460590551181103
 30
0.0
 10
-0.6532204724409449
 20
-0.3460590551181103
 30
0.0
 10
-0.6559409448818898
 20
-0.347751968503937
 30
0.0
 10
-0.6596102362204724
 20
-0.3491968503937008
 30
0.0
 10
-0.6642755905511811
 20
-0.3503937007874016
 30
0.0
 10
-0.6642755905511811
 20
-0.3503937007874016
 30
0.0
 10
-0.6583582677165355
 20
-0.3514763779527559
 30
0.0
 10
-0.6538582677165354
 20
-0.3527795275590551
 30
0.0
 10
-0.6507755905511812
 20
-0.3542795275590551
 30
0.0
 10
-0.6507755905511812
 20
-0.3542795275590551
 30
0.0
 10
-0.6461102362204725
 20
-0.3565590551181103
 30
0.0
 10
-0.6424133858267717
 20
-0.3598070866141733
 30
0.0
 10
-0.6397204724409449
 20
-0.3640590551181103
 30
0.0
 10
-0.6397204724409449
 20
-0.3640590551181103
 30
0.0
 10
-0.636996062992126
 20
-0.3682795275590551
 30
0.0
 10
-0.6356377952755906
 20
-0.3730590551181103
 30
0.0
 10
-0.6356377952755906
 20
-0.3783661417322835
 30
0.0
 10
-0.6356377952755906
 20
-0.3783661417322835
 30
0.0
 10
-0.6356377952755906
 20
-0.3835314960629921
 30
0.0
 10
-0.6369685039370079
 20
-0.3883070866141732
 30
0.0
 10
-0.6396377952755906
 20
-0.3926968503937008
 30
0.0
 10
-0.6396377952755906
 20
-0.3926968503937008
 30
0.0
 10
-0.6422755905511811
 20
-0.3970866141732284
 30
0.0
 10
-0.6460511811023623
 20
-0.4006968503937008
 30
0.0
 10
-0.6508858267716535
 20
-0.4035314960629922
 30
0.0
 10
-0.6508858267716535
 20
-0.4035314960629922
 30
0.0
 10
-0.655748031496063
 20
-0.4063346456692913
 30
0.0
 10
-0.6614133858267717
 20
-0.4081417322834646
 30
0.0
 10
-0.6678582677165355
 20
-0.4089488188976378
 30
0.0
 10
-0.6678582677165355
 20
-0.4089488188976378
 30
0.0
 10
-0.6743307086614173
 20
-0.4097244094488189
 30
0.0
 10
-0.6809685039370079
 20
-0.4101141732283465
 30
0.0
 10
-0.6878031496062993
 20
-0.4101141732283465
 30
0.0
 10
-0.6878031496062993
 20
-0.4101141732283465
 30
0.0
 10
-0.6878031496062993
 20
-0.4101141732283465
 30
0.0
 10
-0.7446929133858268
 20
-0.4101141732283465
 30
0.0
 10
-0.7446929133858268
 20
-0.4101141732283465
 30
0.0
 10
-0.7446929133858268
 20
-0.4101141732283465
 30
0.0
 10
-0.7446929133858268
 20
-0.4101141732283465
 30
0.0
 10
-0.7446929133858268
 20
-0.4032795275590551
 30
0.0
 10
-0.7446929133858268
 20
-0.4032795275590551
 30
0.0
 10
-0.7446929133858268
 20
-0.4032795275590551
 30
0.0
 10
-0.7446929133858268
 20
-0.4032795275590551
 30
0.0
 10
-0.7408582677165355
 20
-0.4032795275590551
 30
0.0
 10
-0.7408582677165355
 20
-0.4032795275590551
 30
0.0
 10
-0.7408582677165355
 20
-0.4032795275590551
 30
0.0
 10
-0.7371614173228347
 20
-0.4032795275590551
 30
0.0
 10
-0.7346614173228346
 20
-0.4026968503937008
 30
0.0
 10
-0.7333031496062993
 20
-0.4015590551181102
 30
0.0
 10
-0.7333031496062993
 20
-0.4015590551181102
 30
0.0
 10
-0.7313307086614174
 20
-0.400003937007874
 30
0.0
 10
-0.7303582677165355
 20
-0.3973937007874016
 30
0.0
 10
-0.7303582677165355
 20
-0.393751968503937
 30
0.0
 10
-0.7303582677165355
 20
-0.393751968503937
 30
0.0
 10
-0.7303582677165355
 20
-0.393751968503937
 30
0.0
 10
-0.7303582677165355
 20
-0.3148937007874016
 30
0.0
 10
-0.7303582677165355
 20
-0.3148937007874016
 30
0.0
 10
-0.7303582677165355
 20
-0.3148937007874016
 30
0.0
 10
-0.7303582677165355
 20
-0.3111968503937008
 30
0.0
 10
-0.7306614173228346
 20
-0.3086968503937008
 30
0.0
 10
-0.731248031496063
 20
-0.3073385826771654
 30
0.0
 10
-0.731248031496063
 20
-0.3073385826771654
 30
0.0
 10
-0.7318582677165355
 20
-0.3059763779527559
 30
0.0
 10
-0.7327480314960631
 20
-0.305003937007874
 30
0.0
 10
-0.7339409448818898
 20
-0.3043937007874016
 30
0.0
 10
-0.7339409448818898
 20
-0.3043937007874016
 30
0.0
 10
-0.7351338582677166
 20
-0.3038110236220473
 30
0.0
 10
-0.7374409448818898
 20
-0.303503937007874
 30
0.0
 10
-0.7408582677165355
 20
-0.303503937007874
 30
0.0
 10
-0.7408582677165355
 20
-0.303503937007874
 30
0.0
 10
-0.7408582677165355
 20
-0.303503937007874
 30
0.0
 10
-0.7446929133858268
 20
-0.303503937007874
 30
0.0
 10
-0.7446929133858268
 20
-0.303503937007874
 30
0.0
 10
-0.7446929133858268
 20
-0.303503937007874
 30
0.0
 10
-0.7446929133858268
 20
-0.303503937007874
 30
0.0
 10
-0.7446929133858268
 20
-0.2965866141732284
 30
0.0
 10
-0.7446929133858268
 20
-0.2965866141732284
 30
0.0
  0
SPLINE
  5
41
330
1F
100
AcDbEntity
  8
LAYER_1
 62
   250
100
AcDbSpline
210
0.0
220
0.0
230
1.0
 70
    11
 71
     3
 72
    40
 73
    36
 74
     0
 42
0.0000000001
 43
0.0000000001
 40
0.0
 40
0.0
 40
0.0
 40
0.0
 40
0.1111111111111111
 40
0.1111111111111111
 40
0.1111111111111111
 40
0.1111111111111111
 40
0.2222222222222222
 40
0.2222222222222222
 40
0.2222222222222222
 40
0.2222222222222222
 40
0.3333333333333333
 40
0.3333333333333333
 40
0.3333333333333333
 40
0.3333333333333333
 40
0.4444444444444444
 40
0.4444444444444444
 40
0.4444444444444444
 40
0.4444444444444444
 40
0.5555555555555556
 40
0.5555555555555556
 40
0.5555555555555556
 40
0.5555555555555556
 40
0.6666666666666667
 40
0.6666666666666667
 40
0.6666666666666667
 40
0.6666666666666667
 40
0.7777777777777779
 40
0.7777777777777779
 40
0.7777777777777779
 40
0.7777777777777779
 40
0.8888888888888891
 40
0.8888888888888891
 40
0.8888888888888891
 40
0.8888888888888891
 40
1.0
 40
1.0
 40
1.0
 40
1.0
 10
-0.7151338582677166
 20
-0.3056141732283464
 30
0.0
 10
-0.7151338582677166
 20
-0.3056141732283464
 30
0.0
 10
-0.7151338582677166
 20
-0.3471968503937008
 30
0.0
 10
-0.7151338582677166
 20
-0.3471968503937008
 30
0.0
 10
-0.7151338582677166
 20
-0.3471968503937008
 30
0.0
 10
-0.7151338582677166
 20
-0.3471968503937008
 30
0.0
 10
-0.6943858267716536
 20
-0.3471968503937008
 30
0.0
 10
-0.6943858267716536
 20
-0.3471968503937008
 30
0.0
 10
-0.6943858267716536
 20
-0.3471968503937008
 30
0.0
 10
-0.6846929133858268
 20
-0.3471968503937008
 30
0.0
 10
-0.6780236220472441
 20
-0.346751968503937
 30
0.0
 10
-0.6744685039370079
 20
-0.3458385826771654
 30
0.0
 10
-0.6744685039370079
 20
-0.3458385826771654
 30
0.0
 10
-0.6688582677165355
 20
-0.3443661417322835
 30
0.0
 10
-0.6646102362204724
 20
-0.3418661417322835
 30
0.0
 10
-0.6616377952755905
 20
-0.3383385826771654
 30
0.0
 10
-0.6616377952755905
 20
-0.3383385826771654
 30
0.0
 10
-0.6586929133858268
 20
-0.3348110236220472
 30
0.0
 10
-0.6571929133858268
 20
-0.3302795275590552
 30
0.0
 10
-0.6571929133858268
 20
-0.324751968503937
 30
0.0
 10
-0.6571929133858268
 20
-0.324751968503937
 30
0.0
 10
-0.6571929133858268
 20
-0.3200866141732284
 30
0.0
 10
-0.6585511811023622
 20
-0.3161968503937008
 30
0.0
 10
-0.661220472440945
 20
-0.3130590551181103
 30
0.0
 10
-0.661220472440945
 20
-0.3130590551181103
 30
0.0
 10
-0.6639133858267717
 20
-0.3099488188976378
 30
0.0
 10
-0.6675236220472441
 20
-0.3078110236220473
 30
0.0
 10
-0.6720236220472441
 20
-0.3066692913385827
 30
0.0
 10
-0.6720236220472441
 20
-0.3066692913385827
 30
0.0
 10
-0.6749409448818898
 20
-0.3059763779527559
 30
0.0
 10
-0.6810236220472441
 20
-0.3056141732283464
 30
0.0
 10
-0.6902480314960631
 20
-0.3056141732283464
 30
0.0
 10
-0.6902480314960631
 20
-0.3056141732283464
 30
0.0
 10
-0.6902480314960631
 20
-0.3056141732283464
 30
0.0
 10
-0.7151338582677166
 20
-0.3056141732283464
 30
0.0
 10
-0.7151338582677166
 20
-0.3056141732283464
 30
0.0
  0
SPLINE
  5
42
330
1F
100
AcDbEntity
  8
LAYER_1
 62
   250
100
AcDbSpline
210
0.0
220
0.0
230
1.0
 70
    11
 71
     3
 72
    52
 73
    48
 74
     0
 42
0.0000000001
 43
0.0000000001
 40
0.0
 40
0.0
 40
0.0
 40
0.0
 40
0.0833333333333333
 40
0.0833333333333333
 40
0.0833333333333333
 40
0.0833333333333333
 40
0.1666666666666667
 40
0.1666666666666667
 40
0.1666666666666667
 40
0.1666666666666667
 40
0.25
 40
0.25
 40
0.25
 40
0.25
 40
0.3333333333333333
 40
0.3333333333333333
 40
0.3333333333333333
 40
0.3333333333333333
 40
0.4166666666666666
 40
0.4166666666666666
 40
0.4166666666666666
 40
0.4166666666666666
 40
0.4999999999999999
 40
0.4999999999999999
 40
0.4999999999999999
 40
0.4999999999999999
 40
0.5833333333333333
 40
0.5833333333333333
 40
0.5833333333333333
 40
0.5833333333333333
 40
0.6666666666666666
 40
0.6666666666666666
 40
0.6666666666666666
 40
0.6666666666666666
 40
0.75
 40
0.75
 40
0.75
 40
0.75
 40
0.8333333333333334
 40
0.8333333333333334
 40
0.8333333333333334
 40
0.8333333333333334
 40
0.9166666666666667
 40
0.9166666666666667
 40
0.9166666666666667
 40
0.9166666666666667
 40
1.0
 40
1.0
 40
1.0
 40
1.0
 10
-0.7151338582677166
 20
-0.3550314960629921
 30
0.0
 10
-0.7151338582677166
 20
-0.3550314960629921
 30
0.0
 10
-0.7151338582677166
 20
-0.3922795275590552
 30
0.0
 10
-0.7151338582677166
 20
-0.3922795275590552
 30
0.0
 10
-0.7151338582677166
 20
-0.3922795275590552
 30
0.0
 10
-0.7151338582677166
 20
-0.3960314960629922
 30
0.0
 10
-0.714968503937008
 20
-0.398251968503937
 30
0.0
 10
-0.7146653543307087
 20
-0.3989763779527559
 30
0.0
 10
-0.7146653543307087
 20
-0.3989763779527559
 30
0.0
 10
-0.7142204724409449
 20
-0.3999488188976378
 30
0.0
 10
-0.7133582677165354
 20
-0.4006141732283465
 30
0.0
 10
-0.7120511811023622
 20
-0.401003937007874
 30
0.0
 10
-0.7120511811023622
 20
-0.401003937007874
 30
0.0
 10
-0.7111338582677166
 20
-0.4012795275590552
 30
0.0
 10
-0.7085236220472442
 20
-0.4014212598425197
 30
0.0
 10
-0.704248031496063
 20
-0.4014212598425197
 30
0.0
 10
-0.704248031496063
 20
-0.4014212598425197
 30
0.0
 10
-0.704248031496063
 20
-0.4014212598425197
 30
0.0
 10
-0.6931653543307087
 20
-0.4014212598425197
 30
0.0
 10
-0.6931653543307087
 20
-0.4014212598425197
 30
0.0
 10
-0.6931653543307087
 20
-0.4014212598425197
 30
0.0
 10
-0.6822204724409449
 20
-0.4014212598425197
 30
0.0
 10
-0.6743858267716536
 20
-0.4008070866141733
 30
0.0
 10
-0.6696929133858268
 20
-0.3995866141732284
 30
0.0
 10
-0.6696929133858268
 20
-0.3995866141732284
 30
0.0
 10
-0.664996062992126
 20
-0.3983661417322835
 30
0.0
 10
-0.660996062992126
 20
-0.3957795275590552
 30
0.0
 10
-0.6576929133858268
 20
-0.3918346456692913
 30
0.0
 10
-0.6576929133858268
 20
-0.3918346456692913
 30
0.0
 10
-0.6543858267716536
 20
-0.3879212598425197
 30
0.0
 10
-0.6527204724409449
 20
-0.3831692913385827
 30
0.0
 10
-0.6527204724409449
 20
-0.3776417322834646
 30
0.0
 10
-0.6527204724409449
 20
-0.3776417322834646
 30
0.0
 10
-0.6527204724409449
 20
-0.3729763779527559
 30
0.0
 10
-0.6540787401574804
 20
-0.3688385826771654
 30
0.0
 10
-0.656748031496063
 20
-0.3652244094488189
 30
0.0
 10
-0.656748031496063
 20
-0.3652244094488189
 30
0.0
 10
-0.6594409448818898
 20
-0.3616141732283465
 30
0.0
 10
-0.6631653543307087
 20
-0.3590314960629921
 30
0.0
 10
-0.6679133858267717
 20
-0.3574212598425197
 30
0.0
 10
-0.6679133858267717
 20
-0.3574212598425197
 30
0.0
 10
-0.6726653543307087
 20
-0.3558070866141733
 30
0.0
 10
-0.6810787401574804
 20
-0.3550314960629921
 30
0.0
 10
-0.6931653543307087
 20
-0.3550314960629921
 30
0.0
 10
-0.6931653543307087
 20
-0.3550314960629921
 30
0.0
 10
-0.6931653543307087
 20
-0.3550314960629921
 30
0.0
 10
-0.7151338582677166
 20
-0.3550314960629921
 30
0.0
 10
-0.7151338582677166
 20
-0.3550314960629921
 30
0.0
  0
SPLINE
  5
43
330
1F
100
AcDbEntity
  8
LAYER_1
 62
   250
100
AcDbSpline
210
0.0
220
0.0
230
1.0
 70
    11
 71
     3
 72
   112
 73
   108
 74
     0
 42
0.0000000001
 43
0.0000000001
 40
0.0
 40
0.0
 40
0.0
 40
0.0
 40
0.037037037037037
 40
0.037037037037037
 40
0.037037037037037
 40
0.037037037037037
 40
0.0740740740740741
 40
0.0740740740740741
 40
0.0740740740740741
 40
0.0740740740740741
 40
0.1111111111111111
 40
0.1111111111111111
 40
0.1111111111111111
 40
0.1111111111111111
 40
0.1481481481481481
 40
0.1481481481481481
 40
0.1481481481481481
 40
0.1481481481481481
 40
0.1851851851851852
 40
0.1851851851851852
 40
0.1851851851851852
 40
0.1851851851851852
 40
0.2222222222222222
 40
0.2222222222222222
 40
0.2222222222222222
 40
0.2222222222222222
 40
0.2592592592592592
 40
0.2592592592592592
 40
0.2592592592592592
 40
0.2592592592592592
 40
0.2962962962962963
 40
0.2962962962962963
 40
0.2962962962962963
 40
0.2962962962962963
 40
0.3333333333333333
 40
0.3333333333333333
 40
0.3333333333333333
 40
0.3333333333333333
 40
0.3703703703703704
 40
0.3703703703703704
 40
0.3703703703703704
 40
0.3703703703703704
 40
0.4074074074074074
 40
0.4074074074074074
 40
0.4074074074074074
 40
0.4074074074074074
 40
0.4444444444444444
 40
0.4444444444444444
 40
0.4444444444444444
 40
0.4444444444444444
 40
0.4814814814814815
 40
0.4814814814814815
 40
0.4814814814814815
 40
0.4814814814814815
 40
0.5185185185185185
 40
0.5185185185185185
 40
0.5185185185185185
 40
0.5185185185185185
 40
0.5555555555555556
 40
0.5555555555555556
 40
0.5555555555555556
 40
0.5555555555555556
 40
0.5925925925925926
 40
0.5925925925925926
 40
0.5925925925925926
 40
0.5925925925925926
 40
0.6296296296296295
 40
0.6296296296296295
 40
0.6296296296296295
 40
0.6296296296296295
 40
0.6666666666666665
 40
0.6666666666666665
 40
0.6666666666666665
 40
0.6666666666666665
 40
0.7037037037037035
 40
0.7037037037037035
 40
0.7037037037037035
 40
0.7037037037037035
 40
0.7407407407407405
 40
0.7407407407407405
 40
0.7407407407407405
 40
0.7407407407407405
 40
0.7777777777777775
 40
0.7777777777777775
 40
0.7777777777777775
 40
0.7777777777777775
 40
0.8148148148148144
 40
0.8148148148148144
 40
0.8148148148148144
 40
0.8148148148148144
 40
0.8518518518518514
 40
0.8518518518518514
 40
0.8518518518518514
 40
0.8518518518518514
 40
0.8888888888888884
 40
0.8888888888888884
 40
0.8888888888888884
 40
0.8888888888888884
 40
0.9259259259259254
 40
0.9259259259259254
 40
0.9259259259259254
 40
0.9259259259259254
 40
0.9629629629629624
 40
0.9629629629629624
 40
0.9629629629629624
 40
0.9629629629629624
 40
1.0
 40
1.0
 40
1.0
 40
1.0
 10
-0.5780275590551182
 20
-0.2965866141732284
 30
0.0
 10
-0.5780275590551182
 20
-0.2965866141732284
 30
0.0
 10
-0.5646102362204725
 20
-0.2965866141732284
 30
0.0
 10
-0.5646102362204725
 20
-0.2965866141732284
 30
0.0
 10
-0.5646102362204725
 20
-0.2965866141732284
 30
0.0
 10
-0.5646102362204725
 20
-0.2965866141732284
 30
0.0
 10
-0.5293622047244094
 20
-0.3914763779527559
 30
0.0
 10
-0.5293622047244094
 20
-0.3914763779527559
 30
0.0
 10
-0.5293622047244094
 20
-0.3914763779527559
 30
0.0
 10
-0.5276377952755906
 20
-0.396251968503937
 30
0.0
 10
-0.5258897637795276
 20
-0.3994212598425197
 30
0.0
 10
-0.5241102362204725
 20
-0.4009488188976378
 30
0.0
 10
-0.5241102362204725
 20
-0.4009488188976378
 30
0.0
 10
-0.5223622047244094
 20
-0.402503937007874
 30
0.0
 10
-0.5199724409448819
 20
-0.4032795275590551
 30
0.0
 10
-0.517
 20
-0.4032795275590551
 30
0.0
 10
-0.517
 20
-0.4032795275590551
 30
0.0
 10
-0.517
 20
-0.4032795275590551
 30
0.0
 10
-0.5152204724409449
 20
-0.4032795275590551
 30
0.0
 10
-0.5152204724409449
 20
-0.4032795275590551
 30
0.0
 10
-0.5152204724409449
 20
-0.4032795275590551
 30
0.0
 10
-0.5152204724409449
 20
-0.4032795275590551
 30
0.0
 10
-0.5152204724409449
 20
-0.4101141732283465
 30
0.0
 10
-0.5152204724409449
 20
-0.4101141732283465
 30
0.0
 10
-0.5152204724409449
 20
-0.4101141732283465
 30
0.0
 10
-0.5152204724409449
 20
-0.4101141732283465
 30
0.0
 10
-0.5556653543307086
 20
-0.4101141732283465
 30
0.0
 10
-0.5556653543307086
 20
-0.4101141732283465
 30
0.0
 10
-0.5556653543307086
 20
-0.4101141732283465
 30
0.0
 10
-0.5556653543307086
 20
-0.4101141732283465
 30
0.0
 10
-0.5556653543307086
 20
-0.4032795275590551
 30
0.0
 10
-0.5556653543307086
 20
-0.4032795275590551
 30
0.0
 10
-0.5556653543307086
 20
-0.4032795275590551
 30
0.0
 10
-0.5543622047244095
 20
-0.4031692913385827
 30
0.0
 10
-0.5530826771653543
 20
-0.4031141732283465
 30
0.0
 10
-0.5518307086614174
 20
-0.4031141732283465
 30
0.0
 10
-0.5518307086614174
 20
-0.4031141732283465
 30
0.0
 10
-0.5492204724409449
 20
-0.4031141732283465
 30
0.0
 10
-0.5475275590551182
 20
-0.4028346456692913
 30
0.0
 10
-0.5466929133858268
 20
-0.4023070866141733
 30
0.0
 10
-0.5466929133858268
 20
-0.4023070866141733
 30
0.0
 10
-0.5451377952755906
 20
-0.4012795275590552
 30
0.0
 10
-0.5443346456692914
 20
-0.3999763779527559
 30
0.0
 10
-0.5443346456692914
 20
-0.3983937007874016
 30
0.0
 10
-0.5443346456692914
 20
-0.3983937007874016
 30
0.0
 10
-0.5443346456692914
 20
-0.397251968503937
 30
0.0
 10
-0.5451102362204725
 20
-0.3944763779527559
 30
0.0
 10
-0.5466102362204725
 20
-0.3900039370078741
 30
0.0
 10
-0.5466102362204725
 20
-0.3900039370078741
 30
0.0
 10
-0.5466102362204725
 20
-0.3900039370078741
 30
0.0
 10
-0.5541102362204725
 20
-0.3680314960629921
 30
0.0
 10
-0.5541102362204725
 20
-0.3680314960629921
 30
0.0
 10
-0.5541102362204725
 20
-0.3680314960629921
 30
0.0
 10
-0.5541102362204725
 20
-0.3680314960629921
 30
0.0
 10
-0.5952755905511812
 20
-0.3680314960629921
 30
0.0
 10
-0.5952755905511812
 20
-0.3680314960629921
 30
0.0
 10
-0.5952755905511812
 20
-0.3680314960629921
 30
0.0
 10
-0.5952755905511812
 20
-0.3680314960629921
 30
0.0
 10
-0.6040826771653544
 20
-0.3926141732283465
 30
0.0
 10
-0.6040826771653544
 20
-0.3926141732283465
 30
0.0
 10
-0.6040826771653544
 20
-0.3926141732283465
 30
0.0
 10
-0.605
 20
-0.3951692913385827
 30
0.0
 10
-0.605472440944882
 20
-0.3969212598425197
 30
0.0
 10
-0.605472440944882
 20
-0.3979212598425197
 30
0.0
 10
-0.605472440944882
 20
-0.3979212598425197
 30
0.0
 10
-0.605472440944882
 20
-0.399003937007874
 30
0.0
 10
-0.6051653543307087
 20
-0.3999488188976378
 30
0.0
 10
-0.6046102362204725
 20
-0.400751968503937
 30
0.0
 10
-0.6046102362204725
 20
-0.400751968503937
 30
0.0
 10
-0.6040275590551182
 20
-0.4015590551181102
 30
0.0
 10
-0.6032755905511811
 20
-0.4021692913385827
 30
0.0
 10
-0.6022755905511811
 20
-0.4025866141732284
 30
0.0
 10
-0.6022755905511811
 20
-0.4025866141732284
 30
0.0
 10
-0.6013031496062993
 20
-0.403003937007874
 30
0.0
 10
-0.599748031496063
 20
-0.4031968503937008
 30
0.0
 10
-0.5975551181102362
 20
-0.4031968503937008
 30
0.0
 10
-0.5975551181102362
 20
-0.4031968503937008
 30
0.0
 10
-0.5961102362204724
 20
-0.4031968503937008
 30
0.0
 10
-0.5949173228346457
 20
-0.4032244094488189
 30
0.0
 10
-0.594
 20
-0.4032795275590551
 30
0.0
 10
-0.594
 20
-0.4032795275590551
 30
0.0
 10
-0.594
 20
-0.4032795275590551
 30
0.0
 10
-0.594
 20
-0.4101141732283465
 30
0.0
 10
-0.594
 20
-0.4101141732283465
 30
0.0
 10
-0.594
 20
-0.4101141732283465
 30
0.0
 10
-0.594
 20
-0.4101141732283465
 30
0.0
 10
-0.6279173228346457
 20
-0.4101141732283465
 30
0.0
 10
-0.6279173228346457
 20
-0.4101141732283465
 30
0.0
 10
-0.6279173228346457
 20
-0.4101141732283465
 30
0.0
 10
-0.6279173228346457
 20
-0.4101141732283465
 30
0.0
 10
-0.6279173228346457
 20
-0.4032795275590551
 30
0.0
 10
-0.6279173228346457
 20
-0.4032795275590551
 30
0.0
 10
-0.6279173228346457
 20
-0.4032795275590551
 30
0.0
 10
-0.6247755905511812
 20
-0.4032795275590551
 30
0.0
 10
-0.6225000000000001
 20
-0.4029763779527559
 30
0.0
 10
-0.6211377952755905
 20
-0.4023346456692913
 30
0.0
 10
-0.6211377952755905
 20
-0.4023346456692913
 30
0.0
 10
-0.6197480314960631
 20
-0.4017244094488189
 30
0.0
 10
-0.6185275590551181
 20
-0.4007244094488189
 30
0.0
 10
-0.6175000000000001
 20
-0.3993346456692913
 30
0.0
 10
-0.6175000000000001
 20
-0.3993346456692913
 30
0.0
 10
-0.616472440944882
 20
-0.3979488188976378
 30
0.0
 10
-0.6151102362204725
 20
-0.3950314960629922
 30
0.0
 10
-0.6134448818897638
 20
-0.3905866141732284
 30
0.0
 10
-0.6134448818897638
 20
-0.3905866141732284
 30
0.0
 10
-0.6134448818897638
 20
-0.3905866141732284
 30
0.0
 10
-0.5780275590551182
 20
-0.2965866141732284
 30
0.0
 10
-0.5780275590551182
 20
-0.2965866141732284
 30
0.0
  0
SPLINE
  5
44
330
1F
100
AcDbEntity
  8
LAYER_1
 62
   250
100
AcDbSpline
210
0.0
220
0.0
230
1.0
 70
    11
 71
     3
 72
    16
 73
    12
 74
     0
 42
0.0000000001
 43
0.0000000001
 40
0.0
 40
0.0
 40
0.0
 40
0.0
 40
0.3333333333333333
 40
0.3333333333333333
 40
0.3333333333333333
 40
0.3333333333333333
 40
0.6666666666666666
 40
0.6666666666666666
 40
0.6666666666666666
 40
0.6666666666666666
 40
1.0
 40
1.0
 40
1.0
 40
1.0
 10
-0.5922755905511812
 20
-0.3600590551181103
 30
0.0
 10
-0.5922755905511812
 20
-0.3600590551181103
 30
0.0
 10
-0.5571929133858268
 20
-0.3600590551181103
 30
0.0
 10
-0.5571929133858268
 20
-0.3600590551181103
 30
0.0
 10
-0.5571929133858268
 20
-0.3600590551181103
 30
0.0
 10
-0.5571929133858268
 20
-0.3600590551181103
 30
0.0
 10
-0.5747755905511811
 20
-0.3112244094488189
 30
0.0
 10
-0.5747755905511811
 20
-0.3112244094488189
 30
0.0
 10
-0.5747755905511811
 20
-0.3112244094488189
 30
0.0
 10
-0.5747755905511811
 20
-0.3112244094488189
 30
0.0
 10
-0.5922755905511812
 20
-0.3600590551181103
 30
0.0
 10
-0.5922755905511812
 20
-0.3600590551181103
 30
0.0
  0
SPLINE
  5
45
330
1F
100
AcDbEntity
  8
LAYER_1
 62
   250
100
AcDbSpline
210
0.0
220
0.0
230
1.0
 70
    11
 71
     3
 72
    72
 73
    68
 74
     0
 42
0.0000000001
 43
0.0000000001
 40
0.0
 40
0.0
 40
0.0
 40
0.0
 40
0.0588235294117647
 40
0.0588235294117647
 40
0.0588235294117647
 40
0.0588235294117647
 40
0.1176470588235294
 40
0.1176470588235294
 40
0.1176470588235294
 40
0.1176470588235294
 40
0.1764705882352941
 40
0.1764705882352941
 40
0.1764705882352941
 40
0.1764705882352941
 40
0.2352941176470588
 40
0.2352941176470588
 40
0.2352941176470588
 40
0.2352941176470588
 40
0.2941176470588235
 40
0.2941176470588235
 40
0.2941176470588235
 40
0.2941176470588235
 40
0.3529411764705883
 40
0.3529411764705883
 40
0.3529411764705883
 40
0.3529411764705883
 40
0.411764705882353
 40
0.411764705882353
 40
0.411764705882353
 40
0.411764705882353
 40
0.4705882352941177
 40
0.4705882352941177
 40
0.4705882352941177
 40
0.4705882352941177
 40
0.5294117647058824
 40
0.5294117647058824
 40
0.5294117647058824
 40
0.5294117647058824
 40
0.5882352941176471
 40
0.5882352941176471
 40
0.5882352941176471
 40
0.5882352941176471
 40
0.6470588235294118
 40
0.6470588235294118
 40
0.6470588235294118
 40
0.6470588235294118
 40
0.7058823529411765
 40
0.7058823529411765
 40
0.7058823529411765
 40
0.7058823529411765
 40
0.7647058823529412
 40
0.7647058823529412
 40
0.7647058823529412
 40
0.7647058823529412
 40
0.823529411764706
 40
0.823529411764706
 40
0.823529411764706
 40
0.823529411764706
 40
0.8823529411764707
 40
0.8823529411764707
 40
0.8823529411764707
 40
0.8823529411764707
 40
0.9411764705882354
 40
0.9411764705882354
 40
0.9411764705882354
 40
0.9411764705882354
 40
1.0
 40
1.0
 40
1.0
 40
1.0
 10
-0.3521929133858268
 20
-0.2965866141732284
 30
0.0
 10
-0.3521929133858268
 20
-0.2965866141732284
 30
0.0
 10
-0.3461102362204724
 20
-0.2965866141732284
 30
0.0
 10
-0.3461102362204724
 20
-0.2965866141732284
 30
0.0
 10
-0.3461102362204724
 20
-0.2965866141732284
 30
0.0
 10
-0.3461102362204724
 20
-0.2965866141732284
 30
0.0
 10
-0.3461102362204724
 20
-0.3908346456692914
 30
0.0
 10
-0.3461102362204724
 20
-0.3908346456692914
 30
0.0
 10
-0.3461102362204724
 20
-0.3908346456692914
 30
0.0
 10
-0.3461102362204724
 20
-0.3952795275590552
 30
0.0
 10
-0.3458031496062992
 20
-0.3981417322834646
 30
0.0
 10
-0.345248031496063
 20
-0.3994212598425197
 30
0.0
 10
-0.345248031496063
 20
-0.3994212598425197
 30
0.0
 10
-0.3446653543307087
 20
-0.4006968503937008
 30
0.0
 10
-0.343748031496063
 20
-0.4016417322834646
 30
0.0
 10
-0.3424448818897638
 20
-0.4023070866141733
 30
0.0
 10
-0.3424448818897638
 20
-0.4023070866141733
 30
0.0
 10
-0.3411377952755906
 20
-0.4029488188976378
 30
0.0
 10
-0.3385551181102363
 20
-0.4032795275590551
 30
0.0
 10
-0.3346929133858268
 20
-0.4032795275590551
 30
0.0
 10
-0.3346929133858268
 20
-0.4032795275590551
 30
0.0
 10
-0.3346929133858268
 20
-0.4032795275590551
 30
0.0
 10
-0.3267204724409449
 20
-0.4032795275590551
 30
0.0
 10
-0.3267204724409449
 20
-0.4032795275590551
 30
0.0
 10
-0.3267204724409449
 20
-0.4032795275590551
 30
0.0
 10
-0.3267204724409449
 20
-0.4032795275590551
 30
0.0
 10
-0.3267204724409449
 20
-0.4101141732283465
 30
0.0
 10
-0.3267204724409449
 20
-0.4101141732283465
 30
0.0
 10
-0.3267204724409449
 20
-0.4101141732283465
 30
0.0
 10
-0.3267204724409449
 20
-0.4101141732283465
 30
0.0
 10
-0.3803582677165355
 20
-0.4101141732283465
 30
0.0
 10
-0.3803582677165355
 20
-0.4101141732283465
 30
0.0
 10
-0.3803582677165355
 20
-0.4101141732283465
 30
0.0
 10
-0.3803582677165355
 20
-0.4101141732283465
 30
0.0
 10
-0.3803582677165355
 20
-0.4032795275590551
 30
0.0
 10
-0.3803582677165355
 20
-0.4032795275590551
 30
0.0
 10
-0.3803582677165355
 20
-0.4032795275590551
 30
0.0
 10
-0.3803582677165355
 20
-0.4032795275590551
 30
0.0
 10
-0.3715
 20
-0.4032795275590551
 30
0.0
 10
-0.3715
 20
-0.4032795275590551
 30
0.0
 10
-0.3715
 20
-0.4032795275590551
 30
0.0
 10
-0.3676377952755905
 20
-0.4032795275590551
 30
0.0
 10
-0.3650826771653544
 20
-0.4029488188976378
 30
0.0
 10
-0.3638031496062992
 20
-0.402251968503937
 30
0.0
 10
-0.3638031496062992
 20
-0.402251968503937
 30
0.0
 10
-0.3625275590551181
 20
-0.4015866141732284
 30
0.0
 10
-0.3615275590551181
 20
-0.400503937007874
 30
0.0
 10
-0.3608307086614173
 20
-0.399003937007874
 30
0.0
 10
-0.3608307086614173
 20
-0.399003937007874
 30
0.0
 10
-0.3601377952755906
 20
-0.397503937007874
 30
0.0
 10
-0.3597755905511811
 20
-0.3947795275590552
 30
0.0
 10
-0.3597755905511811
 20
-0.3908346456692914
 30
0.0
 10
-0.3597755905511811
 20
-0.3908346456692914
 30
0.0
 10
-0.3597755905511811
 20
-0.3908346456692914
 30
0.0
 10
-0.3597755905511811
 20
-0.3133661417322835
 30
0.0
 10
-0.3597755905511811
 20
-0.3133661417322835
 30
0.0
 10
-0.3597755905511811
 20
-0.3133661417322835
 30
0.0
 10
-0.3597755905511811
 20
-0.3133661417322835
 30
0.0
 10
-0.3803582677165355
 20
-0.3133661417322835
 30
0.0
 10
-0.3803582677165355
 20
-0.3133661417322835
 30
0.0
 10
-0.3803582677165355
 20
-0.3133661417322835
 30
0.0
 10
-0.3803582677165355
 20
-0.3133661417322835
 30
0.0
 10
-0.3803582677165355
 20
-0.3063661417322835
 30
0.0
 10
-0.3803582677165355
 20
-0.3063661417322835
 30
0.0
 10
-0.3803582677165355
 20
-0.3063661417322835
 30
0.0
 10
-0.3691377952755905
 20
-0.3047834645669291
 30
0.0
 10
-0.359748031496063
 20
-0.3015314960629921
 30
0.0
 10
-0.3521929133858268
 20
-0.2965866141732284
 30
0.0
  0
SPLINE
  5
46
330
1F
100
AcDbEntity
  8
LAYER_1
 62
   250
100
AcDbSpline
210
0.0
220
0.0
230
1.0
 70
    11
 71
     3
 72
    76
 73
    72
 74
     0
 42
0.0000000001
 43
0.0000000001
 40
0.0
 40
0.0
 40
0.0
 40
0.0
 40
0.0555555555555556
 40
0.0555555555555556
 40
0.0555555555555556
 40
0.0555555555555556
 40
0.1111111111111111
 40
0.1111111111111111
 40
0.1111111111111111
 40
0.1111111111111111
 40
0.1666666666666667
 40
0.1666666666666667
 40
0.1666666666666667
 40
0.1666666666666667
 40
0.2222222222222222
 40
0.2222222222222222
 40
0.2222222222222222
 40
0.2222222222222222
 40
0.2777777777777778
 40
0.2777777777777778
 40
0.2777777777777778
 40
0.2777777777777778
 40
0.3333333333333334
 40
0.3333333333333334
 40
0.3333333333333334
 40
0.3333333333333334
 40
0.388888888888889
 40
0.388888888888889
 40
0.388888888888889
 40
0.388888888888889
 40
0.4444444444444445
 40
0.4444444444444445
 40
0.4444444444444445
 40
0.4444444444444445
 40
0.5000000000000001
 40
0.5000000000000001
 40
0.5000000000000001
 40
0.5000000000000001
 40
0.5555555555555557
 40
0.5555555555555557
 40
0.5555555555555557
 40
0.5555555555555557
 40
0.6111111111111113
 40
0.6111111111111113
 40
0.6111111111111113
 40
0.6111111111111113
 40
0.6666666666666669
 40
0.6666666666666669
 40
0.6666666666666669
 40
0.6666666666666669
 40
0.7222222222222224
 40
0.7222222222222224
 40
0.7222222222222224
 40
0.7222222222222224
 40
0.777777777777778
 40
0.777777777777778
 40
0.777777777777778
 40
0.777777777777778
 40
0.8333333333333336
 40
0.8333333333333336
 40
0.8333333333333336
 40
0.8333333333333336
 40
0.8888888888888892
 40
0.8888888888888892
 40
0.8888888888888892
 40
0.8888888888888892
 40
0.9444444444444448
 40
0.9444444444444448
 40
0.9444444444444448
 40
0.9444444444444448
 40
1.0
 40
1.0
 40
1.0
 40
1.0
 10
-0.2403858267716535
 20
-0.3471141732283465
 30
0.0
 10
-0.2339685039370079
 20
-0.3495590551181103
 30
0.0
 10
-0.2290826771653543
 20
-0.3518661417322835
 30
0.0
 10
-0.2257204724409449
 20
-0.3540314960629921
 30
0.0
 10
-0.2257204724409449
 20
-0.3540314960629921
 30
0.0
 10
-0.2208031496062992
 20
-0.3571968503937008
 30
0.0
 10
-0.2170826771653543
 20
-0.3608937007874016
 30
0.0
 10
-0.2145826771653543
 20
-0.3651417322834646
 30
0.0
 10
-0.2145826771653543
 20
-0.3651417322834646
 30
0.0
 10
-0.2120826771653543
 20
-0.3694212598425197
 30
0.0
 10
-0.2108307086614173
 20
-0.3740314960629921
 30
0.0
 10
-0.2108307086614173
 20
-0.3790314960629921
 30
0.0
 10
-0.2108307086614173
 20
-0.3790314960629921
 30
0.0
 10
-0.2108307086614173
 20
-0.3879763779527559
 30
0.0
 10
-0.2146929133858268
 20
-0.3957244094488189
 30
0.0
 10
-0.2223858267716536
 20
-0.402251968503937
 30
0.0
 10
-0.2223858267716536
 20
-0.402251968503937
 30
0.0
 10
-0.2301102362204724
 20
-0.4088070866141733
 30
0.0
 10
-0.240496062992126
 20
-0.4120590551181103
 30
0.0
 10
-0.2535551181102362
 20
-0.4120590551181103
 30
0.0
 10
-0.2535551181102362
 20
-0.4120590551181103
 30
0.0
 10
-0.2673858267716536
 20
-0.4120590551181103
 30
0.0
 10
-0.278248031496063
 20
-0.4083661417322835
 30
0.0
 10
-0.2861102362204724
 20
-0.401003937007874
 30
0.0
 10
-0.2861102362204724
 20
-0.401003937007874
 30
0.0
 10
-0.2923582677165355
 20
-0.3950866141732284
 30
0.0
 10
-0.2954685039370079
 20
-0.3883937007874016
 30
0.0
 10
-0.2954685039370079
 20
-0.3808937007874016
 30
0.0
 10
-0.2954685039370079
 20
-0.3808937007874016
 30
0.0
 10
-0.2954685039370079
 20
-0.3748661417322835
 30
0.0
 10
-0.2933582677165355
 20
-0.3694763779527559
 30
0.0
 10
-0.2891377952755906
 20
-0.3646968503937008
 30
0.0
 10
-0.2891377952755906
 20
-0.3646968503937008
 30
0.0
 10
-0.2840236220472441
 20
-0.359003937007874
 30
0.0
 10
-0.276748031496063
 20
-0.3545590551181103
 30
0.0
 10
-0.2673031496062992
 20
-0.3513661417322835
 30
0.0
 10
-0.2673031496062992
 20
-0.3513661417322835
 30
0.0
 10
-0.2746929133858268
 20
-0.3478937007874016
 30
0.0
 10
-0.279996062992126
 20
-0.3443661417322835
 30
0.0
 10
-0.2832755905511811
 20
-0.3407795275590551
 30
0.0
 10
-0.2832755905511811
 20
-0.3407795275590551
 30
0.0
 10
-0.2874409448818898
 20
-0.3360590551181102
 30
0.0
 10
-0.2895236220472441
 20
-0.3303937007874016
 30
0.0
 10
-0.2895236220472441
 20
-0.3237834645669291
 30
0.0
 10
-0.2895236220472441
 20
-0.3237834645669291
 30
0.0
 10
-0.2895236220472441
 20
-0.3155866141732284
 30
0.0
 10
-0.2864409448818898
 20
-0.3089488188976378
 30
0.0
 10
-0.280248031496063
 20
-0.3039212598425197
 30
0.0
 10
-0.280248031496063
 20
-0.3039212598425197
 30
0.0
 10
-0.2726653543307087
 20
-0.2977244094488189
 30
0.0
 10
-0.2631653543307087
 20
-0.2946417322834646
 30
0.0
 10
-0.2517755905511811
 20
-0.2946417322834646
 30
0.0
 10
-0.2517755905511811
 20
-0.2946417322834646
 30
0.0
 10
-0.2413582677165354
 20
-0.2946417322834646
 30
0.0
 10
-0.2329409448818898
 20
-0.2973110236220473
 30
0.0
 10
-0.226496062992126
 20
-0.3026417322834646
 30
0.0
 10
-0.226496062992126
 20
-0.3026417322834646
 30
0.0
 10
-0.2200826771653544
 20
-0.308003937007874
 30
0.0
 10
-0.2168582677165354
 20
-0.3141141732283465
 30
0.0
 10
-0.2168582677165354
 20
-0.3210039370078741
 30
0.0
 10
-0.2168582677165354
 20
-0.3210039370078741
 30
0.0
 10
-0.2168582677165354
 20
-0.3244212598425197
 30
0.0
 10
-0.2176653543307087
 20
-0.3276968503937008
 30
0.0
 10
-0.219248031496063
 20
-0.3308110236220472
 30
0.0
 10
-0.219248031496063
 20
-0.3308110236220472
 30
0.0
 10
-0.2208582677165354
 20
-0.3339212598425197
 30
0.0
 10
-0.2233031496062992
 20
-0.3368385826771654
 30
0.0
 10
-0.2266377952755906
 20
-0.339503937007874
 30
0.0
 10
-0.2266377952755906
 20
-0.339503937007874
 30
0.0
 10
-0.2299409448818898
 20
-0.3421968503937008
 30
0.0
 10
-0.2345275590551181
 20
-0.3447244094488189
 30
0.0
 10
-0.2403858267716535
 20
-0.3471141732283465
 30
0.0
  0
SPLINE
  5
47
330
1F
100
AcDbEntity
  8
LAYER_1
 62
   250
100
AcDbSpline
210
0.0
220
0.0
230
1.0
 70
    11
 71
     3
 72
    48
 73
    44
 74
     0
 42
0.0000000001
 43
0.0000000001
 40
0.0
 40
0.0
 40
0.0
 40
0.0
 40
0.0909090909090909
 40
0.0909090909090909
 40
0.0909090909090909
 40
0.0909090909090909
 40
0.1818181818181818
 40
0.1818181818181818
 40
0.1818181818181818
 40
0.1818181818181818
 40
0.2727272727272727
 40
0.2727272727272727
 40
0.2727272727272727
 40
0.2727272727272727
 40
0.3636363636363637
 40
0.3636363636363637
 40
0.3636363636363637
 40
0.3636363636363637
 40
0.4545454545454546
 40
0.4545454545454546
 40
0.4545454545454546
 40
0.4545454545454546
 40
0.5454545454545455
 40
0.5454545454545455
 40
0.5454545454545455
 40
0.5454545454545455
 40
0.6363636363636365
 40
0.6363636363636365
 40
0.6363636363636365
 40
0.6363636363636365
 40
0.7272727272727274
 40
0.7272727272727274
 40
0.7272727272727274
 40
0.7272727272727274
 40
0.8181818181818183
 40
0.8181818181818183
 40
0.8181818181818183
 40
0.8181818181818183
 40
0.9090909090909093
 40
0.9090909090909093
 40
0.9090909090909093
 40
0.9090909090909093
 40
1.0
 40
1.0
 40
1.0
 40
1.0
 10
-0.2477755905511811
 20
-0.3441141732283465
 30
0.0
 10
-0.2416102362204725
 20
-0.3394488188976378
 30
0.0
 10
-0.2375826771653543
 20
-0.3361968503937008
 30
0.0
 10
-0.235748031496063
 20
-0.3343385826771654
 30
0.0
 10
-0.235748031496063
 20
-0.3343385826771654
 30
0.0
 10
-0.2338858267716536
 20
-0.332503937007874
 30
0.0
 10
-0.2324685039370079
 20
-0.3303937007874016
 30
0.0
 10
-0.2314685039370079
 20
-0.3280314960629922
 30
0.0
 10
-0.2314685039370079
 20
-0.3280314960629922
 30
0.0
 10
-0.2304685039370079
 20
-0.3256692913385827
 30
0.0
 10
-0.2299685039370079
 20
-0.3233937007874016
 30
0.0
 10
-0.2299685039370079
 20
-0.3211692913385827
 30
0.0
 10
-0.2299685039370079
 20
-0.3211692913385827
 30
0.0
 10
-0.2299685039370079
 20
-0.3179763779527559
 30
0.0
 10
-0.2309133858267717
 20
-0.3149212598425197
 30
0.0
 10
-0.2328031496062992
 20
-0.312003937007874
 30
0.0
 10
-0.2328031496062992
 20
-0.312003937007874
 30
0.0
 10
-0.2347204724409449
 20
-0.3091141732283464
 30
0.0
 10
-0.237496062992126
 20
-0.306751968503937
 30
0.0
 10
-0.2411653543307087
 20
-0.3049763779527559
 30
0.0
 10
-0.2411653543307087
 20
-0.3049763779527559
 30
0.0
 10
-0.2448031496062992
 20
-0.3031692913385827
 30
0.0
 10
-0.2489133858267717
 20
-0.3022834645669292
 30
0.0
 10
-0.2534685039370079
 20
-0.3022834645669292
 30
0.0
 10
-0.2534685039370079
 20
-0.3022834645669292
 30
0.0
 10
-0.2602204724409449
 20
-0.3022834645669292
 30
0.0
 10
-0.2658031496062993
 20
-0.3041417322834646
 30
0.0
 10
-0.270248031496063
 20
-0.3078661417322835
 30
0.0
 10
-0.270248031496063
 20
-0.3078661417322835
 30
0.0
 10
-0.2746929133858268
 20
-0.3115866141732284
 30
0.0
 10
-0.2769133858267717
 20
-0.3158661417322835
 30
0.0
 10
-0.2769133858267717
 20
-0.320751968503937
 30
0.0
 10
-0.2769133858267717
 20
-0.320751968503937
 30
0.0
 10
-0.2769133858267717
 20
-0.3246692913385827
 30
0.0
 10
-0.2755236220472441
 20
-0.3281692913385827
 30
0.0
 10
-0.2727755905511811
 20
-0.331251968503937
 30
0.0
 10
-0.2727755905511811
 20
-0.331251968503937
 30
0.0
 10
-0.269996062992126
 20
-0.3343385826771654
 30
0.0
 10
-0.2648582677165354
 20
-0.3373937007874016
 30
0.0
 10
-0.2573031496062992
 20
-0.3403661417322835
 30
0.0
 10
-0.2573031496062992
 20
-0.3403661417322835
 30
0.0
 10
-0.2573031496062992
 20
-0.3403661417322835
 30
0.0
 10
-0.2477755905511811
 20
-0.3441141732283465
 30
0.0
 10
-0.2477755905511811
 20
-0.3441141732283465
 30
0.0
  0
SPLINE
  5
48
330
1F
100
AcDbEntity
  8
LAYER_1
 62
   250
100
AcDbSpline
210
0.0
220
0.0
230
1.0
 70
    11
 71
     3
 72
    40
 73
    36
 74
     0
 42
0.0000000001
 43
0.0000000001
 40
0.0
 40
0.0
 40
0.0
 40
0.0
 40
0.1111111111111111
 40
0.1111111111111111
 40
0.1111111111111111
 40
0.1111111111111111
 40
0.2222222222222222
 40
0.2222222222222222
 40
0.2222222222222222
 40
0.2222222222222222
 40
0.3333333333333333
 40
0.3333333333333333
 40
0.3333333333333333
 40
0.3333333333333333
 40
0.4444444444444444
 40
0.4444444444444444
 40
0.4444444444444444
 40
0.4444444444444444
 40
0.5555555555555556
 40
0.5555555555555556
 40
0.5555555555555556
 40
0.5555555555555556
 40
0.6666666666666667
 40
0.6666666666666667
 40
0.6666666666666667
 40
0.6666666666666667
 40
0.7777777777777779
 40
0.7777777777777779
 40
0.7777777777777779
 40
0.7777777777777779
 40
0.8888888888888891
 40
0.8888888888888891
 40
0.8888888888888891
 40
0.8888888888888891
 40
1.0
 40
1.0
 40
1.0
 40
1.0
 10
-0.259248031496063
 20
-0.3545314960629921
 30
0.0
 10
-0.2669133858267717
 20
-0.3578937007874016
 30
0.0
 10
-0.2729685039370079
 20
-0.362251968503937
 30
0.0
 10
-0.2774133858267717
 20
-0.3676417322834646
 30
0.0
 10
-0.2774133858267717
 20
-0.3676417322834646
 30
0.0
 10
-0.2808858267716536
 20
-0.3718661417322835
 30
0.0
 10
-0.2826102362204724
 20
-0.376251968503937
 30
0.0
 10
-0.2826102362204724
 20
-0.3808070866141732
 30
0.0
 10
-0.2826102362204724
 20
-0.3808070866141732
 30
0.0
 10
-0.2826102362204724
 20
-0.3870039370078741
 30
0.0
 10
-0.2798858267716536
 20
-0.392503937007874
 30
0.0
 10
-0.2743858267716536
 20
-0.3973070866141732
 30
0.0
 10
-0.2743858267716536
 20
-0.3973070866141732
 30
0.0
 10
-0.2689133858267717
 20
-0.4020866141732284
 30
0.0
 10
-0.2618307086614173
 20
-0.404503937007874
 30
0.0
 10
-0.2531653543307087
 20
-0.404503937007874
 30
0.0
 10
-0.2531653543307087
 20
-0.404503937007874
 30
0.0
 10
-0.2443031496062992
 20
-0.404503937007874
 30
0.0
 10
-0.2369409448818898
 20
-0.401751968503937
 30
0.0
 10
-0.2310275590551181
 20
-0.3962795275590552
 30
0.0
 10
-0.2310275590551181
 20
-0.3962795275590552
 30
0.0
 10
-0.2261929133858268
 20
-0.3918346456692913
 30
0.0
 10
-0.2237755905511811
 20
-0.3870590551181102
 30
0.0
 10
-0.2237755905511811
 20
-0.3819488188976378
 30
0.0
 10
-0.2237755905511811
 20
-0.3819488188976378
 30
0.0
 10
-0.2237755905511811
 20
-0.3779488188976378
 30
0.0
 10
-0.2253582677165354
 20
-0.3741141732283465
 30
0.0
 10
-0.2285275590551181
 20
-0.3704488188976378
 30
0.0
 10
-0.2285275590551181
 20
-0.3704488188976378
 30
0.0
 10
-0.2317204724409449
 20
-0.3667795275590551
 30
0.0
 10
-0.2376102362204725
 20
-0.3632244094488189
 30
0.0
 10
-0.246248031496063
 20
-0.359751968503937
 30
0.0
 10
-0.246248031496063
 20
-0.359751968503937
 30
0.0
 10
-0.246248031496063
 20
-0.359751968503937
 30
0.0
 10
-0.259248031496063
 20
-0.3545314960629921
 30
0.0
 10
-0.259248031496063
 20
-0.3545314960629921
 30
0.0
  0
SPLINE
  5
49
330
1F
100
AcDbEntity
  8
LAYER_1
 62
   250
100
AcDbSpline
210
0.0
220
0.0
230
1.0
 70
    11
 71
     3
 72
    48
 73
    44
 74
     0
 42
0.0000000001
 43
0.0000000001
 40
0.0
 40
0.0
 40
0.0
 40
0.0
 40
0.0909090909090909
 40
0.0909090909090909
 40
0.0909090909090909
 40
0.0909090909090909
 40
0.1818181818181818
 40
0.1818181818181818
 40
0.1818181818181818
 40
0.1818181818181818
 40
0.2727272727272727
 40
0.2727272727272727
 40
0.2727272727272727
 40
0.2727272727272727
 40
0.3636363636363637
 40
0.3636363636363637
 40
0.3636363636363637
 40
0.3636363636363637
 40
0.4545454545454546
 40
0.4545454545454546
 40
0.4545454545454546
 40
0.4545454545454546
 40
0.5454545454545455
 40
0.5454545454545455
 40
0.5454545454545455
 40
0.5454545454545455
 40
0.6363636363636365
 40
0.6363636363636365
 40
0.6363636363636365
 40
0.6363636363636365
 40
0.7272727272727274
 40
0.7272727272727274
 40
0.7272727272727274
 40
0.7272727272727274
 40
0.8181818181818183
 40
0.8181818181818183
 40
0.8181818181818183
 40
0.8181818181818183
 40
0.9090909090909093
 40
0.9090909090909093
 40
0.9090909090909093
 40
0.9090909090909093
 40
1.0
 40
1.0
 40
1.0
 40
1.0
 10
-0.1410787401574803
 20
-0.2965866141732284
 30
0.0
 10
-0.1410787401574803
 20
-0.2965866141732284
 30
0.0
 10
-0.1273307086614173
 20
-0.2965866141732284
 30
0.0
 10
-0.1273307086614173
 20
-0.2965866141732284
 30
0.0
 10
-0.1273307086614173
 20
-0.2965866141732284
 30
0.0
 10
-0.1273307086614173
 20
-0.2965866141732284
 30
0.0
 10
-0.1273307086614173
 20
-0.3625866141732284
 30
0.0
 10
-0.1273307086614173
 20
-0.3625866141732284
 30
0.0
 10
-0.1273307086614173
 20
-0.3625866141732284
 30
0.0
 10
-0.1273307086614173
 20
-0.3625866141732284
 30
0.0
 10
-0.105996062992126
 20
-0.3625866141732284
 30
0.0
 10
-0.105996062992126
 20
-0.3625866141732284
 30
0.0
 10
-0.105996062992126
 20
-0.3625866141732284
 30
0.0
 10
-0.105996062992126
 20
-0.3625866141732284
 30
0.0
 10
-0.105996062992126
 20
-0.3727519685039371
 30
0.0
 10
-0.105996062992126
 20
-0.3727519685039371
 30
0.0
 10
-0.105996062992126
 20
-0.3727519685039371
 30
0.0
 10
-0.105996062992126
 20
-0.3727519685039371
 30
0.0
 10
-0.1273307086614173
 20
-0.3727519685039371
 30
0.0
 10
-0.1273307086614173
 20
-0.3727519685039371
 30
0.0
 10
-0.1273307086614173
 20
-0.3727519685039371
 30
0.0
 10
-0.1273307086614173
 20
-0.3727519685039371
 30
0.0
 10
-0.1273307086614173
 20
-0.4101141732283465
 30
0.0
 10
-0.1273307086614173
 20
-0.4101141732283465
 30
0.0
 10
-0.1273307086614173
 20
-0.4101141732283465
 30
0.0
 10
-0.1273307086614173
 20
-0.4101141732283465
 30
0.0
 10
-0.1410787401574803
 20
-0.4101141732283465
 30
0.0
 10
-0.1410787401574803
 20
-0.4101141732283465
 30
0.0
 10
-0.1410787401574803
 20
-0.4101141732283465
 30
0.0
 10
-0.1410787401574803
 20
-0.4101141732283465
 30
0.0
 10
-0.1410787401574803
 20
-0.3727519685039371
 30
0.0
 10
-0.1410787401574803
 20
-0.3727519685039371
 30
0.0
 10
-0.1410787401574803
 20
-0.3727519685039371
 30
0.0
 10
-0.1410787401574803
 20
-0.3727519685039371
 30
0.0
 10
-0.1945511811023622
 20
-0.3727519685039371
 30
0.0
 10
-0.1945511811023622
 20
-0.3727519685039371
 30
0.0
 10
-0.1945511811023622
 20
-0.3727519685039371
 30
0.0
 10
-0.1945511811023622
 20
-0.3727519685039371
 30
0.0
 10
-0.1945511811023622
 20
-0.3584488188976378
 30
0.0
 10
-0.1945511811023622
 20
-0.3584488188976378
 30
0.0
 10
-0.1945511811023622
 20
-0.3584488188976378
 30
0.0
 10
-0.1945511811023622
 20
-0.3584488188976378
 30
0.0
 10
-0.1410787401574803
 20
-0.2965866141732284
 30
0.0
 10
-0.1410787401574803
 20
-0.2965866141732284
 30
0.0
  0
SPLINE
  5
4A
330
1F
100
AcDbEntity
  8
LAYER_1
 62
   250
100
AcDbSpline
210
0.0
220
0.0
230
1.0
 70
    11
 71
     3
 72
    16
 73
    12
 74
     0
 42
0.0000000001
 43
0.0000000001
 40
0.0
 40
0.0
 40
0.0
 40
0.0
 40
0.3333333333333333
 40
0.3333333333333333
 40
0.3333333333333333
 40
0.3333333333333333
 40
0.6666666666666666
 40
0.6666666666666666
 40
0.6666666666666666
 40
0.6666666666666666
 40
1.0
 40
1.0
 40
1.0
 40
1.0
 10
-0.1410787401574803
 20
-0.3625866141732284
 30
0.0
 10
-0.1410787401574803
 20
-0.3625866141732284
 30
0.0
 10
-0.1410787401574803
 20
-0.3091968503937008
 30
0.0
 10
-0.1410787401574803
 20
-0.3091968503937008
 30
0.0
 10
-0.1410787401574803
 20
-0.3091968503937008
 30
0.0
 10
-0.1410787401574803
 20
-0.3091968503937008
 30
0.0
 10
-0.1871338582677165
 20
-0.3625866141732284
 30
0.0
 10
-0.1871338582677165
 20
-0.3625866141732284
 30
0.0
 10
-0.1871338582677165
 20
-0.3625866141732284
 30
0.0
 10
-0.1871338582677165
 20
-0.3625866141732284
 30
0.0
 10
-0.1410787401574803
 20
-0.3625866141732284
 30
0.0
 10
-0.1410787401574803
 20
-0.3625866141732284
 30
0.0
  0
SPLINE
  5
4B
330
1F
100
AcDbEntity
  8
LAYER_1
 62
   250
100
AcDbSpline
210
0.0
220
0.0
230
1.0
 70
    11
 71
     3
 72
    48
 73
    44
 74
     0
 42
0.0000000001
 43
0.0000000001
 40
0.0
 40
0.0
 40
0.0
 40
0.0
 40
0.0909090909090909
 40
0.0909090909090909
 40
0.0909090909090909
 40
0.0909090909090909
 40
0.1818181818181818
 40
0.1818181818181818
 40
0.1818181818181818
 40
0.1818181818181818
 40
0.2727272727272727
 40
0.2727272727272727
 40
0.2727272727272727
 40
0.2727272727272727
 40
0.3636363636363637
 40
0.3636363636363637
 40
0.3636363636363637
 40
0.3636363636363637
 40
0.4545454545454546
 40
0.4545454545454546
 40
0.4545454545454546
 40
0.4545454545454546
 40
0.5454545454545455
 40
0.5454545454545455
 40
0.5454545454545455
 40
0.5454545454545455
 40
0.6363636363636365
 40
0.6363636363636365
 40
0.6363636363636365
 40
0.6363636363636365
 40
0.7272727272727274
 40
0.7272727272727274
 40
0.7272727272727274
 40
0.7272727272727274
 40
0.8181818181818183
 40
0.8181818181818183
 40
0.8181818181818183
 40
0.8181818181818183
 40
0.9090909090909093
 40
0.9090909090909093
 40
0.9090909090909093
 40
0.9090909090909093
 40
1.0
 40
1.0
 40
1.0
 40
1.0
 10
-0.0461889763779528
 20
-0.2946417322834646
 30
0.0
 10
-0.0378307086614173
 20
-0.2946417322834646
 30
0.0
 10
-0.0305236220472441
 20
-0.296755905511811
 30
0.0
 10
-0.0243031496062992
 20
-0.3010314960629921
 30
0.0
 10
-0.0243031496062992
 20
-0.3010314960629921
 30
0.0
 10
-0.0180511811023622
 20
-0.3052834645669291
 30
0.0
 10
-0.012996062992126
 20
-0.3119763779527559
 30
0.0
 10
-0.0090787401574803
 20
-0.3210866141732284
 30
0.0
 10
-0.0090787401574803
 20
-0.3210866141732284
 30
0.0
 10
-0.0051614173228346
 20
-0.3301968503937008
 30
0.0
 10
-0.0032165354330709
 20
-0.341251968503937
 30
0.0
 10
-0.0032165354330709
 20
-0.3541968503937008
 30
0.0
 10
-0.0032165354330709
 20
-0.3541968503937008
 30
0.0
 10
-0.0032165354330709
 20
-0.3734212598425197
 30
0.0
 10
-0.0080236220472441
 20
-0.3883661417322835
 30
0.0
 10
-0.0176338582677165
 20
-0.3990590551181102
 30
0.0
 10
-0.0176338582677165
 20
-0.3990590551181102
 30
0.0
 10
-0.0254409448818898
 20
-0.4077244094488189
 30
0.0
 10
-0.0353031496062992
 20
-0.4120590551181103
 30
0.0
 10
-0.047244094488189
 20
-0.4120590551181103
 30
0.0
 10
-0.047244094488189
 20
-0.4120590551181103
 30
0.0
 10
-0.0553307086614173
 20
-0.4120590551181103
 30
0.0
 10
-0.062496062992126
 20
-0.4099212598425197
 30
0.0
 10
-0.0687165354330709
 20
-0.4055866141732284
 30
0.0
 10
-0.0687165354330709
 20
-0.4055866141732284
 30
0.0
 10
-0.0749685039370079
 20
-0.4012795275590552
 30
0.0
 10
-0.0800236220472441
 20
-0.3948070866141732
 30
0.0
 10
-0.0838582677165354
 20
-0.3861968503937008
 30
0.0
 10
-0.0838582677165354
 20
-0.3861968503937008
 30
0.0
 10
-0.0877165354330709
 20
-0.3775590551181103
 30
0.0
 10
-0.0896338582677165
 20
-0.3666141732283465
 30
0.0
 10
-0.0896338582677165
 20
-0.3533110236220473
 30
0.0
 10
-0.0896338582677165
 20
-0.3533110236220473
 30
0.0
 10
-0.0896338582677165
 20
-0.3399212598425197
 30
0.0
 10
-0.087744094488189
 20
-0.3289763779527559
 30
0.0
 10
-0.083996062992126
 20
-0.3205039370078741
 30
0.0
 10
-0.083996062992126
 20
-0.3205039370078741
 30
0.0
 10
-0.0802165354330709
 20
-0.3120590551181103
 30
0.0
 10
-0.0750787401574803
 20
-0.3056141732283464
 30
0.0
 10
-0.0685787401574803
 20
-0.3012244094488189
 30
0.0
 10
-0.0685787401574803
 20
-0.3012244094488189
 30
0.0
 10
-0.0620511811023622
 20
-0.2968385826771653
 30
0.0
 10
-0.0546062992125984
 20
-0.2946417322834646
 30
0.0
 10
-0.0461889763779528
 20
-0.2946417322834646
 30
0.0
  0
SPLINE
  5
4C
330
1F
100
AcDbEntity
  8
LAYER_1
 62
   250
100
AcDbSpline
210
0.0
220
0.0
230
1.0
 70
    11
 71
     3
 72
    56
 73
    52
 74
     0
 42
0.0000000001
 43
0.0000000001
 40
0.0
 40
0.0
 40
0.0
 40
0.0
 40
0.0769230769230769
 40
0.0769230769230769
 40
0.0769230769230769
 40
0.0769230769230769
 40
0.1538461538461539
 40
0.1538461538461539
 40
0.1538461538461539
 40
0.1538461538461539
 40
0.2307692307692308
 40
0.2307692307692308
 40
0.2307692307692308
 40
0.2307692307692308
 40
0.3076923076923077
 40
0.3076923076923077
 40
0.3076923076923077
 40
0.3076923076923077
 40
0.3846153846153846
 40
0.3846153846153846
 40
0.3846153846153846
 40
0.3846153846153846
 40
0.4615384615384616
 40
0.4615384615384616
 40
0.4615384615384616
 40
0.4615384615384616
 40
0.5384615384615386
 40
0.5384615384615386
 40
0.5384615384615386
 40
0.5384615384615386
 40
0.6153846153846154
 40
0.6153846153846154
 40
0.6153846153846154
 40
0.6153846153846154
 40
0.6923076923076923
 40
0.6923076923076923
 40
0.6923076923076923
 40
0.6923076923076923
 40
0.7692307692307692
 40
0.7692307692307692
 40
0.7692307692307692
 40
0.7692307692307692
 40
0.846153846153846
 40
0.846153846153846
 40
0.846153846153846
 40
0.846153846153846
 40
0.9230769230769229
 40
0.9230769230769229
 40
0.9230769230769229
 40
0.9230769230769229
 40
1.0
 40
1.0
 40
1.0
 40
1.0
 10
-0.0465787401574803
 20
-0.3026968503937008
 30
0.0
 10
-0.052244094488189
 20
-0.3026968503937008
 30
0.0
 10
-0.0571889763779528
 20
-0.304751968503937
 30
0.0
 10
-0.061496062992126
 20
-0.3088661417322835
 30
0.0
 10
-0.061496062992126
 20
-0.3088661417322835
 30
0.0
 10
-0.0652165354330709
 20
-0.3124488188976378
 30
0.0
 10
-0.0681889763779528
 20
-0.3180866141732284
 30
0.0
 10
-0.0703582677165354
 20
-0.3258110236220473
 30
0.0
 10
-0.0703582677165354
 20
-0.3258110236220473
 30
0.0
 10
-0.0728582677165354
 20
-0.3345866141732284
 30
0.0
 10
-0.0741062992125984
 20
-0.3443110236220472
 30
0.0
 10
-0.0741062992125984
 20
-0.3549488188976378
 30
0.0
 10
-0.0741062992125984
 20
-0.3549488188976378
 30
0.0
 10
-0.0741062992125984
 20
-0.3631968503937008
 30
0.0
 10
-0.0733267716535433
 20
-0.3706692913385827
 30
0.0
 10
-0.0717716535433071
 20
-0.3773661417322835
 30
0.0
 10
-0.0717716535433071
 20
-0.3773661417322835
 30
0.0
 10
-0.070244094488189
 20
-0.3840590551181102
 30
0.0
 10
-0.0681889763779528
 20
-0.3892795275590552
 30
0.0
 10
-0.0656338582677165
 20
-0.3929763779527559
 30
0.0
 10
-0.0656338582677165
 20
-0.3929763779527559
 30
0.0
 10
-0.0630787401574803
 20
-0.3966968503937008
 30
0.0
 10
-0.0601889763779528
 20
-0.3994488188976378
 30
0.0
 10
-0.0569685039370079
 20
-0.401251968503937
 30
0.0
 10
-0.0569685039370079
 20
-0.401251968503937
 30
0.0
 10
-0.053744094488189
 20
-0.4030314960629922
 30
0.0
 10
-0.0503307086614173
 20
-0.4039212598425197
 30
0.0
 10
-0.046744094488189
 20
-0.4039212598425197
 30
0.0
 10
-0.046744094488189
 20
-0.4039212598425197
 30
0.0
 10
-0.0413858267716535
 20
-0.4039212598425197
 30
0.0
 10
-0.0363582677165354
 20
-0.4018346456692913
 30
0.0
 10
-0.0316889763779528
 20
-0.3976692913385827
 30
0.0
 10
-0.0316889763779528
 20
-0.3976692913385827
 30
0.0
 10
-0.0279685039370079
 20
-0.394251968503937
 30
0.0
 10
-0.024996062992126
 20
-0.3891417322834646
 30
0.0
 10
-0.0228307086614173
 20
-0.3823661417322835
 30
0.0
 10
-0.0228307086614173
 20
-0.3823661417322835
 30
0.0
 10
-0.0202165354330709
 20
-0.3741141732283465
 30
0.0
 10
-0.0189133858267717
 20
-0.3644212598425197
 30
0.0
 10
-0.0189133858267717
 20
-0.3533110236220473
 30
0.0
 10
-0.0189133858267717
 20
-0.3533110236220473
 30
0.0
 10
-0.0189133858267717
 20
-0.3418110236220472
 30
0.0
 10
-0.020244094488189
 20
-0.3320314960629922
 30
0.0
 10
-0.0229133858267717
 20
-0.3240039370078741
 30
0.0
 10
-0.0229133858267717
 20
-0.3240039370078741
 30
0.0
 10
-0.0255787401574803
 20
-0.3159763779527559
 30
0.0
 10
-0.0288307086614173
 20
-0.3104212598425197
 30
0.0
 10
-0.0327165354330709
 20
-0.3073385826771654
 30
0.0
 10
-0.0327165354330709
 20
-0.3073385826771654
 30
0.0
 10
-0.0366062992125984
 20
-0.3042244094488189
 30
0.0
 10
-0.0412165354330709
 20
-0.3026968503937008
 30
0.0
 10
-0.0465787401574803
 20
-0.3026968503937008
 30
0.0
  0
SPLINE
  5
4D
330
1F
100
AcDbEntity
  8
LAYER_1
 62
   250
100
AcDbSpline
210
0.0
220
0.0
230
1.0
 70
    11
 71
     3
 72
   172
 73
   168
 74
     0
 42
0.0000000001
 43
0.0000000001
 40
0.0
 40
0.0
 40
0.0
 40
0.0
 40
0.0238095238095238
 40
0.0238095238095238
 40
0.0238095238095238
 40
0.0238095238095238
 40
0.0476190476190476
 40
0.0476190476190476
 40
0.0476190476190476
 40
0.0476190476190476
 40
0.0714285714285714
 40
0.0714285714285714
 40
0.0714285714285714
 40
0.0714285714285714
 40
0.0952380952380952
 40
0.0952380952380952
 40
0.0952380952380952
 40
0.0952380952380952
 40
0.119047619047619
 40
0.119047619047619
 40
0.119047619047619
 40
0.119047619047619
 40
0.1428571428571429
 40
0.1428571428571429
 40
0.1428571428571429
 40
0.1428571428571429
 40
0.1666666666666667
 40
0.1666666666666667
 40
0.1666666666666667
 40
0.1666666666666667
 40
0.1904761904761905
 40
0.1904761904761905
 40
0.1904761904761905
 40
0.1904761904761905
 40
0.2142857142857143
 40
0.2142857142857143
 40
0.2142857142857143
 40
0.2142857142857143
 40
0.2380952380952381
 40
0.2380952380952381
 40
0.2380952380952381
 40
0.2380952380952381
 40
0.2619047619047619
 40
0.2619047619047619
 40
0.2619047619047619
 40
0.2619047619047619
 40
0.2857142857142857
 40
0.2857142857142857
 40
0.2857142857142857
 40
0.2857142857142857
 40
0.3095238095238095
 40
0.3095238095238095
 40
0.3095238095238095
 40
0.3095238095238095
 40
0.3333333333333334
 40
0.3333333333333334
 40
0.3333333333333334
 40
0.3333333333333334
 40
0.3571428571428572
 40
0.3571428571428572
 40
0.3571428571428572
 40
0.3571428571428572
 40
0.380952380952381
 40
0.380952380952381
 40
0.380952380952381
 40
0.380952380952381
 40
0.4047619047619049
 40
0.4047619047619049
 40
0.4047619047619049
 40
0.4047619047619049
 40
0.4285714285714287
 40
0.4285714285714287
 40
0.4285714285714287
 40
0.4285714285714287
 40
0.4523809523809526
 40
0.4523809523809526
 40
0.4523809523809526
 40
0.4523809523809526
 40
0.4761904761904764
 40
0.4761904761904764
 40
0.4761904761904764
 40
0.4761904761904764
 40
0.5000000000000002
 40
0.5000000000000002
 40
0.5000000000000002
 40
0.5000000000000002
 40
0.5238095238095241
 40
0.5238095238095241
 40
0.5238095238095241
 40
0.5238095238095241
 40
0.5476190476190479
 40
0.5476190476190479
 40
0.5476190476190479
 40
0.5476190476190479
 40
0.5714285714285717
 40
0.5714285714285717
 40
0.5714285714285717
 40
0.5714285714285717
 40
0.5952380952380956
 40
0.5952380952380956
 40
0.5952380952380956
 40
0.5952380952380956
 40
0.6190476190476194
 40
0.6190476190476194
 40
0.6190476190476194
 40
0.6190476190476194
 40
0.6428571428571432
 40
0.6428571428571432
 40
0.6428571428571432
 40
0.6428571428571432
 40
0.6666666666666671
 40
0.6666666666666671
 40
0.6666666666666671
 40
0.6666666666666671
 40
0.6904761904761909
 40
0.6904761904761909
 40
0.6904761904761909
 40
0.6904761904761909
 40
0.7142857142857148
 40
0.7142857142857148
 40
0.7142857142857148
 40
0.7142857142857148
 40
0.7380952380952386
 40
0.7380952380952386
 40
0.7380952380952386
 40
0.7380952380952386
 40
0.7619047619047624
 40
0.7619047619047624
 40
0.7619047619047624
 40
0.7619047619047624
 40
0.7857142857142863
 40
0.7857142857142863
 40
0.7857142857142863
 40
0.7857142857142863
 40
0.8095238095238101
 40
0.8095238095238101
 40
0.8095238095238101
 40
0.8095238095238101
 40
0.8333333333333339
 40
0.8333333333333339
 40
0.8333333333333339
 40
0.8333333333333339
 40
0.8571428571428578
 40
0.8571428571428578
 40
0.8571428571428578
 40
0.8571428571428578
 40
0.8809523809523816
 40
0.8809523809523816
 40
0.8809523809523816
 40
0.8809523809523816
 40
0.9047619047619054
 40
0.9047619047619054
 40
0.9047619047619054
 40
0.9047619047619054
 40
0.9285714285714293
 40
0.9285714285714293
 40
0.9285714285714293
 40
0.9285714285714293
 40
0.9523809523809531
 40
0.9523809523809531
 40
0.9523809523809531
 40
0.9523809523809531
 40
0.9761904761904769
 40
0.9761904761904769
 40
0.9761904761904769
 40
0.9761904761904769
 40
1.0
 40
1.0
 40
1.0
 40
1.0
 10
-0.5377322834645669
 20
-0.5144488188976378
 30
0.0
 10
-0.5377322834645669
 20
-0.5144488188976378
 30
0.0
 10
-0.5455393700787402
 20
-0.5132244094488189
 30
0.0
 10
-0.5455393700787402
 20
-0.5132244094488189
 30
0.0
 10
-0.5455393700787402
 20
-0.5132244094488189
 30
0.0
 10
-0.5448425196850394
 20
-0.5073661417322835
 30
0.0
 10
-0.5433149606299212
 20
-0.502503937007874
 30
0.0
 10
-0.5409803149606299
 20
-0.4986417322834646
 30
0.0
 10
-0.5409803149606299
 20
-0.4986417322834646
 30
0.0
 10
-0.5378976377952757
 20
-0.4934488188976378
 30
0.0
 10
-0.5335393700787402
 20
-0.4893937007874016
 30
0.0
 10
-0.5278976377952757
 20
-0.486503937007874
 30
0.0
 10
-0.5278976377952757
 20
-0.486503937007874
 30
0.0
 10
-0.522232283464567
 20
-0.4835866141732284
 30
0.0
 10
-0.5157598425196851
 20
-0.4821417322834646
 30
0.0
 10
-0.5084251968503937
 20
-0.4821417322834646
 30
0.0
 10
-0.5084251968503937
 20
-0.4821417322834646
 30
0.0
 10
-0.5012322834645669
 20
-0.4821417322834646
 30
0.0
 10
-0.4948700787401575
 20
-0.4834212598425197
 30
0.0
 10
-0.4893976377952756
 20
-0.486003937007874
 30
0.0
 10
-0.4893976377952756
 20
-0.486003937007874
 30
0.0
 10
-0.4839251968503937
 20
-0.4885866141732284
 30
0.0
 10
-0.4797874015748032
 20
-0.492003937007874
 30
0.0
 10
-0.476984251968504
 20
-0.4962519685039371
 30
0.0
 10
-0.476984251968504
 20
-0.4962519685039371
 30
0.0
 10
-0.4741771653543307
 20
-0.500503937007874
 30
0.0
 10
-0.4727874015748032
 20
-0.5051141732283465
 30
0.0
 10
-0.4727874015748032
 20
-0.5100590551181102
 30
0.0
 10
-0.4727874015748032
 20
-0.5100590551181102
 30
0.0
 10
-0.4727874015748032
 20
-0.5143937007874015
 30
0.0
 10
-0.4738425196850394
 20
-0.5182795275590552
 30
0.0
 10
-0.4759566929133858
 20
-0.5216968503937008
 30
0.0
 10
-0.4759566929133858
 20
-0.5216968503937008
 30
0.0
 10
-0.4780944881889764
 20
-0.5251141732283465
 30
0.0
 10
-0.4812322834645669
 20
-0.5281692913385827
 30
0.0
 10
-0.4853976377952756
 20
-0.5308937007874016
 30
0.0
 10
-0.4853976377952756
 20
-0.5308937007874016
 30
0.0
 10
-0.4883425196850394
 20
-0.5327795275590551
 30
0.0
 10
-0.4921496062992126
 20
-0.5344488188976379
 30
0.0
 10
-0.4968700787401575
 20
-0.5358385826771653
 30
0.0
 10
-0.4968700787401575
 20
-0.5358385826771653
 30
0.0
 10
-0.4918425196850394
 20
-0.5365590551181103
 30
0.0
 10
-0.4877047244094488
 20
-0.5377244094488189
 30
0.0
 10
-0.4845118110236221
 20
-0.5393385826771654
 30
0.0
 10
-0.4845118110236221
 20
-0.5393385826771654
 30
0.0
 10
-0.4793149606299213
 20
-0.5420039370078741
 30
0.0
 10
-0.4752047244094488
 20
-0.5456692913385827
 30
0.0
 10
-0.472232283464567
 20
-0.5503385826771654
 30
0.0
 10
-0.472232283464567
 20
-0.5503385826771654
 30
0.0
 10
-0.469232283464567
 20
-0.555003937007874
 30
0.0
 10
-0.4677598425196851
 20
-0.5601141732283465
 30
0.0
 10
-0.4677598425196851
 20
-0.565724409448819
 30
0.0
 10
-0.4677598425196851
 20
-0.565724409448819
 30
0.0
 10
-0.4677598425196851
 20
-0.5746692913385827
 30
0.0
 10
-0.4716771653543307
 20
-0.5825590551181102
 30
0.0
 10
-0.4795393700787402
 20
-0.5893661417322835
 30
0.0
 10
-0.4795393700787402
 20
-0.5893661417322835
 30
0.0
 10
-0.4874251968503937
 20
-0.5961692913385827
 30
0.0
 10
-0.4975944881889764
 20
-0.5995590551181103
 30
0.0
 10
-0.5100669291338583
 20
-0.5995590551181103
 30
0.0
 10
-0.5100669291338583
 20
-0.5995590551181103
 30
0.0
 10
-0.5223700787401575
 20
-0.5995590551181103
 30
0.0
 10
-0.5327322834645669
 20
-0.5962795275590551
 30
0.0
 10
-0.5411496062992126
 20
-0.5897244094488189
 30
0.0
 10
-0.5411496062992126
 20
-0.5897244094488189
 30
0.0
 10
-0.5482047244094488
 20
-0.5841417322834646
 30
0.0
 10
-0.5517322834645669
 20
-0.5785039370078741
 30
0.0
 10
-0.5517322834645669
 20
-0.5728661417322835
 30
0.0
 10
-0.5517322834645669
 20
-0.5728661417322835
 30
0.0
 10
-0.5517322834645669
 20
-0.5706417322834646
 30
0.0
 10
-0.551007874015748
 20
-0.5687795275590551
 30
0.0
 10
-0.5495669291338583
 20
-0.5673070866141733
 30
0.0
 10
-0.5495669291338583
 20
-0.5673070866141733
 30
0.0
 10
-0.5481496062992126
 20
-0.5658070866141732
 30
0.0
 10
-0.5463425196850394
 20
-0.5650590551181103
 30
0.0
 10
-0.5441496062992126
 20
-0.5650590551181103
 30
0.0
 10
-0.5441496062992126
 20
-0.5650590551181103
 30
0.0
 10
-0.5417874015748032
 20
-0.5650590551181103
 30
0.0
 10
-0.5397322834645669
 20
-0.5659763779527559
 30
0.0
 10
-0.5380669291338583
 20
-0.5678385826771654
 30
0.0
 10
-0.5380669291338583
 20
-0.5678385826771654
 30
0.0
 10
-0.5371496062992126
 20
-0.5688661417322835
 30
0.0
 10
-0.5360669291338583
 20
-0.5713346456692914
 30
0.0
 10
-0.5348976377952757
 20
-0.5752244094488189
 30
0.0
 10
-0.5348976377952757
 20
-0.5752244094488189
 30
0.0
 10
-0.5332047244094489
 20
-0.5807244094488189
 30
0.0
 10
-0.5303425196850394
 20
-0.5848937007874016
 30
0.0
 10
-0.5263425196850394
 20
-0.5877519685039371
 30
0.0
 10
-0.5263425196850394
 20
-0.5877519685039371
 30
0.0
 10
-0.5223149606299213
 20
-0.5906417322834646
 30
0.0
 10
-0.5173425196850394
 20
-0.5920866141732284
 30
0.0
 10
-0.5113700787401575
 20
-0.5920866141732284
 30
0.0
 10
-0.5113700787401575
 20
-0.5920866141732284
 30
0.0
 10
-0.5060393700787402
 20
-0.5920866141732284
 30
0.0
 10
-0.5012874015748031
 20
-0.5909212598425198
 30
0.0
 10
-0.4970944881889764
 20
-0.5885866141732283
 30
0.0
 10
-0.4970944881889764
 20
-0.5885866141732283
 30
0.0
 10
-0.4928700787401575
 20
-0.586251968503937
 30
0.0
 10
-0.4895669291338583
 20
-0.5829488188976378
 30
0.0
 10
-0.4871220472440945
 20
-0.5786417322834646
 30
0.0
 10
-0.4871220472440945
 20
-0.5786417322834646
 30
0.0
 10
-0.4846771653543308
 20
-0.5743661417322835
 30
0.0
 10
-0.4834527559055118
 20
-0.5696692913385827
 30
0.0
 10
-0.4834527559055118
 20
-0.5645866141732284
 30
0.0
 10
-0.4834527559055118
 20
-0.5645866141732284
 30
0.0
 10
-0.4834527559055118
 20
-0.5604488188976379
 30
0.0
 10
-0.4843425196850394
 20
-0.556751968503937
 30
0.0
 10
-0.4860944881889764
 20
-0.553476377952756
 30
0.0
 10
-0.4860944881889764
 20
-0.553476377952756
 30
0.0
 10
-0.4878700787401575
 20
-0.5501692913385827
 30
0.0
 10
-0.4903700787401575
 20
-0.5473937007874016
 30
0.0
 10
-0.4936220472440945
 20
-0.5451141732283464
 30
0.0
 10
-0.4936220472440945
 20
-0.5451141732283464
 30
0.0
 10
-0.4961220472440945
 20
-0.5433385826771654
 30
0.0
 10
-0.4993149606299213
 20
-0.5420866141732283
 30
0.0
 10
-0.5031771653543308
 20
-0.5413937007874016
 30
0.0
 10
-0.5031771653543308
 20
-0.5413937007874016
 30
0.0
 10
-0.5070669291338583
 20
-0.5406692913385827
 30
0.0
 10
-0.5105669291338583
 20
-0.5403110236220473
 30
0.0
 10
-0.5136496062992126
 20
-0.5403110236220473
 30
0.0
 10
-0.5136496062992126
 20
-0.5403110236220473
 30
0.0
 10
-0.5136496062992126
 20
-0.5403110236220473
 30
0.0
 10
-0.5212047244094489
 20
-0.5403110236220473
 30
0.0
 10
-0.5212047244094489
 20
-0.5403110236220473
 30
0.0
 10
-0.5212047244094489
 20
-0.5403110236220473
 30
0.0
 10
-0.5212047244094489
 20
-0.5403110236220473
 30
0.0
 10
-0.5212047244094489
 20
-0.5324212598425198
 30
0.0
 10
-0.5212047244094489
 20
-0.5324212598425198
 30
0.0
 10
-0.5212047244094489
 20
-0.5324212598425198
 30
0.0
 10
-0.5212047244094489
 20
-0.5324212598425198
 30
0.0
 10
-0.5163976377952756
 20
-0.5324212598425198
 30
0.0
 10
-0.5163976377952756
 20
-0.5324212598425198
 30
0.0
 10
-0.5163976377952756
 20
-0.5324212598425198
 30
0.0
 10
-0.5116496062992126
 20
-0.5324212598425198
 30
0.0
 10
-0.5070944881889764
 20
-0.5318661417322835
 30
0.0
 10
-0.502732283464567
 20
-0.530751968503937
 30
0.0
 10
-0.502732283464567
 20
-0.530751968503937
 30
0.0
 10
-0.4983976377952756
 20
-0.5296417322834646
 30
0.0
 10
-0.4949251968503937
 20
-0.5273661417322835
 30
0.0
 10
-0.4923149606299213
 20
-0.5238937007874016
 30
0.0
 10
-0.4923149606299213
 20
-0.5238937007874016
 30
0.0
 10
-0.4897322834645669
 20
-0.5204212598425198
 30
0.0
 10
-0.4884251968503937
 20
-0.5164763779527559
 30
0.0
 10
-0.4884251968503937
 20
-0.5120866141732283
 30
0.0
 10
-0.4884251968503937
 20
-0.5120866141732283
 30
0.0
 10
-0.4884251968503937
 20
-0.5082834645669292
 30
0.0
 10
-0.4893149606299213
 20
-0.5048661417322835
 30
0.0
 10
-0.4911496062992126
 20
-0.5018385826771654
 30
0.0
 10
-0.4911496062992126
 20
-0.5018385826771654
 30
0.0
 10
-0.4929527559055119
 20
-0.4987834645669292
 30
0.0
 10
-0.4956220472440945
 20
-0.4963661417322835
 30
0.0
 10
-0.4991496062992126
 20
-0.4945866141732284
 30
0.0
 10
-0.4991496062992126
 20
-0.4945866141732284
 30
0.0
 10
-0.5026771653543307
 20
-0.4928110236220473
 30
0.0
 10
-0.5067598425196851
 20
-0.4918937007874016
 30
0.0
 10
-0.5113700787401575
 20
-0.4918937007874016
 30
0.0
 10
-0.5113700787401575
 20
-0.4918937007874016
 30
0.0
 10
-0.5158700787401575
 20
-0.4918937007874016
 30
0.0
 10
-0.520011811023622
 20
-0.4928385826771654
 30
0.0
 10
-0.5237874015748032
 20
-0.4946692913385827
 30
0.0
 10
-0.5237874015748032
 20
-0.4946692913385827
 30
0.0
 10
-0.5275393700787402
 20
-0.496503937007874
 30
0.0
 10
-0.5305669291338583
 20
-0.4989763779527559
 30
0.0
 10
-0.5328425196850394
 20
-0.5020866141732284
 30
0.0
 10
-0.5328425196850394
 20
-0.5020866141732284
 30
0.0
 10
-0.5351220472440945
 20
-0.5051692913385827
 30
0.0
 10
-0.536759842519685
 20
-0.5092834645669292
 30
0.0
 10
-0.5377322834645669
 20
-0.5144488188976378
 30
0.0
  0
SPLINE
  5
4E
330
1F
100
AcDbEntity
  8
LAYER_1
 62
   250
100
AcDbSpline
210
0.0
220
0.0
230
1.0
 70
    11
 71
     3
 72
    20
 73
    16
 74
     0
 42
0.0000000001
 43
0.0000000001
 40
0.0
 40
0.0
 40
0.0
 40
0.0
 40
0.25
 40
0.25
 40
0.25
 40
0.25
 40
0.5
 40
0.5
 40
0.5
 40
0.5
 40
0.75
 40
0.75
 40
0.75
 40
0.75
 40
1.0
 40
1.0
 40
1.0
 40
1.0
 10
-0.3749527559055118
 20
-0.4782244094488189
 30
0.0
 10
-0.3749527559055118
 20
-0.4782244094488189
 30
0.0
 10
-0.4305354330708662
 20
-0.6339212598425197
 30
0.0
 10
-0.4305354330708662
 20
-0.6339212598425197
 30
0.0
 10
-0.4305354330708662
 20
-0.6339212598425197
 30
0.0
 10
-0.4305354330708662
 20
-0.6339212598425197
 30
0.0
 10
-0.4425905511811024
 20
-0.6339212598425197
 30
0.0
 10
-0.4425905511811024
 20
-0.6339212598425197
 30
0.0
 10
-0.4425905511811024
 20
-0.6339212598425197
 30
0.0
 10
-0.4425905511811024
 20
-0.6339212598425197
 30
0.0
 10
-0.3873425196850394
 20
-0.4782244094488189
 30
0.0
 10
-0.3873425196850394
 20
-0.4782244094488189
 30
0.0
 10
-0.3873425196850394
 20
-0.4782244094488189
 30
0.0
 10
-0.3873425196850394
 20
-0.4782244094488189
 30
0.0
 10
-0.3749527559055118
 20
-0.4782244094488189
 30
0.0
 10
-0.3749527559055118
 20
-0.4782244094488189
 30
0.0
  0
SPLINE
  5
4F
330
1F
100
AcDbEntity
  8
LAYER_1
 62
   250
100
AcDbSpline
210
0.0
220
0.0
230
1.0
 70
    11
 71
     3
 72
    48
 73
    44
 74
     0
 42
0.0000000001
 43
0.0000000001
 40
0.0
 40
0.0
 40
0.0
 40
0.0
 40
0.0909090909090909
 40
0.0909090909090909
 40
0.0909090909090909
 40
0.0909090909090909
 40
0.1818181818181818
 40
0.1818181818181818
 40
0.1818181818181818
 40
0.1818181818181818
 40
0.2727272727272727
 40
0.2727272727272727
 40
0.2727272727272727
 40
0.2727272727272727
 40
0.3636363636363637
 40
0.3636363636363637
 40
0.3636363636363637
 40
0.3636363636363637
 40
0.4545454545454546
 40
0.4545454545454546
 40
0.4545454545454546
 40
0.4545454545454546
 40
0.5454545454545455
 40
0.5454545454545455
 40
0.5454545454545455
 40
0.5454545454545455
 40
0.6363636363636365
 40
0.6363636363636365
 40
0.6363636363636365
 40
0.6363636363636365
 40
0.7272727272727274
 40
0.7272727272727274
 40
0.7272727272727274
 40
0.7272727272727274
 40
0.8181818181818183
 40
0.8181818181818183
 40
0.8181818181818183
 40
0.8181818181818183
 40
0.9090909090909093
 40
0.9090909090909093
 40
0.9090909090909093
 40
0.9090909090909093
 40
1.0
 40
1.0
 40
1.0
 40
1.0
 10
-0.296007874015748
 20
-0.4840866141732284
 30
0.0
 10
-0.296007874015748
 20
-0.4840866141732284
 30
0.0
 10
-0.2822598425196851
 20
-0.4840866141732284
 30
0.0
 10
-0.2822598425196851
 20
-0.4840866141732284
 30
0.0
 10
-0.2822598425196851
 20
-0.4840866141732284
 30
0.0
 10
-0.2822598425196851
 20
-0.4840866141732284
 30
0.0
 10
-0.2822598425196851
 20
-0.5500866141732284
 30
0.0
 10
-0.2822598425196851
 20
-0.5500866141732284
 30
0.0
 10
-0.2822598425196851
 20
-0.5500866141732284
 30
0.0
 10
-0.2822598425196851
 20
-0.5500866141732284
 30
0.0
 10
-0.2609251968503937
 20
-0.5500866141732284
 30
0.0
 10
-0.2609251968503937
 20
-0.5500866141732284
 30
0.0
 10
-0.2609251968503937
 20
-0.5500866141732284
 30
0.0
 10
-0.2609251968503937
 20
-0.5500866141732284
 30
0.0
 10
-0.2609251968503937
 20
-0.560251968503937
 30
0.0
 10
-0.2609251968503937
 20
-0.560251968503937
 30
0.0
 10
-0.2609251968503937
 20
-0.560251968503937
 30
0.0
 10
-0.2609251968503937
 20
-0.560251968503937
 30
0.0
 10
-0.2822598425196851
 20
-0.560251968503937
 30
0.0
 10
-0.2822598425196851
 20
-0.560251968503937
 30
0.0
 10
-0.2822598425196851
 20
-0.560251968503937
 30
0.0
 10
-0.2822598425196851
 20
-0.560251968503937
 30
0.0
 10
-0.2822598425196851
 20
-0.5976141732283465
 30
0.0
 10
-0.2822598425196851
 20
-0.5976141732283465
 30
0.0
 10
-0.2822598425196851
 20
-0.5976141732283465
 30
0.0
 10
-0.2822598425196851
 20
-0.5976141732283465
 30
0.0
 10
-0.296007874015748
 20
-0.5976141732283465
 30
0.0
 10
-0.296007874015748
 20
-0.5976141732283465
 30
0.0
 10
-0.296007874015748
 20
-0.5976141732283465
 30
0.0
 10
-0.296007874015748
 20
-0.5976141732283465
 30
0.0
 10
-0.296007874015748
 20
-0.560251968503937
 30
0.0
 10
-0.296007874015748
 20
-0.560251968503937
 30
0.0
 10
-0.296007874015748
 20
-0.560251968503937
 30
0.0
 10
-0.296007874015748
 20
-0.560251968503937
 30
0.0
 10
-0.3494803149606299
 20
-0.560251968503937
 30
0.0
 10
-0.3494803149606299
 20
-0.560251968503937
 30
0.0
 10
-0.3494803149606299
 20
-0.560251968503937
 30
0.0
 10
-0.3494803149606299
 20
-0.560251968503937
 30
0.0
 10
-0.3494803149606299
 20
-0.5459488188976378
 30
0.0
 10
-0.3494803149606299
 20
-0.5459488188976378
 30
0.0
 10
-0.3494803149606299
 20
-0.5459488188976378
 30
0.0
 10
-0.3494803149606299
 20
-0.5459488188976378
 30
0.0
 10
-0.296007874015748
 20
-0.4840866141732284
 30
0.0
 10
-0.296007874015748
 20
-0.4840866141732284
 30
0.0
  0
SPLINE
  5
50
330
1F
100
AcDbEntity
  8
LAYER_1
 62
   250
100
AcDbSpline
210
0.0
220
0.0
230
1.0
 70
    11
 71
     3
 72
    16
 73
    12
 74
     0
 42
0.0000000001
 43
0.0000000001
 40
0.0
 40
0.0
 40
0.0
 40
0.0
 40
0.3333333333333333
 40
0.3333333333333333
 40
0.3333333333333333
 40
0.3333333333333333
 40
0.6666666666666666
 40
0.6666666666666666
 40
0.6666666666666666
 40
0.6666666666666666
 40
1.0
 40
1.0
 40
1.0
 40
1.0
 10
-0.296007874015748
 20
-0.5500866141732284
 30
0.0
 10
-0.296007874015748
 20
-0.5500866141732284
 30
0.0
 10
-0.296007874015748
 20
-0.4966968503937008
 30
0.0
 10
-0.296007874015748
 20
-0.4966968503937008
 30
0.0
 10
-0.296007874015748
 20
-0.4966968503937008
 30
0.0
 10
-0.296007874015748
 20
-0.4966968503937008
 30
0.0
 10
-0.3420629921259843
 20
-0.5500866141732284
 30
0.0
 10
-0.3420629921259843
 20
-0.5500866141732284
 30
0.0
 10
-0.3420629921259843
 20
-0.5500866141732284
 30
0.0
 10
-0.3420629921259843
 20
-0.5500866141732284
 30
0.0
 10
-0.296007874015748
 20
-0.5500866141732284
 30
0.0
 10
-0.296007874015748
 20
-0.5500866141732284
 30
0.0
  0
SPLINE
  5
51
330
1F
100
AcDbEntity
  8
LAYER_1
 62
   250
100
AcDbSpline
210
0.0
220
0.0
230
1.0
 70
    11
 71
     3
 72
    60
 73
    56
 74
     0
 42
0.0000000001
 43
0.0000000001
 40
0.0
 40
0.0
 40
0.0
 40
0.0
 40
0.0714285714285714
 40
0.0714285714285714
 40
0.0714285714285714
 40
0.0714285714285714
 40
0.1428571428571429
 40
0.1428571428571429
 40
0.1428571428571429
 40
0.1428571428571429
 40
0.2142857142857143
 40
0.2142857142857143
 40
0.2142857142857143
 40
0.2142857142857143
 40
0.2857142857142857
 40
0.2857142857142857
 40
0.2857142857142857
 40
0.2857142857142857
 40
0.3571428571428571
 40
0.3571428571428571
 40
0.3571428571428571
 40
0.3571428571428571
 40
0.4285714285714285
 40
0.4285714285714285
 40
0.4285714285714285
 40
0.4285714285714285
 40
0.4999999999999999
 40
0.4999999999999999
 40
0.4999999999999999
 40
0.4999999999999999
 40
0.5714285714285713
 40
0.5714285714285713
 40
0.5714285714285713
 40
0.5714285714285713
 40
0.6428571428571427
 40
0.6428571428571427
 40
0.6428571428571427
 40
0.6428571428571427
 40
0.7142857142857141
 40
0.7142857142857141
 40
0.7142857142857141
 40
0.7142857142857141
 40
0.7857142857142855
 40
0.7857142857142855
 40
0.7857142857142855
 40
0.7857142857142855
 40
0.8571428571428569
 40
0.8571428571428569
 40
0.8571428571428569
 40
0.8571428571428569
 40
0.9285714285714283
 40
0.9285714285714283
 40
0.9285714285714283
 40
0.9285714285714283
 40
1.0
 40
1.0
 40
1.0
 40
1.0
 10
-0.2429527559055118
 20
-0.5261692913385827
 30
0.0
 10
-0.2429527559055118
 20
-0.5261692913385827
 30
0.0
 10
-0.2473425196850394
 20
-0.5207795275590551
 30
0.0
 10
-0.2473425196850394
 20
-0.5207795275590551
 30
0.0
 10
-0.2473425196850394
 20
-0.5207795275590551
 30
0.0
 10
-0.2362283464566929
 20
-0.5117244094488189
 30
0.0
 10
-0.2306456692913386
 20
-0.5041692913385827
 30
0.0
 10
-0.2306456692913386
 20
-0.4980866141732284
 30
0.0
 10
-0.2306456692913386
 20
-0.4980866141732284
 30
0.0
 10
-0.2306456692913386
 20
-0.4973937007874016
 30
0.0
 10
-0.2307007874015748
 20
-0.496503937007874
 30
0.0
 10
-0.2308149606299213
 20
-0.4954763779527559
 30
0.0
 10
-0.2308149606299213
 20
-0.4954763779527559
 30
0.0
 10
-0.2317283464566929
 20
-0.4958661417322835
 30
0.0
 10
-0.2326456692913386
 20
-0.4961692913385827
 30
0.0
 10
-0.2335078740157481
 20
-0.4963661417322835
 30
0.0
 10
-0.2335078740157481
 20
-0.4963661417322835
 30
0.0
 10
-0.2343700787401575
 20
-0.4965866141732284
 30
0.0
 10
-0.2351732283464567
 20
-0.4966968503937008
 30
0.0
 10
-0.2359527559055118
 20
-0.4966968503937008
 30
0.0
 10
-0.2359527559055118
 20
-0.4966968503937008
 30
0.0
 10
-0.2385629921259843
 20
-0.4966968503937008
 30
0.0
 10
-0.2406456692913386
 20
-0.4958661417322835
 30
0.0
 10
-0.2422007874015748
 20
-0.4941692913385827
 30
0.0
 10
-0.2422007874015748
 20
-0.4941692913385827
 30
0.0
 10
-0.2437874015748032
 20
-0.492503937007874
 30
0.0
 10
-0.2445629921259843
 20
-0.4903661417322835
 30
0.0
 10
-0.2445629921259843
 20
-0.487751968503937
 30
0.0
 10
-0.2445629921259843
 20
-0.487751968503937
 30
0.0
 10
-0.2445629921259843
 20
-0.4851968503937008
 30
0.0
 10
-0.2436181102362205
 20
-0.4829763779527559
 30
0.0
 10
-0.2417283464566929
 20
-0.4810866141732283
 30
0.0
 10
-0.2417283464566929
 20
-0.4810866141732283
 30
0.0
 10
-0.2398149606299213
 20
-0.4791692913385827
 30
0.0
 10
-0.2375354330708662
 20
-0.4782244094488189
 30
0.0
 10
-0.2348976377952756
 20
-0.4782244094488189
 30
0.0
 10
-0.2348976377952756
 20
-0.4782244094488189
 30
0.0
 10
-0.2312007874015748
 20
-0.4782244094488189
 30
0.0
 10
-0.2280354330708662
 20
-0.4796968503937008
 30
0.0
 10
-0.2253976377952756
 20
-0.4826692913385827
 30
0.0
 10
-0.2253976377952756
 20
-0.4826692913385827
 30
0.0
 10
-0.2227874015748032
 20
-0.4856141732283465
 30
0.0
 10
-0.2214527559055118
 20
-0.4894212598425197
 30
0.0
 10
-0.2214527559055118
 20
-0.4940866141732284
 30
0.0
 10
-0.2214527559055118
 20
-0.4940866141732284
 30
0.0
 10
-0.2214527559055118
 20
-0.4971417322834646
 30
0.0
 10
-0.2220905511811024
 20
-0.5003385826771654
 30
0.0
 10
-0.2233425196850394
 20
-0.5036692913385827
 30
0.0
 10
-0.2233425196850394
 20
-0.5036692913385827
 30
0.0
 10
-0.2245905511811024
 20
-0.5070039370078741
 30
0.0
 10
-0.2263976377952756
 20
-0.5100866141732283
 30
0.0
 10
-0.2287874015748032
 20
-0.5129488188976378
 30
0.0
 10
-0.2287874015748032
 20
-0.5129488188976378
 30
0.0
 10
-0.2311732283464567
 20
-0.5157795275590551
 30
0.0
 10
-0.2358976377952756
 20
-0.5201968503937008
 30
0.0
 10
-0.2429527559055118
 20
-0.5261692913385827
 30
0.0
  0
SPLINE
  5
52
330
1F
100
AcDbEntity
  8
LAYER_1
 62
   250
100
AcDbSpline
210
0.0
220
0.0
230
1.0
 70
    11
 71
     3
 72
    60
 73
    56
 74
     0
 42
0.0000000001
 43
0.0000000001
 40
0.0
 40
0.0
 40
0.0
 40
0.0
 40
0.0714285714285714
 40
0.0714285714285714
 40
0.0714285714285714
 40
0.0714285714285714
 40
0.1428571428571429
 40
0.1428571428571429
 40
0.1428571428571429
 40
0.1428571428571429
 40
0.2142857142857143
 40
0.2142857142857143
 40
0.2142857142857143
 40
0.2142857142857143
 40
0.2857142857142857
 40
0.2857142857142857
 40
0.2857142857142857
 40
0.2857142857142857
 40
0.3571428571428571
 40
0.3571428571428571
 40
0.3571428571428571
 40
0.3571428571428571
 40
0.4285714285714285
 40
0.4285714285714285
 40
0.4285714285714285
 40
0.4285714285714285
 40
0.4999999999999999
 40
0.4999999999999999
 40
0.4999999999999999
 40
0.4999999999999999
 40
0.5714285714285713
 40
0.5714285714285713
 40
0.5714285714285713
 40
0.5714285714285713
 40
0.6428571428571427
 40
0.6428571428571427
 40
0.6428571428571427
 40
0.6428571428571427
 40
0.7142857142857141
 40
0.7142857142857141
 40
0.7142857142857141
 40
0.7142857142857141
 40
0.7857142857142855
 40
0.7857142857142855
 40
0.7857142857142855
 40
0.7857142857142855
 40
0.8571428571428569
 40
0.8571428571428569
 40
0.8571428571428569
 40
0.8571428571428569
 40
0.9285714285714283
 40
0.9285714285714283
 40
0.9285714285714283
 40
0.9285714285714283
 40
1.0
 40
1.0
 40
1.0
 40
1.0
 10
-0.2138976377952756
 20
-0.5261692913385827
 30
0.0
 10
-0.2138976377952756
 20
-0.5261692913385827
 30
0.0
 10
-0.2182874015748032
 20
-0.5207795275590551
 30
0.0
 10
-0.2182874015748032
 20
-0.5207795275590551
 30
0.0
 10
-0.2182874015748032
 20
-0.5207795275590551
 30
0.0
 10
-0.2071732283464567
 20
-0.5117244094488189
 30
0.0
 10
-0.2015905511811024
 20
-0.5041692913385827
 30
0.0
 10
-0.2015905511811024
 20
-0.4980866141732284
 30
0.0
 10
-0.2015905511811024
 20
-0.4980866141732284
 30
0.0
 10
-0.2015905511811024
 20
-0.4973937007874016
 30
0.0
 10
-0.2016456692913386
 20
-0.496503937007874
 30
0.0
 10
-0.201759842519685
 20
-0.4954763779527559
 30
0.0
 10
-0.201759842519685
 20
-0.4954763779527559
 30
0.0
 10
-0.2026732283464567
 20
-0.4958661417322835
 30
0.0
 10
-0.2035905511811024
 20
-0.4961692913385827
 30
0.0
 10
-0.2044527559055118
 20
-0.4963661417322835
 30
0.0
 10
-0.2044527559055118
 20
-0.4963661417322835
 30
0.0
 10
-0.2053149606299213
 20
-0.4965866141732284
 30
0.0
 10
-0.2061456692913386
 20
-0.4966968503937008
 30
0.0
 10
-0.2069803149606299
 20
-0.4966968503937008
 30
0.0
 10
-0.2069803149606299
 20
-0.4966968503937008
 30
0.0
 10
-0.2095354330708661
 20
-0.4966968503937008
 30
0.0
 10
-0.2115905511811024
 20
-0.4958661417322835
 30
0.0
 10
-0.2131456692913386
 20
-0.4941692913385827
 30
0.0
 10
-0.2131456692913386
 20
-0.4941692913385827
 30
0.0
 10
-0.2147283464566929
 20
-0.492503937007874
 30
0.0
 10
-0.215507874015748
 20
-0.4903661417322835
 30
0.0
 10
-0.215507874015748
 20
-0.487751968503937
 30
0.0
 10
-0.215507874015748
 20
-0.487751968503937
 30
0.0
 10
-0.215507874015748
 20
-0.4851968503937008
 30
0.0
 10
-0.2145629921259843
 20
-0.4829763779527559
 30
0.0
 10
-0.2126732283464567
 20
-0.4810866141732283
 30
0.0
 10
-0.2126732283464567
 20
-0.4810866141732283
 30
0.0
 10
-0.2107874015748032
 20
-0.4791692913385827
 30
0.0
 10
-0.2084803149606299
 20
-0.4782244094488189
 30
0.0
 10
-0.2058425196850394
 20
-0.4782244094488189
 30
0.0
 10
-0.2058425196850394
 20
-0.4782244094488189
 30
0.0
 10
-0.2021456692913386
 20
-0.4782244094488189
 30
0.0
 10
-0.1989803149606299
 20
-0.4796968503937008
 30
0.0
 10
-0.1963425196850394
 20
-0.4826692913385827
 30
0.0
 10
-0.1963425196850394
 20
-0.4826692913385827
 30
0.0
 10
-0.193732283464567
 20
-0.4856141732283465
 30
0.0
 10
-0.1923976377952756
 20
-0.4894212598425197
 30
0.0
 10
-0.1923976377952756
 20
-0.4940866141732284
 30
0.0
 10
-0.1923976377952756
 20
-0.4940866141732284
 30
0.0
 10
-0.1923976377952756
 20
-0.4971417322834646
 30
0.0
 10
-0.1930354330708662
 20
-0.5003385826771654
 30
0.0
 10
-0.1942874015748032
 20
-0.5036692913385827
 30
0.0
 10
-0.1942874015748032
 20
-0.5036692913385827
 30
0.0
 10
-0.1955354330708662
 20
-0.5070039370078741
 30
0.0
 10
-0.1973425196850394
 20
-0.5100866141732283
 30
0.0
 10
-0.1997283464566929
 20
-0.5129488188976378
 30
0.0
 10
-0.1997283464566929
 20
-0.5129488188976378
 30
0.0
 10
-0.2021181102362205
 20
-0.5157795275590551
 30
0.0
 10
-0.2068425196850394
 20
-0.5201968503937008
 30
0.0
 10
-0.2138976377952756
 20
-0.5261692913385827
 30
0.0
  0
SPLINE
  5
53
330
1F
100
AcDbEntity
  8
LAYER_1
 62
   253
100
AcDbSpline
210
0.0
220
0.0
230
1.0
 70
    11
 71
     3
 72
    20
 73
    16
 74
     0
 42
0.0000000001
 43
0.0000000001
 40
0.0
 40
0.0
 40
0.0
 40
0.0
 40
0.25
 40
0.25
 40
0.25
 40
0.25
 40
0.5
 40
0.5
 40
0.5
 40
0.5
 40
0.75
 40
0.75
 40
0.75
 40
0.75
 40
1.0
 40
1.0
 40
1.0
 40
1.0
 10
-0.7212244094488189
 20
-0.213751968503937
 30
0.0
 10
-0.7212244094488189
 20
-0.213751968503937
 30
0.0
 10
-0.0713740157480315
 20
0.161248031496063
 30
0.0
 10
-0.0713740157480315
 20
0.161248031496063
 30
0.0
 10
-0.0713740157480315
 20
0.161248031496063
 30
0.0
 10
-0.0713740157480315
 20
0.161248031496063
 30
0.0
 10
-0.0713740157480315
 20
0.286248031496063
 30
0.0
 10
-0.0713740157480315
 20
0.286248031496063
 30
0.0
 10
-0.0713740157480315
 20
0.286248031496063
 30
0.0
 10
-0.0713740157480315
 20
0.286248031496063
 30
0.0
 10
-0.7212244094488189
 20
-0.088751968503937
 30
0.0
 10
-0.7212244094488189
 20
-0.088751968503937
 30
0.0
 10
-0.7212244094488189
 20
-0.088751968503937
 30
0.0
 10
-0.7212244094488189
 20
-0.088751968503937
 30
0.0
 10
-0.7212244094488189
 20
-0.213751968503937
 30
0.0
 10
-0.7212244094488189
 20
-0.213751968503937
 30
0.0
  0
SPLINE
  5
54
330
1F
100
AcDbEntity
  8
LAYER_1
 62
   250
100
AcDbSpline
210
0.0
220
0.0
230
1.0
 70
    11
 71
     3
 72
    20
 73
    16
 74
     0
 42
0.0000000001
 43
0.0000000001
 40
0.0
 40
0.0
 40
0.0
 40
0.0
 40
0.25
 40
0.25
 40
0.25
 40
0.25
 40
0.5
 40
0.5
 40
0.5
 40
0.5
 40
0.75
 40
0.75
 40
0.75
 40
0.75
 40
1.0
 40
1.0
 40
1.0
 40
1.0
 10
-0.7212244094488189
 20
-0.213751968503937
 30
0.0
 10
-0.7212244094488189
 20
-0.213751968503937
 30
0.0
 10
-0.0713740157480315
 20
0.161248031496063
 30
0.0
 10
-0.0713740157480315
 20
0.161248031496063
 30
0.0
 10
-0.0713740157480315
 20
0.161248031496063
 30
0.0
 10
-0.0713740157480315
 20
0.161248031496063
 30
0.0
 10
-0.0713740157480315
 20
0.286248031496063
 30
0.0
 10
-0.0713740157480315
 20
0.286248031496063
 30
0.0
 10
-0.0713740157480315
 20
0.286248031496063
 30
0.0
 10
-0.0713740157480315
 20
0.286248031496063
 30
0.0
 10
-0.7212244094488189
 20
-0.088751968503937
 30
0.0
 10
-0.7212244094488189
 20
-0.088751968503937
 30
0.0
 10
-0.7212244094488189
 20
-0.088751968503937
 30
0.0
 10
-0.7212244094488189
 20
-0.088751968503937
 30
0.0
 10
-0.7212244094488189
 20
-0.213751968503937
 30
0.0
 10
-0.7212244094488189
 20
-0.213751968503937
 30
0.0
  0
SPLINE
  5
55
330
1F
100
AcDbEntity
  8
LAYER_1
 62
   253
100
AcDbSpline
210
0.0
220
0.0
230
1.0
 70
    11
 71
     3
 72
    20
 73
    16
 74
     0
 42
0.0000000001
 43
0.0000000001
 40
0.0
 40
0.0
 40
0.0
 40
0.0
 40
0.25
 40
0.25
 40
0.25
 40
0.25
 40
0.5
 40
0.5
 40
0.5
 40
0.5
 40
0.75
 40
0.75
 40
0.75
 40
0.75
 40
1.0
 40
1.0
 40
1.0
 40
1.0
 10
-0.2212244094488189
 20
-0.088751968503937
 30
0.0
 10
-0.2212244094488189
 20
-0.088751968503937
 30
0.0
 10
0.4286259842519685
 20
0.286248031496063
 30
0.0
 10
0.4286259842519685
 20
0.286248031496063
 30
0.0
 10
0.4286259842519685
 20
0.286248031496063
 30
0.0
 10
0.4286259842519685
 20
0.286248031496063
 30
0.0
 10
0.4286259842519685
 20
0.536248031496063
 30
0.0
 10
0.4286259842519685
 20
0.536248031496063
 30
0.0
 10
0.4286259842519685
 20
0.536248031496063
 30
0.0
 10
0.4286259842519685
 20
0.536248031496063
 30
0.0
 10
-0.2212244094488189
 20
0.161248031496063
 30
0.0
 10
-0.2212244094488189
 20
0.161248031496063
 30
0.0
 10
-0.2212244094488189
 20
0.161248031496063
 30
0.0
 10
-0.2212244094488189
 20
0.161248031496063
 30
0.0
 10
-0.2212244094488189
 20
-0.088751968503937
 30
0.0
 10
-0.2212244094488189
 20
-0.088751968503937
 30
0.0
  0
SPLINE
  5
56
330
1F
100
AcDbEntity
  8
LAYER_1
 62
   250
100
AcDbSpline
210
0.0
220
0.0
230
1.0
 70
    11
 71
     3
 72
    20
 73
    16
 74
     0
 42
0.0000000001
 43
0.0000000001
 40
0.0
 40
0.0
 40
0.0
 40
0.0
 40
0.25
 40
0.25
 40
0.25
 40
0.25
 40
0.5
 40
0.5
 40
0.5
 40
0.5
 40
0.75
 40
0.75
 40
0.75
 40
0.75
 40
1.0
 40
1.0
 40
1.0
 40
1.0
 10
-0.2212244094488189
 20
-0.088751968503937
 30
0.0
 10
-0.2212244094488189
 20
-0.088751968503937
 30
0.0
 10
0.4286259842519685
 20
0.286248031496063
 30
0.0
 10
0.4286259842519685
 20
0.286248031496063
 30
0.0
 10
0.4286259842519685
 20
0.286248031496063
 30
0.0
 10
0.4286259842519685
 20
0.286248031496063
 30
0.0
 10
0.4286259842519685
 20
0.536248031496063
 30
0.0
 10
0.4286259842519685
 20
0.536248031496063
 30
0.0
 10
0.4286259842519685
 20
0.536248031496063
 30
0.0
 10
0.4286259842519685
 20
0.536248031496063
 30
0.0
 10
-0.2212244094488189
 20
0.161248031496063
 30
0.0
 10
-0.2212244094488189
 20
0.161248031496063
 30
0.0
 10
-0.2212244094488189
 20
0.161248031496063
 30
0.0
 10
-0.2212244094488189
 20
0.161248031496063
 30
0.0
 10
-0.2212244094488189
 20
-0.088751968503937
 30
0.0
 10
-0.2212244094488189
 20
-0.088751968503937
 30
0.0
  0
SPLINE
  5
57
330
1F
100
AcDbEntity
  8
LAYER_1
 62
   253
100
AcDbSpline
210
0.0
220
0.0
230
1.0
 70
    11
 71
     3
 72
    20
 73
    16
 74
     0
 42
0.0000000001
 43
0.0000000001
 40
0.0
 40
0.0
 40
0.0
 40
0.0
 40
0.25
 40
0.25
 40
0.25
 40
0.25
 40
0.5
 40
0.5
 40
0.5
 40
0.5
 40
0.75
 40
0.75
 40
0.75
 40
0.75
 40
1.0
 40
1.0
 40
1.0
 40
1.0
 10
0.0912716535433071
 20
0.161248031496063
 30
0.0
 10
0.0912716535433071
 20
0.161248031496063
 30
0.0
 10
0.7411220472440945
 20
0.536248031496063
 30
0.0
 10
0.7411220472440945
 20
0.536248031496063
 30
0.0
 10
0.7411220472440945
 20
0.536248031496063
 30
0.0
 10
0.7411220472440945
 20
0.536248031496063
 30
0.0
 10
0.7411220472440945
 20
0.911248031496063
 30
0.0
 10
0.7411220472440945
 20
0.911248031496063
 30
0.0
 10
0.7411220472440945
 20
0.911248031496063
 30
0.0
 10
0.7411220472440945
 20
0.911248031496063
 30
0.0
 10
0.0912716535433071
 20
0.536248031496063
 30
0.0
 10
0.0912716535433071
 20
0.536248031496063
 30
0.0
 10
0.0912716535433071
 20
0.536248031496063
 30
0.0
 10
0.0912716535433071
 20
0.536248031496063
 30
0.0
 10
0.0912716535433071
 20
0.161248031496063
 30
0.0
 10
0.0912716535433071
 20
0.161248031496063
 30
0.0
  0
SPLINE
  5
58
330
1F
100
AcDbEntity
  8
LAYER_1
 62
   250
100
AcDbSpline
210
0.0
220
0.0
230
1.0
 70
    11
 71
     3
 72
    20
 73
    16
 74
     0
 42
0.0000000001
 43
0.0000000001
 40
0.0
 40
0.0
 40
0.0
 40
0.0
 40
0.25
 40
0.25
 40
0.25
 40
0.25
 40
0.5
 40
0.5
 40
0.5
 40
0.5
 40
0.75
 40
0.75
 40
0.75
 40
0.75
 40
1.0
 40
1.0
 40
1.0
 40
1.0
 10
0.0912716535433071
 20
0.161248031496063
 30
0.0
 10
0.0912716535433071
 20
0.161248031496063
 30
0.0
 10
0.7411220472440945
 20
0.536248031496063
 30
0.0
 10
0.7411220472440945
 20
0.536248031496063
 30
0.0
 10
0.7411220472440945
 20
0.536248031496063
 30
0.0
 10
0.7411220472440945
 20
0.536248031496063
 30
0.0
 10
0.7411220472440945
 20
0.911248031496063
 30
0.0
 10
0.7411220472440945
 20
0.911248031496063
 30
0.0
 10
0.7411220472440945
 20
0.911248031496063
 30
0.0
 10
0.7411220472440945
 20
0.911248031496063
 30
0.0
 10
0.0912716535433071
 20
0.536248031496063
 30
0.0
 10
0.0912716535433071
 20
0.536248031496063
 30
0.0
 10
0.0912716535433071
 20
0.536248031496063
 30
0.0
 10
0.0912716535433071
 20
0.536248031496063
 30
0.0
 10
0.0912716535433071
 20
0.161248031496063
 30
0.0
 10
0.0912716535433071
 20
0.161248031496063
 30
0.0
  0
SPLINE
  5
59
330
1F
100
AcDbEntity
  8
LAYER_1
 62
   253
100
AcDbSpline
210
0.0
220
0.0
230
1.0
 70
    11
 71
     3
 72
    20
 73
    16
 74
     0
 42
0.0000000001
 43
0.0000000001
 40
0.0
 40
0.0
 40
0.0
 40
0.0
 40
0.25
 40
0.25
 40
0.25
 40
0.25
 40
0.5
 40
0.5
 40
0.5
 40
0.5
 40
0.75
 40
0.75
 40
0.75
 40
0.75
 40
1.0
 40
1.0
 40
1.0
 40
1.0
 10
0.0912716535433071
 20
0.536248031496063
 30
0.0
 10
0.0912716535433071
 20
0.536248031496063
 30
0.0
 10
0.7411220472440945
 20
0.911248031496063
 30
0.0
 10
0.7411220472440945
 20
0.911248031496063
 30
0.0
 10
0.7411220472440945
 20
0.911248031496063
 30
0.0
 10
0.7411220472440945
 20
0.911248031496063
 30
0.0
 10
-0.8459251968503937
 20
0.911248031496063
 30
0.0
 10
-0.8459251968503937
 20
0.911248031496063
 30
0.0
 10
-0.8459251968503937
 20
0.911248031496063
 30
0.0
 10
-0.8459251968503937
 20
0.911248031496063
 30
0.0
 10
-1.495775590551181
 20
0.536248031496063
 30
0.0
 10
-1.495775590551181
 20
0.536248031496063
 30
0.0
 10
-1.495775590551181
 20
0.536248031496063
 30
0.0
 10
-1.495775590551181
 20
0.536248031496063
 30
0.0
 10
0.0912716535433071
 20
0.536248031496063
 30
0.0
 10
0.0912716535433071
 20
0.536248031496063
 30
0.0
  0
SPLINE
  5
5A
330
1F
100
AcDbEntity
  8
LAYER_1
 62
   250
100
AcDbSpline
210
0.0
220
0.0
230
1.0
 70
    11
 71
     3
 72
    20
 73
    16
 74
     0
 42
0.0000000001
 43
0.0000000001
 40
0.0
 40
0.0
 40
0.0
 40
0.0
 40
0.25
 40
0.25
 40
0.25
 40
0.25
 40
0.5
 40
0.5
 40
0.5
 40
0.5
 40
0.75
 40
0.75
 40
0.75
 40
0.75
 40
1.0
 40
1.0
 40
1.0
 40
1.0
 10
0.0912716535433071
 20
0.536248031496063
 30
0.0
 10
0.0912716535433071
 20
0.536248031496063
 30
0.0
 10
0.7411220472440945
 20
0.911248031496063
 30
0.0
 10
0.7411220472440945
 20
0.911248031496063
 30
0.0
 10
0.7411220472440945
 20
0.911248031496063
 30
0.0
 10
0.7411220472440945
 20
0.911248031496063
 30
0.0
 10
-0.8459251968503937
 20
0.911248031496063
 30
0.0
 10
-0.8459251968503937
 20
0.911248031496063
 30
0.0
 10
-0.8459251968503937
 20
0.911248031496063
 30
0.0
 10
-0.8459251968503937
 20
0.911248031496063
 30
0.0
 10
-1.495775590551181
 20
0.536248031496063
 30
0.0
 10
-1.495775590551181
 20
0.536248031496063
 30
0.0
 10
-1.495775590551181
 20
0.536248031496063
 30
0.0
 10
-1.495775590551181
 20
0.536248031496063
 30
0.0
 10
0.0912716535433071
 20
0.536248031496063
 30
0.0
 10
0.0912716535433071
 20
0.536248031496063
 30
0.0
  0
SPLINE
  5
5B
330
1F
100
AcDbEntity
  8
LAYER_1
 62
   253
100
AcDbSpline
210
0.0
220
0.0
230
1.0
 70
    11
 71
     3
 72
    20
 73
    16
 74
     0
 42
0.0000000001
 43
0.0000000001
 40
0.0
 40
0.0
 40
0.0
 40
0.0
 40
0.25
 40
0.25
 40
0.25
 40
0.25
 40
0.5
 40
0.5
 40
0.5
 40
0.5
 40
0.75
 40
0.75
 40
0.75
 40
0.75
 40
1.0
 40
1.0
 40
1.0
 40
1.0
 10
-0.7212244094488189
 20
-0.213751968503937
 30
0.0
 10
-0.7212244094488189
 20
-0.213751968503937
 30
0.0
 10
-0.0713740157480315
 20
0.161248031496063
 30
0.0
 10
-0.0713740157480315
 20
0.161248031496063
 30
0.0
 10
-0.0713740157480315
 20
0.161248031496063
 30
0.0
 10
-0.0713740157480315
 20
0.161248031496063
 30
0.0
 10
-0.0713740157480315
 20
0.286248031496063
 30
0.0
 10
-0.0713740157480315
 20
0.286248031496063
 30
0.0
 10
-0.0713740157480315
 20
0.286248031496063
 30
0.0
 10
-0.0713740157480315
 20
0.286248031496063
 30
0.0
 10
-0.7212244094488189
 20
-0.088751968503937
 30
0.0
 10
-0.7212244094488189
 20
-0.088751968503937
 30
0.0
 10
-0.7212244094488189
 20
-0.088751968503937
 30
0.0
 10
-0.7212244094488189
 20
-0.088751968503937
 30
0.0
 10
-0.7212244094488189
 20
-0.213751968503937
 30
0.0
 10
-0.7212244094488189
 20
-0.213751968503937
 30
0.0
  0
SPLINE
  5
5C
330
1F
100
AcDbEntity
  8
LAYER_1
 62
   250
100
AcDbSpline
210
0.0
220
0.0
230
1.0
 70
    11
 71
     3
 72
    20
 73
    16
 74
     0
 42
0.0000000001
 43
0.0000000001
 40
0.0
 40
0.0
 40
0.0
 40
0.0
 40
0.25
 40
0.25
 40
0.25
 40
0.25
 40
0.5
 40
0.5
 40
0.5
 40
0.5
 40
0.75
 40
0.75
 40
0.75
 40
0.75
 40
1.0
 40
1.0
 40
1.0
 40
1.0
 10
-0.7212244094488189
 20
-0.213751968503937
 30
0.0
 10
-0.7212244094488189
 20
-0.213751968503937
 30
0.0
 10
-0.0713740157480315
 20
0.161248031496063
 30
0.0
 10
-0.0713740157480315
 20
0.161248031496063
 30
0.0
 10
-0.0713740157480315
 20
0.161248031496063
 30
0.0
 10
-0.0713740157480315
 20
0.161248031496063
 30
0.0
 10
-0.0713740157480315
 20
0.286248031496063
 30
0.0
 10
-0.0713740157480315
 20
0.286248031496063
 30
0.0
 10
-0.0713740157480315
 20
0.286248031496063
 30
0.0
 10
-0.0713740157480315
 20
0.286248031496063
 30
0.0
 10
-0.7212244094488189
 20
-0.088751968503937
 30
0.0
 10
-0.7212244094488189
 20
-0.088751968503937
 30
0.0
 10
-0.7212244094488189
 20
-0.088751968503937
 30
0.0
 10
-0.7212244094488189
 20
-0.088751968503937
 30
0.0
 10
-0.7212244094488189
 20
-0.213751968503937
 30
0.0
 10
-0.7212244094488189
 20
-0.213751968503937
 30
0.0
  0
SPLINE
  5
5D
330
1F
100
AcDbEntity
  8
LAYER_1
 62
   253
100
AcDbSpline
210
0.0
220
0.0
230
1.0
 70
    11
 71
     3
 72
    20
 73
    16
 74
     0
 42
0.0000000001
 43
0.0000000001
 40
0.0
 40
0.0
 40
0.0
 40
0.0
 40
0.25
 40
0.25
 40
0.25
 40
0.25
 40
0.5
 40
0.5
 40
0.5
 40
0.5
 40
0.75
 40
0.75
 40
0.75
 40
0.75
 40
1.0
 40
1.0
 40
1.0
 40
1.0
 10
-0.2212244094488189
 20
-0.088751968503937
 30
0.0
 10
-0.2212244094488189
 20
-0.088751968503937
 30
0.0
 10
0.4286259842519685
 20
0.286248031496063
 30
0.0
 10
0.4286259842519685
 20
0.286248031496063
 30
0.0
 10
0.4286259842519685
 20
0.286248031496063
 30
0.0
 10
0.4286259842519685
 20
0.286248031496063
 30
0.0
 10
0.4286259842519685
 20
0.536248031496063
 30
0.0
 10
0.4286259842519685
 20
0.536248031496063
 30
0.0
 10
0.4286259842519685
 20
0.536248031496063
 30
0.0
 10
0.4286259842519685
 20
0.536248031496063
 30
0.0
 10
-0.2212244094488189
 20
0.161248031496063
 30
0.0
 10
-0.2212244094488189
 20
0.161248031496063
 30
0.0
 10
-0.2212244094488189
 20
0.161248031496063
 30
0.0
 10
-0.2212244094488189
 20
0.161248031496063
 30
0.0
 10
-0.2212244094488189
 20
-0.088751968503937
 30
0.0
 10
-0.2212244094488189
 20
-0.088751968503937
 30
0.0
  0
SPLINE
  5
5E
330
1F
100
AcDbEntity
  8
LAYER_1
 62
   250
100
AcDbSpline
210
0.0
220
0.0
230
1.0
 70
    11
 71
     3
 72
    20
 73
    16
 74
     0
 42
0.0000000001
 43
0.0000000001
 40
0.0
 40
0.0
 40
0.0
 40
0.0
 40
0.25
 40
0.25
 40
0.25
 40
0.25
 40
0.5
 40
0.5
 40
0.5
 40
0.5
 40
0.75
 40
0.75
 40
0.75
 40
0.75
 40
1.0
 40
1.0
 40
1.0
 40
1.0
 10
-0.2212244094488189
 20
-0.088751968503937
 30
0.0
 10
-0.2212244094488189
 20
-0.088751968503937
 30
0.0
 10
0.4286259842519685
 20
0.286248031496063
 30
0.0
 10
0.4286259842519685
 20
0.286248031496063
 30
0.0
 10
0.4286259842519685
 20
0.286248031496063
 30
0.0
 10
0.4286259842519685
 20
0.286248031496063
 30
0.0
 10
0.4286259842519685
 20
0.536248031496063
 30
0.0
 10
0.4286259842519685
 20
0.536248031496063
 30
0.0
 10
0.4286259842519685
 20
0.536248031496063
 30
0.0
 10
0.4286259842519685
 20
0.536248031496063
 30
0.0
 10
-0.2212244094488189
 20
0.161248031496063
 30
0.0
 10
-0.2212244094488189
 20
0.161248031496063
 30
0.0
 10
-0.2212244094488189
 20
0.161248031496063
 30
0.0
 10
-0.2212244094488189
 20
0.161248031496063
 30
0.0
 10
-0.2212244094488189
 20
-0.088751968503937
 30
0.0
 10
-0.2212244094488189
 20
-0.088751968503937
 30
0.0
  0
SPLINE
  5
5F
330
1F
100
AcDbEntity
  8
LAYER_1
 62
   253
100
AcDbSpline
210
0.0
220
0.0
230
1.0
 70
    11
 71
     3
 72
    20
 73
    16
 74
     0
 42
0.0000000001
 43
0.0000000001
 40
0.0
 40
0.0
 40
0.0
 40
0.0
 40
0.25
 40
0.25
 40
0.25
 40
0.25
 40
0.5
 40
0.5
 40
0.5
 40
0.5
 40
0.75
 40
0.75
 40
0.75
 40
0.75
 40
1.0
 40
1.0
 40
1.0
 40
1.0
 10
0.0912716535433071
 20
0.161248031496063
 30
0.0
 10
0.0912716535433071
 20
0.161248031496063
 30
0.0
 10
0.7411220472440945
 20
0.536248031496063
 30
0.0
 10
0.7411220472440945
 20
0.536248031496063
 30
0.0
 10
0.7411220472440945
 20
0.536248031496063
 30
0.0
 10
0.7411220472440945
 20
0.536248031496063
 30
0.0
 10
0.7411220472440945
 20
0.911248031496063
 30
0.0
 10
0.7411220472440945
 20
0.911248031496063
 30
0.0
 10
0.7411220472440945
 20
0.911248031496063
 30
0.0
 10
0.7411220472440945
 20
0.911248031496063
 30
0.0
 10
0.0912716535433071
 20
0.536248031496063
 30
0.0
 10
0.0912716535433071
 20
0.536248031496063
 30
0.0
 10
0.0912716535433071
 20
0.536248031496063
 30
0.0
 10
0.0912716535433071
 20
0.536248031496063
 30
0.0
 10
0.0912716535433071
 20
0.161248031496063
 30
0.0
 10
0.0912716535433071
 20
0.161248031496063
 30
0.0
  0
SPLINE
  5
60
330
1F
100
AcDbEntity
  8
LAYER_1
 62
   250
100
AcDbSpline
210
0.0
220
0.0
230
1.0
 70
    11
 71
     3
 72
    20
 73
    16
 74
     0
 42
0.0000000001
 43
0.0000000001
 40
0.0
 40
0.0
 40
0.0
 40
0.0
 40
0.25
 40
0.25
 40
0.25
 40
0.25
 40
0.5
 40
0.5
 40
0.5
 40
0.5
 40
0.75
 40
0.75
 40
0.75
 40
0.75
 40
1.0
 40
1.0
 40
1.0
 40
1.0
 10
0.0912716535433071
 20
0.161248031496063
 30
0.0
 10
0.0912716535433071
 20
0.161248031496063
 30
0.0
 10
0.7411220472440945
 20
0.536248031496063
 30
0.0
 10
0.7411220472440945
 20
0.536248031496063
 30
0.0
 10
0.7411220472440945
 20
0.536248031496063
 30
0.0
 10
0.7411220472440945
 20
0.536248031496063
 30
0.0
 10
0.7411220472440945
 20
0.911248031496063
 30
0.0
 10
0.7411220472440945
 20
0.911248031496063
 30
0.0
 10
0.7411220472440945
 20
0.911248031496063
 30
0.0
 10
0.7411220472440945
 20
0.911248031496063
 30
0.0
 10
0.0912716535433071
 20
0.536248031496063
 30
0.0
 10
0.0912716535433071
 20
0.536248031496063
 30
0.0
 10
0.0912716535433071
 20
0.536248031496063
 30
0.0
 10
0.0912716535433071
 20
0.536248031496063
 30
0.0
 10
0.0912716535433071
 20
0.161248031496063
 30
0.0
 10
0.0912716535433071
 20
0.161248031496063
 30
0.0
  0
SPLINE
  5
61
330
1F
100
AcDbEntity
  8
LAYER_1
 62
   253
100
AcDbSpline
210
0.0
220
0.0
230
1.0
 70
    11
 71
     3
 72
    20
 73
    16
 74
     0
 42
0.0000000001
 43
0.0000000001
 40
0.0
 40
0.0
 40
0.0
 40
0.0
 40
0.25
 40
0.25
 40
0.25
 40
0.25
 40
0.5
 40
0.5
 40
0.5
 40
0.5
 40
0.75
 40
0.75
 40
0.75
 40
0.75
 40
1.0
 40
1.0
 40
1.0
 40
1.0
 10
0.0912716535433071
 20
0.536248031496063
 30
0.0
 10
0.0912716535433071
 20
0.536248031496063
 30
0.0
 10
0.7411220472440945
 20
0.911248031496063
 30
0.0
 10
0.7411220472440945
 20
0.911248031496063
 30
0.0
 10
0.7411220472440945
 20
0.911248031496063
 30
0.0
 10
0.7411220472440945
 20
0.911248031496063
 30
0.0
 10
-0.8459251968503937
 20
0.911248031496063
 30
0.0
 10
-0.8459251968503937
 20
0.911248031496063
 30
0.0
 10
-0.8459251968503937
 20
0.911248031496063
 30
0.0
 10
-0.8459251968503937
 20
0.911248031496063
 30
0.0
 10
-1.495775590551181
 20
0.536248031496063
 30
0.0
 10
-1.495775590551181
 20
0.536248031496063
 30
0.0
 10
-1.495775590551181
 20
0.536248031496063
 30
0.0
 10
-1.495775590551181
 20
0.536248031496063
 30
0.0
 10
0.0912716535433071
 20
0.536248031496063
 30
0.0
 10
0.0912716535433071
 20
0.536248031496063
 30
0.0
  0
SPLINE
  5
62
330
1F
100
AcDbEntity
  8
LAYER_1
 62
   250
100
AcDbSpline
210
0.0
220
0.0
230
1.0
 70
    11
 71
     3
 72
    20
 73
    16
 74
     0
 42
0.0000000001
 43
0.0000000001
 40
0.0
 40
0.0
 40
0.0
 40
0.0
 40
0.25
 40
0.25
 40
0.25
 40
0.25
 40
0.5
 40
0.5
 40
0.5
 40
0.5
 40
0.75
 40
0.75
 40
0.75
 40
0.75
 40
1.0
 40
1.0
 40
1.0
 40
1.0
 10
0.0912716535433071
 20
0.536248031496063
 30
0.0
 10
0.0912716535433071
 20
0.536248031496063
 30
0.0
 10
0.7411220472440945
 20
0.911248031496063
 30
0.0
 10
0.7411220472440945
 20
0.911248031496063
 30
0.0
 10
0.7411220472440945
 20
0.911248031496063
 30
0.0
 10
0.7411220472440945
 20
0.911248031496063
 30
0.0
 10
-0.8459251968503937
 20
0.911248031496063
 30
0.0
 10
-0.8459251968503937
 20
0.911248031496063
 30
0.0
 10
-0.8459251968503937
 20
0.911248031496063
 30
0.0
 10
-0.8459251968503937
 20
0.911248031496063
 30
0.0
 10
-1.495775590551181
 20
0.536248031496063
 30
0.0
 10
-1.495775590551181
 20
0.536248031496063
 30
0.0
 10
-1.495775590551181
 20
0.536248031496063
 30
0.0
 10
-1.495775590551181
 20
0.536248031496063
 30
0.0
 10
0.0912716535433071
 20
0.536248031496063
 30
0.0
 10
0.0912716535433071
 20
0.536248031496063
 30
0.0
  0
SPLINE
  5
63
330
1F
100
AcDbEntity
  8
LAYER_1
 62
     7
100
AcDbSpline
210
0.0
220
0.0
230
1.0
 70
    11
 71
     3
 72
    36
 73
    32
 74
     0
 42
0.0000000001
 43
0.0000000001
 40
0.0
 40
0.0
 40
0.0
 40
0.0
 40
0.125
 40
0.125
 40
0.125
 40
0.125
 40
0.25
 40
0.25
 40
0.25
 40
0.25
 40
0.375
 40
0.375
 40
0.375
 40
0.375
 40
0.5
 40
0.5
 40
0.5
 40
0.5
 40
0.625
 40
0.625
 40
0.625
 40
0.625
 40
0.75
 40
0.75
 40
0.75
 40
0.75
 40
0.875
 40
0.875
 40
0.875
 40
0.875
 40
1.0
 40
1.0
 40
1.0
 40
1.0
 10
-1.495775590551181
 20
-0.213751968503937
 30
0.0
 10
-1.495775590551181
 20
-0.213751968503937
 30
0.0
 10
-0.7212244094488189
 20
-0.213751968503937
 30
0.0
 10
-0.7212244094488189
 20
-0.213751968503937
 30
0.0
 10
-0.7212244094488189
 20
-0.213751968503937
 30
0.0
 10
-0.7212244094488189
 20
-0.213751968503937
 30
0.0
 10
-0.7212244094488189
 20
-0.088751968503937
 30
0.0
 10
-0.7212244094488189
 20
-0.088751968503937
 30
0.0
 10
-0.7212244094488189
 20
-0.088751968503937
 30
0.0
 10
-0.7212244094488189
 20
-0.088751968503937
 30
0.0
 10
-0.2212244094488189
 20
-0.088751968503937
 30
0.0
 10
-0.2212244094488189
 20
-0.088751968503937
 30
0.0
 10
-0.2212244094488189
 20
-0.088751968503937
 30
0.0
 10
-0.2212244094488189
 20
-0.088751968503937
 30
0.0
 10
-0.2212244094488189
 20
0.161248031496063
 30
0.0
 10
-0.2212244094488189
 20
0.161248031496063
 30
0.0
 10
-0.2212244094488189
 20
0.161248031496063
 30
0.0
 10
-0.2212244094488189
 20
0.161248031496063
 30
0.0
 10
0.0912716535433071
 20
0.161248031496063
 30
0.0
 10
0.0912716535433071
 20
0.161248031496063
 30
0.0
 10
0.0912716535433071
 20
0.161248031496063
 30
0.0
 10
0.0912716535433071
 20
0.161248031496063
 30
0.0
 10
0.0912716535433071
 20
0.536248031496063
 30
0.0
 10
0.0912716535433071
 20
0.536248031496063
 30
0.0
 10
0.0912716535433071
 20
0.536248031496063
 30
0.0
 10
0.0912716535433071
 20
0.536248031496063
 30
0.0
 10
-1.495775590551181
 20
0.536248031496063
 30
0.0
 10
-1.495775590551181
 20
0.536248031496063
 30
0.0
 10
-1.495775590551181
 20
0.536248031496063
 30
0.0
 10
-1.495775590551181
 20
0.536248031496063
 30
0.0
 10
-1.495775590551181
 20
-0.213751968503937
 30
0.0
 10
-1.495775590551181
 20
-0.213751968503937
 30
0.0
  0
ENDSEC
  0
SECTION
  2
OBJECTS
  0
DICTIONARY
  5
C
330
0
100
AcDbDictionary
  3
ACAD_GROUP
350
D
  3
ACAD_LAYOUT
350
1A
  3
ACAD_MLINESTYLE
350
17
  3
ACAD_PLOTSETTINGS
350
19
  3
ACDBHEADERROUNDTRIPXREC
350
64
  0
DICTIONARY
  5
84
330
29
100
AcDbDictionary
280
     1
  3
ACAD_XREC_ROUNDTRIP
360
85
  0
DICTIONARY
  5
D
102
{ACAD_REACTORS
330
C
102
}
330
C
100
AcDbDictionary
  0
DICTIONARY
  5
1A
102
{ACAD_REACTORS
330
C
102
}
330
C
100
AcDbDictionary
  0
DICTIONARY
  5
17
102
{ACAD_REACTORS
330
C
102
}
330
C
100
AcDbDictionary
  3
STANDARD
350
18
  0
DICTIONARY
  5
19
102
{ACAD_REACTORS
330
C
102
}
330
C
100
AcDbDictionary
  0
DICTIONARY
  5
64
102
{ACAD_REACTORS
330
C
102
}
330
C
100
AcDbDictionary
  3
CEPSNTYPE
350
6D
  3
DIMSTYLEDATA
350
83
  3
FINGERPRINTGUID
350
6E
  3
HYPERLINKBASE
350
67
  3
INSUNITS
350
6C
  3
LAYOUTDICT
350
69
  3
LWETCUNION
350
6B
  3
PLOTSETDICT
350
6A
  3
PSVPSCALE
350
70
  3
PUCSBASE
350
73
  3
PUCSORGBACK
350
79
  3
PUCSORGBOTTOM
350
75
  3
PUCSORGFRONT
350
78
  3
PUCSORGLEFT
350
76
  3
PUCSORGRIGHT
350
77
  3
PUCSORGTOP
350
74
  3
PUCSORTHOREF
350
71
  3
PUCSORTHOVIEW
350
72
  3
STYLESHEET
350
68
  3
TSTACKALIGN
350
65
  3
TSTACKSIZE
350
66
  3
UCSBASE
350
7C
  3
UCSORGBACK
350
82
  3
UCSORGBOTTOM
350
7E
  3
UCSORGFRONT
350
81
  3
UCSORGLEFT
350
7F
  3
UCSORGRIGHT
350
80
  3
UCSORGTOP
350
7D
  3
UCSORTHOREF
350
7A
  3
UCSORTHOVIEW
350
7B
  3
VERSIONGUID
350
6F
  0
XRECORD
  5
85
102
{ACAD_REACTORS
330
84
102
}
330
84
100
AcDbXrecord
102
UCS
 74
     0
 71
     1
 10
0.0
 20
0.0
 30
0.0
 10
1.0
 20
0.0
 30
0.0
 10
0.0
 20
1.0
 30
0.0
146
0.0
 79
     0
102
VIEW
281
     0
  0
MLINESTYLE
  5
18
102
{ACAD_REACTORS
330
17
102
}
330
17
100
AcDbMlineStyle
  2
Standard
 70
     0
  3

 62
   256
 51
90.0
 52
90.0
 71
     2
 49
0.5
 62
   256
  6
BYLAYER
 49
-0.5
 62
   256
  6
BYLAYER
  0
XRECORD
  5
6D
102
{ACAD_REACTORS
330
64
102
}
330
64
100
AcDbXrecord
 90
        0
  0
XRECORD
  5
83
102
{ACAD_REACTORS
330
64
102
}
330
64
100
AcDbXrecord
1000
DSTYLE
1002
{
1070
   340
340
11
1002
}
  0
XRECORD
  5
6E
102
{ACAD_REACTORS
330
64
102
}
330
64
100
AcDbXrecord
  1
{FAEB1C30-E019-11D5-929B-00C0DF256EC4}
  0
XRECORD
  5
67
102
{ACAD_REACTORS
330
64
102
}
330
64
100
AcDbXrecord
  1

  0
XRECORD
  5
6C
102
{ACAD_REACTORS
330
64
102
}
330
64
100
AcDbXrecord
 90
        1
  0
XRECORD
  5
69
102
{ACAD_REACTORS
330
64
102
}
330
64
100
AcDbXrecord
340
1A
  0
XRECORD
  5
6B
102
{ACAD_REACTORS
330
64
102
}
330
64
100
AcDbXrecord
 90
     2560
  0
XRECORD
  5
6A
102
{ACAD_REACTORS
330
64
102
}
330
64
100
AcDbXrecord
340
19
  0
XRECORD
  5
70
102
{ACAD_REACTORS
330
64
102
}
330
64
100
AcDbXrecord
 40
0.0
  0
XRECORD
  5
73
102
{ACAD_REACTORS
330
64
102
}
330
64
100
AcDbXrecord
340
0
  0
XRECORD
  5
79
102
{ACAD_REACTORS
330
64
102
}
330
64
100
AcDbXrecord
 10
0.0
 20
0.0
 30
0.0
  0
XRECORD
  5
75
102
{ACAD_REACTORS
330
64
102
}
330
64
100
AcDbXrecord
 10
0.0
 20
0.0
 30
0.0
  0
XRECORD
  5
78
102
{ACAD_REACTORS
330
64
102
}
330
64
100
AcDbXrecord
 10
0.0
 20
0.0
 30
0.0
  0
XRECORD
  5
76
102
{ACAD_REACTORS
330
64
102
}
330
64
100
AcDbXrecord
 10
0.0
 20
0.0
 30
0.0
  0
XRECORD
  5
77
102
{ACAD_REACTORS
330
64
102
}
330
64
100
AcDbXrecord
 10
0.0
 20
0.0
 30
0.0
  0
XRECORD
  5
74
102
{ACAD_REACTORS
330
64
102
}
330
64
100
AcDbXrecord
 10
0.0
 20
0.0
 30
0.0
  0
XRECORD
  5
71
102
{ACAD_REACTORS
330
64
102
}
330
64
100
AcDbXrecord
340
0
  0
XRECORD
  5
72
102
{ACAD_REACTORS
330
64
102
}
330
64
100
AcDbXrecord
 70
     0
  0
XRECORD
  5
68
102
{ACAD_REACTORS
330
64
102
}
330
64
100
AcDbXrecord
  1

  0
XRECORD
  5
65
102
{ACAD_REACTORS
330
64
102
}
330
64
100
AcDbXrecord
 90
        1
  0
XRECORD
  5
66
102
{ACAD_REACTORS
330
64
102
}
330
64
100
AcDbXrecord
 90
       70
  0
XRECORD
  5
7C
102
{ACAD_REACTORS
330
64
102
}
330
64
100
AcDbXrecord
340
0
  0
XRECORD
  5
82
102
{ACAD_REACTORS
330
64
102
}
330
64
100
AcDbXrecord
 10
0.0
 20
0.0
 30
0.0
  0
XRECORD
  5
7E
102
{ACAD_REACTORS
330
64
102
}
330
64
100
AcDbXrecord
 10
0.0
 20
0.0
 30
0.0
  0
XRECORD
  5
81
102
{ACAD_REACTORS
330
64
102
}
330
64
100
AcDbXrecord
 10
0.0
 20
0.0
 30
0.0
  0
XRECORD
  5
7F
102
{ACAD_REACTORS
330
64
102
}
330
64
100
AcDbXrecord
 10
0.0
 20
0.0
 30
0.0
  0
XRECORD
  5
80
102
{ACAD_REACTORS
330
64
102
}
330
64
100
AcDbXrecord
 10
0.0
 20
0.0
 30
0.0
  0
XRECORD
  5
7D
102
{ACAD_REACTORS
330
64
102
}
330
64
100
AcDbXrecord
 10
0.0
 20
0.0
 30
0.0
  0
XRECORD
  5
7A
102
{ACAD_REACTORS
330
64
102
}
330
64
100
AcDbXrecord
340
0
  0
XRECORD
  5
7B
102
{ACAD_REACTORS
330
64
102
}
330
64
100
AcDbXrecord
 70
     0
  0
XRECORD
  5
6F
102
{ACAD_REACTORS
330
64
102
}
330
64
100
AcDbXrecord
  1
{FAEB1C32-E019-11D5-929B-00C0DF256EC4}
  0
ENDSEC
  0
EOF
