  0
SECTION
  2
HEADER
  9
$ACADVER
  1
AC1014
  9
$ACADMAINTVER
 70
     9
  9
$DWGCODEPAGE
  3
ANSI_1252
  9
$INSBASE
 10
0.0
 20
0.0
 30
0.0
  9
$EXTMIN
 10
-1.222314960629921
 20
0.1633543307086614
 30
0.0
  9
$EXTMAX
 10
1.307736220472441
 20
3.88092125984252
 30
0.0
  9
$LIMMIN
 10
0.0
 20
0.0
  9
$LIMMAX
 10
12.0
 20
9.0
  9
$ORTHOMODE
 70
     0
  9
$REGENMODE
 70
     1
  9
$FILLMODE
 70
     1
  9
$QTEXTMODE
 70
     0
  9
$MIRRTEXT
 70
     1
  9
$DRAGMODE
 70
     2
  9
$LTSCALE
 40
1.0
  9
$OSMODE
 70
    37
  9
$ATTMODE
 70
     1
  9
$TEXTSIZE
 40
0.2
  9
$TRACEWID
 40
0.05
  9
$TEXTSTYLE
  7
STANDARD
  9
$CLAYER
  8
0
  9
$CELTYPE
  6
BYLAYER
  9
$CECOLOR
 62
   256
  9
$CELTSCALE
 40
1.0
  9
$DELOBJ
 70
     1
  9
$DISPSILH
 70
     0
  9
$DIMSCALE
 40
1.0
  9
$DIMASZ
 40
0.18
  9
$DIMEXO
 40
0.0625
  9
$DIMDLI
 40
0.38
  9
$DIMRND
 40
0.0
  9
$DIMDLE
 40
0.0
  9
$DIMEXE
 40
0.18
  9
$DIMTP
 40
0.0
  9
$DIMTM
 40
0.0
  9
$DIMTXT
 40
0.18
  9
$DIMCEN
 40
0.09
  9
$DIMTSZ
 40
0.0
  9
$DIMTOL
 70
     0
  9
$DIMLIM
 70
     0
  9
$DIMTIH
 70
     1
  9
$DIMTOH
 70
     1
  9
$DIMSE1
 70
     0
  9
$DIMSE2
 70
     0
  9
$DIMTAD
 70
     0
  9
$DIMZIN
 70
     0
  9
$DIMBLK
  1

  9
$DIMASO
 70
     1
  9
$DIMSHO
 70
     1
  9
$DIMPOST
  1

  9
$DIMAPOST
  1

  9
$DIMALT
 70
     0
  9
$DIMALTD
 70
     2
  9
$DIMALTF
 40
25.4
  9
$DIMLFAC
 40
1.0
  9
$DIMTOFL
 70
     0
  9
$DIMTVP
 40
0.0
  9
$DIMTIX
 70
     0
  9
$DIMSOXD
 70
     0
  9
$DIMSAH
 70
     0
  9
$DIMBLK1
  1

  9
$DIMBLK2
  1

  9
$DIMSTYLE
  2
STANDARD
  9
$DIMCLRD
 70
     0
  9
$DIMCLRE
 70
     0
  9
$DIMCLRT
 70
     0
  9
$DIMTFAC
 40
1.0
  9
$DIMGAP
 40
0.09
  9
$DIMJUST
 70
     0
  9
$DIMSD1
 70
     0
  9
$DIMSD2
 70
     0
  9
$DIMTOLJ
 70
     1
  9
$DIMTZIN
 70
     0
  9
$DIMALTZ
 70
     0
  9
$DIMALTTZ
 70
     0
  9
$DIMFIT
 70
     3
  9
$DIMUPT
 70
     0
  9
$DIMUNIT
 70
     2
  9
$DIMDEC
 70
     4
  9
$DIMTDEC
 70
     4
  9
$DIMALTU
 70
     2
  9
$DIMALTTD
 70
     2
  9
$DIMTXSTY
  7
STANDARD
  9
$DIMAUNIT
 70
     0
  9
$LUNITS
 70
     2
  9
$LUPREC
 70
     4
  9
$SKETCHINC
 40
0.1
  9
$FILLETRAD
 40
0.5
  9
$AUNITS
 70
     0
  9
$AUPREC
 70
     0
  9
$MENU
  1
.
  9
$ELEVATION
 40
0.0
  9
$PELEVATION
 40
0.0
  9
$THICKNESS
 40
0.0
  9
$LIMCHECK
 70
     0
  9
$CHAMFERA
 40
0.5
  9
$CHAMFERB
 40
0.5
  9
$CHAMFERC
 40
1.0
  9
$CHAMFERD
 40
0.0
  9
$SKPOLY
 70
     0
  9
$TDCREATE
 40
2454125.618635151
  9
$TDUPDATE
 40
2454125.618635162
  9
$TDINDWG
 40
0.0000000116
  9
$TDUSRTIMER
 40
0.0000000116
  9
$USRTIMER
 70
     1
  9
$ANGBASE
 50
0.0
  9
$ANGDIR
 70
     0
  9
$PDMODE
 70
     0
  9
$PDSIZE
 40
0.0
  9
$PLINEWID
 40
0.0
  9
$COORDS
 70
     1
  9
$SPLFRAME
 70
     0
  9
$SPLINETYPE
 70
     6
  9
$SPLINESEGS
 70
     8
  9
$ATTDIA
 70
     0
  9
$ATTREQ
 70
     1
  9
$HANDLING
 70
     1
  9
$HANDSEED
  5
D2
  9
$SURFTAB1
 70
     6
  9
$SURFTAB2
 70
     6
  9
$SURFTYPE
 70
     6
  9
$SURFU
 70
     6
  9
$SURFV
 70
     6
  9
$UCSNAME
  2

  9
$UCSORG
 10
0.0
 20
0.0
 30
0.0
  9
$UCSXDIR
 10
1.0
 20
0.0
 30
0.0
  9
$UCSYDIR
 10
0.0
 20
1.0
 30
0.0
  9
$PUCSNAME
  2

  9
$PUCSORG
 10
0.0
 20
0.0
 30
0.0
  9
$PUCSXDIR
 10
1.0
 20
0.0
 30
0.0
  9
$PUCSYDIR
 10
0.0
 20
1.0
 30
0.0
  9
$USERI1
 70
     0
  9
$USERI2
 70
     0
  9
$USERI3
 70
     0
  9
$USERI4
 70
     0
  9
$USERI5
 70
     0
  9
$USERR1
 40
0.0
  9
$USERR2
 40
0.0
  9
$USERR3
 40
0.0
  9
$USERR4
 40
0.0
  9
$USERR5
 40
0.0
  9
$WORLDVIEW
 70
     1
  9
$SHADEDGE
 70
     3
  9
$SHADEDIF
 70
    70
  9
$TILEMODE
 70
     1
  9
$MAXACTVP
 70
    64
  9
$PINSBASE
 10
0.0
 20
0.0
 30
0.0
  9
$PLIMCHECK
 70
     0
  9
$PEXTMIN
 10
1.000000000000000E+20
 20
1.000000000000000E+20
 30
1.000000000000000E+20
  9
$PEXTMAX
 10
-1.000000000000000E+20
 20
-1.000000000000000E+20
 30
-1.000000000000000E+20
  9
$PLIMMIN
 10
0.0
 20
0.0
  9
$PLIMMAX
 10
12.0
 20
9.0
  9
$UNITMODE
 70
     0
  9
$VISRETAIN
 70
     1
  9
$PLINEGEN
 70
     0
  9
$PSLTSCALE
 70
     1
  9
$TREEDEPTH
 70
  3020
  9
$PICKSTYLE
 70
     1
  9
$CMLSTYLE
  2
STANDARD
  9
$CMLJUST
 70
     0
  9
$CMLSCALE
 40
1.0
  9
$PROXYGRAPHICS
 70
     1
  9
$MEASUREMENT
 70
     0
  0
ENDSEC
  0
SECTION
  2
CLASSES
  0
CLASS
  1
ACDBDICTIONARYWDFLT
  2
AcDbDictionaryWithDefault
  3
ObjectDBX Classes
 90
        0
280
     0
281
     0
  0
CLASS
  1
XRECORD
  2
AcDbXrecord
  3
AutoCAD 2000
 90
        0
280
     0
281
     0
  0
CLASS
  1
LWPOLYLINE
  2
AcDbPolyline
  3
AutoCAD 2000
 90
        0
280
     0
281
     1
  0
CLASS
  1
HATCH
  2
AcDbHatch
  3
AutoCAD 2000
 90
        0
280
     0
281
     1
  0
CLASS
  1
ACDBPLACEHOLDER
  2
AcDbPlaceHolder
  3
ObjectDBX Classes
 90
        0
280
     0
281
     0
  0
CLASS
  1
LAYOUT
  2
AcDbLayout
  3
ObjectDBX Classes
 90
        0
280
     0
281
     0
  0
ENDSEC
  0
SECTION
  2
TABLES
  0
TABLE
  2
VPORT
  5
8
330
0
100
AcDbSymbolTable
 70
     2
  0
VPORT
  5
29
102
{ACAD_XDICTIONARY
360
D0
102
}
330
8
100
AcDbSymbolTableRecord
100
AcDbViewportTableRecord
  2
*ACTIVE
 70
     0
 10
0.0
 20
0.0
 11
1.0
 21
1.0
 12
10.42990654205607
 22
4.5
 13
0.0
 23
0.0
 14
0.5
 24
0.5
 15
0.5
 25
0.5
 16
0.0
 26
0.0
 36
1.0
 17
0.0
 27
0.0
 37
0.0
 40
9.0
 41
1.972972972850329
 42
50.0
 43
0.0
 44
0.0
 50
0.0
 51
0.0
 71
     0
 72
   100
 73
     1
 74
     3
 75
     0
 76
     0
 77
     0
 78
     0
  0
ENDTAB
  0
TABLE
  2
LTYPE
  5
5
330
0
100
AcDbSymbolTable
 70
     1
  0
LTYPE
  5
14
330
5
100
AcDbSymbolTableRecord
100
AcDbLinetypeTableRecord
  2
BYBLOCK
 70
     0
  3

 72
    65
 73
     0
 40
0.0
  0
LTYPE
  5
15
330
5
100
AcDbSymbolTableRecord
100
AcDbLinetypeTableRecord
  2
BYLAYER
 70
     0
  3

 72
    65
 73
     0
 40
0.0
  0
LTYPE
  5
16
330
5
100
AcDbSymbolTableRecord
100
AcDbLinetypeTableRecord
  2
CONTINUOUS
 70
     0
  3
Solid line
 72
    65
 73
     0
 40
0.0
  0
ENDTAB
  0
TABLE
  2
LAYER
  5
2
330
0
100
AcDbSymbolTable
 70
     2
  0
LAYER
  5
10
330
2
100
AcDbSymbolTableRecord
100
AcDbLayerTableRecord
  2
0
 70
     0
 62
     7
  6
CONTINUOUS
  0
LAYER
  5
2B
330
2
100
AcDbSymbolTableRecord
100
AcDbLayerTableRecord
  2
LAYER_1
 70
     0
 62
     7
  6
CONTINUOUS
  0
ENDTAB
  0
TABLE
  2
STYLE
  5
3
330
0
100
AcDbSymbolTable
 70
     1
  0
STYLE
  5
11
330
3
100
AcDbSymbolTableRecord
100
AcDbTextStyleTableRecord
  2
STANDARD
 70
     0
 40
0.0
 41
1.0
 50
0.0
 71
     0
 42
0.2
  3
txt
  4

  0
ENDTAB
  0
TABLE
  2
VIEW
  5
6
330
0
100
AcDbSymbolTable
 70
     0
  0
ENDTAB
  0
TABLE
  2
UCS
  5
7
330
0
100
AcDbSymbolTable
 70
     0
  0
ENDTAB
  0
TABLE
  2
APPID
  5
9
330
0
100
AcDbSymbolTable
 70
     2
  0
APPID
  5
12
330
9
100
AcDbSymbolTableRecord
100
AcDbRegAppTableRecord
  2
ACAD
 70
     0
  0
APPID
  5
2A
330
9
100
AcDbSymbolTableRecord
100
AcDbRegAppTableRecord
  2
ODA
 70
     0
  0
ENDTAB
  0
TABLE
  2
DIMSTYLE
  5
A
330
0
100
AcDbSymbolTable
 70
     1
  0
DIMSTYLE
105
27
330
A
100
AcDbSymbolTableRecord
100
AcDbDimStyleTableRecord
  2
STANDARD
 70
     0
  3

  4

  5

  6

  7

 40
1.0
 41
0.18
 42
0.0625
 43
0.38
 44
0.18
 45
0.0
 46
0.0
 47
0.0
 48
0.0
140
0.18
141
0.09
142
0.0
143
25.4
144
1.0
145
0.0
146
1.0
147
0.09
 71
     0
 72
     0
 73
     1
 74
     1
 75
     0
 76
     0
 77
     0
 78
     0
170
     0
171
     2
172
     0
173
     0
174
     0
175
     0
176
     0
177
     0
178
     0
270
     2
271
     4
272
     4
273
     2
274
     2
340
11
275
     0
280
     0
281
     0
282
     0
283
     1
284
     0
285
     0
286
     0
287
     3
288
     0
  0
ENDTAB
  0
TABLE
  2
BLOCK_RECORD
  5
1
330
0
100
AcDbSymbolTable
 70
     1
  0
BLOCK_RECORD
  5
1F
330
1
100
AcDbSymbolTableRecord
100
AcDbBlockTableRecord
  2
*MODEL_SPACE
  0
BLOCK_RECORD
  5
1B
330
1
100
AcDbSymbolTableRecord
100
AcDbBlockTableRecord
  2
*PAPER_SPACE
  0
ENDTAB
  0
ENDSEC
  0
SECTION
  2
BLOCKS
  0
BLOCK
  5
20
330
1F
100
AcDbEntity
  8
0
100
AcDbBlockBegin
  2
*MODEL_SPACE
 70
     0
 71
     0
 10
0.0
 20
0.0
 30
0.0
  3
*MODEL_SPACE
  1

  0
ENDBLK
  5
21
330
1F
100
AcDbEntity
  8
0
100
AcDbBlockEnd
  0
BLOCK
  5
1C
330
1B
100
AcDbEntity
 67
     1
  8
0
100
AcDbBlockBegin
  2
*PAPER_SPACE
 70
     0
 71
     0
 10
0.0
 20
0.0
 30
0.0
  3
*PAPER_SPACE
  1

  0
ENDBLK
  5
1D
330
1B
100
AcDbEntity
 67
     1
  8
0
100
AcDbBlockEnd
  0
ENDSEC
  0
SECTION
  2
ENTITIES
  0
SPLINE
  5
2C
330
1F
100
AcDbEntity
  8
LAYER_1
 62
   250
100
AcDbSpline
210
0.0
220
0.0
230
1.0
 70
    11
 71
     3
 72
    16
 73
    12
 74
     0
 42
0.0000000001
 43
0.0000000001
 40
0.0
 40
0.0
 40
0.0
 40
0.0
 40
0.3333333333333333
 40
0.3333333333333333
 40
0.3333333333333333
 40
0.3333333333333333
 40
0.6666666666666666
 40
0.6666666666666666
 40
0.6666666666666666
 40
0.6666666666666666
 40
1.0
 40
1.0
 40
1.0
 40
1.0
 10
0.6709251968503938
 20
0.5934763779527559
 30
0.0
 10
0.6709251968503938
 20
0.5934763779527559
 30
0.0
 10
-1.20407874015748
 20
0.5934763779527559
 30
0.0
 10
-1.20407874015748
 20
0.5934763779527559
 30
0.0
 10
-1.20407874015748
 20
0.5934763779527559
 30
0.0
 10
-1.20407874015748
 20
1.111153543307087
 30
0.0
 10
-0.7842598425196851
 20
1.530972440944882
 30
0.0
 10
-0.2665787401574803
 20
1.530972440944882
 30
0.0
 10
-0.2665787401574803
 20
1.530972440944882
 30
0.0
 10
0.2511023622047244
 20
1.530972440944882
 30
0.0
 10
0.6709251968503938
 20
1.111153543307087
 30
0.0
 10
0.6709251968503938
 20
0.5934763779527559
 30
0.0
  0
SPLINE
  5
2D
330
1F
100
AcDbEntity
  8
LAYER_1
 62
   250
100
AcDbSpline
210
0.0
220
0.0
230
1.0
 70
    11
 71
     3
 72
   104
 73
   100
 74
     0
 42
0.0000000001
 43
0.0000000001
 40
0.0
 40
0.0
 40
0.0
 40
0.0
 40
0.04
 40
0.04
 40
0.04
 40
0.04
 40
0.08
 40
0.08
 40
0.08
 40
0.08
 40
0.12
 40
0.12
 40
0.12
 40
0.12
 40
0.16
 40
0.16
 40
0.16
 40
0.16
 40
0.2
 40
0.2
 40
0.2
 40
0.2
 40
0.24
 40
0.24
 40
0.24
 40
0.24
 40
0.28
 40
0.28
 40
0.28
 40
0.28
 40
0.32
 40
0.32
 40
0.32
 40
0.32
 40
0.36
 40
0.36
 40
0.36
 40
0.36
 40
0.4
 40
0.4
 40
0.4
 40
0.4
 40
0.44
 40
0.44
 40
0.44
 40
0.44
 40
0.4799999999999999
 40
0.4799999999999999
 40
0.4799999999999999
 40
0.4799999999999999
 40
0.5199999999999999
 40
0.5199999999999999
 40
0.5199999999999999
 40
0.5199999999999999
 40
0.5599999999999999
 40
0.5599999999999999
 40
0.5599999999999999
 40
0.5599999999999999
 40
0.6
 40
0.6
 40
0.6
 40
0.6
 40
0.64
 40
0.64
 40
0.64
 40
0.64
 40
0.6800000000000001
 40
0.6800000000000001
 40
0.6800000000000001
 40
0.6800000000000001
 40
0.7200000000000001
 40
0.7200000000000001
 40
0.7200000000000001
 40
0.7200000000000001
 40
0.7600000000000001
 40
0.7600000000000001
 40
0.7600000000000001
 40
0.7600000000000001
 40
0.8000000000000002
 40
0.8000000000000002
 40
0.8000000000000002
 40
0.8000000000000002
 40
0.8400000000000002
 40
0.8400000000000002
 40
0.8400000000000002
 40
0.8400000000000002
 40
0.8800000000000002
 40
0.8800000000000002
 40
0.8800000000000002
 40
0.8800000000000002
 40
0.9200000000000003
 40
0.9200000000000003
 40
0.9200000000000003
 40
0.9200000000000003
 40
0.9600000000000003
 40
0.9600000000000003
 40
0.9600000000000003
 40
0.9600000000000003
 40
1.0
 40
1.0
 40
1.0
 40
1.0
 10
-0.5834370078740158
 20
0.5006889763779527
 30
0.0
 10
-0.5834370078740158
 20
0.5006889763779527
 30
0.0
 10
-0.5294645669291339
 20
0.5006889763779527
 30
0.0
 10
-0.5294645669291339
 20
0.5006889763779527
 30
0.0
 10
-0.5294645669291339
 20
0.5006889763779527
 30
0.0
 10
-0.5162952755905512
 20
0.5006889763779527
 30
0.0
 10
-0.5072677165354331
 20
0.5000787401574803
 30
0.0
 10
-0.5023818897637795
 20
0.4988818897637796
 30
0.0
 10
-0.5023818897637795
 20
0.4988818897637796
 30
0.0
 10
-0.4951574803149607
 20
0.4971614173228346
 30
0.0
 10
-0.4894645669291339
 20
0.4940236220472441
 30
0.0
 10
-0.485240157480315
 20
0.4894645669291339
 30
0.0
 10
-0.485240157480315
 20
0.4894645669291339
 30
0.0
 10
-0.4810472440944882
 20
0.4849094488188976
 30
0.0
 10
-0.4789370078740158
 20
0.4794094488188976
 30
0.0
 10
-0.4789370078740158
 20
0.4730236220472441
 30
0.0
 10
-0.4789370078740158
 20
0.4730236220472441
 30
0.0
 10
-0.4789370078740158
 20
0.4684094488188977
 30
0.0
 10
-0.4800472440944882
 20
0.4642716535433071
 30
0.0
 10
-0.4822677165354331
 20
0.4606062992125984
 30
0.0
 10
-0.4822677165354331
 20
0.4606062992125984
 30
0.0
 10
-0.484492125984252
 20
0.4569370078740158
 30
0.0
 10
-0.487740157480315
 20
0.4537992125984252
 30
0.0
 10
-0.4919645669291339
 20
0.4512165354330709
 30
0.0
 10
-0.4919645669291339
 20
0.4512165354330709
 30
0.0
 10
-0.4946850393700787
 20
0.4495236220472441
 30
0.0
 10
-0.4983543307086614
 20
0.4480787401574803
 30
0.0
 10
-0.5030196850393701
 20
0.4468818897637796
 30
0.0
 10
-0.5030196850393701
 20
0.4468818897637796
 30
0.0
 10
-0.4971023622047244
 20
0.4457992125984252
 30
0.0
 10
-0.4926023622047244
 20
0.444496062992126
 30
0.0
 10
-0.4895196850393701
 20
0.442996062992126
 30
0.0
 10
-0.4895196850393701
 20
0.442996062992126
 30
0.0
 10
-0.4848543307086615
 20
0.4407165354330709
 30
0.0
 10
-0.4811574803149606
 20
0.4374685039370079
 30
0.0
 10
-0.4784645669291339
 20
0.4332165354330709
 30
0.0
 10
-0.4784645669291339
 20
0.4332165354330709
 30
0.0
 10
-0.475740157480315
 20
0.428996062992126
 30
0.0
 10
-0.4743818897637795
 20
0.4242165354330709
 30
0.0
 10
-0.4743818897637795
 20
0.4189094488188976
 30
0.0
 10
-0.4743818897637795
 20
0.4189094488188976
 30
0.0
 10
-0.4743818897637795
 20
0.413744094488189
 30
0.0
 10
-0.4757125984251969
 20
0.4089685039370079
 30
0.0
 10
-0.4783818897637795
 20
0.4045787401574804
 30
0.0
 10
-0.4783818897637795
 20
0.4045787401574804
 30
0.0
 10
-0.4810196850393701
 20
0.4001889763779528
 30
0.0
 10
-0.4847952755905512
 20
0.3965787401574804
 30
0.0
 10
-0.4896299212598426
 20
0.393744094488189
 30
0.0
 10
-0.4896299212598426
 20
0.393744094488189
 30
0.0
 10
-0.494492125984252
 20
0.3909409448818898
 30
0.0
 10
-0.5001574803149607
 20
0.3891338582677166
 30
0.0
 10
-0.5066023622047244
 20
0.3883267716535434
 30
0.0
 10
-0.5066023622047244
 20
0.3883267716535434
 30
0.0
 10
-0.5130748031496063
 20
0.3875511811023622
 30
0.0
 10
-0.5197125984251969
 20
0.3871614173228347
 30
0.0
 10
-0.5265472440944882
 20
0.3871614173228347
 30
0.0
 10
-0.5265472440944882
 20
0.3871614173228347
 30
0.0
 10
-0.5265472440944882
 20
0.3871614173228347
 30
0.0
 10
-0.5834370078740158
 20
0.3871614173228347
 30
0.0
 10
-0.5834370078740158
 20
0.3871614173228347
 30
0.0
 10
-0.5834370078740158
 20
0.3871614173228347
 30
0.0
 10
-0.5834370078740158
 20
0.3871614173228347
 30
0.0
 10
-0.5834370078740158
 20
0.393996062992126
 30
0.0
 10
-0.5834370078740158
 20
0.393996062992126
 30
0.0
 10
-0.5834370078740158
 20
0.393996062992126
 30
0.0
 10
-0.5834370078740158
 20
0.393996062992126
 30
0.0
 10
-0.5796023622047244
 20
0.393996062992126
 30
0.0
 10
-0.5796023622047244
 20
0.393996062992126
 30
0.0
 10
-0.5796023622047244
 20
0.393996062992126
 30
0.0
 10
-0.5759055118110237
 20
0.393996062992126
 30
0.0
 10
-0.5734055118110236
 20
0.3945787401574804
 30
0.0
 10
-0.5720472440944883
 20
0.3957165354330709
 30
0.0
 10
-0.5720472440944883
 20
0.3957165354330709
 30
0.0
 10
-0.5700748031496064
 20
0.3972716535433071
 30
0.0
 10
-0.5691023622047244
 20
0.3998818897637795
 30
0.0
 10
-0.5691023622047244
 20
0.4035236220472441
 30
0.0
 10
-0.5691023622047244
 20
0.4035236220472441
 30
0.0
 10
-0.5691023622047244
 20
0.4035236220472441
 30
0.0
 10
-0.5691023622047244
 20
0.4823818897637796
 30
0.0
 10
-0.5691023622047244
 20
0.4823818897637796
 30
0.0
 10
-0.5691023622047244
 20
0.4823818897637796
 30
0.0
 10
-0.5691023622047244
 20
0.4860787401574803
 30
0.0
 10
-0.5694055118110236
 20
0.4885787401574803
 30
0.0
 10
-0.569992125984252
 20
0.4899370078740158
 30
0.0
 10
-0.569992125984252
 20
0.4899370078740158
 30
0.0
 10
-0.5706023622047244
 20
0.4912992125984252
 30
0.0
 10
-0.571492125984252
 20
0.4922716535433071
 30
0.0
 10
-0.5726850393700788
 20
0.4928818897637796
 30
0.0
 10
-0.5726850393700788
 20
0.4928818897637796
 30
0.0
 10
-0.5738779527559056
 20
0.4934645669291339
 30
0.0
 10
-0.5761850393700788
 20
0.4937716535433071
 30
0.0
 10
-0.5796023622047244
 20
0.4937716535433071
 30
0.0
 10
-0.5796023622047244
 20
0.4937716535433071
 30
0.0
 10
-0.5796023622047244
 20
0.4937716535433071
 30
0.0
 10
-0.5834370078740158
 20
0.4937716535433071
 30
0.0
 10
-0.5834370078740158
 20
0.4937716535433071
 30
0.0
 10
-0.5834370078740158
 20
0.4937716535433071
 30
0.0
 10
-0.5834370078740158
 20
0.4937716535433071
 30
0.0
 10
-0.5834370078740158
 20
0.5006889763779527
 30
0.0
 10
-0.5834370078740158
 20
0.5006889763779527
 30
0.0
  0
SPLINE
  5
2E
330
1F
100
AcDbEntity
  8
LAYER_1
 62
   250
100
AcDbSpline
210
0.0
220
0.0
230
1.0
 70
    11
 71
     3
 72
    40
 73
    36
 74
     0
 42
0.0000000001
 43
0.0000000001
 40
0.0
 40
0.0
 40
0.0
 40
0.0
 40
0.1111111111111111
 40
0.1111111111111111
 40
0.1111111111111111
 40
0.1111111111111111
 40
0.2222222222222222
 40
0.2222222222222222
 40
0.2222222222222222
 40
0.2222222222222222
 40
0.3333333333333333
 40
0.3333333333333333
 40
0.3333333333333333
 40
0.3333333333333333
 40
0.4444444444444444
 40
0.4444444444444444
 40
0.4444444444444444
 40
0.4444444444444444
 40
0.5555555555555556
 40
0.5555555555555556
 40
0.5555555555555556
 40
0.5555555555555556
 40
0.6666666666666667
 40
0.6666666666666667
 40
0.6666666666666667
 40
0.6666666666666667
 40
0.7777777777777779
 40
0.7777777777777779
 40
0.7777777777777779
 40
0.7777777777777779
 40
0.8888888888888891
 40
0.8888888888888891
 40
0.8888888888888891
 40
0.8888888888888891
 40
1.0
 40
1.0
 40
1.0
 40
1.0
 10
-0.5538779527559056
 20
0.4916614173228346
 30
0.0
 10
-0.5538779527559056
 20
0.4916614173228346
 30
0.0
 10
-0.5538779527559056
 20
0.4500787401574803
 30
0.0
 10
-0.5538779527559056
 20
0.4500787401574803
 30
0.0
 10
-0.5538779527559056
 20
0.4500787401574803
 30
0.0
 10
-0.5538779527559056
 20
0.4500787401574803
 30
0.0
 10
-0.5331299212598425
 20
0.4500787401574803
 30
0.0
 10
-0.5331299212598425
 20
0.4500787401574803
 30
0.0
 10
-0.5331299212598425
 20
0.4500787401574803
 30
0.0
 10
-0.5234370078740158
 20
0.4500787401574803
 30
0.0
 10
-0.5167677165354331
 20
0.4505236220472441
 30
0.0
 10
-0.5132125984251968
 20
0.4514370078740158
 30
0.0
 10
-0.5132125984251968
 20
0.4514370078740158
 30
0.0
 10
-0.5076023622047244
 20
0.4529094488188977
 30
0.0
 10
-0.5033543307086614
 20
0.4554094488188977
 30
0.0
 10
-0.5003818897637795
 20
0.4589370078740158
 30
0.0
 10
-0.5003818897637795
 20
0.4589370078740158
 30
0.0
 10
-0.4974370078740158
 20
0.4624645669291339
 30
0.0
 10
-0.4959370078740158
 20
0.466996062992126
 30
0.0
 10
-0.4959370078740158
 20
0.4725236220472441
 30
0.0
 10
-0.4959370078740158
 20
0.4725236220472441
 30
0.0
 10
-0.4959370078740158
 20
0.4771889763779528
 30
0.0
 10
-0.4972952755905512
 20
0.4810787401574803
 30
0.0
 10
-0.4999645669291339
 20
0.4842165354330709
 30
0.0
 10
-0.4999645669291339
 20
0.4842165354330709
 30
0.0
 10
-0.5026574803149606
 20
0.4873267716535433
 30
0.0
 10
-0.5062677165354331
 20
0.4894645669291339
 30
0.0
 10
-0.5107677165354331
 20
0.4906062992125985
 30
0.0
 10
-0.5107677165354331
 20
0.4906062992125985
 30
0.0
 10
-0.5136850393700788
 20
0.4912992125984252
 30
0.0
 10
-0.5197677165354331
 20
0.4916614173228346
 30
0.0
 10
-0.5289921259842519
 20
0.4916614173228346
 30
0.0
 10
-0.5289921259842519
 20
0.4916614173228346
 30
0.0
 10
-0.5289921259842519
 20
0.4916614173228346
 30
0.0
 10
-0.5538779527559056
 20
0.4916614173228346
 30
0.0
 10
-0.5538779527559056
 20
0.4916614173228346
 30
0.0
  0
SPLINE
  5
2F
330
1F
100
AcDbEntity
  8
LAYER_1
 62
   250
100
AcDbSpline
210
0.0
220
0.0
230
1.0
 70
    11
 71
     3
 72
    52
 73
    48
 74
     0
 42
0.0000000001
 43
0.0000000001
 40
0.0
 40
0.0
 40
0.0
 40
0.0
 40
0.0833333333333333
 40
0.0833333333333333
 40
0.0833333333333333
 40
0.0833333333333333
 40
0.1666666666666667
 40
0.1666666666666667
 40
0.1666666666666667
 40
0.1666666666666667
 40
0.25
 40
0.25
 40
0.25
 40
0.25
 40
0.3333333333333333
 40
0.3333333333333333
 40
0.3333333333333333
 40
0.3333333333333333
 40
0.4166666666666666
 40
0.4166666666666666
 40
0.4166666666666666
 40
0.4166666666666666
 40
0.4999999999999999
 40
0.4999999999999999
 40
0.4999999999999999
 40
0.4999999999999999
 40
0.5833333333333333
 40
0.5833333333333333
 40
0.5833333333333333
 40
0.5833333333333333
 40
0.6666666666666666
 40
0.6666666666666666
 40
0.6666666666666666
 40
0.6666666666666666
 40
0.75
 40
0.75
 40
0.75
 40
0.75
 40
0.8333333333333334
 40
0.8333333333333334
 40
0.8333333333333334
 40
0.8333333333333334
 40
0.9166666666666667
 40
0.9166666666666667
 40
0.9166666666666667
 40
0.9166666666666667
 40
1.0
 40
1.0
 40
1.0
 40
1.0
 10
-0.5538779527559056
 20
0.442244094488189
 30
0.0
 10
-0.5538779527559056
 20
0.442244094488189
 30
0.0
 10
-0.5538779527559056
 20
0.404996062992126
 30
0.0
 10
-0.5538779527559056
 20
0.404996062992126
 30
0.0
 10
-0.5538779527559056
 20
0.404996062992126
 30
0.0
 10
-0.5538779527559056
 20
0.401244094488189
 30
0.0
 10
-0.5537125984251968
 20
0.3990236220472441
 30
0.0
 10
-0.5534094488188976
 20
0.3982992125984252
 30
0.0
 10
-0.5534094488188976
 20
0.3982992125984252
 30
0.0
 10
-0.5529645669291339
 20
0.3973267716535433
 30
0.0
 10
-0.5521023622047244
 20
0.3966614173228347
 30
0.0
 10
-0.5507952755905512
 20
0.3962716535433071
 30
0.0
 10
-0.5507952755905512
 20
0.3962716535433071
 30
0.0
 10
-0.5498779527559056
 20
0.395996062992126
 30
0.0
 10
-0.5472677165354331
 20
0.3958543307086614
 30
0.0
 10
-0.542992125984252
 20
0.3958543307086614
 30
0.0
 10
-0.542992125984252
 20
0.3958543307086614
 30
0.0
 10
-0.542992125984252
 20
0.3958543307086614
 30
0.0
 10
-0.5319094488188977
 20
0.3958543307086614
 30
0.0
 10
-0.5319094488188977
 20
0.3958543307086614
 30
0.0
 10
-0.5319094488188977
 20
0.3958543307086614
 30
0.0
 10
-0.5209645669291338
 20
0.3958543307086614
 30
0.0
 10
-0.5131299212598426
 20
0.3964685039370079
 30
0.0
 10
-0.5084370078740158
 20
0.3976889763779528
 30
0.0
 10
-0.5084370078740158
 20
0.3976889763779528
 30
0.0
 10
-0.503740157480315
 20
0.3989094488188977
 30
0.0
 10
-0.499740157480315
 20
0.401496062992126
 30
0.0
 10
-0.4964370078740158
 20
0.4054409448818898
 30
0.0
 10
-0.4964370078740158
 20
0.4054409448818898
 30
0.0
 10
-0.4931299212598426
 20
0.4093543307086615
 30
0.0
 10
-0.4914645669291339
 20
0.4141062992125985
 30
0.0
 10
-0.4914645669291339
 20
0.4196338582677165
 30
0.0
 10
-0.4914645669291339
 20
0.4196338582677165
 30
0.0
 10
-0.4914645669291339
 20
0.4242992125984252
 30
0.0
 10
-0.4928228346456693
 20
0.4284370078740158
 30
0.0
 10
-0.495492125984252
 20
0.4320511811023622
 30
0.0
 10
-0.495492125984252
 20
0.4320511811023622
 30
0.0
 10
-0.4981850393700787
 20
0.4356614173228346
 30
0.0
 10
-0.5019094488188977
 20
0.438244094488189
 30
0.0
 10
-0.5066574803149606
 20
0.4398543307086614
 30
0.0
 10
-0.5066574803149606
 20
0.4398543307086614
 30
0.0
 10
-0.5114094488188976
 20
0.4414685039370079
 30
0.0
 10
-0.5198228346456694
 20
0.442244094488189
 30
0.0
 10
-0.5319094488188977
 20
0.442244094488189
 30
0.0
 10
-0.5319094488188977
 20
0.442244094488189
 30
0.0
 10
-0.5319094488188977
 20
0.442244094488189
 30
0.0
 10
-0.5538779527559056
 20
0.442244094488189
 30
0.0
 10
-0.5538779527559056
 20
0.442244094488189
 30
0.0
  0
SPLINE
  5
30
330
1F
100
AcDbEntity
  8
LAYER_1
 62
   250
100
AcDbSpline
210
0.0
220
0.0
230
1.0
 70
    11
 71
     3
 72
   112
 73
   108
 74
     0
 42
0.0000000001
 43
0.0000000001
 40
0.0
 40
0.0
 40
0.0
 40
0.0
 40
0.037037037037037
 40
0.037037037037037
 40
0.037037037037037
 40
0.037037037037037
 40
0.0740740740740741
 40
0.0740740740740741
 40
0.0740740740740741
 40
0.0740740740740741
 40
0.1111111111111111
 40
0.1111111111111111
 40
0.1111111111111111
 40
0.1111111111111111
 40
0.1481481481481481
 40
0.1481481481481481
 40
0.1481481481481481
 40
0.1481481481481481
 40
0.1851851851851852
 40
0.1851851851851852
 40
0.1851851851851852
 40
0.1851851851851852
 40
0.2222222222222222
 40
0.2222222222222222
 40
0.2222222222222222
 40
0.2222222222222222
 40
0.2592592592592592
 40
0.2592592592592592
 40
0.2592592592592592
 40
0.2592592592592592
 40
0.2962962962962963
 40
0.2962962962962963
 40
0.2962962962962963
 40
0.2962962962962963
 40
0.3333333333333333
 40
0.3333333333333333
 40
0.3333333333333333
 40
0.3333333333333333
 40
0.3703703703703704
 40
0.3703703703703704
 40
0.3703703703703704
 40
0.3703703703703704
 40
0.4074074074074074
 40
0.4074074074074074
 40
0.4074074074074074
 40
0.4074074074074074
 40
0.4444444444444444
 40
0.4444444444444444
 40
0.4444444444444444
 40
0.4444444444444444
 40
0.4814814814814815
 40
0.4814814814814815
 40
0.4814814814814815
 40
0.4814814814814815
 40
0.5185185185185185
 40
0.5185185185185185
 40
0.5185185185185185
 40
0.5185185185185185
 40
0.5555555555555556
 40
0.5555555555555556
 40
0.5555555555555556
 40
0.5555555555555556
 40
0.5925925925925926
 40
0.5925925925925926
 40
0.5925925925925926
 40
0.5925925925925926
 40
0.6296296296296295
 40
0.6296296296296295
 40
0.6296296296296295
 40
0.6296296296296295
 40
0.6666666666666665
 40
0.6666666666666665
 40
0.6666666666666665
 40
0.6666666666666665
 40
0.7037037037037035
 40
0.7037037037037035
 40
0.7037037037037035
 40
0.7037037037037035
 40
0.7407407407407405
 40
0.7407407407407405
 40
0.7407407407407405
 40
0.7407407407407405
 40
0.7777777777777775
 40
0.7777777777777775
 40
0.7777777777777775
 40
0.7777777777777775
 40
0.8148148148148144
 40
0.8148148148148144
 40
0.8148148148148144
 40
0.8148148148148144
 40
0.8518518518518514
 40
0.8518518518518514
 40
0.8518518518518514
 40
0.8518518518518514
 40
0.8888888888888884
 40
0.8888888888888884
 40
0.8888888888888884
 40
0.8888888888888884
 40
0.9259259259259254
 40
0.9259259259259254
 40
0.9259259259259254
 40
0.9259259259259254
 40
0.9629629629629624
 40
0.9629629629629624
 40
0.9629629629629624
 40
0.9629629629629624
 40
1.0
 40
1.0
 40
1.0
 40
1.0
 10
-0.4167716535433071
 20
0.5006889763779527
 30
0.0
 10
-0.4167716535433071
 20
0.5006889763779527
 30
0.0
 10
-0.4033543307086615
 20
0.5006889763779527
 30
0.0
 10
-0.4033543307086615
 20
0.5006889763779527
 30
0.0
 10
-0.4033543307086615
 20
0.5006889763779527
 30
0.0
 10
-0.4033543307086615
 20
0.5006889763779527
 30
0.0
 10
-0.3681062992125985
 20
0.4057992125984252
 30
0.0
 10
-0.3681062992125985
 20
0.4057992125984252
 30
0.0
 10
-0.3681062992125985
 20
0.4057992125984252
 30
0.0
 10
-0.3663818897637796
 20
0.4010236220472441
 30
0.0
 10
-0.3646338582677166
 20
0.3978543307086614
 30
0.0
 10
-0.3628543307086614
 20
0.3963267716535433
 30
0.0
 10
-0.3628543307086614
 20
0.3963267716535433
 30
0.0
 10
-0.3611062992125985
 20
0.3947716535433071
 30
0.0
 10
-0.3587165354330709
 20
0.393996062992126
 30
0.0
 10
-0.355744094488189
 20
0.393996062992126
 30
0.0
 10
-0.355744094488189
 20
0.393996062992126
 30
0.0
 10
-0.355744094488189
 20
0.393996062992126
 30
0.0
 10
-0.3539645669291339
 20
0.393996062992126
 30
0.0
 10
-0.3539645669291339
 20
0.393996062992126
 30
0.0
 10
-0.3539645669291339
 20
0.393996062992126
 30
0.0
 10
-0.3539645669291339
 20
0.393996062992126
 30
0.0
 10
-0.3539645669291339
 20
0.3871614173228347
 30
0.0
 10
-0.3539645669291339
 20
0.3871614173228347
 30
0.0
 10
-0.3539645669291339
 20
0.3871614173228347
 30
0.0
 10
-0.3539645669291339
 20
0.3871614173228347
 30
0.0
 10
-0.3944094488188977
 20
0.3871614173228347
 30
0.0
 10
-0.3944094488188977
 20
0.3871614173228347
 30
0.0
 10
-0.3944094488188977
 20
0.3871614173228347
 30
0.0
 10
-0.3944094488188977
 20
0.3871614173228347
 30
0.0
 10
-0.3944094488188977
 20
0.393996062992126
 30
0.0
 10
-0.3944094488188977
 20
0.393996062992126
 30
0.0
 10
-0.3944094488188977
 20
0.393996062992126
 30
0.0
 10
-0.3931062992125984
 20
0.3941062992125984
 30
0.0
 10
-0.3918267716535434
 20
0.3941614173228347
 30
0.0
 10
-0.3905748031496063
 20
0.3941614173228347
 30
0.0
 10
-0.3905748031496063
 20
0.3941614173228347
 30
0.0
 10
-0.3879645669291339
 20
0.3941614173228347
 30
0.0
 10
-0.3862716535433071
 20
0.3944409448818898
 30
0.0
 10
-0.3854370078740158
 20
0.3949685039370079
 30
0.0
 10
-0.3854370078740158
 20
0.3949685039370079
 30
0.0
 10
-0.3838818897637795
 20
0.395996062992126
 30
0.0
 10
-0.3830787401574803
 20
0.3972992125984252
 30
0.0
 10
-0.3830787401574803
 20
0.3988818897637795
 30
0.0
 10
-0.3830787401574803
 20
0.3988818897637795
 30
0.0
 10
-0.3830787401574803
 20
0.4000236220472441
 30
0.0
 10
-0.3838543307086614
 20
0.4027992125984252
 30
0.0
 10
-0.3853543307086614
 20
0.4072716535433071
 30
0.0
 10
-0.3853543307086614
 20
0.4072716535433071
 30
0.0
 10
-0.3853543307086614
 20
0.4072716535433071
 30
0.0
 10
-0.3928543307086614
 20
0.429244094488189
 30
0.0
 10
-0.3928543307086614
 20
0.429244094488189
 30
0.0
 10
-0.3928543307086614
 20
0.429244094488189
 30
0.0
 10
-0.3928543307086614
 20
0.429244094488189
 30
0.0
 10
-0.4340196850393701
 20
0.429244094488189
 30
0.0
 10
-0.4340196850393701
 20
0.429244094488189
 30
0.0
 10
-0.4340196850393701
 20
0.429244094488189
 30
0.0
 10
-0.4340196850393701
 20
0.429244094488189
 30
0.0
 10
-0.4428267716535433
 20
0.4046614173228347
 30
0.0
 10
-0.4428267716535433
 20
0.4046614173228347
 30
0.0
 10
-0.4428267716535433
 20
0.4046614173228347
 30
0.0
 10
-0.443744094488189
 20
0.4021062992125984
 30
0.0
 10
-0.4442165354330709
 20
0.4003543307086614
 30
0.0
 10
-0.4442165354330709
 20
0.3993543307086614
 30
0.0
 10
-0.4442165354330709
 20
0.3993543307086614
 30
0.0
 10
-0.4442165354330709
 20
0.3982716535433071
 30
0.0
 10
-0.4439094488188977
 20
0.3973267716535433
 30
0.0
 10
-0.4433543307086614
 20
0.3965236220472441
 30
0.0
 10
-0.4433543307086614
 20
0.3965236220472441
 30
0.0
 10
-0.4427716535433071
 20
0.3957165354330709
 30
0.0
 10
-0.4420196850393701
 20
0.3951062992125984
 30
0.0
 10
-0.4410196850393701
 20
0.3946889763779528
 30
0.0
 10
-0.4410196850393701
 20
0.3946889763779528
 30
0.0
 10
-0.4400472440944882
 20
0.3942716535433071
 30
0.0
 10
-0.438492125984252
 20
0.3940787401574804
 30
0.0
 10
-0.4362992125984252
 20
0.3940787401574804
 30
0.0
 10
-0.4362992125984252
 20
0.3940787401574804
 30
0.0
 10
-0.4348543307086614
 20
0.3940787401574804
 30
0.0
 10
-0.4336614173228346
 20
0.3940511811023622
 30
0.0
 10
-0.432744094488189
 20
0.393996062992126
 30
0.0
 10
-0.432744094488189
 20
0.393996062992126
 30
0.0
 10
-0.432744094488189
 20
0.393996062992126
 30
0.0
 10
-0.432744094488189
 20
0.3871614173228347
 30
0.0
 10
-0.432744094488189
 20
0.3871614173228347
 30
0.0
 10
-0.432744094488189
 20
0.3871614173228347
 30
0.0
 10
-0.432744094488189
 20
0.3871614173228347
 30
0.0
 10
-0.4666614173228347
 20
0.3871614173228347
 30
0.0
 10
-0.4666614173228347
 20
0.3871614173228347
 30
0.0
 10
-0.4666614173228347
 20
0.3871614173228347
 30
0.0
 10
-0.4666614173228347
 20
0.3871614173228347
 30
0.0
 10
-0.4666614173228347
 20
0.393996062992126
 30
0.0
 10
-0.4666614173228347
 20
0.393996062992126
 30
0.0
 10
-0.4666614173228347
 20
0.393996062992126
 30
0.0
 10
-0.4635196850393701
 20
0.393996062992126
 30
0.0
 10
-0.461244094488189
 20
0.3942992125984252
 30
0.0
 10
-0.4598818897637795
 20
0.3949409448818898
 30
0.0
 10
-0.4598818897637795
 20
0.3949409448818898
 30
0.0
 10
-0.458492125984252
 20
0.3955511811023622
 30
0.0
 10
-0.4572716535433071
 20
0.3965511811023622
 30
0.0
 10
-0.456244094488189
 20
0.3979409448818898
 30
0.0
 10
-0.456244094488189
 20
0.3979409448818898
 30
0.0
 10
-0.4552165354330709
 20
0.3993267716535433
 30
0.0
 10
-0.4538543307086614
 20
0.402244094488189
 30
0.0
 10
-0.4521889763779528
 20
0.4066889763779528
 30
0.0
 10
-0.4521889763779528
 20
0.4066889763779528
 30
0.0
 10
-0.4521889763779528
 20
0.4066889763779528
 30
0.0
 10
-0.4167716535433071
 20
0.5006889763779527
 30
0.0
 10
-0.4167716535433071
 20
0.5006889763779527
 30
0.0
  0
SPLINE
  5
31
330
1F
100
AcDbEntity
  8
LAYER_1
 62
   250
100
AcDbSpline
210
0.0
220
0.0
230
1.0
 70
    11
 71
     3
 72
    16
 73
    12
 74
     0
 42
0.0000000001
 43
0.0000000001
 40
0.0
 40
0.0
 40
0.0
 40
0.0
 40
0.3333333333333333
 40
0.3333333333333333
 40
0.3333333333333333
 40
0.3333333333333333
 40
0.6666666666666666
 40
0.6666666666666666
 40
0.6666666666666666
 40
0.6666666666666666
 40
1.0
 40
1.0
 40
1.0
 40
1.0
 10
-0.4310196850393701
 20
0.4372165354330709
 30
0.0
 10
-0.4310196850393701
 20
0.4372165354330709
 30
0.0
 10
-0.3959370078740158
 20
0.4372165354330709
 30
0.0
 10
-0.3959370078740158
 20
0.4372165354330709
 30
0.0
 10
-0.3959370078740158
 20
0.4372165354330709
 30
0.0
 10
-0.3959370078740158
 20
0.4372165354330709
 30
0.0
 10
-0.4135196850393701
 20
0.4860511811023622
 30
0.0
 10
-0.4135196850393701
 20
0.4860511811023622
 30
0.0
 10
-0.4135196850393701
 20
0.4860511811023622
 30
0.0
 10
-0.4135196850393701
 20
0.4860511811023622
 30
0.0
 10
-0.4310196850393701
 20
0.4372165354330709
 30
0.0
 10
-0.4310196850393701
 20
0.4372165354330709
 30
0.0
  0
SPLINE
  5
32
330
1F
100
AcDbEntity
  8
LAYER_1
 62
   250
100
AcDbSpline
210
0.0
220
0.0
230
1.0
 70
    11
 71
     3
 72
    72
 73
    68
 74
     0
 42
0.0000000001
 43
0.0000000001
 40
0.0
 40
0.0
 40
0.0
 40
0.0
 40
0.0588235294117647
 40
0.0588235294117647
 40
0.0588235294117647
 40
0.0588235294117647
 40
0.1176470588235294
 40
0.1176470588235294
 40
0.1176470588235294
 40
0.1176470588235294
 40
0.1764705882352941
 40
0.1764705882352941
 40
0.1764705882352941
 40
0.1764705882352941
 40
0.2352941176470588
 40
0.2352941176470588
 40
0.2352941176470588
 40
0.2352941176470588
 40
0.2941176470588235
 40
0.2941176470588235
 40
0.2941176470588235
 40
0.2941176470588235
 40
0.3529411764705883
 40
0.3529411764705883
 40
0.3529411764705883
 40
0.3529411764705883
 40
0.411764705882353
 40
0.411764705882353
 40
0.411764705882353
 40
0.411764705882353
 40
0.4705882352941177
 40
0.4705882352941177
 40
0.4705882352941177
 40
0.4705882352941177
 40
0.5294117647058824
 40
0.5294117647058824
 40
0.5294117647058824
 40
0.5294117647058824
 40
0.5882352941176471
 40
0.5882352941176471
 40
0.5882352941176471
 40
0.5882352941176471
 40
0.6470588235294118
 40
0.6470588235294118
 40
0.6470588235294118
 40
0.6470588235294118
 40
0.7058823529411765
 40
0.7058823529411765
 40
0.7058823529411765
 40
0.7058823529411765
 40
0.7647058823529412
 40
0.7647058823529412
 40
0.7647058823529412
 40
0.7647058823529412
 40
0.823529411764706
 40
0.823529411764706
 40
0.823529411764706
 40
0.823529411764706
 40
0.8823529411764707
 40
0.8823529411764707
 40
0.8823529411764707
 40
0.8823529411764707
 40
0.9411764705882354
 40
0.9411764705882354
 40
0.9411764705882354
 40
0.9411764705882354
 40
1.0
 40
1.0
 40
1.0
 40
1.0
 10
-0.1909370078740158
 20
0.5006889763779527
 30
0.0
 10
-0.1909370078740158
 20
0.5006889763779527
 30
0.0
 10
-0.1848543307086614
 20
0.5006889763779527
 30
0.0
 10
-0.1848543307086614
 20
0.5006889763779527
 30
0.0
 10
-0.1848543307086614
 20
0.5006889763779527
 30
0.0
 10
-0.1848543307086614
 20
0.5006889763779527
 30
0.0
 10
-0.1848543307086614
 20
0.4064409448818898
 30
0.0
 10
-0.1848543307086614
 20
0.4064409448818898
 30
0.0
 10
-0.1848543307086614
 20
0.4064409448818898
 30
0.0
 10
-0.1848543307086614
 20
0.401996062992126
 30
0.0
 10
-0.1845472440944882
 20
0.3991338582677165
 30
0.0
 10
-0.183992125984252
 20
0.3978543307086614
 30
0.0
 10
-0.183992125984252
 20
0.3978543307086614
 30
0.0
 10
-0.1834094488188977
 20
0.3965787401574804
 30
0.0
 10
-0.182492125984252
 20
0.3956338582677166
 30
0.0
 10
-0.1811889763779528
 20
0.3949685039370079
 30
0.0
 10
-0.1811889763779528
 20
0.3949685039370079
 30
0.0
 10
-0.1798818897637795
 20
0.3943267716535433
 30
0.0
 10
-0.1772992125984252
 20
0.393996062992126
 30
0.0
 10
-0.1734370078740158
 20
0.393996062992126
 30
0.0
 10
-0.1734370078740158
 20
0.393996062992126
 30
0.0
 10
-0.1734370078740158
 20
0.393996062992126
 30
0.0
 10
-0.1654645669291339
 20
0.393996062992126
 30
0.0
 10
-0.1654645669291339
 20
0.393996062992126
 30
0.0
 10
-0.1654645669291339
 20
0.393996062992126
 30
0.0
 10
-0.1654645669291339
 20
0.393996062992126
 30
0.0
 10
-0.1654645669291339
 20
0.3871614173228347
 30
0.0
 10
-0.1654645669291339
 20
0.3871614173228347
 30
0.0
 10
-0.1654645669291339
 20
0.3871614173228347
 30
0.0
 10
-0.1654645669291339
 20
0.3871614173228347
 30
0.0
 10
-0.2191023622047244
 20
0.3871614173228347
 30
0.0
 10
-0.2191023622047244
 20
0.3871614173228347
 30
0.0
 10
-0.2191023622047244
 20
0.3871614173228347
 30
0.0
 10
-0.2191023622047244
 20
0.3871614173228347
 30
0.0
 10
-0.2191023622047244
 20
0.393996062992126
 30
0.0
 10
-0.2191023622047244
 20
0.393996062992126
 30
0.0
 10
-0.2191023622047244
 20
0.393996062992126
 30
0.0
 10
-0.2191023622047244
 20
0.393996062992126
 30
0.0
 10
-0.210244094488189
 20
0.393996062992126
 30
0.0
 10
-0.210244094488189
 20
0.393996062992126
 30
0.0
 10
-0.210244094488189
 20
0.393996062992126
 30
0.0
 10
-0.2063818897637795
 20
0.393996062992126
 30
0.0
 10
-0.2038267716535433
 20
0.3943267716535433
 30
0.0
 10
-0.2025472440944882
 20
0.3950236220472441
 30
0.0
 10
-0.2025472440944882
 20
0.3950236220472441
 30
0.0
 10
-0.2012716535433071
 20
0.3956889763779528
 30
0.0
 10
-0.2002716535433071
 20
0.3967716535433071
 30
0.0
 10
-0.1995748031496063
 20
0.3982716535433071
 30
0.0
 10
-0.1995748031496063
 20
0.3982716535433071
 30
0.0
 10
-0.1988818897637796
 20
0.3997716535433071
 30
0.0
 10
-0.1985196850393701
 20
0.402496062992126
 30
0.0
 10
-0.1985196850393701
 20
0.4064409448818898
 30
0.0
 10
-0.1985196850393701
 20
0.4064409448818898
 30
0.0
 10
-0.1985196850393701
 20
0.4064409448818898
 30
0.0
 10
-0.1985196850393701
 20
0.4839094488188976
 30
0.0
 10
-0.1985196850393701
 20
0.4839094488188976
 30
0.0
 10
-0.1985196850393701
 20
0.4839094488188976
 30
0.0
 10
-0.1985196850393701
 20
0.4839094488188976
 30
0.0
 10
-0.2191023622047244
 20
0.4839094488188976
 30
0.0
 10
-0.2191023622047244
 20
0.4839094488188976
 30
0.0
 10
-0.2191023622047244
 20
0.4839094488188976
 30
0.0
 10
-0.2191023622047244
 20
0.4839094488188976
 30
0.0
 10
-0.2191023622047244
 20
0.4909094488188976
 30
0.0
 10
-0.2191023622047244
 20
0.4909094488188976
 30
0.0
 10
-0.2191023622047244
 20
0.4909094488188976
 30
0.0
 10
-0.2078818897637795
 20
0.492492125984252
 30
0.0
 10
-0.198492125984252
 20
0.495744094488189
 30
0.0
 10
-0.1909370078740158
 20
0.5006889763779527
 30
0.0
  0
SPLINE
  5
33
330
1F
100
AcDbEntity
  8
LAYER_1
 62
   250
100
AcDbSpline
210
0.0
220
0.0
230
1.0
 70
    11
 71
     3
 72
    76
 73
    72
 74
     0
 42
0.0000000001
 43
0.0000000001
 40
0.0
 40
0.0
 40
0.0
 40
0.0
 40
0.0555555555555556
 40
0.0555555555555556
 40
0.0555555555555556
 40
0.0555555555555556
 40
0.1111111111111111
 40
0.1111111111111111
 40
0.1111111111111111
 40
0.1111111111111111
 40
0.1666666666666667
 40
0.1666666666666667
 40
0.1666666666666667
 40
0.1666666666666667
 40
0.2222222222222222
 40
0.2222222222222222
 40
0.2222222222222222
 40
0.2222222222222222
 40
0.2777777777777778
 40
0.2777777777777778
 40
0.2777777777777778
 40
0.2777777777777778
 40
0.3333333333333334
 40
0.3333333333333334
 40
0.3333333333333334
 40
0.3333333333333334
 40
0.388888888888889
 40
0.388888888888889
 40
0.388888888888889
 40
0.388888888888889
 40
0.4444444444444445
 40
0.4444444444444445
 40
0.4444444444444445
 40
0.4444444444444445
 40
0.5000000000000001
 40
0.5000000000000001
 40
0.5000000000000001
 40
0.5000000000000001
 40
0.5555555555555557
 40
0.5555555555555557
 40
0.5555555555555557
 40
0.5555555555555557
 40
0.6111111111111113
 40
0.6111111111111113
 40
0.6111111111111113
 40
0.6111111111111113
 40
0.6666666666666669
 40
0.6666666666666669
 40
0.6666666666666669
 40
0.6666666666666669
 40
0.7222222222222224
 40
0.7222222222222224
 40
0.7222222222222224
 40
0.7222222222222224
 40
0.777777777777778
 40
0.777777777777778
 40
0.777777777777778
 40
0.777777777777778
 40
0.8333333333333336
 40
0.8333333333333336
 40
0.8333333333333336
 40
0.8333333333333336
 40
0.8888888888888892
 40
0.8888888888888892
 40
0.8888888888888892
 40
0.8888888888888892
 40
0.9444444444444448
 40
0.9444444444444448
 40
0.9444444444444448
 40
0.9444444444444448
 40
1.0
 40
1.0
 40
1.0
 40
1.0
 10
-0.0791299212598425
 20
0.4501614173228347
 30
0.0
 10
-0.0727125984251969
 20
0.4477165354330709
 30
0.0
 10
-0.0678267716535433
 20
0.4454094488188977
 30
0.0
 10
-0.0644645669291339
 20
0.443244094488189
 30
0.0
 10
-0.0644645669291339
 20
0.443244094488189
 30
0.0
 10
-0.0595472440944882
 20
0.4400787401574803
 30
0.0
 10
-0.0558267716535433
 20
0.4363818897637796
 30
0.0
 10
-0.0533267716535433
 20
0.4321338582677166
 30
0.0
 10
-0.0533267716535433
 20
0.4321338582677166
 30
0.0
 10
-0.0508267716535433
 20
0.4278543307086614
 30
0.0
 10
-0.0495748031496063
 20
0.423244094488189
 30
0.0
 10
-0.0495748031496063
 20
0.418244094488189
 30
0.0
 10
-0.0495748031496063
 20
0.418244094488189
 30
0.0
 10
-0.0495748031496063
 20
0.4092992125984252
 30
0.0
 10
-0.0534370078740158
 20
0.4015511811023622
 30
0.0
 10
-0.0611299212598425
 20
0.3950236220472441
 30
0.0
 10
-0.0611299212598425
 20
0.3950236220472441
 30
0.0
 10
-0.0688543307086614
 20
0.3884685039370079
 30
0.0
 10
-0.079240157480315
 20
0.3852165354330709
 30
0.0
 10
-0.0922992125984252
 20
0.3852165354330709
 30
0.0
 10
-0.0922992125984252
 20
0.3852165354330709
 30
0.0
 10
-0.1061299212598425
 20
0.3852165354330709
 30
0.0
 10
-0.116992125984252
 20
0.3889094488188977
 30
0.0
 10
-0.1248543307086614
 20
0.3962716535433071
 30
0.0
 10
-0.1248543307086614
 20
0.3962716535433071
 30
0.0
 10
-0.1311023622047244
 20
0.4021889763779528
 30
0.0
 10
-0.1342125984251969
 20
0.4088818897637795
 30
0.0
 10
-0.1342125984251969
 20
0.4163818897637795
 30
0.0
 10
-0.1342125984251969
 20
0.4163818897637795
 30
0.0
 10
-0.1342125984251969
 20
0.4224094488188976
 30
0.0
 10
-0.1321023622047244
 20
0.4277992125984252
 30
0.0
 10
-0.1278818897637795
 20
0.4325787401574803
 30
0.0
 10
-0.1278818897637795
 20
0.4325787401574803
 30
0.0
 10
-0.1227677165354331
 20
0.4382716535433071
 30
0.0
 10
-0.115492125984252
 20
0.4427165354330709
 30
0.0
 10
-0.1060472440944882
 20
0.4459094488188977
 30
0.0
 10
-0.1060472440944882
 20
0.4459094488188977
 30
0.0
 10
-0.1134370078740158
 20
0.4493818897637795
 30
0.0
 10
-0.118740157480315
 20
0.4529094488188977
 30
0.0
 10
-0.1220196850393701
 20
0.456496062992126
 30
0.0
 10
-0.1220196850393701
 20
0.456496062992126
 30
0.0
 10
-0.1261850393700787
 20
0.4612165354330709
 30
0.0
 10
-0.1282677165354331
 20
0.4668818897637795
 30
0.0
 10
-0.1282677165354331
 20
0.473492125984252
 30
0.0
 10
-0.1282677165354331
 20
0.473492125984252
 30
0.0
 10
-0.1282677165354331
 20
0.4816889763779528
 30
0.0
 10
-0.1251850393700787
 20
0.4883267716535433
 30
0.0
 10
-0.118992125984252
 20
0.4933543307086614
 30
0.0
 10
-0.118992125984252
 20
0.4933543307086614
 30
0.0
 10
-0.1114094488188976
 20
0.4995511811023622
 30
0.0
 10
-0.1019094488188976
 20
0.5026338582677166
 30
0.0
 10
-0.0905196850393701
 20
0.5026338582677166
 30
0.0
 10
-0.0905196850393701
 20
0.5026338582677166
 30
0.0
 10
-0.0801023622047244
 20
0.5026338582677166
 30
0.0
 10
-0.0716850393700787
 20
0.4999645669291339
 30
0.0
 10
-0.065240157480315
 20
0.4946338582677166
 30
0.0
 10
-0.065240157480315
 20
0.4946338582677166
 30
0.0
 10
-0.0588267716535433
 20
0.4892716535433071
 30
0.0
 10
-0.0556023622047244
 20
0.4831614173228347
 30
0.0
 10
-0.0556023622047244
 20
0.4762716535433071
 30
0.0
 10
-0.0556023622047244
 20
0.4762716535433071
 30
0.0
 10
-0.0556023622047244
 20
0.4728543307086615
 30
0.0
 10
-0.0564094488188976
 20
0.4695787401574804
 30
0.0
 10
-0.057992125984252
 20
0.4664645669291339
 30
0.0
 10
-0.057992125984252
 20
0.4664645669291339
 30
0.0
 10
-0.0596023622047244
 20
0.4633543307086614
 30
0.0
 10
-0.0620472440944882
 20
0.4604370078740158
 30
0.0
 10
-0.0653818897637795
 20
0.4577716535433071
 30
0.0
 10
-0.0653818897637795
 20
0.4577716535433071
 30
0.0
 10
-0.0686850393700787
 20
0.4550787401574803
 30
0.0
 10
-0.0732716535433071
 20
0.4525511811023622
 30
0.0
 10
-0.0791299212598425
 20
0.4501614173228347
 30
0.0
  0
SPLINE
  5
34
330
1F
100
AcDbEntity
  8
LAYER_1
 62
   250
100
AcDbSpline
210
0.0
220
0.0
230
1.0
 70
    11
 71
     3
 72
    48
 73
    44
 74
     0
 42
0.0000000001
 43
0.0000000001
 40
0.0
 40
0.0
 40
0.0
 40
0.0
 40
0.0909090909090909
 40
0.0909090909090909
 40
0.0909090909090909
 40
0.0909090909090909
 40
0.1818181818181818
 40
0.1818181818181818
 40
0.1818181818181818
 40
0.1818181818181818
 40
0.2727272727272727
 40
0.2727272727272727
 40
0.2727272727272727
 40
0.2727272727272727
 40
0.3636363636363637
 40
0.3636363636363637
 40
0.3636363636363637
 40
0.3636363636363637
 40
0.4545454545454546
 40
0.4545454545454546
 40
0.4545454545454546
 40
0.4545454545454546
 40
0.5454545454545455
 40
0.5454545454545455
 40
0.5454545454545455
 40
0.5454545454545455
 40
0.6363636363636365
 40
0.6363636363636365
 40
0.6363636363636365
 40
0.6363636363636365
 40
0.7272727272727274
 40
0.7272727272727274
 40
0.7272727272727274
 40
0.7272727272727274
 40
0.8181818181818183
 40
0.8181818181818183
 40
0.8181818181818183
 40
0.8181818181818183
 40
0.9090909090909093
 40
0.9090909090909093
 40
0.9090909090909093
 40
0.9090909090909093
 40
1.0
 40
1.0
 40
1.0
 40
1.0
 10
-0.0865196850393701
 20
0.4531614173228347
 30
0.0
 10
-0.0803543307086614
 20
0.4578267716535434
 30
0.0
 10
-0.0763267716535433
 20
0.4610787401574804
 30
0.0
 10
-0.074492125984252
 20
0.4629370078740158
 30
0.0
 10
-0.074492125984252
 20
0.4629370078740158
 30
0.0
 10
-0.0726299212598425
 20
0.4647716535433071
 30
0.0
 10
-0.0712125984251969
 20
0.4668818897637795
 30
0.0
 10
-0.0702125984251969
 20
0.469244094488189
 30
0.0
 10
-0.0702125984251969
 20
0.469244094488189
 30
0.0
 10
-0.0692125984251969
 20
0.4716062992125985
 30
0.0
 10
-0.0687125984251969
 20
0.4738818897637795
 30
0.0
 10
-0.0687125984251969
 20
0.4761062992125985
 30
0.0
 10
-0.0687125984251969
 20
0.4761062992125985
 30
0.0
 10
-0.0687125984251969
 20
0.4792992125984252
 30
0.0
 10
-0.0696574803149606
 20
0.4823543307086615
 30
0.0
 10
-0.0715472440944882
 20
0.4852716535433071
 30
0.0
 10
-0.0715472440944882
 20
0.4852716535433071
 30
0.0
 10
-0.0734645669291339
 20
0.4881614173228347
 30
0.0
 10
-0.076240157480315
 20
0.4905236220472441
 30
0.0
 10
-0.0799094488188976
 20
0.4922992125984252
 30
0.0
 10
-0.0799094488188976
 20
0.4922992125984252
 30
0.0
 10
-0.0835472440944882
 20
0.4941062992125985
 30
0.0
 10
-0.0876574803149606
 20
0.494992125984252
 30
0.0
 10
-0.0922125984251969
 20
0.494992125984252
 30
0.0
 10
-0.0922125984251969
 20
0.494992125984252
 30
0.0
 10
-0.0989645669291339
 20
0.494992125984252
 30
0.0
 10
-0.1045472440944882
 20
0.4931338582677166
 30
0.0
 10
-0.108992125984252
 20
0.4894094488188976
 30
0.0
 10
-0.108992125984252
 20
0.4894094488188976
 30
0.0
 10
-0.1134370078740158
 20
0.4856889763779528
 30
0.0
 10
-0.1156574803149606
 20
0.4814094488188976
 30
0.0
 10
-0.1156574803149606
 20
0.4765236220472441
 30
0.0
 10
-0.1156574803149606
 20
0.4765236220472441
 30
0.0
 10
-0.1156574803149606
 20
0.4726062992125985
 30
0.0
 10
-0.1142677165354331
 20
0.4691062992125984
 30
0.0
 10
-0.1115196850393701
 20
0.4660236220472441
 30
0.0
 10
-0.1115196850393701
 20
0.4660236220472441
 30
0.0
 10
-0.108740157480315
 20
0.4629370078740158
 30
0.0
 10
-0.1036023622047244
 20
0.4598818897637795
 30
0.0
 10
-0.0960472440944882
 20
0.4569094488188977
 30
0.0
 10
-0.0960472440944882
 20
0.4569094488188977
 30
0.0
 10
-0.0960472440944882
 20
0.4569094488188977
 30
0.0
 10
-0.0865196850393701
 20
0.4531614173228347
 30
0.0
 10
-0.0865196850393701
 20
0.4531614173228347
 30
0.0
  0
SPLINE
  5
35
330
1F
100
AcDbEntity
  8
LAYER_1
 62
   250
100
AcDbSpline
210
0.0
220
0.0
230
1.0
 70
    11
 71
     3
 72
    40
 73
    36
 74
     0
 42
0.0000000001
 43
0.0000000001
 40
0.0
 40
0.0
 40
0.0
 40
0.0
 40
0.1111111111111111
 40
0.1111111111111111
 40
0.1111111111111111
 40
0.1111111111111111
 40
0.2222222222222222
 40
0.2222222222222222
 40
0.2222222222222222
 40
0.2222222222222222
 40
0.3333333333333333
 40
0.3333333333333333
 40
0.3333333333333333
 40
0.3333333333333333
 40
0.4444444444444444
 40
0.4444444444444444
 40
0.4444444444444444
 40
0.4444444444444444
 40
0.5555555555555556
 40
0.5555555555555556
 40
0.5555555555555556
 40
0.5555555555555556
 40
0.6666666666666667
 40
0.6666666666666667
 40
0.6666666666666667
 40
0.6666666666666667
 40
0.7777777777777779
 40
0.7777777777777779
 40
0.7777777777777779
 40
0.7777777777777779
 40
0.8888888888888891
 40
0.8888888888888891
 40
0.8888888888888891
 40
0.8888888888888891
 40
1.0
 40
1.0
 40
1.0
 40
1.0
 10
-0.097992125984252
 20
0.442744094488189
 30
0.0
 10
-0.1056574803149606
 20
0.4393818897637796
 30
0.0
 10
-0.1117125984251969
 20
0.4350236220472441
 30
0.0
 10
-0.1161574803149606
 20
0.4296338582677166
 30
0.0
 10
-0.1161574803149606
 20
0.4296338582677166
 30
0.0
 10
-0.1196299212598425
 20
0.4254094488188976
 30
0.0
 10
-0.1213543307086614
 20
0.4210236220472441
 30
0.0
 10
-0.1213543307086614
 20
0.4164685039370079
 30
0.0
 10
-0.1213543307086614
 20
0.4164685039370079
 30
0.0
 10
-0.1213543307086614
 20
0.4102716535433071
 30
0.0
 10
-0.1186299212598425
 20
0.4047716535433071
 30
0.0
 10
-0.1131299212598425
 20
0.3999685039370079
 30
0.0
 10
-0.1131299212598425
 20
0.3999685039370079
 30
0.0
 10
-0.1076574803149606
 20
0.3951889763779528
 30
0.0
 10
-0.1005748031496063
 20
0.3927716535433071
 30
0.0
 10
-0.0919094488188976
 20
0.3927716535433071
 30
0.0
 10
-0.0919094488188976
 20
0.3927716535433071
 30
0.0
 10
-0.0830472440944882
 20
0.3927716535433071
 30
0.0
 10
-0.0756850393700787
 20
0.3955236220472441
 30
0.0
 10
-0.0697716535433071
 20
0.400996062992126
 30
0.0
 10
-0.0697716535433071
 20
0.400996062992126
 30
0.0
 10
-0.0649370078740158
 20
0.4054409448818898
 30
0.0
 10
-0.0625196850393701
 20
0.4102165354330709
 30
0.0
 10
-0.0625196850393701
 20
0.4153267716535433
 30
0.0
 10
-0.0625196850393701
 20
0.4153267716535433
 30
0.0
 10
-0.0625196850393701
 20
0.4193267716535433
 30
0.0
 10
-0.0641023622047244
 20
0.4231614173228347
 30
0.0
 10
-0.0672716535433071
 20
0.4268267716535433
 30
0.0
 10
-0.0672716535433071
 20
0.4268267716535433
 30
0.0
 10
-0.0704645669291339
 20
0.430496062992126
 30
0.0
 10
-0.0763543307086614
 20
0.4340511811023622
 30
0.0
 10
-0.084992125984252
 20
0.4375236220472441
 30
0.0
 10
-0.084992125984252
 20
0.4375236220472441
 30
0.0
 10
-0.084992125984252
 20
0.4375236220472441
 30
0.0
 10
-0.097992125984252
 20
0.442744094488189
 30
0.0
 10
-0.097992125984252
 20
0.442744094488189
 30
0.0
  0
SPLINE
  5
36
330
1F
100
AcDbEntity
  8
LAYER_1
 62
   250
100
AcDbSpline
210
0.0
220
0.0
230
1.0
 70
    11
 71
     3
 72
   136
 73
   132
 74
     0
 42
0.0000000001
 43
0.0000000001
 40
0.0
 40
0.0
 40
0.0
 40
0.0
 40
0.0303030303030303
 40
0.0303030303030303
 40
0.0303030303030303
 40
0.0303030303030303
 40
0.0606060606060606
 40
0.0606060606060606
 40
0.0606060606060606
 40
0.0606060606060606
 40
0.0909090909090909
 40
0.0909090909090909
 40
0.0909090909090909
 40
0.0909090909090909
 40
0.1212121212121212
 40
0.1212121212121212
 40
0.1212121212121212
 40
0.1212121212121212
 40
0.1515151515151515
 40
0.1515151515151515
 40
0.1515151515151515
 40
0.1515151515151515
 40
0.1818181818181818
 40
0.1818181818181818
 40
0.1818181818181818
 40
0.1818181818181818
 40
0.2121212121212121
 40
0.2121212121212121
 40
0.2121212121212121
 40
0.2121212121212121
 40
0.2424242424242424
 40
0.2424242424242424
 40
0.2424242424242424
 40
0.2424242424242424
 40
0.2727272727272727
 40
0.2727272727272727
 40
0.2727272727272727
 40
0.2727272727272727
 40
0.303030303030303
 40
0.303030303030303
 40
0.303030303030303
 40
0.303030303030303
 40
0.3333333333333333
 40
0.3333333333333333
 40
0.3333333333333333
 40
0.3333333333333333
 40
0.3636363636363635
 40
0.3636363636363635
 40
0.3636363636363635
 40
0.3636363636363635
 40
0.3939393939393938
 40
0.3939393939393938
 40
0.3939393939393938
 40
0.3939393939393938
 40
0.4242424242424241
 40
0.4242424242424241
 40
0.4242424242424241
 40
0.4242424242424241
 40
0.4545454545454544
 40
0.4545454545454544
 40
0.4545454545454544
 40
0.4545454545454544
 40
0.4848484848484846
 40
0.4848484848484846
 40
0.4848484848484846
 40
0.4848484848484846
 40
0.5151515151515149
 40
0.5151515151515149
 40
0.5151515151515149
 40
0.5151515151515149
 40
0.5454545454545452
 40
0.5454545454545452
 40
0.5454545454545452
 40
0.5454545454545452
 40
0.5757575757575755
 40
0.5757575757575755
 40
0.5757575757575755
 40
0.5757575757575755
 40
0.6060606060606057
 40
0.6060606060606057
 40
0.6060606060606057
 40
0.6060606060606057
 40
0.636363636363636
 40
0.636363636363636
 40
0.636363636363636
 40
0.636363636363636
 40
0.6666666666666663
 40
0.6666666666666663
 40
0.6666666666666663
 40
0.6666666666666663
 40
0.6969696969696966
 40
0.6969696969696966
 40
0.6969696969696966
 40
0.6969696969696966
 40
0.7272727272727269
 40
0.7272727272727269
 40
0.7272727272727269
 40
0.7272727272727269
 40
0.7575757575757571
 40
0.7575757575757571
 40
0.7575757575757571
 40
0.7575757575757571
 40
0.7878787878787874
 40
0.7878787878787874
 40
0.7878787878787874
 40
0.7878787878787874
 40
0.8181818181818177
 40
0.8181818181818177
 40
0.8181818181818177
 40
0.8181818181818177
 40
0.848484848484848
 40
0.848484848484848
 40
0.848484848484848
 40
0.848484848484848
 40
0.8787878787878782
 40
0.8787878787878782
 40
0.8787878787878782
 40
0.8787878787878782
 40
0.9090909090909085
 40
0.9090909090909085
 40
0.9090909090909085
 40
0.9090909090909085
 40
0.9393939393939388
 40
0.9393939393939388
 40
0.9393939393939388
 40
0.9393939393939388
 40
0.9696969696969691
 40
0.9696969696969691
 40
0.9696969696969691
 40
0.9696969696969691
 40
1.0
 40
1.0
 40
1.0
 40
1.0
 10
-0.0213228346456693
 20
0.4578818897637795
 30
0.0
 10
-0.0213228346456693
 20
0.4578818897637795
 30
0.0
 10
-0.0292125984251969
 20
0.4569094488188977
 30
0.0
 10
-0.0292125984251969
 20
0.4569094488188977
 30
0.0
 10
-0.0292125984251969
 20
0.4569094488188977
 30
0.0
 10
-0.0296574803149606
 20
0.460744094488189
 30
0.0
 10
-0.0298779527559055
 20
0.4639094488188977
 30
0.0
 10
-0.0298779527559055
 20
0.4663543307086615
 30
0.0
 10
-0.0298779527559055
 20
0.4663543307086615
 30
0.0
 10
-0.0298779527559055
 20
0.472744094488189
 30
0.0
 10
-0.0281299212598425
 20
0.4787992125984252
 30
0.0
 10
-0.0246574803149606
 20
0.484492125984252
 30
0.0
 10
-0.0246574803149606
 20
0.484492125984252
 30
0.0
 10
-0.0211850393700787
 20
0.4901889763779528
 30
0.0
 10
-0.0163503937007874
 20
0.4946338582677166
 30
0.0
 10
-0.0101299212598425
 20
0.4978267716535433
 30
0.0
 10
-0.0101299212598425
 20
0.4978267716535433
 30
0.0
 10
-0.0039370078740157
 20
0.5010511811023622
 30
0.0
 10
0.0032047244094488
 20
0.5026338582677166
 30
0.0
 10
0.0112322834645669
 20
0.5026338582677166
 30
0.0
 10
0.0112322834645669
 20
0.5026338582677166
 30
0.0
 10
0.0189803149606299
 20
0.5026338582677166
 30
0.0
 10
0.0257874015748032
 20
0.5011338582677165
 30
0.0
 10
0.0316496062992126
 20
0.4981338582677166
 30
0.0
 10
0.0316496062992126
 20
0.4981338582677166
 30
0.0
 10
0.037507874015748
 20
0.4951062992125985
 30
0.0
 10
0.0419803149606299
 20
0.490992125984252
 30
0.0
 10
0.0451181102362205
 20
0.485744094488189
 30
0.0
 10
0.0451181102362205
 20
0.485744094488189
 30
0.0
 10
0.0482322834645669
 20
0.4805236220472441
 30
0.0
 10
0.0497874015748032
 20
0.4745511811023622
 30
0.0
 10
0.0497874015748032
 20
0.4677992125984252
 30
0.0
 10
0.0497874015748032
 20
0.4677992125984252
 30
0.0
 10
0.0497874015748032
 20
0.4621062992125984
 30
0.0
 10
0.0487874015748032
 20
0.4568267716535434
 30
0.0
 10
0.0467322834645669
 20
0.451996062992126
 30
0.0
 10
0.0467322834645669
 20
0.451996062992126
 30
0.0
 10
0.0447047244094488
 20
0.4471338582677166
 30
0.0
 10
0.0414251968503937
 20
0.4422165354330709
 30
0.0
 10
0.0369251968503937
 20
0.4372992125984252
 30
0.0
 10
0.0369251968503937
 20
0.4372992125984252
 30
0.0
 10
0.0335629921259843
 20
0.4336062992125985
 30
0.0
 10
0.026759842519685
 20
0.4279685039370079
 30
0.0
 10
0.016507874015748
 20
0.4203543307086614
 30
0.0
 10
0.016507874015748
 20
0.4203543307086614
 30
0.0
 10
0.0035944881889764
 20
0.4107165354330709
 30
0.0
 10
-0.0062952755905512
 20
0.4037165354330709
 30
0.0
 10
-0.0131850393700787
 20
0.3993543307086614
 30
0.0
 10
-0.0131850393700787
 20
0.3993543307086614
 30
0.0
 10
-0.0131850393700787
 20
0.3993543307086614
 30
0.0
 10
0.0291220472440945
 20
0.3993543307086614
 30
0.0
 10
0.0291220472440945
 20
0.3993543307086614
 30
0.0
 10
0.0291220472440945
 20
0.3993543307086614
 30
0.0
 10
0.0341220472440945
 20
0.3993543307086614
 30
0.0
 10
0.0373700787401575
 20
0.3998267716535433
 30
0.0
 10
0.0388976377952756
 20
0.400744094488189
 30
0.0
 10
0.0388976377952756
 20
0.400744094488189
 30
0.0
 10
0.041007874015748
 20
0.4019409448818898
 30
0.0
 10
0.0424527559055118
 20
0.4047165354330709
 30
0.0
 10
0.0432047244094488
 20
0.4090511811023622
 30
0.0
 10
0.0432047244094488
 20
0.4090511811023622
 30
0.0
 10
0.0432047244094488
 20
0.4090511811023622
 30
0.0
 10
0.0439251968503937
 20
0.4136889763779528
 30
0.0
 10
0.0439251968503937
 20
0.4136889763779528
 30
0.0
 10
0.0439251968503937
 20
0.4136889763779528
 30
0.0
 10
0.0439251968503937
 20
0.4136889763779528
 30
0.0
 10
0.0508425196850394
 20
0.4136889763779528
 30
0.0
 10
0.0508425196850394
 20
0.4136889763779528
 30
0.0
 10
0.0508425196850394
 20
0.4136889763779528
 30
0.0
 10
0.0508425196850394
 20
0.4136889763779528
 30
0.0
 10
0.0453149606299213
 20
0.3831062992125984
 30
0.0
 10
0.0453149606299213
 20
0.3831062992125984
 30
0.0
 10
0.0453149606299213
 20
0.3831062992125984
 30
0.0
 10
0.0453149606299213
 20
0.3831062992125984
 30
0.0
 10
0.0401220472440945
 20
0.3831062992125984
 30
0.0
 10
0.0401220472440945
 20
0.3831062992125984
 30
0.0
 10
0.0401220472440945
 20
0.3831062992125984
 30
0.0
 10
0.0401220472440945
 20
0.3831062992125984
 30
0.0
 10
0.0392047244094488
 20
0.3871614173228347
 30
0.0
 10
0.0392047244094488
 20
0.3871614173228347
 30
0.0
 10
0.0392047244094488
 20
0.3871614173228347
 30
0.0
 10
0.0392047244094488
 20
0.3871614173228347
 30
0.0
 10
-0.0319055118110236
 20
0.3871614173228347
 30
0.0
 10
-0.0319055118110236
 20
0.3871614173228347
 30
0.0
 10
-0.0319055118110236
 20
0.3871614173228347
 30
0.0
 10
-0.0319055118110236
 20
0.3871614173228347
 30
0.0
 10
-0.0319055118110236
 20
0.393996062992126
 30
0.0
 10
-0.0319055118110236
 20
0.393996062992126
 30
0.0
 10
-0.0319055118110236
 20
0.393996062992126
 30
0.0
 10
-0.0319055118110236
 20
0.393996062992126
 30
0.0
 10
-0.0188779527559055
 20
0.4038543307086615
 30
0.0
 10
-0.0188779527559055
 20
0.4038543307086615
 30
0.0
 10
-0.0188779527559055
 20
0.4038543307086615
 30
0.0
 10
-0.0090196850393701
 20
0.4111614173228347
 30
0.0
 10
-0.0017677165354331
 20
0.4167716535433071
 30
0.0
 10
0.0028425196850394
 20
0.4206889763779528
 30
0.0
 10
0.0028425196850394
 20
0.4206889763779528
 30
0.0
 10
0.0115629921259843
 20
0.4280787401574803
 30
0.0
 10
0.0181496062992126
 20
0.4343818897637796
 30
0.0
 10
0.0225629921259843
 20
0.4396062992125984
 30
0.0
 10
0.0225629921259843
 20
0.4396062992125984
 30
0.0
 10
0.0269803149606299
 20
0.4448543307086614
 30
0.0
 10
0.0300354330708661
 20
0.4495787401574803
 30
0.0
 10
0.0316771653543307
 20
0.4537716535433071
 30
0.0
 10
0.0316771653543307
 20
0.4537716535433071
 30
0.0
 10
0.0333425196850394
 20
0.4579645669291339
 30
0.0
 10
0.0341771653543307
 20
0.4623818897637795
 30
0.0
 10
0.0341771653543307
 20
0.466996062992126
 30
0.0
 10
0.0341771653543307
 20
0.466996062992126
 30
0.0
 10
0.0341771653543307
 20
0.4746338582677165
 30
0.0
 10
0.0317047244094488
 20
0.4809094488188976
 30
0.0
 10
0.0268149606299213
 20
0.4857992125984252
 30
0.0
 10
0.0268149606299213
 20
0.4857992125984252
 30
0.0
 10
0.0218976377952756
 20
0.4906889763779528
 30
0.0
 10
0.015507874015748
 20
0.4931062992125985
 30
0.0
 10
0.0076496062992126
 20
0.4931062992125985
 30
0.0
 10
0.0076496062992126
 20
0.4931062992125985
 30
0.0
 10
0.002007874015748
 20
0.4931062992125985
 30
0.0
 10
-0.0030472440944882
 20
0.4919094488188976
 30
0.0
 10
-0.0074645669291339
 20
0.4894645669291339
 30
0.0
 10
-0.0074645669291339
 20
0.4894645669291339
 30
0.0
 10
-0.0118779527559055
 20
0.4870236220472441
 30
0.0
 10
-0.0153503937007874
 20
0.4836062992125985
 30
0.0
 10
-0.0179055118110236
 20
0.4791889763779528
 30
0.0
 10
-0.0179055118110236
 20
0.4791889763779528
 30
0.0
 10
-0.0204645669291339
 20
0.4747992125984252
 30
0.0
 10
-0.021740157480315
 20
0.4700511811023622
 30
0.0
 10
-0.021740157480315
 20
0.4649645669291339
 30
0.0
 10
-0.021740157480315
 20
0.4649645669291339
 30
0.0
 10
-0.021740157480315
 20
0.4630511811023622
 30
0.0
 10
-0.0216023622047244
 20
0.4606889763779528
 30
0.0
 10
-0.0213228346456693
 20
0.4578818897637795
 30
0.0
  0
SPLINE
  5
37
330
1F
100
AcDbEntity
  8
LAYER_1
 62
   250
100
AcDbSpline
210
0.0
220
0.0
230
1.0
 70
    11
 71
     3
 72
    76
 73
    72
 74
     0
 42
0.0000000001
 43
0.0000000001
 40
0.0
 40
0.0
 40
0.0
 40
0.0
 40
0.0555555555555556
 40
0.0555555555555556
 40
0.0555555555555556
 40
0.0555555555555556
 40
0.1111111111111111
 40
0.1111111111111111
 40
0.1111111111111111
 40
0.1111111111111111
 40
0.1666666666666667
 40
0.1666666666666667
 40
0.1666666666666667
 40
0.1666666666666667
 40
0.2222222222222222
 40
0.2222222222222222
 40
0.2222222222222222
 40
0.2222222222222222
 40
0.2777777777777778
 40
0.2777777777777778
 40
0.2777777777777778
 40
0.2777777777777778
 40
0.3333333333333334
 40
0.3333333333333334
 40
0.3333333333333334
 40
0.3333333333333334
 40
0.388888888888889
 40
0.388888888888889
 40
0.388888888888889
 40
0.388888888888889
 40
0.4444444444444445
 40
0.4444444444444445
 40
0.4444444444444445
 40
0.4444444444444445
 40
0.5000000000000001
 40
0.5000000000000001
 40
0.5000000000000001
 40
0.5000000000000001
 40
0.5555555555555557
 40
0.5555555555555557
 40
0.5555555555555557
 40
0.5555555555555557
 40
0.6111111111111113
 40
0.6111111111111113
 40
0.6111111111111113
 40
0.6111111111111113
 40
0.6666666666666669
 40
0.6666666666666669
 40
0.6666666666666669
 40
0.6666666666666669
 40
0.7222222222222224
 40
0.7222222222222224
 40
0.7222222222222224
 40
0.7222222222222224
 40
0.777777777777778
 40
0.777777777777778
 40
0.777777777777778
 40
0.777777777777778
 40
0.8333333333333336
 40
0.8333333333333336
 40
0.8333333333333336
 40
0.8333333333333336
 40
0.8888888888888892
 40
0.8888888888888892
 40
0.8888888888888892
 40
0.8888888888888892
 40
0.9444444444444448
 40
0.9444444444444448
 40
0.9444444444444448
 40
0.9444444444444448
 40
1.0
 40
1.0
 40
1.0
 40
1.0
 10
0.1275944881889764
 20
0.4501614173228347
 30
0.0
 10
0.1340118110236221
 20
0.4477165354330709
 30
0.0
 10
0.1388976377952756
 20
0.4454094488188977
 30
0.0
 10
0.142259842519685
 20
0.443244094488189
 30
0.0
 10
0.142259842519685
 20
0.443244094488189
 30
0.0
 10
0.1471771653543307
 20
0.4400787401574803
 30
0.0
 10
0.1508976377952756
 20
0.4363818897637796
 30
0.0
 10
0.1533976377952756
 20
0.4321338582677166
 30
0.0
 10
0.1533976377952756
 20
0.4321338582677166
 30
0.0
 10
0.1558976377952756
 20
0.4278543307086614
 30
0.0
 10
0.1571496062992126
 20
0.423244094488189
 30
0.0
 10
0.1571496062992126
 20
0.418244094488189
 30
0.0
 10
0.1571496062992126
 20
0.418244094488189
 30
0.0
 10
0.1571496062992126
 20
0.4092992125984252
 30
0.0
 10
0.1532874015748032
 20
0.4015511811023622
 30
0.0
 10
0.1455944881889764
 20
0.3950236220472441
 30
0.0
 10
0.1455944881889764
 20
0.3950236220472441
 30
0.0
 10
0.1378700787401575
 20
0.3884685039370079
 30
0.0
 10
0.1274842519685039
 20
0.3852165354330709
 30
0.0
 10
0.1144251968503937
 20
0.3852165354330709
 30
0.0
 10
0.1144251968503937
 20
0.3852165354330709
 30
0.0
 10
0.1005944881889764
 20
0.3852165354330709
 30
0.0
 10
0.0897322834645669
 20
0.3889094488188977
 30
0.0
 10
0.0818700787401575
 20
0.3962716535433071
 30
0.0
 10
0.0818700787401575
 20
0.3962716535433071
 30
0.0
 10
0.0756220472440945
 20
0.4021889763779528
 30
0.0
 10
0.072511811023622
 20
0.4088818897637795
 30
0.0
 10
0.072511811023622
 20
0.4163818897637795
 30
0.0
 10
0.072511811023622
 20
0.4163818897637795
 30
0.0
 10
0.072511811023622
 20
0.4224094488188976
 30
0.0
 10
0.0746220472440945
 20
0.4277992125984252
 30
0.0
 10
0.0788425196850394
 20
0.4325787401574803
 30
0.0
 10
0.0788425196850394
 20
0.4325787401574803
 30
0.0
 10
0.0839566929133858
 20
0.4382716535433071
 30
0.0
 10
0.0912322834645669
 20
0.4427165354330709
 30
0.0
 10
0.1006771653543307
 20
0.4459094488188977
 30
0.0
 10
0.1006771653543307
 20
0.4459094488188977
 30
0.0
 10
0.0932874015748032
 20
0.4493818897637795
 30
0.0
 10
0.0879842519685039
 20
0.4529094488188977
 30
0.0
 10
0.0847047244094488
 20
0.456496062992126
 30
0.0
 10
0.0847047244094488
 20
0.456496062992126
 30
0.0
 10
0.0805393700787402
 20
0.4612165354330709
 30
0.0
 10
0.0784566929133858
 20
0.4668818897637795
 30
0.0
 10
0.0784566929133858
 20
0.473492125984252
 30
0.0
 10
0.0784566929133858
 20
0.473492125984252
 30
0.0
 10
0.0784566929133858
 20
0.4816889763779528
 30
0.0
 10
0.0815393700787402
 20
0.4883267716535433
 30
0.0
 10
0.0877322834645669
 20
0.4933543307086614
 30
0.0
 10
0.0877322834645669
 20
0.4933543307086614
 30
0.0
 10
0.0953149606299213
 20
0.4995511811023622
 30
0.0
 10
0.1048149606299213
 20
0.5026338582677166
 30
0.0
 10
0.1162047244094488
 20
0.5026338582677166
 30
0.0
 10
0.1162047244094488
 20
0.5026338582677166
 30
0.0
 10
0.1266220472440945
 20
0.5026338582677166
 30
0.0
 10
0.1350393700787402
 20
0.4999645669291339
 30
0.0
 10
0.141484251968504
 20
0.4946338582677166
 30
0.0
 10
0.141484251968504
 20
0.4946338582677166
 30
0.0
 10
0.1478976377952756
 20
0.4892716535433071
 30
0.0
 10
0.1511220472440945
 20
0.4831614173228347
 30
0.0
 10
0.1511220472440945
 20
0.4762716535433071
 30
0.0
 10
0.1511220472440945
 20
0.4762716535433071
 30
0.0
 10
0.1511220472440945
 20
0.4728543307086615
 30
0.0
 10
0.1503149606299213
 20
0.4695787401574804
 30
0.0
 10
0.1487322834645669
 20
0.4664645669291339
 30
0.0
 10
0.1487322834645669
 20
0.4664645669291339
 30
0.0
 10
0.1471220472440945
 20
0.4633543307086614
 30
0.0
 10
0.1446771653543307
 20
0.4604370078740158
 30
0.0
 10
0.1413425196850394
 20
0.4577716535433071
 30
0.0
 10
0.1413425196850394
 20
0.4577716535433071
 30
0.0
 10
0.1380393700787402
 20
0.4550787401574803
 30
0.0
 10
0.1334527559055118
 20
0.4525511811023622
 30
0.0
 10
0.1275944881889764
 20
0.4501614173228347
 30
0.0
  0
SPLINE
  5
38
330
1F
100
AcDbEntity
  8
LAYER_1
 62
   250
100
AcDbSpline
210
0.0
220
0.0
230
1.0
 70
    11
 71
     3
 72
    48
 73
    44
 74
     0
 42
0.0000000001
 43
0.0000000001
 40
0.0
 40
0.0
 40
0.0
 40
0.0
 40
0.0909090909090909
 40
0.0909090909090909
 40
0.0909090909090909
 40
0.0909090909090909
 40
0.1818181818181818
 40
0.1818181818181818
 40
0.1818181818181818
 40
0.1818181818181818
 40
0.2727272727272727
 40
0.2727272727272727
 40
0.2727272727272727
 40
0.2727272727272727
 40
0.3636363636363637
 40
0.3636363636363637
 40
0.3636363636363637
 40
0.3636363636363637
 40
0.4545454545454546
 40
0.4545454545454546
 40
0.4545454545454546
 40
0.4545454545454546
 40
0.5454545454545455
 40
0.5454545454545455
 40
0.5454545454545455
 40
0.5454545454545455
 40
0.6363636363636365
 40
0.6363636363636365
 40
0.6363636363636365
 40
0.6363636363636365
 40
0.7272727272727274
 40
0.7272727272727274
 40
0.7272727272727274
 40
0.7272727272727274
 40
0.8181818181818183
 40
0.8181818181818183
 40
0.8181818181818183
 40
0.8181818181818183
 40
0.9090909090909093
 40
0.9090909090909093
 40
0.9090909090909093
 40
0.9090909090909093
 40
1.0
 40
1.0
 40
1.0
 40
1.0
 10
0.1202047244094488
 20
0.4531614173228347
 30
0.0
 10
0.1263700787401575
 20
0.4578267716535434
 30
0.0
 10
0.1303976377952756
 20
0.4610787401574804
 30
0.0
 10
0.132232283464567
 20
0.4629370078740158
 30
0.0
 10
0.132232283464567
 20
0.4629370078740158
 30
0.0
 10
0.1340944881889764
 20
0.4647716535433071
 30
0.0
 10
0.1355118110236221
 20
0.4668818897637795
 30
0.0
 10
0.1365118110236221
 20
0.469244094488189
 30
0.0
 10
0.1365118110236221
 20
0.469244094488189
 30
0.0
 10
0.1375118110236221
 20
0.4716062992125985
 30
0.0
 10
0.1380118110236221
 20
0.4738818897637795
 30
0.0
 10
0.1380118110236221
 20
0.4761062992125985
 30
0.0
 10
0.1380118110236221
 20
0.4761062992125985
 30
0.0
 10
0.1380118110236221
 20
0.4792992125984252
 30
0.0
 10
0.1370669291338583
 20
0.4823543307086615
 30
0.0
 10
0.1351771653543307
 20
0.4852716535433071
 30
0.0
 10
0.1351771653543307
 20
0.4852716535433071
 30
0.0
 10
0.133259842519685
 20
0.4881614173228347
 30
0.0
 10
0.1304842519685039
 20
0.4905236220472441
 30
0.0
 10
0.1268149606299213
 20
0.4922992125984252
 30
0.0
 10
0.1268149606299213
 20
0.4922992125984252
 30
0.0
 10
0.1231771653543307
 20
0.4941062992125985
 30
0.0
 10
0.1190669291338583
 20
0.494992125984252
 30
0.0
 10
0.1145118110236221
 20
0.494992125984252
 30
0.0
 10
0.1145118110236221
 20
0.494992125984252
 30
0.0
 10
0.107759842519685
 20
0.494992125984252
 30
0.0
 10
0.1021771653543307
 20
0.4931338582677166
 30
0.0
 10
0.0977322834645669
 20
0.4894094488188976
 30
0.0
 10
0.0977322834645669
 20
0.4894094488188976
 30
0.0
 10
0.0932874015748032
 20
0.4856889763779528
 30
0.0
 10
0.0910669291338583
 20
0.4814094488188976
 30
0.0
 10
0.0910669291338583
 20
0.4765236220472441
 30
0.0
 10
0.0910669291338583
 20
0.4765236220472441
 30
0.0
 10
0.0910669291338583
 20
0.4726062992125985
 30
0.0
 10
0.0924566929133858
 20
0.4691062992125984
 30
0.0
 10
0.0952047244094488
 20
0.4660236220472441
 30
0.0
 10
0.0952047244094488
 20
0.4660236220472441
 30
0.0
 10
0.0979842519685039
 20
0.4629370078740158
 30
0.0
 10
0.1031220472440945
 20
0.4598818897637795
 30
0.0
 10
0.1106771653543307
 20
0.4569094488188977
 30
0.0
 10
0.1106771653543307
 20
0.4569094488188977
 30
0.0
 10
0.1106771653543307
 20
0.4569094488188977
 30
0.0
 10
0.1202047244094488
 20
0.4531614173228347
 30
0.0
 10
0.1202047244094488
 20
0.4531614173228347
 30
0.0
  0
SPLINE
  5
39
330
1F
100
AcDbEntity
  8
LAYER_1
 62
   250
100
AcDbSpline
210
0.0
220
0.0
230
1.0
 70
    11
 71
     3
 72
    40
 73
    36
 74
     0
 42
0.0000000001
 43
0.0000000001
 40
0.0
 40
0.0
 40
0.0
 40
0.0
 40
0.1111111111111111
 40
0.1111111111111111
 40
0.1111111111111111
 40
0.1111111111111111
 40
0.2222222222222222
 40
0.2222222222222222
 40
0.2222222222222222
 40
0.2222222222222222
 40
0.3333333333333333
 40
0.3333333333333333
 40
0.3333333333333333
 40
0.3333333333333333
 40
0.4444444444444444
 40
0.4444444444444444
 40
0.4444444444444444
 40
0.4444444444444444
 40
0.5555555555555556
 40
0.5555555555555556
 40
0.5555555555555556
 40
0.5555555555555556
 40
0.6666666666666667
 40
0.6666666666666667
 40
0.6666666666666667
 40
0.6666666666666667
 40
0.7777777777777779
 40
0.7777777777777779
 40
0.7777777777777779
 40
0.7777777777777779
 40
0.8888888888888891
 40
0.8888888888888891
 40
0.8888888888888891
 40
0.8888888888888891
 40
1.0
 40
1.0
 40
1.0
 40
1.0
 10
0.1087322834645669
 20
0.442744094488189
 30
0.0
 10
0.1010669291338583
 20
0.4393818897637796
 30
0.0
 10
0.0950118110236221
 20
0.4350236220472441
 30
0.0
 10
0.0905669291338583
 20
0.4296338582677166
 30
0.0
 10
0.0905669291338583
 20
0.4296338582677166
 30
0.0
 10
0.0870944881889764
 20
0.4254094488188976
 30
0.0
 10
0.0853700787401575
 20
0.4210236220472441
 30
0.0
 10
0.0853700787401575
 20
0.4164685039370079
 30
0.0
 10
0.0853700787401575
 20
0.4164685039370079
 30
0.0
 10
0.0853700787401575
 20
0.4102716535433071
 30
0.0
 10
0.0880944881889764
 20
0.4047716535433071
 30
0.0
 10
0.0935944881889764
 20
0.3999685039370079
 30
0.0
 10
0.0935944881889764
 20
0.3999685039370079
 30
0.0
 10
0.0990669291338583
 20
0.3951889763779528
 30
0.0
 10
0.1061496062992126
 20
0.3927716535433071
 30
0.0
 10
0.1148149606299213
 20
0.3927716535433071
 30
0.0
 10
0.1148149606299213
 20
0.3927716535433071
 30
0.0
 10
0.1236771653543307
 20
0.3927716535433071
 30
0.0
 10
0.1310393700787402
 20
0.3955236220472441
 30
0.0
 10
0.1369527559055118
 20
0.400996062992126
 30
0.0
 10
0.1369527559055118
 20
0.400996062992126
 30
0.0
 10
0.1417874015748032
 20
0.4054409448818898
 30
0.0
 10
0.1442047244094488
 20
0.4102165354330709
 30
0.0
 10
0.1442047244094488
 20
0.4153267716535433
 30
0.0
 10
0.1442047244094488
 20
0.4153267716535433
 30
0.0
 10
0.1442047244094488
 20
0.4193267716535433
 30
0.0
 10
0.1426220472440945
 20
0.4231614173228347
 30
0.0
 10
0.1394527559055118
 20
0.4268267716535433
 30
0.0
 10
0.1394527559055118
 20
0.4268267716535433
 30
0.0
 10
0.136259842519685
 20
0.430496062992126
 30
0.0
 10
0.1303700787401575
 20
0.4340511811023622
 30
0.0
 10
0.1217322834645669
 20
0.4375236220472441
 30
0.0
 10
0.1217322834645669
 20
0.4375236220472441
 30
0.0
 10
0.1217322834645669
 20
0.4375236220472441
 30
0.0
 10
0.1087322834645669
 20
0.442744094488189
 30
0.0
 10
0.1087322834645669
 20
0.442744094488189
 30
0.0
  0
SPLINE
  5
3A
330
1F
100
AcDbEntity
  8
LAYER_1
 62
   250
100
AcDbSpline
210
0.0
220
0.0
230
1.0
 70
    11
 71
     3
 72
    72
 73
    68
 74
     0
 42
0.0000000001
 43
0.0000000001
 40
0.0
 40
0.0
 40
0.0
 40
0.0
 40
0.0588235294117647
 40
0.0588235294117647
 40
0.0588235294117647
 40
0.0588235294117647
 40
0.1176470588235294
 40
0.1176470588235294
 40
0.1176470588235294
 40
0.1176470588235294
 40
0.1764705882352941
 40
0.1764705882352941
 40
0.1764705882352941
 40
0.1764705882352941
 40
0.2352941176470588
 40
0.2352941176470588
 40
0.2352941176470588
 40
0.2352941176470588
 40
0.2941176470588235
 40
0.2941176470588235
 40
0.2941176470588235
 40
0.2941176470588235
 40
0.3529411764705883
 40
0.3529411764705883
 40
0.3529411764705883
 40
0.3529411764705883
 40
0.411764705882353
 40
0.411764705882353
 40
0.411764705882353
 40
0.411764705882353
 40
0.4705882352941177
 40
0.4705882352941177
 40
0.4705882352941177
 40
0.4705882352941177
 40
0.5294117647058824
 40
0.5294117647058824
 40
0.5294117647058824
 40
0.5294117647058824
 40
0.5882352941176471
 40
0.5882352941176471
 40
0.5882352941176471
 40
0.5882352941176471
 40
0.6470588235294118
 40
0.6470588235294118
 40
0.6470588235294118
 40
0.6470588235294118
 40
0.7058823529411765
 40
0.7058823529411765
 40
0.7058823529411765
 40
0.7058823529411765
 40
0.7647058823529412
 40
0.7647058823529412
 40
0.7647058823529412
 40
0.7647058823529412
 40
0.823529411764706
 40
0.823529411764706
 40
0.823529411764706
 40
0.823529411764706
 40
0.8823529411764707
 40
0.8823529411764707
 40
0.8823529411764707
 40
0.8823529411764707
 40
0.9411764705882354
 40
0.9411764705882354
 40
0.9411764705882354
 40
0.9411764705882354
 40
1.0
 40
1.0
 40
1.0
 40
1.0
 10
-0.4275314960629921
 20
0.3131889763779528
 30
0.0
 10
-0.4275314960629921
 20
0.3131889763779528
 30
0.0
 10
-0.4214488188976378
 20
0.3131889763779528
 30
0.0
 10
-0.4214488188976378
 20
0.3131889763779528
 30
0.0
 10
-0.4214488188976378
 20
0.3131889763779528
 30
0.0
 10
-0.4214488188976378
 20
0.3131889763779528
 30
0.0
 10
-0.4214488188976378
 20
0.2189409448818898
 30
0.0
 10
-0.4214488188976378
 20
0.2189409448818898
 30
0.0
 10
-0.4214488188976378
 20
0.2189409448818898
 30
0.0
 10
-0.4214488188976378
 20
0.214496062992126
 30
0.0
 10
-0.4211417322834646
 20
0.2116338582677166
 30
0.0
 10
-0.4205866141732284
 20
0.2103543307086614
 30
0.0
 10
-0.4205866141732284
 20
0.2103543307086614
 30
0.0
 10
-0.420003937007874
 20
0.2090787401574803
 30
0.0
 10
-0.4190866141732283
 20
0.2081338582677166
 30
0.0
 10
-0.4177834645669292
 20
0.2074685039370079
 30
0.0
 10
-0.4177834645669292
 20
0.2074685039370079
 30
0.0
 10
-0.4164763779527559
 20
0.2068267716535433
 30
0.0
 10
-0.4138937007874016
 20
0.206496062992126
 30
0.0
 10
-0.4100314960629922
 20
0.206496062992126
 30
0.0
 10
-0.4100314960629922
 20
0.206496062992126
 30
0.0
 10
-0.4100314960629922
 20
0.206496062992126
 30
0.0
 10
-0.4020590551181102
 20
0.206496062992126
 30
0.0
 10
-0.4020590551181102
 20
0.206496062992126
 30
0.0
 10
-0.4020590551181102
 20
0.206496062992126
 30
0.0
 10
-0.4020590551181102
 20
0.206496062992126
 30
0.0
 10
-0.4020590551181102
 20
0.1996614173228347
 30
0.0
 10
-0.4020590551181102
 20
0.1996614173228347
 30
0.0
 10
-0.4020590551181102
 20
0.1996614173228347
 30
0.0
 10
-0.4020590551181102
 20
0.1996614173228347
 30
0.0
 10
-0.4556968503937008
 20
0.1996614173228347
 30
0.0
 10
-0.4556968503937008
 20
0.1996614173228347
 30
0.0
 10
-0.4556968503937008
 20
0.1996614173228347
 30
0.0
 10
-0.4556968503937008
 20
0.1996614173228347
 30
0.0
 10
-0.4556968503937008
 20
0.206496062992126
 30
0.0
 10
-0.4556968503937008
 20
0.206496062992126
 30
0.0
 10
-0.4556968503937008
 20
0.206496062992126
 30
0.0
 10
-0.4556968503937008
 20
0.206496062992126
 30
0.0
 10
-0.4468385826771654
 20
0.206496062992126
 30
0.0
 10
-0.4468385826771654
 20
0.206496062992126
 30
0.0
 10
-0.4468385826771654
 20
0.206496062992126
 30
0.0
 10
-0.4429763779527559
 20
0.206496062992126
 30
0.0
 10
-0.4404212598425197
 20
0.2068267716535433
 30
0.0
 10
-0.4391417322834646
 20
0.2075236220472441
 30
0.0
 10
-0.4391417322834646
 20
0.2075236220472441
 30
0.0
 10
-0.4378661417322835
 20
0.2081889763779528
 30
0.0
 10
-0.4368661417322835
 20
0.2092716535433071
 30
0.0
 10
-0.4361692913385827
 20
0.2107716535433071
 30
0.0
 10
-0.4361692913385827
 20
0.2107716535433071
 30
0.0
 10
-0.4354763779527559
 20
0.2122716535433071
 30
0.0
 10
-0.4351141732283465
 20
0.214996062992126
 30
0.0
 10
-0.4351141732283465
 20
0.2189409448818898
 30
0.0
 10
-0.4351141732283465
 20
0.2189409448818898
 30
0.0
 10
-0.4351141732283465
 20
0.2189409448818898
 30
0.0
 10
-0.4351141732283465
 20
0.2964094488188976
 30
0.0
 10
-0.4351141732283465
 20
0.2964094488188976
 30
0.0
 10
-0.4351141732283465
 20
0.2964094488188976
 30
0.0
 10
-0.4351141732283465
 20
0.2964094488188976
 30
0.0
 10
-0.4556968503937008
 20
0.2964094488188976
 30
0.0
 10
-0.4556968503937008
 20
0.2964094488188976
 30
0.0
 10
-0.4556968503937008
 20
0.2964094488188976
 30
0.0
 10
-0.4556968503937008
 20
0.2964094488188976
 30
0.0
 10
-0.4556968503937008
 20
0.3034094488188976
 30
0.0
 10
-0.4556968503937008
 20
0.3034094488188976
 30
0.0
 10
-0.4556968503937008
 20
0.3034094488188976
 30
0.0
 10
-0.4444763779527559
 20
0.304992125984252
 30
0.0
 10
-0.4350866141732284
 20
0.308244094488189
 30
0.0
 10
-0.4275314960629921
 20
0.3131889763779528
 30
0.0
  0
SPLINE
  5
3B
330
1F
100
AcDbEntity
  8
LAYER_1
 62
   250
100
AcDbSpline
210
0.0
220
0.0
230
1.0
 70
    11
 71
     3
 72
    20
 73
    16
 74
     0
 42
0.0000000001
 43
0.0000000001
 40
0.0
 40
0.0
 40
0.0
 40
0.0
 40
0.25
 40
0.25
 40
0.25
 40
0.25
 40
0.5
 40
0.5
 40
0.5
 40
0.5
 40
0.75
 40
0.75
 40
0.75
 40
0.75
 40
1.0
 40
1.0
 40
1.0
 40
1.0
 10
-0.3710590551181103
 20
0.2461338582677166
 30
0.0
 10
-0.3710590551181103
 20
0.2461338582677166
 30
0.0
 10
-0.3227244094488189
 20
0.2461338582677166
 30
0.0
 10
-0.3227244094488189
 20
0.2461338582677166
 30
0.0
 10
-0.3227244094488189
 20
0.2461338582677166
 30
0.0
 10
-0.3227244094488189
 20
0.2461338582677166
 30
0.0
 10
-0.3227244094488189
 20
0.2360511811023622
 30
0.0
 10
-0.3227244094488189
 20
0.2360511811023622
 30
0.0
 10
-0.3227244094488189
 20
0.2360511811023622
 30
0.0
 10
-0.3227244094488189
 20
0.2360511811023622
 30
0.0
 10
-0.3710590551181103
 20
0.2360511811023622
 30
0.0
 10
-0.3710590551181103
 20
0.2360511811023622
 30
0.0
 10
-0.3710590551181103
 20
0.2360511811023622
 30
0.0
 10
-0.3710590551181103
 20
0.2360511811023622
 30
0.0
 10
-0.3710590551181103
 20
0.2461338582677166
 30
0.0
 10
-0.3710590551181103
 20
0.2461338582677166
 30
0.0
  0
SPLINE
  5
3C
330
1F
100
AcDbEntity
  8
LAYER_1
 62
   250
100
AcDbSpline
210
0.0
220
0.0
230
1.0
 70
    11
 71
     3
 72
    80
 73
    76
 74
     0
 42
0.0000000001
 43
0.0000000001
 40
0.0
 40
0.0
 40
0.0
 40
0.0
 40
0.0526315789473684
 40
0.0526315789473684
 40
0.0526315789473684
 40
0.0526315789473684
 40
0.1052631578947368
 40
0.1052631578947368
 40
0.1052631578947368
 40
0.1052631578947368
 40
0.1578947368421053
 40
0.1578947368421053
 40
0.1578947368421053
 40
0.1578947368421053
 40
0.2105263157894737
 40
0.2105263157894737
 40
0.2105263157894737
 40
0.2105263157894737
 40
0.2631578947368421
 40
0.2631578947368421
 40
0.2631578947368421
 40
0.2631578947368421
 40
0.3157894736842105
 40
0.3157894736842105
 40
0.3157894736842105
 40
0.3157894736842105
 40
0.3684210526315789
 40
0.3684210526315789
 40
0.3684210526315789
 40
0.3684210526315789
 40
0.4210526315789474
 40
0.4210526315789474
 40
0.4210526315789474
 40
0.4210526315789474
 40
0.4736842105263158
 40
0.4736842105263158
 40
0.4736842105263158
 40
0.4736842105263158
 40
0.5263157894736842
 40
0.5263157894736842
 40
0.5263157894736842
 40
0.5263157894736842
 40
0.5789473684210527
 40
0.5789473684210527
 40
0.5789473684210527
 40
0.5789473684210527
 40
0.631578947368421
 40
0.631578947368421
 40
0.631578947368421
 40
0.631578947368421
 40
0.6842105263157894
 40
0.6842105263157894
 40
0.6842105263157894
 40
0.6842105263157894
 40
0.7368421052631577
 40
0.7368421052631577
 40
0.7368421052631577
 40
0.7368421052631577
 40
0.7894736842105261
 40
0.7894736842105261
 40
0.7894736842105261
 40
0.7894736842105261
 40
0.8421052631578945
 40
0.8421052631578945
 40
0.8421052631578945
 40
0.8421052631578945
 40
0.8947368421052628
 40
0.8947368421052628
 40
0.8947368421052628
 40
0.8947368421052628
 40
0.9473684210526312
 40
0.9473684210526312
 40
0.9473684210526312
 40
0.9473684210526312
 40
1.0
 40
1.0
 40
1.0
 40
1.0
 10
-0.2954763779527559
 20
0.3173267716535433
 30
0.0
 10
-0.2954763779527559
 20
0.3173267716535433
 30
0.0
 10
-0.2900866141732283
 20
0.3173267716535433
 30
0.0
 10
-0.2900866141732283
 20
0.3173267716535433
 30
0.0
 10
-0.2900866141732283
 20
0.3173267716535433
 30
0.0
 10
-0.2900866141732283
 20
0.3173267716535433
 30
0.0
 10
-0.2891141732283465
 20
0.3131889763779528
 30
0.0
 10
-0.2891141732283465
 20
0.3131889763779528
 30
0.0
 10
-0.2891141732283465
 20
0.3131889763779528
 30
0.0
 10
-0.2891141732283465
 20
0.3131889763779528
 30
0.0
 10
-0.218003937007874
 20
0.3131889763779528
 30
0.0
 10
-0.218003937007874
 20
0.3131889763779528
 30
0.0
 10
-0.218003937007874
 20
0.3131889763779528
 30
0.0
 10
-0.218003937007874
 20
0.3131889763779528
 30
0.0
 10
-0.218003937007874
 20
0.3062716535433071
 30
0.0
 10
-0.218003937007874
 20
0.3062716535433071
 30
0.0
 10
-0.218003937007874
 20
0.3062716535433071
 30
0.0
 10
-0.226503937007874
 20
0.2964370078740158
 30
0.0
 10
-0.2342283464566929
 20
0.2852716535433071
 30
0.0
 10
-0.2411417322834646
 20
0.2726889763779528
 30
0.0
 10
-0.2411417322834646
 20
0.2726889763779528
 30
0.0
 10
-0.2480590551181102
 20
0.2601338582677166
 30
0.0
 10
-0.2534212598425197
 20
0.2473543307086614
 30
0.0
 10
-0.2572283464566929
 20
0.2343267716535433
 30
0.0
 10
-0.2572283464566929
 20
0.2343267716535433
 30
0.0
 10
-0.2599763779527559
 20
0.2249409448818898
 30
0.0
 10
-0.2622244094488189
 20
0.2133818897637795
 30
0.0
 10
-0.2639763779527559
 20
0.1996614173228347
 30
0.0
 10
-0.2639763779527559
 20
0.1996614173228347
 30
0.0
 10
-0.2639763779527559
 20
0.1996614173228347
 30
0.0
 10
-0.2806417322834646
 20
0.1996614173228347
 30
0.0
 10
-0.2806417322834646
 20
0.1996614173228347
 30
0.0
 10
-0.2806417322834646
 20
0.1996614173228347
 30
0.0
 10
-0.2790314960629922
 20
0.2117716535433071
 30
0.0
 10
-0.2763661417322835
 20
0.2230787401574803
 30
0.0
 10
-0.2726417322834646
 20
0.2336062992125984
 30
0.0
 10
-0.2726417322834646
 20
0.2336062992125984
 30
0.0
 10
-0.2689212598425197
 20
0.2441338582677166
 30
0.0
 10
-0.2635590551181102
 20
0.2551338582677166
 30
0.0
 10
-0.2565314960629921
 20
0.2666062992125984
 30
0.0
 10
-0.2565314960629921
 20
0.2666062992125984
 30
0.0
 10
-0.249503937007874
 20
0.2780787401574804
 30
0.0
 10
-0.2409763779527559
 20
0.2895236220472441
 30
0.0
 10
-0.2309212598425197
 20
0.3009645669291339
 30
0.0
 10
-0.2309212598425197
 20
0.3009645669291339
 30
0.0
 10
-0.2309212598425197
 20
0.3009645669291339
 30
0.0
 10
-0.2816417322834646
 20
0.3009645669291339
 30
0.0
 10
-0.2816417322834646
 20
0.3009645669291339
 30
0.0
 10
-0.2816417322834646
 20
0.3009645669291339
 30
0.0
 10
-0.2853110236220472
 20
0.3009645669291339
 30
0.0
 10
-0.2878385826771654
 20
0.3007992125984252
 30
0.0
 10
-0.2891968503937008
 20
0.3004094488188976
 30
0.0
 10
-0.2891968503937008
 20
0.3004094488188976
 30
0.0
 10
-0.2905590551181103
 20
0.3000236220472441
 30
0.0
 10
-0.2916141732283465
 20
0.2994370078740158
 30
0.0
 10
-0.2923661417322835
 20
0.2986338582677166
 30
0.0
 10
-0.2923661417322835
 20
0.2986338582677166
 30
0.0
 10
-0.2931417322834646
 20
0.2977992125984252
 30
0.0
 10
-0.2937834645669292
 20
0.2963543307086614
 30
0.0
 10
-0.2943385826771653
 20
0.2942992125984252
 30
0.0
 10
-0.2943385826771653
 20
0.2942992125984252
 30
0.0
 10
-0.2943385826771653
 20
0.2942992125984252
 30
0.0
 10
-0.2947244094488189
 20
0.2927716535433071
 30
0.0
 10
-0.2947244094488189
 20
0.2927716535433071
 30
0.0
 10
-0.2947244094488189
 20
0.2927716535433071
 30
0.0
 10
-0.2947244094488189
 20
0.2927716535433071
 30
0.0
 10
-0.297503937007874
 20
0.2831614173228347
 30
0.0
 10
-0.297503937007874
 20
0.2831614173228347
 30
0.0
 10
-0.297503937007874
 20
0.2831614173228347
 30
0.0
 10
-0.297503937007874
 20
0.2831614173228347
 30
0.0
 10
-0.3044212598425197
 20
0.2846338582677165
 30
0.0
 10
-0.3044212598425197
 20
0.2846338582677165
 30
0.0
 10
-0.3044212598425197
 20
0.2846338582677165
 30
0.0
 10
-0.3044212598425197
 20
0.2846338582677165
 30
0.0
 10
-0.2954763779527559
 20
0.3173267716535433
 30
0.0
 10
-0.2954763779527559
 20
0.3173267716535433
 30
0.0
  0
SPLINE
  5
3D
330
1F
100
AcDbEntity
  8
LAYER_1
 62
   250
100
AcDbSpline
210
0.0
220
0.0
230
1.0
 70
    11
 71
     3
 72
    20
 73
    16
 74
     0
 42
0.0000000001
 43
0.0000000001
 40
0.0
 40
0.0
 40
0.0
 40
0.0
 40
0.25
 40
0.25
 40
0.25
 40
0.25
 40
0.5
 40
0.5
 40
0.5
 40
0.5
 40
0.75
 40
0.75
 40
0.75
 40
0.75
 40
1.0
 40
1.0
 40
1.0
 40
1.0
 10
-0.1286968503937008
 20
0.3190511811023622
 30
0.0
 10
-0.1286968503937008
 20
0.3190511811023622
 30
0.0
 10
-0.1842795275590551
 20
0.1633543307086614
 30
0.0
 10
-0.1842795275590551
 20
0.1633543307086614
 30
0.0
 10
-0.1842795275590551
 20
0.1633543307086614
 30
0.0
 10
-0.1842795275590551
 20
0.1633543307086614
 30
0.0
 10
-0.1963346456692914
 20
0.1633543307086614
 30
0.0
 10
-0.1963346456692914
 20
0.1633543307086614
 30
0.0
 10
-0.1963346456692914
 20
0.1633543307086614
 30
0.0
 10
-0.1963346456692914
 20
0.1633543307086614
 30
0.0
 10
-0.1410866141732284
 20
0.3190511811023622
 30
0.0
 10
-0.1410866141732284
 20
0.3190511811023622
 30
0.0
 10
-0.1410866141732284
 20
0.3190511811023622
 30
0.0
 10
-0.1410866141732284
 20
0.3190511811023622
 30
0.0
 10
-0.1286968503937008
 20
0.3190511811023622
 30
0.0
 10
-0.1286968503937008
 20
0.3190511811023622
 30
0.0
  0
SPLINE
  5
3E
330
1F
100
AcDbEntity
  8
LAYER_1
 62
   250
100
AcDbSpline
210
0.0
220
0.0
230
1.0
 70
    11
 71
     3
 72
    76
 73
    72
 74
     0
 42
0.0000000001
 43
0.0000000001
 40
0.0
 40
0.0
 40
0.0
 40
0.0
 40
0.0555555555555556
 40
0.0555555555555556
 40
0.0555555555555556
 40
0.0555555555555556
 40
0.1111111111111111
 40
0.1111111111111111
 40
0.1111111111111111
 40
0.1111111111111111
 40
0.1666666666666667
 40
0.1666666666666667
 40
0.1666666666666667
 40
0.1666666666666667
 40
0.2222222222222222
 40
0.2222222222222222
 40
0.2222222222222222
 40
0.2222222222222222
 40
0.2777777777777778
 40
0.2777777777777778
 40
0.2777777777777778
 40
0.2777777777777778
 40
0.3333333333333334
 40
0.3333333333333334
 40
0.3333333333333334
 40
0.3333333333333334
 40
0.388888888888889
 40
0.388888888888889
 40
0.388888888888889
 40
0.388888888888889
 40
0.4444444444444445
 40
0.4444444444444445
 40
0.4444444444444445
 40
0.4444444444444445
 40
0.5000000000000001
 40
0.5000000000000001
 40
0.5000000000000001
 40
0.5000000000000001
 40
0.5555555555555557
 40
0.5555555555555557
 40
0.5555555555555557
 40
0.5555555555555557
 40
0.6111111111111113
 40
0.6111111111111113
 40
0.6111111111111113
 40
0.6111111111111113
 40
0.6666666666666669
 40
0.6666666666666669
 40
0.6666666666666669
 40
0.6666666666666669
 40
0.7222222222222224
 40
0.7222222222222224
 40
0.7222222222222224
 40
0.7222222222222224
 40
0.777777777777778
 40
0.777777777777778
 40
0.777777777777778
 40
0.777777777777778
 40
0.8333333333333336
 40
0.8333333333333336
 40
0.8333333333333336
 40
0.8333333333333336
 40
0.8888888888888892
 40
0.8888888888888892
 40
0.8888888888888892
 40
0.8888888888888892
 40
0.9444444444444448
 40
0.9444444444444448
 40
0.9444444444444448
 40
0.9444444444444448
 40
1.0
 40
1.0
 40
1.0
 40
1.0
 10
-0.0456968503937008
 20
0.2626614173228347
 30
0.0
 10
-0.0392795275590551
 20
0.2602165354330709
 30
0.0
 10
-0.0343937007874016
 20
0.2579094488188977
 30
0.0
 10
-0.0310314960629921
 20
0.255744094488189
 30
0.0
 10
-0.0310314960629921
 20
0.255744094488189
 30
0.0
 10
-0.0261141732283465
 20
0.2525787401574803
 30
0.0
 10
-0.0223937007874016
 20
0.2488818897637795
 30
0.0
 10
-0.0198937007874016
 20
0.2446338582677166
 30
0.0
 10
-0.0198937007874016
 20
0.2446338582677166
 30
0.0
 10
-0.0173937007874016
 20
0.2403543307086614
 30
0.0
 10
-0.0161417322834646
 20
0.235744094488189
 30
0.0
 10
-0.0161417322834646
 20
0.230744094488189
 30
0.0
 10
-0.0161417322834646
 20
0.230744094488189
 30
0.0
 10
-0.0161417322834646
 20
0.2217992125984252
 30
0.0
 10
-0.020003937007874
 20
0.2140511811023622
 30
0.0
 10
-0.0276968503937008
 20
0.2075236220472441
 30
0.0
 10
-0.0276968503937008
 20
0.2075236220472441
 30
0.0
 10
-0.0354212598425197
 20
0.2009685039370079
 30
0.0
 10
-0.0458070866141732
 20
0.1977165354330709
 30
0.0
 10
-0.0588661417322835
 20
0.1977165354330709
 30
0.0
 10
-0.0588661417322835
 20
0.1977165354330709
 30
0.0
 10
-0.0726968503937008
 20
0.1977165354330709
 30
0.0
 10
-0.0835590551181102
 20
0.2014094488188976
 30
0.0
 10
-0.0914212598425197
 20
0.2087716535433071
 30
0.0
 10
-0.0914212598425197
 20
0.2087716535433071
 30
0.0
 10
-0.0976692913385827
 20
0.2146889763779528
 30
0.0
 10
-0.1007795275590551
 20
0.2213818897637795
 30
0.0
 10
-0.1007795275590551
 20
0.2288818897637795
 30
0.0
 10
-0.1007795275590551
 20
0.2288818897637795
 30
0.0
 10
-0.1007795275590551
 20
0.2349094488188976
 30
0.0
 10
-0.0986692913385827
 20
0.2402992125984252
 30
0.0
 10
-0.0944488188976378
 20
0.2450787401574803
 30
0.0
 10
-0.0944488188976378
 20
0.2450787401574803
 30
0.0
 10
-0.0893346456692913
 20
0.2507716535433071
 30
0.0
 10
-0.0820590551181102
 20
0.2552165354330709
 30
0.0
 10
-0.0726141732283465
 20
0.2584094488188977
 30
0.0
 10
-0.0726141732283465
 20
0.2584094488188977
 30
0.0
 10
-0.080003937007874
 20
0.2618818897637795
 30
0.0
 10
-0.0853070866141732
 20
0.2654094488188977
 30
0.0
 10
-0.0885866141732284
 20
0.268996062992126
 30
0.0
 10
-0.0885866141732284
 20
0.268996062992126
 30
0.0
 10
-0.092751968503937
 20
0.2737165354330709
 30
0.0
 10
-0.0948346456692913
 20
0.2793818897637795
 30
0.0
 10
-0.0948346456692913
 20
0.285992125984252
 30
0.0
 10
-0.0948346456692913
 20
0.285992125984252
 30
0.0
 10
-0.0948346456692913
 20
0.2941889763779528
 30
0.0
 10
-0.091751968503937
 20
0.3008267716535433
 30
0.0
 10
-0.0855590551181102
 20
0.3058543307086614
 30
0.0
 10
-0.0855590551181102
 20
0.3058543307086614
 30
0.0
 10
-0.0779763779527559
 20
0.3120511811023622
 30
0.0
 10
-0.0684763779527559
 20
0.3151338582677166
 30
0.0
 10
-0.0570866141732283
 20
0.3151338582677166
 30
0.0
 10
-0.0570866141732283
 20
0.3151338582677166
 30
0.0
 10
-0.0466692913385827
 20
0.3151338582677166
 30
0.0
 10
-0.038251968503937
 20
0.3124645669291339
 30
0.0
 10
-0.0318070866141732
 20
0.3071338582677166
 30
0.0
 10
-0.0318070866141732
 20
0.3071338582677166
 30
0.0
 10
-0.0253937007874016
 20
0.3017716535433071
 30
0.0
 10
-0.0221692913385827
 20
0.2956614173228346
 30
0.0
 10
-0.0221692913385827
 20
0.2887716535433071
 30
0.0
 10
-0.0221692913385827
 20
0.2887716535433071
 30
0.0
 10
-0.0221692913385827
 20
0.2853543307086615
 30
0.0
 10
-0.0229763779527559
 20
0.2820787401574803
 30
0.0
 10
-0.0245590551181102
 20
0.2789645669291339
 30
0.0
 10
-0.0245590551181102
 20
0.2789645669291339
 30
0.0
 10
-0.0261692913385827
 20
0.2758543307086614
 30
0.0
 10
-0.0286141732283465
 20
0.2729370078740158
 30
0.0
 10
-0.0319488188976378
 20
0.2702716535433071
 30
0.0
 10
-0.0319488188976378
 20
0.2702716535433071
 30
0.0
 10
-0.035251968503937
 20
0.2675787401574803
 30
0.0
 10
-0.0398385826771654
 20
0.2650511811023622
 30
0.0
 10
-0.0456968503937008
 20
0.2626614173228347
 30
0.0
  0
SPLINE
  5
3F
330
1F
100
AcDbEntity
  8
LAYER_1
 62
   250
100
AcDbSpline
210
0.0
220
0.0
230
1.0
 70
    11
 71
     3
 72
    48
 73
    44
 74
     0
 42
0.0000000001
 43
0.0000000001
 40
0.0
 40
0.0
 40
0.0
 40
0.0
 40
0.0909090909090909
 40
0.0909090909090909
 40
0.0909090909090909
 40
0.0909090909090909
 40
0.1818181818181818
 40
0.1818181818181818
 40
0.1818181818181818
 40
0.1818181818181818
 40
0.2727272727272727
 40
0.2727272727272727
 40
0.2727272727272727
 40
0.2727272727272727
 40
0.3636363636363637
 40
0.3636363636363637
 40
0.3636363636363637
 40
0.3636363636363637
 40
0.4545454545454546
 40
0.4545454545454546
 40
0.4545454545454546
 40
0.4545454545454546
 40
0.5454545454545455
 40
0.5454545454545455
 40
0.5454545454545455
 40
0.5454545454545455
 40
0.6363636363636365
 40
0.6363636363636365
 40
0.6363636363636365
 40
0.6363636363636365
 40
0.7272727272727274
 40
0.7272727272727274
 40
0.7272727272727274
 40
0.7272727272727274
 40
0.8181818181818183
 40
0.8181818181818183
 40
0.8181818181818183
 40
0.8181818181818183
 40
0.9090909090909093
 40
0.9090909090909093
 40
0.9090909090909093
 40
0.9090909090909093
 40
1.0
 40
1.0
 40
1.0
 40
1.0
 10
-0.0530866141732283
 20
0.2656614173228347
 30
0.0
 10
-0.0469212598425197
 20
0.2703267716535433
 30
0.0
 10
-0.0428937007874016
 20
0.2735787401574804
 30
0.0
 10
-0.0410590551181102
 20
0.2754370078740158
 30
0.0
 10
-0.0410590551181102
 20
0.2754370078740158
 30
0.0
 10
-0.0391968503937008
 20
0.2772716535433071
 30
0.0
 10
-0.0377795275590551
 20
0.2793818897637795
 30
0.0
 10
-0.0367795275590551
 20
0.281744094488189
 30
0.0
 10
-0.0367795275590551
 20
0.281744094488189
 30
0.0
 10
-0.0357795275590551
 20
0.2841062992125985
 30
0.0
 10
-0.0352795275590551
 20
0.2863818897637795
 30
0.0
 10
-0.0352795275590551
 20
0.2886062992125985
 30
0.0
 10
-0.0352795275590551
 20
0.2886062992125985
 30
0.0
 10
-0.0352795275590551
 20
0.2917992125984252
 30
0.0
 10
-0.0362244094488189
 20
0.2948543307086614
 30
0.0
 10
-0.0381141732283465
 20
0.2977716535433071
 30
0.0
 10
-0.0381141732283465
 20
0.2977716535433071
 30
0.0
 10
-0.0400314960629921
 20
0.3006614173228346
 30
0.0
 10
-0.0428070866141732
 20
0.3030236220472441
 30
0.0
 10
-0.0464763779527559
 20
0.3047992125984252
 30
0.0
 10
-0.0464763779527559
 20
0.3047992125984252
 30
0.0
 10
-0.0501141732283465
 20
0.3066062992125984
 30
0.0
 10
-0.0542244094488189
 20
0.307492125984252
 30
0.0
 10
-0.0587795275590551
 20
0.307492125984252
 30
0.0
 10
-0.0587795275590551
 20
0.307492125984252
 30
0.0
 10
-0.0655314960629921
 20
0.307492125984252
 30
0.0
 10
-0.0711141732283465
 20
0.3056338582677166
 30
0.0
 10
-0.0755590551181102
 20
0.3019094488188976
 30
0.0
 10
-0.0755590551181102
 20
0.3019094488188976
 30
0.0
 10
-0.080003937007874
 20
0.2981889763779528
 30
0.0
 10
-0.0822244094488189
 20
0.2939094488188976
 30
0.0
 10
-0.0822244094488189
 20
0.2890236220472441
 30
0.0
 10
-0.0822244094488189
 20
0.2890236220472441
 30
0.0
 10
-0.0822244094488189
 20
0.2851062992125985
 30
0.0
 10
-0.0808346456692913
 20
0.2816062992125984
 30
0.0
 10
-0.0780866141732283
 20
0.2785236220472441
 30
0.0
 10
-0.0780866141732283
 20
0.2785236220472441
 30
0.0
 10
-0.0753070866141732
 20
0.2754370078740158
 30
0.0
 10
-0.0701692913385827
 20
0.2723818897637795
 30
0.0
 10
-0.0626141732283465
 20
0.2694094488188977
 30
0.0
 10
-0.0626141732283465
 20
0.2694094488188977
 30
0.0
 10
-0.0626141732283465
 20
0.2694094488188977
 30
0.0
 10
-0.0530866141732283
 20
0.2656614173228347
 30
0.0
 10
-0.0530866141732283
 20
0.2656614173228347
 30
0.0
  0
SPLINE
  5
40
330
1F
100
AcDbEntity
  8
LAYER_1
 62
   250
100
AcDbSpline
210
0.0
220
0.0
230
1.0
 70
    11
 71
     3
 72
    40
 73
    36
 74
     0
 42
0.0000000001
 43
0.0000000001
 40
0.0
 40
0.0
 40
0.0
 40
0.0
 40
0.1111111111111111
 40
0.1111111111111111
 40
0.1111111111111111
 40
0.1111111111111111
 40
0.2222222222222222
 40
0.2222222222222222
 40
0.2222222222222222
 40
0.2222222222222222
 40
0.3333333333333333
 40
0.3333333333333333
 40
0.3333333333333333
 40
0.3333333333333333
 40
0.4444444444444444
 40
0.4444444444444444
 40
0.4444444444444444
 40
0.4444444444444444
 40
0.5555555555555556
 40
0.5555555555555556
 40
0.5555555555555556
 40
0.5555555555555556
 40
0.6666666666666667
 40
0.6666666666666667
 40
0.6666666666666667
 40
0.6666666666666667
 40
0.7777777777777779
 40
0.7777777777777779
 40
0.7777777777777779
 40
0.7777777777777779
 40
0.8888888888888891
 40
0.8888888888888891
 40
0.8888888888888891
 40
0.8888888888888891
 40
1.0
 40
1.0
 40
1.0
 40
1.0
 10
-0.0645590551181102
 20
0.255244094488189
 30
0.0
 10
-0.0722244094488189
 20
0.2518818897637795
 30
0.0
 10
-0.0782795275590551
 20
0.2475236220472441
 30
0.0
 10
-0.0827244094488189
 20
0.2421338582677166
 30
0.0
 10
-0.0827244094488189
 20
0.2421338582677166
 30
0.0
 10
-0.0861968503937008
 20
0.2379094488188976
 30
0.0
 10
-0.0879212598425197
 20
0.2335236220472441
 30
0.0
 10
-0.0879212598425197
 20
0.2289685039370079
 30
0.0
 10
-0.0879212598425197
 20
0.2289685039370079
 30
0.0
 10
-0.0879212598425197
 20
0.2227716535433071
 30
0.0
 10
-0.0851968503937008
 20
0.2172716535433071
 30
0.0
 10
-0.0796968503937008
 20
0.2124685039370079
 30
0.0
 10
-0.0796968503937008
 20
0.2124685039370079
 30
0.0
 10
-0.0742244094488189
 20
0.2076889763779528
 30
0.0
 10
-0.0671417322834646
 20
0.2052716535433071
 30
0.0
 10
-0.0584763779527559
 20
0.2052716535433071
 30
0.0
 10
-0.0584763779527559
 20
0.2052716535433071
 30
0.0
 10
-0.0496141732283465
 20
0.2052716535433071
 30
0.0
 10
-0.042251968503937
 20
0.2080236220472441
 30
0.0
 10
-0.0363385826771654
 20
0.213496062992126
 30
0.0
 10
-0.0363385826771654
 20
0.213496062992126
 30
0.0
 10
-0.031503937007874
 20
0.2179409448818898
 30
0.0
 10
-0.0290866141732283
 20
0.2227165354330709
 30
0.0
 10
-0.0290866141732283
 20
0.2278267716535433
 30
0.0
 10
-0.0290866141732283
 20
0.2278267716535433
 30
0.0
 10
-0.0290866141732283
 20
0.2318267716535433
 30
0.0
 10
-0.0306692913385827
 20
0.2356614173228347
 30
0.0
 10
-0.0338385826771654
 20
0.2393267716535433
 30
0.0
 10
-0.0338385826771654
 20
0.2393267716535433
 30
0.0
 10
-0.0370314960629921
 20
0.242996062992126
 30
0.0
 10
-0.0429212598425197
 20
0.2465511811023622
 30
0.0
 10
-0.0515590551181102
 20
0.2500236220472441
 30
0.0
 10
-0.0515590551181102
 20
0.2500236220472441
 30
0.0
 10
-0.0515590551181102
 20
0.2500236220472441
 30
0.0
 10
-0.0645590551181102
 20
0.255244094488189
 30
0.0
 10
-0.0645590551181102
 20
0.255244094488189
 30
0.0
  0
SPLINE
  5
41
330
1F
100
AcDbEntity
  8
LAYER_1
 62
   250
100
AcDbSpline
210
0.0
220
0.0
230
1.0
 70
    11
 71
     3
 72
    60
 73
    56
 74
     0
 42
0.0000000001
 43
0.0000000001
 40
0.0
 40
0.0
 40
0.0
 40
0.0
 40
0.0714285714285714
 40
0.0714285714285714
 40
0.0714285714285714
 40
0.0714285714285714
 40
0.1428571428571429
 40
0.1428571428571429
 40
0.1428571428571429
 40
0.1428571428571429
 40
0.2142857142857143
 40
0.2142857142857143
 40
0.2142857142857143
 40
0.2142857142857143
 40
0.2857142857142857
 40
0.2857142857142857
 40
0.2857142857142857
 40
0.2857142857142857
 40
0.3571428571428571
 40
0.3571428571428571
 40
0.3571428571428571
 40
0.3571428571428571
 40
0.4285714285714285
 40
0.4285714285714285
 40
0.4285714285714285
 40
0.4285714285714285
 40
0.4999999999999999
 40
0.4999999999999999
 40
0.4999999999999999
 40
0.4999999999999999
 40
0.5714285714285713
 40
0.5714285714285713
 40
0.5714285714285713
 40
0.5714285714285713
 40
0.6428571428571427
 40
0.6428571428571427
 40
0.6428571428571427
 40
0.6428571428571427
 40
0.7142857142857141
 40
0.7142857142857141
 40
0.7142857142857141
 40
0.7142857142857141
 40
0.7857142857142855
 40
0.7857142857142855
 40
0.7857142857142855
 40
0.7857142857142855
 40
0.8571428571428569
 40
0.8571428571428569
 40
0.8571428571428569
 40
0.8571428571428569
 40
0.9285714285714283
 40
0.9285714285714283
 40
0.9285714285714283
 40
0.9285714285714283
 40
1.0
 40
1.0
 40
1.0
 40
1.0
 10
0.0033031496062992
 20
0.2711062992125984
 30
0.0
 10
0.0033031496062992
 20
0.2711062992125984
 30
0.0
 10
-0.0010866141732283
 20
0.276496062992126
 30
0.0
 10
-0.0010866141732283
 20
0.276496062992126
 30
0.0
 10
-0.0010866141732283
 20
0.276496062992126
 30
0.0
 10
0.0100275590551181
 20
0.2855511811023622
 30
0.0
 10
0.0156102362204724
 20
0.2931062992125985
 30
0.0
 10
0.0156102362204724
 20
0.2991889763779528
 30
0.0
 10
0.0156102362204724
 20
0.2991889763779528
 30
0.0
 10
0.0156102362204724
 20
0.2998818897637796
 30
0.0
 10
0.0155551181102362
 20
0.3007716535433071
 30
0.0
 10
0.0154409448818898
 20
0.3017992125984252
 30
0.0
 10
0.0154409448818898
 20
0.3017992125984252
 30
0.0
 10
0.0145275590551181
 20
0.3014094488188976
 30
0.0
 10
0.0136102362204724
 20
0.3011062992125985
 30
0.0
 10
0.012748031496063
 20
0.3009094488188976
 30
0.0
 10
0.012748031496063
 20
0.3009094488188976
 30
0.0
 10
0.0118858267716535
 20
0.3006889763779528
 30
0.0
 10
0.0110826771653543
 20
0.3005787401574803
 30
0.0
 10
0.0103031496062992
 20
0.3005787401574803
 30
0.0
 10
0.0103031496062992
 20
0.3005787401574803
 30
0.0
 10
0.0076929133858268
 20
0.3005787401574803
 30
0.0
 10
0.0056102362204724
 20
0.3014094488188976
 30
0.0
 10
0.0040551181102362
 20
0.3031062992125985
 30
0.0
 10
0.0040551181102362
 20
0.3031062992125985
 30
0.0
 10
0.0024685039370079
 20
0.3047716535433071
 30
0.0
 10
0.0016929133858268
 20
0.3069094488188977
 30
0.0
 10
0.0016929133858268
 20
0.3095236220472441
 30
0.0
 10
0.0016929133858268
 20
0.3095236220472441
 30
0.0
 10
0.0016929133858268
 20
0.3120787401574803
 30
0.0
 10
0.0026377952755906
 20
0.3142992125984252
 30
0.0
 10
0.0045275590551181
 20
0.3161889763779528
 30
0.0
 10
0.0045275590551181
 20
0.3161889763779528
 30
0.0
 10
0.0064409448818898
 20
0.3181062992125984
 30
0.0
 10
0.0087204724409449
 20
0.3190511811023622
 30
0.0
 10
0.0113582677165354
 20
0.3190511811023622
 30
0.0
 10
0.0113582677165354
 20
0.3190511811023622
 30
0.0
 10
0.0150551181102362
 20
0.3190511811023622
 30
0.0
 10
0.0182204724409449
 20
0.3175787401574803
 30
0.0
 10
0.0208582677165354
 20
0.3146062992125984
 30
0.0
 10
0.0208582677165354
 20
0.3146062992125984
 30
0.0
 10
0.0234685039370079
 20
0.3116614173228346
 30
0.0
 10
0.0248031496062992
 20
0.3078543307086614
 30
0.0
 10
0.0248031496062992
 20
0.3031889763779528
 30
0.0
 10
0.0248031496062992
 20
0.3031889763779528
 30
0.0
 10
0.0248031496062992
 20
0.3001338582677166
 30
0.0
 10
0.0241653543307087
 20
0.2969370078740158
 30
0.0
 10
0.0229133858267717
 20
0.2936062992125985
 30
0.0
 10
0.0229133858267717
 20
0.2936062992125985
 30
0.0
 10
0.0216653543307087
 20
0.2902716535433071
 30
0.0
 10
0.0198582677165354
 20
0.2871889763779528
 30
0.0
 10
0.0174685039370079
 20
0.2843267716535433
 30
0.0
 10
0.0174685039370079
 20
0.2843267716535433
 30
0.0
 10
0.0150826771653543
 20
0.281496062992126
 30
0.0
 10
0.0103582677165354
 20
0.2770787401574804
 30
0.0
 10
0.0033031496062992
 20
0.2711062992125984
 30
0.0
  0
SPLINE
  5
42
330
1F
100
AcDbEntity
  8
LAYER_1
 62
   250
100
AcDbSpline
210
0.0
220
0.0
230
1.0
 70
    11
 71
     3
 72
    60
 73
    56
 74
     0
 42
0.0000000001
 43
0.0000000001
 40
0.0
 40
0.0
 40
0.0
 40
0.0
 40
0.0714285714285714
 40
0.0714285714285714
 40
0.0714285714285714
 40
0.0714285714285714
 40
0.1428571428571429
 40
0.1428571428571429
 40
0.1428571428571429
 40
0.1428571428571429
 40
0.2142857142857143
 40
0.2142857142857143
 40
0.2142857142857143
 40
0.2142857142857143
 40
0.2857142857142857
 40
0.2857142857142857
 40
0.2857142857142857
 40
0.2857142857142857
 40
0.3571428571428571
 40
0.3571428571428571
 40
0.3571428571428571
 40
0.3571428571428571
 40
0.4285714285714285
 40
0.4285714285714285
 40
0.4285714285714285
 40
0.4285714285714285
 40
0.4999999999999999
 40
0.4999999999999999
 40
0.4999999999999999
 40
0.4999999999999999
 40
0.5714285714285713
 40
0.5714285714285713
 40
0.5714285714285713
 40
0.5714285714285713
 40
0.6428571428571427
 40
0.6428571428571427
 40
0.6428571428571427
 40
0.6428571428571427
 40
0.7142857142857141
 40
0.7142857142857141
 40
0.7142857142857141
 40
0.7142857142857141
 40
0.7857142857142855
 40
0.7857142857142855
 40
0.7857142857142855
 40
0.7857142857142855
 40
0.8571428571428569
 40
0.8571428571428569
 40
0.8571428571428569
 40
0.8571428571428569
 40
0.9285714285714283
 40
0.9285714285714283
 40
0.9285714285714283
 40
0.9285714285714283
 40
1.0
 40
1.0
 40
1.0
 40
1.0
 10
0.0323582677165354
 20
0.2711062992125984
 30
0.0
 10
0.0323582677165354
 20
0.2711062992125984
 30
0.0
 10
0.0279685039370079
 20
0.276496062992126
 30
0.0
 10
0.0279685039370079
 20
0.276496062992126
 30
0.0
 10
0.0279685039370079
 20
0.276496062992126
 30
0.0
 10
0.0390826771653543
 20
0.2855511811023622
 30
0.0
 10
0.0446653543307087
 20
0.2931062992125985
 30
0.0
 10
0.0446653543307087
 20
0.2991889763779528
 30
0.0
 10
0.0446653543307087
 20
0.2991889763779528
 30
0.0
 10
0.0446653543307087
 20
0.2998818897637796
 30
0.0
 10
0.0446102362204724
 20
0.3007716535433071
 30
0.0
 10
0.044496062992126
 20
0.3017992125984252
 30
0.0
 10
0.044496062992126
 20
0.3017992125984252
 30
0.0
 10
0.0435826771653543
 20
0.3014094488188976
 30
0.0
 10
0.0426653543307087
 20
0.3011062992125985
 30
0.0
 10
0.0418031496062992
 20
0.3009094488188976
 30
0.0
 10
0.0418031496062992
 20
0.3009094488188976
 30
0.0
 10
0.0409409448818898
 20
0.3006889763779528
 30
0.0
 10
0.0401102362204724
 20
0.3005787401574803
 30
0.0
 10
0.0392755905511811
 20
0.3005787401574803
 30
0.0
 10
0.0392755905511811
 20
0.3005787401574803
 30
0.0
 10
0.0367204724409449
 20
0.3005787401574803
 30
0.0
 10
0.0346653543307087
 20
0.3014094488188976
 30
0.0
 10
0.0331102362204724
 20
0.3031062992125985
 30
0.0
 10
0.0331102362204724
 20
0.3031062992125985
 30
0.0
 10
0.0315275590551181
 20
0.3047716535433071
 30
0.0
 10
0.030748031496063
 20
0.3069094488188977
 30
0.0
 10
0.030748031496063
 20
0.3095236220472441
 30
0.0
 10
0.030748031496063
 20
0.3095236220472441
 30
0.0
 10
0.030748031496063
 20
0.3120787401574803
 30
0.0
 10
0.0316929133858268
 20
0.3142992125984252
 30
0.0
 10
0.0335826771653543
 20
0.3161889763779528
 30
0.0
 10
0.0335826771653543
 20
0.3161889763779528
 30
0.0
 10
0.0354685039370079
 20
0.3181062992125984
 30
0.0
 10
0.0377755905511811
 20
0.3190511811023622
 30
0.0
 10
0.0404133858267717
 20
0.3190511811023622
 30
0.0
 10
0.0404133858267717
 20
0.3190511811023622
 30
0.0
 10
0.0441102362204724
 20
0.3190511811023622
 30
0.0
 10
0.0472755905511811
 20
0.3175787401574803
 30
0.0
 10
0.0499133858267717
 20
0.3146062992125984
 30
0.0
 10
0.0499133858267717
 20
0.3146062992125984
 30
0.0
 10
0.0525236220472441
 20
0.3116614173228346
 30
0.0
 10
0.0538582677165354
 20
0.3078543307086614
 30
0.0
 10
0.0538582677165354
 20
0.3031889763779528
 30
0.0
 10
0.0538582677165354
 20
0.3031889763779528
 30
0.0
 10
0.0538582677165354
 20
0.3001338582677166
 30
0.0
 10
0.0532204724409449
 20
0.2969370078740158
 30
0.0
 10
0.0519685039370079
 20
0.2936062992125985
 30
0.0
 10
0.0519685039370079
 20
0.2936062992125985
 30
0.0
 10
0.0507204724409449
 20
0.2902716535433071
 30
0.0
 10
0.0489133858267717
 20
0.2871889763779528
 30
0.0
 10
0.0465275590551181
 20
0.2843267716535433
 30
0.0
 10
0.0465275590551181
 20
0.2843267716535433
 30
0.0
 10
0.0441377952755906
 20
0.281496062992126
 30
0.0
 10
0.0394133858267717
 20
0.2770787401574804
 30
0.0
 10
0.0323582677165354
 20
0.2711062992125984
 30
0.0
  0
SPLINE
  5
43
330
1F
100
AcDbEntity
  8
LAYER_1
 62
   250
100
AcDbSpline
210
0.0
220
0.0
230
1.0
 70
    11
 71
     3
 72
    20
 73
    16
 74
     0
 42
0.0000000001
 43
0.0000000001
 40
0.0
 40
0.0
 40
0.0
 40
0.0
 40
0.25
 40
0.25
 40
0.25
 40
0.25
 40
0.5
 40
0.5
 40
0.5
 40
0.5
 40
0.75
 40
0.75
 40
0.75
 40
0.75
 40
1.0
 40
1.0
 40
1.0
 40
1.0
 10
-0.7301377952755905
 20
3.388665354330709
 30
0.0
 10
-0.7301377952755905
 20
3.388665354330709
 30
0.0
 10
-0.0780866141732283
 20
3.766248031496063
 30
0.0
 10
-0.0780866141732283
 20
3.766248031496063
 30
0.0
 10
-0.0780866141732283
 20
3.766248031496063
 30
0.0
 10
-0.0780866141732283
 20
3.766248031496063
 30
0.0
 10
-0.0376614173228347
 20
3.786952755905512
 30
0.0
 10
-0.0376614173228347
 20
3.786952755905512
 30
0.0
 10
-0.0376614173228347
 20
3.786952755905512
 30
0.0
 10
-0.0376614173228347
 20
3.786952755905512
 30
0.0
 10
-0.6897125984251968
 20
3.409370078740158
 30
0.0
 10
-0.6897125984251968
 20
3.409370078740158
 30
0.0
 10
-0.6897125984251968
 20
3.409370078740158
 30
0.0
 10
-0.6897125984251968
 20
3.409370078740158
 30
0.0
 10
-0.7301377952755905
 20
3.388665354330709
 30
0.0
 10
-0.7301377952755905
 20
3.388665354330709
 30
0.0
  0
SPLINE
  5
44
330
1F
100
AcDbEntity
  8
LAYER_1
 62
   250
100
AcDbSpline
210
0.0
220
0.0
230
1.0
 70
    11
 71
     3
 72
    20
 73
    16
 74
     0
 42
0.0000000001
 43
0.0000000001
 40
0.0
 40
0.0
 40
0.0
 40
0.0
 40
0.25
 40
0.25
 40
0.25
 40
0.25
 40
0.5
 40
0.5
 40
0.5
 40
0.5
 40
0.75
 40
0.75
 40
0.75
 40
0.75
 40
1.0
 40
1.0
 40
1.0
 40
1.0
 10
-0.6897125984251968
 20
3.409370078740158
 30
0.0
 10
-0.6897125984251968
 20
3.409370078740158
 30
0.0
 10
-0.0376614173228347
 20
3.786952755905512
 30
0.0
 10
-0.0376614173228347
 20
3.786952755905512
 30
0.0
 10
-0.0376614173228347
 20
3.786952755905512
 30
0.0
 10
-0.0376614173228347
 20
3.786952755905512
 30
0.0
 10
0.0038622047244094
 20
3.805736220472441
 30
0.0
 10
0.0038622047244094
 20
3.805736220472441
 30
0.0
 10
0.0038622047244094
 20
3.805736220472441
 30
0.0
 10
0.0038622047244094
 20
3.805736220472441
 30
0.0
 10
-0.6481889763779528
 20
3.428153543307087
 30
0.0
 10
-0.6481889763779528
 20
3.428153543307087
 30
0.0
 10
-0.6481889763779528
 20
3.428153543307087
 30
0.0
 10
-0.6481889763779528
 20
3.428153543307087
 30
0.0
 10
-0.6897125984251968
 20
3.409370078740158
 30
0.0
 10
-0.6897125984251968
 20
3.409370078740158
 30
0.0
  0
SPLINE
  5
45
330
1F
100
AcDbEntity
  8
LAYER_1
 62
   149
100
AcDbSpline
210
0.0
220
0.0
230
1.0
 70
    11
 71
     3
 72
    20
 73
    16
 74
     0
 42
0.0000000001
 43
0.0000000001
 40
0.0
 40
0.0
 40
0.0
 40
0.0
 40
0.25
 40
0.25
 40
0.25
 40
0.25
 40
0.5
 40
0.5
 40
0.5
 40
0.5
 40
0.75
 40
0.75
 40
0.75
 40
0.75
 40
1.0
 40
1.0
 40
1.0
 40
1.0
 10
-0.6481889763779528
 20
3.428153543307087
 30
0.0
 10
-0.6481889763779528
 20
3.428153543307087
 30
0.0
 10
0.0038622047244094
 20
3.805736220472441
 30
0.0
 10
0.0038622047244094
 20
3.805736220472441
 30
0.0
 10
0.0038622047244094
 20
3.805736220472441
 30
0.0
 10
0.0038622047244094
 20
3.805736220472441
 30
0.0
 10
0.0464370078740158
 20
3.82251968503937
 30
0.0
 10
0.0464370078740158
 20
3.82251968503937
 30
0.0
 10
0.0464370078740158
 20
3.82251968503937
 30
0.0
 10
0.0464370078740158
 20
3.82251968503937
 30
0.0
 10
-0.6056141732283464
 20
3.444937007874016
 30
0.0
 10
-0.6056141732283464
 20
3.444937007874016
 30
0.0
 10
-0.6056141732283464
 20
3.444937007874016
 30
0.0
 10
-0.6056141732283464
 20
3.444937007874016
 30
0.0
 10
-0.6481889763779528
 20
3.428153543307087
 30
0.0
 10
-0.6481889763779528
 20
3.428153543307087
 30
0.0
  0
SPLINE
  5
46
330
1F
100
AcDbEntity
  8
LAYER_1
 62
   251
100
AcDbSpline
210
0.0
220
0.0
230
1.0
 70
    11
 71
     3
 72
    20
 73
    16
 74
     0
 42
0.0000000001
 43
0.0000000001
 40
0.0
 40
0.0
 40
0.0
 40
0.0
 40
0.25
 40
0.25
 40
0.25
 40
0.25
 40
0.5
 40
0.5
 40
0.5
 40
0.5
 40
0.75
 40
0.75
 40
0.75
 40
0.75
 40
1.0
 40
1.0
 40
1.0
 40
1.0
 10
-0.6056141732283464
 20
3.444937007874016
 30
0.0
 10
-0.6056141732283464
 20
3.444937007874016
 30
0.0
 10
0.0464370078740158
 20
3.82251968503937
 30
0.0
 10
0.0464370078740158
 20
3.82251968503937
 30
0.0
 10
0.0464370078740158
 20
3.82251968503937
 30
0.0
 10
0.0464370078740158
 20
3.82251968503937
 30
0.0
 10
0.089992125984252
 20
3.837263779527559
 30
0.0
 10
0.089992125984252
 20
3.837263779527559
 30
0.0
 10
0.089992125984252
 20
3.837263779527559
 30
0.0
 10
0.089992125984252
 20
3.837263779527559
 30
0.0
 10
-0.5620590551181103
 20
3.459681102362205
 30
0.0
 10
-0.5620590551181103
 20
3.459681102362205
 30
0.0
 10
-0.5620590551181103
 20
3.459681102362205
 30
0.0
 10
-0.5620590551181103
 20
3.459681102362205
 30
0.0
 10
-0.6056141732283464
 20
3.444937007874016
 30
0.0
 10
-0.6056141732283464
 20
3.444937007874016
 30
0.0
  0
SPLINE
  5
47
330
1F
100
AcDbEntity
  8
LAYER_1
 62
   251
100
AcDbSpline
210
0.0
220
0.0
230
1.0
 70
    11
 71
     3
 72
    20
 73
    16
 74
     0
 42
0.0000000001
 43
0.0000000001
 40
0.0
 40
0.0
 40
0.0
 40
0.0
 40
0.25
 40
0.25
 40
0.25
 40
0.25
 40
0.5
 40
0.5
 40
0.5
 40
0.5
 40
0.75
 40
0.75
 40
0.75
 40
0.75
 40
1.0
 40
1.0
 40
1.0
 40
1.0
 10
-0.5620590551181103
 20
3.459681102362205
 30
0.0
 10
-0.5620590551181103
 20
3.459681102362205
 30
0.0
 10
0.089992125984252
 20
3.837263779527559
 30
0.0
 10
0.089992125984252
 20
3.837263779527559
 30
0.0
 10
0.089992125984252
 20
3.837263779527559
 30
0.0
 10
0.089992125984252
 20
3.837263779527559
 30
0.0
 10
0.1344803149606299
 20
3.849897637795276
 30
0.0
 10
0.1344803149606299
 20
3.849897637795276
 30
0.0
 10
0.1344803149606299
 20
3.849897637795276
 30
0.0
 10
0.1344803149606299
 20
3.849897637795276
 30
0.0
 10
-0.5175708661417323
 20
3.472314960629921
 30
0.0
 10
-0.5175708661417323
 20
3.472314960629921
 30
0.0
 10
-0.5175708661417323
 20
3.472314960629921
 30
0.0
 10
-0.5175708661417323
 20
3.472314960629921
 30
0.0
 10
-0.5620590551181103
 20
3.459681102362205
 30
0.0
 10
-0.5620590551181103
 20
3.459681102362205
 30
0.0
  0
SPLINE
  5
48
330
1F
100
AcDbEntity
  8
LAYER_1
 62
   251
100
AcDbSpline
210
0.0
220
0.0
230
1.0
 70
    11
 71
     3
 72
    20
 73
    16
 74
     0
 42
0.0000000001
 43
0.0000000001
 40
0.0
 40
0.0
 40
0.0
 40
0.0
 40
0.25
 40
0.25
 40
0.25
 40
0.25
 40
0.5
 40
0.5
 40
0.5
 40
0.5
 40
0.75
 40
0.75
 40
0.75
 40
0.75
 40
1.0
 40
1.0
 40
1.0
 40
1.0
 10
-0.5175708661417323
 20
3.472314960629921
 30
0.0
 10
-0.5175708661417323
 20
3.472314960629921
 30
0.0
 10
0.1344803149606299
 20
3.849897637795276
 30
0.0
 10
0.1344803149606299
 20
3.849897637795276
 30
0.0
 10
0.1344803149606299
 20
3.849897637795276
 30
0.0
 10
0.1344803149606299
 20
3.849897637795276
 30
0.0
 10
0.1798307086614173
 20
3.860370078740158
 30
0.0
 10
0.1798307086614173
 20
3.860370078740158
 30
0.0
 10
0.1798307086614173
 20
3.860370078740158
 30
0.0
 10
0.1798307086614173
 20
3.860370078740158
 30
0.0
 10
-0.4722204724409449
 20
3.482787401574803
 30
0.0
 10
-0.4722204724409449
 20
3.482787401574803
 30
0.0
 10
-0.4722204724409449
 20
3.482787401574803
 30
0.0
 10
-0.4722204724409449
 20
3.482787401574803
 30
0.0
 10
-0.5175708661417323
 20
3.472314960629921
 30
0.0
 10
-0.5175708661417323
 20
3.472314960629921
 30
0.0
  0
SPLINE
  5
49
330
1F
100
AcDbEntity
  8
LAYER_1
 62
   251
100
AcDbSpline
210
0.0
220
0.0
230
1.0
 70
    11
 71
     3
 72
    20
 73
    16
 74
     0
 42
0.0000000001
 43
0.0000000001
 40
0.0
 40
0.0
 40
0.0
 40
0.0
 40
0.25
 40
0.25
 40
0.25
 40
0.25
 40
0.5
 40
0.5
 40
0.5
 40
0.5
 40
0.75
 40
0.75
 40
0.75
 40
0.75
 40
1.0
 40
1.0
 40
1.0
 40
1.0
 10
-0.4722204724409449
 20
3.482787401574803
 30
0.0
 10
-0.4722204724409449
 20
3.482787401574803
 30
0.0
 10
0.1798307086614173
 20
3.860370078740158
 30
0.0
 10
0.1798307086614173
 20
3.860370078740158
 30
0.0
 10
0.1798307086614173
 20
3.860370078740158
 30
0.0
 10
0.1798307086614173
 20
3.860370078740158
 30
0.0
 10
0.225996062992126
 20
3.868614173228347
 30
0.0
 10
0.225996062992126
 20
3.868614173228347
 30
0.0
 10
0.225996062992126
 20
3.868614173228347
 30
0.0
 10
0.225996062992126
 20
3.868614173228347
 30
0.0
 10
-0.4260551181102362
 20
3.491031496062993
 30
0.0
 10
-0.4260551181102362
 20
3.491031496062993
 30
0.0
 10
-0.4260551181102362
 20
3.491031496062993
 30
0.0
 10
-0.4260551181102362
 20
3.491031496062993
 30
0.0
 10
-0.4722204724409449
 20
3.482787401574803
 30
0.0
 10
-0.4722204724409449
 20
3.482787401574803
 30
0.0
  0
SPLINE
  5
4A
330
1F
100
AcDbEntity
  8
LAYER_1
 62
     8
100
AcDbSpline
210
0.0
220
0.0
230
1.0
 70
    11
 71
     3
 72
    20
 73
    16
 74
     0
 42
0.0000000001
 43
0.0000000001
 40
0.0
 40
0.0
 40
0.0
 40
0.0
 40
0.25
 40
0.25
 40
0.25
 40
0.25
 40
0.5
 40
0.5
 40
0.5
 40
0.5
 40
0.75
 40
0.75
 40
0.75
 40
0.75
 40
1.0
 40
1.0
 40
1.0
 40
1.0
 10
-0.4260551181102362
 20
3.491031496062993
 30
0.0
 10
-0.4260551181102362
 20
3.491031496062993
 30
0.0
 10
0.225996062992126
 20
3.868614173228347
 30
0.0
 10
0.225996062992126
 20
3.868614173228347
 30
0.0
 10
0.225996062992126
 20
3.868614173228347
 30
0.0
 10
0.225996062992126
 20
3.868614173228347
 30
0.0
 10
0.2729055118110236
 20
3.87457874015748
 30
0.0
 10
0.2729055118110236
 20
3.87457874015748
 30
0.0
 10
0.2729055118110236
 20
3.87457874015748
 30
0.0
 10
0.2729055118110236
 20
3.87457874015748
 30
0.0
 10
-0.3791456692913386
 20
3.496996062992126
 30
0.0
 10
-0.3791456692913386
 20
3.496996062992126
 30
0.0
 10
-0.3791456692913386
 20
3.496996062992126
 30
0.0
 10
-0.3791456692913386
 20
3.496996062992126
 30
0.0
 10
-0.4260551181102362
 20
3.491031496062993
 30
0.0
 10
-0.4260551181102362
 20
3.491031496062993
 30
0.0
  0
SPLINE
  5
4B
330
1F
100
AcDbEntity
  8
LAYER_1
 62
     8
100
AcDbSpline
210
0.0
220
0.0
230
1.0
 70
    11
 71
     3
 72
    20
 73
    16
 74
     0
 42
0.0000000001
 43
0.0000000001
 40
0.0
 40
0.0
 40
0.0
 40
0.0
 40
0.25
 40
0.25
 40
0.25
 40
0.25
 40
0.5
 40
0.5
 40
0.5
 40
0.5
 40
0.75
 40
0.75
 40
0.75
 40
0.75
 40
1.0
 40
1.0
 40
1.0
 40
1.0
 10
-0.3791456692913386
 20
3.496996062992126
 30
0.0
 10
-0.3791456692913386
 20
3.496996062992126
 30
0.0
 10
0.2729055118110236
 20
3.87457874015748
 30
0.0
 10
0.2729055118110236
 20
3.87457874015748
 30
0.0
 10
0.2729055118110236
 20
3.87457874015748
 30
0.0
 10
0.2729055118110236
 20
3.87457874015748
 30
0.0
 10
0.320507874015748
 20
3.878200787401575
 30
0.0
 10
0.320507874015748
 20
3.878200787401575
 30
0.0
 10
0.320507874015748
 20
3.878200787401575
 30
0.0
 10
0.320507874015748
 20
3.878200787401575
 30
0.0
 10
-0.3315433070866142
 20
3.500618110236221
 30
0.0
 10
-0.3315433070866142
 20
3.500618110236221
 30
0.0
 10
-0.3315433070866142
 20
3.500618110236221
 30
0.0
 10
-0.3315433070866142
 20
3.500618110236221
 30
0.0
 10
-0.3791456692913386
 20
3.496996062992126
 30
0.0
 10
-0.3791456692913386
 20
3.496996062992126
 30
0.0
  0
SPLINE
  5
4C
330
1F
100
AcDbEntity
  8
LAYER_1
 62
   252
100
AcDbSpline
210
0.0
220
0.0
230
1.0
 70
    11
 71
     3
 72
    20
 73
    16
 74
     0
 42
0.0000000001
 43
0.0000000001
 40
0.0
 40
0.0
 40
0.0
 40
0.0
 40
0.25
 40
0.25
 40
0.25
 40
0.25
 40
0.5
 40
0.5
 40
0.5
 40
0.5
 40
0.75
 40
0.75
 40
0.75
 40
0.75
 40
1.0
 40
1.0
 40
1.0
 40
1.0
 10
-0.3315433070866142
 20
3.500618110236221
 30
0.0
 10
-0.3315433070866142
 20
3.500618110236221
 30
0.0
 10
0.320507874015748
 20
3.878200787401575
 30
0.0
 10
0.320507874015748
 20
3.878200787401575
 30
0.0
 10
0.320507874015748
 20
3.878200787401575
 30
0.0
 10
0.320507874015748
 20
3.878200787401575
 30
0.0
 10
0.368736220472441
 20
3.879425196850394
 30
0.0
 10
0.368736220472441
 20
3.879425196850394
 30
0.0
 10
0.368736220472441
 20
3.879425196850394
 30
0.0
 10
0.368736220472441
 20
3.879425196850394
 30
0.0
 10
-0.2833149606299213
 20
3.501842519685039
 30
0.0
 10
-0.2833149606299213
 20
3.501842519685039
 30
0.0
 10
-0.2833149606299213
 20
3.501842519685039
 30
0.0
 10
-0.2833149606299213
 20
3.501842519685039
 30
0.0
 10
-0.3315433070866142
 20
3.500618110236221
 30
0.0
 10
-0.3315433070866142
 20
3.500618110236221
 30
0.0
  0
SPLINE
  5
4D
330
1F
100
AcDbEntity
  8
LAYER_1
 62
   252
100
AcDbSpline
210
0.0
220
0.0
230
1.0
 70
    11
 71
     3
 72
    20
 73
    16
 74
     0
 42
0.0000000001
 43
0.0000000001
 40
0.0
 40
0.0
 40
0.0
 40
0.0
 40
0.25
 40
0.25
 40
0.25
 40
0.25
 40
0.5
 40
0.5
 40
0.5
 40
0.5
 40
0.75
 40
0.75
 40
0.75
 40
0.75
 40
1.0
 40
1.0
 40
1.0
 40
1.0
 10
-0.2833149606299213
 20
3.501842519685039
 30
0.0
 10
-0.2833149606299213
 20
3.501842519685039
 30
0.0
 10
0.368736220472441
 20
3.879425196850394
 30
0.0
 10
0.368736220472441
 20
3.879425196850394
 30
0.0
 10
0.368736220472441
 20
3.879425196850394
 30
0.0
 10
0.368736220472441
 20
3.879425196850394
 30
0.0
 10
0.4169763779527559
 20
3.878200787401575
 30
0.0
 10
0.4169763779527559
 20
3.878200787401575
 30
0.0
 10
0.4169763779527559
 20
3.878200787401575
 30
0.0
 10
0.4169763779527559
 20
3.878200787401575
 30
0.0
 10
-0.2350748031496063
 20
3.500618110236221
 30
0.0
 10
-0.2350748031496063
 20
3.500618110236221
 30
0.0
 10
-0.2350748031496063
 20
3.500618110236221
 30
0.0
 10
-0.2350748031496063
 20
3.500618110236221
 30
0.0
 10
-0.2833149606299213
 20
3.501842519685039
 30
0.0
 10
-0.2833149606299213
 20
3.501842519685039
 30
0.0
  0
SPLINE
  5
4E
330
1F
100
AcDbEntity
  8
LAYER_1
 62
   252
100
AcDbSpline
210
0.0
220
0.0
230
1.0
 70
    11
 71
     3
 72
    20
 73
    16
 74
     0
 42
0.0000000001
 43
0.0000000001
 40
0.0
 40
0.0
 40
0.0
 40
0.0
 40
0.25
 40
0.25
 40
0.25
 40
0.25
 40
0.5
 40
0.5
 40
0.5
 40
0.5
 40
0.75
 40
0.75
 40
0.75
 40
0.75
 40
1.0
 40
1.0
 40
1.0
 40
1.0
 10
-0.2350748031496063
 20
3.500618110236221
 30
0.0
 10
-0.2350748031496063
 20
3.500618110236221
 30
0.0
 10
0.4169763779527559
 20
3.878200787401575
 30
0.0
 10
0.4169763779527559
 20
3.878200787401575
 30
0.0
 10
0.4169763779527559
 20
3.878200787401575
 30
0.0
 10
0.4169763779527559
 20
3.878200787401575
 30
0.0
 10
0.4645787401574804
 20
3.87457874015748
 30
0.0
 10
0.4645787401574804
 20
3.87457874015748
 30
0.0
 10
0.4645787401574804
 20
3.87457874015748
 30
0.0
 10
0.4645787401574804
 20
3.87457874015748
 30
0.0
 10
-0.1874724409448819
 20
3.496996062992126
 30
0.0
 10
-0.1874724409448819
 20
3.496996062992126
 30
0.0
 10
-0.1874724409448819
 20
3.496996062992126
 30
0.0
 10
-0.1874724409448819
 20
3.496996062992126
 30
0.0
 10
-0.2350748031496063
 20
3.500618110236221
 30
0.0
 10
-0.2350748031496063
 20
3.500618110236221
 30
0.0
  0
SPLINE
  5
4F
330
1F
100
AcDbEntity
  8
LAYER_1
 62
   252
100
AcDbSpline
210
0.0
220
0.0
230
1.0
 70
    11
 71
     3
 72
    20
 73
    16
 74
     0
 42
0.0000000001
 43
0.0000000001
 40
0.0
 40
0.0
 40
0.0
 40
0.0
 40
0.25
 40
0.25
 40
0.25
 40
0.25
 40
0.5
 40
0.5
 40
0.5
 40
0.5
 40
0.75
 40
0.75
 40
0.75
 40
0.75
 40
1.0
 40
1.0
 40
1.0
 40
1.0
 10
-0.1874724409448819
 20
3.496996062992126
 30
0.0
 10
-0.1874724409448819
 20
3.496996062992126
 30
0.0
 10
0.4645787401574804
 20
3.87457874015748
 30
0.0
 10
0.4645787401574804
 20
3.87457874015748
 30
0.0
 10
0.4645787401574804
 20
3.87457874015748
 30
0.0
 10
0.4645787401574804
 20
3.87457874015748
 30
0.0
 10
0.511492125984252
 20
3.868614173228347
 30
0.0
 10
0.511492125984252
 20
3.868614173228347
 30
0.0
 10
0.511492125984252
 20
3.868614173228347
 30
0.0
 10
0.511492125984252
 20
3.868614173228347
 30
0.0
 10
-0.1405590551181102
 20
3.491031496062993
 30
0.0
 10
-0.1405590551181102
 20
3.491031496062993
 30
0.0
 10
-0.1405590551181102
 20
3.491031496062993
 30
0.0
 10
-0.1405590551181102
 20
3.491031496062993
 30
0.0
 10
-0.1874724409448819
 20
3.496996062992126
 30
0.0
 10
-0.1874724409448819
 20
3.496996062992126
 30
0.0
  0
SPLINE
  5
50
330
1F
100
AcDbEntity
  8
LAYER_1
 62
   252
100
AcDbSpline
210
0.0
220
0.0
230
1.0
 70
    11
 71
     3
 72
    20
 73
    16
 74
     0
 42
0.0000000001
 43
0.0000000001
 40
0.0
 40
0.0
 40
0.0
 40
0.0
 40
0.25
 40
0.25
 40
0.25
 40
0.25
 40
0.5
 40
0.5
 40
0.5
 40
0.5
 40
0.75
 40
0.75
 40
0.75
 40
0.75
 40
1.0
 40
1.0
 40
1.0
 40
1.0
 10
-0.1405590551181102
 20
3.491031496062993
 30
0.0
 10
-0.1405590551181102
 20
3.491031496062993
 30
0.0
 10
0.511492125984252
 20
3.868614173228347
 30
0.0
 10
0.511492125984252
 20
3.868614173228347
 30
0.0
 10
0.511492125984252
 20
3.868614173228347
 30
0.0
 10
0.511492125984252
 20
3.868614173228347
 30
0.0
 10
0.5576535433070866
 20
3.860370078740158
 30
0.0
 10
0.5576535433070866
 20
3.860370078740158
 30
0.0
 10
0.5576535433070866
 20
3.860370078740158
 30
0.0
 10
0.5576535433070866
 20
3.860370078740158
 30
0.0
 10
-0.0943976377952756
 20
3.482787401574803
 30
0.0
 10
-0.0943976377952756
 20
3.482787401574803
 30
0.0
 10
-0.0943976377952756
 20
3.482787401574803
 30
0.0
 10
-0.0943976377952756
 20
3.482787401574803
 30
0.0
 10
-0.1405590551181102
 20
3.491031496062993
 30
0.0
 10
-0.1405590551181102
 20
3.491031496062993
 30
0.0
  0
SPLINE
  5
51
330
1F
100
AcDbEntity
  8
LAYER_1
 62
   252
100
AcDbSpline
210
0.0
220
0.0
230
1.0
 70
    11
 71
     3
 72
    20
 73
    16
 74
     0
 42
0.0000000001
 43
0.0000000001
 40
0.0
 40
0.0
 40
0.0
 40
0.0
 40
0.25
 40
0.25
 40
0.25
 40
0.25
 40
0.5
 40
0.5
 40
0.5
 40
0.5
 40
0.75
 40
0.75
 40
0.75
 40
0.75
 40
1.0
 40
1.0
 40
1.0
 40
1.0
 10
-0.0943976377952756
 20
3.482787401574803
 30
0.0
 10
-0.0943976377952756
 20
3.482787401574803
 30
0.0
 10
0.5576535433070866
 20
3.860370078740158
 30
0.0
 10
0.5576535433070866
 20
3.860370078740158
 30
0.0
 10
0.5576535433070866
 20
3.860370078740158
 30
0.0
 10
0.5576535433070866
 20
3.860370078740158
 30
0.0
 10
0.6030078740157481
 20
3.849897637795276
 30
0.0
 10
0.6030078740157481
 20
3.849897637795276
 30
0.0
 10
0.6030078740157481
 20
3.849897637795276
 30
0.0
 10
0.6030078740157481
 20
3.849897637795276
 30
0.0
 10
-0.0490433070866142
 20
3.472314960629921
 30
0.0
 10
-0.0490433070866142
 20
3.472314960629921
 30
0.0
 10
-0.0490433070866142
 20
3.472314960629921
 30
0.0
 10
-0.0490433070866142
 20
3.472314960629921
 30
0.0
 10
-0.0943976377952756
 20
3.482787401574803
 30
0.0
 10
-0.0943976377952756
 20
3.482787401574803
 30
0.0
  0
SPLINE
  5
52
330
1F
100
AcDbEntity
  8
LAYER_1
 62
   252
100
AcDbSpline
210
0.0
220
0.0
230
1.0
 70
    11
 71
     3
 72
    20
 73
    16
 74
     0
 42
0.0000000001
 43
0.0000000001
 40
0.0
 40
0.0
 40
0.0
 40
0.0
 40
0.25
 40
0.25
 40
0.25
 40
0.25
 40
0.5
 40
0.5
 40
0.5
 40
0.5
 40
0.75
 40
0.75
 40
0.75
 40
0.75
 40
1.0
 40
1.0
 40
1.0
 40
1.0
 10
-0.0490433070866142
 20
3.472314960629921
 30
0.0
 10
-0.0490433070866142
 20
3.472314960629921
 30
0.0
 10
0.6030078740157481
 20
3.849897637795276
 30
0.0
 10
0.6030078740157481
 20
3.849897637795276
 30
0.0
 10
0.6030078740157481
 20
3.849897637795276
 30
0.0
 10
0.6030078740157481
 20
3.849897637795276
 30
0.0
 10
0.6474881889763779
 20
3.837263779527559
 30
0.0
 10
0.6474881889763779
 20
3.837263779527559
 30
0.0
 10
0.6474881889763779
 20
3.837263779527559
 30
0.0
 10
0.6474881889763779
 20
3.837263779527559
 30
0.0
 10
-0.0045629921259843
 20
3.459681102362205
 30
0.0
 10
-0.0045629921259843
 20
3.459681102362205
 30
0.0
 10
-0.0045629921259843
 20
3.459681102362205
 30
0.0
 10
-0.0045629921259843
 20
3.459681102362205
 30
0.0
 10
-0.0490433070866142
 20
3.472314960629921
 30
0.0
 10
-0.0490433070866142
 20
3.472314960629921
 30
0.0
  0
SPLINE
  5
53
330
1F
100
AcDbEntity
  8
LAYER_1
 62
   252
100
AcDbSpline
210
0.0
220
0.0
230
1.0
 70
    11
 71
     3
 72
    20
 73
    16
 74
     0
 42
0.0000000001
 43
0.0000000001
 40
0.0
 40
0.0
 40
0.0
 40
0.0
 40
0.25
 40
0.25
 40
0.25
 40
0.25
 40
0.5
 40
0.5
 40
0.5
 40
0.5
 40
0.75
 40
0.75
 40
0.75
 40
0.75
 40
1.0
 40
1.0
 40
1.0
 40
1.0
 10
-0.0045629921259843
 20
3.459681102362205
 30
0.0
 10
-0.0045629921259843
 20
3.459681102362205
 30
0.0
 10
0.6474881889763779
 20
3.837263779527559
 30
0.0
 10
0.6474881889763779
 20
3.837263779527559
 30
0.0
 10
0.6474881889763779
 20
3.837263779527559
 30
0.0
 10
0.6474881889763779
 20
3.837263779527559
 30
0.0
 10
0.6910393700787402
 20
3.82251968503937
 30
0.0
 10
0.6910393700787402
 20
3.82251968503937
 30
0.0
 10
0.6910393700787402
 20
3.82251968503937
 30
0.0
 10
0.6910393700787402
 20
3.82251968503937
 30
0.0
 10
0.038988188976378
 20
3.444937007874016
 30
0.0
 10
0.038988188976378
 20
3.444937007874016
 30
0.0
 10
0.038988188976378
 20
3.444937007874016
 30
0.0
 10
0.038988188976378
 20
3.444937007874016
 30
0.0
 10
-0.0045629921259843
 20
3.459681102362205
 30
0.0
 10
-0.0045629921259843
 20
3.459681102362205
 30
0.0
  0
SPLINE
  5
54
330
1F
100
AcDbEntity
  8
LAYER_1
 62
   252
100
AcDbSpline
210
0.0
220
0.0
230
1.0
 70
    11
 71
     3
 72
    20
 73
    16
 74
     0
 42
0.0000000001
 43
0.0000000001
 40
0.0
 40
0.0
 40
0.0
 40
0.0
 40
0.25
 40
0.25
 40
0.25
 40
0.25
 40
0.5
 40
0.5
 40
0.5
 40
0.5
 40
0.75
 40
0.75
 40
0.75
 40
0.75
 40
1.0
 40
1.0
 40
1.0
 40
1.0
 10
0.038988188976378
 20
3.444937007874016
 30
0.0
 10
0.038988188976378
 20
3.444937007874016
 30
0.0
 10
0.6910393700787402
 20
3.82251968503937
 30
0.0
 10
0.6910393700787402
 20
3.82251968503937
 30
0.0
 10
0.6910393700787402
 20
3.82251968503937
 30
0.0
 10
0.6910393700787402
 20
3.82251968503937
 30
0.0
 10
0.7336141732283464
 20
3.805736220472441
 30
0.0
 10
0.7336141732283464
 20
3.805736220472441
 30
0.0
 10
0.7336141732283464
 20
3.805736220472441
 30
0.0
 10
0.7336141732283464
 20
3.805736220472441
 30
0.0
 10
0.0815629921259843
 20
3.428153543307087
 30
0.0
 10
0.0815629921259843
 20
3.428153543307087
 30
0.0
 10
0.0815629921259843
 20
3.428153543307087
 30
0.0
 10
0.0815629921259843
 20
3.428153543307087
 30
0.0
 10
0.038988188976378
 20
3.444937007874016
 30
0.0
 10
0.038988188976378
 20
3.444937007874016
 30
0.0
  0
SPLINE
  5
55
330
1F
100
AcDbEntity
  8
LAYER_1
 62
   252
100
AcDbSpline
210
0.0
220
0.0
230
1.0
 70
    11
 71
     3
 72
    20
 73
    16
 74
     0
 42
0.0000000001
 43
0.0000000001
 40
0.0
 40
0.0
 40
0.0
 40
0.0
 40
0.25
 40
0.25
 40
0.25
 40
0.25
 40
0.5
 40
0.5
 40
0.5
 40
0.5
 40
0.75
 40
0.75
 40
0.75
 40
0.75
 40
1.0
 40
1.0
 40
1.0
 40
1.0
 10
0.0815629921259843
 20
3.428153543307087
 30
0.0
 10
0.0815629921259843
 20
3.428153543307087
 30
0.0
 10
0.7336141732283464
 20
3.805736220472441
 30
0.0
 10
0.7336141732283464
 20
3.805736220472441
 30
0.0
 10
0.7336141732283464
 20
3.805736220472441
 30
0.0
 10
0.7336141732283464
 20
3.805736220472441
 30
0.0
 10
0.7751377952755906
 20
3.786952755905512
 30
0.0
 10
0.7751377952755906
 20
3.786952755905512
 30
0.0
 10
0.7751377952755906
 20
3.786952755905512
 30
0.0
 10
0.7751377952755906
 20
3.786952755905512
 30
0.0
 10
0.1230866141732284
 20
3.409370078740158
 30
0.0
 10
0.1230866141732284
 20
3.409370078740158
 30
0.0
 10
0.1230866141732284
 20
3.409370078740158
 30
0.0
 10
0.1230866141732284
 20
3.409370078740158
 30
0.0
 10
0.0815629921259843
 20
3.428153543307087
 30
0.0
 10
0.0815629921259843
 20
3.428153543307087
 30
0.0
  0
SPLINE
  5
56
330
1F
100
AcDbEntity
  8
LAYER_1
 62
   253
100
AcDbSpline
210
0.0
220
0.0
230
1.0
 70
    11
 71
     3
 72
    20
 73
    16
 74
     0
 42
0.0000000001
 43
0.0000000001
 40
0.0
 40
0.0
 40
0.0
 40
0.0
 40
0.25
 40
0.25
 40
0.25
 40
0.25
 40
0.5
 40
0.5
 40
0.5
 40
0.5
 40
0.75
 40
0.75
 40
0.75
 40
0.75
 40
1.0
 40
1.0
 40
1.0
 40
1.0
 10
0.1230866141732284
 20
3.409370078740158
 30
0.0
 10
0.1230866141732284
 20
3.409370078740158
 30
0.0
 10
0.7751377952755906
 20
3.786952755905512
 30
0.0
 10
0.7751377952755906
 20
3.786952755905512
 30
0.0
 10
0.7751377952755906
 20
3.786952755905512
 30
0.0
 10
0.7751377952755906
 20
3.786952755905512
 30
0.0
 10
0.8155629921259843
 20
3.766248031496063
 30
0.0
 10
0.8155629921259843
 20
3.766248031496063
 30
0.0
 10
0.8155629921259843
 20
3.766248031496063
 30
0.0
 10
0.8155629921259843
 20
3.766248031496063
 30
0.0
 10
0.1635118110236221
 20
3.388665354330709
 30
0.0
 10
0.1635118110236221
 20
3.388665354330709
 30
0.0
 10
0.1635118110236221
 20
3.388665354330709
 30
0.0
 10
0.1635118110236221
 20
3.388665354330709
 30
0.0
 10
0.1230866141732284
 20
3.409370078740158
 30
0.0
 10
0.1230866141732284
 20
3.409370078740158
 30
0.0
  0
SPLINE
  5
57
330
1F
100
AcDbEntity
  8
LAYER_1
 62
   253
100
AcDbSpline
210
0.0
220
0.0
230
1.0
 70
    11
 71
     3
 72
    20
 73
    16
 74
     0
 42
0.0000000001
 43
0.0000000001
 40
0.0
 40
0.0
 40
0.0
 40
0.0
 40
0.25
 40
0.25
 40
0.25
 40
0.25
 40
0.5
 40
0.5
 40
0.5
 40
0.5
 40
0.75
 40
0.75
 40
0.75
 40
0.75
 40
1.0
 40
1.0
 40
1.0
 40
1.0
 10
0.1635118110236221
 20
3.388665354330709
 30
0.0
 10
0.1635118110236221
 20
3.388665354330709
 30
0.0
 10
0.8155629921259843
 20
3.766248031496063
 30
0.0
 10
0.8155629921259843
 20
3.766248031496063
 30
0.0
 10
0.8155629921259843
 20
3.766248031496063
 30
0.0
 10
0.8155629921259843
 20
3.766248031496063
 30
0.0
 10
0.8548188976377953
 20
3.743669291338583
 30
0.0
 10
0.8548188976377953
 20
3.743669291338583
 30
0.0
 10
0.8548188976377953
 20
3.743669291338583
 30
0.0
 10
0.8548188976377953
 20
3.743669291338583
 30
0.0
 10
0.2027677165354331
 20
3.366086614173228
 30
0.0
 10
0.2027677165354331
 20
3.366086614173228
 30
0.0
 10
0.2027677165354331
 20
3.366086614173228
 30
0.0
 10
0.2027677165354331
 20
3.366086614173228
 30
0.0
 10
0.1635118110236221
 20
3.388665354330709
 30
0.0
 10
0.1635118110236221
 20
3.388665354330709
 30
0.0
  0
SPLINE
  5
58
330
1F
100
AcDbEntity
  8
LAYER_1
 62
   253
100
AcDbSpline
210
0.0
220
0.0
230
1.0
 70
    11
 71
     3
 72
    20
 73
    16
 74
     0
 42
0.0000000001
 43
0.0000000001
 40
0.0
 40
0.0
 40
0.0
 40
0.0
 40
0.25
 40
0.25
 40
0.25
 40
0.25
 40
0.5
 40
0.5
 40
0.5
 40
0.5
 40
0.75
 40
0.75
 40
0.75
 40
0.75
 40
1.0
 40
1.0
 40
1.0
 40
1.0
 10
0.2027677165354331
 20
3.366086614173228
 30
0.0
 10
0.2027677165354331
 20
3.366086614173228
 30
0.0
 10
0.8548188976377953
 20
3.743669291338583
 30
0.0
 10
0.8548188976377953
 20
3.743669291338583
 30
0.0
 10
0.8548188976377953
 20
3.743669291338583
 30
0.0
 10
0.8548188976377953
 20
3.743669291338583
 30
0.0
 10
0.8928582677165354
 20
3.719283464566929
 30
0.0
 10
0.8928582677165354
 20
3.719283464566929
 30
0.0
 10
0.8928582677165354
 20
3.719283464566929
 30
0.0
 10
0.8928582677165354
 20
3.719283464566929
 30
0.0
 10
0.2408070866141732
 20
3.341700787401575
 30
0.0
 10
0.2408070866141732
 20
3.341700787401575
 30
0.0
 10
0.2408070866141732
 20
3.341700787401575
 30
0.0
 10
0.2408070866141732
 20
3.341700787401575
 30
0.0
 10
0.2027677165354331
 20
3.366086614173228
 30
0.0
 10
0.2027677165354331
 20
3.366086614173228
 30
0.0
  0
SPLINE
  5
59
330
1F
100
AcDbEntity
  8
LAYER_1
 62
   253
100
AcDbSpline
210
0.0
220
0.0
230
1.0
 70
    11
 71
     3
 72
    20
 73
    16
 74
     0
 42
0.0000000001
 43
0.0000000001
 40
0.0
 40
0.0
 40
0.0
 40
0.0
 40
0.25
 40
0.25
 40
0.25
 40
0.25
 40
0.5
 40
0.5
 40
0.5
 40
0.5
 40
0.75
 40
0.75
 40
0.75
 40
0.75
 40
1.0
 40
1.0
 40
1.0
 40
1.0
 10
0.2408070866141732
 20
3.341700787401575
 30
0.0
 10
0.2408070866141732
 20
3.341700787401575
 30
0.0
 10
0.8928582677165354
 20
3.719283464566929
 30
0.0
 10
0.8928582677165354
 20
3.719283464566929
 30
0.0
 10
0.8928582677165354
 20
3.719283464566929
 30
0.0
 10
0.8928582677165354
 20
3.719283464566929
 30
0.0
 10
0.9296141732283465
 20
3.693141732283465
 30
0.0
 10
0.9296141732283465
 20
3.693141732283465
 30
0.0
 10
0.9296141732283465
 20
3.693141732283465
 30
0.0
 10
0.9296141732283465
 20
3.693141732283465
 30
0.0
 10
0.2775629921259843
 20
3.31555905511811
 30
0.0
 10
0.2775629921259843
 20
3.31555905511811
 30
0.0
 10
0.2775629921259843
 20
3.31555905511811
 30
0.0
 10
0.2775629921259843
 20
3.31555905511811
 30
0.0
 10
0.2408070866141732
 20
3.341700787401575
 30
0.0
 10
0.2408070866141732
 20
3.341700787401575
 30
0.0
  0
SPLINE
  5
5A
330
1F
100
AcDbEntity
  8
LAYER_1
 62
   253
100
AcDbSpline
210
0.0
220
0.0
230
1.0
 70
    11
 71
     3
 72
    20
 73
    16
 74
     0
 42
0.0000000001
 43
0.0000000001
 40
0.0
 40
0.0
 40
0.0
 40
0.0
 40
0.25
 40
0.25
 40
0.25
 40
0.25
 40
0.5
 40
0.5
 40
0.5
 40
0.5
 40
0.75
 40
0.75
 40
0.75
 40
0.75
 40
1.0
 40
1.0
 40
1.0
 40
1.0
 10
0.2775629921259843
 20
3.31555905511811
 30
0.0
 10
0.2775629921259843
 20
3.31555905511811
 30
0.0
 10
0.9296141732283465
 20
3.693141732283465
 30
0.0
 10
0.9296141732283465
 20
3.693141732283465
 30
0.0
 10
0.9296141732283465
 20
3.693141732283465
 30
0.0
 10
0.9296141732283465
 20
3.693141732283465
 30
0.0
 10
0.9650354330708661
 20
3.665311023622047
 30
0.0
 10
0.9650354330708661
 20
3.665311023622047
 30
0.0
 10
0.9650354330708661
 20
3.665311023622047
 30
0.0
 10
0.9650354330708661
 20
3.665311023622047
 30
0.0
 10
0.3129842519685039
 20
3.287728346456693
 30
0.0
 10
0.3129842519685039
 20
3.287728346456693
 30
0.0
 10
0.3129842519685039
 20
3.287728346456693
 30
0.0
 10
0.3129842519685039
 20
3.287728346456693
 30
0.0
 10
0.2775629921259843
 20
3.31555905511811
 30
0.0
 10
0.2775629921259843
 20
3.31555905511811
 30
0.0
  0
SPLINE
  5
5B
330
1F
100
AcDbEntity
  8
LAYER_1
 62
   253
100
AcDbSpline
210
0.0
220
0.0
230
1.0
 70
    11
 71
     3
 72
    20
 73
    16
 74
     0
 42
0.0000000001
 43
0.0000000001
 40
0.0
 40
0.0
 40
0.0
 40
0.0
 40
0.25
 40
0.25
 40
0.25
 40
0.25
 40
0.5
 40
0.5
 40
0.5
 40
0.5
 40
0.75
 40
0.75
 40
0.75
 40
0.75
 40
1.0
 40
1.0
 40
1.0
 40
1.0
 10
0.3129842519685039
 20
3.287728346456693
 30
0.0
 10
0.3129842519685039
 20
3.287728346456693
 30
0.0
 10
0.9650354330708661
 20
3.665311023622047
 30
0.0
 10
0.9650354330708661
 20
3.665311023622047
 30
0.0
 10
0.9650354330708661
 20
3.665311023622047
 30
0.0
 10
0.9650354330708661
 20
3.665311023622047
 30
0.0
 10
0.9990511811023622
 20
3.63584251968504
 30
0.0
 10
0.9990511811023622
 20
3.63584251968504
 30
0.0
 10
0.9990511811023622
 20
3.63584251968504
 30
0.0
 10
0.9990511811023622
 20
3.63584251968504
 30
0.0
 10
0.347
 20
3.258259842519685
 30
0.0
 10
0.347
 20
3.258259842519685
 30
0.0
 10
0.347
 20
3.258259842519685
 30
0.0
 10
0.347
 20
3.258259842519685
 30
0.0
 10
0.3129842519685039
 20
3.287728346456693
 30
0.0
 10
0.3129842519685039
 20
3.287728346456693
 30
0.0
  0
SPLINE
  5
5C
330
1F
100
AcDbEntity
  8
LAYER_1
 62
   253
100
AcDbSpline
210
0.0
220
0.0
230
1.0
 70
    11
 71
     3
 72
    20
 73
    16
 74
     0
 42
0.0000000001
 43
0.0000000001
 40
0.0
 40
0.0
 40
0.0
 40
0.0
 40
0.25
 40
0.25
 40
0.25
 40
0.25
 40
0.5
 40
0.5
 40
0.5
 40
0.5
 40
0.75
 40
0.75
 40
0.75
 40
0.75
 40
1.0
 40
1.0
 40
1.0
 40
1.0
 10
0.347
 20
3.258259842519685
 30
0.0
 10
0.347
 20
3.258259842519685
 30
0.0
 10
0.9990511811023622
 20
3.63584251968504
 30
0.0
 10
0.9990511811023622
 20
3.63584251968504
 30
0.0
 10
0.9990511811023622
 20
3.63584251968504
 30
0.0
 10
0.9990511811023622
 20
3.63584251968504
 30
0.0
 10
1.031618110236221
 20
3.604803149606299
 30
0.0
 10
1.031618110236221
 20
3.604803149606299
 30
0.0
 10
1.031618110236221
 20
3.604803149606299
 30
0.0
 10
1.031618110236221
 20
3.604803149606299
 30
0.0
 10
0.3795669291338583
 20
3.227220472440945
 30
0.0
 10
0.3795669291338583
 20
3.227220472440945
 30
0.0
 10
0.3795669291338583
 20
3.227220472440945
 30
0.0
 10
0.3795669291338583
 20
3.227220472440945
 30
0.0
 10
0.347
 20
3.258259842519685
 30
0.0
 10
0.347
 20
3.258259842519685
 30
0.0
  0
SPLINE
  5
5D
330
1F
100
AcDbEntity
  8
LAYER_1
 62
   253
100
AcDbSpline
210
0.0
220
0.0
230
1.0
 70
    11
 71
     3
 72
    20
 73
    16
 74
     0
 42
0.0000000001
 43
0.0000000001
 40
0.0
 40
0.0
 40
0.0
 40
0.0
 40
0.25
 40
0.25
 40
0.25
 40
0.25
 40
0.5
 40
0.5
 40
0.5
 40
0.5
 40
0.75
 40
0.75
 40
0.75
 40
0.75
 40
1.0
 40
1.0
 40
1.0
 40
1.0
 10
0.3795669291338583
 20
3.227220472440945
 30
0.0
 10
0.3795669291338583
 20
3.227220472440945
 30
0.0
 10
1.031618110236221
 20
3.604803149606299
 30
0.0
 10
1.031618110236221
 20
3.604803149606299
 30
0.0
 10
1.031618110236221
 20
3.604803149606299
 30
0.0
 10
1.031618110236221
 20
3.604803149606299
 30
0.0
 10
1.062657480314961
 20
3.572236220472441
 30
0.0
 10
1.062657480314961
 20
3.572236220472441
 30
0.0
 10
1.062657480314961
 20
3.572236220472441
 30
0.0
 10
1.062657480314961
 20
3.572236220472441
 30
0.0
 10
0.4106062992125985
 20
3.194653543307087
 30
0.0
 10
0.4106062992125985
 20
3.194653543307087
 30
0.0
 10
0.4106062992125985
 20
3.194653543307087
 30
0.0
 10
0.4106062992125985
 20
3.194653543307087
 30
0.0
 10
0.3795669291338583
 20
3.227220472440945
 30
0.0
 10
0.3795669291338583
 20
3.227220472440945
 30
0.0
  0
SPLINE
  5
5E
330
1F
100
AcDbEntity
  8
LAYER_1
 62
   253
100
AcDbSpline
210
0.0
220
0.0
230
1.0
 70
    11
 71
     3
 72
    20
 73
    16
 74
     0
 42
0.0000000001
 43
0.0000000001
 40
0.0
 40
0.0
 40
0.0
 40
0.0
 40
0.25
 40
0.25
 40
0.25
 40
0.25
 40
0.5
 40
0.5
 40
0.5
 40
0.5
 40
0.75
 40
0.75
 40
0.75
 40
0.75
 40
1.0
 40
1.0
 40
1.0
 40
1.0
 10
0.4106062992125985
 20
3.194653543307087
 30
0.0
 10
0.4106062992125985
 20
3.194653543307087
 30
0.0
 10
1.062657480314961
 20
3.572236220472441
 30
0.0
 10
1.062657480314961
 20
3.572236220472441
 30
0.0
 10
1.062657480314961
 20
3.572236220472441
 30
0.0
 10
1.062657480314961
 20
3.572236220472441
 30
0.0
 10
1.092125984251969
 20
3.538220472440945
 30
0.0
 10
1.092125984251969
 20
3.538220472440945
 30
0.0
 10
1.092125984251969
 20
3.538220472440945
 30
0.0
 10
1.092125984251969
 20
3.538220472440945
 30
0.0
 10
0.4400748031496063
 20
3.160637795275591
 30
0.0
 10
0.4400748031496063
 20
3.160637795275591
 30
0.0
 10
0.4400748031496063
 20
3.160637795275591
 30
0.0
 10
0.4400748031496063
 20
3.160637795275591
 30
0.0
 10
0.4106062992125985
 20
3.194653543307087
 30
0.0
 10
0.4106062992125985
 20
3.194653543307087
 30
0.0
  0
SPLINE
  5
5F
330
1F
100
AcDbEntity
  8
LAYER_1
 62
   253
100
AcDbSpline
210
0.0
220
0.0
230
1.0
 70
    11
 71
     3
 72
    20
 73
    16
 74
     0
 42
0.0000000001
 43
0.0000000001
 40
0.0
 40
0.0
 40
0.0
 40
0.0
 40
0.25
 40
0.25
 40
0.25
 40
0.25
 40
0.5
 40
0.5
 40
0.5
 40
0.5
 40
0.75
 40
0.75
 40
0.75
 40
0.75
 40
1.0
 40
1.0
 40
1.0
 40
1.0
 10
0.4400748031496063
 20
3.160637795275591
 30
0.0
 10
0.4400748031496063
 20
3.160637795275591
 30
0.0
 10
1.092125984251969
 20
3.538220472440945
 30
0.0
 10
1.092125984251969
 20
3.538220472440945
 30
0.0
 10
1.092125984251969
 20
3.538220472440945
 30
0.0
 10
1.092125984251969
 20
3.538220472440945
 30
0.0
 10
1.119956692913386
 20
3.502799212598426
 30
0.0
 10
1.119956692913386
 20
3.502799212598426
 30
0.0
 10
1.119956692913386
 20
3.502799212598426
 30
0.0
 10
1.119956692913386
 20
3.502799212598426
 30
0.0
 10
0.4679055118110236
 20
3.125216535433071
 30
0.0
 10
0.4679055118110236
 20
3.125216535433071
 30
0.0
 10
0.4679055118110236
 20
3.125216535433071
 30
0.0
 10
0.4679055118110236
 20
3.125216535433071
 30
0.0
 10
0.4400748031496063
 20
3.160637795275591
 30
0.0
 10
0.4400748031496063
 20
3.160637795275591
 30
0.0
  0
SPLINE
  5
60
330
1F
100
AcDbEntity
  8
LAYER_1
 62
   253
100
AcDbSpline
210
0.0
220
0.0
230
1.0
 70
    11
 71
     3
 72
    20
 73
    16
 74
     0
 42
0.0000000001
 43
0.0000000001
 40
0.0
 40
0.0
 40
0.0
 40
0.0
 40
0.25
 40
0.25
 40
0.25
 40
0.25
 40
0.5
 40
0.5
 40
0.5
 40
0.5
 40
0.75
 40
0.75
 40
0.75
 40
0.75
 40
1.0
 40
1.0
 40
1.0
 40
1.0
 10
0.4679055118110236
 20
3.125216535433071
 30
0.0
 10
0.4679055118110236
 20
3.125216535433071
 30
0.0
 10
1.119956692913386
 20
3.502799212598426
 30
0.0
 10
1.119956692913386
 20
3.502799212598426
 30
0.0
 10
1.119956692913386
 20
3.502799212598426
 30
0.0
 10
1.119956692913386
 20
3.502799212598426
 30
0.0
 10
1.146098425196851
 20
3.466047244094488
 30
0.0
 10
1.146098425196851
 20
3.466047244094488
 30
0.0
 10
1.146098425196851
 20
3.466047244094488
 30
0.0
 10
1.146098425196851
 20
3.466047244094488
 30
0.0
 10
0.4940472440944882
 20
3.088464566929134
 30
0.0
 10
0.4940472440944882
 20
3.088464566929134
 30
0.0
 10
0.4940472440944882
 20
3.088464566929134
 30
0.0
 10
0.4940472440944882
 20
3.088464566929134
 30
0.0
 10
0.4679055118110236
 20
3.125216535433071
 30
0.0
 10
0.4679055118110236
 20
3.125216535433071
 30
0.0
  0
SPLINE
  5
61
330
1F
100
AcDbEntity
  8
LAYER_1
 62
   253
100
AcDbSpline
210
0.0
220
0.0
230
1.0
 70
    11
 71
     3
 72
    20
 73
    16
 74
     0
 42
0.0000000001
 43
0.0000000001
 40
0.0
 40
0.0
 40
0.0
 40
0.0
 40
0.25
 40
0.25
 40
0.25
 40
0.25
 40
0.5
 40
0.5
 40
0.5
 40
0.5
 40
0.75
 40
0.75
 40
0.75
 40
0.75
 40
1.0
 40
1.0
 40
1.0
 40
1.0
 10
0.4940472440944882
 20
3.088464566929134
 30
0.0
 10
0.4940472440944882
 20
3.088464566929134
 30
0.0
 10
1.146098425196851
 20
3.466047244094488
 30
0.0
 10
1.146098425196851
 20
3.466047244094488
 30
0.0
 10
1.146098425196851
 20
3.466047244094488
 30
0.0
 10
1.146098425196851
 20
3.466047244094488
 30
0.0
 10
1.170484251968504
 20
3.428007874015748
 30
0.0
 10
1.170484251968504
 20
3.428007874015748
 30
0.0
 10
1.170484251968504
 20
3.428007874015748
 30
0.0
 10
1.170484251968504
 20
3.428007874015748
 30
0.0
 10
0.5184330708661418
 20
3.050425196850394
 30
0.0
 10
0.5184330708661418
 20
3.050425196850394
 30
0.0
 10
0.5184330708661418
 20
3.050425196850394
 30
0.0
 10
0.5184330708661418
 20
3.050425196850394
 30
0.0
 10
0.4940472440944882
 20
3.088464566929134
 30
0.0
 10
0.4940472440944882
 20
3.088464566929134
 30
0.0
  0
SPLINE
  5
62
330
1F
100
AcDbEntity
  8
LAYER_1
 62
   253
100
AcDbSpline
210
0.0
220
0.0
230
1.0
 70
    11
 71
     3
 72
    20
 73
    16
 74
     0
 42
0.0000000001
 43
0.0000000001
 40
0.0
 40
0.0
 40
0.0
 40
0.0
 40
0.25
 40
0.25
 40
0.25
 40
0.25
 40
0.5
 40
0.5
 40
0.5
 40
0.5
 40
0.75
 40
0.75
 40
0.75
 40
0.75
 40
1.0
 40
1.0
 40
1.0
 40
1.0
 10
0.5184330708661418
 20
3.050425196850394
 30
0.0
 10
0.5184330708661418
 20
3.050425196850394
 30
0.0
 10
1.170484251968504
 20
3.428007874015748
 30
0.0
 10
1.170484251968504
 20
3.428007874015748
 30
0.0
 10
1.170484251968504
 20
3.428007874015748
 30
0.0
 10
1.170484251968504
 20
3.428007874015748
 30
0.0
 10
1.193062992125984
 20
3.388751968503937
 30
0.0
 10
1.193062992125984
 20
3.388751968503937
 30
0.0
 10
1.193062992125984
 20
3.388751968503937
 30
0.0
 10
1.193062992125984
 20
3.388751968503937
 30
0.0
 10
0.5410118110236221
 20
3.011169291338583
 30
0.0
 10
0.5410118110236221
 20
3.011169291338583
 30
0.0
 10
0.5410118110236221
 20
3.011169291338583
 30
0.0
 10
0.5410118110236221
 20
3.011169291338583
 30
0.0
 10
0.5184330708661418
 20
3.050425196850394
 30
0.0
 10
0.5184330708661418
 20
3.050425196850394
 30
0.0
  0
SPLINE
  5
63
330
1F
100
AcDbEntity
  8
LAYER_1
 62
   253
100
AcDbSpline
210
0.0
220
0.0
230
1.0
 70
    11
 71
     3
 72
    20
 73
    16
 74
     0
 42
0.0000000001
 43
0.0000000001
 40
0.0
 40
0.0
 40
0.0
 40
0.0
 40
0.25
 40
0.25
 40
0.25
 40
0.25
 40
0.5
 40
0.5
 40
0.5
 40
0.5
 40
0.75
 40
0.75
 40
0.75
 40
0.75
 40
1.0
 40
1.0
 40
1.0
 40
1.0
 10
0.5410118110236221
 20
3.011169291338583
 30
0.0
 10
0.5410118110236221
 20
3.011169291338583
 30
0.0
 10
1.193062992125984
 20
3.388751968503937
 30
0.0
 10
1.193062992125984
 20
3.388751968503937
 30
0.0
 10
1.193062992125984
 20
3.388751968503937
 30
0.0
 10
1.193062992125984
 20
3.388751968503937
 30
0.0
 10
1.213767716535433
 20
3.348326771653543
 30
0.0
 10
1.213767716535433
 20
3.348326771653543
 30
0.0
 10
1.213767716535433
 20
3.348326771653543
 30
0.0
 10
1.213767716535433
 20
3.348326771653543
 30
0.0
 10
0.5617165354330709
 20
2.970744094488189
 30
0.0
 10
0.5617165354330709
 20
2.970744094488189
 30
0.0
 10
0.5617165354330709
 20
2.970744094488189
 30
0.0
 10
0.5617165354330709
 20
2.970744094488189
 30
0.0
 10
0.5410118110236221
 20
3.011169291338583
 30
0.0
 10
0.5410118110236221
 20
3.011169291338583
 30
0.0
  0
SPLINE
  5
64
330
1F
100
AcDbEntity
  8
LAYER_1
 62
   253
100
AcDbSpline
210
0.0
220
0.0
230
1.0
 70
    11
 71
     3
 72
    20
 73
    16
 74
     0
 42
0.0000000001
 43
0.0000000001
 40
0.0
 40
0.0
 40
0.0
 40
0.0
 40
0.25
 40
0.25
 40
0.25
 40
0.25
 40
0.5
 40
0.5
 40
0.5
 40
0.5
 40
0.75
 40
0.75
 40
0.75
 40
0.75
 40
1.0
 40
1.0
 40
1.0
 40
1.0
 10
0.5617165354330709
 20
2.970744094488189
 30
0.0
 10
0.5617165354330709
 20
2.970744094488189
 30
0.0
 10
1.213767716535433
 20
3.348326771653543
 30
0.0
 10
1.213767716535433
 20
3.348326771653543
 30
0.0
 10
1.213767716535433
 20
3.348326771653543
 30
0.0
 10
1.213767716535433
 20
3.348326771653543
 30
0.0
 10
1.232551181102362
 20
3.306803149606299
 30
0.0
 10
1.232551181102362
 20
3.306803149606299
 30
0.0
 10
1.232551181102362
 20
3.306803149606299
 30
0.0
 10
1.232551181102362
 20
3.306803149606299
 30
0.0
 10
0.5805
 20
2.929220472440945
 30
0.0
 10
0.5805
 20
2.929220472440945
 30
0.0
 10
0.5805
 20
2.929220472440945
 30
0.0
 10
0.5805
 20
2.929220472440945
 30
0.0
 10
0.5617165354330709
 20
2.970744094488189
 30
0.0
 10
0.5617165354330709
 20
2.970744094488189
 30
0.0
  0
SPLINE
  5
65
330
1F
100
AcDbEntity
  8
LAYER_1
 62
   253
100
AcDbSpline
210
0.0
220
0.0
230
1.0
 70
    11
 71
     3
 72
    20
 73
    16
 74
     0
 42
0.0000000001
 43
0.0000000001
 40
0.0
 40
0.0
 40
0.0
 40
0.0
 40
0.25
 40
0.25
 40
0.25
 40
0.25
 40
0.5
 40
0.5
 40
0.5
 40
0.5
 40
0.75
 40
0.75
 40
0.75
 40
0.75
 40
1.0
 40
1.0
 40
1.0
 40
1.0
 10
0.5805
 20
2.929220472440945
 30
0.0
 10
0.5805
 20
2.929220472440945
 30
0.0
 10
1.232551181102362
 20
3.306803149606299
 30
0.0
 10
1.232551181102362
 20
3.306803149606299
 30
0.0
 10
1.232551181102362
 20
3.306803149606299
 30
0.0
 10
1.232551181102362
 20
3.306803149606299
 30
0.0
 10
1.249334645669291
 20
3.264228346456693
 30
0.0
 10
1.249334645669291
 20
3.264228346456693
 30
0.0
 10
1.249334645669291
 20
3.264228346456693
 30
0.0
 10
1.249334645669291
 20
3.264228346456693
 30
0.0
 10
0.5972834645669292
 20
2.886645669291339
 30
0.0
 10
0.5972834645669292
 20
2.886645669291339
 30
0.0
 10
0.5972834645669292
 20
2.886645669291339
 30
0.0
 10
0.5972834645669292
 20
2.886645669291339
 30
0.0
 10
0.5805
 20
2.929220472440945
 30
0.0
 10
0.5805
 20
2.929220472440945
 30
0.0
  0
SPLINE
  5
66
330
1F
100
AcDbEntity
  8
LAYER_1
 62
   253
100
AcDbSpline
210
0.0
220
0.0
230
1.0
 70
    11
 71
     3
 72
    20
 73
    16
 74
     0
 42
0.0000000001
 43
0.0000000001
 40
0.0
 40
0.0
 40
0.0
 40
0.0
 40
0.25
 40
0.25
 40
0.25
 40
0.25
 40
0.5
 40
0.5
 40
0.5
 40
0.5
 40
0.75
 40
0.75
 40
0.75
 40
0.75
 40
1.0
 40
1.0
 40
1.0
 40
1.0
 10
0.5972834645669292
 20
2.886645669291339
 30
0.0
 10
0.5972834645669292
 20
2.886645669291339
 30
0.0
 10
1.249334645669291
 20
3.264228346456693
 30
0.0
 10
1.249334645669291
 20
3.264228346456693
 30
0.0
 10
1.249334645669291
 20
3.264228346456693
 30
0.0
 10
1.249334645669291
 20
3.264228346456693
 30
0.0
 10
1.264078740157481
 20
3.220673228346457
 30
0.0
 10
1.264078740157481
 20
3.220673228346457
 30
0.0
 10
1.264078740157481
 20
3.220673228346457
 30
0.0
 10
1.264078740157481
 20
3.220673228346457
 30
0.0
 10
0.6120275590551182
 20
2.843090551181103
 30
0.0
 10
0.6120275590551182
 20
2.843090551181103
 30
0.0
 10
0.6120275590551182
 20
2.843090551181103
 30
0.0
 10
0.6120275590551182
 20
2.843090551181103
 30
0.0
 10
0.5972834645669292
 20
2.886645669291339
 30
0.0
 10
0.5972834645669292
 20
2.886645669291339
 30
0.0
  0
SPLINE
  5
67
330
1F
100
AcDbEntity
  8
LAYER_1
 62
   253
100
AcDbSpline
210
0.0
220
0.0
230
1.0
 70
    11
 71
     3
 72
    20
 73
    16
 74
     0
 42
0.0000000001
 43
0.0000000001
 40
0.0
 40
0.0
 40
0.0
 40
0.0
 40
0.25
 40
0.25
 40
0.25
 40
0.25
 40
0.5
 40
0.5
 40
0.5
 40
0.5
 40
0.75
 40
0.75
 40
0.75
 40
0.75
 40
1.0
 40
1.0
 40
1.0
 40
1.0
 10
0.6120275590551182
 20
2.843090551181103
 30
0.0
 10
0.6120275590551182
 20
2.843090551181103
 30
0.0
 10
1.264078740157481
 20
3.220673228346457
 30
0.0
 10
1.264078740157481
 20
3.220673228346457
 30
0.0
 10
1.264078740157481
 20
3.220673228346457
 30
0.0
 10
1.264078740157481
 20
3.220673228346457
 30
0.0
 10
1.276712598425197
 20
3.176185039370079
 30
0.0
 10
1.276712598425197
 20
3.176185039370079
 30
0.0
 10
1.276712598425197
 20
3.176185039370079
 30
0.0
 10
1.276712598425197
 20
3.176185039370079
 30
0.0
 10
0.6246614173228346
 20
2.798602362204725
 30
0.0
 10
0.6246614173228346
 20
2.798602362204725
 30
0.0
 10
0.6246614173228346
 20
2.798602362204725
 30
0.0
 10
0.6246614173228346
 20
2.798602362204725
 30
0.0
 10
0.6120275590551182
 20
2.843090551181103
 30
0.0
 10
0.6120275590551182
 20
2.843090551181103
 30
0.0
  0
SPLINE
  5
68
330
1F
100
AcDbEntity
  8
LAYER_1
 62
   253
100
AcDbSpline
210
0.0
220
0.0
230
1.0
 70
    11
 71
     3
 72
    20
 73
    16
 74
     0
 42
0.0000000001
 43
0.0000000001
 40
0.0
 40
0.0
 40
0.0
 40
0.0
 40
0.25
 40
0.25
 40
0.25
 40
0.25
 40
0.5
 40
0.5
 40
0.5
 40
0.5
 40
0.75
 40
0.75
 40
0.75
 40
0.75
 40
1.0
 40
1.0
 40
1.0
 40
1.0
 10
0.6246614173228346
 20
2.798602362204725
 30
0.0
 10
0.6246614173228346
 20
2.798602362204725
 30
0.0
 10
1.276712598425197
 20
3.176185039370079
 30
0.0
 10
1.276712598425197
 20
3.176185039370079
 30
0.0
 10
1.276712598425197
 20
3.176185039370079
 30
0.0
 10
1.276712598425197
 20
3.176185039370079
 30
0.0
 10
1.287185039370079
 20
3.130834645669292
 30
0.0
 10
1.287185039370079
 20
3.130834645669292
 30
0.0
 10
1.287185039370079
 20
3.130834645669292
 30
0.0
 10
1.287185039370079
 20
3.130834645669292
 30
0.0
 10
0.6351338582677165
 20
2.753251968503937
 30
0.0
 10
0.6351338582677165
 20
2.753251968503937
 30
0.0
 10
0.6351338582677165
 20
2.753251968503937
 30
0.0
 10
0.6351338582677165
 20
2.753251968503937
 30
0.0
 10
0.6246614173228346
 20
2.798602362204725
 30
0.0
 10
0.6246614173228346
 20
2.798602362204725
 30
0.0
  0
SPLINE
  5
69
330
1F
100
AcDbEntity
  8
LAYER_1
 62
   253
100
AcDbSpline
210
0.0
220
0.0
230
1.0
 70
    11
 71
     3
 72
    20
 73
    16
 74
     0
 42
0.0000000001
 43
0.0000000001
 40
0.0
 40
0.0
 40
0.0
 40
0.0
 40
0.25
 40
0.25
 40
0.25
 40
0.25
 40
0.5
 40
0.5
 40
0.5
 40
0.5
 40
0.75
 40
0.75
 40
0.75
 40
0.75
 40
1.0
 40
1.0
 40
1.0
 40
1.0
 10
0.6351338582677165
 20
2.753251968503937
 30
0.0
 10
0.6351338582677165
 20
2.753251968503937
 30
0.0
 10
1.287185039370079
 20
3.130834645669292
 30
0.0
 10
1.287185039370079
 20
3.130834645669292
 30
0.0
 10
1.287185039370079
 20
3.130834645669292
 30
0.0
 10
1.287185039370079
 20
3.130834645669292
 30
0.0
 10
1.295429133858268
 20
3.084669291338583
 30
0.0
 10
1.295429133858268
 20
3.084669291338583
 30
0.0
 10
1.295429133858268
 20
3.084669291338583
 30
0.0
 10
1.295429133858268
 20
3.084669291338583
 30
0.0
 10
0.6433779527559056
 20
2.707086614173229
 30
0.0
 10
0.6433779527559056
 20
2.707086614173229
 30
0.0
 10
0.6433779527559056
 20
2.707086614173229
 30
0.0
 10
0.6433779527559056
 20
2.707086614173229
 30
0.0
 10
0.6351338582677165
 20
2.753251968503937
 30
0.0
 10
0.6351338582677165
 20
2.753251968503937
 30
0.0
  0
SPLINE
  5
6A
330
1F
100
AcDbEntity
  8
LAYER_1
 62
   253
100
AcDbSpline
210
0.0
220
0.0
230
1.0
 70
    11
 71
     3
 72
    20
 73
    16
 74
     0
 42
0.0000000001
 43
0.0000000001
 40
0.0
 40
0.0
 40
0.0
 40
0.0
 40
0.25
 40
0.25
 40
0.25
 40
0.25
 40
0.5
 40
0.5
 40
0.5
 40
0.5
 40
0.75
 40
0.75
 40
0.75
 40
0.75
 40
1.0
 40
1.0
 40
1.0
 40
1.0
 10
0.6433779527559056
 20
2.707086614173229
 30
0.0
 10
0.6433779527559056
 20
2.707086614173229
 30
0.0
 10
1.295429133858268
 20
3.084669291338583
 30
0.0
 10
1.295429133858268
 20
3.084669291338583
 30
0.0
 10
1.295429133858268
 20
3.084669291338583
 30
0.0
 10
1.295429133858268
 20
3.084669291338583
 30
0.0
 10
1.301393700787402
 20
3.037759842519685
 30
0.0
 10
1.301393700787402
 20
3.037759842519685
 30
0.0
 10
1.301393700787402
 20
3.037759842519685
 30
0.0
 10
1.301393700787402
 20
3.037759842519685
 30
0.0
 10
0.6493425196850394
 20
2.660177165354331
 30
0.0
 10
0.6493425196850394
 20
2.660177165354331
 30
0.0
 10
0.6493425196850394
 20
2.660177165354331
 30
0.0
 10
0.6493425196850394
 20
2.660177165354331
 30
0.0
 10
0.6433779527559056
 20
2.707086614173229
 30
0.0
 10
0.6433779527559056
 20
2.707086614173229
 30
0.0
  0
SPLINE
  5
6B
330
1F
100
AcDbEntity
  8
LAYER_1
 62
   253
100
AcDbSpline
210
0.0
220
0.0
230
1.0
 70
    11
 71
     3
 72
    20
 73
    16
 74
     0
 42
0.0000000001
 43
0.0000000001
 40
0.0
 40
0.0
 40
0.0
 40
0.0
 40
0.25
 40
0.25
 40
0.25
 40
0.25
 40
0.5
 40
0.5
 40
0.5
 40
0.5
 40
0.75
 40
0.75
 40
0.75
 40
0.75
 40
1.0
 40
1.0
 40
1.0
 40
1.0
 10
0.6493425196850394
 20
2.660177165354331
 30
0.0
 10
0.6493425196850394
 20
2.660177165354331
 30
0.0
 10
1.301393700787402
 20
3.037759842519685
 30
0.0
 10
1.301393700787402
 20
3.037759842519685
 30
0.0
 10
1.301393700787402
 20
3.037759842519685
 30
0.0
 10
1.301393700787402
 20
3.037759842519685
 30
0.0
 10
1.305015748031496
 20
2.990157480314961
 30
0.0
 10
1.305015748031496
 20
2.990157480314961
 30
0.0
 10
1.305015748031496
 20
2.990157480314961
 30
0.0
 10
1.305015748031496
 20
2.990157480314961
 30
0.0
 10
0.6529645669291339
 20
2.612574803149606
 30
0.0
 10
0.6529645669291339
 20
2.612574803149606
 30
0.0
 10
0.6529645669291339
 20
2.612574803149606
 30
0.0
 10
0.6529645669291339
 20
2.612574803149606
 30
0.0
 10
0.6493425196850394
 20
2.660177165354331
 30
0.0
 10
0.6493425196850394
 20
2.660177165354331
 30
0.0
  0
SPLINE
  5
6C
330
1F
100
AcDbEntity
  8
LAYER_1
 62
   253
100
AcDbSpline
210
0.0
220
0.0
230
1.0
 70
    11
 71
     3
 72
    20
 73
    16
 74
     0
 42
0.0000000001
 43
0.0000000001
 40
0.0
 40
0.0
 40
0.0
 40
0.0
 40
0.25
 40
0.25
 40
0.25
 40
0.25
 40
0.5
 40
0.5
 40
0.5
 40
0.5
 40
0.75
 40
0.75
 40
0.75
 40
0.75
 40
1.0
 40
1.0
 40
1.0
 40
1.0
 10
0.6529645669291339
 20
2.612574803149606
 30
0.0
 10
0.6529645669291339
 20
2.612574803149606
 30
0.0
 10
1.305015748031496
 20
2.990157480314961
 30
0.0
 10
1.305015748031496
 20
2.990157480314961
 30
0.0
 10
1.305015748031496
 20
2.990157480314961
 30
0.0
 10
1.305015748031496
 20
2.990157480314961
 30
0.0
 10
1.306240157480315
 20
2.941929133858268
 30
0.0
 10
1.306240157480315
 20
2.941929133858268
 30
0.0
 10
1.306240157480315
 20
2.941929133858268
 30
0.0
 10
1.306240157480315
 20
2.941929133858268
 30
0.0
 10
0.6541889763779528
 20
2.564346456692913
 30
0.0
 10
0.6541889763779528
 20
2.564346456692913
 30
0.0
 10
0.6541889763779528
 20
2.564346456692913
 30
0.0
 10
0.6541889763779528
 20
2.564346456692913
 30
0.0
 10
0.6529645669291339
 20
2.612574803149606
 30
0.0
 10
0.6529645669291339
 20
2.612574803149606
 30
0.0
  0
SPLINE
  5
6D
330
1F
100
AcDbEntity
  8
LAYER_1
 62
   250
100
AcDbSpline
210
0.0
220
0.0
230
1.0
 70
    11
 71
     3
 72
   348
 73
   344
 74
     0
 42
0.0000000001
 43
0.0000000001
 40
0.0
 40
0.0
 40
0.0
 40
0.0
 40
0.0116279069767442
 40
0.0116279069767442
 40
0.0116279069767442
 40
0.0116279069767442
 40
0.0232558139534884
 40
0.0232558139534884
 40
0.0232558139534884
 40
0.0232558139534884
 40
0.0348837209302326
 40
0.0348837209302326
 40
0.0348837209302326
 40
0.0348837209302326
 40
0.0465116279069767
 40
0.0465116279069767
 40
0.0465116279069767
 40
0.0465116279069767
 40
0.0581395348837209
 40
0.0581395348837209
 40
0.0581395348837209
 40
0.0581395348837209
 40
0.0697674418604651
 40
0.0697674418604651
 40
0.0697674418604651
 40
0.0697674418604651
 40
0.0813953488372093
 40
0.0813953488372093
 40
0.0813953488372093
 40
0.0813953488372093
 40
0.0930232558139535
 40
0.0930232558139535
 40
0.0930232558139535
 40
0.0930232558139535
 40
0.1046511627906977
 40
0.1046511627906977
 40
0.1046511627906977
 40
0.1046511627906977
 40
0.1162790697674418
 40
0.1162790697674418
 40
0.1162790697674418
 40
0.1162790697674418
 40
0.127906976744186
 40
0.127906976744186
 40
0.127906976744186
 40
0.127906976744186
 40
0.1395348837209302
 40
0.1395348837209302
 40
0.1395348837209302
 40
0.1395348837209302
 40
0.1511627906976744
 40
0.1511627906976744
 40
0.1511627906976744
 40
0.1511627906976744
 40
0.1627906976744186
 40
0.1627906976744186
 40
0.1627906976744186
 40
0.1627906976744186
 40
0.1744186046511627
 40
0.1744186046511627
 40
0.1744186046511627
 40
0.1744186046511627
 40
0.1860465116279069
 40
0.1860465116279069
 40
0.1860465116279069
 40
0.1860465116279069
 40
0.1976744186046511
 40
0.1976744186046511
 40
0.1976744186046511
 40
0.1976744186046511
 40
0.2093023255813953
 40
0.2093023255813953
 40
0.2093023255813953
 40
0.2093023255813953
 40
0.2209302325581395
 40
0.2209302325581395
 40
0.2209302325581395
 40
0.2209302325581395
 40
0.2325581395348836
 40
0.2325581395348836
 40
0.2325581395348836
 40
0.2325581395348836
 40
0.2441860465116278
 40
0.2441860465116278
 40
0.2441860465116278
 40
0.2441860465116278
 40
0.255813953488372
 40
0.255813953488372
 40
0.255813953488372
 40
0.255813953488372
 40
0.2674418604651162
 40
0.2674418604651162
 40
0.2674418604651162
 40
0.2674418604651162
 40
0.2790697674418604
 40
0.2790697674418604
 40
0.2790697674418604
 40
0.2790697674418604
 40
0.2906976744186046
 40
0.2906976744186046
 40
0.2906976744186046
 40
0.2906976744186046
 40
0.3023255813953488
 40
0.3023255813953488
 40
0.3023255813953488
 40
0.3023255813953488
 40
0.313953488372093
 40
0.313953488372093
 40
0.313953488372093
 40
0.313953488372093
 40
0.3255813953488372
 40
0.3255813953488372
 40
0.3255813953488372
 40
0.3255813953488372
 40
0.3372093023255814
 40
0.3372093023255814
 40
0.3372093023255814
 40
0.3372093023255814
 40
0.3488372093023257
 40
0.3488372093023257
 40
0.3488372093023257
 40
0.3488372093023257
 40
0.3604651162790699
 40
0.3604651162790699
 40
0.3604651162790699
 40
0.3604651162790699
 40
0.3720930232558141
 40
0.3720930232558141
 40
0.3720930232558141
 40
0.3720930232558141
 40
0.3837209302325583
 40
0.3837209302325583
 40
0.3837209302325583
 40
0.3837209302325583
 40
0.3953488372093025
 40
0.3953488372093025
 40
0.3953488372093025
 40
0.3953488372093025
 40
0.4069767441860467
 40
0.4069767441860467
 40
0.4069767441860467
 40
0.4069767441860467
 40
0.4186046511627909
 40
0.4186046511627909
 40
0.4186046511627909
 40
0.4186046511627909
 40
0.4302325581395351
 40
0.4302325581395351
 40
0.4302325581395351
 40
0.4302325581395351
 40
0.4418604651162793
 40
0.4418604651162793
 40
0.4418604651162793
 40
0.4418604651162793
 40
0.4534883720930235
 40
0.4534883720930235
 40
0.4534883720930235
 40
0.4534883720930235
 40
0.4651162790697677
 40
0.4651162790697677
 40
0.4651162790697677
 40
0.4651162790697677
 40
0.4767441860465119
 40
0.4767441860465119
 40
0.4767441860465119
 40
0.4767441860465119
 40
0.4883720930232561
 40
0.4883720930232561
 40
0.4883720930232561
 40
0.4883720930232561
 40
0.5000000000000003
 40
0.5000000000000003
 40
0.5000000000000003
 40
0.5000000000000003
 40
0.5116279069767445
 40
0.5116279069767445
 40
0.5116279069767445
 40
0.5116279069767445
 40
0.5232558139534888
 40
0.5232558139534888
 40
0.5232558139534888
 40
0.5232558139534888
 40
0.534883720930233
 40
0.534883720930233
 40
0.534883720930233
 40
0.534883720930233
 40
0.5465116279069772
 40
0.5465116279069772
 40
0.5465116279069772
 40
0.5465116279069772
 40
0.5581395348837214
 40
0.5581395348837214
 40
0.5581395348837214
 40
0.5581395348837214
 40
0.5697674418604656
 40
0.5697674418604656
 40
0.5697674418604656
 40
0.5697674418604656
 40
0.5813953488372098
 40
0.5813953488372098
 40
0.5813953488372098
 40
0.5813953488372098
 40
0.593023255813954
 40
0.593023255813954
 40
0.593023255813954
 40
0.593023255813954
 40
0.6046511627906982
 40
0.6046511627906982
 40
0.6046511627906982
 40
0.6046511627906982
 40
0.6162790697674424
 40
0.6162790697674424
 40
0.6162790697674424
 40
0.6162790697674424
 40
0.6279069767441866
 40
0.6279069767441866
 40
0.6279069767441866
 40
0.6279069767441866
 40
0.6395348837209308
 40
0.6395348837209308
 40
0.6395348837209308
 40
0.6395348837209308
 40
0.651162790697675
 40
0.651162790697675
 40
0.651162790697675
 40
0.651162790697675
 40
0.6627906976744192
 40
0.6627906976744192
 40
0.6627906976744192
 40
0.6627906976744192
 40
0.6744186046511634
 40
0.6744186046511634
 40
0.6744186046511634
 40
0.6744186046511634
 40
0.6860465116279076
 40
0.6860465116279076
 40
0.6860465116279076
 40
0.6860465116279076
 40
0.6976744186046519
 40
0.6976744186046519
 40
0.6976744186046519
 40
0.6976744186046519
 40
0.7093023255813961
 40
0.7093023255813961
 40
0.7093023255813961
 40
0.7093023255813961
 40
0.7209302325581403
 40
0.7209302325581403
 40
0.7209302325581403
 40
0.7209302325581403
 40
0.7325581395348845
 40
0.7325581395348845
 40
0.7325581395348845
 40
0.7325581395348845
 40
0.7441860465116287
 40
0.7441860465116287
 40
0.7441860465116287
 40
0.7441860465116287
 40
0.7558139534883729
 40
0.7558139534883729
 40
0.7558139534883729
 40
0.7558139534883729
 40
0.7674418604651171
 40
0.7674418604651171
 40
0.7674418604651171
 40
0.7674418604651171
 40
0.7790697674418613
 40
0.7790697674418613
 40
0.7790697674418613
 40
0.7790697674418613
 40
0.7906976744186055
 40
0.7906976744186055
 40
0.7906976744186055
 40
0.7906976744186055
 40
0.8023255813953497
 40
0.8023255813953497
 40
0.8023255813953497
 40
0.8023255813953497
 40
0.8139534883720939
 40
0.8139534883720939
 40
0.8139534883720939
 40
0.8139534883720939
 40
0.8255813953488381
 40
0.8255813953488381
 40
0.8255813953488381
 40
0.8255813953488381
 40
0.8372093023255823
 40
0.8372093023255823
 40
0.8372093023255823
 40
0.8372093023255823
 40
0.8488372093023265
 40
0.8488372093023265
 40
0.8488372093023265
 40
0.8488372093023265
 40
0.8604651162790707
 40
0.8604651162790707
 40
0.8604651162790707
 40
0.8604651162790707
 40
0.872093023255815
 40
0.872093023255815
 40
0.872093023255815
 40
0.872093023255815
 40
0.8837209302325592
 40
0.8837209302325592
 40
0.8837209302325592
 40
0.8837209302325592
 40
0.8953488372093034
 40
0.8953488372093034
 40
0.8953488372093034
 40
0.8953488372093034
 40
0.9069767441860476
 40
0.9069767441860476
 40
0.9069767441860476
 40
0.9069767441860476
 40
0.9186046511627918
 40
0.9186046511627918
 40
0.9186046511627918
 40
0.9186046511627918
 40
0.930232558139536
 40
0.930232558139536
 40
0.930232558139536
 40
0.930232558139536
 40
0.9418604651162802
 40
0.9418604651162802
 40
0.9418604651162802
 40
0.9418604651162802
 40
0.9534883720930244
 40
0.9534883720930244
 40
0.9534883720930244
 40
0.9534883720930244
 40
0.9651162790697686
 40
0.9651162790697686
 40
0.9651162790697686
 40
0.9651162790697686
 40
0.9767441860465128
 40
0.9767441860465128
 40
0.9767441860465128
 40
0.9767441860465128
 40
0.988372093023257
 40
0.988372093023257
 40
0.988372093023257
 40
0.988372093023257
 40
1.0
 40
1.0
 40
1.0
 40
1.0
 10
-0.7301377952755905
 20
3.388665354330709
 30
0.0
 10
-0.7301377952755905
 20
3.388665354330709
 30
0.0
 10
-0.0780866141732283
 20
3.766248031496063
 30
0.0
 10
-0.0780866141732283
 20
3.766248031496063
 30
0.0
 10
-0.0780866141732283
 20
3.766248031496063
 30
0.0
 10
-0.0780866141732283
 20
3.766248031496063
 30
0.0
 10
-0.0376614173228347
 20
3.786952755905512
 30
0.0
 10
-0.0376614173228347
 20
3.786952755905512
 30
0.0
 10
-0.0376614173228347
 20
3.786952755905512
 30
0.0
 10
-0.0376614173228347
 20
3.786952755905512
 30
0.0
 10
0.0038622047244094
 20
3.805736220472441
 30
0.0
 10
0.0038622047244094
 20
3.805736220472441
 30
0.0
 10
0.0038622047244094
 20
3.805736220472441
 30
0.0
 10
0.0038622047244094
 20
3.805736220472441
 30
0.0
 10
0.0464370078740158
 20
3.82251968503937
 30
0.0
 10
0.0464370078740158
 20
3.82251968503937
 30
0.0
 10
0.0464370078740158
 20
3.82251968503937
 30
0.0
 10
0.0464370078740158
 20
3.82251968503937
 30
0.0
 10
0.089992125984252
 20
3.837263779527559
 30
0.0
 10
0.089992125984252
 20
3.837263779527559
 30
0.0
 10
0.089992125984252
 20
3.837263779527559
 30
0.0
 10
0.089992125984252
 20
3.837263779527559
 30
0.0
 10
0.1344803149606299
 20
3.849897637795276
 30
0.0
 10
0.1344803149606299
 20
3.849897637795276
 30
0.0
 10
0.1344803149606299
 20
3.849897637795276
 30
0.0
 10
0.1344803149606299
 20
3.849897637795276
 30
0.0
 10
0.1798307086614173
 20
3.860370078740158
 30
0.0
 10
0.1798307086614173
 20
3.860370078740158
 30
0.0
 10
0.1798307086614173
 20
3.860370078740158
 30
0.0
 10
0.1798307086614173
 20
3.860370078740158
 30
0.0
 10
0.225996062992126
 20
3.868614173228347
 30
0.0
 10
0.225996062992126
 20
3.868614173228347
 30
0.0
 10
0.225996062992126
 20
3.868614173228347
 30
0.0
 10
0.225996062992126
 20
3.868614173228347
 30
0.0
 10
0.2729055118110236
 20
3.87457874015748
 30
0.0
 10
0.2729055118110236
 20
3.87457874015748
 30
0.0
 10
0.2729055118110236
 20
3.87457874015748
 30
0.0
 10
0.2729055118110236
 20
3.87457874015748
 30
0.0
 10
0.320507874015748
 20
3.878200787401575
 30
0.0
 10
0.320507874015748
 20
3.878200787401575
 30
0.0
 10
0.320507874015748
 20
3.878200787401575
 30
0.0
 10
0.320507874015748
 20
3.878200787401575
 30
0.0
 10
0.368736220472441
 20
3.879425196850394
 30
0.0
 10
0.368736220472441
 20
3.879425196850394
 30
0.0
 10
0.368736220472441
 20
3.879425196850394
 30
0.0
 10
0.368736220472441
 20
3.879425196850394
 30
0.0
 10
0.4169763779527559
 20
3.878200787401575
 30
0.0
 10
0.4169763779527559
 20
3.878200787401575
 30
0.0
 10
0.4169763779527559
 20
3.878200787401575
 30
0.0
 10
0.4169763779527559
 20
3.878200787401575
 30
0.0
 10
0.4645787401574804
 20
3.87457874015748
 30
0.0
 10
0.4645787401574804
 20
3.87457874015748
 30
0.0
 10
0.4645787401574804
 20
3.87457874015748
 30
0.0
 10
0.4645787401574804
 20
3.87457874015748
 30
0.0
 10
0.511492125984252
 20
3.868614173228347
 30
0.0
 10
0.511492125984252
 20
3.868614173228347
 30
0.0
 10
0.511492125984252
 20
3.868614173228347
 30
0.0
 10
0.511492125984252
 20
3.868614173228347
 30
0.0
 10
0.5576535433070866
 20
3.860370078740158
 30
0.0
 10
0.5576535433070866
 20
3.860370078740158
 30
0.0
 10
0.5576535433070866
 20
3.860370078740158
 30
0.0
 10
0.5576535433070866
 20
3.860370078740158
 30
0.0
 10
0.6030078740157481
 20
3.849897637795276
 30
0.0
 10
0.6030078740157481
 20
3.849897637795276
 30
0.0
 10
0.6030078740157481
 20
3.849897637795276
 30
0.0
 10
0.6030078740157481
 20
3.849897637795276
 30
0.0
 10
0.6474881889763779
 20
3.837263779527559
 30
0.0
 10
0.6474881889763779
 20
3.837263779527559
 30
0.0
 10
0.6474881889763779
 20
3.837263779527559
 30
0.0
 10
0.6474881889763779
 20
3.837263779527559
 30
0.0
 10
0.6910393700787402
 20
3.82251968503937
 30
0.0
 10
0.6910393700787402
 20
3.82251968503937
 30
0.0
 10
0.6910393700787402
 20
3.82251968503937
 30
0.0
 10
0.6910393700787402
 20
3.82251968503937
 30
0.0
 10
0.7336141732283464
 20
3.805736220472441
 30
0.0
 10
0.7336141732283464
 20
3.805736220472441
 30
0.0
 10
0.7336141732283464
 20
3.805736220472441
 30
0.0
 10
0.7336141732283464
 20
3.805736220472441
 30
0.0
 10
0.7751377952755906
 20
3.786952755905512
 30
0.0
 10
0.7751377952755906
 20
3.786952755905512
 30
0.0
 10
0.7751377952755906
 20
3.786952755905512
 30
0.0
 10
0.7751377952755906
 20
3.786952755905512
 30
0.0
 10
0.8155629921259843
 20
3.766248031496063
 30
0.0
 10
0.8155629921259843
 20
3.766248031496063
 30
0.0
 10
0.8155629921259843
 20
3.766248031496063
 30
0.0
 10
0.8155629921259843
 20
3.766248031496063
 30
0.0
 10
0.8548188976377953
 20
3.743669291338583
 30
0.0
 10
0.8548188976377953
 20
3.743669291338583
 30
0.0
 10
0.8548188976377953
 20
3.743669291338583
 30
0.0
 10
0.8548188976377953
 20
3.743669291338583
 30
0.0
 10
0.8928582677165354
 20
3.719283464566929
 30
0.0
 10
0.8928582677165354
 20
3.719283464566929
 30
0.0
 10
0.8928582677165354
 20
3.719283464566929
 30
0.0
 10
0.8928582677165354
 20
3.719283464566929
 30
0.0
 10
0.9296141732283465
 20
3.693141732283465
 30
0.0
 10
0.9296141732283465
 20
3.693141732283465
 30
0.0
 10
0.9296141732283465
 20
3.693141732283465
 30
0.0
 10
0.9296141732283465
 20
3.693141732283465
 30
0.0
 10
0.9650354330708661
 20
3.665311023622047
 30
0.0
 10
0.9650354330708661
 20
3.665311023622047
 30
0.0
 10
0.9650354330708661
 20
3.665311023622047
 30
0.0
 10
0.9650354330708661
 20
3.665311023622047
 30
0.0
 10
0.9990511811023622
 20
3.63584251968504
 30
0.0
 10
0.9990511811023622
 20
3.63584251968504
 30
0.0
 10
0.9990511811023622
 20
3.63584251968504
 30
0.0
 10
0.9990511811023622
 20
3.63584251968504
 30
0.0
 10
1.031618110236221
 20
3.604803149606299
 30
0.0
 10
1.031618110236221
 20
3.604803149606299
 30
0.0
 10
1.031618110236221
 20
3.604803149606299
 30
0.0
 10
1.031618110236221
 20
3.604803149606299
 30
0.0
 10
1.062657480314961
 20
3.572236220472441
 30
0.0
 10
1.062657480314961
 20
3.572236220472441
 30
0.0
 10
1.062657480314961
 20
3.572236220472441
 30
0.0
 10
1.062657480314961
 20
3.572236220472441
 30
0.0
 10
1.092125984251969
 20
3.538220472440945
 30
0.0
 10
1.092125984251969
 20
3.538220472440945
 30
0.0
 10
1.092125984251969
 20
3.538220472440945
 30
0.0
 10
1.092125984251969
 20
3.538220472440945
 30
0.0
 10
1.119956692913386
 20
3.502799212598426
 30
0.0
 10
1.119956692913386
 20
3.502799212598426
 30
0.0
 10
1.119956692913386
 20
3.502799212598426
 30
0.0
 10
1.119956692913386
 20
3.502799212598426
 30
0.0
 10
1.146098425196851
 20
3.466047244094488
 30
0.0
 10
1.146098425196851
 20
3.466047244094488
 30
0.0
 10
1.146098425196851
 20
3.466047244094488
 30
0.0
 10
1.146098425196851
 20
3.466047244094488
 30
0.0
 10
1.170484251968504
 20
3.428007874015748
 30
0.0
 10
1.170484251968504
 20
3.428007874015748
 30
0.0
 10
1.170484251968504
 20
3.428007874015748
 30
0.0
 10
1.170484251968504
 20
3.428007874015748
 30
0.0
 10
1.193062992125984
 20
3.388751968503937
 30
0.0
 10
1.193062992125984
 20
3.388751968503937
 30
0.0
 10
1.193062992125984
 20
3.388751968503937
 30
0.0
 10
1.193062992125984
 20
3.388751968503937
 30
0.0
 10
1.213767716535433
 20
3.348326771653543
 30
0.0
 10
1.213767716535433
 20
3.348326771653543
 30
0.0
 10
1.213767716535433
 20
3.348326771653543
 30
0.0
 10
1.213767716535433
 20
3.348326771653543
 30
0.0
 10
1.232551181102362
 20
3.306803149606299
 30
0.0
 10
1.232551181102362
 20
3.306803149606299
 30
0.0
 10
1.232551181102362
 20
3.306803149606299
 30
0.0
 10
1.232551181102362
 20
3.306803149606299
 30
0.0
 10
1.249334645669291
 20
3.264228346456693
 30
0.0
 10
1.249334645669291
 20
3.264228346456693
 30
0.0
 10
1.249334645669291
 20
3.264228346456693
 30
0.0
 10
1.249334645669291
 20
3.264228346456693
 30
0.0
 10
1.264078740157481
 20
3.220673228346457
 30
0.0
 10
1.264078740157481
 20
3.220673228346457
 30
0.0
 10
1.264078740157481
 20
3.220673228346457
 30
0.0
 10
1.264078740157481
 20
3.220673228346457
 30
0.0
 10
1.276712598425197
 20
3.176185039370079
 30
0.0
 10
1.276712598425197
 20
3.176185039370079
 30
0.0
 10
1.276712598425197
 20
3.176185039370079
 30
0.0
 10
1.276712598425197
 20
3.176185039370079
 30
0.0
 10
1.287185039370079
 20
3.130834645669292
 30
0.0
 10
1.287185039370079
 20
3.130834645669292
 30
0.0
 10
1.287185039370079
 20
3.130834645669292
 30
0.0
 10
1.287185039370079
 20
3.130834645669292
 30
0.0
 10
1.295429133858268
 20
3.084669291338583
 30
0.0
 10
1.295429133858268
 20
3.084669291338583
 30
0.0
 10
1.295429133858268
 20
3.084669291338583
 30
0.0
 10
1.295429133858268
 20
3.084669291338583
 30
0.0
 10
1.301393700787402
 20
3.037759842519685
 30
0.0
 10
1.301393700787402
 20
3.037759842519685
 30
0.0
 10
1.301393700787402
 20
3.037759842519685
 30
0.0
 10
1.301393700787402
 20
3.037759842519685
 30
0.0
 10
1.305015748031496
 20
2.990157480314961
 30
0.0
 10
1.305015748031496
 20
2.990157480314961
 30
0.0
 10
1.305015748031496
 20
2.990157480314961
 30
0.0
 10
1.305015748031496
 20
2.990157480314961
 30
0.0
 10
1.306240157480315
 20
2.941929133858268
 30
0.0
 10
1.306240157480315
 20
2.941929133858268
 30
0.0
 10
1.306240157480315
 20
2.941929133858268
 30
0.0
 10
1.306240157480315
 20
2.941929133858268
 30
0.0
 10
0.6541889763779528
 20
2.564346456692913
 30
0.0
 10
0.6541889763779528
 20
2.564346456692913
 30
0.0
 10
0.6541889763779528
 20
2.564346456692913
 30
0.0
 10
0.6541889763779528
 20
2.564346456692913
 30
0.0
 10
0.6529645669291339
 20
2.612574803149606
 30
0.0
 10
0.6529645669291339
 20
2.612574803149606
 30
0.0
 10
0.6529645669291339
 20
2.612574803149606
 30
0.0
 10
0.6529645669291339
 20
2.612574803149606
 30
0.0
 10
0.6493425196850394
 20
2.660177165354331
 30
0.0
 10
0.6493425196850394
 20
2.660177165354331
 30
0.0
 10
0.6493425196850394
 20
2.660177165354331
 30
0.0
 10
0.6493425196850394
 20
2.660177165354331
 30
0.0
 10
0.6433779527559056
 20
2.707086614173229
 30
0.0
 10
0.6433779527559056
 20
2.707086614173229
 30
0.0
 10
0.6433779527559056
 20
2.707086614173229
 30
0.0
 10
0.6433779527559056
 20
2.707086614173229
 30
0.0
 10
0.6351338582677165
 20
2.753251968503937
 30
0.0
 10
0.6351338582677165
 20
2.753251968503937
 30
0.0
 10
0.6351338582677165
 20
2.753251968503937
 30
0.0
 10
0.6351338582677165
 20
2.753251968503937
 30
0.0
 10
0.6246614173228346
 20
2.798602362204725
 30
0.0
 10
0.6246614173228346
 20
2.798602362204725
 30
0.0
 10
0.6246614173228346
 20
2.798602362204725
 30
0.0
 10
0.6246614173228346
 20
2.798602362204725
 30
0.0
 10
0.6120275590551182
 20
2.843090551181103
 30
0.0
 10
0.6120275590551182
 20
2.843090551181103
 30
0.0
 10
0.6120275590551182
 20
2.843090551181103
 30
0.0
 10
0.6120275590551182
 20
2.843090551181103
 30
0.0
 10
0.5972834645669292
 20
2.886645669291339
 30
0.0
 10
0.5972834645669292
 20
2.886645669291339
 30
0.0
 10
0.5972834645669292
 20
2.886645669291339
 30
0.0
 10
0.5972834645669292
 20
2.886645669291339
 30
0.0
 10
0.5805
 20
2.929220472440945
 30
0.0
 10
0.5805
 20
2.929220472440945
 30
0.0
 10
0.5805
 20
2.929220472440945
 30
0.0
 10
0.5805
 20
2.929220472440945
 30
0.0
 10
0.5617165354330709
 20
2.970744094488189
 30
0.0
 10
0.5617165354330709
 20
2.970744094488189
 30
0.0
 10
0.5617165354330709
 20
2.970744094488189
 30
0.0
 10
0.5617165354330709
 20
2.970744094488189
 30
0.0
 10
0.5410118110236221
 20
3.011169291338583
 30
0.0
 10
0.5410118110236221
 20
3.011169291338583
 30
0.0
 10
0.5410118110236221
 20
3.011169291338583
 30
0.0
 10
0.5410118110236221
 20
3.011169291338583
 30
0.0
 10
0.5184330708661418
 20
3.050425196850394
 30
0.0
 10
0.5184330708661418
 20
3.050425196850394
 30
0.0
 10
0.5184330708661418
 20
3.050425196850394
 30
0.0
 10
0.5184330708661418
 20
3.050425196850394
 30
0.0
 10
0.4940472440944882
 20
3.088464566929134
 30
0.0
 10
0.4940472440944882
 20
3.088464566929134
 30
0.0
 10
0.4940472440944882
 20
3.088464566929134
 30
0.0
 10
0.4940472440944882
 20
3.088464566929134
 30
0.0
 10
0.4679055118110236
 20
3.125216535433071
 30
0.0
 10
0.4679055118110236
 20
3.125216535433071
 30
0.0
 10
0.4679055118110236
 20
3.125216535433071
 30
0.0
 10
0.4679055118110236
 20
3.125216535433071
 30
0.0
 10
0.4400748031496063
 20
3.160637795275591
 30
0.0
 10
0.4400748031496063
 20
3.160637795275591
 30
0.0
 10
0.4400748031496063
 20
3.160637795275591
 30
0.0
 10
0.4400748031496063
 20
3.160637795275591
 30
0.0
 10
0.4106062992125985
 20
3.194653543307087
 30
0.0
 10
0.4106062992125985
 20
3.194653543307087
 30
0.0
 10
0.4106062992125985
 20
3.194653543307087
 30
0.0
 10
0.4106062992125985
 20
3.194653543307087
 30
0.0
 10
0.3795669291338583
 20
3.227220472440945
 30
0.0
 10
0.3795669291338583
 20
3.227220472440945
 30
0.0
 10
0.3795669291338583
 20
3.227220472440945
 30
0.0
 10
0.3795669291338583
 20
3.227220472440945
 30
0.0
 10
0.347
 20
3.258259842519685
 30
0.0
 10
0.347
 20
3.258259842519685
 30
0.0
 10
0.347
 20
3.258259842519685
 30
0.0
 10
0.347
 20
3.258259842519685
 30
0.0
 10
0.3129842519685039
 20
3.287728346456693
 30
0.0
 10
0.3129842519685039
 20
3.287728346456693
 30
0.0
 10
0.3129842519685039
 20
3.287728346456693
 30
0.0
 10
0.3129842519685039
 20
3.287728346456693
 30
0.0
 10
0.2775629921259843
 20
3.31555905511811
 30
0.0
 10
0.2775629921259843
 20
3.31555905511811
 30
0.0
 10
0.2775629921259843
 20
3.31555905511811
 30
0.0
 10
0.2775629921259843
 20
3.31555905511811
 30
0.0
 10
0.2408070866141732
 20
3.341700787401575
 30
0.0
 10
0.2408070866141732
 20
3.341700787401575
 30
0.0
 10
0.2408070866141732
 20
3.341700787401575
 30
0.0
 10
0.2408070866141732
 20
3.341700787401575
 30
0.0
 10
0.2027677165354331
 20
3.366086614173228
 30
0.0
 10
0.2027677165354331
 20
3.366086614173228
 30
0.0
 10
0.2027677165354331
 20
3.366086614173228
 30
0.0
 10
0.2027677165354331
 20
3.366086614173228
 30
0.0
 10
0.1635118110236221
 20
3.388665354330709
 30
0.0
 10
0.1635118110236221
 20
3.388665354330709
 30
0.0
 10
0.1635118110236221
 20
3.388665354330709
 30
0.0
 10
0.1635118110236221
 20
3.388665354330709
 30
0.0
 10
0.1230866141732284
 20
3.409370078740158
 30
0.0
 10
0.1230866141732284
 20
3.409370078740158
 30
0.0
 10
0.1230866141732284
 20
3.409370078740158
 30
0.0
 10
0.1230866141732284
 20
3.409370078740158
 30
0.0
 10
0.0815629921259843
 20
3.428153543307087
 30
0.0
 10
0.0815629921259843
 20
3.428153543307087
 30
0.0
 10
0.0815629921259843
 20
3.428153543307087
 30
0.0
 10
0.0815629921259843
 20
3.428153543307087
 30
0.0
 10
0.038988188976378
 20
3.444937007874016
 30
0.0
 10
0.038988188976378
 20
3.444937007874016
 30
0.0
 10
0.038988188976378
 20
3.444937007874016
 30
0.0
 10
0.038988188976378
 20
3.444937007874016
 30
0.0
 10
-0.0045629921259843
 20
3.459681102362205
 30
0.0
 10
-0.0045629921259843
 20
3.459681102362205
 30
0.0
 10
-0.0045629921259843
 20
3.459681102362205
 30
0.0
 10
-0.0045629921259843
 20
3.459681102362205
 30
0.0
 10
-0.0490433070866142
 20
3.472314960629921
 30
0.0
 10
-0.0490433070866142
 20
3.472314960629921
 30
0.0
 10
-0.0490433070866142
 20
3.472314960629921
 30
0.0
 10
-0.0490433070866142
 20
3.472314960629921
 30
0.0
 10
-0.0943976377952756
 20
3.482787401574803
 30
0.0
 10
-0.0943976377952756
 20
3.482787401574803
 30
0.0
 10
-0.0943976377952756
 20
3.482787401574803
 30
0.0
 10
-0.0943976377952756
 20
3.482787401574803
 30
0.0
 10
-0.1405590551181102
 20
3.491031496062993
 30
0.0
 10
-0.1405590551181102
 20
3.491031496062993
 30
0.0
 10
-0.1405590551181102
 20
3.491031496062993
 30
0.0
 10
-0.1405590551181102
 20
3.491031496062993
 30
0.0
 10
-0.1874724409448819
 20
3.496996062992126
 30
0.0
 10
-0.1874724409448819
 20
3.496996062992126
 30
0.0
 10
-0.1874724409448819
 20
3.496996062992126
 30
0.0
 10
-0.1874724409448819
 20
3.496996062992126
 30
0.0
 10
-0.2350748031496063
 20
3.500618110236221
 30
0.0
 10
-0.2350748031496063
 20
3.500618110236221
 30
0.0
 10
-0.2350748031496063
 20
3.500618110236221
 30
0.0
 10
-0.2350748031496063
 20
3.500618110236221
 30
0.0
 10
-0.2833149606299213
 20
3.501842519685039
 30
0.0
 10
-0.2833149606299213
 20
3.501842519685039
 30
0.0
 10
-0.2833149606299213
 20
3.501842519685039
 30
0.0
 10
-0.2833149606299213
 20
3.501842519685039
 30
0.0
 10
-0.3315433070866142
 20
3.500618110236221
 30
0.0
 10
-0.3315433070866142
 20
3.500618110236221
 30
0.0
 10
-0.3315433070866142
 20
3.500618110236221
 30
0.0
 10
-0.3315433070866142
 20
3.500618110236221
 30
0.0
 10
-0.3791456692913386
 20
3.496996062992126
 30
0.0
 10
-0.3791456692913386
 20
3.496996062992126
 30
0.0
 10
-0.3791456692913386
 20
3.496996062992126
 30
0.0
 10
-0.3791456692913386
 20
3.496996062992126
 30
0.0
 10
-0.4260551181102362
 20
3.491031496062993
 30
0.0
 10
-0.4260551181102362
 20
3.491031496062993
 30
0.0
 10
-0.4260551181102362
 20
3.491031496062993
 30
0.0
 10
-0.4260551181102362
 20
3.491031496062993
 30
0.0
 10
-0.4722204724409449
 20
3.482787401574803
 30
0.0
 10
-0.4722204724409449
 20
3.482787401574803
 30
0.0
 10
-0.4722204724409449
 20
3.482787401574803
 30
0.0
 10
-0.4722204724409449
 20
3.482787401574803
 30
0.0
 10
-0.5175708661417323
 20
3.472314960629921
 30
0.0
 10
-0.5175708661417323
 20
3.472314960629921
 30
0.0
 10
-0.5175708661417323
 20
3.472314960629921
 30
0.0
 10
-0.5175708661417323
 20
3.472314960629921
 30
0.0
 10
-0.5620590551181103
 20
3.459681102362205
 30
0.0
 10
-0.5620590551181103
 20
3.459681102362205
 30
0.0
 10
-0.5620590551181103
 20
3.459681102362205
 30
0.0
 10
-0.5620590551181103
 20
3.459681102362205
 30
0.0
 10
-0.6056141732283464
 20
3.444937007874016
 30
0.0
 10
-0.6056141732283464
 20
3.444937007874016
 30
0.0
 10
-0.6056141732283464
 20
3.444937007874016
 30
0.0
 10
-0.6056141732283464
 20
3.444937007874016
 30
0.0
 10
-0.6481889763779528
 20
3.428153543307087
 30
0.0
 10
-0.6481889763779528
 20
3.428153543307087
 30
0.0
 10
-0.6481889763779528
 20
3.428153543307087
 30
0.0
 10
-0.6481889763779528
 20
3.428153543307087
 30
0.0
 10
-0.6897125984251968
 20
3.409370078740158
 30
0.0
 10
-0.6897125984251968
 20
3.409370078740158
 30
0.0
 10
-0.6897125984251968
 20
3.409370078740158
 30
0.0
 10
-0.6897125984251968
 20
3.409370078740158
 30
0.0
 10
-0.7301377952755905
 20
3.388665354330709
 30
0.0
 10
-0.7301377952755905
 20
3.388665354330709
 30
0.0
  0
SPLINE
  5
6E
330
1F
100
AcDbEntity
  8
LAYER_1
 62
   250
100
AcDbSpline
210
0.0
220
0.0
230
1.0
 70
    11
 71
     3
 72
    20
 73
    16
 74
     0
 42
0.0000000001
 43
0.0000000001
 40
0.0
 40
0.0
 40
0.0
 40
0.0
 40
0.25
 40
0.25
 40
0.25
 40
0.25
 40
0.5
 40
0.5
 40
0.5
 40
0.5
 40
0.75
 40
0.75
 40
0.75
 40
0.75
 40
1.0
 40
1.0
 40
1.0
 40
1.0
 10
-0.7301377952755905
 20
3.388665354330709
 30
0.0
 10
-0.7301377952755905
 20
3.388665354330709
 30
0.0
 10
-0.0780866141732283
 20
3.766248031496063
 30
0.0
 10
-0.0780866141732283
 20
3.766248031496063
 30
0.0
 10
-0.0780866141732283
 20
3.766248031496063
 30
0.0
 10
-0.0780866141732283
 20
3.766248031496063
 30
0.0
 10
-0.0376614173228347
 20
3.786952755905512
 30
0.0
 10
-0.0376614173228347
 20
3.786952755905512
 30
0.0
 10
-0.0376614173228347
 20
3.786952755905512
 30
0.0
 10
-0.0376614173228347
 20
3.786952755905512
 30
0.0
 10
-0.6897125984251968
 20
3.409370078740158
 30
0.0
 10
-0.6897125984251968
 20
3.409370078740158
 30
0.0
 10
-0.6897125984251968
 20
3.409370078740158
 30
0.0
 10
-0.6897125984251968
 20
3.409370078740158
 30
0.0
 10
-0.7301377952755905
 20
3.388665354330709
 30
0.0
 10
-0.7301377952755905
 20
3.388665354330709
 30
0.0
  0
SPLINE
  5
6F
330
1F
100
AcDbEntity
  8
LAYER_1
 62
   250
100
AcDbSpline
210
0.0
220
0.0
230
1.0
 70
    11
 71
     3
 72
    20
 73
    16
 74
     0
 42
0.0000000001
 43
0.0000000001
 40
0.0
 40
0.0
 40
0.0
 40
0.0
 40
0.25
 40
0.25
 40
0.25
 40
0.25
 40
0.5
 40
0.5
 40
0.5
 40
0.5
 40
0.75
 40
0.75
 40
0.75
 40
0.75
 40
1.0
 40
1.0
 40
1.0
 40
1.0
 10
-0.6897125984251968
 20
3.409370078740158
 30
0.0
 10
-0.6897125984251968
 20
3.409370078740158
 30
0.0
 10
-0.0376614173228347
 20
3.786952755905512
 30
0.0
 10
-0.0376614173228347
 20
3.786952755905512
 30
0.0
 10
-0.0376614173228347
 20
3.786952755905512
 30
0.0
 10
-0.0376614173228347
 20
3.786952755905512
 30
0.0
 10
0.0038622047244094
 20
3.805736220472441
 30
0.0
 10
0.0038622047244094
 20
3.805736220472441
 30
0.0
 10
0.0038622047244094
 20
3.805736220472441
 30
0.0
 10
0.0038622047244094
 20
3.805736220472441
 30
0.0
 10
-0.6481889763779528
 20
3.428153543307087
 30
0.0
 10
-0.6481889763779528
 20
3.428153543307087
 30
0.0
 10
-0.6481889763779528
 20
3.428153543307087
 30
0.0
 10
-0.6481889763779528
 20
3.428153543307087
 30
0.0
 10
-0.6897125984251968
 20
3.409370078740158
 30
0.0
 10
-0.6897125984251968
 20
3.409370078740158
 30
0.0
  0
SPLINE
  5
70
330
1F
100
AcDbEntity
  8
LAYER_1
 62
   149
100
AcDbSpline
210
0.0
220
0.0
230
1.0
 70
    11
 71
     3
 72
    20
 73
    16
 74
     0
 42
0.0000000001
 43
0.0000000001
 40
0.0
 40
0.0
 40
0.0
 40
0.0
 40
0.25
 40
0.25
 40
0.25
 40
0.25
 40
0.5
 40
0.5
 40
0.5
 40
0.5
 40
0.75
 40
0.75
 40
0.75
 40
0.75
 40
1.0
 40
1.0
 40
1.0
 40
1.0
 10
-0.6481889763779528
 20
3.428153543307087
 30
0.0
 10
-0.6481889763779528
 20
3.428153543307087
 30
0.0
 10
0.0038622047244094
 20
3.805736220472441
 30
0.0
 10
0.0038622047244094
 20
3.805736220472441
 30
0.0
 10
0.0038622047244094
 20
3.805736220472441
 30
0.0
 10
0.0038622047244094
 20
3.805736220472441
 30
0.0
 10
0.0464370078740158
 20
3.82251968503937
 30
0.0
 10
0.0464370078740158
 20
3.82251968503937
 30
0.0
 10
0.0464370078740158
 20
3.82251968503937
 30
0.0
 10
0.0464370078740158
 20
3.82251968503937
 30
0.0
 10
-0.6056141732283464
 20
3.444937007874016
 30
0.0
 10
-0.6056141732283464
 20
3.444937007874016
 30
0.0
 10
-0.6056141732283464
 20
3.444937007874016
 30
0.0
 10
-0.6056141732283464
 20
3.444937007874016
 30
0.0
 10
-0.6481889763779528
 20
3.428153543307087
 30
0.0
 10
-0.6481889763779528
 20
3.428153543307087
 30
0.0
  0
SPLINE
  5
71
330
1F
100
AcDbEntity
  8
LAYER_1
 62
   251
100
AcDbSpline
210
0.0
220
0.0
230
1.0
 70
    11
 71
     3
 72
    20
 73
    16
 74
     0
 42
0.0000000001
 43
0.0000000001
 40
0.0
 40
0.0
 40
0.0
 40
0.0
 40
0.25
 40
0.25
 40
0.25
 40
0.25
 40
0.5
 40
0.5
 40
0.5
 40
0.5
 40
0.75
 40
0.75
 40
0.75
 40
0.75
 40
1.0
 40
1.0
 40
1.0
 40
1.0
 10
-0.6056141732283464
 20
3.444937007874016
 30
0.0
 10
-0.6056141732283464
 20
3.444937007874016
 30
0.0
 10
0.0464370078740158
 20
3.82251968503937
 30
0.0
 10
0.0464370078740158
 20
3.82251968503937
 30
0.0
 10
0.0464370078740158
 20
3.82251968503937
 30
0.0
 10
0.0464370078740158
 20
3.82251968503937
 30
0.0
 10
0.089992125984252
 20
3.837263779527559
 30
0.0
 10
0.089992125984252
 20
3.837263779527559
 30
0.0
 10
0.089992125984252
 20
3.837263779527559
 30
0.0
 10
0.089992125984252
 20
3.837263779527559
 30
0.0
 10
-0.5620590551181103
 20
3.459681102362205
 30
0.0
 10
-0.5620590551181103
 20
3.459681102362205
 30
0.0
 10
-0.5620590551181103
 20
3.459681102362205
 30
0.0
 10
-0.5620590551181103
 20
3.459681102362205
 30
0.0
 10
-0.6056141732283464
 20
3.444937007874016
 30
0.0
 10
-0.6056141732283464
 20
3.444937007874016
 30
0.0
  0
SPLINE
  5
72
330
1F
100
AcDbEntity
  8
LAYER_1
 62
   251
100
AcDbSpline
210
0.0
220
0.0
230
1.0
 70
    11
 71
     3
 72
    20
 73
    16
 74
     0
 42
0.0000000001
 43
0.0000000001
 40
0.0
 40
0.0
 40
0.0
 40
0.0
 40
0.25
 40
0.25
 40
0.25
 40
0.25
 40
0.5
 40
0.5
 40
0.5
 40
0.5
 40
0.75
 40
0.75
 40
0.75
 40
0.75
 40
1.0
 40
1.0
 40
1.0
 40
1.0
 10
-0.5620590551181103
 20
3.459681102362205
 30
0.0
 10
-0.5620590551181103
 20
3.459681102362205
 30
0.0
 10
0.089992125984252
 20
3.837263779527559
 30
0.0
 10
0.089992125984252
 20
3.837263779527559
 30
0.0
 10
0.089992125984252
 20
3.837263779527559
 30
0.0
 10
0.089992125984252
 20
3.837263779527559
 30
0.0
 10
0.1344803149606299
 20
3.849897637795276
 30
0.0
 10
0.1344803149606299
 20
3.849897637795276
 30
0.0
 10
0.1344803149606299
 20
3.849897637795276
 30
0.0
 10
0.1344803149606299
 20
3.849897637795276
 30
0.0
 10
-0.5175708661417323
 20
3.472314960629921
 30
0.0
 10
-0.5175708661417323
 20
3.472314960629921
 30
0.0
 10
-0.5175708661417323
 20
3.472314960629921
 30
0.0
 10
-0.5175708661417323
 20
3.472314960629921
 30
0.0
 10
-0.5620590551181103
 20
3.459681102362205
 30
0.0
 10
-0.5620590551181103
 20
3.459681102362205
 30
0.0
  0
SPLINE
  5
73
330
1F
100
AcDbEntity
  8
LAYER_1
 62
   251
100
AcDbSpline
210
0.0
220
0.0
230
1.0
 70
    11
 71
     3
 72
    20
 73
    16
 74
     0
 42
0.0000000001
 43
0.0000000001
 40
0.0
 40
0.0
 40
0.0
 40
0.0
 40
0.25
 40
0.25
 40
0.25
 40
0.25
 40
0.5
 40
0.5
 40
0.5
 40
0.5
 40
0.75
 40
0.75
 40
0.75
 40
0.75
 40
1.0
 40
1.0
 40
1.0
 40
1.0
 10
-0.5175708661417323
 20
3.472314960629921
 30
0.0
 10
-0.5175708661417323
 20
3.472314960629921
 30
0.0
 10
0.1344803149606299
 20
3.849897637795276
 30
0.0
 10
0.1344803149606299
 20
3.849897637795276
 30
0.0
 10
0.1344803149606299
 20
3.849897637795276
 30
0.0
 10
0.1344803149606299
 20
3.849897637795276
 30
0.0
 10
0.1798307086614173
 20
3.860370078740158
 30
0.0
 10
0.1798307086614173
 20
3.860370078740158
 30
0.0
 10
0.1798307086614173
 20
3.860370078740158
 30
0.0
 10
0.1798307086614173
 20
3.860370078740158
 30
0.0
 10
-0.4722204724409449
 20
3.482787401574803
 30
0.0
 10
-0.4722204724409449
 20
3.482787401574803
 30
0.0
 10
-0.4722204724409449
 20
3.482787401574803
 30
0.0
 10
-0.4722204724409449
 20
3.482787401574803
 30
0.0
 10
-0.5175708661417323
 20
3.472314960629921
 30
0.0
 10
-0.5175708661417323
 20
3.472314960629921
 30
0.0
  0
SPLINE
  5
74
330
1F
100
AcDbEntity
  8
LAYER_1
 62
   251
100
AcDbSpline
210
0.0
220
0.0
230
1.0
 70
    11
 71
     3
 72
    20
 73
    16
 74
     0
 42
0.0000000001
 43
0.0000000001
 40
0.0
 40
0.0
 40
0.0
 40
0.0
 40
0.25
 40
0.25
 40
0.25
 40
0.25
 40
0.5
 40
0.5
 40
0.5
 40
0.5
 40
0.75
 40
0.75
 40
0.75
 40
0.75
 40
1.0
 40
1.0
 40
1.0
 40
1.0
 10
-0.4722204724409449
 20
3.482787401574803
 30
0.0
 10
-0.4722204724409449
 20
3.482787401574803
 30
0.0
 10
0.1798307086614173
 20
3.860370078740158
 30
0.0
 10
0.1798307086614173
 20
3.860370078740158
 30
0.0
 10
0.1798307086614173
 20
3.860370078740158
 30
0.0
 10
0.1798307086614173
 20
3.860370078740158
 30
0.0
 10
0.225996062992126
 20
3.868614173228347
 30
0.0
 10
0.225996062992126
 20
3.868614173228347
 30
0.0
 10
0.225996062992126
 20
3.868614173228347
 30
0.0
 10
0.225996062992126
 20
3.868614173228347
 30
0.0
 10
-0.4260551181102362
 20
3.491031496062993
 30
0.0
 10
-0.4260551181102362
 20
3.491031496062993
 30
0.0
 10
-0.4260551181102362
 20
3.491031496062993
 30
0.0
 10
-0.4260551181102362
 20
3.491031496062993
 30
0.0
 10
-0.4722204724409449
 20
3.482787401574803
 30
0.0
 10
-0.4722204724409449
 20
3.482787401574803
 30
0.0
  0
SPLINE
  5
75
330
1F
100
AcDbEntity
  8
LAYER_1
 62
     8
100
AcDbSpline
210
0.0
220
0.0
230
1.0
 70
    11
 71
     3
 72
    20
 73
    16
 74
     0
 42
0.0000000001
 43
0.0000000001
 40
0.0
 40
0.0
 40
0.0
 40
0.0
 40
0.25
 40
0.25
 40
0.25
 40
0.25
 40
0.5
 40
0.5
 40
0.5
 40
0.5
 40
0.75
 40
0.75
 40
0.75
 40
0.75
 40
1.0
 40
1.0
 40
1.0
 40
1.0
 10
-0.4260551181102362
 20
3.491031496062993
 30
0.0
 10
-0.4260551181102362
 20
3.491031496062993
 30
0.0
 10
0.225996062992126
 20
3.868614173228347
 30
0.0
 10
0.225996062992126
 20
3.868614173228347
 30
0.0
 10
0.225996062992126
 20
3.868614173228347
 30
0.0
 10
0.225996062992126
 20
3.868614173228347
 30
0.0
 10
0.2729055118110236
 20
3.87457874015748
 30
0.0
 10
0.2729055118110236
 20
3.87457874015748
 30
0.0
 10
0.2729055118110236
 20
3.87457874015748
 30
0.0
 10
0.2729055118110236
 20
3.87457874015748
 30
0.0
 10
-0.3791456692913386
 20
3.496996062992126
 30
0.0
 10
-0.3791456692913386
 20
3.496996062992126
 30
0.0
 10
-0.3791456692913386
 20
3.496996062992126
 30
0.0
 10
-0.3791456692913386
 20
3.496996062992126
 30
0.0
 10
-0.4260551181102362
 20
3.491031496062993
 30
0.0
 10
-0.4260551181102362
 20
3.491031496062993
 30
0.0
  0
SPLINE
  5
76
330
1F
100
AcDbEntity
  8
LAYER_1
 62
     8
100
AcDbSpline
210
0.0
220
0.0
230
1.0
 70
    11
 71
     3
 72
    20
 73
    16
 74
     0
 42
0.0000000001
 43
0.0000000001
 40
0.0
 40
0.0
 40
0.0
 40
0.0
 40
0.25
 40
0.25
 40
0.25
 40
0.25
 40
0.5
 40
0.5
 40
0.5
 40
0.5
 40
0.75
 40
0.75
 40
0.75
 40
0.75
 40
1.0
 40
1.0
 40
1.0
 40
1.0
 10
-0.3791456692913386
 20
3.496996062992126
 30
0.0
 10
-0.3791456692913386
 20
3.496996062992126
 30
0.0
 10
0.2729055118110236
 20
3.87457874015748
 30
0.0
 10
0.2729055118110236
 20
3.87457874015748
 30
0.0
 10
0.2729055118110236
 20
3.87457874015748
 30
0.0
 10
0.2729055118110236
 20
3.87457874015748
 30
0.0
 10
0.320507874015748
 20
3.878200787401575
 30
0.0
 10
0.320507874015748
 20
3.878200787401575
 30
0.0
 10
0.320507874015748
 20
3.878200787401575
 30
0.0
 10
0.320507874015748
 20
3.878200787401575
 30
0.0
 10
-0.3315433070866142
 20
3.500618110236221
 30
0.0
 10
-0.3315433070866142
 20
3.500618110236221
 30
0.0
 10
-0.3315433070866142
 20
3.500618110236221
 30
0.0
 10
-0.3315433070866142
 20
3.500618110236221
 30
0.0
 10
-0.3791456692913386
 20
3.496996062992126
 30
0.0
 10
-0.3791456692913386
 20
3.496996062992126
 30
0.0
  0
SPLINE
  5
77
330
1F
100
AcDbEntity
  8
LAYER_1
 62
   252
100
AcDbSpline
210
0.0
220
0.0
230
1.0
 70
    11
 71
     3
 72
    20
 73
    16
 74
     0
 42
0.0000000001
 43
0.0000000001
 40
0.0
 40
0.0
 40
0.0
 40
0.0
 40
0.25
 40
0.25
 40
0.25
 40
0.25
 40
0.5
 40
0.5
 40
0.5
 40
0.5
 40
0.75
 40
0.75
 40
0.75
 40
0.75
 40
1.0
 40
1.0
 40
1.0
 40
1.0
 10
-0.3315433070866142
 20
3.500618110236221
 30
0.0
 10
-0.3315433070866142
 20
3.500618110236221
 30
0.0
 10
0.320507874015748
 20
3.878200787401575
 30
0.0
 10
0.320507874015748
 20
3.878200787401575
 30
0.0
 10
0.320507874015748
 20
3.878200787401575
 30
0.0
 10
0.320507874015748
 20
3.878200787401575
 30
0.0
 10
0.368736220472441
 20
3.879425196850394
 30
0.0
 10
0.368736220472441
 20
3.879425196850394
 30
0.0
 10
0.368736220472441
 20
3.879425196850394
 30
0.0
 10
0.368736220472441
 20
3.879425196850394
 30
0.0
 10
-0.2833149606299213
 20
3.501842519685039
 30
0.0
 10
-0.2833149606299213
 20
3.501842519685039
 30
0.0
 10
-0.2833149606299213
 20
3.501842519685039
 30
0.0
 10
-0.2833149606299213
 20
3.501842519685039
 30
0.0
 10
-0.3315433070866142
 20
3.500618110236221
 30
0.0
 10
-0.3315433070866142
 20
3.500618110236221
 30
0.0
  0
SPLINE
  5
78
330
1F
100
AcDbEntity
  8
LAYER_1
 62
   252
100
AcDbSpline
210
0.0
220
0.0
230
1.0
 70
    11
 71
     3
 72
    20
 73
    16
 74
     0
 42
0.0000000001
 43
0.0000000001
 40
0.0
 40
0.0
 40
0.0
 40
0.0
 40
0.25
 40
0.25
 40
0.25
 40
0.25
 40
0.5
 40
0.5
 40
0.5
 40
0.5
 40
0.75
 40
0.75
 40
0.75
 40
0.75
 40
1.0
 40
1.0
 40
1.0
 40
1.0
 10
-0.2833149606299213
 20
3.501842519685039
 30
0.0
 10
-0.2833149606299213
 20
3.501842519685039
 30
0.0
 10
0.368736220472441
 20
3.879425196850394
 30
0.0
 10
0.368736220472441
 20
3.879425196850394
 30
0.0
 10
0.368736220472441
 20
3.879425196850394
 30
0.0
 10
0.368736220472441
 20
3.879425196850394
 30
0.0
 10
0.4169763779527559
 20
3.878200787401575
 30
0.0
 10
0.4169763779527559
 20
3.878200787401575
 30
0.0
 10
0.4169763779527559
 20
3.878200787401575
 30
0.0
 10
0.4169763779527559
 20
3.878200787401575
 30
0.0
 10
-0.2350748031496063
 20
3.500618110236221
 30
0.0
 10
-0.2350748031496063
 20
3.500618110236221
 30
0.0
 10
-0.2350748031496063
 20
3.500618110236221
 30
0.0
 10
-0.2350748031496063
 20
3.500618110236221
 30
0.0
 10
-0.2833149606299213
 20
3.501842519685039
 30
0.0
 10
-0.2833149606299213
 20
3.501842519685039
 30
0.0
  0
SPLINE
  5
79
330
1F
100
AcDbEntity
  8
LAYER_1
 62
   252
100
AcDbSpline
210
0.0
220
0.0
230
1.0
 70
    11
 71
     3
 72
    20
 73
    16
 74
     0
 42
0.0000000001
 43
0.0000000001
 40
0.0
 40
0.0
 40
0.0
 40
0.0
 40
0.25
 40
0.25
 40
0.25
 40
0.25
 40
0.5
 40
0.5
 40
0.5
 40
0.5
 40
0.75
 40
0.75
 40
0.75
 40
0.75
 40
1.0
 40
1.0
 40
1.0
 40
1.0
 10
-0.2350748031496063
 20
3.500618110236221
 30
0.0
 10
-0.2350748031496063
 20
3.500618110236221
 30
0.0
 10
0.4169763779527559
 20
3.878200787401575
 30
0.0
 10
0.4169763779527559
 20
3.878200787401575
 30
0.0
 10
0.4169763779527559
 20
3.878200787401575
 30
0.0
 10
0.4169763779527559
 20
3.878200787401575
 30
0.0
 10
0.4645787401574804
 20
3.87457874015748
 30
0.0
 10
0.4645787401574804
 20
3.87457874015748
 30
0.0
 10
0.4645787401574804
 20
3.87457874015748
 30
0.0
 10
0.4645787401574804
 20
3.87457874015748
 30
0.0
 10
-0.1874724409448819
 20
3.496996062992126
 30
0.0
 10
-0.1874724409448819
 20
3.496996062992126
 30
0.0
 10
-0.1874724409448819
 20
3.496996062992126
 30
0.0
 10
-0.1874724409448819
 20
3.496996062992126
 30
0.0
 10
-0.2350748031496063
 20
3.500618110236221
 30
0.0
 10
-0.2350748031496063
 20
3.500618110236221
 30
0.0
  0
SPLINE
  5
7A
330
1F
100
AcDbEntity
  8
LAYER_1
 62
   252
100
AcDbSpline
210
0.0
220
0.0
230
1.0
 70
    11
 71
     3
 72
    20
 73
    16
 74
     0
 42
0.0000000001
 43
0.0000000001
 40
0.0
 40
0.0
 40
0.0
 40
0.0
 40
0.25
 40
0.25
 40
0.25
 40
0.25
 40
0.5
 40
0.5
 40
0.5
 40
0.5
 40
0.75
 40
0.75
 40
0.75
 40
0.75
 40
1.0
 40
1.0
 40
1.0
 40
1.0
 10
-0.1874724409448819
 20
3.496996062992126
 30
0.0
 10
-0.1874724409448819
 20
3.496996062992126
 30
0.0
 10
0.4645787401574804
 20
3.87457874015748
 30
0.0
 10
0.4645787401574804
 20
3.87457874015748
 30
0.0
 10
0.4645787401574804
 20
3.87457874015748
 30
0.0
 10
0.4645787401574804
 20
3.87457874015748
 30
0.0
 10
0.511492125984252
 20
3.868614173228347
 30
0.0
 10
0.511492125984252
 20
3.868614173228347
 30
0.0
 10
0.511492125984252
 20
3.868614173228347
 30
0.0
 10
0.511492125984252
 20
3.868614173228347
 30
0.0
 10
-0.1405590551181102
 20
3.491031496062993
 30
0.0
 10
-0.1405590551181102
 20
3.491031496062993
 30
0.0
 10
-0.1405590551181102
 20
3.491031496062993
 30
0.0
 10
-0.1405590551181102
 20
3.491031496062993
 30
0.0
 10
-0.1874724409448819
 20
3.496996062992126
 30
0.0
 10
-0.1874724409448819
 20
3.496996062992126
 30
0.0
  0
SPLINE
  5
7B
330
1F
100
AcDbEntity
  8
LAYER_1
 62
   252
100
AcDbSpline
210
0.0
220
0.0
230
1.0
 70
    11
 71
     3
 72
    20
 73
    16
 74
     0
 42
0.0000000001
 43
0.0000000001
 40
0.0
 40
0.0
 40
0.0
 40
0.0
 40
0.25
 40
0.25
 40
0.25
 40
0.25
 40
0.5
 40
0.5
 40
0.5
 40
0.5
 40
0.75
 40
0.75
 40
0.75
 40
0.75
 40
1.0
 40
1.0
 40
1.0
 40
1.0
 10
-0.1405590551181102
 20
3.491031496062993
 30
0.0
 10
-0.1405590551181102
 20
3.491031496062993
 30
0.0
 10
0.511492125984252
 20
3.868614173228347
 30
0.0
 10
0.511492125984252
 20
3.868614173228347
 30
0.0
 10
0.511492125984252
 20
3.868614173228347
 30
0.0
 10
0.511492125984252
 20
3.868614173228347
 30
0.0
 10
0.5576535433070866
 20
3.860370078740158
 30
0.0
 10
0.5576535433070866
 20
3.860370078740158
 30
0.0
 10
0.5576535433070866
 20
3.860370078740158
 30
0.0
 10
0.5576535433070866
 20
3.860370078740158
 30
0.0
 10
-0.0943976377952756
 20
3.482787401574803
 30
0.0
 10
-0.0943976377952756
 20
3.482787401574803
 30
0.0
 10
-0.0943976377952756
 20
3.482787401574803
 30
0.0
 10
-0.0943976377952756
 20
3.482787401574803
 30
0.0
 10
-0.1405590551181102
 20
3.491031496062993
 30
0.0
 10
-0.1405590551181102
 20
3.491031496062993
 30
0.0
  0
SPLINE
  5
7C
330
1F
100
AcDbEntity
  8
LAYER_1
 62
   252
100
AcDbSpline
210
0.0
220
0.0
230
1.0
 70
    11
 71
     3
 72
    20
 73
    16
 74
     0
 42
0.0000000001
 43
0.0000000001
 40
0.0
 40
0.0
 40
0.0
 40
0.0
 40
0.25
 40
0.25
 40
0.25
 40
0.25
 40
0.5
 40
0.5
 40
0.5
 40
0.5
 40
0.75
 40
0.75
 40
0.75
 40
0.75
 40
1.0
 40
1.0
 40
1.0
 40
1.0
 10
-0.0943976377952756
 20
3.482787401574803
 30
0.0
 10
-0.0943976377952756
 20
3.482787401574803
 30
0.0
 10
0.5576535433070866
 20
3.860370078740158
 30
0.0
 10
0.5576535433070866
 20
3.860370078740158
 30
0.0
 10
0.5576535433070866
 20
3.860370078740158
 30
0.0
 10
0.5576535433070866
 20
3.860370078740158
 30
0.0
 10
0.6030078740157481
 20
3.849897637795276
 30
0.0
 10
0.6030078740157481
 20
3.849897637795276
 30
0.0
 10
0.6030078740157481
 20
3.849897637795276
 30
0.0
 10
0.6030078740157481
 20
3.849897637795276
 30
0.0
 10
-0.0490433070866142
 20
3.472314960629921
 30
0.0
 10
-0.0490433070866142
 20
3.472314960629921
 30
0.0
 10
-0.0490433070866142
 20
3.472314960629921
 30
0.0
 10
-0.0490433070866142
 20
3.472314960629921
 30
0.0
 10
-0.0943976377952756
 20
3.482787401574803
 30
0.0
 10
-0.0943976377952756
 20
3.482787401574803
 30
0.0
  0
SPLINE
  5
7D
330
1F
100
AcDbEntity
  8
LAYER_1
 62
   252
100
AcDbSpline
210
0.0
220
0.0
230
1.0
 70
    11
 71
     3
 72
    20
 73
    16
 74
     0
 42
0.0000000001
 43
0.0000000001
 40
0.0
 40
0.0
 40
0.0
 40
0.0
 40
0.25
 40
0.25
 40
0.25
 40
0.25
 40
0.5
 40
0.5
 40
0.5
 40
0.5
 40
0.75
 40
0.75
 40
0.75
 40
0.75
 40
1.0
 40
1.0
 40
1.0
 40
1.0
 10
-0.0490433070866142
 20
3.472314960629921
 30
0.0
 10
-0.0490433070866142
 20
3.472314960629921
 30
0.0
 10
0.6030078740157481
 20
3.849897637795276
 30
0.0
 10
0.6030078740157481
 20
3.849897637795276
 30
0.0
 10
0.6030078740157481
 20
3.849897637795276
 30
0.0
 10
0.6030078740157481
 20
3.849897637795276
 30
0.0
 10
0.6474881889763779
 20
3.837263779527559
 30
0.0
 10
0.6474881889763779
 20
3.837263779527559
 30
0.0
 10
0.6474881889763779
 20
3.837263779527559
 30
0.0
 10
0.6474881889763779
 20
3.837263779527559
 30
0.0
 10
-0.0045629921259843
 20
3.459681102362205
 30
0.0
 10
-0.0045629921259843
 20
3.459681102362205
 30
0.0
 10
-0.0045629921259843
 20
3.459681102362205
 30
0.0
 10
-0.0045629921259843
 20
3.459681102362205
 30
0.0
 10
-0.0490433070866142
 20
3.472314960629921
 30
0.0
 10
-0.0490433070866142
 20
3.472314960629921
 30
0.0
  0
SPLINE
  5
7E
330
1F
100
AcDbEntity
  8
LAYER_1
 62
   252
100
AcDbSpline
210
0.0
220
0.0
230
1.0
 70
    11
 71
     3
 72
    20
 73
    16
 74
     0
 42
0.0000000001
 43
0.0000000001
 40
0.0
 40
0.0
 40
0.0
 40
0.0
 40
0.25
 40
0.25
 40
0.25
 40
0.25
 40
0.5
 40
0.5
 40
0.5
 40
0.5
 40
0.75
 40
0.75
 40
0.75
 40
0.75
 40
1.0
 40
1.0
 40
1.0
 40
1.0
 10
-0.0045629921259843
 20
3.459681102362205
 30
0.0
 10
-0.0045629921259843
 20
3.459681102362205
 30
0.0
 10
0.6474881889763779
 20
3.837263779527559
 30
0.0
 10
0.6474881889763779
 20
3.837263779527559
 30
0.0
 10
0.6474881889763779
 20
3.837263779527559
 30
0.0
 10
0.6474881889763779
 20
3.837263779527559
 30
0.0
 10
0.6910393700787402
 20
3.82251968503937
 30
0.0
 10
0.6910393700787402
 20
3.82251968503937
 30
0.0
 10
0.6910393700787402
 20
3.82251968503937
 30
0.0
 10
0.6910393700787402
 20
3.82251968503937
 30
0.0
 10
0.038988188976378
 20
3.444937007874016
 30
0.0
 10
0.038988188976378
 20
3.444937007874016
 30
0.0
 10
0.038988188976378
 20
3.444937007874016
 30
0.0
 10
0.038988188976378
 20
3.444937007874016
 30
0.0
 10
-0.0045629921259843
 20
3.459681102362205
 30
0.0
 10
-0.0045629921259843
 20
3.459681102362205
 30
0.0
  0
SPLINE
  5
7F
330
1F
100
AcDbEntity
  8
LAYER_1
 62
   252
100
AcDbSpline
210
0.0
220
0.0
230
1.0
 70
    11
 71
     3
 72
    20
 73
    16
 74
     0
 42
0.0000000001
 43
0.0000000001
 40
0.0
 40
0.0
 40
0.0
 40
0.0
 40
0.25
 40
0.25
 40
0.25
 40
0.25
 40
0.5
 40
0.5
 40
0.5
 40
0.5
 40
0.75
 40
0.75
 40
0.75
 40
0.75
 40
1.0
 40
1.0
 40
1.0
 40
1.0
 10
0.038988188976378
 20
3.444937007874016
 30
0.0
 10
0.038988188976378
 20
3.444937007874016
 30
0.0
 10
0.6910393700787402
 20
3.82251968503937
 30
0.0
 10
0.6910393700787402
 20
3.82251968503937
 30
0.0
 10
0.6910393700787402
 20
3.82251968503937
 30
0.0
 10
0.6910393700787402
 20
3.82251968503937
 30
0.0
 10
0.7336141732283464
 20
3.805736220472441
 30
0.0
 10
0.7336141732283464
 20
3.805736220472441
 30
0.0
 10
0.7336141732283464
 20
3.805736220472441
 30
0.0
 10
0.7336141732283464
 20
3.805736220472441
 30
0.0
 10
0.0815629921259843
 20
3.428153543307087
 30
0.0
 10
0.0815629921259843
 20
3.428153543307087
 30
0.0
 10
0.0815629921259843
 20
3.428153543307087
 30
0.0
 10
0.0815629921259843
 20
3.428153543307087
 30
0.0
 10
0.038988188976378
 20
3.444937007874016
 30
0.0
 10
0.038988188976378
 20
3.444937007874016
 30
0.0
  0
SPLINE
  5
80
330
1F
100
AcDbEntity
  8
LAYER_1
 62
   252
100
AcDbSpline
210
0.0
220
0.0
230
1.0
 70
    11
 71
     3
 72
    20
 73
    16
 74
     0
 42
0.0000000001
 43
0.0000000001
 40
0.0
 40
0.0
 40
0.0
 40
0.0
 40
0.25
 40
0.25
 40
0.25
 40
0.25
 40
0.5
 40
0.5
 40
0.5
 40
0.5
 40
0.75
 40
0.75
 40
0.75
 40
0.75
 40
1.0
 40
1.0
 40
1.0
 40
1.0
 10
0.0815629921259843
 20
3.428153543307087
 30
0.0
 10
0.0815629921259843
 20
3.428153543307087
 30
0.0
 10
0.7336141732283464
 20
3.805736220472441
 30
0.0
 10
0.7336141732283464
 20
3.805736220472441
 30
0.0
 10
0.7336141732283464
 20
3.805736220472441
 30
0.0
 10
0.7336141732283464
 20
3.805736220472441
 30
0.0
 10
0.7751377952755906
 20
3.786952755905512
 30
0.0
 10
0.7751377952755906
 20
3.786952755905512
 30
0.0
 10
0.7751377952755906
 20
3.786952755905512
 30
0.0
 10
0.7751377952755906
 20
3.786952755905512
 30
0.0
 10
0.1230866141732284
 20
3.409370078740158
 30
0.0
 10
0.1230866141732284
 20
3.409370078740158
 30
0.0
 10
0.1230866141732284
 20
3.409370078740158
 30
0.0
 10
0.1230866141732284
 20
3.409370078740158
 30
0.0
 10
0.0815629921259843
 20
3.428153543307087
 30
0.0
 10
0.0815629921259843
 20
3.428153543307087
 30
0.0
  0
SPLINE
  5
81
330
1F
100
AcDbEntity
  8
LAYER_1
 62
   253
100
AcDbSpline
210
0.0
220
0.0
230
1.0
 70
    11
 71
     3
 72
    20
 73
    16
 74
     0
 42
0.0000000001
 43
0.0000000001
 40
0.0
 40
0.0
 40
0.0
 40
0.0
 40
0.25
 40
0.25
 40
0.25
 40
0.25
 40
0.5
 40
0.5
 40
0.5
 40
0.5
 40
0.75
 40
0.75
 40
0.75
 40
0.75
 40
1.0
 40
1.0
 40
1.0
 40
1.0
 10
0.1230866141732284
 20
3.409370078740158
 30
0.0
 10
0.1230866141732284
 20
3.409370078740158
 30
0.0
 10
0.7751377952755906
 20
3.786952755905512
 30
0.0
 10
0.7751377952755906
 20
3.786952755905512
 30
0.0
 10
0.7751377952755906
 20
3.786952755905512
 30
0.0
 10
0.7751377952755906
 20
3.786952755905512
 30
0.0
 10
0.8155629921259843
 20
3.766248031496063
 30
0.0
 10
0.8155629921259843
 20
3.766248031496063
 30
0.0
 10
0.8155629921259843
 20
3.766248031496063
 30
0.0
 10
0.8155629921259843
 20
3.766248031496063
 30
0.0
 10
0.1635118110236221
 20
3.388665354330709
 30
0.0
 10
0.1635118110236221
 20
3.388665354330709
 30
0.0
 10
0.1635118110236221
 20
3.388665354330709
 30
0.0
 10
0.1635118110236221
 20
3.388665354330709
 30
0.0
 10
0.1230866141732284
 20
3.409370078740158
 30
0.0
 10
0.1230866141732284
 20
3.409370078740158
 30
0.0
  0
SPLINE
  5
82
330
1F
100
AcDbEntity
  8
LAYER_1
 62
   253
100
AcDbSpline
210
0.0
220
0.0
230
1.0
 70
    11
 71
     3
 72
    20
 73
    16
 74
     0
 42
0.0000000001
 43
0.0000000001
 40
0.0
 40
0.0
 40
0.0
 40
0.0
 40
0.25
 40
0.25
 40
0.25
 40
0.25
 40
0.5
 40
0.5
 40
0.5
 40
0.5
 40
0.75
 40
0.75
 40
0.75
 40
0.75
 40
1.0
 40
1.0
 40
1.0
 40
1.0
 10
0.1635118110236221
 20
3.388665354330709
 30
0.0
 10
0.1635118110236221
 20
3.388665354330709
 30
0.0
 10
0.8155629921259843
 20
3.766248031496063
 30
0.0
 10
0.8155629921259843
 20
3.766248031496063
 30
0.0
 10
0.8155629921259843
 20
3.766248031496063
 30
0.0
 10
0.8155629921259843
 20
3.766248031496063
 30
0.0
 10
0.8548188976377953
 20
3.743669291338583
 30
0.0
 10
0.8548188976377953
 20
3.743669291338583
 30
0.0
 10
0.8548188976377953
 20
3.743669291338583
 30
0.0
 10
0.8548188976377953
 20
3.743669291338583
 30
0.0
 10
0.2027677165354331
 20
3.366086614173228
 30
0.0
 10
0.2027677165354331
 20
3.366086614173228
 30
0.0
 10
0.2027677165354331
 20
3.366086614173228
 30
0.0
 10
0.2027677165354331
 20
3.366086614173228
 30
0.0
 10
0.1635118110236221
 20
3.388665354330709
 30
0.0
 10
0.1635118110236221
 20
3.388665354330709
 30
0.0
  0
SPLINE
  5
83
330
1F
100
AcDbEntity
  8
LAYER_1
 62
   253
100
AcDbSpline
210
0.0
220
0.0
230
1.0
 70
    11
 71
     3
 72
    20
 73
    16
 74
     0
 42
0.0000000001
 43
0.0000000001
 40
0.0
 40
0.0
 40
0.0
 40
0.0
 40
0.25
 40
0.25
 40
0.25
 40
0.25
 40
0.5
 40
0.5
 40
0.5
 40
0.5
 40
0.75
 40
0.75
 40
0.75
 40
0.75
 40
1.0
 40
1.0
 40
1.0
 40
1.0
 10
0.2027677165354331
 20
3.366086614173228
 30
0.0
 10
0.2027677165354331
 20
3.366086614173228
 30
0.0
 10
0.8548188976377953
 20
3.743669291338583
 30
0.0
 10
0.8548188976377953
 20
3.743669291338583
 30
0.0
 10
0.8548188976377953
 20
3.743669291338583
 30
0.0
 10
0.8548188976377953
 20
3.743669291338583
 30
0.0
 10
0.8928582677165354
 20
3.719283464566929
 30
0.0
 10
0.8928582677165354
 20
3.719283464566929
 30
0.0
 10
0.8928582677165354
 20
3.719283464566929
 30
0.0
 10
0.8928582677165354
 20
3.719283464566929
 30
0.0
 10
0.2408070866141732
 20
3.341700787401575
 30
0.0
 10
0.2408070866141732
 20
3.341700787401575
 30
0.0
 10
0.2408070866141732
 20
3.341700787401575
 30
0.0
 10
0.2408070866141732
 20
3.341700787401575
 30
0.0
 10
0.2027677165354331
 20
3.366086614173228
 30
0.0
 10
0.2027677165354331
 20
3.366086614173228
 30
0.0
  0
SPLINE
  5
84
330
1F
100
AcDbEntity
  8
LAYER_1
 62
   253
100
AcDbSpline
210
0.0
220
0.0
230
1.0
 70
    11
 71
     3
 72
    20
 73
    16
 74
     0
 42
0.0000000001
 43
0.0000000001
 40
0.0
 40
0.0
 40
0.0
 40
0.0
 40
0.25
 40
0.25
 40
0.25
 40
0.25
 40
0.5
 40
0.5
 40
0.5
 40
0.5
 40
0.75
 40
0.75
 40
0.75
 40
0.75
 40
1.0
 40
1.0
 40
1.0
 40
1.0
 10
0.2408070866141732
 20
3.341700787401575
 30
0.0
 10
0.2408070866141732
 20
3.341700787401575
 30
0.0
 10
0.8928582677165354
 20
3.719283464566929
 30
0.0
 10
0.8928582677165354
 20
3.719283464566929
 30
0.0
 10
0.8928582677165354
 20
3.719283464566929
 30
0.0
 10
0.8928582677165354
 20
3.719283464566929
 30
0.0
 10
0.9296141732283465
 20
3.693141732283465
 30
0.0
 10
0.9296141732283465
 20
3.693141732283465
 30
0.0
 10
0.9296141732283465
 20
3.693141732283465
 30
0.0
 10
0.9296141732283465
 20
3.693141732283465
 30
0.0
 10
0.2775629921259843
 20
3.31555905511811
 30
0.0
 10
0.2775629921259843
 20
3.31555905511811
 30
0.0
 10
0.2775629921259843
 20
3.31555905511811
 30
0.0
 10
0.2775629921259843
 20
3.31555905511811
 30
0.0
 10
0.2408070866141732
 20
3.341700787401575
 30
0.0
 10
0.2408070866141732
 20
3.341700787401575
 30
0.0
  0
SPLINE
  5
85
330
1F
100
AcDbEntity
  8
LAYER_1
 62
   253
100
AcDbSpline
210
0.0
220
0.0
230
1.0
 70
    11
 71
     3
 72
    20
 73
    16
 74
     0
 42
0.0000000001
 43
0.0000000001
 40
0.0
 40
0.0
 40
0.0
 40
0.0
 40
0.25
 40
0.25
 40
0.25
 40
0.25
 40
0.5
 40
0.5
 40
0.5
 40
0.5
 40
0.75
 40
0.75
 40
0.75
 40
0.75
 40
1.0
 40
1.0
 40
1.0
 40
1.0
 10
0.2775629921259843
 20
3.31555905511811
 30
0.0
 10
0.2775629921259843
 20
3.31555905511811
 30
0.0
 10
0.9296141732283465
 20
3.693141732283465
 30
0.0
 10
0.9296141732283465
 20
3.693141732283465
 30
0.0
 10
0.9296141732283465
 20
3.693141732283465
 30
0.0
 10
0.9296141732283465
 20
3.693141732283465
 30
0.0
 10
0.9650354330708661
 20
3.665311023622047
 30
0.0
 10
0.9650354330708661
 20
3.665311023622047
 30
0.0
 10
0.9650354330708661
 20
3.665311023622047
 30
0.0
 10
0.9650354330708661
 20
3.665311023622047
 30
0.0
 10
0.3129842519685039
 20
3.287728346456693
 30
0.0
 10
0.3129842519685039
 20
3.287728346456693
 30
0.0
 10
0.3129842519685039
 20
3.287728346456693
 30
0.0
 10
0.3129842519685039
 20
3.287728346456693
 30
0.0
 10
0.2775629921259843
 20
3.31555905511811
 30
0.0
 10
0.2775629921259843
 20
3.31555905511811
 30
0.0
  0
SPLINE
  5
86
330
1F
100
AcDbEntity
  8
LAYER_1
 62
   253
100
AcDbSpline
210
0.0
220
0.0
230
1.0
 70
    11
 71
     3
 72
    20
 73
    16
 74
     0
 42
0.0000000001
 43
0.0000000001
 40
0.0
 40
0.0
 40
0.0
 40
0.0
 40
0.25
 40
0.25
 40
0.25
 40
0.25
 40
0.5
 40
0.5
 40
0.5
 40
0.5
 40
0.75
 40
0.75
 40
0.75
 40
0.75
 40
1.0
 40
1.0
 40
1.0
 40
1.0
 10
0.3129842519685039
 20
3.287728346456693
 30
0.0
 10
0.3129842519685039
 20
3.287728346456693
 30
0.0
 10
0.9650354330708661
 20
3.665311023622047
 30
0.0
 10
0.9650354330708661
 20
3.665311023622047
 30
0.0
 10
0.9650354330708661
 20
3.665311023622047
 30
0.0
 10
0.9650354330708661
 20
3.665311023622047
 30
0.0
 10
0.9990511811023622
 20
3.63584251968504
 30
0.0
 10
0.9990511811023622
 20
3.63584251968504
 30
0.0
 10
0.9990511811023622
 20
3.63584251968504
 30
0.0
 10
0.9990511811023622
 20
3.63584251968504
 30
0.0
 10
0.347
 20
3.258259842519685
 30
0.0
 10
0.347
 20
3.258259842519685
 30
0.0
 10
0.347
 20
3.258259842519685
 30
0.0
 10
0.347
 20
3.258259842519685
 30
0.0
 10
0.3129842519685039
 20
3.287728346456693
 30
0.0
 10
0.3129842519685039
 20
3.287728346456693
 30
0.0
  0
SPLINE
  5
87
330
1F
100
AcDbEntity
  8
LAYER_1
 62
   253
100
AcDbSpline
210
0.0
220
0.0
230
1.0
 70
    11
 71
     3
 72
    20
 73
    16
 74
     0
 42
0.0000000001
 43
0.0000000001
 40
0.0
 40
0.0
 40
0.0
 40
0.0
 40
0.25
 40
0.25
 40
0.25
 40
0.25
 40
0.5
 40
0.5
 40
0.5
 40
0.5
 40
0.75
 40
0.75
 40
0.75
 40
0.75
 40
1.0
 40
1.0
 40
1.0
 40
1.0
 10
0.347
 20
3.258259842519685
 30
0.0
 10
0.347
 20
3.258259842519685
 30
0.0
 10
0.9990511811023622
 20
3.63584251968504
 30
0.0
 10
0.9990511811023622
 20
3.63584251968504
 30
0.0
 10
0.9990511811023622
 20
3.63584251968504
 30
0.0
 10
0.9990511811023622
 20
3.63584251968504
 30
0.0
 10
1.031618110236221
 20
3.604803149606299
 30
0.0
 10
1.031618110236221
 20
3.604803149606299
 30
0.0
 10
1.031618110236221
 20
3.604803149606299
 30
0.0
 10
1.031618110236221
 20
3.604803149606299
 30
0.0
 10
0.3795669291338583
 20
3.227220472440945
 30
0.0
 10
0.3795669291338583
 20
3.227220472440945
 30
0.0
 10
0.3795669291338583
 20
3.227220472440945
 30
0.0
 10
0.3795669291338583
 20
3.227220472440945
 30
0.0
 10
0.347
 20
3.258259842519685
 30
0.0
 10
0.347
 20
3.258259842519685
 30
0.0
  0
SPLINE
  5
88
330
1F
100
AcDbEntity
  8
LAYER_1
 62
   253
100
AcDbSpline
210
0.0
220
0.0
230
1.0
 70
    11
 71
     3
 72
    20
 73
    16
 74
     0
 42
0.0000000001
 43
0.0000000001
 40
0.0
 40
0.0
 40
0.0
 40
0.0
 40
0.25
 40
0.25
 40
0.25
 40
0.25
 40
0.5
 40
0.5
 40
0.5
 40
0.5
 40
0.75
 40
0.75
 40
0.75
 40
0.75
 40
1.0
 40
1.0
 40
1.0
 40
1.0
 10
0.3795669291338583
 20
3.227220472440945
 30
0.0
 10
0.3795669291338583
 20
3.227220472440945
 30
0.0
 10
1.031618110236221
 20
3.604803149606299
 30
0.0
 10
1.031618110236221
 20
3.604803149606299
 30
0.0
 10
1.031618110236221
 20
3.604803149606299
 30
0.0
 10
1.031618110236221
 20
3.604803149606299
 30
0.0
 10
1.062657480314961
 20
3.572236220472441
 30
0.0
 10
1.062657480314961
 20
3.572236220472441
 30
0.0
 10
1.062657480314961
 20
3.572236220472441
 30
0.0
 10
1.062657480314961
 20
3.572236220472441
 30
0.0
 10
0.4106062992125985
 20
3.194653543307087
 30
0.0
 10
0.4106062992125985
 20
3.194653543307087
 30
0.0
 10
0.4106062992125985
 20
3.194653543307087
 30
0.0
 10
0.4106062992125985
 20
3.194653543307087
 30
0.0
 10
0.3795669291338583
 20
3.227220472440945
 30
0.0
 10
0.3795669291338583
 20
3.227220472440945
 30
0.0
  0
SPLINE
  5
89
330
1F
100
AcDbEntity
  8
LAYER_1
 62
   253
100
AcDbSpline
210
0.0
220
0.0
230
1.0
 70
    11
 71
     3
 72
    20
 73
    16
 74
     0
 42
0.0000000001
 43
0.0000000001
 40
0.0
 40
0.0
 40
0.0
 40
0.0
 40
0.25
 40
0.25
 40
0.25
 40
0.25
 40
0.5
 40
0.5
 40
0.5
 40
0.5
 40
0.75
 40
0.75
 40
0.75
 40
0.75
 40
1.0
 40
1.0
 40
1.0
 40
1.0
 10
0.4106062992125985
 20
3.194653543307087
 30
0.0
 10
0.4106062992125985
 20
3.194653543307087
 30
0.0
 10
1.062657480314961
 20
3.572236220472441
 30
0.0
 10
1.062657480314961
 20
3.572236220472441
 30
0.0
 10
1.062657480314961
 20
3.572236220472441
 30
0.0
 10
1.062657480314961
 20
3.572236220472441
 30
0.0
 10
1.092125984251969
 20
3.538220472440945
 30
0.0
 10
1.092125984251969
 20
3.538220472440945
 30
0.0
 10
1.092125984251969
 20
3.538220472440945
 30
0.0
 10
1.092125984251969
 20
3.538220472440945
 30
0.0
 10
0.4400748031496063
 20
3.160637795275591
 30
0.0
 10
0.4400748031496063
 20
3.160637795275591
 30
0.0
 10
0.4400748031496063
 20
3.160637795275591
 30
0.0
 10
0.4400748031496063
 20
3.160637795275591
 30
0.0
 10
0.4106062992125985
 20
3.194653543307087
 30
0.0
 10
0.4106062992125985
 20
3.194653543307087
 30
0.0
  0
SPLINE
  5
8A
330
1F
100
AcDbEntity
  8
LAYER_1
 62
   253
100
AcDbSpline
210
0.0
220
0.0
230
1.0
 70
    11
 71
     3
 72
    20
 73
    16
 74
     0
 42
0.0000000001
 43
0.0000000001
 40
0.0
 40
0.0
 40
0.0
 40
0.0
 40
0.25
 40
0.25
 40
0.25
 40
0.25
 40
0.5
 40
0.5
 40
0.5
 40
0.5
 40
0.75
 40
0.75
 40
0.75
 40
0.75
 40
1.0
 40
1.0
 40
1.0
 40
1.0
 10
0.4400748031496063
 20
3.160637795275591
 30
0.0
 10
0.4400748031496063
 20
3.160637795275591
 30
0.0
 10
1.092125984251969
 20
3.538220472440945
 30
0.0
 10
1.092125984251969
 20
3.538220472440945
 30
0.0
 10
1.092125984251969
 20
3.538220472440945
 30
0.0
 10
1.092125984251969
 20
3.538220472440945
 30
0.0
 10
1.119956692913386
 20
3.502799212598426
 30
0.0
 10
1.119956692913386
 20
3.502799212598426
 30
0.0
 10
1.119956692913386
 20
3.502799212598426
 30
0.0
 10
1.119956692913386
 20
3.502799212598426
 30
0.0
 10
0.4679055118110236
 20
3.125216535433071
 30
0.0
 10
0.4679055118110236
 20
3.125216535433071
 30
0.0
 10
0.4679055118110236
 20
3.125216535433071
 30
0.0
 10
0.4679055118110236
 20
3.125216535433071
 30
0.0
 10
0.4400748031496063
 20
3.160637795275591
 30
0.0
 10
0.4400748031496063
 20
3.160637795275591
 30
0.0
  0
SPLINE
  5
8B
330
1F
100
AcDbEntity
  8
LAYER_1
 62
   253
100
AcDbSpline
210
0.0
220
0.0
230
1.0
 70
    11
 71
     3
 72
    20
 73
    16
 74
     0
 42
0.0000000001
 43
0.0000000001
 40
0.0
 40
0.0
 40
0.0
 40
0.0
 40
0.25
 40
0.25
 40
0.25
 40
0.25
 40
0.5
 40
0.5
 40
0.5
 40
0.5
 40
0.75
 40
0.75
 40
0.75
 40
0.75
 40
1.0
 40
1.0
 40
1.0
 40
1.0
 10
0.4679055118110236
 20
3.125216535433071
 30
0.0
 10
0.4679055118110236
 20
3.125216535433071
 30
0.0
 10
1.119956692913386
 20
3.502799212598426
 30
0.0
 10
1.119956692913386
 20
3.502799212598426
 30
0.0
 10
1.119956692913386
 20
3.502799212598426
 30
0.0
 10
1.119956692913386
 20
3.502799212598426
 30
0.0
 10
1.146098425196851
 20
3.466047244094488
 30
0.0
 10
1.146098425196851
 20
3.466047244094488
 30
0.0
 10
1.146098425196851
 20
3.466047244094488
 30
0.0
 10
1.146098425196851
 20
3.466047244094488
 30
0.0
 10
0.4940472440944882
 20
3.088464566929134
 30
0.0
 10
0.4940472440944882
 20
3.088464566929134
 30
0.0
 10
0.4940472440944882
 20
3.088464566929134
 30
0.0
 10
0.4940472440944882
 20
3.088464566929134
 30
0.0
 10
0.4679055118110236
 20
3.125216535433071
 30
0.0
 10
0.4679055118110236
 20
3.125216535433071
 30
0.0
  0
SPLINE
  5
8C
330
1F
100
AcDbEntity
  8
LAYER_1
 62
   253
100
AcDbSpline
210
0.0
220
0.0
230
1.0
 70
    11
 71
     3
 72
    20
 73
    16
 74
     0
 42
0.0000000001
 43
0.0000000001
 40
0.0
 40
0.0
 40
0.0
 40
0.0
 40
0.25
 40
0.25
 40
0.25
 40
0.25
 40
0.5
 40
0.5
 40
0.5
 40
0.5
 40
0.75
 40
0.75
 40
0.75
 40
0.75
 40
1.0
 40
1.0
 40
1.0
 40
1.0
 10
0.4940472440944882
 20
3.088464566929134
 30
0.0
 10
0.4940472440944882
 20
3.088464566929134
 30
0.0
 10
1.146098425196851
 20
3.466047244094488
 30
0.0
 10
1.146098425196851
 20
3.466047244094488
 30
0.0
 10
1.146098425196851
 20
3.466047244094488
 30
0.0
 10
1.146098425196851
 20
3.466047244094488
 30
0.0
 10
1.170484251968504
 20
3.428007874015748
 30
0.0
 10
1.170484251968504
 20
3.428007874015748
 30
0.0
 10
1.170484251968504
 20
3.428007874015748
 30
0.0
 10
1.170484251968504
 20
3.428007874015748
 30
0.0
 10
0.5184330708661418
 20
3.050425196850394
 30
0.0
 10
0.5184330708661418
 20
3.050425196850394
 30
0.0
 10
0.5184330708661418
 20
3.050425196850394
 30
0.0
 10
0.5184330708661418
 20
3.050425196850394
 30
0.0
 10
0.4940472440944882
 20
3.088464566929134
 30
0.0
 10
0.4940472440944882
 20
3.088464566929134
 30
0.0
  0
SPLINE
  5
8D
330
1F
100
AcDbEntity
  8
LAYER_1
 62
   253
100
AcDbSpline
210
0.0
220
0.0
230
1.0
 70
    11
 71
     3
 72
    20
 73
    16
 74
     0
 42
0.0000000001
 43
0.0000000001
 40
0.0
 40
0.0
 40
0.0
 40
0.0
 40
0.25
 40
0.25
 40
0.25
 40
0.25
 40
0.5
 40
0.5
 40
0.5
 40
0.5
 40
0.75
 40
0.75
 40
0.75
 40
0.75
 40
1.0
 40
1.0
 40
1.0
 40
1.0
 10
0.5184330708661418
 20
3.050425196850394
 30
0.0
 10
0.5184330708661418
 20
3.050425196850394
 30
0.0
 10
1.170484251968504
 20
3.428007874015748
 30
0.0
 10
1.170484251968504
 20
3.428007874015748
 30
0.0
 10
1.170484251968504
 20
3.428007874015748
 30
0.0
 10
1.170484251968504
 20
3.428007874015748
 30
0.0
 10
1.193062992125984
 20
3.388751968503937
 30
0.0
 10
1.193062992125984
 20
3.388751968503937
 30
0.0
 10
1.193062992125984
 20
3.388751968503937
 30
0.0
 10
1.193062992125984
 20
3.388751968503937
 30
0.0
 10
0.5410118110236221
 20
3.011169291338583
 30
0.0
 10
0.5410118110236221
 20
3.011169291338583
 30
0.0
 10
0.5410118110236221
 20
3.011169291338583
 30
0.0
 10
0.5410118110236221
 20
3.011169291338583
 30
0.0
 10
0.5184330708661418
 20
3.050425196850394
 30
0.0
 10
0.5184330708661418
 20
3.050425196850394
 30
0.0
  0
SPLINE
  5
8E
330
1F
100
AcDbEntity
  8
LAYER_1
 62
   253
100
AcDbSpline
210
0.0
220
0.0
230
1.0
 70
    11
 71
     3
 72
    20
 73
    16
 74
     0
 42
0.0000000001
 43
0.0000000001
 40
0.0
 40
0.0
 40
0.0
 40
0.0
 40
0.25
 40
0.25
 40
0.25
 40
0.25
 40
0.5
 40
0.5
 40
0.5
 40
0.5
 40
0.75
 40
0.75
 40
0.75
 40
0.75
 40
1.0
 40
1.0
 40
1.0
 40
1.0
 10
0.5410118110236221
 20
3.011169291338583
 30
0.0
 10
0.5410118110236221
 20
3.011169291338583
 30
0.0
 10
1.193062992125984
 20
3.388751968503937
 30
0.0
 10
1.193062992125984
 20
3.388751968503937
 30
0.0
 10
1.193062992125984
 20
3.388751968503937
 30
0.0
 10
1.193062992125984
 20
3.388751968503937
 30
0.0
 10
1.213767716535433
 20
3.348326771653543
 30
0.0
 10
1.213767716535433
 20
3.348326771653543
 30
0.0
 10
1.213767716535433
 20
3.348326771653543
 30
0.0
 10
1.213767716535433
 20
3.348326771653543
 30
0.0
 10
0.5617165354330709
 20
2.970744094488189
 30
0.0
 10
0.5617165354330709
 20
2.970744094488189
 30
0.0
 10
0.5617165354330709
 20
2.970744094488189
 30
0.0
 10
0.5617165354330709
 20
2.970744094488189
 30
0.0
 10
0.5410118110236221
 20
3.011169291338583
 30
0.0
 10
0.5410118110236221
 20
3.011169291338583
 30
0.0
  0
SPLINE
  5
8F
330
1F
100
AcDbEntity
  8
LAYER_1
 62
   253
100
AcDbSpline
210
0.0
220
0.0
230
1.0
 70
    11
 71
     3
 72
    20
 73
    16
 74
     0
 42
0.0000000001
 43
0.0000000001
 40
0.0
 40
0.0
 40
0.0
 40
0.0
 40
0.25
 40
0.25
 40
0.25
 40
0.25
 40
0.5
 40
0.5
 40
0.5
 40
0.5
 40
0.75
 40
0.75
 40
0.75
 40
0.75
 40
1.0
 40
1.0
 40
1.0
 40
1.0
 10
0.5617165354330709
 20
2.970744094488189
 30
0.0
 10
0.5617165354330709
 20
2.970744094488189
 30
0.0
 10
1.213767716535433
 20
3.348326771653543
 30
0.0
 10
1.213767716535433
 20
3.348326771653543
 30
0.0
 10
1.213767716535433
 20
3.348326771653543
 30
0.0
 10
1.213767716535433
 20
3.348326771653543
 30
0.0
 10
1.232551181102362
 20
3.306803149606299
 30
0.0
 10
1.232551181102362
 20
3.306803149606299
 30
0.0
 10
1.232551181102362
 20
3.306803149606299
 30
0.0
 10
1.232551181102362
 20
3.306803149606299
 30
0.0
 10
0.5805
 20
2.929220472440945
 30
0.0
 10
0.5805
 20
2.929220472440945
 30
0.0
 10
0.5805
 20
2.929220472440945
 30
0.0
 10
0.5805
 20
2.929220472440945
 30
0.0
 10
0.5617165354330709
 20
2.970744094488189
 30
0.0
 10
0.5617165354330709
 20
2.970744094488189
 30
0.0
  0
SPLINE
  5
90
330
1F
100
AcDbEntity
  8
LAYER_1
 62
   253
100
AcDbSpline
210
0.0
220
0.0
230
1.0
 70
    11
 71
     3
 72
    20
 73
    16
 74
     0
 42
0.0000000001
 43
0.0000000001
 40
0.0
 40
0.0
 40
0.0
 40
0.0
 40
0.25
 40
0.25
 40
0.25
 40
0.25
 40
0.5
 40
0.5
 40
0.5
 40
0.5
 40
0.75
 40
0.75
 40
0.75
 40
0.75
 40
1.0
 40
1.0
 40
1.0
 40
1.0
 10
0.5805
 20
2.929220472440945
 30
0.0
 10
0.5805
 20
2.929220472440945
 30
0.0
 10
1.232551181102362
 20
3.306803149606299
 30
0.0
 10
1.232551181102362
 20
3.306803149606299
 30
0.0
 10
1.232551181102362
 20
3.306803149606299
 30
0.0
 10
1.232551181102362
 20
3.306803149606299
 30
0.0
 10
1.249334645669291
 20
3.264228346456693
 30
0.0
 10
1.249334645669291
 20
3.264228346456693
 30
0.0
 10
1.249334645669291
 20
3.264228346456693
 30
0.0
 10
1.249334645669291
 20
3.264228346456693
 30
0.0
 10
0.5972834645669292
 20
2.886645669291339
 30
0.0
 10
0.5972834645669292
 20
2.886645669291339
 30
0.0
 10
0.5972834645669292
 20
2.886645669291339
 30
0.0
 10
0.5972834645669292
 20
2.886645669291339
 30
0.0
 10
0.5805
 20
2.929220472440945
 30
0.0
 10
0.5805
 20
2.929220472440945
 30
0.0
  0
SPLINE
  5
91
330
1F
100
AcDbEntity
  8
LAYER_1
 62
   253
100
AcDbSpline
210
0.0
220
0.0
230
1.0
 70
    11
 71
     3
 72
    20
 73
    16
 74
     0
 42
0.0000000001
 43
0.0000000001
 40
0.0
 40
0.0
 40
0.0
 40
0.0
 40
0.25
 40
0.25
 40
0.25
 40
0.25
 40
0.5
 40
0.5
 40
0.5
 40
0.5
 40
0.75
 40
0.75
 40
0.75
 40
0.75
 40
1.0
 40
1.0
 40
1.0
 40
1.0
 10
0.5972834645669292
 20
2.886645669291339
 30
0.0
 10
0.5972834645669292
 20
2.886645669291339
 30
0.0
 10
1.249334645669291
 20
3.264228346456693
 30
0.0
 10
1.249334645669291
 20
3.264228346456693
 30
0.0
 10
1.249334645669291
 20
3.264228346456693
 30
0.0
 10
1.249334645669291
 20
3.264228346456693
 30
0.0
 10
1.264078740157481
 20
3.220673228346457
 30
0.0
 10
1.264078740157481
 20
3.220673228346457
 30
0.0
 10
1.264078740157481
 20
3.220673228346457
 30
0.0
 10
1.264078740157481
 20
3.220673228346457
 30
0.0
 10
0.6120275590551182
 20
2.843090551181103
 30
0.0
 10
0.6120275590551182
 20
2.843090551181103
 30
0.0
 10
0.6120275590551182
 20
2.843090551181103
 30
0.0
 10
0.6120275590551182
 20
2.843090551181103
 30
0.0
 10
0.5972834645669292
 20
2.886645669291339
 30
0.0
 10
0.5972834645669292
 20
2.886645669291339
 30
0.0
  0
SPLINE
  5
92
330
1F
100
AcDbEntity
  8
LAYER_1
 62
   253
100
AcDbSpline
210
0.0
220
0.0
230
1.0
 70
    11
 71
     3
 72
    20
 73
    16
 74
     0
 42
0.0000000001
 43
0.0000000001
 40
0.0
 40
0.0
 40
0.0
 40
0.0
 40
0.25
 40
0.25
 40
0.25
 40
0.25
 40
0.5
 40
0.5
 40
0.5
 40
0.5
 40
0.75
 40
0.75
 40
0.75
 40
0.75
 40
1.0
 40
1.0
 40
1.0
 40
1.0
 10
0.6120275590551182
 20
2.843090551181103
 30
0.0
 10
0.6120275590551182
 20
2.843090551181103
 30
0.0
 10
1.264078740157481
 20
3.220673228346457
 30
0.0
 10
1.264078740157481
 20
3.220673228346457
 30
0.0
 10
1.264078740157481
 20
3.220673228346457
 30
0.0
 10
1.264078740157481
 20
3.220673228346457
 30
0.0
 10
1.276712598425197
 20
3.176185039370079
 30
0.0
 10
1.276712598425197
 20
3.176185039370079
 30
0.0
 10
1.276712598425197
 20
3.176185039370079
 30
0.0
 10
1.276712598425197
 20
3.176185039370079
 30
0.0
 10
0.6246614173228346
 20
2.798602362204725
 30
0.0
 10
0.6246614173228346
 20
2.798602362204725
 30
0.0
 10
0.6246614173228346
 20
2.798602362204725
 30
0.0
 10
0.6246614173228346
 20
2.798602362204725
 30
0.0
 10
0.6120275590551182
 20
2.843090551181103
 30
0.0
 10
0.6120275590551182
 20
2.843090551181103
 30
0.0
  0
SPLINE
  5
93
330
1F
100
AcDbEntity
  8
LAYER_1
 62
   253
100
AcDbSpline
210
0.0
220
0.0
230
1.0
 70
    11
 71
     3
 72
    20
 73
    16
 74
     0
 42
0.0000000001
 43
0.0000000001
 40
0.0
 40
0.0
 40
0.0
 40
0.0
 40
0.25
 40
0.25
 40
0.25
 40
0.25
 40
0.5
 40
0.5
 40
0.5
 40
0.5
 40
0.75
 40
0.75
 40
0.75
 40
0.75
 40
1.0
 40
1.0
 40
1.0
 40
1.0
 10
0.6246614173228346
 20
2.798602362204725
 30
0.0
 10
0.6246614173228346
 20
2.798602362204725
 30
0.0
 10
1.276712598425197
 20
3.176185039370079
 30
0.0
 10
1.276712598425197
 20
3.176185039370079
 30
0.0
 10
1.276712598425197
 20
3.176185039370079
 30
0.0
 10
1.276712598425197
 20
3.176185039370079
 30
0.0
 10
1.287185039370079
 20
3.130834645669292
 30
0.0
 10
1.287185039370079
 20
3.130834645669292
 30
0.0
 10
1.287185039370079
 20
3.130834645669292
 30
0.0
 10
1.287185039370079
 20
3.130834645669292
 30
0.0
 10
0.6351338582677165
 20
2.753251968503937
 30
0.0
 10
0.6351338582677165
 20
2.753251968503937
 30
0.0
 10
0.6351338582677165
 20
2.753251968503937
 30
0.0
 10
0.6351338582677165
 20
2.753251968503937
 30
0.0
 10
0.6246614173228346
 20
2.798602362204725
 30
0.0
 10
0.6246614173228346
 20
2.798602362204725
 30
0.0
  0
SPLINE
  5
94
330
1F
100
AcDbEntity
  8
LAYER_1
 62
   253
100
AcDbSpline
210
0.0
220
0.0
230
1.0
 70
    11
 71
     3
 72
    20
 73
    16
 74
     0
 42
0.0000000001
 43
0.0000000001
 40
0.0
 40
0.0
 40
0.0
 40
0.0
 40
0.25
 40
0.25
 40
0.25
 40
0.25
 40
0.5
 40
0.5
 40
0.5
 40
0.5
 40
0.75
 40
0.75
 40
0.75
 40
0.75
 40
1.0
 40
1.0
 40
1.0
 40
1.0
 10
0.6351338582677165
 20
2.753251968503937
 30
0.0
 10
0.6351338582677165
 20
2.753251968503937
 30
0.0
 10
1.287185039370079
 20
3.130834645669292
 30
0.0
 10
1.287185039370079
 20
3.130834645669292
 30
0.0
 10
1.287185039370079
 20
3.130834645669292
 30
0.0
 10
1.287185039370079
 20
3.130834645669292
 30
0.0
 10
1.295429133858268
 20
3.084669291338583
 30
0.0
 10
1.295429133858268
 20
3.084669291338583
 30
0.0
 10
1.295429133858268
 20
3.084669291338583
 30
0.0
 10
1.295429133858268
 20
3.084669291338583
 30
0.0
 10
0.6433779527559056
 20
2.707086614173229
 30
0.0
 10
0.6433779527559056
 20
2.707086614173229
 30
0.0
 10
0.6433779527559056
 20
2.707086614173229
 30
0.0
 10
0.6433779527559056
 20
2.707086614173229
 30
0.0
 10
0.6351338582677165
 20
2.753251968503937
 30
0.0
 10
0.6351338582677165
 20
2.753251968503937
 30
0.0
  0
SPLINE
  5
95
330
1F
100
AcDbEntity
  8
LAYER_1
 62
   253
100
AcDbSpline
210
0.0
220
0.0
230
1.0
 70
    11
 71
     3
 72
    20
 73
    16
 74
     0
 42
0.0000000001
 43
0.0000000001
 40
0.0
 40
0.0
 40
0.0
 40
0.0
 40
0.25
 40
0.25
 40
0.25
 40
0.25
 40
0.5
 40
0.5
 40
0.5
 40
0.5
 40
0.75
 40
0.75
 40
0.75
 40
0.75
 40
1.0
 40
1.0
 40
1.0
 40
1.0
 10
0.6433779527559056
 20
2.707086614173229
 30
0.0
 10
0.6433779527559056
 20
2.707086614173229
 30
0.0
 10
1.295429133858268
 20
3.084669291338583
 30
0.0
 10
1.295429133858268
 20
3.084669291338583
 30
0.0
 10
1.295429133858268
 20
3.084669291338583
 30
0.0
 10
1.295429133858268
 20
3.084669291338583
 30
0.0
 10
1.301393700787402
 20
3.037759842519685
 30
0.0
 10
1.301393700787402
 20
3.037759842519685
 30
0.0
 10
1.301393700787402
 20
3.037759842519685
 30
0.0
 10
1.301393700787402
 20
3.037759842519685
 30
0.0
 10
0.6493425196850394
 20
2.660177165354331
 30
0.0
 10
0.6493425196850394
 20
2.660177165354331
 30
0.0
 10
0.6493425196850394
 20
2.660177165354331
 30
0.0
 10
0.6493425196850394
 20
2.660177165354331
 30
0.0
 10
0.6433779527559056
 20
2.707086614173229
 30
0.0
 10
0.6433779527559056
 20
2.707086614173229
 30
0.0
  0
SPLINE
  5
96
330
1F
100
AcDbEntity
  8
LAYER_1
 62
   253
100
AcDbSpline
210
0.0
220
0.0
230
1.0
 70
    11
 71
     3
 72
    20
 73
    16
 74
     0
 42
0.0000000001
 43
0.0000000001
 40
0.0
 40
0.0
 40
0.0
 40
0.0
 40
0.25
 40
0.25
 40
0.25
 40
0.25
 40
0.5
 40
0.5
 40
0.5
 40
0.5
 40
0.75
 40
0.75
 40
0.75
 40
0.75
 40
1.0
 40
1.0
 40
1.0
 40
1.0
 10
0.6493425196850394
 20
2.660177165354331
 30
0.0
 10
0.6493425196850394
 20
2.660177165354331
 30
0.0
 10
1.301393700787402
 20
3.037759842519685
 30
0.0
 10
1.301393700787402
 20
3.037759842519685
 30
0.0
 10
1.301393700787402
 20
3.037759842519685
 30
0.0
 10
1.301393700787402
 20
3.037759842519685
 30
0.0
 10
1.305015748031496
 20
2.990157480314961
 30
0.0
 10
1.305015748031496
 20
2.990157480314961
 30
0.0
 10
1.305015748031496
 20
2.990157480314961
 30
0.0
 10
1.305015748031496
 20
2.990157480314961
 30
0.0
 10
0.6529645669291339
 20
2.612574803149606
 30
0.0
 10
0.6529645669291339
 20
2.612574803149606
 30
0.0
 10
0.6529645669291339
 20
2.612574803149606
 30
0.0
 10
0.6529645669291339
 20
2.612574803149606
 30
0.0
 10
0.6493425196850394
 20
2.660177165354331
 30
0.0
 10
0.6493425196850394
 20
2.660177165354331
 30
0.0
  0
SPLINE
  5
97
330
1F
100
AcDbEntity
  8
LAYER_1
 62
   253
100
AcDbSpline
210
0.0
220
0.0
230
1.0
 70
    11
 71
     3
 72
    20
 73
    16
 74
     0
 42
0.0000000001
 43
0.0000000001
 40
0.0
 40
0.0
 40
0.0
 40
0.0
 40
0.25
 40
0.25
 40
0.25
 40
0.25
 40
0.5
 40
0.5
 40
0.5
 40
0.5
 40
0.75
 40
0.75
 40
0.75
 40
0.75
 40
1.0
 40
1.0
 40
1.0
 40
1.0
 10
0.6529645669291339
 20
2.612574803149606
 30
0.0
 10
0.6529645669291339
 20
2.612574803149606
 30
0.0
 10
1.305015748031496
 20
2.990157480314961
 30
0.0
 10
1.305015748031496
 20
2.990157480314961
 30
0.0
 10
1.305015748031496
 20
2.990157480314961
 30
0.0
 10
1.305015748031496
 20
2.990157480314961
 30
0.0
 10
1.306240157480315
 20
2.941929133858268
 30
0.0
 10
1.306240157480315
 20
2.941929133858268
 30
0.0
 10
1.306240157480315
 20
2.941929133858268
 30
0.0
 10
1.306240157480315
 20
2.941929133858268
 30
0.0
 10
0.6541889763779528
 20
2.564346456692913
 30
0.0
 10
0.6541889763779528
 20
2.564346456692913
 30
0.0
 10
0.6541889763779528
 20
2.564346456692913
 30
0.0
 10
0.6541889763779528
 20
2.564346456692913
 30
0.0
 10
0.6529645669291339
 20
2.612574803149606
 30
0.0
 10
0.6529645669291339
 20
2.612574803149606
 30
0.0
  0
SPLINE
  5
98
330
1F
100
AcDbEntity
  8
LAYER_1
 62
   250
100
AcDbSpline
210
0.0
220
0.0
230
1.0
 70
    11
 71
     3
 72
   348
 73
   344
 74
     0
 42
0.0000000001
 43
0.0000000001
 40
0.0
 40
0.0
 40
0.0
 40
0.0
 40
0.0116279069767442
 40
0.0116279069767442
 40
0.0116279069767442
 40
0.0116279069767442
 40
0.0232558139534884
 40
0.0232558139534884
 40
0.0232558139534884
 40
0.0232558139534884
 40
0.0348837209302326
 40
0.0348837209302326
 40
0.0348837209302326
 40
0.0348837209302326
 40
0.0465116279069767
 40
0.0465116279069767
 40
0.0465116279069767
 40
0.0465116279069767
 40
0.0581395348837209
 40
0.0581395348837209
 40
0.0581395348837209
 40
0.0581395348837209
 40
0.0697674418604651
 40
0.0697674418604651
 40
0.0697674418604651
 40
0.0697674418604651
 40
0.0813953488372093
 40
0.0813953488372093
 40
0.0813953488372093
 40
0.0813953488372093
 40
0.0930232558139535
 40
0.0930232558139535
 40
0.0930232558139535
 40
0.0930232558139535
 40
0.1046511627906977
 40
0.1046511627906977
 40
0.1046511627906977
 40
0.1046511627906977
 40
0.1162790697674418
 40
0.1162790697674418
 40
0.1162790697674418
 40
0.1162790697674418
 40
0.127906976744186
 40
0.127906976744186
 40
0.127906976744186
 40
0.127906976744186
 40
0.1395348837209302
 40
0.1395348837209302
 40
0.1395348837209302
 40
0.1395348837209302
 40
0.1511627906976744
 40
0.1511627906976744
 40
0.1511627906976744
 40
0.1511627906976744
 40
0.1627906976744186
 40
0.1627906976744186
 40
0.1627906976744186
 40
0.1627906976744186
 40
0.1744186046511627
 40
0.1744186046511627
 40
0.1744186046511627
 40
0.1744186046511627
 40
0.1860465116279069
 40
0.1860465116279069
 40
0.1860465116279069
 40
0.1860465116279069
 40
0.1976744186046511
 40
0.1976744186046511
 40
0.1976744186046511
 40
0.1976744186046511
 40
0.2093023255813953
 40
0.2093023255813953
 40
0.2093023255813953
 40
0.2093023255813953
 40
0.2209302325581395
 40
0.2209302325581395
 40
0.2209302325581395
 40
0.2209302325581395
 40
0.2325581395348836
 40
0.2325581395348836
 40
0.2325581395348836
 40
0.2325581395348836
 40
0.2441860465116278
 40
0.2441860465116278
 40
0.2441860465116278
 40
0.2441860465116278
 40
0.255813953488372
 40
0.255813953488372
 40
0.255813953488372
 40
0.255813953488372
 40
0.2674418604651162
 40
0.2674418604651162
 40
0.2674418604651162
 40
0.2674418604651162
 40
0.2790697674418604
 40
0.2790697674418604
 40
0.2790697674418604
 40
0.2790697674418604
 40
0.2906976744186046
 40
0.2906976744186046
 40
0.2906976744186046
 40
0.2906976744186046
 40
0.3023255813953488
 40
0.3023255813953488
 40
0.3023255813953488
 40
0.3023255813953488
 40
0.313953488372093
 40
0.313953488372093
 40
0.313953488372093
 40
0.313953488372093
 40
0.3255813953488372
 40
0.3255813953488372
 40
0.3255813953488372
 40
0.3255813953488372
 40
0.3372093023255814
 40
0.3372093023255814
 40
0.3372093023255814
 40
0.3372093023255814
 40
0.3488372093023257
 40
0.3488372093023257
 40
0.3488372093023257
 40
0.3488372093023257
 40
0.3604651162790699
 40
0.3604651162790699
 40
0.3604651162790699
 40
0.3604651162790699
 40
0.3720930232558141
 40
0.3720930232558141
 40
0.3720930232558141
 40
0.3720930232558141
 40
0.3837209302325583
 40
0.3837209302325583
 40
0.3837209302325583
 40
0.3837209302325583
 40
0.3953488372093025
 40
0.3953488372093025
 40
0.3953488372093025
 40
0.3953488372093025
 40
0.4069767441860467
 40
0.4069767441860467
 40
0.4069767441860467
 40
0.4069767441860467
 40
0.4186046511627909
 40
0.4186046511627909
 40
0.4186046511627909
 40
0.4186046511627909
 40
0.4302325581395351
 40
0.4302325581395351
 40
0.4302325581395351
 40
0.4302325581395351
 40
0.4418604651162793
 40
0.4418604651162793
 40
0.4418604651162793
 40
0.4418604651162793
 40
0.4534883720930235
 40
0.4534883720930235
 40
0.4534883720930235
 40
0.4534883720930235
 40
0.4651162790697677
 40
0.4651162790697677
 40
0.4651162790697677
 40
0.4651162790697677
 40
0.4767441860465119
 40
0.4767441860465119
 40
0.4767441860465119
 40
0.4767441860465119
 40
0.4883720930232561
 40
0.4883720930232561
 40
0.4883720930232561
 40
0.4883720930232561
 40
0.5000000000000003
 40
0.5000000000000003
 40
0.5000000000000003
 40
0.5000000000000003
 40
0.5116279069767445
 40
0.5116279069767445
 40
0.5116279069767445
 40
0.5116279069767445
 40
0.5232558139534888
 40
0.5232558139534888
 40
0.5232558139534888
 40
0.5232558139534888
 40
0.534883720930233
 40
0.534883720930233
 40
0.534883720930233
 40
0.534883720930233
 40
0.5465116279069772
 40
0.5465116279069772
 40
0.5465116279069772
 40
0.5465116279069772
 40
0.5581395348837214
 40
0.5581395348837214
 40
0.5581395348837214
 40
0.5581395348837214
 40
0.5697674418604656
 40
0.5697674418604656
 40
0.5697674418604656
 40
0.5697674418604656
 40
0.5813953488372098
 40
0.5813953488372098
 40
0.5813953488372098
 40
0.5813953488372098
 40
0.593023255813954
 40
0.593023255813954
 40
0.593023255813954
 40
0.593023255813954
 40
0.6046511627906982
 40
0.6046511627906982
 40
0.6046511627906982
 40
0.6046511627906982
 40
0.6162790697674424
 40
0.6162790697674424
 40
0.6162790697674424
 40
0.6162790697674424
 40
0.6279069767441866
 40
0.6279069767441866
 40
0.6279069767441866
 40
0.6279069767441866
 40
0.6395348837209308
 40
0.6395348837209308
 40
0.6395348837209308
 40
0.6395348837209308
 40
0.651162790697675
 40
0.651162790697675
 40
0.651162790697675
 40
0.651162790697675
 40
0.6627906976744192
 40
0.6627906976744192
 40
0.6627906976744192
 40
0.6627906976744192
 40
0.6744186046511634
 40
0.6744186046511634
 40
0.6744186046511634
 40
0.6744186046511634
 40
0.6860465116279076
 40
0.6860465116279076
 40
0.6860465116279076
 40
0.6860465116279076
 40
0.6976744186046519
 40
0.6976744186046519
 40
0.6976744186046519
 40
0.6976744186046519
 40
0.7093023255813961
 40
0.7093023255813961
 40
0.7093023255813961
 40
0.7093023255813961
 40
0.7209302325581403
 40
0.7209302325581403
 40
0.7209302325581403
 40
0.7209302325581403
 40
0.7325581395348845
 40
0.7325581395348845
 40
0.7325581395348845
 40
0.7325581395348845
 40
0.7441860465116287
 40
0.7441860465116287
 40
0.7441860465116287
 40
0.7441860465116287
 40
0.7558139534883729
 40
0.7558139534883729
 40
0.7558139534883729
 40
0.7558139534883729
 40
0.7674418604651171
 40
0.7674418604651171
 40
0.7674418604651171
 40
0.7674418604651171
 40
0.7790697674418613
 40
0.7790697674418613
 40
0.7790697674418613
 40
0.7790697674418613
 40
0.7906976744186055
 40
0.7906976744186055
 40
0.7906976744186055
 40
0.7906976744186055
 40
0.8023255813953497
 40
0.8023255813953497
 40
0.8023255813953497
 40
0.8023255813953497
 40
0.8139534883720939
 40
0.8139534883720939
 40
0.8139534883720939
 40
0.8139534883720939
 40
0.8255813953488381
 40
0.8255813953488381
 40
0.8255813953488381
 40
0.8255813953488381
 40
0.8372093023255823
 40
0.8372093023255823
 40
0.8372093023255823
 40
0.8372093023255823
 40
0.8488372093023265
 40
0.8488372093023265
 40
0.8488372093023265
 40
0.8488372093023265
 40
0.8604651162790707
 40
0.8604651162790707
 40
0.8604651162790707
 40
0.8604651162790707
 40
0.872093023255815
 40
0.872093023255815
 40
0.872093023255815
 40
0.872093023255815
 40
0.8837209302325592
 40
0.8837209302325592
 40
0.8837209302325592
 40
0.8837209302325592
 40
0.8953488372093034
 40
0.8953488372093034
 40
0.8953488372093034
 40
0.8953488372093034
 40
0.9069767441860476
 40
0.9069767441860476
 40
0.9069767441860476
 40
0.9069767441860476
 40
0.9186046511627918
 40
0.9186046511627918
 40
0.9186046511627918
 40
0.9186046511627918
 40
0.930232558139536
 40
0.930232558139536
 40
0.930232558139536
 40
0.930232558139536
 40
0.9418604651162802
 40
0.9418604651162802
 40
0.9418604651162802
 40
0.9418604651162802
 40
0.9534883720930244
 40
0.9534883720930244
 40
0.9534883720930244
 40
0.9534883720930244
 40
0.9651162790697686
 40
0.9651162790697686
 40
0.9651162790697686
 40
0.9651162790697686
 40
0.9767441860465128
 40
0.9767441860465128
 40
0.9767441860465128
 40
0.9767441860465128
 40
0.988372093023257
 40
0.988372093023257
 40
0.988372093023257
 40
0.988372093023257
 40
1.0
 40
1.0
 40
1.0
 40
1.0
 10
-0.7301377952755905
 20
3.388665354330709
 30
0.0
 10
-0.7301377952755905
 20
3.388665354330709
 30
0.0
 10
-0.0780866141732283
 20
3.766248031496063
 30
0.0
 10
-0.0780866141732283
 20
3.766248031496063
 30
0.0
 10
-0.0780866141732283
 20
3.766248031496063
 30
0.0
 10
-0.0780866141732283
 20
3.766248031496063
 30
0.0
 10
-0.0376614173228347
 20
3.786952755905512
 30
0.0
 10
-0.0376614173228347
 20
3.786952755905512
 30
0.0
 10
-0.0376614173228347
 20
3.786952755905512
 30
0.0
 10
-0.0376614173228347
 20
3.786952755905512
 30
0.0
 10
0.0038622047244094
 20
3.805736220472441
 30
0.0
 10
0.0038622047244094
 20
3.805736220472441
 30
0.0
 10
0.0038622047244094
 20
3.805736220472441
 30
0.0
 10
0.0038622047244094
 20
3.805736220472441
 30
0.0
 10
0.0464370078740158
 20
3.82251968503937
 30
0.0
 10
0.0464370078740158
 20
3.82251968503937
 30
0.0
 10
0.0464370078740158
 20
3.82251968503937
 30
0.0
 10
0.0464370078740158
 20
3.82251968503937
 30
0.0
 10
0.089992125984252
 20
3.837263779527559
 30
0.0
 10
0.089992125984252
 20
3.837263779527559
 30
0.0
 10
0.089992125984252
 20
3.837263779527559
 30
0.0
 10
0.089992125984252
 20
3.837263779527559
 30
0.0
 10
0.1344803149606299
 20
3.849897637795276
 30
0.0
 10
0.1344803149606299
 20
3.849897637795276
 30
0.0
 10
0.1344803149606299
 20
3.849897637795276
 30
0.0
 10
0.1344803149606299
 20
3.849897637795276
 30
0.0
 10
0.1798307086614173
 20
3.860370078740158
 30
0.0
 10
0.1798307086614173
 20
3.860370078740158
 30
0.0
 10
0.1798307086614173
 20
3.860370078740158
 30
0.0
 10
0.1798307086614173
 20
3.860370078740158
 30
0.0
 10
0.225996062992126
 20
3.868614173228347
 30
0.0
 10
0.225996062992126
 20
3.868614173228347
 30
0.0
 10
0.225996062992126
 20
3.868614173228347
 30
0.0
 10
0.225996062992126
 20
3.868614173228347
 30
0.0
 10
0.2729055118110236
 20
3.87457874015748
 30
0.0
 10
0.2729055118110236
 20
3.87457874015748
 30
0.0
 10
0.2729055118110236
 20
3.87457874015748
 30
0.0
 10
0.2729055118110236
 20
3.87457874015748
 30
0.0
 10
0.320507874015748
 20
3.878200787401575
 30
0.0
 10
0.320507874015748
 20
3.878200787401575
 30
0.0
 10
0.320507874015748
 20
3.878200787401575
 30
0.0
 10
0.320507874015748
 20
3.878200787401575
 30
0.0
 10
0.368736220472441
 20
3.879425196850394
 30
0.0
 10
0.368736220472441
 20
3.879425196850394
 30
0.0
 10
0.368736220472441
 20
3.879425196850394
 30
0.0
 10
0.368736220472441
 20
3.879425196850394
 30
0.0
 10
0.4169763779527559
 20
3.878200787401575
 30
0.0
 10
0.4169763779527559
 20
3.878200787401575
 30
0.0
 10
0.4169763779527559
 20
3.878200787401575
 30
0.0
 10
0.4169763779527559
 20
3.878200787401575
 30
0.0
 10
0.4645787401574804
 20
3.87457874015748
 30
0.0
 10
0.4645787401574804
 20
3.87457874015748
 30
0.0
 10
0.4645787401574804
 20
3.87457874015748
 30
0.0
 10
0.4645787401574804
 20
3.87457874015748
 30
0.0
 10
0.511492125984252
 20
3.868614173228347
 30
0.0
 10
0.511492125984252
 20
3.868614173228347
 30
0.0
 10
0.511492125984252
 20
3.868614173228347
 30
0.0
 10
0.511492125984252
 20
3.868614173228347
 30
0.0
 10
0.5576535433070866
 20
3.860370078740158
 30
0.0
 10
0.5576535433070866
 20
3.860370078740158
 30
0.0
 10
0.5576535433070866
 20
3.860370078740158
 30
0.0
 10
0.5576535433070866
 20
3.860370078740158
 30
0.0
 10
0.6030078740157481
 20
3.849897637795276
 30
0.0
 10
0.6030078740157481
 20
3.849897637795276
 30
0.0
 10
0.6030078740157481
 20
3.849897637795276
 30
0.0
 10
0.6030078740157481
 20
3.849897637795276
 30
0.0
 10
0.6474881889763779
 20
3.837263779527559
 30
0.0
 10
0.6474881889763779
 20
3.837263779527559
 30
0.0
 10
0.6474881889763779
 20
3.837263779527559
 30
0.0
 10
0.6474881889763779
 20
3.837263779527559
 30
0.0
 10
0.6910393700787402
 20
3.82251968503937
 30
0.0
 10
0.6910393700787402
 20
3.82251968503937
 30
0.0
 10
0.6910393700787402
 20
3.82251968503937
 30
0.0
 10
0.6910393700787402
 20
3.82251968503937
 30
0.0
 10
0.7336141732283464
 20
3.805736220472441
 30
0.0
 10
0.7336141732283464
 20
3.805736220472441
 30
0.0
 10
0.7336141732283464
 20
3.805736220472441
 30
0.0
 10
0.7336141732283464
 20
3.805736220472441
 30
0.0
 10
0.7751377952755906
 20
3.786952755905512
 30
0.0
 10
0.7751377952755906
 20
3.786952755905512
 30
0.0
 10
0.7751377952755906
 20
3.786952755905512
 30
0.0
 10
0.7751377952755906
 20
3.786952755905512
 30
0.0
 10
0.8155629921259843
 20
3.766248031496063
 30
0.0
 10
0.8155629921259843
 20
3.766248031496063
 30
0.0
 10
0.8155629921259843
 20
3.766248031496063
 30
0.0
 10
0.8155629921259843
 20
3.766248031496063
 30
0.0
 10
0.8548188976377953
 20
3.743669291338583
 30
0.0
 10
0.8548188976377953
 20
3.743669291338583
 30
0.0
 10
0.8548188976377953
 20
3.743669291338583
 30
0.0
 10
0.8548188976377953
 20
3.743669291338583
 30
0.0
 10
0.8928582677165354
 20
3.719283464566929
 30
0.0
 10
0.8928582677165354
 20
3.719283464566929
 30
0.0
 10
0.8928582677165354
 20
3.719283464566929
 30
0.0
 10
0.8928582677165354
 20
3.719283464566929
 30
0.0
 10
0.9296141732283465
 20
3.693141732283465
 30
0.0
 10
0.9296141732283465
 20
3.693141732283465
 30
0.0
 10
0.9296141732283465
 20
3.693141732283465
 30
0.0
 10
0.9296141732283465
 20
3.693141732283465
 30
0.0
 10
0.9650354330708661
 20
3.665311023622047
 30
0.0
 10
0.9650354330708661
 20
3.665311023622047
 30
0.0
 10
0.9650354330708661
 20
3.665311023622047
 30
0.0
 10
0.9650354330708661
 20
3.665311023622047
 30
0.0
 10
0.9990511811023622
 20
3.63584251968504
 30
0.0
 10
0.9990511811023622
 20
3.63584251968504
 30
0.0
 10
0.9990511811023622
 20
3.63584251968504
 30
0.0
 10
0.9990511811023622
 20
3.63584251968504
 30
0.0
 10
1.031618110236221
 20
3.604803149606299
 30
0.0
 10
1.031618110236221
 20
3.604803149606299
 30
0.0
 10
1.031618110236221
 20
3.604803149606299
 30
0.0
 10
1.031618110236221
 20
3.604803149606299
 30
0.0
 10
1.062657480314961
 20
3.572236220472441
 30
0.0
 10
1.062657480314961
 20
3.572236220472441
 30
0.0
 10
1.062657480314961
 20
3.572236220472441
 30
0.0
 10
1.062657480314961
 20
3.572236220472441
 30
0.0
 10
1.092125984251969
 20
3.538220472440945
 30
0.0
 10
1.092125984251969
 20
3.538220472440945
 30
0.0
 10
1.092125984251969
 20
3.538220472440945
 30
0.0
 10
1.092125984251969
 20
3.538220472440945
 30
0.0
 10
1.119956692913386
 20
3.502799212598426
 30
0.0
 10
1.119956692913386
 20
3.502799212598426
 30
0.0
 10
1.119956692913386
 20
3.502799212598426
 30
0.0
 10
1.119956692913386
 20
3.502799212598426
 30
0.0
 10
1.146098425196851
 20
3.466047244094488
 30
0.0
 10
1.146098425196851
 20
3.466047244094488
 30
0.0
 10
1.146098425196851
 20
3.466047244094488
 30
0.0
 10
1.146098425196851
 20
3.466047244094488
 30
0.0
 10
1.170484251968504
 20
3.428007874015748
 30
0.0
 10
1.170484251968504
 20
3.428007874015748
 30
0.0
 10
1.170484251968504
 20
3.428007874015748
 30
0.0
 10
1.170484251968504
 20
3.428007874015748
 30
0.0
 10
1.193062992125984
 20
3.388751968503937
 30
0.0
 10
1.193062992125984
 20
3.388751968503937
 30
0.0
 10
1.193062992125984
 20
3.388751968503937
 30
0.0
 10
1.193062992125984
 20
3.388751968503937
 30
0.0
 10
1.213767716535433
 20
3.348326771653543
 30
0.0
 10
1.213767716535433
 20
3.348326771653543
 30
0.0
 10
1.213767716535433
 20
3.348326771653543
 30
0.0
 10
1.213767716535433
 20
3.348326771653543
 30
0.0
 10
1.232551181102362
 20
3.306803149606299
 30
0.0
 10
1.232551181102362
 20
3.306803149606299
 30
0.0
 10
1.232551181102362
 20
3.306803149606299
 30
0.0
 10
1.232551181102362
 20
3.306803149606299
 30
0.0
 10
1.249334645669291
 20
3.264228346456693
 30
0.0
 10
1.249334645669291
 20
3.264228346456693
 30
0.0
 10
1.249334645669291
 20
3.264228346456693
 30
0.0
 10
1.249334645669291
 20
3.264228346456693
 30
0.0
 10
1.264078740157481
 20
3.220673228346457
 30
0.0
 10
1.264078740157481
 20
3.220673228346457
 30
0.0
 10
1.264078740157481
 20
3.220673228346457
 30
0.0
 10
1.264078740157481
 20
3.220673228346457
 30
0.0
 10
1.276712598425197
 20
3.176185039370079
 30
0.0
 10
1.276712598425197
 20
3.176185039370079
 30
0.0
 10
1.276712598425197
 20
3.176185039370079
 30
0.0
 10
1.276712598425197
 20
3.176185039370079
 30
0.0
 10
1.287185039370079
 20
3.130834645669292
 30
0.0
 10
1.287185039370079
 20
3.130834645669292
 30
0.0
 10
1.287185039370079
 20
3.130834645669292
 30
0.0
 10
1.287185039370079
 20
3.130834645669292
 30
0.0
 10
1.295429133858268
 20
3.084669291338583
 30
0.0
 10
1.295429133858268
 20
3.084669291338583
 30
0.0
 10
1.295429133858268
 20
3.084669291338583
 30
0.0
 10
1.295429133858268
 20
3.084669291338583
 30
0.0
 10
1.301393700787402
 20
3.037759842519685
 30
0.0
 10
1.301393700787402
 20
3.037759842519685
 30
0.0
 10
1.301393700787402
 20
3.037759842519685
 30
0.0
 10
1.301393700787402
 20
3.037759842519685
 30
0.0
 10
1.305015748031496
 20
2.990157480314961
 30
0.0
 10
1.305015748031496
 20
2.990157480314961
 30
0.0
 10
1.305015748031496
 20
2.990157480314961
 30
0.0
 10
1.305015748031496
 20
2.990157480314961
 30
0.0
 10
1.306240157480315
 20
2.941929133858268
 30
0.0
 10
1.306240157480315
 20
2.941929133858268
 30
0.0
 10
1.306240157480315
 20
2.941929133858268
 30
0.0
 10
1.306240157480315
 20
2.941929133858268
 30
0.0
 10
0.6541889763779528
 20
2.564346456692913
 30
0.0
 10
0.6541889763779528
 20
2.564346456692913
 30
0.0
 10
0.6541889763779528
 20
2.564346456692913
 30
0.0
 10
0.6541889763779528
 20
2.564346456692913
 30
0.0
 10
0.6529645669291339
 20
2.612574803149606
 30
0.0
 10
0.6529645669291339
 20
2.612574803149606
 30
0.0
 10
0.6529645669291339
 20
2.612574803149606
 30
0.0
 10
0.6529645669291339
 20
2.612574803149606
 30
0.0
 10
0.6493425196850394
 20
2.660177165354331
 30
0.0
 10
0.6493425196850394
 20
2.660177165354331
 30
0.0
 10
0.6493425196850394
 20
2.660177165354331
 30
0.0
 10
0.6493425196850394
 20
2.660177165354331
 30
0.0
 10
0.6433779527559056
 20
2.707086614173229
 30
0.0
 10
0.6433779527559056
 20
2.707086614173229
 30
0.0
 10
0.6433779527559056
 20
2.707086614173229
 30
0.0
 10
0.6433779527559056
 20
2.707086614173229
 30
0.0
 10
0.6351338582677165
 20
2.753251968503937
 30
0.0
 10
0.6351338582677165
 20
2.753251968503937
 30
0.0
 10
0.6351338582677165
 20
2.753251968503937
 30
0.0
 10
0.6351338582677165
 20
2.753251968503937
 30
0.0
 10
0.6246614173228346
 20
2.798602362204725
 30
0.0
 10
0.6246614173228346
 20
2.798602362204725
 30
0.0
 10
0.6246614173228346
 20
2.798602362204725
 30
0.0
 10
0.6246614173228346
 20
2.798602362204725
 30
0.0
 10
0.6120275590551182
 20
2.843090551181103
 30
0.0
 10
0.6120275590551182
 20
2.843090551181103
 30
0.0
 10
0.6120275590551182
 20
2.843090551181103
 30
0.0
 10
0.6120275590551182
 20
2.843090551181103
 30
0.0
 10
0.5972834645669292
 20
2.886645669291339
 30
0.0
 10
0.5972834645669292
 20
2.886645669291339
 30
0.0
 10
0.5972834645669292
 20
2.886645669291339
 30
0.0
 10
0.5972834645669292
 20
2.886645669291339
 30
0.0
 10
0.5805
 20
2.929220472440945
 30
0.0
 10
0.5805
 20
2.929220472440945
 30
0.0
 10
0.5805
 20
2.929220472440945
 30
0.0
 10
0.5805
 20
2.929220472440945
 30
0.0
 10
0.5617165354330709
 20
2.970744094488189
 30
0.0
 10
0.5617165354330709
 20
2.970744094488189
 30
0.0
 10
0.5617165354330709
 20
2.970744094488189
 30
0.0
 10
0.5617165354330709
 20
2.970744094488189
 30
0.0
 10
0.5410118110236221
 20
3.011169291338583
 30
0.0
 10
0.5410118110236221
 20
3.011169291338583
 30
0.0
 10
0.5410118110236221
 20
3.011169291338583
 30
0.0
 10
0.5410118110236221
 20
3.011169291338583
 30
0.0
 10
0.5184330708661418
 20
3.050425196850394
 30
0.0
 10
0.5184330708661418
 20
3.050425196850394
 30
0.0
 10
0.5184330708661418
 20
3.050425196850394
 30
0.0
 10
0.5184330708661418
 20
3.050425196850394
 30
0.0
 10
0.4940472440944882
 20
3.088464566929134
 30
0.0
 10
0.4940472440944882
 20
3.088464566929134
 30
0.0
 10
0.4940472440944882
 20
3.088464566929134
 30
0.0
 10
0.4940472440944882
 20
3.088464566929134
 30
0.0
 10
0.4679055118110236
 20
3.125216535433071
 30
0.0
 10
0.4679055118110236
 20
3.125216535433071
 30
0.0
 10
0.4679055118110236
 20
3.125216535433071
 30
0.0
 10
0.4679055118110236
 20
3.125216535433071
 30
0.0
 10
0.4400748031496063
 20
3.160637795275591
 30
0.0
 10
0.4400748031496063
 20
3.160637795275591
 30
0.0
 10
0.4400748031496063
 20
3.160637795275591
 30
0.0
 10
0.4400748031496063
 20
3.160637795275591
 30
0.0
 10
0.4106062992125985
 20
3.194653543307087
 30
0.0
 10
0.4106062992125985
 20
3.194653543307087
 30
0.0
 10
0.4106062992125985
 20
3.194653543307087
 30
0.0
 10
0.4106062992125985
 20
3.194653543307087
 30
0.0
 10
0.3795669291338583
 20
3.227220472440945
 30
0.0
 10
0.3795669291338583
 20
3.227220472440945
 30
0.0
 10
0.3795669291338583
 20
3.227220472440945
 30
0.0
 10
0.3795669291338583
 20
3.227220472440945
 30
0.0
 10
0.347
 20
3.258259842519685
 30
0.0
 10
0.347
 20
3.258259842519685
 30
0.0
 10
0.347
 20
3.258259842519685
 30
0.0
 10
0.347
 20
3.258259842519685
 30
0.0
 10
0.3129842519685039
 20
3.287728346456693
 30
0.0
 10
0.3129842519685039
 20
3.287728346456693
 30
0.0
 10
0.3129842519685039
 20
3.287728346456693
 30
0.0
 10
0.3129842519685039
 20
3.287728346456693
 30
0.0
 10
0.2775629921259843
 20
3.31555905511811
 30
0.0
 10
0.2775629921259843
 20
3.31555905511811
 30
0.0
 10
0.2775629921259843
 20
3.31555905511811
 30
0.0
 10
0.2775629921259843
 20
3.31555905511811
 30
0.0
 10
0.2408070866141732
 20
3.341700787401575
 30
0.0
 10
0.2408070866141732
 20
3.341700787401575
 30
0.0
 10
0.2408070866141732
 20
3.341700787401575
 30
0.0
 10
0.2408070866141732
 20
3.341700787401575
 30
0.0
 10
0.2027677165354331
 20
3.366086614173228
 30
0.0
 10
0.2027677165354331
 20
3.366086614173228
 30
0.0
 10
0.2027677165354331
 20
3.366086614173228
 30
0.0
 10
0.2027677165354331
 20
3.366086614173228
 30
0.0
 10
0.1635118110236221
 20
3.388665354330709
 30
0.0
 10
0.1635118110236221
 20
3.388665354330709
 30
0.0
 10
0.1635118110236221
 20
3.388665354330709
 30
0.0
 10
0.1635118110236221
 20
3.388665354330709
 30
0.0
 10
0.1230866141732284
 20
3.409370078740158
 30
0.0
 10
0.1230866141732284
 20
3.409370078740158
 30
0.0
 10
0.1230866141732284
 20
3.409370078740158
 30
0.0
 10
0.1230866141732284
 20
3.409370078740158
 30
0.0
 10
0.0815629921259843
 20
3.428153543307087
 30
0.0
 10
0.0815629921259843
 20
3.428153543307087
 30
0.0
 10
0.0815629921259843
 20
3.428153543307087
 30
0.0
 10
0.0815629921259843
 20
3.428153543307087
 30
0.0
 10
0.038988188976378
 20
3.444937007874016
 30
0.0
 10
0.038988188976378
 20
3.444937007874016
 30
0.0
 10
0.038988188976378
 20
3.444937007874016
 30
0.0
 10
0.038988188976378
 20
3.444937007874016
 30
0.0
 10
-0.0045629921259843
 20
3.459681102362205
 30
0.0
 10
-0.0045629921259843
 20
3.459681102362205
 30
0.0
 10
-0.0045629921259843
 20
3.459681102362205
 30
0.0
 10
-0.0045629921259843
 20
3.459681102362205
 30
0.0
 10
-0.0490433070866142
 20
3.472314960629921
 30
0.0
 10
-0.0490433070866142
 20
3.472314960629921
 30
0.0
 10
-0.0490433070866142
 20
3.472314960629921
 30
0.0
 10
-0.0490433070866142
 20
3.472314960629921
 30
0.0
 10
-0.0943976377952756
 20
3.482787401574803
 30
0.0
 10
-0.0943976377952756
 20
3.482787401574803
 30
0.0
 10
-0.0943976377952756
 20
3.482787401574803
 30
0.0
 10
-0.0943976377952756
 20
3.482787401574803
 30
0.0
 10
-0.1405590551181102
 20
3.491031496062993
 30
0.0
 10
-0.1405590551181102
 20
3.491031496062993
 30
0.0
 10
-0.1405590551181102
 20
3.491031496062993
 30
0.0
 10
-0.1405590551181102
 20
3.491031496062993
 30
0.0
 10
-0.1874724409448819
 20
3.496996062992126
 30
0.0
 10
-0.1874724409448819
 20
3.496996062992126
 30
0.0
 10
-0.1874724409448819
 20
3.496996062992126
 30
0.0
 10
-0.1874724409448819
 20
3.496996062992126
 30
0.0
 10
-0.2350748031496063
 20
3.500618110236221
 30
0.0
 10
-0.2350748031496063
 20
3.500618110236221
 30
0.0
 10
-0.2350748031496063
 20
3.500618110236221
 30
0.0
 10
-0.2350748031496063
 20
3.500618110236221
 30
0.0
 10
-0.2833149606299213
 20
3.501842519685039
 30
0.0
 10
-0.2833149606299213
 20
3.501842519685039
 30
0.0
 10
-0.2833149606299213
 20
3.501842519685039
 30
0.0
 10
-0.2833149606299213
 20
3.501842519685039
 30
0.0
 10
-0.3315433070866142
 20
3.500618110236221
 30
0.0
 10
-0.3315433070866142
 20
3.500618110236221
 30
0.0
 10
-0.3315433070866142
 20
3.500618110236221
 30
0.0
 10
-0.3315433070866142
 20
3.500618110236221
 30
0.0
 10
-0.3791456692913386
 20
3.496996062992126
 30
0.0
 10
-0.3791456692913386
 20
3.496996062992126
 30
0.0
 10
-0.3791456692913386
 20
3.496996062992126
 30
0.0
 10
-0.3791456692913386
 20
3.496996062992126
 30
0.0
 10
-0.4260551181102362
 20
3.491031496062993
 30
0.0
 10
-0.4260551181102362
 20
3.491031496062993
 30
0.0
 10
-0.4260551181102362
 20
3.491031496062993
 30
0.0
 10
-0.4260551181102362
 20
3.491031496062993
 30
0.0
 10
-0.4722204724409449
 20
3.482787401574803
 30
0.0
 10
-0.4722204724409449
 20
3.482787401574803
 30
0.0
 10
-0.4722204724409449
 20
3.482787401574803
 30
0.0
 10
-0.4722204724409449
 20
3.482787401574803
 30
0.0
 10
-0.5175708661417323
 20
3.472314960629921
 30
0.0
 10
-0.5175708661417323
 20
3.472314960629921
 30
0.0
 10
-0.5175708661417323
 20
3.472314960629921
 30
0.0
 10
-0.5175708661417323
 20
3.472314960629921
 30
0.0
 10
-0.5620590551181103
 20
3.459681102362205
 30
0.0
 10
-0.5620590551181103
 20
3.459681102362205
 30
0.0
 10
-0.5620590551181103
 20
3.459681102362205
 30
0.0
 10
-0.5620590551181103
 20
3.459681102362205
 30
0.0
 10
-0.6056141732283464
 20
3.444937007874016
 30
0.0
 10
-0.6056141732283464
 20
3.444937007874016
 30
0.0
 10
-0.6056141732283464
 20
3.444937007874016
 30
0.0
 10
-0.6056141732283464
 20
3.444937007874016
 30
0.0
 10
-0.6481889763779528
 20
3.428153543307087
 30
0.0
 10
-0.6481889763779528
 20
3.428153543307087
 30
0.0
 10
-0.6481889763779528
 20
3.428153543307087
 30
0.0
 10
-0.6481889763779528
 20
3.428153543307087
 30
0.0
 10
-0.6897125984251968
 20
3.409370078740158
 30
0.0
 10
-0.6897125984251968
 20
3.409370078740158
 30
0.0
 10
-0.6897125984251968
 20
3.409370078740158
 30
0.0
 10
-0.6897125984251968
 20
3.409370078740158
 30
0.0
 10
-0.7301377952755905
 20
3.388665354330709
 30
0.0
 10
-0.7301377952755905
 20
3.388665354330709
 30
0.0
  0
SPLINE
  5
99
330
1F
100
AcDbEntity
  8
LAYER_1
 62
     7
100
AcDbSpline
210
0.0
220
0.0
230
1.0
 70
    11
 71
     3
 72
    16
 73
    12
 74
     0
 42
0.0000000001
 43
0.0000000001
 40
0.0
 40
0.0
 40
0.0
 40
0.0
 40
0.3333333333333333
 40
0.3333333333333333
 40
0.3333333333333333
 40
0.3333333333333333
 40
0.6666666666666666
 40
0.6666666666666666
 40
0.6666666666666666
 40
0.6666666666666666
 40
1.0
 40
1.0
 40
1.0
 40
1.0
 10
0.6541889763779528
 20
2.564346456692913
 30
0.0
 10
0.6541889763779528
 20
2.564346456692913
 30
0.0
 10
-1.220814960629921
 20
2.564346456692913
 30
0.0
 10
-1.220814960629921
 20
2.564346456692913
 30
0.0
 10
-1.220814960629921
 20
2.564346456692913
 30
0.0
 10
-1.220814960629921
 20
3.082023622047244
 30
0.0
 10
-0.800996062992126
 20
3.501842519685039
 30
0.0
 10
-0.2833149606299213
 20
3.501842519685039
 30
0.0
 10
-0.2833149606299213
 20
3.501842519685039
 30
0.0
 10
0.2343661417322835
 20
3.501842519685039
 30
0.0
 10
0.6541889763779528
 20
3.082023622047244
 30
0.0
 10
0.6541889763779528
 20
2.564346456692913
 30
0.0
  0
SPLINE
  5
9A
330
1F
100
AcDbEntity
  8
LAYER_1
 62
   250
100
AcDbSpline
210
0.0
220
0.0
230
1.0
 70
    11
 71
     3
 72
   104
 73
   100
 74
     0
 42
0.0000000001
 43
0.0000000001
 40
0.0
 40
0.0
 40
0.0
 40
0.0
 40
0.04
 40
0.04
 40
0.04
 40
0.04
 40
0.08
 40
0.08
 40
0.08
 40
0.08
 40
0.12
 40
0.12
 40
0.12
 40
0.12
 40
0.16
 40
0.16
 40
0.16
 40
0.16
 40
0.2
 40
0.2
 40
0.2
 40
0.2
 40
0.24
 40
0.24
 40
0.24
 40
0.24
 40
0.28
 40
0.28
 40
0.28
 40
0.28
 40
0.32
 40
0.32
 40
0.32
 40
0.32
 40
0.36
 40
0.36
 40
0.36
 40
0.36
 40
0.4
 40
0.4
 40
0.4
 40
0.4
 40
0.44
 40
0.44
 40
0.44
 40
0.44
 40
0.4799999999999999
 40
0.4799999999999999
 40
0.4799999999999999
 40
0.4799999999999999
 40
0.5199999999999999
 40
0.5199999999999999
 40
0.5199999999999999
 40
0.5199999999999999
 40
0.5599999999999999
 40
0.5599999999999999
 40
0.5599999999999999
 40
0.5599999999999999
 40
0.6
 40
0.6
 40
0.6
 40
0.6
 40
0.64
 40
0.64
 40
0.64
 40
0.64
 40
0.6800000000000001
 40
0.6800000000000001
 40
0.6800000000000001
 40
0.6800000000000001
 40
0.7200000000000001
 40
0.7200000000000001
 40
0.7200000000000001
 40
0.7200000000000001
 40
0.7600000000000001
 40
0.7600000000000001
 40
0.7600000000000001
 40
0.7600000000000001
 40
0.8000000000000002
 40
0.8000000000000002
 40
0.8000000000000002
 40
0.8000000000000002
 40
0.8400000000000002
 40
0.8400000000000002
 40
0.8400000000000002
 40
0.8400000000000002
 40
0.8800000000000002
 40
0.8800000000000002
 40
0.8800000000000002
 40
0.8800000000000002
 40
0.9200000000000003
 40
0.9200000000000003
 40
0.9200000000000003
 40
0.9200000000000003
 40
0.9600000000000003
 40
0.9600000000000003
 40
0.9600000000000003
 40
0.9600000000000003
 40
1.0
 40
1.0
 40
1.0
 40
1.0
 10
-0.3242086614173229
 20
2.47155905511811
 30
0.0
 10
-0.3242086614173229
 20
2.47155905511811
 30
0.0
 10
-0.270236220472441
 20
2.47155905511811
 30
0.0
 10
-0.270236220472441
 20
2.47155905511811
 30
0.0
 10
-0.270236220472441
 20
2.47155905511811
 30
0.0
 10
-0.2570669291338583
 20
2.47155905511811
 30
0.0
 10
-0.2480393700787402
 20
2.470948818897638
 30
0.0
 10
-0.2431535433070866
 20
2.469751968503937
 30
0.0
 10
-0.2431535433070866
 20
2.469751968503937
 30
0.0
 10
-0.2359291338582677
 20
2.468031496062992
 30
0.0
 10
-0.230236220472441
 20
2.464893700787402
 30
0.0
 10
-0.2260118110236221
 20
2.460334645669291
 30
0.0
 10
-0.2260118110236221
 20
2.460334645669291
 30
0.0
 10
-0.2218188976377953
 20
2.455779527559055
 30
0.0
 10
-0.2197086614173228
 20
2.450279527559055
 30
0.0
 10
-0.2197086614173228
 20
2.443893700787402
 30
0.0
 10
-0.2197086614173228
 20
2.443893700787402
 30
0.0
 10
-0.2197086614173228
 20
2.439279527559055
 30
0.0
 10
-0.2208188976377953
 20
2.435141732283465
 30
0.0
 10
-0.2230393700787402
 20
2.431476377952756
 30
0.0
 10
-0.2230393700787402
 20
2.431476377952756
 30
0.0
 10
-0.2252637795275591
 20
2.427807086614173
 30
0.0
 10
-0.2285118110236221
 20
2.424669291338583
 30
0.0
 10
-0.2327362204724409
 20
2.422086614173229
 30
0.0
 10
-0.2327362204724409
 20
2.422086614173229
 30
0.0
 10
-0.2354566929133858
 20
2.420393700787402
 30
0.0
 10
-0.2391259842519685
 20
2.418948818897638
 30
0.0
 10
-0.2437913385826772
 20
2.417751968503937
 30
0.0
 10
-0.2437913385826772
 20
2.417751968503937
 30
0.0
 10
-0.2378740157480315
 20
2.416669291338583
 30
0.0
 10
-0.2333740157480315
 20
2.415366141732283
 30
0.0
 10
-0.2302913385826772
 20
2.413866141732284
 30
0.0
 10
-0.2302913385826772
 20
2.413866141732284
 30
0.0
 10
-0.2256259842519685
 20
2.411586614173229
 30
0.0
 10
-0.2219291338582677
 20
2.408338582677165
 30
0.0
 10
-0.219236220472441
 20
2.404086614173228
 30
0.0
 10
-0.219236220472441
 20
2.404086614173228
 30
0.0
 10
-0.2165118110236221
 20
2.399866141732284
 30
0.0
 10
-0.2151535433070866
 20
2.395086614173228
 30
0.0
 10
-0.2151535433070866
 20
2.389779527559055
 30
0.0
 10
-0.2151535433070866
 20
2.389779527559055
 30
0.0
 10
-0.2151535433070866
 20
2.384614173228346
 30
0.0
 10
-0.2164842519685039
 20
2.379838582677166
 30
0.0
 10
-0.2191535433070866
 20
2.375448818897638
 30
0.0
 10
-0.2191535433070866
 20
2.375448818897638
 30
0.0
 10
-0.2217913385826772
 20
2.37105905511811
 30
0.0
 10
-0.2255669291338583
 20
2.367448818897638
 30
0.0
 10
-0.2304015748031496
 20
2.364614173228346
 30
0.0
 10
-0.2304015748031496
 20
2.364614173228346
 30
0.0
 10
-0.2352637795275591
 20
2.361811023622047
 30
0.0
 10
-0.2409291338582677
 20
2.360003937007874
 30
0.0
 10
-0.2473740157480315
 20
2.359196850393701
 30
0.0
 10
-0.2473740157480315
 20
2.359196850393701
 30
0.0
 10
-0.2538464566929134
 20
2.35842125984252
 30
0.0
 10
-0.2604842519685039
 20
2.358031496062992
 30
0.0
 10
-0.2673188976377953
 20
2.358031496062992
 30
0.0
 10
-0.2673188976377953
 20
2.358031496062992
 30
0.0
 10
-0.2673188976377953
 20
2.358031496062992
 30
0.0
 10
-0.3242086614173229
 20
2.358031496062992
 30
0.0
 10
-0.3242086614173229
 20
2.358031496062992
 30
0.0
 10
-0.3242086614173229
 20
2.358031496062992
 30
0.0
 10
-0.3242086614173229
 20
2.358031496062992
 30
0.0
 10
-0.3242086614173229
 20
2.364866141732283
 30
0.0
 10
-0.3242086614173229
 20
2.364866141732283
 30
0.0
 10
-0.3242086614173229
 20
2.364866141732283
 30
0.0
 10
-0.3242086614173229
 20
2.364866141732283
 30
0.0
 10
-0.3203740157480315
 20
2.364866141732283
 30
0.0
 10
-0.3203740157480315
 20
2.364866141732283
 30
0.0
 10
-0.3203740157480315
 20
2.364866141732283
 30
0.0
 10
-0.3166771653543307
 20
2.364866141732283
 30
0.0
 10
-0.3141771653543307
 20
2.365448818897638
 30
0.0
 10
-0.3128188976377953
 20
2.366586614173229
 30
0.0
 10
-0.3128188976377953
 20
2.366586614173229
 30
0.0
 10
-0.3108464566929134
 20
2.368141732283465
 30
0.0
 10
-0.3098740157480315
 20
2.370751968503937
 30
0.0
 10
-0.3098740157480315
 20
2.374393700787402
 30
0.0
 10
-0.3098740157480315
 20
2.374393700787402
 30
0.0
 10
-0.3098740157480315
 20
2.374393700787402
 30
0.0
 10
-0.3098740157480315
 20
2.453251968503937
 30
0.0
 10
-0.3098740157480315
 20
2.453251968503937
 30
0.0
 10
-0.3098740157480315
 20
2.453251968503937
 30
0.0
 10
-0.3098740157480315
 20
2.456948818897638
 30
0.0
 10
-0.3101771653543307
 20
2.459448818897638
 30
0.0
 10
-0.3107637795275591
 20
2.460807086614173
 30
0.0
 10
-0.3107637795275591
 20
2.460807086614173
 30
0.0
 10
-0.3113740157480315
 20
2.462169291338583
 30
0.0
 10
-0.3122637795275591
 20
2.463141732283465
 30
0.0
 10
-0.3134566929133859
 20
2.463751968503937
 30
0.0
 10
-0.3134566929133859
 20
2.463751968503937
 30
0.0
 10
-0.3146496062992126
 20
2.464334645669291
 30
0.0
 10
-0.3169566929133859
 20
2.464641732283465
 30
0.0
 10
-0.3203740157480315
 20
2.464641732283465
 30
0.0
 10
-0.3203740157480315
 20
2.464641732283465
 30
0.0
 10
-0.3203740157480315
 20
2.464641732283465
 30
0.0
 10
-0.3242086614173229
 20
2.464641732283465
 30
0.0
 10
-0.3242086614173229
 20
2.464641732283465
 30
0.0
 10
-0.3242086614173229
 20
2.464641732283465
 30
0.0
 10
-0.3242086614173229
 20
2.464641732283465
 30
0.0
 10
-0.3242086614173229
 20
2.47155905511811
 30
0.0
 10
-0.3242086614173229
 20
2.47155905511811
 30
0.0
  0
SPLINE
  5
9B
330
1F
100
AcDbEntity
  8
LAYER_1
 62
   250
100
AcDbSpline
210
0.0
220
0.0
230
1.0
 70
    11
 71
     3
 72
    40
 73
    36
 74
     0
 42
0.0000000001
 43
0.0000000001
 40
0.0
 40
0.0
 40
0.0
 40
0.0
 40
0.1111111111111111
 40
0.1111111111111111
 40
0.1111111111111111
 40
0.1111111111111111
 40
0.2222222222222222
 40
0.2222222222222222
 40
0.2222222222222222
 40
0.2222222222222222
 40
0.3333333333333333
 40
0.3333333333333333
 40
0.3333333333333333
 40
0.3333333333333333
 40
0.4444444444444444
 40
0.4444444444444444
 40
0.4444444444444444
 40
0.4444444444444444
 40
0.5555555555555556
 40
0.5555555555555556
 40
0.5555555555555556
 40
0.5555555555555556
 40
0.6666666666666667
 40
0.6666666666666667
 40
0.6666666666666667
 40
0.6666666666666667
 40
0.7777777777777779
 40
0.7777777777777779
 40
0.7777777777777779
 40
0.7777777777777779
 40
0.8888888888888891
 40
0.8888888888888891
 40
0.8888888888888891
 40
0.8888888888888891
 40
1.0
 40
1.0
 40
1.0
 40
1.0
 10
-0.2946496062992126
 20
2.462531496062992
 30
0.0
 10
-0.2946496062992126
 20
2.462531496062992
 30
0.0
 10
-0.2946496062992126
 20
2.420948818897638
 30
0.0
 10
-0.2946496062992126
 20
2.420948818897638
 30
0.0
 10
-0.2946496062992126
 20
2.420948818897638
 30
0.0
 10
-0.2946496062992126
 20
2.420948818897638
 30
0.0
 10
-0.2739015748031496
 20
2.420948818897638
 30
0.0
 10
-0.2739015748031496
 20
2.420948818897638
 30
0.0
 10
-0.2739015748031496
 20
2.420948818897638
 30
0.0
 10
-0.2642086614173229
 20
2.420948818897638
 30
0.0
 10
-0.2575393700787402
 20
2.421393700787402
 30
0.0
 10
-0.2539842519685039
 20
2.422307086614173
 30
0.0
 10
-0.2539842519685039
 20
2.422307086614173
 30
0.0
 10
-0.2483740157480315
 20
2.423779527559055
 30
0.0
 10
-0.2441259842519685
 20
2.426279527559055
 30
0.0
 10
-0.2411535433070866
 20
2.429807086614173
 30
0.0
 10
-0.2411535433070866
 20
2.429807086614173
 30
0.0
 10
-0.2382086614173228
 20
2.433334645669291
 30
0.0
 10
-0.2367086614173228
 20
2.437866141732284
 30
0.0
 10
-0.2367086614173228
 20
2.443393700787402
 30
0.0
 10
-0.2367086614173228
 20
2.443393700787402
 30
0.0
 10
-0.2367086614173228
 20
2.44805905511811
 30
0.0
 10
-0.2380669291338583
 20
2.451948818897638
 30
0.0
 10
-0.240736220472441
 20
2.455086614173228
 30
0.0
 10
-0.240736220472441
 20
2.455086614173228
 30
0.0
 10
-0.2434291338582677
 20
2.458196850393701
 30
0.0
 10
-0.2470393700787402
 20
2.460334645669291
 30
0.0
 10
-0.2515393700787402
 20
2.461476377952756
 30
0.0
 10
-0.2515393700787402
 20
2.461476377952756
 30
0.0
 10
-0.2544566929133859
 20
2.462169291338583
 30
0.0
 10
-0.2605393700787402
 20
2.462531496062992
 30
0.0
 10
-0.2697637795275591
 20
2.462531496062992
 30
0.0
 10
-0.2697637795275591
 20
2.462531496062992
 30
0.0
 10
-0.2697637795275591
 20
2.462531496062992
 30
0.0
 10
-0.2946496062992126
 20
2.462531496062992
 30
0.0
 10
-0.2946496062992126
 20
2.462531496062992
 30
0.0
  0
SPLINE
  5
9C
330
1F
100
AcDbEntity
  8
LAYER_1
 62
   250
100
AcDbSpline
210
0.0
220
0.0
230
1.0
 70
    11
 71
     3
 72
    52
 73
    48
 74
     0
 42
0.0000000001
 43
0.0000000001
 40
0.0
 40
0.0
 40
0.0
 40
0.0
 40
0.0833333333333333
 40
0.0833333333333333
 40
0.0833333333333333
 40
0.0833333333333333
 40
0.1666666666666667
 40
0.1666666666666667
 40
0.1666666666666667
 40
0.1666666666666667
 40
0.25
 40
0.25
 40
0.25
 40
0.25
 40
0.3333333333333333
 40
0.3333333333333333
 40
0.3333333333333333
 40
0.3333333333333333
 40
0.4166666666666666
 40
0.4166666666666666
 40
0.4166666666666666
 40
0.4166666666666666
 40
0.4999999999999999
 40
0.4999999999999999
 40
0.4999999999999999
 40
0.4999999999999999
 40
0.5833333333333333
 40
0.5833333333333333
 40
0.5833333333333333
 40
0.5833333333333333
 40
0.6666666666666666
 40
0.6666666666666666
 40
0.6666666666666666
 40
0.6666666666666666
 40
0.75
 40
0.75
 40
0.75
 40
0.75
 40
0.8333333333333334
 40
0.8333333333333334
 40
0.8333333333333334
 40
0.8333333333333334
 40
0.9166666666666667
 40
0.9166666666666667
 40
0.9166666666666667
 40
0.9166666666666667
 40
1.0
 40
1.0
 40
1.0
 40
1.0
 10
-0.2946496062992126
 20
2.413114173228347
 30
0.0
 10
-0.2946496062992126
 20
2.413114173228347
 30
0.0
 10
-0.2946496062992126
 20
2.375866141732284
 30
0.0
 10
-0.2946496062992126
 20
2.375866141732284
 30
0.0
 10
-0.2946496062992126
 20
2.375866141732284
 30
0.0
 10
-0.2946496062992126
 20
2.372114173228347
 30
0.0
 10
-0.294484251968504
 20
2.369893700787402
 30
0.0
 10
-0.2941811023622047
 20
2.369169291338583
 30
0.0
 10
-0.2941811023622047
 20
2.369169291338583
 30
0.0
 10
-0.293736220472441
 20
2.368196850393701
 30
0.0
 10
-0.2928740157480315
 20
2.367531496062992
 30
0.0
 10
-0.2915669291338583
 20
2.367141732283465
 30
0.0
 10
-0.2915669291338583
 20
2.367141732283465
 30
0.0
 10
-0.2906496062992126
 20
2.366866141732284
 30
0.0
 10
-0.2880393700787401
 20
2.366724409448819
 30
0.0
 10
-0.2837637795275591
 20
2.366724409448819
 30
0.0
 10
-0.2837637795275591
 20
2.366724409448819
 30
0.0
 10
-0.2837637795275591
 20
2.366724409448819
 30
0.0
 10
-0.2726811023622047
 20
2.366724409448819
 30
0.0
 10
-0.2726811023622047
 20
2.366724409448819
 30
0.0
 10
-0.2726811023622047
 20
2.366724409448819
 30
0.0
 10
-0.2617362204724409
 20
2.366724409448819
 30
0.0
 10
-0.2539015748031496
 20
2.367338582677165
 30
0.0
 10
-0.2492086614173228
 20
2.36855905511811
 30
0.0
 10
-0.2492086614173228
 20
2.36855905511811
 30
0.0
 10
-0.244511811023622
 20
2.369779527559055
 30
0.0
 10
-0.2405118110236221
 20
2.372366141732284
 30
0.0
 10
-0.2372086614173228
 20
2.376311023622047
 30
0.0
 10
-0.2372086614173228
 20
2.376311023622047
 30
0.0
 10
-0.2339015748031496
 20
2.380224409448819
 30
0.0
 10
-0.2322362204724409
 20
2.384976377952756
 30
0.0
 10
-0.2322362204724409
 20
2.390503937007874
 30
0.0
 10
-0.2322362204724409
 20
2.390503937007874
 30
0.0
 10
-0.2322362204724409
 20
2.395169291338583
 30
0.0
 10
-0.2335944881889764
 20
2.399307086614174
 30
0.0
 10
-0.2362637795275591
 20
2.40292125984252
 30
0.0
 10
-0.2362637795275591
 20
2.40292125984252
 30
0.0
 10
-0.2389566929133858
 20
2.406531496062992
 30
0.0
 10
-0.2426811023622047
 20
2.409114173228347
 30
0.0
 10
-0.2474291338582677
 20
2.410724409448819
 30
0.0
 10
-0.2474291338582677
 20
2.410724409448819
 30
0.0
 10
-0.2521811023622048
 20
2.412338582677165
 30
0.0
 10
-0.2605944881889764
 20
2.413114173228347
 30
0.0
 10
-0.2726811023622047
 20
2.413114173228347
 30
0.0
 10
-0.2726811023622047
 20
2.413114173228347
 30
0.0
 10
-0.2726811023622047
 20
2.413114173228347
 30
0.0
 10
-0.2946496062992126
 20
2.413114173228347
 30
0.0
 10
-0.2946496062992126
 20
2.413114173228347
 30
0.0
  0
SPLINE
  5
9D
330
1F
100
AcDbEntity
  8
LAYER_1
 62
   250
100
AcDbSpline
210
0.0
220
0.0
230
1.0
 70
    11
 71
     3
 72
   112
 73
   108
 74
     0
 42
0.0000000001
 43
0.0000000001
 40
0.0
 40
0.0
 40
0.0
 40
0.0
 40
0.037037037037037
 40
0.037037037037037
 40
0.037037037037037
 40
0.037037037037037
 40
0.0740740740740741
 40
0.0740740740740741
 40
0.0740740740740741
 40
0.0740740740740741
 40
0.1111111111111111
 40
0.1111111111111111
 40
0.1111111111111111
 40
0.1111111111111111
 40
0.1481481481481481
 40
0.1481481481481481
 40
0.1481481481481481
 40
0.1481481481481481
 40
0.1851851851851852
 40
0.1851851851851852
 40
0.1851851851851852
 40
0.1851851851851852
 40
0.2222222222222222
 40
0.2222222222222222
 40
0.2222222222222222
 40
0.2222222222222222
 40
0.2592592592592592
 40
0.2592592592592592
 40
0.2592592592592592
 40
0.2592592592592592
 40
0.2962962962962963
 40
0.2962962962962963
 40
0.2962962962962963
 40
0.2962962962962963
 40
0.3333333333333333
 40
0.3333333333333333
 40
0.3333333333333333
 40
0.3333333333333333
 40
0.3703703703703704
 40
0.3703703703703704
 40
0.3703703703703704
 40
0.3703703703703704
 40
0.4074074074074074
 40
0.4074074074074074
 40
0.4074074074074074
 40
0.4074074074074074
 40
0.4444444444444444
 40
0.4444444444444444
 40
0.4444444444444444
 40
0.4444444444444444
 40
0.4814814814814815
 40
0.4814814814814815
 40
0.4814814814814815
 40
0.4814814814814815
 40
0.5185185185185185
 40
0.5185185185185185
 40
0.5185185185185185
 40
0.5185185185185185
 40
0.5555555555555556
 40
0.5555555555555556
 40
0.5555555555555556
 40
0.5555555555555556
 40
0.5925925925925926
 40
0.5925925925925926
 40
0.5925925925925926
 40
0.5925925925925926
 40
0.6296296296296295
 40
0.6296296296296295
 40
0.6296296296296295
 40
0.6296296296296295
 40
0.6666666666666665
 40
0.6666666666666665
 40
0.6666666666666665
 40
0.6666666666666665
 40
0.7037037037037035
 40
0.7037037037037035
 40
0.7037037037037035
 40
0.7037037037037035
 40
0.7407407407407405
 40
0.7407407407407405
 40
0.7407407407407405
 40
0.7407407407407405
 40
0.7777777777777775
 40
0.7777777777777775
 40
0.7777777777777775
 40
0.7777777777777775
 40
0.8148148148148144
 40
0.8148148148148144
 40
0.8148148148148144
 40
0.8148148148148144
 40
0.8518518518518514
 40
0.8518518518518514
 40
0.8518518518518514
 40
0.8518518518518514
 40
0.8888888888888884
 40
0.8888888888888884
 40
0.8888888888888884
 40
0.8888888888888884
 40
0.9259259259259254
 40
0.9259259259259254
 40
0.9259259259259254
 40
0.9259259259259254
 40
0.9629629629629624
 40
0.9629629629629624
 40
0.9629629629629624
 40
0.9629629629629624
 40
1.0
 40
1.0
 40
1.0
 40
1.0
 10
-0.1575433070866142
 20
2.47155905511811
 30
0.0
 10
-0.1575433070866142
 20
2.47155905511811
 30
0.0
 10
-0.1441259842519685
 20
2.47155905511811
 30
0.0
 10
-0.1441259842519685
 20
2.47155905511811
 30
0.0
 10
-0.1441259842519685
 20
2.47155905511811
 30
0.0
 10
-0.1441259842519685
 20
2.47155905511811
 30
0.0
 10
-0.1088779527559055
 20
2.376669291338583
 30
0.0
 10
-0.1088779527559055
 20
2.376669291338583
 30
0.0
 10
-0.1088779527559055
 20
2.376669291338583
 30
0.0
 10
-0.1071535433070866
 20
2.371893700787402
 30
0.0
 10
-0.1054055118110236
 20
2.368724409448819
 30
0.0
 10
-0.1036259842519685
 20
2.367196850393701
 30
0.0
 10
-0.1036259842519685
 20
2.367196850393701
 30
0.0
 10
-0.1018779527559055
 20
2.365641732283465
 30
0.0
 10
-0.099488188976378
 20
2.364866141732283
 30
0.0
 10
-0.0965157480314961
 20
2.364866141732283
 30
0.0
 10
-0.0965157480314961
 20
2.364866141732283
 30
0.0
 10
-0.0965157480314961
 20
2.364866141732283
 30
0.0
 10
-0.0947362204724409
 20
2.364866141732283
 30
0.0
 10
-0.0947362204724409
 20
2.364866141732283
 30
0.0
 10
-0.0947362204724409
 20
2.364866141732283
 30
0.0
 10
-0.0947362204724409
 20
2.364866141732283
 30
0.0
 10
-0.0947362204724409
 20
2.358031496062992
 30
0.0
 10
-0.0947362204724409
 20
2.358031496062992
 30
0.0
 10
-0.0947362204724409
 20
2.358031496062992
 30
0.0
 10
-0.0947362204724409
 20
2.358031496062992
 30
0.0
 10
-0.1351811023622047
 20
2.358031496062992
 30
0.0
 10
-0.1351811023622047
 20
2.358031496062992
 30
0.0
 10
-0.1351811023622047
 20
2.358031496062992
 30
0.0
 10
-0.1351811023622047
 20
2.358031496062992
 30
0.0
 10
-0.1351811023622047
 20
2.364866141732283
 30
0.0
 10
-0.1351811023622047
 20
2.364866141732283
 30
0.0
 10
-0.1351811023622047
 20
2.364866141732283
 30
0.0
 10
-0.1338779527559055
 20
2.364976377952756
 30
0.0
 10
-0.1325984251968504
 20
2.365031496062992
 30
0.0
 10
-0.1313464566929134
 20
2.365031496062992
 30
0.0
 10
-0.1313464566929134
 20
2.365031496062992
 30
0.0
 10
-0.128736220472441
 20
2.365031496062992
 30
0.0
 10
-0.1270433070866142
 20
2.365311023622047
 30
0.0
 10
-0.1262086614173228
 20
2.365838582677165
 30
0.0
 10
-0.1262086614173228
 20
2.365838582677165
 30
0.0
 10
-0.1246535433070866
 20
2.366866141732284
 30
0.0
 10
-0.1238503937007874
 20
2.368169291338583
 30
0.0
 10
-0.1238503937007874
 20
2.369751968503937
 30
0.0
 10
-0.1238503937007874
 20
2.369751968503937
 30
0.0
 10
-0.1238503937007874
 20
2.370893700787402
 30
0.0
 10
-0.1246259842519685
 20
2.373669291338583
 30
0.0
 10
-0.1261259842519685
 20
2.378141732283465
 30
0.0
 10
-0.1261259842519685
 20
2.378141732283465
 30
0.0
 10
-0.1261259842519685
 20
2.378141732283465
 30
0.0
 10
-0.1336259842519685
 20
2.400114173228347
 30
0.0
 10
-0.1336259842519685
 20
2.400114173228347
 30
0.0
 10
-0.1336259842519685
 20
2.400114173228347
 30
0.0
 10
-0.1336259842519685
 20
2.400114173228347
 30
0.0
 10
-0.1747913385826772
 20
2.400114173228347
 30
0.0
 10
-0.1747913385826772
 20
2.400114173228347
 30
0.0
 10
-0.1747913385826772
 20
2.400114173228347
 30
0.0
 10
-0.1747913385826772
 20
2.400114173228347
 30
0.0
 10
-0.1835984251968504
 20
2.375531496062992
 30
0.0
 10
-0.1835984251968504
 20
2.375531496062992
 30
0.0
 10
-0.1835984251968504
 20
2.375531496062992
 30
0.0
 10
-0.1845157480314961
 20
2.372976377952756
 30
0.0
 10
-0.184988188976378
 20
2.371224409448819
 30
0.0
 10
-0.184988188976378
 20
2.370224409448819
 30
0.0
 10
-0.184988188976378
 20
2.370224409448819
 30
0.0
 10
-0.184988188976378
 20
2.369141732283465
 30
0.0
 10
-0.1846811023622047
 20
2.368196850393701
 30
0.0
 10
-0.1841259842519685
 20
2.367393700787402
 30
0.0
 10
-0.1841259842519685
 20
2.367393700787402
 30
0.0
 10
-0.1835433070866142
 20
2.366586614173229
 30
0.0
 10
-0.1827913385826772
 20
2.365976377952756
 30
0.0
 10
-0.1817913385826772
 20
2.36555905511811
 30
0.0
 10
-0.1817913385826772
 20
2.36555905511811
 30
0.0
 10
-0.1808188976377953
 20
2.365141732283465
 30
0.0
 10
-0.1792637795275591
 20
2.364948818897638
 30
0.0
 10
-0.1770708661417323
 20
2.364948818897638
 30
0.0
 10
-0.1770708661417323
 20
2.364948818897638
 30
0.0
 10
-0.1756259842519685
 20
2.364948818897638
 30
0.0
 10
-0.1744330708661417
 20
2.36492125984252
 30
0.0
 10
-0.1735157480314961
 20
2.364866141732283
 30
0.0
 10
-0.1735157480314961
 20
2.364866141732283
 30
0.0
 10
-0.1735157480314961
 20
2.364866141732283
 30
0.0
 10
-0.1735157480314961
 20
2.358031496062992
 30
0.0
 10
-0.1735157480314961
 20
2.358031496062992
 30
0.0
 10
-0.1735157480314961
 20
2.358031496062992
 30
0.0
 10
-0.1735157480314961
 20
2.358031496062992
 30
0.0
 10
-0.2074330708661417
 20
2.358031496062992
 30
0.0
 10
-0.2074330708661417
 20
2.358031496062992
 30
0.0
 10
-0.2074330708661417
 20
2.358031496062992
 30
0.0
 10
-0.2074330708661417
 20
2.358031496062992
 30
0.0
 10
-0.2074330708661417
 20
2.364866141732283
 30
0.0
 10
-0.2074330708661417
 20
2.364866141732283
 30
0.0
 10
-0.2074330708661417
 20
2.364866141732283
 30
0.0
 10
-0.2042913385826772
 20
2.364866141732283
 30
0.0
 10
-0.2020157480314961
 20
2.365169291338583
 30
0.0
 10
-0.2006535433070866
 20
2.365811023622047
 30
0.0
 10
-0.2006535433070866
 20
2.365811023622047
 30
0.0
 10
-0.1992637795275591
 20
2.36642125984252
 30
0.0
 10
-0.1980433070866142
 20
2.36742125984252
 30
0.0
 10
-0.1970157480314961
 20
2.368811023622047
 30
0.0
 10
-0.1970157480314961
 20
2.368811023622047
 30
0.0
 10
-0.195988188976378
 20
2.370196850393701
 30
0.0
 10
-0.1946259842519685
 20
2.373114173228347
 30
0.0
 10
-0.1929606299212598
 20
2.37755905511811
 30
0.0
 10
-0.1929606299212598
 20
2.37755905511811
 30
0.0
 10
-0.1929606299212598
 20
2.37755905511811
 30
0.0
 10
-0.1575433070866142
 20
2.47155905511811
 30
0.0
 10
-0.1575433070866142
 20
2.47155905511811
 30
0.0
  0
SPLINE
  5
9E
330
1F
100
AcDbEntity
  8
LAYER_1
 62
   250
100
AcDbSpline
210
0.0
220
0.0
230
1.0
 70
    11
 71
     3
 72
    16
 73
    12
 74
     0
 42
0.0000000001
 43
0.0000000001
 40
0.0
 40
0.0
 40
0.0
 40
0.0
 40
0.3333333333333333
 40
0.3333333333333333
 40
0.3333333333333333
 40
0.3333333333333333
 40
0.6666666666666666
 40
0.6666666666666666
 40
0.6666666666666666
 40
0.6666666666666666
 40
1.0
 40
1.0
 40
1.0
 40
1.0
 10
-0.1717913385826772
 20
2.408086614173228
 30
0.0
 10
-0.1717913385826772
 20
2.408086614173228
 30
0.0
 10
-0.1367086614173229
 20
2.408086614173228
 30
0.0
 10
-0.1367086614173229
 20
2.408086614173228
 30
0.0
 10
-0.1367086614173229
 20
2.408086614173228
 30
0.0
 10
-0.1367086614173229
 20
2.408086614173228
 30
0.0
 10
-0.1542913385826772
 20
2.45692125984252
 30
0.0
 10
-0.1542913385826772
 20
2.45692125984252
 30
0.0
 10
-0.1542913385826772
 20
2.45692125984252
 30
0.0
 10
-0.1542913385826772
 20
2.45692125984252
 30
0.0
 10
-0.1717913385826772
 20
2.408086614173228
 30
0.0
 10
-0.1717913385826772
 20
2.408086614173228
 30
0.0
  0
SPLINE
  5
9F
330
1F
100
AcDbEntity
  8
LAYER_1
 62
   250
100
AcDbSpline
210
0.0
220
0.0
230
1.0
 70
    11
 71
     3
 72
    72
 73
    68
 74
     0
 42
0.0000000001
 43
0.0000000001
 40
0.0
 40
0.0
 40
0.0
 40
0.0
 40
0.0588235294117647
 40
0.0588235294117647
 40
0.0588235294117647
 40
0.0588235294117647
 40
0.1176470588235294
 40
0.1176470588235294
 40
0.1176470588235294
 40
0.1176470588235294
 40
0.1764705882352941
 40
0.1764705882352941
 40
0.1764705882352941
 40
0.1764705882352941
 40
0.2352941176470588
 40
0.2352941176470588
 40
0.2352941176470588
 40
0.2352941176470588
 40
0.2941176470588235
 40
0.2941176470588235
 40
0.2941176470588235
 40
0.2941176470588235
 40
0.3529411764705883
 40
0.3529411764705883
 40
0.3529411764705883
 40
0.3529411764705883
 40
0.411764705882353
 40
0.411764705882353
 40
0.411764705882353
 40
0.411764705882353
 40
0.4705882352941177
 40
0.4705882352941177
 40
0.4705882352941177
 40
0.4705882352941177
 40
0.5294117647058824
 40
0.5294117647058824
 40
0.5294117647058824
 40
0.5294117647058824
 40
0.5882352941176471
 40
0.5882352941176471
 40
0.5882352941176471
 40
0.5882352941176471
 40
0.6470588235294118
 40
0.6470588235294118
 40
0.6470588235294118
 40
0.6470588235294118
 40
0.7058823529411765
 40
0.7058823529411765
 40
0.7058823529411765
 40
0.7058823529411765
 40
0.7647058823529412
 40
0.7647058823529412
 40
0.7647058823529412
 40
0.7647058823529412
 40
0.823529411764706
 40
0.823529411764706
 40
0.823529411764706
 40
0.823529411764706
 40
0.8823529411764707
 40
0.8823529411764707
 40
0.8823529411764707
 40
0.8823529411764707
 40
0.9411764705882354
 40
0.9411764705882354
 40
0.9411764705882354
 40
0.9411764705882354
 40
1.0
 40
1.0
 40
1.0
 40
1.0
 10
0.0682913385826772
 20
2.47155905511811
 30
0.0
 10
0.0682913385826772
 20
2.47155905511811
 30
0.0
 10
0.0743740157480315
 20
2.47155905511811
 30
0.0
 10
0.0743740157480315
 20
2.47155905511811
 30
0.0
 10
0.0743740157480315
 20
2.47155905511811
 30
0.0
 10
0.0743740157480315
 20
2.47155905511811
 30
0.0
 10
0.0743740157480315
 20
2.377311023622047
 30
0.0
 10
0.0743740157480315
 20
2.377311023622047
 30
0.0
 10
0.0743740157480315
 20
2.377311023622047
 30
0.0
 10
0.0743740157480315
 20
2.372866141732283
 30
0.0
 10
0.0746811023622047
 20
2.370003937007874
 30
0.0
 10
0.075236220472441
 20
2.368724409448819
 30
0.0
 10
0.075236220472441
 20
2.368724409448819
 30
0.0
 10
0.0758188976377953
 20
2.367448818897638
 30
0.0
 10
0.0767362204724409
 20
2.366503937007874
 30
0.0
 10
0.0780393700787402
 20
2.365838582677165
 30
0.0
 10
0.0780393700787402
 20
2.365838582677165
 30
0.0
 10
0.0793464566929134
 20
2.365196850393701
 30
0.0
 10
0.0819291338582677
 20
2.364866141732283
 30
0.0
 10
0.0857913385826772
 20
2.364866141732283
 30
0.0
 10
0.0857913385826772
 20
2.364866141732283
 30
0.0
 10
0.0857913385826772
 20
2.364866141732283
 30
0.0
 10
0.0937637795275591
 20
2.364866141732283
 30
0.0
 10
0.0937637795275591
 20
2.364866141732283
 30
0.0
 10
0.0937637795275591
 20
2.364866141732283
 30
0.0
 10
0.0937637795275591
 20
2.364866141732283
 30
0.0
 10
0.0937637795275591
 20
2.358031496062992
 30
0.0
 10
0.0937637795275591
 20
2.358031496062992
 30
0.0
 10
0.0937637795275591
 20
2.358031496062992
 30
0.0
 10
0.0937637795275591
 20
2.358031496062992
 30
0.0
 10
0.0401259842519685
 20
2.358031496062992
 30
0.0
 10
0.0401259842519685
 20
2.358031496062992
 30
0.0
 10
0.0401259842519685
 20
2.358031496062992
 30
0.0
 10
0.0401259842519685
 20
2.358031496062992
 30
0.0
 10
0.0401259842519685
 20
2.364866141732283
 30
0.0
 10
0.0401259842519685
 20
2.364866141732283
 30
0.0
 10
0.0401259842519685
 20
2.364866141732283
 30
0.0
 10
0.0401259842519685
 20
2.364866141732283
 30
0.0
 10
0.0489842519685039
 20
2.364866141732283
 30
0.0
 10
0.0489842519685039
 20
2.364866141732283
 30
0.0
 10
0.0489842519685039
 20
2.364866141732283
 30
0.0
 10
0.0528464566929134
 20
2.364866141732283
 30
0.0
 10
0.0554015748031496
 20
2.365196850393701
 30
0.0
 10
0.0566811023622047
 20
2.365893700787402
 30
0.0
 10
0.0566811023622047
 20
2.365893700787402
 30
0.0
 10
0.0579566929133858
 20
2.36655905511811
 30
0.0
 10
0.0589566929133858
 20
2.367641732283465
 30
0.0
 10
0.0596535433070866
 20
2.369141732283465
 30
0.0
 10
0.0596535433070866
 20
2.369141732283465
 30
0.0
 10
0.0603464566929134
 20
2.370641732283465
 30
0.0
 10
0.0607086614173228
 20
2.373366141732284
 30
0.0
 10
0.0607086614173228
 20
2.377311023622047
 30
0.0
 10
0.0607086614173228
 20
2.377311023622047
 30
0.0
 10
0.0607086614173228
 20
2.377311023622047
 30
0.0
 10
0.0607086614173228
 20
2.454779527559055
 30
0.0
 10
0.0607086614173228
 20
2.454779527559055
 30
0.0
 10
0.0607086614173228
 20
2.454779527559055
 30
0.0
 10
0.0607086614173228
 20
2.454779527559055
 30
0.0
 10
0.0401259842519685
 20
2.454779527559055
 30
0.0
 10
0.0401259842519685
 20
2.454779527559055
 30
0.0
 10
0.0401259842519685
 20
2.454779527559055
 30
0.0
 10
0.0401259842519685
 20
2.454779527559055
 30
0.0
 10
0.0401259842519685
 20
2.461779527559055
 30
0.0
 10
0.0401259842519685
 20
2.461779527559055
 30
0.0
 10
0.0401259842519685
 20
2.461779527559055
 30
0.0
 10
0.0513464566929134
 20
2.46336220472441
 30
0.0
 10
0.0607362204724409
 20
2.466614173228347
 30
0.0
 10
0.0682913385826772
 20
2.47155905511811
 30
0.0
  0
SPLINE
  5
A0
330
1F
100
AcDbEntity
  8
LAYER_1
 62
   250
100
AcDbSpline
210
0.0
220
0.0
230
1.0
 70
    11
 71
     3
 72
    76
 73
    72
 74
     0
 42
0.0000000001
 43
0.0000000001
 40
0.0
 40
0.0
 40
0.0
 40
0.0
 40
0.0555555555555556
 40
0.0555555555555556
 40
0.0555555555555556
 40
0.0555555555555556
 40
0.1111111111111111
 40
0.1111111111111111
 40
0.1111111111111111
 40
0.1111111111111111
 40
0.1666666666666667
 40
0.1666666666666667
 40
0.1666666666666667
 40
0.1666666666666667
 40
0.2222222222222222
 40
0.2222222222222222
 40
0.2222222222222222
 40
0.2222222222222222
 40
0.2777777777777778
 40
0.2777777777777778
 40
0.2777777777777778
 40
0.2777777777777778
 40
0.3333333333333334
 40
0.3333333333333334
 40
0.3333333333333334
 40
0.3333333333333334
 40
0.388888888888889
 40
0.388888888888889
 40
0.388888888888889
 40
0.388888888888889
 40
0.4444444444444445
 40
0.4444444444444445
 40
0.4444444444444445
 40
0.4444444444444445
 40
0.5000000000000001
 40
0.5000000000000001
 40
0.5000000000000001
 40
0.5000000000000001
 40
0.5555555555555557
 40
0.5555555555555557
 40
0.5555555555555557
 40
0.5555555555555557
 40
0.6111111111111113
 40
0.6111111111111113
 40
0.6111111111111113
 40
0.6111111111111113
 40
0.6666666666666669
 40
0.6666666666666669
 40
0.6666666666666669
 40
0.6666666666666669
 40
0.7222222222222224
 40
0.7222222222222224
 40
0.7222222222222224
 40
0.7222222222222224
 40
0.777777777777778
 40
0.777777777777778
 40
0.777777777777778
 40
0.777777777777778
 40
0.8333333333333336
 40
0.8333333333333336
 40
0.8333333333333336
 40
0.8333333333333336
 40
0.8888888888888892
 40
0.8888888888888892
 40
0.8888888888888892
 40
0.8888888888888892
 40
0.9444444444444448
 40
0.9444444444444448
 40
0.9444444444444448
 40
0.9444444444444448
 40
1.0
 40
1.0
 40
1.0
 40
1.0
 10
0.1800984251968504
 20
2.421031496062992
 30
0.0
 10
0.1865157480314961
 20
2.418586614173229
 30
0.0
 10
0.1914015748031496
 20
2.416279527559055
 30
0.0
 10
0.1947637795275591
 20
2.414114173228346
 30
0.0
 10
0.1947637795275591
 20
2.414114173228346
 30
0.0
 10
0.1996811023622047
 20
2.410948818897638
 30
0.0
 10
0.2034015748031496
 20
2.407251968503937
 30
0.0
 10
0.2059015748031496
 20
2.403003937007874
 30
0.0
 10
0.2059015748031496
 20
2.403003937007874
 30
0.0
 10
0.2084015748031496
 20
2.398724409448819
 30
0.0
 10
0.2096535433070866
 20
2.394114173228346
 30
0.0
 10
0.2096535433070866
 20
2.389114173228347
 30
0.0
 10
0.2096535433070866
 20
2.389114173228347
 30
0.0
 10
0.2096535433070866
 20
2.380169291338583
 30
0.0
 10
0.2057913385826772
 20
2.37242125984252
 30
0.0
 10
0.1980984251968504
 20
2.365893700787402
 30
0.0
 10
0.1980984251968504
 20
2.365893700787402
 30
0.0
 10
0.1903740157480315
 20
2.359338582677165
 30
0.0
 10
0.179988188976378
 20
2.356086614173229
 30
0.0
 10
0.1669291338582677
 20
2.356086614173229
 30
0.0
 10
0.1669291338582677
 20
2.356086614173229
 30
0.0
 10
0.1530984251968504
 20
2.356086614173229
 30
0.0
 10
0.1422362204724409
 20
2.359779527559055
 30
0.0
 10
0.1343740157480315
 20
2.367141732283465
 30
0.0
 10
0.1343740157480315
 20
2.367141732283465
 30
0.0
 10
0.1281259842519685
 20
2.37305905511811
 30
0.0
 10
0.1250157480314961
 20
2.379751968503937
 30
0.0
 10
0.1250157480314961
 20
2.387251968503937
 30
0.0
 10
0.1250157480314961
 20
2.387251968503937
 30
0.0
 10
0.1250157480314961
 20
2.393279527559055
 30
0.0
 10
0.1271259842519685
 20
2.398669291338583
 30
0.0
 10
0.1313464566929134
 20
2.403448818897638
 30
0.0
 10
0.1313464566929134
 20
2.403448818897638
 30
0.0
 10
0.1364606299212599
 20
2.409141732283465
 30
0.0
 10
0.143736220472441
 20
2.413586614173228
 30
0.0
 10
0.1531811023622047
 20
2.416779527559055
 30
0.0
 10
0.1531811023622047
 20
2.416779527559055
 30
0.0
 10
0.1457913385826772
 20
2.420251968503937
 30
0.0
 10
0.140488188976378
 20
2.423779527559055
 30
0.0
 10
0.1372086614173229
 20
2.427366141732283
 30
0.0
 10
0.1372086614173229
 20
2.427366141732283
 30
0.0
 10
0.1330433070866142
 20
2.432086614173228
 30
0.0
 10
0.1309606299212598
 20
2.437751968503937
 30
0.0
 10
0.1309606299212598
 20
2.444362204724409
 30
0.0
 10
0.1309606299212598
 20
2.444362204724409
 30
0.0
 10
0.1309606299212598
 20
2.452559055118111
 30
0.0
 10
0.1340433070866142
 20
2.459196850393701
 30
0.0
 10
0.1402362204724409
 20
2.464224409448819
 30
0.0
 10
0.1402362204724409
 20
2.464224409448819
 30
0.0
 10
0.1478188976377953
 20
2.47042125984252
 30
0.0
 10
0.1573188976377953
 20
2.473503937007874
 30
0.0
 10
0.1687086614173229
 20
2.473503937007874
 30
0.0
 10
0.1687086614173229
 20
2.473503937007874
 30
0.0
 10
0.1791259842519685
 20
2.473503937007874
 30
0.0
 10
0.1875433070866142
 20
2.470834645669291
 30
0.0
 10
0.193988188976378
 20
2.465503937007874
 30
0.0
 10
0.193988188976378
 20
2.465503937007874
 30
0.0
 10
0.2004015748031496
 20
2.460141732283465
 30
0.0
 10
0.2036259842519685
 20
2.454031496062992
 30
0.0
 10
0.2036259842519685
 20
2.447141732283465
 30
0.0
 10
0.2036259842519685
 20
2.447141732283465
 30
0.0
 10
0.2036259842519685
 20
2.443724409448819
 30
0.0
 10
0.2028188976377953
 20
2.440448818897638
 30
0.0
 10
0.2012362204724409
 20
2.437334645669291
 30
0.0
 10
0.2012362204724409
 20
2.437334645669291
 30
0.0
 10
0.1996259842519685
 20
2.434224409448819
 30
0.0
 10
0.1971811023622047
 20
2.431307086614174
 30
0.0
 10
0.1938464566929134
 20
2.428641732283465
 30
0.0
 10
0.1938464566929134
 20
2.428641732283465
 30
0.0
 10
0.1905433070866142
 20
2.425948818897638
 30
0.0
 10
0.1859566929133859
 20
2.42342125984252
 30
0.0
 10
0.1800984251968504
 20
2.421031496062992
 30
0.0
  0
SPLINE
  5
A1
330
1F
100
AcDbEntity
  8
LAYER_1
 62
   250
100
AcDbSpline
210
0.0
220
0.0
230
1.0
 70
    11
 71
     3
 72
    48
 73
    44
 74
     0
 42
0.0000000001
 43
0.0000000001
 40
0.0
 40
0.0
 40
0.0
 40
0.0
 40
0.0909090909090909
 40
0.0909090909090909
 40
0.0909090909090909
 40
0.0909090909090909
 40
0.1818181818181818
 40
0.1818181818181818
 40
0.1818181818181818
 40
0.1818181818181818
 40
0.2727272727272727
 40
0.2727272727272727
 40
0.2727272727272727
 40
0.2727272727272727
 40
0.3636363636363637
 40
0.3636363636363637
 40
0.3636363636363637
 40
0.3636363636363637
 40
0.4545454545454546
 40
0.4545454545454546
 40
0.4545454545454546
 40
0.4545454545454546
 40
0.5454545454545455
 40
0.5454545454545455
 40
0.5454545454545455
 40
0.5454545454545455
 40
0.6363636363636365
 40
0.6363636363636365
 40
0.6363636363636365
 40
0.6363636363636365
 40
0.7272727272727274
 40
0.7272727272727274
 40
0.7272727272727274
 40
0.7272727272727274
 40
0.8181818181818183
 40
0.8181818181818183
 40
0.8181818181818183
 40
0.8181818181818183
 40
0.9090909090909093
 40
0.9090909090909093
 40
0.9090909090909093
 40
0.9090909090909093
 40
1.0
 40
1.0
 40
1.0
 40
1.0
 10
0.1727086614173228
 20
2.424031496062992
 30
0.0
 10
0.1788740157480315
 20
2.428696850393701
 30
0.0
 10
0.1829015748031496
 20
2.431948818897638
 30
0.0
 10
0.184736220472441
 20
2.433807086614173
 30
0.0
 10
0.184736220472441
 20
2.433807086614173
 30
0.0
 10
0.1865984251968504
 20
2.435641732283465
 30
0.0
 10
0.1880157480314961
 20
2.437751968503937
 30
0.0
 10
0.1890157480314961
 20
2.440114173228347
 30
0.0
 10
0.1890157480314961
 20
2.440114173228347
 30
0.0
 10
0.1900157480314961
 20
2.442476377952756
 30
0.0
 10
0.1905157480314961
 20
2.444751968503937
 30
0.0
 10
0.1905157480314961
 20
2.446976377952756
 30
0.0
 10
0.1905157480314961
 20
2.446976377952756
 30
0.0
 10
0.1905157480314961
 20
2.450169291338583
 30
0.0
 10
0.1895708661417323
 20
2.453224409448819
 30
0.0
 10
0.1876811023622047
 20
2.456141732283465
 30
0.0
 10
0.1876811023622047
 20
2.456141732283465
 30
0.0
 10
0.1857637795275591
 20
2.459031496062992
 30
0.0
 10
0.182988188976378
 20
2.461393700787402
 30
0.0
 10
0.1793188976377953
 20
2.463169291338583
 30
0.0
 10
0.1793188976377953
 20
2.463169291338583
 30
0.0
 10
0.1756811023622047
 20
2.464976377952756
 30
0.0
 10
0.1715708661417323
 20
2.465862204724409
 30
0.0
 10
0.1670157480314961
 20
2.465862204724409
 30
0.0
 10
0.1670157480314961
 20
2.465862204724409
 30
0.0
 10
0.1602637795275591
 20
2.465862204724409
 30
0.0
 10
0.1546811023622047
 20
2.464003937007874
 30
0.0
 10
0.150236220472441
 20
2.460279527559055
 30
0.0
 10
0.150236220472441
 20
2.460279527559055
 30
0.0
 10
0.1457913385826772
 20
2.456559055118111
 30
0.0
 10
0.1435708661417323
 20
2.452279527559055
 30
0.0
 10
0.1435708661417323
 20
2.447393700787402
 30
0.0
 10
0.1435708661417323
 20
2.447393700787402
 30
0.0
 10
0.1435708661417323
 20
2.443476377952756
 30
0.0
 10
0.1449606299212599
 20
2.439976377952756
 30
0.0
 10
0.1477086614173228
 20
2.436893700787402
 30
0.0
 10
0.1477086614173228
 20
2.436893700787402
 30
0.0
 10
0.150488188976378
 20
2.433807086614173
 30
0.0
 10
0.1556259842519685
 20
2.430751968503937
 30
0.0
 10
0.1631811023622047
 20
2.427779527559055
 30
0.0
 10
0.1631811023622047
 20
2.427779527559055
 30
0.0
 10
0.1631811023622047
 20
2.427779527559055
 30
0.0
 10
0.1727086614173228
 20
2.424031496062992
 30
0.0
 10
0.1727086614173228
 20
2.424031496062992
 30
0.0
  0
SPLINE
  5
A2
330
1F
100
AcDbEntity
  8
LAYER_1
 62
   250
100
AcDbSpline
210
0.0
220
0.0
230
1.0
 70
    11
 71
     3
 72
    40
 73
    36
 74
     0
 42
0.0000000001
 43
0.0000000001
 40
0.0
 40
0.0
 40
0.0
 40
0.0
 40
0.1111111111111111
 40
0.1111111111111111
 40
0.1111111111111111
 40
0.1111111111111111
 40
0.2222222222222222
 40
0.2222222222222222
 40
0.2222222222222222
 40
0.2222222222222222
 40
0.3333333333333333
 40
0.3333333333333333
 40
0.3333333333333333
 40
0.3333333333333333
 40
0.4444444444444444
 40
0.4444444444444444
 40
0.4444444444444444
 40
0.4444444444444444
 40
0.5555555555555556
 40
0.5555555555555556
 40
0.5555555555555556
 40
0.5555555555555556
 40
0.6666666666666667
 40
0.6666666666666667
 40
0.6666666666666667
 40
0.6666666666666667
 40
0.7777777777777779
 40
0.7777777777777779
 40
0.7777777777777779
 40
0.7777777777777779
 40
0.8888888888888891
 40
0.8888888888888891
 40
0.8888888888888891
 40
0.8888888888888891
 40
1.0
 40
1.0
 40
1.0
 40
1.0
 10
0.161236220472441
 20
2.413614173228347
 30
0.0
 10
0.1535708661417323
 20
2.410251968503937
 30
0.0
 10
0.1475157480314961
 20
2.405893700787402
 30
0.0
 10
0.1430708661417323
 20
2.400503937007874
 30
0.0
 10
0.1430708661417323
 20
2.400503937007874
 30
0.0
 10
0.1395984251968504
 20
2.396279527559055
 30
0.0
 10
0.1378740157480315
 20
2.391893700787402
 30
0.0
 10
0.1378740157480315
 20
2.387338582677165
 30
0.0
 10
0.1378740157480315
 20
2.387338582677165
 30
0.0
 10
0.1378740157480315
 20
2.381141732283465
 30
0.0
 10
0.1405984251968504
 20
2.375641732283465
 30
0.0
 10
0.1460984251968504
 20
2.370838582677166
 30
0.0
 10
0.1460984251968504
 20
2.370838582677166
 30
0.0
 10
0.1515708661417323
 20
2.36605905511811
 30
0.0
 10
0.1586535433070866
 20
2.363641732283465
 30
0.0
 10
0.1673188976377953
 20
2.363641732283465
 30
0.0
 10
0.1673188976377953
 20
2.363641732283465
 30
0.0
 10
0.1761811023622047
 20
2.363641732283465
 30
0.0
 10
0.1835433070866142
 20
2.366393700787402
 30
0.0
 10
0.1894566929133858
 20
2.371866141732284
 30
0.0
 10
0.1894566929133858
 20
2.371866141732284
 30
0.0
 10
0.1942913385826772
 20
2.376311023622047
 30
0.0
 10
0.1967086614173229
 20
2.381086614173229
 30
0.0
 10
0.1967086614173229
 20
2.386196850393701
 30
0.0
 10
0.1967086614173229
 20
2.386196850393701
 30
0.0
 10
0.1967086614173229
 20
2.390196850393701
 30
0.0
 10
0.1951259842519685
 20
2.394031496062992
 30
0.0
 10
0.1919566929133858
 20
2.397696850393701
 30
0.0
 10
0.1919566929133858
 20
2.397696850393701
 30
0.0
 10
0.1887637795275591
 20
2.401366141732284
 30
0.0
 10
0.1828740157480315
 20
2.40492125984252
 30
0.0
 10
0.1742362204724409
 20
2.408393700787402
 30
0.0
 10
0.1742362204724409
 20
2.408393700787402
 30
0.0
 10
0.1742362204724409
 20
2.408393700787402
 30
0.0
 10
0.161236220472441
 20
2.413614173228347
 30
0.0
 10
0.161236220472441
 20
2.413614173228347
 30
0.0
  0
SPLINE
  5
A3
330
1F
100
AcDbEntity
  8
LAYER_1
 62
   250
100
AcDbSpline
210
0.0
220
0.0
230
1.0
 70
    11
 71
     3
 72
   136
 73
   132
 74
     0
 42
0.0000000001
 43
0.0000000001
 40
0.0
 40
0.0
 40
0.0
 40
0.0
 40
0.0303030303030303
 40
0.0303030303030303
 40
0.0303030303030303
 40
0.0303030303030303
 40
0.0606060606060606
 40
0.0606060606060606
 40
0.0606060606060606
 40
0.0606060606060606
 40
0.0909090909090909
 40
0.0909090909090909
 40
0.0909090909090909
 40
0.0909090909090909
 40
0.1212121212121212
 40
0.1212121212121212
 40
0.1212121212121212
 40
0.1212121212121212
 40
0.1515151515151515
 40
0.1515151515151515
 40
0.1515151515151515
 40
0.1515151515151515
 40
0.1818181818181818
 40
0.1818181818181818
 40
0.1818181818181818
 40
0.1818181818181818
 40
0.2121212121212121
 40
0.2121212121212121
 40
0.2121212121212121
 40
0.2121212121212121
 40
0.2424242424242424
 40
0.2424242424242424
 40
0.2424242424242424
 40
0.2424242424242424
 40
0.2727272727272727
 40
0.2727272727272727
 40
0.2727272727272727
 40
0.2727272727272727
 40
0.303030303030303
 40
0.303030303030303
 40
0.303030303030303
 40
0.303030303030303
 40
0.3333333333333333
 40
0.3333333333333333
 40
0.3333333333333333
 40
0.3333333333333333
 40
0.3636363636363635
 40
0.3636363636363635
 40
0.3636363636363635
 40
0.3636363636363635
 40
0.3939393939393938
 40
0.3939393939393938
 40
0.3939393939393938
 40
0.3939393939393938
 40
0.4242424242424241
 40
0.4242424242424241
 40
0.4242424242424241
 40
0.4242424242424241
 40
0.4545454545454544
 40
0.4545454545454544
 40
0.4545454545454544
 40
0.4545454545454544
 40
0.4848484848484846
 40
0.4848484848484846
 40
0.4848484848484846
 40
0.4848484848484846
 40
0.5151515151515149
 40
0.5151515151515149
 40
0.5151515151515149
 40
0.5151515151515149
 40
0.5454545454545452
 40
0.5454545454545452
 40
0.5454545454545452
 40
0.5454545454545452
 40
0.5757575757575755
 40
0.5757575757575755
 40
0.5757575757575755
 40
0.5757575757575755
 40
0.6060606060606057
 40
0.6060606060606057
 40
0.6060606060606057
 40
0.6060606060606057
 40
0.636363636363636
 40
0.636363636363636
 40
0.636363636363636
 40
0.636363636363636
 40
0.6666666666666663
 40
0.6666666666666663
 40
0.6666666666666663
 40
0.6666666666666663
 40
0.6969696969696966
 40
0.6969696969696966
 40
0.6969696969696966
 40
0.6969696969696966
 40
0.7272727272727269
 40
0.7272727272727269
 40
0.7272727272727269
 40
0.7272727272727269
 40
0.7575757575757571
 40
0.7575757575757571
 40
0.7575757575757571
 40
0.7575757575757571
 40
0.7878787878787874
 40
0.7878787878787874
 40
0.7878787878787874
 40
0.7878787878787874
 40
0.8181818181818177
 40
0.8181818181818177
 40
0.8181818181818177
 40
0.8181818181818177
 40
0.848484848484848
 40
0.848484848484848
 40
0.848484848484848
 40
0.848484848484848
 40
0.8787878787878782
 40
0.8787878787878782
 40
0.8787878787878782
 40
0.8787878787878782
 40
0.9090909090909085
 40
0.9090909090909085
 40
0.9090909090909085
 40
0.9090909090909085
 40
0.9393939393939388
 40
0.9393939393939388
 40
0.9393939393939388
 40
0.9393939393939388
 40
0.9696969696969691
 40
0.9696969696969691
 40
0.9696969696969691
 40
0.9696969696969691
 40
1.0
 40
1.0
 40
1.0
 40
1.0
 10
0.2379055118110236
 20
2.428751968503937
 30
0.0
 10
0.2379055118110236
 20
2.428751968503937
 30
0.0
 10
0.2300157480314961
 20
2.427779527559055
 30
0.0
 10
0.2300157480314961
 20
2.427779527559055
 30
0.0
 10
0.2300157480314961
 20
2.427779527559055
 30
0.0
 10
0.2295708661417323
 20
2.431614173228347
 30
0.0
 10
0.2293503937007874
 20
2.434779527559055
 30
0.0
 10
0.2293503937007874
 20
2.437224409448819
 30
0.0
 10
0.2293503937007874
 20
2.437224409448819
 30
0.0
 10
0.2293503937007874
 20
2.443614173228347
 30
0.0
 10
0.2310984251968504
 20
2.449669291338583
 30
0.0
 10
0.2345708661417323
 20
2.45536220472441
 30
0.0
 10
0.2345708661417323
 20
2.45536220472441
 30
0.0
 10
0.2380433070866142
 20
2.46105905511811
 30
0.0
 10
0.2428779527559055
 20
2.465503937007874
 30
0.0
 10
0.2490984251968504
 20
2.468696850393701
 30
0.0
 10
0.2490984251968504
 20
2.468696850393701
 30
0.0
 10
0.2552913385826772
 20
2.47192125984252
 30
0.0
 10
0.2624330708661418
 20
2.473503937007874
 30
0.0
 10
0.2704606299212599
 20
2.473503937007874
 30
0.0
 10
0.2704606299212599
 20
2.473503937007874
 30
0.0
 10
0.2782086614173229
 20
2.473503937007874
 30
0.0
 10
0.2850157480314961
 20
2.472003937007874
 30
0.0
 10
0.2908779527559055
 20
2.469003937007874
 30
0.0
 10
0.2908779527559055
 20
2.469003937007874
 30
0.0
 10
0.296736220472441
 20
2.465976377952756
 30
0.0
 10
0.3012086614173228
 20
2.461862204724409
 30
0.0
 10
0.3043464566929134
 20
2.456614173228346
 30
0.0
 10
0.3043464566929134
 20
2.456614173228346
 30
0.0
 10
0.3074606299212598
 20
2.451393700787402
 30
0.0
 10
0.3090157480314961
 20
2.44542125984252
 30
0.0
 10
0.3090157480314961
 20
2.438669291338583
 30
0.0
 10
0.3090157480314961
 20
2.438669291338583
 30
0.0
 10
0.3090157480314961
 20
2.432976377952756
 30
0.0
 10
0.3080157480314961
 20
2.427696850393701
 30
0.0
 10
0.3059606299212598
 20
2.422866141732284
 30
0.0
 10
0.3059606299212598
 20
2.422866141732284
 30
0.0
 10
0.3039330708661417
 20
2.418003937007874
 30
0.0
 10
0.3006535433070866
 20
2.413086614173229
 30
0.0
 10
0.2961535433070867
 20
2.408169291338583
 30
0.0
 10
0.2961535433070867
 20
2.408169291338583
 30
0.0
 10
0.2927913385826772
 20
2.404476377952756
 30
0.0
 10
0.285988188976378
 20
2.398838582677166
 30
0.0
 10
0.275736220472441
 20
2.391224409448819
 30
0.0
 10
0.275736220472441
 20
2.391224409448819
 30
0.0
 10
0.2628228346456693
 20
2.381586614173228
 30
0.0
 10
0.2529330708661418
 20
2.374586614173229
 30
0.0
 10
0.2460433070866142
 20
2.370224409448819
 30
0.0
 10
0.2460433070866142
 20
2.370224409448819
 30
0.0
 10
0.2460433070866142
 20
2.370224409448819
 30
0.0
 10
0.2883503937007874
 20
2.370224409448819
 30
0.0
 10
0.2883503937007874
 20
2.370224409448819
 30
0.0
 10
0.2883503937007874
 20
2.370224409448819
 30
0.0
 10
0.2933503937007874
 20
2.370224409448819
 30
0.0
 10
0.2965984251968504
 20
2.370696850393701
 30
0.0
 10
0.2981259842519685
 20
2.371614173228346
 30
0.0
 10
0.2981259842519685
 20
2.371614173228346
 30
0.0
 10
0.300236220472441
 20
2.372811023622047
 30
0.0
 10
0.3016811023622047
 20
2.375586614173229
 30
0.0
 10
0.3024330708661417
 20
2.37992125984252
 30
0.0
 10
0.3024330708661417
 20
2.37992125984252
 30
0.0
 10
0.3024330708661417
 20
2.37992125984252
 30
0.0
 10
0.3031535433070866
 20
2.38455905511811
 30
0.0
 10
0.3031535433070866
 20
2.38455905511811
 30
0.0
 10
0.3031535433070866
 20
2.38455905511811
 30
0.0
 10
0.3031535433070866
 20
2.38455905511811
 30
0.0
 10
0.3100708661417323
 20
2.38455905511811
 30
0.0
 10
0.3100708661417323
 20
2.38455905511811
 30
0.0
 10
0.3100708661417323
 20
2.38455905511811
 30
0.0
 10
0.3100708661417323
 20
2.38455905511811
 30
0.0
 10
0.3045433070866142
 20
2.353976377952756
 30
0.0
 10
0.3045433070866142
 20
2.353976377952756
 30
0.0
 10
0.3045433070866142
 20
2.353976377952756
 30
0.0
 10
0.3045433070866142
 20
2.353976377952756
 30
0.0
 10
0.2993503937007874
 20
2.353976377952756
 30
0.0
 10
0.2993503937007874
 20
2.353976377952756
 30
0.0
 10
0.2993503937007874
 20
2.353976377952756
 30
0.0
 10
0.2993503937007874
 20
2.353976377952756
 30
0.0
 10
0.2984330708661417
 20
2.358031496062992
 30
0.0
 10
0.2984330708661417
 20
2.358031496062992
 30
0.0
 10
0.2984330708661417
 20
2.358031496062992
 30
0.0
 10
0.2984330708661417
 20
2.358031496062992
 30
0.0
 10
0.2273228346456693
 20
2.358031496062992
 30
0.0
 10
0.2273228346456693
 20
2.358031496062992
 30
0.0
 10
0.2273228346456693
 20
2.358031496062992
 30
0.0
 10
0.2273228346456693
 20
2.358031496062992
 30
0.0
 10
0.2273228346456693
 20
2.364866141732283
 30
0.0
 10
0.2273228346456693
 20
2.364866141732283
 30
0.0
 10
0.2273228346456693
 20
2.364866141732283
 30
0.0
 10
0.2273228346456693
 20
2.364866141732283
 30
0.0
 10
0.2403503937007874
 20
2.374724409448819
 30
0.0
 10
0.2403503937007874
 20
2.374724409448819
 30
0.0
 10
0.2403503937007874
 20
2.374724409448819
 30
0.0
 10
0.2502086614173228
 20
2.382031496062992
 30
0.0
 10
0.2574606299212598
 20
2.387641732283464
 30
0.0
 10
0.2620708661417323
 20
2.391559055118111
 30
0.0
 10
0.2620708661417323
 20
2.391559055118111
 30
0.0
 10
0.2707913385826772
 20
2.398948818897638
 30
0.0
 10
0.2773779527559055
 20
2.405251968503937
 30
0.0
 10
0.2817913385826772
 20
2.410476377952756
 30
0.0
 10
0.2817913385826772
 20
2.410476377952756
 30
0.0
 10
0.2862086614173228
 20
2.415724409448819
 30
0.0
 10
0.2892637795275591
 20
2.420448818897638
 30
0.0
 10
0.2909055118110236
 20
2.424641732283465
 30
0.0
 10
0.2909055118110236
 20
2.424641732283465
 30
0.0
 10
0.2925708661417323
 20
2.428834645669292
 30
0.0
 10
0.2934055118110236
 20
2.433251968503937
 30
0.0
 10
0.2934055118110236
 20
2.437866141732284
 30
0.0
 10
0.2934055118110236
 20
2.437866141732284
 30
0.0
 10
0.2934055118110236
 20
2.445503937007874
 30
0.0
 10
0.2909330708661417
 20
2.451779527559055
 30
0.0
 10
0.2860433070866142
 20
2.456669291338583
 30
0.0
 10
0.2860433070866142
 20
2.456669291338583
 30
0.0
 10
0.2811259842519685
 20
2.46155905511811
 30
0.0
 10
0.274736220472441
 20
2.463976377952756
 30
0.0
 10
0.2668779527559055
 20
2.463976377952756
 30
0.0
 10
0.2668779527559055
 20
2.463976377952756
 30
0.0
 10
0.2612362204724409
 20
2.463976377952756
 30
0.0
 10
0.2561811023622048
 20
2.462779527559055
 30
0.0
 10
0.2517637795275591
 20
2.460334645669291
 30
0.0
 10
0.2517637795275591
 20
2.460334645669291
 30
0.0
 10
0.2473503937007874
 20
2.457893700787402
 30
0.0
 10
0.2438779527559055
 20
2.454476377952756
 30
0.0
 10
0.2413228346456693
 20
2.450059055118111
 30
0.0
 10
0.2413228346456693
 20
2.450059055118111
 30
0.0
 10
0.2387637795275591
 20
2.445669291338583
 30
0.0
 10
0.237488188976378
 20
2.44092125984252
 30
0.0
 10
0.237488188976378
 20
2.435834645669292
 30
0.0
 10
0.237488188976378
 20
2.435834645669292
 30
0.0
 10
0.237488188976378
 20
2.43392125984252
 30
0.0
 10
0.2376259842519685
 20
2.431559055118111
 30
0.0
 10
0.2379055118110236
 20
2.428751968503937
 30
0.0
  0
SPLINE
  5
A4
330
1F
100
AcDbEntity
  8
LAYER_1
 62
   250
100
AcDbSpline
210
0.0
220
0.0
230
1.0
 70
    11
 71
     3
 72
    76
 73
    72
 74
     0
 42
0.0000000001
 43
0.0000000001
 40
0.0
 40
0.0
 40
0.0
 40
0.0
 40
0.0555555555555556
 40
0.0555555555555556
 40
0.0555555555555556
 40
0.0555555555555556
 40
0.1111111111111111
 40
0.1111111111111111
 40
0.1111111111111111
 40
0.1111111111111111
 40
0.1666666666666667
 40
0.1666666666666667
 40
0.1666666666666667
 40
0.1666666666666667
 40
0.2222222222222222
 40
0.2222222222222222
 40
0.2222222222222222
 40
0.2222222222222222
 40
0.2777777777777778
 40
0.2777777777777778
 40
0.2777777777777778
 40
0.2777777777777778
 40
0.3333333333333334
 40
0.3333333333333334
 40
0.3333333333333334
 40
0.3333333333333334
 40
0.388888888888889
 40
0.388888888888889
 40
0.388888888888889
 40
0.388888888888889
 40
0.4444444444444445
 40
0.4444444444444445
 40
0.4444444444444445
 40
0.4444444444444445
 40
0.5000000000000001
 40
0.5000000000000001
 40
0.5000000000000001
 40
0.5000000000000001
 40
0.5555555555555557
 40
0.5555555555555557
 40
0.5555555555555557
 40
0.5555555555555557
 40
0.6111111111111113
 40
0.6111111111111113
 40
0.6111111111111113
 40
0.6111111111111113
 40
0.6666666666666669
 40
0.6666666666666669
 40
0.6666666666666669
 40
0.6666666666666669
 40
0.7222222222222224
 40
0.7222222222222224
 40
0.7222222222222224
 40
0.7222222222222224
 40
0.777777777777778
 40
0.777777777777778
 40
0.777777777777778
 40
0.777777777777778
 40
0.8333333333333336
 40
0.8333333333333336
 40
0.8333333333333336
 40
0.8333333333333336
 40
0.8888888888888892
 40
0.8888888888888892
 40
0.8888888888888892
 40
0.8888888888888892
 40
0.9444444444444448
 40
0.9444444444444448
 40
0.9444444444444448
 40
0.9444444444444448
 40
1.0
 40
1.0
 40
1.0
 40
1.0
 10
0.3868228346456693
 20
2.421031496062992
 30
0.0
 10
0.393240157480315
 20
2.418586614173229
 30
0.0
 10
0.3981259842519686
 20
2.416279527559055
 30
0.0
 10
0.401488188976378
 20
2.414114173228346
 30
0.0
 10
0.401488188976378
 20
2.414114173228346
 30
0.0
 10
0.4064055118110236
 20
2.410948818897638
 30
0.0
 10
0.4101259842519685
 20
2.407251968503937
 30
0.0
 10
0.4126259842519685
 20
2.403003937007874
 30
0.0
 10
0.4126259842519685
 20
2.403003937007874
 30
0.0
 10
0.4151259842519685
 20
2.398724409448819
 30
0.0
 10
0.4163779527559055
 20
2.394114173228346
 30
0.0
 10
0.4163779527559055
 20
2.389114173228347
 30
0.0
 10
0.4163779527559055
 20
2.389114173228347
 30
0.0
 10
0.4163779527559055
 20
2.380169291338583
 30
0.0
 10
0.4125157480314961
 20
2.37242125984252
 30
0.0
 10
0.4048228346456693
 20
2.365893700787402
 30
0.0
 10
0.4048228346456693
 20
2.365893700787402
 30
0.0
 10
0.3970984251968504
 20
2.359338582677165
 30
0.0
 10
0.3867125984251968
 20
2.356086614173229
 30
0.0
 10
0.3736535433070866
 20
2.356086614173229
 30
0.0
 10
0.3736535433070866
 20
2.356086614173229
 30
0.0
 10
0.3598228346456693
 20
2.356086614173229
 30
0.0
 10
0.3489606299212599
 20
2.359779527559055
 30
0.0
 10
0.3410984251968504
 20
2.367141732283465
 30
0.0
 10
0.3410984251968504
 20
2.367141732283465
 30
0.0
 10
0.3348503937007874
 20
2.37305905511811
 30
0.0
 10
0.331740157480315
 20
2.379751968503937
 30
0.0
 10
0.331740157480315
 20
2.387251968503937
 30
0.0
 10
0.331740157480315
 20
2.387251968503937
 30
0.0
 10
0.331740157480315
 20
2.393279527559055
 30
0.0
 10
0.3338503937007874
 20
2.398669291338583
 30
0.0
 10
0.3380708661417323
 20
2.403448818897638
 30
0.0
 10
0.3380708661417323
 20
2.403448818897638
 30
0.0
 10
0.3431850393700788
 20
2.409141732283465
 30
0.0
 10
0.3504606299212599
 20
2.413586614173228
 30
0.0
 10
0.3599055118110237
 20
2.416779527559055
 30
0.0
 10
0.3599055118110237
 20
2.416779527559055
 30
0.0
 10
0.3525157480314961
 20
2.420251968503937
 30
0.0
 10
0.3472125984251969
 20
2.423779527559055
 30
0.0
 10
0.3439330708661417
 20
2.427366141732283
 30
0.0
 10
0.3439330708661417
 20
2.427366141732283
 30
0.0
 10
0.3397677165354331
 20
2.432086614173228
 30
0.0
 10
0.3376850393700788
 20
2.437751968503937
 30
0.0
 10
0.3376850393700788
 20
2.444362204724409
 30
0.0
 10
0.3376850393700788
 20
2.444362204724409
 30
0.0
 10
0.3376850393700788
 20
2.452559055118111
 30
0.0
 10
0.3407677165354331
 20
2.459196850393701
 30
0.0
 10
0.3469606299212599
 20
2.464224409448819
 30
0.0
 10
0.3469606299212599
 20
2.464224409448819
 30
0.0
 10
0.3545433070866142
 20
2.47042125984252
 30
0.0
 10
0.3640433070866142
 20
2.473503937007874
 30
0.0
 10
0.3754330708661418
 20
2.473503937007874
 30
0.0
 10
0.3754330708661418
 20
2.473503937007874
 30
0.0
 10
0.3858503937007874
 20
2.473503937007874
 30
0.0
 10
0.3942677165354331
 20
2.470834645669291
 30
0.0
 10
0.4007125984251969
 20
2.465503937007874
 30
0.0
 10
0.4007125984251969
 20
2.465503937007874
 30
0.0
 10
0.4071259842519685
 20
2.460141732283465
 30
0.0
 10
0.4103503937007874
 20
2.454031496062992
 30
0.0
 10
0.4103503937007874
 20
2.447141732283465
 30
0.0
 10
0.4103503937007874
 20
2.447141732283465
 30
0.0
 10
0.4103503937007874
 20
2.443724409448819
 30
0.0
 10
0.4095433070866142
 20
2.440448818897638
 30
0.0
 10
0.4079606299212599
 20
2.437334645669291
 30
0.0
 10
0.4079606299212599
 20
2.437334645669291
 30
0.0
 10
0.4063503937007874
 20
2.434224409448819
 30
0.0
 10
0.4039055118110236
 20
2.431307086614174
 30
0.0
 10
0.4005708661417323
 20
2.428641732283465
 30
0.0
 10
0.4005708661417323
 20
2.428641732283465
 30
0.0
 10
0.3972677165354331
 20
2.425948818897638
 30
0.0
 10
0.3926811023622047
 20
2.42342125984252
 30
0.0
 10
0.3868228346456693
 20
2.421031496062992
 30
0.0
  0
SPLINE
  5
A5
330
1F
100
AcDbEntity
  8
LAYER_1
 62
   250
100
AcDbSpline
210
0.0
220
0.0
230
1.0
 70
    11
 71
     3
 72
    48
 73
    44
 74
     0
 42
0.0000000001
 43
0.0000000001
 40
0.0
 40
0.0
 40
0.0
 40
0.0
 40
0.0909090909090909
 40
0.0909090909090909
 40
0.0909090909090909
 40
0.0909090909090909
 40
0.1818181818181818
 40
0.1818181818181818
 40
0.1818181818181818
 40
0.1818181818181818
 40
0.2727272727272727
 40
0.2727272727272727
 40
0.2727272727272727
 40
0.2727272727272727
 40
0.3636363636363637
 40
0.3636363636363637
 40
0.3636363636363637
 40
0.3636363636363637
 40
0.4545454545454546
 40
0.4545454545454546
 40
0.4545454545454546
 40
0.4545454545454546
 40
0.5454545454545455
 40
0.5454545454545455
 40
0.5454545454545455
 40
0.5454545454545455
 40
0.6363636363636365
 40
0.6363636363636365
 40
0.6363636363636365
 40
0.6363636363636365
 40
0.7272727272727274
 40
0.7272727272727274
 40
0.7272727272727274
 40
0.7272727272727274
 40
0.8181818181818183
 40
0.8181818181818183
 40
0.8181818181818183
 40
0.8181818181818183
 40
0.9090909090909093
 40
0.9090909090909093
 40
0.9090909090909093
 40
0.9090909090909093
 40
1.0
 40
1.0
 40
1.0
 40
1.0
 10
0.3794330708661418
 20
2.424031496062992
 30
0.0
 10
0.3855984251968504
 20
2.428696850393701
 30
0.0
 10
0.3896259842519685
 20
2.431948818897638
 30
0.0
 10
0.3914606299212599
 20
2.433807086614173
 30
0.0
 10
0.3914606299212599
 20
2.433807086614173
 30
0.0
 10
0.3933228346456693
 20
2.435641732283465
 30
0.0
 10
0.394740157480315
 20
2.437751968503937
 30
0.0
 10
0.395740157480315
 20
2.440114173228347
 30
0.0
 10
0.395740157480315
 20
2.440114173228347
 30
0.0
 10
0.396740157480315
 20
2.442476377952756
 30
0.0
 10
0.397240157480315
 20
2.444751968503937
 30
0.0
 10
0.397240157480315
 20
2.446976377952756
 30
0.0
 10
0.397240157480315
 20
2.446976377952756
 30
0.0
 10
0.397240157480315
 20
2.450169291338583
 30
0.0
 10
0.3962952755905512
 20
2.453224409448819
 30
0.0
 10
0.3944055118110236
 20
2.456141732283465
 30
0.0
 10
0.3944055118110236
 20
2.456141732283465
 30
0.0
 10
0.392488188976378
 20
2.459031496062992
 30
0.0
 10
0.3897125984251968
 20
2.461393700787402
 30
0.0
 10
0.3860433070866142
 20
2.463169291338583
 30
0.0
 10
0.3860433070866142
 20
2.463169291338583
 30
0.0
 10
0.3824055118110236
 20
2.464976377952756
 30
0.0
 10
0.3782952755905512
 20
2.465862204724409
 30
0.0
 10
0.373740157480315
 20
2.465862204724409
 30
0.0
 10
0.373740157480315
 20
2.465862204724409
 30
0.0
 10
0.366988188976378
 20
2.465862204724409
 30
0.0
 10
0.3614055118110237
 20
2.464003937007874
 30
0.0
 10
0.3569606299212599
 20
2.460279527559055
 30
0.0
 10
0.3569606299212599
 20
2.460279527559055
 30
0.0
 10
0.3525157480314961
 20
2.456559055118111
 30
0.0
 10
0.3502952755905512
 20
2.452279527559055
 30
0.0
 10
0.3502952755905512
 20
2.447393700787402
 30
0.0
 10
0.3502952755905512
 20
2.447393700787402
 30
0.0
 10
0.3502952755905512
 20
2.443476377952756
 30
0.0
 10
0.3516850393700788
 20
2.439976377952756
 30
0.0
 10
0.3544330708661417
 20
2.436893700787402
 30
0.0
 10
0.3544330708661417
 20
2.436893700787402
 30
0.0
 10
0.3572125984251969
 20
2.433807086614173
 30
0.0
 10
0.3623503937007874
 20
2.430751968503937
 30
0.0
 10
0.3699055118110237
 20
2.427779527559055
 30
0.0
 10
0.3699055118110237
 20
2.427779527559055
 30
0.0
 10
0.3699055118110237
 20
2.427779527559055
 30
0.0
 10
0.3794330708661418
 20
2.424031496062992
 30
0.0
 10
0.3794330708661418
 20
2.424031496062992
 30
0.0
  0
SPLINE
  5
A6
330
1F
100
AcDbEntity
  8
LAYER_1
 62
   250
100
AcDbSpline
210
0.0
220
0.0
230
1.0
 70
    11
 71
     3
 72
    40
 73
    36
 74
     0
 42
0.0000000001
 43
0.0000000001
 40
0.0
 40
0.0
 40
0.0
 40
0.0
 40
0.1111111111111111
 40
0.1111111111111111
 40
0.1111111111111111
 40
0.1111111111111111
 40
0.2222222222222222
 40
0.2222222222222222
 40
0.2222222222222222
 40
0.2222222222222222
 40
0.3333333333333333
 40
0.3333333333333333
 40
0.3333333333333333
 40
0.3333333333333333
 40
0.4444444444444444
 40
0.4444444444444444
 40
0.4444444444444444
 40
0.4444444444444444
 40
0.5555555555555556
 40
0.5555555555555556
 40
0.5555555555555556
 40
0.5555555555555556
 40
0.6666666666666667
 40
0.6666666666666667
 40
0.6666666666666667
 40
0.6666666666666667
 40
0.7777777777777779
 40
0.7777777777777779
 40
0.7777777777777779
 40
0.7777777777777779
 40
0.8888888888888891
 40
0.8888888888888891
 40
0.8888888888888891
 40
0.8888888888888891
 40
1.0
 40
1.0
 40
1.0
 40
1.0
 10
0.3679606299212598
 20
2.413614173228347
 30
0.0
 10
0.3602952755905512
 20
2.410251968503937
 30
0.0
 10
0.354240157480315
 20
2.405893700787402
 30
0.0
 10
0.3497952755905512
 20
2.400503937007874
 30
0.0
 10
0.3497952755905512
 20
2.400503937007874
 30
0.0
 10
0.3463228346456693
 20
2.396279527559055
 30
0.0
 10
0.3445984251968504
 20
2.391893700787402
 30
0.0
 10
0.3445984251968504
 20
2.387338582677165
 30
0.0
 10
0.3445984251968504
 20
2.387338582677165
 30
0.0
 10
0.3445984251968504
 20
2.381141732283465
 30
0.0
 10
0.3473228346456693
 20
2.375641732283465
 30
0.0
 10
0.3528228346456693
 20
2.370838582677166
 30
0.0
 10
0.3528228346456693
 20
2.370838582677166
 30
0.0
 10
0.3582952755905512
 20
2.36605905511811
 30
0.0
 10
0.3653779527559055
 20
2.363641732283465
 30
0.0
 10
0.3740433070866142
 20
2.363641732283465
 30
0.0
 10
0.3740433070866142
 20
2.363641732283465
 30
0.0
 10
0.3829055118110236
 20
2.363641732283465
 30
0.0
 10
0.3902677165354331
 20
2.366393700787402
 30
0.0
 10
0.3961811023622047
 20
2.371866141732284
 30
0.0
 10
0.3961811023622047
 20
2.371866141732284
 30
0.0
 10
0.4010157480314961
 20
2.376311023622047
 30
0.0
 10
0.4034330708661418
 20
2.381086614173229
 30
0.0
 10
0.4034330708661418
 20
2.386196850393701
 30
0.0
 10
0.4034330708661418
 20
2.386196850393701
 30
0.0
 10
0.4034330708661418
 20
2.390196850393701
 30
0.0
 10
0.4018503937007874
 20
2.394031496062992
 30
0.0
 10
0.3986811023622047
 20
2.397696850393701
 30
0.0
 10
0.3986811023622047
 20
2.397696850393701
 30
0.0
 10
0.3954881889763779
 20
2.401366141732284
 30
0.0
 10
0.3895984251968504
 20
2.40492125984252
 30
0.0
 10
0.3809606299212598
 20
2.408393700787402
 30
0.0
 10
0.3809606299212598
 20
2.408393700787402
 30
0.0
 10
0.3809606299212598
 20
2.408393700787402
 30
0.0
 10
0.3679606299212598
 20
2.413614173228347
 30
0.0
 10
0.3679606299212598
 20
2.413614173228347
 30
0.0
  0
SPLINE
  5
A7
330
1F
100
AcDbEntity
  8
LAYER_1
 62
   250
100
AcDbSpline
210
0.0
220
0.0
230
1.0
 70
    11
 71
     3
 72
    72
 73
    68
 74
     0
 42
0.0000000001
 43
0.0000000001
 40
0.0
 40
0.0
 40
0.0
 40
0.0
 40
0.0588235294117647
 40
0.0588235294117647
 40
0.0588235294117647
 40
0.0588235294117647
 40
0.1176470588235294
 40
0.1176470588235294
 40
0.1176470588235294
 40
0.1176470588235294
 40
0.1764705882352941
 40
0.1764705882352941
 40
0.1764705882352941
 40
0.1764705882352941
 40
0.2352941176470588
 40
0.2352941176470588
 40
0.2352941176470588
 40
0.2352941176470588
 40
0.2941176470588235
 40
0.2941176470588235
 40
0.2941176470588235
 40
0.2941176470588235
 40
0.3529411764705883
 40
0.3529411764705883
 40
0.3529411764705883
 40
0.3529411764705883
 40
0.411764705882353
 40
0.411764705882353
 40
0.411764705882353
 40
0.411764705882353
 40
0.4705882352941177
 40
0.4705882352941177
 40
0.4705882352941177
 40
0.4705882352941177
 40
0.5294117647058824
 40
0.5294117647058824
 40
0.5294117647058824
 40
0.5294117647058824
 40
0.5882352941176471
 40
0.5882352941176471
 40
0.5882352941176471
 40
0.5882352941176471
 40
0.6470588235294118
 40
0.6470588235294118
 40
0.6470588235294118
 40
0.6470588235294118
 40
0.7058823529411765
 40
0.7058823529411765
 40
0.7058823529411765
 40
0.7058823529411765
 40
0.7647058823529412
 40
0.7647058823529412
 40
0.7647058823529412
 40
0.7647058823529412
 40
0.823529411764706
 40
0.823529411764706
 40
0.823529411764706
 40
0.823529411764706
 40
0.8823529411764707
 40
0.8823529411764707
 40
0.8823529411764707
 40
0.8823529411764707
 40
0.9411764705882354
 40
0.9411764705882354
 40
0.9411764705882354
 40
0.9411764705882354
 40
1.0
 40
1.0
 40
1.0
 40
1.0
 10
-0.1683031496062992
 20
2.28405905511811
 30
0.0
 10
-0.1683031496062992
 20
2.28405905511811
 30
0.0
 10
-0.1622204724409449
 20
2.28405905511811
 30
0.0
 10
-0.1622204724409449
 20
2.28405905511811
 30
0.0
 10
-0.1622204724409449
 20
2.28405905511811
 30
0.0
 10
-0.1622204724409449
 20
2.28405905511811
 30
0.0
 10
-0.1622204724409449
 20
2.189811023622047
 30
0.0
 10
-0.1622204724409449
 20
2.189811023622047
 30
0.0
 10
-0.1622204724409449
 20
2.189811023622047
 30
0.0
 10
-0.1622204724409449
 20
2.185366141732283
 30
0.0
 10
-0.1619133858267717
 20
2.182503937007874
 30
0.0
 10
-0.1613582677165354
 20
2.181224409448819
 30
0.0
 10
-0.1613582677165354
 20
2.181224409448819
 30
0.0
 10
-0.1607755905511811
 20
2.179948818897638
 30
0.0
 10
-0.1598582677165354
 20
2.179003937007874
 30
0.0
 10
-0.1585551181102362
 20
2.178338582677165
 30
0.0
 10
-0.1585551181102362
 20
2.178338582677165
 30
0.0
 10
-0.157248031496063
 20
2.177696850393701
 30
0.0
 10
-0.1546653543307087
 20
2.177366141732283
 30
0.0
 10
-0.1508031496062992
 20
2.177366141732283
 30
0.0
 10
-0.1508031496062992
 20
2.177366141732283
 30
0.0
 10
-0.1508031496062992
 20
2.177366141732283
 30
0.0
 10
-0.1428307086614173
 20
2.177366141732283
 30
0.0
 10
-0.1428307086614173
 20
2.177366141732283
 30
0.0
 10
-0.1428307086614173
 20
2.177366141732283
 30
0.0
 10
-0.1428307086614173
 20
2.177366141732283
 30
0.0
 10
-0.1428307086614173
 20
2.170531496062992
 30
0.0
 10
-0.1428307086614173
 20
2.170531496062992
 30
0.0
 10
-0.1428307086614173
 20
2.170531496062992
 30
0.0
 10
-0.1428307086614173
 20
2.170531496062992
 30
0.0
 10
-0.1964685039370079
 20
2.170531496062992
 30
0.0
 10
-0.1964685039370079
 20
2.170531496062992
 30
0.0
 10
-0.1964685039370079
 20
2.170531496062992
 30
0.0
 10
-0.1964685039370079
 20
2.170531496062992
 30
0.0
 10
-0.1964685039370079
 20
2.177366141732283
 30
0.0
 10
-0.1964685039370079
 20
2.177366141732283
 30
0.0
 10
-0.1964685039370079
 20
2.177366141732283
 30
0.0
 10
-0.1964685039370079
 20
2.177366141732283
 30
0.0
 10
-0.1876102362204725
 20
2.177366141732283
 30
0.0
 10
-0.1876102362204725
 20
2.177366141732283
 30
0.0
 10
-0.1876102362204725
 20
2.177366141732283
 30
0.0
 10
-0.183748031496063
 20
2.177366141732283
 30
0.0
 10
-0.1811929133858268
 20
2.177696850393701
 30
0.0
 10
-0.1799133858267717
 20
2.178393700787402
 30
0.0
 10
-0.1799133858267717
 20
2.178393700787402
 30
0.0
 10
-0.1786377952755906
 20
2.17905905511811
 30
0.0
 10
-0.1776377952755906
 20
2.180141732283465
 30
0.0
 10
-0.1769409448818898
 20
2.181641732283465
 30
0.0
 10
-0.1769409448818898
 20
2.181641732283465
 30
0.0
 10
-0.176248031496063
 20
2.183141732283465
 30
0.0
 10
-0.1758858267716535
 20
2.185866141732284
 30
0.0
 10
-0.1758858267716535
 20
2.189811023622047
 30
0.0
 10
-0.1758858267716535
 20
2.189811023622047
 30
0.0
 10
-0.1758858267716535
 20
2.189811023622047
 30
0.0
 10
-0.1758858267716535
 20
2.267279527559055
 30
0.0
 10
-0.1758858267716535
 20
2.267279527559055
 30
0.0
 10
-0.1758858267716535
 20
2.267279527559055
 30
0.0
 10
-0.1758858267716535
 20
2.267279527559055
 30
0.0
 10
-0.1964685039370079
 20
2.267279527559055
 30
0.0
 10
-0.1964685039370079
 20
2.267279527559055
 30
0.0
 10
-0.1964685039370079
 20
2.267279527559055
 30
0.0
 10
-0.1964685039370079
 20
2.267279527559055
 30
0.0
 10
-0.1964685039370079
 20
2.274279527559055
 30
0.0
 10
-0.1964685039370079
 20
2.274279527559055
 30
0.0
 10
-0.1964685039370079
 20
2.274279527559055
 30
0.0
 10
-0.185248031496063
 20
2.27586220472441
 30
0.0
 10
-0.1758582677165354
 20
2.279114173228347
 30
0.0
 10
-0.1683031496062992
 20
2.28405905511811
 30
0.0
  0
SPLINE
  5
A8
330
1F
100
AcDbEntity
  8
LAYER_1
 62
   250
100
AcDbSpline
210
0.0
220
0.0
230
1.0
 70
    11
 71
     3
 72
    20
 73
    16
 74
     0
 42
0.0000000001
 43
0.0000000001
 40
0.0
 40
0.0
 40
0.0
 40
0.0
 40
0.25
 40
0.25
 40
0.25
 40
0.25
 40
0.5
 40
0.5
 40
0.5
 40
0.5
 40
0.75
 40
0.75
 40
0.75
 40
0.75
 40
1.0
 40
1.0
 40
1.0
 40
1.0
 10
-0.1118307086614173
 20
2.217003937007874
 30
0.0
 10
-0.1118307086614173
 20
2.217003937007874
 30
0.0
 10
-0.063496062992126
 20
2.217003937007874
 30
0.0
 10
-0.063496062992126
 20
2.217003937007874
 30
0.0
 10
-0.063496062992126
 20
2.217003937007874
 30
0.0
 10
-0.063496062992126
 20
2.217003937007874
 30
0.0
 10
-0.063496062992126
 20
2.20692125984252
 30
0.0
 10
-0.063496062992126
 20
2.20692125984252
 30
0.0
 10
-0.063496062992126
 20
2.20692125984252
 30
0.0
 10
-0.063496062992126
 20
2.20692125984252
 30
0.0
 10
-0.1118307086614173
 20
2.20692125984252
 30
0.0
 10
-0.1118307086614173
 20
2.20692125984252
 30
0.0
 10
-0.1118307086614173
 20
2.20692125984252
 30
0.0
 10
-0.1118307086614173
 20
2.20692125984252
 30
0.0
 10
-0.1118307086614173
 20
2.217003937007874
 30
0.0
 10
-0.1118307086614173
 20
2.217003937007874
 30
0.0
  0
SPLINE
  5
A9
330
1F
100
AcDbEntity
  8
LAYER_1
 62
   250
100
AcDbSpline
210
0.0
220
0.0
230
1.0
 70
    11
 71
     3
 72
    80
 73
    76
 74
     0
 42
0.0000000001
 43
0.0000000001
 40
0.0
 40
0.0
 40
0.0
 40
0.0
 40
0.0526315789473684
 40
0.0526315789473684
 40
0.0526315789473684
 40
0.0526315789473684
 40
0.1052631578947368
 40
0.1052631578947368
 40
0.1052631578947368
 40
0.1052631578947368
 40
0.1578947368421053
 40
0.1578947368421053
 40
0.1578947368421053
 40
0.1578947368421053
 40
0.2105263157894737
 40
0.2105263157894737
 40
0.2105263157894737
 40
0.2105263157894737
 40
0.2631578947368421
 40
0.2631578947368421
 40
0.2631578947368421
 40
0.2631578947368421
 40
0.3157894736842105
 40
0.3157894736842105
 40
0.3157894736842105
 40
0.3157894736842105
 40
0.3684210526315789
 40
0.3684210526315789
 40
0.3684210526315789
 40
0.3684210526315789
 40
0.4210526315789474
 40
0.4210526315789474
 40
0.4210526315789474
 40
0.4210526315789474
 40
0.4736842105263158
 40
0.4736842105263158
 40
0.4736842105263158
 40
0.4736842105263158
 40
0.5263157894736842
 40
0.5263157894736842
 40
0.5263157894736842
 40
0.5263157894736842
 40
0.5789473684210527
 40
0.5789473684210527
 40
0.5789473684210527
 40
0.5789473684210527
 40
0.631578947368421
 40
0.631578947368421
 40
0.631578947368421
 40
0.631578947368421
 40
0.6842105263157894
 40
0.6842105263157894
 40
0.6842105263157894
 40
0.6842105263157894
 40
0.7368421052631577
 40
0.7368421052631577
 40
0.7368421052631577
 40
0.7368421052631577
 40
0.7894736842105261
 40
0.7894736842105261
 40
0.7894736842105261
 40
0.7894736842105261
 40
0.8421052631578945
 40
0.8421052631578945
 40
0.8421052631578945
 40
0.8421052631578945
 40
0.8947368421052628
 40
0.8947368421052628
 40
0.8947368421052628
 40
0.8947368421052628
 40
0.9473684210526312
 40
0.9473684210526312
 40
0.9473684210526312
 40
0.9473684210526312
 40
1.0
 40
1.0
 40
1.0
 40
1.0
 10
-0.036248031496063
 20
2.288196850393701
 30
0.0
 10
-0.036248031496063
 20
2.288196850393701
 30
0.0
 10
-0.0308582677165354
 20
2.288196850393701
 30
0.0
 10
-0.0308582677165354
 20
2.288196850393701
 30
0.0
 10
-0.0308582677165354
 20
2.288196850393701
 30
0.0
 10
-0.0308582677165354
 20
2.288196850393701
 30
0.0
 10
-0.0298858267716535
 20
2.28405905511811
 30
0.0
 10
-0.0298858267716535
 20
2.28405905511811
 30
0.0
 10
-0.0298858267716535
 20
2.28405905511811
 30
0.0
 10
-0.0298858267716535
 20
2.28405905511811
 30
0.0
 10
0.0412244094488189
 20
2.28405905511811
 30
0.0
 10
0.0412244094488189
 20
2.28405905511811
 30
0.0
 10
0.0412244094488189
 20
2.28405905511811
 30
0.0
 10
0.0412244094488189
 20
2.28405905511811
 30
0.0
 10
0.0412244094488189
 20
2.277141732283465
 30
0.0
 10
0.0412244094488189
 20
2.277141732283465
 30
0.0
 10
0.0412244094488189
 20
2.277141732283465
 30
0.0
 10
0.0327244094488189
 20
2.267307086614173
 30
0.0
 10
0.025
 20
2.256141732283465
 30
0.0
 10
0.0180866141732283
 20
2.24355905511811
 30
0.0
 10
0.0180866141732283
 20
2.24355905511811
 30
0.0
 10
0.0111692913385827
 20
2.231003937007874
 30
0.0
 10
0.0058070866141732
 20
2.218224409448819
 30
0.0
 10
0.002
 20
2.205196850393701
 30
0.0
 10
0.002
 20
2.205196850393701
 30
0.0
 10
-0.000748031496063
 20
2.195811023622047
 30
0.0
 10
-0.002996062992126
 20
2.184251968503937
 30
0.0
 10
-0.004748031496063
 20
2.170531496062992
 30
0.0
 10
-0.004748031496063
 20
2.170531496062992
 30
0.0
 10
-0.004748031496063
 20
2.170531496062992
 30
0.0
 10
-0.0214133858267717
 20
2.170531496062992
 30
0.0
 10
-0.0214133858267717
 20
2.170531496062992
 30
0.0
 10
-0.0214133858267717
 20
2.170531496062992
 30
0.0
 10
-0.0198031496062992
 20
2.182641732283465
 30
0.0
 10
-0.0171377952755906
 20
2.193948818897638
 30
0.0
 10
-0.0134133858267717
 20
2.204476377952756
 30
0.0
 10
-0.0134133858267717
 20
2.204476377952756
 30
0.0
 10
-0.0096929133858268
 20
2.215003937007874
 30
0.0
 10
-0.0043307086614173
 20
2.226003937007874
 30
0.0
 10
0.0026968503937008
 20
2.237476377952756
 30
0.0
 10
0.0026968503937008
 20
2.237476377952756
 30
0.0
 10
0.0097244094488189
 20
2.248948818897638
 30
0.0
 10
0.018251968503937
 20
2.260393700787402
 30
0.0
 10
0.0283070866141732
 20
2.271834645669292
 30
0.0
 10
0.0283070866141732
 20
2.271834645669292
 30
0.0
 10
0.0283070866141732
 20
2.271834645669292
 30
0.0
 10
-0.0224133858267717
 20
2.271834645669292
 30
0.0
 10
-0.0224133858267717
 20
2.271834645669292
 30
0.0
 10
-0.0224133858267717
 20
2.271834645669292
 30
0.0
 10
-0.0260826771653543
 20
2.271834645669292
 30
0.0
 10
-0.0286102362204724
 20
2.271669291338583
 30
0.0
 10
-0.0299685039370079
 20
2.271279527559055
 30
0.0
 10
-0.0299685039370079
 20
2.271279527559055
 30
0.0
 10
-0.0313307086614173
 20
2.270893700787402
 30
0.0
 10
-0.0323858267716535
 20
2.270307086614174
 30
0.0
 10
-0.0331377952755906
 20
2.269503937007874
 30
0.0
 10
-0.0331377952755906
 20
2.269503937007874
 30
0.0
 10
-0.0339133858267717
 20
2.268669291338583
 30
0.0
 10
-0.0345551181102362
 20
2.267224409448819
 30
0.0
 10
-0.0351102362204724
 20
2.265169291338583
 30
0.0
 10
-0.0351102362204724
 20
2.265169291338583
 30
0.0
 10
-0.0351102362204724
 20
2.265169291338583
 30
0.0
 10
-0.035496062992126
 20
2.263641732283465
 30
0.0
 10
-0.035496062992126
 20
2.263641732283465
 30
0.0
 10
-0.035496062992126
 20
2.263641732283465
 30
0.0
 10
-0.035496062992126
 20
2.263641732283465
 30
0.0
 10
-0.0382755905511811
 20
2.254031496062992
 30
0.0
 10
-0.0382755905511811
 20
2.254031496062992
 30
0.0
 10
-0.0382755905511811
 20
2.254031496062992
 30
0.0
 10
-0.0382755905511811
 20
2.254031496062992
 30
0.0
 10
-0.0451929133858268
 20
2.255503937007874
 30
0.0
 10
-0.0451929133858268
 20
2.255503937007874
 30
0.0
 10
-0.0451929133858268
 20
2.255503937007874
 30
0.0
 10
-0.0451929133858268
 20
2.255503937007874
 30
0.0
 10
-0.036248031496063
 20
2.288196850393701
 30
0.0
 10
-0.036248031496063
 20
2.288196850393701
 30
0.0
  0
SPLINE
  5
AA
330
1F
100
AcDbEntity
  8
LAYER_1
 62
   250
100
AcDbSpline
210
0.0
220
0.0
230
1.0
 70
    11
 71
     3
 72
    20
 73
    16
 74
     0
 42
0.0000000001
 43
0.0000000001
 40
0.0
 40
0.0
 40
0.0
 40
0.0
 40
0.25
 40
0.25
 40
0.25
 40
0.25
 40
0.5
 40
0.5
 40
0.5
 40
0.5
 40
0.75
 40
0.75
 40
0.75
 40
0.75
 40
1.0
 40
1.0
 40
1.0
 40
1.0
 10
0.1305314960629921
 20
2.28992125984252
 30
0.0
 10
0.1305314960629921
 20
2.28992125984252
 30
0.0
 10
0.0749488188976378
 20
2.134224409448819
 30
0.0
 10
0.0749488188976378
 20
2.134224409448819
 30
0.0
 10
0.0749488188976378
 20
2.134224409448819
 30
0.0
 10
0.0749488188976378
 20
2.134224409448819
 30
0.0
 10
0.0628937007874016
 20
2.134224409448819
 30
0.0
 10
0.0628937007874016
 20
2.134224409448819
 30
0.0
 10
0.0628937007874016
 20
2.134224409448819
 30
0.0
 10
0.0628937007874016
 20
2.134224409448819
 30
0.0
 10
0.1181417322834646
 20
2.28992125984252
 30
0.0
 10
0.1181417322834646
 20
2.28992125984252
 30
0.0
 10
0.1181417322834646
 20
2.28992125984252
 30
0.0
 10
0.1181417322834646
 20
2.28992125984252
 30
0.0
 10
0.1305314960629921
 20
2.28992125984252
 30
0.0
 10
0.1305314960629921
 20
2.28992125984252
 30
0.0
  0
SPLINE
  5
AB
330
1F
100
AcDbEntity
  8
LAYER_1
 62
   250
100
AcDbSpline
210
0.0
220
0.0
230
1.0
 70
    11
 71
     3
 72
    76
 73
    72
 74
     0
 42
0.0000000001
 43
0.0000000001
 40
0.0
 40
0.0
 40
0.0
 40
0.0
 40
0.0555555555555556
 40
0.0555555555555556
 40
0.0555555555555556
 40
0.0555555555555556
 40
0.1111111111111111
 40
0.1111111111111111
 40
0.1111111111111111
 40
0.1111111111111111
 40
0.1666666666666667
 40
0.1666666666666667
 40
0.1666666666666667
 40
0.1666666666666667
 40
0.2222222222222222
 40
0.2222222222222222
 40
0.2222222222222222
 40
0.2222222222222222
 40
0.2777777777777778
 40
0.2777777777777778
 40
0.2777777777777778
 40
0.2777777777777778
 40
0.3333333333333334
 40
0.3333333333333334
 40
0.3333333333333334
 40
0.3333333333333334
 40
0.388888888888889
 40
0.388888888888889
 40
0.388888888888889
 40
0.388888888888889
 40
0.4444444444444445
 40
0.4444444444444445
 40
0.4444444444444445
 40
0.4444444444444445
 40
0.5000000000000001
 40
0.5000000000000001
 40
0.5000000000000001
 40
0.5000000000000001
 40
0.5555555555555557
 40
0.5555555555555557
 40
0.5555555555555557
 40
0.5555555555555557
 40
0.6111111111111113
 40
0.6111111111111113
 40
0.6111111111111113
 40
0.6111111111111113
 40
0.6666666666666669
 40
0.6666666666666669
 40
0.6666666666666669
 40
0.6666666666666669
 40
0.7222222222222224
 40
0.7222222222222224
 40
0.7222222222222224
 40
0.7222222222222224
 40
0.777777777777778
 40
0.777777777777778
 40
0.777777777777778
 40
0.777777777777778
 40
0.8333333333333336
 40
0.8333333333333336
 40
0.8333333333333336
 40
0.8333333333333336
 40
0.8888888888888892
 40
0.8888888888888892
 40
0.8888888888888892
 40
0.8888888888888892
 40
0.9444444444444448
 40
0.9444444444444448
 40
0.9444444444444448
 40
0.9444444444444448
 40
1.0
 40
1.0
 40
1.0
 40
1.0
 10
0.2135314960629921
 20
2.233531496062992
 30
0.0
 10
0.2199488188976378
 20
2.231086614173229
 30
0.0
 10
0.2248346456692913
 20
2.228779527559055
 30
0.0
 10
0.2281968503937008
 20
2.226614173228346
 30
0.0
 10
0.2281968503937008
 20
2.226614173228346
 30
0.0
 10
0.2331141732283465
 20
2.223448818897638
 30
0.0
 10
0.2368346456692914
 20
2.219751968503937
 30
0.0
 10
0.2393346456692914
 20
2.215503937007874
 30
0.0
 10
0.2393346456692914
 20
2.215503937007874
 30
0.0
 10
0.2418346456692914
 20
2.211224409448819
 30
0.0
 10
0.2430866141732284
 20
2.206614173228346
 30
0.0
 10
0.2430866141732284
 20
2.201614173228347
 30
0.0
 10
0.2430866141732284
 20
2.201614173228347
 30
0.0
 10
0.2430866141732284
 20
2.192669291338583
 30
0.0
 10
0.2392244094488189
 20
2.18492125984252
 30
0.0
 10
0.2315314960629921
 20
2.178393700787402
 30
0.0
 10
0.2315314960629921
 20
2.178393700787402
 30
0.0
 10
0.2238070866141732
 20
2.171838582677165
 30
0.0
 10
0.2134212598425197
 20
2.168586614173229
 30
0.0
 10
0.2003622047244095
 20
2.168586614173229
 30
0.0
 10
0.2003622047244095
 20
2.168586614173229
 30
0.0
 10
0.1865314960629921
 20
2.168586614173229
 30
0.0
 10
0.1756692913385827
 20
2.172279527559055
 30
0.0
 10
0.1678070866141732
 20
2.179641732283465
 30
0.0
 10
0.1678070866141732
 20
2.179641732283465
 30
0.0
 10
0.1615590551181103
 20
2.18555905511811
 30
0.0
 10
0.1584488188976378
 20
2.192251968503937
 30
0.0
 10
0.1584488188976378
 20
2.199751968503937
 30
0.0
 10
0.1584488188976378
 20
2.199751968503937
 30
0.0
 10
0.1584488188976378
 20
2.205779527559055
 30
0.0
 10
0.1605590551181103
 20
2.211169291338583
 30
0.0
 10
0.1647795275590551
 20
2.215948818897638
 30
0.0
 10
0.1647795275590551
 20
2.215948818897638
 30
0.0
 10
0.1698937007874016
 20
2.221641732283465
 30
0.0
 10
0.1771692913385827
 20
2.226086614173228
 30
0.0
 10
0.1866141732283465
 20
2.229279527559055
 30
0.0
 10
0.1866141732283465
 20
2.229279527559055
 30
0.0
 10
0.1792244094488189
 20
2.232751968503937
 30
0.0
 10
0.1739212598425197
 20
2.236279527559055
 30
0.0
 10
0.1706417322834646
 20
2.239866141732283
 30
0.0
 10
0.1706417322834646
 20
2.239866141732283
 30
0.0
 10
0.1664763779527559
 20
2.244586614173228
 30
0.0
 10
0.1643937007874016
 20
2.250251968503937
 30
0.0
 10
0.1643937007874016
 20
2.256862204724409
 30
0.0
 10
0.1643937007874016
 20
2.256862204724409
 30
0.0
 10
0.1643937007874016
 20
2.265059055118111
 30
0.0
 10
0.1674763779527559
 20
2.271696850393701
 30
0.0
 10
0.1736692913385827
 20
2.276724409448819
 30
0.0
 10
0.1736692913385827
 20
2.276724409448819
 30
0.0
 10
0.181251968503937
 20
2.28292125984252
 30
0.0
 10
0.190751968503937
 20
2.286003937007874
 30
0.0
 10
0.2021417322834646
 20
2.286003937007874
 30
0.0
 10
0.2021417322834646
 20
2.286003937007874
 30
0.0
 10
0.2125590551181102
 20
2.286003937007874
 30
0.0
 10
0.2209763779527559
 20
2.283334645669291
 30
0.0
 10
0.2274212598425197
 20
2.278003937007874
 30
0.0
 10
0.2274212598425197
 20
2.278003937007874
 30
0.0
 10
0.2338346456692914
 20
2.272641732283465
 30
0.0
 10
0.2370590551181102
 20
2.266531496062992
 30
0.0
 10
0.2370590551181102
 20
2.259641732283465
 30
0.0
 10
0.2370590551181102
 20
2.259641732283465
 30
0.0
 10
0.2370590551181102
 20
2.256224409448819
 30
0.0
 10
0.236251968503937
 20
2.252948818897638
 30
0.0
 10
0.2346692913385827
 20
2.249834645669291
 30
0.0
 10
0.2346692913385827
 20
2.249834645669291
 30
0.0
 10
0.2330590551181103
 20
2.246724409448819
 30
0.0
 10
0.2306141732283465
 20
2.243807086614174
 30
0.0
 10
0.2272795275590551
 20
2.241141732283465
 30
0.0
 10
0.2272795275590551
 20
2.241141732283465
 30
0.0
 10
0.2239763779527559
 20
2.238448818897638
 30
0.0
 10
0.2193897637795276
 20
2.23592125984252
 30
0.0
 10
0.2135314960629921
 20
2.233531496062992
 30
0.0
  0
SPLINE
  5
AC
330
1F
100
AcDbEntity
  8
LAYER_1
 62
   250
100
AcDbSpline
210
0.0
220
0.0
230
1.0
 70
    11
 71
     3
 72
    48
 73
    44
 74
     0
 42
0.0000000001
 43
0.0000000001
 40
0.0
 40
0.0
 40
0.0
 40
0.0
 40
0.0909090909090909
 40
0.0909090909090909
 40
0.0909090909090909
 40
0.0909090909090909
 40
0.1818181818181818
 40
0.1818181818181818
 40
0.1818181818181818
 40
0.1818181818181818
 40
0.2727272727272727
 40
0.2727272727272727
 40
0.2727272727272727
 40
0.2727272727272727
 40
0.3636363636363637
 40
0.3636363636363637
 40
0.3636363636363637
 40
0.3636363636363637
 40
0.4545454545454546
 40
0.4545454545454546
 40
0.4545454545454546
 40
0.4545454545454546
 40
0.5454545454545455
 40
0.5454545454545455
 40
0.5454545454545455
 40
0.5454545454545455
 40
0.6363636363636365
 40
0.6363636363636365
 40
0.6363636363636365
 40
0.6363636363636365
 40
0.7272727272727274
 40
0.7272727272727274
 40
0.7272727272727274
 40
0.7272727272727274
 40
0.8181818181818183
 40
0.8181818181818183
 40
0.8181818181818183
 40
0.8181818181818183
 40
0.9090909090909093
 40
0.9090909090909093
 40
0.9090909090909093
 40
0.9090909090909093
 40
1.0
 40
1.0
 40
1.0
 40
1.0
 10
0.2061417322834646
 20
2.236531496062992
 30
0.0
 10
0.2123070866141733
 20
2.241196850393701
 30
0.0
 10
0.2163346456692913
 20
2.244448818897638
 30
0.0
 10
0.2181692913385827
 20
2.246307086614173
 30
0.0
 10
0.2181692913385827
 20
2.246307086614173
 30
0.0
 10
0.2200314960629921
 20
2.248141732283465
 30
0.0
 10
0.2214488188976378
 20
2.250251968503937
 30
0.0
 10
0.2224488188976378
 20
2.252614173228347
 30
0.0
 10
0.2224488188976378
 20
2.252614173228347
 30
0.0
 10
0.2234488188976378
 20
2.254976377952756
 30
0.0
 10
0.2239488188976378
 20
2.257251968503937
 30
0.0
 10
0.2239488188976378
 20
2.259476377952756
 30
0.0
 10
0.2239488188976378
 20
2.259476377952756
 30
0.0
 10
0.2239488188976378
 20
2.262669291338583
 30
0.0
 10
0.223003937007874
 20
2.265724409448819
 30
0.0
 10
0.2211141732283465
 20
2.268641732283465
 30
0.0
 10
0.2211141732283465
 20
2.268641732283465
 30
0.0
 10
0.2191968503937008
 20
2.271531496062992
 30
0.0
 10
0.2164212598425197
 20
2.273893700787402
 30
0.0
 10
0.212751968503937
 20
2.275669291338583
 30
0.0
 10
0.212751968503937
 20
2.275669291338583
 30
0.0
 10
0.2091141732283465
 20
2.277476377952756
 30
0.0
 10
0.205003937007874
 20
2.278362204724409
 30
0.0
 10
0.2004488188976378
 20
2.278362204724409
 30
0.0
 10
0.2004488188976378
 20
2.278362204724409
 30
0.0
 10
0.1936968503937008
 20
2.278362204724409
 30
0.0
 10
0.1881141732283465
 20
2.276503937007874
 30
0.0
 10
0.1836692913385827
 20
2.272779527559055
 30
0.0
 10
0.1836692913385827
 20
2.272779527559055
 30
0.0
 10
0.1792244094488189
 20
2.269059055118111
 30
0.0
 10
0.177003937007874
 20
2.264779527559055
 30
0.0
 10
0.177003937007874
 20
2.259893700787402
 30
0.0
 10
0.177003937007874
 20
2.259893700787402
 30
0.0
 10
0.177003937007874
 20
2.255976377952756
 30
0.0
 10
0.1783937007874016
 20
2.252476377952756
 30
0.0
 10
0.1811417322834646
 20
2.249393700787402
 30
0.0
 10
0.1811417322834646
 20
2.249393700787402
 30
0.0
 10
0.1839212598425197
 20
2.246307086614173
 30
0.0
 10
0.1890590551181103
 20
2.243251968503937
 30
0.0
 10
0.1966141732283465
 20
2.240279527559055
 30
0.0
 10
0.1966141732283465
 20
2.240279527559055
 30
0.0
 10
0.1966141732283465
 20
2.240279527559055
 30
0.0
 10
0.2061417322834646
 20
2.236531496062992
 30
0.0
 10
0.2061417322834646
 20
2.236531496062992
 30
0.0
  0
SPLINE
  5
AD
330
1F
100
AcDbEntity
  8
LAYER_1
 62
   250
100
AcDbSpline
210
0.0
220
0.0
230
1.0
 70
    11
 71
     3
 72
    40
 73
    36
 74
     0
 42
0.0000000001
 43
0.0000000001
 40
0.0
 40
0.0
 40
0.0
 40
0.0
 40
0.1111111111111111
 40
0.1111111111111111
 40
0.1111111111111111
 40
0.1111111111111111
 40
0.2222222222222222
 40
0.2222222222222222
 40
0.2222222222222222
 40
0.2222222222222222
 40
0.3333333333333333
 40
0.3333333333333333
 40
0.3333333333333333
 40
0.3333333333333333
 40
0.4444444444444444
 40
0.4444444444444444
 40
0.4444444444444444
 40
0.4444444444444444
 40
0.5555555555555556
 40
0.5555555555555556
 40
0.5555555555555556
 40
0.5555555555555556
 40
0.6666666666666667
 40
0.6666666666666667
 40
0.6666666666666667
 40
0.6666666666666667
 40
0.7777777777777779
 40
0.7777777777777779
 40
0.7777777777777779
 40
0.7777777777777779
 40
0.8888888888888891
 40
0.8888888888888891
 40
0.8888888888888891
 40
0.8888888888888891
 40
1.0
 40
1.0
 40
1.0
 40
1.0
 10
0.1946692913385827
 20
2.226114173228347
 30
0.0
 10
0.187003937007874
 20
2.222751968503937
 30
0.0
 10
0.1809488188976378
 20
2.218393700787402
 30
0.0
 10
0.176503937007874
 20
2.213003937007874
 30
0.0
 10
0.176503937007874
 20
2.213003937007874
 30
0.0
 10
0.1730314960629922
 20
2.208779527559055
 30
0.0
 10
0.1713070866141732
 20
2.204393700787402
 30
0.0
 10
0.1713070866141732
 20
2.199838582677165
 30
0.0
 10
0.1713070866141732
 20
2.199838582677165
 30
0.0
 10
0.1713070866141732
 20
2.193641732283465
 30
0.0
 10
0.1740314960629921
 20
2.188141732283465
 30
0.0
 10
0.1795314960629921
 20
2.183338582677166
 30
0.0
 10
0.1795314960629921
 20
2.183338582677166
 30
0.0
 10
0.185003937007874
 20
2.17855905511811
 30
0.0
 10
0.1920866141732284
 20
2.176141732283465
 30
0.0
 10
0.200751968503937
 20
2.176141732283465
 30
0.0
 10
0.200751968503937
 20
2.176141732283465
 30
0.0
 10
0.2096141732283465
 20
2.176141732283465
 30
0.0
 10
0.2169763779527559
 20
2.178893700787402
 30
0.0
 10
0.2228897637795276
 20
2.184366141732284
 30
0.0
 10
0.2228897637795276
 20
2.184366141732284
 30
0.0
 10
0.2277244094488189
 20
2.188811023622047
 30
0.0
 10
0.2301417322834646
 20
2.193586614173229
 30
0.0
 10
0.2301417322834646
 20
2.198696850393701
 30
0.0
 10
0.2301417322834646
 20
2.198696850393701
 30
0.0
 10
0.2301417322834646
 20
2.202696850393701
 30
0.0
 10
0.2285590551181103
 20
2.206531496062992
 30
0.0
 10
0.2253897637795276
 20
2.210196850393701
 30
0.0
 10
0.2253897637795276
 20
2.210196850393701
 30
0.0
 10
0.2221968503937008
 20
2.213866141732284
 30
0.0
 10
0.2163070866141733
 20
2.21742125984252
 30
0.0
 10
0.2076692913385827
 20
2.220893700787402
 30
0.0
 10
0.2076692913385827
 20
2.220893700787402
 30
0.0
 10
0.2076692913385827
 20
2.220893700787402
 30
0.0
 10
0.1946692913385827
 20
2.226114173228347
 30
0.0
 10
0.1946692913385827
 20
2.226114173228347
 30
0.0
  0
SPLINE
  5
AE
330
1F
100
AcDbEntity
  8
LAYER_1
 62
   250
100
AcDbSpline
210
0.0
220
0.0
230
1.0
 70
    11
 71
     3
 72
    60
 73
    56
 74
     0
 42
0.0000000001
 43
0.0000000001
 40
0.0
 40
0.0
 40
0.0
 40
0.0
 40
0.0714285714285714
 40
0.0714285714285714
 40
0.0714285714285714
 40
0.0714285714285714
 40
0.1428571428571429
 40
0.1428571428571429
 40
0.1428571428571429
 40
0.1428571428571429
 40
0.2142857142857143
 40
0.2142857142857143
 40
0.2142857142857143
 40
0.2142857142857143
 40
0.2857142857142857
 40
0.2857142857142857
 40
0.2857142857142857
 40
0.2857142857142857
 40
0.3571428571428571
 40
0.3571428571428571
 40
0.3571428571428571
 40
0.3571428571428571
 40
0.4285714285714285
 40
0.4285714285714285
 40
0.4285714285714285
 40
0.4285714285714285
 40
0.4999999999999999
 40
0.4999999999999999
 40
0.4999999999999999
 40
0.4999999999999999
 40
0.5714285714285713
 40
0.5714285714285713
 40
0.5714285714285713
 40
0.5714285714285713
 40
0.6428571428571427
 40
0.6428571428571427
 40
0.6428571428571427
 40
0.6428571428571427
 40
0.7142857142857141
 40
0.7142857142857141
 40
0.7142857142857141
 40
0.7142857142857141
 40
0.7857142857142855
 40
0.7857142857142855
 40
0.7857142857142855
 40
0.7857142857142855
 40
0.8571428571428569
 40
0.8571428571428569
 40
0.8571428571428569
 40
0.8571428571428569
 40
0.9285714285714283
 40
0.9285714285714283
 40
0.9285714285714283
 40
0.9285714285714283
 40
1.0
 40
1.0
 40
1.0
 40
1.0
 10
0.2625314960629921
 20
2.241976377952756
 30
0.0
 10
0.2625314960629921
 20
2.241976377952756
 30
0.0
 10
0.2581417322834646
 20
2.247366141732284
 30
0.0
 10
0.2581417322834646
 20
2.247366141732284
 30
0.0
 10
0.2581417322834646
 20
2.247366141732284
 30
0.0
 10
0.2692559055118111
 20
2.25642125984252
 30
0.0
 10
0.2748385826771654
 20
2.263976377952756
 30
0.0
 10
0.2748385826771654
 20
2.27005905511811
 30
0.0
 10
0.2748385826771654
 20
2.27005905511811
 30
0.0
 10
0.2748385826771654
 20
2.270751968503937
 30
0.0
 10
0.2747834645669292
 20
2.271641732283465
 30
0.0
 10
0.2746692913385827
 20
2.272669291338583
 30
0.0
 10
0.2746692913385827
 20
2.272669291338583
 30
0.0
 10
0.2737559055118111
 20
2.272279527559055
 30
0.0
 10
0.2728385826771654
 20
2.271976377952756
 30
0.0
 10
0.2719763779527559
 20
2.271779527559055
 30
0.0
 10
0.2719763779527559
 20
2.271779527559055
 30
0.0
 10
0.2711141732283465
 20
2.27155905511811
 30
0.0
 10
0.2703110236220472
 20
2.271448818897638
 30
0.0
 10
0.2695314960629922
 20
2.271448818897638
 30
0.0
 10
0.2695314960629922
 20
2.271448818897638
 30
0.0
 10
0.2669212598425197
 20
2.271448818897638
 30
0.0
 10
0.2648385826771654
 20
2.272279527559055
 30
0.0
 10
0.2632834645669291
 20
2.273976377952756
 30
0.0
 10
0.2632834645669291
 20
2.273976377952756
 30
0.0
 10
0.2616968503937008
 20
2.275641732283465
 30
0.0
 10
0.2609212598425197
 20
2.277779527559055
 30
0.0
 10
0.2609212598425197
 20
2.280393700787402
 30
0.0
 10
0.2609212598425197
 20
2.280393700787402
 30
0.0
 10
0.2609212598425197
 20
2.282948818897638
 30
0.0
 10
0.2618661417322835
 20
2.285169291338583
 30
0.0
 10
0.2637559055118111
 20
2.28705905511811
 30
0.0
 10
0.2637559055118111
 20
2.28705905511811
 30
0.0
 10
0.2656692913385827
 20
2.288976377952756
 30
0.0
 10
0.2679488188976378
 20
2.28992125984252
 30
0.0
 10
0.2705866141732284
 20
2.28992125984252
 30
0.0
 10
0.2705866141732284
 20
2.28992125984252
 30
0.0
 10
0.2742834645669292
 20
2.28992125984252
 30
0.0
 10
0.2774488188976378
 20
2.288448818897638
 30
0.0
 10
0.2800866141732283
 20
2.285476377952756
 30
0.0
 10
0.2800866141732283
 20
2.285476377952756
 30
0.0
 10
0.2826968503937008
 20
2.282531496062992
 30
0.0
 10
0.2840314960629922
 20
2.278724409448819
 30
0.0
 10
0.2840314960629922
 20
2.27405905511811
 30
0.0
 10
0.2840314960629922
 20
2.27405905511811
 30
0.0
 10
0.2840314960629922
 20
2.271003937007874
 30
0.0
 10
0.2833937007874016
 20
2.267807086614174
 30
0.0
 10
0.2821417322834646
 20
2.264476377952756
 30
0.0
 10
0.2821417322834646
 20
2.264476377952756
 30
0.0
 10
0.2808937007874016
 20
2.261141732283465
 30
0.0
 10
0.2790866141732283
 20
2.25805905511811
 30
0.0
 10
0.2766968503937008
 20
2.255196850393701
 30
0.0
 10
0.2766968503937008
 20
2.255196850393701
 30
0.0
 10
0.2743110236220472
 20
2.252366141732284
 30
0.0
 10
0.2695866141732284
 20
2.247948818897638
 30
0.0
 10
0.2625314960629921
 20
2.241976377952756
 30
0.0
  0
SPLINE
  5
AF
330
1F
100
AcDbEntity
  8
LAYER_1
 62
   250
100
AcDbSpline
210
0.0
220
0.0
230
1.0
 70
    11
 71
     3
 72
    60
 73
    56
 74
     0
 42
0.0000000001
 43
0.0000000001
 40
0.0
 40
0.0
 40
0.0
 40
0.0
 40
0.0714285714285714
 40
0.0714285714285714
 40
0.0714285714285714
 40
0.0714285714285714
 40
0.1428571428571429
 40
0.1428571428571429
 40
0.1428571428571429
 40
0.1428571428571429
 40
0.2142857142857143
 40
0.2142857142857143
 40
0.2142857142857143
 40
0.2142857142857143
 40
0.2857142857142857
 40
0.2857142857142857
 40
0.2857142857142857
 40
0.2857142857142857
 40
0.3571428571428571
 40
0.3571428571428571
 40
0.3571428571428571
 40
0.3571428571428571
 40
0.4285714285714285
 40
0.4285714285714285
 40
0.4285714285714285
 40
0.4285714285714285
 40
0.4999999999999999
 40
0.4999999999999999
 40
0.4999999999999999
 40
0.4999999999999999
 40
0.5714285714285713
 40
0.5714285714285713
 40
0.5714285714285713
 40
0.5714285714285713
 40
0.6428571428571427
 40
0.6428571428571427
 40
0.6428571428571427
 40
0.6428571428571427
 40
0.7142857142857141
 40
0.7142857142857141
 40
0.7142857142857141
 40
0.7142857142857141
 40
0.7857142857142855
 40
0.7857142857142855
 40
0.7857142857142855
 40
0.7857142857142855
 40
0.8571428571428569
 40
0.8571428571428569
 40
0.8571428571428569
 40
0.8571428571428569
 40
0.9285714285714283
 40
0.9285714285714283
 40
0.9285714285714283
 40
0.9285714285714283
 40
1.0
 40
1.0
 40
1.0
 40
1.0
 10
0.2915866141732283
 20
2.241976377952756
 30
0.0
 10
0.2915866141732283
 20
2.241976377952756
 30
0.0
 10
0.2871968503937008
 20
2.247366141732284
 30
0.0
 10
0.2871968503937008
 20
2.247366141732284
 30
0.0
 10
0.2871968503937008
 20
2.247366141732284
 30
0.0
 10
0.2983110236220473
 20
2.25642125984252
 30
0.0
 10
0.3038937007874016
 20
2.263976377952756
 30
0.0
 10
0.3038937007874016
 20
2.27005905511811
 30
0.0
 10
0.3038937007874016
 20
2.27005905511811
 30
0.0
 10
0.3038937007874016
 20
2.270751968503937
 30
0.0
 10
0.3038385826771654
 20
2.271641732283465
 30
0.0
 10
0.3037244094488189
 20
2.272669291338583
 30
0.0
 10
0.3037244094488189
 20
2.272669291338583
 30
0.0
 10
0.3028110236220473
 20
2.272279527559055
 30
0.0
 10
0.3018937007874016
 20
2.271976377952756
 30
0.0
 10
0.3010314960629921
 20
2.271779527559055
 30
0.0
 10
0.3010314960629921
 20
2.271779527559055
 30
0.0
 10
0.3001692913385827
 20
2.27155905511811
 30
0.0
 10
0.2993385826771653
 20
2.271448818897638
 30
0.0
 10
0.298503937007874
 20
2.271448818897638
 30
0.0
 10
0.298503937007874
 20
2.271448818897638
 30
0.0
 10
0.2959488188976378
 20
2.271448818897638
 30
0.0
 10
0.2938937007874016
 20
2.272279527559055
 30
0.0
 10
0.2923385826771654
 20
2.273976377952756
 30
0.0
 10
0.2923385826771654
 20
2.273976377952756
 30
0.0
 10
0.290755905511811
 20
2.275641732283465
 30
0.0
 10
0.2899763779527559
 20
2.277779527559055
 30
0.0
 10
0.2899763779527559
 20
2.280393700787402
 30
0.0
 10
0.2899763779527559
 20
2.280393700787402
 30
0.0
 10
0.2899763779527559
 20
2.282948818897638
 30
0.0
 10
0.2909212598425197
 20
2.285169291338583
 30
0.0
 10
0.2928110236220473
 20
2.28705905511811
 30
0.0
 10
0.2928110236220473
 20
2.28705905511811
 30
0.0
 10
0.2946968503937008
 20
2.288976377952756
 30
0.0
 10
0.297003937007874
 20
2.28992125984252
 30
0.0
 10
0.2996417322834646
 20
2.28992125984252
 30
0.0
 10
0.2996417322834646
 20
2.28992125984252
 30
0.0
 10
0.3033385826771654
 20
2.28992125984252
 30
0.0
 10
0.306503937007874
 20
2.288448818897638
 30
0.0
 10
0.3091417322834646
 20
2.285476377952756
 30
0.0
 10
0.3091417322834646
 20
2.285476377952756
 30
0.0
 10
0.311751968503937
 20
2.282531496062992
 30
0.0
 10
0.3130866141732284
 20
2.278724409448819
 30
0.0
 10
0.3130866141732284
 20
2.27405905511811
 30
0.0
 10
0.3130866141732284
 20
2.27405905511811
 30
0.0
 10
0.3130866141732284
 20
2.271003937007874
 30
0.0
 10
0.3124488188976378
 20
2.267807086614174
 30
0.0
 10
0.3111968503937008
 20
2.264476377952756
 30
0.0
 10
0.3111968503937008
 20
2.264476377952756
 30
0.0
 10
0.3099488188976378
 20
2.261141732283465
 30
0.0
 10
0.3081417322834646
 20
2.25805905511811
 30
0.0
 10
0.305755905511811
 20
2.255196850393701
 30
0.0
 10
0.305755905511811
 20
2.255196850393701
 30
0.0
 10
0.3033661417322835
 20
2.252366141732284
 30
0.0
 10
0.2986417322834646
 20
2.247948818897638
 30
0.0
 10
0.2915866141732283
 20
2.241976377952756
 30
0.0
  0
ENDSEC
  0
SECTION
  2
OBJECTS
  0
DICTIONARY
  5
C
330
0
100
AcDbDictionary
  3
ACAD_GROUP
350
D
  3
ACAD_LAYOUT
350
1A
  3
ACAD_MLINESTYLE
350
17
  3
ACAD_PLOTSETTINGS
350
19
  3
ACDBHEADERROUNDTRIPXREC
350
B0
  0
DICTIONARY
  5
D0
330
29
100
AcDbDictionary
280
     1
  3
ACAD_XREC_ROUNDTRIP
360
D1
  0
DICTIONARY
  5
D
102
{ACAD_REACTORS
330
C
102
}
330
C
100
AcDbDictionary
  0
DICTIONARY
  5
1A
102
{ACAD_REACTORS
330
C
102
}
330
C
100
AcDbDictionary
  0
DICTIONARY
  5
17
102
{ACAD_REACTORS
330
C
102
}
330
C
100
AcDbDictionary
  3
STANDARD
350
18
  0
DICTIONARY
  5
19
102
{ACAD_REACTORS
330
C
102
}
330
C
100
AcDbDictionary
  0
DICTIONARY
  5
B0
102
{ACAD_REACTORS
330
C
102
}
330
C
100
AcDbDictionary
  3
CEPSNTYPE
350
B9
  3
DIMSTYLEDATA
350
CF
  3
FINGERPRINTGUID
350
BA
  3
HYPERLINKBASE
350
B3
  3
INSUNITS
350
B8
  3
LAYOUTDICT
350
B5
  3
LWETCUNION
350
B7
  3
PLOTSETDICT
350
B6
  3
PSVPSCALE
350
BC
  3
PUCSBASE
350
BF
  3
PUCSORGBACK
350
C5
  3
PUCSORGBOTTOM
350
C1
  3
PUCSORGFRONT
350
C4
  3
PUCSORGLEFT
350
C2
  3
PUCSORGRIGHT
350
C3
  3
PUCSORGTOP
350
C0
  3
PUCSORTHOREF
350
BD
  3
PUCSORTHOVIEW
350
BE
  3
STYLESHEET
350
B4
  3
TSTACKALIGN
350
B1
  3
TSTACKSIZE
350
B2
  3
UCSBASE
350
C8
  3
UCSORGBACK
350
CE
  3
UCSORGBOTTOM
350
CA
  3
UCSORGFRONT
350
CD
  3
UCSORGLEFT
350
CB
  3
UCSORGRIGHT
350
CC
  3
UCSORGTOP
350
C9
  3
UCSORTHOREF
350
C6
  3
UCSORTHOVIEW
350
C7
  3
VERSIONGUID
350
BB
  0
XRECORD
  5
D1
102
{ACAD_REACTORS
330
D0
102
}
330
D0
100
AcDbXrecord
102
UCS
 74
     0
 71
     1
 10
0.0
 20
0.0
 30
0.0
 10
1.0
 20
0.0
 30
0.0
 10
0.0
 20
1.0
 30
0.0
146
0.0
 79
     0
102
VIEW
281
     0
  0
MLINESTYLE
  5
18
102
{ACAD_REACTORS
330
17
102
}
330
17
100
AcDbMlineStyle
  2
Standard
 70
     0
  3

 62
   256
 51
90.0
 52
90.0
 71
     2
 49
0.5
 62
   256
  6
BYLAYER
 49
-0.5
 62
   256
  6
BYLAYER
  0
XRECORD
  5
B9
102
{ACAD_REACTORS
330
B0
102
}
330
B0
100
AcDbXrecord
 90
        0
  0
XRECORD
  5
CF
102
{ACAD_REACTORS
330
B0
102
}
330
B0
100
AcDbXrecord
1000
DSTYLE
1002
{
1070
   340
340
11
1002
}
  0
XRECORD
  5
BA
102
{ACAD_REACTORS
330
B0
102
}
330
B0
100
AcDbXrecord
  1
{FAEB1C30-E019-11D5-929B-00C0DF256EC4}
  0
XRECORD
  5
B3
102
{ACAD_REACTORS
330
B0
102
}
330
B0
100
AcDbXrecord
  1

  0
XRECORD
  5
B8
102
{ACAD_REACTORS
330
B0
102
}
330
B0
100
AcDbXrecord
 90
        1
  0
XRECORD
  5
B5
102
{ACAD_REACTORS
330
B0
102
}
330
B0
100
AcDbXrecord
340
1A
  0
XRECORD
  5
B7
102
{ACAD_REACTORS
330
B0
102
}
330
B0
100
AcDbXrecord
 90
     2560
  0
XRECORD
  5
B6
102
{ACAD_REACTORS
330
B0
102
}
330
B0
100
AcDbXrecord
340
19
  0
XRECORD
  5
BC
102
{ACAD_REACTORS
330
B0
102
}
330
B0
100
AcDbXrecord
 40
0.0
  0
XRECORD
  5
BF
102
{ACAD_REACTORS
330
B0
102
}
330
B0
100
AcDbXrecord
340
0
  0
XRECORD
  5
C5
102
{ACAD_REACTORS
330
B0
102
}
330
B0
100
AcDbXrecord
 10
0.0
 20
0.0
 30
0.0
  0
XRECORD
  5
C1
102
{ACAD_REACTORS
330
B0
102
}
330
B0
100
AcDbXrecord
 10
0.0
 20
0.0
 30
0.0
  0
XRECORD
  5
C4
102
{ACAD_REACTORS
330
B0
102
}
330
B0
100
AcDbXrecord
 10
0.0
 20
0.0
 30
0.0
  0
XRECORD
  5
C2
102
{ACAD_REACTORS
330
B0
102
}
330
B0
100
AcDbXrecord
 10
0.0
 20
0.0
 30
0.0
  0
XRECORD
  5
C3
102
{ACAD_REACTORS
330
B0
102
}
330
B0
100
AcDbXrecord
 10
0.0
 20
0.0
 30
0.0
  0
XRECORD
  5
C0
102
{ACAD_REACTORS
330
B0
102
}
330
B0
100
AcDbXrecord
 10
0.0
 20
0.0
 30
0.0
  0
XRECORD
  5
BD
102
{ACAD_REACTORS
330
B0
102
}
330
B0
100
AcDbXrecord
340
0
  0
XRECORD
  5
BE
102
{ACAD_REACTORS
330
B0
102
}
330
B0
100
AcDbXrecord
 70
     0
  0
XRECORD
  5
B4
102
{ACAD_REACTORS
330
B0
102
}
330
B0
100
AcDbXrecord
  1

  0
XRECORD
  5
B1
102
{ACAD_REACTORS
330
B0
102
}
330
B0
100
AcDbXrecord
 90
        1
  0
XRECORD
  5
B2
102
{ACAD_REACTORS
330
B0
102
}
330
B0
100
AcDbXrecord
 90
       70
  0
XRECORD
  5
C8
102
{ACAD_REACTORS
330
B0
102
}
330
B0
100
AcDbXrecord
340
0
  0
XRECORD
  5
CE
102
{ACAD_REACTORS
330
B0
102
}
330
B0
100
AcDbXrecord
 10
0.0
 20
0.0
 30
0.0
  0
XRECORD
  5
CA
102
{ACAD_REACTORS
330
B0
102
}
330
B0
100
AcDbXrecord
 10
0.0
 20
0.0
 30
0.0
  0
XRECORD
  5
CD
102
{ACAD_REACTORS
330
B0
102
}
330
B0
100
AcDbXrecord
 10
0.0
 20
0.0
 30
0.0
  0
XRECORD
  5
CB
102
{ACAD_REACTORS
330
B0
102
}
330
B0
100
AcDbXrecord
 10
0.0
 20
0.0
 30
0.0
  0
XRECORD
  5
CC
102
{ACAD_REACTORS
330
B0
102
}
330
B0
100
AcDbXrecord
 10
0.0
 20
0.0
 30
0.0
  0
XRECORD
  5
C9
102
{ACAD_REACTORS
330
B0
102
}
330
B0
100
AcDbXrecord
 10
0.0
 20
0.0
 30
0.0
  0
XRECORD
  5
C6
102
{ACAD_REACTORS
330
B0
102
}
330
B0
100
AcDbXrecord
340
0
  0
XRECORD
  5
C7
102
{ACAD_REACTORS
330
B0
102
}
330
B0
100
AcDbXrecord
 70
     0
  0
XRECORD
  5
BB
102
{ACAD_REACTORS
330
B0
102
}
330
B0
100
AcDbXrecord
  1
{FAEB1C32-E019-11D5-929B-00C0DF256EC4}
  0
ENDSEC
  0
EOF
