  0
SECTION
  2
HEADER
  9
$ACADVER
  1
AC1014
  9
$ACADMAINTVER
 70
     9
  9
$DWGCODEPAGE
  3
ANSI_1252
  9
$INSBASE
 10
0.0
 20
0.0
 30
0.0
  9
$EXTMIN
 10
-0.4618818897637795
 20
-0.4028110236220472
 30
0.0
  9
$EXTMAX
 10
1.266145669291339
 20
2.967629921259843
 30
0.0
  9
$LIMMIN
 10
0.0
 20
0.0
  9
$LIMMAX
 10
12.0
 20
9.0
  9
$ORTHOMODE
 70
     0
  9
$REGENMODE
 70
     1
  9
$FILLMODE
 70
     1
  9
$QTEXTMODE
 70
     0
  9
$MIRRTEXT
 70
     1
  9
$DRAGMODE
 70
     2
  9
$LTSCALE
 40
1.0
  9
$OSMODE
 70
    37
  9
$ATTMODE
 70
     1
  9
$TEXTSIZE
 40
0.2
  9
$TRACEWID
 40
0.05
  9
$TEXTSTYLE
  7
STANDARD
  9
$CLAYER
  8
0
  9
$CELTYPE
  6
BYLAYER
  9
$CECOLOR
 62
   256
  9
$CELTSCALE
 40
1.0
  9
$DELOBJ
 70
     1
  9
$DISPSILH
 70
     0
  9
$DIMSCALE
 40
1.0
  9
$DIMASZ
 40
0.18
  9
$DIMEXO
 40
0.0625
  9
$DIMDLI
 40
0.38
  9
$DIMRND
 40
0.0
  9
$DIMDLE
 40
0.0
  9
$DIMEXE
 40
0.18
  9
$DIMTP
 40
0.0
  9
$DIMTM
 40
0.0
  9
$DIMTXT
 40
0.18
  9
$DIMCEN
 40
0.09
  9
$DIMTSZ
 40
0.0
  9
$DIMTOL
 70
     0
  9
$DIMLIM
 70
     0
  9
$DIMTIH
 70
     1
  9
$DIMTOH
 70
     1
  9
$DIMSE1
 70
     0
  9
$DIMSE2
 70
     0
  9
$DIMTAD
 70
     0
  9
$DIMZIN
 70
     0
  9
$DIMBLK
  1

  9
$DIMASO
 70
     1
  9
$DIMSHO
 70
     1
  9
$DIMPOST
  1

  9
$DIMAPOST
  1

  9
$DIMALT
 70
     0
  9
$DIMALTD
 70
     2
  9
$DIMALTF
 40
25.4
  9
$DIMLFAC
 40
1.0
  9
$DIMTOFL
 70
     0
  9
$DIMTVP
 40
0.0
  9
$DIMTIX
 70
     0
  9
$DIMSOXD
 70
     0
  9
$DIMSAH
 70
     0
  9
$DIMBLK1
  1

  9
$DIMBLK2
  1

  9
$DIMSTYLE
  2
STANDARD
  9
$DIMCLRD
 70
     0
  9
$DIMCLRE
 70
     0
  9
$DIMCLRT
 70
     0
  9
$DIMTFAC
 40
1.0
  9
$DIMGAP
 40
0.09
  9
$DIMJUST
 70
     0
  9
$DIMSD1
 70
     0
  9
$DIMSD2
 70
     0
  9
$DIMTOLJ
 70
     1
  9
$DIMTZIN
 70
     0
  9
$DIMALTZ
 70
     0
  9
$DIMALTTZ
 70
     0
  9
$DIMFIT
 70
     3
  9
$DIMUPT
 70
     0
  9
$DIMUNIT
 70
     2
  9
$DIMDEC
 70
     4
  9
$DIMTDEC
 70
     4
  9
$DIMALTU
 70
     2
  9
$DIMALTTD
 70
     2
  9
$DIMTXSTY
  7
STANDARD
  9
$DIMAUNIT
 70
     0
  9
$LUNITS
 70
     2
  9
$LUPREC
 70
     4
  9
$SKETCHINC
 40
0.1
  9
$FILLETRAD
 40
0.5
  9
$AUNITS
 70
     0
  9
$AUPREC
 70
     0
  9
$MENU
  1
.
  9
$ELEVATION
 40
0.0
  9
$PELEVATION
 40
0.0
  9
$THICKNESS
 40
0.0
  9
$LIMCHECK
 70
     0
  9
$CHAMFERA
 40
0.5
  9
$CHAMFERB
 40
0.5
  9
$CHAMFERC
 40
1.0
  9
$CHAMFERD
 40
0.0
  9
$SKPOLY
 70
     0
  9
$TDCREATE
 40
2454125.617483519
  9
$TDUPDATE
 40
2454125.61748353
  9
$TDINDWG
 40
0.0000000116
  9
$TDUSRTIMER
 40
0.0000000116
  9
$USRTIMER
 70
     1
  9
$ANGBASE
 50
0.0
  9
$ANGDIR
 70
     0
  9
$PDMODE
 70
     0
  9
$PDSIZE
 40
0.0
  9
$PLINEWID
 40
0.0
  9
$COORDS
 70
     1
  9
$SPLFRAME
 70
     0
  9
$SPLINETYPE
 70
     6
  9
$SPLINESEGS
 70
     8
  9
$ATTDIA
 70
     0
  9
$ATTREQ
 70
     1
  9
$HANDLING
 70
     1
  9
$HANDSEED
  5
A0
  9
$SURFTAB1
 70
     6
  9
$SURFTAB2
 70
     6
  9
$SURFTYPE
 70
     6
  9
$SURFU
 70
     6
  9
$SURFV
 70
     6
  9
$UCSNAME
  2

  9
$UCSORG
 10
0.0
 20
0.0
 30
0.0
  9
$UCSXDIR
 10
1.0
 20
0.0
 30
0.0
  9
$UCSYDIR
 10
0.0
 20
1.0
 30
0.0
  9
$PUCSNAME
  2

  9
$PUCSORG
 10
0.0
 20
0.0
 30
0.0
  9
$PUCSXDIR
 10
1.0
 20
0.0
 30
0.0
  9
$PUCSYDIR
 10
0.0
 20
1.0
 30
0.0
  9
$USERI1
 70
     0
  9
$USERI2
 70
     0
  9
$USERI3
 70
     0
  9
$USERI4
 70
     0
  9
$USERI5
 70
     0
  9
$USERR1
 40
0.0
  9
$USERR2
 40
0.0
  9
$USERR3
 40
0.0
  9
$USERR4
 40
0.0
  9
$USERR5
 40
0.0
  9
$WORLDVIEW
 70
     1
  9
$SHADEDGE
 70
     3
  9
$SHADEDIF
 70
    70
  9
$TILEMODE
 70
     1
  9
$MAXACTVP
 70
    64
  9
$PINSBASE
 10
0.0
 20
0.0
 30
0.0
  9
$PLIMCHECK
 70
     0
  9
$PEXTMIN
 10
1.000000000000000E+20
 20
1.000000000000000E+20
 30
1.000000000000000E+20
  9
$PEXTMAX
 10
-1.000000000000000E+20
 20
-1.000000000000000E+20
 30
-1.000000000000000E+20
  9
$PLIMMIN
 10
0.0
 20
0.0
  9
$PLIMMAX
 10
12.0
 20
9.0
  9
$UNITMODE
 70
     0
  9
$VISRETAIN
 70
     1
  9
$PLINEGEN
 70
     0
  9
$PSLTSCALE
 70
     1
  9
$TREEDEPTH
 70
  3020
  9
$PICKSTYLE
 70
     1
  9
$CMLSTYLE
  2
STANDARD
  9
$CMLJUST
 70
     0
  9
$CMLSCALE
 40
1.0
  9
$PROXYGRAPHICS
 70
     1
  9
$MEASUREMENT
 70
     0
  0
ENDSEC
  0
SECTION
  2
CLASSES
  0
CLASS
  1
ACDBDICTIONARYWDFLT
  2
AcDbDictionaryWithDefault
  3
ObjectDBX Classes
 90
        0
280
     0
281
     0
  0
CLASS
  1
XRECORD
  2
AcDbXrecord
  3
AutoCAD 2000
 90
        0
280
     0
281
     0
  0
CLASS
  1
LWPOLYLINE
  2
AcDbPolyline
  3
AutoCAD 2000
 90
        0
280
     0
281
     1
  0
CLASS
  1
HATCH
  2
AcDbHatch
  3
AutoCAD 2000
 90
        0
280
     0
281
     1
  0
CLASS
  1
ACDBPLACEHOLDER
  2
AcDbPlaceHolder
  3
ObjectDBX Classes
 90
        0
280
     0
281
     0
  0
CLASS
  1
LAYOUT
  2
AcDbLayout
  3
ObjectDBX Classes
 90
        0
280
     0
281
     0
  0
ENDSEC
  0
SECTION
  2
TABLES
  0
TABLE
  2
VPORT
  5
8
330
0
100
AcDbSymbolTable
 70
     2
  0
VPORT
  5
29
102
{ACAD_XDICTIONARY
360
9E
102
}
330
8
100
AcDbSymbolTableRecord
100
AcDbViewportTableRecord
  2
*ACTIVE
 70
     0
 10
0.0
 20
0.0
 11
1.0
 21
1.0
 12
10.42990654205607
 22
4.5
 13
0.0
 23
0.0
 14
0.5
 24
0.5
 15
0.5
 25
0.5
 16
0.0
 26
0.0
 36
1.0
 17
0.0
 27
0.0
 37
0.0
 40
9.0
 41
1.972972972850329
 42
50.0
 43
0.0
 44
0.0
 50
0.0
 51
0.0
 71
     0
 72
   100
 73
     1
 74
     3
 75
     0
 76
     0
 77
     0
 78
     0
  0
ENDTAB
  0
TABLE
  2
LTYPE
  5
5
330
0
100
AcDbSymbolTable
 70
     1
  0
LTYPE
  5
14
330
5
100
AcDbSymbolTableRecord
100
AcDbLinetypeTableRecord
  2
BYBLOCK
 70
     0
  3

 72
    65
 73
     0
 40
0.0
  0
LTYPE
  5
15
330
5
100
AcDbSymbolTableRecord
100
AcDbLinetypeTableRecord
  2
BYLAYER
 70
     0
  3

 72
    65
 73
     0
 40
0.0
  0
LTYPE
  5
16
330
5
100
AcDbSymbolTableRecord
100
AcDbLinetypeTableRecord
  2
CONTINUOUS
 70
     0
  3
Solid line
 72
    65
 73
     0
 40
0.0
  0
ENDTAB
  0
TABLE
  2
LAYER
  5
2
330
0
100
AcDbSymbolTable
 70
     2
  0
LAYER
  5
10
330
2
100
AcDbSymbolTableRecord
100
AcDbLayerTableRecord
  2
0
 70
     0
 62
     7
  6
CONTINUOUS
  0
LAYER
  5
2B
330
2
100
AcDbSymbolTableRecord
100
AcDbLayerTableRecord
  2
LAYER_1
 70
     0
 62
     7
  6
CONTINUOUS
  0
ENDTAB
  0
TABLE
  2
STYLE
  5
3
330
0
100
AcDbSymbolTable
 70
     1
  0
STYLE
  5
11
330
3
100
AcDbSymbolTableRecord
100
AcDbTextStyleTableRecord
  2
STANDARD
 70
     0
 40
0.0
 41
1.0
 50
0.0
 71
     0
 42
0.2
  3
txt
  4

  0
ENDTAB
  0
TABLE
  2
VIEW
  5
6
330
0
100
AcDbSymbolTable
 70
     0
  0
ENDTAB
  0
TABLE
  2
UCS
  5
7
330
0
100
AcDbSymbolTable
 70
     0
  0
ENDTAB
  0
TABLE
  2
APPID
  5
9
330
0
100
AcDbSymbolTable
 70
     2
  0
APPID
  5
12
330
9
100
AcDbSymbolTableRecord
100
AcDbRegAppTableRecord
  2
ACAD
 70
     0
  0
APPID
  5
2A
330
9
100
AcDbSymbolTableRecord
100
AcDbRegAppTableRecord
  2
ODA
 70
     0
  0
ENDTAB
  0
TABLE
  2
DIMSTYLE
  5
A
330
0
100
AcDbSymbolTable
 70
     1
  0
DIMSTYLE
105
27
330
A
100
AcDbSymbolTableRecord
100
AcDbDimStyleTableRecord
  2
STANDARD
 70
     0
  3

  4

  5

  6

  7

 40
1.0
 41
0.18
 42
0.0625
 43
0.38
 44
0.18
 45
0.0
 46
0.0
 47
0.0
 48
0.0
140
0.18
141
0.09
142
0.0
143
25.4
144
1.0
145
0.0
146
1.0
147
0.09
 71
     0
 72
     0
 73
     1
 74
     1
 75
     0
 76
     0
 77
     0
 78
     0
170
     0
171
     2
172
     0
173
     0
174
     0
175
     0
176
     0
177
     0
178
     0
270
     2
271
     4
272
     4
273
     2
274
     2
340
11
275
     0
280
     0
281
     0
282
     0
283
     1
284
     0
285
     0
286
     0
287
     3
288
     0
  0
ENDTAB
  0
TABLE
  2
BLOCK_RECORD
  5
1
330
0
100
AcDbSymbolTable
 70
     1
  0
BLOCK_RECORD
  5
1F
330
1
100
AcDbSymbolTableRecord
100
AcDbBlockTableRecord
  2
*MODEL_SPACE
  0
BLOCK_RECORD
  5
1B
330
1
100
AcDbSymbolTableRecord
100
AcDbBlockTableRecord
  2
*PAPER_SPACE
  0
ENDTAB
  0
ENDSEC
  0
SECTION
  2
BLOCKS
  0
BLOCK
  5
20
330
1F
100
AcDbEntity
  8
0
100
AcDbBlockBegin
  2
*MODEL_SPACE
 70
     0
 71
     0
 10
0.0
 20
0.0
 30
0.0
  3
*MODEL_SPACE
  1

  0
ENDBLK
  5
21
330
1F
100
AcDbEntity
  8
0
100
AcDbBlockEnd
  0
BLOCK
  5
1C
330
1B
100
AcDbEntity
 67
     1
  8
0
100
AcDbBlockBegin
  2
*PAPER_SPACE
 70
     0
 71
     0
 10
0.0
 20
0.0
 30
0.0
  3
*PAPER_SPACE
  1

  0
ENDBLK
  5
1D
330
1B
100
AcDbEntity
 67
     1
  8
0
100
AcDbBlockEnd
  0
ENDSEC
  0
SECTION
  2
ENTITIES
  0
SPLINE
  5
2C
330
1F
100
AcDbEntity
  8
LAYER_1
 62
   250
100
AcDbSpline
210
0.0
220
0.0
230
1.0
 70
    11
 71
     3
 72
    28
 73
    24
 74
     0
 42
0.0000000001
 43
0.0000000001
 40
0.0
 40
0.0
 40
0.0
 40
0.0
 40
0.1666666666666667
 40
0.1666666666666667
 40
0.1666666666666667
 40
0.1666666666666667
 40
0.3333333333333333
 40
0.3333333333333333
 40
0.3333333333333333
 40
0.3333333333333333
 40
0.5
 40
0.5
 40
0.5
 40
0.5
 40
0.6666666666666666
 40
0.6666666666666666
 40
0.6666666666666666
 40
0.6666666666666666
 40
0.8333333333333333
 40
0.8333333333333333
 40
0.8333333333333333
 40
0.8333333333333333
 40
1.0
 40
1.0
 40
1.0
 40
1.0
 10
-0.404740157480315
 20
0.5813740157480315
 30
0.0
 10
-0.404740157480315
 20
0.5813740157480315
 30
0.0
 10
0.1053464566929134
 20
0.5813740157480315
 30
0.0
 10
0.1053464566929134
 20
0.5813740157480315
 30
0.0
 10
0.1053464566929134
 20
0.5813740157480315
 30
0.0
 10
0.2117007874015748
 20
0.5837952755905512
 30
0.0
 10
0.2286181102362205
 20
0.6733346456692914
 30
0.0
 10
0.2262007874015748
 20
0.774984251968504
 30
0.0
 10
0.2262007874015748
 20
0.774984251968504
 30
0.0
 10
0.2262007874015748
 20
0.774984251968504
 30
0.0
 10
0.4773385826771654
 20
0.774984251968504
 30
0.0
 10
0.4773385826771654
 20
0.774984251968504
 30
0.0
 10
0.4773385826771654
 20
0.774984251968504
 30
0.0
 10
0.4773385826771654
 20
0.774984251968504
 30
0.0
 10
0.4775826771653544
 20
0.1186771653543307
 30
0.0
 10
0.4775826771653544
 20
0.1186771653543307
 30
0.0
 10
0.4775826771653544
 20
0.1186771653543307
 30
0.0
 10
0.4775826771653544
 20
0.1186771653543307
 30
0.0
 10
-0.4046653543307087
 20
0.1186771653543307
 30
0.0
 10
-0.4046653543307087
 20
0.1186771653543307
 30
0.0
 10
-0.4046653543307087
 20
0.1186771653543307
 30
0.0
 10
-0.4046653543307087
 20
0.1186771653543307
 30
0.0
 10
-0.404740157480315
 20
0.5813740157480315
 30
0.0
 10
-0.404740157480315
 20
0.5813740157480315
 30
0.0
  0
SPLINE
  5
2D
330
1F
100
AcDbEntity
  8
LAYER_1
 62
   250
100
AcDbSpline
210
0.0
220
0.0
230
1.0
 70
    11
 71
     3
 72
   104
 73
   100
 74
     0
 42
0.0000000001
 43
0.0000000001
 40
0.0
 40
0.0
 40
0.0
 40
0.0
 40
0.04
 40
0.04
 40
0.04
 40
0.04
 40
0.08
 40
0.08
 40
0.08
 40
0.08
 40
0.12
 40
0.12
 40
0.12
 40
0.12
 40
0.16
 40
0.16
 40
0.16
 40
0.16
 40
0.2
 40
0.2
 40
0.2
 40
0.2
 40
0.24
 40
0.24
 40
0.24
 40
0.24
 40
0.28
 40
0.28
 40
0.28
 40
0.28
 40
0.32
 40
0.32
 40
0.32
 40
0.32
 40
0.36
 40
0.36
 40
0.36
 40
0.36
 40
0.4
 40
0.4
 40
0.4
 40
0.4
 40
0.44
 40
0.44
 40
0.44
 40
0.44
 40
0.4799999999999999
 40
0.4799999999999999
 40
0.4799999999999999
 40
0.4799999999999999
 40
0.5199999999999999
 40
0.5199999999999999
 40
0.5199999999999999
 40
0.5199999999999999
 40
0.5599999999999999
 40
0.5599999999999999
 40
0.5599999999999999
 40
0.5599999999999999
 40
0.6
 40
0.6
 40
0.6
 40
0.6
 40
0.64
 40
0.64
 40
0.64
 40
0.64
 40
0.6800000000000001
 40
0.6800000000000001
 40
0.6800000000000001
 40
0.6800000000000001
 40
0.7200000000000001
 40
0.7200000000000001
 40
0.7200000000000001
 40
0.7200000000000001
 40
0.7600000000000001
 40
0.7600000000000001
 40
0.7600000000000001
 40
0.7600000000000001
 40
0.8000000000000002
 40
0.8000000000000002
 40
0.8000000000000002
 40
0.8000000000000002
 40
0.8400000000000002
 40
0.8400000000000002
 40
0.8400000000000002
 40
0.8400000000000002
 40
0.8800000000000002
 40
0.8800000000000002
 40
0.8800000000000002
 40
0.8800000000000002
 40
0.9200000000000003
 40
0.9200000000000003
 40
0.9200000000000003
 40
0.9200000000000003
 40
0.9600000000000003
 40
0.9600000000000003
 40
0.9600000000000003
 40
0.9600000000000003
 40
1.0
 40
1.0
 40
1.0
 40
1.0
 10
-0.3601220472440945
 20
-0.0654763779527559
 30
0.0
 10
-0.3601220472440945
 20
-0.0654763779527559
 30
0.0
 10
-0.3061496062992126
 20
-0.0654763779527559
 30
0.0
 10
-0.3061496062992126
 20
-0.0654763779527559
 30
0.0
 10
-0.3061496062992126
 20
-0.0654763779527559
 30
0.0
 10
-0.2929803149606299
 20
-0.0654763779527559
 30
0.0
 10
-0.2839527559055118
 20
-0.0660866141732284
 30
0.0
 10
-0.2790669291338583
 20
-0.0672834645669291
 30
0.0
 10
-0.2790669291338583
 20
-0.0672834645669291
 30
0.0
 10
-0.2718425196850394
 20
-0.069003937007874
 30
0.0
 10
-0.2661496062992126
 20
-0.0721417322834646
 30
0.0
 10
-0.2619251968503937
 20
-0.0767007874015748
 30
0.0
 10
-0.2619251968503937
 20
-0.0767007874015748
 30
0.0
 10
-0.257732283464567
 20
-0.081255905511811
 30
0.0
 10
-0.2556220472440945
 20
-0.086755905511811
 30
0.0
 10
-0.2556220472440945
 20
-0.0931417322834646
 30
0.0
 10
-0.2556220472440945
 20
-0.0931417322834646
 30
0.0
 10
-0.2556220472440945
 20
-0.097755905511811
 30
0.0
 10
-0.256732283464567
 20
-0.1018937007874016
 30
0.0
 10
-0.2589527559055118
 20
-0.1055590551181102
 30
0.0
 10
-0.2589527559055118
 20
-0.1055590551181102
 30
0.0
 10
-0.2611771653543307
 20
-0.1092283464566929
 30
0.0
 10
-0.2644251968503937
 20
-0.1123661417322835
 30
0.0
 10
-0.2686496062992126
 20
-0.1149488188976378
 30
0.0
 10
-0.2686496062992126
 20
-0.1149488188976378
 30
0.0
 10
-0.2713700787401575
 20
-0.1166417322834646
 30
0.0
 10
-0.2750393700787402
 20
-0.1180866141732284
 30
0.0
 10
-0.2797047244094488
 20
-0.1192834645669291
 30
0.0
 10
-0.2797047244094488
 20
-0.1192834645669291
 30
0.0
 10
-0.2737874015748031
 20
-0.1203661417322835
 30
0.0
 10
-0.2692874015748032
 20
-0.1216692913385827
 30
0.0
 10
-0.2662047244094488
 20
-0.1231692913385827
 30
0.0
 10
-0.2662047244094488
 20
-0.1231692913385827
 30
0.0
 10
-0.2615393700787402
 20
-0.1254488188976378
 30
0.0
 10
-0.2578425196850394
 20
-0.1286968503937008
 30
0.0
 10
-0.2551496062992126
 20
-0.1329488188976378
 30
0.0
 10
-0.2551496062992126
 20
-0.1329488188976378
 30
0.0
 10
-0.2524251968503937
 20
-0.1371692913385827
 30
0.0
 10
-0.2510669291338583
 20
-0.1419488188976378
 30
0.0
 10
-0.2510669291338583
 20
-0.147255905511811
 30
0.0
 10
-0.2510669291338583
 20
-0.147255905511811
 30
0.0
 10
-0.2510669291338583
 20
-0.1524212598425197
 30
0.0
 10
-0.2523976377952756
 20
-0.1571968503937008
 30
0.0
 10
-0.2550669291338583
 20
-0.1615866141732284
 30
0.0
 10
-0.2550669291338583
 20
-0.1615866141732284
 30
0.0
 10
-0.2577047244094488
 20
-0.1659763779527559
 30
0.0
 10
-0.26148031496063
 20
-0.1695866141732283
 30
0.0
 10
-0.2663149606299213
 20
-0.1724212598425197
 30
0.0
 10
-0.2663149606299213
 20
-0.1724212598425197
 30
0.0
 10
-0.2711771653543307
 20
-0.1752244094488189
 30
0.0
 10
-0.2768425196850394
 20
-0.1770314960629921
 30
0.0
 10
-0.2832874015748031
 20
-0.1778385826771654
 30
0.0
 10
-0.2832874015748031
 20
-0.1778385826771654
 30
0.0
 10
-0.2897598425196851
 20
-0.1786141732283465
 30
0.0
 10
-0.2963976377952756
 20
-0.179003937007874
 30
0.0
 10
-0.3032322834645669
 20
-0.179003937007874
 30
0.0
 10
-0.3032322834645669
 20
-0.179003937007874
 30
0.0
 10
-0.3032322834645669
 20
-0.179003937007874
 30
0.0
 10
-0.3601220472440945
 20
-0.179003937007874
 30
0.0
 10
-0.3601220472440945
 20
-0.179003937007874
 30
0.0
 10
-0.3601220472440945
 20
-0.179003937007874
 30
0.0
 10
-0.3601220472440945
 20
-0.179003937007874
 30
0.0
 10
-0.3601220472440945
 20
-0.1721692913385827
 30
0.0
 10
-0.3601220472440945
 20
-0.1721692913385827
 30
0.0
 10
-0.3601220472440945
 20
-0.1721692913385827
 30
0.0
 10
-0.3601220472440945
 20
-0.1721692913385827
 30
0.0
 10
-0.3562874015748032
 20
-0.1721692913385827
 30
0.0
 10
-0.3562874015748032
 20
-0.1721692913385827
 30
0.0
 10
-0.3562874015748032
 20
-0.1721692913385827
 30
0.0
 10
-0.3525905511811024
 20
-0.1721692913385827
 30
0.0
 10
-0.3500905511811024
 20
-0.1715866141732284
 30
0.0
 10
-0.3487322834645669
 20
-0.1704488188976378
 30
0.0
 10
-0.3487322834645669
 20
-0.1704488188976378
 30
0.0
 10
-0.3467598425196851
 20
-0.1688937007874016
 30
0.0
 10
-0.3457874015748031
 20
-0.1662834645669291
 30
0.0
 10
-0.3457874015748031
 20
-0.1626417322834646
 30
0.0
 10
-0.3457874015748031
 20
-0.1626417322834646
 30
0.0
 10
-0.3457874015748031
 20
-0.1626417322834646
 30
0.0
 10
-0.3457874015748031
 20
-0.0837834645669291
 30
0.0
 10
-0.3457874015748031
 20
-0.0837834645669291
 30
0.0
 10
-0.3457874015748031
 20
-0.0837834645669291
 30
0.0
 10
-0.3457874015748031
 20
-0.0800866141732283
 30
0.0
 10
-0.3460905511811024
 20
-0.0775866141732283
 30
0.0
 10
-0.3466771653543307
 20
-0.0762283464566929
 30
0.0
 10
-0.3466771653543307
 20
-0.0762283464566929
 30
0.0
 10
-0.3472874015748032
 20
-0.0748661417322835
 30
0.0
 10
-0.3481771653543307
 20
-0.0738937007874016
 30
0.0
 10
-0.3493700787401575
 20
-0.0732834645669291
 30
0.0
 10
-0.3493700787401575
 20
-0.0732834645669291
 30
0.0
 10
-0.3505629921259842
 20
-0.0727007874015748
 30
0.0
 10
-0.3528700787401575
 20
-0.0723937007874016
 30
0.0
 10
-0.3562874015748032
 20
-0.0723937007874016
 30
0.0
 10
-0.3562874015748032
 20
-0.0723937007874016
 30
0.0
 10
-0.3562874015748032
 20
-0.0723937007874016
 30
0.0
 10
-0.3601220472440945
 20
-0.0723937007874016
 30
0.0
 10
-0.3601220472440945
 20
-0.0723937007874016
 30
0.0
 10
-0.3601220472440945
 20
-0.0723937007874016
 30
0.0
 10
-0.3601220472440945
 20
-0.0723937007874016
 30
0.0
 10
-0.3601220472440945
 20
-0.0654763779527559
 30
0.0
 10
-0.3601220472440945
 20
-0.0654763779527559
 30
0.0
  0
SPLINE
  5
2E
330
1F
100
AcDbEntity
  8
LAYER_1
 62
   250
100
AcDbSpline
210
0.0
220
0.0
230
1.0
 70
    11
 71
     3
 72
    40
 73
    36
 74
     0
 42
0.0000000001
 43
0.0000000001
 40
0.0
 40
0.0
 40
0.0
 40
0.0
 40
0.1111111111111111
 40
0.1111111111111111
 40
0.1111111111111111
 40
0.1111111111111111
 40
0.2222222222222222
 40
0.2222222222222222
 40
0.2222222222222222
 40
0.2222222222222222
 40
0.3333333333333333
 40
0.3333333333333333
 40
0.3333333333333333
 40
0.3333333333333333
 40
0.4444444444444444
 40
0.4444444444444444
 40
0.4444444444444444
 40
0.4444444444444444
 40
0.5555555555555556
 40
0.5555555555555556
 40
0.5555555555555556
 40
0.5555555555555556
 40
0.6666666666666667
 40
0.6666666666666667
 40
0.6666666666666667
 40
0.6666666666666667
 40
0.7777777777777779
 40
0.7777777777777779
 40
0.7777777777777779
 40
0.7777777777777779
 40
0.8888888888888891
 40
0.8888888888888891
 40
0.8888888888888891
 40
0.8888888888888891
 40
1.0
 40
1.0
 40
1.0
 40
1.0
 10
-0.3305629921259843
 20
-0.074503937007874
 30
0.0
 10
-0.3305629921259843
 20
-0.074503937007874
 30
0.0
 10
-0.3305629921259843
 20
-0.1160866141732284
 30
0.0
 10
-0.3305629921259843
 20
-0.1160866141732284
 30
0.0
 10
-0.3305629921259843
 20
-0.1160866141732284
 30
0.0
 10
-0.3305629921259843
 20
-0.1160866141732284
 30
0.0
 10
-0.3098149606299213
 20
-0.1160866141732284
 30
0.0
 10
-0.3098149606299213
 20
-0.1160866141732284
 30
0.0
 10
-0.3098149606299213
 20
-0.1160866141732284
 30
0.0
 10
-0.3001220472440945
 20
-0.1160866141732284
 30
0.0
 10
-0.2934527559055118
 20
-0.1156417322834646
 30
0.0
 10
-0.2898976377952756
 20
-0.1147283464566929
 30
0.0
 10
-0.2898976377952756
 20
-0.1147283464566929
 30
0.0
 10
-0.2842874015748031
 20
-0.113255905511811
 30
0.0
 10
-0.2800393700787402
 20
-0.110755905511811
 30
0.0
 10
-0.2770669291338583
 20
-0.1072283464566929
 30
0.0
 10
-0.2770669291338583
 20
-0.1072283464566929
 30
0.0
 10
-0.2741220472440945
 20
-0.1037007874015748
 30
0.0
 10
-0.2726220472440945
 20
-0.0991692913385827
 30
0.0
 10
-0.2726220472440945
 20
-0.0936417322834646
 30
0.0
 10
-0.2726220472440945
 20
-0.0936417322834646
 30
0.0
 10
-0.2726220472440945
 20
-0.0889763779527559
 30
0.0
 10
-0.2739803149606299
 20
-0.0850866141732284
 30
0.0
 10
-0.2766496062992126
 20
-0.0819488188976378
 30
0.0
 10
-0.2766496062992126
 20
-0.0819488188976378
 30
0.0
 10
-0.2793425196850394
 20
-0.0788385826771654
 30
0.0
 10
-0.2829527559055118
 20
-0.0767007874015748
 30
0.0
 10
-0.2874527559055118
 20
-0.0755590551181102
 30
0.0
 10
-0.2874527559055118
 20
-0.0755590551181102
 30
0.0
 10
-0.2903700787401575
 20
-0.0748661417322835
 30
0.0
 10
-0.2964527559055118
 20
-0.074503937007874
 30
0.0
 10
-0.3056771653543307
 20
-0.074503937007874
 30
0.0
 10
-0.3056771653543307
 20
-0.074503937007874
 30
0.0
 10
-0.3056771653543307
 20
-0.074503937007874
 30
0.0
 10
-0.3305629921259843
 20
-0.074503937007874
 30
0.0
 10
-0.3305629921259843
 20
-0.074503937007874
 30
0.0
  0
SPLINE
  5
2F
330
1F
100
AcDbEntity
  8
LAYER_1
 62
   250
100
AcDbSpline
210
0.0
220
0.0
230
1.0
 70
    11
 71
     3
 72
    52
 73
    48
 74
     0
 42
0.0000000001
 43
0.0000000001
 40
0.0
 40
0.0
 40
0.0
 40
0.0
 40
0.0833333333333333
 40
0.0833333333333333
 40
0.0833333333333333
 40
0.0833333333333333
 40
0.1666666666666667
 40
0.1666666666666667
 40
0.1666666666666667
 40
0.1666666666666667
 40
0.25
 40
0.25
 40
0.25
 40
0.25
 40
0.3333333333333333
 40
0.3333333333333333
 40
0.3333333333333333
 40
0.3333333333333333
 40
0.4166666666666666
 40
0.4166666666666666
 40
0.4166666666666666
 40
0.4166666666666666
 40
0.4999999999999999
 40
0.4999999999999999
 40
0.4999999999999999
 40
0.4999999999999999
 40
0.5833333333333333
 40
0.5833333333333333
 40
0.5833333333333333
 40
0.5833333333333333
 40
0.6666666666666666
 40
0.6666666666666666
 40
0.6666666666666666
 40
0.6666666666666666
 40
0.75
 40
0.75
 40
0.75
 40
0.75
 40
0.8333333333333334
 40
0.8333333333333334
 40
0.8333333333333334
 40
0.8333333333333334
 40
0.9166666666666667
 40
0.9166666666666667
 40
0.9166666666666667
 40
0.9166666666666667
 40
1.0
 40
1.0
 40
1.0
 40
1.0
 10
-0.3305629921259843
 20
-0.1239212598425197
 30
0.0
 10
-0.3305629921259843
 20
-0.1239212598425197
 30
0.0
 10
-0.3305629921259843
 20
-0.1611692913385827
 30
0.0
 10
-0.3305629921259843
 20
-0.1611692913385827
 30
0.0
 10
-0.3305629921259843
 20
-0.1611692913385827
 30
0.0
 10
-0.3305629921259843
 20
-0.1649212598425197
 30
0.0
 10
-0.3303976377952756
 20
-0.1671417322834646
 30
0.0
 10
-0.3300944881889764
 20
-0.1678661417322835
 30
0.0
 10
-0.3300944881889764
 20
-0.1678661417322835
 30
0.0
 10
-0.3296496062992126
 20
-0.1688385826771654
 30
0.0
 10
-0.3287874015748032
 20
-0.169503937007874
 30
0.0
 10
-0.32748031496063
 20
-0.1698937007874016
 30
0.0
 10
-0.32748031496063
 20
-0.1698937007874016
 30
0.0
 10
-0.3265629921259843
 20
-0.1701692913385827
 30
0.0
 10
-0.3239527559055118
 20
-0.1703110236220473
 30
0.0
 10
-0.3196771653543307
 20
-0.1703110236220473
 30
0.0
 10
-0.3196771653543307
 20
-0.1703110236220473
 30
0.0
 10
-0.3196771653543307
 20
-0.1703110236220473
 30
0.0
 10
-0.3085944881889764
 20
-0.1703110236220473
 30
0.0
 10
-0.3085944881889764
 20
-0.1703110236220473
 30
0.0
 10
-0.3085944881889764
 20
-0.1703110236220473
 30
0.0
 10
-0.2976496062992126
 20
-0.1703110236220473
 30
0.0
 10
-0.2898149606299213
 20
-0.1696968503937008
 30
0.0
 10
-0.2851220472440945
 20
-0.1684763779527559
 30
0.0
 10
-0.2851220472440945
 20
-0.1684763779527559
 30
0.0
 10
-0.2804251968503937
 20
-0.167255905511811
 30
0.0
 10
-0.2764251968503937
 20
-0.1646692913385827
 30
0.0
 10
-0.2731220472440945
 20
-0.1607244094488189
 30
0.0
 10
-0.2731220472440945
 20
-0.1607244094488189
 30
0.0
 10
-0.2698149606299213
 20
-0.1568110236220472
 30
0.0
 10
-0.2681496062992126
 20
-0.1520590551181102
 30
0.0
 10
-0.2681496062992126
 20
-0.1465314960629921
 30
0.0
 10
-0.2681496062992126
 20
-0.1465314960629921
 30
0.0
 10
-0.2681496062992126
 20
-0.1418661417322835
 30
0.0
 10
-0.2695078740157481
 20
-0.1377283464566929
 30
0.0
 10
-0.2721771653543307
 20
-0.1341141732283465
 30
0.0
 10
-0.2721771653543307
 20
-0.1341141732283465
 30
0.0
 10
-0.2748700787401575
 20
-0.130503937007874
 30
0.0
 10
-0.2785944881889764
 20
-0.1279212598425197
 30
0.0
 10
-0.2833425196850394
 20
-0.1263110236220472
 30
0.0
 10
-0.2833425196850394
 20
-0.1263110236220472
 30
0.0
 10
-0.2880944881889764
 20
-0.1246968503937008
 30
0.0
 10
-0.296507874015748
 20
-0.1239212598425197
 30
0.0
 10
-0.3085944881889764
 20
-0.1239212598425197
 30
0.0
 10
-0.3085944881889764
 20
-0.1239212598425197
 30
0.0
 10
-0.3085944881889764
 20
-0.1239212598425197
 30
0.0
 10
-0.3305629921259843
 20
-0.1239212598425197
 30
0.0
 10
-0.3305629921259843
 20
-0.1239212598425197
 30
0.0
  0
SPLINE
  5
30
330
1F
100
AcDbEntity
  8
LAYER_1
 62
   250
100
AcDbSpline
210
0.0
220
0.0
230
1.0
 70
    11
 71
     3
 72
   112
 73
   108
 74
     0
 42
0.0000000001
 43
0.0000000001
 40
0.0
 40
0.0
 40
0.0
 40
0.0
 40
0.037037037037037
 40
0.037037037037037
 40
0.037037037037037
 40
0.037037037037037
 40
0.0740740740740741
 40
0.0740740740740741
 40
0.0740740740740741
 40
0.0740740740740741
 40
0.1111111111111111
 40
0.1111111111111111
 40
0.1111111111111111
 40
0.1111111111111111
 40
0.1481481481481481
 40
0.1481481481481481
 40
0.1481481481481481
 40
0.1481481481481481
 40
0.1851851851851852
 40
0.1851851851851852
 40
0.1851851851851852
 40
0.1851851851851852
 40
0.2222222222222222
 40
0.2222222222222222
 40
0.2222222222222222
 40
0.2222222222222222
 40
0.2592592592592592
 40
0.2592592592592592
 40
0.2592592592592592
 40
0.2592592592592592
 40
0.2962962962962963
 40
0.2962962962962963
 40
0.2962962962962963
 40
0.2962962962962963
 40
0.3333333333333333
 40
0.3333333333333333
 40
0.3333333333333333
 40
0.3333333333333333
 40
0.3703703703703704
 40
0.3703703703703704
 40
0.3703703703703704
 40
0.3703703703703704
 40
0.4074074074074074
 40
0.4074074074074074
 40
0.4074074074074074
 40
0.4074074074074074
 40
0.4444444444444444
 40
0.4444444444444444
 40
0.4444444444444444
 40
0.4444444444444444
 40
0.4814814814814815
 40
0.4814814814814815
 40
0.4814814814814815
 40
0.4814814814814815
 40
0.5185185185185185
 40
0.5185185185185185
 40
0.5185185185185185
 40
0.5185185185185185
 40
0.5555555555555556
 40
0.5555555555555556
 40
0.5555555555555556
 40
0.5555555555555556
 40
0.5925925925925926
 40
0.5925925925925926
 40
0.5925925925925926
 40
0.5925925925925926
 40
0.6296296296296295
 40
0.6296296296296295
 40
0.6296296296296295
 40
0.6296296296296295
 40
0.6666666666666665
 40
0.6666666666666665
 40
0.6666666666666665
 40
0.6666666666666665
 40
0.7037037037037035
 40
0.7037037037037035
 40
0.7037037037037035
 40
0.7037037037037035
 40
0.7407407407407405
 40
0.7407407407407405
 40
0.7407407407407405
 40
0.7407407407407405
 40
0.7777777777777775
 40
0.7777777777777775
 40
0.7777777777777775
 40
0.7777777777777775
 40
0.8148148148148144
 40
0.8148148148148144
 40
0.8148148148148144
 40
0.8148148148148144
 40
0.8518518518518514
 40
0.8518518518518514
 40
0.8518518518518514
 40
0.8518518518518514
 40
0.8888888888888884
 40
0.8888888888888884
 40
0.8888888888888884
 40
0.8888888888888884
 40
0.9259259259259254
 40
0.9259259259259254
 40
0.9259259259259254
 40
0.9259259259259254
 40
0.9629629629629624
 40
0.9629629629629624
 40
0.9629629629629624
 40
0.9629629629629624
 40
1.0
 40
1.0
 40
1.0
 40
1.0
 10
-0.1934566929133858
 20
-0.0654763779527559
 30
0.0
 10
-0.1934566929133858
 20
-0.0654763779527559
 30
0.0
 10
-0.1800393700787402
 20
-0.0654763779527559
 30
0.0
 10
-0.1800393700787402
 20
-0.0654763779527559
 30
0.0
 10
-0.1800393700787402
 20
-0.0654763779527559
 30
0.0
 10
-0.1800393700787402
 20
-0.0654763779527559
 30
0.0
 10
-0.1447913385826772
 20
-0.1603661417322835
 30
0.0
 10
-0.1447913385826772
 20
-0.1603661417322835
 30
0.0
 10
-0.1447913385826772
 20
-0.1603661417322835
 30
0.0
 10
-0.1430669291338583
 20
-0.1651417322834646
 30
0.0
 10
-0.1413188976377953
 20
-0.1683110236220473
 30
0.0
 10
-0.1395393700787402
 20
-0.1698385826771654
 30
0.0
 10
-0.1395393700787402
 20
-0.1698385826771654
 30
0.0
 10
-0.1377913385826772
 20
-0.1713937007874016
 30
0.0
 10
-0.1354015748031496
 20
-0.1721692913385827
 30
0.0
 10
-0.1324291338582677
 20
-0.1721692913385827
 30
0.0
 10
-0.1324291338582677
 20
-0.1721692913385827
 30
0.0
 10
-0.1324291338582677
 20
-0.1721692913385827
 30
0.0
 10
-0.1306496062992126
 20
-0.1721692913385827
 30
0.0
 10
-0.1306496062992126
 20
-0.1721692913385827
 30
0.0
 10
-0.1306496062992126
 20
-0.1721692913385827
 30
0.0
 10
-0.1306496062992126
 20
-0.1721692913385827
 30
0.0
 10
-0.1306496062992126
 20
-0.179003937007874
 30
0.0
 10
-0.1306496062992126
 20
-0.179003937007874
 30
0.0
 10
-0.1306496062992126
 20
-0.179003937007874
 30
0.0
 10
-0.1306496062992126
 20
-0.179003937007874
 30
0.0
 10
-0.1710944881889764
 20
-0.179003937007874
 30
0.0
 10
-0.1710944881889764
 20
-0.179003937007874
 30
0.0
 10
-0.1710944881889764
 20
-0.179003937007874
 30
0.0
 10
-0.1710944881889764
 20
-0.179003937007874
 30
0.0
 10
-0.1710944881889764
 20
-0.1721692913385827
 30
0.0
 10
-0.1710944881889764
 20
-0.1721692913385827
 30
0.0
 10
-0.1710944881889764
 20
-0.1721692913385827
 30
0.0
 10
-0.1697913385826772
 20
-0.1720590551181102
 30
0.0
 10
-0.1685118110236221
 20
-0.172003937007874
 30
0.0
 10
-0.167259842519685
 20
-0.172003937007874
 30
0.0
 10
-0.167259842519685
 20
-0.172003937007874
 30
0.0
 10
-0.1646496062992126
 20
-0.172003937007874
 30
0.0
 10
-0.1629566929133858
 20
-0.1717244094488189
 30
0.0
 10
-0.1621220472440945
 20
-0.1711968503937008
 30
0.0
 10
-0.1621220472440945
 20
-0.1711968503937008
 30
0.0
 10
-0.1605669291338583
 20
-0.1701692913385827
 30
0.0
 10
-0.1597637795275591
 20
-0.1688661417322835
 30
0.0
 10
-0.1597637795275591
 20
-0.1672834645669291
 30
0.0
 10
-0.1597637795275591
 20
-0.1672834645669291
 30
0.0
 10
-0.1597637795275591
 20
-0.1661417322834646
 30
0.0
 10
-0.1605393700787402
 20
-0.1633661417322835
 30
0.0
 10
-0.1620393700787402
 20
-0.1588937007874016
 30
0.0
 10
-0.1620393700787402
 20
-0.1588937007874016
 30
0.0
 10
-0.1620393700787402
 20
-0.1588937007874016
 30
0.0
 10
-0.1695393700787402
 20
-0.1369212598425197
 30
0.0
 10
-0.1695393700787402
 20
-0.1369212598425197
 30
0.0
 10
-0.1695393700787402
 20
-0.1369212598425197
 30
0.0
 10
-0.1695393700787402
 20
-0.1369212598425197
 30
0.0
 10
-0.2107047244094488
 20
-0.1369212598425197
 30
0.0
 10
-0.2107047244094488
 20
-0.1369212598425197
 30
0.0
 10
-0.2107047244094488
 20
-0.1369212598425197
 30
0.0
 10
-0.2107047244094488
 20
-0.1369212598425197
 30
0.0
 10
-0.2195118110236221
 20
-0.161503937007874
 30
0.0
 10
-0.2195118110236221
 20
-0.161503937007874
 30
0.0
 10
-0.2195118110236221
 20
-0.161503937007874
 30
0.0
 10
-0.2204291338582677
 20
-0.1640590551181103
 30
0.0
 10
-0.2209015748031496
 20
-0.1658110236220473
 30
0.0
 10
-0.2209015748031496
 20
-0.1668110236220473
 30
0.0
 10
-0.2209015748031496
 20
-0.1668110236220473
 30
0.0
 10
-0.2209015748031496
 20
-0.1678937007874016
 30
0.0
 10
-0.2205944881889764
 20
-0.1688385826771654
 30
0.0
 10
-0.2200393700787402
 20
-0.1696417322834646
 30
0.0
 10
-0.2200393700787402
 20
-0.1696417322834646
 30
0.0
 10
-0.2194566929133859
 20
-0.1704488188976378
 30
0.0
 10
-0.2187047244094488
 20
-0.1710590551181102
 30
0.0
 10
-0.2177047244094488
 20
-0.1714763779527559
 30
0.0
 10
-0.2177047244094488
 20
-0.1714763779527559
 30
0.0
 10
-0.2167322834645669
 20
-0.1718937007874016
 30
0.0
 10
-0.2151771653543307
 20
-0.1720866141732284
 30
0.0
 10
-0.212984251968504
 20
-0.1720866141732284
 30
0.0
 10
-0.212984251968504
 20
-0.1720866141732284
 30
0.0
 10
-0.2115393700787402
 20
-0.1720866141732284
 30
0.0
 10
-0.2103464566929134
 20
-0.1721141732283465
 30
0.0
 10
-0.2094291338582677
 20
-0.1721692913385827
 30
0.0
 10
-0.2094291338582677
 20
-0.1721692913385827
 30
0.0
 10
-0.2094291338582677
 20
-0.1721692913385827
 30
0.0
 10
-0.2094291338582677
 20
-0.179003937007874
 30
0.0
 10
-0.2094291338582677
 20
-0.179003937007874
 30
0.0
 10
-0.2094291338582677
 20
-0.179003937007874
 30
0.0
 10
-0.2094291338582677
 20
-0.179003937007874
 30
0.0
 10
-0.2433464566929134
 20
-0.179003937007874
 30
0.0
 10
-0.2433464566929134
 20
-0.179003937007874
 30
0.0
 10
-0.2433464566929134
 20
-0.179003937007874
 30
0.0
 10
-0.2433464566929134
 20
-0.179003937007874
 30
0.0
 10
-0.2433464566929134
 20
-0.1721692913385827
 30
0.0
 10
-0.2433464566929134
 20
-0.1721692913385827
 30
0.0
 10
-0.2433464566929134
 20
-0.1721692913385827
 30
0.0
 10
-0.2402047244094488
 20
-0.1721692913385827
 30
0.0
 10
-0.2379291338582677
 20
-0.1718661417322835
 30
0.0
 10
-0.2365669291338583
 20
-0.1712244094488189
 30
0.0
 10
-0.2365669291338583
 20
-0.1712244094488189
 30
0.0
 10
-0.2351771653543307
 20
-0.1706141732283465
 30
0.0
 10
-0.2339566929133858
 20
-0.1696141732283465
 30
0.0
 10
-0.2329291338582677
 20
-0.1682244094488189
 30
0.0
 10
-0.2329291338582677
 20
-0.1682244094488189
 30
0.0
 10
-0.2319015748031496
 20
-0.1668385826771654
 30
0.0
 10
-0.2305393700787402
 20
-0.1639212598425197
 30
0.0
 10
-0.2288740157480315
 20
-0.1594763779527559
 30
0.0
 10
-0.2288740157480315
 20
-0.1594763779527559
 30
0.0
 10
-0.2288740157480315
 20
-0.1594763779527559
 30
0.0
 10
-0.1934566929133858
 20
-0.0654763779527559
 30
0.0
 10
-0.1934566929133858
 20
-0.0654763779527559
 30
0.0
  0
SPLINE
  5
31
330
1F
100
AcDbEntity
  8
LAYER_1
 62
   250
100
AcDbSpline
210
0.0
220
0.0
230
1.0
 70
    11
 71
     3
 72
    16
 73
    12
 74
     0
 42
0.0000000001
 43
0.0000000001
 40
0.0
 40
0.0
 40
0.0
 40
0.0
 40
0.3333333333333333
 40
0.3333333333333333
 40
0.3333333333333333
 40
0.3333333333333333
 40
0.6666666666666666
 40
0.6666666666666666
 40
0.6666666666666666
 40
0.6666666666666666
 40
1.0
 40
1.0
 40
1.0
 40
1.0
 10
-0.2077047244094488
 20
-0.1289488188976378
 30
0.0
 10
-0.2077047244094488
 20
-0.1289488188976378
 30
0.0
 10
-0.1726220472440945
 20
-0.1289488188976378
 30
0.0
 10
-0.1726220472440945
 20
-0.1289488188976378
 30
0.0
 10
-0.1726220472440945
 20
-0.1289488188976378
 30
0.0
 10
-0.1726220472440945
 20
-0.1289488188976378
 30
0.0
 10
-0.1902047244094488
 20
-0.0801141732283465
 30
0.0
 10
-0.1902047244094488
 20
-0.0801141732283465
 30
0.0
 10
-0.1902047244094488
 20
-0.0801141732283465
 30
0.0
 10
-0.1902047244094488
 20
-0.0801141732283465
 30
0.0
 10
-0.2077047244094488
 20
-0.1289488188976378
 30
0.0
 10
-0.2077047244094488
 20
-0.1289488188976378
 30
0.0
  0
SPLINE
  5
32
330
1F
100
AcDbEntity
  8
LAYER_1
 62
   250
100
AcDbSpline
210
0.0
220
0.0
230
1.0
 70
    11
 71
     3
 72
    72
 73
    68
 74
     0
 42
0.0000000001
 43
0.0000000001
 40
0.0
 40
0.0
 40
0.0
 40
0.0
 40
0.0588235294117647
 40
0.0588235294117647
 40
0.0588235294117647
 40
0.0588235294117647
 40
0.1176470588235294
 40
0.1176470588235294
 40
0.1176470588235294
 40
0.1176470588235294
 40
0.1764705882352941
 40
0.1764705882352941
 40
0.1764705882352941
 40
0.1764705882352941
 40
0.2352941176470588
 40
0.2352941176470588
 40
0.2352941176470588
 40
0.2352941176470588
 40
0.2941176470588235
 40
0.2941176470588235
 40
0.2941176470588235
 40
0.2941176470588235
 40
0.3529411764705883
 40
0.3529411764705883
 40
0.3529411764705883
 40
0.3529411764705883
 40
0.411764705882353
 40
0.411764705882353
 40
0.411764705882353
 40
0.411764705882353
 40
0.4705882352941177
 40
0.4705882352941177
 40
0.4705882352941177
 40
0.4705882352941177
 40
0.5294117647058824
 40
0.5294117647058824
 40
0.5294117647058824
 40
0.5294117647058824
 40
0.5882352941176471
 40
0.5882352941176471
 40
0.5882352941176471
 40
0.5882352941176471
 40
0.6470588235294118
 40
0.6470588235294118
 40
0.6470588235294118
 40
0.6470588235294118
 40
0.7058823529411765
 40
0.7058823529411765
 40
0.7058823529411765
 40
0.7058823529411765
 40
0.7647058823529412
 40
0.7647058823529412
 40
0.7647058823529412
 40
0.7647058823529412
 40
0.823529411764706
 40
0.823529411764706
 40
0.823529411764706
 40
0.823529411764706
 40
0.8823529411764707
 40
0.8823529411764707
 40
0.8823529411764707
 40
0.8823529411764707
 40
0.9411764705882354
 40
0.9411764705882354
 40
0.9411764705882354
 40
0.9411764705882354
 40
1.0
 40
1.0
 40
1.0
 40
1.0
 10
0.0323779527559055
 20
-0.0654763779527559
 30
0.0
 10
0.0323779527559055
 20
-0.0654763779527559
 30
0.0
 10
0.0384606299212598
 20
-0.0654763779527559
 30
0.0
 10
0.0384606299212598
 20
-0.0654763779527559
 30
0.0
 10
0.0384606299212598
 20
-0.0654763779527559
 30
0.0
 10
0.0384606299212598
 20
-0.0654763779527559
 30
0.0
 10
0.0384606299212598
 20
-0.1597244094488189
 30
0.0
 10
0.0384606299212598
 20
-0.1597244094488189
 30
0.0
 10
0.0384606299212598
 20
-0.1597244094488189
 30
0.0
 10
0.0384606299212598
 20
-0.1641692913385827
 30
0.0
 10
0.0387677165354331
 20
-0.1670314960629921
 30
0.0
 10
0.0393228346456693
 20
-0.1683110236220473
 30
0.0
 10
0.0393228346456693
 20
-0.1683110236220473
 30
0.0
 10
0.0399055118110236
 20
-0.1695866141732283
 30
0.0
 10
0.0408228346456693
 20
-0.1705314960629921
 30
0.0
 10
0.0421259842519685
 20
-0.1711968503937008
 30
0.0
 10
0.0421259842519685
 20
-0.1711968503937008
 30
0.0
 10
0.0434330708661417
 20
-0.1718385826771654
 30
0.0
 10
0.0460157480314961
 20
-0.1721692913385827
 30
0.0
 10
0.0498779527559055
 20
-0.1721692913385827
 30
0.0
 10
0.0498779527559055
 20
-0.1721692913385827
 30
0.0
 10
0.0498779527559055
 20
-0.1721692913385827
 30
0.0
 10
0.0578503937007874
 20
-0.1721692913385827
 30
0.0
 10
0.0578503937007874
 20
-0.1721692913385827
 30
0.0
 10
0.0578503937007874
 20
-0.1721692913385827
 30
0.0
 10
0.0578503937007874
 20
-0.1721692913385827
 30
0.0
 10
0.0578503937007874
 20
-0.179003937007874
 30
0.0
 10
0.0578503937007874
 20
-0.179003937007874
 30
0.0
 10
0.0578503937007874
 20
-0.179003937007874
 30
0.0
 10
0.0578503937007874
 20
-0.179003937007874
 30
0.0
 10
0.0042125984251969
 20
-0.179003937007874
 30
0.0
 10
0.0042125984251969
 20
-0.179003937007874
 30
0.0
 10
0.0042125984251969
 20
-0.179003937007874
 30
0.0
 10
0.0042125984251969
 20
-0.179003937007874
 30
0.0
 10
0.0042125984251969
 20
-0.1721692913385827
 30
0.0
 10
0.0042125984251969
 20
-0.1721692913385827
 30
0.0
 10
0.0042125984251969
 20
-0.1721692913385827
 30
0.0
 10
0.0042125984251969
 20
-0.1721692913385827
 30
0.0
 10
0.0130708661417323
 20
-0.1721692913385827
 30
0.0
 10
0.0130708661417323
 20
-0.1721692913385827
 30
0.0
 10
0.0130708661417323
 20
-0.1721692913385827
 30
0.0
 10
0.0169330708661417
 20
-0.1721692913385827
 30
0.0
 10
0.019488188976378
 20
-0.1718385826771654
 30
0.0
 10
0.0207677165354331
 20
-0.1711417322834646
 30
0.0
 10
0.0207677165354331
 20
-0.1711417322834646
 30
0.0
 10
0.0220433070866142
 20
-0.1704763779527559
 30
0.0
 10
0.0230433070866142
 20
-0.1693937007874016
 30
0.0
 10
0.023740157480315
 20
-0.1678937007874016
 30
0.0
 10
0.023740157480315
 20
-0.1678937007874016
 30
0.0
 10
0.0244330708661417
 20
-0.1663937007874016
 30
0.0
 10
0.0247952755905512
 20
-0.1636692913385827
 30
0.0
 10
0.0247952755905512
 20
-0.1597244094488189
 30
0.0
 10
0.0247952755905512
 20
-0.1597244094488189
 30
0.0
 10
0.0247952755905512
 20
-0.1597244094488189
 30
0.0
 10
0.0247952755905512
 20
-0.082255905511811
 30
0.0
 10
0.0247952755905512
 20
-0.082255905511811
 30
0.0
 10
0.0247952755905512
 20
-0.082255905511811
 30
0.0
 10
0.0247952755905512
 20
-0.082255905511811
 30
0.0
 10
0.0042125984251969
 20
-0.082255905511811
 30
0.0
 10
0.0042125984251969
 20
-0.082255905511811
 30
0.0
 10
0.0042125984251969
 20
-0.082255905511811
 30
0.0
 10
0.0042125984251969
 20
-0.082255905511811
 30
0.0
 10
0.0042125984251969
 20
-0.075255905511811
 30
0.0
 10
0.0042125984251969
 20
-0.075255905511811
 30
0.0
 10
0.0042125984251969
 20
-0.075255905511811
 30
0.0
 10
0.0154330708661417
 20
-0.0736732283464567
 30
0.0
 10
0.0248228346456693
 20
-0.0704212598425197
 30
0.0
 10
0.0323779527559055
 20
-0.0654763779527559
 30
0.0
  0
SPLINE
  5
33
330
1F
100
AcDbEntity
  8
LAYER_1
 62
   250
100
AcDbSpline
210
0.0
220
0.0
230
1.0
 70
    11
 71
     3
 72
    76
 73
    72
 74
     0
 42
0.0000000001
 43
0.0000000001
 40
0.0
 40
0.0
 40
0.0
 40
0.0
 40
0.0555555555555556
 40
0.0555555555555556
 40
0.0555555555555556
 40
0.0555555555555556
 40
0.1111111111111111
 40
0.1111111111111111
 40
0.1111111111111111
 40
0.1111111111111111
 40
0.1666666666666667
 40
0.1666666666666667
 40
0.1666666666666667
 40
0.1666666666666667
 40
0.2222222222222222
 40
0.2222222222222222
 40
0.2222222222222222
 40
0.2222222222222222
 40
0.2777777777777778
 40
0.2777777777777778
 40
0.2777777777777778
 40
0.2777777777777778
 40
0.3333333333333334
 40
0.3333333333333334
 40
0.3333333333333334
 40
0.3333333333333334
 40
0.388888888888889
 40
0.388888888888889
 40
0.388888888888889
 40
0.388888888888889
 40
0.4444444444444445
 40
0.4444444444444445
 40
0.4444444444444445
 40
0.4444444444444445
 40
0.5000000000000001
 40
0.5000000000000001
 40
0.5000000000000001
 40
0.5000000000000001
 40
0.5555555555555557
 40
0.5555555555555557
 40
0.5555555555555557
 40
0.5555555555555557
 40
0.6111111111111113
 40
0.6111111111111113
 40
0.6111111111111113
 40
0.6111111111111113
 40
0.6666666666666669
 40
0.6666666666666669
 40
0.6666666666666669
 40
0.6666666666666669
 40
0.7222222222222224
 40
0.7222222222222224
 40
0.7222222222222224
 40
0.7222222222222224
 40
0.777777777777778
 40
0.777777777777778
 40
0.777777777777778
 40
0.777777777777778
 40
0.8333333333333336
 40
0.8333333333333336
 40
0.8333333333333336
 40
0.8333333333333336
 40
0.8888888888888892
 40
0.8888888888888892
 40
0.8888888888888892
 40
0.8888888888888892
 40
0.9444444444444448
 40
0.9444444444444448
 40
0.9444444444444448
 40
0.9444444444444448
 40
1.0
 40
1.0
 40
1.0
 40
1.0
 10
0.1441850393700787
 20
-0.116003937007874
 30
0.0
 10
0.1506023622047244
 20
-0.1184488188976378
 30
0.0
 10
0.155488188976378
 20
-0.120755905511811
 30
0.0
 10
0.1588503937007874
 20
-0.1229212598425197
 30
0.0
 10
0.1588503937007874
 20
-0.1229212598425197
 30
0.0
 10
0.1637677165354331
 20
-0.1260866141732284
 30
0.0
 10
0.167488188976378
 20
-0.1297834645669291
 30
0.0
 10
0.169988188976378
 20
-0.1340314960629921
 30
0.0
 10
0.169988188976378
 20
-0.1340314960629921
 30
0.0
 10
0.172488188976378
 20
-0.1383110236220473
 30
0.0
 10
0.173740157480315
 20
-0.1429212598425197
 30
0.0
 10
0.173740157480315
 20
-0.1479212598425197
 30
0.0
 10
0.173740157480315
 20
-0.1479212598425197
 30
0.0
 10
0.173740157480315
 20
-0.1568661417322835
 30
0.0
 10
0.1698779527559055
 20
-0.1646141732283465
 30
0.0
 10
0.1621850393700788
 20
-0.1711417322834646
 30
0.0
 10
0.1621850393700788
 20
-0.1711417322834646
 30
0.0
 10
0.1544606299212599
 20
-0.1776968503937008
 30
0.0
 10
0.1440748031496063
 20
-0.1809488188976378
 30
0.0
 10
0.1310157480314961
 20
-0.1809488188976378
 30
0.0
 10
0.1310157480314961
 20
-0.1809488188976378
 30
0.0
 10
0.1171850393700788
 20
-0.1809488188976378
 30
0.0
 10
0.1063228346456693
 20
-0.177255905511811
 30
0.0
 10
0.0984606299212598
 20
-0.1698937007874016
 30
0.0
 10
0.0984606299212598
 20
-0.1698937007874016
 30
0.0
 10
0.0922125984251969
 20
-0.1639763779527559
 30
0.0
 10
0.0891023622047244
 20
-0.1572834645669291
 30
0.0
 10
0.0891023622047244
 20
-0.1497834645669292
 30
0.0
 10
0.0891023622047244
 20
-0.1497834645669292
 30
0.0
 10
0.0891023622047244
 20
-0.143755905511811
 30
0.0
 10
0.0912125984251969
 20
-0.1383661417322835
 30
0.0
 10
0.0954330708661417
 20
-0.1335866141732283
 30
0.0
 10
0.0954330708661417
 20
-0.1335866141732283
 30
0.0
 10
0.1005472440944882
 20
-0.1278937007874016
 30
0.0
 10
0.1078228346456693
 20
-0.1234488188976378
 30
0.0
 10
0.1172677165354331
 20
-0.120255905511811
 30
0.0
 10
0.1172677165354331
 20
-0.120255905511811
 30
0.0
 10
0.1098779527559055
 20
-0.1167834645669291
 30
0.0
 10
0.1045748031496063
 20
-0.113255905511811
 30
0.0
 10
0.1012952755905512
 20
-0.1096692913385827
 30
0.0
 10
0.1012952755905512
 20
-0.1096692913385827
 30
0.0
 10
0.0971299212598425
 20
-0.1049488188976378
 30
0.0
 10
0.0950472440944882
 20
-0.0992834645669291
 30
0.0
 10
0.0950472440944882
 20
-0.0926732283464567
 30
0.0
 10
0.0950472440944882
 20
-0.0926732283464567
 30
0.0
 10
0.0950472440944882
 20
-0.0844763779527559
 30
0.0
 10
0.0981299212598425
 20
-0.0778385826771654
 30
0.0
 10
0.1043228346456693
 20
-0.0728110236220473
 30
0.0
 10
0.1043228346456693
 20
-0.0728110236220473
 30
0.0
 10
0.1119055118110236
 20
-0.0666141732283465
 30
0.0
 10
0.1214055118110236
 20
-0.0635314960629921
 30
0.0
 10
0.1327952755905512
 20
-0.0635314960629921
 30
0.0
 10
0.1327952755905512
 20
-0.0635314960629921
 30
0.0
 10
0.1432125984251969
 20
-0.0635314960629921
 30
0.0
 10
0.1516299212598425
 20
-0.0662007874015748
 30
0.0
 10
0.1580748031496063
 20
-0.0715314960629921
 30
0.0
 10
0.1580748031496063
 20
-0.0715314960629921
 30
0.0
 10
0.164488188976378
 20
-0.0768937007874016
 30
0.0
 10
0.1677125984251969
 20
-0.083003937007874
 30
0.0
 10
0.1677125984251969
 20
-0.0898937007874016
 30
0.0
 10
0.1677125984251969
 20
-0.0898937007874016
 30
0.0
 10
0.1677125984251969
 20
-0.0933110236220473
 30
0.0
 10
0.1669055118110236
 20
-0.0965866141732284
 30
0.0
 10
0.1653228346456693
 20
-0.0997007874015748
 30
0.0
 10
0.1653228346456693
 20
-0.0997007874015748
 30
0.0
 10
0.1637125984251969
 20
-0.1028110236220473
 30
0.0
 10
0.1612677165354331
 20
-0.1057283464566929
 30
0.0
 10
0.1579330708661418
 20
-0.1083937007874016
 30
0.0
 10
0.1579330708661418
 20
-0.1083937007874016
 30
0.0
 10
0.1546299212598425
 20
-0.1110866141732284
 30
0.0
 10
0.1500433070866142
 20
-0.1136141732283465
 30
0.0
 10
0.1441850393700787
 20
-0.116003937007874
 30
0.0
  0
SPLINE
  5
34
330
1F
100
AcDbEntity
  8
LAYER_1
 62
   250
100
AcDbSpline
210
0.0
220
0.0
230
1.0
 70
    11
 71
     3
 72
    48
 73
    44
 74
     0
 42
0.0000000001
 43
0.0000000001
 40
0.0
 40
0.0
 40
0.0
 40
0.0
 40
0.0909090909090909
 40
0.0909090909090909
 40
0.0909090909090909
 40
0.0909090909090909
 40
0.1818181818181818
 40
0.1818181818181818
 40
0.1818181818181818
 40
0.1818181818181818
 40
0.2727272727272727
 40
0.2727272727272727
 40
0.2727272727272727
 40
0.2727272727272727
 40
0.3636363636363637
 40
0.3636363636363637
 40
0.3636363636363637
 40
0.3636363636363637
 40
0.4545454545454546
 40
0.4545454545454546
 40
0.4545454545454546
 40
0.4545454545454546
 40
0.5454545454545455
 40
0.5454545454545455
 40
0.5454545454545455
 40
0.5454545454545455
 40
0.6363636363636365
 40
0.6363636363636365
 40
0.6363636363636365
 40
0.6363636363636365
 40
0.7272727272727274
 40
0.7272727272727274
 40
0.7272727272727274
 40
0.7272727272727274
 40
0.8181818181818183
 40
0.8181818181818183
 40
0.8181818181818183
 40
0.8181818181818183
 40
0.9090909090909093
 40
0.9090909090909093
 40
0.9090909090909093
 40
0.9090909090909093
 40
1.0
 40
1.0
 40
1.0
 40
1.0
 10
0.1367952755905512
 20
-0.113003937007874
 30
0.0
 10
0.1429606299212599
 20
-0.1083385826771654
 30
0.0
 10
0.146988188976378
 20
-0.1050866141732284
 30
0.0
 10
0.1488228346456693
 20
-0.1032283464566929
 30
0.0
 10
0.1488228346456693
 20
-0.1032283464566929
 30
0.0
 10
0.1506850393700787
 20
-0.1013937007874016
 30
0.0
 10
0.1521023622047244
 20
-0.0992834645669291
 30
0.0
 10
0.1531023622047244
 20
-0.0969212598425197
 30
0.0
 10
0.1531023622047244
 20
-0.0969212598425197
 30
0.0
 10
0.1541023622047244
 20
-0.0945590551181102
 30
0.0
 10
0.1546023622047244
 20
-0.0922834645669291
 30
0.0
 10
0.1546023622047244
 20
-0.0900590551181102
 30
0.0
 10
0.1546023622047244
 20
-0.0900590551181102
 30
0.0
 10
0.1546023622047244
 20
-0.0868661417322835
 30
0.0
 10
0.1536574803149606
 20
-0.0838110236220472
 30
0.0
 10
0.1517677165354331
 20
-0.0808937007874016
 30
0.0
 10
0.1517677165354331
 20
-0.0808937007874016
 30
0.0
 10
0.1498503937007874
 20
-0.078003937007874
 30
0.0
 10
0.1470748031496063
 20
-0.0756417322834646
 30
0.0
 10
0.1434055118110236
 20
-0.0738661417322835
 30
0.0
 10
0.1434055118110236
 20
-0.0738661417322835
 30
0.0
 10
0.1397677165354331
 20
-0.0720590551181102
 30
0.0
 10
0.1356574803149606
 20
-0.0711732283464567
 30
0.0
 10
0.1311023622047244
 20
-0.0711732283464567
 30
0.0
 10
0.1311023622047244
 20
-0.0711732283464567
 30
0.0
 10
0.1243503937007874
 20
-0.0711732283464567
 30
0.0
 10
0.1187677165354331
 20
-0.0730314960629921
 30
0.0
 10
0.1143228346456693
 20
-0.076755905511811
 30
0.0
 10
0.1143228346456693
 20
-0.076755905511811
 30
0.0
 10
0.1098779527559055
 20
-0.0804763779527559
 30
0.0
 10
0.1076574803149606
 20
-0.084755905511811
 30
0.0
 10
0.1076574803149606
 20
-0.0896417322834646
 30
0.0
 10
0.1076574803149606
 20
-0.0896417322834646
 30
0.0
 10
0.1076574803149606
 20
-0.0935590551181102
 30
0.0
 10
0.1090472440944882
 20
-0.0970590551181102
 30
0.0
 10
0.1117952755905512
 20
-0.1001417322834646
 30
0.0
 10
0.1117952755905512
 20
-0.1001417322834646
 30
0.0
 10
0.1145748031496063
 20
-0.1032283464566929
 30
0.0
 10
0.1197125984251969
 20
-0.1062834645669291
 30
0.0
 10
0.1272677165354331
 20
-0.109255905511811
 30
0.0
 10
0.1272677165354331
 20
-0.109255905511811
 30
0.0
 10
0.1272677165354331
 20
-0.109255905511811
 30
0.0
 10
0.1367952755905512
 20
-0.113003937007874
 30
0.0
 10
0.1367952755905512
 20
-0.113003937007874
 30
0.0
  0
SPLINE
  5
35
330
1F
100
AcDbEntity
  8
LAYER_1
 62
   250
100
AcDbSpline
210
0.0
220
0.0
230
1.0
 70
    11
 71
     3
 72
    40
 73
    36
 74
     0
 42
0.0000000001
 43
0.0000000001
 40
0.0
 40
0.0
 40
0.0
 40
0.0
 40
0.1111111111111111
 40
0.1111111111111111
 40
0.1111111111111111
 40
0.1111111111111111
 40
0.2222222222222222
 40
0.2222222222222222
 40
0.2222222222222222
 40
0.2222222222222222
 40
0.3333333333333333
 40
0.3333333333333333
 40
0.3333333333333333
 40
0.3333333333333333
 40
0.4444444444444444
 40
0.4444444444444444
 40
0.4444444444444444
 40
0.4444444444444444
 40
0.5555555555555556
 40
0.5555555555555556
 40
0.5555555555555556
 40
0.5555555555555556
 40
0.6666666666666667
 40
0.6666666666666667
 40
0.6666666666666667
 40
0.6666666666666667
 40
0.7777777777777779
 40
0.7777777777777779
 40
0.7777777777777779
 40
0.7777777777777779
 40
0.8888888888888891
 40
0.8888888888888891
 40
0.8888888888888891
 40
0.8888888888888891
 40
1.0
 40
1.0
 40
1.0
 40
1.0
 10
0.1253228346456693
 20
-0.1234212598425197
 30
0.0
 10
0.1176574803149606
 20
-0.1267834645669291
 30
0.0
 10
0.1116023622047244
 20
-0.1311417322834646
 30
0.0
 10
0.1071574803149606
 20
-0.1365314960629921
 30
0.0
 10
0.1071574803149606
 20
-0.1365314960629921
 30
0.0
 10
0.1036850393700787
 20
-0.140755905511811
 30
0.0
 10
0.1019606299212598
 20
-0.1451417322834646
 30
0.0
 10
0.1019606299212598
 20
-0.1496968503937008
 30
0.0
 10
0.1019606299212598
 20
-0.1496968503937008
 30
0.0
 10
0.1019606299212598
 20
-0.1558937007874016
 30
0.0
 10
0.1046850393700787
 20
-0.1613937007874016
 30
0.0
 10
0.1101850393700787
 20
-0.1661968503937008
 30
0.0
 10
0.1101850393700787
 20
-0.1661968503937008
 30
0.0
 10
0.1156574803149606
 20
-0.1709763779527559
 30
0.0
 10
0.122740157480315
 20
-0.1733937007874016
 30
0.0
 10
0.1314055118110236
 20
-0.1733937007874016
 30
0.0
 10
0.1314055118110236
 20
-0.1733937007874016
 30
0.0
 10
0.1402677165354331
 20
-0.1733937007874016
 30
0.0
 10
0.1476299212598425
 20
-0.1706417322834646
 30
0.0
 10
0.1535433070866142
 20
-0.1651692913385827
 30
0.0
 10
0.1535433070866142
 20
-0.1651692913385827
 30
0.0
 10
0.1583779527559055
 20
-0.1607244094488189
 30
0.0
 10
0.1607952755905512
 20
-0.1559488188976378
 30
0.0
 10
0.1607952755905512
 20
-0.1508385826771654
 30
0.0
 10
0.1607952755905512
 20
-0.1508385826771654
 30
0.0
 10
0.1607952755905512
 20
-0.1468385826771654
 30
0.0
 10
0.1592125984251969
 20
-0.143003937007874
 30
0.0
 10
0.1560433070866142
 20
-0.1393385826771654
 30
0.0
 10
0.1560433070866142
 20
-0.1393385826771654
 30
0.0
 10
0.1528503937007874
 20
-0.1356692913385827
 30
0.0
 10
0.1469606299212599
 20
-0.1321141732283465
 30
0.0
 10
0.1383228346456693
 20
-0.1286417322834646
 30
0.0
 10
0.1383228346456693
 20
-0.1286417322834646
 30
0.0
 10
0.1383228346456693
 20
-0.1286417322834646
 30
0.0
 10
0.1253228346456693
 20
-0.1234212598425197
 30
0.0
 10
0.1253228346456693
 20
-0.1234212598425197
 30
0.0
  0
SPLINE
  5
36
330
1F
100
AcDbEntity
  8
LAYER_1
 62
   250
100
AcDbSpline
210
0.0
220
0.0
230
1.0
 70
    11
 71
     3
 72
   136
 73
   132
 74
     0
 42
0.0000000001
 43
0.0000000001
 40
0.0
 40
0.0
 40
0.0
 40
0.0
 40
0.0303030303030303
 40
0.0303030303030303
 40
0.0303030303030303
 40
0.0303030303030303
 40
0.0606060606060606
 40
0.0606060606060606
 40
0.0606060606060606
 40
0.0606060606060606
 40
0.0909090909090909
 40
0.0909090909090909
 40
0.0909090909090909
 40
0.0909090909090909
 40
0.1212121212121212
 40
0.1212121212121212
 40
0.1212121212121212
 40
0.1212121212121212
 40
0.1515151515151515
 40
0.1515151515151515
 40
0.1515151515151515
 40
0.1515151515151515
 40
0.1818181818181818
 40
0.1818181818181818
 40
0.1818181818181818
 40
0.1818181818181818
 40
0.2121212121212121
 40
0.2121212121212121
 40
0.2121212121212121
 40
0.2121212121212121
 40
0.2424242424242424
 40
0.2424242424242424
 40
0.2424242424242424
 40
0.2424242424242424
 40
0.2727272727272727
 40
0.2727272727272727
 40
0.2727272727272727
 40
0.2727272727272727
 40
0.303030303030303
 40
0.303030303030303
 40
0.303030303030303
 40
0.303030303030303
 40
0.3333333333333333
 40
0.3333333333333333
 40
0.3333333333333333
 40
0.3333333333333333
 40
0.3636363636363635
 40
0.3636363636363635
 40
0.3636363636363635
 40
0.3636363636363635
 40
0.3939393939393938
 40
0.3939393939393938
 40
0.3939393939393938
 40
0.3939393939393938
 40
0.4242424242424241
 40
0.4242424242424241
 40
0.4242424242424241
 40
0.4242424242424241
 40
0.4545454545454544
 40
0.4545454545454544
 40
0.4545454545454544
 40
0.4545454545454544
 40
0.4848484848484846
 40
0.4848484848484846
 40
0.4848484848484846
 40
0.4848484848484846
 40
0.5151515151515149
 40
0.5151515151515149
 40
0.5151515151515149
 40
0.5151515151515149
 40
0.5454545454545452
 40
0.5454545454545452
 40
0.5454545454545452
 40
0.5454545454545452
 40
0.5757575757575755
 40
0.5757575757575755
 40
0.5757575757575755
 40
0.5757575757575755
 40
0.6060606060606057
 40
0.6060606060606057
 40
0.6060606060606057
 40
0.6060606060606057
 40
0.636363636363636
 40
0.636363636363636
 40
0.636363636363636
 40
0.636363636363636
 40
0.6666666666666663
 40
0.6666666666666663
 40
0.6666666666666663
 40
0.6666666666666663
 40
0.6969696969696966
 40
0.6969696969696966
 40
0.6969696969696966
 40
0.6969696969696966
 40
0.7272727272727269
 40
0.7272727272727269
 40
0.7272727272727269
 40
0.7272727272727269
 40
0.7575757575757571
 40
0.7575757575757571
 40
0.7575757575757571
 40
0.7575757575757571
 40
0.7878787878787874
 40
0.7878787878787874
 40
0.7878787878787874
 40
0.7878787878787874
 40
0.8181818181818177
 40
0.8181818181818177
 40
0.8181818181818177
 40
0.8181818181818177
 40
0.848484848484848
 40
0.848484848484848
 40
0.848484848484848
 40
0.848484848484848
 40
0.8787878787878782
 40
0.8787878787878782
 40
0.8787878787878782
 40
0.8787878787878782
 40
0.9090909090909085
 40
0.9090909090909085
 40
0.9090909090909085
 40
0.9090909090909085
 40
0.9393939393939388
 40
0.9393939393939388
 40
0.9393939393939388
 40
0.9393939393939388
 40
0.9696969696969691
 40
0.9696969696969691
 40
0.9696969696969691
 40
0.9696969696969691
 40
1.0
 40
1.0
 40
1.0
 40
1.0
 10
0.201992125984252
 20
-0.1082834645669291
 30
0.0
 10
0.201992125984252
 20
-0.1082834645669291
 30
0.0
 10
0.1941023622047244
 20
-0.109255905511811
 30
0.0
 10
0.1941023622047244
 20
-0.109255905511811
 30
0.0
 10
0.1941023622047244
 20
-0.109255905511811
 30
0.0
 10
0.1936574803149606
 20
-0.1054212598425197
 30
0.0
 10
0.1934370078740157
 20
-0.102255905511811
 30
0.0
 10
0.1934370078740157
 20
-0.0998110236220472
 30
0.0
 10
0.1934370078740157
 20
-0.0998110236220472
 30
0.0
 10
0.1934370078740157
 20
-0.0934212598425197
 30
0.0
 10
0.1951850393700788
 20
-0.0873661417322835
 30
0.0
 10
0.1986574803149606
 20
-0.0816732283464567
 30
0.0
 10
0.1986574803149606
 20
-0.0816732283464567
 30
0.0
 10
0.2021299212598425
 20
-0.0759763779527559
 30
0.0
 10
0.2069645669291339
 20
-0.0715314960629921
 30
0.0
 10
0.2131850393700787
 20
-0.0683385826771654
 30
0.0
 10
0.2131850393700787
 20
-0.0683385826771654
 30
0.0
 10
0.2193779527559055
 20
-0.0651141732283465
 30
0.0
 10
0.2265196850393701
 20
-0.0635314960629921
 30
0.0
 10
0.2345472440944882
 20
-0.0635314960629921
 30
0.0
 10
0.2345472440944882
 20
-0.0635314960629921
 30
0.0
 10
0.2422952755905512
 20
-0.0635314960629921
 30
0.0
 10
0.2491023622047244
 20
-0.0650314960629921
 30
0.0
 10
0.2549645669291339
 20
-0.0680314960629921
 30
0.0
 10
0.2549645669291339
 20
-0.0680314960629921
 30
0.0
 10
0.2608228346456693
 20
-0.0710590551181102
 30
0.0
 10
0.2652952755905512
 20
-0.0751732283464567
 30
0.0
 10
0.2684330708661418
 20
-0.0804212598425197
 30
0.0
 10
0.2684330708661418
 20
-0.0804212598425197
 30
0.0
 10
0.2715472440944882
 20
-0.0856417322834646
 30
0.0
 10
0.2731023622047245
 20
-0.0916141732283465
 30
0.0
 10
0.2731023622047245
 20
-0.0983661417322835
 30
0.0
 10
0.2731023622047245
 20
-0.0983661417322835
 30
0.0
 10
0.2731023622047245
 20
-0.1040590551181102
 30
0.0
 10
0.2721023622047245
 20
-0.1093385826771654
 30
0.0
 10
0.2700472440944882
 20
-0.1141692913385827
 30
0.0
 10
0.2700472440944882
 20
-0.1141692913385827
 30
0.0
 10
0.2680196850393701
 20
-0.1190314960629921
 30
0.0
 10
0.264740157480315
 20
-0.1239488188976378
 30
0.0
 10
0.260240157480315
 20
-0.1288661417322835
 30
0.0
 10
0.260240157480315
 20
-0.1288661417322835
 30
0.0
 10
0.2568779527559055
 20
-0.1325590551181103
 30
0.0
 10
0.2500748031496063
 20
-0.1381968503937008
 30
0.0
 10
0.2398228346456693
 20
-0.1458110236220473
 30
0.0
 10
0.2398228346456693
 20
-0.1458110236220473
 30
0.0
 10
0.2269094488188977
 20
-0.1554488188976378
 30
0.0
 10
0.2170196850393701
 20
-0.1624488188976378
 30
0.0
 10
0.2101299212598425
 20
-0.1668110236220473
 30
0.0
 10
0.2101299212598425
 20
-0.1668110236220473
 30
0.0
 10
0.2101299212598425
 20
-0.1668110236220473
 30
0.0
 10
0.2524370078740157
 20
-0.1668110236220473
 30
0.0
 10
0.2524370078740157
 20
-0.1668110236220473
 30
0.0
 10
0.2524370078740157
 20
-0.1668110236220473
 30
0.0
 10
0.2574370078740157
 20
-0.1668110236220473
 30
0.0
 10
0.2606850393700788
 20
-0.1663385826771654
 30
0.0
 10
0.2622125984251968
 20
-0.1654212598425197
 30
0.0
 10
0.2622125984251968
 20
-0.1654212598425197
 30
0.0
 10
0.2643228346456693
 20
-0.1642244094488189
 30
0.0
 10
0.2657677165354331
 20
-0.1614488188976378
 30
0.0
 10
0.2665196850393701
 20
-0.1571141732283465
 30
0.0
 10
0.2665196850393701
 20
-0.1571141732283465
 30
0.0
 10
0.2665196850393701
 20
-0.1571141732283465
 30
0.0
 10
0.267240157480315
 20
-0.1524763779527559
 30
0.0
 10
0.267240157480315
 20
-0.1524763779527559
 30
0.0
 10
0.267240157480315
 20
-0.1524763779527559
 30
0.0
 10
0.267240157480315
 20
-0.1524763779527559
 30
0.0
 10
0.2741574803149606
 20
-0.1524763779527559
 30
0.0
 10
0.2741574803149606
 20
-0.1524763779527559
 30
0.0
 10
0.2741574803149606
 20
-0.1524763779527559
 30
0.0
 10
0.2741574803149606
 20
-0.1524763779527559
 30
0.0
 10
0.2686299212598425
 20
-0.1830590551181102
 30
0.0
 10
0.2686299212598425
 20
-0.1830590551181102
 30
0.0
 10
0.2686299212598425
 20
-0.1830590551181102
 30
0.0
 10
0.2686299212598425
 20
-0.1830590551181102
 30
0.0
 10
0.2634370078740158
 20
-0.1830590551181102
 30
0.0
 10
0.2634370078740158
 20
-0.1830590551181102
 30
0.0
 10
0.2634370078740158
 20
-0.1830590551181102
 30
0.0
 10
0.2634370078740158
 20
-0.1830590551181102
 30
0.0
 10
0.2625196850393701
 20
-0.179003937007874
 30
0.0
 10
0.2625196850393701
 20
-0.179003937007874
 30
0.0
 10
0.2625196850393701
 20
-0.179003937007874
 30
0.0
 10
0.2625196850393701
 20
-0.179003937007874
 30
0.0
 10
0.1914094488188977
 20
-0.179003937007874
 30
0.0
 10
0.1914094488188977
 20
-0.179003937007874
 30
0.0
 10
0.1914094488188977
 20
-0.179003937007874
 30
0.0
 10
0.1914094488188977
 20
-0.179003937007874
 30
0.0
 10
0.1914094488188977
 20
-0.1721692913385827
 30
0.0
 10
0.1914094488188977
 20
-0.1721692913385827
 30
0.0
 10
0.1914094488188977
 20
-0.1721692913385827
 30
0.0
 10
0.1914094488188977
 20
-0.1721692913385827
 30
0.0
 10
0.2044370078740158
 20
-0.1623110236220473
 30
0.0
 10
0.2044370078740158
 20
-0.1623110236220473
 30
0.0
 10
0.2044370078740158
 20
-0.1623110236220473
 30
0.0
 10
0.2142952755905512
 20
-0.155003937007874
 30
0.0
 10
0.2215472440944882
 20
-0.1493937007874016
 30
0.0
 10
0.2261574803149606
 20
-0.1454763779527559
 30
0.0
 10
0.2261574803149606
 20
-0.1454763779527559
 30
0.0
 10
0.2348779527559055
 20
-0.1380866141732283
 30
0.0
 10
0.2414645669291339
 20
-0.1317834645669291
 30
0.0
 10
0.2458779527559055
 20
-0.1265590551181103
 30
0.0
 10
0.2458779527559055
 20
-0.1265590551181103
 30
0.0
 10
0.2502952755905512
 20
-0.1213110236220473
 30
0.0
 10
0.2533503937007874
 20
-0.1165866141732284
 30
0.0
 10
0.254992125984252
 20
-0.1123937007874016
 30
0.0
 10
0.254992125984252
 20
-0.1123937007874016
 30
0.0
 10
0.2566574803149607
 20
-0.1082007874015748
 30
0.0
 10
0.257492125984252
 20
-0.1037834645669291
 30
0.0
 10
0.257492125984252
 20
-0.0991692913385827
 30
0.0
 10
0.257492125984252
 20
-0.0991692913385827
 30
0.0
 10
0.257492125984252
 20
-0.0915314960629921
 30
0.0
 10
0.2550196850393701
 20
-0.085255905511811
 30
0.0
 10
0.2501299212598425
 20
-0.0803661417322835
 30
0.0
 10
0.2501299212598425
 20
-0.0803661417322835
 30
0.0
 10
0.2452125984251969
 20
-0.0754763779527559
 30
0.0
 10
0.2388228346456693
 20
-0.0730590551181102
 30
0.0
 10
0.2309645669291339
 20
-0.0730590551181102
 30
0.0
 10
0.2309645669291339
 20
-0.0730590551181102
 30
0.0
 10
0.2253228346456693
 20
-0.0730590551181102
 30
0.0
 10
0.2202677165354331
 20
-0.074255905511811
 30
0.0
 10
0.2158503937007874
 20
-0.0767007874015748
 30
0.0
 10
0.2158503937007874
 20
-0.0767007874015748
 30
0.0
 10
0.2114370078740158
 20
-0.0791417322834646
 30
0.0
 10
0.2079645669291339
 20
-0.0825590551181102
 30
0.0
 10
0.2054094488188976
 20
-0.0869763779527559
 30
0.0
 10
0.2054094488188976
 20
-0.0869763779527559
 30
0.0
 10
0.2028503937007874
 20
-0.0913661417322835
 30
0.0
 10
0.2015748031496063
 20
-0.0961141732283465
 30
0.0
 10
0.2015748031496063
 20
-0.1012007874015748
 30
0.0
 10
0.2015748031496063
 20
-0.1012007874015748
 30
0.0
 10
0.2015748031496063
 20
-0.1031141732283465
 30
0.0
 10
0.2017125984251969
 20
-0.1054763779527559
 30
0.0
 10
0.201992125984252
 20
-0.1082834645669291
 30
0.0
  0
SPLINE
  5
37
330
1F
100
AcDbEntity
  8
LAYER_1
 62
   250
100
AcDbSpline
210
0.0
220
0.0
230
1.0
 70
    11
 71
     3
 72
    84
 73
    80
 74
     0
 42
0.0000000001
 43
0.0000000001
 40
0.0
 40
0.0
 40
0.0
 40
0.0
 40
0.05
 40
0.05
 40
0.05
 40
0.05
 40
0.1
 40
0.1
 40
0.1
 40
0.1
 40
0.15
 40
0.15
 40
0.15
 40
0.15
 40
0.2
 40
0.2
 40
0.2
 40
0.2
 40
0.25
 40
0.25
 40
0.25
 40
0.25
 40
0.3
 40
0.3
 40
0.3
 40
0.3
 40
0.35
 40
0.35
 40
0.35
 40
0.35
 40
0.4
 40
0.4
 40
0.4
 40
0.4
 40
0.45
 40
0.45
 40
0.45
 40
0.45
 40
0.4999999999999999
 40
0.4999999999999999
 40
0.4999999999999999
 40
0.4999999999999999
 40
0.5499999999999999
 40
0.5499999999999999
 40
0.5499999999999999
 40
0.5499999999999999
 40
0.6
 40
0.6
 40
0.6
 40
0.6
 40
0.65
 40
0.65
 40
0.65
 40
0.65
 40
0.7000000000000001
 40
0.7000000000000001
 40
0.7000000000000001
 40
0.7000000000000001
 40
0.7500000000000001
 40
0.7500000000000001
 40
0.7500000000000001
 40
0.7500000000000001
 40
0.8000000000000002
 40
0.8000000000000002
 40
0.8000000000000002
 40
0.8000000000000002
 40
0.8500000000000002
 40
0.8500000000000002
 40
0.8500000000000002
 40
0.8500000000000002
 40
0.9000000000000002
 40
0.9000000000000002
 40
0.9000000000000002
 40
0.9000000000000002
 40
0.9500000000000003
 40
0.9500000000000003
 40
0.9500000000000003
 40
0.9500000000000003
 40
1.0
 40
1.0
 40
1.0
 40
1.0
 10
0.3707677165354331
 20
-0.0633661417322835
 30
0.0
 10
0.3707677165354331
 20
-0.0633661417322835
 30
0.0
 10
0.3707677165354331
 20
-0.0707834645669291
 30
0.0
 10
0.3707677165354331
 20
-0.0707834645669291
 30
0.0
 10
0.3707677165354331
 20
-0.0707834645669291
 30
0.0
 10
0.3573818897637796
 20
-0.0709212598425197
 30
0.0
 10
0.3465472440944882
 20
-0.0728937007874016
 30
0.0
 10
0.3382716535433071
 20
-0.0766141732283465
 30
0.0
 10
0.3382716535433071
 20
-0.0766141732283465
 30
0.0
 10
0.329992125984252
 20
-0.0803661417322835
 30
0.0
 10
0.3239094488188977
 20
-0.0859763779527559
 30
0.0
 10
0.319992125984252
 20
-0.0934212598425197
 30
0.0
 10
0.319992125984252
 20
-0.0934212598425197
 30
0.0
 10
0.3160748031496063
 20
-0.1008937007874016
 30
0.0
 10
0.3138818897637796
 20
-0.1100866141732284
 30
0.0
 10
0.3134094488188977
 20
-0.1209763779527559
 30
0.0
 10
0.3134094488188977
 20
-0.1209763779527559
 30
0.0
 10
0.3161574803149607
 20
-0.116755905511811
 30
0.0
 10
0.318992125984252
 20
-0.1134488188976378
 30
0.0
 10
0.3219094488188977
 20
-0.1110866141732284
 30
0.0
 10
0.3219094488188977
 20
-0.1110866141732284
 30
0.0
 10
0.3247992125984252
 20
-0.1087283464566929
 30
0.0
 10
0.3281850393700788
 20
-0.1069212598425197
 30
0.0
 10
0.3320748031496063
 20
-0.1056417322834646
 30
0.0
 10
0.3320748031496063
 20
-0.1056417322834646
 30
0.0
 10
0.3359645669291339
 20
-0.1043661417322835
 30
0.0
 10
0.3402125984251969
 20
-0.1037283464566929
 30
0.0
 10
0.3448267716535433
 20
-0.1037283464566929
 30
0.0
 10
0.3448267716535433
 20
-0.1037283464566929
 30
0.0
 10
0.3521850393700788
 20
-0.1037283464566929
 30
0.0
 10
0.3587677165354331
 20
-0.1053661417322835
 30
0.0
 10
0.3645196850393701
 20
-0.1086141732283465
 30
0.0
 10
0.3645196850393701
 20
-0.1086141732283465
 30
0.0
 10
0.3702677165354331
 20
-0.1118661417322835
 30
0.0
 10
0.374740157480315
 20
-0.1162834645669291
 30
0.0
 10
0.3779370078740157
 20
-0.1218385826771654
 30
0.0
 10
0.3779370078740157
 20
-0.1218385826771654
 30
0.0
 10
0.3811299212598425
 20
-0.1273937007874016
 30
0.0
 10
0.382740157480315
 20
-0.1339488188976378
 30
0.0
 10
0.382740157480315
 20
-0.1414763779527559
 30
0.0
 10
0.382740157480315
 20
-0.1414763779527559
 30
0.0
 10
0.382740157480315
 20
-0.1534763779527559
 30
0.0
 10
0.3791299212598425
 20
-0.1628937007874016
 30
0.0
 10
0.3719094488188977
 20
-0.1697244094488189
 30
0.0
 10
0.3719094488188977
 20
-0.1697244094488189
 30
0.0
 10
0.3639370078740158
 20
-0.1772244094488189
 30
0.0
 10
0.3536023622047244
 20
-0.1809488188976378
 30
0.0
 10
0.3409094488188977
 20
-0.1809488188976378
 30
0.0
 10
0.3409094488188977
 20
-0.1809488188976378
 30
0.0
 10
0.331740157480315
 20
-0.1809488188976378
 30
0.0
 10
0.3240196850393701
 20
-0.1790590551181102
 30
0.0
 10
0.3177125984251968
 20
-0.175255905511811
 30
0.0
 10
0.3177125984251968
 20
-0.175255905511811
 30
0.0
 10
0.3114094488188977
 20
-0.1714763779527559
 30
0.0
 10
0.3064094488188977
 20
-0.1656692913385827
 30
0.0
 10
0.3026850393700787
 20
-0.1578385826771654
 30
0.0
 10
0.3026850393700787
 20
-0.1578385826771654
 30
0.0
 10
0.298992125984252
 20
-0.1500314960629921
 30
0.0
 10
0.2971299212598426
 20
-0.1403661417322835
 30
0.0
 10
0.2971299212598426
 20
-0.1288661417322835
 30
0.0
 10
0.2971299212598426
 20
-0.1288661417322835
 30
0.0
 10
0.2971299212598426
 20
-0.1173110236220473
 30
0.0
 10
0.2991023622047244
 20
-0.1070590551181102
 30
0.0
 10
0.3030196850393701
 20
-0.0981141732283465
 30
0.0
 10
0.3030196850393701
 20
-0.0981141732283465
 30
0.0
 10
0.3069645669291339
 20
-0.0891732283464567
 30
0.0
 10
0.3124094488188977
 20
-0.0819763779527559
 30
0.0
 10
0.3193543307086614
 20
-0.0765590551181102
 30
0.0
 10
0.3193543307086614
 20
-0.0765590551181102
 30
0.0
 10
0.3262992125984252
 20
-0.0711141732283465
 30
0.0
 10
0.3339094488188977
 20
-0.0675590551181102
 30
0.0
 10
0.3421574803149606
 20
-0.0658937007874016
 30
0.0
 10
0.3421574803149606
 20
-0.0658937007874016
 30
0.0
 10
0.3504370078740158
 20
-0.0642007874015748
 30
0.0
 10
0.3578543307086614
 20
-0.0633661417322835
 30
0.0
 10
0.3644370078740158
 20
-0.0633661417322835
 30
0.0
 10
0.3644370078740158
 20
-0.0633661417322835
 30
0.0
 10
0.3644370078740158
 20
-0.0633661417322835
 30
0.0
 10
0.3707677165354331
 20
-0.0633661417322835
 30
0.0
 10
0.3707677165354331
 20
-0.0633661417322835
 30
0.0
  0
SPLINE
  5
38
330
1F
100
AcDbEntity
  8
LAYER_1
 62
   250
100
AcDbSpline
210
0.0
220
0.0
230
1.0
 70
    11
 71
     3
 72
    40
 73
    36
 74
     0
 42
0.0000000001
 43
0.0000000001
 40
0.0
 40
0.0
 40
0.0
 40
0.0
 40
0.1111111111111111
 40
0.1111111111111111
 40
0.1111111111111111
 40
0.1111111111111111
 40
0.2222222222222222
 40
0.2222222222222222
 40
0.2222222222222222
 40
0.2222222222222222
 40
0.3333333333333333
 40
0.3333333333333333
 40
0.3333333333333333
 40
0.3333333333333333
 40
0.4444444444444444
 40
0.4444444444444444
 40
0.4444444444444444
 40
0.4444444444444444
 40
0.5555555555555556
 40
0.5555555555555556
 40
0.5555555555555556
 40
0.5555555555555556
 40
0.6666666666666667
 40
0.6666666666666667
 40
0.6666666666666667
 40
0.6666666666666667
 40
0.7777777777777779
 40
0.7777777777777779
 40
0.7777777777777779
 40
0.7777777777777779
 40
0.8888888888888891
 40
0.8888888888888891
 40
0.8888888888888891
 40
0.8888888888888891
 40
1.0
 40
1.0
 40
1.0
 40
1.0
 10
0.3410748031496063
 20
-0.1123661417322835
 30
0.0
 10
0.3332716535433071
 20
-0.1123661417322835
 30
0.0
 10
0.3268543307086614
 20
-0.1153110236220473
 30
0.0
 10
0.3218267716535433
 20
-0.1212283464566929
 30
0.0
 10
0.3218267716535433
 20
-0.1212283464566929
 30
0.0
 10
0.3167992125984252
 20
-0.1271417322834646
 30
0.0
 10
0.3142992125984252
 20
-0.134255905511811
 30
0.0
 10
0.3142992125984252
 20
-0.1425314960629921
 30
0.0
 10
0.3142992125984252
 20
-0.1425314960629921
 30
0.0
 10
0.3142992125984252
 20
-0.1483937007874016
 30
0.0
 10
0.3155196850393701
 20
-0.1538110236220472
 30
0.0
 10
0.3179645669291339
 20
-0.1587834645669291
 30
0.0
 10
0.3179645669291339
 20
-0.1587834645669291
 30
0.0
 10
0.3204094488188977
 20
-0.163755905511811
 30
0.0
 10
0.3235472440944882
 20
-0.1674212598425197
 30
0.0
 10
0.3274094488188977
 20
-0.1698385826771654
 30
0.0
 10
0.3274094488188977
 20
-0.1698385826771654
 30
0.0
 10
0.331240157480315
 20
-0.172255905511811
 30
0.0
 10
0.3356023622047245
 20
-0.1734763779527559
 30
0.0
 10
0.3404094488188977
 20
-0.1734763779527559
 30
0.0
 10
0.3404094488188977
 20
-0.1734763779527559
 30
0.0
 10
0.3479094488188976
 20
-0.1734763779527559
 30
0.0
 10
0.3541299212598426
 20
-0.1706417322834646
 30
0.0
 10
0.3591023622047244
 20
-0.1649763779527559
 30
0.0
 10
0.3591023622047244
 20
-0.1649763779527559
 30
0.0
 10
0.3640472440944882
 20
-0.1593110236220472
 30
0.0
 10
0.3665472440944882
 20
-0.1516968503937008
 30
0.0
 10
0.3665472440944882
 20
-0.1421417322834646
 30
0.0
 10
0.3665472440944882
 20
-0.1421417322834646
 30
0.0
 10
0.3665472440944882
 20
-0.1330314960629921
 30
0.0
 10
0.3641299212598426
 20
-0.1257834645669291
 30
0.0
 10
0.3592992125984252
 20
-0.1204212598425197
 30
0.0
 10
0.3592992125984252
 20
-0.1204212598425197
 30
0.0
 10
0.3544645669291339
 20
-0.1150314960629921
 30
0.0
 10
0.3483818897637795
 20
-0.1123661417322835
 30
0.0
 10
0.3410748031496063
 20
-0.1123661417322835
 30
0.0
  0
SPLINE
  5
39
330
1F
100
AcDbEntity
  8
LAYER_1
 62
   250
100
AcDbSpline
210
0.0
220
0.0
230
1.0
 70
    11
 71
     3
 72
   132
 73
   128
 74
     0
 42
0.0000000001
 43
0.0000000001
 40
0.0
 40
0.0
 40
0.0
 40
0.0
 40
0.03125
 40
0.03125
 40
0.03125
 40
0.03125
 40
0.0625
 40
0.0625
 40
0.0625
 40
0.0625
 40
0.09375
 40
0.09375
 40
0.09375
 40
0.09375
 40
0.125
 40
0.125
 40
0.125
 40
0.125
 40
0.15625
 40
0.15625
 40
0.15625
 40
0.15625
 40
0.1875
 40
0.1875
 40
0.1875
 40
0.1875
 40
0.21875
 40
0.21875
 40
0.21875
 40
0.21875
 40
0.25
 40
0.25
 40
0.25
 40
0.25
 40
0.28125
 40
0.28125
 40
0.28125
 40
0.28125
 40
0.3125
 40
0.3125
 40
0.3125
 40
0.3125
 40
0.34375
 40
0.34375
 40
0.34375
 40
0.34375
 40
0.375
 40
0.375
 40
0.375
 40
0.375
 40
0.40625
 40
0.40625
 40
0.40625
 40
0.40625
 40
0.4375
 40
0.4375
 40
0.4375
 40
0.4375
 40
0.46875
 40
0.46875
 40
0.46875
 40
0.46875
 40
0.5
 40
0.5
 40
0.5
 40
0.5
 40
0.53125
 40
0.53125
 40
0.53125
 40
0.53125
 40
0.5625
 40
0.5625
 40
0.5625
 40
0.5625
 40
0.59375
 40
0.59375
 40
0.59375
 40
0.59375
 40
0.625
 40
0.625
 40
0.625
 40
0.625
 40
0.65625
 40
0.65625
 40
0.65625
 40
0.65625
 40
0.6875
 40
0.6875
 40
0.6875
 40
0.6875
 40
0.71875
 40
0.71875
 40
0.71875
 40
0.71875
 40
0.75
 40
0.75
 40
0.75
 40
0.75
 40
0.78125
 40
0.78125
 40
0.78125
 40
0.78125
 40
0.8125
 40
0.8125
 40
0.8125
 40
0.8125
 40
0.84375
 40
0.84375
 40
0.84375
 40
0.84375
 40
0.875
 40
0.875
 40
0.875
 40
0.875
 40
0.90625
 40
0.90625
 40
0.90625
 40
0.90625
 40
0.9375
 40
0.9375
 40
0.9375
 40
0.9375
 40
0.96875
 40
0.96875
 40
0.96875
 40
0.96875
 40
1.0
 40
1.0
 40
1.0
 40
1.0
 10
-0.439492125984252
 20
-0.2529763779527559
 30
0.0
 10
-0.439492125984252
 20
-0.2529763779527559
 30
0.0
 10
-0.3888818897637795
 20
-0.2529763779527559
 30
0.0
 10
-0.3888818897637795
 20
-0.2529763779527559
 30
0.0
 10
-0.3888818897637795
 20
-0.2529763779527559
 30
0.0
 10
-0.3857992125984252
 20
-0.2529763779527559
 30
0.0
 10
-0.3839094488188977
 20
-0.2528110236220473
 30
0.0
 10
-0.3832716535433071
 20
-0.2524763779527559
 30
0.0
 10
-0.3832716535433071
 20
-0.2524763779527559
 30
0.0
 10
-0.3823543307086614
 20
-0.2519488188976378
 30
0.0
 10
-0.3817992125984252
 20
-0.2507834645669291
 30
0.0
 10
-0.3816338582677166
 20
-0.249003937007874
 30
0.0
 10
-0.3816338582677166
 20
-0.249003937007874
 30
0.0
 10
-0.3816338582677166
 20
-0.249003937007874
 30
0.0
 10
-0.3756889763779528
 20
-0.249003937007874
 30
0.0
 10
-0.3756889763779528
 20
-0.249003937007874
 30
0.0
 10
-0.3756889763779528
 20
-0.249003937007874
 30
0.0
 10
-0.3756889763779528
 20
-0.249003937007874
 30
0.0
 10
-0.3756889763779528
 20
-0.2661732283464567
 30
0.0
 10
-0.3756889763779528
 20
-0.2661732283464567
 30
0.0
 10
-0.3756889763779528
 20
-0.2661732283464567
 30
0.0
 10
-0.3756889763779528
 20
-0.2661732283464567
 30
0.0
 10
-0.4319370078740158
 20
-0.2661732283464567
 30
0.0
 10
-0.4319370078740158
 20
-0.2661732283464567
 30
0.0
 10
-0.4319370078740158
 20
-0.2661732283464567
 30
0.0
 10
-0.4319370078740158
 20
-0.2661732283464567
 30
0.0
 10
-0.4333267716535433
 20
-0.2948110236220473
 30
0.0
 10
-0.4333267716535433
 20
-0.2948110236220473
 30
0.0
 10
-0.4333267716535433
 20
-0.2948110236220473
 30
0.0
 10
-0.430992125984252
 20
-0.2941417322834646
 30
0.0
 10
-0.4280196850393701
 20
-0.2936141732283465
 30
0.0
 10
-0.4244370078740158
 20
-0.2931692913385827
 30
0.0
 10
-0.4244370078740158
 20
-0.2931692913385827
 30
0.0
 10
-0.4198267716535433
 20
-0.2926417322834646
 30
0.0
 10
-0.4157165354330709
 20
-0.2923661417322835
 30
0.0
 10
-0.4120748031496063
 20
-0.2923661417322835
 30
0.0
 10
-0.4120748031496063
 20
-0.2923661417322835
 30
0.0
 10
-0.4030196850393701
 20
-0.2923661417322835
 30
0.0
 10
-0.3951338582677166
 20
-0.294003937007874
 30
0.0
 10
-0.3883818897637795
 20
-0.297255905511811
 30
0.0
 10
-0.3883818897637795
 20
-0.297255905511811
 30
0.0
 10
-0.3816614173228347
 20
-0.300503937007874
 30
0.0
 10
-0.3765511811023622
 20
-0.3049763779527559
 30
0.0
 10
-0.3730511811023622
 20
-0.3106417322834646
 30
0.0
 10
-0.3730511811023622
 20
-0.3106417322834646
 30
0.0
 10
-0.3695511811023622
 20
-0.3163110236220473
 30
0.0
 10
-0.3677992125984252
 20
-0.3226417322834646
 30
0.0
 10
-0.3677992125984252
 20
-0.3296417322834646
 30
0.0
 10
-0.3677992125984252
 20
-0.3296417322834646
 30
0.0
 10
-0.3677992125984252
 20
-0.3404763779527559
 30
0.0
 10
-0.3718818897637796
 20
-0.3496692913385827
 30
0.0
 10
-0.3800196850393701
 20
-0.3571968503937008
 30
0.0
 10
-0.3800196850393701
 20
-0.3571968503937008
 30
0.0
 10
-0.3881614173228347
 20
-0.3646968503937008
 30
0.0
 10
-0.3985196850393701
 20
-0.3684488188976378
 30
0.0
 10
-0.4111062992125985
 20
-0.3684488188976378
 30
0.0
 10
-0.4111062992125985
 20
-0.3684488188976378
 30
0.0
 10
-0.4183818897637796
 20
-0.3684488188976378
 30
0.0
 10
-0.4249370078740158
 20
-0.3671417322834646
 30
0.0
 10
-0.4308267716535433
 20
-0.3645590551181103
 30
0.0
 10
-0.4308267716535433
 20
-0.3645590551181103
 30
0.0
 10
-0.4367165354330709
 20
-0.3619488188976378
 30
0.0
 10
-0.4413267716535433
 20
-0.358503937007874
 30
0.0
 10
-0.4446338582677166
 20
-0.354255905511811
 30
0.0
 10
-0.4446338582677166
 20
-0.354255905511811
 30
0.0
 10
-0.4479370078740158
 20
-0.350003937007874
 30
0.0
 10
-0.4496023622047244
 20
-0.346255905511811
 30
0.0
 10
-0.4496023622047244
 20
-0.3430590551181103
 30
0.0
 10
-0.4496023622047244
 20
-0.3430590551181103
 30
0.0
 10
-0.4496023622047244
 20
-0.3409488188976378
 30
0.0
 10
-0.4488818897637795
 20
-0.3391141732283465
 30
0.0
 10
-0.4474645669291339
 20
-0.3375590551181102
 30
0.0
 10
-0.4474645669291339
 20
-0.3375590551181102
 30
0.0
 10
-0.4460748031496063
 20
-0.3360314960629922
 30
0.0
 10
-0.444244094488189
 20
-0.3352559055118111
 30
0.0
 10
-0.4420196850393701
 20
-0.3352559055118111
 30
0.0
 10
-0.4420196850393701
 20
-0.3352559055118111
 30
0.0
 10
-0.439744094488189
 20
-0.3352559055118111
 30
0.0
 10
-0.437744094488189
 20
-0.3361968503937008
 30
0.0
 10
-0.435992125984252
 20
-0.3381141732283465
 30
0.0
 10
-0.435992125984252
 20
-0.3381141732283465
 30
0.0
 10
-0.4350196850393701
 20
-0.3390866141732284
 30
0.0
 10
-0.4338543307086614
 20
-0.3414763779527559
 30
0.0
 10
-0.432492125984252
 20
-0.345255905511811
 30
0.0
 10
-0.432492125984252
 20
-0.345255905511811
 30
0.0
 10
-0.4306614173228346
 20
-0.3505866141732283
 30
0.0
 10
-0.4279094488188976
 20
-0.3544763779527559
 30
0.0
 10
-0.4242716535433071
 20
-0.3569763779527559
 30
0.0
 10
-0.4242716535433071
 20
-0.3569763779527559
 30
0.0
 10
-0.4207165354330709
 20
-0.3595314960629921
 30
0.0
 10
-0.4161889763779528
 20
-0.3608110236220473
 30
0.0
 10
-0.4107716535433071
 20
-0.3608110236220473
 30
0.0
 10
-0.4107716535433071
 20
-0.3608110236220473
 30
0.0
 10
-0.4053543307086615
 20
-0.3608110236220473
 30
0.0
 10
-0.4005196850393701
 20
-0.3596141732283465
 30
0.0
 10
-0.3962992125984252
 20
-0.357255905511811
 30
0.0
 10
-0.3962992125984252
 20
-0.357255905511811
 30
0.0
 10
-0.3920472440944882
 20
-0.3549212598425197
 30
0.0
 10
-0.3887165354330709
 20
-0.351503937007874
 30
0.0
 10
-0.3862716535433071
 20
-0.3470866141732283
 30
0.0
 10
-0.3862716535433071
 20
-0.3470866141732283
 30
0.0
 10
-0.3838267716535433
 20
-0.3426692913385827
 30
0.0
 10
-0.3826062992125984
 20
-0.3377559055118111
 30
0.0
 10
-0.3826062992125984
 20
-0.3323385826771654
 30
0.0
 10
-0.3826062992125984
 20
-0.3323385826771654
 30
0.0
 10
-0.3826062992125984
 20
-0.3266141732283465
 30
0.0
 10
-0.3839370078740158
 20
-0.3215590551181102
 30
0.0
 10
-0.3865787401574803
 20
-0.3171141732283465
 30
0.0
 10
-0.3865787401574803
 20
-0.3171141732283465
 30
0.0
 10
-0.3891889763779527
 20
-0.3126692913385827
 30
0.0
 10
-0.3929645669291339
 20
-0.3092007874015748
 30
0.0
 10
-0.3978818897637795
 20
-0.3067834645669291
 30
0.0
 10
-0.3978818897637795
 20
-0.3067834645669291
 30
0.0
 10
-0.4027992125984252
 20
-0.3043385826771654
 30
0.0
 10
-0.4087716535433071
 20
-0.3031141732283465
 30
0.0
 10
-0.4158267716535433
 20
-0.3031141732283465
 30
0.0
 10
-0.4158267716535433
 20
-0.3031141732283465
 30
0.0
 10
-0.4201062992125985
 20
-0.3031141732283465
 30
0.0
 10
-0.4247165354330709
 20
-0.3035590551181103
 30
0.0
 10
-0.4296062992125985
 20
-0.304503937007874
 30
0.0
 10
-0.4296062992125985
 20
-0.304503937007874
 30
0.0
 10
-0.4345196850393701
 20
-0.3054212598425197
 30
0.0
 10
-0.438744094488189
 20
-0.3065866141732284
 30
0.0
 10
-0.4422716535433071
 20
-0.308003937007874
 30
0.0
 10
-0.4422716535433071
 20
-0.308003937007874
 30
0.0
 10
-0.4422716535433071
 20
-0.308003937007874
 30
0.0
 10
-0.439492125984252
 20
-0.2529763779527559
 30
0.0
 10
-0.439492125984252
 20
-0.2529763779527559
 30
0.0
  0
SPLINE
  5
3A
330
1F
100
AcDbEntity
  8
LAYER_1
 62
   250
100
AcDbSpline
210
0.0
220
0.0
230
1.0
 70
    11
 71
     3
 72
    20
 73
    16
 74
     0
 42
0.0000000001
 43
0.0000000001
 40
0.0
 40
0.0
 40
0.0
 40
0.0
 40
0.25
 40
0.25
 40
0.25
 40
0.25
 40
0.5
 40
0.5
 40
0.5
 40
0.5
 40
0.75
 40
0.75
 40
0.75
 40
0.75
 40
1.0
 40
1.0
 40
1.0
 40
1.0
 10
-0.2770472440944882
 20
-0.2471141732283465
 30
0.0
 10
-0.2770472440944882
 20
-0.2471141732283465
 30
0.0
 10
-0.3326299212598425
 20
-0.4028110236220472
 30
0.0
 10
-0.3326299212598425
 20
-0.4028110236220472
 30
0.0
 10
-0.3326299212598425
 20
-0.4028110236220472
 30
0.0
 10
-0.3326299212598425
 20
-0.4028110236220472
 30
0.0
 10
-0.3446850393700788
 20
-0.4028110236220472
 30
0.0
 10
-0.3446850393700788
 20
-0.4028110236220472
 30
0.0
 10
-0.3446850393700788
 20
-0.4028110236220472
 30
0.0
 10
-0.3446850393700788
 20
-0.4028110236220472
 30
0.0
 10
-0.2894370078740158
 20
-0.2471141732283465
 30
0.0
 10
-0.2894370078740158
 20
-0.2471141732283465
 30
0.0
 10
-0.2894370078740158
 20
-0.2471141732283465
 30
0.0
 10
-0.2894370078740158
 20
-0.2471141732283465
 30
0.0
 10
-0.2770472440944882
 20
-0.2471141732283465
 30
0.0
 10
-0.2770472440944882
 20
-0.2471141732283465
 30
0.0
  0
SPLINE
  5
3B
330
1F
100
AcDbEntity
  8
LAYER_1
 62
   250
100
AcDbSpline
210
0.0
220
0.0
230
1.0
 70
    11
 71
     3
 72
    76
 73
    72
 74
     0
 42
0.0000000001
 43
0.0000000001
 40
0.0
 40
0.0
 40
0.0
 40
0.0
 40
0.0555555555555556
 40
0.0555555555555556
 40
0.0555555555555556
 40
0.0555555555555556
 40
0.1111111111111111
 40
0.1111111111111111
 40
0.1111111111111111
 40
0.1111111111111111
 40
0.1666666666666667
 40
0.1666666666666667
 40
0.1666666666666667
 40
0.1666666666666667
 40
0.2222222222222222
 40
0.2222222222222222
 40
0.2222222222222222
 40
0.2222222222222222
 40
0.2777777777777778
 40
0.2777777777777778
 40
0.2777777777777778
 40
0.2777777777777778
 40
0.3333333333333334
 40
0.3333333333333334
 40
0.3333333333333334
 40
0.3333333333333334
 40
0.388888888888889
 40
0.388888888888889
 40
0.388888888888889
 40
0.388888888888889
 40
0.4444444444444445
 40
0.4444444444444445
 40
0.4444444444444445
 40
0.4444444444444445
 40
0.5000000000000001
 40
0.5000000000000001
 40
0.5000000000000001
 40
0.5000000000000001
 40
0.5555555555555557
 40
0.5555555555555557
 40
0.5555555555555557
 40
0.5555555555555557
 40
0.6111111111111113
 40
0.6111111111111113
 40
0.6111111111111113
 40
0.6111111111111113
 40
0.6666666666666669
 40
0.6666666666666669
 40
0.6666666666666669
 40
0.6666666666666669
 40
0.7222222222222224
 40
0.7222222222222224
 40
0.7222222222222224
 40
0.7222222222222224
 40
0.777777777777778
 40
0.777777777777778
 40
0.777777777777778
 40
0.777777777777778
 40
0.8333333333333336
 40
0.8333333333333336
 40
0.8333333333333336
 40
0.8333333333333336
 40
0.8888888888888892
 40
0.8888888888888892
 40
0.8888888888888892
 40
0.8888888888888892
 40
0.9444444444444448
 40
0.9444444444444448
 40
0.9444444444444448
 40
0.9444444444444448
 40
1.0
 40
1.0
 40
1.0
 40
1.0
 10
-0.1940472440944882
 20
-0.303503937007874
 30
0.0
 10
-0.1876299212598425
 20
-0.3059488188976378
 30
0.0
 10
-0.182744094488189
 20
-0.308255905511811
 30
0.0
 10
-0.1793818897637795
 20
-0.3104212598425197
 30
0.0
 10
-0.1793818897637795
 20
-0.3104212598425197
 30
0.0
 10
-0.1744645669291339
 20
-0.3135866141732284
 30
0.0
 10
-0.170744094488189
 20
-0.3172834645669291
 30
0.0
 10
-0.168244094488189
 20
-0.3215314960629921
 30
0.0
 10
-0.168244094488189
 20
-0.3215314960629921
 30
0.0
 10
-0.165744094488189
 20
-0.3258110236220473
 30
0.0
 10
-0.164492125984252
 20
-0.3304212598425197
 30
0.0
 10
-0.164492125984252
 20
-0.3354212598425197
 30
0.0
 10
-0.164492125984252
 20
-0.3354212598425197
 30
0.0
 10
-0.164492125984252
 20
-0.3443661417322835
 30
0.0
 10
-0.1683543307086614
 20
-0.3521141732283465
 30
0.0
 10
-0.1760472440944882
 20
-0.3586417322834646
 30
0.0
 10
-0.1760472440944882
 20
-0.3586417322834646
 30
0.0
 10
-0.1837716535433071
 20
-0.3651968503937008
 30
0.0
 10
-0.1941574803149606
 20
-0.3684488188976378
 30
0.0
 10
-0.2072165354330709
 20
-0.3684488188976378
 30
0.0
 10
-0.2072165354330709
 20
-0.3684488188976378
 30
0.0
 10
-0.2210472440944882
 20
-0.3684488188976378
 30
0.0
 10
-0.2319094488188976
 20
-0.364755905511811
 30
0.0
 10
-0.2397716535433071
 20
-0.3573937007874016
 30
0.0
 10
-0.2397716535433071
 20
-0.3573937007874016
 30
0.0
 10
-0.2460196850393701
 20
-0.3514763779527559
 30
0.0
 10
-0.2491299212598425
 20
-0.3447834645669292
 30
0.0
 10
-0.2491299212598425
 20
-0.3372834645669292
 30
0.0
 10
-0.2491299212598425
 20
-0.3372834645669292
 30
0.0
 10
-0.2491299212598425
 20
-0.3312559055118111
 30
0.0
 10
-0.2470196850393701
 20
-0.3258661417322835
 30
0.0
 10
-0.2427992125984252
 20
-0.3210866141732284
 30
0.0
 10
-0.2427992125984252
 20
-0.3210866141732284
 30
0.0
 10
-0.2376850393700788
 20
-0.3153937007874016
 30
0.0
 10
-0.2304094488188976
 20
-0.3109488188976378
 30
0.0
 10
-0.2209645669291339
 20
-0.307755905511811
 30
0.0
 10
-0.2209645669291339
 20
-0.307755905511811
 30
0.0
 10
-0.2283543307086614
 20
-0.3042834645669291
 30
0.0
 10
-0.2336574803149606
 20
-0.300755905511811
 30
0.0
 10
-0.2369370078740158
 20
-0.2971692913385827
 30
0.0
 10
-0.2369370078740158
 20
-0.2971692913385827
 30
0.0
 10
-0.2411023622047244
 20
-0.2924488188976378
 30
0.0
 10
-0.2431850393700787
 20
-0.2867834645669292
 30
0.0
 10
-0.2431850393700787
 20
-0.2801732283464567
 30
0.0
 10
-0.2431850393700787
 20
-0.2801732283464567
 30
0.0
 10
-0.2431850393700787
 20
-0.2719763779527559
 30
0.0
 10
-0.2401023622047244
 20
-0.2653385826771654
 30
0.0
 10
-0.2339094488188976
 20
-0.2603110236220473
 30
0.0
 10
-0.2339094488188976
 20
-0.2603110236220473
 30
0.0
 10
-0.2263267716535433
 20
-0.2541141732283465
 30
0.0
 10
-0.2168267716535433
 20
-0.2510314960629921
 30
0.0
 10
-0.2054370078740158
 20
-0.2510314960629921
 30
0.0
 10
-0.2054370078740158
 20
-0.2510314960629921
 30
0.0
 10
-0.1950196850393701
 20
-0.2510314960629921
 30
0.0
 10
-0.1866023622047244
 20
-0.2537007874015748
 30
0.0
 10
-0.1801574803149607
 20
-0.2590314960629921
 30
0.0
 10
-0.1801574803149607
 20
-0.2590314960629921
 30
0.0
 10
-0.173744094488189
 20
-0.2643937007874016
 30
0.0
 10
-0.1705196850393701
 20
-0.270503937007874
 30
0.0
 10
-0.1705196850393701
 20
-0.2773937007874016
 30
0.0
 10
-0.1705196850393701
 20
-0.2773937007874016
 30
0.0
 10
-0.1705196850393701
 20
-0.2808110236220472
 30
0.0
 10
-0.1713267716535433
 20
-0.2840866141732283
 30
0.0
 10
-0.1729094488188976
 20
-0.2872007874015748
 30
0.0
 10
-0.1729094488188976
 20
-0.2872007874015748
 30
0.0
 10
-0.1745196850393701
 20
-0.2903110236220473
 30
0.0
 10
-0.1769645669291339
 20
-0.2932283464566929
 30
0.0
 10
-0.1802992125984252
 20
-0.2958937007874016
 30
0.0
 10
-0.1802992125984252
 20
-0.2958937007874016
 30
0.0
 10
-0.1836023622047244
 20
-0.2985866141732284
 30
0.0
 10
-0.1881889763779528
 20
-0.3011141732283465
 30
0.0
 10
-0.1940472440944882
 20
-0.303503937007874
 30
0.0
  0
SPLINE
  5
3C
330
1F
100
AcDbEntity
  8
LAYER_1
 62
   250
100
AcDbSpline
210
0.0
220
0.0
230
1.0
 70
    11
 71
     3
 72
    48
 73
    44
 74
     0
 42
0.0000000001
 43
0.0000000001
 40
0.0
 40
0.0
 40
0.0
 40
0.0
 40
0.0909090909090909
 40
0.0909090909090909
 40
0.0909090909090909
 40
0.0909090909090909
 40
0.1818181818181818
 40
0.1818181818181818
 40
0.1818181818181818
 40
0.1818181818181818
 40
0.2727272727272727
 40
0.2727272727272727
 40
0.2727272727272727
 40
0.2727272727272727
 40
0.3636363636363637
 40
0.3636363636363637
 40
0.3636363636363637
 40
0.3636363636363637
 40
0.4545454545454546
 40
0.4545454545454546
 40
0.4545454545454546
 40
0.4545454545454546
 40
0.5454545454545455
 40
0.5454545454545455
 40
0.5454545454545455
 40
0.5454545454545455
 40
0.6363636363636365
 40
0.6363636363636365
 40
0.6363636363636365
 40
0.6363636363636365
 40
0.7272727272727274
 40
0.7272727272727274
 40
0.7272727272727274
 40
0.7272727272727274
 40
0.8181818181818183
 40
0.8181818181818183
 40
0.8181818181818183
 40
0.8181818181818183
 40
0.9090909090909093
 40
0.9090909090909093
 40
0.9090909090909093
 40
0.9090909090909093
 40
1.0
 40
1.0
 40
1.0
 40
1.0
 10
-0.2014370078740158
 20
-0.300503937007874
 30
0.0
 10
-0.1952716535433071
 20
-0.2958385826771653
 30
0.0
 10
-0.191244094488189
 20
-0.2925866141732283
 30
0.0
 10
-0.1894094488188977
 20
-0.2907283464566929
 30
0.0
 10
-0.1894094488188977
 20
-0.2907283464566929
 30
0.0
 10
-0.1875472440944882
 20
-0.2888937007874016
 30
0.0
 10
-0.1861299212598425
 20
-0.2867834645669292
 30
0.0
 10
-0.1851299212598425
 20
-0.2844212598425197
 30
0.0
 10
-0.1851299212598425
 20
-0.2844212598425197
 30
0.0
 10
-0.1841299212598425
 20
-0.2820590551181103
 30
0.0
 10
-0.1836299212598425
 20
-0.2797834645669292
 30
0.0
 10
-0.1836299212598425
 20
-0.2775590551181102
 30
0.0
 10
-0.1836299212598425
 20
-0.2775590551181102
 30
0.0
 10
-0.1836299212598425
 20
-0.2743661417322835
 30
0.0
 10
-0.1845748031496063
 20
-0.2713110236220472
 30
0.0
 10
-0.1864645669291339
 20
-0.2683937007874016
 30
0.0
 10
-0.1864645669291339
 20
-0.2683937007874016
 30
0.0
 10
-0.1883818897637795
 20
-0.265503937007874
 30
0.0
 10
-0.1911574803149606
 20
-0.2631417322834646
 30
0.0
 10
-0.1948267716535433
 20
-0.2613661417322835
 30
0.0
 10
-0.1948267716535433
 20
-0.2613661417322835
 30
0.0
 10
-0.1984645669291339
 20
-0.2595590551181102
 30
0.0
 10
-0.2025748031496063
 20
-0.2586732283464567
 30
0.0
 10
-0.2071299212598425
 20
-0.2586732283464567
 30
0.0
 10
-0.2071299212598425
 20
-0.2586732283464567
 30
0.0
 10
-0.2138818897637795
 20
-0.2586732283464567
 30
0.0
 10
-0.2194645669291339
 20
-0.2605314960629921
 30
0.0
 10
-0.2239094488188977
 20
-0.2642559055118111
 30
0.0
 10
-0.2239094488188977
 20
-0.2642559055118111
 30
0.0
 10
-0.2283543307086614
 20
-0.2679763779527559
 30
0.0
 10
-0.2305748031496063
 20
-0.2722559055118111
 30
0.0
 10
-0.2305748031496063
 20
-0.2771417322834646
 30
0.0
 10
-0.2305748031496063
 20
-0.2771417322834646
 30
0.0
 10
-0.2305748031496063
 20
-0.2810590551181103
 30
0.0
 10
-0.2291850393700788
 20
-0.2845590551181103
 30
0.0
 10
-0.2264370078740157
 20
-0.2876417322834646
 30
0.0
 10
-0.2264370078740157
 20
-0.2876417322834646
 30
0.0
 10
-0.2236574803149606
 20
-0.2907283464566929
 30
0.0
 10
-0.2185196850393701
 20
-0.2937834645669292
 30
0.0
 10
-0.2109645669291339
 20
-0.296755905511811
 30
0.0
 10
-0.2109645669291339
 20
-0.296755905511811
 30
0.0
 10
-0.2109645669291339
 20
-0.296755905511811
 30
0.0
 10
-0.2014370078740158
 20
-0.300503937007874
 30
0.0
 10
-0.2014370078740158
 20
-0.300503937007874
 30
0.0
  0
SPLINE
  5
3D
330
1F
100
AcDbEntity
  8
LAYER_1
 62
   250
100
AcDbSpline
210
0.0
220
0.0
230
1.0
 70
    11
 71
     3
 72
    40
 73
    36
 74
     0
 42
0.0000000001
 43
0.0000000001
 40
0.0
 40
0.0
 40
0.0
 40
0.0
 40
0.1111111111111111
 40
0.1111111111111111
 40
0.1111111111111111
 40
0.1111111111111111
 40
0.2222222222222222
 40
0.2222222222222222
 40
0.2222222222222222
 40
0.2222222222222222
 40
0.3333333333333333
 40
0.3333333333333333
 40
0.3333333333333333
 40
0.3333333333333333
 40
0.4444444444444444
 40
0.4444444444444444
 40
0.4444444444444444
 40
0.4444444444444444
 40
0.5555555555555556
 40
0.5555555555555556
 40
0.5555555555555556
 40
0.5555555555555556
 40
0.6666666666666667
 40
0.6666666666666667
 40
0.6666666666666667
 40
0.6666666666666667
 40
0.7777777777777779
 40
0.7777777777777779
 40
0.7777777777777779
 40
0.7777777777777779
 40
0.8888888888888891
 40
0.8888888888888891
 40
0.8888888888888891
 40
0.8888888888888891
 40
1.0
 40
1.0
 40
1.0
 40
1.0
 10
-0.2129094488188977
 20
-0.3109212598425197
 30
0.0
 10
-0.2205748031496063
 20
-0.3142834645669291
 30
0.0
 10
-0.2266299212598425
 20
-0.3186417322834646
 30
0.0
 10
-0.2310748031496063
 20
-0.3240314960629921
 30
0.0
 10
-0.2310748031496063
 20
-0.3240314960629921
 30
0.0
 10
-0.2345472440944882
 20
-0.3282559055118111
 30
0.0
 10
-0.2362716535433071
 20
-0.3326417322834646
 30
0.0
 10
-0.2362716535433071
 20
-0.3371968503937008
 30
0.0
 10
-0.2362716535433071
 20
-0.3371968503937008
 30
0.0
 10
-0.2362716535433071
 20
-0.3433937007874016
 30
0.0
 10
-0.2335472440944882
 20
-0.3488937007874016
 30
0.0
 10
-0.2280472440944882
 20
-0.3536968503937008
 30
0.0
 10
-0.2280472440944882
 20
-0.3536968503937008
 30
0.0
 10
-0.2225748031496063
 20
-0.3584763779527559
 30
0.0
 10
-0.215492125984252
 20
-0.3608937007874016
 30
0.0
 10
-0.2068267716535433
 20
-0.3608937007874016
 30
0.0
 10
-0.2068267716535433
 20
-0.3608937007874016
 30
0.0
 10
-0.1979645669291339
 20
-0.3608937007874016
 30
0.0
 10
-0.1906023622047244
 20
-0.3581417322834646
 30
0.0
 10
-0.1846889763779528
 20
-0.3526692913385827
 30
0.0
 10
-0.1846889763779528
 20
-0.3526692913385827
 30
0.0
 10
-0.1798543307086614
 20
-0.3482244094488189
 30
0.0
 10
-0.1774370078740158
 20
-0.3434488188976378
 30
0.0
 10
-0.1774370078740158
 20
-0.3383385826771654
 30
0.0
 10
-0.1774370078740158
 20
-0.3383385826771654
 30
0.0
 10
-0.1774370078740158
 20
-0.3343385826771654
 30
0.0
 10
-0.1790196850393701
 20
-0.330503937007874
 30
0.0
 10
-0.1821889763779528
 20
-0.3268385826771654
 30
0.0
 10
-0.1821889763779528
 20
-0.3268385826771654
 30
0.0
 10
-0.1853818897637795
 20
-0.3231692913385827
 30
0.0
 10
-0.1912716535433071
 20
-0.3196141732283465
 30
0.0
 10
-0.1999094488188976
 20
-0.3161417322834646
 30
0.0
 10
-0.1999094488188976
 20
-0.3161417322834646
 30
0.0
 10
-0.1999094488188976
 20
-0.3161417322834646
 30
0.0
 10
-0.2129094488188977
 20
-0.3109212598425197
 30
0.0
 10
-0.2129094488188977
 20
-0.3109212598425197
 30
0.0
  0
SPLINE
  5
3E
330
1F
100
AcDbEntity
  8
LAYER_1
 62
   250
100
AcDbSpline
210
0.0
220
0.0
230
1.0
 70
    11
 71
     3
 72
    60
 73
    56
 74
     0
 42
0.0000000001
 43
0.0000000001
 40
0.0
 40
0.0
 40
0.0
 40
0.0
 40
0.0714285714285714
 40
0.0714285714285714
 40
0.0714285714285714
 40
0.0714285714285714
 40
0.1428571428571429
 40
0.1428571428571429
 40
0.1428571428571429
 40
0.1428571428571429
 40
0.2142857142857143
 40
0.2142857142857143
 40
0.2142857142857143
 40
0.2142857142857143
 40
0.2857142857142857
 40
0.2857142857142857
 40
0.2857142857142857
 40
0.2857142857142857
 40
0.3571428571428571
 40
0.3571428571428571
 40
0.3571428571428571
 40
0.3571428571428571
 40
0.4285714285714285
 40
0.4285714285714285
 40
0.4285714285714285
 40
0.4285714285714285
 40
0.4999999999999999
 40
0.4999999999999999
 40
0.4999999999999999
 40
0.4999999999999999
 40
0.5714285714285713
 40
0.5714285714285713
 40
0.5714285714285713
 40
0.5714285714285713
 40
0.6428571428571427
 40
0.6428571428571427
 40
0.6428571428571427
 40
0.6428571428571427
 40
0.7142857142857141
 40
0.7142857142857141
 40
0.7142857142857141
 40
0.7142857142857141
 40
0.7857142857142855
 40
0.7857142857142855
 40
0.7857142857142855
 40
0.7857142857142855
 40
0.8571428571428569
 40
0.8571428571428569
 40
0.8571428571428569
 40
0.8571428571428569
 40
0.9285714285714283
 40
0.9285714285714283
 40
0.9285714285714283
 40
0.9285714285714283
 40
1.0
 40
1.0
 40
1.0
 40
1.0
 10
-0.1450472440944882
 20
-0.2950590551181103
 30
0.0
 10
-0.1450472440944882
 20
-0.2950590551181103
 30
0.0
 10
-0.1494370078740158
 20
-0.2896692913385827
 30
0.0
 10
-0.1494370078740158
 20
-0.2896692913385827
 30
0.0
 10
-0.1494370078740158
 20
-0.2896692913385827
 30
0.0
 10
-0.1383228346456693
 20
-0.2806141732283465
 30
0.0
 10
-0.132740157480315
 20
-0.2730590551181102
 30
0.0
 10
-0.132740157480315
 20
-0.2669763779527559
 30
0.0
 10
-0.132740157480315
 20
-0.2669763779527559
 30
0.0
 10
-0.132740157480315
 20
-0.2662834645669291
 30
0.0
 10
-0.1327952755905512
 20
-0.2653937007874016
 30
0.0
 10
-0.1329094488188976
 20
-0.2643661417322835
 30
0.0
 10
-0.1329094488188976
 20
-0.2643661417322835
 30
0.0
 10
-0.1338228346456693
 20
-0.2647559055118111
 30
0.0
 10
-0.134740157480315
 20
-0.2650590551181102
 30
0.0
 10
-0.1356023622047244
 20
-0.2652559055118111
 30
0.0
 10
-0.1356023622047244
 20
-0.2652559055118111
 30
0.0
 10
-0.1364645669291339
 20
-0.2654763779527559
 30
0.0
 10
-0.1372677165354331
 20
-0.2655866141732284
 30
0.0
 10
-0.1380472440944882
 20
-0.2655866141732284
 30
0.0
 10
-0.1380472440944882
 20
-0.2655866141732284
 30
0.0
 10
-0.1406574803149606
 20
-0.2655866141732284
 30
0.0
 10
-0.142740157480315
 20
-0.2647559055118111
 30
0.0
 10
-0.1442952755905512
 20
-0.2630590551181102
 30
0.0
 10
-0.1442952755905512
 20
-0.2630590551181102
 30
0.0
 10
-0.1458818897637795
 20
-0.2613937007874016
 30
0.0
 10
-0.1466574803149607
 20
-0.2592559055118111
 30
0.0
 10
-0.1466574803149607
 20
-0.2566417322834646
 30
0.0
 10
-0.1466574803149607
 20
-0.2566417322834646
 30
0.0
 10
-0.1466574803149607
 20
-0.2540866141732284
 30
0.0
 10
-0.1457125984251969
 20
-0.2518661417322835
 30
0.0
 10
-0.1438228346456693
 20
-0.2499763779527559
 30
0.0
 10
-0.1438228346456693
 20
-0.2499763779527559
 30
0.0
 10
-0.1419094488188976
 20
-0.2480590551181102
 30
0.0
 10
-0.1396299212598425
 20
-0.2471141732283465
 30
0.0
 10
-0.136992125984252
 20
-0.2471141732283465
 30
0.0
 10
-0.136992125984252
 20
-0.2471141732283465
 30
0.0
 10
-0.1332952755905512
 20
-0.2471141732283465
 30
0.0
 10
-0.1301299212598425
 20
-0.2485866141732284
 30
0.0
 10
-0.127492125984252
 20
-0.2515590551181102
 30
0.0
 10
-0.127492125984252
 20
-0.2515590551181102
 30
0.0
 10
-0.1248818897637795
 20
-0.2545039370078741
 30
0.0
 10
-0.1235472440944882
 20
-0.2583110236220473
 30
0.0
 10
-0.1235472440944882
 20
-0.2629763779527559
 30
0.0
 10
-0.1235472440944882
 20
-0.2629763779527559
 30
0.0
 10
-0.1235472440944882
 20
-0.2660314960629922
 30
0.0
 10
-0.1241850393700787
 20
-0.2692283464566929
 30
0.0
 10
-0.1254370078740158
 20
-0.2725590551181102
 30
0.0
 10
-0.1254370078740158
 20
-0.2725590551181102
 30
0.0
 10
-0.1266850393700787
 20
-0.2758937007874016
 30
0.0
 10
-0.128492125984252
 20
-0.2789763779527559
 30
0.0
 10
-0.1308818897637795
 20
-0.2818385826771654
 30
0.0
 10
-0.1308818897637795
 20
-0.2818385826771654
 30
0.0
 10
-0.1332677165354331
 20
-0.2846692913385827
 30
0.0
 10
-0.137992125984252
 20
-0.2890866141732283
 30
0.0
 10
-0.1450472440944882
 20
-0.2950590551181103
 30
0.0
  0
SPLINE
  5
3F
330
1F
100
AcDbEntity
  8
LAYER_1
 62
   250
100
AcDbSpline
210
0.0
220
0.0
230
1.0
 70
    11
 71
     3
 72
    60
 73
    56
 74
     0
 42
0.0000000001
 43
0.0000000001
 40
0.0
 40
0.0
 40
0.0
 40
0.0
 40
0.0714285714285714
 40
0.0714285714285714
 40
0.0714285714285714
 40
0.0714285714285714
 40
0.1428571428571429
 40
0.1428571428571429
 40
0.1428571428571429
 40
0.1428571428571429
 40
0.2142857142857143
 40
0.2142857142857143
 40
0.2142857142857143
 40
0.2142857142857143
 40
0.2857142857142857
 40
0.2857142857142857
 40
0.2857142857142857
 40
0.2857142857142857
 40
0.3571428571428571
 40
0.3571428571428571
 40
0.3571428571428571
 40
0.3571428571428571
 40
0.4285714285714285
 40
0.4285714285714285
 40
0.4285714285714285
 40
0.4285714285714285
 40
0.4999999999999999
 40
0.4999999999999999
 40
0.4999999999999999
 40
0.4999999999999999
 40
0.5714285714285713
 40
0.5714285714285713
 40
0.5714285714285713
 40
0.5714285714285713
 40
0.6428571428571427
 40
0.6428571428571427
 40
0.6428571428571427
 40
0.6428571428571427
 40
0.7142857142857141
 40
0.7142857142857141
 40
0.7142857142857141
 40
0.7142857142857141
 40
0.7857142857142855
 40
0.7857142857142855
 40
0.7857142857142855
 40
0.7857142857142855
 40
0.8571428571428569
 40
0.8571428571428569
 40
0.8571428571428569
 40
0.8571428571428569
 40
0.9285714285714283
 40
0.9285714285714283
 40
0.9285714285714283
 40
0.9285714285714283
 40
1.0
 40
1.0
 40
1.0
 40
1.0
 10
-0.115992125984252
 20
-0.2950590551181103
 30
0.0
 10
-0.115992125984252
 20
-0.2950590551181103
 30
0.0
 10
-0.1203818897637795
 20
-0.2896692913385827
 30
0.0
 10
-0.1203818897637795
 20
-0.2896692913385827
 30
0.0
 10
-0.1203818897637795
 20
-0.2896692913385827
 30
0.0
 10
-0.1092677165354331
 20
-0.2806141732283465
 30
0.0
 10
-0.1036850393700787
 20
-0.2730590551181102
 30
0.0
 10
-0.1036850393700787
 20
-0.2669763779527559
 30
0.0
 10
-0.1036850393700787
 20
-0.2669763779527559
 30
0.0
 10
-0.1036850393700787
 20
-0.2662834645669291
 30
0.0
 10
-0.103740157480315
 20
-0.2653937007874016
 30
0.0
 10
-0.1038543307086614
 20
-0.2643661417322835
 30
0.0
 10
-0.1038543307086614
 20
-0.2643661417322835
 30
0.0
 10
-0.1047677165354331
 20
-0.2647559055118111
 30
0.0
 10
-0.1056850393700787
 20
-0.2650590551181102
 30
0.0
 10
-0.1065472440944882
 20
-0.2652559055118111
 30
0.0
 10
-0.1065472440944882
 20
-0.2652559055118111
 30
0.0
 10
-0.1074094488188977
 20
-0.2654763779527559
 30
0.0
 10
-0.108240157480315
 20
-0.2655866141732284
 30
0.0
 10
-0.1090748031496063
 20
-0.2655866141732284
 30
0.0
 10
-0.1090748031496063
 20
-0.2655866141732284
 30
0.0
 10
-0.1116299212598425
 20
-0.2655866141732284
 30
0.0
 10
-0.1136850393700788
 20
-0.2647559055118111
 30
0.0
 10
-0.115240157480315
 20
-0.2630590551181102
 30
0.0
 10
-0.115240157480315
 20
-0.2630590551181102
 30
0.0
 10
-0.1168228346456693
 20
-0.2613937007874016
 30
0.0
 10
-0.1176023622047244
 20
-0.2592559055118111
 30
0.0
 10
-0.1176023622047244
 20
-0.2566417322834646
 30
0.0
 10
-0.1176023622047244
 20
-0.2566417322834646
 30
0.0
 10
-0.1176023622047244
 20
-0.2540866141732284
 30
0.0
 10
-0.1166574803149606
 20
-0.2518661417322835
 30
0.0
 10
-0.1147677165354331
 20
-0.2499763779527559
 30
0.0
 10
-0.1147677165354331
 20
-0.2499763779527559
 30
0.0
 10
-0.1128818897637795
 20
-0.2480590551181102
 30
0.0
 10
-0.1105748031496063
 20
-0.2471141732283465
 30
0.0
 10
-0.1079370078740158
 20
-0.2471141732283465
 30
0.0
 10
-0.1079370078740158
 20
-0.2471141732283465
 30
0.0
 10
-0.104240157480315
 20
-0.2471141732283465
 30
0.0
 10
-0.1010748031496063
 20
-0.2485866141732284
 30
0.0
 10
-0.0984370078740158
 20
-0.2515590551181102
 30
0.0
 10
-0.0984370078740158
 20
-0.2515590551181102
 30
0.0
 10
-0.0958267716535433
 20
-0.2545039370078741
 30
0.0
 10
-0.094492125984252
 20
-0.2583110236220473
 30
0.0
 10
-0.094492125984252
 20
-0.2629763779527559
 30
0.0
 10
-0.094492125984252
 20
-0.2629763779527559
 30
0.0
 10
-0.094492125984252
 20
-0.2660314960629922
 30
0.0
 10
-0.0951299212598425
 20
-0.2692283464566929
 30
0.0
 10
-0.0963818897637795
 20
-0.2725590551181102
 30
0.0
 10
-0.0963818897637795
 20
-0.2725590551181102
 30
0.0
 10
-0.0976299212598425
 20
-0.2758937007874016
 30
0.0
 10
-0.0994370078740158
 20
-0.2789763779527559
 30
0.0
 10
-0.1018228346456693
 20
-0.2818385826771654
 30
0.0
 10
-0.1018228346456693
 20
-0.2818385826771654
 30
0.0
 10
-0.1042125984251969
 20
-0.2846692913385827
 30
0.0
 10
-0.1089370078740158
 20
-0.2890866141732283
 30
0.0
 10
-0.115992125984252
 20
-0.2950590551181103
 30
0.0
  0
SPLINE
  5
40
330
1F
100
AcDbEntity
  8
LAYER_1
 62
   250
100
AcDbSpline
210
0.0
220
0.0
230
1.0
 70
    11
 71
     3
 72
   204
 73
   200
 74
     0
 42
0.0000000001
 43
0.0000000001
 40
0.0
 40
0.0
 40
0.0
 40
0.0
 40
0.02
 40
0.02
 40
0.02
 40
0.02
 40
0.04
 40
0.04
 40
0.04
 40
0.04
 40
0.06
 40
0.06
 40
0.06
 40
0.06
 40
0.08
 40
0.08
 40
0.08
 40
0.08
 40
0.1
 40
0.1
 40
0.1
 40
0.1
 40
0.12
 40
0.12
 40
0.12
 40
0.12
 40
0.14
 40
0.14
 40
0.14
 40
0.14
 40
0.16
 40
0.16
 40
0.16
 40
0.16
 40
0.18
 40
0.18
 40
0.18
 40
0.18
 40
0.2
 40
0.2
 40
0.2
 40
0.2
 40
0.22
 40
0.22
 40
0.22
 40
0.22
 40
0.24
 40
0.24
 40
0.24
 40
0.24
 40
0.26
 40
0.26
 40
0.26
 40
0.26
 40
0.28
 40
0.28
 40
0.28
 40
0.28
 40
0.3
 40
0.3
 40
0.3
 40
0.3
 40
0.32
 40
0.32
 40
0.32
 40
0.32
 40
0.34
 40
0.34
 40
0.34
 40
0.34
 40
0.36
 40
0.36
 40
0.36
 40
0.36
 40
0.3800000000000001
 40
0.3800000000000001
 40
0.3800000000000001
 40
0.3800000000000001
 40
0.4000000000000001
 40
0.4000000000000001
 40
0.4000000000000001
 40
0.4000000000000001
 40
0.4200000000000001
 40
0.4200000000000001
 40
0.4200000000000001
 40
0.4200000000000001
 40
0.4400000000000001
 40
0.4400000000000001
 40
0.4400000000000001
 40
0.4400000000000001
 40
0.4600000000000001
 40
0.4600000000000001
 40
0.4600000000000001
 40
0.4600000000000001
 40
0.4800000000000002
 40
0.4800000000000002
 40
0.4800000000000002
 40
0.4800000000000002
 40
0.5000000000000001
 40
0.5000000000000001
 40
0.5000000000000001
 40
0.5000000000000001
 40
0.5200000000000001
 40
0.5200000000000001
 40
0.5200000000000001
 40
0.5200000000000001
 40
0.5400000000000002
 40
0.5400000000000002
 40
0.5400000000000002
 40
0.5400000000000002
 40
0.5600000000000002
 40
0.5600000000000002
 40
0.5600000000000002
 40
0.5600000000000002
 40
0.5800000000000002
 40
0.5800000000000002
 40
0.5800000000000002
 40
0.5800000000000002
 40
0.6000000000000002
 40
0.6000000000000002
 40
0.6000000000000002
 40
0.6000000000000002
 40
0.6200000000000002
 40
0.6200000000000002
 40
0.6200000000000002
 40
0.6200000000000002
 40
0.6400000000000002
 40
0.6400000000000002
 40
0.6400000000000002
 40
0.6400000000000002
 40
0.6600000000000003
 40
0.6600000000000003
 40
0.6600000000000003
 40
0.6600000000000003
 40
0.6800000000000003
 40
0.6800000000000003
 40
0.6800000000000003
 40
0.6800000000000003
 40
0.7000000000000003
 40
0.7000000000000003
 40
0.7000000000000003
 40
0.7000000000000003
 40
0.7200000000000003
 40
0.7200000000000003
 40
0.7200000000000003
 40
0.7200000000000003
 40
0.7400000000000003
 40
0.7400000000000003
 40
0.7400000000000003
 40
0.7400000000000003
 40
0.7600000000000003
 40
0.7600000000000003
 40
0.7600000000000003
 40
0.7600000000000003
 40
0.7800000000000004
 40
0.7800000000000004
 40
0.7800000000000004
 40
0.7800000000000004
 40
0.8000000000000004
 40
0.8000000000000004
 40
0.8000000000000004
 40
0.8000000000000004
 40
0.8200000000000004
 40
0.8200000000000004
 40
0.8200000000000004
 40
0.8200000000000004
 40
0.8400000000000004
 40
0.8400000000000004
 40
0.8400000000000004
 40
0.8400000000000004
 40
0.8600000000000004
 40
0.8600000000000004
 40
0.8600000000000004
 40
0.8600000000000004
 40
0.8800000000000005
 40
0.8800000000000005
 40
0.8800000000000005
 40
0.8800000000000005
 40
0.9000000000000005
 40
0.9000000000000005
 40
0.9000000000000005
 40
0.9000000000000005
 40
0.9200000000000005
 40
0.9200000000000005
 40
0.9200000000000005
 40
0.9200000000000005
 40
0.9400000000000005
 40
0.9400000000000005
 40
0.9400000000000005
 40
0.9400000000000005
 40
0.9600000000000005
 40
0.9600000000000005
 40
0.9600000000000005
 40
0.9600000000000005
 40
0.9800000000000005
 40
0.9800000000000005
 40
0.9800000000000005
 40
0.9800000000000005
 40
1.0
 40
1.0
 40
1.0
 40
1.0
 10
-0.0321850393700787
 20
-0.2879763779527559
 30
0.0
 10
-0.0321850393700787
 20
-0.2879763779527559
 30
0.0
 10
0.008759842519685
 20
-0.2879763779527559
 30
0.0
 10
0.008759842519685
 20
-0.2879763779527559
 30
0.0
 10
0.008759842519685
 20
-0.2879763779527559
 30
0.0
 10
0.008759842519685
 20
-0.2879763779527559
 30
0.0
 10
0.008759842519685
 20
-0.2948110236220473
 30
0.0
 10
0.008759842519685
 20
-0.2948110236220473
 30
0.0
 10
0.008759842519685
 20
-0.2948110236220473
 30
0.0
 10
0.008759842519685
 20
-0.2948110236220473
 30
0.0
 10
0.0059251968503937
 20
-0.2948110236220473
 30
0.0
 10
0.0059251968503937
 20
-0.2948110236220473
 30
0.0
 10
0.0059251968503937
 20
-0.2948110236220473
 30
0.0
 10
0.0042874015748032
 20
-0.2948110236220473
 30
0.0
 10
0.0027874015748031
 20
-0.295003937007874
 30
0.0
 10
0.0014251968503937
 20
-0.2953661417322835
 30
0.0
 10
0.0014251968503937
 20
-0.2953661417322835
 30
0.0
 10
0.0006220472440945
 20
-0.2955866141732284
 30
0.0
 10
-0.0000472440944882
 20
-0.296003937007874
 30
0.0
 10
-0.0005472440944882
 20
-0.2966417322834646
 30
0.0
 10
-0.0005472440944882
 20
-0.2966417322834646
 30
0.0
 10
-0.0010748031496063
 20
-0.297255905511811
 30
0.0
 10
-0.0013228346456693
 20
-0.2978385826771653
 30
0.0
 10
-0.0013228346456693
 20
-0.2983937007874016
 30
0.0
 10
-0.0013228346456693
 20
-0.2983937007874016
 30
0.0
 10
-0.0013228346456693
 20
-0.2996417322834646
 30
0.0
 10
-0.0002952755905512
 20
-0.301503937007874
 30
0.0
 10
0.001759842519685
 20
-0.304003937007874
 30
0.0
 10
0.001759842519685
 20
-0.304003937007874
 30
0.0
 10
0.001759842519685
 20
-0.304003937007874
 30
0.0
 10
0.0133976377952756
 20
-0.3186417322834646
 30
0.0
 10
0.0133976377952756
 20
-0.3186417322834646
 30
0.0
 10
0.0133976377952756
 20
-0.3186417322834646
 30
0.0
 10
0.0133976377952756
 20
-0.3186417322834646
 30
0.0
 10
0.0269803149606299
 20
-0.304003937007874
 30
0.0
 10
0.0269803149606299
 20
-0.304003937007874
 30
0.0
 10
0.0269803149606299
 20
-0.304003937007874
 30
0.0
 10
0.0294803149606299
 20
-0.3012834645669292
 30
0.0
 10
0.0307322834645669
 20
-0.299255905511811
 30
0.0
 10
0.0307322834645669
 20
-0.2978937007874016
 30
0.0
 10
0.0307322834645669
 20
-0.2978937007874016
 30
0.0
 10
0.0307322834645669
 20
-0.2969212598425197
 30
0.0
 10
0.0302874015748032
 20
-0.2961692913385827
 30
0.0
 10
0.0294251968503937
 20
-0.2956141732283465
 30
0.0
 10
0.0294251968503937
 20
-0.2956141732283465
 30
0.0
 10
0.0285629921259843
 20
-0.2950866141732284
 30
0.0
 10
0.0267047244094488
 20
-0.2948110236220473
 30
0.0
 10
0.0238149606299213
 20
-0.2948110236220473
 30
0.0
 10
0.0238149606299213
 20
-0.2948110236220473
 30
0.0
 10
0.0238149606299213
 20
-0.2948110236220473
 30
0.0
 10
0.0207322834645669
 20
-0.2948110236220473
 30
0.0
 10
0.0207322834645669
 20
-0.2948110236220473
 30
0.0
 10
0.0207322834645669
 20
-0.2948110236220473
 30
0.0
 10
0.0207322834645669
 20
-0.2948110236220473
 30
0.0
 10
0.0207322834645669
 20
-0.2879763779527559
 30
0.0
 10
0.0207322834645669
 20
-0.2879763779527559
 30
0.0
 10
0.0207322834645669
 20
-0.2879763779527559
 30
0.0
 10
0.0207322834645669
 20
-0.2879763779527559
 30
0.0
 10
0.0554803149606299
 20
-0.2879763779527559
 30
0.0
 10
0.0554803149606299
 20
-0.2879763779527559
 30
0.0
 10
0.0554803149606299
 20
-0.2879763779527559
 30
0.0
 10
0.0554803149606299
 20
-0.2879763779527559
 30
0.0
 10
0.0554803149606299
 20
-0.2948110236220473
 30
0.0
 10
0.0554803149606299
 20
-0.2948110236220473
 30
0.0
 10
0.0554803149606299
 20
-0.2948110236220473
 30
0.0
 10
0.0520629921259843
 20
-0.2949763779527559
 30
0.0
 10
0.0491181102362205
 20
-0.2956692913385827
 30
0.0
 10
0.0466496062992126
 20
-0.2969212598425197
 30
0.0
 10
0.0466496062992126
 20
-0.2969212598425197
 30
0.0
 10
0.0441771653543307
 20
-0.2981692913385827
 30
0.0
 10
0.041259842519685
 20
-0.3005314960629921
 30
0.0
 10
0.0378976377952756
 20
-0.304003937007874
 30
0.0
 10
0.0378976377952756
 20
-0.304003937007874
 30
0.0
 10
0.0378976377952756
 20
-0.304003937007874
 30
0.0
 10
0.019259842519685
 20
-0.3233661417322835
 30
0.0
 10
0.019259842519685
 20
-0.3233661417322835
 30
0.0
 10
0.019259842519685
 20
-0.3233661417322835
 30
0.0
 10
0.019259842519685
 20
-0.3233661417322835
 30
0.0
 10
0.0424527559055118
 20
-0.3498110236220473
 30
0.0
 10
0.0424527559055118
 20
-0.3498110236220473
 30
0.0
 10
0.0424527559055118
 20
-0.3498110236220473
 30
0.0
 10
0.0424527559055118
 20
-0.3498110236220473
 30
0.0
 10
0.0433425196850394
 20
-0.3509488188976378
 30
0.0
 10
0.0433425196850394
 20
-0.3509488188976378
 30
0.0
 10
0.0433425196850394
 20
-0.3509488188976378
 30
0.0
 10
0.0456181102362205
 20
-0.3538937007874016
 30
0.0
 10
0.0481771653543307
 20
-0.356255905511811
 30
0.0
 10
0.051007874015748
 20
-0.3580314960629921
 30
0.0
 10
0.051007874015748
 20
-0.3580314960629921
 30
0.0
 10
0.0525629921259843
 20
-0.3590590551181103
 30
0.0
 10
0.055007874015748
 20
-0.3596141732283465
 30
0.0
 10
0.0583149606299213
 20
-0.3596692913385827
 30
0.0
 10
0.0583149606299213
 20
-0.3596692913385827
 30
0.0
 10
0.0583149606299213
 20
-0.3596692913385827
 30
0.0
 10
0.0583149606299213
 20
-0.366503937007874
 30
0.0
 10
0.0583149606299213
 20
-0.366503937007874
 30
0.0
 10
0.0583149606299213
 20
-0.366503937007874
 30
0.0
 10
0.0583149606299213
 20
-0.366503937007874
 30
0.0
 10
0.0183700787401575
 20
-0.366503937007874
 30
0.0
 10
0.0183700787401575
 20
-0.366503937007874
 30
0.0
 10
0.0183700787401575
 20
-0.366503937007874
 30
0.0
 10
0.0183700787401575
 20
-0.366503937007874
 30
0.0
 10
0.0183700787401575
 20
-0.3596692913385827
 30
0.0
 10
0.0183700787401575
 20
-0.3596692913385827
 30
0.0
 10
0.0183700787401575
 20
-0.3596692913385827
 30
0.0
 10
0.0183700787401575
 20
-0.3596692913385827
 30
0.0
 10
0.0217874015748032
 20
-0.3596692913385827
 30
0.0
 10
0.0217874015748032
 20
-0.3596692913385827
 30
0.0
 10
0.0217874015748032
 20
-0.3596692913385827
 30
0.0
 10
0.0243976377952756
 20
-0.3596692913385827
 30
0.0
 10
0.0260354330708661
 20
-0.359503937007874
 30
0.0
 10
0.026759842519685
 20
-0.3591692913385827
 30
0.0
 10
0.026759842519685
 20
-0.3591692913385827
 30
0.0
 10
0.0279251968503937
 20
-0.3586417322834646
 30
0.0
 10
0.0285354330708661
 20
-0.3577244094488189
 30
0.0
 10
0.0285354330708661
 20
-0.3564212598425197
 30
0.0
 10
0.0285354330708661
 20
-0.3564212598425197
 30
0.0
 10
0.0285354330708661
 20
-0.3552244094488189
 30
0.0
 10
0.0272322834645669
 20
-0.3530314960629921
 30
0.0
 10
0.0246181102362205
 20
-0.3498110236220473
 30
0.0
 10
0.0246181102362205
 20
-0.3498110236220473
 30
0.0
 10
0.0246181102362205
 20
-0.3498110236220473
 30
0.0
 10
0.0098149606299213
 20
-0.3316692913385827
 30
0.0
 10
0.0098149606299213
 20
-0.3316692913385827
 30
0.0
 10
0.0098149606299213
 20
-0.3316692913385827
 30
0.0
 10
0.0098149606299213
 20
-0.3316692913385827
 30
0.0
 10
-0.0067125984251969
 20
-0.3498110236220473
 30
0.0
 10
-0.0067125984251969
 20
-0.3498110236220473
 30
0.0
 10
-0.0067125984251969
 20
-0.3498110236220473
 30
0.0
 10
-0.0067125984251969
 20
-0.3498110236220473
 30
0.0
 10
-0.0083228346456693
 20
-0.3517834645669292
 30
0.0
 10
-0.0083228346456693
 20
-0.3517834645669292
 30
0.0
 10
-0.0083228346456693
 20
-0.3517834645669292
 30
0.0
 10
-0.0083228346456693
 20
-0.3517834645669292
 30
0.0
 10
-0.0092125984251969
 20
-0.352755905511811
 30
0.0
 10
-0.0092125984251969
 20
-0.352755905511811
 30
0.0
 10
-0.0092125984251969
 20
-0.352755905511811
 30
0.0
 10
-0.0105748031496063
 20
-0.3542244094488189
 30
0.0
 10
-0.0112677165354331
 20
-0.355503937007874
 30
0.0
 10
-0.0112677165354331
 20
-0.3566417322834646
 30
0.0
 10
-0.0112677165354331
 20
-0.3566417322834646
 30
0.0
 10
-0.0112677165354331
 20
-0.3576968503937008
 30
0.0
 10
-0.0108503937007874
 20
-0.3584488188976378
 30
0.0
 10
-0.009992125984252
 20
-0.3589488188976378
 30
0.0
 10
-0.009992125984252
 20
-0.3589488188976378
 30
0.0
 10
-0.0091574803149606
 20
-0.3594212598425197
 30
0.0
 10
-0.0072677165354331
 20
-0.3596692913385827
 30
0.0
 10
-0.0043503937007874
 20
-0.3596692913385827
 30
0.0
 10
-0.0043503937007874
 20
-0.3596692913385827
 30
0.0
 10
-0.0043503937007874
 20
-0.3596692913385827
 30
0.0
 10
-0.0010748031496063
 20
-0.3596692913385827
 30
0.0
 10
-0.0010748031496063
 20
-0.3596692913385827
 30
0.0
 10
-0.0010748031496063
 20
-0.3596692913385827
 30
0.0
 10
-0.0010748031496063
 20
-0.3596692913385827
 30
0.0
 10
-0.0010748031496063
 20
-0.366503937007874
 30
0.0
 10
-0.0010748031496063
 20
-0.366503937007874
 30
0.0
 10
-0.0010748031496063
 20
-0.366503937007874
 30
0.0
 10
-0.0010748031496063
 20
-0.366503937007874
 30
0.0
 10
-0.0353503937007874
 20
-0.366503937007874
 30
0.0
 10
-0.0353503937007874
 20
-0.366503937007874
 30
0.0
 10
-0.0353503937007874
 20
-0.366503937007874
 30
0.0
 10
-0.0353503937007874
 20
-0.366503937007874
 30
0.0
 10
-0.0353503937007874
 20
-0.3596692913385827
 30
0.0
 10
-0.0353503937007874
 20
-0.3596692913385827
 30
0.0
 10
-0.0353503937007874
 20
-0.3596692913385827
 30
0.0
 10
-0.0326850393700787
 20
-0.3596141732283465
 30
0.0
 10
-0.0306023622047244
 20
-0.3593385826771653
 30
0.0
 10
-0.0290748031496063
 20
-0.3588110236220473
 30
0.0
 10
-0.0290748031496063
 20
-0.3588110236220473
 30
0.0
 10
-0.0275748031496063
 20
-0.3583110236220473
 30
0.0
 10
-0.0261023622047244
 20
-0.357503937007874
 30
0.0
 10
-0.0246850393700787
 20
-0.3564212598425197
 30
0.0
 10
-0.0246850393700787
 20
-0.3564212598425197
 30
0.0
 10
-0.022240157480315
 20
-0.3544488188976378
 30
0.0
 10
-0.020492125984252
 20
-0.3529212598425197
 30
0.0
 10
-0.0194055118110236
 20
-0.3517834645669292
 30
0.0
 10
-0.0194055118110236
 20
-0.3517834645669292
 30
0.0
 10
-0.0194055118110236
 20
-0.3517834645669292
 30
0.0
 10
0.0044527559055118
 20
-0.3272834645669291
 30
0.0
 10
0.0044527559055118
 20
-0.3272834645669291
 30
0.0
 10
0.0044527559055118
 20
-0.3272834645669291
 30
0.0
 10
0.0044527559055118
 20
-0.3272834645669291
 30
0.0
 10
-0.0158228346456693
 20
-0.304003937007874
 30
0.0
 10
-0.0158228346456693
 20
-0.304003937007874
 30
0.0
 10
-0.0158228346456693
 20
-0.304003937007874
 30
0.0
 10
-0.0183779527559055
 20
-0.3011141732283465
 30
0.0
 10
-0.0203779527559055
 20
-0.2991141732283465
 30
0.0
 10
-0.0218779527559055
 20
-0.2979488188976378
 30
0.0
 10
-0.0218779527559055
 20
-0.2979488188976378
 30
0.0
 10
-0.0233779527559055
 20
-0.2967834645669292
 30
0.0
 10
-0.0248228346456693
 20
-0.2959488188976378
 30
0.0
 10
-0.026240157480315
 20
-0.295503937007874
 30
0.0
 10
-0.026240157480315
 20
-0.295503937007874
 30
0.0
 10
-0.0276574803149606
 20
-0.2950314960629921
 30
0.0
 10
-0.0296299212598425
 20
-0.2948110236220473
 30
0.0
 10
-0.0321850393700787
 20
-0.2948110236220473
 30
0.0
 10
-0.0321850393700787
 20
-0.2948110236220473
 30
0.0
 10
-0.0321850393700787
 20
-0.2948110236220473
 30
0.0
 10
-0.0321850393700787
 20
-0.2879763779527559
 30
0.0
 10
-0.0321850393700787
 20
-0.2879763779527559
 30
0.0
  0
SPLINE
  5
41
330
1F
100
AcDbEntity
  8
LAYER_1
 62
   250
100
AcDbSpline
210
0.0
220
0.0
230
1.0
 70
    11
 71
     3
 72
    80
 73
    76
 74
     0
 42
0.0000000001
 43
0.0000000001
 40
0.0
 40
0.0
 40
0.0
 40
0.0
 40
0.0526315789473684
 40
0.0526315789473684
 40
0.0526315789473684
 40
0.0526315789473684
 40
0.1052631578947368
 40
0.1052631578947368
 40
0.1052631578947368
 40
0.1052631578947368
 40
0.1578947368421053
 40
0.1578947368421053
 40
0.1578947368421053
 40
0.1578947368421053
 40
0.2105263157894737
 40
0.2105263157894737
 40
0.2105263157894737
 40
0.2105263157894737
 40
0.2631578947368421
 40
0.2631578947368421
 40
0.2631578947368421
 40
0.2631578947368421
 40
0.3157894736842105
 40
0.3157894736842105
 40
0.3157894736842105
 40
0.3157894736842105
 40
0.3684210526315789
 40
0.3684210526315789
 40
0.3684210526315789
 40
0.3684210526315789
 40
0.4210526315789474
 40
0.4210526315789474
 40
0.4210526315789474
 40
0.4210526315789474
 40
0.4736842105263158
 40
0.4736842105263158
 40
0.4736842105263158
 40
0.4736842105263158
 40
0.5263157894736842
 40
0.5263157894736842
 40
0.5263157894736842
 40
0.5263157894736842
 40
0.5789473684210527
 40
0.5789473684210527
 40
0.5789473684210527
 40
0.5789473684210527
 40
0.631578947368421
 40
0.631578947368421
 40
0.631578947368421
 40
0.631578947368421
 40
0.6842105263157894
 40
0.6842105263157894
 40
0.6842105263157894
 40
0.6842105263157894
 40
0.7368421052631577
 40
0.7368421052631577
 40
0.7368421052631577
 40
0.7368421052631577
 40
0.7894736842105261
 40
0.7894736842105261
 40
0.7894736842105261
 40
0.7894736842105261
 40
0.8421052631578945
 40
0.8421052631578945
 40
0.8421052631578945
 40
0.8421052631578945
 40
0.8947368421052628
 40
0.8947368421052628
 40
0.8947368421052628
 40
0.8947368421052628
 40
0.9473684210526312
 40
0.9473684210526312
 40
0.9473684210526312
 40
0.9473684210526312
 40
1.0
 40
1.0
 40
1.0
 40
1.0
 10
0.129507874015748
 20
-0.2488385826771654
 30
0.0
 10
0.129507874015748
 20
-0.2488385826771654
 30
0.0
 10
0.1348976377952756
 20
-0.2488385826771654
 30
0.0
 10
0.1348976377952756
 20
-0.2488385826771654
 30
0.0
 10
0.1348976377952756
 20
-0.2488385826771654
 30
0.0
 10
0.1348976377952756
 20
-0.2488385826771654
 30
0.0
 10
0.1358700787401575
 20
-0.2529763779527559
 30
0.0
 10
0.1358700787401575
 20
-0.2529763779527559
 30
0.0
 10
0.1358700787401575
 20
-0.2529763779527559
 30
0.0
 10
0.1358700787401575
 20
-0.2529763779527559
 30
0.0
 10
0.2069803149606299
 20
-0.2529763779527559
 30
0.0
 10
0.2069803149606299
 20
-0.2529763779527559
 30
0.0
 10
0.2069803149606299
 20
-0.2529763779527559
 30
0.0
 10
0.2069803149606299
 20
-0.2529763779527559
 30
0.0
 10
0.2069803149606299
 20
-0.2598937007874016
 30
0.0
 10
0.2069803149606299
 20
-0.2598937007874016
 30
0.0
 10
0.2069803149606299
 20
-0.2598937007874016
 30
0.0
 10
0.1984803149606299
 20
-0.2697283464566929
 30
0.0
 10
0.190755905511811
 20
-0.2808937007874016
 30
0.0
 10
0.1838425196850394
 20
-0.2934763779527559
 30
0.0
 10
0.1838425196850394
 20
-0.2934763779527559
 30
0.0
 10
0.1769251968503937
 20
-0.3060314960629921
 30
0.0
 10
0.1715629921259843
 20
-0.3188110236220473
 30
0.0
 10
0.167755905511811
 20
-0.3318385826771654
 30
0.0
 10
0.167755905511811
 20
-0.3318385826771654
 30
0.0
 10
0.165007874015748
 20
-0.3412244094488189
 30
0.0
 10
0.162759842519685
 20
-0.3527834645669292
 30
0.0
 10
0.161007874015748
 20
-0.366503937007874
 30
0.0
 10
0.161007874015748
 20
-0.366503937007874
 30
0.0
 10
0.161007874015748
 20
-0.366503937007874
 30
0.0
 10
0.1443425196850394
 20
-0.366503937007874
 30
0.0
 10
0.1443425196850394
 20
-0.366503937007874
 30
0.0
 10
0.1443425196850394
 20
-0.366503937007874
 30
0.0
 10
0.1459527559055118
 20
-0.3543937007874016
 30
0.0
 10
0.1486181102362205
 20
-0.3430866141732283
 30
0.0
 10
0.1523425196850394
 20
-0.3325590551181102
 30
0.0
 10
0.1523425196850394
 20
-0.3325590551181102
 30
0.0
 10
0.1560629921259843
 20
-0.3220314960629921
 30
0.0
 10
0.1614251968503937
 20
-0.3110314960629921
 30
0.0
 10
0.1684527559055118
 20
-0.2995590551181103
 30
0.0
 10
0.1684527559055118
 20
-0.2995590551181103
 30
0.0
 10
0.1754803149606299
 20
-0.2880866141732283
 30
0.0
 10
0.184007874015748
 20
-0.2766417322834646
 30
0.0
 10
0.1940629921259843
 20
-0.2652007874015748
 30
0.0
 10
0.1940629921259843
 20
-0.2652007874015748
 30
0.0
 10
0.1940629921259843
 20
-0.2652007874015748
 30
0.0
 10
0.1433425196850394
 20
-0.2652007874015748
 30
0.0
 10
0.1433425196850394
 20
-0.2652007874015748
 30
0.0
 10
0.1433425196850394
 20
-0.2652007874015748
 30
0.0
 10
0.1396732283464567
 20
-0.2652007874015748
 30
0.0
 10
0.1371456692913386
 20
-0.2653661417322835
 30
0.0
 10
0.1357874015748032
 20
-0.2657559055118111
 30
0.0
 10
0.1357874015748032
 20
-0.2657559055118111
 30
0.0
 10
0.1344251968503937
 20
-0.2661417322834646
 30
0.0
 10
0.1333700787401575
 20
-0.2667283464566929
 30
0.0
 10
0.1326181102362205
 20
-0.2675314960629922
 30
0.0
 10
0.1326181102362205
 20
-0.2675314960629922
 30
0.0
 10
0.1318425196850394
 20
-0.2683661417322835
 30
0.0
 10
0.1312007874015748
 20
-0.2698110236220472
 30
0.0
 10
0.1306456692913386
 20
-0.2718661417322835
 30
0.0
 10
0.1306456692913386
 20
-0.2718661417322835
 30
0.0
 10
0.1306456692913386
 20
-0.2718661417322835
 30
0.0
 10
0.130259842519685
 20
-0.2733937007874016
 30
0.0
 10
0.130259842519685
 20
-0.2733937007874016
 30
0.0
 10
0.130259842519685
 20
-0.2733937007874016
 30
0.0
 10
0.130259842519685
 20
-0.2733937007874016
 30
0.0
 10
0.1274803149606299
 20
-0.283003937007874
 30
0.0
 10
0.1274803149606299
 20
-0.283003937007874
 30
0.0
 10
0.1274803149606299
 20
-0.283003937007874
 30
0.0
 10
0.1274803149606299
 20
-0.283003937007874
 30
0.0
 10
0.1205629921259843
 20
-0.2815314960629922
 30
0.0
 10
0.1205629921259843
 20
-0.2815314960629922
 30
0.0
 10
0.1205629921259843
 20
-0.2815314960629922
 30
0.0
 10
0.1205629921259843
 20
-0.2815314960629922
 30
0.0
 10
0.129507874015748
 20
-0.2488385826771654
 30
0.0
 10
0.129507874015748
 20
-0.2488385826771654
 30
0.0
  0
SPLINE
  5
42
330
1F
100
AcDbEntity
  8
LAYER_1
 62
   250
100
AcDbSpline
210
0.0
220
0.0
230
1.0
 70
    11
 71
     3
 72
    20
 73
    16
 74
     0
 42
0.0000000001
 43
0.0000000001
 40
0.0
 40
0.0
 40
0.0
 40
0.0
 40
0.25
 40
0.25
 40
0.25
 40
0.25
 40
0.5
 40
0.5
 40
0.5
 40
0.5
 40
0.75
 40
0.75
 40
0.75
 40
0.75
 40
1.0
 40
1.0
 40
1.0
 40
1.0
 10
0.2962874015748032
 20
-0.2471141732283465
 30
0.0
 10
0.2962874015748032
 20
-0.2471141732283465
 30
0.0
 10
0.2407047244094488
 20
-0.4028110236220472
 30
0.0
 10
0.2407047244094488
 20
-0.4028110236220472
 30
0.0
 10
0.2407047244094488
 20
-0.4028110236220472
 30
0.0
 10
0.2407047244094488
 20
-0.4028110236220472
 30
0.0
 10
0.2286496062992126
 20
-0.4028110236220472
 30
0.0
 10
0.2286496062992126
 20
-0.4028110236220472
 30
0.0
 10
0.2286496062992126
 20
-0.4028110236220472
 30
0.0
 10
0.2286496062992126
 20
-0.4028110236220472
 30
0.0
 10
0.2838976377952756
 20
-0.2471141732283465
 30
0.0
 10
0.2838976377952756
 20
-0.2471141732283465
 30
0.0
 10
0.2838976377952756
 20
-0.2471141732283465
 30
0.0
 10
0.2838976377952756
 20
-0.2471141732283465
 30
0.0
 10
0.2962874015748032
 20
-0.2471141732283465
 30
0.0
 10
0.2962874015748032
 20
-0.2471141732283465
 30
0.0
  0
SPLINE
  5
43
330
1F
100
AcDbEntity
  8
LAYER_1
 62
   250
100
AcDbSpline
210
0.0
220
0.0
230
1.0
 70
    11
 71
     3
 72
    76
 73
    72
 74
     0
 42
0.0000000001
 43
0.0000000001
 40
0.0
 40
0.0
 40
0.0
 40
0.0
 40
0.0555555555555556
 40
0.0555555555555556
 40
0.0555555555555556
 40
0.0555555555555556
 40
0.1111111111111111
 40
0.1111111111111111
 40
0.1111111111111111
 40
0.1111111111111111
 40
0.1666666666666667
 40
0.1666666666666667
 40
0.1666666666666667
 40
0.1666666666666667
 40
0.2222222222222222
 40
0.2222222222222222
 40
0.2222222222222222
 40
0.2222222222222222
 40
0.2777777777777778
 40
0.2777777777777778
 40
0.2777777777777778
 40
0.2777777777777778
 40
0.3333333333333334
 40
0.3333333333333334
 40
0.3333333333333334
 40
0.3333333333333334
 40
0.388888888888889
 40
0.388888888888889
 40
0.388888888888889
 40
0.388888888888889
 40
0.4444444444444445
 40
0.4444444444444445
 40
0.4444444444444445
 40
0.4444444444444445
 40
0.5000000000000001
 40
0.5000000000000001
 40
0.5000000000000001
 40
0.5000000000000001
 40
0.5555555555555557
 40
0.5555555555555557
 40
0.5555555555555557
 40
0.5555555555555557
 40
0.6111111111111113
 40
0.6111111111111113
 40
0.6111111111111113
 40
0.6111111111111113
 40
0.6666666666666669
 40
0.6666666666666669
 40
0.6666666666666669
 40
0.6666666666666669
 40
0.7222222222222224
 40
0.7222222222222224
 40
0.7222222222222224
 40
0.7222222222222224
 40
0.777777777777778
 40
0.777777777777778
 40
0.777777777777778
 40
0.777777777777778
 40
0.8333333333333336
 40
0.8333333333333336
 40
0.8333333333333336
 40
0.8333333333333336
 40
0.8888888888888892
 40
0.8888888888888892
 40
0.8888888888888892
 40
0.8888888888888892
 40
0.9444444444444448
 40
0.9444444444444448
 40
0.9444444444444448
 40
0.9444444444444448
 40
1.0
 40
1.0
 40
1.0
 40
1.0
 10
0.3792874015748032
 20
-0.303503937007874
 30
0.0
 10
0.3857047244094488
 20
-0.3059488188976378
 30
0.0
 10
0.3905905511811024
 20
-0.308255905511811
 30
0.0
 10
0.3939527559055118
 20
-0.3104212598425197
 30
0.0
 10
0.3939527559055118
 20
-0.3104212598425197
 30
0.0
 10
0.3988700787401575
 20
-0.3135866141732284
 30
0.0
 10
0.4025905511811024
 20
-0.3172834645669291
 30
0.0
 10
0.4050905511811024
 20
-0.3215314960629921
 30
0.0
 10
0.4050905511811024
 20
-0.3215314960629921
 30
0.0
 10
0.4075905511811024
 20
-0.3258110236220473
 30
0.0
 10
0.4088425196850394
 20
-0.3304212598425197
 30
0.0
 10
0.4088425196850394
 20
-0.3354212598425197
 30
0.0
 10
0.4088425196850394
 20
-0.3354212598425197
 30
0.0
 10
0.4088425196850394
 20
-0.3443661417322835
 30
0.0
 10
0.4049803149606299
 20
-0.3521141732283465
 30
0.0
 10
0.3972874015748032
 20
-0.3586417322834646
 30
0.0
 10
0.3972874015748032
 20
-0.3586417322834646
 30
0.0
 10
0.3895629921259843
 20
-0.3651968503937008
 30
0.0
 10
0.3791771653543307
 20
-0.3684488188976378
 30
0.0
 10
0.3661181102362205
 20
-0.3684488188976378
 30
0.0
 10
0.3661181102362205
 20
-0.3684488188976378
 30
0.0
 10
0.3522874015748032
 20
-0.3684488188976378
 30
0.0
 10
0.3414251968503937
 20
-0.364755905511811
 30
0.0
 10
0.3335629921259843
 20
-0.3573937007874016
 30
0.0
 10
0.3335629921259843
 20
-0.3573937007874016
 30
0.0
 10
0.3273149606299213
 20
-0.3514763779527559
 30
0.0
 10
0.3242047244094488
 20
-0.3447834645669292
 30
0.0
 10
0.3242047244094488
 20
-0.3372834645669292
 30
0.0
 10
0.3242047244094488
 20
-0.3372834645669292
 30
0.0
 10
0.3242047244094488
 20
-0.3312559055118111
 30
0.0
 10
0.3263149606299213
 20
-0.3258661417322835
 30
0.0
 10
0.3305354330708661
 20
-0.3210866141732284
 30
0.0
 10
0.3305354330708661
 20
-0.3210866141732284
 30
0.0
 10
0.3356496062992126
 20
-0.3153937007874016
 30
0.0
 10
0.3429251968503937
 20
-0.3109488188976378
 30
0.0
 10
0.3523700787401575
 20
-0.307755905511811
 30
0.0
 10
0.3523700787401575
 20
-0.307755905511811
 30
0.0
 10
0.3449803149606299
 20
-0.3042834645669291
 30
0.0
 10
0.3396771653543307
 20
-0.300755905511811
 30
0.0
 10
0.3363976377952756
 20
-0.2971692913385827
 30
0.0
 10
0.3363976377952756
 20
-0.2971692913385827
 30
0.0
 10
0.332232283464567
 20
-0.2924488188976378
 30
0.0
 10
0.3301496062992126
 20
-0.2867834645669292
 30
0.0
 10
0.3301496062992126
 20
-0.2801732283464567
 30
0.0
 10
0.3301496062992126
 20
-0.2801732283464567
 30
0.0
 10
0.3301496062992126
 20
-0.2719763779527559
 30
0.0
 10
0.333232283464567
 20
-0.2653385826771654
 30
0.0
 10
0.3394251968503937
 20
-0.2603110236220473
 30
0.0
 10
0.3394251968503937
 20
-0.2603110236220473
 30
0.0
 10
0.3470078740157481
 20
-0.2541141732283465
 30
0.0
 10
0.3565078740157481
 20
-0.2510314960629921
 30
0.0
 10
0.3678976377952756
 20
-0.2510314960629921
 30
0.0
 10
0.3678976377952756
 20
-0.2510314960629921
 30
0.0
 10
0.3783149606299213
 20
-0.2510314960629921
 30
0.0
 10
0.386732283464567
 20
-0.2537007874015748
 30
0.0
 10
0.3931771653543307
 20
-0.2590314960629921
 30
0.0
 10
0.3931771653543307
 20
-0.2590314960629921
 30
0.0
 10
0.3995905511811024
 20
-0.2643937007874016
 30
0.0
 10
0.4028149606299213
 20
-0.270503937007874
 30
0.0
 10
0.4028149606299213
 20
-0.2773937007874016
 30
0.0
 10
0.4028149606299213
 20
-0.2773937007874016
 30
0.0
 10
0.4028149606299213
 20
-0.2808110236220472
 30
0.0
 10
0.4020078740157481
 20
-0.2840866141732283
 30
0.0
 10
0.4004251968503937
 20
-0.2872007874015748
 30
0.0
 10
0.4004251968503937
 20
-0.2872007874015748
 30
0.0
 10
0.3988149606299213
 20
-0.2903110236220473
 30
0.0
 10
0.3963700787401575
 20
-0.2932283464566929
 30
0.0
 10
0.3930354330708661
 20
-0.2958937007874016
 30
0.0
 10
0.3930354330708661
 20
-0.2958937007874016
 30
0.0
 10
0.389732283464567
 20
-0.2985866141732284
 30
0.0
 10
0.3851456692913386
 20
-0.3011141732283465
 30
0.0
 10
0.3792874015748032
 20
-0.303503937007874
 30
0.0
  0
SPLINE
  5
44
330
1F
100
AcDbEntity
  8
LAYER_1
 62
   250
100
AcDbSpline
210
0.0
220
0.0
230
1.0
 70
    11
 71
     3
 72
    48
 73
    44
 74
     0
 42
0.0000000001
 43
0.0000000001
 40
0.0
 40
0.0
 40
0.0
 40
0.0
 40
0.0909090909090909
 40
0.0909090909090909
 40
0.0909090909090909
 40
0.0909090909090909
 40
0.1818181818181818
 40
0.1818181818181818
 40
0.1818181818181818
 40
0.1818181818181818
 40
0.2727272727272727
 40
0.2727272727272727
 40
0.2727272727272727
 40
0.2727272727272727
 40
0.3636363636363637
 40
0.3636363636363637
 40
0.3636363636363637
 40
0.3636363636363637
 40
0.4545454545454546
 40
0.4545454545454546
 40
0.4545454545454546
 40
0.4545454545454546
 40
0.5454545454545455
 40
0.5454545454545455
 40
0.5454545454545455
 40
0.5454545454545455
 40
0.6363636363636365
 40
0.6363636363636365
 40
0.6363636363636365
 40
0.6363636363636365
 40
0.7272727272727274
 40
0.7272727272727274
 40
0.7272727272727274
 40
0.7272727272727274
 40
0.8181818181818183
 40
0.8181818181818183
 40
0.8181818181818183
 40
0.8181818181818183
 40
0.9090909090909093
 40
0.9090909090909093
 40
0.9090909090909093
 40
0.9090909090909093
 40
1.0
 40
1.0
 40
1.0
 40
1.0
 10
0.3718976377952756
 20
-0.300503937007874
 30
0.0
 10
0.3780629921259843
 20
-0.2958385826771653
 30
0.0
 10
0.3820905511811024
 20
-0.2925866141732283
 30
0.0
 10
0.3839251968503937
 20
-0.2907283464566929
 30
0.0
 10
0.3839251968503937
 20
-0.2907283464566929
 30
0.0
 10
0.3857874015748032
 20
-0.2888937007874016
 30
0.0
 10
0.3872047244094488
 20
-0.2867834645669292
 30
0.0
 10
0.3882047244094488
 20
-0.2844212598425197
 30
0.0
 10
0.3882047244094488
 20
-0.2844212598425197
 30
0.0
 10
0.3892047244094488
 20
-0.2820590551181103
 30
0.0
 10
0.3897047244094488
 20
-0.2797834645669292
 30
0.0
 10
0.3897047244094488
 20
-0.2775590551181102
 30
0.0
 10
0.3897047244094488
 20
-0.2775590551181102
 30
0.0
 10
0.3897047244094488
 20
-0.2743661417322835
 30
0.0
 10
0.388759842519685
 20
-0.2713110236220472
 30
0.0
 10
0.3868700787401575
 20
-0.2683937007874016
 30
0.0
 10
0.3868700787401575
 20
-0.2683937007874016
 30
0.0
 10
0.3849527559055118
 20
-0.265503937007874
 30
0.0
 10
0.3821771653543307
 20
-0.2631417322834646
 30
0.0
 10
0.378507874015748
 20
-0.2613661417322835
 30
0.0
 10
0.378507874015748
 20
-0.2613661417322835
 30
0.0
 10
0.3748700787401575
 20
-0.2595590551181102
 30
0.0
 10
0.3707598425196851
 20
-0.2586732283464567
 30
0.0
 10
0.3662047244094489
 20
-0.2586732283464567
 30
0.0
 10
0.3662047244094489
 20
-0.2586732283464567
 30
0.0
 10
0.3594527559055118
 20
-0.2586732283464567
 30
0.0
 10
0.3538700787401575
 20
-0.2605314960629921
 30
0.0
 10
0.3494251968503937
 20
-0.2642559055118111
 30
0.0
 10
0.3494251968503937
 20
-0.2642559055118111
 30
0.0
 10
0.3449803149606299
 20
-0.2679763779527559
 30
0.0
 10
0.3427598425196851
 20
-0.2722559055118111
 30
0.0
 10
0.3427598425196851
 20
-0.2771417322834646
 30
0.0
 10
0.3427598425196851
 20
-0.2771417322834646
 30
0.0
 10
0.3427598425196851
 20
-0.2810590551181103
 30
0.0
 10
0.3441496062992126
 20
-0.2845590551181103
 30
0.0
 10
0.3468976377952756
 20
-0.2876417322834646
 30
0.0
 10
0.3468976377952756
 20
-0.2876417322834646
 30
0.0
 10
0.3496771653543307
 20
-0.2907283464566929
 30
0.0
 10
0.3548149606299213
 20
-0.2937834645669292
 30
0.0
 10
0.3623700787401575
 20
-0.296755905511811
 30
0.0
 10
0.3623700787401575
 20
-0.296755905511811
 30
0.0
 10
0.3623700787401575
 20
-0.296755905511811
 30
0.0
 10
0.3718976377952756
 20
-0.300503937007874
 30
0.0
 10
0.3718976377952756
 20
-0.300503937007874
 30
0.0
  0
SPLINE
  5
45
330
1F
100
AcDbEntity
  8
LAYER_1
 62
   250
100
AcDbSpline
210
0.0
220
0.0
230
1.0
 70
    11
 71
     3
 72
    40
 73
    36
 74
     0
 42
0.0000000001
 43
0.0000000001
 40
0.0
 40
0.0
 40
0.0
 40
0.0
 40
0.1111111111111111
 40
0.1111111111111111
 40
0.1111111111111111
 40
0.1111111111111111
 40
0.2222222222222222
 40
0.2222222222222222
 40
0.2222222222222222
 40
0.2222222222222222
 40
0.3333333333333333
 40
0.3333333333333333
 40
0.3333333333333333
 40
0.3333333333333333
 40
0.4444444444444444
 40
0.4444444444444444
 40
0.4444444444444444
 40
0.4444444444444444
 40
0.5555555555555556
 40
0.5555555555555556
 40
0.5555555555555556
 40
0.5555555555555556
 40
0.6666666666666667
 40
0.6666666666666667
 40
0.6666666666666667
 40
0.6666666666666667
 40
0.7777777777777779
 40
0.7777777777777779
 40
0.7777777777777779
 40
0.7777777777777779
 40
0.8888888888888891
 40
0.8888888888888891
 40
0.8888888888888891
 40
0.8888888888888891
 40
1.0
 40
1.0
 40
1.0
 40
1.0
 10
0.3604251968503937
 20
-0.3109212598425197
 30
0.0
 10
0.3527598425196851
 20
-0.3142834645669291
 30
0.0
 10
0.3467047244094488
 20
-0.3186417322834646
 30
0.0
 10
0.3422598425196851
 20
-0.3240314960629921
 30
0.0
 10
0.3422598425196851
 20
-0.3240314960629921
 30
0.0
 10
0.3387874015748031
 20
-0.3282559055118111
 30
0.0
 10
0.3370629921259843
 20
-0.3326417322834646
 30
0.0
 10
0.3370629921259843
 20
-0.3371968503937008
 30
0.0
 10
0.3370629921259843
 20
-0.3371968503937008
 30
0.0
 10
0.3370629921259843
 20
-0.3433937007874016
 30
0.0
 10
0.3397874015748031
 20
-0.3488937007874016
 30
0.0
 10
0.3452874015748031
 20
-0.3536968503937008
 30
0.0
 10
0.3452874015748031
 20
-0.3536968503937008
 30
0.0
 10
0.3507598425196851
 20
-0.3584763779527559
 30
0.0
 10
0.3578425196850394
 20
-0.3608937007874016
 30
0.0
 10
0.366507874015748
 20
-0.3608937007874016
 30
0.0
 10
0.366507874015748
 20
-0.3608937007874016
 30
0.0
 10
0.3753700787401575
 20
-0.3608937007874016
 30
0.0
 10
0.382732283464567
 20
-0.3581417322834646
 30
0.0
 10
0.3886456692913386
 20
-0.3526692913385827
 30
0.0
 10
0.3886456692913386
 20
-0.3526692913385827
 30
0.0
 10
0.39348031496063
 20
-0.3482244094488189
 30
0.0
 10
0.3958976377952756
 20
-0.3434488188976378
 30
0.0
 10
0.3958976377952756
 20
-0.3383385826771654
 30
0.0
 10
0.3958976377952756
 20
-0.3383385826771654
 30
0.0
 10
0.3958976377952756
 20
-0.3343385826771654
 30
0.0
 10
0.3943149606299213
 20
-0.330503937007874
 30
0.0
 10
0.3911456692913386
 20
-0.3268385826771654
 30
0.0
 10
0.3911456692913386
 20
-0.3268385826771654
 30
0.0
 10
0.3879527559055118
 20
-0.3231692913385827
 30
0.0
 10
0.3820629921259843
 20
-0.3196141732283465
 30
0.0
 10
0.3734251968503937
 20
-0.3161417322834646
 30
0.0
 10
0.3734251968503937
 20
-0.3161417322834646
 30
0.0
 10
0.3734251968503937
 20
-0.3161417322834646
 30
0.0
 10
0.3604251968503937
 20
-0.3109212598425197
 30
0.0
 10
0.3604251968503937
 20
-0.3109212598425197
 30
0.0
  0
SPLINE
  5
46
330
1F
100
AcDbEntity
  8
LAYER_1
 62
   250
100
AcDbSpline
210
0.0
220
0.0
230
1.0
 70
    11
 71
     3
 72
    60
 73
    56
 74
     0
 42
0.0000000001
 43
0.0000000001
 40
0.0
 40
0.0
 40
0.0
 40
0.0
 40
0.0714285714285714
 40
0.0714285714285714
 40
0.0714285714285714
 40
0.0714285714285714
 40
0.1428571428571429
 40
0.1428571428571429
 40
0.1428571428571429
 40
0.1428571428571429
 40
0.2142857142857143
 40
0.2142857142857143
 40
0.2142857142857143
 40
0.2142857142857143
 40
0.2857142857142857
 40
0.2857142857142857
 40
0.2857142857142857
 40
0.2857142857142857
 40
0.3571428571428571
 40
0.3571428571428571
 40
0.3571428571428571
 40
0.3571428571428571
 40
0.4285714285714285
 40
0.4285714285714285
 40
0.4285714285714285
 40
0.4285714285714285
 40
0.4999999999999999
 40
0.4999999999999999
 40
0.4999999999999999
 40
0.4999999999999999
 40
0.5714285714285713
 40
0.5714285714285713
 40
0.5714285714285713
 40
0.5714285714285713
 40
0.6428571428571427
 40
0.6428571428571427
 40
0.6428571428571427
 40
0.6428571428571427
 40
0.7142857142857141
 40
0.7142857142857141
 40
0.7142857142857141
 40
0.7142857142857141
 40
0.7857142857142855
 40
0.7857142857142855
 40
0.7857142857142855
 40
0.7857142857142855
 40
0.8571428571428569
 40
0.8571428571428569
 40
0.8571428571428569
 40
0.8571428571428569
 40
0.9285714285714283
 40
0.9285714285714283
 40
0.9285714285714283
 40
0.9285714285714283
 40
1.0
 40
1.0
 40
1.0
 40
1.0
 10
0.4282874015748032
 20
-0.2950590551181103
 30
0.0
 10
0.4282874015748032
 20
-0.2950590551181103
 30
0.0
 10
0.4238976377952756
 20
-0.2896692913385827
 30
0.0
 10
0.4238976377952756
 20
-0.2896692913385827
 30
0.0
 10
0.4238976377952756
 20
-0.2896692913385827
 30
0.0
 10
0.4350118110236221
 20
-0.2806141732283465
 30
0.0
 10
0.4405944881889764
 20
-0.2730590551181102
 30
0.0
 10
0.4405944881889764
 20
-0.2669763779527559
 30
0.0
 10
0.4405944881889764
 20
-0.2669763779527559
 30
0.0
 10
0.4405944881889764
 20
-0.2662834645669291
 30
0.0
 10
0.4405393700787402
 20
-0.2653937007874016
 30
0.0
 10
0.4404251968503937
 20
-0.2643661417322835
 30
0.0
 10
0.4404251968503937
 20
-0.2643661417322835
 30
0.0
 10
0.4395118110236221
 20
-0.2647559055118111
 30
0.0
 10
0.4385944881889764
 20
-0.2650590551181102
 30
0.0
 10
0.4377322834645669
 20
-0.2652559055118111
 30
0.0
 10
0.4377322834645669
 20
-0.2652559055118111
 30
0.0
 10
0.4368700787401575
 20
-0.2654763779527559
 30
0.0
 10
0.4360669291338583
 20
-0.2655866141732284
 30
0.0
 10
0.4352874015748032
 20
-0.2655866141732284
 30
0.0
 10
0.4352874015748032
 20
-0.2655866141732284
 30
0.0
 10
0.4326771653543307
 20
-0.2655866141732284
 30
0.0
 10
0.4305944881889764
 20
-0.2647559055118111
 30
0.0
 10
0.4290393700787402
 20
-0.2630590551181102
 30
0.0
 10
0.4290393700787402
 20
-0.2630590551181102
 30
0.0
 10
0.4274527559055119
 20
-0.2613937007874016
 30
0.0
 10
0.4266771653543307
 20
-0.2592559055118111
 30
0.0
 10
0.4266771653543307
 20
-0.2566417322834646
 30
0.0
 10
0.4266771653543307
 20
-0.2566417322834646
 30
0.0
 10
0.4266771653543307
 20
-0.2540866141732284
 30
0.0
 10
0.4276220472440945
 20
-0.2518661417322835
 30
0.0
 10
0.4295118110236221
 20
-0.2499763779527559
 30
0.0
 10
0.4295118110236221
 20
-0.2499763779527559
 30
0.0
 10
0.4314251968503937
 20
-0.2480590551181102
 30
0.0
 10
0.4337047244094489
 20
-0.2471141732283465
 30
0.0
 10
0.4363425196850394
 20
-0.2471141732283465
 30
0.0
 10
0.4363425196850394
 20
-0.2471141732283465
 30
0.0
 10
0.4400393700787402
 20
-0.2471141732283465
 30
0.0
 10
0.4432047244094489
 20
-0.2485866141732284
 30
0.0
 10
0.4458425196850394
 20
-0.2515590551181102
 30
0.0
 10
0.4458425196850394
 20
-0.2515590551181102
 30
0.0
 10
0.4484527559055118
 20
-0.2545039370078741
 30
0.0
 10
0.4497874015748032
 20
-0.2583110236220473
 30
0.0
 10
0.4497874015748032
 20
-0.2629763779527559
 30
0.0
 10
0.4497874015748032
 20
-0.2629763779527559
 30
0.0
 10
0.4497874015748032
 20
-0.2660314960629922
 30
0.0
 10
0.4491496062992126
 20
-0.2692283464566929
 30
0.0
 10
0.4478976377952756
 20
-0.2725590551181102
 30
0.0
 10
0.4478976377952756
 20
-0.2725590551181102
 30
0.0
 10
0.4466496062992126
 20
-0.2758937007874016
 30
0.0
 10
0.4448425196850394
 20
-0.2789763779527559
 30
0.0
 10
0.4424527559055118
 20
-0.2818385826771654
 30
0.0
 10
0.4424527559055118
 20
-0.2818385826771654
 30
0.0
 10
0.4400669291338583
 20
-0.2846692913385827
 30
0.0
 10
0.4353425196850394
 20
-0.2890866141732283
 30
0.0
 10
0.4282874015748032
 20
-0.2950590551181103
 30
0.0
  0
SPLINE
  5
47
330
1F
100
AcDbEntity
  8
LAYER_1
 62
   250
100
AcDbSpline
210
0.0
220
0.0
230
1.0
 70
    11
 71
     3
 72
    60
 73
    56
 74
     0
 42
0.0000000001
 43
0.0000000001
 40
0.0
 40
0.0
 40
0.0
 40
0.0
 40
0.0714285714285714
 40
0.0714285714285714
 40
0.0714285714285714
 40
0.0714285714285714
 40
0.1428571428571429
 40
0.1428571428571429
 40
0.1428571428571429
 40
0.1428571428571429
 40
0.2142857142857143
 40
0.2142857142857143
 40
0.2142857142857143
 40
0.2142857142857143
 40
0.2857142857142857
 40
0.2857142857142857
 40
0.2857142857142857
 40
0.2857142857142857
 40
0.3571428571428571
 40
0.3571428571428571
 40
0.3571428571428571
 40
0.3571428571428571
 40
0.4285714285714285
 40
0.4285714285714285
 40
0.4285714285714285
 40
0.4285714285714285
 40
0.4999999999999999
 40
0.4999999999999999
 40
0.4999999999999999
 40
0.4999999999999999
 40
0.5714285714285713
 40
0.5714285714285713
 40
0.5714285714285713
 40
0.5714285714285713
 40
0.6428571428571427
 40
0.6428571428571427
 40
0.6428571428571427
 40
0.6428571428571427
 40
0.7142857142857141
 40
0.7142857142857141
 40
0.7142857142857141
 40
0.7142857142857141
 40
0.7857142857142855
 40
0.7857142857142855
 40
0.7857142857142855
 40
0.7857142857142855
 40
0.8571428571428569
 40
0.8571428571428569
 40
0.8571428571428569
 40
0.8571428571428569
 40
0.9285714285714283
 40
0.9285714285714283
 40
0.9285714285714283
 40
0.9285714285714283
 40
1.0
 40
1.0
 40
1.0
 40
1.0
 10
0.4573425196850394
 20
-0.2950590551181103
 30
0.0
 10
0.4573425196850394
 20
-0.2950590551181103
 30
0.0
 10
0.4529527559055118
 20
-0.2896692913385827
 30
0.0
 10
0.4529527559055118
 20
-0.2896692913385827
 30
0.0
 10
0.4529527559055118
 20
-0.2896692913385827
 30
0.0
 10
0.4640669291338583
 20
-0.2806141732283465
 30
0.0
 10
0.4696496062992126
 20
-0.2730590551181102
 30
0.0
 10
0.4696496062992126
 20
-0.2669763779527559
 30
0.0
 10
0.4696496062992126
 20
-0.2669763779527559
 30
0.0
 10
0.4696496062992126
 20
-0.2662834645669291
 30
0.0
 10
0.4695944881889764
 20
-0.2653937007874016
 30
0.0
 10
0.4694803149606299
 20
-0.2643661417322835
 30
0.0
 10
0.4694803149606299
 20
-0.2643661417322835
 30
0.0
 10
0.4685669291338583
 20
-0.2647559055118111
 30
0.0
 10
0.4676496062992126
 20
-0.2650590551181102
 30
0.0
 10
0.4667874015748031
 20
-0.2652559055118111
 30
0.0
 10
0.4667874015748031
 20
-0.2652559055118111
 30
0.0
 10
0.4659251968503937
 20
-0.2654763779527559
 30
0.0
 10
0.4650944881889764
 20
-0.2655866141732284
 30
0.0
 10
0.4642598425196851
 20
-0.2655866141732284
 30
0.0
 10
0.4642598425196851
 20
-0.2655866141732284
 30
0.0
 10
0.4617047244094488
 20
-0.2655866141732284
 30
0.0
 10
0.4596496062992126
 20
-0.2647559055118111
 30
0.0
 10
0.4580944881889764
 20
-0.2630590551181102
 30
0.0
 10
0.4580944881889764
 20
-0.2630590551181102
 30
0.0
 10
0.456511811023622
 20
-0.2613937007874016
 30
0.0
 10
0.455732283464567
 20
-0.2592559055118111
 30
0.0
 10
0.455732283464567
 20
-0.2566417322834646
 30
0.0
 10
0.455732283464567
 20
-0.2566417322834646
 30
0.0
 10
0.455732283464567
 20
-0.2540866141732284
 30
0.0
 10
0.4566771653543307
 20
-0.2518661417322835
 30
0.0
 10
0.4585669291338583
 20
-0.2499763779527559
 30
0.0
 10
0.4585669291338583
 20
-0.2499763779527559
 30
0.0
 10
0.4604527559055118
 20
-0.2480590551181102
 30
0.0
 10
0.4627598425196851
 20
-0.2471141732283465
 30
0.0
 10
0.4653976377952756
 20
-0.2471141732283465
 30
0.0
 10
0.4653976377952756
 20
-0.2471141732283465
 30
0.0
 10
0.4690944881889764
 20
-0.2471141732283465
 30
0.0
 10
0.4722598425196851
 20
-0.2485866141732284
 30
0.0
 10
0.4748976377952756
 20
-0.2515590551181102
 30
0.0
 10
0.4748976377952756
 20
-0.2515590551181102
 30
0.0
 10
0.4775078740157481
 20
-0.2545039370078741
 30
0.0
 10
0.4788425196850394
 20
-0.2583110236220473
 30
0.0
 10
0.4788425196850394
 20
-0.2629763779527559
 30
0.0
 10
0.4788425196850394
 20
-0.2629763779527559
 30
0.0
 10
0.4788425196850394
 20
-0.2660314960629922
 30
0.0
 10
0.4782047244094488
 20
-0.2692283464566929
 30
0.0
 10
0.4769527559055118
 20
-0.2725590551181102
 30
0.0
 10
0.4769527559055118
 20
-0.2725590551181102
 30
0.0
 10
0.4757047244094488
 20
-0.2758937007874016
 30
0.0
 10
0.4738976377952756
 20
-0.2789763779527559
 30
0.0
 10
0.4715118110236221
 20
-0.2818385826771654
 30
0.0
 10
0.4715118110236221
 20
-0.2818385826771654
 30
0.0
 10
0.4691220472440945
 20
-0.2846692913385827
 30
0.0
 10
0.4643976377952756
 20
-0.2890866141732283
 30
0.0
 10
0.4573425196850394
 20
-0.2950590551181103
 30
0.0
  0
SPLINE
  5
48
330
1F
100
AcDbEntity
  8
LAYER_1
 62
   253
100
AcDbSpline
210
0.0
220
0.0
230
1.0
 70
    11
 71
     3
 72
    20
 73
    16
 74
     0
 42
0.0000000001
 43
0.0000000001
 40
0.0
 40
0.0
 40
0.0
 40
0.0
 40
0.25
 40
0.25
 40
0.25
 40
0.25
 40
0.5
 40
0.5
 40
0.5
 40
0.5
 40
0.75
 40
0.75
 40
0.75
 40
0.75
 40
1.0
 40
1.0
 40
1.0
 40
1.0
 10
0.4209251968503937
 20
2.083811023622047
 30
0.0
 10
0.4209251968503937
 20
2.083811023622047
 30
0.0
 10
1.071035433070866
 20
1.709094488188977
 30
0.0
 10
1.071035433070866
 20
1.709094488188977
 30
0.0
 10
1.071035433070866
 20
1.709094488188977
 30
0.0
 10
1.071035433070866
 20
1.709094488188977
 30
0.0
 10
1.071035433070866
 20
2.219181102362205
 30
0.0
 10
1.071035433070866
 20
2.219181102362205
 30
0.0
 10
1.071035433070866
 20
2.219181102362205
 30
0.0
 10
1.071035433070866
 20
2.219181102362205
 30
0.0
 10
0.4209251968503937
 20
2.593897637795276
 30
0.0
 10
0.4209251968503937
 20
2.593897637795276
 30
0.0
 10
0.4209251968503937
 20
2.593897637795276
 30
0.0
 10
0.4209251968503937
 20
2.593897637795276
 30
0.0
 10
0.4209251968503937
 20
2.083811023622047
 30
0.0
 10
0.4209251968503937
 20
2.083811023622047
 30
0.0
  0
SPLINE
  5
49
330
1F
100
AcDbEntity
  8
LAYER_1
 62
   250
100
AcDbSpline
210
0.0
220
0.0
230
1.0
 70
    11
 71
     3
 72
    20
 73
    16
 74
     0
 42
0.0000000001
 43
0.0000000001
 40
0.0
 40
0.0
 40
0.0
 40
0.0
 40
0.25
 40
0.25
 40
0.25
 40
0.25
 40
0.5
 40
0.5
 40
0.5
 40
0.5
 40
0.75
 40
0.75
 40
0.75
 40
0.75
 40
1.0
 40
1.0
 40
1.0
 40
1.0
 10
0.4209251968503937
 20
2.083811023622047
 30
0.0
 10
0.4209251968503937
 20
2.083811023622047
 30
0.0
 10
1.071035433070866
 20
1.709094488188977
 30
0.0
 10
1.071035433070866
 20
1.709094488188977
 30
0.0
 10
1.071035433070866
 20
1.709094488188977
 30
0.0
 10
1.071035433070866
 20
1.709094488188977
 30
0.0
 10
1.071035433070866
 20
2.219181102362205
 30
0.0
 10
1.071035433070866
 20
2.219181102362205
 30
0.0
 10
1.071035433070866
 20
2.219181102362205
 30
0.0
 10
1.071035433070866
 20
2.219181102362205
 30
0.0
 10
0.4209251968503937
 20
2.593897637795276
 30
0.0
 10
0.4209251968503937
 20
2.593897637795276
 30
0.0
 10
0.4209251968503937
 20
2.593897637795276
 30
0.0
 10
0.4209251968503937
 20
2.593897637795276
 30
0.0
 10
0.4209251968503937
 20
2.083811023622047
 30
0.0
 10
0.4209251968503937
 20
2.083811023622047
 30
0.0
  0
SPLINE
  5
4A
330
1F
100
AcDbEntity
  8
LAYER_1
 62
   253
100
AcDbSpline
210
0.0
220
0.0
230
1.0
 70
    11
 71
     3
 72
    52
 73
    48
 74
     0
 42
0.0000000001
 43
0.0000000001
 40
0.0
 40
0.0
 40
0.0
 40
0.0
 40
0.0833333333333333
 40
0.0833333333333333
 40
0.0833333333333333
 40
0.0833333333333333
 40
0.1666666666666667
 40
0.1666666666666667
 40
0.1666666666666667
 40
0.1666666666666667
 40
0.25
 40
0.25
 40
0.25
 40
0.25
 40
0.3333333333333333
 40
0.3333333333333333
 40
0.3333333333333333
 40
0.3333333333333333
 40
0.4166666666666666
 40
0.4166666666666666
 40
0.4166666666666666
 40
0.4166666666666666
 40
0.4999999999999999
 40
0.4999999999999999
 40
0.4999999999999999
 40
0.4999999999999999
 40
0.5833333333333333
 40
0.5833333333333333
 40
0.5833333333333333
 40
0.5833333333333333
 40
0.6666666666666666
 40
0.6666666666666666
 40
0.6666666666666666
 40
0.6666666666666666
 40
0.75
 40
0.75
 40
0.75
 40
0.75
 40
0.8333333333333334
 40
0.8333333333333334
 40
0.8333333333333334
 40
0.8333333333333334
 40
0.9166666666666667
 40
0.9166666666666667
 40
0.9166666666666667
 40
0.9166666666666667
 40
1.0
 40
1.0
 40
1.0
 40
1.0
 10
0.4209251968503937
 20
2.593897637795276
 30
0.0
 10
0.4209251968503937
 20
2.593897637795276
 30
0.0
 10
1.071035433070866
 20
2.219181102362205
 30
0.0
 10
1.071035433070866
 20
2.219181102362205
 30
0.0
 10
1.071035433070866
 20
2.219181102362205
 30
0.0
 10
1.071035433070866
 20
2.219181102362205
 30
0.0
 10
1.071507874015748
 20
2.228885826771654
 30
0.0
 10
1.071507874015748
 20
2.228885826771654
 30
0.0
 10
1.071507874015748
 20
2.228885826771654
 30
0.0
 10
1.071507874015748
 20
2.228885826771654
 30
0.0
 10
1.072484251968504
 20
2.238082677165354
 30
0.0
 10
1.072484251968504
 20
2.238082677165354
 30
0.0
 10
1.072484251968504
 20
2.238082677165354
 30
0.0
 10
1.072484251968504
 20
2.238082677165354
 30
0.0
 10
1.07394094488189
 20
2.246779527559055
 30
0.0
 10
1.07394094488189
 20
2.246779527559055
 30
0.0
 10
1.07394094488189
 20
2.246779527559055
 30
0.0
 10
1.07394094488189
 20
2.246779527559055
 30
0.0
 10
1.075874015748032
 20
2.255
 30
0.0
 10
1.075874015748032
 20
2.255
 30
0.0
 10
1.075874015748032
 20
2.255
 30
0.0
 10
1.075874015748032
 20
2.255
 30
0.0
 10
1.078251968503937
 20
2.262740157480315
 30
0.0
 10
1.078251968503937
 20
2.262740157480315
 30
0.0
 10
1.078251968503937
 20
2.262740157480315
 30
0.0
 10
1.078251968503937
 20
2.262740157480315
 30
0.0
 10
0.4281417322834646
 20
2.637456692913386
 30
0.0
 10
0.4281417322834646
 20
2.637456692913386
 30
0.0
 10
0.4281417322834646
 20
2.637456692913386
 30
0.0
 10
0.4281417322834646
 20
2.637456692913386
 30
0.0
 10
0.4257637795275591
 20
2.629716535433071
 30
0.0
 10
0.4257637795275591
 20
2.629716535433071
 30
0.0
 10
0.4257637795275591
 20
2.629716535433071
 30
0.0
 10
0.4257637795275591
 20
2.629716535433071
 30
0.0
 10
0.4238307086614174
 20
2.621496062992126
 30
0.0
 10
0.4238307086614174
 20
2.621496062992126
 30
0.0
 10
0.4238307086614174
 20
2.621496062992126
 30
0.0
 10
0.4238307086614174
 20
2.621496062992126
 30
0.0
 10
0.4223740157480315
 20
2.612799212598425
 30
0.0
 10
0.4223740157480315
 20
2.612799212598425
 30
0.0
 10
0.4223740157480315
 20
2.612799212598425
 30
0.0
 10
0.4223740157480315
 20
2.612799212598425
 30
0.0
 10
0.4213976377952756
 20
2.603602362204724
 30
0.0
 10
0.4213976377952756
 20
2.603602362204724
 30
0.0
 10
0.4213976377952756
 20
2.603602362204724
 30
0.0
 10
0.4213976377952756
 20
2.603602362204724
 30
0.0
 10
0.4209251968503937
 20
2.593897637795276
 30
0.0
 10
0.4209251968503937
 20
2.593897637795276
 30
0.0
  0
SPLINE
  5
4B
330
1F
100
AcDbEntity
  8
LAYER_1
 62
   253
100
AcDbSpline
210
0.0
220
0.0
230
1.0
 70
    11
 71
     3
 72
    60
 73
    56
 74
     0
 42
0.0000000001
 43
0.0000000001
 40
0.0
 40
0.0
 40
0.0
 40
0.0
 40
0.0714285714285714
 40
0.0714285714285714
 40
0.0714285714285714
 40
0.0714285714285714
 40
0.1428571428571429
 40
0.1428571428571429
 40
0.1428571428571429
 40
0.1428571428571429
 40
0.2142857142857143
 40
0.2142857142857143
 40
0.2142857142857143
 40
0.2142857142857143
 40
0.2857142857142857
 40
0.2857142857142857
 40
0.2857142857142857
 40
0.2857142857142857
 40
0.3571428571428571
 40
0.3571428571428571
 40
0.3571428571428571
 40
0.3571428571428571
 40
0.4285714285714285
 40
0.4285714285714285
 40
0.4285714285714285
 40
0.4285714285714285
 40
0.4999999999999999
 40
0.4999999999999999
 40
0.4999999999999999
 40
0.4999999999999999
 40
0.5714285714285713
 40
0.5714285714285713
 40
0.5714285714285713
 40
0.5714285714285713
 40
0.6428571428571427
 40
0.6428571428571427
 40
0.6428571428571427
 40
0.6428571428571427
 40
0.7142857142857141
 40
0.7142857142857141
 40
0.7142857142857141
 40
0.7142857142857141
 40
0.7857142857142855
 40
0.7857142857142855
 40
0.7857142857142855
 40
0.7857142857142855
 40
0.8571428571428569
 40
0.8571428571428569
 40
0.8571428571428569
 40
0.8571428571428569
 40
0.9285714285714283
 40
0.9285714285714283
 40
0.9285714285714283
 40
0.9285714285714283
 40
1.0
 40
1.0
 40
1.0
 40
1.0
 10
0.4281417322834646
 20
2.637456692913386
 30
0.0
 10
0.4281417322834646
 20
2.637456692913386
 30
0.0
 10
1.078251968503937
 20
2.262740157480315
 30
0.0
 10
1.078251968503937
 20
2.262740157480315
 30
0.0
 10
1.078251968503937
 20
2.262740157480315
 30
0.0
 10
1.078251968503937
 20
2.262740157480315
 30
0.0
 10
1.081082677165354
 20
2.270027559055118
 30
0.0
 10
1.081082677165354
 20
2.270027559055118
 30
0.0
 10
1.081082677165354
 20
2.270027559055118
 30
0.0
 10
1.081082677165354
 20
2.270027559055118
 30
0.0
 10
1.084334645669291
 20
2.276862204724409
 30
0.0
 10
1.084334645669291
 20
2.276862204724409
 30
0.0
 10
1.084334645669291
 20
2.276862204724409
 30
0.0
 10
1.084334645669291
 20
2.276862204724409
 30
0.0
 10
1.088007874015748
 20
2.283267716535433
 30
0.0
 10
1.088007874015748
 20
2.283267716535433
 30
0.0
 10
1.088007874015748
 20
2.283267716535433
 30
0.0
 10
1.088007874015748
 20
2.283267716535433
 30
0.0
 10
1.092070866141732
 20
2.289244094488189
 30
0.0
 10
1.092070866141732
 20
2.289244094488189
 30
0.0
 10
1.092070866141732
 20
2.289244094488189
 30
0.0
 10
1.092070866141732
 20
2.289244094488189
 30
0.0
 10
1.096527559055118
 20
2.294814960629922
 30
0.0
 10
1.096527559055118
 20
2.294814960629922
 30
0.0
 10
1.096527559055118
 20
2.294814960629922
 30
0.0
 10
1.096527559055118
 20
2.294814960629922
 30
0.0
 10
1.101354330708662
 20
2.299992125984252
 30
0.0
 10
1.101354330708662
 20
2.299992125984252
 30
0.0
 10
1.101354330708662
 20
2.299992125984252
 30
0.0
 10
1.101354330708662
 20
2.299992125984252
 30
0.0
 10
0.451244094488189
 20
2.674708661417323
 30
0.0
 10
0.451244094488189
 20
2.674708661417323
 30
0.0
 10
0.451244094488189
 20
2.674708661417323
 30
0.0
 10
0.451244094488189
 20
2.674708661417323
 30
0.0
 10
0.4464173228346457
 20
2.669531496062992
 30
0.0
 10
0.4464173228346457
 20
2.669531496062992
 30
0.0
 10
0.4464173228346457
 20
2.669531496062992
 30
0.0
 10
0.4464173228346457
 20
2.669531496062992
 30
0.0
 10
0.4419606299212598
 20
2.66396062992126
 30
0.0
 10
0.4419606299212598
 20
2.66396062992126
 30
0.0
 10
0.4419606299212598
 20
2.66396062992126
 30
0.0
 10
0.4419606299212598
 20
2.66396062992126
 30
0.0
 10
0.4378976377952756
 20
2.657984251968504
 30
0.0
 10
0.4378976377952756
 20
2.657984251968504
 30
0.0
 10
0.4378976377952756
 20
2.657984251968504
 30
0.0
 10
0.4378976377952756
 20
2.657984251968504
 30
0.0
 10
0.4342244094488189
 20
2.65157874015748
 30
0.0
 10
0.4342244094488189
 20
2.65157874015748
 30
0.0
 10
0.4342244094488189
 20
2.65157874015748
 30
0.0
 10
0.4342244094488189
 20
2.65157874015748
 30
0.0
 10
0.4309724409448819
 20
2.644744094488189
 30
0.0
 10
0.4309724409448819
 20
2.644744094488189
 30
0.0
 10
0.4309724409448819
 20
2.644744094488189
 30
0.0
 10
0.4309724409448819
 20
2.644744094488189
 30
0.0
 10
0.4281417322834646
 20
2.637456692913386
 30
0.0
 10
0.4281417322834646
 20
2.637456692913386
 30
0.0
  0
SPLINE
  5
4C
330
1F
100
AcDbEntity
  8
LAYER_1
 62
   253
100
AcDbSpline
210
0.0
220
0.0
230
1.0
 70
    11
 71
     3
 72
    60
 73
    56
 74
     0
 42
0.0000000001
 43
0.0000000001
 40
0.0
 40
0.0
 40
0.0
 40
0.0
 40
0.0714285714285714
 40
0.0714285714285714
 40
0.0714285714285714
 40
0.0714285714285714
 40
0.1428571428571429
 40
0.1428571428571429
 40
0.1428571428571429
 40
0.1428571428571429
 40
0.2142857142857143
 40
0.2142857142857143
 40
0.2142857142857143
 40
0.2142857142857143
 40
0.2857142857142857
 40
0.2857142857142857
 40
0.2857142857142857
 40
0.2857142857142857
 40
0.3571428571428571
 40
0.3571428571428571
 40
0.3571428571428571
 40
0.3571428571428571
 40
0.4285714285714285
 40
0.4285714285714285
 40
0.4285714285714285
 40
0.4285714285714285
 40
0.4999999999999999
 40
0.4999999999999999
 40
0.4999999999999999
 40
0.4999999999999999
 40
0.5714285714285713
 40
0.5714285714285713
 40
0.5714285714285713
 40
0.5714285714285713
 40
0.6428571428571427
 40
0.6428571428571427
 40
0.6428571428571427
 40
0.6428571428571427
 40
0.7142857142857141
 40
0.7142857142857141
 40
0.7142857142857141
 40
0.7142857142857141
 40
0.7857142857142855
 40
0.7857142857142855
 40
0.7857142857142855
 40
0.7857142857142855
 40
0.8571428571428569
 40
0.8571428571428569
 40
0.8571428571428569
 40
0.8571428571428569
 40
0.9285714285714283
 40
0.9285714285714283
 40
0.9285714285714283
 40
0.9285714285714283
 40
1.0
 40
1.0
 40
1.0
 40
1.0
 10
0.451244094488189
 20
2.674708661417323
 30
0.0
 10
0.451244094488189
 20
2.674708661417323
 30
0.0
 10
1.101354330708662
 20
2.299992125984252
 30
0.0
 10
1.101354330708662
 20
2.299992125984252
 30
0.0
 10
1.101354330708662
 20
2.299992125984252
 30
0.0
 10
1.101354330708662
 20
2.299992125984252
 30
0.0
 10
1.106547244094488
 20
2.304787401574803
 30
0.0
 10
1.106547244094488
 20
2.304787401574803
 30
0.0
 10
1.106547244094488
 20
2.304787401574803
 30
0.0
 10
1.106547244094488
 20
2.304787401574803
 30
0.0
 10
1.11207874015748
 20
2.309208661417323
 30
0.0
 10
1.11207874015748
 20
2.309208661417323
 30
0.0
 10
1.11207874015748
 20
2.309208661417323
 30
0.0
 10
1.11207874015748
 20
2.309208661417323
 30
0.0
 10
1.117948818897638
 20
2.313275590551181
 30
0.0
 10
1.117948818897638
 20
2.313275590551181
 30
0.0
 10
1.117948818897638
 20
2.313275590551181
 30
0.0
 10
1.117948818897638
 20
2.313275590551181
 30
0.0
 10
1.124133858267717
 20
2.317
 30
0.0
 10
1.124133858267717
 20
2.317
 30
0.0
 10
1.124133858267717
 20
2.317
 30
0.0
 10
1.124133858267717
 20
2.317
 30
0.0
 10
1.130625984251969
 20
2.320393700787402
 30
0.0
 10
1.130625984251969
 20
2.320393700787402
 30
0.0
 10
1.130625984251969
 20
2.320393700787402
 30
0.0
 10
1.130625984251969
 20
2.320393700787402
 30
0.0
 10
1.137397637795276
 20
2.32346062992126
 30
0.0
 10
1.137397637795276
 20
2.32346062992126
 30
0.0
 10
1.137397637795276
 20
2.32346062992126
 30
0.0
 10
1.137397637795276
 20
2.32346062992126
 30
0.0
 10
0.4872874015748032
 20
2.698177165354331
 30
0.0
 10
0.4872874015748032
 20
2.698177165354331
 30
0.0
 10
0.4872874015748032
 20
2.698177165354331
 30
0.0
 10
0.4872874015748032
 20
2.698177165354331
 30
0.0
 10
0.4805157480314961
 20
2.695110236220473
 30
0.0
 10
0.4805157480314961
 20
2.695110236220473
 30
0.0
 10
0.4805157480314961
 20
2.695110236220473
 30
0.0
 10
0.4805157480314961
 20
2.695110236220473
 30
0.0
 10
0.4740236220472441
 20
2.691716535433071
 30
0.0
 10
0.4740236220472441
 20
2.691716535433071
 30
0.0
 10
0.4740236220472441
 20
2.691716535433071
 30
0.0
 10
0.4740236220472441
 20
2.691716535433071
 30
0.0
 10
0.4678385826771654
 20
2.687992125984252
 30
0.0
 10
0.4678385826771654
 20
2.687992125984252
 30
0.0
 10
0.4678385826771654
 20
2.687992125984252
 30
0.0
 10
0.4678385826771654
 20
2.687992125984252
 30
0.0
 10
0.4619685039370079
 20
2.683925196850394
 30
0.0
 10
0.4619685039370079
 20
2.683925196850394
 30
0.0
 10
0.4619685039370079
 20
2.683925196850394
 30
0.0
 10
0.4619685039370079
 20
2.683925196850394
 30
0.0
 10
0.4564370078740158
 20
2.679503937007874
 30
0.0
 10
0.4564370078740158
 20
2.679503937007874
 30
0.0
 10
0.4564370078740158
 20
2.679503937007874
 30
0.0
 10
0.4564370078740158
 20
2.679503937007874
 30
0.0
 10
0.451244094488189
 20
2.674708661417323
 30
0.0
 10
0.451244094488189
 20
2.674708661417323
 30
0.0
  0
SPLINE
  5
4D
330
1F
100
AcDbEntity
  8
LAYER_1
 62
   253
100
AcDbSpline
210
0.0
220
0.0
230
1.0
 70
    11
 71
     3
 72
    60
 73
    56
 74
     0
 42
0.0000000001
 43
0.0000000001
 40
0.0
 40
0.0
 40
0.0
 40
0.0
 40
0.0714285714285714
 40
0.0714285714285714
 40
0.0714285714285714
 40
0.0714285714285714
 40
0.1428571428571429
 40
0.1428571428571429
 40
0.1428571428571429
 40
0.1428571428571429
 40
0.2142857142857143
 40
0.2142857142857143
 40
0.2142857142857143
 40
0.2142857142857143
 40
0.2857142857142857
 40
0.2857142857142857
 40
0.2857142857142857
 40
0.2857142857142857
 40
0.3571428571428571
 40
0.3571428571428571
 40
0.3571428571428571
 40
0.3571428571428571
 40
0.4285714285714285
 40
0.4285714285714285
 40
0.4285714285714285
 40
0.4285714285714285
 40
0.4999999999999999
 40
0.4999999999999999
 40
0.4999999999999999
 40
0.4999999999999999
 40
0.5714285714285713
 40
0.5714285714285713
 40
0.5714285714285713
 40
0.5714285714285713
 40
0.6428571428571427
 40
0.6428571428571427
 40
0.6428571428571427
 40
0.6428571428571427
 40
0.7142857142857141
 40
0.7142857142857141
 40
0.7142857142857141
 40
0.7142857142857141
 40
0.7857142857142855
 40
0.7857142857142855
 40
0.7857142857142855
 40
0.7857142857142855
 40
0.8571428571428569
 40
0.8571428571428569
 40
0.8571428571428569
 40
0.8571428571428569
 40
0.9285714285714283
 40
0.9285714285714283
 40
0.9285714285714283
 40
0.9285714285714283
 40
1.0
 40
1.0
 40
1.0
 40
1.0
 10
0.4872874015748032
 20
2.698177165354331
 30
0.0
 10
0.4872874015748032
 20
2.698177165354331
 30
0.0
 10
1.137397637795276
 20
2.32346062992126
 30
0.0
 10
1.137397637795276
 20
2.32346062992126
 30
0.0
 10
1.137397637795276
 20
2.32346062992126
 30
0.0
 10
1.137397637795276
 20
2.32346062992126
 30
0.0
 10
1.144456692913386
 20
2.326228346456693
 30
0.0
 10
1.144456692913386
 20
2.326228346456693
 30
0.0
 10
1.144456692913386
 20
2.326228346456693
 30
0.0
 10
1.144456692913386
 20
2.326228346456693
 30
0.0
 10
1.151775590551181
 20
2.328696850393701
 30
0.0
 10
1.151775590551181
 20
2.328696850393701
 30
0.0
 10
1.151775590551181
 20
2.328696850393701
 30
0.0
 10
1.151775590551181
 20
2.328696850393701
 30
0.0
 10
1.159346456692914
 20
2.330893700787402
 30
0.0
 10
1.159346456692914
 20
2.330893700787402
 30
0.0
 10
1.159346456692914
 20
2.330893700787402
 30
0.0
 10
1.159346456692914
 20
2.330893700787402
 30
0.0
 10
1.167149606299213
 20
2.332814960629921
 30
0.0
 10
1.167149606299213
 20
2.332814960629921
 30
0.0
 10
1.167149606299213
 20
2.332814960629921
 30
0.0
 10
1.167149606299213
 20
2.332814960629921
 30
0.0
 10
1.175177165354331
 20
2.334488188976378
 30
0.0
 10
1.175177165354331
 20
2.334488188976378
 30
0.0
 10
1.175177165354331
 20
2.334488188976378
 30
0.0
 10
1.175177165354331
 20
2.334488188976378
 30
0.0
 10
1.183409448818898
 20
2.335917322834646
 30
0.0
 10
1.183409448818898
 20
2.335917322834646
 30
0.0
 10
1.183409448818898
 20
2.335917322834646
 30
0.0
 10
1.183409448818898
 20
2.335917322834646
 30
0.0
 10
0.5332992125984252
 20
2.710633858267717
 30
0.0
 10
0.5332992125984252
 20
2.710633858267717
 30
0.0
 10
0.5332992125984252
 20
2.710633858267717
 30
0.0
 10
0.5332992125984252
 20
2.710633858267717
 30
0.0
 10
0.5250669291338583
 20
2.709204724409449
 30
0.0
 10
0.5250669291338583
 20
2.709204724409449
 30
0.0
 10
0.5250669291338583
 20
2.709204724409449
 30
0.0
 10
0.5250669291338583
 20
2.709204724409449
 30
0.0
 10
0.5170393700787401
 20
2.707531496062992
 30
0.0
 10
0.5170393700787401
 20
2.707531496062992
 30
0.0
 10
0.5170393700787401
 20
2.707531496062992
 30
0.0
 10
0.5170393700787401
 20
2.707531496062992
 30
0.0
 10
0.509236220472441
 20
2.705610236220473
 30
0.0
 10
0.509236220472441
 20
2.705610236220473
 30
0.0
 10
0.509236220472441
 20
2.705610236220473
 30
0.0
 10
0.509236220472441
 20
2.705610236220473
 30
0.0
 10
0.5016653543307087
 20
2.703413385826772
 30
0.0
 10
0.5016653543307087
 20
2.703413385826772
 30
0.0
 10
0.5016653543307087
 20
2.703413385826772
 30
0.0
 10
0.5016653543307087
 20
2.703413385826772
 30
0.0
 10
0.4943464566929134
 20
2.700944881889764
 30
0.0
 10
0.4943464566929134
 20
2.700944881889764
 30
0.0
 10
0.4943464566929134
 20
2.700944881889764
 30
0.0
 10
0.4943464566929134
 20
2.700944881889764
 30
0.0
 10
0.4872874015748032
 20
2.698177165354331
 30
0.0
 10
0.4872874015748032
 20
2.698177165354331
 30
0.0
  0
SPLINE
  5
4E
330
1F
100
AcDbEntity
  8
LAYER_1
 62
   253
100
AcDbSpline
210
0.0
220
0.0
230
1.0
 70
    11
 71
     3
 72
    52
 73
    48
 74
     0
 42
0.0000000001
 43
0.0000000001
 40
0.0
 40
0.0
 40
0.0
 40
0.0
 40
0.0833333333333333
 40
0.0833333333333333
 40
0.0833333333333333
 40
0.0833333333333333
 40
0.1666666666666667
 40
0.1666666666666667
 40
0.1666666666666667
 40
0.1666666666666667
 40
0.25
 40
0.25
 40
0.25
 40
0.25
 40
0.3333333333333333
 40
0.3333333333333333
 40
0.3333333333333333
 40
0.3333333333333333
 40
0.4166666666666666
 40
0.4166666666666666
 40
0.4166666666666666
 40
0.4166666666666666
 40
0.4999999999999999
 40
0.4999999999999999
 40
0.4999999999999999
 40
0.4999999999999999
 40
0.5833333333333333
 40
0.5833333333333333
 40
0.5833333333333333
 40
0.5833333333333333
 40
0.6666666666666666
 40
0.6666666666666666
 40
0.6666666666666666
 40
0.6666666666666666
 40
0.75
 40
0.75
 40
0.75
 40
0.75
 40
0.8333333333333334
 40
0.8333333333333334
 40
0.8333333333333334
 40
0.8333333333333334
 40
0.9166666666666667
 40
0.9166666666666667
 40
0.9166666666666667
 40
0.9166666666666667
 40
1.0
 40
1.0
 40
1.0
 40
1.0
 10
0.5332992125984252
 20
2.710633858267717
 30
0.0
 10
0.5332992125984252
 20
2.710633858267717
 30
0.0
 10
1.183409448818898
 20
2.335917322834646
 30
0.0
 10
1.183409448818898
 20
2.335917322834646
 30
0.0
 10
1.183409448818898
 20
2.335917322834646
 30
0.0
 10
1.183409448818898
 20
2.335917322834646
 30
0.0
 10
1.191846456692913
 20
2.337122047244095
 30
0.0
 10
1.191846456692913
 20
2.337122047244095
 30
0.0
 10
1.191846456692913
 20
2.337122047244095
 30
0.0
 10
1.191846456692913
 20
2.337122047244095
 30
0.0
 10
1.200452755905512
 20
2.338102362204725
 30
0.0
 10
1.200452755905512
 20
2.338102362204725
 30
0.0
 10
1.200452755905512
 20
2.338102362204725
 30
0.0
 10
1.200452755905512
 20
2.338102362204725
 30
0.0
 10
1.209232283464567
 20
2.338885826771654
 30
0.0
 10
1.209232283464567
 20
2.338885826771654
 30
0.0
 10
1.209232283464567
 20
2.338885826771654
 30
0.0
 10
1.209232283464567
 20
2.338885826771654
 30
0.0
 10
1.218161417322835
 20
2.339476377952756
 30
0.0
 10
1.218161417322835
 20
2.339476377952756
 30
0.0
 10
1.218161417322835
 20
2.339476377952756
 30
0.0
 10
1.218161417322835
 20
2.339476377952756
 30
0.0
 10
1.227236220472441
 20
2.339893700787401
 30
0.0
 10
1.227236220472441
 20
2.339893700787401
 30
0.0
 10
1.227236220472441
 20
2.339893700787401
 30
0.0
 10
1.227236220472441
 20
2.339893700787401
 30
0.0
 10
0.5771259842519685
 20
2.714610236220473
 30
0.0
 10
0.5771259842519685
 20
2.714610236220473
 30
0.0
 10
0.5771259842519685
 20
2.714610236220473
 30
0.0
 10
0.5771259842519685
 20
2.714610236220473
 30
0.0
 10
0.5680511811023622
 20
2.714192913385827
 30
0.0
 10
0.5680511811023622
 20
2.714192913385827
 30
0.0
 10
0.5680511811023622
 20
2.714192913385827
 30
0.0
 10
0.5680511811023622
 20
2.714192913385827
 30
0.0
 10
0.5591220472440945
 20
2.713602362204725
 30
0.0
 10
0.5591220472440945
 20
2.713602362204725
 30
0.0
 10
0.5591220472440945
 20
2.713602362204725
 30
0.0
 10
0.5591220472440945
 20
2.713602362204725
 30
0.0
 10
0.5503425196850394
 20
2.712818897637795
 30
0.0
 10
0.5503425196850394
 20
2.712818897637795
 30
0.0
 10
0.5503425196850394
 20
2.712818897637795
 30
0.0
 10
0.5503425196850394
 20
2.712818897637795
 30
0.0
 10
0.541736220472441
 20
2.711838582677165
 30
0.0
 10
0.541736220472441
 20
2.711838582677165
 30
0.0
 10
0.541736220472441
 20
2.711838582677165
 30
0.0
 10
0.541736220472441
 20
2.711838582677165
 30
0.0
 10
0.5332992125984252
 20
2.710633858267717
 30
0.0
 10
0.5332992125984252
 20
2.710633858267717
 30
0.0
  0
SPLINE
  5
4F
330
1F
100
AcDbEntity
  8
LAYER_1
 62
   253
100
AcDbSpline
210
0.0
220
0.0
230
1.0
 70
    11
 71
     3
 72
    44
 73
    40
 74
     0
 42
0.0000000001
 43
0.0000000001
 40
0.0
 40
0.0
 40
0.0
 40
0.0
 40
0.1
 40
0.1
 40
0.1
 40
0.1
 40
0.2
 40
0.2
 40
0.2
 40
0.2
 40
0.3
 40
0.3
 40
0.3
 40
0.3
 40
0.4
 40
0.4
 40
0.4
 40
0.4
 40
0.5
 40
0.5
 40
0.5
 40
0.5
 40
0.6
 40
0.6
 40
0.6
 40
0.6
 40
0.7
 40
0.7
 40
0.7
 40
0.7
 40
0.7999999999999999
 40
0.7999999999999999
 40
0.7999999999999999
 40
0.7999999999999999
 40
0.8999999999999999
 40
0.8999999999999999
 40
0.8999999999999999
 40
0.8999999999999999
 40
1.0
 40
1.0
 40
1.0
 40
1.0
 10
0.5771259842519685
 20
2.714610236220473
 30
0.0
 10
0.5771259842519685
 20
2.714610236220473
 30
0.0
 10
1.227236220472441
 20
2.339893700787401
 30
0.0
 10
1.227236220472441
 20
2.339893700787401
 30
0.0
 10
1.227236220472441
 20
2.339893700787401
 30
0.0
 10
1.227236220472441
 20
2.339893700787401
 30
0.0
 10
1.236429133858268
 20
2.340141732283465
 30
0.0
 10
1.236429133858268
 20
2.340141732283465
 30
0.0
 10
1.236429133858268
 20
2.340141732283465
 30
0.0
 10
1.236429133858268
 20
2.340141732283465
 30
0.0
 10
1.245740157480315
 20
2.340240157480315
 30
0.0
 10
1.245740157480315
 20
2.340240157480315
 30
0.0
 10
1.245740157480315
 20
2.340240157480315
 30
0.0
 10
1.245740157480315
 20
2.340240157480315
 30
0.0
 10
1.255149606299213
 20
2.340196850393701
 30
0.0
 10
1.255149606299213
 20
2.340196850393701
 30
0.0
 10
1.255149606299213
 20
2.340196850393701
 30
0.0
 10
1.255149606299213
 20
2.340196850393701
 30
0.0
 10
1.264645669291339
 20
2.340035433070866
 30
0.0
 10
1.264645669291339
 20
2.340035433070866
 30
0.0
 10
1.264645669291339
 20
2.340035433070866
 30
0.0
 10
1.264645669291339
 20
2.340035433070866
 30
0.0
 10
0.6145354330708661
 20
2.714751968503937
 30
0.0
 10
0.6145354330708661
 20
2.714751968503937
 30
0.0
 10
0.6145354330708661
 20
2.714751968503937
 30
0.0
 10
0.6145354330708661
 20
2.714751968503937
 30
0.0
 10
0.6050393700787402
 20
2.714913385826772
 30
0.0
 10
0.6050393700787402
 20
2.714913385826772
 30
0.0
 10
0.6050393700787402
 20
2.714913385826772
 30
0.0
 10
0.6050393700787402
 20
2.714913385826772
 30
0.0
 10
0.5956299212598425
 20
2.714956692913386
 30
0.0
 10
0.5956299212598425
 20
2.714956692913386
 30
0.0
 10
0.5956299212598425
 20
2.714956692913386
 30
0.0
 10
0.5956299212598425
 20
2.714956692913386
 30
0.0
 10
0.5863188976377953
 20
2.714858267716536
 30
0.0
 10
0.5863188976377953
 20
2.714858267716536
 30
0.0
 10
0.5863188976377953
 20
2.714858267716536
 30
0.0
 10
0.5863188976377953
 20
2.714858267716536
 30
0.0
 10
0.5771259842519685
 20
2.714610236220473
 30
0.0
 10
0.5771259842519685
 20
2.714610236220473
 30
0.0
  0
SPLINE
  5
50
330
1F
100
AcDbEntity
  8
LAYER_1
 62
   250
100
AcDbSpline
210
0.0
220
0.0
230
1.0
 70
    11
 71
     3
 72
   268
 73
   264
 74
     0
 42
0.0000000001
 43
0.0000000001
 40
0.0
 40
0.0
 40
0.0
 40
0.0
 40
0.0151515151515152
 40
0.0151515151515152
 40
0.0151515151515152
 40
0.0151515151515152
 40
0.0303030303030303
 40
0.0303030303030303
 40
0.0303030303030303
 40
0.0303030303030303
 40
0.0454545454545455
 40
0.0454545454545455
 40
0.0454545454545455
 40
0.0454545454545455
 40
0.0606060606060606
 40
0.0606060606060606
 40
0.0606060606060606
 40
0.0606060606060606
 40
0.0757575757575758
 40
0.0757575757575758
 40
0.0757575757575758
 40
0.0757575757575758
 40
0.0909090909090909
 40
0.0909090909090909
 40
0.0909090909090909
 40
0.0909090909090909
 40
0.1060606060606061
 40
0.1060606060606061
 40
0.1060606060606061
 40
0.1060606060606061
 40
0.1212121212121212
 40
0.1212121212121212
 40
0.1212121212121212
 40
0.1212121212121212
 40
0.1363636363636364
 40
0.1363636363636364
 40
0.1363636363636364
 40
0.1363636363636364
 40
0.1515151515151515
 40
0.1515151515151515
 40
0.1515151515151515
 40
0.1515151515151515
 40
0.1666666666666666
 40
0.1666666666666666
 40
0.1666666666666666
 40
0.1666666666666666
 40
0.1818181818181818
 40
0.1818181818181818
 40
0.1818181818181818
 40
0.1818181818181818
 40
0.1969696969696969
 40
0.1969696969696969
 40
0.1969696969696969
 40
0.1969696969696969
 40
0.212121212121212
 40
0.212121212121212
 40
0.212121212121212
 40
0.212121212121212
 40
0.2272727272727272
 40
0.2272727272727272
 40
0.2272727272727272
 40
0.2272727272727272
 40
0.2424242424242423
 40
0.2424242424242423
 40
0.2424242424242423
 40
0.2424242424242423
 40
0.2575757575757575
 40
0.2575757575757575
 40
0.2575757575757575
 40
0.2575757575757575
 40
0.2727272727272726
 40
0.2727272727272726
 40
0.2727272727272726
 40
0.2727272727272726
 40
0.2878787878787877
 40
0.2878787878787877
 40
0.2878787878787877
 40
0.2878787878787877
 40
0.3030303030303029
 40
0.3030303030303029
 40
0.3030303030303029
 40
0.3030303030303029
 40
0.318181818181818
 40
0.318181818181818
 40
0.318181818181818
 40
0.318181818181818
 40
0.3333333333333332
 40
0.3333333333333332
 40
0.3333333333333332
 40
0.3333333333333332
 40
0.3484848484848483
 40
0.3484848484848483
 40
0.3484848484848483
 40
0.3484848484848483
 40
0.3636363636363634
 40
0.3636363636363634
 40
0.3636363636363634
 40
0.3636363636363634
 40
0.3787878787878786
 40
0.3787878787878786
 40
0.3787878787878786
 40
0.3787878787878786
 40
0.3939393939393937
 40
0.3939393939393937
 40
0.3939393939393937
 40
0.3939393939393937
 40
0.4090909090909088
 40
0.4090909090909088
 40
0.4090909090909088
 40
0.4090909090909088
 40
0.424242424242424
 40
0.424242424242424
 40
0.424242424242424
 40
0.424242424242424
 40
0.4393939393939391
 40
0.4393939393939391
 40
0.4393939393939391
 40
0.4393939393939391
 40
0.4545454545454543
 40
0.4545454545454543
 40
0.4545454545454543
 40
0.4545454545454543
 40
0.4696969696969694
 40
0.4696969696969694
 40
0.4696969696969694
 40
0.4696969696969694
 40
0.4848484848484845
 40
0.4848484848484845
 40
0.4848484848484845
 40
0.4848484848484845
 40
0.4999999999999997
 40
0.4999999999999997
 40
0.4999999999999997
 40
0.4999999999999997
 40
0.5151515151515148
 40
0.5151515151515148
 40
0.5151515151515148
 40
0.5151515151515148
 40
0.5303030303030299
 40
0.5303030303030299
 40
0.5303030303030299
 40
0.5303030303030299
 40
0.5454545454545451
 40
0.5454545454545451
 40
0.5454545454545451
 40
0.5454545454545451
 40
0.5606060606060602
 40
0.5606060606060602
 40
0.5606060606060602
 40
0.5606060606060602
 40
0.5757575757575754
 40
0.5757575757575754
 40
0.5757575757575754
 40
0.5757575757575754
 40
0.5909090909090905
 40
0.5909090909090905
 40
0.5909090909090905
 40
0.5909090909090905
 40
0.6060606060606056
 40
0.6060606060606056
 40
0.6060606060606056
 40
0.6060606060606056
 40
0.6212121212121208
 40
0.6212121212121208
 40
0.6212121212121208
 40
0.6212121212121208
 40
0.6363636363636359
 40
0.6363636363636359
 40
0.6363636363636359
 40
0.6363636363636359
 40
0.6515151515151511
 40
0.6515151515151511
 40
0.6515151515151511
 40
0.6515151515151511
 40
0.6666666666666662
 40
0.6666666666666662
 40
0.6666666666666662
 40
0.6666666666666662
 40
0.6818181818181813
 40
0.6818181818181813
 40
0.6818181818181813
 40
0.6818181818181813
 40
0.6969696969696965
 40
0.6969696969696965
 40
0.6969696969696965
 40
0.6969696969696965
 40
0.7121212121212116
 40
0.7121212121212116
 40
0.7121212121212116
 40
0.7121212121212116
 40
0.7272727272727267
 40
0.7272727272727267
 40
0.7272727272727267
 40
0.7272727272727267
 40
0.7424242424242419
 40
0.7424242424242419
 40
0.7424242424242419
 40
0.7424242424242419
 40
0.757575757575757
 40
0.757575757575757
 40
0.757575757575757
 40
0.757575757575757
 40
0.7727272727272722
 40
0.7727272727272722
 40
0.7727272727272722
 40
0.7727272727272722
 40
0.7878787878787873
 40
0.7878787878787873
 40
0.7878787878787873
 40
0.7878787878787873
 40
0.8030303030303024
 40
0.8030303030303024
 40
0.8030303030303024
 40
0.8030303030303024
 40
0.8181818181818176
 40
0.8181818181818176
 40
0.8181818181818176
 40
0.8181818181818176
 40
0.8333333333333327
 40
0.8333333333333327
 40
0.8333333333333327
 40
0.8333333333333327
 40
0.8484848484848478
 40
0.8484848484848478
 40
0.8484848484848478
 40
0.8484848484848478
 40
0.863636363636363
 40
0.863636363636363
 40
0.863636363636363
 40
0.863636363636363
 40
0.8787878787878781
 40
0.8787878787878781
 40
0.8787878787878781
 40
0.8787878787878781
 40
0.8939393939393933
 40
0.8939393939393933
 40
0.8939393939393933
 40
0.8939393939393933
 40
0.9090909090909084
 40
0.9090909090909084
 40
0.9090909090909084
 40
0.9090909090909084
 40
0.9242424242424235
 40
0.9242424242424235
 40
0.9242424242424235
 40
0.9242424242424235
 40
0.9393939393939387
 40
0.9393939393939387
 40
0.9393939393939387
 40
0.9393939393939387
 40
0.9545454545454538
 40
0.9545454545454538
 40
0.9545454545454538
 40
0.9545454545454538
 40
0.969696969696969
 40
0.969696969696969
 40
0.969696969696969
 40
0.969696969696969
 40
0.9848484848484841
 40
0.9848484848484841
 40
0.9848484848484841
 40
0.9848484848484841
 40
1.0
 40
1.0
 40
1.0
 40
1.0
 10
0.4209251968503937
 20
2.593897637795276
 30
0.0
 10
0.4209251968503937
 20
2.593897637795276
 30
0.0
 10
1.071035433070866
 20
2.219181102362205
 30
0.0
 10
1.071035433070866
 20
2.219181102362205
 30
0.0
 10
1.071035433070866
 20
2.219181102362205
 30
0.0
 10
1.071035433070866
 20
2.219181102362205
 30
0.0
 10
1.071507874015748
 20
2.228885826771654
 30
0.0
 10
1.071507874015748
 20
2.228885826771654
 30
0.0
 10
1.071507874015748
 20
2.228885826771654
 30
0.0
 10
1.071507874015748
 20
2.228885826771654
 30
0.0
 10
1.072484251968504
 20
2.238082677165354
 30
0.0
 10
1.072484251968504
 20
2.238082677165354
 30
0.0
 10
1.072484251968504
 20
2.238082677165354
 30
0.0
 10
1.072484251968504
 20
2.238082677165354
 30
0.0
 10
1.07394094488189
 20
2.246779527559055
 30
0.0
 10
1.07394094488189
 20
2.246779527559055
 30
0.0
 10
1.07394094488189
 20
2.246779527559055
 30
0.0
 10
1.07394094488189
 20
2.246779527559055
 30
0.0
 10
1.075874015748032
 20
2.255
 30
0.0
 10
1.075874015748032
 20
2.255
 30
0.0
 10
1.075874015748032
 20
2.255
 30
0.0
 10
1.075874015748032
 20
2.255
 30
0.0
 10
1.078251968503937
 20
2.262740157480315
 30
0.0
 10
1.078251968503937
 20
2.262740157480315
 30
0.0
 10
1.078251968503937
 20
2.262740157480315
 30
0.0
 10
1.078251968503937
 20
2.262740157480315
 30
0.0
 10
1.081082677165354
 20
2.270027559055118
 30
0.0
 10
1.081082677165354
 20
2.270027559055118
 30
0.0
 10
1.081082677165354
 20
2.270027559055118
 30
0.0
 10
1.081082677165354
 20
2.270027559055118
 30
0.0
 10
1.084334645669291
 20
2.276862204724409
 30
0.0
 10
1.084334645669291
 20
2.276862204724409
 30
0.0
 10
1.084334645669291
 20
2.276862204724409
 30
0.0
 10
1.084334645669291
 20
2.276862204724409
 30
0.0
 10
1.088007874015748
 20
2.283267716535433
 30
0.0
 10
1.088007874015748
 20
2.283267716535433
 30
0.0
 10
1.088007874015748
 20
2.283267716535433
 30
0.0
 10
1.088007874015748
 20
2.283267716535433
 30
0.0
 10
1.092070866141732
 20
2.289244094488189
 30
0.0
 10
1.092070866141732
 20
2.289244094488189
 30
0.0
 10
1.092070866141732
 20
2.289244094488189
 30
0.0
 10
1.092070866141732
 20
2.289244094488189
 30
0.0
 10
1.096527559055118
 20
2.294814960629922
 30
0.0
 10
1.096527559055118
 20
2.294814960629922
 30
0.0
 10
1.096527559055118
 20
2.294814960629922
 30
0.0
 10
1.096527559055118
 20
2.294814960629922
 30
0.0
 10
1.101354330708662
 20
2.299992125984252
 30
0.0
 10
1.101354330708662
 20
2.299992125984252
 30
0.0
 10
1.101354330708662
 20
2.299992125984252
 30
0.0
 10
1.101354330708662
 20
2.299992125984252
 30
0.0
 10
1.106547244094488
 20
2.304787401574803
 30
0.0
 10
1.106547244094488
 20
2.304787401574803
 30
0.0
 10
1.106547244094488
 20
2.304787401574803
 30
0.0
 10
1.106547244094488
 20
2.304787401574803
 30
0.0
 10
1.11207874015748
 20
2.309208661417323
 30
0.0
 10
1.11207874015748
 20
2.309208661417323
 30
0.0
 10
1.11207874015748
 20
2.309208661417323
 30
0.0
 10
1.11207874015748
 20
2.309208661417323
 30
0.0
 10
1.117948818897638
 20
2.313275590551181
 30
0.0
 10
1.117948818897638
 20
2.313275590551181
 30
0.0
 10
1.117948818897638
 20
2.313275590551181
 30
0.0
 10
1.117948818897638
 20
2.313275590551181
 30
0.0
 10
1.124133858267717
 20
2.317
 30
0.0
 10
1.124133858267717
 20
2.317
 30
0.0
 10
1.124133858267717
 20
2.317
 30
0.0
 10
1.124133858267717
 20
2.317
 30
0.0
 10
1.130625984251969
 20
2.320393700787402
 30
0.0
 10
1.130625984251969
 20
2.320393700787402
 30
0.0
 10
1.130625984251969
 20
2.320393700787402
 30
0.0
 10
1.130625984251969
 20
2.320393700787402
 30
0.0
 10
1.137397637795276
 20
2.32346062992126
 30
0.0
 10
1.137397637795276
 20
2.32346062992126
 30
0.0
 10
1.137397637795276
 20
2.32346062992126
 30
0.0
 10
1.137397637795276
 20
2.32346062992126
 30
0.0
 10
1.144456692913386
 20
2.326228346456693
 30
0.0
 10
1.144456692913386
 20
2.326228346456693
 30
0.0
 10
1.144456692913386
 20
2.326228346456693
 30
0.0
 10
1.144456692913386
 20
2.326228346456693
 30
0.0
 10
1.151775590551181
 20
2.328696850393701
 30
0.0
 10
1.151775590551181
 20
2.328696850393701
 30
0.0
 10
1.151775590551181
 20
2.328696850393701
 30
0.0
 10
1.151775590551181
 20
2.328696850393701
 30
0.0
 10
1.159346456692914
 20
2.330893700787402
 30
0.0
 10
1.159346456692914
 20
2.330893700787402
 30
0.0
 10
1.159346456692914
 20
2.330893700787402
 30
0.0
 10
1.159346456692914
 20
2.330893700787402
 30
0.0
 10
1.167149606299213
 20
2.332814960629921
 30
0.0
 10
1.167149606299213
 20
2.332814960629921
 30
0.0
 10
1.167149606299213
 20
2.332814960629921
 30
0.0
 10
1.167149606299213
 20
2.332814960629921
 30
0.0
 10
1.175177165354331
 20
2.334488188976378
 30
0.0
 10
1.175177165354331
 20
2.334488188976378
 30
0.0
 10
1.175177165354331
 20
2.334488188976378
 30
0.0
 10
1.175177165354331
 20
2.334488188976378
 30
0.0
 10
1.183409448818898
 20
2.335917322834646
 30
0.0
 10
1.183409448818898
 20
2.335917322834646
 30
0.0
 10
1.183409448818898
 20
2.335917322834646
 30
0.0
 10
1.183409448818898
 20
2.335917322834646
 30
0.0
 10
1.191846456692913
 20
2.337122047244095
 30
0.0
 10
1.191846456692913
 20
2.337122047244095
 30
0.0
 10
1.191846456692913
 20
2.337122047244095
 30
0.0
 10
1.191846456692913
 20
2.337122047244095
 30
0.0
 10
1.200452755905512
 20
2.338102362204725
 30
0.0
 10
1.200452755905512
 20
2.338102362204725
 30
0.0
 10
1.200452755905512
 20
2.338102362204725
 30
0.0
 10
1.200452755905512
 20
2.338102362204725
 30
0.0
 10
1.209232283464567
 20
2.338885826771654
 30
0.0
 10
1.209232283464567
 20
2.338885826771654
 30
0.0
 10
1.209232283464567
 20
2.338885826771654
 30
0.0
 10
1.209232283464567
 20
2.338885826771654
 30
0.0
 10
1.218161417322835
 20
2.339476377952756
 30
0.0
 10
1.218161417322835
 20
2.339476377952756
 30
0.0
 10
1.218161417322835
 20
2.339476377952756
 30
0.0
 10
1.218161417322835
 20
2.339476377952756
 30
0.0
 10
1.227236220472441
 20
2.339893700787401
 30
0.0
 10
1.227236220472441
 20
2.339893700787401
 30
0.0
 10
1.227236220472441
 20
2.339893700787401
 30
0.0
 10
1.227236220472441
 20
2.339893700787401
 30
0.0
 10
1.236429133858268
 20
2.340141732283465
 30
0.0
 10
1.236429133858268
 20
2.340141732283465
 30
0.0
 10
1.236429133858268
 20
2.340141732283465
 30
0.0
 10
1.236429133858268
 20
2.340141732283465
 30
0.0
 10
1.245740157480315
 20
2.340240157480315
 30
0.0
 10
1.245740157480315
 20
2.340240157480315
 30
0.0
 10
1.245740157480315
 20
2.340240157480315
 30
0.0
 10
1.245740157480315
 20
2.340240157480315
 30
0.0
 10
1.255149606299213
 20
2.340196850393701
 30
0.0
 10
1.255149606299213
 20
2.340196850393701
 30
0.0
 10
1.255149606299213
 20
2.340196850393701
 30
0.0
 10
1.255149606299213
 20
2.340196850393701
 30
0.0
 10
1.264645669291339
 20
2.340035433070866
 30
0.0
 10
1.264645669291339
 20
2.340035433070866
 30
0.0
 10
1.264645669291339
 20
2.340035433070866
 30
0.0
 10
1.264645669291339
 20
2.340035433070866
 30
0.0
 10
0.6145354330708661
 20
2.714751968503937
 30
0.0
 10
0.6145354330708661
 20
2.714751968503937
 30
0.0
 10
0.6145354330708661
 20
2.714751968503937
 30
0.0
 10
0.6145354330708661
 20
2.714751968503937
 30
0.0
 10
0.6050393700787402
 20
2.714913385826772
 30
0.0
 10
0.6050393700787402
 20
2.714913385826772
 30
0.0
 10
0.6050393700787402
 20
2.714913385826772
 30
0.0
 10
0.6050393700787402
 20
2.714913385826772
 30
0.0
 10
0.5956299212598425
 20
2.714956692913386
 30
0.0
 10
0.5956299212598425
 20
2.714956692913386
 30
0.0
 10
0.5956299212598425
 20
2.714956692913386
 30
0.0
 10
0.5956299212598425
 20
2.714956692913386
 30
0.0
 10
0.5863188976377953
 20
2.714858267716536
 30
0.0
 10
0.5863188976377953
 20
2.714858267716536
 30
0.0
 10
0.5863188976377953
 20
2.714858267716536
 30
0.0
 10
0.5863188976377953
 20
2.714858267716536
 30
0.0
 10
0.5771259842519685
 20
2.714610236220473
 30
0.0
 10
0.5771259842519685
 20
2.714610236220473
 30
0.0
 10
0.5771259842519685
 20
2.714610236220473
 30
0.0
 10
0.5771259842519685
 20
2.714610236220473
 30
0.0
 10
0.5680511811023622
 20
2.714192913385827
 30
0.0
 10
0.5680511811023622
 20
2.714192913385827
 30
0.0
 10
0.5680511811023622
 20
2.714192913385827
 30
0.0
 10
0.5680511811023622
 20
2.714192913385827
 30
0.0
 10
0.5591220472440945
 20
2.713602362204725
 30
0.0
 10
0.5591220472440945
 20
2.713602362204725
 30
0.0
 10
0.5591220472440945
 20
2.713602362204725
 30
0.0
 10
0.5591220472440945
 20
2.713602362204725
 30
0.0
 10
0.5503425196850394
 20
2.712818897637795
 30
0.0
 10
0.5503425196850394
 20
2.712818897637795
 30
0.0
 10
0.5503425196850394
 20
2.712818897637795
 30
0.0
 10
0.5503425196850394
 20
2.712818897637795
 30
0.0
 10
0.541736220472441
 20
2.711838582677165
 30
0.0
 10
0.541736220472441
 20
2.711838582677165
 30
0.0
 10
0.541736220472441
 20
2.711838582677165
 30
0.0
 10
0.541736220472441
 20
2.711838582677165
 30
0.0
 10
0.5332992125984252
 20
2.710633858267717
 30
0.0
 10
0.5332992125984252
 20
2.710633858267717
 30
0.0
 10
0.5332992125984252
 20
2.710633858267717
 30
0.0
 10
0.5332992125984252
 20
2.710633858267717
 30
0.0
 10
0.5250669291338583
 20
2.709204724409449
 30
0.0
 10
0.5250669291338583
 20
2.709204724409449
 30
0.0
 10
0.5250669291338583
 20
2.709204724409449
 30
0.0
 10
0.5250669291338583
 20
2.709204724409449
 30
0.0
 10
0.5170393700787401
 20
2.707531496062992
 30
0.0
 10
0.5170393700787401
 20
2.707531496062992
 30
0.0
 10
0.5170393700787401
 20
2.707531496062992
 30
0.0
 10
0.5170393700787401
 20
2.707531496062992
 30
0.0
 10
0.509236220472441
 20
2.705610236220473
 30
0.0
 10
0.509236220472441
 20
2.705610236220473
 30
0.0
 10
0.509236220472441
 20
2.705610236220473
 30
0.0
 10
0.509236220472441
 20
2.705610236220473
 30
0.0
 10
0.5016653543307087
 20
2.703413385826772
 30
0.0
 10
0.5016653543307087
 20
2.703413385826772
 30
0.0
 10
0.5016653543307087
 20
2.703413385826772
 30
0.0
 10
0.5016653543307087
 20
2.703413385826772
 30
0.0
 10
0.4943464566929134
 20
2.700944881889764
 30
0.0
 10
0.4943464566929134
 20
2.700944881889764
 30
0.0
 10
0.4943464566929134
 20
2.700944881889764
 30
0.0
 10
0.4943464566929134
 20
2.700944881889764
 30
0.0
 10
0.4872874015748032
 20
2.698177165354331
 30
0.0
 10
0.4872874015748032
 20
2.698177165354331
 30
0.0
 10
0.4872874015748032
 20
2.698177165354331
 30
0.0
 10
0.4872874015748032
 20
2.698177165354331
 30
0.0
 10
0.4805157480314961
 20
2.695110236220473
 30
0.0
 10
0.4805157480314961
 20
2.695110236220473
 30
0.0
 10
0.4805157480314961
 20
2.695110236220473
 30
0.0
 10
0.4805157480314961
 20
2.695110236220473
 30
0.0
 10
0.4740236220472441
 20
2.691716535433071
 30
0.0
 10
0.4740236220472441
 20
2.691716535433071
 30
0.0
 10
0.4740236220472441
 20
2.691716535433071
 30
0.0
 10
0.4740236220472441
 20
2.691716535433071
 30
0.0
 10
0.4678385826771654
 20
2.687992125984252
 30
0.0
 10
0.4678385826771654
 20
2.687992125984252
 30
0.0
 10
0.4678385826771654
 20
2.687992125984252
 30
0.0
 10
0.4678385826771654
 20
2.687992125984252
 30
0.0
 10
0.4619685039370079
 20
2.683925196850394
 30
0.0
 10
0.4619685039370079
 20
2.683925196850394
 30
0.0
 10
0.4619685039370079
 20
2.683925196850394
 30
0.0
 10
0.4619685039370079
 20
2.683925196850394
 30
0.0
 10
0.4564370078740158
 20
2.679503937007874
 30
0.0
 10
0.4564370078740158
 20
2.679503937007874
 30
0.0
 10
0.4564370078740158
 20
2.679503937007874
 30
0.0
 10
0.4564370078740158
 20
2.679503937007874
 30
0.0
 10
0.451244094488189
 20
2.674708661417323
 30
0.0
 10
0.451244094488189
 20
2.674708661417323
 30
0.0
 10
0.451244094488189
 20
2.674708661417323
 30
0.0
 10
0.451244094488189
 20
2.674708661417323
 30
0.0
 10
0.4464173228346457
 20
2.669531496062992
 30
0.0
 10
0.4464173228346457
 20
2.669531496062992
 30
0.0
 10
0.4464173228346457
 20
2.669531496062992
 30
0.0
 10
0.4464173228346457
 20
2.669531496062992
 30
0.0
 10
0.4419606299212598
 20
2.66396062992126
 30
0.0
 10
0.4419606299212598
 20
2.66396062992126
 30
0.0
 10
0.4419606299212598
 20
2.66396062992126
 30
0.0
 10
0.4419606299212598
 20
2.66396062992126
 30
0.0
 10
0.4378976377952756
 20
2.657984251968504
 30
0.0
 10
0.4378976377952756
 20
2.657984251968504
 30
0.0
 10
0.4378976377952756
 20
2.657984251968504
 30
0.0
 10
0.4378976377952756
 20
2.657984251968504
 30
0.0
 10
0.4342244094488189
 20
2.65157874015748
 30
0.0
 10
0.4342244094488189
 20
2.65157874015748
 30
0.0
 10
0.4342244094488189
 20
2.65157874015748
 30
0.0
 10
0.4342244094488189
 20
2.65157874015748
 30
0.0
 10
0.4309724409448819
 20
2.644744094488189
 30
0.0
 10
0.4309724409448819
 20
2.644744094488189
 30
0.0
 10
0.4309724409448819
 20
2.644744094488189
 30
0.0
 10
0.4309724409448819
 20
2.644744094488189
 30
0.0
 10
0.4281417322834646
 20
2.637456692913386
 30
0.0
 10
0.4281417322834646
 20
2.637456692913386
 30
0.0
 10
0.4281417322834646
 20
2.637456692913386
 30
0.0
 10
0.4281417322834646
 20
2.637456692913386
 30
0.0
 10
0.4257637795275591
 20
2.629716535433071
 30
0.0
 10
0.4257637795275591
 20
2.629716535433071
 30
0.0
 10
0.4257637795275591
 20
2.629716535433071
 30
0.0
 10
0.4257637795275591
 20
2.629716535433071
 30
0.0
 10
0.4238307086614174
 20
2.621496062992126
 30
0.0
 10
0.4238307086614174
 20
2.621496062992126
 30
0.0
 10
0.4238307086614174
 20
2.621496062992126
 30
0.0
 10
0.4238307086614174
 20
2.621496062992126
 30
0.0
 10
0.4223740157480315
 20
2.612799212598425
 30
0.0
 10
0.4223740157480315
 20
2.612799212598425
 30
0.0
 10
0.4223740157480315
 20
2.612799212598425
 30
0.0
 10
0.4223740157480315
 20
2.612799212598425
 30
0.0
 10
0.4213976377952756
 20
2.603602362204724
 30
0.0
 10
0.4213976377952756
 20
2.603602362204724
 30
0.0
 10
0.4213976377952756
 20
2.603602362204724
 30
0.0
 10
0.4213976377952756
 20
2.603602362204724
 30
0.0
 10
0.4209251968503937
 20
2.593897637795276
 30
0.0
 10
0.4209251968503937
 20
2.593897637795276
 30
0.0
  0
SPLINE
  5
51
330
1F
100
AcDbEntity
  8
LAYER_1
 62
   253
100
AcDbSpline
210
0.0
220
0.0
230
1.0
 70
    11
 71
     3
 72
    20
 73
    16
 74
     0
 42
0.0000000001
 43
0.0000000001
 40
0.0
 40
0.0
 40
0.0
 40
0.0
 40
0.25
 40
0.25
 40
0.25
 40
0.25
 40
0.5
 40
0.5
 40
0.5
 40
0.5
 40
0.75
 40
0.75
 40
0.75
 40
0.75
 40
1.0
 40
1.0
 40
1.0
 40
1.0
 10
0.6145354330708661
 20
2.714751968503937
 30
0.0
 10
0.6145354330708661
 20
2.714751968503937
 30
0.0
 10
1.264645669291339
 20
2.340035433070866
 30
0.0
 10
1.264645669291339
 20
2.340035433070866
 30
0.0
 10
1.264645669291339
 20
2.340035433070866
 30
0.0
 10
1.264645669291339
 20
2.340035433070866
 30
0.0
 10
1.264645669291339
 20
2.591173228346457
 30
0.0
 10
1.264645669291339
 20
2.591173228346457
 30
0.0
 10
1.264645669291339
 20
2.591173228346457
 30
0.0
 10
1.264645669291339
 20
2.591173228346457
 30
0.0
 10
0.6145354330708661
 20
2.965889763779528
 30
0.0
 10
0.6145354330708661
 20
2.965889763779528
 30
0.0
 10
0.6145354330708661
 20
2.965889763779528
 30
0.0
 10
0.6145354330708661
 20
2.965889763779528
 30
0.0
 10
0.6145354330708661
 20
2.714751968503937
 30
0.0
 10
0.6145354330708661
 20
2.714751968503937
 30
0.0
  0
SPLINE
  5
52
330
1F
100
AcDbEntity
  8
LAYER_1
 62
   250
100
AcDbSpline
210
0.0
220
0.0
230
1.0
 70
    11
 71
     3
 72
    20
 73
    16
 74
     0
 42
0.0000000001
 43
0.0000000001
 40
0.0
 40
0.0
 40
0.0
 40
0.0
 40
0.25
 40
0.25
 40
0.25
 40
0.25
 40
0.5
 40
0.5
 40
0.5
 40
0.5
 40
0.75
 40
0.75
 40
0.75
 40
0.75
 40
1.0
 40
1.0
 40
1.0
 40
1.0
 10
0.6145354330708661
 20
2.714751968503937
 30
0.0
 10
0.6145354330708661
 20
2.714751968503937
 30
0.0
 10
1.264645669291339
 20
2.340035433070866
 30
0.0
 10
1.264645669291339
 20
2.340035433070866
 30
0.0
 10
1.264645669291339
 20
2.340035433070866
 30
0.0
 10
1.264645669291339
 20
2.340035433070866
 30
0.0
 10
1.264645669291339
 20
2.591173228346457
 30
0.0
 10
1.264645669291339
 20
2.591173228346457
 30
0.0
 10
1.264645669291339
 20
2.591173228346457
 30
0.0
 10
1.264645669291339
 20
2.591173228346457
 30
0.0
 10
0.6145354330708661
 20
2.965889763779528
 30
0.0
 10
0.6145354330708661
 20
2.965889763779528
 30
0.0
 10
0.6145354330708661
 20
2.965889763779528
 30
0.0
 10
0.6145354330708661
 20
2.965889763779528
 30
0.0
 10
0.6145354330708661
 20
2.714751968503937
 30
0.0
 10
0.6145354330708661
 20
2.714751968503937
 30
0.0
  0
SPLINE
  5
53
330
1F
100
AcDbEntity
  8
LAYER_1
 62
   253
100
AcDbSpline
210
0.0
220
0.0
230
1.0
 70
    11
 71
     3
 72
    20
 73
    16
 74
     0
 42
0.0000000001
 43
0.0000000001
 40
0.0
 40
0.0
 40
0.0
 40
0.0
 40
0.25
 40
0.25
 40
0.25
 40
0.25
 40
0.5
 40
0.5
 40
0.5
 40
0.5
 40
0.75
 40
0.75
 40
0.75
 40
0.75
 40
1.0
 40
1.0
 40
1.0
 40
1.0
 10
-0.0417716535433071
 20
2.083885826771654
 30
0.0
 10
-0.0417716535433071
 20
2.083885826771654
 30
0.0
 10
0.6083385826771653
 20
1.709169291338583
 30
0.0
 10
0.6083385826771653
 20
1.709169291338583
 30
0.0
 10
0.6083385826771653
 20
1.709169291338583
 30
0.0
 10
0.6083385826771653
 20
1.709169291338583
 30
0.0
 10
1.071035433070866
 20
1.709094488188977
 30
0.0
 10
1.071035433070866
 20
1.709094488188977
 30
0.0
 10
1.071035433070866
 20
1.709094488188977
 30
0.0
 10
1.071035433070866
 20
1.709094488188977
 30
0.0
 10
0.4209251968503937
 20
2.083811023622047
 30
0.0
 10
0.4209251968503937
 20
2.083811023622047
 30
0.0
 10
0.4209251968503937
 20
2.083811023622047
 30
0.0
 10
0.4209251968503937
 20
2.083811023622047
 30
0.0
 10
-0.0417716535433071
 20
2.083885826771654
 30
0.0
 10
-0.0417716535433071
 20
2.083885826771654
 30
0.0
  0
SPLINE
  5
54
330
1F
100
AcDbEntity
  8
LAYER_1
 62
   250
100
AcDbSpline
210
0.0
220
0.0
230
1.0
 70
    11
 71
     3
 72
    20
 73
    16
 74
     0
 42
0.0000000001
 43
0.0000000001
 40
0.0
 40
0.0
 40
0.0
 40
0.0
 40
0.25
 40
0.25
 40
0.25
 40
0.25
 40
0.5
 40
0.5
 40
0.5
 40
0.5
 40
0.75
 40
0.75
 40
0.75
 40
0.75
 40
1.0
 40
1.0
 40
1.0
 40
1.0
 10
-0.0417716535433071
 20
2.083885826771654
 30
0.0
 10
-0.0417716535433071
 20
2.083885826771654
 30
0.0
 10
0.6083385826771653
 20
1.709169291338583
 30
0.0
 10
0.6083385826771653
 20
1.709169291338583
 30
0.0
 10
0.6083385826771653
 20
1.709169291338583
 30
0.0
 10
0.6083385826771653
 20
1.709169291338583
 30
0.0
 10
1.071035433070866
 20
1.709094488188977
 30
0.0
 10
1.071035433070866
 20
1.709094488188977
 30
0.0
 10
1.071035433070866
 20
1.709094488188977
 30
0.0
 10
1.071035433070866
 20
1.709094488188977
 30
0.0
 10
0.4209251968503937
 20
2.083811023622047
 30
0.0
 10
0.4209251968503937
 20
2.083811023622047
 30
0.0
 10
0.4209251968503937
 20
2.083811023622047
 30
0.0
 10
0.4209251968503937
 20
2.083811023622047
 30
0.0
 10
-0.0417716535433071
 20
2.083885826771654
 30
0.0
 10
-0.0417716535433071
 20
2.083885826771654
 30
0.0
  0
SPLINE
  5
55
330
1F
100
AcDbEntity
  8
LAYER_1
 62
   253
100
AcDbSpline
210
0.0
220
0.0
230
1.0
 70
    11
 71
     3
 72
    20
 73
    16
 74
     0
 42
0.0000000001
 43
0.0000000001
 40
0.0
 40
0.0
 40
0.0
 40
0.0
 40
0.25
 40
0.25
 40
0.25
 40
0.25
 40
0.5
 40
0.5
 40
0.5
 40
0.5
 40
0.75
 40
0.75
 40
0.75
 40
0.75
 40
1.0
 40
1.0
 40
1.0
 40
1.0
 10
0.4209251968503937
 20
2.083811023622047
 30
0.0
 10
0.4209251968503937
 20
2.083811023622047
 30
0.0
 10
1.071035433070866
 20
1.709094488188977
 30
0.0
 10
1.071035433070866
 20
1.709094488188977
 30
0.0
 10
1.071035433070866
 20
1.709094488188977
 30
0.0
 10
1.071035433070866
 20
1.709094488188977
 30
0.0
 10
1.071035433070866
 20
2.219181102362205
 30
0.0
 10
1.071035433070866
 20
2.219181102362205
 30
0.0
 10
1.071035433070866
 20
2.219181102362205
 30
0.0
 10
1.071035433070866
 20
2.219181102362205
 30
0.0
 10
0.4209251968503937
 20
2.593897637795276
 30
0.0
 10
0.4209251968503937
 20
2.593897637795276
 30
0.0
 10
0.4209251968503937
 20
2.593897637795276
 30
0.0
 10
0.4209251968503937
 20
2.593897637795276
 30
0.0
 10
0.4209251968503937
 20
2.083811023622047
 30
0.0
 10
0.4209251968503937
 20
2.083811023622047
 30
0.0
  0
SPLINE
  5
56
330
1F
100
AcDbEntity
  8
LAYER_1
 62
   250
100
AcDbSpline
210
0.0
220
0.0
230
1.0
 70
    11
 71
     3
 72
    20
 73
    16
 74
     0
 42
0.0000000001
 43
0.0000000001
 40
0.0
 40
0.0
 40
0.0
 40
0.0
 40
0.25
 40
0.25
 40
0.25
 40
0.25
 40
0.5
 40
0.5
 40
0.5
 40
0.5
 40
0.75
 40
0.75
 40
0.75
 40
0.75
 40
1.0
 40
1.0
 40
1.0
 40
1.0
 10
0.4209251968503937
 20
2.083811023622047
 30
0.0
 10
0.4209251968503937
 20
2.083811023622047
 30
0.0
 10
1.071035433070866
 20
1.709094488188977
 30
0.0
 10
1.071035433070866
 20
1.709094488188977
 30
0.0
 10
1.071035433070866
 20
1.709094488188977
 30
0.0
 10
1.071035433070866
 20
1.709094488188977
 30
0.0
 10
1.071035433070866
 20
2.219181102362205
 30
0.0
 10
1.071035433070866
 20
2.219181102362205
 30
0.0
 10
1.071035433070866
 20
2.219181102362205
 30
0.0
 10
1.071035433070866
 20
2.219181102362205
 30
0.0
 10
0.4209251968503937
 20
2.593897637795276
 30
0.0
 10
0.4209251968503937
 20
2.593897637795276
 30
0.0
 10
0.4209251968503937
 20
2.593897637795276
 30
0.0
 10
0.4209251968503937
 20
2.593897637795276
 30
0.0
 10
0.4209251968503937
 20
2.083811023622047
 30
0.0
 10
0.4209251968503937
 20
2.083811023622047
 30
0.0
  0
SPLINE
  5
57
330
1F
100
AcDbEntity
  8
LAYER_1
 62
   253
100
AcDbSpline
210
0.0
220
0.0
230
1.0
 70
    11
 71
     3
 72
    52
 73
    48
 74
     0
 42
0.0000000001
 43
0.0000000001
 40
0.0
 40
0.0
 40
0.0
 40
0.0
 40
0.0833333333333333
 40
0.0833333333333333
 40
0.0833333333333333
 40
0.0833333333333333
 40
0.1666666666666667
 40
0.1666666666666667
 40
0.1666666666666667
 40
0.1666666666666667
 40
0.25
 40
0.25
 40
0.25
 40
0.25
 40
0.3333333333333333
 40
0.3333333333333333
 40
0.3333333333333333
 40
0.3333333333333333
 40
0.4166666666666666
 40
0.4166666666666666
 40
0.4166666666666666
 40
0.4166666666666666
 40
0.4999999999999999
 40
0.4999999999999999
 40
0.4999999999999999
 40
0.4999999999999999
 40
0.5833333333333333
 40
0.5833333333333333
 40
0.5833333333333333
 40
0.5833333333333333
 40
0.6666666666666666
 40
0.6666666666666666
 40
0.6666666666666666
 40
0.6666666666666666
 40
0.75
 40
0.75
 40
0.75
 40
0.75
 40
0.8333333333333334
 40
0.8333333333333334
 40
0.8333333333333334
 40
0.8333333333333334
 40
0.9166666666666667
 40
0.9166666666666667
 40
0.9166666666666667
 40
0.9166666666666667
 40
1.0
 40
1.0
 40
1.0
 40
1.0
 10
0.4209251968503937
 20
2.593897637795276
 30
0.0
 10
0.4209251968503937
 20
2.593897637795276
 30
0.0
 10
1.071035433070866
 20
2.219181102362205
 30
0.0
 10
1.071035433070866
 20
2.219181102362205
 30
0.0
 10
1.071035433070866
 20
2.219181102362205
 30
0.0
 10
1.071035433070866
 20
2.219181102362205
 30
0.0
 10
1.071507874015748
 20
2.228885826771654
 30
0.0
 10
1.071507874015748
 20
2.228885826771654
 30
0.0
 10
1.071507874015748
 20
2.228885826771654
 30
0.0
 10
1.071507874015748
 20
2.228885826771654
 30
0.0
 10
1.072484251968504
 20
2.238082677165354
 30
0.0
 10
1.072484251968504
 20
2.238082677165354
 30
0.0
 10
1.072484251968504
 20
2.238082677165354
 30
0.0
 10
1.072484251968504
 20
2.238082677165354
 30
0.0
 10
1.07394094488189
 20
2.246779527559055
 30
0.0
 10
1.07394094488189
 20
2.246779527559055
 30
0.0
 10
1.07394094488189
 20
2.246779527559055
 30
0.0
 10
1.07394094488189
 20
2.246779527559055
 30
0.0
 10
1.075874015748032
 20
2.255
 30
0.0
 10
1.075874015748032
 20
2.255
 30
0.0
 10
1.075874015748032
 20
2.255
 30
0.0
 10
1.075874015748032
 20
2.255
 30
0.0
 10
1.078251968503937
 20
2.262740157480315
 30
0.0
 10
1.078251968503937
 20
2.262740157480315
 30
0.0
 10
1.078251968503937
 20
2.262740157480315
 30
0.0
 10
1.078251968503937
 20
2.262740157480315
 30
0.0
 10
0.4281417322834646
 20
2.637456692913386
 30
0.0
 10
0.4281417322834646
 20
2.637456692913386
 30
0.0
 10
0.4281417322834646
 20
2.637456692913386
 30
0.0
 10
0.4281417322834646
 20
2.637456692913386
 30
0.0
 10
0.4257637795275591
 20
2.629716535433071
 30
0.0
 10
0.4257637795275591
 20
2.629716535433071
 30
0.0
 10
0.4257637795275591
 20
2.629716535433071
 30
0.0
 10
0.4257637795275591
 20
2.629716535433071
 30
0.0
 10
0.4238307086614174
 20
2.621496062992126
 30
0.0
 10
0.4238307086614174
 20
2.621496062992126
 30
0.0
 10
0.4238307086614174
 20
2.621496062992126
 30
0.0
 10
0.4238307086614174
 20
2.621496062992126
 30
0.0
 10
0.4223740157480315
 20
2.612799212598425
 30
0.0
 10
0.4223740157480315
 20
2.612799212598425
 30
0.0
 10
0.4223740157480315
 20
2.612799212598425
 30
0.0
 10
0.4223740157480315
 20
2.612799212598425
 30
0.0
 10
0.4213976377952756
 20
2.603602362204724
 30
0.0
 10
0.4213976377952756
 20
2.603602362204724
 30
0.0
 10
0.4213976377952756
 20
2.603602362204724
 30
0.0
 10
0.4213976377952756
 20
2.603602362204724
 30
0.0
 10
0.4209251968503937
 20
2.593897637795276
 30
0.0
 10
0.4209251968503937
 20
2.593897637795276
 30
0.0
  0
SPLINE
  5
58
330
1F
100
AcDbEntity
  8
LAYER_1
 62
   253
100
AcDbSpline
210
0.0
220
0.0
230
1.0
 70
    11
 71
     3
 72
    60
 73
    56
 74
     0
 42
0.0000000001
 43
0.0000000001
 40
0.0
 40
0.0
 40
0.0
 40
0.0
 40
0.0714285714285714
 40
0.0714285714285714
 40
0.0714285714285714
 40
0.0714285714285714
 40
0.1428571428571429
 40
0.1428571428571429
 40
0.1428571428571429
 40
0.1428571428571429
 40
0.2142857142857143
 40
0.2142857142857143
 40
0.2142857142857143
 40
0.2142857142857143
 40
0.2857142857142857
 40
0.2857142857142857
 40
0.2857142857142857
 40
0.2857142857142857
 40
0.3571428571428571
 40
0.3571428571428571
 40
0.3571428571428571
 40
0.3571428571428571
 40
0.4285714285714285
 40
0.4285714285714285
 40
0.4285714285714285
 40
0.4285714285714285
 40
0.4999999999999999
 40
0.4999999999999999
 40
0.4999999999999999
 40
0.4999999999999999
 40
0.5714285714285713
 40
0.5714285714285713
 40
0.5714285714285713
 40
0.5714285714285713
 40
0.6428571428571427
 40
0.6428571428571427
 40
0.6428571428571427
 40
0.6428571428571427
 40
0.7142857142857141
 40
0.7142857142857141
 40
0.7142857142857141
 40
0.7142857142857141
 40
0.7857142857142855
 40
0.7857142857142855
 40
0.7857142857142855
 40
0.7857142857142855
 40
0.8571428571428569
 40
0.8571428571428569
 40
0.8571428571428569
 40
0.8571428571428569
 40
0.9285714285714283
 40
0.9285714285714283
 40
0.9285714285714283
 40
0.9285714285714283
 40
1.0
 40
1.0
 40
1.0
 40
1.0
 10
0.4281417322834646
 20
2.637456692913386
 30
0.0
 10
0.4281417322834646
 20
2.637456692913386
 30
0.0
 10
1.078251968503937
 20
2.262740157480315
 30
0.0
 10
1.078251968503937
 20
2.262740157480315
 30
0.0
 10
1.078251968503937
 20
2.262740157480315
 30
0.0
 10
1.078251968503937
 20
2.262740157480315
 30
0.0
 10
1.081082677165354
 20
2.270027559055118
 30
0.0
 10
1.081082677165354
 20
2.270027559055118
 30
0.0
 10
1.081082677165354
 20
2.270027559055118
 30
0.0
 10
1.081082677165354
 20
2.270027559055118
 30
0.0
 10
1.084334645669291
 20
2.276862204724409
 30
0.0
 10
1.084334645669291
 20
2.276862204724409
 30
0.0
 10
1.084334645669291
 20
2.276862204724409
 30
0.0
 10
1.084334645669291
 20
2.276862204724409
 30
0.0
 10
1.088007874015748
 20
2.283267716535433
 30
0.0
 10
1.088007874015748
 20
2.283267716535433
 30
0.0
 10
1.088007874015748
 20
2.283267716535433
 30
0.0
 10
1.088007874015748
 20
2.283267716535433
 30
0.0
 10
1.092070866141732
 20
2.289244094488189
 30
0.0
 10
1.092070866141732
 20
2.289244094488189
 30
0.0
 10
1.092070866141732
 20
2.289244094488189
 30
0.0
 10
1.092070866141732
 20
2.289244094488189
 30
0.0
 10
1.096527559055118
 20
2.294814960629922
 30
0.0
 10
1.096527559055118
 20
2.294814960629922
 30
0.0
 10
1.096527559055118
 20
2.294814960629922
 30
0.0
 10
1.096527559055118
 20
2.294814960629922
 30
0.0
 10
1.101354330708662
 20
2.299992125984252
 30
0.0
 10
1.101354330708662
 20
2.299992125984252
 30
0.0
 10
1.101354330708662
 20
2.299992125984252
 30
0.0
 10
1.101354330708662
 20
2.299992125984252
 30
0.0
 10
0.451244094488189
 20
2.674708661417323
 30
0.0
 10
0.451244094488189
 20
2.674708661417323
 30
0.0
 10
0.451244094488189
 20
2.674708661417323
 30
0.0
 10
0.451244094488189
 20
2.674708661417323
 30
0.0
 10
0.4464173228346457
 20
2.669531496062992
 30
0.0
 10
0.4464173228346457
 20
2.669531496062992
 30
0.0
 10
0.4464173228346457
 20
2.669531496062992
 30
0.0
 10
0.4464173228346457
 20
2.669531496062992
 30
0.0
 10
0.4419606299212598
 20
2.66396062992126
 30
0.0
 10
0.4419606299212598
 20
2.66396062992126
 30
0.0
 10
0.4419606299212598
 20
2.66396062992126
 30
0.0
 10
0.4419606299212598
 20
2.66396062992126
 30
0.0
 10
0.4378976377952756
 20
2.657984251968504
 30
0.0
 10
0.4378976377952756
 20
2.657984251968504
 30
0.0
 10
0.4378976377952756
 20
2.657984251968504
 30
0.0
 10
0.4378976377952756
 20
2.657984251968504
 30
0.0
 10
0.4342244094488189
 20
2.65157874015748
 30
0.0
 10
0.4342244094488189
 20
2.65157874015748
 30
0.0
 10
0.4342244094488189
 20
2.65157874015748
 30
0.0
 10
0.4342244094488189
 20
2.65157874015748
 30
0.0
 10
0.4309724409448819
 20
2.644744094488189
 30
0.0
 10
0.4309724409448819
 20
2.644744094488189
 30
0.0
 10
0.4309724409448819
 20
2.644744094488189
 30
0.0
 10
0.4309724409448819
 20
2.644744094488189
 30
0.0
 10
0.4281417322834646
 20
2.637456692913386
 30
0.0
 10
0.4281417322834646
 20
2.637456692913386
 30
0.0
  0
SPLINE
  5
59
330
1F
100
AcDbEntity
  8
LAYER_1
 62
   253
100
AcDbSpline
210
0.0
220
0.0
230
1.0
 70
    11
 71
     3
 72
    60
 73
    56
 74
     0
 42
0.0000000001
 43
0.0000000001
 40
0.0
 40
0.0
 40
0.0
 40
0.0
 40
0.0714285714285714
 40
0.0714285714285714
 40
0.0714285714285714
 40
0.0714285714285714
 40
0.1428571428571429
 40
0.1428571428571429
 40
0.1428571428571429
 40
0.1428571428571429
 40
0.2142857142857143
 40
0.2142857142857143
 40
0.2142857142857143
 40
0.2142857142857143
 40
0.2857142857142857
 40
0.2857142857142857
 40
0.2857142857142857
 40
0.2857142857142857
 40
0.3571428571428571
 40
0.3571428571428571
 40
0.3571428571428571
 40
0.3571428571428571
 40
0.4285714285714285
 40
0.4285714285714285
 40
0.4285714285714285
 40
0.4285714285714285
 40
0.4999999999999999
 40
0.4999999999999999
 40
0.4999999999999999
 40
0.4999999999999999
 40
0.5714285714285713
 40
0.5714285714285713
 40
0.5714285714285713
 40
0.5714285714285713
 40
0.6428571428571427
 40
0.6428571428571427
 40
0.6428571428571427
 40
0.6428571428571427
 40
0.7142857142857141
 40
0.7142857142857141
 40
0.7142857142857141
 40
0.7142857142857141
 40
0.7857142857142855
 40
0.7857142857142855
 40
0.7857142857142855
 40
0.7857142857142855
 40
0.8571428571428569
 40
0.8571428571428569
 40
0.8571428571428569
 40
0.8571428571428569
 40
0.9285714285714283
 40
0.9285714285714283
 40
0.9285714285714283
 40
0.9285714285714283
 40
1.0
 40
1.0
 40
1.0
 40
1.0
 10
0.451244094488189
 20
2.674708661417323
 30
0.0
 10
0.451244094488189
 20
2.674708661417323
 30
0.0
 10
1.101354330708662
 20
2.299992125984252
 30
0.0
 10
1.101354330708662
 20
2.299992125984252
 30
0.0
 10
1.101354330708662
 20
2.299992125984252
 30
0.0
 10
1.101354330708662
 20
2.299992125984252
 30
0.0
 10
1.106547244094488
 20
2.304787401574803
 30
0.0
 10
1.106547244094488
 20
2.304787401574803
 30
0.0
 10
1.106547244094488
 20
2.304787401574803
 30
0.0
 10
1.106547244094488
 20
2.304787401574803
 30
0.0
 10
1.11207874015748
 20
2.309208661417323
 30
0.0
 10
1.11207874015748
 20
2.309208661417323
 30
0.0
 10
1.11207874015748
 20
2.309208661417323
 30
0.0
 10
1.11207874015748
 20
2.309208661417323
 30
0.0
 10
1.117948818897638
 20
2.313275590551181
 30
0.0
 10
1.117948818897638
 20
2.313275590551181
 30
0.0
 10
1.117948818897638
 20
2.313275590551181
 30
0.0
 10
1.117948818897638
 20
2.313275590551181
 30
0.0
 10
1.124133858267717
 20
2.317
 30
0.0
 10
1.124133858267717
 20
2.317
 30
0.0
 10
1.124133858267717
 20
2.317
 30
0.0
 10
1.124133858267717
 20
2.317
 30
0.0
 10
1.130625984251969
 20
2.320393700787402
 30
0.0
 10
1.130625984251969
 20
2.320393700787402
 30
0.0
 10
1.130625984251969
 20
2.320393700787402
 30
0.0
 10
1.130625984251969
 20
2.320393700787402
 30
0.0
 10
1.137397637795276
 20
2.32346062992126
 30
0.0
 10
1.137397637795276
 20
2.32346062992126
 30
0.0
 10
1.137397637795276
 20
2.32346062992126
 30
0.0
 10
1.137397637795276
 20
2.32346062992126
 30
0.0
 10
0.4872874015748032
 20
2.698177165354331
 30
0.0
 10
0.4872874015748032
 20
2.698177165354331
 30
0.0
 10
0.4872874015748032
 20
2.698177165354331
 30
0.0
 10
0.4872874015748032
 20
2.698177165354331
 30
0.0
 10
0.4805157480314961
 20
2.695110236220473
 30
0.0
 10
0.4805157480314961
 20
2.695110236220473
 30
0.0
 10
0.4805157480314961
 20
2.695110236220473
 30
0.0
 10
0.4805157480314961
 20
2.695110236220473
 30
0.0
 10
0.4740236220472441
 20
2.691716535433071
 30
0.0
 10
0.4740236220472441
 20
2.691716535433071
 30
0.0
 10
0.4740236220472441
 20
2.691716535433071
 30
0.0
 10
0.4740236220472441
 20
2.691716535433071
 30
0.0
 10
0.4678385826771654
 20
2.687992125984252
 30
0.0
 10
0.4678385826771654
 20
2.687992125984252
 30
0.0
 10
0.4678385826771654
 20
2.687992125984252
 30
0.0
 10
0.4678385826771654
 20
2.687992125984252
 30
0.0
 10
0.4619685039370079
 20
2.683925196850394
 30
0.0
 10
0.4619685039370079
 20
2.683925196850394
 30
0.0
 10
0.4619685039370079
 20
2.683925196850394
 30
0.0
 10
0.4619685039370079
 20
2.683925196850394
 30
0.0
 10
0.4564370078740158
 20
2.679503937007874
 30
0.0
 10
0.4564370078740158
 20
2.679503937007874
 30
0.0
 10
0.4564370078740158
 20
2.679503937007874
 30
0.0
 10
0.4564370078740158
 20
2.679503937007874
 30
0.0
 10
0.451244094488189
 20
2.674708661417323
 30
0.0
 10
0.451244094488189
 20
2.674708661417323
 30
0.0
  0
SPLINE
  5
5A
330
1F
100
AcDbEntity
  8
LAYER_1
 62
   253
100
AcDbSpline
210
0.0
220
0.0
230
1.0
 70
    11
 71
     3
 72
    60
 73
    56
 74
     0
 42
0.0000000001
 43
0.0000000001
 40
0.0
 40
0.0
 40
0.0
 40
0.0
 40
0.0714285714285714
 40
0.0714285714285714
 40
0.0714285714285714
 40
0.0714285714285714
 40
0.1428571428571429
 40
0.1428571428571429
 40
0.1428571428571429
 40
0.1428571428571429
 40
0.2142857142857143
 40
0.2142857142857143
 40
0.2142857142857143
 40
0.2142857142857143
 40
0.2857142857142857
 40
0.2857142857142857
 40
0.2857142857142857
 40
0.2857142857142857
 40
0.3571428571428571
 40
0.3571428571428571
 40
0.3571428571428571
 40
0.3571428571428571
 40
0.4285714285714285
 40
0.4285714285714285
 40
0.4285714285714285
 40
0.4285714285714285
 40
0.4999999999999999
 40
0.4999999999999999
 40
0.4999999999999999
 40
0.4999999999999999
 40
0.5714285714285713
 40
0.5714285714285713
 40
0.5714285714285713
 40
0.5714285714285713
 40
0.6428571428571427
 40
0.6428571428571427
 40
0.6428571428571427
 40
0.6428571428571427
 40
0.7142857142857141
 40
0.7142857142857141
 40
0.7142857142857141
 40
0.7142857142857141
 40
0.7857142857142855
 40
0.7857142857142855
 40
0.7857142857142855
 40
0.7857142857142855
 40
0.8571428571428569
 40
0.8571428571428569
 40
0.8571428571428569
 40
0.8571428571428569
 40
0.9285714285714283
 40
0.9285714285714283
 40
0.9285714285714283
 40
0.9285714285714283
 40
1.0
 40
1.0
 40
1.0
 40
1.0
 10
0.4872874015748032
 20
2.698177165354331
 30
0.0
 10
0.4872874015748032
 20
2.698177165354331
 30
0.0
 10
1.137397637795276
 20
2.32346062992126
 30
0.0
 10
1.137397637795276
 20
2.32346062992126
 30
0.0
 10
1.137397637795276
 20
2.32346062992126
 30
0.0
 10
1.137397637795276
 20
2.32346062992126
 30
0.0
 10
1.144456692913386
 20
2.326228346456693
 30
0.0
 10
1.144456692913386
 20
2.326228346456693
 30
0.0
 10
1.144456692913386
 20
2.326228346456693
 30
0.0
 10
1.144456692913386
 20
2.326228346456693
 30
0.0
 10
1.151775590551181
 20
2.328696850393701
 30
0.0
 10
1.151775590551181
 20
2.328696850393701
 30
0.0
 10
1.151775590551181
 20
2.328696850393701
 30
0.0
 10
1.151775590551181
 20
2.328696850393701
 30
0.0
 10
1.159346456692914
 20
2.330893700787402
 30
0.0
 10
1.159346456692914
 20
2.330893700787402
 30
0.0
 10
1.159346456692914
 20
2.330893700787402
 30
0.0
 10
1.159346456692914
 20
2.330893700787402
 30
0.0
 10
1.167149606299213
 20
2.332814960629921
 30
0.0
 10
1.167149606299213
 20
2.332814960629921
 30
0.0
 10
1.167149606299213
 20
2.332814960629921
 30
0.0
 10
1.167149606299213
 20
2.332814960629921
 30
0.0
 10
1.175177165354331
 20
2.334488188976378
 30
0.0
 10
1.175177165354331
 20
2.334488188976378
 30
0.0
 10
1.175177165354331
 20
2.334488188976378
 30
0.0
 10
1.175177165354331
 20
2.334488188976378
 30
0.0
 10
1.183409448818898
 20
2.335917322834646
 30
0.0
 10
1.183409448818898
 20
2.335917322834646
 30
0.0
 10
1.183409448818898
 20
2.335917322834646
 30
0.0
 10
1.183409448818898
 20
2.335917322834646
 30
0.0
 10
0.5332992125984252
 20
2.710633858267717
 30
0.0
 10
0.5332992125984252
 20
2.710633858267717
 30
0.0
 10
0.5332992125984252
 20
2.710633858267717
 30
0.0
 10
0.5332992125984252
 20
2.710633858267717
 30
0.0
 10
0.5250669291338583
 20
2.709204724409449
 30
0.0
 10
0.5250669291338583
 20
2.709204724409449
 30
0.0
 10
0.5250669291338583
 20
2.709204724409449
 30
0.0
 10
0.5250669291338583
 20
2.709204724409449
 30
0.0
 10
0.5170393700787401
 20
2.707531496062992
 30
0.0
 10
0.5170393700787401
 20
2.707531496062992
 30
0.0
 10
0.5170393700787401
 20
2.707531496062992
 30
0.0
 10
0.5170393700787401
 20
2.707531496062992
 30
0.0
 10
0.509236220472441
 20
2.705610236220473
 30
0.0
 10
0.509236220472441
 20
2.705610236220473
 30
0.0
 10
0.509236220472441
 20
2.705610236220473
 30
0.0
 10
0.509236220472441
 20
2.705610236220473
 30
0.0
 10
0.5016653543307087
 20
2.703413385826772
 30
0.0
 10
0.5016653543307087
 20
2.703413385826772
 30
0.0
 10
0.5016653543307087
 20
2.703413385826772
 30
0.0
 10
0.5016653543307087
 20
2.703413385826772
 30
0.0
 10
0.4943464566929134
 20
2.700944881889764
 30
0.0
 10
0.4943464566929134
 20
2.700944881889764
 30
0.0
 10
0.4943464566929134
 20
2.700944881889764
 30
0.0
 10
0.4943464566929134
 20
2.700944881889764
 30
0.0
 10
0.4872874015748032
 20
2.698177165354331
 30
0.0
 10
0.4872874015748032
 20
2.698177165354331
 30
0.0
  0
SPLINE
  5
5B
330
1F
100
AcDbEntity
  8
LAYER_1
 62
   253
100
AcDbSpline
210
0.0
220
0.0
230
1.0
 70
    11
 71
     3
 72
    52
 73
    48
 74
     0
 42
0.0000000001
 43
0.0000000001
 40
0.0
 40
0.0
 40
0.0
 40
0.0
 40
0.0833333333333333
 40
0.0833333333333333
 40
0.0833333333333333
 40
0.0833333333333333
 40
0.1666666666666667
 40
0.1666666666666667
 40
0.1666666666666667
 40
0.1666666666666667
 40
0.25
 40
0.25
 40
0.25
 40
0.25
 40
0.3333333333333333
 40
0.3333333333333333
 40
0.3333333333333333
 40
0.3333333333333333
 40
0.4166666666666666
 40
0.4166666666666666
 40
0.4166666666666666
 40
0.4166666666666666
 40
0.4999999999999999
 40
0.4999999999999999
 40
0.4999999999999999
 40
0.4999999999999999
 40
0.5833333333333333
 40
0.5833333333333333
 40
0.5833333333333333
 40
0.5833333333333333
 40
0.6666666666666666
 40
0.6666666666666666
 40
0.6666666666666666
 40
0.6666666666666666
 40
0.75
 40
0.75
 40
0.75
 40
0.75
 40
0.8333333333333334
 40
0.8333333333333334
 40
0.8333333333333334
 40
0.8333333333333334
 40
0.9166666666666667
 40
0.9166666666666667
 40
0.9166666666666667
 40
0.9166666666666667
 40
1.0
 40
1.0
 40
1.0
 40
1.0
 10
0.5332992125984252
 20
2.710633858267717
 30
0.0
 10
0.5332992125984252
 20
2.710633858267717
 30
0.0
 10
1.183409448818898
 20
2.335917322834646
 30
0.0
 10
1.183409448818898
 20
2.335917322834646
 30
0.0
 10
1.183409448818898
 20
2.335917322834646
 30
0.0
 10
1.183409448818898
 20
2.335917322834646
 30
0.0
 10
1.191846456692913
 20
2.337122047244095
 30
0.0
 10
1.191846456692913
 20
2.337122047244095
 30
0.0
 10
1.191846456692913
 20
2.337122047244095
 30
0.0
 10
1.191846456692913
 20
2.337122047244095
 30
0.0
 10
1.200452755905512
 20
2.338102362204725
 30
0.0
 10
1.200452755905512
 20
2.338102362204725
 30
0.0
 10
1.200452755905512
 20
2.338102362204725
 30
0.0
 10
1.200452755905512
 20
2.338102362204725
 30
0.0
 10
1.209232283464567
 20
2.338885826771654
 30
0.0
 10
1.209232283464567
 20
2.338885826771654
 30
0.0
 10
1.209232283464567
 20
2.338885826771654
 30
0.0
 10
1.209232283464567
 20
2.338885826771654
 30
0.0
 10
1.218161417322835
 20
2.339476377952756
 30
0.0
 10
1.218161417322835
 20
2.339476377952756
 30
0.0
 10
1.218161417322835
 20
2.339476377952756
 30
0.0
 10
1.218161417322835
 20
2.339476377952756
 30
0.0
 10
1.227236220472441
 20
2.339893700787401
 30
0.0
 10
1.227236220472441
 20
2.339893700787401
 30
0.0
 10
1.227236220472441
 20
2.339893700787401
 30
0.0
 10
1.227236220472441
 20
2.339893700787401
 30
0.0
 10
0.5771259842519685
 20
2.714610236220473
 30
0.0
 10
0.5771259842519685
 20
2.714610236220473
 30
0.0
 10
0.5771259842519685
 20
2.714610236220473
 30
0.0
 10
0.5771259842519685
 20
2.714610236220473
 30
0.0
 10
0.5680511811023622
 20
2.714192913385827
 30
0.0
 10
0.5680511811023622
 20
2.714192913385827
 30
0.0
 10
0.5680511811023622
 20
2.714192913385827
 30
0.0
 10
0.5680511811023622
 20
2.714192913385827
 30
0.0
 10
0.5591220472440945
 20
2.713602362204725
 30
0.0
 10
0.5591220472440945
 20
2.713602362204725
 30
0.0
 10
0.5591220472440945
 20
2.713602362204725
 30
0.0
 10
0.5591220472440945
 20
2.713602362204725
 30
0.0
 10
0.5503425196850394
 20
2.712818897637795
 30
0.0
 10
0.5503425196850394
 20
2.712818897637795
 30
0.0
 10
0.5503425196850394
 20
2.712818897637795
 30
0.0
 10
0.5503425196850394
 20
2.712818897637795
 30
0.0
 10
0.541736220472441
 20
2.711838582677165
 30
0.0
 10
0.541736220472441
 20
2.711838582677165
 30
0.0
 10
0.541736220472441
 20
2.711838582677165
 30
0.0
 10
0.541736220472441
 20
2.711838582677165
 30
0.0
 10
0.5332992125984252
 20
2.710633858267717
 30
0.0
 10
0.5332992125984252
 20
2.710633858267717
 30
0.0
  0
SPLINE
  5
5C
330
1F
100
AcDbEntity
  8
LAYER_1
 62
   253
100
AcDbSpline
210
0.0
220
0.0
230
1.0
 70
    11
 71
     3
 72
    44
 73
    40
 74
     0
 42
0.0000000001
 43
0.0000000001
 40
0.0
 40
0.0
 40
0.0
 40
0.0
 40
0.1
 40
0.1
 40
0.1
 40
0.1
 40
0.2
 40
0.2
 40
0.2
 40
0.2
 40
0.3
 40
0.3
 40
0.3
 40
0.3
 40
0.4
 40
0.4
 40
0.4
 40
0.4
 40
0.5
 40
0.5
 40
0.5
 40
0.5
 40
0.6
 40
0.6
 40
0.6
 40
0.6
 40
0.7
 40
0.7
 40
0.7
 40
0.7
 40
0.7999999999999999
 40
0.7999999999999999
 40
0.7999999999999999
 40
0.7999999999999999
 40
0.8999999999999999
 40
0.8999999999999999
 40
0.8999999999999999
 40
0.8999999999999999
 40
1.0
 40
1.0
 40
1.0
 40
1.0
 10
0.5771259842519685
 20
2.714610236220473
 30
0.0
 10
0.5771259842519685
 20
2.714610236220473
 30
0.0
 10
1.227236220472441
 20
2.339893700787401
 30
0.0
 10
1.227236220472441
 20
2.339893700787401
 30
0.0
 10
1.227236220472441
 20
2.339893700787401
 30
0.0
 10
1.227236220472441
 20
2.339893700787401
 30
0.0
 10
1.236429133858268
 20
2.340141732283465
 30
0.0
 10
1.236429133858268
 20
2.340141732283465
 30
0.0
 10
1.236429133858268
 20
2.340141732283465
 30
0.0
 10
1.236429133858268
 20
2.340141732283465
 30
0.0
 10
1.245740157480315
 20
2.340240157480315
 30
0.0
 10
1.245740157480315
 20
2.340240157480315
 30
0.0
 10
1.245740157480315
 20
2.340240157480315
 30
0.0
 10
1.245740157480315
 20
2.340240157480315
 30
0.0
 10
1.255149606299213
 20
2.340196850393701
 30
0.0
 10
1.255149606299213
 20
2.340196850393701
 30
0.0
 10
1.255149606299213
 20
2.340196850393701
 30
0.0
 10
1.255149606299213
 20
2.340196850393701
 30
0.0
 10
1.264645669291339
 20
2.340035433070866
 30
0.0
 10
1.264645669291339
 20
2.340035433070866
 30
0.0
 10
1.264645669291339
 20
2.340035433070866
 30
0.0
 10
1.264645669291339
 20
2.340035433070866
 30
0.0
 10
0.6145354330708661
 20
2.714751968503937
 30
0.0
 10
0.6145354330708661
 20
2.714751968503937
 30
0.0
 10
0.6145354330708661
 20
2.714751968503937
 30
0.0
 10
0.6145354330708661
 20
2.714751968503937
 30
0.0
 10
0.6050393700787402
 20
2.714913385826772
 30
0.0
 10
0.6050393700787402
 20
2.714913385826772
 30
0.0
 10
0.6050393700787402
 20
2.714913385826772
 30
0.0
 10
0.6050393700787402
 20
2.714913385826772
 30
0.0
 10
0.5956299212598425
 20
2.714956692913386
 30
0.0
 10
0.5956299212598425
 20
2.714956692913386
 30
0.0
 10
0.5956299212598425
 20
2.714956692913386
 30
0.0
 10
0.5956299212598425
 20
2.714956692913386
 30
0.0
 10
0.5863188976377953
 20
2.714858267716536
 30
0.0
 10
0.5863188976377953
 20
2.714858267716536
 30
0.0
 10
0.5863188976377953
 20
2.714858267716536
 30
0.0
 10
0.5863188976377953
 20
2.714858267716536
 30
0.0
 10
0.5771259842519685
 20
2.714610236220473
 30
0.0
 10
0.5771259842519685
 20
2.714610236220473
 30
0.0
  0
SPLINE
  5
5D
330
1F
100
AcDbEntity
  8
LAYER_1
 62
   250
100
AcDbSpline
210
0.0
220
0.0
230
1.0
 70
    11
 71
     3
 72
   268
 73
   264
 74
     0
 42
0.0000000001
 43
0.0000000001
 40
0.0
 40
0.0
 40
0.0
 40
0.0
 40
0.0151515151515152
 40
0.0151515151515152
 40
0.0151515151515152
 40
0.0151515151515152
 40
0.0303030303030303
 40
0.0303030303030303
 40
0.0303030303030303
 40
0.0303030303030303
 40
0.0454545454545455
 40
0.0454545454545455
 40
0.0454545454545455
 40
0.0454545454545455
 40
0.0606060606060606
 40
0.0606060606060606
 40
0.0606060606060606
 40
0.0606060606060606
 40
0.0757575757575758
 40
0.0757575757575758
 40
0.0757575757575758
 40
0.0757575757575758
 40
0.0909090909090909
 40
0.0909090909090909
 40
0.0909090909090909
 40
0.0909090909090909
 40
0.1060606060606061
 40
0.1060606060606061
 40
0.1060606060606061
 40
0.1060606060606061
 40
0.1212121212121212
 40
0.1212121212121212
 40
0.1212121212121212
 40
0.1212121212121212
 40
0.1363636363636364
 40
0.1363636363636364
 40
0.1363636363636364
 40
0.1363636363636364
 40
0.1515151515151515
 40
0.1515151515151515
 40
0.1515151515151515
 40
0.1515151515151515
 40
0.1666666666666666
 40
0.1666666666666666
 40
0.1666666666666666
 40
0.1666666666666666
 40
0.1818181818181818
 40
0.1818181818181818
 40
0.1818181818181818
 40
0.1818181818181818
 40
0.1969696969696969
 40
0.1969696969696969
 40
0.1969696969696969
 40
0.1969696969696969
 40
0.212121212121212
 40
0.212121212121212
 40
0.212121212121212
 40
0.212121212121212
 40
0.2272727272727272
 40
0.2272727272727272
 40
0.2272727272727272
 40
0.2272727272727272
 40
0.2424242424242423
 40
0.2424242424242423
 40
0.2424242424242423
 40
0.2424242424242423
 40
0.2575757575757575
 40
0.2575757575757575
 40
0.2575757575757575
 40
0.2575757575757575
 40
0.2727272727272726
 40
0.2727272727272726
 40
0.2727272727272726
 40
0.2727272727272726
 40
0.2878787878787877
 40
0.2878787878787877
 40
0.2878787878787877
 40
0.2878787878787877
 40
0.3030303030303029
 40
0.3030303030303029
 40
0.3030303030303029
 40
0.3030303030303029
 40
0.318181818181818
 40
0.318181818181818
 40
0.318181818181818
 40
0.318181818181818
 40
0.3333333333333332
 40
0.3333333333333332
 40
0.3333333333333332
 40
0.3333333333333332
 40
0.3484848484848483
 40
0.3484848484848483
 40
0.3484848484848483
 40
0.3484848484848483
 40
0.3636363636363634
 40
0.3636363636363634
 40
0.3636363636363634
 40
0.3636363636363634
 40
0.3787878787878786
 40
0.3787878787878786
 40
0.3787878787878786
 40
0.3787878787878786
 40
0.3939393939393937
 40
0.3939393939393937
 40
0.3939393939393937
 40
0.3939393939393937
 40
0.4090909090909088
 40
0.4090909090909088
 40
0.4090909090909088
 40
0.4090909090909088
 40
0.424242424242424
 40
0.424242424242424
 40
0.424242424242424
 40
0.424242424242424
 40
0.4393939393939391
 40
0.4393939393939391
 40
0.4393939393939391
 40
0.4393939393939391
 40
0.4545454545454543
 40
0.4545454545454543
 40
0.4545454545454543
 40
0.4545454545454543
 40
0.4696969696969694
 40
0.4696969696969694
 40
0.4696969696969694
 40
0.4696969696969694
 40
0.4848484848484845
 40
0.4848484848484845
 40
0.4848484848484845
 40
0.4848484848484845
 40
0.4999999999999997
 40
0.4999999999999997
 40
0.4999999999999997
 40
0.4999999999999997
 40
0.5151515151515148
 40
0.5151515151515148
 40
0.5151515151515148
 40
0.5151515151515148
 40
0.5303030303030299
 40
0.5303030303030299
 40
0.5303030303030299
 40
0.5303030303030299
 40
0.5454545454545451
 40
0.5454545454545451
 40
0.5454545454545451
 40
0.5454545454545451
 40
0.5606060606060602
 40
0.5606060606060602
 40
0.5606060606060602
 40
0.5606060606060602
 40
0.5757575757575754
 40
0.5757575757575754
 40
0.5757575757575754
 40
0.5757575757575754
 40
0.5909090909090905
 40
0.5909090909090905
 40
0.5909090909090905
 40
0.5909090909090905
 40
0.6060606060606056
 40
0.6060606060606056
 40
0.6060606060606056
 40
0.6060606060606056
 40
0.6212121212121208
 40
0.6212121212121208
 40
0.6212121212121208
 40
0.6212121212121208
 40
0.6363636363636359
 40
0.6363636363636359
 40
0.6363636363636359
 40
0.6363636363636359
 40
0.6515151515151511
 40
0.6515151515151511
 40
0.6515151515151511
 40
0.6515151515151511
 40
0.6666666666666662
 40
0.6666666666666662
 40
0.6666666666666662
 40
0.6666666666666662
 40
0.6818181818181813
 40
0.6818181818181813
 40
0.6818181818181813
 40
0.6818181818181813
 40
0.6969696969696965
 40
0.6969696969696965
 40
0.6969696969696965
 40
0.6969696969696965
 40
0.7121212121212116
 40
0.7121212121212116
 40
0.7121212121212116
 40
0.7121212121212116
 40
0.7272727272727267
 40
0.7272727272727267
 40
0.7272727272727267
 40
0.7272727272727267
 40
0.7424242424242419
 40
0.7424242424242419
 40
0.7424242424242419
 40
0.7424242424242419
 40
0.757575757575757
 40
0.757575757575757
 40
0.757575757575757
 40
0.757575757575757
 40
0.7727272727272722
 40
0.7727272727272722
 40
0.7727272727272722
 40
0.7727272727272722
 40
0.7878787878787873
 40
0.7878787878787873
 40
0.7878787878787873
 40
0.7878787878787873
 40
0.8030303030303024
 40
0.8030303030303024
 40
0.8030303030303024
 40
0.8030303030303024
 40
0.8181818181818176
 40
0.8181818181818176
 40
0.8181818181818176
 40
0.8181818181818176
 40
0.8333333333333327
 40
0.8333333333333327
 40
0.8333333333333327
 40
0.8333333333333327
 40
0.8484848484848478
 40
0.8484848484848478
 40
0.8484848484848478
 40
0.8484848484848478
 40
0.863636363636363
 40
0.863636363636363
 40
0.863636363636363
 40
0.863636363636363
 40
0.8787878787878781
 40
0.8787878787878781
 40
0.8787878787878781
 40
0.8787878787878781
 40
0.8939393939393933
 40
0.8939393939393933
 40
0.8939393939393933
 40
0.8939393939393933
 40
0.9090909090909084
 40
0.9090909090909084
 40
0.9090909090909084
 40
0.9090909090909084
 40
0.9242424242424235
 40
0.9242424242424235
 40
0.9242424242424235
 40
0.9242424242424235
 40
0.9393939393939387
 40
0.9393939393939387
 40
0.9393939393939387
 40
0.9393939393939387
 40
0.9545454545454538
 40
0.9545454545454538
 40
0.9545454545454538
 40
0.9545454545454538
 40
0.969696969696969
 40
0.969696969696969
 40
0.969696969696969
 40
0.969696969696969
 40
0.9848484848484841
 40
0.9848484848484841
 40
0.9848484848484841
 40
0.9848484848484841
 40
1.0
 40
1.0
 40
1.0
 40
1.0
 10
0.4209251968503937
 20
2.593897637795276
 30
0.0
 10
0.4209251968503937
 20
2.593897637795276
 30
0.0
 10
1.071035433070866
 20
2.219181102362205
 30
0.0
 10
1.071035433070866
 20
2.219181102362205
 30
0.0
 10
1.071035433070866
 20
2.219181102362205
 30
0.0
 10
1.071035433070866
 20
2.219181102362205
 30
0.0
 10
1.071507874015748
 20
2.228885826771654
 30
0.0
 10
1.071507874015748
 20
2.228885826771654
 30
0.0
 10
1.071507874015748
 20
2.228885826771654
 30
0.0
 10
1.071507874015748
 20
2.228885826771654
 30
0.0
 10
1.072484251968504
 20
2.238082677165354
 30
0.0
 10
1.072484251968504
 20
2.238082677165354
 30
0.0
 10
1.072484251968504
 20
2.238082677165354
 30
0.0
 10
1.072484251968504
 20
2.238082677165354
 30
0.0
 10
1.07394094488189
 20
2.246779527559055
 30
0.0
 10
1.07394094488189
 20
2.246779527559055
 30
0.0
 10
1.07394094488189
 20
2.246779527559055
 30
0.0
 10
1.07394094488189
 20
2.246779527559055
 30
0.0
 10
1.075874015748032
 20
2.255
 30
0.0
 10
1.075874015748032
 20
2.255
 30
0.0
 10
1.075874015748032
 20
2.255
 30
0.0
 10
1.075874015748032
 20
2.255
 30
0.0
 10
1.078251968503937
 20
2.262740157480315
 30
0.0
 10
1.078251968503937
 20
2.262740157480315
 30
0.0
 10
1.078251968503937
 20
2.262740157480315
 30
0.0
 10
1.078251968503937
 20
2.262740157480315
 30
0.0
 10
1.081082677165354
 20
2.270027559055118
 30
0.0
 10
1.081082677165354
 20
2.270027559055118
 30
0.0
 10
1.081082677165354
 20
2.270027559055118
 30
0.0
 10
1.081082677165354
 20
2.270027559055118
 30
0.0
 10
1.084334645669291
 20
2.276862204724409
 30
0.0
 10
1.084334645669291
 20
2.276862204724409
 30
0.0
 10
1.084334645669291
 20
2.276862204724409
 30
0.0
 10
1.084334645669291
 20
2.276862204724409
 30
0.0
 10
1.088007874015748
 20
2.283267716535433
 30
0.0
 10
1.088007874015748
 20
2.283267716535433
 30
0.0
 10
1.088007874015748
 20
2.283267716535433
 30
0.0
 10
1.088007874015748
 20
2.283267716535433
 30
0.0
 10
1.092070866141732
 20
2.289244094488189
 30
0.0
 10
1.092070866141732
 20
2.289244094488189
 30
0.0
 10
1.092070866141732
 20
2.289244094488189
 30
0.0
 10
1.092070866141732
 20
2.289244094488189
 30
0.0
 10
1.096527559055118
 20
2.294814960629922
 30
0.0
 10
1.096527559055118
 20
2.294814960629922
 30
0.0
 10
1.096527559055118
 20
2.294814960629922
 30
0.0
 10
1.096527559055118
 20
2.294814960629922
 30
0.0
 10
1.101354330708662
 20
2.299992125984252
 30
0.0
 10
1.101354330708662
 20
2.299992125984252
 30
0.0
 10
1.101354330708662
 20
2.299992125984252
 30
0.0
 10
1.101354330708662
 20
2.299992125984252
 30
0.0
 10
1.106547244094488
 20
2.304787401574803
 30
0.0
 10
1.106547244094488
 20
2.304787401574803
 30
0.0
 10
1.106547244094488
 20
2.304787401574803
 30
0.0
 10
1.106547244094488
 20
2.304787401574803
 30
0.0
 10
1.11207874015748
 20
2.309208661417323
 30
0.0
 10
1.11207874015748
 20
2.309208661417323
 30
0.0
 10
1.11207874015748
 20
2.309208661417323
 30
0.0
 10
1.11207874015748
 20
2.309208661417323
 30
0.0
 10
1.117948818897638
 20
2.313275590551181
 30
0.0
 10
1.117948818897638
 20
2.313275590551181
 30
0.0
 10
1.117948818897638
 20
2.313275590551181
 30
0.0
 10
1.117948818897638
 20
2.313275590551181
 30
0.0
 10
1.124133858267717
 20
2.317
 30
0.0
 10
1.124133858267717
 20
2.317
 30
0.0
 10
1.124133858267717
 20
2.317
 30
0.0
 10
1.124133858267717
 20
2.317
 30
0.0
 10
1.130625984251969
 20
2.320393700787402
 30
0.0
 10
1.130625984251969
 20
2.320393700787402
 30
0.0
 10
1.130625984251969
 20
2.320393700787402
 30
0.0
 10
1.130625984251969
 20
2.320393700787402
 30
0.0
 10
1.137397637795276
 20
2.32346062992126
 30
0.0
 10
1.137397637795276
 20
2.32346062992126
 30
0.0
 10
1.137397637795276
 20
2.32346062992126
 30
0.0
 10
1.137397637795276
 20
2.32346062992126
 30
0.0
 10
1.144456692913386
 20
2.326228346456693
 30
0.0
 10
1.144456692913386
 20
2.326228346456693
 30
0.0
 10
1.144456692913386
 20
2.326228346456693
 30
0.0
 10
1.144456692913386
 20
2.326228346456693
 30
0.0
 10
1.151775590551181
 20
2.328696850393701
 30
0.0
 10
1.151775590551181
 20
2.328696850393701
 30
0.0
 10
1.151775590551181
 20
2.328696850393701
 30
0.0
 10
1.151775590551181
 20
2.328696850393701
 30
0.0
 10
1.159346456692914
 20
2.330893700787402
 30
0.0
 10
1.159346456692914
 20
2.330893700787402
 30
0.0
 10
1.159346456692914
 20
2.330893700787402
 30
0.0
 10
1.159346456692914
 20
2.330893700787402
 30
0.0
 10
1.167149606299213
 20
2.332814960629921
 30
0.0
 10
1.167149606299213
 20
2.332814960629921
 30
0.0
 10
1.167149606299213
 20
2.332814960629921
 30
0.0
 10
1.167149606299213
 20
2.332814960629921
 30
0.0
 10
1.175177165354331
 20
2.334488188976378
 30
0.0
 10
1.175177165354331
 20
2.334488188976378
 30
0.0
 10
1.175177165354331
 20
2.334488188976378
 30
0.0
 10
1.175177165354331
 20
2.334488188976378
 30
0.0
 10
1.183409448818898
 20
2.335917322834646
 30
0.0
 10
1.183409448818898
 20
2.335917322834646
 30
0.0
 10
1.183409448818898
 20
2.335917322834646
 30
0.0
 10
1.183409448818898
 20
2.335917322834646
 30
0.0
 10
1.191846456692913
 20
2.337122047244095
 30
0.0
 10
1.191846456692913
 20
2.337122047244095
 30
0.0
 10
1.191846456692913
 20
2.337122047244095
 30
0.0
 10
1.191846456692913
 20
2.337122047244095
 30
0.0
 10
1.200452755905512
 20
2.338102362204725
 30
0.0
 10
1.200452755905512
 20
2.338102362204725
 30
0.0
 10
1.200452755905512
 20
2.338102362204725
 30
0.0
 10
1.200452755905512
 20
2.338102362204725
 30
0.0
 10
1.209232283464567
 20
2.338885826771654
 30
0.0
 10
1.209232283464567
 20
2.338885826771654
 30
0.0
 10
1.209232283464567
 20
2.338885826771654
 30
0.0
 10
1.209232283464567
 20
2.338885826771654
 30
0.0
 10
1.218161417322835
 20
2.339476377952756
 30
0.0
 10
1.218161417322835
 20
2.339476377952756
 30
0.0
 10
1.218161417322835
 20
2.339476377952756
 30
0.0
 10
1.218161417322835
 20
2.339476377952756
 30
0.0
 10
1.227236220472441
 20
2.339893700787401
 30
0.0
 10
1.227236220472441
 20
2.339893700787401
 30
0.0
 10
1.227236220472441
 20
2.339893700787401
 30
0.0
 10
1.227236220472441
 20
2.339893700787401
 30
0.0
 10
1.236429133858268
 20
2.340141732283465
 30
0.0
 10
1.236429133858268
 20
2.340141732283465
 30
0.0
 10
1.236429133858268
 20
2.340141732283465
 30
0.0
 10
1.236429133858268
 20
2.340141732283465
 30
0.0
 10
1.245740157480315
 20
2.340240157480315
 30
0.0
 10
1.245740157480315
 20
2.340240157480315
 30
0.0
 10
1.245740157480315
 20
2.340240157480315
 30
0.0
 10
1.245740157480315
 20
2.340240157480315
 30
0.0
 10
1.255149606299213
 20
2.340196850393701
 30
0.0
 10
1.255149606299213
 20
2.340196850393701
 30
0.0
 10
1.255149606299213
 20
2.340196850393701
 30
0.0
 10
1.255149606299213
 20
2.340196850393701
 30
0.0
 10
1.264645669291339
 20
2.340035433070866
 30
0.0
 10
1.264645669291339
 20
2.340035433070866
 30
0.0
 10
1.264645669291339
 20
2.340035433070866
 30
0.0
 10
1.264645669291339
 20
2.340035433070866
 30
0.0
 10
0.6145354330708661
 20
2.714751968503937
 30
0.0
 10
0.6145354330708661
 20
2.714751968503937
 30
0.0
 10
0.6145354330708661
 20
2.714751968503937
 30
0.0
 10
0.6145354330708661
 20
2.714751968503937
 30
0.0
 10
0.6050393700787402
 20
2.714913385826772
 30
0.0
 10
0.6050393700787402
 20
2.714913385826772
 30
0.0
 10
0.6050393700787402
 20
2.714913385826772
 30
0.0
 10
0.6050393700787402
 20
2.714913385826772
 30
0.0
 10
0.5956299212598425
 20
2.714956692913386
 30
0.0
 10
0.5956299212598425
 20
2.714956692913386
 30
0.0
 10
0.5956299212598425
 20
2.714956692913386
 30
0.0
 10
0.5956299212598425
 20
2.714956692913386
 30
0.0
 10
0.5863188976377953
 20
2.714858267716536
 30
0.0
 10
0.5863188976377953
 20
2.714858267716536
 30
0.0
 10
0.5863188976377953
 20
2.714858267716536
 30
0.0
 10
0.5863188976377953
 20
2.714858267716536
 30
0.0
 10
0.5771259842519685
 20
2.714610236220473
 30
0.0
 10
0.5771259842519685
 20
2.714610236220473
 30
0.0
 10
0.5771259842519685
 20
2.714610236220473
 30
0.0
 10
0.5771259842519685
 20
2.714610236220473
 30
0.0
 10
0.5680511811023622
 20
2.714192913385827
 30
0.0
 10
0.5680511811023622
 20
2.714192913385827
 30
0.0
 10
0.5680511811023622
 20
2.714192913385827
 30
0.0
 10
0.5680511811023622
 20
2.714192913385827
 30
0.0
 10
0.5591220472440945
 20
2.713602362204725
 30
0.0
 10
0.5591220472440945
 20
2.713602362204725
 30
0.0
 10
0.5591220472440945
 20
2.713602362204725
 30
0.0
 10
0.5591220472440945
 20
2.713602362204725
 30
0.0
 10
0.5503425196850394
 20
2.712818897637795
 30
0.0
 10
0.5503425196850394
 20
2.712818897637795
 30
0.0
 10
0.5503425196850394
 20
2.712818897637795
 30
0.0
 10
0.5503425196850394
 20
2.712818897637795
 30
0.0
 10
0.541736220472441
 20
2.711838582677165
 30
0.0
 10
0.541736220472441
 20
2.711838582677165
 30
0.0
 10
0.541736220472441
 20
2.711838582677165
 30
0.0
 10
0.541736220472441
 20
2.711838582677165
 30
0.0
 10
0.5332992125984252
 20
2.710633858267717
 30
0.0
 10
0.5332992125984252
 20
2.710633858267717
 30
0.0
 10
0.5332992125984252
 20
2.710633858267717
 30
0.0
 10
0.5332992125984252
 20
2.710633858267717
 30
0.0
 10
0.5250669291338583
 20
2.709204724409449
 30
0.0
 10
0.5250669291338583
 20
2.709204724409449
 30
0.0
 10
0.5250669291338583
 20
2.709204724409449
 30
0.0
 10
0.5250669291338583
 20
2.709204724409449
 30
0.0
 10
0.5170393700787401
 20
2.707531496062992
 30
0.0
 10
0.5170393700787401
 20
2.707531496062992
 30
0.0
 10
0.5170393700787401
 20
2.707531496062992
 30
0.0
 10
0.5170393700787401
 20
2.707531496062992
 30
0.0
 10
0.509236220472441
 20
2.705610236220473
 30
0.0
 10
0.509236220472441
 20
2.705610236220473
 30
0.0
 10
0.509236220472441
 20
2.705610236220473
 30
0.0
 10
0.509236220472441
 20
2.705610236220473
 30
0.0
 10
0.5016653543307087
 20
2.703413385826772
 30
0.0
 10
0.5016653543307087
 20
2.703413385826772
 30
0.0
 10
0.5016653543307087
 20
2.703413385826772
 30
0.0
 10
0.5016653543307087
 20
2.703413385826772
 30
0.0
 10
0.4943464566929134
 20
2.700944881889764
 30
0.0
 10
0.4943464566929134
 20
2.700944881889764
 30
0.0
 10
0.4943464566929134
 20
2.700944881889764
 30
0.0
 10
0.4943464566929134
 20
2.700944881889764
 30
0.0
 10
0.4872874015748032
 20
2.698177165354331
 30
0.0
 10
0.4872874015748032
 20
2.698177165354331
 30
0.0
 10
0.4872874015748032
 20
2.698177165354331
 30
0.0
 10
0.4872874015748032
 20
2.698177165354331
 30
0.0
 10
0.4805157480314961
 20
2.695110236220473
 30
0.0
 10
0.4805157480314961
 20
2.695110236220473
 30
0.0
 10
0.4805157480314961
 20
2.695110236220473
 30
0.0
 10
0.4805157480314961
 20
2.695110236220473
 30
0.0
 10
0.4740236220472441
 20
2.691716535433071
 30
0.0
 10
0.4740236220472441
 20
2.691716535433071
 30
0.0
 10
0.4740236220472441
 20
2.691716535433071
 30
0.0
 10
0.4740236220472441
 20
2.691716535433071
 30
0.0
 10
0.4678385826771654
 20
2.687992125984252
 30
0.0
 10
0.4678385826771654
 20
2.687992125984252
 30
0.0
 10
0.4678385826771654
 20
2.687992125984252
 30
0.0
 10
0.4678385826771654
 20
2.687992125984252
 30
0.0
 10
0.4619685039370079
 20
2.683925196850394
 30
0.0
 10
0.4619685039370079
 20
2.683925196850394
 30
0.0
 10
0.4619685039370079
 20
2.683925196850394
 30
0.0
 10
0.4619685039370079
 20
2.683925196850394
 30
0.0
 10
0.4564370078740158
 20
2.679503937007874
 30
0.0
 10
0.4564370078740158
 20
2.679503937007874
 30
0.0
 10
0.4564370078740158
 20
2.679503937007874
 30
0.0
 10
0.4564370078740158
 20
2.679503937007874
 30
0.0
 10
0.451244094488189
 20
2.674708661417323
 30
0.0
 10
0.451244094488189
 20
2.674708661417323
 30
0.0
 10
0.451244094488189
 20
2.674708661417323
 30
0.0
 10
0.451244094488189
 20
2.674708661417323
 30
0.0
 10
0.4464173228346457
 20
2.669531496062992
 30
0.0
 10
0.4464173228346457
 20
2.669531496062992
 30
0.0
 10
0.4464173228346457
 20
2.669531496062992
 30
0.0
 10
0.4464173228346457
 20
2.669531496062992
 30
0.0
 10
0.4419606299212598
 20
2.66396062992126
 30
0.0
 10
0.4419606299212598
 20
2.66396062992126
 30
0.0
 10
0.4419606299212598
 20
2.66396062992126
 30
0.0
 10
0.4419606299212598
 20
2.66396062992126
 30
0.0
 10
0.4378976377952756
 20
2.657984251968504
 30
0.0
 10
0.4378976377952756
 20
2.657984251968504
 30
0.0
 10
0.4378976377952756
 20
2.657984251968504
 30
0.0
 10
0.4378976377952756
 20
2.657984251968504
 30
0.0
 10
0.4342244094488189
 20
2.65157874015748
 30
0.0
 10
0.4342244094488189
 20
2.65157874015748
 30
0.0
 10
0.4342244094488189
 20
2.65157874015748
 30
0.0
 10
0.4342244094488189
 20
2.65157874015748
 30
0.0
 10
0.4309724409448819
 20
2.644744094488189
 30
0.0
 10
0.4309724409448819
 20
2.644744094488189
 30
0.0
 10
0.4309724409448819
 20
2.644744094488189
 30
0.0
 10
0.4309724409448819
 20
2.644744094488189
 30
0.0
 10
0.4281417322834646
 20
2.637456692913386
 30
0.0
 10
0.4281417322834646
 20
2.637456692913386
 30
0.0
 10
0.4281417322834646
 20
2.637456692913386
 30
0.0
 10
0.4281417322834646
 20
2.637456692913386
 30
0.0
 10
0.4257637795275591
 20
2.629716535433071
 30
0.0
 10
0.4257637795275591
 20
2.629716535433071
 30
0.0
 10
0.4257637795275591
 20
2.629716535433071
 30
0.0
 10
0.4257637795275591
 20
2.629716535433071
 30
0.0
 10
0.4238307086614174
 20
2.621496062992126
 30
0.0
 10
0.4238307086614174
 20
2.621496062992126
 30
0.0
 10
0.4238307086614174
 20
2.621496062992126
 30
0.0
 10
0.4238307086614174
 20
2.621496062992126
 30
0.0
 10
0.4223740157480315
 20
2.612799212598425
 30
0.0
 10
0.4223740157480315
 20
2.612799212598425
 30
0.0
 10
0.4223740157480315
 20
2.612799212598425
 30
0.0
 10
0.4223740157480315
 20
2.612799212598425
 30
0.0
 10
0.4213976377952756
 20
2.603602362204724
 30
0.0
 10
0.4213976377952756
 20
2.603602362204724
 30
0.0
 10
0.4213976377952756
 20
2.603602362204724
 30
0.0
 10
0.4213976377952756
 20
2.603602362204724
 30
0.0
 10
0.4209251968503937
 20
2.593897637795276
 30
0.0
 10
0.4209251968503937
 20
2.593897637795276
 30
0.0
  0
SPLINE
  5
5E
330
1F
100
AcDbEntity
  8
LAYER_1
 62
   253
100
AcDbSpline
210
0.0
220
0.0
230
1.0
 70
    11
 71
     3
 72
    20
 73
    16
 74
     0
 42
0.0000000001
 43
0.0000000001
 40
0.0
 40
0.0
 40
0.0
 40
0.0
 40
0.25
 40
0.25
 40
0.25
 40
0.25
 40
0.5
 40
0.5
 40
0.5
 40
0.5
 40
0.75
 40
0.75
 40
0.75
 40
0.75
 40
1.0
 40
1.0
 40
1.0
 40
1.0
 10
0.6145354330708661
 20
2.714751968503937
 30
0.0
 10
0.6145354330708661
 20
2.714751968503937
 30
0.0
 10
1.264645669291339
 20
2.340035433070866
 30
0.0
 10
1.264645669291339
 20
2.340035433070866
 30
0.0
 10
1.264645669291339
 20
2.340035433070866
 30
0.0
 10
1.264645669291339
 20
2.340035433070866
 30
0.0
 10
1.264645669291339
 20
2.591173228346457
 30
0.0
 10
1.264645669291339
 20
2.591173228346457
 30
0.0
 10
1.264645669291339
 20
2.591173228346457
 30
0.0
 10
1.264645669291339
 20
2.591173228346457
 30
0.0
 10
0.6145354330708661
 20
2.965889763779528
 30
0.0
 10
0.6145354330708661
 20
2.965889763779528
 30
0.0
 10
0.6145354330708661
 20
2.965889763779528
 30
0.0
 10
0.6145354330708661
 20
2.965889763779528
 30
0.0
 10
0.6145354330708661
 20
2.714751968503937
 30
0.0
 10
0.6145354330708661
 20
2.714751968503937
 30
0.0
  0
SPLINE
  5
5F
330
1F
100
AcDbEntity
  8
LAYER_1
 62
   250
100
AcDbSpline
210
0.0
220
0.0
230
1.0
 70
    11
 71
     3
 72
    20
 73
    16
 74
     0
 42
0.0000000001
 43
0.0000000001
 40
0.0
 40
0.0
 40
0.0
 40
0.0
 40
0.25
 40
0.25
 40
0.25
 40
0.25
 40
0.5
 40
0.5
 40
0.5
 40
0.5
 40
0.75
 40
0.75
 40
0.75
 40
0.75
 40
1.0
 40
1.0
 40
1.0
 40
1.0
 10
0.6145354330708661
 20
2.714751968503937
 30
0.0
 10
0.6145354330708661
 20
2.714751968503937
 30
0.0
 10
1.264645669291339
 20
2.340035433070866
 30
0.0
 10
1.264645669291339
 20
2.340035433070866
 30
0.0
 10
1.264645669291339
 20
2.340035433070866
 30
0.0
 10
1.264645669291339
 20
2.340035433070866
 30
0.0
 10
1.264645669291339
 20
2.591173228346457
 30
0.0
 10
1.264645669291339
 20
2.591173228346457
 30
0.0
 10
1.264645669291339
 20
2.591173228346457
 30
0.0
 10
1.264645669291339
 20
2.591173228346457
 30
0.0
 10
0.6145354330708661
 20
2.965889763779528
 30
0.0
 10
0.6145354330708661
 20
2.965889763779528
 30
0.0
 10
0.6145354330708661
 20
2.965889763779528
 30
0.0
 10
0.6145354330708661
 20
2.965889763779528
 30
0.0
 10
0.6145354330708661
 20
2.714751968503937
 30
0.0
 10
0.6145354330708661
 20
2.714751968503937
 30
0.0
  0
SPLINE
  5
60
330
1F
100
AcDbEntity
  8
LAYER_1
 62
   253
100
AcDbSpline
210
0.0
220
0.0
230
1.0
 70
    11
 71
     3
 72
    20
 73
    16
 74
     0
 42
0.0000000001
 43
0.0000000001
 40
0.0
 40
0.0
 40
0.0
 40
0.0
 40
0.25
 40
0.25
 40
0.25
 40
0.25
 40
0.5
 40
0.5
 40
0.5
 40
0.5
 40
0.75
 40
0.75
 40
0.75
 40
0.75
 40
1.0
 40
1.0
 40
1.0
 40
1.0
 10
-0.0417716535433071
 20
2.083885826771654
 30
0.0
 10
-0.0417716535433071
 20
2.083885826771654
 30
0.0
 10
0.6083385826771653
 20
1.709169291338583
 30
0.0
 10
0.6083385826771653
 20
1.709169291338583
 30
0.0
 10
0.6083385826771653
 20
1.709169291338583
 30
0.0
 10
0.6083385826771653
 20
1.709169291338583
 30
0.0
 10
1.071035433070866
 20
1.709094488188977
 30
0.0
 10
1.071035433070866
 20
1.709094488188977
 30
0.0
 10
1.071035433070866
 20
1.709094488188977
 30
0.0
 10
1.071035433070866
 20
1.709094488188977
 30
0.0
 10
0.4209251968503937
 20
2.083811023622047
 30
0.0
 10
0.4209251968503937
 20
2.083811023622047
 30
0.0
 10
0.4209251968503937
 20
2.083811023622047
 30
0.0
 10
0.4209251968503937
 20
2.083811023622047
 30
0.0
 10
-0.0417716535433071
 20
2.083885826771654
 30
0.0
 10
-0.0417716535433071
 20
2.083885826771654
 30
0.0
  0
SPLINE
  5
61
330
1F
100
AcDbEntity
  8
LAYER_1
 62
   250
100
AcDbSpline
210
0.0
220
0.0
230
1.0
 70
    11
 71
     3
 72
    20
 73
    16
 74
     0
 42
0.0000000001
 43
0.0000000001
 40
0.0
 40
0.0
 40
0.0
 40
0.0
 40
0.25
 40
0.25
 40
0.25
 40
0.25
 40
0.5
 40
0.5
 40
0.5
 40
0.5
 40
0.75
 40
0.75
 40
0.75
 40
0.75
 40
1.0
 40
1.0
 40
1.0
 40
1.0
 10
-0.0417716535433071
 20
2.083885826771654
 30
0.0
 10
-0.0417716535433071
 20
2.083885826771654
 30
0.0
 10
0.6083385826771653
 20
1.709169291338583
 30
0.0
 10
0.6083385826771653
 20
1.709169291338583
 30
0.0
 10
0.6083385826771653
 20
1.709169291338583
 30
0.0
 10
0.6083385826771653
 20
1.709169291338583
 30
0.0
 10
1.071035433070866
 20
1.709094488188977
 30
0.0
 10
1.071035433070866
 20
1.709094488188977
 30
0.0
 10
1.071035433070866
 20
1.709094488188977
 30
0.0
 10
1.071035433070866
 20
1.709094488188977
 30
0.0
 10
0.4209251968503937
 20
2.083811023622047
 30
0.0
 10
0.4209251968503937
 20
2.083811023622047
 30
0.0
 10
0.4209251968503937
 20
2.083811023622047
 30
0.0
 10
0.4209251968503937
 20
2.083811023622047
 30
0.0
 10
-0.0417716535433071
 20
2.083885826771654
 30
0.0
 10
-0.0417716535433071
 20
2.083885826771654
 30
0.0
  0
SPLINE
  5
62
330
1F
100
AcDbEntity
  8
LAYER_1
 62
     7
100
AcDbSpline
210
0.0
220
0.0
230
1.0
 70
    11
 71
     3
 72
    28
 73
    24
 74
     0
 42
0.0000000001
 43
0.0000000001
 40
0.0
 40
0.0
 40
0.0
 40
0.0
 40
0.1666666666666667
 40
0.1666666666666667
 40
0.1666666666666667
 40
0.1666666666666667
 40
0.3333333333333333
 40
0.3333333333333333
 40
0.3333333333333333
 40
0.3333333333333333
 40
0.5
 40
0.5
 40
0.5
 40
0.5
 40
0.6666666666666666
 40
0.6666666666666666
 40
0.6666666666666666
 40
0.6666666666666666
 40
0.8333333333333333
 40
0.8333333333333333
 40
0.8333333333333333
 40
0.8333333333333333
 40
1.0
 40
1.0
 40
1.0
 40
1.0
 10
0.4209251968503937
 20
2.083811023622047
 30
0.0
 10
0.4209251968503937
 20
2.083811023622047
 30
0.0
 10
0.4209251968503937
 20
2.593897637795276
 30
0.0
 10
0.4209251968503937
 20
2.593897637795276
 30
0.0
 10
0.4209251968503937
 20
2.593897637795276
 30
0.0
 10
0.4233464566929134
 20
2.700251968503937
 30
0.0
 10
0.5128858267716535
 20
2.717169291338583
 30
0.0
 10
0.6145354330708661
 20
2.714751968503937
 30
0.0
 10
0.6145354330708661
 20
2.714751968503937
 30
0.0
 10
0.6145354330708661
 20
2.714751968503937
 30
0.0
 10
0.6145354330708661
 20
2.965889763779528
 30
0.0
 10
0.6145354330708661
 20
2.965889763779528
 30
0.0
 10
0.6145354330708661
 20
2.965889763779528
 30
0.0
 10
0.6145354330708661
 20
2.965889763779528
 30
0.0
 10
-0.0417716535433071
 20
2.966133858267717
 30
0.0
 10
-0.0417716535433071
 20
2.966133858267717
 30
0.0
 10
-0.0417716535433071
 20
2.966133858267717
 30
0.0
 10
-0.0417716535433071
 20
2.966133858267717
 30
0.0
 10
-0.0417716535433071
 20
2.083885826771654
 30
0.0
 10
-0.0417716535433071
 20
2.083885826771654
 30
0.0
 10
-0.0417716535433071
 20
2.083885826771654
 30
0.0
 10
-0.0417716535433071
 20
2.083885826771654
 30
0.0
 10
0.4209251968503937
 20
2.083811023622047
 30
0.0
 10
0.4209251968503937
 20
2.083811023622047
 30
0.0
  0
SPLINE
  5
63
330
1F
100
AcDbEntity
  8
LAYER_1
 62
   250
100
AcDbSpline
210
0.0
220
0.0
230
1.0
 70
    11
 71
     3
 72
   104
 73
   100
 74
     0
 42
0.0000000001
 43
0.0000000001
 40
0.0
 40
0.0
 40
0.0
 40
0.0
 40
0.04
 40
0.04
 40
0.04
 40
0.04
 40
0.08
 40
0.08
 40
0.08
 40
0.08
 40
0.12
 40
0.12
 40
0.12
 40
0.12
 40
0.16
 40
0.16
 40
0.16
 40
0.16
 40
0.2
 40
0.2
 40
0.2
 40
0.2
 40
0.24
 40
0.24
 40
0.24
 40
0.24
 40
0.28
 40
0.28
 40
0.28
 40
0.28
 40
0.32
 40
0.32
 40
0.32
 40
0.32
 40
0.36
 40
0.36
 40
0.36
 40
0.36
 40
0.4
 40
0.4
 40
0.4
 40
0.4
 40
0.44
 40
0.44
 40
0.44
 40
0.44
 40
0.4799999999999999
 40
0.4799999999999999
 40
0.4799999999999999
 40
0.4799999999999999
 40
0.5199999999999999
 40
0.5199999999999999
 40
0.5199999999999999
 40
0.5199999999999999
 40
0.5599999999999999
 40
0.5599999999999999
 40
0.5599999999999999
 40
0.5599999999999999
 40
0.6
 40
0.6
 40
0.6
 40
0.6
 40
0.64
 40
0.64
 40
0.64
 40
0.64
 40
0.6800000000000001
 40
0.6800000000000001
 40
0.6800000000000001
 40
0.6800000000000001
 40
0.7200000000000001
 40
0.7200000000000001
 40
0.7200000000000001
 40
0.7200000000000001
 40
0.7600000000000001
 40
0.7600000000000001
 40
0.7600000000000001
 40
0.7600000000000001
 40
0.8000000000000002
 40
0.8000000000000002
 40
0.8000000000000002
 40
0.8000000000000002
 40
0.8400000000000002
 40
0.8400000000000002
 40
0.8400000000000002
 40
0.8400000000000002
 40
0.8800000000000002
 40
0.8800000000000002
 40
0.8800000000000002
 40
0.8800000000000002
 40
0.9200000000000003
 40
0.9200000000000003
 40
0.9200000000000003
 40
0.9200000000000003
 40
0.9600000000000003
 40
0.9600000000000003
 40
0.9600000000000003
 40
0.9600000000000003
 40
1.0
 40
1.0
 40
1.0
 40
1.0
 10
0.2428346456692914
 20
1.601393700787402
 30
0.0
 10
0.2428346456692914
 20
1.601393700787402
 30
0.0
 10
0.2968070866141733
 20
1.601393700787402
 30
0.0
 10
0.2968070866141733
 20
1.601393700787402
 30
0.0
 10
0.2968070866141733
 20
1.601393700787402
 30
0.0
 10
0.3099763779527559
 20
1.601393700787402
 30
0.0
 10
0.3190039370078741
 20
1.600783464566929
 30
0.0
 10
0.3238897637795276
 20
1.599586614173228
 30
0.0
 10
0.3238897637795276
 20
1.599586614173228
 30
0.0
 10
0.3311141732283465
 20
1.597866141732284
 30
0.0
 10
0.3368070866141733
 20
1.594728346456693
 30
0.0
 10
0.3410314960629922
 20
1.590169291338583
 30
0.0
 10
0.3410314960629922
 20
1.590169291338583
 30
0.0
 10
0.3452244094488189
 20
1.585614173228346
 30
0.0
 10
0.3473346456692913
 20
1.580114173228347
 30
0.0
 10
0.3473346456692913
 20
1.573728346456693
 30
0.0
 10
0.3473346456692913
 20
1.573728346456693
 30
0.0
 10
0.3473346456692913
 20
1.569114173228347
 30
0.0
 10
0.3462244094488189
 20
1.564976377952756
 30
0.0
 10
0.344003937007874
 20
1.561311023622047
 30
0.0
 10
0.344003937007874
 20
1.561311023622047
 30
0.0
 10
0.3417795275590551
 20
1.557641732283465
 30
0.0
 10
0.3385314960629922
 20
1.554503937007874
 30
0.0
 10
0.3343070866141732
 20
1.55192125984252
 30
0.0
 10
0.3343070866141732
 20
1.55192125984252
 30
0.0
 10
0.3315866141732284
 20
1.550228346456693
 30
0.0
 10
0.3279173228346457
 20
1.548783464566929
 30
0.0
 10
0.323251968503937
 20
1.547586614173228
 30
0.0
 10
0.323251968503937
 20
1.547586614173228
 30
0.0
 10
0.3291692913385827
 20
1.546503937007874
 30
0.0
 10
0.3336692913385827
 20
1.545200787401575
 30
0.0
 10
0.336751968503937
 20
1.543700787401575
 30
0.0
 10
0.336751968503937
 20
1.543700787401575
 30
0.0
 10
0.3414173228346457
 20
1.54142125984252
 30
0.0
 10
0.3451141732283465
 20
1.538173228346457
 30
0.0
 10
0.3478070866141733
 20
1.53392125984252
 30
0.0
 10
0.3478070866141733
 20
1.53392125984252
 30
0.0
 10
0.3505314960629922
 20
1.529700787401575
 30
0.0
 10
0.3518897637795276
 20
1.52492125984252
 30
0.0
 10
0.3518897637795276
 20
1.519614173228347
 30
0.0
 10
0.3518897637795276
 20
1.519614173228347
 30
0.0
 10
0.3518897637795276
 20
1.514448818897638
 30
0.0
 10
0.3505590551181103
 20
1.509673228346457
 30
0.0
 10
0.3478897637795276
 20
1.505283464566929
 30
0.0
 10
0.3478897637795276
 20
1.505283464566929
 30
0.0
 10
0.345251968503937
 20
1.500893700787402
 30
0.0
 10
0.3414763779527559
 20
1.497283464566929
 30
0.0
 10
0.3366417322834646
 20
1.494448818897638
 30
0.0
 10
0.3366417322834646
 20
1.494448818897638
 30
0.0
 10
0.3317795275590552
 20
1.491645669291339
 30
0.0
 10
0.3261141732283465
 20
1.489838582677165
 30
0.0
 10
0.3196692913385827
 20
1.489031496062992
 30
0.0
 10
0.3196692913385827
 20
1.489031496062992
 30
0.0
 10
0.3131968503937008
 20
1.488255905511811
 30
0.0
 10
0.3065590551181103
 20
1.487866141732284
 30
0.0
 10
0.2997244094488189
 20
1.487866141732284
 30
0.0
 10
0.2997244094488189
 20
1.487866141732284
 30
0.0
 10
0.2997244094488189
 20
1.487866141732284
 30
0.0
 10
0.2428346456692914
 20
1.487866141732284
 30
0.0
 10
0.2428346456692914
 20
1.487866141732284
 30
0.0
 10
0.2428346456692914
 20
1.487866141732284
 30
0.0
 10
0.2428346456692914
 20
1.487866141732284
 30
0.0
 10
0.2428346456692914
 20
1.494700787401575
 30
0.0
 10
0.2428346456692914
 20
1.494700787401575
 30
0.0
 10
0.2428346456692914
 20
1.494700787401575
 30
0.0
 10
0.2428346456692914
 20
1.494700787401575
 30
0.0
 10
0.2466692913385827
 20
1.494700787401575
 30
0.0
 10
0.2466692913385827
 20
1.494700787401575
 30
0.0
 10
0.2466692913385827
 20
1.494700787401575
 30
0.0
 10
0.2503661417322835
 20
1.494700787401575
 30
0.0
 10
0.2528661417322835
 20
1.495283464566929
 30
0.0
 10
0.2542244094488189
 20
1.49642125984252
 30
0.0
 10
0.2542244094488189
 20
1.49642125984252
 30
0.0
 10
0.2561968503937008
 20
1.497976377952756
 30
0.0
 10
0.2571692913385827
 20
1.500586614173229
 30
0.0
 10
0.2571692913385827
 20
1.504228346456693
 30
0.0
 10
0.2571692913385827
 20
1.504228346456693
 30
0.0
 10
0.2571692913385827
 20
1.504228346456693
 30
0.0
 10
0.2571692913385827
 20
1.583086614173229
 30
0.0
 10
0.2571692913385827
 20
1.583086614173229
 30
0.0
 10
0.2571692913385827
 20
1.583086614173229
 30
0.0
 10
0.2571692913385827
 20
1.586783464566929
 30
0.0
 10
0.2568661417322835
 20
1.589283464566929
 30
0.0
 10
0.2562795275590551
 20
1.590641732283465
 30
0.0
 10
0.2562795275590551
 20
1.590641732283465
 30
0.0
 10
0.2556692913385827
 20
1.592003937007874
 30
0.0
 10
0.2547795275590551
 20
1.592976377952756
 30
0.0
 10
0.2535866141732284
 20
1.593586614173228
 30
0.0
 10
0.2535866141732284
 20
1.593586614173228
 30
0.0
 10
0.2523937007874016
 20
1.594169291338583
 30
0.0
 10
0.2500866141732284
 20
1.594476377952756
 30
0.0
 10
0.2466692913385827
 20
1.594476377952756
 30
0.0
 10
0.2466692913385827
 20
1.594476377952756
 30
0.0
 10
0.2466692913385827
 20
1.594476377952756
 30
0.0
 10
0.2428346456692914
 20
1.594476377952756
 30
0.0
 10
0.2428346456692914
 20
1.594476377952756
 30
0.0
 10
0.2428346456692914
 20
1.594476377952756
 30
0.0
 10
0.2428346456692914
 20
1.594476377952756
 30
0.0
 10
0.2428346456692914
 20
1.601393700787402
 30
0.0
 10
0.2428346456692914
 20
1.601393700787402
 30
0.0
  0
SPLINE
  5
64
330
1F
100
AcDbEntity
  8
LAYER_1
 62
   250
100
AcDbSpline
210
0.0
220
0.0
230
1.0
 70
    11
 71
     3
 72
    40
 73
    36
 74
     0
 42
0.0000000001
 43
0.0000000001
 40
0.0
 40
0.0
 40
0.0
 40
0.0
 40
0.1111111111111111
 40
0.1111111111111111
 40
0.1111111111111111
 40
0.1111111111111111
 40
0.2222222222222222
 40
0.2222222222222222
 40
0.2222222222222222
 40
0.2222222222222222
 40
0.3333333333333333
 40
0.3333333333333333
 40
0.3333333333333333
 40
0.3333333333333333
 40
0.4444444444444444
 40
0.4444444444444444
 40
0.4444444444444444
 40
0.4444444444444444
 40
0.5555555555555556
 40
0.5555555555555556
 40
0.5555555555555556
 40
0.5555555555555556
 40
0.6666666666666667
 40
0.6666666666666667
 40
0.6666666666666667
 40
0.6666666666666667
 40
0.7777777777777779
 40
0.7777777777777779
 40
0.7777777777777779
 40
0.7777777777777779
 40
0.8888888888888891
 40
0.8888888888888891
 40
0.8888888888888891
 40
0.8888888888888891
 40
1.0
 40
1.0
 40
1.0
 40
1.0
 10
0.2723937007874016
 20
1.592366141732284
 30
0.0
 10
0.2723937007874016
 20
1.592366141732284
 30
0.0
 10
0.2723937007874016
 20
1.550783464566929
 30
0.0
 10
0.2723937007874016
 20
1.550783464566929
 30
0.0
 10
0.2723937007874016
 20
1.550783464566929
 30
0.0
 10
0.2723937007874016
 20
1.550783464566929
 30
0.0
 10
0.2931417322834646
 20
1.550783464566929
 30
0.0
 10
0.2931417322834646
 20
1.550783464566929
 30
0.0
 10
0.2931417322834646
 20
1.550783464566929
 30
0.0
 10
0.3028346456692914
 20
1.550783464566929
 30
0.0
 10
0.309503937007874
 20
1.551228346456693
 30
0.0
 10
0.3130590551181103
 20
1.552141732283465
 30
0.0
 10
0.3130590551181103
 20
1.552141732283465
 30
0.0
 10
0.3186692913385827
 20
1.553614173228347
 30
0.0
 10
0.3229173228346457
 20
1.556114173228347
 30
0.0
 10
0.3258897637795276
 20
1.559641732283465
 30
0.0
 10
0.3258897637795276
 20
1.559641732283465
 30
0.0
 10
0.3288346456692913
 20
1.563169291338583
 30
0.0
 10
0.3303346456692913
 20
1.567700787401575
 30
0.0
 10
0.3303346456692913
 20
1.573228346456693
 30
0.0
 10
0.3303346456692913
 20
1.573228346456693
 30
0.0
 10
0.3303346456692913
 20
1.577893700787402
 30
0.0
 10
0.3289763779527559
 20
1.581783464566929
 30
0.0
 10
0.3263070866141732
 20
1.58492125984252
 30
0.0
 10
0.3263070866141732
 20
1.58492125984252
 30
0.0
 10
0.3236141732283465
 20
1.588031496062992
 30
0.0
 10
0.3200039370078741
 20
1.590169291338583
 30
0.0
 10
0.3155039370078741
 20
1.591311023622047
 30
0.0
 10
0.3155039370078741
 20
1.591311023622047
 30
0.0
 10
0.3125866141732284
 20
1.592003937007874
 30
0.0
 10
0.306503937007874
 20
1.592366141732284
 30
0.0
 10
0.2972795275590551
 20
1.592366141732284
 30
0.0
 10
0.2972795275590551
 20
1.592366141732284
 30
0.0
 10
0.2972795275590551
 20
1.592366141732284
 30
0.0
 10
0.2723937007874016
 20
1.592366141732284
 30
0.0
 10
0.2723937007874016
 20
1.592366141732284
 30
0.0
  0
SPLINE
  5
65
330
1F
100
AcDbEntity
  8
LAYER_1
 62
   250
100
AcDbSpline
210
0.0
220
0.0
230
1.0
 70
    11
 71
     3
 72
    52
 73
    48
 74
     0
 42
0.0000000001
 43
0.0000000001
 40
0.0
 40
0.0
 40
0.0
 40
0.0
 40
0.0833333333333333
 40
0.0833333333333333
 40
0.0833333333333333
 40
0.0833333333333333
 40
0.1666666666666667
 40
0.1666666666666667
 40
0.1666666666666667
 40
0.1666666666666667
 40
0.25
 40
0.25
 40
0.25
 40
0.25
 40
0.3333333333333333
 40
0.3333333333333333
 40
0.3333333333333333
 40
0.3333333333333333
 40
0.4166666666666666
 40
0.4166666666666666
 40
0.4166666666666666
 40
0.4166666666666666
 40
0.4999999999999999
 40
0.4999999999999999
 40
0.4999999999999999
 40
0.4999999999999999
 40
0.5833333333333333
 40
0.5833333333333333
 40
0.5833333333333333
 40
0.5833333333333333
 40
0.6666666666666666
 40
0.6666666666666666
 40
0.6666666666666666
 40
0.6666666666666666
 40
0.75
 40
0.75
 40
0.75
 40
0.75
 40
0.8333333333333334
 40
0.8333333333333334
 40
0.8333333333333334
 40
0.8333333333333334
 40
0.9166666666666667
 40
0.9166666666666667
 40
0.9166666666666667
 40
0.9166666666666667
 40
1.0
 40
1.0
 40
1.0
 40
1.0
 10
0.2723937007874016
 20
1.542948818897638
 30
0.0
 10
0.2723937007874016
 20
1.542948818897638
 30
0.0
 10
0.2723937007874016
 20
1.505700787401575
 30
0.0
 10
0.2723937007874016
 20
1.505700787401575
 30
0.0
 10
0.2723937007874016
 20
1.505700787401575
 30
0.0
 10
0.2723937007874016
 20
1.501948818897638
 30
0.0
 10
0.2725590551181102
 20
1.499728346456693
 30
0.0
 10
0.2728622047244095
 20
1.499003937007874
 30
0.0
 10
0.2728622047244095
 20
1.499003937007874
 30
0.0
 10
0.2733070866141732
 20
1.498031496062992
 30
0.0
 10
0.2741692913385827
 20
1.497366141732283
 30
0.0
 10
0.2754763779527559
 20
1.496976377952756
 30
0.0
 10
0.2754763779527559
 20
1.496976377952756
 30
0.0
 10
0.2763937007874016
 20
1.496700787401575
 30
0.0
 10
0.279003937007874
 20
1.49655905511811
 30
0.0
 10
0.2832795275590551
 20
1.49655905511811
 30
0.0
 10
0.2832795275590551
 20
1.49655905511811
 30
0.0
 10
0.2832795275590551
 20
1.49655905511811
 30
0.0
 10
0.2943622047244094
 20
1.49655905511811
 30
0.0
 10
0.2943622047244094
 20
1.49655905511811
 30
0.0
 10
0.2943622047244094
 20
1.49655905511811
 30
0.0
 10
0.3053070866141732
 20
1.49655905511811
 30
0.0
 10
0.3131417322834646
 20
1.497173228346457
 30
0.0
 10
0.3178346456692914
 20
1.498393700787402
 30
0.0
 10
0.3178346456692914
 20
1.498393700787402
 30
0.0
 10
0.3225314960629921
 20
1.499614173228347
 30
0.0
 10
0.3265314960629921
 20
1.502200787401575
 30
0.0
 10
0.3298346456692913
 20
1.506145669291339
 30
0.0
 10
0.3298346456692913
 20
1.506145669291339
 30
0.0
 10
0.3331417322834646
 20
1.51005905511811
 30
0.0
 10
0.3348070866141732
 20
1.514811023622047
 30
0.0
 10
0.3348070866141732
 20
1.520338582677165
 30
0.0
 10
0.3348070866141732
 20
1.520338582677165
 30
0.0
 10
0.3348070866141732
 20
1.525003937007874
 30
0.0
 10
0.3334488188976378
 20
1.529141732283465
 30
0.0
 10
0.3307795275590552
 20
1.532755905511811
 30
0.0
 10
0.3307795275590552
 20
1.532755905511811
 30
0.0
 10
0.3280866141732284
 20
1.536366141732284
 30
0.0
 10
0.3243622047244095
 20
1.538948818897638
 30
0.0
 10
0.3196141732283465
 20
1.54055905511811
 30
0.0
 10
0.3196141732283465
 20
1.54055905511811
 30
0.0
 10
0.3148622047244095
 20
1.542173228346457
 30
0.0
 10
0.3064488188976378
 20
1.542948818897638
 30
0.0
 10
0.2943622047244094
 20
1.542948818897638
 30
0.0
 10
0.2943622047244094
 20
1.542948818897638
 30
0.0
 10
0.2943622047244094
 20
1.542948818897638
 30
0.0
 10
0.2723937007874016
 20
1.542948818897638
 30
0.0
 10
0.2723937007874016
 20
1.542948818897638
 30
0.0
  0
SPLINE
  5
66
330
1F
100
AcDbEntity
  8
LAYER_1
 62
   250
100
AcDbSpline
210
0.0
220
0.0
230
1.0
 70
    11
 71
     3
 72
   112
 73
   108
 74
     0
 42
0.0000000001
 43
0.0000000001
 40
0.0
 40
0.0
 40
0.0
 40
0.0
 40
0.037037037037037
 40
0.037037037037037
 40
0.037037037037037
 40
0.037037037037037
 40
0.0740740740740741
 40
0.0740740740740741
 40
0.0740740740740741
 40
0.0740740740740741
 40
0.1111111111111111
 40
0.1111111111111111
 40
0.1111111111111111
 40
0.1111111111111111
 40
0.1481481481481481
 40
0.1481481481481481
 40
0.1481481481481481
 40
0.1481481481481481
 40
0.1851851851851852
 40
0.1851851851851852
 40
0.1851851851851852
 40
0.1851851851851852
 40
0.2222222222222222
 40
0.2222222222222222
 40
0.2222222222222222
 40
0.2222222222222222
 40
0.2592592592592592
 40
0.2592592592592592
 40
0.2592592592592592
 40
0.2592592592592592
 40
0.2962962962962963
 40
0.2962962962962963
 40
0.2962962962962963
 40
0.2962962962962963
 40
0.3333333333333333
 40
0.3333333333333333
 40
0.3333333333333333
 40
0.3333333333333333
 40
0.3703703703703704
 40
0.3703703703703704
 40
0.3703703703703704
 40
0.3703703703703704
 40
0.4074074074074074
 40
0.4074074074074074
 40
0.4074074074074074
 40
0.4074074074074074
 40
0.4444444444444444
 40
0.4444444444444444
 40
0.4444444444444444
 40
0.4444444444444444
 40
0.4814814814814815
 40
0.4814814814814815
 40
0.4814814814814815
 40
0.4814814814814815
 40
0.5185185185185185
 40
0.5185185185185185
 40
0.5185185185185185
 40
0.5185185185185185
 40
0.5555555555555556
 40
0.5555555555555556
 40
0.5555555555555556
 40
0.5555555555555556
 40
0.5925925925925926
 40
0.5925925925925926
 40
0.5925925925925926
 40
0.5925925925925926
 40
0.6296296296296295
 40
0.6296296296296295
 40
0.6296296296296295
 40
0.6296296296296295
 40
0.6666666666666665
 40
0.6666666666666665
 40
0.6666666666666665
 40
0.6666666666666665
 40
0.7037037037037035
 40
0.7037037037037035
 40
0.7037037037037035
 40
0.7037037037037035
 40
0.7407407407407405
 40
0.7407407407407405
 40
0.7407407407407405
 40
0.7407407407407405
 40
0.7777777777777775
 40
0.7777777777777775
 40
0.7777777777777775
 40
0.7777777777777775
 40
0.8148148148148144
 40
0.8148148148148144
 40
0.8148148148148144
 40
0.8148148148148144
 40
0.8518518518518514
 40
0.8518518518518514
 40
0.8518518518518514
 40
0.8518518518518514
 40
0.8888888888888884
 40
0.8888888888888884
 40
0.8888888888888884
 40
0.8888888888888884
 40
0.9259259259259254
 40
0.9259259259259254
 40
0.9259259259259254
 40
0.9259259259259254
 40
0.9629629629629624
 40
0.9629629629629624
 40
0.9629629629629624
 40
0.9629629629629624
 40
1.0
 40
1.0
 40
1.0
 40
1.0
 10
0.4095
 20
1.601393700787402
 30
0.0
 10
0.4095
 20
1.601393700787402
 30
0.0
 10
0.4229173228346457
 20
1.601393700787402
 30
0.0
 10
0.4229173228346457
 20
1.601393700787402
 30
0.0
 10
0.4229173228346457
 20
1.601393700787402
 30
0.0
 10
0.4229173228346457
 20
1.601393700787402
 30
0.0
 10
0.4581653543307087
 20
1.506503937007874
 30
0.0
 10
0.4581653543307087
 20
1.506503937007874
 30
0.0
 10
0.4581653543307087
 20
1.506503937007874
 30
0.0
 10
0.4598897637795276
 20
1.501728346456693
 30
0.0
 10
0.4616377952755906
 20
1.49855905511811
 30
0.0
 10
0.4634173228346457
 20
1.497031496062992
 30
0.0
 10
0.4634173228346457
 20
1.497031496062992
 30
0.0
 10
0.4651653543307087
 20
1.495476377952756
 30
0.0
 10
0.4675551181102363
 20
1.494700787401575
 30
0.0
 10
0.4705275590551181
 20
1.494700787401575
 30
0.0
 10
0.4705275590551181
 20
1.494700787401575
 30
0.0
 10
0.4705275590551181
 20
1.494700787401575
 30
0.0
 10
0.4723070866141733
 20
1.494700787401575
 30
0.0
 10
0.4723070866141733
 20
1.494700787401575
 30
0.0
 10
0.4723070866141733
 20
1.494700787401575
 30
0.0
 10
0.4723070866141733
 20
1.494700787401575
 30
0.0
 10
0.4723070866141733
 20
1.487866141732284
 30
0.0
 10
0.4723070866141733
 20
1.487866141732284
 30
0.0
 10
0.4723070866141733
 20
1.487866141732284
 30
0.0
 10
0.4723070866141733
 20
1.487866141732284
 30
0.0
 10
0.4318622047244095
 20
1.487866141732284
 30
0.0
 10
0.4318622047244095
 20
1.487866141732284
 30
0.0
 10
0.4318622047244095
 20
1.487866141732284
 30
0.0
 10
0.4318622047244095
 20
1.487866141732284
 30
0.0
 10
0.4318622047244095
 20
1.494700787401575
 30
0.0
 10
0.4318622047244095
 20
1.494700787401575
 30
0.0
 10
0.4318622047244095
 20
1.494700787401575
 30
0.0
 10
0.4331653543307087
 20
1.494811023622047
 30
0.0
 10
0.4344448818897638
 20
1.494866141732284
 30
0.0
 10
0.4356968503937008
 20
1.494866141732284
 30
0.0
 10
0.4356968503937008
 20
1.494866141732284
 30
0.0
 10
0.4383070866141732
 20
1.494866141732284
 30
0.0
 10
0.44
 20
1.495145669291339
 30
0.0
 10
0.4408346456692914
 20
1.495673228346457
 30
0.0
 10
0.4408346456692914
 20
1.495673228346457
 30
0.0
 10
0.4423897637795276
 20
1.496700787401575
 30
0.0
 10
0.4431929133858268
 20
1.498003937007874
 30
0.0
 10
0.4431929133858268
 20
1.499586614173228
 30
0.0
 10
0.4431929133858268
 20
1.499586614173228
 30
0.0
 10
0.4431929133858268
 20
1.500728346456693
 30
0.0
 10
0.4424173228346457
 20
1.503503937007874
 30
0.0
 10
0.4409173228346457
 20
1.507976377952756
 30
0.0
 10
0.4409173228346457
 20
1.507976377952756
 30
0.0
 10
0.4409173228346457
 20
1.507976377952756
 30
0.0
 10
0.4334173228346457
 20
1.529948818897638
 30
0.0
 10
0.4334173228346457
 20
1.529948818897638
 30
0.0
 10
0.4334173228346457
 20
1.529948818897638
 30
0.0
 10
0.4334173228346457
 20
1.529948818897638
 30
0.0
 10
0.392251968503937
 20
1.529948818897638
 30
0.0
 10
0.392251968503937
 20
1.529948818897638
 30
0.0
 10
0.392251968503937
 20
1.529948818897638
 30
0.0
 10
0.392251968503937
 20
1.529948818897638
 30
0.0
 10
0.3834448818897638
 20
1.505366141732283
 30
0.0
 10
0.3834448818897638
 20
1.505366141732283
 30
0.0
 10
0.3834448818897638
 20
1.505366141732283
 30
0.0
 10
0.3825275590551182
 20
1.502811023622047
 30
0.0
 10
0.3820551181102362
 20
1.50105905511811
 30
0.0
 10
0.3820551181102362
 20
1.50005905511811
 30
0.0
 10
0.3820551181102362
 20
1.50005905511811
 30
0.0
 10
0.3820551181102362
 20
1.498976377952756
 30
0.0
 10
0.3823622047244095
 20
1.498031496062992
 30
0.0
 10
0.3829173228346457
 20
1.497228346456693
 30
0.0
 10
0.3829173228346457
 20
1.497228346456693
 30
0.0
 10
0.3835
 20
1.49642125984252
 30
0.0
 10
0.384251968503937
 20
1.495811023622047
 30
0.0
 10
0.385251968503937
 20
1.495393700787402
 30
0.0
 10
0.385251968503937
 20
1.495393700787402
 30
0.0
 10
0.3862244094488189
 20
1.494976377952756
 30
0.0
 10
0.3877795275590552
 20
1.494783464566929
 30
0.0
 10
0.3899724409448819
 20
1.494783464566929
 30
0.0
 10
0.3899724409448819
 20
1.494783464566929
 30
0.0
 10
0.3914173228346457
 20
1.494783464566929
 30
0.0
 10
0.3926102362204725
 20
1.494755905511811
 30
0.0
 10
0.3935275590551181
 20
1.494700787401575
 30
0.0
 10
0.3935275590551181
 20
1.494700787401575
 30
0.0
 10
0.3935275590551181
 20
1.494700787401575
 30
0.0
 10
0.3935275590551181
 20
1.487866141732284
 30
0.0
 10
0.3935275590551181
 20
1.487866141732284
 30
0.0
 10
0.3935275590551181
 20
1.487866141732284
 30
0.0
 10
0.3935275590551181
 20
1.487866141732284
 30
0.0
 10
0.3596102362204725
 20
1.487866141732284
 30
0.0
 10
0.3596102362204725
 20
1.487866141732284
 30
0.0
 10
0.3596102362204725
 20
1.487866141732284
 30
0.0
 10
0.3596102362204725
 20
1.487866141732284
 30
0.0
 10
0.3596102362204725
 20
1.494700787401575
 30
0.0
 10
0.3596102362204725
 20
1.494700787401575
 30
0.0
 10
0.3596102362204725
 20
1.494700787401575
 30
0.0
 10
0.362751968503937
 20
1.494700787401575
 30
0.0
 10
0.3650275590551181
 20
1.495003937007874
 30
0.0
 10
0.3663897637795276
 20
1.495645669291339
 30
0.0
 10
0.3663897637795276
 20
1.495645669291339
 30
0.0
 10
0.3677795275590551
 20
1.496255905511811
 30
0.0
 10
0.369
 20
1.497255905511811
 30
0.0
 10
0.3700275590551181
 20
1.498645669291339
 30
0.0
 10
0.3700275590551181
 20
1.498645669291339
 30
0.0
 10
0.3710551181102362
 20
1.500031496062992
 30
0.0
 10
0.3724173228346457
 20
1.502948818897638
 30
0.0
 10
0.3740826771653544
 20
1.507393700787402
 30
0.0
 10
0.3740826771653544
 20
1.507393700787402
 30
0.0
 10
0.3740826771653544
 20
1.507393700787402
 30
0.0
 10
0.4095
 20
1.601393700787402
 30
0.0
 10
0.4095
 20
1.601393700787402
 30
0.0
  0
SPLINE
  5
67
330
1F
100
AcDbEntity
  8
LAYER_1
 62
   250
100
AcDbSpline
210
0.0
220
0.0
230
1.0
 70
    11
 71
     3
 72
    16
 73
    12
 74
     0
 42
0.0000000001
 43
0.0000000001
 40
0.0
 40
0.0
 40
0.0
 40
0.0
 40
0.3333333333333333
 40
0.3333333333333333
 40
0.3333333333333333
 40
0.3333333333333333
 40
0.6666666666666666
 40
0.6666666666666666
 40
0.6666666666666666
 40
0.6666666666666666
 40
1.0
 40
1.0
 40
1.0
 40
1.0
 10
0.395251968503937
 20
1.53792125984252
 30
0.0
 10
0.395251968503937
 20
1.53792125984252
 30
0.0
 10
0.4303346456692914
 20
1.53792125984252
 30
0.0
 10
0.4303346456692914
 20
1.53792125984252
 30
0.0
 10
0.4303346456692914
 20
1.53792125984252
 30
0.0
 10
0.4303346456692914
 20
1.53792125984252
 30
0.0
 10
0.412751968503937
 20
1.586755905511811
 30
0.0
 10
0.412751968503937
 20
1.586755905511811
 30
0.0
 10
0.412751968503937
 20
1.586755905511811
 30
0.0
 10
0.412751968503937
 20
1.586755905511811
 30
0.0
 10
0.395251968503937
 20
1.53792125984252
 30
0.0
 10
0.395251968503937
 20
1.53792125984252
 30
0.0
  0
SPLINE
  5
68
330
1F
100
AcDbEntity
  8
LAYER_1
 62
   250
100
AcDbSpline
210
0.0
220
0.0
230
1.0
 70
    11
 71
     3
 72
    72
 73
    68
 74
     0
 42
0.0000000001
 43
0.0000000001
 40
0.0
 40
0.0
 40
0.0
 40
0.0
 40
0.0588235294117647
 40
0.0588235294117647
 40
0.0588235294117647
 40
0.0588235294117647
 40
0.1176470588235294
 40
0.1176470588235294
 40
0.1176470588235294
 40
0.1176470588235294
 40
0.1764705882352941
 40
0.1764705882352941
 40
0.1764705882352941
 40
0.1764705882352941
 40
0.2352941176470588
 40
0.2352941176470588
 40
0.2352941176470588
 40
0.2352941176470588
 40
0.2941176470588235
 40
0.2941176470588235
 40
0.2941176470588235
 40
0.2941176470588235
 40
0.3529411764705883
 40
0.3529411764705883
 40
0.3529411764705883
 40
0.3529411764705883
 40
0.411764705882353
 40
0.411764705882353
 40
0.411764705882353
 40
0.411764705882353
 40
0.4705882352941177
 40
0.4705882352941177
 40
0.4705882352941177
 40
0.4705882352941177
 40
0.5294117647058824
 40
0.5294117647058824
 40
0.5294117647058824
 40
0.5294117647058824
 40
0.5882352941176471
 40
0.5882352941176471
 40
0.5882352941176471
 40
0.5882352941176471
 40
0.6470588235294118
 40
0.6470588235294118
 40
0.6470588235294118
 40
0.6470588235294118
 40
0.7058823529411765
 40
0.7058823529411765
 40
0.7058823529411765
 40
0.7058823529411765
 40
0.7647058823529412
 40
0.7647058823529412
 40
0.7647058823529412
 40
0.7647058823529412
 40
0.823529411764706
 40
0.823529411764706
 40
0.823529411764706
 40
0.823529411764706
 40
0.8823529411764707
 40
0.8823529411764707
 40
0.8823529411764707
 40
0.8823529411764707
 40
0.9411764705882354
 40
0.9411764705882354
 40
0.9411764705882354
 40
0.9411764705882354
 40
1.0
 40
1.0
 40
1.0
 40
1.0
 10
0.6353346456692913
 20
1.601393700787402
 30
0.0
 10
0.6353346456692913
 20
1.601393700787402
 30
0.0
 10
0.6414173228346457
 20
1.601393700787402
 30
0.0
 10
0.6414173228346457
 20
1.601393700787402
 30
0.0
 10
0.6414173228346457
 20
1.601393700787402
 30
0.0
 10
0.6414173228346457
 20
1.601393700787402
 30
0.0
 10
0.6414173228346457
 20
1.507145669291339
 30
0.0
 10
0.6414173228346457
 20
1.507145669291339
 30
0.0
 10
0.6414173228346457
 20
1.507145669291339
 30
0.0
 10
0.6414173228346457
 20
1.502700787401575
 30
0.0
 10
0.6417244094488189
 20
1.499838582677165
 30
0.0
 10
0.6422795275590552
 20
1.49855905511811
 30
0.0
 10
0.6422795275590552
 20
1.49855905511811
 30
0.0
 10
0.6428622047244095
 20
1.497283464566929
 30
0.0
 10
0.6437795275590551
 20
1.496338582677165
 30
0.0
 10
0.6450826771653544
 20
1.495673228346457
 30
0.0
 10
0.6450826771653544
 20
1.495673228346457
 30
0.0
 10
0.6463897637795276
 20
1.495031496062992
 30
0.0
 10
0.6489724409448819
 20
1.494700787401575
 30
0.0
 10
0.6528346456692914
 20
1.494700787401575
 30
0.0
 10
0.6528346456692914
 20
1.494700787401575
 30
0.0
 10
0.6528346456692914
 20
1.494700787401575
 30
0.0
 10
0.6608070866141732
 20
1.494700787401575
 30
0.0
 10
0.6608070866141732
 20
1.494700787401575
 30
0.0
 10
0.6608070866141732
 20
1.494700787401575
 30
0.0
 10
0.6608070866141732
 20
1.494700787401575
 30
0.0
 10
0.6608070866141732
 20
1.487866141732284
 30
0.0
 10
0.6608070866141732
 20
1.487866141732284
 30
0.0
 10
0.6608070866141732
 20
1.487866141732284
 30
0.0
 10
0.6608070866141732
 20
1.487866141732284
 30
0.0
 10
0.6071692913385827
 20
1.487866141732284
 30
0.0
 10
0.6071692913385827
 20
1.487866141732284
 30
0.0
 10
0.6071692913385827
 20
1.487866141732284
 30
0.0
 10
0.6071692913385827
 20
1.487866141732284
 30
0.0
 10
0.6071692913385827
 20
1.494700787401575
 30
0.0
 10
0.6071692913385827
 20
1.494700787401575
 30
0.0
 10
0.6071692913385827
 20
1.494700787401575
 30
0.0
 10
0.6071692913385827
 20
1.494700787401575
 30
0.0
 10
0.6160275590551181
 20
1.494700787401575
 30
0.0
 10
0.6160275590551181
 20
1.494700787401575
 30
0.0
 10
0.6160275590551181
 20
1.494700787401575
 30
0.0
 10
0.6198897637795275
 20
1.494700787401575
 30
0.0
 10
0.6224448818897638
 20
1.495031496062992
 30
0.0
 10
0.6237244094488189
 20
1.495728346456693
 30
0.0
 10
0.6237244094488189
 20
1.495728346456693
 30
0.0
 10
0.625
 20
1.496393700787402
 30
0.0
 10
0.626
 20
1.497476377952756
 30
0.0
 10
0.6266968503937008
 20
1.498976377952756
 30
0.0
 10
0.6266968503937008
 20
1.498976377952756
 30
0.0
 10
0.6273897637795276
 20
1.500476377952756
 30
0.0
 10
0.627751968503937
 20
1.503200787401575
 30
0.0
 10
0.627751968503937
 20
1.507145669291339
 30
0.0
 10
0.627751968503937
 20
1.507145669291339
 30
0.0
 10
0.627751968503937
 20
1.507145669291339
 30
0.0
 10
0.627751968503937
 20
1.584614173228347
 30
0.0
 10
0.627751968503937
 20
1.584614173228347
 30
0.0
 10
0.627751968503937
 20
1.584614173228347
 30
0.0
 10
0.627751968503937
 20
1.584614173228347
 30
0.0
 10
0.6071692913385827
 20
1.584614173228347
 30
0.0
 10
0.6071692913385827
 20
1.584614173228347
 30
0.0
 10
0.6071692913385827
 20
1.584614173228347
 30
0.0
 10
0.6071692913385827
 20
1.584614173228347
 30
0.0
 10
0.6071692913385827
 20
1.591614173228346
 30
0.0
 10
0.6071692913385827
 20
1.591614173228346
 30
0.0
 10
0.6071692913385827
 20
1.591614173228346
 30
0.0
 10
0.6183897637795276
 20
1.593196850393701
 30
0.0
 10
0.6277795275590552
 20
1.596448818897638
 30
0.0
 10
0.6353346456692913
 20
1.601393700787402
 30
0.0
  0
SPLINE
  5
69
330
1F
100
AcDbEntity
  8
LAYER_1
 62
   250
100
AcDbSpline
210
0.0
220
0.0
230
1.0
 70
    11
 71
     3
 72
    76
 73
    72
 74
     0
 42
0.0000000001
 43
0.0000000001
 40
0.0
 40
0.0
 40
0.0
 40
0.0
 40
0.0555555555555556
 40
0.0555555555555556
 40
0.0555555555555556
 40
0.0555555555555556
 40
0.1111111111111111
 40
0.1111111111111111
 40
0.1111111111111111
 40
0.1111111111111111
 40
0.1666666666666667
 40
0.1666666666666667
 40
0.1666666666666667
 40
0.1666666666666667
 40
0.2222222222222222
 40
0.2222222222222222
 40
0.2222222222222222
 40
0.2222222222222222
 40
0.2777777777777778
 40
0.2777777777777778
 40
0.2777777777777778
 40
0.2777777777777778
 40
0.3333333333333334
 40
0.3333333333333334
 40
0.3333333333333334
 40
0.3333333333333334
 40
0.388888888888889
 40
0.388888888888889
 40
0.388888888888889
 40
0.388888888888889
 40
0.4444444444444445
 40
0.4444444444444445
 40
0.4444444444444445
 40
0.4444444444444445
 40
0.5000000000000001
 40
0.5000000000000001
 40
0.5000000000000001
 40
0.5000000000000001
 40
0.5555555555555557
 40
0.5555555555555557
 40
0.5555555555555557
 40
0.5555555555555557
 40
0.6111111111111113
 40
0.6111111111111113
 40
0.6111111111111113
 40
0.6111111111111113
 40
0.6666666666666669
 40
0.6666666666666669
 40
0.6666666666666669
 40
0.6666666666666669
 40
0.7222222222222224
 40
0.7222222222222224
 40
0.7222222222222224
 40
0.7222222222222224
 40
0.777777777777778
 40
0.777777777777778
 40
0.777777777777778
 40
0.777777777777778
 40
0.8333333333333336
 40
0.8333333333333336
 40
0.8333333333333336
 40
0.8333333333333336
 40
0.8888888888888892
 40
0.8888888888888892
 40
0.8888888888888892
 40
0.8888888888888892
 40
0.9444444444444448
 40
0.9444444444444448
 40
0.9444444444444448
 40
0.9444444444444448
 40
1.0
 40
1.0
 40
1.0
 40
1.0
 10
0.7471417322834646
 20
1.550866141732284
 30
0.0
 10
0.7535590551181103
 20
1.54842125984252
 30
0.0
 10
0.7584448818897638
 20
1.546114173228347
 30
0.0
 10
0.7618070866141733
 20
1.543948818897638
 30
0.0
 10
0.7618070866141733
 20
1.543948818897638
 30
0.0
 10
0.7667244094488189
 20
1.540783464566929
 30
0.0
 10
0.7704448818897638
 20
1.537086614173228
 30
0.0
 10
0.7729448818897639
 20
1.532838582677165
 30
0.0
 10
0.7729448818897639
 20
1.532838582677165
 30
0.0
 10
0.7754448818897638
 20
1.52855905511811
 30
0.0
 10
0.7766968503937008
 20
1.523948818897638
 30
0.0
 10
0.7766968503937008
 20
1.518948818897638
 30
0.0
 10
0.7766968503937008
 20
1.518948818897638
 30
0.0
 10
0.7766968503937008
 20
1.510003937007874
 30
0.0
 10
0.7728346456692914
 20
1.502255905511811
 30
0.0
 10
0.7651417322834646
 20
1.495728346456693
 30
0.0
 10
0.7651417322834646
 20
1.495728346456693
 30
0.0
 10
0.7574173228346457
 20
1.489173228346457
 30
0.0
 10
0.7470314960629921
 20
1.48592125984252
 30
0.0
 10
0.7339724409448819
 20
1.48592125984252
 30
0.0
 10
0.7339724409448819
 20
1.48592125984252
 30
0.0
 10
0.7201417322834646
 20
1.48592125984252
 30
0.0
 10
0.7092795275590551
 20
1.489614173228347
 30
0.0
 10
0.7014173228346458
 20
1.496976377952756
 30
0.0
 10
0.7014173228346458
 20
1.496976377952756
 30
0.0
 10
0.6951692913385827
 20
1.502893700787402
 30
0.0
 10
0.6920590551181103
 20
1.509586614173228
 30
0.0
 10
0.6920590551181103
 20
1.517086614173228
 30
0.0
 10
0.6920590551181103
 20
1.517086614173228
 30
0.0
 10
0.6920590551181103
 20
1.523114173228346
 30
0.0
 10
0.6941692913385827
 20
1.528503937007874
 30
0.0
 10
0.6983897637795276
 20
1.533283464566929
 30
0.0
 10
0.6983897637795276
 20
1.533283464566929
 30
0.0
 10
0.7035039370078741
 20
1.538976377952756
 30
0.0
 10
0.7107795275590552
 20
1.54342125984252
 30
0.0
 10
0.7202244094488189
 20
1.546614173228347
 30
0.0
 10
0.7202244094488189
 20
1.546614173228347
 30
0.0
 10
0.7128346456692913
 20
1.550086614173228
 30
0.0
 10
0.7075314960629922
 20
1.553614173228347
 30
0.0
 10
0.704251968503937
 20
1.557200787401575
 30
0.0
 10
0.704251968503937
 20
1.557200787401575
 30
0.0
 10
0.7000866141732284
 20
1.56192125984252
 30
0.0
 10
0.698003937007874
 20
1.567586614173228
 30
0.0
 10
0.698003937007874
 20
1.574196850393701
 30
0.0
 10
0.698003937007874
 20
1.574196850393701
 30
0.0
 10
0.698003937007874
 20
1.582393700787402
 30
0.0
 10
0.7010866141732284
 20
1.589031496062992
 30
0.0
 10
0.7072795275590551
 20
1.59405905511811
 30
0.0
 10
0.7072795275590551
 20
1.59405905511811
 30
0.0
 10
0.7148622047244094
 20
1.600255905511811
 30
0.0
 10
0.7243622047244095
 20
1.603338582677165
 30
0.0
 10
0.735751968503937
 20
1.603338582677165
 30
0.0
 10
0.735751968503937
 20
1.603338582677165
 30
0.0
 10
0.7461692913385827
 20
1.603338582677165
 30
0.0
 10
0.7545866141732284
 20
1.600669291338583
 30
0.0
 10
0.7610314960629921
 20
1.595338582677165
 30
0.0
 10
0.7610314960629921
 20
1.595338582677165
 30
0.0
 10
0.7674448818897638
 20
1.589976377952756
 30
0.0
 10
0.7706692913385828
 20
1.583866141732284
 30
0.0
 10
0.7706692913385828
 20
1.576976377952756
 30
0.0
 10
0.7706692913385828
 20
1.576976377952756
 30
0.0
 10
0.7706692913385828
 20
1.57355905511811
 30
0.0
 10
0.7698622047244095
 20
1.570283464566929
 30
0.0
 10
0.7682795275590552
 20
1.567169291338583
 30
0.0
 10
0.7682795275590552
 20
1.567169291338583
 30
0.0
 10
0.7666692913385828
 20
1.56405905511811
 30
0.0
 10
0.764224409448819
 20
1.561141732283465
 30
0.0
 10
0.7608897637795276
 20
1.558476377952756
 30
0.0
 10
0.7608897637795276
 20
1.558476377952756
 30
0.0
 10
0.7575866141732284
 20
1.555783464566929
 30
0.0
 10
0.753
 20
1.553255905511811
 30
0.0
 10
0.7471417322834646
 20
1.550866141732284
 30
0.0
  0
SPLINE
  5
6A
330
1F
100
AcDbEntity
  8
LAYER_1
 62
   250
100
AcDbSpline
210
0.0
220
0.0
230
1.0
 70
    11
 71
     3
 72
    48
 73
    44
 74
     0
 42
0.0000000001
 43
0.0000000001
 40
0.0
 40
0.0
 40
0.0
 40
0.0
 40
0.0909090909090909
 40
0.0909090909090909
 40
0.0909090909090909
 40
0.0909090909090909
 40
0.1818181818181818
 40
0.1818181818181818
 40
0.1818181818181818
 40
0.1818181818181818
 40
0.2727272727272727
 40
0.2727272727272727
 40
0.2727272727272727
 40
0.2727272727272727
 40
0.3636363636363637
 40
0.3636363636363637
 40
0.3636363636363637
 40
0.3636363636363637
 40
0.4545454545454546
 40
0.4545454545454546
 40
0.4545454545454546
 40
0.4545454545454546
 40
0.5454545454545455
 40
0.5454545454545455
 40
0.5454545454545455
 40
0.5454545454545455
 40
0.6363636363636365
 40
0.6363636363636365
 40
0.6363636363636365
 40
0.6363636363636365
 40
0.7272727272727274
 40
0.7272727272727274
 40
0.7272727272727274
 40
0.7272727272727274
 40
0.8181818181818183
 40
0.8181818181818183
 40
0.8181818181818183
 40
0.8181818181818183
 40
0.9090909090909093
 40
0.9090909090909093
 40
0.9090909090909093
 40
0.9090909090909093
 40
1.0
 40
1.0
 40
1.0
 40
1.0
 10
0.739751968503937
 20
1.553866141732283
 30
0.0
 10
0.7459173228346457
 20
1.558531496062992
 30
0.0
 10
0.7499448818897638
 20
1.561783464566929
 30
0.0
 10
0.7517795275590552
 20
1.563641732283465
 30
0.0
 10
0.7517795275590552
 20
1.563641732283465
 30
0.0
 10
0.7536417322834647
 20
1.565476377952756
 30
0.0
 10
0.7550590551181102
 20
1.567586614173228
 30
0.0
 10
0.7560590551181102
 20
1.569948818897638
 30
0.0
 10
0.7560590551181102
 20
1.569948818897638
 30
0.0
 10
0.7570590551181102
 20
1.572311023622047
 30
0.0
 10
0.7575590551181103
 20
1.574586614173228
 30
0.0
 10
0.7575590551181103
 20
1.576811023622047
 30
0.0
 10
0.7575590551181103
 20
1.576811023622047
 30
0.0
 10
0.7575590551181103
 20
1.580003937007874
 30
0.0
 10
0.7566141732283465
 20
1.58305905511811
 30
0.0
 10
0.7547244094488189
 20
1.585976377952756
 30
0.0
 10
0.7547244094488189
 20
1.585976377952756
 30
0.0
 10
0.7528070866141733
 20
1.588866141732284
 30
0.0
 10
0.7500314960629921
 20
1.591228346456693
 30
0.0
 10
0.7463622047244095
 20
1.593003937007874
 30
0.0
 10
0.7463622047244095
 20
1.593003937007874
 30
0.0
 10
0.7427244094488189
 20
1.594811023622047
 30
0.0
 10
0.7386141732283464
 20
1.595696850393701
 30
0.0
 10
0.7340590551181103
 20
1.595696850393701
 30
0.0
 10
0.7340590551181103
 20
1.595696850393701
 30
0.0
 10
0.7273070866141732
 20
1.595696850393701
 30
0.0
 10
0.7217244094488189
 20
1.593838582677166
 30
0.0
 10
0.7172795275590551
 20
1.590114173228347
 30
0.0
 10
0.7172795275590551
 20
1.590114173228347
 30
0.0
 10
0.7128346456692913
 20
1.586393700787402
 30
0.0
 10
0.7106141732283465
 20
1.582114173228347
 30
0.0
 10
0.7106141732283465
 20
1.577228346456693
 30
0.0
 10
0.7106141732283465
 20
1.577228346456693
 30
0.0
 10
0.7106141732283465
 20
1.573311023622047
 30
0.0
 10
0.712003937007874
 20
1.569811023622047
 30
0.0
 10
0.7147519685039371
 20
1.566728346456693
 30
0.0
 10
0.7147519685039371
 20
1.566728346456693
 30
0.0
 10
0.7175314960629922
 20
1.563641732283465
 30
0.0
 10
0.7226692913385827
 20
1.560586614173228
 30
0.0
 10
0.730224409448819
 20
1.557614173228347
 30
0.0
 10
0.730224409448819
 20
1.557614173228347
 30
0.0
 10
0.730224409448819
 20
1.557614173228347
 30
0.0
 10
0.739751968503937
 20
1.553866141732283
 30
0.0
 10
0.739751968503937
 20
1.553866141732283
 30
0.0
  0
SPLINE
  5
6B
330
1F
100
AcDbEntity
  8
LAYER_1
 62
   250
100
AcDbSpline
210
0.0
220
0.0
230
1.0
 70
    11
 71
     3
 72
    40
 73
    36
 74
     0
 42
0.0000000001
 43
0.0000000001
 40
0.0
 40
0.0
 40
0.0
 40
0.0
 40
0.1111111111111111
 40
0.1111111111111111
 40
0.1111111111111111
 40
0.1111111111111111
 40
0.2222222222222222
 40
0.2222222222222222
 40
0.2222222222222222
 40
0.2222222222222222
 40
0.3333333333333333
 40
0.3333333333333333
 40
0.3333333333333333
 40
0.3333333333333333
 40
0.4444444444444444
 40
0.4444444444444444
 40
0.4444444444444444
 40
0.4444444444444444
 40
0.5555555555555556
 40
0.5555555555555556
 40
0.5555555555555556
 40
0.5555555555555556
 40
0.6666666666666667
 40
0.6666666666666667
 40
0.6666666666666667
 40
0.6666666666666667
 40
0.7777777777777779
 40
0.7777777777777779
 40
0.7777777777777779
 40
0.7777777777777779
 40
0.8888888888888891
 40
0.8888888888888891
 40
0.8888888888888891
 40
0.8888888888888891
 40
1.0
 40
1.0
 40
1.0
 40
1.0
 10
0.7282795275590551
 20
1.543448818897638
 30
0.0
 10
0.7206141732283465
 20
1.540086614173228
 30
0.0
 10
0.7145590551181102
 20
1.535728346456693
 30
0.0
 10
0.7101141732283465
 20
1.530338582677165
 30
0.0
 10
0.7101141732283465
 20
1.530338582677165
 30
0.0
 10
0.7066417322834646
 20
1.526114173228347
 30
0.0
 10
0.7049173228346457
 20
1.521728346456693
 30
0.0
 10
0.7049173228346457
 20
1.517173228346457
 30
0.0
 10
0.7049173228346457
 20
1.517173228346457
 30
0.0
 10
0.7049173228346457
 20
1.510976377952756
 30
0.0
 10
0.7076417322834646
 20
1.505476377952756
 30
0.0
 10
0.7131417322834646
 20
1.500673228346457
 30
0.0
 10
0.7131417322834646
 20
1.500673228346457
 30
0.0
 10
0.7186141732283465
 20
1.495893700787402
 30
0.0
 10
0.7256968503937008
 20
1.493476377952756
 30
0.0
 10
0.7343622047244095
 20
1.493476377952756
 30
0.0
 10
0.7343622047244095
 20
1.493476377952756
 30
0.0
 10
0.743224409448819
 20
1.493476377952756
 30
0.0
 10
0.7505866141732284
 20
1.496228346456693
 30
0.0
 10
0.7565000000000001
 20
1.501700787401575
 30
0.0
 10
0.7565000000000001
 20
1.501700787401575
 30
0.0
 10
0.7613346456692913
 20
1.506145669291339
 30
0.0
 10
0.763751968503937
 20
1.51092125984252
 30
0.0
 10
0.763751968503937
 20
1.516031496062992
 30
0.0
 10
0.763751968503937
 20
1.516031496062992
 30
0.0
 10
0.763751968503937
 20
1.520031496062992
 30
0.0
 10
0.7621692913385827
 20
1.523866141732284
 30
0.0
 10
0.759
 20
1.527531496062992
 30
0.0
 10
0.759
 20
1.527531496062992
 30
0.0
 10
0.7558070866141733
 20
1.531200787401575
 30
0.0
 10
0.7499173228346457
 20
1.534755905511811
 30
0.0
 10
0.7412795275590551
 20
1.538228346456693
 30
0.0
 10
0.7412795275590551
 20
1.538228346456693
 30
0.0
 10
0.7412795275590551
 20
1.538228346456693
 30
0.0
 10
0.7282795275590551
 20
1.543448818897638
 30
0.0
 10
0.7282795275590551
 20
1.543448818897638
 30
0.0
  0
SPLINE
  5
6C
330
1F
100
AcDbEntity
  8
LAYER_1
 62
   250
100
AcDbSpline
210
0.0
220
0.0
230
1.0
 70
    11
 71
     3
 72
   136
 73
   132
 74
     0
 42
0.0000000001
 43
0.0000000001
 40
0.0
 40
0.0
 40
0.0
 40
0.0
 40
0.0303030303030303
 40
0.0303030303030303
 40
0.0303030303030303
 40
0.0303030303030303
 40
0.0606060606060606
 40
0.0606060606060606
 40
0.0606060606060606
 40
0.0606060606060606
 40
0.0909090909090909
 40
0.0909090909090909
 40
0.0909090909090909
 40
0.0909090909090909
 40
0.1212121212121212
 40
0.1212121212121212
 40
0.1212121212121212
 40
0.1212121212121212
 40
0.1515151515151515
 40
0.1515151515151515
 40
0.1515151515151515
 40
0.1515151515151515
 40
0.1818181818181818
 40
0.1818181818181818
 40
0.1818181818181818
 40
0.1818181818181818
 40
0.2121212121212121
 40
0.2121212121212121
 40
0.2121212121212121
 40
0.2121212121212121
 40
0.2424242424242424
 40
0.2424242424242424
 40
0.2424242424242424
 40
0.2424242424242424
 40
0.2727272727272727
 40
0.2727272727272727
 40
0.2727272727272727
 40
0.2727272727272727
 40
0.303030303030303
 40
0.303030303030303
 40
0.303030303030303
 40
0.303030303030303
 40
0.3333333333333333
 40
0.3333333333333333
 40
0.3333333333333333
 40
0.3333333333333333
 40
0.3636363636363635
 40
0.3636363636363635
 40
0.3636363636363635
 40
0.3636363636363635
 40
0.3939393939393938
 40
0.3939393939393938
 40
0.3939393939393938
 40
0.3939393939393938
 40
0.4242424242424241
 40
0.4242424242424241
 40
0.4242424242424241
 40
0.4242424242424241
 40
0.4545454545454544
 40
0.4545454545454544
 40
0.4545454545454544
 40
0.4545454545454544
 40
0.4848484848484846
 40
0.4848484848484846
 40
0.4848484848484846
 40
0.4848484848484846
 40
0.5151515151515149
 40
0.5151515151515149
 40
0.5151515151515149
 40
0.5151515151515149
 40
0.5454545454545452
 40
0.5454545454545452
 40
0.5454545454545452
 40
0.5454545454545452
 40
0.5757575757575755
 40
0.5757575757575755
 40
0.5757575757575755
 40
0.5757575757575755
 40
0.6060606060606057
 40
0.6060606060606057
 40
0.6060606060606057
 40
0.6060606060606057
 40
0.636363636363636
 40
0.636363636363636
 40
0.636363636363636
 40
0.636363636363636
 40
0.6666666666666663
 40
0.6666666666666663
 40
0.6666666666666663
 40
0.6666666666666663
 40
0.6969696969696966
 40
0.6969696969696966
 40
0.6969696969696966
 40
0.6969696969696966
 40
0.7272727272727269
 40
0.7272727272727269
 40
0.7272727272727269
 40
0.7272727272727269
 40
0.7575757575757571
 40
0.7575757575757571
 40
0.7575757575757571
 40
0.7575757575757571
 40
0.7878787878787874
 40
0.7878787878787874
 40
0.7878787878787874
 40
0.7878787878787874
 40
0.8181818181818177
 40
0.8181818181818177
 40
0.8181818181818177
 40
0.8181818181818177
 40
0.848484848484848
 40
0.848484848484848
 40
0.848484848484848
 40
0.848484848484848
 40
0.8787878787878782
 40
0.8787878787878782
 40
0.8787878787878782
 40
0.8787878787878782
 40
0.9090909090909085
 40
0.9090909090909085
 40
0.9090909090909085
 40
0.9090909090909085
 40
0.9393939393939388
 40
0.9393939393939388
 40
0.9393939393939388
 40
0.9393939393939388
 40
0.9696969696969691
 40
0.9696969696969691
 40
0.9696969696969691
 40
0.9696969696969691
 40
1.0
 40
1.0
 40
1.0
 40
1.0
 10
0.8049488188976378
 20
1.558586614173228
 30
0.0
 10
0.8049488188976378
 20
1.558586614173228
 30
0.0
 10
0.7970590551181103
 20
1.557614173228347
 30
0.0
 10
0.7970590551181103
 20
1.557614173228347
 30
0.0
 10
0.7970590551181103
 20
1.557614173228347
 30
0.0
 10
0.7966141732283465
 20
1.561448818897638
 30
0.0
 10
0.7963937007874016
 20
1.564614173228347
 30
0.0
 10
0.7963937007874016
 20
1.56705905511811
 30
0.0
 10
0.7963937007874016
 20
1.56705905511811
 30
0.0
 10
0.7963937007874016
 20
1.573448818897638
 30
0.0
 10
0.7981417322834646
 20
1.579503937007874
 30
0.0
 10
0.8016141732283465
 20
1.585196850393701
 30
0.0
 10
0.8016141732283465
 20
1.585196850393701
 30
0.0
 10
0.8050866141732284
 20
1.590893700787402
 30
0.0
 10
0.8099212598425197
 20
1.595338582677165
 30
0.0
 10
0.8161417322834647
 20
1.598531496062992
 30
0.0
 10
0.8161417322834647
 20
1.598531496062992
 30
0.0
 10
0.8223346456692914
 20
1.601755905511811
 30
0.0
 10
0.829476377952756
 20
1.603338582677165
 30
0.0
 10
0.8375039370078741
 20
1.603338582677165
 30
0.0
 10
0.8375039370078741
 20
1.603338582677165
 30
0.0
 10
0.845251968503937
 20
1.603338582677165
 30
0.0
 10
0.8520590551181103
 20
1.601838582677166
 30
0.0
 10
0.8579212598425198
 20
1.598838582677165
 30
0.0
 10
0.8579212598425198
 20
1.598838582677165
 30
0.0
 10
0.8637795275590552
 20
1.595811023622047
 30
0.0
 10
0.868251968503937
 20
1.591696850393701
 30
0.0
 10
0.8713897637795276
 20
1.586448818897638
 30
0.0
 10
0.8713897637795276
 20
1.586448818897638
 30
0.0
 10
0.8745039370078741
 20
1.581228346456693
 30
0.0
 10
0.8760590551181102
 20
1.575255905511811
 30
0.0
 10
0.8760590551181102
 20
1.568503937007874
 30
0.0
 10
0.8760590551181102
 20
1.568503937007874
 30
0.0
 10
0.8760590551181102
 20
1.562811023622047
 30
0.0
 10
0.8750590551181102
 20
1.557531496062992
 30
0.0
 10
0.873003937007874
 20
1.552700787401575
 30
0.0
 10
0.873003937007874
 20
1.552700787401575
 30
0.0
 10
0.870976377952756
 20
1.547838582677166
 30
0.0
 10
0.8676968503937008
 20
1.54292125984252
 30
0.0
 10
0.8631968503937009
 20
1.538003937007874
 30
0.0
 10
0.8631968503937009
 20
1.538003937007874
 30
0.0
 10
0.8598346456692914
 20
1.534311023622047
 30
0.0
 10
0.8530314960629921
 20
1.528673228346457
 30
0.0
 10
0.8427795275590552
 20
1.52105905511811
 30
0.0
 10
0.8427795275590552
 20
1.52105905511811
 30
0.0
 10
0.8298661417322835
 20
1.51142125984252
 30
0.0
 10
0.8199763779527559
 20
1.50442125984252
 30
0.0
 10
0.8130866141732284
 20
1.50005905511811
 30
0.0
 10
0.8130866141732284
 20
1.50005905511811
 30
0.0
 10
0.8130866141732284
 20
1.50005905511811
 30
0.0
 10
0.8553937007874016
 20
1.50005905511811
 30
0.0
 10
0.8553937007874016
 20
1.50005905511811
 30
0.0
 10
0.8553937007874016
 20
1.50005905511811
 30
0.0
 10
0.8603937007874016
 20
1.50005905511811
 30
0.0
 10
0.8636417322834646
 20
1.500531496062992
 30
0.0
 10
0.8651692913385827
 20
1.501448818897638
 30
0.0
 10
0.8651692913385827
 20
1.501448818897638
 30
0.0
 10
0.8672795275590551
 20
1.502645669291339
 30
0.0
 10
0.8687244094488189
 20
1.50542125984252
 30
0.0
 10
0.8694763779527559
 20
1.509755905511811
 30
0.0
 10
0.8694763779527559
 20
1.509755905511811
 30
0.0
 10
0.8694763779527559
 20
1.509755905511811
 30
0.0
 10
0.8701968503937009
 20
1.514393700787402
 30
0.0
 10
0.8701968503937009
 20
1.514393700787402
 30
0.0
 10
0.8701968503937009
 20
1.514393700787402
 30
0.0
 10
0.8701968503937009
 20
1.514393700787402
 30
0.0
 10
0.8771141732283465
 20
1.514393700787402
 30
0.0
 10
0.8771141732283465
 20
1.514393700787402
 30
0.0
 10
0.8771141732283465
 20
1.514393700787402
 30
0.0
 10
0.8771141732283465
 20
1.514393700787402
 30
0.0
 10
0.8715866141732284
 20
1.483811023622047
 30
0.0
 10
0.8715866141732284
 20
1.483811023622047
 30
0.0
 10
0.8715866141732284
 20
1.483811023622047
 30
0.0
 10
0.8715866141732284
 20
1.483811023622047
 30
0.0
 10
0.8663937007874016
 20
1.483811023622047
 30
0.0
 10
0.8663937007874016
 20
1.483811023622047
 30
0.0
 10
0.8663937007874016
 20
1.483811023622047
 30
0.0
 10
0.8663937007874016
 20
1.483811023622047
 30
0.0
 10
0.8654763779527559
 20
1.487866141732284
 30
0.0
 10
0.8654763779527559
 20
1.487866141732284
 30
0.0
 10
0.8654763779527559
 20
1.487866141732284
 30
0.0
 10
0.8654763779527559
 20
1.487866141732284
 30
0.0
 10
0.7943661417322835
 20
1.487866141732284
 30
0.0
 10
0.7943661417322835
 20
1.487866141732284
 30
0.0
 10
0.7943661417322835
 20
1.487866141732284
 30
0.0
 10
0.7943661417322835
 20
1.487866141732284
 30
0.0
 10
0.7943661417322835
 20
1.494700787401575
 30
0.0
 10
0.7943661417322835
 20
1.494700787401575
 30
0.0
 10
0.7943661417322835
 20
1.494700787401575
 30
0.0
 10
0.7943661417322835
 20
1.494700787401575
 30
0.0
 10
0.8073937007874016
 20
1.50455905511811
 30
0.0
 10
0.8073937007874016
 20
1.50455905511811
 30
0.0
 10
0.8073937007874016
 20
1.50455905511811
 30
0.0
 10
0.817251968503937
 20
1.511866141732284
 30
0.0
 10
0.8245039370078741
 20
1.517476377952756
 30
0.0
 10
0.8291141732283465
 20
1.521393700787402
 30
0.0
 10
0.8291141732283465
 20
1.521393700787402
 30
0.0
 10
0.8378346456692913
 20
1.528783464566929
 30
0.0
 10
0.8444212598425197
 20
1.535086614173228
 30
0.0
 10
0.8488346456692913
 20
1.540311023622047
 30
0.0
 10
0.8488346456692913
 20
1.540311023622047
 30
0.0
 10
0.853251968503937
 20
1.54555905511811
 30
0.0
 10
0.8563070866141732
 20
1.550283464566929
 30
0.0
 10
0.8579488188976379
 20
1.554476377952756
 30
0.0
 10
0.8579488188976379
 20
1.554476377952756
 30
0.0
 10
0.8596141732283464
 20
1.558669291338583
 30
0.0
 10
0.8604488188976378
 20
1.563086614173229
 30
0.0
 10
0.8604488188976378
 20
1.567700787401575
 30
0.0
 10
0.8604488188976378
 20
1.567700787401575
 30
0.0
 10
0.8604488188976378
 20
1.575338582677165
 30
0.0
 10
0.8579763779527559
 20
1.581614173228346
 30
0.0
 10
0.8530866141732284
 20
1.586503937007874
 30
0.0
 10
0.8530866141732284
 20
1.586503937007874
 30
0.0
 10
0.8481692913385827
 20
1.591393700787402
 30
0.0
 10
0.8417795275590552
 20
1.593811023622047
 30
0.0
 10
0.8339212598425198
 20
1.593811023622047
 30
0.0
 10
0.8339212598425198
 20
1.593811023622047
 30
0.0
 10
0.8282795275590551
 20
1.593811023622047
 30
0.0
 10
0.8232244094488189
 20
1.592614173228347
 30
0.0
 10
0.8188070866141732
 20
1.590169291338583
 30
0.0
 10
0.8188070866141732
 20
1.590169291338583
 30
0.0
 10
0.8143937007874016
 20
1.587728346456693
 30
0.0
 10
0.8109212598425197
 20
1.584311023622047
 30
0.0
 10
0.8083661417322835
 20
1.579893700787402
 30
0.0
 10
0.8083661417322835
 20
1.579893700787402
 30
0.0
 10
0.8058070866141732
 20
1.575503937007874
 30
0.0
 10
0.8045314960629921
 20
1.570755905511811
 30
0.0
 10
0.8045314960629921
 20
1.565669291338583
 30
0.0
 10
0.8045314960629921
 20
1.565669291338583
 30
0.0
 10
0.8045314960629921
 20
1.563755905511811
 30
0.0
 10
0.8046692913385827
 20
1.561393700787402
 30
0.0
 10
0.8049488188976378
 20
1.558586614173228
 30
0.0
  0
SPLINE
  5
6D
330
1F
100
AcDbEntity
  8
LAYER_1
 62
   250
100
AcDbSpline
210
0.0
220
0.0
230
1.0
 70
    11
 71
     3
 72
    84
 73
    80
 74
     0
 42
0.0000000001
 43
0.0000000001
 40
0.0
 40
0.0
 40
0.0
 40
0.0
 40
0.05
 40
0.05
 40
0.05
 40
0.05
 40
0.1
 40
0.1
 40
0.1
 40
0.1
 40
0.15
 40
0.15
 40
0.15
 40
0.15
 40
0.2
 40
0.2
 40
0.2
 40
0.2
 40
0.25
 40
0.25
 40
0.25
 40
0.25
 40
0.3
 40
0.3
 40
0.3
 40
0.3
 40
0.35
 40
0.35
 40
0.35
 40
0.35
 40
0.4
 40
0.4
 40
0.4
 40
0.4
 40
0.45
 40
0.45
 40
0.45
 40
0.45
 40
0.4999999999999999
 40
0.4999999999999999
 40
0.4999999999999999
 40
0.4999999999999999
 40
0.5499999999999999
 40
0.5499999999999999
 40
0.5499999999999999
 40
0.5499999999999999
 40
0.6
 40
0.6
 40
0.6
 40
0.6
 40
0.65
 40
0.65
 40
0.65
 40
0.65
 40
0.7000000000000001
 40
0.7000000000000001
 40
0.7000000000000001
 40
0.7000000000000001
 40
0.7500000000000001
 40
0.7500000000000001
 40
0.7500000000000001
 40
0.7500000000000001
 40
0.8000000000000002
 40
0.8000000000000002
 40
0.8000000000000002
 40
0.8000000000000002
 40
0.8500000000000002
 40
0.8500000000000002
 40
0.8500000000000002
 40
0.8500000000000002
 40
0.9000000000000002
 40
0.9000000000000002
 40
0.9000000000000002
 40
0.9000000000000002
 40
0.9500000000000003
 40
0.9500000000000003
 40
0.9500000000000003
 40
0.9500000000000003
 40
1.0
 40
1.0
 40
1.0
 40
1.0
 10
0.9737244094488189
 20
1.603503937007874
 30
0.0
 10
0.9737244094488189
 20
1.603503937007874
 30
0.0
 10
0.9737244094488189
 20
1.596086614173228
 30
0.0
 10
0.9737244094488189
 20
1.596086614173228
 30
0.0
 10
0.9737244094488189
 20
1.596086614173228
 30
0.0
 10
0.9603385826771654
 20
1.595948818897638
 30
0.0
 10
0.9495039370078741
 20
1.593976377952756
 30
0.0
 10
0.941228346456693
 20
1.590255905511811
 30
0.0
 10
0.941228346456693
 20
1.590255905511811
 30
0.0
 10
0.9329488188976378
 20
1.586503937007874
 30
0.0
 10
0.9268661417322835
 20
1.580893700787402
 30
0.0
 10
0.9229488188976378
 20
1.573448818897638
 30
0.0
 10
0.9229488188976378
 20
1.573448818897638
 30
0.0
 10
0.9190314960629922
 20
1.565976377952756
 30
0.0
 10
0.9168385826771653
 20
1.556783464566929
 30
0.0
 10
0.9163661417322835
 20
1.545893700787402
 30
0.0
 10
0.9163661417322835
 20
1.545893700787402
 30
0.0
 10
0.9191141732283465
 20
1.550114173228347
 30
0.0
 10
0.9219488188976378
 20
1.55342125984252
 30
0.0
 10
0.9248661417322835
 20
1.555783464566929
 30
0.0
 10
0.9248661417322835
 20
1.555783464566929
 30
0.0
 10
0.9277559055118111
 20
1.558141732283465
 30
0.0
 10
0.9311417322834646
 20
1.559948818897638
 30
0.0
 10
0.9350314960629922
 20
1.561228346456693
 30
0.0
 10
0.9350314960629922
 20
1.561228346456693
 30
0.0
 10
0.9389212598425197
 20
1.562503937007874
 30
0.0
 10
0.9431692913385827
 20
1.563141732283465
 30
0.0
 10
0.9477834645669292
 20
1.563141732283465
 30
0.0
 10
0.9477834645669292
 20
1.563141732283465
 30
0.0
 10
0.9551417322834646
 20
1.563141732283465
 30
0.0
 10
0.961724409448819
 20
1.561503937007874
 30
0.0
 10
0.967476377952756
 20
1.558255905511811
 30
0.0
 10
0.967476377952756
 20
1.558255905511811
 30
0.0
 10
0.9732244094488189
 20
1.555003937007874
 30
0.0
 10
0.9776968503937008
 20
1.550586614173228
 30
0.0
 10
0.9808937007874016
 20
1.545031496062992
 30
0.0
 10
0.9808937007874016
 20
1.545031496062992
 30
0.0
 10
0.9840866141732284
 20
1.539476377952756
 30
0.0
 10
0.9856968503937008
 20
1.53292125984252
 30
0.0
 10
0.9856968503937008
 20
1.525393700787402
 30
0.0
 10
0.9856968503937008
 20
1.525393700787402
 30
0.0
 10
0.9856968503937008
 20
1.513393700787402
 30
0.0
 10
0.9820866141732284
 20
1.503976377952756
 30
0.0
 10
0.9748661417322835
 20
1.497145669291339
 30
0.0
 10
0.9748661417322835
 20
1.497145669291339
 30
0.0
 10
0.9668937007874017
 20
1.489645669291339
 30
0.0
 10
0.9565590551181102
 20
1.48592125984252
 30
0.0
 10
0.9438661417322835
 20
1.48592125984252
 30
0.0
 10
0.9438661417322835
 20
1.48592125984252
 30
0.0
 10
0.9346968503937009
 20
1.48592125984252
 30
0.0
 10
0.9269763779527559
 20
1.487811023622047
 30
0.0
 10
0.9206692913385827
 20
1.491614173228347
 30
0.0
 10
0.9206692913385827
 20
1.491614173228347
 30
0.0
 10
0.9143661417322835
 20
1.495393700787402
 30
0.0
 10
0.9093661417322835
 20
1.501200787401575
 30
0.0
 10
0.9056417322834646
 20
1.509031496062992
 30
0.0
 10
0.9056417322834646
 20
1.509031496062992
 30
0.0
 10
0.9019488188976378
 20
1.516838582677165
 30
0.0
 10
0.9000866141732283
 20
1.526503937007874
 30
0.0
 10
0.9000866141732283
 20
1.538003937007874
 30
0.0
 10
0.9000866141732283
 20
1.538003937007874
 30
0.0
 10
0.9000866141732283
 20
1.54955905511811
 30
0.0
 10
0.9020590551181102
 20
1.559811023622047
 30
0.0
 10
0.905976377952756
 20
1.568755905511811
 30
0.0
 10
0.905976377952756
 20
1.568755905511811
 30
0.0
 10
0.9099212598425197
 20
1.577696850393701
 30
0.0
 10
0.9153661417322835
 20
1.584893700787402
 30
0.0
 10
0.9223110236220473
 20
1.590311023622047
 30
0.0
 10
0.9223110236220473
 20
1.590311023622047
 30
0.0
 10
0.929255905511811
 20
1.595755905511811
 30
0.0
 10
0.9368661417322836
 20
1.599311023622047
 30
0.0
 10
0.9451141732283465
 20
1.600976377952756
 30
0.0
 10
0.9451141732283465
 20
1.600976377952756
 30
0.0
 10
0.9533937007874016
 20
1.602669291338583
 30
0.0
 10
0.9608110236220473
 20
1.603503937007874
 30
0.0
 10
0.9673937007874016
 20
1.603503937007874
 30
0.0
 10
0.9673937007874016
 20
1.603503937007874
 30
0.0
 10
0.9673937007874016
 20
1.603503937007874
 30
0.0
 10
0.9737244094488189
 20
1.603503937007874
 30
0.0
 10
0.9737244094488189
 20
1.603503937007874
 30
0.0
  0
SPLINE
  5
6E
330
1F
100
AcDbEntity
  8
LAYER_1
 62
   250
100
AcDbSpline
210
0.0
220
0.0
230
1.0
 70
    11
 71
     3
 72
    40
 73
    36
 74
     0
 42
0.0000000001
 43
0.0000000001
 40
0.0
 40
0.0
 40
0.0
 40
0.0
 40
0.1111111111111111
 40
0.1111111111111111
 40
0.1111111111111111
 40
0.1111111111111111
 40
0.2222222222222222
 40
0.2222222222222222
 40
0.2222222222222222
 40
0.2222222222222222
 40
0.3333333333333333
 40
0.3333333333333333
 40
0.3333333333333333
 40
0.3333333333333333
 40
0.4444444444444444
 40
0.4444444444444444
 40
0.4444444444444444
 40
0.4444444444444444
 40
0.5555555555555556
 40
0.5555555555555556
 40
0.5555555555555556
 40
0.5555555555555556
 40
0.6666666666666667
 40
0.6666666666666667
 40
0.6666666666666667
 40
0.6666666666666667
 40
0.7777777777777779
 40
0.7777777777777779
 40
0.7777777777777779
 40
0.7777777777777779
 40
0.8888888888888891
 40
0.8888888888888891
 40
0.8888888888888891
 40
0.8888888888888891
 40
1.0
 40
1.0
 40
1.0
 40
1.0
 10
0.9440314960629922
 20
1.554503937007874
 30
0.0
 10
0.936228346456693
 20
1.554503937007874
 30
0.0
 10
0.9298110236220473
 20
1.55155905511811
 30
0.0
 10
0.9247834645669292
 20
1.545641732283465
 30
0.0
 10
0.9247834645669292
 20
1.545641732283465
 30
0.0
 10
0.9197559055118111
 20
1.539728346456693
 30
0.0
 10
0.917255905511811
 20
1.532614173228347
 30
0.0
 10
0.917255905511811
 20
1.524338582677165
 30
0.0
 10
0.917255905511811
 20
1.524338582677165
 30
0.0
 10
0.917255905511811
 20
1.518476377952756
 30
0.0
 10
0.9184763779527559
 20
1.51305905511811
 30
0.0
 10
0.9209212598425197
 20
1.508086614173228
 30
0.0
 10
0.9209212598425197
 20
1.508086614173228
 30
0.0
 10
0.9233661417322835
 20
1.503114173228347
 30
0.0
 10
0.926503937007874
 20
1.499448818897638
 30
0.0
 10
0.9303661417322835
 20
1.497031496062992
 30
0.0
 10
0.9303661417322835
 20
1.497031496062992
 30
0.0
 10
0.9341968503937008
 20
1.494614173228346
 30
0.0
 10
0.9385590551181102
 20
1.493393700787402
 30
0.0
 10
0.9433661417322835
 20
1.493393700787402
 30
0.0
 10
0.9433661417322835
 20
1.493393700787402
 30
0.0
 10
0.9508661417322835
 20
1.493393700787402
 30
0.0
 10
0.9570866141732284
 20
1.496228346456693
 30
0.0
 10
0.9620590551181103
 20
1.501893700787402
 30
0.0
 10
0.9620590551181103
 20
1.501893700787402
 30
0.0
 10
0.967003937007874
 20
1.50755905511811
 30
0.0
 10
0.9695039370078741
 20
1.515173228346457
 30
0.0
 10
0.9695039370078741
 20
1.524728346456693
 30
0.0
 10
0.9695039370078741
 20
1.524728346456693
 30
0.0
 10
0.9695039370078741
 20
1.533838582677165
 30
0.0
 10
0.9670866141732284
 20
1.541086614173229
 30
0.0
 10
0.9622559055118111
 20
1.546448818897638
 30
0.0
 10
0.9622559055118111
 20
1.546448818897638
 30
0.0
 10
0.9574212598425197
 20
1.551838582677166
 30
0.0
 10
0.9513385826771654
 20
1.554503937007874
 30
0.0
 10
0.9440314960629922
 20
1.554503937007874
 30
0.0
  0
SPLINE
  5
6F
330
1F
100
AcDbEntity
  8
LAYER_1
 62
   250
100
AcDbSpline
210
0.0
220
0.0
230
1.0
 70
    11
 71
     3
 72
   132
 73
   128
 74
     0
 42
0.0000000001
 43
0.0000000001
 40
0.0
 40
0.0
 40
0.0
 40
0.0
 40
0.03125
 40
0.03125
 40
0.03125
 40
0.03125
 40
0.0625
 40
0.0625
 40
0.0625
 40
0.0625
 40
0.09375
 40
0.09375
 40
0.09375
 40
0.09375
 40
0.125
 40
0.125
 40
0.125
 40
0.125
 40
0.15625
 40
0.15625
 40
0.15625
 40
0.15625
 40
0.1875
 40
0.1875
 40
0.1875
 40
0.1875
 40
0.21875
 40
0.21875
 40
0.21875
 40
0.21875
 40
0.25
 40
0.25
 40
0.25
 40
0.25
 40
0.28125
 40
0.28125
 40
0.28125
 40
0.28125
 40
0.3125
 40
0.3125
 40
0.3125
 40
0.3125
 40
0.34375
 40
0.34375
 40
0.34375
 40
0.34375
 40
0.375
 40
0.375
 40
0.375
 40
0.375
 40
0.40625
 40
0.40625
 40
0.40625
 40
0.40625
 40
0.4375
 40
0.4375
 40
0.4375
 40
0.4375
 40
0.46875
 40
0.46875
 40
0.46875
 40
0.46875
 40
0.5
 40
0.5
 40
0.5
 40
0.5
 40
0.53125
 40
0.53125
 40
0.53125
 40
0.53125
 40
0.5625
 40
0.5625
 40
0.5625
 40
0.5625
 40
0.59375
 40
0.59375
 40
0.59375
 40
0.59375
 40
0.625
 40
0.625
 40
0.625
 40
0.625
 40
0.65625
 40
0.65625
 40
0.65625
 40
0.65625
 40
0.6875
 40
0.6875
 40
0.6875
 40
0.6875
 40
0.71875
 40
0.71875
 40
0.71875
 40
0.71875
 40
0.75
 40
0.75
 40
0.75
 40
0.75
 40
0.78125
 40
0.78125
 40
0.78125
 40
0.78125
 40
0.8125
 40
0.8125
 40
0.8125
 40
0.8125
 40
0.84375
 40
0.84375
 40
0.84375
 40
0.84375
 40
0.875
 40
0.875
 40
0.875
 40
0.875
 40
0.90625
 40
0.90625
 40
0.90625
 40
0.90625
 40
0.9375
 40
0.9375
 40
0.9375
 40
0.9375
 40
0.96875
 40
0.96875
 40
0.96875
 40
0.96875
 40
1.0
 40
1.0
 40
1.0
 40
1.0
 10
0.1634645669291339
 20
1.413893700787402
 30
0.0
 10
0.1634645669291339
 20
1.413893700787402
 30
0.0
 10
0.2140748031496063
 20
1.413893700787402
 30
0.0
 10
0.2140748031496063
 20
1.413893700787402
 30
0.0
 10
0.2140748031496063
 20
1.413893700787402
 30
0.0
 10
0.2171574803149606
 20
1.413893700787402
 30
0.0
 10
0.2190472440944882
 20
1.41405905511811
 30
0.0
 10
0.2196850393700787
 20
1.414393700787402
 30
0.0
 10
0.2196850393700787
 20
1.414393700787402
 30
0.0
 10
0.2206023622047244
 20
1.41492125984252
 30
0.0
 10
0.2211574803149606
 20
1.416086614173229
 30
0.0
 10
0.2213228346456693
 20
1.417866141732284
 30
0.0
 10
0.2213228346456693
 20
1.417866141732284
 30
0.0
 10
0.2213228346456693
 20
1.417866141732284
 30
0.0
 10
0.2272677165354331
 20
1.417866141732284
 30
0.0
 10
0.2272677165354331
 20
1.417866141732284
 30
0.0
 10
0.2272677165354331
 20
1.417866141732284
 30
0.0
 10
0.2272677165354331
 20
1.417866141732284
 30
0.0
 10
0.2272677165354331
 20
1.400696850393701
 30
0.0
 10
0.2272677165354331
 20
1.400696850393701
 30
0.0
 10
0.2272677165354331
 20
1.400696850393701
 30
0.0
 10
0.2272677165354331
 20
1.400696850393701
 30
0.0
 10
0.1710196850393701
 20
1.400696850393701
 30
0.0
 10
0.1710196850393701
 20
1.400696850393701
 30
0.0
 10
0.1710196850393701
 20
1.400696850393701
 30
0.0
 10
0.1710196850393701
 20
1.400696850393701
 30
0.0
 10
0.1696299212598425
 20
1.37205905511811
 30
0.0
 10
0.1696299212598425
 20
1.37205905511811
 30
0.0
 10
0.1696299212598425
 20
1.37205905511811
 30
0.0
 10
0.1719645669291339
 20
1.372728346456693
 30
0.0
 10
0.1749370078740158
 20
1.373255905511811
 30
0.0
 10
0.1785196850393701
 20
1.373700787401575
 30
0.0
 10
0.1785196850393701
 20
1.373700787401575
 30
0.0
 10
0.1831299212598425
 20
1.374228346456693
 30
0.0
 10
0.187240157480315
 20
1.374503937007874
 30
0.0
 10
0.1908818897637795
 20
1.374503937007874
 30
0.0
 10
0.1908818897637795
 20
1.374503937007874
 30
0.0
 10
0.1999370078740158
 20
1.374503937007874
 30
0.0
 10
0.2078228346456693
 20
1.372866141732284
 30
0.0
 10
0.2145748031496063
 20
1.369614173228346
 30
0.0
 10
0.2145748031496063
 20
1.369614173228346
 30
0.0
 10
0.2212952755905512
 20
1.366366141732283
 30
0.0
 10
0.2264055118110236
 20
1.361893700787402
 30
0.0
 10
0.2299055118110236
 20
1.356228346456693
 30
0.0
 10
0.2299055118110236
 20
1.356228346456693
 30
0.0
 10
0.2334055118110236
 20
1.35055905511811
 30
0.0
 10
0.2351574803149606
 20
1.344228346456693
 30
0.0
 10
0.2351574803149606
 20
1.337228346456693
 30
0.0
 10
0.2351574803149606
 20
1.337228346456693
 30
0.0
 10
0.2351574803149606
 20
1.326393700787402
 30
0.0
 10
0.2310748031496063
 20
1.317200787401575
 30
0.0
 10
0.2229370078740158
 20
1.309673228346457
 30
0.0
 10
0.2229370078740158
 20
1.309673228346457
 30
0.0
 10
0.2147952755905512
 20
1.302173228346457
 30
0.0
 10
0.2044370078740158
 20
1.29842125984252
 30
0.0
 10
0.1918503937007874
 20
1.29842125984252
 30
0.0
 10
0.1918503937007874
 20
1.29842125984252
 30
0.0
 10
0.1845748031496063
 20
1.29842125984252
 30
0.0
 10
0.1780196850393701
 20
1.299728346456693
 30
0.0
 10
0.1721299212598425
 20
1.302311023622047
 30
0.0
 10
0.1721299212598425
 20
1.302311023622047
 30
0.0
 10
0.166240157480315
 20
1.30492125984252
 30
0.0
 10
0.1616299212598425
 20
1.308366141732284
 30
0.0
 10
0.1583228346456693
 20
1.312614173228347
 30
0.0
 10
0.1583228346456693
 20
1.312614173228347
 30
0.0
 10
0.1550196850393701
 20
1.316866141732284
 30
0.0
 10
0.1533543307086614
 20
1.320614173228347
 30
0.0
 10
0.1533543307086614
 20
1.323811023622047
 30
0.0
 10
0.1533543307086614
 20
1.323811023622047
 30
0.0
 10
0.1533543307086614
 20
1.32592125984252
 30
0.0
 10
0.1540748031496063
 20
1.327755905511811
 30
0.0
 10
0.155492125984252
 20
1.329311023622047
 30
0.0
 10
0.155492125984252
 20
1.329311023622047
 30
0.0
 10
0.1568818897637795
 20
1.330838582677165
 30
0.0
 10
0.1587125984251969
 20
1.331614173228346
 30
0.0
 10
0.1609370078740157
 20
1.331614173228346
 30
0.0
 10
0.1609370078740157
 20
1.331614173228346
 30
0.0
 10
0.1632125984251969
 20
1.331614173228346
 30
0.0
 10
0.1652125984251969
 20
1.330673228346457
 30
0.0
 10
0.1669645669291339
 20
1.328755905511811
 30
0.0
 10
0.1669645669291339
 20
1.328755905511811
 30
0.0
 10
0.1679370078740158
 20
1.327783464566929
 30
0.0
 10
0.1691023622047244
 20
1.325393700787402
 30
0.0
 10
0.1704645669291339
 20
1.321614173228346
 30
0.0
 10
0.1704645669291339
 20
1.321614173228346
 30
0.0
 10
0.1722952755905512
 20
1.316283464566929
 30
0.0
 10
0.1750472440944882
 20
1.312393700787402
 30
0.0
 10
0.1786850393700787
 20
1.309893700787402
 30
0.0
 10
0.1786850393700787
 20
1.309893700787402
 30
0.0
 10
0.182240157480315
 20
1.307338582677165
 30
0.0
 10
0.1867677165354331
 20
1.30605905511811
 30
0.0
 10
0.1921850393700788
 20
1.30605905511811
 30
0.0
 10
0.1921850393700788
 20
1.30605905511811
 30
0.0
 10
0.1976023622047244
 20
1.30605905511811
 30
0.0
 10
0.2024370078740158
 20
1.307255905511811
 30
0.0
 10
0.2066574803149607
 20
1.309614173228347
 30
0.0
 10
0.2066574803149607
 20
1.309614173228347
 30
0.0
 10
0.2109094488188976
 20
1.311948818897638
 30
0.0
 10
0.214240157480315
 20
1.315366141732284
 30
0.0
 10
0.2166850393700787
 20
1.319783464566929
 30
0.0
 10
0.2166850393700787
 20
1.319783464566929
 30
0.0
 10
0.2191299212598425
 20
1.324200787401575
 30
0.0
 10
0.2203503937007874
 20
1.329114173228347
 30
0.0
 10
0.2203503937007874
 20
1.334531496062992
 30
0.0
 10
0.2203503937007874
 20
1.334531496062992
 30
0.0
 10
0.2203503937007874
 20
1.340255905511811
 30
0.0
 10
0.2190196850393701
 20
1.345311023622047
 30
0.0
 10
0.2163779527559055
 20
1.349755905511811
 30
0.0
 10
0.2163779527559055
 20
1.349755905511811
 30
0.0
 10
0.2137677165354331
 20
1.354200787401575
 30
0.0
 10
0.209992125984252
 20
1.357669291338583
 30
0.0
 10
0.2050748031496063
 20
1.360086614173228
 30
0.0
 10
0.2050748031496063
 20
1.360086614173228
 30
0.0
 10
0.2001574803149606
 20
1.362531496062992
 30
0.0
 10
0.1941850393700788
 20
1.363755905511811
 30
0.0
 10
0.1871299212598425
 20
1.363755905511811
 30
0.0
 10
0.1871299212598425
 20
1.363755905511811
 30
0.0
 10
0.1828503937007874
 20
1.363755905511811
 30
0.0
 10
0.178240157480315
 20
1.363311023622047
 30
0.0
 10
0.1733503937007874
 20
1.362366141732283
 30
0.0
 10
0.1733503937007874
 20
1.362366141732283
 30
0.0
 10
0.1684370078740158
 20
1.361448818897638
 30
0.0
 10
0.1642125984251969
 20
1.360283464566929
 30
0.0
 10
0.1606850393700788
 20
1.358866141732284
 30
0.0
 10
0.1606850393700788
 20
1.358866141732284
 30
0.0
 10
0.1606850393700788
 20
1.358866141732284
 30
0.0
 10
0.1634645669291339
 20
1.413893700787402
 30
0.0
 10
0.1634645669291339
 20
1.413893700787402
 30
0.0
  0
SPLINE
  5
70
330
1F
100
AcDbEntity
  8
LAYER_1
 62
   250
100
AcDbSpline
210
0.0
220
0.0
230
1.0
 70
    11
 71
     3
 72
    20
 73
    16
 74
     0
 42
0.0000000001
 43
0.0000000001
 40
0.0
 40
0.0
 40
0.0
 40
0.0
 40
0.25
 40
0.25
 40
0.25
 40
0.25
 40
0.5
 40
0.5
 40
0.5
 40
0.5
 40
0.75
 40
0.75
 40
0.75
 40
0.75
 40
1.0
 40
1.0
 40
1.0
 40
1.0
 10
0.3259094488188977
 20
1.419755905511811
 30
0.0
 10
0.3259094488188977
 20
1.419755905511811
 30
0.0
 10
0.2703267716535433
 20
1.26405905511811
 30
0.0
 10
0.2703267716535433
 20
1.26405905511811
 30
0.0
 10
0.2703267716535433
 20
1.26405905511811
 30
0.0
 10
0.2703267716535433
 20
1.26405905511811
 30
0.0
 10
0.2582716535433071
 20
1.26405905511811
 30
0.0
 10
0.2582716535433071
 20
1.26405905511811
 30
0.0
 10
0.2582716535433071
 20
1.26405905511811
 30
0.0
 10
0.2582716535433071
 20
1.26405905511811
 30
0.0
 10
0.3135196850393701
 20
1.419755905511811
 30
0.0
 10
0.3135196850393701
 20
1.419755905511811
 30
0.0
 10
0.3135196850393701
 20
1.419755905511811
 30
0.0
 10
0.3135196850393701
 20
1.419755905511811
 30
0.0
 10
0.3259094488188977
 20
1.419755905511811
 30
0.0
 10
0.3259094488188977
 20
1.419755905511811
 30
0.0
  0
SPLINE
  5
71
330
1F
100
AcDbEntity
  8
LAYER_1
 62
   250
100
AcDbSpline
210
0.0
220
0.0
230
1.0
 70
    11
 71
     3
 72
    76
 73
    72
 74
     0
 42
0.0000000001
 43
0.0000000001
 40
0.0
 40
0.0
 40
0.0
 40
0.0
 40
0.0555555555555556
 40
0.0555555555555556
 40
0.0555555555555556
 40
0.0555555555555556
 40
0.1111111111111111
 40
0.1111111111111111
 40
0.1111111111111111
 40
0.1111111111111111
 40
0.1666666666666667
 40
0.1666666666666667
 40
0.1666666666666667
 40
0.1666666666666667
 40
0.2222222222222222
 40
0.2222222222222222
 40
0.2222222222222222
 40
0.2222222222222222
 40
0.2777777777777778
 40
0.2777777777777778
 40
0.2777777777777778
 40
0.2777777777777778
 40
0.3333333333333334
 40
0.3333333333333334
 40
0.3333333333333334
 40
0.3333333333333334
 40
0.388888888888889
 40
0.388888888888889
 40
0.388888888888889
 40
0.388888888888889
 40
0.4444444444444445
 40
0.4444444444444445
 40
0.4444444444444445
 40
0.4444444444444445
 40
0.5000000000000001
 40
0.5000000000000001
 40
0.5000000000000001
 40
0.5000000000000001
 40
0.5555555555555557
 40
0.5555555555555557
 40
0.5555555555555557
 40
0.5555555555555557
 40
0.6111111111111113
 40
0.6111111111111113
 40
0.6111111111111113
 40
0.6111111111111113
 40
0.6666666666666669
 40
0.6666666666666669
 40
0.6666666666666669
 40
0.6666666666666669
 40
0.7222222222222224
 40
0.7222222222222224
 40
0.7222222222222224
 40
0.7222222222222224
 40
0.777777777777778
 40
0.777777777777778
 40
0.777777777777778
 40
0.777777777777778
 40
0.8333333333333336
 40
0.8333333333333336
 40
0.8333333333333336
 40
0.8333333333333336
 40
0.8888888888888892
 40
0.8888888888888892
 40
0.8888888888888892
 40
0.8888888888888892
 40
0.9444444444444448
 40
0.9444444444444448
 40
0.9444444444444448
 40
0.9444444444444448
 40
1.0
 40
1.0
 40
1.0
 40
1.0
 10
0.4089094488188977
 20
1.363366141732284
 30
0.0
 10
0.4153267716535433
 20
1.36092125984252
 30
0.0
 10
0.4202125984251969
 20
1.358614173228347
 30
0.0
 10
0.4235748031496063
 20
1.356448818897638
 30
0.0
 10
0.4235748031496063
 20
1.356448818897638
 30
0.0
 10
0.428492125984252
 20
1.353283464566929
 30
0.0
 10
0.4322125984251969
 20
1.349586614173228
 30
0.0
 10
0.4347125984251969
 20
1.345338582677165
 30
0.0
 10
0.4347125984251969
 20
1.345338582677165
 30
0.0
 10
0.4372125984251969
 20
1.34105905511811
 30
0.0
 10
0.4384645669291339
 20
1.336448818897638
 30
0.0
 10
0.4384645669291339
 20
1.331448818897638
 30
0.0
 10
0.4384645669291339
 20
1.331448818897638
 30
0.0
 10
0.4384645669291339
 20
1.322503937007874
 30
0.0
 10
0.4346023622047244
 20
1.314755905511811
 30
0.0
 10
0.4269094488188976
 20
1.308228346456693
 30
0.0
 10
0.4269094488188976
 20
1.308228346456693
 30
0.0
 10
0.4191850393700788
 20
1.301673228346457
 30
0.0
 10
0.4087992125984252
 20
1.29842125984252
 30
0.0
 10
0.395740157480315
 20
1.29842125984252
 30
0.0
 10
0.395740157480315
 20
1.29842125984252
 30
0.0
 10
0.3819094488188977
 20
1.29842125984252
 30
0.0
 10
0.3710472440944882
 20
1.302114173228347
 30
0.0
 10
0.3631850393700787
 20
1.309476377952756
 30
0.0
 10
0.3631850393700787
 20
1.309476377952756
 30
0.0
 10
0.3569370078740158
 20
1.315393700787402
 30
0.0
 10
0.3538267716535433
 20
1.322086614173228
 30
0.0
 10
0.3538267716535433
 20
1.329586614173228
 30
0.0
 10
0.3538267716535433
 20
1.329586614173228
 30
0.0
 10
0.3538267716535433
 20
1.335614173228346
 30
0.0
 10
0.3559370078740158
 20
1.341003937007874
 30
0.0
 10
0.3601574803149606
 20
1.345783464566929
 30
0.0
 10
0.3601574803149606
 20
1.345783464566929
 30
0.0
 10
0.3652716535433071
 20
1.351476377952756
 30
0.0
 10
0.3725472440944882
 20
1.35592125984252
 30
0.0
 10
0.381992125984252
 20
1.359114173228347
 30
0.0
 10
0.381992125984252
 20
1.359114173228347
 30
0.0
 10
0.3746023622047244
 20
1.362586614173228
 30
0.0
 10
0.3692992125984252
 20
1.366114173228347
 30
0.0
 10
0.3660196850393701
 20
1.369700787401575
 30
0.0
 10
0.3660196850393701
 20
1.369700787401575
 30
0.0
 10
0.3618543307086614
 20
1.37442125984252
 30
0.0
 10
0.3597716535433071
 20
1.380086614173228
 30
0.0
 10
0.3597716535433071
 20
1.386696850393701
 30
0.0
 10
0.3597716535433071
 20
1.386696850393701
 30
0.0
 10
0.3597716535433071
 20
1.394893700787402
 30
0.0
 10
0.3628543307086614
 20
1.401531496062992
 30
0.0
 10
0.3690472440944882
 20
1.40655905511811
 30
0.0
 10
0.3690472440944882
 20
1.40655905511811
 30
0.0
 10
0.3766299212598425
 20
1.412755905511811
 30
0.0
 10
0.3861299212598425
 20
1.415838582677165
 30
0.0
 10
0.3975196850393701
 20
1.415838582677165
 30
0.0
 10
0.3975196850393701
 20
1.415838582677165
 30
0.0
 10
0.4079370078740158
 20
1.415838582677165
 30
0.0
 10
0.4163543307086615
 20
1.413169291338583
 30
0.0
 10
0.4227992125984252
 20
1.407838582677165
 30
0.0
 10
0.4227992125984252
 20
1.407838582677165
 30
0.0
 10
0.4292125984251969
 20
1.402476377952756
 30
0.0
 10
0.4324370078740158
 20
1.396366141732284
 30
0.0
 10
0.4324370078740158
 20
1.389476377952756
 30
0.0
 10
0.4324370078740158
 20
1.389476377952756
 30
0.0
 10
0.4324370078740158
 20
1.38605905511811
 30
0.0
 10
0.4316299212598425
 20
1.382783464566929
 30
0.0
 10
0.4300472440944882
 20
1.379669291338583
 30
0.0
 10
0.4300472440944882
 20
1.379669291338583
 30
0.0
 10
0.4284370078740158
 20
1.37655905511811
 30
0.0
 10
0.425992125984252
 20
1.373641732283465
 30
0.0
 10
0.4226574803149606
 20
1.370976377952756
 30
0.0
 10
0.4226574803149606
 20
1.370976377952756
 30
0.0
 10
0.4193543307086615
 20
1.368283464566929
 30
0.0
 10
0.4147677165354331
 20
1.365755905511811
 30
0.0
 10
0.4089094488188977
 20
1.363366141732284
 30
0.0
  0
SPLINE
  5
72
330
1F
100
AcDbEntity
  8
LAYER_1
 62
   250
100
AcDbSpline
210
0.0
220
0.0
230
1.0
 70
    11
 71
     3
 72
    48
 73
    44
 74
     0
 42
0.0000000001
 43
0.0000000001
 40
0.0
 40
0.0
 40
0.0
 40
0.0
 40
0.0909090909090909
 40
0.0909090909090909
 40
0.0909090909090909
 40
0.0909090909090909
 40
0.1818181818181818
 40
0.1818181818181818
 40
0.1818181818181818
 40
0.1818181818181818
 40
0.2727272727272727
 40
0.2727272727272727
 40
0.2727272727272727
 40
0.2727272727272727
 40
0.3636363636363637
 40
0.3636363636363637
 40
0.3636363636363637
 40
0.3636363636363637
 40
0.4545454545454546
 40
0.4545454545454546
 40
0.4545454545454546
 40
0.4545454545454546
 40
0.5454545454545455
 40
0.5454545454545455
 40
0.5454545454545455
 40
0.5454545454545455
 40
0.6363636363636365
 40
0.6363636363636365
 40
0.6363636363636365
 40
0.6363636363636365
 40
0.7272727272727274
 40
0.7272727272727274
 40
0.7272727272727274
 40
0.7272727272727274
 40
0.8181818181818183
 40
0.8181818181818183
 40
0.8181818181818183
 40
0.8181818181818183
 40
0.9090909090909093
 40
0.9090909090909093
 40
0.9090909090909093
 40
0.9090909090909093
 40
1.0
 40
1.0
 40
1.0
 40
1.0
 10
0.4015196850393701
 20
1.366366141732283
 30
0.0
 10
0.4076850393700788
 20
1.371031496062992
 30
0.0
 10
0.4117125984251969
 20
1.374283464566929
 30
0.0
 10
0.4135472440944882
 20
1.376141732283465
 30
0.0
 10
0.4135472440944882
 20
1.376141732283465
 30
0.0
 10
0.4154094488188976
 20
1.377976377952756
 30
0.0
 10
0.4168267716535433
 20
1.380086614173228
 30
0.0
 10
0.4178267716535433
 20
1.382448818897638
 30
0.0
 10
0.4178267716535433
 20
1.382448818897638
 30
0.0
 10
0.4188267716535433
 20
1.384811023622047
 30
0.0
 10
0.4193267716535433
 20
1.387086614173228
 30
0.0
 10
0.4193267716535433
 20
1.389311023622047
 30
0.0
 10
0.4193267716535433
 20
1.389311023622047
 30
0.0
 10
0.4193267716535433
 20
1.392503937007874
 30
0.0
 10
0.4183818897637796
 20
1.39555905511811
 30
0.0
 10
0.416492125984252
 20
1.398476377952756
 30
0.0
 10
0.416492125984252
 20
1.398476377952756
 30
0.0
 10
0.4145748031496063
 20
1.401366141732284
 30
0.0
 10
0.4117992125984252
 20
1.403728346456693
 30
0.0
 10
0.4081299212598425
 20
1.405503937007874
 30
0.0
 10
0.4081299212598425
 20
1.405503937007874
 30
0.0
 10
0.404492125984252
 20
1.407311023622047
 30
0.0
 10
0.4003818897637795
 20
1.408196850393701
 30
0.0
 10
0.3958267716535433
 20
1.408196850393701
 30
0.0
 10
0.3958267716535433
 20
1.408196850393701
 30
0.0
 10
0.3890748031496063
 20
1.408196850393701
 30
0.0
 10
0.383492125984252
 20
1.406338582677166
 30
0.0
 10
0.3790472440944882
 20
1.402614173228347
 30
0.0
 10
0.3790472440944882
 20
1.402614173228347
 30
0.0
 10
0.3746023622047244
 20
1.398893700787402
 30
0.0
 10
0.3723818897637796
 20
1.394614173228347
 30
0.0
 10
0.3723818897637796
 20
1.389728346456693
 30
0.0
 10
0.3723818897637796
 20
1.389728346456693
 30
0.0
 10
0.3723818897637796
 20
1.385811023622047
 30
0.0
 10
0.3737716535433071
 20
1.382311023622047
 30
0.0
 10
0.3765196850393701
 20
1.379228346456693
 30
0.0
 10
0.3765196850393701
 20
1.379228346456693
 30
0.0
 10
0.3792992125984252
 20
1.376141732283465
 30
0.0
 10
0.3844370078740158
 20
1.373086614173228
 30
0.0
 10
0.391992125984252
 20
1.370114173228347
 30
0.0
 10
0.391992125984252
 20
1.370114173228347
 30
0.0
 10
0.391992125984252
 20
1.370114173228347
 30
0.0
 10
0.4015196850393701
 20
1.366366141732283
 30
0.0
 10
0.4015196850393701
 20
1.366366141732283
 30
0.0
  0
SPLINE
  5
73
330
1F
100
AcDbEntity
  8
LAYER_1
 62
   250
100
AcDbSpline
210
0.0
220
0.0
230
1.0
 70
    11
 71
     3
 72
    40
 73
    36
 74
     0
 42
0.0000000001
 43
0.0000000001
 40
0.0
 40
0.0
 40
0.0
 40
0.0
 40
0.1111111111111111
 40
0.1111111111111111
 40
0.1111111111111111
 40
0.1111111111111111
 40
0.2222222222222222
 40
0.2222222222222222
 40
0.2222222222222222
 40
0.2222222222222222
 40
0.3333333333333333
 40
0.3333333333333333
 40
0.3333333333333333
 40
0.3333333333333333
 40
0.4444444444444444
 40
0.4444444444444444
 40
0.4444444444444444
 40
0.4444444444444444
 40
0.5555555555555556
 40
0.5555555555555556
 40
0.5555555555555556
 40
0.5555555555555556
 40
0.6666666666666667
 40
0.6666666666666667
 40
0.6666666666666667
 40
0.6666666666666667
 40
0.7777777777777779
 40
0.7777777777777779
 40
0.7777777777777779
 40
0.7777777777777779
 40
0.8888888888888891
 40
0.8888888888888891
 40
0.8888888888888891
 40
0.8888888888888891
 40
1.0
 40
1.0
 40
1.0
 40
1.0
 10
0.3900472440944882
 20
1.355948818897638
 30
0.0
 10
0.3823818897637795
 20
1.352586614173228
 30
0.0
 10
0.3763267716535433
 20
1.348228346456693
 30
0.0
 10
0.3718818897637796
 20
1.342838582677165
 30
0.0
 10
0.3718818897637796
 20
1.342838582677165
 30
0.0
 10
0.3684094488188976
 20
1.338614173228347
 30
0.0
 10
0.3666850393700787
 20
1.334228346456693
 30
0.0
 10
0.3666850393700787
 20
1.329673228346457
 30
0.0
 10
0.3666850393700787
 20
1.329673228346457
 30
0.0
 10
0.3666850393700787
 20
1.323476377952756
 30
0.0
 10
0.3694094488188977
 20
1.317976377952756
 30
0.0
 10
0.3749094488188977
 20
1.313173228346457
 30
0.0
 10
0.3749094488188977
 20
1.313173228346457
 30
0.0
 10
0.3803818897637796
 20
1.308393700787402
 30
0.0
 10
0.3874645669291339
 20
1.305976377952756
 30
0.0
 10
0.3961299212598425
 20
1.305976377952756
 30
0.0
 10
0.3961299212598425
 20
1.305976377952756
 30
0.0
 10
0.404992125984252
 20
1.305976377952756
 30
0.0
 10
0.4123543307086615
 20
1.308728346456693
 30
0.0
 10
0.4182677165354331
 20
1.314200787401575
 30
0.0
 10
0.4182677165354331
 20
1.314200787401575
 30
0.0
 10
0.4231023622047244
 20
1.318645669291339
 30
0.0
 10
0.4255196850393701
 20
1.32342125984252
 30
0.0
 10
0.4255196850393701
 20
1.328531496062992
 30
0.0
 10
0.4255196850393701
 20
1.328531496062992
 30
0.0
 10
0.4255196850393701
 20
1.332531496062992
 30
0.0
 10
0.4239370078740158
 20
1.336366141732283
 30
0.0
 10
0.4207677165354331
 20
1.340031496062992
 30
0.0
 10
0.4207677165354331
 20
1.340031496062992
 30
0.0
 10
0.4175748031496063
 20
1.343700787401575
 30
0.0
 10
0.4116850393700788
 20
1.347255905511811
 30
0.0
 10
0.4030472440944882
 20
1.350728346456693
 30
0.0
 10
0.4030472440944882
 20
1.350728346456693
 30
0.0
 10
0.4030472440944882
 20
1.350728346456693
 30
0.0
 10
0.3900472440944882
 20
1.355948818897638
 30
0.0
 10
0.3900472440944882
 20
1.355948818897638
 30
0.0
  0
SPLINE
  5
74
330
1F
100
AcDbEntity
  8
LAYER_1
 62
   250
100
AcDbSpline
210
0.0
220
0.0
230
1.0
 70
    11
 71
     3
 72
    60
 73
    56
 74
     0
 42
0.0000000001
 43
0.0000000001
 40
0.0
 40
0.0
 40
0.0
 40
0.0
 40
0.0714285714285714
 40
0.0714285714285714
 40
0.0714285714285714
 40
0.0714285714285714
 40
0.1428571428571429
 40
0.1428571428571429
 40
0.1428571428571429
 40
0.1428571428571429
 40
0.2142857142857143
 40
0.2142857142857143
 40
0.2142857142857143
 40
0.2142857142857143
 40
0.2857142857142857
 40
0.2857142857142857
 40
0.2857142857142857
 40
0.2857142857142857
 40
0.3571428571428571
 40
0.3571428571428571
 40
0.3571428571428571
 40
0.3571428571428571
 40
0.4285714285714285
 40
0.4285714285714285
 40
0.4285714285714285
 40
0.4285714285714285
 40
0.4999999999999999
 40
0.4999999999999999
 40
0.4999999999999999
 40
0.4999999999999999
 40
0.5714285714285713
 40
0.5714285714285713
 40
0.5714285714285713
 40
0.5714285714285713
 40
0.6428571428571427
 40
0.6428571428571427
 40
0.6428571428571427
 40
0.6428571428571427
 40
0.7142857142857141
 40
0.7142857142857141
 40
0.7142857142857141
 40
0.7142857142857141
 40
0.7857142857142855
 40
0.7857142857142855
 40
0.7857142857142855
 40
0.7857142857142855
 40
0.8571428571428569
 40
0.8571428571428569
 40
0.8571428571428569
 40
0.8571428571428569
 40
0.9285714285714283
 40
0.9285714285714283
 40
0.9285714285714283
 40
0.9285714285714283
 40
1.0
 40
1.0
 40
1.0
 40
1.0
 10
0.4579094488188977
 20
1.371811023622047
 30
0.0
 10
0.4579094488188977
 20
1.371811023622047
 30
0.0
 10
0.4535196850393701
 20
1.377200787401575
 30
0.0
 10
0.4535196850393701
 20
1.377200787401575
 30
0.0
 10
0.4535196850393701
 20
1.377200787401575
 30
0.0
 10
0.4646338582677165
 20
1.386255905511811
 30
0.0
 10
0.4702165354330709
 20
1.393811023622047
 30
0.0
 10
0.4702165354330709
 20
1.399893700787402
 30
0.0
 10
0.4702165354330709
 20
1.399893700787402
 30
0.0
 10
0.4702165354330709
 20
1.400586614173228
 30
0.0
 10
0.4701614173228347
 20
1.401476377952756
 30
0.0
 10
0.4700472440944882
 20
1.402503937007874
 30
0.0
 10
0.4700472440944882
 20
1.402503937007874
 30
0.0
 10
0.4691338582677165
 20
1.402114173228346
 30
0.0
 10
0.4682165354330709
 20
1.401811023622047
 30
0.0
 10
0.4673543307086615
 20
1.401614173228347
 30
0.0
 10
0.4673543307086615
 20
1.401614173228347
 30
0.0
 10
0.466492125984252
 20
1.401393700787402
 30
0.0
 10
0.4656889763779528
 20
1.401283464566929
 30
0.0
 10
0.4649094488188977
 20
1.401283464566929
 30
0.0
 10
0.4649094488188977
 20
1.401283464566929
 30
0.0
 10
0.4622992125984252
 20
1.401283464566929
 30
0.0
 10
0.4602165354330709
 20
1.402114173228346
 30
0.0
 10
0.4586614173228347
 20
1.403811023622047
 30
0.0
 10
0.4586614173228347
 20
1.403811023622047
 30
0.0
 10
0.4570748031496063
 20
1.405476377952756
 30
0.0
 10
0.4562992125984252
 20
1.407614173228347
 30
0.0
 10
0.4562992125984252
 20
1.410228346456693
 30
0.0
 10
0.4562992125984252
 20
1.410228346456693
 30
0.0
 10
0.4562992125984252
 20
1.412783464566929
 30
0.0
 10
0.457244094488189
 20
1.415003937007874
 30
0.0
 10
0.4591338582677166
 20
1.416893700787402
 30
0.0
 10
0.4591338582677166
 20
1.416893700787402
 30
0.0
 10
0.4610472440944882
 20
1.418811023622047
 30
0.0
 10
0.4633267716535433
 20
1.419755905511811
 30
0.0
 10
0.4659645669291339
 20
1.419755905511811
 30
0.0
 10
0.4659645669291339
 20
1.419755905511811
 30
0.0
 10
0.4696614173228347
 20
1.419755905511811
 30
0.0
 10
0.4728267716535433
 20
1.418283464566929
 30
0.0
 10
0.4754645669291339
 20
1.415311023622047
 30
0.0
 10
0.4754645669291339
 20
1.415311023622047
 30
0.0
 10
0.4780748031496063
 20
1.412366141732284
 30
0.0
 10
0.4794094488188976
 20
1.40855905511811
 30
0.0
 10
0.4794094488188976
 20
1.403893700787402
 30
0.0
 10
0.4794094488188976
 20
1.403893700787402
 30
0.0
 10
0.4794094488188976
 20
1.400838582677165
 30
0.0
 10
0.4787716535433071
 20
1.397641732283465
 30
0.0
 10
0.4775196850393701
 20
1.394311023622047
 30
0.0
 10
0.4775196850393701
 20
1.394311023622047
 30
0.0
 10
0.4762716535433071
 20
1.390976377952756
 30
0.0
 10
0.4744645669291339
 20
1.387893700787402
 30
0.0
 10
0.4720748031496063
 20
1.385031496062992
 30
0.0
 10
0.4720748031496063
 20
1.385031496062992
 30
0.0
 10
0.4696889763779528
 20
1.382200787401575
 30
0.0
 10
0.4649645669291339
 20
1.377783464566929
 30
0.0
 10
0.4579094488188977
 20
1.371811023622047
 30
0.0
  0
SPLINE
  5
75
330
1F
100
AcDbEntity
  8
LAYER_1
 62
   250
100
AcDbSpline
210
0.0
220
0.0
230
1.0
 70
    11
 71
     3
 72
    60
 73
    56
 74
     0
 42
0.0000000001
 43
0.0000000001
 40
0.0
 40
0.0
 40
0.0
 40
0.0
 40
0.0714285714285714
 40
0.0714285714285714
 40
0.0714285714285714
 40
0.0714285714285714
 40
0.1428571428571429
 40
0.1428571428571429
 40
0.1428571428571429
 40
0.1428571428571429
 40
0.2142857142857143
 40
0.2142857142857143
 40
0.2142857142857143
 40
0.2142857142857143
 40
0.2857142857142857
 40
0.2857142857142857
 40
0.2857142857142857
 40
0.2857142857142857
 40
0.3571428571428571
 40
0.3571428571428571
 40
0.3571428571428571
 40
0.3571428571428571
 40
0.4285714285714285
 40
0.4285714285714285
 40
0.4285714285714285
 40
0.4285714285714285
 40
0.4999999999999999
 40
0.4999999999999999
 40
0.4999999999999999
 40
0.4999999999999999
 40
0.5714285714285713
 40
0.5714285714285713
 40
0.5714285714285713
 40
0.5714285714285713
 40
0.6428571428571427
 40
0.6428571428571427
 40
0.6428571428571427
 40
0.6428571428571427
 40
0.7142857142857141
 40
0.7142857142857141
 40
0.7142857142857141
 40
0.7142857142857141
 40
0.7857142857142855
 40
0.7857142857142855
 40
0.7857142857142855
 40
0.7857142857142855
 40
0.8571428571428569
 40
0.8571428571428569
 40
0.8571428571428569
 40
0.8571428571428569
 40
0.9285714285714283
 40
0.9285714285714283
 40
0.9285714285714283
 40
0.9285714285714283
 40
1.0
 40
1.0
 40
1.0
 40
1.0
 10
0.4869645669291339
 20
1.371811023622047
 30
0.0
 10
0.4869645669291339
 20
1.371811023622047
 30
0.0
 10
0.4825748031496063
 20
1.377200787401575
 30
0.0
 10
0.4825748031496063
 20
1.377200787401575
 30
0.0
 10
0.4825748031496063
 20
1.377200787401575
 30
0.0
 10
0.4936889763779528
 20
1.386255905511811
 30
0.0
 10
0.4992716535433071
 20
1.393811023622047
 30
0.0
 10
0.4992716535433071
 20
1.399893700787402
 30
0.0
 10
0.4992716535433071
 20
1.399893700787402
 30
0.0
 10
0.4992716535433071
 20
1.400586614173228
 30
0.0
 10
0.4992165354330709
 20
1.401476377952756
 30
0.0
 10
0.4991023622047244
 20
1.402503937007874
 30
0.0
 10
0.4991023622047244
 20
1.402503937007874
 30
0.0
 10
0.4981889763779528
 20
1.402114173228346
 30
0.0
 10
0.4972716535433071
 20
1.401811023622047
 30
0.0
 10
0.4964094488188977
 20
1.401614173228347
 30
0.0
 10
0.4964094488188977
 20
1.401614173228347
 30
0.0
 10
0.4955472440944882
 20
1.401393700787402
 30
0.0
 10
0.4947165354330709
 20
1.401283464566929
 30
0.0
 10
0.4938818897637796
 20
1.401283464566929
 30
0.0
 10
0.4938818897637796
 20
1.401283464566929
 30
0.0
 10
0.4913267716535433
 20
1.401283464566929
 30
0.0
 10
0.4892716535433071
 20
1.402114173228346
 30
0.0
 10
0.4877165354330709
 20
1.403811023622047
 30
0.0
 10
0.4877165354330709
 20
1.403811023622047
 30
0.0
 10
0.4861338582677166
 20
1.405476377952756
 30
0.0
 10
0.4853543307086615
 20
1.407614173228347
 30
0.0
 10
0.4853543307086615
 20
1.410228346456693
 30
0.0
 10
0.4853543307086615
 20
1.410228346456693
 30
0.0
 10
0.4853543307086615
 20
1.412783464566929
 30
0.0
 10
0.4862992125984252
 20
1.415003937007874
 30
0.0
 10
0.4881889763779528
 20
1.416893700787402
 30
0.0
 10
0.4881889763779528
 20
1.416893700787402
 30
0.0
 10
0.4900748031496063
 20
1.418811023622047
 30
0.0
 10
0.4923818897637796
 20
1.419755905511811
 30
0.0
 10
0.4950196850393701
 20
1.419755905511811
 30
0.0
 10
0.4950196850393701
 20
1.419755905511811
 30
0.0
 10
0.4987165354330709
 20
1.419755905511811
 30
0.0
 10
0.5018818897637796
 20
1.418283464566929
 30
0.0
 10
0.5045196850393701
 20
1.415311023622047
 30
0.0
 10
0.5045196850393701
 20
1.415311023622047
 30
0.0
 10
0.5071299212598426
 20
1.412366141732284
 30
0.0
 10
0.5084645669291339
 20
1.40855905511811
 30
0.0
 10
0.5084645669291339
 20
1.403893700787402
 30
0.0
 10
0.5084645669291339
 20
1.403893700787402
 30
0.0
 10
0.5084645669291339
 20
1.400838582677165
 30
0.0
 10
0.5078267716535433
 20
1.397641732283465
 30
0.0
 10
0.5065748031496064
 20
1.394311023622047
 30
0.0
 10
0.5065748031496064
 20
1.394311023622047
 30
0.0
 10
0.5053267716535433
 20
1.390976377952756
 30
0.0
 10
0.5035196850393701
 20
1.387893700787402
 30
0.0
 10
0.5011338582677165
 20
1.385031496062992
 30
0.0
 10
0.5011338582677165
 20
1.385031496062992
 30
0.0
 10
0.498744094488189
 20
1.382200787401575
 30
0.0
 10
0.4940196850393701
 20
1.377783464566929
 30
0.0
 10
0.4869645669291339
 20
1.371811023622047
 30
0.0
  0
SPLINE
  5
76
330
1F
100
AcDbEntity
  8
LAYER_1
 62
   250
100
AcDbSpline
210
0.0
220
0.0
230
1.0
 70
    11
 71
     3
 72
   204
 73
   200
 74
     0
 42
0.0000000001
 43
0.0000000001
 40
0.0
 40
0.0
 40
0.0
 40
0.0
 40
0.02
 40
0.02
 40
0.02
 40
0.02
 40
0.04
 40
0.04
 40
0.04
 40
0.04
 40
0.06
 40
0.06
 40
0.06
 40
0.06
 40
0.08
 40
0.08
 40
0.08
 40
0.08
 40
0.1
 40
0.1
 40
0.1
 40
0.1
 40
0.12
 40
0.12
 40
0.12
 40
0.12
 40
0.14
 40
0.14
 40
0.14
 40
0.14
 40
0.16
 40
0.16
 40
0.16
 40
0.16
 40
0.18
 40
0.18
 40
0.18
 40
0.18
 40
0.2
 40
0.2
 40
0.2
 40
0.2
 40
0.22
 40
0.22
 40
0.22
 40
0.22
 40
0.24
 40
0.24
 40
0.24
 40
0.24
 40
0.26
 40
0.26
 40
0.26
 40
0.26
 40
0.28
 40
0.28
 40
0.28
 40
0.28
 40
0.3
 40
0.3
 40
0.3
 40
0.3
 40
0.32
 40
0.32
 40
0.32
 40
0.32
 40
0.34
 40
0.34
 40
0.34
 40
0.34
 40
0.36
 40
0.36
 40
0.36
 40
0.36
 40
0.3800000000000001
 40
0.3800000000000001
 40
0.3800000000000001
 40
0.3800000000000001
 40
0.4000000000000001
 40
0.4000000000000001
 40
0.4000000000000001
 40
0.4000000000000001
 40
0.4200000000000001
 40
0.4200000000000001
 40
0.4200000000000001
 40
0.4200000000000001
 40
0.4400000000000001
 40
0.4400000000000001
 40
0.4400000000000001
 40
0.4400000000000001
 40
0.4600000000000001
 40
0.4600000000000001
 40
0.4600000000000001
 40
0.4600000000000001
 40
0.4800000000000002
 40
0.4800000000000002
 40
0.4800000000000002
 40
0.4800000000000002
 40
0.5000000000000001
 40
0.5000000000000001
 40
0.5000000000000001
 40
0.5000000000000001
 40
0.5200000000000001
 40
0.5200000000000001
 40
0.5200000000000001
 40
0.5200000000000001
 40
0.5400000000000002
 40
0.5400000000000002
 40
0.5400000000000002
 40
0.5400000000000002
 40
0.5600000000000002
 40
0.5600000000000002
 40
0.5600000000000002
 40
0.5600000000000002
 40
0.5800000000000002
 40
0.5800000000000002
 40
0.5800000000000002
 40
0.5800000000000002
 40
0.6000000000000002
 40
0.6000000000000002
 40
0.6000000000000002
 40
0.6000000000000002
 40
0.6200000000000002
 40
0.6200000000000002
 40
0.6200000000000002
 40
0.6200000000000002
 40
0.6400000000000002
 40
0.6400000000000002
 40
0.6400000000000002
 40
0.6400000000000002
 40
0.6600000000000003
 40
0.6600000000000003
 40
0.6600000000000003
 40
0.6600000000000003
 40
0.6800000000000003
 40
0.6800000000000003
 40
0.6800000000000003
 40
0.6800000000000003
 40
0.7000000000000003
 40
0.7000000000000003
 40
0.7000000000000003
 40
0.7000000000000003
 40
0.7200000000000003
 40
0.7200000000000003
 40
0.7200000000000003
 40
0.7200000000000003
 40
0.7400000000000003
 40
0.7400000000000003
 40
0.7400000000000003
 40
0.7400000000000003
 40
0.7600000000000003
 40
0.7600000000000003
 40
0.7600000000000003
 40
0.7600000000000003
 40
0.7800000000000004
 40
0.7800000000000004
 40
0.7800000000000004
 40
0.7800000000000004
 40
0.8000000000000004
 40
0.8000000000000004
 40
0.8000000000000004
 40
0.8000000000000004
 40
0.8200000000000004
 40
0.8200000000000004
 40
0.8200000000000004
 40
0.8200000000000004
 40
0.8400000000000004
 40
0.8400000000000004
 40
0.8400000000000004
 40
0.8400000000000004
 40
0.8600000000000004
 40
0.8600000000000004
 40
0.8600000000000004
 40
0.8600000000000004
 40
0.8800000000000005
 40
0.8800000000000005
 40
0.8800000000000005
 40
0.8800000000000005
 40
0.9000000000000005
 40
0.9000000000000005
 40
0.9000000000000005
 40
0.9000000000000005
 40
0.9200000000000005
 40
0.9200000000000005
 40
0.9200000000000005
 40
0.9200000000000005
 40
0.9400000000000005
 40
0.9400000000000005
 40
0.9400000000000005
 40
0.9400000000000005
 40
0.9600000000000005
 40
0.9600000000000005
 40
0.9600000000000005
 40
0.9600000000000005
 40
0.9800000000000005
 40
0.9800000000000005
 40
0.9800000000000005
 40
0.9800000000000005
 40
1.0
 40
1.0
 40
1.0
 40
1.0
 10
0.5707716535433071
 20
1.378893700787402
 30
0.0
 10
0.5707716535433071
 20
1.378893700787402
 30
0.0
 10
0.6117165354330709
 20
1.378893700787402
 30
0.0
 10
0.6117165354330709
 20
1.378893700787402
 30
0.0
 10
0.6117165354330709
 20
1.378893700787402
 30
0.0
 10
0.6117165354330709
 20
1.378893700787402
 30
0.0
 10
0.6117165354330709
 20
1.37205905511811
 30
0.0
 10
0.6117165354330709
 20
1.37205905511811
 30
0.0
 10
0.6117165354330709
 20
1.37205905511811
 30
0.0
 10
0.6117165354330709
 20
1.37205905511811
 30
0.0
 10
0.6088818897637796
 20
1.37205905511811
 30
0.0
 10
0.6088818897637796
 20
1.37205905511811
 30
0.0
 10
0.6088818897637796
 20
1.37205905511811
 30
0.0
 10
0.607244094488189
 20
1.37205905511811
 30
0.0
 10
0.605744094488189
 20
1.371866141732284
 30
0.0
 10
0.6043818897637796
 20
1.371503937007874
 30
0.0
 10
0.6043818897637796
 20
1.371503937007874
 30
0.0
 10
0.6035787401574804
 20
1.371283464566929
 30
0.0
 10
0.6029094488188976
 20
1.370866141732284
 30
0.0
 10
0.6024094488188977
 20
1.370228346456693
 30
0.0
 10
0.6024094488188977
 20
1.370228346456693
 30
0.0
 10
0.6018818897637795
 20
1.369614173228346
 30
0.0
 10
0.6016338582677165
 20
1.369031496062992
 30
0.0
 10
0.6016338582677165
 20
1.368476377952756
 30
0.0
 10
0.6016338582677165
 20
1.368476377952756
 30
0.0
 10
0.6016338582677165
 20
1.367228346456693
 30
0.0
 10
0.6026614173228346
 20
1.365366141732284
 30
0.0
 10
0.6047165354330709
 20
1.362866141732284
 30
0.0
 10
0.6047165354330709
 20
1.362866141732284
 30
0.0
 10
0.6047165354330709
 20
1.362866141732284
 30
0.0
 10
0.6163543307086614
 20
1.348228346456693
 30
0.0
 10
0.6163543307086614
 20
1.348228346456693
 30
0.0
 10
0.6163543307086614
 20
1.348228346456693
 30
0.0
 10
0.6163543307086614
 20
1.348228346456693
 30
0.0
 10
0.6299370078740157
 20
1.362866141732284
 30
0.0
 10
0.6299370078740157
 20
1.362866141732284
 30
0.0
 10
0.6299370078740157
 20
1.362866141732284
 30
0.0
 10
0.6324370078740158
 20
1.365586614173229
 30
0.0
 10
0.6336889763779527
 20
1.367614173228346
 30
0.0
 10
0.6336889763779527
 20
1.368976377952756
 30
0.0
 10
0.6336889763779527
 20
1.368976377952756
 30
0.0
 10
0.6336889763779527
 20
1.369948818897638
 30
0.0
 10
0.633244094488189
 20
1.370700787401575
 30
0.0
 10
0.6323818897637795
 20
1.371255905511811
 30
0.0
 10
0.6323818897637795
 20
1.371255905511811
 30
0.0
 10
0.6315196850393701
 20
1.371783464566929
 30
0.0
 10
0.6296614173228347
 20
1.37205905511811
 30
0.0
 10
0.6267716535433071
 20
1.37205905511811
 30
0.0
 10
0.6267716535433071
 20
1.37205905511811
 30
0.0
 10
0.6267716535433071
 20
1.37205905511811
 30
0.0
 10
0.6236889763779527
 20
1.37205905511811
 30
0.0
 10
0.6236889763779527
 20
1.37205905511811
 30
0.0
 10
0.6236889763779527
 20
1.37205905511811
 30
0.0
 10
0.6236889763779527
 20
1.37205905511811
 30
0.0
 10
0.6236889763779527
 20
1.378893700787402
 30
0.0
 10
0.6236889763779527
 20
1.378893700787402
 30
0.0
 10
0.6236889763779527
 20
1.378893700787402
 30
0.0
 10
0.6236889763779527
 20
1.378893700787402
 30
0.0
 10
0.6584370078740158
 20
1.378893700787402
 30
0.0
 10
0.6584370078740158
 20
1.378893700787402
 30
0.0
 10
0.6584370078740158
 20
1.378893700787402
 30
0.0
 10
0.6584370078740158
 20
1.378893700787402
 30
0.0
 10
0.6584370078740158
 20
1.37205905511811
 30
0.0
 10
0.6584370078740158
 20
1.37205905511811
 30
0.0
 10
0.6584370078740158
 20
1.37205905511811
 30
0.0
 10
0.6550196850393701
 20
1.371893700787402
 30
0.0
 10
0.6520748031496063
 20
1.371200787401575
 30
0.0
 10
0.6496062992125985
 20
1.369948818897638
 30
0.0
 10
0.6496062992125985
 20
1.369948818897638
 30
0.0
 10
0.6471338582677165
 20
1.368700787401575
 30
0.0
 10
0.6442165354330709
 20
1.366338582677166
 30
0.0
 10
0.6408543307086615
 20
1.362866141732284
 30
0.0
 10
0.6408543307086615
 20
1.362866141732284
 30
0.0
 10
0.6408543307086615
 20
1.362866141732284
 30
0.0
 10
0.6222165354330709
 20
1.343503937007874
 30
0.0
 10
0.6222165354330709
 20
1.343503937007874
 30
0.0
 10
0.6222165354330709
 20
1.343503937007874
 30
0.0
 10
0.6222165354330709
 20
1.343503937007874
 30
0.0
 10
0.6454094488188976
 20
1.31705905511811
 30
0.0
 10
0.6454094488188976
 20
1.31705905511811
 30
0.0
 10
0.6454094488188976
 20
1.31705905511811
 30
0.0
 10
0.6454094488188976
 20
1.31705905511811
 30
0.0
 10
0.6462992125984253
 20
1.31592125984252
 30
0.0
 10
0.6462992125984253
 20
1.31592125984252
 30
0.0
 10
0.6462992125984253
 20
1.31592125984252
 30
0.0
 10
0.6485748031496064
 20
1.312976377952756
 30
0.0
 10
0.6511338582677165
 20
1.310614173228347
 30
0.0
 10
0.6539645669291339
 20
1.308838582677165
 30
0.0
 10
0.6539645669291339
 20
1.308838582677165
 30
0.0
 10
0.6555196850393701
 20
1.307811023622047
 30
0.0
 10
0.6579645669291339
 20
1.307255905511811
 30
0.0
 10
0.6612716535433071
 20
1.307200787401575
 30
0.0
 10
0.6612716535433071
 20
1.307200787401575
 30
0.0
 10
0.6612716535433071
 20
1.307200787401575
 30
0.0
 10
0.6612716535433071
 20
1.300366141732284
 30
0.0
 10
0.6612716535433071
 20
1.300366141732284
 30
0.0
 10
0.6612716535433071
 20
1.300366141732284
 30
0.0
 10
0.6612716535433071
 20
1.300366141732284
 30
0.0
 10
0.6213267716535433
 20
1.300366141732284
 30
0.0
 10
0.6213267716535433
 20
1.300366141732284
 30
0.0
 10
0.6213267716535433
 20
1.300366141732284
 30
0.0
 10
0.6213267716535433
 20
1.300366141732284
 30
0.0
 10
0.6213267716535433
 20
1.307200787401575
 30
0.0
 10
0.6213267716535433
 20
1.307200787401575
 30
0.0
 10
0.6213267716535433
 20
1.307200787401575
 30
0.0
 10
0.6213267716535433
 20
1.307200787401575
 30
0.0
 10
0.624744094488189
 20
1.307200787401575
 30
0.0
 10
0.624744094488189
 20
1.307200787401575
 30
0.0
 10
0.624744094488189
 20
1.307200787401575
 30
0.0
 10
0.6273543307086614
 20
1.307200787401575
 30
0.0
 10
0.628992125984252
 20
1.307366141732284
 30
0.0
 10
0.6297165354330709
 20
1.307700787401575
 30
0.0
 10
0.6297165354330709
 20
1.307700787401575
 30
0.0
 10
0.6308818897637796
 20
1.308228346456693
 30
0.0
 10
0.631492125984252
 20
1.309145669291339
 30
0.0
 10
0.631492125984252
 20
1.310448818897638
 30
0.0
 10
0.631492125984252
 20
1.310448818897638
 30
0.0
 10
0.631492125984252
 20
1.311645669291339
 30
0.0
 10
0.6301889763779528
 20
1.313838582677166
 30
0.0
 10
0.6275748031496063
 20
1.31705905511811
 30
0.0
 10
0.6275748031496063
 20
1.31705905511811
 30
0.0
 10
0.6275748031496063
 20
1.31705905511811
 30
0.0
 10
0.6127716535433071
 20
1.335200787401575
 30
0.0
 10
0.6127716535433071
 20
1.335200787401575
 30
0.0
 10
0.6127716535433071
 20
1.335200787401575
 30
0.0
 10
0.6127716535433071
 20
1.335200787401575
 30
0.0
 10
0.5962440944881891
 20
1.31705905511811
 30
0.0
 10
0.5962440944881891
 20
1.31705905511811
 30
0.0
 10
0.5962440944881891
 20
1.31705905511811
 30
0.0
 10
0.5962440944881891
 20
1.31705905511811
 30
0.0
 10
0.5946338582677165
 20
1.315086614173229
 30
0.0
 10
0.5946338582677165
 20
1.315086614173229
 30
0.0
 10
0.5946338582677165
 20
1.315086614173229
 30
0.0
 10
0.5946338582677165
 20
1.315086614173229
 30
0.0
 10
0.593744094488189
 20
1.314114173228347
 30
0.0
 10
0.593744094488189
 20
1.314114173228347
 30
0.0
 10
0.593744094488189
 20
1.314114173228347
 30
0.0
 10
0.5923818897637796
 20
1.312645669291339
 30
0.0
 10
0.5916889763779528
 20
1.311366141732284
 30
0.0
 10
0.5916889763779528
 20
1.310228346456693
 30
0.0
 10
0.5916889763779528
 20
1.310228346456693
 30
0.0
 10
0.5916889763779528
 20
1.309173228346457
 30
0.0
 10
0.5921062992125985
 20
1.30842125984252
 30
0.0
 10
0.5929645669291339
 20
1.30792125984252
 30
0.0
 10
0.5929645669291339
 20
1.30792125984252
 30
0.0
 10
0.5937992125984253
 20
1.307448818897638
 30
0.0
 10
0.5956889763779528
 20
1.307200787401575
 30
0.0
 10
0.5986062992125985
 20
1.307200787401575
 30
0.0
 10
0.5986062992125985
 20
1.307200787401575
 30
0.0
 10
0.5986062992125985
 20
1.307200787401575
 30
0.0
 10
0.6018818897637795
 20
1.307200787401575
 30
0.0
 10
0.6018818897637795
 20
1.307200787401575
 30
0.0
 10
0.6018818897637795
 20
1.307200787401575
 30
0.0
 10
0.6018818897637795
 20
1.307200787401575
 30
0.0
 10
0.6018818897637795
 20
1.300366141732284
 30
0.0
 10
0.6018818897637795
 20
1.300366141732284
 30
0.0
 10
0.6018818897637795
 20
1.300366141732284
 30
0.0
 10
0.6018818897637795
 20
1.300366141732284
 30
0.0
 10
0.5676062992125984
 20
1.300366141732284
 30
0.0
 10
0.5676062992125984
 20
1.300366141732284
 30
0.0
 10
0.5676062992125984
 20
1.300366141732284
 30
0.0
 10
0.5676062992125984
 20
1.300366141732284
 30
0.0
 10
0.5676062992125984
 20
1.307200787401575
 30
0.0
 10
0.5676062992125984
 20
1.307200787401575
 30
0.0
 10
0.5676062992125984
 20
1.307200787401575
 30
0.0
 10
0.5702716535433071
 20
1.307255905511811
 30
0.0
 10
0.5723543307086615
 20
1.307531496062992
 30
0.0
 10
0.5738818897637795
 20
1.30805905511811
 30
0.0
 10
0.5738818897637795
 20
1.30805905511811
 30
0.0
 10
0.5753818897637796
 20
1.30855905511811
 30
0.0
 10
0.5768543307086614
 20
1.309366141732284
 30
0.0
 10
0.5782716535433071
 20
1.310448818897638
 30
0.0
 10
0.5782716535433071
 20
1.310448818897638
 30
0.0
 10
0.5807165354330709
 20
1.31242125984252
 30
0.0
 10
0.5824645669291338
 20
1.313948818897638
 30
0.0
 10
0.5835511811023623
 20
1.315086614173229
 30
0.0
 10
0.5835511811023623
 20
1.315086614173229
 30
0.0
 10
0.5835511811023623
 20
1.315086614173229
 30
0.0
 10
0.6074094488188977
 20
1.339586614173228
 30
0.0
 10
0.6074094488188977
 20
1.339586614173228
 30
0.0
 10
0.6074094488188977
 20
1.339586614173228
 30
0.0
 10
0.6074094488188977
 20
1.339586614173228
 30
0.0
 10
0.5871338582677166
 20
1.362866141732284
 30
0.0
 10
0.5871338582677166
 20
1.362866141732284
 30
0.0
 10
0.5871338582677166
 20
1.362866141732284
 30
0.0
 10
0.5845787401574804
 20
1.365755905511811
 30
0.0
 10
0.5825787401574804
 20
1.367755905511811
 30
0.0
 10
0.5810787401574803
 20
1.36892125984252
 30
0.0
 10
0.5810787401574803
 20
1.36892125984252
 30
0.0
 10
0.5795787401574803
 20
1.370086614173228
 30
0.0
 10
0.5781338582677166
 20
1.37092125984252
 30
0.0
 10
0.5767165354330709
 20
1.371366141732284
 30
0.0
 10
0.5767165354330709
 20
1.371366141732284
 30
0.0
 10
0.5752992125984252
 20
1.371838582677165
 30
0.0
 10
0.5733267716535433
 20
1.37205905511811
 30
0.0
 10
0.5707716535433071
 20
1.37205905511811
 30
0.0
 10
0.5707716535433071
 20
1.37205905511811
 30
0.0
 10
0.5707716535433071
 20
1.37205905511811
 30
0.0
 10
0.5707716535433071
 20
1.378893700787402
 30
0.0
 10
0.5707716535433071
 20
1.378893700787402
 30
0.0
  0
SPLINE
  5
77
330
1F
100
AcDbEntity
  8
LAYER_1
 62
   250
100
AcDbSpline
210
0.0
220
0.0
230
1.0
 70
    11
 71
     3
 72
    80
 73
    76
 74
     0
 42
0.0000000001
 43
0.0000000001
 40
0.0
 40
0.0
 40
0.0
 40
0.0
 40
0.0526315789473684
 40
0.0526315789473684
 40
0.0526315789473684
 40
0.0526315789473684
 40
0.1052631578947368
 40
0.1052631578947368
 40
0.1052631578947368
 40
0.1052631578947368
 40
0.1578947368421053
 40
0.1578947368421053
 40
0.1578947368421053
 40
0.1578947368421053
 40
0.2105263157894737
 40
0.2105263157894737
 40
0.2105263157894737
 40
0.2105263157894737
 40
0.2631578947368421
 40
0.2631578947368421
 40
0.2631578947368421
 40
0.2631578947368421
 40
0.3157894736842105
 40
0.3157894736842105
 40
0.3157894736842105
 40
0.3157894736842105
 40
0.3684210526315789
 40
0.3684210526315789
 40
0.3684210526315789
 40
0.3684210526315789
 40
0.4210526315789474
 40
0.4210526315789474
 40
0.4210526315789474
 40
0.4210526315789474
 40
0.4736842105263158
 40
0.4736842105263158
 40
0.4736842105263158
 40
0.4736842105263158
 40
0.5263157894736842
 40
0.5263157894736842
 40
0.5263157894736842
 40
0.5263157894736842
 40
0.5789473684210527
 40
0.5789473684210527
 40
0.5789473684210527
 40
0.5789473684210527
 40
0.631578947368421
 40
0.631578947368421
 40
0.631578947368421
 40
0.631578947368421
 40
0.6842105263157894
 40
0.6842105263157894
 40
0.6842105263157894
 40
0.6842105263157894
 40
0.7368421052631577
 40
0.7368421052631577
 40
0.7368421052631577
 40
0.7368421052631577
 40
0.7894736842105261
 40
0.7894736842105261
 40
0.7894736842105261
 40
0.7894736842105261
 40
0.8421052631578945
 40
0.8421052631578945
 40
0.8421052631578945
 40
0.8421052631578945
 40
0.8947368421052628
 40
0.8947368421052628
 40
0.8947368421052628
 40
0.8947368421052628
 40
0.9473684210526312
 40
0.9473684210526312
 40
0.9473684210526312
 40
0.9473684210526312
 40
1.0
 40
1.0
 40
1.0
 40
1.0
 10
0.7324645669291339
 20
1.418031496062992
 30
0.0
 10
0.7324645669291339
 20
1.418031496062992
 30
0.0
 10
0.7378543307086615
 20
1.418031496062992
 30
0.0
 10
0.7378543307086615
 20
1.418031496062992
 30
0.0
 10
0.7378543307086615
 20
1.418031496062992
 30
0.0
 10
0.7378543307086615
 20
1.418031496062992
 30
0.0
 10
0.7388267716535434
 20
1.413893700787402
 30
0.0
 10
0.7388267716535434
 20
1.413893700787402
 30
0.0
 10
0.7388267716535434
 20
1.413893700787402
 30
0.0
 10
0.7388267716535434
 20
1.413893700787402
 30
0.0
 10
0.8099370078740158
 20
1.413893700787402
 30
0.0
 10
0.8099370078740158
 20
1.413893700787402
 30
0.0
 10
0.8099370078740158
 20
1.413893700787402
 30
0.0
 10
0.8099370078740158
 20
1.413893700787402
 30
0.0
 10
0.8099370078740158
 20
1.406976377952756
 30
0.0
 10
0.8099370078740158
 20
1.406976377952756
 30
0.0
 10
0.8099370078740158
 20
1.406976377952756
 30
0.0
 10
0.8014370078740157
 20
1.397141732283465
 30
0.0
 10
0.7937125984251969
 20
1.385976377952756
 30
0.0
 10
0.7867992125984252
 20
1.373393700787402
 30
0.0
 10
0.7867992125984252
 20
1.373393700787402
 30
0.0
 10
0.7798818897637796
 20
1.360838582677165
 30
0.0
 10
0.7745196850393701
 20
1.34805905511811
 30
0.0
 10
0.7707125984251969
 20
1.335031496062992
 30
0.0
 10
0.7707125984251969
 20
1.335031496062992
 30
0.0
 10
0.7679645669291338
 20
1.325645669291339
 30
0.0
 10
0.7657165354330709
 20
1.314086614173228
 30
0.0
 10
0.7639645669291338
 20
1.300366141732284
 30
0.0
 10
0.7639645669291338
 20
1.300366141732284
 30
0.0
 10
0.7639645669291338
 20
1.300366141732284
 30
0.0
 10
0.7472992125984252
 20
1.300366141732284
 30
0.0
 10
0.7472992125984252
 20
1.300366141732284
 30
0.0
 10
0.7472992125984252
 20
1.300366141732284
 30
0.0
 10
0.7489094488188977
 20
1.312476377952756
 30
0.0
 10
0.7515748031496063
 20
1.323783464566929
 30
0.0
 10
0.7552992125984253
 20
1.334311023622047
 30
0.0
 10
0.7552992125984253
 20
1.334311023622047
 30
0.0
 10
0.7590196850393701
 20
1.344838582677165
 30
0.0
 10
0.7643818897637795
 20
1.355838582677166
 30
0.0
 10
0.7714094488188976
 20
1.367311023622047
 30
0.0
 10
0.7714094488188976
 20
1.367311023622047
 30
0.0
 10
0.7784370078740158
 20
1.378783464566929
 30
0.0
 10
0.7869645669291339
 20
1.390228346456693
 30
0.0
 10
0.7970196850393702
 20
1.401669291338583
 30
0.0
 10
0.7970196850393702
 20
1.401669291338583
 30
0.0
 10
0.7970196850393702
 20
1.401669291338583
 30
0.0
 10
0.7462992125984252
 20
1.401669291338583
 30
0.0
 10
0.7462992125984252
 20
1.401669291338583
 30
0.0
 10
0.7462992125984252
 20
1.401669291338583
 30
0.0
 10
0.7426299212598425
 20
1.401669291338583
 30
0.0
 10
0.7401023622047245
 20
1.401503937007874
 30
0.0
 10
0.738744094488189
 20
1.401114173228347
 30
0.0
 10
0.738744094488189
 20
1.401114173228347
 30
0.0
 10
0.7373818897637796
 20
1.400728346456693
 30
0.0
 10
0.7363267716535433
 20
1.400141732283465
 30
0.0
 10
0.7355748031496063
 20
1.399338582677165
 30
0.0
 10
0.7355748031496063
 20
1.399338582677165
 30
0.0
 10
0.7347992125984252
 20
1.398503937007874
 30
0.0
 10
0.7341574803149606
 20
1.39705905511811
 30
0.0
 10
0.7336023622047244
 20
1.395003937007874
 30
0.0
 10
0.7336023622047244
 20
1.395003937007874
 30
0.0
 10
0.7336023622047244
 20
1.395003937007874
 30
0.0
 10
0.7332165354330709
 20
1.393476377952756
 30
0.0
 10
0.7332165354330709
 20
1.393476377952756
 30
0.0
 10
0.7332165354330709
 20
1.393476377952756
 30
0.0
 10
0.7332165354330709
 20
1.393476377952756
 30
0.0
 10
0.7304370078740158
 20
1.383866141732284
 30
0.0
 10
0.7304370078740158
 20
1.383866141732284
 30
0.0
 10
0.7304370078740158
 20
1.383866141732284
 30
0.0
 10
0.7304370078740158
 20
1.383866141732284
 30
0.0
 10
0.7235196850393701
 20
1.385338582677165
 30
0.0
 10
0.7235196850393701
 20
1.385338582677165
 30
0.0
 10
0.7235196850393701
 20
1.385338582677165
 30
0.0
 10
0.7235196850393701
 20
1.385338582677165
 30
0.0
 10
0.7324645669291339
 20
1.418031496062992
 30
0.0
 10
0.7324645669291339
 20
1.418031496062992
 30
0.0
  0
SPLINE
  5
78
330
1F
100
AcDbEntity
  8
LAYER_1
 62
   250
100
AcDbSpline
210
0.0
220
0.0
230
1.0
 70
    11
 71
     3
 72
    20
 73
    16
 74
     0
 42
0.0000000001
 43
0.0000000001
 40
0.0
 40
0.0
 40
0.0
 40
0.0
 40
0.25
 40
0.25
 40
0.25
 40
0.25
 40
0.5
 40
0.5
 40
0.5
 40
0.5
 40
0.75
 40
0.75
 40
0.75
 40
0.75
 40
1.0
 40
1.0
 40
1.0
 40
1.0
 10
0.899244094488189
 20
1.419755905511811
 30
0.0
 10
0.899244094488189
 20
1.419755905511811
 30
0.0
 10
0.8436614173228347
 20
1.26405905511811
 30
0.0
 10
0.8436614173228347
 20
1.26405905511811
 30
0.0
 10
0.8436614173228347
 20
1.26405905511811
 30
0.0
 10
0.8436614173228347
 20
1.26405905511811
 30
0.0
 10
0.8316062992125984
 20
1.26405905511811
 30
0.0
 10
0.8316062992125984
 20
1.26405905511811
 30
0.0
 10
0.8316062992125984
 20
1.26405905511811
 30
0.0
 10
0.8316062992125984
 20
1.26405905511811
 30
0.0
 10
0.8868543307086615
 20
1.419755905511811
 30
0.0
 10
0.8868543307086615
 20
1.419755905511811
 30
0.0
 10
0.8868543307086615
 20
1.419755905511811
 30
0.0
 10
0.8868543307086615
 20
1.419755905511811
 30
0.0
 10
0.899244094488189
 20
1.419755905511811
 30
0.0
 10
0.899244094488189
 20
1.419755905511811
 30
0.0
  0
SPLINE
  5
79
330
1F
100
AcDbEntity
  8
LAYER_1
 62
   250
100
AcDbSpline
210
0.0
220
0.0
230
1.0
 70
    11
 71
     3
 72
    76
 73
    72
 74
     0
 42
0.0000000001
 43
0.0000000001
 40
0.0
 40
0.0
 40
0.0
 40
0.0
 40
0.0555555555555556
 40
0.0555555555555556
 40
0.0555555555555556
 40
0.0555555555555556
 40
0.1111111111111111
 40
0.1111111111111111
 40
0.1111111111111111
 40
0.1111111111111111
 40
0.1666666666666667
 40
0.1666666666666667
 40
0.1666666666666667
 40
0.1666666666666667
 40
0.2222222222222222
 40
0.2222222222222222
 40
0.2222222222222222
 40
0.2222222222222222
 40
0.2777777777777778
 40
0.2777777777777778
 40
0.2777777777777778
 40
0.2777777777777778
 40
0.3333333333333334
 40
0.3333333333333334
 40
0.3333333333333334
 40
0.3333333333333334
 40
0.388888888888889
 40
0.388888888888889
 40
0.388888888888889
 40
0.388888888888889
 40
0.4444444444444445
 40
0.4444444444444445
 40
0.4444444444444445
 40
0.4444444444444445
 40
0.5000000000000001
 40
0.5000000000000001
 40
0.5000000000000001
 40
0.5000000000000001
 40
0.5555555555555557
 40
0.5555555555555557
 40
0.5555555555555557
 40
0.5555555555555557
 40
0.6111111111111113
 40
0.6111111111111113
 40
0.6111111111111113
 40
0.6111111111111113
 40
0.6666666666666669
 40
0.6666666666666669
 40
0.6666666666666669
 40
0.6666666666666669
 40
0.7222222222222224
 40
0.7222222222222224
 40
0.7222222222222224
 40
0.7222222222222224
 40
0.777777777777778
 40
0.777777777777778
 40
0.777777777777778
 40
0.777777777777778
 40
0.8333333333333336
 40
0.8333333333333336
 40
0.8333333333333336
 40
0.8333333333333336
 40
0.8888888888888892
 40
0.8888888888888892
 40
0.8888888888888892
 40
0.8888888888888892
 40
0.9444444444444448
 40
0.9444444444444448
 40
0.9444444444444448
 40
0.9444444444444448
 40
1.0
 40
1.0
 40
1.0
 40
1.0
 10
0.9822440944881891
 20
1.363366141732284
 30
0.0
 10
0.9886614173228346
 20
1.36092125984252
 30
0.0
 10
0.9935472440944883
 20
1.358614173228347
 30
0.0
 10
0.9969094488188977
 20
1.356448818897638
 30
0.0
 10
0.9969094488188977
 20
1.356448818897638
 30
0.0
 10
1.001826771653543
 20
1.353283464566929
 30
0.0
 10
1.005547244094488
 20
1.349586614173228
 30
0.0
 10
1.008047244094488
 20
1.345338582677165
 30
0.0
 10
1.008047244094488
 20
1.345338582677165
 30
0.0
 10
1.010547244094488
 20
1.34105905511811
 30
0.0
 10
1.011799212598425
 20
1.336448818897638
 30
0.0
 10
1.011799212598425
 20
1.331448818897638
 30
0.0
 10
1.011799212598425
 20
1.331448818897638
 30
0.0
 10
1.011799212598425
 20
1.322503937007874
 30
0.0
 10
1.007937007874016
 20
1.314755905511811
 30
0.0
 10
1.000244094488189
 20
1.308228346456693
 30
0.0
 10
1.000244094488189
 20
1.308228346456693
 30
0.0
 10
0.9925196850393702
 20
1.301673228346457
 30
0.0
 10
0.9821338582677166
 20
1.29842125984252
 30
0.0
 10
0.9690748031496064
 20
1.29842125984252
 30
0.0
 10
0.9690748031496064
 20
1.29842125984252
 30
0.0
 10
0.955244094488189
 20
1.29842125984252
 30
0.0
 10
0.9443818897637796
 20
1.302114173228347
 30
0.0
 10
0.9365196850393701
 20
1.309476377952756
 30
0.0
 10
0.9365196850393701
 20
1.309476377952756
 30
0.0
 10
0.9302716535433071
 20
1.315393700787402
 30
0.0
 10
0.9271614173228346
 20
1.322086614173228
 30
0.0
 10
0.9271614173228346
 20
1.329586614173228
 30
0.0
 10
0.9271614173228346
 20
1.329586614173228
 30
0.0
 10
0.9271614173228346
 20
1.335614173228346
 30
0.0
 10
0.9292716535433071
 20
1.341003937007874
 30
0.0
 10
0.933492125984252
 20
1.345783464566929
 30
0.0
 10
0.933492125984252
 20
1.345783464566929
 30
0.0
 10
0.9386062992125984
 20
1.351476377952756
 30
0.0
 10
0.9458818897637795
 20
1.35592125984252
 30
0.0
 10
0.9553267716535433
 20
1.359114173228347
 30
0.0
 10
0.9553267716535433
 20
1.359114173228347
 30
0.0
 10
0.9479370078740158
 20
1.362586614173228
 30
0.0
 10
0.9426338582677166
 20
1.366114173228347
 30
0.0
 10
0.9393543307086615
 20
1.369700787401575
 30
0.0
 10
0.9393543307086615
 20
1.369700787401575
 30
0.0
 10
0.9351889763779528
 20
1.37442125984252
 30
0.0
 10
0.9331062992125985
 20
1.380086614173228
 30
0.0
 10
0.9331062992125985
 20
1.386696850393701
 30
0.0
 10
0.9331062992125985
 20
1.386696850393701
 30
0.0
 10
0.9331062992125985
 20
1.394893700787402
 30
0.0
 10
0.9361889763779528
 20
1.401531496062992
 30
0.0
 10
0.9423818897637796
 20
1.40655905511811
 30
0.0
 10
0.9423818897637796
 20
1.40655905511811
 30
0.0
 10
0.9499645669291339
 20
1.412755905511811
 30
0.0
 10
0.9594645669291338
 20
1.415838582677165
 30
0.0
 10
0.9708543307086615
 20
1.415838582677165
 30
0.0
 10
0.9708543307086615
 20
1.415838582677165
 30
0.0
 10
0.9812716535433071
 20
1.415838582677165
 30
0.0
 10
0.9896889763779528
 20
1.413169291338583
 30
0.0
 10
0.9961338582677166
 20
1.407838582677165
 30
0.0
 10
0.9961338582677166
 20
1.407838582677165
 30
0.0
 10
1.002547244094488
 20
1.402476377952756
 30
0.0
 10
1.005771653543307
 20
1.396366141732284
 30
0.0
 10
1.005771653543307
 20
1.389476377952756
 30
0.0
 10
1.005771653543307
 20
1.389476377952756
 30
0.0
 10
1.005771653543307
 20
1.38605905511811
 30
0.0
 10
1.004964566929134
 20
1.382783464566929
 30
0.0
 10
1.00338188976378
 20
1.379669291338583
 30
0.0
 10
1.00338188976378
 20
1.379669291338583
 30
0.0
 10
1.001771653543307
 20
1.37655905511811
 30
0.0
 10
0.9993267716535433
 20
1.373641732283465
 30
0.0
 10
0.995992125984252
 20
1.370976377952756
 30
0.0
 10
0.995992125984252
 20
1.370976377952756
 30
0.0
 10
0.9926889763779528
 20
1.368283464566929
 30
0.0
 10
0.9881023622047245
 20
1.365755905511811
 30
0.0
 10
0.9822440944881891
 20
1.363366141732284
 30
0.0
  0
SPLINE
  5
7A
330
1F
100
AcDbEntity
  8
LAYER_1
 62
   250
100
AcDbSpline
210
0.0
220
0.0
230
1.0
 70
    11
 71
     3
 72
    48
 73
    44
 74
     0
 42
0.0000000001
 43
0.0000000001
 40
0.0
 40
0.0
 40
0.0
 40
0.0
 40
0.0909090909090909
 40
0.0909090909090909
 40
0.0909090909090909
 40
0.0909090909090909
 40
0.1818181818181818
 40
0.1818181818181818
 40
0.1818181818181818
 40
0.1818181818181818
 40
0.2727272727272727
 40
0.2727272727272727
 40
0.2727272727272727
 40
0.2727272727272727
 40
0.3636363636363637
 40
0.3636363636363637
 40
0.3636363636363637
 40
0.3636363636363637
 40
0.4545454545454546
 40
0.4545454545454546
 40
0.4545454545454546
 40
0.4545454545454546
 40
0.5454545454545455
 40
0.5454545454545455
 40
0.5454545454545455
 40
0.5454545454545455
 40
0.6363636363636365
 40
0.6363636363636365
 40
0.6363636363636365
 40
0.6363636363636365
 40
0.7272727272727274
 40
0.7272727272727274
 40
0.7272727272727274
 40
0.7272727272727274
 40
0.8181818181818183
 40
0.8181818181818183
 40
0.8181818181818183
 40
0.8181818181818183
 40
0.9090909090909093
 40
0.9090909090909093
 40
0.9090909090909093
 40
0.9090909090909093
 40
1.0
 40
1.0
 40
1.0
 40
1.0
 10
0.9748543307086615
 20
1.366366141732283
 30
0.0
 10
0.9810196850393701
 20
1.371031496062992
 30
0.0
 10
0.9850472440944882
 20
1.374283464566929
 30
0.0
 10
0.9868818897637796
 20
1.376141732283465
 30
0.0
 10
0.9868818897637796
 20
1.376141732283465
 30
0.0
 10
0.988744094488189
 20
1.377976377952756
 30
0.0
 10
0.9901614173228347
 20
1.380086614173228
 30
0.0
 10
0.9911614173228347
 20
1.382448818897638
 30
0.0
 10
0.9911614173228347
 20
1.382448818897638
 30
0.0
 10
0.9921614173228347
 20
1.384811023622047
 30
0.0
 10
0.9926614173228346
 20
1.387086614173228
 30
0.0
 10
0.9926614173228346
 20
1.389311023622047
 30
0.0
 10
0.9926614173228346
 20
1.389311023622047
 30
0.0
 10
0.9926614173228346
 20
1.392503937007874
 30
0.0
 10
0.9917165354330709
 20
1.39555905511811
 30
0.0
 10
0.9898267716535434
 20
1.398476377952756
 30
0.0
 10
0.9898267716535434
 20
1.398476377952756
 30
0.0
 10
0.9879094488188976
 20
1.401366141732284
 30
0.0
 10
0.9851338582677166
 20
1.403728346456693
 30
0.0
 10
0.9814645669291339
 20
1.405503937007874
 30
0.0
 10
0.9814645669291339
 20
1.405503937007874
 30
0.0
 10
0.9778267716535434
 20
1.407311023622047
 30
0.0
 10
0.9737165354330709
 20
1.408196850393701
 30
0.0
 10
0.9691614173228347
 20
1.408196850393701
 30
0.0
 10
0.9691614173228347
 20
1.408196850393701
 30
0.0
 10
0.9624094488188977
 20
1.408196850393701
 30
0.0
 10
0.9568267716535434
 20
1.406338582677166
 30
0.0
 10
0.9523818897637796
 20
1.402614173228347
 30
0.0
 10
0.9523818897637796
 20
1.402614173228347
 30
0.0
 10
0.9479370078740158
 20
1.398893700787402
 30
0.0
 10
0.9457165354330709
 20
1.394614173228347
 30
0.0
 10
0.9457165354330709
 20
1.389728346456693
 30
0.0
 10
0.9457165354330709
 20
1.389728346456693
 30
0.0
 10
0.9457165354330709
 20
1.385811023622047
 30
0.0
 10
0.9471062992125985
 20
1.382311023622047
 30
0.0
 10
0.9498543307086614
 20
1.379228346456693
 30
0.0
 10
0.9498543307086614
 20
1.379228346456693
 30
0.0
 10
0.9526338582677166
 20
1.376141732283465
 30
0.0
 10
0.9577716535433072
 20
1.373086614173228
 30
0.0
 10
0.9653267716535433
 20
1.370114173228347
 30
0.0
 10
0.9653267716535433
 20
1.370114173228347
 30
0.0
 10
0.9653267716535433
 20
1.370114173228347
 30
0.0
 10
0.9748543307086615
 20
1.366366141732283
 30
0.0
 10
0.9748543307086615
 20
1.366366141732283
 30
0.0
  0
SPLINE
  5
7B
330
1F
100
AcDbEntity
  8
LAYER_1
 62
   250
100
AcDbSpline
210
0.0
220
0.0
230
1.0
 70
    11
 71
     3
 72
    40
 73
    36
 74
     0
 42
0.0000000001
 43
0.0000000001
 40
0.0
 40
0.0
 40
0.0
 40
0.0
 40
0.1111111111111111
 40
0.1111111111111111
 40
0.1111111111111111
 40
0.1111111111111111
 40
0.2222222222222222
 40
0.2222222222222222
 40
0.2222222222222222
 40
0.2222222222222222
 40
0.3333333333333333
 40
0.3333333333333333
 40
0.3333333333333333
 40
0.3333333333333333
 40
0.4444444444444444
 40
0.4444444444444444
 40
0.4444444444444444
 40
0.4444444444444444
 40
0.5555555555555556
 40
0.5555555555555556
 40
0.5555555555555556
 40
0.5555555555555556
 40
0.6666666666666667
 40
0.6666666666666667
 40
0.6666666666666667
 40
0.6666666666666667
 40
0.7777777777777779
 40
0.7777777777777779
 40
0.7777777777777779
 40
0.7777777777777779
 40
0.8888888888888891
 40
0.8888888888888891
 40
0.8888888888888891
 40
0.8888888888888891
 40
1.0
 40
1.0
 40
1.0
 40
1.0
 10
0.9633818897637796
 20
1.355948818897638
 30
0.0
 10
0.9557165354330709
 20
1.352586614173228
 30
0.0
 10
0.9496614173228347
 20
1.348228346456693
 30
0.0
 10
0.9452165354330709
 20
1.342838582677165
 30
0.0
 10
0.9452165354330709
 20
1.342838582677165
 30
0.0
 10
0.941744094488189
 20
1.338614173228347
 30
0.0
 10
0.9400196850393702
 20
1.334228346456693
 30
0.0
 10
0.9400196850393702
 20
1.329673228346457
 30
0.0
 10
0.9400196850393702
 20
1.329673228346457
 30
0.0
 10
0.9400196850393702
 20
1.323476377952756
 30
0.0
 10
0.942744094488189
 20
1.317976377952756
 30
0.0
 10
0.948244094488189
 20
1.313173228346457
 30
0.0
 10
0.948244094488189
 20
1.313173228346457
 30
0.0
 10
0.9537165354330709
 20
1.308393700787402
 30
0.0
 10
0.9607992125984253
 20
1.305976377952756
 30
0.0
 10
0.9694645669291339
 20
1.305976377952756
 30
0.0
 10
0.9694645669291339
 20
1.305976377952756
 30
0.0
 10
0.9783267716535433
 20
1.305976377952756
 30
0.0
 10
0.9856889763779528
 20
1.308728346456693
 30
0.0
 10
0.9916023622047244
 20
1.314200787401575
 30
0.0
 10
0.9916023622047244
 20
1.314200787401575
 30
0.0
 10
0.9964370078740158
 20
1.318645669291339
 30
0.0
 10
0.9988543307086615
 20
1.32342125984252
 30
0.0
 10
0.9988543307086615
 20
1.328531496062992
 30
0.0
 10
0.9988543307086615
 20
1.328531496062992
 30
0.0
 10
0.9988543307086615
 20
1.332531496062992
 30
0.0
 10
0.9972716535433072
 20
1.336366141732283
 30
0.0
 10
0.9941023622047245
 20
1.340031496062992
 30
0.0
 10
0.9941023622047245
 20
1.340031496062992
 30
0.0
 10
0.9909094488188976
 20
1.343700787401575
 30
0.0
 10
0.9850196850393701
 20
1.347255905511811
 30
0.0
 10
0.9763818897637796
 20
1.350728346456693
 30
0.0
 10
0.9763818897637796
 20
1.350728346456693
 30
0.0
 10
0.9763818897637796
 20
1.350728346456693
 30
0.0
 10
0.9633818897637796
 20
1.355948818897638
 30
0.0
 10
0.9633818897637796
 20
1.355948818897638
 30
0.0
  0
SPLINE
  5
7C
330
1F
100
AcDbEntity
  8
LAYER_1
 62
   250
100
AcDbSpline
210
0.0
220
0.0
230
1.0
 70
    11
 71
     3
 72
    60
 73
    56
 74
     0
 42
0.0000000001
 43
0.0000000001
 40
0.0
 40
0.0
 40
0.0
 40
0.0
 40
0.0714285714285714
 40
0.0714285714285714
 40
0.0714285714285714
 40
0.0714285714285714
 40
0.1428571428571429
 40
0.1428571428571429
 40
0.1428571428571429
 40
0.1428571428571429
 40
0.2142857142857143
 40
0.2142857142857143
 40
0.2142857142857143
 40
0.2142857142857143
 40
0.2857142857142857
 40
0.2857142857142857
 40
0.2857142857142857
 40
0.2857142857142857
 40
0.3571428571428571
 40
0.3571428571428571
 40
0.3571428571428571
 40
0.3571428571428571
 40
0.4285714285714285
 40
0.4285714285714285
 40
0.4285714285714285
 40
0.4285714285714285
 40
0.4999999999999999
 40
0.4999999999999999
 40
0.4999999999999999
 40
0.4999999999999999
 40
0.5714285714285713
 40
0.5714285714285713
 40
0.5714285714285713
 40
0.5714285714285713
 40
0.6428571428571427
 40
0.6428571428571427
 40
0.6428571428571427
 40
0.6428571428571427
 40
0.7142857142857141
 40
0.7142857142857141
 40
0.7142857142857141
 40
0.7142857142857141
 40
0.7857142857142855
 40
0.7857142857142855
 40
0.7857142857142855
 40
0.7857142857142855
 40
0.8571428571428569
 40
0.8571428571428569
 40
0.8571428571428569
 40
0.8571428571428569
 40
0.9285714285714283
 40
0.9285714285714283
 40
0.9285714285714283
 40
0.9285714285714283
 40
1.0
 40
1.0
 40
1.0
 40
1.0
 10
1.031244094488189
 20
1.371811023622047
 30
0.0
 10
1.031244094488189
 20
1.371811023622047
 30
0.0
 10
1.026854330708662
 20
1.377200787401575
 30
0.0
 10
1.026854330708662
 20
1.377200787401575
 30
0.0
 10
1.026854330708662
 20
1.377200787401575
 30
0.0
 10
1.037968503937008
 20
1.386255905511811
 30
0.0
 10
1.043551181102362
 20
1.393811023622047
 30
0.0
 10
1.043551181102362
 20
1.399893700787402
 30
0.0
 10
1.043551181102362
 20
1.399893700787402
 30
0.0
 10
1.043551181102362
 20
1.400586614173228
 30
0.0
 10
1.043496062992126
 20
1.401476377952756
 30
0.0
 10
1.04338188976378
 20
1.402503937007874
 30
0.0
 10
1.04338188976378
 20
1.402503937007874
 30
0.0
 10
1.042468503937008
 20
1.402114173228346
 30
0.0
 10
1.041551181102362
 20
1.401811023622047
 30
0.0
 10
1.040688976377953
 20
1.401614173228347
 30
0.0
 10
1.040688976377953
 20
1.401614173228347
 30
0.0
 10
1.039826771653543
 20
1.401393700787402
 30
0.0
 10
1.039023622047244
 20
1.401283464566929
 30
0.0
 10
1.038244094488189
 20
1.401283464566929
 30
0.0
 10
1.038244094488189
 20
1.401283464566929
 30
0.0
 10
1.035633858267717
 20
1.401283464566929
 30
0.0
 10
1.033551181102362
 20
1.402114173228346
 30
0.0
 10
1.031996062992126
 20
1.403811023622047
 30
0.0
 10
1.031996062992126
 20
1.403811023622047
 30
0.0
 10
1.030409448818898
 20
1.405476377952756
 30
0.0
 10
1.029633858267717
 20
1.407614173228347
 30
0.0
 10
1.029633858267717
 20
1.410228346456693
 30
0.0
 10
1.029633858267717
 20
1.410228346456693
 30
0.0
 10
1.029633858267717
 20
1.412783464566929
 30
0.0
 10
1.03057874015748
 20
1.415003937007874
 30
0.0
 10
1.032468503937008
 20
1.416893700787402
 30
0.0
 10
1.032468503937008
 20
1.416893700787402
 30
0.0
 10
1.03438188976378
 20
1.418811023622047
 30
0.0
 10
1.036661417322835
 20
1.419755905511811
 30
0.0
 10
1.039299212598425
 20
1.419755905511811
 30
0.0
 10
1.039299212598425
 20
1.419755905511811
 30
0.0
 10
1.042996062992126
 20
1.419755905511811
 30
0.0
 10
1.046161417322835
 20
1.418283464566929
 30
0.0
 10
1.048799212598425
 20
1.415311023622047
 30
0.0
 10
1.048799212598425
 20
1.415311023622047
 30
0.0
 10
1.051409448818898
 20
1.412366141732284
 30
0.0
 10
1.052744094488189
 20
1.40855905511811
 30
0.0
 10
1.052744094488189
 20
1.403893700787402
 30
0.0
 10
1.052744094488189
 20
1.403893700787402
 30
0.0
 10
1.052744094488189
 20
1.400838582677165
 30
0.0
 10
1.052106299212599
 20
1.397641732283465
 30
0.0
 10
1.050854330708662
 20
1.394311023622047
 30
0.0
 10
1.050854330708662
 20
1.394311023622047
 30
0.0
 10
1.049606299212599
 20
1.390976377952756
 30
0.0
 10
1.047799212598425
 20
1.387893700787402
 30
0.0
 10
1.045409448818898
 20
1.385031496062992
 30
0.0
 10
1.045409448818898
 20
1.385031496062992
 30
0.0
 10
1.043023622047244
 20
1.382200787401575
 30
0.0
 10
1.038299212598425
 20
1.377783464566929
 30
0.0
 10
1.031244094488189
 20
1.371811023622047
 30
0.0
  0
SPLINE
  5
7D
330
1F
100
AcDbEntity
  8
LAYER_1
 62
   250
100
AcDbSpline
210
0.0
220
0.0
230
1.0
 70
    11
 71
     3
 72
    60
 73
    56
 74
     0
 42
0.0000000001
 43
0.0000000001
 40
0.0
 40
0.0
 40
0.0
 40
0.0
 40
0.0714285714285714
 40
0.0714285714285714
 40
0.0714285714285714
 40
0.0714285714285714
 40
0.1428571428571429
 40
0.1428571428571429
 40
0.1428571428571429
 40
0.1428571428571429
 40
0.2142857142857143
 40
0.2142857142857143
 40
0.2142857142857143
 40
0.2142857142857143
 40
0.2857142857142857
 40
0.2857142857142857
 40
0.2857142857142857
 40
0.2857142857142857
 40
0.3571428571428571
 40
0.3571428571428571
 40
0.3571428571428571
 40
0.3571428571428571
 40
0.4285714285714285
 40
0.4285714285714285
 40
0.4285714285714285
 40
0.4285714285714285
 40
0.4999999999999999
 40
0.4999999999999999
 40
0.4999999999999999
 40
0.4999999999999999
 40
0.5714285714285713
 40
0.5714285714285713
 40
0.5714285714285713
 40
0.5714285714285713
 40
0.6428571428571427
 40
0.6428571428571427
 40
0.6428571428571427
 40
0.6428571428571427
 40
0.7142857142857141
 40
0.7142857142857141
 40
0.7142857142857141
 40
0.7142857142857141
 40
0.7857142857142855
 40
0.7857142857142855
 40
0.7857142857142855
 40
0.7857142857142855
 40
0.8571428571428569
 40
0.8571428571428569
 40
0.8571428571428569
 40
0.8571428571428569
 40
0.9285714285714283
 40
0.9285714285714283
 40
0.9285714285714283
 40
0.9285714285714283
 40
1.0
 40
1.0
 40
1.0
 40
1.0
 10
1.060299212598425
 20
1.371811023622047
 30
0.0
 10
1.060299212598425
 20
1.371811023622047
 30
0.0
 10
1.055909448818898
 20
1.377200787401575
 30
0.0
 10
1.055909448818898
 20
1.377200787401575
 30
0.0
 10
1.055909448818898
 20
1.377200787401575
 30
0.0
 10
1.067023622047244
 20
1.386255905511811
 30
0.0
 10
1.072606299212598
 20
1.393811023622047
 30
0.0
 10
1.072606299212598
 20
1.399893700787402
 30
0.0
 10
1.072606299212598
 20
1.399893700787402
 30
0.0
 10
1.072606299212598
 20
1.400586614173228
 30
0.0
 10
1.072551181102362
 20
1.401476377952756
 30
0.0
 10
1.072437007874016
 20
1.402503937007874
 30
0.0
 10
1.072437007874016
 20
1.402503937007874
 30
0.0
 10
1.071523622047244
 20
1.402114173228346
 30
0.0
 10
1.070606299212598
 20
1.401811023622047
 30
0.0
 10
1.069744094488189
 20
1.401614173228347
 30
0.0
 10
1.069744094488189
 20
1.401614173228347
 30
0.0
 10
1.06888188976378
 20
1.401393700787402
 30
0.0
 10
1.068051181102362
 20
1.401283464566929
 30
0.0
 10
1.067216535433071
 20
1.401283464566929
 30
0.0
 10
1.067216535433071
 20
1.401283464566929
 30
0.0
 10
1.064661417322835
 20
1.401283464566929
 30
0.0
 10
1.062606299212598
 20
1.402114173228346
 30
0.0
 10
1.061051181102362
 20
1.403811023622047
 30
0.0
 10
1.061051181102362
 20
1.403811023622047
 30
0.0
 10
1.059468503937008
 20
1.405476377952756
 30
0.0
 10
1.058688976377953
 20
1.407614173228347
 30
0.0
 10
1.058688976377953
 20
1.410228346456693
 30
0.0
 10
1.058688976377953
 20
1.410228346456693
 30
0.0
 10
1.058688976377953
 20
1.412783464566929
 30
0.0
 10
1.059633858267717
 20
1.415003937007874
 30
0.0
 10
1.061523622047244
 20
1.416893700787402
 30
0.0
 10
1.061523622047244
 20
1.416893700787402
 30
0.0
 10
1.063409448818898
 20
1.418811023622047
 30
0.0
 10
1.065716535433071
 20
1.419755905511811
 30
0.0
 10
1.068354330708661
 20
1.419755905511811
 30
0.0
 10
1.068354330708661
 20
1.419755905511811
 30
0.0
 10
1.072051181102362
 20
1.419755905511811
 30
0.0
 10
1.075216535433071
 20
1.418283464566929
 30
0.0
 10
1.077854330708661
 20
1.415311023622047
 30
0.0
 10
1.077854330708661
 20
1.415311023622047
 30
0.0
 10
1.080464566929134
 20
1.412366141732284
 30
0.0
 10
1.081799212598425
 20
1.40855905511811
 30
0.0
 10
1.081799212598425
 20
1.403893700787402
 30
0.0
 10
1.081799212598425
 20
1.403893700787402
 30
0.0
 10
1.081799212598425
 20
1.400838582677165
 30
0.0
 10
1.081161417322835
 20
1.397641732283465
 30
0.0
 10
1.079909448818898
 20
1.394311023622047
 30
0.0
 10
1.079909448818898
 20
1.394311023622047
 30
0.0
 10
1.078661417322835
 20
1.390976377952756
 30
0.0
 10
1.076854330708662
 20
1.387893700787402
 30
0.0
 10
1.074468503937008
 20
1.385031496062992
 30
0.0
 10
1.074468503937008
 20
1.385031496062992
 30
0.0
 10
1.07207874015748
 20
1.382200787401575
 30
0.0
 10
1.067354330708662
 20
1.377783464566929
 30
0.0
 10
1.060299212598425
 20
1.371811023622047
 30
0.0
  0
ENDSEC
  0
SECTION
  2
OBJECTS
  0
DICTIONARY
  5
C
330
0
100
AcDbDictionary
  3
ACAD_GROUP
350
D
  3
ACAD_LAYOUT
350
1A
  3
ACAD_MLINESTYLE
350
17
  3
ACAD_PLOTSETTINGS
350
19
  3
ACDBHEADERROUNDTRIPXREC
350
7E
  0
DICTIONARY
  5
9E
330
29
100
AcDbDictionary
280
     1
  3
ACAD_XREC_ROUNDTRIP
360
9F
  0
DICTIONARY
  5
D
102
{ACAD_REACTORS
330
C
102
}
330
C
100
AcDbDictionary
  0
DICTIONARY
  5
1A
102
{ACAD_REACTORS
330
C
102
}
330
C
100
AcDbDictionary
  0
DICTIONARY
  5
17
102
{ACAD_REACTORS
330
C
102
}
330
C
100
AcDbDictionary
  3
STANDARD
350
18
  0
DICTIONARY
  5
19
102
{ACAD_REACTORS
330
C
102
}
330
C
100
AcDbDictionary
  0
DICTIONARY
  5
7E
102
{ACAD_REACTORS
330
C
102
}
330
C
100
AcDbDictionary
  3
CEPSNTYPE
350
87
  3
DIMSTYLEDATA
350
9D
  3
FINGERPRINTGUID
350
88
  3
HYPERLINKBASE
350
81
  3
INSUNITS
350
86
  3
LAYOUTDICT
350
83
  3
LWETCUNION
350
85
  3
PLOTSETDICT
350
84
  3
PSVPSCALE
350
8A
  3
PUCSBASE
350
8D
  3
PUCSORGBACK
350
93
  3
PUCSORGBOTTOM
350
8F
  3
PUCSORGFRONT
350
92
  3
PUCSORGLEFT
350
90
  3
PUCSORGRIGHT
350
91
  3
PUCSORGTOP
350
8E
  3
PUCSORTHOREF
350
8B
  3
PUCSORTHOVIEW
350
8C
  3
STYLESHEET
350
82
  3
TSTACKALIGN
350
7F
  3
TSTACKSIZE
350
80
  3
UCSBASE
350
96
  3
UCSORGBACK
350
9C
  3
UCSORGBOTTOM
350
98
  3
UCSORGFRONT
350
9B
  3
UCSORGLEFT
350
99
  3
UCSORGRIGHT
350
9A
  3
UCSORGTOP
350
97
  3
UCSORTHOREF
350
94
  3
UCSORTHOVIEW
350
95
  3
VERSIONGUID
350
89
  0
XRECORD
  5
9F
102
{ACAD_REACTORS
330
9E
102
}
330
9E
100
AcDbXrecord
102
UCS
 74
     0
 71
     1
 10
0.0
 20
0.0
 30
0.0
 10
1.0
 20
0.0
 30
0.0
 10
0.0
 20
1.0
 30
0.0
146
0.0
 79
     0
102
VIEW
281
     0
  0
MLINESTYLE
  5
18
102
{ACAD_REACTORS
330
17
102
}
330
17
100
AcDbMlineStyle
  2
Standard
 70
     0
  3

 62
   256
 51
90.0
 52
90.0
 71
     2
 49
0.5
 62
   256
  6
BYLAYER
 49
-0.5
 62
   256
  6
BYLAYER
  0
XRECORD
  5
87
102
{ACAD_REACTORS
330
7E
102
}
330
7E
100
AcDbXrecord
 90
        0
  0
XRECORD
  5
9D
102
{ACAD_REACTORS
330
7E
102
}
330
7E
100
AcDbXrecord
1000
DSTYLE
1002
{
1070
   340
340
11
1002
}
  0
XRECORD
  5
88
102
{ACAD_REACTORS
330
7E
102
}
330
7E
100
AcDbXrecord
  1
{FAEB1C30-E019-11D5-929B-00C0DF256EC4}
  0
XRECORD
  5
81
102
{ACAD_REACTORS
330
7E
102
}
330
7E
100
AcDbXrecord
  1

  0
XRECORD
  5
86
102
{ACAD_REACTORS
330
7E
102
}
330
7E
100
AcDbXrecord
 90
        1
  0
XRECORD
  5
83
102
{ACAD_REACTORS
330
7E
102
}
330
7E
100
AcDbXrecord
340
1A
  0
XRECORD
  5
85
102
{ACAD_REACTORS
330
7E
102
}
330
7E
100
AcDbXrecord
 90
     2560
  0
XRECORD
  5
84
102
{ACAD_REACTORS
330
7E
102
}
330
7E
100
AcDbXrecord
340
19
  0
XRECORD
  5
8A
102
{ACAD_REACTORS
330
7E
102
}
330
7E
100
AcDbXrecord
 40
0.0
  0
XRECORD
  5
8D
102
{ACAD_REACTORS
330
7E
102
}
330
7E
100
AcDbXrecord
340
0
  0
XRECORD
  5
93
102
{ACAD_REACTORS
330
7E
102
}
330
7E
100
AcDbXrecord
 10
0.0
 20
0.0
 30
0.0
  0
XRECORD
  5
8F
102
{ACAD_REACTORS
330
7E
102
}
330
7E
100
AcDbXrecord
 10
0.0
 20
0.0
 30
0.0
  0
XRECORD
  5
92
102
{ACAD_REACTORS
330
7E
102
}
330
7E
100
AcDbXrecord
 10
0.0
 20
0.0
 30
0.0
  0
XRECORD
  5
90
102
{ACAD_REACTORS
330
7E
102
}
330
7E
100
AcDbXrecord
 10
0.0
 20
0.0
 30
0.0
  0
XRECORD
  5
91
102
{ACAD_REACTORS
330
7E
102
}
330
7E
100
AcDbXrecord
 10
0.0
 20
0.0
 30
0.0
  0
XRECORD
  5
8E
102
{ACAD_REACTORS
330
7E
102
}
330
7E
100
AcDbXrecord
 10
0.0
 20
0.0
 30
0.0
  0
XRECORD
  5
8B
102
{ACAD_REACTORS
330
7E
102
}
330
7E
100
AcDbXrecord
340
0
  0
XRECORD
  5
8C
102
{ACAD_REACTORS
330
7E
102
}
330
7E
100
AcDbXrecord
 70
     0
  0
XRECORD
  5
82
102
{ACAD_REACTORS
330
7E
102
}
330
7E
100
AcDbXrecord
  1

  0
XRECORD
  5
7F
102
{ACAD_REACTORS
330
7E
102
}
330
7E
100
AcDbXrecord
 90
        1
  0
XRECORD
  5
80
102
{ACAD_REACTORS
330
7E
102
}
330
7E
100
AcDbXrecord
 90
       70
  0
XRECORD
  5
96
102
{ACAD_REACTORS
330
7E
102
}
330
7E
100
AcDbXrecord
340
0
  0
XRECORD
  5
9C
102
{ACAD_REACTORS
330
7E
102
}
330
7E
100
AcDbXrecord
 10
0.0
 20
0.0
 30
0.0
  0
XRECORD
  5
98
102
{ACAD_REACTORS
330
7E
102
}
330
7E
100
AcDbXrecord
 10
0.0
 20
0.0
 30
0.0
  0
XRECORD
  5
9B
102
{ACAD_REACTORS
330
7E
102
}
330
7E
100
AcDbXrecord
 10
0.0
 20
0.0
 30
0.0
  0
XRECORD
  5
99
102
{ACAD_REACTORS
330
7E
102
}
330
7E
100
AcDbXrecord
 10
0.0
 20
0.0
 30
0.0
  0
XRECORD
  5
9A
102
{ACAD_REACTORS
330
7E
102
}
330
7E
100
AcDbXrecord
 10
0.0
 20
0.0
 30
0.0
  0
XRECORD
  5
97
102
{ACAD_REACTORS
330
7E
102
}
330
7E
100
AcDbXrecord
 10
0.0
 20
0.0
 30
0.0
  0
XRECORD
  5
94
102
{ACAD_REACTORS
330
7E
102
}
330
7E
100
AcDbXrecord
340
0
  0
XRECORD
  5
95
102
{ACAD_REACTORS
330
7E
102
}
330
7E
100
AcDbXrecord
 70
     0
  0
XRECORD
  5
89
102
{ACAD_REACTORS
330
7E
102
}
330
7E
100
AcDbXrecord
  1
{FAEB1C32-E019-11D5-929B-00C0DF256EC4}
  0
ENDSEC
  0
EOF
