  0
SECTION
  2
HEADER
  9
$ACADVER
  1
AC1014
  9
$ACADMAINTVER
 70
     9
  9
$DWGCODEPAGE
  3
ANSI_1252
  9
$INSBASE
 10
0.0
 20
0.0
 30
0.0
  9
$EXTMIN
 10
-1.25144094488189
 20
-1.80692125984252
 30
0.0
  9
$EXTMAX
 10
0.4244015748031496
 20
3.368377952755906
 30
0.0
  9
$LIMMIN
 10
0.0
 20
0.0
  9
$LIMMAX
 10
12.0
 20
9.0
  9
$ORTHOMODE
 70
     0
  9
$REGENMODE
 70
     1
  9
$FILLMODE
 70
     1
  9
$QTEXTMODE
 70
     0
  9
$MIRRTEXT
 70
     1
  9
$DRAGMODE
 70
     2
  9
$LTSCALE
 40
1.0
  9
$OSMODE
 70
    37
  9
$ATTMODE
 70
     1
  9
$TEXTSIZE
 40
0.2
  9
$TRACEWID
 40
0.05
  9
$TEXTSTYLE
  7
STANDARD
  9
$CLAYER
  8
0
  9
$CELTYPE
  6
BYLAYER
  9
$CECOLOR
 62
   256
  9
$CELTSCALE
 40
1.0
  9
$DELOBJ
 70
     1
  9
$DISPSILH
 70
     0
  9
$DIMSCALE
 40
1.0
  9
$DIMASZ
 40
0.18
  9
$DIMEXO
 40
0.0625
  9
$DIMDLI
 40
0.38
  9
$DIMRND
 40
0.0
  9
$DIMDLE
 40
0.0
  9
$DIMEXE
 40
0.18
  9
$DIMTP
 40
0.0
  9
$DIMTM
 40
0.0
  9
$DIMTXT
 40
0.18
  9
$DIMCEN
 40
0.09
  9
$DIMTSZ
 40
0.0
  9
$DIMTOL
 70
     0
  9
$DIMLIM
 70
     0
  9
$DIMTIH
 70
     1
  9
$DIMTOH
 70
     1
  9
$DIMSE1
 70
     0
  9
$DIMSE2
 70
     0
  9
$DIMTAD
 70
     0
  9
$DIMZIN
 70
     0
  9
$DIMBLK
  1

  9
$DIMASO
 70
     1
  9
$DIMSHO
 70
     1
  9
$DIMPOST
  1

  9
$DIMAPOST
  1

  9
$DIMALT
 70
     0
  9
$DIMALTD
 70
     2
  9
$DIMALTF
 40
25.4
  9
$DIMLFAC
 40
1.0
  9
$DIMTOFL
 70
     0
  9
$DIMTVP
 40
0.0
  9
$DIMTIX
 70
     0
  9
$DIMSOXD
 70
     0
  9
$DIMSAH
 70
     0
  9
$DIMBLK1
  1

  9
$DIMBLK2
  1

  9
$DIMSTYLE
  2
STANDARD
  9
$DIMCLRD
 70
     0
  9
$DIMCLRE
 70
     0
  9
$DIMCLRT
 70
     0
  9
$DIMTFAC
 40
1.0
  9
$DIMGAP
 40
0.09
  9
$DIMJUST
 70
     0
  9
$DIMSD1
 70
     0
  9
$DIMSD2
 70
     0
  9
$DIMTOLJ
 70
     1
  9
$DIMTZIN
 70
     0
  9
$DIMALTZ
 70
     0
  9
$DIMALTTZ
 70
     0
  9
$DIMFIT
 70
     3
  9
$DIMUPT
 70
     0
  9
$DIMUNIT
 70
     2
  9
$DIMDEC
 70
     4
  9
$DIMTDEC
 70
     4
  9
$DIMALTU
 70
     2
  9
$DIMALTTD
 70
     2
  9
$DIMTXSTY
  7
STANDARD
  9
$DIMAUNIT
 70
     0
  9
$LUNITS
 70
     2
  9
$LUPREC
 70
     4
  9
$SKETCHINC
 40
0.1
  9
$FILLETRAD
 40
0.5
  9
$AUNITS
 70
     0
  9
$AUPREC
 70
     0
  9
$MENU
  1
.
  9
$ELEVATION
 40
0.0
  9
$PELEVATION
 40
0.0
  9
$THICKNESS
 40
0.0
  9
$LIMCHECK
 70
     0
  9
$CHAMFERA
 40
0.5
  9
$CHAMFERB
 40
0.5
  9
$CHAMFERC
 40
1.0
  9
$CHAMFERD
 40
0.0
  9
$SKPOLY
 70
     0
  9
$TDCREATE
 40
2454125.598460834
  9
$TDUPDATE
 40
2454125.598460845
  9
$TDINDWG
 40
0.0000000116
  9
$TDUSRTIMER
 40
0.0000000116
  9
$USRTIMER
 70
     1
  9
$ANGBASE
 50
0.0
  9
$ANGDIR
 70
     0
  9
$PDMODE
 70
     0
  9
$PDSIZE
 40
0.0
  9
$PLINEWID
 40
0.0
  9
$COORDS
 70
     1
  9
$SPLFRAME
 70
     0
  9
$SPLINETYPE
 70
     6
  9
$SPLINESEGS
 70
     8
  9
$ATTDIA
 70
     0
  9
$ATTREQ
 70
     1
  9
$HANDLING
 70
     1
  9
$HANDSEED
  5
76
  9
$SURFTAB1
 70
     6
  9
$SURFTAB2
 70
     6
  9
$SURFTYPE
 70
     6
  9
$SURFU
 70
     6
  9
$SURFV
 70
     6
  9
$UCSNAME
  2

  9
$UCSORG
 10
0.0
 20
0.0
 30
0.0
  9
$UCSXDIR
 10
1.0
 20
0.0
 30
0.0
  9
$UCSYDIR
 10
0.0
 20
1.0
 30
0.0
  9
$PUCSNAME
  2

  9
$PUCSORG
 10
0.0
 20
0.0
 30
0.0
  9
$PUCSXDIR
 10
1.0
 20
0.0
 30
0.0
  9
$PUCSYDIR
 10
0.0
 20
1.0
 30
0.0
  9
$USERI1
 70
     0
  9
$USERI2
 70
     0
  9
$USERI3
 70
     0
  9
$USERI4
 70
     0
  9
$USERI5
 70
     0
  9
$USERR1
 40
0.0
  9
$USERR2
 40
0.0
  9
$USERR3
 40
0.0
  9
$USERR4
 40
0.0
  9
$USERR5
 40
0.0
  9
$WORLDVIEW
 70
     1
  9
$SHADEDGE
 70
     3
  9
$SHADEDIF
 70
    70
  9
$TILEMODE
 70
     1
  9
$MAXACTVP
 70
    64
  9
$PINSBASE
 10
0.0
 20
0.0
 30
0.0
  9
$PLIMCHECK
 70
     0
  9
$PEXTMIN
 10
1.000000000000000E+20
 20
1.000000000000000E+20
 30
1.000000000000000E+20
  9
$PEXTMAX
 10
-1.000000000000000E+20
 20
-1.000000000000000E+20
 30
-1.000000000000000E+20
  9
$PLIMMIN
 10
0.0
 20
0.0
  9
$PLIMMAX
 10
12.0
 20
9.0
  9
$UNITMODE
 70
     0
  9
$VISRETAIN
 70
     1
  9
$PLINEGEN
 70
     0
  9
$PSLTSCALE
 70
     1
  9
$TREEDEPTH
 70
  3020
  9
$PICKSTYLE
 70
     1
  9
$CMLSTYLE
  2
STANDARD
  9
$CMLJUST
 70
     0
  9
$CMLSCALE
 40
1.0
  9
$PROXYGRAPHICS
 70
     1
  9
$MEASUREMENT
 70
     0
  0
ENDSEC
  0
SECTION
  2
CLASSES
  0
CLASS
  1
ACDBDICTIONARYWDFLT
  2
AcDbDictionaryWithDefault
  3
ObjectDBX Classes
 90
        0
280
     0
281
     0
  0
CLASS
  1
XRECORD
  2
AcDbXrecord
  3
AutoCAD 2000
 90
        0
280
     0
281
     0
  0
CLASS
  1
LWPOLYLINE
  2
AcDbPolyline
  3
AutoCAD 2000
 90
        0
280
     0
281
     1
  0
CLASS
  1
HATCH
  2
AcDbHatch
  3
AutoCAD 2000
 90
        0
280
     0
281
     1
  0
CLASS
  1
ACDBPLACEHOLDER
  2
AcDbPlaceHolder
  3
ObjectDBX Classes
 90
        0
280
     0
281
     0
  0
CLASS
  1
LAYOUT
  2
AcDbLayout
  3
ObjectDBX Classes
 90
        0
280
     0
281
     0
  0
ENDSEC
  0
SECTION
  2
TABLES
  0
TABLE
  2
VPORT
  5
8
330
0
100
AcDbSymbolTable
 70
     2
  0
VPORT
  5
29
102
{ACAD_XDICTIONARY
360
74
102
}
330
8
100
AcDbSymbolTableRecord
100
AcDbViewportTableRecord
  2
*ACTIVE
 70
     0
 10
0.0
 20
0.0
 11
1.0
 21
1.0
 12
10.42990654205607
 22
4.5
 13
0.0
 23
0.0
 14
0.5
 24
0.5
 15
0.5
 25
0.5
 16
0.0
 26
0.0
 36
1.0
 17
0.0
 27
0.0
 37
0.0
 40
9.0
 41
1.972972972850329
 42
50.0
 43
0.0
 44
0.0
 50
0.0
 51
0.0
 71
     0
 72
   100
 73
     1
 74
     3
 75
     0
 76
     0
 77
     0
 78
     0
  0
ENDTAB
  0
TABLE
  2
LTYPE
  5
5
330
0
100
AcDbSymbolTable
 70
     1
  0
LTYPE
  5
14
330
5
100
AcDbSymbolTableRecord
100
AcDbLinetypeTableRecord
  2
BYBLOCK
 70
     0
  3

 72
    65
 73
     0
 40
0.0
  0
LTYPE
  5
15
330
5
100
AcDbSymbolTableRecord
100
AcDbLinetypeTableRecord
  2
BYLAYER
 70
     0
  3

 72
    65
 73
     0
 40
0.0
  0
LTYPE
  5
16
330
5
100
AcDbSymbolTableRecord
100
AcDbLinetypeTableRecord
  2
CONTINUOUS
 70
     0
  3
Solid line
 72
    65
 73
     0
 40
0.0
  0
ENDTAB
  0
TABLE
  2
LAYER
  5
2
330
0
100
AcDbSymbolTable
 70
     2
  0
LAYER
  5
10
330
2
100
AcDbSymbolTableRecord
100
AcDbLayerTableRecord
  2
0
 70
     0
 62
     7
  6
CONTINUOUS
  0
LAYER
  5
2B
330
2
100
AcDbSymbolTableRecord
100
AcDbLayerTableRecord
  2
LAYER_1
 70
     0
 62
     7
  6
CONTINUOUS
  0
ENDTAB
  0
TABLE
  2
STYLE
  5
3
330
0
100
AcDbSymbolTable
 70
     1
  0
STYLE
  5
11
330
3
100
AcDbSymbolTableRecord
100
AcDbTextStyleTableRecord
  2
STANDARD
 70
     0
 40
0.0
 41
1.0
 50
0.0
 71
     0
 42
0.2
  3
txt
  4

  0
ENDTAB
  0
TABLE
  2
VIEW
  5
6
330
0
100
AcDbSymbolTable
 70
     0
  0
ENDTAB
  0
TABLE
  2
UCS
  5
7
330
0
100
AcDbSymbolTable
 70
     0
  0
ENDTAB
  0
TABLE
  2
APPID
  5
9
330
0
100
AcDbSymbolTable
 70
     2
  0
APPID
  5
12
330
9
100
AcDbSymbolTableRecord
100
AcDbRegAppTableRecord
  2
ACAD
 70
     0
  0
APPID
  5
2A
330
9
100
AcDbSymbolTableRecord
100
AcDbRegAppTableRecord
  2
ODA
 70
     0
  0
ENDTAB
  0
TABLE
  2
DIMSTYLE
  5
A
330
0
100
AcDbSymbolTable
 70
     1
  0
DIMSTYLE
105
27
330
A
100
AcDbSymbolTableRecord
100
AcDbDimStyleTableRecord
  2
STANDARD
 70
     0
  3

  4

  5

  6

  7

 40
1.0
 41
0.18
 42
0.0625
 43
0.38
 44
0.18
 45
0.0
 46
0.0
 47
0.0
 48
0.0
140
0.18
141
0.09
142
0.0
143
25.4
144
1.0
145
0.0
146
1.0
147
0.09
 71
     0
 72
     0
 73
     1
 74
     1
 75
     0
 76
     0
 77
     0
 78
     0
170
     0
171
     2
172
     0
173
     0
174
     0
175
     0
176
     0
177
     0
178
     0
270
     2
271
     4
272
     4
273
     2
274
     2
340
11
275
     0
280
     0
281
     0
282
     0
283
     1
284
     0
285
     0
286
     0
287
     3
288
     0
  0
ENDTAB
  0
TABLE
  2
BLOCK_RECORD
  5
1
330
0
100
AcDbSymbolTable
 70
     1
  0
BLOCK_RECORD
  5
1F
330
1
100
AcDbSymbolTableRecord
100
AcDbBlockTableRecord
  2
*MODEL_SPACE
  0
BLOCK_RECORD
  5
1B
330
1
100
AcDbSymbolTableRecord
100
AcDbBlockTableRecord
  2
*PAPER_SPACE
  0
ENDTAB
  0
ENDSEC
  0
SECTION
  2
BLOCKS
  0
BLOCK
  5
20
330
1F
100
AcDbEntity
  8
0
100
AcDbBlockBegin
  2
*MODEL_SPACE
 70
     0
 71
     0
 10
0.0
 20
0.0
 30
0.0
  3
*MODEL_SPACE
  1

  0
ENDBLK
  5
21
330
1F
100
AcDbEntity
  8
0
100
AcDbBlockEnd
  0
BLOCK
  5
1C
330
1B
100
AcDbEntity
 67
     1
  8
0
100
AcDbBlockBegin
  2
*PAPER_SPACE
 70
     0
 71
     0
 10
0.0
 20
0.0
 30
0.0
  3
*PAPER_SPACE
  1

  0
ENDBLK
  5
1D
330
1B
100
AcDbEntity
 67
     1
  8
0
100
AcDbBlockEnd
  0
ENDSEC
  0
SECTION
  2
ENTITIES
  0
SPLINE
  5
2C
330
1F
100
AcDbEntity
  8
LAYER_1
 62
   250
100
AcDbSpline
210
0.0
220
0.0
230
1.0
 70
    11
 71
     3
 72
    36
 73
    32
 74
     0
 42
0.0000000001
 43
0.0000000001
 40
0.0
 40
0.0
 40
0.0
 40
0.0
 40
0.125
 40
0.125
 40
0.125
 40
0.125
 40
0.25
 40
0.25
 40
0.25
 40
0.25
 40
0.375
 40
0.375
 40
0.375
 40
0.375
 40
0.5
 40
0.5
 40
0.5
 40
0.5
 40
0.625
 40
0.625
 40
0.625
 40
0.625
 40
0.75
 40
0.75
 40
0.75
 40
0.75
 40
0.875
 40
0.875
 40
0.875
 40
0.875
 40
1.0
 40
1.0
 40
1.0
 40
1.0
 10
-1.24994094488189
 20
1.866043307086614
 30
0.0
 10
-1.24994094488189
 20
1.866043307086614
 30
0.0
 10
-1.24994094488189
 20
3.366877952755906
 30
0.0
 10
-1.24994094488189
 20
3.366877952755906
 30
0.0
 10
-1.24994094488189
 20
3.366877952755906
 30
0.0
 10
-1.24994094488189
 20
3.366877952755906
 30
0.0
 10
-0.7499409448818898
 20
3.366877952755906
 30
0.0
 10
-0.7499409448818898
 20
3.366877952755906
 30
0.0
 10
-0.7499409448818898
 20
3.366877952755906
 30
0.0
 10
-0.7499409448818898
 20
3.366877952755906
 30
0.0
 10
-0.7499409448818898
 20
3.304377952755906
 30
0.0
 10
-0.7499409448818898
 20
3.304377952755906
 30
0.0
 10
-0.7499409448818898
 20
3.304377952755906
 30
0.0
 10
-0.456511811023622
 20
3.304661417322835
 30
0.0
 10
-0.5392165354330709
 20
3.113366141732284
 30
0.0
 10
-0.2499409448818898
 20
3.116877952755906
 30
0.0
 10
-0.2499409448818898
 20
3.116877952755906
 30
0.0
 10
-0.2499409448818898
 20
3.116877952755906
 30
0.0
 10
-0.2499409448818898
 20
2.866043307086614
 30
0.0
 10
-0.2499409448818898
 20
2.866043307086614
 30
0.0
 10
-0.2499409448818898
 20
2.866043307086614
 30
0.0
 10
-0.2499409448818898
 20
2.866043307086614
 30
0.0
 10
-0.4999409448818898
 20
2.866043307086614
 30
0.0
 10
-0.4999409448818898
 20
2.866043307086614
 30
0.0
 10
-0.4999409448818898
 20
2.866043307086614
 30
0.0
 10
-0.4999409448818898
 20
2.866043307086614
 30
0.0
 10
-0.4999409448818898
 20
1.866043307086614
 30
0.0
 10
-0.4999409448818898
 20
1.866043307086614
 30
0.0
 10
-0.4999409448818898
 20
1.866043307086614
 30
0.0
 10
-0.4999409448818898
 20
1.866043307086614
 30
0.0
 10
-1.24994094488189
 20
1.866043307086614
 30
0.0
 10
-1.24994094488189
 20
1.866043307086614
 30
0.0
  0
SPLINE
  5
2D
330
1F
100
AcDbEntity
  8
LAYER_1
 62
   250
100
AcDbSpline
210
0.0
220
0.0
230
1.0
 70
    11
 71
     3
 72
    40
 73
    36
 74
     0
 42
0.0000000001
 43
0.0000000001
 40
0.0
 40
0.0
 40
0.0
 40
0.0
 40
0.1111111111111111
 40
0.1111111111111111
 40
0.1111111111111111
 40
0.1111111111111111
 40
0.2222222222222222
 40
0.2222222222222222
 40
0.2222222222222222
 40
0.2222222222222222
 40
0.3333333333333333
 40
0.3333333333333333
 40
0.3333333333333333
 40
0.3333333333333333
 40
0.4444444444444444
 40
0.4444444444444444
 40
0.4444444444444444
 40
0.4444444444444444
 40
0.5555555555555556
 40
0.5555555555555556
 40
0.5555555555555556
 40
0.5555555555555556
 40
0.6666666666666667
 40
0.6666666666666667
 40
0.6666666666666667
 40
0.6666666666666667
 40
0.7777777777777779
 40
0.7777777777777779
 40
0.7777777777777779
 40
0.7777777777777779
 40
0.8888888888888891
 40
0.8888888888888891
 40
0.8888888888888891
 40
0.8888888888888891
 40
1.0
 40
1.0
 40
1.0
 40
1.0
 10
-0.3621456692913386
 20
-0.2998582677165355
 30
0.0
 10
-0.3621456692913386
 20
-0.2998582677165355
 30
0.0
 10
-0.3666181102362205
 20
0.6991889763779527
 30
0.0
 10
-0.3666181102362205
 20
0.6991889763779527
 30
0.0
 10
-0.3666181102362205
 20
0.6991889763779527
 30
0.0
 10
-0.3666181102362205
 20
0.6991889763779527
 30
0.0
 10
-0.1166181102362205
 20
0.6991889763779527
 30
0.0
 10
-0.1166181102362205
 20
0.6991889763779527
 30
0.0
 10
-0.1166181102362205
 20
0.6991889763779527
 30
0.0
 10
-0.1166181102362205
 20
0.6991889763779527
 30
0.0
 10
-0.1166181102362205
 20
0.9500236220472441
 30
0.0
 10
-0.1166181102362205
 20
0.9500236220472441
 30
0.0
 10
-0.1166181102362205
 20
0.9500236220472441
 30
0.0
 10
-0.4058937007874016
 20
0.946511811023622
 30
0.0
 10
-0.3231889763779527
 20
1.137807086614173
 30
0.0
 10
-0.6166181102362205
 20
1.137523622047244
 30
0.0
 10
-0.6166181102362205
 20
1.137523622047244
 30
0.0
 10
-0.6166181102362205
 20
1.137523622047244
 30
0.0
 10
-0.6166181102362205
 20
1.200023622047244
 30
0.0
 10
-0.6166181102362205
 20
1.200023622047244
 30
0.0
 10
-0.6166181102362205
 20
1.200023622047244
 30
0.0
 10
-0.6166181102362205
 20
1.200023622047244
 30
0.0
 10
-1.116618110236221
 20
1.200023622047244
 30
0.0
 10
-1.116618110236221
 20
1.200023622047244
 30
0.0
 10
-1.116618110236221
 20
1.200023622047244
 30
0.0
 10
-1.116618110236221
 20
1.200023622047244
 30
0.0
 10
-1.116618110236221
 20
-1.799976377952756
 30
0.0
 10
-1.116618110236221
 20
-1.799976377952756
 30
0.0
 10
-1.116618110236221
 20
-1.799976377952756
 30
0.0
 10
-1.116618110236221
 20
-1.799976377952756
 30
0.0
 10
-0.3621456692913386
 20
-1.799976377952756
 30
0.0
 10
-0.3621456692913386
 20
-1.799976377952756
 30
0.0
 10
-0.3621456692913386
 20
-1.799976377952756
 30
0.0
 10
-0.3621456692913386
 20
-1.799976377952756
 30
0.0
 10
-0.3621456692913386
 20
-0.2998582677165355
 30
0.0
 10
-0.3621456692913386
 20
-0.2998582677165355
 30
0.0
  0
SPLINE
  5
2E
330
1F
100
AcDbEntity
  8
LAYER_1
 62
   250
100
AcDbSpline
210
0.0
220
0.0
230
1.0
 70
    11
 71
     3
 72
   104
 73
   100
 74
     0
 42
0.0000000001
 43
0.0000000001
 40
0.0
 40
0.0
 40
0.0
 40
0.0
 40
0.04
 40
0.04
 40
0.04
 40
0.04
 40
0.08
 40
0.08
 40
0.08
 40
0.08
 40
0.12
 40
0.12
 40
0.12
 40
0.12
 40
0.16
 40
0.16
 40
0.16
 40
0.16
 40
0.2
 40
0.2
 40
0.2
 40
0.2
 40
0.24
 40
0.24
 40
0.24
 40
0.24
 40
0.28
 40
0.28
 40
0.28
 40
0.28
 40
0.32
 40
0.32
 40
0.32
 40
0.32
 40
0.36
 40
0.36
 40
0.36
 40
0.36
 40
0.4
 40
0.4
 40
0.4
 40
0.4
 40
0.44
 40
0.44
 40
0.44
 40
0.44
 40
0.4799999999999999
 40
0.4799999999999999
 40
0.4799999999999999
 40
0.4799999999999999
 40
0.5199999999999999
 40
0.5199999999999999
 40
0.5199999999999999
 40
0.5199999999999999
 40
0.5599999999999999
 40
0.5599999999999999
 40
0.5599999999999999
 40
0.5599999999999999
 40
0.6
 40
0.6
 40
0.6
 40
0.6
 40
0.64
 40
0.64
 40
0.64
 40
0.64
 40
0.6800000000000001
 40
0.6800000000000001
 40
0.6800000000000001
 40
0.6800000000000001
 40
0.7200000000000001
 40
0.7200000000000001
 40
0.7200000000000001
 40
0.7200000000000001
 40
0.7600000000000001
 40
0.7600000000000001
 40
0.7600000000000001
 40
0.7600000000000001
 40
0.8000000000000002
 40
0.8000000000000002
 40
0.8000000000000002
 40
0.8000000000000002
 40
0.8400000000000002
 40
0.8400000000000002
 40
0.8400000000000002
 40
0.8400000000000002
 40
0.8800000000000002
 40
0.8800000000000002
 40
0.8800000000000002
 40
0.8800000000000002
 40
0.9200000000000003
 40
0.9200000000000003
 40
0.9200000000000003
 40
0.9200000000000003
 40
0.9600000000000003
 40
0.9600000000000003
 40
0.9600000000000003
 40
0.9600000000000003
 40
1.0
 40
1.0
 40
1.0
 40
1.0
 10
-0.3176574803149607
 20
2.183688976377953
 30
0.0
 10
-0.3176574803149607
 20
2.183688976377953
 30
0.0
 10
-0.2636850393700788
 20
2.183688976377953
 30
0.0
 10
-0.2636850393700788
 20
2.183688976377953
 30
0.0
 10
-0.2636850393700788
 20
2.183688976377953
 30
0.0
 10
-0.2505157480314961
 20
2.183688976377953
 30
0.0
 10
-0.241488188976378
 20
2.18307874015748
 30
0.0
 10
-0.2366023622047244
 20
2.18188188976378
 30
0.0
 10
-0.2366023622047244
 20
2.18188188976378
 30
0.0
 10
-0.2293779527559055
 20
2.180161417322835
 30
0.0
 10
-0.2236850393700788
 20
2.177023622047244
 30
0.0
 10
-0.2194606299212599
 20
2.172464566929134
 30
0.0
 10
-0.2194606299212599
 20
2.172464566929134
 30
0.0
 10
-0.2152677165354331
 20
2.167909448818898
 30
0.0
 10
-0.2131574803149607
 20
2.162409448818898
 30
0.0
 10
-0.2131574803149607
 20
2.156023622047244
 30
0.0
 10
-0.2131574803149607
 20
2.156023622047244
 30
0.0
 10
-0.2131574803149607
 20
2.151409448818898
 30
0.0
 10
-0.2142677165354331
 20
2.147271653543307
 30
0.0
 10
-0.216488188976378
 20
2.143606299212598
 30
0.0
 10
-0.216488188976378
 20
2.143606299212598
 30
0.0
 10
-0.2187125984251969
 20
2.139937007874016
 30
0.0
 10
-0.2219606299212598
 20
2.136799212598425
 30
0.0
 10
-0.2261850393700788
 20
2.134216535433071
 30
0.0
 10
-0.2261850393700788
 20
2.134216535433071
 30
0.0
 10
-0.2289055118110236
 20
2.132523622047244
 30
0.0
 10
-0.2325748031496063
 20
2.13107874015748
 30
0.0
 10
-0.237240157480315
 20
2.12988188976378
 30
0.0
 10
-0.237240157480315
 20
2.12988188976378
 30
0.0
 10
-0.2313228346456693
 20
2.128799212598425
 30
0.0
 10
-0.2268228346456693
 20
2.127496062992126
 30
0.0
 10
-0.223740157480315
 20
2.125996062992126
 30
0.0
 10
-0.223740157480315
 20
2.125996062992126
 30
0.0
 10
-0.2190748031496063
 20
2.123716535433071
 30
0.0
 10
-0.2153779527559055
 20
2.120468503937008
 30
0.0
 10
-0.2126850393700787
 20
2.116216535433071
 30
0.0
 10
-0.2126850393700787
 20
2.116216535433071
 30
0.0
 10
-0.2099606299212599
 20
2.111996062992126
 30
0.0
 10
-0.2086023622047244
 20
2.107216535433071
 30
0.0
 10
-0.2086023622047244
 20
2.101909448818898
 30
0.0
 10
-0.2086023622047244
 20
2.101909448818898
 30
0.0
 10
-0.2086023622047244
 20
2.096744094488189
 30
0.0
 10
-0.2099330708661417
 20
2.091968503937008
 30
0.0
 10
-0.2126023622047244
 20
2.08757874015748
 30
0.0
 10
-0.2126023622047244
 20
2.08757874015748
 30
0.0
 10
-0.215240157480315
 20
2.083188976377953
 30
0.0
 10
-0.2190157480314961
 20
2.07957874015748
 30
0.0
 10
-0.2238503937007874
 20
2.076744094488189
 30
0.0
 10
-0.2238503937007874
 20
2.076744094488189
 30
0.0
 10
-0.2287125984251969
 20
2.07394094488189
 30
0.0
 10
-0.2343779527559055
 20
2.072133858267717
 30
0.0
 10
-0.2408228346456693
 20
2.071326771653543
 30
0.0
 10
-0.2408228346456693
 20
2.071326771653543
 30
0.0
 10
-0.2472952755905512
 20
2.070551181102363
 30
0.0
 10
-0.2539330708661418
 20
2.070161417322835
 30
0.0
 10
-0.2607677165354331
 20
2.070161417322835
 30
0.0
 10
-0.2607677165354331
 20
2.070161417322835
 30
0.0
 10
-0.2607677165354331
 20
2.070161417322835
 30
0.0
 10
-0.3176574803149607
 20
2.070161417322835
 30
0.0
 10
-0.3176574803149607
 20
2.070161417322835
 30
0.0
 10
-0.3176574803149607
 20
2.070161417322835
 30
0.0
 10
-0.3176574803149607
 20
2.070161417322835
 30
0.0
 10
-0.3176574803149607
 20
2.076996062992126
 30
0.0
 10
-0.3176574803149607
 20
2.076996062992126
 30
0.0
 10
-0.3176574803149607
 20
2.076996062992126
 30
0.0
 10
-0.3176574803149607
 20
2.076996062992126
 30
0.0
 10
-0.3138228346456693
 20
2.076996062992126
 30
0.0
 10
-0.3138228346456693
 20
2.076996062992126
 30
0.0
 10
-0.3138228346456693
 20
2.076996062992126
 30
0.0
 10
-0.3101259842519685
 20
2.076996062992126
 30
0.0
 10
-0.3076259842519685
 20
2.077578740157481
 30
0.0
 10
-0.3062677165354331
 20
2.078716535433071
 30
0.0
 10
-0.3062677165354331
 20
2.078716535433071
 30
0.0
 10
-0.3042952755905512
 20
2.080271653543307
 30
0.0
 10
-0.3033228346456693
 20
2.08288188976378
 30
0.0
 10
-0.3033228346456693
 20
2.086523622047244
 30
0.0
 10
-0.3033228346456693
 20
2.086523622047244
 30
0.0
 10
-0.3033228346456693
 20
2.086523622047244
 30
0.0
 10
-0.3033228346456693
 20
2.16538188976378
 30
0.0
 10
-0.3033228346456693
 20
2.16538188976378
 30
0.0
 10
-0.3033228346456693
 20
2.16538188976378
 30
0.0
 10
-0.3033228346456693
 20
2.169078740157481
 30
0.0
 10
-0.3036259842519685
 20
2.17157874015748
 30
0.0
 10
-0.3042125984251969
 20
2.172937007874016
 30
0.0
 10
-0.3042125984251969
 20
2.172937007874016
 30
0.0
 10
-0.3048228346456693
 20
2.174299212598425
 30
0.0
 10
-0.3057125984251969
 20
2.175271653543307
 30
0.0
 10
-0.3069055118110237
 20
2.17588188976378
 30
0.0
 10
-0.3069055118110237
 20
2.17588188976378
 30
0.0
 10
-0.3080984251968504
 20
2.176464566929134
 30
0.0
 10
-0.3104055118110237
 20
2.176771653543307
 30
0.0
 10
-0.3138228346456693
 20
2.176771653543307
 30
0.0
 10
-0.3138228346456693
 20
2.176771653543307
 30
0.0
 10
-0.3138228346456693
 20
2.176771653543307
 30
0.0
 10
-0.3176574803149607
 20
2.176771653543307
 30
0.0
 10
-0.3176574803149607
 20
2.176771653543307
 30
0.0
 10
-0.3176574803149607
 20
2.176771653543307
 30
0.0
 10
-0.3176574803149607
 20
2.176771653543307
 30
0.0
 10
-0.3176574803149607
 20
2.183688976377953
 30
0.0
 10
-0.3176574803149607
 20
2.183688976377953
 30
0.0
  0
SPLINE
  5
2F
330
1F
100
AcDbEntity
  8
LAYER_1
 62
   250
100
AcDbSpline
210
0.0
220
0.0
230
1.0
 70
    11
 71
     3
 72
    40
 73
    36
 74
     0
 42
0.0000000001
 43
0.0000000001
 40
0.0
 40
0.0
 40
0.0
 40
0.0
 40
0.1111111111111111
 40
0.1111111111111111
 40
0.1111111111111111
 40
0.1111111111111111
 40
0.2222222222222222
 40
0.2222222222222222
 40
0.2222222222222222
 40
0.2222222222222222
 40
0.3333333333333333
 40
0.3333333333333333
 40
0.3333333333333333
 40
0.3333333333333333
 40
0.4444444444444444
 40
0.4444444444444444
 40
0.4444444444444444
 40
0.4444444444444444
 40
0.5555555555555556
 40
0.5555555555555556
 40
0.5555555555555556
 40
0.5555555555555556
 40
0.6666666666666667
 40
0.6666666666666667
 40
0.6666666666666667
 40
0.6666666666666667
 40
0.7777777777777779
 40
0.7777777777777779
 40
0.7777777777777779
 40
0.7777777777777779
 40
0.8888888888888891
 40
0.8888888888888891
 40
0.8888888888888891
 40
0.8888888888888891
 40
1.0
 40
1.0
 40
1.0
 40
1.0
 10
-0.2880984251968504
 20
2.174661417322835
 30
0.0
 10
-0.2880984251968504
 20
2.174661417322835
 30
0.0
 10
-0.2880984251968504
 20
2.13307874015748
 30
0.0
 10
-0.2880984251968504
 20
2.13307874015748
 30
0.0
 10
-0.2880984251968504
 20
2.13307874015748
 30
0.0
 10
-0.2880984251968504
 20
2.13307874015748
 30
0.0
 10
-0.2673503937007874
 20
2.13307874015748
 30
0.0
 10
-0.2673503937007874
 20
2.13307874015748
 30
0.0
 10
-0.2673503937007874
 20
2.13307874015748
 30
0.0
 10
-0.2576574803149607
 20
2.13307874015748
 30
0.0
 10
-0.250988188976378
 20
2.133523622047244
 30
0.0
 10
-0.2474330708661418
 20
2.134437007874016
 30
0.0
 10
-0.2474330708661418
 20
2.134437007874016
 30
0.0
 10
-0.2418228346456693
 20
2.135909448818898
 30
0.0
 10
-0.2375748031496063
 20
2.138409448818898
 30
0.0
 10
-0.2346023622047244
 20
2.141937007874016
 30
0.0
 10
-0.2346023622047244
 20
2.141937007874016
 30
0.0
 10
-0.2316574803149606
 20
2.145464566929134
 30
0.0
 10
-0.2301574803149606
 20
2.149996062992126
 30
0.0
 10
-0.2301574803149606
 20
2.155523622047244
 30
0.0
 10
-0.2301574803149606
 20
2.155523622047244
 30
0.0
 10
-0.2301574803149606
 20
2.160188976377953
 30
0.0
 10
-0.2315157480314961
 20
2.164078740157481
 30
0.0
 10
-0.2341850393700788
 20
2.167216535433071
 30
0.0
 10
-0.2341850393700788
 20
2.167216535433071
 30
0.0
 10
-0.2368779527559055
 20
2.170326771653544
 30
0.0
 10
-0.240488188976378
 20
2.172464566929134
 30
0.0
 10
-0.244988188976378
 20
2.173606299212599
 30
0.0
 10
-0.244988188976378
 20
2.173606299212599
 30
0.0
 10
-0.2479055118110236
 20
2.174299212598425
 30
0.0
 10
-0.253988188976378
 20
2.174661417322835
 30
0.0
 10
-0.2632125984251968
 20
2.174661417322835
 30
0.0
 10
-0.2632125984251968
 20
2.174661417322835
 30
0.0
 10
-0.2632125984251968
 20
2.174661417322835
 30
0.0
 10
-0.2880984251968504
 20
2.174661417322835
 30
0.0
 10
-0.2880984251968504
 20
2.174661417322835
 30
0.0
  0
SPLINE
  5
30
330
1F
100
AcDbEntity
  8
LAYER_1
 62
   250
100
AcDbSpline
210
0.0
220
0.0
230
1.0
 70
    11
 71
     3
 72
    52
 73
    48
 74
     0
 42
0.0000000001
 43
0.0000000001
 40
0.0
 40
0.0
 40
0.0
 40
0.0
 40
0.0833333333333333
 40
0.0833333333333333
 40
0.0833333333333333
 40
0.0833333333333333
 40
0.1666666666666667
 40
0.1666666666666667
 40
0.1666666666666667
 40
0.1666666666666667
 40
0.25
 40
0.25
 40
0.25
 40
0.25
 40
0.3333333333333333
 40
0.3333333333333333
 40
0.3333333333333333
 40
0.3333333333333333
 40
0.4166666666666666
 40
0.4166666666666666
 40
0.4166666666666666
 40
0.4166666666666666
 40
0.4999999999999999
 40
0.4999999999999999
 40
0.4999999999999999
 40
0.4999999999999999
 40
0.5833333333333333
 40
0.5833333333333333
 40
0.5833333333333333
 40
0.5833333333333333
 40
0.6666666666666666
 40
0.6666666666666666
 40
0.6666666666666666
 40
0.6666666666666666
 40
0.75
 40
0.75
 40
0.75
 40
0.75
 40
0.8333333333333334
 40
0.8333333333333334
 40
0.8333333333333334
 40
0.8333333333333334
 40
0.9166666666666667
 40
0.9166666666666667
 40
0.9166666666666667
 40
0.9166666666666667
 40
1.0
 40
1.0
 40
1.0
 40
1.0
 10
-0.2880984251968504
 20
2.125244094488189
 30
0.0
 10
-0.2880984251968504
 20
2.125244094488189
 30
0.0
 10
-0.2880984251968504
 20
2.087996062992126
 30
0.0
 10
-0.2880984251968504
 20
2.087996062992126
 30
0.0
 10
-0.2880984251968504
 20
2.087996062992126
 30
0.0
 10
-0.2880984251968504
 20
2.084244094488189
 30
0.0
 10
-0.2879330708661417
 20
2.082023622047244
 30
0.0
 10
-0.2876299212598426
 20
2.081299212598425
 30
0.0
 10
-0.2876299212598426
 20
2.081299212598425
 30
0.0
 10
-0.2871850393700788
 20
2.080326771653543
 30
0.0
 10
-0.2863228346456693
 20
2.079661417322835
 30
0.0
 10
-0.2850157480314961
 20
2.079271653543307
 30
0.0
 10
-0.2850157480314961
 20
2.079271653543307
 30
0.0
 10
-0.2840984251968504
 20
2.078996062992126
 30
0.0
 10
-0.281488188976378
 20
2.078854330708662
 30
0.0
 10
-0.2772125984251969
 20
2.078854330708662
 30
0.0
 10
-0.2772125984251969
 20
2.078854330708662
 30
0.0
 10
-0.2772125984251969
 20
2.078854330708662
 30
0.0
 10
-0.2661299212598425
 20
2.078854330708662
 30
0.0
 10
-0.2661299212598425
 20
2.078854330708662
 30
0.0
 10
-0.2661299212598425
 20
2.078854330708662
 30
0.0
 10
-0.2551850393700788
 20
2.078854330708662
 30
0.0
 10
-0.2473503937007874
 20
2.079468503937008
 30
0.0
 10
-0.2426574803149607
 20
2.080688976377953
 30
0.0
 10
-0.2426574803149607
 20
2.080688976377953
 30
0.0
 10
-0.2379606299212599
 20
2.081909448818898
 30
0.0
 10
-0.2339606299212599
 20
2.084496062992126
 30
0.0
 10
-0.2306574803149606
 20
2.08844094488189
 30
0.0
 10
-0.2306574803149606
 20
2.08844094488189
 30
0.0
 10
-0.2273503937007874
 20
2.092354330708662
 30
0.0
 10
-0.2256850393700788
 20
2.097106299212598
 30
0.0
 10
-0.2256850393700788
 20
2.102633858267716
 30
0.0
 10
-0.2256850393700788
 20
2.102633858267716
 30
0.0
 10
-0.2256850393700788
 20
2.107299212598425
 30
0.0
 10
-0.2270433070866142
 20
2.111437007874016
 30
0.0
 10
-0.2297125984251969
 20
2.115051181102362
 30
0.0
 10
-0.2297125984251969
 20
2.115051181102362
 30
0.0
 10
-0.2324055118110236
 20
2.118661417322835
 30
0.0
 10
-0.2361299212598425
 20
2.121244094488189
 30
0.0
 10
-0.2408779527559055
 20
2.122854330708662
 30
0.0
 10
-0.2408779527559055
 20
2.122854330708662
 30
0.0
 10
-0.2456299212598425
 20
2.124468503937008
 30
0.0
 10
-0.2540433070866142
 20
2.125244094488189
 30
0.0
 10
-0.2661299212598425
 20
2.125244094488189
 30
0.0
 10
-0.2661299212598425
 20
2.125244094488189
 30
0.0
 10
-0.2661299212598425
 20
2.125244094488189
 30
0.0
 10
-0.2880984251968504
 20
2.125244094488189
 30
0.0
 10
-0.2880984251968504
 20
2.125244094488189
 30
0.0
  0
SPLINE
  5
31
330
1F
100
AcDbEntity
  8
LAYER_1
 62
   250
100
AcDbSpline
210
0.0
220
0.0
230
1.0
 70
    11
 71
     3
 72
   112
 73
   108
 74
     0
 42
0.0000000001
 43
0.0000000001
 40
0.0
 40
0.0
 40
0.0
 40
0.0
 40
0.037037037037037
 40
0.037037037037037
 40
0.037037037037037
 40
0.037037037037037
 40
0.0740740740740741
 40
0.0740740740740741
 40
0.0740740740740741
 40
0.0740740740740741
 40
0.1111111111111111
 40
0.1111111111111111
 40
0.1111111111111111
 40
0.1111111111111111
 40
0.1481481481481481
 40
0.1481481481481481
 40
0.1481481481481481
 40
0.1481481481481481
 40
0.1851851851851852
 40
0.1851851851851852
 40
0.1851851851851852
 40
0.1851851851851852
 40
0.2222222222222222
 40
0.2222222222222222
 40
0.2222222222222222
 40
0.2222222222222222
 40
0.2592592592592592
 40
0.2592592592592592
 40
0.2592592592592592
 40
0.2592592592592592
 40
0.2962962962962963
 40
0.2962962962962963
 40
0.2962962962962963
 40
0.2962962962962963
 40
0.3333333333333333
 40
0.3333333333333333
 40
0.3333333333333333
 40
0.3333333333333333
 40
0.3703703703703704
 40
0.3703703703703704
 40
0.3703703703703704
 40
0.3703703703703704
 40
0.4074074074074074
 40
0.4074074074074074
 40
0.4074074074074074
 40
0.4074074074074074
 40
0.4444444444444444
 40
0.4444444444444444
 40
0.4444444444444444
 40
0.4444444444444444
 40
0.4814814814814815
 40
0.4814814814814815
 40
0.4814814814814815
 40
0.4814814814814815
 40
0.5185185185185185
 40
0.5185185185185185
 40
0.5185185185185185
 40
0.5185185185185185
 40
0.5555555555555556
 40
0.5555555555555556
 40
0.5555555555555556
 40
0.5555555555555556
 40
0.5925925925925926
 40
0.5925925925925926
 40
0.5925925925925926
 40
0.5925925925925926
 40
0.6296296296296295
 40
0.6296296296296295
 40
0.6296296296296295
 40
0.6296296296296295
 40
0.6666666666666665
 40
0.6666666666666665
 40
0.6666666666666665
 40
0.6666666666666665
 40
0.7037037037037035
 40
0.7037037037037035
 40
0.7037037037037035
 40
0.7037037037037035
 40
0.7407407407407405
 40
0.7407407407407405
 40
0.7407407407407405
 40
0.7407407407407405
 40
0.7777777777777775
 40
0.7777777777777775
 40
0.7777777777777775
 40
0.7777777777777775
 40
0.8148148148148144
 40
0.8148148148148144
 40
0.8148148148148144
 40
0.8148148148148144
 40
0.8518518518518514
 40
0.8518518518518514
 40
0.8518518518518514
 40
0.8518518518518514
 40
0.8888888888888884
 40
0.8888888888888884
 40
0.8888888888888884
 40
0.8888888888888884
 40
0.9259259259259254
 40
0.9259259259259254
 40
0.9259259259259254
 40
0.9259259259259254
 40
0.9629629629629624
 40
0.9629629629629624
 40
0.9629629629629624
 40
0.9629629629629624
 40
1.0
 40
1.0
 40
1.0
 40
1.0
 10
-0.150992125984252
 20
2.183688976377953
 30
0.0
 10
-0.150992125984252
 20
2.183688976377953
 30
0.0
 10
-0.1375748031496063
 20
2.183688976377953
 30
0.0
 10
-0.1375748031496063
 20
2.183688976377953
 30
0.0
 10
-0.1375748031496063
 20
2.183688976377953
 30
0.0
 10
-0.1375748031496063
 20
2.183688976377953
 30
0.0
 10
-0.1023267716535433
 20
2.088799212598425
 30
0.0
 10
-0.1023267716535433
 20
2.088799212598425
 30
0.0
 10
-0.1023267716535433
 20
2.088799212598425
 30
0.0
 10
-0.1006023622047244
 20
2.084023622047244
 30
0.0
 10
-0.0988543307086614
 20
2.080854330708661
 30
0.0
 10
-0.0970748031496063
 20
2.079326771653543
 30
0.0
 10
-0.0970748031496063
 20
2.079326771653543
 30
0.0
 10
-0.0953267716535433
 20
2.077771653543307
 30
0.0
 10
-0.0929370078740158
 20
2.076996062992126
 30
0.0
 10
-0.0899645669291339
 20
2.076996062992126
 30
0.0
 10
-0.0899645669291339
 20
2.076996062992126
 30
0.0
 10
-0.0899645669291339
 20
2.076996062992126
 30
0.0
 10
-0.0881850393700787
 20
2.076996062992126
 30
0.0
 10
-0.0881850393700787
 20
2.076996062992126
 30
0.0
 10
-0.0881850393700787
 20
2.076996062992126
 30
0.0
 10
-0.0881850393700787
 20
2.076996062992126
 30
0.0
 10
-0.0881850393700787
 20
2.070161417322835
 30
0.0
 10
-0.0881850393700787
 20
2.070161417322835
 30
0.0
 10
-0.0881850393700787
 20
2.070161417322835
 30
0.0
 10
-0.0881850393700787
 20
2.070161417322835
 30
0.0
 10
-0.1286299212598425
 20
2.070161417322835
 30
0.0
 10
-0.1286299212598425
 20
2.070161417322835
 30
0.0
 10
-0.1286299212598425
 20
2.070161417322835
 30
0.0
 10
-0.1286299212598425
 20
2.070161417322835
 30
0.0
 10
-0.1286299212598425
 20
2.076996062992126
 30
0.0
 10
-0.1286299212598425
 20
2.076996062992126
 30
0.0
 10
-0.1286299212598425
 20
2.076996062992126
 30
0.0
 10
-0.1273267716535433
 20
2.077106299212598
 30
0.0
 10
-0.1260472440944882
 20
2.077161417322835
 30
0.0
 10
-0.1247952755905512
 20
2.077161417322835
 30
0.0
 10
-0.1247952755905512
 20
2.077161417322835
 30
0.0
 10
-0.1221850393700787
 20
2.077161417322835
 30
0.0
 10
-0.120492125984252
 20
2.07744094488189
 30
0.0
 10
-0.1196574803149606
 20
2.077968503937008
 30
0.0
 10
-0.1196574803149606
 20
2.077968503937008
 30
0.0
 10
-0.1181023622047244
 20
2.078996062992126
 30
0.0
 10
-0.1172992125984252
 20
2.080299212598425
 30
0.0
 10
-0.1172992125984252
 20
2.08188188976378
 30
0.0
 10
-0.1172992125984252
 20
2.08188188976378
 30
0.0
 10
-0.1172992125984252
 20
2.083023622047244
 30
0.0
 10
-0.1180748031496063
 20
2.085799212598425
 30
0.0
 10
-0.1195748031496063
 20
2.090271653543307
 30
0.0
 10
-0.1195748031496063
 20
2.090271653543307
 30
0.0
 10
-0.1195748031496063
 20
2.090271653543307
 30
0.0
 10
-0.1270748031496063
 20
2.112244094488189
 30
0.0
 10
-0.1270748031496063
 20
2.112244094488189
 30
0.0
 10
-0.1270748031496063
 20
2.112244094488189
 30
0.0
 10
-0.1270748031496063
 20
2.112244094488189
 30
0.0
 10
-0.168240157480315
 20
2.112244094488189
 30
0.0
 10
-0.168240157480315
 20
2.112244094488189
 30
0.0
 10
-0.168240157480315
 20
2.112244094488189
 30
0.0
 10
-0.168240157480315
 20
2.112244094488189
 30
0.0
 10
-0.1770472440944882
 20
2.087661417322835
 30
0.0
 10
-0.1770472440944882
 20
2.087661417322835
 30
0.0
 10
-0.1770472440944882
 20
2.087661417322835
 30
0.0
 10
-0.1779645669291339
 20
2.085106299212598
 30
0.0
 10
-0.1784370078740158
 20
2.083354330708662
 30
0.0
 10
-0.1784370078740158
 20
2.082354330708661
 30
0.0
 10
-0.1784370078740158
 20
2.082354330708661
 30
0.0
 10
-0.1784370078740158
 20
2.081271653543307
 30
0.0
 10
-0.1781299212598425
 20
2.080326771653543
 30
0.0
 10
-0.1775748031496063
 20
2.079523622047244
 30
0.0
 10
-0.1775748031496063
 20
2.079523622047244
 30
0.0
 10
-0.176992125984252
 20
2.078716535433071
 30
0.0
 10
-0.176240157480315
 20
2.078106299212599
 30
0.0
 10
-0.175240157480315
 20
2.077688976377953
 30
0.0
 10
-0.175240157480315
 20
2.077688976377953
 30
0.0
 10
-0.1742677165354331
 20
2.077271653543307
 30
0.0
 10
-0.1727125984251968
 20
2.07707874015748
 30
0.0
 10
-0.1705196850393701
 20
2.07707874015748
 30
0.0
 10
-0.1705196850393701
 20
2.07707874015748
 30
0.0
 10
-0.1690748031496063
 20
2.07707874015748
 30
0.0
 10
-0.1678818897637796
 20
2.077051181102362
 30
0.0
 10
-0.1669645669291339
 20
2.076996062992126
 30
0.0
 10
-0.1669645669291339
 20
2.076996062992126
 30
0.0
 10
-0.1669645669291339
 20
2.076996062992126
 30
0.0
 10
-0.1669645669291339
 20
2.070161417322835
 30
0.0
 10
-0.1669645669291339
 20
2.070161417322835
 30
0.0
 10
-0.1669645669291339
 20
2.070161417322835
 30
0.0
 10
-0.1669645669291339
 20
2.070161417322835
 30
0.0
 10
-0.2008818897637796
 20
2.070161417322835
 30
0.0
 10
-0.2008818897637796
 20
2.070161417322835
 30
0.0
 10
-0.2008818897637796
 20
2.070161417322835
 30
0.0
 10
-0.2008818897637796
 20
2.070161417322835
 30
0.0
 10
-0.2008818897637796
 20
2.076996062992126
 30
0.0
 10
-0.2008818897637796
 20
2.076996062992126
 30
0.0
 10
-0.2008818897637796
 20
2.076996062992126
 30
0.0
 10
-0.197740157480315
 20
2.076996062992126
 30
0.0
 10
-0.1954645669291339
 20
2.077299212598425
 30
0.0
 10
-0.1941023622047244
 20
2.07794094488189
 30
0.0
 10
-0.1941023622047244
 20
2.07794094488189
 30
0.0
 10
-0.1927125984251969
 20
2.078551181102363
 30
0.0
 10
-0.191492125984252
 20
2.079551181102362
 30
0.0
 10
-0.1904645669291339
 20
2.08094094488189
 30
0.0
 10
-0.1904645669291339
 20
2.08094094488189
 30
0.0
 10
-0.1894370078740158
 20
2.082326771653543
 30
0.0
 10
-0.1880748031496063
 20
2.085244094488189
 30
0.0
 10
-0.1864094488188977
 20
2.089688976377953
 30
0.0
 10
-0.1864094488188977
 20
2.089688976377953
 30
0.0
 10
-0.1864094488188977
 20
2.089688976377953
 30
0.0
 10
-0.150992125984252
 20
2.183688976377953
 30
0.0
 10
-0.150992125984252
 20
2.183688976377953
 30
0.0
  0
SPLINE
  5
32
330
1F
100
AcDbEntity
  8
LAYER_1
 62
   250
100
AcDbSpline
210
0.0
220
0.0
230
1.0
 70
    11
 71
     3
 72
    16
 73
    12
 74
     0
 42
0.0000000001
 43
0.0000000001
 40
0.0
 40
0.0
 40
0.0
 40
0.0
 40
0.3333333333333333
 40
0.3333333333333333
 40
0.3333333333333333
 40
0.3333333333333333
 40
0.6666666666666666
 40
0.6666666666666666
 40
0.6666666666666666
 40
0.6666666666666666
 40
1.0
 40
1.0
 40
1.0
 40
1.0
 10
-0.165240157480315
 20
2.120216535433071
 30
0.0
 10
-0.165240157480315
 20
2.120216535433071
 30
0.0
 10
-0.1301574803149606
 20
2.120216535433071
 30
0.0
 10
-0.1301574803149606
 20
2.120216535433071
 30
0.0
 10
-0.1301574803149606
 20
2.120216535433071
 30
0.0
 10
-0.1301574803149606
 20
2.120216535433071
 30
0.0
 10
-0.147740157480315
 20
2.169051181102363
 30
0.0
 10
-0.147740157480315
 20
2.169051181102363
 30
0.0
 10
-0.147740157480315
 20
2.169051181102363
 30
0.0
 10
-0.147740157480315
 20
2.169051181102363
 30
0.0
 10
-0.165240157480315
 20
2.120216535433071
 30
0.0
 10
-0.165240157480315
 20
2.120216535433071
 30
0.0
  0
SPLINE
  5
33
330
1F
100
AcDbEntity
  8
LAYER_1
 62
   250
100
AcDbSpline
210
0.0
220
0.0
230
1.0
 70
    11
 71
     3
 72
    72
 73
    68
 74
     0
 42
0.0000000001
 43
0.0000000001
 40
0.0
 40
0.0
 40
0.0
 40
0.0
 40
0.0588235294117647
 40
0.0588235294117647
 40
0.0588235294117647
 40
0.0588235294117647
 40
0.1176470588235294
 40
0.1176470588235294
 40
0.1176470588235294
 40
0.1176470588235294
 40
0.1764705882352941
 40
0.1764705882352941
 40
0.1764705882352941
 40
0.1764705882352941
 40
0.2352941176470588
 40
0.2352941176470588
 40
0.2352941176470588
 40
0.2352941176470588
 40
0.2941176470588235
 40
0.2941176470588235
 40
0.2941176470588235
 40
0.2941176470588235
 40
0.3529411764705883
 40
0.3529411764705883
 40
0.3529411764705883
 40
0.3529411764705883
 40
0.411764705882353
 40
0.411764705882353
 40
0.411764705882353
 40
0.411764705882353
 40
0.4705882352941177
 40
0.4705882352941177
 40
0.4705882352941177
 40
0.4705882352941177
 40
0.5294117647058824
 40
0.5294117647058824
 40
0.5294117647058824
 40
0.5294117647058824
 40
0.5882352941176471
 40
0.5882352941176471
 40
0.5882352941176471
 40
0.5882352941176471
 40
0.6470588235294118
 40
0.6470588235294118
 40
0.6470588235294118
 40
0.6470588235294118
 40
0.7058823529411765
 40
0.7058823529411765
 40
0.7058823529411765
 40
0.7058823529411765
 40
0.7647058823529412
 40
0.7647058823529412
 40
0.7647058823529412
 40
0.7647058823529412
 40
0.823529411764706
 40
0.823529411764706
 40
0.823529411764706
 40
0.823529411764706
 40
0.8823529411764707
 40
0.8823529411764707
 40
0.8823529411764707
 40
0.8823529411764707
 40
0.9411764705882354
 40
0.9411764705882354
 40
0.9411764705882354
 40
0.9411764705882354
 40
1.0
 40
1.0
 40
1.0
 40
1.0
 10
0.0748425196850394
 20
2.183688976377953
 30
0.0
 10
0.0748425196850394
 20
2.183688976377953
 30
0.0
 10
0.0809251968503937
 20
2.183688976377953
 30
0.0
 10
0.0809251968503937
 20
2.183688976377953
 30
0.0
 10
0.0809251968503937
 20
2.183688976377953
 30
0.0
 10
0.0809251968503937
 20
2.183688976377953
 30
0.0
 10
0.0809251968503937
 20
2.08944094488189
 30
0.0
 10
0.0809251968503937
 20
2.08944094488189
 30
0.0
 10
0.0809251968503937
 20
2.08944094488189
 30
0.0
 10
0.0809251968503937
 20
2.084996062992126
 30
0.0
 10
0.0812322834645669
 20
2.082133858267717
 30
0.0
 10
0.0817874015748032
 20
2.080854330708661
 30
0.0
 10
0.0817874015748032
 20
2.080854330708661
 30
0.0
 10
0.0823700787401575
 20
2.07957874015748
 30
0.0
 10
0.0832874015748031
 20
2.078633858267716
 30
0.0
 10
0.0845905511811024
 20
2.077968503937008
 30
0.0
 10
0.0845905511811024
 20
2.077968503937008
 30
0.0
 10
0.0858976377952756
 20
2.077326771653544
 30
0.0
 10
0.0884803149606299
 20
2.076996062992126
 30
0.0
 10
0.0923425196850394
 20
2.076996062992126
 30
0.0
 10
0.0923425196850394
 20
2.076996062992126
 30
0.0
 10
0.0923425196850394
 20
2.076996062992126
 30
0.0
 10
0.1003149606299213
 20
2.076996062992126
 30
0.0
 10
0.1003149606299213
 20
2.076996062992126
 30
0.0
 10
0.1003149606299213
 20
2.076996062992126
 30
0.0
 10
0.1003149606299213
 20
2.076996062992126
 30
0.0
 10
0.1003149606299213
 20
2.070161417322835
 30
0.0
 10
0.1003149606299213
 20
2.070161417322835
 30
0.0
 10
0.1003149606299213
 20
2.070161417322835
 30
0.0
 10
0.1003149606299213
 20
2.070161417322835
 30
0.0
 10
0.0466771653543307
 20
2.070161417322835
 30
0.0
 10
0.0466771653543307
 20
2.070161417322835
 30
0.0
 10
0.0466771653543307
 20
2.070161417322835
 30
0.0
 10
0.0466771653543307
 20
2.070161417322835
 30
0.0
 10
0.0466771653543307
 20
2.076996062992126
 30
0.0
 10
0.0466771653543307
 20
2.076996062992126
 30
0.0
 10
0.0466771653543307
 20
2.076996062992126
 30
0.0
 10
0.0466771653543307
 20
2.076996062992126
 30
0.0
 10
0.0555354330708661
 20
2.076996062992126
 30
0.0
 10
0.0555354330708661
 20
2.076996062992126
 30
0.0
 10
0.0555354330708661
 20
2.076996062992126
 30
0.0
 10
0.0593976377952756
 20
2.076996062992126
 30
0.0
 10
0.0619527559055118
 20
2.077326771653544
 30
0.0
 10
0.0632322834645669
 20
2.078023622047244
 30
0.0
 10
0.0632322834645669
 20
2.078023622047244
 30
0.0
 10
0.064507874015748
 20
2.078688976377953
 30
0.0
 10
0.065507874015748
 20
2.079771653543307
 30
0.0
 10
0.0662047244094488
 20
2.081271653543307
 30
0.0
 10
0.0662047244094488
 20
2.081271653543307
 30
0.0
 10
0.0668976377952756
 20
2.082771653543307
 30
0.0
 10
0.067259842519685
 20
2.085496062992126
 30
0.0
 10
0.067259842519685
 20
2.08944094488189
 30
0.0
 10
0.067259842519685
 20
2.08944094488189
 30
0.0
 10
0.067259842519685
 20
2.08944094488189
 30
0.0
 10
0.067259842519685
 20
2.166909448818898
 30
0.0
 10
0.067259842519685
 20
2.166909448818898
 30
0.0
 10
0.067259842519685
 20
2.166909448818898
 30
0.0
 10
0.067259842519685
 20
2.166909448818898
 30
0.0
 10
0.0466771653543307
 20
2.166909448818898
 30
0.0
 10
0.0466771653543307
 20
2.166909448818898
 30
0.0
 10
0.0466771653543307
 20
2.166909448818898
 30
0.0
 10
0.0466771653543307
 20
2.166909448818898
 30
0.0
 10
0.0466771653543307
 20
2.173909448818898
 30
0.0
 10
0.0466771653543307
 20
2.173909448818898
 30
0.0
 10
0.0466771653543307
 20
2.173909448818898
 30
0.0
 10
0.0578976377952756
 20
2.175492125984252
 30
0.0
 10
0.0672874015748031
 20
2.178744094488189
 30
0.0
 10
0.0748425196850394
 20
2.183688976377953
 30
0.0
  0
SPLINE
  5
34
330
1F
100
AcDbEntity
  8
LAYER_1
 62
   250
100
AcDbSpline
210
0.0
220
0.0
230
1.0
 70
    11
 71
     3
 72
    76
 73
    72
 74
     0
 42
0.0000000001
 43
0.0000000001
 40
0.0
 40
0.0
 40
0.0
 40
0.0
 40
0.0555555555555556
 40
0.0555555555555556
 40
0.0555555555555556
 40
0.0555555555555556
 40
0.1111111111111111
 40
0.1111111111111111
 40
0.1111111111111111
 40
0.1111111111111111
 40
0.1666666666666667
 40
0.1666666666666667
 40
0.1666666666666667
 40
0.1666666666666667
 40
0.2222222222222222
 40
0.2222222222222222
 40
0.2222222222222222
 40
0.2222222222222222
 40
0.2777777777777778
 40
0.2777777777777778
 40
0.2777777777777778
 40
0.2777777777777778
 40
0.3333333333333334
 40
0.3333333333333334
 40
0.3333333333333334
 40
0.3333333333333334
 40
0.388888888888889
 40
0.388888888888889
 40
0.388888888888889
 40
0.388888888888889
 40
0.4444444444444445
 40
0.4444444444444445
 40
0.4444444444444445
 40
0.4444444444444445
 40
0.5000000000000001
 40
0.5000000000000001
 40
0.5000000000000001
 40
0.5000000000000001
 40
0.5555555555555557
 40
0.5555555555555557
 40
0.5555555555555557
 40
0.5555555555555557
 40
0.6111111111111113
 40
0.6111111111111113
 40
0.6111111111111113
 40
0.6111111111111113
 40
0.6666666666666669
 40
0.6666666666666669
 40
0.6666666666666669
 40
0.6666666666666669
 40
0.7222222222222224
 40
0.7222222222222224
 40
0.7222222222222224
 40
0.7222222222222224
 40
0.777777777777778
 40
0.777777777777778
 40
0.777777777777778
 40
0.777777777777778
 40
0.8333333333333336
 40
0.8333333333333336
 40
0.8333333333333336
 40
0.8333333333333336
 40
0.8888888888888892
 40
0.8888888888888892
 40
0.8888888888888892
 40
0.8888888888888892
 40
0.9444444444444448
 40
0.9444444444444448
 40
0.9444444444444448
 40
0.9444444444444448
 40
1.0
 40
1.0
 40
1.0
 40
1.0
 10
0.1866496062992126
 20
2.133161417322835
 30
0.0
 10
0.1930669291338583
 20
2.130716535433071
 30
0.0
 10
0.1979527559055118
 20
2.128409448818898
 30
0.0
 10
0.2013149606299213
 20
2.126244094488189
 30
0.0
 10
0.2013149606299213
 20
2.126244094488189
 30
0.0
 10
0.2062322834645669
 20
2.12307874015748
 30
0.0
 10
0.2099527559055118
 20
2.11938188976378
 30
0.0
 10
0.2124527559055118
 20
2.115133858267717
 30
0.0
 10
0.2124527559055118
 20
2.115133858267717
 30
0.0
 10
0.2149527559055118
 20
2.110854330708662
 30
0.0
 10
0.2162047244094488
 20
2.106244094488189
 30
0.0
 10
0.2162047244094488
 20
2.101244094488189
 30
0.0
 10
0.2162047244094488
 20
2.101244094488189
 30
0.0
 10
0.2162047244094488
 20
2.092299212598425
 30
0.0
 10
0.2123425196850394
 20
2.084551181102362
 30
0.0
 10
0.2046496062992126
 20
2.078023622047244
 30
0.0
 10
0.2046496062992126
 20
2.078023622047244
 30
0.0
 10
0.1969251968503937
 20
2.071468503937008
 30
0.0
 10
0.1865393700787402
 20
2.068216535433071
 30
0.0
 10
0.1734803149606299
 20
2.068216535433071
 30
0.0
 10
0.1734803149606299
 20
2.068216535433071
 30
0.0
 10
0.1596496062992126
 20
2.068216535433071
 30
0.0
 10
0.1487874015748032
 20
2.071909448818898
 30
0.0
 10
0.1409251968503937
 20
2.079271653543307
 30
0.0
 10
0.1409251968503937
 20
2.079271653543307
 30
0.0
 10
0.1346771653543307
 20
2.085188976377953
 30
0.0
 10
0.1315669291338583
 20
2.091881889763779
 30
0.0
 10
0.1315669291338583
 20
2.09938188976378
 30
0.0
 10
0.1315669291338583
 20
2.09938188976378
 30
0.0
 10
0.1315669291338583
 20
2.105409448818898
 30
0.0
 10
0.1336771653543307
 20
2.110799212598425
 30
0.0
 10
0.1378976377952756
 20
2.11557874015748
 30
0.0
 10
0.1378976377952756
 20
2.11557874015748
 30
0.0
 10
0.1430118110236221
 20
2.121271653543307
 30
0.0
 10
0.1502874015748032
 20
2.125716535433071
 30
0.0
 10
0.1597322834645669
 20
2.128909448818898
 30
0.0
 10
0.1597322834645669
 20
2.128909448818898
 30
0.0
 10
0.1523425196850394
 20
2.13238188976378
 30
0.0
 10
0.1470393700787402
 20
2.135909448818898
 30
0.0
 10
0.143759842519685
 20
2.139496062992126
 30
0.0
 10
0.143759842519685
 20
2.139496062992126
 30
0.0
 10
0.1395944881889764
 20
2.144216535433071
 30
0.0
 10
0.1375118110236221
 20
2.14988188976378
 30
0.0
 10
0.1375118110236221
 20
2.156492125984252
 30
0.0
 10
0.1375118110236221
 20
2.156492125984252
 30
0.0
 10
0.1375118110236221
 20
2.164688976377953
 30
0.0
 10
0.1405944881889764
 20
2.171326771653543
 30
0.0
 10
0.1467874015748032
 20
2.176354330708662
 30
0.0
 10
0.1467874015748032
 20
2.176354330708662
 30
0.0
 10
0.1543700787401575
 20
2.182551181102362
 30
0.0
 10
0.1638700787401575
 20
2.185633858267717
 30
0.0
 10
0.175259842519685
 20
2.185633858267717
 30
0.0
 10
0.175259842519685
 20
2.185633858267717
 30
0.0
 10
0.1856771653543307
 20
2.185633858267717
 30
0.0
 10
0.1940944881889764
 20
2.182964566929134
 30
0.0
 10
0.2005393700787402
 20
2.177633858267717
 30
0.0
 10
0.2005393700787402
 20
2.177633858267717
 30
0.0
 10
0.2069527559055118
 20
2.172271653543307
 30
0.0
 10
0.2101771653543307
 20
2.166161417322835
 30
0.0
 10
0.2101771653543307
 20
2.159271653543307
 30
0.0
 10
0.2101771653543307
 20
2.159271653543307
 30
0.0
 10
0.2101771653543307
 20
2.155854330708662
 30
0.0
 10
0.2093700787401575
 20
2.15257874015748
 30
0.0
 10
0.2077874015748032
 20
2.149464566929134
 30
0.0
 10
0.2077874015748032
 20
2.149464566929134
 30
0.0
 10
0.2061771653543307
 20
2.146354330708661
 30
0.0
 10
0.2037322834645669
 20
2.143437007874016
 30
0.0
 10
0.2003976377952756
 20
2.140771653543307
 30
0.0
 10
0.2003976377952756
 20
2.140771653543307
 30
0.0
 10
0.1970944881889764
 20
2.13807874015748
 30
0.0
 10
0.192507874015748
 20
2.135551181102362
 30
0.0
 10
0.1866496062992126
 20
2.133161417322835
 30
0.0
  0
SPLINE
  5
35
330
1F
100
AcDbEntity
  8
LAYER_1
 62
   250
100
AcDbSpline
210
0.0
220
0.0
230
1.0
 70
    11
 71
     3
 72
    48
 73
    44
 74
     0
 42
0.0000000001
 43
0.0000000001
 40
0.0
 40
0.0
 40
0.0
 40
0.0
 40
0.0909090909090909
 40
0.0909090909090909
 40
0.0909090909090909
 40
0.0909090909090909
 40
0.1818181818181818
 40
0.1818181818181818
 40
0.1818181818181818
 40
0.1818181818181818
 40
0.2727272727272727
 40
0.2727272727272727
 40
0.2727272727272727
 40
0.2727272727272727
 40
0.3636363636363637
 40
0.3636363636363637
 40
0.3636363636363637
 40
0.3636363636363637
 40
0.4545454545454546
 40
0.4545454545454546
 40
0.4545454545454546
 40
0.4545454545454546
 40
0.5454545454545455
 40
0.5454545454545455
 40
0.5454545454545455
 40
0.5454545454545455
 40
0.6363636363636365
 40
0.6363636363636365
 40
0.6363636363636365
 40
0.6363636363636365
 40
0.7272727272727274
 40
0.7272727272727274
 40
0.7272727272727274
 40
0.7272727272727274
 40
0.8181818181818183
 40
0.8181818181818183
 40
0.8181818181818183
 40
0.8181818181818183
 40
0.9090909090909093
 40
0.9090909090909093
 40
0.9090909090909093
 40
0.9090909090909093
 40
1.0
 40
1.0
 40
1.0
 40
1.0
 10
0.1792598425196851
 20
2.136161417322835
 30
0.0
 10
0.1854251968503937
 20
2.140826771653543
 30
0.0
 10
0.1894527559055118
 20
2.144078740157481
 30
0.0
 10
0.1912874015748032
 20
2.145937007874016
 30
0.0
 10
0.1912874015748032
 20
2.145937007874016
 30
0.0
 10
0.1931496062992126
 20
2.147771653543307
 30
0.0
 10
0.1945669291338583
 20
2.14988188976378
 30
0.0
 10
0.1955669291338583
 20
2.152244094488189
 30
0.0
 10
0.1955669291338583
 20
2.152244094488189
 30
0.0
 10
0.1965669291338583
 20
2.154606299212599
 30
0.0
 10
0.1970669291338583
 20
2.15688188976378
 30
0.0
 10
0.1970669291338583
 20
2.159106299212599
 30
0.0
 10
0.1970669291338583
 20
2.159106299212599
 30
0.0
 10
0.1970669291338583
 20
2.162299212598425
 30
0.0
 10
0.1961220472440945
 20
2.165354330708662
 30
0.0
 10
0.194232283464567
 20
2.168271653543307
 30
0.0
 10
0.194232283464567
 20
2.168271653543307
 30
0.0
 10
0.1923149606299213
 20
2.171161417322835
 30
0.0
 10
0.1895393700787402
 20
2.173523622047244
 30
0.0
 10
0.1858700787401575
 20
2.175299212598425
 30
0.0
 10
0.1858700787401575
 20
2.175299212598425
 30
0.0
 10
0.1822322834645669
 20
2.177106299212599
 30
0.0
 10
0.1781220472440945
 20
2.177992125984252
 30
0.0
 10
0.1735669291338583
 20
2.177992125984252
 30
0.0
 10
0.1735669291338583
 20
2.177992125984252
 30
0.0
 10
0.1668149606299213
 20
2.177992125984252
 30
0.0
 10
0.1612322834645669
 20
2.176133858267717
 30
0.0
 10
0.1567874015748031
 20
2.172409448818898
 30
0.0
 10
0.1567874015748031
 20
2.172409448818898
 30
0.0
 10
0.1523425196850394
 20
2.168688976377953
 30
0.0
 10
0.1501220472440945
 20
2.164409448818898
 30
0.0
 10
0.1501220472440945
 20
2.159523622047244
 30
0.0
 10
0.1501220472440945
 20
2.159523622047244
 30
0.0
 10
0.1501220472440945
 20
2.155606299212598
 30
0.0
 10
0.1515118110236221
 20
2.152106299212599
 30
0.0
 10
0.1542598425196851
 20
2.149023622047244
 30
0.0
 10
0.1542598425196851
 20
2.149023622047244
 30
0.0
 10
0.1570393700787402
 20
2.145937007874016
 30
0.0
 10
0.1621771653543307
 20
2.14288188976378
 30
0.0
 10
0.1697322834645669
 20
2.139909448818898
 30
0.0
 10
0.1697322834645669
 20
2.139909448818898
 30
0.0
 10
0.1697322834645669
 20
2.139909448818898
 30
0.0
 10
0.1792598425196851
 20
2.136161417322835
 30
0.0
 10
0.1792598425196851
 20
2.136161417322835
 30
0.0
  0
SPLINE
  5
36
330
1F
100
AcDbEntity
  8
LAYER_1
 62
   250
100
AcDbSpline
210
0.0
220
0.0
230
1.0
 70
    11
 71
     3
 72
    40
 73
    36
 74
     0
 42
0.0000000001
 43
0.0000000001
 40
0.0
 40
0.0
 40
0.0
 40
0.0
 40
0.1111111111111111
 40
0.1111111111111111
 40
0.1111111111111111
 40
0.1111111111111111
 40
0.2222222222222222
 40
0.2222222222222222
 40
0.2222222222222222
 40
0.2222222222222222
 40
0.3333333333333333
 40
0.3333333333333333
 40
0.3333333333333333
 40
0.3333333333333333
 40
0.4444444444444444
 40
0.4444444444444444
 40
0.4444444444444444
 40
0.4444444444444444
 40
0.5555555555555556
 40
0.5555555555555556
 40
0.5555555555555556
 40
0.5555555555555556
 40
0.6666666666666667
 40
0.6666666666666667
 40
0.6666666666666667
 40
0.6666666666666667
 40
0.7777777777777779
 40
0.7777777777777779
 40
0.7777777777777779
 40
0.7777777777777779
 40
0.8888888888888891
 40
0.8888888888888891
 40
0.8888888888888891
 40
0.8888888888888891
 40
1.0
 40
1.0
 40
1.0
 40
1.0
 10
0.1677874015748032
 20
2.125744094488189
 30
0.0
 10
0.1601220472440945
 20
2.122381889763779
 30
0.0
 10
0.1540669291338583
 20
2.118023622047244
 30
0.0
 10
0.1496220472440945
 20
2.112633858267717
 30
0.0
 10
0.1496220472440945
 20
2.112633858267717
 30
0.0
 10
0.1461496062992126
 20
2.108409448818898
 30
0.0
 10
0.1444251968503937
 20
2.104023622047244
 30
0.0
 10
0.1444251968503937
 20
2.099468503937008
 30
0.0
 10
0.1444251968503937
 20
2.099468503937008
 30
0.0
 10
0.1444251968503937
 20
2.093271653543307
 30
0.0
 10
0.1471496062992126
 20
2.087771653543307
 30
0.0
 10
0.1526496062992126
 20
2.082968503937008
 30
0.0
 10
0.1526496062992126
 20
2.082968503937008
 30
0.0
 10
0.1581220472440945
 20
2.078188976377953
 30
0.0
 10
0.1652047244094488
 20
2.075771653543307
 30
0.0
 10
0.1738700787401575
 20
2.075771653543307
 30
0.0
 10
0.1738700787401575
 20
2.075771653543307
 30
0.0
 10
0.1827322834645669
 20
2.075771653543307
 30
0.0
 10
0.1900944881889764
 20
2.078523622047244
 30
0.0
 10
0.196007874015748
 20
2.083996062992126
 30
0.0
 10
0.196007874015748
 20
2.083996062992126
 30
0.0
 10
0.2008425196850394
 20
2.08844094488189
 30
0.0
 10
0.203259842519685
 20
2.093216535433071
 30
0.0
 10
0.203259842519685
 20
2.098326771653543
 30
0.0
 10
0.203259842519685
 20
2.098326771653543
 30
0.0
 10
0.203259842519685
 20
2.102326771653543
 30
0.0
 10
0.2016771653543307
 20
2.106161417322835
 30
0.0
 10
0.198507874015748
 20
2.109826771653543
 30
0.0
 10
0.198507874015748
 20
2.109826771653543
 30
0.0
 10
0.1953149606299213
 20
2.113496062992126
 30
0.0
 10
0.1894251968503937
 20
2.117051181102363
 30
0.0
 10
0.1807874015748032
 20
2.120523622047244
 30
0.0
 10
0.1807874015748032
 20
2.120523622047244
 30
0.0
 10
0.1807874015748032
 20
2.120523622047244
 30
0.0
 10
0.1677874015748032
 20
2.125744094488189
 30
0.0
 10
0.1677874015748032
 20
2.125744094488189
 30
0.0
  0
SPLINE
  5
37
330
1F
100
AcDbEntity
  8
LAYER_1
 62
   250
100
AcDbSpline
210
0.0
220
0.0
230
1.0
 70
    11
 71
     3
 72
    72
 73
    68
 74
     0
 42
0.0000000001
 43
0.0000000001
 40
0.0
 40
0.0
 40
0.0
 40
0.0
 40
0.0588235294117647
 40
0.0588235294117647
 40
0.0588235294117647
 40
0.0588235294117647
 40
0.1176470588235294
 40
0.1176470588235294
 40
0.1176470588235294
 40
0.1176470588235294
 40
0.1764705882352941
 40
0.1764705882352941
 40
0.1764705882352941
 40
0.1764705882352941
 40
0.2352941176470588
 40
0.2352941176470588
 40
0.2352941176470588
 40
0.2352941176470588
 40
0.2941176470588235
 40
0.2941176470588235
 40
0.2941176470588235
 40
0.2941176470588235
 40
0.3529411764705883
 40
0.3529411764705883
 40
0.3529411764705883
 40
0.3529411764705883
 40
0.411764705882353
 40
0.411764705882353
 40
0.411764705882353
 40
0.411764705882353
 40
0.4705882352941177
 40
0.4705882352941177
 40
0.4705882352941177
 40
0.4705882352941177
 40
0.5294117647058824
 40
0.5294117647058824
 40
0.5294117647058824
 40
0.5294117647058824
 40
0.5882352941176471
 40
0.5882352941176471
 40
0.5882352941176471
 40
0.5882352941176471
 40
0.6470588235294118
 40
0.6470588235294118
 40
0.6470588235294118
 40
0.6470588235294118
 40
0.7058823529411765
 40
0.7058823529411765
 40
0.7058823529411765
 40
0.7058823529411765
 40
0.7647058823529412
 40
0.7647058823529412
 40
0.7647058823529412
 40
0.7647058823529412
 40
0.823529411764706
 40
0.823529411764706
 40
0.823529411764706
 40
0.823529411764706
 40
0.8823529411764707
 40
0.8823529411764707
 40
0.8823529411764707
 40
0.8823529411764707
 40
0.9411764705882354
 40
0.9411764705882354
 40
0.9411764705882354
 40
0.9411764705882354
 40
1.0
 40
1.0
 40
1.0
 40
1.0
 10
0.2815669291338583
 20
2.183688976377953
 30
0.0
 10
0.2815669291338583
 20
2.183688976377953
 30
0.0
 10
0.2876496062992126
 20
2.183688976377953
 30
0.0
 10
0.2876496062992126
 20
2.183688976377953
 30
0.0
 10
0.2876496062992126
 20
2.183688976377953
 30
0.0
 10
0.2876496062992126
 20
2.183688976377953
 30
0.0
 10
0.2876496062992126
 20
2.08944094488189
 30
0.0
 10
0.2876496062992126
 20
2.08944094488189
 30
0.0
 10
0.2876496062992126
 20
2.08944094488189
 30
0.0
 10
0.2876496062992126
 20
2.084996062992126
 30
0.0
 10
0.2879566929133858
 20
2.082133858267717
 30
0.0
 10
0.2885118110236221
 20
2.080854330708661
 30
0.0
 10
0.2885118110236221
 20
2.080854330708661
 30
0.0
 10
0.2890944881889764
 20
2.07957874015748
 30
0.0
 10
0.2900118110236221
 20
2.078633858267716
 30
0.0
 10
0.2913149606299213
 20
2.077968503937008
 30
0.0
 10
0.2913149606299213
 20
2.077968503937008
 30
0.0
 10
0.2926220472440945
 20
2.077326771653544
 30
0.0
 10
0.2952047244094488
 20
2.076996062992126
 30
0.0
 10
0.2990669291338583
 20
2.076996062992126
 30
0.0
 10
0.2990669291338583
 20
2.076996062992126
 30
0.0
 10
0.2990669291338583
 20
2.076996062992126
 30
0.0
 10
0.3070393700787402
 20
2.076996062992126
 30
0.0
 10
0.3070393700787402
 20
2.076996062992126
 30
0.0
 10
0.3070393700787402
 20
2.076996062992126
 30
0.0
 10
0.3070393700787402
 20
2.076996062992126
 30
0.0
 10
0.3070393700787402
 20
2.070161417322835
 30
0.0
 10
0.3070393700787402
 20
2.070161417322835
 30
0.0
 10
0.3070393700787402
 20
2.070161417322835
 30
0.0
 10
0.3070393700787402
 20
2.070161417322835
 30
0.0
 10
0.2534015748031496
 20
2.070161417322835
 30
0.0
 10
0.2534015748031496
 20
2.070161417322835
 30
0.0
 10
0.2534015748031496
 20
2.070161417322835
 30
0.0
 10
0.2534015748031496
 20
2.070161417322835
 30
0.0
 10
0.2534015748031496
 20
2.076996062992126
 30
0.0
 10
0.2534015748031496
 20
2.076996062992126
 30
0.0
 10
0.2534015748031496
 20
2.076996062992126
 30
0.0
 10
0.2534015748031496
 20
2.076996062992126
 30
0.0
 10
0.262259842519685
 20
2.076996062992126
 30
0.0
 10
0.262259842519685
 20
2.076996062992126
 30
0.0
 10
0.262259842519685
 20
2.076996062992126
 30
0.0
 10
0.2661220472440945
 20
2.076996062992126
 30
0.0
 10
0.2686771653543307
 20
2.077326771653544
 30
0.0
 10
0.2699566929133858
 20
2.078023622047244
 30
0.0
 10
0.2699566929133858
 20
2.078023622047244
 30
0.0
 10
0.271232283464567
 20
2.078688976377953
 30
0.0
 10
0.272232283464567
 20
2.079771653543307
 30
0.0
 10
0.2729291338582677
 20
2.081271653543307
 30
0.0
 10
0.2729291338582677
 20
2.081271653543307
 30
0.0
 10
0.2736220472440945
 20
2.082771653543307
 30
0.0
 10
0.273984251968504
 20
2.085496062992126
 30
0.0
 10
0.273984251968504
 20
2.08944094488189
 30
0.0
 10
0.273984251968504
 20
2.08944094488189
 30
0.0
 10
0.273984251968504
 20
2.08944094488189
 30
0.0
 10
0.273984251968504
 20
2.166909448818898
 30
0.0
 10
0.273984251968504
 20
2.166909448818898
 30
0.0
 10
0.273984251968504
 20
2.166909448818898
 30
0.0
 10
0.273984251968504
 20
2.166909448818898
 30
0.0
 10
0.2534015748031496
 20
2.166909448818898
 30
0.0
 10
0.2534015748031496
 20
2.166909448818898
 30
0.0
 10
0.2534015748031496
 20
2.166909448818898
 30
0.0
 10
0.2534015748031496
 20
2.166909448818898
 30
0.0
 10
0.2534015748031496
 20
2.173909448818898
 30
0.0
 10
0.2534015748031496
 20
2.173909448818898
 30
0.0
 10
0.2534015748031496
 20
2.173909448818898
 30
0.0
 10
0.2646220472440945
 20
2.175492125984252
 30
0.0
 10
0.274011811023622
 20
2.178744094488189
 30
0.0
 10
0.2815669291338583
 20
2.183688976377953
 30
0.0
  0
SPLINE
  5
38
330
1F
100
AcDbEntity
  8
LAYER_1
 62
   250
100
AcDbSpline
210
0.0
220
0.0
230
1.0
 70
    11
 71
     3
 72
    48
 73
    44
 74
     0
 42
0.0000000001
 43
0.0000000001
 40
0.0
 40
0.0
 40
0.0
 40
0.0
 40
0.0909090909090909
 40
0.0909090909090909
 40
0.0909090909090909
 40
0.0909090909090909
 40
0.1818181818181818
 40
0.1818181818181818
 40
0.1818181818181818
 40
0.1818181818181818
 40
0.2727272727272727
 40
0.2727272727272727
 40
0.2727272727272727
 40
0.2727272727272727
 40
0.3636363636363637
 40
0.3636363636363637
 40
0.3636363636363637
 40
0.3636363636363637
 40
0.4545454545454546
 40
0.4545454545454546
 40
0.4545454545454546
 40
0.4545454545454546
 40
0.5454545454545455
 40
0.5454545454545455
 40
0.5454545454545455
 40
0.5454545454545455
 40
0.6363636363636365
 40
0.6363636363636365
 40
0.6363636363636365
 40
0.6363636363636365
 40
0.7272727272727274
 40
0.7272727272727274
 40
0.7272727272727274
 40
0.7272727272727274
 40
0.8181818181818183
 40
0.8181818181818183
 40
0.8181818181818183
 40
0.8181818181818183
 40
0.9090909090909093
 40
0.9090909090909093
 40
0.9090909090909093
 40
0.9090909090909093
 40
1.0
 40
1.0
 40
1.0
 40
1.0
 10
0.3893188976377953
 20
2.183688976377953
 30
0.0
 10
0.3893188976377953
 20
2.183688976377953
 30
0.0
 10
0.4030669291338583
 20
2.183688976377953
 30
0.0
 10
0.4030669291338583
 20
2.183688976377953
 30
0.0
 10
0.4030669291338583
 20
2.183688976377953
 30
0.0
 10
0.4030669291338583
 20
2.183688976377953
 30
0.0
 10
0.4030669291338583
 20
2.117688976377953
 30
0.0
 10
0.4030669291338583
 20
2.117688976377953
 30
0.0
 10
0.4030669291338583
 20
2.117688976377953
 30
0.0
 10
0.4030669291338583
 20
2.117688976377953
 30
0.0
 10
0.4244015748031496
 20
2.117688976377953
 30
0.0
 10
0.4244015748031496
 20
2.117688976377953
 30
0.0
 10
0.4244015748031496
 20
2.117688976377953
 30
0.0
 10
0.4244015748031496
 20
2.117688976377953
 30
0.0
 10
0.4244015748031496
 20
2.107523622047244
 30
0.0
 10
0.4244015748031496
 20
2.107523622047244
 30
0.0
 10
0.4244015748031496
 20
2.107523622047244
 30
0.0
 10
0.4244015748031496
 20
2.107523622047244
 30
0.0
 10
0.4030669291338583
 20
2.107523622047244
 30
0.0
 10
0.4030669291338583
 20
2.107523622047244
 30
0.0
 10
0.4030669291338583
 20
2.107523622047244
 30
0.0
 10
0.4030669291338583
 20
2.107523622047244
 30
0.0
 10
0.4030669291338583
 20
2.070161417322835
 30
0.0
 10
0.4030669291338583
 20
2.070161417322835
 30
0.0
 10
0.4030669291338583
 20
2.070161417322835
 30
0.0
 10
0.4030669291338583
 20
2.070161417322835
 30
0.0
 10
0.3893188976377953
 20
2.070161417322835
 30
0.0
 10
0.3893188976377953
 20
2.070161417322835
 30
0.0
 10
0.3893188976377953
 20
2.070161417322835
 30
0.0
 10
0.3893188976377953
 20
2.070161417322835
 30
0.0
 10
0.3893188976377953
 20
2.107523622047244
 30
0.0
 10
0.3893188976377953
 20
2.107523622047244
 30
0.0
 10
0.3893188976377953
 20
2.107523622047244
 30
0.0
 10
0.3893188976377953
 20
2.107523622047244
 30
0.0
 10
0.3358464566929134
 20
2.107523622047244
 30
0.0
 10
0.3358464566929134
 20
2.107523622047244
 30
0.0
 10
0.3358464566929134
 20
2.107523622047244
 30
0.0
 10
0.3358464566929134
 20
2.107523622047244
 30
0.0
 10
0.3358464566929134
 20
2.121826771653543
 30
0.0
 10
0.3358464566929134
 20
2.121826771653543
 30
0.0
 10
0.3358464566929134
 20
2.121826771653543
 30
0.0
 10
0.3358464566929134
 20
2.121826771653543
 30
0.0
 10
0.3893188976377953
 20
2.183688976377953
 30
0.0
 10
0.3893188976377953
 20
2.183688976377953
 30
0.0
  0
SPLINE
  5
39
330
1F
100
AcDbEntity
  8
LAYER_1
 62
   250
100
AcDbSpline
210
0.0
220
0.0
230
1.0
 70
    11
 71
     3
 72
    16
 73
    12
 74
     0
 42
0.0000000001
 43
0.0000000001
 40
0.0
 40
0.0
 40
0.0
 40
0.0
 40
0.3333333333333333
 40
0.3333333333333333
 40
0.3333333333333333
 40
0.3333333333333333
 40
0.6666666666666666
 40
0.6666666666666666
 40
0.6666666666666666
 40
0.6666666666666666
 40
1.0
 40
1.0
 40
1.0
 40
1.0
 10
0.3893188976377953
 20
2.117688976377953
 30
0.0
 10
0.3893188976377953
 20
2.117688976377953
 30
0.0
 10
0.3893188976377953
 20
2.17107874015748
 30
0.0
 10
0.3893188976377953
 20
2.17107874015748
 30
0.0
 10
0.3893188976377953
 20
2.17107874015748
 30
0.0
 10
0.3893188976377953
 20
2.17107874015748
 30
0.0
 10
0.343263779527559
 20
2.117688976377953
 30
0.0
 10
0.343263779527559
 20
2.117688976377953
 30
0.0
 10
0.343263779527559
 20
2.117688976377953
 30
0.0
 10
0.343263779527559
 20
2.117688976377953
 30
0.0
 10
0.3893188976377953
 20
2.117688976377953
 30
0.0
 10
0.3893188976377953
 20
2.117688976377953
 30
0.0
  0
SPLINE
  5
3A
330
1F
100
AcDbEntity
  8
LAYER_1
 62
   250
100
AcDbSpline
210
0.0
220
0.0
230
1.0
 70
    11
 71
     3
 72
    72
 73
    68
 74
     0
 42
0.0000000001
 43
0.0000000001
 40
0.0
 40
0.0
 40
0.0
 40
0.0
 40
0.0588235294117647
 40
0.0588235294117647
 40
0.0588235294117647
 40
0.0588235294117647
 40
0.1176470588235294
 40
0.1176470588235294
 40
0.1176470588235294
 40
0.1176470588235294
 40
0.1764705882352941
 40
0.1764705882352941
 40
0.1764705882352941
 40
0.1764705882352941
 40
0.2352941176470588
 40
0.2352941176470588
 40
0.2352941176470588
 40
0.2352941176470588
 40
0.2941176470588235
 40
0.2941176470588235
 40
0.2941176470588235
 40
0.2941176470588235
 40
0.3529411764705883
 40
0.3529411764705883
 40
0.3529411764705883
 40
0.3529411764705883
 40
0.411764705882353
 40
0.411764705882353
 40
0.411764705882353
 40
0.411764705882353
 40
0.4705882352941177
 40
0.4705882352941177
 40
0.4705882352941177
 40
0.4705882352941177
 40
0.5294117647058824
 40
0.5294117647058824
 40
0.5294117647058824
 40
0.5294117647058824
 40
0.5882352941176471
 40
0.5882352941176471
 40
0.5882352941176471
 40
0.5882352941176471
 40
0.6470588235294118
 40
0.6470588235294118
 40
0.6470588235294118
 40
0.6470588235294118
 40
0.7058823529411765
 40
0.7058823529411765
 40
0.7058823529411765
 40
0.7058823529411765
 40
0.7647058823529412
 40
0.7647058823529412
 40
0.7647058823529412
 40
0.7647058823529412
 40
0.823529411764706
 40
0.823529411764706
 40
0.823529411764706
 40
0.823529411764706
 40
0.8823529411764707
 40
0.8823529411764707
 40
0.8823529411764707
 40
0.8823529411764707
 40
0.9411764705882354
 40
0.9411764705882354
 40
0.9411764705882354
 40
0.9411764705882354
 40
1.0
 40
1.0
 40
1.0
 40
1.0
 10
-0.1600275590551181
 20
1.996188976377953
 30
0.0
 10
-0.1600275590551181
 20
1.996188976377953
 30
0.0
 10
-0.1539448818897638
 20
1.996188976377953
 30
0.0
 10
-0.1539448818897638
 20
1.996188976377953
 30
0.0
 10
-0.1539448818897638
 20
1.996188976377953
 30
0.0
 10
-0.1539448818897638
 20
1.996188976377953
 30
0.0
 10
-0.1539448818897638
 20
1.90194094488189
 30
0.0
 10
-0.1539448818897638
 20
1.90194094488189
 30
0.0
 10
-0.1539448818897638
 20
1.90194094488189
 30
0.0
 10
-0.1539448818897638
 20
1.897496062992126
 30
0.0
 10
-0.1536377952755905
 20
1.894633858267717
 30
0.0
 10
-0.1530826771653543
 20
1.893354330708662
 30
0.0
 10
-0.1530826771653543
 20
1.893354330708662
 30
0.0
 10
-0.1525
 20
1.89207874015748
 30
0.0
 10
-0.1515826771653543
 20
1.891133858267717
 30
0.0
 10
-0.1502795275590551
 20
1.890468503937008
 30
0.0
 10
-0.1502795275590551
 20
1.890468503937008
 30
0.0
 10
-0.1489724409448819
 20
1.889826771653543
 30
0.0
 10
-0.1463897637795276
 20
1.889496062992126
 30
0.0
 10
-0.1425275590551181
 20
1.889496062992126
 30
0.0
 10
-0.1425275590551181
 20
1.889496062992126
 30
0.0
 10
-0.1425275590551181
 20
1.889496062992126
 30
0.0
 10
-0.1345551181102362
 20
1.889496062992126
 30
0.0
 10
-0.1345551181102362
 20
1.889496062992126
 30
0.0
 10
-0.1345551181102362
 20
1.889496062992126
 30
0.0
 10
-0.1345551181102362
 20
1.889496062992126
 30
0.0
 10
-0.1345551181102362
 20
1.882661417322835
 30
0.0
 10
-0.1345551181102362
 20
1.882661417322835
 30
0.0
 10
-0.1345551181102362
 20
1.882661417322835
 30
0.0
 10
-0.1345551181102362
 20
1.882661417322835
 30
0.0
 10
-0.1881929133858268
 20
1.882661417322835
 30
0.0
 10
-0.1881929133858268
 20
1.882661417322835
 30
0.0
 10
-0.1881929133858268
 20
1.882661417322835
 30
0.0
 10
-0.1881929133858268
 20
1.882661417322835
 30
0.0
 10
-0.1881929133858268
 20
1.889496062992126
 30
0.0
 10
-0.1881929133858268
 20
1.889496062992126
 30
0.0
 10
-0.1881929133858268
 20
1.889496062992126
 30
0.0
 10
-0.1881929133858268
 20
1.889496062992126
 30
0.0
 10
-0.1793346456692913
 20
1.889496062992126
 30
0.0
 10
-0.1793346456692913
 20
1.889496062992126
 30
0.0
 10
-0.1793346456692913
 20
1.889496062992126
 30
0.0
 10
-0.1754724409448819
 20
1.889496062992126
 30
0.0
 10
-0.1729173228346457
 20
1.889826771653543
 30
0.0
 10
-0.1716377952755906
 20
1.890523622047244
 30
0.0
 10
-0.1716377952755906
 20
1.890523622047244
 30
0.0
 10
-0.1703622047244095
 20
1.891188976377953
 30
0.0
 10
-0.1693622047244095
 20
1.892271653543307
 30
0.0
 10
-0.1686653543307087
 20
1.893771653543307
 30
0.0
 10
-0.1686653543307087
 20
1.893771653543307
 30
0.0
 10
-0.1679724409448819
 20
1.895271653543307
 30
0.0
 10
-0.1676102362204724
 20
1.897996062992126
 30
0.0
 10
-0.1676102362204724
 20
1.90194094488189
 30
0.0
 10
-0.1676102362204724
 20
1.90194094488189
 30
0.0
 10
-0.1676102362204724
 20
1.90194094488189
 30
0.0
 10
-0.1676102362204724
 20
1.979409448818898
 30
0.0
 10
-0.1676102362204724
 20
1.979409448818898
 30
0.0
 10
-0.1676102362204724
 20
1.979409448818898
 30
0.0
 10
-0.1676102362204724
 20
1.979409448818898
 30
0.0
 10
-0.1881929133858268
 20
1.979409448818898
 30
0.0
 10
-0.1881929133858268
 20
1.979409448818898
 30
0.0
 10
-0.1881929133858268
 20
1.979409448818898
 30
0.0
 10
-0.1881929133858268
 20
1.979409448818898
 30
0.0
 10
-0.1881929133858268
 20
1.986409448818898
 30
0.0
 10
-0.1881929133858268
 20
1.986409448818898
 30
0.0
 10
-0.1881929133858268
 20
1.986409448818898
 30
0.0
 10
-0.1769724409448819
 20
1.987992125984252
 30
0.0
 10
-0.1675826771653543
 20
1.991244094488189
 30
0.0
 10
-0.1600275590551181
 20
1.996188976377953
 30
0.0
  0
SPLINE
  5
3B
330
1F
100
AcDbEntity
  8
LAYER_1
 62
   250
100
AcDbSpline
210
0.0
220
0.0
230
1.0
 70
    11
 71
     3
 72
    60
 73
    56
 74
     0
 42
0.0000000001
 43
0.0000000001
 40
0.0
 40
0.0
 40
0.0
 40
0.0
 40
0.0714285714285714
 40
0.0714285714285714
 40
0.0714285714285714
 40
0.0714285714285714
 40
0.1428571428571429
 40
0.1428571428571429
 40
0.1428571428571429
 40
0.1428571428571429
 40
0.2142857142857143
 40
0.2142857142857143
 40
0.2142857142857143
 40
0.2142857142857143
 40
0.2857142857142857
 40
0.2857142857142857
 40
0.2857142857142857
 40
0.2857142857142857
 40
0.3571428571428571
 40
0.3571428571428571
 40
0.3571428571428571
 40
0.3571428571428571
 40
0.4285714285714285
 40
0.4285714285714285
 40
0.4285714285714285
 40
0.4285714285714285
 40
0.4999999999999999
 40
0.4999999999999999
 40
0.4999999999999999
 40
0.4999999999999999
 40
0.5714285714285713
 40
0.5714285714285713
 40
0.5714285714285713
 40
0.5714285714285713
 40
0.6428571428571427
 40
0.6428571428571427
 40
0.6428571428571427
 40
0.6428571428571427
 40
0.7142857142857141
 40
0.7142857142857141
 40
0.7142857142857141
 40
0.7142857142857141
 40
0.7857142857142855
 40
0.7857142857142855
 40
0.7857142857142855
 40
0.7857142857142855
 40
0.8571428571428569
 40
0.8571428571428569
 40
0.8571428571428569
 40
0.8571428571428569
 40
0.9285714285714283
 40
0.9285714285714283
 40
0.9285714285714283
 40
0.9285714285714283
 40
1.0
 40
1.0
 40
1.0
 40
1.0
 10
-0.1025826771653543
 20
1.954106299212599
 30
0.0
 10
-0.1025826771653543
 20
1.954106299212599
 30
0.0
 10
-0.1069724409448819
 20
1.959496062992126
 30
0.0
 10
-0.1069724409448819
 20
1.959496062992126
 30
0.0
 10
-0.1069724409448819
 20
1.959496062992126
 30
0.0
 10
-0.0958582677165354
 20
1.968551181102362
 30
0.0
 10
-0.0902755905511811
 20
1.976106299212598
 30
0.0
 10
-0.0902755905511811
 20
1.982188976377953
 30
0.0
 10
-0.0902755905511811
 20
1.982188976377953
 30
0.0
 10
-0.0902755905511811
 20
1.98288188976378
 30
0.0
 10
-0.0903307086614173
 20
1.983771653543307
 30
0.0
 10
-0.0904448818897638
 20
1.984799212598425
 30
0.0
 10
-0.0904448818897638
 20
1.984799212598425
 30
0.0
 10
-0.0913582677165354
 20
1.984409448818898
 30
0.0
 10
-0.0922755905511811
 20
1.984106299212598
 30
0.0
 10
-0.0931377952755906
 20
1.983909448818898
 30
0.0
 10
-0.0931377952755906
 20
1.983909448818898
 30
0.0
 10
-0.094
 20
1.983688976377953
 30
0.0
 10
-0.0948031496062992
 20
1.983578740157481
 30
0.0
 10
-0.0955826771653543
 20
1.983578740157481
 30
0.0
 10
-0.0955826771653543
 20
1.983578740157481
 30
0.0
 10
-0.0981929133858268
 20
1.983578740157481
 30
0.0
 10
-0.1002755905511811
 20
1.984409448818898
 30
0.0
 10
-0.1018307086614173
 20
1.986106299212598
 30
0.0
 10
-0.1018307086614173
 20
1.986106299212598
 30
0.0
 10
-0.1034173228346457
 20
1.987771653543307
 30
0.0
 10
-0.1041929133858268
 20
1.989909448818898
 30
0.0
 10
-0.1041929133858268
 20
1.992523622047244
 30
0.0
 10
-0.1041929133858268
 20
1.992523622047244
 30
0.0
 10
-0.1041929133858268
 20
1.99507874015748
 30
0.0
 10
-0.103248031496063
 20
1.997299212598425
 30
0.0
 10
-0.1013582677165354
 20
1.999188976377953
 30
0.0
 10
-0.1013582677165354
 20
1.999188976377953
 30
0.0
 10
-0.0994448818897638
 20
2.001106299212598
 30
0.0
 10
-0.0971653543307087
 20
2.002051181102362
 30
0.0
 10
-0.0945275590551181
 20
2.002051181102362
 30
0.0
 10
-0.0945275590551181
 20
2.002051181102362
 30
0.0
 10
-0.0908307086614173
 20
2.002051181102362
 30
0.0
 10
-0.0876653543307087
 20
2.000578740157481
 30
0.0
 10
-0.0850275590551181
 20
1.997606299212599
 30
0.0
 10
-0.0850275590551181
 20
1.997606299212599
 30
0.0
 10
-0.0824173228346457
 20
1.994661417322835
 30
0.0
 10
-0.0810826771653543
 20
1.990854330708662
 30
0.0
 10
-0.0810826771653543
 20
1.986188976377953
 30
0.0
 10
-0.0810826771653543
 20
1.986188976377953
 30
0.0
 10
-0.0810826771653543
 20
1.983133858267717
 30
0.0
 10
-0.0817204724409449
 20
1.979937007874016
 30
0.0
 10
-0.0829724409448819
 20
1.976606299212599
 30
0.0
 10
-0.0829724409448819
 20
1.976606299212599
 30
0.0
 10
-0.0842204724409449
 20
1.973271653543307
 30
0.0
 10
-0.0860275590551181
 20
1.970188976377953
 30
0.0
 10
-0.0884173228346457
 20
1.967326771653543
 30
0.0
 10
-0.0884173228346457
 20
1.967326771653543
 30
0.0
 10
-0.0908031496062992
 20
1.964496062992126
 30
0.0
 10
-0.0955275590551181
 20
1.96007874015748
 30
0.0
 10
-0.1025826771653543
 20
1.954106299212599
 30
0.0
  0
SPLINE
  5
3C
330
1F
100
AcDbEntity
  8
LAYER_1
 62
   250
100
AcDbSpline
210
0.0
220
0.0
230
1.0
 70
    11
 71
     3
 72
    60
 73
    56
 74
     0
 42
0.0000000001
 43
0.0000000001
 40
0.0
 40
0.0
 40
0.0
 40
0.0
 40
0.0714285714285714
 40
0.0714285714285714
 40
0.0714285714285714
 40
0.0714285714285714
 40
0.1428571428571429
 40
0.1428571428571429
 40
0.1428571428571429
 40
0.1428571428571429
 40
0.2142857142857143
 40
0.2142857142857143
 40
0.2142857142857143
 40
0.2142857142857143
 40
0.2857142857142857
 40
0.2857142857142857
 40
0.2857142857142857
 40
0.2857142857142857
 40
0.3571428571428571
 40
0.3571428571428571
 40
0.3571428571428571
 40
0.3571428571428571
 40
0.4285714285714285
 40
0.4285714285714285
 40
0.4285714285714285
 40
0.4285714285714285
 40
0.4999999999999999
 40
0.4999999999999999
 40
0.4999999999999999
 40
0.4999999999999999
 40
0.5714285714285713
 40
0.5714285714285713
 40
0.5714285714285713
 40
0.5714285714285713
 40
0.6428571428571427
 40
0.6428571428571427
 40
0.6428571428571427
 40
0.6428571428571427
 40
0.7142857142857141
 40
0.7142857142857141
 40
0.7142857142857141
 40
0.7142857142857141
 40
0.7857142857142855
 40
0.7857142857142855
 40
0.7857142857142855
 40
0.7857142857142855
 40
0.8571428571428569
 40
0.8571428571428569
 40
0.8571428571428569
 40
0.8571428571428569
 40
0.9285714285714283
 40
0.9285714285714283
 40
0.9285714285714283
 40
0.9285714285714283
 40
1.0
 40
1.0
 40
1.0
 40
1.0
 10
-0.0735275590551181
 20
1.954106299212599
 30
0.0
 10
-0.0735275590551181
 20
1.954106299212599
 30
0.0
 10
-0.0779173228346457
 20
1.959496062992126
 30
0.0
 10
-0.0779173228346457
 20
1.959496062992126
 30
0.0
 10
-0.0779173228346457
 20
1.959496062992126
 30
0.0
 10
-0.0668031496062992
 20
1.968551181102362
 30
0.0
 10
-0.0612204724409449
 20
1.976106299212598
 30
0.0
 10
-0.0612204724409449
 20
1.982188976377953
 30
0.0
 10
-0.0612204724409449
 20
1.982188976377953
 30
0.0
 10
-0.0612204724409449
 20
1.98288188976378
 30
0.0
 10
-0.0612755905511811
 20
1.983771653543307
 30
0.0
 10
-0.0613897637795276
 20
1.984799212598425
 30
0.0
 10
-0.0613897637795276
 20
1.984799212598425
 30
0.0
 10
-0.0623031496062992
 20
1.984409448818898
 30
0.0
 10
-0.0632204724409449
 20
1.984106299212598
 30
0.0
 10
-0.0640826771653543
 20
1.983909448818898
 30
0.0
 10
-0.0640826771653543
 20
1.983909448818898
 30
0.0
 10
-0.0649448818897638
 20
1.983688976377953
 30
0.0
 10
-0.0657755905511811
 20
1.983578740157481
 30
0.0
 10
-0.0666102362204724
 20
1.983578740157481
 30
0.0
 10
-0.0666102362204724
 20
1.983578740157481
 30
0.0
 10
-0.0691653543307087
 20
1.983578740157481
 30
0.0
 10
-0.0712204724409449
 20
1.984409448818898
 30
0.0
 10
-0.0727755905511811
 20
1.986106299212598
 30
0.0
 10
-0.0727755905511811
 20
1.986106299212598
 30
0.0
 10
-0.0743582677165354
 20
1.987771653543307
 30
0.0
 10
-0.0751377952755906
 20
1.989909448818898
 30
0.0
 10
-0.0751377952755906
 20
1.992523622047244
 30
0.0
 10
-0.0751377952755906
 20
1.992523622047244
 30
0.0
 10
-0.0751377952755906
 20
1.99507874015748
 30
0.0
 10
-0.0741929133858268
 20
1.997299212598425
 30
0.0
 10
-0.0723031496062992
 20
1.999188976377953
 30
0.0
 10
-0.0723031496062992
 20
1.999188976377953
 30
0.0
 10
-0.0704173228346457
 20
2.001106299212598
 30
0.0
 10
-0.0681102362204725
 20
2.002051181102362
 30
0.0
 10
-0.0654724409448819
 20
2.002051181102362
 30
0.0
 10
-0.0654724409448819
 20
2.002051181102362
 30
0.0
 10
-0.0617755905511811
 20
2.002051181102362
 30
0.0
 10
-0.0586102362204724
 20
2.000578740157481
 30
0.0
 10
-0.0559724409448819
 20
1.997606299212599
 30
0.0
 10
-0.0559724409448819
 20
1.997606299212599
 30
0.0
 10
-0.0533622047244095
 20
1.994661417322835
 30
0.0
 10
-0.0520275590551181
 20
1.990854330708662
 30
0.0
 10
-0.0520275590551181
 20
1.986188976377953
 30
0.0
 10
-0.0520275590551181
 20
1.986188976377953
 30
0.0
 10
-0.0520275590551181
 20
1.983133858267717
 30
0.0
 10
-0.0526653543307087
 20
1.979937007874016
 30
0.0
 10
-0.0539173228346457
 20
1.976606299212599
 30
0.0
 10
-0.0539173228346457
 20
1.976606299212599
 30
0.0
 10
-0.0551653543307087
 20
1.973271653543307
 30
0.0
 10
-0.0569724409448819
 20
1.970188976377953
 30
0.0
 10
-0.0593582677165354
 20
1.967326771653543
 30
0.0
 10
-0.0593582677165354
 20
1.967326771653543
 30
0.0
 10
-0.061748031496063
 20
1.964496062992126
 30
0.0
 10
-0.0664724409448819
 20
1.96007874015748
 30
0.0
 10
-0.0735275590551181
 20
1.954106299212599
 30
0.0
  0
SPLINE
  5
3D
330
1F
100
AcDbEntity
  8
LAYER_1
 62
   250
100
AcDbSpline
210
0.0
220
0.0
230
1.0
 70
    11
 71
     3
 72
   204
 73
   200
 74
     0
 42
0.0000000001
 43
0.0000000001
 40
0.0
 40
0.0
 40
0.0
 40
0.0
 40
0.02
 40
0.02
 40
0.02
 40
0.02
 40
0.04
 40
0.04
 40
0.04
 40
0.04
 40
0.06
 40
0.06
 40
0.06
 40
0.06
 40
0.08
 40
0.08
 40
0.08
 40
0.08
 40
0.1
 40
0.1
 40
0.1
 40
0.1
 40
0.12
 40
0.12
 40
0.12
 40
0.12
 40
0.14
 40
0.14
 40
0.14
 40
0.14
 40
0.16
 40
0.16
 40
0.16
 40
0.16
 40
0.18
 40
0.18
 40
0.18
 40
0.18
 40
0.2
 40
0.2
 40
0.2
 40
0.2
 40
0.22
 40
0.22
 40
0.22
 40
0.22
 40
0.24
 40
0.24
 40
0.24
 40
0.24
 40
0.26
 40
0.26
 40
0.26
 40
0.26
 40
0.28
 40
0.28
 40
0.28
 40
0.28
 40
0.3
 40
0.3
 40
0.3
 40
0.3
 40
0.32
 40
0.32
 40
0.32
 40
0.32
 40
0.34
 40
0.34
 40
0.34
 40
0.34
 40
0.36
 40
0.36
 40
0.36
 40
0.36
 40
0.3800000000000001
 40
0.3800000000000001
 40
0.3800000000000001
 40
0.3800000000000001
 40
0.4000000000000001
 40
0.4000000000000001
 40
0.4000000000000001
 40
0.4000000000000001
 40
0.4200000000000001
 40
0.4200000000000001
 40
0.4200000000000001
 40
0.4200000000000001
 40
0.4400000000000001
 40
0.4400000000000001
 40
0.4400000000000001
 40
0.4400000000000001
 40
0.4600000000000001
 40
0.4600000000000001
 40
0.4600000000000001
 40
0.4600000000000001
 40
0.4800000000000002
 40
0.4800000000000002
 40
0.4800000000000002
 40
0.4800000000000002
 40
0.5000000000000001
 40
0.5000000000000001
 40
0.5000000000000001
 40
0.5000000000000001
 40
0.5200000000000001
 40
0.5200000000000001
 40
0.5200000000000001
 40
0.5200000000000001
 40
0.5400000000000002
 40
0.5400000000000002
 40
0.5400000000000002
 40
0.5400000000000002
 40
0.5600000000000002
 40
0.5600000000000002
 40
0.5600000000000002
 40
0.5600000000000002
 40
0.5800000000000002
 40
0.5800000000000002
 40
0.5800000000000002
 40
0.5800000000000002
 40
0.6000000000000002
 40
0.6000000000000002
 40
0.6000000000000002
 40
0.6000000000000002
 40
0.6200000000000002
 40
0.6200000000000002
 40
0.6200000000000002
 40
0.6200000000000002
 40
0.6400000000000002
 40
0.6400000000000002
 40
0.6400000000000002
 40
0.6400000000000002
 40
0.6600000000000003
 40
0.6600000000000003
 40
0.6600000000000003
 40
0.6600000000000003
 40
0.6800000000000003
 40
0.6800000000000003
 40
0.6800000000000003
 40
0.6800000000000003
 40
0.7000000000000003
 40
0.7000000000000003
 40
0.7000000000000003
 40
0.7000000000000003
 40
0.7200000000000003
 40
0.7200000000000003
 40
0.7200000000000003
 40
0.7200000000000003
 40
0.7400000000000003
 40
0.7400000000000003
 40
0.7400000000000003
 40
0.7400000000000003
 40
0.7600000000000003
 40
0.7600000000000003
 40
0.7600000000000003
 40
0.7600000000000003
 40
0.7800000000000004
 40
0.7800000000000004
 40
0.7800000000000004
 40
0.7800000000000004
 40
0.8000000000000004
 40
0.8000000000000004
 40
0.8000000000000004
 40
0.8000000000000004
 40
0.8200000000000004
 40
0.8200000000000004
 40
0.8200000000000004
 40
0.8200000000000004
 40
0.8400000000000004
 40
0.8400000000000004
 40
0.8400000000000004
 40
0.8400000000000004
 40
0.8600000000000004
 40
0.8600000000000004
 40
0.8600000000000004
 40
0.8600000000000004
 40
0.8800000000000005
 40
0.8800000000000005
 40
0.8800000000000005
 40
0.8800000000000005
 40
0.9000000000000005
 40
0.9000000000000005
 40
0.9000000000000005
 40
0.9000000000000005
 40
0.9200000000000005
 40
0.9200000000000005
 40
0.9200000000000005
 40
0.9200000000000005
 40
0.9400000000000005
 40
0.9400000000000005
 40
0.9400000000000005
 40
0.9400000000000005
 40
0.9600000000000005
 40
0.9600000000000005
 40
0.9600000000000005
 40
0.9600000000000005
 40
0.9800000000000005
 40
0.9800000000000005
 40
0.9800000000000005
 40
0.9800000000000005
 40
1.0
 40
1.0
 40
1.0
 40
1.0
 10
0.0102795275590551
 20
1.961188976377953
 30
0.0
 10
0.0102795275590551
 20
1.961188976377953
 30
0.0
 10
0.0512244094488189
 20
1.961188976377953
 30
0.0
 10
0.0512244094488189
 20
1.961188976377953
 30
0.0
 10
0.0512244094488189
 20
1.961188976377953
 30
0.0
 10
0.0512244094488189
 20
1.961188976377953
 30
0.0
 10
0.0512244094488189
 20
1.954354330708662
 30
0.0
 10
0.0512244094488189
 20
1.954354330708662
 30
0.0
 10
0.0512244094488189
 20
1.954354330708662
 30
0.0
 10
0.0512244094488189
 20
1.954354330708662
 30
0.0
 10
0.0483897637795276
 20
1.954354330708662
 30
0.0
 10
0.0483897637795276
 20
1.954354330708662
 30
0.0
 10
0.0483897637795276
 20
1.954354330708662
 30
0.0
 10
0.046751968503937
 20
1.954354330708662
 30
0.0
 10
0.045251968503937
 20
1.954161417322835
 30
0.0
 10
0.0438897637795276
 20
1.953799212598425
 30
0.0
 10
0.0438897637795276
 20
1.953799212598425
 30
0.0
 10
0.0430866141732284
 20
1.953578740157481
 30
0.0
 10
0.0424173228346457
 20
1.953161417322835
 30
0.0
 10
0.0419173228346457
 20
1.952523622047244
 30
0.0
 10
0.0419173228346457
 20
1.952523622047244
 30
0.0
 10
0.0413897637795276
 20
1.951909448818898
 30
0.0
 10
0.0411417322834646
 20
1.951326771653543
 30
0.0
 10
0.0411417322834646
 20
1.950771653543307
 30
0.0
 10
0.0411417322834646
 20
1.950771653543307
 30
0.0
 10
0.0411417322834646
 20
1.949523622047244
 30
0.0
 10
0.0421692913385827
 20
1.947661417322835
 30
0.0
 10
0.0442244094488189
 20
1.945161417322835
 30
0.0
 10
0.0442244094488189
 20
1.945161417322835
 30
0.0
 10
0.0442244094488189
 20
1.945161417322835
 30
0.0
 10
0.0558622047244094
 20
1.930523622047244
 30
0.0
 10
0.0558622047244094
 20
1.930523622047244
 30
0.0
 10
0.0558622047244094
 20
1.930523622047244
 30
0.0
 10
0.0558622047244094
 20
1.930523622047244
 30
0.0
 10
0.0694448818897638
 20
1.945161417322835
 30
0.0
 10
0.0694448818897638
 20
1.945161417322835
 30
0.0
 10
0.0694448818897638
 20
1.945161417322835
 30
0.0
 10
0.0719448818897638
 20
1.94788188976378
 30
0.0
 10
0.0731968503937008
 20
1.949909448818898
 30
0.0
 10
0.0731968503937008
 20
1.951271653543307
 30
0.0
 10
0.0731968503937008
 20
1.951271653543307
 30
0.0
 10
0.0731968503937008
 20
1.952244094488189
 30
0.0
 10
0.072751968503937
 20
1.952996062992126
 30
0.0
 10
0.0718897637795276
 20
1.953551181102362
 30
0.0
 10
0.0718897637795276
 20
1.953551181102362
 30
0.0
 10
0.0710275590551181
 20
1.95407874015748
 30
0.0
 10
0.0691692913385827
 20
1.954354330708662
 30
0.0
 10
0.0662795275590551
 20
1.954354330708662
 30
0.0
 10
0.0662795275590551
 20
1.954354330708662
 30
0.0
 10
0.0662795275590551
 20
1.954354330708662
 30
0.0
 10
0.0631968503937008
 20
1.954354330708662
 30
0.0
 10
0.0631968503937008
 20
1.954354330708662
 30
0.0
 10
0.0631968503937008
 20
1.954354330708662
 30
0.0
 10
0.0631968503937008
 20
1.954354330708662
 30
0.0
 10
0.0631968503937008
 20
1.961188976377953
 30
0.0
 10
0.0631968503937008
 20
1.961188976377953
 30
0.0
 10
0.0631968503937008
 20
1.961188976377953
 30
0.0
 10
0.0631968503937008
 20
1.961188976377953
 30
0.0
 10
0.0979448818897638
 20
1.961188976377953
 30
0.0
 10
0.0979448818897638
 20
1.961188976377953
 30
0.0
 10
0.0979448818897638
 20
1.961188976377953
 30
0.0
 10
0.0979448818897638
 20
1.961188976377953
 30
0.0
 10
0.0979448818897638
 20
1.954354330708662
 30
0.0
 10
0.0979448818897638
 20
1.954354330708662
 30
0.0
 10
0.0979448818897638
 20
1.954354330708662
 30
0.0
 10
0.0945275590551181
 20
1.954188976377953
 30
0.0
 10
0.0915826771653543
 20
1.953496062992126
 30
0.0
 10
0.0891141732283465
 20
1.952244094488189
 30
0.0
 10
0.0891141732283465
 20
1.952244094488189
 30
0.0
 10
0.0866417322834646
 20
1.950996062992126
 30
0.0
 10
0.0837244094488189
 20
1.948633858267717
 30
0.0
 10
0.0803622047244095
 20
1.945161417322835
 30
0.0
 10
0.0803622047244095
 20
1.945161417322835
 30
0.0
 10
0.0803622047244095
 20
1.945161417322835
 30
0.0
 10
0.0617244094488189
 20
1.925799212598425
 30
0.0
 10
0.0617244094488189
 20
1.925799212598425
 30
0.0
 10
0.0617244094488189
 20
1.925799212598425
 30
0.0
 10
0.0617244094488189
 20
1.925799212598425
 30
0.0
 10
0.0849173228346457
 20
1.899354330708662
 30
0.0
 10
0.0849173228346457
 20
1.899354330708662
 30
0.0
 10
0.0849173228346457
 20
1.899354330708662
 30
0.0
 10
0.0849173228346457
 20
1.899354330708662
 30
0.0
 10
0.0858070866141732
 20
1.898216535433071
 30
0.0
 10
0.0858070866141732
 20
1.898216535433071
 30
0.0
 10
0.0858070866141732
 20
1.898216535433071
 30
0.0
 10
0.0880826771653543
 20
1.895271653543307
 30
0.0
 10
0.0906417322834646
 20
1.892909448818898
 30
0.0
 10
0.0934724409448819
 20
1.891133858267717
 30
0.0
 10
0.0934724409448819
 20
1.891133858267717
 30
0.0
 10
0.0950275590551181
 20
1.890106299212599
 30
0.0
 10
0.0974724409448819
 20
1.889551181102362
 30
0.0
 10
0.1007795275590551
 20
1.889496062992126
 30
0.0
 10
0.1007795275590551
 20
1.889496062992126
 30
0.0
 10
0.1007795275590551
 20
1.889496062992126
 30
0.0
 10
0.1007795275590551
 20
1.882661417322835
 30
0.0
 10
0.1007795275590551
 20
1.882661417322835
 30
0.0
 10
0.1007795275590551
 20
1.882661417322835
 30
0.0
 10
0.1007795275590551
 20
1.882661417322835
 30
0.0
 10
0.0608346456692913
 20
1.882661417322835
 30
0.0
 10
0.0608346456692913
 20
1.882661417322835
 30
0.0
 10
0.0608346456692913
 20
1.882661417322835
 30
0.0
 10
0.0608346456692913
 20
1.882661417322835
 30
0.0
 10
0.0608346456692913
 20
1.889496062992126
 30
0.0
 10
0.0608346456692913
 20
1.889496062992126
 30
0.0
 10
0.0608346456692913
 20
1.889496062992126
 30
0.0
 10
0.0608346456692913
 20
1.889496062992126
 30
0.0
 10
0.064251968503937
 20
1.889496062992126
 30
0.0
 10
0.064251968503937
 20
1.889496062992126
 30
0.0
 10
0.064251968503937
 20
1.889496062992126
 30
0.0
 10
0.0668622047244095
 20
1.889496062992126
 30
0.0
 10
0.0685
 20
1.889661417322835
 30
0.0
 10
0.0692244094488189
 20
1.889996062992126
 30
0.0
 10
0.0692244094488189
 20
1.889996062992126
 30
0.0
 10
0.0703897637795276
 20
1.890523622047244
 30
0.0
 10
0.071
 20
1.89144094488189
 30
0.0
 10
0.071
 20
1.892744094488189
 30
0.0
 10
0.071
 20
1.892744094488189
 30
0.0
 10
0.071
 20
1.89394094488189
 30
0.0
 10
0.0696968503937008
 20
1.896133858267717
 30
0.0
 10
0.0670826771653543
 20
1.899354330708662
 30
0.0
 10
0.0670826771653543
 20
1.899354330708662
 30
0.0
 10
0.0670826771653543
 20
1.899354330708662
 30
0.0
 10
0.0522795275590551
 20
1.917496062992126
 30
0.0
 10
0.0522795275590551
 20
1.917496062992126
 30
0.0
 10
0.0522795275590551
 20
1.917496062992126
 30
0.0
 10
0.0522795275590551
 20
1.917496062992126
 30
0.0
 10
0.035751968503937
 20
1.899354330708662
 30
0.0
 10
0.035751968503937
 20
1.899354330708662
 30
0.0
 10
0.035751968503937
 20
1.899354330708662
 30
0.0
 10
0.035751968503937
 20
1.899354330708662
 30
0.0
 10
0.0341417322834646
 20
1.89738188976378
 30
0.0
 10
0.0341417322834646
 20
1.89738188976378
 30
0.0
 10
0.0341417322834646
 20
1.89738188976378
 30
0.0
 10
0.0341417322834646
 20
1.89738188976378
 30
0.0
 10
0.033251968503937
 20
1.896409448818898
 30
0.0
 10
0.033251968503937
 20
1.896409448818898
 30
0.0
 10
0.033251968503937
 20
1.896409448818898
 30
0.0
 10
0.0318897637795276
 20
1.89494094488189
 30
0.0
 10
0.0311968503937008
 20
1.893661417322835
 30
0.0
 10
0.0311968503937008
 20
1.892523622047244
 30
0.0
 10
0.0311968503937008
 20
1.892523622047244
 30
0.0
 10
0.0311968503937008
 20
1.891468503937008
 30
0.0
 10
0.0316141732283465
 20
1.890716535433071
 30
0.0
 10
0.0324724409448819
 20
1.890216535433071
 30
0.0
 10
0.0324724409448819
 20
1.890216535433071
 30
0.0
 10
0.0333070866141732
 20
1.889744094488189
 30
0.0
 10
0.0351968503937008
 20
1.889496062992126
 30
0.0
 10
0.0381141732283465
 20
1.889496062992126
 30
0.0
 10
0.0381141732283465
 20
1.889496062992126
 30
0.0
 10
0.0381141732283465
 20
1.889496062992126
 30
0.0
 10
0.0413897637795276
 20
1.889496062992126
 30
0.0
 10
0.0413897637795276
 20
1.889496062992126
 30
0.0
 10
0.0413897637795276
 20
1.889496062992126
 30
0.0
 10
0.0413897637795276
 20
1.889496062992126
 30
0.0
 10
0.0413897637795276
 20
1.882661417322835
 30
0.0
 10
0.0413897637795276
 20
1.882661417322835
 30
0.0
 10
0.0413897637795276
 20
1.882661417322835
 30
0.0
 10
0.0413897637795276
 20
1.882661417322835
 30
0.0
 10
0.0071141732283465
 20
1.882661417322835
 30
0.0
 10
0.0071141732283465
 20
1.882661417322835
 30
0.0
 10
0.0071141732283465
 20
1.882661417322835
 30
0.0
 10
0.0071141732283465
 20
1.882661417322835
 30
0.0
 10
0.0071141732283465
 20
1.889496062992126
 30
0.0
 10
0.0071141732283465
 20
1.889496062992126
 30
0.0
 10
0.0071141732283465
 20
1.889496062992126
 30
0.0
 10
0.0097795275590551
 20
1.889551181102362
 30
0.0
 10
0.0118622047244094
 20
1.889826771653543
 30
0.0
 10
0.0133897637795276
 20
1.890354330708661
 30
0.0
 10
0.0133897637795276
 20
1.890354330708661
 30
0.0
 10
0.0148897637795276
 20
1.890854330708661
 30
0.0
 10
0.0163622047244095
 20
1.891661417322835
 30
0.0
 10
0.0177795275590551
 20
1.892744094488189
 30
0.0
 10
0.0177795275590551
 20
1.892744094488189
 30
0.0
 10
0.0202244094488189
 20
1.894716535433071
 30
0.0
 10
0.0219724409448819
 20
1.896244094488189
 30
0.0
 10
0.0230590551181102
 20
1.89738188976378
 30
0.0
 10
0.0230590551181102
 20
1.89738188976378
 30
0.0
 10
0.0230590551181102
 20
1.89738188976378
 30
0.0
 10
0.0469173228346457
 20
1.92188188976378
 30
0.0
 10
0.0469173228346457
 20
1.92188188976378
 30
0.0
 10
0.0469173228346457
 20
1.92188188976378
 30
0.0
 10
0.0469173228346457
 20
1.92188188976378
 30
0.0
 10
0.0266417322834646
 20
1.945161417322835
 30
0.0
 10
0.0266417322834646
 20
1.945161417322835
 30
0.0
 10
0.0266417322834646
 20
1.945161417322835
 30
0.0
 10
0.0240866141732283
 20
1.948051181102362
 30
0.0
 10
0.0220866141732283
 20
1.950051181102362
 30
0.0
 10
0.0205866141732283
 20
1.951216535433071
 30
0.0
 10
0.0205866141732283
 20
1.951216535433071
 30
0.0
 10
0.0190866141732283
 20
1.95238188976378
 30
0.0
 10
0.0176417322834646
 20
1.953216535433071
 30
0.0
 10
0.0162244094488189
 20
1.953661417322835
 30
0.0
 10
0.0162244094488189
 20
1.953661417322835
 30
0.0
 10
0.0148070866141732
 20
1.954133858267717
 30
0.0
 10
0.0128346456692913
 20
1.954354330708662
 30
0.0
 10
0.0102795275590551
 20
1.954354330708662
 30
0.0
 10
0.0102795275590551
 20
1.954354330708662
 30
0.0
 10
0.0102795275590551
 20
1.954354330708662
 30
0.0
 10
0.0102795275590551
 20
1.961188976377953
 30
0.0
 10
0.0102795275590551
 20
1.961188976377953
 30
0.0
  0
SPLINE
  5
3E
330
1F
100
AcDbEntity
  8
LAYER_1
 62
   250
100
AcDbSpline
210
0.0
220
0.0
230
1.0
 70
    11
 71
     3
 72
   172
 73
   168
 74
     0
 42
0.0000000001
 43
0.0000000001
 40
0.0
 40
0.0
 40
0.0
 40
0.0
 40
0.0238095238095238
 40
0.0238095238095238
 40
0.0238095238095238
 40
0.0238095238095238
 40
0.0476190476190476
 40
0.0476190476190476
 40
0.0476190476190476
 40
0.0476190476190476
 40
0.0714285714285714
 40
0.0714285714285714
 40
0.0714285714285714
 40
0.0714285714285714
 40
0.0952380952380952
 40
0.0952380952380952
 40
0.0952380952380952
 40
0.0952380952380952
 40
0.119047619047619
 40
0.119047619047619
 40
0.119047619047619
 40
0.119047619047619
 40
0.1428571428571429
 40
0.1428571428571429
 40
0.1428571428571429
 40
0.1428571428571429
 40
0.1666666666666667
 40
0.1666666666666667
 40
0.1666666666666667
 40
0.1666666666666667
 40
0.1904761904761905
 40
0.1904761904761905
 40
0.1904761904761905
 40
0.1904761904761905
 40
0.2142857142857143
 40
0.2142857142857143
 40
0.2142857142857143
 40
0.2142857142857143
 40
0.2380952380952381
 40
0.2380952380952381
 40
0.2380952380952381
 40
0.2380952380952381
 40
0.2619047619047619
 40
0.2619047619047619
 40
0.2619047619047619
 40
0.2619047619047619
 40
0.2857142857142857
 40
0.2857142857142857
 40
0.2857142857142857
 40
0.2857142857142857
 40
0.3095238095238095
 40
0.3095238095238095
 40
0.3095238095238095
 40
0.3095238095238095
 40
0.3333333333333334
 40
0.3333333333333334
 40
0.3333333333333334
 40
0.3333333333333334
 40
0.3571428571428572
 40
0.3571428571428572
 40
0.3571428571428572
 40
0.3571428571428572
 40
0.380952380952381
 40
0.380952380952381
 40
0.380952380952381
 40
0.380952380952381
 40
0.4047619047619049
 40
0.4047619047619049
 40
0.4047619047619049
 40
0.4047619047619049
 40
0.4285714285714287
 40
0.4285714285714287
 40
0.4285714285714287
 40
0.4285714285714287
 40
0.4523809523809526
 40
0.4523809523809526
 40
0.4523809523809526
 40
0.4523809523809526
 40
0.4761904761904764
 40
0.4761904761904764
 40
0.4761904761904764
 40
0.4761904761904764
 40
0.5000000000000002
 40
0.5000000000000002
 40
0.5000000000000002
 40
0.5000000000000002
 40
0.5238095238095241
 40
0.5238095238095241
 40
0.5238095238095241
 40
0.5238095238095241
 40
0.5476190476190479
 40
0.5476190476190479
 40
0.5476190476190479
 40
0.5476190476190479
 40
0.5714285714285717
 40
0.5714285714285717
 40
0.5714285714285717
 40
0.5714285714285717
 40
0.5952380952380956
 40
0.5952380952380956
 40
0.5952380952380956
 40
0.5952380952380956
 40
0.6190476190476194
 40
0.6190476190476194
 40
0.6190476190476194
 40
0.6190476190476194
 40
0.6428571428571432
 40
0.6428571428571432
 40
0.6428571428571432
 40
0.6428571428571432
 40
0.6666666666666671
 40
0.6666666666666671
 40
0.6666666666666671
 40
0.6666666666666671
 40
0.6904761904761909
 40
0.6904761904761909
 40
0.6904761904761909
 40
0.6904761904761909
 40
0.7142857142857148
 40
0.7142857142857148
 40
0.7142857142857148
 40
0.7142857142857148
 40
0.7380952380952386
 40
0.7380952380952386
 40
0.7380952380952386
 40
0.7380952380952386
 40
0.7619047619047624
 40
0.7619047619047624
 40
0.7619047619047624
 40
0.7619047619047624
 40
0.7857142857142863
 40
0.7857142857142863
 40
0.7857142857142863
 40
0.7857142857142863
 40
0.8095238095238101
 40
0.8095238095238101
 40
0.8095238095238101
 40
0.8095238095238101
 40
0.8333333333333339
 40
0.8333333333333339
 40
0.8333333333333339
 40
0.8333333333333339
 40
0.8571428571428578
 40
0.8571428571428578
 40
0.8571428571428578
 40
0.8571428571428578
 40
0.8809523809523816
 40
0.8809523809523816
 40
0.8809523809523816
 40
0.8809523809523816
 40
0.9047619047619054
 40
0.9047619047619054
 40
0.9047619047619054
 40
0.9047619047619054
 40
0.9285714285714293
 40
0.9285714285714293
 40
0.9285714285714293
 40
0.9285714285714293
 40
0.9523809523809531
 40
0.9523809523809531
 40
0.9523809523809531
 40
0.9523809523809531
 40
0.9761904761904769
 40
0.9761904761904769
 40
0.9761904761904769
 40
0.9761904761904769
 40
1.0
 40
1.0
 40
1.0
 40
1.0
 10
0.1759724409448819
 20
1.965826771653543
 30
0.0
 10
0.1759724409448819
 20
1.965826771653543
 30
0.0
 10
0.1681653543307087
 20
1.967051181102362
 30
0.0
 10
0.1681653543307087
 20
1.967051181102362
 30
0.0
 10
0.1681653543307087
 20
1.967051181102362
 30
0.0
 10
0.1688622047244095
 20
1.972909448818898
 30
0.0
 10
0.1703897637795276
 20
1.977771653543307
 30
0.0
 10
0.1727244094488189
 20
1.981633858267717
 30
0.0
 10
0.1727244094488189
 20
1.981633858267717
 30
0.0
 10
0.1758070866141732
 20
1.986826771653544
 30
0.0
 10
0.1801653543307087
 20
1.99088188976378
 30
0.0
 10
0.1858070866141732
 20
1.993771653543307
 30
0.0
 10
0.1858070866141732
 20
1.993771653543307
 30
0.0
 10
0.1914724409448819
 20
1.996688976377953
 30
0.0
 10
0.1979448818897638
 20
1.998133858267717
 30
0.0
 10
0.2052795275590551
 20
1.998133858267717
 30
0.0
 10
0.2052795275590551
 20
1.998133858267717
 30
0.0
 10
0.2124724409448819
 20
1.998133858267717
 30
0.0
 10
0.2188346456692913
 20
1.996854330708662
 30
0.0
 10
0.2243070866141732
 20
1.994271653543307
 30
0.0
 10
0.2243070866141732
 20
1.994271653543307
 30
0.0
 10
0.2297795275590551
 20
1.991688976377953
 30
0.0
 10
0.2339173228346457
 20
1.988271653543307
 30
0.0
 10
0.2367204724409449
 20
1.984023622047244
 30
0.0
 10
0.2367204724409449
 20
1.984023622047244
 30
0.0
 10
0.2395275590551181
 20
1.979771653543307
 30
0.0
 10
0.2409173228346457
 20
1.975161417322835
 30
0.0
 10
0.2409173228346457
 20
1.970216535433071
 30
0.0
 10
0.2409173228346457
 20
1.970216535433071
 30
0.0
 10
0.2409173228346457
 20
1.96588188976378
 30
0.0
 10
0.2398622047244094
 20
1.961996062992126
 30
0.0
 10
0.237748031496063
 20
1.95857874015748
 30
0.0
 10
0.237748031496063
 20
1.95857874015748
 30
0.0
 10
0.2356102362204725
 20
1.955161417322835
 30
0.0
 10
0.2324724409448819
 20
1.952106299212599
 30
0.0
 10
0.2283070866141732
 20
1.94938188976378
 30
0.0
 10
0.2283070866141732
 20
1.94938188976378
 30
0.0
 10
0.2253622047244095
 20
1.947496062992126
 30
0.0
 10
0.2215551181102362
 20
1.945826771653543
 30
0.0
 10
0.2168346456692913
 20
1.944437007874016
 30
0.0
 10
0.2168346456692913
 20
1.944437007874016
 30
0.0
 10
0.2218622047244095
 20
1.943716535433071
 30
0.0
 10
0.226
 20
1.942551181102362
 30
0.0
 10
0.2291929133858268
 20
1.940937007874016
 30
0.0
 10
0.2291929133858268
 20
1.940937007874016
 30
0.0
 10
0.2343897637795276
 20
1.938271653543307
 30
0.0
 10
0.2385
 20
1.934606299212599
 30
0.0
 10
0.2414724409448819
 20
1.929937007874016
 30
0.0
 10
0.2414724409448819
 20
1.929937007874016
 30
0.0
 10
0.2444724409448819
 20
1.925271653543307
 30
0.0
 10
0.2459448818897638
 20
1.920161417322835
 30
0.0
 10
0.2459448818897638
 20
1.914551181102362
 30
0.0
 10
0.2459448818897638
 20
1.914551181102362
 30
0.0
 10
0.2459448818897638
 20
1.905606299212598
 30
0.0
 10
0.2420275590551181
 20
1.897716535433071
 30
0.0
 10
0.2341653543307087
 20
1.890909448818898
 30
0.0
 10
0.2341653543307087
 20
1.890909448818898
 30
0.0
 10
0.2262795275590551
 20
1.884106299212599
 30
0.0
 10
0.2161102362204725
 20
1.880716535433071
 30
0.0
 10
0.2036377952755906
 20
1.880716535433071
 30
0.0
 10
0.2036377952755906
 20
1.880716535433071
 30
0.0
 10
0.1913346456692913
 20
1.880716535433071
 30
0.0
 10
0.1809724409448819
 20
1.883996062992126
 30
0.0
 10
0.1725551181102362
 20
1.890551181102362
 30
0.0
 10
0.1725551181102362
 20
1.890551181102362
 30
0.0
 10
0.1655
 20
1.896133858267717
 30
0.0
 10
0.1619724409448819
 20
1.901771653543307
 30
0.0
 10
0.1619724409448819
 20
1.907409448818898
 30
0.0
 10
0.1619724409448819
 20
1.907409448818898
 30
0.0
 10
0.1619724409448819
 20
1.909633858267717
 30
0.0
 10
0.1626968503937008
 20
1.911496062992126
 30
0.0
 10
0.1641377952755906
 20
1.912968503937008
 30
0.0
 10
0.1641377952755906
 20
1.912968503937008
 30
0.0
 10
0.1655551181102362
 20
1.914468503937008
 30
0.0
 10
0.1673622047244095
 20
1.915216535433071
 30
0.0
 10
0.1695551181102362
 20
1.915216535433071
 30
0.0
 10
0.1695551181102362
 20
1.915216535433071
 30
0.0
 10
0.1719173228346457
 20
1.915216535433071
 30
0.0
 10
0.1739724409448819
 20
1.914299212598425
 30
0.0
 10
0.1756377952755906
 20
1.912437007874016
 30
0.0
 10
0.1756377952755906
 20
1.912437007874016
 30
0.0
 10
0.1765551181102362
 20
1.911409448818898
 30
0.0
 10
0.1776377952755906
 20
1.90894094488189
 30
0.0
 10
0.1788070866141732
 20
1.905051181102362
 30
0.0
 10
0.1788070866141732
 20
1.905051181102362
 30
0.0
 10
0.1805
 20
1.899551181102362
 30
0.0
 10
0.1833622047244095
 20
1.89538188976378
 30
0.0
 10
0.1873622047244095
 20
1.892523622047244
 30
0.0
 10
0.1873622047244095
 20
1.892523622047244
 30
0.0
 10
0.1913897637795276
 20
1.889633858267717
 30
0.0
 10
0.1963622047244095
 20
1.888188976377953
 30
0.0
 10
0.2023346456692914
 20
1.888188976377953
 30
0.0
 10
0.2023346456692914
 20
1.888188976377953
 30
0.0
 10
0.2076653543307087
 20
1.888188976377953
 30
0.0
 10
0.2124173228346457
 20
1.889354330708662
 30
0.0
 10
0.2166102362204725
 20
1.891688976377953
 30
0.0
 10
0.2166102362204725
 20
1.891688976377953
 30
0.0
 10
0.2208346456692913
 20
1.894023622047244
 30
0.0
 10
0.2241377952755906
 20
1.897326771653543
 30
0.0
 10
0.2265826771653544
 20
1.901633858267717
 30
0.0
 10
0.2265826771653544
 20
1.901633858267717
 30
0.0
 10
0.2290275590551181
 20
1.905909448818898
 30
0.0
 10
0.230251968503937
 20
1.910606299212599
 30
0.0
 10
0.230251968503937
 20
1.915688976377953
 30
0.0
 10
0.230251968503937
 20
1.915688976377953
 30
0.0
 10
0.230251968503937
 20
1.919826771653543
 30
0.0
 10
0.2293622047244095
 20
1.923523622047244
 30
0.0
 10
0.2276102362204724
 20
1.926799212598425
 30
0.0
 10
0.2276102362204724
 20
1.926799212598425
 30
0.0
 10
0.2258346456692914
 20
1.930106299212599
 30
0.0
 10
0.2233346456692913
 20
1.93288188976378
 30
0.0
 10
0.2200826771653544
 20
1.935161417322835
 30
0.0
 10
0.2200826771653544
 20
1.935161417322835
 30
0.0
 10
0.2175826771653543
 20
1.936937007874016
 30
0.0
 10
0.2143897637795276
 20
1.938188976377953
 30
0.0
 10
0.2105275590551181
 20
1.93888188976378
 30
0.0
 10
0.2105275590551181
 20
1.93888188976378
 30
0.0
 10
0.2066377952755906
 20
1.939606299212598
 30
0.0
 10
0.2031377952755906
 20
1.939964566929134
 30
0.0
 10
0.2000551181102362
 20
1.939964566929134
 30
0.0
 10
0.2000551181102362
 20
1.939964566929134
 30
0.0
 10
0.2000551181102362
 20
1.939964566929134
 30
0.0
 10
0.1925
 20
1.939964566929134
 30
0.0
 10
0.1925
 20
1.939964566929134
 30
0.0
 10
0.1925
 20
1.939964566929134
 30
0.0
 10
0.1925
 20
1.939964566929134
 30
0.0
 10
0.1925
 20
1.947854330708662
 30
0.0
 10
0.1925
 20
1.947854330708662
 30
0.0
 10
0.1925
 20
1.947854330708662
 30
0.0
 10
0.1925
 20
1.947854330708662
 30
0.0
 10
0.1973070866141732
 20
1.947854330708662
 30
0.0
 10
0.1973070866141732
 20
1.947854330708662
 30
0.0
 10
0.1973070866141732
 20
1.947854330708662
 30
0.0
 10
0.2020551181102362
 20
1.947854330708662
 30
0.0
 10
0.2066102362204725
 20
1.948409448818898
 30
0.0
 10
0.2109724409448819
 20
1.949523622047244
 30
0.0
 10
0.2109724409448819
 20
1.949523622047244
 30
0.0
 10
0.2153070866141733
 20
1.950633858267717
 30
0.0
 10
0.2187795275590551
 20
1.952909448818898
 30
0.0
 10
0.2213897637795276
 20
1.95638188976378
 30
0.0
 10
0.2213897637795276
 20
1.95638188976378
 30
0.0
 10
0.2239724409448819
 20
1.959854330708662
 30
0.0
 10
0.2252795275590551
 20
1.963799212598425
 30
0.0
 10
0.2252795275590551
 20
1.968188976377953
 30
0.0
 10
0.2252795275590551
 20
1.968188976377953
 30
0.0
 10
0.2252795275590551
 20
1.971992125984252
 30
0.0
 10
0.2243897637795276
 20
1.975409448818898
 30
0.0
 10
0.2225551181102362
 20
1.978437007874016
 30
0.0
 10
0.2225551181102362
 20
1.978437007874016
 30
0.0
 10
0.220751968503937
 20
1.981492125984252
 30
0.0
 10
0.2180826771653543
 20
1.983909448818898
 30
0.0
 10
0.2145551181102362
 20
1.985688976377953
 30
0.0
 10
0.2145551181102362
 20
1.985688976377953
 30
0.0
 10
0.2110275590551181
 20
1.987464566929134
 30
0.0
 10
0.2069448818897638
 20
1.98838188976378
 30
0.0
 10
0.2023346456692914
 20
1.98838188976378
 30
0.0
 10
0.2023346456692914
 20
1.98838188976378
 30
0.0
 10
0.1978346456692914
 20
1.98838188976378
 30
0.0
 10
0.1936929133858268
 20
1.987437007874016
 30
0.0
 10
0.1899173228346457
 20
1.985606299212599
 30
0.0
 10
0.1899173228346457
 20
1.985606299212599
 30
0.0
 10
0.1861653543307087
 20
1.983771653543307
 30
0.0
 10
0.1831377952755906
 20
1.981299212598425
 30
0.0
 10
0.1808622047244095
 20
1.978188976377953
 30
0.0
 10
0.1808622047244095
 20
1.978188976377953
 30
0.0
 10
0.1785826771653543
 20
1.975106299212599
 30
0.0
 10
0.1769448818897638
 20
1.970992125984252
 30
0.0
 10
0.1759724409448819
 20
1.965826771653543
 30
0.0
  0
SPLINE
  5
3F
330
1F
100
AcDbEntity
  8
LAYER_1
 62
   250
100
AcDbSpline
210
0.0
220
0.0
230
1.0
 70
    11
 71
     3
 72
    60
 73
    56
 74
     0
 42
0.0000000001
 43
0.0000000001
 40
0.0
 40
0.0
 40
0.0
 40
0.0
 40
0.0714285714285714
 40
0.0714285714285714
 40
0.0714285714285714
 40
0.0714285714285714
 40
0.1428571428571429
 40
0.1428571428571429
 40
0.1428571428571429
 40
0.1428571428571429
 40
0.2142857142857143
 40
0.2142857142857143
 40
0.2142857142857143
 40
0.2142857142857143
 40
0.2857142857142857
 40
0.2857142857142857
 40
0.2857142857142857
 40
0.2857142857142857
 40
0.3571428571428571
 40
0.3571428571428571
 40
0.3571428571428571
 40
0.3571428571428571
 40
0.4285714285714285
 40
0.4285714285714285
 40
0.4285714285714285
 40
0.4285714285714285
 40
0.4999999999999999
 40
0.4999999999999999
 40
0.4999999999999999
 40
0.4999999999999999
 40
0.5714285714285713
 40
0.5714285714285713
 40
0.5714285714285713
 40
0.5714285714285713
 40
0.6428571428571427
 40
0.6428571428571427
 40
0.6428571428571427
 40
0.6428571428571427
 40
0.7142857142857141
 40
0.7142857142857141
 40
0.7142857142857141
 40
0.7142857142857141
 40
0.7857142857142855
 40
0.7857142857142855
 40
0.7857142857142855
 40
0.7857142857142855
 40
0.8571428571428569
 40
0.8571428571428569
 40
0.8571428571428569
 40
0.8571428571428569
 40
0.9285714285714283
 40
0.9285714285714283
 40
0.9285714285714283
 40
0.9285714285714283
 40
1.0
 40
1.0
 40
1.0
 40
1.0
 10
0.2673622047244095
 20
1.954106299212599
 30
0.0
 10
0.2673622047244095
 20
1.954106299212599
 30
0.0
 10
0.2629724409448819
 20
1.959496062992126
 30
0.0
 10
0.2629724409448819
 20
1.959496062992126
 30
0.0
 10
0.2629724409448819
 20
1.959496062992126
 30
0.0
 10
0.2740866141732284
 20
1.968551181102362
 30
0.0
 10
0.2796692913385827
 20
1.976106299212598
 30
0.0
 10
0.2796692913385827
 20
1.982188976377953
 30
0.0
 10
0.2796692913385827
 20
1.982188976377953
 30
0.0
 10
0.2796692913385827
 20
1.98288188976378
 30
0.0
 10
0.2796141732283465
 20
1.983771653543307
 30
0.0
 10
0.2795
 20
1.984799212598425
 30
0.0
 10
0.2795
 20
1.984799212598425
 30
0.0
 10
0.2785866141732283
 20
1.984409448818898
 30
0.0
 10
0.2776692913385827
 20
1.984106299212598
 30
0.0
 10
0.2768070866141733
 20
1.983909448818898
 30
0.0
 10
0.2768070866141733
 20
1.983909448818898
 30
0.0
 10
0.2759448818897638
 20
1.983688976377953
 30
0.0
 10
0.2751417322834646
 20
1.983578740157481
 30
0.0
 10
0.2743622047244095
 20
1.983578740157481
 30
0.0
 10
0.2743622047244095
 20
1.983578740157481
 30
0.0
 10
0.271751968503937
 20
1.983578740157481
 30
0.0
 10
0.2696692913385827
 20
1.984409448818898
 30
0.0
 10
0.2681141732283465
 20
1.986106299212598
 30
0.0
 10
0.2681141732283465
 20
1.986106299212598
 30
0.0
 10
0.2665275590551181
 20
1.987771653543307
 30
0.0
 10
0.265751968503937
 20
1.989909448818898
 30
0.0
 10
0.265751968503937
 20
1.992523622047244
 30
0.0
 10
0.265751968503937
 20
1.992523622047244
 30
0.0
 10
0.265751968503937
 20
1.99507874015748
 30
0.0
 10
0.2666968503937008
 20
1.997299212598425
 30
0.0
 10
0.2685866141732284
 20
1.999188976377953
 30
0.0
 10
0.2685866141732284
 20
1.999188976377953
 30
0.0
 10
0.2705
 20
2.001106299212598
 30
0.0
 10
0.2727795275590551
 20
2.002051181102362
 30
0.0
 10
0.2754173228346457
 20
2.002051181102362
 30
0.0
 10
0.2754173228346457
 20
2.002051181102362
 30
0.0
 10
0.2791141732283465
 20
2.002051181102362
 30
0.0
 10
0.2822795275590551
 20
2.000578740157481
 30
0.0
 10
0.2849173228346457
 20
1.997606299212599
 30
0.0
 10
0.2849173228346457
 20
1.997606299212599
 30
0.0
 10
0.2875275590551181
 20
1.994661417322835
 30
0.0
 10
0.2888622047244094
 20
1.990854330708662
 30
0.0
 10
0.2888622047244094
 20
1.986188976377953
 30
0.0
 10
0.2888622047244094
 20
1.986188976377953
 30
0.0
 10
0.2888622047244094
 20
1.983133858267717
 30
0.0
 10
0.2882244094488189
 20
1.979937007874016
 30
0.0
 10
0.2869724409448819
 20
1.976606299212599
 30
0.0
 10
0.2869724409448819
 20
1.976606299212599
 30
0.0
 10
0.2857244094488189
 20
1.973271653543307
 30
0.0
 10
0.2839173228346457
 20
1.970188976377953
 30
0.0
 10
0.2815275590551181
 20
1.967326771653543
 30
0.0
 10
0.2815275590551181
 20
1.967326771653543
 30
0.0
 10
0.2791417322834646
 20
1.964496062992126
 30
0.0
 10
0.2744173228346457
 20
1.96007874015748
 30
0.0
 10
0.2673622047244095
 20
1.954106299212599
 30
0.0
  0
SPLINE
  5
40
330
1F
100
AcDbEntity
  8
LAYER_1
 62
   250
100
AcDbSpline
210
0.0
220
0.0
230
1.0
 70
    11
 71
     3
 72
    60
 73
    56
 74
     0
 42
0.0000000001
 43
0.0000000001
 40
0.0
 40
0.0
 40
0.0
 40
0.0
 40
0.0714285714285714
 40
0.0714285714285714
 40
0.0714285714285714
 40
0.0714285714285714
 40
0.1428571428571429
 40
0.1428571428571429
 40
0.1428571428571429
 40
0.1428571428571429
 40
0.2142857142857143
 40
0.2142857142857143
 40
0.2142857142857143
 40
0.2142857142857143
 40
0.2857142857142857
 40
0.2857142857142857
 40
0.2857142857142857
 40
0.2857142857142857
 40
0.3571428571428571
 40
0.3571428571428571
 40
0.3571428571428571
 40
0.3571428571428571
 40
0.4285714285714285
 40
0.4285714285714285
 40
0.4285714285714285
 40
0.4285714285714285
 40
0.4999999999999999
 40
0.4999999999999999
 40
0.4999999999999999
 40
0.4999999999999999
 40
0.5714285714285713
 40
0.5714285714285713
 40
0.5714285714285713
 40
0.5714285714285713
 40
0.6428571428571427
 40
0.6428571428571427
 40
0.6428571428571427
 40
0.6428571428571427
 40
0.7142857142857141
 40
0.7142857142857141
 40
0.7142857142857141
 40
0.7142857142857141
 40
0.7857142857142855
 40
0.7857142857142855
 40
0.7857142857142855
 40
0.7857142857142855
 40
0.8571428571428569
 40
0.8571428571428569
 40
0.8571428571428569
 40
0.8571428571428569
 40
0.9285714285714283
 40
0.9285714285714283
 40
0.9285714285714283
 40
0.9285714285714283
 40
1.0
 40
1.0
 40
1.0
 40
1.0
 10
0.2964173228346457
 20
1.954106299212599
 30
0.0
 10
0.2964173228346457
 20
1.954106299212599
 30
0.0
 10
0.2920275590551181
 20
1.959496062992126
 30
0.0
 10
0.2920275590551181
 20
1.959496062992126
 30
0.0
 10
0.2920275590551181
 20
1.959496062992126
 30
0.0
 10
0.3031417322834646
 20
1.968551181102362
 30
0.0
 10
0.3087244094488189
 20
1.976106299212598
 30
0.0
 10
0.3087244094488189
 20
1.982188976377953
 30
0.0
 10
0.3087244094488189
 20
1.982188976377953
 30
0.0
 10
0.3087244094488189
 20
1.98288188976378
 30
0.0
 10
0.3086692913385827
 20
1.983771653543307
 30
0.0
 10
0.3085551181102362
 20
1.984799212598425
 30
0.0
 10
0.3085551181102362
 20
1.984799212598425
 30
0.0
 10
0.3076417322834646
 20
1.984409448818898
 30
0.0
 10
0.3067244094488189
 20
1.984106299212598
 30
0.0
 10
0.3058622047244095
 20
1.983909448818898
 30
0.0
 10
0.3058622047244095
 20
1.983909448818898
 30
0.0
 10
0.305
 20
1.983688976377953
 30
0.0
 10
0.3041692913385827
 20
1.983578740157481
 30
0.0
 10
0.3033346456692914
 20
1.983578740157481
 30
0.0
 10
0.3033346456692914
 20
1.983578740157481
 30
0.0
 10
0.3007795275590551
 20
1.983578740157481
 30
0.0
 10
0.2987244094488189
 20
1.984409448818898
 30
0.0
 10
0.2971692913385827
 20
1.986106299212598
 30
0.0
 10
0.2971692913385827
 20
1.986106299212598
 30
0.0
 10
0.2955866141732284
 20
1.987771653543307
 30
0.0
 10
0.2948070866141733
 20
1.989909448818898
 30
0.0
 10
0.2948070866141733
 20
1.992523622047244
 30
0.0
 10
0.2948070866141733
 20
1.992523622047244
 30
0.0
 10
0.2948070866141733
 20
1.99507874015748
 30
0.0
 10
0.295751968503937
 20
1.997299212598425
 30
0.0
 10
0.2976417322834646
 20
1.999188976377953
 30
0.0
 10
0.2976417322834646
 20
1.999188976377953
 30
0.0
 10
0.2995275590551181
 20
2.001106299212598
 30
0.0
 10
0.3018346456692914
 20
2.002051181102362
 30
0.0
 10
0.3044724409448819
 20
2.002051181102362
 30
0.0
 10
0.3044724409448819
 20
2.002051181102362
 30
0.0
 10
0.3081692913385827
 20
2.002051181102362
 30
0.0
 10
0.3113346456692914
 20
2.000578740157481
 30
0.0
 10
0.3139724409448819
 20
1.997606299212599
 30
0.0
 10
0.3139724409448819
 20
1.997606299212599
 30
0.0
 10
0.3165826771653543
 20
1.994661417322835
 30
0.0
 10
0.3179173228346457
 20
1.990854330708662
 30
0.0
 10
0.3179173228346457
 20
1.986188976377953
 30
0.0
 10
0.3179173228346457
 20
1.986188976377953
 30
0.0
 10
0.3179173228346457
 20
1.983133858267717
 30
0.0
 10
0.3172795275590551
 20
1.979937007874016
 30
0.0
 10
0.3160275590551182
 20
1.976606299212599
 30
0.0
 10
0.3160275590551182
 20
1.976606299212599
 30
0.0
 10
0.3147795275590551
 20
1.973271653543307
 30
0.0
 10
0.3129724409448819
 20
1.970188976377953
 30
0.0
 10
0.3105866141732284
 20
1.967326771653543
 30
0.0
 10
0.3105866141732284
 20
1.967326771653543
 30
0.0
 10
0.3081968503937008
 20
1.964496062992126
 30
0.0
 10
0.3034724409448819
 20
1.96007874015748
 30
0.0
 10
0.2964173228346457
 20
1.954106299212599
 30
0.0
  0
SPLINE
  5
41
330
1F
100
AcDbEntity
  8
LAYER_1
 62
   250
100
AcDbSpline
210
0.0
220
0.0
230
1.0
 70
    11
 71
     3
 72
   104
 73
   100
 74
     0
 42
0.0000000001
 43
0.0000000001
 40
0.0
 40
0.0
 40
0.0
 40
0.0
 40
0.04
 40
0.04
 40
0.04
 40
0.04
 40
0.08
 40
0.08
 40
0.08
 40
0.08
 40
0.12
 40
0.12
 40
0.12
 40
0.12
 40
0.16
 40
0.16
 40
0.16
 40
0.16
 40
0.2
 40
0.2
 40
0.2
 40
0.2
 40
0.24
 40
0.24
 40
0.24
 40
0.24
 40
0.28
 40
0.28
 40
0.28
 40
0.28
 40
0.32
 40
0.32
 40
0.32
 40
0.32
 40
0.36
 40
0.36
 40
0.36
 40
0.36
 40
0.4
 40
0.4
 40
0.4
 40
0.4
 40
0.44
 40
0.44
 40
0.44
 40
0.44
 40
0.4799999999999999
 40
0.4799999999999999
 40
0.4799999999999999
 40
0.4799999999999999
 40
0.5199999999999999
 40
0.5199999999999999
 40
0.5199999999999999
 40
0.5199999999999999
 40
0.5599999999999999
 40
0.5599999999999999
 40
0.5599999999999999
 40
0.5599999999999999
 40
0.6
 40
0.6
 40
0.6
 40
0.6
 40
0.64
 40
0.64
 40
0.64
 40
0.64
 40
0.6800000000000001
 40
0.6800000000000001
 40
0.6800000000000001
 40
0.6800000000000001
 40
0.7200000000000001
 40
0.7200000000000001
 40
0.7200000000000001
 40
0.7200000000000001
 40
0.7600000000000001
 40
0.7600000000000001
 40
0.7600000000000001
 40
0.7600000000000001
 40
0.8000000000000002
 40
0.8000000000000002
 40
0.8000000000000002
 40
0.8000000000000002
 40
0.8400000000000002
 40
0.8400000000000002
 40
0.8400000000000002
 40
0.8400000000000002
 40
0.8800000000000002
 40
0.8800000000000002
 40
0.8800000000000002
 40
0.8800000000000002
 40
0.9200000000000003
 40
0.9200000000000003
 40
0.9200000000000003
 40
0.9200000000000003
 40
0.9600000000000003
 40
0.9600000000000003
 40
0.9600000000000003
 40
0.9600000000000003
 40
1.0
 40
1.0
 40
1.0
 40
1.0
 10
-0.3176574803149607
 20
-1.349370078740158
 30
0.0
 10
-0.3176574803149607
 20
-1.349370078740158
 30
0.0
 10
-0.2636850393700788
 20
-1.349370078740158
 30
0.0
 10
-0.2636850393700788
 20
-1.349370078740158
 30
0.0
 10
-0.2636850393700788
 20
-1.349370078740158
 30
0.0
 10
-0.2505157480314961
 20
-1.349370078740158
 30
0.0
 10
-0.241488188976378
 20
-1.34998031496063
 30
0.0
 10
-0.2366023622047244
 20
-1.351177165354331
 30
0.0
 10
-0.2366023622047244
 20
-1.351177165354331
 30
0.0
 10
-0.2293779527559055
 20
-1.352897637795276
 30
0.0
 10
-0.2236850393700788
 20
-1.356035433070866
 30
0.0
 10
-0.2194606299212599
 20
-1.360594488188976
 30
0.0
 10
-0.2194606299212599
 20
-1.360594488188976
 30
0.0
 10
-0.2152677165354331
 20
-1.365149606299213
 30
0.0
 10
-0.2131574803149607
 20
-1.370649606299213
 30
0.0
 10
-0.2131574803149607
 20
-1.377035433070866
 30
0.0
 10
-0.2131574803149607
 20
-1.377035433070866
 30
0.0
 10
-0.2131574803149607
 20
-1.381649606299213
 30
0.0
 10
-0.2142677165354331
 20
-1.385787401574803
 30
0.0
 10
-0.216488188976378
 20
-1.389452755905512
 30
0.0
 10
-0.216488188976378
 20
-1.389452755905512
 30
0.0
 10
-0.2187125984251969
 20
-1.393122047244095
 30
0.0
 10
-0.2219606299212598
 20
-1.396259842519685
 30
0.0
 10
-0.2261850393700788
 20
-1.398842519685039
 30
0.0
 10
-0.2261850393700788
 20
-1.398842519685039
 30
0.0
 10
-0.2289055118110236
 20
-1.400535433070866
 30
0.0
 10
-0.2325748031496063
 20
-1.40198031496063
 30
0.0
 10
-0.237240157480315
 20
-1.403177165354331
 30
0.0
 10
-0.237240157480315
 20
-1.403177165354331
 30
0.0
 10
-0.2313228346456693
 20
-1.404259842519685
 30
0.0
 10
-0.2268228346456693
 20
-1.405562992125984
 30
0.0
 10
-0.223740157480315
 20
-1.407062992125984
 30
0.0
 10
-0.223740157480315
 20
-1.407062992125984
 30
0.0
 10
-0.2190748031496063
 20
-1.409342519685039
 30
0.0
 10
-0.2153779527559055
 20
-1.412590551181102
 30
0.0
 10
-0.2126850393700787
 20
-1.416842519685039
 30
0.0
 10
-0.2126850393700787
 20
-1.416842519685039
 30
0.0
 10
-0.2099606299212599
 20
-1.421062992125984
 30
0.0
 10
-0.2086023622047244
 20
-1.42584251968504
 30
0.0
 10
-0.2086023622047244
 20
-1.431149606299213
 30
0.0
 10
-0.2086023622047244
 20
-1.431149606299213
 30
0.0
 10
-0.2086023622047244
 20
-1.436314960629921
 30
0.0
 10
-0.2099330708661417
 20
-1.441090551181103
 30
0.0
 10
-0.2126023622047244
 20
-1.44548031496063
 30
0.0
 10
-0.2126023622047244
 20
-1.44548031496063
 30
0.0
 10
-0.215240157480315
 20
-1.449870078740158
 30
0.0
 10
-0.2190157480314961
 20
-1.45348031496063
 30
0.0
 10
-0.2238503937007874
 20
-1.456314960629921
 30
0.0
 10
-0.2238503937007874
 20
-1.456314960629921
 30
0.0
 10
-0.2287125984251969
 20
-1.459118110236221
 30
0.0
 10
-0.2343779527559055
 20
-1.460925196850394
 30
0.0
 10
-0.2408228346456693
 20
-1.461732283464567
 30
0.0
 10
-0.2408228346456693
 20
-1.461732283464567
 30
0.0
 10
-0.2472952755905512
 20
-1.462507874015748
 30
0.0
 10
-0.2539330708661418
 20
-1.462897637795276
 30
0.0
 10
-0.2607677165354331
 20
-1.462897637795276
 30
0.0
 10
-0.2607677165354331
 20
-1.462897637795276
 30
0.0
 10
-0.2607677165354331
 20
-1.462897637795276
 30
0.0
 10
-0.3176574803149607
 20
-1.462897637795276
 30
0.0
 10
-0.3176574803149607
 20
-1.462897637795276
 30
0.0
 10
-0.3176574803149607
 20
-1.462897637795276
 30
0.0
 10
-0.3176574803149607
 20
-1.462897637795276
 30
0.0
 10
-0.3176574803149607
 20
-1.456062992125984
 30
0.0
 10
-0.3176574803149607
 20
-1.456062992125984
 30
0.0
 10
-0.3176574803149607
 20
-1.456062992125984
 30
0.0
 10
-0.3176574803149607
 20
-1.456062992125984
 30
0.0
 10
-0.3138228346456693
 20
-1.456062992125984
 30
0.0
 10
-0.3138228346456693
 20
-1.456062992125984
 30
0.0
 10
-0.3138228346456693
 20
-1.456062992125984
 30
0.0
 10
-0.3101259842519685
 20
-1.456062992125984
 30
0.0
 10
-0.3076259842519685
 20
-1.45548031496063
 30
0.0
 10
-0.3062677165354331
 20
-1.45434251968504
 30
0.0
 10
-0.3062677165354331
 20
-1.45434251968504
 30
0.0
 10
-0.3042952755905512
 20
-1.452787401574803
 30
0.0
 10
-0.3033228346456693
 20
-1.450177165354331
 30
0.0
 10
-0.3033228346456693
 20
-1.446535433070866
 30
0.0
 10
-0.3033228346456693
 20
-1.446535433070866
 30
0.0
 10
-0.3033228346456693
 20
-1.446535433070866
 30
0.0
 10
-0.3033228346456693
 20
-1.367677165354331
 30
0.0
 10
-0.3033228346456693
 20
-1.367677165354331
 30
0.0
 10
-0.3033228346456693
 20
-1.367677165354331
 30
0.0
 10
-0.3033228346456693
 20
-1.36398031496063
 30
0.0
 10
-0.3036259842519685
 20
-1.36148031496063
 30
0.0
 10
-0.3042125984251969
 20
-1.360122047244095
 30
0.0
 10
-0.3042125984251969
 20
-1.360122047244095
 30
0.0
 10
-0.3048228346456693
 20
-1.358759842519685
 30
0.0
 10
-0.3057125984251969
 20
-1.357787401574803
 30
0.0
 10
-0.3069055118110237
 20
-1.357177165354331
 30
0.0
 10
-0.3069055118110237
 20
-1.357177165354331
 30
0.0
 10
-0.3080984251968504
 20
-1.356594488188976
 30
0.0
 10
-0.3104055118110237
 20
-1.356287401574803
 30
0.0
 10
-0.3138228346456693
 20
-1.356287401574803
 30
0.0
 10
-0.3138228346456693
 20
-1.356287401574803
 30
0.0
 10
-0.3138228346456693
 20
-1.356287401574803
 30
0.0
 10
-0.3176574803149607
 20
-1.356287401574803
 30
0.0
 10
-0.3176574803149607
 20
-1.356287401574803
 30
0.0
 10
-0.3176574803149607
 20
-1.356287401574803
 30
0.0
 10
-0.3176574803149607
 20
-1.356287401574803
 30
0.0
 10
-0.3176574803149607
 20
-1.349370078740158
 30
0.0
 10
-0.3176574803149607
 20
-1.349370078740158
 30
0.0
  0
SPLINE
  5
42
330
1F
100
AcDbEntity
  8
LAYER_1
 62
   250
100
AcDbSpline
210
0.0
220
0.0
230
1.0
 70
    11
 71
     3
 72
    40
 73
    36
 74
     0
 42
0.0000000001
 43
0.0000000001
 40
0.0
 40
0.0
 40
0.0
 40
0.0
 40
0.1111111111111111
 40
0.1111111111111111
 40
0.1111111111111111
 40
0.1111111111111111
 40
0.2222222222222222
 40
0.2222222222222222
 40
0.2222222222222222
 40
0.2222222222222222
 40
0.3333333333333333
 40
0.3333333333333333
 40
0.3333333333333333
 40
0.3333333333333333
 40
0.4444444444444444
 40
0.4444444444444444
 40
0.4444444444444444
 40
0.4444444444444444
 40
0.5555555555555556
 40
0.5555555555555556
 40
0.5555555555555556
 40
0.5555555555555556
 40
0.6666666666666667
 40
0.6666666666666667
 40
0.6666666666666667
 40
0.6666666666666667
 40
0.7777777777777779
 40
0.7777777777777779
 40
0.7777777777777779
 40
0.7777777777777779
 40
0.8888888888888891
 40
0.8888888888888891
 40
0.8888888888888891
 40
0.8888888888888891
 40
1.0
 40
1.0
 40
1.0
 40
1.0
 10
-0.2880984251968504
 20
-1.358397637795276
 30
0.0
 10
-0.2880984251968504
 20
-1.358397637795276
 30
0.0
 10
-0.2880984251968504
 20
-1.39998031496063
 30
0.0
 10
-0.2880984251968504
 20
-1.39998031496063
 30
0.0
 10
-0.2880984251968504
 20
-1.39998031496063
 30
0.0
 10
-0.2880984251968504
 20
-1.39998031496063
 30
0.0
 10
-0.2673503937007874
 20
-1.39998031496063
 30
0.0
 10
-0.2673503937007874
 20
-1.39998031496063
 30
0.0
 10
-0.2673503937007874
 20
-1.39998031496063
 30
0.0
 10
-0.2576574803149607
 20
-1.39998031496063
 30
0.0
 10
-0.250988188976378
 20
-1.399535433070866
 30
0.0
 10
-0.2474330708661418
 20
-1.398622047244094
 30
0.0
 10
-0.2474330708661418
 20
-1.398622047244094
 30
0.0
 10
-0.2418228346456693
 20
-1.397149606299213
 30
0.0
 10
-0.2375748031496063
 20
-1.394649606299213
 30
0.0
 10
-0.2346023622047244
 20
-1.391122047244095
 30
0.0
 10
-0.2346023622047244
 20
-1.391122047244095
 30
0.0
 10
-0.2316574803149606
 20
-1.387594488188976
 30
0.0
 10
-0.2301574803149606
 20
-1.383062992125984
 30
0.0
 10
-0.2301574803149606
 20
-1.377535433070866
 30
0.0
 10
-0.2301574803149606
 20
-1.377535433070866
 30
0.0
 10
-0.2301574803149606
 20
-1.372870078740158
 30
0.0
 10
-0.2315157480314961
 20
-1.36898031496063
 30
0.0
 10
-0.2341850393700788
 20
-1.365842519685039
 30
0.0
 10
-0.2341850393700788
 20
-1.365842519685039
 30
0.0
 10
-0.2368779527559055
 20
-1.362732283464567
 30
0.0
 10
-0.240488188976378
 20
-1.360594488188976
 30
0.0
 10
-0.244988188976378
 20
-1.359452755905512
 30
0.0
 10
-0.244988188976378
 20
-1.359452755905512
 30
0.0
 10
-0.2479055118110236
 20
-1.358759842519685
 30
0.0
 10
-0.253988188976378
 20
-1.358397637795276
 30
0.0
 10
-0.2632125984251968
 20
-1.358397637795276
 30
0.0
 10
-0.2632125984251968
 20
-1.358397637795276
 30
0.0
 10
-0.2632125984251968
 20
-1.358397637795276
 30
0.0
 10
-0.2880984251968504
 20
-1.358397637795276
 30
0.0
 10
-0.2880984251968504
 20
-1.358397637795276
 30
0.0
  0
SPLINE
  5
43
330
1F
100
AcDbEntity
  8
LAYER_1
 62
   250
100
AcDbSpline
210
0.0
220
0.0
230
1.0
 70
    11
 71
     3
 72
    52
 73
    48
 74
     0
 42
0.0000000001
 43
0.0000000001
 40
0.0
 40
0.0
 40
0.0
 40
0.0
 40
0.0833333333333333
 40
0.0833333333333333
 40
0.0833333333333333
 40
0.0833333333333333
 40
0.1666666666666667
 40
0.1666666666666667
 40
0.1666666666666667
 40
0.1666666666666667
 40
0.25
 40
0.25
 40
0.25
 40
0.25
 40
0.3333333333333333
 40
0.3333333333333333
 40
0.3333333333333333
 40
0.3333333333333333
 40
0.4166666666666666
 40
0.4166666666666666
 40
0.4166666666666666
 40
0.4166666666666666
 40
0.4999999999999999
 40
0.4999999999999999
 40
0.4999999999999999
 40
0.4999999999999999
 40
0.5833333333333333
 40
0.5833333333333333
 40
0.5833333333333333
 40
0.5833333333333333
 40
0.6666666666666666
 40
0.6666666666666666
 40
0.6666666666666666
 40
0.6666666666666666
 40
0.75
 40
0.75
 40
0.75
 40
0.75
 40
0.8333333333333334
 40
0.8333333333333334
 40
0.8333333333333334
 40
0.8333333333333334
 40
0.9166666666666667
 40
0.9166666666666667
 40
0.9166666666666667
 40
0.9166666666666667
 40
1.0
 40
1.0
 40
1.0
 40
1.0
 10
-0.2880984251968504
 20
-1.407814960629921
 30
0.0
 10
-0.2880984251968504
 20
-1.407814960629921
 30
0.0
 10
-0.2880984251968504
 20
-1.445062992125984
 30
0.0
 10
-0.2880984251968504
 20
-1.445062992125984
 30
0.0
 10
-0.2880984251968504
 20
-1.445062992125984
 30
0.0
 10
-0.2880984251968504
 20
-1.448814960629921
 30
0.0
 10
-0.2879330708661417
 20
-1.451035433070866
 30
0.0
 10
-0.2876299212598426
 20
-1.451759842519685
 30
0.0
 10
-0.2876299212598426
 20
-1.451759842519685
 30
0.0
 10
-0.2871850393700788
 20
-1.452732283464567
 30
0.0
 10
-0.2863228346456693
 20
-1.453397637795276
 30
0.0
 10
-0.2850157480314961
 20
-1.453787401574803
 30
0.0
 10
-0.2850157480314961
 20
-1.453787401574803
 30
0.0
 10
-0.2840984251968504
 20
-1.454062992125984
 30
0.0
 10
-0.281488188976378
 20
-1.454204724409449
 30
0.0
 10
-0.2772125984251969
 20
-1.454204724409449
 30
0.0
 10
-0.2772125984251969
 20
-1.454204724409449
 30
0.0
 10
-0.2772125984251969
 20
-1.454204724409449
 30
0.0
 10
-0.2661299212598425
 20
-1.454204724409449
 30
0.0
 10
-0.2661299212598425
 20
-1.454204724409449
 30
0.0
 10
-0.2661299212598425
 20
-1.454204724409449
 30
0.0
 10
-0.2551850393700788
 20
-1.454204724409449
 30
0.0
 10
-0.2473503937007874
 20
-1.453590551181103
 30
0.0
 10
-0.2426574803149607
 20
-1.452370078740157
 30
0.0
 10
-0.2426574803149607
 20
-1.452370078740157
 30
0.0
 10
-0.2379606299212599
 20
-1.451149606299213
 30
0.0
 10
-0.2339606299212599
 20
-1.448562992125984
 30
0.0
 10
-0.2306574803149606
 20
-1.444618110236221
 30
0.0
 10
-0.2306574803149606
 20
-1.444618110236221
 30
0.0
 10
-0.2273503937007874
 20
-1.440704724409449
 30
0.0
 10
-0.2256850393700788
 20
-1.435952755905512
 30
0.0
 10
-0.2256850393700788
 20
-1.430425196850394
 30
0.0
 10
-0.2256850393700788
 20
-1.430425196850394
 30
0.0
 10
-0.2256850393700788
 20
-1.425759842519685
 30
0.0
 10
-0.2270433070866142
 20
-1.421622047244095
 30
0.0
 10
-0.2297125984251969
 20
-1.418007874015748
 30
0.0
 10
-0.2297125984251969
 20
-1.418007874015748
 30
0.0
 10
-0.2324055118110236
 20
-1.414397637795276
 30
0.0
 10
-0.2361299212598425
 20
-1.411814960629921
 30
0.0
 10
-0.2408779527559055
 20
-1.410204724409449
 30
0.0
 10
-0.2408779527559055
 20
-1.410204724409449
 30
0.0
 10
-0.2456299212598425
 20
-1.408590551181102
 30
0.0
 10
-0.2540433070866142
 20
-1.407814960629921
 30
0.0
 10
-0.2661299212598425
 20
-1.407814960629921
 30
0.0
 10
-0.2661299212598425
 20
-1.407814960629921
 30
0.0
 10
-0.2661299212598425
 20
-1.407814960629921
 30
0.0
 10
-0.2880984251968504
 20
-1.407814960629921
 30
0.0
 10
-0.2880984251968504
 20
-1.407814960629921
 30
0.0
  0
SPLINE
  5
44
330
1F
100
AcDbEntity
  8
LAYER_1
 62
   250
100
AcDbSpline
210
0.0
220
0.0
230
1.0
 70
    11
 71
     3
 72
   112
 73
   108
 74
     0
 42
0.0000000001
 43
0.0000000001
 40
0.0
 40
0.0
 40
0.0
 40
0.0
 40
0.037037037037037
 40
0.037037037037037
 40
0.037037037037037
 40
0.037037037037037
 40
0.0740740740740741
 40
0.0740740740740741
 40
0.0740740740740741
 40
0.0740740740740741
 40
0.1111111111111111
 40
0.1111111111111111
 40
0.1111111111111111
 40
0.1111111111111111
 40
0.1481481481481481
 40
0.1481481481481481
 40
0.1481481481481481
 40
0.1481481481481481
 40
0.1851851851851852
 40
0.1851851851851852
 40
0.1851851851851852
 40
0.1851851851851852
 40
0.2222222222222222
 40
0.2222222222222222
 40
0.2222222222222222
 40
0.2222222222222222
 40
0.2592592592592592
 40
0.2592592592592592
 40
0.2592592592592592
 40
0.2592592592592592
 40
0.2962962962962963
 40
0.2962962962962963
 40
0.2962962962962963
 40
0.2962962962962963
 40
0.3333333333333333
 40
0.3333333333333333
 40
0.3333333333333333
 40
0.3333333333333333
 40
0.3703703703703704
 40
0.3703703703703704
 40
0.3703703703703704
 40
0.3703703703703704
 40
0.4074074074074074
 40
0.4074074074074074
 40
0.4074074074074074
 40
0.4074074074074074
 40
0.4444444444444444
 40
0.4444444444444444
 40
0.4444444444444444
 40
0.4444444444444444
 40
0.4814814814814815
 40
0.4814814814814815
 40
0.4814814814814815
 40
0.4814814814814815
 40
0.5185185185185185
 40
0.5185185185185185
 40
0.5185185185185185
 40
0.5185185185185185
 40
0.5555555555555556
 40
0.5555555555555556
 40
0.5555555555555556
 40
0.5555555555555556
 40
0.5925925925925926
 40
0.5925925925925926
 40
0.5925925925925926
 40
0.5925925925925926
 40
0.6296296296296295
 40
0.6296296296296295
 40
0.6296296296296295
 40
0.6296296296296295
 40
0.6666666666666665
 40
0.6666666666666665
 40
0.6666666666666665
 40
0.6666666666666665
 40
0.7037037037037035
 40
0.7037037037037035
 40
0.7037037037037035
 40
0.7037037037037035
 40
0.7407407407407405
 40
0.7407407407407405
 40
0.7407407407407405
 40
0.7407407407407405
 40
0.7777777777777775
 40
0.7777777777777775
 40
0.7777777777777775
 40
0.7777777777777775
 40
0.8148148148148144
 40
0.8148148148148144
 40
0.8148148148148144
 40
0.8148148148148144
 40
0.8518518518518514
 40
0.8518518518518514
 40
0.8518518518518514
 40
0.8518518518518514
 40
0.8888888888888884
 40
0.8888888888888884
 40
0.8888888888888884
 40
0.8888888888888884
 40
0.9259259259259254
 40
0.9259259259259254
 40
0.9259259259259254
 40
0.9259259259259254
 40
0.9629629629629624
 40
0.9629629629629624
 40
0.9629629629629624
 40
0.9629629629629624
 40
1.0
 40
1.0
 40
1.0
 40
1.0
 10
-0.150992125984252
 20
-1.349370078740158
 30
0.0
 10
-0.150992125984252
 20
-1.349370078740158
 30
0.0
 10
-0.1375748031496063
 20
-1.349370078740158
 30
0.0
 10
-0.1375748031496063
 20
-1.349370078740158
 30
0.0
 10
-0.1375748031496063
 20
-1.349370078740158
 30
0.0
 10
-0.1375748031496063
 20
-1.349370078740158
 30
0.0
 10
-0.1023267716535433
 20
-1.444259842519685
 30
0.0
 10
-0.1023267716535433
 20
-1.444259842519685
 30
0.0
 10
-0.1023267716535433
 20
-1.444259842519685
 30
0.0
 10
-0.1006023622047244
 20
-1.449035433070866
 30
0.0
 10
-0.0988543307086614
 20
-1.452204724409449
 30
0.0
 10
-0.0970748031496063
 20
-1.453732283464567
 30
0.0
 10
-0.0970748031496063
 20
-1.453732283464567
 30
0.0
 10
-0.0953267716535433
 20
-1.455287401574803
 30
0.0
 10
-0.0929370078740158
 20
-1.456062992125984
 30
0.0
 10
-0.0899645669291339
 20
-1.456062992125984
 30
0.0
 10
-0.0899645669291339
 20
-1.456062992125984
 30
0.0
 10
-0.0899645669291339
 20
-1.456062992125984
 30
0.0
 10
-0.0881850393700787
 20
-1.456062992125984
 30
0.0
 10
-0.0881850393700787
 20
-1.456062992125984
 30
0.0
 10
-0.0881850393700787
 20
-1.456062992125984
 30
0.0
 10
-0.0881850393700787
 20
-1.456062992125984
 30
0.0
 10
-0.0881850393700787
 20
-1.462897637795276
 30
0.0
 10
-0.0881850393700787
 20
-1.462897637795276
 30
0.0
 10
-0.0881850393700787
 20
-1.462897637795276
 30
0.0
 10
-0.0881850393700787
 20
-1.462897637795276
 30
0.0
 10
-0.1286299212598425
 20
-1.462897637795276
 30
0.0
 10
-0.1286299212598425
 20
-1.462897637795276
 30
0.0
 10
-0.1286299212598425
 20
-1.462897637795276
 30
0.0
 10
-0.1286299212598425
 20
-1.462897637795276
 30
0.0
 10
-0.1286299212598425
 20
-1.456062992125984
 30
0.0
 10
-0.1286299212598425
 20
-1.456062992125984
 30
0.0
 10
-0.1286299212598425
 20
-1.456062992125984
 30
0.0
 10
-0.1273267716535433
 20
-1.455952755905512
 30
0.0
 10
-0.1260472440944882
 20
-1.455897637795276
 30
0.0
 10
-0.1247952755905512
 20
-1.455897637795276
 30
0.0
 10
-0.1247952755905512
 20
-1.455897637795276
 30
0.0
 10
-0.1221850393700787
 20
-1.455897637795276
 30
0.0
 10
-0.120492125984252
 20
-1.455618110236221
 30
0.0
 10
-0.1196574803149606
 20
-1.455090551181102
 30
0.0
 10
-0.1196574803149606
 20
-1.455090551181102
 30
0.0
 10
-0.1181023622047244
 20
-1.454062992125984
 30
0.0
 10
-0.1172992125984252
 20
-1.452759842519685
 30
0.0
 10
-0.1172992125984252
 20
-1.451177165354331
 30
0.0
 10
-0.1172992125984252
 20
-1.451177165354331
 30
0.0
 10
-0.1172992125984252
 20
-1.450035433070866
 30
0.0
 10
-0.1180748031496063
 20
-1.447259842519685
 30
0.0
 10
-0.1195748031496063
 20
-1.442787401574803
 30
0.0
 10
-0.1195748031496063
 20
-1.442787401574803
 30
0.0
 10
-0.1195748031496063
 20
-1.442787401574803
 30
0.0
 10
-0.1270748031496063
 20
-1.420814960629921
 30
0.0
 10
-0.1270748031496063
 20
-1.420814960629921
 30
0.0
 10
-0.1270748031496063
 20
-1.420814960629921
 30
0.0
 10
-0.1270748031496063
 20
-1.420814960629921
 30
0.0
 10
-0.168240157480315
 20
-1.420814960629921
 30
0.0
 10
-0.168240157480315
 20
-1.420814960629921
 30
0.0
 10
-0.168240157480315
 20
-1.420814960629921
 30
0.0
 10
-0.168240157480315
 20
-1.420814960629921
 30
0.0
 10
-0.1770472440944882
 20
-1.445397637795276
 30
0.0
 10
-0.1770472440944882
 20
-1.445397637795276
 30
0.0
 10
-0.1770472440944882
 20
-1.445397637795276
 30
0.0
 10
-0.1779645669291339
 20
-1.447952755905512
 30
0.0
 10
-0.1784370078740158
 20
-1.449704724409449
 30
0.0
 10
-0.1784370078740158
 20
-1.450704724409449
 30
0.0
 10
-0.1784370078740158
 20
-1.450704724409449
 30
0.0
 10
-0.1784370078740158
 20
-1.451787401574803
 30
0.0
 10
-0.1781299212598425
 20
-1.452732283464567
 30
0.0
 10
-0.1775748031496063
 20
-1.453535433070866
 30
0.0
 10
-0.1775748031496063
 20
-1.453535433070866
 30
0.0
 10
-0.176992125984252
 20
-1.45434251968504
 30
0.0
 10
-0.176240157480315
 20
-1.454952755905512
 30
0.0
 10
-0.175240157480315
 20
-1.455370078740158
 30
0.0
 10
-0.175240157480315
 20
-1.455370078740158
 30
0.0
 10
-0.1742677165354331
 20
-1.455787401574803
 30
0.0
 10
-0.1727125984251968
 20
-1.45598031496063
 30
0.0
 10
-0.1705196850393701
 20
-1.45598031496063
 30
0.0
 10
-0.1705196850393701
 20
-1.45598031496063
 30
0.0
 10
-0.1690748031496063
 20
-1.45598031496063
 30
0.0
 10
-0.1678818897637796
 20
-1.456007874015748
 30
0.0
 10
-0.1669645669291339
 20
-1.456062992125984
 30
0.0
 10
-0.1669645669291339
 20
-1.456062992125984
 30
0.0
 10
-0.1669645669291339
 20
-1.456062992125984
 30
0.0
 10
-0.1669645669291339
 20
-1.462897637795276
 30
0.0
 10
-0.1669645669291339
 20
-1.462897637795276
 30
0.0
 10
-0.1669645669291339
 20
-1.462897637795276
 30
0.0
 10
-0.1669645669291339
 20
-1.462897637795276
 30
0.0
 10
-0.2008818897637796
 20
-1.462897637795276
 30
0.0
 10
-0.2008818897637796
 20
-1.462897637795276
 30
0.0
 10
-0.2008818897637796
 20
-1.462897637795276
 30
0.0
 10
-0.2008818897637796
 20
-1.462897637795276
 30
0.0
 10
-0.2008818897637796
 20
-1.456062992125984
 30
0.0
 10
-0.2008818897637796
 20
-1.456062992125984
 30
0.0
 10
-0.2008818897637796
 20
-1.456062992125984
 30
0.0
 10
-0.197740157480315
 20
-1.456062992125984
 30
0.0
 10
-0.1954645669291339
 20
-1.455759842519685
 30
0.0
 10
-0.1941023622047244
 20
-1.455118110236221
 30
0.0
 10
-0.1941023622047244
 20
-1.455118110236221
 30
0.0
 10
-0.1927125984251969
 20
-1.454507874015748
 30
0.0
 10
-0.191492125984252
 20
-1.453507874015748
 30
0.0
 10
-0.1904645669291339
 20
-1.452118110236221
 30
0.0
 10
-0.1904645669291339
 20
-1.452118110236221
 30
0.0
 10
-0.1894370078740158
 20
-1.450732283464567
 30
0.0
 10
-0.1880748031496063
 20
-1.447814960629921
 30
0.0
 10
-0.1864094488188977
 20
-1.443370078740158
 30
0.0
 10
-0.1864094488188977
 20
-1.443370078740158
 30
0.0
 10
-0.1864094488188977
 20
-1.443370078740158
 30
0.0
 10
-0.150992125984252
 20
-1.349370078740158
 30
0.0
 10
-0.150992125984252
 20
-1.349370078740158
 30
0.0
  0
SPLINE
  5
45
330
1F
100
AcDbEntity
  8
LAYER_1
 62
   250
100
AcDbSpline
210
0.0
220
0.0
230
1.0
 70
    11
 71
     3
 72
    16
 73
    12
 74
     0
 42
0.0000000001
 43
0.0000000001
 40
0.0
 40
0.0
 40
0.0
 40
0.0
 40
0.3333333333333333
 40
0.3333333333333333
 40
0.3333333333333333
 40
0.3333333333333333
 40
0.6666666666666666
 40
0.6666666666666666
 40
0.6666666666666666
 40
0.6666666666666666
 40
1.0
 40
1.0
 40
1.0
 40
1.0
 10
-0.165240157480315
 20
-1.412842519685039
 30
0.0
 10
-0.165240157480315
 20
-1.412842519685039
 30
0.0
 10
-0.1301574803149606
 20
-1.412842519685039
 30
0.0
 10
-0.1301574803149606
 20
-1.412842519685039
 30
0.0
 10
-0.1301574803149606
 20
-1.412842519685039
 30
0.0
 10
-0.1301574803149606
 20
-1.412842519685039
 30
0.0
 10
-0.147740157480315
 20
-1.364007874015748
 30
0.0
 10
-0.147740157480315
 20
-1.364007874015748
 30
0.0
 10
-0.147740157480315
 20
-1.364007874015748
 30
0.0
 10
-0.147740157480315
 20
-1.364007874015748
 30
0.0
 10
-0.165240157480315
 20
-1.412842519685039
 30
0.0
 10
-0.165240157480315
 20
-1.412842519685039
 30
0.0
  0
SPLINE
  5
46
330
1F
100
AcDbEntity
  8
LAYER_1
 62
   250
100
AcDbSpline
210
0.0
220
0.0
230
1.0
 70
    11
 71
     3
 72
    72
 73
    68
 74
     0
 42
0.0000000001
 43
0.0000000001
 40
0.0
 40
0.0
 40
0.0
 40
0.0
 40
0.0588235294117647
 40
0.0588235294117647
 40
0.0588235294117647
 40
0.0588235294117647
 40
0.1176470588235294
 40
0.1176470588235294
 40
0.1176470588235294
 40
0.1176470588235294
 40
0.1764705882352941
 40
0.1764705882352941
 40
0.1764705882352941
 40
0.1764705882352941
 40
0.2352941176470588
 40
0.2352941176470588
 40
0.2352941176470588
 40
0.2352941176470588
 40
0.2941176470588235
 40
0.2941176470588235
 40
0.2941176470588235
 40
0.2941176470588235
 40
0.3529411764705883
 40
0.3529411764705883
 40
0.3529411764705883
 40
0.3529411764705883
 40
0.411764705882353
 40
0.411764705882353
 40
0.411764705882353
 40
0.411764705882353
 40
0.4705882352941177
 40
0.4705882352941177
 40
0.4705882352941177
 40
0.4705882352941177
 40
0.5294117647058824
 40
0.5294117647058824
 40
0.5294117647058824
 40
0.5294117647058824
 40
0.5882352941176471
 40
0.5882352941176471
 40
0.5882352941176471
 40
0.5882352941176471
 40
0.6470588235294118
 40
0.6470588235294118
 40
0.6470588235294118
 40
0.6470588235294118
 40
0.7058823529411765
 40
0.7058823529411765
 40
0.7058823529411765
 40
0.7058823529411765
 40
0.7647058823529412
 40
0.7647058823529412
 40
0.7647058823529412
 40
0.7647058823529412
 40
0.823529411764706
 40
0.823529411764706
 40
0.823529411764706
 40
0.823529411764706
 40
0.8823529411764707
 40
0.8823529411764707
 40
0.8823529411764707
 40
0.8823529411764707
 40
0.9411764705882354
 40
0.9411764705882354
 40
0.9411764705882354
 40
0.9411764705882354
 40
1.0
 40
1.0
 40
1.0
 40
1.0
 10
0.0748425196850394
 20
-1.349370078740158
 30
0.0
 10
0.0748425196850394
 20
-1.349370078740158
 30
0.0
 10
0.0809251968503937
 20
-1.349370078740158
 30
0.0
 10
0.0809251968503937
 20
-1.349370078740158
 30
0.0
 10
0.0809251968503937
 20
-1.349370078740158
 30
0.0
 10
0.0809251968503937
 20
-1.349370078740158
 30
0.0
 10
0.0809251968503937
 20
-1.44361811023622
 30
0.0
 10
0.0809251968503937
 20
-1.44361811023622
 30
0.0
 10
0.0809251968503937
 20
-1.44361811023622
 30
0.0
 10
0.0809251968503937
 20
-1.448062992125984
 30
0.0
 10
0.0812322834645669
 20
-1.450925196850394
 30
0.0
 10
0.0817874015748032
 20
-1.452204724409449
 30
0.0
 10
0.0817874015748032
 20
-1.452204724409449
 30
0.0
 10
0.0823700787401575
 20
-1.45348031496063
 30
0.0
 10
0.0832874015748031
 20
-1.454425196850394
 30
0.0
 10
0.0845905511811024
 20
-1.455090551181102
 30
0.0
 10
0.0845905511811024
 20
-1.455090551181102
 30
0.0
 10
0.0858976377952756
 20
-1.455732283464567
 30
0.0
 10
0.0884803149606299
 20
-1.456062992125984
 30
0.0
 10
0.0923425196850394
 20
-1.456062992125984
 30
0.0
 10
0.0923425196850394
 20
-1.456062992125984
 30
0.0
 10
0.0923425196850394
 20
-1.456062992125984
 30
0.0
 10
0.1003149606299213
 20
-1.456062992125984
 30
0.0
 10
0.1003149606299213
 20
-1.456062992125984
 30
0.0
 10
0.1003149606299213
 20
-1.456062992125984
 30
0.0
 10
0.1003149606299213
 20
-1.456062992125984
 30
0.0
 10
0.1003149606299213
 20
-1.462897637795276
 30
0.0
 10
0.1003149606299213
 20
-1.462897637795276
 30
0.0
 10
0.1003149606299213
 20
-1.462897637795276
 30
0.0
 10
0.1003149606299213
 20
-1.462897637795276
 30
0.0
 10
0.0466771653543307
 20
-1.462897637795276
 30
0.0
 10
0.0466771653543307
 20
-1.462897637795276
 30
0.0
 10
0.0466771653543307
 20
-1.462897637795276
 30
0.0
 10
0.0466771653543307
 20
-1.462897637795276
 30
0.0
 10
0.0466771653543307
 20
-1.456062992125984
 30
0.0
 10
0.0466771653543307
 20
-1.456062992125984
 30
0.0
 10
0.0466771653543307
 20
-1.456062992125984
 30
0.0
 10
0.0466771653543307
 20
-1.456062992125984
 30
0.0
 10
0.0555354330708661
 20
-1.456062992125984
 30
0.0
 10
0.0555354330708661
 20
-1.456062992125984
 30
0.0
 10
0.0555354330708661
 20
-1.456062992125984
 30
0.0
 10
0.0593976377952756
 20
-1.456062992125984
 30
0.0
 10
0.0619527559055118
 20
-1.455732283464567
 30
0.0
 10
0.0632322834645669
 20
-1.455035433070866
 30
0.0
 10
0.0632322834645669
 20
-1.455035433070866
 30
0.0
 10
0.064507874015748
 20
-1.454370078740157
 30
0.0
 10
0.065507874015748
 20
-1.453287401574803
 30
0.0
 10
0.0662047244094488
 20
-1.451787401574803
 30
0.0
 10
0.0662047244094488
 20
-1.451787401574803
 30
0.0
 10
0.0668976377952756
 20
-1.450287401574803
 30
0.0
 10
0.067259842519685
 20
-1.447562992125984
 30
0.0
 10
0.067259842519685
 20
-1.44361811023622
 30
0.0
 10
0.067259842519685
 20
-1.44361811023622
 30
0.0
 10
0.067259842519685
 20
-1.44361811023622
 30
0.0
 10
0.067259842519685
 20
-1.366149606299213
 30
0.0
 10
0.067259842519685
 20
-1.366149606299213
 30
0.0
 10
0.067259842519685
 20
-1.366149606299213
 30
0.0
 10
0.067259842519685
 20
-1.366149606299213
 30
0.0
 10
0.0466771653543307
 20
-1.366149606299213
 30
0.0
 10
0.0466771653543307
 20
-1.366149606299213
 30
0.0
 10
0.0466771653543307
 20
-1.366149606299213
 30
0.0
 10
0.0466771653543307
 20
-1.366149606299213
 30
0.0
 10
0.0466771653543307
 20
-1.359149606299213
 30
0.0
 10
0.0466771653543307
 20
-1.359149606299213
 30
0.0
 10
0.0466771653543307
 20
-1.359149606299213
 30
0.0
 10
0.0578976377952756
 20
-1.357566929133858
 30
0.0
 10
0.0672874015748031
 20
-1.354314960629921
 30
0.0
 10
0.0748425196850394
 20
-1.349370078740158
 30
0.0
  0
SPLINE
  5
47
330
1F
100
AcDbEntity
  8
LAYER_1
 62
   250
100
AcDbSpline
210
0.0
220
0.0
230
1.0
 70
    11
 71
     3
 72
    76
 73
    72
 74
     0
 42
0.0000000001
 43
0.0000000001
 40
0.0
 40
0.0
 40
0.0
 40
0.0
 40
0.0555555555555556
 40
0.0555555555555556
 40
0.0555555555555556
 40
0.0555555555555556
 40
0.1111111111111111
 40
0.1111111111111111
 40
0.1111111111111111
 40
0.1111111111111111
 40
0.1666666666666667
 40
0.1666666666666667
 40
0.1666666666666667
 40
0.1666666666666667
 40
0.2222222222222222
 40
0.2222222222222222
 40
0.2222222222222222
 40
0.2222222222222222
 40
0.2777777777777778
 40
0.2777777777777778
 40
0.2777777777777778
 40
0.2777777777777778
 40
0.3333333333333334
 40
0.3333333333333334
 40
0.3333333333333334
 40
0.3333333333333334
 40
0.388888888888889
 40
0.388888888888889
 40
0.388888888888889
 40
0.388888888888889
 40
0.4444444444444445
 40
0.4444444444444445
 40
0.4444444444444445
 40
0.4444444444444445
 40
0.5000000000000001
 40
0.5000000000000001
 40
0.5000000000000001
 40
0.5000000000000001
 40
0.5555555555555557
 40
0.5555555555555557
 40
0.5555555555555557
 40
0.5555555555555557
 40
0.6111111111111113
 40
0.6111111111111113
 40
0.6111111111111113
 40
0.6111111111111113
 40
0.6666666666666669
 40
0.6666666666666669
 40
0.6666666666666669
 40
0.6666666666666669
 40
0.7222222222222224
 40
0.7222222222222224
 40
0.7222222222222224
 40
0.7222222222222224
 40
0.777777777777778
 40
0.777777777777778
 40
0.777777777777778
 40
0.777777777777778
 40
0.8333333333333336
 40
0.8333333333333336
 40
0.8333333333333336
 40
0.8333333333333336
 40
0.8888888888888892
 40
0.8888888888888892
 40
0.8888888888888892
 40
0.8888888888888892
 40
0.9444444444444448
 40
0.9444444444444448
 40
0.9444444444444448
 40
0.9444444444444448
 40
1.0
 40
1.0
 40
1.0
 40
1.0
 10
0.1866496062992126
 20
-1.399897637795276
 30
0.0
 10
0.1930669291338583
 20
-1.402342519685039
 30
0.0
 10
0.1979527559055118
 20
-1.404649606299213
 30
0.0
 10
0.2013149606299213
 20
-1.406814960629921
 30
0.0
 10
0.2013149606299213
 20
-1.406814960629921
 30
0.0
 10
0.2062322834645669
 20
-1.40998031496063
 30
0.0
 10
0.2099527559055118
 20
-1.413677165354331
 30
0.0
 10
0.2124527559055118
 20
-1.417925196850394
 30
0.0
 10
0.2124527559055118
 20
-1.417925196850394
 30
0.0
 10
0.2149527559055118
 20
-1.422204724409449
 30
0.0
 10
0.2162047244094488
 20
-1.426814960629921
 30
0.0
 10
0.2162047244094488
 20
-1.431814960629921
 30
0.0
 10
0.2162047244094488
 20
-1.431814960629921
 30
0.0
 10
0.2162047244094488
 20
-1.440759842519685
 30
0.0
 10
0.2123425196850394
 20
-1.448507874015748
 30
0.0
 10
0.2046496062992126
 20
-1.455035433070866
 30
0.0
 10
0.2046496062992126
 20
-1.455035433070866
 30
0.0
 10
0.1969251968503937
 20
-1.461590551181103
 30
0.0
 10
0.1865393700787402
 20
-1.464842519685039
 30
0.0
 10
0.1734803149606299
 20
-1.464842519685039
 30
0.0
 10
0.1734803149606299
 20
-1.464842519685039
 30
0.0
 10
0.1596496062992126
 20
-1.464842519685039
 30
0.0
 10
0.1487874015748032
 20
-1.461149606299213
 30
0.0
 10
0.1409251968503937
 20
-1.453787401574803
 30
0.0
 10
0.1409251968503937
 20
-1.453787401574803
 30
0.0
 10
0.1346771653543307
 20
-1.447870078740158
 30
0.0
 10
0.1315669291338583
 20
-1.441177165354331
 30
0.0
 10
0.1315669291338583
 20
-1.433677165354331
 30
0.0
 10
0.1315669291338583
 20
-1.433677165354331
 30
0.0
 10
0.1315669291338583
 20
-1.427649606299213
 30
0.0
 10
0.1336771653543307
 20
-1.422259842519685
 30
0.0
 10
0.1378976377952756
 20
-1.41748031496063
 30
0.0
 10
0.1378976377952756
 20
-1.41748031496063
 30
0.0
 10
0.1430118110236221
 20
-1.411787401574803
 30
0.0
 10
0.1502874015748032
 20
-1.407342519685039
 30
0.0
 10
0.1597322834645669
 20
-1.404149606299213
 30
0.0
 10
0.1597322834645669
 20
-1.404149606299213
 30
0.0
 10
0.1523425196850394
 20
-1.400677165354331
 30
0.0
 10
0.1470393700787402
 20
-1.397149606299213
 30
0.0
 10
0.143759842519685
 20
-1.393562992125984
 30
0.0
 10
0.143759842519685
 20
-1.393562992125984
 30
0.0
 10
0.1395944881889764
 20
-1.388842519685039
 30
0.0
 10
0.1375118110236221
 20
-1.383177165354331
 30
0.0
 10
0.1375118110236221
 20
-1.376566929133858
 30
0.0
 10
0.1375118110236221
 20
-1.376566929133858
 30
0.0
 10
0.1375118110236221
 20
-1.368370078740158
 30
0.0
 10
0.1405944881889764
 20
-1.361732283464567
 30
0.0
 10
0.1467874015748032
 20
-1.356704724409449
 30
0.0
 10
0.1467874015748032
 20
-1.356704724409449
 30
0.0
 10
0.1543700787401575
 20
-1.350507874015748
 30
0.0
 10
0.1638700787401575
 20
-1.347425196850394
 30
0.0
 10
0.175259842519685
 20
-1.347425196850394
 30
0.0
 10
0.175259842519685
 20
-1.347425196850394
 30
0.0
 10
0.1856771653543307
 20
-1.347425196850394
 30
0.0
 10
0.1940944881889764
 20
-1.350094488188977
 30
0.0
 10
0.2005393700787402
 20
-1.355425196850394
 30
0.0
 10
0.2005393700787402
 20
-1.355425196850394
 30
0.0
 10
0.2069527559055118
 20
-1.360787401574803
 30
0.0
 10
0.2101771653543307
 20
-1.366897637795276
 30
0.0
 10
0.2101771653543307
 20
-1.373787401574803
 30
0.0
 10
0.2101771653543307
 20
-1.373787401574803
 30
0.0
 10
0.2101771653543307
 20
-1.377204724409449
 30
0.0
 10
0.2093700787401575
 20
-1.38048031496063
 30
0.0
 10
0.2077874015748032
 20
-1.383594488188976
 30
0.0
 10
0.2077874015748032
 20
-1.383594488188976
 30
0.0
 10
0.2061771653543307
 20
-1.386704724409449
 30
0.0
 10
0.2037322834645669
 20
-1.389622047244095
 30
0.0
 10
0.2003976377952756
 20
-1.392287401574803
 30
0.0
 10
0.2003976377952756
 20
-1.392287401574803
 30
0.0
 10
0.1970944881889764
 20
-1.39498031496063
 30
0.0
 10
0.192507874015748
 20
-1.397507874015748
 30
0.0
 10
0.1866496062992126
 20
-1.399897637795276
 30
0.0
  0
SPLINE
  5
48
330
1F
100
AcDbEntity
  8
LAYER_1
 62
   250
100
AcDbSpline
210
0.0
220
0.0
230
1.0
 70
    11
 71
     3
 72
    48
 73
    44
 74
     0
 42
0.0000000001
 43
0.0000000001
 40
0.0
 40
0.0
 40
0.0
 40
0.0
 40
0.0909090909090909
 40
0.0909090909090909
 40
0.0909090909090909
 40
0.0909090909090909
 40
0.1818181818181818
 40
0.1818181818181818
 40
0.1818181818181818
 40
0.1818181818181818
 40
0.2727272727272727
 40
0.2727272727272727
 40
0.2727272727272727
 40
0.2727272727272727
 40
0.3636363636363637
 40
0.3636363636363637
 40
0.3636363636363637
 40
0.3636363636363637
 40
0.4545454545454546
 40
0.4545454545454546
 40
0.4545454545454546
 40
0.4545454545454546
 40
0.5454545454545455
 40
0.5454545454545455
 40
0.5454545454545455
 40
0.5454545454545455
 40
0.6363636363636365
 40
0.6363636363636365
 40
0.6363636363636365
 40
0.6363636363636365
 40
0.7272727272727274
 40
0.7272727272727274
 40
0.7272727272727274
 40
0.7272727272727274
 40
0.8181818181818183
 40
0.8181818181818183
 40
0.8181818181818183
 40
0.8181818181818183
 40
0.9090909090909093
 40
0.9090909090909093
 40
0.9090909090909093
 40
0.9090909090909093
 40
1.0
 40
1.0
 40
1.0
 40
1.0
 10
0.1792598425196851
 20
-1.396897637795276
 30
0.0
 10
0.1854251968503937
 20
-1.392232283464567
 30
0.0
 10
0.1894527559055118
 20
-1.38898031496063
 30
0.0
 10
0.1912874015748032
 20
-1.387122047244095
 30
0.0
 10
0.1912874015748032
 20
-1.387122047244095
 30
0.0
 10
0.1931496062992126
 20
-1.385287401574803
 30
0.0
 10
0.1945669291338583
 20
-1.383177165354331
 30
0.0
 10
0.1955669291338583
 20
-1.380814960629921
 30
0.0
 10
0.1955669291338583
 20
-1.380814960629921
 30
0.0
 10
0.1965669291338583
 20
-1.378452755905512
 30
0.0
 10
0.1970669291338583
 20
-1.376177165354331
 30
0.0
 10
0.1970669291338583
 20
-1.373952755905512
 30
0.0
 10
0.1970669291338583
 20
-1.373952755905512
 30
0.0
 10
0.1970669291338583
 20
-1.370759842519685
 30
0.0
 10
0.1961220472440945
 20
-1.367704724409449
 30
0.0
 10
0.194232283464567
 20
-1.364787401574803
 30
0.0
 10
0.194232283464567
 20
-1.364787401574803
 30
0.0
 10
0.1923149606299213
 20
-1.361897637795276
 30
0.0
 10
0.1895393700787402
 20
-1.359535433070866
 30
0.0
 10
0.1858700787401575
 20
-1.357759842519685
 30
0.0
 10
0.1858700787401575
 20
-1.357759842519685
 30
0.0
 10
0.1822322834645669
 20
-1.355952755905512
 30
0.0
 10
0.1781220472440945
 20
-1.355066929133858
 30
0.0
 10
0.1735669291338583
 20
-1.355066929133858
 30
0.0
 10
0.1735669291338583
 20
-1.355066929133858
 30
0.0
 10
0.1668149606299213
 20
-1.355066929133858
 30
0.0
 10
0.1612322834645669
 20
-1.356925196850394
 30
0.0
 10
0.1567874015748031
 20
-1.360649606299213
 30
0.0
 10
0.1567874015748031
 20
-1.360649606299213
 30
0.0
 10
0.1523425196850394
 20
-1.364370078740158
 30
0.0
 10
0.1501220472440945
 20
-1.368649606299213
 30
0.0
 10
0.1501220472440945
 20
-1.373535433070866
 30
0.0
 10
0.1501220472440945
 20
-1.373535433070866
 30
0.0
 10
0.1501220472440945
 20
-1.377452755905512
 30
0.0
 10
0.1515118110236221
 20
-1.380952755905512
 30
0.0
 10
0.1542598425196851
 20
-1.384035433070866
 30
0.0
 10
0.1542598425196851
 20
-1.384035433070866
 30
0.0
 10
0.1570393700787402
 20
-1.387122047244095
 30
0.0
 10
0.1621771653543307
 20
-1.390177165354331
 30
0.0
 10
0.1697322834645669
 20
-1.393149606299213
 30
0.0
 10
0.1697322834645669
 20
-1.393149606299213
 30
0.0
 10
0.1697322834645669
 20
-1.393149606299213
 30
0.0
 10
0.1792598425196851
 20
-1.396897637795276
 30
0.0
 10
0.1792598425196851
 20
-1.396897637795276
 30
0.0
  0
SPLINE
  5
49
330
1F
100
AcDbEntity
  8
LAYER_1
 62
   250
100
AcDbSpline
210
0.0
220
0.0
230
1.0
 70
    11
 71
     3
 72
    40
 73
    36
 74
     0
 42
0.0000000001
 43
0.0000000001
 40
0.0
 40
0.0
 40
0.0
 40
0.0
 40
0.1111111111111111
 40
0.1111111111111111
 40
0.1111111111111111
 40
0.1111111111111111
 40
0.2222222222222222
 40
0.2222222222222222
 40
0.2222222222222222
 40
0.2222222222222222
 40
0.3333333333333333
 40
0.3333333333333333
 40
0.3333333333333333
 40
0.3333333333333333
 40
0.4444444444444444
 40
0.4444444444444444
 40
0.4444444444444444
 40
0.4444444444444444
 40
0.5555555555555556
 40
0.5555555555555556
 40
0.5555555555555556
 40
0.5555555555555556
 40
0.6666666666666667
 40
0.6666666666666667
 40
0.6666666666666667
 40
0.6666666666666667
 40
0.7777777777777779
 40
0.7777777777777779
 40
0.7777777777777779
 40
0.7777777777777779
 40
0.8888888888888891
 40
0.8888888888888891
 40
0.8888888888888891
 40
0.8888888888888891
 40
1.0
 40
1.0
 40
1.0
 40
1.0
 10
0.1677874015748032
 20
-1.407314960629921
 30
0.0
 10
0.1601220472440945
 20
-1.410677165354331
 30
0.0
 10
0.1540669291338583
 20
-1.415035433070866
 30
0.0
 10
0.1496220472440945
 20
-1.420425196850394
 30
0.0
 10
0.1496220472440945
 20
-1.420425196850394
 30
0.0
 10
0.1461496062992126
 20
-1.424649606299213
 30
0.0
 10
0.1444251968503937
 20
-1.429035433070866
 30
0.0
 10
0.1444251968503937
 20
-1.433590551181103
 30
0.0
 10
0.1444251968503937
 20
-1.433590551181103
 30
0.0
 10
0.1444251968503937
 20
-1.439787401574803
 30
0.0
 10
0.1471496062992126
 20
-1.445287401574803
 30
0.0
 10
0.1526496062992126
 20
-1.450090551181102
 30
0.0
 10
0.1526496062992126
 20
-1.450090551181102
 30
0.0
 10
0.1581220472440945
 20
-1.454870078740158
 30
0.0
 10
0.1652047244094488
 20
-1.457287401574803
 30
0.0
 10
0.1738700787401575
 20
-1.457287401574803
 30
0.0
 10
0.1738700787401575
 20
-1.457287401574803
 30
0.0
 10
0.1827322834645669
 20
-1.457287401574803
 30
0.0
 10
0.1900944881889764
 20
-1.454535433070866
 30
0.0
 10
0.196007874015748
 20
-1.449062992125984
 30
0.0
 10
0.196007874015748
 20
-1.449062992125984
 30
0.0
 10
0.2008425196850394
 20
-1.444618110236221
 30
0.0
 10
0.203259842519685
 20
-1.43984251968504
 30
0.0
 10
0.203259842519685
 20
-1.434732283464567
 30
0.0
 10
0.203259842519685
 20
-1.434732283464567
 30
0.0
 10
0.203259842519685
 20
-1.430732283464567
 30
0.0
 10
0.2016771653543307
 20
-1.426897637795276
 30
0.0
 10
0.198507874015748
 20
-1.423232283464567
 30
0.0
 10
0.198507874015748
 20
-1.423232283464567
 30
0.0
 10
0.1953149606299213
 20
-1.419562992125984
 30
0.0
 10
0.1894251968503937
 20
-1.416007874015748
 30
0.0
 10
0.1807874015748032
 20
-1.412535433070866
 30
0.0
 10
0.1807874015748032
 20
-1.412535433070866
 30
0.0
 10
0.1807874015748032
 20
-1.412535433070866
 30
0.0
 10
0.1677874015748032
 20
-1.407314960629921
 30
0.0
 10
0.1677874015748032
 20
-1.407314960629921
 30
0.0
  0
SPLINE
  5
4A
330
1F
100
AcDbEntity
  8
LAYER_1
 62
   250
100
AcDbSpline
210
0.0
220
0.0
230
1.0
 70
    11
 71
     3
 72
    72
 73
    68
 74
     0
 42
0.0000000001
 43
0.0000000001
 40
0.0
 40
0.0
 40
0.0
 40
0.0
 40
0.0588235294117647
 40
0.0588235294117647
 40
0.0588235294117647
 40
0.0588235294117647
 40
0.1176470588235294
 40
0.1176470588235294
 40
0.1176470588235294
 40
0.1176470588235294
 40
0.1764705882352941
 40
0.1764705882352941
 40
0.1764705882352941
 40
0.1764705882352941
 40
0.2352941176470588
 40
0.2352941176470588
 40
0.2352941176470588
 40
0.2352941176470588
 40
0.2941176470588235
 40
0.2941176470588235
 40
0.2941176470588235
 40
0.2941176470588235
 40
0.3529411764705883
 40
0.3529411764705883
 40
0.3529411764705883
 40
0.3529411764705883
 40
0.411764705882353
 40
0.411764705882353
 40
0.411764705882353
 40
0.411764705882353
 40
0.4705882352941177
 40
0.4705882352941177
 40
0.4705882352941177
 40
0.4705882352941177
 40
0.5294117647058824
 40
0.5294117647058824
 40
0.5294117647058824
 40
0.5294117647058824
 40
0.5882352941176471
 40
0.5882352941176471
 40
0.5882352941176471
 40
0.5882352941176471
 40
0.6470588235294118
 40
0.6470588235294118
 40
0.6470588235294118
 40
0.6470588235294118
 40
0.7058823529411765
 40
0.7058823529411765
 40
0.7058823529411765
 40
0.7058823529411765
 40
0.7647058823529412
 40
0.7647058823529412
 40
0.7647058823529412
 40
0.7647058823529412
 40
0.823529411764706
 40
0.823529411764706
 40
0.823529411764706
 40
0.823529411764706
 40
0.8823529411764707
 40
0.8823529411764707
 40
0.8823529411764707
 40
0.8823529411764707
 40
0.9411764705882354
 40
0.9411764705882354
 40
0.9411764705882354
 40
0.9411764705882354
 40
1.0
 40
1.0
 40
1.0
 40
1.0
 10
0.2815669291338583
 20
-1.349370078740158
 30
0.0
 10
0.2815669291338583
 20
-1.349370078740158
 30
0.0
 10
0.2876496062992126
 20
-1.349370078740158
 30
0.0
 10
0.2876496062992126
 20
-1.349370078740158
 30
0.0
 10
0.2876496062992126
 20
-1.349370078740158
 30
0.0
 10
0.2876496062992126
 20
-1.349370078740158
 30
0.0
 10
0.2876496062992126
 20
-1.44361811023622
 30
0.0
 10
0.2876496062992126
 20
-1.44361811023622
 30
0.0
 10
0.2876496062992126
 20
-1.44361811023622
 30
0.0
 10
0.2876496062992126
 20
-1.448062992125984
 30
0.0
 10
0.2879566929133858
 20
-1.450925196850394
 30
0.0
 10
0.2885118110236221
 20
-1.452204724409449
 30
0.0
 10
0.2885118110236221
 20
-1.452204724409449
 30
0.0
 10
0.2890944881889764
 20
-1.45348031496063
 30
0.0
 10
0.2900118110236221
 20
-1.454425196850394
 30
0.0
 10
0.2913149606299213
 20
-1.455090551181102
 30
0.0
 10
0.2913149606299213
 20
-1.455090551181102
 30
0.0
 10
0.2926220472440945
 20
-1.455732283464567
 30
0.0
 10
0.2952047244094488
 20
-1.456062992125984
 30
0.0
 10
0.2990669291338583
 20
-1.456062992125984
 30
0.0
 10
0.2990669291338583
 20
-1.456062992125984
 30
0.0
 10
0.2990669291338583
 20
-1.456062992125984
 30
0.0
 10
0.3070393700787402
 20
-1.456062992125984
 30
0.0
 10
0.3070393700787402
 20
-1.456062992125984
 30
0.0
 10
0.3070393700787402
 20
-1.456062992125984
 30
0.0
 10
0.3070393700787402
 20
-1.456062992125984
 30
0.0
 10
0.3070393700787402
 20
-1.462897637795276
 30
0.0
 10
0.3070393700787402
 20
-1.462897637795276
 30
0.0
 10
0.3070393700787402
 20
-1.462897637795276
 30
0.0
 10
0.3070393700787402
 20
-1.462897637795276
 30
0.0
 10
0.2534015748031496
 20
-1.462897637795276
 30
0.0
 10
0.2534015748031496
 20
-1.462897637795276
 30
0.0
 10
0.2534015748031496
 20
-1.462897637795276
 30
0.0
 10
0.2534015748031496
 20
-1.462897637795276
 30
0.0
 10
0.2534015748031496
 20
-1.456062992125984
 30
0.0
 10
0.2534015748031496
 20
-1.456062992125984
 30
0.0
 10
0.2534015748031496
 20
-1.456062992125984
 30
0.0
 10
0.2534015748031496
 20
-1.456062992125984
 30
0.0
 10
0.262259842519685
 20
-1.456062992125984
 30
0.0
 10
0.262259842519685
 20
-1.456062992125984
 30
0.0
 10
0.262259842519685
 20
-1.456062992125984
 30
0.0
 10
0.2661220472440945
 20
-1.456062992125984
 30
0.0
 10
0.2686771653543307
 20
-1.455732283464567
 30
0.0
 10
0.2699566929133858
 20
-1.455035433070866
 30
0.0
 10
0.2699566929133858
 20
-1.455035433070866
 30
0.0
 10
0.271232283464567
 20
-1.454370078740157
 30
0.0
 10
0.272232283464567
 20
-1.453287401574803
 30
0.0
 10
0.2729291338582677
 20
-1.451787401574803
 30
0.0
 10
0.2729291338582677
 20
-1.451787401574803
 30
0.0
 10
0.2736220472440945
 20
-1.450287401574803
 30
0.0
 10
0.273984251968504
 20
-1.447562992125984
 30
0.0
 10
0.273984251968504
 20
-1.44361811023622
 30
0.0
 10
0.273984251968504
 20
-1.44361811023622
 30
0.0
 10
0.273984251968504
 20
-1.44361811023622
 30
0.0
 10
0.273984251968504
 20
-1.366149606299213
 30
0.0
 10
0.273984251968504
 20
-1.366149606299213
 30
0.0
 10
0.273984251968504
 20
-1.366149606299213
 30
0.0
 10
0.273984251968504
 20
-1.366149606299213
 30
0.0
 10
0.2534015748031496
 20
-1.366149606299213
 30
0.0
 10
0.2534015748031496
 20
-1.366149606299213
 30
0.0
 10
0.2534015748031496
 20
-1.366149606299213
 30
0.0
 10
0.2534015748031496
 20
-1.366149606299213
 30
0.0
 10
0.2534015748031496
 20
-1.359149606299213
 30
0.0
 10
0.2534015748031496
 20
-1.359149606299213
 30
0.0
 10
0.2534015748031496
 20
-1.359149606299213
 30
0.0
 10
0.2646220472440945
 20
-1.357566929133858
 30
0.0
 10
0.274011811023622
 20
-1.354314960629921
 30
0.0
 10
0.2815669291338583
 20
-1.349370078740158
 30
0.0
  0
SPLINE
  5
4B
330
1F
100
AcDbEntity
  8
LAYER_1
 62
   250
100
AcDbSpline
210
0.0
220
0.0
230
1.0
 70
    11
 71
     3
 72
    48
 73
    44
 74
     0
 42
0.0000000001
 43
0.0000000001
 40
0.0
 40
0.0
 40
0.0
 40
0.0
 40
0.0909090909090909
 40
0.0909090909090909
 40
0.0909090909090909
 40
0.0909090909090909
 40
0.1818181818181818
 40
0.1818181818181818
 40
0.1818181818181818
 40
0.1818181818181818
 40
0.2727272727272727
 40
0.2727272727272727
 40
0.2727272727272727
 40
0.2727272727272727
 40
0.3636363636363637
 40
0.3636363636363637
 40
0.3636363636363637
 40
0.3636363636363637
 40
0.4545454545454546
 40
0.4545454545454546
 40
0.4545454545454546
 40
0.4545454545454546
 40
0.5454545454545455
 40
0.5454545454545455
 40
0.5454545454545455
 40
0.5454545454545455
 40
0.6363636363636365
 40
0.6363636363636365
 40
0.6363636363636365
 40
0.6363636363636365
 40
0.7272727272727274
 40
0.7272727272727274
 40
0.7272727272727274
 40
0.7272727272727274
 40
0.8181818181818183
 40
0.8181818181818183
 40
0.8181818181818183
 40
0.8181818181818183
 40
0.9090909090909093
 40
0.9090909090909093
 40
0.9090909090909093
 40
0.9090909090909093
 40
1.0
 40
1.0
 40
1.0
 40
1.0
 10
0.3893188976377953
 20
-1.349370078740158
 30
0.0
 10
0.3893188976377953
 20
-1.349370078740158
 30
0.0
 10
0.4030669291338583
 20
-1.349370078740158
 30
0.0
 10
0.4030669291338583
 20
-1.349370078740158
 30
0.0
 10
0.4030669291338583
 20
-1.349370078740158
 30
0.0
 10
0.4030669291338583
 20
-1.349370078740158
 30
0.0
 10
0.4030669291338583
 20
-1.415370078740158
 30
0.0
 10
0.4030669291338583
 20
-1.415370078740158
 30
0.0
 10
0.4030669291338583
 20
-1.415370078740158
 30
0.0
 10
0.4030669291338583
 20
-1.415370078740158
 30
0.0
 10
0.4244015748031496
 20
-1.415370078740158
 30
0.0
 10
0.4244015748031496
 20
-1.415370078740158
 30
0.0
 10
0.4244015748031496
 20
-1.415370078740158
 30
0.0
 10
0.4244015748031496
 20
-1.415370078740158
 30
0.0
 10
0.4244015748031496
 20
-1.425535433070866
 30
0.0
 10
0.4244015748031496
 20
-1.425535433070866
 30
0.0
 10
0.4244015748031496
 20
-1.425535433070866
 30
0.0
 10
0.4244015748031496
 20
-1.425535433070866
 30
0.0
 10
0.4030669291338583
 20
-1.425535433070866
 30
0.0
 10
0.4030669291338583
 20
-1.425535433070866
 30
0.0
 10
0.4030669291338583
 20
-1.425535433070866
 30
0.0
 10
0.4030669291338583
 20
-1.425535433070866
 30
0.0
 10
0.4030669291338583
 20
-1.462897637795276
 30
0.0
 10
0.4030669291338583
 20
-1.462897637795276
 30
0.0
 10
0.4030669291338583
 20
-1.462897637795276
 30
0.0
 10
0.4030669291338583
 20
-1.462897637795276
 30
0.0
 10
0.3893188976377953
 20
-1.462897637795276
 30
0.0
 10
0.3893188976377953
 20
-1.462897637795276
 30
0.0
 10
0.3893188976377953
 20
-1.462897637795276
 30
0.0
 10
0.3893188976377953
 20
-1.462897637795276
 30
0.0
 10
0.3893188976377953
 20
-1.425535433070866
 30
0.0
 10
0.3893188976377953
 20
-1.425535433070866
 30
0.0
 10
0.3893188976377953
 20
-1.425535433070866
 30
0.0
 10
0.3893188976377953
 20
-1.425535433070866
 30
0.0
 10
0.3358464566929134
 20
-1.425535433070866
 30
0.0
 10
0.3358464566929134
 20
-1.425535433070866
 30
0.0
 10
0.3358464566929134
 20
-1.425535433070866
 30
0.0
 10
0.3358464566929134
 20
-1.425535433070866
 30
0.0
 10
0.3358464566929134
 20
-1.411232283464567
 30
0.0
 10
0.3358464566929134
 20
-1.411232283464567
 30
0.0
 10
0.3358464566929134
 20
-1.411232283464567
 30
0.0
 10
0.3358464566929134
 20
-1.411232283464567
 30
0.0
 10
0.3893188976377953
 20
-1.349370078740158
 30
0.0
 10
0.3893188976377953
 20
-1.349370078740158
 30
0.0
  0
SPLINE
  5
4C
330
1F
100
AcDbEntity
  8
LAYER_1
 62
   250
100
AcDbSpline
210
0.0
220
0.0
230
1.0
 70
    11
 71
     3
 72
    16
 73
    12
 74
     0
 42
0.0000000001
 43
0.0000000001
 40
0.0
 40
0.0
 40
0.0
 40
0.0
 40
0.3333333333333333
 40
0.3333333333333333
 40
0.3333333333333333
 40
0.3333333333333333
 40
0.6666666666666666
 40
0.6666666666666666
 40
0.6666666666666666
 40
0.6666666666666666
 40
1.0
 40
1.0
 40
1.0
 40
1.0
 10
0.3893188976377953
 20
-1.415370078740158
 30
0.0
 10
0.3893188976377953
 20
-1.415370078740158
 30
0.0
 10
0.3893188976377953
 20
-1.36198031496063
 30
0.0
 10
0.3893188976377953
 20
-1.36198031496063
 30
0.0
 10
0.3893188976377953
 20
-1.36198031496063
 30
0.0
 10
0.3893188976377953
 20
-1.36198031496063
 30
0.0
 10
0.343263779527559
 20
-1.415370078740158
 30
0.0
 10
0.343263779527559
 20
-1.415370078740158
 30
0.0
 10
0.343263779527559
 20
-1.415370078740158
 30
0.0
 10
0.343263779527559
 20
-1.415370078740158
 30
0.0
 10
0.3893188976377953
 20
-1.415370078740158
 30
0.0
 10
0.3893188976377953
 20
-1.415370078740158
 30
0.0
  0
SPLINE
  5
4D
330
1F
100
AcDbEntity
  8
LAYER_1
 62
   250
100
AcDbSpline
210
0.0
220
0.0
230
1.0
 70
    11
 71
     3
 72
    72
 73
    68
 74
     0
 42
0.0000000001
 43
0.0000000001
 40
0.0
 40
0.0
 40
0.0
 40
0.0
 40
0.0588235294117647
 40
0.0588235294117647
 40
0.0588235294117647
 40
0.0588235294117647
 40
0.1176470588235294
 40
0.1176470588235294
 40
0.1176470588235294
 40
0.1176470588235294
 40
0.1764705882352941
 40
0.1764705882352941
 40
0.1764705882352941
 40
0.1764705882352941
 40
0.2352941176470588
 40
0.2352941176470588
 40
0.2352941176470588
 40
0.2352941176470588
 40
0.2941176470588235
 40
0.2941176470588235
 40
0.2941176470588235
 40
0.2941176470588235
 40
0.3529411764705883
 40
0.3529411764705883
 40
0.3529411764705883
 40
0.3529411764705883
 40
0.411764705882353
 40
0.411764705882353
 40
0.411764705882353
 40
0.411764705882353
 40
0.4705882352941177
 40
0.4705882352941177
 40
0.4705882352941177
 40
0.4705882352941177
 40
0.5294117647058824
 40
0.5294117647058824
 40
0.5294117647058824
 40
0.5294117647058824
 40
0.5882352941176471
 40
0.5882352941176471
 40
0.5882352941176471
 40
0.5882352941176471
 40
0.6470588235294118
 40
0.6470588235294118
 40
0.6470588235294118
 40
0.6470588235294118
 40
0.7058823529411765
 40
0.7058823529411765
 40
0.7058823529411765
 40
0.7058823529411765
 40
0.7647058823529412
 40
0.7647058823529412
 40
0.7647058823529412
 40
0.7647058823529412
 40
0.823529411764706
 40
0.823529411764706
 40
0.823529411764706
 40
0.823529411764706
 40
0.8823529411764707
 40
0.8823529411764707
 40
0.8823529411764707
 40
0.8823529411764707
 40
0.9411764705882354
 40
0.9411764705882354
 40
0.9411764705882354
 40
0.9411764705882354
 40
1.0
 40
1.0
 40
1.0
 40
1.0
 10
-0.1600275590551181
 20
-1.536870078740158
 30
0.0
 10
-0.1600275590551181
 20
-1.536870078740158
 30
0.0
 10
-0.1539448818897638
 20
-1.536870078740158
 30
0.0
 10
-0.1539448818897638
 20
-1.536870078740158
 30
0.0
 10
-0.1539448818897638
 20
-1.536870078740158
 30
0.0
 10
-0.1539448818897638
 20
-1.536870078740158
 30
0.0
 10
-0.1539448818897638
 20
-1.63111811023622
 30
0.0
 10
-0.1539448818897638
 20
-1.63111811023622
 30
0.0
 10
-0.1539448818897638
 20
-1.63111811023622
 30
0.0
 10
-0.1539448818897638
 20
-1.635562992125984
 30
0.0
 10
-0.1536377952755905
 20
-1.638425196850394
 30
0.0
 10
-0.1530826771653543
 20
-1.639704724409449
 30
0.0
 10
-0.1530826771653543
 20
-1.639704724409449
 30
0.0
 10
-0.1525
 20
-1.64098031496063
 30
0.0
 10
-0.1515826771653543
 20
-1.641925196850394
 30
0.0
 10
-0.1502795275590551
 20
-1.642590551181103
 30
0.0
 10
-0.1502795275590551
 20
-1.642590551181103
 30
0.0
 10
-0.1489724409448819
 20
-1.643232283464567
 30
0.0
 10
-0.1463897637795276
 20
-1.643562992125984
 30
0.0
 10
-0.1425275590551181
 20
-1.643562992125984
 30
0.0
 10
-0.1425275590551181
 20
-1.643562992125984
 30
0.0
 10
-0.1425275590551181
 20
-1.643562992125984
 30
0.0
 10
-0.1345551181102362
 20
-1.643562992125984
 30
0.0
 10
-0.1345551181102362
 20
-1.643562992125984
 30
0.0
 10
-0.1345551181102362
 20
-1.643562992125984
 30
0.0
 10
-0.1345551181102362
 20
-1.643562992125984
 30
0.0
 10
-0.1345551181102362
 20
-1.650397637795276
 30
0.0
 10
-0.1345551181102362
 20
-1.650397637795276
 30
0.0
 10
-0.1345551181102362
 20
-1.650397637795276
 30
0.0
 10
-0.1345551181102362
 20
-1.650397637795276
 30
0.0
 10
-0.1881929133858268
 20
-1.650397637795276
 30
0.0
 10
-0.1881929133858268
 20
-1.650397637795276
 30
0.0
 10
-0.1881929133858268
 20
-1.650397637795276
 30
0.0
 10
-0.1881929133858268
 20
-1.650397637795276
 30
0.0
 10
-0.1881929133858268
 20
-1.643562992125984
 30
0.0
 10
-0.1881929133858268
 20
-1.643562992125984
 30
0.0
 10
-0.1881929133858268
 20
-1.643562992125984
 30
0.0
 10
-0.1881929133858268
 20
-1.643562992125984
 30
0.0
 10
-0.1793346456692913
 20
-1.643562992125984
 30
0.0
 10
-0.1793346456692913
 20
-1.643562992125984
 30
0.0
 10
-0.1793346456692913
 20
-1.643562992125984
 30
0.0
 10
-0.1754724409448819
 20
-1.643562992125984
 30
0.0
 10
-0.1729173228346457
 20
-1.643232283464567
 30
0.0
 10
-0.1716377952755906
 20
-1.642535433070866
 30
0.0
 10
-0.1716377952755906
 20
-1.642535433070866
 30
0.0
 10
-0.1703622047244095
 20
-1.641870078740157
 30
0.0
 10
-0.1693622047244095
 20
-1.640787401574803
 30
0.0
 10
-0.1686653543307087
 20
-1.639287401574803
 30
0.0
 10
-0.1686653543307087
 20
-1.639287401574803
 30
0.0
 10
-0.1679724409448819
 20
-1.637787401574803
 30
0.0
 10
-0.1676102362204724
 20
-1.635062992125984
 30
0.0
 10
-0.1676102362204724
 20
-1.63111811023622
 30
0.0
 10
-0.1676102362204724
 20
-1.63111811023622
 30
0.0
 10
-0.1676102362204724
 20
-1.63111811023622
 30
0.0
 10
-0.1676102362204724
 20
-1.553649606299213
 30
0.0
 10
-0.1676102362204724
 20
-1.553649606299213
 30
0.0
 10
-0.1676102362204724
 20
-1.553649606299213
 30
0.0
 10
-0.1676102362204724
 20
-1.553649606299213
 30
0.0
 10
-0.1881929133858268
 20
-1.553649606299213
 30
0.0
 10
-0.1881929133858268
 20
-1.553649606299213
 30
0.0
 10
-0.1881929133858268
 20
-1.553649606299213
 30
0.0
 10
-0.1881929133858268
 20
-1.553649606299213
 30
0.0
 10
-0.1881929133858268
 20
-1.546649606299213
 30
0.0
 10
-0.1881929133858268
 20
-1.546649606299213
 30
0.0
 10
-0.1881929133858268
 20
-1.546649606299213
 30
0.0
 10
-0.1769724409448819
 20
-1.545066929133858
 30
0.0
 10
-0.1675826771653543
 20
-1.541814960629921
 30
0.0
 10
-0.1600275590551181
 20
-1.536870078740158
 30
0.0
  0
SPLINE
  5
4E
330
1F
100
AcDbEntity
  8
LAYER_1
 62
   250
100
AcDbSpline
210
0.0
220
0.0
230
1.0
 70
    11
 71
     3
 72
    60
 73
    56
 74
     0
 42
0.0000000001
 43
0.0000000001
 40
0.0
 40
0.0
 40
0.0
 40
0.0
 40
0.0714285714285714
 40
0.0714285714285714
 40
0.0714285714285714
 40
0.0714285714285714
 40
0.1428571428571429
 40
0.1428571428571429
 40
0.1428571428571429
 40
0.1428571428571429
 40
0.2142857142857143
 40
0.2142857142857143
 40
0.2142857142857143
 40
0.2142857142857143
 40
0.2857142857142857
 40
0.2857142857142857
 40
0.2857142857142857
 40
0.2857142857142857
 40
0.3571428571428571
 40
0.3571428571428571
 40
0.3571428571428571
 40
0.3571428571428571
 40
0.4285714285714285
 40
0.4285714285714285
 40
0.4285714285714285
 40
0.4285714285714285
 40
0.4999999999999999
 40
0.4999999999999999
 40
0.4999999999999999
 40
0.4999999999999999
 40
0.5714285714285713
 40
0.5714285714285713
 40
0.5714285714285713
 40
0.5714285714285713
 40
0.6428571428571427
 40
0.6428571428571427
 40
0.6428571428571427
 40
0.6428571428571427
 40
0.7142857142857141
 40
0.7142857142857141
 40
0.7142857142857141
 40
0.7142857142857141
 40
0.7857142857142855
 40
0.7857142857142855
 40
0.7857142857142855
 40
0.7857142857142855
 40
0.8571428571428569
 40
0.8571428571428569
 40
0.8571428571428569
 40
0.8571428571428569
 40
0.9285714285714283
 40
0.9285714285714283
 40
0.9285714285714283
 40
0.9285714285714283
 40
1.0
 40
1.0
 40
1.0
 40
1.0
 10
-0.1025826771653543
 20
-1.578952755905512
 30
0.0
 10
-0.1025826771653543
 20
-1.578952755905512
 30
0.0
 10
-0.1069724409448819
 20
-1.573562992125984
 30
0.0
 10
-0.1069724409448819
 20
-1.573562992125984
 30
0.0
 10
-0.1069724409448819
 20
-1.573562992125984
 30
0.0
 10
-0.0958582677165354
 20
-1.564507874015748
 30
0.0
 10
-0.0902755905511811
 20
-1.556952755905512
 30
0.0
 10
-0.0902755905511811
 20
-1.550870078740158
 30
0.0
 10
-0.0902755905511811
 20
-1.550870078740158
 30
0.0
 10
-0.0902755905511811
 20
-1.550177165354331
 30
0.0
 10
-0.0903307086614173
 20
-1.549287401574803
 30
0.0
 10
-0.0904448818897638
 20
-1.548259842519685
 30
0.0
 10
-0.0904448818897638
 20
-1.548259842519685
 30
0.0
 10
-0.0913582677165354
 20
-1.548649606299213
 30
0.0
 10
-0.0922755905511811
 20
-1.548952755905512
 30
0.0
 10
-0.0931377952755906
 20
-1.549149606299213
 30
0.0
 10
-0.0931377952755906
 20
-1.549149606299213
 30
0.0
 10
-0.094
 20
-1.549370078740158
 30
0.0
 10
-0.0948031496062992
 20
-1.54948031496063
 30
0.0
 10
-0.0955826771653543
 20
-1.54948031496063
 30
0.0
 10
-0.0955826771653543
 20
-1.54948031496063
 30
0.0
 10
-0.0981929133858268
 20
-1.54948031496063
 30
0.0
 10
-0.1002755905511811
 20
-1.548649606299213
 30
0.0
 10
-0.1018307086614173
 20
-1.546952755905512
 30
0.0
 10
-0.1018307086614173
 20
-1.546952755905512
 30
0.0
 10
-0.1034173228346457
 20
-1.545287401574803
 30
0.0
 10
-0.1041929133858268
 20
-1.543149606299213
 30
0.0
 10
-0.1041929133858268
 20
-1.540535433070866
 30
0.0
 10
-0.1041929133858268
 20
-1.540535433070866
 30
0.0
 10
-0.1041929133858268
 20
-1.53798031496063
 30
0.0
 10
-0.103248031496063
 20
-1.535759842519685
 30
0.0
 10
-0.1013582677165354
 20
-1.533870078740158
 30
0.0
 10
-0.1013582677165354
 20
-1.533870078740158
 30
0.0
 10
-0.0994448818897638
 20
-1.531952755905512
 30
0.0
 10
-0.0971653543307087
 20
-1.531007874015748
 30
0.0
 10
-0.0945275590551181
 20
-1.531007874015748
 30
0.0
 10
-0.0945275590551181
 20
-1.531007874015748
 30
0.0
 10
-0.0908307086614173
 20
-1.531007874015748
 30
0.0
 10
-0.0876653543307087
 20
-1.53248031496063
 30
0.0
 10
-0.0850275590551181
 20
-1.535452755905512
 30
0.0
 10
-0.0850275590551181
 20
-1.535452755905512
 30
0.0
 10
-0.0824173228346457
 20
-1.538397637795276
 30
0.0
 10
-0.0810826771653543
 20
-1.542204724409449
 30
0.0
 10
-0.0810826771653543
 20
-1.546870078740158
 30
0.0
 10
-0.0810826771653543
 20
-1.546870078740158
 30
0.0
 10
-0.0810826771653543
 20
-1.549925196850394
 30
0.0
 10
-0.0817204724409449
 20
-1.553122047244095
 30
0.0
 10
-0.0829724409448819
 20
-1.556452755905512
 30
0.0
 10
-0.0829724409448819
 20
-1.556452755905512
 30
0.0
 10
-0.0842204724409449
 20
-1.559787401574803
 30
0.0
 10
-0.0860275590551181
 20
-1.562870078740158
 30
0.0
 10
-0.0884173228346457
 20
-1.565732283464567
 30
0.0
 10
-0.0884173228346457
 20
-1.565732283464567
 30
0.0
 10
-0.0908031496062992
 20
-1.568562992125984
 30
0.0
 10
-0.0955275590551181
 20
-1.57298031496063
 30
0.0
 10
-0.1025826771653543
 20
-1.578952755905512
 30
0.0
  0
SPLINE
  5
4F
330
1F
100
AcDbEntity
  8
LAYER_1
 62
   250
100
AcDbSpline
210
0.0
220
0.0
230
1.0
 70
    11
 71
     3
 72
    60
 73
    56
 74
     0
 42
0.0000000001
 43
0.0000000001
 40
0.0
 40
0.0
 40
0.0
 40
0.0
 40
0.0714285714285714
 40
0.0714285714285714
 40
0.0714285714285714
 40
0.0714285714285714
 40
0.1428571428571429
 40
0.1428571428571429
 40
0.1428571428571429
 40
0.1428571428571429
 40
0.2142857142857143
 40
0.2142857142857143
 40
0.2142857142857143
 40
0.2142857142857143
 40
0.2857142857142857
 40
0.2857142857142857
 40
0.2857142857142857
 40
0.2857142857142857
 40
0.3571428571428571
 40
0.3571428571428571
 40
0.3571428571428571
 40
0.3571428571428571
 40
0.4285714285714285
 40
0.4285714285714285
 40
0.4285714285714285
 40
0.4285714285714285
 40
0.4999999999999999
 40
0.4999999999999999
 40
0.4999999999999999
 40
0.4999999999999999
 40
0.5714285714285713
 40
0.5714285714285713
 40
0.5714285714285713
 40
0.5714285714285713
 40
0.6428571428571427
 40
0.6428571428571427
 40
0.6428571428571427
 40
0.6428571428571427
 40
0.7142857142857141
 40
0.7142857142857141
 40
0.7142857142857141
 40
0.7142857142857141
 40
0.7857142857142855
 40
0.7857142857142855
 40
0.7857142857142855
 40
0.7857142857142855
 40
0.8571428571428569
 40
0.8571428571428569
 40
0.8571428571428569
 40
0.8571428571428569
 40
0.9285714285714283
 40
0.9285714285714283
 40
0.9285714285714283
 40
0.9285714285714283
 40
1.0
 40
1.0
 40
1.0
 40
1.0
 10
-0.0735275590551181
 20
-1.578952755905512
 30
0.0
 10
-0.0735275590551181
 20
-1.578952755905512
 30
0.0
 10
-0.0779173228346457
 20
-1.573562992125984
 30
0.0
 10
-0.0779173228346457
 20
-1.573562992125984
 30
0.0
 10
-0.0779173228346457
 20
-1.573562992125984
 30
0.0
 10
-0.0668031496062992
 20
-1.564507874015748
 30
0.0
 10
-0.0612204724409449
 20
-1.556952755905512
 30
0.0
 10
-0.0612204724409449
 20
-1.550870078740158
 30
0.0
 10
-0.0612204724409449
 20
-1.550870078740158
 30
0.0
 10
-0.0612204724409449
 20
-1.550177165354331
 30
0.0
 10
-0.0612755905511811
 20
-1.549287401574803
 30
0.0
 10
-0.0613897637795276
 20
-1.548259842519685
 30
0.0
 10
-0.0613897637795276
 20
-1.548259842519685
 30
0.0
 10
-0.0623031496062992
 20
-1.548649606299213
 30
0.0
 10
-0.0632204724409449
 20
-1.548952755905512
 30
0.0
 10
-0.0640826771653543
 20
-1.549149606299213
 30
0.0
 10
-0.0640826771653543
 20
-1.549149606299213
 30
0.0
 10
-0.0649448818897638
 20
-1.549370078740158
 30
0.0
 10
-0.0657755905511811
 20
-1.54948031496063
 30
0.0
 10
-0.0666102362204724
 20
-1.54948031496063
 30
0.0
 10
-0.0666102362204724
 20
-1.54948031496063
 30
0.0
 10
-0.0691653543307087
 20
-1.54948031496063
 30
0.0
 10
-0.0712204724409449
 20
-1.548649606299213
 30
0.0
 10
-0.0727755905511811
 20
-1.546952755905512
 30
0.0
 10
-0.0727755905511811
 20
-1.546952755905512
 30
0.0
 10
-0.0743582677165354
 20
-1.545287401574803
 30
0.0
 10
-0.0751377952755906
 20
-1.543149606299213
 30
0.0
 10
-0.0751377952755906
 20
-1.540535433070866
 30
0.0
 10
-0.0751377952755906
 20
-1.540535433070866
 30
0.0
 10
-0.0751377952755906
 20
-1.53798031496063
 30
0.0
 10
-0.0741929133858268
 20
-1.535759842519685
 30
0.0
 10
-0.0723031496062992
 20
-1.533870078740158
 30
0.0
 10
-0.0723031496062992
 20
-1.533870078740158
 30
0.0
 10
-0.0704173228346457
 20
-1.531952755905512
 30
0.0
 10
-0.0681102362204725
 20
-1.531007874015748
 30
0.0
 10
-0.0654724409448819
 20
-1.531007874015748
 30
0.0
 10
-0.0654724409448819
 20
-1.531007874015748
 30
0.0
 10
-0.0617755905511811
 20
-1.531007874015748
 30
0.0
 10
-0.0586102362204724
 20
-1.53248031496063
 30
0.0
 10
-0.0559724409448819
 20
-1.535452755905512
 30
0.0
 10
-0.0559724409448819
 20
-1.535452755905512
 30
0.0
 10
-0.0533622047244095
 20
-1.538397637795276
 30
0.0
 10
-0.0520275590551181
 20
-1.542204724409449
 30
0.0
 10
-0.0520275590551181
 20
-1.546870078740158
 30
0.0
 10
-0.0520275590551181
 20
-1.546870078740158
 30
0.0
 10
-0.0520275590551181
 20
-1.549925196850394
 30
0.0
 10
-0.0526653543307087
 20
-1.553122047244095
 30
0.0
 10
-0.0539173228346457
 20
-1.556452755905512
 30
0.0
 10
-0.0539173228346457
 20
-1.556452755905512
 30
0.0
 10
-0.0551653543307087
 20
-1.559787401574803
 30
0.0
 10
-0.0569724409448819
 20
-1.562870078740158
 30
0.0
 10
-0.0593582677165354
 20
-1.565732283464567
 30
0.0
 10
-0.0593582677165354
 20
-1.565732283464567
 30
0.0
 10
-0.061748031496063
 20
-1.568562992125984
 30
0.0
 10
-0.0664724409448819
 20
-1.57298031496063
 30
0.0
 10
-0.0735275590551181
 20
-1.578952755905512
 30
0.0
  0
SPLINE
  5
50
330
1F
100
AcDbEntity
  8
LAYER_1
 62
   250
100
AcDbSpline
210
0.0
220
0.0
230
1.0
 70
    11
 71
     3
 72
   204
 73
   200
 74
     0
 42
0.0000000001
 43
0.0000000001
 40
0.0
 40
0.0
 40
0.0
 40
0.0
 40
0.02
 40
0.02
 40
0.02
 40
0.02
 40
0.04
 40
0.04
 40
0.04
 40
0.04
 40
0.06
 40
0.06
 40
0.06
 40
0.06
 40
0.08
 40
0.08
 40
0.08
 40
0.08
 40
0.1
 40
0.1
 40
0.1
 40
0.1
 40
0.12
 40
0.12
 40
0.12
 40
0.12
 40
0.14
 40
0.14
 40
0.14
 40
0.14
 40
0.16
 40
0.16
 40
0.16
 40
0.16
 40
0.18
 40
0.18
 40
0.18
 40
0.18
 40
0.2
 40
0.2
 40
0.2
 40
0.2
 40
0.22
 40
0.22
 40
0.22
 40
0.22
 40
0.24
 40
0.24
 40
0.24
 40
0.24
 40
0.26
 40
0.26
 40
0.26
 40
0.26
 40
0.28
 40
0.28
 40
0.28
 40
0.28
 40
0.3
 40
0.3
 40
0.3
 40
0.3
 40
0.32
 40
0.32
 40
0.32
 40
0.32
 40
0.34
 40
0.34
 40
0.34
 40
0.34
 40
0.36
 40
0.36
 40
0.36
 40
0.36
 40
0.3800000000000001
 40
0.3800000000000001
 40
0.3800000000000001
 40
0.3800000000000001
 40
0.4000000000000001
 40
0.4000000000000001
 40
0.4000000000000001
 40
0.4000000000000001
 40
0.4200000000000001
 40
0.4200000000000001
 40
0.4200000000000001
 40
0.4200000000000001
 40
0.4400000000000001
 40
0.4400000000000001
 40
0.4400000000000001
 40
0.4400000000000001
 40
0.4600000000000001
 40
0.4600000000000001
 40
0.4600000000000001
 40
0.4600000000000001
 40
0.4800000000000002
 40
0.4800000000000002
 40
0.4800000000000002
 40
0.4800000000000002
 40
0.5000000000000001
 40
0.5000000000000001
 40
0.5000000000000001
 40
0.5000000000000001
 40
0.5200000000000001
 40
0.5200000000000001
 40
0.5200000000000001
 40
0.5200000000000001
 40
0.5400000000000002
 40
0.5400000000000002
 40
0.5400000000000002
 40
0.5400000000000002
 40
0.5600000000000002
 40
0.5600000000000002
 40
0.5600000000000002
 40
0.5600000000000002
 40
0.5800000000000002
 40
0.5800000000000002
 40
0.5800000000000002
 40
0.5800000000000002
 40
0.6000000000000002
 40
0.6000000000000002
 40
0.6000000000000002
 40
0.6000000000000002
 40
0.6200000000000002
 40
0.6200000000000002
 40
0.6200000000000002
 40
0.6200000000000002
 40
0.6400000000000002
 40
0.6400000000000002
 40
0.6400000000000002
 40
0.6400000000000002
 40
0.6600000000000003
 40
0.6600000000000003
 40
0.6600000000000003
 40
0.6600000000000003
 40
0.6800000000000003
 40
0.6800000000000003
 40
0.6800000000000003
 40
0.6800000000000003
 40
0.7000000000000003
 40
0.7000000000000003
 40
0.7000000000000003
 40
0.7000000000000003
 40
0.7200000000000003
 40
0.7200000000000003
 40
0.7200000000000003
 40
0.7200000000000003
 40
0.7400000000000003
 40
0.7400000000000003
 40
0.7400000000000003
 40
0.7400000000000003
 40
0.7600000000000003
 40
0.7600000000000003
 40
0.7600000000000003
 40
0.7600000000000003
 40
0.7800000000000004
 40
0.7800000000000004
 40
0.7800000000000004
 40
0.7800000000000004
 40
0.8000000000000004
 40
0.8000000000000004
 40
0.8000000000000004
 40
0.8000000000000004
 40
0.8200000000000004
 40
0.8200000000000004
 40
0.8200000000000004
 40
0.8200000000000004
 40
0.8400000000000004
 40
0.8400000000000004
 40
0.8400000000000004
 40
0.8400000000000004
 40
0.8600000000000004
 40
0.8600000000000004
 40
0.8600000000000004
 40
0.8600000000000004
 40
0.8800000000000005
 40
0.8800000000000005
 40
0.8800000000000005
 40
0.8800000000000005
 40
0.9000000000000005
 40
0.9000000000000005
 40
0.9000000000000005
 40
0.9000000000000005
 40
0.9200000000000005
 40
0.9200000000000005
 40
0.9200000000000005
 40
0.9200000000000005
 40
0.9400000000000005
 40
0.9400000000000005
 40
0.9400000000000005
 40
0.9400000000000005
 40
0.9600000000000005
 40
0.9600000000000005
 40
0.9600000000000005
 40
0.9600000000000005
 40
0.9800000000000005
 40
0.9800000000000005
 40
0.9800000000000005
 40
0.9800000000000005
 40
1.0
 40
1.0
 40
1.0
 40
1.0
 10
0.0102795275590551
 20
-1.571870078740158
 30
0.0
 10
0.0102795275590551
 20
-1.571870078740158
 30
0.0
 10
0.0512244094488189
 20
-1.571870078740158
 30
0.0
 10
0.0512244094488189
 20
-1.571870078740158
 30
0.0
 10
0.0512244094488189
 20
-1.571870078740158
 30
0.0
 10
0.0512244094488189
 20
-1.571870078740158
 30
0.0
 10
0.0512244094488189
 20
-1.578704724409449
 30
0.0
 10
0.0512244094488189
 20
-1.578704724409449
 30
0.0
 10
0.0512244094488189
 20
-1.578704724409449
 30
0.0
 10
0.0512244094488189
 20
-1.578704724409449
 30
0.0
 10
0.0483897637795276
 20
-1.578704724409449
 30
0.0
 10
0.0483897637795276
 20
-1.578704724409449
 30
0.0
 10
0.0483897637795276
 20
-1.578704724409449
 30
0.0
 10
0.046751968503937
 20
-1.578704724409449
 30
0.0
 10
0.045251968503937
 20
-1.578897637795276
 30
0.0
 10
0.0438897637795276
 20
-1.579259842519685
 30
0.0
 10
0.0438897637795276
 20
-1.579259842519685
 30
0.0
 10
0.0430866141732284
 20
-1.57948031496063
 30
0.0
 10
0.0424173228346457
 20
-1.579897637795276
 30
0.0
 10
0.0419173228346457
 20
-1.580535433070866
 30
0.0
 10
0.0419173228346457
 20
-1.580535433070866
 30
0.0
 10
0.0413897637795276
 20
-1.581149606299213
 30
0.0
 10
0.0411417322834646
 20
-1.581732283464567
 30
0.0
 10
0.0411417322834646
 20
-1.582287401574803
 30
0.0
 10
0.0411417322834646
 20
-1.582287401574803
 30
0.0
 10
0.0411417322834646
 20
-1.583535433070866
 30
0.0
 10
0.0421692913385827
 20
-1.585397637795276
 30
0.0
 10
0.0442244094488189
 20
-1.587897637795276
 30
0.0
 10
0.0442244094488189
 20
-1.587897637795276
 30
0.0
 10
0.0442244094488189
 20
-1.587897637795276
 30
0.0
 10
0.0558622047244094
 20
-1.602535433070866
 30
0.0
 10
0.0558622047244094
 20
-1.602535433070866
 30
0.0
 10
0.0558622047244094
 20
-1.602535433070866
 30
0.0
 10
0.0558622047244094
 20
-1.602535433070866
 30
0.0
 10
0.0694448818897638
 20
-1.587897637795276
 30
0.0
 10
0.0694448818897638
 20
-1.587897637795276
 30
0.0
 10
0.0694448818897638
 20
-1.587897637795276
 30
0.0
 10
0.0719448818897638
 20
-1.585177165354331
 30
0.0
 10
0.0731968503937008
 20
-1.583149606299213
 30
0.0
 10
0.0731968503937008
 20
-1.581787401574803
 30
0.0
 10
0.0731968503937008
 20
-1.581787401574803
 30
0.0
 10
0.0731968503937008
 20
-1.580814960629921
 30
0.0
 10
0.072751968503937
 20
-1.580062992125984
 30
0.0
 10
0.0718897637795276
 20
-1.579507874015748
 30
0.0
 10
0.0718897637795276
 20
-1.579507874015748
 30
0.0
 10
0.0710275590551181
 20
-1.57898031496063
 30
0.0
 10
0.0691692913385827
 20
-1.578704724409449
 30
0.0
 10
0.0662795275590551
 20
-1.578704724409449
 30
0.0
 10
0.0662795275590551
 20
-1.578704724409449
 30
0.0
 10
0.0662795275590551
 20
-1.578704724409449
 30
0.0
 10
0.0631968503937008
 20
-1.578704724409449
 30
0.0
 10
0.0631968503937008
 20
-1.578704724409449
 30
0.0
 10
0.0631968503937008
 20
-1.578704724409449
 30
0.0
 10
0.0631968503937008
 20
-1.578704724409449
 30
0.0
 10
0.0631968503937008
 20
-1.571870078740158
 30
0.0
 10
0.0631968503937008
 20
-1.571870078740158
 30
0.0
 10
0.0631968503937008
 20
-1.571870078740158
 30
0.0
 10
0.0631968503937008
 20
-1.571870078740158
 30
0.0
 10
0.0979448818897638
 20
-1.571870078740158
 30
0.0
 10
0.0979448818897638
 20
-1.571870078740158
 30
0.0
 10
0.0979448818897638
 20
-1.571870078740158
 30
0.0
 10
0.0979448818897638
 20
-1.571870078740158
 30
0.0
 10
0.0979448818897638
 20
-1.578704724409449
 30
0.0
 10
0.0979448818897638
 20
-1.578704724409449
 30
0.0
 10
0.0979448818897638
 20
-1.578704724409449
 30
0.0
 10
0.0945275590551181
 20
-1.578870078740158
 30
0.0
 10
0.0915826771653543
 20
-1.579562992125984
 30
0.0
 10
0.0891141732283465
 20
-1.580814960629921
 30
0.0
 10
0.0891141732283465
 20
-1.580814960629921
 30
0.0
 10
0.0866417322834646
 20
-1.582062992125984
 30
0.0
 10
0.0837244094488189
 20
-1.584425196850394
 30
0.0
 10
0.0803622047244095
 20
-1.587897637795276
 30
0.0
 10
0.0803622047244095
 20
-1.587897637795276
 30
0.0
 10
0.0803622047244095
 20
-1.587897637795276
 30
0.0
 10
0.0617244094488189
 20
-1.607259842519685
 30
0.0
 10
0.0617244094488189
 20
-1.607259842519685
 30
0.0
 10
0.0617244094488189
 20
-1.607259842519685
 30
0.0
 10
0.0617244094488189
 20
-1.607259842519685
 30
0.0
 10
0.0849173228346457
 20
-1.633704724409449
 30
0.0
 10
0.0849173228346457
 20
-1.633704724409449
 30
0.0
 10
0.0849173228346457
 20
-1.633704724409449
 30
0.0
 10
0.0849173228346457
 20
-1.633704724409449
 30
0.0
 10
0.0858070866141732
 20
-1.634842519685039
 30
0.0
 10
0.0858070866141732
 20
-1.634842519685039
 30
0.0
 10
0.0858070866141732
 20
-1.634842519685039
 30
0.0
 10
0.0880826771653543
 20
-1.637787401574803
 30
0.0
 10
0.0906417322834646
 20
-1.640149606299213
 30
0.0
 10
0.0934724409448819
 20
-1.641925196850394
 30
0.0
 10
0.0934724409448819
 20
-1.641925196850394
 30
0.0
 10
0.0950275590551181
 20
-1.642952755905512
 30
0.0
 10
0.0974724409448819
 20
-1.643507874015748
 30
0.0
 10
0.1007795275590551
 20
-1.643562992125984
 30
0.0
 10
0.1007795275590551
 20
-1.643562992125984
 30
0.0
 10
0.1007795275590551
 20
-1.643562992125984
 30
0.0
 10
0.1007795275590551
 20
-1.650397637795276
 30
0.0
 10
0.1007795275590551
 20
-1.650397637795276
 30
0.0
 10
0.1007795275590551
 20
-1.650397637795276
 30
0.0
 10
0.1007795275590551
 20
-1.650397637795276
 30
0.0
 10
0.0608346456692913
 20
-1.650397637795276
 30
0.0
 10
0.0608346456692913
 20
-1.650397637795276
 30
0.0
 10
0.0608346456692913
 20
-1.650397637795276
 30
0.0
 10
0.0608346456692913
 20
-1.650397637795276
 30
0.0
 10
0.0608346456692913
 20
-1.643562992125984
 30
0.0
 10
0.0608346456692913
 20
-1.643562992125984
 30
0.0
 10
0.0608346456692913
 20
-1.643562992125984
 30
0.0
 10
0.0608346456692913
 20
-1.643562992125984
 30
0.0
 10
0.064251968503937
 20
-1.643562992125984
 30
0.0
 10
0.064251968503937
 20
-1.643562992125984
 30
0.0
 10
0.064251968503937
 20
-1.643562992125984
 30
0.0
 10
0.0668622047244095
 20
-1.643562992125984
 30
0.0
 10
0.0685
 20
-1.643397637795276
 30
0.0
 10
0.0692244094488189
 20
-1.643062992125984
 30
0.0
 10
0.0692244094488189
 20
-1.643062992125984
 30
0.0
 10
0.0703897637795276
 20
-1.642535433070866
 30
0.0
 10
0.071
 20
-1.641618110236221
 30
0.0
 10
0.071
 20
-1.640314960629921
 30
0.0
 10
0.071
 20
-1.640314960629921
 30
0.0
 10
0.071
 20
-1.63911811023622
 30
0.0
 10
0.0696968503937008
 20
-1.636925196850394
 30
0.0
 10
0.0670826771653543
 20
-1.633704724409449
 30
0.0
 10
0.0670826771653543
 20
-1.633704724409449
 30
0.0
 10
0.0670826771653543
 20
-1.633704724409449
 30
0.0
 10
0.0522795275590551
 20
-1.615562992125984
 30
0.0
 10
0.0522795275590551
 20
-1.615562992125984
 30
0.0
 10
0.0522795275590551
 20
-1.615562992125984
 30
0.0
 10
0.0522795275590551
 20
-1.615562992125984
 30
0.0
 10
0.035751968503937
 20
-1.633704724409449
 30
0.0
 10
0.035751968503937
 20
-1.633704724409449
 30
0.0
 10
0.035751968503937
 20
-1.633704724409449
 30
0.0
 10
0.035751968503937
 20
-1.633704724409449
 30
0.0
 10
0.0341417322834646
 20
-1.635677165354331
 30
0.0
 10
0.0341417322834646
 20
-1.635677165354331
 30
0.0
 10
0.0341417322834646
 20
-1.635677165354331
 30
0.0
 10
0.0341417322834646
 20
-1.635677165354331
 30
0.0
 10
0.033251968503937
 20
-1.636649606299213
 30
0.0
 10
0.033251968503937
 20
-1.636649606299213
 30
0.0
 10
0.033251968503937
 20
-1.636649606299213
 30
0.0
 10
0.0318897637795276
 20
-1.638118110236221
 30
0.0
 10
0.0311968503937008
 20
-1.639397637795276
 30
0.0
 10
0.0311968503937008
 20
-1.640535433070866
 30
0.0
 10
0.0311968503937008
 20
-1.640535433070866
 30
0.0
 10
0.0311968503937008
 20
-1.641590551181102
 30
0.0
 10
0.0316141732283465
 20
-1.642342519685039
 30
0.0
 10
0.0324724409448819
 20
-1.642842519685039
 30
0.0
 10
0.0324724409448819
 20
-1.642842519685039
 30
0.0
 10
0.0333070866141732
 20
-1.643314960629921
 30
0.0
 10
0.0351968503937008
 20
-1.643562992125984
 30
0.0
 10
0.0381141732283465
 20
-1.643562992125984
 30
0.0
 10
0.0381141732283465
 20
-1.643562992125984
 30
0.0
 10
0.0381141732283465
 20
-1.643562992125984
 30
0.0
 10
0.0413897637795276
 20
-1.643562992125984
 30
0.0
 10
0.0413897637795276
 20
-1.643562992125984
 30
0.0
 10
0.0413897637795276
 20
-1.643562992125984
 30
0.0
 10
0.0413897637795276
 20
-1.643562992125984
 30
0.0
 10
0.0413897637795276
 20
-1.650397637795276
 30
0.0
 10
0.0413897637795276
 20
-1.650397637795276
 30
0.0
 10
0.0413897637795276
 20
-1.650397637795276
 30
0.0
 10
0.0413897637795276
 20
-1.650397637795276
 30
0.0
 10
0.0071141732283465
 20
-1.650397637795276
 30
0.0
 10
0.0071141732283465
 20
-1.650397637795276
 30
0.0
 10
0.0071141732283465
 20
-1.650397637795276
 30
0.0
 10
0.0071141732283465
 20
-1.650397637795276
 30
0.0
 10
0.0071141732283465
 20
-1.643562992125984
 30
0.0
 10
0.0071141732283465
 20
-1.643562992125984
 30
0.0
 10
0.0071141732283465
 20
-1.643562992125984
 30
0.0
 10
0.0097795275590551
 20
-1.643507874015748
 30
0.0
 10
0.0118622047244094
 20
-1.643232283464567
 30
0.0
 10
0.0133897637795276
 20
-1.642704724409449
 30
0.0
 10
0.0133897637795276
 20
-1.642704724409449
 30
0.0
 10
0.0148897637795276
 20
-1.642204724409449
 30
0.0
 10
0.0163622047244095
 20
-1.641397637795276
 30
0.0
 10
0.0177795275590551
 20
-1.640314960629921
 30
0.0
 10
0.0177795275590551
 20
-1.640314960629921
 30
0.0
 10
0.0202244094488189
 20
-1.638342519685039
 30
0.0
 10
0.0219724409448819
 20
-1.636814960629921
 30
0.0
 10
0.0230590551181102
 20
-1.635677165354331
 30
0.0
 10
0.0230590551181102
 20
-1.635677165354331
 30
0.0
 10
0.0230590551181102
 20
-1.635677165354331
 30
0.0
 10
0.0469173228346457
 20
-1.611177165354331
 30
0.0
 10
0.0469173228346457
 20
-1.611177165354331
 30
0.0
 10
0.0469173228346457
 20
-1.611177165354331
 30
0.0
 10
0.0469173228346457
 20
-1.611177165354331
 30
0.0
 10
0.0266417322834646
 20
-1.587897637795276
 30
0.0
 10
0.0266417322834646
 20
-1.587897637795276
 30
0.0
 10
0.0266417322834646
 20
-1.587897637795276
 30
0.0
 10
0.0240866141732283
 20
-1.585007874015748
 30
0.0
 10
0.0220866141732283
 20
-1.583007874015748
 30
0.0
 10
0.0205866141732283
 20
-1.581842519685039
 30
0.0
 10
0.0205866141732283
 20
-1.581842519685039
 30
0.0
 10
0.0190866141732283
 20
-1.580677165354331
 30
0.0
 10
0.0176417322834646
 20
-1.579842519685039
 30
0.0
 10
0.0162244094488189
 20
-1.579397637795276
 30
0.0
 10
0.0162244094488189
 20
-1.579397637795276
 30
0.0
 10
0.0148070866141732
 20
-1.578925196850394
 30
0.0
 10
0.0128346456692913
 20
-1.578704724409449
 30
0.0
 10
0.0102795275590551
 20
-1.578704724409449
 30
0.0
 10
0.0102795275590551
 20
-1.578704724409449
 30
0.0
 10
0.0102795275590551
 20
-1.578704724409449
 30
0.0
 10
0.0102795275590551
 20
-1.571870078740158
 30
0.0
 10
0.0102795275590551
 20
-1.571870078740158
 30
0.0
  0
SPLINE
  5
51
330
1F
100
AcDbEntity
  8
LAYER_1
 62
   250
100
AcDbSpline
210
0.0
220
0.0
230
1.0
 70
    11
 71
     3
 72
   172
 73
   168
 74
     0
 42
0.0000000001
 43
0.0000000001
 40
0.0
 40
0.0
 40
0.0
 40
0.0
 40
0.0238095238095238
 40
0.0238095238095238
 40
0.0238095238095238
 40
0.0238095238095238
 40
0.0476190476190476
 40
0.0476190476190476
 40
0.0476190476190476
 40
0.0476190476190476
 40
0.0714285714285714
 40
0.0714285714285714
 40
0.0714285714285714
 40
0.0714285714285714
 40
0.0952380952380952
 40
0.0952380952380952
 40
0.0952380952380952
 40
0.0952380952380952
 40
0.119047619047619
 40
0.119047619047619
 40
0.119047619047619
 40
0.119047619047619
 40
0.1428571428571429
 40
0.1428571428571429
 40
0.1428571428571429
 40
0.1428571428571429
 40
0.1666666666666667
 40
0.1666666666666667
 40
0.1666666666666667
 40
0.1666666666666667
 40
0.1904761904761905
 40
0.1904761904761905
 40
0.1904761904761905
 40
0.1904761904761905
 40
0.2142857142857143
 40
0.2142857142857143
 40
0.2142857142857143
 40
0.2142857142857143
 40
0.2380952380952381
 40
0.2380952380952381
 40
0.2380952380952381
 40
0.2380952380952381
 40
0.2619047619047619
 40
0.2619047619047619
 40
0.2619047619047619
 40
0.2619047619047619
 40
0.2857142857142857
 40
0.2857142857142857
 40
0.2857142857142857
 40
0.2857142857142857
 40
0.3095238095238095
 40
0.3095238095238095
 40
0.3095238095238095
 40
0.3095238095238095
 40
0.3333333333333334
 40
0.3333333333333334
 40
0.3333333333333334
 40
0.3333333333333334
 40
0.3571428571428572
 40
0.3571428571428572
 40
0.3571428571428572
 40
0.3571428571428572
 40
0.380952380952381
 40
0.380952380952381
 40
0.380952380952381
 40
0.380952380952381
 40
0.4047619047619049
 40
0.4047619047619049
 40
0.4047619047619049
 40
0.4047619047619049
 40
0.4285714285714287
 40
0.4285714285714287
 40
0.4285714285714287
 40
0.4285714285714287
 40
0.4523809523809526
 40
0.4523809523809526
 40
0.4523809523809526
 40
0.4523809523809526
 40
0.4761904761904764
 40
0.4761904761904764
 40
0.4761904761904764
 40
0.4761904761904764
 40
0.5000000000000002
 40
0.5000000000000002
 40
0.5000000000000002
 40
0.5000000000000002
 40
0.5238095238095241
 40
0.5238095238095241
 40
0.5238095238095241
 40
0.5238095238095241
 40
0.5476190476190479
 40
0.5476190476190479
 40
0.5476190476190479
 40
0.5476190476190479
 40
0.5714285714285717
 40
0.5714285714285717
 40
0.5714285714285717
 40
0.5714285714285717
 40
0.5952380952380956
 40
0.5952380952380956
 40
0.5952380952380956
 40
0.5952380952380956
 40
0.6190476190476194
 40
0.6190476190476194
 40
0.6190476190476194
 40
0.6190476190476194
 40
0.6428571428571432
 40
0.6428571428571432
 40
0.6428571428571432
 40
0.6428571428571432
 40
0.6666666666666671
 40
0.6666666666666671
 40
0.6666666666666671
 40
0.6666666666666671
 40
0.6904761904761909
 40
0.6904761904761909
 40
0.6904761904761909
 40
0.6904761904761909
 40
0.7142857142857148
 40
0.7142857142857148
 40
0.7142857142857148
 40
0.7142857142857148
 40
0.7380952380952386
 40
0.7380952380952386
 40
0.7380952380952386
 40
0.7380952380952386
 40
0.7619047619047624
 40
0.7619047619047624
 40
0.7619047619047624
 40
0.7619047619047624
 40
0.7857142857142863
 40
0.7857142857142863
 40
0.7857142857142863
 40
0.7857142857142863
 40
0.8095238095238101
 40
0.8095238095238101
 40
0.8095238095238101
 40
0.8095238095238101
 40
0.8333333333333339
 40
0.8333333333333339
 40
0.8333333333333339
 40
0.8333333333333339
 40
0.8571428571428578
 40
0.8571428571428578
 40
0.8571428571428578
 40
0.8571428571428578
 40
0.8809523809523816
 40
0.8809523809523816
 40
0.8809523809523816
 40
0.8809523809523816
 40
0.9047619047619054
 40
0.9047619047619054
 40
0.9047619047619054
 40
0.9047619047619054
 40
0.9285714285714293
 40
0.9285714285714293
 40
0.9285714285714293
 40
0.9285714285714293
 40
0.9523809523809531
 40
0.9523809523809531
 40
0.9523809523809531
 40
0.9523809523809531
 40
0.9761904761904769
 40
0.9761904761904769
 40
0.9761904761904769
 40
0.9761904761904769
 40
1.0
 40
1.0
 40
1.0
 40
1.0
 10
0.1759724409448819
 20
-1.567232283464567
 30
0.0
 10
0.1759724409448819
 20
-1.567232283464567
 30
0.0
 10
0.1681653543307087
 20
-1.566007874015748
 30
0.0
 10
0.1681653543307087
 20
-1.566007874015748
 30
0.0
 10
0.1681653543307087
 20
-1.566007874015748
 30
0.0
 10
0.1688622047244095
 20
-1.560149606299213
 30
0.0
 10
0.1703897637795276
 20
-1.555287401574803
 30
0.0
 10
0.1727244094488189
 20
-1.551425196850394
 30
0.0
 10
0.1727244094488189
 20
-1.551425196850394
 30
0.0
 10
0.1758070866141732
 20
-1.546232283464567
 30
0.0
 10
0.1801653543307087
 20
-1.542177165354331
 30
0.0
 10
0.1858070866141732
 20
-1.539287401574803
 30
0.0
 10
0.1858070866141732
 20
-1.539287401574803
 30
0.0
 10
0.1914724409448819
 20
-1.536370078740158
 30
0.0
 10
0.1979448818897638
 20
-1.534925196850394
 30
0.0
 10
0.2052795275590551
 20
-1.534925196850394
 30
0.0
 10
0.2052795275590551
 20
-1.534925196850394
 30
0.0
 10
0.2124724409448819
 20
-1.534925196850394
 30
0.0
 10
0.2188346456692913
 20
-1.536204724409449
 30
0.0
 10
0.2243070866141732
 20
-1.538787401574803
 30
0.0
 10
0.2243070866141732
 20
-1.538787401574803
 30
0.0
 10
0.2297795275590551
 20
-1.541370078740158
 30
0.0
 10
0.2339173228346457
 20
-1.544787401574803
 30
0.0
 10
0.2367204724409449
 20
-1.549035433070866
 30
0.0
 10
0.2367204724409449
 20
-1.549035433070866
 30
0.0
 10
0.2395275590551181
 20
-1.553287401574803
 30
0.0
 10
0.2409173228346457
 20
-1.557897637795276
 30
0.0
 10
0.2409173228346457
 20
-1.56284251968504
 30
0.0
 10
0.2409173228346457
 20
-1.56284251968504
 30
0.0
 10
0.2409173228346457
 20
-1.567177165354331
 30
0.0
 10
0.2398622047244094
 20
-1.571062992125984
 30
0.0
 10
0.237748031496063
 20
-1.57448031496063
 30
0.0
 10
0.237748031496063
 20
-1.57448031496063
 30
0.0
 10
0.2356102362204725
 20
-1.577897637795276
 30
0.0
 10
0.2324724409448819
 20
-1.580952755905512
 30
0.0
 10
0.2283070866141732
 20
-1.583677165354331
 30
0.0
 10
0.2283070866141732
 20
-1.583677165354331
 30
0.0
 10
0.2253622047244095
 20
-1.585562992125984
 30
0.0
 10
0.2215551181102362
 20
-1.587232283464567
 30
0.0
 10
0.2168346456692913
 20
-1.588622047244095
 30
0.0
 10
0.2168346456692913
 20
-1.588622047244095
 30
0.0
 10
0.2218622047244095
 20
-1.58934251968504
 30
0.0
 10
0.226
 20
-1.590507874015748
 30
0.0
 10
0.2291929133858268
 20
-1.592122047244095
 30
0.0
 10
0.2291929133858268
 20
-1.592122047244095
 30
0.0
 10
0.2343897637795276
 20
-1.594787401574803
 30
0.0
 10
0.2385
 20
-1.598452755905512
 30
0.0
 10
0.2414724409448819
 20
-1.603122047244095
 30
0.0
 10
0.2414724409448819
 20
-1.603122047244095
 30
0.0
 10
0.2444724409448819
 20
-1.607787401574803
 30
0.0
 10
0.2459448818897638
 20
-1.612897637795276
 30
0.0
 10
0.2459448818897638
 20
-1.618507874015748
 30
0.0
 10
0.2459448818897638
 20
-1.618507874015748
 30
0.0
 10
0.2459448818897638
 20
-1.627452755905512
 30
0.0
 10
0.2420275590551181
 20
-1.63534251968504
 30
0.0
 10
0.2341653543307087
 20
-1.642149606299213
 30
0.0
 10
0.2341653543307087
 20
-1.642149606299213
 30
0.0
 10
0.2262795275590551
 20
-1.648952755905512
 30
0.0
 10
0.2161102362204725
 20
-1.652342519685039
 30
0.0
 10
0.2036377952755906
 20
-1.652342519685039
 30
0.0
 10
0.2036377952755906
 20
-1.652342519685039
 30
0.0
 10
0.1913346456692913
 20
-1.652342519685039
 30
0.0
 10
0.1809724409448819
 20
-1.649062992125984
 30
0.0
 10
0.1725551181102362
 20
-1.642507874015748
 30
0.0
 10
0.1725551181102362
 20
-1.642507874015748
 30
0.0
 10
0.1655
 20
-1.636925196850394
 30
0.0
 10
0.1619724409448819
 20
-1.631287401574803
 30
0.0
 10
0.1619724409448819
 20
-1.625649606299213
 30
0.0
 10
0.1619724409448819
 20
-1.625649606299213
 30
0.0
 10
0.1619724409448819
 20
-1.623425196850394
 30
0.0
 10
0.1626968503937008
 20
-1.621562992125984
 30
0.0
 10
0.1641377952755906
 20
-1.620090551181102
 30
0.0
 10
0.1641377952755906
 20
-1.620090551181102
 30
0.0
 10
0.1655551181102362
 20
-1.618590551181103
 30
0.0
 10
0.1673622047244095
 20
-1.617842519685039
 30
0.0
 10
0.1695551181102362
 20
-1.617842519685039
 30
0.0
 10
0.1695551181102362
 20
-1.617842519685039
 30
0.0
 10
0.1719173228346457
 20
-1.617842519685039
 30
0.0
 10
0.1739724409448819
 20
-1.618759842519685
 30
0.0
 10
0.1756377952755906
 20
-1.620622047244095
 30
0.0
 10
0.1756377952755906
 20
-1.620622047244095
 30
0.0
 10
0.1765551181102362
 20
-1.621649606299213
 30
0.0
 10
0.1776377952755906
 20
-1.624118110236221
 30
0.0
 10
0.1788070866141732
 20
-1.628007874015748
 30
0.0
 10
0.1788070866141732
 20
-1.628007874015748
 30
0.0
 10
0.1805
 20
-1.633507874015748
 30
0.0
 10
0.1833622047244095
 20
-1.637677165354331
 30
0.0
 10
0.1873622047244095
 20
-1.640535433070866
 30
0.0
 10
0.1873622047244095
 20
-1.640535433070866
 30
0.0
 10
0.1913897637795276
 20
-1.643425196850394
 30
0.0
 10
0.1963622047244095
 20
-1.644870078740158
 30
0.0
 10
0.2023346456692914
 20
-1.644870078740158
 30
0.0
 10
0.2023346456692914
 20
-1.644870078740158
 30
0.0
 10
0.2076653543307087
 20
-1.644870078740158
 30
0.0
 10
0.2124173228346457
 20
-1.643704724409449
 30
0.0
 10
0.2166102362204725
 20
-1.641370078740158
 30
0.0
 10
0.2166102362204725
 20
-1.641370078740158
 30
0.0
 10
0.2208346456692913
 20
-1.639035433070866
 30
0.0
 10
0.2241377952755906
 20
-1.635732283464567
 30
0.0
 10
0.2265826771653544
 20
-1.631425196850394
 30
0.0
 10
0.2265826771653544
 20
-1.631425196850394
 30
0.0
 10
0.2290275590551181
 20
-1.627149606299213
 30
0.0
 10
0.230251968503937
 20
-1.622452755905512
 30
0.0
 10
0.230251968503937
 20
-1.617370078740158
 30
0.0
 10
0.230251968503937
 20
-1.617370078740158
 30
0.0
 10
0.230251968503937
 20
-1.613232283464567
 30
0.0
 10
0.2293622047244095
 20
-1.609535433070866
 30
0.0
 10
0.2276102362204724
 20
-1.606259842519685
 30
0.0
 10
0.2276102362204724
 20
-1.606259842519685
 30
0.0
 10
0.2258346456692914
 20
-1.602952755905512
 30
0.0
 10
0.2233346456692913
 20
-1.600177165354331
 30
0.0
 10
0.2200826771653544
 20
-1.597897637795276
 30
0.0
 10
0.2200826771653544
 20
-1.597897637795276
 30
0.0
 10
0.2175826771653543
 20
-1.596122047244095
 30
0.0
 10
0.2143897637795276
 20
-1.594870078740158
 30
0.0
 10
0.2105275590551181
 20
-1.594177165354331
 30
0.0
 10
0.2105275590551181
 20
-1.594177165354331
 30
0.0
 10
0.2066377952755906
 20
-1.593452755905512
 30
0.0
 10
0.2031377952755906
 20
-1.593094488188976
 30
0.0
 10
0.2000551181102362
 20
-1.593094488188976
 30
0.0
 10
0.2000551181102362
 20
-1.593094488188976
 30
0.0
 10
0.2000551181102362
 20
-1.593094488188976
 30
0.0
 10
0.1925
 20
-1.593094488188976
 30
0.0
 10
0.1925
 20
-1.593094488188976
 30
0.0
 10
0.1925
 20
-1.593094488188976
 30
0.0
 10
0.1925
 20
-1.593094488188976
 30
0.0
 10
0.1925
 20
-1.585204724409449
 30
0.0
 10
0.1925
 20
-1.585204724409449
 30
0.0
 10
0.1925
 20
-1.585204724409449
 30
0.0
 10
0.1925
 20
-1.585204724409449
 30
0.0
 10
0.1973070866141732
 20
-1.585204724409449
 30
0.0
 10
0.1973070866141732
 20
-1.585204724409449
 30
0.0
 10
0.1973070866141732
 20
-1.585204724409449
 30
0.0
 10
0.2020551181102362
 20
-1.585204724409449
 30
0.0
 10
0.2066102362204725
 20
-1.584649606299213
 30
0.0
 10
0.2109724409448819
 20
-1.583535433070866
 30
0.0
 10
0.2109724409448819
 20
-1.583535433070866
 30
0.0
 10
0.2153070866141733
 20
-1.582425196850394
 30
0.0
 10
0.2187795275590551
 20
-1.580149606299213
 30
0.0
 10
0.2213897637795276
 20
-1.576677165354331
 30
0.0
 10
0.2213897637795276
 20
-1.576677165354331
 30
0.0
 10
0.2239724409448819
 20
-1.573204724409449
 30
0.0
 10
0.2252795275590551
 20
-1.569259842519685
 30
0.0
 10
0.2252795275590551
 20
-1.564870078740158
 30
0.0
 10
0.2252795275590551
 20
-1.564870078740158
 30
0.0
 10
0.2252795275590551
 20
-1.561066929133858
 30
0.0
 10
0.2243897637795276
 20
-1.557649606299213
 30
0.0
 10
0.2225551181102362
 20
-1.554622047244095
 30
0.0
 10
0.2225551181102362
 20
-1.554622047244095
 30
0.0
 10
0.220751968503937
 20
-1.551566929133858
 30
0.0
 10
0.2180826771653543
 20
-1.549149606299213
 30
0.0
 10
0.2145551181102362
 20
-1.547370078740158
 30
0.0
 10
0.2145551181102362
 20
-1.547370078740158
 30
0.0
 10
0.2110275590551181
 20
-1.545594488188977
 30
0.0
 10
0.2069448818897638
 20
-1.544677165354331
 30
0.0
 10
0.2023346456692914
 20
-1.544677165354331
 30
0.0
 10
0.2023346456692914
 20
-1.544677165354331
 30
0.0
 10
0.1978346456692914
 20
-1.544677165354331
 30
0.0
 10
0.1936929133858268
 20
-1.545622047244095
 30
0.0
 10
0.1899173228346457
 20
-1.547452755905512
 30
0.0
 10
0.1899173228346457
 20
-1.547452755905512
 30
0.0
 10
0.1861653543307087
 20
-1.549287401574803
 30
0.0
 10
0.1831377952755906
 20
-1.551759842519685
 30
0.0
 10
0.1808622047244095
 20
-1.554870078740158
 30
0.0
 10
0.1808622047244095
 20
-1.554870078740158
 30
0.0
 10
0.1785826771653543
 20
-1.557952755905512
 30
0.0
 10
0.1769448818897638
 20
-1.562066929133858
 30
0.0
 10
0.1759724409448819
 20
-1.567232283464567
 30
0.0
  0
SPLINE
  5
52
330
1F
100
AcDbEntity
  8
LAYER_1
 62
   250
100
AcDbSpline
210
0.0
220
0.0
230
1.0
 70
    11
 71
     3
 72
    60
 73
    56
 74
     0
 42
0.0000000001
 43
0.0000000001
 40
0.0
 40
0.0
 40
0.0
 40
0.0
 40
0.0714285714285714
 40
0.0714285714285714
 40
0.0714285714285714
 40
0.0714285714285714
 40
0.1428571428571429
 40
0.1428571428571429
 40
0.1428571428571429
 40
0.1428571428571429
 40
0.2142857142857143
 40
0.2142857142857143
 40
0.2142857142857143
 40
0.2142857142857143
 40
0.2857142857142857
 40
0.2857142857142857
 40
0.2857142857142857
 40
0.2857142857142857
 40
0.3571428571428571
 40
0.3571428571428571
 40
0.3571428571428571
 40
0.3571428571428571
 40
0.4285714285714285
 40
0.4285714285714285
 40
0.4285714285714285
 40
0.4285714285714285
 40
0.4999999999999999
 40
0.4999999999999999
 40
0.4999999999999999
 40
0.4999999999999999
 40
0.5714285714285713
 40
0.5714285714285713
 40
0.5714285714285713
 40
0.5714285714285713
 40
0.6428571428571427
 40
0.6428571428571427
 40
0.6428571428571427
 40
0.6428571428571427
 40
0.7142857142857141
 40
0.7142857142857141
 40
0.7142857142857141
 40
0.7142857142857141
 40
0.7857142857142855
 40
0.7857142857142855
 40
0.7857142857142855
 40
0.7857142857142855
 40
0.8571428571428569
 40
0.8571428571428569
 40
0.8571428571428569
 40
0.8571428571428569
 40
0.9285714285714283
 40
0.9285714285714283
 40
0.9285714285714283
 40
0.9285714285714283
 40
1.0
 40
1.0
 40
1.0
 40
1.0
 10
0.2673622047244095
 20
-1.578952755905512
 30
0.0
 10
0.2673622047244095
 20
-1.578952755905512
 30
0.0
 10
0.2629724409448819
 20
-1.573562992125984
 30
0.0
 10
0.2629724409448819
 20
-1.573562992125984
 30
0.0
 10
0.2629724409448819
 20
-1.573562992125984
 30
0.0
 10
0.2740866141732284
 20
-1.564507874015748
 30
0.0
 10
0.2796692913385827
 20
-1.556952755905512
 30
0.0
 10
0.2796692913385827
 20
-1.550870078740158
 30
0.0
 10
0.2796692913385827
 20
-1.550870078740158
 30
0.0
 10
0.2796692913385827
 20
-1.550177165354331
 30
0.0
 10
0.2796141732283465
 20
-1.549287401574803
 30
0.0
 10
0.2795
 20
-1.548259842519685
 30
0.0
 10
0.2795
 20
-1.548259842519685
 30
0.0
 10
0.2785866141732283
 20
-1.548649606299213
 30
0.0
 10
0.2776692913385827
 20
-1.548952755905512
 30
0.0
 10
0.2768070866141733
 20
-1.549149606299213
 30
0.0
 10
0.2768070866141733
 20
-1.549149606299213
 30
0.0
 10
0.2759448818897638
 20
-1.549370078740158
 30
0.0
 10
0.2751417322834646
 20
-1.54948031496063
 30
0.0
 10
0.2743622047244095
 20
-1.54948031496063
 30
0.0
 10
0.2743622047244095
 20
-1.54948031496063
 30
0.0
 10
0.271751968503937
 20
-1.54948031496063
 30
0.0
 10
0.2696692913385827
 20
-1.548649606299213
 30
0.0
 10
0.2681141732283465
 20
-1.546952755905512
 30
0.0
 10
0.2681141732283465
 20
-1.546952755905512
 30
0.0
 10
0.2665275590551181
 20
-1.545287401574803
 30
0.0
 10
0.265751968503937
 20
-1.543149606299213
 30
0.0
 10
0.265751968503937
 20
-1.540535433070866
 30
0.0
 10
0.265751968503937
 20
-1.540535433070866
 30
0.0
 10
0.265751968503937
 20
-1.53798031496063
 30
0.0
 10
0.2666968503937008
 20
-1.535759842519685
 30
0.0
 10
0.2685866141732284
 20
-1.533870078740158
 30
0.0
 10
0.2685866141732284
 20
-1.533870078740158
 30
0.0
 10
0.2705
 20
-1.531952755905512
 30
0.0
 10
0.2727795275590551
 20
-1.531007874015748
 30
0.0
 10
0.2754173228346457
 20
-1.531007874015748
 30
0.0
 10
0.2754173228346457
 20
-1.531007874015748
 30
0.0
 10
0.2791141732283465
 20
-1.531007874015748
 30
0.0
 10
0.2822795275590551
 20
-1.53248031496063
 30
0.0
 10
0.2849173228346457
 20
-1.535452755905512
 30
0.0
 10
0.2849173228346457
 20
-1.535452755905512
 30
0.0
 10
0.2875275590551181
 20
-1.538397637795276
 30
0.0
 10
0.2888622047244094
 20
-1.542204724409449
 30
0.0
 10
0.2888622047244094
 20
-1.546870078740158
 30
0.0
 10
0.2888622047244094
 20
-1.546870078740158
 30
0.0
 10
0.2888622047244094
 20
-1.549925196850394
 30
0.0
 10
0.2882244094488189
 20
-1.553122047244095
 30
0.0
 10
0.2869724409448819
 20
-1.556452755905512
 30
0.0
 10
0.2869724409448819
 20
-1.556452755905512
 30
0.0
 10
0.2857244094488189
 20
-1.559787401574803
 30
0.0
 10
0.2839173228346457
 20
-1.562870078740158
 30
0.0
 10
0.2815275590551181
 20
-1.565732283464567
 30
0.0
 10
0.2815275590551181
 20
-1.565732283464567
 30
0.0
 10
0.2791417322834646
 20
-1.568562992125984
 30
0.0
 10
0.2744173228346457
 20
-1.57298031496063
 30
0.0
 10
0.2673622047244095
 20
-1.578952755905512
 30
0.0
  0
SPLINE
  5
53
330
1F
100
AcDbEntity
  8
LAYER_1
 62
   250
100
AcDbSpline
210
0.0
220
0.0
230
1.0
 70
    11
 71
     3
 72
    60
 73
    56
 74
     0
 42
0.0000000001
 43
0.0000000001
 40
0.0
 40
0.0
 40
0.0
 40
0.0
 40
0.0714285714285714
 40
0.0714285714285714
 40
0.0714285714285714
 40
0.0714285714285714
 40
0.1428571428571429
 40
0.1428571428571429
 40
0.1428571428571429
 40
0.1428571428571429
 40
0.2142857142857143
 40
0.2142857142857143
 40
0.2142857142857143
 40
0.2142857142857143
 40
0.2857142857142857
 40
0.2857142857142857
 40
0.2857142857142857
 40
0.2857142857142857
 40
0.3571428571428571
 40
0.3571428571428571
 40
0.3571428571428571
 40
0.3571428571428571
 40
0.4285714285714285
 40
0.4285714285714285
 40
0.4285714285714285
 40
0.4285714285714285
 40
0.4999999999999999
 40
0.4999999999999999
 40
0.4999999999999999
 40
0.4999999999999999
 40
0.5714285714285713
 40
0.5714285714285713
 40
0.5714285714285713
 40
0.5714285714285713
 40
0.6428571428571427
 40
0.6428571428571427
 40
0.6428571428571427
 40
0.6428571428571427
 40
0.7142857142857141
 40
0.7142857142857141
 40
0.7142857142857141
 40
0.7142857142857141
 40
0.7857142857142855
 40
0.7857142857142855
 40
0.7857142857142855
 40
0.7857142857142855
 40
0.8571428571428569
 40
0.8571428571428569
 40
0.8571428571428569
 40
0.8571428571428569
 40
0.9285714285714283
 40
0.9285714285714283
 40
0.9285714285714283
 40
0.9285714285714283
 40
1.0
 40
1.0
 40
1.0
 40
1.0
 10
0.2964173228346457
 20
-1.578952755905512
 30
0.0
 10
0.2964173228346457
 20
-1.578952755905512
 30
0.0
 10
0.2920275590551181
 20
-1.573562992125984
 30
0.0
 10
0.2920275590551181
 20
-1.573562992125984
 30
0.0
 10
0.2920275590551181
 20
-1.573562992125984
 30
0.0
 10
0.3031417322834646
 20
-1.564507874015748
 30
0.0
 10
0.3087244094488189
 20
-1.556952755905512
 30
0.0
 10
0.3087244094488189
 20
-1.550870078740158
 30
0.0
 10
0.3087244094488189
 20
-1.550870078740158
 30
0.0
 10
0.3087244094488189
 20
-1.550177165354331
 30
0.0
 10
0.3086692913385827
 20
-1.549287401574803
 30
0.0
 10
0.3085551181102362
 20
-1.548259842519685
 30
0.0
 10
0.3085551181102362
 20
-1.548259842519685
 30
0.0
 10
0.3076417322834646
 20
-1.548649606299213
 30
0.0
 10
0.3067244094488189
 20
-1.548952755905512
 30
0.0
 10
0.3058622047244095
 20
-1.549149606299213
 30
0.0
 10
0.3058622047244095
 20
-1.549149606299213
 30
0.0
 10
0.305
 20
-1.549370078740158
 30
0.0
 10
0.3041692913385827
 20
-1.54948031496063
 30
0.0
 10
0.3033346456692914
 20
-1.54948031496063
 30
0.0
 10
0.3033346456692914
 20
-1.54948031496063
 30
0.0
 10
0.3007795275590551
 20
-1.54948031496063
 30
0.0
 10
0.2987244094488189
 20
-1.548649606299213
 30
0.0
 10
0.2971692913385827
 20
-1.546952755905512
 30
0.0
 10
0.2971692913385827
 20
-1.546952755905512
 30
0.0
 10
0.2955866141732284
 20
-1.545287401574803
 30
0.0
 10
0.2948070866141733
 20
-1.543149606299213
 30
0.0
 10
0.2948070866141733
 20
-1.540535433070866
 30
0.0
 10
0.2948070866141733
 20
-1.540535433070866
 30
0.0
 10
0.2948070866141733
 20
-1.53798031496063
 30
0.0
 10
0.295751968503937
 20
-1.535759842519685
 30
0.0
 10
0.2976417322834646
 20
-1.533870078740158
 30
0.0
 10
0.2976417322834646
 20
-1.533870078740158
 30
0.0
 10
0.2995275590551181
 20
-1.531952755905512
 30
0.0
 10
0.3018346456692914
 20
-1.531007874015748
 30
0.0
 10
0.3044724409448819
 20
-1.531007874015748
 30
0.0
 10
0.3044724409448819
 20
-1.531007874015748
 30
0.0
 10
0.3081692913385827
 20
-1.531007874015748
 30
0.0
 10
0.3113346456692914
 20
-1.53248031496063
 30
0.0
 10
0.3139724409448819
 20
-1.535452755905512
 30
0.0
 10
0.3139724409448819
 20
-1.535452755905512
 30
0.0
 10
0.3165826771653543
 20
-1.538397637795276
 30
0.0
 10
0.3179173228346457
 20
-1.542204724409449
 30
0.0
 10
0.3179173228346457
 20
-1.546870078740158
 30
0.0
 10
0.3179173228346457
 20
-1.546870078740158
 30
0.0
 10
0.3179173228346457
 20
-1.549925196850394
 30
0.0
 10
0.3172795275590551
 20
-1.553122047244095
 30
0.0
 10
0.3160275590551182
 20
-1.556452755905512
 30
0.0
 10
0.3160275590551182
 20
-1.556452755905512
 30
0.0
 10
0.3147795275590551
 20
-1.559787401574803
 30
0.0
 10
0.3129724409448819
 20
-1.562870078740158
 30
0.0
 10
0.3105866141732284
 20
-1.565732283464567
 30
0.0
 10
0.3105866141732284
 20
-1.565732283464567
 30
0.0
 10
0.3081968503937008
 20
-1.568562992125984
 30
0.0
 10
0.3034724409448819
 20
-1.57298031496063
 30
0.0
 10
0.2964173228346457
 20
-1.578952755905512
 30
0.0
  0
ENDSEC
  0
SECTION
  2
OBJECTS
  0
DICTIONARY
  5
C
330
0
100
AcDbDictionary
  3
ACAD_GROUP
350
D
  3
ACAD_LAYOUT
350
1A
  3
ACAD_MLINESTYLE
350
17
  3
ACAD_PLOTSETTINGS
350
19
  3
ACDBHEADERROUNDTRIPXREC
350
54
  0
DICTIONARY
  5
74
330
29
100
AcDbDictionary
280
     1
  3
ACAD_XREC_ROUNDTRIP
360
75
  0
DICTIONARY
  5
D
102
{ACAD_REACTORS
330
C
102
}
330
C
100
AcDbDictionary
  0
DICTIONARY
  5
1A
102
{ACAD_REACTORS
330
C
102
}
330
C
100
AcDbDictionary
  0
DICTIONARY
  5
17
102
{ACAD_REACTORS
330
C
102
}
330
C
100
AcDbDictionary
  3
STANDARD
350
18
  0
DICTIONARY
  5
19
102
{ACAD_REACTORS
330
C
102
}
330
C
100
AcDbDictionary
  0
DICTIONARY
  5
54
102
{ACAD_REACTORS
330
C
102
}
330
C
100
AcDbDictionary
  3
CEPSNTYPE
350
5D
  3
DIMSTYLEDATA
350
73
  3
FINGERPRINTGUID
350
5E
  3
HYPERLINKBASE
350
57
  3
INSUNITS
350
5C
  3
LAYOUTDICT
350
59
  3
LWETCUNION
350
5B
  3
PLOTSETDICT
350
5A
  3
PSVPSCALE
350
60
  3
PUCSBASE
350
63
  3
PUCSORGBACK
350
69
  3
PUCSORGBOTTOM
350
65
  3
PUCSORGFRONT
350
68
  3
PUCSORGLEFT
350
66
  3
PUCSORGRIGHT
350
67
  3
PUCSORGTOP
350
64
  3
PUCSORTHOREF
350
61
  3
PUCSORTHOVIEW
350
62
  3
STYLESHEET
350
58
  3
TSTACKALIGN
350
55
  3
TSTACKSIZE
350
56
  3
UCSBASE
350
6C
  3
UCSORGBACK
350
72
  3
UCSORGBOTTOM
350
6E
  3
UCSORGFRONT
350
71
  3
UCSORGLEFT
350
6F
  3
UCSORGRIGHT
350
70
  3
UCSORGTOP
350
6D
  3
UCSORTHOREF
350
6A
  3
UCSORTHOVIEW
350
6B
  3
VERSIONGUID
350
5F
  0
XRECORD
  5
75
102
{ACAD_REACTORS
330
74
102
}
330
74
100
AcDbXrecord
102
UCS
 74
     0
 71
     1
 10
0.0
 20
0.0
 30
0.0
 10
1.0
 20
0.0
 30
0.0
 10
0.0
 20
1.0
 30
0.0
146
0.0
 79
     0
102
VIEW
281
     0
  0
MLINESTYLE
  5
18
102
{ACAD_REACTORS
330
17
102
}
330
17
100
AcDbMlineStyle
  2
Standard
 70
     0
  3

 62
   256
 51
90.0
 52
90.0
 71
     2
 49
0.5
 62
   256
  6
BYLAYER
 49
-0.5
 62
   256
  6
BYLAYER
  0
XRECORD
  5
5D
102
{ACAD_REACTORS
330
54
102
}
330
54
100
AcDbXrecord
 90
        0
  0
XRECORD
  5
73
102
{ACAD_REACTORS
330
54
102
}
330
54
100
AcDbXrecord
1000
DSTYLE
1002
{
1070
   340
340
11
1002
}
  0
XRECORD
  5
5E
102
{ACAD_REACTORS
330
54
102
}
330
54
100
AcDbXrecord
  1
{FAEB1C30-E019-11D5-929B-00C0DF256EC4}
  0
XRECORD
  5
57
102
{ACAD_REACTORS
330
54
102
}
330
54
100
AcDbXrecord
  1

  0
XRECORD
  5
5C
102
{ACAD_REACTORS
330
54
102
}
330
54
100
AcDbXrecord
 90
        1
  0
XRECORD
  5
59
102
{ACAD_REACTORS
330
54
102
}
330
54
100
AcDbXrecord
340
1A
  0
XRECORD
  5
5B
102
{ACAD_REACTORS
330
54
102
}
330
54
100
AcDbXrecord
 90
     2560
  0
XRECORD
  5
5A
102
{ACAD_REACTORS
330
54
102
}
330
54
100
AcDbXrecord
340
19
  0
XRECORD
  5
60
102
{ACAD_REACTORS
330
54
102
}
330
54
100
AcDbXrecord
 40
0.0
  0
XRECORD
  5
63
102
{ACAD_REACTORS
330
54
102
}
330
54
100
AcDbXrecord
340
0
  0
XRECORD
  5
69
102
{ACAD_REACTORS
330
54
102
}
330
54
100
AcDbXrecord
 10
0.0
 20
0.0
 30
0.0
  0
XRECORD
  5
65
102
{ACAD_REACTORS
330
54
102
}
330
54
100
AcDbXrecord
 10
0.0
 20
0.0
 30
0.0
  0
XRECORD
  5
68
102
{ACAD_REACTORS
330
54
102
}
330
54
100
AcDbXrecord
 10
0.0
 20
0.0
 30
0.0
  0
XRECORD
  5
66
102
{ACAD_REACTORS
330
54
102
}
330
54
100
AcDbXrecord
 10
0.0
 20
0.0
 30
0.0
  0
XRECORD
  5
67
102
{ACAD_REACTORS
330
54
102
}
330
54
100
AcDbXrecord
 10
0.0
 20
0.0
 30
0.0
  0
XRECORD
  5
64
102
{ACAD_REACTORS
330
54
102
}
330
54
100
AcDbXrecord
 10
0.0
 20
0.0
 30
0.0
  0
XRECORD
  5
61
102
{ACAD_REACTORS
330
54
102
}
330
54
100
AcDbXrecord
340
0
  0
XRECORD
  5
62
102
{ACAD_REACTORS
330
54
102
}
330
54
100
AcDbXrecord
 70
     0
  0
XRECORD
  5
58
102
{ACAD_REACTORS
330
54
102
}
330
54
100
AcDbXrecord
  1

  0
XRECORD
  5
55
102
{ACAD_REACTORS
330
54
102
}
330
54
100
AcDbXrecord
 90
        1
  0
XRECORD
  5
56
102
{ACAD_REACTORS
330
54
102
}
330
54
100
AcDbXrecord
 90
       70
  0
XRECORD
  5
6C
102
{ACAD_REACTORS
330
54
102
}
330
54
100
AcDbXrecord
340
0
  0
XRECORD
  5
72
102
{ACAD_REACTORS
330
54
102
}
330
54
100
AcDbXrecord
 10
0.0
 20
0.0
 30
0.0
  0
XRECORD
  5
6E
102
{ACAD_REACTORS
330
54
102
}
330
54
100
AcDbXrecord
 10
0.0
 20
0.0
 30
0.0
  0
XRECORD
  5
71
102
{ACAD_REACTORS
330
54
102
}
330
54
100
AcDbXrecord
 10
0.0
 20
0.0
 30
0.0
  0
XRECORD
  5
6F
102
{ACAD_REACTORS
330
54
102
}
330
54
100
AcDbXrecord
 10
0.0
 20
0.0
 30
0.0
  0
XRECORD
  5
70
102
{ACAD_REACTORS
330
54
102
}
330
54
100
AcDbXrecord
 10
0.0
 20
0.0
 30
0.0
  0
XRECORD
  5
6D
102
{ACAD_REACTORS
330
54
102
}
330
54
100
AcDbXrecord
 10
0.0
 20
0.0
 30
0.0
  0
XRECORD
  5
6A
102
{ACAD_REACTORS
330
54
102
}
330
54
100
AcDbXrecord
340
0
  0
XRECORD
  5
6B
102
{ACAD_REACTORS
330
54
102
}
330
54
100
AcDbXrecord
 70
     0
  0
XRECORD
  5
5F
102
{ACAD_REACTORS
330
54
102
}
330
54
100
AcDbXrecord
  1
{FAEB1C32-E019-11D5-929B-00C0DF256EC4}
  0
ENDSEC
  0
EOF
