  0
SECTION
  2
HEADER
  9
$ACADVER
  1
AC1014
  9
$ACADMAINTVER
 70
     9
  9
$DWGCODEPAGE
  3
ANSI_1252
  9
$INSBASE
 10
0.0
 20
0.0
 30
0.0
  9
$EXTMIN
 10
-0.6923346456692914
 20
-0.7037755905511811
 30
0.0
  9
$EXTMAX
 10
1.216106299212598
 20
3.07242125984252
 30
0.0
  9
$LIMMIN
 10
0.0
 20
0.0
  9
$LIMMAX
 10
12.0
 20
9.0
  9
$ORTHOMODE
 70
     0
  9
$REGENMODE
 70
     1
  9
$FILLMODE
 70
     1
  9
$QTEXTMODE
 70
     0
  9
$MIRRTEXT
 70
     1
  9
$DRAGMODE
 70
     2
  9
$LTSCALE
 40
1.0
  9
$OSMODE
 70
    37
  9
$ATTMODE
 70
     1
  9
$TEXTSIZE
 40
0.2
  9
$TRACEWID
 40
0.05
  9
$TEXTSTYLE
  7
STANDARD
  9
$CLAYER
  8
0
  9
$CELTYPE
  6
BYLAYER
  9
$CECOLOR
 62
   256
  9
$CELTSCALE
 40
1.0
  9
$DELOBJ
 70
     1
  9
$DISPSILH
 70
     0
  9
$DIMSCALE
 40
1.0
  9
$DIMASZ
 40
0.18
  9
$DIMEXO
 40
0.0625
  9
$DIMDLI
 40
0.38
  9
$DIMRND
 40
0.0
  9
$DIMDLE
 40
0.0
  9
$DIMEXE
 40
0.18
  9
$DIMTP
 40
0.0
  9
$DIMTM
 40
0.0
  9
$DIMTXT
 40
0.18
  9
$DIMCEN
 40
0.09
  9
$DIMTSZ
 40
0.0
  9
$DIMTOL
 70
     0
  9
$DIMLIM
 70
     0
  9
$DIMTIH
 70
     1
  9
$DIMTOH
 70
     1
  9
$DIMSE1
 70
     0
  9
$DIMSE2
 70
     0
  9
$DIMTAD
 70
     0
  9
$DIMZIN
 70
     0
  9
$DIMBLK
  1

  9
$DIMASO
 70
     1
  9
$DIMSHO
 70
     1
  9
$DIMPOST
  1

  9
$DIMAPOST
  1

  9
$DIMALT
 70
     0
  9
$DIMALTD
 70
     2
  9
$DIMALTF
 40
25.4
  9
$DIMLFAC
 40
1.0
  9
$DIMTOFL
 70
     0
  9
$DIMTVP
 40
0.0
  9
$DIMTIX
 70
     0
  9
$DIMSOXD
 70
     0
  9
$DIMSAH
 70
     0
  9
$DIMBLK1
  1

  9
$DIMBLK2
  1

  9
$DIMSTYLE
  2
STANDARD
  9
$DIMCLRD
 70
     0
  9
$DIMCLRE
 70
     0
  9
$DIMCLRT
 70
     0
  9
$DIMTFAC
 40
1.0
  9
$DIMGAP
 40
0.09
  9
$DIMJUST
 70
     0
  9
$DIMSD1
 70
     0
  9
$DIMSD2
 70
     0
  9
$DIMTOLJ
 70
     1
  9
$DIMTZIN
 70
     0
  9
$DIMALTZ
 70
     0
  9
$DIMALTTZ
 70
     0
  9
$DIMFIT
 70
     3
  9
$DIMUPT
 70
     0
  9
$DIMUNIT
 70
     2
  9
$DIMDEC
 70
     4
  9
$DIMTDEC
 70
     4
  9
$DIMALTU
 70
     2
  9
$DIMALTTD
 70
     2
  9
$DIMTXSTY
  7
STANDARD
  9
$DIMAUNIT
 70
     0
  9
$LUNITS
 70
     2
  9
$LUPREC
 70
     4
  9
$SKETCHINC
 40
0.1
  9
$FILLETRAD
 40
0.5
  9
$AUNITS
 70
     0
  9
$AUPREC
 70
     0
  9
$MENU
  1
.
  9
$ELEVATION
 40
0.0
  9
$PELEVATION
 40
0.0
  9
$THICKNESS
 40
0.0
  9
$LIMCHECK
 70
     0
  9
$CHAMFERA
 40
0.5
  9
$CHAMFERB
 40
0.5
  9
$CHAMFERC
 40
1.0
  9
$CHAMFERD
 40
0.0
  9
$SKPOLY
 70
     0
  9
$TDCREATE
 40
2454124.362088947
  9
$TDUPDATE
 40
2454124.362088958
  9
$TDINDWG
 40
0.0000000116
  9
$TDUSRTIMER
 40
0.0000000116
  9
$USRTIMER
 70
     1
  9
$ANGBASE
 50
0.0
  9
$ANGDIR
 70
     0
  9
$PDMODE
 70
     0
  9
$PDSIZE
 40
0.0
  9
$PLINEWID
 40
0.0
  9
$COORDS
 70
     1
  9
$SPLFRAME
 70
     0
  9
$SPLINETYPE
 70
     6
  9
$SPLINESEGS
 70
     8
  9
$ATTDIA
 70
     0
  9
$ATTREQ
 70
     1
  9
$HANDLING
 70
     1
  9
$HANDSEED
  5
9E
  9
$SURFTAB1
 70
     6
  9
$SURFTAB2
 70
     6
  9
$SURFTYPE
 70
     6
  9
$SURFU
 70
     6
  9
$SURFV
 70
     6
  9
$UCSNAME
  2

  9
$UCSORG
 10
0.0
 20
0.0
 30
0.0
  9
$UCSXDIR
 10
1.0
 20
0.0
 30
0.0
  9
$UCSYDIR
 10
0.0
 20
1.0
 30
0.0
  9
$PUCSNAME
  2

  9
$PUCSORG
 10
0.0
 20
0.0
 30
0.0
  9
$PUCSXDIR
 10
1.0
 20
0.0
 30
0.0
  9
$PUCSYDIR
 10
0.0
 20
1.0
 30
0.0
  9
$USERI1
 70
     0
  9
$USERI2
 70
     0
  9
$USERI3
 70
     0
  9
$USERI4
 70
     0
  9
$USERI5
 70
     0
  9
$USERR1
 40
0.0
  9
$USERR2
 40
0.0
  9
$USERR3
 40
0.0
  9
$USERR4
 40
0.0
  9
$USERR5
 40
0.0
  9
$WORLDVIEW
 70
     1
  9
$SHADEDGE
 70
     3
  9
$SHADEDIF
 70
    70
  9
$TILEMODE
 70
     1
  9
$MAXACTVP
 70
    64
  9
$PINSBASE
 10
0.0
 20
0.0
 30
0.0
  9
$PLIMCHECK
 70
     0
  9
$PEXTMIN
 10
1.000000000000000E+20
 20
1.000000000000000E+20
 30
1.000000000000000E+20
  9
$PEXTMAX
 10
-1.000000000000000E+20
 20
-1.000000000000000E+20
 30
-1.000000000000000E+20
  9
$PLIMMIN
 10
0.0
 20
0.0
  9
$PLIMMAX
 10
12.0
 20
9.0
  9
$UNITMODE
 70
     0
  9
$VISRETAIN
 70
     1
  9
$PLINEGEN
 70
     0
  9
$PSLTSCALE
 70
     1
  9
$TREEDEPTH
 70
  3020
  9
$PICKSTYLE
 70
     1
  9
$CMLSTYLE
  2
STANDARD
  9
$CMLJUST
 70
     0
  9
$CMLSCALE
 40
1.0
  9
$PROXYGRAPHICS
 70
     1
  9
$MEASUREMENT
 70
     0
  0
ENDSEC
  0
SECTION
  2
CLASSES
  0
CLASS
  1
ACDBDICTIONARYWDFLT
  2
AcDbDictionaryWithDefault
  3
ObjectDBX Classes
 90
        0
280
     0
281
     0
  0
CLASS
  1
XRECORD
  2
AcDbXrecord
  3
AutoCAD 2000
 90
        0
280
     0
281
     0
  0
CLASS
  1
LWPOLYLINE
  2
AcDbPolyline
  3
AutoCAD 2000
 90
        0
280
     0
281
     1
  0
CLASS
  1
HATCH
  2
AcDbHatch
  3
AutoCAD 2000
 90
        0
280
     0
281
     1
  0
CLASS
  1
ACDBPLACEHOLDER
  2
AcDbPlaceHolder
  3
ObjectDBX Classes
 90
        0
280
     0
281
     0
  0
CLASS
  1
LAYOUT
  2
AcDbLayout
  3
ObjectDBX Classes
 90
        0
280
     0
281
     0
  0
ENDSEC
  0
SECTION
  2
TABLES
  0
TABLE
  2
VPORT
  5
8
330
0
100
AcDbSymbolTable
 70
     2
  0
VPORT
  5
29
102
{ACAD_XDICTIONARY
360
9C
102
}
330
8
100
AcDbSymbolTableRecord
100
AcDbViewportTableRecord
  2
*ACTIVE
 70
     0
 10
0.0
 20
0.0
 11
1.0
 21
1.0
 12
10.42990654205607
 22
4.5
 13
0.0
 23
0.0
 14
0.5
 24
0.5
 15
0.5
 25
0.5
 16
0.0
 26
0.0
 36
1.0
 17
0.0
 27
0.0
 37
0.0
 40
9.0
 41
1.972972972850329
 42
50.0
 43
0.0
 44
0.0
 50
0.0
 51
0.0
 71
     0
 72
   100
 73
     1
 74
     3
 75
     0
 76
     0
 77
     0
 78
     0
  0
ENDTAB
  0
TABLE
  2
LTYPE
  5
5
330
0
100
AcDbSymbolTable
 70
     1
  0
LTYPE
  5
14
330
5
100
AcDbSymbolTableRecord
100
AcDbLinetypeTableRecord
  2
BYBLOCK
 70
     0
  3

 72
    65
 73
     0
 40
0.0
  0
LTYPE
  5
15
330
5
100
AcDbSymbolTableRecord
100
AcDbLinetypeTableRecord
  2
BYLAYER
 70
     0
  3

 72
    65
 73
     0
 40
0.0
  0
LTYPE
  5
16
330
5
100
AcDbSymbolTableRecord
100
AcDbLinetypeTableRecord
  2
CONTINUOUS
 70
     0
  3
Solid line
 72
    65
 73
     0
 40
0.0
  0
ENDTAB
  0
TABLE
  2
LAYER
  5
2
330
0
100
AcDbSymbolTable
 70
     2
  0
LAYER
  5
10
330
2
100
AcDbSymbolTableRecord
100
AcDbLayerTableRecord
  2
0
 70
     0
 62
     7
  6
CONTINUOUS
  0
LAYER
  5
2B
330
2
100
AcDbSymbolTableRecord
100
AcDbLayerTableRecord
  2
LAYER_1
 70
     0
 62
     7
  6
CONTINUOUS
  0
ENDTAB
  0
TABLE
  2
STYLE
  5
3
330
0
100
AcDbSymbolTable
 70
     1
  0
STYLE
  5
11
330
3
100
AcDbSymbolTableRecord
100
AcDbTextStyleTableRecord
  2
STANDARD
 70
     0
 40
0.0
 41
1.0
 50
0.0
 71
     0
 42
0.2
  3
txt
  4

  0
ENDTAB
  0
TABLE
  2
VIEW
  5
6
330
0
100
AcDbSymbolTable
 70
     0
  0
ENDTAB
  0
TABLE
  2
UCS
  5
7
330
0
100
AcDbSymbolTable
 70
     0
  0
ENDTAB
  0
TABLE
  2
APPID
  5
9
330
0
100
AcDbSymbolTable
 70
     2
  0
APPID
  5
12
330
9
100
AcDbSymbolTableRecord
100
AcDbRegAppTableRecord
  2
ACAD
 70
     0
  0
APPID
  5
2A
330
9
100
AcDbSymbolTableRecord
100
AcDbRegAppTableRecord
  2
ODA
 70
     0
  0
ENDTAB
  0
TABLE
  2
DIMSTYLE
  5
A
330
0
100
AcDbSymbolTable
 70
     1
  0
DIMSTYLE
105
27
330
A
100
AcDbSymbolTableRecord
100
AcDbDimStyleTableRecord
  2
STANDARD
 70
     0
  3

  4

  5

  6

  7

 40
1.0
 41
0.18
 42
0.0625
 43
0.38
 44
0.18
 45
0.0
 46
0.0
 47
0.0
 48
0.0
140
0.18
141
0.09
142
0.0
143
25.4
144
1.0
145
0.0
146
1.0
147
0.09
 71
     0
 72
     0
 73
     1
 74
     1
 75
     0
 76
     0
 77
     0
 78
     0
170
     0
171
     2
172
     0
173
     0
174
     0
175
     0
176
     0
177
     0
178
     0
270
     2
271
     4
272
     4
273
     2
274
     2
340
11
275
     0
280
     0
281
     0
282
     0
283
     1
284
     0
285
     0
286
     0
287
     3
288
     0
  0
ENDTAB
  0
TABLE
  2
BLOCK_RECORD
  5
1
330
0
100
AcDbSymbolTable
 70
     1
  0
BLOCK_RECORD
  5
1F
330
1
100
AcDbSymbolTableRecord
100
AcDbBlockTableRecord
  2
*MODEL_SPACE
  0
BLOCK_RECORD
  5
1B
330
1
100
AcDbSymbolTableRecord
100
AcDbBlockTableRecord
  2
*PAPER_SPACE
  0
ENDTAB
  0
ENDSEC
  0
SECTION
  2
BLOCKS
  0
BLOCK
  5
20
330
1F
100
AcDbEntity
  8
0
100
AcDbBlockBegin
  2
*MODEL_SPACE
 70
     0
 71
     0
 10
0.0
 20
0.0
 30
0.0
  3
*MODEL_SPACE
  1

  0
ENDBLK
  5
21
330
1F
100
AcDbEntity
  8
0
100
AcDbBlockEnd
  0
BLOCK
  5
1C
330
1B
100
AcDbEntity
 67
     1
  8
0
100
AcDbBlockBegin
  2
*PAPER_SPACE
 70
     0
 71
     0
 10
0.0
 20
0.0
 30
0.0
  3
*PAPER_SPACE
  1

  0
ENDBLK
  5
1D
330
1B
100
AcDbEntity
 67
     1
  8
0
100
AcDbBlockEnd
  0
ENDSEC
  0
SECTION
  2
ENTITIES
  0
SPLINE
  5
2C
330
1F
100
AcDbEntity
  8
LAYER_1
 62
   250
100
AcDbSpline
210
0.0
220
0.0
230
1.0
 70
    11
 71
     3
 72
    32
 73
    28
 74
     0
 42
0.0000000001
 43
0.0000000001
 40
0.0
 40
0.0
 40
0.0
 40
0.0
 40
0.1428571428571429
 40
0.1428571428571429
 40
0.1428571428571429
 40
0.1428571428571429
 40
0.2857142857142857
 40
0.2857142857142857
 40
0.2857142857142857
 40
0.2857142857142857
 40
0.4285714285714286
 40
0.4285714285714286
 40
0.4285714285714286
 40
0.4285714285714286
 40
0.5714285714285714
 40
0.5714285714285714
 40
0.5714285714285714
 40
0.5714285714285714
 40
0.7142857142857142
 40
0.7142857142857142
 40
0.7142857142857142
 40
0.7142857142857142
 40
0.857142857142857
 40
0.857142857142857
 40
0.857142857142857
 40
0.857142857142857
 40
1.0
 40
1.0
 40
1.0
 40
1.0
 10
0.0646102362204724
 20
-0.2575039370078741
 30
0.0
 10
0.0646102362204724
 20
-0.2575039370078741
 30
0.0
 10
0.0646102362204724
 20
-0.132503937007874
 30
0.0
 10
0.0646102362204724
 20
-0.132503937007874
 30
0.0
 10
0.0646102362204724
 20
-0.132503937007874
 30
0.0
 10
0.2026574803149606
 20
-0.132503937007874
 30
0.0
 10
0.3146102362204725
 20
-0.0205511811023622
 30
0.0
 10
0.3146102362204725
 20
0.117496062992126
 30
0.0
 10
0.3146102362204725
 20
0.117496062992126
 30
0.0
 10
0.3146102362204725
 20
0.2555433070866142
 30
0.0
 10
0.2026574803149606
 20
0.367496062992126
 30
0.0
 10
0.0646102362204724
 20
0.367496062992126
 30
0.0
 10
0.0646102362204724
 20
0.367496062992126
 30
0.0
 10
0.0646102362204724
 20
0.367496062992126
 30
0.0
 10
0.0646102362204724
 20
0.492496062992126
 30
0.0
 10
0.0646102362204724
 20
0.492496062992126
 30
0.0
 10
0.0646102362204724
 20
0.492496062992126
 30
0.0
 10
0.0646102362204724
 20
0.492496062992126
 30
0.0
 10
-0.6853897637795275
 20
0.492496062992126
 30
0.0
 10
-0.6853897637795275
 20
0.492496062992126
 30
0.0
 10
-0.6853897637795275
 20
0.492496062992126
 30
0.0
 10
-0.6853897637795275
 20
0.492496062992126
 30
0.0
 10
-0.6853897637795275
 20
-0.2575039370078741
 30
0.0
 10
-0.6853897637795275
 20
-0.2575039370078741
 30
0.0
 10
-0.6853897637795275
 20
-0.2575039370078741
 30
0.0
 10
-0.6853897637795275
 20
-0.2575039370078741
 30
0.0
 10
0.0646102362204724
 20
-0.2575039370078741
 30
0.0
 10
0.0646102362204724
 20
-0.2575039370078741
 30
0.0
  0
SPLINE
  5
2D
330
1F
100
AcDbEntity
  8
LAYER_1
 62
   250
100
AcDbSpline
210
0.0
220
0.0
230
1.0
 70
    11
 71
     3
 72
   104
 73
   100
 74
     0
 42
0.0000000001
 43
0.0000000001
 40
0.0
 40
0.0
 40
0.0
 40
0.0
 40
0.04
 40
0.04
 40
0.04
 40
0.04
 40
0.08
 40
0.08
 40
0.08
 40
0.08
 40
0.12
 40
0.12
 40
0.12
 40
0.12
 40
0.16
 40
0.16
 40
0.16
 40
0.16
 40
0.2
 40
0.2
 40
0.2
 40
0.2
 40
0.24
 40
0.24
 40
0.24
 40
0.24
 40
0.28
 40
0.28
 40
0.28
 40
0.28
 40
0.32
 40
0.32
 40
0.32
 40
0.32
 40
0.36
 40
0.36
 40
0.36
 40
0.36
 40
0.4
 40
0.4
 40
0.4
 40
0.4
 40
0.44
 40
0.44
 40
0.44
 40
0.44
 40
0.4799999999999999
 40
0.4799999999999999
 40
0.4799999999999999
 40
0.4799999999999999
 40
0.5199999999999999
 40
0.5199999999999999
 40
0.5199999999999999
 40
0.5199999999999999
 40
0.5599999999999999
 40
0.5599999999999999
 40
0.5599999999999999
 40
0.5599999999999999
 40
0.6
 40
0.6
 40
0.6
 40
0.6
 40
0.64
 40
0.64
 40
0.64
 40
0.64
 40
0.6800000000000001
 40
0.6800000000000001
 40
0.6800000000000001
 40
0.6800000000000001
 40
0.7200000000000001
 40
0.7200000000000001
 40
0.7200000000000001
 40
0.7200000000000001
 40
0.7600000000000001
 40
0.7600000000000001
 40
0.7600000000000001
 40
0.7600000000000001
 40
0.8000000000000002
 40
0.8000000000000002
 40
0.8000000000000002
 40
0.8000000000000002
 40
0.8400000000000002
 40
0.8400000000000002
 40
0.8400000000000002
 40
0.8400000000000002
 40
0.8800000000000002
 40
0.8800000000000002
 40
0.8800000000000002
 40
0.8800000000000002
 40
0.9200000000000003
 40
0.9200000000000003
 40
0.9200000000000003
 40
0.9200000000000003
 40
0.9600000000000003
 40
0.9600000000000003
 40
0.9600000000000003
 40
0.9600000000000003
 40
1.0
 40
1.0
 40
1.0
 40
1.0
 10
-0.5845314960629922
 20
-0.3664409448818898
 30
0.0
 10
-0.5845314960629922
 20
-0.3664409448818898
 30
0.0
 10
-0.5305590551181103
 20
-0.3664409448818898
 30
0.0
 10
-0.5305590551181103
 20
-0.3664409448818898
 30
0.0
 10
-0.5305590551181103
 20
-0.3664409448818898
 30
0.0
 10
-0.5173897637795276
 20
-0.3664409448818898
 30
0.0
 10
-0.5083622047244095
 20
-0.3670511811023622
 30
0.0
 10
-0.5034763779527559
 20
-0.368248031496063
 30
0.0
 10
-0.5034763779527559
 20
-0.368248031496063
 30
0.0
 10
-0.4962519685039371
 20
-0.3699685039370079
 30
0.0
 10
-0.4905590551181103
 20
-0.3731062992125984
 30
0.0
 10
-0.4863346456692914
 20
-0.3776653543307087
 30
0.0
 10
-0.4863346456692914
 20
-0.3776653543307087
 30
0.0
 10
-0.4821417322834646
 20
-0.3822204724409449
 30
0.0
 10
-0.4800314960629922
 20
-0.3877204724409449
 30
0.0
 10
-0.4800314960629922
 20
-0.3941062992125984
 30
0.0
 10
-0.4800314960629922
 20
-0.3941062992125984
 30
0.0
 10
-0.4800314960629922
 20
-0.3987204724409449
 30
0.0
 10
-0.4811417322834646
 20
-0.4028582677165354
 30
0.0
 10
-0.4833622047244095
 20
-0.4065236220472441
 30
0.0
 10
-0.4833622047244095
 20
-0.4065236220472441
 30
0.0
 10
-0.4855866141732284
 20
-0.4101929133858268
 30
0.0
 10
-0.4888346456692914
 20
-0.4133307086614174
 30
0.0
 10
-0.4930590551181103
 20
-0.4159133858267717
 30
0.0
 10
-0.4930590551181103
 20
-0.4159133858267717
 30
0.0
 10
-0.4957795275590551
 20
-0.4176062992125985
 30
0.0
 10
-0.4994488188976378
 20
-0.4190511811023622
 30
0.0
 10
-0.5041141732283465
 20
-0.420248031496063
 30
0.0
 10
-0.5041141732283465
 20
-0.420248031496063
 30
0.0
 10
-0.4981968503937008
 20
-0.4213307086614174
 30
0.0
 10
-0.4936968503937008
 20
-0.4226338582677165
 30
0.0
 10
-0.4906141732283465
 20
-0.4241338582677166
 30
0.0
 10
-0.4906141732283465
 20
-0.4241338582677166
 30
0.0
 10
-0.4859488188976378
 20
-0.4264133858267717
 30
0.0
 10
-0.482251968503937
 20
-0.4296614173228346
 30
0.0
 10
-0.4795590551181103
 20
-0.4339133858267717
 30
0.0
 10
-0.4795590551181103
 20
-0.4339133858267717
 30
0.0
 10
-0.4768346456692914
 20
-0.4381338582677166
 30
0.0
 10
-0.4754763779527559
 20
-0.4429133858267716
 30
0.0
 10
-0.4754763779527559
 20
-0.4482204724409449
 30
0.0
 10
-0.4754763779527559
 20
-0.4482204724409449
 30
0.0
 10
-0.4754763779527559
 20
-0.4533858267716536
 30
0.0
 10
-0.4768070866141733
 20
-0.4581614173228347
 30
0.0
 10
-0.4794763779527559
 20
-0.4625511811023622
 30
0.0
 10
-0.4794763779527559
 20
-0.4625511811023622
 30
0.0
 10
-0.4821141732283465
 20
-0.4669409448818898
 30
0.0
 10
-0.4858897637795276
 20
-0.4705511811023622
 30
0.0
 10
-0.4907244094488189
 20
-0.4733858267716536
 30
0.0
 10
-0.4907244094488189
 20
-0.4733858267716536
 30
0.0
 10
-0.4955866141732284
 20
-0.4761889763779528
 30
0.0
 10
-0.5012519685039371
 20
-0.477996062992126
 30
0.0
 10
-0.5076968503937008
 20
-0.4788031496062992
 30
0.0
 10
-0.5076968503937008
 20
-0.4788031496062992
 30
0.0
 10
-0.5141692913385827
 20
-0.4795787401574803
 30
0.0
 10
-0.5208070866141733
 20
-0.4799685039370079
 30
0.0
 10
-0.5276417322834646
 20
-0.4799685039370079
 30
0.0
 10
-0.5276417322834646
 20
-0.4799685039370079
 30
0.0
 10
-0.5276417322834646
 20
-0.4799685039370079
 30
0.0
 10
-0.5845314960629922
 20
-0.4799685039370079
 30
0.0
 10
-0.5845314960629922
 20
-0.4799685039370079
 30
0.0
 10
-0.5845314960629922
 20
-0.4799685039370079
 30
0.0
 10
-0.5845314960629922
 20
-0.4799685039370079
 30
0.0
 10
-0.5845314960629922
 20
-0.4731338582677165
 30
0.0
 10
-0.5845314960629922
 20
-0.4731338582677165
 30
0.0
 10
-0.5845314960629922
 20
-0.4731338582677165
 30
0.0
 10
-0.5845314960629922
 20
-0.4731338582677165
 30
0.0
 10
-0.5806968503937008
 20
-0.4731338582677165
 30
0.0
 10
-0.5806968503937008
 20
-0.4731338582677165
 30
0.0
 10
-0.5806968503937008
 20
-0.4731338582677165
 30
0.0
 10
-0.5770000000000001
 20
-0.4731338582677165
 30
0.0
 10
-0.5745
 20
-0.4725511811023622
 30
0.0
 10
-0.5731417322834645
 20
-0.4714133858267717
 30
0.0
 10
-0.5731417322834645
 20
-0.4714133858267717
 30
0.0
 10
-0.5711692913385827
 20
-0.4698582677165354
 30
0.0
 10
-0.5701968503937008
 20
-0.467248031496063
 30
0.0
 10
-0.5701968503937008
 20
-0.4636062992125984
 30
0.0
 10
-0.5701968503937008
 20
-0.4636062992125984
 30
0.0
 10
-0.5701968503937008
 20
-0.4636062992125984
 30
0.0
 10
-0.5701968503937008
 20
-0.384748031496063
 30
0.0
 10
-0.5701968503937008
 20
-0.384748031496063
 30
0.0
 10
-0.5701968503937008
 20
-0.384748031496063
 30
0.0
 10
-0.5701968503937008
 20
-0.3810511811023623
 30
0.0
 10
-0.5705
 20
-0.3785511811023622
 30
0.0
 10
-0.5710866141732284
 20
-0.3771929133858268
 30
0.0
 10
-0.5710866141732284
 20
-0.3771929133858268
 30
0.0
 10
-0.5716968503937008
 20
-0.3758307086614173
 30
0.0
 10
-0.5725866141732283
 20
-0.3748582677165355
 30
0.0
 10
-0.5737795275590552
 20
-0.374248031496063
 30
0.0
 10
-0.5737795275590552
 20
-0.374248031496063
 30
0.0
 10
-0.5749724409448819
 20
-0.3736653543307087
 30
0.0
 10
-0.5772795275590551
 20
-0.3733582677165355
 30
0.0
 10
-0.5806968503937008
 20
-0.3733582677165355
 30
0.0
 10
-0.5806968503937008
 20
-0.3733582677165355
 30
0.0
 10
-0.5806968503937008
 20
-0.3733582677165355
 30
0.0
 10
-0.5845314960629922
 20
-0.3733582677165355
 30
0.0
 10
-0.5845314960629922
 20
-0.3733582677165355
 30
0.0
 10
-0.5845314960629922
 20
-0.3733582677165355
 30
0.0
 10
-0.5845314960629922
 20
-0.3733582677165355
 30
0.0
 10
-0.5845314960629922
 20
-0.3664409448818898
 30
0.0
 10
-0.5845314960629922
 20
-0.3664409448818898
 30
0.0
  0
SPLINE
  5
2E
330
1F
100
AcDbEntity
  8
LAYER_1
 62
   250
100
AcDbSpline
210
0.0
220
0.0
230
1.0
 70
    11
 71
     3
 72
    40
 73
    36
 74
     0
 42
0.0000000001
 43
0.0000000001
 40
0.0
 40
0.0
 40
0.0
 40
0.0
 40
0.1111111111111111
 40
0.1111111111111111
 40
0.1111111111111111
 40
0.1111111111111111
 40
0.2222222222222222
 40
0.2222222222222222
 40
0.2222222222222222
 40
0.2222222222222222
 40
0.3333333333333333
 40
0.3333333333333333
 40
0.3333333333333333
 40
0.3333333333333333
 40
0.4444444444444444
 40
0.4444444444444444
 40
0.4444444444444444
 40
0.4444444444444444
 40
0.5555555555555556
 40
0.5555555555555556
 40
0.5555555555555556
 40
0.5555555555555556
 40
0.6666666666666667
 40
0.6666666666666667
 40
0.6666666666666667
 40
0.6666666666666667
 40
0.7777777777777779
 40
0.7777777777777779
 40
0.7777777777777779
 40
0.7777777777777779
 40
0.8888888888888891
 40
0.8888888888888891
 40
0.8888888888888891
 40
0.8888888888888891
 40
1.0
 40
1.0
 40
1.0
 40
1.0
 10
-0.554972440944882
 20
-0.3754685039370079
 30
0.0
 10
-0.554972440944882
 20
-0.3754685039370079
 30
0.0
 10
-0.554972440944882
 20
-0.4170511811023622
 30
0.0
 10
-0.554972440944882
 20
-0.4170511811023622
 30
0.0
 10
-0.554972440944882
 20
-0.4170511811023622
 30
0.0
 10
-0.554972440944882
 20
-0.4170511811023622
 30
0.0
 10
-0.5342244094488189
 20
-0.4170511811023622
 30
0.0
 10
-0.5342244094488189
 20
-0.4170511811023622
 30
0.0
 10
-0.5342244094488189
 20
-0.4170511811023622
 30
0.0
 10
-0.5245314960629921
 20
-0.4170511811023622
 30
0.0
 10
-0.5178622047244095
 20
-0.4166062992125985
 30
0.0
 10
-0.5143070866141732
 20
-0.4156929133858268
 30
0.0
 10
-0.5143070866141732
 20
-0.4156929133858268
 30
0.0
 10
-0.5086968503937008
 20
-0.4142204724409449
 30
0.0
 10
-0.5044488188976378
 20
-0.4117204724409449
 30
0.0
 10
-0.5014763779527559
 20
-0.4081929133858268
 30
0.0
 10
-0.5014763779527559
 20
-0.4081929133858268
 30
0.0
 10
-0.4985314960629921
 20
-0.4046653543307087
 30
0.0
 10
-0.4970314960629921
 20
-0.4001338582677165
 30
0.0
 10
-0.4970314960629921
 20
-0.3946062992125984
 30
0.0
 10
-0.4970314960629921
 20
-0.3946062992125984
 30
0.0
 10
-0.4970314960629921
 20
-0.3899409448818898
 30
0.0
 10
-0.4983897637795276
 20
-0.3860511811023622
 30
0.0
 10
-0.5010590551181102
 20
-0.3829133858267717
 30
0.0
 10
-0.5010590551181102
 20
-0.3829133858267717
 30
0.0
 10
-0.503751968503937
 20
-0.3798031496062992
 30
0.0
 10
-0.5073622047244095
 20
-0.3776653543307087
 30
0.0
 10
-0.5118622047244095
 20
-0.3765236220472441
 30
0.0
 10
-0.5118622047244095
 20
-0.3765236220472441
 30
0.0
 10
-0.5147795275590551
 20
-0.3758307086614173
 30
0.0
 10
-0.5208622047244095
 20
-0.3754685039370079
 30
0.0
 10
-0.5300866141732283
 20
-0.3754685039370079
 30
0.0
 10
-0.5300866141732283
 20
-0.3754685039370079
 30
0.0
 10
-0.5300866141732283
 20
-0.3754685039370079
 30
0.0
 10
-0.554972440944882
 20
-0.3754685039370079
 30
0.0
 10
-0.554972440944882
 20
-0.3754685039370079
 30
0.0
  0
SPLINE
  5
2F
330
1F
100
AcDbEntity
  8
LAYER_1
 62
   250
100
AcDbSpline
210
0.0
220
0.0
230
1.0
 70
    11
 71
     3
 72
    52
 73
    48
 74
     0
 42
0.0000000001
 43
0.0000000001
 40
0.0
 40
0.0
 40
0.0
 40
0.0
 40
0.0833333333333333
 40
0.0833333333333333
 40
0.0833333333333333
 40
0.0833333333333333
 40
0.1666666666666667
 40
0.1666666666666667
 40
0.1666666666666667
 40
0.1666666666666667
 40
0.25
 40
0.25
 40
0.25
 40
0.25
 40
0.3333333333333333
 40
0.3333333333333333
 40
0.3333333333333333
 40
0.3333333333333333
 40
0.4166666666666666
 40
0.4166666666666666
 40
0.4166666666666666
 40
0.4166666666666666
 40
0.4999999999999999
 40
0.4999999999999999
 40
0.4999999999999999
 40
0.4999999999999999
 40
0.5833333333333333
 40
0.5833333333333333
 40
0.5833333333333333
 40
0.5833333333333333
 40
0.6666666666666666
 40
0.6666666666666666
 40
0.6666666666666666
 40
0.6666666666666666
 40
0.75
 40
0.75
 40
0.75
 40
0.75
 40
0.8333333333333334
 40
0.8333333333333334
 40
0.8333333333333334
 40
0.8333333333333334
 40
0.9166666666666667
 40
0.9166666666666667
 40
0.9166666666666667
 40
0.9166666666666667
 40
1.0
 40
1.0
 40
1.0
 40
1.0
 10
-0.554972440944882
 20
-0.4248858267716535
 30
0.0
 10
-0.554972440944882
 20
-0.4248858267716535
 30
0.0
 10
-0.554972440944882
 20
-0.4621338582677166
 30
0.0
 10
-0.554972440944882
 20
-0.4621338582677166
 30
0.0
 10
-0.554972440944882
 20
-0.4621338582677166
 30
0.0
 10
-0.554972440944882
 20
-0.4658858267716536
 30
0.0
 10
-0.5548070866141732
 20
-0.4681062992125984
 30
0.0
 10
-0.554503937007874
 20
-0.4688307086614174
 30
0.0
 10
-0.554503937007874
 20
-0.4688307086614174
 30
0.0
 10
-0.5540590551181103
 20
-0.4698031496062992
 30
0.0
 10
-0.5531968503937008
 20
-0.4704685039370079
 30
0.0
 10
-0.5518897637795276
 20
-0.4708582677165354
 30
0.0
 10
-0.5518897637795276
 20
-0.4708582677165354
 30
0.0
 10
-0.550972440944882
 20
-0.4711338582677165
 30
0.0
 10
-0.5483622047244094
 20
-0.4712755905511811
 30
0.0
 10
-0.5440866141732283
 20
-0.4712755905511811
 30
0.0
 10
-0.5440866141732283
 20
-0.4712755905511811
 30
0.0
 10
-0.5440866141732283
 20
-0.4712755905511811
 30
0.0
 10
-0.5330039370078741
 20
-0.4712755905511811
 30
0.0
 10
-0.5330039370078741
 20
-0.4712755905511811
 30
0.0
 10
-0.5330039370078741
 20
-0.4712755905511811
 30
0.0
 10
-0.5220590551181102
 20
-0.4712755905511811
 30
0.0
 10
-0.5142244094488189
 20
-0.4706614173228347
 30
0.0
 10
-0.5095314960629922
 20
-0.4694409448818898
 30
0.0
 10
-0.5095314960629922
 20
-0.4694409448818898
 30
0.0
 10
-0.5048346456692914
 20
-0.4682204724409449
 30
0.0
 10
-0.5008346456692914
 20
-0.4656338582677165
 30
0.0
 10
-0.4975314960629921
 20
-0.4616889763779528
 30
0.0
 10
-0.4975314960629921
 20
-0.4616889763779528
 30
0.0
 10
-0.4942244094488189
 20
-0.4577755905511811
 30
0.0
 10
-0.4925590551181103
 20
-0.4530236220472441
 30
0.0
 10
-0.4925590551181103
 20
-0.447496062992126
 30
0.0
 10
-0.4925590551181103
 20
-0.447496062992126
 30
0.0
 10
-0.4925590551181103
 20
-0.4428307086614173
 30
0.0
 10
-0.4939173228346457
 20
-0.4386929133858268
 30
0.0
 10
-0.4965866141732284
 20
-0.4350787401574803
 30
0.0
 10
-0.4965866141732284
 20
-0.4350787401574803
 30
0.0
 10
-0.4992795275590551
 20
-0.4314685039370079
 30
0.0
 10
-0.5030039370078741
 20
-0.4288858267716535
 30
0.0
 10
-0.507751968503937
 20
-0.4272755905511811
 30
0.0
 10
-0.507751968503937
 20
-0.4272755905511811
 30
0.0
 10
-0.512503937007874
 20
-0.4256614173228346
 30
0.0
 10
-0.5209173228346457
 20
-0.4248858267716535
 30
0.0
 10
-0.5330039370078741
 20
-0.4248858267716535
 30
0.0
 10
-0.5330039370078741
 20
-0.4248858267716535
 30
0.0
 10
-0.5330039370078741
 20
-0.4248858267716535
 30
0.0
 10
-0.554972440944882
 20
-0.4248858267716535
 30
0.0
 10
-0.554972440944882
 20
-0.4248858267716535
 30
0.0
  0
SPLINE
  5
30
330
1F
100
AcDbEntity
  8
LAYER_1
 62
   250
100
AcDbSpline
210
0.0
220
0.0
230
1.0
 70
    11
 71
     3
 72
   112
 73
   108
 74
     0
 42
0.0000000001
 43
0.0000000001
 40
0.0
 40
0.0
 40
0.0
 40
0.0
 40
0.037037037037037
 40
0.037037037037037
 40
0.037037037037037
 40
0.037037037037037
 40
0.0740740740740741
 40
0.0740740740740741
 40
0.0740740740740741
 40
0.0740740740740741
 40
0.1111111111111111
 40
0.1111111111111111
 40
0.1111111111111111
 40
0.1111111111111111
 40
0.1481481481481481
 40
0.1481481481481481
 40
0.1481481481481481
 40
0.1481481481481481
 40
0.1851851851851852
 40
0.1851851851851852
 40
0.1851851851851852
 40
0.1851851851851852
 40
0.2222222222222222
 40
0.2222222222222222
 40
0.2222222222222222
 40
0.2222222222222222
 40
0.2592592592592592
 40
0.2592592592592592
 40
0.2592592592592592
 40
0.2592592592592592
 40
0.2962962962962963
 40
0.2962962962962963
 40
0.2962962962962963
 40
0.2962962962962963
 40
0.3333333333333333
 40
0.3333333333333333
 40
0.3333333333333333
 40
0.3333333333333333
 40
0.3703703703703704
 40
0.3703703703703704
 40
0.3703703703703704
 40
0.3703703703703704
 40
0.4074074074074074
 40
0.4074074074074074
 40
0.4074074074074074
 40
0.4074074074074074
 40
0.4444444444444444
 40
0.4444444444444444
 40
0.4444444444444444
 40
0.4444444444444444
 40
0.4814814814814815
 40
0.4814814814814815
 40
0.4814814814814815
 40
0.4814814814814815
 40
0.5185185185185185
 40
0.5185185185185185
 40
0.5185185185185185
 40
0.5185185185185185
 40
0.5555555555555556
 40
0.5555555555555556
 40
0.5555555555555556
 40
0.5555555555555556
 40
0.5925925925925926
 40
0.5925925925925926
 40
0.5925925925925926
 40
0.5925925925925926
 40
0.6296296296296295
 40
0.6296296296296295
 40
0.6296296296296295
 40
0.6296296296296295
 40
0.6666666666666665
 40
0.6666666666666665
 40
0.6666666666666665
 40
0.6666666666666665
 40
0.7037037037037035
 40
0.7037037037037035
 40
0.7037037037037035
 40
0.7037037037037035
 40
0.7407407407407405
 40
0.7407407407407405
 40
0.7407407407407405
 40
0.7407407407407405
 40
0.7777777777777775
 40
0.7777777777777775
 40
0.7777777777777775
 40
0.7777777777777775
 40
0.8148148148148144
 40
0.8148148148148144
 40
0.8148148148148144
 40
0.8148148148148144
 40
0.8518518518518514
 40
0.8518518518518514
 40
0.8518518518518514
 40
0.8518518518518514
 40
0.8888888888888884
 40
0.8888888888888884
 40
0.8888888888888884
 40
0.8888888888888884
 40
0.9259259259259254
 40
0.9259259259259254
 40
0.9259259259259254
 40
0.9259259259259254
 40
0.9629629629629624
 40
0.9629629629629624
 40
0.9629629629629624
 40
0.9629629629629624
 40
1.0
 40
1.0
 40
1.0
 40
1.0
 10
-0.4178661417322835
 20
-0.3664409448818898
 30
0.0
 10
-0.4178661417322835
 20
-0.3664409448818898
 30
0.0
 10
-0.4044488188976378
 20
-0.3664409448818898
 30
0.0
 10
-0.4044488188976378
 20
-0.3664409448818898
 30
0.0
 10
-0.4044488188976378
 20
-0.3664409448818898
 30
0.0
 10
-0.4044488188976378
 20
-0.3664409448818898
 30
0.0
 10
-0.3692007874015748
 20
-0.4613307086614173
 30
0.0
 10
-0.3692007874015748
 20
-0.4613307086614173
 30
0.0
 10
-0.3692007874015748
 20
-0.4613307086614173
 30
0.0
 10
-0.3674763779527559
 20
-0.4661062992125984
 30
0.0
 10
-0.3657283464566929
 20
-0.4692755905511811
 30
0.0
 10
-0.3639488188976378
 20
-0.4708031496062992
 30
0.0
 10
-0.3639488188976378
 20
-0.4708031496062992
 30
0.0
 10
-0.3622007874015748
 20
-0.4723582677165354
 30
0.0
 10
-0.3598110236220473
 20
-0.4731338582677165
 30
0.0
 10
-0.3568385826771654
 20
-0.4731338582677165
 30
0.0
 10
-0.3568385826771654
 20
-0.4731338582677165
 30
0.0
 10
-0.3568385826771654
 20
-0.4731338582677165
 30
0.0
 10
-0.3550590551181103
 20
-0.4731338582677165
 30
0.0
 10
-0.3550590551181103
 20
-0.4731338582677165
 30
0.0
 10
-0.3550590551181103
 20
-0.4731338582677165
 30
0.0
 10
-0.3550590551181103
 20
-0.4731338582677165
 30
0.0
 10
-0.3550590551181103
 20
-0.4799685039370079
 30
0.0
 10
-0.3550590551181103
 20
-0.4799685039370079
 30
0.0
 10
-0.3550590551181103
 20
-0.4799685039370079
 30
0.0
 10
-0.3550590551181103
 20
-0.4799685039370079
 30
0.0
 10
-0.395503937007874
 20
-0.4799685039370079
 30
0.0
 10
-0.395503937007874
 20
-0.4799685039370079
 30
0.0
 10
-0.395503937007874
 20
-0.4799685039370079
 30
0.0
 10
-0.395503937007874
 20
-0.4799685039370079
 30
0.0
 10
-0.395503937007874
 20
-0.4731338582677165
 30
0.0
 10
-0.395503937007874
 20
-0.4731338582677165
 30
0.0
 10
-0.395503937007874
 20
-0.4731338582677165
 30
0.0
 10
-0.3942007874015748
 20
-0.4730236220472441
 30
0.0
 10
-0.3929212598425197
 20
-0.4729685039370079
 30
0.0
 10
-0.3916692913385827
 20
-0.4729685039370079
 30
0.0
 10
-0.3916692913385827
 20
-0.4729685039370079
 30
0.0
 10
-0.3890590551181102
 20
-0.4729685039370079
 30
0.0
 10
-0.3873661417322835
 20
-0.4726889763779528
 30
0.0
 10
-0.3865314960629921
 20
-0.4721614173228347
 30
0.0
 10
-0.3865314960629921
 20
-0.4721614173228347
 30
0.0
 10
-0.3849763779527559
 20
-0.4711338582677165
 30
0.0
 10
-0.3841732283464567
 20
-0.4698307086614174
 30
0.0
 10
-0.3841732283464567
 20
-0.468248031496063
 30
0.0
 10
-0.3841732283464567
 20
-0.468248031496063
 30
0.0
 10
-0.3841732283464567
 20
-0.4671062992125984
 30
0.0
 10
-0.3849488188976378
 20
-0.4643307086614174
 30
0.0
 10
-0.3864488188976378
 20
-0.4598582677165354
 30
0.0
 10
-0.3864488188976378
 20
-0.4598582677165354
 30
0.0
 10
-0.3864488188976378
 20
-0.4598582677165354
 30
0.0
 10
-0.3939488188976378
 20
-0.4378858267716536
 30
0.0
 10
-0.3939488188976378
 20
-0.4378858267716536
 30
0.0
 10
-0.3939488188976378
 20
-0.4378858267716536
 30
0.0
 10
-0.3939488188976378
 20
-0.4378858267716536
 30
0.0
 10
-0.4351141732283465
 20
-0.4378858267716536
 30
0.0
 10
-0.4351141732283465
 20
-0.4378858267716536
 30
0.0
 10
-0.4351141732283465
 20
-0.4378858267716536
 30
0.0
 10
-0.4351141732283465
 20
-0.4378858267716536
 30
0.0
 10
-0.4439212598425197
 20
-0.4624685039370079
 30
0.0
 10
-0.4439212598425197
 20
-0.4624685039370079
 30
0.0
 10
-0.4439212598425197
 20
-0.4624685039370079
 30
0.0
 10
-0.4448385826771654
 20
-0.4650236220472441
 30
0.0
 10
-0.4453110236220473
 20
-0.4667755905511811
 30
0.0
 10
-0.4453110236220473
 20
-0.4677755905511811
 30
0.0
 10
-0.4453110236220473
 20
-0.4677755905511811
 30
0.0
 10
-0.4453110236220473
 20
-0.4688582677165354
 30
0.0
 10
-0.4450039370078741
 20
-0.4698031496062992
 30
0.0
 10
-0.4444488188976378
 20
-0.4706062992125984
 30
0.0
 10
-0.4444488188976378
 20
-0.4706062992125984
 30
0.0
 10
-0.4438661417322835
 20
-0.4714133858267717
 30
0.0
 10
-0.4431141732283465
 20
-0.4720236220472441
 30
0.0
 10
-0.4421141732283465
 20
-0.4724409448818898
 30
0.0
 10
-0.4421141732283465
 20
-0.4724409448818898
 30
0.0
 10
-0.4411417322834646
 20
-0.4728582677165354
 30
0.0
 10
-0.4395866141732284
 20
-0.4730511811023622
 30
0.0
 10
-0.4373937007874016
 20
-0.4730511811023622
 30
0.0
 10
-0.4373937007874016
 20
-0.4730511811023622
 30
0.0
 10
-0.4359488188976378
 20
-0.4730511811023622
 30
0.0
 10
-0.434755905511811
 20
-0.4730787401574804
 30
0.0
 10
-0.4338385826771654
 20
-0.4731338582677165
 30
0.0
 10
-0.4338385826771654
 20
-0.4731338582677165
 30
0.0
 10
-0.4338385826771654
 20
-0.4731338582677165
 30
0.0
 10
-0.4338385826771654
 20
-0.4799685039370079
 30
0.0
 10
-0.4338385826771654
 20
-0.4799685039370079
 30
0.0
 10
-0.4338385826771654
 20
-0.4799685039370079
 30
0.0
 10
-0.4338385826771654
 20
-0.4799685039370079
 30
0.0
 10
-0.4677559055118111
 20
-0.4799685039370079
 30
0.0
 10
-0.4677559055118111
 20
-0.4799685039370079
 30
0.0
 10
-0.4677559055118111
 20
-0.4799685039370079
 30
0.0
 10
-0.4677559055118111
 20
-0.4799685039370079
 30
0.0
 10
-0.4677559055118111
 20
-0.4731338582677165
 30
0.0
 10
-0.4677559055118111
 20
-0.4731338582677165
 30
0.0
 10
-0.4677559055118111
 20
-0.4731338582677165
 30
0.0
 10
-0.4646141732283465
 20
-0.4731338582677165
 30
0.0
 10
-0.4623385826771654
 20
-0.4728307086614174
 30
0.0
 10
-0.4609763779527559
 20
-0.4721889763779528
 30
0.0
 10
-0.4609763779527559
 20
-0.4721889763779528
 30
0.0
 10
-0.4595866141732284
 20
-0.4715787401574804
 30
0.0
 10
-0.4583661417322835
 20
-0.4705787401574804
 30
0.0
 10
-0.4573385826771654
 20
-0.4691889763779528
 30
0.0
 10
-0.4573385826771654
 20
-0.4691889763779528
 30
0.0
 10
-0.4563110236220473
 20
-0.4678031496062992
 30
0.0
 10
-0.4549488188976378
 20
-0.4648858267716536
 30
0.0
 10
-0.4532834645669291
 20
-0.4604409448818898
 30
0.0
 10
-0.4532834645669291
 20
-0.4604409448818898
 30
0.0
 10
-0.4532834645669291
 20
-0.4604409448818898
 30
0.0
 10
-0.4178661417322835
 20
-0.3664409448818898
 30
0.0
 10
-0.4178661417322835
 20
-0.3664409448818898
 30
0.0
  0
SPLINE
  5
31
330
1F
100
AcDbEntity
  8
LAYER_1
 62
   250
100
AcDbSpline
210
0.0
220
0.0
230
1.0
 70
    11
 71
     3
 72
    16
 73
    12
 74
     0
 42
0.0000000001
 43
0.0000000001
 40
0.0
 40
0.0
 40
0.0
 40
0.0
 40
0.3333333333333333
 40
0.3333333333333333
 40
0.3333333333333333
 40
0.3333333333333333
 40
0.6666666666666666
 40
0.6666666666666666
 40
0.6666666666666666
 40
0.6666666666666666
 40
1.0
 40
1.0
 40
1.0
 40
1.0
 10
-0.4321141732283465
 20
-0.4299133858267717
 30
0.0
 10
-0.4321141732283465
 20
-0.4299133858267717
 30
0.0
 10
-0.3970314960629922
 20
-0.4299133858267717
 30
0.0
 10
-0.3970314960629922
 20
-0.4299133858267717
 30
0.0
 10
-0.3970314960629922
 20
-0.4299133858267717
 30
0.0
 10
-0.3970314960629922
 20
-0.4299133858267717
 30
0.0
 10
-0.4146141732283465
 20
-0.3810787401574803
 30
0.0
 10
-0.4146141732283465
 20
-0.3810787401574803
 30
0.0
 10
-0.4146141732283465
 20
-0.3810787401574803
 30
0.0
 10
-0.4146141732283465
 20
-0.3810787401574803
 30
0.0
 10
-0.4321141732283465
 20
-0.4299133858267717
 30
0.0
 10
-0.4321141732283465
 20
-0.4299133858267717
 30
0.0
  0
SPLINE
  5
32
330
1F
100
AcDbEntity
  8
LAYER_1
 62
   250
100
AcDbSpline
210
0.0
220
0.0
230
1.0
 70
    11
 71
     3
 72
    72
 73
    68
 74
     0
 42
0.0000000001
 43
0.0000000001
 40
0.0
 40
0.0
 40
0.0
 40
0.0
 40
0.0588235294117647
 40
0.0588235294117647
 40
0.0588235294117647
 40
0.0588235294117647
 40
0.1176470588235294
 40
0.1176470588235294
 40
0.1176470588235294
 40
0.1176470588235294
 40
0.1764705882352941
 40
0.1764705882352941
 40
0.1764705882352941
 40
0.1764705882352941
 40
0.2352941176470588
 40
0.2352941176470588
 40
0.2352941176470588
 40
0.2352941176470588
 40
0.2941176470588235
 40
0.2941176470588235
 40
0.2941176470588235
 40
0.2941176470588235
 40
0.3529411764705883
 40
0.3529411764705883
 40
0.3529411764705883
 40
0.3529411764705883
 40
0.411764705882353
 40
0.411764705882353
 40
0.411764705882353
 40
0.411764705882353
 40
0.4705882352941177
 40
0.4705882352941177
 40
0.4705882352941177
 40
0.4705882352941177
 40
0.5294117647058824
 40
0.5294117647058824
 40
0.5294117647058824
 40
0.5294117647058824
 40
0.5882352941176471
 40
0.5882352941176471
 40
0.5882352941176471
 40
0.5882352941176471
 40
0.6470588235294118
 40
0.6470588235294118
 40
0.6470588235294118
 40
0.6470588235294118
 40
0.7058823529411765
 40
0.7058823529411765
 40
0.7058823529411765
 40
0.7058823529411765
 40
0.7647058823529412
 40
0.7647058823529412
 40
0.7647058823529412
 40
0.7647058823529412
 40
0.823529411764706
 40
0.823529411764706
 40
0.823529411764706
 40
0.823529411764706
 40
0.8823529411764707
 40
0.8823529411764707
 40
0.8823529411764707
 40
0.8823529411764707
 40
0.9411764705882354
 40
0.9411764705882354
 40
0.9411764705882354
 40
0.9411764705882354
 40
1.0
 40
1.0
 40
1.0
 40
1.0
 10
-0.1920314960629921
 20
-0.3664409448818898
 30
0.0
 10
-0.1920314960629921
 20
-0.3664409448818898
 30
0.0
 10
-0.1859488188976378
 20
-0.3664409448818898
 30
0.0
 10
-0.1859488188976378
 20
-0.3664409448818898
 30
0.0
 10
-0.1859488188976378
 20
-0.3664409448818898
 30
0.0
 10
-0.1859488188976378
 20
-0.3664409448818898
 30
0.0
 10
-0.1859488188976378
 20
-0.4606889763779528
 30
0.0
 10
-0.1859488188976378
 20
-0.4606889763779528
 30
0.0
 10
-0.1859488188976378
 20
-0.4606889763779528
 30
0.0
 10
-0.1859488188976378
 20
-0.4651338582677165
 30
0.0
 10
-0.1856417322834646
 20
-0.467996062992126
 30
0.0
 10
-0.1850866141732284
 20
-0.4692755905511811
 30
0.0
 10
-0.1850866141732284
 20
-0.4692755905511811
 30
0.0
 10
-0.184503937007874
 20
-0.4705511811023622
 30
0.0
 10
-0.1835866141732284
 20
-0.471496062992126
 30
0.0
 10
-0.1822834645669292
 20
-0.4721614173228347
 30
0.0
 10
-0.1822834645669292
 20
-0.4721614173228347
 30
0.0
 10
-0.1809763779527559
 20
-0.4728031496062992
 30
0.0
 10
-0.1783937007874016
 20
-0.4731338582677165
 30
0.0
 10
-0.1745314960629921
 20
-0.4731338582677165
 30
0.0
 10
-0.1745314960629921
 20
-0.4731338582677165
 30
0.0
 10
-0.1745314960629921
 20
-0.4731338582677165
 30
0.0
 10
-0.1665590551181103
 20
-0.4731338582677165
 30
0.0
 10
-0.1665590551181103
 20
-0.4731338582677165
 30
0.0
 10
-0.1665590551181103
 20
-0.4731338582677165
 30
0.0
 10
-0.1665590551181103
 20
-0.4731338582677165
 30
0.0
 10
-0.1665590551181103
 20
-0.4799685039370079
 30
0.0
 10
-0.1665590551181103
 20
-0.4799685039370079
 30
0.0
 10
-0.1665590551181103
 20
-0.4799685039370079
 30
0.0
 10
-0.1665590551181103
 20
-0.4799685039370079
 30
0.0
 10
-0.2201968503937008
 20
-0.4799685039370079
 30
0.0
 10
-0.2201968503937008
 20
-0.4799685039370079
 30
0.0
 10
-0.2201968503937008
 20
-0.4799685039370079
 30
0.0
 10
-0.2201968503937008
 20
-0.4799685039370079
 30
0.0
 10
-0.2201968503937008
 20
-0.4731338582677165
 30
0.0
 10
-0.2201968503937008
 20
-0.4731338582677165
 30
0.0
 10
-0.2201968503937008
 20
-0.4731338582677165
 30
0.0
 10
-0.2201968503937008
 20
-0.4731338582677165
 30
0.0
 10
-0.2113385826771654
 20
-0.4731338582677165
 30
0.0
 10
-0.2113385826771654
 20
-0.4731338582677165
 30
0.0
 10
-0.2113385826771654
 20
-0.4731338582677165
 30
0.0
 10
-0.2074763779527559
 20
-0.4731338582677165
 30
0.0
 10
-0.2049212598425197
 20
-0.4728031496062992
 30
0.0
 10
-0.2036417322834646
 20
-0.4721062992125985
 30
0.0
 10
-0.2036417322834646
 20
-0.4721062992125985
 30
0.0
 10
-0.2023661417322835
 20
-0.4714409448818898
 30
0.0
 10
-0.2013661417322835
 20
-0.4703582677165354
 30
0.0
 10
-0.2006692913385827
 20
-0.4688582677165354
 30
0.0
 10
-0.2006692913385827
 20
-0.4688582677165354
 30
0.0
 10
-0.1999763779527559
 20
-0.4673582677165354
 30
0.0
 10
-0.1996141732283465
 20
-0.4646338582677165
 30
0.0
 10
-0.1996141732283465
 20
-0.4606889763779528
 30
0.0
 10
-0.1996141732283465
 20
-0.4606889763779528
 30
0.0
 10
-0.1996141732283465
 20
-0.4606889763779528
 30
0.0
 10
-0.1996141732283465
 20
-0.3832204724409449
 30
0.0
 10
-0.1996141732283465
 20
-0.3832204724409449
 30
0.0
 10
-0.1996141732283465
 20
-0.3832204724409449
 30
0.0
 10
-0.1996141732283465
 20
-0.3832204724409449
 30
0.0
 10
-0.2201968503937008
 20
-0.3832204724409449
 30
0.0
 10
-0.2201968503937008
 20
-0.3832204724409449
 30
0.0
 10
-0.2201968503937008
 20
-0.3832204724409449
 30
0.0
 10
-0.2201968503937008
 20
-0.3832204724409449
 30
0.0
 10
-0.2201968503937008
 20
-0.3762204724409449
 30
0.0
 10
-0.2201968503937008
 20
-0.3762204724409449
 30
0.0
 10
-0.2201968503937008
 20
-0.3762204724409449
 30
0.0
 10
-0.2089763779527559
 20
-0.3746377952755906
 30
0.0
 10
-0.1995866141732283
 20
-0.3713858267716536
 30
0.0
 10
-0.1920314960629921
 20
-0.3664409448818898
 30
0.0
  0
SPLINE
  5
33
330
1F
100
AcDbEntity
  8
LAYER_1
 62
   250
100
AcDbSpline
210
0.0
220
0.0
230
1.0
 70
    11
 71
     3
 72
    80
 73
    76
 74
     0
 42
0.0000000001
 43
0.0000000001
 40
0.0
 40
0.0
 40
0.0
 40
0.0
 40
0.0526315789473684
 40
0.0526315789473684
 40
0.0526315789473684
 40
0.0526315789473684
 40
0.1052631578947368
 40
0.1052631578947368
 40
0.1052631578947368
 40
0.1052631578947368
 40
0.1578947368421053
 40
0.1578947368421053
 40
0.1578947368421053
 40
0.1578947368421053
 40
0.2105263157894737
 40
0.2105263157894737
 40
0.2105263157894737
 40
0.2105263157894737
 40
0.2631578947368421
 40
0.2631578947368421
 40
0.2631578947368421
 40
0.2631578947368421
 40
0.3157894736842105
 40
0.3157894736842105
 40
0.3157894736842105
 40
0.3157894736842105
 40
0.3684210526315789
 40
0.3684210526315789
 40
0.3684210526315789
 40
0.3684210526315789
 40
0.4210526315789474
 40
0.4210526315789474
 40
0.4210526315789474
 40
0.4210526315789474
 40
0.4736842105263158
 40
0.4736842105263158
 40
0.4736842105263158
 40
0.4736842105263158
 40
0.5263157894736842
 40
0.5263157894736842
 40
0.5263157894736842
 40
0.5263157894736842
 40
0.5789473684210527
 40
0.5789473684210527
 40
0.5789473684210527
 40
0.5789473684210527
 40
0.631578947368421
 40
0.631578947368421
 40
0.631578947368421
 40
0.631578947368421
 40
0.6842105263157894
 40
0.6842105263157894
 40
0.6842105263157894
 40
0.6842105263157894
 40
0.7368421052631577
 40
0.7368421052631577
 40
0.7368421052631577
 40
0.7368421052631577
 40
0.7894736842105261
 40
0.7894736842105261
 40
0.7894736842105261
 40
0.7894736842105261
 40
0.8421052631578945
 40
0.8421052631578945
 40
0.8421052631578945
 40
0.8421052631578945
 40
0.8947368421052628
 40
0.8947368421052628
 40
0.8947368421052628
 40
0.8947368421052628
 40
0.9473684210526312
 40
0.9473684210526312
 40
0.9473684210526312
 40
0.9473684210526312
 40
1.0
 40
1.0
 40
1.0
 40
1.0
 10
-0.1266141732283465
 20
-0.3623031496062992
 30
0.0
 10
-0.1266141732283465
 20
-0.3623031496062992
 30
0.0
 10
-0.1212244094488189
 20
-0.3623031496062992
 30
0.0
 10
-0.1212244094488189
 20
-0.3623031496062992
 30
0.0
 10
-0.1212244094488189
 20
-0.3623031496062992
 30
0.0
 10
-0.1212244094488189
 20
-0.3623031496062992
 30
0.0
 10
-0.120251968503937
 20
-0.3664409448818898
 30
0.0
 10
-0.120251968503937
 20
-0.3664409448818898
 30
0.0
 10
-0.120251968503937
 20
-0.3664409448818898
 30
0.0
 10
-0.120251968503937
 20
-0.3664409448818898
 30
0.0
 10
-0.0491417322834646
 20
-0.3664409448818898
 30
0.0
 10
-0.0491417322834646
 20
-0.3664409448818898
 30
0.0
 10
-0.0491417322834646
 20
-0.3664409448818898
 30
0.0
 10
-0.0491417322834646
 20
-0.3664409448818898
 30
0.0
 10
-0.0491417322834646
 20
-0.3733582677165355
 30
0.0
 10
-0.0491417322834646
 20
-0.3733582677165355
 30
0.0
 10
-0.0491417322834646
 20
-0.3733582677165355
 30
0.0
 10
-0.0576417322834646
 20
-0.3831929133858268
 30
0.0
 10
-0.0653661417322835
 20
-0.3943582677165354
 30
0.0
 10
-0.0722795275590551
 20
-0.4069409448818898
 30
0.0
 10
-0.0722795275590551
 20
-0.4069409448818898
 30
0.0
 10
-0.0791968503937008
 20
-0.419496062992126
 30
0.0
 10
-0.0845590551181102
 20
-0.4322755905511811
 30
0.0
 10
-0.0883661417322835
 20
-0.4453031496062992
 30
0.0
 10
-0.0883661417322835
 20
-0.4453031496062992
 30
0.0
 10
-0.0911141732283465
 20
-0.4546889763779528
 30
0.0
 10
-0.0933622047244095
 20
-0.466248031496063
 30
0.0
 10
-0.0951141732283465
 20
-0.4799685039370079
 30
0.0
 10
-0.0951141732283465
 20
-0.4799685039370079
 30
0.0
 10
-0.0951141732283465
 20
-0.4799685039370079
 30
0.0
 10
-0.1117795275590551
 20
-0.4799685039370079
 30
0.0
 10
-0.1117795275590551
 20
-0.4799685039370079
 30
0.0
 10
-0.1117795275590551
 20
-0.4799685039370079
 30
0.0
 10
-0.1101692913385827
 20
-0.4678582677165354
 30
0.0
 10
-0.107503937007874
 20
-0.4565511811023622
 30
0.0
 10
-0.1037795275590551
 20
-0.4460236220472441
 30
0.0
 10
-0.1037795275590551
 20
-0.4460236220472441
 30
0.0
 10
-0.1000590551181102
 20
-0.435496062992126
 30
0.0
 10
-0.0946968503937008
 20
-0.424496062992126
 30
0.0
 10
-0.0876692913385827
 20
-0.4130236220472441
 30
0.0
 10
-0.0876692913385827
 20
-0.4130236220472441
 30
0.0
 10
-0.0806417322834646
 20
-0.4015511811023622
 30
0.0
 10
-0.0721141732283465
 20
-0.3901062992125984
 30
0.0
 10
-0.0620590551181102
 20
-0.3786653543307087
 30
0.0
 10
-0.0620590551181102
 20
-0.3786653543307087
 30
0.0
 10
-0.0620590551181102
 20
-0.3786653543307087
 30
0.0
 10
-0.1127795275590551
 20
-0.3786653543307087
 30
0.0
 10
-0.1127795275590551
 20
-0.3786653543307087
 30
0.0
 10
-0.1127795275590551
 20
-0.3786653543307087
 30
0.0
 10
-0.1164488188976378
 20
-0.3786653543307087
 30
0.0
 10
-0.1189763779527559
 20
-0.3788307086614173
 30
0.0
 10
-0.1203346456692914
 20
-0.3792204724409449
 30
0.0
 10
-0.1203346456692914
 20
-0.3792204724409449
 30
0.0
 10
-0.1216968503937008
 20
-0.3796062992125984
 30
0.0
 10
-0.122751968503937
 20
-0.3801929133858268
 30
0.0
 10
-0.123503937007874
 20
-0.380996062992126
 30
0.0
 10
-0.123503937007874
 20
-0.380996062992126
 30
0.0
 10
-0.1242795275590551
 20
-0.3818307086614173
 30
0.0
 10
-0.1249212598425197
 20
-0.3832755905511811
 30
0.0
 10
-0.1254763779527559
 20
-0.3853307086614173
 30
0.0
 10
-0.1254763779527559
 20
-0.3853307086614173
 30
0.0
 10
-0.1254763779527559
 20
-0.3853307086614173
 30
0.0
 10
-0.1258622047244095
 20
-0.3868582677165354
 30
0.0
 10
-0.1258622047244095
 20
-0.3868582677165354
 30
0.0
 10
-0.1258622047244095
 20
-0.3868582677165354
 30
0.0
 10
-0.1258622047244095
 20
-0.3868582677165354
 30
0.0
 10
-0.1286417322834646
 20
-0.3964685039370079
 30
0.0
 10
-0.1286417322834646
 20
-0.3964685039370079
 30
0.0
 10
-0.1286417322834646
 20
-0.3964685039370079
 30
0.0
 10
-0.1286417322834646
 20
-0.3964685039370079
 30
0.0
 10
-0.1355590551181102
 20
-0.394996062992126
 30
0.0
 10
-0.1355590551181102
 20
-0.394996062992126
 30
0.0
 10
-0.1355590551181102
 20
-0.394996062992126
 30
0.0
 10
-0.1355590551181102
 20
-0.394996062992126
 30
0.0
 10
-0.1266141732283465
 20
-0.3623031496062992
 30
0.0
 10
-0.1266141732283465
 20
-0.3623031496062992
 30
0.0
  0
SPLINE
  5
34
330
1F
100
AcDbEntity
  8
LAYER_1
 62
   250
100
AcDbSpline
210
0.0
220
0.0
230
1.0
 70
    11
 71
     3
 72
    76
 73
    72
 74
     0
 42
0.0000000001
 43
0.0000000001
 40
0.0
 40
0.0
 40
0.0
 40
0.0
 40
0.0555555555555556
 40
0.0555555555555556
 40
0.0555555555555556
 40
0.0555555555555556
 40
0.1111111111111111
 40
0.1111111111111111
 40
0.1111111111111111
 40
0.1111111111111111
 40
0.1666666666666667
 40
0.1666666666666667
 40
0.1666666666666667
 40
0.1666666666666667
 40
0.2222222222222222
 40
0.2222222222222222
 40
0.2222222222222222
 40
0.2222222222222222
 40
0.2777777777777778
 40
0.2777777777777778
 40
0.2777777777777778
 40
0.2777777777777778
 40
0.3333333333333334
 40
0.3333333333333334
 40
0.3333333333333334
 40
0.3333333333333334
 40
0.388888888888889
 40
0.388888888888889
 40
0.388888888888889
 40
0.388888888888889
 40
0.4444444444444445
 40
0.4444444444444445
 40
0.4444444444444445
 40
0.4444444444444445
 40
0.5000000000000001
 40
0.5000000000000001
 40
0.5000000000000001
 40
0.5000000000000001
 40
0.5555555555555557
 40
0.5555555555555557
 40
0.5555555555555557
 40
0.5555555555555557
 40
0.6111111111111113
 40
0.6111111111111113
 40
0.6111111111111113
 40
0.6111111111111113
 40
0.6666666666666669
 40
0.6666666666666669
 40
0.6666666666666669
 40
0.6666666666666669
 40
0.7222222222222224
 40
0.7222222222222224
 40
0.7222222222222224
 40
0.7222222222222224
 40
0.777777777777778
 40
0.777777777777778
 40
0.777777777777778
 40
0.777777777777778
 40
0.8333333333333336
 40
0.8333333333333336
 40
0.8333333333333336
 40
0.8333333333333336
 40
0.8888888888888892
 40
0.8888888888888892
 40
0.8888888888888892
 40
0.8888888888888892
 40
0.9444444444444448
 40
0.9444444444444448
 40
0.9444444444444448
 40
0.9444444444444448
 40
1.0
 40
1.0
 40
1.0
 40
1.0
 10
0.0231377952755906
 20
-0.4169685039370079
 30
0.0
 10
0.0295551181102362
 20
-0.4194133858267717
 30
0.0
 10
0.0344409448818898
 20
-0.4217204724409449
 30
0.0
 10
0.0378031496062992
 20
-0.4238858267716535
 30
0.0
 10
0.0378031496062992
 20
-0.4238858267716535
 30
0.0
 10
0.0427204724409449
 20
-0.4270511811023622
 30
0.0
 10
0.0464409448818898
 20
-0.430748031496063
 30
0.0
 10
0.0489409448818898
 20
-0.434996062992126
 30
0.0
 10
0.0489409448818898
 20
-0.434996062992126
 30
0.0
 10
0.0514409448818898
 20
-0.4392755905511811
 30
0.0
 10
0.0526929133858268
 20
-0.4438858267716536
 30
0.0
 10
0.0526929133858268
 20
-0.4488858267716536
 30
0.0
 10
0.0526929133858268
 20
-0.4488858267716536
 30
0.0
 10
0.0526929133858268
 20
-0.4578307086614173
 30
0.0
 10
0.0488307086614173
 20
-0.4655787401574804
 30
0.0
 10
0.0411377952755906
 20
-0.4721062992125985
 30
0.0
 10
0.0411377952755906
 20
-0.4721062992125985
 30
0.0
 10
0.0334133858267717
 20
-0.4786614173228347
 30
0.0
 10
0.0230275590551181
 20
-0.4819133858267717
 30
0.0
 10
0.0099685039370079
 20
-0.4819133858267717
 30
0.0
 10
0.0099685039370079
 20
-0.4819133858267717
 30
0.0
 10
-0.0038622047244094
 20
-0.4819133858267717
 30
0.0
 10
-0.0147244094488189
 20
-0.4782204724409449
 30
0.0
 10
-0.0225866141732283
 20
-0.4708582677165354
 30
0.0
 10
-0.0225866141732283
 20
-0.4708582677165354
 30
0.0
 10
-0.0288346456692913
 20
-0.4649409448818898
 30
0.0
 10
-0.0319448818897638
 20
-0.458248031496063
 30
0.0
 10
-0.0319448818897638
 20
-0.450748031496063
 30
0.0
 10
-0.0319448818897638
 20
-0.450748031496063
 30
0.0
 10
-0.0319448818897638
 20
-0.4447204724409449
 30
0.0
 10
-0.0298346456692913
 20
-0.4393307086614173
 30
0.0
 10
-0.0256141732283465
 20
-0.4345511811023622
 30
0.0
 10
-0.0256141732283465
 20
-0.4345511811023622
 30
0.0
 10
-0.0205
 20
-0.4288582677165355
 30
0.0
 10
-0.0132244094488189
 20
-0.4244133858267717
 30
0.0
 10
-0.0037795275590551
 20
-0.4212204724409449
 30
0.0
 10
-0.0037795275590551
 20
-0.4212204724409449
 30
0.0
 10
-0.0111692913385827
 20
-0.417748031496063
 30
0.0
 10
-0.0164724409448819
 20
-0.4142204724409449
 30
0.0
 10
-0.019751968503937
 20
-0.4106338582677165
 30
0.0
 10
-0.019751968503937
 20
-0.4106338582677165
 30
0.0
 10
-0.0239173228346457
 20
-0.4059133858267717
 30
0.0
 10
-0.026
 20
-0.400248031496063
 30
0.0
 10
-0.026
 20
-0.3936377952755906
 30
0.0
 10
-0.026
 20
-0.3936377952755906
 30
0.0
 10
-0.026
 20
-0.3854409448818898
 30
0.0
 10
-0.0229173228346457
 20
-0.3788031496062992
 30
0.0
 10
-0.0167244094488189
 20
-0.3737755905511811
 30
0.0
 10
-0.0167244094488189
 20
-0.3737755905511811
 30
0.0
 10
-0.0091417322834646
 20
-0.3675787401574803
 30
0.0
 10
0.0003582677165354
 20
-0.364496062992126
 30
0.0
 10
0.011748031496063
 20
-0.364496062992126
 30
0.0
 10
0.011748031496063
 20
-0.364496062992126
 30
0.0
 10
0.0221653543307087
 20
-0.364496062992126
 30
0.0
 10
0.0305826771653543
 20
-0.3671653543307087
 30
0.0
 10
0.0370275590551181
 20
-0.372496062992126
 30
0.0
 10
0.0370275590551181
 20
-0.372496062992126
 30
0.0
 10
0.0434409448818898
 20
-0.3778582677165355
 30
0.0
 10
0.0466653543307087
 20
-0.3839685039370079
 30
0.0
 10
0.0466653543307087
 20
-0.3908582677165354
 30
0.0
 10
0.0466653543307087
 20
-0.3908582677165354
 30
0.0
 10
0.0466653543307087
 20
-0.3942755905511811
 30
0.0
 10
0.0458582677165354
 20
-0.3975511811023622
 30
0.0
 10
0.0442755905511811
 20
-0.4006653543307087
 30
0.0
 10
0.0442755905511811
 20
-0.4006653543307087
 30
0.0
 10
0.0426653543307087
 20
-0.4037755905511811
 30
0.0
 10
0.0402204724409449
 20
-0.4066929133858268
 30
0.0
 10
0.0368858267716535
 20
-0.4093582677165354
 30
0.0
 10
0.0368858267716535
 20
-0.4093582677165354
 30
0.0
 10
0.0335826771653543
 20
-0.4120511811023622
 30
0.0
 10
0.028996062992126
 20
-0.4145787401574803
 30
0.0
 10
0.0231377952755906
 20
-0.4169685039370079
 30
0.0
  0
SPLINE
  5
35
330
1F
100
AcDbEntity
  8
LAYER_1
 62
   250
100
AcDbSpline
210
0.0
220
0.0
230
1.0
 70
    11
 71
     3
 72
    48
 73
    44
 74
     0
 42
0.0000000001
 43
0.0000000001
 40
0.0
 40
0.0
 40
0.0
 40
0.0
 40
0.0909090909090909
 40
0.0909090909090909
 40
0.0909090909090909
 40
0.0909090909090909
 40
0.1818181818181818
 40
0.1818181818181818
 40
0.1818181818181818
 40
0.1818181818181818
 40
0.2727272727272727
 40
0.2727272727272727
 40
0.2727272727272727
 40
0.2727272727272727
 40
0.3636363636363637
 40
0.3636363636363637
 40
0.3636363636363637
 40
0.3636363636363637
 40
0.4545454545454546
 40
0.4545454545454546
 40
0.4545454545454546
 40
0.4545454545454546
 40
0.5454545454545455
 40
0.5454545454545455
 40
0.5454545454545455
 40
0.5454545454545455
 40
0.6363636363636365
 40
0.6363636363636365
 40
0.6363636363636365
 40
0.6363636363636365
 40
0.7272727272727274
 40
0.7272727272727274
 40
0.7272727272727274
 40
0.7272727272727274
 40
0.8181818181818183
 40
0.8181818181818183
 40
0.8181818181818183
 40
0.8181818181818183
 40
0.9090909090909093
 40
0.9090909090909093
 40
0.9090909090909093
 40
0.9090909090909093
 40
1.0
 40
1.0
 40
1.0
 40
1.0
 10
0.015748031496063
 20
-0.4139685039370079
 30
0.0
 10
0.0219133858267717
 20
-0.4093031496062992
 30
0.0
 10
0.0259409448818898
 20
-0.4060511811023622
 30
0.0
 10
0.0277755905511811
 20
-0.4041929133858268
 30
0.0
 10
0.0277755905511811
 20
-0.4041929133858268
 30
0.0
 10
0.0296377952755906
 20
-0.4023582677165354
 30
0.0
 10
0.0310551181102362
 20
-0.400248031496063
 30
0.0
 10
0.0320551181102362
 20
-0.3978858267716536
 30
0.0
 10
0.0320551181102362
 20
-0.3978858267716536
 30
0.0
 10
0.0330551181102362
 20
-0.3955236220472441
 30
0.0
 10
0.0335551181102362
 20
-0.393248031496063
 30
0.0
 10
0.0335551181102362
 20
-0.3910236220472441
 30
0.0
 10
0.0335551181102362
 20
-0.3910236220472441
 30
0.0
 10
0.0335551181102362
 20
-0.3878307086614173
 30
0.0
 10
0.0326102362204724
 20
-0.3847755905511811
 30
0.0
 10
0.0307204724409449
 20
-0.3818582677165355
 30
0.0
 10
0.0307204724409449
 20
-0.3818582677165355
 30
0.0
 10
0.0288031496062992
 20
-0.3789685039370079
 30
0.0
 10
0.0260275590551181
 20
-0.3766062992125984
 30
0.0
 10
0.0223582677165354
 20
-0.3748307086614173
 30
0.0
 10
0.0223582677165354
 20
-0.3748307086614173
 30
0.0
 10
0.0187204724409449
 20
-0.3730236220472441
 30
0.0
 10
0.0146102362204724
 20
-0.3721377952755905
 30
0.0
 10
0.0100551181102362
 20
-0.3721377952755905
 30
0.0
 10
0.0100551181102362
 20
-0.3721377952755905
 30
0.0
 10
0.0033031496062992
 20
-0.3721377952755905
 30
0.0
 10
-0.0022795275590551
 20
-0.373996062992126
 30
0.0
 10
-0.0067244094488189
 20
-0.3777204724409449
 30
0.0
 10
-0.0067244094488189
 20
-0.3777204724409449
 30
0.0
 10
-0.0111692913385827
 20
-0.3814409448818898
 30
0.0
 10
-0.0133897637795276
 20
-0.3857204724409449
 30
0.0
 10
-0.0133897637795276
 20
-0.3906062992125984
 30
0.0
 10
-0.0133897637795276
 20
-0.3906062992125984
 30
0.0
 10
-0.0133897637795276
 20
-0.3945236220472441
 30
0.0
 10
-0.012
 20
-0.3980236220472441
 30
0.0
 10
-0.009251968503937
 20
-0.4011062992125984
 30
0.0
 10
-0.009251968503937
 20
-0.4011062992125984
 30
0.0
 10
-0.0064724409448819
 20
-0.4041929133858268
 30
0.0
 10
-0.0013346456692913
 20
-0.407248031496063
 30
0.0
 10
0.0062204724409449
 20
-0.4102204724409449
 30
0.0
 10
0.0062204724409449
 20
-0.4102204724409449
 30
0.0
 10
0.0062204724409449
 20
-0.4102204724409449
 30
0.0
 10
0.015748031496063
 20
-0.4139685039370079
 30
0.0
 10
0.015748031496063
 20
-0.4139685039370079
 30
0.0
  0
SPLINE
  5
36
330
1F
100
AcDbEntity
  8
LAYER_1
 62
   250
100
AcDbSpline
210
0.0
220
0.0
230
1.0
 70
    11
 71
     3
 72
    40
 73
    36
 74
     0
 42
0.0000000001
 43
0.0000000001
 40
0.0
 40
0.0
 40
0.0
 40
0.0
 40
0.1111111111111111
 40
0.1111111111111111
 40
0.1111111111111111
 40
0.1111111111111111
 40
0.2222222222222222
 40
0.2222222222222222
 40
0.2222222222222222
 40
0.2222222222222222
 40
0.3333333333333333
 40
0.3333333333333333
 40
0.3333333333333333
 40
0.3333333333333333
 40
0.4444444444444444
 40
0.4444444444444444
 40
0.4444444444444444
 40
0.4444444444444444
 40
0.5555555555555556
 40
0.5555555555555556
 40
0.5555555555555556
 40
0.5555555555555556
 40
0.6666666666666667
 40
0.6666666666666667
 40
0.6666666666666667
 40
0.6666666666666667
 40
0.7777777777777779
 40
0.7777777777777779
 40
0.7777777777777779
 40
0.7777777777777779
 40
0.8888888888888891
 40
0.8888888888888891
 40
0.8888888888888891
 40
0.8888888888888891
 40
1.0
 40
1.0
 40
1.0
 40
1.0
 10
0.0042755905511811
 20
-0.4243858267716535
 30
0.0
 10
-0.0033897637795276
 20
-0.427748031496063
 30
0.0
 10
-0.0094448818897638
 20
-0.4321062992125985
 30
0.0
 10
-0.0138897637795276
 20
-0.437496062992126
 30
0.0
 10
-0.0138897637795276
 20
-0.437496062992126
 30
0.0
 10
-0.0173622047244094
 20
-0.4417204724409449
 30
0.0
 10
-0.0190866141732283
 20
-0.4461062992125984
 30
0.0
 10
-0.0190866141732283
 20
-0.4506614173228347
 30
0.0
 10
-0.0190866141732283
 20
-0.4506614173228347
 30
0.0
 10
-0.0190866141732283
 20
-0.4568582677165354
 30
0.0
 10
-0.0163622047244095
 20
-0.4623582677165354
 30
0.0
 10
-0.0108622047244094
 20
-0.4671614173228347
 30
0.0
 10
-0.0108622047244094
 20
-0.4671614173228347
 30
0.0
 10
-0.0053897637795276
 20
-0.4719409448818898
 30
0.0
 10
0.0016929133858268
 20
-0.4743582677165354
 30
0.0
 10
0.0103582677165354
 20
-0.4743582677165354
 30
0.0
 10
0.0103582677165354
 20
-0.4743582677165354
 30
0.0
 10
0.0192204724409449
 20
-0.4743582677165354
 30
0.0
 10
0.0265826771653543
 20
-0.4716062992125985
 30
0.0
 10
0.032496062992126
 20
-0.4661338582677165
 30
0.0
 10
0.032496062992126
 20
-0.4661338582677165
 30
0.0
 10
0.0373307086614173
 20
-0.4616889763779528
 30
0.0
 10
0.039748031496063
 20
-0.4569133858267717
 30
0.0
 10
0.039748031496063
 20
-0.4518031496062993
 30
0.0
 10
0.039748031496063
 20
-0.4518031496062993
 30
0.0
 10
0.039748031496063
 20
-0.4478031496062992
 30
0.0
 10
0.0381653543307087
 20
-0.4439685039370079
 30
0.0
 10
0.034996062992126
 20
-0.4403031496062992
 30
0.0
 10
0.034996062992126
 20
-0.4403031496062992
 30
0.0
 10
0.0318031496062992
 20
-0.4366338582677166
 30
0.0
 10
0.0259133858267717
 20
-0.4330787401574803
 30
0.0
 10
0.0172755905511811
 20
-0.4296062992125985
 30
0.0
 10
0.0172755905511811
 20
-0.4296062992125985
 30
0.0
 10
0.0172755905511811
 20
-0.4296062992125985
 30
0.0
 10
0.0042755905511811
 20
-0.4243858267716535
 30
0.0
 10
0.0042755905511811
 20
-0.4243858267716535
 30
0.0
  0
SPLINE
  5
37
330
1F
100
AcDbEntity
  8
LAYER_1
 62
   250
100
AcDbSpline
210
0.0
220
0.0
230
1.0
 70
    11
 71
     3
 72
   132
 73
   128
 74
     0
 42
0.0000000001
 43
0.0000000001
 40
0.0
 40
0.0
 40
0.0
 40
0.0
 40
0.03125
 40
0.03125
 40
0.03125
 40
0.03125
 40
0.0625
 40
0.0625
 40
0.0625
 40
0.0625
 40
0.09375
 40
0.09375
 40
0.09375
 40
0.09375
 40
0.125
 40
0.125
 40
0.125
 40
0.125
 40
0.15625
 40
0.15625
 40
0.15625
 40
0.15625
 40
0.1875
 40
0.1875
 40
0.1875
 40
0.1875
 40
0.21875
 40
0.21875
 40
0.21875
 40
0.21875
 40
0.25
 40
0.25
 40
0.25
 40
0.25
 40
0.28125
 40
0.28125
 40
0.28125
 40
0.28125
 40
0.3125
 40
0.3125
 40
0.3125
 40
0.3125
 40
0.34375
 40
0.34375
 40
0.34375
 40
0.34375
 40
0.375
 40
0.375
 40
0.375
 40
0.375
 40
0.40625
 40
0.40625
 40
0.40625
 40
0.40625
 40
0.4375
 40
0.4375
 40
0.4375
 40
0.4375
 40
0.46875
 40
0.46875
 40
0.46875
 40
0.46875
 40
0.5
 40
0.5
 40
0.5
 40
0.5
 40
0.53125
 40
0.53125
 40
0.53125
 40
0.53125
 40
0.5625
 40
0.5625
 40
0.5625
 40
0.5625
 40
0.59375
 40
0.59375
 40
0.59375
 40
0.59375
 40
0.625
 40
0.625
 40
0.625
 40
0.625
 40
0.65625
 40
0.65625
 40
0.65625
 40
0.65625
 40
0.6875
 40
0.6875
 40
0.6875
 40
0.6875
 40
0.71875
 40
0.71875
 40
0.71875
 40
0.71875
 40
0.75
 40
0.75
 40
0.75
 40
0.75
 40
0.78125
 40
0.78125
 40
0.78125
 40
0.78125
 40
0.8125
 40
0.8125
 40
0.8125
 40
0.8125
 40
0.84375
 40
0.84375
 40
0.84375
 40
0.84375
 40
0.875
 40
0.875
 40
0.875
 40
0.875
 40
0.90625
 40
0.90625
 40
0.90625
 40
0.90625
 40
0.9375
 40
0.9375
 40
0.9375
 40
0.9375
 40
0.96875
 40
0.96875
 40
0.96875
 40
0.96875
 40
1.0
 40
1.0
 40
1.0
 40
1.0
 10
0.0844448818897638
 20
-0.3664409448818898
 30
0.0
 10
0.0844448818897638
 20
-0.3664409448818898
 30
0.0
 10
0.1350551181102362
 20
-0.3664409448818898
 30
0.0
 10
0.1350551181102362
 20
-0.3664409448818898
 30
0.0
 10
0.1350551181102362
 20
-0.3664409448818898
 30
0.0
 10
0.1381377952755906
 20
-0.3664409448818898
 30
0.0
 10
0.1400275590551181
 20
-0.3662755905511811
 30
0.0
 10
0.1406653543307087
 20
-0.3659409448818898
 30
0.0
 10
0.1406653543307087
 20
-0.3659409448818898
 30
0.0
 10
0.1415826771653543
 20
-0.3654133858267717
 30
0.0
 10
0.1421377952755906
 20
-0.364248031496063
 30
0.0
 10
0.1423031496062992
 20
-0.3624685039370079
 30
0.0
 10
0.1423031496062992
 20
-0.3624685039370079
 30
0.0
 10
0.1423031496062992
 20
-0.3624685039370079
 30
0.0
 10
0.148248031496063
 20
-0.3624685039370079
 30
0.0
 10
0.148248031496063
 20
-0.3624685039370079
 30
0.0
 10
0.148248031496063
 20
-0.3624685039370079
 30
0.0
 10
0.148248031496063
 20
-0.3624685039370079
 30
0.0
 10
0.148248031496063
 20
-0.3796377952755906
 30
0.0
 10
0.148248031496063
 20
-0.3796377952755906
 30
0.0
 10
0.148248031496063
 20
-0.3796377952755906
 30
0.0
 10
0.148248031496063
 20
-0.3796377952755906
 30
0.0
 10
0.092
 20
-0.3796377952755906
 30
0.0
 10
0.092
 20
-0.3796377952755906
 30
0.0
 10
0.092
 20
-0.3796377952755906
 30
0.0
 10
0.092
 20
-0.3796377952755906
 30
0.0
 10
0.0906102362204724
 20
-0.4082755905511811
 30
0.0
 10
0.0906102362204724
 20
-0.4082755905511811
 30
0.0
 10
0.0906102362204724
 20
-0.4082755905511811
 30
0.0
 10
0.0929448818897638
 20
-0.4076062992125984
 30
0.0
 10
0.0959173228346457
 20
-0.4070787401574804
 30
0.0
 10
0.0995
 20
-0.4066338582677165
 30
0.0
 10
0.0995
 20
-0.4066338582677165
 30
0.0
 10
0.1041102362204724
 20
-0.4061062992125984
 30
0.0
 10
0.1082204724409449
 20
-0.4058307086614174
 30
0.0
 10
0.1118622047244095
 20
-0.4058307086614174
 30
0.0
 10
0.1118622047244095
 20
-0.4058307086614174
 30
0.0
 10
0.1209173228346457
 20
-0.4058307086614174
 30
0.0
 10
0.1288031496062992
 20
-0.4074685039370079
 30
0.0
 10
0.1355551181102362
 20
-0.4107204724409449
 30
0.0
 10
0.1355551181102362
 20
-0.4107204724409449
 30
0.0
 10
0.1422755905511811
 20
-0.4139685039370079
 30
0.0
 10
0.1473858267716535
 20
-0.4184409448818898
 30
0.0
 10
0.1508858267716536
 20
-0.4241062992125985
 30
0.0
 10
0.1508858267716536
 20
-0.4241062992125985
 30
0.0
 10
0.1543858267716536
 20
-0.4297755905511811
 30
0.0
 10
0.1561377952755906
 20
-0.4361062992125985
 30
0.0
 10
0.1561377952755906
 20
-0.4431062992125984
 30
0.0
 10
0.1561377952755906
 20
-0.4431062992125984
 30
0.0
 10
0.1561377952755906
 20
-0.4539409448818898
 30
0.0
 10
0.1520551181102362
 20
-0.4631338582677166
 30
0.0
 10
0.1439173228346457
 20
-0.4706614173228347
 30
0.0
 10
0.1439173228346457
 20
-0.4706614173228347
 30
0.0
 10
0.1357755905511811
 20
-0.4781614173228347
 30
0.0
 10
0.1254173228346457
 20
-0.4819133858267717
 30
0.0
 10
0.1128307086614173
 20
-0.4819133858267717
 30
0.0
 10
0.1128307086614173
 20
-0.4819133858267717
 30
0.0
 10
0.1055551181102362
 20
-0.4819133858267717
 30
0.0
 10
0.099
 20
-0.4806062992125985
 30
0.0
 10
0.0931102362204724
 20
-0.4780236220472441
 30
0.0
 10
0.0931102362204724
 20
-0.4780236220472441
 30
0.0
 10
0.0872204724409449
 20
-0.4754133858267717
 30
0.0
 10
0.0826102362204724
 20
-0.4719685039370079
 30
0.0
 10
0.0793031496062992
 20
-0.4677204724409449
 30
0.0
 10
0.0793031496062992
 20
-0.4677204724409449
 30
0.0
 10
0.076
 20
-0.4634685039370079
 30
0.0
 10
0.0743346456692913
 20
-0.4597204724409449
 30
0.0
 10
0.0743346456692913
 20
-0.4565236220472441
 30
0.0
 10
0.0743346456692913
 20
-0.4565236220472441
 30
0.0
 10
0.0743346456692913
 20
-0.4544133858267717
 30
0.0
 10
0.0750551181102362
 20
-0.4525787401574803
 30
0.0
 10
0.0764724409448819
 20
-0.4510236220472441
 30
0.0
 10
0.0764724409448819
 20
-0.4510236220472441
 30
0.0
 10
0.0778622047244095
 20
-0.449496062992126
 30
0.0
 10
0.0796929133858268
 20
-0.4487204724409449
 30
0.0
 10
0.0819173228346457
 20
-0.4487204724409449
 30
0.0
 10
0.0819173228346457
 20
-0.4487204724409449
 30
0.0
 10
0.0841929133858268
 20
-0.4487204724409449
 30
0.0
 10
0.0861929133858268
 20
-0.4496614173228347
 30
0.0
 10
0.0879448818897638
 20
-0.4515787401574803
 30
0.0
 10
0.0879448818897638
 20
-0.4515787401574803
 30
0.0
 10
0.0889173228346457
 20
-0.4525511811023622
 30
0.0
 10
0.0900826771653543
 20
-0.4549409448818898
 30
0.0
 10
0.0914448818897638
 20
-0.4587204724409449
 30
0.0
 10
0.0914448818897638
 20
-0.4587204724409449
 30
0.0
 10
0.0932755905511811
 20
-0.4640511811023622
 30
0.0
 10
0.0960275590551181
 20
-0.4679409448818898
 30
0.0
 10
0.0996653543307087
 20
-0.4704409448818898
 30
0.0
 10
0.0996653543307087
 20
-0.4704409448818898
 30
0.0
 10
0.1032204724409449
 20
-0.472996062992126
 30
0.0
 10
0.107748031496063
 20
-0.4742755905511811
 30
0.0
 10
0.1131653543307087
 20
-0.4742755905511811
 30
0.0
 10
0.1131653543307087
 20
-0.4742755905511811
 30
0.0
 10
0.1185826771653543
 20
-0.4742755905511811
 30
0.0
 10
0.1234173228346457
 20
-0.4730787401574804
 30
0.0
 10
0.1276377952755906
 20
-0.4707204724409449
 30
0.0
 10
0.1276377952755906
 20
-0.4707204724409449
 30
0.0
 10
0.1318897637795276
 20
-0.4683858267716536
 30
0.0
 10
0.1352204724409449
 20
-0.4649685039370079
 30
0.0
 10
0.1376653543307087
 20
-0.4605511811023622
 30
0.0
 10
0.1376653543307087
 20
-0.4605511811023622
 30
0.0
 10
0.1401102362204724
 20
-0.4561338582677166
 30
0.0
 10
0.1413307086614173
 20
-0.4512204724409449
 30
0.0
 10
0.1413307086614173
 20
-0.4458031496062992
 30
0.0
 10
0.1413307086614173
 20
-0.4458031496062992
 30
0.0
 10
0.1413307086614173
 20
-0.4400787401574803
 30
0.0
 10
0.14
 20
-0.4350236220472441
 30
0.0
 10
0.1373582677165355
 20
-0.4305787401574803
 30
0.0
 10
0.1373582677165355
 20
-0.4305787401574803
 30
0.0
 10
0.134748031496063
 20
-0.4261338582677166
 30
0.0
 10
0.1309724409448819
 20
-0.4226653543307087
 30
0.0
 10
0.1260551181102362
 20
-0.420248031496063
 30
0.0
 10
0.1260551181102362
 20
-0.420248031496063
 30
0.0
 10
0.1211377952755906
 20
-0.4178031496062992
 30
0.0
 10
0.1151653543307087
 20
-0.4165787401574803
 30
0.0
 10
0.1081102362204724
 20
-0.4165787401574803
 30
0.0
 10
0.1081102362204724
 20
-0.4165787401574803
 30
0.0
 10
0.1038307086614173
 20
-0.4165787401574803
 30
0.0
 10
0.0992204724409449
 20
-0.4170236220472441
 30
0.0
 10
0.0943307086614173
 20
-0.4179685039370079
 30
0.0
 10
0.0943307086614173
 20
-0.4179685039370079
 30
0.0
 10
0.0894173228346457
 20
-0.4188858267716535
 30
0.0
 10
0.0851929133858268
 20
-0.4200511811023622
 30
0.0
 10
0.0816653543307087
 20
-0.4214685039370079
 30
0.0
 10
0.0816653543307087
 20
-0.4214685039370079
 30
0.0
 10
0.0816653543307087
 20
-0.4214685039370079
 30
0.0
 10
0.0844448818897638
 20
-0.3664409448818898
 30
0.0
 10
0.0844448818897638
 20
-0.3664409448818898
 30
0.0
  0
SPLINE
  5
38
330
1F
100
AcDbEntity
  8
LAYER_1
 62
   250
100
AcDbSpline
210
0.0
220
0.0
230
1.0
 70
    11
 71
     3
 72
   172
 73
   168
 74
     0
 42
0.0000000001
 43
0.0000000001
 40
0.0
 40
0.0
 40
0.0
 40
0.0
 40
0.0238095238095238
 40
0.0238095238095238
 40
0.0238095238095238
 40
0.0238095238095238
 40
0.0476190476190476
 40
0.0476190476190476
 40
0.0476190476190476
 40
0.0476190476190476
 40
0.0714285714285714
 40
0.0714285714285714
 40
0.0714285714285714
 40
0.0714285714285714
 40
0.0952380952380952
 40
0.0952380952380952
 40
0.0952380952380952
 40
0.0952380952380952
 40
0.119047619047619
 40
0.119047619047619
 40
0.119047619047619
 40
0.119047619047619
 40
0.1428571428571429
 40
0.1428571428571429
 40
0.1428571428571429
 40
0.1428571428571429
 40
0.1666666666666667
 40
0.1666666666666667
 40
0.1666666666666667
 40
0.1666666666666667
 40
0.1904761904761905
 40
0.1904761904761905
 40
0.1904761904761905
 40
0.1904761904761905
 40
0.2142857142857143
 40
0.2142857142857143
 40
0.2142857142857143
 40
0.2142857142857143
 40
0.2380952380952381
 40
0.2380952380952381
 40
0.2380952380952381
 40
0.2380952380952381
 40
0.2619047619047619
 40
0.2619047619047619
 40
0.2619047619047619
 40
0.2619047619047619
 40
0.2857142857142857
 40
0.2857142857142857
 40
0.2857142857142857
 40
0.2857142857142857
 40
0.3095238095238095
 40
0.3095238095238095
 40
0.3095238095238095
 40
0.3095238095238095
 40
0.3333333333333334
 40
0.3333333333333334
 40
0.3333333333333334
 40
0.3333333333333334
 40
0.3571428571428572
 40
0.3571428571428572
 40
0.3571428571428572
 40
0.3571428571428572
 40
0.380952380952381
 40
0.380952380952381
 40
0.380952380952381
 40
0.380952380952381
 40
0.4047619047619049
 40
0.4047619047619049
 40
0.4047619047619049
 40
0.4047619047619049
 40
0.4285714285714287
 40
0.4285714285714287
 40
0.4285714285714287
 40
0.4285714285714287
 40
0.4523809523809526
 40
0.4523809523809526
 40
0.4523809523809526
 40
0.4523809523809526
 40
0.4761904761904764
 40
0.4761904761904764
 40
0.4761904761904764
 40
0.4761904761904764
 40
0.5000000000000002
 40
0.5000000000000002
 40
0.5000000000000002
 40
0.5000000000000002
 40
0.5238095238095241
 40
0.5238095238095241
 40
0.5238095238095241
 40
0.5238095238095241
 40
0.5476190476190479
 40
0.5476190476190479
 40
0.5476190476190479
 40
0.5476190476190479
 40
0.5714285714285717
 40
0.5714285714285717
 40
0.5714285714285717
 40
0.5714285714285717
 40
0.5952380952380956
 40
0.5952380952380956
 40
0.5952380952380956
 40
0.5952380952380956
 40
0.6190476190476194
 40
0.6190476190476194
 40
0.6190476190476194
 40
0.6190476190476194
 40
0.6428571428571432
 40
0.6428571428571432
 40
0.6428571428571432
 40
0.6428571428571432
 40
0.6666666666666671
 40
0.6666666666666671
 40
0.6666666666666671
 40
0.6666666666666671
 40
0.6904761904761909
 40
0.6904761904761909
 40
0.6904761904761909
 40
0.6904761904761909
 40
0.7142857142857148
 40
0.7142857142857148
 40
0.7142857142857148
 40
0.7142857142857148
 40
0.7380952380952386
 40
0.7380952380952386
 40
0.7380952380952386
 40
0.7380952380952386
 40
0.7619047619047624
 40
0.7619047619047624
 40
0.7619047619047624
 40
0.7619047619047624
 40
0.7857142857142863
 40
0.7857142857142863
 40
0.7857142857142863
 40
0.7857142857142863
 40
0.8095238095238101
 40
0.8095238095238101
 40
0.8095238095238101
 40
0.8095238095238101
 40
0.8333333333333339
 40
0.8333333333333339
 40
0.8333333333333339
 40
0.8333333333333339
 40
0.8571428571428578
 40
0.8571428571428578
 40
0.8571428571428578
 40
0.8571428571428578
 40
0.8809523809523816
 40
0.8809523809523816
 40
0.8809523809523816
 40
0.8809523809523816
 40
0.9047619047619054
 40
0.9047619047619054
 40
0.9047619047619054
 40
0.9047619047619054
 40
0.9285714285714293
 40
0.9285714285714293
 40
0.9285714285714293
 40
0.9285714285714293
 40
0.9523809523809531
 40
0.9523809523809531
 40
0.9523809523809531
 40
0.9523809523809531
 40
0.9761904761904769
 40
0.9761904761904769
 40
0.9761904761904769
 40
0.9761904761904769
 40
1.0
 40
1.0
 40
1.0
 40
1.0
 10
-0.3775708661417323
 20
-0.5843031496062993
 30
0.0
 10
-0.3775708661417323
 20
-0.5843031496062993
 30
0.0
 10
-0.3853779527559055
 20
-0.5830787401574803
 30
0.0
 10
-0.3853779527559055
 20
-0.5830787401574803
 30
0.0
 10
-0.3853779527559055
 20
-0.5830787401574803
 30
0.0
 10
-0.3846811023622048
 20
-0.5772204724409449
 30
0.0
 10
-0.3831535433070866
 20
-0.5723582677165354
 30
0.0
 10
-0.3808188976377953
 20
-0.568496062992126
 30
0.0
 10
-0.3808188976377953
 20
-0.568496062992126
 30
0.0
 10
-0.377736220472441
 20
-0.5633031496062992
 30
0.0
 10
-0.3733779527559055
 20
-0.5592480314960631
 30
0.0
 10
-0.367736220472441
 20
-0.5563582677165354
 30
0.0
 10
-0.367736220472441
 20
-0.5563582677165354
 30
0.0
 10
-0.3620708661417323
 20
-0.5534409448818898
 30
0.0
 10
-0.3555984251968504
 20
-0.551996062992126
 30
0.0
 10
-0.3482637795275591
 20
-0.551996062992126
 30
0.0
 10
-0.3482637795275591
 20
-0.551996062992126
 30
0.0
 10
-0.3410708661417323
 20
-0.551996062992126
 30
0.0
 10
-0.3347086614173229
 20
-0.5532755905511811
 30
0.0
 10
-0.3292362204724409
 20
-0.5558582677165355
 30
0.0
 10
-0.3292362204724409
 20
-0.5558582677165355
 30
0.0
 10
-0.3237637795275591
 20
-0.5584409448818898
 30
0.0
 10
-0.3196259842519685
 20
-0.5618582677165355
 30
0.0
 10
-0.3168228346456693
 20
-0.5661062992125985
 30
0.0
 10
-0.3168228346456693
 20
-0.5661062992125985
 30
0.0
 10
-0.3140157480314961
 20
-0.5703582677165354
 30
0.0
 10
-0.3126259842519685
 20
-0.5749685039370079
 30
0.0
 10
-0.3126259842519685
 20
-0.5799133858267717
 30
0.0
 10
-0.3126259842519685
 20
-0.5799133858267717
 30
0.0
 10
-0.3126259842519685
 20
-0.584248031496063
 30
0.0
 10
-0.3136811023622048
 20
-0.5881338582677166
 30
0.0
 10
-0.3157952755905512
 20
-0.5915511811023623
 30
0.0
 10
-0.3157952755905512
 20
-0.5915511811023623
 30
0.0
 10
-0.3179330708661418
 20
-0.5949685039370078
 30
0.0
 10
-0.3210708661417323
 20
-0.5980236220472441
 30
0.0
 10
-0.3252362204724409
 20
-0.600748031496063
 30
0.0
 10
-0.3252362204724409
 20
-0.600748031496063
 30
0.0
 10
-0.3281811023622047
 20
-0.6026338582677165
 30
0.0
 10
-0.3319881889763779
 20
-0.6043031496062993
 30
0.0
 10
-0.3367086614173229
 20
-0.6056929133858268
 30
0.0
 10
-0.3367086614173229
 20
-0.6056929133858268
 30
0.0
 10
-0.3316811023622047
 20
-0.6064133858267716
 30
0.0
 10
-0.3275433070866142
 20
-0.6075787401574804
 30
0.0
 10
-0.3243503937007874
 20
-0.6091929133858268
 30
0.0
 10
-0.3243503937007874
 20
-0.6091929133858268
 30
0.0
 10
-0.3191535433070866
 20
-0.6118582677165355
 30
0.0
 10
-0.3150433070866142
 20
-0.6155236220472441
 30
0.0
 10
-0.3120708661417323
 20
-0.6201929133858268
 30
0.0
 10
-0.3120708661417323
 20
-0.6201929133858268
 30
0.0
 10
-0.3090708661417323
 20
-0.6248582677165354
 30
0.0
 10
-0.3075984251968504
 20
-0.6299685039370079
 30
0.0
 10
-0.3075984251968504
 20
-0.6355787401574804
 30
0.0
 10
-0.3075984251968504
 20
-0.6355787401574804
 30
0.0
 10
-0.3075984251968504
 20
-0.6445236220472441
 30
0.0
 10
-0.3115157480314961
 20
-0.6524133858267717
 30
0.0
 10
-0.3193779527559055
 20
-0.659220472440945
 30
0.0
 10
-0.3193779527559055
 20
-0.659220472440945
 30
0.0
 10
-0.3272637795275591
 20
-0.6660236220472441
 30
0.0
 10
-0.3374330708661418
 20
-0.6694133858267717
 30
0.0
 10
-0.3499055118110236
 20
-0.6694133858267717
 30
0.0
 10
-0.3499055118110236
 20
-0.6694133858267717
 30
0.0
 10
-0.3622086614173228
 20
-0.6694133858267717
 30
0.0
 10
-0.3725708661417323
 20
-0.6661338582677165
 30
0.0
 10
-0.380988188976378
 20
-0.6595787401574803
 30
0.0
 10
-0.380988188976378
 20
-0.6595787401574803
 30
0.0
 10
-0.3880433070866142
 20
-0.653996062992126
 30
0.0
 10
-0.3915708661417323
 20
-0.6483582677165355
 30
0.0
 10
-0.3915708661417323
 20
-0.6427204724409449
 30
0.0
 10
-0.3915708661417323
 20
-0.6427204724409449
 30
0.0
 10
-0.3915708661417323
 20
-0.640496062992126
 30
0.0
 10
-0.3908464566929134
 20
-0.6386338582677166
 30
0.0
 10
-0.3894055118110236
 20
-0.6371614173228347
 30
0.0
 10
-0.3894055118110236
 20
-0.6371614173228347
 30
0.0
 10
-0.387988188976378
 20
-0.6356614173228347
 30
0.0
 10
-0.3861811023622048
 20
-0.6349133858267717
 30
0.0
 10
-0.383988188976378
 20
-0.6349133858267717
 30
0.0
 10
-0.383988188976378
 20
-0.6349133858267717
 30
0.0
 10
-0.3816259842519685
 20
-0.6349133858267717
 30
0.0
 10
-0.3795708661417323
 20
-0.6358307086614173
 30
0.0
 10
-0.3779055118110236
 20
-0.6376929133858268
 30
0.0
 10
-0.3779055118110236
 20
-0.6376929133858268
 30
0.0
 10
-0.376988188976378
 20
-0.6387204724409449
 30
0.0
 10
-0.3759055118110237
 20
-0.6411889763779528
 30
0.0
 10
-0.374736220472441
 20
-0.6450787401574804
 30
0.0
 10
-0.374736220472441
 20
-0.6450787401574804
 30
0.0
 10
-0.3730433070866142
 20
-0.6505787401574803
 30
0.0
 10
-0.3701811023622048
 20
-0.654748031496063
 30
0.0
 10
-0.3661811023622048
 20
-0.6576062992125985
 30
0.0
 10
-0.3661811023622048
 20
-0.6576062992125985
 30
0.0
 10
-0.3621535433070866
 20
-0.660496062992126
 30
0.0
 10
-0.3571811023622047
 20
-0.6619409448818898
 30
0.0
 10
-0.3512086614173228
 20
-0.6619409448818898
 30
0.0
 10
-0.3512086614173228
 20
-0.6619409448818898
 30
0.0
 10
-0.3458779527559056
 20
-0.6619409448818898
 30
0.0
 10
-0.3411259842519685
 20
-0.6607755905511812
 30
0.0
 10
-0.3369330708661418
 20
-0.6584409448818898
 30
0.0
 10
-0.3369330708661418
 20
-0.6584409448818898
 30
0.0
 10
-0.3327086614173229
 20
-0.6561062992125984
 30
0.0
 10
-0.3294055118110236
 20
-0.6528031496062993
 30
0.0
 10
-0.3269606299212599
 20
-0.648496062992126
 30
0.0
 10
-0.3269606299212599
 20
-0.648496062992126
 30
0.0
 10
-0.3245157480314961
 20
-0.6442204724409449
 30
0.0
 10
-0.3232913385826772
 20
-0.6395236220472441
 30
0.0
 10
-0.3232913385826772
 20
-0.6344409448818897
 30
0.0
 10
-0.3232913385826772
 20
-0.6344409448818897
 30
0.0
 10
-0.3232913385826772
 20
-0.6303031496062992
 30
0.0
 10
-0.3241811023622047
 20
-0.6266062992125985
 30
0.0
 10
-0.3259330708661418
 20
-0.6233307086614174
 30
0.0
 10
-0.3259330708661418
 20
-0.6233307086614174
 30
0.0
 10
-0.3277086614173229
 20
-0.6200236220472442
 30
0.0
 10
-0.3302086614173229
 20
-0.617248031496063
 30
0.0
 10
-0.3334606299212599
 20
-0.6149685039370079
 30
0.0
 10
-0.3334606299212599
 20
-0.6149685039370079
 30
0.0
 10
-0.3359606299212599
 20
-0.6131929133858268
 30
0.0
 10
-0.3391535433070866
 20
-0.6119409448818898
 30
0.0
 10
-0.3430157480314961
 20
-0.611248031496063
 30
0.0
 10
-0.3430157480314961
 20
-0.611248031496063
 30
0.0
 10
-0.3469055118110236
 20
-0.6105236220472441
 30
0.0
 10
-0.3504055118110236
 20
-0.6101653543307087
 30
0.0
 10
-0.353488188976378
 20
-0.6101653543307087
 30
0.0
 10
-0.353488188976378
 20
-0.6101653543307087
 30
0.0
 10
-0.353488188976378
 20
-0.6101653543307087
 30
0.0
 10
-0.3610433070866142
 20
-0.6101653543307087
 30
0.0
 10
-0.3610433070866142
 20
-0.6101653543307087
 30
0.0
 10
-0.3610433070866142
 20
-0.6101653543307087
 30
0.0
 10
-0.3610433070866142
 20
-0.6101653543307087
 30
0.0
 10
-0.3610433070866142
 20
-0.6022755905511811
 30
0.0
 10
-0.3610433070866142
 20
-0.6022755905511811
 30
0.0
 10
-0.3610433070866142
 20
-0.6022755905511811
 30
0.0
 10
-0.3610433070866142
 20
-0.6022755905511811
 30
0.0
 10
-0.356236220472441
 20
-0.6022755905511811
 30
0.0
 10
-0.356236220472441
 20
-0.6022755905511811
 30
0.0
 10
-0.356236220472441
 20
-0.6022755905511811
 30
0.0
 10
-0.351488188976378
 20
-0.6022755905511811
 30
0.0
 10
-0.3469330708661417
 20
-0.601720472440945
 30
0.0
 10
-0.3425708661417323
 20
-0.6006062992125985
 30
0.0
 10
-0.3425708661417323
 20
-0.6006062992125985
 30
0.0
 10
-0.338236220472441
 20
-0.599496062992126
 30
0.0
 10
-0.3347637795275591
 20
-0.5972204724409449
 30
0.0
 10
-0.3321535433070866
 20
-0.593748031496063
 30
0.0
 10
-0.3321535433070866
 20
-0.593748031496063
 30
0.0
 10
-0.3295708661417323
 20
-0.5902755905511812
 30
0.0
 10
-0.3282637795275591
 20
-0.5863307086614173
 30
0.0
 10
-0.3282637795275591
 20
-0.5819409448818897
 30
0.0
 10
-0.3282637795275591
 20
-0.5819409448818897
 30
0.0
 10
-0.3282637795275591
 20
-0.5781377952755906
 30
0.0
 10
-0.3291535433070866
 20
-0.5747204724409449
 30
0.0
 10
-0.3309881889763779
 20
-0.5716929133858268
 30
0.0
 10
-0.3309881889763779
 20
-0.5716929133858268
 30
0.0
 10
-0.3327913385826772
 20
-0.5686377952755906
 30
0.0
 10
-0.3354606299212599
 20
-0.5662204724409449
 30
0.0
 10
-0.338988188976378
 20
-0.5644409448818898
 30
0.0
 10
-0.338988188976378
 20
-0.5644409448818898
 30
0.0
 10
-0.3425157480314961
 20
-0.5626653543307086
 30
0.0
 10
-0.3465984251968504
 20
-0.561748031496063
 30
0.0
 10
-0.3512086614173228
 20
-0.561748031496063
 30
0.0
 10
-0.3512086614173228
 20
-0.561748031496063
 30
0.0
 10
-0.3557086614173228
 20
-0.561748031496063
 30
0.0
 10
-0.3598503937007874
 20
-0.5626929133858268
 30
0.0
 10
-0.3636259842519685
 20
-0.5645236220472442
 30
0.0
 10
-0.3636259842519685
 20
-0.5645236220472442
 30
0.0
 10
-0.3673779527559055
 20
-0.5663582677165354
 30
0.0
 10
-0.3704055118110237
 20
-0.5688307086614174
 30
0.0
 10
-0.3726811023622048
 20
-0.5719409448818897
 30
0.0
 10
-0.3726811023622048
 20
-0.5719409448818897
 30
0.0
 10
-0.3749606299212598
 20
-0.5750236220472441
 30
0.0
 10
-0.3765984251968504
 20
-0.5791377952755906
 30
0.0
 10
-0.3775708661417323
 20
-0.5843031496062993
 30
0.0
  0
SPLINE
  5
39
330
1F
100
AcDbEntity
  8
LAYER_1
 62
   250
100
AcDbSpline
210
0.0
220
0.0
230
1.0
 70
    11
 71
     3
 72
    20
 73
    16
 74
     0
 42
0.0000000001
 43
0.0000000001
 40
0.0
 40
0.0
 40
0.0
 40
0.0
 40
0.25
 40
0.25
 40
0.25
 40
0.25
 40
0.5
 40
0.5
 40
0.5
 40
0.5
 40
0.75
 40
0.75
 40
0.75
 40
0.75
 40
1.0
 40
1.0
 40
1.0
 40
1.0
 10
-0.2147913385826772
 20
-0.5480787401574804
 30
0.0
 10
-0.2147913385826772
 20
-0.5480787401574804
 30
0.0
 10
-0.2703740157480315
 20
-0.7037755905511811
 30
0.0
 10
-0.2703740157480315
 20
-0.7037755905511811
 30
0.0
 10
-0.2703740157480315
 20
-0.7037755905511811
 30
0.0
 10
-0.2703740157480315
 20
-0.7037755905511811
 30
0.0
 10
-0.2824291338582677
 20
-0.7037755905511811
 30
0.0
 10
-0.2824291338582677
 20
-0.7037755905511811
 30
0.0
 10
-0.2824291338582677
 20
-0.7037755905511811
 30
0.0
 10
-0.2824291338582677
 20
-0.7037755905511811
 30
0.0
 10
-0.2271811023622047
 20
-0.5480787401574804
 30
0.0
 10
-0.2271811023622047
 20
-0.5480787401574804
 30
0.0
 10
-0.2271811023622047
 20
-0.5480787401574804
 30
0.0
 10
-0.2271811023622047
 20
-0.5480787401574804
 30
0.0
 10
-0.2147913385826772
 20
-0.5480787401574804
 30
0.0
 10
-0.2147913385826772
 20
-0.5480787401574804
 30
0.0
  0
SPLINE
  5
3A
330
1F
100
AcDbEntity
  8
LAYER_1
 62
   250
100
AcDbSpline
210
0.0
220
0.0
230
1.0
 70
    11
 71
     3
 72
    48
 73
    44
 74
     0
 42
0.0000000001
 43
0.0000000001
 40
0.0
 40
0.0
 40
0.0
 40
0.0
 40
0.0909090909090909
 40
0.0909090909090909
 40
0.0909090909090909
 40
0.0909090909090909
 40
0.1818181818181818
 40
0.1818181818181818
 40
0.1818181818181818
 40
0.1818181818181818
 40
0.2727272727272727
 40
0.2727272727272727
 40
0.2727272727272727
 40
0.2727272727272727
 40
0.3636363636363637
 40
0.3636363636363637
 40
0.3636363636363637
 40
0.3636363636363637
 40
0.4545454545454546
 40
0.4545454545454546
 40
0.4545454545454546
 40
0.4545454545454546
 40
0.5454545454545455
 40
0.5454545454545455
 40
0.5454545454545455
 40
0.5454545454545455
 40
0.6363636363636365
 40
0.6363636363636365
 40
0.6363636363636365
 40
0.6363636363636365
 40
0.7272727272727274
 40
0.7272727272727274
 40
0.7272727272727274
 40
0.7272727272727274
 40
0.8181818181818183
 40
0.8181818181818183
 40
0.8181818181818183
 40
0.8181818181818183
 40
0.9090909090909093
 40
0.9090909090909093
 40
0.9090909090909093
 40
0.9090909090909093
 40
1.0
 40
1.0
 40
1.0
 40
1.0
 10
-0.1358464566929134
 20
-0.5539409448818898
 30
0.0
 10
-0.1358464566929134
 20
-0.5539409448818898
 30
0.0
 10
-0.1220984251968504
 20
-0.5539409448818898
 30
0.0
 10
-0.1220984251968504
 20
-0.5539409448818898
 30
0.0
 10
-0.1220984251968504
 20
-0.5539409448818898
 30
0.0
 10
-0.1220984251968504
 20
-0.5539409448818898
 30
0.0
 10
-0.1220984251968504
 20
-0.6199409448818898
 30
0.0
 10
-0.1220984251968504
 20
-0.6199409448818898
 30
0.0
 10
-0.1220984251968504
 20
-0.6199409448818898
 30
0.0
 10
-0.1220984251968504
 20
-0.6199409448818898
 30
0.0
 10
-0.1007637795275591
 20
-0.6199409448818898
 30
0.0
 10
-0.1007637795275591
 20
-0.6199409448818898
 30
0.0
 10
-0.1007637795275591
 20
-0.6199409448818898
 30
0.0
 10
-0.1007637795275591
 20
-0.6199409448818898
 30
0.0
 10
-0.1007637795275591
 20
-0.6301062992125984
 30
0.0
 10
-0.1007637795275591
 20
-0.6301062992125984
 30
0.0
 10
-0.1007637795275591
 20
-0.6301062992125984
 30
0.0
 10
-0.1007637795275591
 20
-0.6301062992125984
 30
0.0
 10
-0.1220984251968504
 20
-0.6301062992125984
 30
0.0
 10
-0.1220984251968504
 20
-0.6301062992125984
 30
0.0
 10
-0.1220984251968504
 20
-0.6301062992125984
 30
0.0
 10
-0.1220984251968504
 20
-0.6301062992125984
 30
0.0
 10
-0.1220984251968504
 20
-0.6674685039370079
 30
0.0
 10
-0.1220984251968504
 20
-0.6674685039370079
 30
0.0
 10
-0.1220984251968504
 20
-0.6674685039370079
 30
0.0
 10
-0.1220984251968504
 20
-0.6674685039370079
 30
0.0
 10
-0.1358464566929134
 20
-0.6674685039370079
 30
0.0
 10
-0.1358464566929134
 20
-0.6674685039370079
 30
0.0
 10
-0.1358464566929134
 20
-0.6674685039370079
 30
0.0
 10
-0.1358464566929134
 20
-0.6674685039370079
 30
0.0
 10
-0.1358464566929134
 20
-0.6301062992125984
 30
0.0
 10
-0.1358464566929134
 20
-0.6301062992125984
 30
0.0
 10
-0.1358464566929134
 20
-0.6301062992125984
 30
0.0
 10
-0.1358464566929134
 20
-0.6301062992125984
 30
0.0
 10
-0.1893188976377953
 20
-0.6301062992125984
 30
0.0
 10
-0.1893188976377953
 20
-0.6301062992125984
 30
0.0
 10
-0.1893188976377953
 20
-0.6301062992125984
 30
0.0
 10
-0.1893188976377953
 20
-0.6301062992125984
 30
0.0
 10
-0.1893188976377953
 20
-0.6158031496062992
 30
0.0
 10
-0.1893188976377953
 20
-0.6158031496062992
 30
0.0
 10
-0.1893188976377953
 20
-0.6158031496062992
 30
0.0
 10
-0.1893188976377953
 20
-0.6158031496062992
 30
0.0
 10
-0.1358464566929134
 20
-0.5539409448818898
 30
0.0
 10
-0.1358464566929134
 20
-0.5539409448818898
 30
0.0
  0
SPLINE
  5
3B
330
1F
100
AcDbEntity
  8
LAYER_1
 62
   250
100
AcDbSpline
210
0.0
220
0.0
230
1.0
 70
    11
 71
     3
 72
    16
 73
    12
 74
     0
 42
0.0000000001
 43
0.0000000001
 40
0.0
 40
0.0
 40
0.0
 40
0.0
 40
0.3333333333333333
 40
0.3333333333333333
 40
0.3333333333333333
 40
0.3333333333333333
 40
0.6666666666666666
 40
0.6666666666666666
 40
0.6666666666666666
 40
0.6666666666666666
 40
1.0
 40
1.0
 40
1.0
 40
1.0
 10
-0.1358464566929134
 20
-0.6199409448818898
 30
0.0
 10
-0.1358464566929134
 20
-0.6199409448818898
 30
0.0
 10
-0.1358464566929134
 20
-0.5665511811023622
 30
0.0
 10
-0.1358464566929134
 20
-0.5665511811023622
 30
0.0
 10
-0.1358464566929134
 20
-0.5665511811023622
 30
0.0
 10
-0.1358464566929134
 20
-0.5665511811023622
 30
0.0
 10
-0.1819015748031496
 20
-0.6199409448818898
 30
0.0
 10
-0.1819015748031496
 20
-0.6199409448818898
 30
0.0
 10
-0.1819015748031496
 20
-0.6199409448818898
 30
0.0
 10
-0.1819015748031496
 20
-0.6199409448818898
 30
0.0
 10
-0.1358464566929134
 20
-0.6199409448818898
 30
0.0
 10
-0.1358464566929134
 20
-0.6199409448818898
 30
0.0
  0
SPLINE
  5
3C
330
1F
100
AcDbEntity
  8
LAYER_1
 62
   250
100
AcDbSpline
210
0.0
220
0.0
230
1.0
 70
    11
 71
     3
 72
    60
 73
    56
 74
     0
 42
0.0000000001
 43
0.0000000001
 40
0.0
 40
0.0
 40
0.0
 40
0.0
 40
0.0714285714285714
 40
0.0714285714285714
 40
0.0714285714285714
 40
0.0714285714285714
 40
0.1428571428571429
 40
0.1428571428571429
 40
0.1428571428571429
 40
0.1428571428571429
 40
0.2142857142857143
 40
0.2142857142857143
 40
0.2142857142857143
 40
0.2142857142857143
 40
0.2857142857142857
 40
0.2857142857142857
 40
0.2857142857142857
 40
0.2857142857142857
 40
0.3571428571428571
 40
0.3571428571428571
 40
0.3571428571428571
 40
0.3571428571428571
 40
0.4285714285714285
 40
0.4285714285714285
 40
0.4285714285714285
 40
0.4285714285714285
 40
0.4999999999999999
 40
0.4999999999999999
 40
0.4999999999999999
 40
0.4999999999999999
 40
0.5714285714285713
 40
0.5714285714285713
 40
0.5714285714285713
 40
0.5714285714285713
 40
0.6428571428571427
 40
0.6428571428571427
 40
0.6428571428571427
 40
0.6428571428571427
 40
0.7142857142857141
 40
0.7142857142857141
 40
0.7142857142857141
 40
0.7142857142857141
 40
0.7857142857142855
 40
0.7857142857142855
 40
0.7857142857142855
 40
0.7857142857142855
 40
0.8571428571428569
 40
0.8571428571428569
 40
0.8571428571428569
 40
0.8571428571428569
 40
0.9285714285714283
 40
0.9285714285714283
 40
0.9285714285714283
 40
0.9285714285714283
 40
1.0
 40
1.0
 40
1.0
 40
1.0
 10
-0.0827913385826772
 20
-0.5960236220472441
 30
0.0
 10
-0.0827913385826772
 20
-0.5960236220472441
 30
0.0
 10
-0.0871811023622047
 20
-0.5906338582677165
 30
0.0
 10
-0.0871811023622047
 20
-0.5906338582677165
 30
0.0
 10
-0.0871811023622047
 20
-0.5906338582677165
 30
0.0
 10
-0.0760669291338583
 20
-0.5815787401574804
 30
0.0
 10
-0.0704842519685039
 20
-0.5740236220472441
 30
0.0
 10
-0.0704842519685039
 20
-0.5679409448818897
 30
0.0
 10
-0.0704842519685039
 20
-0.5679409448818897
 30
0.0
 10
-0.0704842519685039
 20
-0.5672480314960631
 30
0.0
 10
-0.0705393700787402
 20
-0.5663582677165354
 30
0.0
 10
-0.0706535433070866
 20
-0.5653307086614173
 30
0.0
 10
-0.0706535433070866
 20
-0.5653307086614173
 30
0.0
 10
-0.0715669291338583
 20
-0.5657204724409449
 30
0.0
 10
-0.0724842519685039
 20
-0.5660236220472441
 30
0.0
 10
-0.0733464566929134
 20
-0.5662204724409449
 30
0.0
 10
-0.0733464566929134
 20
-0.5662204724409449
 30
0.0
 10
-0.0742086614173228
 20
-0.5664409448818898
 30
0.0
 10
-0.075011811023622
 20
-0.5665511811023622
 30
0.0
 10
-0.0757913385826772
 20
-0.5665511811023622
 30
0.0
 10
-0.0757913385826772
 20
-0.5665511811023622
 30
0.0
 10
-0.0784015748031496
 20
-0.5665511811023622
 30
0.0
 10
-0.0804842519685039
 20
-0.5657204724409449
 30
0.0
 10
-0.0820393700787402
 20
-0.5640236220472441
 30
0.0
 10
-0.0820393700787402
 20
-0.5640236220472441
 30
0.0
 10
-0.0836259842519685
 20
-0.5623582677165354
 30
0.0
 10
-0.0844015748031496
 20
-0.5602204724409449
 30
0.0
 10
-0.0844015748031496
 20
-0.5576062992125984
 30
0.0
 10
-0.0844015748031496
 20
-0.5576062992125984
 30
0.0
 10
-0.0844015748031496
 20
-0.5550511811023622
 30
0.0
 10
-0.0834566929133858
 20
-0.5528307086614174
 30
0.0
 10
-0.0815669291338583
 20
-0.5509409448818898
 30
0.0
 10
-0.0815669291338583
 20
-0.5509409448818898
 30
0.0
 10
-0.0796535433070866
 20
-0.5490236220472441
 30
0.0
 10
-0.0773740157480315
 20
-0.5480787401574804
 30
0.0
 10
-0.074736220472441
 20
-0.5480787401574804
 30
0.0
 10
-0.074736220472441
 20
-0.5480787401574804
 30
0.0
 10
-0.0710393700787402
 20
-0.5480787401574804
 30
0.0
 10
-0.0678740157480315
 20
-0.5495511811023622
 30
0.0
 10
-0.0652362204724409
 20
-0.5525236220472442
 30
0.0
 10
-0.0652362204724409
 20
-0.5525236220472442
 30
0.0
 10
-0.0626259842519685
 20
-0.5554685039370079
 30
0.0
 10
-0.0612913385826772
 20
-0.5592755905511812
 30
0.0
 10
-0.0612913385826772
 20
-0.5639409448818898
 30
0.0
 10
-0.0612913385826772
 20
-0.5639409448818898
 30
0.0
 10
-0.0612913385826772
 20
-0.566996062992126
 30
0.0
 10
-0.0619291338582677
 20
-0.5701929133858268
 30
0.0
 10
-0.0631811023622047
 20
-0.5735236220472442
 30
0.0
 10
-0.0631811023622047
 20
-0.5735236220472442
 30
0.0
 10
-0.0644291338582677
 20
-0.5768582677165355
 30
0.0
 10
-0.0662362204724409
 20
-0.5799409448818897
 30
0.0
 10
-0.0686259842519685
 20
-0.5828031496062992
 30
0.0
 10
-0.0686259842519685
 20
-0.5828031496062992
 30
0.0
 10
-0.0710118110236221
 20
-0.5856338582677165
 30
0.0
 10
-0.075736220472441
 20
-0.5900511811023622
 30
0.0
 10
-0.0827913385826772
 20
-0.5960236220472441
 30
0.0
  0
SPLINE
  5
3D
330
1F
100
AcDbEntity
  8
LAYER_1
 62
   250
100
AcDbSpline
210
0.0
220
0.0
230
1.0
 70
    11
 71
     3
 72
    60
 73
    56
 74
     0
 42
0.0000000001
 43
0.0000000001
 40
0.0
 40
0.0
 40
0.0
 40
0.0
 40
0.0714285714285714
 40
0.0714285714285714
 40
0.0714285714285714
 40
0.0714285714285714
 40
0.1428571428571429
 40
0.1428571428571429
 40
0.1428571428571429
 40
0.1428571428571429
 40
0.2142857142857143
 40
0.2142857142857143
 40
0.2142857142857143
 40
0.2142857142857143
 40
0.2857142857142857
 40
0.2857142857142857
 40
0.2857142857142857
 40
0.2857142857142857
 40
0.3571428571428571
 40
0.3571428571428571
 40
0.3571428571428571
 40
0.3571428571428571
 40
0.4285714285714285
 40
0.4285714285714285
 40
0.4285714285714285
 40
0.4285714285714285
 40
0.4999999999999999
 40
0.4999999999999999
 40
0.4999999999999999
 40
0.4999999999999999
 40
0.5714285714285713
 40
0.5714285714285713
 40
0.5714285714285713
 40
0.5714285714285713
 40
0.6428571428571427
 40
0.6428571428571427
 40
0.6428571428571427
 40
0.6428571428571427
 40
0.7142857142857141
 40
0.7142857142857141
 40
0.7142857142857141
 40
0.7142857142857141
 40
0.7857142857142855
 40
0.7857142857142855
 40
0.7857142857142855
 40
0.7857142857142855
 40
0.8571428571428569
 40
0.8571428571428569
 40
0.8571428571428569
 40
0.8571428571428569
 40
0.9285714285714283
 40
0.9285714285714283
 40
0.9285714285714283
 40
0.9285714285714283
 40
1.0
 40
1.0
 40
1.0
 40
1.0
 10
-0.0537362204724409
 20
-0.5960236220472441
 30
0.0
 10
-0.0537362204724409
 20
-0.5960236220472441
 30
0.0
 10
-0.0581259842519685
 20
-0.5906338582677165
 30
0.0
 10
-0.0581259842519685
 20
-0.5906338582677165
 30
0.0
 10
-0.0581259842519685
 20
-0.5906338582677165
 30
0.0
 10
-0.047011811023622
 20
-0.5815787401574804
 30
0.0
 10
-0.0414291338582677
 20
-0.5740236220472441
 30
0.0
 10
-0.0414291338582677
 20
-0.5679409448818897
 30
0.0
 10
-0.0414291338582677
 20
-0.5679409448818897
 30
0.0
 10
-0.0414291338582677
 20
-0.5672480314960631
 30
0.0
 10
-0.0414842519685039
 20
-0.5663582677165354
 30
0.0
 10
-0.0415984251968504
 20
-0.5653307086614173
 30
0.0
 10
-0.0415984251968504
 20
-0.5653307086614173
 30
0.0
 10
-0.0425118110236221
 20
-0.5657204724409449
 30
0.0
 10
-0.0434291338582677
 20
-0.5660236220472441
 30
0.0
 10
-0.0442913385826772
 20
-0.5662204724409449
 30
0.0
 10
-0.0442913385826772
 20
-0.5662204724409449
 30
0.0
 10
-0.0451535433070866
 20
-0.5664409448818898
 30
0.0
 10
-0.0459842519685039
 20
-0.5665511811023622
 30
0.0
 10
-0.0468188976377953
 20
-0.5665511811023622
 30
0.0
 10
-0.0468188976377953
 20
-0.5665511811023622
 30
0.0
 10
-0.0493740157480315
 20
-0.5665511811023622
 30
0.0
 10
-0.0514291338582677
 20
-0.5657204724409449
 30
0.0
 10
-0.0529842519685039
 20
-0.5640236220472441
 30
0.0
 10
-0.0529842519685039
 20
-0.5640236220472441
 30
0.0
 10
-0.0545669291338583
 20
-0.5623582677165354
 30
0.0
 10
-0.0553464566929134
 20
-0.5602204724409449
 30
0.0
 10
-0.0553464566929134
 20
-0.5576062992125984
 30
0.0
 10
-0.0553464566929134
 20
-0.5576062992125984
 30
0.0
 10
-0.0553464566929134
 20
-0.5550511811023622
 30
0.0
 10
-0.0544015748031496
 20
-0.5528307086614174
 30
0.0
 10
-0.052511811023622
 20
-0.5509409448818898
 30
0.0
 10
-0.052511811023622
 20
-0.5509409448818898
 30
0.0
 10
-0.0506259842519685
 20
-0.5490236220472441
 30
0.0
 10
-0.0483188976377953
 20
-0.5480787401574804
 30
0.0
 10
-0.0456811023622047
 20
-0.5480787401574804
 30
0.0
 10
-0.0456811023622047
 20
-0.5480787401574804
 30
0.0
 10
-0.0419842519685039
 20
-0.5480787401574804
 30
0.0
 10
-0.0388188976377953
 20
-0.5495511811023622
 30
0.0
 10
-0.0361811023622047
 20
-0.5525236220472442
 30
0.0
 10
-0.0361811023622047
 20
-0.5525236220472442
 30
0.0
 10
-0.0335708661417323
 20
-0.5554685039370079
 30
0.0
 10
-0.0322362204724409
 20
-0.5592755905511812
 30
0.0
 10
-0.0322362204724409
 20
-0.5639409448818898
 30
0.0
 10
-0.0322362204724409
 20
-0.5639409448818898
 30
0.0
 10
-0.0322362204724409
 20
-0.566996062992126
 30
0.0
 10
-0.0328740157480315
 20
-0.5701929133858268
 30
0.0
 10
-0.0341259842519685
 20
-0.5735236220472442
 30
0.0
 10
-0.0341259842519685
 20
-0.5735236220472442
 30
0.0
 10
-0.0353740157480315
 20
-0.5768582677165355
 30
0.0
 10
-0.0371811023622047
 20
-0.5799409448818897
 30
0.0
 10
-0.0395669291338583
 20
-0.5828031496062992
 30
0.0
 10
-0.0395669291338583
 20
-0.5828031496062992
 30
0.0
 10
-0.0419566929133858
 20
-0.5856338582677165
 30
0.0
 10
-0.0466811023622047
 20
-0.5900511811023622
 30
0.0
 10
-0.0537362204724409
 20
-0.5960236220472441
 30
0.0
  0
SPLINE
  5
3E
330
1F
100
AcDbEntity
  8
LAYER_1
 62
   253
100
AcDbSpline
210
0.0
220
0.0
230
1.0
 70
    11
 71
     3
 72
    20
 73
    16
 74
     0
 42
0.0000000001
 43
0.0000000001
 40
0.0
 40
0.0
 40
0.0
 40
0.0
 40
0.25
 40
0.25
 40
0.25
 40
0.25
 40
0.5
 40
0.5
 40
0.5
 40
0.5
 40
0.75
 40
0.75
 40
0.75
 40
0.75
 40
1.0
 40
1.0
 40
1.0
 40
1.0
 10
0.3125590551181103
 20
1.943338582677165
 30
0.0
 10
0.3125590551181103
 20
1.943338582677165
 30
0.0
 10
0.9646102362204725
 20
2.32092125984252
 30
0.0
 10
0.9646102362204725
 20
2.32092125984252
 30
0.0
 10
0.9646102362204725
 20
2.32092125984252
 30
0.0
 10
0.9646102362204725
 20
2.32092125984252
 30
0.0
 10
0.9646102362204725
 20
2.44592125984252
 30
0.0
 10
0.9646102362204725
 20
2.44592125984252
 30
0.0
 10
0.9646102362204725
 20
2.44592125984252
 30
0.0
 10
0.9646102362204725
 20
2.44592125984252
 30
0.0
 10
0.3125590551181103
 20
2.068338582677165
 30
0.0
 10
0.3125590551181103
 20
2.068338582677165
 30
0.0
 10
0.3125590551181103
 20
2.068338582677165
 30
0.0
 10
0.3125590551181103
 20
2.068338582677165
 30
0.0
 10
0.3125590551181103
 20
1.943338582677165
 30
0.0
 10
0.3125590551181103
 20
1.943338582677165
 30
0.0
  0
SPLINE
  5
3F
330
1F
100
AcDbEntity
  8
LAYER_1
 62
   250
100
AcDbSpline
210
0.0
220
0.0
230
1.0
 70
    11
 71
     3
 72
    20
 73
    16
 74
     0
 42
0.0000000001
 43
0.0000000001
 40
0.0
 40
0.0
 40
0.0
 40
0.0
 40
0.25
 40
0.25
 40
0.25
 40
0.25
 40
0.5
 40
0.5
 40
0.5
 40
0.5
 40
0.75
 40
0.75
 40
0.75
 40
0.75
 40
1.0
 40
1.0
 40
1.0
 40
1.0
 10
0.3125590551181103
 20
1.943338582677165
 30
0.0
 10
0.3125590551181103
 20
1.943338582677165
 30
0.0
 10
0.9646102362204725
 20
2.32092125984252
 30
0.0
 10
0.9646102362204725
 20
2.32092125984252
 30
0.0
 10
0.9646102362204725
 20
2.32092125984252
 30
0.0
 10
0.9646102362204725
 20
2.32092125984252
 30
0.0
 10
0.9646102362204725
 20
2.44592125984252
 30
0.0
 10
0.9646102362204725
 20
2.44592125984252
 30
0.0
 10
0.9646102362204725
 20
2.44592125984252
 30
0.0
 10
0.9646102362204725
 20
2.44592125984252
 30
0.0
 10
0.3125590551181103
 20
2.068338582677165
 30
0.0
 10
0.3125590551181103
 20
2.068338582677165
 30
0.0
 10
0.3125590551181103
 20
2.068338582677165
 30
0.0
 10
0.3125590551181103
 20
2.068338582677165
 30
0.0
 10
0.3125590551181103
 20
1.943338582677165
 30
0.0
 10
0.3125590551181103
 20
1.943338582677165
 30
0.0
  0
SPLINE
  5
40
330
1F
100
AcDbEntity
  8
LAYER_1
 62
   252
100
AcDbSpline
210
0.0
220
0.0
230
1.0
 70
    11
 71
     3
 72
    44
 73
    40
 74
     0
 42
0.0000000001
 43
0.0000000001
 40
0.0
 40
0.0
 40
0.0
 40
0.0
 40
0.1
 40
0.1
 40
0.1
 40
0.1
 40
0.2
 40
0.2
 40
0.2
 40
0.2
 40
0.3
 40
0.3
 40
0.3
 40
0.3
 40
0.4
 40
0.4
 40
0.4
 40
0.4
 40
0.5
 40
0.5
 40
0.5
 40
0.5
 40
0.6
 40
0.6
 40
0.6
 40
0.6
 40
0.7
 40
0.7
 40
0.7
 40
0.7
 40
0.7999999999999999
 40
0.7999999999999999
 40
0.7999999999999999
 40
0.7999999999999999
 40
0.8999999999999999
 40
0.8999999999999999
 40
0.8999999999999999
 40
0.8999999999999999
 40
1.0
 40
1.0
 40
1.0
 40
1.0
 10
0.4421771653543307
 20
2.104531496062992
 30
0.0
 10
0.4421771653543307
 20
2.104531496062992
 30
0.0
 10
1.094228346456693
 20
2.482114173228347
 30
0.0
 10
1.094228346456693
 20
2.482114173228347
 30
0.0
 10
1.094228346456693
 20
2.482114173228347
 30
0.0
 10
1.094228346456693
 20
2.482114173228347
 30
0.0
 10
1.104374015748032
 20
2.48861811023622
 30
0.0
 10
1.104374015748032
 20
2.48861811023622
 30
0.0
 10
1.104374015748032
 20
2.48861811023622
 30
0.0
 10
1.104374015748032
 20
2.48861811023622
 30
0.0
 10
1.114173228346457
 20
2.495586614173229
 30
0.0
 10
1.114173228346457
 20
2.495586614173229
 30
0.0
 10
1.114173228346457
 20
2.495586614173229
 30
0.0
 10
1.114173228346457
 20
2.495586614173229
 30
0.0
 10
1.123618110236221
 20
2.503011811023622
 30
0.0
 10
1.123618110236221
 20
2.503011811023622
 30
0.0
 10
1.123618110236221
 20
2.503011811023622
 30
0.0
 10
1.123618110236221
 20
2.503011811023622
 30
0.0
 10
1.132688976377953
 20
2.510870078740158
 30
0.0
 10
1.132688976377953
 20
2.510870078740158
 30
0.0
 10
1.132688976377953
 20
2.510870078740158
 30
0.0
 10
1.132688976377953
 20
2.510870078740158
 30
0.0
 10
0.4806377952755906
 20
2.133287401574803
 30
0.0
 10
0.4806377952755906
 20
2.133287401574803
 30
0.0
 10
0.4806377952755906
 20
2.133287401574803
 30
0.0
 10
0.4806377952755906
 20
2.133287401574803
 30
0.0
 10
0.4715669291338583
 20
2.125429133858268
 30
0.0
 10
0.4715669291338583
 20
2.125429133858268
 30
0.0
 10
0.4715669291338583
 20
2.125429133858268
 30
0.0
 10
0.4715669291338583
 20
2.125429133858268
 30
0.0
 10
0.4621220472440945
 20
2.118003937007874
 30
0.0
 10
0.4621220472440945
 20
2.118003937007874
 30
0.0
 10
0.4621220472440945
 20
2.118003937007874
 30
0.0
 10
0.4621220472440945
 20
2.118003937007874
 30
0.0
 10
0.4523228346456693
 20
2.111035433070866
 30
0.0
 10
0.4523228346456693
 20
2.111035433070866
 30
0.0
 10
0.4523228346456693
 20
2.111035433070866
 30
0.0
 10
0.4523228346456693
 20
2.111035433070866
 30
0.0
 10
0.4421771653543307
 20
2.104531496062992
 30
0.0
 10
0.4421771653543307
 20
2.104531496062992
 30
0.0
  0
SPLINE
  5
41
330
1F
100
AcDbEntity
  8
LAYER_1
 62
   253
100
AcDbSpline
210
0.0
220
0.0
230
1.0
 70
    11
 71
     3
 72
    44
 73
    40
 74
     0
 42
0.0000000001
 43
0.0000000001
 40
0.0
 40
0.0
 40
0.0
 40
0.0
 40
0.1
 40
0.1
 40
0.1
 40
0.1
 40
0.2
 40
0.2
 40
0.2
 40
0.2
 40
0.3
 40
0.3
 40
0.3
 40
0.3
 40
0.4
 40
0.4
 40
0.4
 40
0.4
 40
0.5
 40
0.5
 40
0.5
 40
0.5
 40
0.6
 40
0.6
 40
0.6
 40
0.6
 40
0.7
 40
0.7
 40
0.7
 40
0.7
 40
0.7999999999999999
 40
0.7999999999999999
 40
0.7999999999999999
 40
0.7999999999999999
 40
0.8999999999999999
 40
0.8999999999999999
 40
0.8999999999999999
 40
0.8999999999999999
 40
1.0
 40
1.0
 40
1.0
 40
1.0
 10
0.4806377952755906
 20
2.133287401574803
 30
0.0
 10
0.4806377952755906
 20
2.133287401574803
 30
0.0
 10
1.132688976377953
 20
2.510870078740158
 30
0.0
 10
1.132688976377953
 20
2.510870078740158
 30
0.0
 10
1.132688976377953
 20
2.510870078740158
 30
0.0
 10
1.132688976377953
 20
2.510870078740158
 30
0.0
 10
1.141377952755906
 20
2.519153543307087
 30
0.0
 10
1.141377952755906
 20
2.519153543307087
 30
0.0
 10
1.141377952755906
 20
2.519153543307087
 30
0.0
 10
1.141377952755906
 20
2.519153543307087
 30
0.0
 10
1.149653543307087
 20
2.527830708661417
 30
0.0
 10
1.149653543307087
 20
2.527830708661417
 30
0.0
 10
1.149653543307087
 20
2.527830708661417
 30
0.0
 10
1.149653543307087
 20
2.527830708661417
 30
0.0
 10
1.157511811023622
 20
2.536905511811024
 30
0.0
 10
1.157511811023622
 20
2.536905511811024
 30
0.0
 10
1.157511811023622
 20
2.536905511811024
 30
0.0
 10
1.157511811023622
 20
2.536905511811024
 30
0.0
 10
1.164929133858268
 20
2.546346456692914
 30
0.0
 10
1.164929133858268
 20
2.546346456692914
 30
0.0
 10
1.164929133858268
 20
2.546346456692914
 30
0.0
 10
1.164929133858268
 20
2.546346456692914
 30
0.0
 10
0.5128779527559055
 20
2.168763779527559
 30
0.0
 10
0.5128779527559055
 20
2.168763779527559
 30
0.0
 10
0.5128779527559055
 20
2.168763779527559
 30
0.0
 10
0.5128779527559055
 20
2.168763779527559
 30
0.0
 10
0.5054606299212598
 20
2.159322834645669
 30
0.0
 10
0.5054606299212598
 20
2.159322834645669
 30
0.0
 10
0.5054606299212598
 20
2.159322834645669
 30
0.0
 10
0.5054606299212598
 20
2.159322834645669
 30
0.0
 10
0.4976023622047244
 20
2.150248031496063
 30
0.0
 10
0.4976023622047244
 20
2.150248031496063
 30
0.0
 10
0.4976023622047244
 20
2.150248031496063
 30
0.0
 10
0.4976023622047244
 20
2.150248031496063
 30
0.0
 10
0.4893267716535433
 20
2.141570866141732
 30
0.0
 10
0.4893267716535433
 20
2.141570866141732
 30
0.0
 10
0.4893267716535433
 20
2.141570866141732
 30
0.0
 10
0.4893267716535433
 20
2.141570866141732
 30
0.0
 10
0.4806377952755906
 20
2.133287401574803
 30
0.0
 10
0.4806377952755906
 20
2.133287401574803
 30
0.0
  0
SPLINE
  5
42
330
1F
100
AcDbEntity
  8
LAYER_1
 62
   253
100
AcDbSpline
210
0.0
220
0.0
230
1.0
 70
    11
 71
     3
 72
    44
 73
    40
 74
     0
 42
0.0000000001
 43
0.0000000001
 40
0.0
 40
0.0
 40
0.0
 40
0.0
 40
0.1
 40
0.1
 40
0.1
 40
0.1
 40
0.2
 40
0.2
 40
0.2
 40
0.2
 40
0.3
 40
0.3
 40
0.3
 40
0.3
 40
0.4
 40
0.4
 40
0.4
 40
0.4
 40
0.5
 40
0.5
 40
0.5
 40
0.5
 40
0.6
 40
0.6
 40
0.6
 40
0.6
 40
0.7
 40
0.7
 40
0.7
 40
0.7
 40
0.7999999999999999
 40
0.7999999999999999
 40
0.7999999999999999
 40
0.7999999999999999
 40
0.8999999999999999
 40
0.8999999999999999
 40
0.8999999999999999
 40
0.8999999999999999
 40
1.0
 40
1.0
 40
1.0
 40
1.0
 10
0.5128779527559055
 20
2.168763779527559
 30
0.0
 10
0.5128779527559055
 20
2.168763779527559
 30
0.0
 10
1.164929133858268
 20
2.546346456692914
 30
0.0
 10
1.164929133858268
 20
2.546346456692914
 30
0.0
 10
1.164929133858268
 20
2.546346456692914
 30
0.0
 10
1.164929133858268
 20
2.546346456692914
 30
0.0
 10
1.171905511811024
 20
2.556149606299213
 30
0.0
 10
1.171905511811024
 20
2.556149606299213
 30
0.0
 10
1.171905511811024
 20
2.556149606299213
 30
0.0
 10
1.171905511811024
 20
2.556149606299213
 30
0.0
 10
1.178405511811024
 20
2.566287401574803
 30
0.0
 10
1.178405511811024
 20
2.566287401574803
 30
0.0
 10
1.178405511811024
 20
2.566287401574803
 30
0.0
 10
1.178405511811024
 20
2.566287401574803
 30
0.0
 10
1.184425196850394
 20
2.576759842519685
 30
0.0
 10
1.184425196850394
 20
2.576759842519685
 30
0.0
 10
1.184425196850394
 20
2.576759842519685
 30
0.0
 10
1.184425196850394
 20
2.576759842519685
 30
0.0
 10
1.189944881889764
 20
2.58753937007874
 30
0.0
 10
1.189944881889764
 20
2.58753937007874
 30
0.0
 10
1.189944881889764
 20
2.58753937007874
 30
0.0
 10
1.189944881889764
 20
2.58753937007874
 30
0.0
 10
0.5378937007874016
 20
2.209956692913386
 30
0.0
 10
0.5378937007874016
 20
2.209956692913386
 30
0.0
 10
0.5378937007874016
 20
2.209956692913386
 30
0.0
 10
0.5378937007874016
 20
2.209956692913386
 30
0.0
 10
0.5323740157480316
 20
2.199177165354331
 30
0.0
 10
0.5323740157480316
 20
2.199177165354331
 30
0.0
 10
0.5323740157480316
 20
2.199177165354331
 30
0.0
 10
0.5323740157480316
 20
2.199177165354331
 30
0.0
 10
0.5263543307086614
 20
2.188704724409449
 30
0.0
 10
0.5263543307086614
 20
2.188704724409449
 30
0.0
 10
0.5263543307086614
 20
2.188704724409449
 30
0.0
 10
0.5263543307086614
 20
2.188704724409449
 30
0.0
 10
0.5198543307086614
 20
2.178566929133858
 30
0.0
 10
0.5198543307086614
 20
2.178566929133858
 30
0.0
 10
0.5198543307086614
 20
2.178566929133858
 30
0.0
 10
0.5198543307086614
 20
2.178566929133858
 30
0.0
 10
0.5128779527559055
 20
2.168763779527559
 30
0.0
 10
0.5128779527559055
 20
2.168763779527559
 30
0.0
  0
SPLINE
  5
43
330
1F
100
AcDbEntity
  8
LAYER_1
 62
   253
100
AcDbSpline
210
0.0
220
0.0
230
1.0
 70
    11
 71
     3
 72
    44
 73
    40
 74
     0
 42
0.0000000001
 43
0.0000000001
 40
0.0
 40
0.0
 40
0.0
 40
0.0
 40
0.1
 40
0.1
 40
0.1
 40
0.1
 40
0.2
 40
0.2
 40
0.2
 40
0.2
 40
0.3
 40
0.3
 40
0.3
 40
0.3
 40
0.4
 40
0.4
 40
0.4
 40
0.4
 40
0.5
 40
0.5
 40
0.5
 40
0.5
 40
0.6
 40
0.6
 40
0.6
 40
0.6
 40
0.7
 40
0.7
 40
0.7
 40
0.7
 40
0.7999999999999999
 40
0.7999999999999999
 40
0.7999999999999999
 40
0.7999999999999999
 40
0.8999999999999999
 40
0.8999999999999999
 40
0.8999999999999999
 40
0.8999999999999999
 40
1.0
 40
1.0
 40
1.0
 40
1.0
 10
0.5378937007874016
 20
2.209956692913386
 30
0.0
 10
0.5378937007874016
 20
2.209956692913386
 30
0.0
 10
1.189944881889764
 20
2.58753937007874
 30
0.0
 10
1.189944881889764
 20
2.58753937007874
 30
0.0
 10
1.189944881889764
 20
2.58753937007874
 30
0.0
 10
1.189944881889764
 20
2.58753937007874
 30
0.0
 10
1.194956692913386
 20
2.598618110236221
 30
0.0
 10
1.194956692913386
 20
2.598618110236221
 30
0.0
 10
1.194956692913386
 20
2.598618110236221
 30
0.0
 10
1.194956692913386
 20
2.598618110236221
 30
0.0
 10
1.199429133858268
 20
2.609964566929134
 30
0.0
 10
1.199429133858268
 20
2.609964566929134
 30
0.0
 10
1.199429133858268
 20
2.609964566929134
 30
0.0
 10
1.199429133858268
 20
2.609964566929134
 30
0.0
 10
1.20336220472441
 20
2.621582677165355
 30
0.0
 10
1.20336220472441
 20
2.621582677165355
 30
0.0
 10
1.20336220472441
 20
2.621582677165355
 30
0.0
 10
1.20336220472441
 20
2.621582677165355
 30
0.0
 10
1.206732283464567
 20
2.63344094488189
 30
0.0
 10
1.206732283464567
 20
2.63344094488189
 30
0.0
 10
1.206732283464567
 20
2.63344094488189
 30
0.0
 10
1.206732283464567
 20
2.63344094488189
 30
0.0
 10
0.5546811023622047
 20
2.255858267716536
 30
0.0
 10
0.5546811023622047
 20
2.255858267716536
 30
0.0
 10
0.5546811023622047
 20
2.255858267716536
 30
0.0
 10
0.5546811023622047
 20
2.255858267716536
 30
0.0
 10
0.5513110236220473
 20
2.244
 30
0.0
 10
0.5513110236220473
 20
2.244
 30
0.0
 10
0.5513110236220473
 20
2.244
 30
0.0
 10
0.5513110236220473
 20
2.244
 30
0.0
 10
0.5473779527559055
 20
2.23238188976378
 30
0.0
 10
0.5473779527559055
 20
2.23238188976378
 30
0.0
 10
0.5473779527559055
 20
2.23238188976378
 30
0.0
 10
0.5473779527559055
 20
2.23238188976378
 30
0.0
 10
0.5429055118110236
 20
2.221035433070866
 30
0.0
 10
0.5429055118110236
 20
2.221035433070866
 30
0.0
 10
0.5429055118110236
 20
2.221035433070866
 30
0.0
 10
0.5429055118110236
 20
2.221035433070866
 30
0.0
 10
0.5378937007874016
 20
2.209956692913386
 30
0.0
 10
0.5378937007874016
 20
2.209956692913386
 30
0.0
  0
SPLINE
  5
44
330
1F
100
AcDbEntity
  8
LAYER_1
 62
   253
100
AcDbSpline
210
0.0
220
0.0
230
1.0
 70
    11
 71
     3
 72
    36
 73
    32
 74
     0
 42
0.0000000001
 43
0.0000000001
 40
0.0
 40
0.0
 40
0.0
 40
0.0
 40
0.125
 40
0.125
 40
0.125
 40
0.125
 40
0.25
 40
0.25
 40
0.25
 40
0.25
 40
0.375
 40
0.375
 40
0.375
 40
0.375
 40
0.5
 40
0.5
 40
0.5
 40
0.5
 40
0.625
 40
0.625
 40
0.625
 40
0.625
 40
0.75
 40
0.75
 40
0.75
 40
0.75
 40
0.875
 40
0.875
 40
0.875
 40
0.875
 40
1.0
 40
1.0
 40
1.0
 40
1.0
 10
0.5546811023622047
 20
2.255858267716536
 30
0.0
 10
0.5546811023622047
 20
2.255858267716536
 30
0.0
 10
1.206732283464567
 20
2.63344094488189
 30
0.0
 10
1.206732283464567
 20
2.63344094488189
 30
0.0
 10
1.206732283464567
 20
2.63344094488189
 30
0.0
 10
1.206732283464567
 20
2.63344094488189
 30
0.0
 10
1.209527559055118
 20
2.64553937007874
 30
0.0
 10
1.209527559055118
 20
2.64553937007874
 30
0.0
 10
1.209527559055118
 20
2.64553937007874
 30
0.0
 10
1.209527559055118
 20
2.64553937007874
 30
0.0
 10
1.211720472440945
 20
2.657846456692913
 30
0.0
 10
1.211720472440945
 20
2.657846456692913
 30
0.0
 10
1.211720472440945
 20
2.657846456692913
 30
0.0
 10
1.211720472440945
 20
2.657846456692913
 30
0.0
 10
1.213314960629921
 20
2.670358267716535
 30
0.0
 10
1.213314960629921
 20
2.670358267716535
 30
0.0
 10
1.213314960629921
 20
2.670358267716535
 30
0.0
 10
1.213314960629921
 20
2.670358267716535
 30
0.0
 10
0.5612637795275591
 20
2.292775590551181
 30
0.0
 10
0.5612637795275591
 20
2.292775590551181
 30
0.0
 10
0.5612637795275591
 20
2.292775590551181
 30
0.0
 10
0.5612637795275591
 20
2.292775590551181
 30
0.0
 10
0.5596692913385827
 20
2.280263779527559
 30
0.0
 10
0.5596692913385827
 20
2.280263779527559
 30
0.0
 10
0.5596692913385827
 20
2.280263779527559
 30
0.0
 10
0.5596692913385827
 20
2.280263779527559
 30
0.0
 10
0.557476377952756
 20
2.267956692913386
 30
0.0
 10
0.557476377952756
 20
2.267956692913386
 30
0.0
 10
0.557476377952756
 20
2.267956692913386
 30
0.0
 10
0.557476377952756
 20
2.267956692913386
 30
0.0
 10
0.5546811023622047
 20
2.255858267716536
 30
0.0
 10
0.5546811023622047
 20
2.255858267716536
 30
0.0
  0
SPLINE
  5
45
330
1F
100
AcDbEntity
  8
LAYER_1
 62
   253
100
AcDbSpline
210
0.0
220
0.0
230
1.0
 70
    11
 71
     3
 72
    36
 73
    32
 74
     0
 42
0.0000000001
 43
0.0000000001
 40
0.0
 40
0.0
 40
0.0
 40
0.0
 40
0.125
 40
0.125
 40
0.125
 40
0.125
 40
0.25
 40
0.25
 40
0.25
 40
0.25
 40
0.375
 40
0.375
 40
0.375
 40
0.375
 40
0.5
 40
0.5
 40
0.5
 40
0.5
 40
0.625
 40
0.625
 40
0.625
 40
0.625
 40
0.75
 40
0.75
 40
0.75
 40
0.75
 40
0.875
 40
0.875
 40
0.875
 40
0.875
 40
1.0
 40
1.0
 40
1.0
 40
1.0
 10
0.5612637795275591
 20
2.292775590551181
 30
0.0
 10
0.5612637795275591
 20
2.292775590551181
 30
0.0
 10
1.213314960629921
 20
2.670358267716535
 30
0.0
 10
1.213314960629921
 20
2.670358267716535
 30
0.0
 10
1.213314960629921
 20
2.670358267716535
 30
0.0
 10
1.213314960629921
 20
2.670358267716535
 30
0.0
 10
1.214279527559055
 20
2.683051181102362
 30
0.0
 10
1.214279527559055
 20
2.683051181102362
 30
0.0
 10
1.214279527559055
 20
2.683051181102362
 30
0.0
 10
1.214279527559055
 20
2.683051181102362
 30
0.0
 10
1.214610236220473
 20
2.69592125984252
 30
0.0
 10
1.214610236220473
 20
2.69592125984252
 30
0.0
 10
1.214610236220473
 20
2.69592125984252
 30
0.0
 10
1.214610236220473
 20
2.69592125984252
 30
0.0
 10
1.214279527559055
 20
2.708779527559055
 30
0.0
 10
1.214279527559055
 20
2.708779527559055
 30
0.0
 10
1.214279527559055
 20
2.708779527559055
 30
0.0
 10
1.214279527559055
 20
2.708779527559055
 30
0.0
 10
0.562228346456693
 20
2.331196850393701
 30
0.0
 10
0.562228346456693
 20
2.331196850393701
 30
0.0
 10
0.562228346456693
 20
2.331196850393701
 30
0.0
 10
0.562228346456693
 20
2.331196850393701
 30
0.0
 10
0.5625590551181102
 20
2.318338582677165
 30
0.0
 10
0.5625590551181102
 20
2.318338582677165
 30
0.0
 10
0.5625590551181102
 20
2.318338582677165
 30
0.0
 10
0.5625590551181102
 20
2.318338582677165
 30
0.0
 10
0.562228346456693
 20
2.305468503937008
 30
0.0
 10
0.562228346456693
 20
2.305468503937008
 30
0.0
 10
0.562228346456693
 20
2.305468503937008
 30
0.0
 10
0.562228346456693
 20
2.305468503937008
 30
0.0
 10
0.5612637795275591
 20
2.292775590551181
 30
0.0
 10
0.5612637795275591
 20
2.292775590551181
 30
0.0
  0
SPLINE
  5
46
330
1F
100
AcDbEntity
  8
LAYER_1
 62
   253
100
AcDbSpline
210
0.0
220
0.0
230
1.0
 70
    11
 71
     3
 72
    36
 73
    32
 74
     0
 42
0.0000000001
 43
0.0000000001
 40
0.0
 40
0.0
 40
0.0
 40
0.0
 40
0.125
 40
0.125
 40
0.125
 40
0.125
 40
0.25
 40
0.25
 40
0.25
 40
0.25
 40
0.375
 40
0.375
 40
0.375
 40
0.375
 40
0.5
 40
0.5
 40
0.5
 40
0.5
 40
0.625
 40
0.625
 40
0.625
 40
0.625
 40
0.75
 40
0.75
 40
0.75
 40
0.75
 40
0.875
 40
0.875
 40
0.875
 40
0.875
 40
1.0
 40
1.0
 40
1.0
 40
1.0
 10
0.562228346456693
 20
2.331196850393701
 30
0.0
 10
0.562228346456693
 20
2.331196850393701
 30
0.0
 10
1.214279527559055
 20
2.708779527559055
 30
0.0
 10
1.214279527559055
 20
2.708779527559055
 30
0.0
 10
1.214279527559055
 20
2.708779527559055
 30
0.0
 10
1.214279527559055
 20
2.708779527559055
 30
0.0
 10
1.213314960629921
 20
2.721472440944882
 30
0.0
 10
1.213314960629921
 20
2.721472440944882
 30
0.0
 10
1.213314960629921
 20
2.721472440944882
 30
0.0
 10
1.213314960629921
 20
2.721472440944882
 30
0.0
 10
1.211720472440945
 20
2.73398031496063
 30
0.0
 10
1.211720472440945
 20
2.73398031496063
 30
0.0
 10
1.211720472440945
 20
2.73398031496063
 30
0.0
 10
1.211720472440945
 20
2.73398031496063
 30
0.0
 10
1.209527559055118
 20
2.746295275590551
 30
0.0
 10
1.209527559055118
 20
2.746295275590551
 30
0.0
 10
1.209527559055118
 20
2.746295275590551
 30
0.0
 10
1.209527559055118
 20
2.746295275590551
 30
0.0
 10
0.557476377952756
 20
2.368712598425197
 30
0.0
 10
0.557476377952756
 20
2.368712598425197
 30
0.0
 10
0.557476377952756
 20
2.368712598425197
 30
0.0
 10
0.557476377952756
 20
2.368712598425197
 30
0.0
 10
0.5596692913385827
 20
2.356397637795276
 30
0.0
 10
0.5596692913385827
 20
2.356397637795276
 30
0.0
 10
0.5596692913385827
 20
2.356397637795276
 30
0.0
 10
0.5596692913385827
 20
2.356397637795276
 30
0.0
 10
0.5612637795275591
 20
2.343889763779528
 30
0.0
 10
0.5612637795275591
 20
2.343889763779528
 30
0.0
 10
0.5612637795275591
 20
2.343889763779528
 30
0.0
 10
0.5612637795275591
 20
2.343889763779528
 30
0.0
 10
0.562228346456693
 20
2.331196850393701
 30
0.0
 10
0.562228346456693
 20
2.331196850393701
 30
0.0
  0
SPLINE
  5
47
330
1F
100
AcDbEntity
  8
LAYER_1
 62
   253
100
AcDbSpline
210
0.0
220
0.0
230
1.0
 70
    11
 71
     3
 72
    44
 73
    40
 74
     0
 42
0.0000000001
 43
0.0000000001
 40
0.0
 40
0.0
 40
0.0
 40
0.0
 40
0.1
 40
0.1
 40
0.1
 40
0.1
 40
0.2
 40
0.2
 40
0.2
 40
0.2
 40
0.3
 40
0.3
 40
0.3
 40
0.3
 40
0.4
 40
0.4
 40
0.4
 40
0.4
 40
0.5
 40
0.5
 40
0.5
 40
0.5
 40
0.6
 40
0.6
 40
0.6
 40
0.6
 40
0.7
 40
0.7
 40
0.7
 40
0.7
 40
0.7999999999999999
 40
0.7999999999999999
 40
0.7999999999999999
 40
0.7999999999999999
 40
0.8999999999999999
 40
0.8999999999999999
 40
0.8999999999999999
 40
0.8999999999999999
 40
1.0
 40
1.0
 40
1.0
 40
1.0
 10
0.557476377952756
 20
2.368712598425197
 30
0.0
 10
0.557476377952756
 20
2.368712598425197
 30
0.0
 10
1.209527559055118
 20
2.746295275590551
 30
0.0
 10
1.209527559055118
 20
2.746295275590551
 30
0.0
 10
1.209527559055118
 20
2.746295275590551
 30
0.0
 10
1.209527559055118
 20
2.746295275590551
 30
0.0
 10
1.206732283464567
 20
2.758385826771653
 30
0.0
 10
1.206732283464567
 20
2.758385826771653
 30
0.0
 10
1.206732283464567
 20
2.758385826771653
 30
0.0
 10
1.206732283464567
 20
2.758385826771653
 30
0.0
 10
1.20336220472441
 20
2.770248031496063
 30
0.0
 10
1.20336220472441
 20
2.770248031496063
 30
0.0
 10
1.20336220472441
 20
2.770248031496063
 30
0.0
 10
1.20336220472441
 20
2.770248031496063
 30
0.0
 10
1.199429133858268
 20
2.78186220472441
 30
0.0
 10
1.199429133858268
 20
2.78186220472441
 30
0.0
 10
1.199429133858268
 20
2.78186220472441
 30
0.0
 10
1.199429133858268
 20
2.78186220472441
 30
0.0
 10
1.194956692913386
 20
2.793220472440945
 30
0.0
 10
1.194956692913386
 20
2.793220472440945
 30
0.0
 10
1.194956692913386
 20
2.793220472440945
 30
0.0
 10
1.194956692913386
 20
2.793220472440945
 30
0.0
 10
0.5429055118110236
 20
2.415637795275591
 30
0.0
 10
0.5429055118110236
 20
2.415637795275591
 30
0.0
 10
0.5429055118110236
 20
2.415637795275591
 30
0.0
 10
0.5429055118110236
 20
2.415637795275591
 30
0.0
 10
0.5473779527559055
 20
2.404279527559055
 30
0.0
 10
0.5473779527559055
 20
2.404279527559055
 30
0.0
 10
0.5473779527559055
 20
2.404279527559055
 30
0.0
 10
0.5473779527559055
 20
2.404279527559055
 30
0.0
 10
0.5513110236220473
 20
2.392665354330709
 30
0.0
 10
0.5513110236220473
 20
2.392665354330709
 30
0.0
 10
0.5513110236220473
 20
2.392665354330709
 30
0.0
 10
0.5513110236220473
 20
2.392665354330709
 30
0.0
 10
0.5546811023622047
 20
2.380803149606299
 30
0.0
 10
0.5546811023622047
 20
2.380803149606299
 30
0.0
 10
0.5546811023622047
 20
2.380803149606299
 30
0.0
 10
0.5546811023622047
 20
2.380803149606299
 30
0.0
 10
0.557476377952756
 20
2.368712598425197
 30
0.0
 10
0.557476377952756
 20
2.368712598425197
 30
0.0
  0
SPLINE
  5
48
330
1F
100
AcDbEntity
  8
LAYER_1
 62
   253
100
AcDbSpline
210
0.0
220
0.0
230
1.0
 70
    11
 71
     3
 72
    44
 73
    40
 74
     0
 42
0.0000000001
 43
0.0000000001
 40
0.0
 40
0.0
 40
0.0
 40
0.0
 40
0.1
 40
0.1
 40
0.1
 40
0.1
 40
0.2
 40
0.2
 40
0.2
 40
0.2
 40
0.3
 40
0.3
 40
0.3
 40
0.3
 40
0.4
 40
0.4
 40
0.4
 40
0.4
 40
0.5
 40
0.5
 40
0.5
 40
0.5
 40
0.6
 40
0.6
 40
0.6
 40
0.6
 40
0.7
 40
0.7
 40
0.7
 40
0.7
 40
0.7999999999999999
 40
0.7999999999999999
 40
0.7999999999999999
 40
0.7999999999999999
 40
0.8999999999999999
 40
0.8999999999999999
 40
0.8999999999999999
 40
0.8999999999999999
 40
1.0
 40
1.0
 40
1.0
 40
1.0
 10
0.5429055118110236
 20
2.415637795275591
 30
0.0
 10
0.5429055118110236
 20
2.415637795275591
 30
0.0
 10
1.194956692913386
 20
2.793220472440945
 30
0.0
 10
1.194956692913386
 20
2.793220472440945
 30
0.0
 10
1.194956692913386
 20
2.793220472440945
 30
0.0
 10
1.194956692913386
 20
2.793220472440945
 30
0.0
 10
1.189944881889764
 20
2.804291338582677
 30
0.0
 10
1.189944881889764
 20
2.804291338582677
 30
0.0
 10
1.189944881889764
 20
2.804291338582677
 30
0.0
 10
1.189944881889764
 20
2.804291338582677
 30
0.0
 10
1.184425196850394
 20
2.815070866141733
 30
0.0
 10
1.184425196850394
 20
2.815070866141733
 30
0.0
 10
1.184425196850394
 20
2.815070866141733
 30
0.0
 10
1.184425196850394
 20
2.815070866141733
 30
0.0
 10
1.178405511811024
 20
2.82553937007874
 30
0.0
 10
1.178405511811024
 20
2.82553937007874
 30
0.0
 10
1.178405511811024
 20
2.82553937007874
 30
0.0
 10
1.178405511811024
 20
2.82553937007874
 30
0.0
 10
1.171905511811024
 20
2.835685039370079
 30
0.0
 10
1.171905511811024
 20
2.835685039370079
 30
0.0
 10
1.171905511811024
 20
2.835685039370079
 30
0.0
 10
1.171905511811024
 20
2.835685039370079
 30
0.0
 10
0.5198543307086614
 20
2.458102362204725
 30
0.0
 10
0.5198543307086614
 20
2.458102362204725
 30
0.0
 10
0.5198543307086614
 20
2.458102362204725
 30
0.0
 10
0.5198543307086614
 20
2.458102362204725
 30
0.0
 10
0.5263543307086614
 20
2.447956692913386
 30
0.0
 10
0.5263543307086614
 20
2.447956692913386
 30
0.0
 10
0.5263543307086614
 20
2.447956692913386
 30
0.0
 10
0.5263543307086614
 20
2.447956692913386
 30
0.0
 10
0.5323740157480316
 20
2.437488188976378
 30
0.0
 10
0.5323740157480316
 20
2.437488188976378
 30
0.0
 10
0.5323740157480316
 20
2.437488188976378
 30
0.0
 10
0.5323740157480316
 20
2.437488188976378
 30
0.0
 10
0.5378937007874016
 20
2.426708661417323
 30
0.0
 10
0.5378937007874016
 20
2.426708661417323
 30
0.0
 10
0.5378937007874016
 20
2.426708661417323
 30
0.0
 10
0.5378937007874016
 20
2.426708661417323
 30
0.0
 10
0.5429055118110236
 20
2.415637795275591
 30
0.0
 10
0.5429055118110236
 20
2.415637795275591
 30
0.0
  0
SPLINE
  5
49
330
1F
100
AcDbEntity
  8
LAYER_1
 62
   253
100
AcDbSpline
210
0.0
220
0.0
230
1.0
 70
    11
 71
     3
 72
    44
 73
    40
 74
     0
 42
0.0000000001
 43
0.0000000001
 40
0.0
 40
0.0
 40
0.0
 40
0.0
 40
0.1
 40
0.1
 40
0.1
 40
0.1
 40
0.2
 40
0.2
 40
0.2
 40
0.2
 40
0.3
 40
0.3
 40
0.3
 40
0.3
 40
0.4
 40
0.4
 40
0.4
 40
0.4
 40
0.5
 40
0.5
 40
0.5
 40
0.5
 40
0.6
 40
0.6
 40
0.6
 40
0.6
 40
0.7
 40
0.7
 40
0.7
 40
0.7
 40
0.7999999999999999
 40
0.7999999999999999
 40
0.7999999999999999
 40
0.7999999999999999
 40
0.8999999999999999
 40
0.8999999999999999
 40
0.8999999999999999
 40
0.8999999999999999
 40
1.0
 40
1.0
 40
1.0
 40
1.0
 10
0.5198543307086614
 20
2.458102362204725
 30
0.0
 10
0.5198543307086614
 20
2.458102362204725
 30
0.0
 10
1.171905511811024
 20
2.835685039370079
 30
0.0
 10
1.171905511811024
 20
2.835685039370079
 30
0.0
 10
1.171905511811024
 20
2.835685039370079
 30
0.0
 10
1.171905511811024
 20
2.835685039370079
 30
0.0
 10
1.164929133858268
 20
2.845484251968504
 30
0.0
 10
1.164929133858268
 20
2.845484251968504
 30
0.0
 10
1.164929133858268
 20
2.845484251968504
 30
0.0
 10
1.164929133858268
 20
2.845484251968504
 30
0.0
 10
1.157511811023622
 20
2.854929133858268
 30
0.0
 10
1.157511811023622
 20
2.854929133858268
 30
0.0
 10
1.157511811023622
 20
2.854929133858268
 30
0.0
 10
1.157511811023622
 20
2.854929133858268
 30
0.0
 10
1.149653543307087
 20
2.864
 30
0.0
 10
1.149653543307087
 20
2.864
 30
0.0
 10
1.149653543307087
 20
2.864
 30
0.0
 10
1.149653543307087
 20
2.864
 30
0.0
 10
1.141377952755906
 20
2.872688976377953
 30
0.0
 10
1.141377952755906
 20
2.872688976377953
 30
0.0
 10
1.141377952755906
 20
2.872688976377953
 30
0.0
 10
1.141377952755906
 20
2.872688976377953
 30
0.0
 10
0.4893267716535433
 20
2.495106299212599
 30
0.0
 10
0.4893267716535433
 20
2.495106299212599
 30
0.0
 10
0.4893267716535433
 20
2.495106299212599
 30
0.0
 10
0.4893267716535433
 20
2.495106299212599
 30
0.0
 10
0.4976023622047244
 20
2.486417322834646
 30
0.0
 10
0.4976023622047244
 20
2.486417322834646
 30
0.0
 10
0.4976023622047244
 20
2.486417322834646
 30
0.0
 10
0.4976023622047244
 20
2.486417322834646
 30
0.0
 10
0.5054606299212598
 20
2.477346456692914
 30
0.0
 10
0.5054606299212598
 20
2.477346456692914
 30
0.0
 10
0.5054606299212598
 20
2.477346456692914
 30
0.0
 10
0.5054606299212598
 20
2.477346456692914
 30
0.0
 10
0.5128779527559055
 20
2.46790157480315
 30
0.0
 10
0.5128779527559055
 20
2.46790157480315
 30
0.0
 10
0.5128779527559055
 20
2.46790157480315
 30
0.0
 10
0.5128779527559055
 20
2.46790157480315
 30
0.0
 10
0.5198543307086614
 20
2.458102362204725
 30
0.0
 10
0.5198543307086614
 20
2.458102362204725
 30
0.0
  0
SPLINE
  5
4A
330
1F
100
AcDbEntity
  8
LAYER_1
 62
   253
100
AcDbSpline
210
0.0
220
0.0
230
1.0
 70
    11
 71
     3
 72
    44
 73
    40
 74
     0
 42
0.0000000001
 43
0.0000000001
 40
0.0
 40
0.0
 40
0.0
 40
0.0
 40
0.1
 40
0.1
 40
0.1
 40
0.1
 40
0.2
 40
0.2
 40
0.2
 40
0.2
 40
0.3
 40
0.3
 40
0.3
 40
0.3
 40
0.4
 40
0.4
 40
0.4
 40
0.4
 40
0.5
 40
0.5
 40
0.5
 40
0.5
 40
0.6
 40
0.6
 40
0.6
 40
0.6
 40
0.7
 40
0.7
 40
0.7
 40
0.7
 40
0.7999999999999999
 40
0.7999999999999999
 40
0.7999999999999999
 40
0.7999999999999999
 40
0.8999999999999999
 40
0.8999999999999999
 40
0.8999999999999999
 40
0.8999999999999999
 40
1.0
 40
1.0
 40
1.0
 40
1.0
 10
0.4893267716535433
 20
2.495106299212599
 30
0.0
 10
0.4893267716535433
 20
2.495106299212599
 30
0.0
 10
1.141377952755906
 20
2.872688976377953
 30
0.0
 10
1.141377952755906
 20
2.872688976377953
 30
0.0
 10
1.141377952755906
 20
2.872688976377953
 30
0.0
 10
1.141377952755906
 20
2.872688976377953
 30
0.0
 10
1.132688976377953
 20
2.880964566929134
 30
0.0
 10
1.132688976377953
 20
2.880964566929134
 30
0.0
 10
1.132688976377953
 20
2.880964566929134
 30
0.0
 10
1.132688976377953
 20
2.880964566929134
 30
0.0
 10
1.123618110236221
 20
2.888822834645669
 30
0.0
 10
1.123618110236221
 20
2.888822834645669
 30
0.0
 10
1.123618110236221
 20
2.888822834645669
 30
0.0
 10
1.123618110236221
 20
2.888822834645669
 30
0.0
 10
1.114173228346457
 20
2.896240157480315
 30
0.0
 10
1.114173228346457
 20
2.896240157480315
 30
0.0
 10
1.114173228346457
 20
2.896240157480315
 30
0.0
 10
1.114173228346457
 20
2.896240157480315
 30
0.0
 10
1.104374015748032
 20
2.903216535433071
 30
0.0
 10
1.104374015748032
 20
2.903216535433071
 30
0.0
 10
1.104374015748032
 20
2.903216535433071
 30
0.0
 10
1.104374015748032
 20
2.903216535433071
 30
0.0
 10
0.4523228346456693
 20
2.525633858267717
 30
0.0
 10
0.4523228346456693
 20
2.525633858267717
 30
0.0
 10
0.4523228346456693
 20
2.525633858267717
 30
0.0
 10
0.4523228346456693
 20
2.525633858267717
 30
0.0
 10
0.4621220472440945
 20
2.518657480314961
 30
0.0
 10
0.4621220472440945
 20
2.518657480314961
 30
0.0
 10
0.4621220472440945
 20
2.518657480314961
 30
0.0
 10
0.4621220472440945
 20
2.518657480314961
 30
0.0
 10
0.4715669291338583
 20
2.511240157480315
 30
0.0
 10
0.4715669291338583
 20
2.511240157480315
 30
0.0
 10
0.4715669291338583
 20
2.511240157480315
 30
0.0
 10
0.4715669291338583
 20
2.511240157480315
 30
0.0
 10
0.4806377952755906
 20
2.50338188976378
 30
0.0
 10
0.4806377952755906
 20
2.50338188976378
 30
0.0
 10
0.4806377952755906
 20
2.50338188976378
 30
0.0
 10
0.4806377952755906
 20
2.50338188976378
 30
0.0
 10
0.4893267716535433
 20
2.495106299212599
 30
0.0
 10
0.4893267716535433
 20
2.495106299212599
 30
0.0
  0
SPLINE
  5
4B
330
1F
100
AcDbEntity
  8
LAYER_1
 62
   253
100
AcDbSpline
210
0.0
220
0.0
230
1.0
 70
    11
 71
     3
 72
    44
 73
    40
 74
     0
 42
0.0000000001
 43
0.0000000001
 40
0.0
 40
0.0
 40
0.0
 40
0.0
 40
0.1
 40
0.1
 40
0.1
 40
0.1
 40
0.2
 40
0.2
 40
0.2
 40
0.2
 40
0.3
 40
0.3
 40
0.3
 40
0.3
 40
0.4
 40
0.4
 40
0.4
 40
0.4
 40
0.5
 40
0.5
 40
0.5
 40
0.5
 40
0.6
 40
0.6
 40
0.6
 40
0.6
 40
0.7
 40
0.7
 40
0.7
 40
0.7
 40
0.7999999999999999
 40
0.7999999999999999
 40
0.7999999999999999
 40
0.7999999999999999
 40
0.8999999999999999
 40
0.8999999999999999
 40
0.8999999999999999
 40
0.8999999999999999
 40
1.0
 40
1.0
 40
1.0
 40
1.0
 10
0.4523228346456693
 20
2.525633858267717
 30
0.0
 10
0.4523228346456693
 20
2.525633858267717
 30
0.0
 10
1.104374015748032
 20
2.903216535433071
 30
0.0
 10
1.104374015748032
 20
2.903216535433071
 30
0.0
 10
1.104374015748032
 20
2.903216535433071
 30
0.0
 10
1.104374015748032
 20
2.903216535433071
 30
0.0
 10
1.094228346456693
 20
2.909716535433071
 30
0.0
 10
1.094228346456693
 20
2.909716535433071
 30
0.0
 10
1.094228346456693
 20
2.909716535433071
 30
0.0
 10
1.094228346456693
 20
2.909716535433071
 30
0.0
 10
1.083759842519685
 20
2.915736220472441
 30
0.0
 10
1.083759842519685
 20
2.915736220472441
 30
0.0
 10
1.083759842519685
 20
2.915736220472441
 30
0.0
 10
1.083759842519685
 20
2.915736220472441
 30
0.0
 10
1.07298031496063
 20
2.921255905511811
 30
0.0
 10
1.07298031496063
 20
2.921255905511811
 30
0.0
 10
1.07298031496063
 20
2.921255905511811
 30
0.0
 10
1.07298031496063
 20
2.921255905511811
 30
0.0
 10
1.061909448818898
 20
2.926267716535433
 30
0.0
 10
1.061909448818898
 20
2.926267716535433
 30
0.0
 10
1.061909448818898
 20
2.926267716535433
 30
0.0
 10
1.061909448818898
 20
2.926267716535433
 30
0.0
 10
0.4098582677165354
 20
2.548685039370079
 30
0.0
 10
0.4098582677165354
 20
2.548685039370079
 30
0.0
 10
0.4098582677165354
 20
2.548685039370079
 30
0.0
 10
0.4098582677165354
 20
2.548685039370079
 30
0.0
 10
0.4209291338582678
 20
2.543673228346457
 30
0.0
 10
0.4209291338582678
 20
2.543673228346457
 30
0.0
 10
0.4209291338582678
 20
2.543673228346457
 30
0.0
 10
0.4209291338582678
 20
2.543673228346457
 30
0.0
 10
0.4317086614173228
 20
2.538153543307087
 30
0.0
 10
0.4317086614173228
 20
2.538153543307087
 30
0.0
 10
0.4317086614173228
 20
2.538153543307087
 30
0.0
 10
0.4317086614173228
 20
2.538153543307087
 30
0.0
 10
0.4421771653543307
 20
2.532133858267716
 30
0.0
 10
0.4421771653543307
 20
2.532133858267716
 30
0.0
 10
0.4421771653543307
 20
2.532133858267716
 30
0.0
 10
0.4421771653543307
 20
2.532133858267716
 30
0.0
 10
0.4523228346456693
 20
2.525633858267717
 30
0.0
 10
0.4523228346456693
 20
2.525633858267717
 30
0.0
  0
SPLINE
  5
4C
330
1F
100
AcDbEntity
  8
LAYER_1
 62
   252
100
AcDbSpline
210
0.0
220
0.0
230
1.0
 70
    11
 71
     3
 72
    44
 73
    40
 74
     0
 42
0.0000000001
 43
0.0000000001
 40
0.0
 40
0.0
 40
0.0
 40
0.0
 40
0.1
 40
0.1
 40
0.1
 40
0.1
 40
0.2
 40
0.2
 40
0.2
 40
0.2
 40
0.3
 40
0.3
 40
0.3
 40
0.3
 40
0.4
 40
0.4
 40
0.4
 40
0.4
 40
0.5
 40
0.5
 40
0.5
 40
0.5
 40
0.6
 40
0.6
 40
0.6
 40
0.6
 40
0.7
 40
0.7
 40
0.7
 40
0.7
 40
0.7999999999999999
 40
0.7999999999999999
 40
0.7999999999999999
 40
0.7999999999999999
 40
0.8999999999999999
 40
0.8999999999999999
 40
0.8999999999999999
 40
0.8999999999999999
 40
1.0
 40
1.0
 40
1.0
 40
1.0
 10
0.4098582677165354
 20
2.548685039370079
 30
0.0
 10
0.4098582677165354
 20
2.548685039370079
 30
0.0
 10
1.061909448818898
 20
2.926267716535433
 30
0.0
 10
1.061909448818898
 20
2.926267716535433
 30
0.0
 10
1.061909448818898
 20
2.926267716535433
 30
0.0
 10
1.061909448818898
 20
2.926267716535433
 30
0.0
 10
1.050551181102362
 20
2.930740157480315
 30
0.0
 10
1.050551181102362
 20
2.930740157480315
 30
0.0
 10
1.050551181102362
 20
2.930740157480315
 30
0.0
 10
1.050551181102362
 20
2.930740157480315
 30
0.0
 10
1.038937007874016
 20
2.934673228346457
 30
0.0
 10
1.038937007874016
 20
2.934673228346457
 30
0.0
 10
1.038937007874016
 20
2.934673228346457
 30
0.0
 10
1.038937007874016
 20
2.934673228346457
 30
0.0
 10
1.027074803149606
 20
2.938043307086614
 30
0.0
 10
1.027074803149606
 20
2.938043307086614
 30
0.0
 10
1.027074803149606
 20
2.938043307086614
 30
0.0
 10
1.027074803149606
 20
2.938043307086614
 30
0.0
 10
1.014984251968504
 20
2.940838582677166
 30
0.0
 10
1.014984251968504
 20
2.940838582677166
 30
0.0
 10
1.014984251968504
 20
2.940838582677166
 30
0.0
 10
1.014984251968504
 20
2.940838582677166
 30
0.0
 10
0.3629330708661417
 20
2.563255905511811
 30
0.0
 10
0.3629330708661417
 20
2.563255905511811
 30
0.0
 10
0.3629330708661417
 20
2.563255905511811
 30
0.0
 10
0.3629330708661417
 20
2.563255905511811
 30
0.0
 10
0.3750236220472441
 20
2.56046062992126
 30
0.0
 10
0.3750236220472441
 20
2.56046062992126
 30
0.0
 10
0.3750236220472441
 20
2.56046062992126
 30
0.0
 10
0.3750236220472441
 20
2.56046062992126
 30
0.0
 10
0.3868858267716536
 20
2.557090551181103
 30
0.0
 10
0.3868858267716536
 20
2.557090551181103
 30
0.0
 10
0.3868858267716536
 20
2.557090551181103
 30
0.0
 10
0.3868858267716536
 20
2.557090551181103
 30
0.0
 10
0.3985
 20
2.553157480314961
 30
0.0
 10
0.3985
 20
2.553157480314961
 30
0.0
 10
0.3985
 20
2.553157480314961
 30
0.0
 10
0.3985
 20
2.553157480314961
 30
0.0
 10
0.4098582677165354
 20
2.548685039370079
 30
0.0
 10
0.4098582677165354
 20
2.548685039370079
 30
0.0
  0
SPLINE
  5
4D
330
1F
100
AcDbEntity
  8
LAYER_1
 62
   252
100
AcDbSpline
210
0.0
220
0.0
230
1.0
 70
    11
 71
     3
 72
    36
 73
    32
 74
     0
 42
0.0000000001
 43
0.0000000001
 40
0.0
 40
0.0
 40
0.0
 40
0.0
 40
0.125
 40
0.125
 40
0.125
 40
0.125
 40
0.25
 40
0.25
 40
0.25
 40
0.25
 40
0.375
 40
0.375
 40
0.375
 40
0.375
 40
0.5
 40
0.5
 40
0.5
 40
0.5
 40
0.625
 40
0.625
 40
0.625
 40
0.625
 40
0.75
 40
0.75
 40
0.75
 40
0.75
 40
0.875
 40
0.875
 40
0.875
 40
0.875
 40
1.0
 40
1.0
 40
1.0
 40
1.0
 10
0.3629330708661417
 20
2.563255905511811
 30
0.0
 10
0.3629330708661417
 20
2.563255905511811
 30
0.0
 10
1.014984251968504
 20
2.940838582677166
 30
0.0
 10
1.014984251968504
 20
2.940838582677166
 30
0.0
 10
1.014984251968504
 20
2.940838582677166
 30
0.0
 10
1.014984251968504
 20
2.940838582677166
 30
0.0
 10
1.002669291338583
 20
2.943031496062992
 30
0.0
 10
1.002669291338583
 20
2.943031496062992
 30
0.0
 10
1.002669291338583
 20
2.943031496062992
 30
0.0
 10
1.002669291338583
 20
2.943031496062992
 30
0.0
 10
0.9901614173228347
 20
2.944625984251969
 30
0.0
 10
0.9901614173228347
 20
2.944625984251969
 30
0.0
 10
0.9901614173228347
 20
2.944625984251969
 30
0.0
 10
0.9901614173228347
 20
2.944625984251969
 30
0.0
 10
0.9774685039370079
 20
2.945590551181103
 30
0.0
 10
0.9774685039370079
 20
2.945590551181103
 30
0.0
 10
0.9774685039370079
 20
2.945590551181103
 30
0.0
 10
0.9774685039370079
 20
2.945590551181103
 30
0.0
 10
0.3254173228346457
 20
2.568007874015748
 30
0.0
 10
0.3254173228346457
 20
2.568007874015748
 30
0.0
 10
0.3254173228346457
 20
2.568007874015748
 30
0.0
 10
0.3254173228346457
 20
2.568007874015748
 30
0.0
 10
0.3381102362204724
 20
2.567043307086614
 30
0.0
 10
0.3381102362204724
 20
2.567043307086614
 30
0.0
 10
0.3381102362204724
 20
2.567043307086614
 30
0.0
 10
0.3381102362204724
 20
2.567043307086614
 30
0.0
 10
0.3506181102362205
 20
2.565448818897638
 30
0.0
 10
0.3506181102362205
 20
2.565448818897638
 30
0.0
 10
0.3506181102362205
 20
2.565448818897638
 30
0.0
 10
0.3506181102362205
 20
2.565448818897638
 30
0.0
 10
0.3629330708661417
 20
2.563255905511811
 30
0.0
 10
0.3629330708661417
 20
2.563255905511811
 30
0.0
  0
SPLINE
  5
4E
330
1F
100
AcDbEntity
  8
LAYER_1
 62
   252
100
AcDbSpline
210
0.0
220
0.0
230
1.0
 70
    11
 71
     3
 72
    20
 73
    16
 74
     0
 42
0.0000000001
 43
0.0000000001
 40
0.0
 40
0.0
 40
0.0
 40
0.0
 40
0.25
 40
0.25
 40
0.25
 40
0.25
 40
0.5
 40
0.5
 40
0.5
 40
0.5
 40
0.75
 40
0.75
 40
0.75
 40
0.75
 40
1.0
 40
1.0
 40
1.0
 40
1.0
 10
0.3254173228346457
 20
2.568007874015748
 30
0.0
 10
0.3254173228346457
 20
2.568007874015748
 30
0.0
 10
0.9774685039370079
 20
2.945590551181103
 30
0.0
 10
0.9774685039370079
 20
2.945590551181103
 30
0.0
 10
0.9774685039370079
 20
2.945590551181103
 30
0.0
 10
0.9774685039370079
 20
2.945590551181103
 30
0.0
 10
0.9646102362204725
 20
2.94592125984252
 30
0.0
 10
0.9646102362204725
 20
2.94592125984252
 30
0.0
 10
0.9646102362204725
 20
2.94592125984252
 30
0.0
 10
0.9646102362204725
 20
2.94592125984252
 30
0.0
 10
0.3125590551181103
 20
2.568338582677165
 30
0.0
 10
0.3125590551181103
 20
2.568338582677165
 30
0.0
 10
0.3125590551181103
 20
2.568338582677165
 30
0.0
 10
0.3125590551181103
 20
2.568338582677165
 30
0.0
 10
0.3254173228346457
 20
2.568007874015748
 30
0.0
 10
0.3254173228346457
 20
2.568007874015748
 30
0.0
  0
SPLINE
  5
4F
330
1F
100
AcDbEntity
  8
LAYER_1
 62
   250
100
AcDbSpline
210
0.0
220
0.0
230
1.0
 70
    11
 71
     3
 72
   436
 73
   432
 74
     0
 42
0.0000000001
 43
0.0000000001
 40
0.0
 40
0.0
 40
0.0
 40
0.0
 40
0.0092592592592593
 40
0.0092592592592593
 40
0.0092592592592593
 40
0.0092592592592593
 40
0.0185185185185185
 40
0.0185185185185185
 40
0.0185185185185185
 40
0.0185185185185185
 40
0.0277777777777778
 40
0.0277777777777778
 40
0.0277777777777778
 40
0.0277777777777778
 40
0.037037037037037
 40
0.037037037037037
 40
0.037037037037037
 40
0.037037037037037
 40
0.0462962962962963
 40
0.0462962962962963
 40
0.0462962962962963
 40
0.0462962962962963
 40
0.0555555555555556
 40
0.0555555555555556
 40
0.0555555555555556
 40
0.0555555555555556
 40
0.0648148148148148
 40
0.0648148148148148
 40
0.0648148148148148
 40
0.0648148148148148
 40
0.0740740740740741
 40
0.0740740740740741
 40
0.0740740740740741
 40
0.0740740740740741
 40
0.0833333333333333
 40
0.0833333333333333
 40
0.0833333333333333
 40
0.0833333333333333
 40
0.0925925925925926
 40
0.0925925925925926
 40
0.0925925925925926
 40
0.0925925925925926
 40
0.1018518518518519
 40
0.1018518518518519
 40
0.1018518518518519
 40
0.1018518518518519
 40
0.1111111111111111
 40
0.1111111111111111
 40
0.1111111111111111
 40
0.1111111111111111
 40
0.1203703703703704
 40
0.1203703703703704
 40
0.1203703703703704
 40
0.1203703703703704
 40
0.1296296296296296
 40
0.1296296296296296
 40
0.1296296296296296
 40
0.1296296296296296
 40
0.1388888888888889
 40
0.1388888888888889
 40
0.1388888888888889
 40
0.1388888888888889
 40
0.1481481481481481
 40
0.1481481481481481
 40
0.1481481481481481
 40
0.1481481481481481
 40
0.1574074074074074
 40
0.1574074074074074
 40
0.1574074074074074
 40
0.1574074074074074
 40
0.1666666666666666
 40
0.1666666666666666
 40
0.1666666666666666
 40
0.1666666666666666
 40
0.1759259259259259
 40
0.1759259259259259
 40
0.1759259259259259
 40
0.1759259259259259
 40
0.1851851851851851
 40
0.1851851851851851
 40
0.1851851851851851
 40
0.1851851851851851
 40
0.1944444444444444
 40
0.1944444444444444
 40
0.1944444444444444
 40
0.1944444444444444
 40
0.2037037037037036
 40
0.2037037037037036
 40
0.2037037037037036
 40
0.2037037037037036
 40
0.2129629629629629
 40
0.2129629629629629
 40
0.2129629629629629
 40
0.2129629629629629
 40
0.2222222222222221
 40
0.2222222222222221
 40
0.2222222222222221
 40
0.2222222222222221
 40
0.2314814814814813
 40
0.2314814814814813
 40
0.2314814814814813
 40
0.2314814814814813
 40
0.2407407407407406
 40
0.2407407407407406
 40
0.2407407407407406
 40
0.2407407407407406
 40
0.2499999999999998
 40
0.2499999999999998
 40
0.2499999999999998
 40
0.2499999999999998
 40
0.2592592592592591
 40
0.2592592592592591
 40
0.2592592592592591
 40
0.2592592592592591
 40
0.2685185185185183
 40
0.2685185185185183
 40
0.2685185185185183
 40
0.2685185185185183
 40
0.2777777777777776
 40
0.2777777777777776
 40
0.2777777777777776
 40
0.2777777777777776
 40
0.2870370370370368
 40
0.2870370370370368
 40
0.2870370370370368
 40
0.2870370370370368
 40
0.2962962962962961
 40
0.2962962962962961
 40
0.2962962962962961
 40
0.2962962962962961
 40
0.3055555555555553
 40
0.3055555555555553
 40
0.3055555555555553
 40
0.3055555555555553
 40
0.3148148148148146
 40
0.3148148148148146
 40
0.3148148148148146
 40
0.3148148148148146
 40
0.3240740740740738
 40
0.3240740740740738
 40
0.3240740740740738
 40
0.3240740740740738
 40
0.333333333333333
 40
0.333333333333333
 40
0.333333333333333
 40
0.333333333333333
 40
0.3425925925925923
 40
0.3425925925925923
 40
0.3425925925925923
 40
0.3425925925925923
 40
0.3518518518518515
 40
0.3518518518518515
 40
0.3518518518518515
 40
0.3518518518518515
 40
0.3611111111111108
 40
0.3611111111111108
 40
0.3611111111111108
 40
0.3611111111111108
 40
0.37037037037037
 40
0.37037037037037
 40
0.37037037037037
 40
0.37037037037037
 40
0.3796296296296293
 40
0.3796296296296293
 40
0.3796296296296293
 40
0.3796296296296293
 40
0.3888888888888885
 40
0.3888888888888885
 40
0.3888888888888885
 40
0.3888888888888885
 40
0.3981481481481478
 40
0.3981481481481478
 40
0.3981481481481478
 40
0.3981481481481478
 40
0.407407407407407
 40
0.407407407407407
 40
0.407407407407407
 40
0.407407407407407
 40
0.4166666666666662
 40
0.4166666666666662
 40
0.4166666666666662
 40
0.4166666666666662
 40
0.4259259259259255
 40
0.4259259259259255
 40
0.4259259259259255
 40
0.4259259259259255
 40
0.4351851851851847
 40
0.4351851851851847
 40
0.4351851851851847
 40
0.4351851851851847
 40
0.444444444444444
 40
0.444444444444444
 40
0.444444444444444
 40
0.444444444444444
 40
0.4537037037037032
 40
0.4537037037037032
 40
0.4537037037037032
 40
0.4537037037037032
 40
0.4629629629629625
 40
0.4629629629629625
 40
0.4629629629629625
 40
0.4629629629629625
 40
0.4722222222222217
 40
0.4722222222222217
 40
0.4722222222222217
 40
0.4722222222222217
 40
0.481481481481481
 40
0.481481481481481
 40
0.481481481481481
 40
0.481481481481481
 40
0.4907407407407402
 40
0.4907407407407402
 40
0.4907407407407402
 40
0.4907407407407402
 40
0.4999999999999994
 40
0.4999999999999994
 40
0.4999999999999994
 40
0.4999999999999994
 40
0.5092592592592588
 40
0.5092592592592588
 40
0.5092592592592588
 40
0.5092592592592588
 40
0.5185185185185181
 40
0.5185185185185181
 40
0.5185185185185181
 40
0.5185185185185181
 40
0.5277777777777774
 40
0.5277777777777774
 40
0.5277777777777774
 40
0.5277777777777774
 40
0.5370370370370367
 40
0.5370370370370367
 40
0.5370370370370367
 40
0.5370370370370367
 40
0.546296296296296
 40
0.546296296296296
 40
0.546296296296296
 40
0.546296296296296
 40
0.5555555555555553
 40
0.5555555555555553
 40
0.5555555555555553
 40
0.5555555555555553
 40
0.5648148148148146
 40
0.5648148148148146
 40
0.5648148148148146
 40
0.5648148148148146
 40
0.5740740740740739
 40
0.5740740740740739
 40
0.5740740740740739
 40
0.5740740740740739
 40
0.5833333333333332
 40
0.5833333333333332
 40
0.5833333333333332
 40
0.5833333333333332
 40
0.5925925925925925
 40
0.5925925925925925
 40
0.5925925925925925
 40
0.5925925925925925
 40
0.6018518518518518
 40
0.6018518518518518
 40
0.6018518518518518
 40
0.6018518518518518
 40
0.6111111111111111
 40
0.6111111111111111
 40
0.6111111111111111
 40
0.6111111111111111
 40
0.6203703703703704
 40
0.6203703703703704
 40
0.6203703703703704
 40
0.6203703703703704
 40
0.6296296296296297
 40
0.6296296296296297
 40
0.6296296296296297
 40
0.6296296296296297
 40
0.638888888888889
 40
0.638888888888889
 40
0.638888888888889
 40
0.638888888888889
 40
0.6481481481481483
 40
0.6481481481481483
 40
0.6481481481481483
 40
0.6481481481481483
 40
0.6574074074074076
 40
0.6574074074074076
 40
0.6574074074074076
 40
0.6574074074074076
 40
0.6666666666666669
 40
0.6666666666666669
 40
0.6666666666666669
 40
0.6666666666666669
 40
0.6759259259259262
 40
0.6759259259259262
 40
0.6759259259259262
 40
0.6759259259259262
 40
0.6851851851851855
 40
0.6851851851851855
 40
0.6851851851851855
 40
0.6851851851851855
 40
0.6944444444444448
 40
0.6944444444444448
 40
0.6944444444444448
 40
0.6944444444444448
 40
0.7037037037037041
 40
0.7037037037037041
 40
0.7037037037037041
 40
0.7037037037037041
 40
0.7129629629629634
 40
0.7129629629629634
 40
0.7129629629629634
 40
0.7129629629629634
 40
0.7222222222222227
 40
0.7222222222222227
 40
0.7222222222222227
 40
0.7222222222222227
 40
0.731481481481482
 40
0.731481481481482
 40
0.731481481481482
 40
0.731481481481482
 40
0.7407407407407413
 40
0.7407407407407413
 40
0.7407407407407413
 40
0.7407407407407413
 40
0.7500000000000006
 40
0.7500000000000006
 40
0.7500000000000006
 40
0.7500000000000006
 40
0.7592592592592599
 40
0.7592592592592599
 40
0.7592592592592599
 40
0.7592592592592599
 40
0.7685185185185192
 40
0.7685185185185192
 40
0.7685185185185192
 40
0.7685185185185192
 40
0.7777777777777785
 40
0.7777777777777785
 40
0.7777777777777785
 40
0.7777777777777785
 40
0.7870370370370378
 40
0.7870370370370378
 40
0.7870370370370378
 40
0.7870370370370378
 40
0.7962962962962971
 40
0.7962962962962971
 40
0.7962962962962971
 40
0.7962962962962971
 40
0.8055555555555564
 40
0.8055555555555564
 40
0.8055555555555564
 40
0.8055555555555564
 40
0.8148148148148157
 40
0.8148148148148157
 40
0.8148148148148157
 40
0.8148148148148157
 40
0.824074074074075
 40
0.824074074074075
 40
0.824074074074075
 40
0.824074074074075
 40
0.8333333333333343
 40
0.8333333333333343
 40
0.8333333333333343
 40
0.8333333333333343
 40
0.8425925925925936
 40
0.8425925925925936
 40
0.8425925925925936
 40
0.8425925925925936
 40
0.8518518518518529
 40
0.8518518518518529
 40
0.8518518518518529
 40
0.8518518518518529
 40
0.8611111111111122
 40
0.8611111111111122
 40
0.8611111111111122
 40
0.8611111111111122
 40
0.8703703703703715
 40
0.8703703703703715
 40
0.8703703703703715
 40
0.8703703703703715
 40
0.8796296296296308
 40
0.8796296296296308
 40
0.8796296296296308
 40
0.8796296296296308
 40
0.8888888888888901
 40
0.8888888888888901
 40
0.8888888888888901
 40
0.8888888888888901
 40
0.8981481481481494
 40
0.8981481481481494
 40
0.8981481481481494
 40
0.8981481481481494
 40
0.9074074074074087
 40
0.9074074074074087
 40
0.9074074074074087
 40
0.9074074074074087
 40
0.916666666666668
 40
0.916666666666668
 40
0.916666666666668
 40
0.916666666666668
 40
0.9259259259259273
 40
0.9259259259259273
 40
0.9259259259259273
 40
0.9259259259259273
 40
0.9351851851851866
 40
0.9351851851851866
 40
0.9351851851851866
 40
0.9351851851851866
 40
0.9444444444444459
 40
0.9444444444444459
 40
0.9444444444444459
 40
0.9444444444444459
 40
0.9537037037037052
 40
0.9537037037037052
 40
0.9537037037037052
 40
0.9537037037037052
 40
0.9629629629629645
 40
0.9629629629629645
 40
0.9629629629629645
 40
0.9629629629629645
 40
0.9722222222222238
 40
0.9722222222222238
 40
0.9722222222222238
 40
0.9722222222222238
 40
0.9814814814814831
 40
0.9814814814814831
 40
0.9814814814814831
 40
0.9814814814814831
 40
0.9907407407407424
 40
0.9907407407407424
 40
0.9907407407407424
 40
0.9907407407407424
 40
1.0
 40
1.0
 40
1.0
 40
1.0
 10
0.4421771653543307
 20
2.104531496062992
 30
0.0
 10
0.4421771653543307
 20
2.104531496062992
 30
0.0
 10
1.094228346456693
 20
2.482114173228347
 30
0.0
 10
1.094228346456693
 20
2.482114173228347
 30
0.0
 10
1.094228346456693
 20
2.482114173228347
 30
0.0
 10
1.094228346456693
 20
2.482114173228347
 30
0.0
 10
1.104374015748032
 20
2.48861811023622
 30
0.0
 10
1.104374015748032
 20
2.48861811023622
 30
0.0
 10
1.104374015748032
 20
2.48861811023622
 30
0.0
 10
1.104374015748032
 20
2.48861811023622
 30
0.0
 10
1.114173228346457
 20
2.495586614173229
 30
0.0
 10
1.114173228346457
 20
2.495586614173229
 30
0.0
 10
1.114173228346457
 20
2.495586614173229
 30
0.0
 10
1.114173228346457
 20
2.495586614173229
 30
0.0
 10
1.123618110236221
 20
2.503011811023622
 30
0.0
 10
1.123618110236221
 20
2.503011811023622
 30
0.0
 10
1.123618110236221
 20
2.503011811023622
 30
0.0
 10
1.123618110236221
 20
2.503011811023622
 30
0.0
 10
1.132688976377953
 20
2.510870078740158
 30
0.0
 10
1.132688976377953
 20
2.510870078740158
 30
0.0
 10
1.132688976377953
 20
2.510870078740158
 30
0.0
 10
1.132688976377953
 20
2.510870078740158
 30
0.0
 10
1.141377952755906
 20
2.519153543307087
 30
0.0
 10
1.141377952755906
 20
2.519153543307087
 30
0.0
 10
1.141377952755906
 20
2.519153543307087
 30
0.0
 10
1.141377952755906
 20
2.519153543307087
 30
0.0
 10
1.149653543307087
 20
2.527830708661417
 30
0.0
 10
1.149653543307087
 20
2.527830708661417
 30
0.0
 10
1.149653543307087
 20
2.527830708661417
 30
0.0
 10
1.149653543307087
 20
2.527830708661417
 30
0.0
 10
1.157511811023622
 20
2.536905511811024
 30
0.0
 10
1.157511811023622
 20
2.536905511811024
 30
0.0
 10
1.157511811023622
 20
2.536905511811024
 30
0.0
 10
1.157511811023622
 20
2.536905511811024
 30
0.0
 10
1.164929133858268
 20
2.546346456692914
 30
0.0
 10
1.164929133858268
 20
2.546346456692914
 30
0.0
 10
1.164929133858268
 20
2.546346456692914
 30
0.0
 10
1.164929133858268
 20
2.546346456692914
 30
0.0
 10
1.171905511811024
 20
2.556149606299213
 30
0.0
 10
1.171905511811024
 20
2.556149606299213
 30
0.0
 10
1.171905511811024
 20
2.556149606299213
 30
0.0
 10
1.171905511811024
 20
2.556149606299213
 30
0.0
 10
1.178405511811024
 20
2.566287401574803
 30
0.0
 10
1.178405511811024
 20
2.566287401574803
 30
0.0
 10
1.178405511811024
 20
2.566287401574803
 30
0.0
 10
1.178405511811024
 20
2.566287401574803
 30
0.0
 10
1.184425196850394
 20
2.576759842519685
 30
0.0
 10
1.184425196850394
 20
2.576759842519685
 30
0.0
 10
1.184425196850394
 20
2.576759842519685
 30
0.0
 10
1.184425196850394
 20
2.576759842519685
 30
0.0
 10
1.189944881889764
 20
2.58753937007874
 30
0.0
 10
1.189944881889764
 20
2.58753937007874
 30
0.0
 10
1.189944881889764
 20
2.58753937007874
 30
0.0
 10
1.189944881889764
 20
2.58753937007874
 30
0.0
 10
1.194956692913386
 20
2.598618110236221
 30
0.0
 10
1.194956692913386
 20
2.598618110236221
 30
0.0
 10
1.194956692913386
 20
2.598618110236221
 30
0.0
 10
1.194956692913386
 20
2.598618110236221
 30
0.0
 10
1.199429133858268
 20
2.609964566929134
 30
0.0
 10
1.199429133858268
 20
2.609964566929134
 30
0.0
 10
1.199429133858268
 20
2.609964566929134
 30
0.0
 10
1.199429133858268
 20
2.609964566929134
 30
0.0
 10
1.20336220472441
 20
2.621582677165355
 30
0.0
 10
1.20336220472441
 20
2.621582677165355
 30
0.0
 10
1.20336220472441
 20
2.621582677165355
 30
0.0
 10
1.20336220472441
 20
2.621582677165355
 30
0.0
 10
1.206732283464567
 20
2.63344094488189
 30
0.0
 10
1.206732283464567
 20
2.63344094488189
 30
0.0
 10
1.206732283464567
 20
2.63344094488189
 30
0.0
 10
1.206732283464567
 20
2.63344094488189
 30
0.0
 10
1.209527559055118
 20
2.64553937007874
 30
0.0
 10
1.209527559055118
 20
2.64553937007874
 30
0.0
 10
1.209527559055118
 20
2.64553937007874
 30
0.0
 10
1.209527559055118
 20
2.64553937007874
 30
0.0
 10
1.211720472440945
 20
2.657846456692913
 30
0.0
 10
1.211720472440945
 20
2.657846456692913
 30
0.0
 10
1.211720472440945
 20
2.657846456692913
 30
0.0
 10
1.211720472440945
 20
2.657846456692913
 30
0.0
 10
1.213314960629921
 20
2.670358267716535
 30
0.0
 10
1.213314960629921
 20
2.670358267716535
 30
0.0
 10
1.213314960629921
 20
2.670358267716535
 30
0.0
 10
1.213314960629921
 20
2.670358267716535
 30
0.0
 10
1.214279527559055
 20
2.683051181102362
 30
0.0
 10
1.214279527559055
 20
2.683051181102362
 30
0.0
 10
1.214279527559055
 20
2.683051181102362
 30
0.0
 10
1.214279527559055
 20
2.683051181102362
 30
0.0
 10
1.214610236220473
 20
2.69592125984252
 30
0.0
 10
1.214610236220473
 20
2.69592125984252
 30
0.0
 10
1.214610236220473
 20
2.69592125984252
 30
0.0
 10
1.214610236220473
 20
2.69592125984252
 30
0.0
 10
1.214279527559055
 20
2.708779527559055
 30
0.0
 10
1.214279527559055
 20
2.708779527559055
 30
0.0
 10
1.214279527559055
 20
2.708779527559055
 30
0.0
 10
1.214279527559055
 20
2.708779527559055
 30
0.0
 10
1.213314960629921
 20
2.721472440944882
 30
0.0
 10
1.213314960629921
 20
2.721472440944882
 30
0.0
 10
1.213314960629921
 20
2.721472440944882
 30
0.0
 10
1.213314960629921
 20
2.721472440944882
 30
0.0
 10
1.211720472440945
 20
2.73398031496063
 30
0.0
 10
1.211720472440945
 20
2.73398031496063
 30
0.0
 10
1.211720472440945
 20
2.73398031496063
 30
0.0
 10
1.211720472440945
 20
2.73398031496063
 30
0.0
 10
1.209527559055118
 20
2.746295275590551
 30
0.0
 10
1.209527559055118
 20
2.746295275590551
 30
0.0
 10
1.209527559055118
 20
2.746295275590551
 30
0.0
 10
1.209527559055118
 20
2.746295275590551
 30
0.0
 10
1.206732283464567
 20
2.758385826771653
 30
0.0
 10
1.206732283464567
 20
2.758385826771653
 30
0.0
 10
1.206732283464567
 20
2.758385826771653
 30
0.0
 10
1.206732283464567
 20
2.758385826771653
 30
0.0
 10
1.20336220472441
 20
2.770248031496063
 30
0.0
 10
1.20336220472441
 20
2.770248031496063
 30
0.0
 10
1.20336220472441
 20
2.770248031496063
 30
0.0
 10
1.20336220472441
 20
2.770248031496063
 30
0.0
 10
1.199429133858268
 20
2.78186220472441
 30
0.0
 10
1.199429133858268
 20
2.78186220472441
 30
0.0
 10
1.199429133858268
 20
2.78186220472441
 30
0.0
 10
1.199429133858268
 20
2.78186220472441
 30
0.0
 10
1.194956692913386
 20
2.793220472440945
 30
0.0
 10
1.194956692913386
 20
2.793220472440945
 30
0.0
 10
1.194956692913386
 20
2.793220472440945
 30
0.0
 10
1.194956692913386
 20
2.793220472440945
 30
0.0
 10
1.189944881889764
 20
2.804291338582677
 30
0.0
 10
1.189944881889764
 20
2.804291338582677
 30
0.0
 10
1.189944881889764
 20
2.804291338582677
 30
0.0
 10
1.189944881889764
 20
2.804291338582677
 30
0.0
 10
1.184425196850394
 20
2.815070866141733
 30
0.0
 10
1.184425196850394
 20
2.815070866141733
 30
0.0
 10
1.184425196850394
 20
2.815070866141733
 30
0.0
 10
1.184425196850394
 20
2.815070866141733
 30
0.0
 10
1.178405511811024
 20
2.82553937007874
 30
0.0
 10
1.178405511811024
 20
2.82553937007874
 30
0.0
 10
1.178405511811024
 20
2.82553937007874
 30
0.0
 10
1.178405511811024
 20
2.82553937007874
 30
0.0
 10
1.171905511811024
 20
2.835685039370079
 30
0.0
 10
1.171905511811024
 20
2.835685039370079
 30
0.0
 10
1.171905511811024
 20
2.835685039370079
 30
0.0
 10
1.171905511811024
 20
2.835685039370079
 30
0.0
 10
1.164929133858268
 20
2.845484251968504
 30
0.0
 10
1.164929133858268
 20
2.845484251968504
 30
0.0
 10
1.164929133858268
 20
2.845484251968504
 30
0.0
 10
1.164929133858268
 20
2.845484251968504
 30
0.0
 10
1.157511811023622
 20
2.854929133858268
 30
0.0
 10
1.157511811023622
 20
2.854929133858268
 30
0.0
 10
1.157511811023622
 20
2.854929133858268
 30
0.0
 10
1.157511811023622
 20
2.854929133858268
 30
0.0
 10
1.149653543307087
 20
2.864
 30
0.0
 10
1.149653543307087
 20
2.864
 30
0.0
 10
1.149653543307087
 20
2.864
 30
0.0
 10
1.149653543307087
 20
2.864
 30
0.0
 10
1.141377952755906
 20
2.872688976377953
 30
0.0
 10
1.141377952755906
 20
2.872688976377953
 30
0.0
 10
1.141377952755906
 20
2.872688976377953
 30
0.0
 10
1.141377952755906
 20
2.872688976377953
 30
0.0
 10
1.132688976377953
 20
2.880964566929134
 30
0.0
 10
1.132688976377953
 20
2.880964566929134
 30
0.0
 10
1.132688976377953
 20
2.880964566929134
 30
0.0
 10
1.132688976377953
 20
2.880964566929134
 30
0.0
 10
1.123618110236221
 20
2.888822834645669
 30
0.0
 10
1.123618110236221
 20
2.888822834645669
 30
0.0
 10
1.123618110236221
 20
2.888822834645669
 30
0.0
 10
1.123618110236221
 20
2.888822834645669
 30
0.0
 10
1.114173228346457
 20
2.896240157480315
 30
0.0
 10
1.114173228346457
 20
2.896240157480315
 30
0.0
 10
1.114173228346457
 20
2.896240157480315
 30
0.0
 10
1.114173228346457
 20
2.896240157480315
 30
0.0
 10
1.104374015748032
 20
2.903216535433071
 30
0.0
 10
1.104374015748032
 20
2.903216535433071
 30
0.0
 10
1.104374015748032
 20
2.903216535433071
 30
0.0
 10
1.104374015748032
 20
2.903216535433071
 30
0.0
 10
1.094228346456693
 20
2.909716535433071
 30
0.0
 10
1.094228346456693
 20
2.909716535433071
 30
0.0
 10
1.094228346456693
 20
2.909716535433071
 30
0.0
 10
1.094228346456693
 20
2.909716535433071
 30
0.0
 10
1.083759842519685
 20
2.915736220472441
 30
0.0
 10
1.083759842519685
 20
2.915736220472441
 30
0.0
 10
1.083759842519685
 20
2.915736220472441
 30
0.0
 10
1.083759842519685
 20
2.915736220472441
 30
0.0
 10
1.07298031496063
 20
2.921255905511811
 30
0.0
 10
1.07298031496063
 20
2.921255905511811
 30
0.0
 10
1.07298031496063
 20
2.921255905511811
 30
0.0
 10
1.07298031496063
 20
2.921255905511811
 30
0.0
 10
1.061909448818898
 20
2.926267716535433
 30
0.0
 10
1.061909448818898
 20
2.926267716535433
 30
0.0
 10
1.061909448818898
 20
2.926267716535433
 30
0.0
 10
1.061909448818898
 20
2.926267716535433
 30
0.0
 10
1.050551181102362
 20
2.930740157480315
 30
0.0
 10
1.050551181102362
 20
2.930740157480315
 30
0.0
 10
1.050551181102362
 20
2.930740157480315
 30
0.0
 10
1.050551181102362
 20
2.930740157480315
 30
0.0
 10
1.038937007874016
 20
2.934673228346457
 30
0.0
 10
1.038937007874016
 20
2.934673228346457
 30
0.0
 10
1.038937007874016
 20
2.934673228346457
 30
0.0
 10
1.038937007874016
 20
2.934673228346457
 30
0.0
 10
1.027074803149606
 20
2.938043307086614
 30
0.0
 10
1.027074803149606
 20
2.938043307086614
 30
0.0
 10
1.027074803149606
 20
2.938043307086614
 30
0.0
 10
1.027074803149606
 20
2.938043307086614
 30
0.0
 10
1.014984251968504
 20
2.940838582677166
 30
0.0
 10
1.014984251968504
 20
2.940838582677166
 30
0.0
 10
1.014984251968504
 20
2.940838582677166
 30
0.0
 10
1.014984251968504
 20
2.940838582677166
 30
0.0
 10
1.002669291338583
 20
2.943031496062992
 30
0.0
 10
1.002669291338583
 20
2.943031496062992
 30
0.0
 10
1.002669291338583
 20
2.943031496062992
 30
0.0
 10
1.002669291338583
 20
2.943031496062992
 30
0.0
 10
0.9901614173228347
 20
2.944625984251969
 30
0.0
 10
0.9901614173228347
 20
2.944625984251969
 30
0.0
 10
0.9901614173228347
 20
2.944625984251969
 30
0.0
 10
0.9901614173228347
 20
2.944625984251969
 30
0.0
 10
0.9774685039370079
 20
2.945590551181103
 30
0.0
 10
0.9774685039370079
 20
2.945590551181103
 30
0.0
 10
0.9774685039370079
 20
2.945590551181103
 30
0.0
 10
0.9774685039370079
 20
2.945590551181103
 30
0.0
 10
0.9646102362204725
 20
2.94592125984252
 30
0.0
 10
0.9646102362204725
 20
2.94592125984252
 30
0.0
 10
0.9646102362204725
 20
2.94592125984252
 30
0.0
 10
0.9646102362204725
 20
2.94592125984252
 30
0.0
 10
0.3125590551181103
 20
2.568338582677165
 30
0.0
 10
0.3125590551181103
 20
2.568338582677165
 30
0.0
 10
0.3125590551181103
 20
2.568338582677165
 30
0.0
 10
0.3125590551181103
 20
2.568338582677165
 30
0.0
 10
0.3254173228346457
 20
2.568007874015748
 30
0.0
 10
0.3254173228346457
 20
2.568007874015748
 30
0.0
 10
0.3254173228346457
 20
2.568007874015748
 30
0.0
 10
0.3254173228346457
 20
2.568007874015748
 30
0.0
 10
0.3381102362204724
 20
2.567043307086614
 30
0.0
 10
0.3381102362204724
 20
2.567043307086614
 30
0.0
 10
0.3381102362204724
 20
2.567043307086614
 30
0.0
 10
0.3381102362204724
 20
2.567043307086614
 30
0.0
 10
0.3506181102362205
 20
2.565448818897638
 30
0.0
 10
0.3506181102362205
 20
2.565448818897638
 30
0.0
 10
0.3506181102362205
 20
2.565448818897638
 30
0.0
 10
0.3506181102362205
 20
2.565448818897638
 30
0.0
 10
0.3629330708661417
 20
2.563255905511811
 30
0.0
 10
0.3629330708661417
 20
2.563255905511811
 30
0.0
 10
0.3629330708661417
 20
2.563255905511811
 30
0.0
 10
0.3629330708661417
 20
2.563255905511811
 30
0.0
 10
0.3750236220472441
 20
2.56046062992126
 30
0.0
 10
0.3750236220472441
 20
2.56046062992126
 30
0.0
 10
0.3750236220472441
 20
2.56046062992126
 30
0.0
 10
0.3750236220472441
 20
2.56046062992126
 30
0.0
 10
0.3868858267716536
 20
2.557090551181103
 30
0.0
 10
0.3868858267716536
 20
2.557090551181103
 30
0.0
 10
0.3868858267716536
 20
2.557090551181103
 30
0.0
 10
0.3868858267716536
 20
2.557090551181103
 30
0.0
 10
0.3985
 20
2.553157480314961
 30
0.0
 10
0.3985
 20
2.553157480314961
 30
0.0
 10
0.3985
 20
2.553157480314961
 30
0.0
 10
0.3985
 20
2.553157480314961
 30
0.0
 10
0.4098582677165354
 20
2.548685039370079
 30
0.0
 10
0.4098582677165354
 20
2.548685039370079
 30
0.0
 10
0.4098582677165354
 20
2.548685039370079
 30
0.0
 10
0.4098582677165354
 20
2.548685039370079
 30
0.0
 10
0.4209291338582678
 20
2.543673228346457
 30
0.0
 10
0.4209291338582678
 20
2.543673228346457
 30
0.0
 10
0.4209291338582678
 20
2.543673228346457
 30
0.0
 10
0.4209291338582678
 20
2.543673228346457
 30
0.0
 10
0.4317086614173228
 20
2.538153543307087
 30
0.0
 10
0.4317086614173228
 20
2.538153543307087
 30
0.0
 10
0.4317086614173228
 20
2.538153543307087
 30
0.0
 10
0.4317086614173228
 20
2.538153543307087
 30
0.0
 10
0.4421771653543307
 20
2.532133858267716
 30
0.0
 10
0.4421771653543307
 20
2.532133858267716
 30
0.0
 10
0.4421771653543307
 20
2.532133858267716
 30
0.0
 10
0.4421771653543307
 20
2.532133858267716
 30
0.0
 10
0.4523228346456693
 20
2.525633858267717
 30
0.0
 10
0.4523228346456693
 20
2.525633858267717
 30
0.0
 10
0.4523228346456693
 20
2.525633858267717
 30
0.0
 10
0.4523228346456693
 20
2.525633858267717
 30
0.0
 10
0.4621220472440945
 20
2.518657480314961
 30
0.0
 10
0.4621220472440945
 20
2.518657480314961
 30
0.0
 10
0.4621220472440945
 20
2.518657480314961
 30
0.0
 10
0.4621220472440945
 20
2.518657480314961
 30
0.0
 10
0.4715669291338583
 20
2.511240157480315
 30
0.0
 10
0.4715669291338583
 20
2.511240157480315
 30
0.0
 10
0.4715669291338583
 20
2.511240157480315
 30
0.0
 10
0.4715669291338583
 20
2.511240157480315
 30
0.0
 10
0.4806377952755906
 20
2.50338188976378
 30
0.0
 10
0.4806377952755906
 20
2.50338188976378
 30
0.0
 10
0.4806377952755906
 20
2.50338188976378
 30
0.0
 10
0.4806377952755906
 20
2.50338188976378
 30
0.0
 10
0.4893267716535433
 20
2.495106299212599
 30
0.0
 10
0.4893267716535433
 20
2.495106299212599
 30
0.0
 10
0.4893267716535433
 20
2.495106299212599
 30
0.0
 10
0.4893267716535433
 20
2.495106299212599
 30
0.0
 10
0.4976023622047244
 20
2.486417322834646
 30
0.0
 10
0.4976023622047244
 20
2.486417322834646
 30
0.0
 10
0.4976023622047244
 20
2.486417322834646
 30
0.0
 10
0.4976023622047244
 20
2.486417322834646
 30
0.0
 10
0.5054606299212598
 20
2.477346456692914
 30
0.0
 10
0.5054606299212598
 20
2.477346456692914
 30
0.0
 10
0.5054606299212598
 20
2.477346456692914
 30
0.0
 10
0.5054606299212598
 20
2.477346456692914
 30
0.0
 10
0.5128779527559055
 20
2.46790157480315
 30
0.0
 10
0.5128779527559055
 20
2.46790157480315
 30
0.0
 10
0.5128779527559055
 20
2.46790157480315
 30
0.0
 10
0.5128779527559055
 20
2.46790157480315
 30
0.0
 10
0.5198543307086614
 20
2.458102362204725
 30
0.0
 10
0.5198543307086614
 20
2.458102362204725
 30
0.0
 10
0.5198543307086614
 20
2.458102362204725
 30
0.0
 10
0.5198543307086614
 20
2.458102362204725
 30
0.0
 10
0.5263543307086614
 20
2.447956692913386
 30
0.0
 10
0.5263543307086614
 20
2.447956692913386
 30
0.0
 10
0.5263543307086614
 20
2.447956692913386
 30
0.0
 10
0.5263543307086614
 20
2.447956692913386
 30
0.0
 10
0.5323740157480316
 20
2.437488188976378
 30
0.0
 10
0.5323740157480316
 20
2.437488188976378
 30
0.0
 10
0.5323740157480316
 20
2.437488188976378
 30
0.0
 10
0.5323740157480316
 20
2.437488188976378
 30
0.0
 10
0.5378937007874016
 20
2.426708661417323
 30
0.0
 10
0.5378937007874016
 20
2.426708661417323
 30
0.0
 10
0.5378937007874016
 20
2.426708661417323
 30
0.0
 10
0.5378937007874016
 20
2.426708661417323
 30
0.0
 10
0.5429055118110236
 20
2.415637795275591
 30
0.0
 10
0.5429055118110236
 20
2.415637795275591
 30
0.0
 10
0.5429055118110236
 20
2.415637795275591
 30
0.0
 10
0.5429055118110236
 20
2.415637795275591
 30
0.0
 10
0.5473779527559055
 20
2.404279527559055
 30
0.0
 10
0.5473779527559055
 20
2.404279527559055
 30
0.0
 10
0.5473779527559055
 20
2.404279527559055
 30
0.0
 10
0.5473779527559055
 20
2.404279527559055
 30
0.0
 10
0.5513110236220473
 20
2.392665354330709
 30
0.0
 10
0.5513110236220473
 20
2.392665354330709
 30
0.0
 10
0.5513110236220473
 20
2.392665354330709
 30
0.0
 10
0.5513110236220473
 20
2.392665354330709
 30
0.0
 10
0.5546811023622047
 20
2.380803149606299
 30
0.0
 10
0.5546811023622047
 20
2.380803149606299
 30
0.0
 10
0.5546811023622047
 20
2.380803149606299
 30
0.0
 10
0.5546811023622047
 20
2.380803149606299
 30
0.0
 10
0.557476377952756
 20
2.368712598425197
 30
0.0
 10
0.557476377952756
 20
2.368712598425197
 30
0.0
 10
0.557476377952756
 20
2.368712598425197
 30
0.0
 10
0.557476377952756
 20
2.368712598425197
 30
0.0
 10
0.5596692913385827
 20
2.356397637795276
 30
0.0
 10
0.5596692913385827
 20
2.356397637795276
 30
0.0
 10
0.5596692913385827
 20
2.356397637795276
 30
0.0
 10
0.5596692913385827
 20
2.356397637795276
 30
0.0
 10
0.5612637795275591
 20
2.343889763779528
 30
0.0
 10
0.5612637795275591
 20
2.343889763779528
 30
0.0
 10
0.5612637795275591
 20
2.343889763779528
 30
0.0
 10
0.5612637795275591
 20
2.343889763779528
 30
0.0
 10
0.562228346456693
 20
2.331196850393701
 30
0.0
 10
0.562228346456693
 20
2.331196850393701
 30
0.0
 10
0.562228346456693
 20
2.331196850393701
 30
0.0
 10
0.562228346456693
 20
2.331196850393701
 30
0.0
 10
0.5625590551181102
 20
2.318338582677165
 30
0.0
 10
0.5625590551181102
 20
2.318338582677165
 30
0.0
 10
0.5625590551181102
 20
2.318338582677165
 30
0.0
 10
0.5625590551181102
 20
2.318338582677165
 30
0.0
 10
0.562228346456693
 20
2.305468503937008
 30
0.0
 10
0.562228346456693
 20
2.305468503937008
 30
0.0
 10
0.562228346456693
 20
2.305468503937008
 30
0.0
 10
0.562228346456693
 20
2.305468503937008
 30
0.0
 10
0.5612637795275591
 20
2.292775590551181
 30
0.0
 10
0.5612637795275591
 20
2.292775590551181
 30
0.0
 10
0.5612637795275591
 20
2.292775590551181
 30
0.0
 10
0.5612637795275591
 20
2.292775590551181
 30
0.0
 10
0.5596692913385827
 20
2.280263779527559
 30
0.0
 10
0.5596692913385827
 20
2.280263779527559
 30
0.0
 10
0.5596692913385827
 20
2.280263779527559
 30
0.0
 10
0.5596692913385827
 20
2.280263779527559
 30
0.0
 10
0.557476377952756
 20
2.267956692913386
 30
0.0
 10
0.557476377952756
 20
2.267956692913386
 30
0.0
 10
0.557476377952756
 20
2.267956692913386
 30
0.0
 10
0.557476377952756
 20
2.267956692913386
 30
0.0
 10
0.5546811023622047
 20
2.255858267716536
 30
0.0
 10
0.5546811023622047
 20
2.255858267716536
 30
0.0
 10
0.5546811023622047
 20
2.255858267716536
 30
0.0
 10
0.5546811023622047
 20
2.255858267716536
 30
0.0
 10
0.5513110236220473
 20
2.244
 30
0.0
 10
0.5513110236220473
 20
2.244
 30
0.0
 10
0.5513110236220473
 20
2.244
 30
0.0
 10
0.5513110236220473
 20
2.244
 30
0.0
 10
0.5473779527559055
 20
2.23238188976378
 30
0.0
 10
0.5473779527559055
 20
2.23238188976378
 30
0.0
 10
0.5473779527559055
 20
2.23238188976378
 30
0.0
 10
0.5473779527559055
 20
2.23238188976378
 30
0.0
 10
0.5429055118110236
 20
2.221035433070866
 30
0.0
 10
0.5429055118110236
 20
2.221035433070866
 30
0.0
 10
0.5429055118110236
 20
2.221035433070866
 30
0.0
 10
0.5429055118110236
 20
2.221035433070866
 30
0.0
 10
0.5378937007874016
 20
2.209956692913386
 30
0.0
 10
0.5378937007874016
 20
2.209956692913386
 30
0.0
 10
0.5378937007874016
 20
2.209956692913386
 30
0.0
 10
0.5378937007874016
 20
2.209956692913386
 30
0.0
 10
0.5323740157480316
 20
2.199177165354331
 30
0.0
 10
0.5323740157480316
 20
2.199177165354331
 30
0.0
 10
0.5323740157480316
 20
2.199177165354331
 30
0.0
 10
0.5323740157480316
 20
2.199177165354331
 30
0.0
 10
0.5263543307086614
 20
2.188704724409449
 30
0.0
 10
0.5263543307086614
 20
2.188704724409449
 30
0.0
 10
0.5263543307086614
 20
2.188704724409449
 30
0.0
 10
0.5263543307086614
 20
2.188704724409449
 30
0.0
 10
0.5198543307086614
 20
2.178566929133858
 30
0.0
 10
0.5198543307086614
 20
2.178566929133858
 30
0.0
 10
0.5198543307086614
 20
2.178566929133858
 30
0.0
 10
0.5198543307086614
 20
2.178566929133858
 30
0.0
 10
0.5128779527559055
 20
2.168763779527559
 30
0.0
 10
0.5128779527559055
 20
2.168763779527559
 30
0.0
 10
0.5128779527559055
 20
2.168763779527559
 30
0.0
 10
0.5128779527559055
 20
2.168763779527559
 30
0.0
 10
0.5054606299212598
 20
2.159322834645669
 30
0.0
 10
0.5054606299212598
 20
2.159322834645669
 30
0.0
 10
0.5054606299212598
 20
2.159322834645669
 30
0.0
 10
0.5054606299212598
 20
2.159322834645669
 30
0.0
 10
0.4976023622047244
 20
2.150248031496063
 30
0.0
 10
0.4976023622047244
 20
2.150248031496063
 30
0.0
 10
0.4976023622047244
 20
2.150248031496063
 30
0.0
 10
0.4976023622047244
 20
2.150248031496063
 30
0.0
 10
0.4893267716535433
 20
2.141570866141732
 30
0.0
 10
0.4893267716535433
 20
2.141570866141732
 30
0.0
 10
0.4893267716535433
 20
2.141570866141732
 30
0.0
 10
0.4893267716535433
 20
2.141570866141732
 30
0.0
 10
0.4806377952755906
 20
2.133287401574803
 30
0.0
 10
0.4806377952755906
 20
2.133287401574803
 30
0.0
 10
0.4806377952755906
 20
2.133287401574803
 30
0.0
 10
0.4806377952755906
 20
2.133287401574803
 30
0.0
 10
0.4715669291338583
 20
2.125429133858268
 30
0.0
 10
0.4715669291338583
 20
2.125429133858268
 30
0.0
 10
0.4715669291338583
 20
2.125429133858268
 30
0.0
 10
0.4715669291338583
 20
2.125429133858268
 30
0.0
 10
0.4621220472440945
 20
2.118003937007874
 30
0.0
 10
0.4621220472440945
 20
2.118003937007874
 30
0.0
 10
0.4621220472440945
 20
2.118003937007874
 30
0.0
 10
0.4621220472440945
 20
2.118003937007874
 30
0.0
 10
0.4523228346456693
 20
2.111035433070866
 30
0.0
 10
0.4523228346456693
 20
2.111035433070866
 30
0.0
 10
0.4523228346456693
 20
2.111035433070866
 30
0.0
 10
0.4523228346456693
 20
2.111035433070866
 30
0.0
 10
0.4421771653543307
 20
2.104531496062992
 30
0.0
 10
0.4421771653543307
 20
2.104531496062992
 30
0.0
  0
SPLINE
  5
50
330
1F
100
AcDbEntity
  8
LAYER_1
 62
   253
100
AcDbSpline
210
0.0
220
0.0
230
1.0
 70
    11
 71
     3
 72
    20
 73
    16
 74
     0
 42
0.0000000001
 43
0.0000000001
 40
0.0
 40
0.0
 40
0.0
 40
0.0
 40
0.25
 40
0.25
 40
0.25
 40
0.25
 40
0.5
 40
0.5
 40
0.5
 40
0.5
 40
0.75
 40
0.75
 40
0.75
 40
0.75
 40
1.0
 40
1.0
 40
1.0
 40
1.0
 10
0.3125590551181103
 20
2.568338582677165
 30
0.0
 10
0.3125590551181103
 20
2.568338582677165
 30
0.0
 10
0.9646102362204725
 20
2.94592125984252
 30
0.0
 10
0.9646102362204725
 20
2.94592125984252
 30
0.0
 10
0.9646102362204725
 20
2.94592125984252
 30
0.0
 10
0.9646102362204725
 20
2.94592125984252
 30
0.0
 10
0.9646102362204725
 20
3.07092125984252
 30
0.0
 10
0.9646102362204725
 20
3.07092125984252
 30
0.0
 10
0.9646102362204725
 20
3.07092125984252
 30
0.0
 10
0.9646102362204725
 20
3.07092125984252
 30
0.0
 10
0.3125590551181103
 20
2.693338582677165
 30
0.0
 10
0.3125590551181103
 20
2.693338582677165
 30
0.0
 10
0.3125590551181103
 20
2.693338582677165
 30
0.0
 10
0.3125590551181103
 20
2.693338582677165
 30
0.0
 10
0.3125590551181103
 20
2.568338582677165
 30
0.0
 10
0.3125590551181103
 20
2.568338582677165
 30
0.0
  0
SPLINE
  5
51
330
1F
100
AcDbEntity
  8
LAYER_1
 62
   250
100
AcDbSpline
210
0.0
220
0.0
230
1.0
 70
    11
 71
     3
 72
    20
 73
    16
 74
     0
 42
0.0000000001
 43
0.0000000001
 40
0.0
 40
0.0
 40
0.0
 40
0.0
 40
0.25
 40
0.25
 40
0.25
 40
0.25
 40
0.5
 40
0.5
 40
0.5
 40
0.5
 40
0.75
 40
0.75
 40
0.75
 40
0.75
 40
1.0
 40
1.0
 40
1.0
 40
1.0
 10
0.3125590551181103
 20
2.568338582677165
 30
0.0
 10
0.3125590551181103
 20
2.568338582677165
 30
0.0
 10
0.9646102362204725
 20
2.94592125984252
 30
0.0
 10
0.9646102362204725
 20
2.94592125984252
 30
0.0
 10
0.9646102362204725
 20
2.94592125984252
 30
0.0
 10
0.9646102362204725
 20
2.94592125984252
 30
0.0
 10
0.9646102362204725
 20
3.07092125984252
 30
0.0
 10
0.9646102362204725
 20
3.07092125984252
 30
0.0
 10
0.9646102362204725
 20
3.07092125984252
 30
0.0
 10
0.9646102362204725
 20
3.07092125984252
 30
0.0
 10
0.3125590551181103
 20
2.693338582677165
 30
0.0
 10
0.3125590551181103
 20
2.693338582677165
 30
0.0
 10
0.3125590551181103
 20
2.693338582677165
 30
0.0
 10
0.3125590551181103
 20
2.693338582677165
 30
0.0
 10
0.3125590551181103
 20
2.568338582677165
 30
0.0
 10
0.3125590551181103
 20
2.568338582677165
 30
0.0
  0
SPLINE
  5
52
330
1F
100
AcDbEntity
  8
LAYER_1
 62
   252
100
AcDbSpline
210
0.0
220
0.0
230
1.0
 70
    11
 71
     3
 72
    20
 73
    16
 74
     0
 42
0.0000000001
 43
0.0000000001
 40
0.0
 40
0.0
 40
0.0
 40
0.0
 40
0.25
 40
0.25
 40
0.25
 40
0.25
 40
0.5
 40
0.5
 40
0.5
 40
0.5
 40
0.75
 40
0.75
 40
0.75
 40
0.75
 40
1.0
 40
1.0
 40
1.0
 40
1.0
 10
0.3125590551181103
 20
2.693338582677165
 30
0.0
 10
0.3125590551181103
 20
2.693338582677165
 30
0.0
 10
0.9646102362204725
 20
3.07092125984252
 30
0.0
 10
0.9646102362204725
 20
3.07092125984252
 30
0.0
 10
0.9646102362204725
 20
3.07092125984252
 30
0.0
 10
0.9646102362204725
 20
3.07092125984252
 30
0.0
 10
0.2146102362204725
 20
3.07092125984252
 30
0.0
 10
0.2146102362204725
 20
3.07092125984252
 30
0.0
 10
0.2146102362204725
 20
3.07092125984252
 30
0.0
 10
0.2146102362204725
 20
3.07092125984252
 30
0.0
 10
-0.4374409448818898
 20
2.693338582677165
 30
0.0
 10
-0.4374409448818898
 20
2.693338582677165
 30
0.0
 10
-0.4374409448818898
 20
2.693338582677165
 30
0.0
 10
-0.4374409448818898
 20
2.693338582677165
 30
0.0
 10
0.3125590551181103
 20
2.693338582677165
 30
0.0
 10
0.3125590551181103
 20
2.693338582677165
 30
0.0
  0
SPLINE
  5
53
330
1F
100
AcDbEntity
  8
LAYER_1
 62
   250
100
AcDbSpline
210
0.0
220
0.0
230
1.0
 70
    11
 71
     3
 72
    20
 73
    16
 74
     0
 42
0.0000000001
 43
0.0000000001
 40
0.0
 40
0.0
 40
0.0
 40
0.0
 40
0.25
 40
0.25
 40
0.25
 40
0.25
 40
0.5
 40
0.5
 40
0.5
 40
0.5
 40
0.75
 40
0.75
 40
0.75
 40
0.75
 40
1.0
 40
1.0
 40
1.0
 40
1.0
 10
0.3125590551181103
 20
2.693338582677165
 30
0.0
 10
0.3125590551181103
 20
2.693338582677165
 30
0.0
 10
0.9646102362204725
 20
3.07092125984252
 30
0.0
 10
0.9646102362204725
 20
3.07092125984252
 30
0.0
 10
0.9646102362204725
 20
3.07092125984252
 30
0.0
 10
0.9646102362204725
 20
3.07092125984252
 30
0.0
 10
0.2146102362204725
 20
3.07092125984252
 30
0.0
 10
0.2146102362204725
 20
3.07092125984252
 30
0.0
 10
0.2146102362204725
 20
3.07092125984252
 30
0.0
 10
0.2146102362204725
 20
3.07092125984252
 30
0.0
 10
-0.4374409448818898
 20
2.693338582677165
 30
0.0
 10
-0.4374409448818898
 20
2.693338582677165
 30
0.0
 10
-0.4374409448818898
 20
2.693338582677165
 30
0.0
 10
-0.4374409448818898
 20
2.693338582677165
 30
0.0
 10
0.3125590551181103
 20
2.693338582677165
 30
0.0
 10
0.3125590551181103
 20
2.693338582677165
 30
0.0
  0
SPLINE
  5
54
330
1F
100
AcDbEntity
  8
LAYER_1
 62
   253
100
AcDbSpline
210
0.0
220
0.0
230
1.0
 70
    11
 71
     3
 72
    20
 73
    16
 74
     0
 42
0.0000000001
 43
0.0000000001
 40
0.0
 40
0.0
 40
0.0
 40
0.0
 40
0.25
 40
0.25
 40
0.25
 40
0.25
 40
0.5
 40
0.5
 40
0.5
 40
0.5
 40
0.75
 40
0.75
 40
0.75
 40
0.75
 40
1.0
 40
1.0
 40
1.0
 40
1.0
 10
0.3125590551181103
 20
1.943338582677165
 30
0.0
 10
0.3125590551181103
 20
1.943338582677165
 30
0.0
 10
0.9646102362204725
 20
2.32092125984252
 30
0.0
 10
0.9646102362204725
 20
2.32092125984252
 30
0.0
 10
0.9646102362204725
 20
2.32092125984252
 30
0.0
 10
0.9646102362204725
 20
2.32092125984252
 30
0.0
 10
0.9646102362204725
 20
2.44592125984252
 30
0.0
 10
0.9646102362204725
 20
2.44592125984252
 30
0.0
 10
0.9646102362204725
 20
2.44592125984252
 30
0.0
 10
0.9646102362204725
 20
2.44592125984252
 30
0.0
 10
0.3125590551181103
 20
2.068338582677165
 30
0.0
 10
0.3125590551181103
 20
2.068338582677165
 30
0.0
 10
0.3125590551181103
 20
2.068338582677165
 30
0.0
 10
0.3125590551181103
 20
2.068338582677165
 30
0.0
 10
0.3125590551181103
 20
1.943338582677165
 30
0.0
 10
0.3125590551181103
 20
1.943338582677165
 30
0.0
  0
SPLINE
  5
55
330
1F
100
AcDbEntity
  8
LAYER_1
 62
   250
100
AcDbSpline
210
0.0
220
0.0
230
1.0
 70
    11
 71
     3
 72
    20
 73
    16
 74
     0
 42
0.0000000001
 43
0.0000000001
 40
0.0
 40
0.0
 40
0.0
 40
0.0
 40
0.25
 40
0.25
 40
0.25
 40
0.25
 40
0.5
 40
0.5
 40
0.5
 40
0.5
 40
0.75
 40
0.75
 40
0.75
 40
0.75
 40
1.0
 40
1.0
 40
1.0
 40
1.0
 10
0.3125590551181103
 20
1.943338582677165
 30
0.0
 10
0.3125590551181103
 20
1.943338582677165
 30
0.0
 10
0.9646102362204725
 20
2.32092125984252
 30
0.0
 10
0.9646102362204725
 20
2.32092125984252
 30
0.0
 10
0.9646102362204725
 20
2.32092125984252
 30
0.0
 10
0.9646102362204725
 20
2.32092125984252
 30
0.0
 10
0.9646102362204725
 20
2.44592125984252
 30
0.0
 10
0.9646102362204725
 20
2.44592125984252
 30
0.0
 10
0.9646102362204725
 20
2.44592125984252
 30
0.0
 10
0.9646102362204725
 20
2.44592125984252
 30
0.0
 10
0.3125590551181103
 20
2.068338582677165
 30
0.0
 10
0.3125590551181103
 20
2.068338582677165
 30
0.0
 10
0.3125590551181103
 20
2.068338582677165
 30
0.0
 10
0.3125590551181103
 20
2.068338582677165
 30
0.0
 10
0.3125590551181103
 20
1.943338582677165
 30
0.0
 10
0.3125590551181103
 20
1.943338582677165
 30
0.0
  0
SPLINE
  5
56
330
1F
100
AcDbEntity
  8
LAYER_1
 62
   252
100
AcDbSpline
210
0.0
220
0.0
230
1.0
 70
    11
 71
     3
 72
    44
 73
    40
 74
     0
 42
0.0000000001
 43
0.0000000001
 40
0.0
 40
0.0
 40
0.0
 40
0.0
 40
0.1
 40
0.1
 40
0.1
 40
0.1
 40
0.2
 40
0.2
 40
0.2
 40
0.2
 40
0.3
 40
0.3
 40
0.3
 40
0.3
 40
0.4
 40
0.4
 40
0.4
 40
0.4
 40
0.5
 40
0.5
 40
0.5
 40
0.5
 40
0.6
 40
0.6
 40
0.6
 40
0.6
 40
0.7
 40
0.7
 40
0.7
 40
0.7
 40
0.7999999999999999
 40
0.7999999999999999
 40
0.7999999999999999
 40
0.7999999999999999
 40
0.8999999999999999
 40
0.8999999999999999
 40
0.8999999999999999
 40
0.8999999999999999
 40
1.0
 40
1.0
 40
1.0
 40
1.0
 10
0.4421771653543307
 20
2.104531496062992
 30
0.0
 10
0.4421771653543307
 20
2.104531496062992
 30
0.0
 10
1.094228346456693
 20
2.482114173228347
 30
0.0
 10
1.094228346456693
 20
2.482114173228347
 30
0.0
 10
1.094228346456693
 20
2.482114173228347
 30
0.0
 10
1.094228346456693
 20
2.482114173228347
 30
0.0
 10
1.104374015748032
 20
2.48861811023622
 30
0.0
 10
1.104374015748032
 20
2.48861811023622
 30
0.0
 10
1.104374015748032
 20
2.48861811023622
 30
0.0
 10
1.104374015748032
 20
2.48861811023622
 30
0.0
 10
1.114173228346457
 20
2.495586614173229
 30
0.0
 10
1.114173228346457
 20
2.495586614173229
 30
0.0
 10
1.114173228346457
 20
2.495586614173229
 30
0.0
 10
1.114173228346457
 20
2.495586614173229
 30
0.0
 10
1.123618110236221
 20
2.503011811023622
 30
0.0
 10
1.123618110236221
 20
2.503011811023622
 30
0.0
 10
1.123618110236221
 20
2.503011811023622
 30
0.0
 10
1.123618110236221
 20
2.503011811023622
 30
0.0
 10
1.132688976377953
 20
2.510870078740158
 30
0.0
 10
1.132688976377953
 20
2.510870078740158
 30
0.0
 10
1.132688976377953
 20
2.510870078740158
 30
0.0
 10
1.132688976377953
 20
2.510870078740158
 30
0.0
 10
0.4806377952755906
 20
2.133287401574803
 30
0.0
 10
0.4806377952755906
 20
2.133287401574803
 30
0.0
 10
0.4806377952755906
 20
2.133287401574803
 30
0.0
 10
0.4806377952755906
 20
2.133287401574803
 30
0.0
 10
0.4715669291338583
 20
2.125429133858268
 30
0.0
 10
0.4715669291338583
 20
2.125429133858268
 30
0.0
 10
0.4715669291338583
 20
2.125429133858268
 30
0.0
 10
0.4715669291338583
 20
2.125429133858268
 30
0.0
 10
0.4621220472440945
 20
2.118003937007874
 30
0.0
 10
0.4621220472440945
 20
2.118003937007874
 30
0.0
 10
0.4621220472440945
 20
2.118003937007874
 30
0.0
 10
0.4621220472440945
 20
2.118003937007874
 30
0.0
 10
0.4523228346456693
 20
2.111035433070866
 30
0.0
 10
0.4523228346456693
 20
2.111035433070866
 30
0.0
 10
0.4523228346456693
 20
2.111035433070866
 30
0.0
 10
0.4523228346456693
 20
2.111035433070866
 30
0.0
 10
0.4421771653543307
 20
2.104531496062992
 30
0.0
 10
0.4421771653543307
 20
2.104531496062992
 30
0.0
  0
SPLINE
  5
57
330
1F
100
AcDbEntity
  8
LAYER_1
 62
   253
100
AcDbSpline
210
0.0
220
0.0
230
1.0
 70
    11
 71
     3
 72
    44
 73
    40
 74
     0
 42
0.0000000001
 43
0.0000000001
 40
0.0
 40
0.0
 40
0.0
 40
0.0
 40
0.1
 40
0.1
 40
0.1
 40
0.1
 40
0.2
 40
0.2
 40
0.2
 40
0.2
 40
0.3
 40
0.3
 40
0.3
 40
0.3
 40
0.4
 40
0.4
 40
0.4
 40
0.4
 40
0.5
 40
0.5
 40
0.5
 40
0.5
 40
0.6
 40
0.6
 40
0.6
 40
0.6
 40
0.7
 40
0.7
 40
0.7
 40
0.7
 40
0.7999999999999999
 40
0.7999999999999999
 40
0.7999999999999999
 40
0.7999999999999999
 40
0.8999999999999999
 40
0.8999999999999999
 40
0.8999999999999999
 40
0.8999999999999999
 40
1.0
 40
1.0
 40
1.0
 40
1.0
 10
0.4806377952755906
 20
2.133287401574803
 30
0.0
 10
0.4806377952755906
 20
2.133287401574803
 30
0.0
 10
1.132688976377953
 20
2.510870078740158
 30
0.0
 10
1.132688976377953
 20
2.510870078740158
 30
0.0
 10
1.132688976377953
 20
2.510870078740158
 30
0.0
 10
1.132688976377953
 20
2.510870078740158
 30
0.0
 10
1.141377952755906
 20
2.519153543307087
 30
0.0
 10
1.141377952755906
 20
2.519153543307087
 30
0.0
 10
1.141377952755906
 20
2.519153543307087
 30
0.0
 10
1.141377952755906
 20
2.519153543307087
 30
0.0
 10
1.149653543307087
 20
2.527830708661417
 30
0.0
 10
1.149653543307087
 20
2.527830708661417
 30
0.0
 10
1.149653543307087
 20
2.527830708661417
 30
0.0
 10
1.149653543307087
 20
2.527830708661417
 30
0.0
 10
1.157511811023622
 20
2.536905511811024
 30
0.0
 10
1.157511811023622
 20
2.536905511811024
 30
0.0
 10
1.157511811023622
 20
2.536905511811024
 30
0.0
 10
1.157511811023622
 20
2.536905511811024
 30
0.0
 10
1.164929133858268
 20
2.546346456692914
 30
0.0
 10
1.164929133858268
 20
2.546346456692914
 30
0.0
 10
1.164929133858268
 20
2.546346456692914
 30
0.0
 10
1.164929133858268
 20
2.546346456692914
 30
0.0
 10
0.5128779527559055
 20
2.168763779527559
 30
0.0
 10
0.5128779527559055
 20
2.168763779527559
 30
0.0
 10
0.5128779527559055
 20
2.168763779527559
 30
0.0
 10
0.5128779527559055
 20
2.168763779527559
 30
0.0
 10
0.5054606299212598
 20
2.159322834645669
 30
0.0
 10
0.5054606299212598
 20
2.159322834645669
 30
0.0
 10
0.5054606299212598
 20
2.159322834645669
 30
0.0
 10
0.5054606299212598
 20
2.159322834645669
 30
0.0
 10
0.4976023622047244
 20
2.150248031496063
 30
0.0
 10
0.4976023622047244
 20
2.150248031496063
 30
0.0
 10
0.4976023622047244
 20
2.150248031496063
 30
0.0
 10
0.4976023622047244
 20
2.150248031496063
 30
0.0
 10
0.4893267716535433
 20
2.141570866141732
 30
0.0
 10
0.4893267716535433
 20
2.141570866141732
 30
0.0
 10
0.4893267716535433
 20
2.141570866141732
 30
0.0
 10
0.4893267716535433
 20
2.141570866141732
 30
0.0
 10
0.4806377952755906
 20
2.133287401574803
 30
0.0
 10
0.4806377952755906
 20
2.133287401574803
 30
0.0
  0
SPLINE
  5
58
330
1F
100
AcDbEntity
  8
LAYER_1
 62
   253
100
AcDbSpline
210
0.0
220
0.0
230
1.0
 70
    11
 71
     3
 72
    44
 73
    40
 74
     0
 42
0.0000000001
 43
0.0000000001
 40
0.0
 40
0.0
 40
0.0
 40
0.0
 40
0.1
 40
0.1
 40
0.1
 40
0.1
 40
0.2
 40
0.2
 40
0.2
 40
0.2
 40
0.3
 40
0.3
 40
0.3
 40
0.3
 40
0.4
 40
0.4
 40
0.4
 40
0.4
 40
0.5
 40
0.5
 40
0.5
 40
0.5
 40
0.6
 40
0.6
 40
0.6
 40
0.6
 40
0.7
 40
0.7
 40
0.7
 40
0.7
 40
0.7999999999999999
 40
0.7999999999999999
 40
0.7999999999999999
 40
0.7999999999999999
 40
0.8999999999999999
 40
0.8999999999999999
 40
0.8999999999999999
 40
0.8999999999999999
 40
1.0
 40
1.0
 40
1.0
 40
1.0
 10
0.5128779527559055
 20
2.168763779527559
 30
0.0
 10
0.5128779527559055
 20
2.168763779527559
 30
0.0
 10
1.164929133858268
 20
2.546346456692914
 30
0.0
 10
1.164929133858268
 20
2.546346456692914
 30
0.0
 10
1.164929133858268
 20
2.546346456692914
 30
0.0
 10
1.164929133858268
 20
2.546346456692914
 30
0.0
 10
1.171905511811024
 20
2.556149606299213
 30
0.0
 10
1.171905511811024
 20
2.556149606299213
 30
0.0
 10
1.171905511811024
 20
2.556149606299213
 30
0.0
 10
1.171905511811024
 20
2.556149606299213
 30
0.0
 10
1.178405511811024
 20
2.566287401574803
 30
0.0
 10
1.178405511811024
 20
2.566287401574803
 30
0.0
 10
1.178405511811024
 20
2.566287401574803
 30
0.0
 10
1.178405511811024
 20
2.566287401574803
 30
0.0
 10
1.184425196850394
 20
2.576759842519685
 30
0.0
 10
1.184425196850394
 20
2.576759842519685
 30
0.0
 10
1.184425196850394
 20
2.576759842519685
 30
0.0
 10
1.184425196850394
 20
2.576759842519685
 30
0.0
 10
1.189944881889764
 20
2.58753937007874
 30
0.0
 10
1.189944881889764
 20
2.58753937007874
 30
0.0
 10
1.189944881889764
 20
2.58753937007874
 30
0.0
 10
1.189944881889764
 20
2.58753937007874
 30
0.0
 10
0.5378937007874016
 20
2.209956692913386
 30
0.0
 10
0.5378937007874016
 20
2.209956692913386
 30
0.0
 10
0.5378937007874016
 20
2.209956692913386
 30
0.0
 10
0.5378937007874016
 20
2.209956692913386
 30
0.0
 10
0.5323740157480316
 20
2.199177165354331
 30
0.0
 10
0.5323740157480316
 20
2.199177165354331
 30
0.0
 10
0.5323740157480316
 20
2.199177165354331
 30
0.0
 10
0.5323740157480316
 20
2.199177165354331
 30
0.0
 10
0.5263543307086614
 20
2.188704724409449
 30
0.0
 10
0.5263543307086614
 20
2.188704724409449
 30
0.0
 10
0.5263543307086614
 20
2.188704724409449
 30
0.0
 10
0.5263543307086614
 20
2.188704724409449
 30
0.0
 10
0.5198543307086614
 20
2.178566929133858
 30
0.0
 10
0.5198543307086614
 20
2.178566929133858
 30
0.0
 10
0.5198543307086614
 20
2.178566929133858
 30
0.0
 10
0.5198543307086614
 20
2.178566929133858
 30
0.0
 10
0.5128779527559055
 20
2.168763779527559
 30
0.0
 10
0.5128779527559055
 20
2.168763779527559
 30
0.0
  0
SPLINE
  5
59
330
1F
100
AcDbEntity
  8
LAYER_1
 62
   253
100
AcDbSpline
210
0.0
220
0.0
230
1.0
 70
    11
 71
     3
 72
    44
 73
    40
 74
     0
 42
0.0000000001
 43
0.0000000001
 40
0.0
 40
0.0
 40
0.0
 40
0.0
 40
0.1
 40
0.1
 40
0.1
 40
0.1
 40
0.2
 40
0.2
 40
0.2
 40
0.2
 40
0.3
 40
0.3
 40
0.3
 40
0.3
 40
0.4
 40
0.4
 40
0.4
 40
0.4
 40
0.5
 40
0.5
 40
0.5
 40
0.5
 40
0.6
 40
0.6
 40
0.6
 40
0.6
 40
0.7
 40
0.7
 40
0.7
 40
0.7
 40
0.7999999999999999
 40
0.7999999999999999
 40
0.7999999999999999
 40
0.7999999999999999
 40
0.8999999999999999
 40
0.8999999999999999
 40
0.8999999999999999
 40
0.8999999999999999
 40
1.0
 40
1.0
 40
1.0
 40
1.0
 10
0.5378937007874016
 20
2.209956692913386
 30
0.0
 10
0.5378937007874016
 20
2.209956692913386
 30
0.0
 10
1.189944881889764
 20
2.58753937007874
 30
0.0
 10
1.189944881889764
 20
2.58753937007874
 30
0.0
 10
1.189944881889764
 20
2.58753937007874
 30
0.0
 10
1.189944881889764
 20
2.58753937007874
 30
0.0
 10
1.194956692913386
 20
2.598618110236221
 30
0.0
 10
1.194956692913386
 20
2.598618110236221
 30
0.0
 10
1.194956692913386
 20
2.598618110236221
 30
0.0
 10
1.194956692913386
 20
2.598618110236221
 30
0.0
 10
1.199429133858268
 20
2.609964566929134
 30
0.0
 10
1.199429133858268
 20
2.609964566929134
 30
0.0
 10
1.199429133858268
 20
2.609964566929134
 30
0.0
 10
1.199429133858268
 20
2.609964566929134
 30
0.0
 10
1.20336220472441
 20
2.621582677165355
 30
0.0
 10
1.20336220472441
 20
2.621582677165355
 30
0.0
 10
1.20336220472441
 20
2.621582677165355
 30
0.0
 10
1.20336220472441
 20
2.621582677165355
 30
0.0
 10
1.206732283464567
 20
2.63344094488189
 30
0.0
 10
1.206732283464567
 20
2.63344094488189
 30
0.0
 10
1.206732283464567
 20
2.63344094488189
 30
0.0
 10
1.206732283464567
 20
2.63344094488189
 30
0.0
 10
0.5546811023622047
 20
2.255858267716536
 30
0.0
 10
0.5546811023622047
 20
2.255858267716536
 30
0.0
 10
0.5546811023622047
 20
2.255858267716536
 30
0.0
 10
0.5546811023622047
 20
2.255858267716536
 30
0.0
 10
0.5513110236220473
 20
2.244
 30
0.0
 10
0.5513110236220473
 20
2.244
 30
0.0
 10
0.5513110236220473
 20
2.244
 30
0.0
 10
0.5513110236220473
 20
2.244
 30
0.0
 10
0.5473779527559055
 20
2.23238188976378
 30
0.0
 10
0.5473779527559055
 20
2.23238188976378
 30
0.0
 10
0.5473779527559055
 20
2.23238188976378
 30
0.0
 10
0.5473779527559055
 20
2.23238188976378
 30
0.0
 10
0.5429055118110236
 20
2.221035433070866
 30
0.0
 10
0.5429055118110236
 20
2.221035433070866
 30
0.0
 10
0.5429055118110236
 20
2.221035433070866
 30
0.0
 10
0.5429055118110236
 20
2.221035433070866
 30
0.0
 10
0.5378937007874016
 20
2.209956692913386
 30
0.0
 10
0.5378937007874016
 20
2.209956692913386
 30
0.0
  0
SPLINE
  5
5A
330
1F
100
AcDbEntity
  8
LAYER_1
 62
   253
100
AcDbSpline
210
0.0
220
0.0
230
1.0
 70
    11
 71
     3
 72
    36
 73
    32
 74
     0
 42
0.0000000001
 43
0.0000000001
 40
0.0
 40
0.0
 40
0.0
 40
0.0
 40
0.125
 40
0.125
 40
0.125
 40
0.125
 40
0.25
 40
0.25
 40
0.25
 40
0.25
 40
0.375
 40
0.375
 40
0.375
 40
0.375
 40
0.5
 40
0.5
 40
0.5
 40
0.5
 40
0.625
 40
0.625
 40
0.625
 40
0.625
 40
0.75
 40
0.75
 40
0.75
 40
0.75
 40
0.875
 40
0.875
 40
0.875
 40
0.875
 40
1.0
 40
1.0
 40
1.0
 40
1.0
 10
0.5546811023622047
 20
2.255858267716536
 30
0.0
 10
0.5546811023622047
 20
2.255858267716536
 30
0.0
 10
1.206732283464567
 20
2.63344094488189
 30
0.0
 10
1.206732283464567
 20
2.63344094488189
 30
0.0
 10
1.206732283464567
 20
2.63344094488189
 30
0.0
 10
1.206732283464567
 20
2.63344094488189
 30
0.0
 10
1.209527559055118
 20
2.64553937007874
 30
0.0
 10
1.209527559055118
 20
2.64553937007874
 30
0.0
 10
1.209527559055118
 20
2.64553937007874
 30
0.0
 10
1.209527559055118
 20
2.64553937007874
 30
0.0
 10
1.211720472440945
 20
2.657846456692913
 30
0.0
 10
1.211720472440945
 20
2.657846456692913
 30
0.0
 10
1.211720472440945
 20
2.657846456692913
 30
0.0
 10
1.211720472440945
 20
2.657846456692913
 30
0.0
 10
1.213314960629921
 20
2.670358267716535
 30
0.0
 10
1.213314960629921
 20
2.670358267716535
 30
0.0
 10
1.213314960629921
 20
2.670358267716535
 30
0.0
 10
1.213314960629921
 20
2.670358267716535
 30
0.0
 10
0.5612637795275591
 20
2.292775590551181
 30
0.0
 10
0.5612637795275591
 20
2.292775590551181
 30
0.0
 10
0.5612637795275591
 20
2.292775590551181
 30
0.0
 10
0.5612637795275591
 20
2.292775590551181
 30
0.0
 10
0.5596692913385827
 20
2.280263779527559
 30
0.0
 10
0.5596692913385827
 20
2.280263779527559
 30
0.0
 10
0.5596692913385827
 20
2.280263779527559
 30
0.0
 10
0.5596692913385827
 20
2.280263779527559
 30
0.0
 10
0.557476377952756
 20
2.267956692913386
 30
0.0
 10
0.557476377952756
 20
2.267956692913386
 30
0.0
 10
0.557476377952756
 20
2.267956692913386
 30
0.0
 10
0.557476377952756
 20
2.267956692913386
 30
0.0
 10
0.5546811023622047
 20
2.255858267716536
 30
0.0
 10
0.5546811023622047
 20
2.255858267716536
 30
0.0
  0
SPLINE
  5
5B
330
1F
100
AcDbEntity
  8
LAYER_1
 62
   253
100
AcDbSpline
210
0.0
220
0.0
230
1.0
 70
    11
 71
     3
 72
    36
 73
    32
 74
     0
 42
0.0000000001
 43
0.0000000001
 40
0.0
 40
0.0
 40
0.0
 40
0.0
 40
0.125
 40
0.125
 40
0.125
 40
0.125
 40
0.25
 40
0.25
 40
0.25
 40
0.25
 40
0.375
 40
0.375
 40
0.375
 40
0.375
 40
0.5
 40
0.5
 40
0.5
 40
0.5
 40
0.625
 40
0.625
 40
0.625
 40
0.625
 40
0.75
 40
0.75
 40
0.75
 40
0.75
 40
0.875
 40
0.875
 40
0.875
 40
0.875
 40
1.0
 40
1.0
 40
1.0
 40
1.0
 10
0.5612637795275591
 20
2.292775590551181
 30
0.0
 10
0.5612637795275591
 20
2.292775590551181
 30
0.0
 10
1.213314960629921
 20
2.670358267716535
 30
0.0
 10
1.213314960629921
 20
2.670358267716535
 30
0.0
 10
1.213314960629921
 20
2.670358267716535
 30
0.0
 10
1.213314960629921
 20
2.670358267716535
 30
0.0
 10
1.214279527559055
 20
2.683051181102362
 30
0.0
 10
1.214279527559055
 20
2.683051181102362
 30
0.0
 10
1.214279527559055
 20
2.683051181102362
 30
0.0
 10
1.214279527559055
 20
2.683051181102362
 30
0.0
 10
1.214610236220473
 20
2.69592125984252
 30
0.0
 10
1.214610236220473
 20
2.69592125984252
 30
0.0
 10
1.214610236220473
 20
2.69592125984252
 30
0.0
 10
1.214610236220473
 20
2.69592125984252
 30
0.0
 10
1.214279527559055
 20
2.708779527559055
 30
0.0
 10
1.214279527559055
 20
2.708779527559055
 30
0.0
 10
1.214279527559055
 20
2.708779527559055
 30
0.0
 10
1.214279527559055
 20
2.708779527559055
 30
0.0
 10
0.562228346456693
 20
2.331196850393701
 30
0.0
 10
0.562228346456693
 20
2.331196850393701
 30
0.0
 10
0.562228346456693
 20
2.331196850393701
 30
0.0
 10
0.562228346456693
 20
2.331196850393701
 30
0.0
 10
0.5625590551181102
 20
2.318338582677165
 30
0.0
 10
0.5625590551181102
 20
2.318338582677165
 30
0.0
 10
0.5625590551181102
 20
2.318338582677165
 30
0.0
 10
0.5625590551181102
 20
2.318338582677165
 30
0.0
 10
0.562228346456693
 20
2.305468503937008
 30
0.0
 10
0.562228346456693
 20
2.305468503937008
 30
0.0
 10
0.562228346456693
 20
2.305468503937008
 30
0.0
 10
0.562228346456693
 20
2.305468503937008
 30
0.0
 10
0.5612637795275591
 20
2.292775590551181
 30
0.0
 10
0.5612637795275591
 20
2.292775590551181
 30
0.0
  0
SPLINE
  5
5C
330
1F
100
AcDbEntity
  8
LAYER_1
 62
   253
100
AcDbSpline
210
0.0
220
0.0
230
1.0
 70
    11
 71
     3
 72
    36
 73
    32
 74
     0
 42
0.0000000001
 43
0.0000000001
 40
0.0
 40
0.0
 40
0.0
 40
0.0
 40
0.125
 40
0.125
 40
0.125
 40
0.125
 40
0.25
 40
0.25
 40
0.25
 40
0.25
 40
0.375
 40
0.375
 40
0.375
 40
0.375
 40
0.5
 40
0.5
 40
0.5
 40
0.5
 40
0.625
 40
0.625
 40
0.625
 40
0.625
 40
0.75
 40
0.75
 40
0.75
 40
0.75
 40
0.875
 40
0.875
 40
0.875
 40
0.875
 40
1.0
 40
1.0
 40
1.0
 40
1.0
 10
0.562228346456693
 20
2.331196850393701
 30
0.0
 10
0.562228346456693
 20
2.331196850393701
 30
0.0
 10
1.214279527559055
 20
2.708779527559055
 30
0.0
 10
1.214279527559055
 20
2.708779527559055
 30
0.0
 10
1.214279527559055
 20
2.708779527559055
 30
0.0
 10
1.214279527559055
 20
2.708779527559055
 30
0.0
 10
1.213314960629921
 20
2.721472440944882
 30
0.0
 10
1.213314960629921
 20
2.721472440944882
 30
0.0
 10
1.213314960629921
 20
2.721472440944882
 30
0.0
 10
1.213314960629921
 20
2.721472440944882
 30
0.0
 10
1.211720472440945
 20
2.73398031496063
 30
0.0
 10
1.211720472440945
 20
2.73398031496063
 30
0.0
 10
1.211720472440945
 20
2.73398031496063
 30
0.0
 10
1.211720472440945
 20
2.73398031496063
 30
0.0
 10
1.209527559055118
 20
2.746295275590551
 30
0.0
 10
1.209527559055118
 20
2.746295275590551
 30
0.0
 10
1.209527559055118
 20
2.746295275590551
 30
0.0
 10
1.209527559055118
 20
2.746295275590551
 30
0.0
 10
0.557476377952756
 20
2.368712598425197
 30
0.0
 10
0.557476377952756
 20
2.368712598425197
 30
0.0
 10
0.557476377952756
 20
2.368712598425197
 30
0.0
 10
0.557476377952756
 20
2.368712598425197
 30
0.0
 10
0.5596692913385827
 20
2.356397637795276
 30
0.0
 10
0.5596692913385827
 20
2.356397637795276
 30
0.0
 10
0.5596692913385827
 20
2.356397637795276
 30
0.0
 10
0.5596692913385827
 20
2.356397637795276
 30
0.0
 10
0.5612637795275591
 20
2.343889763779528
 30
0.0
 10
0.5612637795275591
 20
2.343889763779528
 30
0.0
 10
0.5612637795275591
 20
2.343889763779528
 30
0.0
 10
0.5612637795275591
 20
2.343889763779528
 30
0.0
 10
0.562228346456693
 20
2.331196850393701
 30
0.0
 10
0.562228346456693
 20
2.331196850393701
 30
0.0
  0
SPLINE
  5
5D
330
1F
100
AcDbEntity
  8
LAYER_1
 62
   253
100
AcDbSpline
210
0.0
220
0.0
230
1.0
 70
    11
 71
     3
 72
    44
 73
    40
 74
     0
 42
0.0000000001
 43
0.0000000001
 40
0.0
 40
0.0
 40
0.0
 40
0.0
 40
0.1
 40
0.1
 40
0.1
 40
0.1
 40
0.2
 40
0.2
 40
0.2
 40
0.2
 40
0.3
 40
0.3
 40
0.3
 40
0.3
 40
0.4
 40
0.4
 40
0.4
 40
0.4
 40
0.5
 40
0.5
 40
0.5
 40
0.5
 40
0.6
 40
0.6
 40
0.6
 40
0.6
 40
0.7
 40
0.7
 40
0.7
 40
0.7
 40
0.7999999999999999
 40
0.7999999999999999
 40
0.7999999999999999
 40
0.7999999999999999
 40
0.8999999999999999
 40
0.8999999999999999
 40
0.8999999999999999
 40
0.8999999999999999
 40
1.0
 40
1.0
 40
1.0
 40
1.0
 10
0.557476377952756
 20
2.368712598425197
 30
0.0
 10
0.557476377952756
 20
2.368712598425197
 30
0.0
 10
1.209527559055118
 20
2.746295275590551
 30
0.0
 10
1.209527559055118
 20
2.746295275590551
 30
0.0
 10
1.209527559055118
 20
2.746295275590551
 30
0.0
 10
1.209527559055118
 20
2.746295275590551
 30
0.0
 10
1.206732283464567
 20
2.758385826771653
 30
0.0
 10
1.206732283464567
 20
2.758385826771653
 30
0.0
 10
1.206732283464567
 20
2.758385826771653
 30
0.0
 10
1.206732283464567
 20
2.758385826771653
 30
0.0
 10
1.20336220472441
 20
2.770248031496063
 30
0.0
 10
1.20336220472441
 20
2.770248031496063
 30
0.0
 10
1.20336220472441
 20
2.770248031496063
 30
0.0
 10
1.20336220472441
 20
2.770248031496063
 30
0.0
 10
1.199429133858268
 20
2.78186220472441
 30
0.0
 10
1.199429133858268
 20
2.78186220472441
 30
0.0
 10
1.199429133858268
 20
2.78186220472441
 30
0.0
 10
1.199429133858268
 20
2.78186220472441
 30
0.0
 10
1.194956692913386
 20
2.793220472440945
 30
0.0
 10
1.194956692913386
 20
2.793220472440945
 30
0.0
 10
1.194956692913386
 20
2.793220472440945
 30
0.0
 10
1.194956692913386
 20
2.793220472440945
 30
0.0
 10
0.5429055118110236
 20
2.415637795275591
 30
0.0
 10
0.5429055118110236
 20
2.415637795275591
 30
0.0
 10
0.5429055118110236
 20
2.415637795275591
 30
0.0
 10
0.5429055118110236
 20
2.415637795275591
 30
0.0
 10
0.5473779527559055
 20
2.404279527559055
 30
0.0
 10
0.5473779527559055
 20
2.404279527559055
 30
0.0
 10
0.5473779527559055
 20
2.404279527559055
 30
0.0
 10
0.5473779527559055
 20
2.404279527559055
 30
0.0
 10
0.5513110236220473
 20
2.392665354330709
 30
0.0
 10
0.5513110236220473
 20
2.392665354330709
 30
0.0
 10
0.5513110236220473
 20
2.392665354330709
 30
0.0
 10
0.5513110236220473
 20
2.392665354330709
 30
0.0
 10
0.5546811023622047
 20
2.380803149606299
 30
0.0
 10
0.5546811023622047
 20
2.380803149606299
 30
0.0
 10
0.5546811023622047
 20
2.380803149606299
 30
0.0
 10
0.5546811023622047
 20
2.380803149606299
 30
0.0
 10
0.557476377952756
 20
2.368712598425197
 30
0.0
 10
0.557476377952756
 20
2.368712598425197
 30
0.0
  0
SPLINE
  5
5E
330
1F
100
AcDbEntity
  8
LAYER_1
 62
   253
100
AcDbSpline
210
0.0
220
0.0
230
1.0
 70
    11
 71
     3
 72
    44
 73
    40
 74
     0
 42
0.0000000001
 43
0.0000000001
 40
0.0
 40
0.0
 40
0.0
 40
0.0
 40
0.1
 40
0.1
 40
0.1
 40
0.1
 40
0.2
 40
0.2
 40
0.2
 40
0.2
 40
0.3
 40
0.3
 40
0.3
 40
0.3
 40
0.4
 40
0.4
 40
0.4
 40
0.4
 40
0.5
 40
0.5
 40
0.5
 40
0.5
 40
0.6
 40
0.6
 40
0.6
 40
0.6
 40
0.7
 40
0.7
 40
0.7
 40
0.7
 40
0.7999999999999999
 40
0.7999999999999999
 40
0.7999999999999999
 40
0.7999999999999999
 40
0.8999999999999999
 40
0.8999999999999999
 40
0.8999999999999999
 40
0.8999999999999999
 40
1.0
 40
1.0
 40
1.0
 40
1.0
 10
0.5429055118110236
 20
2.415637795275591
 30
0.0
 10
0.5429055118110236
 20
2.415637795275591
 30
0.0
 10
1.194956692913386
 20
2.793220472440945
 30
0.0
 10
1.194956692913386
 20
2.793220472440945
 30
0.0
 10
1.194956692913386
 20
2.793220472440945
 30
0.0
 10
1.194956692913386
 20
2.793220472440945
 30
0.0
 10
1.189944881889764
 20
2.804291338582677
 30
0.0
 10
1.189944881889764
 20
2.804291338582677
 30
0.0
 10
1.189944881889764
 20
2.804291338582677
 30
0.0
 10
1.189944881889764
 20
2.804291338582677
 30
0.0
 10
1.184425196850394
 20
2.815070866141733
 30
0.0
 10
1.184425196850394
 20
2.815070866141733
 30
0.0
 10
1.184425196850394
 20
2.815070866141733
 30
0.0
 10
1.184425196850394
 20
2.815070866141733
 30
0.0
 10
1.178405511811024
 20
2.82553937007874
 30
0.0
 10
1.178405511811024
 20
2.82553937007874
 30
0.0
 10
1.178405511811024
 20
2.82553937007874
 30
0.0
 10
1.178405511811024
 20
2.82553937007874
 30
0.0
 10
1.171905511811024
 20
2.835685039370079
 30
0.0
 10
1.171905511811024
 20
2.835685039370079
 30
0.0
 10
1.171905511811024
 20
2.835685039370079
 30
0.0
 10
1.171905511811024
 20
2.835685039370079
 30
0.0
 10
0.5198543307086614
 20
2.458102362204725
 30
0.0
 10
0.5198543307086614
 20
2.458102362204725
 30
0.0
 10
0.5198543307086614
 20
2.458102362204725
 30
0.0
 10
0.5198543307086614
 20
2.458102362204725
 30
0.0
 10
0.5263543307086614
 20
2.447956692913386
 30
0.0
 10
0.5263543307086614
 20
2.447956692913386
 30
0.0
 10
0.5263543307086614
 20
2.447956692913386
 30
0.0
 10
0.5263543307086614
 20
2.447956692913386
 30
0.0
 10
0.5323740157480316
 20
2.437488188976378
 30
0.0
 10
0.5323740157480316
 20
2.437488188976378
 30
0.0
 10
0.5323740157480316
 20
2.437488188976378
 30
0.0
 10
0.5323740157480316
 20
2.437488188976378
 30
0.0
 10
0.5378937007874016
 20
2.426708661417323
 30
0.0
 10
0.5378937007874016
 20
2.426708661417323
 30
0.0
 10
0.5378937007874016
 20
2.426708661417323
 30
0.0
 10
0.5378937007874016
 20
2.426708661417323
 30
0.0
 10
0.5429055118110236
 20
2.415637795275591
 30
0.0
 10
0.5429055118110236
 20
2.415637795275591
 30
0.0
  0
SPLINE
  5
5F
330
1F
100
AcDbEntity
  8
LAYER_1
 62
   253
100
AcDbSpline
210
0.0
220
0.0
230
1.0
 70
    11
 71
     3
 72
    44
 73
    40
 74
     0
 42
0.0000000001
 43
0.0000000001
 40
0.0
 40
0.0
 40
0.0
 40
0.0
 40
0.1
 40
0.1
 40
0.1
 40
0.1
 40
0.2
 40
0.2
 40
0.2
 40
0.2
 40
0.3
 40
0.3
 40
0.3
 40
0.3
 40
0.4
 40
0.4
 40
0.4
 40
0.4
 40
0.5
 40
0.5
 40
0.5
 40
0.5
 40
0.6
 40
0.6
 40
0.6
 40
0.6
 40
0.7
 40
0.7
 40
0.7
 40
0.7
 40
0.7999999999999999
 40
0.7999999999999999
 40
0.7999999999999999
 40
0.7999999999999999
 40
0.8999999999999999
 40
0.8999999999999999
 40
0.8999999999999999
 40
0.8999999999999999
 40
1.0
 40
1.0
 40
1.0
 40
1.0
 10
0.5198543307086614
 20
2.458102362204725
 30
0.0
 10
0.5198543307086614
 20
2.458102362204725
 30
0.0
 10
1.171905511811024
 20
2.835685039370079
 30
0.0
 10
1.171905511811024
 20
2.835685039370079
 30
0.0
 10
1.171905511811024
 20
2.835685039370079
 30
0.0
 10
1.171905511811024
 20
2.835685039370079
 30
0.0
 10
1.164929133858268
 20
2.845484251968504
 30
0.0
 10
1.164929133858268
 20
2.845484251968504
 30
0.0
 10
1.164929133858268
 20
2.845484251968504
 30
0.0
 10
1.164929133858268
 20
2.845484251968504
 30
0.0
 10
1.157511811023622
 20
2.854929133858268
 30
0.0
 10
1.157511811023622
 20
2.854929133858268
 30
0.0
 10
1.157511811023622
 20
2.854929133858268
 30
0.0
 10
1.157511811023622
 20
2.854929133858268
 30
0.0
 10
1.149653543307087
 20
2.864
 30
0.0
 10
1.149653543307087
 20
2.864
 30
0.0
 10
1.149653543307087
 20
2.864
 30
0.0
 10
1.149653543307087
 20
2.864
 30
0.0
 10
1.141377952755906
 20
2.872688976377953
 30
0.0
 10
1.141377952755906
 20
2.872688976377953
 30
0.0
 10
1.141377952755906
 20
2.872688976377953
 30
0.0
 10
1.141377952755906
 20
2.872688976377953
 30
0.0
 10
0.4893267716535433
 20
2.495106299212599
 30
0.0
 10
0.4893267716535433
 20
2.495106299212599
 30
0.0
 10
0.4893267716535433
 20
2.495106299212599
 30
0.0
 10
0.4893267716535433
 20
2.495106299212599
 30
0.0
 10
0.4976023622047244
 20
2.486417322834646
 30
0.0
 10
0.4976023622047244
 20
2.486417322834646
 30
0.0
 10
0.4976023622047244
 20
2.486417322834646
 30
0.0
 10
0.4976023622047244
 20
2.486417322834646
 30
0.0
 10
0.5054606299212598
 20
2.477346456692914
 30
0.0
 10
0.5054606299212598
 20
2.477346456692914
 30
0.0
 10
0.5054606299212598
 20
2.477346456692914
 30
0.0
 10
0.5054606299212598
 20
2.477346456692914
 30
0.0
 10
0.5128779527559055
 20
2.46790157480315
 30
0.0
 10
0.5128779527559055
 20
2.46790157480315
 30
0.0
 10
0.5128779527559055
 20
2.46790157480315
 30
0.0
 10
0.5128779527559055
 20
2.46790157480315
 30
0.0
 10
0.5198543307086614
 20
2.458102362204725
 30
0.0
 10
0.5198543307086614
 20
2.458102362204725
 30
0.0
  0
SPLINE
  5
60
330
1F
100
AcDbEntity
  8
LAYER_1
 62
   253
100
AcDbSpline
210
0.0
220
0.0
230
1.0
 70
    11
 71
     3
 72
    44
 73
    40
 74
     0
 42
0.0000000001
 43
0.0000000001
 40
0.0
 40
0.0
 40
0.0
 40
0.0
 40
0.1
 40
0.1
 40
0.1
 40
0.1
 40
0.2
 40
0.2
 40
0.2
 40
0.2
 40
0.3
 40
0.3
 40
0.3
 40
0.3
 40
0.4
 40
0.4
 40
0.4
 40
0.4
 40
0.5
 40
0.5
 40
0.5
 40
0.5
 40
0.6
 40
0.6
 40
0.6
 40
0.6
 40
0.7
 40
0.7
 40
0.7
 40
0.7
 40
0.7999999999999999
 40
0.7999999999999999
 40
0.7999999999999999
 40
0.7999999999999999
 40
0.8999999999999999
 40
0.8999999999999999
 40
0.8999999999999999
 40
0.8999999999999999
 40
1.0
 40
1.0
 40
1.0
 40
1.0
 10
0.4893267716535433
 20
2.495106299212599
 30
0.0
 10
0.4893267716535433
 20
2.495106299212599
 30
0.0
 10
1.141377952755906
 20
2.872688976377953
 30
0.0
 10
1.141377952755906
 20
2.872688976377953
 30
0.0
 10
1.141377952755906
 20
2.872688976377953
 30
0.0
 10
1.141377952755906
 20
2.872688976377953
 30
0.0
 10
1.132688976377953
 20
2.880964566929134
 30
0.0
 10
1.132688976377953
 20
2.880964566929134
 30
0.0
 10
1.132688976377953
 20
2.880964566929134
 30
0.0
 10
1.132688976377953
 20
2.880964566929134
 30
0.0
 10
1.123618110236221
 20
2.888822834645669
 30
0.0
 10
1.123618110236221
 20
2.888822834645669
 30
0.0
 10
1.123618110236221
 20
2.888822834645669
 30
0.0
 10
1.123618110236221
 20
2.888822834645669
 30
0.0
 10
1.114173228346457
 20
2.896240157480315
 30
0.0
 10
1.114173228346457
 20
2.896240157480315
 30
0.0
 10
1.114173228346457
 20
2.896240157480315
 30
0.0
 10
1.114173228346457
 20
2.896240157480315
 30
0.0
 10
1.104374015748032
 20
2.903216535433071
 30
0.0
 10
1.104374015748032
 20
2.903216535433071
 30
0.0
 10
1.104374015748032
 20
2.903216535433071
 30
0.0
 10
1.104374015748032
 20
2.903216535433071
 30
0.0
 10
0.4523228346456693
 20
2.525633858267717
 30
0.0
 10
0.4523228346456693
 20
2.525633858267717
 30
0.0
 10
0.4523228346456693
 20
2.525633858267717
 30
0.0
 10
0.4523228346456693
 20
2.525633858267717
 30
0.0
 10
0.4621220472440945
 20
2.518657480314961
 30
0.0
 10
0.4621220472440945
 20
2.518657480314961
 30
0.0
 10
0.4621220472440945
 20
2.518657480314961
 30
0.0
 10
0.4621220472440945
 20
2.518657480314961
 30
0.0
 10
0.4715669291338583
 20
2.511240157480315
 30
0.0
 10
0.4715669291338583
 20
2.511240157480315
 30
0.0
 10
0.4715669291338583
 20
2.511240157480315
 30
0.0
 10
0.4715669291338583
 20
2.511240157480315
 30
0.0
 10
0.4806377952755906
 20
2.50338188976378
 30
0.0
 10
0.4806377952755906
 20
2.50338188976378
 30
0.0
 10
0.4806377952755906
 20
2.50338188976378
 30
0.0
 10
0.4806377952755906
 20
2.50338188976378
 30
0.0
 10
0.4893267716535433
 20
2.495106299212599
 30
0.0
 10
0.4893267716535433
 20
2.495106299212599
 30
0.0
  0
SPLINE
  5
61
330
1F
100
AcDbEntity
  8
LAYER_1
 62
   253
100
AcDbSpline
210
0.0
220
0.0
230
1.0
 70
    11
 71
     3
 72
    44
 73
    40
 74
     0
 42
0.0000000001
 43
0.0000000001
 40
0.0
 40
0.0
 40
0.0
 40
0.0
 40
0.1
 40
0.1
 40
0.1
 40
0.1
 40
0.2
 40
0.2
 40
0.2
 40
0.2
 40
0.3
 40
0.3
 40
0.3
 40
0.3
 40
0.4
 40
0.4
 40
0.4
 40
0.4
 40
0.5
 40
0.5
 40
0.5
 40
0.5
 40
0.6
 40
0.6
 40
0.6
 40
0.6
 40
0.7
 40
0.7
 40
0.7
 40
0.7
 40
0.7999999999999999
 40
0.7999999999999999
 40
0.7999999999999999
 40
0.7999999999999999
 40
0.8999999999999999
 40
0.8999999999999999
 40
0.8999999999999999
 40
0.8999999999999999
 40
1.0
 40
1.0
 40
1.0
 40
1.0
 10
0.4523228346456693
 20
2.525633858267717
 30
0.0
 10
0.4523228346456693
 20
2.525633858267717
 30
0.0
 10
1.104374015748032
 20
2.903216535433071
 30
0.0
 10
1.104374015748032
 20
2.903216535433071
 30
0.0
 10
1.104374015748032
 20
2.903216535433071
 30
0.0
 10
1.104374015748032
 20
2.903216535433071
 30
0.0
 10
1.094228346456693
 20
2.909716535433071
 30
0.0
 10
1.094228346456693
 20
2.909716535433071
 30
0.0
 10
1.094228346456693
 20
2.909716535433071
 30
0.0
 10
1.094228346456693
 20
2.909716535433071
 30
0.0
 10
1.083759842519685
 20
2.915736220472441
 30
0.0
 10
1.083759842519685
 20
2.915736220472441
 30
0.0
 10
1.083759842519685
 20
2.915736220472441
 30
0.0
 10
1.083759842519685
 20
2.915736220472441
 30
0.0
 10
1.07298031496063
 20
2.921255905511811
 30
0.0
 10
1.07298031496063
 20
2.921255905511811
 30
0.0
 10
1.07298031496063
 20
2.921255905511811
 30
0.0
 10
1.07298031496063
 20
2.921255905511811
 30
0.0
 10
1.061909448818898
 20
2.926267716535433
 30
0.0
 10
1.061909448818898
 20
2.926267716535433
 30
0.0
 10
1.061909448818898
 20
2.926267716535433
 30
0.0
 10
1.061909448818898
 20
2.926267716535433
 30
0.0
 10
0.4098582677165354
 20
2.548685039370079
 30
0.0
 10
0.4098582677165354
 20
2.548685039370079
 30
0.0
 10
0.4098582677165354
 20
2.548685039370079
 30
0.0
 10
0.4098582677165354
 20
2.548685039370079
 30
0.0
 10
0.4209291338582678
 20
2.543673228346457
 30
0.0
 10
0.4209291338582678
 20
2.543673228346457
 30
0.0
 10
0.4209291338582678
 20
2.543673228346457
 30
0.0
 10
0.4209291338582678
 20
2.543673228346457
 30
0.0
 10
0.4317086614173228
 20
2.538153543307087
 30
0.0
 10
0.4317086614173228
 20
2.538153543307087
 30
0.0
 10
0.4317086614173228
 20
2.538153543307087
 30
0.0
 10
0.4317086614173228
 20
2.538153543307087
 30
0.0
 10
0.4421771653543307
 20
2.532133858267716
 30
0.0
 10
0.4421771653543307
 20
2.532133858267716
 30
0.0
 10
0.4421771653543307
 20
2.532133858267716
 30
0.0
 10
0.4421771653543307
 20
2.532133858267716
 30
0.0
 10
0.4523228346456693
 20
2.525633858267717
 30
0.0
 10
0.4523228346456693
 20
2.525633858267717
 30
0.0
  0
SPLINE
  5
62
330
1F
100
AcDbEntity
  8
LAYER_1
 62
   252
100
AcDbSpline
210
0.0
220
0.0
230
1.0
 70
    11
 71
     3
 72
    44
 73
    40
 74
     0
 42
0.0000000001
 43
0.0000000001
 40
0.0
 40
0.0
 40
0.0
 40
0.0
 40
0.1
 40
0.1
 40
0.1
 40
0.1
 40
0.2
 40
0.2
 40
0.2
 40
0.2
 40
0.3
 40
0.3
 40
0.3
 40
0.3
 40
0.4
 40
0.4
 40
0.4
 40
0.4
 40
0.5
 40
0.5
 40
0.5
 40
0.5
 40
0.6
 40
0.6
 40
0.6
 40
0.6
 40
0.7
 40
0.7
 40
0.7
 40
0.7
 40
0.7999999999999999
 40
0.7999999999999999
 40
0.7999999999999999
 40
0.7999999999999999
 40
0.8999999999999999
 40
0.8999999999999999
 40
0.8999999999999999
 40
0.8999999999999999
 40
1.0
 40
1.0
 40
1.0
 40
1.0
 10
0.4098582677165354
 20
2.548685039370079
 30
0.0
 10
0.4098582677165354
 20
2.548685039370079
 30
0.0
 10
1.061909448818898
 20
2.926267716535433
 30
0.0
 10
1.061909448818898
 20
2.926267716535433
 30
0.0
 10
1.061909448818898
 20
2.926267716535433
 30
0.0
 10
1.061909448818898
 20
2.926267716535433
 30
0.0
 10
1.050551181102362
 20
2.930740157480315
 30
0.0
 10
1.050551181102362
 20
2.930740157480315
 30
0.0
 10
1.050551181102362
 20
2.930740157480315
 30
0.0
 10
1.050551181102362
 20
2.930740157480315
 30
0.0
 10
1.038937007874016
 20
2.934673228346457
 30
0.0
 10
1.038937007874016
 20
2.934673228346457
 30
0.0
 10
1.038937007874016
 20
2.934673228346457
 30
0.0
 10
1.038937007874016
 20
2.934673228346457
 30
0.0
 10
1.027074803149606
 20
2.938043307086614
 30
0.0
 10
1.027074803149606
 20
2.938043307086614
 30
0.0
 10
1.027074803149606
 20
2.938043307086614
 30
0.0
 10
1.027074803149606
 20
2.938043307086614
 30
0.0
 10
1.014984251968504
 20
2.940838582677166
 30
0.0
 10
1.014984251968504
 20
2.940838582677166
 30
0.0
 10
1.014984251968504
 20
2.940838582677166
 30
0.0
 10
1.014984251968504
 20
2.940838582677166
 30
0.0
 10
0.3629330708661417
 20
2.563255905511811
 30
0.0
 10
0.3629330708661417
 20
2.563255905511811
 30
0.0
 10
0.3629330708661417
 20
2.563255905511811
 30
0.0
 10
0.3629330708661417
 20
2.563255905511811
 30
0.0
 10
0.3750236220472441
 20
2.56046062992126
 30
0.0
 10
0.3750236220472441
 20
2.56046062992126
 30
0.0
 10
0.3750236220472441
 20
2.56046062992126
 30
0.0
 10
0.3750236220472441
 20
2.56046062992126
 30
0.0
 10
0.3868858267716536
 20
2.557090551181103
 30
0.0
 10
0.3868858267716536
 20
2.557090551181103
 30
0.0
 10
0.3868858267716536
 20
2.557090551181103
 30
0.0
 10
0.3868858267716536
 20
2.557090551181103
 30
0.0
 10
0.3985
 20
2.553157480314961
 30
0.0
 10
0.3985
 20
2.553157480314961
 30
0.0
 10
0.3985
 20
2.553157480314961
 30
0.0
 10
0.3985
 20
2.553157480314961
 30
0.0
 10
0.4098582677165354
 20
2.548685039370079
 30
0.0
 10
0.4098582677165354
 20
2.548685039370079
 30
0.0
  0
SPLINE
  5
63
330
1F
100
AcDbEntity
  8
LAYER_1
 62
   252
100
AcDbSpline
210
0.0
220
0.0
230
1.0
 70
    11
 71
     3
 72
    36
 73
    32
 74
     0
 42
0.0000000001
 43
0.0000000001
 40
0.0
 40
0.0
 40
0.0
 40
0.0
 40
0.125
 40
0.125
 40
0.125
 40
0.125
 40
0.25
 40
0.25
 40
0.25
 40
0.25
 40
0.375
 40
0.375
 40
0.375
 40
0.375
 40
0.5
 40
0.5
 40
0.5
 40
0.5
 40
0.625
 40
0.625
 40
0.625
 40
0.625
 40
0.75
 40
0.75
 40
0.75
 40
0.75
 40
0.875
 40
0.875
 40
0.875
 40
0.875
 40
1.0
 40
1.0
 40
1.0
 40
1.0
 10
0.3629330708661417
 20
2.563255905511811
 30
0.0
 10
0.3629330708661417
 20
2.563255905511811
 30
0.0
 10
1.014984251968504
 20
2.940838582677166
 30
0.0
 10
1.014984251968504
 20
2.940838582677166
 30
0.0
 10
1.014984251968504
 20
2.940838582677166
 30
0.0
 10
1.014984251968504
 20
2.940838582677166
 30
0.0
 10
1.002669291338583
 20
2.943031496062992
 30
0.0
 10
1.002669291338583
 20
2.943031496062992
 30
0.0
 10
1.002669291338583
 20
2.943031496062992
 30
0.0
 10
1.002669291338583
 20
2.943031496062992
 30
0.0
 10
0.9901614173228347
 20
2.944625984251969
 30
0.0
 10
0.9901614173228347
 20
2.944625984251969
 30
0.0
 10
0.9901614173228347
 20
2.944625984251969
 30
0.0
 10
0.9901614173228347
 20
2.944625984251969
 30
0.0
 10
0.9774685039370079
 20
2.945590551181103
 30
0.0
 10
0.9774685039370079
 20
2.945590551181103
 30
0.0
 10
0.9774685039370079
 20
2.945590551181103
 30
0.0
 10
0.9774685039370079
 20
2.945590551181103
 30
0.0
 10
0.3254173228346457
 20
2.568007874015748
 30
0.0
 10
0.3254173228346457
 20
2.568007874015748
 30
0.0
 10
0.3254173228346457
 20
2.568007874015748
 30
0.0
 10
0.3254173228346457
 20
2.568007874015748
 30
0.0
 10
0.3381102362204724
 20
2.567043307086614
 30
0.0
 10
0.3381102362204724
 20
2.567043307086614
 30
0.0
 10
0.3381102362204724
 20
2.567043307086614
 30
0.0
 10
0.3381102362204724
 20
2.567043307086614
 30
0.0
 10
0.3506181102362205
 20
2.565448818897638
 30
0.0
 10
0.3506181102362205
 20
2.565448818897638
 30
0.0
 10
0.3506181102362205
 20
2.565448818897638
 30
0.0
 10
0.3506181102362205
 20
2.565448818897638
 30
0.0
 10
0.3629330708661417
 20
2.563255905511811
 30
0.0
 10
0.3629330708661417
 20
2.563255905511811
 30
0.0
  0
SPLINE
  5
64
330
1F
100
AcDbEntity
  8
LAYER_1
 62
   252
100
AcDbSpline
210
0.0
220
0.0
230
1.0
 70
    11
 71
     3
 72
    20
 73
    16
 74
     0
 42
0.0000000001
 43
0.0000000001
 40
0.0
 40
0.0
 40
0.0
 40
0.0
 40
0.25
 40
0.25
 40
0.25
 40
0.25
 40
0.5
 40
0.5
 40
0.5
 40
0.5
 40
0.75
 40
0.75
 40
0.75
 40
0.75
 40
1.0
 40
1.0
 40
1.0
 40
1.0
 10
0.3254173228346457
 20
2.568007874015748
 30
0.0
 10
0.3254173228346457
 20
2.568007874015748
 30
0.0
 10
0.9774685039370079
 20
2.945590551181103
 30
0.0
 10
0.9774685039370079
 20
2.945590551181103
 30
0.0
 10
0.9774685039370079
 20
2.945590551181103
 30
0.0
 10
0.9774685039370079
 20
2.945590551181103
 30
0.0
 10
0.9646102362204725
 20
2.94592125984252
 30
0.0
 10
0.9646102362204725
 20
2.94592125984252
 30
0.0
 10
0.9646102362204725
 20
2.94592125984252
 30
0.0
 10
0.9646102362204725
 20
2.94592125984252
 30
0.0
 10
0.3125590551181103
 20
2.568338582677165
 30
0.0
 10
0.3125590551181103
 20
2.568338582677165
 30
0.0
 10
0.3125590551181103
 20
2.568338582677165
 30
0.0
 10
0.3125590551181103
 20
2.568338582677165
 30
0.0
 10
0.3254173228346457
 20
2.568007874015748
 30
0.0
 10
0.3254173228346457
 20
2.568007874015748
 30
0.0
  0
SPLINE
  5
65
330
1F
100
AcDbEntity
  8
LAYER_1
 62
   250
100
AcDbSpline
210
0.0
220
0.0
230
1.0
 70
    11
 71
     3
 72
   436
 73
   432
 74
     0
 42
0.0000000001
 43
0.0000000001
 40
0.0
 40
0.0
 40
0.0
 40
0.0
 40
0.0092592592592593
 40
0.0092592592592593
 40
0.0092592592592593
 40
0.0092592592592593
 40
0.0185185185185185
 40
0.0185185185185185
 40
0.0185185185185185
 40
0.0185185185185185
 40
0.0277777777777778
 40
0.0277777777777778
 40
0.0277777777777778
 40
0.0277777777777778
 40
0.037037037037037
 40
0.037037037037037
 40
0.037037037037037
 40
0.037037037037037
 40
0.0462962962962963
 40
0.0462962962962963
 40
0.0462962962962963
 40
0.0462962962962963
 40
0.0555555555555556
 40
0.0555555555555556
 40
0.0555555555555556
 40
0.0555555555555556
 40
0.0648148148148148
 40
0.0648148148148148
 40
0.0648148148148148
 40
0.0648148148148148
 40
0.0740740740740741
 40
0.0740740740740741
 40
0.0740740740740741
 40
0.0740740740740741
 40
0.0833333333333333
 40
0.0833333333333333
 40
0.0833333333333333
 40
0.0833333333333333
 40
0.0925925925925926
 40
0.0925925925925926
 40
0.0925925925925926
 40
0.0925925925925926
 40
0.1018518518518519
 40
0.1018518518518519
 40
0.1018518518518519
 40
0.1018518518518519
 40
0.1111111111111111
 40
0.1111111111111111
 40
0.1111111111111111
 40
0.1111111111111111
 40
0.1203703703703704
 40
0.1203703703703704
 40
0.1203703703703704
 40
0.1203703703703704
 40
0.1296296296296296
 40
0.1296296296296296
 40
0.1296296296296296
 40
0.1296296296296296
 40
0.1388888888888889
 40
0.1388888888888889
 40
0.1388888888888889
 40
0.1388888888888889
 40
0.1481481481481481
 40
0.1481481481481481
 40
0.1481481481481481
 40
0.1481481481481481
 40
0.1574074074074074
 40
0.1574074074074074
 40
0.1574074074074074
 40
0.1574074074074074
 40
0.1666666666666666
 40
0.1666666666666666
 40
0.1666666666666666
 40
0.1666666666666666
 40
0.1759259259259259
 40
0.1759259259259259
 40
0.1759259259259259
 40
0.1759259259259259
 40
0.1851851851851851
 40
0.1851851851851851
 40
0.1851851851851851
 40
0.1851851851851851
 40
0.1944444444444444
 40
0.1944444444444444
 40
0.1944444444444444
 40
0.1944444444444444
 40
0.2037037037037036
 40
0.2037037037037036
 40
0.2037037037037036
 40
0.2037037037037036
 40
0.2129629629629629
 40
0.2129629629629629
 40
0.2129629629629629
 40
0.2129629629629629
 40
0.2222222222222221
 40
0.2222222222222221
 40
0.2222222222222221
 40
0.2222222222222221
 40
0.2314814814814813
 40
0.2314814814814813
 40
0.2314814814814813
 40
0.2314814814814813
 40
0.2407407407407406
 40
0.2407407407407406
 40
0.2407407407407406
 40
0.2407407407407406
 40
0.2499999999999998
 40
0.2499999999999998
 40
0.2499999999999998
 40
0.2499999999999998
 40
0.2592592592592591
 40
0.2592592592592591
 40
0.2592592592592591
 40
0.2592592592592591
 40
0.2685185185185183
 40
0.2685185185185183
 40
0.2685185185185183
 40
0.2685185185185183
 40
0.2777777777777776
 40
0.2777777777777776
 40
0.2777777777777776
 40
0.2777777777777776
 40
0.2870370370370368
 40
0.2870370370370368
 40
0.2870370370370368
 40
0.2870370370370368
 40
0.2962962962962961
 40
0.2962962962962961
 40
0.2962962962962961
 40
0.2962962962962961
 40
0.3055555555555553
 40
0.3055555555555553
 40
0.3055555555555553
 40
0.3055555555555553
 40
0.3148148148148146
 40
0.3148148148148146
 40
0.3148148148148146
 40
0.3148148148148146
 40
0.3240740740740738
 40
0.3240740740740738
 40
0.3240740740740738
 40
0.3240740740740738
 40
0.333333333333333
 40
0.333333333333333
 40
0.333333333333333
 40
0.333333333333333
 40
0.3425925925925923
 40
0.3425925925925923
 40
0.3425925925925923
 40
0.3425925925925923
 40
0.3518518518518515
 40
0.3518518518518515
 40
0.3518518518518515
 40
0.3518518518518515
 40
0.3611111111111108
 40
0.3611111111111108
 40
0.3611111111111108
 40
0.3611111111111108
 40
0.37037037037037
 40
0.37037037037037
 40
0.37037037037037
 40
0.37037037037037
 40
0.3796296296296293
 40
0.3796296296296293
 40
0.3796296296296293
 40
0.3796296296296293
 40
0.3888888888888885
 40
0.3888888888888885
 40
0.3888888888888885
 40
0.3888888888888885
 40
0.3981481481481478
 40
0.3981481481481478
 40
0.3981481481481478
 40
0.3981481481481478
 40
0.407407407407407
 40
0.407407407407407
 40
0.407407407407407
 40
0.407407407407407
 40
0.4166666666666662
 40
0.4166666666666662
 40
0.4166666666666662
 40
0.4166666666666662
 40
0.4259259259259255
 40
0.4259259259259255
 40
0.4259259259259255
 40
0.4259259259259255
 40
0.4351851851851847
 40
0.4351851851851847
 40
0.4351851851851847
 40
0.4351851851851847
 40
0.444444444444444
 40
0.444444444444444
 40
0.444444444444444
 40
0.444444444444444
 40
0.4537037037037032
 40
0.4537037037037032
 40
0.4537037037037032
 40
0.4537037037037032
 40
0.4629629629629625
 40
0.4629629629629625
 40
0.4629629629629625
 40
0.4629629629629625
 40
0.4722222222222217
 40
0.4722222222222217
 40
0.4722222222222217
 40
0.4722222222222217
 40
0.481481481481481
 40
0.481481481481481
 40
0.481481481481481
 40
0.481481481481481
 40
0.4907407407407402
 40
0.4907407407407402
 40
0.4907407407407402
 40
0.4907407407407402
 40
0.4999999999999994
 40
0.4999999999999994
 40
0.4999999999999994
 40
0.4999999999999994
 40
0.5092592592592588
 40
0.5092592592592588
 40
0.5092592592592588
 40
0.5092592592592588
 40
0.5185185185185181
 40
0.5185185185185181
 40
0.5185185185185181
 40
0.5185185185185181
 40
0.5277777777777774
 40
0.5277777777777774
 40
0.5277777777777774
 40
0.5277777777777774
 40
0.5370370370370367
 40
0.5370370370370367
 40
0.5370370370370367
 40
0.5370370370370367
 40
0.546296296296296
 40
0.546296296296296
 40
0.546296296296296
 40
0.546296296296296
 40
0.5555555555555553
 40
0.5555555555555553
 40
0.5555555555555553
 40
0.5555555555555553
 40
0.5648148148148146
 40
0.5648148148148146
 40
0.5648148148148146
 40
0.5648148148148146
 40
0.5740740740740739
 40
0.5740740740740739
 40
0.5740740740740739
 40
0.5740740740740739
 40
0.5833333333333332
 40
0.5833333333333332
 40
0.5833333333333332
 40
0.5833333333333332
 40
0.5925925925925925
 40
0.5925925925925925
 40
0.5925925925925925
 40
0.5925925925925925
 40
0.6018518518518518
 40
0.6018518518518518
 40
0.6018518518518518
 40
0.6018518518518518
 40
0.6111111111111111
 40
0.6111111111111111
 40
0.6111111111111111
 40
0.6111111111111111
 40
0.6203703703703704
 40
0.6203703703703704
 40
0.6203703703703704
 40
0.6203703703703704
 40
0.6296296296296297
 40
0.6296296296296297
 40
0.6296296296296297
 40
0.6296296296296297
 40
0.638888888888889
 40
0.638888888888889
 40
0.638888888888889
 40
0.638888888888889
 40
0.6481481481481483
 40
0.6481481481481483
 40
0.6481481481481483
 40
0.6481481481481483
 40
0.6574074074074076
 40
0.6574074074074076
 40
0.6574074074074076
 40
0.6574074074074076
 40
0.6666666666666669
 40
0.6666666666666669
 40
0.6666666666666669
 40
0.6666666666666669
 40
0.6759259259259262
 40
0.6759259259259262
 40
0.6759259259259262
 40
0.6759259259259262
 40
0.6851851851851855
 40
0.6851851851851855
 40
0.6851851851851855
 40
0.6851851851851855
 40
0.6944444444444448
 40
0.6944444444444448
 40
0.6944444444444448
 40
0.6944444444444448
 40
0.7037037037037041
 40
0.7037037037037041
 40
0.7037037037037041
 40
0.7037037037037041
 40
0.7129629629629634
 40
0.7129629629629634
 40
0.7129629629629634
 40
0.7129629629629634
 40
0.7222222222222227
 40
0.7222222222222227
 40
0.7222222222222227
 40
0.7222222222222227
 40
0.731481481481482
 40
0.731481481481482
 40
0.731481481481482
 40
0.731481481481482
 40
0.7407407407407413
 40
0.7407407407407413
 40
0.7407407407407413
 40
0.7407407407407413
 40
0.7500000000000006
 40
0.7500000000000006
 40
0.7500000000000006
 40
0.7500000000000006
 40
0.7592592592592599
 40
0.7592592592592599
 40
0.7592592592592599
 40
0.7592592592592599
 40
0.7685185185185192
 40
0.7685185185185192
 40
0.7685185185185192
 40
0.7685185185185192
 40
0.7777777777777785
 40
0.7777777777777785
 40
0.7777777777777785
 40
0.7777777777777785
 40
0.7870370370370378
 40
0.7870370370370378
 40
0.7870370370370378
 40
0.7870370370370378
 40
0.7962962962962971
 40
0.7962962962962971
 40
0.7962962962962971
 40
0.7962962962962971
 40
0.8055555555555564
 40
0.8055555555555564
 40
0.8055555555555564
 40
0.8055555555555564
 40
0.8148148148148157
 40
0.8148148148148157
 40
0.8148148148148157
 40
0.8148148148148157
 40
0.824074074074075
 40
0.824074074074075
 40
0.824074074074075
 40
0.824074074074075
 40
0.8333333333333343
 40
0.8333333333333343
 40
0.8333333333333343
 40
0.8333333333333343
 40
0.8425925925925936
 40
0.8425925925925936
 40
0.8425925925925936
 40
0.8425925925925936
 40
0.8518518518518529
 40
0.8518518518518529
 40
0.8518518518518529
 40
0.8518518518518529
 40
0.8611111111111122
 40
0.8611111111111122
 40
0.8611111111111122
 40
0.8611111111111122
 40
0.8703703703703715
 40
0.8703703703703715
 40
0.8703703703703715
 40
0.8703703703703715
 40
0.8796296296296308
 40
0.8796296296296308
 40
0.8796296296296308
 40
0.8796296296296308
 40
0.8888888888888901
 40
0.8888888888888901
 40
0.8888888888888901
 40
0.8888888888888901
 40
0.8981481481481494
 40
0.8981481481481494
 40
0.8981481481481494
 40
0.8981481481481494
 40
0.9074074074074087
 40
0.9074074074074087
 40
0.9074074074074087
 40
0.9074074074074087
 40
0.916666666666668
 40
0.916666666666668
 40
0.916666666666668
 40
0.916666666666668
 40
0.9259259259259273
 40
0.9259259259259273
 40
0.9259259259259273
 40
0.9259259259259273
 40
0.9351851851851866
 40
0.9351851851851866
 40
0.9351851851851866
 40
0.9351851851851866
 40
0.9444444444444459
 40
0.9444444444444459
 40
0.9444444444444459
 40
0.9444444444444459
 40
0.9537037037037052
 40
0.9537037037037052
 40
0.9537037037037052
 40
0.9537037037037052
 40
0.9629629629629645
 40
0.9629629629629645
 40
0.9629629629629645
 40
0.9629629629629645
 40
0.9722222222222238
 40
0.9722222222222238
 40
0.9722222222222238
 40
0.9722222222222238
 40
0.9814814814814831
 40
0.9814814814814831
 40
0.9814814814814831
 40
0.9814814814814831
 40
0.9907407407407424
 40
0.9907407407407424
 40
0.9907407407407424
 40
0.9907407407407424
 40
1.0
 40
1.0
 40
1.0
 40
1.0
 10
0.4421771653543307
 20
2.104531496062992
 30
0.0
 10
0.4421771653543307
 20
2.104531496062992
 30
0.0
 10
1.094228346456693
 20
2.482114173228347
 30
0.0
 10
1.094228346456693
 20
2.482114173228347
 30
0.0
 10
1.094228346456693
 20
2.482114173228347
 30
0.0
 10
1.094228346456693
 20
2.482114173228347
 30
0.0
 10
1.104374015748032
 20
2.48861811023622
 30
0.0
 10
1.104374015748032
 20
2.48861811023622
 30
0.0
 10
1.104374015748032
 20
2.48861811023622
 30
0.0
 10
1.104374015748032
 20
2.48861811023622
 30
0.0
 10
1.114173228346457
 20
2.495586614173229
 30
0.0
 10
1.114173228346457
 20
2.495586614173229
 30
0.0
 10
1.114173228346457
 20
2.495586614173229
 30
0.0
 10
1.114173228346457
 20
2.495586614173229
 30
0.0
 10
1.123618110236221
 20
2.503011811023622
 30
0.0
 10
1.123618110236221
 20
2.503011811023622
 30
0.0
 10
1.123618110236221
 20
2.503011811023622
 30
0.0
 10
1.123618110236221
 20
2.503011811023622
 30
0.0
 10
1.132688976377953
 20
2.510870078740158
 30
0.0
 10
1.132688976377953
 20
2.510870078740158
 30
0.0
 10
1.132688976377953
 20
2.510870078740158
 30
0.0
 10
1.132688976377953
 20
2.510870078740158
 30
0.0
 10
1.141377952755906
 20
2.519153543307087
 30
0.0
 10
1.141377952755906
 20
2.519153543307087
 30
0.0
 10
1.141377952755906
 20
2.519153543307087
 30
0.0
 10
1.141377952755906
 20
2.519153543307087
 30
0.0
 10
1.149653543307087
 20
2.527830708661417
 30
0.0
 10
1.149653543307087
 20
2.527830708661417
 30
0.0
 10
1.149653543307087
 20
2.527830708661417
 30
0.0
 10
1.149653543307087
 20
2.527830708661417
 30
0.0
 10
1.157511811023622
 20
2.536905511811024
 30
0.0
 10
1.157511811023622
 20
2.536905511811024
 30
0.0
 10
1.157511811023622
 20
2.536905511811024
 30
0.0
 10
1.157511811023622
 20
2.536905511811024
 30
0.0
 10
1.164929133858268
 20
2.546346456692914
 30
0.0
 10
1.164929133858268
 20
2.546346456692914
 30
0.0
 10
1.164929133858268
 20
2.546346456692914
 30
0.0
 10
1.164929133858268
 20
2.546346456692914
 30
0.0
 10
1.171905511811024
 20
2.556149606299213
 30
0.0
 10
1.171905511811024
 20
2.556149606299213
 30
0.0
 10
1.171905511811024
 20
2.556149606299213
 30
0.0
 10
1.171905511811024
 20
2.556149606299213
 30
0.0
 10
1.178405511811024
 20
2.566287401574803
 30
0.0
 10
1.178405511811024
 20
2.566287401574803
 30
0.0
 10
1.178405511811024
 20
2.566287401574803
 30
0.0
 10
1.178405511811024
 20
2.566287401574803
 30
0.0
 10
1.184425196850394
 20
2.576759842519685
 30
0.0
 10
1.184425196850394
 20
2.576759842519685
 30
0.0
 10
1.184425196850394
 20
2.576759842519685
 30
0.0
 10
1.184425196850394
 20
2.576759842519685
 30
0.0
 10
1.189944881889764
 20
2.58753937007874
 30
0.0
 10
1.189944881889764
 20
2.58753937007874
 30
0.0
 10
1.189944881889764
 20
2.58753937007874
 30
0.0
 10
1.189944881889764
 20
2.58753937007874
 30
0.0
 10
1.194956692913386
 20
2.598618110236221
 30
0.0
 10
1.194956692913386
 20
2.598618110236221
 30
0.0
 10
1.194956692913386
 20
2.598618110236221
 30
0.0
 10
1.194956692913386
 20
2.598618110236221
 30
0.0
 10
1.199429133858268
 20
2.609964566929134
 30
0.0
 10
1.199429133858268
 20
2.609964566929134
 30
0.0
 10
1.199429133858268
 20
2.609964566929134
 30
0.0
 10
1.199429133858268
 20
2.609964566929134
 30
0.0
 10
1.20336220472441
 20
2.621582677165355
 30
0.0
 10
1.20336220472441
 20
2.621582677165355
 30
0.0
 10
1.20336220472441
 20
2.621582677165355
 30
0.0
 10
1.20336220472441
 20
2.621582677165355
 30
0.0
 10
1.206732283464567
 20
2.63344094488189
 30
0.0
 10
1.206732283464567
 20
2.63344094488189
 30
0.0
 10
1.206732283464567
 20
2.63344094488189
 30
0.0
 10
1.206732283464567
 20
2.63344094488189
 30
0.0
 10
1.209527559055118
 20
2.64553937007874
 30
0.0
 10
1.209527559055118
 20
2.64553937007874
 30
0.0
 10
1.209527559055118
 20
2.64553937007874
 30
0.0
 10
1.209527559055118
 20
2.64553937007874
 30
0.0
 10
1.211720472440945
 20
2.657846456692913
 30
0.0
 10
1.211720472440945
 20
2.657846456692913
 30
0.0
 10
1.211720472440945
 20
2.657846456692913
 30
0.0
 10
1.211720472440945
 20
2.657846456692913
 30
0.0
 10
1.213314960629921
 20
2.670358267716535
 30
0.0
 10
1.213314960629921
 20
2.670358267716535
 30
0.0
 10
1.213314960629921
 20
2.670358267716535
 30
0.0
 10
1.213314960629921
 20
2.670358267716535
 30
0.0
 10
1.214279527559055
 20
2.683051181102362
 30
0.0
 10
1.214279527559055
 20
2.683051181102362
 30
0.0
 10
1.214279527559055
 20
2.683051181102362
 30
0.0
 10
1.214279527559055
 20
2.683051181102362
 30
0.0
 10
1.214610236220473
 20
2.69592125984252
 30
0.0
 10
1.214610236220473
 20
2.69592125984252
 30
0.0
 10
1.214610236220473
 20
2.69592125984252
 30
0.0
 10
1.214610236220473
 20
2.69592125984252
 30
0.0
 10
1.214279527559055
 20
2.708779527559055
 30
0.0
 10
1.214279527559055
 20
2.708779527559055
 30
0.0
 10
1.214279527559055
 20
2.708779527559055
 30
0.0
 10
1.214279527559055
 20
2.708779527559055
 30
0.0
 10
1.213314960629921
 20
2.721472440944882
 30
0.0
 10
1.213314960629921
 20
2.721472440944882
 30
0.0
 10
1.213314960629921
 20
2.721472440944882
 30
0.0
 10
1.213314960629921
 20
2.721472440944882
 30
0.0
 10
1.211720472440945
 20
2.73398031496063
 30
0.0
 10
1.211720472440945
 20
2.73398031496063
 30
0.0
 10
1.211720472440945
 20
2.73398031496063
 30
0.0
 10
1.211720472440945
 20
2.73398031496063
 30
0.0
 10
1.209527559055118
 20
2.746295275590551
 30
0.0
 10
1.209527559055118
 20
2.746295275590551
 30
0.0
 10
1.209527559055118
 20
2.746295275590551
 30
0.0
 10
1.209527559055118
 20
2.746295275590551
 30
0.0
 10
1.206732283464567
 20
2.758385826771653
 30
0.0
 10
1.206732283464567
 20
2.758385826771653
 30
0.0
 10
1.206732283464567
 20
2.758385826771653
 30
0.0
 10
1.206732283464567
 20
2.758385826771653
 30
0.0
 10
1.20336220472441
 20
2.770248031496063
 30
0.0
 10
1.20336220472441
 20
2.770248031496063
 30
0.0
 10
1.20336220472441
 20
2.770248031496063
 30
0.0
 10
1.20336220472441
 20
2.770248031496063
 30
0.0
 10
1.199429133858268
 20
2.78186220472441
 30
0.0
 10
1.199429133858268
 20
2.78186220472441
 30
0.0
 10
1.199429133858268
 20
2.78186220472441
 30
0.0
 10
1.199429133858268
 20
2.78186220472441
 30
0.0
 10
1.194956692913386
 20
2.793220472440945
 30
0.0
 10
1.194956692913386
 20
2.793220472440945
 30
0.0
 10
1.194956692913386
 20
2.793220472440945
 30
0.0
 10
1.194956692913386
 20
2.793220472440945
 30
0.0
 10
1.189944881889764
 20
2.804291338582677
 30
0.0
 10
1.189944881889764
 20
2.804291338582677
 30
0.0
 10
1.189944881889764
 20
2.804291338582677
 30
0.0
 10
1.189944881889764
 20
2.804291338582677
 30
0.0
 10
1.184425196850394
 20
2.815070866141733
 30
0.0
 10
1.184425196850394
 20
2.815070866141733
 30
0.0
 10
1.184425196850394
 20
2.815070866141733
 30
0.0
 10
1.184425196850394
 20
2.815070866141733
 30
0.0
 10
1.178405511811024
 20
2.82553937007874
 30
0.0
 10
1.178405511811024
 20
2.82553937007874
 30
0.0
 10
1.178405511811024
 20
2.82553937007874
 30
0.0
 10
1.178405511811024
 20
2.82553937007874
 30
0.0
 10
1.171905511811024
 20
2.835685039370079
 30
0.0
 10
1.171905511811024
 20
2.835685039370079
 30
0.0
 10
1.171905511811024
 20
2.835685039370079
 30
0.0
 10
1.171905511811024
 20
2.835685039370079
 30
0.0
 10
1.164929133858268
 20
2.845484251968504
 30
0.0
 10
1.164929133858268
 20
2.845484251968504
 30
0.0
 10
1.164929133858268
 20
2.845484251968504
 30
0.0
 10
1.164929133858268
 20
2.845484251968504
 30
0.0
 10
1.157511811023622
 20
2.854929133858268
 30
0.0
 10
1.157511811023622
 20
2.854929133858268
 30
0.0
 10
1.157511811023622
 20
2.854929133858268
 30
0.0
 10
1.157511811023622
 20
2.854929133858268
 30
0.0
 10
1.149653543307087
 20
2.864
 30
0.0
 10
1.149653543307087
 20
2.864
 30
0.0
 10
1.149653543307087
 20
2.864
 30
0.0
 10
1.149653543307087
 20
2.864
 30
0.0
 10
1.141377952755906
 20
2.872688976377953
 30
0.0
 10
1.141377952755906
 20
2.872688976377953
 30
0.0
 10
1.141377952755906
 20
2.872688976377953
 30
0.0
 10
1.141377952755906
 20
2.872688976377953
 30
0.0
 10
1.132688976377953
 20
2.880964566929134
 30
0.0
 10
1.132688976377953
 20
2.880964566929134
 30
0.0
 10
1.132688976377953
 20
2.880964566929134
 30
0.0
 10
1.132688976377953
 20
2.880964566929134
 30
0.0
 10
1.123618110236221
 20
2.888822834645669
 30
0.0
 10
1.123618110236221
 20
2.888822834645669
 30
0.0
 10
1.123618110236221
 20
2.888822834645669
 30
0.0
 10
1.123618110236221
 20
2.888822834645669
 30
0.0
 10
1.114173228346457
 20
2.896240157480315
 30
0.0
 10
1.114173228346457
 20
2.896240157480315
 30
0.0
 10
1.114173228346457
 20
2.896240157480315
 30
0.0
 10
1.114173228346457
 20
2.896240157480315
 30
0.0
 10
1.104374015748032
 20
2.903216535433071
 30
0.0
 10
1.104374015748032
 20
2.903216535433071
 30
0.0
 10
1.104374015748032
 20
2.903216535433071
 30
0.0
 10
1.104374015748032
 20
2.903216535433071
 30
0.0
 10
1.094228346456693
 20
2.909716535433071
 30
0.0
 10
1.094228346456693
 20
2.909716535433071
 30
0.0
 10
1.094228346456693
 20
2.909716535433071
 30
0.0
 10
1.094228346456693
 20
2.909716535433071
 30
0.0
 10
1.083759842519685
 20
2.915736220472441
 30
0.0
 10
1.083759842519685
 20
2.915736220472441
 30
0.0
 10
1.083759842519685
 20
2.915736220472441
 30
0.0
 10
1.083759842519685
 20
2.915736220472441
 30
0.0
 10
1.07298031496063
 20
2.921255905511811
 30
0.0
 10
1.07298031496063
 20
2.921255905511811
 30
0.0
 10
1.07298031496063
 20
2.921255905511811
 30
0.0
 10
1.07298031496063
 20
2.921255905511811
 30
0.0
 10
1.061909448818898
 20
2.926267716535433
 30
0.0
 10
1.061909448818898
 20
2.926267716535433
 30
0.0
 10
1.061909448818898
 20
2.926267716535433
 30
0.0
 10
1.061909448818898
 20
2.926267716535433
 30
0.0
 10
1.050551181102362
 20
2.930740157480315
 30
0.0
 10
1.050551181102362
 20
2.930740157480315
 30
0.0
 10
1.050551181102362
 20
2.930740157480315
 30
0.0
 10
1.050551181102362
 20
2.930740157480315
 30
0.0
 10
1.038937007874016
 20
2.934673228346457
 30
0.0
 10
1.038937007874016
 20
2.934673228346457
 30
0.0
 10
1.038937007874016
 20
2.934673228346457
 30
0.0
 10
1.038937007874016
 20
2.934673228346457
 30
0.0
 10
1.027074803149606
 20
2.938043307086614
 30
0.0
 10
1.027074803149606
 20
2.938043307086614
 30
0.0
 10
1.027074803149606
 20
2.938043307086614
 30
0.0
 10
1.027074803149606
 20
2.938043307086614
 30
0.0
 10
1.014984251968504
 20
2.940838582677166
 30
0.0
 10
1.014984251968504
 20
2.940838582677166
 30
0.0
 10
1.014984251968504
 20
2.940838582677166
 30
0.0
 10
1.014984251968504
 20
2.940838582677166
 30
0.0
 10
1.002669291338583
 20
2.943031496062992
 30
0.0
 10
1.002669291338583
 20
2.943031496062992
 30
0.0
 10
1.002669291338583
 20
2.943031496062992
 30
0.0
 10
1.002669291338583
 20
2.943031496062992
 30
0.0
 10
0.9901614173228347
 20
2.944625984251969
 30
0.0
 10
0.9901614173228347
 20
2.944625984251969
 30
0.0
 10
0.9901614173228347
 20
2.944625984251969
 30
0.0
 10
0.9901614173228347
 20
2.944625984251969
 30
0.0
 10
0.9774685039370079
 20
2.945590551181103
 30
0.0
 10
0.9774685039370079
 20
2.945590551181103
 30
0.0
 10
0.9774685039370079
 20
2.945590551181103
 30
0.0
 10
0.9774685039370079
 20
2.945590551181103
 30
0.0
 10
0.9646102362204725
 20
2.94592125984252
 30
0.0
 10
0.9646102362204725
 20
2.94592125984252
 30
0.0
 10
0.9646102362204725
 20
2.94592125984252
 30
0.0
 10
0.9646102362204725
 20
2.94592125984252
 30
0.0
 10
0.3125590551181103
 20
2.568338582677165
 30
0.0
 10
0.3125590551181103
 20
2.568338582677165
 30
0.0
 10
0.3125590551181103
 20
2.568338582677165
 30
0.0
 10
0.3125590551181103
 20
2.568338582677165
 30
0.0
 10
0.3254173228346457
 20
2.568007874015748
 30
0.0
 10
0.3254173228346457
 20
2.568007874015748
 30
0.0
 10
0.3254173228346457
 20
2.568007874015748
 30
0.0
 10
0.3254173228346457
 20
2.568007874015748
 30
0.0
 10
0.3381102362204724
 20
2.567043307086614
 30
0.0
 10
0.3381102362204724
 20
2.567043307086614
 30
0.0
 10
0.3381102362204724
 20
2.567043307086614
 30
0.0
 10
0.3381102362204724
 20
2.567043307086614
 30
0.0
 10
0.3506181102362205
 20
2.565448818897638
 30
0.0
 10
0.3506181102362205
 20
2.565448818897638
 30
0.0
 10
0.3506181102362205
 20
2.565448818897638
 30
0.0
 10
0.3506181102362205
 20
2.565448818897638
 30
0.0
 10
0.3629330708661417
 20
2.563255905511811
 30
0.0
 10
0.3629330708661417
 20
2.563255905511811
 30
0.0
 10
0.3629330708661417
 20
2.563255905511811
 30
0.0
 10
0.3629330708661417
 20
2.563255905511811
 30
0.0
 10
0.3750236220472441
 20
2.56046062992126
 30
0.0
 10
0.3750236220472441
 20
2.56046062992126
 30
0.0
 10
0.3750236220472441
 20
2.56046062992126
 30
0.0
 10
0.3750236220472441
 20
2.56046062992126
 30
0.0
 10
0.3868858267716536
 20
2.557090551181103
 30
0.0
 10
0.3868858267716536
 20
2.557090551181103
 30
0.0
 10
0.3868858267716536
 20
2.557090551181103
 30
0.0
 10
0.3868858267716536
 20
2.557090551181103
 30
0.0
 10
0.3985
 20
2.553157480314961
 30
0.0
 10
0.3985
 20
2.553157480314961
 30
0.0
 10
0.3985
 20
2.553157480314961
 30
0.0
 10
0.3985
 20
2.553157480314961
 30
0.0
 10
0.4098582677165354
 20
2.548685039370079
 30
0.0
 10
0.4098582677165354
 20
2.548685039370079
 30
0.0
 10
0.4098582677165354
 20
2.548685039370079
 30
0.0
 10
0.4098582677165354
 20
2.548685039370079
 30
0.0
 10
0.4209291338582678
 20
2.543673228346457
 30
0.0
 10
0.4209291338582678
 20
2.543673228346457
 30
0.0
 10
0.4209291338582678
 20
2.543673228346457
 30
0.0
 10
0.4209291338582678
 20
2.543673228346457
 30
0.0
 10
0.4317086614173228
 20
2.538153543307087
 30
0.0
 10
0.4317086614173228
 20
2.538153543307087
 30
0.0
 10
0.4317086614173228
 20
2.538153543307087
 30
0.0
 10
0.4317086614173228
 20
2.538153543307087
 30
0.0
 10
0.4421771653543307
 20
2.532133858267716
 30
0.0
 10
0.4421771653543307
 20
2.532133858267716
 30
0.0
 10
0.4421771653543307
 20
2.532133858267716
 30
0.0
 10
0.4421771653543307
 20
2.532133858267716
 30
0.0
 10
0.4523228346456693
 20
2.525633858267717
 30
0.0
 10
0.4523228346456693
 20
2.525633858267717
 30
0.0
 10
0.4523228346456693
 20
2.525633858267717
 30
0.0
 10
0.4523228346456693
 20
2.525633858267717
 30
0.0
 10
0.4621220472440945
 20
2.518657480314961
 30
0.0
 10
0.4621220472440945
 20
2.518657480314961
 30
0.0
 10
0.4621220472440945
 20
2.518657480314961
 30
0.0
 10
0.4621220472440945
 20
2.518657480314961
 30
0.0
 10
0.4715669291338583
 20
2.511240157480315
 30
0.0
 10
0.4715669291338583
 20
2.511240157480315
 30
0.0
 10
0.4715669291338583
 20
2.511240157480315
 30
0.0
 10
0.4715669291338583
 20
2.511240157480315
 30
0.0
 10
0.4806377952755906
 20
2.50338188976378
 30
0.0
 10
0.4806377952755906
 20
2.50338188976378
 30
0.0
 10
0.4806377952755906
 20
2.50338188976378
 30
0.0
 10
0.4806377952755906
 20
2.50338188976378
 30
0.0
 10
0.4893267716535433
 20
2.495106299212599
 30
0.0
 10
0.4893267716535433
 20
2.495106299212599
 30
0.0
 10
0.4893267716535433
 20
2.495106299212599
 30
0.0
 10
0.4893267716535433
 20
2.495106299212599
 30
0.0
 10
0.4976023622047244
 20
2.486417322834646
 30
0.0
 10
0.4976023622047244
 20
2.486417322834646
 30
0.0
 10
0.4976023622047244
 20
2.486417322834646
 30
0.0
 10
0.4976023622047244
 20
2.486417322834646
 30
0.0
 10
0.5054606299212598
 20
2.477346456692914
 30
0.0
 10
0.5054606299212598
 20
2.477346456692914
 30
0.0
 10
0.5054606299212598
 20
2.477346456692914
 30
0.0
 10
0.5054606299212598
 20
2.477346456692914
 30
0.0
 10
0.5128779527559055
 20
2.46790157480315
 30
0.0
 10
0.5128779527559055
 20
2.46790157480315
 30
0.0
 10
0.5128779527559055
 20
2.46790157480315
 30
0.0
 10
0.5128779527559055
 20
2.46790157480315
 30
0.0
 10
0.5198543307086614
 20
2.458102362204725
 30
0.0
 10
0.5198543307086614
 20
2.458102362204725
 30
0.0
 10
0.5198543307086614
 20
2.458102362204725
 30
0.0
 10
0.5198543307086614
 20
2.458102362204725
 30
0.0
 10
0.5263543307086614
 20
2.447956692913386
 30
0.0
 10
0.5263543307086614
 20
2.447956692913386
 30
0.0
 10
0.5263543307086614
 20
2.447956692913386
 30
0.0
 10
0.5263543307086614
 20
2.447956692913386
 30
0.0
 10
0.5323740157480316
 20
2.437488188976378
 30
0.0
 10
0.5323740157480316
 20
2.437488188976378
 30
0.0
 10
0.5323740157480316
 20
2.437488188976378
 30
0.0
 10
0.5323740157480316
 20
2.437488188976378
 30
0.0
 10
0.5378937007874016
 20
2.426708661417323
 30
0.0
 10
0.5378937007874016
 20
2.426708661417323
 30
0.0
 10
0.5378937007874016
 20
2.426708661417323
 30
0.0
 10
0.5378937007874016
 20
2.426708661417323
 30
0.0
 10
0.5429055118110236
 20
2.415637795275591
 30
0.0
 10
0.5429055118110236
 20
2.415637795275591
 30
0.0
 10
0.5429055118110236
 20
2.415637795275591
 30
0.0
 10
0.5429055118110236
 20
2.415637795275591
 30
0.0
 10
0.5473779527559055
 20
2.404279527559055
 30
0.0
 10
0.5473779527559055
 20
2.404279527559055
 30
0.0
 10
0.5473779527559055
 20
2.404279527559055
 30
0.0
 10
0.5473779527559055
 20
2.404279527559055
 30
0.0
 10
0.5513110236220473
 20
2.392665354330709
 30
0.0
 10
0.5513110236220473
 20
2.392665354330709
 30
0.0
 10
0.5513110236220473
 20
2.392665354330709
 30
0.0
 10
0.5513110236220473
 20
2.392665354330709
 30
0.0
 10
0.5546811023622047
 20
2.380803149606299
 30
0.0
 10
0.5546811023622047
 20
2.380803149606299
 30
0.0
 10
0.5546811023622047
 20
2.380803149606299
 30
0.0
 10
0.5546811023622047
 20
2.380803149606299
 30
0.0
 10
0.557476377952756
 20
2.368712598425197
 30
0.0
 10
0.557476377952756
 20
2.368712598425197
 30
0.0
 10
0.557476377952756
 20
2.368712598425197
 30
0.0
 10
0.557476377952756
 20
2.368712598425197
 30
0.0
 10
0.5596692913385827
 20
2.356397637795276
 30
0.0
 10
0.5596692913385827
 20
2.356397637795276
 30
0.0
 10
0.5596692913385827
 20
2.356397637795276
 30
0.0
 10
0.5596692913385827
 20
2.356397637795276
 30
0.0
 10
0.5612637795275591
 20
2.343889763779528
 30
0.0
 10
0.5612637795275591
 20
2.343889763779528
 30
0.0
 10
0.5612637795275591
 20
2.343889763779528
 30
0.0
 10
0.5612637795275591
 20
2.343889763779528
 30
0.0
 10
0.562228346456693
 20
2.331196850393701
 30
0.0
 10
0.562228346456693
 20
2.331196850393701
 30
0.0
 10
0.562228346456693
 20
2.331196850393701
 30
0.0
 10
0.562228346456693
 20
2.331196850393701
 30
0.0
 10
0.5625590551181102
 20
2.318338582677165
 30
0.0
 10
0.5625590551181102
 20
2.318338582677165
 30
0.0
 10
0.5625590551181102
 20
2.318338582677165
 30
0.0
 10
0.5625590551181102
 20
2.318338582677165
 30
0.0
 10
0.562228346456693
 20
2.305468503937008
 30
0.0
 10
0.562228346456693
 20
2.305468503937008
 30
0.0
 10
0.562228346456693
 20
2.305468503937008
 30
0.0
 10
0.562228346456693
 20
2.305468503937008
 30
0.0
 10
0.5612637795275591
 20
2.292775590551181
 30
0.0
 10
0.5612637795275591
 20
2.292775590551181
 30
0.0
 10
0.5612637795275591
 20
2.292775590551181
 30
0.0
 10
0.5612637795275591
 20
2.292775590551181
 30
0.0
 10
0.5596692913385827
 20
2.280263779527559
 30
0.0
 10
0.5596692913385827
 20
2.280263779527559
 30
0.0
 10
0.5596692913385827
 20
2.280263779527559
 30
0.0
 10
0.5596692913385827
 20
2.280263779527559
 30
0.0
 10
0.557476377952756
 20
2.267956692913386
 30
0.0
 10
0.557476377952756
 20
2.267956692913386
 30
0.0
 10
0.557476377952756
 20
2.267956692913386
 30
0.0
 10
0.557476377952756
 20
2.267956692913386
 30
0.0
 10
0.5546811023622047
 20
2.255858267716536
 30
0.0
 10
0.5546811023622047
 20
2.255858267716536
 30
0.0
 10
0.5546811023622047
 20
2.255858267716536
 30
0.0
 10
0.5546811023622047
 20
2.255858267716536
 30
0.0
 10
0.5513110236220473
 20
2.244
 30
0.0
 10
0.5513110236220473
 20
2.244
 30
0.0
 10
0.5513110236220473
 20
2.244
 30
0.0
 10
0.5513110236220473
 20
2.244
 30
0.0
 10
0.5473779527559055
 20
2.23238188976378
 30
0.0
 10
0.5473779527559055
 20
2.23238188976378
 30
0.0
 10
0.5473779527559055
 20
2.23238188976378
 30
0.0
 10
0.5473779527559055
 20
2.23238188976378
 30
0.0
 10
0.5429055118110236
 20
2.221035433070866
 30
0.0
 10
0.5429055118110236
 20
2.221035433070866
 30
0.0
 10
0.5429055118110236
 20
2.221035433070866
 30
0.0
 10
0.5429055118110236
 20
2.221035433070866
 30
0.0
 10
0.5378937007874016
 20
2.209956692913386
 30
0.0
 10
0.5378937007874016
 20
2.209956692913386
 30
0.0
 10
0.5378937007874016
 20
2.209956692913386
 30
0.0
 10
0.5378937007874016
 20
2.209956692913386
 30
0.0
 10
0.5323740157480316
 20
2.199177165354331
 30
0.0
 10
0.5323740157480316
 20
2.199177165354331
 30
0.0
 10
0.5323740157480316
 20
2.199177165354331
 30
0.0
 10
0.5323740157480316
 20
2.199177165354331
 30
0.0
 10
0.5263543307086614
 20
2.188704724409449
 30
0.0
 10
0.5263543307086614
 20
2.188704724409449
 30
0.0
 10
0.5263543307086614
 20
2.188704724409449
 30
0.0
 10
0.5263543307086614
 20
2.188704724409449
 30
0.0
 10
0.5198543307086614
 20
2.178566929133858
 30
0.0
 10
0.5198543307086614
 20
2.178566929133858
 30
0.0
 10
0.5198543307086614
 20
2.178566929133858
 30
0.0
 10
0.5198543307086614
 20
2.178566929133858
 30
0.0
 10
0.5128779527559055
 20
2.168763779527559
 30
0.0
 10
0.5128779527559055
 20
2.168763779527559
 30
0.0
 10
0.5128779527559055
 20
2.168763779527559
 30
0.0
 10
0.5128779527559055
 20
2.168763779527559
 30
0.0
 10
0.5054606299212598
 20
2.159322834645669
 30
0.0
 10
0.5054606299212598
 20
2.159322834645669
 30
0.0
 10
0.5054606299212598
 20
2.159322834645669
 30
0.0
 10
0.5054606299212598
 20
2.159322834645669
 30
0.0
 10
0.4976023622047244
 20
2.150248031496063
 30
0.0
 10
0.4976023622047244
 20
2.150248031496063
 30
0.0
 10
0.4976023622047244
 20
2.150248031496063
 30
0.0
 10
0.4976023622047244
 20
2.150248031496063
 30
0.0
 10
0.4893267716535433
 20
2.141570866141732
 30
0.0
 10
0.4893267716535433
 20
2.141570866141732
 30
0.0
 10
0.4893267716535433
 20
2.141570866141732
 30
0.0
 10
0.4893267716535433
 20
2.141570866141732
 30
0.0
 10
0.4806377952755906
 20
2.133287401574803
 30
0.0
 10
0.4806377952755906
 20
2.133287401574803
 30
0.0
 10
0.4806377952755906
 20
2.133287401574803
 30
0.0
 10
0.4806377952755906
 20
2.133287401574803
 30
0.0
 10
0.4715669291338583
 20
2.125429133858268
 30
0.0
 10
0.4715669291338583
 20
2.125429133858268
 30
0.0
 10
0.4715669291338583
 20
2.125429133858268
 30
0.0
 10
0.4715669291338583
 20
2.125429133858268
 30
0.0
 10
0.4621220472440945
 20
2.118003937007874
 30
0.0
 10
0.4621220472440945
 20
2.118003937007874
 30
0.0
 10
0.4621220472440945
 20
2.118003937007874
 30
0.0
 10
0.4621220472440945
 20
2.118003937007874
 30
0.0
 10
0.4523228346456693
 20
2.111035433070866
 30
0.0
 10
0.4523228346456693
 20
2.111035433070866
 30
0.0
 10
0.4523228346456693
 20
2.111035433070866
 30
0.0
 10
0.4523228346456693
 20
2.111035433070866
 30
0.0
 10
0.4421771653543307
 20
2.104531496062992
 30
0.0
 10
0.4421771653543307
 20
2.104531496062992
 30
0.0
  0
SPLINE
  5
66
330
1F
100
AcDbEntity
  8
LAYER_1
 62
   253
100
AcDbSpline
210
0.0
220
0.0
230
1.0
 70
    11
 71
     3
 72
    20
 73
    16
 74
     0
 42
0.0000000001
 43
0.0000000001
 40
0.0
 40
0.0
 40
0.0
 40
0.0
 40
0.25
 40
0.25
 40
0.25
 40
0.25
 40
0.5
 40
0.5
 40
0.5
 40
0.5
 40
0.75
 40
0.75
 40
0.75
 40
0.75
 40
1.0
 40
1.0
 40
1.0
 40
1.0
 10
0.3125590551181103
 20
2.568338582677165
 30
0.0
 10
0.3125590551181103
 20
2.568338582677165
 30
0.0
 10
0.9646102362204725
 20
2.94592125984252
 30
0.0
 10
0.9646102362204725
 20
2.94592125984252
 30
0.0
 10
0.9646102362204725
 20
2.94592125984252
 30
0.0
 10
0.9646102362204725
 20
2.94592125984252
 30
0.0
 10
0.9646102362204725
 20
3.07092125984252
 30
0.0
 10
0.9646102362204725
 20
3.07092125984252
 30
0.0
 10
0.9646102362204725
 20
3.07092125984252
 30
0.0
 10
0.9646102362204725
 20
3.07092125984252
 30
0.0
 10
0.3125590551181103
 20
2.693338582677165
 30
0.0
 10
0.3125590551181103
 20
2.693338582677165
 30
0.0
 10
0.3125590551181103
 20
2.693338582677165
 30
0.0
 10
0.3125590551181103
 20
2.693338582677165
 30
0.0
 10
0.3125590551181103
 20
2.568338582677165
 30
0.0
 10
0.3125590551181103
 20
2.568338582677165
 30
0.0
  0
SPLINE
  5
67
330
1F
100
AcDbEntity
  8
LAYER_1
 62
   250
100
AcDbSpline
210
0.0
220
0.0
230
1.0
 70
    11
 71
     3
 72
    20
 73
    16
 74
     0
 42
0.0000000001
 43
0.0000000001
 40
0.0
 40
0.0
 40
0.0
 40
0.0
 40
0.25
 40
0.25
 40
0.25
 40
0.25
 40
0.5
 40
0.5
 40
0.5
 40
0.5
 40
0.75
 40
0.75
 40
0.75
 40
0.75
 40
1.0
 40
1.0
 40
1.0
 40
1.0
 10
0.3125590551181103
 20
2.568338582677165
 30
0.0
 10
0.3125590551181103
 20
2.568338582677165
 30
0.0
 10
0.9646102362204725
 20
2.94592125984252
 30
0.0
 10
0.9646102362204725
 20
2.94592125984252
 30
0.0
 10
0.9646102362204725
 20
2.94592125984252
 30
0.0
 10
0.9646102362204725
 20
2.94592125984252
 30
0.0
 10
0.9646102362204725
 20
3.07092125984252
 30
0.0
 10
0.9646102362204725
 20
3.07092125984252
 30
0.0
 10
0.9646102362204725
 20
3.07092125984252
 30
0.0
 10
0.9646102362204725
 20
3.07092125984252
 30
0.0
 10
0.3125590551181103
 20
2.693338582677165
 30
0.0
 10
0.3125590551181103
 20
2.693338582677165
 30
0.0
 10
0.3125590551181103
 20
2.693338582677165
 30
0.0
 10
0.3125590551181103
 20
2.693338582677165
 30
0.0
 10
0.3125590551181103
 20
2.568338582677165
 30
0.0
 10
0.3125590551181103
 20
2.568338582677165
 30
0.0
  0
SPLINE
  5
68
330
1F
100
AcDbEntity
  8
LAYER_1
 62
   252
100
AcDbSpline
210
0.0
220
0.0
230
1.0
 70
    11
 71
     3
 72
    20
 73
    16
 74
     0
 42
0.0000000001
 43
0.0000000001
 40
0.0
 40
0.0
 40
0.0
 40
0.0
 40
0.25
 40
0.25
 40
0.25
 40
0.25
 40
0.5
 40
0.5
 40
0.5
 40
0.5
 40
0.75
 40
0.75
 40
0.75
 40
0.75
 40
1.0
 40
1.0
 40
1.0
 40
1.0
 10
0.3125590551181103
 20
2.693338582677165
 30
0.0
 10
0.3125590551181103
 20
2.693338582677165
 30
0.0
 10
0.9646102362204725
 20
3.07092125984252
 30
0.0
 10
0.9646102362204725
 20
3.07092125984252
 30
0.0
 10
0.9646102362204725
 20
3.07092125984252
 30
0.0
 10
0.9646102362204725
 20
3.07092125984252
 30
0.0
 10
0.2146102362204725
 20
3.07092125984252
 30
0.0
 10
0.2146102362204725
 20
3.07092125984252
 30
0.0
 10
0.2146102362204725
 20
3.07092125984252
 30
0.0
 10
0.2146102362204725
 20
3.07092125984252
 30
0.0
 10
-0.4374409448818898
 20
2.693338582677165
 30
0.0
 10
-0.4374409448818898
 20
2.693338582677165
 30
0.0
 10
-0.4374409448818898
 20
2.693338582677165
 30
0.0
 10
-0.4374409448818898
 20
2.693338582677165
 30
0.0
 10
0.3125590551181103
 20
2.693338582677165
 30
0.0
 10
0.3125590551181103
 20
2.693338582677165
 30
0.0
  0
SPLINE
  5
69
330
1F
100
AcDbEntity
  8
LAYER_1
 62
   250
100
AcDbSpline
210
0.0
220
0.0
230
1.0
 70
    11
 71
     3
 72
    20
 73
    16
 74
     0
 42
0.0000000001
 43
0.0000000001
 40
0.0
 40
0.0
 40
0.0
 40
0.0
 40
0.25
 40
0.25
 40
0.25
 40
0.25
 40
0.5
 40
0.5
 40
0.5
 40
0.5
 40
0.75
 40
0.75
 40
0.75
 40
0.75
 40
1.0
 40
1.0
 40
1.0
 40
1.0
 10
0.3125590551181103
 20
2.693338582677165
 30
0.0
 10
0.3125590551181103
 20
2.693338582677165
 30
0.0
 10
0.9646102362204725
 20
3.07092125984252
 30
0.0
 10
0.9646102362204725
 20
3.07092125984252
 30
0.0
 10
0.9646102362204725
 20
3.07092125984252
 30
0.0
 10
0.9646102362204725
 20
3.07092125984252
 30
0.0
 10
0.2146102362204725
 20
3.07092125984252
 30
0.0
 10
0.2146102362204725
 20
3.07092125984252
 30
0.0
 10
0.2146102362204725
 20
3.07092125984252
 30
0.0
 10
0.2146102362204725
 20
3.07092125984252
 30
0.0
 10
-0.4374409448818898
 20
2.693338582677165
 30
0.0
 10
-0.4374409448818898
 20
2.693338582677165
 30
0.0
 10
-0.4374409448818898
 20
2.693338582677165
 30
0.0
 10
-0.4374409448818898
 20
2.693338582677165
 30
0.0
 10
0.3125590551181103
 20
2.693338582677165
 30
0.0
 10
0.3125590551181103
 20
2.693338582677165
 30
0.0
  0
SPLINE
  5
6A
330
1F
100
AcDbEntity
  8
LAYER_1
 62
     7
100
AcDbSpline
210
0.0
220
0.0
230
1.0
 70
    11
 71
     3
 72
    32
 73
    28
 74
     0
 42
0.0000000001
 43
0.0000000001
 40
0.0
 40
0.0
 40
0.0
 40
0.0
 40
0.1428571428571429
 40
0.1428571428571429
 40
0.1428571428571429
 40
0.1428571428571429
 40
0.2857142857142857
 40
0.2857142857142857
 40
0.2857142857142857
 40
0.2857142857142857
 40
0.4285714285714286
 40
0.4285714285714286
 40
0.4285714285714286
 40
0.4285714285714286
 40
0.5714285714285714
 40
0.5714285714285714
 40
0.5714285714285714
 40
0.5714285714285714
 40
0.7142857142857142
 40
0.7142857142857142
 40
0.7142857142857142
 40
0.7142857142857142
 40
0.857142857142857
 40
0.857142857142857
 40
0.857142857142857
 40
0.857142857142857
 40
1.0
 40
1.0
 40
1.0
 40
1.0
 10
0.3125590551181103
 20
1.943338582677165
 30
0.0
 10
0.3125590551181103
 20
1.943338582677165
 30
0.0
 10
0.3125590551181103
 20
2.068338582677165
 30
0.0
 10
0.3125590551181103
 20
2.068338582677165
 30
0.0
 10
0.3125590551181103
 20
2.068338582677165
 30
0.0
 10
0.4506062992125984
 20
2.068338582677165
 30
0.0
 10
0.5625590551181102
 20
2.180291338582677
 30
0.0
 10
0.5625590551181102
 20
2.318338582677165
 30
0.0
 10
0.5625590551181102
 20
2.318338582677165
 30
0.0
 10
0.5625590551181102
 20
2.456385826771654
 30
0.0
 10
0.4506062992125984
 20
2.568338582677165
 30
0.0
 10
0.3125590551181103
 20
2.568338582677165
 30
0.0
 10
0.3125590551181103
 20
2.568338582677165
 30
0.0
 10
0.3125590551181103
 20
2.568338582677165
 30
0.0
 10
0.3125590551181103
 20
2.693338582677165
 30
0.0
 10
0.3125590551181103
 20
2.693338582677165
 30
0.0
 10
0.3125590551181103
 20
2.693338582677165
 30
0.0
 10
0.3125590551181103
 20
2.693338582677165
 30
0.0
 10
-0.4374409448818898
 20
2.693338582677165
 30
0.0
 10
-0.4374409448818898
 20
2.693338582677165
 30
0.0
 10
-0.4374409448818898
 20
2.693338582677165
 30
0.0
 10
-0.4374409448818898
 20
2.693338582677165
 30
0.0
 10
-0.4374409448818898
 20
1.943338582677165
 30
0.0
 10
-0.4374409448818898
 20
1.943338582677165
 30
0.0
 10
-0.4374409448818898
 20
1.943338582677165
 30
0.0
 10
-0.4374409448818898
 20
1.943338582677165
 30
0.0
 10
0.3125590551181103
 20
1.943338582677165
 30
0.0
 10
0.3125590551181103
 20
1.943338582677165
 30
0.0
  0
SPLINE
  5
6B
330
1F
100
AcDbEntity
  8
LAYER_1
 62
   250
100
AcDbSpline
210
0.0
220
0.0
230
1.0
 70
    11
 71
     3
 72
   104
 73
   100
 74
     0
 42
0.0000000001
 43
0.0000000001
 40
0.0
 40
0.0
 40
0.0
 40
0.0
 40
0.04
 40
0.04
 40
0.04
 40
0.04
 40
0.08
 40
0.08
 40
0.08
 40
0.08
 40
0.12
 40
0.12
 40
0.12
 40
0.12
 40
0.16
 40
0.16
 40
0.16
 40
0.16
 40
0.2
 40
0.2
 40
0.2
 40
0.2
 40
0.24
 40
0.24
 40
0.24
 40
0.24
 40
0.28
 40
0.28
 40
0.28
 40
0.28
 40
0.32
 40
0.32
 40
0.32
 40
0.32
 40
0.36
 40
0.36
 40
0.36
 40
0.36
 40
0.4
 40
0.4
 40
0.4
 40
0.4
 40
0.44
 40
0.44
 40
0.44
 40
0.44
 40
0.4799999999999999
 40
0.4799999999999999
 40
0.4799999999999999
 40
0.4799999999999999
 40
0.5199999999999999
 40
0.5199999999999999
 40
0.5199999999999999
 40
0.5199999999999999
 40
0.5599999999999999
 40
0.5599999999999999
 40
0.5599999999999999
 40
0.5599999999999999
 40
0.6
 40
0.6
 40
0.6
 40
0.6
 40
0.64
 40
0.64
 40
0.64
 40
0.64
 40
0.6800000000000001
 40
0.6800000000000001
 40
0.6800000000000001
 40
0.6800000000000001
 40
0.7200000000000001
 40
0.7200000000000001
 40
0.7200000000000001
 40
0.7200000000000001
 40
0.7600000000000001
 40
0.7600000000000001
 40
0.7600000000000001
 40
0.7600000000000001
 40
0.8000000000000002
 40
0.8000000000000002
 40
0.8000000000000002
 40
0.8000000000000002
 40
0.8400000000000002
 40
0.8400000000000002
 40
0.8400000000000002
 40
0.8400000000000002
 40
0.8800000000000002
 40
0.8800000000000002
 40
0.8800000000000002
 40
0.8800000000000002
 40
0.9200000000000003
 40
0.9200000000000003
 40
0.9200000000000003
 40
0.9200000000000003
 40
0.9600000000000003
 40
0.9600000000000003
 40
0.9600000000000003
 40
0.9600000000000003
 40
1.0
 40
1.0
 40
1.0
 40
1.0
 10
0.0216220472440945
 20
1.83440157480315
 30
0.0
 10
0.0216220472440945
 20
1.83440157480315
 30
0.0
 10
0.0755944881889764
 20
1.83440157480315
 30
0.0
 10
0.0755944881889764
 20
1.83440157480315
 30
0.0
 10
0.0755944881889764
 20
1.83440157480315
 30
0.0
 10
0.0887637795275591
 20
1.83440157480315
 30
0.0
 10
0.0977913385826772
 20
1.833791338582677
 30
0.0
 10
0.1026771653543307
 20
1.832594488188976
 30
0.0
 10
0.1026771653543307
 20
1.832594488188976
 30
0.0
 10
0.1099015748031496
 20
1.830874015748032
 30
0.0
 10
0.1155944881889764
 20
1.827736220472441
 30
0.0
 10
0.1198188976377953
 20
1.823177165354331
 30
0.0
 10
0.1198188976377953
 20
1.823177165354331
 30
0.0
 10
0.1240118110236221
 20
1.818622047244095
 30
0.0
 10
0.1261220472440945
 20
1.813122047244095
 30
0.0
 10
0.1261220472440945
 20
1.806736220472441
 30
0.0
 10
0.1261220472440945
 20
1.806736220472441
 30
0.0
 10
0.1261220472440945
 20
1.802122047244095
 30
0.0
 10
0.1250118110236221
 20
1.797984251968504
 30
0.0
 10
0.1227913385826772
 20
1.794318897637795
 30
0.0
 10
0.1227913385826772
 20
1.794318897637795
 30
0.0
 10
0.1205669291338583
 20
1.790649606299213
 30
0.0
 10
0.1173188976377953
 20
1.787511811023622
 30
0.0
 10
0.1130944881889764
 20
1.784929133858268
 30
0.0
 10
0.1130944881889764
 20
1.784929133858268
 30
0.0
 10
0.1103740157480315
 20
1.783236220472441
 30
0.0
 10
0.1067047244094488
 20
1.781791338582677
 30
0.0
 10
0.1020393700787402
 20
1.780594488188976
 30
0.0
 10
0.1020393700787402
 20
1.780594488188976
 30
0.0
 10
0.1079566929133858
 20
1.779511811023622
 30
0.0
 10
0.1124566929133858
 20
1.778208661417323
 30
0.0
 10
0.1155393700787402
 20
1.776708661417323
 30
0.0
 10
0.1155393700787402
 20
1.776708661417323
 30
0.0
 10
0.1202047244094488
 20
1.774429133858268
 30
0.0
 10
0.1239015748031496
 20
1.771181102362205
 30
0.0
 10
0.1265944881889764
 20
1.766929133858268
 30
0.0
 10
0.1265944881889764
 20
1.766929133858268
 30
0.0
 10
0.1293188976377953
 20
1.762708661417323
 30
0.0
 10
0.1306771653543307
 20
1.757929133858268
 30
0.0
 10
0.1306771653543307
 20
1.752622047244095
 30
0.0
 10
0.1306771653543307
 20
1.752622047244095
 30
0.0
 10
0.1306771653543307
 20
1.747456692913386
 30
0.0
 10
0.1293464566929134
 20
1.742681102362205
 30
0.0
 10
0.1266771653543307
 20
1.738291338582677
 30
0.0
 10
0.1266771653543307
 20
1.738291338582677
 30
0.0
 10
0.1240393700787402
 20
1.73390157480315
 30
0.0
 10
0.1202637795275591
 20
1.730291338582677
 30
0.0
 10
0.1154291338582677
 20
1.727456692913386
 30
0.0
 10
0.1154291338582677
 20
1.727456692913386
 30
0.0
 10
0.1105669291338583
 20
1.724653543307087
 30
0.0
 10
0.1049015748031496
 20
1.722846456692913
 30
0.0
 10
0.0984566929133858
 20
1.72203937007874
 30
0.0
 10
0.0984566929133858
 20
1.72203937007874
 30
0.0
 10
0.0919842519685039
 20
1.721263779527559
 30
0.0
 10
0.0853464566929134
 20
1.720874015748032
 30
0.0
 10
0.0785118110236221
 20
1.720874015748032
 30
0.0
 10
0.0785118110236221
 20
1.720874015748032
 30
0.0
 10
0.0785118110236221
 20
1.720874015748032
 30
0.0
 10
0.0216220472440945
 20
1.720874015748032
 30
0.0
 10
0.0216220472440945
 20
1.720874015748032
 30
0.0
 10
0.0216220472440945
 20
1.720874015748032
 30
0.0
 10
0.0216220472440945
 20
1.720874015748032
 30
0.0
 10
0.0216220472440945
 20
1.727708661417323
 30
0.0
 10
0.0216220472440945
 20
1.727708661417323
 30
0.0
 10
0.0216220472440945
 20
1.727708661417323
 30
0.0
 10
0.0216220472440945
 20
1.727708661417323
 30
0.0
 10
0.0254566929133858
 20
1.727708661417323
 30
0.0
 10
0.0254566929133858
 20
1.727708661417323
 30
0.0
 10
0.0254566929133858
 20
1.727708661417323
 30
0.0
 10
0.0291535433070866
 20
1.727708661417323
 30
0.0
 10
0.0316535433070866
 20
1.728291338582677
 30
0.0
 10
0.0330118110236221
 20
1.729429133858268
 30
0.0
 10
0.0330118110236221
 20
1.729429133858268
 30
0.0
 10
0.0349842519685039
 20
1.730984251968504
 30
0.0
 10
0.0359566929133858
 20
1.733594488188976
 30
0.0
 10
0.0359566929133858
 20
1.737236220472441
 30
0.0
 10
0.0359566929133858
 20
1.737236220472441
 30
0.0
 10
0.0359566929133858
 20
1.737236220472441
 30
0.0
 10
0.0359566929133858
 20
1.816094488188977
 30
0.0
 10
0.0359566929133858
 20
1.816094488188977
 30
0.0
 10
0.0359566929133858
 20
1.816094488188977
 30
0.0
 10
0.0359566929133858
 20
1.819791338582677
 30
0.0
 10
0.0356535433070866
 20
1.822291338582677
 30
0.0
 10
0.0350669291338583
 20
1.823649606299213
 30
0.0
 10
0.0350669291338583
 20
1.823649606299213
 30
0.0
 10
0.0344566929133858
 20
1.825011811023622
 30
0.0
 10
0.0335669291338583
 20
1.825984251968504
 30
0.0
 10
0.0323740157480315
 20
1.826594488188976
 30
0.0
 10
0.0323740157480315
 20
1.826594488188976
 30
0.0
 10
0.0311811023622047
 20
1.827177165354331
 30
0.0
 10
0.0288740157480315
 20
1.827484251968504
 30
0.0
 10
0.0254566929133858
 20
1.827484251968504
 30
0.0
 10
0.0254566929133858
 20
1.827484251968504
 30
0.0
 10
0.0254566929133858
 20
1.827484251968504
 30
0.0
 10
0.0216220472440945
 20
1.827484251968504
 30
0.0
 10
0.0216220472440945
 20
1.827484251968504
 30
0.0
 10
0.0216220472440945
 20
1.827484251968504
 30
0.0
 10
0.0216220472440945
 20
1.827484251968504
 30
0.0
 10
0.0216220472440945
 20
1.83440157480315
 30
0.0
 10
0.0216220472440945
 20
1.83440157480315
 30
0.0
  0
SPLINE
  5
6C
330
1F
100
AcDbEntity
  8
LAYER_1
 62
   250
100
AcDbSpline
210
0.0
220
0.0
230
1.0
 70
    11
 71
     3
 72
    40
 73
    36
 74
     0
 42
0.0000000001
 43
0.0000000001
 40
0.0
 40
0.0
 40
0.0
 40
0.0
 40
0.1111111111111111
 40
0.1111111111111111
 40
0.1111111111111111
 40
0.1111111111111111
 40
0.2222222222222222
 40
0.2222222222222222
 40
0.2222222222222222
 40
0.2222222222222222
 40
0.3333333333333333
 40
0.3333333333333333
 40
0.3333333333333333
 40
0.3333333333333333
 40
0.4444444444444444
 40
0.4444444444444444
 40
0.4444444444444444
 40
0.4444444444444444
 40
0.5555555555555556
 40
0.5555555555555556
 40
0.5555555555555556
 40
0.5555555555555556
 40
0.6666666666666667
 40
0.6666666666666667
 40
0.6666666666666667
 40
0.6666666666666667
 40
0.7777777777777779
 40
0.7777777777777779
 40
0.7777777777777779
 40
0.7777777777777779
 40
0.8888888888888891
 40
0.8888888888888891
 40
0.8888888888888891
 40
0.8888888888888891
 40
1.0
 40
1.0
 40
1.0
 40
1.0
 10
0.0511811023622047
 20
1.825374015748032
 30
0.0
 10
0.0511811023622047
 20
1.825374015748032
 30
0.0
 10
0.0511811023622047
 20
1.783791338582677
 30
0.0
 10
0.0511811023622047
 20
1.783791338582677
 30
0.0
 10
0.0511811023622047
 20
1.783791338582677
 30
0.0
 10
0.0511811023622047
 20
1.783791338582677
 30
0.0
 10
0.0719291338582677
 20
1.783791338582677
 30
0.0
 10
0.0719291338582677
 20
1.783791338582677
 30
0.0
 10
0.0719291338582677
 20
1.783791338582677
 30
0.0
 10
0.0816220472440945
 20
1.783791338582677
 30
0.0
 10
0.0882913385826772
 20
1.784236220472441
 30
0.0
 10
0.0918464566929134
 20
1.785149606299213
 30
0.0
 10
0.0918464566929134
 20
1.785149606299213
 30
0.0
 10
0.0974566929133858
 20
1.786622047244095
 30
0.0
 10
0.1017047244094488
 20
1.789122047244095
 30
0.0
 10
0.1046771653543307
 20
1.792649606299213
 30
0.0
 10
0.1046771653543307
 20
1.792649606299213
 30
0.0
 10
0.1076220472440945
 20
1.796177165354331
 30
0.0
 10
0.1091220472440945
 20
1.800708661417323
 30
0.0
 10
0.1091220472440945
 20
1.806236220472441
 30
0.0
 10
0.1091220472440945
 20
1.806236220472441
 30
0.0
 10
0.1091220472440945
 20
1.81090157480315
 30
0.0
 10
0.1077637795275591
 20
1.814791338582677
 30
0.0
 10
0.1050944881889764
 20
1.817929133858268
 30
0.0
 10
0.1050944881889764
 20
1.817929133858268
 30
0.0
 10
0.1024015748031496
 20
1.82103937007874
 30
0.0
 10
0.0987913385826772
 20
1.823177165354331
 30
0.0
 10
0.0942913385826772
 20
1.824318897637795
 30
0.0
 10
0.0942913385826772
 20
1.824318897637795
 30
0.0
 10
0.0913740157480315
 20
1.825011811023622
 30
0.0
 10
0.0852913385826772
 20
1.825374015748032
 30
0.0
 10
0.0760669291338583
 20
1.825374015748032
 30
0.0
 10
0.0760669291338583
 20
1.825374015748032
 30
0.0
 10
0.0760669291338583
 20
1.825374015748032
 30
0.0
 10
0.0511811023622047
 20
1.825374015748032
 30
0.0
 10
0.0511811023622047
 20
1.825374015748032
 30
0.0
  0
SPLINE
  5
6D
330
1F
100
AcDbEntity
  8
LAYER_1
 62
   250
100
AcDbSpline
210
0.0
220
0.0
230
1.0
 70
    11
 71
     3
 72
    52
 73
    48
 74
     0
 42
0.0000000001
 43
0.0000000001
 40
0.0
 40
0.0
 40
0.0
 40
0.0
 40
0.0833333333333333
 40
0.0833333333333333
 40
0.0833333333333333
 40
0.0833333333333333
 40
0.1666666666666667
 40
0.1666666666666667
 40
0.1666666666666667
 40
0.1666666666666667
 40
0.25
 40
0.25
 40
0.25
 40
0.25
 40
0.3333333333333333
 40
0.3333333333333333
 40
0.3333333333333333
 40
0.3333333333333333
 40
0.4166666666666666
 40
0.4166666666666666
 40
0.4166666666666666
 40
0.4166666666666666
 40
0.4999999999999999
 40
0.4999999999999999
 40
0.4999999999999999
 40
0.4999999999999999
 40
0.5833333333333333
 40
0.5833333333333333
 40
0.5833333333333333
 40
0.5833333333333333
 40
0.6666666666666666
 40
0.6666666666666666
 40
0.6666666666666666
 40
0.6666666666666666
 40
0.75
 40
0.75
 40
0.75
 40
0.75
 40
0.8333333333333334
 40
0.8333333333333334
 40
0.8333333333333334
 40
0.8333333333333334
 40
0.9166666666666667
 40
0.9166666666666667
 40
0.9166666666666667
 40
0.9166666666666667
 40
1.0
 40
1.0
 40
1.0
 40
1.0
 10
0.0511811023622047
 20
1.775956692913386
 30
0.0
 10
0.0511811023622047
 20
1.775956692913386
 30
0.0
 10
0.0511811023622047
 20
1.738708661417323
 30
0.0
 10
0.0511811023622047
 20
1.738708661417323
 30
0.0
 10
0.0511811023622047
 20
1.738708661417323
 30
0.0
 10
0.0511811023622047
 20
1.734956692913386
 30
0.0
 10
0.0513464566929134
 20
1.732736220472441
 30
0.0
 10
0.0516496062992126
 20
1.732011811023622
 30
0.0
 10
0.0516496062992126
 20
1.732011811023622
 30
0.0
 10
0.0520944881889764
 20
1.73103937007874
 30
0.0
 10
0.0529566929133858
 20
1.730374015748032
 30
0.0
 10
0.0542637795275591
 20
1.729984251968504
 30
0.0
 10
0.0542637795275591
 20
1.729984251968504
 30
0.0
 10
0.0551811023622047
 20
1.729708661417323
 30
0.0
 10
0.0577913385826772
 20
1.729566929133858
 30
0.0
 10
0.0620669291338583
 20
1.729566929133858
 30
0.0
 10
0.0620669291338583
 20
1.729566929133858
 30
0.0
 10
0.0620669291338583
 20
1.729566929133858
 30
0.0
 10
0.0731496062992126
 20
1.729566929133858
 30
0.0
 10
0.0731496062992126
 20
1.729566929133858
 30
0.0
 10
0.0731496062992126
 20
1.729566929133858
 30
0.0
 10
0.0840944881889764
 20
1.729566929133858
 30
0.0
 10
0.0919291338582677
 20
1.730181102362205
 30
0.0
 10
0.0966220472440945
 20
1.73140157480315
 30
0.0
 10
0.0966220472440945
 20
1.73140157480315
 30
0.0
 10
0.1013188976377953
 20
1.732622047244095
 30
0.0
 10
0.1053188976377953
 20
1.735208661417323
 30
0.0
 10
0.1086220472440945
 20
1.739153543307087
 30
0.0
 10
0.1086220472440945
 20
1.739153543307087
 30
0.0
 10
0.1119291338582677
 20
1.743066929133858
 30
0.0
 10
0.1135944881889764
 20
1.747818897637795
 30
0.0
 10
0.1135944881889764
 20
1.753346456692914
 30
0.0
 10
0.1135944881889764
 20
1.753346456692914
 30
0.0
 10
0.1135944881889764
 20
1.758011811023622
 30
0.0
 10
0.112236220472441
 20
1.762149606299213
 30
0.0
 10
0.1095669291338583
 20
1.765763779527559
 30
0.0
 10
0.1095669291338583
 20
1.765763779527559
 30
0.0
 10
0.1068740157480315
 20
1.769374015748032
 30
0.0
 10
0.1031496062992126
 20
1.771956692913386
 30
0.0
 10
0.0984015748031496
 20
1.773566929133858
 30
0.0
 10
0.0984015748031496
 20
1.773566929133858
 30
0.0
 10
0.0936496062992126
 20
1.775181102362205
 30
0.0
 10
0.0852362204724409
 20
1.775956692913386
 30
0.0
 10
0.0731496062992126
 20
1.775956692913386
 30
0.0
 10
0.0731496062992126
 20
1.775956692913386
 30
0.0
 10
0.0731496062992126
 20
1.775956692913386
 30
0.0
 10
0.0511811023622047
 20
1.775956692913386
 30
0.0
 10
0.0511811023622047
 20
1.775956692913386
 30
0.0
  0
SPLINE
  5
6E
330
1F
100
AcDbEntity
  8
LAYER_1
 62
   250
100
AcDbSpline
210
0.0
220
0.0
230
1.0
 70
    11
 71
     3
 72
   112
 73
   108
 74
     0
 42
0.0000000001
 43
0.0000000001
 40
0.0
 40
0.0
 40
0.0
 40
0.0
 40
0.037037037037037
 40
0.037037037037037
 40
0.037037037037037
 40
0.037037037037037
 40
0.0740740740740741
 40
0.0740740740740741
 40
0.0740740740740741
 40
0.0740740740740741
 40
0.1111111111111111
 40
0.1111111111111111
 40
0.1111111111111111
 40
0.1111111111111111
 40
0.1481481481481481
 40
0.1481481481481481
 40
0.1481481481481481
 40
0.1481481481481481
 40
0.1851851851851852
 40
0.1851851851851852
 40
0.1851851851851852
 40
0.1851851851851852
 40
0.2222222222222222
 40
0.2222222222222222
 40
0.2222222222222222
 40
0.2222222222222222
 40
0.2592592592592592
 40
0.2592592592592592
 40
0.2592592592592592
 40
0.2592592592592592
 40
0.2962962962962963
 40
0.2962962962962963
 40
0.2962962962962963
 40
0.2962962962962963
 40
0.3333333333333333
 40
0.3333333333333333
 40
0.3333333333333333
 40
0.3333333333333333
 40
0.3703703703703704
 40
0.3703703703703704
 40
0.3703703703703704
 40
0.3703703703703704
 40
0.4074074074074074
 40
0.4074074074074074
 40
0.4074074074074074
 40
0.4074074074074074
 40
0.4444444444444444
 40
0.4444444444444444
 40
0.4444444444444444
 40
0.4444444444444444
 40
0.4814814814814815
 40
0.4814814814814815
 40
0.4814814814814815
 40
0.4814814814814815
 40
0.5185185185185185
 40
0.5185185185185185
 40
0.5185185185185185
 40
0.5185185185185185
 40
0.5555555555555556
 40
0.5555555555555556
 40
0.5555555555555556
 40
0.5555555555555556
 40
0.5925925925925926
 40
0.5925925925925926
 40
0.5925925925925926
 40
0.5925925925925926
 40
0.6296296296296295
 40
0.6296296296296295
 40
0.6296296296296295
 40
0.6296296296296295
 40
0.6666666666666665
 40
0.6666666666666665
 40
0.6666666666666665
 40
0.6666666666666665
 40
0.7037037037037035
 40
0.7037037037037035
 40
0.7037037037037035
 40
0.7037037037037035
 40
0.7407407407407405
 40
0.7407407407407405
 40
0.7407407407407405
 40
0.7407407407407405
 40
0.7777777777777775
 40
0.7777777777777775
 40
0.7777777777777775
 40
0.7777777777777775
 40
0.8148148148148144
 40
0.8148148148148144
 40
0.8148148148148144
 40
0.8148148148148144
 40
0.8518518518518514
 40
0.8518518518518514
 40
0.8518518518518514
 40
0.8518518518518514
 40
0.8888888888888884
 40
0.8888888888888884
 40
0.8888888888888884
 40
0.8888888888888884
 40
0.9259259259259254
 40
0.9259259259259254
 40
0.9259259259259254
 40
0.9259259259259254
 40
0.9629629629629624
 40
0.9629629629629624
 40
0.9629629629629624
 40
0.9629629629629624
 40
1.0
 40
1.0
 40
1.0
 40
1.0
 10
0.1882874015748032
 20
1.83440157480315
 30
0.0
 10
0.1882874015748032
 20
1.83440157480315
 30
0.0
 10
0.2017047244094488
 20
1.83440157480315
 30
0.0
 10
0.2017047244094488
 20
1.83440157480315
 30
0.0
 10
0.2017047244094488
 20
1.83440157480315
 30
0.0
 10
0.2017047244094488
 20
1.83440157480315
 30
0.0
 10
0.2369527559055118
 20
1.739511811023622
 30
0.0
 10
0.2369527559055118
 20
1.739511811023622
 30
0.0
 10
0.2369527559055118
 20
1.739511811023622
 30
0.0
 10
0.2386771653543307
 20
1.734736220472441
 30
0.0
 10
0.2404251968503937
 20
1.731566929133858
 30
0.0
 10
0.2422047244094488
 20
1.73003937007874
 30
0.0
 10
0.2422047244094488
 20
1.73003937007874
 30
0.0
 10
0.2439527559055118
 20
1.728484251968504
 30
0.0
 10
0.2463425196850394
 20
1.727708661417323
 30
0.0
 10
0.2493149606299213
 20
1.727708661417323
 30
0.0
 10
0.2493149606299213
 20
1.727708661417323
 30
0.0
 10
0.2493149606299213
 20
1.727708661417323
 30
0.0
 10
0.2510944881889764
 20
1.727708661417323
 30
0.0
 10
0.2510944881889764
 20
1.727708661417323
 30
0.0
 10
0.2510944881889764
 20
1.727708661417323
 30
0.0
 10
0.2510944881889764
 20
1.727708661417323
 30
0.0
 10
0.2510944881889764
 20
1.720874015748032
 30
0.0
 10
0.2510944881889764
 20
1.720874015748032
 30
0.0
 10
0.2510944881889764
 20
1.720874015748032
 30
0.0
 10
0.2510944881889764
 20
1.720874015748032
 30
0.0
 10
0.2106496062992126
 20
1.720874015748032
 30
0.0
 10
0.2106496062992126
 20
1.720874015748032
 30
0.0
 10
0.2106496062992126
 20
1.720874015748032
 30
0.0
 10
0.2106496062992126
 20
1.720874015748032
 30
0.0
 10
0.2106496062992126
 20
1.727708661417323
 30
0.0
 10
0.2106496062992126
 20
1.727708661417323
 30
0.0
 10
0.2106496062992126
 20
1.727708661417323
 30
0.0
 10
0.2119527559055118
 20
1.727818897637795
 30
0.0
 10
0.2132322834645669
 20
1.727874015748032
 30
0.0
 10
0.214484251968504
 20
1.727874015748032
 30
0.0
 10
0.214484251968504
 20
1.727874015748032
 30
0.0
 10
0.2170944881889764
 20
1.727874015748032
 30
0.0
 10
0.2187874015748032
 20
1.728153543307087
 30
0.0
 10
0.2196220472440945
 20
1.728681102362205
 30
0.0
 10
0.2196220472440945
 20
1.728681102362205
 30
0.0
 10
0.2211771653543307
 20
1.729708661417323
 30
0.0
 10
0.2219803149606299
 20
1.731011811023622
 30
0.0
 10
0.2219803149606299
 20
1.732594488188977
 30
0.0
 10
0.2219803149606299
 20
1.732594488188977
 30
0.0
 10
0.2219803149606299
 20
1.733736220472441
 30
0.0
 10
0.2212047244094488
 20
1.736511811023622
 30
0.0
 10
0.2197047244094488
 20
1.740984251968504
 30
0.0
 10
0.2197047244094488
 20
1.740984251968504
 30
0.0
 10
0.2197047244094488
 20
1.740984251968504
 30
0.0
 10
0.2122047244094488
 20
1.762956692913386
 30
0.0
 10
0.2122047244094488
 20
1.762956692913386
 30
0.0
 10
0.2122047244094488
 20
1.762956692913386
 30
0.0
 10
0.2122047244094488
 20
1.762956692913386
 30
0.0
 10
0.1710393700787402
 20
1.762956692913386
 30
0.0
 10
0.1710393700787402
 20
1.762956692913386
 30
0.0
 10
0.1710393700787402
 20
1.762956692913386
 30
0.0
 10
0.1710393700787402
 20
1.762956692913386
 30
0.0
 10
0.162232283464567
 20
1.738374015748032
 30
0.0
 10
0.162232283464567
 20
1.738374015748032
 30
0.0
 10
0.162232283464567
 20
1.738374015748032
 30
0.0
 10
0.1613149606299213
 20
1.735818897637795
 30
0.0
 10
0.1608425196850394
 20
1.734066929133858
 30
0.0
 10
0.1608425196850394
 20
1.733066929133858
 30
0.0
 10
0.1608425196850394
 20
1.733066929133858
 30
0.0
 10
0.1608425196850394
 20
1.731984251968504
 30
0.0
 10
0.1611496062992126
 20
1.73103937007874
 30
0.0
 10
0.1617047244094488
 20
1.730236220472441
 30
0.0
 10
0.1617047244094488
 20
1.730236220472441
 30
0.0
 10
0.1622874015748032
 20
1.729429133858268
 30
0.0
 10
0.1630393700787402
 20
1.728818897637795
 30
0.0
 10
0.1640393700787402
 20
1.72840157480315
 30
0.0
 10
0.1640393700787402
 20
1.72840157480315
 30
0.0
 10
0.1650118110236221
 20
1.727984251968504
 30
0.0
 10
0.1665669291338583
 20
1.727791338582677
 30
0.0
 10
0.168759842519685
 20
1.727791338582677
 30
0.0
 10
0.168759842519685
 20
1.727791338582677
 30
0.0
 10
0.1702047244094488
 20
1.727791338582677
 30
0.0
 10
0.1713976377952756
 20
1.727763779527559
 30
0.0
 10
0.1723149606299213
 20
1.727708661417323
 30
0.0
 10
0.1723149606299213
 20
1.727708661417323
 30
0.0
 10
0.1723149606299213
 20
1.727708661417323
 30
0.0
 10
0.1723149606299213
 20
1.720874015748032
 30
0.0
 10
0.1723149606299213
 20
1.720874015748032
 30
0.0
 10
0.1723149606299213
 20
1.720874015748032
 30
0.0
 10
0.1723149606299213
 20
1.720874015748032
 30
0.0
 10
0.1383976377952756
 20
1.720874015748032
 30
0.0
 10
0.1383976377952756
 20
1.720874015748032
 30
0.0
 10
0.1383976377952756
 20
1.720874015748032
 30
0.0
 10
0.1383976377952756
 20
1.720874015748032
 30
0.0
 10
0.1383976377952756
 20
1.727708661417323
 30
0.0
 10
0.1383976377952756
 20
1.727708661417323
 30
0.0
 10
0.1383976377952756
 20
1.727708661417323
 30
0.0
 10
0.1415393700787402
 20
1.727708661417323
 30
0.0
 10
0.1438149606299213
 20
1.728011811023622
 30
0.0
 10
0.1451771653543307
 20
1.728653543307087
 30
0.0
 10
0.1451771653543307
 20
1.728653543307087
 30
0.0
 10
0.1465669291338583
 20
1.729263779527559
 30
0.0
 10
0.1477874015748032
 20
1.730263779527559
 30
0.0
 10
0.1488149606299213
 20
1.731653543307087
 30
0.0
 10
0.1488149606299213
 20
1.731653543307087
 30
0.0
 10
0.1498425196850394
 20
1.73303937007874
 30
0.0
 10
0.1512047244094488
 20
1.735956692913386
 30
0.0
 10
0.1528700787401575
 20
1.74040157480315
 30
0.0
 10
0.1528700787401575
 20
1.74040157480315
 30
0.0
 10
0.1528700787401575
 20
1.74040157480315
 30
0.0
 10
0.1882874015748032
 20
1.83440157480315
 30
0.0
 10
0.1882874015748032
 20
1.83440157480315
 30
0.0
  0
SPLINE
  5
6F
330
1F
100
AcDbEntity
  8
LAYER_1
 62
   250
100
AcDbSpline
210
0.0
220
0.0
230
1.0
 70
    11
 71
     3
 72
    16
 73
    12
 74
     0
 42
0.0000000001
 43
0.0000000001
 40
0.0
 40
0.0
 40
0.0
 40
0.0
 40
0.3333333333333333
 40
0.3333333333333333
 40
0.3333333333333333
 40
0.3333333333333333
 40
0.6666666666666666
 40
0.6666666666666666
 40
0.6666666666666666
 40
0.6666666666666666
 40
1.0
 40
1.0
 40
1.0
 40
1.0
 10
0.1740393700787402
 20
1.770929133858268
 30
0.0
 10
0.1740393700787402
 20
1.770929133858268
 30
0.0
 10
0.2091220472440945
 20
1.770929133858268
 30
0.0
 10
0.2091220472440945
 20
1.770929133858268
 30
0.0
 10
0.2091220472440945
 20
1.770929133858268
 30
0.0
 10
0.2091220472440945
 20
1.770929133858268
 30
0.0
 10
0.1915393700787402
 20
1.819763779527559
 30
0.0
 10
0.1915393700787402
 20
1.819763779527559
 30
0.0
 10
0.1915393700787402
 20
1.819763779527559
 30
0.0
 10
0.1915393700787402
 20
1.819763779527559
 30
0.0
 10
0.1740393700787402
 20
1.770929133858268
 30
0.0
 10
0.1740393700787402
 20
1.770929133858268
 30
0.0
  0
SPLINE
  5
70
330
1F
100
AcDbEntity
  8
LAYER_1
 62
   250
100
AcDbSpline
210
0.0
220
0.0
230
1.0
 70
    11
 71
     3
 72
    72
 73
    68
 74
     0
 42
0.0000000001
 43
0.0000000001
 40
0.0
 40
0.0
 40
0.0
 40
0.0
 40
0.0588235294117647
 40
0.0588235294117647
 40
0.0588235294117647
 40
0.0588235294117647
 40
0.1176470588235294
 40
0.1176470588235294
 40
0.1176470588235294
 40
0.1176470588235294
 40
0.1764705882352941
 40
0.1764705882352941
 40
0.1764705882352941
 40
0.1764705882352941
 40
0.2352941176470588
 40
0.2352941176470588
 40
0.2352941176470588
 40
0.2352941176470588
 40
0.2941176470588235
 40
0.2941176470588235
 40
0.2941176470588235
 40
0.2941176470588235
 40
0.3529411764705883
 40
0.3529411764705883
 40
0.3529411764705883
 40
0.3529411764705883
 40
0.411764705882353
 40
0.411764705882353
 40
0.411764705882353
 40
0.411764705882353
 40
0.4705882352941177
 40
0.4705882352941177
 40
0.4705882352941177
 40
0.4705882352941177
 40
0.5294117647058824
 40
0.5294117647058824
 40
0.5294117647058824
 40
0.5294117647058824
 40
0.5882352941176471
 40
0.5882352941176471
 40
0.5882352941176471
 40
0.5882352941176471
 40
0.6470588235294118
 40
0.6470588235294118
 40
0.6470588235294118
 40
0.6470588235294118
 40
0.7058823529411765
 40
0.7058823529411765
 40
0.7058823529411765
 40
0.7058823529411765
 40
0.7647058823529412
 40
0.7647058823529412
 40
0.7647058823529412
 40
0.7647058823529412
 40
0.823529411764706
 40
0.823529411764706
 40
0.823529411764706
 40
0.823529411764706
 40
0.8823529411764707
 40
0.8823529411764707
 40
0.8823529411764707
 40
0.8823529411764707
 40
0.9411764705882354
 40
0.9411764705882354
 40
0.9411764705882354
 40
0.9411764705882354
 40
1.0
 40
1.0
 40
1.0
 40
1.0
 10
0.4141220472440945
 20
1.83440157480315
 30
0.0
 10
0.4141220472440945
 20
1.83440157480315
 30
0.0
 10
0.4202047244094488
 20
1.83440157480315
 30
0.0
 10
0.4202047244094488
 20
1.83440157480315
 30
0.0
 10
0.4202047244094488
 20
1.83440157480315
 30
0.0
 10
0.4202047244094488
 20
1.83440157480315
 30
0.0
 10
0.4202047244094488
 20
1.740153543307087
 30
0.0
 10
0.4202047244094488
 20
1.740153543307087
 30
0.0
 10
0.4202047244094488
 20
1.740153543307087
 30
0.0
 10
0.4202047244094488
 20
1.735708661417323
 30
0.0
 10
0.4205118110236221
 20
1.732846456692913
 30
0.0
 10
0.4210669291338583
 20
1.731566929133858
 30
0.0
 10
0.4210669291338583
 20
1.731566929133858
 30
0.0
 10
0.4216496062992126
 20
1.730291338582677
 30
0.0
 10
0.4225669291338583
 20
1.729346456692914
 30
0.0
 10
0.4238700787401575
 20
1.728681102362205
 30
0.0
 10
0.4238700787401575
 20
1.728681102362205
 30
0.0
 10
0.4251771653543307
 20
1.72803937007874
 30
0.0
 10
0.4277598425196851
 20
1.727708661417323
 30
0.0
 10
0.4316220472440945
 20
1.727708661417323
 30
0.0
 10
0.4316220472440945
 20
1.727708661417323
 30
0.0
 10
0.4316220472440945
 20
1.727708661417323
 30
0.0
 10
0.4395944881889764
 20
1.727708661417323
 30
0.0
 10
0.4395944881889764
 20
1.727708661417323
 30
0.0
 10
0.4395944881889764
 20
1.727708661417323
 30
0.0
 10
0.4395944881889764
 20
1.727708661417323
 30
0.0
 10
0.4395944881889764
 20
1.720874015748032
 30
0.0
 10
0.4395944881889764
 20
1.720874015748032
 30
0.0
 10
0.4395944881889764
 20
1.720874015748032
 30
0.0
 10
0.4395944881889764
 20
1.720874015748032
 30
0.0
 10
0.3859566929133859
 20
1.720874015748032
 30
0.0
 10
0.3859566929133859
 20
1.720874015748032
 30
0.0
 10
0.3859566929133859
 20
1.720874015748032
 30
0.0
 10
0.3859566929133859
 20
1.720874015748032
 30
0.0
 10
0.3859566929133859
 20
1.727708661417323
 30
0.0
 10
0.3859566929133859
 20
1.727708661417323
 30
0.0
 10
0.3859566929133859
 20
1.727708661417323
 30
0.0
 10
0.3859566929133859
 20
1.727708661417323
 30
0.0
 10
0.3948149606299213
 20
1.727708661417323
 30
0.0
 10
0.3948149606299213
 20
1.727708661417323
 30
0.0
 10
0.3948149606299213
 20
1.727708661417323
 30
0.0
 10
0.3986771653543307
 20
1.727708661417323
 30
0.0
 10
0.401232283464567
 20
1.72803937007874
 30
0.0
 10
0.4025118110236221
 20
1.728736220472441
 30
0.0
 10
0.4025118110236221
 20
1.728736220472441
 30
0.0
 10
0.4037874015748031
 20
1.72940157480315
 30
0.0
 10
0.4047874015748031
 20
1.730484251968504
 30
0.0
 10
0.405484251968504
 20
1.731984251968504
 30
0.0
 10
0.405484251968504
 20
1.731984251968504
 30
0.0
 10
0.4061771653543307
 20
1.733484251968504
 30
0.0
 10
0.4065393700787402
 20
1.736208661417323
 30
0.0
 10
0.4065393700787402
 20
1.740153543307087
 30
0.0
 10
0.4065393700787402
 20
1.740153543307087
 30
0.0
 10
0.4065393700787402
 20
1.740153543307087
 30
0.0
 10
0.4065393700787402
 20
1.817622047244095
 30
0.0
 10
0.4065393700787402
 20
1.817622047244095
 30
0.0
 10
0.4065393700787402
 20
1.817622047244095
 30
0.0
 10
0.4065393700787402
 20
1.817622047244095
 30
0.0
 10
0.3859566929133859
 20
1.817622047244095
 30
0.0
 10
0.3859566929133859
 20
1.817622047244095
 30
0.0
 10
0.3859566929133859
 20
1.817622047244095
 30
0.0
 10
0.3859566929133859
 20
1.817622047244095
 30
0.0
 10
0.3859566929133859
 20
1.824622047244095
 30
0.0
 10
0.3859566929133859
 20
1.824622047244095
 30
0.0
 10
0.3859566929133859
 20
1.824622047244095
 30
0.0
 10
0.3971771653543307
 20
1.826204724409449
 30
0.0
 10
0.4065669291338583
 20
1.829456692913386
 30
0.0
 10
0.4141220472440945
 20
1.83440157480315
 30
0.0
  0
SPLINE
  5
71
330
1F
100
AcDbEntity
  8
LAYER_1
 62
   250
100
AcDbSpline
210
0.0
220
0.0
230
1.0
 70
    11
 71
     3
 72
    80
 73
    76
 74
     0
 42
0.0000000001
 43
0.0000000001
 40
0.0
 40
0.0
 40
0.0
 40
0.0
 40
0.0526315789473684
 40
0.0526315789473684
 40
0.0526315789473684
 40
0.0526315789473684
 40
0.1052631578947368
 40
0.1052631578947368
 40
0.1052631578947368
 40
0.1052631578947368
 40
0.1578947368421053
 40
0.1578947368421053
 40
0.1578947368421053
 40
0.1578947368421053
 40
0.2105263157894737
 40
0.2105263157894737
 40
0.2105263157894737
 40
0.2105263157894737
 40
0.2631578947368421
 40
0.2631578947368421
 40
0.2631578947368421
 40
0.2631578947368421
 40
0.3157894736842105
 40
0.3157894736842105
 40
0.3157894736842105
 40
0.3157894736842105
 40
0.3684210526315789
 40
0.3684210526315789
 40
0.3684210526315789
 40
0.3684210526315789
 40
0.4210526315789474
 40
0.4210526315789474
 40
0.4210526315789474
 40
0.4210526315789474
 40
0.4736842105263158
 40
0.4736842105263158
 40
0.4736842105263158
 40
0.4736842105263158
 40
0.5263157894736842
 40
0.5263157894736842
 40
0.5263157894736842
 40
0.5263157894736842
 40
0.5789473684210527
 40
0.5789473684210527
 40
0.5789473684210527
 40
0.5789473684210527
 40
0.631578947368421
 40
0.631578947368421
 40
0.631578947368421
 40
0.631578947368421
 40
0.6842105263157894
 40
0.6842105263157894
 40
0.6842105263157894
 40
0.6842105263157894
 40
0.7368421052631577
 40
0.7368421052631577
 40
0.7368421052631577
 40
0.7368421052631577
 40
0.7894736842105261
 40
0.7894736842105261
 40
0.7894736842105261
 40
0.7894736842105261
 40
0.8421052631578945
 40
0.8421052631578945
 40
0.8421052631578945
 40
0.8421052631578945
 40
0.8947368421052628
 40
0.8947368421052628
 40
0.8947368421052628
 40
0.8947368421052628
 40
0.9473684210526312
 40
0.9473684210526312
 40
0.9473684210526312
 40
0.9473684210526312
 40
1.0
 40
1.0
 40
1.0
 40
1.0
 10
0.4795393700787402
 20
1.83853937007874
 30
0.0
 10
0.4795393700787402
 20
1.83853937007874
 30
0.0
 10
0.4849291338582678
 20
1.83853937007874
 30
0.0
 10
0.4849291338582678
 20
1.83853937007874
 30
0.0
 10
0.4849291338582678
 20
1.83853937007874
 30
0.0
 10
0.4849291338582678
 20
1.83853937007874
 30
0.0
 10
0.4859015748031496
 20
1.83440157480315
 30
0.0
 10
0.4859015748031496
 20
1.83440157480315
 30
0.0
 10
0.4859015748031496
 20
1.83440157480315
 30
0.0
 10
0.4859015748031496
 20
1.83440157480315
 30
0.0
 10
0.5570118110236221
 20
1.83440157480315
 30
0.0
 10
0.5570118110236221
 20
1.83440157480315
 30
0.0
 10
0.5570118110236221
 20
1.83440157480315
 30
0.0
 10
0.5570118110236221
 20
1.83440157480315
 30
0.0
 10
0.5570118110236221
 20
1.827484251968504
 30
0.0
 10
0.5570118110236221
 20
1.827484251968504
 30
0.0
 10
0.5570118110236221
 20
1.827484251968504
 30
0.0
 10
0.5485118110236221
 20
1.817649606299213
 30
0.0
 10
0.5407874015748032
 20
1.806484251968504
 30
0.0
 10
0.5338740157480315
 20
1.79390157480315
 30
0.0
 10
0.5338740157480315
 20
1.79390157480315
 30
0.0
 10
0.5269566929133859
 20
1.781346456692913
 30
0.0
 10
0.5215944881889764
 20
1.768566929133858
 30
0.0
 10
0.5177874015748032
 20
1.75553937007874
 30
0.0
 10
0.5177874015748032
 20
1.75553937007874
 30
0.0
 10
0.5150393700787401
 20
1.746153543307087
 30
0.0
 10
0.5127913385826772
 20
1.734594488188977
 30
0.0
 10
0.5110393700787402
 20
1.720874015748032
 30
0.0
 10
0.5110393700787402
 20
1.720874015748032
 30
0.0
 10
0.5110393700787402
 20
1.720874015748032
 30
0.0
 10
0.4943740157480315
 20
1.720874015748032
 30
0.0
 10
0.4943740157480315
 20
1.720874015748032
 30
0.0
 10
0.4943740157480315
 20
1.720874015748032
 30
0.0
 10
0.4959842519685039
 20
1.732984251968504
 30
0.0
 10
0.4986496062992126
 20
1.744291338582677
 30
0.0
 10
0.5023740157480315
 20
1.754818897637795
 30
0.0
 10
0.5023740157480315
 20
1.754818897637795
 30
0.0
 10
0.5060944881889764
 20
1.765346456692913
 30
0.0
 10
0.5114566929133858
 20
1.776346456692914
 30
0.0
 10
0.518484251968504
 20
1.787818897637795
 30
0.0
 10
0.518484251968504
 20
1.787818897637795
 30
0.0
 10
0.5255118110236221
 20
1.799291338582677
 30
0.0
 10
0.5340393700787401
 20
1.810736220472441
 30
0.0
 10
0.5440944881889764
 20
1.822177165354331
 30
0.0
 10
0.5440944881889764
 20
1.822177165354331
 30
0.0
 10
0.5440944881889764
 20
1.822177165354331
 30
0.0
 10
0.4933740157480315
 20
1.822177165354331
 30
0.0
 10
0.4933740157480315
 20
1.822177165354331
 30
0.0
 10
0.4933740157480315
 20
1.822177165354331
 30
0.0
 10
0.4897047244094488
 20
1.822177165354331
 30
0.0
 10
0.4871771653543308
 20
1.822011811023622
 30
0.0
 10
0.4858188976377953
 20
1.821622047244095
 30
0.0
 10
0.4858188976377953
 20
1.821622047244095
 30
0.0
 10
0.4844566929133858
 20
1.821236220472441
 30
0.0
 10
0.4834015748031496
 20
1.820649606299213
 30
0.0
 10
0.4826496062992126
 20
1.819846456692914
 30
0.0
 10
0.4826496062992126
 20
1.819846456692914
 30
0.0
 10
0.4818740157480315
 20
1.819011811023622
 30
0.0
 10
0.4812322834645669
 20
1.817566929133858
 30
0.0
 10
0.4806771653543308
 20
1.815511811023622
 30
0.0
 10
0.4806771653543308
 20
1.815511811023622
 30
0.0
 10
0.4806771653543308
 20
1.815511811023622
 30
0.0
 10
0.4802913385826772
 20
1.813984251968504
 30
0.0
 10
0.4802913385826772
 20
1.813984251968504
 30
0.0
 10
0.4802913385826772
 20
1.813984251968504
 30
0.0
 10
0.4802913385826772
 20
1.813984251968504
 30
0.0
 10
0.4775118110236221
 20
1.804374015748032
 30
0.0
 10
0.4775118110236221
 20
1.804374015748032
 30
0.0
 10
0.4775118110236221
 20
1.804374015748032
 30
0.0
 10
0.4775118110236221
 20
1.804374015748032
 30
0.0
 10
0.4705944881889764
 20
1.805846456692914
 30
0.0
 10
0.4705944881889764
 20
1.805846456692914
 30
0.0
 10
0.4705944881889764
 20
1.805846456692914
 30
0.0
 10
0.4705944881889764
 20
1.805846456692914
 30
0.0
 10
0.4795393700787402
 20
1.83853937007874
 30
0.0
 10
0.4795393700787402
 20
1.83853937007874
 30
0.0
  0
SPLINE
  5
72
330
1F
100
AcDbEntity
  8
LAYER_1
 62
   250
100
AcDbSpline
210
0.0
220
0.0
230
1.0
 70
    11
 71
     3
 72
    76
 73
    72
 74
     0
 42
0.0000000001
 43
0.0000000001
 40
0.0
 40
0.0
 40
0.0
 40
0.0
 40
0.0555555555555556
 40
0.0555555555555556
 40
0.0555555555555556
 40
0.0555555555555556
 40
0.1111111111111111
 40
0.1111111111111111
 40
0.1111111111111111
 40
0.1111111111111111
 40
0.1666666666666667
 40
0.1666666666666667
 40
0.1666666666666667
 40
0.1666666666666667
 40
0.2222222222222222
 40
0.2222222222222222
 40
0.2222222222222222
 40
0.2222222222222222
 40
0.2777777777777778
 40
0.2777777777777778
 40
0.2777777777777778
 40
0.2777777777777778
 40
0.3333333333333334
 40
0.3333333333333334
 40
0.3333333333333334
 40
0.3333333333333334
 40
0.388888888888889
 40
0.388888888888889
 40
0.388888888888889
 40
0.388888888888889
 40
0.4444444444444445
 40
0.4444444444444445
 40
0.4444444444444445
 40
0.4444444444444445
 40
0.5000000000000001
 40
0.5000000000000001
 40
0.5000000000000001
 40
0.5000000000000001
 40
0.5555555555555557
 40
0.5555555555555557
 40
0.5555555555555557
 40
0.5555555555555557
 40
0.6111111111111113
 40
0.6111111111111113
 40
0.6111111111111113
 40
0.6111111111111113
 40
0.6666666666666669
 40
0.6666666666666669
 40
0.6666666666666669
 40
0.6666666666666669
 40
0.7222222222222224
 40
0.7222222222222224
 40
0.7222222222222224
 40
0.7222222222222224
 40
0.777777777777778
 40
0.777777777777778
 40
0.777777777777778
 40
0.777777777777778
 40
0.8333333333333336
 40
0.8333333333333336
 40
0.8333333333333336
 40
0.8333333333333336
 40
0.8888888888888892
 40
0.8888888888888892
 40
0.8888888888888892
 40
0.8888888888888892
 40
0.9444444444444448
 40
0.9444444444444448
 40
0.9444444444444448
 40
0.9444444444444448
 40
1.0
 40
1.0
 40
1.0
 40
1.0
 10
0.6292913385826772
 20
1.783874015748032
 30
0.0
 10
0.6357086614173229
 20
1.781429133858268
 30
0.0
 10
0.6405944881889764
 20
1.779122047244095
 30
0.0
 10
0.6439566929133859
 20
1.776956692913386
 30
0.0
 10
0.6439566929133859
 20
1.776956692913386
 30
0.0
 10
0.6488740157480315
 20
1.773791338582677
 30
0.0
 10
0.6525944881889764
 20
1.770094488188976
 30
0.0
 10
0.6550944881889764
 20
1.765846456692914
 30
0.0
 10
0.6550944881889764
 20
1.765846456692914
 30
0.0
 10
0.6575944881889764
 20
1.761566929133858
 30
0.0
 10
0.6588464566929134
 20
1.756956692913386
 30
0.0
 10
0.6588464566929134
 20
1.751956692913386
 30
0.0
 10
0.6588464566929134
 20
1.751956692913386
 30
0.0
 10
0.6588464566929134
 20
1.743011811023622
 30
0.0
 10
0.654984251968504
 20
1.735263779527559
 30
0.0
 10
0.6472913385826772
 20
1.728736220472441
 30
0.0
 10
0.6472913385826772
 20
1.728736220472441
 30
0.0
 10
0.6395669291338583
 20
1.722181102362205
 30
0.0
 10
0.6291811023622047
 20
1.718929133858268
 30
0.0
 10
0.6161220472440945
 20
1.718929133858268
 30
0.0
 10
0.6161220472440945
 20
1.718929133858268
 30
0.0
 10
0.6022913385826771
 20
1.718929133858268
 30
0.0
 10
0.5914291338582678
 20
1.722622047244095
 30
0.0
 10
0.5835669291338583
 20
1.729984251968504
 30
0.0
 10
0.5835669291338583
 20
1.729984251968504
 30
0.0
 10
0.5773188976377953
 20
1.73590157480315
 30
0.0
 10
0.5742086614173229
 20
1.742594488188977
 30
0.0
 10
0.5742086614173229
 20
1.750094488188976
 30
0.0
 10
0.5742086614173229
 20
1.750094488188976
 30
0.0
 10
0.5742086614173229
 20
1.756122047244095
 30
0.0
 10
0.5763188976377953
 20
1.761511811023622
 30
0.0
 10
0.5805393700787401
 20
1.766291338582677
 30
0.0
 10
0.5805393700787401
 20
1.766291338582677
 30
0.0
 10
0.5856535433070866
 20
1.771984251968504
 30
0.0
 10
0.5929291338582677
 20
1.776429133858268
 30
0.0
 10
0.6023740157480315
 20
1.779622047244095
 30
0.0
 10
0.6023740157480315
 20
1.779622047244095
 30
0.0
 10
0.5949842519685039
 20
1.783094488188977
 30
0.0
 10
0.5896811023622047
 20
1.786622047244095
 30
0.0
 10
0.5864015748031496
 20
1.790208661417323
 30
0.0
 10
0.5864015748031496
 20
1.790208661417323
 30
0.0
 10
0.582236220472441
 20
1.794929133858268
 30
0.0
 10
0.5801535433070867
 20
1.800594488188976
 30
0.0
 10
0.5801535433070867
 20
1.807204724409449
 30
0.0
 10
0.5801535433070867
 20
1.807204724409449
 30
0.0
 10
0.5801535433070867
 20
1.81540157480315
 30
0.0
 10
0.583236220472441
 20
1.82203937007874
 30
0.0
 10
0.5894291338582678
 20
1.827066929133858
 30
0.0
 10
0.5894291338582678
 20
1.827066929133858
 30
0.0
 10
0.5970118110236221
 20
1.833263779527559
 30
0.0
 10
0.6065118110236221
 20
1.836346456692914
 30
0.0
 10
0.6179015748031497
 20
1.836346456692914
 30
0.0
 10
0.6179015748031497
 20
1.836346456692914
 30
0.0
 10
0.6283188976377953
 20
1.836346456692914
 30
0.0
 10
0.6367362204724409
 20
1.833677165354331
 30
0.0
 10
0.6431811023622047
 20
1.828346456692914
 30
0.0
 10
0.6431811023622047
 20
1.828346456692914
 30
0.0
 10
0.6495944881889764
 20
1.822984251968504
 30
0.0
 10
0.6528188976377953
 20
1.816874015748032
 30
0.0
 10
0.6528188976377953
 20
1.809984251968504
 30
0.0
 10
0.6528188976377953
 20
1.809984251968504
 30
0.0
 10
0.6528188976377953
 20
1.806566929133858
 30
0.0
 10
0.6520118110236221
 20
1.803291338582677
 30
0.0
 10
0.6504291338582677
 20
1.800177165354331
 30
0.0
 10
0.6504291338582677
 20
1.800177165354331
 30
0.0
 10
0.6488188976377953
 20
1.797066929133858
 30
0.0
 10
0.6463740157480316
 20
1.794149606299213
 30
0.0
 10
0.6430393700787402
 20
1.791484251968504
 30
0.0
 10
0.6430393700787402
 20
1.791484251968504
 30
0.0
 10
0.6397362204724409
 20
1.788791338582677
 30
0.0
 10
0.6351496062992126
 20
1.786263779527559
 30
0.0
 10
0.6292913385826772
 20
1.783874015748032
 30
0.0
  0
SPLINE
  5
73
330
1F
100
AcDbEntity
  8
LAYER_1
 62
   250
100
AcDbSpline
210
0.0
220
0.0
230
1.0
 70
    11
 71
     3
 72
    48
 73
    44
 74
     0
 42
0.0000000001
 43
0.0000000001
 40
0.0
 40
0.0
 40
0.0
 40
0.0
 40
0.0909090909090909
 40
0.0909090909090909
 40
0.0909090909090909
 40
0.0909090909090909
 40
0.1818181818181818
 40
0.1818181818181818
 40
0.1818181818181818
 40
0.1818181818181818
 40
0.2727272727272727
 40
0.2727272727272727
 40
0.2727272727272727
 40
0.2727272727272727
 40
0.3636363636363637
 40
0.3636363636363637
 40
0.3636363636363637
 40
0.3636363636363637
 40
0.4545454545454546
 40
0.4545454545454546
 40
0.4545454545454546
 40
0.4545454545454546
 40
0.5454545454545455
 40
0.5454545454545455
 40
0.5454545454545455
 40
0.5454545454545455
 40
0.6363636363636365
 40
0.6363636363636365
 40
0.6363636363636365
 40
0.6363636363636365
 40
0.7272727272727274
 40
0.7272727272727274
 40
0.7272727272727274
 40
0.7272727272727274
 40
0.8181818181818183
 40
0.8181818181818183
 40
0.8181818181818183
 40
0.8181818181818183
 40
0.9090909090909093
 40
0.9090909090909093
 40
0.9090909090909093
 40
0.9090909090909093
 40
1.0
 40
1.0
 40
1.0
 40
1.0
 10
0.6219015748031497
 20
1.786874015748032
 30
0.0
 10
0.6280669291338583
 20
1.79153937007874
 30
0.0
 10
0.6320944881889764
 20
1.794791338582677
 30
0.0
 10
0.6339291338582678
 20
1.796649606299213
 30
0.0
 10
0.6339291338582678
 20
1.796649606299213
 30
0.0
 10
0.6357913385826772
 20
1.798484251968504
 30
0.0
 10
0.6372086614173229
 20
1.800594488188976
 30
0.0
 10
0.6382086614173229
 20
1.802956692913386
 30
0.0
 10
0.6382086614173229
 20
1.802956692913386
 30
0.0
 10
0.6392086614173229
 20
1.805318897637795
 30
0.0
 10
0.6397086614173229
 20
1.807594488188977
 30
0.0
 10
0.6397086614173229
 20
1.809818897637795
 30
0.0
 10
0.6397086614173229
 20
1.809818897637795
 30
0.0
 10
0.6397086614173229
 20
1.813011811023622
 30
0.0
 10
0.638763779527559
 20
1.816066929133858
 30
0.0
 10
0.6368740157480315
 20
1.818984251968504
 30
0.0
 10
0.6368740157480315
 20
1.818984251968504
 30
0.0
 10
0.6349566929133859
 20
1.821874015748032
 30
0.0
 10
0.6321811023622047
 20
1.824236220472441
 30
0.0
 10
0.6285118110236221
 20
1.826011811023622
 30
0.0
 10
0.6285118110236221
 20
1.826011811023622
 30
0.0
 10
0.6248740157480315
 20
1.827818897637795
 30
0.0
 10
0.6207637795275591
 20
1.828704724409449
 30
0.0
 10
0.6162086614173229
 20
1.828704724409449
 30
0.0
 10
0.6162086614173229
 20
1.828704724409449
 30
0.0
 10
0.6094566929133859
 20
1.828704724409449
 30
0.0
 10
0.6038740157480316
 20
1.826846456692914
 30
0.0
 10
0.5994291338582678
 20
1.823122047244095
 30
0.0
 10
0.5994291338582678
 20
1.823122047244095
 30
0.0
 10
0.5949842519685039
 20
1.81940157480315
 30
0.0
 10
0.5927637795275591
 20
1.815122047244095
 30
0.0
 10
0.5927637795275591
 20
1.810236220472441
 30
0.0
 10
0.5927637795275591
 20
1.810236220472441
 30
0.0
 10
0.5927637795275591
 20
1.806318897637795
 30
0.0
 10
0.5941535433070866
 20
1.802818897637795
 30
0.0
 10
0.5969015748031497
 20
1.799736220472441
 30
0.0
 10
0.5969015748031497
 20
1.799736220472441
 30
0.0
 10
0.5996811023622047
 20
1.796649606299213
 30
0.0
 10
0.6048188976377953
 20
1.793594488188977
 30
0.0
 10
0.6123740157480315
 20
1.790622047244095
 30
0.0
 10
0.6123740157480315
 20
1.790622047244095
 30
0.0
 10
0.6123740157480315
 20
1.790622047244095
 30
0.0
 10
0.6219015748031497
 20
1.786874015748032
 30
0.0
 10
0.6219015748031497
 20
1.786874015748032
 30
0.0
  0
SPLINE
  5
74
330
1F
100
AcDbEntity
  8
LAYER_1
 62
   250
100
AcDbSpline
210
0.0
220
0.0
230
1.0
 70
    11
 71
     3
 72
    40
 73
    36
 74
     0
 42
0.0000000001
 43
0.0000000001
 40
0.0
 40
0.0
 40
0.0
 40
0.0
 40
0.1111111111111111
 40
0.1111111111111111
 40
0.1111111111111111
 40
0.1111111111111111
 40
0.2222222222222222
 40
0.2222222222222222
 40
0.2222222222222222
 40
0.2222222222222222
 40
0.3333333333333333
 40
0.3333333333333333
 40
0.3333333333333333
 40
0.3333333333333333
 40
0.4444444444444444
 40
0.4444444444444444
 40
0.4444444444444444
 40
0.4444444444444444
 40
0.5555555555555556
 40
0.5555555555555556
 40
0.5555555555555556
 40
0.5555555555555556
 40
0.6666666666666667
 40
0.6666666666666667
 40
0.6666666666666667
 40
0.6666666666666667
 40
0.7777777777777779
 40
0.7777777777777779
 40
0.7777777777777779
 40
0.7777777777777779
 40
0.8888888888888891
 40
0.8888888888888891
 40
0.8888888888888891
 40
0.8888888888888891
 40
1.0
 40
1.0
 40
1.0
 40
1.0
 10
0.6104291338582677
 20
1.776456692913386
 30
0.0
 10
0.6027637795275591
 20
1.773094488188977
 30
0.0
 10
0.5967086614173228
 20
1.768736220472441
 30
0.0
 10
0.592263779527559
 20
1.763346456692913
 30
0.0
 10
0.592263779527559
 20
1.763346456692913
 30
0.0
 10
0.5887913385826772
 20
1.759122047244095
 30
0.0
 10
0.5870669291338583
 20
1.754736220472441
 30
0.0
 10
0.5870669291338583
 20
1.750181102362205
 30
0.0
 10
0.5870669291338583
 20
1.750181102362205
 30
0.0
 10
0.5870669291338583
 20
1.743984251968504
 30
0.0
 10
0.5897913385826772
 20
1.738484251968504
 30
0.0
 10
0.5952913385826772
 20
1.733681102362205
 30
0.0
 10
0.5952913385826772
 20
1.733681102362205
 30
0.0
 10
0.6007637795275591
 20
1.72890157480315
 30
0.0
 10
0.6078464566929134
 20
1.726484251968504
 30
0.0
 10
0.6165118110236221
 20
1.726484251968504
 30
0.0
 10
0.6165118110236221
 20
1.726484251968504
 30
0.0
 10
0.6253740157480315
 20
1.726484251968504
 30
0.0
 10
0.6327362204724409
 20
1.729236220472441
 30
0.0
 10
0.6386496062992126
 20
1.734708661417323
 30
0.0
 10
0.6386496062992126
 20
1.734708661417323
 30
0.0
 10
0.643484251968504
 20
1.739153543307087
 30
0.0
 10
0.6459015748031496
 20
1.743929133858268
 30
0.0
 10
0.6459015748031496
 20
1.74903937007874
 30
0.0
 10
0.6459015748031496
 20
1.74903937007874
 30
0.0
 10
0.6459015748031496
 20
1.75303937007874
 30
0.0
 10
0.6443188976377953
 20
1.756874015748032
 30
0.0
 10
0.6411496062992126
 20
1.76053937007874
 30
0.0
 10
0.6411496062992126
 20
1.76053937007874
 30
0.0
 10
0.6379566929133859
 20
1.764208661417323
 30
0.0
 10
0.6320669291338583
 20
1.767763779527559
 30
0.0
 10
0.6234291338582677
 20
1.771236220472441
 30
0.0
 10
0.6234291338582677
 20
1.771236220472441
 30
0.0
 10
0.6234291338582677
 20
1.771236220472441
 30
0.0
 10
0.6104291338582677
 20
1.776456692913386
 30
0.0
 10
0.6104291338582677
 20
1.776456692913386
 30
0.0
  0
SPLINE
  5
75
330
1F
100
AcDbEntity
  8
LAYER_1
 62
   250
100
AcDbSpline
210
0.0
220
0.0
230
1.0
 70
    11
 71
     3
 72
   132
 73
   128
 74
     0
 42
0.0000000001
 43
0.0000000001
 40
0.0
 40
0.0
 40
0.0
 40
0.0
 40
0.03125
 40
0.03125
 40
0.03125
 40
0.03125
 40
0.0625
 40
0.0625
 40
0.0625
 40
0.0625
 40
0.09375
 40
0.09375
 40
0.09375
 40
0.09375
 40
0.125
 40
0.125
 40
0.125
 40
0.125
 40
0.15625
 40
0.15625
 40
0.15625
 40
0.15625
 40
0.1875
 40
0.1875
 40
0.1875
 40
0.1875
 40
0.21875
 40
0.21875
 40
0.21875
 40
0.21875
 40
0.25
 40
0.25
 40
0.25
 40
0.25
 40
0.28125
 40
0.28125
 40
0.28125
 40
0.28125
 40
0.3125
 40
0.3125
 40
0.3125
 40
0.3125
 40
0.34375
 40
0.34375
 40
0.34375
 40
0.34375
 40
0.375
 40
0.375
 40
0.375
 40
0.375
 40
0.40625
 40
0.40625
 40
0.40625
 40
0.40625
 40
0.4375
 40
0.4375
 40
0.4375
 40
0.4375
 40
0.46875
 40
0.46875
 40
0.46875
 40
0.46875
 40
0.5
 40
0.5
 40
0.5
 40
0.5
 40
0.53125
 40
0.53125
 40
0.53125
 40
0.53125
 40
0.5625
 40
0.5625
 40
0.5625
 40
0.5625
 40
0.59375
 40
0.59375
 40
0.59375
 40
0.59375
 40
0.625
 40
0.625
 40
0.625
 40
0.625
 40
0.65625
 40
0.65625
 40
0.65625
 40
0.65625
 40
0.6875
 40
0.6875
 40
0.6875
 40
0.6875
 40
0.71875
 40
0.71875
 40
0.71875
 40
0.71875
 40
0.75
 40
0.75
 40
0.75
 40
0.75
 40
0.78125
 40
0.78125
 40
0.78125
 40
0.78125
 40
0.8125
 40
0.8125
 40
0.8125
 40
0.8125
 40
0.84375
 40
0.84375
 40
0.84375
 40
0.84375
 40
0.875
 40
0.875
 40
0.875
 40
0.875
 40
0.90625
 40
0.90625
 40
0.90625
 40
0.90625
 40
0.9375
 40
0.9375
 40
0.9375
 40
0.9375
 40
0.96875
 40
0.96875
 40
0.96875
 40
0.96875
 40
1.0
 40
1.0
 40
1.0
 40
1.0
 10
0.6905984251968504
 20
1.83440157480315
 30
0.0
 10
0.6905984251968504
 20
1.83440157480315
 30
0.0
 10
0.7412086614173229
 20
1.83440157480315
 30
0.0
 10
0.7412086614173229
 20
1.83440157480315
 30
0.0
 10
0.7412086614173229
 20
1.83440157480315
 30
0.0
 10
0.7442913385826772
 20
1.83440157480315
 30
0.0
 10
0.7461811023622048
 20
1.834566929133858
 30
0.0
 10
0.7468188976377953
 20
1.83490157480315
 30
0.0
 10
0.7468188976377953
 20
1.83490157480315
 30
0.0
 10
0.7477362204724409
 20
1.835429133858268
 30
0.0
 10
0.7482913385826772
 20
1.836594488188976
 30
0.0
 10
0.7484566929133859
 20
1.838374015748032
 30
0.0
 10
0.7484566929133859
 20
1.838374015748032
 30
0.0
 10
0.7484566929133859
 20
1.838374015748032
 30
0.0
 10
0.7544015748031496
 20
1.838374015748032
 30
0.0
 10
0.7544015748031496
 20
1.838374015748032
 30
0.0
 10
0.7544015748031496
 20
1.838374015748032
 30
0.0
 10
0.7544015748031496
 20
1.838374015748032
 30
0.0
 10
0.7544015748031496
 20
1.821204724409449
 30
0.0
 10
0.7544015748031496
 20
1.821204724409449
 30
0.0
 10
0.7544015748031496
 20
1.821204724409449
 30
0.0
 10
0.7544015748031496
 20
1.821204724409449
 30
0.0
 10
0.6981535433070867
 20
1.821204724409449
 30
0.0
 10
0.6981535433070867
 20
1.821204724409449
 30
0.0
 10
0.6981535433070867
 20
1.821204724409449
 30
0.0
 10
0.6981535433070867
 20
1.821204724409449
 30
0.0
 10
0.6967637795275591
 20
1.792566929133858
 30
0.0
 10
0.6967637795275591
 20
1.792566929133858
 30
0.0
 10
0.6967637795275591
 20
1.792566929133858
 30
0.0
 10
0.6990984251968504
 20
1.793236220472441
 30
0.0
 10
0.7020708661417323
 20
1.793763779527559
 30
0.0
 10
0.7056535433070866
 20
1.794208661417323
 30
0.0
 10
0.7056535433070866
 20
1.794208661417323
 30
0.0
 10
0.710263779527559
 20
1.794736220472441
 30
0.0
 10
0.7143740157480315
 20
1.795011811023622
 30
0.0
 10
0.718015748031496
 20
1.795011811023622
 30
0.0
 10
0.718015748031496
 20
1.795011811023622
 30
0.0
 10
0.7270708661417323
 20
1.795011811023622
 30
0.0
 10
0.7349566929133858
 20
1.793374015748032
 30
0.0
 10
0.7417086614173228
 20
1.790122047244095
 30
0.0
 10
0.7417086614173228
 20
1.790122047244095
 30
0.0
 10
0.7484291338582677
 20
1.786874015748032
 30
0.0
 10
0.7535393700787402
 20
1.78240157480315
 30
0.0
 10
0.7570393700787402
 20
1.776736220472441
 30
0.0
 10
0.7570393700787402
 20
1.776736220472441
 30
0.0
 10
0.7605393700787402
 20
1.771066929133858
 30
0.0
 10
0.7622913385826772
 20
1.764736220472441
 30
0.0
 10
0.7622913385826772
 20
1.757736220472441
 30
0.0
 10
0.7622913385826772
 20
1.757736220472441
 30
0.0
 10
0.7622913385826772
 20
1.74690157480315
 30
0.0
 10
0.7582086614173229
 20
1.737708661417323
 30
0.0
 10
0.7500708661417324
 20
1.730181102362205
 30
0.0
 10
0.7500708661417324
 20
1.730181102362205
 30
0.0
 10
0.7419291338582678
 20
1.722681102362205
 30
0.0
 10
0.7315708661417323
 20
1.718929133858268
 30
0.0
 10
0.718984251968504
 20
1.718929133858268
 30
0.0
 10
0.718984251968504
 20
1.718929133858268
 30
0.0
 10
0.7117086614173228
 20
1.718929133858268
 30
0.0
 10
0.7051535433070867
 20
1.720236220472441
 30
0.0
 10
0.699263779527559
 20
1.722818897637795
 30
0.0
 10
0.699263779527559
 20
1.722818897637795
 30
0.0
 10
0.6933740157480315
 20
1.725429133858268
 30
0.0
 10
0.6887637795275591
 20
1.728874015748032
 30
0.0
 10
0.6854566929133859
 20
1.733122047244095
 30
0.0
 10
0.6854566929133859
 20
1.733122047244095
 30
0.0
 10
0.6821535433070867
 20
1.737374015748032
 30
0.0
 10
0.680488188976378
 20
1.741122047244095
 30
0.0
 10
0.680488188976378
 20
1.744318897637795
 30
0.0
 10
0.680488188976378
 20
1.744318897637795
 30
0.0
 10
0.680488188976378
 20
1.746429133858268
 30
0.0
 10
0.6812086614173228
 20
1.748263779527559
 30
0.0
 10
0.6826259842519685
 20
1.749818897637795
 30
0.0
 10
0.6826259842519685
 20
1.749818897637795
 30
0.0
 10
0.6840157480314961
 20
1.751346456692914
 30
0.0
 10
0.6858464566929134
 20
1.752122047244095
 30
0.0
 10
0.6880708661417323
 20
1.752122047244095
 30
0.0
 10
0.6880708661417323
 20
1.752122047244095
 30
0.0
 10
0.6903464566929134
 20
1.752122047244095
 30
0.0
 10
0.6923464566929134
 20
1.751181102362205
 30
0.0
 10
0.6940984251968504
 20
1.749263779527559
 30
0.0
 10
0.6940984251968504
 20
1.749263779527559
 30
0.0
 10
0.6950708661417323
 20
1.748291338582677
 30
0.0
 10
0.6962362204724409
 20
1.74590157480315
 30
0.0
 10
0.6975984251968505
 20
1.742122047244095
 30
0.0
 10
0.6975984251968505
 20
1.742122047244095
 30
0.0
 10
0.6994291338582678
 20
1.736791338582677
 30
0.0
 10
0.7021811023622048
 20
1.73290157480315
 30
0.0
 10
0.7058188976377953
 20
1.73040157480315
 30
0.0
 10
0.7058188976377953
 20
1.73040157480315
 30
0.0
 10
0.7093740157480315
 20
1.727846456692914
 30
0.0
 10
0.7139015748031496
 20
1.726566929133858
 30
0.0
 10
0.7193188976377953
 20
1.726566929133858
 30
0.0
 10
0.7193188976377953
 20
1.726566929133858
 30
0.0
 10
0.724736220472441
 20
1.726566929133858
 30
0.0
 10
0.7295708661417323
 20
1.727763779527559
 30
0.0
 10
0.7337913385826772
 20
1.730122047244095
 30
0.0
 10
0.7337913385826772
 20
1.730122047244095
 30
0.0
 10
0.7380433070866143
 20
1.732456692913386
 30
0.0
 10
0.7413740157480315
 20
1.735874015748032
 30
0.0
 10
0.7438188976377953
 20
1.740291338582677
 30
0.0
 10
0.7438188976377953
 20
1.740291338582677
 30
0.0
 10
0.7462637795275591
 20
1.744708661417323
 30
0.0
 10
0.747484251968504
 20
1.749622047244095
 30
0.0
 10
0.747484251968504
 20
1.75503937007874
 30
0.0
 10
0.747484251968504
 20
1.75503937007874
 30
0.0
 10
0.747484251968504
 20
1.760763779527559
 30
0.0
 10
0.7461535433070866
 20
1.765818897637795
 30
0.0
 10
0.7435118110236221
 20
1.770263779527559
 30
0.0
 10
0.7435118110236221
 20
1.770263779527559
 30
0.0
 10
0.7409015748031497
 20
1.774708661417323
 30
0.0
 10
0.7371259842519685
 20
1.778177165354331
 30
0.0
 10
0.7322086614173229
 20
1.780594488188976
 30
0.0
 10
0.7322086614173229
 20
1.780594488188976
 30
0.0
 10
0.7272913385826771
 20
1.78303937007874
 30
0.0
 10
0.7213188976377953
 20
1.784263779527559
 30
0.0
 10
0.714263779527559
 20
1.784263779527559
 30
0.0
 10
0.714263779527559
 20
1.784263779527559
 30
0.0
 10
0.709984251968504
 20
1.784263779527559
 30
0.0
 10
0.7053740157480315
 20
1.783818897637795
 30
0.0
 10
0.700484251968504
 20
1.782874015748032
 30
0.0
 10
0.700484251968504
 20
1.782874015748032
 30
0.0
 10
0.6955708661417324
 20
1.781956692913386
 30
0.0
 10
0.6913464566929134
 20
1.780791338582677
 30
0.0
 10
0.6878188976377954
 20
1.779374015748032
 30
0.0
 10
0.6878188976377954
 20
1.779374015748032
 30
0.0
 10
0.6878188976377954
 20
1.779374015748032
 30
0.0
 10
0.6905984251968504
 20
1.83440157480315
 30
0.0
 10
0.6905984251968504
 20
1.83440157480315
 30
0.0
  0
SPLINE
  5
76
330
1F
100
AcDbEntity
  8
LAYER_1
 62
   250
100
AcDbSpline
210
0.0
220
0.0
230
1.0
 70
    11
 71
     3
 72
   172
 73
   168
 74
     0
 42
0.0000000001
 43
0.0000000001
 40
0.0
 40
0.0
 40
0.0
 40
0.0
 40
0.0238095238095238
 40
0.0238095238095238
 40
0.0238095238095238
 40
0.0238095238095238
 40
0.0476190476190476
 40
0.0476190476190476
 40
0.0476190476190476
 40
0.0476190476190476
 40
0.0714285714285714
 40
0.0714285714285714
 40
0.0714285714285714
 40
0.0714285714285714
 40
0.0952380952380952
 40
0.0952380952380952
 40
0.0952380952380952
 40
0.0952380952380952
 40
0.119047619047619
 40
0.119047619047619
 40
0.119047619047619
 40
0.119047619047619
 40
0.1428571428571429
 40
0.1428571428571429
 40
0.1428571428571429
 40
0.1428571428571429
 40
0.1666666666666667
 40
0.1666666666666667
 40
0.1666666666666667
 40
0.1666666666666667
 40
0.1904761904761905
 40
0.1904761904761905
 40
0.1904761904761905
 40
0.1904761904761905
 40
0.2142857142857143
 40
0.2142857142857143
 40
0.2142857142857143
 40
0.2142857142857143
 40
0.2380952380952381
 40
0.2380952380952381
 40
0.2380952380952381
 40
0.2380952380952381
 40
0.2619047619047619
 40
0.2619047619047619
 40
0.2619047619047619
 40
0.2619047619047619
 40
0.2857142857142857
 40
0.2857142857142857
 40
0.2857142857142857
 40
0.2857142857142857
 40
0.3095238095238095
 40
0.3095238095238095
 40
0.3095238095238095
 40
0.3095238095238095
 40
0.3333333333333334
 40
0.3333333333333334
 40
0.3333333333333334
 40
0.3333333333333334
 40
0.3571428571428572
 40
0.3571428571428572
 40
0.3571428571428572
 40
0.3571428571428572
 40
0.380952380952381
 40
0.380952380952381
 40
0.380952380952381
 40
0.380952380952381
 40
0.4047619047619049
 40
0.4047619047619049
 40
0.4047619047619049
 40
0.4047619047619049
 40
0.4285714285714287
 40
0.4285714285714287
 40
0.4285714285714287
 40
0.4285714285714287
 40
0.4523809523809526
 40
0.4523809523809526
 40
0.4523809523809526
 40
0.4523809523809526
 40
0.4761904761904764
 40
0.4761904761904764
 40
0.4761904761904764
 40
0.4761904761904764
 40
0.5000000000000002
 40
0.5000000000000002
 40
0.5000000000000002
 40
0.5000000000000002
 40
0.5238095238095241
 40
0.5238095238095241
 40
0.5238095238095241
 40
0.5238095238095241
 40
0.5476190476190479
 40
0.5476190476190479
 40
0.5476190476190479
 40
0.5476190476190479
 40
0.5714285714285717
 40
0.5714285714285717
 40
0.5714285714285717
 40
0.5714285714285717
 40
0.5952380952380956
 40
0.5952380952380956
 40
0.5952380952380956
 40
0.5952380952380956
 40
0.6190476190476194
 40
0.6190476190476194
 40
0.6190476190476194
 40
0.6190476190476194
 40
0.6428571428571432
 40
0.6428571428571432
 40
0.6428571428571432
 40
0.6428571428571432
 40
0.6666666666666671
 40
0.6666666666666671
 40
0.6666666666666671
 40
0.6666666666666671
 40
0.6904761904761909
 40
0.6904761904761909
 40
0.6904761904761909
 40
0.6904761904761909
 40
0.7142857142857148
 40
0.7142857142857148
 40
0.7142857142857148
 40
0.7142857142857148
 40
0.7380952380952386
 40
0.7380952380952386
 40
0.7380952380952386
 40
0.7380952380952386
 40
0.7619047619047624
 40
0.7619047619047624
 40
0.7619047619047624
 40
0.7619047619047624
 40
0.7857142857142863
 40
0.7857142857142863
 40
0.7857142857142863
 40
0.7857142857142863
 40
0.8095238095238101
 40
0.8095238095238101
 40
0.8095238095238101
 40
0.8095238095238101
 40
0.8333333333333339
 40
0.8333333333333339
 40
0.8333333333333339
 40
0.8333333333333339
 40
0.8571428571428578
 40
0.8571428571428578
 40
0.8571428571428578
 40
0.8571428571428578
 40
0.8809523809523816
 40
0.8809523809523816
 40
0.8809523809523816
 40
0.8809523809523816
 40
0.9047619047619054
 40
0.9047619047619054
 40
0.9047619047619054
 40
0.9047619047619054
 40
0.9285714285714293
 40
0.9285714285714293
 40
0.9285714285714293
 40
0.9285714285714293
 40
0.9523809523809531
 40
0.9523809523809531
 40
0.9523809523809531
 40
0.9523809523809531
 40
0.9761904761904769
 40
0.9761904761904769
 40
0.9761904761904769
 40
0.9761904761904769
 40
1.0
 40
1.0
 40
1.0
 40
1.0
 10
0.2285826771653544
 20
1.61653937007874
 30
0.0
 10
0.2285826771653544
 20
1.61653937007874
 30
0.0
 10
0.2207755905511811
 20
1.617763779527559
 30
0.0
 10
0.2207755905511811
 20
1.617763779527559
 30
0.0
 10
0.2207755905511811
 20
1.617763779527559
 30
0.0
 10
0.2214724409448819
 20
1.623622047244095
 30
0.0
 10
0.223
 20
1.628484251968504
 30
0.0
 10
0.2253346456692913
 20
1.632346456692913
 30
0.0
 10
0.2253346456692913
 20
1.632346456692913
 30
0.0
 10
0.2284173228346457
 20
1.63753937007874
 30
0.0
 10
0.2327755905511811
 20
1.641594488188976
 30
0.0
 10
0.2384173228346457
 20
1.644484251968504
 30
0.0
 10
0.2384173228346457
 20
1.644484251968504
 30
0.0
 10
0.2440826771653543
 20
1.64740157480315
 30
0.0
 10
0.2505551181102362
 20
1.648846456692914
 30
0.0
 10
0.2578897637795276
 20
1.648846456692914
 30
0.0
 10
0.2578897637795276
 20
1.648846456692914
 30
0.0
 10
0.2650826771653543
 20
1.648846456692914
 30
0.0
 10
0.2714448818897638
 20
1.647566929133858
 30
0.0
 10
0.2769173228346457
 20
1.644984251968504
 30
0.0
 10
0.2769173228346457
 20
1.644984251968504
 30
0.0
 10
0.2823897637795276
 20
1.64240157480315
 30
0.0
 10
0.2865275590551181
 20
1.638984251968504
 30
0.0
 10
0.2893307086614174
 20
1.634736220472441
 30
0.0
 10
0.2893307086614174
 20
1.634736220472441
 30
0.0
 10
0.2921377952755906
 20
1.630484251968504
 30
0.0
 10
0.2935275590551181
 20
1.625874015748032
 30
0.0
 10
0.2935275590551181
 20
1.620929133858268
 30
0.0
 10
0.2935275590551181
 20
1.620929133858268
 30
0.0
 10
0.2935275590551181
 20
1.616594488188976
 30
0.0
 10
0.2924724409448819
 20
1.612708661417323
 30
0.0
 10
0.2903582677165355
 20
1.609291338582677
 30
0.0
 10
0.2903582677165355
 20
1.609291338582677
 30
0.0
 10
0.2882204724409449
 20
1.605874015748032
 30
0.0
 10
0.2850826771653544
 20
1.602818897637795
 30
0.0
 10
0.2809173228346457
 20
1.600094488188977
 30
0.0
 10
0.2809173228346457
 20
1.600094488188977
 30
0.0
 10
0.2779724409448819
 20
1.598208661417323
 30
0.0
 10
0.2741653543307087
 20
1.59653937007874
 30
0.0
 10
0.2694448818897638
 20
1.595149606299213
 30
0.0
 10
0.2694448818897638
 20
1.595149606299213
 30
0.0
 10
0.2744724409448819
 20
1.594429133858268
 30
0.0
 10
0.2786102362204724
 20
1.593263779527559
 30
0.0
 10
0.2818031496062992
 20
1.591649606299213
 30
0.0
 10
0.2818031496062992
 20
1.591649606299213
 30
0.0
 10
0.287
 20
1.588984251968504
 30
0.0
 10
0.2911102362204724
 20
1.585318897637795
 30
0.0
 10
0.2940826771653544
 20
1.580649606299213
 30
0.0
 10
0.2940826771653544
 20
1.580649606299213
 30
0.0
 10
0.2970826771653544
 20
1.575984251968504
 30
0.0
 10
0.2985551181102362
 20
1.570874015748032
 30
0.0
 10
0.2985551181102362
 20
1.565263779527559
 30
0.0
 10
0.2985551181102362
 20
1.565263779527559
 30
0.0
 10
0.2985551181102362
 20
1.556318897637795
 30
0.0
 10
0.2946377952755906
 20
1.548429133858268
 30
0.0
 10
0.2867755905511811
 20
1.541622047244095
 30
0.0
 10
0.2867755905511811
 20
1.541622047244095
 30
0.0
 10
0.2788897637795276
 20
1.534818897637795
 30
0.0
 10
0.2687204724409449
 20
1.531429133858268
 30
0.0
 10
0.256248031496063
 20
1.531429133858268
 30
0.0
 10
0.256248031496063
 20
1.531429133858268
 30
0.0
 10
0.2439448818897638
 20
1.531429133858268
 30
0.0
 10
0.2335826771653543
 20
1.534708661417323
 30
0.0
 10
0.2251653543307087
 20
1.541263779527559
 30
0.0
 10
0.2251653543307087
 20
1.541263779527559
 30
0.0
 10
0.2181102362204725
 20
1.546846456692913
 30
0.0
 10
0.2145826771653543
 20
1.552484251968504
 30
0.0
 10
0.2145826771653543
 20
1.558122047244095
 30
0.0
 10
0.2145826771653543
 20
1.558122047244095
 30
0.0
 10
0.2145826771653543
 20
1.560346456692914
 30
0.0
 10
0.2153070866141733
 20
1.562208661417323
 30
0.0
 10
0.216748031496063
 20
1.563681102362205
 30
0.0
 10
0.216748031496063
 20
1.563681102362205
 30
0.0
 10
0.2181653543307087
 20
1.565181102362205
 30
0.0
 10
0.2199724409448819
 20
1.565929133858268
 30
0.0
 10
0.2221653543307087
 20
1.565929133858268
 30
0.0
 10
0.2221653543307087
 20
1.565929133858268
 30
0.0
 10
0.2245275590551181
 20
1.565929133858268
 30
0.0
 10
0.2265826771653544
 20
1.565011811023622
 30
0.0
 10
0.228248031496063
 20
1.563149606299213
 30
0.0
 10
0.228248031496063
 20
1.563149606299213
 30
0.0
 10
0.2291653543307087
 20
1.562122047244095
 30
0.0
 10
0.230248031496063
 20
1.559653543307087
 30
0.0
 10
0.2314173228346457
 20
1.555763779527559
 30
0.0
 10
0.2314173228346457
 20
1.555763779527559
 30
0.0
 10
0.2331102362204724
 20
1.550263779527559
 30
0.0
 10
0.2359724409448819
 20
1.546094488188976
 30
0.0
 10
0.2399724409448819
 20
1.543236220472441
 30
0.0
 10
0.2399724409448819
 20
1.543236220472441
 30
0.0
 10
0.244
 20
1.540346456692914
 30
0.0
 10
0.2489724409448819
 20
1.53890157480315
 30
0.0
 10
0.2549448818897638
 20
1.53890157480315
 30
0.0
 10
0.2549448818897638
 20
1.53890157480315
 30
0.0
 10
0.2602755905511811
 20
1.53890157480315
 30
0.0
 10
0.2650275590551181
 20
1.540066929133858
 30
0.0
 10
0.2692204724409449
 20
1.54240157480315
 30
0.0
 10
0.2692204724409449
 20
1.54240157480315
 30
0.0
 10
0.2734448818897638
 20
1.544736220472441
 30
0.0
 10
0.276748031496063
 20
1.54803937007874
 30
0.0
 10
0.2791929133858268
 20
1.552346456692914
 30
0.0
 10
0.2791929133858268
 20
1.552346456692914
 30
0.0
 10
0.2816377952755906
 20
1.556622047244095
 30
0.0
 10
0.2828622047244095
 20
1.561318897637795
 30
0.0
 10
0.2828622047244095
 20
1.56640157480315
 30
0.0
 10
0.2828622047244095
 20
1.56640157480315
 30
0.0
 10
0.2828622047244095
 20
1.57053937007874
 30
0.0
 10
0.2819724409448819
 20
1.574236220472441
 30
0.0
 10
0.2802204724409449
 20
1.577511811023622
 30
0.0
 10
0.2802204724409449
 20
1.577511811023622
 30
0.0
 10
0.2784448818897638
 20
1.580818897637795
 30
0.0
 10
0.2759448818897638
 20
1.583594488188977
 30
0.0
 10
0.2726929133858268
 20
1.585874015748032
 30
0.0
 10
0.2726929133858268
 20
1.585874015748032
 30
0.0
 10
0.2701929133858268
 20
1.587649606299213
 30
0.0
 10
0.267
 20
1.58890157480315
 30
0.0
 10
0.2631377952755906
 20
1.589594488188977
 30
0.0
 10
0.2631377952755906
 20
1.589594488188977
 30
0.0
 10
0.259248031496063
 20
1.590318897637795
 30
0.0
 10
0.255748031496063
 20
1.590677165354331
 30
0.0
 10
0.2526653543307087
 20
1.590677165354331
 30
0.0
 10
0.2526653543307087
 20
1.590677165354331
 30
0.0
 10
0.2526653543307087
 20
1.590677165354331
 30
0.0
 10
0.2451102362204725
 20
1.590677165354331
 30
0.0
 10
0.2451102362204725
 20
1.590677165354331
 30
0.0
 10
0.2451102362204725
 20
1.590677165354331
 30
0.0
 10
0.2451102362204725
 20
1.590677165354331
 30
0.0
 10
0.2451102362204725
 20
1.598566929133858
 30
0.0
 10
0.2451102362204725
 20
1.598566929133858
 30
0.0
 10
0.2451102362204725
 20
1.598566929133858
 30
0.0
 10
0.2451102362204725
 20
1.598566929133858
 30
0.0
 10
0.2499173228346457
 20
1.598566929133858
 30
0.0
 10
0.2499173228346457
 20
1.598566929133858
 30
0.0
 10
0.2499173228346457
 20
1.598566929133858
 30
0.0
 10
0.2546653543307087
 20
1.598566929133858
 30
0.0
 10
0.2592204724409449
 20
1.599122047244095
 30
0.0
 10
0.2635826771653543
 20
1.600236220472441
 30
0.0
 10
0.2635826771653543
 20
1.600236220472441
 30
0.0
 10
0.2679173228346457
 20
1.601346456692913
 30
0.0
 10
0.2713897637795276
 20
1.603622047244095
 30
0.0
 10
0.274
 20
1.607094488188976
 30
0.0
 10
0.274
 20
1.607094488188976
 30
0.0
 10
0.2765826771653543
 20
1.610566929133858
 30
0.0
 10
0.2778897637795276
 20
1.614511811023622
 30
0.0
 10
0.2778897637795276
 20
1.61890157480315
 30
0.0
 10
0.2778897637795276
 20
1.61890157480315
 30
0.0
 10
0.2778897637795276
 20
1.622704724409449
 30
0.0
 10
0.277
 20
1.626122047244095
 30
0.0
 10
0.2751653543307087
 20
1.629149606299213
 30
0.0
 10
0.2751653543307087
 20
1.629149606299213
 30
0.0
 10
0.2733622047244095
 20
1.632204724409449
 30
0.0
 10
0.2706929133858268
 20
1.634622047244095
 30
0.0
 10
0.2671653543307087
 20
1.63640157480315
 30
0.0
 10
0.2671653543307087
 20
1.63640157480315
 30
0.0
 10
0.2636377952755906
 20
1.638177165354331
 30
0.0
 10
0.2595551181102362
 20
1.639094488188976
 30
0.0
 10
0.2549448818897638
 20
1.639094488188976
 30
0.0
 10
0.2549448818897638
 20
1.639094488188976
 30
0.0
 10
0.2504448818897638
 20
1.639094488188976
 30
0.0
 10
0.2463031496062992
 20
1.638149606299213
 30
0.0
 10
0.2425275590551181
 20
1.636318897637795
 30
0.0
 10
0.2425275590551181
 20
1.636318897637795
 30
0.0
 10
0.2387755905511811
 20
1.634484251968504
 30
0.0
 10
0.235748031496063
 20
1.632011811023622
 30
0.0
 10
0.2334724409448819
 20
1.62890157480315
 30
0.0
 10
0.2334724409448819
 20
1.62890157480315
 30
0.0
 10
0.2311929133858268
 20
1.625818897637795
 30
0.0
 10
0.2295551181102362
 20
1.621704724409449
 30
0.0
 10
0.2285826771653544
 20
1.61653937007874
 30
0.0
  0
SPLINE
  5
77
330
1F
100
AcDbEntity
  8
LAYER_1
 62
   250
100
AcDbSpline
210
0.0
220
0.0
230
1.0
 70
    11
 71
     3
 72
    20
 73
    16
 74
     0
 42
0.0000000001
 43
0.0000000001
 40
0.0
 40
0.0
 40
0.0
 40
0.0
 40
0.25
 40
0.25
 40
0.25
 40
0.25
 40
0.5
 40
0.5
 40
0.5
 40
0.5
 40
0.75
 40
0.75
 40
0.75
 40
0.75
 40
1.0
 40
1.0
 40
1.0
 40
1.0
 10
0.3913622047244095
 20
1.652763779527559
 30
0.0
 10
0.3913622047244095
 20
1.652763779527559
 30
0.0
 10
0.3357795275590552
 20
1.497066929133858
 30
0.0
 10
0.3357795275590552
 20
1.497066929133858
 30
0.0
 10
0.3357795275590552
 20
1.497066929133858
 30
0.0
 10
0.3357795275590552
 20
1.497066929133858
 30
0.0
 10
0.3237244094488189
 20
1.497066929133858
 30
0.0
 10
0.3237244094488189
 20
1.497066929133858
 30
0.0
 10
0.3237244094488189
 20
1.497066929133858
 30
0.0
 10
0.3237244094488189
 20
1.497066929133858
 30
0.0
 10
0.3789724409448819
 20
1.652763779527559
 30
0.0
 10
0.3789724409448819
 20
1.652763779527559
 30
0.0
 10
0.3789724409448819
 20
1.652763779527559
 30
0.0
 10
0.3789724409448819
 20
1.652763779527559
 30
0.0
 10
0.3913622047244095
 20
1.652763779527559
 30
0.0
 10
0.3913622047244095
 20
1.652763779527559
 30
0.0
  0
SPLINE
  5
78
330
1F
100
AcDbEntity
  8
LAYER_1
 62
   250
100
AcDbSpline
210
0.0
220
0.0
230
1.0
 70
    11
 71
     3
 72
    48
 73
    44
 74
     0
 42
0.0000000001
 43
0.0000000001
 40
0.0
 40
0.0
 40
0.0
 40
0.0
 40
0.0909090909090909
 40
0.0909090909090909
 40
0.0909090909090909
 40
0.0909090909090909
 40
0.1818181818181818
 40
0.1818181818181818
 40
0.1818181818181818
 40
0.1818181818181818
 40
0.2727272727272727
 40
0.2727272727272727
 40
0.2727272727272727
 40
0.2727272727272727
 40
0.3636363636363637
 40
0.3636363636363637
 40
0.3636363636363637
 40
0.3636363636363637
 40
0.4545454545454546
 40
0.4545454545454546
 40
0.4545454545454546
 40
0.4545454545454546
 40
0.5454545454545455
 40
0.5454545454545455
 40
0.5454545454545455
 40
0.5454545454545455
 40
0.6363636363636365
 40
0.6363636363636365
 40
0.6363636363636365
 40
0.6363636363636365
 40
0.7272727272727274
 40
0.7272727272727274
 40
0.7272727272727274
 40
0.7272727272727274
 40
0.8181818181818183
 40
0.8181818181818183
 40
0.8181818181818183
 40
0.8181818181818183
 40
0.9090909090909093
 40
0.9090909090909093
 40
0.9090909090909093
 40
0.9090909090909093
 40
1.0
 40
1.0
 40
1.0
 40
1.0
 10
0.4703070866141733
 20
1.64690157480315
 30
0.0
 10
0.4703070866141733
 20
1.64690157480315
 30
0.0
 10
0.4840551181102362
 20
1.64690157480315
 30
0.0
 10
0.4840551181102362
 20
1.64690157480315
 30
0.0
 10
0.4840551181102362
 20
1.64690157480315
 30
0.0
 10
0.4840551181102362
 20
1.64690157480315
 30
0.0
 10
0.4840551181102362
 20
1.58090157480315
 30
0.0
 10
0.4840551181102362
 20
1.58090157480315
 30
0.0
 10
0.4840551181102362
 20
1.58090157480315
 30
0.0
 10
0.4840551181102362
 20
1.58090157480315
 30
0.0
 10
0.5053897637795276
 20
1.58090157480315
 30
0.0
 10
0.5053897637795276
 20
1.58090157480315
 30
0.0
 10
0.5053897637795276
 20
1.58090157480315
 30
0.0
 10
0.5053897637795276
 20
1.58090157480315
 30
0.0
 10
0.5053897637795276
 20
1.570736220472441
 30
0.0
 10
0.5053897637795276
 20
1.570736220472441
 30
0.0
 10
0.5053897637795276
 20
1.570736220472441
 30
0.0
 10
0.5053897637795276
 20
1.570736220472441
 30
0.0
 10
0.4840551181102362
 20
1.570736220472441
 30
0.0
 10
0.4840551181102362
 20
1.570736220472441
 30
0.0
 10
0.4840551181102362
 20
1.570736220472441
 30
0.0
 10
0.4840551181102362
 20
1.570736220472441
 30
0.0
 10
0.4840551181102362
 20
1.533374015748032
 30
0.0
 10
0.4840551181102362
 20
1.533374015748032
 30
0.0
 10
0.4840551181102362
 20
1.533374015748032
 30
0.0
 10
0.4840551181102362
 20
1.533374015748032
 30
0.0
 10
0.4703070866141733
 20
1.533374015748032
 30
0.0
 10
0.4703070866141733
 20
1.533374015748032
 30
0.0
 10
0.4703070866141733
 20
1.533374015748032
 30
0.0
 10
0.4703070866141733
 20
1.533374015748032
 30
0.0
 10
0.4703070866141733
 20
1.570736220472441
 30
0.0
 10
0.4703070866141733
 20
1.570736220472441
 30
0.0
 10
0.4703070866141733
 20
1.570736220472441
 30
0.0
 10
0.4703070866141733
 20
1.570736220472441
 30
0.0
 10
0.4168346456692914
 20
1.570736220472441
 30
0.0
 10
0.4168346456692914
 20
1.570736220472441
 30
0.0
 10
0.4168346456692914
 20
1.570736220472441
 30
0.0
 10
0.4168346456692914
 20
1.570736220472441
 30
0.0
 10
0.4168346456692914
 20
1.58503937007874
 30
0.0
 10
0.4168346456692914
 20
1.58503937007874
 30
0.0
 10
0.4168346456692914
 20
1.58503937007874
 30
0.0
 10
0.4168346456692914
 20
1.58503937007874
 30
0.0
 10
0.4703070866141733
 20
1.64690157480315
 30
0.0
 10
0.4703070866141733
 20
1.64690157480315
 30
0.0
  0
SPLINE
  5
79
330
1F
100
AcDbEntity
  8
LAYER_1
 62
   250
100
AcDbSpline
210
0.0
220
0.0
230
1.0
 70
    11
 71
     3
 72
    16
 73
    12
 74
     0
 42
0.0000000001
 43
0.0000000001
 40
0.0
 40
0.0
 40
0.0
 40
0.0
 40
0.3333333333333333
 40
0.3333333333333333
 40
0.3333333333333333
 40
0.3333333333333333
 40
0.6666666666666666
 40
0.6666666666666666
 40
0.6666666666666666
 40
0.6666666666666666
 40
1.0
 40
1.0
 40
1.0
 40
1.0
 10
0.4703070866141733
 20
1.58090157480315
 30
0.0
 10
0.4703070866141733
 20
1.58090157480315
 30
0.0
 10
0.4703070866141733
 20
1.634291338582677
 30
0.0
 10
0.4703070866141733
 20
1.634291338582677
 30
0.0
 10
0.4703070866141733
 20
1.634291338582677
 30
0.0
 10
0.4703070866141733
 20
1.634291338582677
 30
0.0
 10
0.424251968503937
 20
1.58090157480315
 30
0.0
 10
0.424251968503937
 20
1.58090157480315
 30
0.0
 10
0.424251968503937
 20
1.58090157480315
 30
0.0
 10
0.424251968503937
 20
1.58090157480315
 30
0.0
 10
0.4703070866141733
 20
1.58090157480315
 30
0.0
 10
0.4703070866141733
 20
1.58090157480315
 30
0.0
  0
SPLINE
  5
7A
330
1F
100
AcDbEntity
  8
LAYER_1
 62
   250
100
AcDbSpline
210
0.0
220
0.0
230
1.0
 70
    11
 71
     3
 72
    60
 73
    56
 74
     0
 42
0.0000000001
 43
0.0000000001
 40
0.0
 40
0.0
 40
0.0
 40
0.0
 40
0.0714285714285714
 40
0.0714285714285714
 40
0.0714285714285714
 40
0.0714285714285714
 40
0.1428571428571429
 40
0.1428571428571429
 40
0.1428571428571429
 40
0.1428571428571429
 40
0.2142857142857143
 40
0.2142857142857143
 40
0.2142857142857143
 40
0.2142857142857143
 40
0.2857142857142857
 40
0.2857142857142857
 40
0.2857142857142857
 40
0.2857142857142857
 40
0.3571428571428571
 40
0.3571428571428571
 40
0.3571428571428571
 40
0.3571428571428571
 40
0.4285714285714285
 40
0.4285714285714285
 40
0.4285714285714285
 40
0.4285714285714285
 40
0.4999999999999999
 40
0.4999999999999999
 40
0.4999999999999999
 40
0.4999999999999999
 40
0.5714285714285713
 40
0.5714285714285713
 40
0.5714285714285713
 40
0.5714285714285713
 40
0.6428571428571427
 40
0.6428571428571427
 40
0.6428571428571427
 40
0.6428571428571427
 40
0.7142857142857141
 40
0.7142857142857141
 40
0.7142857142857141
 40
0.7142857142857141
 40
0.7857142857142855
 40
0.7857142857142855
 40
0.7857142857142855
 40
0.7857142857142855
 40
0.8571428571428569
 40
0.8571428571428569
 40
0.8571428571428569
 40
0.8571428571428569
 40
0.9285714285714283
 40
0.9285714285714283
 40
0.9285714285714283
 40
0.9285714285714283
 40
1.0
 40
1.0
 40
1.0
 40
1.0
 10
0.5233622047244094
 20
1.604818897637795
 30
0.0
 10
0.5233622047244094
 20
1.604818897637795
 30
0.0
 10
0.5189724409448819
 20
1.610208661417323
 30
0.0
 10
0.5189724409448819
 20
1.610208661417323
 30
0.0
 10
0.5189724409448819
 20
1.610208661417323
 30
0.0
 10
0.5300866141732283
 20
1.619263779527559
 30
0.0
 10
0.5356692913385827
 20
1.626818897637795
 30
0.0
 10
0.5356692913385827
 20
1.63290157480315
 30
0.0
 10
0.5356692913385827
 20
1.63290157480315
 30
0.0
 10
0.5356692913385827
 20
1.633594488188976
 30
0.0
 10
0.5356141732283465
 20
1.634484251968504
 30
0.0
 10
0.5355
 20
1.635511811023622
 30
0.0
 10
0.5355
 20
1.635511811023622
 30
0.0
 10
0.5345866141732284
 20
1.635122047244095
 30
0.0
 10
0.5336692913385827
 20
1.634818897637795
 30
0.0
 10
0.5328070866141732
 20
1.634622047244095
 30
0.0
 10
0.5328070866141732
 20
1.634622047244095
 30
0.0
 10
0.5319448818897639
 20
1.63440157480315
 30
0.0
 10
0.5311417322834646
 20
1.634291338582677
 30
0.0
 10
0.5303622047244094
 20
1.634291338582677
 30
0.0
 10
0.5303622047244094
 20
1.634291338582677
 30
0.0
 10
0.527751968503937
 20
1.634291338582677
 30
0.0
 10
0.5256692913385826
 20
1.635122047244095
 30
0.0
 10
0.5241141732283465
 20
1.636818897637795
 30
0.0
 10
0.5241141732283465
 20
1.636818897637795
 30
0.0
 10
0.5225275590551182
 20
1.638484251968504
 30
0.0
 10
0.521751968503937
 20
1.640622047244094
 30
0.0
 10
0.521751968503937
 20
1.643236220472441
 30
0.0
 10
0.521751968503937
 20
1.643236220472441
 30
0.0
 10
0.521751968503937
 20
1.645791338582677
 30
0.0
 10
0.5226968503937008
 20
1.648011811023622
 30
0.0
 10
0.5245866141732284
 20
1.64990157480315
 30
0.0
 10
0.5245866141732284
 20
1.64990157480315
 30
0.0
 10
0.5265
 20
1.651818897637795
 30
0.0
 10
0.5287795275590551
 20
1.652763779527559
 30
0.0
 10
0.5314173228346457
 20
1.652763779527559
 30
0.0
 10
0.5314173228346457
 20
1.652763779527559
 30
0.0
 10
0.5351141732283464
 20
1.652763779527559
 30
0.0
 10
0.5382795275590552
 20
1.651291338582677
 30
0.0
 10
0.5409173228346457
 20
1.648318897637795
 30
0.0
 10
0.5409173228346457
 20
1.648318897637795
 30
0.0
 10
0.5435275590551182
 20
1.645374015748032
 30
0.0
 10
0.5448622047244095
 20
1.641566929133858
 30
0.0
 10
0.5448622047244095
 20
1.63690157480315
 30
0.0
 10
0.5448622047244095
 20
1.63690157480315
 30
0.0
 10
0.5448622047244095
 20
1.633846456692913
 30
0.0
 10
0.5442244094488189
 20
1.630649606299213
 30
0.0
 10
0.542972440944882
 20
1.627318897637795
 30
0.0
 10
0.542972440944882
 20
1.627318897637795
 30
0.0
 10
0.5417244094488189
 20
1.623984251968504
 30
0.0
 10
0.5399173228346457
 20
1.62090157480315
 30
0.0
 10
0.5375275590551182
 20
1.61803937007874
 30
0.0
 10
0.5375275590551182
 20
1.61803937007874
 30
0.0
 10
0.5351417322834646
 20
1.615208661417323
 30
0.0
 10
0.5304173228346457
 20
1.610791338582677
 30
0.0
 10
0.5233622047244094
 20
1.604818897637795
 30
0.0
  0
SPLINE
  5
7B
330
1F
100
AcDbEntity
  8
LAYER_1
 62
   250
100
AcDbSpline
210
0.0
220
0.0
230
1.0
 70
    11
 71
     3
 72
    60
 73
    56
 74
     0
 42
0.0000000001
 43
0.0000000001
 40
0.0
 40
0.0
 40
0.0
 40
0.0
 40
0.0714285714285714
 40
0.0714285714285714
 40
0.0714285714285714
 40
0.0714285714285714
 40
0.1428571428571429
 40
0.1428571428571429
 40
0.1428571428571429
 40
0.1428571428571429
 40
0.2142857142857143
 40
0.2142857142857143
 40
0.2142857142857143
 40
0.2142857142857143
 40
0.2857142857142857
 40
0.2857142857142857
 40
0.2857142857142857
 40
0.2857142857142857
 40
0.3571428571428571
 40
0.3571428571428571
 40
0.3571428571428571
 40
0.3571428571428571
 40
0.4285714285714285
 40
0.4285714285714285
 40
0.4285714285714285
 40
0.4285714285714285
 40
0.4999999999999999
 40
0.4999999999999999
 40
0.4999999999999999
 40
0.4999999999999999
 40
0.5714285714285713
 40
0.5714285714285713
 40
0.5714285714285713
 40
0.5714285714285713
 40
0.6428571428571427
 40
0.6428571428571427
 40
0.6428571428571427
 40
0.6428571428571427
 40
0.7142857142857141
 40
0.7142857142857141
 40
0.7142857142857141
 40
0.7142857142857141
 40
0.7857142857142855
 40
0.7857142857142855
 40
0.7857142857142855
 40
0.7857142857142855
 40
0.8571428571428569
 40
0.8571428571428569
 40
0.8571428571428569
 40
0.8571428571428569
 40
0.9285714285714283
 40
0.9285714285714283
 40
0.9285714285714283
 40
0.9285714285714283
 40
1.0
 40
1.0
 40
1.0
 40
1.0
 10
0.5524173228346457
 20
1.604818897637795
 30
0.0
 10
0.5524173228346457
 20
1.604818897637795
 30
0.0
 10
0.5480275590551181
 20
1.610208661417323
 30
0.0
 10
0.5480275590551181
 20
1.610208661417323
 30
0.0
 10
0.5480275590551181
 20
1.610208661417323
 30
0.0
 10
0.5591417322834646
 20
1.619263779527559
 30
0.0
 10
0.564724409448819
 20
1.626818897637795
 30
0.0
 10
0.564724409448819
 20
1.63290157480315
 30
0.0
 10
0.564724409448819
 20
1.63290157480315
 30
0.0
 10
0.564724409448819
 20
1.633594488188976
 30
0.0
 10
0.5646692913385827
 20
1.634484251968504
 30
0.0
 10
0.5645551181102363
 20
1.635511811023622
 30
0.0
 10
0.5645551181102363
 20
1.635511811023622
 30
0.0
 10
0.5636417322834646
 20
1.635122047244095
 30
0.0
 10
0.562724409448819
 20
1.634818897637795
 30
0.0
 10
0.5618622047244095
 20
1.634622047244095
 30
0.0
 10
0.5618622047244095
 20
1.634622047244095
 30
0.0
 10
0.5610000000000001
 20
1.63440157480315
 30
0.0
 10
0.5601692913385827
 20
1.634291338582677
 30
0.0
 10
0.5593346456692914
 20
1.634291338582677
 30
0.0
 10
0.5593346456692914
 20
1.634291338582677
 30
0.0
 10
0.5567795275590551
 20
1.634291338582677
 30
0.0
 10
0.554724409448819
 20
1.635122047244095
 30
0.0
 10
0.5531692913385827
 20
1.636818897637795
 30
0.0
 10
0.5531692913385827
 20
1.636818897637795
 30
0.0
 10
0.5515866141732284
 20
1.638484251968504
 30
0.0
 10
0.5508070866141732
 20
1.640622047244094
 30
0.0
 10
0.5508070866141732
 20
1.643236220472441
 30
0.0
 10
0.5508070866141732
 20
1.643236220472441
 30
0.0
 10
0.5508070866141732
 20
1.645791338582677
 30
0.0
 10
0.551751968503937
 20
1.648011811023622
 30
0.0
 10
0.5536417322834646
 20
1.64990157480315
 30
0.0
 10
0.5536417322834646
 20
1.64990157480315
 30
0.0
 10
0.5555275590551181
 20
1.651818897637795
 30
0.0
 10
0.5578346456692913
 20
1.652763779527559
 30
0.0
 10
0.5604724409448819
 20
1.652763779527559
 30
0.0
 10
0.5604724409448819
 20
1.652763779527559
 30
0.0
 10
0.5641692913385827
 20
1.652763779527559
 30
0.0
 10
0.5673346456692914
 20
1.651291338582677
 30
0.0
 10
0.5699724409448819
 20
1.648318897637795
 30
0.0
 10
0.5699724409448819
 20
1.648318897637795
 30
0.0
 10
0.5725826771653544
 20
1.645374015748032
 30
0.0
 10
0.5739173228346457
 20
1.641566929133858
 30
0.0
 10
0.5739173228346457
 20
1.63690157480315
 30
0.0
 10
0.5739173228346457
 20
1.63690157480315
 30
0.0
 10
0.5739173228346457
 20
1.633846456692913
 30
0.0
 10
0.5732795275590551
 20
1.630649606299213
 30
0.0
 10
0.5720275590551182
 20
1.627318897637795
 30
0.0
 10
0.5720275590551182
 20
1.627318897637795
 30
0.0
 10
0.5707795275590551
 20
1.623984251968504
 30
0.0
 10
0.5689724409448819
 20
1.62090157480315
 30
0.0
 10
0.5665866141732284
 20
1.61803937007874
 30
0.0
 10
0.5665866141732284
 20
1.61803937007874
 30
0.0
 10
0.5641968503937008
 20
1.615208661417323
 30
0.0
 10
0.5594724409448819
 20
1.610791338582677
 30
0.0
 10
0.5524173228346457
 20
1.604818897637795
 30
0.0
  0
ENDSEC
  0
SECTION
  2
OBJECTS
  0
DICTIONARY
  5
C
330
0
100
AcDbDictionary
  3
ACAD_GROUP
350
D
  3
ACAD_LAYOUT
350
1A
  3
ACAD_MLINESTYLE
350
17
  3
ACAD_PLOTSETTINGS
350
19
  3
ACDBHEADERROUNDTRIPXREC
350
7C
  0
DICTIONARY
  5
9C
330
29
100
AcDbDictionary
280
     1
  3
ACAD_XREC_ROUNDTRIP
360
9D
  0
DICTIONARY
  5
D
102
{ACAD_REACTORS
330
C
102
}
330
C
100
AcDbDictionary
  0
DICTIONARY
  5
1A
102
{ACAD_REACTORS
330
C
102
}
330
C
100
AcDbDictionary
  0
DICTIONARY
  5
17
102
{ACAD_REACTORS
330
C
102
}
330
C
100
AcDbDictionary
  3
STANDARD
350
18
  0
DICTIONARY
  5
19
102
{ACAD_REACTORS
330
C
102
}
330
C
100
AcDbDictionary
  0
DICTIONARY
  5
7C
102
{ACAD_REACTORS
330
C
102
}
330
C
100
AcDbDictionary
  3
CEPSNTYPE
350
85
  3
DIMSTYLEDATA
350
9B
  3
FINGERPRINTGUID
350
86
  3
HYPERLINKBASE
350
7F
  3
INSUNITS
350
84
  3
LAYOUTDICT
350
81
  3
LWETCUNION
350
83
  3
PLOTSETDICT
350
82
  3
PSVPSCALE
350
88
  3
PUCSBASE
350
8B
  3
PUCSORGBACK
350
91
  3
PUCSORGBOTTOM
350
8D
  3
PUCSORGFRONT
350
90
  3
PUCSORGLEFT
350
8E
  3
PUCSORGRIGHT
350
8F
  3
PUCSORGTOP
350
8C
  3
PUCSORTHOREF
350
89
  3
PUCSORTHOVIEW
350
8A
  3
STYLESHEET
350
80
  3
TSTACKALIGN
350
7D
  3
TSTACKSIZE
350
7E
  3
UCSBASE
350
94
  3
UCSORGBACK
350
9A
  3
UCSORGBOTTOM
350
96
  3
UCSORGFRONT
350
99
  3
UCSORGLEFT
350
97
  3
UCSORGRIGHT
350
98
  3
UCSORGTOP
350
95
  3
UCSORTHOREF
350
92
  3
UCSORTHOVIEW
350
93
  3
VERSIONGUID
350
87
  0
XRECORD
  5
9D
102
{ACAD_REACTORS
330
9C
102
}
330
9C
100
AcDbXrecord
102
UCS
 74
     0
 71
     1
 10
0.0
 20
0.0
 30
0.0
 10
1.0
 20
0.0
 30
0.0
 10
0.0
 20
1.0
 30
0.0
146
0.0
 79
     0
102
VIEW
281
     0
  0
MLINESTYLE
  5
18
102
{ACAD_REACTORS
330
17
102
}
330
17
100
AcDbMlineStyle
  2
Standard
 70
     0
  3

 62
   256
 51
90.0
 52
90.0
 71
     2
 49
0.5
 62
   256
  6
BYLAYER
 49
-0.5
 62
   256
  6
BYLAYER
  0
XRECORD
  5
85
102
{ACAD_REACTORS
330
7C
102
}
330
7C
100
AcDbXrecord
 90
        0
  0
XRECORD
  5
9B
102
{ACAD_REACTORS
330
7C
102
}
330
7C
100
AcDbXrecord
1000
DSTYLE
1002
{
1070
   340
340
11
1002
}
  0
XRECORD
  5
86
102
{ACAD_REACTORS
330
7C
102
}
330
7C
100
AcDbXrecord
  1
{FAEB1C30-E019-11D5-929B-00C0DF256EC4}
  0
XRECORD
  5
7F
102
{ACAD_REACTORS
330
7C
102
}
330
7C
100
AcDbXrecord
  1

  0
XRECORD
  5
84
102
{ACAD_REACTORS
330
7C
102
}
330
7C
100
AcDbXrecord
 90
        1
  0
XRECORD
  5
81
102
{ACAD_REACTORS
330
7C
102
}
330
7C
100
AcDbXrecord
340
1A
  0
XRECORD
  5
83
102
{ACAD_REACTORS
330
7C
102
}
330
7C
100
AcDbXrecord
 90
     2560
  0
XRECORD
  5
82
102
{ACAD_REACTORS
330
7C
102
}
330
7C
100
AcDbXrecord
340
19
  0
XRECORD
  5
88
102
{ACAD_REACTORS
330
7C
102
}
330
7C
100
AcDbXrecord
 40
0.0
  0
XRECORD
  5
8B
102
{ACAD_REACTORS
330
7C
102
}
330
7C
100
AcDbXrecord
340
0
  0
XRECORD
  5
91
102
{ACAD_REACTORS
330
7C
102
}
330
7C
100
AcDbXrecord
 10
0.0
 20
0.0
 30
0.0
  0
XRECORD
  5
8D
102
{ACAD_REACTORS
330
7C
102
}
330
7C
100
AcDbXrecord
 10
0.0
 20
0.0
 30
0.0
  0
XRECORD
  5
90
102
{ACAD_REACTORS
330
7C
102
}
330
7C
100
AcDbXrecord
 10
0.0
 20
0.0
 30
0.0
  0
XRECORD
  5
8E
102
{ACAD_REACTORS
330
7C
102
}
330
7C
100
AcDbXrecord
 10
0.0
 20
0.0
 30
0.0
  0
XRECORD
  5
8F
102
{ACAD_REACTORS
330
7C
102
}
330
7C
100
AcDbXrecord
 10
0.0
 20
0.0
 30
0.0
  0
XRECORD
  5
8C
102
{ACAD_REACTORS
330
7C
102
}
330
7C
100
AcDbXrecord
 10
0.0
 20
0.0
 30
0.0
  0
XRECORD
  5
89
102
{ACAD_REACTORS
330
7C
102
}
330
7C
100
AcDbXrecord
340
0
  0
XRECORD
  5
8A
102
{ACAD_REACTORS
330
7C
102
}
330
7C
100
AcDbXrecord
 70
     0
  0
XRECORD
  5
80
102
{ACAD_REACTORS
330
7C
102
}
330
7C
100
AcDbXrecord
  1

  0
XRECORD
  5
7D
102
{ACAD_REACTORS
330
7C
102
}
330
7C
100
AcDbXrecord
 90
        1
  0
XRECORD
  5
7E
102
{ACAD_REACTORS
330
7C
102
}
330
7C
100
AcDbXrecord
 90
       70
  0
XRECORD
  5
94
102
{ACAD_REACTORS
330
7C
102
}
330
7C
100
AcDbXrecord
340
0
  0
XRECORD
  5
9A
102
{ACAD_REACTORS
330
7C
102
}
330
7C
100
AcDbXrecord
 10
0.0
 20
0.0
 30
0.0
  0
XRECORD
  5
96
102
{ACAD_REACTORS
330
7C
102
}
330
7C
100
AcDbXrecord
 10
0.0
 20
0.0
 30
0.0
  0
XRECORD
  5
99
102
{ACAD_REACTORS
330
7C
102
}
330
7C
100
AcDbXrecord
 10
0.0
 20
0.0
 30
0.0
  0
XRECORD
  5
97
102
{ACAD_REACTORS
330
7C
102
}
330
7C
100
AcDbXrecord
 10
0.0
 20
0.0
 30
0.0
  0
XRECORD
  5
98
102
{ACAD_REACTORS
330
7C
102
}
330
7C
100
AcDbXrecord
 10
0.0
 20
0.0
 30
0.0
  0
XRECORD
  5
95
102
{ACAD_REACTORS
330
7C
102
}
330
7C
100
AcDbXrecord
 10
0.0
 20
0.0
 30
0.0
  0
XRECORD
  5
92
102
{ACAD_REACTORS
330
7C
102
}
330
7C
100
AcDbXrecord
340
0
  0
XRECORD
  5
93
102
{ACAD_REACTORS
330
7C
102
}
330
7C
100
AcDbXrecord
 70
     0
  0
XRECORD
  5
87
102
{ACAD_REACTORS
330
7C
102
}
330
7C
100
AcDbXrecord
  1
{FAEB1C32-E019-11D5-929B-00C0DF256EC4}
  0
ENDSEC
  0
EOF
