  0
SECTION
  2
HEADER
  9
$ACADVER
  1
AC1014
  9
$ACADMAINTVER
 70
     9
  9
$DWGCODEPAGE
  3
ANSI_1252
  9
$INSBASE
 10
0.0
 20
0.0
 30
0.0
  9
$EXTMIN
 10
-1.79859842519685
 20
-0.7386338582677166
 30
0.0
  9
$EXTMAX
 10
1.495413385826772
 20
3.371122047244095
 30
0.0
  9
$LIMMIN
 10
0.0
 20
0.0
  9
$LIMMAX
 10
12.0
 20
9.0
  9
$ORTHOMODE
 70
     0
  9
$REGENMODE
 70
     1
  9
$FILLMODE
 70
     1
  9
$QTEXTMODE
 70
     0
  9
$MIRRTEXT
 70
     1
  9
$DRAGMODE
 70
     2
  9
$LTSCALE
 40
1.0
  9
$OSMODE
 70
    37
  9
$ATTMODE
 70
     1
  9
$TEXTSIZE
 40
0.2
  9
$TRACEWID
 40
0.05
  9
$TEXTSTYLE
  7
STANDARD
  9
$CLAYER
  8
0
  9
$CELTYPE
  6
BYLAYER
  9
$CECOLOR
 62
   256
  9
$CELTSCALE
 40
1.0
  9
$DELOBJ
 70
     1
  9
$DISPSILH
 70
     0
  9
$DIMSCALE
 40
1.0
  9
$DIMASZ
 40
0.18
  9
$DIMEXO
 40
0.0625
  9
$DIMDLI
 40
0.38
  9
$DIMRND
 40
0.0
  9
$DIMDLE
 40
0.0
  9
$DIMEXE
 40
0.18
  9
$DIMTP
 40
0.0
  9
$DIMTM
 40
0.0
  9
$DIMTXT
 40
0.18
  9
$DIMCEN
 40
0.09
  9
$DIMTSZ
 40
0.0
  9
$DIMTOL
 70
     0
  9
$DIMLIM
 70
     0
  9
$DIMTIH
 70
     1
  9
$DIMTOH
 70
     1
  9
$DIMSE1
 70
     0
  9
$DIMSE2
 70
     0
  9
$DIMTAD
 70
     0
  9
$DIMZIN
 70
     0
  9
$DIMBLK
  1

  9
$DIMASO
 70
     1
  9
$DIMSHO
 70
     1
  9
$DIMPOST
  1

  9
$DIMAPOST
  1

  9
$DIMALT
 70
     0
  9
$DIMALTD
 70
     2
  9
$DIMALTF
 40
25.4
  9
$DIMLFAC
 40
1.0
  9
$DIMTOFL
 70
     0
  9
$DIMTVP
 40
0.0
  9
$DIMTIX
 70
     0
  9
$DIMSOXD
 70
     0
  9
$DIMSAH
 70
     0
  9
$DIMBLK1
  1

  9
$DIMBLK2
  1

  9
$DIMSTYLE
  2
STANDARD
  9
$DIMCLRD
 70
     0
  9
$DIMCLRE
 70
     0
  9
$DIMCLRT
 70
     0
  9
$DIMTFAC
 40
1.0
  9
$DIMGAP
 40
0.09
  9
$DIMJUST
 70
     0
  9
$DIMSD1
 70
     0
  9
$DIMSD2
 70
     0
  9
$DIMTOLJ
 70
     1
  9
$DIMTZIN
 70
     0
  9
$DIMALTZ
 70
     0
  9
$DIMALTTZ
 70
     0
  9
$DIMFIT
 70
     3
  9
$DIMUPT
 70
     0
  9
$DIMUNIT
 70
     2
  9
$DIMDEC
 70
     4
  9
$DIMTDEC
 70
     4
  9
$DIMALTU
 70
     2
  9
$DIMALTTD
 70
     2
  9
$DIMTXSTY
  7
STANDARD
  9
$DIMAUNIT
 70
     0
  9
$LUNITS
 70
     2
  9
$LUPREC
 70
     4
  9
$SKETCHINC
 40
0.1
  9
$FILLETRAD
 40
0.5
  9
$AUNITS
 70
     0
  9
$AUPREC
 70
     0
  9
$MENU
  1
.
  9
$ELEVATION
 40
0.0
  9
$PELEVATION
 40
0.0
  9
$THICKNESS
 40
0.0
  9
$LIMCHECK
 70
     0
  9
$CHAMFERA
 40
0.5
  9
$CHAMFERB
 40
0.5
  9
$CHAMFERC
 40
1.0
  9
$CHAMFERD
 40
0.0
  9
$SKPOLY
 70
     0
  9
$TDCREATE
 40
2454124.377094317
  9
$TDUPDATE
 40
2454124.377094329
  9
$TDINDWG
 40
0.0000000116
  9
$TDUSRTIMER
 40
0.0000000116
  9
$USRTIMER
 70
     1
  9
$ANGBASE
 50
0.0
  9
$ANGDIR
 70
     0
  9
$PDMODE
 70
     0
  9
$PDSIZE
 40
0.0
  9
$PLINEWID
 40
0.0
  9
$COORDS
 70
     1
  9
$SPLFRAME
 70
     0
  9
$SPLINETYPE
 70
     6
  9
$SPLINESEGS
 70
     8
  9
$ATTDIA
 70
     0
  9
$ATTREQ
 70
     1
  9
$HANDLING
 70
     1
  9
$HANDSEED
  5
9A
  9
$SURFTAB1
 70
     6
  9
$SURFTAB2
 70
     6
  9
$SURFTYPE
 70
     6
  9
$SURFU
 70
     6
  9
$SURFV
 70
     6
  9
$UCSNAME
  2

  9
$UCSORG
 10
0.0
 20
0.0
 30
0.0
  9
$UCSXDIR
 10
1.0
 20
0.0
 30
0.0
  9
$UCSYDIR
 10
0.0
 20
1.0
 30
0.0
  9
$PUCSNAME
  2

  9
$PUCSORG
 10
0.0
 20
0.0
 30
0.0
  9
$PUCSXDIR
 10
1.0
 20
0.0
 30
0.0
  9
$PUCSYDIR
 10
0.0
 20
1.0
 30
0.0
  9
$USERI1
 70
     0
  9
$USERI2
 70
     0
  9
$USERI3
 70
     0
  9
$USERI4
 70
     0
  9
$USERI5
 70
     0
  9
$USERR1
 40
0.0
  9
$USERR2
 40
0.0
  9
$USERR3
 40
0.0
  9
$USERR4
 40
0.0
  9
$USERR5
 40
0.0
  9
$WORLDVIEW
 70
     1
  9
$SHADEDGE
 70
     3
  9
$SHADEDIF
 70
    70
  9
$TILEMODE
 70
     1
  9
$MAXACTVP
 70
    64
  9
$PINSBASE
 10
0.0
 20
0.0
 30
0.0
  9
$PLIMCHECK
 70
     0
  9
$PEXTMIN
 10
1.000000000000000E+20
 20
1.000000000000000E+20
 30
1.000000000000000E+20
  9
$PEXTMAX
 10
-1.000000000000000E+20
 20
-1.000000000000000E+20
 30
-1.000000000000000E+20
  9
$PLIMMIN
 10
0.0
 20
0.0
  9
$PLIMMAX
 10
12.0
 20
9.0
  9
$UNITMODE
 70
     0
  9
$VISRETAIN
 70
     1
  9
$PLINEGEN
 70
     0
  9
$PSLTSCALE
 70
     1
  9
$TREEDEPTH
 70
  3020
  9
$PICKSTYLE
 70
     1
  9
$CMLSTYLE
  2
STANDARD
  9
$CMLJUST
 70
     0
  9
$CMLSCALE
 40
1.0
  9
$PROXYGRAPHICS
 70
     1
  9
$MEASUREMENT
 70
     0
  0
ENDSEC
  0
SECTION
  2
CLASSES
  0
CLASS
  1
ACDBDICTIONARYWDFLT
  2
AcDbDictionaryWithDefault
  3
ObjectDBX Classes
 90
        0
280
     0
281
     0
  0
CLASS
  1
XRECORD
  2
AcDbXrecord
  3
AutoCAD 2000
 90
        0
280
     0
281
     0
  0
CLASS
  1
LWPOLYLINE
  2
AcDbPolyline
  3
AutoCAD 2000
 90
        0
280
     0
281
     1
  0
CLASS
  1
HATCH
  2
AcDbHatch
  3
AutoCAD 2000
 90
        0
280
     0
281
     1
  0
CLASS
  1
ACDBPLACEHOLDER
  2
AcDbPlaceHolder
  3
ObjectDBX Classes
 90
        0
280
     0
281
     0
  0
CLASS
  1
LAYOUT
  2
AcDbLayout
  3
ObjectDBX Classes
 90
        0
280
     0
281
     0
  0
ENDSEC
  0
SECTION
  2
TABLES
  0
TABLE
  2
VPORT
  5
8
330
0
100
AcDbSymbolTable
 70
     2
  0
VPORT
  5
29
102
{ACAD_XDICTIONARY
360
98
102
}
330
8
100
AcDbSymbolTableRecord
100
AcDbViewportTableRecord
  2
*ACTIVE
 70
     0
 10
0.0
 20
0.0
 11
1.0
 21
1.0
 12
10.42990654205607
 22
4.5
 13
0.0
 23
0.0
 14
0.5
 24
0.5
 15
0.5
 25
0.5
 16
0.0
 26
0.0
 36
1.0
 17
0.0
 27
0.0
 37
0.0
 40
9.0
 41
1.972972972850329
 42
50.0
 43
0.0
 44
0.0
 50
0.0
 51
0.0
 71
     0
 72
   100
 73
     1
 74
     3
 75
     0
 76
     0
 77
     0
 78
     0
  0
ENDTAB
  0
TABLE
  2
LTYPE
  5
5
330
0
100
AcDbSymbolTable
 70
     1
  0
LTYPE
  5
14
330
5
100
AcDbSymbolTableRecord
100
AcDbLinetypeTableRecord
  2
BYBLOCK
 70
     0
  3

 72
    65
 73
     0
 40
0.0
  0
LTYPE
  5
15
330
5
100
AcDbSymbolTableRecord
100
AcDbLinetypeTableRecord
  2
BYLAYER
 70
     0
  3

 72
    65
 73
     0
 40
0.0
  0
LTYPE
  5
16
330
5
100
AcDbSymbolTableRecord
100
AcDbLinetypeTableRecord
  2
CONTINUOUS
 70
     0
  3
Solid line
 72
    65
 73
     0
 40
0.0
  0
ENDTAB
  0
TABLE
  2
LAYER
  5
2
330
0
100
AcDbSymbolTable
 70
     2
  0
LAYER
  5
10
330
2
100
AcDbSymbolTableRecord
100
AcDbLayerTableRecord
  2
0
 70
     0
 62
     7
  6
CONTINUOUS
  0
LAYER
  5
2B
330
2
100
AcDbSymbolTableRecord
100
AcDbLayerTableRecord
  2
LAYER_1
 70
     0
 62
     7
  6
CONTINUOUS
  0
ENDTAB
  0
TABLE
  2
STYLE
  5
3
330
0
100
AcDbSymbolTable
 70
     1
  0
STYLE
  5
11
330
3
100
AcDbSymbolTableRecord
100
AcDbTextStyleTableRecord
  2
STANDARD
 70
     0
 40
0.0
 41
1.0
 50
0.0
 71
     0
 42
0.2
  3
txt
  4

  0
ENDTAB
  0
TABLE
  2
VIEW
  5
6
330
0
100
AcDbSymbolTable
 70
     0
  0
ENDTAB
  0
TABLE
  2
UCS
  5
7
330
0
100
AcDbSymbolTable
 70
     0
  0
ENDTAB
  0
TABLE
  2
APPID
  5
9
330
0
100
AcDbSymbolTable
 70
     2
  0
APPID
  5
12
330
9
100
AcDbSymbolTableRecord
100
AcDbRegAppTableRecord
  2
ACAD
 70
     0
  0
APPID
  5
2A
330
9
100
AcDbSymbolTableRecord
100
AcDbRegAppTableRecord
  2
ODA
 70
     0
  0
ENDTAB
  0
TABLE
  2
DIMSTYLE
  5
A
330
0
100
AcDbSymbolTable
 70
     1
  0
DIMSTYLE
105
27
330
A
100
AcDbSymbolTableRecord
100
AcDbDimStyleTableRecord
  2
STANDARD
 70
     0
  3

  4

  5

  6

  7

 40
1.0
 41
0.18
 42
0.0625
 43
0.38
 44
0.18
 45
0.0
 46
0.0
 47
0.0
 48
0.0
140
0.18
141
0.09
142
0.0
143
25.4
144
1.0
145
0.0
146
1.0
147
0.09
 71
     0
 72
     0
 73
     1
 74
     1
 75
     0
 76
     0
 77
     0
 78
     0
170
     0
171
     2
172
     0
173
     0
174
     0
175
     0
176
     0
177
     0
178
     0
270
     2
271
     4
272
     4
273
     2
274
     2
340
11
275
     0
280
     0
281
     0
282
     0
283
     1
284
     0
285
     0
286
     0
287
     3
288
     0
  0
ENDTAB
  0
TABLE
  2
BLOCK_RECORD
  5
1
330
0
100
AcDbSymbolTable
 70
     1
  0
BLOCK_RECORD
  5
1F
330
1
100
AcDbSymbolTableRecord
100
AcDbBlockTableRecord
  2
*MODEL_SPACE
  0
BLOCK_RECORD
  5
1B
330
1
100
AcDbSymbolTableRecord
100
AcDbBlockTableRecord
  2
*PAPER_SPACE
  0
ENDTAB
  0
ENDSEC
  0
SECTION
  2
BLOCKS
  0
BLOCK
  5
20
330
1F
100
AcDbEntity
  8
0
100
AcDbBlockBegin
  2
*MODEL_SPACE
 70
     0
 71
     0
 10
0.0
 20
0.0
 30
0.0
  3
*MODEL_SPACE
  1

  0
ENDBLK
  5
21
330
1F
100
AcDbEntity
  8
0
100
AcDbBlockEnd
  0
BLOCK
  5
1C
330
1B
100
AcDbEntity
 67
     1
  8
0
100
AcDbBlockBegin
  2
*PAPER_SPACE
 70
     0
 71
     0
 10
0.0
 20
0.0
 30
0.0
  3
*PAPER_SPACE
  1

  0
ENDBLK
  5
1D
330
1B
100
AcDbEntity
 67
     1
  8
0
100
AcDbBlockEnd
  0
ENDSEC
  0
SECTION
  2
ENTITIES
  0
SPLINE
  5
2C
330
1F
100
AcDbEntity
  8
LAYER_1
 62
   250
100
AcDbSpline
210
0.0
220
0.0
230
1.0
 70
    11
 71
     3
 72
    36
 73
    32
 74
     0
 42
0.0000000001
 43
0.0000000001
 40
0.0
 40
0.0
 40
0.0
 40
0.0
 40
0.125
 40
0.125
 40
0.125
 40
0.125
 40
0.25
 40
0.25
 40
0.25
 40
0.25
 40
0.375
 40
0.375
 40
0.375
 40
0.375
 40
0.5
 40
0.5
 40
0.5
 40
0.5
 40
0.625
 40
0.625
 40
0.625
 40
0.625
 40
0.75
 40
0.75
 40
0.75
 40
0.75
 40
0.875
 40
0.875
 40
0.875
 40
0.875
 40
1.0
 40
1.0
 40
1.0
 40
1.0
 10
1.458346456692913
 20
0.4666889763779528
 30
0.0
 10
1.458346456692913
 20
0.4666889763779528
 30
0.0
 10
0.5833464566929134
 20
0.4666889763779528
 30
0.0
 10
0.5833464566929134
 20
0.4666889763779528
 30
0.0
 10
0.5833464566929134
 20
0.4666889763779528
 30
0.0
 10
0.5833464566929134
 20
0.4666889763779528
 30
0.0
 10
0.560496062992126
 20
0.3416889763779528
 30
0.0
 10
0.560496062992126
 20
0.3416889763779528
 30
0.0
 10
0.560496062992126
 20
0.3416889763779528
 30
0.0
 10
0.560496062992126
 20
0.3416889763779528
 30
0.0
 10
-0.8938031496062993
 20
0.3416889763779528
 30
0.0
 10
-0.8938031496062993
 20
0.3416889763779528
 30
0.0
 10
-0.8938031496062993
 20
0.3416889763779528
 30
0.0
 10
-0.8938031496062993
 20
0.3416889763779528
 30
0.0
 10
-0.9166535433070866
 20
0.4666889763779528
 30
0.0
 10
-0.9166535433070866
 20
0.4666889763779528
 30
0.0
 10
-0.9166535433070866
 20
0.4666889763779528
 30
0.0
 10
-0.9166535433070866
 20
0.4666889763779528
 30
0.0
 10
-1.791653543307087
 20
0.4666889763779528
 30
0.0
 10
-1.791653543307087
 20
0.4666889763779528
 30
0.0
 10
-1.791653543307087
 20
0.4666889763779528
 30
0.0
 10
-1.791653543307087
 20
0.4666889763779528
 30
0.0
 10
-1.791653543307087
 20
-0.2833110236220472
 30
0.0
 10
-1.791653543307087
 20
-0.2833110236220472
 30
0.0
 10
-1.791653543307087
 20
-0.2833110236220472
 30
0.0
 10
-1.791653543307087
 20
-0.2833110236220472
 30
0.0
 10
1.458346456692913
 20
-0.2833110236220472
 30
0.0
 10
1.458346456692913
 20
-0.2833110236220472
 30
0.0
 10
1.458346456692913
 20
-0.2833110236220472
 30
0.0
 10
1.458346456692913
 20
-0.2833110236220472
 30
0.0
 10
1.458346456692913
 20
0.4666889763779528
 30
0.0
 10
1.458346456692913
 20
0.4666889763779528
 30
0.0
  0
SPLINE
  5
2D
330
1F
100
AcDbEntity
  8
LAYER_1
 62
   250
100
AcDbSpline
210
0.0
220
0.0
230
1.0
 70
    11
 71
     3
 72
   104
 73
   100
 74
     0
 42
0.0000000001
 43
0.0000000001
 40
0.0
 40
0.0
 40
0.0
 40
0.0
 40
0.04
 40
0.04
 40
0.04
 40
0.04
 40
0.08
 40
0.08
 40
0.08
 40
0.08
 40
0.12
 40
0.12
 40
0.12
 40
0.12
 40
0.16
 40
0.16
 40
0.16
 40
0.16
 40
0.2
 40
0.2
 40
0.2
 40
0.2
 40
0.24
 40
0.24
 40
0.24
 40
0.24
 40
0.28
 40
0.28
 40
0.28
 40
0.28
 40
0.32
 40
0.32
 40
0.32
 40
0.32
 40
0.36
 40
0.36
 40
0.36
 40
0.36
 40
0.4
 40
0.4
 40
0.4
 40
0.4
 40
0.44
 40
0.44
 40
0.44
 40
0.44
 40
0.4799999999999999
 40
0.4799999999999999
 40
0.4799999999999999
 40
0.4799999999999999
 40
0.5199999999999999
 40
0.5199999999999999
 40
0.5199999999999999
 40
0.5199999999999999
 40
0.5599999999999999
 40
0.5599999999999999
 40
0.5599999999999999
 40
0.5599999999999999
 40
0.6
 40
0.6
 40
0.6
 40
0.6
 40
0.64
 40
0.64
 40
0.64
 40
0.64
 40
0.6800000000000001
 40
0.6800000000000001
 40
0.6800000000000001
 40
0.6800000000000001
 40
0.7200000000000001
 40
0.7200000000000001
 40
0.7200000000000001
 40
0.7200000000000001
 40
0.7600000000000001
 40
0.7600000000000001
 40
0.7600000000000001
 40
0.7600000000000001
 40
0.8000000000000002
 40
0.8000000000000002
 40
0.8000000000000002
 40
0.8000000000000002
 40
0.8400000000000002
 40
0.8400000000000002
 40
0.8400000000000002
 40
0.8400000000000002
 40
0.8800000000000002
 40
0.8800000000000002
 40
0.8800000000000002
 40
0.8800000000000002
 40
0.9200000000000003
 40
0.9200000000000003
 40
0.9200000000000003
 40
0.9200000000000003
 40
0.9600000000000003
 40
0.9600000000000003
 40
0.9600000000000003
 40
0.9600000000000003
 40
1.0
 40
1.0
 40
1.0
 40
1.0
 10
-0.5568110236220473
 20
-0.4012992125984252
 30
0.0
 10
-0.5568110236220473
 20
-0.4012992125984252
 30
0.0
 10
-0.5028385826771654
 20
-0.4012992125984252
 30
0.0
 10
-0.5028385826771654
 20
-0.4012992125984252
 30
0.0
 10
-0.5028385826771654
 20
-0.4012992125984252
 30
0.0
 10
-0.4896692913385827
 20
-0.4012992125984252
 30
0.0
 10
-0.4806417322834646
 20
-0.4019094488188977
 30
0.0
 10
-0.475755905511811
 20
-0.4031062992125984
 30
0.0
 10
-0.475755905511811
 20
-0.4031062992125984
 30
0.0
 10
-0.4685314960629922
 20
-0.4048267716535433
 30
0.0
 10
-0.4628385826771654
 20
-0.4079645669291339
 30
0.0
 10
-0.4586141732283465
 20
-0.4125236220472441
 30
0.0
 10
-0.4586141732283465
 20
-0.4125236220472441
 30
0.0
 10
-0.4544212598425197
 20
-0.4170787401574803
 30
0.0
 10
-0.4523110236220473
 20
-0.4225787401574803
 30
0.0
 10
-0.4523110236220473
 20
-0.4289645669291339
 30
0.0
 10
-0.4523110236220473
 20
-0.4289645669291339
 30
0.0
 10
-0.4523110236220473
 20
-0.4335787401574803
 30
0.0
 10
-0.4534212598425197
 20
-0.4377165354330709
 30
0.0
 10
-0.4556417322834646
 20
-0.4413818897637796
 30
0.0
 10
-0.4556417322834646
 20
-0.4413818897637796
 30
0.0
 10
-0.4578661417322835
 20
-0.4450511811023623
 30
0.0
 10
-0.4611141732283465
 20
-0.4481889763779528
 30
0.0
 10
-0.4653385826771654
 20
-0.4507716535433071
 30
0.0
 10
-0.4653385826771654
 20
-0.4507716535433071
 30
0.0
 10
-0.4680590551181103
 20
-0.4524645669291339
 30
0.0
 10
-0.4717283464566929
 20
-0.4539094488188977
 30
0.0
 10
-0.4763937007874016
 20
-0.4551062992125984
 30
0.0
 10
-0.4763937007874016
 20
-0.4551062992125984
 30
0.0
 10
-0.4704763779527559
 20
-0.4561889763779528
 30
0.0
 10
-0.4659763779527559
 20
-0.457492125984252
 30
0.0
 10
-0.4628937007874016
 20
-0.458992125984252
 30
0.0
 10
-0.4628937007874016
 20
-0.458992125984252
 30
0.0
 10
-0.4582283464566929
 20
-0.4612716535433071
 30
0.0
 10
-0.4545314960629922
 20
-0.4645196850393701
 30
0.0
 10
-0.4518385826771654
 20
-0.4687716535433071
 30
0.0
 10
-0.4518385826771654
 20
-0.4687716535433071
 30
0.0
 10
-0.4491141732283465
 20
-0.472992125984252
 30
0.0
 10
-0.4477559055118111
 20
-0.4777716535433071
 30
0.0
 10
-0.4477559055118111
 20
-0.4830787401574803
 30
0.0
 10
-0.4477559055118111
 20
-0.4830787401574803
 30
0.0
 10
-0.4477559055118111
 20
-0.488244094488189
 30
0.0
 10
-0.4490866141732284
 20
-0.4930196850393701
 30
0.0
 10
-0.4517559055118111
 20
-0.4974094488188977
 30
0.0
 10
-0.4517559055118111
 20
-0.4974094488188977
 30
0.0
 10
-0.4543937007874016
 20
-0.5017992125984252
 30
0.0
 10
-0.4581692913385827
 20
-0.5054094488188977
 30
0.0
 10
-0.463003937007874
 20
-0.508244094488189
 30
0.0
 10
-0.463003937007874
 20
-0.508244094488189
 30
0.0
 10
-0.4678661417322835
 20
-0.5110472440944882
 30
0.0
 10
-0.4735314960629922
 20
-0.5128543307086615
 30
0.0
 10
-0.4799763779527559
 20
-0.5136614173228347
 30
0.0
 10
-0.4799763779527559
 20
-0.5136614173228347
 30
0.0
 10
-0.4864488188976378
 20
-0.5144370078740158
 30
0.0
 10
-0.4930866141732284
 20
-0.5148267716535433
 30
0.0
 10
-0.4999212598425197
 20
-0.5148267716535433
 30
0.0
 10
-0.4999212598425197
 20
-0.5148267716535433
 30
0.0
 10
-0.4999212598425197
 20
-0.5148267716535433
 30
0.0
 10
-0.5568110236220473
 20
-0.5148267716535433
 30
0.0
 10
-0.5568110236220473
 20
-0.5148267716535433
 30
0.0
 10
-0.5568110236220473
 20
-0.5148267716535433
 30
0.0
 10
-0.5568110236220473
 20
-0.5148267716535433
 30
0.0
 10
-0.5568110236220473
 20
-0.507992125984252
 30
0.0
 10
-0.5568110236220473
 20
-0.507992125984252
 30
0.0
 10
-0.5568110236220473
 20
-0.507992125984252
 30
0.0
 10
-0.5568110236220473
 20
-0.507992125984252
 30
0.0
 10
-0.5529763779527559
 20
-0.507992125984252
 30
0.0
 10
-0.5529763779527559
 20
-0.507992125984252
 30
0.0
 10
-0.5529763779527559
 20
-0.507992125984252
 30
0.0
 10
-0.5492795275590552
 20
-0.507992125984252
 30
0.0
 10
-0.5467795275590551
 20
-0.5074094488188976
 30
0.0
 10
-0.5454212598425197
 20
-0.5062716535433071
 30
0.0
 10
-0.5454212598425197
 20
-0.5062716535433071
 30
0.0
 10
-0.5434488188976379
 20
-0.5047165354330709
 30
0.0
 10
-0.5424763779527559
 20
-0.5021062992125984
 30
0.0
 10
-0.5424763779527559
 20
-0.4984645669291339
 30
0.0
 10
-0.5424763779527559
 20
-0.4984645669291339
 30
0.0
 10
-0.5424763779527559
 20
-0.4984645669291339
 30
0.0
 10
-0.5424763779527559
 20
-0.4196062992125985
 30
0.0
 10
-0.5424763779527559
 20
-0.4196062992125985
 30
0.0
 10
-0.5424763779527559
 20
-0.4196062992125985
 30
0.0
 10
-0.5424763779527559
 20
-0.4159094488188976
 30
0.0
 10
-0.5427795275590551
 20
-0.4134094488188976
 30
0.0
 10
-0.5433661417322835
 20
-0.4120511811023622
 30
0.0
 10
-0.5433661417322835
 20
-0.4120511811023622
 30
0.0
 10
-0.5439763779527559
 20
-0.4106889763779528
 30
0.0
 10
-0.5448661417322835
 20
-0.4097165354330709
 30
0.0
 10
-0.5460590551181103
 20
-0.4091062992125985
 30
0.0
 10
-0.5460590551181103
 20
-0.4091062992125985
 30
0.0
 10
-0.547251968503937
 20
-0.4085236220472441
 30
0.0
 10
-0.5495590551181102
 20
-0.4082165354330709
 30
0.0
 10
-0.5529763779527559
 20
-0.4082165354330709
 30
0.0
 10
-0.5529763779527559
 20
-0.4082165354330709
 30
0.0
 10
-0.5529763779527559
 20
-0.4082165354330709
 30
0.0
 10
-0.5568110236220473
 20
-0.4082165354330709
 30
0.0
 10
-0.5568110236220473
 20
-0.4082165354330709
 30
0.0
 10
-0.5568110236220473
 20
-0.4082165354330709
 30
0.0
 10
-0.5568110236220473
 20
-0.4082165354330709
 30
0.0
 10
-0.5568110236220473
 20
-0.4012992125984252
 30
0.0
 10
-0.5568110236220473
 20
-0.4012992125984252
 30
0.0
  0
SPLINE
  5
2E
330
1F
100
AcDbEntity
  8
LAYER_1
 62
   250
100
AcDbSpline
210
0.0
220
0.0
230
1.0
 70
    11
 71
     3
 72
    40
 73
    36
 74
     0
 42
0.0000000001
 43
0.0000000001
 40
0.0
 40
0.0
 40
0.0
 40
0.0
 40
0.1111111111111111
 40
0.1111111111111111
 40
0.1111111111111111
 40
0.1111111111111111
 40
0.2222222222222222
 40
0.2222222222222222
 40
0.2222222222222222
 40
0.2222222222222222
 40
0.3333333333333333
 40
0.3333333333333333
 40
0.3333333333333333
 40
0.3333333333333333
 40
0.4444444444444444
 40
0.4444444444444444
 40
0.4444444444444444
 40
0.4444444444444444
 40
0.5555555555555556
 40
0.5555555555555556
 40
0.5555555555555556
 40
0.5555555555555556
 40
0.6666666666666667
 40
0.6666666666666667
 40
0.6666666666666667
 40
0.6666666666666667
 40
0.7777777777777779
 40
0.7777777777777779
 40
0.7777777777777779
 40
0.7777777777777779
 40
0.8888888888888891
 40
0.8888888888888891
 40
0.8888888888888891
 40
0.8888888888888891
 40
1.0
 40
1.0
 40
1.0
 40
1.0
 10
-0.5272519685039371
 20
-0.4103267716535433
 30
0.0
 10
-0.5272519685039371
 20
-0.4103267716535433
 30
0.0
 10
-0.5272519685039371
 20
-0.4519094488188977
 30
0.0
 10
-0.5272519685039371
 20
-0.4519094488188977
 30
0.0
 10
-0.5272519685039371
 20
-0.4519094488188977
 30
0.0
 10
-0.5272519685039371
 20
-0.4519094488188977
 30
0.0
 10
-0.506503937007874
 20
-0.4519094488188977
 30
0.0
 10
-0.506503937007874
 20
-0.4519094488188977
 30
0.0
 10
-0.506503937007874
 20
-0.4519094488188977
 30
0.0
 10
-0.4968110236220473
 20
-0.4519094488188977
 30
0.0
 10
-0.4901417322834646
 20
-0.4514645669291339
 30
0.0
 10
-0.4865866141732284
 20
-0.4505511811023622
 30
0.0
 10
-0.4865866141732284
 20
-0.4505511811023622
 30
0.0
 10
-0.4809763779527559
 20
-0.4490787401574803
 30
0.0
 10
-0.4767283464566929
 20
-0.4465787401574803
 30
0.0
 10
-0.473755905511811
 20
-0.4430511811023623
 30
0.0
 10
-0.473755905511811
 20
-0.4430511811023623
 30
0.0
 10
-0.4708110236220472
 20
-0.4395236220472441
 30
0.0
 10
-0.4693110236220472
 20
-0.434992125984252
 30
0.0
 10
-0.4693110236220472
 20
-0.4294645669291339
 30
0.0
 10
-0.4693110236220472
 20
-0.4294645669291339
 30
0.0
 10
-0.4693110236220472
 20
-0.4247992125984252
 30
0.0
 10
-0.4706692913385827
 20
-0.4209094488188976
 30
0.0
 10
-0.4733385826771654
 20
-0.4177716535433071
 30
0.0
 10
-0.4733385826771654
 20
-0.4177716535433071
 30
0.0
 10
-0.4760314960629922
 20
-0.4146614173228347
 30
0.0
 10
-0.4796417322834646
 20
-0.4125236220472441
 30
0.0
 10
-0.4841417322834646
 20
-0.4113818897637795
 30
0.0
 10
-0.4841417322834646
 20
-0.4113818897637795
 30
0.0
 10
-0.4870590551181103
 20
-0.4106889763779528
 30
0.0
 10
-0.4931417322834646
 20
-0.4103267716535433
 30
0.0
 10
-0.5023661417322834
 20
-0.4103267716535433
 30
0.0
 10
-0.5023661417322834
 20
-0.4103267716535433
 30
0.0
 10
-0.5023661417322834
 20
-0.4103267716535433
 30
0.0
 10
-0.5272519685039371
 20
-0.4103267716535433
 30
0.0
 10
-0.5272519685039371
 20
-0.4103267716535433
 30
0.0
  0
SPLINE
  5
2F
330
1F
100
AcDbEntity
  8
LAYER_1
 62
   250
100
AcDbSpline
210
0.0
220
0.0
230
1.0
 70
    11
 71
     3
 72
    52
 73
    48
 74
     0
 42
0.0000000001
 43
0.0000000001
 40
0.0
 40
0.0
 40
0.0
 40
0.0
 40
0.0833333333333333
 40
0.0833333333333333
 40
0.0833333333333333
 40
0.0833333333333333
 40
0.1666666666666667
 40
0.1666666666666667
 40
0.1666666666666667
 40
0.1666666666666667
 40
0.25
 40
0.25
 40
0.25
 40
0.25
 40
0.3333333333333333
 40
0.3333333333333333
 40
0.3333333333333333
 40
0.3333333333333333
 40
0.4166666666666666
 40
0.4166666666666666
 40
0.4166666666666666
 40
0.4166666666666666
 40
0.4999999999999999
 40
0.4999999999999999
 40
0.4999999999999999
 40
0.4999999999999999
 40
0.5833333333333333
 40
0.5833333333333333
 40
0.5833333333333333
 40
0.5833333333333333
 40
0.6666666666666666
 40
0.6666666666666666
 40
0.6666666666666666
 40
0.6666666666666666
 40
0.75
 40
0.75
 40
0.75
 40
0.75
 40
0.8333333333333334
 40
0.8333333333333334
 40
0.8333333333333334
 40
0.8333333333333334
 40
0.9166666666666667
 40
0.9166666666666667
 40
0.9166666666666667
 40
0.9166666666666667
 40
1.0
 40
1.0
 40
1.0
 40
1.0
 10
-0.5272519685039371
 20
-0.459744094488189
 30
0.0
 10
-0.5272519685039371
 20
-0.459744094488189
 30
0.0
 10
-0.5272519685039371
 20
-0.496992125984252
 30
0.0
 10
-0.5272519685039371
 20
-0.496992125984252
 30
0.0
 10
-0.5272519685039371
 20
-0.496992125984252
 30
0.0
 10
-0.5272519685039371
 20
-0.500744094488189
 30
0.0
 10
-0.5270866141732283
 20
-0.5029645669291338
 30
0.0
 10
-0.5267834645669292
 20
-0.5036889763779527
 30
0.0
 10
-0.5267834645669292
 20
-0.5036889763779527
 30
0.0
 10
-0.5263385826771654
 20
-0.5046614173228347
 30
0.0
 10
-0.5254763779527559
 20
-0.5053267716535433
 30
0.0
 10
-0.5241692913385827
 20
-0.5057165354330709
 30
0.0
 10
-0.5241692913385827
 20
-0.5057165354330709
 30
0.0
 10
-0.5232519685039371
 20
-0.505992125984252
 30
0.0
 10
-0.5206417322834646
 20
-0.5061338582677165
 30
0.0
 10
-0.5163661417322835
 20
-0.5061338582677165
 30
0.0
 10
-0.5163661417322835
 20
-0.5061338582677165
 30
0.0
 10
-0.5163661417322835
 20
-0.5061338582677165
 30
0.0
 10
-0.5052834645669292
 20
-0.5061338582677165
 30
0.0
 10
-0.5052834645669292
 20
-0.5061338582677165
 30
0.0
 10
-0.5052834645669292
 20
-0.5061338582677165
 30
0.0
 10
-0.4943385826771654
 20
-0.5061338582677165
 30
0.0
 10
-0.486503937007874
 20
-0.5055196850393701
 30
0.0
 10
-0.4818110236220473
 20
-0.5042992125984253
 30
0.0
 10
-0.4818110236220473
 20
-0.5042992125984253
 30
0.0
 10
-0.4771141732283465
 20
-0.5030787401574803
 30
0.0
 10
-0.4731141732283465
 20
-0.500492125984252
 30
0.0
 10
-0.4698110236220472
 20
-0.4965472440944882
 30
0.0
 10
-0.4698110236220472
 20
-0.4965472440944882
 30
0.0
 10
-0.466503937007874
 20
-0.4926338582677166
 30
0.0
 10
-0.4648385826771654
 20
-0.4878818897637796
 30
0.0
 10
-0.4648385826771654
 20
-0.4823543307086615
 30
0.0
 10
-0.4648385826771654
 20
-0.4823543307086615
 30
0.0
 10
-0.4648385826771654
 20
-0.4776889763779528
 30
0.0
 10
-0.4661968503937008
 20
-0.4735511811023622
 30
0.0
 10
-0.4688661417322835
 20
-0.4699370078740158
 30
0.0
 10
-0.4688661417322835
 20
-0.4699370078740158
 30
0.0
 10
-0.4715590551181103
 20
-0.4663267716535433
 30
0.0
 10
-0.4752834645669292
 20
-0.463744094488189
 30
0.0
 10
-0.4800314960629922
 20
-0.4621338582677166
 30
0.0
 10
-0.4800314960629922
 20
-0.4621338582677166
 30
0.0
 10
-0.4847834645669292
 20
-0.4605196850393701
 30
0.0
 10
-0.4931968503937008
 20
-0.459744094488189
 30
0.0
 10
-0.5052834645669292
 20
-0.459744094488189
 30
0.0
 10
-0.5052834645669292
 20
-0.459744094488189
 30
0.0
 10
-0.5052834645669292
 20
-0.459744094488189
 30
0.0
 10
-0.5272519685039371
 20
-0.459744094488189
 30
0.0
 10
-0.5272519685039371
 20
-0.459744094488189
 30
0.0
  0
SPLINE
  5
30
330
1F
100
AcDbEntity
  8
LAYER_1
 62
   250
100
AcDbSpline
210
0.0
220
0.0
230
1.0
 70
    11
 71
     3
 72
   112
 73
   108
 74
     0
 42
0.0000000001
 43
0.0000000001
 40
0.0
 40
0.0
 40
0.0
 40
0.0
 40
0.037037037037037
 40
0.037037037037037
 40
0.037037037037037
 40
0.037037037037037
 40
0.0740740740740741
 40
0.0740740740740741
 40
0.0740740740740741
 40
0.0740740740740741
 40
0.1111111111111111
 40
0.1111111111111111
 40
0.1111111111111111
 40
0.1111111111111111
 40
0.1481481481481481
 40
0.1481481481481481
 40
0.1481481481481481
 40
0.1481481481481481
 40
0.1851851851851852
 40
0.1851851851851852
 40
0.1851851851851852
 40
0.1851851851851852
 40
0.2222222222222222
 40
0.2222222222222222
 40
0.2222222222222222
 40
0.2222222222222222
 40
0.2592592592592592
 40
0.2592592592592592
 40
0.2592592592592592
 40
0.2592592592592592
 40
0.2962962962962963
 40
0.2962962962962963
 40
0.2962962962962963
 40
0.2962962962962963
 40
0.3333333333333333
 40
0.3333333333333333
 40
0.3333333333333333
 40
0.3333333333333333
 40
0.3703703703703704
 40
0.3703703703703704
 40
0.3703703703703704
 40
0.3703703703703704
 40
0.4074074074074074
 40
0.4074074074074074
 40
0.4074074074074074
 40
0.4074074074074074
 40
0.4444444444444444
 40
0.4444444444444444
 40
0.4444444444444444
 40
0.4444444444444444
 40
0.4814814814814815
 40
0.4814814814814815
 40
0.4814814814814815
 40
0.4814814814814815
 40
0.5185185185185185
 40
0.5185185185185185
 40
0.5185185185185185
 40
0.5185185185185185
 40
0.5555555555555556
 40
0.5555555555555556
 40
0.5555555555555556
 40
0.5555555555555556
 40
0.5925925925925926
 40
0.5925925925925926
 40
0.5925925925925926
 40
0.5925925925925926
 40
0.6296296296296295
 40
0.6296296296296295
 40
0.6296296296296295
 40
0.6296296296296295
 40
0.6666666666666665
 40
0.6666666666666665
 40
0.6666666666666665
 40
0.6666666666666665
 40
0.7037037037037035
 40
0.7037037037037035
 40
0.7037037037037035
 40
0.7037037037037035
 40
0.7407407407407405
 40
0.7407407407407405
 40
0.7407407407407405
 40
0.7407407407407405
 40
0.7777777777777775
 40
0.7777777777777775
 40
0.7777777777777775
 40
0.7777777777777775
 40
0.8148148148148144
 40
0.8148148148148144
 40
0.8148148148148144
 40
0.8148148148148144
 40
0.8518518518518514
 40
0.8518518518518514
 40
0.8518518518518514
 40
0.8518518518518514
 40
0.8888888888888884
 40
0.8888888888888884
 40
0.8888888888888884
 40
0.8888888888888884
 40
0.9259259259259254
 40
0.9259259259259254
 40
0.9259259259259254
 40
0.9259259259259254
 40
0.9629629629629624
 40
0.9629629629629624
 40
0.9629629629629624
 40
0.9629629629629624
 40
1.0
 40
1.0
 40
1.0
 40
1.0
 10
-0.3901456692913386
 20
-0.4012992125984252
 30
0.0
 10
-0.3901456692913386
 20
-0.4012992125984252
 30
0.0
 10
-0.376728346456693
 20
-0.4012992125984252
 30
0.0
 10
-0.376728346456693
 20
-0.4012992125984252
 30
0.0
 10
-0.376728346456693
 20
-0.4012992125984252
 30
0.0
 10
-0.376728346456693
 20
-0.4012992125984252
 30
0.0
 10
-0.3414803149606299
 20
-0.4961889763779528
 30
0.0
 10
-0.3414803149606299
 20
-0.4961889763779528
 30
0.0
 10
-0.3414803149606299
 20
-0.4961889763779528
 30
0.0
 10
-0.3397559055118111
 20
-0.5009645669291338
 30
0.0
 10
-0.3380078740157481
 20
-0.5041338582677165
 30
0.0
 10
-0.3362283464566929
 20
-0.5056614173228347
 30
0.0
 10
-0.3362283464566929
 20
-0.5056614173228347
 30
0.0
 10
-0.3344803149606299
 20
-0.5072165354330709
 30
0.0
 10
-0.3320905511811024
 20
-0.507992125984252
 30
0.0
 10
-0.3291181102362205
 20
-0.507992125984252
 30
0.0
 10
-0.3291181102362205
 20
-0.507992125984252
 30
0.0
 10
-0.3291181102362205
 20
-0.507992125984252
 30
0.0
 10
-0.3273385826771654
 20
-0.507992125984252
 30
0.0
 10
-0.3273385826771654
 20
-0.507992125984252
 30
0.0
 10
-0.3273385826771654
 20
-0.507992125984252
 30
0.0
 10
-0.3273385826771654
 20
-0.507992125984252
 30
0.0
 10
-0.3273385826771654
 20
-0.5148267716535433
 30
0.0
 10
-0.3273385826771654
 20
-0.5148267716535433
 30
0.0
 10
-0.3273385826771654
 20
-0.5148267716535433
 30
0.0
 10
-0.3273385826771654
 20
-0.5148267716535433
 30
0.0
 10
-0.3677834645669292
 20
-0.5148267716535433
 30
0.0
 10
-0.3677834645669292
 20
-0.5148267716535433
 30
0.0
 10
-0.3677834645669292
 20
-0.5148267716535433
 30
0.0
 10
-0.3677834645669292
 20
-0.5148267716535433
 30
0.0
 10
-0.3677834645669292
 20
-0.507992125984252
 30
0.0
 10
-0.3677834645669292
 20
-0.507992125984252
 30
0.0
 10
-0.3677834645669292
 20
-0.507992125984252
 30
0.0
 10
-0.3664803149606299
 20
-0.5078818897637796
 30
0.0
 10
-0.3652007874015748
 20
-0.5078267716535433
 30
0.0
 10
-0.3639488188976378
 20
-0.5078267716535433
 30
0.0
 10
-0.3639488188976378
 20
-0.5078267716535433
 30
0.0
 10
-0.3613385826771653
 20
-0.5078267716535433
 30
0.0
 10
-0.3596456692913386
 20
-0.5075472440944883
 30
0.0
 10
-0.3588110236220473
 20
-0.5070196850393701
 30
0.0
 10
-0.3588110236220473
 20
-0.5070196850393701
 30
0.0
 10
-0.357255905511811
 20
-0.505992125984252
 30
0.0
 10
-0.3564527559055118
 20
-0.5046889763779527
 30
0.0
 10
-0.3564527559055118
 20
-0.5031062992125984
 30
0.0
 10
-0.3564527559055118
 20
-0.5031062992125984
 30
0.0
 10
-0.3564527559055118
 20
-0.5019645669291338
 30
0.0
 10
-0.3572283464566929
 20
-0.4991889763779528
 30
0.0
 10
-0.3587283464566929
 20
-0.4947165354330709
 30
0.0
 10
-0.3587283464566929
 20
-0.4947165354330709
 30
0.0
 10
-0.3587283464566929
 20
-0.4947165354330709
 30
0.0
 10
-0.3662283464566929
 20
-0.472744094488189
 30
0.0
 10
-0.3662283464566929
 20
-0.472744094488189
 30
0.0
 10
-0.3662283464566929
 20
-0.472744094488189
 30
0.0
 10
-0.3662283464566929
 20
-0.472744094488189
 30
0.0
 10
-0.4073937007874016
 20
-0.472744094488189
 30
0.0
 10
-0.4073937007874016
 20
-0.472744094488189
 30
0.0
 10
-0.4073937007874016
 20
-0.472744094488189
 30
0.0
 10
-0.4073937007874016
 20
-0.472744094488189
 30
0.0
 10
-0.4162007874015749
 20
-0.4973267716535433
 30
0.0
 10
-0.4162007874015749
 20
-0.4973267716535433
 30
0.0
 10
-0.4162007874015749
 20
-0.4973267716535433
 30
0.0
 10
-0.4171181102362205
 20
-0.4998818897637796
 30
0.0
 10
-0.4175905511811024
 20
-0.5016338582677166
 30
0.0
 10
-0.4175905511811024
 20
-0.5026338582677166
 30
0.0
 10
-0.4175905511811024
 20
-0.5026338582677166
 30
0.0
 10
-0.4175905511811024
 20
-0.5037165354330709
 30
0.0
 10
-0.4172834645669292
 20
-0.5046614173228347
 30
0.0
 10
-0.4167283464566929
 20
-0.5054645669291339
 30
0.0
 10
-0.4167283464566929
 20
-0.5054645669291339
 30
0.0
 10
-0.4161456692913386
 20
-0.5062716535433071
 30
0.0
 10
-0.4153937007874016
 20
-0.5068818897637796
 30
0.0
 10
-0.4143937007874016
 20
-0.5072992125984253
 30
0.0
 10
-0.4143937007874016
 20
-0.5072992125984253
 30
0.0
 10
-0.4134212598425197
 20
-0.5077165354330709
 30
0.0
 10
-0.4118661417322835
 20
-0.5079094488188977
 30
0.0
 10
-0.4096732283464567
 20
-0.5079094488188977
 30
0.0
 10
-0.4096732283464567
 20
-0.5079094488188977
 30
0.0
 10
-0.4082283464566929
 20
-0.5079094488188977
 30
0.0
 10
-0.4070354330708662
 20
-0.5079370078740157
 30
0.0
 10
-0.4061181102362205
 20
-0.507992125984252
 30
0.0
 10
-0.4061181102362205
 20
-0.507992125984252
 30
0.0
 10
-0.4061181102362205
 20
-0.507992125984252
 30
0.0
 10
-0.4061181102362205
 20
-0.5148267716535433
 30
0.0
 10
-0.4061181102362205
 20
-0.5148267716535433
 30
0.0
 10
-0.4061181102362205
 20
-0.5148267716535433
 30
0.0
 10
-0.4061181102362205
 20
-0.5148267716535433
 30
0.0
 10
-0.4400354330708662
 20
-0.5148267716535433
 30
0.0
 10
-0.4400354330708662
 20
-0.5148267716535433
 30
0.0
 10
-0.4400354330708662
 20
-0.5148267716535433
 30
0.0
 10
-0.4400354330708662
 20
-0.5148267716535433
 30
0.0
 10
-0.4400354330708662
 20
-0.507992125984252
 30
0.0
 10
-0.4400354330708662
 20
-0.507992125984252
 30
0.0
 10
-0.4400354330708662
 20
-0.507992125984252
 30
0.0
 10
-0.4368937007874016
 20
-0.507992125984252
 30
0.0
 10
-0.4346181102362205
 20
-0.5076889763779527
 30
0.0
 10
-0.433255905511811
 20
-0.5070472440944882
 30
0.0
 10
-0.433255905511811
 20
-0.5070472440944882
 30
0.0
 10
-0.4318661417322835
 20
-0.5064370078740158
 30
0.0
 10
-0.4306456692913386
 20
-0.5054370078740158
 30
0.0
 10
-0.4296181102362205
 20
-0.5040472440944882
 30
0.0
 10
-0.4296181102362205
 20
-0.5040472440944882
 30
0.0
 10
-0.4285905511811024
 20
-0.5026614173228347
 30
0.0
 10
-0.4272283464566929
 20
-0.499744094488189
 30
0.0
 10
-0.4255629921259843
 20
-0.4952992125984252
 30
0.0
 10
-0.4255629921259843
 20
-0.4952992125984252
 30
0.0
 10
-0.4255629921259843
 20
-0.4952992125984252
 30
0.0
 10
-0.3901456692913386
 20
-0.4012992125984252
 30
0.0
 10
-0.3901456692913386
 20
-0.4012992125984252
 30
0.0
  0
SPLINE
  5
31
330
1F
100
AcDbEntity
  8
LAYER_1
 62
   250
100
AcDbSpline
210
0.0
220
0.0
230
1.0
 70
    11
 71
     3
 72
    16
 73
    12
 74
     0
 42
0.0000000001
 43
0.0000000001
 40
0.0
 40
0.0
 40
0.0
 40
0.0
 40
0.3333333333333333
 40
0.3333333333333333
 40
0.3333333333333333
 40
0.3333333333333333
 40
0.6666666666666666
 40
0.6666666666666666
 40
0.6666666666666666
 40
0.6666666666666666
 40
1.0
 40
1.0
 40
1.0
 40
1.0
 10
-0.4043937007874016
 20
-0.4647716535433071
 30
0.0
 10
-0.4043937007874016
 20
-0.4647716535433071
 30
0.0
 10
-0.3693110236220473
 20
-0.4647716535433071
 30
0.0
 10
-0.3693110236220473
 20
-0.4647716535433071
 30
0.0
 10
-0.3693110236220473
 20
-0.4647716535433071
 30
0.0
 10
-0.3693110236220473
 20
-0.4647716535433071
 30
0.0
 10
-0.3868937007874016
 20
-0.4159370078740158
 30
0.0
 10
-0.3868937007874016
 20
-0.4159370078740158
 30
0.0
 10
-0.3868937007874016
 20
-0.4159370078740158
 30
0.0
 10
-0.3868937007874016
 20
-0.4159370078740158
 30
0.0
 10
-0.4043937007874016
 20
-0.4647716535433071
 30
0.0
 10
-0.4043937007874016
 20
-0.4647716535433071
 30
0.0
  0
SPLINE
  5
32
330
1F
100
AcDbEntity
  8
LAYER_1
 62
   250
100
AcDbSpline
210
0.0
220
0.0
230
1.0
 70
    11
 71
     3
 72
    72
 73
    68
 74
     0
 42
0.0000000001
 43
0.0000000001
 40
0.0
 40
0.0
 40
0.0
 40
0.0
 40
0.0588235294117647
 40
0.0588235294117647
 40
0.0588235294117647
 40
0.0588235294117647
 40
0.1176470588235294
 40
0.1176470588235294
 40
0.1176470588235294
 40
0.1176470588235294
 40
0.1764705882352941
 40
0.1764705882352941
 40
0.1764705882352941
 40
0.1764705882352941
 40
0.2352941176470588
 40
0.2352941176470588
 40
0.2352941176470588
 40
0.2352941176470588
 40
0.2941176470588235
 40
0.2941176470588235
 40
0.2941176470588235
 40
0.2941176470588235
 40
0.3529411764705883
 40
0.3529411764705883
 40
0.3529411764705883
 40
0.3529411764705883
 40
0.411764705882353
 40
0.411764705882353
 40
0.411764705882353
 40
0.411764705882353
 40
0.4705882352941177
 40
0.4705882352941177
 40
0.4705882352941177
 40
0.4705882352941177
 40
0.5294117647058824
 40
0.5294117647058824
 40
0.5294117647058824
 40
0.5294117647058824
 40
0.5882352941176471
 40
0.5882352941176471
 40
0.5882352941176471
 40
0.5882352941176471
 40
0.6470588235294118
 40
0.6470588235294118
 40
0.6470588235294118
 40
0.6470588235294118
 40
0.7058823529411765
 40
0.7058823529411765
 40
0.7058823529411765
 40
0.7058823529411765
 40
0.7647058823529412
 40
0.7647058823529412
 40
0.7647058823529412
 40
0.7647058823529412
 40
0.823529411764706
 40
0.823529411764706
 40
0.823529411764706
 40
0.823529411764706
 40
0.8823529411764707
 40
0.8823529411764707
 40
0.8823529411764707
 40
0.8823529411764707
 40
0.9411764705882354
 40
0.9411764705882354
 40
0.9411764705882354
 40
0.9411764705882354
 40
1.0
 40
1.0
 40
1.0
 40
1.0
 10
-0.1643110236220473
 20
-0.4012992125984252
 30
0.0
 10
-0.1643110236220473
 20
-0.4012992125984252
 30
0.0
 10
-0.1582283464566929
 20
-0.4012992125984252
 30
0.0
 10
-0.1582283464566929
 20
-0.4012992125984252
 30
0.0
 10
-0.1582283464566929
 20
-0.4012992125984252
 30
0.0
 10
-0.1582283464566929
 20
-0.4012992125984252
 30
0.0
 10
-0.1582283464566929
 20
-0.4955472440944882
 30
0.0
 10
-0.1582283464566929
 20
-0.4955472440944882
 30
0.0
 10
-0.1582283464566929
 20
-0.4955472440944882
 30
0.0
 10
-0.1582283464566929
 20
-0.499992125984252
 30
0.0
 10
-0.1579212598425197
 20
-0.5028543307086615
 30
0.0
 10
-0.1573661417322835
 20
-0.5041338582677165
 30
0.0
 10
-0.1573661417322835
 20
-0.5041338582677165
 30
0.0
 10
-0.1567834645669291
 20
-0.5054094488188977
 30
0.0
 10
-0.1558661417322835
 20
-0.5063543307086614
 30
0.0
 10
-0.1545629921259843
 20
-0.5070196850393701
 30
0.0
 10
-0.1545629921259843
 20
-0.5070196850393701
 30
0.0
 10
-0.153255905511811
 20
-0.5076614173228347
 30
0.0
 10
-0.1506732283464567
 20
-0.507992125984252
 30
0.0
 10
-0.1468110236220473
 20
-0.507992125984252
 30
0.0
 10
-0.1468110236220473
 20
-0.507992125984252
 30
0.0
 10
-0.1468110236220473
 20
-0.507992125984252
 30
0.0
 10
-0.1388385826771654
 20
-0.507992125984252
 30
0.0
 10
-0.1388385826771654
 20
-0.507992125984252
 30
0.0
 10
-0.1388385826771654
 20
-0.507992125984252
 30
0.0
 10
-0.1388385826771654
 20
-0.507992125984252
 30
0.0
 10
-0.1388385826771654
 20
-0.5148267716535433
 30
0.0
 10
-0.1388385826771654
 20
-0.5148267716535433
 30
0.0
 10
-0.1388385826771654
 20
-0.5148267716535433
 30
0.0
 10
-0.1388385826771654
 20
-0.5148267716535433
 30
0.0
 10
-0.1924763779527559
 20
-0.5148267716535433
 30
0.0
 10
-0.1924763779527559
 20
-0.5148267716535433
 30
0.0
 10
-0.1924763779527559
 20
-0.5148267716535433
 30
0.0
 10
-0.1924763779527559
 20
-0.5148267716535433
 30
0.0
 10
-0.1924763779527559
 20
-0.507992125984252
 30
0.0
 10
-0.1924763779527559
 20
-0.507992125984252
 30
0.0
 10
-0.1924763779527559
 20
-0.507992125984252
 30
0.0
 10
-0.1924763779527559
 20
-0.507992125984252
 30
0.0
 10
-0.1836181102362205
 20
-0.507992125984252
 30
0.0
 10
-0.1836181102362205
 20
-0.507992125984252
 30
0.0
 10
-0.1836181102362205
 20
-0.507992125984252
 30
0.0
 10
-0.179755905511811
 20
-0.507992125984252
 30
0.0
 10
-0.1772007874015748
 20
-0.5076614173228347
 30
0.0
 10
-0.1759212598425197
 20
-0.5069645669291338
 30
0.0
 10
-0.1759212598425197
 20
-0.5069645669291338
 30
0.0
 10
-0.1746456692913386
 20
-0.5062992125984253
 30
0.0
 10
-0.1736456692913386
 20
-0.5052165354330709
 30
0.0
 10
-0.1729488188976378
 20
-0.5037165354330709
 30
0.0
 10
-0.1729488188976378
 20
-0.5037165354330709
 30
0.0
 10
-0.172255905511811
 20
-0.5022165354330709
 30
0.0
 10
-0.1718937007874016
 20
-0.499492125984252
 30
0.0
 10
-0.1718937007874016
 20
-0.4955472440944882
 30
0.0
 10
-0.1718937007874016
 20
-0.4955472440944882
 30
0.0
 10
-0.1718937007874016
 20
-0.4955472440944882
 30
0.0
 10
-0.1718937007874016
 20
-0.4180787401574803
 30
0.0
 10
-0.1718937007874016
 20
-0.4180787401574803
 30
0.0
 10
-0.1718937007874016
 20
-0.4180787401574803
 30
0.0
 10
-0.1718937007874016
 20
-0.4180787401574803
 30
0.0
 10
-0.1924763779527559
 20
-0.4180787401574803
 30
0.0
 10
-0.1924763779527559
 20
-0.4180787401574803
 30
0.0
 10
-0.1924763779527559
 20
-0.4180787401574803
 30
0.0
 10
-0.1924763779527559
 20
-0.4180787401574803
 30
0.0
 10
-0.1924763779527559
 20
-0.4110787401574803
 30
0.0
 10
-0.1924763779527559
 20
-0.4110787401574803
 30
0.0
 10
-0.1924763779527559
 20
-0.4110787401574803
 30
0.0
 10
-0.181255905511811
 20
-0.409496062992126
 30
0.0
 10
-0.1718661417322835
 20
-0.406244094488189
 30
0.0
 10
-0.1643110236220473
 20
-0.4012992125984252
 30
0.0
  0
SPLINE
  5
33
330
1F
100
AcDbEntity
  8
LAYER_1
 62
   250
100
AcDbSpline
210
0.0
220
0.0
230
1.0
 70
    11
 71
     3
 72
    80
 73
    76
 74
     0
 42
0.0000000001
 43
0.0000000001
 40
0.0
 40
0.0
 40
0.0
 40
0.0
 40
0.0526315789473684
 40
0.0526315789473684
 40
0.0526315789473684
 40
0.0526315789473684
 40
0.1052631578947368
 40
0.1052631578947368
 40
0.1052631578947368
 40
0.1052631578947368
 40
0.1578947368421053
 40
0.1578947368421053
 40
0.1578947368421053
 40
0.1578947368421053
 40
0.2105263157894737
 40
0.2105263157894737
 40
0.2105263157894737
 40
0.2105263157894737
 40
0.2631578947368421
 40
0.2631578947368421
 40
0.2631578947368421
 40
0.2631578947368421
 40
0.3157894736842105
 40
0.3157894736842105
 40
0.3157894736842105
 40
0.3157894736842105
 40
0.3684210526315789
 40
0.3684210526315789
 40
0.3684210526315789
 40
0.3684210526315789
 40
0.4210526315789474
 40
0.4210526315789474
 40
0.4210526315789474
 40
0.4210526315789474
 40
0.4736842105263158
 40
0.4736842105263158
 40
0.4736842105263158
 40
0.4736842105263158
 40
0.5263157894736842
 40
0.5263157894736842
 40
0.5263157894736842
 40
0.5263157894736842
 40
0.5789473684210527
 40
0.5789473684210527
 40
0.5789473684210527
 40
0.5789473684210527
 40
0.631578947368421
 40
0.631578947368421
 40
0.631578947368421
 40
0.631578947368421
 40
0.6842105263157894
 40
0.6842105263157894
 40
0.6842105263157894
 40
0.6842105263157894
 40
0.7368421052631577
 40
0.7368421052631577
 40
0.7368421052631577
 40
0.7368421052631577
 40
0.7894736842105261
 40
0.7894736842105261
 40
0.7894736842105261
 40
0.7894736842105261
 40
0.8421052631578945
 40
0.8421052631578945
 40
0.8421052631578945
 40
0.8421052631578945
 40
0.8947368421052628
 40
0.8947368421052628
 40
0.8947368421052628
 40
0.8947368421052628
 40
0.9473684210526312
 40
0.9473684210526312
 40
0.9473684210526312
 40
0.9473684210526312
 40
1.0
 40
1.0
 40
1.0
 40
1.0
 10
-0.0988937007874016
 20
-0.3971614173228347
 30
0.0
 10
-0.0988937007874016
 20
-0.3971614173228347
 30
0.0
 10
-0.093503937007874
 20
-0.3971614173228347
 30
0.0
 10
-0.093503937007874
 20
-0.3971614173228347
 30
0.0
 10
-0.093503937007874
 20
-0.3971614173228347
 30
0.0
 10
-0.093503937007874
 20
-0.3971614173228347
 30
0.0
 10
-0.0925314960629921
 20
-0.4012992125984252
 30
0.0
 10
-0.0925314960629921
 20
-0.4012992125984252
 30
0.0
 10
-0.0925314960629921
 20
-0.4012992125984252
 30
0.0
 10
-0.0925314960629921
 20
-0.4012992125984252
 30
0.0
 10
-0.0214212598425197
 20
-0.4012992125984252
 30
0.0
 10
-0.0214212598425197
 20
-0.4012992125984252
 30
0.0
 10
-0.0214212598425197
 20
-0.4012992125984252
 30
0.0
 10
-0.0214212598425197
 20
-0.4012992125984252
 30
0.0
 10
-0.0214212598425197
 20
-0.4082165354330709
 30
0.0
 10
-0.0214212598425197
 20
-0.4082165354330709
 30
0.0
 10
-0.0214212598425197
 20
-0.4082165354330709
 30
0.0
 10
-0.0299212598425197
 20
-0.4180511811023622
 30
0.0
 10
-0.0376456692913386
 20
-0.4292165354330709
 30
0.0
 10
-0.0445590551181102
 20
-0.4417992125984252
 30
0.0
 10
-0.0445590551181102
 20
-0.4417992125984252
 30
0.0
 10
-0.0514763779527559
 20
-0.4543543307086614
 30
0.0
 10
-0.0568385826771654
 20
-0.4671338582677165
 30
0.0
 10
-0.0606456692913386
 20
-0.4801614173228347
 30
0.0
 10
-0.0606456692913386
 20
-0.4801614173228347
 30
0.0
 10
-0.0633937007874016
 20
-0.4895472440944882
 30
0.0
 10
-0.0656417322834646
 20
-0.5011062992125984
 30
0.0
 10
-0.0673937007874016
 20
-0.5148267716535433
 30
0.0
 10
-0.0673937007874016
 20
-0.5148267716535433
 30
0.0
 10
-0.0673937007874016
 20
-0.5148267716535433
 30
0.0
 10
-0.0840590551181102
 20
-0.5148267716535433
 30
0.0
 10
-0.0840590551181102
 20
-0.5148267716535433
 30
0.0
 10
-0.0840590551181102
 20
-0.5148267716535433
 30
0.0
 10
-0.0824488188976378
 20
-0.5027165354330709
 30
0.0
 10
-0.0797834645669291
 20
-0.4914094488188976
 30
0.0
 10
-0.0760590551181102
 20
-0.4808818897637796
 30
0.0
 10
-0.0760590551181102
 20
-0.4808818897637796
 30
0.0
 10
-0.0723385826771654
 20
-0.4703543307086615
 30
0.0
 10
-0.0669763779527559
 20
-0.4593543307086614
 30
0.0
 10
-0.0599488188976378
 20
-0.4478818897637795
 30
0.0
 10
-0.0599488188976378
 20
-0.4478818897637795
 30
0.0
 10
-0.0529212598425197
 20
-0.4364094488188977
 30
0.0
 10
-0.0443937007874016
 20
-0.4249645669291339
 30
0.0
 10
-0.0343385826771654
 20
-0.4135236220472441
 30
0.0
 10
-0.0343385826771654
 20
-0.4135236220472441
 30
0.0
 10
-0.0343385826771654
 20
-0.4135236220472441
 30
0.0
 10
-0.0850590551181102
 20
-0.4135236220472441
 30
0.0
 10
-0.0850590551181102
 20
-0.4135236220472441
 30
0.0
 10
-0.0850590551181102
 20
-0.4135236220472441
 30
0.0
 10
-0.0887283464566929
 20
-0.4135236220472441
 30
0.0
 10
-0.091255905511811
 20
-0.4136889763779528
 30
0.0
 10
-0.0926141732283465
 20
-0.4140787401574803
 30
0.0
 10
-0.0926141732283465
 20
-0.4140787401574803
 30
0.0
 10
-0.0939763779527559
 20
-0.4144645669291339
 30
0.0
 10
-0.0950314960629921
 20
-0.4150511811023622
 30
0.0
 10
-0.0957834645669291
 20
-0.4158543307086615
 30
0.0
 10
-0.0957834645669291
 20
-0.4158543307086615
 30
0.0
 10
-0.0965590551181102
 20
-0.4166889763779528
 30
0.0
 10
-0.0972007874015748
 20
-0.4181338582677165
 30
0.0
 10
-0.097755905511811
 20
-0.4201889763779528
 30
0.0
 10
-0.097755905511811
 20
-0.4201889763779528
 30
0.0
 10
-0.097755905511811
 20
-0.4201889763779528
 30
0.0
 10
-0.0981417322834646
 20
-0.4217165354330709
 30
0.0
 10
-0.0981417322834646
 20
-0.4217165354330709
 30
0.0
 10
-0.0981417322834646
 20
-0.4217165354330709
 30
0.0
 10
-0.0981417322834646
 20
-0.4217165354330709
 30
0.0
 10
-0.1009212598425197
 20
-0.4313267716535433
 30
0.0
 10
-0.1009212598425197
 20
-0.4313267716535433
 30
0.0
 10
-0.1009212598425197
 20
-0.4313267716535433
 30
0.0
 10
-0.1009212598425197
 20
-0.4313267716535433
 30
0.0
 10
-0.1078385826771654
 20
-0.4298543307086614
 30
0.0
 10
-0.1078385826771654
 20
-0.4298543307086614
 30
0.0
 10
-0.1078385826771654
 20
-0.4298543307086614
 30
0.0
 10
-0.1078385826771654
 20
-0.4298543307086614
 30
0.0
 10
-0.0988937007874016
 20
-0.3971614173228347
 30
0.0
 10
-0.0988937007874016
 20
-0.3971614173228347
 30
0.0
  0
SPLINE
  5
34
330
1F
100
AcDbEntity
  8
LAYER_1
 62
   250
100
AcDbSpline
210
0.0
220
0.0
230
1.0
 70
    11
 71
     3
 72
    76
 73
    72
 74
     0
 42
0.0000000001
 43
0.0000000001
 40
0.0
 40
0.0
 40
0.0
 40
0.0
 40
0.0555555555555556
 40
0.0555555555555556
 40
0.0555555555555556
 40
0.0555555555555556
 40
0.1111111111111111
 40
0.1111111111111111
 40
0.1111111111111111
 40
0.1111111111111111
 40
0.1666666666666667
 40
0.1666666666666667
 40
0.1666666666666667
 40
0.1666666666666667
 40
0.2222222222222222
 40
0.2222222222222222
 40
0.2222222222222222
 40
0.2222222222222222
 40
0.2777777777777778
 40
0.2777777777777778
 40
0.2777777777777778
 40
0.2777777777777778
 40
0.3333333333333334
 40
0.3333333333333334
 40
0.3333333333333334
 40
0.3333333333333334
 40
0.388888888888889
 40
0.388888888888889
 40
0.388888888888889
 40
0.388888888888889
 40
0.4444444444444445
 40
0.4444444444444445
 40
0.4444444444444445
 40
0.4444444444444445
 40
0.5000000000000001
 40
0.5000000000000001
 40
0.5000000000000001
 40
0.5000000000000001
 40
0.5555555555555557
 40
0.5555555555555557
 40
0.5555555555555557
 40
0.5555555555555557
 40
0.6111111111111113
 40
0.6111111111111113
 40
0.6111111111111113
 40
0.6111111111111113
 40
0.6666666666666669
 40
0.6666666666666669
 40
0.6666666666666669
 40
0.6666666666666669
 40
0.7222222222222224
 40
0.7222222222222224
 40
0.7222222222222224
 40
0.7222222222222224
 40
0.777777777777778
 40
0.777777777777778
 40
0.777777777777778
 40
0.777777777777778
 40
0.8333333333333336
 40
0.8333333333333336
 40
0.8333333333333336
 40
0.8333333333333336
 40
0.8888888888888892
 40
0.8888888888888892
 40
0.8888888888888892
 40
0.8888888888888892
 40
0.9444444444444448
 40
0.9444444444444448
 40
0.9444444444444448
 40
0.9444444444444448
 40
1.0
 40
1.0
 40
1.0
 40
1.0
 10
0.0508582677165354
 20
-0.4518267716535434
 30
0.0
 10
0.0572755905511811
 20
-0.4542716535433071
 30
0.0
 10
0.0621614173228347
 20
-0.4565787401574804
 30
0.0
 10
0.0655236220472441
 20
-0.458744094488189
 30
0.0
 10
0.0655236220472441
 20
-0.458744094488189
 30
0.0
 10
0.0704409448818898
 20
-0.4619094488188977
 30
0.0
 10
0.0741614173228347
 20
-0.4656062992125984
 30
0.0
 10
0.0766614173228346
 20
-0.4698543307086615
 30
0.0
 10
0.0766614173228346
 20
-0.4698543307086615
 30
0.0
 10
0.0791614173228346
 20
-0.4741338582677165
 30
0.0
 10
0.0804133858267717
 20
-0.478744094488189
 30
0.0
 10
0.0804133858267717
 20
-0.483744094488189
 30
0.0
 10
0.0804133858267717
 20
-0.483744094488189
 30
0.0
 10
0.0804133858267717
 20
-0.4926889763779528
 30
0.0
 10
0.0765511811023622
 20
-0.5004370078740158
 30
0.0
 10
0.0688582677165354
 20
-0.5069645669291338
 30
0.0
 10
0.0688582677165354
 20
-0.5069645669291338
 30
0.0
 10
0.0611338582677165
 20
-0.5135196850393701
 30
0.0
 10
0.050748031496063
 20
-0.5167716535433071
 30
0.0
 10
0.0376889763779528
 20
-0.5167716535433071
 30
0.0
 10
0.0376889763779528
 20
-0.5167716535433071
 30
0.0
 10
0.0238582677165354
 20
-0.5167716535433071
 30
0.0
 10
0.012996062992126
 20
-0.5130787401574803
 30
0.0
 10
0.0051338582677165
 20
-0.5057165354330709
 30
0.0
 10
0.0051338582677165
 20
-0.5057165354330709
 30
0.0
 10
-0.0011141732283465
 20
-0.4997992125984252
 30
0.0
 10
-0.0042244094488189
 20
-0.4931062992125985
 30
0.0
 10
-0.0042244094488189
 20
-0.4856062992125985
 30
0.0
 10
-0.0042244094488189
 20
-0.4856062992125985
 30
0.0
 10
-0.0042244094488189
 20
-0.4795787401574803
 30
0.0
 10
-0.0021141732283465
 20
-0.4741889763779528
 30
0.0
 10
0.0021062992125984
 20
-0.4694094488188977
 30
0.0
 10
0.0021062992125984
 20
-0.4694094488188977
 30
0.0
 10
0.0072204724409449
 20
-0.4637165354330709
 30
0.0
 10
0.014496062992126
 20
-0.4592716535433071
 30
0.0
 10
0.0239409448818898
 20
-0.4560787401574803
 30
0.0
 10
0.0239409448818898
 20
-0.4560787401574803
 30
0.0
 10
0.0165511811023622
 20
-0.4526062992125984
 30
0.0
 10
0.011248031496063
 20
-0.4490787401574803
 30
0.0
 10
0.0079685039370079
 20
-0.445492125984252
 30
0.0
 10
0.0079685039370079
 20
-0.445492125984252
 30
0.0
 10
0.0038031496062992
 20
-0.4407716535433071
 30
0.0
 10
0.0017204724409449
 20
-0.4351062992125985
 30
0.0
 10
0.0017204724409449
 20
-0.428496062992126
 30
0.0
 10
0.0017204724409449
 20
-0.428496062992126
 30
0.0
 10
0.0017204724409449
 20
-0.4202992125984252
 30
0.0
 10
0.0048031496062992
 20
-0.4136614173228347
 30
0.0
 10
0.010996062992126
 20
-0.4086338582677165
 30
0.0
 10
0.010996062992126
 20
-0.4086338582677165
 30
0.0
 10
0.0185787401574803
 20
-0.4024370078740158
 30
0.0
 10
0.0280787401574803
 20
-0.3993543307086614
 30
0.0
 10
0.0394685039370079
 20
-0.3993543307086614
 30
0.0
 10
0.0394685039370079
 20
-0.3993543307086614
 30
0.0
 10
0.0498858267716535
 20
-0.3993543307086614
 30
0.0
 10
0.0583031496062992
 20
-0.4020236220472441
 30
0.0
 10
0.064748031496063
 20
-0.4073543307086615
 30
0.0
 10
0.064748031496063
 20
-0.4073543307086615
 30
0.0
 10
0.0711614173228347
 20
-0.4127165354330709
 30
0.0
 10
0.0743858267716535
 20
-0.4188267716535433
 30
0.0
 10
0.0743858267716535
 20
-0.4257165354330709
 30
0.0
 10
0.0743858267716535
 20
-0.4257165354330709
 30
0.0
 10
0.0743858267716535
 20
-0.4291338582677166
 30
0.0
 10
0.0735787401574803
 20
-0.4324094488188977
 30
0.0
 10
0.071996062992126
 20
-0.4355236220472441
 30
0.0
 10
0.071996062992126
 20
-0.4355236220472441
 30
0.0
 10
0.0703858267716535
 20
-0.4386338582677166
 30
0.0
 10
0.0679409448818898
 20
-0.4415511811023622
 30
0.0
 10
0.0646062992125984
 20
-0.4442165354330709
 30
0.0
 10
0.0646062992125984
 20
-0.4442165354330709
 30
0.0
 10
0.0613031496062992
 20
-0.4469094488188977
 30
0.0
 10
0.0567165354330709
 20
-0.4494370078740158
 30
0.0
 10
0.0508582677165354
 20
-0.4518267716535434
 30
0.0
  0
SPLINE
  5
35
330
1F
100
AcDbEntity
  8
LAYER_1
 62
   250
100
AcDbSpline
210
0.0
220
0.0
230
1.0
 70
    11
 71
     3
 72
    48
 73
    44
 74
     0
 42
0.0000000001
 43
0.0000000001
 40
0.0
 40
0.0
 40
0.0
 40
0.0
 40
0.0909090909090909
 40
0.0909090909090909
 40
0.0909090909090909
 40
0.0909090909090909
 40
0.1818181818181818
 40
0.1818181818181818
 40
0.1818181818181818
 40
0.1818181818181818
 40
0.2727272727272727
 40
0.2727272727272727
 40
0.2727272727272727
 40
0.2727272727272727
 40
0.3636363636363637
 40
0.3636363636363637
 40
0.3636363636363637
 40
0.3636363636363637
 40
0.4545454545454546
 40
0.4545454545454546
 40
0.4545454545454546
 40
0.4545454545454546
 40
0.5454545454545455
 40
0.5454545454545455
 40
0.5454545454545455
 40
0.5454545454545455
 40
0.6363636363636365
 40
0.6363636363636365
 40
0.6363636363636365
 40
0.6363636363636365
 40
0.7272727272727274
 40
0.7272727272727274
 40
0.7272727272727274
 40
0.7272727272727274
 40
0.8181818181818183
 40
0.8181818181818183
 40
0.8181818181818183
 40
0.8181818181818183
 40
0.9090909090909093
 40
0.9090909090909093
 40
0.9090909090909093
 40
0.9090909090909093
 40
1.0
 40
1.0
 40
1.0
 40
1.0
 10
0.0434685039370079
 20
-0.4488267716535433
 30
0.0
 10
0.0496338582677165
 20
-0.4441614173228347
 30
0.0
 10
0.0536614173228347
 20
-0.4409094488188977
 30
0.0
 10
0.055496062992126
 20
-0.4390511811023622
 30
0.0
 10
0.055496062992126
 20
-0.4390511811023622
 30
0.0
 10
0.0573582677165354
 20
-0.4372165354330709
 30
0.0
 10
0.0587755905511811
 20
-0.4351062992125985
 30
0.0
 10
0.0597755905511811
 20
-0.432744094488189
 30
0.0
 10
0.0597755905511811
 20
-0.432744094488189
 30
0.0
 10
0.0607755905511811
 20
-0.4303818897637796
 30
0.0
 10
0.0612755905511811
 20
-0.4281062992125985
 30
0.0
 10
0.0612755905511811
 20
-0.4258818897637796
 30
0.0
 10
0.0612755905511811
 20
-0.4258818897637796
 30
0.0
 10
0.0612755905511811
 20
-0.4226889763779528
 30
0.0
 10
0.0603307086614173
 20
-0.4196338582677165
 30
0.0
 10
0.0584409448818898
 20
-0.4167165354330709
 30
0.0
 10
0.0584409448818898
 20
-0.4167165354330709
 30
0.0
 10
0.0565236220472441
 20
-0.4138267716535433
 30
0.0
 10
0.053748031496063
 20
-0.4114645669291339
 30
0.0
 10
0.0500787401574803
 20
-0.4096889763779528
 30
0.0
 10
0.0500787401574803
 20
-0.4096889763779528
 30
0.0
 10
0.0464409448818898
 20
-0.4078818897637795
 30
0.0
 10
0.0423307086614173
 20
-0.406996062992126
 30
0.0
 10
0.0377755905511811
 20
-0.406996062992126
 30
0.0
 10
0.0377755905511811
 20
-0.406996062992126
 30
0.0
 10
0.0310236220472441
 20
-0.406996062992126
 30
0.0
 10
0.0254409448818898
 20
-0.4088543307086615
 30
0.0
 10
0.020996062992126
 20
-0.4125787401574803
 30
0.0
 10
0.020996062992126
 20
-0.4125787401574803
 30
0.0
 10
0.0165511811023622
 20
-0.4162992125984252
 30
0.0
 10
0.0143307086614173
 20
-0.4205787401574803
 30
0.0
 10
0.0143307086614173
 20
-0.4254645669291339
 30
0.0
 10
0.0143307086614173
 20
-0.4254645669291339
 30
0.0
 10
0.0143307086614173
 20
-0.4293818897637796
 30
0.0
 10
0.0157204724409449
 20
-0.4328818897637796
 30
0.0
 10
0.0184685039370079
 20
-0.4359645669291339
 30
0.0
 10
0.0184685039370079
 20
-0.4359645669291339
 30
0.0
 10
0.021248031496063
 20
-0.4390511811023622
 30
0.0
 10
0.0263858267716535
 20
-0.4421062992125984
 30
0.0
 10
0.0339409448818898
 20
-0.4450787401574803
 30
0.0
 10
0.0339409448818898
 20
-0.4450787401574803
 30
0.0
 10
0.0339409448818898
 20
-0.4450787401574803
 30
0.0
 10
0.0434685039370079
 20
-0.4488267716535433
 30
0.0
 10
0.0434685039370079
 20
-0.4488267716535433
 30
0.0
  0
SPLINE
  5
36
330
1F
100
AcDbEntity
  8
LAYER_1
 62
   250
100
AcDbSpline
210
0.0
220
0.0
230
1.0
 70
    11
 71
     3
 72
    40
 73
    36
 74
     0
 42
0.0000000001
 43
0.0000000001
 40
0.0
 40
0.0
 40
0.0
 40
0.0
 40
0.1111111111111111
 40
0.1111111111111111
 40
0.1111111111111111
 40
0.1111111111111111
 40
0.2222222222222222
 40
0.2222222222222222
 40
0.2222222222222222
 40
0.2222222222222222
 40
0.3333333333333333
 40
0.3333333333333333
 40
0.3333333333333333
 40
0.3333333333333333
 40
0.4444444444444444
 40
0.4444444444444444
 40
0.4444444444444444
 40
0.4444444444444444
 40
0.5555555555555556
 40
0.5555555555555556
 40
0.5555555555555556
 40
0.5555555555555556
 40
0.6666666666666667
 40
0.6666666666666667
 40
0.6666666666666667
 40
0.6666666666666667
 40
0.7777777777777779
 40
0.7777777777777779
 40
0.7777777777777779
 40
0.7777777777777779
 40
0.8888888888888891
 40
0.8888888888888891
 40
0.8888888888888891
 40
0.8888888888888891
 40
1.0
 40
1.0
 40
1.0
 40
1.0
 10
0.031996062992126
 20
-0.459244094488189
 30
0.0
 10
0.0243307086614173
 20
-0.4626062992125984
 30
0.0
 10
0.0182755905511811
 20
-0.4669645669291339
 30
0.0
 10
0.0138307086614173
 20
-0.4723543307086615
 30
0.0
 10
0.0138307086614173
 20
-0.4723543307086615
 30
0.0
 10
0.0103582677165354
 20
-0.4765787401574803
 30
0.0
 10
0.0086338582677165
 20
-0.4809645669291339
 30
0.0
 10
0.0086338582677165
 20
-0.4855196850393701
 30
0.0
 10
0.0086338582677165
 20
-0.4855196850393701
 30
0.0
 10
0.0086338582677165
 20
-0.4917165354330709
 30
0.0
 10
0.0113582677165354
 20
-0.4972165354330709
 30
0.0
 10
0.0168582677165354
 20
-0.5020196850393701
 30
0.0
 10
0.0168582677165354
 20
-0.5020196850393701
 30
0.0
 10
0.0223307086614173
 20
-0.5067992125984252
 30
0.0
 10
0.0294133858267717
 20
-0.5092165354330709
 30
0.0
 10
0.0380787401574803
 20
-0.5092165354330709
 30
0.0
 10
0.0380787401574803
 20
-0.5092165354330709
 30
0.0
 10
0.0469409448818898
 20
-0.5092165354330709
 30
0.0
 10
0.0543031496062992
 20
-0.5064645669291339
 30
0.0
 10
0.0602165354330709
 20
-0.500992125984252
 30
0.0
 10
0.0602165354330709
 20
-0.500992125984252
 30
0.0
 10
0.0650511811023622
 20
-0.4965472440944882
 30
0.0
 10
0.0674685039370079
 20
-0.4917716535433071
 30
0.0
 10
0.0674685039370079
 20
-0.4866614173228347
 30
0.0
 10
0.0674685039370079
 20
-0.4866614173228347
 30
0.0
 10
0.0674685039370079
 20
-0.4826614173228347
 30
0.0
 10
0.0658858267716535
 20
-0.4788267716535433
 30
0.0
 10
0.0627165354330709
 20
-0.4751614173228347
 30
0.0
 10
0.0627165354330709
 20
-0.4751614173228347
 30
0.0
 10
0.0595236220472441
 20
-0.471492125984252
 30
0.0
 10
0.0536338582677165
 20
-0.4679370078740158
 30
0.0
 10
0.044996062992126
 20
-0.4644645669291339
 30
0.0
 10
0.044996062992126
 20
-0.4644645669291339
 30
0.0
 10
0.044996062992126
 20
-0.4644645669291339
 30
0.0
 10
0.031996062992126
 20
-0.459244094488189
 30
0.0
 10
0.031996062992126
 20
-0.459244094488189
 30
0.0
  0
SPLINE
  5
37
330
1F
100
AcDbEntity
  8
LAYER_1
 62
   250
100
AcDbSpline
210
0.0
220
0.0
230
1.0
 70
    11
 71
     3
 72
    48
 73
    44
 74
     0
 42
0.0000000001
 43
0.0000000001
 40
0.0
 40
0.0
 40
0.0
 40
0.0
 40
0.0909090909090909
 40
0.0909090909090909
 40
0.0909090909090909
 40
0.0909090909090909
 40
0.1818181818181818
 40
0.1818181818181818
 40
0.1818181818181818
 40
0.1818181818181818
 40
0.2727272727272727
 40
0.2727272727272727
 40
0.2727272727272727
 40
0.2727272727272727
 40
0.3636363636363637
 40
0.3636363636363637
 40
0.3636363636363637
 40
0.3636363636363637
 40
0.4545454545454546
 40
0.4545454545454546
 40
0.4545454545454546
 40
0.4545454545454546
 40
0.5454545454545455
 40
0.5454545454545455
 40
0.5454545454545455
 40
0.5454545454545455
 40
0.6363636363636365
 40
0.6363636363636365
 40
0.6363636363636365
 40
0.6363636363636365
 40
0.7272727272727274
 40
0.7272727272727274
 40
0.7272727272727274
 40
0.7272727272727274
 40
0.8181818181818183
 40
0.8181818181818183
 40
0.8181818181818183
 40
0.8181818181818183
 40
0.9090909090909093
 40
0.9090909090909093
 40
0.9090909090909093
 40
0.9090909090909093
 40
1.0
 40
1.0
 40
1.0
 40
1.0
 10
0.1501653543307087
 20
-0.4012992125984252
 30
0.0
 10
0.1501653543307087
 20
-0.4012992125984252
 30
0.0
 10
0.1639133858267717
 20
-0.4012992125984252
 30
0.0
 10
0.1639133858267717
 20
-0.4012992125984252
 30
0.0
 10
0.1639133858267717
 20
-0.4012992125984252
 30
0.0
 10
0.1639133858267717
 20
-0.4012992125984252
 30
0.0
 10
0.1639133858267717
 20
-0.4672992125984252
 30
0.0
 10
0.1639133858267717
 20
-0.4672992125984252
 30
0.0
 10
0.1639133858267717
 20
-0.4672992125984252
 30
0.0
 10
0.1639133858267717
 20
-0.4672992125984252
 30
0.0
 10
0.185248031496063
 20
-0.4672992125984252
 30
0.0
 10
0.185248031496063
 20
-0.4672992125984252
 30
0.0
 10
0.185248031496063
 20
-0.4672992125984252
 30
0.0
 10
0.185248031496063
 20
-0.4672992125984252
 30
0.0
 10
0.185248031496063
 20
-0.4774645669291339
 30
0.0
 10
0.185248031496063
 20
-0.4774645669291339
 30
0.0
 10
0.185248031496063
 20
-0.4774645669291339
 30
0.0
 10
0.185248031496063
 20
-0.4774645669291339
 30
0.0
 10
0.1639133858267717
 20
-0.4774645669291339
 30
0.0
 10
0.1639133858267717
 20
-0.4774645669291339
 30
0.0
 10
0.1639133858267717
 20
-0.4774645669291339
 30
0.0
 10
0.1639133858267717
 20
-0.4774645669291339
 30
0.0
 10
0.1639133858267717
 20
-0.5148267716535433
 30
0.0
 10
0.1639133858267717
 20
-0.5148267716535433
 30
0.0
 10
0.1639133858267717
 20
-0.5148267716535433
 30
0.0
 10
0.1639133858267717
 20
-0.5148267716535433
 30
0.0
 10
0.1501653543307087
 20
-0.5148267716535433
 30
0.0
 10
0.1501653543307087
 20
-0.5148267716535433
 30
0.0
 10
0.1501653543307087
 20
-0.5148267716535433
 30
0.0
 10
0.1501653543307087
 20
-0.5148267716535433
 30
0.0
 10
0.1501653543307087
 20
-0.4774645669291339
 30
0.0
 10
0.1501653543307087
 20
-0.4774645669291339
 30
0.0
 10
0.1501653543307087
 20
-0.4774645669291339
 30
0.0
 10
0.1501653543307087
 20
-0.4774645669291339
 30
0.0
 10
0.0966929133858268
 20
-0.4774645669291339
 30
0.0
 10
0.0966929133858268
 20
-0.4774645669291339
 30
0.0
 10
0.0966929133858268
 20
-0.4774645669291339
 30
0.0
 10
0.0966929133858268
 20
-0.4774645669291339
 30
0.0
 10
0.0966929133858268
 20
-0.4631614173228347
 30
0.0
 10
0.0966929133858268
 20
-0.4631614173228347
 30
0.0
 10
0.0966929133858268
 20
-0.4631614173228347
 30
0.0
 10
0.0966929133858268
 20
-0.4631614173228347
 30
0.0
 10
0.1501653543307087
 20
-0.4012992125984252
 30
0.0
 10
0.1501653543307087
 20
-0.4012992125984252
 30
0.0
  0
SPLINE
  5
38
330
1F
100
AcDbEntity
  8
LAYER_1
 62
   250
100
AcDbSpline
210
0.0
220
0.0
230
1.0
 70
    11
 71
     3
 72
    16
 73
    12
 74
     0
 42
0.0000000001
 43
0.0000000001
 40
0.0
 40
0.0
 40
0.0
 40
0.0
 40
0.3333333333333333
 40
0.3333333333333333
 40
0.3333333333333333
 40
0.3333333333333333
 40
0.6666666666666666
 40
0.6666666666666666
 40
0.6666666666666666
 40
0.6666666666666666
 40
1.0
 40
1.0
 40
1.0
 40
1.0
 10
0.1501653543307087
 20
-0.4672992125984252
 30
0.0
 10
0.1501653543307087
 20
-0.4672992125984252
 30
0.0
 10
0.1501653543307087
 20
-0.4139094488188976
 30
0.0
 10
0.1501653543307087
 20
-0.4139094488188976
 30
0.0
 10
0.1501653543307087
 20
-0.4139094488188976
 30
0.0
 10
0.1501653543307087
 20
-0.4139094488188976
 30
0.0
 10
0.1041102362204724
 20
-0.4672992125984252
 30
0.0
 10
0.1041102362204724
 20
-0.4672992125984252
 30
0.0
 10
0.1041102362204724
 20
-0.4672992125984252
 30
0.0
 10
0.1041102362204724
 20
-0.4672992125984252
 30
0.0
 10
0.1501653543307087
 20
-0.4672992125984252
 30
0.0
 10
0.1501653543307087
 20
-0.4672992125984252
 30
0.0
  0
SPLINE
  5
39
330
1F
100
AcDbEntity
  8
LAYER_1
 62
   250
100
AcDbSpline
210
0.0
220
0.0
230
1.0
 70
    11
 71
     3
 72
   172
 73
   168
 74
     0
 42
0.0000000001
 43
0.0000000001
 40
0.0
 40
0.0
 40
0.0
 40
0.0
 40
0.0238095238095238
 40
0.0238095238095238
 40
0.0238095238095238
 40
0.0238095238095238
 40
0.0476190476190476
 40
0.0476190476190476
 40
0.0476190476190476
 40
0.0476190476190476
 40
0.0714285714285714
 40
0.0714285714285714
 40
0.0714285714285714
 40
0.0714285714285714
 40
0.0952380952380952
 40
0.0952380952380952
 40
0.0952380952380952
 40
0.0952380952380952
 40
0.119047619047619
 40
0.119047619047619
 40
0.119047619047619
 40
0.119047619047619
 40
0.1428571428571429
 40
0.1428571428571429
 40
0.1428571428571429
 40
0.1428571428571429
 40
0.1666666666666667
 40
0.1666666666666667
 40
0.1666666666666667
 40
0.1666666666666667
 40
0.1904761904761905
 40
0.1904761904761905
 40
0.1904761904761905
 40
0.1904761904761905
 40
0.2142857142857143
 40
0.2142857142857143
 40
0.2142857142857143
 40
0.2142857142857143
 40
0.2380952380952381
 40
0.2380952380952381
 40
0.2380952380952381
 40
0.2380952380952381
 40
0.2619047619047619
 40
0.2619047619047619
 40
0.2619047619047619
 40
0.2619047619047619
 40
0.2857142857142857
 40
0.2857142857142857
 40
0.2857142857142857
 40
0.2857142857142857
 40
0.3095238095238095
 40
0.3095238095238095
 40
0.3095238095238095
 40
0.3095238095238095
 40
0.3333333333333334
 40
0.3333333333333334
 40
0.3333333333333334
 40
0.3333333333333334
 40
0.3571428571428572
 40
0.3571428571428572
 40
0.3571428571428572
 40
0.3571428571428572
 40
0.380952380952381
 40
0.380952380952381
 40
0.380952380952381
 40
0.380952380952381
 40
0.4047619047619049
 40
0.4047619047619049
 40
0.4047619047619049
 40
0.4047619047619049
 40
0.4285714285714287
 40
0.4285714285714287
 40
0.4285714285714287
 40
0.4285714285714287
 40
0.4523809523809526
 40
0.4523809523809526
 40
0.4523809523809526
 40
0.4523809523809526
 40
0.4761904761904764
 40
0.4761904761904764
 40
0.4761904761904764
 40
0.4761904761904764
 40
0.5000000000000002
 40
0.5000000000000002
 40
0.5000000000000002
 40
0.5000000000000002
 40
0.5238095238095241
 40
0.5238095238095241
 40
0.5238095238095241
 40
0.5238095238095241
 40
0.5476190476190479
 40
0.5476190476190479
 40
0.5476190476190479
 40
0.5476190476190479
 40
0.5714285714285717
 40
0.5714285714285717
 40
0.5714285714285717
 40
0.5714285714285717
 40
0.5952380952380956
 40
0.5952380952380956
 40
0.5952380952380956
 40
0.5952380952380956
 40
0.6190476190476194
 40
0.6190476190476194
 40
0.6190476190476194
 40
0.6190476190476194
 40
0.6428571428571432
 40
0.6428571428571432
 40
0.6428571428571432
 40
0.6428571428571432
 40
0.6666666666666671
 40
0.6666666666666671
 40
0.6666666666666671
 40
0.6666666666666671
 40
0.6904761904761909
 40
0.6904761904761909
 40
0.6904761904761909
 40
0.6904761904761909
 40
0.7142857142857148
 40
0.7142857142857148
 40
0.7142857142857148
 40
0.7142857142857148
 40
0.7380952380952386
 40
0.7380952380952386
 40
0.7380952380952386
 40
0.7380952380952386
 40
0.7619047619047624
 40
0.7619047619047624
 40
0.7619047619047624
 40
0.7619047619047624
 40
0.7857142857142863
 40
0.7857142857142863
 40
0.7857142857142863
 40
0.7857142857142863
 40
0.8095238095238101
 40
0.8095238095238101
 40
0.8095238095238101
 40
0.8095238095238101
 40
0.8333333333333339
 40
0.8333333333333339
 40
0.8333333333333339
 40
0.8333333333333339
 40
0.8571428571428578
 40
0.8571428571428578
 40
0.8571428571428578
 40
0.8571428571428578
 40
0.8809523809523816
 40
0.8809523809523816
 40
0.8809523809523816
 40
0.8809523809523816
 40
0.9047619047619054
 40
0.9047619047619054
 40
0.9047619047619054
 40
0.9047619047619054
 40
0.9285714285714293
 40
0.9285714285714293
 40
0.9285714285714293
 40
0.9285714285714293
 40
0.9523809523809531
 40
0.9523809523809531
 40
0.9523809523809531
 40
0.9523809523809531
 40
0.9761904761904769
 40
0.9761904761904769
 40
0.9761904761904769
 40
0.9761904761904769
 40
1.0
 40
1.0
 40
1.0
 40
1.0
 10
-0.7215157480314961
 20
-0.6191614173228347
 30
0.0
 10
-0.7215157480314961
 20
-0.6191614173228347
 30
0.0
 10
-0.7293228346456693
 20
-0.6179370078740157
 30
0.0
 10
-0.7293228346456693
 20
-0.6179370078740157
 30
0.0
 10
-0.7293228346456693
 20
-0.6179370078740157
 30
0.0
 10
-0.7286259842519686
 20
-0.6120787401574803
 30
0.0
 10
-0.7270984251968504
 20
-0.6072165354330709
 30
0.0
 10
-0.7247637795275591
 20
-0.6033543307086614
 30
0.0
 10
-0.7247637795275591
 20
-0.6033543307086614
 30
0.0
 10
-0.7216811023622047
 20
-0.5981614173228347
 30
0.0
 10
-0.7173228346456694
 20
-0.5941062992125985
 30
0.0
 10
-0.7116811023622047
 20
-0.5912165354330708
 30
0.0
 10
-0.7116811023622047
 20
-0.5912165354330708
 30
0.0
 10
-0.7060157480314961
 20
-0.5882992125984252
 30
0.0
 10
-0.6995433070866142
 20
-0.5868543307086614
 30
0.0
 10
-0.6922086614173229
 20
-0.5868543307086614
 30
0.0
 10
-0.6922086614173229
 20
-0.5868543307086614
 30
0.0
 10
-0.6850157480314961
 20
-0.5868543307086614
 30
0.0
 10
-0.6786535433070866
 20
-0.5881338582677166
 30
0.0
 10
-0.6731811023622047
 20
-0.5907165354330709
 30
0.0
 10
-0.6731811023622047
 20
-0.5907165354330709
 30
0.0
 10
-0.6677086614173229
 20
-0.5932992125984252
 30
0.0
 10
-0.6635708661417323
 20
-0.5967165354330709
 30
0.0
 10
-0.6607677165354331
 20
-0.6009645669291339
 30
0.0
 10
-0.6607677165354331
 20
-0.6009645669291339
 30
0.0
 10
-0.6579606299212599
 20
-0.6052165354330709
 30
0.0
 10
-0.6565708661417323
 20
-0.6098267716535434
 30
0.0
 10
-0.6565708661417323
 20
-0.6147716535433071
 30
0.0
 10
-0.6565708661417323
 20
-0.6147716535433071
 30
0.0
 10
-0.6565708661417323
 20
-0.6191062992125984
 30
0.0
 10
-0.6576259842519685
 20
-0.622992125984252
 30
0.0
 10
-0.659740157480315
 20
-0.6264094488188977
 30
0.0
 10
-0.659740157480315
 20
-0.6264094488188977
 30
0.0
 10
-0.6618779527559056
 20
-0.6298267716535433
 30
0.0
 10
-0.6650157480314961
 20
-0.6328818897637796
 30
0.0
 10
-0.6691811023622047
 20
-0.6356062992125985
 30
0.0
 10
-0.6691811023622047
 20
-0.6356062992125985
 30
0.0
 10
-0.6721259842519686
 20
-0.637492125984252
 30
0.0
 10
-0.6759330708661417
 20
-0.6391614173228347
 30
0.0
 10
-0.6806535433070866
 20
-0.6405511811023622
 30
0.0
 10
-0.6806535433070866
 20
-0.6405511811023622
 30
0.0
 10
-0.6756259842519685
 20
-0.6412716535433071
 30
0.0
 10
-0.671488188976378
 20
-0.6424370078740158
 30
0.0
 10
-0.6682952755905512
 20
-0.6440511811023623
 30
0.0
 10
-0.6682952755905512
 20
-0.6440511811023623
 30
0.0
 10
-0.6630984251968505
 20
-0.6467165354330708
 30
0.0
 10
-0.658988188976378
 20
-0.6503818897637795
 30
0.0
 10
-0.6560157480314961
 20
-0.6550511811023623
 30
0.0
 10
-0.6560157480314961
 20
-0.6550511811023623
 30
0.0
 10
-0.6530157480314961
 20
-0.6597165354330709
 30
0.0
 10
-0.6515433070866142
 20
-0.6648267716535433
 30
0.0
 10
-0.6515433070866142
 20
-0.6704370078740157
 30
0.0
 10
-0.6515433070866142
 20
-0.6704370078740157
 30
0.0
 10
-0.6515433070866142
 20
-0.6793818897637796
 30
0.0
 10
-0.6554606299212599
 20
-0.6872716535433071
 30
0.0
 10
-0.6633228346456693
 20
-0.6940787401574804
 30
0.0
 10
-0.6633228346456693
 20
-0.6940787401574804
 30
0.0
 10
-0.6712086614173228
 20
-0.7008818897637795
 30
0.0
 10
-0.6813779527559055
 20
-0.7042716535433071
 30
0.0
 10
-0.6938503937007874
 20
-0.7042716535433071
 30
0.0
 10
-0.6938503937007874
 20
-0.7042716535433071
 30
0.0
 10
-0.7061535433070867
 20
-0.7042716535433071
 30
0.0
 10
-0.7165157480314961
 20
-0.700992125984252
 30
0.0
 10
-0.7249330708661418
 20
-0.6944370078740157
 30
0.0
 10
-0.7249330708661418
 20
-0.6944370078740157
 30
0.0
 10
-0.731988188976378
 20
-0.6888543307086614
 30
0.0
 10
-0.7355157480314961
 20
-0.6832165354330709
 30
0.0
 10
-0.7355157480314961
 20
-0.6775787401574803
 30
0.0
 10
-0.7355157480314961
 20
-0.6775787401574803
 30
0.0
 10
-0.7355157480314961
 20
-0.6753543307086615
 30
0.0
 10
-0.7347913385826772
 20
-0.673492125984252
 30
0.0
 10
-0.7333503937007875
 20
-0.6720196850393702
 30
0.0
 10
-0.7333503937007875
 20
-0.6720196850393702
 30
0.0
 10
-0.7319330708661418
 20
-0.6705196850393701
 30
0.0
 10
-0.7301259842519685
 20
-0.6697716535433071
 30
0.0
 10
-0.7279330708661418
 20
-0.6697716535433071
 30
0.0
 10
-0.7279330708661418
 20
-0.6697716535433071
 30
0.0
 10
-0.7255708661417323
 20
-0.6697716535433071
 30
0.0
 10
-0.7235157480314961
 20
-0.6706889763779528
 30
0.0
 10
-0.7218503937007874
 20
-0.6725511811023622
 30
0.0
 10
-0.7218503937007874
 20
-0.6725511811023622
 30
0.0
 10
-0.7209330708661418
 20
-0.6735787401574803
 30
0.0
 10
-0.7198503937007874
 20
-0.6760472440944882
 30
0.0
 10
-0.7186811023622047
 20
-0.6799370078740158
 30
0.0
 10
-0.7186811023622047
 20
-0.6799370078740158
 30
0.0
 10
-0.716988188976378
 20
-0.6854370078740157
 30
0.0
 10
-0.7141259842519685
 20
-0.6896062992125984
 30
0.0
 10
-0.7101259842519685
 20
-0.6924645669291338
 30
0.0
 10
-0.7101259842519685
 20
-0.6924645669291338
 30
0.0
 10
-0.7060984251968504
 20
-0.6953543307086615
 30
0.0
 10
-0.7011259842519685
 20
-0.6967992125984253
 30
0.0
 10
-0.6951535433070867
 20
-0.6967992125984253
 30
0.0
 10
-0.6951535433070867
 20
-0.6967992125984253
 30
0.0
 10
-0.6898228346456693
 20
-0.6967992125984253
 30
0.0
 10
-0.6850708661417323
 20
-0.6956338582677165
 30
0.0
 10
-0.6808779527559056
 20
-0.6932992125984252
 30
0.0
 10
-0.6808779527559056
 20
-0.6932992125984252
 30
0.0
 10
-0.6766535433070866
 20
-0.6909645669291339
 30
0.0
 10
-0.6733503937007874
 20
-0.6876614173228347
 30
0.0
 10
-0.6709055118110237
 20
-0.6833543307086615
 30
0.0
 10
-0.6709055118110237
 20
-0.6833543307086615
 30
0.0
 10
-0.6684606299212599
 20
-0.6790787401574804
 30
0.0
 10
-0.667236220472441
 20
-0.6743818897637796
 30
0.0
 10
-0.667236220472441
 20
-0.6692992125984252
 30
0.0
 10
-0.667236220472441
 20
-0.6692992125984252
 30
0.0
 10
-0.667236220472441
 20
-0.6651614173228346
 30
0.0
 10
-0.6681259842519686
 20
-0.6614645669291339
 30
0.0
 10
-0.6698779527559056
 20
-0.6581889763779528
 30
0.0
 10
-0.6698779527559056
 20
-0.6581889763779528
 30
0.0
 10
-0.6716535433070866
 20
-0.6548818897637796
 30
0.0
 10
-0.6741535433070867
 20
-0.6521062992125984
 30
0.0
 10
-0.6774055118110236
 20
-0.6498267716535433
 30
0.0
 10
-0.6774055118110236
 20
-0.6498267716535433
 30
0.0
 10
-0.6799055118110237
 20
-0.6480511811023623
 30
0.0
 10
-0.6830984251968504
 20
-0.6467992125984252
 30
0.0
 10
-0.6869606299212598
 20
-0.6461062992125984
 30
0.0
 10
-0.6869606299212598
 20
-0.6461062992125984
 30
0.0
 10
-0.6908503937007874
 20
-0.6453818897637795
 30
0.0
 10
-0.6943503937007874
 20
-0.6450236220472442
 30
0.0
 10
-0.6974330708661418
 20
-0.6450236220472442
 30
0.0
 10
-0.6974330708661418
 20
-0.6450236220472442
 30
0.0
 10
-0.6974330708661418
 20
-0.6450236220472442
 30
0.0
 10
-0.7049881889763779
 20
-0.6450236220472442
 30
0.0
 10
-0.7049881889763779
 20
-0.6450236220472442
 30
0.0
 10
-0.7049881889763779
 20
-0.6450236220472442
 30
0.0
 10
-0.7049881889763779
 20
-0.6450236220472442
 30
0.0
 10
-0.7049881889763779
 20
-0.6371338582677165
 30
0.0
 10
-0.7049881889763779
 20
-0.6371338582677165
 30
0.0
 10
-0.7049881889763779
 20
-0.6371338582677165
 30
0.0
 10
-0.7049881889763779
 20
-0.6371338582677165
 30
0.0
 10
-0.7001811023622048
 20
-0.6371338582677165
 30
0.0
 10
-0.7001811023622048
 20
-0.6371338582677165
 30
0.0
 10
-0.7001811023622048
 20
-0.6371338582677165
 30
0.0
 10
-0.6954330708661418
 20
-0.6371338582677165
 30
0.0
 10
-0.6908779527559056
 20
-0.6365787401574804
 30
0.0
 10
-0.6865157480314961
 20
-0.6354645669291339
 30
0.0
 10
-0.6865157480314961
 20
-0.6354645669291339
 30
0.0
 10
-0.6821811023622048
 20
-0.6343543307086614
 30
0.0
 10
-0.6787086614173229
 20
-0.6320787401574803
 30
0.0
 10
-0.6760984251968504
 20
-0.6286062992125985
 30
0.0
 10
-0.6760984251968504
 20
-0.6286062992125985
 30
0.0
 10
-0.6735157480314961
 20
-0.6251338582677166
 30
0.0
 10
-0.6722086614173228
 20
-0.6211889763779528
 30
0.0
 10
-0.6722086614173228
 20
-0.6167992125984252
 30
0.0
 10
-0.6722086614173228
 20
-0.6167992125984252
 30
0.0
 10
-0.6722086614173228
 20
-0.6129960629921261
 30
0.0
 10
-0.6730984251968504
 20
-0.6095787401574804
 30
0.0
 10
-0.6749330708661417
 20
-0.6065511811023623
 30
0.0
 10
-0.6749330708661417
 20
-0.6065511811023623
 30
0.0
 10
-0.676736220472441
 20
-0.603496062992126
 30
0.0
 10
-0.6794055118110236
 20
-0.6010787401574803
 30
0.0
 10
-0.6829330708661417
 20
-0.5992992125984252
 30
0.0
 10
-0.6829330708661417
 20
-0.5992992125984252
 30
0.0
 10
-0.6864606299212599
 20
-0.5975236220472441
 30
0.0
 10
-0.6905433070866142
 20
-0.5966062992125985
 30
0.0
 10
-0.6951535433070867
 20
-0.5966062992125985
 30
0.0
 10
-0.6951535433070867
 20
-0.5966062992125985
 30
0.0
 10
-0.6996535433070866
 20
-0.5966062992125985
 30
0.0
 10
-0.7037952755905512
 20
-0.5975511811023623
 30
0.0
 10
-0.7075708661417323
 20
-0.5993818897637796
 30
0.0
 10
-0.7075708661417323
 20
-0.5993818897637796
 30
0.0
 10
-0.7113228346456694
 20
-0.6012165354330709
 30
0.0
 10
-0.7143503937007875
 20
-0.6036889763779528
 30
0.0
 10
-0.7166259842519686
 20
-0.6067992125984252
 30
0.0
 10
-0.7166259842519686
 20
-0.6067992125984252
 30
0.0
 10
-0.7189055118110237
 20
-0.6098818897637796
 30
0.0
 10
-0.7205433070866142
 20
-0.6139960629921261
 30
0.0
 10
-0.7215157480314961
 20
-0.6191614173228347
 30
0.0
  0
SPLINE
  5
3A
330
1F
100
AcDbEntity
  8
LAYER_1
 62
   250
100
AcDbSpline
210
0.0
220
0.0
230
1.0
 70
    11
 71
     3
 72
    20
 73
    16
 74
     0
 42
0.0000000001
 43
0.0000000001
 40
0.0
 40
0.0
 40
0.0
 40
0.0
 40
0.25
 40
0.25
 40
0.25
 40
0.25
 40
0.5
 40
0.5
 40
0.5
 40
0.5
 40
0.75
 40
0.75
 40
0.75
 40
0.75
 40
1.0
 40
1.0
 40
1.0
 40
1.0
 10
-0.558736220472441
 20
-0.5829370078740158
 30
0.0
 10
-0.558736220472441
 20
-0.5829370078740158
 30
0.0
 10
-0.6143188976377954
 20
-0.7386338582677166
 30
0.0
 10
-0.6143188976377954
 20
-0.7386338582677166
 30
0.0
 10
-0.6143188976377954
 20
-0.7386338582677166
 30
0.0
 10
-0.6143188976377954
 20
-0.7386338582677166
 30
0.0
 10
-0.6263740157480315
 20
-0.7386338582677166
 30
0.0
 10
-0.6263740157480315
 20
-0.7386338582677166
 30
0.0
 10
-0.6263740157480315
 20
-0.7386338582677166
 30
0.0
 10
-0.6263740157480315
 20
-0.7386338582677166
 30
0.0
 10
-0.5711259842519685
 20
-0.5829370078740158
 30
0.0
 10
-0.5711259842519685
 20
-0.5829370078740158
 30
0.0
 10
-0.5711259842519685
 20
-0.5829370078740158
 30
0.0
 10
-0.5711259842519685
 20
-0.5829370078740158
 30
0.0
 10
-0.558736220472441
 20
-0.5829370078740158
 30
0.0
 10
-0.558736220472441
 20
-0.5829370078740158
 30
0.0
  0
SPLINE
  5
3B
330
1F
100
AcDbEntity
  8
LAYER_1
 62
   250
100
AcDbSpline
210
0.0
220
0.0
230
1.0
 70
    11
 71
     3
 72
    48
 73
    44
 74
     0
 42
0.0000000001
 43
0.0000000001
 40
0.0
 40
0.0
 40
0.0
 40
0.0
 40
0.0909090909090909
 40
0.0909090909090909
 40
0.0909090909090909
 40
0.0909090909090909
 40
0.1818181818181818
 40
0.1818181818181818
 40
0.1818181818181818
 40
0.1818181818181818
 40
0.2727272727272727
 40
0.2727272727272727
 40
0.2727272727272727
 40
0.2727272727272727
 40
0.3636363636363637
 40
0.3636363636363637
 40
0.3636363636363637
 40
0.3636363636363637
 40
0.4545454545454546
 40
0.4545454545454546
 40
0.4545454545454546
 40
0.4545454545454546
 40
0.5454545454545455
 40
0.5454545454545455
 40
0.5454545454545455
 40
0.5454545454545455
 40
0.6363636363636365
 40
0.6363636363636365
 40
0.6363636363636365
 40
0.6363636363636365
 40
0.7272727272727274
 40
0.7272727272727274
 40
0.7272727272727274
 40
0.7272727272727274
 40
0.8181818181818183
 40
0.8181818181818183
 40
0.8181818181818183
 40
0.8181818181818183
 40
0.9090909090909093
 40
0.9090909090909093
 40
0.9090909090909093
 40
0.9090909090909093
 40
1.0
 40
1.0
 40
1.0
 40
1.0
 10
-0.4797913385826772
 20
-0.5887992125984253
 30
0.0
 10
-0.4797913385826772
 20
-0.5887992125984253
 30
0.0
 10
-0.4660433070866142
 20
-0.5887992125984253
 30
0.0
 10
-0.4660433070866142
 20
-0.5887992125984253
 30
0.0
 10
-0.4660433070866142
 20
-0.5887992125984253
 30
0.0
 10
-0.4660433070866142
 20
-0.5887992125984253
 30
0.0
 10
-0.4660433070866142
 20
-0.6547992125984252
 30
0.0
 10
-0.4660433070866142
 20
-0.6547992125984252
 30
0.0
 10
-0.4660433070866142
 20
-0.6547992125984252
 30
0.0
 10
-0.4660433070866142
 20
-0.6547992125984252
 30
0.0
 10
-0.4447086614173229
 20
-0.6547992125984252
 30
0.0
 10
-0.4447086614173229
 20
-0.6547992125984252
 30
0.0
 10
-0.4447086614173229
 20
-0.6547992125984252
 30
0.0
 10
-0.4447086614173229
 20
-0.6547992125984252
 30
0.0
 10
-0.4447086614173229
 20
-0.6649645669291339
 30
0.0
 10
-0.4447086614173229
 20
-0.6649645669291339
 30
0.0
 10
-0.4447086614173229
 20
-0.6649645669291339
 30
0.0
 10
-0.4447086614173229
 20
-0.6649645669291339
 30
0.0
 10
-0.4660433070866142
 20
-0.6649645669291339
 30
0.0
 10
-0.4660433070866142
 20
-0.6649645669291339
 30
0.0
 10
-0.4660433070866142
 20
-0.6649645669291339
 30
0.0
 10
-0.4660433070866142
 20
-0.6649645669291339
 30
0.0
 10
-0.4660433070866142
 20
-0.7023267716535433
 30
0.0
 10
-0.4660433070866142
 20
-0.7023267716535433
 30
0.0
 10
-0.4660433070866142
 20
-0.7023267716535433
 30
0.0
 10
-0.4660433070866142
 20
-0.7023267716535433
 30
0.0
 10
-0.4797913385826772
 20
-0.7023267716535433
 30
0.0
 10
-0.4797913385826772
 20
-0.7023267716535433
 30
0.0
 10
-0.4797913385826772
 20
-0.7023267716535433
 30
0.0
 10
-0.4797913385826772
 20
-0.7023267716535433
 30
0.0
 10
-0.4797913385826772
 20
-0.6649645669291339
 30
0.0
 10
-0.4797913385826772
 20
-0.6649645669291339
 30
0.0
 10
-0.4797913385826772
 20
-0.6649645669291339
 30
0.0
 10
-0.4797913385826772
 20
-0.6649645669291339
 30
0.0
 10
-0.5332637795275591
 20
-0.6649645669291339
 30
0.0
 10
-0.5332637795275591
 20
-0.6649645669291339
 30
0.0
 10
-0.5332637795275591
 20
-0.6649645669291339
 30
0.0
 10
-0.5332637795275591
 20
-0.6649645669291339
 30
0.0
 10
-0.5332637795275591
 20
-0.6506614173228347
 30
0.0
 10
-0.5332637795275591
 20
-0.6506614173228347
 30
0.0
 10
-0.5332637795275591
 20
-0.6506614173228347
 30
0.0
 10
-0.5332637795275591
 20
-0.6506614173228347
 30
0.0
 10
-0.4797913385826772
 20
-0.5887992125984253
 30
0.0
 10
-0.4797913385826772
 20
-0.5887992125984253
 30
0.0
  0
SPLINE
  5
3C
330
1F
100
AcDbEntity
  8
LAYER_1
 62
   250
100
AcDbSpline
210
0.0
220
0.0
230
1.0
 70
    11
 71
     3
 72
    16
 73
    12
 74
     0
 42
0.0000000001
 43
0.0000000001
 40
0.0
 40
0.0
 40
0.0
 40
0.0
 40
0.3333333333333333
 40
0.3333333333333333
 40
0.3333333333333333
 40
0.3333333333333333
 40
0.6666666666666666
 40
0.6666666666666666
 40
0.6666666666666666
 40
0.6666666666666666
 40
1.0
 40
1.0
 40
1.0
 40
1.0
 10
-0.4797913385826772
 20
-0.6547992125984252
 30
0.0
 10
-0.4797913385826772
 20
-0.6547992125984252
 30
0.0
 10
-0.4797913385826772
 20
-0.6014094488188977
 30
0.0
 10
-0.4797913385826772
 20
-0.6014094488188977
 30
0.0
 10
-0.4797913385826772
 20
-0.6014094488188977
 30
0.0
 10
-0.4797913385826772
 20
-0.6014094488188977
 30
0.0
 10
-0.5258464566929134
 20
-0.6547992125984252
 30
0.0
 10
-0.5258464566929134
 20
-0.6547992125984252
 30
0.0
 10
-0.5258464566929134
 20
-0.6547992125984252
 30
0.0
 10
-0.5258464566929134
 20
-0.6547992125984252
 30
0.0
 10
-0.4797913385826772
 20
-0.6547992125984252
 30
0.0
 10
-0.4797913385826772
 20
-0.6547992125984252
 30
0.0
  0
SPLINE
  5
3D
330
1F
100
AcDbEntity
  8
LAYER_1
 62
   250
100
AcDbSpline
210
0.0
220
0.0
230
1.0
 70
    11
 71
     3
 72
    60
 73
    56
 74
     0
 42
0.0000000001
 43
0.0000000001
 40
0.0
 40
0.0
 40
0.0
 40
0.0
 40
0.0714285714285714
 40
0.0714285714285714
 40
0.0714285714285714
 40
0.0714285714285714
 40
0.1428571428571429
 40
0.1428571428571429
 40
0.1428571428571429
 40
0.1428571428571429
 40
0.2142857142857143
 40
0.2142857142857143
 40
0.2142857142857143
 40
0.2142857142857143
 40
0.2857142857142857
 40
0.2857142857142857
 40
0.2857142857142857
 40
0.2857142857142857
 40
0.3571428571428571
 40
0.3571428571428571
 40
0.3571428571428571
 40
0.3571428571428571
 40
0.4285714285714285
 40
0.4285714285714285
 40
0.4285714285714285
 40
0.4285714285714285
 40
0.4999999999999999
 40
0.4999999999999999
 40
0.4999999999999999
 40
0.4999999999999999
 40
0.5714285714285713
 40
0.5714285714285713
 40
0.5714285714285713
 40
0.5714285714285713
 40
0.6428571428571427
 40
0.6428571428571427
 40
0.6428571428571427
 40
0.6428571428571427
 40
0.7142857142857141
 40
0.7142857142857141
 40
0.7142857142857141
 40
0.7142857142857141
 40
0.7857142857142855
 40
0.7857142857142855
 40
0.7857142857142855
 40
0.7857142857142855
 40
0.8571428571428569
 40
0.8571428571428569
 40
0.8571428571428569
 40
0.8571428571428569
 40
0.9285714285714283
 40
0.9285714285714283
 40
0.9285714285714283
 40
0.9285714285714283
 40
1.0
 40
1.0
 40
1.0
 40
1.0
 10
-0.426736220472441
 20
-0.6308818897637796
 30
0.0
 10
-0.426736220472441
 20
-0.6308818897637796
 30
0.0
 10
-0.4311259842519685
 20
-0.625492125984252
 30
0.0
 10
-0.4311259842519685
 20
-0.625492125984252
 30
0.0
 10
-0.4311259842519685
 20
-0.625492125984252
 30
0.0
 10
-0.4200118110236221
 20
-0.6164370078740158
 30
0.0
 10
-0.4144291338582677
 20
-0.6088818897637796
 30
0.0
 10
-0.4144291338582677
 20
-0.6027992125984252
 30
0.0
 10
-0.4144291338582677
 20
-0.6027992125984252
 30
0.0
 10
-0.4144291338582677
 20
-0.6021062992125984
 30
0.0
 10
-0.414484251968504
 20
-0.6012165354330709
 30
0.0
 10
-0.4145984251968504
 20
-0.6001889763779528
 30
0.0
 10
-0.4145984251968504
 20
-0.6001889763779528
 30
0.0
 10
-0.4155118110236221
 20
-0.6005787401574804
 30
0.0
 10
-0.4164291338582677
 20
-0.6008818897637795
 30
0.0
 10
-0.4172913385826772
 20
-0.6010787401574803
 30
0.0
 10
-0.4172913385826772
 20
-0.6010787401574803
 30
0.0
 10
-0.4181535433070867
 20
-0.6012992125984252
 30
0.0
 10
-0.4189566929133858
 20
-0.6014094488188977
 30
0.0
 10
-0.419736220472441
 20
-0.6014094488188977
 30
0.0
 10
-0.419736220472441
 20
-0.6014094488188977
 30
0.0
 10
-0.4223464566929134
 20
-0.6014094488188977
 30
0.0
 10
-0.4244291338582678
 20
-0.6005787401574804
 30
0.0
 10
-0.425984251968504
 20
-0.5988818897637795
 30
0.0
 10
-0.425984251968504
 20
-0.5988818897637795
 30
0.0
 10
-0.4275708661417323
 20
-0.5972165354330709
 30
0.0
 10
-0.4283464566929134
 20
-0.5950787401574803
 30
0.0
 10
-0.4283464566929134
 20
-0.5924645669291339
 30
0.0
 10
-0.4283464566929134
 20
-0.5924645669291339
 30
0.0
 10
-0.4283464566929134
 20
-0.5899094488188976
 30
0.0
 10
-0.4274015748031496
 20
-0.5876889763779528
 30
0.0
 10
-0.4255118110236221
 20
-0.5857992125984253
 30
0.0
 10
-0.4255118110236221
 20
-0.5857992125984253
 30
0.0
 10
-0.4235984251968504
 20
-0.5838818897637795
 30
0.0
 10
-0.4213188976377953
 20
-0.5829370078740158
 30
0.0
 10
-0.4186811023622047
 20
-0.5829370078740158
 30
0.0
 10
-0.4186811023622047
 20
-0.5829370078740158
 30
0.0
 10
-0.414984251968504
 20
-0.5829370078740158
 30
0.0
 10
-0.4118188976377953
 20
-0.5844094488188977
 30
0.0
 10
-0.4091811023622047
 20
-0.5873818897637796
 30
0.0
 10
-0.4091811023622047
 20
-0.5873818897637796
 30
0.0
 10
-0.4065708661417323
 20
-0.5903267716535433
 30
0.0
 10
-0.405236220472441
 20
-0.5941338582677166
 30
0.0
 10
-0.405236220472441
 20
-0.5987992125984252
 30
0.0
 10
-0.405236220472441
 20
-0.5987992125984252
 30
0.0
 10
-0.405236220472441
 20
-0.6018543307086615
 30
0.0
 10
-0.4058740157480315
 20
-0.6050511811023622
 30
0.0
 10
-0.4071259842519685
 20
-0.6083818897637796
 30
0.0
 10
-0.4071259842519685
 20
-0.6083818897637796
 30
0.0
 10
-0.4083740157480315
 20
-0.6117165354330709
 30
0.0
 10
-0.4101811023622047
 20
-0.6147992125984252
 30
0.0
 10
-0.4125708661417323
 20
-0.6176614173228346
 30
0.0
 10
-0.4125708661417323
 20
-0.6176614173228346
 30
0.0
 10
-0.4149566929133858
 20
-0.620492125984252
 30
0.0
 10
-0.4196811023622047
 20
-0.6249094488188977
 30
0.0
 10
-0.426736220472441
 20
-0.6308818897637796
 30
0.0
  0
SPLINE
  5
3E
330
1F
100
AcDbEntity
  8
LAYER_1
 62
   250
100
AcDbSpline
210
0.0
220
0.0
230
1.0
 70
    11
 71
     3
 72
    60
 73
    56
 74
     0
 42
0.0000000001
 43
0.0000000001
 40
0.0
 40
0.0
 40
0.0
 40
0.0
 40
0.0714285714285714
 40
0.0714285714285714
 40
0.0714285714285714
 40
0.0714285714285714
 40
0.1428571428571429
 40
0.1428571428571429
 40
0.1428571428571429
 40
0.1428571428571429
 40
0.2142857142857143
 40
0.2142857142857143
 40
0.2142857142857143
 40
0.2142857142857143
 40
0.2857142857142857
 40
0.2857142857142857
 40
0.2857142857142857
 40
0.2857142857142857
 40
0.3571428571428571
 40
0.3571428571428571
 40
0.3571428571428571
 40
0.3571428571428571
 40
0.4285714285714285
 40
0.4285714285714285
 40
0.4285714285714285
 40
0.4285714285714285
 40
0.4999999999999999
 40
0.4999999999999999
 40
0.4999999999999999
 40
0.4999999999999999
 40
0.5714285714285713
 40
0.5714285714285713
 40
0.5714285714285713
 40
0.5714285714285713
 40
0.6428571428571427
 40
0.6428571428571427
 40
0.6428571428571427
 40
0.6428571428571427
 40
0.7142857142857141
 40
0.7142857142857141
 40
0.7142857142857141
 40
0.7142857142857141
 40
0.7857142857142855
 40
0.7857142857142855
 40
0.7857142857142855
 40
0.7857142857142855
 40
0.8571428571428569
 40
0.8571428571428569
 40
0.8571428571428569
 40
0.8571428571428569
 40
0.9285714285714283
 40
0.9285714285714283
 40
0.9285714285714283
 40
0.9285714285714283
 40
1.0
 40
1.0
 40
1.0
 40
1.0
 10
-0.3976811023622047
 20
-0.6308818897637796
 30
0.0
 10
-0.3976811023622047
 20
-0.6308818897637796
 30
0.0
 10
-0.4020708661417323
 20
-0.625492125984252
 30
0.0
 10
-0.4020708661417323
 20
-0.625492125984252
 30
0.0
 10
-0.4020708661417323
 20
-0.625492125984252
 30
0.0
 10
-0.3909566929133859
 20
-0.6164370078740158
 30
0.0
 10
-0.3853740157480315
 20
-0.6088818897637796
 30
0.0
 10
-0.3853740157480315
 20
-0.6027992125984252
 30
0.0
 10
-0.3853740157480315
 20
-0.6027992125984252
 30
0.0
 10
-0.3853740157480315
 20
-0.6021062992125984
 30
0.0
 10
-0.3854291338582677
 20
-0.6012165354330709
 30
0.0
 10
-0.3855433070866142
 20
-0.6001889763779528
 30
0.0
 10
-0.3855433070866142
 20
-0.6001889763779528
 30
0.0
 10
-0.3864566929133859
 20
-0.6005787401574804
 30
0.0
 10
-0.3873740157480315
 20
-0.6008818897637795
 30
0.0
 10
-0.3882362204724409
 20
-0.6010787401574803
 30
0.0
 10
-0.3882362204724409
 20
-0.6010787401574803
 30
0.0
 10
-0.3890984251968504
 20
-0.6012992125984252
 30
0.0
 10
-0.3899291338582677
 20
-0.6014094488188977
 30
0.0
 10
-0.3907637795275591
 20
-0.6014094488188977
 30
0.0
 10
-0.3907637795275591
 20
-0.6014094488188977
 30
0.0
 10
-0.3933188976377953
 20
-0.6014094488188977
 30
0.0
 10
-0.3953740157480315
 20
-0.6005787401574804
 30
0.0
 10
-0.3969291338582677
 20
-0.5988818897637795
 30
0.0
 10
-0.3969291338582677
 20
-0.5988818897637795
 30
0.0
 10
-0.398511811023622
 20
-0.5972165354330709
 30
0.0
 10
-0.3992913385826772
 20
-0.5950787401574803
 30
0.0
 10
-0.3992913385826772
 20
-0.5924645669291339
 30
0.0
 10
-0.3992913385826772
 20
-0.5924645669291339
 30
0.0
 10
-0.3992913385826772
 20
-0.5899094488188976
 30
0.0
 10
-0.3983464566929134
 20
-0.5876889763779528
 30
0.0
 10
-0.3964566929133859
 20
-0.5857992125984253
 30
0.0
 10
-0.3964566929133859
 20
-0.5857992125984253
 30
0.0
 10
-0.3945708661417323
 20
-0.5838818897637795
 30
0.0
 10
-0.3922637795275591
 20
-0.5829370078740158
 30
0.0
 10
-0.3896259842519685
 20
-0.5829370078740158
 30
0.0
 10
-0.3896259842519685
 20
-0.5829370078740158
 30
0.0
 10
-0.3859291338582677
 20
-0.5829370078740158
 30
0.0
 10
-0.3827637795275591
 20
-0.5844094488188977
 30
0.0
 10
-0.3801259842519685
 20
-0.5873818897637796
 30
0.0
 10
-0.3801259842519685
 20
-0.5873818897637796
 30
0.0
 10
-0.3775157480314961
 20
-0.5903267716535433
 30
0.0
 10
-0.3761811023622048
 20
-0.5941338582677166
 30
0.0
 10
-0.3761811023622048
 20
-0.5987992125984252
 30
0.0
 10
-0.3761811023622048
 20
-0.5987992125984252
 30
0.0
 10
-0.3761811023622048
 20
-0.6018543307086615
 30
0.0
 10
-0.3768188976377953
 20
-0.6050511811023622
 30
0.0
 10
-0.3780708661417323
 20
-0.6083818897637796
 30
0.0
 10
-0.3780708661417323
 20
-0.6083818897637796
 30
0.0
 10
-0.3793188976377953
 20
-0.6117165354330709
 30
0.0
 10
-0.3811259842519685
 20
-0.6147992125984252
 30
0.0
 10
-0.3835118110236221
 20
-0.6176614173228346
 30
0.0
 10
-0.3835118110236221
 20
-0.6176614173228346
 30
0.0
 10
-0.3859015748031496
 20
-0.620492125984252
 30
0.0
 10
-0.3906259842519685
 20
-0.6249094488188977
 30
0.0
 10
-0.3976811023622047
 20
-0.6308818897637796
 30
0.0
  0
SPLINE
  5
3F
330
1F
100
AcDbEntity
  8
LAYER_1
 62
   250
100
AcDbSpline
210
0.0
220
0.0
230
1.0
 70
    11
 71
     3
 72
   204
 73
   200
 74
     0
 42
0.0000000001
 43
0.0000000001
 40
0.0
 40
0.0
 40
0.0
 40
0.0
 40
0.02
 40
0.02
 40
0.02
 40
0.02
 40
0.04
 40
0.04
 40
0.04
 40
0.04
 40
0.06
 40
0.06
 40
0.06
 40
0.06
 40
0.08
 40
0.08
 40
0.08
 40
0.08
 40
0.1
 40
0.1
 40
0.1
 40
0.1
 40
0.12
 40
0.12
 40
0.12
 40
0.12
 40
0.14
 40
0.14
 40
0.14
 40
0.14
 40
0.16
 40
0.16
 40
0.16
 40
0.16
 40
0.18
 40
0.18
 40
0.18
 40
0.18
 40
0.2
 40
0.2
 40
0.2
 40
0.2
 40
0.22
 40
0.22
 40
0.22
 40
0.22
 40
0.24
 40
0.24
 40
0.24
 40
0.24
 40
0.26
 40
0.26
 40
0.26
 40
0.26
 40
0.28
 40
0.28
 40
0.28
 40
0.28
 40
0.3
 40
0.3
 40
0.3
 40
0.3
 40
0.32
 40
0.32
 40
0.32
 40
0.32
 40
0.34
 40
0.34
 40
0.34
 40
0.34
 40
0.36
 40
0.36
 40
0.36
 40
0.36
 40
0.3800000000000001
 40
0.3800000000000001
 40
0.3800000000000001
 40
0.3800000000000001
 40
0.4000000000000001
 40
0.4000000000000001
 40
0.4000000000000001
 40
0.4000000000000001
 40
0.4200000000000001
 40
0.4200000000000001
 40
0.4200000000000001
 40
0.4200000000000001
 40
0.4400000000000001
 40
0.4400000000000001
 40
0.4400000000000001
 40
0.4400000000000001
 40
0.4600000000000001
 40
0.4600000000000001
 40
0.4600000000000001
 40
0.4600000000000001
 40
0.4800000000000002
 40
0.4800000000000002
 40
0.4800000000000002
 40
0.4800000000000002
 40
0.5000000000000001
 40
0.5000000000000001
 40
0.5000000000000001
 40
0.5000000000000001
 40
0.5200000000000001
 40
0.5200000000000001
 40
0.5200000000000001
 40
0.5200000000000001
 40
0.5400000000000002
 40
0.5400000000000002
 40
0.5400000000000002
 40
0.5400000000000002
 40
0.5600000000000002
 40
0.5600000000000002
 40
0.5600000000000002
 40
0.5600000000000002
 40
0.5800000000000002
 40
0.5800000000000002
 40
0.5800000000000002
 40
0.5800000000000002
 40
0.6000000000000002
 40
0.6000000000000002
 40
0.6000000000000002
 40
0.6000000000000002
 40
0.6200000000000002
 40
0.6200000000000002
 40
0.6200000000000002
 40
0.6200000000000002
 40
0.6400000000000002
 40
0.6400000000000002
 40
0.6400000000000002
 40
0.6400000000000002
 40
0.6600000000000003
 40
0.6600000000000003
 40
0.6600000000000003
 40
0.6600000000000003
 40
0.6800000000000003
 40
0.6800000000000003
 40
0.6800000000000003
 40
0.6800000000000003
 40
0.7000000000000003
 40
0.7000000000000003
 40
0.7000000000000003
 40
0.7000000000000003
 40
0.7200000000000003
 40
0.7200000000000003
 40
0.7200000000000003
 40
0.7200000000000003
 40
0.7400000000000003
 40
0.7400000000000003
 40
0.7400000000000003
 40
0.7400000000000003
 40
0.7600000000000003
 40
0.7600000000000003
 40
0.7600000000000003
 40
0.7600000000000003
 40
0.7800000000000004
 40
0.7800000000000004
 40
0.7800000000000004
 40
0.7800000000000004
 40
0.8000000000000004
 40
0.8000000000000004
 40
0.8000000000000004
 40
0.8000000000000004
 40
0.8200000000000004
 40
0.8200000000000004
 40
0.8200000000000004
 40
0.8200000000000004
 40
0.8400000000000004
 40
0.8400000000000004
 40
0.8400000000000004
 40
0.8400000000000004
 40
0.8600000000000004
 40
0.8600000000000004
 40
0.8600000000000004
 40
0.8600000000000004
 40
0.8800000000000005
 40
0.8800000000000005
 40
0.8800000000000005
 40
0.8800000000000005
 40
0.9000000000000005
 40
0.9000000000000005
 40
0.9000000000000005
 40
0.9000000000000005
 40
0.9200000000000005
 40
0.9200000000000005
 40
0.9200000000000005
 40
0.9200000000000005
 40
0.9400000000000005
 40
0.9400000000000005
 40
0.9400000000000005
 40
0.9400000000000005
 40
0.9600000000000005
 40
0.9600000000000005
 40
0.9600000000000005
 40
0.9600000000000005
 40
0.9800000000000005
 40
0.9800000000000005
 40
0.9800000000000005
 40
0.9800000000000005
 40
1.0
 40
1.0
 40
1.0
 40
1.0
 10
-0.3138740157480315
 20
-0.6237992125984252
 30
0.0
 10
-0.3138740157480315
 20
-0.6237992125984252
 30
0.0
 10
-0.2729291338582677
 20
-0.6237992125984252
 30
0.0
 10
-0.2729291338582677
 20
-0.6237992125984252
 30
0.0
 10
-0.2729291338582677
 20
-0.6237992125984252
 30
0.0
 10
-0.2729291338582677
 20
-0.6237992125984252
 30
0.0
 10
-0.2729291338582677
 20
-0.6306338582677166
 30
0.0
 10
-0.2729291338582677
 20
-0.6306338582677166
 30
0.0
 10
-0.2729291338582677
 20
-0.6306338582677166
 30
0.0
 10
-0.2729291338582677
 20
-0.6306338582677166
 30
0.0
 10
-0.275763779527559
 20
-0.6306338582677166
 30
0.0
 10
-0.275763779527559
 20
-0.6306338582677166
 30
0.0
 10
-0.275763779527559
 20
-0.6306338582677166
 30
0.0
 10
-0.2774015748031496
 20
-0.6306338582677166
 30
0.0
 10
-0.2789015748031496
 20
-0.6308267716535433
 30
0.0
 10
-0.280263779527559
 20
-0.6311889763779528
 30
0.0
 10
-0.280263779527559
 20
-0.6311889763779528
 30
0.0
 10
-0.2810669291338583
 20
-0.6314094488188977
 30
0.0
 10
-0.281736220472441
 20
-0.6318267716535433
 30
0.0
 10
-0.282236220472441
 20
-0.6324645669291339
 30
0.0
 10
-0.282236220472441
 20
-0.6324645669291339
 30
0.0
 10
-0.282763779527559
 20
-0.6330787401574803
 30
0.0
 10
-0.2830118110236221
 20
-0.6336614173228347
 30
0.0
 10
-0.2830118110236221
 20
-0.6342165354330709
 30
0.0
 10
-0.2830118110236221
 20
-0.6342165354330709
 30
0.0
 10
-0.2830118110236221
 20
-0.6354645669291339
 30
0.0
 10
-0.281984251968504
 20
-0.6373267716535433
 30
0.0
 10
-0.2799291338582677
 20
-0.6398267716535433
 30
0.0
 10
-0.2799291338582677
 20
-0.6398267716535433
 30
0.0
 10
-0.2799291338582677
 20
-0.6398267716535433
 30
0.0
 10
-0.2682913385826772
 20
-0.6544645669291339
 30
0.0
 10
-0.2682913385826772
 20
-0.6544645669291339
 30
0.0
 10
-0.2682913385826772
 20
-0.6544645669291339
 30
0.0
 10
-0.2682913385826772
 20
-0.6544645669291339
 30
0.0
 10
-0.2547086614173229
 20
-0.6398267716535433
 30
0.0
 10
-0.2547086614173229
 20
-0.6398267716535433
 30
0.0
 10
-0.2547086614173229
 20
-0.6398267716535433
 30
0.0
 10
-0.2522086614173228
 20
-0.6371062992125984
 30
0.0
 10
-0.2509566929133859
 20
-0.6350787401574803
 30
0.0
 10
-0.2509566929133859
 20
-0.6337165354330709
 30
0.0
 10
-0.2509566929133859
 20
-0.6337165354330709
 30
0.0
 10
-0.2509566929133859
 20
-0.632744094488189
 30
0.0
 10
-0.2514015748031496
 20
-0.631992125984252
 30
0.0
 10
-0.2522637795275591
 20
-0.6314370078740158
 30
0.0
 10
-0.2522637795275591
 20
-0.6314370078740158
 30
0.0
 10
-0.2531259842519685
 20
-0.6309094488188977
 30
0.0
 10
-0.2549842519685039
 20
-0.6306338582677166
 30
0.0
 10
-0.2578740157480315
 20
-0.6306338582677166
 30
0.0
 10
-0.2578740157480315
 20
-0.6306338582677166
 30
0.0
 10
-0.2578740157480315
 20
-0.6306338582677166
 30
0.0
 10
-0.2609566929133859
 20
-0.6306338582677166
 30
0.0
 10
-0.2609566929133859
 20
-0.6306338582677166
 30
0.0
 10
-0.2609566929133859
 20
-0.6306338582677166
 30
0.0
 10
-0.2609566929133859
 20
-0.6306338582677166
 30
0.0
 10
-0.2609566929133859
 20
-0.6237992125984252
 30
0.0
 10
-0.2609566929133859
 20
-0.6237992125984252
 30
0.0
 10
-0.2609566929133859
 20
-0.6237992125984252
 30
0.0
 10
-0.2609566929133859
 20
-0.6237992125984252
 30
0.0
 10
-0.2262086614173229
 20
-0.6237992125984252
 30
0.0
 10
-0.2262086614173229
 20
-0.6237992125984252
 30
0.0
 10
-0.2262086614173229
 20
-0.6237992125984252
 30
0.0
 10
-0.2262086614173229
 20
-0.6237992125984252
 30
0.0
 10
-0.2262086614173229
 20
-0.6306338582677166
 30
0.0
 10
-0.2262086614173229
 20
-0.6306338582677166
 30
0.0
 10
-0.2262086614173229
 20
-0.6306338582677166
 30
0.0
 10
-0.2296259842519685
 20
-0.6307992125984252
 30
0.0
 10
-0.2325708661417323
 20
-0.631492125984252
 30
0.0
 10
-0.2350393700787402
 20
-0.632744094488189
 30
0.0
 10
-0.2350393700787402
 20
-0.632744094488189
 30
0.0
 10
-0.2375118110236221
 20
-0.633992125984252
 30
0.0
 10
-0.2404291338582677
 20
-0.6363543307086614
 30
0.0
 10
-0.2437913385826772
 20
-0.6398267716535433
 30
0.0
 10
-0.2437913385826772
 20
-0.6398267716535433
 30
0.0
 10
-0.2437913385826772
 20
-0.6398267716535433
 30
0.0
 10
-0.2624291338582677
 20
-0.6591889763779528
 30
0.0
 10
-0.2624291338582677
 20
-0.6591889763779528
 30
0.0
 10
-0.2624291338582677
 20
-0.6591889763779528
 30
0.0
 10
-0.2624291338582677
 20
-0.6591889763779528
 30
0.0
 10
-0.239236220472441
 20
-0.6856338582677166
 30
0.0
 10
-0.239236220472441
 20
-0.6856338582677166
 30
0.0
 10
-0.239236220472441
 20
-0.6856338582677166
 30
0.0
 10
-0.239236220472441
 20
-0.6856338582677166
 30
0.0
 10
-0.2383464566929134
 20
-0.6867716535433072
 30
0.0
 10
-0.2383464566929134
 20
-0.6867716535433072
 30
0.0
 10
-0.2383464566929134
 20
-0.6867716535433072
 30
0.0
 10
-0.2360708661417323
 20
-0.6897165354330709
 30
0.0
 10
-0.2335118110236221
 20
-0.6920787401574804
 30
0.0
 10
-0.2306811023622047
 20
-0.6938543307086614
 30
0.0
 10
-0.2306811023622047
 20
-0.6938543307086614
 30
0.0
 10
-0.2291259842519685
 20
-0.6948818897637795
 30
0.0
 10
-0.2266811023622047
 20
-0.6954370078740157
 30
0.0
 10
-0.2233740157480315
 20
-0.695492125984252
 30
0.0
 10
-0.2233740157480315
 20
-0.695492125984252
 30
0.0
 10
-0.2233740157480315
 20
-0.695492125984252
 30
0.0
 10
-0.2233740157480315
 20
-0.7023267716535433
 30
0.0
 10
-0.2233740157480315
 20
-0.7023267716535433
 30
0.0
 10
-0.2233740157480315
 20
-0.7023267716535433
 30
0.0
 10
-0.2233740157480315
 20
-0.7023267716535433
 30
0.0
 10
-0.2633188976377953
 20
-0.7023267716535433
 30
0.0
 10
-0.2633188976377953
 20
-0.7023267716535433
 30
0.0
 10
-0.2633188976377953
 20
-0.7023267716535433
 30
0.0
 10
-0.2633188976377953
 20
-0.7023267716535433
 30
0.0
 10
-0.2633188976377953
 20
-0.695492125984252
 30
0.0
 10
-0.2633188976377953
 20
-0.695492125984252
 30
0.0
 10
-0.2633188976377953
 20
-0.695492125984252
 30
0.0
 10
-0.2633188976377953
 20
-0.695492125984252
 30
0.0
 10
-0.2599015748031496
 20
-0.695492125984252
 30
0.0
 10
-0.2599015748031496
 20
-0.695492125984252
 30
0.0
 10
-0.2599015748031496
 20
-0.695492125984252
 30
0.0
 10
-0.2572913385826772
 20
-0.695492125984252
 30
0.0
 10
-0.2556535433070866
 20
-0.6953267716535433
 30
0.0
 10
-0.2549291338582677
 20
-0.694992125984252
 30
0.0
 10
-0.2549291338582677
 20
-0.694992125984252
 30
0.0
 10
-0.2537637795275591
 20
-0.6944645669291338
 30
0.0
 10
-0.2531535433070866
 20
-0.6935472440944882
 30
0.0
 10
-0.2531535433070866
 20
-0.692244094488189
 30
0.0
 10
-0.2531535433070866
 20
-0.692244094488189
 30
0.0
 10
-0.2531535433070866
 20
-0.6910472440944883
 30
0.0
 10
-0.2544566929133859
 20
-0.6888543307086614
 30
0.0
 10
-0.2570708661417323
 20
-0.6856338582677166
 30
0.0
 10
-0.2570708661417323
 20
-0.6856338582677166
 30
0.0
 10
-0.2570708661417323
 20
-0.6856338582677166
 30
0.0
 10
-0.2718740157480315
 20
-0.667492125984252
 30
0.0
 10
-0.2718740157480315
 20
-0.667492125984252
 30
0.0
 10
-0.2718740157480315
 20
-0.667492125984252
 30
0.0
 10
-0.2718740157480315
 20
-0.667492125984252
 30
0.0
 10
-0.2884015748031496
 20
-0.6856338582677166
 30
0.0
 10
-0.2884015748031496
 20
-0.6856338582677166
 30
0.0
 10
-0.2884015748031496
 20
-0.6856338582677166
 30
0.0
 10
-0.2884015748031496
 20
-0.6856338582677166
 30
0.0
 10
-0.2900118110236221
 20
-0.6876062992125984
 30
0.0
 10
-0.2900118110236221
 20
-0.6876062992125984
 30
0.0
 10
-0.2900118110236221
 20
-0.6876062992125984
 30
0.0
 10
-0.2900118110236221
 20
-0.6876062992125984
 30
0.0
 10
-0.2909015748031496
 20
-0.6885787401574803
 30
0.0
 10
-0.2909015748031496
 20
-0.6885787401574803
 30
0.0
 10
-0.2909015748031496
 20
-0.6885787401574803
 30
0.0
 10
-0.2922637795275591
 20
-0.6900472440944883
 30
0.0
 10
-0.2929566929133858
 20
-0.6913267716535433
 30
0.0
 10
-0.2929566929133858
 20
-0.6924645669291338
 30
0.0
 10
-0.2929566929133858
 20
-0.6924645669291338
 30
0.0
 10
-0.2929566929133858
 20
-0.6935196850393701
 30
0.0
 10
-0.2925393700787402
 20
-0.6942716535433071
 30
0.0
 10
-0.2916811023622047
 20
-0.6947716535433072
 30
0.0
 10
-0.2916811023622047
 20
-0.6947716535433072
 30
0.0
 10
-0.2908464566929134
 20
-0.695244094488189
 30
0.0
 10
-0.2889566929133858
 20
-0.695492125984252
 30
0.0
 10
-0.2860393700787401
 20
-0.695492125984252
 30
0.0
 10
-0.2860393700787401
 20
-0.695492125984252
 30
0.0
 10
-0.2860393700787401
 20
-0.695492125984252
 30
0.0
 10
-0.282763779527559
 20
-0.695492125984252
 30
0.0
 10
-0.282763779527559
 20
-0.695492125984252
 30
0.0
 10
-0.282763779527559
 20
-0.695492125984252
 30
0.0
 10
-0.282763779527559
 20
-0.695492125984252
 30
0.0
 10
-0.282763779527559
 20
-0.7023267716535433
 30
0.0
 10
-0.282763779527559
 20
-0.7023267716535433
 30
0.0
 10
-0.282763779527559
 20
-0.7023267716535433
 30
0.0
 10
-0.282763779527559
 20
-0.7023267716535433
 30
0.0
 10
-0.3170393700787402
 20
-0.7023267716535433
 30
0.0
 10
-0.3170393700787402
 20
-0.7023267716535433
 30
0.0
 10
-0.3170393700787402
 20
-0.7023267716535433
 30
0.0
 10
-0.3170393700787402
 20
-0.7023267716535433
 30
0.0
 10
-0.3170393700787402
 20
-0.695492125984252
 30
0.0
 10
-0.3170393700787402
 20
-0.695492125984252
 30
0.0
 10
-0.3170393700787402
 20
-0.695492125984252
 30
0.0
 10
-0.3143740157480315
 20
-0.6954370078740157
 30
0.0
 10
-0.3122913385826772
 20
-0.6951614173228347
 30
0.0
 10
-0.3107637795275591
 20
-0.6946338582677165
 30
0.0
 10
-0.3107637795275591
 20
-0.6946338582677165
 30
0.0
 10
-0.3092637795275591
 20
-0.6941338582677166
 30
0.0
 10
-0.3077913385826772
 20
-0.6933267716535433
 30
0.0
 10
-0.3063740157480315
 20
-0.692244094488189
 30
0.0
 10
-0.3063740157480315
 20
-0.692244094488189
 30
0.0
 10
-0.3039291338582678
 20
-0.6902716535433071
 30
0.0
 10
-0.3021811023622048
 20
-0.688744094488189
 30
0.0
 10
-0.3010944881889764
 20
-0.6876062992125984
 30
0.0
 10
-0.3010944881889764
 20
-0.6876062992125984
 30
0.0
 10
-0.3010944881889764
 20
-0.6876062992125984
 30
0.0
 10
-0.277236220472441
 20
-0.6631062992125985
 30
0.0
 10
-0.277236220472441
 20
-0.6631062992125985
 30
0.0
 10
-0.277236220472441
 20
-0.6631062992125985
 30
0.0
 10
-0.277236220472441
 20
-0.6631062992125985
 30
0.0
 10
-0.2975118110236221
 20
-0.6398267716535433
 30
0.0
 10
-0.2975118110236221
 20
-0.6398267716535433
 30
0.0
 10
-0.2975118110236221
 20
-0.6398267716535433
 30
0.0
 10
-0.3000669291338583
 20
-0.6369370078740158
 30
0.0
 10
-0.3020669291338583
 20
-0.6349370078740158
 30
0.0
 10
-0.3035669291338583
 20
-0.6337716535433071
 30
0.0
 10
-0.3035669291338583
 20
-0.6337716535433071
 30
0.0
 10
-0.3050669291338583
 20
-0.6326062992125985
 30
0.0
 10
-0.3065118110236221
 20
-0.6317716535433071
 30
0.0
 10
-0.3079291338582677
 20
-0.6313267716535433
 30
0.0
 10
-0.3079291338582677
 20
-0.6313267716535433
 30
0.0
 10
-0.3093464566929134
 20
-0.6308543307086615
 30
0.0
 10
-0.3113188976377953
 20
-0.6306338582677166
 30
0.0
 10
-0.3138740157480315
 20
-0.6306338582677166
 30
0.0
 10
-0.3138740157480315
 20
-0.6306338582677166
 30
0.0
 10
-0.3138740157480315
 20
-0.6306338582677166
 30
0.0
 10
-0.3138740157480315
 20
-0.6237992125984252
 30
0.0
 10
-0.3138740157480315
 20
-0.6237992125984252
 30
0.0
  0
SPLINE
  5
40
330
1F
100
AcDbEntity
  8
LAYER_1
 62
   250
100
AcDbSpline
210
0.0
220
0.0
230
1.0
 70
    11
 71
     3
 72
   172
 73
   168
 74
     0
 42
0.0000000001
 43
0.0000000001
 40
0.0
 40
0.0
 40
0.0
 40
0.0
 40
0.0238095238095238
 40
0.0238095238095238
 40
0.0238095238095238
 40
0.0238095238095238
 40
0.0476190476190476
 40
0.0476190476190476
 40
0.0476190476190476
 40
0.0476190476190476
 40
0.0714285714285714
 40
0.0714285714285714
 40
0.0714285714285714
 40
0.0714285714285714
 40
0.0952380952380952
 40
0.0952380952380952
 40
0.0952380952380952
 40
0.0952380952380952
 40
0.119047619047619
 40
0.119047619047619
 40
0.119047619047619
 40
0.119047619047619
 40
0.1428571428571429
 40
0.1428571428571429
 40
0.1428571428571429
 40
0.1428571428571429
 40
0.1666666666666667
 40
0.1666666666666667
 40
0.1666666666666667
 40
0.1666666666666667
 40
0.1904761904761905
 40
0.1904761904761905
 40
0.1904761904761905
 40
0.1904761904761905
 40
0.2142857142857143
 40
0.2142857142857143
 40
0.2142857142857143
 40
0.2142857142857143
 40
0.2380952380952381
 40
0.2380952380952381
 40
0.2380952380952381
 40
0.2380952380952381
 40
0.2619047619047619
 40
0.2619047619047619
 40
0.2619047619047619
 40
0.2619047619047619
 40
0.2857142857142857
 40
0.2857142857142857
 40
0.2857142857142857
 40
0.2857142857142857
 40
0.3095238095238095
 40
0.3095238095238095
 40
0.3095238095238095
 40
0.3095238095238095
 40
0.3333333333333334
 40
0.3333333333333334
 40
0.3333333333333334
 40
0.3333333333333334
 40
0.3571428571428572
 40
0.3571428571428572
 40
0.3571428571428572
 40
0.3571428571428572
 40
0.380952380952381
 40
0.380952380952381
 40
0.380952380952381
 40
0.380952380952381
 40
0.4047619047619049
 40
0.4047619047619049
 40
0.4047619047619049
 40
0.4047619047619049
 40
0.4285714285714287
 40
0.4285714285714287
 40
0.4285714285714287
 40
0.4285714285714287
 40
0.4523809523809526
 40
0.4523809523809526
 40
0.4523809523809526
 40
0.4523809523809526
 40
0.4761904761904764
 40
0.4761904761904764
 40
0.4761904761904764
 40
0.4761904761904764
 40
0.5000000000000002
 40
0.5000000000000002
 40
0.5000000000000002
 40
0.5000000000000002
 40
0.5238095238095241
 40
0.5238095238095241
 40
0.5238095238095241
 40
0.5238095238095241
 40
0.5476190476190479
 40
0.5476190476190479
 40
0.5476190476190479
 40
0.5476190476190479
 40
0.5714285714285717
 40
0.5714285714285717
 40
0.5714285714285717
 40
0.5714285714285717
 40
0.5952380952380956
 40
0.5952380952380956
 40
0.5952380952380956
 40
0.5952380952380956
 40
0.6190476190476194
 40
0.6190476190476194
 40
0.6190476190476194
 40
0.6190476190476194
 40
0.6428571428571432
 40
0.6428571428571432
 40
0.6428571428571432
 40
0.6428571428571432
 40
0.6666666666666671
 40
0.6666666666666671
 40
0.6666666666666671
 40
0.6666666666666671
 40
0.6904761904761909
 40
0.6904761904761909
 40
0.6904761904761909
 40
0.6904761904761909
 40
0.7142857142857148
 40
0.7142857142857148
 40
0.7142857142857148
 40
0.7142857142857148
 40
0.7380952380952386
 40
0.7380952380952386
 40
0.7380952380952386
 40
0.7380952380952386
 40
0.7619047619047624
 40
0.7619047619047624
 40
0.7619047619047624
 40
0.7619047619047624
 40
0.7857142857142863
 40
0.7857142857142863
 40
0.7857142857142863
 40
0.7857142857142863
 40
0.8095238095238101
 40
0.8095238095238101
 40
0.8095238095238101
 40
0.8095238095238101
 40
0.8333333333333339
 40
0.8333333333333339
 40
0.8333333333333339
 40
0.8333333333333339
 40
0.8571428571428578
 40
0.8571428571428578
 40
0.8571428571428578
 40
0.8571428571428578
 40
0.8809523809523816
 40
0.8809523809523816
 40
0.8809523809523816
 40
0.8809523809523816
 40
0.9047619047619054
 40
0.9047619047619054
 40
0.9047619047619054
 40
0.9047619047619054
 40
0.9285714285714293
 40
0.9285714285714293
 40
0.9285714285714293
 40
0.9285714285714293
 40
0.9523809523809531
 40
0.9523809523809531
 40
0.9523809523809531
 40
0.9523809523809531
 40
0.9761904761904769
 40
0.9761904761904769
 40
0.9761904761904769
 40
0.9761904761904769
 40
1.0
 40
1.0
 40
1.0
 40
1.0
 10
-0.1481811023622047
 20
-0.6191614173228347
 30
0.0
 10
-0.1481811023622047
 20
-0.6191614173228347
 30
0.0
 10
-0.155988188976378
 20
-0.6179370078740157
 30
0.0
 10
-0.155988188976378
 20
-0.6179370078740157
 30
0.0
 10
-0.155988188976378
 20
-0.6179370078740157
 30
0.0
 10
-0.1552913385826772
 20
-0.6120787401574803
 30
0.0
 10
-0.1537637795275591
 20
-0.6072165354330709
 30
0.0
 10
-0.1514291338582677
 20
-0.6033543307086614
 30
0.0
 10
-0.1514291338582677
 20
-0.6033543307086614
 30
0.0
 10
-0.1483464566929134
 20
-0.5981614173228347
 30
0.0
 10
-0.143988188976378
 20
-0.5941062992125985
 30
0.0
 10
-0.1383464566929134
 20
-0.5912165354330708
 30
0.0
 10
-0.1383464566929134
 20
-0.5912165354330708
 30
0.0
 10
-0.1326811023622047
 20
-0.5882992125984252
 30
0.0
 10
-0.1262086614173228
 20
-0.5868543307086614
 30
0.0
 10
-0.1188740157480315
 20
-0.5868543307086614
 30
0.0
 10
-0.1188740157480315
 20
-0.5868543307086614
 30
0.0
 10
-0.1116811023622047
 20
-0.5868543307086614
 30
0.0
 10
-0.1053188976377953
 20
-0.5881338582677166
 30
0.0
 10
-0.0998464566929134
 20
-0.5907165354330709
 30
0.0
 10
-0.0998464566929134
 20
-0.5907165354330709
 30
0.0
 10
-0.0943740157480315
 20
-0.5932992125984252
 30
0.0
 10
-0.090236220472441
 20
-0.5967165354330709
 30
0.0
 10
-0.0874330708661417
 20
-0.6009645669291339
 30
0.0
 10
-0.0874330708661417
 20
-0.6009645669291339
 30
0.0
 10
-0.0846259842519685
 20
-0.6052165354330709
 30
0.0
 10
-0.0832362204724409
 20
-0.6098267716535434
 30
0.0
 10
-0.0832362204724409
 20
-0.6147716535433071
 30
0.0
 10
-0.0832362204724409
 20
-0.6147716535433071
 30
0.0
 10
-0.0832362204724409
 20
-0.6191062992125984
 30
0.0
 10
-0.0842913385826772
 20
-0.622992125984252
 30
0.0
 10
-0.0864055118110236
 20
-0.6264094488188977
 30
0.0
 10
-0.0864055118110236
 20
-0.6264094488188977
 30
0.0
 10
-0.0885433070866142
 20
-0.6298267716535433
 30
0.0
 10
-0.0916811023622047
 20
-0.6328818897637796
 30
0.0
 10
-0.0958464566929134
 20
-0.6356062992125985
 30
0.0
 10
-0.0958464566929134
 20
-0.6356062992125985
 30
0.0
 10
-0.0987913385826772
 20
-0.637492125984252
 30
0.0
 10
-0.1025984251968504
 20
-0.6391614173228347
 30
0.0
 10
-0.1073188976377953
 20
-0.6405511811023622
 30
0.0
 10
-0.1073188976377953
 20
-0.6405511811023622
 30
0.0
 10
-0.1022913385826772
 20
-0.6412716535433071
 30
0.0
 10
-0.0981535433070866
 20
-0.6424370078740158
 30
0.0
 10
-0.0949606299212599
 20
-0.6440511811023623
 30
0.0
 10
-0.0949606299212599
 20
-0.6440511811023623
 30
0.0
 10
-0.0897637795275591
 20
-0.6467165354330708
 30
0.0
 10
-0.0856535433070866
 20
-0.6503818897637795
 30
0.0
 10
-0.0826811023622047
 20
-0.6550511811023623
 30
0.0
 10
-0.0826811023622047
 20
-0.6550511811023623
 30
0.0
 10
-0.0796811023622047
 20
-0.6597165354330709
 30
0.0
 10
-0.0782086614173228
 20
-0.6648267716535433
 30
0.0
 10
-0.0782086614173228
 20
-0.6704370078740157
 30
0.0
 10
-0.0782086614173228
 20
-0.6704370078740157
 30
0.0
 10
-0.0782086614173228
 20
-0.6793818897637796
 30
0.0
 10
-0.0821259842519685
 20
-0.6872716535433071
 30
0.0
 10
-0.089988188976378
 20
-0.6940787401574804
 30
0.0
 10
-0.089988188976378
 20
-0.6940787401574804
 30
0.0
 10
-0.0978740157480315
 20
-0.7008818897637795
 30
0.0
 10
-0.1080433070866142
 20
-0.7042716535433071
 30
0.0
 10
-0.1205157480314961
 20
-0.7042716535433071
 30
0.0
 10
-0.1205157480314961
 20
-0.7042716535433071
 30
0.0
 10
-0.1328188976377953
 20
-0.7042716535433071
 30
0.0
 10
-0.1431811023622047
 20
-0.700992125984252
 30
0.0
 10
-0.1515984251968504
 20
-0.6944370078740157
 30
0.0
 10
-0.1515984251968504
 20
-0.6944370078740157
 30
0.0
 10
-0.1586535433070866
 20
-0.6888543307086614
 30
0.0
 10
-0.1621811023622047
 20
-0.6832165354330709
 30
0.0
 10
-0.1621811023622047
 20
-0.6775787401574803
 30
0.0
 10
-0.1621811023622047
 20
-0.6775787401574803
 30
0.0
 10
-0.1621811023622047
 20
-0.6753543307086615
 30
0.0
 10
-0.1614566929133858
 20
-0.673492125984252
 30
0.0
 10
-0.1600157480314961
 20
-0.6720196850393702
 30
0.0
 10
-0.1600157480314961
 20
-0.6720196850393702
 30
0.0
 10
-0.1585984251968504
 20
-0.6705196850393701
 30
0.0
 10
-0.1567913385826772
 20
-0.6697716535433071
 30
0.0
 10
-0.1545984251968504
 20
-0.6697716535433071
 30
0.0
 10
-0.1545984251968504
 20
-0.6697716535433071
 30
0.0
 10
-0.152236220472441
 20
-0.6697716535433071
 30
0.0
 10
-0.1501811023622047
 20
-0.6706889763779528
 30
0.0
 10
-0.1485157480314961
 20
-0.6725511811023622
 30
0.0
 10
-0.1485157480314961
 20
-0.6725511811023622
 30
0.0
 10
-0.1475984251968504
 20
-0.6735787401574803
 30
0.0
 10
-0.1465157480314961
 20
-0.6760472440944882
 30
0.0
 10
-0.1453464566929134
 20
-0.6799370078740158
 30
0.0
 10
-0.1453464566929134
 20
-0.6799370078740158
 30
0.0
 10
-0.1436535433070866
 20
-0.6854370078740157
 30
0.0
 10
-0.1407913385826772
 20
-0.6896062992125984
 30
0.0
 10
-0.1367913385826772
 20
-0.6924645669291338
 30
0.0
 10
-0.1367913385826772
 20
-0.6924645669291338
 30
0.0
 10
-0.1327637795275591
 20
-0.6953543307086615
 30
0.0
 10
-0.1277913385826772
 20
-0.6967992125984253
 30
0.0
 10
-0.1218188976377953
 20
-0.6967992125984253
 30
0.0
 10
-0.1218188976377953
 20
-0.6967992125984253
 30
0.0
 10
-0.116488188976378
 20
-0.6967992125984253
 30
0.0
 10
-0.1117362204724409
 20
-0.6956338582677165
 30
0.0
 10
-0.1075433070866142
 20
-0.6932992125984252
 30
0.0
 10
-0.1075433070866142
 20
-0.6932992125984252
 30
0.0
 10
-0.1033188976377953
 20
-0.6909645669291339
 30
0.0
 10
-0.1000157480314961
 20
-0.6876614173228347
 30
0.0
 10
-0.0975708661417323
 20
-0.6833543307086615
 30
0.0
 10
-0.0975708661417323
 20
-0.6833543307086615
 30
0.0
 10
-0.0951259842519685
 20
-0.6790787401574804
 30
0.0
 10
-0.0939015748031496
 20
-0.6743818897637796
 30
0.0
 10
-0.0939015748031496
 20
-0.6692992125984252
 30
0.0
 10
-0.0939015748031496
 20
-0.6692992125984252
 30
0.0
 10
-0.0939015748031496
 20
-0.6651614173228346
 30
0.0
 10
-0.0947913385826772
 20
-0.6614645669291339
 30
0.0
 10
-0.0965433070866142
 20
-0.6581889763779528
 30
0.0
 10
-0.0965433070866142
 20
-0.6581889763779528
 30
0.0
 10
-0.0983188976377953
 20
-0.6548818897637796
 30
0.0
 10
-0.1008188976377953
 20
-0.6521062992125984
 30
0.0
 10
-0.1040708661417323
 20
-0.6498267716535433
 30
0.0
 10
-0.1040708661417323
 20
-0.6498267716535433
 30
0.0
 10
-0.1065708661417323
 20
-0.6480511811023623
 30
0.0
 10
-0.1097637795275591
 20
-0.6467992125984252
 30
0.0
 10
-0.1136259842519685
 20
-0.6461062992125984
 30
0.0
 10
-0.1136259842519685
 20
-0.6461062992125984
 30
0.0
 10
-0.1175157480314961
 20
-0.6453818897637795
 30
0.0
 10
-0.1210157480314961
 20
-0.6450236220472442
 30
0.0
 10
-0.1240984251968504
 20
-0.6450236220472442
 30
0.0
 10
-0.1240984251968504
 20
-0.6450236220472442
 30
0.0
 10
-0.1240984251968504
 20
-0.6450236220472442
 30
0.0
 10
-0.1316535433070866
 20
-0.6450236220472442
 30
0.0
 10
-0.1316535433070866
 20
-0.6450236220472442
 30
0.0
 10
-0.1316535433070866
 20
-0.6450236220472442
 30
0.0
 10
-0.1316535433070866
 20
-0.6450236220472442
 30
0.0
 10
-0.1316535433070866
 20
-0.6371338582677165
 30
0.0
 10
-0.1316535433070866
 20
-0.6371338582677165
 30
0.0
 10
-0.1316535433070866
 20
-0.6371338582677165
 30
0.0
 10
-0.1316535433070866
 20
-0.6371338582677165
 30
0.0
 10
-0.1268464566929134
 20
-0.6371338582677165
 30
0.0
 10
-0.1268464566929134
 20
-0.6371338582677165
 30
0.0
 10
-0.1268464566929134
 20
-0.6371338582677165
 30
0.0
 10
-0.1220984251968504
 20
-0.6371338582677165
 30
0.0
 10
-0.1175433070866142
 20
-0.6365787401574804
 30
0.0
 10
-0.1131811023622047
 20
-0.6354645669291339
 30
0.0
 10
-0.1131811023622047
 20
-0.6354645669291339
 30
0.0
 10
-0.1088464566929134
 20
-0.6343543307086614
 30
0.0
 10
-0.1053740157480315
 20
-0.6320787401574803
 30
0.0
 10
-0.1027637795275591
 20
-0.6286062992125985
 30
0.0
 10
-0.1027637795275591
 20
-0.6286062992125985
 30
0.0
 10
-0.1001811023622047
 20
-0.6251338582677166
 30
0.0
 10
-0.0988740157480315
 20
-0.6211889763779528
 30
0.0
 10
-0.0988740157480315
 20
-0.6167992125984252
 30
0.0
 10
-0.0988740157480315
 20
-0.6167992125984252
 30
0.0
 10
-0.0988740157480315
 20
-0.6129960629921261
 30
0.0
 10
-0.0997637795275591
 20
-0.6095787401574804
 30
0.0
 10
-0.1015984251968504
 20
-0.6065511811023623
 30
0.0
 10
-0.1015984251968504
 20
-0.6065511811023623
 30
0.0
 10
-0.1034015748031496
 20
-0.603496062992126
 30
0.0
 10
-0.1060708661417323
 20
-0.6010787401574803
 30
0.0
 10
-0.1095984251968504
 20
-0.5992992125984252
 30
0.0
 10
-0.1095984251968504
 20
-0.5992992125984252
 30
0.0
 10
-0.1131259842519685
 20
-0.5975236220472441
 30
0.0
 10
-0.1172086614173228
 20
-0.5966062992125985
 30
0.0
 10
-0.1218188976377953
 20
-0.5966062992125985
 30
0.0
 10
-0.1218188976377953
 20
-0.5966062992125985
 30
0.0
 10
-0.1263188976377953
 20
-0.5966062992125985
 30
0.0
 10
-0.1304606299212598
 20
-0.5975511811023623
 30
0.0
 10
-0.1342362204724409
 20
-0.5993818897637796
 30
0.0
 10
-0.1342362204724409
 20
-0.5993818897637796
 30
0.0
 10
-0.137988188976378
 20
-0.6012165354330709
 30
0.0
 10
-0.1410157480314961
 20
-0.6036889763779528
 30
0.0
 10
-0.1432913385826772
 20
-0.6067992125984252
 30
0.0
 10
-0.1432913385826772
 20
-0.6067992125984252
 30
0.0
 10
-0.1455708661417323
 20
-0.6098818897637796
 30
0.0
 10
-0.1472086614173228
 20
-0.6139960629921261
 30
0.0
 10
-0.1481811023622047
 20
-0.6191614173228347
 30
0.0
  0
SPLINE
  5
41
330
1F
100
AcDbEntity
  8
LAYER_1
 62
   250
100
AcDbSpline
210
0.0
220
0.0
230
1.0
 70
    11
 71
     3
 72
    20
 73
    16
 74
     0
 42
0.0000000001
 43
0.0000000001
 40
0.0
 40
0.0
 40
0.0
 40
0.0
 40
0.25
 40
0.25
 40
0.25
 40
0.25
 40
0.5
 40
0.5
 40
0.5
 40
0.5
 40
0.75
 40
0.75
 40
0.75
 40
0.75
 40
1.0
 40
1.0
 40
1.0
 40
1.0
 10
-0.0577637795275591
 20
-0.6558543307086614
 30
0.0
 10
-0.0577637795275591
 20
-0.6558543307086614
 30
0.0
 10
-0.0094291338582677
 20
-0.6558543307086614
 30
0.0
 10
-0.0094291338582677
 20
-0.6558543307086614
 30
0.0
 10
-0.0094291338582677
 20
-0.6558543307086614
 30
0.0
 10
-0.0094291338582677
 20
-0.6558543307086614
 30
0.0
 10
-0.0094291338582677
 20
-0.6659370078740158
 30
0.0
 10
-0.0094291338582677
 20
-0.6659370078740158
 30
0.0
 10
-0.0094291338582677
 20
-0.6659370078740158
 30
0.0
 10
-0.0094291338582677
 20
-0.6659370078740158
 30
0.0
 10
-0.0577637795275591
 20
-0.6659370078740158
 30
0.0
 10
-0.0577637795275591
 20
-0.6659370078740158
 30
0.0
 10
-0.0577637795275591
 20
-0.6659370078740158
 30
0.0
 10
-0.0577637795275591
 20
-0.6659370078740158
 30
0.0
 10
-0.0577637795275591
 20
-0.6558543307086614
 30
0.0
 10
-0.0577637795275591
 20
-0.6558543307086614
 30
0.0
  0
SPLINE
  5
42
330
1F
100
AcDbEntity
  8
LAYER_1
 62
   250
100
AcDbSpline
210
0.0
220
0.0
230
1.0
 70
    11
 71
     3
 72
    72
 73
    68
 74
     0
 42
0.0000000001
 43
0.0000000001
 40
0.0
 40
0.0
 40
0.0
 40
0.0
 40
0.0588235294117647
 40
0.0588235294117647
 40
0.0588235294117647
 40
0.0588235294117647
 40
0.1176470588235294
 40
0.1176470588235294
 40
0.1176470588235294
 40
0.1176470588235294
 40
0.1764705882352941
 40
0.1764705882352941
 40
0.1764705882352941
 40
0.1764705882352941
 40
0.2352941176470588
 40
0.2352941176470588
 40
0.2352941176470588
 40
0.2352941176470588
 40
0.2941176470588235
 40
0.2941176470588235
 40
0.2941176470588235
 40
0.2941176470588235
 40
0.3529411764705883
 40
0.3529411764705883
 40
0.3529411764705883
 40
0.3529411764705883
 40
0.411764705882353
 40
0.411764705882353
 40
0.411764705882353
 40
0.411764705882353
 40
0.4705882352941177
 40
0.4705882352941177
 40
0.4705882352941177
 40
0.4705882352941177
 40
0.5294117647058824
 40
0.5294117647058824
 40
0.5294117647058824
 40
0.5294117647058824
 40
0.5882352941176471
 40
0.5882352941176471
 40
0.5882352941176471
 40
0.5882352941176471
 40
0.6470588235294118
 40
0.6470588235294118
 40
0.6470588235294118
 40
0.6470588235294118
 40
0.7058823529411765
 40
0.7058823529411765
 40
0.7058823529411765
 40
0.7058823529411765
 40
0.7647058823529412
 40
0.7647058823529412
 40
0.7647058823529412
 40
0.7647058823529412
 40
0.823529411764706
 40
0.823529411764706
 40
0.823529411764706
 40
0.823529411764706
 40
0.8823529411764707
 40
0.8823529411764707
 40
0.8823529411764707
 40
0.8823529411764707
 40
0.9411764705882354
 40
0.9411764705882354
 40
0.9411764705882354
 40
0.9411764705882354
 40
1.0
 40
1.0
 40
1.0
 40
1.0
 10
0.0557637795275591
 20
-0.5887992125984253
 30
0.0
 10
0.0557637795275591
 20
-0.5887992125984253
 30
0.0
 10
0.0618464566929134
 20
-0.5887992125984253
 30
0.0
 10
0.0618464566929134
 20
-0.5887992125984253
 30
0.0
 10
0.0618464566929134
 20
-0.5887992125984253
 30
0.0
 10
0.0618464566929134
 20
-0.5887992125984253
 30
0.0
 10
0.0618464566929134
 20
-0.6830472440944883
 30
0.0
 10
0.0618464566929134
 20
-0.6830472440944883
 30
0.0
 10
0.0618464566929134
 20
-0.6830472440944883
 30
0.0
 10
0.0618464566929134
 20
-0.687492125984252
 30
0.0
 10
0.0621535433070866
 20
-0.6903543307086615
 30
0.0
 10
0.0627086614173228
 20
-0.6916338582677166
 30
0.0
 10
0.0627086614173228
 20
-0.6916338582677166
 30
0.0
 10
0.0632913385826772
 20
-0.6929094488188977
 30
0.0
 10
0.0642086614173228
 20
-0.6938543307086614
 30
0.0
 10
0.0655118110236221
 20
-0.6945196850393701
 30
0.0
 10
0.0655118110236221
 20
-0.6945196850393701
 30
0.0
 10
0.0668188976377953
 20
-0.6951614173228347
 30
0.0
 10
0.0694015748031496
 20
-0.695492125984252
 30
0.0
 10
0.0732637795275591
 20
-0.695492125984252
 30
0.0
 10
0.0732637795275591
 20
-0.695492125984252
 30
0.0
 10
0.0732637795275591
 20
-0.695492125984252
 30
0.0
 10
0.0812362204724409
 20
-0.695492125984252
 30
0.0
 10
0.0812362204724409
 20
-0.695492125984252
 30
0.0
 10
0.0812362204724409
 20
-0.695492125984252
 30
0.0
 10
0.0812362204724409
 20
-0.695492125984252
 30
0.0
 10
0.0812362204724409
 20
-0.7023267716535433
 30
0.0
 10
0.0812362204724409
 20
-0.7023267716535433
 30
0.0
 10
0.0812362204724409
 20
-0.7023267716535433
 30
0.0
 10
0.0812362204724409
 20
-0.7023267716535433
 30
0.0
 10
0.0275984251968504
 20
-0.7023267716535433
 30
0.0
 10
0.0275984251968504
 20
-0.7023267716535433
 30
0.0
 10
0.0275984251968504
 20
-0.7023267716535433
 30
0.0
 10
0.0275984251968504
 20
-0.7023267716535433
 30
0.0
 10
0.0275984251968504
 20
-0.695492125984252
 30
0.0
 10
0.0275984251968504
 20
-0.695492125984252
 30
0.0
 10
0.0275984251968504
 20
-0.695492125984252
 30
0.0
 10
0.0275984251968504
 20
-0.695492125984252
 30
0.0
 10
0.0364566929133858
 20
-0.695492125984252
 30
0.0
 10
0.0364566929133858
 20
-0.695492125984252
 30
0.0
 10
0.0364566929133858
 20
-0.695492125984252
 30
0.0
 10
0.0403188976377953
 20
-0.695492125984252
 30
0.0
 10
0.0428740157480315
 20
-0.6951614173228347
 30
0.0
 10
0.0441535433070866
 20
-0.6944645669291338
 30
0.0
 10
0.0441535433070866
 20
-0.6944645669291338
 30
0.0
 10
0.0454291338582677
 20
-0.6937992125984253
 30
0.0
 10
0.0464291338582677
 20
-0.6927165354330709
 30
0.0
 10
0.0471259842519685
 20
-0.6912165354330709
 30
0.0
 10
0.0471259842519685
 20
-0.6912165354330709
 30
0.0
 10
0.0478188976377953
 20
-0.6897165354330709
 30
0.0
 10
0.0481811023622047
 20
-0.686992125984252
 30
0.0
 10
0.0481811023622047
 20
-0.6830472440944883
 30
0.0
 10
0.0481811023622047
 20
-0.6830472440944883
 30
0.0
 10
0.0481811023622047
 20
-0.6830472440944883
 30
0.0
 10
0.0481811023622047
 20
-0.6055787401574804
 30
0.0
 10
0.0481811023622047
 20
-0.6055787401574804
 30
0.0
 10
0.0481811023622047
 20
-0.6055787401574804
 30
0.0
 10
0.0481811023622047
 20
-0.6055787401574804
 30
0.0
 10
0.0275984251968504
 20
-0.6055787401574804
 30
0.0
 10
0.0275984251968504
 20
-0.6055787401574804
 30
0.0
 10
0.0275984251968504
 20
-0.6055787401574804
 30
0.0
 10
0.0275984251968504
 20
-0.6055787401574804
 30
0.0
 10
0.0275984251968504
 20
-0.5985787401574804
 30
0.0
 10
0.0275984251968504
 20
-0.5985787401574804
 30
0.0
 10
0.0275984251968504
 20
-0.5985787401574804
 30
0.0
 10
0.0388188976377953
 20
-0.596996062992126
 30
0.0
 10
0.0482086614173228
 20
-0.593744094488189
 30
0.0
 10
0.0557637795275591
 20
-0.5887992125984253
 30
0.0
  0
SPLINE
  5
43
330
1F
100
AcDbEntity
  8
LAYER_1
 62
   250
100
AcDbSpline
210
0.0
220
0.0
230
1.0
 70
    11
 71
     3
 72
    20
 73
    16
 74
     0
 42
0.0000000001
 43
0.0000000001
 40
0.0
 40
0.0
 40
0.0
 40
0.0
 40
0.25
 40
0.25
 40
0.25
 40
0.25
 40
0.5
 40
0.5
 40
0.5
 40
0.5
 40
0.75
 40
0.75
 40
0.75
 40
0.75
 40
1.0
 40
1.0
 40
1.0
 40
1.0
 10
0.1845984251968504
 20
-0.5829370078740158
 30
0.0
 10
0.1845984251968504
 20
-0.5829370078740158
 30
0.0
 10
0.1290157480314961
 20
-0.7386338582677166
 30
0.0
 10
0.1290157480314961
 20
-0.7386338582677166
 30
0.0
 10
0.1290157480314961
 20
-0.7386338582677166
 30
0.0
 10
0.1290157480314961
 20
-0.7386338582677166
 30
0.0
 10
0.1169606299212598
 20
-0.7386338582677166
 30
0.0
 10
0.1169606299212598
 20
-0.7386338582677166
 30
0.0
 10
0.1169606299212598
 20
-0.7386338582677166
 30
0.0
 10
0.1169606299212598
 20
-0.7386338582677166
 30
0.0
 10
0.1722086614173228
 20
-0.5829370078740158
 30
0.0
 10
0.1722086614173228
 20
-0.5829370078740158
 30
0.0
 10
0.1722086614173228
 20
-0.5829370078740158
 30
0.0
 10
0.1722086614173228
 20
-0.5829370078740158
 30
0.0
 10
0.1845984251968504
 20
-0.5829370078740158
 30
0.0
 10
0.1845984251968504
 20
-0.5829370078740158
 30
0.0
  0
SPLINE
  5
44
330
1F
100
AcDbEntity
  8
LAYER_1
 62
   250
100
AcDbSpline
210
0.0
220
0.0
230
1.0
 70
    11
 71
     3
 72
    48
 73
    44
 74
     0
 42
0.0000000001
 43
0.0000000001
 40
0.0
 40
0.0
 40
0.0
 40
0.0
 40
0.0909090909090909
 40
0.0909090909090909
 40
0.0909090909090909
 40
0.0909090909090909
 40
0.1818181818181818
 40
0.1818181818181818
 40
0.1818181818181818
 40
0.1818181818181818
 40
0.2727272727272727
 40
0.2727272727272727
 40
0.2727272727272727
 40
0.2727272727272727
 40
0.3636363636363637
 40
0.3636363636363637
 40
0.3636363636363637
 40
0.3636363636363637
 40
0.4545454545454546
 40
0.4545454545454546
 40
0.4545454545454546
 40
0.4545454545454546
 40
0.5454545454545455
 40
0.5454545454545455
 40
0.5454545454545455
 40
0.5454545454545455
 40
0.6363636363636365
 40
0.6363636363636365
 40
0.6363636363636365
 40
0.6363636363636365
 40
0.7272727272727274
 40
0.7272727272727274
 40
0.7272727272727274
 40
0.7272727272727274
 40
0.8181818181818183
 40
0.8181818181818183
 40
0.8181818181818183
 40
0.8181818181818183
 40
0.9090909090909093
 40
0.9090909090909093
 40
0.9090909090909093
 40
0.9090909090909093
 40
1.0
 40
1.0
 40
1.0
 40
1.0
 10
0.2635433070866142
 20
-0.5887992125984253
 30
0.0
 10
0.2635433070866142
 20
-0.5887992125984253
 30
0.0
 10
0.2772913385826772
 20
-0.5887992125984253
 30
0.0
 10
0.2772913385826772
 20
-0.5887992125984253
 30
0.0
 10
0.2772913385826772
 20
-0.5887992125984253
 30
0.0
 10
0.2772913385826772
 20
-0.5887992125984253
 30
0.0
 10
0.2772913385826772
 20
-0.6547992125984252
 30
0.0
 10
0.2772913385826772
 20
-0.6547992125984252
 30
0.0
 10
0.2772913385826772
 20
-0.6547992125984252
 30
0.0
 10
0.2772913385826772
 20
-0.6547992125984252
 30
0.0
 10
0.2986259842519685
 20
-0.6547992125984252
 30
0.0
 10
0.2986259842519685
 20
-0.6547992125984252
 30
0.0
 10
0.2986259842519685
 20
-0.6547992125984252
 30
0.0
 10
0.2986259842519685
 20
-0.6547992125984252
 30
0.0
 10
0.2986259842519685
 20
-0.6649645669291339
 30
0.0
 10
0.2986259842519685
 20
-0.6649645669291339
 30
0.0
 10
0.2986259842519685
 20
-0.6649645669291339
 30
0.0
 10
0.2986259842519685
 20
-0.6649645669291339
 30
0.0
 10
0.2772913385826772
 20
-0.6649645669291339
 30
0.0
 10
0.2772913385826772
 20
-0.6649645669291339
 30
0.0
 10
0.2772913385826772
 20
-0.6649645669291339
 30
0.0
 10
0.2772913385826772
 20
-0.6649645669291339
 30
0.0
 10
0.2772913385826772
 20
-0.7023267716535433
 30
0.0
 10
0.2772913385826772
 20
-0.7023267716535433
 30
0.0
 10
0.2772913385826772
 20
-0.7023267716535433
 30
0.0
 10
0.2772913385826772
 20
-0.7023267716535433
 30
0.0
 10
0.2635433070866142
 20
-0.7023267716535433
 30
0.0
 10
0.2635433070866142
 20
-0.7023267716535433
 30
0.0
 10
0.2635433070866142
 20
-0.7023267716535433
 30
0.0
 10
0.2635433070866142
 20
-0.7023267716535433
 30
0.0
 10
0.2635433070866142
 20
-0.6649645669291339
 30
0.0
 10
0.2635433070866142
 20
-0.6649645669291339
 30
0.0
 10
0.2635433070866142
 20
-0.6649645669291339
 30
0.0
 10
0.2635433070866142
 20
-0.6649645669291339
 30
0.0
 10
0.2100708661417323
 20
-0.6649645669291339
 30
0.0
 10
0.2100708661417323
 20
-0.6649645669291339
 30
0.0
 10
0.2100708661417323
 20
-0.6649645669291339
 30
0.0
 10
0.2100708661417323
 20
-0.6649645669291339
 30
0.0
 10
0.2100708661417323
 20
-0.6506614173228347
 30
0.0
 10
0.2100708661417323
 20
-0.6506614173228347
 30
0.0
 10
0.2100708661417323
 20
-0.6506614173228347
 30
0.0
 10
0.2100708661417323
 20
-0.6506614173228347
 30
0.0
 10
0.2635433070866142
 20
-0.5887992125984253
 30
0.0
 10
0.2635433070866142
 20
-0.5887992125984253
 30
0.0
  0
SPLINE
  5
45
330
1F
100
AcDbEntity
  8
LAYER_1
 62
   250
100
AcDbSpline
210
0.0
220
0.0
230
1.0
 70
    11
 71
     3
 72
    16
 73
    12
 74
     0
 42
0.0000000001
 43
0.0000000001
 40
0.0
 40
0.0
 40
0.0
 40
0.0
 40
0.3333333333333333
 40
0.3333333333333333
 40
0.3333333333333333
 40
0.3333333333333333
 40
0.6666666666666666
 40
0.6666666666666666
 40
0.6666666666666666
 40
0.6666666666666666
 40
1.0
 40
1.0
 40
1.0
 40
1.0
 10
0.2635433070866142
 20
-0.6547992125984252
 30
0.0
 10
0.2635433070866142
 20
-0.6547992125984252
 30
0.0
 10
0.2635433070866142
 20
-0.6014094488188977
 30
0.0
 10
0.2635433070866142
 20
-0.6014094488188977
 30
0.0
 10
0.2635433070866142
 20
-0.6014094488188977
 30
0.0
 10
0.2635433070866142
 20
-0.6014094488188977
 30
0.0
 10
0.217488188976378
 20
-0.6547992125984252
 30
0.0
 10
0.217488188976378
 20
-0.6547992125984252
 30
0.0
 10
0.217488188976378
 20
-0.6547992125984252
 30
0.0
 10
0.217488188976378
 20
-0.6547992125984252
 30
0.0
 10
0.2635433070866142
 20
-0.6547992125984252
 30
0.0
 10
0.2635433070866142
 20
-0.6547992125984252
 30
0.0
  0
SPLINE
  5
46
330
1F
100
AcDbEntity
  8
LAYER_1
 62
   250
100
AcDbSpline
210
0.0
220
0.0
230
1.0
 70
    11
 71
     3
 72
    60
 73
    56
 74
     0
 42
0.0000000001
 43
0.0000000001
 40
0.0
 40
0.0
 40
0.0
 40
0.0
 40
0.0714285714285714
 40
0.0714285714285714
 40
0.0714285714285714
 40
0.0714285714285714
 40
0.1428571428571429
 40
0.1428571428571429
 40
0.1428571428571429
 40
0.1428571428571429
 40
0.2142857142857143
 40
0.2142857142857143
 40
0.2142857142857143
 40
0.2142857142857143
 40
0.2857142857142857
 40
0.2857142857142857
 40
0.2857142857142857
 40
0.2857142857142857
 40
0.3571428571428571
 40
0.3571428571428571
 40
0.3571428571428571
 40
0.3571428571428571
 40
0.4285714285714285
 40
0.4285714285714285
 40
0.4285714285714285
 40
0.4285714285714285
 40
0.4999999999999999
 40
0.4999999999999999
 40
0.4999999999999999
 40
0.4999999999999999
 40
0.5714285714285713
 40
0.5714285714285713
 40
0.5714285714285713
 40
0.5714285714285713
 40
0.6428571428571427
 40
0.6428571428571427
 40
0.6428571428571427
 40
0.6428571428571427
 40
0.7142857142857141
 40
0.7142857142857141
 40
0.7142857142857141
 40
0.7142857142857141
 40
0.7857142857142855
 40
0.7857142857142855
 40
0.7857142857142855
 40
0.7857142857142855
 40
0.8571428571428569
 40
0.8571428571428569
 40
0.8571428571428569
 40
0.8571428571428569
 40
0.9285714285714283
 40
0.9285714285714283
 40
0.9285714285714283
 40
0.9285714285714283
 40
1.0
 40
1.0
 40
1.0
 40
1.0
 10
0.3165984251968504
 20
-0.6308818897637796
 30
0.0
 10
0.3165984251968504
 20
-0.6308818897637796
 30
0.0
 10
0.3122086614173228
 20
-0.625492125984252
 30
0.0
 10
0.3122086614173228
 20
-0.625492125984252
 30
0.0
 10
0.3122086614173228
 20
-0.625492125984252
 30
0.0
 10
0.3233228346456693
 20
-0.6164370078740158
 30
0.0
 10
0.3289055118110236
 20
-0.6088818897637796
 30
0.0
 10
0.3289055118110236
 20
-0.6027992125984252
 30
0.0
 10
0.3289055118110236
 20
-0.6027992125984252
 30
0.0
 10
0.3289055118110236
 20
-0.6021062992125984
 30
0.0
 10
0.3288503937007874
 20
-0.6012165354330709
 30
0.0
 10
0.3287362204724409
 20
-0.6001889763779528
 30
0.0
 10
0.3287362204724409
 20
-0.6001889763779528
 30
0.0
 10
0.3278228346456693
 20
-0.6005787401574804
 30
0.0
 10
0.3269055118110236
 20
-0.6008818897637795
 30
0.0
 10
0.3260433070866142
 20
-0.6010787401574803
 30
0.0
 10
0.3260433070866142
 20
-0.6010787401574803
 30
0.0
 10
0.3251811023622047
 20
-0.6012992125984252
 30
0.0
 10
0.3243779527559055
 20
-0.6014094488188977
 30
0.0
 10
0.3235984251968504
 20
-0.6014094488188977
 30
0.0
 10
0.3235984251968504
 20
-0.6014094488188977
 30
0.0
 10
0.320988188976378
 20
-0.6014094488188977
 30
0.0
 10
0.3189055118110236
 20
-0.6005787401574804
 30
0.0
 10
0.3173503937007874
 20
-0.5988818897637795
 30
0.0
 10
0.3173503937007874
 20
-0.5988818897637795
 30
0.0
 10
0.3157637795275591
 20
-0.5972165354330709
 30
0.0
 10
0.314988188976378
 20
-0.5950787401574803
 30
0.0
 10
0.314988188976378
 20
-0.5924645669291339
 30
0.0
 10
0.314988188976378
 20
-0.5924645669291339
 30
0.0
 10
0.314988188976378
 20
-0.5899094488188976
 30
0.0
 10
0.3159330708661418
 20
-0.5876889763779528
 30
0.0
 10
0.3178228346456693
 20
-0.5857992125984253
 30
0.0
 10
0.3178228346456693
 20
-0.5857992125984253
 30
0.0
 10
0.3197362204724409
 20
-0.5838818897637795
 30
0.0
 10
0.3220157480314961
 20
-0.5829370078740158
 30
0.0
 10
0.3246535433070866
 20
-0.5829370078740158
 30
0.0
 10
0.3246535433070866
 20
-0.5829370078740158
 30
0.0
 10
0.3283503937007874
 20
-0.5829370078740158
 30
0.0
 10
0.3315157480314961
 20
-0.5844094488188977
 30
0.0
 10
0.3341535433070866
 20
-0.5873818897637796
 30
0.0
 10
0.3341535433070866
 20
-0.5873818897637796
 30
0.0
 10
0.3367637795275591
 20
-0.5903267716535433
 30
0.0
 10
0.3380984251968504
 20
-0.5941338582677166
 30
0.0
 10
0.3380984251968504
 20
-0.5987992125984252
 30
0.0
 10
0.3380984251968504
 20
-0.5987992125984252
 30
0.0
 10
0.3380984251968504
 20
-0.6018543307086615
 30
0.0
 10
0.3374606299212599
 20
-0.6050511811023622
 30
0.0
 10
0.3362086614173229
 20
-0.6083818897637796
 30
0.0
 10
0.3362086614173229
 20
-0.6083818897637796
 30
0.0
 10
0.3349606299212599
 20
-0.6117165354330709
 30
0.0
 10
0.3331535433070866
 20
-0.6147992125984252
 30
0.0
 10
0.3307637795275591
 20
-0.6176614173228346
 30
0.0
 10
0.3307637795275591
 20
-0.6176614173228346
 30
0.0
 10
0.3283779527559055
 20
-0.620492125984252
 30
0.0
 10
0.3236535433070866
 20
-0.6249094488188977
 30
0.0
 10
0.3165984251968504
 20
-0.6308818897637796
 30
0.0
  0
SPLINE
  5
47
330
1F
100
AcDbEntity
  8
LAYER_1
 62
   250
100
AcDbSpline
210
0.0
220
0.0
230
1.0
 70
    11
 71
     3
 72
    60
 73
    56
 74
     0
 42
0.0000000001
 43
0.0000000001
 40
0.0
 40
0.0
 40
0.0
 40
0.0
 40
0.0714285714285714
 40
0.0714285714285714
 40
0.0714285714285714
 40
0.0714285714285714
 40
0.1428571428571429
 40
0.1428571428571429
 40
0.1428571428571429
 40
0.1428571428571429
 40
0.2142857142857143
 40
0.2142857142857143
 40
0.2142857142857143
 40
0.2142857142857143
 40
0.2857142857142857
 40
0.2857142857142857
 40
0.2857142857142857
 40
0.2857142857142857
 40
0.3571428571428571
 40
0.3571428571428571
 40
0.3571428571428571
 40
0.3571428571428571
 40
0.4285714285714285
 40
0.4285714285714285
 40
0.4285714285714285
 40
0.4285714285714285
 40
0.4999999999999999
 40
0.4999999999999999
 40
0.4999999999999999
 40
0.4999999999999999
 40
0.5714285714285713
 40
0.5714285714285713
 40
0.5714285714285713
 40
0.5714285714285713
 40
0.6428571428571427
 40
0.6428571428571427
 40
0.6428571428571427
 40
0.6428571428571427
 40
0.7142857142857141
 40
0.7142857142857141
 40
0.7142857142857141
 40
0.7142857142857141
 40
0.7857142857142855
 40
0.7857142857142855
 40
0.7857142857142855
 40
0.7857142857142855
 40
0.8571428571428569
 40
0.8571428571428569
 40
0.8571428571428569
 40
0.8571428571428569
 40
0.9285714285714283
 40
0.9285714285714283
 40
0.9285714285714283
 40
0.9285714285714283
 40
1.0
 40
1.0
 40
1.0
 40
1.0
 10
0.3456535433070866
 20
-0.6308818897637796
 30
0.0
 10
0.3456535433070866
 20
-0.6308818897637796
 30
0.0
 10
0.341263779527559
 20
-0.625492125984252
 30
0.0
 10
0.341263779527559
 20
-0.625492125984252
 30
0.0
 10
0.341263779527559
 20
-0.625492125984252
 30
0.0
 10
0.3523779527559055
 20
-0.6164370078740158
 30
0.0
 10
0.3579606299212599
 20
-0.6088818897637796
 30
0.0
 10
0.3579606299212599
 20
-0.6027992125984252
 30
0.0
 10
0.3579606299212599
 20
-0.6027992125984252
 30
0.0
 10
0.3579606299212599
 20
-0.6021062992125984
 30
0.0
 10
0.3579055118110237
 20
-0.6012165354330709
 30
0.0
 10
0.3577913385826772
 20
-0.6001889763779528
 30
0.0
 10
0.3577913385826772
 20
-0.6001889763779528
 30
0.0
 10
0.3568779527559055
 20
-0.6005787401574804
 30
0.0
 10
0.3559606299212599
 20
-0.6008818897637795
 30
0.0
 10
0.3550984251968504
 20
-0.6010787401574803
 30
0.0
 10
0.3550984251968504
 20
-0.6010787401574803
 30
0.0
 10
0.354236220472441
 20
-0.6012992125984252
 30
0.0
 10
0.3534055118110236
 20
-0.6014094488188977
 30
0.0
 10
0.3525708661417323
 20
-0.6014094488188977
 30
0.0
 10
0.3525708661417323
 20
-0.6014094488188977
 30
0.0
 10
0.3500157480314961
 20
-0.6014094488188977
 30
0.0
 10
0.3479606299212599
 20
-0.6005787401574804
 30
0.0
 10
0.3464055118110236
 20
-0.5988818897637795
 30
0.0
 10
0.3464055118110236
 20
-0.5988818897637795
 30
0.0
 10
0.3448228346456693
 20
-0.5972165354330709
 30
0.0
 10
0.3440433070866142
 20
-0.5950787401574803
 30
0.0
 10
0.3440433070866142
 20
-0.5924645669291339
 30
0.0
 10
0.3440433070866142
 20
-0.5924645669291339
 30
0.0
 10
0.3440433070866142
 20
-0.5899094488188976
 30
0.0
 10
0.344988188976378
 20
-0.5876889763779528
 30
0.0
 10
0.3468779527559056
 20
-0.5857992125984253
 30
0.0
 10
0.3468779527559056
 20
-0.5857992125984253
 30
0.0
 10
0.3487637795275591
 20
-0.5838818897637795
 30
0.0
 10
0.3510708661417323
 20
-0.5829370078740158
 30
0.0
 10
0.3537086614173228
 20
-0.5829370078740158
 30
0.0
 10
0.3537086614173228
 20
-0.5829370078740158
 30
0.0
 10
0.3574055118110237
 20
-0.5829370078740158
 30
0.0
 10
0.3605708661417323
 20
-0.5844094488188977
 30
0.0
 10
0.3632086614173228
 20
-0.5873818897637796
 30
0.0
 10
0.3632086614173228
 20
-0.5873818897637796
 30
0.0
 10
0.3658188976377953
 20
-0.5903267716535433
 30
0.0
 10
0.3671535433070866
 20
-0.5941338582677166
 30
0.0
 10
0.3671535433070866
 20
-0.5987992125984252
 30
0.0
 10
0.3671535433070866
 20
-0.5987992125984252
 30
0.0
 10
0.3671535433070866
 20
-0.6018543307086615
 30
0.0
 10
0.3665157480314961
 20
-0.6050511811023622
 30
0.0
 10
0.3652637795275591
 20
-0.6083818897637796
 30
0.0
 10
0.3652637795275591
 20
-0.6083818897637796
 30
0.0
 10
0.3640157480314961
 20
-0.6117165354330709
 30
0.0
 10
0.3622086614173228
 20
-0.6147992125984252
 30
0.0
 10
0.3598228346456693
 20
-0.6176614173228346
 30
0.0
 10
0.3598228346456693
 20
-0.6176614173228346
 30
0.0
 10
0.3574330708661417
 20
-0.620492125984252
 30
0.0
 10
0.3527086614173228
 20
-0.6249094488188977
 30
0.0
 10
0.3456535433070866
 20
-0.6308818897637796
 30
0.0
  0
SPLINE
  5
48
330
1F
100
AcDbEntity
  8
LAYER_1
 62
   252
100
AcDbSpline
210
0.0
220
0.0
230
1.0
 70
    11
 71
     3
 72
    20
 73
    16
 74
     0
 42
0.0000000001
 43
0.0000000001
 40
0.0
 40
0.0
 40
0.0
 40
0.0
 40
0.25
 40
0.25
 40
0.25
 40
0.25
 40
0.5
 40
0.5
 40
0.5
 40
0.5
 40
0.75
 40
0.75
 40
0.75
 40
0.75
 40
1.0
 40
1.0
 40
1.0
 40
1.0
 10
1.491677165354331
 20
2.61651968503937
 30
0.0
 10
1.491677165354331
 20
2.61651968503937
 30
0.0
 10
1.493917322834646
 20
3.369622047244095
 30
0.0
 10
1.493917322834646
 20
3.369622047244095
 30
0.0
 10
1.493917322834646
 20
3.369622047244095
 30
0.0
 10
1.493917322834646
 20
3.369622047244095
 30
0.0
 10
0.6189173228346457
 20
3.369622047244095
 30
0.0
 10
0.6189173228346457
 20
3.369622047244095
 30
0.0
 10
0.6189173228346457
 20
3.369622047244095
 30
0.0
 10
0.6189173228346457
 20
3.369622047244095
 30
0.0
 10
0.6166771653543307
 20
2.61651968503937
 30
0.0
 10
0.6166771653543307
 20
2.61651968503937
 30
0.0
 10
0.6166771653543307
 20
2.61651968503937
 30
0.0
 10
0.6166771653543307
 20
2.61651968503937
 30
0.0
 10
1.491677165354331
 20
2.61651968503937
 30
0.0
 10
1.491677165354331
 20
2.61651968503937
 30
0.0
  0
SPLINE
  5
49
330
1F
100
AcDbEntity
  8
LAYER_1
 62
   250
100
AcDbSpline
210
0.0
220
0.0
230
1.0
 70
    11
 71
     3
 72
    20
 73
    16
 74
     0
 42
0.0000000001
 43
0.0000000001
 40
0.0
 40
0.0
 40
0.0
 40
0.0
 40
0.25
 40
0.25
 40
0.25
 40
0.25
 40
0.5
 40
0.5
 40
0.5
 40
0.5
 40
0.75
 40
0.75
 40
0.75
 40
0.75
 40
1.0
 40
1.0
 40
1.0
 40
1.0
 10
1.491677165354331
 20
2.61651968503937
 30
0.0
 10
1.491677165354331
 20
2.61651968503937
 30
0.0
 10
1.493917322834646
 20
3.369622047244095
 30
0.0
 10
1.493917322834646
 20
3.369622047244095
 30
0.0
 10
1.493917322834646
 20
3.369622047244095
 30
0.0
 10
1.493917322834646
 20
3.369622047244095
 30
0.0
 10
0.6189173228346457
 20
3.369622047244095
 30
0.0
 10
0.6189173228346457
 20
3.369622047244095
 30
0.0
 10
0.6189173228346457
 20
3.369622047244095
 30
0.0
 10
0.6189173228346457
 20
3.369622047244095
 30
0.0
 10
0.6166771653543307
 20
2.61651968503937
 30
0.0
 10
0.6166771653543307
 20
2.61651968503937
 30
0.0
 10
0.6166771653543307
 20
2.61651968503937
 30
0.0
 10
0.6166771653543307
 20
2.61651968503937
 30
0.0
 10
1.491677165354331
 20
2.61651968503937
 30
0.0
 10
1.491677165354331
 20
2.61651968503937
 30
0.0
  0
SPLINE
  5
4A
330
1F
100
AcDbEntity
  8
LAYER_1
 62
   250
100
AcDbSpline
210
0.0
220
0.0
230
1.0
 70
    11
 71
     3
 72
    20
 73
    16
 74
     0
 42
0.0000000001
 43
0.0000000001
 40
0.0
 40
0.0
 40
0.0
 40
0.0
 40
0.25
 40
0.25
 40
0.25
 40
0.25
 40
0.5
 40
0.5
 40
0.5
 40
0.5
 40
0.75
 40
0.75
 40
0.75
 40
0.75
 40
1.0
 40
1.0
 40
1.0
 40
1.0
 10
0.6166771653543307
 20
2.61651968503937
 30
0.0
 10
0.6166771653543307
 20
2.61651968503937
 30
0.0
 10
0.6189173228346457
 20
3.369622047244095
 30
0.0
 10
0.6189173228346457
 20
3.369622047244095
 30
0.0
 10
0.6189173228346457
 20
3.369622047244095
 30
0.0
 10
0.6189173228346457
 20
3.369622047244095
 30
0.0
 10
0.5960669291338583
 20
3.244622047244095
 30
0.0
 10
0.5960669291338583
 20
3.244622047244095
 30
0.0
 10
0.5960669291338583
 20
3.244622047244095
 30
0.0
 10
0.5960669291338583
 20
3.244622047244095
 30
0.0
 10
0.5938267716535434
 20
2.49151968503937
 30
0.0
 10
0.5938267716535434
 20
2.49151968503937
 30
0.0
 10
0.5938267716535434
 20
2.49151968503937
 30
0.0
 10
0.5938267716535434
 20
2.49151968503937
 30
0.0
 10
0.6166771653543307
 20
2.61651968503937
 30
0.0
 10
0.6166771653543307
 20
2.61651968503937
 30
0.0
  0
SPLINE
  5
4B
330
1F
100
AcDbEntity
  8
LAYER_1
 62
   250
100
AcDbSpline
210
0.0
220
0.0
230
1.0
 70
    11
 71
     3
 72
    20
 73
    16
 74
     0
 42
0.0000000001
 43
0.0000000001
 40
0.0
 40
0.0
 40
0.0
 40
0.0
 40
0.25
 40
0.25
 40
0.25
 40
0.25
 40
0.5
 40
0.5
 40
0.5
 40
0.5
 40
0.75
 40
0.75
 40
0.75
 40
0.75
 40
1.0
 40
1.0
 40
1.0
 40
1.0
 10
0.6166771653543307
 20
2.61651968503937
 30
0.0
 10
0.6166771653543307
 20
2.61651968503937
 30
0.0
 10
0.6189173228346457
 20
3.369622047244095
 30
0.0
 10
0.6189173228346457
 20
3.369622047244095
 30
0.0
 10
0.6189173228346457
 20
3.369622047244095
 30
0.0
 10
0.6189173228346457
 20
3.369622047244095
 30
0.0
 10
0.5960669291338583
 20
3.244622047244095
 30
0.0
 10
0.5960669291338583
 20
3.244622047244095
 30
0.0
 10
0.5960669291338583
 20
3.244622047244095
 30
0.0
 10
0.5960669291338583
 20
3.244622047244095
 30
0.0
 10
0.5938267716535434
 20
2.49151968503937
 30
0.0
 10
0.5938267716535434
 20
2.49151968503937
 30
0.0
 10
0.5938267716535434
 20
2.49151968503937
 30
0.0
 10
0.5938267716535434
 20
2.49151968503937
 30
0.0
 10
0.6166771653543307
 20
2.61651968503937
 30
0.0
 10
0.6166771653543307
 20
2.61651968503937
 30
0.0
  0
SPLINE
  5
4C
330
1F
100
AcDbEntity
  8
LAYER_1
 62
   252
100
AcDbSpline
210
0.0
220
0.0
230
1.0
 70
    11
 71
     3
 72
    20
 73
    16
 74
     0
 42
0.0000000001
 43
0.0000000001
 40
0.0
 40
0.0
 40
0.0
 40
0.0
 40
0.25
 40
0.25
 40
0.25
 40
0.25
 40
0.5
 40
0.5
 40
0.5
 40
0.5
 40
0.75
 40
0.75
 40
0.75
 40
0.75
 40
1.0
 40
1.0
 40
1.0
 40
1.0
 10
0.5938267716535434
 20
2.49151968503937
 30
0.0
 10
0.5938267716535434
 20
2.49151968503937
 30
0.0
 10
0.5960669291338583
 20
3.244622047244095
 30
0.0
 10
0.5960669291338583
 20
3.244622047244095
 30
0.0
 10
0.5960669291338583
 20
3.244622047244095
 30
0.0
 10
0.5960669291338583
 20
3.244622047244095
 30
0.0
 10
-0.8582322834645669
 20
3.244622047244095
 30
0.0
 10
-0.8582322834645669
 20
3.244622047244095
 30
0.0
 10
-0.8582322834645669
 20
3.244622047244095
 30
0.0
 10
-0.8582322834645669
 20
3.244622047244095
 30
0.0
 10
-0.860472440944882
 20
2.49151968503937
 30
0.0
 10
-0.860472440944882
 20
2.49151968503937
 30
0.0
 10
-0.860472440944882
 20
2.49151968503937
 30
0.0
 10
-0.860472440944882
 20
2.49151968503937
 30
0.0
 10
0.5938267716535434
 20
2.49151968503937
 30
0.0
 10
0.5938267716535434
 20
2.49151968503937
 30
0.0
  0
SPLINE
  5
4D
330
1F
100
AcDbEntity
  8
LAYER_1
 62
   250
100
AcDbSpline
210
0.0
220
0.0
230
1.0
 70
    11
 71
     3
 72
    20
 73
    16
 74
     0
 42
0.0000000001
 43
0.0000000001
 40
0.0
 40
0.0
 40
0.0
 40
0.0
 40
0.25
 40
0.25
 40
0.25
 40
0.25
 40
0.5
 40
0.5
 40
0.5
 40
0.5
 40
0.75
 40
0.75
 40
0.75
 40
0.75
 40
1.0
 40
1.0
 40
1.0
 40
1.0
 10
0.5938267716535434
 20
2.49151968503937
 30
0.0
 10
0.5938267716535434
 20
2.49151968503937
 30
0.0
 10
0.5960669291338583
 20
3.244622047244095
 30
0.0
 10
0.5960669291338583
 20
3.244622047244095
 30
0.0
 10
0.5960669291338583
 20
3.244622047244095
 30
0.0
 10
0.5960669291338583
 20
3.244622047244095
 30
0.0
 10
-0.8582322834645669
 20
3.244622047244095
 30
0.0
 10
-0.8582322834645669
 20
3.244622047244095
 30
0.0
 10
-0.8582322834645669
 20
3.244622047244095
 30
0.0
 10
-0.8582322834645669
 20
3.244622047244095
 30
0.0
 10
-0.860472440944882
 20
2.49151968503937
 30
0.0
 10
-0.860472440944882
 20
2.49151968503937
 30
0.0
 10
-0.860472440944882
 20
2.49151968503937
 30
0.0
 10
-0.860472440944882
 20
2.49151968503937
 30
0.0
 10
0.5938267716535434
 20
2.49151968503937
 30
0.0
 10
0.5938267716535434
 20
2.49151968503937
 30
0.0
  0
SPLINE
  5
4E
330
1F
100
AcDbEntity
  8
LAYER_1
 62
   252
100
AcDbSpline
210
0.0
220
0.0
230
1.0
 70
    11
 71
     3
 72
    20
 73
    16
 74
     0
 42
0.0000000001
 43
0.0000000001
 40
0.0
 40
0.0
 40
0.0
 40
0.0
 40
0.25
 40
0.25
 40
0.25
 40
0.25
 40
0.5
 40
0.5
 40
0.5
 40
0.5
 40
0.75
 40
0.75
 40
0.75
 40
0.75
 40
1.0
 40
1.0
 40
1.0
 40
1.0
 10
-0.860472440944882
 20
2.49151968503937
 30
0.0
 10
-0.860472440944882
 20
2.49151968503937
 30
0.0
 10
-0.8582322834645669
 20
3.244622047244095
 30
0.0
 10
-0.8582322834645669
 20
3.244622047244095
 30
0.0
 10
-0.8582322834645669
 20
3.244622047244095
 30
0.0
 10
-0.8582322834645669
 20
3.244622047244095
 30
0.0
 10
-0.8810826771653544
 20
3.369622047244095
 30
0.0
 10
-0.8810826771653544
 20
3.369622047244095
 30
0.0
 10
-0.8810826771653544
 20
3.369622047244095
 30
0.0
 10
-0.8810826771653544
 20
3.369622047244095
 30
0.0
 10
-0.8833228346456693
 20
2.61651968503937
 30
0.0
 10
-0.8833228346456693
 20
2.61651968503937
 30
0.0
 10
-0.8833228346456693
 20
2.61651968503937
 30
0.0
 10
-0.8833228346456693
 20
2.61651968503937
 30
0.0
 10
-0.860472440944882
 20
2.49151968503937
 30
0.0
 10
-0.860472440944882
 20
2.49151968503937
 30
0.0
  0
SPLINE
  5
4F
330
1F
100
AcDbEntity
  8
LAYER_1
 62
   250
100
AcDbSpline
210
0.0
220
0.0
230
1.0
 70
    11
 71
     3
 72
    20
 73
    16
 74
     0
 42
0.0000000001
 43
0.0000000001
 40
0.0
 40
0.0
 40
0.0
 40
0.0
 40
0.25
 40
0.25
 40
0.25
 40
0.25
 40
0.5
 40
0.5
 40
0.5
 40
0.5
 40
0.75
 40
0.75
 40
0.75
 40
0.75
 40
1.0
 40
1.0
 40
1.0
 40
1.0
 10
-0.860472440944882
 20
2.49151968503937
 30
0.0
 10
-0.860472440944882
 20
2.49151968503937
 30
0.0
 10
-0.8582322834645669
 20
3.244622047244095
 30
0.0
 10
-0.8582322834645669
 20
3.244622047244095
 30
0.0
 10
-0.8582322834645669
 20
3.244622047244095
 30
0.0
 10
-0.8582322834645669
 20
3.244622047244095
 30
0.0
 10
-0.8810826771653544
 20
3.369622047244095
 30
0.0
 10
-0.8810826771653544
 20
3.369622047244095
 30
0.0
 10
-0.8810826771653544
 20
3.369622047244095
 30
0.0
 10
-0.8810826771653544
 20
3.369622047244095
 30
0.0
 10
-0.8833228346456693
 20
2.61651968503937
 30
0.0
 10
-0.8833228346456693
 20
2.61651968503937
 30
0.0
 10
-0.8833228346456693
 20
2.61651968503937
 30
0.0
 10
-0.8833228346456693
 20
2.61651968503937
 30
0.0
 10
-0.860472440944882
 20
2.49151968503937
 30
0.0
 10
-0.860472440944882
 20
2.49151968503937
 30
0.0
  0
SPLINE
  5
50
330
1F
100
AcDbEntity
  8
LAYER_1
 62
   252
100
AcDbSpline
210
0.0
220
0.0
230
1.0
 70
    11
 71
     3
 72
    20
 73
    16
 74
     0
 42
0.0000000001
 43
0.0000000001
 40
0.0
 40
0.0
 40
0.0
 40
0.0
 40
0.25
 40
0.25
 40
0.25
 40
0.25
 40
0.5
 40
0.5
 40
0.5
 40
0.5
 40
0.75
 40
0.75
 40
0.75
 40
0.75
 40
1.0
 40
1.0
 40
1.0
 40
1.0
 10
-0.8833228346456693
 20
2.61651968503937
 30
0.0
 10
-0.8833228346456693
 20
2.61651968503937
 30
0.0
 10
-0.8810826771653544
 20
3.369622047244095
 30
0.0
 10
-0.8810826771653544
 20
3.369622047244095
 30
0.0
 10
-0.8810826771653544
 20
3.369622047244095
 30
0.0
 10
-0.8810826771653544
 20
3.369622047244095
 30
0.0
 10
-1.756082677165354
 20
3.369622047244095
 30
0.0
 10
-1.756082677165354
 20
3.369622047244095
 30
0.0
 10
-1.756082677165354
 20
3.369622047244095
 30
0.0
 10
-1.756082677165354
 20
3.369622047244095
 30
0.0
 10
-1.758322834645669
 20
2.61651968503937
 30
0.0
 10
-1.758322834645669
 20
2.61651968503937
 30
0.0
 10
-1.758322834645669
 20
2.61651968503937
 30
0.0
 10
-1.758322834645669
 20
2.61651968503937
 30
0.0
 10
-0.8833228346456693
 20
2.61651968503937
 30
0.0
 10
-0.8833228346456693
 20
2.61651968503937
 30
0.0
  0
SPLINE
  5
51
330
1F
100
AcDbEntity
  8
LAYER_1
 62
   250
100
AcDbSpline
210
0.0
220
0.0
230
1.0
 70
    11
 71
     3
 72
    20
 73
    16
 74
     0
 42
0.0000000001
 43
0.0000000001
 40
0.0
 40
0.0
 40
0.0
 40
0.0
 40
0.25
 40
0.25
 40
0.25
 40
0.25
 40
0.5
 40
0.5
 40
0.5
 40
0.5
 40
0.75
 40
0.75
 40
0.75
 40
0.75
 40
1.0
 40
1.0
 40
1.0
 40
1.0
 10
-0.8833228346456693
 20
2.61651968503937
 30
0.0
 10
-0.8833228346456693
 20
2.61651968503937
 30
0.0
 10
-0.8810826771653544
 20
3.369622047244095
 30
0.0
 10
-0.8810826771653544
 20
3.369622047244095
 30
0.0
 10
-0.8810826771653544
 20
3.369622047244095
 30
0.0
 10
-0.8810826771653544
 20
3.369622047244095
 30
0.0
 10
-1.756082677165354
 20
3.369622047244095
 30
0.0
 10
-1.756082677165354
 20
3.369622047244095
 30
0.0
 10
-1.756082677165354
 20
3.369622047244095
 30
0.0
 10
-1.756082677165354
 20
3.369622047244095
 30
0.0
 10
-1.758322834645669
 20
2.61651968503937
 30
0.0
 10
-1.758322834645669
 20
2.61651968503937
 30
0.0
 10
-1.758322834645669
 20
2.61651968503937
 30
0.0
 10
-1.758322834645669
 20
2.61651968503937
 30
0.0
 10
-0.8833228346456693
 20
2.61651968503937
 30
0.0
 10
-0.8833228346456693
 20
2.61651968503937
 30
0.0
  0
SPLINE
  5
52
330
1F
100
AcDbEntity
  8
LAYER_1
 62
   252
100
AcDbSpline
210
0.0
220
0.0
230
1.0
 70
    11
 71
     3
 72
    20
 73
    16
 74
     0
 42
0.0000000001
 43
0.0000000001
 40
0.0
 40
0.0
 40
0.0
 40
0.0
 40
0.25
 40
0.25
 40
0.25
 40
0.25
 40
0.5
 40
0.5
 40
0.5
 40
0.5
 40
0.75
 40
0.75
 40
0.75
 40
0.75
 40
1.0
 40
1.0
 40
1.0
 40
1.0
 10
1.491677165354331
 20
2.61651968503937
 30
0.0
 10
1.491677165354331
 20
2.61651968503937
 30
0.0
 10
1.493917322834646
 20
3.369622047244095
 30
0.0
 10
1.493917322834646
 20
3.369622047244095
 30
0.0
 10
1.493917322834646
 20
3.369622047244095
 30
0.0
 10
1.493917322834646
 20
3.369622047244095
 30
0.0
 10
0.6189173228346457
 20
3.369622047244095
 30
0.0
 10
0.6189173228346457
 20
3.369622047244095
 30
0.0
 10
0.6189173228346457
 20
3.369622047244095
 30
0.0
 10
0.6189173228346457
 20
3.369622047244095
 30
0.0
 10
0.6166771653543307
 20
2.61651968503937
 30
0.0
 10
0.6166771653543307
 20
2.61651968503937
 30
0.0
 10
0.6166771653543307
 20
2.61651968503937
 30
0.0
 10
0.6166771653543307
 20
2.61651968503937
 30
0.0
 10
1.491677165354331
 20
2.61651968503937
 30
0.0
 10
1.491677165354331
 20
2.61651968503937
 30
0.0
  0
SPLINE
  5
53
330
1F
100
AcDbEntity
  8
LAYER_1
 62
   250
100
AcDbSpline
210
0.0
220
0.0
230
1.0
 70
    11
 71
     3
 72
    20
 73
    16
 74
     0
 42
0.0000000001
 43
0.0000000001
 40
0.0
 40
0.0
 40
0.0
 40
0.0
 40
0.25
 40
0.25
 40
0.25
 40
0.25
 40
0.5
 40
0.5
 40
0.5
 40
0.5
 40
0.75
 40
0.75
 40
0.75
 40
0.75
 40
1.0
 40
1.0
 40
1.0
 40
1.0
 10
1.491677165354331
 20
2.61651968503937
 30
0.0
 10
1.491677165354331
 20
2.61651968503937
 30
0.0
 10
1.493917322834646
 20
3.369622047244095
 30
0.0
 10
1.493917322834646
 20
3.369622047244095
 30
0.0
 10
1.493917322834646
 20
3.369622047244095
 30
0.0
 10
1.493917322834646
 20
3.369622047244095
 30
0.0
 10
0.6189173228346457
 20
3.369622047244095
 30
0.0
 10
0.6189173228346457
 20
3.369622047244095
 30
0.0
 10
0.6189173228346457
 20
3.369622047244095
 30
0.0
 10
0.6189173228346457
 20
3.369622047244095
 30
0.0
 10
0.6166771653543307
 20
2.61651968503937
 30
0.0
 10
0.6166771653543307
 20
2.61651968503937
 30
0.0
 10
0.6166771653543307
 20
2.61651968503937
 30
0.0
 10
0.6166771653543307
 20
2.61651968503937
 30
0.0
 10
1.491677165354331
 20
2.61651968503937
 30
0.0
 10
1.491677165354331
 20
2.61651968503937
 30
0.0
  0
SPLINE
  5
54
330
1F
100
AcDbEntity
  8
LAYER_1
 62
   250
100
AcDbSpline
210
0.0
220
0.0
230
1.0
 70
    11
 71
     3
 72
    20
 73
    16
 74
     0
 42
0.0000000001
 43
0.0000000001
 40
0.0
 40
0.0
 40
0.0
 40
0.0
 40
0.25
 40
0.25
 40
0.25
 40
0.25
 40
0.5
 40
0.5
 40
0.5
 40
0.5
 40
0.75
 40
0.75
 40
0.75
 40
0.75
 40
1.0
 40
1.0
 40
1.0
 40
1.0
 10
0.6166771653543307
 20
2.61651968503937
 30
0.0
 10
0.6166771653543307
 20
2.61651968503937
 30
0.0
 10
0.6189173228346457
 20
3.369622047244095
 30
0.0
 10
0.6189173228346457
 20
3.369622047244095
 30
0.0
 10
0.6189173228346457
 20
3.369622047244095
 30
0.0
 10
0.6189173228346457
 20
3.369622047244095
 30
0.0
 10
0.5960669291338583
 20
3.244622047244095
 30
0.0
 10
0.5960669291338583
 20
3.244622047244095
 30
0.0
 10
0.5960669291338583
 20
3.244622047244095
 30
0.0
 10
0.5960669291338583
 20
3.244622047244095
 30
0.0
 10
0.5938267716535434
 20
2.49151968503937
 30
0.0
 10
0.5938267716535434
 20
2.49151968503937
 30
0.0
 10
0.5938267716535434
 20
2.49151968503937
 30
0.0
 10
0.5938267716535434
 20
2.49151968503937
 30
0.0
 10
0.6166771653543307
 20
2.61651968503937
 30
0.0
 10
0.6166771653543307
 20
2.61651968503937
 30
0.0
  0
SPLINE
  5
55
330
1F
100
AcDbEntity
  8
LAYER_1
 62
   250
100
AcDbSpline
210
0.0
220
0.0
230
1.0
 70
    11
 71
     3
 72
    20
 73
    16
 74
     0
 42
0.0000000001
 43
0.0000000001
 40
0.0
 40
0.0
 40
0.0
 40
0.0
 40
0.25
 40
0.25
 40
0.25
 40
0.25
 40
0.5
 40
0.5
 40
0.5
 40
0.5
 40
0.75
 40
0.75
 40
0.75
 40
0.75
 40
1.0
 40
1.0
 40
1.0
 40
1.0
 10
0.6166771653543307
 20
2.61651968503937
 30
0.0
 10
0.6166771653543307
 20
2.61651968503937
 30
0.0
 10
0.6189173228346457
 20
3.369622047244095
 30
0.0
 10
0.6189173228346457
 20
3.369622047244095
 30
0.0
 10
0.6189173228346457
 20
3.369622047244095
 30
0.0
 10
0.6189173228346457
 20
3.369622047244095
 30
0.0
 10
0.5960669291338583
 20
3.244622047244095
 30
0.0
 10
0.5960669291338583
 20
3.244622047244095
 30
0.0
 10
0.5960669291338583
 20
3.244622047244095
 30
0.0
 10
0.5960669291338583
 20
3.244622047244095
 30
0.0
 10
0.5938267716535434
 20
2.49151968503937
 30
0.0
 10
0.5938267716535434
 20
2.49151968503937
 30
0.0
 10
0.5938267716535434
 20
2.49151968503937
 30
0.0
 10
0.5938267716535434
 20
2.49151968503937
 30
0.0
 10
0.6166771653543307
 20
2.61651968503937
 30
0.0
 10
0.6166771653543307
 20
2.61651968503937
 30
0.0
  0
SPLINE
  5
56
330
1F
100
AcDbEntity
  8
LAYER_1
 62
   252
100
AcDbSpline
210
0.0
220
0.0
230
1.0
 70
    11
 71
     3
 72
    20
 73
    16
 74
     0
 42
0.0000000001
 43
0.0000000001
 40
0.0
 40
0.0
 40
0.0
 40
0.0
 40
0.25
 40
0.25
 40
0.25
 40
0.25
 40
0.5
 40
0.5
 40
0.5
 40
0.5
 40
0.75
 40
0.75
 40
0.75
 40
0.75
 40
1.0
 40
1.0
 40
1.0
 40
1.0
 10
0.5938267716535434
 20
2.49151968503937
 30
0.0
 10
0.5938267716535434
 20
2.49151968503937
 30
0.0
 10
0.5960669291338583
 20
3.244622047244095
 30
0.0
 10
0.5960669291338583
 20
3.244622047244095
 30
0.0
 10
0.5960669291338583
 20
3.244622047244095
 30
0.0
 10
0.5960669291338583
 20
3.244622047244095
 30
0.0
 10
-0.8582322834645669
 20
3.244622047244095
 30
0.0
 10
-0.8582322834645669
 20
3.244622047244095
 30
0.0
 10
-0.8582322834645669
 20
3.244622047244095
 30
0.0
 10
-0.8582322834645669
 20
3.244622047244095
 30
0.0
 10
-0.860472440944882
 20
2.49151968503937
 30
0.0
 10
-0.860472440944882
 20
2.49151968503937
 30
0.0
 10
-0.860472440944882
 20
2.49151968503937
 30
0.0
 10
-0.860472440944882
 20
2.49151968503937
 30
0.0
 10
0.5938267716535434
 20
2.49151968503937
 30
0.0
 10
0.5938267716535434
 20
2.49151968503937
 30
0.0
  0
SPLINE
  5
57
330
1F
100
AcDbEntity
  8
LAYER_1
 62
   250
100
AcDbSpline
210
0.0
220
0.0
230
1.0
 70
    11
 71
     3
 72
    20
 73
    16
 74
     0
 42
0.0000000001
 43
0.0000000001
 40
0.0
 40
0.0
 40
0.0
 40
0.0
 40
0.25
 40
0.25
 40
0.25
 40
0.25
 40
0.5
 40
0.5
 40
0.5
 40
0.5
 40
0.75
 40
0.75
 40
0.75
 40
0.75
 40
1.0
 40
1.0
 40
1.0
 40
1.0
 10
0.5938267716535434
 20
2.49151968503937
 30
0.0
 10
0.5938267716535434
 20
2.49151968503937
 30
0.0
 10
0.5960669291338583
 20
3.244622047244095
 30
0.0
 10
0.5960669291338583
 20
3.244622047244095
 30
0.0
 10
0.5960669291338583
 20
3.244622047244095
 30
0.0
 10
0.5960669291338583
 20
3.244622047244095
 30
0.0
 10
-0.8582322834645669
 20
3.244622047244095
 30
0.0
 10
-0.8582322834645669
 20
3.244622047244095
 30
0.0
 10
-0.8582322834645669
 20
3.244622047244095
 30
0.0
 10
-0.8582322834645669
 20
3.244622047244095
 30
0.0
 10
-0.860472440944882
 20
2.49151968503937
 30
0.0
 10
-0.860472440944882
 20
2.49151968503937
 30
0.0
 10
-0.860472440944882
 20
2.49151968503937
 30
0.0
 10
-0.860472440944882
 20
2.49151968503937
 30
0.0
 10
0.5938267716535434
 20
2.49151968503937
 30
0.0
 10
0.5938267716535434
 20
2.49151968503937
 30
0.0
  0
SPLINE
  5
58
330
1F
100
AcDbEntity
  8
LAYER_1
 62
   252
100
AcDbSpline
210
0.0
220
0.0
230
1.0
 70
    11
 71
     3
 72
    20
 73
    16
 74
     0
 42
0.0000000001
 43
0.0000000001
 40
0.0
 40
0.0
 40
0.0
 40
0.0
 40
0.25
 40
0.25
 40
0.25
 40
0.25
 40
0.5
 40
0.5
 40
0.5
 40
0.5
 40
0.75
 40
0.75
 40
0.75
 40
0.75
 40
1.0
 40
1.0
 40
1.0
 40
1.0
 10
-0.860472440944882
 20
2.49151968503937
 30
0.0
 10
-0.860472440944882
 20
2.49151968503937
 30
0.0
 10
-0.8582322834645669
 20
3.244622047244095
 30
0.0
 10
-0.8582322834645669
 20
3.244622047244095
 30
0.0
 10
-0.8582322834645669
 20
3.244622047244095
 30
0.0
 10
-0.8582322834645669
 20
3.244622047244095
 30
0.0
 10
-0.8810826771653544
 20
3.369622047244095
 30
0.0
 10
-0.8810826771653544
 20
3.369622047244095
 30
0.0
 10
-0.8810826771653544
 20
3.369622047244095
 30
0.0
 10
-0.8810826771653544
 20
3.369622047244095
 30
0.0
 10
-0.8833228346456693
 20
2.61651968503937
 30
0.0
 10
-0.8833228346456693
 20
2.61651968503937
 30
0.0
 10
-0.8833228346456693
 20
2.61651968503937
 30
0.0
 10
-0.8833228346456693
 20
2.61651968503937
 30
0.0
 10
-0.860472440944882
 20
2.49151968503937
 30
0.0
 10
-0.860472440944882
 20
2.49151968503937
 30
0.0
  0
SPLINE
  5
59
330
1F
100
AcDbEntity
  8
LAYER_1
 62
   250
100
AcDbSpline
210
0.0
220
0.0
230
1.0
 70
    11
 71
     3
 72
    20
 73
    16
 74
     0
 42
0.0000000001
 43
0.0000000001
 40
0.0
 40
0.0
 40
0.0
 40
0.0
 40
0.25
 40
0.25
 40
0.25
 40
0.25
 40
0.5
 40
0.5
 40
0.5
 40
0.5
 40
0.75
 40
0.75
 40
0.75
 40
0.75
 40
1.0
 40
1.0
 40
1.0
 40
1.0
 10
-0.860472440944882
 20
2.49151968503937
 30
0.0
 10
-0.860472440944882
 20
2.49151968503937
 30
0.0
 10
-0.8582322834645669
 20
3.244622047244095
 30
0.0
 10
-0.8582322834645669
 20
3.244622047244095
 30
0.0
 10
-0.8582322834645669
 20
3.244622047244095
 30
0.0
 10
-0.8582322834645669
 20
3.244622047244095
 30
0.0
 10
-0.8810826771653544
 20
3.369622047244095
 30
0.0
 10
-0.8810826771653544
 20
3.369622047244095
 30
0.0
 10
-0.8810826771653544
 20
3.369622047244095
 30
0.0
 10
-0.8810826771653544
 20
3.369622047244095
 30
0.0
 10
-0.8833228346456693
 20
2.61651968503937
 30
0.0
 10
-0.8833228346456693
 20
2.61651968503937
 30
0.0
 10
-0.8833228346456693
 20
2.61651968503937
 30
0.0
 10
-0.8833228346456693
 20
2.61651968503937
 30
0.0
 10
-0.860472440944882
 20
2.49151968503937
 30
0.0
 10
-0.860472440944882
 20
2.49151968503937
 30
0.0
  0
SPLINE
  5
5A
330
1F
100
AcDbEntity
  8
LAYER_1
 62
   252
100
AcDbSpline
210
0.0
220
0.0
230
1.0
 70
    11
 71
     3
 72
    20
 73
    16
 74
     0
 42
0.0000000001
 43
0.0000000001
 40
0.0
 40
0.0
 40
0.0
 40
0.0
 40
0.25
 40
0.25
 40
0.25
 40
0.25
 40
0.5
 40
0.5
 40
0.5
 40
0.5
 40
0.75
 40
0.75
 40
0.75
 40
0.75
 40
1.0
 40
1.0
 40
1.0
 40
1.0
 10
-0.8833228346456693
 20
2.61651968503937
 30
0.0
 10
-0.8833228346456693
 20
2.61651968503937
 30
0.0
 10
-0.8810826771653544
 20
3.369622047244095
 30
0.0
 10
-0.8810826771653544
 20
3.369622047244095
 30
0.0
 10
-0.8810826771653544
 20
3.369622047244095
 30
0.0
 10
-0.8810826771653544
 20
3.369622047244095
 30
0.0
 10
-1.756082677165354
 20
3.369622047244095
 30
0.0
 10
-1.756082677165354
 20
3.369622047244095
 30
0.0
 10
-1.756082677165354
 20
3.369622047244095
 30
0.0
 10
-1.756082677165354
 20
3.369622047244095
 30
0.0
 10
-1.758322834645669
 20
2.61651968503937
 30
0.0
 10
-1.758322834645669
 20
2.61651968503937
 30
0.0
 10
-1.758322834645669
 20
2.61651968503937
 30
0.0
 10
-1.758322834645669
 20
2.61651968503937
 30
0.0
 10
-0.8833228346456693
 20
2.61651968503937
 30
0.0
 10
-0.8833228346456693
 20
2.61651968503937
 30
0.0
  0
SPLINE
  5
5B
330
1F
100
AcDbEntity
  8
LAYER_1
 62
   250
100
AcDbSpline
210
0.0
220
0.0
230
1.0
 70
    11
 71
     3
 72
    20
 73
    16
 74
     0
 42
0.0000000001
 43
0.0000000001
 40
0.0
 40
0.0
 40
0.0
 40
0.0
 40
0.25
 40
0.25
 40
0.25
 40
0.25
 40
0.5
 40
0.5
 40
0.5
 40
0.5
 40
0.75
 40
0.75
 40
0.75
 40
0.75
 40
1.0
 40
1.0
 40
1.0
 40
1.0
 10
-0.8833228346456693
 20
2.61651968503937
 30
0.0
 10
-0.8833228346456693
 20
2.61651968503937
 30
0.0
 10
-0.8810826771653544
 20
3.369622047244095
 30
0.0
 10
-0.8810826771653544
 20
3.369622047244095
 30
0.0
 10
-0.8810826771653544
 20
3.369622047244095
 30
0.0
 10
-0.8810826771653544
 20
3.369622047244095
 30
0.0
 10
-1.756082677165354
 20
3.369622047244095
 30
0.0
 10
-1.756082677165354
 20
3.369622047244095
 30
0.0
 10
-1.756082677165354
 20
3.369622047244095
 30
0.0
 10
-1.756082677165354
 20
3.369622047244095
 30
0.0
 10
-1.758322834645669
 20
2.61651968503937
 30
0.0
 10
-1.758322834645669
 20
2.61651968503937
 30
0.0
 10
-1.758322834645669
 20
2.61651968503937
 30
0.0
 10
-1.758322834645669
 20
2.61651968503937
 30
0.0
 10
-0.8833228346456693
 20
2.61651968503937
 30
0.0
 10
-0.8833228346456693
 20
2.61651968503937
 30
0.0
  0
SPLINE
  5
5C
330
1F
100
AcDbEntity
  8
LAYER_1
 62
     7
100
AcDbSpline
210
0.0
220
0.0
230
1.0
 70
    11
 71
     3
 72
    36
 73
    32
 74
     0
 42
0.0000000001
 43
0.0000000001
 40
0.0
 40
0.0
 40
0.0
 40
0.0
 40
0.125
 40
0.125
 40
0.125
 40
0.125
 40
0.25
 40
0.25
 40
0.25
 40
0.25
 40
0.375
 40
0.375
 40
0.375
 40
0.375
 40
0.5
 40
0.5
 40
0.5
 40
0.5
 40
0.625
 40
0.625
 40
0.625
 40
0.625
 40
0.75
 40
0.75
 40
0.75
 40
0.75
 40
0.875
 40
0.875
 40
0.875
 40
0.875
 40
1.0
 40
1.0
 40
1.0
 40
1.0
 10
1.491677165354331
 20
2.61651968503937
 30
0.0
 10
1.491677165354331
 20
2.61651968503937
 30
0.0
 10
0.6166771653543307
 20
2.61651968503937
 30
0.0
 10
0.6166771653543307
 20
2.61651968503937
 30
0.0
 10
0.6166771653543307
 20
2.61651968503937
 30
0.0
 10
0.6166771653543307
 20
2.61651968503937
 30
0.0
 10
0.5938267716535434
 20
2.49151968503937
 30
0.0
 10
0.5938267716535434
 20
2.49151968503937
 30
0.0
 10
0.5938267716535434
 20
2.49151968503937
 30
0.0
 10
0.5938267716535434
 20
2.49151968503937
 30
0.0
 10
-0.860472440944882
 20
2.49151968503937
 30
0.0
 10
-0.860472440944882
 20
2.49151968503937
 30
0.0
 10
-0.860472440944882
 20
2.49151968503937
 30
0.0
 10
-0.860472440944882
 20
2.49151968503937
 30
0.0
 10
-0.8833228346456693
 20
2.61651968503937
 30
0.0
 10
-0.8833228346456693
 20
2.61651968503937
 30
0.0
 10
-0.8833228346456693
 20
2.61651968503937
 30
0.0
 10
-0.8833228346456693
 20
2.61651968503937
 30
0.0
 10
-1.758322834645669
 20
2.61651968503937
 30
0.0
 10
-1.758322834645669
 20
2.61651968503937
 30
0.0
 10
-1.758322834645669
 20
2.61651968503937
 30
0.0
 10
-1.758322834645669
 20
2.61651968503937
 30
0.0
 10
-1.758322834645669
 20
1.86651968503937
 30
0.0
 10
-1.758322834645669
 20
1.86651968503937
 30
0.0
 10
-1.758322834645669
 20
1.86651968503937
 30
0.0
 10
-1.758322834645669
 20
1.86651968503937
 30
0.0
 10
1.491677165354331
 20
1.86651968503937
 30
0.0
 10
1.491677165354331
 20
1.86651968503937
 30
0.0
 10
1.491677165354331
 20
1.86651968503937
 30
0.0
 10
1.491677165354331
 20
1.86651968503937
 30
0.0
 10
1.491677165354331
 20
2.61651968503937
 30
0.0
 10
1.491677165354331
 20
2.61651968503937
 30
0.0
  0
SPLINE
  5
5D
330
1F
100
AcDbEntity
  8
LAYER_1
 62
   250
100
AcDbSpline
210
0.0
220
0.0
230
1.0
 70
    11
 71
     3
 72
   104
 73
   100
 74
     0
 42
0.0000000001
 43
0.0000000001
 40
0.0
 40
0.0
 40
0.0
 40
0.0
 40
0.04
 40
0.04
 40
0.04
 40
0.04
 40
0.08
 40
0.08
 40
0.08
 40
0.08
 40
0.12
 40
0.12
 40
0.12
 40
0.12
 40
0.16
 40
0.16
 40
0.16
 40
0.16
 40
0.2
 40
0.2
 40
0.2
 40
0.2
 40
0.24
 40
0.24
 40
0.24
 40
0.24
 40
0.28
 40
0.28
 40
0.28
 40
0.28
 40
0.32
 40
0.32
 40
0.32
 40
0.32
 40
0.36
 40
0.36
 40
0.36
 40
0.36
 40
0.4
 40
0.4
 40
0.4
 40
0.4
 40
0.44
 40
0.44
 40
0.44
 40
0.44
 40
0.4799999999999999
 40
0.4799999999999999
 40
0.4799999999999999
 40
0.4799999999999999
 40
0.5199999999999999
 40
0.5199999999999999
 40
0.5199999999999999
 40
0.5199999999999999
 40
0.5599999999999999
 40
0.5599999999999999
 40
0.5599999999999999
 40
0.5599999999999999
 40
0.6
 40
0.6
 40
0.6
 40
0.6
 40
0.64
 40
0.64
 40
0.64
 40
0.64
 40
0.6800000000000001
 40
0.6800000000000001
 40
0.6800000000000001
 40
0.6800000000000001
 40
0.7200000000000001
 40
0.7200000000000001
 40
0.7200000000000001
 40
0.7200000000000001
 40
0.7600000000000001
 40
0.7600000000000001
 40
0.7600000000000001
 40
0.7600000000000001
 40
0.8000000000000002
 40
0.8000000000000002
 40
0.8000000000000002
 40
0.8000000000000002
 40
0.8400000000000002
 40
0.8400000000000002
 40
0.8400000000000002
 40
0.8400000000000002
 40
0.8800000000000002
 40
0.8800000000000002
 40
0.8800000000000002
 40
0.8800000000000002
 40
0.9200000000000003
 40
0.9200000000000003
 40
0.9200000000000003
 40
0.9200000000000003
 40
0.9600000000000003
 40
0.9600000000000003
 40
0.9600000000000003
 40
0.9600000000000003
 40
1.0
 40
1.0
 40
1.0
 40
1.0
 10
-0.5008031496062992
 20
1.748531496062992
 30
0.0
 10
-0.5008031496062992
 20
1.748531496062992
 30
0.0
 10
-0.4468307086614173
 20
1.748531496062992
 30
0.0
 10
-0.4468307086614173
 20
1.748531496062992
 30
0.0
 10
-0.4468307086614173
 20
1.748531496062992
 30
0.0
 10
-0.4336614173228346
 20
1.748531496062992
 30
0.0
 10
-0.4246338582677166
 20
1.74792125984252
 30
0.0
 10
-0.419748031496063
 20
1.746724409448819
 30
0.0
 10
-0.419748031496063
 20
1.746724409448819
 30
0.0
 10
-0.4125236220472441
 20
1.745003937007874
 30
0.0
 10
-0.4068307086614174
 20
1.741866141732284
 30
0.0
 10
-0.4026062992125984
 20
1.737307086614173
 30
0.0
 10
-0.4026062992125984
 20
1.737307086614173
 30
0.0
 10
-0.3984133858267717
 20
1.732751968503937
 30
0.0
 10
-0.3963031496062993
 20
1.727251968503937
 30
0.0
 10
-0.3963031496062993
 20
1.720866141732284
 30
0.0
 10
-0.3963031496062993
 20
1.720866141732284
 30
0.0
 10
-0.3963031496062993
 20
1.716251968503937
 30
0.0
 10
-0.3974133858267717
 20
1.712114173228347
 30
0.0
 10
-0.3996338582677165
 20
1.708448818897638
 30
0.0
 10
-0.3996338582677165
 20
1.708448818897638
 30
0.0
 10
-0.4018582677165354
 20
1.704779527559055
 30
0.0
 10
-0.4051062992125984
 20
1.701641732283465
 30
0.0
 10
-0.4093307086614174
 20
1.69905905511811
 30
0.0
 10
-0.4093307086614174
 20
1.69905905511811
 30
0.0
 10
-0.4120511811023622
 20
1.697366141732284
 30
0.0
 10
-0.4157204724409449
 20
1.69592125984252
 30
0.0
 10
-0.4203858267716535
 20
1.694724409448819
 30
0.0
 10
-0.4203858267716535
 20
1.694724409448819
 30
0.0
 10
-0.4144685039370079
 20
1.693641732283465
 30
0.0
 10
-0.4099685039370079
 20
1.692338582677166
 30
0.0
 10
-0.4068858267716536
 20
1.690838582677166
 30
0.0
 10
-0.4068858267716536
 20
1.690838582677166
 30
0.0
 10
-0.4022204724409449
 20
1.68855905511811
 30
0.0
 10
-0.3985236220472441
 20
1.685311023622047
 30
0.0
 10
-0.3958307086614173
 20
1.68105905511811
 30
0.0
 10
-0.3958307086614173
 20
1.68105905511811
 30
0.0
 10
-0.3931062992125984
 20
1.676838582677166
 30
0.0
 10
-0.391748031496063
 20
1.67205905511811
 30
0.0
 10
-0.391748031496063
 20
1.666751968503937
 30
0.0
 10
-0.391748031496063
 20
1.666751968503937
 30
0.0
 10
-0.391748031496063
 20
1.661586614173229
 30
0.0
 10
-0.3930787401574803
 20
1.656811023622047
 30
0.0
 10
-0.395748031496063
 20
1.65242125984252
 30
0.0
 10
-0.395748031496063
 20
1.65242125984252
 30
0.0
 10
-0.3983858267716536
 20
1.648031496062992
 30
0.0
 10
-0.4021614173228347
 20
1.64442125984252
 30
0.0
 10
-0.406996062992126
 20
1.641586614173229
 30
0.0
 10
-0.406996062992126
 20
1.641586614173229
 30
0.0
 10
-0.4118582677165354
 20
1.638783464566929
 30
0.0
 10
-0.4175236220472441
 20
1.636976377952756
 30
0.0
 10
-0.4239685039370079
 20
1.636169291338583
 30
0.0
 10
-0.4239685039370079
 20
1.636169291338583
 30
0.0
 10
-0.4304409448818898
 20
1.635393700787402
 30
0.0
 10
-0.4370787401574803
 20
1.635003937007874
 30
0.0
 10
-0.4439133858267716
 20
1.635003937007874
 30
0.0
 10
-0.4439133858267716
 20
1.635003937007874
 30
0.0
 10
-0.4439133858267716
 20
1.635003937007874
 30
0.0
 10
-0.5008031496062992
 20
1.635003937007874
 30
0.0
 10
-0.5008031496062992
 20
1.635003937007874
 30
0.0
 10
-0.5008031496062992
 20
1.635003937007874
 30
0.0
 10
-0.5008031496062992
 20
1.635003937007874
 30
0.0
 10
-0.5008031496062992
 20
1.641838582677165
 30
0.0
 10
-0.5008031496062992
 20
1.641838582677165
 30
0.0
 10
-0.5008031496062992
 20
1.641838582677165
 30
0.0
 10
-0.5008031496062992
 20
1.641838582677165
 30
0.0
 10
-0.4969685039370079
 20
1.641838582677165
 30
0.0
 10
-0.4969685039370079
 20
1.641838582677165
 30
0.0
 10
-0.4969685039370079
 20
1.641838582677165
 30
0.0
 10
-0.4932716535433071
 20
1.641838582677165
 30
0.0
 10
-0.4907716535433071
 20
1.64242125984252
 30
0.0
 10
-0.4894133858267717
 20
1.64355905511811
 30
0.0
 10
-0.4894133858267717
 20
1.64355905511811
 30
0.0
 10
-0.4874409448818898
 20
1.645114173228347
 30
0.0
 10
-0.4864685039370079
 20
1.647724409448819
 30
0.0
 10
-0.4864685039370079
 20
1.651366141732284
 30
0.0
 10
-0.4864685039370079
 20
1.651366141732284
 30
0.0
 10
-0.4864685039370079
 20
1.651366141732284
 30
0.0
 10
-0.4864685039370079
 20
1.730224409448819
 30
0.0
 10
-0.4864685039370079
 20
1.730224409448819
 30
0.0
 10
-0.4864685039370079
 20
1.730224409448819
 30
0.0
 10
-0.4864685039370079
 20
1.73392125984252
 30
0.0
 10
-0.4867716535433071
 20
1.73642125984252
 30
0.0
 10
-0.4873582677165355
 20
1.737779527559055
 30
0.0
 10
-0.4873582677165355
 20
1.737779527559055
 30
0.0
 10
-0.4879685039370079
 20
1.739141732283465
 30
0.0
 10
-0.4888582677165355
 20
1.740114173228347
 30
0.0
 10
-0.4900511811023622
 20
1.740724409448819
 30
0.0
 10
-0.4900511811023622
 20
1.740724409448819
 30
0.0
 10
-0.491244094488189
 20
1.741307086614173
 30
0.0
 10
-0.4935511811023622
 20
1.741614173228347
 30
0.0
 10
-0.4969685039370079
 20
1.741614173228347
 30
0.0
 10
-0.4969685039370079
 20
1.741614173228347
 30
0.0
 10
-0.4969685039370079
 20
1.741614173228347
 30
0.0
 10
-0.5008031496062992
 20
1.741614173228347
 30
0.0
 10
-0.5008031496062992
 20
1.741614173228347
 30
0.0
 10
-0.5008031496062992
 20
1.741614173228347
 30
0.0
 10
-0.5008031496062992
 20
1.741614173228347
 30
0.0
 10
-0.5008031496062992
 20
1.748531496062992
 30
0.0
 10
-0.5008031496062992
 20
1.748531496062992
 30
0.0
  0
SPLINE
  5
5E
330
1F
100
AcDbEntity
  8
LAYER_1
 62
   250
100
AcDbSpline
210
0.0
220
0.0
230
1.0
 70
    11
 71
     3
 72
    40
 73
    36
 74
     0
 42
0.0000000001
 43
0.0000000001
 40
0.0
 40
0.0
 40
0.0
 40
0.0
 40
0.1111111111111111
 40
0.1111111111111111
 40
0.1111111111111111
 40
0.1111111111111111
 40
0.2222222222222222
 40
0.2222222222222222
 40
0.2222222222222222
 40
0.2222222222222222
 40
0.3333333333333333
 40
0.3333333333333333
 40
0.3333333333333333
 40
0.3333333333333333
 40
0.4444444444444444
 40
0.4444444444444444
 40
0.4444444444444444
 40
0.4444444444444444
 40
0.5555555555555556
 40
0.5555555555555556
 40
0.5555555555555556
 40
0.5555555555555556
 40
0.6666666666666667
 40
0.6666666666666667
 40
0.6666666666666667
 40
0.6666666666666667
 40
0.7777777777777779
 40
0.7777777777777779
 40
0.7777777777777779
 40
0.7777777777777779
 40
0.8888888888888891
 40
0.8888888888888891
 40
0.8888888888888891
 40
0.8888888888888891
 40
1.0
 40
1.0
 40
1.0
 40
1.0
 10
-0.471244094488189
 20
1.739503937007874
 30
0.0
 10
-0.471244094488189
 20
1.739503937007874
 30
0.0
 10
-0.471244094488189
 20
1.69792125984252
 30
0.0
 10
-0.471244094488189
 20
1.69792125984252
 30
0.0
 10
-0.471244094488189
 20
1.69792125984252
 30
0.0
 10
-0.471244094488189
 20
1.69792125984252
 30
0.0
 10
-0.450496062992126
 20
1.69792125984252
 30
0.0
 10
-0.450496062992126
 20
1.69792125984252
 30
0.0
 10
-0.450496062992126
 20
1.69792125984252
 30
0.0
 10
-0.4408031496062992
 20
1.69792125984252
 30
0.0
 10
-0.4341338582677166
 20
1.698366141732284
 30
0.0
 10
-0.4305787401574803
 20
1.699279527559055
 30
0.0
 10
-0.4305787401574803
 20
1.699279527559055
 30
0.0
 10
-0.4249685039370079
 20
1.700751968503937
 30
0.0
 10
-0.4207204724409449
 20
1.703251968503937
 30
0.0
 10
-0.417748031496063
 20
1.706779527559055
 30
0.0
 10
-0.417748031496063
 20
1.706779527559055
 30
0.0
 10
-0.4148031496062992
 20
1.710307086614173
 30
0.0
 10
-0.4133031496062992
 20
1.714838582677166
 30
0.0
 10
-0.4133031496062992
 20
1.720366141732284
 30
0.0
 10
-0.4133031496062992
 20
1.720366141732284
 30
0.0
 10
-0.4133031496062992
 20
1.725031496062992
 30
0.0
 10
-0.4146614173228347
 20
1.72892125984252
 30
0.0
 10
-0.4173307086614174
 20
1.73205905511811
 30
0.0
 10
-0.4173307086614174
 20
1.73205905511811
 30
0.0
 10
-0.4200236220472441
 20
1.735169291338583
 30
0.0
 10
-0.4236338582677166
 20
1.737307086614173
 30
0.0
 10
-0.4281338582677166
 20
1.738448818897638
 30
0.0
 10
-0.4281338582677166
 20
1.738448818897638
 30
0.0
 10
-0.4310511811023622
 20
1.739141732283465
 30
0.0
 10
-0.4371338582677166
 20
1.739503937007874
 30
0.0
 10
-0.4463582677165355
 20
1.739503937007874
 30
0.0
 10
-0.4463582677165355
 20
1.739503937007874
 30
0.0
 10
-0.4463582677165355
 20
1.739503937007874
 30
0.0
 10
-0.471244094488189
 20
1.739503937007874
 30
0.0
 10
-0.471244094488189
 20
1.739503937007874
 30
0.0
  0
SPLINE
  5
5F
330
1F
100
AcDbEntity
  8
LAYER_1
 62
   250
100
AcDbSpline
210
0.0
220
0.0
230
1.0
 70
    11
 71
     3
 72
    52
 73
    48
 74
     0
 42
0.0000000001
 43
0.0000000001
 40
0.0
 40
0.0
 40
0.0
 40
0.0
 40
0.0833333333333333
 40
0.0833333333333333
 40
0.0833333333333333
 40
0.0833333333333333
 40
0.1666666666666667
 40
0.1666666666666667
 40
0.1666666666666667
 40
0.1666666666666667
 40
0.25
 40
0.25
 40
0.25
 40
0.25
 40
0.3333333333333333
 40
0.3333333333333333
 40
0.3333333333333333
 40
0.3333333333333333
 40
0.4166666666666666
 40
0.4166666666666666
 40
0.4166666666666666
 40
0.4166666666666666
 40
0.4999999999999999
 40
0.4999999999999999
 40
0.4999999999999999
 40
0.4999999999999999
 40
0.5833333333333333
 40
0.5833333333333333
 40
0.5833333333333333
 40
0.5833333333333333
 40
0.6666666666666666
 40
0.6666666666666666
 40
0.6666666666666666
 40
0.6666666666666666
 40
0.75
 40
0.75
 40
0.75
 40
0.75
 40
0.8333333333333334
 40
0.8333333333333334
 40
0.8333333333333334
 40
0.8333333333333334
 40
0.9166666666666667
 40
0.9166666666666667
 40
0.9166666666666667
 40
0.9166666666666667
 40
1.0
 40
1.0
 40
1.0
 40
1.0
 10
-0.471244094488189
 20
1.690086614173229
 30
0.0
 10
-0.471244094488189
 20
1.690086614173229
 30
0.0
 10
-0.471244094488189
 20
1.652838582677165
 30
0.0
 10
-0.471244094488189
 20
1.652838582677165
 30
0.0
 10
-0.471244094488189
 20
1.652838582677165
 30
0.0
 10
-0.471244094488189
 20
1.649086614173228
 30
0.0
 10
-0.4710787401574804
 20
1.646866141732284
 30
0.0
 10
-0.4707755905511811
 20
1.646141732283465
 30
0.0
 10
-0.4707755905511811
 20
1.646141732283465
 30
0.0
 10
-0.4703307086614174
 20
1.645169291338583
 30
0.0
 10
-0.4694685039370079
 20
1.644503937007874
 30
0.0
 10
-0.4681614173228347
 20
1.644114173228346
 30
0.0
 10
-0.4681614173228347
 20
1.644114173228346
 30
0.0
 10
-0.467244094488189
 20
1.643838582677165
 30
0.0
 10
-0.4646338582677165
 20
1.643696850393701
 30
0.0
 10
-0.4603582677165354
 20
1.643696850393701
 30
0.0
 10
-0.4603582677165354
 20
1.643696850393701
 30
0.0
 10
-0.4603582677165354
 20
1.643696850393701
 30
0.0
 10
-0.4492755905511811
 20
1.643696850393701
 30
0.0
 10
-0.4492755905511811
 20
1.643696850393701
 30
0.0
 10
-0.4492755905511811
 20
1.643696850393701
 30
0.0
 10
-0.4383307086614173
 20
1.643696850393701
 30
0.0
 10
-0.430496062992126
 20
1.644311023622047
 30
0.0
 10
-0.4258031496062992
 20
1.645531496062992
 30
0.0
 10
-0.4258031496062992
 20
1.645531496062992
 30
0.0
 10
-0.4211062992125985
 20
1.646751968503937
 30
0.0
 10
-0.4171062992125985
 20
1.649338582677165
 30
0.0
 10
-0.4138031496062992
 20
1.653283464566929
 30
0.0
 10
-0.4138031496062992
 20
1.653283464566929
 30
0.0
 10
-0.410496062992126
 20
1.657196850393701
 30
0.0
 10
-0.4088307086614174
 20
1.661948818897638
 30
0.0
 10
-0.4088307086614174
 20
1.667476377952756
 30
0.0
 10
-0.4088307086614174
 20
1.667476377952756
 30
0.0
 10
-0.4088307086614174
 20
1.672141732283465
 30
0.0
 10
-0.4101889763779528
 20
1.676279527559055
 30
0.0
 10
-0.4128582677165354
 20
1.679893700787402
 30
0.0
 10
-0.4128582677165354
 20
1.679893700787402
 30
0.0
 10
-0.4155511811023622
 20
1.683503937007874
 30
0.0
 10
-0.4192755905511811
 20
1.686086614173229
 30
0.0
 10
-0.4240236220472441
 20
1.687696850393701
 30
0.0
 10
-0.4240236220472441
 20
1.687696850393701
 30
0.0
 10
-0.4287755905511811
 20
1.689311023622047
 30
0.0
 10
-0.4371889763779528
 20
1.690086614173229
 30
0.0
 10
-0.4492755905511811
 20
1.690086614173229
 30
0.0
 10
-0.4492755905511811
 20
1.690086614173229
 30
0.0
 10
-0.4492755905511811
 20
1.690086614173229
 30
0.0
 10
-0.471244094488189
 20
1.690086614173229
 30
0.0
 10
-0.471244094488189
 20
1.690086614173229
 30
0.0
  0
SPLINE
  5
60
330
1F
100
AcDbEntity
  8
LAYER_1
 62
   250
100
AcDbSpline
210
0.0
220
0.0
230
1.0
 70
    11
 71
     3
 72
   112
 73
   108
 74
     0
 42
0.0000000001
 43
0.0000000001
 40
0.0
 40
0.0
 40
0.0
 40
0.0
 40
0.037037037037037
 40
0.037037037037037
 40
0.037037037037037
 40
0.037037037037037
 40
0.0740740740740741
 40
0.0740740740740741
 40
0.0740740740740741
 40
0.0740740740740741
 40
0.1111111111111111
 40
0.1111111111111111
 40
0.1111111111111111
 40
0.1111111111111111
 40
0.1481481481481481
 40
0.1481481481481481
 40
0.1481481481481481
 40
0.1481481481481481
 40
0.1851851851851852
 40
0.1851851851851852
 40
0.1851851851851852
 40
0.1851851851851852
 40
0.2222222222222222
 40
0.2222222222222222
 40
0.2222222222222222
 40
0.2222222222222222
 40
0.2592592592592592
 40
0.2592592592592592
 40
0.2592592592592592
 40
0.2592592592592592
 40
0.2962962962962963
 40
0.2962962962962963
 40
0.2962962962962963
 40
0.2962962962962963
 40
0.3333333333333333
 40
0.3333333333333333
 40
0.3333333333333333
 40
0.3333333333333333
 40
0.3703703703703704
 40
0.3703703703703704
 40
0.3703703703703704
 40
0.3703703703703704
 40
0.4074074074074074
 40
0.4074074074074074
 40
0.4074074074074074
 40
0.4074074074074074
 40
0.4444444444444444
 40
0.4444444444444444
 40
0.4444444444444444
 40
0.4444444444444444
 40
0.4814814814814815
 40
0.4814814814814815
 40
0.4814814814814815
 40
0.4814814814814815
 40
0.5185185185185185
 40
0.5185185185185185
 40
0.5185185185185185
 40
0.5185185185185185
 40
0.5555555555555556
 40
0.5555555555555556
 40
0.5555555555555556
 40
0.5555555555555556
 40
0.5925925925925926
 40
0.5925925925925926
 40
0.5925925925925926
 40
0.5925925925925926
 40
0.6296296296296295
 40
0.6296296296296295
 40
0.6296296296296295
 40
0.6296296296296295
 40
0.6666666666666665
 40
0.6666666666666665
 40
0.6666666666666665
 40
0.6666666666666665
 40
0.7037037037037035
 40
0.7037037037037035
 40
0.7037037037037035
 40
0.7037037037037035
 40
0.7407407407407405
 40
0.7407407407407405
 40
0.7407407407407405
 40
0.7407407407407405
 40
0.7777777777777775
 40
0.7777777777777775
 40
0.7777777777777775
 40
0.7777777777777775
 40
0.8148148148148144
 40
0.8148148148148144
 40
0.8148148148148144
 40
0.8148148148148144
 40
0.8518518518518514
 40
0.8518518518518514
 40
0.8518518518518514
 40
0.8518518518518514
 40
0.8888888888888884
 40
0.8888888888888884
 40
0.8888888888888884
 40
0.8888888888888884
 40
0.9259259259259254
 40
0.9259259259259254
 40
0.9259259259259254
 40
0.9259259259259254
 40
0.9629629629629624
 40
0.9629629629629624
 40
0.9629629629629624
 40
0.9629629629629624
 40
1.0
 40
1.0
 40
1.0
 40
1.0
 10
-0.3341377952755906
 20
1.748531496062992
 30
0.0
 10
-0.3341377952755906
 20
1.748531496062992
 30
0.0
 10
-0.3207204724409449
 20
1.748531496062992
 30
0.0
 10
-0.3207204724409449
 20
1.748531496062992
 30
0.0
 10
-0.3207204724409449
 20
1.748531496062992
 30
0.0
 10
-0.3207204724409449
 20
1.748531496062992
 30
0.0
 10
-0.2854724409448819
 20
1.653641732283465
 30
0.0
 10
-0.2854724409448819
 20
1.653641732283465
 30
0.0
 10
-0.2854724409448819
 20
1.653641732283465
 30
0.0
 10
-0.283748031496063
 20
1.648866141732284
 30
0.0
 10
-0.282
 20
1.645696850393701
 30
0.0
 10
-0.2802204724409449
 20
1.644169291338583
 30
0.0
 10
-0.2802204724409449
 20
1.644169291338583
 30
0.0
 10
-0.2784724409448819
 20
1.642614173228347
 30
0.0
 10
-0.2760826771653543
 20
1.641838582677165
 30
0.0
 10
-0.2731102362204724
 20
1.641838582677165
 30
0.0
 10
-0.2731102362204724
 20
1.641838582677165
 30
0.0
 10
-0.2731102362204724
 20
1.641838582677165
 30
0.0
 10
-0.2713307086614173
 20
1.641838582677165
 30
0.0
 10
-0.2713307086614173
 20
1.641838582677165
 30
0.0
 10
-0.2713307086614173
 20
1.641838582677165
 30
0.0
 10
-0.2713307086614173
 20
1.641838582677165
 30
0.0
 10
-0.2713307086614173
 20
1.635003937007874
 30
0.0
 10
-0.2713307086614173
 20
1.635003937007874
 30
0.0
 10
-0.2713307086614173
 20
1.635003937007874
 30
0.0
 10
-0.2713307086614173
 20
1.635003937007874
 30
0.0
 10
-0.3117755905511811
 20
1.635003937007874
 30
0.0
 10
-0.3117755905511811
 20
1.635003937007874
 30
0.0
 10
-0.3117755905511811
 20
1.635003937007874
 30
0.0
 10
-0.3117755905511811
 20
1.635003937007874
 30
0.0
 10
-0.3117755905511811
 20
1.641838582677165
 30
0.0
 10
-0.3117755905511811
 20
1.641838582677165
 30
0.0
 10
-0.3117755905511811
 20
1.641838582677165
 30
0.0
 10
-0.3104724409448819
 20
1.641948818897638
 30
0.0
 10
-0.3091929133858268
 20
1.642003937007874
 30
0.0
 10
-0.3079409448818898
 20
1.642003937007874
 30
0.0
 10
-0.3079409448818898
 20
1.642003937007874
 30
0.0
 10
-0.3053307086614173
 20
1.642003937007874
 30
0.0
 10
-0.3036377952755905
 20
1.642283464566929
 30
0.0
 10
-0.3028031496062992
 20
1.642811023622047
 30
0.0
 10
-0.3028031496062992
 20
1.642811023622047
 30
0.0
 10
-0.301248031496063
 20
1.643838582677165
 30
0.0
 10
-0.3004448818897638
 20
1.645141732283465
 30
0.0
 10
-0.3004448818897638
 20
1.646724409448819
 30
0.0
 10
-0.3004448818897638
 20
1.646724409448819
 30
0.0
 10
-0.3004448818897638
 20
1.647866141732284
 30
0.0
 10
-0.3012204724409449
 20
1.650641732283465
 30
0.0
 10
-0.3027204724409449
 20
1.655114173228347
 30
0.0
 10
-0.3027204724409449
 20
1.655114173228347
 30
0.0
 10
-0.3027204724409449
 20
1.655114173228347
 30
0.0
 10
-0.3102204724409449
 20
1.677086614173228
 30
0.0
 10
-0.3102204724409449
 20
1.677086614173228
 30
0.0
 10
-0.3102204724409449
 20
1.677086614173228
 30
0.0
 10
-0.3102204724409449
 20
1.677086614173228
 30
0.0
 10
-0.3513858267716535
 20
1.677086614173228
 30
0.0
 10
-0.3513858267716535
 20
1.677086614173228
 30
0.0
 10
-0.3513858267716535
 20
1.677086614173228
 30
0.0
 10
-0.3513858267716535
 20
1.677086614173228
 30
0.0
 10
-0.3601929133858268
 20
1.652503937007874
 30
0.0
 10
-0.3601929133858268
 20
1.652503937007874
 30
0.0
 10
-0.3601929133858268
 20
1.652503937007874
 30
0.0
 10
-0.3611102362204725
 20
1.649948818897638
 30
0.0
 10
-0.3615826771653544
 20
1.648196850393701
 30
0.0
 10
-0.3615826771653544
 20
1.647196850393701
 30
0.0
 10
-0.3615826771653544
 20
1.647196850393701
 30
0.0
 10
-0.3615826771653544
 20
1.646114173228346
 30
0.0
 10
-0.3612755905511811
 20
1.645169291338583
 30
0.0
 10
-0.3607204724409449
 20
1.644366141732284
 30
0.0
 10
-0.3607204724409449
 20
1.644366141732284
 30
0.0
 10
-0.3601377952755906
 20
1.64355905511811
 30
0.0
 10
-0.3593858267716535
 20
1.642948818897638
 30
0.0
 10
-0.3583858267716535
 20
1.642531496062992
 30
0.0
 10
-0.3583858267716535
 20
1.642531496062992
 30
0.0
 10
-0.3574133858267717
 20
1.642114173228347
 30
0.0
 10
-0.3558582677165355
 20
1.64192125984252
 30
0.0
 10
-0.3536653543307087
 20
1.64192125984252
 30
0.0
 10
-0.3536653543307087
 20
1.64192125984252
 30
0.0
 10
-0.3522204724409449
 20
1.64192125984252
 30
0.0
 10
-0.3510275590551181
 20
1.641893700787402
 30
0.0
 10
-0.3501102362204724
 20
1.641838582677165
 30
0.0
 10
-0.3501102362204724
 20
1.641838582677165
 30
0.0
 10
-0.3501102362204724
 20
1.641838582677165
 30
0.0
 10
-0.3501102362204724
 20
1.635003937007874
 30
0.0
 10
-0.3501102362204724
 20
1.635003937007874
 30
0.0
 10
-0.3501102362204724
 20
1.635003937007874
 30
0.0
 10
-0.3501102362204724
 20
1.635003937007874
 30
0.0
 10
-0.3840275590551182
 20
1.635003937007874
 30
0.0
 10
-0.3840275590551182
 20
1.635003937007874
 30
0.0
 10
-0.3840275590551182
 20
1.635003937007874
 30
0.0
 10
-0.3840275590551182
 20
1.635003937007874
 30
0.0
 10
-0.3840275590551182
 20
1.641838582677165
 30
0.0
 10
-0.3840275590551182
 20
1.641838582677165
 30
0.0
 10
-0.3840275590551182
 20
1.641838582677165
 30
0.0
 10
-0.3808858267716536
 20
1.641838582677165
 30
0.0
 10
-0.3786102362204725
 20
1.642141732283465
 30
0.0
 10
-0.377248031496063
 20
1.642783464566929
 30
0.0
 10
-0.377248031496063
 20
1.642783464566929
 30
0.0
 10
-0.3758582677165355
 20
1.643393700787402
 30
0.0
 10
-0.3746377952755906
 20
1.644393700787402
 30
0.0
 10
-0.3736102362204725
 20
1.645783464566929
 30
0.0
 10
-0.3736102362204725
 20
1.645783464566929
 30
0.0
 10
-0.3725826771653544
 20
1.647169291338583
 30
0.0
 10
-0.3712204724409449
 20
1.650086614173228
 30
0.0
 10
-0.3695551181102362
 20
1.654531496062992
 30
0.0
 10
-0.3695551181102362
 20
1.654531496062992
 30
0.0
 10
-0.3695551181102362
 20
1.654531496062992
 30
0.0
 10
-0.3341377952755906
 20
1.748531496062992
 30
0.0
 10
-0.3341377952755906
 20
1.748531496062992
 30
0.0
  0
SPLINE
  5
61
330
1F
100
AcDbEntity
  8
LAYER_1
 62
   250
100
AcDbSpline
210
0.0
220
0.0
230
1.0
 70
    11
 71
     3
 72
    16
 73
    12
 74
     0
 42
0.0000000001
 43
0.0000000001
 40
0.0
 40
0.0
 40
0.0
 40
0.0
 40
0.3333333333333333
 40
0.3333333333333333
 40
0.3333333333333333
 40
0.3333333333333333
 40
0.6666666666666666
 40
0.6666666666666666
 40
0.6666666666666666
 40
0.6666666666666666
 40
1.0
 40
1.0
 40
1.0
 40
1.0
 10
-0.3483858267716536
 20
1.68505905511811
 30
0.0
 10
-0.3483858267716536
 20
1.68505905511811
 30
0.0
 10
-0.3133031496062992
 20
1.68505905511811
 30
0.0
 10
-0.3133031496062992
 20
1.68505905511811
 30
0.0
 10
-0.3133031496062992
 20
1.68505905511811
 30
0.0
 10
-0.3133031496062992
 20
1.68505905511811
 30
0.0
 10
-0.3308858267716536
 20
1.733893700787402
 30
0.0
 10
-0.3308858267716536
 20
1.733893700787402
 30
0.0
 10
-0.3308858267716536
 20
1.733893700787402
 30
0.0
 10
-0.3308858267716536
 20
1.733893700787402
 30
0.0
 10
-0.3483858267716536
 20
1.68505905511811
 30
0.0
 10
-0.3483858267716536
 20
1.68505905511811
 30
0.0
  0
SPLINE
  5
62
330
1F
100
AcDbEntity
  8
LAYER_1
 62
   250
100
AcDbSpline
210
0.0
220
0.0
230
1.0
 70
    11
 71
     3
 72
    72
 73
    68
 74
     0
 42
0.0000000001
 43
0.0000000001
 40
0.0
 40
0.0
 40
0.0
 40
0.0
 40
0.0588235294117647
 40
0.0588235294117647
 40
0.0588235294117647
 40
0.0588235294117647
 40
0.1176470588235294
 40
0.1176470588235294
 40
0.1176470588235294
 40
0.1176470588235294
 40
0.1764705882352941
 40
0.1764705882352941
 40
0.1764705882352941
 40
0.1764705882352941
 40
0.2352941176470588
 40
0.2352941176470588
 40
0.2352941176470588
 40
0.2352941176470588
 40
0.2941176470588235
 40
0.2941176470588235
 40
0.2941176470588235
 40
0.2941176470588235
 40
0.3529411764705883
 40
0.3529411764705883
 40
0.3529411764705883
 40
0.3529411764705883
 40
0.411764705882353
 40
0.411764705882353
 40
0.411764705882353
 40
0.411764705882353
 40
0.4705882352941177
 40
0.4705882352941177
 40
0.4705882352941177
 40
0.4705882352941177
 40
0.5294117647058824
 40
0.5294117647058824
 40
0.5294117647058824
 40
0.5294117647058824
 40
0.5882352941176471
 40
0.5882352941176471
 40
0.5882352941176471
 40
0.5882352941176471
 40
0.6470588235294118
 40
0.6470588235294118
 40
0.6470588235294118
 40
0.6470588235294118
 40
0.7058823529411765
 40
0.7058823529411765
 40
0.7058823529411765
 40
0.7058823529411765
 40
0.7647058823529412
 40
0.7647058823529412
 40
0.7647058823529412
 40
0.7647058823529412
 40
0.823529411764706
 40
0.823529411764706
 40
0.823529411764706
 40
0.823529411764706
 40
0.8823529411764707
 40
0.8823529411764707
 40
0.8823529411764707
 40
0.8823529411764707
 40
0.9411764705882354
 40
0.9411764705882354
 40
0.9411764705882354
 40
0.9411764705882354
 40
1.0
 40
1.0
 40
1.0
 40
1.0
 10
-0.1083031496062992
 20
1.748531496062992
 30
0.0
 10
-0.1083031496062992
 20
1.748531496062992
 30
0.0
 10
-0.1022204724409449
 20
1.748531496062992
 30
0.0
 10
-0.1022204724409449
 20
1.748531496062992
 30
0.0
 10
-0.1022204724409449
 20
1.748531496062992
 30
0.0
 10
-0.1022204724409449
 20
1.748531496062992
 30
0.0
 10
-0.1022204724409449
 20
1.654283464566929
 30
0.0
 10
-0.1022204724409449
 20
1.654283464566929
 30
0.0
 10
-0.1022204724409449
 20
1.654283464566929
 30
0.0
 10
-0.1022204724409449
 20
1.649838582677165
 30
0.0
 10
-0.1019133858267717
 20
1.646976377952756
 30
0.0
 10
-0.1013582677165354
 20
1.645696850393701
 30
0.0
 10
-0.1013582677165354
 20
1.645696850393701
 30
0.0
 10
-0.1007755905511811
 20
1.64442125984252
 30
0.0
 10
-0.0998582677165354
 20
1.643476377952756
 30
0.0
 10
-0.0985551181102362
 20
1.642811023622047
 30
0.0
 10
-0.0985551181102362
 20
1.642811023622047
 30
0.0
 10
-0.097248031496063
 20
1.642169291338583
 30
0.0
 10
-0.0946653543307087
 20
1.641838582677165
 30
0.0
 10
-0.0908031496062992
 20
1.641838582677165
 30
0.0
 10
-0.0908031496062992
 20
1.641838582677165
 30
0.0
 10
-0.0908031496062992
 20
1.641838582677165
 30
0.0
 10
-0.0828307086614173
 20
1.641838582677165
 30
0.0
 10
-0.0828307086614173
 20
1.641838582677165
 30
0.0
 10
-0.0828307086614173
 20
1.641838582677165
 30
0.0
 10
-0.0828307086614173
 20
1.641838582677165
 30
0.0
 10
-0.0828307086614173
 20
1.635003937007874
 30
0.0
 10
-0.0828307086614173
 20
1.635003937007874
 30
0.0
 10
-0.0828307086614173
 20
1.635003937007874
 30
0.0
 10
-0.0828307086614173
 20
1.635003937007874
 30
0.0
 10
-0.1364685039370079
 20
1.635003937007874
 30
0.0
 10
-0.1364685039370079
 20
1.635003937007874
 30
0.0
 10
-0.1364685039370079
 20
1.635003937007874
 30
0.0
 10
-0.1364685039370079
 20
1.635003937007874
 30
0.0
 10
-0.1364685039370079
 20
1.641838582677165
 30
0.0
 10
-0.1364685039370079
 20
1.641838582677165
 30
0.0
 10
-0.1364685039370079
 20
1.641838582677165
 30
0.0
 10
-0.1364685039370079
 20
1.641838582677165
 30
0.0
 10
-0.1276102362204724
 20
1.641838582677165
 30
0.0
 10
-0.1276102362204724
 20
1.641838582677165
 30
0.0
 10
-0.1276102362204724
 20
1.641838582677165
 30
0.0
 10
-0.123748031496063
 20
1.641838582677165
 30
0.0
 10
-0.1211929133858268
 20
1.642169291338583
 30
0.0
 10
-0.1199133858267717
 20
1.642866141732284
 30
0.0
 10
-0.1199133858267717
 20
1.642866141732284
 30
0.0
 10
-0.1186377952755906
 20
1.643531496062992
 30
0.0
 10
-0.1176377952755906
 20
1.644614173228347
 30
0.0
 10
-0.1169409448818898
 20
1.646114173228346
 30
0.0
 10
-0.1169409448818898
 20
1.646114173228346
 30
0.0
 10
-0.116248031496063
 20
1.647614173228347
 30
0.0
 10
-0.1158858267716535
 20
1.650338582677166
 30
0.0
 10
-0.1158858267716535
 20
1.654283464566929
 30
0.0
 10
-0.1158858267716535
 20
1.654283464566929
 30
0.0
 10
-0.1158858267716535
 20
1.654283464566929
 30
0.0
 10
-0.1158858267716535
 20
1.731751968503937
 30
0.0
 10
-0.1158858267716535
 20
1.731751968503937
 30
0.0
 10
-0.1158858267716535
 20
1.731751968503937
 30
0.0
 10
-0.1158858267716535
 20
1.731751968503937
 30
0.0
 10
-0.1364685039370079
 20
1.731751968503937
 30
0.0
 10
-0.1364685039370079
 20
1.731751968503937
 30
0.0
 10
-0.1364685039370079
 20
1.731751968503937
 30
0.0
 10
-0.1364685039370079
 20
1.731751968503937
 30
0.0
 10
-0.1364685039370079
 20
1.738751968503937
 30
0.0
 10
-0.1364685039370079
 20
1.738751968503937
 30
0.0
 10
-0.1364685039370079
 20
1.738751968503937
 30
0.0
 10
-0.125248031496063
 20
1.740334645669291
 30
0.0
 10
-0.1158582677165354
 20
1.743586614173228
 30
0.0
 10
-0.1083031496062992
 20
1.748531496062992
 30
0.0
  0
SPLINE
  5
63
330
1F
100
AcDbEntity
  8
LAYER_1
 62
   250
100
AcDbSpline
210
0.0
220
0.0
230
1.0
 70
    11
 71
     3
 72
    80
 73
    76
 74
     0
 42
0.0000000001
 43
0.0000000001
 40
0.0
 40
0.0
 40
0.0
 40
0.0
 40
0.0526315789473684
 40
0.0526315789473684
 40
0.0526315789473684
 40
0.0526315789473684
 40
0.1052631578947368
 40
0.1052631578947368
 40
0.1052631578947368
 40
0.1052631578947368
 40
0.1578947368421053
 40
0.1578947368421053
 40
0.1578947368421053
 40
0.1578947368421053
 40
0.2105263157894737
 40
0.2105263157894737
 40
0.2105263157894737
 40
0.2105263157894737
 40
0.2631578947368421
 40
0.2631578947368421
 40
0.2631578947368421
 40
0.2631578947368421
 40
0.3157894736842105
 40
0.3157894736842105
 40
0.3157894736842105
 40
0.3157894736842105
 40
0.3684210526315789
 40
0.3684210526315789
 40
0.3684210526315789
 40
0.3684210526315789
 40
0.4210526315789474
 40
0.4210526315789474
 40
0.4210526315789474
 40
0.4210526315789474
 40
0.4736842105263158
 40
0.4736842105263158
 40
0.4736842105263158
 40
0.4736842105263158
 40
0.5263157894736842
 40
0.5263157894736842
 40
0.5263157894736842
 40
0.5263157894736842
 40
0.5789473684210527
 40
0.5789473684210527
 40
0.5789473684210527
 40
0.5789473684210527
 40
0.631578947368421
 40
0.631578947368421
 40
0.631578947368421
 40
0.631578947368421
 40
0.6842105263157894
 40
0.6842105263157894
 40
0.6842105263157894
 40
0.6842105263157894
 40
0.7368421052631577
 40
0.7368421052631577
 40
0.7368421052631577
 40
0.7368421052631577
 40
0.7894736842105261
 40
0.7894736842105261
 40
0.7894736842105261
 40
0.7894736842105261
 40
0.8421052631578945
 40
0.8421052631578945
 40
0.8421052631578945
 40
0.8421052631578945
 40
0.8947368421052628
 40
0.8947368421052628
 40
0.8947368421052628
 40
0.8947368421052628
 40
0.9473684210526312
 40
0.9473684210526312
 40
0.9473684210526312
 40
0.9473684210526312
 40
1.0
 40
1.0
 40
1.0
 40
1.0
 10
-0.0428858267716535
 20
1.752669291338583
 30
0.0
 10
-0.0428858267716535
 20
1.752669291338583
 30
0.0
 10
-0.037496062992126
 20
1.752669291338583
 30
0.0
 10
-0.037496062992126
 20
1.752669291338583
 30
0.0
 10
-0.037496062992126
 20
1.752669291338583
 30
0.0
 10
-0.037496062992126
 20
1.752669291338583
 30
0.0
 10
-0.0365236220472441
 20
1.748531496062992
 30
0.0
 10
-0.0365236220472441
 20
1.748531496062992
 30
0.0
 10
-0.0365236220472441
 20
1.748531496062992
 30
0.0
 10
-0.0365236220472441
 20
1.748531496062992
 30
0.0
 10
0.0345866141732284
 20
1.748531496062992
 30
0.0
 10
0.0345866141732284
 20
1.748531496062992
 30
0.0
 10
0.0345866141732284
 20
1.748531496062992
 30
0.0
 10
0.0345866141732284
 20
1.748531496062992
 30
0.0
 10
0.0345866141732284
 20
1.741614173228347
 30
0.0
 10
0.0345866141732284
 20
1.741614173228347
 30
0.0
 10
0.0345866141732284
 20
1.741614173228347
 30
0.0
 10
0.0260866141732283
 20
1.731779527559055
 30
0.0
 10
0.0183622047244094
 20
1.720614173228346
 30
0.0
 10
0.0114488188976378
 20
1.708031496062992
 30
0.0
 10
0.0114488188976378
 20
1.708031496062992
 30
0.0
 10
0.0045314960629921
 20
1.695476377952756
 30
0.0
 10
-0.0008307086614173
 20
1.682696850393701
 30
0.0
 10
-0.0046377952755906
 20
1.669669291338583
 30
0.0
 10
-0.0046377952755906
 20
1.669669291338583
 30
0.0
 10
-0.0073858267716535
 20
1.660283464566929
 30
0.0
 10
-0.0096338582677165
 20
1.648724409448819
 30
0.0
 10
-0.0113858267716535
 20
1.635003937007874
 30
0.0
 10
-0.0113858267716535
 20
1.635003937007874
 30
0.0
 10
-0.0113858267716535
 20
1.635003937007874
 30
0.0
 10
-0.0280511811023622
 20
1.635003937007874
 30
0.0
 10
-0.0280511811023622
 20
1.635003937007874
 30
0.0
 10
-0.0280511811023622
 20
1.635003937007874
 30
0.0
 10
-0.0264409448818898
 20
1.647114173228347
 30
0.0
 10
-0.0237755905511811
 20
1.65842125984252
 30
0.0
 10
-0.0200511811023622
 20
1.668948818897638
 30
0.0
 10
-0.0200511811023622
 20
1.668948818897638
 30
0.0
 10
-0.0163307086614173
 20
1.679476377952756
 30
0.0
 10
-0.0109685039370079
 20
1.690476377952756
 30
0.0
 10
-0.0039409448818898
 20
1.701948818897638
 30
0.0
 10
-0.0039409448818898
 20
1.701948818897638
 30
0.0
 10
0.0030866141732283
 20
1.71342125984252
 30
0.0
 10
0.0116141732283465
 20
1.724866141732284
 30
0.0
 10
0.0216692913385827
 20
1.736307086614173
 30
0.0
 10
0.0216692913385827
 20
1.736307086614173
 30
0.0
 10
0.0216692913385827
 20
1.736307086614173
 30
0.0
 10
-0.0290511811023622
 20
1.736307086614173
 30
0.0
 10
-0.0290511811023622
 20
1.736307086614173
 30
0.0
 10
-0.0290511811023622
 20
1.736307086614173
 30
0.0
 10
-0.0327204724409449
 20
1.736307086614173
 30
0.0
 10
-0.035248031496063
 20
1.736141732283465
 30
0.0
 10
-0.0366062992125984
 20
1.735751968503937
 30
0.0
 10
-0.0366062992125984
 20
1.735751968503937
 30
0.0
 10
-0.0379685039370079
 20
1.735366141732283
 30
0.0
 10
-0.0390236220472441
 20
1.734779527559055
 30
0.0
 10
-0.0397755905511811
 20
1.733976377952756
 30
0.0
 10
-0.0397755905511811
 20
1.733976377952756
 30
0.0
 10
-0.0405511811023622
 20
1.733141732283465
 30
0.0
 10
-0.0411929133858268
 20
1.731696850393701
 30
0.0
 10
-0.041748031496063
 20
1.729641732283465
 30
0.0
 10
-0.041748031496063
 20
1.729641732283465
 30
0.0
 10
-0.041748031496063
 20
1.729641732283465
 30
0.0
 10
-0.0421338582677165
 20
1.728114173228347
 30
0.0
 10
-0.0421338582677165
 20
1.728114173228347
 30
0.0
 10
-0.0421338582677165
 20
1.728114173228347
 30
0.0
 10
-0.0421338582677165
 20
1.728114173228347
 30
0.0
 10
-0.0449133858267717
 20
1.718503937007874
 30
0.0
 10
-0.0449133858267717
 20
1.718503937007874
 30
0.0
 10
-0.0449133858267717
 20
1.718503937007874
 30
0.0
 10
-0.0449133858267717
 20
1.718503937007874
 30
0.0
 10
-0.0518307086614173
 20
1.719976377952756
 30
0.0
 10
-0.0518307086614173
 20
1.719976377952756
 30
0.0
 10
-0.0518307086614173
 20
1.719976377952756
 30
0.0
 10
-0.0518307086614173
 20
1.719976377952756
 30
0.0
 10
-0.0428858267716535
 20
1.752669291338583
 30
0.0
 10
-0.0428858267716535
 20
1.752669291338583
 30
0.0
  0
SPLINE
  5
64
330
1F
100
AcDbEntity
  8
LAYER_1
 62
   250
100
AcDbSpline
210
0.0
220
0.0
230
1.0
 70
    11
 71
     3
 72
    76
 73
    72
 74
     0
 42
0.0000000001
 43
0.0000000001
 40
0.0
 40
0.0
 40
0.0
 40
0.0
 40
0.0555555555555556
 40
0.0555555555555556
 40
0.0555555555555556
 40
0.0555555555555556
 40
0.1111111111111111
 40
0.1111111111111111
 40
0.1111111111111111
 40
0.1111111111111111
 40
0.1666666666666667
 40
0.1666666666666667
 40
0.1666666666666667
 40
0.1666666666666667
 40
0.2222222222222222
 40
0.2222222222222222
 40
0.2222222222222222
 40
0.2222222222222222
 40
0.2777777777777778
 40
0.2777777777777778
 40
0.2777777777777778
 40
0.2777777777777778
 40
0.3333333333333334
 40
0.3333333333333334
 40
0.3333333333333334
 40
0.3333333333333334
 40
0.388888888888889
 40
0.388888888888889
 40
0.388888888888889
 40
0.388888888888889
 40
0.4444444444444445
 40
0.4444444444444445
 40
0.4444444444444445
 40
0.4444444444444445
 40
0.5000000000000001
 40
0.5000000000000001
 40
0.5000000000000001
 40
0.5000000000000001
 40
0.5555555555555557
 40
0.5555555555555557
 40
0.5555555555555557
 40
0.5555555555555557
 40
0.6111111111111113
 40
0.6111111111111113
 40
0.6111111111111113
 40
0.6111111111111113
 40
0.6666666666666669
 40
0.6666666666666669
 40
0.6666666666666669
 40
0.6666666666666669
 40
0.7222222222222224
 40
0.7222222222222224
 40
0.7222222222222224
 40
0.7222222222222224
 40
0.777777777777778
 40
0.777777777777778
 40
0.777777777777778
 40
0.777777777777778
 40
0.8333333333333336
 40
0.8333333333333336
 40
0.8333333333333336
 40
0.8333333333333336
 40
0.8888888888888892
 40
0.8888888888888892
 40
0.8888888888888892
 40
0.8888888888888892
 40
0.9444444444444448
 40
0.9444444444444448
 40
0.9444444444444448
 40
0.9444444444444448
 40
1.0
 40
1.0
 40
1.0
 40
1.0
 10
0.1068661417322835
 20
1.698003937007874
 30
0.0
 10
0.1132834645669291
 20
1.69555905511811
 30
0.0
 10
0.1181692913385827
 20
1.693251968503937
 30
0.0
 10
0.1215314960629921
 20
1.691086614173228
 30
0.0
 10
0.1215314960629921
 20
1.691086614173228
 30
0.0
 10
0.1264488188976378
 20
1.68792125984252
 30
0.0
 10
0.1301692913385827
 20
1.684224409448819
 30
0.0
 10
0.1326692913385827
 20
1.679976377952756
 30
0.0
 10
0.1326692913385827
 20
1.679976377952756
 30
0.0
 10
0.1351692913385827
 20
1.675696850393701
 30
0.0
 10
0.1364212598425197
 20
1.671086614173228
 30
0.0
 10
0.1364212598425197
 20
1.666086614173229
 30
0.0
 10
0.1364212598425197
 20
1.666086614173229
 30
0.0
 10
0.1364212598425197
 20
1.657141732283465
 30
0.0
 10
0.1325590551181103
 20
1.649393700787402
 30
0.0
 10
0.1248661417322835
 20
1.642866141732284
 30
0.0
 10
0.1248661417322835
 20
1.642866141732284
 30
0.0
 10
0.1171417322834646
 20
1.636311023622047
 30
0.0
 10
0.106755905511811
 20
1.63305905511811
 30
0.0
 10
0.0936968503937008
 20
1.63305905511811
 30
0.0
 10
0.0936968503937008
 20
1.63305905511811
 30
0.0
 10
0.0798661417322835
 20
1.63305905511811
 30
0.0
 10
0.069003937007874
 20
1.636751968503937
 30
0.0
 10
0.0611417322834646
 20
1.644114173228346
 30
0.0
 10
0.0611417322834646
 20
1.644114173228346
 30
0.0
 10
0.0548937007874016
 20
1.650031496062992
 30
0.0
 10
0.0517834645669291
 20
1.656724409448819
 30
0.0
 10
0.0517834645669291
 20
1.664224409448819
 30
0.0
 10
0.0517834645669291
 20
1.664224409448819
 30
0.0
 10
0.0517834645669291
 20
1.670251968503937
 30
0.0
 10
0.0538937007874016
 20
1.675641732283465
 30
0.0
 10
0.0581141732283465
 20
1.68042125984252
 30
0.0
 10
0.0581141732283465
 20
1.68042125984252
 30
0.0
 10
0.0632283464566929
 20
1.686114173228346
 30
0.0
 10
0.070503937007874
 20
1.69055905511811
 30
0.0
 10
0.0799488188976378
 20
1.693751968503937
 30
0.0
 10
0.0799488188976378
 20
1.693751968503937
 30
0.0
 10
0.0725590551181102
 20
1.697224409448819
 30
0.0
 10
0.067255905511811
 20
1.700751968503937
 30
0.0
 10
0.0639763779527559
 20
1.704338582677165
 30
0.0
 10
0.0639763779527559
 20
1.704338582677165
 30
0.0
 10
0.0598110236220472
 20
1.70905905511811
 30
0.0
 10
0.0577283464566929
 20
1.714724409448819
 30
0.0
 10
0.0577283464566929
 20
1.721334645669292
 30
0.0
 10
0.0577283464566929
 20
1.721334645669292
 30
0.0
 10
0.0577283464566929
 20
1.729531496062992
 30
0.0
 10
0.0608110236220472
 20
1.736169291338583
 30
0.0
 10
0.067003937007874
 20
1.741196850393701
 30
0.0
 10
0.067003937007874
 20
1.741196850393701
 30
0.0
 10
0.0745866141732283
 20
1.747393700787402
 30
0.0
 10
0.0840866141732284
 20
1.750476377952756
 30
0.0
 10
0.0954763779527559
 20
1.750476377952756
 30
0.0
 10
0.0954763779527559
 20
1.750476377952756
 30
0.0
 10
0.1058937007874016
 20
1.750476377952756
 30
0.0
 10
0.1143110236220472
 20
1.747807086614173
 30
0.0
 10
0.120755905511811
 20
1.742476377952756
 30
0.0
 10
0.120755905511811
 20
1.742476377952756
 30
0.0
 10
0.1271692913385827
 20
1.737114173228347
 30
0.0
 10
0.1303937007874016
 20
1.731003937007874
 30
0.0
 10
0.1303937007874016
 20
1.724114173228347
 30
0.0
 10
0.1303937007874016
 20
1.724114173228347
 30
0.0
 10
0.1303937007874016
 20
1.720696850393701
 30
0.0
 10
0.1295866141732284
 20
1.71742125984252
 30
0.0
 10
0.128003937007874
 20
1.714307086614173
 30
0.0
 10
0.128003937007874
 20
1.714307086614173
 30
0.0
 10
0.1263937007874016
 20
1.711196850393701
 30
0.0
 10
0.1239488188976378
 20
1.708279527559055
 30
0.0
 10
0.1206141732283465
 20
1.705614173228347
 30
0.0
 10
0.1206141732283465
 20
1.705614173228347
 30
0.0
 10
0.1173110236220473
 20
1.70292125984252
 30
0.0
 10
0.1127244094488189
 20
1.700393700787402
 30
0.0
 10
0.1068661417322835
 20
1.698003937007874
 30
0.0
  0
SPLINE
  5
65
330
1F
100
AcDbEntity
  8
LAYER_1
 62
   250
100
AcDbSpline
210
0.0
220
0.0
230
1.0
 70
    11
 71
     3
 72
    48
 73
    44
 74
     0
 42
0.0000000001
 43
0.0000000001
 40
0.0
 40
0.0
 40
0.0
 40
0.0
 40
0.0909090909090909
 40
0.0909090909090909
 40
0.0909090909090909
 40
0.0909090909090909
 40
0.1818181818181818
 40
0.1818181818181818
 40
0.1818181818181818
 40
0.1818181818181818
 40
0.2727272727272727
 40
0.2727272727272727
 40
0.2727272727272727
 40
0.2727272727272727
 40
0.3636363636363637
 40
0.3636363636363637
 40
0.3636363636363637
 40
0.3636363636363637
 40
0.4545454545454546
 40
0.4545454545454546
 40
0.4545454545454546
 40
0.4545454545454546
 40
0.5454545454545455
 40
0.5454545454545455
 40
0.5454545454545455
 40
0.5454545454545455
 40
0.6363636363636365
 40
0.6363636363636365
 40
0.6363636363636365
 40
0.6363636363636365
 40
0.7272727272727274
 40
0.7272727272727274
 40
0.7272727272727274
 40
0.7272727272727274
 40
0.8181818181818183
 40
0.8181818181818183
 40
0.8181818181818183
 40
0.8181818181818183
 40
0.9090909090909093
 40
0.9090909090909093
 40
0.9090909090909093
 40
0.9090909090909093
 40
1.0
 40
1.0
 40
1.0
 40
1.0
 10
0.0994763779527559
 20
1.701003937007874
 30
0.0
 10
0.1056417322834646
 20
1.705669291338583
 30
0.0
 10
0.1096692913385827
 20
1.70892125984252
 30
0.0
 10
0.111503937007874
 20
1.710779527559055
 30
0.0
 10
0.111503937007874
 20
1.710779527559055
 30
0.0
 10
0.1133661417322835
 20
1.712614173228346
 30
0.0
 10
0.1147834645669291
 20
1.714724409448819
 30
0.0
 10
0.1157834645669292
 20
1.717086614173228
 30
0.0
 10
0.1157834645669292
 20
1.717086614173228
 30
0.0
 10
0.1167834645669291
 20
1.719448818897638
 30
0.0
 10
0.1172834645669291
 20
1.721724409448819
 30
0.0
 10
0.1172834645669291
 20
1.723948818897638
 30
0.0
 10
0.1172834645669291
 20
1.723948818897638
 30
0.0
 10
0.1172834645669291
 20
1.727141732283465
 30
0.0
 10
0.1163385826771654
 20
1.730196850393701
 30
0.0
 10
0.1144488188976378
 20
1.733114173228347
 30
0.0
 10
0.1144488188976378
 20
1.733114173228347
 30
0.0
 10
0.1125314960629921
 20
1.736003937007874
 30
0.0
 10
0.109755905511811
 20
1.738366141732284
 30
0.0
 10
0.1060866141732283
 20
1.740141732283465
 30
0.0
 10
0.1060866141732283
 20
1.740141732283465
 30
0.0
 10
0.1024488188976378
 20
1.741948818897638
 30
0.0
 10
0.0983385826771654
 20
1.742834645669291
 30
0.0
 10
0.0937834645669291
 20
1.742834645669291
 30
0.0
 10
0.0937834645669291
 20
1.742834645669291
 30
0.0
 10
0.0870314960629921
 20
1.742834645669291
 30
0.0
 10
0.0814488188976378
 20
1.740976377952756
 30
0.0
 10
0.077003937007874
 20
1.737251968503937
 30
0.0
 10
0.077003937007874
 20
1.737251968503937
 30
0.0
 10
0.0725590551181102
 20
1.733531496062992
 30
0.0
 10
0.0703385826771654
 20
1.729251968503937
 30
0.0
 10
0.0703385826771654
 20
1.724366141732284
 30
0.0
 10
0.0703385826771654
 20
1.724366141732284
 30
0.0
 10
0.0703385826771654
 20
1.720448818897638
 30
0.0
 10
0.0717283464566929
 20
1.716948818897638
 30
0.0
 10
0.0744763779527559
 20
1.713866141732284
 30
0.0
 10
0.0744763779527559
 20
1.713866141732284
 30
0.0
 10
0.077255905511811
 20
1.710779527559055
 30
0.0
 10
0.0823937007874016
 20
1.707724409448819
 30
0.0
 10
0.0899488188976378
 20
1.704751968503937
 30
0.0
 10
0.0899488188976378
 20
1.704751968503937
 30
0.0
 10
0.0899488188976378
 20
1.704751968503937
 30
0.0
 10
0.0994763779527559
 20
1.701003937007874
 30
0.0
 10
0.0994763779527559
 20
1.701003937007874
 30
0.0
  0
SPLINE
  5
66
330
1F
100
AcDbEntity
  8
LAYER_1
 62
   250
100
AcDbSpline
210
0.0
220
0.0
230
1.0
 70
    11
 71
     3
 72
    40
 73
    36
 74
     0
 42
0.0000000001
 43
0.0000000001
 40
0.0
 40
0.0
 40
0.0
 40
0.0
 40
0.1111111111111111
 40
0.1111111111111111
 40
0.1111111111111111
 40
0.1111111111111111
 40
0.2222222222222222
 40
0.2222222222222222
 40
0.2222222222222222
 40
0.2222222222222222
 40
0.3333333333333333
 40
0.3333333333333333
 40
0.3333333333333333
 40
0.3333333333333333
 40
0.4444444444444444
 40
0.4444444444444444
 40
0.4444444444444444
 40
0.4444444444444444
 40
0.5555555555555556
 40
0.5555555555555556
 40
0.5555555555555556
 40
0.5555555555555556
 40
0.6666666666666667
 40
0.6666666666666667
 40
0.6666666666666667
 40
0.6666666666666667
 40
0.7777777777777779
 40
0.7777777777777779
 40
0.7777777777777779
 40
0.7777777777777779
 40
0.8888888888888891
 40
0.8888888888888891
 40
0.8888888888888891
 40
0.8888888888888891
 40
1.0
 40
1.0
 40
1.0
 40
1.0
 10
0.088003937007874
 20
1.690586614173228
 30
0.0
 10
0.0803385826771654
 20
1.687224409448819
 30
0.0
 10
0.0742834645669291
 20
1.682866141732283
 30
0.0
 10
0.0698385826771654
 20
1.677476377952756
 30
0.0
 10
0.0698385826771654
 20
1.677476377952756
 30
0.0
 10
0.0663661417322835
 20
1.673251968503937
 30
0.0
 10
0.0646417322834646
 20
1.668866141732283
 30
0.0
 10
0.0646417322834646
 20
1.664311023622047
 30
0.0
 10
0.0646417322834646
 20
1.664311023622047
 30
0.0
 10
0.0646417322834646
 20
1.658114173228346
 30
0.0
 10
0.0673661417322835
 20
1.652614173228347
 30
0.0
 10
0.0728661417322835
 20
1.647811023622047
 30
0.0
 10
0.0728661417322835
 20
1.647811023622047
 30
0.0
 10
0.0783385826771654
 20
1.643031496062992
 30
0.0
 10
0.0854212598425197
 20
1.640614173228347
 30
0.0
 10
0.0940866141732283
 20
1.640614173228347
 30
0.0
 10
0.0940866141732283
 20
1.640614173228347
 30
0.0
 10
0.1029488188976378
 20
1.640614173228347
 30
0.0
 10
0.1103110236220473
 20
1.643366141732284
 30
0.0
 10
0.1162244094488189
 20
1.648838582677165
 30
0.0
 10
0.1162244094488189
 20
1.648838582677165
 30
0.0
 10
0.1210590551181102
 20
1.653283464566929
 30
0.0
 10
0.1234763779527559
 20
1.65805905511811
 30
0.0
 10
0.1234763779527559
 20
1.663169291338583
 30
0.0
 10
0.1234763779527559
 20
1.663169291338583
 30
0.0
 10
0.1234763779527559
 20
1.667169291338583
 30
0.0
 10
0.1218937007874016
 20
1.671003937007874
 30
0.0
 10
0.1187244094488189
 20
1.674669291338583
 30
0.0
 10
0.1187244094488189
 20
1.674669291338583
 30
0.0
 10
0.1155314960629921
 20
1.678338582677166
 30
0.0
 10
0.1096417322834646
 20
1.681893700787402
 30
0.0
 10
0.101003937007874
 20
1.685366141732284
 30
0.0
 10
0.101003937007874
 20
1.685366141732284
 30
0.0
 10
0.101003937007874
 20
1.685366141732284
 30
0.0
 10
0.088003937007874
 20
1.690586614173228
 30
0.0
 10
0.088003937007874
 20
1.690586614173228
 30
0.0
  0
SPLINE
  5
67
330
1F
100
AcDbEntity
  8
LAYER_1
 62
   250
100
AcDbSpline
210
0.0
220
0.0
230
1.0
 70
    11
 71
     3
 72
    48
 73
    44
 74
     0
 42
0.0000000001
 43
0.0000000001
 40
0.0
 40
0.0
 40
0.0
 40
0.0
 40
0.0909090909090909
 40
0.0909090909090909
 40
0.0909090909090909
 40
0.0909090909090909
 40
0.1818181818181818
 40
0.1818181818181818
 40
0.1818181818181818
 40
0.1818181818181818
 40
0.2727272727272727
 40
0.2727272727272727
 40
0.2727272727272727
 40
0.2727272727272727
 40
0.3636363636363637
 40
0.3636363636363637
 40
0.3636363636363637
 40
0.3636363636363637
 40
0.4545454545454546
 40
0.4545454545454546
 40
0.4545454545454546
 40
0.4545454545454546
 40
0.5454545454545455
 40
0.5454545454545455
 40
0.5454545454545455
 40
0.5454545454545455
 40
0.6363636363636365
 40
0.6363636363636365
 40
0.6363636363636365
 40
0.6363636363636365
 40
0.7272727272727274
 40
0.7272727272727274
 40
0.7272727272727274
 40
0.7272727272727274
 40
0.8181818181818183
 40
0.8181818181818183
 40
0.8181818181818183
 40
0.8181818181818183
 40
0.9090909090909093
 40
0.9090909090909093
 40
0.9090909090909093
 40
0.9090909090909093
 40
1.0
 40
1.0
 40
1.0
 40
1.0
 10
0.2061732283464567
 20
1.748531496062992
 30
0.0
 10
0.2061732283464567
 20
1.748531496062992
 30
0.0
 10
0.2199212598425197
 20
1.748531496062992
 30
0.0
 10
0.2199212598425197
 20
1.748531496062992
 30
0.0
 10
0.2199212598425197
 20
1.748531496062992
 30
0.0
 10
0.2199212598425197
 20
1.748531496062992
 30
0.0
 10
0.2199212598425197
 20
1.682531496062992
 30
0.0
 10
0.2199212598425197
 20
1.682531496062992
 30
0.0
 10
0.2199212598425197
 20
1.682531496062992
 30
0.0
 10
0.2199212598425197
 20
1.682531496062992
 30
0.0
 10
0.241255905511811
 20
1.682531496062992
 30
0.0
 10
0.241255905511811
 20
1.682531496062992
 30
0.0
 10
0.241255905511811
 20
1.682531496062992
 30
0.0
 10
0.241255905511811
 20
1.682531496062992
 30
0.0
 10
0.241255905511811
 20
1.672366141732284
 30
0.0
 10
0.241255905511811
 20
1.672366141732284
 30
0.0
 10
0.241255905511811
 20
1.672366141732284
 30
0.0
 10
0.241255905511811
 20
1.672366141732284
 30
0.0
 10
0.2199212598425197
 20
1.672366141732284
 30
0.0
 10
0.2199212598425197
 20
1.672366141732284
 30
0.0
 10
0.2199212598425197
 20
1.672366141732284
 30
0.0
 10
0.2199212598425197
 20
1.672366141732284
 30
0.0
 10
0.2199212598425197
 20
1.635003937007874
 30
0.0
 10
0.2199212598425197
 20
1.635003937007874
 30
0.0
 10
0.2199212598425197
 20
1.635003937007874
 30
0.0
 10
0.2199212598425197
 20
1.635003937007874
 30
0.0
 10
0.2061732283464567
 20
1.635003937007874
 30
0.0
 10
0.2061732283464567
 20
1.635003937007874
 30
0.0
 10
0.2061732283464567
 20
1.635003937007874
 30
0.0
 10
0.2061732283464567
 20
1.635003937007874
 30
0.0
 10
0.2061732283464567
 20
1.672366141732284
 30
0.0
 10
0.2061732283464567
 20
1.672366141732284
 30
0.0
 10
0.2061732283464567
 20
1.672366141732284
 30
0.0
 10
0.2061732283464567
 20
1.672366141732284
 30
0.0
 10
0.1527007874015748
 20
1.672366141732284
 30
0.0
 10
0.1527007874015748
 20
1.672366141732284
 30
0.0
 10
0.1527007874015748
 20
1.672366141732284
 30
0.0
 10
0.1527007874015748
 20
1.672366141732284
 30
0.0
 10
0.1527007874015748
 20
1.686669291338583
 30
0.0
 10
0.1527007874015748
 20
1.686669291338583
 30
0.0
 10
0.1527007874015748
 20
1.686669291338583
 30
0.0
 10
0.1527007874015748
 20
1.686669291338583
 30
0.0
 10
0.2061732283464567
 20
1.748531496062992
 30
0.0
 10
0.2061732283464567
 20
1.748531496062992
 30
0.0
  0
SPLINE
  5
68
330
1F
100
AcDbEntity
  8
LAYER_1
 62
   250
100
AcDbSpline
210
0.0
220
0.0
230
1.0
 70
    11
 71
     3
 72
    16
 73
    12
 74
     0
 42
0.0000000001
 43
0.0000000001
 40
0.0
 40
0.0
 40
0.0
 40
0.0
 40
0.3333333333333333
 40
0.3333333333333333
 40
0.3333333333333333
 40
0.3333333333333333
 40
0.6666666666666666
 40
0.6666666666666666
 40
0.6666666666666666
 40
0.6666666666666666
 40
1.0
 40
1.0
 40
1.0
 40
1.0
 10
0.2061732283464567
 20
1.682531496062992
 30
0.0
 10
0.2061732283464567
 20
1.682531496062992
 30
0.0
 10
0.2061732283464567
 20
1.73592125984252
 30
0.0
 10
0.2061732283464567
 20
1.73592125984252
 30
0.0
 10
0.2061732283464567
 20
1.73592125984252
 30
0.0
 10
0.2061732283464567
 20
1.73592125984252
 30
0.0
 10
0.1601181102362205
 20
1.682531496062992
 30
0.0
 10
0.1601181102362205
 20
1.682531496062992
 30
0.0
 10
0.1601181102362205
 20
1.682531496062992
 30
0.0
 10
0.1601181102362205
 20
1.682531496062992
 30
0.0
 10
0.2061732283464567
 20
1.682531496062992
 30
0.0
 10
0.2061732283464567
 20
1.682531496062992
 30
0.0
  0
SPLINE
  5
69
330
1F
100
AcDbEntity
  8
LAYER_1
 62
   250
100
AcDbSpline
210
0.0
220
0.0
230
1.0
 70
    11
 71
     3
 72
   172
 73
   168
 74
     0
 42
0.0000000001
 43
0.0000000001
 40
0.0
 40
0.0
 40
0.0
 40
0.0
 40
0.0238095238095238
 40
0.0238095238095238
 40
0.0238095238095238
 40
0.0238095238095238
 40
0.0476190476190476
 40
0.0476190476190476
 40
0.0476190476190476
 40
0.0476190476190476
 40
0.0714285714285714
 40
0.0714285714285714
 40
0.0714285714285714
 40
0.0714285714285714
 40
0.0952380952380952
 40
0.0952380952380952
 40
0.0952380952380952
 40
0.0952380952380952
 40
0.119047619047619
 40
0.119047619047619
 40
0.119047619047619
 40
0.119047619047619
 40
0.1428571428571429
 40
0.1428571428571429
 40
0.1428571428571429
 40
0.1428571428571429
 40
0.1666666666666667
 40
0.1666666666666667
 40
0.1666666666666667
 40
0.1666666666666667
 40
0.1904761904761905
 40
0.1904761904761905
 40
0.1904761904761905
 40
0.1904761904761905
 40
0.2142857142857143
 40
0.2142857142857143
 40
0.2142857142857143
 40
0.2142857142857143
 40
0.2380952380952381
 40
0.2380952380952381
 40
0.2380952380952381
 40
0.2380952380952381
 40
0.2619047619047619
 40
0.2619047619047619
 40
0.2619047619047619
 40
0.2619047619047619
 40
0.2857142857142857
 40
0.2857142857142857
 40
0.2857142857142857
 40
0.2857142857142857
 40
0.3095238095238095
 40
0.3095238095238095
 40
0.3095238095238095
 40
0.3095238095238095
 40
0.3333333333333334
 40
0.3333333333333334
 40
0.3333333333333334
 40
0.3333333333333334
 40
0.3571428571428572
 40
0.3571428571428572
 40
0.3571428571428572
 40
0.3571428571428572
 40
0.380952380952381
 40
0.380952380952381
 40
0.380952380952381
 40
0.380952380952381
 40
0.4047619047619049
 40
0.4047619047619049
 40
0.4047619047619049
 40
0.4047619047619049
 40
0.4285714285714287
 40
0.4285714285714287
 40
0.4285714285714287
 40
0.4285714285714287
 40
0.4523809523809526
 40
0.4523809523809526
 40
0.4523809523809526
 40
0.4523809523809526
 40
0.4761904761904764
 40
0.4761904761904764
 40
0.4761904761904764
 40
0.4761904761904764
 40
0.5000000000000002
 40
0.5000000000000002
 40
0.5000000000000002
 40
0.5000000000000002
 40
0.5238095238095241
 40
0.5238095238095241
 40
0.5238095238095241
 40
0.5238095238095241
 40
0.5476190476190479
 40
0.5476190476190479
 40
0.5476190476190479
 40
0.5476190476190479
 40
0.5714285714285717
 40
0.5714285714285717
 40
0.5714285714285717
 40
0.5714285714285717
 40
0.5952380952380956
 40
0.5952380952380956
 40
0.5952380952380956
 40
0.5952380952380956
 40
0.6190476190476194
 40
0.6190476190476194
 40
0.6190476190476194
 40
0.6190476190476194
 40
0.6428571428571432
 40
0.6428571428571432
 40
0.6428571428571432
 40
0.6428571428571432
 40
0.6666666666666671
 40
0.6666666666666671
 40
0.6666666666666671
 40
0.6666666666666671
 40
0.6904761904761909
 40
0.6904761904761909
 40
0.6904761904761909
 40
0.6904761904761909
 40
0.7142857142857148
 40
0.7142857142857148
 40
0.7142857142857148
 40
0.7142857142857148
 40
0.7380952380952386
 40
0.7380952380952386
 40
0.7380952380952386
 40
0.7380952380952386
 40
0.7619047619047624
 40
0.7619047619047624
 40
0.7619047619047624
 40
0.7619047619047624
 40
0.7857142857142863
 40
0.7857142857142863
 40
0.7857142857142863
 40
0.7857142857142863
 40
0.8095238095238101
 40
0.8095238095238101
 40
0.8095238095238101
 40
0.8095238095238101
 40
0.8333333333333339
 40
0.8333333333333339
 40
0.8333333333333339
 40
0.8333333333333339
 40
0.8571428571428578
 40
0.8571428571428578
 40
0.8571428571428578
 40
0.8571428571428578
 40
0.8809523809523816
 40
0.8809523809523816
 40
0.8809523809523816
 40
0.8809523809523816
 40
0.9047619047619054
 40
0.9047619047619054
 40
0.9047619047619054
 40
0.9047619047619054
 40
0.9285714285714293
 40
0.9285714285714293
 40
0.9285714285714293
 40
0.9285714285714293
 40
0.9523809523809531
 40
0.9523809523809531
 40
0.9523809523809531
 40
0.9523809523809531
 40
0.9761904761904769
 40
0.9761904761904769
 40
0.9761904761904769
 40
0.9761904761904769
 40
1.0
 40
1.0
 40
1.0
 40
1.0
 10
-0.6655078740157481
 20
1.530669291338583
 30
0.0
 10
-0.6655078740157481
 20
1.530669291338583
 30
0.0
 10
-0.6733149606299212
 20
1.531893700787402
 30
0.0
 10
-0.6733149606299212
 20
1.531893700787402
 30
0.0
 10
-0.6733149606299212
 20
1.531893700787402
 30
0.0
 10
-0.6726181102362205
 20
1.537751968503937
 30
0.0
 10
-0.6710905511811024
 20
1.542614173228347
 30
0.0
 10
-0.6687559055118111
 20
1.546476377952756
 30
0.0
 10
-0.6687559055118111
 20
1.546476377952756
 30
0.0
 10
-0.6656732283464567
 20
1.551669291338583
 30
0.0
 10
-0.6613149606299212
 20
1.555724409448819
 30
0.0
 10
-0.6556732283464567
 20
1.558614173228347
 30
0.0
 10
-0.6556732283464567
 20
1.558614173228347
 30
0.0
 10
-0.6500078740157481
 20
1.561531496062992
 30
0.0
 10
-0.6435354330708661
 20
1.562976377952756
 30
0.0
 10
-0.6362007874015748
 20
1.562976377952756
 30
0.0
 10
-0.6362007874015748
 20
1.562976377952756
 30
0.0
 10
-0.6290078740157481
 20
1.562976377952756
 30
0.0
 10
-0.6226456692913386
 20
1.561696850393701
 30
0.0
 10
-0.6171732283464567
 20
1.559114173228346
 30
0.0
 10
-0.6171732283464567
 20
1.559114173228346
 30
0.0
 10
-0.6117007874015749
 20
1.556531496062992
 30
0.0
 10
-0.6075629921259843
 20
1.553114173228346
 30
0.0
 10
-0.6047598425196851
 20
1.548866141732284
 30
0.0
 10
-0.6047598425196851
 20
1.548866141732284
 30
0.0
 10
-0.6019527559055118
 20
1.544614173228347
 30
0.0
 10
-0.6005629921259843
 20
1.540003937007874
 30
0.0
 10
-0.6005629921259843
 20
1.53505905511811
 30
0.0
 10
-0.6005629921259843
 20
1.53505905511811
 30
0.0
 10
-0.6005629921259843
 20
1.530724409448819
 30
0.0
 10
-0.6016181102362205
 20
1.526838582677165
 30
0.0
 10
-0.603732283464567
 20
1.52342125984252
 30
0.0
 10
-0.603732283464567
 20
1.52342125984252
 30
0.0
 10
-0.6058700787401575
 20
1.520003937007874
 30
0.0
 10
-0.6090078740157481
 20
1.516948818897638
 30
0.0
 10
-0.6131732283464567
 20
1.514224409448819
 30
0.0
 10
-0.6131732283464567
 20
1.514224409448819
 30
0.0
 10
-0.6161181102362205
 20
1.512338582677165
 30
0.0
 10
-0.6199251968503937
 20
1.510669291338583
 30
0.0
 10
-0.6246456692913386
 20
1.509279527559055
 30
0.0
 10
-0.6246456692913386
 20
1.509279527559055
 30
0.0
 10
-0.6196181102362205
 20
1.50855905511811
 30
0.0
 10
-0.6154803149606299
 20
1.507393700787402
 30
0.0
 10
-0.6122874015748032
 20
1.505779527559055
 30
0.0
 10
-0.6122874015748032
 20
1.505779527559055
 30
0.0
 10
-0.6070905511811023
 20
1.503114173228347
 30
0.0
 10
-0.60298031496063
 20
1.499448818897638
 30
0.0
 10
-0.6000078740157481
 20
1.494779527559055
 30
0.0
 10
-0.6000078740157481
 20
1.494779527559055
 30
0.0
 10
-0.5970078740157481
 20
1.490114173228347
 30
0.0
 10
-0.5955354330708662
 20
1.485003937007874
 30
0.0
 10
-0.5955354330708662
 20
1.479393700787402
 30
0.0
 10
-0.5955354330708662
 20
1.479393700787402
 30
0.0
 10
-0.5955354330708662
 20
1.470448818897638
 30
0.0
 10
-0.5994527559055118
 20
1.46255905511811
 30
0.0
 10
-0.6073149606299213
 20
1.455751968503937
 30
0.0
 10
-0.6073149606299213
 20
1.455751968503937
 30
0.0
 10
-0.6152007874015748
 20
1.448948818897638
 30
0.0
 10
-0.6253700787401575
 20
1.44555905511811
 30
0.0
 10
-0.6378425196850394
 20
1.44555905511811
 30
0.0
 10
-0.6378425196850394
 20
1.44555905511811
 30
0.0
 10
-0.6501456692913387
 20
1.44555905511811
 30
0.0
 10
-0.6605078740157481
 20
1.448838582677166
 30
0.0
 10
-0.6689251968503938
 20
1.455393700787402
 30
0.0
 10
-0.6689251968503938
 20
1.455393700787402
 30
0.0
 10
-0.6759803149606299
 20
1.460976377952756
 30
0.0
 10
-0.6795078740157481
 20
1.466614173228346
 30
0.0
 10
-0.6795078740157481
 20
1.472251968503937
 30
0.0
 10
-0.6795078740157481
 20
1.472251968503937
 30
0.0
 10
-0.6795078740157481
 20
1.474476377952756
 30
0.0
 10
-0.6787834645669292
 20
1.476338582677165
 30
0.0
 10
-0.6773425196850395
 20
1.477811023622047
 30
0.0
 10
-0.6773425196850395
 20
1.477811023622047
 30
0.0
 10
-0.6759251968503938
 20
1.479311023622047
 30
0.0
 10
-0.6741181102362205
 20
1.48005905511811
 30
0.0
 10
-0.6719251968503938
 20
1.48005905511811
 30
0.0
 10
-0.6719251968503938
 20
1.48005905511811
 30
0.0
 10
-0.6695629921259843
 20
1.48005905511811
 30
0.0
 10
-0.6675078740157481
 20
1.479141732283465
 30
0.0
 10
-0.6658425196850394
 20
1.477279527559055
 30
0.0
 10
-0.6658425196850394
 20
1.477279527559055
 30
0.0
 10
-0.6649251968503938
 20
1.476251968503937
 30
0.0
 10
-0.6638425196850394
 20
1.473783464566929
 30
0.0
 10
-0.6626732283464567
 20
1.469893700787402
 30
0.0
 10
-0.6626732283464567
 20
1.469893700787402
 30
0.0
 10
-0.6609803149606299
 20
1.464393700787402
 30
0.0
 10
-0.6581181102362205
 20
1.460224409448819
 30
0.0
 10
-0.6541181102362205
 20
1.457366141732284
 30
0.0
 10
-0.6541181102362205
 20
1.457366141732284
 30
0.0
 10
-0.6500905511811024
 20
1.454476377952756
 30
0.0
 10
-0.6451181102362205
 20
1.453031496062992
 30
0.0
 10
-0.6391456692913387
 20
1.453031496062992
 30
0.0
 10
-0.6391456692913387
 20
1.453031496062992
 30
0.0
 10
-0.6338149606299213
 20
1.453031496062992
 30
0.0
 10
-0.6290629921259843
 20
1.454196850393701
 30
0.0
 10
-0.6248700787401575
 20
1.456531496062992
 30
0.0
 10
-0.6248700787401575
 20
1.456531496062992
 30
0.0
 10
-0.6206456692913386
 20
1.458866141732284
 30
0.0
 10
-0.6173425196850394
 20
1.462169291338583
 30
0.0
 10
-0.6148976377952756
 20
1.466476377952756
 30
0.0
 10
-0.6148976377952756
 20
1.466476377952756
 30
0.0
 10
-0.6124527559055119
 20
1.470751968503937
 30
0.0
 10
-0.6112283464566929
 20
1.475448818897638
 30
0.0
 10
-0.6112283464566929
 20
1.480531496062992
 30
0.0
 10
-0.6112283464566929
 20
1.480531496062992
 30
0.0
 10
-0.6112283464566929
 20
1.484669291338583
 30
0.0
 10
-0.6121181102362205
 20
1.488366141732284
 30
0.0
 10
-0.6138700787401575
 20
1.491641732283465
 30
0.0
 10
-0.6138700787401575
 20
1.491641732283465
 30
0.0
 10
-0.6156456692913386
 20
1.494948818897638
 30
0.0
 10
-0.6181456692913386
 20
1.497724409448819
 30
0.0
 10
-0.6213976377952756
 20
1.500003937007874
 30
0.0
 10
-0.6213976377952756
 20
1.500003937007874
 30
0.0
 10
-0.6238976377952756
 20
1.501779527559055
 30
0.0
 10
-0.6270905511811024
 20
1.503031496062992
 30
0.0
 10
-0.6309527559055118
 20
1.503724409448819
 30
0.0
 10
-0.6309527559055118
 20
1.503724409448819
 30
0.0
 10
-0.6348425196850394
 20
1.504448818897638
 30
0.0
 10
-0.6383425196850394
 20
1.504807086614173
 30
0.0
 10
-0.6414251968503937
 20
1.504807086614173
 30
0.0
 10
-0.6414251968503937
 20
1.504807086614173
 30
0.0
 10
-0.6414251968503937
 20
1.504807086614173
 30
0.0
 10
-0.6489803149606299
 20
1.504807086614173
 30
0.0
 10
-0.6489803149606299
 20
1.504807086614173
 30
0.0
 10
-0.6489803149606299
 20
1.504807086614173
 30
0.0
 10
-0.6489803149606299
 20
1.504807086614173
 30
0.0
 10
-0.6489803149606299
 20
1.512696850393701
 30
0.0
 10
-0.6489803149606299
 20
1.512696850393701
 30
0.0
 10
-0.6489803149606299
 20
1.512696850393701
 30
0.0
 10
-0.6489803149606299
 20
1.512696850393701
 30
0.0
 10
-0.6441732283464567
 20
1.512696850393701
 30
0.0
 10
-0.6441732283464567
 20
1.512696850393701
 30
0.0
 10
-0.6441732283464567
 20
1.512696850393701
 30
0.0
 10
-0.6394251968503937
 20
1.512696850393701
 30
0.0
 10
-0.6348700787401576
 20
1.513251968503937
 30
0.0
 10
-0.630507874015748
 20
1.514366141732284
 30
0.0
 10
-0.630507874015748
 20
1.514366141732284
 30
0.0
 10
-0.6261732283464567
 20
1.515476377952756
 30
0.0
 10
-0.6227007874015749
 20
1.517751968503937
 30
0.0
 10
-0.6200905511811024
 20
1.521224409448819
 30
0.0
 10
-0.6200905511811024
 20
1.521224409448819
 30
0.0
 10
-0.617507874015748
 20
1.524696850393701
 30
0.0
 10
-0.6162007874015748
 20
1.528641732283465
 30
0.0
 10
-0.6162007874015748
 20
1.533031496062992
 30
0.0
 10
-0.6162007874015748
 20
1.533031496062992
 30
0.0
 10
-0.6162007874015748
 20
1.536834645669291
 30
0.0
 10
-0.6170905511811023
 20
1.540251968503937
 30
0.0
 10
-0.6189251968503937
 20
1.543279527559055
 30
0.0
 10
-0.6189251968503937
 20
1.543279527559055
 30
0.0
 10
-0.620728346456693
 20
1.546334645669292
 30
0.0
 10
-0.6233976377952756
 20
1.548751968503937
 30
0.0
 10
-0.6269251968503937
 20
1.550531496062992
 30
0.0
 10
-0.6269251968503937
 20
1.550531496062992
 30
0.0
 10
-0.6304527559055119
 20
1.552307086614173
 30
0.0
 10
-0.6345354330708661
 20
1.553224409448819
 30
0.0
 10
-0.6391456692913387
 20
1.553224409448819
 30
0.0
 10
-0.6391456692913387
 20
1.553224409448819
 30
0.0
 10
-0.6436456692913386
 20
1.553224409448819
 30
0.0
 10
-0.6477874015748032
 20
1.552279527559055
 30
0.0
 10
-0.6515629921259842
 20
1.550448818897638
 30
0.0
 10
-0.6515629921259842
 20
1.550448818897638
 30
0.0
 10
-0.6553149606299213
 20
1.548614173228347
 30
0.0
 10
-0.6583425196850394
 20
1.546141732283465
 30
0.0
 10
-0.6606181102362205
 20
1.543031496062992
 30
0.0
 10
-0.6606181102362205
 20
1.543031496062992
 30
0.0
 10
-0.6628976377952757
 20
1.539948818897638
 30
0.0
 10
-0.6645354330708662
 20
1.535834645669291
 30
0.0
 10
-0.6655078740157481
 20
1.530669291338583
 30
0.0
  0
SPLINE
  5
6A
330
1F
100
AcDbEntity
  8
LAYER_1
 62
   250
100
AcDbSpline
210
0.0
220
0.0
230
1.0
 70
    11
 71
     3
 72
    20
 73
    16
 74
     0
 42
0.0000000001
 43
0.0000000001
 40
0.0
 40
0.0
 40
0.0
 40
0.0
 40
0.25
 40
0.25
 40
0.25
 40
0.25
 40
0.5
 40
0.5
 40
0.5
 40
0.5
 40
0.75
 40
0.75
 40
0.75
 40
0.75
 40
1.0
 40
1.0
 40
1.0
 40
1.0
 10
-0.502728346456693
 20
1.566893700787402
 30
0.0
 10
-0.502728346456693
 20
1.566893700787402
 30
0.0
 10
-0.5583110236220473
 20
1.411196850393701
 30
0.0
 10
-0.5583110236220473
 20
1.411196850393701
 30
0.0
 10
-0.5583110236220473
 20
1.411196850393701
 30
0.0
 10
-0.5583110236220473
 20
1.411196850393701
 30
0.0
 10
-0.5703661417322835
 20
1.411196850393701
 30
0.0
 10
-0.5703661417322835
 20
1.411196850393701
 30
0.0
 10
-0.5703661417322835
 20
1.411196850393701
 30
0.0
 10
-0.5703661417322835
 20
1.411196850393701
 30
0.0
 10
-0.5151181102362205
 20
1.566893700787402
 30
0.0
 10
-0.5151181102362205
 20
1.566893700787402
 30
0.0
 10
-0.5151181102362205
 20
1.566893700787402
 30
0.0
 10
-0.5151181102362205
 20
1.566893700787402
 30
0.0
 10
-0.502728346456693
 20
1.566893700787402
 30
0.0
 10
-0.502728346456693
 20
1.566893700787402
 30
0.0
  0
SPLINE
  5
6B
330
1F
100
AcDbEntity
  8
LAYER_1
 62
   250
100
AcDbSpline
210
0.0
220
0.0
230
1.0
 70
    11
 71
     3
 72
    48
 73
    44
 74
     0
 42
0.0000000001
 43
0.0000000001
 40
0.0
 40
0.0
 40
0.0
 40
0.0
 40
0.0909090909090909
 40
0.0909090909090909
 40
0.0909090909090909
 40
0.0909090909090909
 40
0.1818181818181818
 40
0.1818181818181818
 40
0.1818181818181818
 40
0.1818181818181818
 40
0.2727272727272727
 40
0.2727272727272727
 40
0.2727272727272727
 40
0.2727272727272727
 40
0.3636363636363637
 40
0.3636363636363637
 40
0.3636363636363637
 40
0.3636363636363637
 40
0.4545454545454546
 40
0.4545454545454546
 40
0.4545454545454546
 40
0.4545454545454546
 40
0.5454545454545455
 40
0.5454545454545455
 40
0.5454545454545455
 40
0.5454545454545455
 40
0.6363636363636365
 40
0.6363636363636365
 40
0.6363636363636365
 40
0.6363636363636365
 40
0.7272727272727274
 40
0.7272727272727274
 40
0.7272727272727274
 40
0.7272727272727274
 40
0.8181818181818183
 40
0.8181818181818183
 40
0.8181818181818183
 40
0.8181818181818183
 40
0.9090909090909093
 40
0.9090909090909093
 40
0.9090909090909093
 40
0.9090909090909093
 40
1.0
 40
1.0
 40
1.0
 40
1.0
 10
-0.4237834645669292
 20
1.561031496062992
 30
0.0
 10
-0.4237834645669292
 20
1.561031496062992
 30
0.0
 10
-0.4100354330708662
 20
1.561031496062992
 30
0.0
 10
-0.4100354330708662
 20
1.561031496062992
 30
0.0
 10
-0.4100354330708662
 20
1.561031496062992
 30
0.0
 10
-0.4100354330708662
 20
1.561031496062992
 30
0.0
 10
-0.4100354330708662
 20
1.495031496062992
 30
0.0
 10
-0.4100354330708662
 20
1.495031496062992
 30
0.0
 10
-0.4100354330708662
 20
1.495031496062992
 30
0.0
 10
-0.4100354330708662
 20
1.495031496062992
 30
0.0
 10
-0.3887007874015748
 20
1.495031496062992
 30
0.0
 10
-0.3887007874015748
 20
1.495031496062992
 30
0.0
 10
-0.3887007874015748
 20
1.495031496062992
 30
0.0
 10
-0.3887007874015748
 20
1.495031496062992
 30
0.0
 10
-0.3887007874015748
 20
1.484866141732284
 30
0.0
 10
-0.3887007874015748
 20
1.484866141732284
 30
0.0
 10
-0.3887007874015748
 20
1.484866141732284
 30
0.0
 10
-0.3887007874015748
 20
1.484866141732284
 30
0.0
 10
-0.4100354330708662
 20
1.484866141732284
 30
0.0
 10
-0.4100354330708662
 20
1.484866141732284
 30
0.0
 10
-0.4100354330708662
 20
1.484866141732284
 30
0.0
 10
-0.4100354330708662
 20
1.484866141732284
 30
0.0
 10
-0.4100354330708662
 20
1.447503937007874
 30
0.0
 10
-0.4100354330708662
 20
1.447503937007874
 30
0.0
 10
-0.4100354330708662
 20
1.447503937007874
 30
0.0
 10
-0.4100354330708662
 20
1.447503937007874
 30
0.0
 10
-0.4237834645669292
 20
1.447503937007874
 30
0.0
 10
-0.4237834645669292
 20
1.447503937007874
 30
0.0
 10
-0.4237834645669292
 20
1.447503937007874
 30
0.0
 10
-0.4237834645669292
 20
1.447503937007874
 30
0.0
 10
-0.4237834645669292
 20
1.484866141732284
 30
0.0
 10
-0.4237834645669292
 20
1.484866141732284
 30
0.0
 10
-0.4237834645669292
 20
1.484866141732284
 30
0.0
 10
-0.4237834645669292
 20
1.484866141732284
 30
0.0
 10
-0.477255905511811
 20
1.484866141732284
 30
0.0
 10
-0.477255905511811
 20
1.484866141732284
 30
0.0
 10
-0.477255905511811
 20
1.484866141732284
 30
0.0
 10
-0.477255905511811
 20
1.484866141732284
 30
0.0
 10
-0.477255905511811
 20
1.499169291338583
 30
0.0
 10
-0.477255905511811
 20
1.499169291338583
 30
0.0
 10
-0.477255905511811
 20
1.499169291338583
 30
0.0
 10
-0.477255905511811
 20
1.499169291338583
 30
0.0
 10
-0.4237834645669292
 20
1.561031496062992
 30
0.0
 10
-0.4237834645669292
 20
1.561031496062992
 30
0.0
  0
SPLINE
  5
6C
330
1F
100
AcDbEntity
  8
LAYER_1
 62
   250
100
AcDbSpline
210
0.0
220
0.0
230
1.0
 70
    11
 71
     3
 72
    16
 73
    12
 74
     0
 42
0.0000000001
 43
0.0000000001
 40
0.0
 40
0.0
 40
0.0
 40
0.0
 40
0.3333333333333333
 40
0.3333333333333333
 40
0.3333333333333333
 40
0.3333333333333333
 40
0.6666666666666666
 40
0.6666666666666666
 40
0.6666666666666666
 40
0.6666666666666666
 40
1.0
 40
1.0
 40
1.0
 40
1.0
 10
-0.4237834645669292
 20
1.495031496062992
 30
0.0
 10
-0.4237834645669292
 20
1.495031496062992
 30
0.0
 10
-0.4237834645669292
 20
1.54842125984252
 30
0.0
 10
-0.4237834645669292
 20
1.54842125984252
 30
0.0
 10
-0.4237834645669292
 20
1.54842125984252
 30
0.0
 10
-0.4237834645669292
 20
1.54842125984252
 30
0.0
 10
-0.4698385826771654
 20
1.495031496062992
 30
0.0
 10
-0.4698385826771654
 20
1.495031496062992
 30
0.0
 10
-0.4698385826771654
 20
1.495031496062992
 30
0.0
 10
-0.4698385826771654
 20
1.495031496062992
 30
0.0
 10
-0.4237834645669292
 20
1.495031496062992
 30
0.0
 10
-0.4237834645669292
 20
1.495031496062992
 30
0.0
  0
SPLINE
  5
6D
330
1F
100
AcDbEntity
  8
LAYER_1
 62
   250
100
AcDbSpline
210
0.0
220
0.0
230
1.0
 70
    11
 71
     3
 72
    60
 73
    56
 74
     0
 42
0.0000000001
 43
0.0000000001
 40
0.0
 40
0.0
 40
0.0
 40
0.0
 40
0.0714285714285714
 40
0.0714285714285714
 40
0.0714285714285714
 40
0.0714285714285714
 40
0.1428571428571429
 40
0.1428571428571429
 40
0.1428571428571429
 40
0.1428571428571429
 40
0.2142857142857143
 40
0.2142857142857143
 40
0.2142857142857143
 40
0.2142857142857143
 40
0.2857142857142857
 40
0.2857142857142857
 40
0.2857142857142857
 40
0.2857142857142857
 40
0.3571428571428571
 40
0.3571428571428571
 40
0.3571428571428571
 40
0.3571428571428571
 40
0.4285714285714285
 40
0.4285714285714285
 40
0.4285714285714285
 40
0.4285714285714285
 40
0.4999999999999999
 40
0.4999999999999999
 40
0.4999999999999999
 40
0.4999999999999999
 40
0.5714285714285713
 40
0.5714285714285713
 40
0.5714285714285713
 40
0.5714285714285713
 40
0.6428571428571427
 40
0.6428571428571427
 40
0.6428571428571427
 40
0.6428571428571427
 40
0.7142857142857141
 40
0.7142857142857141
 40
0.7142857142857141
 40
0.7142857142857141
 40
0.7857142857142855
 40
0.7857142857142855
 40
0.7857142857142855
 40
0.7857142857142855
 40
0.8571428571428569
 40
0.8571428571428569
 40
0.8571428571428569
 40
0.8571428571428569
 40
0.9285714285714283
 40
0.9285714285714283
 40
0.9285714285714283
 40
0.9285714285714283
 40
1.0
 40
1.0
 40
1.0
 40
1.0
 10
-0.370728346456693
 20
1.518948818897638
 30
0.0
 10
-0.370728346456693
 20
1.518948818897638
 30
0.0
 10
-0.3751181102362205
 20
1.524338582677165
 30
0.0
 10
-0.3751181102362205
 20
1.524338582677165
 30
0.0
 10
-0.3751181102362205
 20
1.524338582677165
 30
0.0
 10
-0.364003937007874
 20
1.533393700787402
 30
0.0
 10
-0.3584212598425197
 20
1.540948818897638
 30
0.0
 10
-0.3584212598425197
 20
1.547031496062992
 30
0.0
 10
-0.3584212598425197
 20
1.547031496062992
 30
0.0
 10
-0.3584212598425197
 20
1.547724409448819
 30
0.0
 10
-0.3584763779527559
 20
1.548614173228347
 30
0.0
 10
-0.3585905511811024
 20
1.549641732283465
 30
0.0
 10
-0.3585905511811024
 20
1.549641732283465
 30
0.0
 10
-0.359503937007874
 20
1.549251968503937
 30
0.0
 10
-0.3604212598425197
 20
1.548948818897638
 30
0.0
 10
-0.3612834645669292
 20
1.548751968503937
 30
0.0
 10
-0.3612834645669292
 20
1.548751968503937
 30
0.0
 10
-0.3621456692913386
 20
1.548531496062992
 30
0.0
 10
-0.3629488188976378
 20
1.54842125984252
 30
0.0
 10
-0.3637283464566929
 20
1.54842125984252
 30
0.0
 10
-0.3637283464566929
 20
1.54842125984252
 30
0.0
 10
-0.3663385826771654
 20
1.54842125984252
 30
0.0
 10
-0.3684212598425197
 20
1.549251968503937
 30
0.0
 10
-0.3699763779527559
 20
1.550948818897638
 30
0.0
 10
-0.3699763779527559
 20
1.550948818897638
 30
0.0
 10
-0.3715629921259843
 20
1.552614173228347
 30
0.0
 10
-0.3723385826771654
 20
1.554751968503937
 30
0.0
 10
-0.3723385826771654
 20
1.557366141732284
 30
0.0
 10
-0.3723385826771654
 20
1.557366141732284
 30
0.0
 10
-0.3723385826771654
 20
1.55992125984252
 30
0.0
 10
-0.3713937007874016
 20
1.562141732283465
 30
0.0
 10
-0.369503937007874
 20
1.564031496062992
 30
0.0
 10
-0.369503937007874
 20
1.564031496062992
 30
0.0
 10
-0.3675905511811024
 20
1.565948818897638
 30
0.0
 10
-0.3653110236220473
 20
1.566893700787402
 30
0.0
 10
-0.3626732283464567
 20
1.566893700787402
 30
0.0
 10
-0.3626732283464567
 20
1.566893700787402
 30
0.0
 10
-0.3589763779527559
 20
1.566893700787402
 30
0.0
 10
-0.3558110236220473
 20
1.56542125984252
 30
0.0
 10
-0.3531732283464567
 20
1.562448818897638
 30
0.0
 10
-0.3531732283464567
 20
1.562448818897638
 30
0.0
 10
-0.3505629921259842
 20
1.559503937007874
 30
0.0
 10
-0.3492283464566929
 20
1.555696850393701
 30
0.0
 10
-0.3492283464566929
 20
1.551031496062992
 30
0.0
 10
-0.3492283464566929
 20
1.551031496062992
 30
0.0
 10
-0.3492283464566929
 20
1.547976377952756
 30
0.0
 10
-0.3498661417322835
 20
1.544779527559055
 30
0.0
 10
-0.3511181102362205
 20
1.541448818897638
 30
0.0
 10
-0.3511181102362205
 20
1.541448818897638
 30
0.0
 10
-0.3523661417322835
 20
1.538114173228347
 30
0.0
 10
-0.3541732283464567
 20
1.535031496062992
 30
0.0
 10
-0.3565629921259843
 20
1.532169291338583
 30
0.0
 10
-0.3565629921259843
 20
1.532169291338583
 30
0.0
 10
-0.3589488188976378
 20
1.529338582677166
 30
0.0
 10
-0.3636732283464567
 20
1.52492125984252
 30
0.0
 10
-0.370728346456693
 20
1.518948818897638
 30
0.0
  0
SPLINE
  5
6E
330
1F
100
AcDbEntity
  8
LAYER_1
 62
   250
100
AcDbSpline
210
0.0
220
0.0
230
1.0
 70
    11
 71
     3
 72
    60
 73
    56
 74
     0
 42
0.0000000001
 43
0.0000000001
 40
0.0
 40
0.0
 40
0.0
 40
0.0
 40
0.0714285714285714
 40
0.0714285714285714
 40
0.0714285714285714
 40
0.0714285714285714
 40
0.1428571428571429
 40
0.1428571428571429
 40
0.1428571428571429
 40
0.1428571428571429
 40
0.2142857142857143
 40
0.2142857142857143
 40
0.2142857142857143
 40
0.2142857142857143
 40
0.2857142857142857
 40
0.2857142857142857
 40
0.2857142857142857
 40
0.2857142857142857
 40
0.3571428571428571
 40
0.3571428571428571
 40
0.3571428571428571
 40
0.3571428571428571
 40
0.4285714285714285
 40
0.4285714285714285
 40
0.4285714285714285
 40
0.4285714285714285
 40
0.4999999999999999
 40
0.4999999999999999
 40
0.4999999999999999
 40
0.4999999999999999
 40
0.5714285714285713
 40
0.5714285714285713
 40
0.5714285714285713
 40
0.5714285714285713
 40
0.6428571428571427
 40
0.6428571428571427
 40
0.6428571428571427
 40
0.6428571428571427
 40
0.7142857142857141
 40
0.7142857142857141
 40
0.7142857142857141
 40
0.7142857142857141
 40
0.7857142857142855
 40
0.7857142857142855
 40
0.7857142857142855
 40
0.7857142857142855
 40
0.8571428571428569
 40
0.8571428571428569
 40
0.8571428571428569
 40
0.8571428571428569
 40
0.9285714285714283
 40
0.9285714285714283
 40
0.9285714285714283
 40
0.9285714285714283
 40
1.0
 40
1.0
 40
1.0
 40
1.0
 10
-0.3416732283464567
 20
1.518948818897638
 30
0.0
 10
-0.3416732283464567
 20
1.518948818897638
 30
0.0
 10
-0.3460629921259843
 20
1.524338582677165
 30
0.0
 10
-0.3460629921259843
 20
1.524338582677165
 30
0.0
 10
-0.3460629921259843
 20
1.524338582677165
 30
0.0
 10
-0.3349488188976378
 20
1.533393700787402
 30
0.0
 10
-0.3293661417322835
 20
1.540948818897638
 30
0.0
 10
-0.3293661417322835
 20
1.547031496062992
 30
0.0
 10
-0.3293661417322835
 20
1.547031496062992
 30
0.0
 10
-0.3293661417322835
 20
1.547724409448819
 30
0.0
 10
-0.3294212598425197
 20
1.548614173228347
 30
0.0
 10
-0.3295354330708661
 20
1.549641732283465
 30
0.0
 10
-0.3295354330708661
 20
1.549641732283465
 30
0.0
 10
-0.3304488188976378
 20
1.549251968503937
 30
0.0
 10
-0.3313661417322835
 20
1.548948818897638
 30
0.0
 10
-0.3322283464566929
 20
1.548751968503937
 30
0.0
 10
-0.3322283464566929
 20
1.548751968503937
 30
0.0
 10
-0.3330905511811024
 20
1.548531496062992
 30
0.0
 10
-0.3339212598425197
 20
1.54842125984252
 30
0.0
 10
-0.3347559055118111
 20
1.54842125984252
 30
0.0
 10
-0.3347559055118111
 20
1.54842125984252
 30
0.0
 10
-0.3373110236220472
 20
1.54842125984252
 30
0.0
 10
-0.3393661417322835
 20
1.549251968503937
 30
0.0
 10
-0.3409212598425197
 20
1.550948818897638
 30
0.0
 10
-0.3409212598425197
 20
1.550948818897638
 30
0.0
 10
-0.342503937007874
 20
1.552614173228347
 30
0.0
 10
-0.3432834645669292
 20
1.554751968503937
 30
0.0
 10
-0.3432834645669292
 20
1.557366141732284
 30
0.0
 10
-0.3432834645669292
 20
1.557366141732284
 30
0.0
 10
-0.3432834645669292
 20
1.55992125984252
 30
0.0
 10
-0.3423385826771654
 20
1.562141732283465
 30
0.0
 10
-0.3404488188976378
 20
1.564031496062992
 30
0.0
 10
-0.3404488188976378
 20
1.564031496062992
 30
0.0
 10
-0.3385629921259843
 20
1.565948818897638
 30
0.0
 10
-0.3362559055118111
 20
1.566893700787402
 30
0.0
 10
-0.3336181102362205
 20
1.566893700787402
 30
0.0
 10
-0.3336181102362205
 20
1.566893700787402
 30
0.0
 10
-0.3299212598425197
 20
1.566893700787402
 30
0.0
 10
-0.3267559055118111
 20
1.56542125984252
 30
0.0
 10
-0.3241181102362205
 20
1.562448818897638
 30
0.0
 10
-0.3241181102362205
 20
1.562448818897638
 30
0.0
 10
-0.321507874015748
 20
1.559503937007874
 30
0.0
 10
-0.3201732283464567
 20
1.555696850393701
 30
0.0
 10
-0.3201732283464567
 20
1.551031496062992
 30
0.0
 10
-0.3201732283464567
 20
1.551031496062992
 30
0.0
 10
-0.3201732283464567
 20
1.547976377952756
 30
0.0
 10
-0.3208110236220473
 20
1.544779527559055
 30
0.0
 10
-0.3220629921259843
 20
1.541448818897638
 30
0.0
 10
-0.3220629921259843
 20
1.541448818897638
 30
0.0
 10
-0.3233110236220473
 20
1.538114173228347
 30
0.0
 10
-0.3251181102362205
 20
1.535031496062992
 30
0.0
 10
-0.327503937007874
 20
1.532169291338583
 30
0.0
 10
-0.327503937007874
 20
1.532169291338583
 30
0.0
 10
-0.3298937007874016
 20
1.529338582677166
 30
0.0
 10
-0.3346181102362205
 20
1.52492125984252
 30
0.0
 10
-0.3416732283464567
 20
1.518948818897638
 30
0.0
  0
SPLINE
  5
6F
330
1F
100
AcDbEntity
  8
LAYER_1
 62
   250
100
AcDbSpline
210
0.0
220
0.0
230
1.0
 70
    11
 71
     3
 72
   204
 73
   200
 74
     0
 42
0.0000000001
 43
0.0000000001
 40
0.0
 40
0.0
 40
0.0
 40
0.0
 40
0.02
 40
0.02
 40
0.02
 40
0.02
 40
0.04
 40
0.04
 40
0.04
 40
0.04
 40
0.06
 40
0.06
 40
0.06
 40
0.06
 40
0.08
 40
0.08
 40
0.08
 40
0.08
 40
0.1
 40
0.1
 40
0.1
 40
0.1
 40
0.12
 40
0.12
 40
0.12
 40
0.12
 40
0.14
 40
0.14
 40
0.14
 40
0.14
 40
0.16
 40
0.16
 40
0.16
 40
0.16
 40
0.18
 40
0.18
 40
0.18
 40
0.18
 40
0.2
 40
0.2
 40
0.2
 40
0.2
 40
0.22
 40
0.22
 40
0.22
 40
0.22
 40
0.24
 40
0.24
 40
0.24
 40
0.24
 40
0.26
 40
0.26
 40
0.26
 40
0.26
 40
0.28
 40
0.28
 40
0.28
 40
0.28
 40
0.3
 40
0.3
 40
0.3
 40
0.3
 40
0.32
 40
0.32
 40
0.32
 40
0.32
 40
0.34
 40
0.34
 40
0.34
 40
0.34
 40
0.36
 40
0.36
 40
0.36
 40
0.36
 40
0.3800000000000001
 40
0.3800000000000001
 40
0.3800000000000001
 40
0.3800000000000001
 40
0.4000000000000001
 40
0.4000000000000001
 40
0.4000000000000001
 40
0.4000000000000001
 40
0.4200000000000001
 40
0.4200000000000001
 40
0.4200000000000001
 40
0.4200000000000001
 40
0.4400000000000001
 40
0.4400000000000001
 40
0.4400000000000001
 40
0.4400000000000001
 40
0.4600000000000001
 40
0.4600000000000001
 40
0.4600000000000001
 40
0.4600000000000001
 40
0.4800000000000002
 40
0.4800000000000002
 40
0.4800000000000002
 40
0.4800000000000002
 40
0.5000000000000001
 40
0.5000000000000001
 40
0.5000000000000001
 40
0.5000000000000001
 40
0.5200000000000001
 40
0.5200000000000001
 40
0.5200000000000001
 40
0.5200000000000001
 40
0.5400000000000002
 40
0.5400000000000002
 40
0.5400000000000002
 40
0.5400000000000002
 40
0.5600000000000002
 40
0.5600000000000002
 40
0.5600000000000002
 40
0.5600000000000002
 40
0.5800000000000002
 40
0.5800000000000002
 40
0.5800000000000002
 40
0.5800000000000002
 40
0.6000000000000002
 40
0.6000000000000002
 40
0.6000000000000002
 40
0.6000000000000002
 40
0.6200000000000002
 40
0.6200000000000002
 40
0.6200000000000002
 40
0.6200000000000002
 40
0.6400000000000002
 40
0.6400000000000002
 40
0.6400000000000002
 40
0.6400000000000002
 40
0.6600000000000003
 40
0.6600000000000003
 40
0.6600000000000003
 40
0.6600000000000003
 40
0.6800000000000003
 40
0.6800000000000003
 40
0.6800000000000003
 40
0.6800000000000003
 40
0.7000000000000003
 40
0.7000000000000003
 40
0.7000000000000003
 40
0.7000000000000003
 40
0.7200000000000003
 40
0.7200000000000003
 40
0.7200000000000003
 40
0.7200000000000003
 40
0.7400000000000003
 40
0.7400000000000003
 40
0.7400000000000003
 40
0.7400000000000003
 40
0.7600000000000003
 40
0.7600000000000003
 40
0.7600000000000003
 40
0.7600000000000003
 40
0.7800000000000004
 40
0.7800000000000004
 40
0.7800000000000004
 40
0.7800000000000004
 40
0.8000000000000004
 40
0.8000000000000004
 40
0.8000000000000004
 40
0.8000000000000004
 40
0.8200000000000004
 40
0.8200000000000004
 40
0.8200000000000004
 40
0.8200000000000004
 40
0.8400000000000004
 40
0.8400000000000004
 40
0.8400000000000004
 40
0.8400000000000004
 40
0.8600000000000004
 40
0.8600000000000004
 40
0.8600000000000004
 40
0.8600000000000004
 40
0.8800000000000005
 40
0.8800000000000005
 40
0.8800000000000005
 40
0.8800000000000005
 40
0.9000000000000005
 40
0.9000000000000005
 40
0.9000000000000005
 40
0.9000000000000005
 40
0.9200000000000005
 40
0.9200000000000005
 40
0.9200000000000005
 40
0.9200000000000005
 40
0.9400000000000005
 40
0.9400000000000005
 40
0.9400000000000005
 40
0.9400000000000005
 40
0.9600000000000005
 40
0.9600000000000005
 40
0.9600000000000005
 40
0.9600000000000005
 40
0.9800000000000005
 40
0.9800000000000005
 40
0.9800000000000005
 40
0.9800000000000005
 40
1.0
 40
1.0
 40
1.0
 40
1.0
 10
-0.2578661417322835
 20
1.526031496062992
 30
0.0
 10
-0.2578661417322835
 20
1.526031496062992
 30
0.0
 10
-0.2169212598425197
 20
1.526031496062992
 30
0.0
 10
-0.2169212598425197
 20
1.526031496062992
 30
0.0
 10
-0.2169212598425197
 20
1.526031496062992
 30
0.0
 10
-0.2169212598425197
 20
1.526031496062992
 30
0.0
 10
-0.2169212598425197
 20
1.519196850393701
 30
0.0
 10
-0.2169212598425197
 20
1.519196850393701
 30
0.0
 10
-0.2169212598425197
 20
1.519196850393701
 30
0.0
 10
-0.2169212598425197
 20
1.519196850393701
 30
0.0
 10
-0.219755905511811
 20
1.519196850393701
 30
0.0
 10
-0.219755905511811
 20
1.519196850393701
 30
0.0
 10
-0.219755905511811
 20
1.519196850393701
 30
0.0
 10
-0.2213937007874016
 20
1.519196850393701
 30
0.0
 10
-0.2228937007874016
 20
1.519003937007874
 30
0.0
 10
-0.224255905511811
 20
1.518641732283465
 30
0.0
 10
-0.224255905511811
 20
1.518641732283465
 30
0.0
 10
-0.2250590551181103
 20
1.51842125984252
 30
0.0
 10
-0.2257283464566929
 20
1.518003937007874
 30
0.0
 10
-0.2262283464566929
 20
1.517366141732284
 30
0.0
 10
-0.2262283464566929
 20
1.517366141732284
 30
0.0
 10
-0.2267559055118111
 20
1.516751968503937
 30
0.0
 10
-0.227003937007874
 20
1.516169291338583
 30
0.0
 10
-0.227003937007874
 20
1.515614173228347
 30
0.0
 10
-0.227003937007874
 20
1.515614173228347
 30
0.0
 10
-0.227003937007874
 20
1.514366141732284
 30
0.0
 10
-0.2259763779527559
 20
1.512503937007874
 30
0.0
 10
-0.2239212598425197
 20
1.510003937007874
 30
0.0
 10
-0.2239212598425197
 20
1.510003937007874
 30
0.0
 10
-0.2239212598425197
 20
1.510003937007874
 30
0.0
 10
-0.2122834645669292
 20
1.495366141732283
 30
0.0
 10
-0.2122834645669292
 20
1.495366141732283
 30
0.0
 10
-0.2122834645669292
 20
1.495366141732283
 30
0.0
 10
-0.2122834645669292
 20
1.495366141732283
 30
0.0
 10
-0.1987007874015748
 20
1.510003937007874
 30
0.0
 10
-0.1987007874015748
 20
1.510003937007874
 30
0.0
 10
-0.1987007874015748
 20
1.510003937007874
 30
0.0
 10
-0.1962007874015748
 20
1.512724409448819
 30
0.0
 10
-0.1949488188976378
 20
1.514751968503937
 30
0.0
 10
-0.1949488188976378
 20
1.516114173228347
 30
0.0
 10
-0.1949488188976378
 20
1.516114173228347
 30
0.0
 10
-0.1949488188976378
 20
1.517086614173228
 30
0.0
 10
-0.1953937007874016
 20
1.517838582677165
 30
0.0
 10
-0.196255905511811
 20
1.518393700787402
 30
0.0
 10
-0.196255905511811
 20
1.518393700787402
 30
0.0
 10
-0.1971181102362205
 20
1.51892125984252
 30
0.0
 10
-0.1989763779527559
 20
1.519196850393701
 30
0.0
 10
-0.2018661417322835
 20
1.519196850393701
 30
0.0
 10
-0.2018661417322835
 20
1.519196850393701
 30
0.0
 10
-0.2018661417322835
 20
1.519196850393701
 30
0.0
 10
-0.2049488188976378
 20
1.519196850393701
 30
0.0
 10
-0.2049488188976378
 20
1.519196850393701
 30
0.0
 10
-0.2049488188976378
 20
1.519196850393701
 30
0.0
 10
-0.2049488188976378
 20
1.519196850393701
 30
0.0
 10
-0.2049488188976378
 20
1.526031496062992
 30
0.0
 10
-0.2049488188976378
 20
1.526031496062992
 30
0.0
 10
-0.2049488188976378
 20
1.526031496062992
 30
0.0
 10
-0.2049488188976378
 20
1.526031496062992
 30
0.0
 10
-0.1702007874015748
 20
1.526031496062992
 30
0.0
 10
-0.1702007874015748
 20
1.526031496062992
 30
0.0
 10
-0.1702007874015748
 20
1.526031496062992
 30
0.0
 10
-0.1702007874015748
 20
1.526031496062992
 30
0.0
 10
-0.1702007874015748
 20
1.519196850393701
 30
0.0
 10
-0.1702007874015748
 20
1.519196850393701
 30
0.0
 10
-0.1702007874015748
 20
1.519196850393701
 30
0.0
 10
-0.1736181102362205
 20
1.519031496062992
 30
0.0
 10
-0.1765629921259843
 20
1.518338582677165
 30
0.0
 10
-0.1790314960629921
 20
1.517086614173228
 30
0.0
 10
-0.1790314960629921
 20
1.517086614173228
 30
0.0
 10
-0.181503937007874
 20
1.515838582677165
 30
0.0
 10
-0.1844212598425197
 20
1.513476377952756
 30
0.0
 10
-0.1877834645669292
 20
1.510003937007874
 30
0.0
 10
-0.1877834645669292
 20
1.510003937007874
 30
0.0
 10
-0.1877834645669292
 20
1.510003937007874
 30
0.0
 10
-0.2064212598425197
 20
1.490641732283465
 30
0.0
 10
-0.2064212598425197
 20
1.490641732283465
 30
0.0
 10
-0.2064212598425197
 20
1.490641732283465
 30
0.0
 10
-0.2064212598425197
 20
1.490641732283465
 30
0.0
 10
-0.1832283464566929
 20
1.464196850393701
 30
0.0
 10
-0.1832283464566929
 20
1.464196850393701
 30
0.0
 10
-0.1832283464566929
 20
1.464196850393701
 30
0.0
 10
-0.1832283464566929
 20
1.464196850393701
 30
0.0
 10
-0.1823385826771654
 20
1.46305905511811
 30
0.0
 10
-0.1823385826771654
 20
1.46305905511811
 30
0.0
 10
-0.1823385826771654
 20
1.46305905511811
 30
0.0
 10
-0.1800629921259843
 20
1.460114173228347
 30
0.0
 10
-0.177503937007874
 20
1.457751968503937
 30
0.0
 10
-0.1746732283464567
 20
1.455976377952756
 30
0.0
 10
-0.1746732283464567
 20
1.455976377952756
 30
0.0
 10
-0.1731181102362205
 20
1.454948818897638
 30
0.0
 10
-0.1706732283464567
 20
1.454393700787402
 30
0.0
 10
-0.1673661417322835
 20
1.454338582677165
 30
0.0
 10
-0.1673661417322835
 20
1.454338582677165
 30
0.0
 10
-0.1673661417322835
 20
1.454338582677165
 30
0.0
 10
-0.1673661417322835
 20
1.447503937007874
 30
0.0
 10
-0.1673661417322835
 20
1.447503937007874
 30
0.0
 10
-0.1673661417322835
 20
1.447503937007874
 30
0.0
 10
-0.1673661417322835
 20
1.447503937007874
 30
0.0
 10
-0.2073110236220473
 20
1.447503937007874
 30
0.0
 10
-0.2073110236220473
 20
1.447503937007874
 30
0.0
 10
-0.2073110236220473
 20
1.447503937007874
 30
0.0
 10
-0.2073110236220473
 20
1.447503937007874
 30
0.0
 10
-0.2073110236220473
 20
1.454338582677165
 30
0.0
 10
-0.2073110236220473
 20
1.454338582677165
 30
0.0
 10
-0.2073110236220473
 20
1.454338582677165
 30
0.0
 10
-0.2073110236220473
 20
1.454338582677165
 30
0.0
 10
-0.2038937007874016
 20
1.454338582677165
 30
0.0
 10
-0.2038937007874016
 20
1.454338582677165
 30
0.0
 10
-0.2038937007874016
 20
1.454338582677165
 30
0.0
 10
-0.2012834645669291
 20
1.454338582677165
 30
0.0
 10
-0.1996456692913386
 20
1.454503937007874
 30
0.0
 10
-0.1989212598425197
 20
1.454838582677166
 30
0.0
 10
-0.1989212598425197
 20
1.454838582677166
 30
0.0
 10
-0.197755905511811
 20
1.455366141732284
 30
0.0
 10
-0.1971456692913386
 20
1.456283464566929
 30
0.0
 10
-0.1971456692913386
 20
1.457586614173228
 30
0.0
 10
-0.1971456692913386
 20
1.457586614173228
 30
0.0
 10
-0.1971456692913386
 20
1.458783464566929
 30
0.0
 10
-0.1984488188976378
 20
1.460976377952756
 30
0.0
 10
-0.2010629921259843
 20
1.464196850393701
 30
0.0
 10
-0.2010629921259843
 20
1.464196850393701
 30
0.0
 10
-0.2010629921259843
 20
1.464196850393701
 30
0.0
 10
-0.2158661417322835
 20
1.482338582677165
 30
0.0
 10
-0.2158661417322835
 20
1.482338582677165
 30
0.0
 10
-0.2158661417322835
 20
1.482338582677165
 30
0.0
 10
-0.2158661417322835
 20
1.482338582677165
 30
0.0
 10
-0.2323937007874016
 20
1.464196850393701
 30
0.0
 10
-0.2323937007874016
 20
1.464196850393701
 30
0.0
 10
-0.2323937007874016
 20
1.464196850393701
 30
0.0
 10
-0.2323937007874016
 20
1.464196850393701
 30
0.0
 10
-0.234003937007874
 20
1.462224409448819
 30
0.0
 10
-0.234003937007874
 20
1.462224409448819
 30
0.0
 10
-0.234003937007874
 20
1.462224409448819
 30
0.0
 10
-0.234003937007874
 20
1.462224409448819
 30
0.0
 10
-0.2348937007874016
 20
1.461251968503937
 30
0.0
 10
-0.2348937007874016
 20
1.461251968503937
 30
0.0
 10
-0.2348937007874016
 20
1.461251968503937
 30
0.0
 10
-0.236255905511811
 20
1.459783464566929
 30
0.0
 10
-0.2369488188976378
 20
1.458503937007874
 30
0.0
 10
-0.2369488188976378
 20
1.457366141732284
 30
0.0
 10
-0.2369488188976378
 20
1.457366141732284
 30
0.0
 10
-0.2369488188976378
 20
1.456311023622047
 30
0.0
 10
-0.2365314960629922
 20
1.45555905511811
 30
0.0
 10
-0.2356732283464567
 20
1.45505905511811
 30
0.0
 10
-0.2356732283464567
 20
1.45505905511811
 30
0.0
 10
-0.2348385826771654
 20
1.454586614173228
 30
0.0
 10
-0.2329488188976378
 20
1.454338582677165
 30
0.0
 10
-0.2300314960629921
 20
1.454338582677165
 30
0.0
 10
-0.2300314960629921
 20
1.454338582677165
 30
0.0
 10
-0.2300314960629921
 20
1.454338582677165
 30
0.0
 10
-0.2267559055118111
 20
1.454338582677165
 30
0.0
 10
-0.2267559055118111
 20
1.454338582677165
 30
0.0
 10
-0.2267559055118111
 20
1.454338582677165
 30
0.0
 10
-0.2267559055118111
 20
1.454338582677165
 30
0.0
 10
-0.2267559055118111
 20
1.447503937007874
 30
0.0
 10
-0.2267559055118111
 20
1.447503937007874
 30
0.0
 10
-0.2267559055118111
 20
1.447503937007874
 30
0.0
 10
-0.2267559055118111
 20
1.447503937007874
 30
0.0
 10
-0.2610314960629921
 20
1.447503937007874
 30
0.0
 10
-0.2610314960629921
 20
1.447503937007874
 30
0.0
 10
-0.2610314960629921
 20
1.447503937007874
 30
0.0
 10
-0.2610314960629921
 20
1.447503937007874
 30
0.0
 10
-0.2610314960629921
 20
1.454338582677165
 30
0.0
 10
-0.2610314960629921
 20
1.454338582677165
 30
0.0
 10
-0.2610314960629921
 20
1.454338582677165
 30
0.0
 10
-0.2583661417322835
 20
1.454393700787402
 30
0.0
 10
-0.2562834645669291
 20
1.454669291338583
 30
0.0
 10
-0.254755905511811
 20
1.455196850393701
 30
0.0
 10
-0.254755905511811
 20
1.455196850393701
 30
0.0
 10
-0.253255905511811
 20
1.455696850393701
 30
0.0
 10
-0.2517834645669291
 20
1.456503937007874
 30
0.0
 10
-0.2503661417322835
 20
1.457586614173228
 30
0.0
 10
-0.2503661417322835
 20
1.457586614173228
 30
0.0
 10
-0.2479212598425197
 20
1.45955905511811
 30
0.0
 10
-0.2461732283464567
 20
1.461086614173228
 30
0.0
 10
-0.2450866141732284
 20
1.462224409448819
 30
0.0
 10
-0.2450866141732284
 20
1.462224409448819
 30
0.0
 10
-0.2450866141732284
 20
1.462224409448819
 30
0.0
 10
-0.2212283464566929
 20
1.486724409448819
 30
0.0
 10
-0.2212283464566929
 20
1.486724409448819
 30
0.0
 10
-0.2212283464566929
 20
1.486724409448819
 30
0.0
 10
-0.2212283464566929
 20
1.486724409448819
 30
0.0
 10
-0.241503937007874
 20
1.510003937007874
 30
0.0
 10
-0.241503937007874
 20
1.510003937007874
 30
0.0
 10
-0.241503937007874
 20
1.510003937007874
 30
0.0
 10
-0.2440590551181102
 20
1.512893700787402
 30
0.0
 10
-0.2460590551181102
 20
1.514893700787402
 30
0.0
 10
-0.2475590551181102
 20
1.51605905511811
 30
0.0
 10
-0.2475590551181102
 20
1.51605905511811
 30
0.0
 10
-0.2490590551181103
 20
1.517224409448819
 30
0.0
 10
-0.250503937007874
 20
1.51805905511811
 30
0.0
 10
-0.2519212598425197
 20
1.518503937007874
 30
0.0
 10
-0.2519212598425197
 20
1.518503937007874
 30
0.0
 10
-0.2533385826771654
 20
1.518976377952756
 30
0.0
 10
-0.2553110236220473
 20
1.519196850393701
 30
0.0
 10
-0.2578661417322835
 20
1.519196850393701
 30
0.0
 10
-0.2578661417322835
 20
1.519196850393701
 30
0.0
 10
-0.2578661417322835
 20
1.519196850393701
 30
0.0
 10
-0.2578661417322835
 20
1.526031496062992
 30
0.0
 10
-0.2578661417322835
 20
1.526031496062992
 30
0.0
  0
SPLINE
  5
70
330
1F
100
AcDbEntity
  8
LAYER_1
 62
   250
100
AcDbSpline
210
0.0
220
0.0
230
1.0
 70
    11
 71
     3
 72
   172
 73
   168
 74
     0
 42
0.0000000001
 43
0.0000000001
 40
0.0
 40
0.0
 40
0.0
 40
0.0
 40
0.0238095238095238
 40
0.0238095238095238
 40
0.0238095238095238
 40
0.0238095238095238
 40
0.0476190476190476
 40
0.0476190476190476
 40
0.0476190476190476
 40
0.0476190476190476
 40
0.0714285714285714
 40
0.0714285714285714
 40
0.0714285714285714
 40
0.0714285714285714
 40
0.0952380952380952
 40
0.0952380952380952
 40
0.0952380952380952
 40
0.0952380952380952
 40
0.119047619047619
 40
0.119047619047619
 40
0.119047619047619
 40
0.119047619047619
 40
0.1428571428571429
 40
0.1428571428571429
 40
0.1428571428571429
 40
0.1428571428571429
 40
0.1666666666666667
 40
0.1666666666666667
 40
0.1666666666666667
 40
0.1666666666666667
 40
0.1904761904761905
 40
0.1904761904761905
 40
0.1904761904761905
 40
0.1904761904761905
 40
0.2142857142857143
 40
0.2142857142857143
 40
0.2142857142857143
 40
0.2142857142857143
 40
0.2380952380952381
 40
0.2380952380952381
 40
0.2380952380952381
 40
0.2380952380952381
 40
0.2619047619047619
 40
0.2619047619047619
 40
0.2619047619047619
 40
0.2619047619047619
 40
0.2857142857142857
 40
0.2857142857142857
 40
0.2857142857142857
 40
0.2857142857142857
 40
0.3095238095238095
 40
0.3095238095238095
 40
0.3095238095238095
 40
0.3095238095238095
 40
0.3333333333333334
 40
0.3333333333333334
 40
0.3333333333333334
 40
0.3333333333333334
 40
0.3571428571428572
 40
0.3571428571428572
 40
0.3571428571428572
 40
0.3571428571428572
 40
0.380952380952381
 40
0.380952380952381
 40
0.380952380952381
 40
0.380952380952381
 40
0.4047619047619049
 40
0.4047619047619049
 40
0.4047619047619049
 40
0.4047619047619049
 40
0.4285714285714287
 40
0.4285714285714287
 40
0.4285714285714287
 40
0.4285714285714287
 40
0.4523809523809526
 40
0.4523809523809526
 40
0.4523809523809526
 40
0.4523809523809526
 40
0.4761904761904764
 40
0.4761904761904764
 40
0.4761904761904764
 40
0.4761904761904764
 40
0.5000000000000002
 40
0.5000000000000002
 40
0.5000000000000002
 40
0.5000000000000002
 40
0.5238095238095241
 40
0.5238095238095241
 40
0.5238095238095241
 40
0.5238095238095241
 40
0.5476190476190479
 40
0.5476190476190479
 40
0.5476190476190479
 40
0.5476190476190479
 40
0.5714285714285717
 40
0.5714285714285717
 40
0.5714285714285717
 40
0.5714285714285717
 40
0.5952380952380956
 40
0.5952380952380956
 40
0.5952380952380956
 40
0.5952380952380956
 40
0.6190476190476194
 40
0.6190476190476194
 40
0.6190476190476194
 40
0.6190476190476194
 40
0.6428571428571432
 40
0.6428571428571432
 40
0.6428571428571432
 40
0.6428571428571432
 40
0.6666666666666671
 40
0.6666666666666671
 40
0.6666666666666671
 40
0.6666666666666671
 40
0.6904761904761909
 40
0.6904761904761909
 40
0.6904761904761909
 40
0.6904761904761909
 40
0.7142857142857148
 40
0.7142857142857148
 40
0.7142857142857148
 40
0.7142857142857148
 40
0.7380952380952386
 40
0.7380952380952386
 40
0.7380952380952386
 40
0.7380952380952386
 40
0.7619047619047624
 40
0.7619047619047624
 40
0.7619047619047624
 40
0.7619047619047624
 40
0.7857142857142863
 40
0.7857142857142863
 40
0.7857142857142863
 40
0.7857142857142863
 40
0.8095238095238101
 40
0.8095238095238101
 40
0.8095238095238101
 40
0.8095238095238101
 40
0.8333333333333339
 40
0.8333333333333339
 40
0.8333333333333339
 40
0.8333333333333339
 40
0.8571428571428578
 40
0.8571428571428578
 40
0.8571428571428578
 40
0.8571428571428578
 40
0.8809523809523816
 40
0.8809523809523816
 40
0.8809523809523816
 40
0.8809523809523816
 40
0.9047619047619054
 40
0.9047619047619054
 40
0.9047619047619054
 40
0.9047619047619054
 40
0.9285714285714293
 40
0.9285714285714293
 40
0.9285714285714293
 40
0.9285714285714293
 40
0.9523809523809531
 40
0.9523809523809531
 40
0.9523809523809531
 40
0.9523809523809531
 40
0.9761904761904769
 40
0.9761904761904769
 40
0.9761904761904769
 40
0.9761904761904769
 40
1.0
 40
1.0
 40
1.0
 40
1.0
 10
-0.0921732283464567
 20
1.530669291338583
 30
0.0
 10
-0.0921732283464567
 20
1.530669291338583
 30
0.0
 10
-0.0999803149606299
 20
1.531893700787402
 30
0.0
 10
-0.0999803149606299
 20
1.531893700787402
 30
0.0
 10
-0.0999803149606299
 20
1.531893700787402
 30
0.0
 10
-0.0992834645669291
 20
1.537751968503937
 30
0.0
 10
-0.097755905511811
 20
1.542614173228347
 30
0.0
 10
-0.0954212598425197
 20
1.546476377952756
 30
0.0
 10
-0.0954212598425197
 20
1.546476377952756
 30
0.0
 10
-0.0923385826771654
 20
1.551669291338583
 30
0.0
 10
-0.0879803149606299
 20
1.555724409448819
 30
0.0
 10
-0.0823385826771654
 20
1.558614173228347
 30
0.0
 10
-0.0823385826771654
 20
1.558614173228347
 30
0.0
 10
-0.0766732283464567
 20
1.561531496062992
 30
0.0
 10
-0.0702007874015748
 20
1.562976377952756
 30
0.0
 10
-0.0628661417322835
 20
1.562976377952756
 30
0.0
 10
-0.0628661417322835
 20
1.562976377952756
 30
0.0
 10
-0.0556732283464567
 20
1.562976377952756
 30
0.0
 10
-0.0493110236220472
 20
1.561696850393701
 30
0.0
 10
-0.0438385826771654
 20
1.559114173228346
 30
0.0
 10
-0.0438385826771654
 20
1.559114173228346
 30
0.0
 10
-0.0383661417322835
 20
1.556531496062992
 30
0.0
 10
-0.0342283464566929
 20
1.553114173228346
 30
0.0
 10
-0.0314251968503937
 20
1.548866141732284
 30
0.0
 10
-0.0314251968503937
 20
1.548866141732284
 30
0.0
 10
-0.0286181102362205
 20
1.544614173228347
 30
0.0
 10
-0.0272283464566929
 20
1.540003937007874
 30
0.0
 10
-0.0272283464566929
 20
1.53505905511811
 30
0.0
 10
-0.0272283464566929
 20
1.53505905511811
 30
0.0
 10
-0.0272283464566929
 20
1.530724409448819
 30
0.0
 10
-0.0282834645669291
 20
1.526838582677165
 30
0.0
 10
-0.0303976377952756
 20
1.52342125984252
 30
0.0
 10
-0.0303976377952756
 20
1.52342125984252
 30
0.0
 10
-0.0325354330708661
 20
1.520003937007874
 30
0.0
 10
-0.0356732283464567
 20
1.516948818897638
 30
0.0
 10
-0.0398385826771654
 20
1.514224409448819
 30
0.0
 10
-0.0398385826771654
 20
1.514224409448819
 30
0.0
 10
-0.0427834645669291
 20
1.512338582677165
 30
0.0
 10
-0.0465905511811024
 20
1.510669291338583
 30
0.0
 10
-0.0513110236220472
 20
1.509279527559055
 30
0.0
 10
-0.0513110236220472
 20
1.509279527559055
 30
0.0
 10
-0.0462834645669291
 20
1.50855905511811
 30
0.0
 10
-0.0421456692913386
 20
1.507393700787402
 30
0.0
 10
-0.0389527559055118
 20
1.505779527559055
 30
0.0
 10
-0.0389527559055118
 20
1.505779527559055
 30
0.0
 10
-0.033755905511811
 20
1.503114173228347
 30
0.0
 10
-0.0296456692913386
 20
1.499448818897638
 30
0.0
 10
-0.0266732283464567
 20
1.494779527559055
 30
0.0
 10
-0.0266732283464567
 20
1.494779527559055
 30
0.0
 10
-0.0236732283464567
 20
1.490114173228347
 30
0.0
 10
-0.0222007874015748
 20
1.485003937007874
 30
0.0
 10
-0.0222007874015748
 20
1.479393700787402
 30
0.0
 10
-0.0222007874015748
 20
1.479393700787402
 30
0.0
 10
-0.0222007874015748
 20
1.470448818897638
 30
0.0
 10
-0.0261181102362205
 20
1.46255905511811
 30
0.0
 10
-0.0339803149606299
 20
1.455751968503937
 30
0.0
 10
-0.0339803149606299
 20
1.455751968503937
 30
0.0
 10
-0.0418661417322835
 20
1.448948818897638
 30
0.0
 10
-0.0520354330708661
 20
1.44555905511811
 30
0.0
 10
-0.064507874015748
 20
1.44555905511811
 30
0.0
 10
-0.064507874015748
 20
1.44555905511811
 30
0.0
 10
-0.0768110236220473
 20
1.44555905511811
 30
0.0
 10
-0.0871732283464567
 20
1.448838582677166
 30
0.0
 10
-0.0955905511811024
 20
1.455393700787402
 30
0.0
 10
-0.0955905511811024
 20
1.455393700787402
 30
0.0
 10
-0.1026456692913386
 20
1.460976377952756
 30
0.0
 10
-0.1061732283464567
 20
1.466614173228346
 30
0.0
 10
-0.1061732283464567
 20
1.472251968503937
 30
0.0
 10
-0.1061732283464567
 20
1.472251968503937
 30
0.0
 10
-0.1061732283464567
 20
1.474476377952756
 30
0.0
 10
-0.1054488188976378
 20
1.476338582677165
 30
0.0
 10
-0.104007874015748
 20
1.477811023622047
 30
0.0
 10
-0.104007874015748
 20
1.477811023622047
 30
0.0
 10
-0.1025905511811024
 20
1.479311023622047
 30
0.0
 10
-0.1007834645669291
 20
1.48005905511811
 30
0.0
 10
-0.0985905511811024
 20
1.48005905511811
 30
0.0
 10
-0.0985905511811024
 20
1.48005905511811
 30
0.0
 10
-0.0962283464566929
 20
1.48005905511811
 30
0.0
 10
-0.0941732283464567
 20
1.479141732283465
 30
0.0
 10
-0.092507874015748
 20
1.477279527559055
 30
0.0
 10
-0.092507874015748
 20
1.477279527559055
 30
0.0
 10
-0.0915905511811024
 20
1.476251968503937
 30
0.0
 10
-0.090507874015748
 20
1.473783464566929
 30
0.0
 10
-0.0893385826771654
 20
1.469893700787402
 30
0.0
 10
-0.0893385826771654
 20
1.469893700787402
 30
0.0
 10
-0.0876456692913386
 20
1.464393700787402
 30
0.0
 10
-0.0847834645669291
 20
1.460224409448819
 30
0.0
 10
-0.0807834645669291
 20
1.457366141732284
 30
0.0
 10
-0.0807834645669291
 20
1.457366141732284
 30
0.0
 10
-0.076755905511811
 20
1.454476377952756
 30
0.0
 10
-0.0717834645669291
 20
1.453031496062992
 30
0.0
 10
-0.0658110236220472
 20
1.453031496062992
 30
0.0
 10
-0.0658110236220472
 20
1.453031496062992
 30
0.0
 10
-0.0604803149606299
 20
1.453031496062992
 30
0.0
 10
-0.0557283464566929
 20
1.454196850393701
 30
0.0
 10
-0.0515354330708661
 20
1.456531496062992
 30
0.0
 10
-0.0515354330708661
 20
1.456531496062992
 30
0.0
 10
-0.0473110236220472
 20
1.458866141732284
 30
0.0
 10
-0.044007874015748
 20
1.462169291338583
 30
0.0
 10
-0.0415629921259843
 20
1.466476377952756
 30
0.0
 10
-0.0415629921259843
 20
1.466476377952756
 30
0.0
 10
-0.0391181102362205
 20
1.470751968503937
 30
0.0
 10
-0.0378937007874016
 20
1.475448818897638
 30
0.0
 10
-0.0378937007874016
 20
1.480531496062992
 30
0.0
 10
-0.0378937007874016
 20
1.480531496062992
 30
0.0
 10
-0.0378937007874016
 20
1.484669291338583
 30
0.0
 10
-0.0387834645669291
 20
1.488366141732284
 30
0.0
 10
-0.0405354330708661
 20
1.491641732283465
 30
0.0
 10
-0.0405354330708661
 20
1.491641732283465
 30
0.0
 10
-0.0423110236220472
 20
1.494948818897638
 30
0.0
 10
-0.0448110236220472
 20
1.497724409448819
 30
0.0
 10
-0.0480629921259843
 20
1.500003937007874
 30
0.0
 10
-0.0480629921259843
 20
1.500003937007874
 30
0.0
 10
-0.0505629921259843
 20
1.501779527559055
 30
0.0
 10
-0.053755905511811
 20
1.503031496062992
 30
0.0
 10
-0.0576181102362205
 20
1.503724409448819
 30
0.0
 10
-0.0576181102362205
 20
1.503724409448819
 30
0.0
 10
-0.061507874015748
 20
1.504448818897638
 30
0.0
 10
-0.065007874015748
 20
1.504807086614173
 30
0.0
 10
-0.0680905511811024
 20
1.504807086614173
 30
0.0
 10
-0.0680905511811024
 20
1.504807086614173
 30
0.0
 10
-0.0680905511811024
 20
1.504807086614173
 30
0.0
 10
-0.0756456692913386
 20
1.504807086614173
 30
0.0
 10
-0.0756456692913386
 20
1.504807086614173
 30
0.0
 10
-0.0756456692913386
 20
1.504807086614173
 30
0.0
 10
-0.0756456692913386
 20
1.504807086614173
 30
0.0
 10
-0.0756456692913386
 20
1.512696850393701
 30
0.0
 10
-0.0756456692913386
 20
1.512696850393701
 30
0.0
 10
-0.0756456692913386
 20
1.512696850393701
 30
0.0
 10
-0.0756456692913386
 20
1.512696850393701
 30
0.0
 10
-0.0708385826771654
 20
1.512696850393701
 30
0.0
 10
-0.0708385826771654
 20
1.512696850393701
 30
0.0
 10
-0.0708385826771654
 20
1.512696850393701
 30
0.0
 10
-0.0660905511811024
 20
1.512696850393701
 30
0.0
 10
-0.0615354330708661
 20
1.513251968503937
 30
0.0
 10
-0.0571732283464567
 20
1.514366141732284
 30
0.0
 10
-0.0571732283464567
 20
1.514366141732284
 30
0.0
 10
-0.0528385826771654
 20
1.515476377952756
 30
0.0
 10
-0.0493661417322835
 20
1.517751968503937
 30
0.0
 10
-0.046755905511811
 20
1.521224409448819
 30
0.0
 10
-0.046755905511811
 20
1.521224409448819
 30
0.0
 10
-0.0441732283464567
 20
1.524696850393701
 30
0.0
 10
-0.0428661417322835
 20
1.528641732283465
 30
0.0
 10
-0.0428661417322835
 20
1.533031496062992
 30
0.0
 10
-0.0428661417322835
 20
1.533031496062992
 30
0.0
 10
-0.0428661417322835
 20
1.536834645669291
 30
0.0
 10
-0.043755905511811
 20
1.540251968503937
 30
0.0
 10
-0.0455905511811024
 20
1.543279527559055
 30
0.0
 10
-0.0455905511811024
 20
1.543279527559055
 30
0.0
 10
-0.0473937007874016
 20
1.546334645669292
 30
0.0
 10
-0.0500629921259843
 20
1.548751968503937
 30
0.0
 10
-0.0535905511811024
 20
1.550531496062992
 30
0.0
 10
-0.0535905511811024
 20
1.550531496062992
 30
0.0
 10
-0.0571181102362205
 20
1.552307086614173
 30
0.0
 10
-0.0612007874015748
 20
1.553224409448819
 30
0.0
 10
-0.0658110236220472
 20
1.553224409448819
 30
0.0
 10
-0.0658110236220472
 20
1.553224409448819
 30
0.0
 10
-0.0703110236220472
 20
1.553224409448819
 30
0.0
 10
-0.0744527559055118
 20
1.552279527559055
 30
0.0
 10
-0.0782283464566929
 20
1.550448818897638
 30
0.0
 10
-0.0782283464566929
 20
1.550448818897638
 30
0.0
 10
-0.0819803149606299
 20
1.548614173228347
 30
0.0
 10
-0.085007874015748
 20
1.546141732283465
 30
0.0
 10
-0.0872834645669291
 20
1.543031496062992
 30
0.0
 10
-0.0872834645669291
 20
1.543031496062992
 30
0.0
 10
-0.0895629921259843
 20
1.539948818897638
 30
0.0
 10
-0.0912007874015748
 20
1.535834645669291
 30
0.0
 10
-0.0921732283464567
 20
1.530669291338583
 30
0.0
  0
SPLINE
  5
71
330
1F
100
AcDbEntity
  8
LAYER_1
 62
   250
100
AcDbSpline
210
0.0
220
0.0
230
1.0
 70
    11
 71
     3
 72
    20
 73
    16
 74
     0
 42
0.0000000001
 43
0.0000000001
 40
0.0
 40
0.0
 40
0.0
 40
0.0
 40
0.25
 40
0.25
 40
0.25
 40
0.25
 40
0.5
 40
0.5
 40
0.5
 40
0.5
 40
0.75
 40
0.75
 40
0.75
 40
0.75
 40
1.0
 40
1.0
 40
1.0
 40
1.0
 10
-0.001755905511811
 20
1.493976377952756
 30
0.0
 10
-0.001755905511811
 20
1.493976377952756
 30
0.0
 10
0.0465787401574803
 20
1.493976377952756
 30
0.0
 10
0.0465787401574803
 20
1.493976377952756
 30
0.0
 10
0.0465787401574803
 20
1.493976377952756
 30
0.0
 10
0.0465787401574803
 20
1.493976377952756
 30
0.0
 10
0.0465787401574803
 20
1.483893700787402
 30
0.0
 10
0.0465787401574803
 20
1.483893700787402
 30
0.0
 10
0.0465787401574803
 20
1.483893700787402
 30
0.0
 10
0.0465787401574803
 20
1.483893700787402
 30
0.0
 10
-0.001755905511811
 20
1.483893700787402
 30
0.0
 10
-0.001755905511811
 20
1.483893700787402
 30
0.0
 10
-0.001755905511811
 20
1.483893700787402
 30
0.0
 10
-0.001755905511811
 20
1.483893700787402
 30
0.0
 10
-0.001755905511811
 20
1.493976377952756
 30
0.0
 10
-0.001755905511811
 20
1.493976377952756
 30
0.0
  0
SPLINE
  5
72
330
1F
100
AcDbEntity
  8
LAYER_1
 62
   250
100
AcDbSpline
210
0.0
220
0.0
230
1.0
 70
    11
 71
     3
 72
    72
 73
    68
 74
     0
 42
0.0000000001
 43
0.0000000001
 40
0.0
 40
0.0
 40
0.0
 40
0.0
 40
0.0588235294117647
 40
0.0588235294117647
 40
0.0588235294117647
 40
0.0588235294117647
 40
0.1176470588235294
 40
0.1176470588235294
 40
0.1176470588235294
 40
0.1176470588235294
 40
0.1764705882352941
 40
0.1764705882352941
 40
0.1764705882352941
 40
0.1764705882352941
 40
0.2352941176470588
 40
0.2352941176470588
 40
0.2352941176470588
 40
0.2352941176470588
 40
0.2941176470588235
 40
0.2941176470588235
 40
0.2941176470588235
 40
0.2941176470588235
 40
0.3529411764705883
 40
0.3529411764705883
 40
0.3529411764705883
 40
0.3529411764705883
 40
0.411764705882353
 40
0.411764705882353
 40
0.411764705882353
 40
0.411764705882353
 40
0.4705882352941177
 40
0.4705882352941177
 40
0.4705882352941177
 40
0.4705882352941177
 40
0.5294117647058824
 40
0.5294117647058824
 40
0.5294117647058824
 40
0.5294117647058824
 40
0.5882352941176471
 40
0.5882352941176471
 40
0.5882352941176471
 40
0.5882352941176471
 40
0.6470588235294118
 40
0.6470588235294118
 40
0.6470588235294118
 40
0.6470588235294118
 40
0.7058823529411765
 40
0.7058823529411765
 40
0.7058823529411765
 40
0.7058823529411765
 40
0.7647058823529412
 40
0.7647058823529412
 40
0.7647058823529412
 40
0.7647058823529412
 40
0.823529411764706
 40
0.823529411764706
 40
0.823529411764706
 40
0.823529411764706
 40
0.8823529411764707
 40
0.8823529411764707
 40
0.8823529411764707
 40
0.8823529411764707
 40
0.9411764705882354
 40
0.9411764705882354
 40
0.9411764705882354
 40
0.9411764705882354
 40
1.0
 40
1.0
 40
1.0
 40
1.0
 10
0.1117716535433071
 20
1.561031496062992
 30
0.0
 10
0.1117716535433071
 20
1.561031496062992
 30
0.0
 10
0.1178543307086614
 20
1.561031496062992
 30
0.0
 10
0.1178543307086614
 20
1.561031496062992
 30
0.0
 10
0.1178543307086614
 20
1.561031496062992
 30
0.0
 10
0.1178543307086614
 20
1.561031496062992
 30
0.0
 10
0.1178543307086614
 20
1.466783464566929
 30
0.0
 10
0.1178543307086614
 20
1.466783464566929
 30
0.0
 10
0.1178543307086614
 20
1.466783464566929
 30
0.0
 10
0.1178543307086614
 20
1.462338582677165
 30
0.0
 10
0.1181614173228347
 20
1.459476377952756
 30
0.0
 10
0.1187165354330709
 20
1.458196850393701
 30
0.0
 10
0.1187165354330709
 20
1.458196850393701
 30
0.0
 10
0.1192992125984252
 20
1.45692125984252
 30
0.0
 10
0.1202165354330709
 20
1.455976377952756
 30
0.0
 10
0.1215196850393701
 20
1.455311023622047
 30
0.0
 10
0.1215196850393701
 20
1.455311023622047
 30
0.0
 10
0.1228267716535433
 20
1.454669291338583
 30
0.0
 10
0.1254094488188977
 20
1.454338582677165
 30
0.0
 10
0.1292716535433071
 20
1.454338582677165
 30
0.0
 10
0.1292716535433071
 20
1.454338582677165
 30
0.0
 10
0.1292716535433071
 20
1.454338582677165
 30
0.0
 10
0.137244094488189
 20
1.454338582677165
 30
0.0
 10
0.137244094488189
 20
1.454338582677165
 30
0.0
 10
0.137244094488189
 20
1.454338582677165
 30
0.0
 10
0.137244094488189
 20
1.454338582677165
 30
0.0
 10
0.137244094488189
 20
1.447503937007874
 30
0.0
 10
0.137244094488189
 20
1.447503937007874
 30
0.0
 10
0.137244094488189
 20
1.447503937007874
 30
0.0
 10
0.137244094488189
 20
1.447503937007874
 30
0.0
 10
0.0836062992125984
 20
1.447503937007874
 30
0.0
 10
0.0836062992125984
 20
1.447503937007874
 30
0.0
 10
0.0836062992125984
 20
1.447503937007874
 30
0.0
 10
0.0836062992125984
 20
1.447503937007874
 30
0.0
 10
0.0836062992125984
 20
1.454338582677165
 30
0.0
 10
0.0836062992125984
 20
1.454338582677165
 30
0.0
 10
0.0836062992125984
 20
1.454338582677165
 30
0.0
 10
0.0836062992125984
 20
1.454338582677165
 30
0.0
 10
0.0924645669291339
 20
1.454338582677165
 30
0.0
 10
0.0924645669291339
 20
1.454338582677165
 30
0.0
 10
0.0924645669291339
 20
1.454338582677165
 30
0.0
 10
0.0963267716535433
 20
1.454338582677165
 30
0.0
 10
0.0988818897637795
 20
1.454669291338583
 30
0.0
 10
0.1001614173228347
 20
1.455366141732284
 30
0.0
 10
0.1001614173228347
 20
1.455366141732284
 30
0.0
 10
0.1014370078740158
 20
1.456031496062992
 30
0.0
 10
0.1024370078740158
 20
1.457114173228347
 30
0.0
 10
0.1031338582677165
 20
1.458614173228346
 30
0.0
 10
0.1031338582677165
 20
1.458614173228346
 30
0.0
 10
0.1038267716535433
 20
1.460114173228347
 30
0.0
 10
0.1041889763779528
 20
1.462838582677166
 30
0.0
 10
0.1041889763779528
 20
1.466783464566929
 30
0.0
 10
0.1041889763779528
 20
1.466783464566929
 30
0.0
 10
0.1041889763779528
 20
1.466783464566929
 30
0.0
 10
0.1041889763779528
 20
1.544251968503937
 30
0.0
 10
0.1041889763779528
 20
1.544251968503937
 30
0.0
 10
0.1041889763779528
 20
1.544251968503937
 30
0.0
 10
0.1041889763779528
 20
1.544251968503937
 30
0.0
 10
0.0836062992125984
 20
1.544251968503937
 30
0.0
 10
0.0836062992125984
 20
1.544251968503937
 30
0.0
 10
0.0836062992125984
 20
1.544251968503937
 30
0.0
 10
0.0836062992125984
 20
1.544251968503937
 30
0.0
 10
0.0836062992125984
 20
1.551251968503937
 30
0.0
 10
0.0836062992125984
 20
1.551251968503937
 30
0.0
 10
0.0836062992125984
 20
1.551251968503937
 30
0.0
 10
0.0948267716535433
 20
1.552834645669291
 30
0.0
 10
0.1042165354330709
 20
1.556086614173228
 30
0.0
 10
0.1117716535433071
 20
1.561031496062992
 30
0.0
  0
SPLINE
  5
73
330
1F
100
AcDbEntity
  8
LAYER_1
 62
   250
100
AcDbSpline
210
0.0
220
0.0
230
1.0
 70
    11
 71
     3
 72
    20
 73
    16
 74
     0
 42
0.0000000001
 43
0.0000000001
 40
0.0
 40
0.0
 40
0.0
 40
0.0
 40
0.25
 40
0.25
 40
0.25
 40
0.25
 40
0.5
 40
0.5
 40
0.5
 40
0.5
 40
0.75
 40
0.75
 40
0.75
 40
0.75
 40
1.0
 40
1.0
 40
1.0
 40
1.0
 10
0.2406062992125984
 20
1.566893700787402
 30
0.0
 10
0.2406062992125984
 20
1.566893700787402
 30
0.0
 10
0.1850236220472441
 20
1.411196850393701
 30
0.0
 10
0.1850236220472441
 20
1.411196850393701
 30
0.0
 10
0.1850236220472441
 20
1.411196850393701
 30
0.0
 10
0.1850236220472441
 20
1.411196850393701
 30
0.0
 10
0.1729685039370079
 20
1.411196850393701
 30
0.0
 10
0.1729685039370079
 20
1.411196850393701
 30
0.0
 10
0.1729685039370079
 20
1.411196850393701
 30
0.0
 10
0.1729685039370079
 20
1.411196850393701
 30
0.0
 10
0.2282165354330709
 20
1.566893700787402
 30
0.0
 10
0.2282165354330709
 20
1.566893700787402
 30
0.0
 10
0.2282165354330709
 20
1.566893700787402
 30
0.0
 10
0.2282165354330709
 20
1.566893700787402
 30
0.0
 10
0.2406062992125984
 20
1.566893700787402
 30
0.0
 10
0.2406062992125984
 20
1.566893700787402
 30
0.0
  0
SPLINE
  5
74
330
1F
100
AcDbEntity
  8
LAYER_1
 62
   250
100
AcDbSpline
210
0.0
220
0.0
230
1.0
 70
    11
 71
     3
 72
    48
 73
    44
 74
     0
 42
0.0000000001
 43
0.0000000001
 40
0.0
 40
0.0
 40
0.0
 40
0.0
 40
0.0909090909090909
 40
0.0909090909090909
 40
0.0909090909090909
 40
0.0909090909090909
 40
0.1818181818181818
 40
0.1818181818181818
 40
0.1818181818181818
 40
0.1818181818181818
 40
0.2727272727272727
 40
0.2727272727272727
 40
0.2727272727272727
 40
0.2727272727272727
 40
0.3636363636363637
 40
0.3636363636363637
 40
0.3636363636363637
 40
0.3636363636363637
 40
0.4545454545454546
 40
0.4545454545454546
 40
0.4545454545454546
 40
0.4545454545454546
 40
0.5454545454545455
 40
0.5454545454545455
 40
0.5454545454545455
 40
0.5454545454545455
 40
0.6363636363636365
 40
0.6363636363636365
 40
0.6363636363636365
 40
0.6363636363636365
 40
0.7272727272727274
 40
0.7272727272727274
 40
0.7272727272727274
 40
0.7272727272727274
 40
0.8181818181818183
 40
0.8181818181818183
 40
0.8181818181818183
 40
0.8181818181818183
 40
0.9090909090909093
 40
0.9090909090909093
 40
0.9090909090909093
 40
0.9090909090909093
 40
1.0
 40
1.0
 40
1.0
 40
1.0
 10
0.3195511811023622
 20
1.561031496062992
 30
0.0
 10
0.3195511811023622
 20
1.561031496062992
 30
0.0
 10
0.3332992125984252
 20
1.561031496062992
 30
0.0
 10
0.3332992125984252
 20
1.561031496062992
 30
0.0
 10
0.3332992125984252
 20
1.561031496062992
 30
0.0
 10
0.3332992125984252
 20
1.561031496062992
 30
0.0
 10
0.3332992125984252
 20
1.495031496062992
 30
0.0
 10
0.3332992125984252
 20
1.495031496062992
 30
0.0
 10
0.3332992125984252
 20
1.495031496062992
 30
0.0
 10
0.3332992125984252
 20
1.495031496062992
 30
0.0
 10
0.3546338582677165
 20
1.495031496062992
 30
0.0
 10
0.3546338582677165
 20
1.495031496062992
 30
0.0
 10
0.3546338582677165
 20
1.495031496062992
 30
0.0
 10
0.3546338582677165
 20
1.495031496062992
 30
0.0
 10
0.3546338582677165
 20
1.484866141732284
 30
0.0
 10
0.3546338582677165
 20
1.484866141732284
 30
0.0
 10
0.3546338582677165
 20
1.484866141732284
 30
0.0
 10
0.3546338582677165
 20
1.484866141732284
 30
0.0
 10
0.3332992125984252
 20
1.484866141732284
 30
0.0
 10
0.3332992125984252
 20
1.484866141732284
 30
0.0
 10
0.3332992125984252
 20
1.484866141732284
 30
0.0
 10
0.3332992125984252
 20
1.484866141732284
 30
0.0
 10
0.3332992125984252
 20
1.447503937007874
 30
0.0
 10
0.3332992125984252
 20
1.447503937007874
 30
0.0
 10
0.3332992125984252
 20
1.447503937007874
 30
0.0
 10
0.3332992125984252
 20
1.447503937007874
 30
0.0
 10
0.3195511811023622
 20
1.447503937007874
 30
0.0
 10
0.3195511811023622
 20
1.447503937007874
 30
0.0
 10
0.3195511811023622
 20
1.447503937007874
 30
0.0
 10
0.3195511811023622
 20
1.447503937007874
 30
0.0
 10
0.3195511811023622
 20
1.484866141732284
 30
0.0
 10
0.3195511811023622
 20
1.484866141732284
 30
0.0
 10
0.3195511811023622
 20
1.484866141732284
 30
0.0
 10
0.3195511811023622
 20
1.484866141732284
 30
0.0
 10
0.2660787401574803
 20
1.484866141732284
 30
0.0
 10
0.2660787401574803
 20
1.484866141732284
 30
0.0
 10
0.2660787401574803
 20
1.484866141732284
 30
0.0
 10
0.2660787401574803
 20
1.484866141732284
 30
0.0
 10
0.2660787401574803
 20
1.499169291338583
 30
0.0
 10
0.2660787401574803
 20
1.499169291338583
 30
0.0
 10
0.2660787401574803
 20
1.499169291338583
 30
0.0
 10
0.2660787401574803
 20
1.499169291338583
 30
0.0
 10
0.3195511811023622
 20
1.561031496062992
 30
0.0
 10
0.3195511811023622
 20
1.561031496062992
 30
0.0
  0
SPLINE
  5
75
330
1F
100
AcDbEntity
  8
LAYER_1
 62
   250
100
AcDbSpline
210
0.0
220
0.0
230
1.0
 70
    11
 71
     3
 72
    16
 73
    12
 74
     0
 42
0.0000000001
 43
0.0000000001
 40
0.0
 40
0.0
 40
0.0
 40
0.0
 40
0.3333333333333333
 40
0.3333333333333333
 40
0.3333333333333333
 40
0.3333333333333333
 40
0.6666666666666666
 40
0.6666666666666666
 40
0.6666666666666666
 40
0.6666666666666666
 40
1.0
 40
1.0
 40
1.0
 40
1.0
 10
0.3195511811023622
 20
1.495031496062992
 30
0.0
 10
0.3195511811023622
 20
1.495031496062992
 30
0.0
 10
0.3195511811023622
 20
1.54842125984252
 30
0.0
 10
0.3195511811023622
 20
1.54842125984252
 30
0.0
 10
0.3195511811023622
 20
1.54842125984252
 30
0.0
 10
0.3195511811023622
 20
1.54842125984252
 30
0.0
 10
0.273496062992126
 20
1.495031496062992
 30
0.0
 10
0.273496062992126
 20
1.495031496062992
 30
0.0
 10
0.273496062992126
 20
1.495031496062992
 30
0.0
 10
0.273496062992126
 20
1.495031496062992
 30
0.0
 10
0.3195511811023622
 20
1.495031496062992
 30
0.0
 10
0.3195511811023622
 20
1.495031496062992
 30
0.0
  0
SPLINE
  5
76
330
1F
100
AcDbEntity
  8
LAYER_1
 62
   250
100
AcDbSpline
210
0.0
220
0.0
230
1.0
 70
    11
 71
     3
 72
    60
 73
    56
 74
     0
 42
0.0000000001
 43
0.0000000001
 40
0.0
 40
0.0
 40
0.0
 40
0.0
 40
0.0714285714285714
 40
0.0714285714285714
 40
0.0714285714285714
 40
0.0714285714285714
 40
0.1428571428571429
 40
0.1428571428571429
 40
0.1428571428571429
 40
0.1428571428571429
 40
0.2142857142857143
 40
0.2142857142857143
 40
0.2142857142857143
 40
0.2142857142857143
 40
0.2857142857142857
 40
0.2857142857142857
 40
0.2857142857142857
 40
0.2857142857142857
 40
0.3571428571428571
 40
0.3571428571428571
 40
0.3571428571428571
 40
0.3571428571428571
 40
0.4285714285714285
 40
0.4285714285714285
 40
0.4285714285714285
 40
0.4285714285714285
 40
0.4999999999999999
 40
0.4999999999999999
 40
0.4999999999999999
 40
0.4999999999999999
 40
0.5714285714285713
 40
0.5714285714285713
 40
0.5714285714285713
 40
0.5714285714285713
 40
0.6428571428571427
 40
0.6428571428571427
 40
0.6428571428571427
 40
0.6428571428571427
 40
0.7142857142857141
 40
0.7142857142857141
 40
0.7142857142857141
 40
0.7142857142857141
 40
0.7857142857142855
 40
0.7857142857142855
 40
0.7857142857142855
 40
0.7857142857142855
 40
0.8571428571428569
 40
0.8571428571428569
 40
0.8571428571428569
 40
0.8571428571428569
 40
0.9285714285714283
 40
0.9285714285714283
 40
0.9285714285714283
 40
0.9285714285714283
 40
1.0
 40
1.0
 40
1.0
 40
1.0
 10
0.3726062992125984
 20
1.518948818897638
 30
0.0
 10
0.3726062992125984
 20
1.518948818897638
 30
0.0
 10
0.3682165354330709
 20
1.524338582677165
 30
0.0
 10
0.3682165354330709
 20
1.524338582677165
 30
0.0
 10
0.3682165354330709
 20
1.524338582677165
 30
0.0
 10
0.3793307086614173
 20
1.533393700787402
 30
0.0
 10
0.3849133858267717
 20
1.540948818897638
 30
0.0
 10
0.3849133858267717
 20
1.547031496062992
 30
0.0
 10
0.3849133858267717
 20
1.547031496062992
 30
0.0
 10
0.3849133858267717
 20
1.547724409448819
 30
0.0
 10
0.3848582677165355
 20
1.548614173228347
 30
0.0
 10
0.384744094488189
 20
1.549641732283465
 30
0.0
 10
0.384744094488189
 20
1.549641732283465
 30
0.0
 10
0.3838307086614173
 20
1.549251968503937
 30
0.0
 10
0.3829133858267717
 20
1.548948818897638
 30
0.0
 10
0.3820511811023622
 20
1.548751968503937
 30
0.0
 10
0.3820511811023622
 20
1.548751968503937
 30
0.0
 10
0.3811889763779528
 20
1.548531496062992
 30
0.0
 10
0.3803858267716536
 20
1.54842125984252
 30
0.0
 10
0.3796062992125984
 20
1.54842125984252
 30
0.0
 10
0.3796062992125984
 20
1.54842125984252
 30
0.0
 10
0.376996062992126
 20
1.54842125984252
 30
0.0
 10
0.3749133858267717
 20
1.549251968503937
 30
0.0
 10
0.3733582677165355
 20
1.550948818897638
 30
0.0
 10
0.3733582677165355
 20
1.550948818897638
 30
0.0
 10
0.3717716535433071
 20
1.552614173228347
 30
0.0
 10
0.370996062992126
 20
1.554751968503937
 30
0.0
 10
0.370996062992126
 20
1.557366141732284
 30
0.0
 10
0.370996062992126
 20
1.557366141732284
 30
0.0
 10
0.370996062992126
 20
1.55992125984252
 30
0.0
 10
0.3719409448818898
 20
1.562141732283465
 30
0.0
 10
0.3738307086614173
 20
1.564031496062992
 30
0.0
 10
0.3738307086614173
 20
1.564031496062992
 30
0.0
 10
0.375744094488189
 20
1.565948818897638
 30
0.0
 10
0.3780236220472441
 20
1.566893700787402
 30
0.0
 10
0.3806614173228347
 20
1.566893700787402
 30
0.0
 10
0.3806614173228347
 20
1.566893700787402
 30
0.0
 10
0.3843582677165355
 20
1.566893700787402
 30
0.0
 10
0.3875236220472441
 20
1.56542125984252
 30
0.0
 10
0.3901614173228347
 20
1.562448818897638
 30
0.0
 10
0.3901614173228347
 20
1.562448818897638
 30
0.0
 10
0.3927716535433071
 20
1.559503937007874
 30
0.0
 10
0.3941062992125984
 20
1.555696850393701
 30
0.0
 10
0.3941062992125984
 20
1.551031496062992
 30
0.0
 10
0.3941062992125984
 20
1.551031496062992
 30
0.0
 10
0.3941062992125984
 20
1.547976377952756
 30
0.0
 10
0.3934685039370079
 20
1.544779527559055
 30
0.0
 10
0.3922165354330709
 20
1.541448818897638
 30
0.0
 10
0.3922165354330709
 20
1.541448818897638
 30
0.0
 10
0.3909685039370079
 20
1.538114173228347
 30
0.0
 10
0.3891614173228347
 20
1.535031496062992
 30
0.0
 10
0.3867716535433071
 20
1.532169291338583
 30
0.0
 10
0.3867716535433071
 20
1.532169291338583
 30
0.0
 10
0.3843858267716536
 20
1.529338582677166
 30
0.0
 10
0.3796614173228347
 20
1.52492125984252
 30
0.0
 10
0.3726062992125984
 20
1.518948818897638
 30
0.0
  0
SPLINE
  5
77
330
1F
100
AcDbEntity
  8
LAYER_1
 62
   250
100
AcDbSpline
210
0.0
220
0.0
230
1.0
 70
    11
 71
     3
 72
    60
 73
    56
 74
     0
 42
0.0000000001
 43
0.0000000001
 40
0.0
 40
0.0
 40
0.0
 40
0.0
 40
0.0714285714285714
 40
0.0714285714285714
 40
0.0714285714285714
 40
0.0714285714285714
 40
0.1428571428571429
 40
0.1428571428571429
 40
0.1428571428571429
 40
0.1428571428571429
 40
0.2142857142857143
 40
0.2142857142857143
 40
0.2142857142857143
 40
0.2142857142857143
 40
0.2857142857142857
 40
0.2857142857142857
 40
0.2857142857142857
 40
0.2857142857142857
 40
0.3571428571428571
 40
0.3571428571428571
 40
0.3571428571428571
 40
0.3571428571428571
 40
0.4285714285714285
 40
0.4285714285714285
 40
0.4285714285714285
 40
0.4285714285714285
 40
0.4999999999999999
 40
0.4999999999999999
 40
0.4999999999999999
 40
0.4999999999999999
 40
0.5714285714285713
 40
0.5714285714285713
 40
0.5714285714285713
 40
0.5714285714285713
 40
0.6428571428571427
 40
0.6428571428571427
 40
0.6428571428571427
 40
0.6428571428571427
 40
0.7142857142857141
 40
0.7142857142857141
 40
0.7142857142857141
 40
0.7142857142857141
 40
0.7857142857142855
 40
0.7857142857142855
 40
0.7857142857142855
 40
0.7857142857142855
 40
0.8571428571428569
 40
0.8571428571428569
 40
0.8571428571428569
 40
0.8571428571428569
 40
0.9285714285714283
 40
0.9285714285714283
 40
0.9285714285714283
 40
0.9285714285714283
 40
1.0
 40
1.0
 40
1.0
 40
1.0
 10
0.4016614173228347
 20
1.518948818897638
 30
0.0
 10
0.4016614173228347
 20
1.518948818897638
 30
0.0
 10
0.3972716535433071
 20
1.524338582677165
 30
0.0
 10
0.3972716535433071
 20
1.524338582677165
 30
0.0
 10
0.3972716535433071
 20
1.524338582677165
 30
0.0
 10
0.4083858267716536
 20
1.533393700787402
 30
0.0
 10
0.4139685039370079
 20
1.540948818897638
 30
0.0
 10
0.4139685039370079
 20
1.547031496062992
 30
0.0
 10
0.4139685039370079
 20
1.547031496062992
 30
0.0
 10
0.4139685039370079
 20
1.547724409448819
 30
0.0
 10
0.4139133858267717
 20
1.548614173228347
 30
0.0
 10
0.4137992125984252
 20
1.549641732283465
 30
0.0
 10
0.4137992125984252
 20
1.549641732283465
 30
0.0
 10
0.4128858267716536
 20
1.549251968503937
 30
0.0
 10
0.4119685039370079
 20
1.548948818897638
 30
0.0
 10
0.4111062992125985
 20
1.548751968503937
 30
0.0
 10
0.4111062992125985
 20
1.548751968503937
 30
0.0
 10
0.410244094488189
 20
1.548531496062992
 30
0.0
 10
0.4094133858267717
 20
1.54842125984252
 30
0.0
 10
0.4085787401574804
 20
1.54842125984252
 30
0.0
 10
0.4085787401574804
 20
1.54842125984252
 30
0.0
 10
0.4060236220472441
 20
1.54842125984252
 30
0.0
 10
0.4039685039370079
 20
1.549251968503937
 30
0.0
 10
0.4024133858267717
 20
1.550948818897638
 30
0.0
 10
0.4024133858267717
 20
1.550948818897638
 30
0.0
 10
0.4008307086614174
 20
1.552614173228347
 30
0.0
 10
0.4000511811023622
 20
1.554751968503937
 30
0.0
 10
0.4000511811023622
 20
1.557366141732284
 30
0.0
 10
0.4000511811023622
 20
1.557366141732284
 30
0.0
 10
0.4000511811023622
 20
1.55992125984252
 30
0.0
 10
0.400996062992126
 20
1.562141732283465
 30
0.0
 10
0.4028858267716536
 20
1.564031496062992
 30
0.0
 10
0.4028858267716536
 20
1.564031496062992
 30
0.0
 10
0.4047716535433071
 20
1.565948818897638
 30
0.0
 10
0.4070787401574804
 20
1.566893700787402
 30
0.0
 10
0.4097165354330709
 20
1.566893700787402
 30
0.0
 10
0.4097165354330709
 20
1.566893700787402
 30
0.0
 10
0.4134133858267717
 20
1.566893700787402
 30
0.0
 10
0.4165787401574803
 20
1.56542125984252
 30
0.0
 10
0.4192165354330709
 20
1.562448818897638
 30
0.0
 10
0.4192165354330709
 20
1.562448818897638
 30
0.0
 10
0.4218267716535433
 20
1.559503937007874
 30
0.0
 10
0.4231614173228347
 20
1.555696850393701
 30
0.0
 10
0.4231614173228347
 20
1.551031496062992
 30
0.0
 10
0.4231614173228347
 20
1.551031496062992
 30
0.0
 10
0.4231614173228347
 20
1.547976377952756
 30
0.0
 10
0.4225236220472441
 20
1.544779527559055
 30
0.0
 10
0.4212716535433071
 20
1.541448818897638
 30
0.0
 10
0.4212716535433071
 20
1.541448818897638
 30
0.0
 10
0.4200236220472441
 20
1.538114173228347
 30
0.0
 10
0.4182165354330709
 20
1.535031496062992
 30
0.0
 10
0.4158307086614174
 20
1.532169291338583
 30
0.0
 10
0.4158307086614174
 20
1.532169291338583
 30
0.0
 10
0.4134409448818898
 20
1.529338582677166
 30
0.0
 10
0.4087165354330709
 20
1.52492125984252
 30
0.0
 10
0.4016614173228347
 20
1.518948818897638
 30
0.0
  0
ENDSEC
  0
SECTION
  2
OBJECTS
  0
DICTIONARY
  5
C
330
0
100
AcDbDictionary
  3
ACAD_GROUP
350
D
  3
ACAD_LAYOUT
350
1A
  3
ACAD_MLINESTYLE
350
17
  3
ACAD_PLOTSETTINGS
350
19
  3
ACDBHEADERROUNDTRIPXREC
350
78
  0
DICTIONARY
  5
98
330
29
100
AcDbDictionary
280
     1
  3
ACAD_XREC_ROUNDTRIP
360
99
  0
DICTIONARY
  5
D
102
{ACAD_REACTORS
330
C
102
}
330
C
100
AcDbDictionary
  0
DICTIONARY
  5
1A
102
{ACAD_REACTORS
330
C
102
}
330
C
100
AcDbDictionary
  0
DICTIONARY
  5
17
102
{ACAD_REACTORS
330
C
102
}
330
C
100
AcDbDictionary
  3
STANDARD
350
18
  0
DICTIONARY
  5
19
102
{ACAD_REACTORS
330
C
102
}
330
C
100
AcDbDictionary
  0
DICTIONARY
  5
78
102
{ACAD_REACTORS
330
C
102
}
330
C
100
AcDbDictionary
  3
CEPSNTYPE
350
81
  3
DIMSTYLEDATA
350
97
  3
FINGERPRINTGUID
350
82
  3
HYPERLINKBASE
350
7B
  3
INSUNITS
350
80
  3
LAYOUTDICT
350
7D
  3
LWETCUNION
350
7F
  3
PLOTSETDICT
350
7E
  3
PSVPSCALE
350
84
  3
PUCSBASE
350
87
  3
PUCSORGBACK
350
8D
  3
PUCSORGBOTTOM
350
89
  3
PUCSORGFRONT
350
8C
  3
PUCSORGLEFT
350
8A
  3
PUCSORGRIGHT
350
8B
  3
PUCSORGTOP
350
88
  3
PUCSORTHOREF
350
85
  3
PUCSORTHOVIEW
350
86
  3
STYLESHEET
350
7C
  3
TSTACKALIGN
350
79
  3
TSTACKSIZE
350
7A
  3
UCSBASE
350
90
  3
UCSORGBACK
350
96
  3
UCSORGBOTTOM
350
92
  3
UCSORGFRONT
350
95
  3
UCSORGLEFT
350
93
  3
UCSORGRIGHT
350
94
  3
UCSORGTOP
350
91
  3
UCSORTHOREF
350
8E
  3
UCSORTHOVIEW
350
8F
  3
VERSIONGUID
350
83
  0
XRECORD
  5
99
102
{ACAD_REACTORS
330
98
102
}
330
98
100
AcDbXrecord
102
UCS
 74
     0
 71
     1
 10
0.0
 20
0.0
 30
0.0
 10
1.0
 20
0.0
 30
0.0
 10
0.0
 20
1.0
 30
0.0
146
0.0
 79
     0
102
VIEW
281
     0
  0
MLINESTYLE
  5
18
102
{ACAD_REACTORS
330
17
102
}
330
17
100
AcDbMlineStyle
  2
Standard
 70
     0
  3

 62
   256
 51
90.0
 52
90.0
 71
     2
 49
0.5
 62
   256
  6
BYLAYER
 49
-0.5
 62
   256
  6
BYLAYER
  0
XRECORD
  5
81
102
{ACAD_REACTORS
330
78
102
}
330
78
100
AcDbXrecord
 90
        0
  0
XRECORD
  5
97
102
{ACAD_REACTORS
330
78
102
}
330
78
100
AcDbXrecord
1000
DSTYLE
1002
{
1070
   340
340
11
1002
}
  0
XRECORD
  5
82
102
{ACAD_REACTORS
330
78
102
}
330
78
100
AcDbXrecord
  1
{FAEB1C30-E019-11D5-929B-00C0DF256EC4}
  0
XRECORD
  5
7B
102
{ACAD_REACTORS
330
78
102
}
330
78
100
AcDbXrecord
  1

  0
XRECORD
  5
80
102
{ACAD_REACTORS
330
78
102
}
330
78
100
AcDbXrecord
 90
        1
  0
XRECORD
  5
7D
102
{ACAD_REACTORS
330
78
102
}
330
78
100
AcDbXrecord
340
1A
  0
XRECORD
  5
7F
102
{ACAD_REACTORS
330
78
102
}
330
78
100
AcDbXrecord
 90
     2560
  0
XRECORD
  5
7E
102
{ACAD_REACTORS
330
78
102
}
330
78
100
AcDbXrecord
340
19
  0
XRECORD
  5
84
102
{ACAD_REACTORS
330
78
102
}
330
78
100
AcDbXrecord
 40
0.0
  0
XRECORD
  5
87
102
{ACAD_REACTORS
330
78
102
}
330
78
100
AcDbXrecord
340
0
  0
XRECORD
  5
8D
102
{ACAD_REACTORS
330
78
102
}
330
78
100
AcDbXrecord
 10
0.0
 20
0.0
 30
0.0
  0
XRECORD
  5
89
102
{ACAD_REACTORS
330
78
102
}
330
78
100
AcDbXrecord
 10
0.0
 20
0.0
 30
0.0
  0
XRECORD
  5
8C
102
{ACAD_REACTORS
330
78
102
}
330
78
100
AcDbXrecord
 10
0.0
 20
0.0
 30
0.0
  0
XRECORD
  5
8A
102
{ACAD_REACTORS
330
78
102
}
330
78
100
AcDbXrecord
 10
0.0
 20
0.0
 30
0.0
  0
XRECORD
  5
8B
102
{ACAD_REACTORS
330
78
102
}
330
78
100
AcDbXrecord
 10
0.0
 20
0.0
 30
0.0
  0
XRECORD
  5
88
102
{ACAD_REACTORS
330
78
102
}
330
78
100
AcDbXrecord
 10
0.0
 20
0.0
 30
0.0
  0
XRECORD
  5
85
102
{ACAD_REACTORS
330
78
102
}
330
78
100
AcDbXrecord
340
0
  0
XRECORD
  5
86
102
{ACAD_REACTORS
330
78
102
}
330
78
100
AcDbXrecord
 70
     0
  0
XRECORD
  5
7C
102
{ACAD_REACTORS
330
78
102
}
330
78
100
AcDbXrecord
  1

  0
XRECORD
  5
79
102
{ACAD_REACTORS
330
78
102
}
330
78
100
AcDbXrecord
 90
        1
  0
XRECORD
  5
7A
102
{ACAD_REACTORS
330
78
102
}
330
78
100
AcDbXrecord
 90
       70
  0
XRECORD
  5
90
102
{ACAD_REACTORS
330
78
102
}
330
78
100
AcDbXrecord
340
0
  0
XRECORD
  5
96
102
{ACAD_REACTORS
330
78
102
}
330
78
100
AcDbXrecord
 10
0.0
 20
0.0
 30
0.0
  0
XRECORD
  5
92
102
{ACAD_REACTORS
330
78
102
}
330
78
100
AcDbXrecord
 10
0.0
 20
0.0
 30
0.0
  0
XRECORD
  5
95
102
{ACAD_REACTORS
330
78
102
}
330
78
100
AcDbXrecord
 10
0.0
 20
0.0
 30
0.0
  0
XRECORD
  5
93
102
{ACAD_REACTORS
330
78
102
}
330
78
100
AcDbXrecord
 10
0.0
 20
0.0
 30
0.0
  0
XRECORD
  5
94
102
{ACAD_REACTORS
330
78
102
}
330
78
100
AcDbXrecord
 10
0.0
 20
0.0
 30
0.0
  0
XRECORD
  5
91
102
{ACAD_REACTORS
330
78
102
}
330
78
100
AcDbXrecord
 10
0.0
 20
0.0
 30
0.0
  0
XRECORD
  5
8E
102
{ACAD_REACTORS
330
78
102
}
330
78
100
AcDbXrecord
340
0
  0
XRECORD
  5
8F
102
{ACAD_REACTORS
330
78
102
}
330
78
100
AcDbXrecord
 70
     0
  0
XRECORD
  5
83
102
{ACAD_REACTORS
330
78
102
}
330
78
100
AcDbXrecord
  1
{FAEB1C32-E019-11D5-929B-00C0DF256EC4}
  0
ENDSEC
  0
EOF
