  0
SECTION
  2
HEADER
  9
$ACADVER
  1
AC1014
  9
$ACADMAINTVER
 70
     9
  9
$DWGCODEPAGE
  3
ANSI_1252
  9
$INSBASE
 10
0.0
 20
0.0
 30
0.0
  9
$EXTMIN
 10
-1.111409448818898
 20
0.7524370078740158
 30
0.0
  9
$EXTMAX
 10
1.442807086614173
 20
2.976854330708661
 30
0.0
  9
$LIMMIN
 10
0.0
 20
0.0
  9
$LIMMAX
 10
12.0
 20
9.0
  9
$ORTHOMODE
 70
     0
  9
$REGENMODE
 70
     1
  9
$FILLMODE
 70
     1
  9
$QTEXTMODE
 70
     0
  9
$MIRRTEXT
 70
     1
  9
$DRAGMODE
 70
     2
  9
$LTSCALE
 40
1.0
  9
$OSMODE
 70
    37
  9
$ATTMODE
 70
     1
  9
$TEXTSIZE
 40
0.2
  9
$TRACEWID
 40
0.05
  9
$TEXTSTYLE
  7
STANDARD
  9
$CLAYER
  8
0
  9
$CELTYPE
  6
BYLAYER
  9
$CECOLOR
 62
   256
  9
$CELTSCALE
 40
1.0
  9
$DELOBJ
 70
     1
  9
$DISPSILH
 70
     0
  9
$DIMSCALE
 40
1.0
  9
$DIMASZ
 40
0.18
  9
$DIMEXO
 40
0.0625
  9
$DIMDLI
 40
0.38
  9
$DIMRND
 40
0.0
  9
$DIMDLE
 40
0.0
  9
$DIMEXE
 40
0.18
  9
$DIMTP
 40
0.0
  9
$DIMTM
 40
0.0
  9
$DIMTXT
 40
0.18
  9
$DIMCEN
 40
0.09
  9
$DIMTSZ
 40
0.0
  9
$DIMTOL
 70
     0
  9
$DIMLIM
 70
     0
  9
$DIMTIH
 70
     1
  9
$DIMTOH
 70
     1
  9
$DIMSE1
 70
     0
  9
$DIMSE2
 70
     0
  9
$DIMTAD
 70
     0
  9
$DIMZIN
 70
     0
  9
$DIMBLK
  1

  9
$DIMASO
 70
     1
  9
$DIMSHO
 70
     1
  9
$DIMPOST
  1

  9
$DIMAPOST
  1

  9
$DIMALT
 70
     0
  9
$DIMALTD
 70
     2
  9
$DIMALTF
 40
25.4
  9
$DIMLFAC
 40
1.0
  9
$DIMTOFL
 70
     0
  9
$DIMTVP
 40
0.0
  9
$DIMTIX
 70
     0
  9
$DIMSOXD
 70
     0
  9
$DIMSAH
 70
     0
  9
$DIMBLK1
  1

  9
$DIMBLK2
  1

  9
$DIMSTYLE
  2
STANDARD
  9
$DIMCLRD
 70
     0
  9
$DIMCLRE
 70
     0
  9
$DIMCLRT
 70
     0
  9
$DIMTFAC
 40
1.0
  9
$DIMGAP
 40
0.09
  9
$DIMJUST
 70
     0
  9
$DIMSD1
 70
     0
  9
$DIMSD2
 70
     0
  9
$DIMTOLJ
 70
     1
  9
$DIMTZIN
 70
     0
  9
$DIMALTZ
 70
     0
  9
$DIMALTTZ
 70
     0
  9
$DIMFIT
 70
     3
  9
$DIMUPT
 70
     0
  9
$DIMUNIT
 70
     2
  9
$DIMDEC
 70
     4
  9
$DIMTDEC
 70
     4
  9
$DIMALTU
 70
     2
  9
$DIMALTTD
 70
     2
  9
$DIMTXSTY
  7
STANDARD
  9
$DIMAUNIT
 70
     0
  9
$LUNITS
 70
     2
  9
$LUPREC
 70
     4
  9
$SKETCHINC
 40
0.1
  9
$FILLETRAD
 40
0.5
  9
$AUNITS
 70
     0
  9
$AUPREC
 70
     0
  9
$MENU
  1
.
  9
$ELEVATION
 40
0.0
  9
$PELEVATION
 40
0.0
  9
$THICKNESS
 40
0.0
  9
$LIMCHECK
 70
     0
  9
$CHAMFERA
 40
0.5
  9
$CHAMFERB
 40
0.5
  9
$CHAMFERC
 40
1.0
  9
$CHAMFERD
 40
0.0
  9
$SKPOLY
 70
     0
  9
$TDCREATE
 40
2454124.336050972
  9
$TDUPDATE
 40
2454124.336050984
  9
$TDINDWG
 40
0.0000000116
  9
$TDUSRTIMER
 40
0.0000000116
  9
$USRTIMER
 70
     1
  9
$ANGBASE
 50
0.0
  9
$ANGDIR
 70
     0
  9
$PDMODE
 70
     0
  9
$PDSIZE
 40
0.0
  9
$PLINEWID
 40
0.0
  9
$COORDS
 70
     1
  9
$SPLFRAME
 70
     0
  9
$SPLINETYPE
 70
     6
  9
$SPLINESEGS
 70
     8
  9
$ATTDIA
 70
     0
  9
$ATTREQ
 70
     1
  9
$HANDLING
 70
     1
  9
$HANDSEED
  5
AC
  9
$SURFTAB1
 70
     6
  9
$SURFTAB2
 70
     6
  9
$SURFTYPE
 70
     6
  9
$SURFU
 70
     6
  9
$SURFV
 70
     6
  9
$UCSNAME
  2

  9
$UCSORG
 10
0.0
 20
0.0
 30
0.0
  9
$UCSXDIR
 10
1.0
 20
0.0
 30
0.0
  9
$UCSYDIR
 10
0.0
 20
1.0
 30
0.0
  9
$PUCSNAME
  2

  9
$PUCSORG
 10
0.0
 20
0.0
 30
0.0
  9
$PUCSXDIR
 10
1.0
 20
0.0
 30
0.0
  9
$PUCSYDIR
 10
0.0
 20
1.0
 30
0.0
  9
$USERI1
 70
     0
  9
$USERI2
 70
     0
  9
$USERI3
 70
     0
  9
$USERI4
 70
     0
  9
$USERI5
 70
     0
  9
$USERR1
 40
0.0
  9
$USERR2
 40
0.0
  9
$USERR3
 40
0.0
  9
$USERR4
 40
0.0
  9
$USERR5
 40
0.0
  9
$WORLDVIEW
 70
     1
  9
$SHADEDGE
 70
     3
  9
$SHADEDIF
 70
    70
  9
$TILEMODE
 70
     1
  9
$MAXACTVP
 70
    64
  9
$PINSBASE
 10
0.0
 20
0.0
 30
0.0
  9
$PLIMCHECK
 70
     0
  9
$PEXTMIN
 10
1.000000000000000E+20
 20
1.000000000000000E+20
 30
1.000000000000000E+20
  9
$PEXTMAX
 10
-1.000000000000000E+20
 20
-1.000000000000000E+20
 30
-1.000000000000000E+20
  9
$PLIMMIN
 10
0.0
 20
0.0
  9
$PLIMMAX
 10
12.0
 20
9.0
  9
$UNITMODE
 70
     0
  9
$VISRETAIN
 70
     1
  9
$PLINEGEN
 70
     0
  9
$PSLTSCALE
 70
     1
  9
$TREEDEPTH
 70
  3020
  9
$PICKSTYLE
 70
     1
  9
$CMLSTYLE
  2
STANDARD
  9
$CMLJUST
 70
     0
  9
$CMLSCALE
 40
1.0
  9
$PROXYGRAPHICS
 70
     1
  9
$MEASUREMENT
 70
     0
  0
ENDSEC
  0
SECTION
  2
CLASSES
  0
CLASS
  1
ACDBDICTIONARYWDFLT
  2
AcDbDictionaryWithDefault
  3
ObjectDBX Classes
 90
        0
280
     0
281
     0
  0
CLASS
  1
XRECORD
  2
AcDbXrecord
  3
AutoCAD 2000
 90
        0
280
     0
281
     0
  0
CLASS
  1
LWPOLYLINE
  2
AcDbPolyline
  3
AutoCAD 2000
 90
        0
280
     0
281
     1
  0
CLASS
  1
HATCH
  2
AcDbHatch
  3
AutoCAD 2000
 90
        0
280
     0
281
     1
  0
CLASS
  1
ACDBPLACEHOLDER
  2
AcDbPlaceHolder
  3
ObjectDBX Classes
 90
        0
280
     0
281
     0
  0
CLASS
  1
LAYOUT
  2
AcDbLayout
  3
ObjectDBX Classes
 90
        0
280
     0
281
     0
  0
ENDSEC
  0
SECTION
  2
TABLES
  0
TABLE
  2
VPORT
  5
8
330
0
100
AcDbSymbolTable
 70
     2
  0
VPORT
  5
29
102
{ACAD_XDICTIONARY
360
AA
102
}
330
8
100
AcDbSymbolTableRecord
100
AcDbViewportTableRecord
  2
*ACTIVE
 70
     0
 10
0.0
 20
0.0
 11
1.0
 21
1.0
 12
10.42990654205607
 22
4.5
 13
0.0
 23
0.0
 14
0.5
 24
0.5
 15
0.5
 25
0.5
 16
0.0
 26
0.0
 36
1.0
 17
0.0
 27
0.0
 37
0.0
 40
9.0
 41
1.972972972850329
 42
50.0
 43
0.0
 44
0.0
 50
0.0
 51
0.0
 71
     0
 72
   100
 73
     1
 74
     3
 75
     0
 76
     0
 77
     0
 78
     0
  0
ENDTAB
  0
TABLE
  2
LTYPE
  5
5
330
0
100
AcDbSymbolTable
 70
     1
  0
LTYPE
  5
14
330
5
100
AcDbSymbolTableRecord
100
AcDbLinetypeTableRecord
  2
BYBLOCK
 70
     0
  3

 72
    65
 73
     0
 40
0.0
  0
LTYPE
  5
15
330
5
100
AcDbSymbolTableRecord
100
AcDbLinetypeTableRecord
  2
BYLAYER
 70
     0
  3

 72
    65
 73
     0
 40
0.0
  0
LTYPE
  5
16
330
5
100
AcDbSymbolTableRecord
100
AcDbLinetypeTableRecord
  2
CONTINUOUS
 70
     0
  3
Solid line
 72
    65
 73
     0
 40
0.0
  0
ENDTAB
  0
TABLE
  2
LAYER
  5
2
330
0
100
AcDbSymbolTable
 70
     2
  0
LAYER
  5
10
330
2
100
AcDbSymbolTableRecord
100
AcDbLayerTableRecord
  2
0
 70
     0
 62
     7
  6
CONTINUOUS
  0
LAYER
  5
2B
330
2
100
AcDbSymbolTableRecord
100
AcDbLayerTableRecord
  2
LAYER_1
 70
     0
 62
     7
  6
CONTINUOUS
  0
ENDTAB
  0
TABLE
  2
STYLE
  5
3
330
0
100
AcDbSymbolTable
 70
     1
  0
STYLE
  5
11
330
3
100
AcDbSymbolTableRecord
100
AcDbTextStyleTableRecord
  2
STANDARD
 70
     0
 40
0.0
 41
1.0
 50
0.0
 71
     0
 42
0.2
  3
txt
  4

  0
ENDTAB
  0
TABLE
  2
VIEW
  5
6
330
0
100
AcDbSymbolTable
 70
     0
  0
ENDTAB
  0
TABLE
  2
UCS
  5
7
330
0
100
AcDbSymbolTable
 70
     0
  0
ENDTAB
  0
TABLE
  2
APPID
  5
9
330
0
100
AcDbSymbolTable
 70
     2
  0
APPID
  5
12
330
9
100
AcDbSymbolTableRecord
100
AcDbRegAppTableRecord
  2
ACAD
 70
     0
  0
APPID
  5
2A
330
9
100
AcDbSymbolTableRecord
100
AcDbRegAppTableRecord
  2
ODA
 70
     0
  0
ENDTAB
  0
TABLE
  2
DIMSTYLE
  5
A
330
0
100
AcDbSymbolTable
 70
     1
  0
DIMSTYLE
105
27
330
A
100
AcDbSymbolTableRecord
100
AcDbDimStyleTableRecord
  2
STANDARD
 70
     0
  3

  4

  5

  6

  7

 40
1.0
 41
0.18
 42
0.0625
 43
0.38
 44
0.18
 45
0.0
 46
0.0
 47
0.0
 48
0.0
140
0.18
141
0.09
142
0.0
143
25.4
144
1.0
145
0.0
146
1.0
147
0.09
 71
     0
 72
     0
 73
     1
 74
     1
 75
     0
 76
     0
 77
     0
 78
     0
170
     0
171
     2
172
     0
173
     0
174
     0
175
     0
176
     0
177
     0
178
     0
270
     2
271
     4
272
     4
273
     2
274
     2
340
11
275
     0
280
     0
281
     0
282
     0
283
     1
284
     0
285
     0
286
     0
287
     3
288
     0
  0
ENDTAB
  0
TABLE
  2
BLOCK_RECORD
  5
1
330
0
100
AcDbSymbolTable
 70
     1
  0
BLOCK_RECORD
  5
1F
330
1
100
AcDbSymbolTableRecord
100
AcDbBlockTableRecord
  2
*MODEL_SPACE
  0
BLOCK_RECORD
  5
1B
330
1
100
AcDbSymbolTableRecord
100
AcDbBlockTableRecord
  2
*PAPER_SPACE
  0
ENDTAB
  0
ENDSEC
  0
SECTION
  2
BLOCKS
  0
BLOCK
  5
20
330
1F
100
AcDbEntity
  8
0
100
AcDbBlockBegin
  2
*MODEL_SPACE
 70
     0
 71
     0
 10
0.0
 20
0.0
 30
0.0
  3
*MODEL_SPACE
  1

  0
ENDBLK
  5
21
330
1F
100
AcDbEntity
  8
0
100
AcDbBlockEnd
  0
BLOCK
  5
1C
330
1B
100
AcDbEntity
 67
     1
  8
0
100
AcDbBlockBegin
  2
*PAPER_SPACE
 70
     0
 71
     0
 10
0.0
 20
0.0
 30
0.0
  3
*PAPER_SPACE
  1

  0
ENDBLK
  5
1D
330
1B
100
AcDbEntity
 67
     1
  8
0
100
AcDbBlockEnd
  0
ENDSEC
  0
SECTION
  2
ENTITIES
  0
SPLINE
  5
2C
330
1F
100
AcDbEntity
  8
LAYER_1
 62
     7
100
AcDbSpline
210
0.0
220
0.0
230
1.0
 70
    11
 71
     3
 72
    28
 73
    24
 74
     0
 42
0.0000000001
 43
0.0000000001
 40
0.0
 40
0.0
 40
0.0
 40
0.0
 40
0.1666666666666667
 40
0.1666666666666667
 40
0.1666666666666667
 40
0.1666666666666667
 40
0.3333333333333333
 40
0.3333333333333333
 40
0.3333333333333333
 40
0.3333333333333333
 40
0.5
 40
0.5
 40
0.5
 40
0.5
 40
0.6666666666666666
 40
0.6666666666666666
 40
0.6666666666666666
 40
0.6666666666666666
 40
0.8333333333333333
 40
0.8333333333333333
 40
0.8333333333333333
 40
0.8333333333333333
 40
1.0
 40
1.0
 40
1.0
 40
1.0
 10
-1.109909448818898
 20
0.8807716535433071
 30
0.0
 10
-0.7764448818897638
 20
0.8831535433070866
 30
0.0
 10
-0.8848188976377953
 20
1.041551181102362
 30
0.0
 10
-0.6466299212598425
 20
1.05346062992126
 30
0.0
 10
-0.6466299212598425
 20
1.05346062992126
 30
0.0
 10
-0.6466299212598425
 20
1.05346062992126
 30
0.0
 10
-0.6299566929133859
 20
1.15588188976378
 30
0.0
 10
-0.6299566929133859
 20
1.15588188976378
 30
0.0
 10
-0.6299566929133859
 20
1.15588188976378
 30
0.0
 10
-0.6299566929133859
 20
1.15588188976378
 30
0.0
 10
0.0566220472440945
 20
1.15588188976378
 30
0.0
 10
0.0566220472440945
 20
1.15588188976378
 30
0.0
 10
0.0566220472440945
 20
1.15588188976378
 30
0.0
 10
0.0566220472440945
 20
1.15588188976378
 30
0.0
 10
0.0566220472440945
 20
0.7539370078740157
 30
0.0
 10
0.0566220472440945
 20
0.7539370078740157
 30
0.0
 10
0.0566220472440945
 20
0.7539370078740157
 30
0.0
 10
0.0566220472440945
 20
0.7539370078740157
 30
0.0
 10
-1.109909448818898
 20
0.7539370078740157
 30
0.0
 10
-1.109909448818898
 20
0.7539370078740157
 30
0.0
 10
-1.109909448818898
 20
0.7539370078740157
 30
0.0
 10
-1.109909448818898
 20
0.7539370078740157
 30
0.0
 10
-1.109909448818898
 20
0.8807716535433071
 30
0.0
 10
-1.109909448818898
 20
0.8807716535433071
 30
0.0
  0
SPLINE
  5
2D
330
1F
100
AcDbEntity
  8
LAYER_1
 62
   252
100
AcDbSpline
210
0.0
220
0.0
230
1.0
 70
    11
 71
     3
 72
    20
 73
    16
 74
     0
 42
0.0000000001
 43
0.0000000001
 40
0.0
 40
0.0
 40
0.0
 40
0.0
 40
0.25
 40
0.25
 40
0.25
 40
0.25
 40
0.5
 40
0.5
 40
0.5
 40
0.5
 40
0.75
 40
0.75
 40
0.75
 40
0.75
 40
1.0
 40
1.0
 40
1.0
 40
1.0
 10
0.3721732283464567
 20
2.322661417322835
 30
0.0
 10
0.3721732283464567
 20
2.322661417322835
 30
0.0
 10
1.024224409448819
 20
2.700244094488189
 30
0.0
 10
1.024224409448819
 20
2.700244094488189
 30
0.0
 10
1.024224409448819
 20
2.700244094488189
 30
0.0
 10
1.024224409448819
 20
2.700244094488189
 30
0.0
 10
0.994228346456693
 20
2.700909448818898
 30
0.0
 10
0.994228346456693
 20
2.700909448818898
 30
0.0
 10
0.994228346456693
 20
2.700909448818898
 30
0.0
 10
0.994228346456693
 20
2.700909448818898
 30
0.0
 10
0.3421771653543307
 20
2.323326771653544
 30
0.0
 10
0.3421771653543307
 20
2.323326771653544
 30
0.0
 10
0.3421771653543307
 20
2.323326771653544
 30
0.0
 10
0.3421771653543307
 20
2.323326771653544
 30
0.0
 10
0.3721732283464567
 20
2.322661417322835
 30
0.0
 10
0.3721732283464567
 20
2.322661417322835
 30
0.0
  0
SPLINE
  5
2E
330
1F
100
AcDbEntity
  8
LAYER_1
 62
   252
100
AcDbSpline
210
0.0
220
0.0
230
1.0
 70
    11
 71
     3
 72
    20
 73
    16
 74
     0
 42
0.0000000001
 43
0.0000000001
 40
0.0
 40
0.0
 40
0.0
 40
0.0
 40
0.25
 40
0.25
 40
0.25
 40
0.25
 40
0.5
 40
0.5
 40
0.5
 40
0.5
 40
0.75
 40
0.75
 40
0.75
 40
0.75
 40
1.0
 40
1.0
 40
1.0
 40
1.0
 10
0.3421771653543307
 20
2.323326771653544
 30
0.0
 10
0.3421771653543307
 20
2.323326771653544
 30
0.0
 10
0.994228346456693
 20
2.700909448818898
 30
0.0
 10
0.994228346456693
 20
2.700909448818898
 30
0.0
 10
0.994228346456693
 20
2.700909448818898
 30
0.0
 10
0.994228346456693
 20
2.700909448818898
 30
0.0
 10
0.9666811023622047
 20
2.702437007874016
 30
0.0
 10
0.9666811023622047
 20
2.702437007874016
 30
0.0
 10
0.9666811023622047
 20
2.702437007874016
 30
0.0
 10
0.9666811023622047
 20
2.702437007874016
 30
0.0
 10
0.3146299212598425
 20
2.324854330708662
 30
0.0
 10
0.3146299212598425
 20
2.324854330708662
 30
0.0
 10
0.3146299212598425
 20
2.324854330708662
 30
0.0
 10
0.3146299212598425
 20
2.324854330708662
 30
0.0
 10
0.3421771653543307
 20
2.323326771653544
 30
0.0
 10
0.3421771653543307
 20
2.323326771653544
 30
0.0
  0
SPLINE
  5
2F
330
1F
100
AcDbEntity
  8
LAYER_1
 62
   252
100
AcDbSpline
210
0.0
220
0.0
230
1.0
 70
    11
 71
     3
 72
    28
 73
    24
 74
     0
 42
0.0000000001
 43
0.0000000001
 40
0.0
 40
0.0
 40
0.0
 40
0.0
 40
0.1666666666666667
 40
0.1666666666666667
 40
0.1666666666666667
 40
0.1666666666666667
 40
0.3333333333333333
 40
0.3333333333333333
 40
0.3333333333333333
 40
0.3333333333333333
 40
0.5
 40
0.5
 40
0.5
 40
0.5
 40
0.6666666666666666
 40
0.6666666666666666
 40
0.6666666666666666
 40
0.6666666666666666
 40
0.8333333333333333
 40
0.8333333333333333
 40
0.8333333333333333
 40
0.8333333333333333
 40
1.0
 40
1.0
 40
1.0
 40
1.0
 10
0.3146299212598425
 20
2.324854330708662
 30
0.0
 10
0.3146299212598425
 20
2.324854330708662
 30
0.0
 10
0.9666811023622047
 20
2.702437007874016
 30
0.0
 10
0.9666811023622047
 20
2.702437007874016
 30
0.0
 10
0.9666811023622047
 20
2.702437007874016
 30
0.0
 10
0.9666811023622047
 20
2.702437007874016
 30
0.0
 10
0.9414330708661418
 20
2.704767716535433
 30
0.0
 10
0.9414330708661418
 20
2.704767716535433
 30
0.0
 10
0.9414330708661418
 20
2.704767716535433
 30
0.0
 10
0.9414330708661418
 20
2.704767716535433
 30
0.0
 10
0.9183425196850394
 20
2.707854330708662
 30
0.0
 10
0.9183425196850394
 20
2.707854330708662
 30
0.0
 10
0.9183425196850394
 20
2.707854330708662
 30
0.0
 10
0.9183425196850394
 20
2.707854330708662
 30
0.0
 10
0.2662913385826772
 20
2.330271653543307
 30
0.0
 10
0.2662913385826772
 20
2.330271653543307
 30
0.0
 10
0.2662913385826772
 20
2.330271653543307
 30
0.0
 10
0.2662913385826772
 20
2.330271653543307
 30
0.0
 10
0.2893818897637795
 20
2.327185039370079
 30
0.0
 10
0.2893818897637795
 20
2.327185039370079
 30
0.0
 10
0.2893818897637795
 20
2.327185039370079
 30
0.0
 10
0.2893818897637795
 20
2.327185039370079
 30
0.0
 10
0.3146299212598425
 20
2.324854330708662
 30
0.0
 10
0.3146299212598425
 20
2.324854330708662
 30
0.0
  0
SPLINE
  5
30
330
1F
100
AcDbEntity
  8
LAYER_1
 62
   252
100
AcDbSpline
210
0.0
220
0.0
230
1.0
 70
    11
 71
     3
 72
    28
 73
    24
 74
     0
 42
0.0000000001
 43
0.0000000001
 40
0.0
 40
0.0
 40
0.0
 40
0.0
 40
0.1666666666666667
 40
0.1666666666666667
 40
0.1666666666666667
 40
0.1666666666666667
 40
0.3333333333333333
 40
0.3333333333333333
 40
0.3333333333333333
 40
0.3333333333333333
 40
0.5
 40
0.5
 40
0.5
 40
0.5
 40
0.6666666666666666
 40
0.6666666666666666
 40
0.6666666666666666
 40
0.6666666666666666
 40
0.8333333333333333
 40
0.8333333333333333
 40
0.8333333333333333
 40
0.8333333333333333
 40
1.0
 40
1.0
 40
1.0
 40
1.0
 10
0.2662913385826772
 20
2.330271653543307
 30
0.0
 10
0.2662913385826772
 20
2.330271653543307
 30
0.0
 10
0.9183425196850394
 20
2.707854330708662
 30
0.0
 10
0.9183425196850394
 20
2.707854330708662
 30
0.0
 10
0.9183425196850394
 20
2.707854330708662
 30
0.0
 10
0.9183425196850394
 20
2.707854330708662
 30
0.0
 10
0.8972598425196851
 20
2.711625984251969
 30
0.0
 10
0.8972598425196851
 20
2.711625984251969
 30
0.0
 10
0.8972598425196851
 20
2.711625984251969
 30
0.0
 10
0.8972598425196851
 20
2.711625984251969
 30
0.0
 10
0.8780472440944882
 20
2.716035433070866
 30
0.0
 10
0.8780472440944882
 20
2.716035433070866
 30
0.0
 10
0.8780472440944882
 20
2.716035433070866
 30
0.0
 10
0.8780472440944882
 20
2.716035433070866
 30
0.0
 10
0.225996062992126
 20
2.338452755905512
 30
0.0
 10
0.225996062992126
 20
2.338452755905512
 30
0.0
 10
0.225996062992126
 20
2.338452755905512
 30
0.0
 10
0.225996062992126
 20
2.338452755905512
 30
0.0
 10
0.2452086614173228
 20
2.334043307086614
 30
0.0
 10
0.2452086614173228
 20
2.334043307086614
 30
0.0
 10
0.2452086614173228
 20
2.334043307086614
 30
0.0
 10
0.2452086614173228
 20
2.334043307086614
 30
0.0
 10
0.2662913385826772
 20
2.330271653543307
 30
0.0
 10
0.2662913385826772
 20
2.330271653543307
 30
0.0
  0
SPLINE
  5
31
330
1F
100
AcDbEntity
  8
LAYER_1
 62
   252
100
AcDbSpline
210
0.0
220
0.0
230
1.0
 70
    11
 71
     3
 72
    28
 73
    24
 74
     0
 42
0.0000000001
 43
0.0000000001
 40
0.0
 40
0.0
 40
0.0
 40
0.0
 40
0.1666666666666667
 40
0.1666666666666667
 40
0.1666666666666667
 40
0.1666666666666667
 40
0.3333333333333333
 40
0.3333333333333333
 40
0.3333333333333333
 40
0.3333333333333333
 40
0.5
 40
0.5
 40
0.5
 40
0.5
 40
0.6666666666666666
 40
0.6666666666666666
 40
0.6666666666666666
 40
0.6666666666666666
 40
0.8333333333333333
 40
0.8333333333333333
 40
0.8333333333333333
 40
0.8333333333333333
 40
1.0
 40
1.0
 40
1.0
 40
1.0
 10
0.225996062992126
 20
2.338452755905512
 30
0.0
 10
0.225996062992126
 20
2.338452755905512
 30
0.0
 10
0.8780472440944882
 20
2.716035433070866
 30
0.0
 10
0.8780472440944882
 20
2.716035433070866
 30
0.0
 10
0.8780472440944882
 20
2.716035433070866
 30
0.0
 10
0.8780472440944882
 20
2.716035433070866
 30
0.0
 10
0.8605551181102362
 20
2.721027559055118
 30
0.0
 10
0.8605551181102362
 20
2.721027559055118
 30
0.0
 10
0.8605551181102362
 20
2.721027559055118
 30
0.0
 10
0.8605551181102362
 20
2.721027559055118
 30
0.0
 10
0.8446496062992126
 20
2.726551181102362
 30
0.0
 10
0.8446496062992126
 20
2.726551181102362
 30
0.0
 10
0.8446496062992126
 20
2.726551181102362
 30
0.0
 10
0.8446496062992126
 20
2.726551181102362
 30
0.0
 10
0.1925984251968504
 20
2.348968503937008
 30
0.0
 10
0.1925984251968504
 20
2.348968503937008
 30
0.0
 10
0.1925984251968504
 20
2.348968503937008
 30
0.0
 10
0.1925984251968504
 20
2.348968503937008
 30
0.0
 10
0.208503937007874
 20
2.343444881889764
 30
0.0
 10
0.208503937007874
 20
2.343444881889764
 30
0.0
 10
0.208503937007874
 20
2.343444881889764
 30
0.0
 10
0.208503937007874
 20
2.343444881889764
 30
0.0
 10
0.225996062992126
 20
2.338452755905512
 30
0.0
 10
0.225996062992126
 20
2.338452755905512
 30
0.0
  0
SPLINE
  5
32
330
1F
100
AcDbEntity
  8
LAYER_1
 62
   252
100
AcDbSpline
210
0.0
220
0.0
230
1.0
 70
    11
 71
     3
 72
    36
 73
    32
 74
     0
 42
0.0000000001
 43
0.0000000001
 40
0.0
 40
0.0
 40
0.0
 40
0.0
 40
0.125
 40
0.125
 40
0.125
 40
0.125
 40
0.25
 40
0.25
 40
0.25
 40
0.25
 40
0.375
 40
0.375
 40
0.375
 40
0.375
 40
0.5
 40
0.5
 40
0.5
 40
0.5
 40
0.625
 40
0.625
 40
0.625
 40
0.625
 40
0.75
 40
0.75
 40
0.75
 40
0.75
 40
0.875
 40
0.875
 40
0.875
 40
0.875
 40
1.0
 40
1.0
 40
1.0
 40
1.0
 10
0.1925984251968504
 20
2.348968503937008
 30
0.0
 10
0.1925984251968504
 20
2.348968503937008
 30
0.0
 10
0.8446496062992126
 20
2.726551181102362
 30
0.0
 10
0.8446496062992126
 20
2.726551181102362
 30
0.0
 10
0.8446496062992126
 20
2.726551181102362
 30
0.0
 10
0.8446496062992126
 20
2.726551181102362
 30
0.0
 10
0.8301692913385828
 20
2.732535433070866
 30
0.0
 10
0.8301692913385828
 20
2.732535433070866
 30
0.0
 10
0.8301692913385828
 20
2.732535433070866
 30
0.0
 10
0.8301692913385828
 20
2.732535433070866
 30
0.0
 10
0.816984251968504
 20
2.738944881889764
 30
0.0
 10
0.816984251968504
 20
2.738944881889764
 30
0.0
 10
0.816984251968504
 20
2.738944881889764
 30
0.0
 10
0.816984251968504
 20
2.738944881889764
 30
0.0
 10
0.8049448818897638
 20
2.745708661417323
 30
0.0
 10
0.8049448818897638
 20
2.745708661417323
 30
0.0
 10
0.8049448818897638
 20
2.745708661417323
 30
0.0
 10
0.8049448818897638
 20
2.745708661417323
 30
0.0
 10
0.1528937007874016
 20
2.368125984251968
 30
0.0
 10
0.1528937007874016
 20
2.368125984251968
 30
0.0
 10
0.1528937007874016
 20
2.368125984251968
 30
0.0
 10
0.1528937007874016
 20
2.368125984251968
 30
0.0
 10
0.1649330708661417
 20
2.36136220472441
 30
0.0
 10
0.1649330708661417
 20
2.36136220472441
 30
0.0
 10
0.1649330708661417
 20
2.36136220472441
 30
0.0
 10
0.1649330708661417
 20
2.36136220472441
 30
0.0
 10
0.1781181102362205
 20
2.354952755905512
 30
0.0
 10
0.1781181102362205
 20
2.354952755905512
 30
0.0
 10
0.1781181102362205
 20
2.354952755905512
 30
0.0
 10
0.1781181102362205
 20
2.354952755905512
 30
0.0
 10
0.1925984251968504
 20
2.348968503937008
 30
0.0
 10
0.1925984251968504
 20
2.348968503937008
 30
0.0
  0
SPLINE
  5
33
330
1F
100
AcDbEntity
  8
LAYER_1
 62
   253
100
AcDbSpline
210
0.0
220
0.0
230
1.0
 70
    11
 71
     3
 72
    44
 73
    40
 74
     0
 42
0.0000000001
 43
0.0000000001
 40
0.0
 40
0.0
 40
0.0
 40
0.0
 40
0.1
 40
0.1
 40
0.1
 40
0.1
 40
0.2
 40
0.2
 40
0.2
 40
0.2
 40
0.3
 40
0.3
 40
0.3
 40
0.3
 40
0.4
 40
0.4
 40
0.4
 40
0.4
 40
0.5
 40
0.5
 40
0.5
 40
0.5
 40
0.6
 40
0.6
 40
0.6
 40
0.6
 40
0.7
 40
0.7
 40
0.7
 40
0.7
 40
0.7999999999999999
 40
0.7999999999999999
 40
0.7999999999999999
 40
0.7999999999999999
 40
0.8999999999999999
 40
0.8999999999999999
 40
0.8999999999999999
 40
0.8999999999999999
 40
1.0
 40
1.0
 40
1.0
 40
1.0
 10
0.1528937007874016
 20
2.368125984251968
 30
0.0
 10
0.1528937007874016
 20
2.368125984251968
 30
0.0
 10
0.8049448818897638
 20
2.745708661417323
 30
0.0
 10
0.8049448818897638
 20
2.745708661417323
 30
0.0
 10
0.8049448818897638
 20
2.745708661417323
 30
0.0
 10
0.8049448818897638
 20
2.745708661417323
 30
0.0
 10
0.7939015748031496
 20
2.752783464566929
 30
0.0
 10
0.7939015748031496
 20
2.752783464566929
 30
0.0
 10
0.7939015748031496
 20
2.752783464566929
 30
0.0
 10
0.7939015748031496
 20
2.752783464566929
 30
0.0
 10
0.7837204724409449
 20
2.760102362204725
 30
0.0
 10
0.7837204724409449
 20
2.760102362204725
 30
0.0
 10
0.7837204724409449
 20
2.760102362204725
 30
0.0
 10
0.7837204724409449
 20
2.760102362204725
 30
0.0
 10
0.774248031496063
 20
2.767618110236221
 30
0.0
 10
0.774248031496063
 20
2.767618110236221
 30
0.0
 10
0.774248031496063
 20
2.767618110236221
 30
0.0
 10
0.774248031496063
 20
2.767618110236221
 30
0.0
 10
0.7653425196850394
 20
2.775271653543307
 30
0.0
 10
0.7653425196850394
 20
2.775271653543307
 30
0.0
 10
0.7653425196850394
 20
2.775271653543307
 30
0.0
 10
0.7653425196850394
 20
2.775271653543307
 30
0.0
 10
0.1132913385826772
 20
2.397688976377953
 30
0.0
 10
0.1132913385826772
 20
2.397688976377953
 30
0.0
 10
0.1132913385826772
 20
2.397688976377953
 30
0.0
 10
0.1132913385826772
 20
2.397688976377953
 30
0.0
 10
0.1221968503937008
 20
2.390035433070866
 30
0.0
 10
0.1221968503937008
 20
2.390035433070866
 30
0.0
 10
0.1221968503937008
 20
2.390035433070866
 30
0.0
 10
0.1221968503937008
 20
2.390035433070866
 30
0.0
 10
0.1316692913385827
 20
2.38251968503937
 30
0.0
 10
0.1316692913385827
 20
2.38251968503937
 30
0.0
 10
0.1316692913385827
 20
2.38251968503937
 30
0.0
 10
0.1316692913385827
 20
2.38251968503937
 30
0.0
 10
0.1418503937007874
 20
2.375200787401575
 30
0.0
 10
0.1418503937007874
 20
2.375200787401575
 30
0.0
 10
0.1418503937007874
 20
2.375200787401575
 30
0.0
 10
0.1418503937007874
 20
2.375200787401575
 30
0.0
 10
0.1528937007874016
 20
2.368125984251968
 30
0.0
 10
0.1528937007874016
 20
2.368125984251968
 30
0.0
  0
SPLINE
  5
34
330
1F
100
AcDbEntity
  8
LAYER_1
 62
   253
100
AcDbSpline
210
0.0
220
0.0
230
1.0
 70
    11
 71
     3
 72
    44
 73
    40
 74
     0
 42
0.0000000001
 43
0.0000000001
 40
0.0
 40
0.0
 40
0.0
 40
0.0
 40
0.1
 40
0.1
 40
0.1
 40
0.1
 40
0.2
 40
0.2
 40
0.2
 40
0.2
 40
0.3
 40
0.3
 40
0.3
 40
0.3
 40
0.4
 40
0.4
 40
0.4
 40
0.4
 40
0.5
 40
0.5
 40
0.5
 40
0.5
 40
0.6
 40
0.6
 40
0.6
 40
0.6
 40
0.7
 40
0.7
 40
0.7
 40
0.7
 40
0.7999999999999999
 40
0.7999999999999999
 40
0.7999999999999999
 40
0.7999999999999999
 40
0.8999999999999999
 40
0.8999999999999999
 40
0.8999999999999999
 40
0.8999999999999999
 40
1.0
 40
1.0
 40
1.0
 40
1.0
 10
0.1132913385826772
 20
2.397688976377953
 30
0.0
 10
0.1132913385826772
 20
2.397688976377953
 30
0.0
 10
0.7653425196850394
 20
2.775271653543307
 30
0.0
 10
0.7653425196850394
 20
2.775271653543307
 30
0.0
 10
0.7653425196850394
 20
2.775271653543307
 30
0.0
 10
0.7653425196850394
 20
2.775271653543307
 30
0.0
 10
0.7568582677165354
 20
2.783011811023622
 30
0.0
 10
0.7568582677165354
 20
2.783011811023622
 30
0.0
 10
0.7568582677165354
 20
2.783011811023622
 30
0.0
 10
0.7568582677165354
 20
2.783011811023622
 30
0.0
 10
0.7486614173228346
 20
2.790771653543307
 30
0.0
 10
0.7486614173228346
 20
2.790771653543307
 30
0.0
 10
0.7486614173228346
 20
2.790771653543307
 30
0.0
 10
0.7486614173228346
 20
2.790771653543307
 30
0.0
 10
0.7405905511811024
 20
2.798507874015748
 30
0.0
 10
0.7405905511811024
 20
2.798507874015748
 30
0.0
 10
0.7405905511811024
 20
2.798507874015748
 30
0.0
 10
0.7405905511811024
 20
2.798507874015748
 30
0.0
 10
0.7325157480314961
 20
2.806161417322835
 30
0.0
 10
0.7325157480314961
 20
2.806161417322835
 30
0.0
 10
0.7325157480314961
 20
2.806161417322835
 30
0.0
 10
0.7325157480314961
 20
2.806161417322835
 30
0.0
 10
0.0804645669291339
 20
2.428578740157481
 30
0.0
 10
0.0804645669291339
 20
2.428578740157481
 30
0.0
 10
0.0804645669291339
 20
2.428578740157481
 30
0.0
 10
0.0804645669291339
 20
2.428578740157481
 30
0.0
 10
0.0885393700787402
 20
2.420925196850394
 30
0.0
 10
0.0885393700787402
 20
2.420925196850394
 30
0.0
 10
0.0885393700787402
 20
2.420925196850394
 30
0.0
 10
0.0885393700787402
 20
2.420925196850394
 30
0.0
 10
0.0966102362204724
 20
2.413188976377953
 30
0.0
 10
0.0966102362204724
 20
2.413188976377953
 30
0.0
 10
0.0966102362204724
 20
2.413188976377953
 30
0.0
 10
0.0966102362204724
 20
2.413188976377953
 30
0.0
 10
0.1048070866141732
 20
2.405429133858268
 30
0.0
 10
0.1048070866141732
 20
2.405429133858268
 30
0.0
 10
0.1048070866141732
 20
2.405429133858268
 30
0.0
 10
0.1048070866141732
 20
2.405429133858268
 30
0.0
 10
0.1132913385826772
 20
2.397688976377953
 30
0.0
 10
0.1132913385826772
 20
2.397688976377953
 30
0.0
  0
SPLINE
  5
35
330
1F
100
AcDbEntity
  8
LAYER_1
 62
   253
100
AcDbSpline
210
0.0
220
0.0
230
1.0
 70
    11
 71
     3
 72
    44
 73
    40
 74
     0
 42
0.0000000001
 43
0.0000000001
 40
0.0
 40
0.0
 40
0.0
 40
0.0
 40
0.1
 40
0.1
 40
0.1
 40
0.1
 40
0.2
 40
0.2
 40
0.2
 40
0.2
 40
0.3
 40
0.3
 40
0.3
 40
0.3
 40
0.4
 40
0.4
 40
0.4
 40
0.4
 40
0.5
 40
0.5
 40
0.5
 40
0.5
 40
0.6
 40
0.6
 40
0.6
 40
0.6
 40
0.7
 40
0.7
 40
0.7
 40
0.7
 40
0.7999999999999999
 40
0.7999999999999999
 40
0.7999999999999999
 40
0.7999999999999999
 40
0.8999999999999999
 40
0.8999999999999999
 40
0.8999999999999999
 40
0.8999999999999999
 40
1.0
 40
1.0
 40
1.0
 40
1.0
 10
0.0804645669291339
 20
2.428578740157481
 30
0.0
 10
0.0804645669291339
 20
2.428578740157481
 30
0.0
 10
0.7325157480314961
 20
2.806161417322835
 30
0.0
 10
0.7325157480314961
 20
2.806161417322835
 30
0.0
 10
0.7325157480314961
 20
2.806161417322835
 30
0.0
 10
0.7325157480314961
 20
2.806161417322835
 30
0.0
 10
0.7242795275590551
 20
2.813677165354331
 30
0.0
 10
0.7242795275590551
 20
2.813677165354331
 30
0.0
 10
0.7242795275590551
 20
2.813677165354331
 30
0.0
 10
0.7242795275590551
 20
2.813677165354331
 30
0.0
 10
0.715755905511811
 20
2.820996062992126
 30
0.0
 10
0.715755905511811
 20
2.820996062992126
 30
0.0
 10
0.715755905511811
 20
2.820996062992126
 30
0.0
 10
0.715755905511811
 20
2.820996062992126
 30
0.0
 10
0.7067795275590552
 20
2.828070866141732
 30
0.0
 10
0.7067795275590552
 20
2.828070866141732
 30
0.0
 10
0.7067795275590552
 20
2.828070866141732
 30
0.0
 10
0.7067795275590552
 20
2.828070866141732
 30
0.0
 10
0.6972244094488189
 20
2.83484251968504
 30
0.0
 10
0.6972244094488189
 20
2.83484251968504
 30
0.0
 10
0.6972244094488189
 20
2.83484251968504
 30
0.0
 10
0.6972244094488189
 20
2.83484251968504
 30
0.0
 10
0.0451732283464567
 20
2.457259842519685
 30
0.0
 10
0.0451732283464567
 20
2.457259842519685
 30
0.0
 10
0.0451732283464567
 20
2.457259842519685
 30
0.0
 10
0.0451732283464567
 20
2.457259842519685
 30
0.0
 10
0.0547283464566929
 20
2.450488188976378
 30
0.0
 10
0.0547283464566929
 20
2.450488188976378
 30
0.0
 10
0.0547283464566929
 20
2.450488188976378
 30
0.0
 10
0.0547283464566929
 20
2.450488188976378
 30
0.0
 10
0.0637047244094488
 20
2.443413385826772
 30
0.0
 10
0.0637047244094488
 20
2.443413385826772
 30
0.0
 10
0.0637047244094488
 20
2.443413385826772
 30
0.0
 10
0.0637047244094488
 20
2.443413385826772
 30
0.0
 10
0.0722283464566929
 20
2.436094488188977
 30
0.0
 10
0.0722283464566929
 20
2.436094488188977
 30
0.0
 10
0.0722283464566929
 20
2.436094488188977
 30
0.0
 10
0.0722283464566929
 20
2.436094488188977
 30
0.0
 10
0.0804645669291339
 20
2.428578740157481
 30
0.0
 10
0.0804645669291339
 20
2.428578740157481
 30
0.0
  0
SPLINE
  5
36
330
1F
100
AcDbEntity
  8
LAYER_1
 62
   253
100
AcDbSpline
210
0.0
220
0.0
230
1.0
 70
    11
 71
     3
 72
    36
 73
    32
 74
     0
 42
0.0000000001
 43
0.0000000001
 40
0.0
 40
0.0
 40
0.0
 40
0.0
 40
0.125
 40
0.125
 40
0.125
 40
0.125
 40
0.25
 40
0.25
 40
0.25
 40
0.25
 40
0.375
 40
0.375
 40
0.375
 40
0.375
 40
0.5
 40
0.5
 40
0.5
 40
0.5
 40
0.625
 40
0.625
 40
0.625
 40
0.625
 40
0.75
 40
0.75
 40
0.75
 40
0.75
 40
0.875
 40
0.875
 40
0.875
 40
0.875
 40
1.0
 40
1.0
 40
1.0
 40
1.0
 10
0.0451732283464567
 20
2.457259842519685
 30
0.0
 10
0.0451732283464567
 20
2.457259842519685
 30
0.0
 10
0.6972244094488189
 20
2.83484251968504
 30
0.0
 10
0.6972244094488189
 20
2.83484251968504
 30
0.0
 10
0.6972244094488189
 20
2.83484251968504
 30
0.0
 10
0.6972244094488189
 20
2.83484251968504
 30
0.0
 10
0.6869291338582677
 20
2.841255905511811
 30
0.0
 10
0.6869291338582677
 20
2.841255905511811
 30
0.0
 10
0.6869291338582677
 20
2.841255905511811
 30
0.0
 10
0.6869291338582677
 20
2.841255905511811
 30
0.0
 10
0.6757677165354331
 20
2.847244094488189
 30
0.0
 10
0.6757677165354331
 20
2.847244094488189
 30
0.0
 10
0.6757677165354331
 20
2.847244094488189
 30
0.0
 10
0.6757677165354331
 20
2.847244094488189
 30
0.0
 10
0.6635787401574803
 20
2.852767716535433
 30
0.0
 10
0.6635787401574803
 20
2.852767716535433
 30
0.0
 10
0.6635787401574803
 20
2.852767716535433
 30
0.0
 10
0.6635787401574803
 20
2.852767716535433
 30
0.0
 10
0.0115275590551181
 20
2.475185039370079
 30
0.0
 10
0.0115275590551181
 20
2.475185039370079
 30
0.0
 10
0.0115275590551181
 20
2.475185039370079
 30
0.0
 10
0.0115275590551181
 20
2.475185039370079
 30
0.0
 10
0.0237165354330709
 20
2.469661417322835
 30
0.0
 10
0.0237165354330709
 20
2.469661417322835
 30
0.0
 10
0.0237165354330709
 20
2.469661417322835
 30
0.0
 10
0.0237165354330709
 20
2.469661417322835
 30
0.0
 10
0.0348779527559055
 20
2.463673228346457
 30
0.0
 10
0.0348779527559055
 20
2.463673228346457
 30
0.0
 10
0.0348779527559055
 20
2.463673228346457
 30
0.0
 10
0.0348779527559055
 20
2.463673228346457
 30
0.0
 10
0.0451732283464567
 20
2.457259842519685
 30
0.0
 10
0.0451732283464567
 20
2.457259842519685
 30
0.0
  0
SPLINE
  5
37
330
1F
100
AcDbEntity
  8
LAYER_1
 62
   252
100
AcDbSpline
210
0.0
220
0.0
230
1.0
 70
    11
 71
     3
 72
    36
 73
    32
 74
     0
 42
0.0000000001
 43
0.0000000001
 40
0.0
 40
0.0
 40
0.0
 40
0.0
 40
0.125
 40
0.125
 40
0.125
 40
0.125
 40
0.25
 40
0.25
 40
0.25
 40
0.25
 40
0.375
 40
0.375
 40
0.375
 40
0.375
 40
0.5
 40
0.5
 40
0.5
 40
0.5
 40
0.625
 40
0.625
 40
0.625
 40
0.625
 40
0.75
 40
0.75
 40
0.75
 40
0.75
 40
0.875
 40
0.875
 40
0.875
 40
0.875
 40
1.0
 40
1.0
 40
1.0
 40
1.0
 10
0.0115275590551181
 20
2.475185039370079
 30
0.0
 10
0.0115275590551181
 20
2.475185039370079
 30
0.0
 10
0.6635787401574803
 20
2.852767716535433
 30
0.0
 10
0.6635787401574803
 20
2.852767716535433
 30
0.0
 10
0.6635787401574803
 20
2.852767716535433
 30
0.0
 10
0.6635787401574803
 20
2.852767716535433
 30
0.0
 10
0.6502283464566929
 20
2.857763779527559
 30
0.0
 10
0.6502283464566929
 20
2.857763779527559
 30
0.0
 10
0.6502283464566929
 20
2.857763779527559
 30
0.0
 10
0.6502283464566929
 20
2.857763779527559
 30
0.0
 10
0.6355629921259843
 20
2.862185039370079
 30
0.0
 10
0.6355629921259843
 20
2.862185039370079
 30
0.0
 10
0.6355629921259843
 20
2.862185039370079
 30
0.0
 10
0.6355629921259843
 20
2.862185039370079
 30
0.0
 10
0.6194566929133859
 20
2.86596062992126
 30
0.0
 10
0.6194566929133859
 20
2.86596062992126
 30
0.0
 10
0.6194566929133859
 20
2.86596062992126
 30
0.0
 10
0.6194566929133859
 20
2.86596062992126
 30
0.0
 10
-0.0325944881889764
 20
2.488377952755906
 30
0.0
 10
-0.0325944881889764
 20
2.488377952755906
 30
0.0
 10
-0.0325944881889764
 20
2.488377952755906
 30
0.0
 10
-0.0325944881889764
 20
2.488377952755906
 30
0.0
 10
-0.016488188976378
 20
2.484602362204725
 30
0.0
 10
-0.016488188976378
 20
2.484602362204725
 30
0.0
 10
-0.016488188976378
 20
2.484602362204725
 30
0.0
 10
-0.016488188976378
 20
2.484602362204725
 30
0.0
 10
-0.0018228346456693
 20
2.480181102362205
 30
0.0
 10
-0.0018228346456693
 20
2.480181102362205
 30
0.0
 10
-0.0018228346456693
 20
2.480181102362205
 30
0.0
 10
-0.0018228346456693
 20
2.480181102362205
 30
0.0
 10
0.0115275590551181
 20
2.475185039370079
 30
0.0
 10
0.0115275590551181
 20
2.475185039370079
 30
0.0
  0
SPLINE
  5
38
330
1F
100
AcDbEntity
  8
LAYER_1
 62
   252
100
AcDbSpline
210
0.0
220
0.0
230
1.0
 70
    11
 71
     3
 72
    28
 73
    24
 74
     0
 42
0.0000000001
 43
0.0000000001
 40
0.0
 40
0.0
 40
0.0
 40
0.0
 40
0.1666666666666667
 40
0.1666666666666667
 40
0.1666666666666667
 40
0.1666666666666667
 40
0.3333333333333333
 40
0.3333333333333333
 40
0.3333333333333333
 40
0.3333333333333333
 40
0.5
 40
0.5
 40
0.5
 40
0.5
 40
0.6666666666666666
 40
0.6666666666666666
 40
0.6666666666666666
 40
0.6666666666666666
 40
0.8333333333333333
 40
0.8333333333333333
 40
0.8333333333333333
 40
0.8333333333333333
 40
1.0
 40
1.0
 40
1.0
 40
1.0
 10
-0.0325944881889764
 20
2.488377952755906
 30
0.0
 10
-0.0325944881889764
 20
2.488377952755906
 30
0.0
 10
0.6194566929133859
 20
2.86596062992126
 30
0.0
 10
0.6194566929133859
 20
2.86596062992126
 30
0.0
 10
0.6194566929133859
 20
2.86596062992126
 30
0.0
 10
0.6194566929133859
 20
2.86596062992126
 30
0.0
 10
0.601744094488189
 20
2.869051181102362
 30
0.0
 10
0.601744094488189
 20
2.869051181102362
 30
0.0
 10
0.601744094488189
 20
2.869051181102362
 30
0.0
 10
0.601744094488189
 20
2.869051181102362
 30
0.0
 10
0.5822913385826772
 20
2.871389763779528
 30
0.0
 10
0.5822913385826772
 20
2.871389763779528
 30
0.0
 10
0.5822913385826772
 20
2.871389763779528
 30
0.0
 10
0.5822913385826772
 20
2.871389763779528
 30
0.0
 10
-0.069759842519685
 20
2.493807086614174
 30
0.0
 10
-0.069759842519685
 20
2.493807086614174
 30
0.0
 10
-0.069759842519685
 20
2.493807086614174
 30
0.0
 10
-0.069759842519685
 20
2.493807086614174
 30
0.0
 10
-0.0503070866141732
 20
2.491468503937008
 30
0.0
 10
-0.0503070866141732
 20
2.491468503937008
 30
0.0
 10
-0.0503070866141732
 20
2.491468503937008
 30
0.0
 10
-0.0503070866141732
 20
2.491468503937008
 30
0.0
 10
-0.0325944881889764
 20
2.488377952755906
 30
0.0
 10
-0.0325944881889764
 20
2.488377952755906
 30
0.0
  0
SPLINE
  5
39
330
1F
100
AcDbEntity
  8
LAYER_1
 62
   252
100
AcDbSpline
210
0.0
220
0.0
230
1.0
 70
    11
 71
     3
 72
    20
 73
    16
 74
     0
 42
0.0000000001
 43
0.0000000001
 40
0.0
 40
0.0
 40
0.0
 40
0.0
 40
0.25
 40
0.25
 40
0.25
 40
0.25
 40
0.5
 40
0.5
 40
0.5
 40
0.5
 40
0.75
 40
0.75
 40
0.75
 40
0.75
 40
1.0
 40
1.0
 40
1.0
 40
1.0
 10
-0.069759842519685
 20
2.493807086614174
 30
0.0
 10
-0.069759842519685
 20
2.493807086614174
 30
0.0
 10
0.5822913385826772
 20
2.871389763779528
 30
0.0
 10
0.5822913385826772
 20
2.871389763779528
 30
0.0
 10
0.5822913385826772
 20
2.871389763779528
 30
0.0
 10
0.5822913385826772
 20
2.871389763779528
 30
0.0
 10
0.5609448818897638
 20
2.872933070866142
 30
0.0
 10
0.5609448818897638
 20
2.872933070866142
 30
0.0
 10
0.5609448818897638
 20
2.872933070866142
 30
0.0
 10
0.5609448818897638
 20
2.872933070866142
 30
0.0
 10
-0.0911062992125984
 20
2.495350393700788
 30
0.0
 10
-0.0911062992125984
 20
2.495350393700788
 30
0.0
 10
-0.0911062992125984
 20
2.495350393700788
 30
0.0
 10
-0.0911062992125984
 20
2.495350393700788
 30
0.0
 10
-0.069759842519685
 20
2.493807086614174
 30
0.0
 10
-0.069759842519685
 20
2.493807086614174
 30
0.0
  0
SPLINE
  5
3A
330
1F
100
AcDbEntity
  8
LAYER_1
 62
   250
100
AcDbSpline
210
0.0
220
0.0
230
1.0
 70
    11
 71
     3
 72
   268
 73
   264
 74
     0
 42
0.0000000001
 43
0.0000000001
 40
0.0
 40
0.0
 40
0.0
 40
0.0
 40
0.0151515151515152
 40
0.0151515151515152
 40
0.0151515151515152
 40
0.0151515151515152
 40
0.0303030303030303
 40
0.0303030303030303
 40
0.0303030303030303
 40
0.0303030303030303
 40
0.0454545454545455
 40
0.0454545454545455
 40
0.0454545454545455
 40
0.0454545454545455
 40
0.0606060606060606
 40
0.0606060606060606
 40
0.0606060606060606
 40
0.0606060606060606
 40
0.0757575757575758
 40
0.0757575757575758
 40
0.0757575757575758
 40
0.0757575757575758
 40
0.0909090909090909
 40
0.0909090909090909
 40
0.0909090909090909
 40
0.0909090909090909
 40
0.1060606060606061
 40
0.1060606060606061
 40
0.1060606060606061
 40
0.1060606060606061
 40
0.1212121212121212
 40
0.1212121212121212
 40
0.1212121212121212
 40
0.1212121212121212
 40
0.1363636363636364
 40
0.1363636363636364
 40
0.1363636363636364
 40
0.1363636363636364
 40
0.1515151515151515
 40
0.1515151515151515
 40
0.1515151515151515
 40
0.1515151515151515
 40
0.1666666666666666
 40
0.1666666666666666
 40
0.1666666666666666
 40
0.1666666666666666
 40
0.1818181818181818
 40
0.1818181818181818
 40
0.1818181818181818
 40
0.1818181818181818
 40
0.1969696969696969
 40
0.1969696969696969
 40
0.1969696969696969
 40
0.1969696969696969
 40
0.212121212121212
 40
0.212121212121212
 40
0.212121212121212
 40
0.212121212121212
 40
0.2272727272727272
 40
0.2272727272727272
 40
0.2272727272727272
 40
0.2272727272727272
 40
0.2424242424242423
 40
0.2424242424242423
 40
0.2424242424242423
 40
0.2424242424242423
 40
0.2575757575757575
 40
0.2575757575757575
 40
0.2575757575757575
 40
0.2575757575757575
 40
0.2727272727272726
 40
0.2727272727272726
 40
0.2727272727272726
 40
0.2727272727272726
 40
0.2878787878787877
 40
0.2878787878787877
 40
0.2878787878787877
 40
0.2878787878787877
 40
0.3030303030303029
 40
0.3030303030303029
 40
0.3030303030303029
 40
0.3030303030303029
 40
0.318181818181818
 40
0.318181818181818
 40
0.318181818181818
 40
0.318181818181818
 40
0.3333333333333332
 40
0.3333333333333332
 40
0.3333333333333332
 40
0.3333333333333332
 40
0.3484848484848483
 40
0.3484848484848483
 40
0.3484848484848483
 40
0.3484848484848483
 40
0.3636363636363634
 40
0.3636363636363634
 40
0.3636363636363634
 40
0.3636363636363634
 40
0.3787878787878786
 40
0.3787878787878786
 40
0.3787878787878786
 40
0.3787878787878786
 40
0.3939393939393937
 40
0.3939393939393937
 40
0.3939393939393937
 40
0.3939393939393937
 40
0.4090909090909088
 40
0.4090909090909088
 40
0.4090909090909088
 40
0.4090909090909088
 40
0.424242424242424
 40
0.424242424242424
 40
0.424242424242424
 40
0.424242424242424
 40
0.4393939393939391
 40
0.4393939393939391
 40
0.4393939393939391
 40
0.4393939393939391
 40
0.4545454545454543
 40
0.4545454545454543
 40
0.4545454545454543
 40
0.4545454545454543
 40
0.4696969696969694
 40
0.4696969696969694
 40
0.4696969696969694
 40
0.4696969696969694
 40
0.4848484848484845
 40
0.4848484848484845
 40
0.4848484848484845
 40
0.4848484848484845
 40
0.4999999999999997
 40
0.4999999999999997
 40
0.4999999999999997
 40
0.4999999999999997
 40
0.5151515151515148
 40
0.5151515151515148
 40
0.5151515151515148
 40
0.5151515151515148
 40
0.5303030303030299
 40
0.5303030303030299
 40
0.5303030303030299
 40
0.5303030303030299
 40
0.5454545454545451
 40
0.5454545454545451
 40
0.5454545454545451
 40
0.5454545454545451
 40
0.5606060606060602
 40
0.5606060606060602
 40
0.5606060606060602
 40
0.5606060606060602
 40
0.5757575757575754
 40
0.5757575757575754
 40
0.5757575757575754
 40
0.5757575757575754
 40
0.5909090909090905
 40
0.5909090909090905
 40
0.5909090909090905
 40
0.5909090909090905
 40
0.6060606060606056
 40
0.6060606060606056
 40
0.6060606060606056
 40
0.6060606060606056
 40
0.6212121212121208
 40
0.6212121212121208
 40
0.6212121212121208
 40
0.6212121212121208
 40
0.6363636363636359
 40
0.6363636363636359
 40
0.6363636363636359
 40
0.6363636363636359
 40
0.6515151515151511
 40
0.6515151515151511
 40
0.6515151515151511
 40
0.6515151515151511
 40
0.6666666666666662
 40
0.6666666666666662
 40
0.6666666666666662
 40
0.6666666666666662
 40
0.6818181818181813
 40
0.6818181818181813
 40
0.6818181818181813
 40
0.6818181818181813
 40
0.6969696969696965
 40
0.6969696969696965
 40
0.6969696969696965
 40
0.6969696969696965
 40
0.7121212121212116
 40
0.7121212121212116
 40
0.7121212121212116
 40
0.7121212121212116
 40
0.7272727272727267
 40
0.7272727272727267
 40
0.7272727272727267
 40
0.7272727272727267
 40
0.7424242424242419
 40
0.7424242424242419
 40
0.7424242424242419
 40
0.7424242424242419
 40
0.757575757575757
 40
0.757575757575757
 40
0.757575757575757
 40
0.757575757575757
 40
0.7727272727272722
 40
0.7727272727272722
 40
0.7727272727272722
 40
0.7727272727272722
 40
0.7878787878787873
 40
0.7878787878787873
 40
0.7878787878787873
 40
0.7878787878787873
 40
0.8030303030303024
 40
0.8030303030303024
 40
0.8030303030303024
 40
0.8030303030303024
 40
0.8181818181818176
 40
0.8181818181818176
 40
0.8181818181818176
 40
0.8181818181818176
 40
0.8333333333333327
 40
0.8333333333333327
 40
0.8333333333333327
 40
0.8333333333333327
 40
0.8484848484848478
 40
0.8484848484848478
 40
0.8484848484848478
 40
0.8484848484848478
 40
0.863636363636363
 40
0.863636363636363
 40
0.863636363636363
 40
0.863636363636363
 40
0.8787878787878781
 40
0.8787878787878781
 40
0.8787878787878781
 40
0.8787878787878781
 40
0.8939393939393933
 40
0.8939393939393933
 40
0.8939393939393933
 40
0.8939393939393933
 40
0.9090909090909084
 40
0.9090909090909084
 40
0.9090909090909084
 40
0.9090909090909084
 40
0.9242424242424235
 40
0.9242424242424235
 40
0.9242424242424235
 40
0.9242424242424235
 40
0.9393939393939387
 40
0.9393939393939387
 40
0.9393939393939387
 40
0.9393939393939387
 40
0.9545454545454538
 40
0.9545454545454538
 40
0.9545454545454538
 40
0.9545454545454538
 40
0.969696969696969
 40
0.969696969696969
 40
0.969696969696969
 40
0.969696969696969
 40
0.9848484848484841
 40
0.9848484848484841
 40
0.9848484848484841
 40
0.9848484848484841
 40
1.0
 40
1.0
 40
1.0
 40
1.0
 10
0.3721732283464567
 20
2.322661417322835
 30
0.0
 10
0.3721732283464567
 20
2.322661417322835
 30
0.0
 10
1.024224409448819
 20
2.700244094488189
 30
0.0
 10
1.024224409448819
 20
2.700244094488189
 30
0.0
 10
1.024224409448819
 20
2.700244094488189
 30
0.0
 10
1.024224409448819
 20
2.700244094488189
 30
0.0
 10
0.994228346456693
 20
2.700909448818898
 30
0.0
 10
0.994228346456693
 20
2.700909448818898
 30
0.0
 10
0.994228346456693
 20
2.700909448818898
 30
0.0
 10
0.994228346456693
 20
2.700909448818898
 30
0.0
 10
0.9666811023622047
 20
2.702437007874016
 30
0.0
 10
0.9666811023622047
 20
2.702437007874016
 30
0.0
 10
0.9666811023622047
 20
2.702437007874016
 30
0.0
 10
0.9666811023622047
 20
2.702437007874016
 30
0.0
 10
0.9414330708661418
 20
2.704767716535433
 30
0.0
 10
0.9414330708661418
 20
2.704767716535433
 30
0.0
 10
0.9414330708661418
 20
2.704767716535433
 30
0.0
 10
0.9414330708661418
 20
2.704767716535433
 30
0.0
 10
0.9183425196850394
 20
2.707854330708662
 30
0.0
 10
0.9183425196850394
 20
2.707854330708662
 30
0.0
 10
0.9183425196850394
 20
2.707854330708662
 30
0.0
 10
0.9183425196850394
 20
2.707854330708662
 30
0.0
 10
0.8972598425196851
 20
2.711625984251969
 30
0.0
 10
0.8972598425196851
 20
2.711625984251969
 30
0.0
 10
0.8972598425196851
 20
2.711625984251969
 30
0.0
 10
0.8972598425196851
 20
2.711625984251969
 30
0.0
 10
0.8780472440944882
 20
2.716035433070866
 30
0.0
 10
0.8780472440944882
 20
2.716035433070866
 30
0.0
 10
0.8780472440944882
 20
2.716035433070866
 30
0.0
 10
0.8780472440944882
 20
2.716035433070866
 30
0.0
 10
0.8605551181102362
 20
2.721027559055118
 30
0.0
 10
0.8605551181102362
 20
2.721027559055118
 30
0.0
 10
0.8605551181102362
 20
2.721027559055118
 30
0.0
 10
0.8605551181102362
 20
2.721027559055118
 30
0.0
 10
0.8446496062992126
 20
2.726551181102362
 30
0.0
 10
0.8446496062992126
 20
2.726551181102362
 30
0.0
 10
0.8446496062992126
 20
2.726551181102362
 30
0.0
 10
0.8446496062992126
 20
2.726551181102362
 30
0.0
 10
0.8301692913385828
 20
2.732535433070866
 30
0.0
 10
0.8301692913385828
 20
2.732535433070866
 30
0.0
 10
0.8301692913385828
 20
2.732535433070866
 30
0.0
 10
0.8301692913385828
 20
2.732535433070866
 30
0.0
 10
0.816984251968504
 20
2.738944881889764
 30
0.0
 10
0.816984251968504
 20
2.738944881889764
 30
0.0
 10
0.816984251968504
 20
2.738944881889764
 30
0.0
 10
0.816984251968504
 20
2.738944881889764
 30
0.0
 10
0.8049448818897638
 20
2.745708661417323
 30
0.0
 10
0.8049448818897638
 20
2.745708661417323
 30
0.0
 10
0.8049448818897638
 20
2.745708661417323
 30
0.0
 10
0.8049448818897638
 20
2.745708661417323
 30
0.0
 10
0.7939015748031496
 20
2.752783464566929
 30
0.0
 10
0.7939015748031496
 20
2.752783464566929
 30
0.0
 10
0.7939015748031496
 20
2.752783464566929
 30
0.0
 10
0.7939015748031496
 20
2.752783464566929
 30
0.0
 10
0.7837204724409449
 20
2.760102362204725
 30
0.0
 10
0.7837204724409449
 20
2.760102362204725
 30
0.0
 10
0.7837204724409449
 20
2.760102362204725
 30
0.0
 10
0.7837204724409449
 20
2.760102362204725
 30
0.0
 10
0.774248031496063
 20
2.767618110236221
 30
0.0
 10
0.774248031496063
 20
2.767618110236221
 30
0.0
 10
0.774248031496063
 20
2.767618110236221
 30
0.0
 10
0.774248031496063
 20
2.767618110236221
 30
0.0
 10
0.7653425196850394
 20
2.775271653543307
 30
0.0
 10
0.7653425196850394
 20
2.775271653543307
 30
0.0
 10
0.7653425196850394
 20
2.775271653543307
 30
0.0
 10
0.7653425196850394
 20
2.775271653543307
 30
0.0
 10
0.7568582677165354
 20
2.783011811023622
 30
0.0
 10
0.7568582677165354
 20
2.783011811023622
 30
0.0
 10
0.7568582677165354
 20
2.783011811023622
 30
0.0
 10
0.7568582677165354
 20
2.783011811023622
 30
0.0
 10
0.7486614173228346
 20
2.790771653543307
 30
0.0
 10
0.7486614173228346
 20
2.790771653543307
 30
0.0
 10
0.7486614173228346
 20
2.790771653543307
 30
0.0
 10
0.7486614173228346
 20
2.790771653543307
 30
0.0
 10
0.7405905511811024
 20
2.798507874015748
 30
0.0
 10
0.7405905511811024
 20
2.798507874015748
 30
0.0
 10
0.7405905511811024
 20
2.798507874015748
 30
0.0
 10
0.7405905511811024
 20
2.798507874015748
 30
0.0
 10
0.7325157480314961
 20
2.806161417322835
 30
0.0
 10
0.7325157480314961
 20
2.806161417322835
 30
0.0
 10
0.7325157480314961
 20
2.806161417322835
 30
0.0
 10
0.7325157480314961
 20
2.806161417322835
 30
0.0
 10
0.7242795275590551
 20
2.813677165354331
 30
0.0
 10
0.7242795275590551
 20
2.813677165354331
 30
0.0
 10
0.7242795275590551
 20
2.813677165354331
 30
0.0
 10
0.7242795275590551
 20
2.813677165354331
 30
0.0
 10
0.715755905511811
 20
2.820996062992126
 30
0.0
 10
0.715755905511811
 20
2.820996062992126
 30
0.0
 10
0.715755905511811
 20
2.820996062992126
 30
0.0
 10
0.715755905511811
 20
2.820996062992126
 30
0.0
 10
0.7067795275590552
 20
2.828070866141732
 30
0.0
 10
0.7067795275590552
 20
2.828070866141732
 30
0.0
 10
0.7067795275590552
 20
2.828070866141732
 30
0.0
 10
0.7067795275590552
 20
2.828070866141732
 30
0.0
 10
0.6972244094488189
 20
2.83484251968504
 30
0.0
 10
0.6972244094488189
 20
2.83484251968504
 30
0.0
 10
0.6972244094488189
 20
2.83484251968504
 30
0.0
 10
0.6972244094488189
 20
2.83484251968504
 30
0.0
 10
0.6869291338582677
 20
2.841255905511811
 30
0.0
 10
0.6869291338582677
 20
2.841255905511811
 30
0.0
 10
0.6869291338582677
 20
2.841255905511811
 30
0.0
 10
0.6869291338582677
 20
2.841255905511811
 30
0.0
 10
0.6757677165354331
 20
2.847244094488189
 30
0.0
 10
0.6757677165354331
 20
2.847244094488189
 30
0.0
 10
0.6757677165354331
 20
2.847244094488189
 30
0.0
 10
0.6757677165354331
 20
2.847244094488189
 30
0.0
 10
0.6635787401574803
 20
2.852767716535433
 30
0.0
 10
0.6635787401574803
 20
2.852767716535433
 30
0.0
 10
0.6635787401574803
 20
2.852767716535433
 30
0.0
 10
0.6635787401574803
 20
2.852767716535433
 30
0.0
 10
0.6502283464566929
 20
2.857763779527559
 30
0.0
 10
0.6502283464566929
 20
2.857763779527559
 30
0.0
 10
0.6502283464566929
 20
2.857763779527559
 30
0.0
 10
0.6502283464566929
 20
2.857763779527559
 30
0.0
 10
0.6355629921259843
 20
2.862185039370079
 30
0.0
 10
0.6355629921259843
 20
2.862185039370079
 30
0.0
 10
0.6355629921259843
 20
2.862185039370079
 30
0.0
 10
0.6355629921259843
 20
2.862185039370079
 30
0.0
 10
0.6194566929133859
 20
2.86596062992126
 30
0.0
 10
0.6194566929133859
 20
2.86596062992126
 30
0.0
 10
0.6194566929133859
 20
2.86596062992126
 30
0.0
 10
0.6194566929133859
 20
2.86596062992126
 30
0.0
 10
0.601744094488189
 20
2.869051181102362
 30
0.0
 10
0.601744094488189
 20
2.869051181102362
 30
0.0
 10
0.601744094488189
 20
2.869051181102362
 30
0.0
 10
0.601744094488189
 20
2.869051181102362
 30
0.0
 10
0.5822913385826772
 20
2.871389763779528
 30
0.0
 10
0.5822913385826772
 20
2.871389763779528
 30
0.0
 10
0.5822913385826772
 20
2.871389763779528
 30
0.0
 10
0.5822913385826772
 20
2.871389763779528
 30
0.0
 10
0.5609448818897638
 20
2.872933070866142
 30
0.0
 10
0.5609448818897638
 20
2.872933070866142
 30
0.0
 10
0.5609448818897638
 20
2.872933070866142
 30
0.0
 10
0.5609448818897638
 20
2.872933070866142
 30
0.0
 10
-0.0911062992125984
 20
2.495350393700788
 30
0.0
 10
-0.0911062992125984
 20
2.495350393700788
 30
0.0
 10
-0.0911062992125984
 20
2.495350393700788
 30
0.0
 10
-0.0911062992125984
 20
2.495350393700788
 30
0.0
 10
-0.069759842519685
 20
2.493807086614174
 30
0.0
 10
-0.069759842519685
 20
2.493807086614174
 30
0.0
 10
-0.069759842519685
 20
2.493807086614174
 30
0.0
 10
-0.069759842519685
 20
2.493807086614174
 30
0.0
 10
-0.0503070866141732
 20
2.491468503937008
 30
0.0
 10
-0.0503070866141732
 20
2.491468503937008
 30
0.0
 10
-0.0503070866141732
 20
2.491468503937008
 30
0.0
 10
-0.0503070866141732
 20
2.491468503937008
 30
0.0
 10
-0.0325944881889764
 20
2.488377952755906
 30
0.0
 10
-0.0325944881889764
 20
2.488377952755906
 30
0.0
 10
-0.0325944881889764
 20
2.488377952755906
 30
0.0
 10
-0.0325944881889764
 20
2.488377952755906
 30
0.0
 10
-0.016488188976378
 20
2.484602362204725
 30
0.0
 10
-0.016488188976378
 20
2.484602362204725
 30
0.0
 10
-0.016488188976378
 20
2.484602362204725
 30
0.0
 10
-0.016488188976378
 20
2.484602362204725
 30
0.0
 10
-0.0018228346456693
 20
2.480181102362205
 30
0.0
 10
-0.0018228346456693
 20
2.480181102362205
 30
0.0
 10
-0.0018228346456693
 20
2.480181102362205
 30
0.0
 10
-0.0018228346456693
 20
2.480181102362205
 30
0.0
 10
0.0115275590551181
 20
2.475185039370079
 30
0.0
 10
0.0115275590551181
 20
2.475185039370079
 30
0.0
 10
0.0115275590551181
 20
2.475185039370079
 30
0.0
 10
0.0115275590551181
 20
2.475185039370079
 30
0.0
 10
0.0237165354330709
 20
2.469661417322835
 30
0.0
 10
0.0237165354330709
 20
2.469661417322835
 30
0.0
 10
0.0237165354330709
 20
2.469661417322835
 30
0.0
 10
0.0237165354330709
 20
2.469661417322835
 30
0.0
 10
0.0348779527559055
 20
2.463673228346457
 30
0.0
 10
0.0348779527559055
 20
2.463673228346457
 30
0.0
 10
0.0348779527559055
 20
2.463673228346457
 30
0.0
 10
0.0348779527559055
 20
2.463673228346457
 30
0.0
 10
0.0451732283464567
 20
2.457259842519685
 30
0.0
 10
0.0451732283464567
 20
2.457259842519685
 30
0.0
 10
0.0451732283464567
 20
2.457259842519685
 30
0.0
 10
0.0451732283464567
 20
2.457259842519685
 30
0.0
 10
0.0547283464566929
 20
2.450488188976378
 30
0.0
 10
0.0547283464566929
 20
2.450488188976378
 30
0.0
 10
0.0547283464566929
 20
2.450488188976378
 30
0.0
 10
0.0547283464566929
 20
2.450488188976378
 30
0.0
 10
0.0637047244094488
 20
2.443413385826772
 30
0.0
 10
0.0637047244094488
 20
2.443413385826772
 30
0.0
 10
0.0637047244094488
 20
2.443413385826772
 30
0.0
 10
0.0637047244094488
 20
2.443413385826772
 30
0.0
 10
0.0722283464566929
 20
2.436094488188977
 30
0.0
 10
0.0722283464566929
 20
2.436094488188977
 30
0.0
 10
0.0722283464566929
 20
2.436094488188977
 30
0.0
 10
0.0722283464566929
 20
2.436094488188977
 30
0.0
 10
0.0804645669291339
 20
2.428578740157481
 30
0.0
 10
0.0804645669291339
 20
2.428578740157481
 30
0.0
 10
0.0804645669291339
 20
2.428578740157481
 30
0.0
 10
0.0804645669291339
 20
2.428578740157481
 30
0.0
 10
0.0885393700787402
 20
2.420925196850394
 30
0.0
 10
0.0885393700787402
 20
2.420925196850394
 30
0.0
 10
0.0885393700787402
 20
2.420925196850394
 30
0.0
 10
0.0885393700787402
 20
2.420925196850394
 30
0.0
 10
0.0966102362204724
 20
2.413188976377953
 30
0.0
 10
0.0966102362204724
 20
2.413188976377953
 30
0.0
 10
0.0966102362204724
 20
2.413188976377953
 30
0.0
 10
0.0966102362204724
 20
2.413188976377953
 30
0.0
 10
0.1048070866141732
 20
2.405429133858268
 30
0.0
 10
0.1048070866141732
 20
2.405429133858268
 30
0.0
 10
0.1048070866141732
 20
2.405429133858268
 30
0.0
 10
0.1048070866141732
 20
2.405429133858268
 30
0.0
 10
0.1132913385826772
 20
2.397688976377953
 30
0.0
 10
0.1132913385826772
 20
2.397688976377953
 30
0.0
 10
0.1132913385826772
 20
2.397688976377953
 30
0.0
 10
0.1132913385826772
 20
2.397688976377953
 30
0.0
 10
0.1221968503937008
 20
2.390035433070866
 30
0.0
 10
0.1221968503937008
 20
2.390035433070866
 30
0.0
 10
0.1221968503937008
 20
2.390035433070866
 30
0.0
 10
0.1221968503937008
 20
2.390035433070866
 30
0.0
 10
0.1316692913385827
 20
2.38251968503937
 30
0.0
 10
0.1316692913385827
 20
2.38251968503937
 30
0.0
 10
0.1316692913385827
 20
2.38251968503937
 30
0.0
 10
0.1316692913385827
 20
2.38251968503937
 30
0.0
 10
0.1418503937007874
 20
2.375200787401575
 30
0.0
 10
0.1418503937007874
 20
2.375200787401575
 30
0.0
 10
0.1418503937007874
 20
2.375200787401575
 30
0.0
 10
0.1418503937007874
 20
2.375200787401575
 30
0.0
 10
0.1528937007874016
 20
2.368125984251968
 30
0.0
 10
0.1528937007874016
 20
2.368125984251968
 30
0.0
 10
0.1528937007874016
 20
2.368125984251968
 30
0.0
 10
0.1528937007874016
 20
2.368125984251968
 30
0.0
 10
0.1649330708661417
 20
2.36136220472441
 30
0.0
 10
0.1649330708661417
 20
2.36136220472441
 30
0.0
 10
0.1649330708661417
 20
2.36136220472441
 30
0.0
 10
0.1649330708661417
 20
2.36136220472441
 30
0.0
 10
0.1781181102362205
 20
2.354952755905512
 30
0.0
 10
0.1781181102362205
 20
2.354952755905512
 30
0.0
 10
0.1781181102362205
 20
2.354952755905512
 30
0.0
 10
0.1781181102362205
 20
2.354952755905512
 30
0.0
 10
0.1925984251968504
 20
2.348968503937008
 30
0.0
 10
0.1925984251968504
 20
2.348968503937008
 30
0.0
 10
0.1925984251968504
 20
2.348968503937008
 30
0.0
 10
0.1925984251968504
 20
2.348968503937008
 30
0.0
 10
0.208503937007874
 20
2.343444881889764
 30
0.0
 10
0.208503937007874
 20
2.343444881889764
 30
0.0
 10
0.208503937007874
 20
2.343444881889764
 30
0.0
 10
0.208503937007874
 20
2.343444881889764
 30
0.0
 10
0.225996062992126
 20
2.338452755905512
 30
0.0
 10
0.225996062992126
 20
2.338452755905512
 30
0.0
 10
0.225996062992126
 20
2.338452755905512
 30
0.0
 10
0.225996062992126
 20
2.338452755905512
 30
0.0
 10
0.2452086614173228
 20
2.334043307086614
 30
0.0
 10
0.2452086614173228
 20
2.334043307086614
 30
0.0
 10
0.2452086614173228
 20
2.334043307086614
 30
0.0
 10
0.2452086614173228
 20
2.334043307086614
 30
0.0
 10
0.2662913385826772
 20
2.330271653543307
 30
0.0
 10
0.2662913385826772
 20
2.330271653543307
 30
0.0
 10
0.2662913385826772
 20
2.330271653543307
 30
0.0
 10
0.2662913385826772
 20
2.330271653543307
 30
0.0
 10
0.2893818897637795
 20
2.327185039370079
 30
0.0
 10
0.2893818897637795
 20
2.327185039370079
 30
0.0
 10
0.2893818897637795
 20
2.327185039370079
 30
0.0
 10
0.2893818897637795
 20
2.327185039370079
 30
0.0
 10
0.3146299212598425
 20
2.324854330708662
 30
0.0
 10
0.3146299212598425
 20
2.324854330708662
 30
0.0
 10
0.3146299212598425
 20
2.324854330708662
 30
0.0
 10
0.3146299212598425
 20
2.324854330708662
 30
0.0
 10
0.3421771653543307
 20
2.323326771653544
 30
0.0
 10
0.3421771653543307
 20
2.323326771653544
 30
0.0
 10
0.3421771653543307
 20
2.323326771653544
 30
0.0
 10
0.3421771653543307
 20
2.323326771653544
 30
0.0
 10
0.3721732283464567
 20
2.322661417322835
 30
0.0
 10
0.3721732283464567
 20
2.322661417322835
 30
0.0
  0
SPLINE
  5
3B
330
1F
100
AcDbEntity
  8
LAYER_1
 62
   253
100
AcDbSpline
210
0.0
220
0.0
230
1.0
 70
    11
 71
     3
 72
    20
 73
    16
 74
     0
 42
0.0000000001
 43
0.0000000001
 40
0.0
 40
0.0
 40
0.0
 40
0.0
 40
0.25
 40
0.25
 40
0.25
 40
0.25
 40
0.5
 40
0.5
 40
0.5
 40
0.5
 40
0.75
 40
0.75
 40
0.75
 40
0.75
 40
1.0
 40
1.0
 40
1.0
 40
1.0
 10
-0.0911062992125984
 20
2.495350393700788
 30
0.0
 10
-0.0911062992125984
 20
2.495350393700788
 30
0.0
 10
0.5609448818897638
 20
2.872933070866142
 30
0.0
 10
0.5609448818897638
 20
2.872933070866142
 30
0.0
 10
0.5609448818897638
 20
2.872933070866142
 30
0.0
 10
0.5609448818897638
 20
2.872933070866142
 30
0.0
 10
0.5442716535433071
 20
2.975354330708662
 30
0.0
 10
0.5442716535433071
 20
2.975354330708662
 30
0.0
 10
0.5442716535433071
 20
2.975354330708662
 30
0.0
 10
0.5442716535433071
 20
2.975354330708662
 30
0.0
 10
-0.1077795275590551
 20
2.597771653543307
 30
0.0
 10
-0.1077795275590551
 20
2.597771653543307
 30
0.0
 10
-0.1077795275590551
 20
2.597771653543307
 30
0.0
 10
-0.1077795275590551
 20
2.597771653543307
 30
0.0
 10
-0.0911062992125984
 20
2.495350393700788
 30
0.0
 10
-0.0911062992125984
 20
2.495350393700788
 30
0.0
  0
SPLINE
  5
3C
330
1F
100
AcDbEntity
  8
LAYER_1
 62
   250
100
AcDbSpline
210
0.0
220
0.0
230
1.0
 70
    11
 71
     3
 72
    20
 73
    16
 74
     0
 42
0.0000000001
 43
0.0000000001
 40
0.0
 40
0.0
 40
0.0
 40
0.0
 40
0.25
 40
0.25
 40
0.25
 40
0.25
 40
0.5
 40
0.5
 40
0.5
 40
0.5
 40
0.75
 40
0.75
 40
0.75
 40
0.75
 40
1.0
 40
1.0
 40
1.0
 40
1.0
 10
-0.0911062992125984
 20
2.495350393700788
 30
0.0
 10
-0.0911062992125984
 20
2.495350393700788
 30
0.0
 10
0.5609448818897638
 20
2.872933070866142
 30
0.0
 10
0.5609448818897638
 20
2.872933070866142
 30
0.0
 10
0.5609448818897638
 20
2.872933070866142
 30
0.0
 10
0.5609448818897638
 20
2.872933070866142
 30
0.0
 10
0.5442716535433071
 20
2.975354330708662
 30
0.0
 10
0.5442716535433071
 20
2.975354330708662
 30
0.0
 10
0.5442716535433071
 20
2.975354330708662
 30
0.0
 10
0.5442716535433071
 20
2.975354330708662
 30
0.0
 10
-0.1077795275590551
 20
2.597771653543307
 30
0.0
 10
-0.1077795275590551
 20
2.597771653543307
 30
0.0
 10
-0.1077795275590551
 20
2.597771653543307
 30
0.0
 10
-0.1077795275590551
 20
2.597771653543307
 30
0.0
 10
-0.0911062992125984
 20
2.495350393700788
 30
0.0
 10
-0.0911062992125984
 20
2.495350393700788
 30
0.0
  0
SPLINE
  5
3D
330
1F
100
AcDbEntity
  8
LAYER_1
 62
   252
100
AcDbSpline
210
0.0
220
0.0
230
1.0
 70
    11
 71
     3
 72
    20
 73
    16
 74
     0
 42
0.0000000001
 43
0.0000000001
 40
0.0
 40
0.0
 40
0.0
 40
0.0
 40
0.25
 40
0.25
 40
0.25
 40
0.25
 40
0.5
 40
0.5
 40
0.5
 40
0.5
 40
0.75
 40
0.75
 40
0.75
 40
0.75
 40
1.0
 40
1.0
 40
1.0
 40
1.0
 10
-0.1077795275590551
 20
2.597771653543307
 30
0.0
 10
-0.1077795275590551
 20
2.597771653543307
 30
0.0
 10
0.5442716535433071
 20
2.975354330708662
 30
0.0
 10
0.5442716535433071
 20
2.975354330708662
 30
0.0
 10
0.5442716535433071
 20
2.975354330708662
 30
0.0
 10
0.5442716535433071
 20
2.975354330708662
 30
0.0
 10
-0.1423070866141732
 20
2.975354330708662
 30
0.0
 10
-0.1423070866141732
 20
2.975354330708662
 30
0.0
 10
-0.1423070866141732
 20
2.975354330708662
 30
0.0
 10
-0.1423070866141732
 20
2.975354330708662
 30
0.0
 10
-0.7943582677165355
 20
2.597771653543307
 30
0.0
 10
-0.7943582677165355
 20
2.597771653543307
 30
0.0
 10
-0.7943582677165355
 20
2.597771653543307
 30
0.0
 10
-0.7943582677165355
 20
2.597771653543307
 30
0.0
 10
-0.1077795275590551
 20
2.597771653543307
 30
0.0
 10
-0.1077795275590551
 20
2.597771653543307
 30
0.0
  0
SPLINE
  5
3E
330
1F
100
AcDbEntity
  8
LAYER_1
 62
   250
100
AcDbSpline
210
0.0
220
0.0
230
1.0
 70
    11
 71
     3
 72
    20
 73
    16
 74
     0
 42
0.0000000001
 43
0.0000000001
 40
0.0
 40
0.0
 40
0.0
 40
0.0
 40
0.25
 40
0.25
 40
0.25
 40
0.25
 40
0.5
 40
0.5
 40
0.5
 40
0.5
 40
0.75
 40
0.75
 40
0.75
 40
0.75
 40
1.0
 40
1.0
 40
1.0
 40
1.0
 10
-0.1077795275590551
 20
2.597771653543307
 30
0.0
 10
-0.1077795275590551
 20
2.597771653543307
 30
0.0
 10
0.5442716535433071
 20
2.975354330708662
 30
0.0
 10
0.5442716535433071
 20
2.975354330708662
 30
0.0
 10
0.5442716535433071
 20
2.975354330708662
 30
0.0
 10
0.5442716535433071
 20
2.975354330708662
 30
0.0
 10
-0.1423070866141732
 20
2.975354330708662
 30
0.0
 10
-0.1423070866141732
 20
2.975354330708662
 30
0.0
 10
-0.1423070866141732
 20
2.975354330708662
 30
0.0
 10
-0.1423070866141732
 20
2.975354330708662
 30
0.0
 10
-0.7943582677165355
 20
2.597771653543307
 30
0.0
 10
-0.7943582677165355
 20
2.597771653543307
 30
0.0
 10
-0.7943582677165355
 20
2.597771653543307
 30
0.0
 10
-0.7943582677165355
 20
2.597771653543307
 30
0.0
 10
-0.1077795275590551
 20
2.597771653543307
 30
0.0
 10
-0.1077795275590551
 20
2.597771653543307
 30
0.0
  0
SPLINE
  5
3F
330
1F
100
AcDbEntity
  8
LAYER_1
 62
   253
100
AcDbSpline
210
0.0
220
0.0
230
1.0
 70
    11
 71
     3
 72
    20
 73
    16
 74
     0
 42
0.0000000001
 43
0.0000000001
 40
0.0
 40
0.0
 40
0.0
 40
0.0
 40
0.25
 40
0.25
 40
0.25
 40
0.25
 40
0.5
 40
0.5
 40
0.5
 40
0.5
 40
0.75
 40
0.75
 40
0.75
 40
0.75
 40
1.0
 40
1.0
 40
1.0
 40
1.0
 10
0.3721732283464567
 20
2.195826771653544
 30
0.0
 10
0.3721732283464567
 20
2.195826771653544
 30
0.0
 10
1.024224409448819
 20
2.573409448818898
 30
0.0
 10
1.024224409448819
 20
2.573409448818898
 30
0.0
 10
1.024224409448819
 20
2.573409448818898
 30
0.0
 10
1.024224409448819
 20
2.573409448818898
 30
0.0
 10
1.024224409448819
 20
2.700244094488189
 30
0.0
 10
1.024224409448819
 20
2.700244094488189
 30
0.0
 10
1.024224409448819
 20
2.700244094488189
 30
0.0
 10
1.024224409448819
 20
2.700244094488189
 30
0.0
 10
0.3721732283464567
 20
2.322661417322835
 30
0.0
 10
0.3721732283464567
 20
2.322661417322835
 30
0.0
 10
0.3721732283464567
 20
2.322661417322835
 30
0.0
 10
0.3721732283464567
 20
2.322661417322835
 30
0.0
 10
0.3721732283464567
 20
2.195826771653544
 30
0.0
 10
0.3721732283464567
 20
2.195826771653544
 30
0.0
  0
SPLINE
  5
40
330
1F
100
AcDbEntity
  8
LAYER_1
 62
   250
100
AcDbSpline
210
0.0
220
0.0
230
1.0
 70
    11
 71
     3
 72
    20
 73
    16
 74
     0
 42
0.0000000001
 43
0.0000000001
 40
0.0
 40
0.0
 40
0.0
 40
0.0
 40
0.25
 40
0.25
 40
0.25
 40
0.25
 40
0.5
 40
0.5
 40
0.5
 40
0.5
 40
0.75
 40
0.75
 40
0.75
 40
0.75
 40
1.0
 40
1.0
 40
1.0
 40
1.0
 10
0.3721732283464567
 20
2.195826771653544
 30
0.0
 10
0.3721732283464567
 20
2.195826771653544
 30
0.0
 10
1.024224409448819
 20
2.573409448818898
 30
0.0
 10
1.024224409448819
 20
2.573409448818898
 30
0.0
 10
1.024224409448819
 20
2.573409448818898
 30
0.0
 10
1.024224409448819
 20
2.573409448818898
 30
0.0
 10
1.024224409448819
 20
2.700244094488189
 30
0.0
 10
1.024224409448819
 20
2.700244094488189
 30
0.0
 10
1.024224409448819
 20
2.700244094488189
 30
0.0
 10
1.024224409448819
 20
2.700244094488189
 30
0.0
 10
0.3721732283464567
 20
2.322661417322835
 30
0.0
 10
0.3721732283464567
 20
2.322661417322835
 30
0.0
 10
0.3721732283464567
 20
2.322661417322835
 30
0.0
 10
0.3721732283464567
 20
2.322661417322835
 30
0.0
 10
0.3721732283464567
 20
2.195826771653544
 30
0.0
 10
0.3721732283464567
 20
2.195826771653544
 30
0.0
  0
SPLINE
  5
41
330
1F
100
AcDbEntity
  8
LAYER_1
 62
   252
100
AcDbSpline
210
0.0
220
0.0
230
1.0
 70
    11
 71
     3
 72
    20
 73
    16
 74
     0
 42
0.0000000001
 43
0.0000000001
 40
0.0
 40
0.0
 40
0.0
 40
0.0
 40
0.25
 40
0.25
 40
0.25
 40
0.25
 40
0.5
 40
0.5
 40
0.5
 40
0.5
 40
0.75
 40
0.75
 40
0.75
 40
0.75
 40
1.0
 40
1.0
 40
1.0
 40
1.0
 10
0.3721732283464567
 20
2.322661417322835
 30
0.0
 10
0.3721732283464567
 20
2.322661417322835
 30
0.0
 10
1.024224409448819
 20
2.700244094488189
 30
0.0
 10
1.024224409448819
 20
2.700244094488189
 30
0.0
 10
1.024224409448819
 20
2.700244094488189
 30
0.0
 10
1.024224409448819
 20
2.700244094488189
 30
0.0
 10
0.994228346456693
 20
2.700909448818898
 30
0.0
 10
0.994228346456693
 20
2.700909448818898
 30
0.0
 10
0.994228346456693
 20
2.700909448818898
 30
0.0
 10
0.994228346456693
 20
2.700909448818898
 30
0.0
 10
0.3421771653543307
 20
2.323326771653544
 30
0.0
 10
0.3421771653543307
 20
2.323326771653544
 30
0.0
 10
0.3421771653543307
 20
2.323326771653544
 30
0.0
 10
0.3421771653543307
 20
2.323326771653544
 30
0.0
 10
0.3721732283464567
 20
2.322661417322835
 30
0.0
 10
0.3721732283464567
 20
2.322661417322835
 30
0.0
  0
SPLINE
  5
42
330
1F
100
AcDbEntity
  8
LAYER_1
 62
   252
100
AcDbSpline
210
0.0
220
0.0
230
1.0
 70
    11
 71
     3
 72
    20
 73
    16
 74
     0
 42
0.0000000001
 43
0.0000000001
 40
0.0
 40
0.0
 40
0.0
 40
0.0
 40
0.25
 40
0.25
 40
0.25
 40
0.25
 40
0.5
 40
0.5
 40
0.5
 40
0.5
 40
0.75
 40
0.75
 40
0.75
 40
0.75
 40
1.0
 40
1.0
 40
1.0
 40
1.0
 10
0.3421771653543307
 20
2.323326771653544
 30
0.0
 10
0.3421771653543307
 20
2.323326771653544
 30
0.0
 10
0.994228346456693
 20
2.700909448818898
 30
0.0
 10
0.994228346456693
 20
2.700909448818898
 30
0.0
 10
0.994228346456693
 20
2.700909448818898
 30
0.0
 10
0.994228346456693
 20
2.700909448818898
 30
0.0
 10
0.9666811023622047
 20
2.702437007874016
 30
0.0
 10
0.9666811023622047
 20
2.702437007874016
 30
0.0
 10
0.9666811023622047
 20
2.702437007874016
 30
0.0
 10
0.9666811023622047
 20
2.702437007874016
 30
0.0
 10
0.3146299212598425
 20
2.324854330708662
 30
0.0
 10
0.3146299212598425
 20
2.324854330708662
 30
0.0
 10
0.3146299212598425
 20
2.324854330708662
 30
0.0
 10
0.3146299212598425
 20
2.324854330708662
 30
0.0
 10
0.3421771653543307
 20
2.323326771653544
 30
0.0
 10
0.3421771653543307
 20
2.323326771653544
 30
0.0
  0
SPLINE
  5
43
330
1F
100
AcDbEntity
  8
LAYER_1
 62
   252
100
AcDbSpline
210
0.0
220
0.0
230
1.0
 70
    11
 71
     3
 72
    28
 73
    24
 74
     0
 42
0.0000000001
 43
0.0000000001
 40
0.0
 40
0.0
 40
0.0
 40
0.0
 40
0.1666666666666667
 40
0.1666666666666667
 40
0.1666666666666667
 40
0.1666666666666667
 40
0.3333333333333333
 40
0.3333333333333333
 40
0.3333333333333333
 40
0.3333333333333333
 40
0.5
 40
0.5
 40
0.5
 40
0.5
 40
0.6666666666666666
 40
0.6666666666666666
 40
0.6666666666666666
 40
0.6666666666666666
 40
0.8333333333333333
 40
0.8333333333333333
 40
0.8333333333333333
 40
0.8333333333333333
 40
1.0
 40
1.0
 40
1.0
 40
1.0
 10
0.3146299212598425
 20
2.324854330708662
 30
0.0
 10
0.3146299212598425
 20
2.324854330708662
 30
0.0
 10
0.9666811023622047
 20
2.702437007874016
 30
0.0
 10
0.9666811023622047
 20
2.702437007874016
 30
0.0
 10
0.9666811023622047
 20
2.702437007874016
 30
0.0
 10
0.9666811023622047
 20
2.702437007874016
 30
0.0
 10
0.9414330708661418
 20
2.704767716535433
 30
0.0
 10
0.9414330708661418
 20
2.704767716535433
 30
0.0
 10
0.9414330708661418
 20
2.704767716535433
 30
0.0
 10
0.9414330708661418
 20
2.704767716535433
 30
0.0
 10
0.9183425196850394
 20
2.707854330708662
 30
0.0
 10
0.9183425196850394
 20
2.707854330708662
 30
0.0
 10
0.9183425196850394
 20
2.707854330708662
 30
0.0
 10
0.9183425196850394
 20
2.707854330708662
 30
0.0
 10
0.2662913385826772
 20
2.330271653543307
 30
0.0
 10
0.2662913385826772
 20
2.330271653543307
 30
0.0
 10
0.2662913385826772
 20
2.330271653543307
 30
0.0
 10
0.2662913385826772
 20
2.330271653543307
 30
0.0
 10
0.2893818897637795
 20
2.327185039370079
 30
0.0
 10
0.2893818897637795
 20
2.327185039370079
 30
0.0
 10
0.2893818897637795
 20
2.327185039370079
 30
0.0
 10
0.2893818897637795
 20
2.327185039370079
 30
0.0
 10
0.3146299212598425
 20
2.324854330708662
 30
0.0
 10
0.3146299212598425
 20
2.324854330708662
 30
0.0
  0
SPLINE
  5
44
330
1F
100
AcDbEntity
  8
LAYER_1
 62
   252
100
AcDbSpline
210
0.0
220
0.0
230
1.0
 70
    11
 71
     3
 72
    28
 73
    24
 74
     0
 42
0.0000000001
 43
0.0000000001
 40
0.0
 40
0.0
 40
0.0
 40
0.0
 40
0.1666666666666667
 40
0.1666666666666667
 40
0.1666666666666667
 40
0.1666666666666667
 40
0.3333333333333333
 40
0.3333333333333333
 40
0.3333333333333333
 40
0.3333333333333333
 40
0.5
 40
0.5
 40
0.5
 40
0.5
 40
0.6666666666666666
 40
0.6666666666666666
 40
0.6666666666666666
 40
0.6666666666666666
 40
0.8333333333333333
 40
0.8333333333333333
 40
0.8333333333333333
 40
0.8333333333333333
 40
1.0
 40
1.0
 40
1.0
 40
1.0
 10
0.2662913385826772
 20
2.330271653543307
 30
0.0
 10
0.2662913385826772
 20
2.330271653543307
 30
0.0
 10
0.9183425196850394
 20
2.707854330708662
 30
0.0
 10
0.9183425196850394
 20
2.707854330708662
 30
0.0
 10
0.9183425196850394
 20
2.707854330708662
 30
0.0
 10
0.9183425196850394
 20
2.707854330708662
 30
0.0
 10
0.8972598425196851
 20
2.711625984251969
 30
0.0
 10
0.8972598425196851
 20
2.711625984251969
 30
0.0
 10
0.8972598425196851
 20
2.711625984251969
 30
0.0
 10
0.8972598425196851
 20
2.711625984251969
 30
0.0
 10
0.8780472440944882
 20
2.716035433070866
 30
0.0
 10
0.8780472440944882
 20
2.716035433070866
 30
0.0
 10
0.8780472440944882
 20
2.716035433070866
 30
0.0
 10
0.8780472440944882
 20
2.716035433070866
 30
0.0
 10
0.225996062992126
 20
2.338452755905512
 30
0.0
 10
0.225996062992126
 20
2.338452755905512
 30
0.0
 10
0.225996062992126
 20
2.338452755905512
 30
0.0
 10
0.225996062992126
 20
2.338452755905512
 30
0.0
 10
0.2452086614173228
 20
2.334043307086614
 30
0.0
 10
0.2452086614173228
 20
2.334043307086614
 30
0.0
 10
0.2452086614173228
 20
2.334043307086614
 30
0.0
 10
0.2452086614173228
 20
2.334043307086614
 30
0.0
 10
0.2662913385826772
 20
2.330271653543307
 30
0.0
 10
0.2662913385826772
 20
2.330271653543307
 30
0.0
  0
SPLINE
  5
45
330
1F
100
AcDbEntity
  8
LAYER_1
 62
   252
100
AcDbSpline
210
0.0
220
0.0
230
1.0
 70
    11
 71
     3
 72
    28
 73
    24
 74
     0
 42
0.0000000001
 43
0.0000000001
 40
0.0
 40
0.0
 40
0.0
 40
0.0
 40
0.1666666666666667
 40
0.1666666666666667
 40
0.1666666666666667
 40
0.1666666666666667
 40
0.3333333333333333
 40
0.3333333333333333
 40
0.3333333333333333
 40
0.3333333333333333
 40
0.5
 40
0.5
 40
0.5
 40
0.5
 40
0.6666666666666666
 40
0.6666666666666666
 40
0.6666666666666666
 40
0.6666666666666666
 40
0.8333333333333333
 40
0.8333333333333333
 40
0.8333333333333333
 40
0.8333333333333333
 40
1.0
 40
1.0
 40
1.0
 40
1.0
 10
0.225996062992126
 20
2.338452755905512
 30
0.0
 10
0.225996062992126
 20
2.338452755905512
 30
0.0
 10
0.8780472440944882
 20
2.716035433070866
 30
0.0
 10
0.8780472440944882
 20
2.716035433070866
 30
0.0
 10
0.8780472440944882
 20
2.716035433070866
 30
0.0
 10
0.8780472440944882
 20
2.716035433070866
 30
0.0
 10
0.8605551181102362
 20
2.721027559055118
 30
0.0
 10
0.8605551181102362
 20
2.721027559055118
 30
0.0
 10
0.8605551181102362
 20
2.721027559055118
 30
0.0
 10
0.8605551181102362
 20
2.721027559055118
 30
0.0
 10
0.8446496062992126
 20
2.726551181102362
 30
0.0
 10
0.8446496062992126
 20
2.726551181102362
 30
0.0
 10
0.8446496062992126
 20
2.726551181102362
 30
0.0
 10
0.8446496062992126
 20
2.726551181102362
 30
0.0
 10
0.1925984251968504
 20
2.348968503937008
 30
0.0
 10
0.1925984251968504
 20
2.348968503937008
 30
0.0
 10
0.1925984251968504
 20
2.348968503937008
 30
0.0
 10
0.1925984251968504
 20
2.348968503937008
 30
0.0
 10
0.208503937007874
 20
2.343444881889764
 30
0.0
 10
0.208503937007874
 20
2.343444881889764
 30
0.0
 10
0.208503937007874
 20
2.343444881889764
 30
0.0
 10
0.208503937007874
 20
2.343444881889764
 30
0.0
 10
0.225996062992126
 20
2.338452755905512
 30
0.0
 10
0.225996062992126
 20
2.338452755905512
 30
0.0
  0
SPLINE
  5
46
330
1F
100
AcDbEntity
  8
LAYER_1
 62
   252
100
AcDbSpline
210
0.0
220
0.0
230
1.0
 70
    11
 71
     3
 72
    36
 73
    32
 74
     0
 42
0.0000000001
 43
0.0000000001
 40
0.0
 40
0.0
 40
0.0
 40
0.0
 40
0.125
 40
0.125
 40
0.125
 40
0.125
 40
0.25
 40
0.25
 40
0.25
 40
0.25
 40
0.375
 40
0.375
 40
0.375
 40
0.375
 40
0.5
 40
0.5
 40
0.5
 40
0.5
 40
0.625
 40
0.625
 40
0.625
 40
0.625
 40
0.75
 40
0.75
 40
0.75
 40
0.75
 40
0.875
 40
0.875
 40
0.875
 40
0.875
 40
1.0
 40
1.0
 40
1.0
 40
1.0
 10
0.1925984251968504
 20
2.348968503937008
 30
0.0
 10
0.1925984251968504
 20
2.348968503937008
 30
0.0
 10
0.8446496062992126
 20
2.726551181102362
 30
0.0
 10
0.8446496062992126
 20
2.726551181102362
 30
0.0
 10
0.8446496062992126
 20
2.726551181102362
 30
0.0
 10
0.8446496062992126
 20
2.726551181102362
 30
0.0
 10
0.8301692913385828
 20
2.732535433070866
 30
0.0
 10
0.8301692913385828
 20
2.732535433070866
 30
0.0
 10
0.8301692913385828
 20
2.732535433070866
 30
0.0
 10
0.8301692913385828
 20
2.732535433070866
 30
0.0
 10
0.816984251968504
 20
2.738944881889764
 30
0.0
 10
0.816984251968504
 20
2.738944881889764
 30
0.0
 10
0.816984251968504
 20
2.738944881889764
 30
0.0
 10
0.816984251968504
 20
2.738944881889764
 30
0.0
 10
0.8049448818897638
 20
2.745708661417323
 30
0.0
 10
0.8049448818897638
 20
2.745708661417323
 30
0.0
 10
0.8049448818897638
 20
2.745708661417323
 30
0.0
 10
0.8049448818897638
 20
2.745708661417323
 30
0.0
 10
0.1528937007874016
 20
2.368125984251968
 30
0.0
 10
0.1528937007874016
 20
2.368125984251968
 30
0.0
 10
0.1528937007874016
 20
2.368125984251968
 30
0.0
 10
0.1528937007874016
 20
2.368125984251968
 30
0.0
 10
0.1649330708661417
 20
2.36136220472441
 30
0.0
 10
0.1649330708661417
 20
2.36136220472441
 30
0.0
 10
0.1649330708661417
 20
2.36136220472441
 30
0.0
 10
0.1649330708661417
 20
2.36136220472441
 30
0.0
 10
0.1781181102362205
 20
2.354952755905512
 30
0.0
 10
0.1781181102362205
 20
2.354952755905512
 30
0.0
 10
0.1781181102362205
 20
2.354952755905512
 30
0.0
 10
0.1781181102362205
 20
2.354952755905512
 30
0.0
 10
0.1925984251968504
 20
2.348968503937008
 30
0.0
 10
0.1925984251968504
 20
2.348968503937008
 30
0.0
  0
SPLINE
  5
47
330
1F
100
AcDbEntity
  8
LAYER_1
 62
   253
100
AcDbSpline
210
0.0
220
0.0
230
1.0
 70
    11
 71
     3
 72
    44
 73
    40
 74
     0
 42
0.0000000001
 43
0.0000000001
 40
0.0
 40
0.0
 40
0.0
 40
0.0
 40
0.1
 40
0.1
 40
0.1
 40
0.1
 40
0.2
 40
0.2
 40
0.2
 40
0.2
 40
0.3
 40
0.3
 40
0.3
 40
0.3
 40
0.4
 40
0.4
 40
0.4
 40
0.4
 40
0.5
 40
0.5
 40
0.5
 40
0.5
 40
0.6
 40
0.6
 40
0.6
 40
0.6
 40
0.7
 40
0.7
 40
0.7
 40
0.7
 40
0.7999999999999999
 40
0.7999999999999999
 40
0.7999999999999999
 40
0.7999999999999999
 40
0.8999999999999999
 40
0.8999999999999999
 40
0.8999999999999999
 40
0.8999999999999999
 40
1.0
 40
1.0
 40
1.0
 40
1.0
 10
0.1528937007874016
 20
2.368125984251968
 30
0.0
 10
0.1528937007874016
 20
2.368125984251968
 30
0.0
 10
0.8049448818897638
 20
2.745708661417323
 30
0.0
 10
0.8049448818897638
 20
2.745708661417323
 30
0.0
 10
0.8049448818897638
 20
2.745708661417323
 30
0.0
 10
0.8049448818897638
 20
2.745708661417323
 30
0.0
 10
0.7939015748031496
 20
2.752783464566929
 30
0.0
 10
0.7939015748031496
 20
2.752783464566929
 30
0.0
 10
0.7939015748031496
 20
2.752783464566929
 30
0.0
 10
0.7939015748031496
 20
2.752783464566929
 30
0.0
 10
0.7837204724409449
 20
2.760102362204725
 30
0.0
 10
0.7837204724409449
 20
2.760102362204725
 30
0.0
 10
0.7837204724409449
 20
2.760102362204725
 30
0.0
 10
0.7837204724409449
 20
2.760102362204725
 30
0.0
 10
0.774248031496063
 20
2.767618110236221
 30
0.0
 10
0.774248031496063
 20
2.767618110236221
 30
0.0
 10
0.774248031496063
 20
2.767618110236221
 30
0.0
 10
0.774248031496063
 20
2.767618110236221
 30
0.0
 10
0.7653425196850394
 20
2.775271653543307
 30
0.0
 10
0.7653425196850394
 20
2.775271653543307
 30
0.0
 10
0.7653425196850394
 20
2.775271653543307
 30
0.0
 10
0.7653425196850394
 20
2.775271653543307
 30
0.0
 10
0.1132913385826772
 20
2.397688976377953
 30
0.0
 10
0.1132913385826772
 20
2.397688976377953
 30
0.0
 10
0.1132913385826772
 20
2.397688976377953
 30
0.0
 10
0.1132913385826772
 20
2.397688976377953
 30
0.0
 10
0.1221968503937008
 20
2.390035433070866
 30
0.0
 10
0.1221968503937008
 20
2.390035433070866
 30
0.0
 10
0.1221968503937008
 20
2.390035433070866
 30
0.0
 10
0.1221968503937008
 20
2.390035433070866
 30
0.0
 10
0.1316692913385827
 20
2.38251968503937
 30
0.0
 10
0.1316692913385827
 20
2.38251968503937
 30
0.0
 10
0.1316692913385827
 20
2.38251968503937
 30
0.0
 10
0.1316692913385827
 20
2.38251968503937
 30
0.0
 10
0.1418503937007874
 20
2.375200787401575
 30
0.0
 10
0.1418503937007874
 20
2.375200787401575
 30
0.0
 10
0.1418503937007874
 20
2.375200787401575
 30
0.0
 10
0.1418503937007874
 20
2.375200787401575
 30
0.0
 10
0.1528937007874016
 20
2.368125984251968
 30
0.0
 10
0.1528937007874016
 20
2.368125984251968
 30
0.0
  0
SPLINE
  5
48
330
1F
100
AcDbEntity
  8
LAYER_1
 62
   253
100
AcDbSpline
210
0.0
220
0.0
230
1.0
 70
    11
 71
     3
 72
    44
 73
    40
 74
     0
 42
0.0000000001
 43
0.0000000001
 40
0.0
 40
0.0
 40
0.0
 40
0.0
 40
0.1
 40
0.1
 40
0.1
 40
0.1
 40
0.2
 40
0.2
 40
0.2
 40
0.2
 40
0.3
 40
0.3
 40
0.3
 40
0.3
 40
0.4
 40
0.4
 40
0.4
 40
0.4
 40
0.5
 40
0.5
 40
0.5
 40
0.5
 40
0.6
 40
0.6
 40
0.6
 40
0.6
 40
0.7
 40
0.7
 40
0.7
 40
0.7
 40
0.7999999999999999
 40
0.7999999999999999
 40
0.7999999999999999
 40
0.7999999999999999
 40
0.8999999999999999
 40
0.8999999999999999
 40
0.8999999999999999
 40
0.8999999999999999
 40
1.0
 40
1.0
 40
1.0
 40
1.0
 10
0.1132913385826772
 20
2.397688976377953
 30
0.0
 10
0.1132913385826772
 20
2.397688976377953
 30
0.0
 10
0.7653425196850394
 20
2.775271653543307
 30
0.0
 10
0.7653425196850394
 20
2.775271653543307
 30
0.0
 10
0.7653425196850394
 20
2.775271653543307
 30
0.0
 10
0.7653425196850394
 20
2.775271653543307
 30
0.0
 10
0.7568582677165354
 20
2.783011811023622
 30
0.0
 10
0.7568582677165354
 20
2.783011811023622
 30
0.0
 10
0.7568582677165354
 20
2.783011811023622
 30
0.0
 10
0.7568582677165354
 20
2.783011811023622
 30
0.0
 10
0.7486614173228346
 20
2.790771653543307
 30
0.0
 10
0.7486614173228346
 20
2.790771653543307
 30
0.0
 10
0.7486614173228346
 20
2.790771653543307
 30
0.0
 10
0.7486614173228346
 20
2.790771653543307
 30
0.0
 10
0.7405905511811024
 20
2.798507874015748
 30
0.0
 10
0.7405905511811024
 20
2.798507874015748
 30
0.0
 10
0.7405905511811024
 20
2.798507874015748
 30
0.0
 10
0.7405905511811024
 20
2.798507874015748
 30
0.0
 10
0.7325157480314961
 20
2.806161417322835
 30
0.0
 10
0.7325157480314961
 20
2.806161417322835
 30
0.0
 10
0.7325157480314961
 20
2.806161417322835
 30
0.0
 10
0.7325157480314961
 20
2.806161417322835
 30
0.0
 10
0.0804645669291339
 20
2.428578740157481
 30
0.0
 10
0.0804645669291339
 20
2.428578740157481
 30
0.0
 10
0.0804645669291339
 20
2.428578740157481
 30
0.0
 10
0.0804645669291339
 20
2.428578740157481
 30
0.0
 10
0.0885393700787402
 20
2.420925196850394
 30
0.0
 10
0.0885393700787402
 20
2.420925196850394
 30
0.0
 10
0.0885393700787402
 20
2.420925196850394
 30
0.0
 10
0.0885393700787402
 20
2.420925196850394
 30
0.0
 10
0.0966102362204724
 20
2.413188976377953
 30
0.0
 10
0.0966102362204724
 20
2.413188976377953
 30
0.0
 10
0.0966102362204724
 20
2.413188976377953
 30
0.0
 10
0.0966102362204724
 20
2.413188976377953
 30
0.0
 10
0.1048070866141732
 20
2.405429133858268
 30
0.0
 10
0.1048070866141732
 20
2.405429133858268
 30
0.0
 10
0.1048070866141732
 20
2.405429133858268
 30
0.0
 10
0.1048070866141732
 20
2.405429133858268
 30
0.0
 10
0.1132913385826772
 20
2.397688976377953
 30
0.0
 10
0.1132913385826772
 20
2.397688976377953
 30
0.0
  0
SPLINE
  5
49
330
1F
100
AcDbEntity
  8
LAYER_1
 62
   253
100
AcDbSpline
210
0.0
220
0.0
230
1.0
 70
    11
 71
     3
 72
    44
 73
    40
 74
     0
 42
0.0000000001
 43
0.0000000001
 40
0.0
 40
0.0
 40
0.0
 40
0.0
 40
0.1
 40
0.1
 40
0.1
 40
0.1
 40
0.2
 40
0.2
 40
0.2
 40
0.2
 40
0.3
 40
0.3
 40
0.3
 40
0.3
 40
0.4
 40
0.4
 40
0.4
 40
0.4
 40
0.5
 40
0.5
 40
0.5
 40
0.5
 40
0.6
 40
0.6
 40
0.6
 40
0.6
 40
0.7
 40
0.7
 40
0.7
 40
0.7
 40
0.7999999999999999
 40
0.7999999999999999
 40
0.7999999999999999
 40
0.7999999999999999
 40
0.8999999999999999
 40
0.8999999999999999
 40
0.8999999999999999
 40
0.8999999999999999
 40
1.0
 40
1.0
 40
1.0
 40
1.0
 10
0.0804645669291339
 20
2.428578740157481
 30
0.0
 10
0.0804645669291339
 20
2.428578740157481
 30
0.0
 10
0.7325157480314961
 20
2.806161417322835
 30
0.0
 10
0.7325157480314961
 20
2.806161417322835
 30
0.0
 10
0.7325157480314961
 20
2.806161417322835
 30
0.0
 10
0.7325157480314961
 20
2.806161417322835
 30
0.0
 10
0.7242795275590551
 20
2.813677165354331
 30
0.0
 10
0.7242795275590551
 20
2.813677165354331
 30
0.0
 10
0.7242795275590551
 20
2.813677165354331
 30
0.0
 10
0.7242795275590551
 20
2.813677165354331
 30
0.0
 10
0.715755905511811
 20
2.820996062992126
 30
0.0
 10
0.715755905511811
 20
2.820996062992126
 30
0.0
 10
0.715755905511811
 20
2.820996062992126
 30
0.0
 10
0.715755905511811
 20
2.820996062992126
 30
0.0
 10
0.7067795275590552
 20
2.828070866141732
 30
0.0
 10
0.7067795275590552
 20
2.828070866141732
 30
0.0
 10
0.7067795275590552
 20
2.828070866141732
 30
0.0
 10
0.7067795275590552
 20
2.828070866141732
 30
0.0
 10
0.6972244094488189
 20
2.83484251968504
 30
0.0
 10
0.6972244094488189
 20
2.83484251968504
 30
0.0
 10
0.6972244094488189
 20
2.83484251968504
 30
0.0
 10
0.6972244094488189
 20
2.83484251968504
 30
0.0
 10
0.0451732283464567
 20
2.457259842519685
 30
0.0
 10
0.0451732283464567
 20
2.457259842519685
 30
0.0
 10
0.0451732283464567
 20
2.457259842519685
 30
0.0
 10
0.0451732283464567
 20
2.457259842519685
 30
0.0
 10
0.0547283464566929
 20
2.450488188976378
 30
0.0
 10
0.0547283464566929
 20
2.450488188976378
 30
0.0
 10
0.0547283464566929
 20
2.450488188976378
 30
0.0
 10
0.0547283464566929
 20
2.450488188976378
 30
0.0
 10
0.0637047244094488
 20
2.443413385826772
 30
0.0
 10
0.0637047244094488
 20
2.443413385826772
 30
0.0
 10
0.0637047244094488
 20
2.443413385826772
 30
0.0
 10
0.0637047244094488
 20
2.443413385826772
 30
0.0
 10
0.0722283464566929
 20
2.436094488188977
 30
0.0
 10
0.0722283464566929
 20
2.436094488188977
 30
0.0
 10
0.0722283464566929
 20
2.436094488188977
 30
0.0
 10
0.0722283464566929
 20
2.436094488188977
 30
0.0
 10
0.0804645669291339
 20
2.428578740157481
 30
0.0
 10
0.0804645669291339
 20
2.428578740157481
 30
0.0
  0
SPLINE
  5
4A
330
1F
100
AcDbEntity
  8
LAYER_1
 62
   253
100
AcDbSpline
210
0.0
220
0.0
230
1.0
 70
    11
 71
     3
 72
    36
 73
    32
 74
     0
 42
0.0000000001
 43
0.0000000001
 40
0.0
 40
0.0
 40
0.0
 40
0.0
 40
0.125
 40
0.125
 40
0.125
 40
0.125
 40
0.25
 40
0.25
 40
0.25
 40
0.25
 40
0.375
 40
0.375
 40
0.375
 40
0.375
 40
0.5
 40
0.5
 40
0.5
 40
0.5
 40
0.625
 40
0.625
 40
0.625
 40
0.625
 40
0.75
 40
0.75
 40
0.75
 40
0.75
 40
0.875
 40
0.875
 40
0.875
 40
0.875
 40
1.0
 40
1.0
 40
1.0
 40
1.0
 10
0.0451732283464567
 20
2.457259842519685
 30
0.0
 10
0.0451732283464567
 20
2.457259842519685
 30
0.0
 10
0.6972244094488189
 20
2.83484251968504
 30
0.0
 10
0.6972244094488189
 20
2.83484251968504
 30
0.0
 10
0.6972244094488189
 20
2.83484251968504
 30
0.0
 10
0.6972244094488189
 20
2.83484251968504
 30
0.0
 10
0.6869291338582677
 20
2.841255905511811
 30
0.0
 10
0.6869291338582677
 20
2.841255905511811
 30
0.0
 10
0.6869291338582677
 20
2.841255905511811
 30
0.0
 10
0.6869291338582677
 20
2.841255905511811
 30
0.0
 10
0.6757677165354331
 20
2.847244094488189
 30
0.0
 10
0.6757677165354331
 20
2.847244094488189
 30
0.0
 10
0.6757677165354331
 20
2.847244094488189
 30
0.0
 10
0.6757677165354331
 20
2.847244094488189
 30
0.0
 10
0.6635787401574803
 20
2.852767716535433
 30
0.0
 10
0.6635787401574803
 20
2.852767716535433
 30
0.0
 10
0.6635787401574803
 20
2.852767716535433
 30
0.0
 10
0.6635787401574803
 20
2.852767716535433
 30
0.0
 10
0.0115275590551181
 20
2.475185039370079
 30
0.0
 10
0.0115275590551181
 20
2.475185039370079
 30
0.0
 10
0.0115275590551181
 20
2.475185039370079
 30
0.0
 10
0.0115275590551181
 20
2.475185039370079
 30
0.0
 10
0.0237165354330709
 20
2.469661417322835
 30
0.0
 10
0.0237165354330709
 20
2.469661417322835
 30
0.0
 10
0.0237165354330709
 20
2.469661417322835
 30
0.0
 10
0.0237165354330709
 20
2.469661417322835
 30
0.0
 10
0.0348779527559055
 20
2.463673228346457
 30
0.0
 10
0.0348779527559055
 20
2.463673228346457
 30
0.0
 10
0.0348779527559055
 20
2.463673228346457
 30
0.0
 10
0.0348779527559055
 20
2.463673228346457
 30
0.0
 10
0.0451732283464567
 20
2.457259842519685
 30
0.0
 10
0.0451732283464567
 20
2.457259842519685
 30
0.0
  0
SPLINE
  5
4B
330
1F
100
AcDbEntity
  8
LAYER_1
 62
   252
100
AcDbSpline
210
0.0
220
0.0
230
1.0
 70
    11
 71
     3
 72
    36
 73
    32
 74
     0
 42
0.0000000001
 43
0.0000000001
 40
0.0
 40
0.0
 40
0.0
 40
0.0
 40
0.125
 40
0.125
 40
0.125
 40
0.125
 40
0.25
 40
0.25
 40
0.25
 40
0.25
 40
0.375
 40
0.375
 40
0.375
 40
0.375
 40
0.5
 40
0.5
 40
0.5
 40
0.5
 40
0.625
 40
0.625
 40
0.625
 40
0.625
 40
0.75
 40
0.75
 40
0.75
 40
0.75
 40
0.875
 40
0.875
 40
0.875
 40
0.875
 40
1.0
 40
1.0
 40
1.0
 40
1.0
 10
0.0115275590551181
 20
2.475185039370079
 30
0.0
 10
0.0115275590551181
 20
2.475185039370079
 30
0.0
 10
0.6635787401574803
 20
2.852767716535433
 30
0.0
 10
0.6635787401574803
 20
2.852767716535433
 30
0.0
 10
0.6635787401574803
 20
2.852767716535433
 30
0.0
 10
0.6635787401574803
 20
2.852767716535433
 30
0.0
 10
0.6502283464566929
 20
2.857763779527559
 30
0.0
 10
0.6502283464566929
 20
2.857763779527559
 30
0.0
 10
0.6502283464566929
 20
2.857763779527559
 30
0.0
 10
0.6502283464566929
 20
2.857763779527559
 30
0.0
 10
0.6355629921259843
 20
2.862185039370079
 30
0.0
 10
0.6355629921259843
 20
2.862185039370079
 30
0.0
 10
0.6355629921259843
 20
2.862185039370079
 30
0.0
 10
0.6355629921259843
 20
2.862185039370079
 30
0.0
 10
0.6194566929133859
 20
2.86596062992126
 30
0.0
 10
0.6194566929133859
 20
2.86596062992126
 30
0.0
 10
0.6194566929133859
 20
2.86596062992126
 30
0.0
 10
0.6194566929133859
 20
2.86596062992126
 30
0.0
 10
-0.0325944881889764
 20
2.488377952755906
 30
0.0
 10
-0.0325944881889764
 20
2.488377952755906
 30
0.0
 10
-0.0325944881889764
 20
2.488377952755906
 30
0.0
 10
-0.0325944881889764
 20
2.488377952755906
 30
0.0
 10
-0.016488188976378
 20
2.484602362204725
 30
0.0
 10
-0.016488188976378
 20
2.484602362204725
 30
0.0
 10
-0.016488188976378
 20
2.484602362204725
 30
0.0
 10
-0.016488188976378
 20
2.484602362204725
 30
0.0
 10
-0.0018228346456693
 20
2.480181102362205
 30
0.0
 10
-0.0018228346456693
 20
2.480181102362205
 30
0.0
 10
-0.0018228346456693
 20
2.480181102362205
 30
0.0
 10
-0.0018228346456693
 20
2.480181102362205
 30
0.0
 10
0.0115275590551181
 20
2.475185039370079
 30
0.0
 10
0.0115275590551181
 20
2.475185039370079
 30
0.0
  0
SPLINE
  5
4C
330
1F
100
AcDbEntity
  8
LAYER_1
 62
   252
100
AcDbSpline
210
0.0
220
0.0
230
1.0
 70
    11
 71
     3
 72
    28
 73
    24
 74
     0
 42
0.0000000001
 43
0.0000000001
 40
0.0
 40
0.0
 40
0.0
 40
0.0
 40
0.1666666666666667
 40
0.1666666666666667
 40
0.1666666666666667
 40
0.1666666666666667
 40
0.3333333333333333
 40
0.3333333333333333
 40
0.3333333333333333
 40
0.3333333333333333
 40
0.5
 40
0.5
 40
0.5
 40
0.5
 40
0.6666666666666666
 40
0.6666666666666666
 40
0.6666666666666666
 40
0.6666666666666666
 40
0.8333333333333333
 40
0.8333333333333333
 40
0.8333333333333333
 40
0.8333333333333333
 40
1.0
 40
1.0
 40
1.0
 40
1.0
 10
-0.0325944881889764
 20
2.488377952755906
 30
0.0
 10
-0.0325944881889764
 20
2.488377952755906
 30
0.0
 10
0.6194566929133859
 20
2.86596062992126
 30
0.0
 10
0.6194566929133859
 20
2.86596062992126
 30
0.0
 10
0.6194566929133859
 20
2.86596062992126
 30
0.0
 10
0.6194566929133859
 20
2.86596062992126
 30
0.0
 10
0.601744094488189
 20
2.869051181102362
 30
0.0
 10
0.601744094488189
 20
2.869051181102362
 30
0.0
 10
0.601744094488189
 20
2.869051181102362
 30
0.0
 10
0.601744094488189
 20
2.869051181102362
 30
0.0
 10
0.5822913385826772
 20
2.871389763779528
 30
0.0
 10
0.5822913385826772
 20
2.871389763779528
 30
0.0
 10
0.5822913385826772
 20
2.871389763779528
 30
0.0
 10
0.5822913385826772
 20
2.871389763779528
 30
0.0
 10
-0.069759842519685
 20
2.493807086614174
 30
0.0
 10
-0.069759842519685
 20
2.493807086614174
 30
0.0
 10
-0.069759842519685
 20
2.493807086614174
 30
0.0
 10
-0.069759842519685
 20
2.493807086614174
 30
0.0
 10
-0.0503070866141732
 20
2.491468503937008
 30
0.0
 10
-0.0503070866141732
 20
2.491468503937008
 30
0.0
 10
-0.0503070866141732
 20
2.491468503937008
 30
0.0
 10
-0.0503070866141732
 20
2.491468503937008
 30
0.0
 10
-0.0325944881889764
 20
2.488377952755906
 30
0.0
 10
-0.0325944881889764
 20
2.488377952755906
 30
0.0
  0
SPLINE
  5
4D
330
1F
100
AcDbEntity
  8
LAYER_1
 62
   252
100
AcDbSpline
210
0.0
220
0.0
230
1.0
 70
    11
 71
     3
 72
    20
 73
    16
 74
     0
 42
0.0000000001
 43
0.0000000001
 40
0.0
 40
0.0
 40
0.0
 40
0.0
 40
0.25
 40
0.25
 40
0.25
 40
0.25
 40
0.5
 40
0.5
 40
0.5
 40
0.5
 40
0.75
 40
0.75
 40
0.75
 40
0.75
 40
1.0
 40
1.0
 40
1.0
 40
1.0
 10
-0.069759842519685
 20
2.493807086614174
 30
0.0
 10
-0.069759842519685
 20
2.493807086614174
 30
0.0
 10
0.5822913385826772
 20
2.871389763779528
 30
0.0
 10
0.5822913385826772
 20
2.871389763779528
 30
0.0
 10
0.5822913385826772
 20
2.871389763779528
 30
0.0
 10
0.5822913385826772
 20
2.871389763779528
 30
0.0
 10
0.5609448818897638
 20
2.872933070866142
 30
0.0
 10
0.5609448818897638
 20
2.872933070866142
 30
0.0
 10
0.5609448818897638
 20
2.872933070866142
 30
0.0
 10
0.5609448818897638
 20
2.872933070866142
 30
0.0
 10
-0.0911062992125984
 20
2.495350393700788
 30
0.0
 10
-0.0911062992125984
 20
2.495350393700788
 30
0.0
 10
-0.0911062992125984
 20
2.495350393700788
 30
0.0
 10
-0.0911062992125984
 20
2.495350393700788
 30
0.0
 10
-0.069759842519685
 20
2.493807086614174
 30
0.0
 10
-0.069759842519685
 20
2.493807086614174
 30
0.0
  0
SPLINE
  5
4E
330
1F
100
AcDbEntity
  8
LAYER_1
 62
   250
100
AcDbSpline
210
0.0
220
0.0
230
1.0
 70
    11
 71
     3
 72
   268
 73
   264
 74
     0
 42
0.0000000001
 43
0.0000000001
 40
0.0
 40
0.0
 40
0.0
 40
0.0
 40
0.0151515151515152
 40
0.0151515151515152
 40
0.0151515151515152
 40
0.0151515151515152
 40
0.0303030303030303
 40
0.0303030303030303
 40
0.0303030303030303
 40
0.0303030303030303
 40
0.0454545454545455
 40
0.0454545454545455
 40
0.0454545454545455
 40
0.0454545454545455
 40
0.0606060606060606
 40
0.0606060606060606
 40
0.0606060606060606
 40
0.0606060606060606
 40
0.0757575757575758
 40
0.0757575757575758
 40
0.0757575757575758
 40
0.0757575757575758
 40
0.0909090909090909
 40
0.0909090909090909
 40
0.0909090909090909
 40
0.0909090909090909
 40
0.1060606060606061
 40
0.1060606060606061
 40
0.1060606060606061
 40
0.1060606060606061
 40
0.1212121212121212
 40
0.1212121212121212
 40
0.1212121212121212
 40
0.1212121212121212
 40
0.1363636363636364
 40
0.1363636363636364
 40
0.1363636363636364
 40
0.1363636363636364
 40
0.1515151515151515
 40
0.1515151515151515
 40
0.1515151515151515
 40
0.1515151515151515
 40
0.1666666666666666
 40
0.1666666666666666
 40
0.1666666666666666
 40
0.1666666666666666
 40
0.1818181818181818
 40
0.1818181818181818
 40
0.1818181818181818
 40
0.1818181818181818
 40
0.1969696969696969
 40
0.1969696969696969
 40
0.1969696969696969
 40
0.1969696969696969
 40
0.212121212121212
 40
0.212121212121212
 40
0.212121212121212
 40
0.212121212121212
 40
0.2272727272727272
 40
0.2272727272727272
 40
0.2272727272727272
 40
0.2272727272727272
 40
0.2424242424242423
 40
0.2424242424242423
 40
0.2424242424242423
 40
0.2424242424242423
 40
0.2575757575757575
 40
0.2575757575757575
 40
0.2575757575757575
 40
0.2575757575757575
 40
0.2727272727272726
 40
0.2727272727272726
 40
0.2727272727272726
 40
0.2727272727272726
 40
0.2878787878787877
 40
0.2878787878787877
 40
0.2878787878787877
 40
0.2878787878787877
 40
0.3030303030303029
 40
0.3030303030303029
 40
0.3030303030303029
 40
0.3030303030303029
 40
0.318181818181818
 40
0.318181818181818
 40
0.318181818181818
 40
0.318181818181818
 40
0.3333333333333332
 40
0.3333333333333332
 40
0.3333333333333332
 40
0.3333333333333332
 40
0.3484848484848483
 40
0.3484848484848483
 40
0.3484848484848483
 40
0.3484848484848483
 40
0.3636363636363634
 40
0.3636363636363634
 40
0.3636363636363634
 40
0.3636363636363634
 40
0.3787878787878786
 40
0.3787878787878786
 40
0.3787878787878786
 40
0.3787878787878786
 40
0.3939393939393937
 40
0.3939393939393937
 40
0.3939393939393937
 40
0.3939393939393937
 40
0.4090909090909088
 40
0.4090909090909088
 40
0.4090909090909088
 40
0.4090909090909088
 40
0.424242424242424
 40
0.424242424242424
 40
0.424242424242424
 40
0.424242424242424
 40
0.4393939393939391
 40
0.4393939393939391
 40
0.4393939393939391
 40
0.4393939393939391
 40
0.4545454545454543
 40
0.4545454545454543
 40
0.4545454545454543
 40
0.4545454545454543
 40
0.4696969696969694
 40
0.4696969696969694
 40
0.4696969696969694
 40
0.4696969696969694
 40
0.4848484848484845
 40
0.4848484848484845
 40
0.4848484848484845
 40
0.4848484848484845
 40
0.4999999999999997
 40
0.4999999999999997
 40
0.4999999999999997
 40
0.4999999999999997
 40
0.5151515151515148
 40
0.5151515151515148
 40
0.5151515151515148
 40
0.5151515151515148
 40
0.5303030303030299
 40
0.5303030303030299
 40
0.5303030303030299
 40
0.5303030303030299
 40
0.5454545454545451
 40
0.5454545454545451
 40
0.5454545454545451
 40
0.5454545454545451
 40
0.5606060606060602
 40
0.5606060606060602
 40
0.5606060606060602
 40
0.5606060606060602
 40
0.5757575757575754
 40
0.5757575757575754
 40
0.5757575757575754
 40
0.5757575757575754
 40
0.5909090909090905
 40
0.5909090909090905
 40
0.5909090909090905
 40
0.5909090909090905
 40
0.6060606060606056
 40
0.6060606060606056
 40
0.6060606060606056
 40
0.6060606060606056
 40
0.6212121212121208
 40
0.6212121212121208
 40
0.6212121212121208
 40
0.6212121212121208
 40
0.6363636363636359
 40
0.6363636363636359
 40
0.6363636363636359
 40
0.6363636363636359
 40
0.6515151515151511
 40
0.6515151515151511
 40
0.6515151515151511
 40
0.6515151515151511
 40
0.6666666666666662
 40
0.6666666666666662
 40
0.6666666666666662
 40
0.6666666666666662
 40
0.6818181818181813
 40
0.6818181818181813
 40
0.6818181818181813
 40
0.6818181818181813
 40
0.6969696969696965
 40
0.6969696969696965
 40
0.6969696969696965
 40
0.6969696969696965
 40
0.7121212121212116
 40
0.7121212121212116
 40
0.7121212121212116
 40
0.7121212121212116
 40
0.7272727272727267
 40
0.7272727272727267
 40
0.7272727272727267
 40
0.7272727272727267
 40
0.7424242424242419
 40
0.7424242424242419
 40
0.7424242424242419
 40
0.7424242424242419
 40
0.757575757575757
 40
0.757575757575757
 40
0.757575757575757
 40
0.757575757575757
 40
0.7727272727272722
 40
0.7727272727272722
 40
0.7727272727272722
 40
0.7727272727272722
 40
0.7878787878787873
 40
0.7878787878787873
 40
0.7878787878787873
 40
0.7878787878787873
 40
0.8030303030303024
 40
0.8030303030303024
 40
0.8030303030303024
 40
0.8030303030303024
 40
0.8181818181818176
 40
0.8181818181818176
 40
0.8181818181818176
 40
0.8181818181818176
 40
0.8333333333333327
 40
0.8333333333333327
 40
0.8333333333333327
 40
0.8333333333333327
 40
0.8484848484848478
 40
0.8484848484848478
 40
0.8484848484848478
 40
0.8484848484848478
 40
0.863636363636363
 40
0.863636363636363
 40
0.863636363636363
 40
0.863636363636363
 40
0.8787878787878781
 40
0.8787878787878781
 40
0.8787878787878781
 40
0.8787878787878781
 40
0.8939393939393933
 40
0.8939393939393933
 40
0.8939393939393933
 40
0.8939393939393933
 40
0.9090909090909084
 40
0.9090909090909084
 40
0.9090909090909084
 40
0.9090909090909084
 40
0.9242424242424235
 40
0.9242424242424235
 40
0.9242424242424235
 40
0.9242424242424235
 40
0.9393939393939387
 40
0.9393939393939387
 40
0.9393939393939387
 40
0.9393939393939387
 40
0.9545454545454538
 40
0.9545454545454538
 40
0.9545454545454538
 40
0.9545454545454538
 40
0.969696969696969
 40
0.969696969696969
 40
0.969696969696969
 40
0.969696969696969
 40
0.9848484848484841
 40
0.9848484848484841
 40
0.9848484848484841
 40
0.9848484848484841
 40
1.0
 40
1.0
 40
1.0
 40
1.0
 10
0.3721732283464567
 20
2.322661417322835
 30
0.0
 10
0.3721732283464567
 20
2.322661417322835
 30
0.0
 10
1.024224409448819
 20
2.700244094488189
 30
0.0
 10
1.024224409448819
 20
2.700244094488189
 30
0.0
 10
1.024224409448819
 20
2.700244094488189
 30
0.0
 10
1.024224409448819
 20
2.700244094488189
 30
0.0
 10
0.994228346456693
 20
2.700909448818898
 30
0.0
 10
0.994228346456693
 20
2.700909448818898
 30
0.0
 10
0.994228346456693
 20
2.700909448818898
 30
0.0
 10
0.994228346456693
 20
2.700909448818898
 30
0.0
 10
0.9666811023622047
 20
2.702437007874016
 30
0.0
 10
0.9666811023622047
 20
2.702437007874016
 30
0.0
 10
0.9666811023622047
 20
2.702437007874016
 30
0.0
 10
0.9666811023622047
 20
2.702437007874016
 30
0.0
 10
0.9414330708661418
 20
2.704767716535433
 30
0.0
 10
0.9414330708661418
 20
2.704767716535433
 30
0.0
 10
0.9414330708661418
 20
2.704767716535433
 30
0.0
 10
0.9414330708661418
 20
2.704767716535433
 30
0.0
 10
0.9183425196850394
 20
2.707854330708662
 30
0.0
 10
0.9183425196850394
 20
2.707854330708662
 30
0.0
 10
0.9183425196850394
 20
2.707854330708662
 30
0.0
 10
0.9183425196850394
 20
2.707854330708662
 30
0.0
 10
0.8972598425196851
 20
2.711625984251969
 30
0.0
 10
0.8972598425196851
 20
2.711625984251969
 30
0.0
 10
0.8972598425196851
 20
2.711625984251969
 30
0.0
 10
0.8972598425196851
 20
2.711625984251969
 30
0.0
 10
0.8780472440944882
 20
2.716035433070866
 30
0.0
 10
0.8780472440944882
 20
2.716035433070866
 30
0.0
 10
0.8780472440944882
 20
2.716035433070866
 30
0.0
 10
0.8780472440944882
 20
2.716035433070866
 30
0.0
 10
0.8605551181102362
 20
2.721027559055118
 30
0.0
 10
0.8605551181102362
 20
2.721027559055118
 30
0.0
 10
0.8605551181102362
 20
2.721027559055118
 30
0.0
 10
0.8605551181102362
 20
2.721027559055118
 30
0.0
 10
0.8446496062992126
 20
2.726551181102362
 30
0.0
 10
0.8446496062992126
 20
2.726551181102362
 30
0.0
 10
0.8446496062992126
 20
2.726551181102362
 30
0.0
 10
0.8446496062992126
 20
2.726551181102362
 30
0.0
 10
0.8301692913385828
 20
2.732535433070866
 30
0.0
 10
0.8301692913385828
 20
2.732535433070866
 30
0.0
 10
0.8301692913385828
 20
2.732535433070866
 30
0.0
 10
0.8301692913385828
 20
2.732535433070866
 30
0.0
 10
0.816984251968504
 20
2.738944881889764
 30
0.0
 10
0.816984251968504
 20
2.738944881889764
 30
0.0
 10
0.816984251968504
 20
2.738944881889764
 30
0.0
 10
0.816984251968504
 20
2.738944881889764
 30
0.0
 10
0.8049448818897638
 20
2.745708661417323
 30
0.0
 10
0.8049448818897638
 20
2.745708661417323
 30
0.0
 10
0.8049448818897638
 20
2.745708661417323
 30
0.0
 10
0.8049448818897638
 20
2.745708661417323
 30
0.0
 10
0.7939015748031496
 20
2.752783464566929
 30
0.0
 10
0.7939015748031496
 20
2.752783464566929
 30
0.0
 10
0.7939015748031496
 20
2.752783464566929
 30
0.0
 10
0.7939015748031496
 20
2.752783464566929
 30
0.0
 10
0.7837204724409449
 20
2.760102362204725
 30
0.0
 10
0.7837204724409449
 20
2.760102362204725
 30
0.0
 10
0.7837204724409449
 20
2.760102362204725
 30
0.0
 10
0.7837204724409449
 20
2.760102362204725
 30
0.0
 10
0.774248031496063
 20
2.767618110236221
 30
0.0
 10
0.774248031496063
 20
2.767618110236221
 30
0.0
 10
0.774248031496063
 20
2.767618110236221
 30
0.0
 10
0.774248031496063
 20
2.767618110236221
 30
0.0
 10
0.7653425196850394
 20
2.775271653543307
 30
0.0
 10
0.7653425196850394
 20
2.775271653543307
 30
0.0
 10
0.7653425196850394
 20
2.775271653543307
 30
0.0
 10
0.7653425196850394
 20
2.775271653543307
 30
0.0
 10
0.7568582677165354
 20
2.783011811023622
 30
0.0
 10
0.7568582677165354
 20
2.783011811023622
 30
0.0
 10
0.7568582677165354
 20
2.783011811023622
 30
0.0
 10
0.7568582677165354
 20
2.783011811023622
 30
0.0
 10
0.7486614173228346
 20
2.790771653543307
 30
0.0
 10
0.7486614173228346
 20
2.790771653543307
 30
0.0
 10
0.7486614173228346
 20
2.790771653543307
 30
0.0
 10
0.7486614173228346
 20
2.790771653543307
 30
0.0
 10
0.7405905511811024
 20
2.798507874015748
 30
0.0
 10
0.7405905511811024
 20
2.798507874015748
 30
0.0
 10
0.7405905511811024
 20
2.798507874015748
 30
0.0
 10
0.7405905511811024
 20
2.798507874015748
 30
0.0
 10
0.7325157480314961
 20
2.806161417322835
 30
0.0
 10
0.7325157480314961
 20
2.806161417322835
 30
0.0
 10
0.7325157480314961
 20
2.806161417322835
 30
0.0
 10
0.7325157480314961
 20
2.806161417322835
 30
0.0
 10
0.7242795275590551
 20
2.813677165354331
 30
0.0
 10
0.7242795275590551
 20
2.813677165354331
 30
0.0
 10
0.7242795275590551
 20
2.813677165354331
 30
0.0
 10
0.7242795275590551
 20
2.813677165354331
 30
0.0
 10
0.715755905511811
 20
2.820996062992126
 30
0.0
 10
0.715755905511811
 20
2.820996062992126
 30
0.0
 10
0.715755905511811
 20
2.820996062992126
 30
0.0
 10
0.715755905511811
 20
2.820996062992126
 30
0.0
 10
0.7067795275590552
 20
2.828070866141732
 30
0.0
 10
0.7067795275590552
 20
2.828070866141732
 30
0.0
 10
0.7067795275590552
 20
2.828070866141732
 30
0.0
 10
0.7067795275590552
 20
2.828070866141732
 30
0.0
 10
0.6972244094488189
 20
2.83484251968504
 30
0.0
 10
0.6972244094488189
 20
2.83484251968504
 30
0.0
 10
0.6972244094488189
 20
2.83484251968504
 30
0.0
 10
0.6972244094488189
 20
2.83484251968504
 30
0.0
 10
0.6869291338582677
 20
2.841255905511811
 30
0.0
 10
0.6869291338582677
 20
2.841255905511811
 30
0.0
 10
0.6869291338582677
 20
2.841255905511811
 30
0.0
 10
0.6869291338582677
 20
2.841255905511811
 30
0.0
 10
0.6757677165354331
 20
2.847244094488189
 30
0.0
 10
0.6757677165354331
 20
2.847244094488189
 30
0.0
 10
0.6757677165354331
 20
2.847244094488189
 30
0.0
 10
0.6757677165354331
 20
2.847244094488189
 30
0.0
 10
0.6635787401574803
 20
2.852767716535433
 30
0.0
 10
0.6635787401574803
 20
2.852767716535433
 30
0.0
 10
0.6635787401574803
 20
2.852767716535433
 30
0.0
 10
0.6635787401574803
 20
2.852767716535433
 30
0.0
 10
0.6502283464566929
 20
2.857763779527559
 30
0.0
 10
0.6502283464566929
 20
2.857763779527559
 30
0.0
 10
0.6502283464566929
 20
2.857763779527559
 30
0.0
 10
0.6502283464566929
 20
2.857763779527559
 30
0.0
 10
0.6355629921259843
 20
2.862185039370079
 30
0.0
 10
0.6355629921259843
 20
2.862185039370079
 30
0.0
 10
0.6355629921259843
 20
2.862185039370079
 30
0.0
 10
0.6355629921259843
 20
2.862185039370079
 30
0.0
 10
0.6194566929133859
 20
2.86596062992126
 30
0.0
 10
0.6194566929133859
 20
2.86596062992126
 30
0.0
 10
0.6194566929133859
 20
2.86596062992126
 30
0.0
 10
0.6194566929133859
 20
2.86596062992126
 30
0.0
 10
0.601744094488189
 20
2.869051181102362
 30
0.0
 10
0.601744094488189
 20
2.869051181102362
 30
0.0
 10
0.601744094488189
 20
2.869051181102362
 30
0.0
 10
0.601744094488189
 20
2.869051181102362
 30
0.0
 10
0.5822913385826772
 20
2.871389763779528
 30
0.0
 10
0.5822913385826772
 20
2.871389763779528
 30
0.0
 10
0.5822913385826772
 20
2.871389763779528
 30
0.0
 10
0.5822913385826772
 20
2.871389763779528
 30
0.0
 10
0.5609448818897638
 20
2.872933070866142
 30
0.0
 10
0.5609448818897638
 20
2.872933070866142
 30
0.0
 10
0.5609448818897638
 20
2.872933070866142
 30
0.0
 10
0.5609448818897638
 20
2.872933070866142
 30
0.0
 10
-0.0911062992125984
 20
2.495350393700788
 30
0.0
 10
-0.0911062992125984
 20
2.495350393700788
 30
0.0
 10
-0.0911062992125984
 20
2.495350393700788
 30
0.0
 10
-0.0911062992125984
 20
2.495350393700788
 30
0.0
 10
-0.069759842519685
 20
2.493807086614174
 30
0.0
 10
-0.069759842519685
 20
2.493807086614174
 30
0.0
 10
-0.069759842519685
 20
2.493807086614174
 30
0.0
 10
-0.069759842519685
 20
2.493807086614174
 30
0.0
 10
-0.0503070866141732
 20
2.491468503937008
 30
0.0
 10
-0.0503070866141732
 20
2.491468503937008
 30
0.0
 10
-0.0503070866141732
 20
2.491468503937008
 30
0.0
 10
-0.0503070866141732
 20
2.491468503937008
 30
0.0
 10
-0.0325944881889764
 20
2.488377952755906
 30
0.0
 10
-0.0325944881889764
 20
2.488377952755906
 30
0.0
 10
-0.0325944881889764
 20
2.488377952755906
 30
0.0
 10
-0.0325944881889764
 20
2.488377952755906
 30
0.0
 10
-0.016488188976378
 20
2.484602362204725
 30
0.0
 10
-0.016488188976378
 20
2.484602362204725
 30
0.0
 10
-0.016488188976378
 20
2.484602362204725
 30
0.0
 10
-0.016488188976378
 20
2.484602362204725
 30
0.0
 10
-0.0018228346456693
 20
2.480181102362205
 30
0.0
 10
-0.0018228346456693
 20
2.480181102362205
 30
0.0
 10
-0.0018228346456693
 20
2.480181102362205
 30
0.0
 10
-0.0018228346456693
 20
2.480181102362205
 30
0.0
 10
0.0115275590551181
 20
2.475185039370079
 30
0.0
 10
0.0115275590551181
 20
2.475185039370079
 30
0.0
 10
0.0115275590551181
 20
2.475185039370079
 30
0.0
 10
0.0115275590551181
 20
2.475185039370079
 30
0.0
 10
0.0237165354330709
 20
2.469661417322835
 30
0.0
 10
0.0237165354330709
 20
2.469661417322835
 30
0.0
 10
0.0237165354330709
 20
2.469661417322835
 30
0.0
 10
0.0237165354330709
 20
2.469661417322835
 30
0.0
 10
0.0348779527559055
 20
2.463673228346457
 30
0.0
 10
0.0348779527559055
 20
2.463673228346457
 30
0.0
 10
0.0348779527559055
 20
2.463673228346457
 30
0.0
 10
0.0348779527559055
 20
2.463673228346457
 30
0.0
 10
0.0451732283464567
 20
2.457259842519685
 30
0.0
 10
0.0451732283464567
 20
2.457259842519685
 30
0.0
 10
0.0451732283464567
 20
2.457259842519685
 30
0.0
 10
0.0451732283464567
 20
2.457259842519685
 30
0.0
 10
0.0547283464566929
 20
2.450488188976378
 30
0.0
 10
0.0547283464566929
 20
2.450488188976378
 30
0.0
 10
0.0547283464566929
 20
2.450488188976378
 30
0.0
 10
0.0547283464566929
 20
2.450488188976378
 30
0.0
 10
0.0637047244094488
 20
2.443413385826772
 30
0.0
 10
0.0637047244094488
 20
2.443413385826772
 30
0.0
 10
0.0637047244094488
 20
2.443413385826772
 30
0.0
 10
0.0637047244094488
 20
2.443413385826772
 30
0.0
 10
0.0722283464566929
 20
2.436094488188977
 30
0.0
 10
0.0722283464566929
 20
2.436094488188977
 30
0.0
 10
0.0722283464566929
 20
2.436094488188977
 30
0.0
 10
0.0722283464566929
 20
2.436094488188977
 30
0.0
 10
0.0804645669291339
 20
2.428578740157481
 30
0.0
 10
0.0804645669291339
 20
2.428578740157481
 30
0.0
 10
0.0804645669291339
 20
2.428578740157481
 30
0.0
 10
0.0804645669291339
 20
2.428578740157481
 30
0.0
 10
0.0885393700787402
 20
2.420925196850394
 30
0.0
 10
0.0885393700787402
 20
2.420925196850394
 30
0.0
 10
0.0885393700787402
 20
2.420925196850394
 30
0.0
 10
0.0885393700787402
 20
2.420925196850394
 30
0.0
 10
0.0966102362204724
 20
2.413188976377953
 30
0.0
 10
0.0966102362204724
 20
2.413188976377953
 30
0.0
 10
0.0966102362204724
 20
2.413188976377953
 30
0.0
 10
0.0966102362204724
 20
2.413188976377953
 30
0.0
 10
0.1048070866141732
 20
2.405429133858268
 30
0.0
 10
0.1048070866141732
 20
2.405429133858268
 30
0.0
 10
0.1048070866141732
 20
2.405429133858268
 30
0.0
 10
0.1048070866141732
 20
2.405429133858268
 30
0.0
 10
0.1132913385826772
 20
2.397688976377953
 30
0.0
 10
0.1132913385826772
 20
2.397688976377953
 30
0.0
 10
0.1132913385826772
 20
2.397688976377953
 30
0.0
 10
0.1132913385826772
 20
2.397688976377953
 30
0.0
 10
0.1221968503937008
 20
2.390035433070866
 30
0.0
 10
0.1221968503937008
 20
2.390035433070866
 30
0.0
 10
0.1221968503937008
 20
2.390035433070866
 30
0.0
 10
0.1221968503937008
 20
2.390035433070866
 30
0.0
 10
0.1316692913385827
 20
2.38251968503937
 30
0.0
 10
0.1316692913385827
 20
2.38251968503937
 30
0.0
 10
0.1316692913385827
 20
2.38251968503937
 30
0.0
 10
0.1316692913385827
 20
2.38251968503937
 30
0.0
 10
0.1418503937007874
 20
2.375200787401575
 30
0.0
 10
0.1418503937007874
 20
2.375200787401575
 30
0.0
 10
0.1418503937007874
 20
2.375200787401575
 30
0.0
 10
0.1418503937007874
 20
2.375200787401575
 30
0.0
 10
0.1528937007874016
 20
2.368125984251968
 30
0.0
 10
0.1528937007874016
 20
2.368125984251968
 30
0.0
 10
0.1528937007874016
 20
2.368125984251968
 30
0.0
 10
0.1528937007874016
 20
2.368125984251968
 30
0.0
 10
0.1649330708661417
 20
2.36136220472441
 30
0.0
 10
0.1649330708661417
 20
2.36136220472441
 30
0.0
 10
0.1649330708661417
 20
2.36136220472441
 30
0.0
 10
0.1649330708661417
 20
2.36136220472441
 30
0.0
 10
0.1781181102362205
 20
2.354952755905512
 30
0.0
 10
0.1781181102362205
 20
2.354952755905512
 30
0.0
 10
0.1781181102362205
 20
2.354952755905512
 30
0.0
 10
0.1781181102362205
 20
2.354952755905512
 30
0.0
 10
0.1925984251968504
 20
2.348968503937008
 30
0.0
 10
0.1925984251968504
 20
2.348968503937008
 30
0.0
 10
0.1925984251968504
 20
2.348968503937008
 30
0.0
 10
0.1925984251968504
 20
2.348968503937008
 30
0.0
 10
0.208503937007874
 20
2.343444881889764
 30
0.0
 10
0.208503937007874
 20
2.343444881889764
 30
0.0
 10
0.208503937007874
 20
2.343444881889764
 30
0.0
 10
0.208503937007874
 20
2.343444881889764
 30
0.0
 10
0.225996062992126
 20
2.338452755905512
 30
0.0
 10
0.225996062992126
 20
2.338452755905512
 30
0.0
 10
0.225996062992126
 20
2.338452755905512
 30
0.0
 10
0.225996062992126
 20
2.338452755905512
 30
0.0
 10
0.2452086614173228
 20
2.334043307086614
 30
0.0
 10
0.2452086614173228
 20
2.334043307086614
 30
0.0
 10
0.2452086614173228
 20
2.334043307086614
 30
0.0
 10
0.2452086614173228
 20
2.334043307086614
 30
0.0
 10
0.2662913385826772
 20
2.330271653543307
 30
0.0
 10
0.2662913385826772
 20
2.330271653543307
 30
0.0
 10
0.2662913385826772
 20
2.330271653543307
 30
0.0
 10
0.2662913385826772
 20
2.330271653543307
 30
0.0
 10
0.2893818897637795
 20
2.327185039370079
 30
0.0
 10
0.2893818897637795
 20
2.327185039370079
 30
0.0
 10
0.2893818897637795
 20
2.327185039370079
 30
0.0
 10
0.2893818897637795
 20
2.327185039370079
 30
0.0
 10
0.3146299212598425
 20
2.324854330708662
 30
0.0
 10
0.3146299212598425
 20
2.324854330708662
 30
0.0
 10
0.3146299212598425
 20
2.324854330708662
 30
0.0
 10
0.3146299212598425
 20
2.324854330708662
 30
0.0
 10
0.3421771653543307
 20
2.323326771653544
 30
0.0
 10
0.3421771653543307
 20
2.323326771653544
 30
0.0
 10
0.3421771653543307
 20
2.323326771653544
 30
0.0
 10
0.3421771653543307
 20
2.323326771653544
 30
0.0
 10
0.3721732283464567
 20
2.322661417322835
 30
0.0
 10
0.3721732283464567
 20
2.322661417322835
 30
0.0
  0
SPLINE
  5
4F
330
1F
100
AcDbEntity
  8
LAYER_1
 62
   253
100
AcDbSpline
210
0.0
220
0.0
230
1.0
 70
    11
 71
     3
 72
    20
 73
    16
 74
     0
 42
0.0000000001
 43
0.0000000001
 40
0.0
 40
0.0
 40
0.0
 40
0.0
 40
0.25
 40
0.25
 40
0.25
 40
0.25
 40
0.5
 40
0.5
 40
0.5
 40
0.5
 40
0.75
 40
0.75
 40
0.75
 40
0.75
 40
1.0
 40
1.0
 40
1.0
 40
1.0
 10
-0.0911062992125984
 20
2.495350393700788
 30
0.0
 10
-0.0911062992125984
 20
2.495350393700788
 30
0.0
 10
0.5609448818897638
 20
2.872933070866142
 30
0.0
 10
0.5609448818897638
 20
2.872933070866142
 30
0.0
 10
0.5609448818897638
 20
2.872933070866142
 30
0.0
 10
0.5609448818897638
 20
2.872933070866142
 30
0.0
 10
0.5442716535433071
 20
2.975354330708662
 30
0.0
 10
0.5442716535433071
 20
2.975354330708662
 30
0.0
 10
0.5442716535433071
 20
2.975354330708662
 30
0.0
 10
0.5442716535433071
 20
2.975354330708662
 30
0.0
 10
-0.1077795275590551
 20
2.597771653543307
 30
0.0
 10
-0.1077795275590551
 20
2.597771653543307
 30
0.0
 10
-0.1077795275590551
 20
2.597771653543307
 30
0.0
 10
-0.1077795275590551
 20
2.597771653543307
 30
0.0
 10
-0.0911062992125984
 20
2.495350393700788
 30
0.0
 10
-0.0911062992125984
 20
2.495350393700788
 30
0.0
  0
SPLINE
  5
50
330
1F
100
AcDbEntity
  8
LAYER_1
 62
   250
100
AcDbSpline
210
0.0
220
0.0
230
1.0
 70
    11
 71
     3
 72
    20
 73
    16
 74
     0
 42
0.0000000001
 43
0.0000000001
 40
0.0
 40
0.0
 40
0.0
 40
0.0
 40
0.25
 40
0.25
 40
0.25
 40
0.25
 40
0.5
 40
0.5
 40
0.5
 40
0.5
 40
0.75
 40
0.75
 40
0.75
 40
0.75
 40
1.0
 40
1.0
 40
1.0
 40
1.0
 10
-0.0911062992125984
 20
2.495350393700788
 30
0.0
 10
-0.0911062992125984
 20
2.495350393700788
 30
0.0
 10
0.5609448818897638
 20
2.872933070866142
 30
0.0
 10
0.5609448818897638
 20
2.872933070866142
 30
0.0
 10
0.5609448818897638
 20
2.872933070866142
 30
0.0
 10
0.5609448818897638
 20
2.872933070866142
 30
0.0
 10
0.5442716535433071
 20
2.975354330708662
 30
0.0
 10
0.5442716535433071
 20
2.975354330708662
 30
0.0
 10
0.5442716535433071
 20
2.975354330708662
 30
0.0
 10
0.5442716535433071
 20
2.975354330708662
 30
0.0
 10
-0.1077795275590551
 20
2.597771653543307
 30
0.0
 10
-0.1077795275590551
 20
2.597771653543307
 30
0.0
 10
-0.1077795275590551
 20
2.597771653543307
 30
0.0
 10
-0.1077795275590551
 20
2.597771653543307
 30
0.0
 10
-0.0911062992125984
 20
2.495350393700788
 30
0.0
 10
-0.0911062992125984
 20
2.495350393700788
 30
0.0
  0
SPLINE
  5
51
330
1F
100
AcDbEntity
  8
LAYER_1
 62
   252
100
AcDbSpline
210
0.0
220
0.0
230
1.0
 70
    11
 71
     3
 72
    20
 73
    16
 74
     0
 42
0.0000000001
 43
0.0000000001
 40
0.0
 40
0.0
 40
0.0
 40
0.0
 40
0.25
 40
0.25
 40
0.25
 40
0.25
 40
0.5
 40
0.5
 40
0.5
 40
0.5
 40
0.75
 40
0.75
 40
0.75
 40
0.75
 40
1.0
 40
1.0
 40
1.0
 40
1.0
 10
-0.1077795275590551
 20
2.597771653543307
 30
0.0
 10
-0.1077795275590551
 20
2.597771653543307
 30
0.0
 10
0.5442716535433071
 20
2.975354330708662
 30
0.0
 10
0.5442716535433071
 20
2.975354330708662
 30
0.0
 10
0.5442716535433071
 20
2.975354330708662
 30
0.0
 10
0.5442716535433071
 20
2.975354330708662
 30
0.0
 10
-0.1423070866141732
 20
2.975354330708662
 30
0.0
 10
-0.1423070866141732
 20
2.975354330708662
 30
0.0
 10
-0.1423070866141732
 20
2.975354330708662
 30
0.0
 10
-0.1423070866141732
 20
2.975354330708662
 30
0.0
 10
-0.7943582677165355
 20
2.597771653543307
 30
0.0
 10
-0.7943582677165355
 20
2.597771653543307
 30
0.0
 10
-0.7943582677165355
 20
2.597771653543307
 30
0.0
 10
-0.7943582677165355
 20
2.597771653543307
 30
0.0
 10
-0.1077795275590551
 20
2.597771653543307
 30
0.0
 10
-0.1077795275590551
 20
2.597771653543307
 30
0.0
  0
SPLINE
  5
52
330
1F
100
AcDbEntity
  8
LAYER_1
 62
   250
100
AcDbSpline
210
0.0
220
0.0
230
1.0
 70
    11
 71
     3
 72
    20
 73
    16
 74
     0
 42
0.0000000001
 43
0.0000000001
 40
0.0
 40
0.0
 40
0.0
 40
0.0
 40
0.25
 40
0.25
 40
0.25
 40
0.25
 40
0.5
 40
0.5
 40
0.5
 40
0.5
 40
0.75
 40
0.75
 40
0.75
 40
0.75
 40
1.0
 40
1.0
 40
1.0
 40
1.0
 10
-0.1077795275590551
 20
2.597771653543307
 30
0.0
 10
-0.1077795275590551
 20
2.597771653543307
 30
0.0
 10
0.5442716535433071
 20
2.975354330708662
 30
0.0
 10
0.5442716535433071
 20
2.975354330708662
 30
0.0
 10
0.5442716535433071
 20
2.975354330708662
 30
0.0
 10
0.5442716535433071
 20
2.975354330708662
 30
0.0
 10
-0.1423070866141732
 20
2.975354330708662
 30
0.0
 10
-0.1423070866141732
 20
2.975354330708662
 30
0.0
 10
-0.1423070866141732
 20
2.975354330708662
 30
0.0
 10
-0.1423070866141732
 20
2.975354330708662
 30
0.0
 10
-0.7943582677165355
 20
2.597771653543307
 30
0.0
 10
-0.7943582677165355
 20
2.597771653543307
 30
0.0
 10
-0.7943582677165355
 20
2.597771653543307
 30
0.0
 10
-0.7943582677165355
 20
2.597771653543307
 30
0.0
 10
-0.1077795275590551
 20
2.597771653543307
 30
0.0
 10
-0.1077795275590551
 20
2.597771653543307
 30
0.0
  0
SPLINE
  5
53
330
1F
100
AcDbEntity
  8
LAYER_1
 62
   253
100
AcDbSpline
210
0.0
220
0.0
230
1.0
 70
    11
 71
     3
 72
    20
 73
    16
 74
     0
 42
0.0000000001
 43
0.0000000001
 40
0.0
 40
0.0
 40
0.0
 40
0.0
 40
0.25
 40
0.25
 40
0.25
 40
0.25
 40
0.5
 40
0.5
 40
0.5
 40
0.5
 40
0.75
 40
0.75
 40
0.75
 40
0.75
 40
1.0
 40
1.0
 40
1.0
 40
1.0
 10
0.3721732283464567
 20
2.195826771653544
 30
0.0
 10
0.3721732283464567
 20
2.195826771653544
 30
0.0
 10
1.024224409448819
 20
2.573409448818898
 30
0.0
 10
1.024224409448819
 20
2.573409448818898
 30
0.0
 10
1.024224409448819
 20
2.573409448818898
 30
0.0
 10
1.024224409448819
 20
2.573409448818898
 30
0.0
 10
1.024224409448819
 20
2.700244094488189
 30
0.0
 10
1.024224409448819
 20
2.700244094488189
 30
0.0
 10
1.024224409448819
 20
2.700244094488189
 30
0.0
 10
1.024224409448819
 20
2.700244094488189
 30
0.0
 10
0.3721732283464567
 20
2.322661417322835
 30
0.0
 10
0.3721732283464567
 20
2.322661417322835
 30
0.0
 10
0.3721732283464567
 20
2.322661417322835
 30
0.0
 10
0.3721732283464567
 20
2.322661417322835
 30
0.0
 10
0.3721732283464567
 20
2.195826771653544
 30
0.0
 10
0.3721732283464567
 20
2.195826771653544
 30
0.0
  0
SPLINE
  5
54
330
1F
100
AcDbEntity
  8
LAYER_1
 62
   250
100
AcDbSpline
210
0.0
220
0.0
230
1.0
 70
    11
 71
     3
 72
    20
 73
    16
 74
     0
 42
0.0000000001
 43
0.0000000001
 40
0.0
 40
0.0
 40
0.0
 40
0.0
 40
0.25
 40
0.25
 40
0.25
 40
0.25
 40
0.5
 40
0.5
 40
0.5
 40
0.5
 40
0.75
 40
0.75
 40
0.75
 40
0.75
 40
1.0
 40
1.0
 40
1.0
 40
1.0
 10
0.3721732283464567
 20
2.195826771653544
 30
0.0
 10
0.3721732283464567
 20
2.195826771653544
 30
0.0
 10
1.024224409448819
 20
2.573409448818898
 30
0.0
 10
1.024224409448819
 20
2.573409448818898
 30
0.0
 10
1.024224409448819
 20
2.573409448818898
 30
0.0
 10
1.024224409448819
 20
2.573409448818898
 30
0.0
 10
1.024224409448819
 20
2.700244094488189
 30
0.0
 10
1.024224409448819
 20
2.700244094488189
 30
0.0
 10
1.024224409448819
 20
2.700244094488189
 30
0.0
 10
1.024224409448819
 20
2.700244094488189
 30
0.0
 10
0.3721732283464567
 20
2.322661417322835
 30
0.0
 10
0.3721732283464567
 20
2.322661417322835
 30
0.0
 10
0.3721732283464567
 20
2.322661417322835
 30
0.0
 10
0.3721732283464567
 20
2.322661417322835
 30
0.0
 10
0.3721732283464567
 20
2.195826771653544
 30
0.0
 10
0.3721732283464567
 20
2.195826771653544
 30
0.0
  0
SPLINE
  5
55
330
1F
100
AcDbEntity
  8
LAYER_1
 62
     7
100
AcDbSpline
210
0.0
220
0.0
230
1.0
 70
    11
 71
     3
 72
    28
 73
    24
 74
     0
 42
0.0000000001
 43
0.0000000001
 40
0.0
 40
0.0
 40
0.0
 40
0.0
 40
0.1666666666666667
 40
0.1666666666666667
 40
0.1666666666666667
 40
0.1666666666666667
 40
0.3333333333333333
 40
0.3333333333333333
 40
0.3333333333333333
 40
0.3333333333333333
 40
0.5
 40
0.5
 40
0.5
 40
0.5
 40
0.6666666666666666
 40
0.6666666666666666
 40
0.6666666666666666
 40
0.6666666666666666
 40
0.8333333333333333
 40
0.8333333333333333
 40
0.8333333333333333
 40
0.8333333333333333
 40
1.0
 40
1.0
 40
1.0
 40
1.0
 10
0.3721732283464567
 20
2.322661417322835
 30
0.0
 10
0.0387086614173228
 20
2.325043307086614
 30
0.0
 10
0.1470826771653543
 20
2.48344094488189
 30
0.0
 10
-0.0911062992125984
 20
2.495350393700788
 30
0.0
 10
-0.0911062992125984
 20
2.495350393700788
 30
0.0
 10
-0.0911062992125984
 20
2.495350393700788
 30
0.0
 10
-0.1077795275590551
 20
2.597771653543307
 30
0.0
 10
-0.1077795275590551
 20
2.597771653543307
 30
0.0
 10
-0.1077795275590551
 20
2.597771653543307
 30
0.0
 10
-0.1077795275590551
 20
2.597771653543307
 30
0.0
 10
-0.7943582677165355
 20
2.597771653543307
 30
0.0
 10
-0.7943582677165355
 20
2.597771653543307
 30
0.0
 10
-0.7943582677165355
 20
2.597771653543307
 30
0.0
 10
-0.7943582677165355
 20
2.597771653543307
 30
0.0
 10
-0.7943582677165355
 20
2.195826771653544
 30
0.0
 10
-0.7943582677165355
 20
2.195826771653544
 30
0.0
 10
-0.7943582677165355
 20
2.195826771653544
 30
0.0
 10
-0.7943582677165355
 20
2.195826771653544
 30
0.0
 10
0.3721732283464567
 20
2.195826771653544
 30
0.0
 10
0.3721732283464567
 20
2.195826771653544
 30
0.0
 10
0.3721732283464567
 20
2.195826771653544
 30
0.0
 10
0.3721732283464567
 20
2.195826771653544
 30
0.0
 10
0.3721732283464567
 20
2.322661417322835
 30
0.0
 10
0.3721732283464567
 20
2.322661417322835
 30
0.0
  0
SPLINE
  5
56
330
1F
100
AcDbEntity
  8
LAYER_1
 62
   250
100
AcDbSpline
210
0.0
220
0.0
230
1.0
 70
    11
 71
     3
 72
   104
 73
   100
 74
     0
 42
0.0000000001
 43
0.0000000001
 40
0.0
 40
0.0
 40
0.0
 40
0.0
 40
0.04
 40
0.04
 40
0.04
 40
0.04
 40
0.08
 40
0.08
 40
0.08
 40
0.08
 40
0.12
 40
0.12
 40
0.12
 40
0.12
 40
0.16
 40
0.16
 40
0.16
 40
0.16
 40
0.2
 40
0.2
 40
0.2
 40
0.2
 40
0.24
 40
0.24
 40
0.24
 40
0.24
 40
0.28
 40
0.28
 40
0.28
 40
0.28
 40
0.32
 40
0.32
 40
0.32
 40
0.32
 40
0.36
 40
0.36
 40
0.36
 40
0.36
 40
0.4
 40
0.4
 40
0.4
 40
0.4
 40
0.44
 40
0.44
 40
0.44
 40
0.44
 40
0.4799999999999999
 40
0.4799999999999999
 40
0.4799999999999999
 40
0.4799999999999999
 40
0.5199999999999999
 40
0.5199999999999999
 40
0.5199999999999999
 40
0.5199999999999999
 40
0.5599999999999999
 40
0.5599999999999999
 40
0.5599999999999999
 40
0.5599999999999999
 40
0.6
 40
0.6
 40
0.6
 40
0.6
 40
0.64
 40
0.64
 40
0.64
 40
0.64
 40
0.6800000000000001
 40
0.6800000000000001
 40
0.6800000000000001
 40
0.6800000000000001
 40
0.7200000000000001
 40
0.7200000000000001
 40
0.7200000000000001
 40
0.7200000000000001
 40
0.7600000000000001
 40
0.7600000000000001
 40
0.7600000000000001
 40
0.7600000000000001
 40
0.8000000000000002
 40
0.8000000000000002
 40
0.8000000000000002
 40
0.8000000000000002
 40
0.8400000000000002
 40
0.8400000000000002
 40
0.8400000000000002
 40
0.8400000000000002
 40
0.8800000000000002
 40
0.8800000000000002
 40
0.8800000000000002
 40
0.8800000000000002
 40
0.9200000000000003
 40
0.9200000000000003
 40
0.9200000000000003
 40
0.9200000000000003
 40
0.9600000000000003
 40
0.9600000000000003
 40
0.9600000000000003
 40
0.9600000000000003
 40
1.0
 40
1.0
 40
1.0
 40
1.0
 10
-0.2536692913385827
 20
2.071385826771654
 30
0.0
 10
-0.2536692913385827
 20
2.071385826771654
 30
0.0
 10
-0.1996968503937008
 20
2.071385826771654
 30
0.0
 10
-0.1996968503937008
 20
2.071385826771654
 30
0.0
 10
-0.1996968503937008
 20
2.071385826771654
 30
0.0
 10
-0.1865275590551181
 20
2.071385826771654
 30
0.0
 10
-0.1775
 20
2.070775590551181
 30
0.0
 10
-0.1726141732283465
 20
2.069578740157481
 30
0.0
 10
-0.1726141732283465
 20
2.069578740157481
 30
0.0
 10
-0.1653897637795276
 20
2.067858267716535
 30
0.0
 10
-0.1596968503937008
 20
2.064720472440945
 30
0.0
 10
-0.1554724409448819
 20
2.060161417322835
 30
0.0
 10
-0.1554724409448819
 20
2.060161417322835
 30
0.0
 10
-0.1512795275590551
 20
2.055606299212598
 30
0.0
 10
-0.1491692913385827
 20
2.050106299212599
 30
0.0
 10
-0.1491692913385827
 20
2.043720472440945
 30
0.0
 10
-0.1491692913385827
 20
2.043720472440945
 30
0.0
 10
-0.1491692913385827
 20
2.039106299212599
 30
0.0
 10
-0.1502795275590551
 20
2.034968503937008
 30
0.0
 10
-0.1525
 20
2.031303149606299
 30
0.0
 10
-0.1525
 20
2.031303149606299
 30
0.0
 10
-0.1547244094488189
 20
2.027633858267717
 30
0.0
 10
-0.1579724409448819
 20
2.024496062992126
 30
0.0
 10
-0.1621968503937008
 20
2.021913385826772
 30
0.0
 10
-0.1621968503937008
 20
2.021913385826772
 30
0.0
 10
-0.1649173228346457
 20
2.020220472440945
 30
0.0
 10
-0.1685866141732283
 20
2.018775590551181
 30
0.0
 10
-0.173251968503937
 20
2.017578740157481
 30
0.0
 10
-0.173251968503937
 20
2.017578740157481
 30
0.0
 10
-0.1673346456692914
 20
2.016496062992126
 30
0.0
 10
-0.1628346456692913
 20
2.015192913385827
 30
0.0
 10
-0.159751968503937
 20
2.013692913385827
 30
0.0
 10
-0.159751968503937
 20
2.013692913385827
 30
0.0
 10
-0.1550866141732284
 20
2.011413385826772
 30
0.0
 10
-0.1513897637795276
 20
2.008165354330709
 30
0.0
 10
-0.1486968503937008
 20
2.003913385826772
 30
0.0
 10
-0.1486968503937008
 20
2.003913385826772
 30
0.0
 10
-0.1459724409448819
 20
1.999692913385827
 30
0.0
 10
-0.1446141732283465
 20
1.994913385826772
 30
0.0
 10
-0.1446141732283465
 20
1.989606299212599
 30
0.0
 10
-0.1446141732283465
 20
1.989606299212599
 30
0.0
 10
-0.1446141732283465
 20
1.98444094488189
 30
0.0
 10
-0.1459448818897638
 20
1.979665354330709
 30
0.0
 10
-0.1486141732283465
 20
1.975275590551181
 30
0.0
 10
-0.1486141732283465
 20
1.975275590551181
 30
0.0
 10
-0.151251968503937
 20
1.970885826771654
 30
0.0
 10
-0.1550275590551181
 20
1.967275590551181
 30
0.0
 10
-0.1598622047244095
 20
1.96444094488189
 30
0.0
 10
-0.1598622047244095
 20
1.96444094488189
 30
0.0
 10
-0.1647244094488189
 20
1.961637795275591
 30
0.0
 10
-0.1703897637795276
 20
1.959830708661417
 30
0.0
 10
-0.1768346456692914
 20
1.959023622047244
 30
0.0
 10
-0.1768346456692914
 20
1.959023622047244
 30
0.0
 10
-0.1833070866141733
 20
1.958248031496063
 30
0.0
 10
-0.1899448818897638
 20
1.957858267716536
 30
0.0
 10
-0.1967795275590551
 20
1.957858267716536
 30
0.0
 10
-0.1967795275590551
 20
1.957858267716536
 30
0.0
 10
-0.1967795275590551
 20
1.957858267716536
 30
0.0
 10
-0.2536692913385827
 20
1.957858267716536
 30
0.0
 10
-0.2536692913385827
 20
1.957858267716536
 30
0.0
 10
-0.2536692913385827
 20
1.957858267716536
 30
0.0
 10
-0.2536692913385827
 20
1.957858267716536
 30
0.0
 10
-0.2536692913385827
 20
1.964692913385827
 30
0.0
 10
-0.2536692913385827
 20
1.964692913385827
 30
0.0
 10
-0.2536692913385827
 20
1.964692913385827
 30
0.0
 10
-0.2536692913385827
 20
1.964692913385827
 30
0.0
 10
-0.2498346456692913
 20
1.964692913385827
 30
0.0
 10
-0.2498346456692913
 20
1.964692913385827
 30
0.0
 10
-0.2498346456692913
 20
1.964692913385827
 30
0.0
 10
-0.2461377952755906
 20
1.964692913385827
 30
0.0
 10
-0.2436377952755906
 20
1.965275590551181
 30
0.0
 10
-0.2422795275590551
 20
1.966413385826772
 30
0.0
 10
-0.2422795275590551
 20
1.966413385826772
 30
0.0
 10
-0.2403070866141732
 20
1.967968503937008
 30
0.0
 10
-0.2393346456692914
 20
1.97057874015748
 30
0.0
 10
-0.2393346456692914
 20
1.974220472440945
 30
0.0
 10
-0.2393346456692914
 20
1.974220472440945
 30
0.0
 10
-0.2393346456692914
 20
1.974220472440945
 30
0.0
 10
-0.2393346456692914
 20
2.05307874015748
 30
0.0
 10
-0.2393346456692914
 20
2.05307874015748
 30
0.0
 10
-0.2393346456692914
 20
2.05307874015748
 30
0.0
 10
-0.2393346456692914
 20
2.056775590551181
 30
0.0
 10
-0.2396377952755906
 20
2.059275590551181
 30
0.0
 10
-0.2402244094488189
 20
2.060633858267717
 30
0.0
 10
-0.2402244094488189
 20
2.060633858267717
 30
0.0
 10
-0.2408346456692914
 20
2.061996062992126
 30
0.0
 10
-0.2417244094488189
 20
2.062968503937008
 30
0.0
 10
-0.2429173228346457
 20
2.06357874015748
 30
0.0
 10
-0.2429173228346457
 20
2.06357874015748
 30
0.0
 10
-0.2441102362204725
 20
2.064161417322835
 30
0.0
 10
-0.2464173228346457
 20
2.064468503937008
 30
0.0
 10
-0.2498346456692913
 20
2.064468503937008
 30
0.0
 10
-0.2498346456692913
 20
2.064468503937008
 30
0.0
 10
-0.2498346456692913
 20
2.064468503937008
 30
0.0
 10
-0.2536692913385827
 20
2.064468503937008
 30
0.0
 10
-0.2536692913385827
 20
2.064468503937008
 30
0.0
 10
-0.2536692913385827
 20
2.064468503937008
 30
0.0
 10
-0.2536692913385827
 20
2.064468503937008
 30
0.0
 10
-0.2536692913385827
 20
2.071385826771654
 30
0.0
 10
-0.2536692913385827
 20
2.071385826771654
 30
0.0
  0
SPLINE
  5
57
330
1F
100
AcDbEntity
  8
LAYER_1
 62
   250
100
AcDbSpline
210
0.0
220
0.0
230
1.0
 70
    11
 71
     3
 72
    40
 73
    36
 74
     0
 42
0.0000000001
 43
0.0000000001
 40
0.0
 40
0.0
 40
0.0
 40
0.0
 40
0.1111111111111111
 40
0.1111111111111111
 40
0.1111111111111111
 40
0.1111111111111111
 40
0.2222222222222222
 40
0.2222222222222222
 40
0.2222222222222222
 40
0.2222222222222222
 40
0.3333333333333333
 40
0.3333333333333333
 40
0.3333333333333333
 40
0.3333333333333333
 40
0.4444444444444444
 40
0.4444444444444444
 40
0.4444444444444444
 40
0.4444444444444444
 40
0.5555555555555556
 40
0.5555555555555556
 40
0.5555555555555556
 40
0.5555555555555556
 40
0.6666666666666667
 40
0.6666666666666667
 40
0.6666666666666667
 40
0.6666666666666667
 40
0.7777777777777779
 40
0.7777777777777779
 40
0.7777777777777779
 40
0.7777777777777779
 40
0.8888888888888891
 40
0.8888888888888891
 40
0.8888888888888891
 40
0.8888888888888891
 40
1.0
 40
1.0
 40
1.0
 40
1.0
 10
-0.2241102362204724
 20
2.062358267716535
 30
0.0
 10
-0.2241102362204724
 20
2.062358267716535
 30
0.0
 10
-0.2241102362204724
 20
2.020775590551181
 30
0.0
 10
-0.2241102362204724
 20
2.020775590551181
 30
0.0
 10
-0.2241102362204724
 20
2.020775590551181
 30
0.0
 10
-0.2241102362204724
 20
2.020775590551181
 30
0.0
 10
-0.2033622047244095
 20
2.020775590551181
 30
0.0
 10
-0.2033622047244095
 20
2.020775590551181
 30
0.0
 10
-0.2033622047244095
 20
2.020775590551181
 30
0.0
 10
-0.1936692913385827
 20
2.020775590551181
 30
0.0
 10
-0.187
 20
2.021220472440945
 30
0.0
 10
-0.1834448818897638
 20
2.022133858267717
 30
0.0
 10
-0.1834448818897638
 20
2.022133858267717
 30
0.0
 10
-0.1778346456692914
 20
2.023606299212599
 30
0.0
 10
-0.1735866141732284
 20
2.026106299212599
 30
0.0
 10
-0.1706141732283465
 20
2.029633858267717
 30
0.0
 10
-0.1706141732283465
 20
2.029633858267717
 30
0.0
 10
-0.1676692913385827
 20
2.033161417322835
 30
0.0
 10
-0.1661692913385827
 20
2.037692913385827
 30
0.0
 10
-0.1661692913385827
 20
2.043220472440945
 30
0.0
 10
-0.1661692913385827
 20
2.043220472440945
 30
0.0
 10
-0.1661692913385827
 20
2.047885826771654
 30
0.0
 10
-0.1675275590551181
 20
2.051775590551181
 30
0.0
 10
-0.1701968503937008
 20
2.054913385826772
 30
0.0
 10
-0.1701968503937008
 20
2.054913385826772
 30
0.0
 10
-0.1728897637795276
 20
2.058023622047244
 30
0.0
 10
-0.1765
 20
2.060161417322835
 30
0.0
 10
-0.181
 20
2.0613031496063
 30
0.0
 10
-0.181
 20
2.0613031496063
 30
0.0
 10
-0.1839173228346457
 20
2.061996062992126
 30
0.0
 10
-0.19
 20
2.062358267716535
 30
0.0
 10
-0.1992244094488189
 20
2.062358267716535
 30
0.0
 10
-0.1992244094488189
 20
2.062358267716535
 30
0.0
 10
-0.1992244094488189
 20
2.062358267716535
 30
0.0
 10
-0.2241102362204724
 20
2.062358267716535
 30
0.0
 10
-0.2241102362204724
 20
2.062358267716535
 30
0.0
  0
SPLINE
  5
58
330
1F
100
AcDbEntity
  8
LAYER_1
 62
   250
100
AcDbSpline
210
0.0
220
0.0
230
1.0
 70
    11
 71
     3
 72
    52
 73
    48
 74
     0
 42
0.0000000001
 43
0.0000000001
 40
0.0
 40
0.0
 40
0.0
 40
0.0
 40
0.0833333333333333
 40
0.0833333333333333
 40
0.0833333333333333
 40
0.0833333333333333
 40
0.1666666666666667
 40
0.1666666666666667
 40
0.1666666666666667
 40
0.1666666666666667
 40
0.25
 40
0.25
 40
0.25
 40
0.25
 40
0.3333333333333333
 40
0.3333333333333333
 40
0.3333333333333333
 40
0.3333333333333333
 40
0.4166666666666666
 40
0.4166666666666666
 40
0.4166666666666666
 40
0.4166666666666666
 40
0.4999999999999999
 40
0.4999999999999999
 40
0.4999999999999999
 40
0.4999999999999999
 40
0.5833333333333333
 40
0.5833333333333333
 40
0.5833333333333333
 40
0.5833333333333333
 40
0.6666666666666666
 40
0.6666666666666666
 40
0.6666666666666666
 40
0.6666666666666666
 40
0.75
 40
0.75
 40
0.75
 40
0.75
 40
0.8333333333333334
 40
0.8333333333333334
 40
0.8333333333333334
 40
0.8333333333333334
 40
0.9166666666666667
 40
0.9166666666666667
 40
0.9166666666666667
 40
0.9166666666666667
 40
1.0
 40
1.0
 40
1.0
 40
1.0
 10
-0.2241102362204724
 20
2.01294094488189
 30
0.0
 10
-0.2241102362204724
 20
2.01294094488189
 30
0.0
 10
-0.2241102362204724
 20
1.975692913385827
 30
0.0
 10
-0.2241102362204724
 20
1.975692913385827
 30
0.0
 10
-0.2241102362204724
 20
1.975692913385827
 30
0.0
 10
-0.2241102362204724
 20
1.97194094488189
 30
0.0
 10
-0.2239448818897638
 20
1.969720472440945
 30
0.0
 10
-0.2236417322834646
 20
1.968996062992126
 30
0.0
 10
-0.2236417322834646
 20
1.968996062992126
 30
0.0
 10
-0.2231968503937008
 20
1.968023622047244
 30
0.0
 10
-0.2223346456692913
 20
1.967358267716536
 30
0.0
 10
-0.2210275590551181
 20
1.966968503937008
 30
0.0
 10
-0.2210275590551181
 20
1.966968503937008
 30
0.0
 10
-0.2201102362204725
 20
1.966692913385827
 30
0.0
 10
-0.2175
 20
1.966551181102362
 30
0.0
 10
-0.2132244094488189
 20
1.966551181102362
 30
0.0
 10
-0.2132244094488189
 20
1.966551181102362
 30
0.0
 10
-0.2132244094488189
 20
1.966551181102362
 30
0.0
 10
-0.2021417322834646
 20
1.966551181102362
 30
0.0
 10
-0.2021417322834646
 20
1.966551181102362
 30
0.0
 10
-0.2021417322834646
 20
1.966551181102362
 30
0.0
 10
-0.1911968503937008
 20
1.966551181102362
 30
0.0
 10
-0.1833622047244095
 20
1.967165354330709
 30
0.0
 10
-0.1786692913385827
 20
1.968385826771654
 30
0.0
 10
-0.1786692913385827
 20
1.968385826771654
 30
0.0
 10
-0.1739724409448819
 20
1.969606299212598
 30
0.0
 10
-0.1699724409448819
 20
1.972192913385827
 30
0.0
 10
-0.1666692913385827
 20
1.976137795275591
 30
0.0
 10
-0.1666692913385827
 20
1.976137795275591
 30
0.0
 10
-0.1633622047244095
 20
1.980051181102362
 30
0.0
 10
-0.1616968503937008
 20
1.984803149606299
 30
0.0
 10
-0.1616968503937008
 20
1.990330708661418
 30
0.0
 10
-0.1616968503937008
 20
1.990330708661418
 30
0.0
 10
-0.1616968503937008
 20
1.994996062992126
 30
0.0
 10
-0.1630551181102362
 20
1.999133858267717
 30
0.0
 10
-0.1657244094488189
 20
2.002748031496063
 30
0.0
 10
-0.1657244094488189
 20
2.002748031496063
 30
0.0
 10
-0.1684173228346457
 20
2.006358267716536
 30
0.0
 10
-0.1721417322834646
 20
2.00894094488189
 30
0.0
 10
-0.1768897637795276
 20
2.010551181102362
 30
0.0
 10
-0.1768897637795276
 20
2.010551181102362
 30
0.0
 10
-0.1816417322834646
 20
2.012165354330709
 30
0.0
 10
-0.1900551181102362
 20
2.01294094488189
 30
0.0
 10
-0.2021417322834646
 20
2.01294094488189
 30
0.0
 10
-0.2021417322834646
 20
2.01294094488189
 30
0.0
 10
-0.2021417322834646
 20
2.01294094488189
 30
0.0
 10
-0.2241102362204724
 20
2.01294094488189
 30
0.0
 10
-0.2241102362204724
 20
2.01294094488189
 30
0.0
  0
SPLINE
  5
59
330
1F
100
AcDbEntity
  8
LAYER_1
 62
   250
100
AcDbSpline
210
0.0
220
0.0
230
1.0
 70
    11
 71
     3
 72
   112
 73
   108
 74
     0
 42
0.0000000001
 43
0.0000000001
 40
0.0
 40
0.0
 40
0.0
 40
0.0
 40
0.037037037037037
 40
0.037037037037037
 40
0.037037037037037
 40
0.037037037037037
 40
0.0740740740740741
 40
0.0740740740740741
 40
0.0740740740740741
 40
0.0740740740740741
 40
0.1111111111111111
 40
0.1111111111111111
 40
0.1111111111111111
 40
0.1111111111111111
 40
0.1481481481481481
 40
0.1481481481481481
 40
0.1481481481481481
 40
0.1481481481481481
 40
0.1851851851851852
 40
0.1851851851851852
 40
0.1851851851851852
 40
0.1851851851851852
 40
0.2222222222222222
 40
0.2222222222222222
 40
0.2222222222222222
 40
0.2222222222222222
 40
0.2592592592592592
 40
0.2592592592592592
 40
0.2592592592592592
 40
0.2592592592592592
 40
0.2962962962962963
 40
0.2962962962962963
 40
0.2962962962962963
 40
0.2962962962962963
 40
0.3333333333333333
 40
0.3333333333333333
 40
0.3333333333333333
 40
0.3333333333333333
 40
0.3703703703703704
 40
0.3703703703703704
 40
0.3703703703703704
 40
0.3703703703703704
 40
0.4074074074074074
 40
0.4074074074074074
 40
0.4074074074074074
 40
0.4074074074074074
 40
0.4444444444444444
 40
0.4444444444444444
 40
0.4444444444444444
 40
0.4444444444444444
 40
0.4814814814814815
 40
0.4814814814814815
 40
0.4814814814814815
 40
0.4814814814814815
 40
0.5185185185185185
 40
0.5185185185185185
 40
0.5185185185185185
 40
0.5185185185185185
 40
0.5555555555555556
 40
0.5555555555555556
 40
0.5555555555555556
 40
0.5555555555555556
 40
0.5925925925925926
 40
0.5925925925925926
 40
0.5925925925925926
 40
0.5925925925925926
 40
0.6296296296296295
 40
0.6296296296296295
 40
0.6296296296296295
 40
0.6296296296296295
 40
0.6666666666666665
 40
0.6666666666666665
 40
0.6666666666666665
 40
0.6666666666666665
 40
0.7037037037037035
 40
0.7037037037037035
 40
0.7037037037037035
 40
0.7037037037037035
 40
0.7407407407407405
 40
0.7407407407407405
 40
0.7407407407407405
 40
0.7407407407407405
 40
0.7777777777777775
 40
0.7777777777777775
 40
0.7777777777777775
 40
0.7777777777777775
 40
0.8148148148148144
 40
0.8148148148148144
 40
0.8148148148148144
 40
0.8148148148148144
 40
0.8518518518518514
 40
0.8518518518518514
 40
0.8518518518518514
 40
0.8518518518518514
 40
0.8888888888888884
 40
0.8888888888888884
 40
0.8888888888888884
 40
0.8888888888888884
 40
0.9259259259259254
 40
0.9259259259259254
 40
0.9259259259259254
 40
0.9259259259259254
 40
0.9629629629629624
 40
0.9629629629629624
 40
0.9629629629629624
 40
0.9629629629629624
 40
1.0
 40
1.0
 40
1.0
 40
1.0
 10
-0.087003937007874
 20
2.071385826771654
 30
0.0
 10
-0.087003937007874
 20
2.071385826771654
 30
0.0
 10
-0.0735866141732283
 20
2.071385826771654
 30
0.0
 10
-0.0735866141732283
 20
2.071385826771654
 30
0.0
 10
-0.0735866141732283
 20
2.071385826771654
 30
0.0
 10
-0.0735866141732283
 20
2.071385826771654
 30
0.0
 10
-0.0383385826771654
 20
1.976496062992126
 30
0.0
 10
-0.0383385826771654
 20
1.976496062992126
 30
0.0
 10
-0.0383385826771654
 20
1.976496062992126
 30
0.0
 10
-0.0366141732283465
 20
1.971720472440945
 30
0.0
 10
-0.0348661417322835
 20
1.968551181102362
 30
0.0
 10
-0.0330866141732283
 20
1.967023622047244
 30
0.0
 10
-0.0330866141732283
 20
1.967023622047244
 30
0.0
 10
-0.0313385826771654
 20
1.965468503937008
 30
0.0
 10
-0.0289488188976378
 20
1.964692913385827
 30
0.0
 10
-0.0259763779527559
 20
1.964692913385827
 30
0.0
 10
-0.0259763779527559
 20
1.964692913385827
 30
0.0
 10
-0.0259763779527559
 20
1.964692913385827
 30
0.0
 10
-0.0241968503937008
 20
1.964692913385827
 30
0.0
 10
-0.0241968503937008
 20
1.964692913385827
 30
0.0
 10
-0.0241968503937008
 20
1.964692913385827
 30
0.0
 10
-0.0241968503937008
 20
1.964692913385827
 30
0.0
 10
-0.0241968503937008
 20
1.957858267716536
 30
0.0
 10
-0.0241968503937008
 20
1.957858267716536
 30
0.0
 10
-0.0241968503937008
 20
1.957858267716536
 30
0.0
 10
-0.0241968503937008
 20
1.957858267716536
 30
0.0
 10
-0.0646417322834646
 20
1.957858267716536
 30
0.0
 10
-0.0646417322834646
 20
1.957858267716536
 30
0.0
 10
-0.0646417322834646
 20
1.957858267716536
 30
0.0
 10
-0.0646417322834646
 20
1.957858267716536
 30
0.0
 10
-0.0646417322834646
 20
1.964692913385827
 30
0.0
 10
-0.0646417322834646
 20
1.964692913385827
 30
0.0
 10
-0.0646417322834646
 20
1.964692913385827
 30
0.0
 10
-0.0633385826771654
 20
1.964803149606299
 30
0.0
 10
-0.0620590551181102
 20
1.964858267716536
 30
0.0
 10
-0.0608070866141732
 20
1.964858267716536
 30
0.0
 10
-0.0608070866141732
 20
1.964858267716536
 30
0.0
 10
-0.0581968503937008
 20
1.964858267716536
 30
0.0
 10
-0.056503937007874
 20
1.965137795275591
 30
0.0
 10
-0.0556692913385827
 20
1.965665354330709
 30
0.0
 10
-0.0556692913385827
 20
1.965665354330709
 30
0.0
 10
-0.0541141732283465
 20
1.966692913385827
 30
0.0
 10
-0.0533110236220472
 20
1.967996062992126
 30
0.0
 10
-0.0533110236220472
 20
1.969578740157481
 30
0.0
 10
-0.0533110236220472
 20
1.969578740157481
 30
0.0
 10
-0.0533110236220472
 20
1.970720472440945
 30
0.0
 10
-0.0540866141732283
 20
1.973496062992126
 30
0.0
 10
-0.0555866141732283
 20
1.977968503937008
 30
0.0
 10
-0.0555866141732283
 20
1.977968503937008
 30
0.0
 10
-0.0555866141732283
 20
1.977968503937008
 30
0.0
 10
-0.0630866141732283
 20
1.99994094488189
 30
0.0
 10
-0.0630866141732283
 20
1.99994094488189
 30
0.0
 10
-0.0630866141732283
 20
1.99994094488189
 30
0.0
 10
-0.0630866141732283
 20
1.99994094488189
 30
0.0
 10
-0.104251968503937
 20
1.99994094488189
 30
0.0
 10
-0.104251968503937
 20
1.99994094488189
 30
0.0
 10
-0.104251968503937
 20
1.99994094488189
 30
0.0
 10
-0.104251968503937
 20
1.99994094488189
 30
0.0
 10
-0.1130590551181102
 20
1.975358267716536
 30
0.0
 10
-0.1130590551181102
 20
1.975358267716536
 30
0.0
 10
-0.1130590551181102
 20
1.975358267716536
 30
0.0
 10
-0.1139763779527559
 20
1.972803149606299
 30
0.0
 10
-0.1144488188976378
 20
1.971051181102362
 30
0.0
 10
-0.1144488188976378
 20
1.970051181102362
 30
0.0
 10
-0.1144488188976378
 20
1.970051181102362
 30
0.0
 10
-0.1144488188976378
 20
1.968968503937008
 30
0.0
 10
-0.1141417322834646
 20
1.968023622047244
 30
0.0
 10
-0.1135866141732284
 20
1.967220472440945
 30
0.0
 10
-0.1135866141732284
 20
1.967220472440945
 30
0.0
 10
-0.113003937007874
 20
1.966413385826772
 30
0.0
 10
-0.112251968503937
 20
1.965803149606299
 30
0.0
 10
-0.111251968503937
 20
1.965385826771654
 30
0.0
 10
-0.111251968503937
 20
1.965385826771654
 30
0.0
 10
-0.1102795275590551
 20
1.964968503937008
 30
0.0
 10
-0.1087244094488189
 20
1.964775590551181
 30
0.0
 10
-0.1065314960629921
 20
1.964775590551181
 30
0.0
 10
-0.1065314960629921
 20
1.964775590551181
 30
0.0
 10
-0.1050866141732284
 20
1.964775590551181
 30
0.0
 10
-0.1038937007874016
 20
1.964748031496063
 30
0.0
 10
-0.1029763779527559
 20
1.964692913385827
 30
0.0
 10
-0.1029763779527559
 20
1.964692913385827
 30
0.0
 10
-0.1029763779527559
 20
1.964692913385827
 30
0.0
 10
-0.1029763779527559
 20
1.957858267716536
 30
0.0
 10
-0.1029763779527559
 20
1.957858267716536
 30
0.0
 10
-0.1029763779527559
 20
1.957858267716536
 30
0.0
 10
-0.1029763779527559
 20
1.957858267716536
 30
0.0
 10
-0.1368937007874016
 20
1.957858267716536
 30
0.0
 10
-0.1368937007874016
 20
1.957858267716536
 30
0.0
 10
-0.1368937007874016
 20
1.957858267716536
 30
0.0
 10
-0.1368937007874016
 20
1.957858267716536
 30
0.0
 10
-0.1368937007874016
 20
1.964692913385827
 30
0.0
 10
-0.1368937007874016
 20
1.964692913385827
 30
0.0
 10
-0.1368937007874016
 20
1.964692913385827
 30
0.0
 10
-0.133751968503937
 20
1.964692913385827
 30
0.0
 10
-0.1314763779527559
 20
1.964996062992126
 30
0.0
 10
-0.1301141732283465
 20
1.965637795275591
 30
0.0
 10
-0.1301141732283465
 20
1.965637795275591
 30
0.0
 10
-0.1287244094488189
 20
1.966248031496063
 30
0.0
 10
-0.127503937007874
 20
1.967248031496063
 30
0.0
 10
-0.1264763779527559
 20
1.968637795275591
 30
0.0
 10
-0.1264763779527559
 20
1.968637795275591
 30
0.0
 10
-0.1254488188976378
 20
1.970023622047244
 30
0.0
 10
-0.1240866141732284
 20
1.97294094488189
 30
0.0
 10
-0.1224212598425197
 20
1.977385826771654
 30
0.0
 10
-0.1224212598425197
 20
1.977385826771654
 30
0.0
 10
-0.1224212598425197
 20
1.977385826771654
 30
0.0
 10
-0.087003937007874
 20
2.071385826771654
 30
0.0
 10
-0.087003937007874
 20
2.071385826771654
 30
0.0
  0
SPLINE
  5
5A
330
1F
100
AcDbEntity
  8
LAYER_1
 62
   250
100
AcDbSpline
210
0.0
220
0.0
230
1.0
 70
    11
 71
     3
 72
    16
 73
    12
 74
     0
 42
0.0000000001
 43
0.0000000001
 40
0.0
 40
0.0
 40
0.0
 40
0.0
 40
0.3333333333333333
 40
0.3333333333333333
 40
0.3333333333333333
 40
0.3333333333333333
 40
0.6666666666666666
 40
0.6666666666666666
 40
0.6666666666666666
 40
0.6666666666666666
 40
1.0
 40
1.0
 40
1.0
 40
1.0
 10
-0.101251968503937
 20
2.007913385826772
 30
0.0
 10
-0.101251968503937
 20
2.007913385826772
 30
0.0
 10
-0.0661692913385827
 20
2.007913385826772
 30
0.0
 10
-0.0661692913385827
 20
2.007913385826772
 30
0.0
 10
-0.0661692913385827
 20
2.007913385826772
 30
0.0
 10
-0.0661692913385827
 20
2.007913385826772
 30
0.0
 10
-0.083751968503937
 20
2.056748031496063
 30
0.0
 10
-0.083751968503937
 20
2.056748031496063
 30
0.0
 10
-0.083751968503937
 20
2.056748031496063
 30
0.0
 10
-0.083751968503937
 20
2.056748031496063
 30
0.0
 10
-0.101251968503937
 20
2.007913385826772
 30
0.0
 10
-0.101251968503937
 20
2.007913385826772
 30
0.0
  0
SPLINE
  5
5B
330
1F
100
AcDbEntity
  8
LAYER_1
 62
   250
100
AcDbSpline
210
0.0
220
0.0
230
1.0
 70
    11
 71
     3
 72
    72
 73
    68
 74
     0
 42
0.0000000001
 43
0.0000000001
 40
0.0
 40
0.0
 40
0.0
 40
0.0
 40
0.0588235294117647
 40
0.0588235294117647
 40
0.0588235294117647
 40
0.0588235294117647
 40
0.1176470588235294
 40
0.1176470588235294
 40
0.1176470588235294
 40
0.1176470588235294
 40
0.1764705882352941
 40
0.1764705882352941
 40
0.1764705882352941
 40
0.1764705882352941
 40
0.2352941176470588
 40
0.2352941176470588
 40
0.2352941176470588
 40
0.2352941176470588
 40
0.2941176470588235
 40
0.2941176470588235
 40
0.2941176470588235
 40
0.2941176470588235
 40
0.3529411764705883
 40
0.3529411764705883
 40
0.3529411764705883
 40
0.3529411764705883
 40
0.411764705882353
 40
0.411764705882353
 40
0.411764705882353
 40
0.411764705882353
 40
0.4705882352941177
 40
0.4705882352941177
 40
0.4705882352941177
 40
0.4705882352941177
 40
0.5294117647058824
 40
0.5294117647058824
 40
0.5294117647058824
 40
0.5294117647058824
 40
0.5882352941176471
 40
0.5882352941176471
 40
0.5882352941176471
 40
0.5882352941176471
 40
0.6470588235294118
 40
0.6470588235294118
 40
0.6470588235294118
 40
0.6470588235294118
 40
0.7058823529411765
 40
0.7058823529411765
 40
0.7058823529411765
 40
0.7058823529411765
 40
0.7647058823529412
 40
0.7647058823529412
 40
0.7647058823529412
 40
0.7647058823529412
 40
0.823529411764706
 40
0.823529411764706
 40
0.823529411764706
 40
0.823529411764706
 40
0.8823529411764707
 40
0.8823529411764707
 40
0.8823529411764707
 40
0.8823529411764707
 40
0.9411764705882354
 40
0.9411764705882354
 40
0.9411764705882354
 40
0.9411764705882354
 40
1.0
 40
1.0
 40
1.0
 40
1.0
 10
0.1388307086614173
 20
2.071385826771654
 30
0.0
 10
0.1388307086614173
 20
2.071385826771654
 30
0.0
 10
0.1449133858267717
 20
2.071385826771654
 30
0.0
 10
0.1449133858267717
 20
2.071385826771654
 30
0.0
 10
0.1449133858267717
 20
2.071385826771654
 30
0.0
 10
0.1449133858267717
 20
2.071385826771654
 30
0.0
 10
0.1449133858267717
 20
1.977137795275591
 30
0.0
 10
0.1449133858267717
 20
1.977137795275591
 30
0.0
 10
0.1449133858267717
 20
1.977137795275591
 30
0.0
 10
0.1449133858267717
 20
1.972692913385827
 30
0.0
 10
0.1452204724409449
 20
1.969830708661417
 30
0.0
 10
0.1457755905511811
 20
1.968551181102362
 30
0.0
 10
0.1457755905511811
 20
1.968551181102362
 30
0.0
 10
0.1463582677165354
 20
1.967275590551181
 30
0.0
 10
0.1472755905511811
 20
1.966330708661418
 30
0.0
 10
0.1485787401574803
 20
1.965665354330709
 30
0.0
 10
0.1485787401574803
 20
1.965665354330709
 30
0.0
 10
0.1498858267716536
 20
1.965023622047244
 30
0.0
 10
0.1524685039370079
 20
1.964692913385827
 30
0.0
 10
0.1563307086614173
 20
1.964692913385827
 30
0.0
 10
0.1563307086614173
 20
1.964692913385827
 30
0.0
 10
0.1563307086614173
 20
1.964692913385827
 30
0.0
 10
0.1643031496062992
 20
1.964692913385827
 30
0.0
 10
0.1643031496062992
 20
1.964692913385827
 30
0.0
 10
0.1643031496062992
 20
1.964692913385827
 30
0.0
 10
0.1643031496062992
 20
1.964692913385827
 30
0.0
 10
0.1643031496062992
 20
1.957858267716536
 30
0.0
 10
0.1643031496062992
 20
1.957858267716536
 30
0.0
 10
0.1643031496062992
 20
1.957858267716536
 30
0.0
 10
0.1643031496062992
 20
1.957858267716536
 30
0.0
 10
0.1106653543307087
 20
1.957858267716536
 30
0.0
 10
0.1106653543307087
 20
1.957858267716536
 30
0.0
 10
0.1106653543307087
 20
1.957858267716536
 30
0.0
 10
0.1106653543307087
 20
1.957858267716536
 30
0.0
 10
0.1106653543307087
 20
1.964692913385827
 30
0.0
 10
0.1106653543307087
 20
1.964692913385827
 30
0.0
 10
0.1106653543307087
 20
1.964692913385827
 30
0.0
 10
0.1106653543307087
 20
1.964692913385827
 30
0.0
 10
0.1195236220472441
 20
1.964692913385827
 30
0.0
 10
0.1195236220472441
 20
1.964692913385827
 30
0.0
 10
0.1195236220472441
 20
1.964692913385827
 30
0.0
 10
0.1233858267716536
 20
1.964692913385827
 30
0.0
 10
0.1259409448818898
 20
1.965023622047244
 30
0.0
 10
0.1272204724409449
 20
1.965720472440945
 30
0.0
 10
0.1272204724409449
 20
1.965720472440945
 30
0.0
 10
0.128496062992126
 20
1.966385826771654
 30
0.0
 10
0.129496062992126
 20
1.967468503937008
 30
0.0
 10
0.1301929133858268
 20
1.968968503937008
 30
0.0
 10
0.1301929133858268
 20
1.968968503937008
 30
0.0
 10
0.1308858267716536
 20
1.970468503937008
 30
0.0
 10
0.131248031496063
 20
1.973192913385827
 30
0.0
 10
0.131248031496063
 20
1.977137795275591
 30
0.0
 10
0.131248031496063
 20
1.977137795275591
 30
0.0
 10
0.131248031496063
 20
1.977137795275591
 30
0.0
 10
0.131248031496063
 20
2.054606299212598
 30
0.0
 10
0.131248031496063
 20
2.054606299212598
 30
0.0
 10
0.131248031496063
 20
2.054606299212598
 30
0.0
 10
0.131248031496063
 20
2.054606299212598
 30
0.0
 10
0.1106653543307087
 20
2.054606299212598
 30
0.0
 10
0.1106653543307087
 20
2.054606299212598
 30
0.0
 10
0.1106653543307087
 20
2.054606299212598
 30
0.0
 10
0.1106653543307087
 20
2.054606299212598
 30
0.0
 10
0.1106653543307087
 20
2.061606299212599
 30
0.0
 10
0.1106653543307087
 20
2.061606299212599
 30
0.0
 10
0.1106653543307087
 20
2.061606299212599
 30
0.0
 10
0.1218858267716536
 20
2.063188976377953
 30
0.0
 10
0.1312755905511811
 20
2.06644094488189
 30
0.0
 10
0.1388307086614173
 20
2.071385826771654
 30
0.0
  0
SPLINE
  5
5C
330
1F
100
AcDbEntity
  8
LAYER_1
 62
   250
100
AcDbSpline
210
0.0
220
0.0
230
1.0
 70
    11
 71
     3
 72
    80
 73
    76
 74
     0
 42
0.0000000001
 43
0.0000000001
 40
0.0
 40
0.0
 40
0.0
 40
0.0
 40
0.0526315789473684
 40
0.0526315789473684
 40
0.0526315789473684
 40
0.0526315789473684
 40
0.1052631578947368
 40
0.1052631578947368
 40
0.1052631578947368
 40
0.1052631578947368
 40
0.1578947368421053
 40
0.1578947368421053
 40
0.1578947368421053
 40
0.1578947368421053
 40
0.2105263157894737
 40
0.2105263157894737
 40
0.2105263157894737
 40
0.2105263157894737
 40
0.2631578947368421
 40
0.2631578947368421
 40
0.2631578947368421
 40
0.2631578947368421
 40
0.3157894736842105
 40
0.3157894736842105
 40
0.3157894736842105
 40
0.3157894736842105
 40
0.3684210526315789
 40
0.3684210526315789
 40
0.3684210526315789
 40
0.3684210526315789
 40
0.4210526315789474
 40
0.4210526315789474
 40
0.4210526315789474
 40
0.4210526315789474
 40
0.4736842105263158
 40
0.4736842105263158
 40
0.4736842105263158
 40
0.4736842105263158
 40
0.5263157894736842
 40
0.5263157894736842
 40
0.5263157894736842
 40
0.5263157894736842
 40
0.5789473684210527
 40
0.5789473684210527
 40
0.5789473684210527
 40
0.5789473684210527
 40
0.631578947368421
 40
0.631578947368421
 40
0.631578947368421
 40
0.631578947368421
 40
0.6842105263157894
 40
0.6842105263157894
 40
0.6842105263157894
 40
0.6842105263157894
 40
0.7368421052631577
 40
0.7368421052631577
 40
0.7368421052631577
 40
0.7368421052631577
 40
0.7894736842105261
 40
0.7894736842105261
 40
0.7894736842105261
 40
0.7894736842105261
 40
0.8421052631578945
 40
0.8421052631578945
 40
0.8421052631578945
 40
0.8421052631578945
 40
0.8947368421052628
 40
0.8947368421052628
 40
0.8947368421052628
 40
0.8947368421052628
 40
0.9473684210526312
 40
0.9473684210526312
 40
0.9473684210526312
 40
0.9473684210526312
 40
1.0
 40
1.0
 40
1.0
 40
1.0
 10
0.204248031496063
 20
2.075523622047244
 30
0.0
 10
0.204248031496063
 20
2.075523622047244
 30
0.0
 10
0.2096377952755906
 20
2.075523622047244
 30
0.0
 10
0.2096377952755906
 20
2.075523622047244
 30
0.0
 10
0.2096377952755906
 20
2.075523622047244
 30
0.0
 10
0.2096377952755906
 20
2.075523622047244
 30
0.0
 10
0.2106102362204725
 20
2.071385826771654
 30
0.0
 10
0.2106102362204725
 20
2.071385826771654
 30
0.0
 10
0.2106102362204725
 20
2.071385826771654
 30
0.0
 10
0.2106102362204725
 20
2.071385826771654
 30
0.0
 10
0.2817204724409449
 20
2.071385826771654
 30
0.0
 10
0.2817204724409449
 20
2.071385826771654
 30
0.0
 10
0.2817204724409449
 20
2.071385826771654
 30
0.0
 10
0.2817204724409449
 20
2.071385826771654
 30
0.0
 10
0.2817204724409449
 20
2.064468503937008
 30
0.0
 10
0.2817204724409449
 20
2.064468503937008
 30
0.0
 10
0.2817204724409449
 20
2.064468503937008
 30
0.0
 10
0.2732204724409449
 20
2.054633858267717
 30
0.0
 10
0.265496062992126
 20
2.043468503937008
 30
0.0
 10
0.2585826771653543
 20
2.030885826771653
 30
0.0
 10
0.2585826771653543
 20
2.030885826771653
 30
0.0
 10
0.2516653543307087
 20
2.018330708661417
 30
0.0
 10
0.2463031496062992
 20
2.005551181102362
 30
0.0
 10
0.242496062992126
 20
1.992523622047244
 30
0.0
 10
0.242496062992126
 20
1.992523622047244
 30
0.0
 10
0.239748031496063
 20
1.983137795275591
 30
0.0
 10
0.2375
 20
1.971578740157481
 30
0.0
 10
0.235748031496063
 20
1.957858267716536
 30
0.0
 10
0.235748031496063
 20
1.957858267716536
 30
0.0
 10
0.235748031496063
 20
1.957858267716536
 30
0.0
 10
0.2190826771653543
 20
1.957858267716536
 30
0.0
 10
0.2190826771653543
 20
1.957858267716536
 30
0.0
 10
0.2190826771653543
 20
1.957858267716536
 30
0.0
 10
0.2206929133858268
 20
1.969968503937008
 30
0.0
 10
0.2233582677165354
 20
1.981275590551181
 30
0.0
 10
0.2270826771653544
 20
1.991803149606299
 30
0.0
 10
0.2270826771653544
 20
1.991803149606299
 30
0.0
 10
0.2308031496062992
 20
2.002330708661417
 30
0.0
 10
0.2361653543307087
 20
2.013330708661417
 30
0.0
 10
0.2431929133858268
 20
2.024803149606299
 30
0.0
 10
0.2431929133858268
 20
2.024803149606299
 30
0.0
 10
0.2502204724409449
 20
2.036275590551181
 30
0.0
 10
0.258748031496063
 20
2.047720472440945
 30
0.0
 10
0.2688031496062992
 20
2.059161417322835
 30
0.0
 10
0.2688031496062992
 20
2.059161417322835
 30
0.0
 10
0.2688031496062992
 20
2.059161417322835
 30
0.0
 10
0.2180826771653543
 20
2.059161417322835
 30
0.0
 10
0.2180826771653543
 20
2.059161417322835
 30
0.0
 10
0.2180826771653543
 20
2.059161417322835
 30
0.0
 10
0.2144133858267717
 20
2.059161417322835
 30
0.0
 10
0.2118858267716536
 20
2.058996062992126
 30
0.0
 10
0.2105275590551181
 20
2.058606299212598
 30
0.0
 10
0.2105275590551181
 20
2.058606299212598
 30
0.0
 10
0.2091653543307087
 20
2.058220472440945
 30
0.0
 10
0.2081102362204725
 20
2.057633858267717
 30
0.0
 10
0.2073582677165354
 20
2.056830708661417
 30
0.0
 10
0.2073582677165354
 20
2.056830708661417
 30
0.0
 10
0.2065826771653543
 20
2.055996062992126
 30
0.0
 10
0.2059409448818898
 20
2.054551181102363
 30
0.0
 10
0.2053858267716535
 20
2.052496062992126
 30
0.0
 10
0.2053858267716535
 20
2.052496062992126
 30
0.0
 10
0.2053858267716535
 20
2.052496062992126
 30
0.0
 10
0.205
 20
2.050968503937008
 30
0.0
 10
0.205
 20
2.050968503937008
 30
0.0
 10
0.205
 20
2.050968503937008
 30
0.0
 10
0.205
 20
2.050968503937008
 30
0.0
 10
0.2022204724409449
 20
2.041358267716535
 30
0.0
 10
0.2022204724409449
 20
2.041358267716535
 30
0.0
 10
0.2022204724409449
 20
2.041358267716535
 30
0.0
 10
0.2022204724409449
 20
2.041358267716535
 30
0.0
 10
0.1953031496062992
 20
2.042830708661418
 30
0.0
 10
0.1953031496062992
 20
2.042830708661418
 30
0.0
 10
0.1953031496062992
 20
2.042830708661418
 30
0.0
 10
0.1953031496062992
 20
2.042830708661418
 30
0.0
 10
0.204248031496063
 20
2.075523622047244
 30
0.0
 10
0.204248031496063
 20
2.075523622047244
 30
0.0
  0
SPLINE
  5
5D
330
1F
100
AcDbEntity
  8
LAYER_1
 62
   250
100
AcDbSpline
210
0.0
220
0.0
230
1.0
 70
    11
 71
     3
 72
    80
 73
    76
 74
     0
 42
0.0000000001
 43
0.0000000001
 40
0.0
 40
0.0
 40
0.0
 40
0.0
 40
0.0526315789473684
 40
0.0526315789473684
 40
0.0526315789473684
 40
0.0526315789473684
 40
0.1052631578947368
 40
0.1052631578947368
 40
0.1052631578947368
 40
0.1052631578947368
 40
0.1578947368421053
 40
0.1578947368421053
 40
0.1578947368421053
 40
0.1578947368421053
 40
0.2105263157894737
 40
0.2105263157894737
 40
0.2105263157894737
 40
0.2105263157894737
 40
0.2631578947368421
 40
0.2631578947368421
 40
0.2631578947368421
 40
0.2631578947368421
 40
0.3157894736842105
 40
0.3157894736842105
 40
0.3157894736842105
 40
0.3157894736842105
 40
0.3684210526315789
 40
0.3684210526315789
 40
0.3684210526315789
 40
0.3684210526315789
 40
0.4210526315789474
 40
0.4210526315789474
 40
0.4210526315789474
 40
0.4210526315789474
 40
0.4736842105263158
 40
0.4736842105263158
 40
0.4736842105263158
 40
0.4736842105263158
 40
0.5263157894736842
 40
0.5263157894736842
 40
0.5263157894736842
 40
0.5263157894736842
 40
0.5789473684210527
 40
0.5789473684210527
 40
0.5789473684210527
 40
0.5789473684210527
 40
0.631578947368421
 40
0.631578947368421
 40
0.631578947368421
 40
0.631578947368421
 40
0.6842105263157894
 40
0.6842105263157894
 40
0.6842105263157894
 40
0.6842105263157894
 40
0.7368421052631577
 40
0.7368421052631577
 40
0.7368421052631577
 40
0.7368421052631577
 40
0.7894736842105261
 40
0.7894736842105261
 40
0.7894736842105261
 40
0.7894736842105261
 40
0.8421052631578945
 40
0.8421052631578945
 40
0.8421052631578945
 40
0.8421052631578945
 40
0.8947368421052628
 40
0.8947368421052628
 40
0.8947368421052628
 40
0.8947368421052628
 40
0.9473684210526312
 40
0.9473684210526312
 40
0.9473684210526312
 40
0.9473684210526312
 40
1.0
 40
1.0
 40
1.0
 40
1.0
 10
0.3076102362204725
 20
2.075523622047244
 30
0.0
 10
0.3076102362204725
 20
2.075523622047244
 30
0.0
 10
0.313
 20
2.075523622047244
 30
0.0
 10
0.313
 20
2.075523622047244
 30
0.0
 10
0.313
 20
2.075523622047244
 30
0.0
 10
0.313
 20
2.075523622047244
 30
0.0
 10
0.3139724409448819
 20
2.071385826771654
 30
0.0
 10
0.3139724409448819
 20
2.071385826771654
 30
0.0
 10
0.3139724409448819
 20
2.071385826771654
 30
0.0
 10
0.3139724409448819
 20
2.071385826771654
 30
0.0
 10
0.3850826771653543
 20
2.071385826771654
 30
0.0
 10
0.3850826771653543
 20
2.071385826771654
 30
0.0
 10
0.3850826771653543
 20
2.071385826771654
 30
0.0
 10
0.3850826771653543
 20
2.071385826771654
 30
0.0
 10
0.3850826771653543
 20
2.064468503937008
 30
0.0
 10
0.3850826771653543
 20
2.064468503937008
 30
0.0
 10
0.3850826771653543
 20
2.064468503937008
 30
0.0
 10
0.3765826771653543
 20
2.054633858267717
 30
0.0
 10
0.3688582677165355
 20
2.043468503937008
 30
0.0
 10
0.3619448818897638
 20
2.030885826771653
 30
0.0
 10
0.3619448818897638
 20
2.030885826771653
 30
0.0
 10
0.3550275590551181
 20
2.018330708661417
 30
0.0
 10
0.3496653543307087
 20
2.005551181102362
 30
0.0
 10
0.3458582677165354
 20
1.992523622047244
 30
0.0
 10
0.3458582677165354
 20
1.992523622047244
 30
0.0
 10
0.3431102362204724
 20
1.983137795275591
 30
0.0
 10
0.3408622047244095
 20
1.971578740157481
 30
0.0
 10
0.3391102362204724
 20
1.957858267716536
 30
0.0
 10
0.3391102362204724
 20
1.957858267716536
 30
0.0
 10
0.3391102362204724
 20
1.957858267716536
 30
0.0
 10
0.3224448818897638
 20
1.957858267716536
 30
0.0
 10
0.3224448818897638
 20
1.957858267716536
 30
0.0
 10
0.3224448818897638
 20
1.957858267716536
 30
0.0
 10
0.3240551181102362
 20
1.969968503937008
 30
0.0
 10
0.3267204724409449
 20
1.981275590551181
 30
0.0
 10
0.3304448818897638
 20
1.991803149606299
 30
0.0
 10
0.3304448818897638
 20
1.991803149606299
 30
0.0
 10
0.3341653543307087
 20
2.002330708661417
 30
0.0
 10
0.3395275590551181
 20
2.013330708661417
 30
0.0
 10
0.3465551181102363
 20
2.024803149606299
 30
0.0
 10
0.3465551181102363
 20
2.024803149606299
 30
0.0
 10
0.3535826771653544
 20
2.036275590551181
 30
0.0
 10
0.3621102362204725
 20
2.047720472440945
 30
0.0
 10
0.3721653543307087
 20
2.059161417322835
 30
0.0
 10
0.3721653543307087
 20
2.059161417322835
 30
0.0
 10
0.3721653543307087
 20
2.059161417322835
 30
0.0
 10
0.3214448818897638
 20
2.059161417322835
 30
0.0
 10
0.3214448818897638
 20
2.059161417322835
 30
0.0
 10
0.3214448818897638
 20
2.059161417322835
 30
0.0
 10
0.3177755905511811
 20
2.059161417322835
 30
0.0
 10
0.315248031496063
 20
2.058996062992126
 30
0.0
 10
0.3138897637795276
 20
2.058606299212598
 30
0.0
 10
0.3138897637795276
 20
2.058606299212598
 30
0.0
 10
0.3125275590551181
 20
2.058220472440945
 30
0.0
 10
0.3114724409448819
 20
2.057633858267717
 30
0.0
 10
0.3107204724409449
 20
2.056830708661417
 30
0.0
 10
0.3107204724409449
 20
2.056830708661417
 30
0.0
 10
0.3099448818897638
 20
2.055996062992126
 30
0.0
 10
0.3093031496062992
 20
2.054551181102363
 30
0.0
 10
0.308748031496063
 20
2.052496062992126
 30
0.0
 10
0.308748031496063
 20
2.052496062992126
 30
0.0
 10
0.308748031496063
 20
2.052496062992126
 30
0.0
 10
0.3083622047244095
 20
2.050968503937008
 30
0.0
 10
0.3083622047244095
 20
2.050968503937008
 30
0.0
 10
0.3083622047244095
 20
2.050968503937008
 30
0.0
 10
0.3083622047244095
 20
2.050968503937008
 30
0.0
 10
0.3055826771653544
 20
2.041358267716535
 30
0.0
 10
0.3055826771653544
 20
2.041358267716535
 30
0.0
 10
0.3055826771653544
 20
2.041358267716535
 30
0.0
 10
0.3055826771653544
 20
2.041358267716535
 30
0.0
 10
0.2986653543307087
 20
2.042830708661418
 30
0.0
 10
0.2986653543307087
 20
2.042830708661418
 30
0.0
 10
0.2986653543307087
 20
2.042830708661418
 30
0.0
 10
0.2986653543307087
 20
2.042830708661418
 30
0.0
 10
0.3076102362204725
 20
2.075523622047244
 30
0.0
 10
0.3076102362204725
 20
2.075523622047244
 30
0.0
  0
SPLINE
  5
5E
330
1F
100
AcDbEntity
  8
LAYER_1
 62
   250
100
AcDbSpline
210
0.0
220
0.0
230
1.0
 70
    11
 71
     3
 72
    72
 73
    68
 74
     0
 42
0.0000000001
 43
0.0000000001
 40
0.0
 40
0.0
 40
0.0
 40
0.0
 40
0.0588235294117647
 40
0.0588235294117647
 40
0.0588235294117647
 40
0.0588235294117647
 40
0.1176470588235294
 40
0.1176470588235294
 40
0.1176470588235294
 40
0.1176470588235294
 40
0.1764705882352941
 40
0.1764705882352941
 40
0.1764705882352941
 40
0.1764705882352941
 40
0.2352941176470588
 40
0.2352941176470588
 40
0.2352941176470588
 40
0.2352941176470588
 40
0.2941176470588235
 40
0.2941176470588235
 40
0.2941176470588235
 40
0.2941176470588235
 40
0.3529411764705883
 40
0.3529411764705883
 40
0.3529411764705883
 40
0.3529411764705883
 40
0.411764705882353
 40
0.411764705882353
 40
0.411764705882353
 40
0.411764705882353
 40
0.4705882352941177
 40
0.4705882352941177
 40
0.4705882352941177
 40
0.4705882352941177
 40
0.5294117647058824
 40
0.5294117647058824
 40
0.5294117647058824
 40
0.5294117647058824
 40
0.5882352941176471
 40
0.5882352941176471
 40
0.5882352941176471
 40
0.5882352941176471
 40
0.6470588235294118
 40
0.6470588235294118
 40
0.6470588235294118
 40
0.6470588235294118
 40
0.7058823529411765
 40
0.7058823529411765
 40
0.7058823529411765
 40
0.7058823529411765
 40
0.7647058823529412
 40
0.7647058823529412
 40
0.7647058823529412
 40
0.7647058823529412
 40
0.823529411764706
 40
0.823529411764706
 40
0.823529411764706
 40
0.823529411764706
 40
0.8823529411764707
 40
0.8823529411764707
 40
0.8823529411764707
 40
0.8823529411764707
 40
0.9411764705882354
 40
0.9411764705882354
 40
0.9411764705882354
 40
0.9411764705882354
 40
1.0
 40
1.0
 40
1.0
 40
1.0
 10
0.4489173228346457
 20
2.071385826771654
 30
0.0
 10
0.4489173228346457
 20
2.071385826771654
 30
0.0
 10
0.455
 20
2.071385826771654
 30
0.0
 10
0.455
 20
2.071385826771654
 30
0.0
 10
0.455
 20
2.071385826771654
 30
0.0
 10
0.455
 20
2.071385826771654
 30
0.0
 10
0.455
 20
1.977137795275591
 30
0.0
 10
0.455
 20
1.977137795275591
 30
0.0
 10
0.455
 20
1.977137795275591
 30
0.0
 10
0.455
 20
1.972692913385827
 30
0.0
 10
0.4553070866141732
 20
1.969830708661417
 30
0.0
 10
0.4558622047244095
 20
1.968551181102362
 30
0.0
 10
0.4558622047244095
 20
1.968551181102362
 30
0.0
 10
0.4564448818897638
 20
1.967275590551181
 30
0.0
 10
0.4573622047244095
 20
1.966330708661418
 30
0.0
 10
0.4586653543307087
 20
1.965665354330709
 30
0.0
 10
0.4586653543307087
 20
1.965665354330709
 30
0.0
 10
0.4599724409448819
 20
1.965023622047244
 30
0.0
 10
0.4625551181102363
 20
1.964692913385827
 30
0.0
 10
0.4664173228346457
 20
1.964692913385827
 30
0.0
 10
0.4664173228346457
 20
1.964692913385827
 30
0.0
 10
0.4664173228346457
 20
1.964692913385827
 30
0.0
 10
0.4743897637795276
 20
1.964692913385827
 30
0.0
 10
0.4743897637795276
 20
1.964692913385827
 30
0.0
 10
0.4743897637795276
 20
1.964692913385827
 30
0.0
 10
0.4743897637795276
 20
1.964692913385827
 30
0.0
 10
0.4743897637795276
 20
1.957858267716536
 30
0.0
 10
0.4743897637795276
 20
1.957858267716536
 30
0.0
 10
0.4743897637795276
 20
1.957858267716536
 30
0.0
 10
0.4743897637795276
 20
1.957858267716536
 30
0.0
 10
0.420751968503937
 20
1.957858267716536
 30
0.0
 10
0.420751968503937
 20
1.957858267716536
 30
0.0
 10
0.420751968503937
 20
1.957858267716536
 30
0.0
 10
0.420751968503937
 20
1.957858267716536
 30
0.0
 10
0.420751968503937
 20
1.964692913385827
 30
0.0
 10
0.420751968503937
 20
1.964692913385827
 30
0.0
 10
0.420751968503937
 20
1.964692913385827
 30
0.0
 10
0.420751968503937
 20
1.964692913385827
 30
0.0
 10
0.4296102362204725
 20
1.964692913385827
 30
0.0
 10
0.4296102362204725
 20
1.964692913385827
 30
0.0
 10
0.4296102362204725
 20
1.964692913385827
 30
0.0
 10
0.4334724409448819
 20
1.964692913385827
 30
0.0
 10
0.4360275590551181
 20
1.965023622047244
 30
0.0
 10
0.4373070866141732
 20
1.965720472440945
 30
0.0
 10
0.4373070866141732
 20
1.965720472440945
 30
0.0
 10
0.4385826771653544
 20
1.966385826771654
 30
0.0
 10
0.4395826771653544
 20
1.967468503937008
 30
0.0
 10
0.4402795275590551
 20
1.968968503937008
 30
0.0
 10
0.4402795275590551
 20
1.968968503937008
 30
0.0
 10
0.4409724409448819
 20
1.970468503937008
 30
0.0
 10
0.4413346456692914
 20
1.973192913385827
 30
0.0
 10
0.4413346456692914
 20
1.977137795275591
 30
0.0
 10
0.4413346456692914
 20
1.977137795275591
 30
0.0
 10
0.4413346456692914
 20
1.977137795275591
 30
0.0
 10
0.4413346456692914
 20
2.054606299212598
 30
0.0
 10
0.4413346456692914
 20
2.054606299212598
 30
0.0
 10
0.4413346456692914
 20
2.054606299212598
 30
0.0
 10
0.4413346456692914
 20
2.054606299212598
 30
0.0
 10
0.420751968503937
 20
2.054606299212598
 30
0.0
 10
0.420751968503937
 20
2.054606299212598
 30
0.0
 10
0.420751968503937
 20
2.054606299212598
 30
0.0
 10
0.420751968503937
 20
2.054606299212598
 30
0.0
 10
0.420751968503937
 20
2.061606299212599
 30
0.0
 10
0.420751968503937
 20
2.061606299212599
 30
0.0
 10
0.420751968503937
 20
2.061606299212599
 30
0.0
 10
0.4319724409448819
 20
2.063188976377953
 30
0.0
 10
0.4413622047244095
 20
2.06644094488189
 30
0.0
 10
0.4489173228346457
 20
2.071385826771654
 30
0.0
  0
SPLINE
  5
5F
330
1F
100
AcDbEntity
  8
LAYER_1
 62
   250
100
AcDbSpline
210
0.0
220
0.0
230
1.0
 70
    11
 71
     3
 72
    80
 73
    76
 74
     0
 42
0.0000000001
 43
0.0000000001
 40
0.0
 40
0.0
 40
0.0
 40
0.0
 40
0.0526315789473684
 40
0.0526315789473684
 40
0.0526315789473684
 40
0.0526315789473684
 40
0.1052631578947368
 40
0.1052631578947368
 40
0.1052631578947368
 40
0.1052631578947368
 40
0.1578947368421053
 40
0.1578947368421053
 40
0.1578947368421053
 40
0.1578947368421053
 40
0.2105263157894737
 40
0.2105263157894737
 40
0.2105263157894737
 40
0.2105263157894737
 40
0.2631578947368421
 40
0.2631578947368421
 40
0.2631578947368421
 40
0.2631578947368421
 40
0.3157894736842105
 40
0.3157894736842105
 40
0.3157894736842105
 40
0.3157894736842105
 40
0.3684210526315789
 40
0.3684210526315789
 40
0.3684210526315789
 40
0.3684210526315789
 40
0.4210526315789474
 40
0.4210526315789474
 40
0.4210526315789474
 40
0.4210526315789474
 40
0.4736842105263158
 40
0.4736842105263158
 40
0.4736842105263158
 40
0.4736842105263158
 40
0.5263157894736842
 40
0.5263157894736842
 40
0.5263157894736842
 40
0.5263157894736842
 40
0.5789473684210527
 40
0.5789473684210527
 40
0.5789473684210527
 40
0.5789473684210527
 40
0.631578947368421
 40
0.631578947368421
 40
0.631578947368421
 40
0.631578947368421
 40
0.6842105263157894
 40
0.6842105263157894
 40
0.6842105263157894
 40
0.6842105263157894
 40
0.7368421052631577
 40
0.7368421052631577
 40
0.7368421052631577
 40
0.7368421052631577
 40
0.7894736842105261
 40
0.7894736842105261
 40
0.7894736842105261
 40
0.7894736842105261
 40
0.8421052631578945
 40
0.8421052631578945
 40
0.8421052631578945
 40
0.8421052631578945
 40
0.8947368421052628
 40
0.8947368421052628
 40
0.8947368421052628
 40
0.8947368421052628
 40
0.9473684210526312
 40
0.9473684210526312
 40
0.9473684210526312
 40
0.9473684210526312
 40
1.0
 40
1.0
 40
1.0
 40
1.0
 10
-0.525736220472441
 20
1.888023622047244
 30
0.0
 10
-0.525736220472441
 20
1.888023622047244
 30
0.0
 10
-0.5203464566929134
 20
1.888023622047244
 30
0.0
 10
-0.5203464566929134
 20
1.888023622047244
 30
0.0
 10
-0.5203464566929134
 20
1.888023622047244
 30
0.0
 10
-0.5203464566929134
 20
1.888023622047244
 30
0.0
 10
-0.5193740157480316
 20
1.883885826771654
 30
0.0
 10
-0.5193740157480316
 20
1.883885826771654
 30
0.0
 10
-0.5193740157480316
 20
1.883885826771654
 30
0.0
 10
-0.5193740157480316
 20
1.883885826771654
 30
0.0
 10
-0.4482637795275591
 20
1.883885826771654
 30
0.0
 10
-0.4482637795275591
 20
1.883885826771654
 30
0.0
 10
-0.4482637795275591
 20
1.883885826771654
 30
0.0
 10
-0.4482637795275591
 20
1.883885826771654
 30
0.0
 10
-0.4482637795275591
 20
1.876968503937008
 30
0.0
 10
-0.4482637795275591
 20
1.876968503937008
 30
0.0
 10
-0.4482637795275591
 20
1.876968503937008
 30
0.0
 10
-0.4567637795275591
 20
1.867133858267717
 30
0.0
 10
-0.464488188976378
 20
1.855968503937008
 30
0.0
 10
-0.4714015748031497
 20
1.843385826771654
 30
0.0
 10
-0.4714015748031497
 20
1.843385826771654
 30
0.0
 10
-0.4783188976377953
 20
1.830830708661417
 30
0.0
 10
-0.4836811023622047
 20
1.818051181102362
 30
0.0
 10
-0.487488188976378
 20
1.805023622047244
 30
0.0
 10
-0.487488188976378
 20
1.805023622047244
 30
0.0
 10
-0.490236220472441
 20
1.795637795275591
 30
0.0
 10
-0.492484251968504
 20
1.784078740157481
 30
0.0
 10
-0.494236220472441
 20
1.770358267716536
 30
0.0
 10
-0.494236220472441
 20
1.770358267716536
 30
0.0
 10
-0.494236220472441
 20
1.770358267716536
 30
0.0
 10
-0.5109015748031496
 20
1.770358267716536
 30
0.0
 10
-0.5109015748031496
 20
1.770358267716536
 30
0.0
 10
-0.5109015748031496
 20
1.770358267716536
 30
0.0
 10
-0.5092913385826772
 20
1.782468503937008
 30
0.0
 10
-0.5066259842519685
 20
1.793775590551181
 30
0.0
 10
-0.5029015748031497
 20
1.804303149606299
 30
0.0
 10
-0.5029015748031497
 20
1.804303149606299
 30
0.0
 10
-0.4991811023622048
 20
1.814830708661418
 30
0.0
 10
-0.4938188976377953
 20
1.825830708661417
 30
0.0
 10
-0.4867913385826772
 20
1.837303149606299
 30
0.0
 10
-0.4867913385826772
 20
1.837303149606299
 30
0.0
 10
-0.4797637795275591
 20
1.848775590551181
 30
0.0
 10
-0.471236220472441
 20
1.860220472440945
 30
0.0
 10
-0.4611811023622047
 20
1.871661417322835
 30
0.0
 10
-0.4611811023622047
 20
1.871661417322835
 30
0.0
 10
-0.4611811023622047
 20
1.871661417322835
 30
0.0
 10
-0.5119015748031496
 20
1.871661417322835
 30
0.0
 10
-0.5119015748031496
 20
1.871661417322835
 30
0.0
 10
-0.5119015748031496
 20
1.871661417322835
 30
0.0
 10
-0.5155708661417323
 20
1.871661417322835
 30
0.0
 10
-0.5180984251968505
 20
1.871496062992126
 30
0.0
 10
-0.5194566929133858
 20
1.871106299212598
 30
0.0
 10
-0.5194566929133858
 20
1.871106299212598
 30
0.0
 10
-0.5208188976377953
 20
1.870720472440945
 30
0.0
 10
-0.5218740157480315
 20
1.870133858267717
 30
0.0
 10
-0.5226259842519685
 20
1.869330708661418
 30
0.0
 10
-0.5226259842519685
 20
1.869330708661418
 30
0.0
 10
-0.5234015748031496
 20
1.868496062992126
 30
0.0
 10
-0.5240433070866142
 20
1.867051181102362
 30
0.0
 10
-0.5245984251968504
 20
1.864996062992126
 30
0.0
 10
-0.5245984251968504
 20
1.864996062992126
 30
0.0
 10
-0.5245984251968504
 20
1.864996062992126
 30
0.0
 10
-0.524984251968504
 20
1.863468503937008
 30
0.0
 10
-0.524984251968504
 20
1.863468503937008
 30
0.0
 10
-0.524984251968504
 20
1.863468503937008
 30
0.0
 10
-0.524984251968504
 20
1.863468503937008
 30
0.0
 10
-0.527763779527559
 20
1.853858267716536
 30
0.0
 10
-0.527763779527559
 20
1.853858267716536
 30
0.0
 10
-0.527763779527559
 20
1.853858267716536
 30
0.0
 10
-0.527763779527559
 20
1.853858267716536
 30
0.0
 10
-0.5346811023622048
 20
1.855330708661418
 30
0.0
 10
-0.5346811023622048
 20
1.855330708661418
 30
0.0
 10
-0.5346811023622048
 20
1.855330708661418
 30
0.0
 10
-0.5346811023622048
 20
1.855330708661418
 30
0.0
 10
-0.525736220472441
 20
1.888023622047244
 30
0.0
 10
-0.525736220472441
 20
1.888023622047244
 30
0.0
  0
SPLINE
  5
60
330
1F
100
AcDbEntity
  8
LAYER_1
 62
   250
100
AcDbSpline
210
0.0
220
0.0
230
1.0
 70
    11
 71
     3
 72
    20
 73
    16
 74
     0
 42
0.0000000001
 43
0.0000000001
 40
0.0
 40
0.0
 40
0.0
 40
0.0
 40
0.25
 40
0.25
 40
0.25
 40
0.25
 40
0.5
 40
0.5
 40
0.5
 40
0.5
 40
0.75
 40
0.75
 40
0.75
 40
0.75
 40
1.0
 40
1.0
 40
1.0
 40
1.0
 10
-0.3589566929133858
 20
1.889748031496063
 30
0.0
 10
-0.3589566929133858
 20
1.889748031496063
 30
0.0
 10
-0.4145393700787402
 20
1.734051181102362
 30
0.0
 10
-0.4145393700787402
 20
1.734051181102362
 30
0.0
 10
-0.4145393700787402
 20
1.734051181102362
 30
0.0
 10
-0.4145393700787402
 20
1.734051181102362
 30
0.0
 10
-0.4265944881889764
 20
1.734051181102362
 30
0.0
 10
-0.4265944881889764
 20
1.734051181102362
 30
0.0
 10
-0.4265944881889764
 20
1.734051181102362
 30
0.0
 10
-0.4265944881889764
 20
1.734051181102362
 30
0.0
 10
-0.3713464566929134
 20
1.889748031496063
 30
0.0
 10
-0.3713464566929134
 20
1.889748031496063
 30
0.0
 10
-0.3713464566929134
 20
1.889748031496063
 30
0.0
 10
-0.3713464566929134
 20
1.889748031496063
 30
0.0
 10
-0.3589566929133858
 20
1.889748031496063
 30
0.0
 10
-0.3589566929133858
 20
1.889748031496063
 30
0.0
  0
SPLINE
  5
61
330
1F
100
AcDbEntity
  8
LAYER_1
 62
   250
100
AcDbSpline
210
0.0
220
0.0
230
1.0
 70
    11
 71
     3
 72
    72
 73
    68
 74
     0
 42
0.0000000001
 43
0.0000000001
 40
0.0
 40
0.0
 40
0.0
 40
0.0
 40
0.0588235294117647
 40
0.0588235294117647
 40
0.0588235294117647
 40
0.0588235294117647
 40
0.1176470588235294
 40
0.1176470588235294
 40
0.1176470588235294
 40
0.1176470588235294
 40
0.1764705882352941
 40
0.1764705882352941
 40
0.1764705882352941
 40
0.1764705882352941
 40
0.2352941176470588
 40
0.2352941176470588
 40
0.2352941176470588
 40
0.2352941176470588
 40
0.2941176470588235
 40
0.2941176470588235
 40
0.2941176470588235
 40
0.2941176470588235
 40
0.3529411764705883
 40
0.3529411764705883
 40
0.3529411764705883
 40
0.3529411764705883
 40
0.411764705882353
 40
0.411764705882353
 40
0.411764705882353
 40
0.411764705882353
 40
0.4705882352941177
 40
0.4705882352941177
 40
0.4705882352941177
 40
0.4705882352941177
 40
0.5294117647058824
 40
0.5294117647058824
 40
0.5294117647058824
 40
0.5294117647058824
 40
0.5882352941176471
 40
0.5882352941176471
 40
0.5882352941176471
 40
0.5882352941176471
 40
0.6470588235294118
 40
0.6470588235294118
 40
0.6470588235294118
 40
0.6470588235294118
 40
0.7058823529411765
 40
0.7058823529411765
 40
0.7058823529411765
 40
0.7058823529411765
 40
0.7647058823529412
 40
0.7647058823529412
 40
0.7647058823529412
 40
0.7647058823529412
 40
0.823529411764706
 40
0.823529411764706
 40
0.823529411764706
 40
0.823529411764706
 40
0.8823529411764707
 40
0.8823529411764707
 40
0.8823529411764707
 40
0.8823529411764707
 40
0.9411764705882354
 40
0.9411764705882354
 40
0.9411764705882354
 40
0.9411764705882354
 40
1.0
 40
1.0
 40
1.0
 40
1.0
 10
-0.2844015748031496
 20
1.883885826771654
 30
0.0
 10
-0.2844015748031496
 20
1.883885826771654
 30
0.0
 10
-0.2783188976377953
 20
1.883885826771654
 30
0.0
 10
-0.2783188976377953
 20
1.883885826771654
 30
0.0
 10
-0.2783188976377953
 20
1.883885826771654
 30
0.0
 10
-0.2783188976377953
 20
1.883885826771654
 30
0.0
 10
-0.2783188976377953
 20
1.789637795275591
 30
0.0
 10
-0.2783188976377953
 20
1.789637795275591
 30
0.0
 10
-0.2783188976377953
 20
1.789637795275591
 30
0.0
 10
-0.2783188976377953
 20
1.785192913385827
 30
0.0
 10
-0.2780118110236221
 20
1.782330708661417
 30
0.0
 10
-0.2774566929133858
 20
1.781051181102362
 30
0.0
 10
-0.2774566929133858
 20
1.781051181102362
 30
0.0
 10
-0.2768740157480315
 20
1.779775590551181
 30
0.0
 10
-0.2759566929133858
 20
1.778830708661418
 30
0.0
 10
-0.2746535433070866
 20
1.778165354330709
 30
0.0
 10
-0.2746535433070866
 20
1.778165354330709
 30
0.0
 10
-0.2733464566929134
 20
1.777523622047244
 30
0.0
 10
-0.2707637795275591
 20
1.777192913385827
 30
0.0
 10
-0.2669015748031496
 20
1.777192913385827
 30
0.0
 10
-0.2669015748031496
 20
1.777192913385827
 30
0.0
 10
-0.2669015748031496
 20
1.777192913385827
 30
0.0
 10
-0.2589291338582677
 20
1.777192913385827
 30
0.0
 10
-0.2589291338582677
 20
1.777192913385827
 30
0.0
 10
-0.2589291338582677
 20
1.777192913385827
 30
0.0
 10
-0.2589291338582677
 20
1.777192913385827
 30
0.0
 10
-0.2589291338582677
 20
1.770358267716536
 30
0.0
 10
-0.2589291338582677
 20
1.770358267716536
 30
0.0
 10
-0.2589291338582677
 20
1.770358267716536
 30
0.0
 10
-0.2589291338582677
 20
1.770358267716536
 30
0.0
 10
-0.3125669291338583
 20
1.770358267716536
 30
0.0
 10
-0.3125669291338583
 20
1.770358267716536
 30
0.0
 10
-0.3125669291338583
 20
1.770358267716536
 30
0.0
 10
-0.3125669291338583
 20
1.770358267716536
 30
0.0
 10
-0.3125669291338583
 20
1.777192913385827
 30
0.0
 10
-0.3125669291338583
 20
1.777192913385827
 30
0.0
 10
-0.3125669291338583
 20
1.777192913385827
 30
0.0
 10
-0.3125669291338583
 20
1.777192913385827
 30
0.0
 10
-0.3037086614173228
 20
1.777192913385827
 30
0.0
 10
-0.3037086614173228
 20
1.777192913385827
 30
0.0
 10
-0.3037086614173228
 20
1.777192913385827
 30
0.0
 10
-0.2998464566929134
 20
1.777192913385827
 30
0.0
 10
-0.2972913385826772
 20
1.777523622047244
 30
0.0
 10
-0.2960118110236221
 20
1.778220472440945
 30
0.0
 10
-0.2960118110236221
 20
1.778220472440945
 30
0.0
 10
-0.294736220472441
 20
1.778885826771654
 30
0.0
 10
-0.293736220472441
 20
1.779968503937008
 30
0.0
 10
-0.2930393700787402
 20
1.781468503937008
 30
0.0
 10
-0.2930393700787402
 20
1.781468503937008
 30
0.0
 10
-0.2923464566929134
 20
1.782968503937008
 30
0.0
 10
-0.291984251968504
 20
1.785692913385827
 30
0.0
 10
-0.291984251968504
 20
1.789637795275591
 30
0.0
 10
-0.291984251968504
 20
1.789637795275591
 30
0.0
 10
-0.291984251968504
 20
1.789637795275591
 30
0.0
 10
-0.291984251968504
 20
1.867106299212598
 30
0.0
 10
-0.291984251968504
 20
1.867106299212598
 30
0.0
 10
-0.291984251968504
 20
1.867106299212598
 30
0.0
 10
-0.291984251968504
 20
1.867106299212598
 30
0.0
 10
-0.3125669291338583
 20
1.867106299212598
 30
0.0
 10
-0.3125669291338583
 20
1.867106299212598
 30
0.0
 10
-0.3125669291338583
 20
1.867106299212598
 30
0.0
 10
-0.3125669291338583
 20
1.867106299212598
 30
0.0
 10
-0.3125669291338583
 20
1.874106299212599
 30
0.0
 10
-0.3125669291338583
 20
1.874106299212599
 30
0.0
 10
-0.3125669291338583
 20
1.874106299212599
 30
0.0
 10
-0.3013464566929134
 20
1.875688976377953
 30
0.0
 10
-0.2919566929133858
 20
1.87894094488189
 30
0.0
 10
-0.2844015748031496
 20
1.883885826771654
 30
0.0
  0
SPLINE
  5
62
330
1F
100
AcDbEntity
  8
LAYER_1
 62
   250
100
AcDbSpline
210
0.0
220
0.0
230
1.0
 70
    11
 71
     3
 72
    84
 73
    80
 74
     0
 42
0.0000000001
 43
0.0000000001
 40
0.0
 40
0.0
 40
0.0
 40
0.0
 40
0.05
 40
0.05
 40
0.05
 40
0.05
 40
0.1
 40
0.1
 40
0.1
 40
0.1
 40
0.15
 40
0.15
 40
0.15
 40
0.15
 40
0.2
 40
0.2
 40
0.2
 40
0.2
 40
0.25
 40
0.25
 40
0.25
 40
0.25
 40
0.3
 40
0.3
 40
0.3
 40
0.3
 40
0.35
 40
0.35
 40
0.35
 40
0.35
 40
0.4
 40
0.4
 40
0.4
 40
0.4
 40
0.45
 40
0.45
 40
0.45
 40
0.45
 40
0.4999999999999999
 40
0.4999999999999999
 40
0.4999999999999999
 40
0.4999999999999999
 40
0.5499999999999999
 40
0.5499999999999999
 40
0.5499999999999999
 40
0.5499999999999999
 40
0.6
 40
0.6
 40
0.6
 40
0.6
 40
0.65
 40
0.65
 40
0.65
 40
0.65
 40
0.7000000000000001
 40
0.7000000000000001
 40
0.7000000000000001
 40
0.7000000000000001
 40
0.7500000000000001
 40
0.7500000000000001
 40
0.7500000000000001
 40
0.7500000000000001
 40
0.8000000000000002
 40
0.8000000000000002
 40
0.8000000000000002
 40
0.8000000000000002
 40
0.8500000000000002
 40
0.8500000000000002
 40
0.8500000000000002
 40
0.8500000000000002
 40
0.9000000000000002
 40
0.9000000000000002
 40
0.9000000000000002
 40
0.9000000000000002
 40
0.9500000000000003
 40
0.9500000000000003
 40
0.9500000000000003
 40
0.9500000000000003
 40
1.0
 40
1.0
 40
1.0
 40
1.0
 10
-0.152736220472441
 20
1.885996062992126
 30
0.0
 10
-0.152736220472441
 20
1.885996062992126
 30
0.0
 10
-0.152736220472441
 20
1.87857874015748
 30
0.0
 10
-0.152736220472441
 20
1.87857874015748
 30
0.0
 10
-0.152736220472441
 20
1.87857874015748
 30
0.0
 10
-0.1661220472440945
 20
1.87844094488189
 30
0.0
 10
-0.1769566929133858
 20
1.876468503937008
 30
0.0
 10
-0.1852322834645669
 20
1.872748031496063
 30
0.0
 10
-0.1852322834645669
 20
1.872748031496063
 30
0.0
 10
-0.1935118110236221
 20
1.868996062992126
 30
0.0
 10
-0.1995944881889764
 20
1.863385826771654
 30
0.0
 10
-0.2035118110236221
 20
1.85594094488189
 30
0.0
 10
-0.2035118110236221
 20
1.85594094488189
 30
0.0
 10
-0.2074291338582677
 20
1.848468503937008
 30
0.0
 10
-0.2096220472440945
 20
1.839275590551181
 30
0.0
 10
-0.2100944881889764
 20
1.828385826771654
 30
0.0
 10
-0.2100944881889764
 20
1.828385826771654
 30
0.0
 10
-0.2073464566929134
 20
1.832606299212598
 30
0.0
 10
-0.2045118110236221
 20
1.835913385826772
 30
0.0
 10
-0.2015944881889764
 20
1.838275590551181
 30
0.0
 10
-0.2015944881889764
 20
1.838275590551181
 30
0.0
 10
-0.1987047244094488
 20
1.840633858267717
 30
0.0
 10
-0.1953188976377953
 20
1.84244094488189
 30
0.0
 10
-0.1914291338582677
 20
1.843720472440945
 30
0.0
 10
-0.1914291338582677
 20
1.843720472440945
 30
0.0
 10
-0.1875393700787402
 20
1.844996062992126
 30
0.0
 10
-0.1832913385826772
 20
1.845633858267717
 30
0.0
 10
-0.1786771653543307
 20
1.845633858267717
 30
0.0
 10
-0.1786771653543307
 20
1.845633858267717
 30
0.0
 10
-0.1713188976377953
 20
1.845633858267717
 30
0.0
 10
-0.164736220472441
 20
1.843996062992126
 30
0.0
 10
-0.1589842519685039
 20
1.840748031496063
 30
0.0
 10
-0.1589842519685039
 20
1.840748031496063
 30
0.0
 10
-0.153236220472441
 20
1.837496062992126
 30
0.0
 10
-0.1487637795275591
 20
1.83307874015748
 30
0.0
 10
-0.1455669291338583
 20
1.827523622047244
 30
0.0
 10
-0.1455669291338583
 20
1.827523622047244
 30
0.0
 10
-0.1423740157480315
 20
1.821968503937008
 30
0.0
 10
-0.1407637795275591
 20
1.815413385826772
 30
0.0
 10
-0.1407637795275591
 20
1.807885826771654
 30
0.0
 10
-0.1407637795275591
 20
1.807885826771654
 30
0.0
 10
-0.1407637795275591
 20
1.795885826771654
 30
0.0
 10
-0.1443740157480315
 20
1.786468503937008
 30
0.0
 10
-0.1515944881889764
 20
1.779637795275591
 30
0.0
 10
-0.1515944881889764
 20
1.779637795275591
 30
0.0
 10
-0.1595669291338583
 20
1.772137795275591
 30
0.0
 10
-0.1699015748031496
 20
1.768413385826772
 30
0.0
 10
-0.1825944881889764
 20
1.768413385826772
 30
0.0
 10
-0.1825944881889764
 20
1.768413385826772
 30
0.0
 10
-0.1917637795275591
 20
1.768413385826772
 30
0.0
 10
-0.199484251968504
 20
1.770303149606299
 30
0.0
 10
-0.2057913385826772
 20
1.774106299212598
 30
0.0
 10
-0.2057913385826772
 20
1.774106299212598
 30
0.0
 10
-0.2120944881889764
 20
1.777885826771654
 30
0.0
 10
-0.2170944881889764
 20
1.783692913385827
 30
0.0
 10
-0.2208188976377953
 20
1.791523622047244
 30
0.0
 10
-0.2208188976377953
 20
1.791523622047244
 30
0.0
 10
-0.2245118110236221
 20
1.799330708661417
 30
0.0
 10
-0.2263740157480315
 20
1.808996062992126
 30
0.0
 10
-0.2263740157480315
 20
1.820496062992126
 30
0.0
 10
-0.2263740157480315
 20
1.820496062992126
 30
0.0
 10
-0.2263740157480315
 20
1.832051181102362
 30
0.0
 10
-0.2244015748031496
 20
1.842303149606299
 30
0.0
 10
-0.2204842519685039
 20
1.851248031496063
 30
0.0
 10
-0.2204842519685039
 20
1.851248031496063
 30
0.0
 10
-0.2165393700787402
 20
1.860188976377953
 30
0.0
 10
-0.2110944881889764
 20
1.867385826771654
 30
0.0
 10
-0.2041496062992126
 20
1.872803149606299
 30
0.0
 10
-0.2041496062992126
 20
1.872803149606299
 30
0.0
 10
-0.1972047244094488
 20
1.878248031496063
 30
0.0
 10
-0.1895944881889764
 20
1.881803149606299
 30
0.0
 10
-0.1813464566929134
 20
1.883468503937008
 30
0.0
 10
-0.1813464566929134
 20
1.883468503937008
 30
0.0
 10
-0.1730669291338583
 20
1.885161417322835
 30
0.0
 10
-0.1656496062992126
 20
1.885996062992126
 30
0.0
 10
-0.1590669291338583
 20
1.885996062992126
 30
0.0
 10
-0.1590669291338583
 20
1.885996062992126
 30
0.0
 10
-0.1590669291338583
 20
1.885996062992126
 30
0.0
 10
-0.152736220472441
 20
1.885996062992126
 30
0.0
 10
-0.152736220472441
 20
1.885996062992126
 30
0.0
  0
SPLINE
  5
63
330
1F
100
AcDbEntity
  8
LAYER_1
 62
   250
100
AcDbSpline
210
0.0
220
0.0
230
1.0
 70
    11
 71
     3
 72
    40
 73
    36
 74
     0
 42
0.0000000001
 43
0.0000000001
 40
0.0
 40
0.0
 40
0.0
 40
0.0
 40
0.1111111111111111
 40
0.1111111111111111
 40
0.1111111111111111
 40
0.1111111111111111
 40
0.2222222222222222
 40
0.2222222222222222
 40
0.2222222222222222
 40
0.2222222222222222
 40
0.3333333333333333
 40
0.3333333333333333
 40
0.3333333333333333
 40
0.3333333333333333
 40
0.4444444444444444
 40
0.4444444444444444
 40
0.4444444444444444
 40
0.4444444444444444
 40
0.5555555555555556
 40
0.5555555555555556
 40
0.5555555555555556
 40
0.5555555555555556
 40
0.6666666666666667
 40
0.6666666666666667
 40
0.6666666666666667
 40
0.6666666666666667
 40
0.7777777777777779
 40
0.7777777777777779
 40
0.7777777777777779
 40
0.7777777777777779
 40
0.8888888888888891
 40
0.8888888888888891
 40
0.8888888888888891
 40
0.8888888888888891
 40
1.0
 40
1.0
 40
1.0
 40
1.0
 10
-0.1824291338582677
 20
1.836996062992126
 30
0.0
 10
-0.1902322834645669
 20
1.836996062992126
 30
0.0
 10
-0.1966496062992126
 20
1.834051181102362
 30
0.0
 10
-0.2016771653543307
 20
1.828133858267717
 30
0.0
 10
-0.2016771653543307
 20
1.828133858267717
 30
0.0
 10
-0.2067047244094488
 20
1.822220472440945
 30
0.0
 10
-0.2092047244094488
 20
1.815106299212599
 30
0.0
 10
-0.2092047244094488
 20
1.806830708661418
 30
0.0
 10
-0.2092047244094488
 20
1.806830708661418
 30
0.0
 10
-0.2092047244094488
 20
1.800968503937008
 30
0.0
 10
-0.207984251968504
 20
1.795551181102362
 30
0.0
 10
-0.2055393700787402
 20
1.79057874015748
 30
0.0
 10
-0.2055393700787402
 20
1.79057874015748
 30
0.0
 10
-0.2030944881889764
 20
1.785606299212599
 30
0.0
 10
-0.1999566929133858
 20
1.78194094488189
 30
0.0
 10
-0.1960944881889764
 20
1.779523622047244
 30
0.0
 10
-0.1960944881889764
 20
1.779523622047244
 30
0.0
 10
-0.1922637795275591
 20
1.777106299212599
 30
0.0
 10
-0.1879015748031496
 20
1.775885826771654
 30
0.0
 10
-0.1830944881889764
 20
1.775885826771654
 30
0.0
 10
-0.1830944881889764
 20
1.775885826771654
 30
0.0
 10
-0.1755944881889764
 20
1.775885826771654
 30
0.0
 10
-0.1693740157480315
 20
1.778720472440945
 30
0.0
 10
-0.1644015748031496
 20
1.784385826771654
 30
0.0
 10
-0.1644015748031496
 20
1.784385826771654
 30
0.0
 10
-0.1594566929133858
 20
1.790051181102362
 30
0.0
 10
-0.1569566929133858
 20
1.797665354330709
 30
0.0
 10
-0.1569566929133858
 20
1.807220472440945
 30
0.0
 10
-0.1569566929133858
 20
1.807220472440945
 30
0.0
 10
-0.1569566929133858
 20
1.816330708661417
 30
0.0
 10
-0.1593740157480315
 20
1.82357874015748
 30
0.0
 10
-0.1642047244094488
 20
1.82894094488189
 30
0.0
 10
-0.1642047244094488
 20
1.82894094488189
 30
0.0
 10
-0.1690393700787402
 20
1.834330708661417
 30
0.0
 10
-0.1751220472440945
 20
1.836996062992126
 30
0.0
 10
-0.1824291338582677
 20
1.836996062992126
 30
0.0
  0
SPLINE
  5
64
330
1F
100
AcDbEntity
  8
LAYER_1
 62
   250
100
AcDbSpline
210
0.0
220
0.0
230
1.0
 70
    11
 71
     3
 72
    60
 73
    56
 74
     0
 42
0.0000000001
 43
0.0000000001
 40
0.0
 40
0.0
 40
0.0
 40
0.0
 40
0.0714285714285714
 40
0.0714285714285714
 40
0.0714285714285714
 40
0.0714285714285714
 40
0.1428571428571429
 40
0.1428571428571429
 40
0.1428571428571429
 40
0.1428571428571429
 40
0.2142857142857143
 40
0.2142857142857143
 40
0.2142857142857143
 40
0.2142857142857143
 40
0.2857142857142857
 40
0.2857142857142857
 40
0.2857142857142857
 40
0.2857142857142857
 40
0.3571428571428571
 40
0.3571428571428571
 40
0.3571428571428571
 40
0.3571428571428571
 40
0.4285714285714285
 40
0.4285714285714285
 40
0.4285714285714285
 40
0.4285714285714285
 40
0.4999999999999999
 40
0.4999999999999999
 40
0.4999999999999999
 40
0.4999999999999999
 40
0.5714285714285713
 40
0.5714285714285713
 40
0.5714285714285713
 40
0.5714285714285713
 40
0.6428571428571427
 40
0.6428571428571427
 40
0.6428571428571427
 40
0.6428571428571427
 40
0.7142857142857141
 40
0.7142857142857141
 40
0.7142857142857141
 40
0.7142857142857141
 40
0.7857142857142855
 40
0.7857142857142855
 40
0.7857142857142855
 40
0.7857142857142855
 40
0.8571428571428569
 40
0.8571428571428569
 40
0.8571428571428569
 40
0.8571428571428569
 40
0.9285714285714283
 40
0.9285714285714283
 40
0.9285714285714283
 40
0.9285714285714283
 40
1.0
 40
1.0
 40
1.0
 40
1.0
 10
-0.1235944881889764
 20
1.841803149606299
 30
0.0
 10
-0.1235944881889764
 20
1.841803149606299
 30
0.0
 10
-0.1279842519685039
 20
1.847192913385827
 30
0.0
 10
-0.1279842519685039
 20
1.847192913385827
 30
0.0
 10
-0.1279842519685039
 20
1.847192913385827
 30
0.0
 10
-0.1168700787401575
 20
1.856248031496063
 30
0.0
 10
-0.1112874015748032
 20
1.863803149606299
 30
0.0
 10
-0.1112874015748032
 20
1.869885826771654
 30
0.0
 10
-0.1112874015748032
 20
1.869885826771654
 30
0.0
 10
-0.1112874015748032
 20
1.870578740157481
 30
0.0
 10
-0.1113425196850394
 20
1.871468503937008
 30
0.0
 10
-0.1114566929133858
 20
1.872496062992126
 30
0.0
 10
-0.1114566929133858
 20
1.872496062992126
 30
0.0
 10
-0.1123700787401575
 20
1.872106299212599
 30
0.0
 10
-0.1132874015748032
 20
1.871803149606299
 30
0.0
 10
-0.1141496062992126
 20
1.871606299212599
 30
0.0
 10
-0.1141496062992126
 20
1.871606299212599
 30
0.0
 10
-0.1150118110236221
 20
1.871385826771654
 30
0.0
 10
-0.1158149606299213
 20
1.871275590551181
 30
0.0
 10
-0.1165944881889764
 20
1.871275590551181
 30
0.0
 10
-0.1165944881889764
 20
1.871275590551181
 30
0.0
 10
-0.1192047244094488
 20
1.871275590551181
 30
0.0
 10
-0.1212874015748032
 20
1.872106299212599
 30
0.0
 10
-0.1228425196850394
 20
1.873803149606299
 30
0.0
 10
-0.1228425196850394
 20
1.873803149606299
 30
0.0
 10
-0.1244291338582677
 20
1.875468503937008
 30
0.0
 10
-0.1252047244094488
 20
1.877606299212599
 30
0.0
 10
-0.1252047244094488
 20
1.880220472440945
 30
0.0
 10
-0.1252047244094488
 20
1.880220472440945
 30
0.0
 10
-0.1252047244094488
 20
1.882775590551181
 30
0.0
 10
-0.124259842519685
 20
1.884996062992126
 30
0.0
 10
-0.1223700787401575
 20
1.886885826771654
 30
0.0
 10
-0.1223700787401575
 20
1.886885826771654
 30
0.0
 10
-0.1204566929133858
 20
1.888803149606299
 30
0.0
 10
-0.1181771653543307
 20
1.889748031496063
 30
0.0
 10
-0.1155393700787402
 20
1.889748031496063
 30
0.0
 10
-0.1155393700787402
 20
1.889748031496063
 30
0.0
 10
-0.1118425196850394
 20
1.889748031496063
 30
0.0
 10
-0.1086771653543307
 20
1.888275590551181
 30
0.0
 10
-0.1060393700787402
 20
1.885303149606299
 30
0.0
 10
-0.1060393700787402
 20
1.885303149606299
 30
0.0
 10
-0.1034291338582677
 20
1.882358267716536
 30
0.0
 10
-0.1020944881889764
 20
1.878551181102362
 30
0.0
 10
-0.1020944881889764
 20
1.873885826771654
 30
0.0
 10
-0.1020944881889764
 20
1.873885826771654
 30
0.0
 10
-0.1020944881889764
 20
1.870830708661417
 30
0.0
 10
-0.1027322834645669
 20
1.867633858267717
 30
0.0
 10
-0.1039842519685039
 20
1.864303149606299
 30
0.0
 10
-0.1039842519685039
 20
1.864303149606299
 30
0.0
 10
-0.1052322834645669
 20
1.860968503937008
 30
0.0
 10
-0.1070393700787402
 20
1.857885826771654
 30
0.0
 10
-0.1094291338582677
 20
1.855023622047244
 30
0.0
 10
-0.1094291338582677
 20
1.855023622047244
 30
0.0
 10
-0.1118149606299213
 20
1.852192913385827
 30
0.0
 10
-0.1165393700787402
 20
1.847775590551181
 30
0.0
 10
-0.1235944881889764
 20
1.841803149606299
 30
0.0
  0
SPLINE
  5
65
330
1F
100
AcDbEntity
  8
LAYER_1
 62
   250
100
AcDbSpline
210
0.0
220
0.0
230
1.0
 70
    11
 71
     3
 72
    60
 73
    56
 74
     0
 42
0.0000000001
 43
0.0000000001
 40
0.0
 40
0.0
 40
0.0
 40
0.0
 40
0.0714285714285714
 40
0.0714285714285714
 40
0.0714285714285714
 40
0.0714285714285714
 40
0.1428571428571429
 40
0.1428571428571429
 40
0.1428571428571429
 40
0.1428571428571429
 40
0.2142857142857143
 40
0.2142857142857143
 40
0.2142857142857143
 40
0.2142857142857143
 40
0.2857142857142857
 40
0.2857142857142857
 40
0.2857142857142857
 40
0.2857142857142857
 40
0.3571428571428571
 40
0.3571428571428571
 40
0.3571428571428571
 40
0.3571428571428571
 40
0.4285714285714285
 40
0.4285714285714285
 40
0.4285714285714285
 40
0.4285714285714285
 40
0.4999999999999999
 40
0.4999999999999999
 40
0.4999999999999999
 40
0.4999999999999999
 40
0.5714285714285713
 40
0.5714285714285713
 40
0.5714285714285713
 40
0.5714285714285713
 40
0.6428571428571427
 40
0.6428571428571427
 40
0.6428571428571427
 40
0.6428571428571427
 40
0.7142857142857141
 40
0.7142857142857141
 40
0.7142857142857141
 40
0.7142857142857141
 40
0.7857142857142855
 40
0.7857142857142855
 40
0.7857142857142855
 40
0.7857142857142855
 40
0.8571428571428569
 40
0.8571428571428569
 40
0.8571428571428569
 40
0.8571428571428569
 40
0.9285714285714283
 40
0.9285714285714283
 40
0.9285714285714283
 40
0.9285714285714283
 40
1.0
 40
1.0
 40
1.0
 40
1.0
 10
-0.0945393700787402
 20
1.841803149606299
 30
0.0
 10
-0.0945393700787402
 20
1.841803149606299
 30
0.0
 10
-0.0989291338582677
 20
1.847192913385827
 30
0.0
 10
-0.0989291338582677
 20
1.847192913385827
 30
0.0
 10
-0.0989291338582677
 20
1.847192913385827
 30
0.0
 10
-0.0878149606299213
 20
1.856248031496063
 30
0.0
 10
-0.0822322834645669
 20
1.863803149606299
 30
0.0
 10
-0.0822322834645669
 20
1.869885826771654
 30
0.0
 10
-0.0822322834645669
 20
1.869885826771654
 30
0.0
 10
-0.0822322834645669
 20
1.870578740157481
 30
0.0
 10
-0.0822874015748032
 20
1.871468503937008
 30
0.0
 10
-0.0824015748031496
 20
1.872496062992126
 30
0.0
 10
-0.0824015748031496
 20
1.872496062992126
 30
0.0
 10
-0.0833149606299213
 20
1.872106299212599
 30
0.0
 10
-0.0842322834645669
 20
1.871803149606299
 30
0.0
 10
-0.0850944881889764
 20
1.871606299212599
 30
0.0
 10
-0.0850944881889764
 20
1.871606299212599
 30
0.0
 10
-0.0859566929133858
 20
1.871385826771654
 30
0.0
 10
-0.0867874015748032
 20
1.871275590551181
 30
0.0
 10
-0.0876220472440945
 20
1.871275590551181
 30
0.0
 10
-0.0876220472440945
 20
1.871275590551181
 30
0.0
 10
-0.0901771653543307
 20
1.871275590551181
 30
0.0
 10
-0.0922322834645669
 20
1.872106299212599
 30
0.0
 10
-0.0937874015748032
 20
1.873803149606299
 30
0.0
 10
-0.0937874015748032
 20
1.873803149606299
 30
0.0
 10
-0.0953700787401575
 20
1.875468503937008
 30
0.0
 10
-0.0961496062992126
 20
1.877606299212599
 30
0.0
 10
-0.0961496062992126
 20
1.880220472440945
 30
0.0
 10
-0.0961496062992126
 20
1.880220472440945
 30
0.0
 10
-0.0961496062992126
 20
1.882775590551181
 30
0.0
 10
-0.0952047244094488
 20
1.884996062992126
 30
0.0
 10
-0.0933149606299213
 20
1.886885826771654
 30
0.0
 10
-0.0933149606299213
 20
1.886885826771654
 30
0.0
 10
-0.0914291338582677
 20
1.888803149606299
 30
0.0
 10
-0.0891220472440945
 20
1.889748031496063
 30
0.0
 10
-0.0864842519685039
 20
1.889748031496063
 30
0.0
 10
-0.0864842519685039
 20
1.889748031496063
 30
0.0
 10
-0.0827874015748031
 20
1.889748031496063
 30
0.0
 10
-0.0796220472440945
 20
1.888275590551181
 30
0.0
 10
-0.0769842519685039
 20
1.885303149606299
 30
0.0
 10
-0.0769842519685039
 20
1.885303149606299
 30
0.0
 10
-0.0743740157480315
 20
1.882358267716536
 30
0.0
 10
-0.0730393700787402
 20
1.878551181102362
 30
0.0
 10
-0.0730393700787402
 20
1.873885826771654
 30
0.0
 10
-0.0730393700787402
 20
1.873885826771654
 30
0.0
 10
-0.0730393700787402
 20
1.870830708661417
 30
0.0
 10
-0.0736771653543307
 20
1.867633858267717
 30
0.0
 10
-0.0749291338582677
 20
1.864303149606299
 30
0.0
 10
-0.0749291338582677
 20
1.864303149606299
 30
0.0
 10
-0.0761771653543307
 20
1.860968503937008
 30
0.0
 10
-0.0779842519685039
 20
1.857885826771654
 30
0.0
 10
-0.0803700787401575
 20
1.855023622047244
 30
0.0
 10
-0.0803700787401575
 20
1.855023622047244
 30
0.0
 10
-0.082759842519685
 20
1.852192913385827
 30
0.0
 10
-0.0874842519685039
 20
1.847775590551181
 30
0.0
 10
-0.0945393700787402
 20
1.841803149606299
 30
0.0
  0
SPLINE
  5
66
330
1F
100
AcDbEntity
  8
LAYER_1
 62
   250
100
AcDbSpline
210
0.0
220
0.0
230
1.0
 70
    11
 71
     3
 72
   204
 73
   200
 74
     0
 42
0.0000000001
 43
0.0000000001
 40
0.0
 40
0.0
 40
0.0
 40
0.0
 40
0.02
 40
0.02
 40
0.02
 40
0.02
 40
0.04
 40
0.04
 40
0.04
 40
0.04
 40
0.06
 40
0.06
 40
0.06
 40
0.06
 40
0.08
 40
0.08
 40
0.08
 40
0.08
 40
0.1
 40
0.1
 40
0.1
 40
0.1
 40
0.12
 40
0.12
 40
0.12
 40
0.12
 40
0.14
 40
0.14
 40
0.14
 40
0.14
 40
0.16
 40
0.16
 40
0.16
 40
0.16
 40
0.18
 40
0.18
 40
0.18
 40
0.18
 40
0.2
 40
0.2
 40
0.2
 40
0.2
 40
0.22
 40
0.22
 40
0.22
 40
0.22
 40
0.24
 40
0.24
 40
0.24
 40
0.24
 40
0.26
 40
0.26
 40
0.26
 40
0.26
 40
0.28
 40
0.28
 40
0.28
 40
0.28
 40
0.3
 40
0.3
 40
0.3
 40
0.3
 40
0.32
 40
0.32
 40
0.32
 40
0.32
 40
0.34
 40
0.34
 40
0.34
 40
0.34
 40
0.36
 40
0.36
 40
0.36
 40
0.36
 40
0.3800000000000001
 40
0.3800000000000001
 40
0.3800000000000001
 40
0.3800000000000001
 40
0.4000000000000001
 40
0.4000000000000001
 40
0.4000000000000001
 40
0.4000000000000001
 40
0.4200000000000001
 40
0.4200000000000001
 40
0.4200000000000001
 40
0.4200000000000001
 40
0.4400000000000001
 40
0.4400000000000001
 40
0.4400000000000001
 40
0.4400000000000001
 40
0.4600000000000001
 40
0.4600000000000001
 40
0.4600000000000001
 40
0.4600000000000001
 40
0.4800000000000002
 40
0.4800000000000002
 40
0.4800000000000002
 40
0.4800000000000002
 40
0.5000000000000001
 40
0.5000000000000001
 40
0.5000000000000001
 40
0.5000000000000001
 40
0.5200000000000001
 40
0.5200000000000001
 40
0.5200000000000001
 40
0.5200000000000001
 40
0.5400000000000002
 40
0.5400000000000002
 40
0.5400000000000002
 40
0.5400000000000002
 40
0.5600000000000002
 40
0.5600000000000002
 40
0.5600000000000002
 40
0.5600000000000002
 40
0.5800000000000002
 40
0.5800000000000002
 40
0.5800000000000002
 40
0.5800000000000002
 40
0.6000000000000002
 40
0.6000000000000002
 40
0.6000000000000002
 40
0.6000000000000002
 40
0.6200000000000002
 40
0.6200000000000002
 40
0.6200000000000002
 40
0.6200000000000002
 40
0.6400000000000002
 40
0.6400000000000002
 40
0.6400000000000002
 40
0.6400000000000002
 40
0.6600000000000003
 40
0.6600000000000003
 40
0.6600000000000003
 40
0.6600000000000003
 40
0.6800000000000003
 40
0.6800000000000003
 40
0.6800000000000003
 40
0.6800000000000003
 40
0.7000000000000003
 40
0.7000000000000003
 40
0.7000000000000003
 40
0.7000000000000003
 40
0.7200000000000003
 40
0.7200000000000003
 40
0.7200000000000003
 40
0.7200000000000003
 40
0.7400000000000003
 40
0.7400000000000003
 40
0.7400000000000003
 40
0.7400000000000003
 40
0.7600000000000003
 40
0.7600000000000003
 40
0.7600000000000003
 40
0.7600000000000003
 40
0.7800000000000004
 40
0.7800000000000004
 40
0.7800000000000004
 40
0.7800000000000004
 40
0.8000000000000004
 40
0.8000000000000004
 40
0.8000000000000004
 40
0.8000000000000004
 40
0.8200000000000004
 40
0.8200000000000004
 40
0.8200000000000004
 40
0.8200000000000004
 40
0.8400000000000004
 40
0.8400000000000004
 40
0.8400000000000004
 40
0.8400000000000004
 40
0.8600000000000004
 40
0.8600000000000004
 40
0.8600000000000004
 40
0.8600000000000004
 40
0.8800000000000005
 40
0.8800000000000005
 40
0.8800000000000005
 40
0.8800000000000005
 40
0.9000000000000005
 40
0.9000000000000005
 40
0.9000000000000005
 40
0.9000000000000005
 40
0.9200000000000005
 40
0.9200000000000005
 40
0.9200000000000005
 40
0.9200000000000005
 40
0.9400000000000005
 40
0.9400000000000005
 40
0.9400000000000005
 40
0.9400000000000005
 40
0.9600000000000005
 40
0.9600000000000005
 40
0.9600000000000005
 40
0.9600000000000005
 40
0.9800000000000005
 40
0.9800000000000005
 40
0.9800000000000005
 40
0.9800000000000005
 40
1.0
 40
1.0
 40
1.0
 40
1.0
 10
-0.0107322834645669
 20
1.848885826771654
 30
0.0
 10
-0.0107322834645669
 20
1.848885826771654
 30
0.0
 10
0.0302125984251969
 20
1.848885826771654
 30
0.0
 10
0.0302125984251969
 20
1.848885826771654
 30
0.0
 10
0.0302125984251969
 20
1.848885826771654
 30
0.0
 10
0.0302125984251969
 20
1.848885826771654
 30
0.0
 10
0.0302125984251969
 20
1.842051181102362
 30
0.0
 10
0.0302125984251969
 20
1.842051181102362
 30
0.0
 10
0.0302125984251969
 20
1.842051181102362
 30
0.0
 10
0.0302125984251969
 20
1.842051181102362
 30
0.0
 10
0.0273779527559055
 20
1.842051181102362
 30
0.0
 10
0.0273779527559055
 20
1.842051181102362
 30
0.0
 10
0.0273779527559055
 20
1.842051181102362
 30
0.0
 10
0.025740157480315
 20
1.842051181102362
 30
0.0
 10
0.024240157480315
 20
1.841858267716536
 30
0.0
 10
0.0228779527559055
 20
1.841496062992126
 30
0.0
 10
0.0228779527559055
 20
1.841496062992126
 30
0.0
 10
0.0220748031496063
 20
1.841275590551181
 30
0.0
 10
0.0214055118110236
 20
1.840858267716536
 30
0.0
 10
0.0209055118110236
 20
1.840220472440945
 30
0.0
 10
0.0209055118110236
 20
1.840220472440945
 30
0.0
 10
0.0203779527559055
 20
1.839606299212599
 30
0.0
 10
0.0201299212598425
 20
1.839023622047244
 30
0.0
 10
0.0201299212598425
 20
1.838468503937008
 30
0.0
 10
0.0201299212598425
 20
1.838468503937008
 30
0.0
 10
0.0201299212598425
 20
1.837220472440945
 30
0.0
 10
0.0211574803149606
 20
1.835358267716535
 30
0.0
 10
0.0232125984251969
 20
1.832858267716536
 30
0.0
 10
0.0232125984251969
 20
1.832858267716536
 30
0.0
 10
0.0232125984251969
 20
1.832858267716536
 30
0.0
 10
0.0348503937007874
 20
1.818220472440945
 30
0.0
 10
0.0348503937007874
 20
1.818220472440945
 30
0.0
 10
0.0348503937007874
 20
1.818220472440945
 30
0.0
 10
0.0348503937007874
 20
1.818220472440945
 30
0.0
 10
0.0484330708661417
 20
1.832858267716536
 30
0.0
 10
0.0484330708661417
 20
1.832858267716536
 30
0.0
 10
0.0484330708661417
 20
1.832858267716536
 30
0.0
 10
0.0509330708661417
 20
1.83557874015748
 30
0.0
 10
0.0521850393700787
 20
1.837606299212599
 30
0.0
 10
0.0521850393700787
 20
1.838968503937008
 30
0.0
 10
0.0521850393700787
 20
1.838968503937008
 30
0.0
 10
0.0521850393700787
 20
1.83994094488189
 30
0.0
 10
0.051740157480315
 20
1.840692913385827
 30
0.0
 10
0.0508779527559055
 20
1.841248031496063
 30
0.0
 10
0.0508779527559055
 20
1.841248031496063
 30
0.0
 10
0.0500157480314961
 20
1.841775590551181
 30
0.0
 10
0.0481574803149606
 20
1.842051181102362
 30
0.0
 10
0.0452677165354331
 20
1.842051181102362
 30
0.0
 10
0.0452677165354331
 20
1.842051181102362
 30
0.0
 10
0.0452677165354331
 20
1.842051181102362
 30
0.0
 10
0.0421850393700787
 20
1.842051181102362
 30
0.0
 10
0.0421850393700787
 20
1.842051181102362
 30
0.0
 10
0.0421850393700787
 20
1.842051181102362
 30
0.0
 10
0.0421850393700787
 20
1.842051181102362
 30
0.0
 10
0.0421850393700787
 20
1.848885826771654
 30
0.0
 10
0.0421850393700787
 20
1.848885826771654
 30
0.0
 10
0.0421850393700787
 20
1.848885826771654
 30
0.0
 10
0.0421850393700787
 20
1.848885826771654
 30
0.0
 10
0.0769330708661417
 20
1.848885826771654
 30
0.0
 10
0.0769330708661417
 20
1.848885826771654
 30
0.0
 10
0.0769330708661417
 20
1.848885826771654
 30
0.0
 10
0.0769330708661417
 20
1.848885826771654
 30
0.0
 10
0.0769330708661417
 20
1.842051181102362
 30
0.0
 10
0.0769330708661417
 20
1.842051181102362
 30
0.0
 10
0.0769330708661417
 20
1.842051181102362
 30
0.0
 10
0.0735157480314961
 20
1.841885826771654
 30
0.0
 10
0.0705708661417323
 20
1.841192913385827
 30
0.0
 10
0.0681023622047244
 20
1.83994094488189
 30
0.0
 10
0.0681023622047244
 20
1.83994094488189
 30
0.0
 10
0.0656299212598425
 20
1.838692913385827
 30
0.0
 10
0.0627125984251969
 20
1.836330708661417
 30
0.0
 10
0.0593503937007874
 20
1.832858267716536
 30
0.0
 10
0.0593503937007874
 20
1.832858267716536
 30
0.0
 10
0.0593503937007874
 20
1.832858267716536
 30
0.0
 10
0.0407125984251969
 20
1.813496062992126
 30
0.0
 10
0.0407125984251969
 20
1.813496062992126
 30
0.0
 10
0.0407125984251969
 20
1.813496062992126
 30
0.0
 10
0.0407125984251969
 20
1.813496062992126
 30
0.0
 10
0.0639055118110236
 20
1.787051181102362
 30
0.0
 10
0.0639055118110236
 20
1.787051181102362
 30
0.0
 10
0.0639055118110236
 20
1.787051181102362
 30
0.0
 10
0.0639055118110236
 20
1.787051181102362
 30
0.0
 10
0.0647952755905512
 20
1.785913385826772
 30
0.0
 10
0.0647952755905512
 20
1.785913385826772
 30
0.0
 10
0.0647952755905512
 20
1.785913385826772
 30
0.0
 10
0.0670708661417323
 20
1.782968503937008
 30
0.0
 10
0.0696299212598425
 20
1.780606299212598
 30
0.0
 10
0.0724606299212598
 20
1.778830708661418
 30
0.0
 10
0.0724606299212598
 20
1.778830708661418
 30
0.0
 10
0.0740157480314961
 20
1.777803149606299
 30
0.0
 10
0.0764606299212598
 20
1.777248031496063
 30
0.0
 10
0.0797677165354331
 20
1.777192913385827
 30
0.0
 10
0.0797677165354331
 20
1.777192913385827
 30
0.0
 10
0.0797677165354331
 20
1.777192913385827
 30
0.0
 10
0.0797677165354331
 20
1.770358267716536
 30
0.0
 10
0.0797677165354331
 20
1.770358267716536
 30
0.0
 10
0.0797677165354331
 20
1.770358267716536
 30
0.0
 10
0.0797677165354331
 20
1.770358267716536
 30
0.0
 10
0.0398228346456693
 20
1.770358267716536
 30
0.0
 10
0.0398228346456693
 20
1.770358267716536
 30
0.0
 10
0.0398228346456693
 20
1.770358267716536
 30
0.0
 10
0.0398228346456693
 20
1.770358267716536
 30
0.0
 10
0.0398228346456693
 20
1.777192913385827
 30
0.0
 10
0.0398228346456693
 20
1.777192913385827
 30
0.0
 10
0.0398228346456693
 20
1.777192913385827
 30
0.0
 10
0.0398228346456693
 20
1.777192913385827
 30
0.0
 10
0.043240157480315
 20
1.777192913385827
 30
0.0
 10
0.043240157480315
 20
1.777192913385827
 30
0.0
 10
0.043240157480315
 20
1.777192913385827
 30
0.0
 10
0.0458503937007874
 20
1.777192913385827
 30
0.0
 10
0.047488188976378
 20
1.777358267716536
 30
0.0
 10
0.0482125984251969
 20
1.777692913385827
 30
0.0
 10
0.0482125984251969
 20
1.777692913385827
 30
0.0
 10
0.0493779527559055
 20
1.778220472440945
 30
0.0
 10
0.049988188976378
 20
1.779137795275591
 30
0.0
 10
0.049988188976378
 20
1.78044094488189
 30
0.0
 10
0.049988188976378
 20
1.78044094488189
 30
0.0
 10
0.049988188976378
 20
1.781637795275591
 30
0.0
 10
0.0486850393700787
 20
1.783830708661417
 30
0.0
 10
0.0460708661417323
 20
1.787051181102362
 30
0.0
 10
0.0460708661417323
 20
1.787051181102362
 30
0.0
 10
0.0460708661417323
 20
1.787051181102362
 30
0.0
 10
0.0312677165354331
 20
1.805192913385827
 30
0.0
 10
0.0312677165354331
 20
1.805192913385827
 30
0.0
 10
0.0312677165354331
 20
1.805192913385827
 30
0.0
 10
0.0312677165354331
 20
1.805192913385827
 30
0.0
 10
0.014740157480315
 20
1.787051181102362
 30
0.0
 10
0.014740157480315
 20
1.787051181102362
 30
0.0
 10
0.014740157480315
 20
1.787051181102362
 30
0.0
 10
0.014740157480315
 20
1.787051181102362
 30
0.0
 10
0.0131299212598425
 20
1.78507874015748
 30
0.0
 10
0.0131299212598425
 20
1.78507874015748
 30
0.0
 10
0.0131299212598425
 20
1.78507874015748
 30
0.0
 10
0.0131299212598425
 20
1.78507874015748
 30
0.0
 10
0.012240157480315
 20
1.784106299212598
 30
0.0
 10
0.012240157480315
 20
1.784106299212598
 30
0.0
 10
0.012240157480315
 20
1.784106299212598
 30
0.0
 10
0.0108779527559055
 20
1.782637795275591
 30
0.0
 10
0.0101850393700787
 20
1.781358267716536
 30
0.0
 10
0.0101850393700787
 20
1.780220472440945
 30
0.0
 10
0.0101850393700787
 20
1.780220472440945
 30
0.0
 10
0.0101850393700787
 20
1.779165354330709
 30
0.0
 10
0.0106023622047244
 20
1.778413385826772
 30
0.0
 10
0.0114606299212598
 20
1.777913385826772
 30
0.0
 10
0.0114606299212598
 20
1.777913385826772
 30
0.0
 10
0.0122952755905512
 20
1.77744094488189
 30
0.0
 10
0.0141850393700787
 20
1.777192913385827
 30
0.0
 10
0.0171023622047244
 20
1.777192913385827
 30
0.0
 10
0.0171023622047244
 20
1.777192913385827
 30
0.0
 10
0.0171023622047244
 20
1.777192913385827
 30
0.0
 10
0.0203779527559055
 20
1.777192913385827
 30
0.0
 10
0.0203779527559055
 20
1.777192913385827
 30
0.0
 10
0.0203779527559055
 20
1.777192913385827
 30
0.0
 10
0.0203779527559055
 20
1.777192913385827
 30
0.0
 10
0.0203779527559055
 20
1.770358267716536
 30
0.0
 10
0.0203779527559055
 20
1.770358267716536
 30
0.0
 10
0.0203779527559055
 20
1.770358267716536
 30
0.0
 10
0.0203779527559055
 20
1.770358267716536
 30
0.0
 10
-0.0138976377952756
 20
1.770358267716536
 30
0.0
 10
-0.0138976377952756
 20
1.770358267716536
 30
0.0
 10
-0.0138976377952756
 20
1.770358267716536
 30
0.0
 10
-0.0138976377952756
 20
1.770358267716536
 30
0.0
 10
-0.0138976377952756
 20
1.777192913385827
 30
0.0
 10
-0.0138976377952756
 20
1.777192913385827
 30
0.0
 10
-0.0138976377952756
 20
1.777192913385827
 30
0.0
 10
-0.0112322834645669
 20
1.777248031496063
 30
0.0
 10
-0.0091496062992126
 20
1.777523622047244
 30
0.0
 10
-0.0076220472440945
 20
1.778051181102362
 30
0.0
 10
-0.0076220472440945
 20
1.778051181102362
 30
0.0
 10
-0.0061220472440945
 20
1.778551181102362
 30
0.0
 10
-0.0046496062992126
 20
1.779358267716536
 30
0.0
 10
-0.0032322834645669
 20
1.78044094488189
 30
0.0
 10
-0.0032322834645669
 20
1.78044094488189
 30
0.0
 10
-0.0007874015748031
 20
1.782413385826772
 30
0.0
 10
0.0009606299212598
 20
1.78394094488189
 30
0.0
 10
0.0020472440944882
 20
1.78507874015748
 30
0.0
 10
0.0020472440944882
 20
1.78507874015748
 30
0.0
 10
0.0020472440944882
 20
1.78507874015748
 30
0.0
 10
0.0259055118110236
 20
1.80957874015748
 30
0.0
 10
0.0259055118110236
 20
1.80957874015748
 30
0.0
 10
0.0259055118110236
 20
1.80957874015748
 30
0.0
 10
0.0259055118110236
 20
1.80957874015748
 30
0.0
 10
0.0056299212598425
 20
1.832858267716536
 30
0.0
 10
0.0056299212598425
 20
1.832858267716536
 30
0.0
 10
0.0056299212598425
 20
1.832858267716536
 30
0.0
 10
0.0030748031496063
 20
1.835748031496063
 30
0.0
 10
0.0010748031496063
 20
1.837748031496063
 30
0.0
 10
-0.0004251968503937
 20
1.838913385826772
 30
0.0
 10
-0.0004251968503937
 20
1.838913385826772
 30
0.0
 10
-0.0019251968503937
 20
1.84007874015748
 30
0.0
 10
-0.0033700787401575
 20
1.840913385826772
 30
0.0
 10
-0.0047874015748031
 20
1.841358267716535
 30
0.0
 10
-0.0047874015748031
 20
1.841358267716535
 30
0.0
 10
-0.0062047244094488
 20
1.841830708661417
 30
0.0
 10
-0.0081771653543307
 20
1.842051181102362
 30
0.0
 10
-0.0107322834645669
 20
1.842051181102362
 30
0.0
 10
-0.0107322834645669
 20
1.842051181102362
 30
0.0
 10
-0.0107322834645669
 20
1.842051181102362
 30
0.0
 10
-0.0107322834645669
 20
1.848885826771654
 30
0.0
 10
-0.0107322834645669
 20
1.848885826771654
 30
0.0
  0
SPLINE
  5
67
330
1F
100
AcDbEntity
  8
LAYER_1
 62
   250
100
AcDbSpline
210
0.0
220
0.0
230
1.0
 70
    11
 71
     3
 72
    72
 73
    68
 74
     0
 42
0.0000000001
 43
0.0000000001
 40
0.0
 40
0.0
 40
0.0
 40
0.0
 40
0.0588235294117647
 40
0.0588235294117647
 40
0.0588235294117647
 40
0.0588235294117647
 40
0.1176470588235294
 40
0.1176470588235294
 40
0.1176470588235294
 40
0.1176470588235294
 40
0.1764705882352941
 40
0.1764705882352941
 40
0.1764705882352941
 40
0.1764705882352941
 40
0.2352941176470588
 40
0.2352941176470588
 40
0.2352941176470588
 40
0.2352941176470588
 40
0.2941176470588235
 40
0.2941176470588235
 40
0.2941176470588235
 40
0.2941176470588235
 40
0.3529411764705883
 40
0.3529411764705883
 40
0.3529411764705883
 40
0.3529411764705883
 40
0.411764705882353
 40
0.411764705882353
 40
0.411764705882353
 40
0.411764705882353
 40
0.4705882352941177
 40
0.4705882352941177
 40
0.4705882352941177
 40
0.4705882352941177
 40
0.5294117647058824
 40
0.5294117647058824
 40
0.5294117647058824
 40
0.5294117647058824
 40
0.5882352941176471
 40
0.5882352941176471
 40
0.5882352941176471
 40
0.5882352941176471
 40
0.6470588235294118
 40
0.6470588235294118
 40
0.6470588235294118
 40
0.6470588235294118
 40
0.7058823529411765
 40
0.7058823529411765
 40
0.7058823529411765
 40
0.7058823529411765
 40
0.7647058823529412
 40
0.7647058823529412
 40
0.7647058823529412
 40
0.7647058823529412
 40
0.823529411764706
 40
0.823529411764706
 40
0.823529411764706
 40
0.823529411764706
 40
0.8823529411764707
 40
0.8823529411764707
 40
0.8823529411764707
 40
0.8823529411764707
 40
0.9411764705882354
 40
0.9411764705882354
 40
0.9411764705882354
 40
0.9411764705882354
 40
1.0
 40
1.0
 40
1.0
 40
1.0
 10
0.1889055118110236
 20
1.883885826771654
 30
0.0
 10
0.1889055118110236
 20
1.883885826771654
 30
0.0
 10
0.194988188976378
 20
1.883885826771654
 30
0.0
 10
0.194988188976378
 20
1.883885826771654
 30
0.0
 10
0.194988188976378
 20
1.883885826771654
 30
0.0
 10
0.194988188976378
 20
1.883885826771654
 30
0.0
 10
0.194988188976378
 20
1.789637795275591
 30
0.0
 10
0.194988188976378
 20
1.789637795275591
 30
0.0
 10
0.194988188976378
 20
1.789637795275591
 30
0.0
 10
0.194988188976378
 20
1.785192913385827
 30
0.0
 10
0.1952952755905512
 20
1.782330708661417
 30
0.0
 10
0.1958503937007874
 20
1.781051181102362
 30
0.0
 10
0.1958503937007874
 20
1.781051181102362
 30
0.0
 10
0.1964330708661417
 20
1.779775590551181
 30
0.0
 10
0.1973503937007874
 20
1.778830708661418
 30
0.0
 10
0.1986535433070866
 20
1.778165354330709
 30
0.0
 10
0.1986535433070866
 20
1.778165354330709
 30
0.0
 10
0.1999606299212599
 20
1.777523622047244
 30
0.0
 10
0.2025433070866142
 20
1.777192913385827
 30
0.0
 10
0.2064055118110236
 20
1.777192913385827
 30
0.0
 10
0.2064055118110236
 20
1.777192913385827
 30
0.0
 10
0.2064055118110236
 20
1.777192913385827
 30
0.0
 10
0.2143779527559055
 20
1.777192913385827
 30
0.0
 10
0.2143779527559055
 20
1.777192913385827
 30
0.0
 10
0.2143779527559055
 20
1.777192913385827
 30
0.0
 10
0.2143779527559055
 20
1.777192913385827
 30
0.0
 10
0.2143779527559055
 20
1.770358267716536
 30
0.0
 10
0.2143779527559055
 20
1.770358267716536
 30
0.0
 10
0.2143779527559055
 20
1.770358267716536
 30
0.0
 10
0.2143779527559055
 20
1.770358267716536
 30
0.0
 10
0.160740157480315
 20
1.770358267716536
 30
0.0
 10
0.160740157480315
 20
1.770358267716536
 30
0.0
 10
0.160740157480315
 20
1.770358267716536
 30
0.0
 10
0.160740157480315
 20
1.770358267716536
 30
0.0
 10
0.160740157480315
 20
1.777192913385827
 30
0.0
 10
0.160740157480315
 20
1.777192913385827
 30
0.0
 10
0.160740157480315
 20
1.777192913385827
 30
0.0
 10
0.160740157480315
 20
1.777192913385827
 30
0.0
 10
0.1695984251968504
 20
1.777192913385827
 30
0.0
 10
0.1695984251968504
 20
1.777192913385827
 30
0.0
 10
0.1695984251968504
 20
1.777192913385827
 30
0.0
 10
0.1734606299212599
 20
1.777192913385827
 30
0.0
 10
0.1760157480314961
 20
1.777523622047244
 30
0.0
 10
0.1772952755905512
 20
1.778220472440945
 30
0.0
 10
0.1772952755905512
 20
1.778220472440945
 30
0.0
 10
0.1785708661417323
 20
1.778885826771654
 30
0.0
 10
0.1795708661417323
 20
1.779968503937008
 30
0.0
 10
0.1802677165354331
 20
1.781468503937008
 30
0.0
 10
0.1802677165354331
 20
1.781468503937008
 30
0.0
 10
0.1809606299212599
 20
1.782968503937008
 30
0.0
 10
0.1813228346456693
 20
1.785692913385827
 30
0.0
 10
0.1813228346456693
 20
1.789637795275591
 30
0.0
 10
0.1813228346456693
 20
1.789637795275591
 30
0.0
 10
0.1813228346456693
 20
1.789637795275591
 30
0.0
 10
0.1813228346456693
 20
1.867106299212598
 30
0.0
 10
0.1813228346456693
 20
1.867106299212598
 30
0.0
 10
0.1813228346456693
 20
1.867106299212598
 30
0.0
 10
0.1813228346456693
 20
1.867106299212598
 30
0.0
 10
0.160740157480315
 20
1.867106299212598
 30
0.0
 10
0.160740157480315
 20
1.867106299212598
 30
0.0
 10
0.160740157480315
 20
1.867106299212598
 30
0.0
 10
0.160740157480315
 20
1.867106299212598
 30
0.0
 10
0.160740157480315
 20
1.874106299212599
 30
0.0
 10
0.160740157480315
 20
1.874106299212599
 30
0.0
 10
0.160740157480315
 20
1.874106299212599
 30
0.0
 10
0.1719606299212599
 20
1.875688976377953
 30
0.0
 10
0.1813503937007874
 20
1.87894094488189
 30
0.0
 10
0.1889055118110236
 20
1.883885826771654
 30
0.0
  0
SPLINE
  5
68
330
1F
100
AcDbEntity
  8
LAYER_1
 62
   250
100
AcDbSpline
210
0.0
220
0.0
230
1.0
 70
    11
 71
     3
 72
    20
 73
    16
 74
     0
 42
0.0000000001
 43
0.0000000001
 40
0.0
 40
0.0
 40
0.0
 40
0.0
 40
0.25
 40
0.25
 40
0.25
 40
0.25
 40
0.5
 40
0.5
 40
0.5
 40
0.5
 40
0.75
 40
0.75
 40
0.75
 40
0.75
 40
1.0
 40
1.0
 40
1.0
 40
1.0
 10
0.2453779527559055
 20
1.816830708661418
 30
0.0
 10
0.2453779527559055
 20
1.816830708661418
 30
0.0
 10
0.2937125984251969
 20
1.816830708661418
 30
0.0
 10
0.2937125984251969
 20
1.816830708661418
 30
0.0
 10
0.2937125984251969
 20
1.816830708661418
 30
0.0
 10
0.2937125984251969
 20
1.816830708661418
 30
0.0
 10
0.2937125984251969
 20
1.806748031496063
 30
0.0
 10
0.2937125984251969
 20
1.806748031496063
 30
0.0
 10
0.2937125984251969
 20
1.806748031496063
 30
0.0
 10
0.2937125984251969
 20
1.806748031496063
 30
0.0
 10
0.2453779527559055
 20
1.806748031496063
 30
0.0
 10
0.2453779527559055
 20
1.806748031496063
 30
0.0
 10
0.2453779527559055
 20
1.806748031496063
 30
0.0
 10
0.2453779527559055
 20
1.806748031496063
 30
0.0
 10
0.2453779527559055
 20
1.816830708661418
 30
0.0
 10
0.2453779527559055
 20
1.816830708661418
 30
0.0
  0
SPLINE
  5
69
330
1F
100
AcDbEntity
  8
LAYER_1
 62
   250
100
AcDbSpline
210
0.0
220
0.0
230
1.0
 70
    11
 71
     3
 72
   172
 73
   168
 74
     0
 42
0.0000000001
 43
0.0000000001
 40
0.0
 40
0.0
 40
0.0
 40
0.0
 40
0.0238095238095238
 40
0.0238095238095238
 40
0.0238095238095238
 40
0.0238095238095238
 40
0.0476190476190476
 40
0.0476190476190476
 40
0.0476190476190476
 40
0.0476190476190476
 40
0.0714285714285714
 40
0.0714285714285714
 40
0.0714285714285714
 40
0.0714285714285714
 40
0.0952380952380952
 40
0.0952380952380952
 40
0.0952380952380952
 40
0.0952380952380952
 40
0.119047619047619
 40
0.119047619047619
 40
0.119047619047619
 40
0.119047619047619
 40
0.1428571428571429
 40
0.1428571428571429
 40
0.1428571428571429
 40
0.1428571428571429
 40
0.1666666666666667
 40
0.1666666666666667
 40
0.1666666666666667
 40
0.1666666666666667
 40
0.1904761904761905
 40
0.1904761904761905
 40
0.1904761904761905
 40
0.1904761904761905
 40
0.2142857142857143
 40
0.2142857142857143
 40
0.2142857142857143
 40
0.2142857142857143
 40
0.2380952380952381
 40
0.2380952380952381
 40
0.2380952380952381
 40
0.2380952380952381
 40
0.2619047619047619
 40
0.2619047619047619
 40
0.2619047619047619
 40
0.2619047619047619
 40
0.2857142857142857
 40
0.2857142857142857
 40
0.2857142857142857
 40
0.2857142857142857
 40
0.3095238095238095
 40
0.3095238095238095
 40
0.3095238095238095
 40
0.3095238095238095
 40
0.3333333333333334
 40
0.3333333333333334
 40
0.3333333333333334
 40
0.3333333333333334
 40
0.3571428571428572
 40
0.3571428571428572
 40
0.3571428571428572
 40
0.3571428571428572
 40
0.380952380952381
 40
0.380952380952381
 40
0.380952380952381
 40
0.380952380952381
 40
0.4047619047619049
 40
0.4047619047619049
 40
0.4047619047619049
 40
0.4047619047619049
 40
0.4285714285714287
 40
0.4285714285714287
 40
0.4285714285714287
 40
0.4285714285714287
 40
0.4523809523809526
 40
0.4523809523809526
 40
0.4523809523809526
 40
0.4523809523809526
 40
0.4761904761904764
 40
0.4761904761904764
 40
0.4761904761904764
 40
0.4761904761904764
 40
0.5000000000000002
 40
0.5000000000000002
 40
0.5000000000000002
 40
0.5000000000000002
 40
0.5238095238095241
 40
0.5238095238095241
 40
0.5238095238095241
 40
0.5238095238095241
 40
0.5476190476190479
 40
0.5476190476190479
 40
0.5476190476190479
 40
0.5476190476190479
 40
0.5714285714285717
 40
0.5714285714285717
 40
0.5714285714285717
 40
0.5714285714285717
 40
0.5952380952380956
 40
0.5952380952380956
 40
0.5952380952380956
 40
0.5952380952380956
 40
0.6190476190476194
 40
0.6190476190476194
 40
0.6190476190476194
 40
0.6190476190476194
 40
0.6428571428571432
 40
0.6428571428571432
 40
0.6428571428571432
 40
0.6428571428571432
 40
0.6666666666666671
 40
0.6666666666666671
 40
0.6666666666666671
 40
0.6666666666666671
 40
0.6904761904761909
 40
0.6904761904761909
 40
0.6904761904761909
 40
0.6904761904761909
 40
0.7142857142857148
 40
0.7142857142857148
 40
0.7142857142857148
 40
0.7142857142857148
 40
0.7380952380952386
 40
0.7380952380952386
 40
0.7380952380952386
 40
0.7380952380952386
 40
0.7619047619047624
 40
0.7619047619047624
 40
0.7619047619047624
 40
0.7619047619047624
 40
0.7857142857142863
 40
0.7857142857142863
 40
0.7857142857142863
 40
0.7857142857142863
 40
0.8095238095238101
 40
0.8095238095238101
 40
0.8095238095238101
 40
0.8095238095238101
 40
0.8333333333333339
 40
0.8333333333333339
 40
0.8333333333333339
 40
0.8333333333333339
 40
0.8571428571428578
 40
0.8571428571428578
 40
0.8571428571428578
 40
0.8571428571428578
 40
0.8809523809523816
 40
0.8809523809523816
 40
0.8809523809523816
 40
0.8809523809523816
 40
0.9047619047619054
 40
0.9047619047619054
 40
0.9047619047619054
 40
0.9047619047619054
 40
0.9285714285714293
 40
0.9285714285714293
 40
0.9285714285714293
 40
0.9285714285714293
 40
0.9523809523809531
 40
0.9523809523809531
 40
0.9523809523809531
 40
0.9523809523809531
 40
0.9761904761904769
 40
0.9761904761904769
 40
0.9761904761904769
 40
0.9761904761904769
 40
1.0
 40
1.0
 40
1.0
 40
1.0
 10
0.3249606299212599
 20
1.853523622047244
 30
0.0
 10
0.3249606299212599
 20
1.853523622047244
 30
0.0
 10
0.3171535433070866
 20
1.854748031496063
 30
0.0
 10
0.3171535433070866
 20
1.854748031496063
 30
0.0
 10
0.3171535433070866
 20
1.854748031496063
 30
0.0
 10
0.3178503937007874
 20
1.860606299212599
 30
0.0
 10
0.3193779527559055
 20
1.865468503937008
 30
0.0
 10
0.3217125984251968
 20
1.869330708661418
 30
0.0
 10
0.3217125984251968
 20
1.869330708661418
 30
0.0
 10
0.3247952755905512
 20
1.874523622047244
 30
0.0
 10
0.3291535433070866
 20
1.87857874015748
 30
0.0
 10
0.3347952755905512
 20
1.881468503937008
 30
0.0
 10
0.3347952755905512
 20
1.881468503937008
 30
0.0
 10
0.3404606299212599
 20
1.884385826771654
 30
0.0
 10
0.3469330708661417
 20
1.885830708661417
 30
0.0
 10
0.3542677165354331
 20
1.885830708661417
 30
0.0
 10
0.3542677165354331
 20
1.885830708661417
 30
0.0
 10
0.3614606299212599
 20
1.885830708661417
 30
0.0
 10
0.3678228346456693
 20
1.884551181102362
 30
0.0
 10
0.3732952755905512
 20
1.881968503937008
 30
0.0
 10
0.3732952755905512
 20
1.881968503937008
 30
0.0
 10
0.3787677165354331
 20
1.879385826771654
 30
0.0
 10
0.3829055118110236
 20
1.875968503937008
 30
0.0
 10
0.3857086614173229
 20
1.871720472440945
 30
0.0
 10
0.3857086614173229
 20
1.871720472440945
 30
0.0
 10
0.3885157480314961
 20
1.867468503937008
 30
0.0
 10
0.3899055118110236
 20
1.862858267716536
 30
0.0
 10
0.3899055118110236
 20
1.857913385826772
 30
0.0
 10
0.3899055118110236
 20
1.857913385826772
 30
0.0
 10
0.3899055118110236
 20
1.85357874015748
 30
0.0
 10
0.3888503937007874
 20
1.849692913385827
 30
0.0
 10
0.3867362204724409
 20
1.846275590551181
 30
0.0
 10
0.3867362204724409
 20
1.846275590551181
 30
0.0
 10
0.3845984251968504
 20
1.842858267716536
 30
0.0
 10
0.3814606299212598
 20
1.839803149606299
 30
0.0
 10
0.3772952755905512
 20
1.83707874015748
 30
0.0
 10
0.3772952755905512
 20
1.83707874015748
 30
0.0
 10
0.3743503937007874
 20
1.835192913385827
 30
0.0
 10
0.3705433070866142
 20
1.833523622047244
 30
0.0
 10
0.3658228346456693
 20
1.832133858267717
 30
0.0
 10
0.3658228346456693
 20
1.832133858267717
 30
0.0
 10
0.3708503937007874
 20
1.831413385826772
 30
0.0
 10
0.374988188976378
 20
1.830248031496063
 30
0.0
 10
0.3781811023622048
 20
1.828633858267717
 30
0.0
 10
0.3781811023622048
 20
1.828633858267717
 30
0.0
 10
0.3833779527559055
 20
1.825968503937008
 30
0.0
 10
0.387488188976378
 20
1.822303149606299
 30
0.0
 10
0.3904606299212599
 20
1.817633858267717
 30
0.0
 10
0.3904606299212599
 20
1.817633858267717
 30
0.0
 10
0.3934606299212599
 20
1.812968503937008
 30
0.0
 10
0.3949330708661418
 20
1.807858267716536
 30
0.0
 10
0.3949330708661418
 20
1.802248031496063
 30
0.0
 10
0.3949330708661418
 20
1.802248031496063
 30
0.0
 10
0.3949330708661418
 20
1.793303149606299
 30
0.0
 10
0.3910157480314961
 20
1.785413385826772
 30
0.0
 10
0.3831535433070866
 20
1.778606299212598
 30
0.0
 10
0.3831535433070866
 20
1.778606299212598
 30
0.0
 10
0.3752677165354331
 20
1.771803149606299
 30
0.0
 10
0.3650984251968504
 20
1.768413385826772
 30
0.0
 10
0.3526259842519685
 20
1.768413385826772
 30
0.0
 10
0.3526259842519685
 20
1.768413385826772
 30
0.0
 10
0.3403228346456693
 20
1.768413385826772
 30
0.0
 10
0.3299606299212599
 20
1.771692913385827
 30
0.0
 10
0.3215433070866142
 20
1.778248031496063
 30
0.0
 10
0.3215433070866142
 20
1.778248031496063
 30
0.0
 10
0.314488188976378
 20
1.783830708661417
 30
0.0
 10
0.3109606299212598
 20
1.789468503937008
 30
0.0
 10
0.3109606299212598
 20
1.795106299212599
 30
0.0
 10
0.3109606299212598
 20
1.795106299212599
 30
0.0
 10
0.3109606299212598
 20
1.797330708661417
 30
0.0
 10
0.3116850393700787
 20
1.799192913385827
 30
0.0
 10
0.3131259842519685
 20
1.800665354330709
 30
0.0
 10
0.3131259842519685
 20
1.800665354330709
 30
0.0
 10
0.3145433070866142
 20
1.802165354330709
 30
0.0
 10
0.3163503937007874
 20
1.802913385826772
 30
0.0
 10
0.3185433070866142
 20
1.802913385826772
 30
0.0
 10
0.3185433070866142
 20
1.802913385826772
 30
0.0
 10
0.3209055118110236
 20
1.802913385826772
 30
0.0
 10
0.3229606299212599
 20
1.801996062992126
 30
0.0
 10
0.3246259842519685
 20
1.800133858267717
 30
0.0
 10
0.3246259842519685
 20
1.800133858267717
 30
0.0
 10
0.3255433070866142
 20
1.799106299212599
 30
0.0
 10
0.3266259842519685
 20
1.796637795275591
 30
0.0
 10
0.3277952755905512
 20
1.792748031496063
 30
0.0
 10
0.3277952755905512
 20
1.792748031496063
 30
0.0
 10
0.3294881889763779
 20
1.787248031496063
 30
0.0
 10
0.3323503937007874
 20
1.78307874015748
 30
0.0
 10
0.3363503937007874
 20
1.780220472440945
 30
0.0
 10
0.3363503937007874
 20
1.780220472440945
 30
0.0
 10
0.3403779527559055
 20
1.777330708661417
 30
0.0
 10
0.3453503937007874
 20
1.775885826771654
 30
0.0
 10
0.3513228346456693
 20
1.775885826771654
 30
0.0
 10
0.3513228346456693
 20
1.775885826771654
 30
0.0
 10
0.3566535433070867
 20
1.775885826771654
 30
0.0
 10
0.3614055118110237
 20
1.777051181102362
 30
0.0
 10
0.3655984251968504
 20
1.779385826771654
 30
0.0
 10
0.3655984251968504
 20
1.779385826771654
 30
0.0
 10
0.3698228346456693
 20
1.781720472440945
 30
0.0
 10
0.3731259842519685
 20
1.785023622047244
 30
0.0
 10
0.3755708661417323
 20
1.789330708661417
 30
0.0
 10
0.3755708661417323
 20
1.789330708661417
 30
0.0
 10
0.3780157480314961
 20
1.793606299212599
 30
0.0
 10
0.379240157480315
 20
1.798303149606299
 30
0.0
 10
0.379240157480315
 20
1.803385826771654
 30
0.0
 10
0.379240157480315
 20
1.803385826771654
 30
0.0
 10
0.379240157480315
 20
1.807523622047244
 30
0.0
 10
0.3783503937007874
 20
1.811220472440945
 30
0.0
 10
0.3765984251968504
 20
1.814496062992126
 30
0.0
 10
0.3765984251968504
 20
1.814496062992126
 30
0.0
 10
0.3748228346456693
 20
1.817803149606299
 30
0.0
 10
0.3723228346456693
 20
1.82057874015748
 30
0.0
 10
0.3690708661417323
 20
1.822858267716536
 30
0.0
 10
0.3690708661417323
 20
1.822858267716536
 30
0.0
 10
0.3665708661417323
 20
1.824633858267717
 30
0.0
 10
0.3633779527559055
 20
1.825885826771654
 30
0.0
 10
0.3595157480314961
 20
1.826578740157481
 30
0.0
 10
0.3595157480314961
 20
1.826578740157481
 30
0.0
 10
0.3556259842519685
 20
1.827303149606299
 30
0.0
 10
0.3521259842519685
 20
1.827661417322835
 30
0.0
 10
0.3490433070866142
 20
1.827661417322835
 30
0.0
 10
0.3490433070866142
 20
1.827661417322835
 30
0.0
 10
0.3490433070866142
 20
1.827661417322835
 30
0.0
 10
0.341488188976378
 20
1.827661417322835
 30
0.0
 10
0.341488188976378
 20
1.827661417322835
 30
0.0
 10
0.341488188976378
 20
1.827661417322835
 30
0.0
 10
0.341488188976378
 20
1.827661417322835
 30
0.0
 10
0.341488188976378
 20
1.835551181102362
 30
0.0
 10
0.341488188976378
 20
1.835551181102362
 30
0.0
 10
0.341488188976378
 20
1.835551181102362
 30
0.0
 10
0.341488188976378
 20
1.835551181102362
 30
0.0
 10
0.3462952755905512
 20
1.835551181102362
 30
0.0
 10
0.3462952755905512
 20
1.835551181102362
 30
0.0
 10
0.3462952755905512
 20
1.835551181102362
 30
0.0
 10
0.3510433070866142
 20
1.835551181102362
 30
0.0
 10
0.3555984251968504
 20
1.836106299212599
 30
0.0
 10
0.3599606299212599
 20
1.837220472440945
 30
0.0
 10
0.3599606299212599
 20
1.837220472440945
 30
0.0
 10
0.3642952755905512
 20
1.838330708661417
 30
0.0
 10
0.3677677165354331
 20
1.840606299212598
 30
0.0
 10
0.3703779527559055
 20
1.84407874015748
 30
0.0
 10
0.3703779527559055
 20
1.84407874015748
 30
0.0
 10
0.3729606299212598
 20
1.847551181102362
 30
0.0
 10
0.3742677165354331
 20
1.851496062992126
 30
0.0
 10
0.3742677165354331
 20
1.855885826771654
 30
0.0
 10
0.3742677165354331
 20
1.855885826771654
 30
0.0
 10
0.3742677165354331
 20
1.859688976377953
 30
0.0
 10
0.3733779527559055
 20
1.863106299212598
 30
0.0
 10
0.3715433070866142
 20
1.866133858267717
 30
0.0
 10
0.3715433070866142
 20
1.866133858267717
 30
0.0
 10
0.369740157480315
 20
1.869188976377953
 30
0.0
 10
0.3670708661417323
 20
1.871606299212599
 30
0.0
 10
0.3635433070866142
 20
1.873385826771654
 30
0.0
 10
0.3635433070866142
 20
1.873385826771654
 30
0.0
 10
0.3600157480314961
 20
1.875161417322835
 30
0.0
 10
0.3559330708661417
 20
1.87607874015748
 30
0.0
 10
0.3513228346456693
 20
1.87607874015748
 30
0.0
 10
0.3513228346456693
 20
1.87607874015748
 30
0.0
 10
0.3468228346456693
 20
1.87607874015748
 30
0.0
 10
0.3426811023622047
 20
1.875133858267717
 30
0.0
 10
0.3389055118110236
 20
1.873303149606299
 30
0.0
 10
0.3389055118110236
 20
1.873303149606299
 30
0.0
 10
0.3351535433070866
 20
1.871468503937008
 30
0.0
 10
0.3321259842519685
 20
1.868996062992126
 30
0.0
 10
0.3298503937007874
 20
1.865885826771654
 30
0.0
 10
0.3298503937007874
 20
1.865885826771654
 30
0.0
 10
0.3275708661417323
 20
1.862803149606299
 30
0.0
 10
0.3259330708661418
 20
1.858688976377953
 30
0.0
 10
0.3249606299212599
 20
1.853523622047244
 30
0.0
  0
SPLINE
  5
6A
330
1F
100
AcDbEntity
  8
LAYER_1
 62
   250
100
AcDbSpline
210
0.0
220
0.0
230
1.0
 70
    11
 71
     3
 72
    20
 73
    16
 74
     0
 42
0.0000000001
 43
0.0000000001
 40
0.0
 40
0.0
 40
0.0
 40
0.0
 40
0.25
 40
0.25
 40
0.25
 40
0.25
 40
0.5
 40
0.5
 40
0.5
 40
0.5
 40
0.75
 40
0.75
 40
0.75
 40
0.75
 40
1.0
 40
1.0
 40
1.0
 40
1.0
 10
0.487740157480315
 20
1.889748031496063
 30
0.0
 10
0.487740157480315
 20
1.889748031496063
 30
0.0
 10
0.4321574803149607
 20
1.734051181102362
 30
0.0
 10
0.4321574803149607
 20
1.734051181102362
 30
0.0
 10
0.4321574803149607
 20
1.734051181102362
 30
0.0
 10
0.4321574803149607
 20
1.734051181102362
 30
0.0
 10
0.4201023622047244
 20
1.734051181102362
 30
0.0
 10
0.4201023622047244
 20
1.734051181102362
 30
0.0
 10
0.4201023622047244
 20
1.734051181102362
 30
0.0
 10
0.4201023622047244
 20
1.734051181102362
 30
0.0
 10
0.4753503937007874
 20
1.889748031496063
 30
0.0
 10
0.4753503937007874
 20
1.889748031496063
 30
0.0
 10
0.4753503937007874
 20
1.889748031496063
 30
0.0
 10
0.4753503937007874
 20
1.889748031496063
 30
0.0
 10
0.487740157480315
 20
1.889748031496063
 30
0.0
 10
0.487740157480315
 20
1.889748031496063
 30
0.0
  0
SPLINE
  5
6B
330
1F
100
AcDbEntity
  8
LAYER_1
 62
   250
100
AcDbSpline
210
0.0
220
0.0
230
1.0
 70
    11
 71
     3
 72
    72
 73
    68
 74
     0
 42
0.0000000001
 43
0.0000000001
 40
0.0
 40
0.0
 40
0.0
 40
0.0
 40
0.0588235294117647
 40
0.0588235294117647
 40
0.0588235294117647
 40
0.0588235294117647
 40
0.1176470588235294
 40
0.1176470588235294
 40
0.1176470588235294
 40
0.1176470588235294
 40
0.1764705882352941
 40
0.1764705882352941
 40
0.1764705882352941
 40
0.1764705882352941
 40
0.2352941176470588
 40
0.2352941176470588
 40
0.2352941176470588
 40
0.2352941176470588
 40
0.2941176470588235
 40
0.2941176470588235
 40
0.2941176470588235
 40
0.2941176470588235
 40
0.3529411764705883
 40
0.3529411764705883
 40
0.3529411764705883
 40
0.3529411764705883
 40
0.411764705882353
 40
0.411764705882353
 40
0.411764705882353
 40
0.411764705882353
 40
0.4705882352941177
 40
0.4705882352941177
 40
0.4705882352941177
 40
0.4705882352941177
 40
0.5294117647058824
 40
0.5294117647058824
 40
0.5294117647058824
 40
0.5294117647058824
 40
0.5882352941176471
 40
0.5882352941176471
 40
0.5882352941176471
 40
0.5882352941176471
 40
0.6470588235294118
 40
0.6470588235294118
 40
0.6470588235294118
 40
0.6470588235294118
 40
0.7058823529411765
 40
0.7058823529411765
 40
0.7058823529411765
 40
0.7058823529411765
 40
0.7647058823529412
 40
0.7647058823529412
 40
0.7647058823529412
 40
0.7647058823529412
 40
0.823529411764706
 40
0.823529411764706
 40
0.823529411764706
 40
0.823529411764706
 40
0.8823529411764707
 40
0.8823529411764707
 40
0.8823529411764707
 40
0.8823529411764707
 40
0.9411764705882354
 40
0.9411764705882354
 40
0.9411764705882354
 40
0.9411764705882354
 40
1.0
 40
1.0
 40
1.0
 40
1.0
 10
0.5622952755905512
 20
1.883885826771654
 30
0.0
 10
0.5622952755905512
 20
1.883885826771654
 30
0.0
 10
0.5683779527559055
 20
1.883885826771654
 30
0.0
 10
0.5683779527559055
 20
1.883885826771654
 30
0.0
 10
0.5683779527559055
 20
1.883885826771654
 30
0.0
 10
0.5683779527559055
 20
1.883885826771654
 30
0.0
 10
0.5683779527559055
 20
1.789637795275591
 30
0.0
 10
0.5683779527559055
 20
1.789637795275591
 30
0.0
 10
0.5683779527559055
 20
1.789637795275591
 30
0.0
 10
0.5683779527559055
 20
1.785192913385827
 30
0.0
 10
0.5686850393700788
 20
1.782330708661417
 30
0.0
 10
0.569240157480315
 20
1.781051181102362
 30
0.0
 10
0.569240157480315
 20
1.781051181102362
 30
0.0
 10
0.5698228346456693
 20
1.779775590551181
 30
0.0
 10
0.570740157480315
 20
1.778830708661418
 30
0.0
 10
0.5720433070866142
 20
1.778165354330709
 30
0.0
 10
0.5720433070866142
 20
1.778165354330709
 30
0.0
 10
0.5733503937007874
 20
1.777523622047244
 30
0.0
 10
0.5759330708661418
 20
1.777192913385827
 30
0.0
 10
0.5797952755905512
 20
1.777192913385827
 30
0.0
 10
0.5797952755905512
 20
1.777192913385827
 30
0.0
 10
0.5797952755905512
 20
1.777192913385827
 30
0.0
 10
0.5877677165354331
 20
1.777192913385827
 30
0.0
 10
0.5877677165354331
 20
1.777192913385827
 30
0.0
 10
0.5877677165354331
 20
1.777192913385827
 30
0.0
 10
0.5877677165354331
 20
1.777192913385827
 30
0.0
 10
0.5877677165354331
 20
1.770358267716536
 30
0.0
 10
0.5877677165354331
 20
1.770358267716536
 30
0.0
 10
0.5877677165354331
 20
1.770358267716536
 30
0.0
 10
0.5877677165354331
 20
1.770358267716536
 30
0.0
 10
0.5341299212598425
 20
1.770358267716536
 30
0.0
 10
0.5341299212598425
 20
1.770358267716536
 30
0.0
 10
0.5341299212598425
 20
1.770358267716536
 30
0.0
 10
0.5341299212598425
 20
1.770358267716536
 30
0.0
 10
0.5341299212598425
 20
1.777192913385827
 30
0.0
 10
0.5341299212598425
 20
1.777192913385827
 30
0.0
 10
0.5341299212598425
 20
1.777192913385827
 30
0.0
 10
0.5341299212598425
 20
1.777192913385827
 30
0.0
 10
0.542988188976378
 20
1.777192913385827
 30
0.0
 10
0.542988188976378
 20
1.777192913385827
 30
0.0
 10
0.542988188976378
 20
1.777192913385827
 30
0.0
 10
0.5468503937007875
 20
1.777192913385827
 30
0.0
 10
0.5494055118110236
 20
1.777523622047244
 30
0.0
 10
0.5506850393700787
 20
1.778220472440945
 30
0.0
 10
0.5506850393700787
 20
1.778220472440945
 30
0.0
 10
0.5519606299212598
 20
1.778885826771654
 30
0.0
 10
0.5529606299212598
 20
1.779968503937008
 30
0.0
 10
0.5536574803149607
 20
1.781468503937008
 30
0.0
 10
0.5536574803149607
 20
1.781468503937008
 30
0.0
 10
0.5543503937007874
 20
1.782968503937008
 30
0.0
 10
0.5547125984251968
 20
1.785692913385827
 30
0.0
 10
0.5547125984251968
 20
1.789637795275591
 30
0.0
 10
0.5547125984251968
 20
1.789637795275591
 30
0.0
 10
0.5547125984251968
 20
1.789637795275591
 30
0.0
 10
0.5547125984251968
 20
1.867106299212598
 30
0.0
 10
0.5547125984251968
 20
1.867106299212598
 30
0.0
 10
0.5547125984251968
 20
1.867106299212598
 30
0.0
 10
0.5547125984251968
 20
1.867106299212598
 30
0.0
 10
0.5341299212598425
 20
1.867106299212598
 30
0.0
 10
0.5341299212598425
 20
1.867106299212598
 30
0.0
 10
0.5341299212598425
 20
1.867106299212598
 30
0.0
 10
0.5341299212598425
 20
1.867106299212598
 30
0.0
 10
0.5341299212598425
 20
1.874106299212599
 30
0.0
 10
0.5341299212598425
 20
1.874106299212599
 30
0.0
 10
0.5341299212598425
 20
1.874106299212599
 30
0.0
 10
0.5453503937007874
 20
1.875688976377953
 30
0.0
 10
0.554740157480315
 20
1.87894094488189
 30
0.0
 10
0.5622952755905512
 20
1.883885826771654
 30
0.0
  0
SPLINE
  5
6C
330
1F
100
AcDbEntity
  8
LAYER_1
 62
   250
100
AcDbSpline
210
0.0
220
0.0
230
1.0
 70
    11
 71
     3
 72
    84
 73
    80
 74
     0
 42
0.0000000001
 43
0.0000000001
 40
0.0
 40
0.0
 40
0.0
 40
0.0
 40
0.05
 40
0.05
 40
0.05
 40
0.05
 40
0.1
 40
0.1
 40
0.1
 40
0.1
 40
0.15
 40
0.15
 40
0.15
 40
0.15
 40
0.2
 40
0.2
 40
0.2
 40
0.2
 40
0.25
 40
0.25
 40
0.25
 40
0.25
 40
0.3
 40
0.3
 40
0.3
 40
0.3
 40
0.35
 40
0.35
 40
0.35
 40
0.35
 40
0.4
 40
0.4
 40
0.4
 40
0.4
 40
0.45
 40
0.45
 40
0.45
 40
0.45
 40
0.4999999999999999
 40
0.4999999999999999
 40
0.4999999999999999
 40
0.4999999999999999
 40
0.5499999999999999
 40
0.5499999999999999
 40
0.5499999999999999
 40
0.5499999999999999
 40
0.6
 40
0.6
 40
0.6
 40
0.6
 40
0.65
 40
0.65
 40
0.65
 40
0.65
 40
0.7000000000000001
 40
0.7000000000000001
 40
0.7000000000000001
 40
0.7000000000000001
 40
0.7500000000000001
 40
0.7500000000000001
 40
0.7500000000000001
 40
0.7500000000000001
 40
0.8000000000000002
 40
0.8000000000000002
 40
0.8000000000000002
 40
0.8000000000000002
 40
0.8500000000000002
 40
0.8500000000000002
 40
0.8500000000000002
 40
0.8500000000000002
 40
0.9000000000000002
 40
0.9000000000000002
 40
0.9000000000000002
 40
0.9000000000000002
 40
0.9500000000000003
 40
0.9500000000000003
 40
0.9500000000000003
 40
0.9500000000000003
 40
1.0
 40
1.0
 40
1.0
 40
1.0
 10
0.6939606299212598
 20
1.885996062992126
 30
0.0
 10
0.6939606299212598
 20
1.885996062992126
 30
0.0
 10
0.6939606299212598
 20
1.87857874015748
 30
0.0
 10
0.6939606299212598
 20
1.87857874015748
 30
0.0
 10
0.6939606299212598
 20
1.87857874015748
 30
0.0
 10
0.6805748031496063
 20
1.87844094488189
 30
0.0
 10
0.669740157480315
 20
1.876468503937008
 30
0.0
 10
0.6614645669291339
 20
1.872748031496063
 30
0.0
 10
0.6614645669291339
 20
1.872748031496063
 30
0.0
 10
0.6531850393700788
 20
1.868996062992126
 30
0.0
 10
0.6471023622047244
 20
1.863385826771654
 30
0.0
 10
0.6431850393700788
 20
1.85594094488189
 30
0.0
 10
0.6431850393700788
 20
1.85594094488189
 30
0.0
 10
0.6392677165354331
 20
1.848468503937008
 30
0.0
 10
0.6370748031496063
 20
1.839275590551181
 30
0.0
 10
0.6366023622047244
 20
1.828385826771654
 30
0.0
 10
0.6366023622047244
 20
1.828385826771654
 30
0.0
 10
0.6393503937007874
 20
1.832606299212598
 30
0.0
 10
0.6421850393700788
 20
1.835913385826772
 30
0.0
 10
0.6451023622047244
 20
1.838275590551181
 30
0.0
 10
0.6451023622047244
 20
1.838275590551181
 30
0.0
 10
0.647992125984252
 20
1.840633858267717
 30
0.0
 10
0.6513779527559055
 20
1.84244094488189
 30
0.0
 10
0.6552677165354331
 20
1.843720472440945
 30
0.0
 10
0.6552677165354331
 20
1.843720472440945
 30
0.0
 10
0.6591574803149607
 20
1.844996062992126
 30
0.0
 10
0.6634055118110237
 20
1.845633858267717
 30
0.0
 10
0.6680196850393702
 20
1.845633858267717
 30
0.0
 10
0.6680196850393702
 20
1.845633858267717
 30
0.0
 10
0.6753779527559055
 20
1.845633858267717
 30
0.0
 10
0.6819606299212598
 20
1.843996062992126
 30
0.0
 10
0.6877125984251968
 20
1.840748031496063
 30
0.0
 10
0.6877125984251968
 20
1.840748031496063
 30
0.0
 10
0.6934606299212599
 20
1.837496062992126
 30
0.0
 10
0.6979330708661418
 20
1.83307874015748
 30
0.0
 10
0.7011299212598425
 20
1.827523622047244
 30
0.0
 10
0.7011299212598425
 20
1.827523622047244
 30
0.0
 10
0.7043228346456694
 20
1.821968503937008
 30
0.0
 10
0.7059330708661418
 20
1.815413385826772
 30
0.0
 10
0.7059330708661418
 20
1.807885826771654
 30
0.0
 10
0.7059330708661418
 20
1.807885826771654
 30
0.0
 10
0.7059330708661418
 20
1.795885826771654
 30
0.0
 10
0.7023228346456694
 20
1.786468503937008
 30
0.0
 10
0.6951023622047244
 20
1.779637795275591
 30
0.0
 10
0.6951023622047244
 20
1.779637795275591
 30
0.0
 10
0.6871299212598425
 20
1.772137795275591
 30
0.0
 10
0.6767952755905512
 20
1.768413385826772
 30
0.0
 10
0.6641023622047244
 20
1.768413385826772
 30
0.0
 10
0.6641023622047244
 20
1.768413385826772
 30
0.0
 10
0.6549330708661417
 20
1.768413385826772
 30
0.0
 10
0.6472125984251969
 20
1.770303149606299
 30
0.0
 10
0.6409055118110236
 20
1.774106299212598
 30
0.0
 10
0.6409055118110236
 20
1.774106299212598
 30
0.0
 10
0.6346023622047244
 20
1.777885826771654
 30
0.0
 10
0.6296023622047244
 20
1.783692913385827
 30
0.0
 10
0.6258779527559055
 20
1.791523622047244
 30
0.0
 10
0.6258779527559055
 20
1.791523622047244
 30
0.0
 10
0.6221850393700787
 20
1.799330708661417
 30
0.0
 10
0.6203228346456693
 20
1.808996062992126
 30
0.0
 10
0.6203228346456693
 20
1.820496062992126
 30
0.0
 10
0.6203228346456693
 20
1.820496062992126
 30
0.0
 10
0.6203228346456693
 20
1.832051181102362
 30
0.0
 10
0.6222952755905512
 20
1.842303149606299
 30
0.0
 10
0.6262125984251968
 20
1.851248031496063
 30
0.0
 10
0.6262125984251968
 20
1.851248031496063
 30
0.0
 10
0.6301574803149607
 20
1.860188976377953
 30
0.0
 10
0.6356023622047244
 20
1.867385826771654
 30
0.0
 10
0.6425472440944883
 20
1.872803149606299
 30
0.0
 10
0.6425472440944883
 20
1.872803149606299
 30
0.0
 10
0.649492125984252
 20
1.878248031496063
 30
0.0
 10
0.6571023622047244
 20
1.881803149606299
 30
0.0
 10
0.6653503937007874
 20
1.883468503937008
 30
0.0
 10
0.6653503937007874
 20
1.883468503937008
 30
0.0
 10
0.6736299212598426
 20
1.885161417322835
 30
0.0
 10
0.6810472440944883
 20
1.885996062992126
 30
0.0
 10
0.6876299212598426
 20
1.885996062992126
 30
0.0
 10
0.6876299212598426
 20
1.885996062992126
 30
0.0
 10
0.6876299212598426
 20
1.885996062992126
 30
0.0
 10
0.6939606299212598
 20
1.885996062992126
 30
0.0
 10
0.6939606299212598
 20
1.885996062992126
 30
0.0
  0
SPLINE
  5
6D
330
1F
100
AcDbEntity
  8
LAYER_1
 62
   250
100
AcDbSpline
210
0.0
220
0.0
230
1.0
 70
    11
 71
     3
 72
    40
 73
    36
 74
     0
 42
0.0000000001
 43
0.0000000001
 40
0.0
 40
0.0
 40
0.0
 40
0.0
 40
0.1111111111111111
 40
0.1111111111111111
 40
0.1111111111111111
 40
0.1111111111111111
 40
0.2222222222222222
 40
0.2222222222222222
 40
0.2222222222222222
 40
0.2222222222222222
 40
0.3333333333333333
 40
0.3333333333333333
 40
0.3333333333333333
 40
0.3333333333333333
 40
0.4444444444444444
 40
0.4444444444444444
 40
0.4444444444444444
 40
0.4444444444444444
 40
0.5555555555555556
 40
0.5555555555555556
 40
0.5555555555555556
 40
0.5555555555555556
 40
0.6666666666666667
 40
0.6666666666666667
 40
0.6666666666666667
 40
0.6666666666666667
 40
0.7777777777777779
 40
0.7777777777777779
 40
0.7777777777777779
 40
0.7777777777777779
 40
0.8888888888888891
 40
0.8888888888888891
 40
0.8888888888888891
 40
0.8888888888888891
 40
1.0
 40
1.0
 40
1.0
 40
1.0
 10
0.6642677165354332
 20
1.836996062992126
 30
0.0
 10
0.6564645669291339
 20
1.836996062992126
 30
0.0
 10
0.6500472440944882
 20
1.834051181102362
 30
0.0
 10
0.6450196850393701
 20
1.828133858267717
 30
0.0
 10
0.6450196850393701
 20
1.828133858267717
 30
0.0
 10
0.639992125984252
 20
1.822220472440945
 30
0.0
 10
0.637492125984252
 20
1.815106299212599
 30
0.0
 10
0.637492125984252
 20
1.806830708661418
 30
0.0
 10
0.637492125984252
 20
1.806830708661418
 30
0.0
 10
0.637492125984252
 20
1.800968503937008
 30
0.0
 10
0.6387125984251969
 20
1.795551181102362
 30
0.0
 10
0.6411574803149607
 20
1.79057874015748
 30
0.0
 10
0.6411574803149607
 20
1.79057874015748
 30
0.0
 10
0.6436023622047244
 20
1.785606299212599
 30
0.0
 10
0.646740157480315
 20
1.78194094488189
 30
0.0
 10
0.6506023622047245
 20
1.779523622047244
 30
0.0
 10
0.6506023622047245
 20
1.779523622047244
 30
0.0
 10
0.6544330708661418
 20
1.777106299212599
 30
0.0
 10
0.6587952755905512
 20
1.775885826771654
 30
0.0
 10
0.6636023622047245
 20
1.775885826771654
 30
0.0
 10
0.6636023622047245
 20
1.775885826771654
 30
0.0
 10
0.6711023622047244
 20
1.775885826771654
 30
0.0
 10
0.6773228346456693
 20
1.778720472440945
 30
0.0
 10
0.6822952755905513
 20
1.784385826771654
 30
0.0
 10
0.6822952755905513
 20
1.784385826771654
 30
0.0
 10
0.687240157480315
 20
1.790051181102362
 30
0.0
 10
0.689740157480315
 20
1.797665354330709
 30
0.0
 10
0.689740157480315
 20
1.807220472440945
 30
0.0
 10
0.689740157480315
 20
1.807220472440945
 30
0.0
 10
0.689740157480315
 20
1.816330708661417
 30
0.0
 10
0.6873228346456693
 20
1.82357874015748
 30
0.0
 10
0.682492125984252
 20
1.82894094488189
 30
0.0
 10
0.682492125984252
 20
1.82894094488189
 30
0.0
 10
0.6776574803149607
 20
1.834330708661417
 30
0.0
 10
0.6715748031496063
 20
1.836996062992126
 30
0.0
 10
0.6642677165354332
 20
1.836996062992126
 30
0.0
  0
SPLINE
  5
6E
330
1F
100
AcDbEntity
  8
LAYER_1
 62
   250
100
AcDbSpline
210
0.0
220
0.0
230
1.0
 70
    11
 71
     3
 72
    60
 73
    56
 74
     0
 42
0.0000000001
 43
0.0000000001
 40
0.0
 40
0.0
 40
0.0
 40
0.0
 40
0.0714285714285714
 40
0.0714285714285714
 40
0.0714285714285714
 40
0.0714285714285714
 40
0.1428571428571429
 40
0.1428571428571429
 40
0.1428571428571429
 40
0.1428571428571429
 40
0.2142857142857143
 40
0.2142857142857143
 40
0.2142857142857143
 40
0.2142857142857143
 40
0.2857142857142857
 40
0.2857142857142857
 40
0.2857142857142857
 40
0.2857142857142857
 40
0.3571428571428571
 40
0.3571428571428571
 40
0.3571428571428571
 40
0.3571428571428571
 40
0.4285714285714285
 40
0.4285714285714285
 40
0.4285714285714285
 40
0.4285714285714285
 40
0.4999999999999999
 40
0.4999999999999999
 40
0.4999999999999999
 40
0.4999999999999999
 40
0.5714285714285713
 40
0.5714285714285713
 40
0.5714285714285713
 40
0.5714285714285713
 40
0.6428571428571427
 40
0.6428571428571427
 40
0.6428571428571427
 40
0.6428571428571427
 40
0.7142857142857141
 40
0.7142857142857141
 40
0.7142857142857141
 40
0.7142857142857141
 40
0.7857142857142855
 40
0.7857142857142855
 40
0.7857142857142855
 40
0.7857142857142855
 40
0.8571428571428569
 40
0.8571428571428569
 40
0.8571428571428569
 40
0.8571428571428569
 40
0.9285714285714283
 40
0.9285714285714283
 40
0.9285714285714283
 40
0.9285714285714283
 40
1.0
 40
1.0
 40
1.0
 40
1.0
 10
0.7231023622047245
 20
1.841803149606299
 30
0.0
 10
0.7231023622047245
 20
1.841803149606299
 30
0.0
 10
0.7187125984251969
 20
1.847192913385827
 30
0.0
 10
0.7187125984251969
 20
1.847192913385827
 30
0.0
 10
0.7187125984251969
 20
1.847192913385827
 30
0.0
 10
0.7298267716535434
 20
1.856248031496063
 30
0.0
 10
0.7354094488188977
 20
1.863803149606299
 30
0.0
 10
0.7354094488188977
 20
1.869885826771654
 30
0.0
 10
0.7354094488188977
 20
1.869885826771654
 30
0.0
 10
0.7354094488188977
 20
1.870578740157481
 30
0.0
 10
0.7353543307086614
 20
1.871468503937008
 30
0.0
 10
0.735240157480315
 20
1.872496062992126
 30
0.0
 10
0.735240157480315
 20
1.872496062992126
 30
0.0
 10
0.7343267716535433
 20
1.872106299212599
 30
0.0
 10
0.7334094488188977
 20
1.871803149606299
 30
0.0
 10
0.7325472440944882
 20
1.871606299212599
 30
0.0
 10
0.7325472440944882
 20
1.871606299212599
 30
0.0
 10
0.7316850393700788
 20
1.871385826771654
 30
0.0
 10
0.7308818897637796
 20
1.871275590551181
 30
0.0
 10
0.7301023622047245
 20
1.871275590551181
 30
0.0
 10
0.7301023622047245
 20
1.871275590551181
 30
0.0
 10
0.727492125984252
 20
1.871275590551181
 30
0.0
 10
0.7254094488188977
 20
1.872106299212599
 30
0.0
 10
0.7238543307086615
 20
1.873803149606299
 30
0.0
 10
0.7238543307086615
 20
1.873803149606299
 30
0.0
 10
0.7222677165354331
 20
1.875468503937008
 30
0.0
 10
0.7214921259842519
 20
1.877606299212599
 30
0.0
 10
0.7214921259842519
 20
1.880220472440945
 30
0.0
 10
0.7214921259842519
 20
1.880220472440945
 30
0.0
 10
0.7214921259842519
 20
1.882775590551181
 30
0.0
 10
0.7224370078740158
 20
1.884996062992126
 30
0.0
 10
0.7243267716535433
 20
1.886885826771654
 30
0.0
 10
0.7243267716535433
 20
1.886885826771654
 30
0.0
 10
0.726240157480315
 20
1.888803149606299
 30
0.0
 10
0.7285196850393702
 20
1.889748031496063
 30
0.0
 10
0.7311574803149606
 20
1.889748031496063
 30
0.0
 10
0.7311574803149606
 20
1.889748031496063
 30
0.0
 10
0.7348543307086615
 20
1.889748031496063
 30
0.0
 10
0.7380196850393701
 20
1.888275590551181
 30
0.0
 10
0.7406574803149607
 20
1.885303149606299
 30
0.0
 10
0.7406574803149607
 20
1.885303149606299
 30
0.0
 10
0.7432677165354331
 20
1.882358267716536
 30
0.0
 10
0.7446023622047244
 20
1.878551181102362
 30
0.0
 10
0.7446023622047244
 20
1.873885826771654
 30
0.0
 10
0.7446023622047244
 20
1.873885826771654
 30
0.0
 10
0.7446023622047244
 20
1.870830708661417
 30
0.0
 10
0.7439645669291339
 20
1.867633858267717
 30
0.0
 10
0.7427125984251969
 20
1.864303149606299
 30
0.0
 10
0.7427125984251969
 20
1.864303149606299
 30
0.0
 10
0.7414645669291339
 20
1.860968503937008
 30
0.0
 10
0.7396574803149607
 20
1.857885826771654
 30
0.0
 10
0.7372677165354331
 20
1.855023622047244
 30
0.0
 10
0.7372677165354331
 20
1.855023622047244
 30
0.0
 10
0.7348818897637796
 20
1.852192913385827
 30
0.0
 10
0.7301574803149606
 20
1.847775590551181
 30
0.0
 10
0.7231023622047245
 20
1.841803149606299
 30
0.0
  0
SPLINE
  5
6F
330
1F
100
AcDbEntity
  8
LAYER_1
 62
   250
100
AcDbSpline
210
0.0
220
0.0
230
1.0
 70
    11
 71
     3
 72
    60
 73
    56
 74
     0
 42
0.0000000001
 43
0.0000000001
 40
0.0
 40
0.0
 40
0.0
 40
0.0
 40
0.0714285714285714
 40
0.0714285714285714
 40
0.0714285714285714
 40
0.0714285714285714
 40
0.1428571428571429
 40
0.1428571428571429
 40
0.1428571428571429
 40
0.1428571428571429
 40
0.2142857142857143
 40
0.2142857142857143
 40
0.2142857142857143
 40
0.2142857142857143
 40
0.2857142857142857
 40
0.2857142857142857
 40
0.2857142857142857
 40
0.2857142857142857
 40
0.3571428571428571
 40
0.3571428571428571
 40
0.3571428571428571
 40
0.3571428571428571
 40
0.4285714285714285
 40
0.4285714285714285
 40
0.4285714285714285
 40
0.4285714285714285
 40
0.4999999999999999
 40
0.4999999999999999
 40
0.4999999999999999
 40
0.4999999999999999
 40
0.5714285714285713
 40
0.5714285714285713
 40
0.5714285714285713
 40
0.5714285714285713
 40
0.6428571428571427
 40
0.6428571428571427
 40
0.6428571428571427
 40
0.6428571428571427
 40
0.7142857142857141
 40
0.7142857142857141
 40
0.7142857142857141
 40
0.7142857142857141
 40
0.7857142857142855
 40
0.7857142857142855
 40
0.7857142857142855
 40
0.7857142857142855
 40
0.8571428571428569
 40
0.8571428571428569
 40
0.8571428571428569
 40
0.8571428571428569
 40
0.9285714285714283
 40
0.9285714285714283
 40
0.9285714285714283
 40
0.9285714285714283
 40
1.0
 40
1.0
 40
1.0
 40
1.0
 10
0.7521574803149607
 20
1.841803149606299
 30
0.0
 10
0.7521574803149607
 20
1.841803149606299
 30
0.0
 10
0.7477677165354331
 20
1.847192913385827
 30
0.0
 10
0.7477677165354331
 20
1.847192913385827
 30
0.0
 10
0.7477677165354331
 20
1.847192913385827
 30
0.0
 10
0.7588818897637796
 20
1.856248031496063
 30
0.0
 10
0.7644645669291339
 20
1.863803149606299
 30
0.0
 10
0.7644645669291339
 20
1.869885826771654
 30
0.0
 10
0.7644645669291339
 20
1.869885826771654
 30
0.0
 10
0.7644645669291339
 20
1.870578740157481
 30
0.0
 10
0.7644094488188977
 20
1.871468503937008
 30
0.0
 10
0.7642952755905512
 20
1.872496062992126
 30
0.0
 10
0.7642952755905512
 20
1.872496062992126
 30
0.0
 10
0.7633818897637795
 20
1.872106299212599
 30
0.0
 10
0.7624645669291339
 20
1.871803149606299
 30
0.0
 10
0.7616023622047244
 20
1.871606299212599
 30
0.0
 10
0.7616023622047244
 20
1.871606299212599
 30
0.0
 10
0.760740157480315
 20
1.871385826771654
 30
0.0
 10
0.7599094488188977
 20
1.871275590551181
 30
0.0
 10
0.7590748031496063
 20
1.871275590551181
 30
0.0
 10
0.7590748031496063
 20
1.871275590551181
 30
0.0
 10
0.7565196850393701
 20
1.871275590551181
 30
0.0
 10
0.7544645669291339
 20
1.872106299212599
 30
0.0
 10
0.7529094488188977
 20
1.873803149606299
 30
0.0
 10
0.7529094488188977
 20
1.873803149606299
 30
0.0
 10
0.7513267716535433
 20
1.875468503937008
 30
0.0
 10
0.7505472440944883
 20
1.877606299212599
 30
0.0
 10
0.7505472440944883
 20
1.880220472440945
 30
0.0
 10
0.7505472440944883
 20
1.880220472440945
 30
0.0
 10
0.7505472440944883
 20
1.882775590551181
 30
0.0
 10
0.751492125984252
 20
1.884996062992126
 30
0.0
 10
0.7533818897637795
 20
1.886885826771654
 30
0.0
 10
0.7533818897637795
 20
1.886885826771654
 30
0.0
 10
0.7552677165354331
 20
1.888803149606299
 30
0.0
 10
0.7575748031496064
 20
1.889748031496063
 30
0.0
 10
0.7602125984251968
 20
1.889748031496063
 30
0.0
 10
0.7602125984251968
 20
1.889748031496063
 30
0.0
 10
0.7639094488188977
 20
1.889748031496063
 30
0.0
 10
0.7670748031496063
 20
1.888275590551181
 30
0.0
 10
0.7697125984251969
 20
1.885303149606299
 30
0.0
 10
0.7697125984251969
 20
1.885303149606299
 30
0.0
 10
0.7723228346456693
 20
1.882358267716536
 30
0.0
 10
0.7736574803149606
 20
1.878551181102362
 30
0.0
 10
0.7736574803149606
 20
1.873885826771654
 30
0.0
 10
0.7736574803149606
 20
1.873885826771654
 30
0.0
 10
0.7736574803149606
 20
1.870830708661417
 30
0.0
 10
0.7730196850393701
 20
1.867633858267717
 30
0.0
 10
0.7717677165354331
 20
1.864303149606299
 30
0.0
 10
0.7717677165354331
 20
1.864303149606299
 30
0.0
 10
0.7705196850393701
 20
1.860968503937008
 30
0.0
 10
0.7687125984251969
 20
1.857885826771654
 30
0.0
 10
0.7663267716535434
 20
1.855023622047244
 30
0.0
 10
0.7663267716535434
 20
1.855023622047244
 30
0.0
 10
0.7639370078740158
 20
1.852192913385827
 30
0.0
 10
0.7592125984251968
 20
1.847775590551181
 30
0.0
 10
0.7521574803149607
 20
1.841803149606299
 30
0.0
  0
SPLINE
  5
70
330
1F
100
AcDbEntity
  8
LAYER_1
 62
   250
100
AcDbSpline
210
0.0
220
0.0
230
1.0
 70
    11
 71
     3
 72
   104
 73
   100
 74
     0
 42
0.0000000001
 43
0.0000000001
 40
0.0
 40
0.0
 40
0.0
 40
0.0
 40
0.04
 40
0.04
 40
0.04
 40
0.04
 40
0.08
 40
0.08
 40
0.08
 40
0.08
 40
0.12
 40
0.12
 40
0.12
 40
0.12
 40
0.16
 40
0.16
 40
0.16
 40
0.16
 40
0.2
 40
0.2
 40
0.2
 40
0.2
 40
0.24
 40
0.24
 40
0.24
 40
0.24
 40
0.28
 40
0.28
 40
0.28
 40
0.28
 40
0.32
 40
0.32
 40
0.32
 40
0.32
 40
0.36
 40
0.36
 40
0.36
 40
0.36
 40
0.4
 40
0.4
 40
0.4
 40
0.4
 40
0.44
 40
0.44
 40
0.44
 40
0.44
 40
0.4799999999999999
 40
0.4799999999999999
 40
0.4799999999999999
 40
0.4799999999999999
 40
0.5199999999999999
 40
0.5199999999999999
 40
0.5199999999999999
 40
0.5199999999999999
 40
0.5599999999999999
 40
0.5599999999999999
 40
0.5599999999999999
 40
0.5599999999999999
 40
0.6
 40
0.6
 40
0.6
 40
0.6
 40
0.64
 40
0.64
 40
0.64
 40
0.64
 40
0.6800000000000001
 40
0.6800000000000001
 40
0.6800000000000001
 40
0.6800000000000001
 40
0.7200000000000001
 40
0.7200000000000001
 40
0.7200000000000001
 40
0.7200000000000001
 40
0.7600000000000001
 40
0.7600000000000001
 40
0.7600000000000001
 40
0.7600000000000001
 40
0.8000000000000002
 40
0.8000000000000002
 40
0.8000000000000002
 40
0.8000000000000002
 40
0.8400000000000002
 40
0.8400000000000002
 40
0.8400000000000002
 40
0.8400000000000002
 40
0.8800000000000002
 40
0.8800000000000002
 40
0.8800000000000002
 40
0.8800000000000002
 40
0.9200000000000003
 40
0.9200000000000003
 40
0.9200000000000003
 40
0.9200000000000003
 40
0.9600000000000003
 40
0.9600000000000003
 40
0.9600000000000003
 40
0.9600000000000003
 40
1.0
 40
1.0
 40
1.0
 40
1.0
 10
0.4154803149606299
 20
1.091448818897638
 30
0.0
 10
0.4154803149606299
 20
1.091448818897638
 30
0.0
 10
0.4694527559055118
 20
1.091448818897638
 30
0.0
 10
0.4694527559055118
 20
1.091448818897638
 30
0.0
 10
0.4694527559055118
 20
1.091448818897638
 30
0.0
 10
0.4826220472440945
 20
1.091448818897638
 30
0.0
 10
0.4916496062992126
 20
1.090838582677165
 30
0.0
 10
0.4965354330708662
 20
1.089641732283465
 30
0.0
 10
0.4965354330708662
 20
1.089641732283465
 30
0.0
 10
0.5037598425196851
 20
1.08792125984252
 30
0.0
 10
0.5094527559055119
 20
1.084783464566929
 30
0.0
 10
0.5136771653543307
 20
1.080224409448819
 30
0.0
 10
0.5136771653543307
 20
1.080224409448819
 30
0.0
 10
0.5178700787401575
 20
1.075669291338583
 30
0.0
 10
0.5199803149606299
 20
1.070169291338583
 30
0.0
 10
0.5199803149606299
 20
1.063783464566929
 30
0.0
 10
0.5199803149606299
 20
1.063783464566929
 30
0.0
 10
0.5199803149606299
 20
1.059169291338583
 30
0.0
 10
0.5188700787401575
 20
1.055031496062992
 30
0.0
 10
0.5166496062992126
 20
1.051366141732284
 30
0.0
 10
0.5166496062992126
 20
1.051366141732284
 30
0.0
 10
0.5144251968503937
 20
1.047696850393701
 30
0.0
 10
0.5111771653543308
 20
1.04455905511811
 30
0.0
 10
0.5069527559055118
 20
1.041976377952756
 30
0.0
 10
0.5069527559055118
 20
1.041976377952756
 30
0.0
 10
0.5042322834645669
 20
1.040283464566929
 30
0.0
 10
0.5005629921259843
 20
1.038838582677165
 30
0.0
 10
0.4958976377952756
 20
1.037641732283465
 30
0.0
 10
0.4958976377952756
 20
1.037641732283465
 30
0.0
 10
0.5018149606299213
 20
1.03655905511811
 30
0.0
 10
0.5063149606299213
 20
1.035255905511811
 30
0.0
 10
0.5093976377952756
 20
1.033755905511811
 30
0.0
 10
0.5093976377952756
 20
1.033755905511811
 30
0.0
 10
0.5140629921259843
 20
1.031476377952756
 30
0.0
 10
0.5177598425196851
 20
1.028228346456693
 30
0.0
 10
0.5204527559055119
 20
1.023976377952756
 30
0.0
 10
0.5204527559055119
 20
1.023976377952756
 30
0.0
 10
0.5231771653543307
 20
1.019755905511811
 30
0.0
 10
0.5245354330708661
 20
1.014976377952756
 30
0.0
 10
0.5245354330708661
 20
1.009669291338583
 30
0.0
 10
0.5245354330708661
 20
1.009669291338583
 30
0.0
 10
0.5245354330708661
 20
1.004503937007874
 30
0.0
 10
0.5232047244094489
 20
0.999728346456693
 30
0.0
 10
0.5205354330708661
 20
0.9953385826771654
 30
0.0
 10
0.5205354330708661
 20
0.9953385826771654
 30
0.0
 10
0.5178976377952756
 20
0.9909488188976379
 30
0.0
 10
0.5141220472440945
 20
0.9873385826771653
 30
0.0
 10
0.5092874015748031
 20
0.9845039370078741
 30
0.0
 10
0.5092874015748031
 20
0.9845039370078741
 30
0.0
 10
0.5044251968503937
 20
0.9817007874015749
 30
0.0
 10
0.4987598425196851
 20
0.9798937007874016
 30
0.0
 10
0.4923149606299213
 20
0.9790866141732284
 30
0.0
 10
0.4923149606299213
 20
0.9790866141732284
 30
0.0
 10
0.4858425196850394
 20
0.9783110236220473
 30
0.0
 10
0.4792047244094488
 20
0.9779212598425198
 30
0.0
 10
0.4723700787401575
 20
0.9779212598425198
 30
0.0
 10
0.4723700787401575
 20
0.9779212598425198
 30
0.0
 10
0.4723700787401575
 20
0.9779212598425198
 30
0.0
 10
0.4154803149606299
 20
0.9779212598425198
 30
0.0
 10
0.4154803149606299
 20
0.9779212598425198
 30
0.0
 10
0.4154803149606299
 20
0.9779212598425198
 30
0.0
 10
0.4154803149606299
 20
0.9779212598425198
 30
0.0
 10
0.4154803149606299
 20
0.984755905511811
 30
0.0
 10
0.4154803149606299
 20
0.984755905511811
 30
0.0
 10
0.4154803149606299
 20
0.984755905511811
 30
0.0
 10
0.4154803149606299
 20
0.984755905511811
 30
0.0
 10
0.4193149606299213
 20
0.984755905511811
 30
0.0
 10
0.4193149606299213
 20
0.984755905511811
 30
0.0
 10
0.4193149606299213
 20
0.984755905511811
 30
0.0
 10
0.4230118110236221
 20
0.984755905511811
 30
0.0
 10
0.4255118110236221
 20
0.9853385826771653
 30
0.0
 10
0.4268700787401575
 20
0.9864763779527559
 30
0.0
 10
0.4268700787401575
 20
0.9864763779527559
 30
0.0
 10
0.4288425196850394
 20
0.9880314960629921
 30
0.0
 10
0.4298149606299213
 20
0.9906417322834646
 30
0.0
 10
0.4298149606299213
 20
0.9942834645669292
 30
0.0
 10
0.4298149606299213
 20
0.9942834645669292
 30
0.0
 10
0.4298149606299213
 20
0.9942834645669292
 30
0.0
 10
0.4298149606299213
 20
1.073141732283465
 30
0.0
 10
0.4298149606299213
 20
1.073141732283465
 30
0.0
 10
0.4298149606299213
 20
1.073141732283465
 30
0.0
 10
0.4298149606299213
 20
1.076838582677165
 30
0.0
 10
0.4295118110236221
 20
1.079338582677165
 30
0.0
 10
0.4289251968503937
 20
1.080696850393701
 30
0.0
 10
0.4289251968503937
 20
1.080696850393701
 30
0.0
 10
0.4283149606299213
 20
1.08205905511811
 30
0.0
 10
0.4274251968503937
 20
1.083031496062992
 30
0.0
 10
0.4262322834645669
 20
1.083641732283465
 30
0.0
 10
0.4262322834645669
 20
1.083641732283465
 30
0.0
 10
0.4250393700787402
 20
1.084224409448819
 30
0.0
 10
0.4227322834645669
 20
1.084531496062992
 30
0.0
 10
0.4193149606299213
 20
1.084531496062992
 30
0.0
 10
0.4193149606299213
 20
1.084531496062992
 30
0.0
 10
0.4193149606299213
 20
1.084531496062992
 30
0.0
 10
0.4154803149606299
 20
1.084531496062992
 30
0.0
 10
0.4154803149606299
 20
1.084531496062992
 30
0.0
 10
0.4154803149606299
 20
1.084531496062992
 30
0.0
 10
0.4154803149606299
 20
1.084531496062992
 30
0.0
 10
0.4154803149606299
 20
1.091448818897638
 30
0.0
 10
0.4154803149606299
 20
1.091448818897638
 30
0.0
  0
SPLINE
  5
71
330
1F
100
AcDbEntity
  8
LAYER_1
 62
   250
100
AcDbSpline
210
0.0
220
0.0
230
1.0
 70
    11
 71
     3
 72
    40
 73
    36
 74
     0
 42
0.0000000001
 43
0.0000000001
 40
0.0
 40
0.0
 40
0.0
 40
0.0
 40
0.1111111111111111
 40
0.1111111111111111
 40
0.1111111111111111
 40
0.1111111111111111
 40
0.2222222222222222
 40
0.2222222222222222
 40
0.2222222222222222
 40
0.2222222222222222
 40
0.3333333333333333
 40
0.3333333333333333
 40
0.3333333333333333
 40
0.3333333333333333
 40
0.4444444444444444
 40
0.4444444444444444
 40
0.4444444444444444
 40
0.4444444444444444
 40
0.5555555555555556
 40
0.5555555555555556
 40
0.5555555555555556
 40
0.5555555555555556
 40
0.6666666666666667
 40
0.6666666666666667
 40
0.6666666666666667
 40
0.6666666666666667
 40
0.7777777777777779
 40
0.7777777777777779
 40
0.7777777777777779
 40
0.7777777777777779
 40
0.8888888888888891
 40
0.8888888888888891
 40
0.8888888888888891
 40
0.8888888888888891
 40
1.0
 40
1.0
 40
1.0
 40
1.0
 10
0.4450393700787402
 20
1.08242125984252
 30
0.0
 10
0.4450393700787402
 20
1.08242125984252
 30
0.0
 10
0.4450393700787402
 20
1.040838582677165
 30
0.0
 10
0.4450393700787402
 20
1.040838582677165
 30
0.0
 10
0.4450393700787402
 20
1.040838582677165
 30
0.0
 10
0.4450393700787402
 20
1.040838582677165
 30
0.0
 10
0.4657874015748032
 20
1.040838582677165
 30
0.0
 10
0.4657874015748032
 20
1.040838582677165
 30
0.0
 10
0.4657874015748032
 20
1.040838582677165
 30
0.0
 10
0.4754803149606299
 20
1.040838582677165
 30
0.0
 10
0.4821496062992126
 20
1.041283464566929
 30
0.0
 10
0.4857047244094488
 20
1.042196850393701
 30
0.0
 10
0.4857047244094488
 20
1.042196850393701
 30
0.0
 10
0.4913149606299213
 20
1.043669291338583
 30
0.0
 10
0.4955629921259843
 20
1.046169291338583
 30
0.0
 10
0.4985354330708662
 20
1.049696850393701
 30
0.0
 10
0.4985354330708662
 20
1.049696850393701
 30
0.0
 10
0.50148031496063
 20
1.053224409448819
 30
0.0
 10
0.5029803149606299
 20
1.057755905511811
 30
0.0
 10
0.5029803149606299
 20
1.063283464566929
 30
0.0
 10
0.5029803149606299
 20
1.063283464566929
 30
0.0
 10
0.5029803149606299
 20
1.067948818897638
 30
0.0
 10
0.5016220472440945
 20
1.071838582677166
 30
0.0
 10
0.4989527559055118
 20
1.074976377952756
 30
0.0
 10
0.4989527559055118
 20
1.074976377952756
 30
0.0
 10
0.4962598425196851
 20
1.078086614173228
 30
0.0
 10
0.4926496062992126
 20
1.080224409448819
 30
0.0
 10
0.4881496062992126
 20
1.081366141732284
 30
0.0
 10
0.4881496062992126
 20
1.081366141732284
 30
0.0
 10
0.4852322834645669
 20
1.08205905511811
 30
0.0
 10
0.4791496062992126
 20
1.08242125984252
 30
0.0
 10
0.4699251968503937
 20
1.08242125984252
 30
0.0
 10
0.4699251968503937
 20
1.08242125984252
 30
0.0
 10
0.4699251968503937
 20
1.08242125984252
 30
0.0
 10
0.4450393700787402
 20
1.08242125984252
 30
0.0
 10
0.4450393700787402
 20
1.08242125984252
 30
0.0
  0
SPLINE
  5
72
330
1F
100
AcDbEntity
  8
LAYER_1
 62
   250
100
AcDbSpline
210
0.0
220
0.0
230
1.0
 70
    11
 71
     3
 72
    52
 73
    48
 74
     0
 42
0.0000000001
 43
0.0000000001
 40
0.0
 40
0.0
 40
0.0
 40
0.0
 40
0.0833333333333333
 40
0.0833333333333333
 40
0.0833333333333333
 40
0.0833333333333333
 40
0.1666666666666667
 40
0.1666666666666667
 40
0.1666666666666667
 40
0.1666666666666667
 40
0.25
 40
0.25
 40
0.25
 40
0.25
 40
0.3333333333333333
 40
0.3333333333333333
 40
0.3333333333333333
 40
0.3333333333333333
 40
0.4166666666666666
 40
0.4166666666666666
 40
0.4166666666666666
 40
0.4166666666666666
 40
0.4999999999999999
 40
0.4999999999999999
 40
0.4999999999999999
 40
0.4999999999999999
 40
0.5833333333333333
 40
0.5833333333333333
 40
0.5833333333333333
 40
0.5833333333333333
 40
0.6666666666666666
 40
0.6666666666666666
 40
0.6666666666666666
 40
0.6666666666666666
 40
0.75
 40
0.75
 40
0.75
 40
0.75
 40
0.8333333333333334
 40
0.8333333333333334
 40
0.8333333333333334
 40
0.8333333333333334
 40
0.9166666666666667
 40
0.9166666666666667
 40
0.9166666666666667
 40
0.9166666666666667
 40
1.0
 40
1.0
 40
1.0
 40
1.0
 10
0.4450393700787402
 20
1.033003937007874
 30
0.0
 10
0.4450393700787402
 20
1.033003937007874
 30
0.0
 10
0.4450393700787402
 20
0.995755905511811
 30
0.0
 10
0.4450393700787402
 20
0.995755905511811
 30
0.0
 10
0.4450393700787402
 20
0.995755905511811
 30
0.0
 10
0.4450393700787402
 20
0.992003937007874
 30
0.0
 10
0.4452047244094489
 20
0.9897834645669291
 30
0.0
 10
0.445507874015748
 20
0.9890590551181103
 30
0.0
 10
0.445507874015748
 20
0.9890590551181103
 30
0.0
 10
0.4459527559055118
 20
0.9880866141732284
 30
0.0
 10
0.4468149606299213
 20
0.9874212598425197
 30
0.0
 10
0.4481220472440945
 20
0.9870314960629921
 30
0.0
 10
0.4481220472440945
 20
0.9870314960629921
 30
0.0
 10
0.4490393700787402
 20
0.986755905511811
 30
0.0
 10
0.4516496062992126
 20
0.9866141732283466
 30
0.0
 10
0.4559251968503937
 20
0.9866141732283466
 30
0.0
 10
0.4559251968503937
 20
0.9866141732283466
 30
0.0
 10
0.4559251968503937
 20
0.9866141732283466
 30
0.0
 10
0.4670078740157481
 20
0.9866141732283466
 30
0.0
 10
0.4670078740157481
 20
0.9866141732283466
 30
0.0
 10
0.4670078740157481
 20
0.9866141732283466
 30
0.0
 10
0.4779527559055118
 20
0.9866141732283466
 30
0.0
 10
0.4857874015748032
 20
0.987228346456693
 30
0.0
 10
0.4904803149606299
 20
0.9884488188976378
 30
0.0
 10
0.4904803149606299
 20
0.9884488188976378
 30
0.0
 10
0.4951771653543307
 20
0.9896692913385827
 30
0.0
 10
0.4991771653543307
 20
0.9922559055118111
 30
0.0
 10
0.50248031496063
 20
0.9962007874015748
 30
0.0
 10
0.50248031496063
 20
0.9962007874015748
 30
0.0
 10
0.5057874015748032
 20
1.000114173228347
 30
0.0
 10
0.5074527559055119
 20
1.004866141732284
 30
0.0
 10
0.5074527559055119
 20
1.010393700787402
 30
0.0
 10
0.5074527559055119
 20
1.010393700787402
 30
0.0
 10
0.5074527559055119
 20
1.01505905511811
 30
0.0
 10
0.5060944881889764
 20
1.019196850393701
 30
0.0
 10
0.5034251968503938
 20
1.022811023622047
 30
0.0
 10
0.5034251968503938
 20
1.022811023622047
 30
0.0
 10
0.500732283464567
 20
1.02642125984252
 30
0.0
 10
0.497007874015748
 20
1.029003937007874
 30
0.0
 10
0.4922598425196851
 20
1.030614173228347
 30
0.0
 10
0.4922598425196851
 20
1.030614173228347
 30
0.0
 10
0.4875078740157481
 20
1.032228346456693
 30
0.0
 10
0.4790944881889764
 20
1.033003937007874
 30
0.0
 10
0.4670078740157481
 20
1.033003937007874
 30
0.0
 10
0.4670078740157481
 20
1.033003937007874
 30
0.0
 10
0.4670078740157481
 20
1.033003937007874
 30
0.0
 10
0.4450393700787402
 20
1.033003937007874
 30
0.0
 10
0.4450393700787402
 20
1.033003937007874
 30
0.0
  0
SPLINE
  5
73
330
1F
100
AcDbEntity
  8
LAYER_1
 62
   250
100
AcDbSpline
210
0.0
220
0.0
230
1.0
 70
    11
 71
     3
 72
   112
 73
   108
 74
     0
 42
0.0000000001
 43
0.0000000001
 40
0.0
 40
0.0
 40
0.0
 40
0.0
 40
0.037037037037037
 40
0.037037037037037
 40
0.037037037037037
 40
0.037037037037037
 40
0.0740740740740741
 40
0.0740740740740741
 40
0.0740740740740741
 40
0.0740740740740741
 40
0.1111111111111111
 40
0.1111111111111111
 40
0.1111111111111111
 40
0.1111111111111111
 40
0.1481481481481481
 40
0.1481481481481481
 40
0.1481481481481481
 40
0.1481481481481481
 40
0.1851851851851852
 40
0.1851851851851852
 40
0.1851851851851852
 40
0.1851851851851852
 40
0.2222222222222222
 40
0.2222222222222222
 40
0.2222222222222222
 40
0.2222222222222222
 40
0.2592592592592592
 40
0.2592592592592592
 40
0.2592592592592592
 40
0.2592592592592592
 40
0.2962962962962963
 40
0.2962962962962963
 40
0.2962962962962963
 40
0.2962962962962963
 40
0.3333333333333333
 40
0.3333333333333333
 40
0.3333333333333333
 40
0.3333333333333333
 40
0.3703703703703704
 40
0.3703703703703704
 40
0.3703703703703704
 40
0.3703703703703704
 40
0.4074074074074074
 40
0.4074074074074074
 40
0.4074074074074074
 40
0.4074074074074074
 40
0.4444444444444444
 40
0.4444444444444444
 40
0.4444444444444444
 40
0.4444444444444444
 40
0.4814814814814815
 40
0.4814814814814815
 40
0.4814814814814815
 40
0.4814814814814815
 40
0.5185185185185185
 40
0.5185185185185185
 40
0.5185185185185185
 40
0.5185185185185185
 40
0.5555555555555556
 40
0.5555555555555556
 40
0.5555555555555556
 40
0.5555555555555556
 40
0.5925925925925926
 40
0.5925925925925926
 40
0.5925925925925926
 40
0.5925925925925926
 40
0.6296296296296295
 40
0.6296296296296295
 40
0.6296296296296295
 40
0.6296296296296295
 40
0.6666666666666665
 40
0.6666666666666665
 40
0.6666666666666665
 40
0.6666666666666665
 40
0.7037037037037035
 40
0.7037037037037035
 40
0.7037037037037035
 40
0.7037037037037035
 40
0.7407407407407405
 40
0.7407407407407405
 40
0.7407407407407405
 40
0.7407407407407405
 40
0.7777777777777775
 40
0.7777777777777775
 40
0.7777777777777775
 40
0.7777777777777775
 40
0.8148148148148144
 40
0.8148148148148144
 40
0.8148148148148144
 40
0.8148148148148144
 40
0.8518518518518514
 40
0.8518518518518514
 40
0.8518518518518514
 40
0.8518518518518514
 40
0.8888888888888884
 40
0.8888888888888884
 40
0.8888888888888884
 40
0.8888888888888884
 40
0.9259259259259254
 40
0.9259259259259254
 40
0.9259259259259254
 40
0.9259259259259254
 40
0.9629629629629624
 40
0.9629629629629624
 40
0.9629629629629624
 40
0.9629629629629624
 40
1.0
 40
1.0
 40
1.0
 40
1.0
 10
0.5821456692913386
 20
1.091448818897638
 30
0.0
 10
0.5821456692913386
 20
1.091448818897638
 30
0.0
 10
0.5955629921259843
 20
1.091448818897638
 30
0.0
 10
0.5955629921259843
 20
1.091448818897638
 30
0.0
 10
0.5955629921259843
 20
1.091448818897638
 30
0.0
 10
0.5955629921259843
 20
1.091448818897638
 30
0.0
 10
0.6308110236220472
 20
0.9965590551181103
 30
0.0
 10
0.6308110236220472
 20
0.9965590551181103
 30
0.0
 10
0.6308110236220472
 20
0.9965590551181103
 30
0.0
 10
0.6325354330708661
 20
0.9917834645669291
 30
0.0
 10
0.6342834645669292
 20
0.9886141732283466
 30
0.0
 10
0.6360629921259843
 20
0.9870866141732284
 30
0.0
 10
0.6360629921259843
 20
0.9870866141732284
 30
0.0
 10
0.6378110236220472
 20
0.9855314960629922
 30
0.0
 10
0.6402007874015748
 20
0.984755905511811
 30
0.0
 10
0.6431732283464567
 20
0.984755905511811
 30
0.0
 10
0.6431732283464567
 20
0.984755905511811
 30
0.0
 10
0.6431732283464567
 20
0.984755905511811
 30
0.0
 10
0.6449527559055118
 20
0.984755905511811
 30
0.0
 10
0.6449527559055118
 20
0.984755905511811
 30
0.0
 10
0.6449527559055118
 20
0.984755905511811
 30
0.0
 10
0.6449527559055118
 20
0.984755905511811
 30
0.0
 10
0.6449527559055118
 20
0.9779212598425198
 30
0.0
 10
0.6449527559055118
 20
0.9779212598425198
 30
0.0
 10
0.6449527559055118
 20
0.9779212598425198
 30
0.0
 10
0.6449527559055118
 20
0.9779212598425198
 30
0.0
 10
0.604507874015748
 20
0.9779212598425198
 30
0.0
 10
0.604507874015748
 20
0.9779212598425198
 30
0.0
 10
0.604507874015748
 20
0.9779212598425198
 30
0.0
 10
0.604507874015748
 20
0.9779212598425198
 30
0.0
 10
0.604507874015748
 20
0.984755905511811
 30
0.0
 10
0.604507874015748
 20
0.984755905511811
 30
0.0
 10
0.604507874015748
 20
0.984755905511811
 30
0.0
 10
0.6058110236220473
 20
0.9848661417322835
 30
0.0
 10
0.6070905511811023
 20
0.9849212598425198
 30
0.0
 10
0.6083425196850394
 20
0.9849212598425198
 30
0.0
 10
0.6083425196850394
 20
0.9849212598425198
 30
0.0
 10
0.6109527559055118
 20
0.9849212598425198
 30
0.0
 10
0.6126456692913386
 20
0.9852007874015748
 30
0.0
 10
0.6134803149606299
 20
0.9857283464566929
 30
0.0
 10
0.6134803149606299
 20
0.9857283464566929
 30
0.0
 10
0.6150354330708662
 20
0.986755905511811
 30
0.0
 10
0.6158385826771654
 20
0.9880590551181103
 30
0.0
 10
0.6158385826771654
 20
0.9896417322834646
 30
0.0
 10
0.6158385826771654
 20
0.9896417322834646
 30
0.0
 10
0.6158385826771654
 20
0.9907834645669291
 30
0.0
 10
0.6150629921259843
 20
0.9935590551181103
 30
0.0
 10
0.6135629921259843
 20
0.9980314960629921
 30
0.0
 10
0.6135629921259843
 20
0.9980314960629921
 30
0.0
 10
0.6135629921259843
 20
0.9980314960629921
 30
0.0
 10
0.6060629921259843
 20
1.020003937007874
 30
0.0
 10
0.6060629921259843
 20
1.020003937007874
 30
0.0
 10
0.6060629921259843
 20
1.020003937007874
 30
0.0
 10
0.6060629921259843
 20
1.020003937007874
 30
0.0
 10
0.5648976377952756
 20
1.020003937007874
 30
0.0
 10
0.5648976377952756
 20
1.020003937007874
 30
0.0
 10
0.5648976377952756
 20
1.020003937007874
 30
0.0
 10
0.5648976377952756
 20
1.020003937007874
 30
0.0
 10
0.5560905511811024
 20
0.9954212598425197
 30
0.0
 10
0.5560905511811024
 20
0.9954212598425197
 30
0.0
 10
0.5560905511811024
 20
0.9954212598425197
 30
0.0
 10
0.5551732283464567
 20
0.9928661417322835
 30
0.0
 10
0.5547007874015748
 20
0.9911141732283465
 30
0.0
 10
0.5547007874015748
 20
0.9901141732283465
 30
0.0
 10
0.5547007874015748
 20
0.9901141732283465
 30
0.0
 10
0.5547007874015748
 20
0.9890314960629921
 30
0.0
 10
0.555007874015748
 20
0.9880866141732284
 30
0.0
 10
0.5555629921259843
 20
0.9872834645669292
 30
0.0
 10
0.5555629921259843
 20
0.9872834645669292
 30
0.0
 10
0.5561456692913386
 20
0.9864763779527559
 30
0.0
 10
0.5568976377952756
 20
0.9858661417322835
 30
0.0
 10
0.5578976377952756
 20
0.9854488188976378
 30
0.0
 10
0.5578976377952756
 20
0.9854488188976378
 30
0.0
 10
0.5588700787401575
 20
0.9850314960629921
 30
0.0
 10
0.5604251968503937
 20
0.9848385826771654
 30
0.0
 10
0.5626181102362206
 20
0.9848385826771654
 30
0.0
 10
0.5626181102362206
 20
0.9848385826771654
 30
0.0
 10
0.5640629921259843
 20
0.9848385826771654
 30
0.0
 10
0.565255905511811
 20
0.9848110236220473
 30
0.0
 10
0.5661732283464567
 20
0.984755905511811
 30
0.0
 10
0.5661732283464567
 20
0.984755905511811
 30
0.0
 10
0.5661732283464567
 20
0.984755905511811
 30
0.0
 10
0.5661732283464567
 20
0.9779212598425198
 30
0.0
 10
0.5661732283464567
 20
0.9779212598425198
 30
0.0
 10
0.5661732283464567
 20
0.9779212598425198
 30
0.0
 10
0.5661732283464567
 20
0.9779212598425198
 30
0.0
 10
0.532255905511811
 20
0.9779212598425198
 30
0.0
 10
0.532255905511811
 20
0.9779212598425198
 30
0.0
 10
0.532255905511811
 20
0.9779212598425198
 30
0.0
 10
0.532255905511811
 20
0.9779212598425198
 30
0.0
 10
0.532255905511811
 20
0.984755905511811
 30
0.0
 10
0.532255905511811
 20
0.984755905511811
 30
0.0
 10
0.532255905511811
 20
0.984755905511811
 30
0.0
 10
0.5353976377952756
 20
0.984755905511811
 30
0.0
 10
0.5376732283464567
 20
0.9850590551181103
 30
0.0
 10
0.5390354330708662
 20
0.9857007874015749
 30
0.0
 10
0.5390354330708662
 20
0.9857007874015749
 30
0.0
 10
0.5404251968503937
 20
0.9863110236220473
 30
0.0
 10
0.5416456692913386
 20
0.9873110236220473
 30
0.0
 10
0.5426732283464567
 20
0.9887007874015749
 30
0.0
 10
0.5426732283464567
 20
0.9887007874015749
 30
0.0
 10
0.5437007874015748
 20
0.9900866141732284
 30
0.0
 10
0.5450629921259843
 20
0.993003937007874
 30
0.0
 10
0.5467283464566929
 20
0.9974488188976378
 30
0.0
 10
0.5467283464566929
 20
0.9974488188976378
 30
0.0
 10
0.5467283464566929
 20
0.9974488188976378
 30
0.0
 10
0.5821456692913386
 20
1.091448818897638
 30
0.0
 10
0.5821456692913386
 20
1.091448818897638
 30
0.0
  0
SPLINE
  5
74
330
1F
100
AcDbEntity
  8
LAYER_1
 62
   250
100
AcDbSpline
210
0.0
220
0.0
230
1.0
 70
    11
 71
     3
 72
    16
 73
    12
 74
     0
 42
0.0000000001
 43
0.0000000001
 40
0.0
 40
0.0
 40
0.0
 40
0.0
 40
0.3333333333333333
 40
0.3333333333333333
 40
0.3333333333333333
 40
0.3333333333333333
 40
0.6666666666666666
 40
0.6666666666666666
 40
0.6666666666666666
 40
0.6666666666666666
 40
1.0
 40
1.0
 40
1.0
 40
1.0
 10
0.5678976377952756
 20
1.027976377952756
 30
0.0
 10
0.5678976377952756
 20
1.027976377952756
 30
0.0
 10
0.60298031496063
 20
1.027976377952756
 30
0.0
 10
0.60298031496063
 20
1.027976377952756
 30
0.0
 10
0.60298031496063
 20
1.027976377952756
 30
0.0
 10
0.60298031496063
 20
1.027976377952756
 30
0.0
 10
0.5853976377952757
 20
1.076811023622047
 30
0.0
 10
0.5853976377952757
 20
1.076811023622047
 30
0.0
 10
0.5853976377952757
 20
1.076811023622047
 30
0.0
 10
0.5853976377952757
 20
1.076811023622047
 30
0.0
 10
0.5678976377952756
 20
1.027976377952756
 30
0.0
 10
0.5678976377952756
 20
1.027976377952756
 30
0.0
  0
SPLINE
  5
75
330
1F
100
AcDbEntity
  8
LAYER_1
 62
   250
100
AcDbSpline
210
0.0
220
0.0
230
1.0
 70
    11
 71
     3
 72
    72
 73
    68
 74
     0
 42
0.0000000001
 43
0.0000000001
 40
0.0
 40
0.0
 40
0.0
 40
0.0
 40
0.0588235294117647
 40
0.0588235294117647
 40
0.0588235294117647
 40
0.0588235294117647
 40
0.1176470588235294
 40
0.1176470588235294
 40
0.1176470588235294
 40
0.1176470588235294
 40
0.1764705882352941
 40
0.1764705882352941
 40
0.1764705882352941
 40
0.1764705882352941
 40
0.2352941176470588
 40
0.2352941176470588
 40
0.2352941176470588
 40
0.2352941176470588
 40
0.2941176470588235
 40
0.2941176470588235
 40
0.2941176470588235
 40
0.2941176470588235
 40
0.3529411764705883
 40
0.3529411764705883
 40
0.3529411764705883
 40
0.3529411764705883
 40
0.411764705882353
 40
0.411764705882353
 40
0.411764705882353
 40
0.411764705882353
 40
0.4705882352941177
 40
0.4705882352941177
 40
0.4705882352941177
 40
0.4705882352941177
 40
0.5294117647058824
 40
0.5294117647058824
 40
0.5294117647058824
 40
0.5294117647058824
 40
0.5882352941176471
 40
0.5882352941176471
 40
0.5882352941176471
 40
0.5882352941176471
 40
0.6470588235294118
 40
0.6470588235294118
 40
0.6470588235294118
 40
0.6470588235294118
 40
0.7058823529411765
 40
0.7058823529411765
 40
0.7058823529411765
 40
0.7058823529411765
 40
0.7647058823529412
 40
0.7647058823529412
 40
0.7647058823529412
 40
0.7647058823529412
 40
0.823529411764706
 40
0.823529411764706
 40
0.823529411764706
 40
0.823529411764706
 40
0.8823529411764707
 40
0.8823529411764707
 40
0.8823529411764707
 40
0.8823529411764707
 40
0.9411764705882354
 40
0.9411764705882354
 40
0.9411764705882354
 40
0.9411764705882354
 40
1.0
 40
1.0
 40
1.0
 40
1.0
 10
0.8079803149606299
 20
1.091448818897638
 30
0.0
 10
0.8079803149606299
 20
1.091448818897638
 30
0.0
 10
0.8140629921259843
 20
1.091448818897638
 30
0.0
 10
0.8140629921259843
 20
1.091448818897638
 30
0.0
 10
0.8140629921259843
 20
1.091448818897638
 30
0.0
 10
0.8140629921259843
 20
1.091448818897638
 30
0.0
 10
0.8140629921259843
 20
0.9972007874015748
 30
0.0
 10
0.8140629921259843
 20
0.9972007874015748
 30
0.0
 10
0.8140629921259843
 20
0.9972007874015748
 30
0.0
 10
0.8140629921259843
 20
0.992755905511811
 30
0.0
 10
0.8143700787401575
 20
0.9898937007874016
 30
0.0
 10
0.8149251968503938
 20
0.9886141732283466
 30
0.0
 10
0.8149251968503938
 20
0.9886141732283466
 30
0.0
 10
0.8155078740157481
 20
0.9873385826771653
 30
0.0
 10
0.8164251968503937
 20
0.9863937007874016
 30
0.0
 10
0.8177283464566929
 20
0.9857283464566929
 30
0.0
 10
0.8177283464566929
 20
0.9857283464566929
 30
0.0
 10
0.8190354330708661
 20
0.9850866141732284
 30
0.0
 10
0.8216181102362206
 20
0.984755905511811
 30
0.0
 10
0.8254803149606299
 20
0.984755905511811
 30
0.0
 10
0.8254803149606299
 20
0.984755905511811
 30
0.0
 10
0.8254803149606299
 20
0.984755905511811
 30
0.0
 10
0.8334527559055118
 20
0.984755905511811
 30
0.0
 10
0.8334527559055118
 20
0.984755905511811
 30
0.0
 10
0.8334527559055118
 20
0.984755905511811
 30
0.0
 10
0.8334527559055118
 20
0.984755905511811
 30
0.0
 10
0.8334527559055118
 20
0.9779212598425198
 30
0.0
 10
0.8334527559055118
 20
0.9779212598425198
 30
0.0
 10
0.8334527559055118
 20
0.9779212598425198
 30
0.0
 10
0.8334527559055118
 20
0.9779212598425198
 30
0.0
 10
0.7798149606299213
 20
0.9779212598425198
 30
0.0
 10
0.7798149606299213
 20
0.9779212598425198
 30
0.0
 10
0.7798149606299213
 20
0.9779212598425198
 30
0.0
 10
0.7798149606299213
 20
0.9779212598425198
 30
0.0
 10
0.7798149606299213
 20
0.984755905511811
 30
0.0
 10
0.7798149606299213
 20
0.984755905511811
 30
0.0
 10
0.7798149606299213
 20
0.984755905511811
 30
0.0
 10
0.7798149606299213
 20
0.984755905511811
 30
0.0
 10
0.7886732283464567
 20
0.984755905511811
 30
0.0
 10
0.7886732283464567
 20
0.984755905511811
 30
0.0
 10
0.7886732283464567
 20
0.984755905511811
 30
0.0
 10
0.7925354330708662
 20
0.984755905511811
 30
0.0
 10
0.7950905511811024
 20
0.9850866141732284
 30
0.0
 10
0.7963700787401575
 20
0.9857834645669292
 30
0.0
 10
0.7963700787401575
 20
0.9857834645669292
 30
0.0
 10
0.7976456692913386
 20
0.9864488188976378
 30
0.0
 10
0.7986456692913386
 20
0.9875314960629922
 30
0.0
 10
0.7993425196850394
 20
0.9890314960629921
 30
0.0
 10
0.7993425196850394
 20
0.9890314960629921
 30
0.0
 10
0.8000354330708662
 20
0.9905314960629922
 30
0.0
 10
0.8003976377952756
 20
0.9932559055118111
 30
0.0
 10
0.8003976377952756
 20
0.9972007874015748
 30
0.0
 10
0.8003976377952756
 20
0.9972007874015748
 30
0.0
 10
0.8003976377952756
 20
0.9972007874015748
 30
0.0
 10
0.8003976377952756
 20
1.074669291338583
 30
0.0
 10
0.8003976377952756
 20
1.074669291338583
 30
0.0
 10
0.8003976377952756
 20
1.074669291338583
 30
0.0
 10
0.8003976377952756
 20
1.074669291338583
 30
0.0
 10
0.7798149606299213
 20
1.074669291338583
 30
0.0
 10
0.7798149606299213
 20
1.074669291338583
 30
0.0
 10
0.7798149606299213
 20
1.074669291338583
 30
0.0
 10
0.7798149606299213
 20
1.074669291338583
 30
0.0
 10
0.7798149606299213
 20
1.081669291338583
 30
0.0
 10
0.7798149606299213
 20
1.081669291338583
 30
0.0
 10
0.7798149606299213
 20
1.081669291338583
 30
0.0
 10
0.7910354330708662
 20
1.083251968503937
 30
0.0
 10
0.8004251968503937
 20
1.086503937007874
 30
0.0
 10
0.8079803149606299
 20
1.091448818897638
 30
0.0
  0
SPLINE
  5
76
330
1F
100
AcDbEntity
  8
LAYER_1
 62
   250
100
AcDbSpline
210
0.0
220
0.0
230
1.0
 70
    11
 71
     3
 72
    80
 73
    76
 74
     0
 42
0.0000000001
 43
0.0000000001
 40
0.0
 40
0.0
 40
0.0
 40
0.0
 40
0.0526315789473684
 40
0.0526315789473684
 40
0.0526315789473684
 40
0.0526315789473684
 40
0.1052631578947368
 40
0.1052631578947368
 40
0.1052631578947368
 40
0.1052631578947368
 40
0.1578947368421053
 40
0.1578947368421053
 40
0.1578947368421053
 40
0.1578947368421053
 40
0.2105263157894737
 40
0.2105263157894737
 40
0.2105263157894737
 40
0.2105263157894737
 40
0.2631578947368421
 40
0.2631578947368421
 40
0.2631578947368421
 40
0.2631578947368421
 40
0.3157894736842105
 40
0.3157894736842105
 40
0.3157894736842105
 40
0.3157894736842105
 40
0.3684210526315789
 40
0.3684210526315789
 40
0.3684210526315789
 40
0.3684210526315789
 40
0.4210526315789474
 40
0.4210526315789474
 40
0.4210526315789474
 40
0.4210526315789474
 40
0.4736842105263158
 40
0.4736842105263158
 40
0.4736842105263158
 40
0.4736842105263158
 40
0.5263157894736842
 40
0.5263157894736842
 40
0.5263157894736842
 40
0.5263157894736842
 40
0.5789473684210527
 40
0.5789473684210527
 40
0.5789473684210527
 40
0.5789473684210527
 40
0.631578947368421
 40
0.631578947368421
 40
0.631578947368421
 40
0.631578947368421
 40
0.6842105263157894
 40
0.6842105263157894
 40
0.6842105263157894
 40
0.6842105263157894
 40
0.7368421052631577
 40
0.7368421052631577
 40
0.7368421052631577
 40
0.7368421052631577
 40
0.7894736842105261
 40
0.7894736842105261
 40
0.7894736842105261
 40
0.7894736842105261
 40
0.8421052631578945
 40
0.8421052631578945
 40
0.8421052631578945
 40
0.8421052631578945
 40
0.8947368421052628
 40
0.8947368421052628
 40
0.8947368421052628
 40
0.8947368421052628
 40
0.9473684210526312
 40
0.9473684210526312
 40
0.9473684210526312
 40
0.9473684210526312
 40
1.0
 40
1.0
 40
1.0
 40
1.0
 10
0.8733976377952756
 20
1.095586614173228
 30
0.0
 10
0.8733976377952756
 20
1.095586614173228
 30
0.0
 10
0.8787874015748032
 20
1.095586614173228
 30
0.0
 10
0.8787874015748032
 20
1.095586614173228
 30
0.0
 10
0.8787874015748032
 20
1.095586614173228
 30
0.0
 10
0.8787874015748032
 20
1.095586614173228
 30
0.0
 10
0.8797598425196851
 20
1.091448818897638
 30
0.0
 10
0.8797598425196851
 20
1.091448818897638
 30
0.0
 10
0.8797598425196851
 20
1.091448818897638
 30
0.0
 10
0.8797598425196851
 20
1.091448818897638
 30
0.0
 10
0.9508700787401575
 20
1.091448818897638
 30
0.0
 10
0.9508700787401575
 20
1.091448818897638
 30
0.0
 10
0.9508700787401575
 20
1.091448818897638
 30
0.0
 10
0.9508700787401575
 20
1.091448818897638
 30
0.0
 10
0.9508700787401575
 20
1.084531496062992
 30
0.0
 10
0.9508700787401575
 20
1.084531496062992
 30
0.0
 10
0.9508700787401575
 20
1.084531496062992
 30
0.0
 10
0.9423700787401576
 20
1.074696850393701
 30
0.0
 10
0.9346456692913386
 20
1.063531496062992
 30
0.0
 10
0.9277322834645669
 20
1.050948818897638
 30
0.0
 10
0.9277322834645669
 20
1.050948818897638
 30
0.0
 10
0.9208149606299213
 20
1.038393700787402
 30
0.0
 10
0.9154527559055119
 20
1.025614173228347
 30
0.0
 10
0.9116456692913386
 20
1.012586614173229
 30
0.0
 10
0.9116456692913386
 20
1.012586614173229
 30
0.0
 10
0.9088976377952757
 20
1.003200787401575
 30
0.0
 10
0.9066496062992127
 20
0.9916417322834646
 30
0.0
 10
0.9048976377952757
 20
0.9779212598425198
 30
0.0
 10
0.9048976377952757
 20
0.9779212598425198
 30
0.0
 10
0.9048976377952757
 20
0.9779212598425198
 30
0.0
 10
0.888232283464567
 20
0.9779212598425198
 30
0.0
 10
0.888232283464567
 20
0.9779212598425198
 30
0.0
 10
0.888232283464567
 20
0.9779212598425198
 30
0.0
 10
0.8898425196850394
 20
0.9900314960629921
 30
0.0
 10
0.8925078740157481
 20
1.001338582677166
 30
0.0
 10
0.896232283464567
 20
1.011866141732283
 30
0.0
 10
0.896232283464567
 20
1.011866141732283
 30
0.0
 10
0.8999527559055118
 20
1.022393700787402
 30
0.0
 10
0.9053149606299213
 20
1.033393700787402
 30
0.0
 10
0.9123425196850394
 20
1.044866141732284
 30
0.0
 10
0.9123425196850394
 20
1.044866141732284
 30
0.0
 10
0.9193700787401575
 20
1.056338582677165
 30
0.0
 10
0.9278976377952757
 20
1.067783464566929
 30
0.0
 10
0.9379527559055119
 20
1.079224409448819
 30
0.0
 10
0.9379527559055119
 20
1.079224409448819
 30
0.0
 10
0.9379527559055119
 20
1.079224409448819
 30
0.0
 10
0.887232283464567
 20
1.079224409448819
 30
0.0
 10
0.887232283464567
 20
1.079224409448819
 30
0.0
 10
0.887232283464567
 20
1.079224409448819
 30
0.0
 10
0.8835629921259843
 20
1.079224409448819
 30
0.0
 10
0.8810354330708662
 20
1.07905905511811
 30
0.0
 10
0.8796771653543307
 20
1.078669291338583
 30
0.0
 10
0.8796771653543307
 20
1.078669291338583
 30
0.0
 10
0.8783149606299213
 20
1.078283464566929
 30
0.0
 10
0.877259842519685
 20
1.077696850393701
 30
0.0
 10
0.876507874015748
 20
1.076893700787402
 30
0.0
 10
0.876507874015748
 20
1.076893700787402
 30
0.0
 10
0.875732283464567
 20
1.07605905511811
 30
0.0
 10
0.8750905511811024
 20
1.074614173228347
 30
0.0
 10
0.8745354330708661
 20
1.07255905511811
 30
0.0
 10
0.8745354330708661
 20
1.07255905511811
 30
0.0
 10
0.8745354330708661
 20
1.07255905511811
 30
0.0
 10
0.8741496062992127
 20
1.071031496062992
 30
0.0
 10
0.8741496062992127
 20
1.071031496062992
 30
0.0
 10
0.8741496062992127
 20
1.071031496062992
 30
0.0
 10
0.8741496062992127
 20
1.071031496062992
 30
0.0
 10
0.8713700787401575
 20
1.06142125984252
 30
0.0
 10
0.8713700787401575
 20
1.06142125984252
 30
0.0
 10
0.8713700787401575
 20
1.06142125984252
 30
0.0
 10
0.8713700787401575
 20
1.06142125984252
 30
0.0
 10
0.8644527559055119
 20
1.062893700787402
 30
0.0
 10
0.8644527559055119
 20
1.062893700787402
 30
0.0
 10
0.8644527559055119
 20
1.062893700787402
 30
0.0
 10
0.8644527559055119
 20
1.062893700787402
 30
0.0
 10
0.8733976377952756
 20
1.095586614173228
 30
0.0
 10
0.8733976377952756
 20
1.095586614173228
 30
0.0
  0
SPLINE
  5
77
330
1F
100
AcDbEntity
  8
LAYER_1
 62
   250
100
AcDbSpline
210
0.0
220
0.0
230
1.0
 70
    11
 71
     3
 72
    80
 73
    76
 74
     0
 42
0.0000000001
 43
0.0000000001
 40
0.0
 40
0.0
 40
0.0
 40
0.0
 40
0.0526315789473684
 40
0.0526315789473684
 40
0.0526315789473684
 40
0.0526315789473684
 40
0.1052631578947368
 40
0.1052631578947368
 40
0.1052631578947368
 40
0.1052631578947368
 40
0.1578947368421053
 40
0.1578947368421053
 40
0.1578947368421053
 40
0.1578947368421053
 40
0.2105263157894737
 40
0.2105263157894737
 40
0.2105263157894737
 40
0.2105263157894737
 40
0.2631578947368421
 40
0.2631578947368421
 40
0.2631578947368421
 40
0.2631578947368421
 40
0.3157894736842105
 40
0.3157894736842105
 40
0.3157894736842105
 40
0.3157894736842105
 40
0.3684210526315789
 40
0.3684210526315789
 40
0.3684210526315789
 40
0.3684210526315789
 40
0.4210526315789474
 40
0.4210526315789474
 40
0.4210526315789474
 40
0.4210526315789474
 40
0.4736842105263158
 40
0.4736842105263158
 40
0.4736842105263158
 40
0.4736842105263158
 40
0.5263157894736842
 40
0.5263157894736842
 40
0.5263157894736842
 40
0.5263157894736842
 40
0.5789473684210527
 40
0.5789473684210527
 40
0.5789473684210527
 40
0.5789473684210527
 40
0.631578947368421
 40
0.631578947368421
 40
0.631578947368421
 40
0.631578947368421
 40
0.6842105263157894
 40
0.6842105263157894
 40
0.6842105263157894
 40
0.6842105263157894
 40
0.7368421052631577
 40
0.7368421052631577
 40
0.7368421052631577
 40
0.7368421052631577
 40
0.7894736842105261
 40
0.7894736842105261
 40
0.7894736842105261
 40
0.7894736842105261
 40
0.8421052631578945
 40
0.8421052631578945
 40
0.8421052631578945
 40
0.8421052631578945
 40
0.8947368421052628
 40
0.8947368421052628
 40
0.8947368421052628
 40
0.8947368421052628
 40
0.9473684210526312
 40
0.9473684210526312
 40
0.9473684210526312
 40
0.9473684210526312
 40
1.0
 40
1.0
 40
1.0
 40
1.0
 10
0.9767598425196851
 20
1.095586614173228
 30
0.0
 10
0.9767598425196851
 20
1.095586614173228
 30
0.0
 10
0.9821496062992127
 20
1.095586614173228
 30
0.0
 10
0.9821496062992127
 20
1.095586614173228
 30
0.0
 10
0.9821496062992127
 20
1.095586614173228
 30
0.0
 10
0.9821496062992127
 20
1.095586614173228
 30
0.0
 10
0.9831220472440946
 20
1.091448818897638
 30
0.0
 10
0.9831220472440946
 20
1.091448818897638
 30
0.0
 10
0.9831220472440946
 20
1.091448818897638
 30
0.0
 10
0.9831220472440946
 20
1.091448818897638
 30
0.0
 10
1.054232283464567
 20
1.091448818897638
 30
0.0
 10
1.054232283464567
 20
1.091448818897638
 30
0.0
 10
1.054232283464567
 20
1.091448818897638
 30
0.0
 10
1.054232283464567
 20
1.091448818897638
 30
0.0
 10
1.054232283464567
 20
1.084531496062992
 30
0.0
 10
1.054232283464567
 20
1.084531496062992
 30
0.0
 10
1.054232283464567
 20
1.084531496062992
 30
0.0
 10
1.045732283464567
 20
1.074696850393701
 30
0.0
 10
1.038007874015748
 20
1.063531496062992
 30
0.0
 10
1.031094488188976
 20
1.050948818897638
 30
0.0
 10
1.031094488188976
 20
1.050948818897638
 30
0.0
 10
1.024177165354331
 20
1.038393700787402
 30
0.0
 10
1.018814960629921
 20
1.025614173228347
 30
0.0
 10
1.015007874015748
 20
1.012586614173229
 30
0.0
 10
1.015007874015748
 20
1.012586614173229
 30
0.0
 10
1.012259842519685
 20
1.003200787401575
 30
0.0
 10
1.010011811023622
 20
0.9916417322834646
 30
0.0
 10
1.008259842519685
 20
0.9779212598425198
 30
0.0
 10
1.008259842519685
 20
0.9779212598425198
 30
0.0
 10
1.008259842519685
 20
0.9779212598425198
 30
0.0
 10
0.9915944881889764
 20
0.9779212598425198
 30
0.0
 10
0.9915944881889764
 20
0.9779212598425198
 30
0.0
 10
0.9915944881889764
 20
0.9779212598425198
 30
0.0
 10
0.9932047244094489
 20
0.9900314960629921
 30
0.0
 10
0.9958700787401575
 20
1.001338582677166
 30
0.0
 10
0.9995944881889765
 20
1.011866141732283
 30
0.0
 10
0.9995944881889765
 20
1.011866141732283
 30
0.0
 10
1.003314960629921
 20
1.022393700787402
 30
0.0
 10
1.008677165354331
 20
1.033393700787402
 30
0.0
 10
1.015704724409449
 20
1.044866141732284
 30
0.0
 10
1.015704724409449
 20
1.044866141732284
 30
0.0
 10
1.022732283464567
 20
1.056338582677165
 30
0.0
 10
1.031259842519685
 20
1.067783464566929
 30
0.0
 10
1.041314960629921
 20
1.079224409448819
 30
0.0
 10
1.041314960629921
 20
1.079224409448819
 30
0.0
 10
1.041314960629921
 20
1.079224409448819
 30
0.0
 10
0.9905944881889764
 20
1.079224409448819
 30
0.0
 10
0.9905944881889764
 20
1.079224409448819
 30
0.0
 10
0.9905944881889764
 20
1.079224409448819
 30
0.0
 10
0.9869251968503937
 20
1.079224409448819
 30
0.0
 10
0.9843976377952757
 20
1.07905905511811
 30
0.0
 10
0.9830393700787402
 20
1.078669291338583
 30
0.0
 10
0.9830393700787402
 20
1.078669291338583
 30
0.0
 10
0.9816771653543307
 20
1.078283464566929
 30
0.0
 10
0.9806220472440945
 20
1.077696850393701
 30
0.0
 10
0.9798700787401575
 20
1.076893700787402
 30
0.0
 10
0.9798700787401575
 20
1.076893700787402
 30
0.0
 10
0.9790944881889764
 20
1.07605905511811
 30
0.0
 10
0.9784527559055118
 20
1.074614173228347
 30
0.0
 10
0.9778976377952756
 20
1.07255905511811
 30
0.0
 10
0.9778976377952756
 20
1.07255905511811
 30
0.0
 10
0.9778976377952756
 20
1.07255905511811
 30
0.0
 10
0.9775118110236221
 20
1.071031496062992
 30
0.0
 10
0.9775118110236221
 20
1.071031496062992
 30
0.0
 10
0.9775118110236221
 20
1.071031496062992
 30
0.0
 10
0.9775118110236221
 20
1.071031496062992
 30
0.0
 10
0.974732283464567
 20
1.06142125984252
 30
0.0
 10
0.974732283464567
 20
1.06142125984252
 30
0.0
 10
0.974732283464567
 20
1.06142125984252
 30
0.0
 10
0.974732283464567
 20
1.06142125984252
 30
0.0
 10
0.9678149606299213
 20
1.062893700787402
 30
0.0
 10
0.9678149606299213
 20
1.062893700787402
 30
0.0
 10
0.9678149606299213
 20
1.062893700787402
 30
0.0
 10
0.9678149606299213
 20
1.062893700787402
 30
0.0
 10
0.9767598425196851
 20
1.095586614173228
 30
0.0
 10
0.9767598425196851
 20
1.095586614173228
 30
0.0
  0
SPLINE
  5
78
330
1F
100
AcDbEntity
  8
LAYER_1
 62
   250
100
AcDbSpline
210
0.0
220
0.0
230
1.0
 70
    11
 71
     3
 72
    72
 73
    68
 74
     0
 42
0.0000000001
 43
0.0000000001
 40
0.0
 40
0.0
 40
0.0
 40
0.0
 40
0.0588235294117647
 40
0.0588235294117647
 40
0.0588235294117647
 40
0.0588235294117647
 40
0.1176470588235294
 40
0.1176470588235294
 40
0.1176470588235294
 40
0.1176470588235294
 40
0.1764705882352941
 40
0.1764705882352941
 40
0.1764705882352941
 40
0.1764705882352941
 40
0.2352941176470588
 40
0.2352941176470588
 40
0.2352941176470588
 40
0.2352941176470588
 40
0.2941176470588235
 40
0.2941176470588235
 40
0.2941176470588235
 40
0.2941176470588235
 40
0.3529411764705883
 40
0.3529411764705883
 40
0.3529411764705883
 40
0.3529411764705883
 40
0.411764705882353
 40
0.411764705882353
 40
0.411764705882353
 40
0.411764705882353
 40
0.4705882352941177
 40
0.4705882352941177
 40
0.4705882352941177
 40
0.4705882352941177
 40
0.5294117647058824
 40
0.5294117647058824
 40
0.5294117647058824
 40
0.5294117647058824
 40
0.5882352941176471
 40
0.5882352941176471
 40
0.5882352941176471
 40
0.5882352941176471
 40
0.6470588235294118
 40
0.6470588235294118
 40
0.6470588235294118
 40
0.6470588235294118
 40
0.7058823529411765
 40
0.7058823529411765
 40
0.7058823529411765
 40
0.7058823529411765
 40
0.7647058823529412
 40
0.7647058823529412
 40
0.7647058823529412
 40
0.7647058823529412
 40
0.823529411764706
 40
0.823529411764706
 40
0.823529411764706
 40
0.823529411764706
 40
0.8823529411764707
 40
0.8823529411764707
 40
0.8823529411764707
 40
0.8823529411764707
 40
0.9411764705882354
 40
0.9411764705882354
 40
0.9411764705882354
 40
0.9411764705882354
 40
1.0
 40
1.0
 40
1.0
 40
1.0
 10
1.118066929133858
 20
1.091448818897638
 30
0.0
 10
1.118066929133858
 20
1.091448818897638
 30
0.0
 10
1.124149606299213
 20
1.091448818897638
 30
0.0
 10
1.124149606299213
 20
1.091448818897638
 30
0.0
 10
1.124149606299213
 20
1.091448818897638
 30
0.0
 10
1.124149606299213
 20
1.091448818897638
 30
0.0
 10
1.124149606299213
 20
0.9972007874015748
 30
0.0
 10
1.124149606299213
 20
0.9972007874015748
 30
0.0
 10
1.124149606299213
 20
0.9972007874015748
 30
0.0
 10
1.124149606299213
 20
0.992755905511811
 30
0.0
 10
1.124456692913386
 20
0.9898937007874016
 30
0.0
 10
1.125011811023622
 20
0.9886141732283466
 30
0.0
 10
1.125011811023622
 20
0.9886141732283466
 30
0.0
 10
1.125594488188976
 20
0.9873385826771653
 30
0.0
 10
1.126511811023622
 20
0.9863937007874016
 30
0.0
 10
1.127814960629921
 20
0.9857283464566929
 30
0.0
 10
1.127814960629921
 20
0.9857283464566929
 30
0.0
 10
1.129122047244095
 20
0.9850866141732284
 30
0.0
 10
1.131704724409449
 20
0.984755905511811
 30
0.0
 10
1.135566929133858
 20
0.984755905511811
 30
0.0
 10
1.135566929133858
 20
0.984755905511811
 30
0.0
 10
1.135566929133858
 20
0.984755905511811
 30
0.0
 10
1.14353937007874
 20
0.984755905511811
 30
0.0
 10
1.14353937007874
 20
0.984755905511811
 30
0.0
 10
1.14353937007874
 20
0.984755905511811
 30
0.0
 10
1.14353937007874
 20
0.984755905511811
 30
0.0
 10
1.14353937007874
 20
0.9779212598425198
 30
0.0
 10
1.14353937007874
 20
0.9779212598425198
 30
0.0
 10
1.14353937007874
 20
0.9779212598425198
 30
0.0
 10
1.14353937007874
 20
0.9779212598425198
 30
0.0
 10
1.08990157480315
 20
0.9779212598425198
 30
0.0
 10
1.08990157480315
 20
0.9779212598425198
 30
0.0
 10
1.08990157480315
 20
0.9779212598425198
 30
0.0
 10
1.08990157480315
 20
0.9779212598425198
 30
0.0
 10
1.08990157480315
 20
0.984755905511811
 30
0.0
 10
1.08990157480315
 20
0.984755905511811
 30
0.0
 10
1.08990157480315
 20
0.984755905511811
 30
0.0
 10
1.08990157480315
 20
0.984755905511811
 30
0.0
 10
1.098759842519685
 20
0.984755905511811
 30
0.0
 10
1.098759842519685
 20
0.984755905511811
 30
0.0
 10
1.098759842519685
 20
0.984755905511811
 30
0.0
 10
1.102622047244095
 20
0.984755905511811
 30
0.0
 10
1.105177165354331
 20
0.9850866141732284
 30
0.0
 10
1.106456692913386
 20
0.9857834645669292
 30
0.0
 10
1.106456692913386
 20
0.9857834645669292
 30
0.0
 10
1.107732283464567
 20
0.9864488188976378
 30
0.0
 10
1.108732283464567
 20
0.9875314960629922
 30
0.0
 10
1.109429133858268
 20
0.9890314960629921
 30
0.0
 10
1.109429133858268
 20
0.9890314960629921
 30
0.0
 10
1.110122047244095
 20
0.9905314960629922
 30
0.0
 10
1.110484251968504
 20
0.9932559055118111
 30
0.0
 10
1.110484251968504
 20
0.9972007874015748
 30
0.0
 10
1.110484251968504
 20
0.9972007874015748
 30
0.0
 10
1.110484251968504
 20
0.9972007874015748
 30
0.0
 10
1.110484251968504
 20
1.074669291338583
 30
0.0
 10
1.110484251968504
 20
1.074669291338583
 30
0.0
 10
1.110484251968504
 20
1.074669291338583
 30
0.0
 10
1.110484251968504
 20
1.074669291338583
 30
0.0
 10
1.08990157480315
 20
1.074669291338583
 30
0.0
 10
1.08990157480315
 20
1.074669291338583
 30
0.0
 10
1.08990157480315
 20
1.074669291338583
 30
0.0
 10
1.08990157480315
 20
1.074669291338583
 30
0.0
 10
1.08990157480315
 20
1.081669291338583
 30
0.0
 10
1.08990157480315
 20
1.081669291338583
 30
0.0
 10
1.08990157480315
 20
1.081669291338583
 30
0.0
 10
1.101122047244095
 20
1.083251968503937
 30
0.0
 10
1.110511811023622
 20
1.086503937007874
 30
0.0
 10
1.118066929133858
 20
1.091448818897638
 30
0.0
  0
SPLINE
  5
79
330
1F
100
AcDbEntity
  8
LAYER_1
 62
   250
100
AcDbSpline
210
0.0
220
0.0
230
1.0
 70
    11
 71
     3
 72
    80
 73
    76
 74
     0
 42
0.0000000001
 43
0.0000000001
 40
0.0
 40
0.0
 40
0.0
 40
0.0
 40
0.0526315789473684
 40
0.0526315789473684
 40
0.0526315789473684
 40
0.0526315789473684
 40
0.1052631578947368
 40
0.1052631578947368
 40
0.1052631578947368
 40
0.1052631578947368
 40
0.1578947368421053
 40
0.1578947368421053
 40
0.1578947368421053
 40
0.1578947368421053
 40
0.2105263157894737
 40
0.2105263157894737
 40
0.2105263157894737
 40
0.2105263157894737
 40
0.2631578947368421
 40
0.2631578947368421
 40
0.2631578947368421
 40
0.2631578947368421
 40
0.3157894736842105
 40
0.3157894736842105
 40
0.3157894736842105
 40
0.3157894736842105
 40
0.3684210526315789
 40
0.3684210526315789
 40
0.3684210526315789
 40
0.3684210526315789
 40
0.4210526315789474
 40
0.4210526315789474
 40
0.4210526315789474
 40
0.4210526315789474
 40
0.4736842105263158
 40
0.4736842105263158
 40
0.4736842105263158
 40
0.4736842105263158
 40
0.5263157894736842
 40
0.5263157894736842
 40
0.5263157894736842
 40
0.5263157894736842
 40
0.5789473684210527
 40
0.5789473684210527
 40
0.5789473684210527
 40
0.5789473684210527
 40
0.631578947368421
 40
0.631578947368421
 40
0.631578947368421
 40
0.631578947368421
 40
0.6842105263157894
 40
0.6842105263157894
 40
0.6842105263157894
 40
0.6842105263157894
 40
0.7368421052631577
 40
0.7368421052631577
 40
0.7368421052631577
 40
0.7368421052631577
 40
0.7894736842105261
 40
0.7894736842105261
 40
0.7894736842105261
 40
0.7894736842105261
 40
0.8421052631578945
 40
0.8421052631578945
 40
0.8421052631578945
 40
0.8421052631578945
 40
0.8947368421052628
 40
0.8947368421052628
 40
0.8947368421052628
 40
0.8947368421052628
 40
0.9473684210526312
 40
0.9473684210526312
 40
0.9473684210526312
 40
0.9473684210526312
 40
1.0
 40
1.0
 40
1.0
 40
1.0
 10
0.1434133858267717
 20
0.9080866141732283
 30
0.0
 10
0.1434133858267717
 20
0.9080866141732283
 30
0.0
 10
0.1488031496062992
 20
0.9080866141732283
 30
0.0
 10
0.1488031496062992
 20
0.9080866141732283
 30
0.0
 10
0.1488031496062992
 20
0.9080866141732283
 30
0.0
 10
0.1488031496062992
 20
0.9080866141732283
 30
0.0
 10
0.1497755905511811
 20
0.9039488188976378
 30
0.0
 10
0.1497755905511811
 20
0.9039488188976378
 30
0.0
 10
0.1497755905511811
 20
0.9039488188976378
 30
0.0
 10
0.1497755905511811
 20
0.9039488188976378
 30
0.0
 10
0.2208858267716536
 20
0.9039488188976378
 30
0.0
 10
0.2208858267716536
 20
0.9039488188976378
 30
0.0
 10
0.2208858267716536
 20
0.9039488188976378
 30
0.0
 10
0.2208858267716536
 20
0.9039488188976378
 30
0.0
 10
0.2208858267716536
 20
0.8970314960629922
 30
0.0
 10
0.2208858267716536
 20
0.8970314960629922
 30
0.0
 10
0.2208858267716536
 20
0.8970314960629922
 30
0.0
 10
0.2123858267716536
 20
0.8871968503937008
 30
0.0
 10
0.2046614173228347
 20
0.8760314960629921
 30
0.0
 10
0.197748031496063
 20
0.8634488188976378
 30
0.0
 10
0.197748031496063
 20
0.8634488188976378
 30
0.0
 10
0.1908307086614173
 20
0.8508937007874016
 30
0.0
 10
0.1854685039370079
 20
0.8381141732283465
 30
0.0
 10
0.1816614173228346
 20
0.8250866141732284
 30
0.0
 10
0.1816614173228346
 20
0.8250866141732284
 30
0.0
 10
0.1789133858267717
 20
0.8157007874015748
 30
0.0
 10
0.1766653543307087
 20
0.8041417322834646
 30
0.0
 10
0.1749133858267717
 20
0.7904212598425198
 30
0.0
 10
0.1749133858267717
 20
0.7904212598425198
 30
0.0
 10
0.1749133858267717
 20
0.7904212598425198
 30
0.0
 10
0.158248031496063
 20
0.7904212598425198
 30
0.0
 10
0.158248031496063
 20
0.7904212598425198
 30
0.0
 10
0.158248031496063
 20
0.7904212598425198
 30
0.0
 10
0.1598582677165354
 20
0.8025314960629921
 30
0.0
 10
0.1625236220472441
 20
0.8138385826771654
 30
0.0
 10
0.166248031496063
 20
0.8243661417322835
 30
0.0
 10
0.166248031496063
 20
0.8243661417322835
 30
0.0
 10
0.1699685039370079
 20
0.8348937007874017
 30
0.0
 10
0.1753307086614173
 20
0.8458937007874016
 30
0.0
 10
0.1823582677165354
 20
0.8573661417322835
 30
0.0
 10
0.1823582677165354
 20
0.8573661417322835
 30
0.0
 10
0.1893858267716536
 20
0.8688385826771654
 30
0.0
 10
0.1979133858267717
 20
0.8802834645669292
 30
0.0
 10
0.2079685039370079
 20
0.8917244094488189
 30
0.0
 10
0.2079685039370079
 20
0.8917244094488189
 30
0.0
 10
0.2079685039370079
 20
0.8917244094488189
 30
0.0
 10
0.157248031496063
 20
0.8917244094488189
 30
0.0
 10
0.157248031496063
 20
0.8917244094488189
 30
0.0
 10
0.157248031496063
 20
0.8917244094488189
 30
0.0
 10
0.1535787401574803
 20
0.8917244094488189
 30
0.0
 10
0.1510511811023622
 20
0.8915590551181103
 30
0.0
 10
0.1496929133858268
 20
0.8911692913385827
 30
0.0
 10
0.1496929133858268
 20
0.8911692913385827
 30
0.0
 10
0.1483307086614173
 20
0.8907834645669291
 30
0.0
 10
0.1472755905511811
 20
0.8901968503937008
 30
0.0
 10
0.1465236220472441
 20
0.8893937007874017
 30
0.0
 10
0.1465236220472441
 20
0.8893937007874017
 30
0.0
 10
0.145748031496063
 20
0.8885590551181103
 30
0.0
 10
0.1451062992125984
 20
0.8871141732283465
 30
0.0
 10
0.1445511811023622
 20
0.8850590551181102
 30
0.0
 10
0.1445511811023622
 20
0.8850590551181102
 30
0.0
 10
0.1445511811023622
 20
0.8850590551181102
 30
0.0
 10
0.1441653543307087
 20
0.8835314960629922
 30
0.0
 10
0.1441653543307087
 20
0.8835314960629922
 30
0.0
 10
0.1441653543307087
 20
0.8835314960629922
 30
0.0
 10
0.1441653543307087
 20
0.8835314960629922
 30
0.0
 10
0.1413858267716535
 20
0.8739212598425197
 30
0.0
 10
0.1413858267716535
 20
0.8739212598425197
 30
0.0
 10
0.1413858267716535
 20
0.8739212598425197
 30
0.0
 10
0.1413858267716535
 20
0.8739212598425197
 30
0.0
 10
0.1344685039370079
 20
0.8753937007874016
 30
0.0
 10
0.1344685039370079
 20
0.8753937007874016
 30
0.0
 10
0.1344685039370079
 20
0.8753937007874016
 30
0.0
 10
0.1344685039370079
 20
0.8753937007874016
 30
0.0
 10
0.1434133858267717
 20
0.9080866141732283
 30
0.0
 10
0.1434133858267717
 20
0.9080866141732283
 30
0.0
  0
SPLINE
  5
7A
330
1F
100
AcDbEntity
  8
LAYER_1
 62
   250
100
AcDbSpline
210
0.0
220
0.0
230
1.0
 70
    11
 71
     3
 72
    20
 73
    16
 74
     0
 42
0.0000000001
 43
0.0000000001
 40
0.0
 40
0.0
 40
0.0
 40
0.0
 40
0.25
 40
0.25
 40
0.25
 40
0.25
 40
0.5
 40
0.5
 40
0.5
 40
0.5
 40
0.75
 40
0.75
 40
0.75
 40
0.75
 40
1.0
 40
1.0
 40
1.0
 40
1.0
 10
0.3101929133858268
 20
0.9098110236220472
 30
0.0
 10
0.3101929133858268
 20
0.9098110236220472
 30
0.0
 10
0.2546102362204725
 20
0.7541141732283465
 30
0.0
 10
0.2546102362204725
 20
0.7541141732283465
 30
0.0
 10
0.2546102362204725
 20
0.7541141732283465
 30
0.0
 10
0.2546102362204725
 20
0.7541141732283465
 30
0.0
 10
0.2425551181102362
 20
0.7541141732283465
 30
0.0
 10
0.2425551181102362
 20
0.7541141732283465
 30
0.0
 10
0.2425551181102362
 20
0.7541141732283465
 30
0.0
 10
0.2425551181102362
 20
0.7541141732283465
 30
0.0
 10
0.2978031496062992
 20
0.9098110236220472
 30
0.0
 10
0.2978031496062992
 20
0.9098110236220472
 30
0.0
 10
0.2978031496062992
 20
0.9098110236220472
 30
0.0
 10
0.2978031496062992
 20
0.9098110236220472
 30
0.0
 10
0.3101929133858268
 20
0.9098110236220472
 30
0.0
 10
0.3101929133858268
 20
0.9098110236220472
 30
0.0
  0
SPLINE
  5
7B
330
1F
100
AcDbEntity
  8
LAYER_1
 62
   250
100
AcDbSpline
210
0.0
220
0.0
230
1.0
 70
    11
 71
     3
 72
    72
 73
    68
 74
     0
 42
0.0000000001
 43
0.0000000001
 40
0.0
 40
0.0
 40
0.0
 40
0.0
 40
0.0588235294117647
 40
0.0588235294117647
 40
0.0588235294117647
 40
0.0588235294117647
 40
0.1176470588235294
 40
0.1176470588235294
 40
0.1176470588235294
 40
0.1176470588235294
 40
0.1764705882352941
 40
0.1764705882352941
 40
0.1764705882352941
 40
0.1764705882352941
 40
0.2352941176470588
 40
0.2352941176470588
 40
0.2352941176470588
 40
0.2352941176470588
 40
0.2941176470588235
 40
0.2941176470588235
 40
0.2941176470588235
 40
0.2941176470588235
 40
0.3529411764705883
 40
0.3529411764705883
 40
0.3529411764705883
 40
0.3529411764705883
 40
0.411764705882353
 40
0.411764705882353
 40
0.411764705882353
 40
0.411764705882353
 40
0.4705882352941177
 40
0.4705882352941177
 40
0.4705882352941177
 40
0.4705882352941177
 40
0.5294117647058824
 40
0.5294117647058824
 40
0.5294117647058824
 40
0.5294117647058824
 40
0.5882352941176471
 40
0.5882352941176471
 40
0.5882352941176471
 40
0.5882352941176471
 40
0.6470588235294118
 40
0.6470588235294118
 40
0.6470588235294118
 40
0.6470588235294118
 40
0.7058823529411765
 40
0.7058823529411765
 40
0.7058823529411765
 40
0.7058823529411765
 40
0.7647058823529412
 40
0.7647058823529412
 40
0.7647058823529412
 40
0.7647058823529412
 40
0.823529411764706
 40
0.823529411764706
 40
0.823529411764706
 40
0.823529411764706
 40
0.8823529411764707
 40
0.8823529411764707
 40
0.8823529411764707
 40
0.8823529411764707
 40
0.9411764705882354
 40
0.9411764705882354
 40
0.9411764705882354
 40
0.9411764705882354
 40
1.0
 40
1.0
 40
1.0
 40
1.0
 10
0.384748031496063
 20
0.9039488188976378
 30
0.0
 10
0.384748031496063
 20
0.9039488188976378
 30
0.0
 10
0.3908307086614173
 20
0.9039488188976378
 30
0.0
 10
0.3908307086614173
 20
0.9039488188976378
 30
0.0
 10
0.3908307086614173
 20
0.9039488188976378
 30
0.0
 10
0.3908307086614173
 20
0.9039488188976378
 30
0.0
 10
0.3908307086614173
 20
0.8097007874015748
 30
0.0
 10
0.3908307086614173
 20
0.8097007874015748
 30
0.0
 10
0.3908307086614173
 20
0.8097007874015748
 30
0.0
 10
0.3908307086614173
 20
0.805255905511811
 30
0.0
 10
0.3911377952755906
 20
0.8023937007874016
 30
0.0
 10
0.3916929133858268
 20
0.8011141732283464
 30
0.0
 10
0.3916929133858268
 20
0.8011141732283464
 30
0.0
 10
0.3922755905511811
 20
0.7998385826771653
 30
0.0
 10
0.3931929133858268
 20
0.7988937007874016
 30
0.0
 10
0.394496062992126
 20
0.7982283464566929
 30
0.0
 10
0.394496062992126
 20
0.7982283464566929
 30
0.0
 10
0.3958031496062993
 20
0.7975866141732284
 30
0.0
 10
0.3983858267716536
 20
0.797255905511811
 30
0.0
 10
0.402248031496063
 20
0.797255905511811
 30
0.0
 10
0.402248031496063
 20
0.797255905511811
 30
0.0
 10
0.402248031496063
 20
0.797255905511811
 30
0.0
 10
0.4102204724409449
 20
0.797255905511811
 30
0.0
 10
0.4102204724409449
 20
0.797255905511811
 30
0.0
 10
0.4102204724409449
 20
0.797255905511811
 30
0.0
 10
0.4102204724409449
 20
0.797255905511811
 30
0.0
 10
0.4102204724409449
 20
0.7904212598425198
 30
0.0
 10
0.4102204724409449
 20
0.7904212598425198
 30
0.0
 10
0.4102204724409449
 20
0.7904212598425198
 30
0.0
 10
0.4102204724409449
 20
0.7904212598425198
 30
0.0
 10
0.3565826771653544
 20
0.7904212598425198
 30
0.0
 10
0.3565826771653544
 20
0.7904212598425198
 30
0.0
 10
0.3565826771653544
 20
0.7904212598425198
 30
0.0
 10
0.3565826771653544
 20
0.7904212598425198
 30
0.0
 10
0.3565826771653544
 20
0.797255905511811
 30
0.0
 10
0.3565826771653544
 20
0.797255905511811
 30
0.0
 10
0.3565826771653544
 20
0.797255905511811
 30
0.0
 10
0.3565826771653544
 20
0.797255905511811
 30
0.0
 10
0.3654409448818898
 20
0.797255905511811
 30
0.0
 10
0.3654409448818898
 20
0.797255905511811
 30
0.0
 10
0.3654409448818898
 20
0.797255905511811
 30
0.0
 10
0.3693031496062992
 20
0.797255905511811
 30
0.0
 10
0.3718582677165355
 20
0.7975866141732284
 30
0.0
 10
0.3731377952755905
 20
0.7982834645669291
 30
0.0
 10
0.3731377952755905
 20
0.7982834645669291
 30
0.0
 10
0.3744133858267717
 20
0.7989488188976378
 30
0.0
 10
0.3754133858267717
 20
0.8000314960629922
 30
0.0
 10
0.3761102362204725
 20
0.8015314960629921
 30
0.0
 10
0.3761102362204725
 20
0.8015314960629921
 30
0.0
 10
0.3768031496062992
 20
0.8030314960629922
 30
0.0
 10
0.3771653543307087
 20
0.8057559055118111
 30
0.0
 10
0.3771653543307087
 20
0.8097007874015748
 30
0.0
 10
0.3771653543307087
 20
0.8097007874015748
 30
0.0
 10
0.3771653543307087
 20
0.8097007874015748
 30
0.0
 10
0.3771653543307087
 20
0.8871692913385827
 30
0.0
 10
0.3771653543307087
 20
0.8871692913385827
 30
0.0
 10
0.3771653543307087
 20
0.8871692913385827
 30
0.0
 10
0.3771653543307087
 20
0.8871692913385827
 30
0.0
 10
0.3565826771653544
 20
0.8871692913385827
 30
0.0
 10
0.3565826771653544
 20
0.8871692913385827
 30
0.0
 10
0.3565826771653544
 20
0.8871692913385827
 30
0.0
 10
0.3565826771653544
 20
0.8871692913385827
 30
0.0
 10
0.3565826771653544
 20
0.8941692913385827
 30
0.0
 10
0.3565826771653544
 20
0.8941692913385827
 30
0.0
 10
0.3565826771653544
 20
0.8941692913385827
 30
0.0
 10
0.3678031496062992
 20
0.895751968503937
 30
0.0
 10
0.3771929133858268
 20
0.8990039370078741
 30
0.0
 10
0.384748031496063
 20
0.9039488188976378
 30
0.0
  0
SPLINE
  5
7C
330
1F
100
AcDbEntity
  8
LAYER_1
 62
   250
100
AcDbSpline
210
0.0
220
0.0
230
1.0
 70
    11
 71
     3
 72
    84
 73
    80
 74
     0
 42
0.0000000001
 43
0.0000000001
 40
0.0
 40
0.0
 40
0.0
 40
0.0
 40
0.05
 40
0.05
 40
0.05
 40
0.05
 40
0.1
 40
0.1
 40
0.1
 40
0.1
 40
0.15
 40
0.15
 40
0.15
 40
0.15
 40
0.2
 40
0.2
 40
0.2
 40
0.2
 40
0.25
 40
0.25
 40
0.25
 40
0.25
 40
0.3
 40
0.3
 40
0.3
 40
0.3
 40
0.35
 40
0.35
 40
0.35
 40
0.35
 40
0.4
 40
0.4
 40
0.4
 40
0.4
 40
0.45
 40
0.45
 40
0.45
 40
0.45
 40
0.4999999999999999
 40
0.4999999999999999
 40
0.4999999999999999
 40
0.4999999999999999
 40
0.5499999999999999
 40
0.5499999999999999
 40
0.5499999999999999
 40
0.5499999999999999
 40
0.6
 40
0.6
 40
0.6
 40
0.6
 40
0.65
 40
0.65
 40
0.65
 40
0.65
 40
0.7000000000000001
 40
0.7000000000000001
 40
0.7000000000000001
 40
0.7000000000000001
 40
0.7500000000000001
 40
0.7500000000000001
 40
0.7500000000000001
 40
0.7500000000000001
 40
0.8000000000000002
 40
0.8000000000000002
 40
0.8000000000000002
 40
0.8000000000000002
 40
0.8500000000000002
 40
0.8500000000000002
 40
0.8500000000000002
 40
0.8500000000000002
 40
0.9000000000000002
 40
0.9000000000000002
 40
0.9000000000000002
 40
0.9000000000000002
 40
0.9500000000000003
 40
0.9500000000000003
 40
0.9500000000000003
 40
0.9500000000000003
 40
1.0
 40
1.0
 40
1.0
 40
1.0
 10
0.5164133858267717
 20
0.9060590551181103
 30
0.0
 10
0.5164133858267717
 20
0.9060590551181103
 30
0.0
 10
0.5164133858267717
 20
0.8986417322834646
 30
0.0
 10
0.5164133858267717
 20
0.8986417322834646
 30
0.0
 10
0.5164133858267717
 20
0.8986417322834646
 30
0.0
 10
0.5030275590551181
 20
0.898503937007874
 30
0.0
 10
0.4921929133858268
 20
0.8965314960629922
 30
0.0
 10
0.4839173228346457
 20
0.8928110236220472
 30
0.0
 10
0.4839173228346457
 20
0.8928110236220472
 30
0.0
 10
0.4756377952755906
 20
0.8890590551181102
 30
0.0
 10
0.4695551181102363
 20
0.8834488188976378
 30
0.0
 10
0.4656377952755906
 20
0.8760039370078741
 30
0.0
 10
0.4656377952755906
 20
0.8760039370078741
 30
0.0
 10
0.4617204724409449
 20
0.8685314960629922
 30
0.0
 10
0.4595275590551181
 20
0.8593385826771653
 30
0.0
 10
0.4590551181102363
 20
0.8484488188976378
 30
0.0
 10
0.4590551181102363
 20
0.8484488188976378
 30
0.0
 10
0.4618031496062993
 20
0.8526692913385827
 30
0.0
 10
0.4646377952755906
 20
0.8559763779527559
 30
0.0
 10
0.4675551181102363
 20
0.8583385826771653
 30
0.0
 10
0.4675551181102363
 20
0.8583385826771653
 30
0.0
 10
0.4704448818897638
 20
0.8606968503937008
 30
0.0
 10
0.4738307086614174
 20
0.8625039370078741
 30
0.0
 10
0.4777204724409449
 20
0.8637834645669291
 30
0.0
 10
0.4777204724409449
 20
0.8637834645669291
 30
0.0
 10
0.4816102362204724
 20
0.8650590551181103
 30
0.0
 10
0.4858582677165355
 20
0.8656968503937008
 30
0.0
 10
0.4904724409448819
 20
0.8656968503937008
 30
0.0
 10
0.4904724409448819
 20
0.8656968503937008
 30
0.0
 10
0.4978307086614173
 20
0.8656968503937008
 30
0.0
 10
0.5044133858267716
 20
0.8640590551181103
 30
0.0
 10
0.5101653543307086
 20
0.8608110236220473
 30
0.0
 10
0.5101653543307086
 20
0.8608110236220473
 30
0.0
 10
0.5159133858267717
 20
0.8575590551181103
 30
0.0
 10
0.5203858267716536
 20
0.8531417322834646
 30
0.0
 10
0.5235826771653543
 20
0.8475866141732283
 30
0.0
 10
0.5235826771653543
 20
0.8475866141732283
 30
0.0
 10
0.5267755905511812
 20
0.8420314960629922
 30
0.0
 10
0.5283858267716536
 20
0.835476377952756
 30
0.0
 10
0.5283858267716536
 20
0.8279488188976378
 30
0.0
 10
0.5283858267716536
 20
0.8279488188976378
 30
0.0
 10
0.5283858267716536
 20
0.8159488188976378
 30
0.0
 10
0.5247755905511812
 20
0.8065314960629921
 30
0.0
 10
0.5175551181102363
 20
0.7997007874015748
 30
0.0
 10
0.5175551181102363
 20
0.7997007874015748
 30
0.0
 10
0.5095826771653543
 20
0.7922007874015749
 30
0.0
 10
0.499248031496063
 20
0.7884763779527559
 30
0.0
 10
0.4865551181102362
 20
0.7884763779527559
 30
0.0
 10
0.4865551181102362
 20
0.7884763779527559
 30
0.0
 10
0.4773858267716536
 20
0.7884763779527559
 30
0.0
 10
0.4696653543307087
 20
0.7903661417322835
 30
0.0
 10
0.4633582677165354
 20
0.7941692913385827
 30
0.0
 10
0.4633582677165354
 20
0.7941692913385827
 30
0.0
 10
0.4570551181102363
 20
0.7979488188976378
 30
0.0
 10
0.4520551181102362
 20
0.8037559055118111
 30
0.0
 10
0.4483307086614173
 20
0.8115866141732284
 30
0.0
 10
0.4483307086614173
 20
0.8115866141732284
 30
0.0
 10
0.4446377952755906
 20
0.8193937007874016
 30
0.0
 10
0.4427755905511811
 20
0.8290590551181103
 30
0.0
 10
0.4427755905511811
 20
0.8405590551181102
 30
0.0
 10
0.4427755905511811
 20
0.8405590551181102
 30
0.0
 10
0.4427755905511811
 20
0.8521141732283465
 30
0.0
 10
0.444748031496063
 20
0.8623661417322835
 30
0.0
 10
0.4486653543307087
 20
0.8713110236220473
 30
0.0
 10
0.4486653543307087
 20
0.8713110236220473
 30
0.0
 10
0.4526102362204725
 20
0.8802519685039371
 30
0.0
 10
0.4580551181102363
 20
0.8874488188976378
 30
0.0
 10
0.465
 20
0.8928661417322835
 30
0.0
 10
0.465
 20
0.8928661417322835
 30
0.0
 10
0.4719448818897638
 20
0.8983110236220473
 30
0.0
 10
0.4795551181102362
 20
0.9018661417322835
 30
0.0
 10
0.4878031496062992
 20
0.9035314960629922
 30
0.0
 10
0.4878031496062992
 20
0.9035314960629922
 30
0.0
 10
0.4960826771653544
 20
0.9052244094488189
 30
0.0
 10
0.5035000000000001
 20
0.9060590551181103
 30
0.0
 10
0.5100826771653544
 20
0.9060590551181103
 30
0.0
 10
0.5100826771653544
 20
0.9060590551181103
 30
0.0
 10
0.5100826771653544
 20
0.9060590551181103
 30
0.0
 10
0.5164133858267717
 20
0.9060590551181103
 30
0.0
 10
0.5164133858267717
 20
0.9060590551181103
 30
0.0
  0
SPLINE
  5
7D
330
1F
100
AcDbEntity
  8
LAYER_1
 62
   250
100
AcDbSpline
210
0.0
220
0.0
230
1.0
 70
    11
 71
     3
 72
    40
 73
    36
 74
     0
 42
0.0000000001
 43
0.0000000001
 40
0.0
 40
0.0
 40
0.0
 40
0.0
 40
0.1111111111111111
 40
0.1111111111111111
 40
0.1111111111111111
 40
0.1111111111111111
 40
0.2222222222222222
 40
0.2222222222222222
 40
0.2222222222222222
 40
0.2222222222222222
 40
0.3333333333333333
 40
0.3333333333333333
 40
0.3333333333333333
 40
0.3333333333333333
 40
0.4444444444444444
 40
0.4444444444444444
 40
0.4444444444444444
 40
0.4444444444444444
 40
0.5555555555555556
 40
0.5555555555555556
 40
0.5555555555555556
 40
0.5555555555555556
 40
0.6666666666666667
 40
0.6666666666666667
 40
0.6666666666666667
 40
0.6666666666666667
 40
0.7777777777777779
 40
0.7777777777777779
 40
0.7777777777777779
 40
0.7777777777777779
 40
0.8888888888888891
 40
0.8888888888888891
 40
0.8888888888888891
 40
0.8888888888888891
 40
1.0
 40
1.0
 40
1.0
 40
1.0
 10
0.4867204724409449
 20
0.8570590551181103
 30
0.0
 10
0.4789173228346457
 20
0.8570590551181103
 30
0.0
 10
0.4725
 20
0.8541141732283465
 30
0.0
 10
0.4674724409448819
 20
0.8481968503937009
 30
0.0
 10
0.4674724409448819
 20
0.8481968503937009
 30
0.0
 10
0.4624448818897638
 20
0.8422834645669292
 30
0.0
 10
0.4599448818897638
 20
0.8351692913385828
 30
0.0
 10
0.4599448818897638
 20
0.8268937007874017
 30
0.0
 10
0.4599448818897638
 20
0.8268937007874017
 30
0.0
 10
0.4599448818897638
 20
0.8210314960629922
 30
0.0
 10
0.4611653543307087
 20
0.8156141732283465
 30
0.0
 10
0.4636102362204725
 20
0.8106417322834646
 30
0.0
 10
0.4636102362204725
 20
0.8106417322834646
 30
0.0
 10
0.4660551181102363
 20
0.8056692913385827
 30
0.0
 10
0.4691929133858268
 20
0.8020039370078741
 30
0.0
 10
0.4730551181102363
 20
0.7995866141732284
 30
0.0
 10
0.4730551181102363
 20
0.7995866141732284
 30
0.0
 10
0.4768858267716536
 20
0.7971692913385827
 30
0.0
 10
0.481248031496063
 20
0.7959488188976378
 30
0.0
 10
0.4860551181102362
 20
0.7959488188976378
 30
0.0
 10
0.4860551181102362
 20
0.7959488188976378
 30
0.0
 10
0.4935551181102362
 20
0.7959488188976378
 30
0.0
 10
0.4997755905511812
 20
0.7987834645669292
 30
0.0
 10
0.5047480314960631
 20
0.8044488188976379
 30
0.0
 10
0.5047480314960631
 20
0.8044488188976379
 30
0.0
 10
0.5096929133858268
 20
0.8101141732283465
 30
0.0
 10
0.5121929133858268
 20
0.8177283464566929
 30
0.0
 10
0.5121929133858268
 20
0.8272834645669291
 30
0.0
 10
0.5121929133858268
 20
0.8272834645669291
 30
0.0
 10
0.5121929133858268
 20
0.8363937007874016
 30
0.0
 10
0.5097755905511812
 20
0.8436417322834646
 30
0.0
 10
0.5049448818897638
 20
0.849003937007874
 30
0.0
 10
0.5049448818897638
 20
0.849003937007874
 30
0.0
 10
0.5001102362204725
 20
0.8543937007874016
 30
0.0
 10
0.4940275590551181
 20
0.8570590551181103
 30
0.0
 10
0.4867204724409449
 20
0.8570590551181103
 30
0.0
  0
SPLINE
  5
7E
330
1F
100
AcDbEntity
  8
LAYER_1
 62
   250
100
AcDbSpline
210
0.0
220
0.0
230
1.0
 70
    11
 71
     3
 72
    60
 73
    56
 74
     0
 42
0.0000000001
 43
0.0000000001
 40
0.0
 40
0.0
 40
0.0
 40
0.0
 40
0.0714285714285714
 40
0.0714285714285714
 40
0.0714285714285714
 40
0.0714285714285714
 40
0.1428571428571429
 40
0.1428571428571429
 40
0.1428571428571429
 40
0.1428571428571429
 40
0.2142857142857143
 40
0.2142857142857143
 40
0.2142857142857143
 40
0.2142857142857143
 40
0.2857142857142857
 40
0.2857142857142857
 40
0.2857142857142857
 40
0.2857142857142857
 40
0.3571428571428571
 40
0.3571428571428571
 40
0.3571428571428571
 40
0.3571428571428571
 40
0.4285714285714285
 40
0.4285714285714285
 40
0.4285714285714285
 40
0.4285714285714285
 40
0.4999999999999999
 40
0.4999999999999999
 40
0.4999999999999999
 40
0.4999999999999999
 40
0.5714285714285713
 40
0.5714285714285713
 40
0.5714285714285713
 40
0.5714285714285713
 40
0.6428571428571427
 40
0.6428571428571427
 40
0.6428571428571427
 40
0.6428571428571427
 40
0.7142857142857141
 40
0.7142857142857141
 40
0.7142857142857141
 40
0.7142857142857141
 40
0.7857142857142855
 40
0.7857142857142855
 40
0.7857142857142855
 40
0.7857142857142855
 40
0.8571428571428569
 40
0.8571428571428569
 40
0.8571428571428569
 40
0.8571428571428569
 40
0.9285714285714283
 40
0.9285714285714283
 40
0.9285714285714283
 40
0.9285714285714283
 40
1.0
 40
1.0
 40
1.0
 40
1.0
 10
0.5455551181102363
 20
0.8618661417322835
 30
0.0
 10
0.5455551181102363
 20
0.8618661417322835
 30
0.0
 10
0.5411653543307087
 20
0.8672559055118111
 30
0.0
 10
0.5411653543307087
 20
0.8672559055118111
 30
0.0
 10
0.5411653543307087
 20
0.8672559055118111
 30
0.0
 10
0.5522795275590552
 20
0.8763110236220473
 30
0.0
 10
0.5578622047244095
 20
0.8838661417322835
 30
0.0
 10
0.5578622047244095
 20
0.8899488188976379
 30
0.0
 10
0.5578622047244095
 20
0.8899488188976379
 30
0.0
 10
0.5578622047244095
 20
0.8906417322834646
 30
0.0
 10
0.5578070866141732
 20
0.8915314960629922
 30
0.0
 10
0.5576929133858268
 20
0.8925590551181103
 30
0.0
 10
0.5576929133858268
 20
0.8925590551181103
 30
0.0
 10
0.5567795275590551
 20
0.8921692913385827
 30
0.0
 10
0.5558622047244095
 20
0.8918661417322835
 30
0.0
 10
0.5550000000000001
 20
0.8916692913385828
 30
0.0
 10
0.5550000000000001
 20
0.8916692913385828
 30
0.0
 10
0.5541377952755906
 20
0.8914488188976378
 30
0.0
 10
0.5533346456692914
 20
0.8913385826771654
 30
0.0
 10
0.5525551181102363
 20
0.8913385826771654
 30
0.0
 10
0.5525551181102363
 20
0.8913385826771654
 30
0.0
 10
0.5499448818897638
 20
0.8913385826771654
 30
0.0
 10
0.5478622047244095
 20
0.8921692913385827
 30
0.0
 10
0.5463070866141733
 20
0.8938661417322835
 30
0.0
 10
0.5463070866141733
 20
0.8938661417322835
 30
0.0
 10
0.5447204724409449
 20
0.8955314960629922
 30
0.0
 10
0.5439448818897638
 20
0.8976692913385828
 30
0.0
 10
0.5439448818897638
 20
0.9002834645669292
 30
0.0
 10
0.5439448818897638
 20
0.9002834645669292
 30
0.0
 10
0.5439448818897638
 20
0.9028385826771654
 30
0.0
 10
0.5448897637795276
 20
0.9050590551181102
 30
0.0
 10
0.5467795275590551
 20
0.9069488188976378
 30
0.0
 10
0.5467795275590551
 20
0.9069488188976378
 30
0.0
 10
0.5486929133858268
 20
0.9088661417322835
 30
0.0
 10
0.550972440944882
 20
0.9098110236220472
 30
0.0
 10
0.5536102362204725
 20
0.9098110236220472
 30
0.0
 10
0.5536102362204725
 20
0.9098110236220472
 30
0.0
 10
0.5573070866141733
 20
0.9098110236220472
 30
0.0
 10
0.5604724409448819
 20
0.9083385826771654
 30
0.0
 10
0.5631102362204725
 20
0.9053661417322835
 30
0.0
 10
0.5631102362204725
 20
0.9053661417322835
 30
0.0
 10
0.5657204724409449
 20
0.9024212598425198
 30
0.0
 10
0.5670551181102362
 20
0.8986141732283465
 30
0.0
 10
0.5670551181102362
 20
0.8939488188976378
 30
0.0
 10
0.5670551181102362
 20
0.8939488188976378
 30
0.0
 10
0.5670551181102362
 20
0.8908937007874016
 30
0.0
 10
0.5664173228346457
 20
0.8876968503937008
 30
0.0
 10
0.5651653543307087
 20
0.8843661417322835
 30
0.0
 10
0.5651653543307087
 20
0.8843661417322835
 30
0.0
 10
0.5639173228346457
 20
0.8810314960629921
 30
0.0
 10
0.5621102362204725
 20
0.8779488188976379
 30
0.0
 10
0.5597204724409449
 20
0.8750866141732284
 30
0.0
 10
0.5597204724409449
 20
0.8750866141732284
 30
0.0
 10
0.5573346456692914
 20
0.8722559055118111
 30
0.0
 10
0.5526102362204725
 20
0.8678385826771654
 30
0.0
 10
0.5455551181102363
 20
0.8618661417322835
 30
0.0
  0
SPLINE
  5
7F
330
1F
100
AcDbEntity
  8
LAYER_1
 62
   250
100
AcDbSpline
210
0.0
220
0.0
230
1.0
 70
    11
 71
     3
 72
    60
 73
    56
 74
     0
 42
0.0000000001
 43
0.0000000001
 40
0.0
 40
0.0
 40
0.0
 40
0.0
 40
0.0714285714285714
 40
0.0714285714285714
 40
0.0714285714285714
 40
0.0714285714285714
 40
0.1428571428571429
 40
0.1428571428571429
 40
0.1428571428571429
 40
0.1428571428571429
 40
0.2142857142857143
 40
0.2142857142857143
 40
0.2142857142857143
 40
0.2142857142857143
 40
0.2857142857142857
 40
0.2857142857142857
 40
0.2857142857142857
 40
0.2857142857142857
 40
0.3571428571428571
 40
0.3571428571428571
 40
0.3571428571428571
 40
0.3571428571428571
 40
0.4285714285714285
 40
0.4285714285714285
 40
0.4285714285714285
 40
0.4285714285714285
 40
0.4999999999999999
 40
0.4999999999999999
 40
0.4999999999999999
 40
0.4999999999999999
 40
0.5714285714285713
 40
0.5714285714285713
 40
0.5714285714285713
 40
0.5714285714285713
 40
0.6428571428571427
 40
0.6428571428571427
 40
0.6428571428571427
 40
0.6428571428571427
 40
0.7142857142857141
 40
0.7142857142857141
 40
0.7142857142857141
 40
0.7142857142857141
 40
0.7857142857142855
 40
0.7857142857142855
 40
0.7857142857142855
 40
0.7857142857142855
 40
0.8571428571428569
 40
0.8571428571428569
 40
0.8571428571428569
 40
0.8571428571428569
 40
0.9285714285714283
 40
0.9285714285714283
 40
0.9285714285714283
 40
0.9285714285714283
 40
1.0
 40
1.0
 40
1.0
 40
1.0
 10
0.5746102362204725
 20
0.8618661417322835
 30
0.0
 10
0.5746102362204725
 20
0.8618661417322835
 30
0.0
 10
0.5702204724409449
 20
0.8672559055118111
 30
0.0
 10
0.5702204724409449
 20
0.8672559055118111
 30
0.0
 10
0.5702204724409449
 20
0.8672559055118111
 30
0.0
 10
0.5813346456692914
 20
0.8763110236220473
 30
0.0
 10
0.5869173228346457
 20
0.8838661417322835
 30
0.0
 10
0.5869173228346457
 20
0.8899488188976379
 30
0.0
 10
0.5869173228346457
 20
0.8899488188976379
 30
0.0
 10
0.5869173228346457
 20
0.8906417322834646
 30
0.0
 10
0.5868622047244094
 20
0.8915314960629922
 30
0.0
 10
0.586748031496063
 20
0.8925590551181103
 30
0.0
 10
0.586748031496063
 20
0.8925590551181103
 30
0.0
 10
0.5858346456692913
 20
0.8921692913385827
 30
0.0
 10
0.5849173228346457
 20
0.8918661417322835
 30
0.0
 10
0.5840551181102363
 20
0.8916692913385828
 30
0.0
 10
0.5840551181102363
 20
0.8916692913385828
 30
0.0
 10
0.5831929133858268
 20
0.8914488188976378
 30
0.0
 10
0.5823622047244095
 20
0.8913385826771654
 30
0.0
 10
0.5815275590551181
 20
0.8913385826771654
 30
0.0
 10
0.5815275590551181
 20
0.8913385826771654
 30
0.0
 10
0.5789724409448819
 20
0.8913385826771654
 30
0.0
 10
0.5769173228346457
 20
0.8921692913385827
 30
0.0
 10
0.5753622047244095
 20
0.8938661417322835
 30
0.0
 10
0.5753622047244095
 20
0.8938661417322835
 30
0.0
 10
0.5737795275590552
 20
0.8955314960629922
 30
0.0
 10
0.5730000000000001
 20
0.8976692913385828
 30
0.0
 10
0.5730000000000001
 20
0.9002834645669292
 30
0.0
 10
0.5730000000000001
 20
0.9002834645669292
 30
0.0
 10
0.5730000000000001
 20
0.9028385826771654
 30
0.0
 10
0.5739448818897638
 20
0.9050590551181102
 30
0.0
 10
0.5758346456692913
 20
0.9069488188976378
 30
0.0
 10
0.5758346456692913
 20
0.9069488188976378
 30
0.0
 10
0.5777204724409449
 20
0.9088661417322835
 30
0.0
 10
0.5800275590551182
 20
0.9098110236220472
 30
0.0
 10
0.5826653543307087
 20
0.9098110236220472
 30
0.0
 10
0.5826653543307087
 20
0.9098110236220472
 30
0.0
 10
0.5863622047244095
 20
0.9098110236220472
 30
0.0
 10
0.5895275590551181
 20
0.9083385826771654
 30
0.0
 10
0.5921653543307087
 20
0.9053661417322835
 30
0.0
 10
0.5921653543307087
 20
0.9053661417322835
 30
0.0
 10
0.5947755905511811
 20
0.9024212598425198
 30
0.0
 10
0.5961102362204724
 20
0.8986141732283465
 30
0.0
 10
0.5961102362204724
 20
0.8939488188976378
 30
0.0
 10
0.5961102362204724
 20
0.8939488188976378
 30
0.0
 10
0.5961102362204724
 20
0.8908937007874016
 30
0.0
 10
0.5954724409448819
 20
0.8876968503937008
 30
0.0
 10
0.5942204724409449
 20
0.8843661417322835
 30
0.0
 10
0.5942204724409449
 20
0.8843661417322835
 30
0.0
 10
0.5929724409448819
 20
0.8810314960629921
 30
0.0
 10
0.5911653543307087
 20
0.8779488188976379
 30
0.0
 10
0.5887795275590552
 20
0.8750866141732284
 30
0.0
 10
0.5887795275590552
 20
0.8750866141732284
 30
0.0
 10
0.5863897637795276
 20
0.8722559055118111
 30
0.0
 10
0.5816653543307087
 20
0.8678385826771654
 30
0.0
 10
0.5746102362204725
 20
0.8618661417322835
 30
0.0
  0
SPLINE
  5
80
330
1F
100
AcDbEntity
  8
LAYER_1
 62
   250
100
AcDbSpline
210
0.0
220
0.0
230
1.0
 70
    11
 71
     3
 72
   204
 73
   200
 74
     0
 42
0.0000000001
 43
0.0000000001
 40
0.0
 40
0.0
 40
0.0
 40
0.0
 40
0.02
 40
0.02
 40
0.02
 40
0.02
 40
0.04
 40
0.04
 40
0.04
 40
0.04
 40
0.06
 40
0.06
 40
0.06
 40
0.06
 40
0.08
 40
0.08
 40
0.08
 40
0.08
 40
0.1
 40
0.1
 40
0.1
 40
0.1
 40
0.12
 40
0.12
 40
0.12
 40
0.12
 40
0.14
 40
0.14
 40
0.14
 40
0.14
 40
0.16
 40
0.16
 40
0.16
 40
0.16
 40
0.18
 40
0.18
 40
0.18
 40
0.18
 40
0.2
 40
0.2
 40
0.2
 40
0.2
 40
0.22
 40
0.22
 40
0.22
 40
0.22
 40
0.24
 40
0.24
 40
0.24
 40
0.24
 40
0.26
 40
0.26
 40
0.26
 40
0.26
 40
0.28
 40
0.28
 40
0.28
 40
0.28
 40
0.3
 40
0.3
 40
0.3
 40
0.3
 40
0.32
 40
0.32
 40
0.32
 40
0.32
 40
0.34
 40
0.34
 40
0.34
 40
0.34
 40
0.36
 40
0.36
 40
0.36
 40
0.36
 40
0.3800000000000001
 40
0.3800000000000001
 40
0.3800000000000001
 40
0.3800000000000001
 40
0.4000000000000001
 40
0.4000000000000001
 40
0.4000000000000001
 40
0.4000000000000001
 40
0.4200000000000001
 40
0.4200000000000001
 40
0.4200000000000001
 40
0.4200000000000001
 40
0.4400000000000001
 40
0.4400000000000001
 40
0.4400000000000001
 40
0.4400000000000001
 40
0.4600000000000001
 40
0.4600000000000001
 40
0.4600000000000001
 40
0.4600000000000001
 40
0.4800000000000002
 40
0.4800000000000002
 40
0.4800000000000002
 40
0.4800000000000002
 40
0.5000000000000001
 40
0.5000000000000001
 40
0.5000000000000001
 40
0.5000000000000001
 40
0.5200000000000001
 40
0.5200000000000001
 40
0.5200000000000001
 40
0.5200000000000001
 40
0.5400000000000002
 40
0.5400000000000002
 40
0.5400000000000002
 40
0.5400000000000002
 40
0.5600000000000002
 40
0.5600000000000002
 40
0.5600000000000002
 40
0.5600000000000002
 40
0.5800000000000002
 40
0.5800000000000002
 40
0.5800000000000002
 40
0.5800000000000002
 40
0.6000000000000002
 40
0.6000000000000002
 40
0.6000000000000002
 40
0.6000000000000002
 40
0.6200000000000002
 40
0.6200000000000002
 40
0.6200000000000002
 40
0.6200000000000002
 40
0.6400000000000002
 40
0.6400000000000002
 40
0.6400000000000002
 40
0.6400000000000002
 40
0.6600000000000003
 40
0.6600000000000003
 40
0.6600000000000003
 40
0.6600000000000003
 40
0.6800000000000003
 40
0.6800000000000003
 40
0.6800000000000003
 40
0.6800000000000003
 40
0.7000000000000003
 40
0.7000000000000003
 40
0.7000000000000003
 40
0.7000000000000003
 40
0.7200000000000003
 40
0.7200000000000003
 40
0.7200000000000003
 40
0.7200000000000003
 40
0.7400000000000003
 40
0.7400000000000003
 40
0.7400000000000003
 40
0.7400000000000003
 40
0.7600000000000003
 40
0.7600000000000003
 40
0.7600000000000003
 40
0.7600000000000003
 40
0.7800000000000004
 40
0.7800000000000004
 40
0.7800000000000004
 40
0.7800000000000004
 40
0.8000000000000004
 40
0.8000000000000004
 40
0.8000000000000004
 40
0.8000000000000004
 40
0.8200000000000004
 40
0.8200000000000004
 40
0.8200000000000004
 40
0.8200000000000004
 40
0.8400000000000004
 40
0.8400000000000004
 40
0.8400000000000004
 40
0.8400000000000004
 40
0.8600000000000004
 40
0.8600000000000004
 40
0.8600000000000004
 40
0.8600000000000004
 40
0.8800000000000005
 40
0.8800000000000005
 40
0.8800000000000005
 40
0.8800000000000005
 40
0.9000000000000005
 40
0.9000000000000005
 40
0.9000000000000005
 40
0.9000000000000005
 40
0.9200000000000005
 40
0.9200000000000005
 40
0.9200000000000005
 40
0.9200000000000005
 40
0.9400000000000005
 40
0.9400000000000005
 40
0.9400000000000005
 40
0.9400000000000005
 40
0.9600000000000005
 40
0.9600000000000005
 40
0.9600000000000005
 40
0.9600000000000005
 40
0.9800000000000005
 40
0.9800000000000005
 40
0.9800000000000005
 40
0.9800000000000005
 40
1.0
 40
1.0
 40
1.0
 40
1.0
 10
0.6584173228346457
 20
0.8689488188976379
 30
0.0
 10
0.6584173228346457
 20
0.8689488188976379
 30
0.0
 10
0.6993622047244095
 20
0.8689488188976379
 30
0.0
 10
0.6993622047244095
 20
0.8689488188976379
 30
0.0
 10
0.6993622047244095
 20
0.8689488188976379
 30
0.0
 10
0.6993622047244095
 20
0.8689488188976379
 30
0.0
 10
0.6993622047244095
 20
0.8621141732283465
 30
0.0
 10
0.6993622047244095
 20
0.8621141732283465
 30
0.0
 10
0.6993622047244095
 20
0.8621141732283465
 30
0.0
 10
0.6993622047244095
 20
0.8621141732283465
 30
0.0
 10
0.6965275590551181
 20
0.8621141732283465
 30
0.0
 10
0.6965275590551181
 20
0.8621141732283465
 30
0.0
 10
0.6965275590551181
 20
0.8621141732283465
 30
0.0
 10
0.6948897637795276
 20
0.8621141732283465
 30
0.0
 10
0.6933897637795276
 20
0.8619212598425198
 30
0.0
 10
0.6920275590551182
 20
0.8615590551181103
 30
0.0
 10
0.6920275590551182
 20
0.8615590551181103
 30
0.0
 10
0.6912244094488189
 20
0.8613385826771653
 30
0.0
 10
0.6905551181102363
 20
0.8609212598425198
 30
0.0
 10
0.6900551181102362
 20
0.8602834645669292
 30
0.0
 10
0.6900551181102362
 20
0.8602834645669292
 30
0.0
 10
0.6895275590551181
 20
0.8596692913385827
 30
0.0
 10
0.6892795275590552
 20
0.8590866141732284
 30
0.0
 10
0.6892795275590552
 20
0.8585314960629922
 30
0.0
 10
0.6892795275590552
 20
0.8585314960629922
 30
0.0
 10
0.6892795275590552
 20
0.8572834645669292
 30
0.0
 10
0.6903070866141733
 20
0.8554212598425197
 30
0.0
 10
0.6923622047244095
 20
0.8529212598425198
 30
0.0
 10
0.6923622047244095
 20
0.8529212598425198
 30
0.0
 10
0.6923622047244095
 20
0.8529212598425198
 30
0.0
 10
0.7040000000000001
 20
0.8382834645669292
 30
0.0
 10
0.7040000000000001
 20
0.8382834645669292
 30
0.0
 10
0.7040000000000001
 20
0.8382834645669292
 30
0.0
 10
0.7040000000000001
 20
0.8382834645669292
 30
0.0
 10
0.7175826771653544
 20
0.8529212598425198
 30
0.0
 10
0.7175826771653544
 20
0.8529212598425198
 30
0.0
 10
0.7175826771653544
 20
0.8529212598425198
 30
0.0
 10
0.7200826771653544
 20
0.8556417322834646
 30
0.0
 10
0.7213346456692914
 20
0.8576692913385827
 30
0.0
 10
0.7213346456692914
 20
0.8590314960629921
 30
0.0
 10
0.7213346456692914
 20
0.8590314960629921
 30
0.0
 10
0.7213346456692914
 20
0.860003937007874
 30
0.0
 10
0.7208897637795276
 20
0.860755905511811
 30
0.0
 10
0.7200275590551182
 20
0.8613110236220473
 30
0.0
 10
0.7200275590551182
 20
0.8613110236220473
 30
0.0
 10
0.7191653543307087
 20
0.8618385826771654
 30
0.0
 10
0.7173070866141733
 20
0.8621141732283465
 30
0.0
 10
0.7144173228346457
 20
0.8621141732283465
 30
0.0
 10
0.7144173228346457
 20
0.8621141732283465
 30
0.0
 10
0.7144173228346457
 20
0.8621141732283465
 30
0.0
 10
0.7113346456692914
 20
0.8621141732283465
 30
0.0
 10
0.7113346456692914
 20
0.8621141732283465
 30
0.0
 10
0.7113346456692914
 20
0.8621141732283465
 30
0.0
 10
0.7113346456692914
 20
0.8621141732283465
 30
0.0
 10
0.7113346456692914
 20
0.8689488188976379
 30
0.0
 10
0.7113346456692914
 20
0.8689488188976379
 30
0.0
 10
0.7113346456692914
 20
0.8689488188976379
 30
0.0
 10
0.7113346456692914
 20
0.8689488188976379
 30
0.0
 10
0.7460826771653544
 20
0.8689488188976379
 30
0.0
 10
0.7460826771653544
 20
0.8689488188976379
 30
0.0
 10
0.7460826771653544
 20
0.8689488188976379
 30
0.0
 10
0.7460826771653544
 20
0.8689488188976379
 30
0.0
 10
0.7460826771653544
 20
0.8621141732283465
 30
0.0
 10
0.7460826771653544
 20
0.8621141732283465
 30
0.0
 10
0.7460826771653544
 20
0.8621141732283465
 30
0.0
 10
0.7426653543307087
 20
0.8619488188976379
 30
0.0
 10
0.739720472440945
 20
0.8612559055118111
 30
0.0
 10
0.737251968503937
 20
0.860003937007874
 30
0.0
 10
0.737251968503937
 20
0.860003937007874
 30
0.0
 10
0.7347795275590552
 20
0.858755905511811
 30
0.0
 10
0.7318622047244094
 20
0.8563937007874016
 30
0.0
 10
0.7285
 20
0.8529212598425198
 30
0.0
 10
0.7285
 20
0.8529212598425198
 30
0.0
 10
0.7285
 20
0.8529212598425198
 30
0.0
 10
0.7098622047244095
 20
0.8335590551181102
 30
0.0
 10
0.7098622047244095
 20
0.8335590551181102
 30
0.0
 10
0.7098622047244095
 20
0.8335590551181102
 30
0.0
 10
0.7098622047244095
 20
0.8335590551181102
 30
0.0
 10
0.7330551181102363
 20
0.8071141732283464
 30
0.0
 10
0.7330551181102363
 20
0.8071141732283464
 30
0.0
 10
0.7330551181102363
 20
0.8071141732283464
 30
0.0
 10
0.7330551181102363
 20
0.8071141732283464
 30
0.0
 10
0.7339448818897638
 20
0.8059763779527559
 30
0.0
 10
0.7339448818897638
 20
0.8059763779527559
 30
0.0
 10
0.7339448818897638
 20
0.8059763779527559
 30
0.0
 10
0.7362204724409449
 20
0.8030314960629922
 30
0.0
 10
0.7387795275590552
 20
0.8006692913385827
 30
0.0
 10
0.7416102362204725
 20
0.7988937007874016
 30
0.0
 10
0.7416102362204725
 20
0.7988937007874016
 30
0.0
 10
0.7431653543307087
 20
0.7978661417322835
 30
0.0
 10
0.7456102362204725
 20
0.7973110236220473
 30
0.0
 10
0.7489173228346457
 20
0.797255905511811
 30
0.0
 10
0.7489173228346457
 20
0.797255905511811
 30
0.0
 10
0.7489173228346457
 20
0.797255905511811
 30
0.0
 10
0.7489173228346457
 20
0.7904212598425198
 30
0.0
 10
0.7489173228346457
 20
0.7904212598425198
 30
0.0
 10
0.7489173228346457
 20
0.7904212598425198
 30
0.0
 10
0.7489173228346457
 20
0.7904212598425198
 30
0.0
 10
0.7089724409448819
 20
0.7904212598425198
 30
0.0
 10
0.7089724409448819
 20
0.7904212598425198
 30
0.0
 10
0.7089724409448819
 20
0.7904212598425198
 30
0.0
 10
0.7089724409448819
 20
0.7904212598425198
 30
0.0
 10
0.7089724409448819
 20
0.797255905511811
 30
0.0
 10
0.7089724409448819
 20
0.797255905511811
 30
0.0
 10
0.7089724409448819
 20
0.797255905511811
 30
0.0
 10
0.7089724409448819
 20
0.797255905511811
 30
0.0
 10
0.7123897637795276
 20
0.797255905511811
 30
0.0
 10
0.7123897637795276
 20
0.797255905511811
 30
0.0
 10
0.7123897637795276
 20
0.797255905511811
 30
0.0
 10
0.7150000000000001
 20
0.797255905511811
 30
0.0
 10
0.7166377952755906
 20
0.7974212598425198
 30
0.0
 10
0.7173622047244095
 20
0.7977559055118111
 30
0.0
 10
0.7173622047244095
 20
0.7977559055118111
 30
0.0
 10
0.7185275590551181
 20
0.7982834645669291
 30
0.0
 10
0.7191377952755906
 20
0.7992007874015749
 30
0.0
 10
0.7191377952755906
 20
0.800503937007874
 30
0.0
 10
0.7191377952755906
 20
0.800503937007874
 30
0.0
 10
0.7191377952755906
 20
0.8017007874015748
 30
0.0
 10
0.7178346456692913
 20
0.8038937007874016
 30
0.0
 10
0.7152204724409449
 20
0.8071141732283464
 30
0.0
 10
0.7152204724409449
 20
0.8071141732283464
 30
0.0
 10
0.7152204724409449
 20
0.8071141732283464
 30
0.0
 10
0.7004173228346458
 20
0.8252559055118111
 30
0.0
 10
0.7004173228346458
 20
0.8252559055118111
 30
0.0
 10
0.7004173228346458
 20
0.8252559055118111
 30
0.0
 10
0.7004173228346458
 20
0.8252559055118111
 30
0.0
 10
0.6838897637795276
 20
0.8071141732283464
 30
0.0
 10
0.6838897637795276
 20
0.8071141732283464
 30
0.0
 10
0.6838897637795276
 20
0.8071141732283464
 30
0.0
 10
0.6838897637795276
 20
0.8071141732283464
 30
0.0
 10
0.6822795275590552
 20
0.8051417322834646
 30
0.0
 10
0.6822795275590552
 20
0.8051417322834646
 30
0.0
 10
0.6822795275590552
 20
0.8051417322834646
 30
0.0
 10
0.6822795275590552
 20
0.8051417322834646
 30
0.0
 10
0.6813897637795275
 20
0.8041692913385827
 30
0.0
 10
0.6813897637795275
 20
0.8041692913385827
 30
0.0
 10
0.6813897637795275
 20
0.8041692913385827
 30
0.0
 10
0.6800275590551181
 20
0.8027007874015748
 30
0.0
 10
0.6793346456692914
 20
0.8014212598425197
 30
0.0
 10
0.6793346456692914
 20
0.8002834645669291
 30
0.0
 10
0.6793346456692914
 20
0.8002834645669291
 30
0.0
 10
0.6793346456692914
 20
0.7992283464566929
 30
0.0
 10
0.679751968503937
 20
0.7984763779527559
 30
0.0
 10
0.6806102362204725
 20
0.7979763779527559
 30
0.0
 10
0.6806102362204725
 20
0.7979763779527559
 30
0.0
 10
0.6814448818897638
 20
0.797503937007874
 30
0.0
 10
0.6833346456692914
 20
0.797255905511811
 30
0.0
 10
0.686251968503937
 20
0.797255905511811
 30
0.0
 10
0.686251968503937
 20
0.797255905511811
 30
0.0
 10
0.686251968503937
 20
0.797255905511811
 30
0.0
 10
0.6895275590551181
 20
0.797255905511811
 30
0.0
 10
0.6895275590551181
 20
0.797255905511811
 30
0.0
 10
0.6895275590551181
 20
0.797255905511811
 30
0.0
 10
0.6895275590551181
 20
0.797255905511811
 30
0.0
 10
0.6895275590551181
 20
0.7904212598425198
 30
0.0
 10
0.6895275590551181
 20
0.7904212598425198
 30
0.0
 10
0.6895275590551181
 20
0.7904212598425198
 30
0.0
 10
0.6895275590551181
 20
0.7904212598425198
 30
0.0
 10
0.6552519685039371
 20
0.7904212598425198
 30
0.0
 10
0.6552519685039371
 20
0.7904212598425198
 30
0.0
 10
0.6552519685039371
 20
0.7904212598425198
 30
0.0
 10
0.6552519685039371
 20
0.7904212598425198
 30
0.0
 10
0.6552519685039371
 20
0.797255905511811
 30
0.0
 10
0.6552519685039371
 20
0.797255905511811
 30
0.0
 10
0.6552519685039371
 20
0.797255905511811
 30
0.0
 10
0.6579173228346457
 20
0.7973110236220473
 30
0.0
 10
0.66
 20
0.7975866141732284
 30
0.0
 10
0.6615275590551182
 20
0.7981141732283464
 30
0.0
 10
0.6615275590551182
 20
0.7981141732283464
 30
0.0
 10
0.6630275590551181
 20
0.7986141732283465
 30
0.0
 10
0.6645
 20
0.7994212598425197
 30
0.0
 10
0.6659173228346457
 20
0.800503937007874
 30
0.0
 10
0.6659173228346457
 20
0.800503937007874
 30
0.0
 10
0.6683622047244094
 20
0.802476377952756
 30
0.0
 10
0.6701102362204725
 20
0.8040039370078741
 30
0.0
 10
0.6711968503937008
 20
0.8051417322834646
 30
0.0
 10
0.6711968503937008
 20
0.8051417322834646
 30
0.0
 10
0.6711968503937008
 20
0.8051417322834646
 30
0.0
 10
0.6950551181102362
 20
0.8296417322834646
 30
0.0
 10
0.6950551181102362
 20
0.8296417322834646
 30
0.0
 10
0.6950551181102362
 20
0.8296417322834646
 30
0.0
 10
0.6950551181102362
 20
0.8296417322834646
 30
0.0
 10
0.6747795275590551
 20
0.8529212598425198
 30
0.0
 10
0.6747795275590551
 20
0.8529212598425198
 30
0.0
 10
0.6747795275590551
 20
0.8529212598425198
 30
0.0
 10
0.6722244094488189
 20
0.8558110236220473
 30
0.0
 10
0.6702244094488189
 20
0.8578110236220473
 30
0.0
 10
0.668724409448819
 20
0.8589763779527559
 30
0.0
 10
0.668724409448819
 20
0.8589763779527559
 30
0.0
 10
0.6672244094488189
 20
0.8601417322834646
 30
0.0
 10
0.6657795275590551
 20
0.8609763779527559
 30
0.0
 10
0.6643622047244094
 20
0.8614212598425197
 30
0.0
 10
0.6643622047244094
 20
0.8614212598425197
 30
0.0
 10
0.6629448818897639
 20
0.8618937007874016
 30
0.0
 10
0.6609724409448819
 20
0.8621141732283465
 30
0.0
 10
0.6584173228346457
 20
0.8621141732283465
 30
0.0
 10
0.6584173228346457
 20
0.8621141732283465
 30
0.0
 10
0.6584173228346457
 20
0.8621141732283465
 30
0.0
 10
0.6584173228346457
 20
0.8689488188976379
 30
0.0
 10
0.6584173228346457
 20
0.8689488188976379
 30
0.0
  0
SPLINE
  5
81
330
1F
100
AcDbEntity
  8
LAYER_1
 62
   250
100
AcDbSpline
210
0.0
220
0.0
230
1.0
 70
    11
 71
     3
 72
    72
 73
    68
 74
     0
 42
0.0000000001
 43
0.0000000001
 40
0.0
 40
0.0
 40
0.0
 40
0.0
 40
0.0588235294117647
 40
0.0588235294117647
 40
0.0588235294117647
 40
0.0588235294117647
 40
0.1176470588235294
 40
0.1176470588235294
 40
0.1176470588235294
 40
0.1176470588235294
 40
0.1764705882352941
 40
0.1764705882352941
 40
0.1764705882352941
 40
0.1764705882352941
 40
0.2352941176470588
 40
0.2352941176470588
 40
0.2352941176470588
 40
0.2352941176470588
 40
0.2941176470588235
 40
0.2941176470588235
 40
0.2941176470588235
 40
0.2941176470588235
 40
0.3529411764705883
 40
0.3529411764705883
 40
0.3529411764705883
 40
0.3529411764705883
 40
0.411764705882353
 40
0.411764705882353
 40
0.411764705882353
 40
0.411764705882353
 40
0.4705882352941177
 40
0.4705882352941177
 40
0.4705882352941177
 40
0.4705882352941177
 40
0.5294117647058824
 40
0.5294117647058824
 40
0.5294117647058824
 40
0.5294117647058824
 40
0.5882352941176471
 40
0.5882352941176471
 40
0.5882352941176471
 40
0.5882352941176471
 40
0.6470588235294118
 40
0.6470588235294118
 40
0.6470588235294118
 40
0.6470588235294118
 40
0.7058823529411765
 40
0.7058823529411765
 40
0.7058823529411765
 40
0.7058823529411765
 40
0.7647058823529412
 40
0.7647058823529412
 40
0.7647058823529412
 40
0.7647058823529412
 40
0.823529411764706
 40
0.823529411764706
 40
0.823529411764706
 40
0.823529411764706
 40
0.8823529411764707
 40
0.8823529411764707
 40
0.8823529411764707
 40
0.8823529411764707
 40
0.9411764705882354
 40
0.9411764705882354
 40
0.9411764705882354
 40
0.9411764705882354
 40
1.0
 40
1.0
 40
1.0
 40
1.0
 10
0.8580551181102363
 20
0.9039488188976378
 30
0.0
 10
0.8580551181102363
 20
0.9039488188976378
 30
0.0
 10
0.8641377952755905
 20
0.9039488188976378
 30
0.0
 10
0.8641377952755905
 20
0.9039488188976378
 30
0.0
 10
0.8641377952755905
 20
0.9039488188976378
 30
0.0
 10
0.8641377952755905
 20
0.9039488188976378
 30
0.0
 10
0.8641377952755905
 20
0.8097007874015748
 30
0.0
 10
0.8641377952755905
 20
0.8097007874015748
 30
0.0
 10
0.8641377952755905
 20
0.8097007874015748
 30
0.0
 10
0.8641377952755905
 20
0.805255905511811
 30
0.0
 10
0.8644448818897638
 20
0.8023937007874016
 30
0.0
 10
0.865
 20
0.8011141732283464
 30
0.0
 10
0.865
 20
0.8011141732283464
 30
0.0
 10
0.8655826771653543
 20
0.7998385826771653
 30
0.0
 10
0.8665000000000001
 20
0.7988937007874016
 30
0.0
 10
0.8678031496062992
 20
0.7982283464566929
 30
0.0
 10
0.8678031496062992
 20
0.7982283464566929
 30
0.0
 10
0.8691102362204725
 20
0.7975866141732284
 30
0.0
 10
0.8716929133858268
 20
0.797255905511811
 30
0.0
 10
0.8755551181102362
 20
0.797255905511811
 30
0.0
 10
0.8755551181102362
 20
0.797255905511811
 30
0.0
 10
0.8755551181102362
 20
0.797255905511811
 30
0.0
 10
0.8835275590551182
 20
0.797255905511811
 30
0.0
 10
0.8835275590551182
 20
0.797255905511811
 30
0.0
 10
0.8835275590551182
 20
0.797255905511811
 30
0.0
 10
0.8835275590551182
 20
0.797255905511811
 30
0.0
 10
0.8835275590551182
 20
0.7904212598425198
 30
0.0
 10
0.8835275590551182
 20
0.7904212598425198
 30
0.0
 10
0.8835275590551182
 20
0.7904212598425198
 30
0.0
 10
0.8835275590551182
 20
0.7904212598425198
 30
0.0
 10
0.8298897637795276
 20
0.7904212598425198
 30
0.0
 10
0.8298897637795276
 20
0.7904212598425198
 30
0.0
 10
0.8298897637795276
 20
0.7904212598425198
 30
0.0
 10
0.8298897637795276
 20
0.7904212598425198
 30
0.0
 10
0.8298897637795276
 20
0.797255905511811
 30
0.0
 10
0.8298897637795276
 20
0.797255905511811
 30
0.0
 10
0.8298897637795276
 20
0.797255905511811
 30
0.0
 10
0.8298897637795276
 20
0.797255905511811
 30
0.0
 10
0.838748031496063
 20
0.797255905511811
 30
0.0
 10
0.838748031496063
 20
0.797255905511811
 30
0.0
 10
0.838748031496063
 20
0.797255905511811
 30
0.0
 10
0.8426102362204725
 20
0.797255905511811
 30
0.0
 10
0.8451653543307087
 20
0.7975866141732284
 30
0.0
 10
0.8464448818897639
 20
0.7982834645669291
 30
0.0
 10
0.8464448818897639
 20
0.7982834645669291
 30
0.0
 10
0.847720472440945
 20
0.7989488188976378
 30
0.0
 10
0.848720472440945
 20
0.8000314960629922
 30
0.0
 10
0.8494173228346457
 20
0.8015314960629921
 30
0.0
 10
0.8494173228346457
 20
0.8015314960629921
 30
0.0
 10
0.8501102362204724
 20
0.8030314960629922
 30
0.0
 10
0.850472440944882
 20
0.8057559055118111
 30
0.0
 10
0.850472440944882
 20
0.8097007874015748
 30
0.0
 10
0.850472440944882
 20
0.8097007874015748
 30
0.0
 10
0.850472440944882
 20
0.8097007874015748
 30
0.0
 10
0.850472440944882
 20
0.8871692913385827
 30
0.0
 10
0.850472440944882
 20
0.8871692913385827
 30
0.0
 10
0.850472440944882
 20
0.8871692913385827
 30
0.0
 10
0.850472440944882
 20
0.8871692913385827
 30
0.0
 10
0.8298897637795276
 20
0.8871692913385827
 30
0.0
 10
0.8298897637795276
 20
0.8871692913385827
 30
0.0
 10
0.8298897637795276
 20
0.8871692913385827
 30
0.0
 10
0.8298897637795276
 20
0.8871692913385827
 30
0.0
 10
0.8298897637795276
 20
0.8941692913385827
 30
0.0
 10
0.8298897637795276
 20
0.8941692913385827
 30
0.0
 10
0.8298897637795276
 20
0.8941692913385827
 30
0.0
 10
0.8411102362204724
 20
0.895751968503937
 30
0.0
 10
0.8505
 20
0.8990039370078741
 30
0.0
 10
0.8580551181102363
 20
0.9039488188976378
 30
0.0
  0
SPLINE
  5
82
330
1F
100
AcDbEntity
  8
LAYER_1
 62
   250
100
AcDbSpline
210
0.0
220
0.0
230
1.0
 70
    11
 71
     3
 72
    20
 73
    16
 74
     0
 42
0.0000000001
 43
0.0000000001
 40
0.0
 40
0.0
 40
0.0
 40
0.0
 40
0.25
 40
0.25
 40
0.25
 40
0.25
 40
0.5
 40
0.5
 40
0.5
 40
0.5
 40
0.75
 40
0.75
 40
0.75
 40
0.75
 40
1.0
 40
1.0
 40
1.0
 40
1.0
 10
0.9145275590551182
 20
0.8368937007874016
 30
0.0
 10
0.9145275590551182
 20
0.8368937007874016
 30
0.0
 10
0.9628622047244095
 20
0.8368937007874016
 30
0.0
 10
0.9628622047244095
 20
0.8368937007874016
 30
0.0
 10
0.9628622047244095
 20
0.8368937007874016
 30
0.0
 10
0.9628622047244095
 20
0.8368937007874016
 30
0.0
 10
0.9628622047244095
 20
0.8268110236220473
 30
0.0
 10
0.9628622047244095
 20
0.8268110236220473
 30
0.0
 10
0.9628622047244095
 20
0.8268110236220473
 30
0.0
 10
0.9628622047244095
 20
0.8268110236220473
 30
0.0
 10
0.9145275590551182
 20
0.8268110236220473
 30
0.0
 10
0.9145275590551182
 20
0.8268110236220473
 30
0.0
 10
0.9145275590551182
 20
0.8268110236220473
 30
0.0
 10
0.9145275590551182
 20
0.8268110236220473
 30
0.0
 10
0.9145275590551182
 20
0.8368937007874016
 30
0.0
 10
0.9145275590551182
 20
0.8368937007874016
 30
0.0
  0
SPLINE
  5
83
330
1F
100
AcDbEntity
  8
LAYER_1
 62
   250
100
AcDbSpline
210
0.0
220
0.0
230
1.0
 70
    11
 71
     3
 72
   172
 73
   168
 74
     0
 42
0.0000000001
 43
0.0000000001
 40
0.0
 40
0.0
 40
0.0
 40
0.0
 40
0.0238095238095238
 40
0.0238095238095238
 40
0.0238095238095238
 40
0.0238095238095238
 40
0.0476190476190476
 40
0.0476190476190476
 40
0.0476190476190476
 40
0.0476190476190476
 40
0.0714285714285714
 40
0.0714285714285714
 40
0.0714285714285714
 40
0.0714285714285714
 40
0.0952380952380952
 40
0.0952380952380952
 40
0.0952380952380952
 40
0.0952380952380952
 40
0.119047619047619
 40
0.119047619047619
 40
0.119047619047619
 40
0.119047619047619
 40
0.1428571428571429
 40
0.1428571428571429
 40
0.1428571428571429
 40
0.1428571428571429
 40
0.1666666666666667
 40
0.1666666666666667
 40
0.1666666666666667
 40
0.1666666666666667
 40
0.1904761904761905
 40
0.1904761904761905
 40
0.1904761904761905
 40
0.1904761904761905
 40
0.2142857142857143
 40
0.2142857142857143
 40
0.2142857142857143
 40
0.2142857142857143
 40
0.2380952380952381
 40
0.2380952380952381
 40
0.2380952380952381
 40
0.2380952380952381
 40
0.2619047619047619
 40
0.2619047619047619
 40
0.2619047619047619
 40
0.2619047619047619
 40
0.2857142857142857
 40
0.2857142857142857
 40
0.2857142857142857
 40
0.2857142857142857
 40
0.3095238095238095
 40
0.3095238095238095
 40
0.3095238095238095
 40
0.3095238095238095
 40
0.3333333333333334
 40
0.3333333333333334
 40
0.3333333333333334
 40
0.3333333333333334
 40
0.3571428571428572
 40
0.3571428571428572
 40
0.3571428571428572
 40
0.3571428571428572
 40
0.380952380952381
 40
0.380952380952381
 40
0.380952380952381
 40
0.380952380952381
 40
0.4047619047619049
 40
0.4047619047619049
 40
0.4047619047619049
 40
0.4047619047619049
 40
0.4285714285714287
 40
0.4285714285714287
 40
0.4285714285714287
 40
0.4285714285714287
 40
0.4523809523809526
 40
0.4523809523809526
 40
0.4523809523809526
 40
0.4523809523809526
 40
0.4761904761904764
 40
0.4761904761904764
 40
0.4761904761904764
 40
0.4761904761904764
 40
0.5000000000000002
 40
0.5000000000000002
 40
0.5000000000000002
 40
0.5000000000000002
 40
0.5238095238095241
 40
0.5238095238095241
 40
0.5238095238095241
 40
0.5238095238095241
 40
0.5476190476190479
 40
0.5476190476190479
 40
0.5476190476190479
 40
0.5476190476190479
 40
0.5714285714285717
 40
0.5714285714285717
 40
0.5714285714285717
 40
0.5714285714285717
 40
0.5952380952380956
 40
0.5952380952380956
 40
0.5952380952380956
 40
0.5952380952380956
 40
0.6190476190476194
 40
0.6190476190476194
 40
0.6190476190476194
 40
0.6190476190476194
 40
0.6428571428571432
 40
0.6428571428571432
 40
0.6428571428571432
 40
0.6428571428571432
 40
0.6666666666666671
 40
0.6666666666666671
 40
0.6666666666666671
 40
0.6666666666666671
 40
0.6904761904761909
 40
0.6904761904761909
 40
0.6904761904761909
 40
0.6904761904761909
 40
0.7142857142857148
 40
0.7142857142857148
 40
0.7142857142857148
 40
0.7142857142857148
 40
0.7380952380952386
 40
0.7380952380952386
 40
0.7380952380952386
 40
0.7380952380952386
 40
0.7619047619047624
 40
0.7619047619047624
 40
0.7619047619047624
 40
0.7619047619047624
 40
0.7857142857142863
 40
0.7857142857142863
 40
0.7857142857142863
 40
0.7857142857142863
 40
0.8095238095238101
 40
0.8095238095238101
 40
0.8095238095238101
 40
0.8095238095238101
 40
0.8333333333333339
 40
0.8333333333333339
 40
0.8333333333333339
 40
0.8333333333333339
 40
0.8571428571428578
 40
0.8571428571428578
 40
0.8571428571428578
 40
0.8571428571428578
 40
0.8809523809523816
 40
0.8809523809523816
 40
0.8809523809523816
 40
0.8809523809523816
 40
0.9047619047619054
 40
0.9047619047619054
 40
0.9047619047619054
 40
0.9047619047619054
 40
0.9285714285714293
 40
0.9285714285714293
 40
0.9285714285714293
 40
0.9285714285714293
 40
0.9523809523809531
 40
0.9523809523809531
 40
0.9523809523809531
 40
0.9523809523809531
 40
0.9761904761904769
 40
0.9761904761904769
 40
0.9761904761904769
 40
0.9761904761904769
 40
1.0
 40
1.0
 40
1.0
 40
1.0
 10
0.9941102362204725
 20
0.8735866141732284
 30
0.0
 10
0.9941102362204725
 20
0.8735866141732284
 30
0.0
 10
0.9863031496062993
 20
0.8748110236220473
 30
0.0
 10
0.9863031496062993
 20
0.8748110236220473
 30
0.0
 10
0.9863031496062993
 20
0.8748110236220473
 30
0.0
 10
0.987
 20
0.8806692913385827
 30
0.0
 10
0.9885275590551181
 20
0.8855314960629922
 30
0.0
 10
0.9908622047244095
 20
0.8893937007874017
 30
0.0
 10
0.9908622047244095
 20
0.8893937007874017
 30
0.0
 10
0.9939448818897638
 20
0.8945866141732284
 30
0.0
 10
0.9983031496062993
 20
0.8986417322834646
 30
0.0
 10
1.003944881889764
 20
0.9015314960629922
 30
0.0
 10
1.003944881889764
 20
0.9015314960629922
 30
0.0
 10
1.009610236220472
 20
0.9044488188976378
 30
0.0
 10
1.016082677165354
 20
0.9058937007874016
 30
0.0
 10
1.023417322834646
 20
0.9058937007874016
 30
0.0
 10
1.023417322834646
 20
0.9058937007874016
 30
0.0
 10
1.030610236220473
 20
0.9058937007874016
 30
0.0
 10
1.036972440944882
 20
0.9046141732283465
 30
0.0
 10
1.042444881889764
 20
0.9020314960629922
 30
0.0
 10
1.042444881889764
 20
0.9020314960629922
 30
0.0
 10
1.047917322834646
 20
0.8994488188976378
 30
0.0
 10
1.052055118110236
 20
0.8960314960629922
 30
0.0
 10
1.054858267716536
 20
0.8917834645669291
 30
0.0
 10
1.054858267716536
 20
0.8917834645669291
 30
0.0
 10
1.057665354330709
 20
0.8875314960629922
 30
0.0
 10
1.059055118110236
 20
0.8829212598425197
 30
0.0
 10
1.059055118110236
 20
0.877976377952756
 30
0.0
 10
1.059055118110236
 20
0.877976377952756
 30
0.0
 10
1.059055118110236
 20
0.8736417322834646
 30
0.0
 10
1.058
 20
0.869755905511811
 30
0.0
 10
1.055885826771654
 20
0.8663385826771654
 30
0.0
 10
1.055885826771654
 20
0.8663385826771654
 30
0.0
 10
1.053748031496063
 20
0.8629212598425198
 30
0.0
 10
1.050610236220473
 20
0.8598661417322835
 30
0.0
 10
1.046444881889764
 20
0.8571417322834646
 30
0.0
 10
1.046444881889764
 20
0.8571417322834646
 30
0.0
 10
1.0435
 20
0.8552559055118111
 30
0.0
 10
1.039692913385827
 20
0.8535866141732283
 30
0.0
 10
1.034972440944882
 20
0.8521968503937009
 30
0.0
 10
1.034972440944882
 20
0.8521968503937009
 30
0.0
 10
1.04
 20
0.851476377952756
 30
0.0
 10
1.044137795275591
 20
0.8503110236220473
 30
0.0
 10
1.047330708661417
 20
0.8486968503937008
 30
0.0
 10
1.047330708661417
 20
0.8486968503937008
 30
0.0
 10
1.052527559055118
 20
0.8460314960629921
 30
0.0
 10
1.056637795275591
 20
0.8423661417322835
 30
0.0
 10
1.059610236220473
 20
0.8376968503937008
 30
0.0
 10
1.059610236220473
 20
0.8376968503937008
 30
0.0
 10
1.062610236220473
 20
0.8330314960629922
 30
0.0
 10
1.064082677165354
 20
0.8279212598425197
 30
0.0
 10
1.064082677165354
 20
0.8223110236220472
 30
0.0
 10
1.064082677165354
 20
0.8223110236220472
 30
0.0
 10
1.064082677165354
 20
0.8133661417322835
 30
0.0
 10
1.060165354330709
 20
0.805476377952756
 30
0.0
 10
1.052303149606299
 20
0.7986692913385827
 30
0.0
 10
1.052303149606299
 20
0.7986692913385827
 30
0.0
 10
1.044417322834646
 20
0.7918661417322835
 30
0.0
 10
1.034248031496063
 20
0.7884763779527559
 30
0.0
 10
1.021775590551181
 20
0.7884763779527559
 30
0.0
 10
1.021775590551181
 20
0.7884763779527559
 30
0.0
 10
1.009472440944882
 20
0.7884763779527559
 30
0.0
 10
0.9991102362204725
 20
0.7917559055118111
 30
0.0
 10
0.9906929133858268
 20
0.7983110236220473
 30
0.0
 10
0.9906929133858268
 20
0.7983110236220473
 30
0.0
 10
0.9836377952755906
 20
0.8038937007874016
 30
0.0
 10
0.9801102362204724
 20
0.8095314960629921
 30
0.0
 10
0.9801102362204724
 20
0.8151692913385827
 30
0.0
 10
0.9801102362204724
 20
0.8151692913385827
 30
0.0
 10
0.9801102362204724
 20
0.8173937007874016
 30
0.0
 10
0.9808346456692914
 20
0.819255905511811
 30
0.0
 10
0.9822755905511812
 20
0.8207283464566929
 30
0.0
 10
0.9822755905511812
 20
0.8207283464566929
 30
0.0
 10
0.9836929133858268
 20
0.822228346456693
 30
0.0
 10
0.9855
 20
0.8229763779527559
 30
0.0
 10
0.9876929133858268
 20
0.8229763779527559
 30
0.0
 10
0.9876929133858268
 20
0.8229763779527559
 30
0.0
 10
0.9900551181102363
 20
0.8229763779527559
 30
0.0
 10
0.9921102362204725
 20
0.8220590551181103
 30
0.0
 10
0.9937755905511811
 20
0.8201968503937008
 30
0.0
 10
0.9937755905511811
 20
0.8201968503937008
 30
0.0
 10
0.9946929133858268
 20
0.8191692913385827
 30
0.0
 10
0.9957755905511811
 20
0.8167007874015748
 30
0.0
 10
0.9969448818897638
 20
0.8128110236220473
 30
0.0
 10
0.9969448818897638
 20
0.8128110236220473
 30
0.0
 10
0.9986377952755906
 20
0.8073110236220473
 30
0.0
 10
1.0015
 20
0.8031417322834646
 30
0.0
 10
1.0055
 20
0.8002834645669291
 30
0.0
 10
1.0055
 20
0.8002834645669291
 30
0.0
 10
1.009527559055118
 20
0.7973937007874016
 30
0.0
 10
1.0145
 20
0.7959488188976378
 30
0.0
 10
1.020472440944882
 20
0.7959488188976378
 30
0.0
 10
1.020472440944882
 20
0.7959488188976378
 30
0.0
 10
1.025803149606299
 20
0.7959488188976378
 30
0.0
 10
1.030555118110236
 20
0.7971141732283464
 30
0.0
 10
1.034748031496063
 20
0.7994488188976379
 30
0.0
 10
1.034748031496063
 20
0.7994488188976379
 30
0.0
 10
1.038972440944882
 20
0.8017834645669292
 30
0.0
 10
1.042275590551181
 20
0.8050866141732284
 30
0.0
 10
1.044720472440945
 20
0.8093937007874016
 30
0.0
 10
1.044720472440945
 20
0.8093937007874016
 30
0.0
 10
1.047165354330709
 20
0.8136692913385827
 30
0.0
 10
1.048389763779528
 20
0.8183661417322835
 30
0.0
 10
1.048389763779528
 20
0.8234488188976379
 30
0.0
 10
1.048389763779528
 20
0.8234488188976379
 30
0.0
 10
1.048389763779528
 20
0.8275866141732284
 30
0.0
 10
1.0475
 20
0.8312834645669291
 30
0.0
 10
1.045748031496063
 20
0.8345590551181102
 30
0.0
 10
1.045748031496063
 20
0.8345590551181102
 30
0.0
 10
1.043972440944882
 20
0.8378661417322835
 30
0.0
 10
1.041472440944882
 20
0.8406417322834646
 30
0.0
 10
1.038220472440945
 20
0.8429212598425198
 30
0.0
 10
1.038220472440945
 20
0.8429212598425198
 30
0.0
 10
1.035720472440945
 20
0.8446968503937008
 30
0.0
 10
1.032527559055118
 20
0.8459488188976378
 30
0.0
 10
1.028665354330709
 20
0.8466417322834646
 30
0.0
 10
1.028665354330709
 20
0.8466417322834646
 30
0.0
 10
1.024775590551181
 20
0.8473661417322835
 30
0.0
 10
1.021275590551181
 20
0.8477244094488189
 30
0.0
 10
1.018192913385827
 20
0.8477244094488189
 30
0.0
 10
1.018192913385827
 20
0.8477244094488189
 30
0.0
 10
1.018192913385827
 20
0.8477244094488189
 30
0.0
 10
1.010637795275591
 20
0.8477244094488189
 30
0.0
 10
1.010637795275591
 20
0.8477244094488189
 30
0.0
 10
1.010637795275591
 20
0.8477244094488189
 30
0.0
 10
1.010637795275591
 20
0.8477244094488189
 30
0.0
 10
1.010637795275591
 20
0.8556141732283465
 30
0.0
 10
1.010637795275591
 20
0.8556141732283465
 30
0.0
 10
1.010637795275591
 20
0.8556141732283465
 30
0.0
 10
1.010637795275591
 20
0.8556141732283465
 30
0.0
 10
1.015444881889764
 20
0.8556141732283465
 30
0.0
 10
1.015444881889764
 20
0.8556141732283465
 30
0.0
 10
1.015444881889764
 20
0.8556141732283465
 30
0.0
 10
1.020192913385827
 20
0.8556141732283465
 30
0.0
 10
1.024748031496063
 20
0.8561692913385827
 30
0.0
 10
1.029110236220473
 20
0.8572834645669292
 30
0.0
 10
1.029110236220473
 20
0.8572834645669292
 30
0.0
 10
1.033444881889764
 20
0.8583937007874016
 30
0.0
 10
1.036917322834646
 20
0.8606692913385827
 30
0.0
 10
1.039527559055118
 20
0.8641417322834646
 30
0.0
 10
1.039527559055118
 20
0.8641417322834646
 30
0.0
 10
1.042110236220472
 20
0.8676141732283464
 30
0.0
 10
1.043417322834646
 20
0.8715590551181103
 30
0.0
 10
1.043417322834646
 20
0.8759488188976379
 30
0.0
 10
1.043417322834646
 20
0.8759488188976379
 30
0.0
 10
1.043417322834646
 20
0.879751968503937
 30
0.0
 10
1.042527559055118
 20
0.8831692913385827
 30
0.0
 10
1.040692913385827
 20
0.8861968503937008
 30
0.0
 10
1.040692913385827
 20
0.8861968503937008
 30
0.0
 10
1.038889763779528
 20
0.8892519685039371
 30
0.0
 10
1.036220472440945
 20
0.8916692913385828
 30
0.0
 10
1.032692913385827
 20
0.8934488188976378
 30
0.0
 10
1.032692913385827
 20
0.8934488188976378
 30
0.0
 10
1.029165354330709
 20
0.895224409448819
 30
0.0
 10
1.025082677165354
 20
0.8961417322834646
 30
0.0
 10
1.020472440944882
 20
0.8961417322834646
 30
0.0
 10
1.020472440944882
 20
0.8961417322834646
 30
0.0
 10
1.015972440944882
 20
0.8961417322834646
 30
0.0
 10
1.011830708661417
 20
0.8951968503937008
 30
0.0
 10
1.008055118110236
 20
0.8933661417322835
 30
0.0
 10
1.008055118110236
 20
0.8933661417322835
 30
0.0
 10
1.004303149606299
 20
0.8915314960629922
 30
0.0
 10
1.001275590551181
 20
0.8890590551181102
 30
0.0
 10
0.999
 20
0.8859488188976379
 30
0.0
 10
0.999
 20
0.8859488188976379
 30
0.0
 10
0.996720472440945
 20
0.8828661417322835
 30
0.0
 10
0.9950826771653544
 20
0.878751968503937
 30
0.0
 10
0.9941102362204725
 20
0.8735866141732284
 30
0.0
  0
SPLINE
  5
84
330
1F
100
AcDbEntity
  8
LAYER_1
 62
   250
100
AcDbSpline
210
0.0
220
0.0
230
1.0
 70
    11
 71
     3
 72
    20
 73
    16
 74
     0
 42
0.0000000001
 43
0.0000000001
 40
0.0
 40
0.0
 40
0.0
 40
0.0
 40
0.25
 40
0.25
 40
0.25
 40
0.25
 40
0.5
 40
0.5
 40
0.5
 40
0.5
 40
0.75
 40
0.75
 40
0.75
 40
0.75
 40
1.0
 40
1.0
 40
1.0
 40
1.0
 10
1.156889763779528
 20
0.9098110236220472
 30
0.0
 10
1.156889763779528
 20
0.9098110236220472
 30
0.0
 10
1.101307086614173
 20
0.7541141732283465
 30
0.0
 10
1.101307086614173
 20
0.7541141732283465
 30
0.0
 10
1.101307086614173
 20
0.7541141732283465
 30
0.0
 10
1.101307086614173
 20
0.7541141732283465
 30
0.0
 10
1.089251968503937
 20
0.7541141732283465
 30
0.0
 10
1.089251968503937
 20
0.7541141732283465
 30
0.0
 10
1.089251968503937
 20
0.7541141732283465
 30
0.0
 10
1.089251968503937
 20
0.7541141732283465
 30
0.0
 10
1.1445
 20
0.9098110236220472
 30
0.0
 10
1.1445
 20
0.9098110236220472
 30
0.0
 10
1.1445
 20
0.9098110236220472
 30
0.0
 10
1.1445
 20
0.9098110236220472
 30
0.0
 10
1.156889763779528
 20
0.9098110236220472
 30
0.0
 10
1.156889763779528
 20
0.9098110236220472
 30
0.0
  0
SPLINE
  5
85
330
1F
100
AcDbEntity
  8
LAYER_1
 62
   250
100
AcDbSpline
210
0.0
220
0.0
230
1.0
 70
    11
 71
     3
 72
    72
 73
    68
 74
     0
 42
0.0000000001
 43
0.0000000001
 40
0.0
 40
0.0
 40
0.0
 40
0.0
 40
0.0588235294117647
 40
0.0588235294117647
 40
0.0588235294117647
 40
0.0588235294117647
 40
0.1176470588235294
 40
0.1176470588235294
 40
0.1176470588235294
 40
0.1176470588235294
 40
0.1764705882352941
 40
0.1764705882352941
 40
0.1764705882352941
 40
0.1764705882352941
 40
0.2352941176470588
 40
0.2352941176470588
 40
0.2352941176470588
 40
0.2352941176470588
 40
0.2941176470588235
 40
0.2941176470588235
 40
0.2941176470588235
 40
0.2941176470588235
 40
0.3529411764705883
 40
0.3529411764705883
 40
0.3529411764705883
 40
0.3529411764705883
 40
0.411764705882353
 40
0.411764705882353
 40
0.411764705882353
 40
0.411764705882353
 40
0.4705882352941177
 40
0.4705882352941177
 40
0.4705882352941177
 40
0.4705882352941177
 40
0.5294117647058824
 40
0.5294117647058824
 40
0.5294117647058824
 40
0.5294117647058824
 40
0.5882352941176471
 40
0.5882352941176471
 40
0.5882352941176471
 40
0.5882352941176471
 40
0.6470588235294118
 40
0.6470588235294118
 40
0.6470588235294118
 40
0.6470588235294118
 40
0.7058823529411765
 40
0.7058823529411765
 40
0.7058823529411765
 40
0.7058823529411765
 40
0.7647058823529412
 40
0.7647058823529412
 40
0.7647058823529412
 40
0.7647058823529412
 40
0.823529411764706
 40
0.823529411764706
 40
0.823529411764706
 40
0.823529411764706
 40
0.8823529411764707
 40
0.8823529411764707
 40
0.8823529411764707
 40
0.8823529411764707
 40
0.9411764705882354
 40
0.9411764705882354
 40
0.9411764705882354
 40
0.9411764705882354
 40
1.0
 40
1.0
 40
1.0
 40
1.0
 10
1.231444881889764
 20
0.9039488188976378
 30
0.0
 10
1.231444881889764
 20
0.9039488188976378
 30
0.0
 10
1.237527559055118
 20
0.9039488188976378
 30
0.0
 10
1.237527559055118
 20
0.9039488188976378
 30
0.0
 10
1.237527559055118
 20
0.9039488188976378
 30
0.0
 10
1.237527559055118
 20
0.9039488188976378
 30
0.0
 10
1.237527559055118
 20
0.8097007874015748
 30
0.0
 10
1.237527559055118
 20
0.8097007874015748
 30
0.0
 10
1.237527559055118
 20
0.8097007874015748
 30
0.0
 10
1.237527559055118
 20
0.805255905511811
 30
0.0
 10
1.237834645669292
 20
0.8023937007874016
 30
0.0
 10
1.238389763779528
 20
0.8011141732283464
 30
0.0
 10
1.238389763779528
 20
0.8011141732283464
 30
0.0
 10
1.238972440944882
 20
0.7998385826771653
 30
0.0
 10
1.239889763779528
 20
0.7988937007874016
 30
0.0
 10
1.241192913385827
 20
0.7982283464566929
 30
0.0
 10
1.241192913385827
 20
0.7982283464566929
 30
0.0
 10
1.2425
 20
0.7975866141732284
 30
0.0
 10
1.245082677165355
 20
0.797255905511811
 30
0.0
 10
1.248944881889764
 20
0.797255905511811
 30
0.0
 10
1.248944881889764
 20
0.797255905511811
 30
0.0
 10
1.248944881889764
 20
0.797255905511811
 30
0.0
 10
1.256917322834646
 20
0.797255905511811
 30
0.0
 10
1.256917322834646
 20
0.797255905511811
 30
0.0
 10
1.256917322834646
 20
0.797255905511811
 30
0.0
 10
1.256917322834646
 20
0.797255905511811
 30
0.0
 10
1.256917322834646
 20
0.7904212598425198
 30
0.0
 10
1.256917322834646
 20
0.7904212598425198
 30
0.0
 10
1.256917322834646
 20
0.7904212598425198
 30
0.0
 10
1.256917322834646
 20
0.7904212598425198
 30
0.0
 10
1.203279527559055
 20
0.7904212598425198
 30
0.0
 10
1.203279527559055
 20
0.7904212598425198
 30
0.0
 10
1.203279527559055
 20
0.7904212598425198
 30
0.0
 10
1.203279527559055
 20
0.7904212598425198
 30
0.0
 10
1.203279527559055
 20
0.797255905511811
 30
0.0
 10
1.203279527559055
 20
0.797255905511811
 30
0.0
 10
1.203279527559055
 20
0.797255905511811
 30
0.0
 10
1.203279527559055
 20
0.797255905511811
 30
0.0
 10
1.212137795275591
 20
0.797255905511811
 30
0.0
 10
1.212137795275591
 20
0.797255905511811
 30
0.0
 10
1.212137795275591
 20
0.797255905511811
 30
0.0
 10
1.216
 20
0.797255905511811
 30
0.0
 10
1.218555118110236
 20
0.7975866141732284
 30
0.0
 10
1.219834645669292
 20
0.7982834645669291
 30
0.0
 10
1.219834645669292
 20
0.7982834645669291
 30
0.0
 10
1.221110236220472
 20
0.7989488188976378
 30
0.0
 10
1.222110236220473
 20
0.8000314960629922
 30
0.0
 10
1.222807086614173
 20
0.8015314960629921
 30
0.0
 10
1.222807086614173
 20
0.8015314960629921
 30
0.0
 10
1.2235
 20
0.8030314960629922
 30
0.0
 10
1.223862204724409
 20
0.8057559055118111
 30
0.0
 10
1.223862204724409
 20
0.8097007874015748
 30
0.0
 10
1.223862204724409
 20
0.8097007874015748
 30
0.0
 10
1.223862204724409
 20
0.8097007874015748
 30
0.0
 10
1.223862204724409
 20
0.8871692913385827
 30
0.0
 10
1.223862204724409
 20
0.8871692913385827
 30
0.0
 10
1.223862204724409
 20
0.8871692913385827
 30
0.0
 10
1.223862204724409
 20
0.8871692913385827
 30
0.0
 10
1.203279527559055
 20
0.8871692913385827
 30
0.0
 10
1.203279527559055
 20
0.8871692913385827
 30
0.0
 10
1.203279527559055
 20
0.8871692913385827
 30
0.0
 10
1.203279527559055
 20
0.8871692913385827
 30
0.0
 10
1.203279527559055
 20
0.8941692913385827
 30
0.0
 10
1.203279527559055
 20
0.8941692913385827
 30
0.0
 10
1.203279527559055
 20
0.8941692913385827
 30
0.0
 10
1.2145
 20
0.895751968503937
 30
0.0
 10
1.223889763779528
 20
0.8990039370078741
 30
0.0
 10
1.231444881889764
 20
0.9039488188976378
 30
0.0
  0
SPLINE
  5
86
330
1F
100
AcDbEntity
  8
LAYER_1
 62
   250
100
AcDbSpline
210
0.0
220
0.0
230
1.0
 70
    11
 71
     3
 72
    84
 73
    80
 74
     0
 42
0.0000000001
 43
0.0000000001
 40
0.0
 40
0.0
 40
0.0
 40
0.0
 40
0.05
 40
0.05
 40
0.05
 40
0.05
 40
0.1
 40
0.1
 40
0.1
 40
0.1
 40
0.15
 40
0.15
 40
0.15
 40
0.15
 40
0.2
 40
0.2
 40
0.2
 40
0.2
 40
0.25
 40
0.25
 40
0.25
 40
0.25
 40
0.3
 40
0.3
 40
0.3
 40
0.3
 40
0.35
 40
0.35
 40
0.35
 40
0.35
 40
0.4
 40
0.4
 40
0.4
 40
0.4
 40
0.45
 40
0.45
 40
0.45
 40
0.45
 40
0.4999999999999999
 40
0.4999999999999999
 40
0.4999999999999999
 40
0.4999999999999999
 40
0.5499999999999999
 40
0.5499999999999999
 40
0.5499999999999999
 40
0.5499999999999999
 40
0.6
 40
0.6
 40
0.6
 40
0.6
 40
0.65
 40
0.65
 40
0.65
 40
0.65
 40
0.7000000000000001
 40
0.7000000000000001
 40
0.7000000000000001
 40
0.7000000000000001
 40
0.7500000000000001
 40
0.7500000000000001
 40
0.7500000000000001
 40
0.7500000000000001
 40
0.8000000000000002
 40
0.8000000000000002
 40
0.8000000000000002
 40
0.8000000000000002
 40
0.8500000000000002
 40
0.8500000000000002
 40
0.8500000000000002
 40
0.8500000000000002
 40
0.9000000000000002
 40
0.9000000000000002
 40
0.9000000000000002
 40
0.9000000000000002
 40
0.9500000000000003
 40
0.9500000000000003
 40
0.9500000000000003
 40
0.9500000000000003
 40
1.0
 40
1.0
 40
1.0
 40
1.0
 10
1.363110236220473
 20
0.9060590551181103
 30
0.0
 10
1.363110236220473
 20
0.9060590551181103
 30
0.0
 10
1.363110236220473
 20
0.8986417322834646
 30
0.0
 10
1.363110236220473
 20
0.8986417322834646
 30
0.0
 10
1.363110236220473
 20
0.8986417322834646
 30
0.0
 10
1.349724409448819
 20
0.898503937007874
 30
0.0
 10
1.338889763779528
 20
0.8965314960629922
 30
0.0
 10
1.330614173228347
 20
0.8928110236220472
 30
0.0
 10
1.330614173228347
 20
0.8928110236220472
 30
0.0
 10
1.322334645669292
 20
0.8890590551181102
 30
0.0
 10
1.316251968503937
 20
0.8834488188976378
 30
0.0
 10
1.312334645669292
 20
0.8760039370078741
 30
0.0
 10
1.312334645669292
 20
0.8760039370078741
 30
0.0
 10
1.308417322834646
 20
0.8685314960629922
 30
0.0
 10
1.306224409448819
 20
0.8593385826771653
 30
0.0
 10
1.305751968503937
 20
0.8484488188976378
 30
0.0
 10
1.305751968503937
 20
0.8484488188976378
 30
0.0
 10
1.3085
 20
0.8526692913385827
 30
0.0
 10
1.311334645669291
 20
0.8559763779527559
 30
0.0
 10
1.314251968503937
 20
0.8583385826771653
 30
0.0
 10
1.314251968503937
 20
0.8583385826771653
 30
0.0
 10
1.317141732283465
 20
0.8606968503937008
 30
0.0
 10
1.320527559055118
 20
0.8625039370078741
 30
0.0
 10
1.324417322834646
 20
0.8637834645669291
 30
0.0
 10
1.324417322834646
 20
0.8637834645669291
 30
0.0
 10
1.328307086614173
 20
0.8650590551181103
 30
0.0
 10
1.332555118110236
 20
0.8656968503937008
 30
0.0
 10
1.337169291338583
 20
0.8656968503937008
 30
0.0
 10
1.337169291338583
 20
0.8656968503937008
 30
0.0
 10
1.344527559055118
 20
0.8656968503937008
 30
0.0
 10
1.351110236220473
 20
0.8640590551181103
 30
0.0
 10
1.356862204724409
 20
0.8608110236220473
 30
0.0
 10
1.356862204724409
 20
0.8608110236220473
 30
0.0
 10
1.362610236220472
 20
0.8575590551181103
 30
0.0
 10
1.367082677165354
 20
0.8531417322834646
 30
0.0
 10
1.370279527559055
 20
0.8475866141732283
 30
0.0
 10
1.370279527559055
 20
0.8475866141732283
 30
0.0
 10
1.373472440944882
 20
0.8420314960629922
 30
0.0
 10
1.375082677165354
 20
0.835476377952756
 30
0.0
 10
1.375082677165354
 20
0.8279488188976378
 30
0.0
 10
1.375082677165354
 20
0.8279488188976378
 30
0.0
 10
1.375082677165354
 20
0.8159488188976378
 30
0.0
 10
1.371472440944882
 20
0.8065314960629921
 30
0.0
 10
1.364251968503937
 20
0.7997007874015748
 30
0.0
 10
1.364251968503937
 20
0.7997007874015748
 30
0.0
 10
1.356279527559055
 20
0.7922007874015749
 30
0.0
 10
1.345944881889764
 20
0.7884763779527559
 30
0.0
 10
1.333251968503937
 20
0.7884763779527559
 30
0.0
 10
1.333251968503937
 20
0.7884763779527559
 30
0.0
 10
1.324082677165354
 20
0.7884763779527559
 30
0.0
 10
1.31636220472441
 20
0.7903661417322835
 30
0.0
 10
1.310055118110236
 20
0.7941692913385827
 30
0.0
 10
1.310055118110236
 20
0.7941692913385827
 30
0.0
 10
1.303751968503937
 20
0.7979488188976378
 30
0.0
 10
1.298751968503937
 20
0.8037559055118111
 30
0.0
 10
1.295027559055118
 20
0.8115866141732284
 30
0.0
 10
1.295027559055118
 20
0.8115866141732284
 30
0.0
 10
1.291334645669291
 20
0.8193937007874016
 30
0.0
 10
1.289472440944882
 20
0.8290590551181103
 30
0.0
 10
1.289472440944882
 20
0.8405590551181102
 30
0.0
 10
1.289472440944882
 20
0.8405590551181102
 30
0.0
 10
1.289472440944882
 20
0.8521141732283465
 30
0.0
 10
1.291444881889764
 20
0.8623661417322835
 30
0.0
 10
1.29536220472441
 20
0.8713110236220473
 30
0.0
 10
1.29536220472441
 20
0.8713110236220473
 30
0.0
 10
1.299307086614173
 20
0.8802519685039371
 30
0.0
 10
1.304751968503937
 20
0.8874488188976378
 30
0.0
 10
1.311696850393701
 20
0.8928661417322835
 30
0.0
 10
1.311696850393701
 20
0.8928661417322835
 30
0.0
 10
1.318641732283465
 20
0.8983110236220473
 30
0.0
 10
1.326251968503937
 20
0.9018661417322835
 30
0.0
 10
1.3345
 20
0.9035314960629922
 30
0.0
 10
1.3345
 20
0.9035314960629922
 30
0.0
 10
1.342779527559055
 20
0.9052244094488189
 30
0.0
 10
1.350196850393701
 20
0.9060590551181103
 30
0.0
 10
1.356779527559055
 20
0.9060590551181103
 30
0.0
 10
1.356779527559055
 20
0.9060590551181103
 30
0.0
 10
1.356779527559055
 20
0.9060590551181103
 30
0.0
 10
1.363110236220473
 20
0.9060590551181103
 30
0.0
 10
1.363110236220473
 20
0.9060590551181103
 30
0.0
  0
SPLINE
  5
87
330
1F
100
AcDbEntity
  8
LAYER_1
 62
   250
100
AcDbSpline
210
0.0
220
0.0
230
1.0
 70
    11
 71
     3
 72
    40
 73
    36
 74
     0
 42
0.0000000001
 43
0.0000000001
 40
0.0
 40
0.0
 40
0.0
 40
0.0
 40
0.1111111111111111
 40
0.1111111111111111
 40
0.1111111111111111
 40
0.1111111111111111
 40
0.2222222222222222
 40
0.2222222222222222
 40
0.2222222222222222
 40
0.2222222222222222
 40
0.3333333333333333
 40
0.3333333333333333
 40
0.3333333333333333
 40
0.3333333333333333
 40
0.4444444444444444
 40
0.4444444444444444
 40
0.4444444444444444
 40
0.4444444444444444
 40
0.5555555555555556
 40
0.5555555555555556
 40
0.5555555555555556
 40
0.5555555555555556
 40
0.6666666666666667
 40
0.6666666666666667
 40
0.6666666666666667
 40
0.6666666666666667
 40
0.7777777777777779
 40
0.7777777777777779
 40
0.7777777777777779
 40
0.7777777777777779
 40
0.8888888888888891
 40
0.8888888888888891
 40
0.8888888888888891
 40
0.8888888888888891
 40
1.0
 40
1.0
 40
1.0
 40
1.0
 10
1.333417322834646
 20
0.8570590551181103
 30
0.0
 10
1.325614173228346
 20
0.8570590551181103
 30
0.0
 10
1.319196850393701
 20
0.8541141732283465
 30
0.0
 10
1.314169291338583
 20
0.8481968503937009
 30
0.0
 10
1.314169291338583
 20
0.8481968503937009
 30
0.0
 10
1.309141732283465
 20
0.8422834645669292
 30
0.0
 10
1.306641732283465
 20
0.8351692913385828
 30
0.0
 10
1.306641732283465
 20
0.8268937007874017
 30
0.0
 10
1.306641732283465
 20
0.8268937007874017
 30
0.0
 10
1.306641732283465
 20
0.8210314960629922
 30
0.0
 10
1.30786220472441
 20
0.8156141732283465
 30
0.0
 10
1.310307086614173
 20
0.8106417322834646
 30
0.0
 10
1.310307086614173
 20
0.8106417322834646
 30
0.0
 10
1.312751968503937
 20
0.8056692913385827
 30
0.0
 10
1.315889763779528
 20
0.8020039370078741
 30
0.0
 10
1.319751968503937
 20
0.7995866141732284
 30
0.0
 10
1.319751968503937
 20
0.7995866141732284
 30
0.0
 10
1.323582677165354
 20
0.7971692913385827
 30
0.0
 10
1.327944881889764
 20
0.7959488188976378
 30
0.0
 10
1.332751968503937
 20
0.7959488188976378
 30
0.0
 10
1.332751968503937
 20
0.7959488188976378
 30
0.0
 10
1.340251968503937
 20
0.7959488188976378
 30
0.0
 10
1.346472440944882
 20
0.7987834645669292
 30
0.0
 10
1.351444881889764
 20
0.8044488188976379
 30
0.0
 10
1.351444881889764
 20
0.8044488188976379
 30
0.0
 10
1.356389763779528
 20
0.8101141732283465
 30
0.0
 10
1.358889763779528
 20
0.8177283464566929
 30
0.0
 10
1.358889763779528
 20
0.8272834645669291
 30
0.0
 10
1.358889763779528
 20
0.8272834645669291
 30
0.0
 10
1.358889763779528
 20
0.8363937007874016
 30
0.0
 10
1.356472440944882
 20
0.8436417322834646
 30
0.0
 10
1.351641732283465
 20
0.849003937007874
 30
0.0
 10
1.351641732283465
 20
0.849003937007874
 30
0.0
 10
1.346807086614173
 20
0.8543937007874016
 30
0.0
 10
1.340724409448819
 20
0.8570590551181103
 30
0.0
 10
1.333417322834646
 20
0.8570590551181103
 30
0.0
  0
SPLINE
  5
88
330
1F
100
AcDbEntity
  8
LAYER_1
 62
   250
100
AcDbSpline
210
0.0
220
0.0
230
1.0
 70
    11
 71
     3
 72
    60
 73
    56
 74
     0
 42
0.0000000001
 43
0.0000000001
 40
0.0
 40
0.0
 40
0.0
 40
0.0
 40
0.0714285714285714
 40
0.0714285714285714
 40
0.0714285714285714
 40
0.0714285714285714
 40
0.1428571428571429
 40
0.1428571428571429
 40
0.1428571428571429
 40
0.1428571428571429
 40
0.2142857142857143
 40
0.2142857142857143
 40
0.2142857142857143
 40
0.2142857142857143
 40
0.2857142857142857
 40
0.2857142857142857
 40
0.2857142857142857
 40
0.2857142857142857
 40
0.3571428571428571
 40
0.3571428571428571
 40
0.3571428571428571
 40
0.3571428571428571
 40
0.4285714285714285
 40
0.4285714285714285
 40
0.4285714285714285
 40
0.4285714285714285
 40
0.4999999999999999
 40
0.4999999999999999
 40
0.4999999999999999
 40
0.4999999999999999
 40
0.5714285714285713
 40
0.5714285714285713
 40
0.5714285714285713
 40
0.5714285714285713
 40
0.6428571428571427
 40
0.6428571428571427
 40
0.6428571428571427
 40
0.6428571428571427
 40
0.7142857142857141
 40
0.7142857142857141
 40
0.7142857142857141
 40
0.7142857142857141
 40
0.7857142857142855
 40
0.7857142857142855
 40
0.7857142857142855
 40
0.7857142857142855
 40
0.8571428571428569
 40
0.8571428571428569
 40
0.8571428571428569
 40
0.8571428571428569
 40
0.9285714285714283
 40
0.9285714285714283
 40
0.9285714285714283
 40
0.9285714285714283
 40
1.0
 40
1.0
 40
1.0
 40
1.0
 10
1.392251968503937
 20
0.8618661417322835
 30
0.0
 10
1.392251968503937
 20
0.8618661417322835
 30
0.0
 10
1.38786220472441
 20
0.8672559055118111
 30
0.0
 10
1.38786220472441
 20
0.8672559055118111
 30
0.0
 10
1.38786220472441
 20
0.8672559055118111
 30
0.0
 10
1.398976377952756
 20
0.8763110236220473
 30
0.0
 10
1.40455905511811
 20
0.8838661417322835
 30
0.0
 10
1.40455905511811
 20
0.8899488188976379
 30
0.0
 10
1.40455905511811
 20
0.8899488188976379
 30
0.0
 10
1.40455905511811
 20
0.8906417322834646
 30
0.0
 10
1.404503937007874
 20
0.8915314960629922
 30
0.0
 10
1.404389763779528
 20
0.8925590551181103
 30
0.0
 10
1.404389763779528
 20
0.8925590551181103
 30
0.0
 10
1.403476377952756
 20
0.8921692913385827
 30
0.0
 10
1.40255905511811
 20
0.8918661417322835
 30
0.0
 10
1.401696850393701
 20
0.8916692913385828
 30
0.0
 10
1.401696850393701
 20
0.8916692913385828
 30
0.0
 10
1.400834645669292
 20
0.8914488188976378
 30
0.0
 10
1.400031496062992
 20
0.8913385826771654
 30
0.0
 10
1.399251968503937
 20
0.8913385826771654
 30
0.0
 10
1.399251968503937
 20
0.8913385826771654
 30
0.0
 10
1.396641732283465
 20
0.8913385826771654
 30
0.0
 10
1.39455905511811
 20
0.8921692913385827
 30
0.0
 10
1.393003937007874
 20
0.8938661417322835
 30
0.0
 10
1.393003937007874
 20
0.8938661417322835
 30
0.0
 10
1.391417322834646
 20
0.8955314960629922
 30
0.0
 10
1.390641732283465
 20
0.8976692913385828
 30
0.0
 10
1.390641732283465
 20
0.9002834645669292
 30
0.0
 10
1.390641732283465
 20
0.9002834645669292
 30
0.0
 10
1.390641732283465
 20
0.9028385826771654
 30
0.0
 10
1.391586614173229
 20
0.9050590551181102
 30
0.0
 10
1.393476377952756
 20
0.9069488188976378
 30
0.0
 10
1.393476377952756
 20
0.9069488188976378
 30
0.0
 10
1.395389763779528
 20
0.9088661417322835
 30
0.0
 10
1.397669291338583
 20
0.9098110236220472
 30
0.0
 10
1.400307086614173
 20
0.9098110236220472
 30
0.0
 10
1.400307086614173
 20
0.9098110236220472
 30
0.0
 10
1.404003937007874
 20
0.9098110236220472
 30
0.0
 10
1.407169291338583
 20
0.9083385826771654
 30
0.0
 10
1.409807086614173
 20
0.9053661417322835
 30
0.0
 10
1.409807086614173
 20
0.9053661417322835
 30
0.0
 10
1.412417322834646
 20
0.9024212598425198
 30
0.0
 10
1.413751968503937
 20
0.8986141732283465
 30
0.0
 10
1.413751968503937
 20
0.8939488188976378
 30
0.0
 10
1.413751968503937
 20
0.8939488188976378
 30
0.0
 10
1.413751968503937
 20
0.8908937007874016
 30
0.0
 10
1.413114173228347
 20
0.8876968503937008
 30
0.0
 10
1.41186220472441
 20
0.8843661417322835
 30
0.0
 10
1.41186220472441
 20
0.8843661417322835
 30
0.0
 10
1.410614173228347
 20
0.8810314960629921
 30
0.0
 10
1.408807086614173
 20
0.8779488188976379
 30
0.0
 10
1.406417322834646
 20
0.8750866141732284
 30
0.0
 10
1.406417322834646
 20
0.8750866141732284
 30
0.0
 10
1.404031496062992
 20
0.8722559055118111
 30
0.0
 10
1.399307086614173
 20
0.8678385826771654
 30
0.0
 10
1.392251968503937
 20
0.8618661417322835
 30
0.0
  0
SPLINE
  5
89
330
1F
100
AcDbEntity
  8
LAYER_1
 62
   250
100
AcDbSpline
210
0.0
220
0.0
230
1.0
 70
    11
 71
     3
 72
    60
 73
    56
 74
     0
 42
0.0000000001
 43
0.0000000001
 40
0.0
 40
0.0
 40
0.0
 40
0.0
 40
0.0714285714285714
 40
0.0714285714285714
 40
0.0714285714285714
 40
0.0714285714285714
 40
0.1428571428571429
 40
0.1428571428571429
 40
0.1428571428571429
 40
0.1428571428571429
 40
0.2142857142857143
 40
0.2142857142857143
 40
0.2142857142857143
 40
0.2142857142857143
 40
0.2857142857142857
 40
0.2857142857142857
 40
0.2857142857142857
 40
0.2857142857142857
 40
0.3571428571428571
 40
0.3571428571428571
 40
0.3571428571428571
 40
0.3571428571428571
 40
0.4285714285714285
 40
0.4285714285714285
 40
0.4285714285714285
 40
0.4285714285714285
 40
0.4999999999999999
 40
0.4999999999999999
 40
0.4999999999999999
 40
0.4999999999999999
 40
0.5714285714285713
 40
0.5714285714285713
 40
0.5714285714285713
 40
0.5714285714285713
 40
0.6428571428571427
 40
0.6428571428571427
 40
0.6428571428571427
 40
0.6428571428571427
 40
0.7142857142857141
 40
0.7142857142857141
 40
0.7142857142857141
 40
0.7142857142857141
 40
0.7857142857142855
 40
0.7857142857142855
 40
0.7857142857142855
 40
0.7857142857142855
 40
0.8571428571428569
 40
0.8571428571428569
 40
0.8571428571428569
 40
0.8571428571428569
 40
0.9285714285714283
 40
0.9285714285714283
 40
0.9285714285714283
 40
0.9285714285714283
 40
1.0
 40
1.0
 40
1.0
 40
1.0
 10
1.421307086614173
 20
0.8618661417322835
 30
0.0
 10
1.421307086614173
 20
0.8618661417322835
 30
0.0
 10
1.416917322834646
 20
0.8672559055118111
 30
0.0
 10
1.416917322834646
 20
0.8672559055118111
 30
0.0
 10
1.416917322834646
 20
0.8672559055118111
 30
0.0
 10
1.428031496062992
 20
0.8763110236220473
 30
0.0
 10
1.433614173228347
 20
0.8838661417322835
 30
0.0
 10
1.433614173228347
 20
0.8899488188976379
 30
0.0
 10
1.433614173228347
 20
0.8899488188976379
 30
0.0
 10
1.433614173228347
 20
0.8906417322834646
 30
0.0
 10
1.43355905511811
 20
0.8915314960629922
 30
0.0
 10
1.433444881889764
 20
0.8925590551181103
 30
0.0
 10
1.433444881889764
 20
0.8925590551181103
 30
0.0
 10
1.432531496062992
 20
0.8921692913385827
 30
0.0
 10
1.431614173228347
 20
0.8918661417322835
 30
0.0
 10
1.430751968503937
 20
0.8916692913385828
 30
0.0
 10
1.430751968503937
 20
0.8916692913385828
 30
0.0
 10
1.429889763779528
 20
0.8914488188976378
 30
0.0
 10
1.42905905511811
 20
0.8913385826771654
 30
0.0
 10
1.428224409448819
 20
0.8913385826771654
 30
0.0
 10
1.428224409448819
 20
0.8913385826771654
 30
0.0
 10
1.425669291338583
 20
0.8913385826771654
 30
0.0
 10
1.423614173228347
 20
0.8921692913385827
 30
0.0
 10
1.42205905511811
 20
0.8938661417322835
 30
0.0
 10
1.42205905511811
 20
0.8938661417322835
 30
0.0
 10
1.420476377952756
 20
0.8955314960629922
 30
0.0
 10
1.419696850393701
 20
0.8976692913385828
 30
0.0
 10
1.419696850393701
 20
0.9002834645669292
 30
0.0
 10
1.419696850393701
 20
0.9002834645669292
 30
0.0
 10
1.419696850393701
 20
0.9028385826771654
 30
0.0
 10
1.420641732283465
 20
0.9050590551181102
 30
0.0
 10
1.422531496062992
 20
0.9069488188976378
 30
0.0
 10
1.422531496062992
 20
0.9069488188976378
 30
0.0
 10
1.424417322834646
 20
0.9088661417322835
 30
0.0
 10
1.426724409448819
 20
0.9098110236220472
 30
0.0
 10
1.429362204724409
 20
0.9098110236220472
 30
0.0
 10
1.429362204724409
 20
0.9098110236220472
 30
0.0
 10
1.43305905511811
 20
0.9098110236220472
 30
0.0
 10
1.436224409448819
 20
0.9083385826771654
 30
0.0
 10
1.43886220472441
 20
0.9053661417322835
 30
0.0
 10
1.43886220472441
 20
0.9053661417322835
 30
0.0
 10
1.441472440944882
 20
0.9024212598425198
 30
0.0
 10
1.442807086614173
 20
0.8986141732283465
 30
0.0
 10
1.442807086614173
 20
0.8939488188976378
 30
0.0
 10
1.442807086614173
 20
0.8939488188976378
 30
0.0
 10
1.442807086614173
 20
0.8908937007874016
 30
0.0
 10
1.442169291338583
 20
0.8876968503937008
 30
0.0
 10
1.440917322834646
 20
0.8843661417322835
 30
0.0
 10
1.440917322834646
 20
0.8843661417322835
 30
0.0
 10
1.439669291338583
 20
0.8810314960629921
 30
0.0
 10
1.437862204724409
 20
0.8779488188976379
 30
0.0
 10
1.435476377952756
 20
0.8750866141732284
 30
0.0
 10
1.435476377952756
 20
0.8750866141732284
 30
0.0
 10
1.433086614173228
 20
0.8722559055118111
 30
0.0
 10
1.42836220472441
 20
0.8678385826771654
 30
0.0
 10
1.421307086614173
 20
0.8618661417322835
 30
0.0
  0
ENDSEC
  0
SECTION
  2
OBJECTS
  0
DICTIONARY
  5
C
330
0
100
AcDbDictionary
  3
ACAD_GROUP
350
D
  3
ACAD_LAYOUT
350
1A
  3
ACAD_MLINESTYLE
350
17
  3
ACAD_PLOTSETTINGS
350
19
  3
ACDBHEADERROUNDTRIPXREC
350
8A
  0
DICTIONARY
  5
AA
330
29
100
AcDbDictionary
280
     1
  3
ACAD_XREC_ROUNDTRIP
360
AB
  0
DICTIONARY
  5
D
102
{ACAD_REACTORS
330
C
102
}
330
C
100
AcDbDictionary
  0
DICTIONARY
  5
1A
102
{ACAD_REACTORS
330
C
102
}
330
C
100
AcDbDictionary
  0
DICTIONARY
  5
17
102
{ACAD_REACTORS
330
C
102
}
330
C
100
AcDbDictionary
  3
STANDARD
350
18
  0
DICTIONARY
  5
19
102
{ACAD_REACTORS
330
C
102
}
330
C
100
AcDbDictionary
  0
DICTIONARY
  5
8A
102
{ACAD_REACTORS
330
C
102
}
330
C
100
AcDbDictionary
  3
CEPSNTYPE
350
93
  3
DIMSTYLEDATA
350
A9
  3
FINGERPRINTGUID
350
94
  3
HYPERLINKBASE
350
8D
  3
INSUNITS
350
92
  3
LAYOUTDICT
350
8F
  3
LWETCUNION
350
91
  3
PLOTSETDICT
350
90
  3
PSVPSCALE
350
96
  3
PUCSBASE
350
99
  3
PUCSORGBACK
350
9F
  3
PUCSORGBOTTOM
350
9B
  3
PUCSORGFRONT
350
9E
  3
PUCSORGLEFT
350
9C
  3
PUCSORGRIGHT
350
9D
  3
PUCSORGTOP
350
9A
  3
PUCSORTHOREF
350
97
  3
PUCSORTHOVIEW
350
98
  3
STYLESHEET
350
8E
  3
TSTACKALIGN
350
8B
  3
TSTACKSIZE
350
8C
  3
UCSBASE
350
A2
  3
UCSORGBACK
350
A8
  3
UCSORGBOTTOM
350
A4
  3
UCSORGFRONT
350
A7
  3
UCSORGLEFT
350
A5
  3
UCSORGRIGHT
350
A6
  3
UCSORGTOP
350
A3
  3
UCSORTHOREF
350
A0
  3
UCSORTHOVIEW
350
A1
  3
VERSIONGUID
350
95
  0
XRECORD
  5
AB
102
{ACAD_REACTORS
330
AA
102
}
330
AA
100
AcDbXrecord
102
UCS
 74
     0
 71
     1
 10
0.0
 20
0.0
 30
0.0
 10
1.0
 20
0.0
 30
0.0
 10
0.0
 20
1.0
 30
0.0
146
0.0
 79
     0
102
VIEW
281
     0
  0
MLINESTYLE
  5
18
102
{ACAD_REACTORS
330
17
102
}
330
17
100
AcDbMlineStyle
  2
Standard
 70
     0
  3

 62
   256
 51
90.0
 52
90.0
 71
     2
 49
0.5
 62
   256
  6
BYLAYER
 49
-0.5
 62
   256
  6
BYLAYER
  0
XRECORD
  5
93
102
{ACAD_REACTORS
330
8A
102
}
330
8A
100
AcDbXrecord
 90
        0
  0
XRECORD
  5
A9
102
{ACAD_REACTORS
330
8A
102
}
330
8A
100
AcDbXrecord
1000
DSTYLE
1002
{
1070
   340
340
11
1002
}
  0
XRECORD
  5
94
102
{ACAD_REACTORS
330
8A
102
}
330
8A
100
AcDbXrecord
  1
{FAEB1C30-E019-11D5-929B-00C0DF256EC4}
  0
XRECORD
  5
8D
102
{ACAD_REACTORS
330
8A
102
}
330
8A
100
AcDbXrecord
  1

  0
XRECORD
  5
92
102
{ACAD_REACTORS
330
8A
102
}
330
8A
100
AcDbXrecord
 90
        1
  0
XRECORD
  5
8F
102
{ACAD_REACTORS
330
8A
102
}
330
8A
100
AcDbXrecord
340
1A
  0
XRECORD
  5
91
102
{ACAD_REACTORS
330
8A
102
}
330
8A
100
AcDbXrecord
 90
     2560
  0
XRECORD
  5
90
102
{ACAD_REACTORS
330
8A
102
}
330
8A
100
AcDbXrecord
340
19
  0
XRECORD
  5
96
102
{ACAD_REACTORS
330
8A
102
}
330
8A
100
AcDbXrecord
 40
0.0
  0
XRECORD
  5
99
102
{ACAD_REACTORS
330
8A
102
}
330
8A
100
AcDbXrecord
340
0
  0
XRECORD
  5
9F
102
{ACAD_REACTORS
330
8A
102
}
330
8A
100
AcDbXrecord
 10
0.0
 20
0.0
 30
0.0
  0
XRECORD
  5
9B
102
{ACAD_REACTORS
330
8A
102
}
330
8A
100
AcDbXrecord
 10
0.0
 20
0.0
 30
0.0
  0
XRECORD
  5
9E
102
{ACAD_REACTORS
330
8A
102
}
330
8A
100
AcDbXrecord
 10
0.0
 20
0.0
 30
0.0
  0
XRECORD
  5
9C
102
{ACAD_REACTORS
330
8A
102
}
330
8A
100
AcDbXrecord
 10
0.0
 20
0.0
 30
0.0
  0
XRECORD
  5
9D
102
{ACAD_REACTORS
330
8A
102
}
330
8A
100
AcDbXrecord
 10
0.0
 20
0.0
 30
0.0
  0
XRECORD
  5
9A
102
{ACAD_REACTORS
330
8A
102
}
330
8A
100
AcDbXrecord
 10
0.0
 20
0.0
 30
0.0
  0
XRECORD
  5
97
102
{ACAD_REACTORS
330
8A
102
}
330
8A
100
AcDbXrecord
340
0
  0
XRECORD
  5
98
102
{ACAD_REACTORS
330
8A
102
}
330
8A
100
AcDbXrecord
 70
     0
  0
XRECORD
  5
8E
102
{ACAD_REACTORS
330
8A
102
}
330
8A
100
AcDbXrecord
  1

  0
XRECORD
  5
8B
102
{ACAD_REACTORS
330
8A
102
}
330
8A
100
AcDbXrecord
 90
        1
  0
XRECORD
  5
8C
102
{ACAD_REACTORS
330
8A
102
}
330
8A
100
AcDbXrecord
 90
       70
  0
XRECORD
  5
A2
102
{ACAD_REACTORS
330
8A
102
}
330
8A
100
AcDbXrecord
340
0
  0
XRECORD
  5
A8
102
{ACAD_REACTORS
330
8A
102
}
330
8A
100
AcDbXrecord
 10
0.0
 20
0.0
 30
0.0
  0
XRECORD
  5
A4
102
{ACAD_REACTORS
330
8A
102
}
330
8A
100
AcDbXrecord
 10
0.0
 20
0.0
 30
0.0
  0
XRECORD
  5
A7
102
{ACAD_REACTORS
330
8A
102
}
330
8A
100
AcDbXrecord
 10
0.0
 20
0.0
 30
0.0
  0
XRECORD
  5
A5
102
{ACAD_REACTORS
330
8A
102
}
330
8A
100
AcDbXrecord
 10
0.0
 20
0.0
 30
0.0
  0
XRECORD
  5
A6
102
{ACAD_REACTORS
330
8A
102
}
330
8A
100
AcDbXrecord
 10
0.0
 20
0.0
 30
0.0
  0
XRECORD
  5
A3
102
{ACAD_REACTORS
330
8A
102
}
330
8A
100
AcDbXrecord
 10
0.0
 20
0.0
 30
0.0
  0
XRECORD
  5
A0
102
{ACAD_REACTORS
330
8A
102
}
330
8A
100
AcDbXrecord
340
0
  0
XRECORD
  5
A1
102
{ACAD_REACTORS
330
8A
102
}
330
8A
100
AcDbXrecord
 70
     0
  0
XRECORD
  5
95
102
{ACAD_REACTORS
330
8A
102
}
330
8A
100
AcDbXrecord
  1
{FAEB1C32-E019-11D5-929B-00C0DF256EC4}
  0
ENDSEC
  0
EOF
