  0
SECTION
  2
HEADER
  9
$ACADVER
  1
AC1014
  9
$ACADMAINTVER
 70
     9
  9
$DWGCODEPAGE
  3
ANSI_1252
  9
$INSBASE
 10
0.0
 20
0.0
 30
0.0
  9
$EXTMIN
 10
-0.3812047244094488
 20
0.1412204724409449
 30
0.0
  9
$EXTMAX
 10
0.7886889763779528
 20
3.446161417322835
 30
0.0
  9
$LIMMIN
 10
0.0
 20
0.0
  9
$LIMMAX
 10
12.0
 20
9.0
  9
$ORTHOMODE
 70
     0
  9
$REGENMODE
 70
     1
  9
$FILLMODE
 70
     1
  9
$QTEXTMODE
 70
     0
  9
$MIRRTEXT
 70
     1
  9
$DRAGMODE
 70
     2
  9
$LTSCALE
 40
1.0
  9
$OSMODE
 70
    37
  9
$ATTMODE
 70
     1
  9
$TEXTSIZE
 40
0.2
  9
$TRACEWID
 40
0.05
  9
$TEXTSTYLE
  7
STANDARD
  9
$CLAYER
  8
0
  9
$CELTYPE
  6
BYLAYER
  9
$CECOLOR
 62
   256
  9
$CELTSCALE
 40
1.0
  9
$DELOBJ
 70
     1
  9
$DISPSILH
 70
     0
  9
$DIMSCALE
 40
1.0
  9
$DIMASZ
 40
0.18
  9
$DIMEXO
 40
0.0625
  9
$DIMDLI
 40
0.38
  9
$DIMRND
 40
0.0
  9
$DIMDLE
 40
0.0
  9
$DIMEXE
 40
0.18
  9
$DIMTP
 40
0.0
  9
$DIMTM
 40
0.0
  9
$DIMTXT
 40
0.18
  9
$DIMCEN
 40
0.09
  9
$DIMTSZ
 40
0.0
  9
$DIMTOL
 70
     0
  9
$DIMLIM
 70
     0
  9
$DIMTIH
 70
     1
  9
$DIMTOH
 70
     1
  9
$DIMSE1
 70
     0
  9
$DIMSE2
 70
     0
  9
$DIMTAD
 70
     0
  9
$DIMZIN
 70
     0
  9
$DIMBLK
  1

  9
$DIMASO
 70
     1
  9
$DIMSHO
 70
     1
  9
$DIMPOST
  1

  9
$DIMAPOST
  1

  9
$DIMALT
 70
     0
  9
$DIMALTD
 70
     2
  9
$DIMALTF
 40
25.4
  9
$DIMLFAC
 40
1.0
  9
$DIMTOFL
 70
     0
  9
$DIMTVP
 40
0.0
  9
$DIMTIX
 70
     0
  9
$DIMSOXD
 70
     0
  9
$DIMSAH
 70
     0
  9
$DIMBLK1
  1

  9
$DIMBLK2
  1

  9
$DIMSTYLE
  2
STANDARD
  9
$DIMCLRD
 70
     0
  9
$DIMCLRE
 70
     0
  9
$DIMCLRT
 70
     0
  9
$DIMTFAC
 40
1.0
  9
$DIMGAP
 40
0.09
  9
$DIMJUST
 70
     0
  9
$DIMSD1
 70
     0
  9
$DIMSD2
 70
     0
  9
$DIMTOLJ
 70
     1
  9
$DIMTZIN
 70
     0
  9
$DIMALTZ
 70
     0
  9
$DIMALTTZ
 70
     0
  9
$DIMFIT
 70
     3
  9
$DIMUPT
 70
     0
  9
$DIMUNIT
 70
     2
  9
$DIMDEC
 70
     4
  9
$DIMTDEC
 70
     4
  9
$DIMALTU
 70
     2
  9
$DIMALTTD
 70
     2
  9
$DIMTXSTY
  7
STANDARD
  9
$DIMAUNIT
 70
     0
  9
$LUNITS
 70
     2
  9
$LUPREC
 70
     4
  9
$SKETCHINC
 40
0.1
  9
$FILLETRAD
 40
0.5
  9
$AUNITS
 70
     0
  9
$AUPREC
 70
     0
  9
$MENU
  1
.
  9
$ELEVATION
 40
0.0
  9
$PELEVATION
 40
0.0
  9
$THICKNESS
 40
0.0
  9
$LIMCHECK
 70
     0
  9
$CHAMFERA
 40
0.5
  9
$CHAMFERB
 40
0.5
  9
$CHAMFERC
 40
1.0
  9
$CHAMFERD
 40
0.0
  9
$SKPOLY
 70
     0
  9
$TDCREATE
 40
2454123.666017338
  9
$TDUPDATE
 40
2454123.666017349
  9
$TDINDWG
 40
0.0000000116
  9
$TDUSRTIMER
 40
0.0000000116
  9
$USRTIMER
 70
     1
  9
$ANGBASE
 50
0.0
  9
$ANGDIR
 70
     0
  9
$PDMODE
 70
     0
  9
$PDSIZE
 40
0.0
  9
$PLINEWID
 40
0.0
  9
$COORDS
 70
     1
  9
$SPLFRAME
 70
     0
  9
$SPLINETYPE
 70
     6
  9
$SPLINESEGS
 70
     8
  9
$ATTDIA
 70
     0
  9
$ATTREQ
 70
     1
  9
$HANDLING
 70
     1
  9
$HANDSEED
  5
AA
  9
$SURFTAB1
 70
     6
  9
$SURFTAB2
 70
     6
  9
$SURFTYPE
 70
     6
  9
$SURFU
 70
     6
  9
$SURFV
 70
     6
  9
$UCSNAME
  2

  9
$UCSORG
 10
0.0
 20
0.0
 30
0.0
  9
$UCSXDIR
 10
1.0
 20
0.0
 30
0.0
  9
$UCSYDIR
 10
0.0
 20
1.0
 30
0.0
  9
$PUCSNAME
  2

  9
$PUCSORG
 10
0.0
 20
0.0
 30
0.0
  9
$PUCSXDIR
 10
1.0
 20
0.0
 30
0.0
  9
$PUCSYDIR
 10
0.0
 20
1.0
 30
0.0
  9
$USERI1
 70
     0
  9
$USERI2
 70
     0
  9
$USERI3
 70
     0
  9
$USERI4
 70
     0
  9
$USERI5
 70
     0
  9
$USERR1
 40
0.0
  9
$USERR2
 40
0.0
  9
$USERR3
 40
0.0
  9
$USERR4
 40
0.0
  9
$USERR5
 40
0.0
  9
$WORLDVIEW
 70
     1
  9
$SHADEDGE
 70
     3
  9
$SHADEDIF
 70
    70
  9
$TILEMODE
 70
     1
  9
$MAXACTVP
 70
    64
  9
$PINSBASE
 10
0.0
 20
0.0
 30
0.0
  9
$PLIMCHECK
 70
     0
  9
$PEXTMIN
 10
1.000000000000000E+20
 20
1.000000000000000E+20
 30
1.000000000000000E+20
  9
$PEXTMAX
 10
-1.000000000000000E+20
 20
-1.000000000000000E+20
 30
-1.000000000000000E+20
  9
$PLIMMIN
 10
0.0
 20
0.0
  9
$PLIMMAX
 10
12.0
 20
9.0
  9
$UNITMODE
 70
     0
  9
$VISRETAIN
 70
     1
  9
$PLINEGEN
 70
     0
  9
$PSLTSCALE
 70
     1
  9
$TREEDEPTH
 70
  3020
  9
$PICKSTYLE
 70
     1
  9
$CMLSTYLE
  2
STANDARD
  9
$CMLJUST
 70
     0
  9
$CMLSCALE
 40
1.0
  9
$PROXYGRAPHICS
 70
     1
  9
$MEASUREMENT
 70
     0
  0
ENDSEC
  0
SECTION
  2
CLASSES
  0
CLASS
  1
ACDBDICTIONARYWDFLT
  2
AcDbDictionaryWithDefault
  3
ObjectDBX Classes
 90
        0
280
     0
281
     0
  0
CLASS
  1
XRECORD
  2
AcDbXrecord
  3
AutoCAD 2000
 90
        0
280
     0
281
     0
  0
CLASS
  1
LWPOLYLINE
  2
AcDbPolyline
  3
AutoCAD 2000
 90
        0
280
     0
281
     1
  0
CLASS
  1
HATCH
  2
AcDbHatch
  3
AutoCAD 2000
 90
        0
280
     0
281
     1
  0
CLASS
  1
ACDBPLACEHOLDER
  2
AcDbPlaceHolder
  3
ObjectDBX Classes
 90
        0
280
     0
281
     0
  0
CLASS
  1
LAYOUT
  2
AcDbLayout
  3
ObjectDBX Classes
 90
        0
280
     0
281
     0
  0
ENDSEC
  0
SECTION
  2
TABLES
  0
TABLE
  2
VPORT
  5
8
330
0
100
AcDbSymbolTable
 70
     2
  0
VPORT
  5
29
102
{ACAD_XDICTIONARY
360
A8
102
}
330
8
100
AcDbSymbolTableRecord
100
AcDbViewportTableRecord
  2
*ACTIVE
 70
     0
 10
0.0
 20
0.0
 11
1.0
 21
1.0
 12
10.42990654205607
 22
4.5
 13
0.0
 23
0.0
 14
0.5
 24
0.5
 15
0.5
 25
0.5
 16
0.0
 26
0.0
 36
1.0
 17
0.0
 27
0.0
 37
0.0
 40
9.0
 41
1.972972972850329
 42
50.0
 43
0.0
 44
0.0
 50
0.0
 51
0.0
 71
     0
 72
   100
 73
     1
 74
     3
 75
     0
 76
     0
 77
     0
 78
     0
  0
ENDTAB
  0
TABLE
  2
LTYPE
  5
5
330
0
100
AcDbSymbolTable
 70
     1
  0
LTYPE
  5
14
330
5
100
AcDbSymbolTableRecord
100
AcDbLinetypeTableRecord
  2
BYBLOCK
 70
     0
  3

 72
    65
 73
     0
 40
0.0
  0
LTYPE
  5
15
330
5
100
AcDbSymbolTableRecord
100
AcDbLinetypeTableRecord
  2
BYLAYER
 70
     0
  3

 72
    65
 73
     0
 40
0.0
  0
LTYPE
  5
16
330
5
100
AcDbSymbolTableRecord
100
AcDbLinetypeTableRecord
  2
CONTINUOUS
 70
     0
  3
Solid line
 72
    65
 73
     0
 40
0.0
  0
ENDTAB
  0
TABLE
  2
LAYER
  5
2
330
0
100
AcDbSymbolTable
 70
     2
  0
LAYER
  5
10
330
2
100
AcDbSymbolTableRecord
100
AcDbLayerTableRecord
  2
0
 70
     0
 62
     7
  6
CONTINUOUS
  0
LAYER
  5
2B
330
2
100
AcDbSymbolTableRecord
100
AcDbLayerTableRecord
  2
LAYER_1
 70
     0
 62
     7
  6
CONTINUOUS
  0
ENDTAB
  0
TABLE
  2
STYLE
  5
3
330
0
100
AcDbSymbolTable
 70
     1
  0
STYLE
  5
11
330
3
100
AcDbSymbolTableRecord
100
AcDbTextStyleTableRecord
  2
STANDARD
 70
     0
 40
0.0
 41
1.0
 50
0.0
 71
     0
 42
0.2
  3
txt
  4

  0
ENDTAB
  0
TABLE
  2
VIEW
  5
6
330
0
100
AcDbSymbolTable
 70
     0
  0
ENDTAB
  0
TABLE
  2
UCS
  5
7
330
0
100
AcDbSymbolTable
 70
     0
  0
ENDTAB
  0
TABLE
  2
APPID
  5
9
330
0
100
AcDbSymbolTable
 70
     2
  0
APPID
  5
12
330
9
100
AcDbSymbolTableRecord
100
AcDbRegAppTableRecord
  2
ACAD
 70
     0
  0
APPID
  5
2A
330
9
100
AcDbSymbolTableRecord
100
AcDbRegAppTableRecord
  2
ODA
 70
     0
  0
ENDTAB
  0
TABLE
  2
DIMSTYLE
  5
A
330
0
100
AcDbSymbolTable
 70
     1
  0
DIMSTYLE
105
27
330
A
100
AcDbSymbolTableRecord
100
AcDbDimStyleTableRecord
  2
STANDARD
 70
     0
  3

  4

  5

  6

  7

 40
1.0
 41
0.18
 42
0.0625
 43
0.38
 44
0.18
 45
0.0
 46
0.0
 47
0.0
 48
0.0
140
0.18
141
0.09
142
0.0
143
25.4
144
1.0
145
0.0
146
1.0
147
0.09
 71
     0
 72
     0
 73
     1
 74
     1
 75
     0
 76
     0
 77
     0
 78
     0
170
     0
171
     2
172
     0
173
     0
174
     0
175
     0
176
     0
177
     0
178
     0
270
     2
271
     4
272
     4
273
     2
274
     2
340
11
275
     0
280
     0
281
     0
282
     0
283
     1
284
     0
285
     0
286
     0
287
     3
288
     0
  0
ENDTAB
  0
TABLE
  2
BLOCK_RECORD
  5
1
330
0
100
AcDbSymbolTable
 70
     1
  0
BLOCK_RECORD
  5
1F
330
1
100
AcDbSymbolTableRecord
100
AcDbBlockTableRecord
  2
*MODEL_SPACE
  0
BLOCK_RECORD
  5
1B
330
1
100
AcDbSymbolTableRecord
100
AcDbBlockTableRecord
  2
*PAPER_SPACE
  0
ENDTAB
  0
ENDSEC
  0
SECTION
  2
BLOCKS
  0
BLOCK
  5
20
330
1F
100
AcDbEntity
  8
0
100
AcDbBlockBegin
  2
*MODEL_SPACE
 70
     0
 71
     0
 10
0.0
 20
0.0
 30
0.0
  3
*MODEL_SPACE
  1

  0
ENDBLK
  5
21
330
1F
100
AcDbEntity
  8
0
100
AcDbBlockEnd
  0
BLOCK
  5
1C
330
1B
100
AcDbEntity
 67
     1
  8
0
100
AcDbBlockBegin
  2
*PAPER_SPACE
 70
     0
 71
     0
 10
0.0
 20
0.0
 30
0.0
  3
*PAPER_SPACE
  1

  0
ENDBLK
  5
1D
330
1B
100
AcDbEntity
 67
     1
  8
0
100
AcDbBlockEnd
  0
ENDSEC
  0
SECTION
  2
ENTITIES
  0
SPLINE
  5
2C
330
1F
100
AcDbEntity
  8
LAYER_1
 62
   250
100
AcDbSpline
210
0.0
220
0.0
230
1.0
 70
    11
 71
     3
 72
    28
 73
    24
 74
     0
 42
0.0000000001
 43
0.0000000001
 40
0.0
 40
0.0
 40
0.0
 40
0.0
 40
0.1666666666666667
 40
0.1666666666666667
 40
0.1666666666666667
 40
0.1666666666666667
 40
0.3333333333333333
 40
0.3333333333333333
 40
0.3333333333333333
 40
0.3333333333333333
 40
0.5
 40
0.5
 40
0.5
 40
0.5
 40
0.6666666666666666
 40
0.6666666666666666
 40
0.6666666666666666
 40
0.6666666666666666
 40
0.8333333333333333
 40
0.8333333333333333
 40
0.8333333333333333
 40
0.8333333333333333
 40
1.0
 40
1.0
 40
1.0
 40
1.0
 10
0.4747913385826772
 20
1.228007874015748
 30
0.0
 10
0.4747913385826772
 20
1.228007874015748
 30
0.0
 10
0.2872913385826772
 20
1.228007874015748
 30
0.0
 10
0.2872913385826772
 20
1.228007874015748
 30
0.0
 10
0.2872913385826772
 20
1.228007874015748
 30
0.0
 10
0.2424251968503937
 20
0.8974488188976378
 30
0.0
 10
0.0137874015748032
 20
1.02246062992126
 30
0.0
 10
-0.0877086614173228
 20
0.7905078740157481
 30
0.0
 10
-0.0877086614173228
 20
0.7905078740157481
 30
0.0
 10
-0.0877086614173228
 20
0.7905078740157481
 30
0.0
 10
-0.2127086614173228
 20
0.7905078740157481
 30
0.0
 10
-0.2127086614173228
 20
0.7905078740157481
 30
0.0
 10
-0.2127086614173228
 20
0.7905078740157481
 30
0.0
 10
-0.2127086614173228
 20
0.7905078740157481
 30
0.0
 10
-0.2127086614173228
 20
0.6655078740157481
 30
0.0
 10
-0.2127086614173228
 20
0.6655078740157481
 30
0.0
 10
-0.2127086614173228
 20
0.6655078740157481
 30
0.0
 10
-0.2127086614173228
 20
0.6655078740157481
 30
0.0
 10
0.4747913385826772
 20
0.6655078740157481
 30
0.0
 10
0.4747913385826772
 20
0.6655078740157481
 30
0.0
 10
0.4747913385826772
 20
0.6655078740157481
 30
0.0
 10
0.4747913385826772
 20
0.6655078740157481
 30
0.0
 10
0.4747913385826772
 20
1.228007874015748
 30
0.0
 10
0.4747913385826772
 20
1.228007874015748
 30
0.0
  0
SPLINE
  5
2D
330
1F
100
AcDbEntity
  8
LAYER_1
 62
   250
100
AcDbSpline
210
0.0
220
0.0
230
1.0
 70
    11
 71
     3
 72
   104
 73
   100
 74
     0
 42
0.0000000001
 43
0.0000000001
 40
0.0
 40
0.0
 40
0.0
 40
0.0
 40
0.04
 40
0.04
 40
0.04
 40
0.04
 40
0.08
 40
0.08
 40
0.08
 40
0.08
 40
0.12
 40
0.12
 40
0.12
 40
0.12
 40
0.16
 40
0.16
 40
0.16
 40
0.16
 40
0.2
 40
0.2
 40
0.2
 40
0.2
 40
0.24
 40
0.24
 40
0.24
 40
0.24
 40
0.28
 40
0.28
 40
0.28
 40
0.28
 40
0.32
 40
0.32
 40
0.32
 40
0.32
 40
0.36
 40
0.36
 40
0.36
 40
0.36
 40
0.4
 40
0.4
 40
0.4
 40
0.4
 40
0.44
 40
0.44
 40
0.44
 40
0.44
 40
0.4799999999999999
 40
0.4799999999999999
 40
0.4799999999999999
 40
0.4799999999999999
 40
0.5199999999999999
 40
0.5199999999999999
 40
0.5199999999999999
 40
0.5199999999999999
 40
0.5599999999999999
 40
0.5599999999999999
 40
0.5599999999999999
 40
0.5599999999999999
 40
0.6
 40
0.6
 40
0.6
 40
0.6
 40
0.64
 40
0.64
 40
0.64
 40
0.64
 40
0.6800000000000001
 40
0.6800000000000001
 40
0.6800000000000001
 40
0.6800000000000001
 40
0.7200000000000001
 40
0.7200000000000001
 40
0.7200000000000001
 40
0.7200000000000001
 40
0.7600000000000001
 40
0.7600000000000001
 40
0.7600000000000001
 40
0.7600000000000001
 40
0.8000000000000002
 40
0.8000000000000002
 40
0.8000000000000002
 40
0.8000000000000002
 40
0.8400000000000002
 40
0.8400000000000002
 40
0.8400000000000002
 40
0.8400000000000002
 40
0.8800000000000002
 40
0.8800000000000002
 40
0.8800000000000002
 40
0.8800000000000002
 40
0.9200000000000003
 40
0.9200000000000003
 40
0.9200000000000003
 40
0.9200000000000003
 40
0.9600000000000003
 40
0.9600000000000003
 40
0.9600000000000003
 40
0.9600000000000003
 40
1.0
 40
1.0
 40
1.0
 40
1.0
 10
-0.2277637795275591
 20
0.4785551181102363
 30
0.0
 10
-0.2277637795275591
 20
0.4785551181102363
 30
0.0
 10
-0.1737913385826772
 20
0.4785551181102363
 30
0.0
 10
-0.1737913385826772
 20
0.4785551181102363
 30
0.0
 10
-0.1737913385826772
 20
0.4785551181102363
 30
0.0
 10
-0.1606220472440945
 20
0.4785551181102363
 30
0.0
 10
-0.1515944881889764
 20
0.4779448818897638
 30
0.0
 10
-0.1467086614173228
 20
0.476748031496063
 30
0.0
 10
-0.1467086614173228
 20
0.476748031496063
 30
0.0
 10
-0.139484251968504
 20
0.4750275590551181
 30
0.0
 10
-0.1337913385826772
 20
0.4718897637795276
 30
0.0
 10
-0.1295669291338583
 20
0.4673307086614174
 30
0.0
 10
-0.1295669291338583
 20
0.4673307086614174
 30
0.0
 10
-0.1253740157480315
 20
0.4627755905511811
 30
0.0
 10
-0.1232637795275591
 20
0.4572755905511811
 30
0.0
 10
-0.1232637795275591
 20
0.4508897637795276
 30
0.0
 10
-0.1232637795275591
 20
0.4508897637795276
 30
0.0
 10
-0.1232637795275591
 20
0.4462755905511811
 30
0.0
 10
-0.1243740157480315
 20
0.4421377952755906
 30
0.0
 10
-0.1265944881889764
 20
0.4384724409448819
 30
0.0
 10
-0.1265944881889764
 20
0.4384724409448819
 30
0.0
 10
-0.1288188976377953
 20
0.4348031496062992
 30
0.0
 10
-0.1320669291338583
 20
0.4316653543307087
 30
0.0
 10
-0.1362913385826772
 20
0.4290826771653544
 30
0.0
 10
-0.1362913385826772
 20
0.4290826771653544
 30
0.0
 10
-0.1390118110236221
 20
0.4273897637795276
 30
0.0
 10
-0.1426811023622047
 20
0.4259448818897638
 30
0.0
 10
-0.1473464566929134
 20
0.424748031496063
 30
0.0
 10
-0.1473464566929134
 20
0.424748031496063
 30
0.0
 10
-0.1414291338582677
 20
0.4236653543307087
 30
0.0
 10
-0.1369291338582677
 20
0.4223622047244094
 30
0.0
 10
-0.1338464566929134
 20
0.4208622047244094
 30
0.0
 10
-0.1338464566929134
 20
0.4208622047244094
 30
0.0
 10
-0.1291811023622047
 20
0.4185826771653544
 30
0.0
 10
-0.1254842519685039
 20
0.4153346456692914
 30
0.0
 10
-0.1227913385826772
 20
0.4110826771653544
 30
0.0
 10
-0.1227913385826772
 20
0.4110826771653544
 30
0.0
 10
-0.1200669291338583
 20
0.4068622047244095
 30
0.0
 10
-0.1187086614173228
 20
0.4020826771653543
 30
0.0
 10
-0.1187086614173228
 20
0.3967755905511811
 30
0.0
 10
-0.1187086614173228
 20
0.3967755905511811
 30
0.0
 10
-0.1187086614173228
 20
0.3916102362204725
 30
0.0
 10
-0.1200393700787402
 20
0.3868346456692914
 30
0.0
 10
-0.1227086614173228
 20
0.3824448818897638
 30
0.0
 10
-0.1227086614173228
 20
0.3824448818897638
 30
0.0
 10
-0.1253464566929134
 20
0.3780551181102362
 30
0.0
 10
-0.1291220472440945
 20
0.3744448818897638
 30
0.0
 10
-0.1339566929133858
 20
0.3716102362204725
 30
0.0
 10
-0.1339566929133858
 20
0.3716102362204725
 30
0.0
 10
-0.1388188976377953
 20
0.3688070866141732
 30
0.0
 10
-0.144484251968504
 20
0.367
 30
0.0
 10
-0.1509291338582677
 20
0.3661929133858268
 30
0.0
 10
-0.1509291338582677
 20
0.3661929133858268
 30
0.0
 10
-0.1574015748031496
 20
0.3654173228346457
 30
0.0
 10
-0.1640393700787402
 20
0.3650275590551181
 30
0.0
 10
-0.1708740157480315
 20
0.3650275590551181
 30
0.0
 10
-0.1708740157480315
 20
0.3650275590551181
 30
0.0
 10
-0.1708740157480315
 20
0.3650275590551181
 30
0.0
 10
-0.2277637795275591
 20
0.3650275590551181
 30
0.0
 10
-0.2277637795275591
 20
0.3650275590551181
 30
0.0
 10
-0.2277637795275591
 20
0.3650275590551181
 30
0.0
 10
-0.2277637795275591
 20
0.3650275590551181
 30
0.0
 10
-0.2277637795275591
 20
0.3718622047244095
 30
0.0
 10
-0.2277637795275591
 20
0.3718622047244095
 30
0.0
 10
-0.2277637795275591
 20
0.3718622047244095
 30
0.0
 10
-0.2277637795275591
 20
0.3718622047244095
 30
0.0
 10
-0.2239291338582677
 20
0.3718622047244095
 30
0.0
 10
-0.2239291338582677
 20
0.3718622047244095
 30
0.0
 10
-0.2239291338582677
 20
0.3718622047244095
 30
0.0
 10
-0.2202322834645669
 20
0.3718622047244095
 30
0.0
 10
-0.2177322834645669
 20
0.3724448818897638
 30
0.0
 10
-0.2163740157480315
 20
0.3735826771653544
 30
0.0
 10
-0.2163740157480315
 20
0.3735826771653544
 30
0.0
 10
-0.2144015748031496
 20
0.3751377952755906
 30
0.0
 10
-0.2134291338582677
 20
0.377748031496063
 30
0.0
 10
-0.2134291338582677
 20
0.3813897637795276
 30
0.0
 10
-0.2134291338582677
 20
0.3813897637795276
 30
0.0
 10
-0.2134291338582677
 20
0.3813897637795276
 30
0.0
 10
-0.2134291338582677
 20
0.460248031496063
 30
0.0
 10
-0.2134291338582677
 20
0.460248031496063
 30
0.0
 10
-0.2134291338582677
 20
0.460248031496063
 30
0.0
 10
-0.2134291338582677
 20
0.4639448818897638
 30
0.0
 10
-0.2137322834645669
 20
0.4664448818897638
 30
0.0
 10
-0.2143188976377953
 20
0.4678031496062992
 30
0.0
 10
-0.2143188976377953
 20
0.4678031496062992
 30
0.0
 10
-0.2149291338582677
 20
0.4691653543307087
 30
0.0
 10
-0.2158188976377953
 20
0.4701377952755906
 30
0.0
 10
-0.2170118110236221
 20
0.470748031496063
 30
0.0
 10
-0.2170118110236221
 20
0.470748031496063
 30
0.0
 10
-0.2182047244094488
 20
0.4713307086614174
 30
0.0
 10
-0.2205118110236221
 20
0.4716377952755906
 30
0.0
 10
-0.2239291338582677
 20
0.4716377952755906
 30
0.0
 10
-0.2239291338582677
 20
0.4716377952755906
 30
0.0
 10
-0.2239291338582677
 20
0.4716377952755906
 30
0.0
 10
-0.2277637795275591
 20
0.4716377952755906
 30
0.0
 10
-0.2277637795275591
 20
0.4716377952755906
 30
0.0
 10
-0.2277637795275591
 20
0.4716377952755906
 30
0.0
 10
-0.2277637795275591
 20
0.4716377952755906
 30
0.0
 10
-0.2277637795275591
 20
0.4785551181102363
 30
0.0
 10
-0.2277637795275591
 20
0.4785551181102363
 30
0.0
  0
SPLINE
  5
2E
330
1F
100
AcDbEntity
  8
LAYER_1
 62
   250
100
AcDbSpline
210
0.0
220
0.0
230
1.0
 70
    11
 71
     3
 72
    40
 73
    36
 74
     0
 42
0.0000000001
 43
0.0000000001
 40
0.0
 40
0.0
 40
0.0
 40
0.0
 40
0.1111111111111111
 40
0.1111111111111111
 40
0.1111111111111111
 40
0.1111111111111111
 40
0.2222222222222222
 40
0.2222222222222222
 40
0.2222222222222222
 40
0.2222222222222222
 40
0.3333333333333333
 40
0.3333333333333333
 40
0.3333333333333333
 40
0.3333333333333333
 40
0.4444444444444444
 40
0.4444444444444444
 40
0.4444444444444444
 40
0.4444444444444444
 40
0.5555555555555556
 40
0.5555555555555556
 40
0.5555555555555556
 40
0.5555555555555556
 40
0.6666666666666667
 40
0.6666666666666667
 40
0.6666666666666667
 40
0.6666666666666667
 40
0.7777777777777779
 40
0.7777777777777779
 40
0.7777777777777779
 40
0.7777777777777779
 40
0.8888888888888891
 40
0.8888888888888891
 40
0.8888888888888891
 40
0.8888888888888891
 40
1.0
 40
1.0
 40
1.0
 40
1.0
 10
-0.1982047244094488
 20
0.4695275590551181
 30
0.0
 10
-0.1982047244094488
 20
0.4695275590551181
 30
0.0
 10
-0.1982047244094488
 20
0.4279448818897638
 30
0.0
 10
-0.1982047244094488
 20
0.4279448818897638
 30
0.0
 10
-0.1982047244094488
 20
0.4279448818897638
 30
0.0
 10
-0.1982047244094488
 20
0.4279448818897638
 30
0.0
 10
-0.1774566929133858
 20
0.4279448818897638
 30
0.0
 10
-0.1774566929133858
 20
0.4279448818897638
 30
0.0
 10
-0.1774566929133858
 20
0.4279448818897638
 30
0.0
 10
-0.1677637795275591
 20
0.4279448818897638
 30
0.0
 10
-0.1610944881889764
 20
0.4283897637795276
 30
0.0
 10
-0.1575393700787402
 20
0.4293031496062992
 30
0.0
 10
-0.1575393700787402
 20
0.4293031496062992
 30
0.0
 10
-0.1519291338582677
 20
0.4307755905511811
 30
0.0
 10
-0.1476811023622047
 20
0.4332755905511811
 30
0.0
 10
-0.1447086614173228
 20
0.4368031496062992
 30
0.0
 10
-0.1447086614173228
 20
0.4368031496062992
 30
0.0
 10
-0.1417637795275591
 20
0.4403307086614173
 30
0.0
 10
-0.1402637795275591
 20
0.4448622047244095
 30
0.0
 10
-0.1402637795275591
 20
0.4503897637795276
 30
0.0
 10
-0.1402637795275591
 20
0.4503897637795276
 30
0.0
 10
-0.1402637795275591
 20
0.4550551181102363
 30
0.0
 10
-0.1416220472440945
 20
0.4589448818897638
 30
0.0
 10
-0.1442913385826772
 20
0.4620826771653543
 30
0.0
 10
-0.1442913385826772
 20
0.4620826771653543
 30
0.0
 10
-0.146984251968504
 20
0.4651929133858268
 30
0.0
 10
-0.1505944881889764
 20
0.4673307086614174
 30
0.0
 10
-0.1550944881889764
 20
0.4684724409448819
 30
0.0
 10
-0.1550944881889764
 20
0.4684724409448819
 30
0.0
 10
-0.1580118110236221
 20
0.4691653543307087
 30
0.0
 10
-0.1640944881889764
 20
0.4695275590551181
 30
0.0
 10
-0.1733188976377953
 20
0.4695275590551181
 30
0.0
 10
-0.1733188976377953
 20
0.4695275590551181
 30
0.0
 10
-0.1733188976377953
 20
0.4695275590551181
 30
0.0
 10
-0.1982047244094488
 20
0.4695275590551181
 30
0.0
 10
-0.1982047244094488
 20
0.4695275590551181
 30
0.0
  0
SPLINE
  5
2F
330
1F
100
AcDbEntity
  8
LAYER_1
 62
   250
100
AcDbSpline
210
0.0
220
0.0
230
1.0
 70
    11
 71
     3
 72
    52
 73
    48
 74
     0
 42
0.0000000001
 43
0.0000000001
 40
0.0
 40
0.0
 40
0.0
 40
0.0
 40
0.0833333333333333
 40
0.0833333333333333
 40
0.0833333333333333
 40
0.0833333333333333
 40
0.1666666666666667
 40
0.1666666666666667
 40
0.1666666666666667
 40
0.1666666666666667
 40
0.25
 40
0.25
 40
0.25
 40
0.25
 40
0.3333333333333333
 40
0.3333333333333333
 40
0.3333333333333333
 40
0.3333333333333333
 40
0.4166666666666666
 40
0.4166666666666666
 40
0.4166666666666666
 40
0.4166666666666666
 40
0.4999999999999999
 40
0.4999999999999999
 40
0.4999999999999999
 40
0.4999999999999999
 40
0.5833333333333333
 40
0.5833333333333333
 40
0.5833333333333333
 40
0.5833333333333333
 40
0.6666666666666666
 40
0.6666666666666666
 40
0.6666666666666666
 40
0.6666666666666666
 40
0.75
 40
0.75
 40
0.75
 40
0.75
 40
0.8333333333333334
 40
0.8333333333333334
 40
0.8333333333333334
 40
0.8333333333333334
 40
0.9166666666666667
 40
0.9166666666666667
 40
0.9166666666666667
 40
0.9166666666666667
 40
1.0
 40
1.0
 40
1.0
 40
1.0
 10
-0.1982047244094488
 20
0.4201102362204724
 30
0.0
 10
-0.1982047244094488
 20
0.4201102362204724
 30
0.0
 10
-0.1982047244094488
 20
0.3828622047244095
 30
0.0
 10
-0.1982047244094488
 20
0.3828622047244095
 30
0.0
 10
-0.1982047244094488
 20
0.3828622047244095
 30
0.0
 10
-0.1982047244094488
 20
0.3791102362204725
 30
0.0
 10
-0.1980393700787402
 20
0.3768897637795276
 30
0.0
 10
-0.197736220472441
 20
0.3761653543307087
 30
0.0
 10
-0.197736220472441
 20
0.3761653543307087
 30
0.0
 10
-0.1972913385826772
 20
0.3751929133858268
 30
0.0
 10
-0.1964291338582677
 20
0.3745275590551181
 30
0.0
 10
-0.1951220472440945
 20
0.3741377952755906
 30
0.0
 10
-0.1951220472440945
 20
0.3741377952755906
 30
0.0
 10
-0.1942047244094488
 20
0.3738622047244095
 30
0.0
 10
-0.1915944881889764
 20
0.3737204724409449
 30
0.0
 10
-0.1873188976377953
 20
0.3737204724409449
 30
0.0
 10
-0.1873188976377953
 20
0.3737204724409449
 30
0.0
 10
-0.1873188976377953
 20
0.3737204724409449
 30
0.0
 10
-0.176236220472441
 20
0.3737204724409449
 30
0.0
 10
-0.176236220472441
 20
0.3737204724409449
 30
0.0
 10
-0.176236220472441
 20
0.3737204724409449
 30
0.0
 10
-0.1652913385826772
 20
0.3737204724409449
 30
0.0
 10
-0.1574566929133858
 20
0.3743346456692914
 30
0.0
 10
-0.1527637795275591
 20
0.3755551181102362
 30
0.0
 10
-0.1527637795275591
 20
0.3755551181102362
 30
0.0
 10
-0.1480669291338583
 20
0.3767755905511811
 30
0.0
 10
-0.1440669291338583
 20
0.3793622047244095
 30
0.0
 10
-0.1407637795275591
 20
0.3833070866141732
 30
0.0
 10
-0.1407637795275591
 20
0.3833070866141732
 30
0.0
 10
-0.1374566929133858
 20
0.3872204724409449
 30
0.0
 10
-0.1357913385826772
 20
0.3919724409448819
 30
0.0
 10
-0.1357913385826772
 20
0.3975
 30
0.0
 10
-0.1357913385826772
 20
0.3975
 30
0.0
 10
-0.1357913385826772
 20
0.4021653543307087
 30
0.0
 10
-0.1371496062992126
 20
0.4063031496062992
 30
0.0
 10
-0.1398188976377953
 20
0.4099173228346457
 30
0.0
 10
-0.1398188976377953
 20
0.4099173228346457
 30
0.0
 10
-0.1425118110236221
 20
0.4135275590551181
 30
0.0
 10
-0.146236220472441
 20
0.4161102362204724
 30
0.0
 10
-0.1509842519685039
 20
0.4177204724409449
 30
0.0
 10
-0.1509842519685039
 20
0.4177204724409449
 30
0.0
 10
-0.155736220472441
 20
0.4193346456692914
 30
0.0
 10
-0.1641496062992126
 20
0.4201102362204724
 30
0.0
 10
-0.176236220472441
 20
0.4201102362204724
 30
0.0
 10
-0.176236220472441
 20
0.4201102362204724
 30
0.0
 10
-0.176236220472441
 20
0.4201102362204724
 30
0.0
 10
-0.1982047244094488
 20
0.4201102362204724
 30
0.0
 10
-0.1982047244094488
 20
0.4201102362204724
 30
0.0
  0
SPLINE
  5
30
330
1F
100
AcDbEntity
  8
LAYER_1
 62
   250
100
AcDbSpline
210
0.0
220
0.0
230
1.0
 70
    11
 71
     3
 72
   112
 73
   108
 74
     0
 42
0.0000000001
 43
0.0000000001
 40
0.0
 40
0.0
 40
0.0
 40
0.0
 40
0.037037037037037
 40
0.037037037037037
 40
0.037037037037037
 40
0.037037037037037
 40
0.0740740740740741
 40
0.0740740740740741
 40
0.0740740740740741
 40
0.0740740740740741
 40
0.1111111111111111
 40
0.1111111111111111
 40
0.1111111111111111
 40
0.1111111111111111
 40
0.1481481481481481
 40
0.1481481481481481
 40
0.1481481481481481
 40
0.1481481481481481
 40
0.1851851851851852
 40
0.1851851851851852
 40
0.1851851851851852
 40
0.1851851851851852
 40
0.2222222222222222
 40
0.2222222222222222
 40
0.2222222222222222
 40
0.2222222222222222
 40
0.2592592592592592
 40
0.2592592592592592
 40
0.2592592592592592
 40
0.2592592592592592
 40
0.2962962962962963
 40
0.2962962962962963
 40
0.2962962962962963
 40
0.2962962962962963
 40
0.3333333333333333
 40
0.3333333333333333
 40
0.3333333333333333
 40
0.3333333333333333
 40
0.3703703703703704
 40
0.3703703703703704
 40
0.3703703703703704
 40
0.3703703703703704
 40
0.4074074074074074
 40
0.4074074074074074
 40
0.4074074074074074
 40
0.4074074074074074
 40
0.4444444444444444
 40
0.4444444444444444
 40
0.4444444444444444
 40
0.4444444444444444
 40
0.4814814814814815
 40
0.4814814814814815
 40
0.4814814814814815
 40
0.4814814814814815
 40
0.5185185185185185
 40
0.5185185185185185
 40
0.5185185185185185
 40
0.5185185185185185
 40
0.5555555555555556
 40
0.5555555555555556
 40
0.5555555555555556
 40
0.5555555555555556
 40
0.5925925925925926
 40
0.5925925925925926
 40
0.5925925925925926
 40
0.5925925925925926
 40
0.6296296296296295
 40
0.6296296296296295
 40
0.6296296296296295
 40
0.6296296296296295
 40
0.6666666666666665
 40
0.6666666666666665
 40
0.6666666666666665
 40
0.6666666666666665
 40
0.7037037037037035
 40
0.7037037037037035
 40
0.7037037037037035
 40
0.7037037037037035
 40
0.7407407407407405
 40
0.7407407407407405
 40
0.7407407407407405
 40
0.7407407407407405
 40
0.7777777777777775
 40
0.7777777777777775
 40
0.7777777777777775
 40
0.7777777777777775
 40
0.8148148148148144
 40
0.8148148148148144
 40
0.8148148148148144
 40
0.8148148148148144
 40
0.8518518518518514
 40
0.8518518518518514
 40
0.8518518518518514
 40
0.8518518518518514
 40
0.8888888888888884
 40
0.8888888888888884
 40
0.8888888888888884
 40
0.8888888888888884
 40
0.9259259259259254
 40
0.9259259259259254
 40
0.9259259259259254
 40
0.9259259259259254
 40
0.9629629629629624
 40
0.9629629629629624
 40
0.9629629629629624
 40
0.9629629629629624
 40
1.0
 40
1.0
 40
1.0
 40
1.0
 10
-0.0610984251968504
 20
0.4785551181102363
 30
0.0
 10
-0.0610984251968504
 20
0.4785551181102363
 30
0.0
 10
-0.0476811023622047
 20
0.4785551181102363
 30
0.0
 10
-0.0476811023622047
 20
0.4785551181102363
 30
0.0
 10
-0.0476811023622047
 20
0.4785551181102363
 30
0.0
 10
-0.0476811023622047
 20
0.4785551181102363
 30
0.0
 10
-0.0124330708661417
 20
0.3836653543307087
 30
0.0
 10
-0.0124330708661417
 20
0.3836653543307087
 30
0.0
 10
-0.0124330708661417
 20
0.3836653543307087
 30
0.0
 10
-0.0107086614173228
 20
0.3788897637795276
 30
0.0
 10
-0.0089606299212598
 20
0.3757204724409449
 30
0.0
 10
-0.0071811023622047
 20
0.3741929133858268
 30
0.0
 10
-0.0071811023622047
 20
0.3741929133858268
 30
0.0
 10
-0.0054330708661417
 20
0.3726377952755905
 30
0.0
 10
-0.0030433070866142
 20
0.3718622047244095
 30
0.0
 10
-0.0000708661417323
 20
0.3718622047244095
 30
0.0
 10
-0.0000708661417323
 20
0.3718622047244095
 30
0.0
 10
-0.0000708661417323
 20
0.3718622047244095
 30
0.0
 10
0.0017086614173228
 20
0.3718622047244095
 30
0.0
 10
0.0017086614173228
 20
0.3718622047244095
 30
0.0
 10
0.0017086614173228
 20
0.3718622047244095
 30
0.0
 10
0.0017086614173228
 20
0.3718622047244095
 30
0.0
 10
0.0017086614173228
 20
0.3650275590551181
 30
0.0
 10
0.0017086614173228
 20
0.3650275590551181
 30
0.0
 10
0.0017086614173228
 20
0.3650275590551181
 30
0.0
 10
0.0017086614173228
 20
0.3650275590551181
 30
0.0
 10
-0.0387362204724409
 20
0.3650275590551181
 30
0.0
 10
-0.0387362204724409
 20
0.3650275590551181
 30
0.0
 10
-0.0387362204724409
 20
0.3650275590551181
 30
0.0
 10
-0.0387362204724409
 20
0.3650275590551181
 30
0.0
 10
-0.0387362204724409
 20
0.3718622047244095
 30
0.0
 10
-0.0387362204724409
 20
0.3718622047244095
 30
0.0
 10
-0.0387362204724409
 20
0.3718622047244095
 30
0.0
 10
-0.0374330708661417
 20
0.3719724409448819
 30
0.0
 10
-0.0361535433070866
 20
0.3720275590551181
 30
0.0
 10
-0.0349015748031496
 20
0.3720275590551181
 30
0.0
 10
-0.0349015748031496
 20
0.3720275590551181
 30
0.0
 10
-0.0322913385826772
 20
0.3720275590551181
 30
0.0
 10
-0.0305984251968504
 20
0.3723070866141732
 30
0.0
 10
-0.0297637795275591
 20
0.3728346456692914
 30
0.0
 10
-0.0297637795275591
 20
0.3728346456692914
 30
0.0
 10
-0.0282086614173228
 20
0.3738622047244095
 30
0.0
 10
-0.0274055118110236
 20
0.3751653543307087
 30
0.0
 10
-0.0274055118110236
 20
0.376748031496063
 30
0.0
 10
-0.0274055118110236
 20
0.376748031496063
 30
0.0
 10
-0.0274055118110236
 20
0.3778897637795276
 30
0.0
 10
-0.0281811023622047
 20
0.3806653543307087
 30
0.0
 10
-0.0296811023622047
 20
0.3851377952755906
 30
0.0
 10
-0.0296811023622047
 20
0.3851377952755906
 30
0.0
 10
-0.0296811023622047
 20
0.3851377952755906
 30
0.0
 10
-0.0371811023622047
 20
0.4071102362204724
 30
0.0
 10
-0.0371811023622047
 20
0.4071102362204724
 30
0.0
 10
-0.0371811023622047
 20
0.4071102362204724
 30
0.0
 10
-0.0371811023622047
 20
0.4071102362204724
 30
0.0
 10
-0.0783464566929134
 20
0.4071102362204724
 30
0.0
 10
-0.0783464566929134
 20
0.4071102362204724
 30
0.0
 10
-0.0783464566929134
 20
0.4071102362204724
 30
0.0
 10
-0.0783464566929134
 20
0.4071102362204724
 30
0.0
 10
-0.0871535433070866
 20
0.3825275590551182
 30
0.0
 10
-0.0871535433070866
 20
0.3825275590551182
 30
0.0
 10
-0.0871535433070866
 20
0.3825275590551182
 30
0.0
 10
-0.0880708661417323
 20
0.3799724409448819
 30
0.0
 10
-0.0885433070866142
 20
0.3782204724409449
 30
0.0
 10
-0.0885433070866142
 20
0.3772204724409449
 30
0.0
 10
-0.0885433070866142
 20
0.3772204724409449
 30
0.0
 10
-0.0885433070866142
 20
0.3761377952755906
 30
0.0
 10
-0.088236220472441
 20
0.3751929133858268
 30
0.0
 10
-0.0876811023622047
 20
0.3743897637795276
 30
0.0
 10
-0.0876811023622047
 20
0.3743897637795276
 30
0.0
 10
-0.0870984251968504
 20
0.3735826771653544
 30
0.0
 10
-0.0863464566929134
 20
0.3729724409448819
 30
0.0
 10
-0.0853464566929134
 20
0.3725551181102362
 30
0.0
 10
-0.0853464566929134
 20
0.3725551181102362
 30
0.0
 10
-0.0843740157480315
 20
0.3721377952755905
 30
0.0
 10
-0.0828188976377953
 20
0.3719448818897638
 30
0.0
 10
-0.0806259842519685
 20
0.3719448818897638
 30
0.0
 10
-0.0806259842519685
 20
0.3719448818897638
 30
0.0
 10
-0.0791811023622047
 20
0.3719448818897638
 30
0.0
 10
-0.077988188976378
 20
0.3719173228346457
 30
0.0
 10
-0.0770708661417323
 20
0.3718622047244095
 30
0.0
 10
-0.0770708661417323
 20
0.3718622047244095
 30
0.0
 10
-0.0770708661417323
 20
0.3718622047244095
 30
0.0
 10
-0.0770708661417323
 20
0.3650275590551181
 30
0.0
 10
-0.0770708661417323
 20
0.3650275590551181
 30
0.0
 10
-0.0770708661417323
 20
0.3650275590551181
 30
0.0
 10
-0.0770708661417323
 20
0.3650275590551181
 30
0.0
 10
-0.110988188976378
 20
0.3650275590551181
 30
0.0
 10
-0.110988188976378
 20
0.3650275590551181
 30
0.0
 10
-0.110988188976378
 20
0.3650275590551181
 30
0.0
 10
-0.110988188976378
 20
0.3650275590551181
 30
0.0
 10
-0.110988188976378
 20
0.3718622047244095
 30
0.0
 10
-0.110988188976378
 20
0.3718622047244095
 30
0.0
 10
-0.110988188976378
 20
0.3718622047244095
 30
0.0
 10
-0.1078464566929134
 20
0.3718622047244095
 30
0.0
 10
-0.1055708661417323
 20
0.3721653543307087
 30
0.0
 10
-0.1042086614173228
 20
0.3728070866141732
 30
0.0
 10
-0.1042086614173228
 20
0.3728070866141732
 30
0.0
 10
-0.1028188976377953
 20
0.3734173228346457
 30
0.0
 10
-0.1015984251968504
 20
0.3744173228346457
 30
0.0
 10
-0.1005708661417323
 20
0.3758070866141732
 30
0.0
 10
-0.1005708661417323
 20
0.3758070866141732
 30
0.0
 10
-0.0995433070866142
 20
0.3771929133858268
 30
0.0
 10
-0.0981811023622047
 20
0.3801102362204725
 30
0.0
 10
-0.0965157480314961
 20
0.3845551181102362
 30
0.0
 10
-0.0965157480314961
 20
0.3845551181102362
 30
0.0
 10
-0.0965157480314961
 20
0.3845551181102362
 30
0.0
 10
-0.0610984251968504
 20
0.4785551181102363
 30
0.0
 10
-0.0610984251968504
 20
0.4785551181102363
 30
0.0
  0
SPLINE
  5
31
330
1F
100
AcDbEntity
  8
LAYER_1
 62
   250
100
AcDbSpline
210
0.0
220
0.0
230
1.0
 70
    11
 71
     3
 72
    16
 73
    12
 74
     0
 42
0.0000000001
 43
0.0000000001
 40
0.0
 40
0.0
 40
0.0
 40
0.0
 40
0.3333333333333333
 40
0.3333333333333333
 40
0.3333333333333333
 40
0.3333333333333333
 40
0.6666666666666666
 40
0.6666666666666666
 40
0.6666666666666666
 40
0.6666666666666666
 40
1.0
 40
1.0
 40
1.0
 40
1.0
 10
-0.0753464566929134
 20
0.4150826771653544
 30
0.0
 10
-0.0753464566929134
 20
0.4150826771653544
 30
0.0
 10
-0.0402637795275591
 20
0.4150826771653544
 30
0.0
 10
-0.0402637795275591
 20
0.4150826771653544
 30
0.0
 10
-0.0402637795275591
 20
0.4150826771653544
 30
0.0
 10
-0.0402637795275591
 20
0.4150826771653544
 30
0.0
 10
-0.0578464566929134
 20
0.4639173228346457
 30
0.0
 10
-0.0578464566929134
 20
0.4639173228346457
 30
0.0
 10
-0.0578464566929134
 20
0.4639173228346457
 30
0.0
 10
-0.0578464566929134
 20
0.4639173228346457
 30
0.0
 10
-0.0753464566929134
 20
0.4150826771653544
 30
0.0
 10
-0.0753464566929134
 20
0.4150826771653544
 30
0.0
  0
SPLINE
  5
32
330
1F
100
AcDbEntity
  8
LAYER_1
 62
   250
100
AcDbSpline
210
0.0
220
0.0
230
1.0
 70
    11
 71
     3
 72
    72
 73
    68
 74
     0
 42
0.0000000001
 43
0.0000000001
 40
0.0
 40
0.0
 40
0.0
 40
0.0
 40
0.0588235294117647
 40
0.0588235294117647
 40
0.0588235294117647
 40
0.0588235294117647
 40
0.1176470588235294
 40
0.1176470588235294
 40
0.1176470588235294
 40
0.1176470588235294
 40
0.1764705882352941
 40
0.1764705882352941
 40
0.1764705882352941
 40
0.1764705882352941
 40
0.2352941176470588
 40
0.2352941176470588
 40
0.2352941176470588
 40
0.2352941176470588
 40
0.2941176470588235
 40
0.2941176470588235
 40
0.2941176470588235
 40
0.2941176470588235
 40
0.3529411764705883
 40
0.3529411764705883
 40
0.3529411764705883
 40
0.3529411764705883
 40
0.411764705882353
 40
0.411764705882353
 40
0.411764705882353
 40
0.411764705882353
 40
0.4705882352941177
 40
0.4705882352941177
 40
0.4705882352941177
 40
0.4705882352941177
 40
0.5294117647058824
 40
0.5294117647058824
 40
0.5294117647058824
 40
0.5294117647058824
 40
0.5882352941176471
 40
0.5882352941176471
 40
0.5882352941176471
 40
0.5882352941176471
 40
0.6470588235294118
 40
0.6470588235294118
 40
0.6470588235294118
 40
0.6470588235294118
 40
0.7058823529411765
 40
0.7058823529411765
 40
0.7058823529411765
 40
0.7058823529411765
 40
0.7647058823529412
 40
0.7647058823529412
 40
0.7647058823529412
 40
0.7647058823529412
 40
0.823529411764706
 40
0.823529411764706
 40
0.823529411764706
 40
0.823529411764706
 40
0.8823529411764707
 40
0.8823529411764707
 40
0.8823529411764707
 40
0.8823529411764707
 40
0.9411764705882354
 40
0.9411764705882354
 40
0.9411764705882354
 40
0.9411764705882354
 40
1.0
 40
1.0
 40
1.0
 40
1.0
 10
0.164736220472441
 20
0.4785551181102363
 30
0.0
 10
0.164736220472441
 20
0.4785551181102363
 30
0.0
 10
0.1708188976377953
 20
0.4785551181102363
 30
0.0
 10
0.1708188976377953
 20
0.4785551181102363
 30
0.0
 10
0.1708188976377953
 20
0.4785551181102363
 30
0.0
 10
0.1708188976377953
 20
0.4785551181102363
 30
0.0
 10
0.1708188976377953
 20
0.3843070866141732
 30
0.0
 10
0.1708188976377953
 20
0.3843070866141732
 30
0.0
 10
0.1708188976377953
 20
0.3843070866141732
 30
0.0
 10
0.1708188976377953
 20
0.3798622047244095
 30
0.0
 10
0.1711259842519685
 20
0.377
 30
0.0
 10
0.1716811023622047
 20
0.3757204724409449
 30
0.0
 10
0.1716811023622047
 20
0.3757204724409449
 30
0.0
 10
0.1722637795275591
 20
0.3744448818897638
 30
0.0
 10
0.1731811023622047
 20
0.3735
 30
0.0
 10
0.174484251968504
 20
0.3728346456692914
 30
0.0
 10
0.174484251968504
 20
0.3728346456692914
 30
0.0
 10
0.1757913385826772
 20
0.3721929133858268
 30
0.0
 10
0.1783740157480315
 20
0.3718622047244095
 30
0.0
 10
0.182236220472441
 20
0.3718622047244095
 30
0.0
 10
0.182236220472441
 20
0.3718622047244095
 30
0.0
 10
0.182236220472441
 20
0.3718622047244095
 30
0.0
 10
0.1902086614173228
 20
0.3718622047244095
 30
0.0
 10
0.1902086614173228
 20
0.3718622047244095
 30
0.0
 10
0.1902086614173228
 20
0.3718622047244095
 30
0.0
 10
0.1902086614173228
 20
0.3718622047244095
 30
0.0
 10
0.1902086614173228
 20
0.3650275590551181
 30
0.0
 10
0.1902086614173228
 20
0.3650275590551181
 30
0.0
 10
0.1902086614173228
 20
0.3650275590551181
 30
0.0
 10
0.1902086614173228
 20
0.3650275590551181
 30
0.0
 10
0.1365708661417323
 20
0.3650275590551181
 30
0.0
 10
0.1365708661417323
 20
0.3650275590551181
 30
0.0
 10
0.1365708661417323
 20
0.3650275590551181
 30
0.0
 10
0.1365708661417323
 20
0.3650275590551181
 30
0.0
 10
0.1365708661417323
 20
0.3718622047244095
 30
0.0
 10
0.1365708661417323
 20
0.3718622047244095
 30
0.0
 10
0.1365708661417323
 20
0.3718622047244095
 30
0.0
 10
0.1365708661417323
 20
0.3718622047244095
 30
0.0
 10
0.1454291338582677
 20
0.3718622047244095
 30
0.0
 10
0.1454291338582677
 20
0.3718622047244095
 30
0.0
 10
0.1454291338582677
 20
0.3718622047244095
 30
0.0
 10
0.1492913385826772
 20
0.3718622047244095
 30
0.0
 10
0.1518464566929134
 20
0.3721929133858268
 30
0.0
 10
0.1531259842519685
 20
0.3728897637795276
 30
0.0
 10
0.1531259842519685
 20
0.3728897637795276
 30
0.0
 10
0.1544015748031496
 20
0.3735551181102362
 30
0.0
 10
0.1554015748031496
 20
0.3746377952755906
 30
0.0
 10
0.1560984251968504
 20
0.3761377952755906
 30
0.0
 10
0.1560984251968504
 20
0.3761377952755906
 30
0.0
 10
0.1567913385826772
 20
0.3776377952755906
 30
0.0
 10
0.1571535433070866
 20
0.3803622047244095
 30
0.0
 10
0.1571535433070866
 20
0.3843070866141732
 30
0.0
 10
0.1571535433070866
 20
0.3843070866141732
 30
0.0
 10
0.1571535433070866
 20
0.3843070866141732
 30
0.0
 10
0.1571535433070866
 20
0.4617755905511811
 30
0.0
 10
0.1571535433070866
 20
0.4617755905511811
 30
0.0
 10
0.1571535433070866
 20
0.4617755905511811
 30
0.0
 10
0.1571535433070866
 20
0.4617755905511811
 30
0.0
 10
0.1365708661417323
 20
0.4617755905511811
 30
0.0
 10
0.1365708661417323
 20
0.4617755905511811
 30
0.0
 10
0.1365708661417323
 20
0.4617755905511811
 30
0.0
 10
0.1365708661417323
 20
0.4617755905511811
 30
0.0
 10
0.1365708661417323
 20
0.4687755905511811
 30
0.0
 10
0.1365708661417323
 20
0.4687755905511811
 30
0.0
 10
0.1365708661417323
 20
0.4687755905511811
 30
0.0
 10
0.1477913385826772
 20
0.4703582677165354
 30
0.0
 10
0.1571811023622047
 20
0.4736102362204724
 30
0.0
 10
0.164736220472441
 20
0.4785551181102363
 30
0.0
  0
SPLINE
  5
33
330
1F
100
AcDbEntity
  8
LAYER_1
 62
   250
100
AcDbSpline
210
0.0
220
0.0
230
1.0
 70
    11
 71
     3
 72
    80
 73
    76
 74
     0
 42
0.0000000001
 43
0.0000000001
 40
0.0
 40
0.0
 40
0.0
 40
0.0
 40
0.0526315789473684
 40
0.0526315789473684
 40
0.0526315789473684
 40
0.0526315789473684
 40
0.1052631578947368
 40
0.1052631578947368
 40
0.1052631578947368
 40
0.1052631578947368
 40
0.1578947368421053
 40
0.1578947368421053
 40
0.1578947368421053
 40
0.1578947368421053
 40
0.2105263157894737
 40
0.2105263157894737
 40
0.2105263157894737
 40
0.2105263157894737
 40
0.2631578947368421
 40
0.2631578947368421
 40
0.2631578947368421
 40
0.2631578947368421
 40
0.3157894736842105
 40
0.3157894736842105
 40
0.3157894736842105
 40
0.3157894736842105
 40
0.3684210526315789
 40
0.3684210526315789
 40
0.3684210526315789
 40
0.3684210526315789
 40
0.4210526315789474
 40
0.4210526315789474
 40
0.4210526315789474
 40
0.4210526315789474
 40
0.4736842105263158
 40
0.4736842105263158
 40
0.4736842105263158
 40
0.4736842105263158
 40
0.5263157894736842
 40
0.5263157894736842
 40
0.5263157894736842
 40
0.5263157894736842
 40
0.5789473684210527
 40
0.5789473684210527
 40
0.5789473684210527
 40
0.5789473684210527
 40
0.631578947368421
 40
0.631578947368421
 40
0.631578947368421
 40
0.631578947368421
 40
0.6842105263157894
 40
0.6842105263157894
 40
0.6842105263157894
 40
0.6842105263157894
 40
0.7368421052631577
 40
0.7368421052631577
 40
0.7368421052631577
 40
0.7368421052631577
 40
0.7894736842105261
 40
0.7894736842105261
 40
0.7894736842105261
 40
0.7894736842105261
 40
0.8421052631578945
 40
0.8421052631578945
 40
0.8421052631578945
 40
0.8421052631578945
 40
0.8947368421052628
 40
0.8947368421052628
 40
0.8947368421052628
 40
0.8947368421052628
 40
0.9473684210526312
 40
0.9473684210526312
 40
0.9473684210526312
 40
0.9473684210526312
 40
1.0
 40
1.0
 40
1.0
 40
1.0
 10
0.2301535433070866
 20
0.4826929133858268
 30
0.0
 10
0.2301535433070866
 20
0.4826929133858268
 30
0.0
 10
0.2355433070866142
 20
0.4826929133858268
 30
0.0
 10
0.2355433070866142
 20
0.4826929133858268
 30
0.0
 10
0.2355433070866142
 20
0.4826929133858268
 30
0.0
 10
0.2355433070866142
 20
0.4826929133858268
 30
0.0
 10
0.2365157480314961
 20
0.4785551181102363
 30
0.0
 10
0.2365157480314961
 20
0.4785551181102363
 30
0.0
 10
0.2365157480314961
 20
0.4785551181102363
 30
0.0
 10
0.2365157480314961
 20
0.4785551181102363
 30
0.0
 10
0.3076259842519685
 20
0.4785551181102363
 30
0.0
 10
0.3076259842519685
 20
0.4785551181102363
 30
0.0
 10
0.3076259842519685
 20
0.4785551181102363
 30
0.0
 10
0.3076259842519685
 20
0.4785551181102363
 30
0.0
 10
0.3076259842519685
 20
0.4716377952755906
 30
0.0
 10
0.3076259842519685
 20
0.4716377952755906
 30
0.0
 10
0.3076259842519685
 20
0.4716377952755906
 30
0.0
 10
0.2991259842519685
 20
0.4618031496062993
 30
0.0
 10
0.2914015748031496
 20
0.4506377952755906
 30
0.0
 10
0.284488188976378
 20
0.4380551181102362
 30
0.0
 10
0.284488188976378
 20
0.4380551181102362
 30
0.0
 10
0.2775708661417323
 20
0.4255
 30
0.0
 10
0.2722086614173229
 20
0.4127204724409449
 30
0.0
 10
0.2684015748031496
 20
0.3996929133858268
 30
0.0
 10
0.2684015748031496
 20
0.3996929133858268
 30
0.0
 10
0.2656535433070866
 20
0.3903070866141732
 30
0.0
 10
0.2634055118110236
 20
0.378748031496063
 30
0.0
 10
0.2616535433070866
 20
0.3650275590551181
 30
0.0
 10
0.2616535433070866
 20
0.3650275590551181
 30
0.0
 10
0.2616535433070866
 20
0.3650275590551181
 30
0.0
 10
0.244988188976378
 20
0.3650275590551181
 30
0.0
 10
0.244988188976378
 20
0.3650275590551181
 30
0.0
 10
0.244988188976378
 20
0.3650275590551181
 30
0.0
 10
0.2465984251968504
 20
0.3771377952755906
 30
0.0
 10
0.2492637795275591
 20
0.3884448818897638
 30
0.0
 10
0.252988188976378
 20
0.3989724409448819
 30
0.0
 10
0.252988188976378
 20
0.3989724409448819
 30
0.0
 10
0.2567086614173229
 20
0.4095
 30
0.0
 10
0.2620708661417323
 20
0.4205
 30
0.0
 10
0.2690984251968504
 20
0.4319724409448819
 30
0.0
 10
0.2690984251968504
 20
0.4319724409448819
 30
0.0
 10
0.2761259842519685
 20
0.4434448818897638
 30
0.0
 10
0.2846535433070866
 20
0.4548897637795276
 30
0.0
 10
0.2947086614173228
 20
0.4663307086614174
 30
0.0
 10
0.2947086614173228
 20
0.4663307086614174
 30
0.0
 10
0.2947086614173228
 20
0.4663307086614174
 30
0.0
 10
0.243988188976378
 20
0.4663307086614174
 30
0.0
 10
0.243988188976378
 20
0.4663307086614174
 30
0.0
 10
0.243988188976378
 20
0.4663307086614174
 30
0.0
 10
0.2403188976377953
 20
0.4663307086614174
 30
0.0
 10
0.2377913385826772
 20
0.4661653543307087
 30
0.0
 10
0.2364330708661417
 20
0.4657755905511811
 30
0.0
 10
0.2364330708661417
 20
0.4657755905511811
 30
0.0
 10
0.2350708661417323
 20
0.4653897637795276
 30
0.0
 10
0.2340157480314961
 20
0.4648031496062992
 30
0.0
 10
0.2332637795275591
 20
0.464
 30
0.0
 10
0.2332637795275591
 20
0.464
 30
0.0
 10
0.232488188976378
 20
0.4631653543307087
 30
0.0
 10
0.2318464566929134
 20
0.4617204724409449
 30
0.0
 10
0.2312913385826772
 20
0.4596653543307087
 30
0.0
 10
0.2312913385826772
 20
0.4596653543307087
 30
0.0
 10
0.2312913385826772
 20
0.4596653543307087
 30
0.0
 10
0.2309055118110236
 20
0.4581377952755906
 30
0.0
 10
0.2309055118110236
 20
0.4581377952755906
 30
0.0
 10
0.2309055118110236
 20
0.4581377952755906
 30
0.0
 10
0.2309055118110236
 20
0.4581377952755906
 30
0.0
 10
0.2281259842519685
 20
0.4485275590551182
 30
0.0
 10
0.2281259842519685
 20
0.4485275590551182
 30
0.0
 10
0.2281259842519685
 20
0.4485275590551182
 30
0.0
 10
0.2281259842519685
 20
0.4485275590551182
 30
0.0
 10
0.2212086614173228
 20
0.45
 30
0.0
 10
0.2212086614173228
 20
0.45
 30
0.0
 10
0.2212086614173228
 20
0.45
 30
0.0
 10
0.2212086614173228
 20
0.45
 30
0.0
 10
0.2301535433070866
 20
0.4826929133858268
 30
0.0
 10
0.2301535433070866
 20
0.4826929133858268
 30
0.0
  0
SPLINE
  5
34
330
1F
100
AcDbEntity
  8
LAYER_1
 62
   250
100
AcDbSpline
210
0.0
220
0.0
230
1.0
 70
    11
 71
     3
 72
    84
 73
    80
 74
     0
 42
0.0000000001
 43
0.0000000001
 40
0.0
 40
0.0
 40
0.0
 40
0.0
 40
0.05
 40
0.05
 40
0.05
 40
0.05
 40
0.1
 40
0.1
 40
0.1
 40
0.1
 40
0.15
 40
0.15
 40
0.15
 40
0.15
 40
0.2
 40
0.2
 40
0.2
 40
0.2
 40
0.25
 40
0.25
 40
0.25
 40
0.25
 40
0.3
 40
0.3
 40
0.3
 40
0.3
 40
0.35
 40
0.35
 40
0.35
 40
0.35
 40
0.4
 40
0.4
 40
0.4
 40
0.4
 40
0.45
 40
0.45
 40
0.45
 40
0.45
 40
0.4999999999999999
 40
0.4999999999999999
 40
0.4999999999999999
 40
0.4999999999999999
 40
0.5499999999999999
 40
0.5499999999999999
 40
0.5499999999999999
 40
0.5499999999999999
 40
0.6
 40
0.6
 40
0.6
 40
0.6
 40
0.65
 40
0.65
 40
0.65
 40
0.65
 40
0.7000000000000001
 40
0.7000000000000001
 40
0.7000000000000001
 40
0.7000000000000001
 40
0.7500000000000001
 40
0.7500000000000001
 40
0.7500000000000001
 40
0.7500000000000001
 40
0.8000000000000002
 40
0.8000000000000002
 40
0.8000000000000002
 40
0.8000000000000002
 40
0.8500000000000002
 40
0.8500000000000002
 40
0.8500000000000002
 40
0.8500000000000002
 40
0.9000000000000002
 40
0.9000000000000002
 40
0.9000000000000002
 40
0.9000000000000002
 40
0.9500000000000003
 40
0.9500000000000003
 40
0.9500000000000003
 40
0.9500000000000003
 40
1.0
 40
1.0
 40
1.0
 40
1.0
 10
0.3997637795275591
 20
0.4806653543307087
 30
0.0
 10
0.3997637795275591
 20
0.4806653543307087
 30
0.0
 10
0.3997637795275591
 20
0.473248031496063
 30
0.0
 10
0.3997637795275591
 20
0.473248031496063
 30
0.0
 10
0.3997637795275591
 20
0.473248031496063
 30
0.0
 10
0.3863779527559055
 20
0.4731102362204724
 30
0.0
 10
0.3755433070866142
 20
0.4711377952755906
 30
0.0
 10
0.3672677165354331
 20
0.4674173228346457
 30
0.0
 10
0.3672677165354331
 20
0.4674173228346457
 30
0.0
 10
0.358988188976378
 20
0.4636653543307087
 30
0.0
 10
0.3529055118110236
 20
0.4580551181102363
 30
0.0
 10
0.348988188976378
 20
0.4506102362204725
 30
0.0
 10
0.348988188976378
 20
0.4506102362204725
 30
0.0
 10
0.3450708661417323
 20
0.4431377952755906
 30
0.0
 10
0.3428779527559056
 20
0.4339448818897638
 30
0.0
 10
0.3424055118110236
 20
0.4230551181102362
 30
0.0
 10
0.3424055118110236
 20
0.4230551181102362
 30
0.0
 10
0.3451535433070866
 20
0.4272755905511811
 30
0.0
 10
0.347988188976378
 20
0.4305826771653544
 30
0.0
 10
0.3509055118110236
 20
0.4329448818897638
 30
0.0
 10
0.3509055118110236
 20
0.4329448818897638
 30
0.0
 10
0.3537952755905512
 20
0.4353031496062992
 30
0.0
 10
0.3571811023622047
 20
0.4371102362204725
 30
0.0
 10
0.3610708661417323
 20
0.4383897637795276
 30
0.0
 10
0.3610708661417323
 20
0.4383897637795276
 30
0.0
 10
0.3649606299212599
 20
0.4396653543307087
 30
0.0
 10
0.3692086614173228
 20
0.4403031496062992
 30
0.0
 10
0.3738228346456693
 20
0.4403031496062992
 30
0.0
 10
0.3738228346456693
 20
0.4403031496062992
 30
0.0
 10
0.3811811023622048
 20
0.4403031496062992
 30
0.0
 10
0.3877637795275591
 20
0.4386653543307087
 30
0.0
 10
0.3935157480314961
 20
0.4354173228346457
 30
0.0
 10
0.3935157480314961
 20
0.4354173228346457
 30
0.0
 10
0.3992637795275591
 20
0.4321653543307087
 30
0.0
 10
0.403736220472441
 20
0.427748031496063
 30
0.0
 10
0.4069330708661417
 20
0.4221929133858268
 30
0.0
 10
0.4069330708661417
 20
0.4221929133858268
 30
0.0
 10
0.4101259842519685
 20
0.4166377952755906
 30
0.0
 10
0.411736220472441
 20
0.4100826771653544
 30
0.0
 10
0.411736220472441
 20
0.4025551181102363
 30
0.0
 10
0.411736220472441
 20
0.4025551181102363
 30
0.0
 10
0.411736220472441
 20
0.3905551181102362
 30
0.0
 10
0.4081259842519685
 20
0.3811377952755906
 30
0.0
 10
0.4009055118110236
 20
0.3743070866141732
 30
0.0
 10
0.4009055118110236
 20
0.3743070866141732
 30
0.0
 10
0.3929330708661418
 20
0.3668070866141732
 30
0.0
 10
0.3825984251968504
 20
0.3630826771653544
 30
0.0
 10
0.3699055118110237
 20
0.3630826771653544
 30
0.0
 10
0.3699055118110237
 20
0.3630826771653544
 30
0.0
 10
0.360736220472441
 20
0.3630826771653544
 30
0.0
 10
0.3530157480314961
 20
0.3649724409448819
 30
0.0
 10
0.3467086614173229
 20
0.3687755905511811
 30
0.0
 10
0.3467086614173229
 20
0.3687755905511811
 30
0.0
 10
0.3404055118110236
 20
0.3725551181102362
 30
0.0
 10
0.3354055118110236
 20
0.3783622047244095
 30
0.0
 10
0.3316811023622047
 20
0.3861929133858268
 30
0.0
 10
0.3316811023622047
 20
0.3861929133858268
 30
0.0
 10
0.327988188976378
 20
0.394
 30
0.0
 10
0.3261259842519685
 20
0.4036653543307087
 30
0.0
 10
0.3261259842519685
 20
0.4151653543307087
 30
0.0
 10
0.3261259842519685
 20
0.4151653543307087
 30
0.0
 10
0.3261259842519685
 20
0.4267204724409449
 30
0.0
 10
0.3280984251968504
 20
0.4369724409448819
 30
0.0
 10
0.3320157480314961
 20
0.4459173228346457
 30
0.0
 10
0.3320157480314961
 20
0.4459173228346457
 30
0.0
 10
0.3359606299212599
 20
0.4548582677165354
 30
0.0
 10
0.3414055118110236
 20
0.4620551181102363
 30
0.0
 10
0.3483503937007874
 20
0.4674724409448819
 30
0.0
 10
0.3483503937007874
 20
0.4674724409448819
 30
0.0
 10
0.3552952755905512
 20
0.4729173228346457
 30
0.0
 10
0.3629055118110237
 20
0.4764724409448819
 30
0.0
 10
0.3711535433070866
 20
0.4781377952755906
 30
0.0
 10
0.3711535433070866
 20
0.4781377952755906
 30
0.0
 10
0.3794330708661418
 20
0.4798307086614174
 30
0.0
 10
0.3868503937007874
 20
0.4806653543307087
 30
0.0
 10
0.3934330708661418
 20
0.4806653543307087
 30
0.0
 10
0.3934330708661418
 20
0.4806653543307087
 30
0.0
 10
0.3934330708661418
 20
0.4806653543307087
 30
0.0
 10
0.3997637795275591
 20
0.4806653543307087
 30
0.0
 10
0.3997637795275591
 20
0.4806653543307087
 30
0.0
  0
SPLINE
  5
35
330
1F
100
AcDbEntity
  8
LAYER_1
 62
   250
100
AcDbSpline
210
0.0
220
0.0
230
1.0
 70
    11
 71
     3
 72
    40
 73
    36
 74
     0
 42
0.0000000001
 43
0.0000000001
 40
0.0
 40
0.0
 40
0.0
 40
0.0
 40
0.1111111111111111
 40
0.1111111111111111
 40
0.1111111111111111
 40
0.1111111111111111
 40
0.2222222222222222
 40
0.2222222222222222
 40
0.2222222222222222
 40
0.2222222222222222
 40
0.3333333333333333
 40
0.3333333333333333
 40
0.3333333333333333
 40
0.3333333333333333
 40
0.4444444444444444
 40
0.4444444444444444
 40
0.4444444444444444
 40
0.4444444444444444
 40
0.5555555555555556
 40
0.5555555555555556
 40
0.5555555555555556
 40
0.5555555555555556
 40
0.6666666666666667
 40
0.6666666666666667
 40
0.6666666666666667
 40
0.6666666666666667
 40
0.7777777777777779
 40
0.7777777777777779
 40
0.7777777777777779
 40
0.7777777777777779
 40
0.8888888888888891
 40
0.8888888888888891
 40
0.8888888888888891
 40
0.8888888888888891
 40
1.0
 40
1.0
 40
1.0
 40
1.0
 10
0.3700708661417323
 20
0.4316653543307087
 30
0.0
 10
0.3622677165354331
 20
0.4316653543307087
 30
0.0
 10
0.3558503937007874
 20
0.4287204724409449
 30
0.0
 10
0.3508228346456693
 20
0.4228031496062992
 30
0.0
 10
0.3508228346456693
 20
0.4228031496062992
 30
0.0
 10
0.3457952755905512
 20
0.4168897637795276
 30
0.0
 10
0.3432952755905512
 20
0.4097755905511811
 30
0.0
 10
0.3432952755905512
 20
0.4015
 30
0.0
 10
0.3432952755905512
 20
0.4015
 30
0.0
 10
0.3432952755905512
 20
0.3956377952755906
 30
0.0
 10
0.3445157480314961
 20
0.3902204724409449
 30
0.0
 10
0.3469606299212599
 20
0.385248031496063
 30
0.0
 10
0.3469606299212599
 20
0.385248031496063
 30
0.0
 10
0.3494055118110236
 20
0.3802755905511811
 30
0.0
 10
0.3525433070866142
 20
0.3766102362204725
 30
0.0
 10
0.3564055118110237
 20
0.3741929133858268
 30
0.0
 10
0.3564055118110237
 20
0.3741929133858268
 30
0.0
 10
0.360236220472441
 20
0.3717755905511811
 30
0.0
 10
0.3645984251968504
 20
0.3705551181102362
 30
0.0
 10
0.3694055118110237
 20
0.3705551181102362
 30
0.0
 10
0.3694055118110237
 20
0.3705551181102362
 30
0.0
 10
0.3769055118110237
 20
0.3705551181102362
 30
0.0
 10
0.3831259842519685
 20
0.3733897637795276
 30
0.0
 10
0.3880984251968504
 20
0.3790551181102362
 30
0.0
 10
0.3880984251968504
 20
0.3790551181102362
 30
0.0
 10
0.3930433070866142
 20
0.3847204724409449
 30
0.0
 10
0.3955433070866142
 20
0.3923346456692913
 30
0.0
 10
0.3955433070866142
 20
0.4018897637795276
 30
0.0
 10
0.3955433070866142
 20
0.4018897637795276
 30
0.0
 10
0.3955433070866142
 20
0.411
 30
0.0
 10
0.3931259842519685
 20
0.418248031496063
 30
0.0
 10
0.3882952755905512
 20
0.4236102362204725
 30
0.0
 10
0.3882952755905512
 20
0.4236102362204725
 30
0.0
 10
0.3834606299212598
 20
0.429
 30
0.0
 10
0.3773779527559055
 20
0.4316653543307087
 30
0.0
 10
0.3700708661417323
 20
0.4316653543307087
 30
0.0
  0
SPLINE
  5
36
330
1F
100
AcDbEntity
  8
LAYER_1
 62
   250
100
AcDbSpline
210
0.0
220
0.0
230
1.0
 70
    11
 71
     3
 72
    80
 73
    76
 74
     0
 42
0.0000000001
 43
0.0000000001
 40
0.0
 40
0.0
 40
0.0
 40
0.0
 40
0.0526315789473684
 40
0.0526315789473684
 40
0.0526315789473684
 40
0.0526315789473684
 40
0.1052631578947368
 40
0.1052631578947368
 40
0.1052631578947368
 40
0.1052631578947368
 40
0.1578947368421053
 40
0.1578947368421053
 40
0.1578947368421053
 40
0.1578947368421053
 40
0.2105263157894737
 40
0.2105263157894737
 40
0.2105263157894737
 40
0.2105263157894737
 40
0.2631578947368421
 40
0.2631578947368421
 40
0.2631578947368421
 40
0.2631578947368421
 40
0.3157894736842105
 40
0.3157894736842105
 40
0.3157894736842105
 40
0.3157894736842105
 40
0.3684210526315789
 40
0.3684210526315789
 40
0.3684210526315789
 40
0.3684210526315789
 40
0.4210526315789474
 40
0.4210526315789474
 40
0.4210526315789474
 40
0.4210526315789474
 40
0.4736842105263158
 40
0.4736842105263158
 40
0.4736842105263158
 40
0.4736842105263158
 40
0.5263157894736842
 40
0.5263157894736842
 40
0.5263157894736842
 40
0.5263157894736842
 40
0.5789473684210527
 40
0.5789473684210527
 40
0.5789473684210527
 40
0.5789473684210527
 40
0.631578947368421
 40
0.631578947368421
 40
0.631578947368421
 40
0.631578947368421
 40
0.6842105263157894
 40
0.6842105263157894
 40
0.6842105263157894
 40
0.6842105263157894
 40
0.7368421052631577
 40
0.7368421052631577
 40
0.7368421052631577
 40
0.7368421052631577
 40
0.7894736842105261
 40
0.7894736842105261
 40
0.7894736842105261
 40
0.7894736842105261
 40
0.8421052631578945
 40
0.8421052631578945
 40
0.8421052631578945
 40
0.8421052631578945
 40
0.8947368421052628
 40
0.8947368421052628
 40
0.8947368421052628
 40
0.8947368421052628
 40
0.9473684210526312
 40
0.9473684210526312
 40
0.9473684210526312
 40
0.9473684210526312
 40
1.0
 40
1.0
 40
1.0
 40
1.0
 10
0.4368779527559055
 20
0.4826929133858268
 30
0.0
 10
0.4368779527559055
 20
0.4826929133858268
 30
0.0
 10
0.4422677165354331
 20
0.4826929133858268
 30
0.0
 10
0.4422677165354331
 20
0.4826929133858268
 30
0.0
 10
0.4422677165354331
 20
0.4826929133858268
 30
0.0
 10
0.4422677165354331
 20
0.4826929133858268
 30
0.0
 10
0.443240157480315
 20
0.4785551181102363
 30
0.0
 10
0.443240157480315
 20
0.4785551181102363
 30
0.0
 10
0.443240157480315
 20
0.4785551181102363
 30
0.0
 10
0.443240157480315
 20
0.4785551181102363
 30
0.0
 10
0.5143503937007874
 20
0.4785551181102363
 30
0.0
 10
0.5143503937007874
 20
0.4785551181102363
 30
0.0
 10
0.5143503937007874
 20
0.4785551181102363
 30
0.0
 10
0.5143503937007874
 20
0.4785551181102363
 30
0.0
 10
0.5143503937007874
 20
0.4716377952755906
 30
0.0
 10
0.5143503937007874
 20
0.4716377952755906
 30
0.0
 10
0.5143503937007874
 20
0.4716377952755906
 30
0.0
 10
0.5058503937007874
 20
0.4618031496062993
 30
0.0
 10
0.4981259842519685
 20
0.4506377952755906
 30
0.0
 10
0.4912125984251969
 20
0.4380551181102362
 30
0.0
 10
0.4912125984251969
 20
0.4380551181102362
 30
0.0
 10
0.4842952755905512
 20
0.4255
 30
0.0
 10
0.4789330708661417
 20
0.4127204724409449
 30
0.0
 10
0.4751259842519685
 20
0.3996929133858268
 30
0.0
 10
0.4751259842519685
 20
0.3996929133858268
 30
0.0
 10
0.4723779527559056
 20
0.3903070866141732
 30
0.0
 10
0.4701299212598425
 20
0.378748031496063
 30
0.0
 10
0.4683779527559056
 20
0.3650275590551181
 30
0.0
 10
0.4683779527559056
 20
0.3650275590551181
 30
0.0
 10
0.4683779527559056
 20
0.3650275590551181
 30
0.0
 10
0.4517125984251968
 20
0.3650275590551181
 30
0.0
 10
0.4517125984251968
 20
0.3650275590551181
 30
0.0
 10
0.4517125984251968
 20
0.3650275590551181
 30
0.0
 10
0.4533228346456693
 20
0.3771377952755906
 30
0.0
 10
0.455988188976378
 20
0.3884448818897638
 30
0.0
 10
0.4597125984251969
 20
0.3989724409448819
 30
0.0
 10
0.4597125984251969
 20
0.3989724409448819
 30
0.0
 10
0.4634330708661418
 20
0.4095
 30
0.0
 10
0.4687952755905512
 20
0.4205
 30
0.0
 10
0.4758228346456693
 20
0.4319724409448819
 30
0.0
 10
0.4758228346456693
 20
0.4319724409448819
 30
0.0
 10
0.4828503937007874
 20
0.4434448818897638
 30
0.0
 10
0.4913779527559055
 20
0.4548897637795276
 30
0.0
 10
0.5014330708661418
 20
0.4663307086614174
 30
0.0
 10
0.5014330708661418
 20
0.4663307086614174
 30
0.0
 10
0.5014330708661418
 20
0.4663307086614174
 30
0.0
 10
0.4507125984251968
 20
0.4663307086614174
 30
0.0
 10
0.4507125984251968
 20
0.4663307086614174
 30
0.0
 10
0.4507125984251968
 20
0.4663307086614174
 30
0.0
 10
0.4470433070866142
 20
0.4663307086614174
 30
0.0
 10
0.4445157480314961
 20
0.4661653543307087
 30
0.0
 10
0.4431574803149607
 20
0.4657755905511811
 30
0.0
 10
0.4431574803149607
 20
0.4657755905511811
 30
0.0
 10
0.4417952755905512
 20
0.4653897637795276
 30
0.0
 10
0.440740157480315
 20
0.4648031496062992
 30
0.0
 10
0.439988188976378
 20
0.464
 30
0.0
 10
0.439988188976378
 20
0.464
 30
0.0
 10
0.4392125984251969
 20
0.4631653543307087
 30
0.0
 10
0.4385708661417323
 20
0.4617204724409449
 30
0.0
 10
0.4380157480314961
 20
0.4596653543307087
 30
0.0
 10
0.4380157480314961
 20
0.4596653543307087
 30
0.0
 10
0.4380157480314961
 20
0.4596653543307087
 30
0.0
 10
0.4376299212598425
 20
0.4581377952755906
 30
0.0
 10
0.4376299212598425
 20
0.4581377952755906
 30
0.0
 10
0.4376299212598425
 20
0.4581377952755906
 30
0.0
 10
0.4376299212598425
 20
0.4581377952755906
 30
0.0
 10
0.4348503937007874
 20
0.4485275590551182
 30
0.0
 10
0.4348503937007874
 20
0.4485275590551182
 30
0.0
 10
0.4348503937007874
 20
0.4485275590551182
 30
0.0
 10
0.4348503937007874
 20
0.4485275590551182
 30
0.0
 10
0.4279330708661417
 20
0.45
 30
0.0
 10
0.4279330708661417
 20
0.45
 30
0.0
 10
0.4279330708661417
 20
0.45
 30
0.0
 10
0.4279330708661417
 20
0.45
 30
0.0
 10
0.4368779527559055
 20
0.4826929133858268
 30
0.0
 10
0.4368779527559055
 20
0.4826929133858268
 30
0.0
  0
SPLINE
  5
37
330
1F
100
AcDbEntity
  8
LAYER_1
 62
   250
100
AcDbSpline
210
0.0
220
0.0
230
1.0
 70
    11
 71
     3
 72
   172
 73
   168
 74
     0
 42
0.0000000001
 43
0.0000000001
 40
0.0
 40
0.0
 40
0.0
 40
0.0
 40
0.0238095238095238
 40
0.0238095238095238
 40
0.0238095238095238
 40
0.0238095238095238
 40
0.0476190476190476
 40
0.0476190476190476
 40
0.0476190476190476
 40
0.0476190476190476
 40
0.0714285714285714
 40
0.0714285714285714
 40
0.0714285714285714
 40
0.0714285714285714
 40
0.0952380952380952
 40
0.0952380952380952
 40
0.0952380952380952
 40
0.0952380952380952
 40
0.119047619047619
 40
0.119047619047619
 40
0.119047619047619
 40
0.119047619047619
 40
0.1428571428571429
 40
0.1428571428571429
 40
0.1428571428571429
 40
0.1428571428571429
 40
0.1666666666666667
 40
0.1666666666666667
 40
0.1666666666666667
 40
0.1666666666666667
 40
0.1904761904761905
 40
0.1904761904761905
 40
0.1904761904761905
 40
0.1904761904761905
 40
0.2142857142857143
 40
0.2142857142857143
 40
0.2142857142857143
 40
0.2142857142857143
 40
0.2380952380952381
 40
0.2380952380952381
 40
0.2380952380952381
 40
0.2380952380952381
 40
0.2619047619047619
 40
0.2619047619047619
 40
0.2619047619047619
 40
0.2619047619047619
 40
0.2857142857142857
 40
0.2857142857142857
 40
0.2857142857142857
 40
0.2857142857142857
 40
0.3095238095238095
 40
0.3095238095238095
 40
0.3095238095238095
 40
0.3095238095238095
 40
0.3333333333333334
 40
0.3333333333333334
 40
0.3333333333333334
 40
0.3333333333333334
 40
0.3571428571428572
 40
0.3571428571428572
 40
0.3571428571428572
 40
0.3571428571428572
 40
0.380952380952381
 40
0.380952380952381
 40
0.380952380952381
 40
0.380952380952381
 40
0.4047619047619049
 40
0.4047619047619049
 40
0.4047619047619049
 40
0.4047619047619049
 40
0.4285714285714287
 40
0.4285714285714287
 40
0.4285714285714287
 40
0.4285714285714287
 40
0.4523809523809526
 40
0.4523809523809526
 40
0.4523809523809526
 40
0.4523809523809526
 40
0.4761904761904764
 40
0.4761904761904764
 40
0.4761904761904764
 40
0.4761904761904764
 40
0.5000000000000002
 40
0.5000000000000002
 40
0.5000000000000002
 40
0.5000000000000002
 40
0.5238095238095241
 40
0.5238095238095241
 40
0.5238095238095241
 40
0.5238095238095241
 40
0.5476190476190479
 40
0.5476190476190479
 40
0.5476190476190479
 40
0.5476190476190479
 40
0.5714285714285717
 40
0.5714285714285717
 40
0.5714285714285717
 40
0.5714285714285717
 40
0.5952380952380956
 40
0.5952380952380956
 40
0.5952380952380956
 40
0.5952380952380956
 40
0.6190476190476194
 40
0.6190476190476194
 40
0.6190476190476194
 40
0.6190476190476194
 40
0.6428571428571432
 40
0.6428571428571432
 40
0.6428571428571432
 40
0.6428571428571432
 40
0.6666666666666671
 40
0.6666666666666671
 40
0.6666666666666671
 40
0.6666666666666671
 40
0.6904761904761909
 40
0.6904761904761909
 40
0.6904761904761909
 40
0.6904761904761909
 40
0.7142857142857148
 40
0.7142857142857148
 40
0.7142857142857148
 40
0.7142857142857148
 40
0.7380952380952386
 40
0.7380952380952386
 40
0.7380952380952386
 40
0.7380952380952386
 40
0.7619047619047624
 40
0.7619047619047624
 40
0.7619047619047624
 40
0.7619047619047624
 40
0.7857142857142863
 40
0.7857142857142863
 40
0.7857142857142863
 40
0.7857142857142863
 40
0.8095238095238101
 40
0.8095238095238101
 40
0.8095238095238101
 40
0.8095238095238101
 40
0.8333333333333339
 40
0.8333333333333339
 40
0.8333333333333339
 40
0.8333333333333339
 40
0.8571428571428578
 40
0.8571428571428578
 40
0.8571428571428578
 40
0.8571428571428578
 40
0.8809523809523816
 40
0.8809523809523816
 40
0.8809523809523816
 40
0.8809523809523816
 40
0.9047619047619054
 40
0.9047619047619054
 40
0.9047619047619054
 40
0.9047619047619054
 40
0.9285714285714293
 40
0.9285714285714293
 40
0.9285714285714293
 40
0.9285714285714293
 40
0.9523809523809531
 40
0.9523809523809531
 40
0.9523809523809531
 40
0.9523809523809531
 40
0.9761904761904769
 40
0.9761904761904769
 40
0.9761904761904769
 40
0.9761904761904769
 40
1.0
 40
1.0
 40
1.0
 40
1.0
 10
-0.3591496062992126
 20
0.2606929133858268
 30
0.0
 10
-0.3591496062992126
 20
0.2606929133858268
 30
0.0
 10
-0.3669566929133858
 20
0.2619173228346457
 30
0.0
 10
-0.3669566929133858
 20
0.2619173228346457
 30
0.0
 10
-0.3669566929133858
 20
0.2619173228346457
 30
0.0
 10
-0.3662598425196851
 20
0.2677755905511811
 30
0.0
 10
-0.3647322834645669
 20
0.2726377952755906
 30
0.0
 10
-0.3623976377952756
 20
0.2765
 30
0.0
 10
-0.3623976377952756
 20
0.2765
 30
0.0
 10
-0.3593149606299213
 20
0.2816929133858268
 30
0.0
 10
-0.3549566929133858
 20
0.285748031496063
 30
0.0
 10
-0.3493149606299213
 20
0.2886377952755906
 30
0.0
 10
-0.3493149606299213
 20
0.2886377952755906
 30
0.0
 10
-0.3436496062992126
 20
0.2915551181102362
 30
0.0
 10
-0.3371771653543307
 20
0.293
 30
0.0
 10
-0.3298425196850394
 20
0.293
 30
0.0
 10
-0.3298425196850394
 20
0.293
 30
0.0
 10
-0.3226496062992126
 20
0.293
 30
0.0
 10
-0.3162874015748032
 20
0.2917204724409449
 30
0.0
 10
-0.3108149606299213
 20
0.2891377952755906
 30
0.0
 10
-0.3108149606299213
 20
0.2891377952755906
 30
0.0
 10
-0.3053425196850394
 20
0.2865551181102362
 30
0.0
 10
-0.3012047244094488
 20
0.2831377952755906
 30
0.0
 10
-0.2984015748031496
 20
0.2788897637795276
 30
0.0
 10
-0.2984015748031496
 20
0.2788897637795276
 30
0.0
 10
-0.2955944881889764
 20
0.2746377952755906
 30
0.0
 10
-0.2942047244094488
 20
0.2700275590551181
 30
0.0
 10
-0.2942047244094488
 20
0.2650826771653543
 30
0.0
 10
-0.2942047244094488
 20
0.2650826771653543
 30
0.0
 10
-0.2942047244094488
 20
0.260748031496063
 30
0.0
 10
-0.2952598425196851
 20
0.2568622047244095
 30
0.0
 10
-0.2973740157480315
 20
0.2534448818897638
 30
0.0
 10
-0.2973740157480315
 20
0.2534448818897638
 30
0.0
 10
-0.2995118110236221
 20
0.2500275590551181
 30
0.0
 10
-0.3026496062992126
 20
0.2469724409448819
 30
0.0
 10
-0.3068149606299213
 20
0.244248031496063
 30
0.0
 10
-0.3068149606299213
 20
0.244248031496063
 30
0.0
 10
-0.309759842519685
 20
0.2423622047244095
 30
0.0
 10
-0.3135669291338583
 20
0.2406929133858268
 30
0.0
 10
-0.3182874015748032
 20
0.2393031496062992
 30
0.0
 10
-0.3182874015748032
 20
0.2393031496062992
 30
0.0
 10
-0.313259842519685
 20
0.2385826771653543
 30
0.0
 10
-0.3091220472440945
 20
0.2374173228346457
 30
0.0
 10
-0.3059291338582678
 20
0.2358031496062992
 30
0.0
 10
-0.3059291338582678
 20
0.2358031496062992
 30
0.0
 10
-0.3007322834645669
 20
0.2331377952755906
 30
0.0
 10
-0.2966220472440945
 20
0.2294724409448819
 30
0.0
 10
-0.2936496062992126
 20
0.2248031496062992
 30
0.0
 10
-0.2936496062992126
 20
0.2248031496062992
 30
0.0
 10
-0.2906496062992126
 20
0.2201377952755906
 30
0.0
 10
-0.2891771653543308
 20
0.2150275590551181
 30
0.0
 10
-0.2891771653543308
 20
0.2094173228346457
 30
0.0
 10
-0.2891771653543308
 20
0.2094173228346457
 30
0.0
 10
-0.2891771653543308
 20
0.2004724409448819
 30
0.0
 10
-0.2930944881889764
 20
0.1925826771653544
 30
0.0
 10
-0.3009566929133858
 20
0.1857755905511811
 30
0.0
 10
-0.3009566929133858
 20
0.1857755905511811
 30
0.0
 10
-0.3088425196850394
 20
0.1789724409448819
 30
0.0
 10
-0.3190118110236221
 20
0.1755826771653543
 30
0.0
 10
-0.331484251968504
 20
0.1755826771653543
 30
0.0
 10
-0.331484251968504
 20
0.1755826771653543
 30
0.0
 10
-0.3437874015748031
 20
0.1755826771653543
 30
0.0
 10
-0.3541496062992126
 20
0.1788622047244095
 30
0.0
 10
-0.3625669291338583
 20
0.1854173228346457
 30
0.0
 10
-0.3625669291338583
 20
0.1854173228346457
 30
0.0
 10
-0.3696220472440945
 20
0.191
 30
0.0
 10
-0.3731496062992126
 20
0.1966377952755906
 30
0.0
 10
-0.3731496062992126
 20
0.2022755905511811
 30
0.0
 10
-0.3731496062992126
 20
0.2022755905511811
 30
0.0
 10
-0.3731496062992126
 20
0.2045
 30
0.0
 10
-0.3724251968503937
 20
0.2063622047244095
 30
0.0
 10
-0.3709842519685039
 20
0.2078346456692914
 30
0.0
 10
-0.3709842519685039
 20
0.2078346456692914
 30
0.0
 10
-0.3695669291338583
 20
0.2093346456692914
 30
0.0
 10
-0.3677598425196851
 20
0.2100826771653543
 30
0.0
 10
-0.3655669291338583
 20
0.2100826771653543
 30
0.0
 10
-0.3655669291338583
 20
0.2100826771653543
 30
0.0
 10
-0.3632047244094488
 20
0.2100826771653543
 30
0.0
 10
-0.3611496062992126
 20
0.2091653543307087
 30
0.0
 10
-0.359484251968504
 20
0.2073031496062992
 30
0.0
 10
-0.359484251968504
 20
0.2073031496062992
 30
0.0
 10
-0.3585669291338583
 20
0.2062755905511811
 30
0.0
 10
-0.357484251968504
 20
0.2038070866141732
 30
0.0
 10
-0.3563149606299213
 20
0.1999173228346457
 30
0.0
 10
-0.3563149606299213
 20
0.1999173228346457
 30
0.0
 10
-0.3546220472440945
 20
0.1944173228346457
 30
0.0
 10
-0.3517598425196851
 20
0.190248031496063
 30
0.0
 10
-0.3477598425196851
 20
0.1873897637795276
 30
0.0
 10
-0.3477598425196851
 20
0.1873897637795276
 30
0.0
 10
-0.343732283464567
 20
0.1845
 30
0.0
 10
-0.3387598425196851
 20
0.1830551181102362
 30
0.0
 10
-0.3327874015748032
 20
0.1830551181102362
 30
0.0
 10
-0.3327874015748032
 20
0.1830551181102362
 30
0.0
 10
-0.3274566929133859
 20
0.1830551181102362
 30
0.0
 10
-0.3227047244094488
 20
0.1842204724409449
 30
0.0
 10
-0.3185118110236221
 20
0.1865551181102362
 30
0.0
 10
-0.3185118110236221
 20
0.1865551181102362
 30
0.0
 10
-0.3142874015748032
 20
0.1888897637795276
 30
0.0
 10
-0.3109842519685039
 20
0.1921929133858268
 30
0.0
 10
-0.3085393700787402
 20
0.1965
 30
0.0
 10
-0.3085393700787402
 20
0.1965
 30
0.0
 10
-0.3060944881889764
 20
0.2007755905511811
 30
0.0
 10
-0.3048700787401575
 20
0.2054724409448819
 30
0.0
 10
-0.3048700787401575
 20
0.2105551181102362
 30
0.0
 10
-0.3048700787401575
 20
0.2105551181102362
 30
0.0
 10
-0.3048700787401575
 20
0.2146929133858268
 30
0.0
 10
-0.3057598425196851
 20
0.2183897637795276
 30
0.0
 10
-0.3075118110236221
 20
0.2216653543307087
 30
0.0
 10
-0.3075118110236221
 20
0.2216653543307087
 30
0.0
 10
-0.3092874015748032
 20
0.2249724409448819
 30
0.0
 10
-0.3117874015748032
 20
0.227748031496063
 30
0.0
 10
-0.3150393700787402
 20
0.2300275590551181
 30
0.0
 10
-0.3150393700787402
 20
0.2300275590551181
 30
0.0
 10
-0.3175393700787402
 20
0.2318031496062992
 30
0.0
 10
-0.320732283464567
 20
0.2330551181102362
 30
0.0
 10
-0.3245944881889764
 20
0.233748031496063
 30
0.0
 10
-0.3245944881889764
 20
0.233748031496063
 30
0.0
 10
-0.328484251968504
 20
0.2344724409448819
 30
0.0
 10
-0.331984251968504
 20
0.2348307086614173
 30
0.0
 10
-0.3350669291338583
 20
0.2348307086614173
 30
0.0
 10
-0.3350669291338583
 20
0.2348307086614173
 30
0.0
 10
-0.3350669291338583
 20
0.2348307086614173
 30
0.0
 10
-0.3426220472440945
 20
0.2348307086614173
 30
0.0
 10
-0.3426220472440945
 20
0.2348307086614173
 30
0.0
 10
-0.3426220472440945
 20
0.2348307086614173
 30
0.0
 10
-0.3426220472440945
 20
0.2348307086614173
 30
0.0
 10
-0.3426220472440945
 20
0.2427204724409449
 30
0.0
 10
-0.3426220472440945
 20
0.2427204724409449
 30
0.0
 10
-0.3426220472440945
 20
0.2427204724409449
 30
0.0
 10
-0.3426220472440945
 20
0.2427204724409449
 30
0.0
 10
-0.3378149606299213
 20
0.2427204724409449
 30
0.0
 10
-0.3378149606299213
 20
0.2427204724409449
 30
0.0
 10
-0.3378149606299213
 20
0.2427204724409449
 30
0.0
 10
-0.3330669291338583
 20
0.2427204724409449
 30
0.0
 10
-0.328511811023622
 20
0.2432755905511811
 30
0.0
 10
-0.3241496062992126
 20
0.2443897637795276
 30
0.0
 10
-0.3241496062992126
 20
0.2443897637795276
 30
0.0
 10
-0.3198149606299213
 20
0.2455
 30
0.0
 10
-0.3163425196850394
 20
0.2477755905511811
 30
0.0
 10
-0.3137322834645669
 20
0.251248031496063
 30
0.0
 10
-0.3137322834645669
 20
0.251248031496063
 30
0.0
 10
-0.3111496062992126
 20
0.2547204724409449
 30
0.0
 10
-0.3098425196850394
 20
0.2586653543307087
 30
0.0
 10
-0.3098425196850394
 20
0.2630551181102362
 30
0.0
 10
-0.3098425196850394
 20
0.2630551181102362
 30
0.0
 10
-0.3098425196850394
 20
0.2668582677165354
 30
0.0
 10
-0.3107322834645669
 20
0.2702755905511811
 30
0.0
 10
-0.3125669291338583
 20
0.2733031496062992
 30
0.0
 10
-0.3125669291338583
 20
0.2733031496062992
 30
0.0
 10
-0.3143700787401575
 20
0.2763582677165354
 30
0.0
 10
-0.3170393700787402
 20
0.2787755905511811
 30
0.0
 10
-0.3205669291338583
 20
0.2805551181102363
 30
0.0
 10
-0.3205669291338583
 20
0.2805551181102363
 30
0.0
 10
-0.3240944881889764
 20
0.2823307086614174
 30
0.0
 10
-0.3281771653543307
 20
0.283248031496063
 30
0.0
 10
-0.3327874015748032
 20
0.283248031496063
 30
0.0
 10
-0.3327874015748032
 20
0.283248031496063
 30
0.0
 10
-0.3372874015748031
 20
0.283248031496063
 30
0.0
 10
-0.3414291338582677
 20
0.2823031496062992
 30
0.0
 10
-0.3452047244094488
 20
0.2804724409448819
 30
0.0
 10
-0.3452047244094488
 20
0.2804724409448819
 30
0.0
 10
-0.3489566929133858
 20
0.2786377952755906
 30
0.0
 10
-0.351984251968504
 20
0.2761653543307087
 30
0.0
 10
-0.3542598425196851
 20
0.2730551181102363
 30
0.0
 10
-0.3542598425196851
 20
0.2730551181102363
 30
0.0
 10
-0.3565393700787402
 20
0.2699724409448819
 30
0.0
 10
-0.3581771653543307
 20
0.2658582677165354
 30
0.0
 10
-0.3591496062992126
 20
0.2606929133858268
 30
0.0
  0
SPLINE
  5
38
330
1F
100
AcDbEntity
  8
LAYER_1
 62
   250
100
AcDbSpline
210
0.0
220
0.0
230
1.0
 70
    11
 71
     3
 72
    20
 73
    16
 74
     0
 42
0.0000000001
 43
0.0000000001
 40
0.0
 40
0.0
 40
0.0
 40
0.0
 40
0.25
 40
0.25
 40
0.25
 40
0.25
 40
0.5
 40
0.5
 40
0.5
 40
0.5
 40
0.75
 40
0.75
 40
0.75
 40
0.75
 40
1.0
 40
1.0
 40
1.0
 40
1.0
 10
-0.1963700787401575
 20
0.2969173228346457
 30
0.0
 10
-0.1963700787401575
 20
0.2969173228346457
 30
0.0
 10
-0.2519527559055118
 20
0.1412204724409449
 30
0.0
 10
-0.2519527559055118
 20
0.1412204724409449
 30
0.0
 10
-0.2519527559055118
 20
0.1412204724409449
 30
0.0
 10
-0.2519527559055118
 20
0.1412204724409449
 30
0.0
 10
-0.2640078740157481
 20
0.1412204724409449
 30
0.0
 10
-0.2640078740157481
 20
0.1412204724409449
 30
0.0
 10
-0.2640078740157481
 20
0.1412204724409449
 30
0.0
 10
-0.2640078740157481
 20
0.1412204724409449
 30
0.0
 10
-0.2087598425196851
 20
0.2969173228346457
 30
0.0
 10
-0.2087598425196851
 20
0.2969173228346457
 30
0.0
 10
-0.2087598425196851
 20
0.2969173228346457
 30
0.0
 10
-0.2087598425196851
 20
0.2969173228346457
 30
0.0
 10
-0.1963700787401575
 20
0.2969173228346457
 30
0.0
 10
-0.1963700787401575
 20
0.2969173228346457
 30
0.0
  0
SPLINE
  5
39
330
1F
100
AcDbEntity
  8
LAYER_1
 62
   250
100
AcDbSpline
210
0.0
220
0.0
230
1.0
 70
    11
 71
     3
 72
    76
 73
    72
 74
     0
 42
0.0000000001
 43
0.0000000001
 40
0.0
 40
0.0
 40
0.0
 40
0.0
 40
0.0555555555555556
 40
0.0555555555555556
 40
0.0555555555555556
 40
0.0555555555555556
 40
0.1111111111111111
 40
0.1111111111111111
 40
0.1111111111111111
 40
0.1111111111111111
 40
0.1666666666666667
 40
0.1666666666666667
 40
0.1666666666666667
 40
0.1666666666666667
 40
0.2222222222222222
 40
0.2222222222222222
 40
0.2222222222222222
 40
0.2222222222222222
 40
0.2777777777777778
 40
0.2777777777777778
 40
0.2777777777777778
 40
0.2777777777777778
 40
0.3333333333333334
 40
0.3333333333333334
 40
0.3333333333333334
 40
0.3333333333333334
 40
0.388888888888889
 40
0.388888888888889
 40
0.388888888888889
 40
0.388888888888889
 40
0.4444444444444445
 40
0.4444444444444445
 40
0.4444444444444445
 40
0.4444444444444445
 40
0.5000000000000001
 40
0.5000000000000001
 40
0.5000000000000001
 40
0.5000000000000001
 40
0.5555555555555557
 40
0.5555555555555557
 40
0.5555555555555557
 40
0.5555555555555557
 40
0.6111111111111113
 40
0.6111111111111113
 40
0.6111111111111113
 40
0.6111111111111113
 40
0.6666666666666669
 40
0.6666666666666669
 40
0.6666666666666669
 40
0.6666666666666669
 40
0.7222222222222224
 40
0.7222222222222224
 40
0.7222222222222224
 40
0.7222222222222224
 40
0.777777777777778
 40
0.777777777777778
 40
0.777777777777778
 40
0.777777777777778
 40
0.8333333333333336
 40
0.8333333333333336
 40
0.8333333333333336
 40
0.8333333333333336
 40
0.8888888888888892
 40
0.8888888888888892
 40
0.8888888888888892
 40
0.8888888888888892
 40
0.9444444444444448
 40
0.9444444444444448
 40
0.9444444444444448
 40
0.9444444444444448
 40
1.0
 40
1.0
 40
1.0
 40
1.0
 10
-0.1133700787401575
 20
0.2405275590551181
 30
0.0
 10
-0.1069527559055118
 20
0.2380826771653543
 30
0.0
 10
-0.1020669291338583
 20
0.2357755905511811
 30
0.0
 10
-0.0987047244094488
 20
0.2336102362204724
 30
0.0
 10
-0.0987047244094488
 20
0.2336102362204724
 30
0.0
 10
-0.0937874015748032
 20
0.2304448818897638
 30
0.0
 10
-0.0900669291338583
 20
0.226748031496063
 30
0.0
 10
-0.0875669291338583
 20
0.2225
 30
0.0
 10
-0.0875669291338583
 20
0.2225
 30
0.0
 10
-0.0850669291338583
 20
0.2182204724409449
 30
0.0
 10
-0.0838149606299213
 20
0.2136102362204725
 30
0.0
 10
-0.0838149606299213
 20
0.2086102362204725
 30
0.0
 10
-0.0838149606299213
 20
0.2086102362204725
 30
0.0
 10
-0.0838149606299213
 20
0.1996653543307087
 30
0.0
 10
-0.0876771653543307
 20
0.1919173228346457
 30
0.0
 10
-0.0953700787401575
 20
0.1853897637795276
 30
0.0
 10
-0.0953700787401575
 20
0.1853897637795276
 30
0.0
 10
-0.1030944881889764
 20
0.1788346456692914
 30
0.0
 10
-0.1134803149606299
 20
0.1755826771653543
 30
0.0
 10
-0.1265393700787402
 20
0.1755826771653543
 30
0.0
 10
-0.1265393700787402
 20
0.1755826771653543
 30
0.0
 10
-0.1403700787401575
 20
0.1755826771653543
 30
0.0
 10
-0.1512322834645669
 20
0.1792755905511811
 30
0.0
 10
-0.1590944881889764
 20
0.1866377952755906
 30
0.0
 10
-0.1590944881889764
 20
0.1866377952755906
 30
0.0
 10
-0.1653425196850394
 20
0.1925551181102362
 30
0.0
 10
-0.1684527559055118
 20
0.199248031496063
 30
0.0
 10
-0.1684527559055118
 20
0.206748031496063
 30
0.0
 10
-0.1684527559055118
 20
0.206748031496063
 30
0.0
 10
-0.1684527559055118
 20
0.2127755905511811
 30
0.0
 10
-0.1663425196850394
 20
0.2181653543307087
 30
0.0
 10
-0.1621220472440945
 20
0.2229448818897638
 30
0.0
 10
-0.1621220472440945
 20
0.2229448818897638
 30
0.0
 10
-0.157007874015748
 20
0.2286377952755906
 30
0.0
 10
-0.1497322834645669
 20
0.2330826771653543
 30
0.0
 10
-0.1402874015748032
 20
0.2362755905511811
 30
0.0
 10
-0.1402874015748032
 20
0.2362755905511811
 30
0.0
 10
-0.1476771653543307
 20
0.239748031496063
 30
0.0
 10
-0.1529803149606299
 20
0.2432755905511811
 30
0.0
 10
-0.1562598425196851
 20
0.2468622047244095
 30
0.0
 10
-0.1562598425196851
 20
0.2468622047244095
 30
0.0
 10
-0.1604251968503937
 20
0.2515826771653543
 30
0.0
 10
-0.162507874015748
 20
0.257248031496063
 30
0.0
 10
-0.162507874015748
 20
0.2638582677165354
 30
0.0
 10
-0.162507874015748
 20
0.2638582677165354
 30
0.0
 10
-0.162507874015748
 20
0.2720551181102363
 30
0.0
 10
-0.1594251968503937
 20
0.2786929133858268
 30
0.0
 10
-0.1532322834645669
 20
0.2837204724409449
 30
0.0
 10
-0.1532322834645669
 20
0.2837204724409449
 30
0.0
 10
-0.1456496062992126
 20
0.2899173228346457
 30
0.0
 10
-0.1361496062992126
 20
0.293
 30
0.0
 10
-0.124759842519685
 20
0.293
 30
0.0
 10
-0.124759842519685
 20
0.293
 30
0.0
 10
-0.1143425196850394
 20
0.293
 30
0.0
 10
-0.1059251968503937
 20
0.2903307086614174
 30
0.0
 10
-0.0994803149606299
 20
0.285
 30
0.0
 10
-0.0994803149606299
 20
0.285
 30
0.0
 10
-0.0930669291338583
 20
0.2796377952755906
 30
0.0
 10
-0.0898425196850394
 20
0.2735275590551181
 30
0.0
 10
-0.0898425196850394
 20
0.2666377952755906
 30
0.0
 10
-0.0898425196850394
 20
0.2666377952755906
 30
0.0
 10
-0.0898425196850394
 20
0.2632204724409449
 30
0.0
 10
-0.0906496062992126
 20
0.2599448818897638
 30
0.0
 10
-0.0922322834645669
 20
0.2568307086614173
 30
0.0
 10
-0.0922322834645669
 20
0.2568307086614173
 30
0.0
 10
-0.0938425196850394
 20
0.2537204724409449
 30
0.0
 10
-0.0962874015748032
 20
0.2508031496062992
 30
0.0
 10
-0.0996220472440945
 20
0.2481377952755906
 30
0.0
 10
-0.0996220472440945
 20
0.2481377952755906
 30
0.0
 10
-0.1029251968503937
 20
0.2454448818897638
 30
0.0
 10
-0.1075118110236221
 20
0.2429173228346457
 30
0.0
 10
-0.1133700787401575
 20
0.2405275590551181
 30
0.0
  0
SPLINE
  5
3A
330
1F
100
AcDbEntity
  8
LAYER_1
 62
   250
100
AcDbSpline
210
0.0
220
0.0
230
1.0
 70
    11
 71
     3
 72
    48
 73
    44
 74
     0
 42
0.0000000001
 43
0.0000000001
 40
0.0
 40
0.0
 40
0.0
 40
0.0
 40
0.0909090909090909
 40
0.0909090909090909
 40
0.0909090909090909
 40
0.0909090909090909
 40
0.1818181818181818
 40
0.1818181818181818
 40
0.1818181818181818
 40
0.1818181818181818
 40
0.2727272727272727
 40
0.2727272727272727
 40
0.2727272727272727
 40
0.2727272727272727
 40
0.3636363636363637
 40
0.3636363636363637
 40
0.3636363636363637
 40
0.3636363636363637
 40
0.4545454545454546
 40
0.4545454545454546
 40
0.4545454545454546
 40
0.4545454545454546
 40
0.5454545454545455
 40
0.5454545454545455
 40
0.5454545454545455
 40
0.5454545454545455
 40
0.6363636363636365
 40
0.6363636363636365
 40
0.6363636363636365
 40
0.6363636363636365
 40
0.7272727272727274
 40
0.7272727272727274
 40
0.7272727272727274
 40
0.7272727272727274
 40
0.8181818181818183
 40
0.8181818181818183
 40
0.8181818181818183
 40
0.8181818181818183
 40
0.9090909090909093
 40
0.9090909090909093
 40
0.9090909090909093
 40
0.9090909090909093
 40
1.0
 40
1.0
 40
1.0
 40
1.0
 10
-0.120759842519685
 20
0.2435275590551181
 30
0.0
 10
-0.1145944881889764
 20
0.2481929133858268
 30
0.0
 10
-0.1105669291338583
 20
0.2514448818897638
 30
0.0
 10
-0.1087322834645669
 20
0.2533031496062992
 30
0.0
 10
-0.1087322834645669
 20
0.2533031496062992
 30
0.0
 10
-0.1068700787401575
 20
0.2551377952755906
 30
0.0
 10
-0.1054527559055118
 20
0.257248031496063
 30
0.0
 10
-0.1044527559055118
 20
0.2596102362204725
 30
0.0
 10
-0.1044527559055118
 20
0.2596102362204725
 30
0.0
 10
-0.1034527559055118
 20
0.2619724409448819
 30
0.0
 10
-0.1029527559055118
 20
0.264248031496063
 30
0.0
 10
-0.1029527559055118
 20
0.2664724409448819
 30
0.0
 10
-0.1029527559055118
 20
0.2664724409448819
 30
0.0
 10
-0.1029527559055118
 20
0.2696653543307087
 30
0.0
 10
-0.1038976377952756
 20
0.2727204724409449
 30
0.0
 10
-0.1057874015748032
 20
0.2756377952755906
 30
0.0
 10
-0.1057874015748032
 20
0.2756377952755906
 30
0.0
 10
-0.1077047244094488
 20
0.2785275590551181
 30
0.0
 10
-0.1104803149606299
 20
0.2808897637795276
 30
0.0
 10
-0.1141496062992126
 20
0.2826653543307087
 30
0.0
 10
-0.1141496062992126
 20
0.2826653543307087
 30
0.0
 10
-0.1177874015748032
 20
0.2844724409448819
 30
0.0
 10
-0.1218976377952756
 20
0.2853582677165354
 30
0.0
 10
-0.1264527559055118
 20
0.2853582677165354
 30
0.0
 10
-0.1264527559055118
 20
0.2853582677165354
 30
0.0
 10
-0.1332047244094488
 20
0.2853582677165354
 30
0.0
 10
-0.1387874015748032
 20
0.2835
 30
0.0
 10
-0.1432322834645669
 20
0.2797755905511811
 30
0.0
 10
-0.1432322834645669
 20
0.2797755905511811
 30
0.0
 10
-0.1476771653543307
 20
0.2760551181102363
 30
0.0
 10
-0.1498976377952756
 20
0.2717755905511811
 30
0.0
 10
-0.1498976377952756
 20
0.2668897637795276
 30
0.0
 10
-0.1498976377952756
 20
0.2668897637795276
 30
0.0
 10
-0.1498976377952756
 20
0.2629724409448819
 30
0.0
 10
-0.148507874015748
 20
0.2594724409448819
 30
0.0
 10
-0.1457598425196851
 20
0.2563897637795276
 30
0.0
 10
-0.1457598425196851
 20
0.2563897637795276
 30
0.0
 10
-0.1429803149606299
 20
0.2533031496062992
 30
0.0
 10
-0.1378425196850394
 20
0.250248031496063
 30
0.0
 10
-0.1302874015748032
 20
0.2472755905511811
 30
0.0
 10
-0.1302874015748032
 20
0.2472755905511811
 30
0.0
 10
-0.1302874015748032
 20
0.2472755905511811
 30
0.0
 10
-0.120759842519685
 20
0.2435275590551181
 30
0.0
 10
-0.120759842519685
 20
0.2435275590551181
 30
0.0
  0
SPLINE
  5
3B
330
1F
100
AcDbEntity
  8
LAYER_1
 62
   250
100
AcDbSpline
210
0.0
220
0.0
230
1.0
 70
    11
 71
     3
 72
    40
 73
    36
 74
     0
 42
0.0000000001
 43
0.0000000001
 40
0.0
 40
0.0
 40
0.0
 40
0.0
 40
0.1111111111111111
 40
0.1111111111111111
 40
0.1111111111111111
 40
0.1111111111111111
 40
0.2222222222222222
 40
0.2222222222222222
 40
0.2222222222222222
 40
0.2222222222222222
 40
0.3333333333333333
 40
0.3333333333333333
 40
0.3333333333333333
 40
0.3333333333333333
 40
0.4444444444444444
 40
0.4444444444444444
 40
0.4444444444444444
 40
0.4444444444444444
 40
0.5555555555555556
 40
0.5555555555555556
 40
0.5555555555555556
 40
0.5555555555555556
 40
0.6666666666666667
 40
0.6666666666666667
 40
0.6666666666666667
 40
0.6666666666666667
 40
0.7777777777777779
 40
0.7777777777777779
 40
0.7777777777777779
 40
0.7777777777777779
 40
0.8888888888888891
 40
0.8888888888888891
 40
0.8888888888888891
 40
0.8888888888888891
 40
1.0
 40
1.0
 40
1.0
 40
1.0
 10
-0.132232283464567
 20
0.2331102362204724
 30
0.0
 10
-0.1398976377952756
 20
0.229748031496063
 30
0.0
 10
-0.1459527559055118
 20
0.2253897637795276
 30
0.0
 10
-0.1503976377952756
 20
0.22
 30
0.0
 10
-0.1503976377952756
 20
0.22
 30
0.0
 10
-0.1538700787401575
 20
0.2157755905511811
 30
0.0
 10
-0.1555944881889764
 20
0.2113897637795276
 30
0.0
 10
-0.1555944881889764
 20
0.2068346456692914
 30
0.0
 10
-0.1555944881889764
 20
0.2068346456692914
 30
0.0
 10
-0.1555944881889764
 20
0.2006377952755906
 30
0.0
 10
-0.1528700787401575
 20
0.1951377952755906
 30
0.0
 10
-0.1473700787401575
 20
0.1903346456692913
 30
0.0
 10
-0.1473700787401575
 20
0.1903346456692913
 30
0.0
 10
-0.1418976377952756
 20
0.1855551181102362
 30
0.0
 10
-0.1348149606299213
 20
0.1831377952755906
 30
0.0
 10
-0.1261496062992126
 20
0.1831377952755906
 30
0.0
 10
-0.1261496062992126
 20
0.1831377952755906
 30
0.0
 10
-0.1172874015748032
 20
0.1831377952755906
 30
0.0
 10
-0.1099251968503937
 20
0.1858897637795276
 30
0.0
 10
-0.104011811023622
 20
0.1913622047244095
 30
0.0
 10
-0.104011811023622
 20
0.1913622047244095
 30
0.0
 10
-0.0991771653543307
 20
0.1958070866141732
 30
0.0
 10
-0.096759842519685
 20
0.2005826771653543
 30
0.0
 10
-0.096759842519685
 20
0.2056929133858268
 30
0.0
 10
-0.096759842519685
 20
0.2056929133858268
 30
0.0
 10
-0.096759842519685
 20
0.2096929133858268
 30
0.0
 10
-0.0983425196850394
 20
0.2135275590551181
 30
0.0
 10
-0.1015118110236221
 20
0.2171929133858268
 30
0.0
 10
-0.1015118110236221
 20
0.2171929133858268
 30
0.0
 10
-0.1047047244094488
 20
0.2208622047244095
 30
0.0
 10
-0.1105944881889764
 20
0.2244173228346457
 30
0.0
 10
-0.1192322834645669
 20
0.2278897637795276
 30
0.0
 10
-0.1192322834645669
 20
0.2278897637795276
 30
0.0
 10
-0.1192322834645669
 20
0.2278897637795276
 30
0.0
 10
-0.132232283464567
 20
0.2331102362204724
 30
0.0
 10
-0.132232283464567
 20
0.2331102362204724
 30
0.0
  0
SPLINE
  5
3C
330
1F
100
AcDbEntity
  8
LAYER_1
 62
   250
100
AcDbSpline
210
0.0
220
0.0
230
1.0
 70
    11
 71
     3
 72
    60
 73
    56
 74
     0
 42
0.0000000001
 43
0.0000000001
 40
0.0
 40
0.0
 40
0.0
 40
0.0
 40
0.0714285714285714
 40
0.0714285714285714
 40
0.0714285714285714
 40
0.0714285714285714
 40
0.1428571428571429
 40
0.1428571428571429
 40
0.1428571428571429
 40
0.1428571428571429
 40
0.2142857142857143
 40
0.2142857142857143
 40
0.2142857142857143
 40
0.2142857142857143
 40
0.2857142857142857
 40
0.2857142857142857
 40
0.2857142857142857
 40
0.2857142857142857
 40
0.3571428571428571
 40
0.3571428571428571
 40
0.3571428571428571
 40
0.3571428571428571
 40
0.4285714285714285
 40
0.4285714285714285
 40
0.4285714285714285
 40
0.4285714285714285
 40
0.4999999999999999
 40
0.4999999999999999
 40
0.4999999999999999
 40
0.4999999999999999
 40
0.5714285714285713
 40
0.5714285714285713
 40
0.5714285714285713
 40
0.5714285714285713
 40
0.6428571428571427
 40
0.6428571428571427
 40
0.6428571428571427
 40
0.6428571428571427
 40
0.7142857142857141
 40
0.7142857142857141
 40
0.7142857142857141
 40
0.7142857142857141
 40
0.7857142857142855
 40
0.7857142857142855
 40
0.7857142857142855
 40
0.7857142857142855
 40
0.8571428571428569
 40
0.8571428571428569
 40
0.8571428571428569
 40
0.8571428571428569
 40
0.9285714285714283
 40
0.9285714285714283
 40
0.9285714285714283
 40
0.9285714285714283
 40
1.0
 40
1.0
 40
1.0
 40
1.0
 10
-0.0643700787401575
 20
0.2489724409448819
 30
0.0
 10
-0.0643700787401575
 20
0.2489724409448819
 30
0.0
 10
-0.068759842519685
 20
0.2543622047244095
 30
0.0
 10
-0.068759842519685
 20
0.2543622047244095
 30
0.0
 10
-0.068759842519685
 20
0.2543622047244095
 30
0.0
 10
-0.0576456692913386
 20
0.2634173228346457
 30
0.0
 10
-0.0520629921259843
 20
0.2709724409448819
 30
0.0
 10
-0.0520629921259843
 20
0.2770551181102363
 30
0.0
 10
-0.0520629921259843
 20
0.2770551181102363
 30
0.0
 10
-0.0520629921259843
 20
0.277748031496063
 30
0.0
 10
-0.0521181102362205
 20
0.2786377952755906
 30
0.0
 10
-0.0522322834645669
 20
0.2796653543307087
 30
0.0
 10
-0.0522322834645669
 20
0.2796653543307087
 30
0.0
 10
-0.0531456692913386
 20
0.2792755905511811
 30
0.0
 10
-0.0540629921259843
 20
0.2789724409448819
 30
0.0
 10
-0.0549251968503937
 20
0.2787755905511811
 30
0.0
 10
-0.0549251968503937
 20
0.2787755905511811
 30
0.0
 10
-0.0557874015748032
 20
0.2785551181102363
 30
0.0
 10
-0.0565905511811024
 20
0.2784448818897638
 30
0.0
 10
-0.0573700787401575
 20
0.2784448818897638
 30
0.0
 10
-0.0573700787401575
 20
0.2784448818897638
 30
0.0
 10
-0.0599803149606299
 20
0.2784448818897638
 30
0.0
 10
-0.0620629921259843
 20
0.2792755905511811
 30
0.0
 10
-0.0636181102362205
 20
0.2809724409448819
 30
0.0
 10
-0.0636181102362205
 20
0.2809724409448819
 30
0.0
 10
-0.0652047244094488
 20
0.2826377952755906
 30
0.0
 10
-0.0659803149606299
 20
0.2847755905511811
 30
0.0
 10
-0.0659803149606299
 20
0.2873897637795276
 30
0.0
 10
-0.0659803149606299
 20
0.2873897637795276
 30
0.0
 10
-0.0659803149606299
 20
0.2899448818897638
 30
0.0
 10
-0.0650354330708662
 20
0.2921653543307087
 30
0.0
 10
-0.0631456692913386
 20
0.2940551181102362
 30
0.0
 10
-0.0631456692913386
 20
0.2940551181102362
 30
0.0
 10
-0.0612322834645669
 20
0.2959724409448819
 30
0.0
 10
-0.0589527559055118
 20
0.2969173228346457
 30
0.0
 10
-0.0563149606299213
 20
0.2969173228346457
 30
0.0
 10
-0.0563149606299213
 20
0.2969173228346457
 30
0.0
 10
-0.0526181102362205
 20
0.2969173228346457
 30
0.0
 10
-0.0494527559055118
 20
0.2954448818897638
 30
0.0
 10
-0.0468149606299213
 20
0.2924724409448819
 30
0.0
 10
-0.0468149606299213
 20
0.2924724409448819
 30
0.0
 10
-0.0442047244094488
 20
0.2895275590551181
 30
0.0
 10
-0.0428700787401575
 20
0.2857204724409449
 30
0.0
 10
-0.0428700787401575
 20
0.2810551181102363
 30
0.0
 10
-0.0428700787401575
 20
0.2810551181102363
 30
0.0
 10
-0.0428700787401575
 20
0.278
 30
0.0
 10
-0.043507874015748
 20
0.2748031496062992
 30
0.0
 10
-0.044759842519685
 20
0.2714724409448819
 30
0.0
 10
-0.044759842519685
 20
0.2714724409448819
 30
0.0
 10
-0.046007874015748
 20
0.2681377952755906
 30
0.0
 10
-0.0478149606299213
 20
0.2650551181102362
 30
0.0
 10
-0.0502047244094488
 20
0.2621929133858268
 30
0.0
 10
-0.0502047244094488
 20
0.2621929133858268
 30
0.0
 10
-0.0525905511811024
 20
0.2593622047244095
 30
0.0
 10
-0.0573149606299213
 20
0.2549448818897638
 30
0.0
 10
-0.0643700787401575
 20
0.2489724409448819
 30
0.0
  0
SPLINE
  5
3D
330
1F
100
AcDbEntity
  8
LAYER_1
 62
   250
100
AcDbSpline
210
0.0
220
0.0
230
1.0
 70
    11
 71
     3
 72
    60
 73
    56
 74
     0
 42
0.0000000001
 43
0.0000000001
 40
0.0
 40
0.0
 40
0.0
 40
0.0
 40
0.0714285714285714
 40
0.0714285714285714
 40
0.0714285714285714
 40
0.0714285714285714
 40
0.1428571428571429
 40
0.1428571428571429
 40
0.1428571428571429
 40
0.1428571428571429
 40
0.2142857142857143
 40
0.2142857142857143
 40
0.2142857142857143
 40
0.2142857142857143
 40
0.2857142857142857
 40
0.2857142857142857
 40
0.2857142857142857
 40
0.2857142857142857
 40
0.3571428571428571
 40
0.3571428571428571
 40
0.3571428571428571
 40
0.3571428571428571
 40
0.4285714285714285
 40
0.4285714285714285
 40
0.4285714285714285
 40
0.4285714285714285
 40
0.4999999999999999
 40
0.4999999999999999
 40
0.4999999999999999
 40
0.4999999999999999
 40
0.5714285714285713
 40
0.5714285714285713
 40
0.5714285714285713
 40
0.5714285714285713
 40
0.6428571428571427
 40
0.6428571428571427
 40
0.6428571428571427
 40
0.6428571428571427
 40
0.7142857142857141
 40
0.7142857142857141
 40
0.7142857142857141
 40
0.7142857142857141
 40
0.7857142857142855
 40
0.7857142857142855
 40
0.7857142857142855
 40
0.7857142857142855
 40
0.8571428571428569
 40
0.8571428571428569
 40
0.8571428571428569
 40
0.8571428571428569
 40
0.9285714285714283
 40
0.9285714285714283
 40
0.9285714285714283
 40
0.9285714285714283
 40
1.0
 40
1.0
 40
1.0
 40
1.0
 10
-0.0353149606299213
 20
0.2489724409448819
 30
0.0
 10
-0.0353149606299213
 20
0.2489724409448819
 30
0.0
 10
-0.0397047244094488
 20
0.2543622047244095
 30
0.0
 10
-0.0397047244094488
 20
0.2543622047244095
 30
0.0
 10
-0.0397047244094488
 20
0.2543622047244095
 30
0.0
 10
-0.0285905511811024
 20
0.2634173228346457
 30
0.0
 10
-0.023007874015748
 20
0.2709724409448819
 30
0.0
 10
-0.023007874015748
 20
0.2770551181102363
 30
0.0
 10
-0.023007874015748
 20
0.2770551181102363
 30
0.0
 10
-0.023007874015748
 20
0.277748031496063
 30
0.0
 10
-0.0230629921259843
 20
0.2786377952755906
 30
0.0
 10
-0.0231771653543307
 20
0.2796653543307087
 30
0.0
 10
-0.0231771653543307
 20
0.2796653543307087
 30
0.0
 10
-0.0240905511811024
 20
0.2792755905511811
 30
0.0
 10
-0.025007874015748
 20
0.2789724409448819
 30
0.0
 10
-0.0258700787401575
 20
0.2787755905511811
 30
0.0
 10
-0.0258700787401575
 20
0.2787755905511811
 30
0.0
 10
-0.0267322834645669
 20
0.2785551181102363
 30
0.0
 10
-0.0275629921259843
 20
0.2784448818897638
 30
0.0
 10
-0.0283976377952756
 20
0.2784448818897638
 30
0.0
 10
-0.0283976377952756
 20
0.2784448818897638
 30
0.0
 10
-0.0309527559055118
 20
0.2784448818897638
 30
0.0
 10
-0.033007874015748
 20
0.2792755905511811
 30
0.0
 10
-0.0345629921259843
 20
0.2809724409448819
 30
0.0
 10
-0.0345629921259843
 20
0.2809724409448819
 30
0.0
 10
-0.0361456692913386
 20
0.2826377952755906
 30
0.0
 10
-0.0369251968503937
 20
0.2847755905511811
 30
0.0
 10
-0.0369251968503937
 20
0.2873897637795276
 30
0.0
 10
-0.0369251968503937
 20
0.2873897637795276
 30
0.0
 10
-0.0369251968503937
 20
0.2899448818897638
 30
0.0
 10
-0.0359803149606299
 20
0.2921653543307087
 30
0.0
 10
-0.0340905511811024
 20
0.2940551181102362
 30
0.0
 10
-0.0340905511811024
 20
0.2940551181102362
 30
0.0
 10
-0.0322047244094488
 20
0.2959724409448819
 30
0.0
 10
-0.0298976377952756
 20
0.2969173228346457
 30
0.0
 10
-0.027259842519685
 20
0.2969173228346457
 30
0.0
 10
-0.027259842519685
 20
0.2969173228346457
 30
0.0
 10
-0.0235629921259843
 20
0.2969173228346457
 30
0.0
 10
-0.0203976377952756
 20
0.2954448818897638
 30
0.0
 10
-0.017759842519685
 20
0.2924724409448819
 30
0.0
 10
-0.017759842519685
 20
0.2924724409448819
 30
0.0
 10
-0.0151496062992126
 20
0.2895275590551181
 30
0.0
 10
-0.0138149606299213
 20
0.2857204724409449
 30
0.0
 10
-0.0138149606299213
 20
0.2810551181102363
 30
0.0
 10
-0.0138149606299213
 20
0.2810551181102363
 30
0.0
 10
-0.0138149606299213
 20
0.278
 30
0.0
 10
-0.0144527559055118
 20
0.2748031496062992
 30
0.0
 10
-0.0157047244094488
 20
0.2714724409448819
 30
0.0
 10
-0.0157047244094488
 20
0.2714724409448819
 30
0.0
 10
-0.0169527559055118
 20
0.2681377952755906
 30
0.0
 10
-0.018759842519685
 20
0.2650551181102362
 30
0.0
 10
-0.0211456692913386
 20
0.2621929133858268
 30
0.0
 10
-0.0211456692913386
 20
0.2621929133858268
 30
0.0
 10
-0.0235354330708661
 20
0.2593622047244095
 30
0.0
 10
-0.028259842519685
 20
0.2549448818897638
 30
0.0
 10
-0.0353149606299213
 20
0.2489724409448819
 30
0.0
  0
SPLINE
  5
3E
330
1F
100
AcDbEntity
  8
LAYER_1
 62
   250
100
AcDbSpline
210
0.0
220
0.0
230
1.0
 70
    11
 71
     3
 72
   204
 73
   200
 74
     0
 42
0.0000000001
 43
0.0000000001
 40
0.0
 40
0.0
 40
0.0
 40
0.0
 40
0.02
 40
0.02
 40
0.02
 40
0.02
 40
0.04
 40
0.04
 40
0.04
 40
0.04
 40
0.06
 40
0.06
 40
0.06
 40
0.06
 40
0.08
 40
0.08
 40
0.08
 40
0.08
 40
0.1
 40
0.1
 40
0.1
 40
0.1
 40
0.12
 40
0.12
 40
0.12
 40
0.12
 40
0.14
 40
0.14
 40
0.14
 40
0.14
 40
0.16
 40
0.16
 40
0.16
 40
0.16
 40
0.18
 40
0.18
 40
0.18
 40
0.18
 40
0.2
 40
0.2
 40
0.2
 40
0.2
 40
0.22
 40
0.22
 40
0.22
 40
0.22
 40
0.24
 40
0.24
 40
0.24
 40
0.24
 40
0.26
 40
0.26
 40
0.26
 40
0.26
 40
0.28
 40
0.28
 40
0.28
 40
0.28
 40
0.3
 40
0.3
 40
0.3
 40
0.3
 40
0.32
 40
0.32
 40
0.32
 40
0.32
 40
0.34
 40
0.34
 40
0.34
 40
0.34
 40
0.36
 40
0.36
 40
0.36
 40
0.36
 40
0.3800000000000001
 40
0.3800000000000001
 40
0.3800000000000001
 40
0.3800000000000001
 40
0.4000000000000001
 40
0.4000000000000001
 40
0.4000000000000001
 40
0.4000000000000001
 40
0.4200000000000001
 40
0.4200000000000001
 40
0.4200000000000001
 40
0.4200000000000001
 40
0.4400000000000001
 40
0.4400000000000001
 40
0.4400000000000001
 40
0.4400000000000001
 40
0.4600000000000001
 40
0.4600000000000001
 40
0.4600000000000001
 40
0.4600000000000001
 40
0.4800000000000002
 40
0.4800000000000002
 40
0.4800000000000002
 40
0.4800000000000002
 40
0.5000000000000001
 40
0.5000000000000001
 40
0.5000000000000001
 40
0.5000000000000001
 40
0.5200000000000001
 40
0.5200000000000001
 40
0.5200000000000001
 40
0.5200000000000001
 40
0.5400000000000002
 40
0.5400000000000002
 40
0.5400000000000002
 40
0.5400000000000002
 40
0.5600000000000002
 40
0.5600000000000002
 40
0.5600000000000002
 40
0.5600000000000002
 40
0.5800000000000002
 40
0.5800000000000002
 40
0.5800000000000002
 40
0.5800000000000002
 40
0.6000000000000002
 40
0.6000000000000002
 40
0.6000000000000002
 40
0.6000000000000002
 40
0.6200000000000002
 40
0.6200000000000002
 40
0.6200000000000002
 40
0.6200000000000002
 40
0.6400000000000002
 40
0.6400000000000002
 40
0.6400000000000002
 40
0.6400000000000002
 40
0.6600000000000003
 40
0.6600000000000003
 40
0.6600000000000003
 40
0.6600000000000003
 40
0.6800000000000003
 40
0.6800000000000003
 40
0.6800000000000003
 40
0.6800000000000003
 40
0.7000000000000003
 40
0.7000000000000003
 40
0.7000000000000003
 40
0.7000000000000003
 40
0.7200000000000003
 40
0.7200000000000003
 40
0.7200000000000003
 40
0.7200000000000003
 40
0.7400000000000003
 40
0.7400000000000003
 40
0.7400000000000003
 40
0.7400000000000003
 40
0.7600000000000003
 40
0.7600000000000003
 40
0.7600000000000003
 40
0.7600000000000003
 40
0.7800000000000004
 40
0.7800000000000004
 40
0.7800000000000004
 40
0.7800000000000004
 40
0.8000000000000004
 40
0.8000000000000004
 40
0.8000000000000004
 40
0.8000000000000004
 40
0.8200000000000004
 40
0.8200000000000004
 40
0.8200000000000004
 40
0.8200000000000004
 40
0.8400000000000004
 40
0.8400000000000004
 40
0.8400000000000004
 40
0.8400000000000004
 40
0.8600000000000004
 40
0.8600000000000004
 40
0.8600000000000004
 40
0.8600000000000004
 40
0.8800000000000005
 40
0.8800000000000005
 40
0.8800000000000005
 40
0.8800000000000005
 40
0.9000000000000005
 40
0.9000000000000005
 40
0.9000000000000005
 40
0.9000000000000005
 40
0.9200000000000005
 40
0.9200000000000005
 40
0.9200000000000005
 40
0.9200000000000005
 40
0.9400000000000005
 40
0.9400000000000005
 40
0.9400000000000005
 40
0.9400000000000005
 40
0.9600000000000005
 40
0.9600000000000005
 40
0.9600000000000005
 40
0.9600000000000005
 40
0.9800000000000005
 40
0.9800000000000005
 40
0.9800000000000005
 40
0.9800000000000005
 40
1.0
 40
1.0
 40
1.0
 40
1.0
 10
0.048492125984252
 20
0.2560551181102362
 30
0.0
 10
0.048492125984252
 20
0.2560551181102362
 30
0.0
 10
0.0894370078740157
 20
0.2560551181102362
 30
0.0
 10
0.0894370078740157
 20
0.2560551181102362
 30
0.0
 10
0.0894370078740157
 20
0.2560551181102362
 30
0.0
 10
0.0894370078740157
 20
0.2560551181102362
 30
0.0
 10
0.0894370078740157
 20
0.2492204724409449
 30
0.0
 10
0.0894370078740157
 20
0.2492204724409449
 30
0.0
 10
0.0894370078740157
 20
0.2492204724409449
 30
0.0
 10
0.0894370078740157
 20
0.2492204724409449
 30
0.0
 10
0.0866023622047244
 20
0.2492204724409449
 30
0.0
 10
0.0866023622047244
 20
0.2492204724409449
 30
0.0
 10
0.0866023622047244
 20
0.2492204724409449
 30
0.0
 10
0.0849645669291339
 20
0.2492204724409449
 30
0.0
 10
0.0834645669291339
 20
0.2490275590551181
 30
0.0
 10
0.0821023622047244
 20
0.2486653543307087
 30
0.0
 10
0.0821023622047244
 20
0.2486653543307087
 30
0.0
 10
0.0812992125984252
 20
0.2484448818897638
 30
0.0
 10
0.0806299212598425
 20
0.2480275590551181
 30
0.0
 10
0.0801299212598425
 20
0.2473897637795276
 30
0.0
 10
0.0801299212598425
 20
0.2473897637795276
 30
0.0
 10
0.0796023622047244
 20
0.2467755905511811
 30
0.0
 10
0.0793543307086614
 20
0.2461929133858268
 30
0.0
 10
0.0793543307086614
 20
0.2456377952755906
 30
0.0
 10
0.0793543307086614
 20
0.2456377952755906
 30
0.0
 10
0.0793543307086614
 20
0.2443897637795276
 30
0.0
 10
0.0803818897637795
 20
0.2425275590551181
 30
0.0
 10
0.0824370078740158
 20
0.2400275590551181
 30
0.0
 10
0.0824370078740158
 20
0.2400275590551181
 30
0.0
 10
0.0824370078740158
 20
0.2400275590551181
 30
0.0
 10
0.0940748031496063
 20
0.2253897637795276
 30
0.0
 10
0.0940748031496063
 20
0.2253897637795276
 30
0.0
 10
0.0940748031496063
 20
0.2253897637795276
 30
0.0
 10
0.0940748031496063
 20
0.2253897637795276
 30
0.0
 10
0.1076574803149606
 20
0.2400275590551181
 30
0.0
 10
0.1076574803149606
 20
0.2400275590551181
 30
0.0
 10
0.1076574803149606
 20
0.2400275590551181
 30
0.0
 10
0.1101574803149606
 20
0.242748031496063
 30
0.0
 10
0.1114094488188976
 20
0.2447755905511811
 30
0.0
 10
0.1114094488188976
 20
0.2461377952755906
 30
0.0
 10
0.1114094488188976
 20
0.2461377952755906
 30
0.0
 10
0.1114094488188976
 20
0.2471102362204725
 30
0.0
 10
0.1109645669291339
 20
0.2478622047244095
 30
0.0
 10
0.1101023622047244
 20
0.2484173228346457
 30
0.0
 10
0.1101023622047244
 20
0.2484173228346457
 30
0.0
 10
0.109240157480315
 20
0.2489448818897638
 30
0.0
 10
0.1073818897637795
 20
0.2492204724409449
 30
0.0
 10
0.104492125984252
 20
0.2492204724409449
 30
0.0
 10
0.104492125984252
 20
0.2492204724409449
 30
0.0
 10
0.104492125984252
 20
0.2492204724409449
 30
0.0
 10
0.1014094488188976
 20
0.2492204724409449
 30
0.0
 10
0.1014094488188976
 20
0.2492204724409449
 30
0.0
 10
0.1014094488188976
 20
0.2492204724409449
 30
0.0
 10
0.1014094488188976
 20
0.2492204724409449
 30
0.0
 10
0.1014094488188976
 20
0.2560551181102362
 30
0.0
 10
0.1014094488188976
 20
0.2560551181102362
 30
0.0
 10
0.1014094488188976
 20
0.2560551181102362
 30
0.0
 10
0.1014094488188976
 20
0.2560551181102362
 30
0.0
 10
0.1361574803149606
 20
0.2560551181102362
 30
0.0
 10
0.1361574803149606
 20
0.2560551181102362
 30
0.0
 10
0.1361574803149606
 20
0.2560551181102362
 30
0.0
 10
0.1361574803149606
 20
0.2560551181102362
 30
0.0
 10
0.1361574803149606
 20
0.2492204724409449
 30
0.0
 10
0.1361574803149606
 20
0.2492204724409449
 30
0.0
 10
0.1361574803149606
 20
0.2492204724409449
 30
0.0
 10
0.132740157480315
 20
0.2490551181102362
 30
0.0
 10
0.1297952755905512
 20
0.2483622047244095
 30
0.0
 10
0.1273267716535433
 20
0.2471102362204725
 30
0.0
 10
0.1273267716535433
 20
0.2471102362204725
 30
0.0
 10
0.1248543307086614
 20
0.2458622047244095
 30
0.0
 10
0.1219370078740158
 20
0.2435
 30
0.0
 10
0.1185748031496063
 20
0.2400275590551181
 30
0.0
 10
0.1185748031496063
 20
0.2400275590551181
 30
0.0
 10
0.1185748031496063
 20
0.2400275590551181
 30
0.0
 10
0.0999370078740158
 20
0.2206653543307087
 30
0.0
 10
0.0999370078740158
 20
0.2206653543307087
 30
0.0
 10
0.0999370078740158
 20
0.2206653543307087
 30
0.0
 10
0.0999370078740158
 20
0.2206653543307087
 30
0.0
 10
0.1231299212598425
 20
0.1942204724409449
 30
0.0
 10
0.1231299212598425
 20
0.1942204724409449
 30
0.0
 10
0.1231299212598425
 20
0.1942204724409449
 30
0.0
 10
0.1231299212598425
 20
0.1942204724409449
 30
0.0
 10
0.1240196850393701
 20
0.1930826771653544
 30
0.0
 10
0.1240196850393701
 20
0.1930826771653544
 30
0.0
 10
0.1240196850393701
 20
0.1930826771653544
 30
0.0
 10
0.1262952755905512
 20
0.1901377952755906
 30
0.0
 10
0.1288543307086614
 20
0.1877755905511811
 30
0.0
 10
0.1316850393700788
 20
0.186
 30
0.0
 10
0.1316850393700788
 20
0.186
 30
0.0
 10
0.133240157480315
 20
0.1849724409448819
 30
0.0
 10
0.1356850393700788
 20
0.1844173228346457
 30
0.0
 10
0.138992125984252
 20
0.1843622047244095
 30
0.0
 10
0.138992125984252
 20
0.1843622047244095
 30
0.0
 10
0.138992125984252
 20
0.1843622047244095
 30
0.0
 10
0.138992125984252
 20
0.1775275590551181
 30
0.0
 10
0.138992125984252
 20
0.1775275590551181
 30
0.0
 10
0.138992125984252
 20
0.1775275590551181
 30
0.0
 10
0.138992125984252
 20
0.1775275590551181
 30
0.0
 10
0.0990472440944882
 20
0.1775275590551181
 30
0.0
 10
0.0990472440944882
 20
0.1775275590551181
 30
0.0
 10
0.0990472440944882
 20
0.1775275590551181
 30
0.0
 10
0.0990472440944882
 20
0.1775275590551181
 30
0.0
 10
0.0990472440944882
 20
0.1843622047244095
 30
0.0
 10
0.0990472440944882
 20
0.1843622047244095
 30
0.0
 10
0.0990472440944882
 20
0.1843622047244095
 30
0.0
 10
0.0990472440944882
 20
0.1843622047244095
 30
0.0
 10
0.1024645669291339
 20
0.1843622047244095
 30
0.0
 10
0.1024645669291339
 20
0.1843622047244095
 30
0.0
 10
0.1024645669291339
 20
0.1843622047244095
 30
0.0
 10
0.1050748031496063
 20
0.1843622047244095
 30
0.0
 10
0.1067125984251969
 20
0.1845275590551181
 30
0.0
 10
0.1074370078740158
 20
0.1848622047244095
 30
0.0
 10
0.1074370078740158
 20
0.1848622047244095
 30
0.0
 10
0.1086023622047244
 20
0.1853897637795276
 30
0.0
 10
0.1092125984251969
 20
0.1863070866141732
 30
0.0
 10
0.1092125984251969
 20
0.1876102362204725
 30
0.0
 10
0.1092125984251969
 20
0.1876102362204725
 30
0.0
 10
0.1092125984251969
 20
0.1888070866141732
 30
0.0
 10
0.1079094488188976
 20
0.191
 30
0.0
 10
0.1052952755905512
 20
0.1942204724409449
 30
0.0
 10
0.1052952755905512
 20
0.1942204724409449
 30
0.0
 10
0.1052952755905512
 20
0.1942204724409449
 30
0.0
 10
0.090492125984252
 20
0.2123622047244095
 30
0.0
 10
0.090492125984252
 20
0.2123622047244095
 30
0.0
 10
0.090492125984252
 20
0.2123622047244095
 30
0.0
 10
0.090492125984252
 20
0.2123622047244095
 30
0.0
 10
0.0739645669291339
 20
0.1942204724409449
 30
0.0
 10
0.0739645669291339
 20
0.1942204724409449
 30
0.0
 10
0.0739645669291339
 20
0.1942204724409449
 30
0.0
 10
0.0739645669291339
 20
0.1942204724409449
 30
0.0
 10
0.0723543307086614
 20
0.192248031496063
 30
0.0
 10
0.0723543307086614
 20
0.192248031496063
 30
0.0
 10
0.0723543307086614
 20
0.192248031496063
 30
0.0
 10
0.0723543307086614
 20
0.192248031496063
 30
0.0
 10
0.0714645669291339
 20
0.1912755905511811
 30
0.0
 10
0.0714645669291339
 20
0.1912755905511811
 30
0.0
 10
0.0714645669291339
 20
0.1912755905511811
 30
0.0
 10
0.0701023622047244
 20
0.1898070866141732
 30
0.0
 10
0.0694094488188976
 20
0.1885275590551181
 30
0.0
 10
0.0694094488188976
 20
0.1873897637795276
 30
0.0
 10
0.0694094488188976
 20
0.1873897637795276
 30
0.0
 10
0.0694094488188976
 20
0.1863346456692913
 30
0.0
 10
0.0698267716535433
 20
0.1855826771653543
 30
0.0
 10
0.0706850393700787
 20
0.1850826771653543
 30
0.0
 10
0.0706850393700787
 20
0.1850826771653543
 30
0.0
 10
0.0715196850393701
 20
0.1846102362204725
 30
0.0
 10
0.0734094488188976
 20
0.1843622047244095
 30
0.0
 10
0.0763267716535433
 20
0.1843622047244095
 30
0.0
 10
0.0763267716535433
 20
0.1843622047244095
 30
0.0
 10
0.0763267716535433
 20
0.1843622047244095
 30
0.0
 10
0.0796023622047244
 20
0.1843622047244095
 30
0.0
 10
0.0796023622047244
 20
0.1843622047244095
 30
0.0
 10
0.0796023622047244
 20
0.1843622047244095
 30
0.0
 10
0.0796023622047244
 20
0.1843622047244095
 30
0.0
 10
0.0796023622047244
 20
0.1775275590551181
 30
0.0
 10
0.0796023622047244
 20
0.1775275590551181
 30
0.0
 10
0.0796023622047244
 20
0.1775275590551181
 30
0.0
 10
0.0796023622047244
 20
0.1775275590551181
 30
0.0
 10
0.0453267716535433
 20
0.1775275590551181
 30
0.0
 10
0.0453267716535433
 20
0.1775275590551181
 30
0.0
 10
0.0453267716535433
 20
0.1775275590551181
 30
0.0
 10
0.0453267716535433
 20
0.1775275590551181
 30
0.0
 10
0.0453267716535433
 20
0.1843622047244095
 30
0.0
 10
0.0453267716535433
 20
0.1843622047244095
 30
0.0
 10
0.0453267716535433
 20
0.1843622047244095
 30
0.0
 10
0.047992125984252
 20
0.1844173228346457
 30
0.0
 10
0.0500748031496063
 20
0.1846929133858268
 30
0.0
 10
0.0516023622047244
 20
0.1852204724409449
 30
0.0
 10
0.0516023622047244
 20
0.1852204724409449
 30
0.0
 10
0.0531023622047244
 20
0.1857204724409449
 30
0.0
 10
0.0545748031496063
 20
0.1865275590551181
 30
0.0
 10
0.055992125984252
 20
0.1876102362204725
 30
0.0
 10
0.055992125984252
 20
0.1876102362204725
 30
0.0
 10
0.0584370078740157
 20
0.1895826771653544
 30
0.0
 10
0.0601850393700787
 20
0.1911102362204724
 30
0.0
 10
0.0612716535433071
 20
0.192248031496063
 30
0.0
 10
0.0612716535433071
 20
0.192248031496063
 30
0.0
 10
0.0612716535433071
 20
0.192248031496063
 30
0.0
 10
0.0851299212598425
 20
0.216748031496063
 30
0.0
 10
0.0851299212598425
 20
0.216748031496063
 30
0.0
 10
0.0851299212598425
 20
0.216748031496063
 30
0.0
 10
0.0851299212598425
 20
0.216748031496063
 30
0.0
 10
0.0648543307086614
 20
0.2400275590551181
 30
0.0
 10
0.0648543307086614
 20
0.2400275590551181
 30
0.0
 10
0.0648543307086614
 20
0.2400275590551181
 30
0.0
 10
0.0622992125984252
 20
0.2429173228346457
 30
0.0
 10
0.0602992125984252
 20
0.2449173228346457
 30
0.0
 10
0.0587992125984252
 20
0.2460826771653543
 30
0.0
 10
0.0587992125984252
 20
0.2460826771653543
 30
0.0
 10
0.0572992125984252
 20
0.247248031496063
 30
0.0
 10
0.0558543307086614
 20
0.2480826771653543
 30
0.0
 10
0.0544370078740158
 20
0.2485275590551181
 30
0.0
 10
0.0544370078740158
 20
0.2485275590551181
 30
0.0
 10
0.0530196850393701
 20
0.249
 30
0.0
 10
0.0510472440944882
 20
0.2492204724409449
 30
0.0
 10
0.048492125984252
 20
0.2492204724409449
 30
0.0
 10
0.048492125984252
 20
0.2492204724409449
 30
0.0
 10
0.048492125984252
 20
0.2492204724409449
 30
0.0
 10
0.048492125984252
 20
0.2560551181102362
 30
0.0
 10
0.048492125984252
 20
0.2560551181102362
 30
0.0
  0
SPLINE
  5
3F
330
1F
100
AcDbEntity
  8
LAYER_1
 62
   250
100
AcDbSpline
210
0.0
220
0.0
230
1.0
 70
    11
 71
     3
 72
    80
 73
    76
 74
     0
 42
0.0000000001
 43
0.0000000001
 40
0.0
 40
0.0
 40
0.0
 40
0.0
 40
0.0526315789473684
 40
0.0526315789473684
 40
0.0526315789473684
 40
0.0526315789473684
 40
0.1052631578947368
 40
0.1052631578947368
 40
0.1052631578947368
 40
0.1052631578947368
 40
0.1578947368421053
 40
0.1578947368421053
 40
0.1578947368421053
 40
0.1578947368421053
 40
0.2105263157894737
 40
0.2105263157894737
 40
0.2105263157894737
 40
0.2105263157894737
 40
0.2631578947368421
 40
0.2631578947368421
 40
0.2631578947368421
 40
0.2631578947368421
 40
0.3157894736842105
 40
0.3157894736842105
 40
0.3157894736842105
 40
0.3157894736842105
 40
0.3684210526315789
 40
0.3684210526315789
 40
0.3684210526315789
 40
0.3684210526315789
 40
0.4210526315789474
 40
0.4210526315789474
 40
0.4210526315789474
 40
0.4210526315789474
 40
0.4736842105263158
 40
0.4736842105263158
 40
0.4736842105263158
 40
0.4736842105263158
 40
0.5263157894736842
 40
0.5263157894736842
 40
0.5263157894736842
 40
0.5263157894736842
 40
0.5789473684210527
 40
0.5789473684210527
 40
0.5789473684210527
 40
0.5789473684210527
 40
0.631578947368421
 40
0.631578947368421
 40
0.631578947368421
 40
0.631578947368421
 40
0.6842105263157894
 40
0.6842105263157894
 40
0.6842105263157894
 40
0.6842105263157894
 40
0.7368421052631577
 40
0.7368421052631577
 40
0.7368421052631577
 40
0.7368421052631577
 40
0.7894736842105261
 40
0.7894736842105261
 40
0.7894736842105261
 40
0.7894736842105261
 40
0.8421052631578945
 40
0.8421052631578945
 40
0.8421052631578945
 40
0.8421052631578945
 40
0.8947368421052628
 40
0.8947368421052628
 40
0.8947368421052628
 40
0.8947368421052628
 40
0.9473684210526312
 40
0.9473684210526312
 40
0.9473684210526312
 40
0.9473684210526312
 40
1.0
 40
1.0
 40
1.0
 40
1.0
 10
0.2101850393700787
 20
0.2951929133858268
 30
0.0
 10
0.2101850393700787
 20
0.2951929133858268
 30
0.0
 10
0.2155748031496063
 20
0.2951929133858268
 30
0.0
 10
0.2155748031496063
 20
0.2951929133858268
 30
0.0
 10
0.2155748031496063
 20
0.2951929133858268
 30
0.0
 10
0.2155748031496063
 20
0.2951929133858268
 30
0.0
 10
0.2165472440944882
 20
0.2910551181102362
 30
0.0
 10
0.2165472440944882
 20
0.2910551181102362
 30
0.0
 10
0.2165472440944882
 20
0.2910551181102362
 30
0.0
 10
0.2165472440944882
 20
0.2910551181102362
 30
0.0
 10
0.2876574803149606
 20
0.2910551181102362
 30
0.0
 10
0.2876574803149606
 20
0.2910551181102362
 30
0.0
 10
0.2876574803149606
 20
0.2910551181102362
 30
0.0
 10
0.2876574803149606
 20
0.2910551181102362
 30
0.0
 10
0.2876574803149606
 20
0.2841377952755906
 30
0.0
 10
0.2876574803149606
 20
0.2841377952755906
 30
0.0
 10
0.2876574803149606
 20
0.2841377952755906
 30
0.0
 10
0.2791574803149606
 20
0.2743031496062992
 30
0.0
 10
0.2714330708661418
 20
0.2631377952755906
 30
0.0
 10
0.2645196850393701
 20
0.2505551181102362
 30
0.0
 10
0.2645196850393701
 20
0.2505551181102362
 30
0.0
 10
0.2576023622047244
 20
0.238
 30
0.0
 10
0.252240157480315
 20
0.2252204724409449
 30
0.0
 10
0.2484330708661418
 20
0.2121929133858268
 30
0.0
 10
0.2484330708661418
 20
0.2121929133858268
 30
0.0
 10
0.2456850393700787
 20
0.2028070866141732
 30
0.0
 10
0.2434370078740158
 20
0.191248031496063
 30
0.0
 10
0.2416850393700787
 20
0.1775275590551181
 30
0.0
 10
0.2416850393700787
 20
0.1775275590551181
 30
0.0
 10
0.2416850393700787
 20
0.1775275590551181
 30
0.0
 10
0.2250196850393701
 20
0.1775275590551181
 30
0.0
 10
0.2250196850393701
 20
0.1775275590551181
 30
0.0
 10
0.2250196850393701
 20
0.1775275590551181
 30
0.0
 10
0.2266299212598425
 20
0.1896377952755906
 30
0.0
 10
0.2292952755905512
 20
0.2009448818897638
 30
0.0
 10
0.2330196850393701
 20
0.2114724409448819
 30
0.0
 10
0.2330196850393701
 20
0.2114724409448819
 30
0.0
 10
0.236740157480315
 20
0.222
 30
0.0
 10
0.2421023622047244
 20
0.233
 30
0.0
 10
0.2491299212598425
 20
0.2444724409448819
 30
0.0
 10
0.2491299212598425
 20
0.2444724409448819
 30
0.0
 10
0.2561574803149607
 20
0.2559448818897638
 30
0.0
 10
0.2646850393700788
 20
0.2673897637795276
 30
0.0
 10
0.274740157480315
 20
0.2788307086614174
 30
0.0
 10
0.274740157480315
 20
0.2788307086614174
 30
0.0
 10
0.274740157480315
 20
0.2788307086614174
 30
0.0
 10
0.2240196850393701
 20
0.2788307086614174
 30
0.0
 10
0.2240196850393701
 20
0.2788307086614174
 30
0.0
 10
0.2240196850393701
 20
0.2788307086614174
 30
0.0
 10
0.2203503937007874
 20
0.2788307086614174
 30
0.0
 10
0.2178228346456693
 20
0.2786653543307087
 30
0.0
 10
0.2164645669291339
 20
0.2782755905511811
 30
0.0
 10
0.2164645669291339
 20
0.2782755905511811
 30
0.0
 10
0.2151023622047244
 20
0.2778897637795276
 30
0.0
 10
0.2140472440944882
 20
0.2773031496062992
 30
0.0
 10
0.2132952755905512
 20
0.2765
 30
0.0
 10
0.2132952755905512
 20
0.2765
 30
0.0
 10
0.2125196850393701
 20
0.2756653543307087
 30
0.0
 10
0.2118779527559055
 20
0.2742204724409449
 30
0.0
 10
0.2113228346456693
 20
0.2721653543307087
 30
0.0
 10
0.2113228346456693
 20
0.2721653543307087
 30
0.0
 10
0.2113228346456693
 20
0.2721653543307087
 30
0.0
 10
0.2109370078740158
 20
0.2706377952755906
 30
0.0
 10
0.2109370078740158
 20
0.2706377952755906
 30
0.0
 10
0.2109370078740158
 20
0.2706377952755906
 30
0.0
 10
0.2109370078740158
 20
0.2706377952755906
 30
0.0
 10
0.2081574803149607
 20
0.2610275590551181
 30
0.0
 10
0.2081574803149607
 20
0.2610275590551181
 30
0.0
 10
0.2081574803149607
 20
0.2610275590551181
 30
0.0
 10
0.2081574803149607
 20
0.2610275590551181
 30
0.0
 10
0.201240157480315
 20
0.2625
 30
0.0
 10
0.201240157480315
 20
0.2625
 30
0.0
 10
0.201240157480315
 20
0.2625
 30
0.0
 10
0.201240157480315
 20
0.2625
 30
0.0
 10
0.2101850393700787
 20
0.2951929133858268
 30
0.0
 10
0.2101850393700787
 20
0.2951929133858268
 30
0.0
  0
SPLINE
  5
40
330
1F
100
AcDbEntity
  8
LAYER_1
 62
   250
100
AcDbSpline
210
0.0
220
0.0
230
1.0
 70
    11
 71
     3
 72
    20
 73
    16
 74
     0
 42
0.0000000001
 43
0.0000000001
 40
0.0
 40
0.0
 40
0.0
 40
0.0
 40
0.25
 40
0.25
 40
0.25
 40
0.25
 40
0.5
 40
0.5
 40
0.5
 40
0.5
 40
0.75
 40
0.75
 40
0.75
 40
0.75
 40
1.0
 40
1.0
 40
1.0
 40
1.0
 10
0.3769645669291339
 20
0.2969173228346457
 30
0.0
 10
0.3769645669291339
 20
0.2969173228346457
 30
0.0
 10
0.3213818897637795
 20
0.1412204724409449
 30
0.0
 10
0.3213818897637795
 20
0.1412204724409449
 30
0.0
 10
0.3213818897637795
 20
0.1412204724409449
 30
0.0
 10
0.3213818897637795
 20
0.1412204724409449
 30
0.0
 10
0.3093267716535433
 20
0.1412204724409449
 30
0.0
 10
0.3093267716535433
 20
0.1412204724409449
 30
0.0
 10
0.3093267716535433
 20
0.1412204724409449
 30
0.0
 10
0.3093267716535433
 20
0.1412204724409449
 30
0.0
 10
0.3645748031496063
 20
0.2969173228346457
 30
0.0
 10
0.3645748031496063
 20
0.2969173228346457
 30
0.0
 10
0.3645748031496063
 20
0.2969173228346457
 30
0.0
 10
0.3645748031496063
 20
0.2969173228346457
 30
0.0
 10
0.3769645669291339
 20
0.2969173228346457
 30
0.0
 10
0.3769645669291339
 20
0.2969173228346457
 30
0.0
  0
SPLINE
  5
41
330
1F
100
AcDbEntity
  8
LAYER_1
 62
   250
100
AcDbSpline
210
0.0
220
0.0
230
1.0
 70
    11
 71
     3
 72
    72
 73
    68
 74
     0
 42
0.0000000001
 43
0.0000000001
 40
0.0
 40
0.0
 40
0.0
 40
0.0
 40
0.0588235294117647
 40
0.0588235294117647
 40
0.0588235294117647
 40
0.0588235294117647
 40
0.1176470588235294
 40
0.1176470588235294
 40
0.1176470588235294
 40
0.1176470588235294
 40
0.1764705882352941
 40
0.1764705882352941
 40
0.1764705882352941
 40
0.1764705882352941
 40
0.2352941176470588
 40
0.2352941176470588
 40
0.2352941176470588
 40
0.2352941176470588
 40
0.2941176470588235
 40
0.2941176470588235
 40
0.2941176470588235
 40
0.2941176470588235
 40
0.3529411764705883
 40
0.3529411764705883
 40
0.3529411764705883
 40
0.3529411764705883
 40
0.411764705882353
 40
0.411764705882353
 40
0.411764705882353
 40
0.411764705882353
 40
0.4705882352941177
 40
0.4705882352941177
 40
0.4705882352941177
 40
0.4705882352941177
 40
0.5294117647058824
 40
0.5294117647058824
 40
0.5294117647058824
 40
0.5294117647058824
 40
0.5882352941176471
 40
0.5882352941176471
 40
0.5882352941176471
 40
0.5882352941176471
 40
0.6470588235294118
 40
0.6470588235294118
 40
0.6470588235294118
 40
0.6470588235294118
 40
0.7058823529411765
 40
0.7058823529411765
 40
0.7058823529411765
 40
0.7058823529411765
 40
0.7647058823529412
 40
0.7647058823529412
 40
0.7647058823529412
 40
0.7647058823529412
 40
0.823529411764706
 40
0.823529411764706
 40
0.823529411764706
 40
0.823529411764706
 40
0.8823529411764707
 40
0.8823529411764707
 40
0.8823529411764707
 40
0.8823529411764707
 40
0.9411764705882354
 40
0.9411764705882354
 40
0.9411764705882354
 40
0.9411764705882354
 40
1.0
 40
1.0
 40
1.0
 40
1.0
 10
0.4515196850393701
 20
0.2910551181102362
 30
0.0
 10
0.4515196850393701
 20
0.2910551181102362
 30
0.0
 10
0.4576023622047244
 20
0.2910551181102362
 30
0.0
 10
0.4576023622047244
 20
0.2910551181102362
 30
0.0
 10
0.4576023622047244
 20
0.2910551181102362
 30
0.0
 10
0.4576023622047244
 20
0.2910551181102362
 30
0.0
 10
0.4576023622047244
 20
0.1968070866141732
 30
0.0
 10
0.4576023622047244
 20
0.1968070866141732
 30
0.0
 10
0.4576023622047244
 20
0.1968070866141732
 30
0.0
 10
0.4576023622047244
 20
0.1923622047244095
 30
0.0
 10
0.4579094488188977
 20
0.1895
 30
0.0
 10
0.4584645669291339
 20
0.1882204724409449
 30
0.0
 10
0.4584645669291339
 20
0.1882204724409449
 30
0.0
 10
0.4590472440944882
 20
0.1869448818897638
 30
0.0
 10
0.4599645669291339
 20
0.186
 30
0.0
 10
0.4612677165354331
 20
0.1853346456692913
 30
0.0
 10
0.4612677165354331
 20
0.1853346456692913
 30
0.0
 10
0.4625748031496063
 20
0.1846929133858268
 30
0.0
 10
0.4651574803149606
 20
0.1843622047244095
 30
0.0
 10
0.4690196850393701
 20
0.1843622047244095
 30
0.0
 10
0.4690196850393701
 20
0.1843622047244095
 30
0.0
 10
0.4690196850393701
 20
0.1843622047244095
 30
0.0
 10
0.476992125984252
 20
0.1843622047244095
 30
0.0
 10
0.476992125984252
 20
0.1843622047244095
 30
0.0
 10
0.476992125984252
 20
0.1843622047244095
 30
0.0
 10
0.476992125984252
 20
0.1843622047244095
 30
0.0
 10
0.476992125984252
 20
0.1775275590551181
 30
0.0
 10
0.476992125984252
 20
0.1775275590551181
 30
0.0
 10
0.476992125984252
 20
0.1775275590551181
 30
0.0
 10
0.476992125984252
 20
0.1775275590551181
 30
0.0
 10
0.4233543307086614
 20
0.1775275590551181
 30
0.0
 10
0.4233543307086614
 20
0.1775275590551181
 30
0.0
 10
0.4233543307086614
 20
0.1775275590551181
 30
0.0
 10
0.4233543307086614
 20
0.1775275590551181
 30
0.0
 10
0.4233543307086614
 20
0.1843622047244095
 30
0.0
 10
0.4233543307086614
 20
0.1843622047244095
 30
0.0
 10
0.4233543307086614
 20
0.1843622047244095
 30
0.0
 10
0.4233543307086614
 20
0.1843622047244095
 30
0.0
 10
0.4322125984251969
 20
0.1843622047244095
 30
0.0
 10
0.4322125984251969
 20
0.1843622047244095
 30
0.0
 10
0.4322125984251969
 20
0.1843622047244095
 30
0.0
 10
0.4360748031496063
 20
0.1843622047244095
 30
0.0
 10
0.4386299212598425
 20
0.1846929133858268
 30
0.0
 10
0.4399094488188977
 20
0.1853897637795276
 30
0.0
 10
0.4399094488188977
 20
0.1853897637795276
 30
0.0
 10
0.4411850393700788
 20
0.1860551181102362
 30
0.0
 10
0.4421850393700788
 20
0.1871377952755906
 30
0.0
 10
0.4428818897637796
 20
0.1886377952755906
 30
0.0
 10
0.4428818897637796
 20
0.1886377952755906
 30
0.0
 10
0.4435748031496063
 20
0.1901377952755906
 30
0.0
 10
0.4439370078740157
 20
0.1928622047244095
 30
0.0
 10
0.4439370078740157
 20
0.1968070866141732
 30
0.0
 10
0.4439370078740157
 20
0.1968070866141732
 30
0.0
 10
0.4439370078740157
 20
0.1968070866141732
 30
0.0
 10
0.4439370078740157
 20
0.2742755905511811
 30
0.0
 10
0.4439370078740157
 20
0.2742755905511811
 30
0.0
 10
0.4439370078740157
 20
0.2742755905511811
 30
0.0
 10
0.4439370078740157
 20
0.2742755905511811
 30
0.0
 10
0.4233543307086614
 20
0.2742755905511811
 30
0.0
 10
0.4233543307086614
 20
0.2742755905511811
 30
0.0
 10
0.4233543307086614
 20
0.2742755905511811
 30
0.0
 10
0.4233543307086614
 20
0.2742755905511811
 30
0.0
 10
0.4233543307086614
 20
0.2812755905511811
 30
0.0
 10
0.4233543307086614
 20
0.2812755905511811
 30
0.0
 10
0.4233543307086614
 20
0.2812755905511811
 30
0.0
 10
0.4345748031496063
 20
0.2828582677165354
 30
0.0
 10
0.4439645669291339
 20
0.2861102362204724
 30
0.0
 10
0.4515196850393701
 20
0.2910551181102362
 30
0.0
  0
SPLINE
  5
42
330
1F
100
AcDbEntity
  8
LAYER_1
 62
   250
100
AcDbSpline
210
0.0
220
0.0
230
1.0
 70
    11
 71
     3
 72
    84
 73
    80
 74
     0
 42
0.0000000001
 43
0.0000000001
 40
0.0
 40
0.0
 40
0.0
 40
0.0
 40
0.05
 40
0.05
 40
0.05
 40
0.05
 40
0.1
 40
0.1
 40
0.1
 40
0.1
 40
0.15
 40
0.15
 40
0.15
 40
0.15
 40
0.2
 40
0.2
 40
0.2
 40
0.2
 40
0.25
 40
0.25
 40
0.25
 40
0.25
 40
0.3
 40
0.3
 40
0.3
 40
0.3
 40
0.35
 40
0.35
 40
0.35
 40
0.35
 40
0.4
 40
0.4
 40
0.4
 40
0.4
 40
0.45
 40
0.45
 40
0.45
 40
0.45
 40
0.4999999999999999
 40
0.4999999999999999
 40
0.4999999999999999
 40
0.4999999999999999
 40
0.5499999999999999
 40
0.5499999999999999
 40
0.5499999999999999
 40
0.5499999999999999
 40
0.6
 40
0.6
 40
0.6
 40
0.6
 40
0.65
 40
0.65
 40
0.65
 40
0.65
 40
0.7000000000000001
 40
0.7000000000000001
 40
0.7000000000000001
 40
0.7000000000000001
 40
0.7500000000000001
 40
0.7500000000000001
 40
0.7500000000000001
 40
0.7500000000000001
 40
0.8000000000000002
 40
0.8000000000000002
 40
0.8000000000000002
 40
0.8000000000000002
 40
0.8500000000000002
 40
0.8500000000000002
 40
0.8500000000000002
 40
0.8500000000000002
 40
0.9000000000000002
 40
0.9000000000000002
 40
0.9000000000000002
 40
0.9000000000000002
 40
0.9500000000000003
 40
0.9500000000000003
 40
0.9500000000000003
 40
0.9500000000000003
 40
1.0
 40
1.0
 40
1.0
 40
1.0
 10
0.5831850393700788
 20
0.2931653543307087
 30
0.0
 10
0.5831850393700788
 20
0.2931653543307087
 30
0.0
 10
0.5831850393700788
 20
0.285748031496063
 30
0.0
 10
0.5831850393700788
 20
0.285748031496063
 30
0.0
 10
0.5831850393700788
 20
0.285748031496063
 30
0.0
 10
0.5697992125984253
 20
0.2856102362204724
 30
0.0
 10
0.5589645669291339
 20
0.2836377952755906
 30
0.0
 10
0.5506889763779528
 20
0.2799173228346457
 30
0.0
 10
0.5506889763779528
 20
0.2799173228346457
 30
0.0
 10
0.5424094488188976
 20
0.2761653543307087
 30
0.0
 10
0.5363267716535434
 20
0.2705551181102363
 30
0.0
 10
0.5324094488188976
 20
0.2631102362204725
 30
0.0
 10
0.5324094488188976
 20
0.2631102362204725
 30
0.0
 10
0.528492125984252
 20
0.2556377952755906
 30
0.0
 10
0.5262992125984253
 20
0.2464448818897638
 30
0.0
 10
0.5258267716535433
 20
0.2355551181102362
 30
0.0
 10
0.5258267716535433
 20
0.2355551181102362
 30
0.0
 10
0.5285748031496064
 20
0.2397755905511811
 30
0.0
 10
0.5314094488188976
 20
0.2430826771653543
 30
0.0
 10
0.5343267716535434
 20
0.2454448818897638
 30
0.0
 10
0.5343267716535434
 20
0.2454448818897638
 30
0.0
 10
0.5372165354330709
 20
0.2478031496062992
 30
0.0
 10
0.5406023622047245
 20
0.2496102362204725
 30
0.0
 10
0.544492125984252
 20
0.2508897637795275
 30
0.0
 10
0.544492125984252
 20
0.2508897637795275
 30
0.0
 10
0.5483818897637796
 20
0.2521653543307087
 30
0.0
 10
0.5526299212598426
 20
0.2528031496062992
 30
0.0
 10
0.557244094488189
 20
0.2528031496062992
 30
0.0
 10
0.557244094488189
 20
0.2528031496062992
 30
0.0
 10
0.5646023622047245
 20
0.2528031496062992
 30
0.0
 10
0.5711850393700788
 20
0.2511653543307087
 30
0.0
 10
0.5769370078740158
 20
0.2479173228346457
 30
0.0
 10
0.5769370078740158
 20
0.2479173228346457
 30
0.0
 10
0.5826850393700788
 20
0.2446653543307087
 30
0.0
 10
0.5871574803149606
 20
0.240248031496063
 30
0.0
 10
0.5903543307086614
 20
0.2346929133858268
 30
0.0
 10
0.5903543307086614
 20
0.2346929133858268
 30
0.0
 10
0.5935472440944882
 20
0.2291377952755906
 30
0.0
 10
0.5951574803149606
 20
0.2225826771653544
 30
0.0
 10
0.5951574803149606
 20
0.2150551181102362
 30
0.0
 10
0.5951574803149606
 20
0.2150551181102362
 30
0.0
 10
0.5951574803149606
 20
0.2030551181102362
 30
0.0
 10
0.5915472440944882
 20
0.1936377952755906
 30
0.0
 10
0.5843267716535433
 20
0.1868070866141732
 30
0.0
 10
0.5843267716535433
 20
0.1868070866141732
 30
0.0
 10
0.5763543307086615
 20
0.1793070866141732
 30
0.0
 10
0.5660196850393701
 20
0.1755826771653543
 30
0.0
 10
0.5533267716535434
 20
0.1755826771653543
 30
0.0
 10
0.5533267716535434
 20
0.1755826771653543
 30
0.0
 10
0.5441574803149607
 20
0.1755826771653543
 30
0.0
 10
0.5364370078740157
 20
0.1774724409448819
 30
0.0
 10
0.5301299212598425
 20
0.1812755905511811
 30
0.0
 10
0.5301299212598425
 20
0.1812755905511811
 30
0.0
 10
0.5238267716535433
 20
0.1850551181102362
 30
0.0
 10
0.5188267716535433
 20
0.1908622047244095
 30
0.0
 10
0.5151023622047244
 20
0.1986929133858268
 30
0.0
 10
0.5151023622047244
 20
0.1986929133858268
 30
0.0
 10
0.5114094488188976
 20
0.2065
 30
0.0
 10
0.5095472440944883
 20
0.2161653543307087
 30
0.0
 10
0.5095472440944883
 20
0.2276653543307087
 30
0.0
 10
0.5095472440944883
 20
0.2276653543307087
 30
0.0
 10
0.5095472440944883
 20
0.2392204724409449
 30
0.0
 10
0.5115196850393701
 20
0.2494724409448819
 30
0.0
 10
0.5154370078740158
 20
0.2584173228346457
 30
0.0
 10
0.5154370078740158
 20
0.2584173228346457
 30
0.0
 10
0.5193818897637795
 20
0.2673582677165354
 30
0.0
 10
0.5248267716535433
 20
0.2745551181102363
 30
0.0
 10
0.5317716535433071
 20
0.2799724409448819
 30
0.0
 10
0.5317716535433071
 20
0.2799724409448819
 30
0.0
 10
0.5387165354330709
 20
0.2854173228346457
 30
0.0
 10
0.5463267716535434
 20
0.2889724409448819
 30
0.0
 10
0.5545748031496063
 20
0.2906377952755906
 30
0.0
 10
0.5545748031496063
 20
0.2906377952755906
 30
0.0
 10
0.5628543307086614
 20
0.2923307086614174
 30
0.0
 10
0.5702716535433071
 20
0.2931653543307087
 30
0.0
 10
0.5768543307086614
 20
0.2931653543307087
 30
0.0
 10
0.5768543307086614
 20
0.2931653543307087
 30
0.0
 10
0.5768543307086614
 20
0.2931653543307087
 30
0.0
 10
0.5831850393700788
 20
0.2931653543307087
 30
0.0
 10
0.5831850393700788
 20
0.2931653543307087
 30
0.0
  0
SPLINE
  5
43
330
1F
100
AcDbEntity
  8
LAYER_1
 62
   250
100
AcDbSpline
210
0.0
220
0.0
230
1.0
 70
    11
 71
     3
 72
    40
 73
    36
 74
     0
 42
0.0000000001
 43
0.0000000001
 40
0.0
 40
0.0
 40
0.0
 40
0.0
 40
0.1111111111111111
 40
0.1111111111111111
 40
0.1111111111111111
 40
0.1111111111111111
 40
0.2222222222222222
 40
0.2222222222222222
 40
0.2222222222222222
 40
0.2222222222222222
 40
0.3333333333333333
 40
0.3333333333333333
 40
0.3333333333333333
 40
0.3333333333333333
 40
0.4444444444444444
 40
0.4444444444444444
 40
0.4444444444444444
 40
0.4444444444444444
 40
0.5555555555555556
 40
0.5555555555555556
 40
0.5555555555555556
 40
0.5555555555555556
 40
0.6666666666666667
 40
0.6666666666666667
 40
0.6666666666666667
 40
0.6666666666666667
 40
0.7777777777777779
 40
0.7777777777777779
 40
0.7777777777777779
 40
0.7777777777777779
 40
0.8888888888888891
 40
0.8888888888888891
 40
0.8888888888888891
 40
0.8888888888888891
 40
1.0
 40
1.0
 40
1.0
 40
1.0
 10
0.553492125984252
 20
0.2441653543307087
 30
0.0
 10
0.5456889763779528
 20
0.2441653543307087
 30
0.0
 10
0.5392716535433071
 20
0.2412204724409449
 30
0.0
 10
0.534244094488189
 20
0.2353031496062992
 30
0.0
 10
0.534244094488189
 20
0.2353031496062992
 30
0.0
 10
0.5292165354330709
 20
0.2293897637795276
 30
0.0
 10
0.5267165354330708
 20
0.2222755905511811
 30
0.0
 10
0.5267165354330708
 20
0.214
 30
0.0
 10
0.5267165354330708
 20
0.214
 30
0.0
 10
0.5267165354330708
 20
0.2081377952755906
 30
0.0
 10
0.5279370078740158
 20
0.2027204724409449
 30
0.0
 10
0.5303818897637795
 20
0.197748031496063
 30
0.0
 10
0.5303818897637795
 20
0.197748031496063
 30
0.0
 10
0.5328267716535433
 20
0.1927755905511811
 30
0.0
 10
0.5359645669291339
 20
0.1891102362204725
 30
0.0
 10
0.5398267716535433
 20
0.1866929133858268
 30
0.0
 10
0.5398267716535433
 20
0.1866929133858268
 30
0.0
 10
0.5436574803149606
 20
0.1842755905511811
 30
0.0
 10
0.5480196850393702
 20
0.1830551181102362
 30
0.0
 10
0.5528267716535433
 20
0.1830551181102362
 30
0.0
 10
0.5528267716535433
 20
0.1830551181102362
 30
0.0
 10
0.5603267716535433
 20
0.1830551181102362
 30
0.0
 10
0.5665472440944882
 20
0.1858897637795276
 30
0.0
 10
0.5715196850393701
 20
0.1915551181102362
 30
0.0
 10
0.5715196850393701
 20
0.1915551181102362
 30
0.0
 10
0.5764645669291338
 20
0.1972204724409449
 30
0.0
 10
0.5789645669291339
 20
0.2048346456692914
 30
0.0
 10
0.5789645669291339
 20
0.2143897637795276
 30
0.0
 10
0.5789645669291339
 20
0.2143897637795276
 30
0.0
 10
0.5789645669291339
 20
0.2235
 30
0.0
 10
0.5765472440944882
 20
0.230748031496063
 30
0.0
 10
0.5717165354330709
 20
0.2361102362204725
 30
0.0
 10
0.5717165354330709
 20
0.2361102362204725
 30
0.0
 10
0.5668818897637795
 20
0.2415
 30
0.0
 10
0.5607992125984253
 20
0.2441653543307087
 30
0.0
 10
0.553492125984252
 20
0.2441653543307087
 30
0.0
  0
SPLINE
  5
44
330
1F
100
AcDbEntity
  8
LAYER_1
 62
   250
100
AcDbSpline
210
0.0
220
0.0
230
1.0
 70
    11
 71
     3
 72
    60
 73
    56
 74
     0
 42
0.0000000001
 43
0.0000000001
 40
0.0
 40
0.0
 40
0.0
 40
0.0
 40
0.0714285714285714
 40
0.0714285714285714
 40
0.0714285714285714
 40
0.0714285714285714
 40
0.1428571428571429
 40
0.1428571428571429
 40
0.1428571428571429
 40
0.1428571428571429
 40
0.2142857142857143
 40
0.2142857142857143
 40
0.2142857142857143
 40
0.2142857142857143
 40
0.2857142857142857
 40
0.2857142857142857
 40
0.2857142857142857
 40
0.2857142857142857
 40
0.3571428571428571
 40
0.3571428571428571
 40
0.3571428571428571
 40
0.3571428571428571
 40
0.4285714285714285
 40
0.4285714285714285
 40
0.4285714285714285
 40
0.4285714285714285
 40
0.4999999999999999
 40
0.4999999999999999
 40
0.4999999999999999
 40
0.4999999999999999
 40
0.5714285714285713
 40
0.5714285714285713
 40
0.5714285714285713
 40
0.5714285714285713
 40
0.6428571428571427
 40
0.6428571428571427
 40
0.6428571428571427
 40
0.6428571428571427
 40
0.7142857142857141
 40
0.7142857142857141
 40
0.7142857142857141
 40
0.7142857142857141
 40
0.7857142857142855
 40
0.7857142857142855
 40
0.7857142857142855
 40
0.7857142857142855
 40
0.8571428571428569
 40
0.8571428571428569
 40
0.8571428571428569
 40
0.8571428571428569
 40
0.9285714285714283
 40
0.9285714285714283
 40
0.9285714285714283
 40
0.9285714285714283
 40
1.0
 40
1.0
 40
1.0
 40
1.0
 10
0.6123267716535433
 20
0.2489724409448819
 30
0.0
 10
0.6123267716535433
 20
0.2489724409448819
 30
0.0
 10
0.6079370078740157
 20
0.2543622047244095
 30
0.0
 10
0.6079370078740157
 20
0.2543622047244095
 30
0.0
 10
0.6079370078740157
 20
0.2543622047244095
 30
0.0
 10
0.6190511811023622
 20
0.2634173228346457
 30
0.0
 10
0.6246338582677166
 20
0.2709724409448819
 30
0.0
 10
0.6246338582677166
 20
0.2770551181102363
 30
0.0
 10
0.6246338582677166
 20
0.2770551181102363
 30
0.0
 10
0.6246338582677166
 20
0.277748031496063
 30
0.0
 10
0.6245787401574804
 20
0.2786377952755906
 30
0.0
 10
0.6244645669291339
 20
0.2796653543307087
 30
0.0
 10
0.6244645669291339
 20
0.2796653543307087
 30
0.0
 10
0.6235511811023622
 20
0.2792755905511811
 30
0.0
 10
0.6226338582677166
 20
0.2789724409448819
 30
0.0
 10
0.6217716535433071
 20
0.2787755905511811
 30
0.0
 10
0.6217716535433071
 20
0.2787755905511811
 30
0.0
 10
0.6209094488188977
 20
0.2785551181102363
 30
0.0
 10
0.6201062992125984
 20
0.2784448818897638
 30
0.0
 10
0.6193267716535433
 20
0.2784448818897638
 30
0.0
 10
0.6193267716535433
 20
0.2784448818897638
 30
0.0
 10
0.6167165354330709
 20
0.2784448818897638
 30
0.0
 10
0.6146338582677166
 20
0.2792755905511811
 30
0.0
 10
0.6130787401574803
 20
0.2809724409448819
 30
0.0
 10
0.6130787401574803
 20
0.2809724409448819
 30
0.0
 10
0.611492125984252
 20
0.2826377952755906
 30
0.0
 10
0.6107165354330709
 20
0.2847755905511811
 30
0.0
 10
0.6107165354330709
 20
0.2873897637795276
 30
0.0
 10
0.6107165354330709
 20
0.2873897637795276
 30
0.0
 10
0.6107165354330709
 20
0.2899448818897638
 30
0.0
 10
0.6116614173228346
 20
0.2921653543307087
 30
0.0
 10
0.6135511811023622
 20
0.2940551181102362
 30
0.0
 10
0.6135511811023622
 20
0.2940551181102362
 30
0.0
 10
0.6154645669291339
 20
0.2959724409448819
 30
0.0
 10
0.617744094488189
 20
0.2969173228346457
 30
0.0
 10
0.6203818897637795
 20
0.2969173228346457
 30
0.0
 10
0.6203818897637795
 20
0.2969173228346457
 30
0.0
 10
0.6240787401574803
 20
0.2969173228346457
 30
0.0
 10
0.627244094488189
 20
0.2954448818897638
 30
0.0
 10
0.6298818897637796
 20
0.2924724409448819
 30
0.0
 10
0.6298818897637796
 20
0.2924724409448819
 30
0.0
 10
0.632492125984252
 20
0.2895275590551181
 30
0.0
 10
0.6338267716535433
 20
0.2857204724409449
 30
0.0
 10
0.6338267716535433
 20
0.2810551181102363
 30
0.0
 10
0.6338267716535433
 20
0.2810551181102363
 30
0.0
 10
0.6338267716535433
 20
0.278
 30
0.0
 10
0.6331889763779528
 20
0.2748031496062992
 30
0.0
 10
0.6319370078740157
 20
0.2714724409448819
 30
0.0
 10
0.6319370078740157
 20
0.2714724409448819
 30
0.0
 10
0.6306889763779527
 20
0.2681377952755906
 30
0.0
 10
0.6288818897637796
 20
0.2650551181102362
 30
0.0
 10
0.626492125984252
 20
0.2621929133858268
 30
0.0
 10
0.626492125984252
 20
0.2621929133858268
 30
0.0
 10
0.6241062992125984
 20
0.2593622047244095
 30
0.0
 10
0.6193818897637795
 20
0.2549448818897638
 30
0.0
 10
0.6123267716535433
 20
0.2489724409448819
 30
0.0
  0
SPLINE
  5
45
330
1F
100
AcDbEntity
  8
LAYER_1
 62
   250
100
AcDbSpline
210
0.0
220
0.0
230
1.0
 70
    11
 71
     3
 72
    60
 73
    56
 74
     0
 42
0.0000000001
 43
0.0000000001
 40
0.0
 40
0.0
 40
0.0
 40
0.0
 40
0.0714285714285714
 40
0.0714285714285714
 40
0.0714285714285714
 40
0.0714285714285714
 40
0.1428571428571429
 40
0.1428571428571429
 40
0.1428571428571429
 40
0.1428571428571429
 40
0.2142857142857143
 40
0.2142857142857143
 40
0.2142857142857143
 40
0.2142857142857143
 40
0.2857142857142857
 40
0.2857142857142857
 40
0.2857142857142857
 40
0.2857142857142857
 40
0.3571428571428571
 40
0.3571428571428571
 40
0.3571428571428571
 40
0.3571428571428571
 40
0.4285714285714285
 40
0.4285714285714285
 40
0.4285714285714285
 40
0.4285714285714285
 40
0.4999999999999999
 40
0.4999999999999999
 40
0.4999999999999999
 40
0.4999999999999999
 40
0.5714285714285713
 40
0.5714285714285713
 40
0.5714285714285713
 40
0.5714285714285713
 40
0.6428571428571427
 40
0.6428571428571427
 40
0.6428571428571427
 40
0.6428571428571427
 40
0.7142857142857141
 40
0.7142857142857141
 40
0.7142857142857141
 40
0.7142857142857141
 40
0.7857142857142855
 40
0.7857142857142855
 40
0.7857142857142855
 40
0.7857142857142855
 40
0.8571428571428569
 40
0.8571428571428569
 40
0.8571428571428569
 40
0.8571428571428569
 40
0.9285714285714283
 40
0.9285714285714283
 40
0.9285714285714283
 40
0.9285714285714283
 40
1.0
 40
1.0
 40
1.0
 40
1.0
 10
0.6413818897637795
 20
0.2489724409448819
 30
0.0
 10
0.6413818897637795
 20
0.2489724409448819
 30
0.0
 10
0.636992125984252
 20
0.2543622047244095
 30
0.0
 10
0.636992125984252
 20
0.2543622047244095
 30
0.0
 10
0.636992125984252
 20
0.2543622047244095
 30
0.0
 10
0.6481062992125984
 20
0.2634173228346457
 30
0.0
 10
0.6536889763779528
 20
0.2709724409448819
 30
0.0
 10
0.6536889763779528
 20
0.2770551181102363
 30
0.0
 10
0.6536889763779528
 20
0.2770551181102363
 30
0.0
 10
0.6536889763779528
 20
0.277748031496063
 30
0.0
 10
0.6536338582677166
 20
0.2786377952755906
 30
0.0
 10
0.6535196850393701
 20
0.2796653543307087
 30
0.0
 10
0.6535196850393701
 20
0.2796653543307087
 30
0.0
 10
0.6526062992125985
 20
0.2792755905511811
 30
0.0
 10
0.6516889763779528
 20
0.2789724409448819
 30
0.0
 10
0.6508267716535433
 20
0.2787755905511811
 30
0.0
 10
0.6508267716535433
 20
0.2787755905511811
 30
0.0
 10
0.6499645669291339
 20
0.2785551181102363
 30
0.0
 10
0.6491338582677165
 20
0.2784448818897638
 30
0.0
 10
0.6482992125984253
 20
0.2784448818897638
 30
0.0
 10
0.6482992125984253
 20
0.2784448818897638
 30
0.0
 10
0.645744094488189
 20
0.2784448818897638
 30
0.0
 10
0.6436889763779528
 20
0.2792755905511811
 30
0.0
 10
0.6421338582677165
 20
0.2809724409448819
 30
0.0
 10
0.6421338582677165
 20
0.2809724409448819
 30
0.0
 10
0.6405511811023622
 20
0.2826377952755906
 30
0.0
 10
0.6397716535433071
 20
0.2847755905511811
 30
0.0
 10
0.6397716535433071
 20
0.2873897637795276
 30
0.0
 10
0.6397716535433071
 20
0.2873897637795276
 30
0.0
 10
0.6397716535433071
 20
0.2899448818897638
 30
0.0
 10
0.6407165354330709
 20
0.2921653543307087
 30
0.0
 10
0.6426062992125985
 20
0.2940551181102362
 30
0.0
 10
0.6426062992125985
 20
0.2940551181102362
 30
0.0
 10
0.644492125984252
 20
0.2959724409448819
 30
0.0
 10
0.6467992125984252
 20
0.2969173228346457
 30
0.0
 10
0.6494370078740158
 20
0.2969173228346457
 30
0.0
 10
0.6494370078740158
 20
0.2969173228346457
 30
0.0
 10
0.6531338582677165
 20
0.2969173228346457
 30
0.0
 10
0.6562992125984253
 20
0.2954448818897638
 30
0.0
 10
0.6589370078740158
 20
0.2924724409448819
 30
0.0
 10
0.6589370078740158
 20
0.2924724409448819
 30
0.0
 10
0.6615472440944882
 20
0.2895275590551181
 30
0.0
 10
0.6628818897637796
 20
0.2857204724409449
 30
0.0
 10
0.6628818897637796
 20
0.2810551181102363
 30
0.0
 10
0.6628818897637796
 20
0.2810551181102363
 30
0.0
 10
0.6628818897637796
 20
0.278
 30
0.0
 10
0.662244094488189
 20
0.2748031496062992
 30
0.0
 10
0.6609921259842519
 20
0.2714724409448819
 30
0.0
 10
0.6609921259842519
 20
0.2714724409448819
 30
0.0
 10
0.6597440944881891
 20
0.2681377952755906
 30
0.0
 10
0.6579370078740158
 20
0.2650551181102362
 30
0.0
 10
0.6555511811023622
 20
0.2621929133858268
 30
0.0
 10
0.6555511811023622
 20
0.2621929133858268
 30
0.0
 10
0.6531614173228347
 20
0.2593622047244095
 30
0.0
 10
0.6484370078740158
 20
0.2549448818897638
 30
0.0
 10
0.6413818897637795
 20
0.2489724409448819
 30
0.0
  0
SPLINE
  5
46
330
1F
100
AcDbEntity
  8
LAYER_1
 62
   252
100
AcDbSpline
210
0.0
220
0.0
230
1.0
 70
    11
 71
     3
 72
    20
 73
    16
 74
     0
 42
0.0000000001
 43
0.0000000001
 40
0.0
 40
0.0
 40
0.0
 40
0.0
 40
0.25
 40
0.25
 40
0.25
 40
0.25
 40
0.5
 40
0.5
 40
0.5
 40
0.5
 40
0.75
 40
0.75
 40
0.75
 40
0.75
 40
1.0
 40
1.0
 40
1.0
 40
1.0
 10
-0.0782244094488189
 20
2.69155905511811
 30
0.0
 10
-0.0782244094488189
 20
2.69155905511811
 30
0.0
 10
-0.0759842519685039
 20
3.444661417322835
 30
0.0
 10
-0.0759842519685039
 20
3.444661417322835
 30
0.0
 10
-0.0759842519685039
 20
3.444661417322835
 30
0.0
 10
-0.0759842519685039
 20
3.444661417322835
 30
0.0
 10
0.1115157480314961
 20
3.444661417322835
 30
0.0
 10
0.1115157480314961
 20
3.444661417322835
 30
0.0
 10
0.1115157480314961
 20
3.444661417322835
 30
0.0
 10
0.1115157480314961
 20
3.444661417322835
 30
0.0
 10
0.1092755905511811
 20
2.69155905511811
 30
0.0
 10
0.1092755905511811
 20
2.69155905511811
 30
0.0
 10
0.1092755905511811
 20
2.69155905511811
 30
0.0
 10
0.1092755905511811
 20
2.69155905511811
 30
0.0
 10
-0.0782244094488189
 20
2.69155905511811
 30
0.0
 10
-0.0782244094488189
 20
2.69155905511811
 30
0.0
  0
SPLINE
  5
47
330
1F
100
AcDbEntity
  8
LAYER_1
 62
   250
100
AcDbSpline
210
0.0
220
0.0
230
1.0
 70
    11
 71
     3
 72
    20
 73
    16
 74
     0
 42
0.0000000001
 43
0.0000000001
 40
0.0
 40
0.0
 40
0.0
 40
0.0
 40
0.25
 40
0.25
 40
0.25
 40
0.25
 40
0.5
 40
0.5
 40
0.5
 40
0.5
 40
0.75
 40
0.75
 40
0.75
 40
0.75
 40
1.0
 40
1.0
 40
1.0
 40
1.0
 10
-0.0782244094488189
 20
2.69155905511811
 30
0.0
 10
-0.0782244094488189
 20
2.69155905511811
 30
0.0
 10
-0.0759842519685039
 20
3.444661417322835
 30
0.0
 10
-0.0759842519685039
 20
3.444661417322835
 30
0.0
 10
-0.0759842519685039
 20
3.444661417322835
 30
0.0
 10
-0.0759842519685039
 20
3.444661417322835
 30
0.0
 10
0.1115157480314961
 20
3.444661417322835
 30
0.0
 10
0.1115157480314961
 20
3.444661417322835
 30
0.0
 10
0.1115157480314961
 20
3.444661417322835
 30
0.0
 10
0.1115157480314961
 20
3.444661417322835
 30
0.0
 10
0.1092755905511811
 20
2.69155905511811
 30
0.0
 10
0.1092755905511811
 20
2.69155905511811
 30
0.0
 10
0.1092755905511811
 20
2.69155905511811
 30
0.0
 10
0.1092755905511811
 20
2.69155905511811
 30
0.0
 10
-0.0782244094488189
 20
2.69155905511811
 30
0.0
 10
-0.0782244094488189
 20
2.69155905511811
 30
0.0
  0
SPLINE
  5
48
330
1F
100
AcDbEntity
  8
LAYER_1
 62
   252
100
AcDbSpline
210
0.0
220
0.0
230
1.0
 70
    11
 71
     3
 72
    20
 73
    16
 74
     0
 42
0.0000000001
 43
0.0000000001
 40
0.0
 40
0.0
 40
0.0
 40
0.0
 40
0.25
 40
0.25
 40
0.25
 40
0.25
 40
0.5
 40
0.5
 40
0.5
 40
0.5
 40
0.75
 40
0.75
 40
0.75
 40
0.75
 40
1.0
 40
1.0
 40
1.0
 40
1.0
 10
0.1092755905511811
 20
2.69155905511811
 30
0.0
 10
0.1092755905511811
 20
2.69155905511811
 30
0.0
 10
0.1115157480314961
 20
3.444661417322835
 30
0.0
 10
0.1115157480314961
 20
3.444661417322835
 30
0.0
 10
0.1115157480314961
 20
3.444661417322835
 30
0.0
 10
0.1115157480314961
 20
3.444661417322835
 30
0.0
 10
0.116244094488189
 20
3.414976377952756
 30
0.0
 10
0.116244094488189
 20
3.414976377952756
 30
0.0
 10
0.116244094488189
 20
3.414976377952756
 30
0.0
 10
0.116244094488189
 20
3.414976377952756
 30
0.0
 10
0.114003937007874
 20
2.661874015748031
 30
0.0
 10
0.114003937007874
 20
2.661874015748031
 30
0.0
 10
0.114003937007874
 20
2.661874015748031
 30
0.0
 10
0.114003937007874
 20
2.661874015748031
 30
0.0
 10
0.1092755905511811
 20
2.69155905511811
 30
0.0
 10
0.1092755905511811
 20
2.69155905511811
 30
0.0
  0
SPLINE
  5
49
330
1F
100
AcDbEntity
  8
LAYER_1
 62
   252
100
AcDbSpline
210
0.0
220
0.0
230
1.0
 70
    11
 71
     3
 72
    20
 73
    16
 74
     0
 42
0.0000000001
 43
0.0000000001
 40
0.0
 40
0.0
 40
0.0
 40
0.0
 40
0.25
 40
0.25
 40
0.25
 40
0.25
 40
0.5
 40
0.5
 40
0.5
 40
0.5
 40
0.75
 40
0.75
 40
0.75
 40
0.75
 40
1.0
 40
1.0
 40
1.0
 40
1.0
 10
0.114003937007874
 20
2.661874015748031
 30
0.0
 10
0.114003937007874
 20
2.661874015748031
 30
0.0
 10
0.116244094488189
 20
3.414976377952756
 30
0.0
 10
0.116244094488189
 20
3.414976377952756
 30
0.0
 10
0.116244094488189
 20
3.414976377952756
 30
0.0
 10
0.116244094488189
 20
3.414976377952756
 30
0.0
 10
0.122
 20
3.387814960629922
 30
0.0
 10
0.122
 20
3.387814960629922
 30
0.0
 10
0.122
 20
3.387814960629922
 30
0.0
 10
0.122
 20
3.387814960629922
 30
0.0
 10
0.1197598425196851
 20
2.634712598425197
 30
0.0
 10
0.1197598425196851
 20
2.634712598425197
 30
0.0
 10
0.1197598425196851
 20
2.634712598425197
 30
0.0
 10
0.1197598425196851
 20
2.634712598425197
 30
0.0
 10
0.114003937007874
 20
2.661874015748031
 30
0.0
 10
0.114003937007874
 20
2.661874015748031
 30
0.0
  0
SPLINE
  5
4A
330
1F
100
AcDbEntity
  8
LAYER_1
 62
   252
100
AcDbSpline
210
0.0
220
0.0
230
1.0
 70
    11
 71
     3
 72
    28
 73
    24
 74
     0
 42
0.0000000001
 43
0.0000000001
 40
0.0
 40
0.0
 40
0.0
 40
0.0
 40
0.1666666666666667
 40
0.1666666666666667
 40
0.1666666666666667
 40
0.1666666666666667
 40
0.3333333333333333
 40
0.3333333333333333
 40
0.3333333333333333
 40
0.3333333333333333
 40
0.5
 40
0.5
 40
0.5
 40
0.5
 40
0.6666666666666666
 40
0.6666666666666666
 40
0.6666666666666666
 40
0.6666666666666666
 40
0.8333333333333333
 40
0.8333333333333333
 40
0.8333333333333333
 40
0.8333333333333333
 40
1.0
 40
1.0
 40
1.0
 40
1.0
 10
0.1197598425196851
 20
2.634712598425197
 30
0.0
 10
0.1197598425196851
 20
2.634712598425197
 30
0.0
 10
0.122
 20
3.387814960629922
 30
0.0
 10
0.122
 20
3.387814960629922
 30
0.0
 10
0.122
 20
3.387814960629922
 30
0.0
 10
0.122
 20
3.387814960629922
 30
0.0
 10
0.1287165354330709
 20
3.363023622047244
 30
0.0
 10
0.1287165354330709
 20
3.363023622047244
 30
0.0
 10
0.1287165354330709
 20
3.363023622047244
 30
0.0
 10
0.1287165354330709
 20
3.363023622047244
 30
0.0
 10
0.1363425196850394
 20
3.340464566929134
 30
0.0
 10
0.1363425196850394
 20
3.340464566929134
 30
0.0
 10
0.1363425196850394
 20
3.340464566929134
 30
0.0
 10
0.1363425196850394
 20
3.340464566929134
 30
0.0
 10
0.1341023622047244
 20
2.58736220472441
 30
0.0
 10
0.1341023622047244
 20
2.58736220472441
 30
0.0
 10
0.1341023622047244
 20
2.58736220472441
 30
0.0
 10
0.1341023622047244
 20
2.58736220472441
 30
0.0
 10
0.1264763779527559
 20
2.60992125984252
 30
0.0
 10
0.1264763779527559
 20
2.60992125984252
 30
0.0
 10
0.1264763779527559
 20
2.60992125984252
 30
0.0
 10
0.1264763779527559
 20
2.60992125984252
 30
0.0
 10
0.1197598425196851
 20
2.634712598425197
 30
0.0
 10
0.1197598425196851
 20
2.634712598425197
 30
0.0
  0
SPLINE
  5
4B
330
1F
100
AcDbEntity
  8
LAYER_1
 62
   253
100
AcDbSpline
210
0.0
220
0.0
230
1.0
 70
    11
 71
     3
 72
    28
 73
    24
 74
     0
 42
0.0000000001
 43
0.0000000001
 40
0.0
 40
0.0
 40
0.0
 40
0.0
 40
0.1666666666666667
 40
0.1666666666666667
 40
0.1666666666666667
 40
0.1666666666666667
 40
0.3333333333333333
 40
0.3333333333333333
 40
0.3333333333333333
 40
0.3333333333333333
 40
0.5
 40
0.5
 40
0.5
 40
0.5
 40
0.6666666666666666
 40
0.6666666666666666
 40
0.6666666666666666
 40
0.6666666666666666
 40
0.8333333333333333
 40
0.8333333333333333
 40
0.8333333333333333
 40
0.8333333333333333
 40
1.0
 40
1.0
 40
1.0
 40
1.0
 10
0.1341023622047244
 20
2.58736220472441
 30
0.0
 10
0.1341023622047244
 20
2.58736220472441
 30
0.0
 10
0.1363425196850394
 20
3.340464566929134
 30
0.0
 10
0.1363425196850394
 20
3.340464566929134
 30
0.0
 10
0.1363425196850394
 20
3.340464566929134
 30
0.0
 10
0.1363425196850394
 20
3.340464566929134
 30
0.0
 10
0.1448110236220473
 20
3.319972440944882
 30
0.0
 10
0.1448110236220473
 20
3.319972440944882
 30
0.0
 10
0.1448110236220473
 20
3.319972440944882
 30
0.0
 10
0.1448110236220473
 20
3.319972440944882
 30
0.0
 10
0.1540787401574803
 20
3.301409448818898
 30
0.0
 10
0.1540787401574803
 20
3.301409448818898
 30
0.0
 10
0.1540787401574803
 20
3.301409448818898
 30
0.0
 10
0.1540787401574803
 20
3.301409448818898
 30
0.0
 10
0.1518385826771654
 20
2.548307086614174
 30
0.0
 10
0.1518385826771654
 20
2.548307086614174
 30
0.0
 10
0.1518385826771654
 20
2.548307086614174
 30
0.0
 10
0.1518385826771654
 20
2.548307086614174
 30
0.0
 10
0.1425708661417323
 20
2.566870078740158
 30
0.0
 10
0.1425708661417323
 20
2.566870078740158
 30
0.0
 10
0.1425708661417323
 20
2.566870078740158
 30
0.0
 10
0.1425708661417323
 20
2.566870078740158
 30
0.0
 10
0.1341023622047244
 20
2.58736220472441
 30
0.0
 10
0.1341023622047244
 20
2.58736220472441
 30
0.0
  0
SPLINE
  5
4C
330
1F
100
AcDbEntity
  8
LAYER_1
 62
   253
100
AcDbSpline
210
0.0
220
0.0
230
1.0
 70
    11
 71
     3
 72
    28
 73
    24
 74
     0
 42
0.0000000001
 43
0.0000000001
 40
0.0
 40
0.0
 40
0.0
 40
0.0
 40
0.1666666666666667
 40
0.1666666666666667
 40
0.1666666666666667
 40
0.1666666666666667
 40
0.3333333333333333
 40
0.3333333333333333
 40
0.3333333333333333
 40
0.3333333333333333
 40
0.5
 40
0.5
 40
0.5
 40
0.5
 40
0.6666666666666666
 40
0.6666666666666666
 40
0.6666666666666666
 40
0.6666666666666666
 40
0.8333333333333333
 40
0.8333333333333333
 40
0.8333333333333333
 40
0.8333333333333333
 40
1.0
 40
1.0
 40
1.0
 40
1.0
 10
0.1518385826771654
 20
2.548307086614174
 30
0.0
 10
0.1518385826771654
 20
2.548307086614174
 30
0.0
 10
0.1540787401574803
 20
3.301409448818898
 30
0.0
 10
0.1540787401574803
 20
3.301409448818898
 30
0.0
 10
0.1540787401574803
 20
3.301409448818898
 30
0.0
 10
0.1540787401574803
 20
3.301409448818898
 30
0.0
 10
0.1640748031496063
 20
3.284618110236221
 30
0.0
 10
0.1640748031496063
 20
3.284618110236221
 30
0.0
 10
0.1640748031496063
 20
3.284618110236221
 30
0.0
 10
0.1640748031496063
 20
3.284618110236221
 30
0.0
 10
0.174759842519685
 20
3.269464566929134
 30
0.0
 10
0.174759842519685
 20
3.269464566929134
 30
0.0
 10
0.174759842519685
 20
3.269464566929134
 30
0.0
 10
0.174759842519685
 20
3.269464566929134
 30
0.0
 10
0.1725196850393701
 20
2.516362204724409
 30
0.0
 10
0.1725196850393701
 20
2.516362204724409
 30
0.0
 10
0.1725196850393701
 20
2.516362204724409
 30
0.0
 10
0.1725196850393701
 20
2.516362204724409
 30
0.0
 10
0.1618346456692913
 20
2.531515748031496
 30
0.0
 10
0.1618346456692913
 20
2.531515748031496
 30
0.0
 10
0.1618346456692913
 20
2.531515748031496
 30
0.0
 10
0.1618346456692913
 20
2.531515748031496
 30
0.0
 10
0.1518385826771654
 20
2.548307086614174
 30
0.0
 10
0.1518385826771654
 20
2.548307086614174
 30
0.0
  0
SPLINE
  5
4D
330
1F
100
AcDbEntity
  8
LAYER_1
 62
   253
100
AcDbSpline
210
0.0
220
0.0
230
1.0
 70
    11
 71
     3
 72
    28
 73
    24
 74
     0
 42
0.0000000001
 43
0.0000000001
 40
0.0
 40
0.0
 40
0.0
 40
0.0
 40
0.1666666666666667
 40
0.1666666666666667
 40
0.1666666666666667
 40
0.1666666666666667
 40
0.3333333333333333
 40
0.3333333333333333
 40
0.3333333333333333
 40
0.3333333333333333
 40
0.5
 40
0.5
 40
0.5
 40
0.5
 40
0.6666666666666666
 40
0.6666666666666666
 40
0.6666666666666666
 40
0.6666666666666666
 40
0.8333333333333333
 40
0.8333333333333333
 40
0.8333333333333333
 40
0.8333333333333333
 40
1.0
 40
1.0
 40
1.0
 40
1.0
 10
0.1725196850393701
 20
2.516362204724409
 30
0.0
 10
0.1725196850393701
 20
2.516362204724409
 30
0.0
 10
0.174759842519685
 20
3.269464566929134
 30
0.0
 10
0.174759842519685
 20
3.269464566929134
 30
0.0
 10
0.174759842519685
 20
3.269464566929134
 30
0.0
 10
0.174759842519685
 20
3.269464566929134
 30
0.0
 10
0.1860551181102362
 20
3.255779527559055
 30
0.0
 10
0.1860551181102362
 20
3.255779527559055
 30
0.0
 10
0.1860551181102362
 20
3.255779527559055
 30
0.0
 10
0.1860551181102362
 20
3.255779527559055
 30
0.0
 10
0.1979173228346457
 20
3.243433070866142
 30
0.0
 10
0.1979173228346457
 20
3.243433070866142
 30
0.0
 10
0.1979173228346457
 20
3.243433070866142
 30
0.0
 10
0.1979173228346457
 20
3.243433070866142
 30
0.0
 10
0.1956771653543307
 20
2.490330708661417
 30
0.0
 10
0.1956771653543307
 20
2.490330708661417
 30
0.0
 10
0.1956771653543307
 20
2.490330708661417
 30
0.0
 10
0.1956771653543307
 20
2.490330708661417
 30
0.0
 10
0.1838149606299213
 20
2.502677165354331
 30
0.0
 10
0.1838149606299213
 20
2.502677165354331
 30
0.0
 10
0.1838149606299213
 20
2.502677165354331
 30
0.0
 10
0.1838149606299213
 20
2.502677165354331
 30
0.0
 10
0.1725196850393701
 20
2.516362204724409
 30
0.0
 10
0.1725196850393701
 20
2.516362204724409
 30
0.0
  0
SPLINE
  5
4E
330
1F
100
AcDbEntity
  8
LAYER_1
 62
   253
100
AcDbSpline
210
0.0
220
0.0
230
1.0
 70
    11
 71
     3
 72
    36
 73
    32
 74
     0
 42
0.0000000001
 43
0.0000000001
 40
0.0
 40
0.0
 40
0.0
 40
0.0
 40
0.125
 40
0.125
 40
0.125
 40
0.125
 40
0.25
 40
0.25
 40
0.25
 40
0.25
 40
0.375
 40
0.375
 40
0.375
 40
0.375
 40
0.5
 40
0.5
 40
0.5
 40
0.5
 40
0.625
 40
0.625
 40
0.625
 40
0.625
 40
0.75
 40
0.75
 40
0.75
 40
0.75
 40
0.875
 40
0.875
 40
0.875
 40
0.875
 40
1.0
 40
1.0
 40
1.0
 40
1.0
 10
0.1956771653543307
 20
2.490330708661417
 30
0.0
 10
0.1956771653543307
 20
2.490330708661417
 30
0.0
 10
0.1979173228346457
 20
3.243433070866142
 30
0.0
 10
0.1979173228346457
 20
3.243433070866142
 30
0.0
 10
0.1979173228346457
 20
3.243433070866142
 30
0.0
 10
0.1979173228346457
 20
3.243433070866142
 30
0.0
 10
0.2102874015748032
 20
3.232259842519685
 30
0.0
 10
0.2102874015748032
 20
3.232259842519685
 30
0.0
 10
0.2102874015748032
 20
3.232259842519685
 30
0.0
 10
0.2102874015748032
 20
3.232259842519685
 30
0.0
 10
0.2231141732283465
 20
3.222129921259842
 30
0.0
 10
0.2231141732283465
 20
3.222129921259842
 30
0.0
 10
0.2231141732283465
 20
3.222129921259842
 30
0.0
 10
0.2231141732283465
 20
3.222129921259842
 30
0.0
 10
0.2363267716535433
 20
3.21288188976378
 30
0.0
 10
0.2363267716535433
 20
3.21288188976378
 30
0.0
 10
0.2363267716535433
 20
3.21288188976378
 30
0.0
 10
0.2363267716535433
 20
3.21288188976378
 30
0.0
 10
0.2340866141732284
 20
2.459779527559055
 30
0.0
 10
0.2340866141732284
 20
2.459779527559055
 30
0.0
 10
0.2340866141732284
 20
2.459779527559055
 30
0.0
 10
0.2340866141732284
 20
2.459779527559055
 30
0.0
 10
0.2208740157480315
 20
2.469027559055118
 30
0.0
 10
0.2208740157480315
 20
2.469027559055118
 30
0.0
 10
0.2208740157480315
 20
2.469027559055118
 30
0.0
 10
0.2208740157480315
 20
2.469027559055118
 30
0.0
 10
0.2080472440944882
 20
2.479157480314961
 30
0.0
 10
0.2080472440944882
 20
2.479157480314961
 30
0.0
 10
0.2080472440944882
 20
2.479157480314961
 30
0.0
 10
0.2080472440944882
 20
2.479157480314961
 30
0.0
 10
0.1956771653543307
 20
2.490330708661417
 30
0.0
 10
0.1956771653543307
 20
2.490330708661417
 30
0.0
  0
SPLINE
  5
4F
330
1F
100
AcDbEntity
  8
LAYER_1
 62
   253
100
AcDbSpline
210
0.0
220
0.0
230
1.0
 70
    11
 71
     3
 72
    36
 73
    32
 74
     0
 42
0.0000000001
 43
0.0000000001
 40
0.0
 40
0.0
 40
0.0
 40
0.0
 40
0.125
 40
0.125
 40
0.125
 40
0.125
 40
0.25
 40
0.25
 40
0.25
 40
0.25
 40
0.375
 40
0.375
 40
0.375
 40
0.375
 40
0.5
 40
0.5
 40
0.5
 40
0.5
 40
0.625
 40
0.625
 40
0.625
 40
0.625
 40
0.75
 40
0.75
 40
0.75
 40
0.75
 40
0.875
 40
0.875
 40
0.875
 40
0.875
 40
1.0
 40
1.0
 40
1.0
 40
1.0
 10
0.2340866141732284
 20
2.459779527559055
 30
0.0
 10
0.2340866141732284
 20
2.459779527559055
 30
0.0
 10
0.2363267716535433
 20
3.21288188976378
 30
0.0
 10
0.2363267716535433
 20
3.21288188976378
 30
0.0
 10
0.2363267716535433
 20
3.21288188976378
 30
0.0
 10
0.2363267716535433
 20
3.21288188976378
 30
0.0
 10
0.2498818897637795
 20
3.204366141732284
 30
0.0
 10
0.2498818897637795
 20
3.204366141732284
 30
0.0
 10
0.2498818897637795
 20
3.204366141732284
 30
0.0
 10
0.2498818897637795
 20
3.204366141732284
 30
0.0
 10
0.2637165354330709
 20
3.196437007874016
 30
0.0
 10
0.2637165354330709
 20
3.196437007874016
 30
0.0
 10
0.2637165354330709
 20
3.196437007874016
 30
0.0
 10
0.2637165354330709
 20
3.196437007874016
 30
0.0
 10
0.2777755905511811
 20
3.188937007874016
 30
0.0
 10
0.2777755905511811
 20
3.188937007874016
 30
0.0
 10
0.2777755905511811
 20
3.188937007874016
 30
0.0
 10
0.2777755905511811
 20
3.188937007874016
 30
0.0
 10
0.2755354330708661
 20
2.435834645669292
 30
0.0
 10
0.2755354330708661
 20
2.435834645669292
 30
0.0
 10
0.2755354330708661
 20
2.435834645669292
 30
0.0
 10
0.2755354330708661
 20
2.435834645669292
 30
0.0
 10
0.2614763779527559
 20
2.443334645669292
 30
0.0
 10
0.2614763779527559
 20
2.443334645669292
 30
0.0
 10
0.2614763779527559
 20
2.443334645669292
 30
0.0
 10
0.2614763779527559
 20
2.443334645669292
 30
0.0
 10
0.2476417322834646
 20
2.451263779527559
 30
0.0
 10
0.2476417322834646
 20
2.451263779527559
 30
0.0
 10
0.2476417322834646
 20
2.451263779527559
 30
0.0
 10
0.2476417322834646
 20
2.451263779527559
 30
0.0
 10
0.2340866141732284
 20
2.459779527559055
 30
0.0
 10
0.2340866141732284
 20
2.459779527559055
 30
0.0
  0
SPLINE
  5
50
330
1F
100
AcDbEntity
  8
LAYER_1
 62
   253
100
AcDbSpline
210
0.0
220
0.0
230
1.0
 70
    11
 71
     3
 72
    36
 73
    32
 74
     0
 42
0.0000000001
 43
0.0000000001
 40
0.0
 40
0.0
 40
0.0
 40
0.0
 40
0.125
 40
0.125
 40
0.125
 40
0.125
 40
0.25
 40
0.25
 40
0.25
 40
0.25
 40
0.375
 40
0.375
 40
0.375
 40
0.375
 40
0.5
 40
0.5
 40
0.5
 40
0.5
 40
0.625
 40
0.625
 40
0.625
 40
0.625
 40
0.75
 40
0.75
 40
0.75
 40
0.75
 40
0.875
 40
0.875
 40
0.875
 40
0.875
 40
1.0
 40
1.0
 40
1.0
 40
1.0
 10
0.2755354330708661
 20
2.435834645669292
 30
0.0
 10
0.2755354330708661
 20
2.435834645669292
 30
0.0
 10
0.2777755905511811
 20
3.188937007874016
 30
0.0
 10
0.2777755905511811
 20
3.188937007874016
 30
0.0
 10
0.2777755905511811
 20
3.188937007874016
 30
0.0
 10
0.2777755905511811
 20
3.188937007874016
 30
0.0
 10
0.291992125984252
 20
3.181736220472441
 30
0.0
 10
0.291992125984252
 20
3.181736220472441
 30
0.0
 10
0.291992125984252
 20
3.181736220472441
 30
0.0
 10
0.291992125984252
 20
3.181736220472441
 30
0.0
 10
0.3063228346456693
 20
3.174673228346457
 30
0.0
 10
0.3063228346456693
 20
3.174673228346457
 30
0.0
 10
0.3063228346456693
 20
3.174673228346457
 30
0.0
 10
0.3063228346456693
 20
3.174673228346457
 30
0.0
 10
0.3207047244094488
 20
3.167602362204725
 30
0.0
 10
0.3207047244094488
 20
3.167602362204725
 30
0.0
 10
0.3207047244094488
 20
3.167602362204725
 30
0.0
 10
0.3207047244094488
 20
3.167602362204725
 30
0.0
 10
0.3184645669291339
 20
2.4145
 30
0.0
 10
0.3184645669291339
 20
2.4145
 30
0.0
 10
0.3184645669291339
 20
2.4145
 30
0.0
 10
0.3184645669291339
 20
2.4145
 30
0.0
 10
0.3040826771653544
 20
2.421570866141733
 30
0.0
 10
0.3040826771653544
 20
2.421570866141733
 30
0.0
 10
0.3040826771653544
 20
2.421570866141733
 30
0.0
 10
0.3040826771653544
 20
2.421570866141733
 30
0.0
 10
0.289751968503937
 20
2.428633858267717
 30
0.0
 10
0.289751968503937
 20
2.428633858267717
 30
0.0
 10
0.289751968503937
 20
2.428633858267717
 30
0.0
 10
0.289751968503937
 20
2.428633858267717
 30
0.0
 10
0.2755354330708661
 20
2.435834645669292
 30
0.0
 10
0.2755354330708661
 20
2.435834645669292
 30
0.0
  0
SPLINE
  5
51
330
1F
100
AcDbEntity
  8
LAYER_1
 62
   253
100
AcDbSpline
210
0.0
220
0.0
230
1.0
 70
    11
 71
     3
 72
    36
 73
    32
 74
     0
 42
0.0000000001
 43
0.0000000001
 40
0.0
 40
0.0
 40
0.0
 40
0.0
 40
0.125
 40
0.125
 40
0.125
 40
0.125
 40
0.25
 40
0.25
 40
0.25
 40
0.25
 40
0.375
 40
0.375
 40
0.375
 40
0.375
 40
0.5
 40
0.5
 40
0.5
 40
0.5
 40
0.625
 40
0.625
 40
0.625
 40
0.625
 40
0.75
 40
0.75
 40
0.75
 40
0.75
 40
0.875
 40
0.875
 40
0.875
 40
0.875
 40
1.0
 40
1.0
 40
1.0
 40
1.0
 10
0.3184645669291339
 20
2.4145
 30
0.0
 10
0.3184645669291339
 20
2.4145
 30
0.0
 10
0.3207047244094488
 20
3.167602362204725
 30
0.0
 10
0.3207047244094488
 20
3.167602362204725
 30
0.0
 10
0.3207047244094488
 20
3.167602362204725
 30
0.0
 10
0.3207047244094488
 20
3.167602362204725
 30
0.0
 10
0.3350866141732284
 20
3.160366141732284
 30
0.0
 10
0.3350866141732284
 20
3.160366141732284
 30
0.0
 10
0.3350866141732284
 20
3.160366141732284
 30
0.0
 10
0.3350866141732284
 20
3.160366141732284
 30
0.0
 10
0.3493976377952756
 20
3.152830708661417
 30
0.0
 10
0.3493976377952756
 20
3.152830708661417
 30
0.0
 10
0.3493976377952756
 20
3.152830708661417
 30
0.0
 10
0.3493976377952756
 20
3.152830708661417
 30
0.0
 10
0.3635984251968504
 20
3.144838582677166
 30
0.0
 10
0.3635984251968504
 20
3.144838582677166
 30
0.0
 10
0.3635984251968504
 20
3.144838582677166
 30
0.0
 10
0.3635984251968504
 20
3.144838582677166
 30
0.0
 10
0.3613582677165355
 20
2.391736220472441
 30
0.0
 10
0.3613582677165355
 20
2.391736220472441
 30
0.0
 10
0.3613582677165355
 20
2.391736220472441
 30
0.0
 10
0.3613582677165355
 20
2.391736220472441
 30
0.0
 10
0.3471574803149606
 20
2.399728346456693
 30
0.0
 10
0.3471574803149606
 20
2.399728346456693
 30
0.0
 10
0.3471574803149606
 20
2.399728346456693
 30
0.0
 10
0.3471574803149606
 20
2.399728346456693
 30
0.0
 10
0.3328464566929134
 20
2.407263779527559
 30
0.0
 10
0.3328464566929134
 20
2.407263779527559
 30
0.0
 10
0.3328464566929134
 20
2.407263779527559
 30
0.0
 10
0.3328464566929134
 20
2.407263779527559
 30
0.0
 10
0.3184645669291339
 20
2.4145
 30
0.0
 10
0.3184645669291339
 20
2.4145
 30
0.0
  0
SPLINE
  5
52
330
1F
100
AcDbEntity
  8
LAYER_1
 62
   253
100
AcDbSpline
210
0.0
220
0.0
230
1.0
 70
    11
 71
     3
 72
    28
 73
    24
 74
     0
 42
0.0000000001
 43
0.0000000001
 40
0.0
 40
0.0
 40
0.0
 40
0.0
 40
0.1666666666666667
 40
0.1666666666666667
 40
0.1666666666666667
 40
0.1666666666666667
 40
0.3333333333333333
 40
0.3333333333333333
 40
0.3333333333333333
 40
0.3333333333333333
 40
0.5
 40
0.5
 40
0.5
 40
0.5
 40
0.6666666666666666
 40
0.6666666666666666
 40
0.6666666666666666
 40
0.6666666666666666
 40
0.8333333333333333
 40
0.8333333333333333
 40
0.8333333333333333
 40
0.8333333333333333
 40
1.0
 40
1.0
 40
1.0
 40
1.0
 10
0.3613582677165355
 20
2.391736220472441
 30
0.0
 10
0.3613582677165355
 20
2.391736220472441
 30
0.0
 10
0.3635984251968504
 20
3.144838582677166
 30
0.0
 10
0.3635984251968504
 20
3.144838582677166
 30
0.0
 10
0.3635984251968504
 20
3.144838582677166
 30
0.0
 10
0.3635984251968504
 20
3.144838582677166
 30
0.0
 10
0.3776181102362205
 20
3.136248031496063
 30
0.0
 10
0.3776181102362205
 20
3.136248031496063
 30
0.0
 10
0.3776181102362205
 20
3.136248031496063
 30
0.0
 10
0.3776181102362205
 20
3.136248031496063
 30
0.0
 10
0.3914094488188977
 20
3.126893700787402
 30
0.0
 10
0.3914094488188977
 20
3.126893700787402
 30
0.0
 10
0.3914094488188977
 20
3.126893700787402
 30
0.0
 10
0.3914094488188977
 20
3.126893700787402
 30
0.0
 10
0.3891692913385827
 20
2.373791338582677
 30
0.0
 10
0.3891692913385827
 20
2.373791338582677
 30
0.0
 10
0.3891692913385827
 20
2.373791338582677
 30
0.0
 10
0.3891692913385827
 20
2.373791338582677
 30
0.0
 10
0.3753779527559055
 20
2.383145669291339
 30
0.0
 10
0.3753779527559055
 20
2.383145669291339
 30
0.0
 10
0.3753779527559055
 20
2.383145669291339
 30
0.0
 10
0.3753779527559055
 20
2.383145669291339
 30
0.0
 10
0.3613582677165355
 20
2.391736220472441
 30
0.0
 10
0.3613582677165355
 20
2.391736220472441
 30
0.0
  0
SPLINE
  5
53
330
1F
100
AcDbEntity
  8
LAYER_1
 62
   253
100
AcDbSpline
210
0.0
220
0.0
230
1.0
 70
    11
 71
     3
 72
    28
 73
    24
 74
     0
 42
0.0000000001
 43
0.0000000001
 40
0.0
 40
0.0
 40
0.0
 40
0.0
 40
0.1666666666666667
 40
0.1666666666666667
 40
0.1666666666666667
 40
0.1666666666666667
 40
0.3333333333333333
 40
0.3333333333333333
 40
0.3333333333333333
 40
0.3333333333333333
 40
0.5
 40
0.5
 40
0.5
 40
0.5
 40
0.6666666666666666
 40
0.6666666666666666
 40
0.6666666666666666
 40
0.6666666666666666
 40
0.8333333333333333
 40
0.8333333333333333
 40
0.8333333333333333
 40
0.8333333333333333
 40
1.0
 40
1.0
 40
1.0
 40
1.0
 10
0.3891692913385827
 20
2.373791338582677
 30
0.0
 10
0.3891692913385827
 20
2.373791338582677
 30
0.0
 10
0.3914094488188977
 20
3.126893700787402
 30
0.0
 10
0.3914094488188977
 20
3.126893700787402
 30
0.0
 10
0.3914094488188977
 20
3.126893700787402
 30
0.0
 10
0.3914094488188977
 20
3.126893700787402
 30
0.0
 10
0.4049055118110236
 20
3.116649606299213
 30
0.0
 10
0.4049055118110236
 20
3.116649606299213
 30
0.0
 10
0.4049055118110236
 20
3.116649606299213
 30
0.0
 10
0.4049055118110236
 20
3.116649606299213
 30
0.0
 10
0.4180590551181103
 20
3.105350393700788
 30
0.0
 10
0.4180590551181103
 20
3.105350393700788
 30
0.0
 10
0.4180590551181103
 20
3.105350393700788
 30
0.0
 10
0.4180590551181103
 20
3.105350393700788
 30
0.0
 10
0.4158188976377953
 20
2.352248031496063
 30
0.0
 10
0.4158188976377953
 20
2.352248031496063
 30
0.0
 10
0.4158188976377953
 20
2.352248031496063
 30
0.0
 10
0.4158188976377953
 20
2.352248031496063
 30
0.0
 10
0.4026653543307087
 20
2.363547244094488
 30
0.0
 10
0.4026653543307087
 20
2.363547244094488
 30
0.0
 10
0.4026653543307087
 20
2.363547244094488
 30
0.0
 10
0.4026653543307087
 20
2.363547244094488
 30
0.0
 10
0.3891692913385827
 20
2.373791338582677
 30
0.0
 10
0.3891692913385827
 20
2.373791338582677
 30
0.0
  0
SPLINE
  5
54
330
1F
100
AcDbEntity
  8
LAYER_1
 62
   253
100
AcDbSpline
210
0.0
220
0.0
230
1.0
 70
    11
 71
     3
 72
    28
 73
    24
 74
     0
 42
0.0000000001
 43
0.0000000001
 40
0.0
 40
0.0
 40
0.0
 40
0.0
 40
0.1666666666666667
 40
0.1666666666666667
 40
0.1666666666666667
 40
0.1666666666666667
 40
0.3333333333333333
 40
0.3333333333333333
 40
0.3333333333333333
 40
0.3333333333333333
 40
0.5
 40
0.5
 40
0.5
 40
0.5
 40
0.6666666666666666
 40
0.6666666666666666
 40
0.6666666666666666
 40
0.6666666666666666
 40
0.8333333333333333
 40
0.8333333333333333
 40
0.8333333333333333
 40
0.8333333333333333
 40
1.0
 40
1.0
 40
1.0
 40
1.0
 10
0.4158188976377953
 20
2.352248031496063
 30
0.0
 10
0.4158188976377953
 20
2.352248031496063
 30
0.0
 10
0.4180590551181103
 20
3.105350393700788
 30
0.0
 10
0.4180590551181103
 20
3.105350393700788
 30
0.0
 10
0.4180590551181103
 20
3.105350393700788
 30
0.0
 10
0.4180590551181103
 20
3.105350393700788
 30
0.0
 10
0.4308070866141732
 20
3.092854330708661
 30
0.0
 10
0.4308070866141732
 20
3.092854330708661
 30
0.0
 10
0.4308070866141732
 20
3.092854330708661
 30
0.0
 10
0.4308070866141732
 20
3.092854330708661
 30
0.0
 10
0.4430984251968504
 20
3.079003937007874
 30
0.0
 10
0.4430984251968504
 20
3.079003937007874
 30
0.0
 10
0.4430984251968504
 20
3.079003937007874
 30
0.0
 10
0.4430984251968504
 20
3.079003937007874
 30
0.0
 10
0.4408582677165355
 20
2.32590157480315
 30
0.0
 10
0.4408582677165355
 20
2.32590157480315
 30
0.0
 10
0.4408582677165355
 20
2.32590157480315
 30
0.0
 10
0.4408582677165355
 20
2.32590157480315
 30
0.0
 10
0.4285669291338583
 20
2.339751968503937
 30
0.0
 10
0.4285669291338583
 20
2.339751968503937
 30
0.0
 10
0.4285669291338583
 20
2.339751968503937
 30
0.0
 10
0.4285669291338583
 20
2.339751968503937
 30
0.0
 10
0.4158188976377953
 20
2.352248031496063
 30
0.0
 10
0.4158188976377953
 20
2.352248031496063
 30
0.0
  0
SPLINE
  5
55
330
1F
100
AcDbEntity
  8
LAYER_1
 62
   253
100
AcDbSpline
210
0.0
220
0.0
230
1.0
 70
    11
 71
     3
 72
    28
 73
    24
 74
     0
 42
0.0000000001
 43
0.0000000001
 40
0.0
 40
0.0
 40
0.0
 40
0.0
 40
0.1666666666666667
 40
0.1666666666666667
 40
0.1666666666666667
 40
0.1666666666666667
 40
0.3333333333333333
 40
0.3333333333333333
 40
0.3333333333333333
 40
0.3333333333333333
 40
0.5
 40
0.5
 40
0.5
 40
0.5
 40
0.6666666666666666
 40
0.6666666666666666
 40
0.6666666666666666
 40
0.6666666666666666
 40
0.8333333333333333
 40
0.8333333333333333
 40
0.8333333333333333
 40
0.8333333333333333
 40
1.0
 40
1.0
 40
1.0
 40
1.0
 10
0.4408582677165355
 20
2.32590157480315
 30
0.0
 10
0.4408582677165355
 20
2.32590157480315
 30
0.0
 10
0.4430984251968504
 20
3.079003937007874
 30
0.0
 10
0.4430984251968504
 20
3.079003937007874
 30
0.0
 10
0.4430984251968504
 20
3.079003937007874
 30
0.0
 10
0.4430984251968504
 20
3.079003937007874
 30
0.0
 10
0.4548661417322835
 20
3.063665354330709
 30
0.0
 10
0.4548661417322835
 20
3.063665354330709
 30
0.0
 10
0.4548661417322835
 20
3.063665354330709
 30
0.0
 10
0.4548661417322835
 20
3.063665354330709
 30
0.0
 10
0.4660669291338583
 20
3.046673228346457
 30
0.0
 10
0.4660669291338583
 20
3.046673228346457
 30
0.0
 10
0.4660669291338583
 20
3.046673228346457
 30
0.0
 10
0.4660669291338583
 20
3.046673228346457
 30
0.0
 10
0.4638267716535433
 20
2.293570866141732
 30
0.0
 10
0.4638267716535433
 20
2.293570866141732
 30
0.0
 10
0.4638267716535433
 20
2.293570866141732
 30
0.0
 10
0.4638267716535433
 20
2.293570866141732
 30
0.0
 10
0.4526259842519685
 20
2.310562992125985
 30
0.0
 10
0.4526259842519685
 20
2.310562992125985
 30
0.0
 10
0.4526259842519685
 20
2.310562992125985
 30
0.0
 10
0.4526259842519685
 20
2.310562992125985
 30
0.0
 10
0.4408582677165355
 20
2.32590157480315
 30
0.0
 10
0.4408582677165355
 20
2.32590157480315
 30
0.0
  0
SPLINE
  5
56
330
1F
100
AcDbEntity
  8
LAYER_1
 62
   252
100
AcDbSpline
210
0.0
220
0.0
230
1.0
 70
    11
 71
     3
 72
    28
 73
    24
 74
     0
 42
0.0000000001
 43
0.0000000001
 40
0.0
 40
0.0
 40
0.0
 40
0.0
 40
0.1666666666666667
 40
0.1666666666666667
 40
0.1666666666666667
 40
0.1666666666666667
 40
0.3333333333333333
 40
0.3333333333333333
 40
0.3333333333333333
 40
0.3333333333333333
 40
0.5
 40
0.5
 40
0.5
 40
0.5
 40
0.6666666666666666
 40
0.6666666666666666
 40
0.6666666666666666
 40
0.6666666666666666
 40
0.8333333333333333
 40
0.8333333333333333
 40
0.8333333333333333
 40
0.8333333333333333
 40
1.0
 40
1.0
 40
1.0
 40
1.0
 10
0.4638267716535433
 20
2.293570866141732
 30
0.0
 10
0.4638267716535433
 20
2.293570866141732
 30
0.0
 10
0.4660669291338583
 20
3.046673228346457
 30
0.0
 10
0.4660669291338583
 20
3.046673228346457
 30
0.0
 10
0.4660669291338583
 20
3.046673228346457
 30
0.0
 10
0.4660669291338583
 20
3.046673228346457
 30
0.0
 10
0.4766299212598426
 20
3.027893700787402
 30
0.0
 10
0.4766299212598426
 20
3.027893700787402
 30
0.0
 10
0.4766299212598426
 20
3.027893700787402
 30
0.0
 10
0.4766299212598426
 20
3.027893700787402
 30
0.0
 10
0.4865157480314961
 20
3.007161417322835
 30
0.0
 10
0.4865157480314961
 20
3.007161417322835
 30
0.0
 10
0.4865157480314961
 20
3.007161417322835
 30
0.0
 10
0.4865157480314961
 20
3.007161417322835
 30
0.0
 10
0.4842755905511811
 20
2.25405905511811
 30
0.0
 10
0.4842755905511811
 20
2.25405905511811
 30
0.0
 10
0.4842755905511811
 20
2.25405905511811
 30
0.0
 10
0.4842755905511811
 20
2.25405905511811
 30
0.0
 10
0.4743897637795276
 20
2.274791338582678
 30
0.0
 10
0.4743897637795276
 20
2.274791338582678
 30
0.0
 10
0.4743897637795276
 20
2.274791338582678
 30
0.0
 10
0.4743897637795276
 20
2.274791338582678
 30
0.0
 10
0.4638267716535433
 20
2.293570866141732
 30
0.0
 10
0.4638267716535433
 20
2.293570866141732
 30
0.0
  0
SPLINE
  5
57
330
1F
100
AcDbEntity
  8
LAYER_1
 62
   250
100
AcDbSpline
210
0.0
220
0.0
230
1.0
 70
    11
 71
     3
 72
   268
 73
   264
 74
     0
 42
0.0000000001
 43
0.0000000001
 40
0.0
 40
0.0
 40
0.0
 40
0.0
 40
0.0151515151515152
 40
0.0151515151515152
 40
0.0151515151515152
 40
0.0151515151515152
 40
0.0303030303030303
 40
0.0303030303030303
 40
0.0303030303030303
 40
0.0303030303030303
 40
0.0454545454545455
 40
0.0454545454545455
 40
0.0454545454545455
 40
0.0454545454545455
 40
0.0606060606060606
 40
0.0606060606060606
 40
0.0606060606060606
 40
0.0606060606060606
 40
0.0757575757575758
 40
0.0757575757575758
 40
0.0757575757575758
 40
0.0757575757575758
 40
0.0909090909090909
 40
0.0909090909090909
 40
0.0909090909090909
 40
0.0909090909090909
 40
0.1060606060606061
 40
0.1060606060606061
 40
0.1060606060606061
 40
0.1060606060606061
 40
0.1212121212121212
 40
0.1212121212121212
 40
0.1212121212121212
 40
0.1212121212121212
 40
0.1363636363636364
 40
0.1363636363636364
 40
0.1363636363636364
 40
0.1363636363636364
 40
0.1515151515151515
 40
0.1515151515151515
 40
0.1515151515151515
 40
0.1515151515151515
 40
0.1666666666666666
 40
0.1666666666666666
 40
0.1666666666666666
 40
0.1666666666666666
 40
0.1818181818181818
 40
0.1818181818181818
 40
0.1818181818181818
 40
0.1818181818181818
 40
0.1969696969696969
 40
0.1969696969696969
 40
0.1969696969696969
 40
0.1969696969696969
 40
0.212121212121212
 40
0.212121212121212
 40
0.212121212121212
 40
0.212121212121212
 40
0.2272727272727272
 40
0.2272727272727272
 40
0.2272727272727272
 40
0.2272727272727272
 40
0.2424242424242423
 40
0.2424242424242423
 40
0.2424242424242423
 40
0.2424242424242423
 40
0.2575757575757575
 40
0.2575757575757575
 40
0.2575757575757575
 40
0.2575757575757575
 40
0.2727272727272726
 40
0.2727272727272726
 40
0.2727272727272726
 40
0.2727272727272726
 40
0.2878787878787877
 40
0.2878787878787877
 40
0.2878787878787877
 40
0.2878787878787877
 40
0.3030303030303029
 40
0.3030303030303029
 40
0.3030303030303029
 40
0.3030303030303029
 40
0.318181818181818
 40
0.318181818181818
 40
0.318181818181818
 40
0.318181818181818
 40
0.3333333333333332
 40
0.3333333333333332
 40
0.3333333333333332
 40
0.3333333333333332
 40
0.3484848484848483
 40
0.3484848484848483
 40
0.3484848484848483
 40
0.3484848484848483
 40
0.3636363636363634
 40
0.3636363636363634
 40
0.3636363636363634
 40
0.3636363636363634
 40
0.3787878787878786
 40
0.3787878787878786
 40
0.3787878787878786
 40
0.3787878787878786
 40
0.3939393939393937
 40
0.3939393939393937
 40
0.3939393939393937
 40
0.3939393939393937
 40
0.4090909090909088
 40
0.4090909090909088
 40
0.4090909090909088
 40
0.4090909090909088
 40
0.424242424242424
 40
0.424242424242424
 40
0.424242424242424
 40
0.424242424242424
 40
0.4393939393939391
 40
0.4393939393939391
 40
0.4393939393939391
 40
0.4393939393939391
 40
0.4545454545454543
 40
0.4545454545454543
 40
0.4545454545454543
 40
0.4545454545454543
 40
0.4696969696969694
 40
0.4696969696969694
 40
0.4696969696969694
 40
0.4696969696969694
 40
0.4848484848484845
 40
0.4848484848484845
 40
0.4848484848484845
 40
0.4848484848484845
 40
0.4999999999999997
 40
0.4999999999999997
 40
0.4999999999999997
 40
0.4999999999999997
 40
0.5151515151515148
 40
0.5151515151515148
 40
0.5151515151515148
 40
0.5151515151515148
 40
0.5303030303030299
 40
0.5303030303030299
 40
0.5303030303030299
 40
0.5303030303030299
 40
0.5454545454545451
 40
0.5454545454545451
 40
0.5454545454545451
 40
0.5454545454545451
 40
0.5606060606060602
 40
0.5606060606060602
 40
0.5606060606060602
 40
0.5606060606060602
 40
0.5757575757575754
 40
0.5757575757575754
 40
0.5757575757575754
 40
0.5757575757575754
 40
0.5909090909090905
 40
0.5909090909090905
 40
0.5909090909090905
 40
0.5909090909090905
 40
0.6060606060606056
 40
0.6060606060606056
 40
0.6060606060606056
 40
0.6060606060606056
 40
0.6212121212121208
 40
0.6212121212121208
 40
0.6212121212121208
 40
0.6212121212121208
 40
0.6363636363636359
 40
0.6363636363636359
 40
0.6363636363636359
 40
0.6363636363636359
 40
0.6515151515151511
 40
0.6515151515151511
 40
0.6515151515151511
 40
0.6515151515151511
 40
0.6666666666666662
 40
0.6666666666666662
 40
0.6666666666666662
 40
0.6666666666666662
 40
0.6818181818181813
 40
0.6818181818181813
 40
0.6818181818181813
 40
0.6818181818181813
 40
0.6969696969696965
 40
0.6969696969696965
 40
0.6969696969696965
 40
0.6969696969696965
 40
0.7121212121212116
 40
0.7121212121212116
 40
0.7121212121212116
 40
0.7121212121212116
 40
0.7272727272727267
 40
0.7272727272727267
 40
0.7272727272727267
 40
0.7272727272727267
 40
0.7424242424242419
 40
0.7424242424242419
 40
0.7424242424242419
 40
0.7424242424242419
 40
0.757575757575757
 40
0.757575757575757
 40
0.757575757575757
 40
0.757575757575757
 40
0.7727272727272722
 40
0.7727272727272722
 40
0.7727272727272722
 40
0.7727272727272722
 40
0.7878787878787873
 40
0.7878787878787873
 40
0.7878787878787873
 40
0.7878787878787873
 40
0.8030303030303024
 40
0.8030303030303024
 40
0.8030303030303024
 40
0.8030303030303024
 40
0.8181818181818176
 40
0.8181818181818176
 40
0.8181818181818176
 40
0.8181818181818176
 40
0.8333333333333327
 40
0.8333333333333327
 40
0.8333333333333327
 40
0.8333333333333327
 40
0.8484848484848478
 40
0.8484848484848478
 40
0.8484848484848478
 40
0.8484848484848478
 40
0.863636363636363
 40
0.863636363636363
 40
0.863636363636363
 40
0.863636363636363
 40
0.8787878787878781
 40
0.8787878787878781
 40
0.8787878787878781
 40
0.8787878787878781
 40
0.8939393939393933
 40
0.8939393939393933
 40
0.8939393939393933
 40
0.8939393939393933
 40
0.9090909090909084
 40
0.9090909090909084
 40
0.9090909090909084
 40
0.9090909090909084
 40
0.9242424242424235
 40
0.9242424242424235
 40
0.9242424242424235
 40
0.9242424242424235
 40
0.9393939393939387
 40
0.9393939393939387
 40
0.9393939393939387
 40
0.9393939393939387
 40
0.9545454545454538
 40
0.9545454545454538
 40
0.9545454545454538
 40
0.9545454545454538
 40
0.969696969696969
 40
0.969696969696969
 40
0.969696969696969
 40
0.969696969696969
 40
0.9848484848484841
 40
0.9848484848484841
 40
0.9848484848484841
 40
0.9848484848484841
 40
1.0
 40
1.0
 40
1.0
 40
1.0
 10
0.1092755905511811
 20
2.69155905511811
 30
0.0
 10
0.1092755905511811
 20
2.69155905511811
 30
0.0
 10
0.1115157480314961
 20
3.444661417322835
 30
0.0
 10
0.1115157480314961
 20
3.444661417322835
 30
0.0
 10
0.1115157480314961
 20
3.444661417322835
 30
0.0
 10
0.1115157480314961
 20
3.444661417322835
 30
0.0
 10
0.116244094488189
 20
3.414976377952756
 30
0.0
 10
0.116244094488189
 20
3.414976377952756
 30
0.0
 10
0.116244094488189
 20
3.414976377952756
 30
0.0
 10
0.116244094488189
 20
3.414976377952756
 30
0.0
 10
0.122
 20
3.387814960629922
 30
0.0
 10
0.122
 20
3.387814960629922
 30
0.0
 10
0.122
 20
3.387814960629922
 30
0.0
 10
0.122
 20
3.387814960629922
 30
0.0
 10
0.1287165354330709
 20
3.363023622047244
 30
0.0
 10
0.1287165354330709
 20
3.363023622047244
 30
0.0
 10
0.1287165354330709
 20
3.363023622047244
 30
0.0
 10
0.1287165354330709
 20
3.363023622047244
 30
0.0
 10
0.1363425196850394
 20
3.340464566929134
 30
0.0
 10
0.1363425196850394
 20
3.340464566929134
 30
0.0
 10
0.1363425196850394
 20
3.340464566929134
 30
0.0
 10
0.1363425196850394
 20
3.340464566929134
 30
0.0
 10
0.1448110236220473
 20
3.319972440944882
 30
0.0
 10
0.1448110236220473
 20
3.319972440944882
 30
0.0
 10
0.1448110236220473
 20
3.319972440944882
 30
0.0
 10
0.1448110236220473
 20
3.319972440944882
 30
0.0
 10
0.1540787401574803
 20
3.301409448818898
 30
0.0
 10
0.1540787401574803
 20
3.301409448818898
 30
0.0
 10
0.1540787401574803
 20
3.301409448818898
 30
0.0
 10
0.1540787401574803
 20
3.301409448818898
 30
0.0
 10
0.1640748031496063
 20
3.284618110236221
 30
0.0
 10
0.1640748031496063
 20
3.284618110236221
 30
0.0
 10
0.1640748031496063
 20
3.284618110236221
 30
0.0
 10
0.1640748031496063
 20
3.284618110236221
 30
0.0
 10
0.174759842519685
 20
3.269464566929134
 30
0.0
 10
0.174759842519685
 20
3.269464566929134
 30
0.0
 10
0.174759842519685
 20
3.269464566929134
 30
0.0
 10
0.174759842519685
 20
3.269464566929134
 30
0.0
 10
0.1860551181102362
 20
3.255779527559055
 30
0.0
 10
0.1860551181102362
 20
3.255779527559055
 30
0.0
 10
0.1860551181102362
 20
3.255779527559055
 30
0.0
 10
0.1860551181102362
 20
3.255779527559055
 30
0.0
 10
0.1979173228346457
 20
3.243433070866142
 30
0.0
 10
0.1979173228346457
 20
3.243433070866142
 30
0.0
 10
0.1979173228346457
 20
3.243433070866142
 30
0.0
 10
0.1979173228346457
 20
3.243433070866142
 30
0.0
 10
0.2102874015748032
 20
3.232259842519685
 30
0.0
 10
0.2102874015748032
 20
3.232259842519685
 30
0.0
 10
0.2102874015748032
 20
3.232259842519685
 30
0.0
 10
0.2102874015748032
 20
3.232259842519685
 30
0.0
 10
0.2231141732283465
 20
3.222129921259842
 30
0.0
 10
0.2231141732283465
 20
3.222129921259842
 30
0.0
 10
0.2231141732283465
 20
3.222129921259842
 30
0.0
 10
0.2231141732283465
 20
3.222129921259842
 30
0.0
 10
0.2363267716535433
 20
3.21288188976378
 30
0.0
 10
0.2363267716535433
 20
3.21288188976378
 30
0.0
 10
0.2363267716535433
 20
3.21288188976378
 30
0.0
 10
0.2363267716535433
 20
3.21288188976378
 30
0.0
 10
0.2498818897637795
 20
3.204366141732284
 30
0.0
 10
0.2498818897637795
 20
3.204366141732284
 30
0.0
 10
0.2498818897637795
 20
3.204366141732284
 30
0.0
 10
0.2498818897637795
 20
3.204366141732284
 30
0.0
 10
0.2637165354330709
 20
3.196437007874016
 30
0.0
 10
0.2637165354330709
 20
3.196437007874016
 30
0.0
 10
0.2637165354330709
 20
3.196437007874016
 30
0.0
 10
0.2637165354330709
 20
3.196437007874016
 30
0.0
 10
0.2777755905511811
 20
3.188937007874016
 30
0.0
 10
0.2777755905511811
 20
3.188937007874016
 30
0.0
 10
0.2777755905511811
 20
3.188937007874016
 30
0.0
 10
0.2777755905511811
 20
3.188937007874016
 30
0.0
 10
0.291992125984252
 20
3.181736220472441
 30
0.0
 10
0.291992125984252
 20
3.181736220472441
 30
0.0
 10
0.291992125984252
 20
3.181736220472441
 30
0.0
 10
0.291992125984252
 20
3.181736220472441
 30
0.0
 10
0.3063228346456693
 20
3.174673228346457
 30
0.0
 10
0.3063228346456693
 20
3.174673228346457
 30
0.0
 10
0.3063228346456693
 20
3.174673228346457
 30
0.0
 10
0.3063228346456693
 20
3.174673228346457
 30
0.0
 10
0.3207047244094488
 20
3.167602362204725
 30
0.0
 10
0.3207047244094488
 20
3.167602362204725
 30
0.0
 10
0.3207047244094488
 20
3.167602362204725
 30
0.0
 10
0.3207047244094488
 20
3.167602362204725
 30
0.0
 10
0.3350866141732284
 20
3.160366141732284
 30
0.0
 10
0.3350866141732284
 20
3.160366141732284
 30
0.0
 10
0.3350866141732284
 20
3.160366141732284
 30
0.0
 10
0.3350866141732284
 20
3.160366141732284
 30
0.0
 10
0.3493976377952756
 20
3.152830708661417
 30
0.0
 10
0.3493976377952756
 20
3.152830708661417
 30
0.0
 10
0.3493976377952756
 20
3.152830708661417
 30
0.0
 10
0.3493976377952756
 20
3.152830708661417
 30
0.0
 10
0.3635984251968504
 20
3.144838582677166
 30
0.0
 10
0.3635984251968504
 20
3.144838582677166
 30
0.0
 10
0.3635984251968504
 20
3.144838582677166
 30
0.0
 10
0.3635984251968504
 20
3.144838582677166
 30
0.0
 10
0.3776181102362205
 20
3.136248031496063
 30
0.0
 10
0.3776181102362205
 20
3.136248031496063
 30
0.0
 10
0.3776181102362205
 20
3.136248031496063
 30
0.0
 10
0.3776181102362205
 20
3.136248031496063
 30
0.0
 10
0.3914094488188977
 20
3.126893700787402
 30
0.0
 10
0.3914094488188977
 20
3.126893700787402
 30
0.0
 10
0.3914094488188977
 20
3.126893700787402
 30
0.0
 10
0.3914094488188977
 20
3.126893700787402
 30
0.0
 10
0.4049055118110236
 20
3.116649606299213
 30
0.0
 10
0.4049055118110236
 20
3.116649606299213
 30
0.0
 10
0.4049055118110236
 20
3.116649606299213
 30
0.0
 10
0.4049055118110236
 20
3.116649606299213
 30
0.0
 10
0.4180590551181103
 20
3.105350393700788
 30
0.0
 10
0.4180590551181103
 20
3.105350393700788
 30
0.0
 10
0.4180590551181103
 20
3.105350393700788
 30
0.0
 10
0.4180590551181103
 20
3.105350393700788
 30
0.0
 10
0.4308070866141732
 20
3.092854330708661
 30
0.0
 10
0.4308070866141732
 20
3.092854330708661
 30
0.0
 10
0.4308070866141732
 20
3.092854330708661
 30
0.0
 10
0.4308070866141732
 20
3.092854330708661
 30
0.0
 10
0.4430984251968504
 20
3.079003937007874
 30
0.0
 10
0.4430984251968504
 20
3.079003937007874
 30
0.0
 10
0.4430984251968504
 20
3.079003937007874
 30
0.0
 10
0.4430984251968504
 20
3.079003937007874
 30
0.0
 10
0.4548661417322835
 20
3.063665354330709
 30
0.0
 10
0.4548661417322835
 20
3.063665354330709
 30
0.0
 10
0.4548661417322835
 20
3.063665354330709
 30
0.0
 10
0.4548661417322835
 20
3.063665354330709
 30
0.0
 10
0.4660669291338583
 20
3.046673228346457
 30
0.0
 10
0.4660669291338583
 20
3.046673228346457
 30
0.0
 10
0.4660669291338583
 20
3.046673228346457
 30
0.0
 10
0.4660669291338583
 20
3.046673228346457
 30
0.0
 10
0.4766299212598426
 20
3.027893700787402
 30
0.0
 10
0.4766299212598426
 20
3.027893700787402
 30
0.0
 10
0.4766299212598426
 20
3.027893700787402
 30
0.0
 10
0.4766299212598426
 20
3.027893700787402
 30
0.0
 10
0.4865157480314961
 20
3.007161417322835
 30
0.0
 10
0.4865157480314961
 20
3.007161417322835
 30
0.0
 10
0.4865157480314961
 20
3.007161417322835
 30
0.0
 10
0.4865157480314961
 20
3.007161417322835
 30
0.0
 10
0.4842755905511811
 20
2.25405905511811
 30
0.0
 10
0.4842755905511811
 20
2.25405905511811
 30
0.0
 10
0.4842755905511811
 20
2.25405905511811
 30
0.0
 10
0.4842755905511811
 20
2.25405905511811
 30
0.0
 10
0.4743897637795276
 20
2.274791338582678
 30
0.0
 10
0.4743897637795276
 20
2.274791338582678
 30
0.0
 10
0.4743897637795276
 20
2.274791338582678
 30
0.0
 10
0.4743897637795276
 20
2.274791338582678
 30
0.0
 10
0.4638267716535433
 20
2.293570866141732
 30
0.0
 10
0.4638267716535433
 20
2.293570866141732
 30
0.0
 10
0.4638267716535433
 20
2.293570866141732
 30
0.0
 10
0.4638267716535433
 20
2.293570866141732
 30
0.0
 10
0.4526259842519685
 20
2.310562992125985
 30
0.0
 10
0.4526259842519685
 20
2.310562992125985
 30
0.0
 10
0.4526259842519685
 20
2.310562992125985
 30
0.0
 10
0.4526259842519685
 20
2.310562992125985
 30
0.0
 10
0.4408582677165355
 20
2.32590157480315
 30
0.0
 10
0.4408582677165355
 20
2.32590157480315
 30
0.0
 10
0.4408582677165355
 20
2.32590157480315
 30
0.0
 10
0.4408582677165355
 20
2.32590157480315
 30
0.0
 10
0.4285669291338583
 20
2.339751968503937
 30
0.0
 10
0.4285669291338583
 20
2.339751968503937
 30
0.0
 10
0.4285669291338583
 20
2.339751968503937
 30
0.0
 10
0.4285669291338583
 20
2.339751968503937
 30
0.0
 10
0.4158188976377953
 20
2.352248031496063
 30
0.0
 10
0.4158188976377953
 20
2.352248031496063
 30
0.0
 10
0.4158188976377953
 20
2.352248031496063
 30
0.0
 10
0.4158188976377953
 20
2.352248031496063
 30
0.0
 10
0.4026653543307087
 20
2.363547244094488
 30
0.0
 10
0.4026653543307087
 20
2.363547244094488
 30
0.0
 10
0.4026653543307087
 20
2.363547244094488
 30
0.0
 10
0.4026653543307087
 20
2.363547244094488
 30
0.0
 10
0.3891692913385827
 20
2.373791338582677
 30
0.0
 10
0.3891692913385827
 20
2.373791338582677
 30
0.0
 10
0.3891692913385827
 20
2.373791338582677
 30
0.0
 10
0.3891692913385827
 20
2.373791338582677
 30
0.0
 10
0.3753779527559055
 20
2.383145669291339
 30
0.0
 10
0.3753779527559055
 20
2.383145669291339
 30
0.0
 10
0.3753779527559055
 20
2.383145669291339
 30
0.0
 10
0.3753779527559055
 20
2.383145669291339
 30
0.0
 10
0.3613582677165355
 20
2.391736220472441
 30
0.0
 10
0.3613582677165355
 20
2.391736220472441
 30
0.0
 10
0.3613582677165355
 20
2.391736220472441
 30
0.0
 10
0.3613582677165355
 20
2.391736220472441
 30
0.0
 10
0.3471574803149606
 20
2.399728346456693
 30
0.0
 10
0.3471574803149606
 20
2.399728346456693
 30
0.0
 10
0.3471574803149606
 20
2.399728346456693
 30
0.0
 10
0.3471574803149606
 20
2.399728346456693
 30
0.0
 10
0.3328464566929134
 20
2.407263779527559
 30
0.0
 10
0.3328464566929134
 20
2.407263779527559
 30
0.0
 10
0.3328464566929134
 20
2.407263779527559
 30
0.0
 10
0.3328464566929134
 20
2.407263779527559
 30
0.0
 10
0.3184645669291339
 20
2.4145
 30
0.0
 10
0.3184645669291339
 20
2.4145
 30
0.0
 10
0.3184645669291339
 20
2.4145
 30
0.0
 10
0.3184645669291339
 20
2.4145
 30
0.0
 10
0.3040826771653544
 20
2.421570866141733
 30
0.0
 10
0.3040826771653544
 20
2.421570866141733
 30
0.0
 10
0.3040826771653544
 20
2.421570866141733
 30
0.0
 10
0.3040826771653544
 20
2.421570866141733
 30
0.0
 10
0.289751968503937
 20
2.428633858267717
 30
0.0
 10
0.289751968503937
 20
2.428633858267717
 30
0.0
 10
0.289751968503937
 20
2.428633858267717
 30
0.0
 10
0.289751968503937
 20
2.428633858267717
 30
0.0
 10
0.2755354330708661
 20
2.435834645669292
 30
0.0
 10
0.2755354330708661
 20
2.435834645669292
 30
0.0
 10
0.2755354330708661
 20
2.435834645669292
 30
0.0
 10
0.2755354330708661
 20
2.435834645669292
 30
0.0
 10
0.2614763779527559
 20
2.443334645669292
 30
0.0
 10
0.2614763779527559
 20
2.443334645669292
 30
0.0
 10
0.2614763779527559
 20
2.443334645669292
 30
0.0
 10
0.2614763779527559
 20
2.443334645669292
 30
0.0
 10
0.2476417322834646
 20
2.451263779527559
 30
0.0
 10
0.2476417322834646
 20
2.451263779527559
 30
0.0
 10
0.2476417322834646
 20
2.451263779527559
 30
0.0
 10
0.2476417322834646
 20
2.451263779527559
 30
0.0
 10
0.2340866141732284
 20
2.459779527559055
 30
0.0
 10
0.2340866141732284
 20
2.459779527559055
 30
0.0
 10
0.2340866141732284
 20
2.459779527559055
 30
0.0
 10
0.2340866141732284
 20
2.459779527559055
 30
0.0
 10
0.2208740157480315
 20
2.469027559055118
 30
0.0
 10
0.2208740157480315
 20
2.469027559055118
 30
0.0
 10
0.2208740157480315
 20
2.469027559055118
 30
0.0
 10
0.2208740157480315
 20
2.469027559055118
 30
0.0
 10
0.2080472440944882
 20
2.479157480314961
 30
0.0
 10
0.2080472440944882
 20
2.479157480314961
 30
0.0
 10
0.2080472440944882
 20
2.479157480314961
 30
0.0
 10
0.2080472440944882
 20
2.479157480314961
 30
0.0
 10
0.1956771653543307
 20
2.490330708661417
 30
0.0
 10
0.1956771653543307
 20
2.490330708661417
 30
0.0
 10
0.1956771653543307
 20
2.490330708661417
 30
0.0
 10
0.1956771653543307
 20
2.490330708661417
 30
0.0
 10
0.1838149606299213
 20
2.502677165354331
 30
0.0
 10
0.1838149606299213
 20
2.502677165354331
 30
0.0
 10
0.1838149606299213
 20
2.502677165354331
 30
0.0
 10
0.1838149606299213
 20
2.502677165354331
 30
0.0
 10
0.1725196850393701
 20
2.516362204724409
 30
0.0
 10
0.1725196850393701
 20
2.516362204724409
 30
0.0
 10
0.1725196850393701
 20
2.516362204724409
 30
0.0
 10
0.1725196850393701
 20
2.516362204724409
 30
0.0
 10
0.1618346456692913
 20
2.531515748031496
 30
0.0
 10
0.1618346456692913
 20
2.531515748031496
 30
0.0
 10
0.1618346456692913
 20
2.531515748031496
 30
0.0
 10
0.1618346456692913
 20
2.531515748031496
 30
0.0
 10
0.1518385826771654
 20
2.548307086614174
 30
0.0
 10
0.1518385826771654
 20
2.548307086614174
 30
0.0
 10
0.1518385826771654
 20
2.548307086614174
 30
0.0
 10
0.1518385826771654
 20
2.548307086614174
 30
0.0
 10
0.1425708661417323
 20
2.566870078740158
 30
0.0
 10
0.1425708661417323
 20
2.566870078740158
 30
0.0
 10
0.1425708661417323
 20
2.566870078740158
 30
0.0
 10
0.1425708661417323
 20
2.566870078740158
 30
0.0
 10
0.1341023622047244
 20
2.58736220472441
 30
0.0
 10
0.1341023622047244
 20
2.58736220472441
 30
0.0
 10
0.1341023622047244
 20
2.58736220472441
 30
0.0
 10
0.1341023622047244
 20
2.58736220472441
 30
0.0
 10
0.1264763779527559
 20
2.60992125984252
 30
0.0
 10
0.1264763779527559
 20
2.60992125984252
 30
0.0
 10
0.1264763779527559
 20
2.60992125984252
 30
0.0
 10
0.1264763779527559
 20
2.60992125984252
 30
0.0
 10
0.1197598425196851
 20
2.634712598425197
 30
0.0
 10
0.1197598425196851
 20
2.634712598425197
 30
0.0
 10
0.1197598425196851
 20
2.634712598425197
 30
0.0
 10
0.1197598425196851
 20
2.634712598425197
 30
0.0
 10
0.114003937007874
 20
2.661874015748031
 30
0.0
 10
0.114003937007874
 20
2.661874015748031
 30
0.0
 10
0.114003937007874
 20
2.661874015748031
 30
0.0
 10
0.114003937007874
 20
2.661874015748031
 30
0.0
 10
0.1092755905511811
 20
2.69155905511811
 30
0.0
 10
0.1092755905511811
 20
2.69155905511811
 30
0.0
  0
SPLINE
  5
58
330
1F
100
AcDbEntity
  8
LAYER_1
 62
   252
100
AcDbSpline
210
0.0
220
0.0
230
1.0
 70
    11
 71
     3
 72
    20
 73
    16
 74
     0
 42
0.0000000001
 43
0.0000000001
 40
0.0
 40
0.0
 40
0.0
 40
0.0
 40
0.25
 40
0.25
 40
0.25
 40
0.25
 40
0.5
 40
0.5
 40
0.5
 40
0.5
 40
0.75
 40
0.75
 40
0.75
 40
0.75
 40
1.0
 40
1.0
 40
1.0
 40
1.0
 10
0.4842755905511811
 20
2.25405905511811
 30
0.0
 10
0.4842755905511811
 20
2.25405905511811
 30
0.0
 10
0.4865157480314961
 20
3.007161417322835
 30
0.0
 10
0.4865157480314961
 20
3.007161417322835
 30
0.0
 10
0.4865157480314961
 20
3.007161417322835
 30
0.0
 10
0.4865157480314961
 20
3.007161417322835
 30
0.0
 10
0.6115157480314961
 20
3.007161417322835
 30
0.0
 10
0.6115157480314961
 20
3.007161417322835
 30
0.0
 10
0.6115157480314961
 20
3.007161417322835
 30
0.0
 10
0.6115157480314961
 20
3.007161417322835
 30
0.0
 10
0.6092755905511811
 20
2.25405905511811
 30
0.0
 10
0.6092755905511811
 20
2.25405905511811
 30
0.0
 10
0.6092755905511811
 20
2.25405905511811
 30
0.0
 10
0.6092755905511811
 20
2.25405905511811
 30
0.0
 10
0.4842755905511811
 20
2.25405905511811
 30
0.0
 10
0.4842755905511811
 20
2.25405905511811
 30
0.0
  0
SPLINE
  5
59
330
1F
100
AcDbEntity
  8
LAYER_1
 62
   250
100
AcDbSpline
210
0.0
220
0.0
230
1.0
 70
    11
 71
     3
 72
    20
 73
    16
 74
     0
 42
0.0000000001
 43
0.0000000001
 40
0.0
 40
0.0
 40
0.0
 40
0.0
 40
0.25
 40
0.25
 40
0.25
 40
0.25
 40
0.5
 40
0.5
 40
0.5
 40
0.5
 40
0.75
 40
0.75
 40
0.75
 40
0.75
 40
1.0
 40
1.0
 40
1.0
 40
1.0
 10
0.4842755905511811
 20
2.25405905511811
 30
0.0
 10
0.4842755905511811
 20
2.25405905511811
 30
0.0
 10
0.4865157480314961
 20
3.007161417322835
 30
0.0
 10
0.4865157480314961
 20
3.007161417322835
 30
0.0
 10
0.4865157480314961
 20
3.007161417322835
 30
0.0
 10
0.4865157480314961
 20
3.007161417322835
 30
0.0
 10
0.6115157480314961
 20
3.007161417322835
 30
0.0
 10
0.6115157480314961
 20
3.007161417322835
 30
0.0
 10
0.6115157480314961
 20
3.007161417322835
 30
0.0
 10
0.6115157480314961
 20
3.007161417322835
 30
0.0
 10
0.6092755905511811
 20
2.25405905511811
 30
0.0
 10
0.6092755905511811
 20
2.25405905511811
 30
0.0
 10
0.6092755905511811
 20
2.25405905511811
 30
0.0
 10
0.6092755905511811
 20
2.25405905511811
 30
0.0
 10
0.4842755905511811
 20
2.25405905511811
 30
0.0
 10
0.4842755905511811
 20
2.25405905511811
 30
0.0
  0
SPLINE
  5
5A
330
1F
100
AcDbEntity
  8
LAYER_1
 62
   252
100
AcDbSpline
210
0.0
220
0.0
230
1.0
 70
    11
 71
     3
 72
    20
 73
    16
 74
     0
 42
0.0000000001
 43
0.0000000001
 40
0.0
 40
0.0
 40
0.0
 40
0.0
 40
0.25
 40
0.25
 40
0.25
 40
0.25
 40
0.5
 40
0.5
 40
0.5
 40
0.5
 40
0.75
 40
0.75
 40
0.75
 40
0.75
 40
1.0
 40
1.0
 40
1.0
 40
1.0
 10
-0.0782244094488189
 20
2.69155905511811
 30
0.0
 10
-0.0782244094488189
 20
2.69155905511811
 30
0.0
 10
-0.0759842519685039
 20
3.444661417322835
 30
0.0
 10
-0.0759842519685039
 20
3.444661417322835
 30
0.0
 10
-0.0759842519685039
 20
3.444661417322835
 30
0.0
 10
-0.0759842519685039
 20
3.444661417322835
 30
0.0
 10
0.1115157480314961
 20
3.444661417322835
 30
0.0
 10
0.1115157480314961
 20
3.444661417322835
 30
0.0
 10
0.1115157480314961
 20
3.444661417322835
 30
0.0
 10
0.1115157480314961
 20
3.444661417322835
 30
0.0
 10
0.1092755905511811
 20
2.69155905511811
 30
0.0
 10
0.1092755905511811
 20
2.69155905511811
 30
0.0
 10
0.1092755905511811
 20
2.69155905511811
 30
0.0
 10
0.1092755905511811
 20
2.69155905511811
 30
0.0
 10
-0.0782244094488189
 20
2.69155905511811
 30
0.0
 10
-0.0782244094488189
 20
2.69155905511811
 30
0.0
  0
SPLINE
  5
5B
330
1F
100
AcDbEntity
  8
LAYER_1
 62
   250
100
AcDbSpline
210
0.0
220
0.0
230
1.0
 70
    11
 71
     3
 72
    20
 73
    16
 74
     0
 42
0.0000000001
 43
0.0000000001
 40
0.0
 40
0.0
 40
0.0
 40
0.0
 40
0.25
 40
0.25
 40
0.25
 40
0.25
 40
0.5
 40
0.5
 40
0.5
 40
0.5
 40
0.75
 40
0.75
 40
0.75
 40
0.75
 40
1.0
 40
1.0
 40
1.0
 40
1.0
 10
-0.0782244094488189
 20
2.69155905511811
 30
0.0
 10
-0.0782244094488189
 20
2.69155905511811
 30
0.0
 10
-0.0759842519685039
 20
3.444661417322835
 30
0.0
 10
-0.0759842519685039
 20
3.444661417322835
 30
0.0
 10
-0.0759842519685039
 20
3.444661417322835
 30
0.0
 10
-0.0759842519685039
 20
3.444661417322835
 30
0.0
 10
0.1115157480314961
 20
3.444661417322835
 30
0.0
 10
0.1115157480314961
 20
3.444661417322835
 30
0.0
 10
0.1115157480314961
 20
3.444661417322835
 30
0.0
 10
0.1115157480314961
 20
3.444661417322835
 30
0.0
 10
0.1092755905511811
 20
2.69155905511811
 30
0.0
 10
0.1092755905511811
 20
2.69155905511811
 30
0.0
 10
0.1092755905511811
 20
2.69155905511811
 30
0.0
 10
0.1092755905511811
 20
2.69155905511811
 30
0.0
 10
-0.0782244094488189
 20
2.69155905511811
 30
0.0
 10
-0.0782244094488189
 20
2.69155905511811
 30
0.0
  0
SPLINE
  5
5C
330
1F
100
AcDbEntity
  8
LAYER_1
 62
   252
100
AcDbSpline
210
0.0
220
0.0
230
1.0
 70
    11
 71
     3
 72
    20
 73
    16
 74
     0
 42
0.0000000001
 43
0.0000000001
 40
0.0
 40
0.0
 40
0.0
 40
0.0
 40
0.25
 40
0.25
 40
0.25
 40
0.25
 40
0.5
 40
0.5
 40
0.5
 40
0.5
 40
0.75
 40
0.75
 40
0.75
 40
0.75
 40
1.0
 40
1.0
 40
1.0
 40
1.0
 10
0.1092755905511811
 20
2.69155905511811
 30
0.0
 10
0.1092755905511811
 20
2.69155905511811
 30
0.0
 10
0.1115157480314961
 20
3.444661417322835
 30
0.0
 10
0.1115157480314961
 20
3.444661417322835
 30
0.0
 10
0.1115157480314961
 20
3.444661417322835
 30
0.0
 10
0.1115157480314961
 20
3.444661417322835
 30
0.0
 10
0.116244094488189
 20
3.414976377952756
 30
0.0
 10
0.116244094488189
 20
3.414976377952756
 30
0.0
 10
0.116244094488189
 20
3.414976377952756
 30
0.0
 10
0.116244094488189
 20
3.414976377952756
 30
0.0
 10
0.114003937007874
 20
2.661874015748031
 30
0.0
 10
0.114003937007874
 20
2.661874015748031
 30
0.0
 10
0.114003937007874
 20
2.661874015748031
 30
0.0
 10
0.114003937007874
 20
2.661874015748031
 30
0.0
 10
0.1092755905511811
 20
2.69155905511811
 30
0.0
 10
0.1092755905511811
 20
2.69155905511811
 30
0.0
  0
SPLINE
  5
5D
330
1F
100
AcDbEntity
  8
LAYER_1
 62
   252
100
AcDbSpline
210
0.0
220
0.0
230
1.0
 70
    11
 71
     3
 72
    20
 73
    16
 74
     0
 42
0.0000000001
 43
0.0000000001
 40
0.0
 40
0.0
 40
0.0
 40
0.0
 40
0.25
 40
0.25
 40
0.25
 40
0.25
 40
0.5
 40
0.5
 40
0.5
 40
0.5
 40
0.75
 40
0.75
 40
0.75
 40
0.75
 40
1.0
 40
1.0
 40
1.0
 40
1.0
 10
0.114003937007874
 20
2.661874015748031
 30
0.0
 10
0.114003937007874
 20
2.661874015748031
 30
0.0
 10
0.116244094488189
 20
3.414976377952756
 30
0.0
 10
0.116244094488189
 20
3.414976377952756
 30
0.0
 10
0.116244094488189
 20
3.414976377952756
 30
0.0
 10
0.116244094488189
 20
3.414976377952756
 30
0.0
 10
0.122
 20
3.387814960629922
 30
0.0
 10
0.122
 20
3.387814960629922
 30
0.0
 10
0.122
 20
3.387814960629922
 30
0.0
 10
0.122
 20
3.387814960629922
 30
0.0
 10
0.1197598425196851
 20
2.634712598425197
 30
0.0
 10
0.1197598425196851
 20
2.634712598425197
 30
0.0
 10
0.1197598425196851
 20
2.634712598425197
 30
0.0
 10
0.1197598425196851
 20
2.634712598425197
 30
0.0
 10
0.114003937007874
 20
2.661874015748031
 30
0.0
 10
0.114003937007874
 20
2.661874015748031
 30
0.0
  0
SPLINE
  5
5E
330
1F
100
AcDbEntity
  8
LAYER_1
 62
   252
100
AcDbSpline
210
0.0
220
0.0
230
1.0
 70
    11
 71
     3
 72
    28
 73
    24
 74
     0
 42
0.0000000001
 43
0.0000000001
 40
0.0
 40
0.0
 40
0.0
 40
0.0
 40
0.1666666666666667
 40
0.1666666666666667
 40
0.1666666666666667
 40
0.1666666666666667
 40
0.3333333333333333
 40
0.3333333333333333
 40
0.3333333333333333
 40
0.3333333333333333
 40
0.5
 40
0.5
 40
0.5
 40
0.5
 40
0.6666666666666666
 40
0.6666666666666666
 40
0.6666666666666666
 40
0.6666666666666666
 40
0.8333333333333333
 40
0.8333333333333333
 40
0.8333333333333333
 40
0.8333333333333333
 40
1.0
 40
1.0
 40
1.0
 40
1.0
 10
0.1197598425196851
 20
2.634712598425197
 30
0.0
 10
0.1197598425196851
 20
2.634712598425197
 30
0.0
 10
0.122
 20
3.387814960629922
 30
0.0
 10
0.122
 20
3.387814960629922
 30
0.0
 10
0.122
 20
3.387814960629922
 30
0.0
 10
0.122
 20
3.387814960629922
 30
0.0
 10
0.1287165354330709
 20
3.363023622047244
 30
0.0
 10
0.1287165354330709
 20
3.363023622047244
 30
0.0
 10
0.1287165354330709
 20
3.363023622047244
 30
0.0
 10
0.1287165354330709
 20
3.363023622047244
 30
0.0
 10
0.1363425196850394
 20
3.340464566929134
 30
0.0
 10
0.1363425196850394
 20
3.340464566929134
 30
0.0
 10
0.1363425196850394
 20
3.340464566929134
 30
0.0
 10
0.1363425196850394
 20
3.340464566929134
 30
0.0
 10
0.1341023622047244
 20
2.58736220472441
 30
0.0
 10
0.1341023622047244
 20
2.58736220472441
 30
0.0
 10
0.1341023622047244
 20
2.58736220472441
 30
0.0
 10
0.1341023622047244
 20
2.58736220472441
 30
0.0
 10
0.1264763779527559
 20
2.60992125984252
 30
0.0
 10
0.1264763779527559
 20
2.60992125984252
 30
0.0
 10
0.1264763779527559
 20
2.60992125984252
 30
0.0
 10
0.1264763779527559
 20
2.60992125984252
 30
0.0
 10
0.1197598425196851
 20
2.634712598425197
 30
0.0
 10
0.1197598425196851
 20
2.634712598425197
 30
0.0
  0
SPLINE
  5
5F
330
1F
100
AcDbEntity
  8
LAYER_1
 62
   253
100
AcDbSpline
210
0.0
220
0.0
230
1.0
 70
    11
 71
     3
 72
    28
 73
    24
 74
     0
 42
0.0000000001
 43
0.0000000001
 40
0.0
 40
0.0
 40
0.0
 40
0.0
 40
0.1666666666666667
 40
0.1666666666666667
 40
0.1666666666666667
 40
0.1666666666666667
 40
0.3333333333333333
 40
0.3333333333333333
 40
0.3333333333333333
 40
0.3333333333333333
 40
0.5
 40
0.5
 40
0.5
 40
0.5
 40
0.6666666666666666
 40
0.6666666666666666
 40
0.6666666666666666
 40
0.6666666666666666
 40
0.8333333333333333
 40
0.8333333333333333
 40
0.8333333333333333
 40
0.8333333333333333
 40
1.0
 40
1.0
 40
1.0
 40
1.0
 10
0.1341023622047244
 20
2.58736220472441
 30
0.0
 10
0.1341023622047244
 20
2.58736220472441
 30
0.0
 10
0.1363425196850394
 20
3.340464566929134
 30
0.0
 10
0.1363425196850394
 20
3.340464566929134
 30
0.0
 10
0.1363425196850394
 20
3.340464566929134
 30
0.0
 10
0.1363425196850394
 20
3.340464566929134
 30
0.0
 10
0.1448110236220473
 20
3.319972440944882
 30
0.0
 10
0.1448110236220473
 20
3.319972440944882
 30
0.0
 10
0.1448110236220473
 20
3.319972440944882
 30
0.0
 10
0.1448110236220473
 20
3.319972440944882
 30
0.0
 10
0.1540787401574803
 20
3.301409448818898
 30
0.0
 10
0.1540787401574803
 20
3.301409448818898
 30
0.0
 10
0.1540787401574803
 20
3.301409448818898
 30
0.0
 10
0.1540787401574803
 20
3.301409448818898
 30
0.0
 10
0.1518385826771654
 20
2.548307086614174
 30
0.0
 10
0.1518385826771654
 20
2.548307086614174
 30
0.0
 10
0.1518385826771654
 20
2.548307086614174
 30
0.0
 10
0.1518385826771654
 20
2.548307086614174
 30
0.0
 10
0.1425708661417323
 20
2.566870078740158
 30
0.0
 10
0.1425708661417323
 20
2.566870078740158
 30
0.0
 10
0.1425708661417323
 20
2.566870078740158
 30
0.0
 10
0.1425708661417323
 20
2.566870078740158
 30
0.0
 10
0.1341023622047244
 20
2.58736220472441
 30
0.0
 10
0.1341023622047244
 20
2.58736220472441
 30
0.0
  0
SPLINE
  5
60
330
1F
100
AcDbEntity
  8
LAYER_1
 62
   253
100
AcDbSpline
210
0.0
220
0.0
230
1.0
 70
    11
 71
     3
 72
    28
 73
    24
 74
     0
 42
0.0000000001
 43
0.0000000001
 40
0.0
 40
0.0
 40
0.0
 40
0.0
 40
0.1666666666666667
 40
0.1666666666666667
 40
0.1666666666666667
 40
0.1666666666666667
 40
0.3333333333333333
 40
0.3333333333333333
 40
0.3333333333333333
 40
0.3333333333333333
 40
0.5
 40
0.5
 40
0.5
 40
0.5
 40
0.6666666666666666
 40
0.6666666666666666
 40
0.6666666666666666
 40
0.6666666666666666
 40
0.8333333333333333
 40
0.8333333333333333
 40
0.8333333333333333
 40
0.8333333333333333
 40
1.0
 40
1.0
 40
1.0
 40
1.0
 10
0.1518385826771654
 20
2.548307086614174
 30
0.0
 10
0.1518385826771654
 20
2.548307086614174
 30
0.0
 10
0.1540787401574803
 20
3.301409448818898
 30
0.0
 10
0.1540787401574803
 20
3.301409448818898
 30
0.0
 10
0.1540787401574803
 20
3.301409448818898
 30
0.0
 10
0.1540787401574803
 20
3.301409448818898
 30
0.0
 10
0.1640748031496063
 20
3.284618110236221
 30
0.0
 10
0.1640748031496063
 20
3.284618110236221
 30
0.0
 10
0.1640748031496063
 20
3.284618110236221
 30
0.0
 10
0.1640748031496063
 20
3.284618110236221
 30
0.0
 10
0.174759842519685
 20
3.269464566929134
 30
0.0
 10
0.174759842519685
 20
3.269464566929134
 30
0.0
 10
0.174759842519685
 20
3.269464566929134
 30
0.0
 10
0.174759842519685
 20
3.269464566929134
 30
0.0
 10
0.1725196850393701
 20
2.516362204724409
 30
0.0
 10
0.1725196850393701
 20
2.516362204724409
 30
0.0
 10
0.1725196850393701
 20
2.516362204724409
 30
0.0
 10
0.1725196850393701
 20
2.516362204724409
 30
0.0
 10
0.1618346456692913
 20
2.531515748031496
 30
0.0
 10
0.1618346456692913
 20
2.531515748031496
 30
0.0
 10
0.1618346456692913
 20
2.531515748031496
 30
0.0
 10
0.1618346456692913
 20
2.531515748031496
 30
0.0
 10
0.1518385826771654
 20
2.548307086614174
 30
0.0
 10
0.1518385826771654
 20
2.548307086614174
 30
0.0
  0
SPLINE
  5
61
330
1F
100
AcDbEntity
  8
LAYER_1
 62
   253
100
AcDbSpline
210
0.0
220
0.0
230
1.0
 70
    11
 71
     3
 72
    28
 73
    24
 74
     0
 42
0.0000000001
 43
0.0000000001
 40
0.0
 40
0.0
 40
0.0
 40
0.0
 40
0.1666666666666667
 40
0.1666666666666667
 40
0.1666666666666667
 40
0.1666666666666667
 40
0.3333333333333333
 40
0.3333333333333333
 40
0.3333333333333333
 40
0.3333333333333333
 40
0.5
 40
0.5
 40
0.5
 40
0.5
 40
0.6666666666666666
 40
0.6666666666666666
 40
0.6666666666666666
 40
0.6666666666666666
 40
0.8333333333333333
 40
0.8333333333333333
 40
0.8333333333333333
 40
0.8333333333333333
 40
1.0
 40
1.0
 40
1.0
 40
1.0
 10
0.1725196850393701
 20
2.516362204724409
 30
0.0
 10
0.1725196850393701
 20
2.516362204724409
 30
0.0
 10
0.174759842519685
 20
3.269464566929134
 30
0.0
 10
0.174759842519685
 20
3.269464566929134
 30
0.0
 10
0.174759842519685
 20
3.269464566929134
 30
0.0
 10
0.174759842519685
 20
3.269464566929134
 30
0.0
 10
0.1860551181102362
 20
3.255779527559055
 30
0.0
 10
0.1860551181102362
 20
3.255779527559055
 30
0.0
 10
0.1860551181102362
 20
3.255779527559055
 30
0.0
 10
0.1860551181102362
 20
3.255779527559055
 30
0.0
 10
0.1979173228346457
 20
3.243433070866142
 30
0.0
 10
0.1979173228346457
 20
3.243433070866142
 30
0.0
 10
0.1979173228346457
 20
3.243433070866142
 30
0.0
 10
0.1979173228346457
 20
3.243433070866142
 30
0.0
 10
0.1956771653543307
 20
2.490330708661417
 30
0.0
 10
0.1956771653543307
 20
2.490330708661417
 30
0.0
 10
0.1956771653543307
 20
2.490330708661417
 30
0.0
 10
0.1956771653543307
 20
2.490330708661417
 30
0.0
 10
0.1838149606299213
 20
2.502677165354331
 30
0.0
 10
0.1838149606299213
 20
2.502677165354331
 30
0.0
 10
0.1838149606299213
 20
2.502677165354331
 30
0.0
 10
0.1838149606299213
 20
2.502677165354331
 30
0.0
 10
0.1725196850393701
 20
2.516362204724409
 30
0.0
 10
0.1725196850393701
 20
2.516362204724409
 30
0.0
  0
SPLINE
  5
62
330
1F
100
AcDbEntity
  8
LAYER_1
 62
   253
100
AcDbSpline
210
0.0
220
0.0
230
1.0
 70
    11
 71
     3
 72
    36
 73
    32
 74
     0
 42
0.0000000001
 43
0.0000000001
 40
0.0
 40
0.0
 40
0.0
 40
0.0
 40
0.125
 40
0.125
 40
0.125
 40
0.125
 40
0.25
 40
0.25
 40
0.25
 40
0.25
 40
0.375
 40
0.375
 40
0.375
 40
0.375
 40
0.5
 40
0.5
 40
0.5
 40
0.5
 40
0.625
 40
0.625
 40
0.625
 40
0.625
 40
0.75
 40
0.75
 40
0.75
 40
0.75
 40
0.875
 40
0.875
 40
0.875
 40
0.875
 40
1.0
 40
1.0
 40
1.0
 40
1.0
 10
0.1956771653543307
 20
2.490330708661417
 30
0.0
 10
0.1956771653543307
 20
2.490330708661417
 30
0.0
 10
0.1979173228346457
 20
3.243433070866142
 30
0.0
 10
0.1979173228346457
 20
3.243433070866142
 30
0.0
 10
0.1979173228346457
 20
3.243433070866142
 30
0.0
 10
0.1979173228346457
 20
3.243433070866142
 30
0.0
 10
0.2102874015748032
 20
3.232259842519685
 30
0.0
 10
0.2102874015748032
 20
3.232259842519685
 30
0.0
 10
0.2102874015748032
 20
3.232259842519685
 30
0.0
 10
0.2102874015748032
 20
3.232259842519685
 30
0.0
 10
0.2231141732283465
 20
3.222129921259842
 30
0.0
 10
0.2231141732283465
 20
3.222129921259842
 30
0.0
 10
0.2231141732283465
 20
3.222129921259842
 30
0.0
 10
0.2231141732283465
 20
3.222129921259842
 30
0.0
 10
0.2363267716535433
 20
3.21288188976378
 30
0.0
 10
0.2363267716535433
 20
3.21288188976378
 30
0.0
 10
0.2363267716535433
 20
3.21288188976378
 30
0.0
 10
0.2363267716535433
 20
3.21288188976378
 30
0.0
 10
0.2340866141732284
 20
2.459779527559055
 30
0.0
 10
0.2340866141732284
 20
2.459779527559055
 30
0.0
 10
0.2340866141732284
 20
2.459779527559055
 30
0.0
 10
0.2340866141732284
 20
2.459779527559055
 30
0.0
 10
0.2208740157480315
 20
2.469027559055118
 30
0.0
 10
0.2208740157480315
 20
2.469027559055118
 30
0.0
 10
0.2208740157480315
 20
2.469027559055118
 30
0.0
 10
0.2208740157480315
 20
2.469027559055118
 30
0.0
 10
0.2080472440944882
 20
2.479157480314961
 30
0.0
 10
0.2080472440944882
 20
2.479157480314961
 30
0.0
 10
0.2080472440944882
 20
2.479157480314961
 30
0.0
 10
0.2080472440944882
 20
2.479157480314961
 30
0.0
 10
0.1956771653543307
 20
2.490330708661417
 30
0.0
 10
0.1956771653543307
 20
2.490330708661417
 30
0.0
  0
SPLINE
  5
63
330
1F
100
AcDbEntity
  8
LAYER_1
 62
   253
100
AcDbSpline
210
0.0
220
0.0
230
1.0
 70
    11
 71
     3
 72
    36
 73
    32
 74
     0
 42
0.0000000001
 43
0.0000000001
 40
0.0
 40
0.0
 40
0.0
 40
0.0
 40
0.125
 40
0.125
 40
0.125
 40
0.125
 40
0.25
 40
0.25
 40
0.25
 40
0.25
 40
0.375
 40
0.375
 40
0.375
 40
0.375
 40
0.5
 40
0.5
 40
0.5
 40
0.5
 40
0.625
 40
0.625
 40
0.625
 40
0.625
 40
0.75
 40
0.75
 40
0.75
 40
0.75
 40
0.875
 40
0.875
 40
0.875
 40
0.875
 40
1.0
 40
1.0
 40
1.0
 40
1.0
 10
0.2340866141732284
 20
2.459779527559055
 30
0.0
 10
0.2340866141732284
 20
2.459779527559055
 30
0.0
 10
0.2363267716535433
 20
3.21288188976378
 30
0.0
 10
0.2363267716535433
 20
3.21288188976378
 30
0.0
 10
0.2363267716535433
 20
3.21288188976378
 30
0.0
 10
0.2363267716535433
 20
3.21288188976378
 30
0.0
 10
0.2498818897637795
 20
3.204366141732284
 30
0.0
 10
0.2498818897637795
 20
3.204366141732284
 30
0.0
 10
0.2498818897637795
 20
3.204366141732284
 30
0.0
 10
0.2498818897637795
 20
3.204366141732284
 30
0.0
 10
0.2637165354330709
 20
3.196437007874016
 30
0.0
 10
0.2637165354330709
 20
3.196437007874016
 30
0.0
 10
0.2637165354330709
 20
3.196437007874016
 30
0.0
 10
0.2637165354330709
 20
3.196437007874016
 30
0.0
 10
0.2777755905511811
 20
3.188937007874016
 30
0.0
 10
0.2777755905511811
 20
3.188937007874016
 30
0.0
 10
0.2777755905511811
 20
3.188937007874016
 30
0.0
 10
0.2777755905511811
 20
3.188937007874016
 30
0.0
 10
0.2755354330708661
 20
2.435834645669292
 30
0.0
 10
0.2755354330708661
 20
2.435834645669292
 30
0.0
 10
0.2755354330708661
 20
2.435834645669292
 30
0.0
 10
0.2755354330708661
 20
2.435834645669292
 30
0.0
 10
0.2614763779527559
 20
2.443334645669292
 30
0.0
 10
0.2614763779527559
 20
2.443334645669292
 30
0.0
 10
0.2614763779527559
 20
2.443334645669292
 30
0.0
 10
0.2614763779527559
 20
2.443334645669292
 30
0.0
 10
0.2476417322834646
 20
2.451263779527559
 30
0.0
 10
0.2476417322834646
 20
2.451263779527559
 30
0.0
 10
0.2476417322834646
 20
2.451263779527559
 30
0.0
 10
0.2476417322834646
 20
2.451263779527559
 30
0.0
 10
0.2340866141732284
 20
2.459779527559055
 30
0.0
 10
0.2340866141732284
 20
2.459779527559055
 30
0.0
  0
SPLINE
  5
64
330
1F
100
AcDbEntity
  8
LAYER_1
 62
   253
100
AcDbSpline
210
0.0
220
0.0
230
1.0
 70
    11
 71
     3
 72
    36
 73
    32
 74
     0
 42
0.0000000001
 43
0.0000000001
 40
0.0
 40
0.0
 40
0.0
 40
0.0
 40
0.125
 40
0.125
 40
0.125
 40
0.125
 40
0.25
 40
0.25
 40
0.25
 40
0.25
 40
0.375
 40
0.375
 40
0.375
 40
0.375
 40
0.5
 40
0.5
 40
0.5
 40
0.5
 40
0.625
 40
0.625
 40
0.625
 40
0.625
 40
0.75
 40
0.75
 40
0.75
 40
0.75
 40
0.875
 40
0.875
 40
0.875
 40
0.875
 40
1.0
 40
1.0
 40
1.0
 40
1.0
 10
0.2755354330708661
 20
2.435834645669292
 30
0.0
 10
0.2755354330708661
 20
2.435834645669292
 30
0.0
 10
0.2777755905511811
 20
3.188937007874016
 30
0.0
 10
0.2777755905511811
 20
3.188937007874016
 30
0.0
 10
0.2777755905511811
 20
3.188937007874016
 30
0.0
 10
0.2777755905511811
 20
3.188937007874016
 30
0.0
 10
0.291992125984252
 20
3.181736220472441
 30
0.0
 10
0.291992125984252
 20
3.181736220472441
 30
0.0
 10
0.291992125984252
 20
3.181736220472441
 30
0.0
 10
0.291992125984252
 20
3.181736220472441
 30
0.0
 10
0.3063228346456693
 20
3.174673228346457
 30
0.0
 10
0.3063228346456693
 20
3.174673228346457
 30
0.0
 10
0.3063228346456693
 20
3.174673228346457
 30
0.0
 10
0.3063228346456693
 20
3.174673228346457
 30
0.0
 10
0.3207047244094488
 20
3.167602362204725
 30
0.0
 10
0.3207047244094488
 20
3.167602362204725
 30
0.0
 10
0.3207047244094488
 20
3.167602362204725
 30
0.0
 10
0.3207047244094488
 20
3.167602362204725
 30
0.0
 10
0.3184645669291339
 20
2.4145
 30
0.0
 10
0.3184645669291339
 20
2.4145
 30
0.0
 10
0.3184645669291339
 20
2.4145
 30
0.0
 10
0.3184645669291339
 20
2.4145
 30
0.0
 10
0.3040826771653544
 20
2.421570866141733
 30
0.0
 10
0.3040826771653544
 20
2.421570866141733
 30
0.0
 10
0.3040826771653544
 20
2.421570866141733
 30
0.0
 10
0.3040826771653544
 20
2.421570866141733
 30
0.0
 10
0.289751968503937
 20
2.428633858267717
 30
0.0
 10
0.289751968503937
 20
2.428633858267717
 30
0.0
 10
0.289751968503937
 20
2.428633858267717
 30
0.0
 10
0.289751968503937
 20
2.428633858267717
 30
0.0
 10
0.2755354330708661
 20
2.435834645669292
 30
0.0
 10
0.2755354330708661
 20
2.435834645669292
 30
0.0
  0
SPLINE
  5
65
330
1F
100
AcDbEntity
  8
LAYER_1
 62
   253
100
AcDbSpline
210
0.0
220
0.0
230
1.0
 70
    11
 71
     3
 72
    36
 73
    32
 74
     0
 42
0.0000000001
 43
0.0000000001
 40
0.0
 40
0.0
 40
0.0
 40
0.0
 40
0.125
 40
0.125
 40
0.125
 40
0.125
 40
0.25
 40
0.25
 40
0.25
 40
0.25
 40
0.375
 40
0.375
 40
0.375
 40
0.375
 40
0.5
 40
0.5
 40
0.5
 40
0.5
 40
0.625
 40
0.625
 40
0.625
 40
0.625
 40
0.75
 40
0.75
 40
0.75
 40
0.75
 40
0.875
 40
0.875
 40
0.875
 40
0.875
 40
1.0
 40
1.0
 40
1.0
 40
1.0
 10
0.3184645669291339
 20
2.4145
 30
0.0
 10
0.3184645669291339
 20
2.4145
 30
0.0
 10
0.3207047244094488
 20
3.167602362204725
 30
0.0
 10
0.3207047244094488
 20
3.167602362204725
 30
0.0
 10
0.3207047244094488
 20
3.167602362204725
 30
0.0
 10
0.3207047244094488
 20
3.167602362204725
 30
0.0
 10
0.3350866141732284
 20
3.160366141732284
 30
0.0
 10
0.3350866141732284
 20
3.160366141732284
 30
0.0
 10
0.3350866141732284
 20
3.160366141732284
 30
0.0
 10
0.3350866141732284
 20
3.160366141732284
 30
0.0
 10
0.3493976377952756
 20
3.152830708661417
 30
0.0
 10
0.3493976377952756
 20
3.152830708661417
 30
0.0
 10
0.3493976377952756
 20
3.152830708661417
 30
0.0
 10
0.3493976377952756
 20
3.152830708661417
 30
0.0
 10
0.3635984251968504
 20
3.144838582677166
 30
0.0
 10
0.3635984251968504
 20
3.144838582677166
 30
0.0
 10
0.3635984251968504
 20
3.144838582677166
 30
0.0
 10
0.3635984251968504
 20
3.144838582677166
 30
0.0
 10
0.3613582677165355
 20
2.391736220472441
 30
0.0
 10
0.3613582677165355
 20
2.391736220472441
 30
0.0
 10
0.3613582677165355
 20
2.391736220472441
 30
0.0
 10
0.3613582677165355
 20
2.391736220472441
 30
0.0
 10
0.3471574803149606
 20
2.399728346456693
 30
0.0
 10
0.3471574803149606
 20
2.399728346456693
 30
0.0
 10
0.3471574803149606
 20
2.399728346456693
 30
0.0
 10
0.3471574803149606
 20
2.399728346456693
 30
0.0
 10
0.3328464566929134
 20
2.407263779527559
 30
0.0
 10
0.3328464566929134
 20
2.407263779527559
 30
0.0
 10
0.3328464566929134
 20
2.407263779527559
 30
0.0
 10
0.3328464566929134
 20
2.407263779527559
 30
0.0
 10
0.3184645669291339
 20
2.4145
 30
0.0
 10
0.3184645669291339
 20
2.4145
 30
0.0
  0
SPLINE
  5
66
330
1F
100
AcDbEntity
  8
LAYER_1
 62
   253
100
AcDbSpline
210
0.0
220
0.0
230
1.0
 70
    11
 71
     3
 72
    28
 73
    24
 74
     0
 42
0.0000000001
 43
0.0000000001
 40
0.0
 40
0.0
 40
0.0
 40
0.0
 40
0.1666666666666667
 40
0.1666666666666667
 40
0.1666666666666667
 40
0.1666666666666667
 40
0.3333333333333333
 40
0.3333333333333333
 40
0.3333333333333333
 40
0.3333333333333333
 40
0.5
 40
0.5
 40
0.5
 40
0.5
 40
0.6666666666666666
 40
0.6666666666666666
 40
0.6666666666666666
 40
0.6666666666666666
 40
0.8333333333333333
 40
0.8333333333333333
 40
0.8333333333333333
 40
0.8333333333333333
 40
1.0
 40
1.0
 40
1.0
 40
1.0
 10
0.3613582677165355
 20
2.391736220472441
 30
0.0
 10
0.3613582677165355
 20
2.391736220472441
 30
0.0
 10
0.3635984251968504
 20
3.144838582677166
 30
0.0
 10
0.3635984251968504
 20
3.144838582677166
 30
0.0
 10
0.3635984251968504
 20
3.144838582677166
 30
0.0
 10
0.3635984251968504
 20
3.144838582677166
 30
0.0
 10
0.3776181102362205
 20
3.136248031496063
 30
0.0
 10
0.3776181102362205
 20
3.136248031496063
 30
0.0
 10
0.3776181102362205
 20
3.136248031496063
 30
0.0
 10
0.3776181102362205
 20
3.136248031496063
 30
0.0
 10
0.3914094488188977
 20
3.126893700787402
 30
0.0
 10
0.3914094488188977
 20
3.126893700787402
 30
0.0
 10
0.3914094488188977
 20
3.126893700787402
 30
0.0
 10
0.3914094488188977
 20
3.126893700787402
 30
0.0
 10
0.3891692913385827
 20
2.373791338582677
 30
0.0
 10
0.3891692913385827
 20
2.373791338582677
 30
0.0
 10
0.3891692913385827
 20
2.373791338582677
 30
0.0
 10
0.3891692913385827
 20
2.373791338582677
 30
0.0
 10
0.3753779527559055
 20
2.383145669291339
 30
0.0
 10
0.3753779527559055
 20
2.383145669291339
 30
0.0
 10
0.3753779527559055
 20
2.383145669291339
 30
0.0
 10
0.3753779527559055
 20
2.383145669291339
 30
0.0
 10
0.3613582677165355
 20
2.391736220472441
 30
0.0
 10
0.3613582677165355
 20
2.391736220472441
 30
0.0
  0
SPLINE
  5
67
330
1F
100
AcDbEntity
  8
LAYER_1
 62
   253
100
AcDbSpline
210
0.0
220
0.0
230
1.0
 70
    11
 71
     3
 72
    28
 73
    24
 74
     0
 42
0.0000000001
 43
0.0000000001
 40
0.0
 40
0.0
 40
0.0
 40
0.0
 40
0.1666666666666667
 40
0.1666666666666667
 40
0.1666666666666667
 40
0.1666666666666667
 40
0.3333333333333333
 40
0.3333333333333333
 40
0.3333333333333333
 40
0.3333333333333333
 40
0.5
 40
0.5
 40
0.5
 40
0.5
 40
0.6666666666666666
 40
0.6666666666666666
 40
0.6666666666666666
 40
0.6666666666666666
 40
0.8333333333333333
 40
0.8333333333333333
 40
0.8333333333333333
 40
0.8333333333333333
 40
1.0
 40
1.0
 40
1.0
 40
1.0
 10
0.3891692913385827
 20
2.373791338582677
 30
0.0
 10
0.3891692913385827
 20
2.373791338582677
 30
0.0
 10
0.3914094488188977
 20
3.126893700787402
 30
0.0
 10
0.3914094488188977
 20
3.126893700787402
 30
0.0
 10
0.3914094488188977
 20
3.126893700787402
 30
0.0
 10
0.3914094488188977
 20
3.126893700787402
 30
0.0
 10
0.4049055118110236
 20
3.116649606299213
 30
0.0
 10
0.4049055118110236
 20
3.116649606299213
 30
0.0
 10
0.4049055118110236
 20
3.116649606299213
 30
0.0
 10
0.4049055118110236
 20
3.116649606299213
 30
0.0
 10
0.4180590551181103
 20
3.105350393700788
 30
0.0
 10
0.4180590551181103
 20
3.105350393700788
 30
0.0
 10
0.4180590551181103
 20
3.105350393700788
 30
0.0
 10
0.4180590551181103
 20
3.105350393700788
 30
0.0
 10
0.4158188976377953
 20
2.352248031496063
 30
0.0
 10
0.4158188976377953
 20
2.352248031496063
 30
0.0
 10
0.4158188976377953
 20
2.352248031496063
 30
0.0
 10
0.4158188976377953
 20
2.352248031496063
 30
0.0
 10
0.4026653543307087
 20
2.363547244094488
 30
0.0
 10
0.4026653543307087
 20
2.363547244094488
 30
0.0
 10
0.4026653543307087
 20
2.363547244094488
 30
0.0
 10
0.4026653543307087
 20
2.363547244094488
 30
0.0
 10
0.3891692913385827
 20
2.373791338582677
 30
0.0
 10
0.3891692913385827
 20
2.373791338582677
 30
0.0
  0
SPLINE
  5
68
330
1F
100
AcDbEntity
  8
LAYER_1
 62
   253
100
AcDbSpline
210
0.0
220
0.0
230
1.0
 70
    11
 71
     3
 72
    28
 73
    24
 74
     0
 42
0.0000000001
 43
0.0000000001
 40
0.0
 40
0.0
 40
0.0
 40
0.0
 40
0.1666666666666667
 40
0.1666666666666667
 40
0.1666666666666667
 40
0.1666666666666667
 40
0.3333333333333333
 40
0.3333333333333333
 40
0.3333333333333333
 40
0.3333333333333333
 40
0.5
 40
0.5
 40
0.5
 40
0.5
 40
0.6666666666666666
 40
0.6666666666666666
 40
0.6666666666666666
 40
0.6666666666666666
 40
0.8333333333333333
 40
0.8333333333333333
 40
0.8333333333333333
 40
0.8333333333333333
 40
1.0
 40
1.0
 40
1.0
 40
1.0
 10
0.4158188976377953
 20
2.352248031496063
 30
0.0
 10
0.4158188976377953
 20
2.352248031496063
 30
0.0
 10
0.4180590551181103
 20
3.105350393700788
 30
0.0
 10
0.4180590551181103
 20
3.105350393700788
 30
0.0
 10
0.4180590551181103
 20
3.105350393700788
 30
0.0
 10
0.4180590551181103
 20
3.105350393700788
 30
0.0
 10
0.4308070866141732
 20
3.092854330708661
 30
0.0
 10
0.4308070866141732
 20
3.092854330708661
 30
0.0
 10
0.4308070866141732
 20
3.092854330708661
 30
0.0
 10
0.4308070866141732
 20
3.092854330708661
 30
0.0
 10
0.4430984251968504
 20
3.079003937007874
 30
0.0
 10
0.4430984251968504
 20
3.079003937007874
 30
0.0
 10
0.4430984251968504
 20
3.079003937007874
 30
0.0
 10
0.4430984251968504
 20
3.079003937007874
 30
0.0
 10
0.4408582677165355
 20
2.32590157480315
 30
0.0
 10
0.4408582677165355
 20
2.32590157480315
 30
0.0
 10
0.4408582677165355
 20
2.32590157480315
 30
0.0
 10
0.4408582677165355
 20
2.32590157480315
 30
0.0
 10
0.4285669291338583
 20
2.339751968503937
 30
0.0
 10
0.4285669291338583
 20
2.339751968503937
 30
0.0
 10
0.4285669291338583
 20
2.339751968503937
 30
0.0
 10
0.4285669291338583
 20
2.339751968503937
 30
0.0
 10
0.4158188976377953
 20
2.352248031496063
 30
0.0
 10
0.4158188976377953
 20
2.352248031496063
 30
0.0
  0
SPLINE
  5
69
330
1F
100
AcDbEntity
  8
LAYER_1
 62
   253
100
AcDbSpline
210
0.0
220
0.0
230
1.0
 70
    11
 71
     3
 72
    28
 73
    24
 74
     0
 42
0.0000000001
 43
0.0000000001
 40
0.0
 40
0.0
 40
0.0
 40
0.0
 40
0.1666666666666667
 40
0.1666666666666667
 40
0.1666666666666667
 40
0.1666666666666667
 40
0.3333333333333333
 40
0.3333333333333333
 40
0.3333333333333333
 40
0.3333333333333333
 40
0.5
 40
0.5
 40
0.5
 40
0.5
 40
0.6666666666666666
 40
0.6666666666666666
 40
0.6666666666666666
 40
0.6666666666666666
 40
0.8333333333333333
 40
0.8333333333333333
 40
0.8333333333333333
 40
0.8333333333333333
 40
1.0
 40
1.0
 40
1.0
 40
1.0
 10
0.4408582677165355
 20
2.32590157480315
 30
0.0
 10
0.4408582677165355
 20
2.32590157480315
 30
0.0
 10
0.4430984251968504
 20
3.079003937007874
 30
0.0
 10
0.4430984251968504
 20
3.079003937007874
 30
0.0
 10
0.4430984251968504
 20
3.079003937007874
 30
0.0
 10
0.4430984251968504
 20
3.079003937007874
 30
0.0
 10
0.4548661417322835
 20
3.063665354330709
 30
0.0
 10
0.4548661417322835
 20
3.063665354330709
 30
0.0
 10
0.4548661417322835
 20
3.063665354330709
 30
0.0
 10
0.4548661417322835
 20
3.063665354330709
 30
0.0
 10
0.4660669291338583
 20
3.046673228346457
 30
0.0
 10
0.4660669291338583
 20
3.046673228346457
 30
0.0
 10
0.4660669291338583
 20
3.046673228346457
 30
0.0
 10
0.4660669291338583
 20
3.046673228346457
 30
0.0
 10
0.4638267716535433
 20
2.293570866141732
 30
0.0
 10
0.4638267716535433
 20
2.293570866141732
 30
0.0
 10
0.4638267716535433
 20
2.293570866141732
 30
0.0
 10
0.4638267716535433
 20
2.293570866141732
 30
0.0
 10
0.4526259842519685
 20
2.310562992125985
 30
0.0
 10
0.4526259842519685
 20
2.310562992125985
 30
0.0
 10
0.4526259842519685
 20
2.310562992125985
 30
0.0
 10
0.4526259842519685
 20
2.310562992125985
 30
0.0
 10
0.4408582677165355
 20
2.32590157480315
 30
0.0
 10
0.4408582677165355
 20
2.32590157480315
 30
0.0
  0
SPLINE
  5
6A
330
1F
100
AcDbEntity
  8
LAYER_1
 62
   252
100
AcDbSpline
210
0.0
220
0.0
230
1.0
 70
    11
 71
     3
 72
    28
 73
    24
 74
     0
 42
0.0000000001
 43
0.0000000001
 40
0.0
 40
0.0
 40
0.0
 40
0.0
 40
0.1666666666666667
 40
0.1666666666666667
 40
0.1666666666666667
 40
0.1666666666666667
 40
0.3333333333333333
 40
0.3333333333333333
 40
0.3333333333333333
 40
0.3333333333333333
 40
0.5
 40
0.5
 40
0.5
 40
0.5
 40
0.6666666666666666
 40
0.6666666666666666
 40
0.6666666666666666
 40
0.6666666666666666
 40
0.8333333333333333
 40
0.8333333333333333
 40
0.8333333333333333
 40
0.8333333333333333
 40
1.0
 40
1.0
 40
1.0
 40
1.0
 10
0.4638267716535433
 20
2.293570866141732
 30
0.0
 10
0.4638267716535433
 20
2.293570866141732
 30
0.0
 10
0.4660669291338583
 20
3.046673228346457
 30
0.0
 10
0.4660669291338583
 20
3.046673228346457
 30
0.0
 10
0.4660669291338583
 20
3.046673228346457
 30
0.0
 10
0.4660669291338583
 20
3.046673228346457
 30
0.0
 10
0.4766299212598426
 20
3.027893700787402
 30
0.0
 10
0.4766299212598426
 20
3.027893700787402
 30
0.0
 10
0.4766299212598426
 20
3.027893700787402
 30
0.0
 10
0.4766299212598426
 20
3.027893700787402
 30
0.0
 10
0.4865157480314961
 20
3.007161417322835
 30
0.0
 10
0.4865157480314961
 20
3.007161417322835
 30
0.0
 10
0.4865157480314961
 20
3.007161417322835
 30
0.0
 10
0.4865157480314961
 20
3.007161417322835
 30
0.0
 10
0.4842755905511811
 20
2.25405905511811
 30
0.0
 10
0.4842755905511811
 20
2.25405905511811
 30
0.0
 10
0.4842755905511811
 20
2.25405905511811
 30
0.0
 10
0.4842755905511811
 20
2.25405905511811
 30
0.0
 10
0.4743897637795276
 20
2.274791338582678
 30
0.0
 10
0.4743897637795276
 20
2.274791338582678
 30
0.0
 10
0.4743897637795276
 20
2.274791338582678
 30
0.0
 10
0.4743897637795276
 20
2.274791338582678
 30
0.0
 10
0.4638267716535433
 20
2.293570866141732
 30
0.0
 10
0.4638267716535433
 20
2.293570866141732
 30
0.0
  0
SPLINE
  5
6B
330
1F
100
AcDbEntity
  8
LAYER_1
 62
   250
100
AcDbSpline
210
0.0
220
0.0
230
1.0
 70
    11
 71
     3
 72
   268
 73
   264
 74
     0
 42
0.0000000001
 43
0.0000000001
 40
0.0
 40
0.0
 40
0.0
 40
0.0
 40
0.0151515151515152
 40
0.0151515151515152
 40
0.0151515151515152
 40
0.0151515151515152
 40
0.0303030303030303
 40
0.0303030303030303
 40
0.0303030303030303
 40
0.0303030303030303
 40
0.0454545454545455
 40
0.0454545454545455
 40
0.0454545454545455
 40
0.0454545454545455
 40
0.0606060606060606
 40
0.0606060606060606
 40
0.0606060606060606
 40
0.0606060606060606
 40
0.0757575757575758
 40
0.0757575757575758
 40
0.0757575757575758
 40
0.0757575757575758
 40
0.0909090909090909
 40
0.0909090909090909
 40
0.0909090909090909
 40
0.0909090909090909
 40
0.1060606060606061
 40
0.1060606060606061
 40
0.1060606060606061
 40
0.1060606060606061
 40
0.1212121212121212
 40
0.1212121212121212
 40
0.1212121212121212
 40
0.1212121212121212
 40
0.1363636363636364
 40
0.1363636363636364
 40
0.1363636363636364
 40
0.1363636363636364
 40
0.1515151515151515
 40
0.1515151515151515
 40
0.1515151515151515
 40
0.1515151515151515
 40
0.1666666666666666
 40
0.1666666666666666
 40
0.1666666666666666
 40
0.1666666666666666
 40
0.1818181818181818
 40
0.1818181818181818
 40
0.1818181818181818
 40
0.1818181818181818
 40
0.1969696969696969
 40
0.1969696969696969
 40
0.1969696969696969
 40
0.1969696969696969
 40
0.212121212121212
 40
0.212121212121212
 40
0.212121212121212
 40
0.212121212121212
 40
0.2272727272727272
 40
0.2272727272727272
 40
0.2272727272727272
 40
0.2272727272727272
 40
0.2424242424242423
 40
0.2424242424242423
 40
0.2424242424242423
 40
0.2424242424242423
 40
0.2575757575757575
 40
0.2575757575757575
 40
0.2575757575757575
 40
0.2575757575757575
 40
0.2727272727272726
 40
0.2727272727272726
 40
0.2727272727272726
 40
0.2727272727272726
 40
0.2878787878787877
 40
0.2878787878787877
 40
0.2878787878787877
 40
0.2878787878787877
 40
0.3030303030303029
 40
0.3030303030303029
 40
0.3030303030303029
 40
0.3030303030303029
 40
0.318181818181818
 40
0.318181818181818
 40
0.318181818181818
 40
0.318181818181818
 40
0.3333333333333332
 40
0.3333333333333332
 40
0.3333333333333332
 40
0.3333333333333332
 40
0.3484848484848483
 40
0.3484848484848483
 40
0.3484848484848483
 40
0.3484848484848483
 40
0.3636363636363634
 40
0.3636363636363634
 40
0.3636363636363634
 40
0.3636363636363634
 40
0.3787878787878786
 40
0.3787878787878786
 40
0.3787878787878786
 40
0.3787878787878786
 40
0.3939393939393937
 40
0.3939393939393937
 40
0.3939393939393937
 40
0.3939393939393937
 40
0.4090909090909088
 40
0.4090909090909088
 40
0.4090909090909088
 40
0.4090909090909088
 40
0.424242424242424
 40
0.424242424242424
 40
0.424242424242424
 40
0.424242424242424
 40
0.4393939393939391
 40
0.4393939393939391
 40
0.4393939393939391
 40
0.4393939393939391
 40
0.4545454545454543
 40
0.4545454545454543
 40
0.4545454545454543
 40
0.4545454545454543
 40
0.4696969696969694
 40
0.4696969696969694
 40
0.4696969696969694
 40
0.4696969696969694
 40
0.4848484848484845
 40
0.4848484848484845
 40
0.4848484848484845
 40
0.4848484848484845
 40
0.4999999999999997
 40
0.4999999999999997
 40
0.4999999999999997
 40
0.4999999999999997
 40
0.5151515151515148
 40
0.5151515151515148
 40
0.5151515151515148
 40
0.5151515151515148
 40
0.5303030303030299
 40
0.5303030303030299
 40
0.5303030303030299
 40
0.5303030303030299
 40
0.5454545454545451
 40
0.5454545454545451
 40
0.5454545454545451
 40
0.5454545454545451
 40
0.5606060606060602
 40
0.5606060606060602
 40
0.5606060606060602
 40
0.5606060606060602
 40
0.5757575757575754
 40
0.5757575757575754
 40
0.5757575757575754
 40
0.5757575757575754
 40
0.5909090909090905
 40
0.5909090909090905
 40
0.5909090909090905
 40
0.5909090909090905
 40
0.6060606060606056
 40
0.6060606060606056
 40
0.6060606060606056
 40
0.6060606060606056
 40
0.6212121212121208
 40
0.6212121212121208
 40
0.6212121212121208
 40
0.6212121212121208
 40
0.6363636363636359
 40
0.6363636363636359
 40
0.6363636363636359
 40
0.6363636363636359
 40
0.6515151515151511
 40
0.6515151515151511
 40
0.6515151515151511
 40
0.6515151515151511
 40
0.6666666666666662
 40
0.6666666666666662
 40
0.6666666666666662
 40
0.6666666666666662
 40
0.6818181818181813
 40
0.6818181818181813
 40
0.6818181818181813
 40
0.6818181818181813
 40
0.6969696969696965
 40
0.6969696969696965
 40
0.6969696969696965
 40
0.6969696969696965
 40
0.7121212121212116
 40
0.7121212121212116
 40
0.7121212121212116
 40
0.7121212121212116
 40
0.7272727272727267
 40
0.7272727272727267
 40
0.7272727272727267
 40
0.7272727272727267
 40
0.7424242424242419
 40
0.7424242424242419
 40
0.7424242424242419
 40
0.7424242424242419
 40
0.757575757575757
 40
0.757575757575757
 40
0.757575757575757
 40
0.757575757575757
 40
0.7727272727272722
 40
0.7727272727272722
 40
0.7727272727272722
 40
0.7727272727272722
 40
0.7878787878787873
 40
0.7878787878787873
 40
0.7878787878787873
 40
0.7878787878787873
 40
0.8030303030303024
 40
0.8030303030303024
 40
0.8030303030303024
 40
0.8030303030303024
 40
0.8181818181818176
 40
0.8181818181818176
 40
0.8181818181818176
 40
0.8181818181818176
 40
0.8333333333333327
 40
0.8333333333333327
 40
0.8333333333333327
 40
0.8333333333333327
 40
0.8484848484848478
 40
0.8484848484848478
 40
0.8484848484848478
 40
0.8484848484848478
 40
0.863636363636363
 40
0.863636363636363
 40
0.863636363636363
 40
0.863636363636363
 40
0.8787878787878781
 40
0.8787878787878781
 40
0.8787878787878781
 40
0.8787878787878781
 40
0.8939393939393933
 40
0.8939393939393933
 40
0.8939393939393933
 40
0.8939393939393933
 40
0.9090909090909084
 40
0.9090909090909084
 40
0.9090909090909084
 40
0.9090909090909084
 40
0.9242424242424235
 40
0.9242424242424235
 40
0.9242424242424235
 40
0.9242424242424235
 40
0.9393939393939387
 40
0.9393939393939387
 40
0.9393939393939387
 40
0.9393939393939387
 40
0.9545454545454538
 40
0.9545454545454538
 40
0.9545454545454538
 40
0.9545454545454538
 40
0.969696969696969
 40
0.969696969696969
 40
0.969696969696969
 40
0.969696969696969
 40
0.9848484848484841
 40
0.9848484848484841
 40
0.9848484848484841
 40
0.9848484848484841
 40
1.0
 40
1.0
 40
1.0
 40
1.0
 10
0.1092755905511811
 20
2.69155905511811
 30
0.0
 10
0.1092755905511811
 20
2.69155905511811
 30
0.0
 10
0.1115157480314961
 20
3.444661417322835
 30
0.0
 10
0.1115157480314961
 20
3.444661417322835
 30
0.0
 10
0.1115157480314961
 20
3.444661417322835
 30
0.0
 10
0.1115157480314961
 20
3.444661417322835
 30
0.0
 10
0.116244094488189
 20
3.414976377952756
 30
0.0
 10
0.116244094488189
 20
3.414976377952756
 30
0.0
 10
0.116244094488189
 20
3.414976377952756
 30
0.0
 10
0.116244094488189
 20
3.414976377952756
 30
0.0
 10
0.122
 20
3.387814960629922
 30
0.0
 10
0.122
 20
3.387814960629922
 30
0.0
 10
0.122
 20
3.387814960629922
 30
0.0
 10
0.122
 20
3.387814960629922
 30
0.0
 10
0.1287165354330709
 20
3.363023622047244
 30
0.0
 10
0.1287165354330709
 20
3.363023622047244
 30
0.0
 10
0.1287165354330709
 20
3.363023622047244
 30
0.0
 10
0.1287165354330709
 20
3.363023622047244
 30
0.0
 10
0.1363425196850394
 20
3.340464566929134
 30
0.0
 10
0.1363425196850394
 20
3.340464566929134
 30
0.0
 10
0.1363425196850394
 20
3.340464566929134
 30
0.0
 10
0.1363425196850394
 20
3.340464566929134
 30
0.0
 10
0.1448110236220473
 20
3.319972440944882
 30
0.0
 10
0.1448110236220473
 20
3.319972440944882
 30
0.0
 10
0.1448110236220473
 20
3.319972440944882
 30
0.0
 10
0.1448110236220473
 20
3.319972440944882
 30
0.0
 10
0.1540787401574803
 20
3.301409448818898
 30
0.0
 10
0.1540787401574803
 20
3.301409448818898
 30
0.0
 10
0.1540787401574803
 20
3.301409448818898
 30
0.0
 10
0.1540787401574803
 20
3.301409448818898
 30
0.0
 10
0.1640748031496063
 20
3.284618110236221
 30
0.0
 10
0.1640748031496063
 20
3.284618110236221
 30
0.0
 10
0.1640748031496063
 20
3.284618110236221
 30
0.0
 10
0.1640748031496063
 20
3.284618110236221
 30
0.0
 10
0.174759842519685
 20
3.269464566929134
 30
0.0
 10
0.174759842519685
 20
3.269464566929134
 30
0.0
 10
0.174759842519685
 20
3.269464566929134
 30
0.0
 10
0.174759842519685
 20
3.269464566929134
 30
0.0
 10
0.1860551181102362
 20
3.255779527559055
 30
0.0
 10
0.1860551181102362
 20
3.255779527559055
 30
0.0
 10
0.1860551181102362
 20
3.255779527559055
 30
0.0
 10
0.1860551181102362
 20
3.255779527559055
 30
0.0
 10
0.1979173228346457
 20
3.243433070866142
 30
0.0
 10
0.1979173228346457
 20
3.243433070866142
 30
0.0
 10
0.1979173228346457
 20
3.243433070866142
 30
0.0
 10
0.1979173228346457
 20
3.243433070866142
 30
0.0
 10
0.2102874015748032
 20
3.232259842519685
 30
0.0
 10
0.2102874015748032
 20
3.232259842519685
 30
0.0
 10
0.2102874015748032
 20
3.232259842519685
 30
0.0
 10
0.2102874015748032
 20
3.232259842519685
 30
0.0
 10
0.2231141732283465
 20
3.222129921259842
 30
0.0
 10
0.2231141732283465
 20
3.222129921259842
 30
0.0
 10
0.2231141732283465
 20
3.222129921259842
 30
0.0
 10
0.2231141732283465
 20
3.222129921259842
 30
0.0
 10
0.2363267716535433
 20
3.21288188976378
 30
0.0
 10
0.2363267716535433
 20
3.21288188976378
 30
0.0
 10
0.2363267716535433
 20
3.21288188976378
 30
0.0
 10
0.2363267716535433
 20
3.21288188976378
 30
0.0
 10
0.2498818897637795
 20
3.204366141732284
 30
0.0
 10
0.2498818897637795
 20
3.204366141732284
 30
0.0
 10
0.2498818897637795
 20
3.204366141732284
 30
0.0
 10
0.2498818897637795
 20
3.204366141732284
 30
0.0
 10
0.2637165354330709
 20
3.196437007874016
 30
0.0
 10
0.2637165354330709
 20
3.196437007874016
 30
0.0
 10
0.2637165354330709
 20
3.196437007874016
 30
0.0
 10
0.2637165354330709
 20
3.196437007874016
 30
0.0
 10
0.2777755905511811
 20
3.188937007874016
 30
0.0
 10
0.2777755905511811
 20
3.188937007874016
 30
0.0
 10
0.2777755905511811
 20
3.188937007874016
 30
0.0
 10
0.2777755905511811
 20
3.188937007874016
 30
0.0
 10
0.291992125984252
 20
3.181736220472441
 30
0.0
 10
0.291992125984252
 20
3.181736220472441
 30
0.0
 10
0.291992125984252
 20
3.181736220472441
 30
0.0
 10
0.291992125984252
 20
3.181736220472441
 30
0.0
 10
0.3063228346456693
 20
3.174673228346457
 30
0.0
 10
0.3063228346456693
 20
3.174673228346457
 30
0.0
 10
0.3063228346456693
 20
3.174673228346457
 30
0.0
 10
0.3063228346456693
 20
3.174673228346457
 30
0.0
 10
0.3207047244094488
 20
3.167602362204725
 30
0.0
 10
0.3207047244094488
 20
3.167602362204725
 30
0.0
 10
0.3207047244094488
 20
3.167602362204725
 30
0.0
 10
0.3207047244094488
 20
3.167602362204725
 30
0.0
 10
0.3350866141732284
 20
3.160366141732284
 30
0.0
 10
0.3350866141732284
 20
3.160366141732284
 30
0.0
 10
0.3350866141732284
 20
3.160366141732284
 30
0.0
 10
0.3350866141732284
 20
3.160366141732284
 30
0.0
 10
0.3493976377952756
 20
3.152830708661417
 30
0.0
 10
0.3493976377952756
 20
3.152830708661417
 30
0.0
 10
0.3493976377952756
 20
3.152830708661417
 30
0.0
 10
0.3493976377952756
 20
3.152830708661417
 30
0.0
 10
0.3635984251968504
 20
3.144838582677166
 30
0.0
 10
0.3635984251968504
 20
3.144838582677166
 30
0.0
 10
0.3635984251968504
 20
3.144838582677166
 30
0.0
 10
0.3635984251968504
 20
3.144838582677166
 30
0.0
 10
0.3776181102362205
 20
3.136248031496063
 30
0.0
 10
0.3776181102362205
 20
3.136248031496063
 30
0.0
 10
0.3776181102362205
 20
3.136248031496063
 30
0.0
 10
0.3776181102362205
 20
3.136248031496063
 30
0.0
 10
0.3914094488188977
 20
3.126893700787402
 30
0.0
 10
0.3914094488188977
 20
3.126893700787402
 30
0.0
 10
0.3914094488188977
 20
3.126893700787402
 30
0.0
 10
0.3914094488188977
 20
3.126893700787402
 30
0.0
 10
0.4049055118110236
 20
3.116649606299213
 30
0.0
 10
0.4049055118110236
 20
3.116649606299213
 30
0.0
 10
0.4049055118110236
 20
3.116649606299213
 30
0.0
 10
0.4049055118110236
 20
3.116649606299213
 30
0.0
 10
0.4180590551181103
 20
3.105350393700788
 30
0.0
 10
0.4180590551181103
 20
3.105350393700788
 30
0.0
 10
0.4180590551181103
 20
3.105350393700788
 30
0.0
 10
0.4180590551181103
 20
3.105350393700788
 30
0.0
 10
0.4308070866141732
 20
3.092854330708661
 30
0.0
 10
0.4308070866141732
 20
3.092854330708661
 30
0.0
 10
0.4308070866141732
 20
3.092854330708661
 30
0.0
 10
0.4308070866141732
 20
3.092854330708661
 30
0.0
 10
0.4430984251968504
 20
3.079003937007874
 30
0.0
 10
0.4430984251968504
 20
3.079003937007874
 30
0.0
 10
0.4430984251968504
 20
3.079003937007874
 30
0.0
 10
0.4430984251968504
 20
3.079003937007874
 30
0.0
 10
0.4548661417322835
 20
3.063665354330709
 30
0.0
 10
0.4548661417322835
 20
3.063665354330709
 30
0.0
 10
0.4548661417322835
 20
3.063665354330709
 30
0.0
 10
0.4548661417322835
 20
3.063665354330709
 30
0.0
 10
0.4660669291338583
 20
3.046673228346457
 30
0.0
 10
0.4660669291338583
 20
3.046673228346457
 30
0.0
 10
0.4660669291338583
 20
3.046673228346457
 30
0.0
 10
0.4660669291338583
 20
3.046673228346457
 30
0.0
 10
0.4766299212598426
 20
3.027893700787402
 30
0.0
 10
0.4766299212598426
 20
3.027893700787402
 30
0.0
 10
0.4766299212598426
 20
3.027893700787402
 30
0.0
 10
0.4766299212598426
 20
3.027893700787402
 30
0.0
 10
0.4865157480314961
 20
3.007161417322835
 30
0.0
 10
0.4865157480314961
 20
3.007161417322835
 30
0.0
 10
0.4865157480314961
 20
3.007161417322835
 30
0.0
 10
0.4865157480314961
 20
3.007161417322835
 30
0.0
 10
0.4842755905511811
 20
2.25405905511811
 30
0.0
 10
0.4842755905511811
 20
2.25405905511811
 30
0.0
 10
0.4842755905511811
 20
2.25405905511811
 30
0.0
 10
0.4842755905511811
 20
2.25405905511811
 30
0.0
 10
0.4743897637795276
 20
2.274791338582678
 30
0.0
 10
0.4743897637795276
 20
2.274791338582678
 30
0.0
 10
0.4743897637795276
 20
2.274791338582678
 30
0.0
 10
0.4743897637795276
 20
2.274791338582678
 30
0.0
 10
0.4638267716535433
 20
2.293570866141732
 30
0.0
 10
0.4638267716535433
 20
2.293570866141732
 30
0.0
 10
0.4638267716535433
 20
2.293570866141732
 30
0.0
 10
0.4638267716535433
 20
2.293570866141732
 30
0.0
 10
0.4526259842519685
 20
2.310562992125985
 30
0.0
 10
0.4526259842519685
 20
2.310562992125985
 30
0.0
 10
0.4526259842519685
 20
2.310562992125985
 30
0.0
 10
0.4526259842519685
 20
2.310562992125985
 30
0.0
 10
0.4408582677165355
 20
2.32590157480315
 30
0.0
 10
0.4408582677165355
 20
2.32590157480315
 30
0.0
 10
0.4408582677165355
 20
2.32590157480315
 30
0.0
 10
0.4408582677165355
 20
2.32590157480315
 30
0.0
 10
0.4285669291338583
 20
2.339751968503937
 30
0.0
 10
0.4285669291338583
 20
2.339751968503937
 30
0.0
 10
0.4285669291338583
 20
2.339751968503937
 30
0.0
 10
0.4285669291338583
 20
2.339751968503937
 30
0.0
 10
0.4158188976377953
 20
2.352248031496063
 30
0.0
 10
0.4158188976377953
 20
2.352248031496063
 30
0.0
 10
0.4158188976377953
 20
2.352248031496063
 30
0.0
 10
0.4158188976377953
 20
2.352248031496063
 30
0.0
 10
0.4026653543307087
 20
2.363547244094488
 30
0.0
 10
0.4026653543307087
 20
2.363547244094488
 30
0.0
 10
0.4026653543307087
 20
2.363547244094488
 30
0.0
 10
0.4026653543307087
 20
2.363547244094488
 30
0.0
 10
0.3891692913385827
 20
2.373791338582677
 30
0.0
 10
0.3891692913385827
 20
2.373791338582677
 30
0.0
 10
0.3891692913385827
 20
2.373791338582677
 30
0.0
 10
0.3891692913385827
 20
2.373791338582677
 30
0.0
 10
0.3753779527559055
 20
2.383145669291339
 30
0.0
 10
0.3753779527559055
 20
2.383145669291339
 30
0.0
 10
0.3753779527559055
 20
2.383145669291339
 30
0.0
 10
0.3753779527559055
 20
2.383145669291339
 30
0.0
 10
0.3613582677165355
 20
2.391736220472441
 30
0.0
 10
0.3613582677165355
 20
2.391736220472441
 30
0.0
 10
0.3613582677165355
 20
2.391736220472441
 30
0.0
 10
0.3613582677165355
 20
2.391736220472441
 30
0.0
 10
0.3471574803149606
 20
2.399728346456693
 30
0.0
 10
0.3471574803149606
 20
2.399728346456693
 30
0.0
 10
0.3471574803149606
 20
2.399728346456693
 30
0.0
 10
0.3471574803149606
 20
2.399728346456693
 30
0.0
 10
0.3328464566929134
 20
2.407263779527559
 30
0.0
 10
0.3328464566929134
 20
2.407263779527559
 30
0.0
 10
0.3328464566929134
 20
2.407263779527559
 30
0.0
 10
0.3328464566929134
 20
2.407263779527559
 30
0.0
 10
0.3184645669291339
 20
2.4145
 30
0.0
 10
0.3184645669291339
 20
2.4145
 30
0.0
 10
0.3184645669291339
 20
2.4145
 30
0.0
 10
0.3184645669291339
 20
2.4145
 30
0.0
 10
0.3040826771653544
 20
2.421570866141733
 30
0.0
 10
0.3040826771653544
 20
2.421570866141733
 30
0.0
 10
0.3040826771653544
 20
2.421570866141733
 30
0.0
 10
0.3040826771653544
 20
2.421570866141733
 30
0.0
 10
0.289751968503937
 20
2.428633858267717
 30
0.0
 10
0.289751968503937
 20
2.428633858267717
 30
0.0
 10
0.289751968503937
 20
2.428633858267717
 30
0.0
 10
0.289751968503937
 20
2.428633858267717
 30
0.0
 10
0.2755354330708661
 20
2.435834645669292
 30
0.0
 10
0.2755354330708661
 20
2.435834645669292
 30
0.0
 10
0.2755354330708661
 20
2.435834645669292
 30
0.0
 10
0.2755354330708661
 20
2.435834645669292
 30
0.0
 10
0.2614763779527559
 20
2.443334645669292
 30
0.0
 10
0.2614763779527559
 20
2.443334645669292
 30
0.0
 10
0.2614763779527559
 20
2.443334645669292
 30
0.0
 10
0.2614763779527559
 20
2.443334645669292
 30
0.0
 10
0.2476417322834646
 20
2.451263779527559
 30
0.0
 10
0.2476417322834646
 20
2.451263779527559
 30
0.0
 10
0.2476417322834646
 20
2.451263779527559
 30
0.0
 10
0.2476417322834646
 20
2.451263779527559
 30
0.0
 10
0.2340866141732284
 20
2.459779527559055
 30
0.0
 10
0.2340866141732284
 20
2.459779527559055
 30
0.0
 10
0.2340866141732284
 20
2.459779527559055
 30
0.0
 10
0.2340866141732284
 20
2.459779527559055
 30
0.0
 10
0.2208740157480315
 20
2.469027559055118
 30
0.0
 10
0.2208740157480315
 20
2.469027559055118
 30
0.0
 10
0.2208740157480315
 20
2.469027559055118
 30
0.0
 10
0.2208740157480315
 20
2.469027559055118
 30
0.0
 10
0.2080472440944882
 20
2.479157480314961
 30
0.0
 10
0.2080472440944882
 20
2.479157480314961
 30
0.0
 10
0.2080472440944882
 20
2.479157480314961
 30
0.0
 10
0.2080472440944882
 20
2.479157480314961
 30
0.0
 10
0.1956771653543307
 20
2.490330708661417
 30
0.0
 10
0.1956771653543307
 20
2.490330708661417
 30
0.0
 10
0.1956771653543307
 20
2.490330708661417
 30
0.0
 10
0.1956771653543307
 20
2.490330708661417
 30
0.0
 10
0.1838149606299213
 20
2.502677165354331
 30
0.0
 10
0.1838149606299213
 20
2.502677165354331
 30
0.0
 10
0.1838149606299213
 20
2.502677165354331
 30
0.0
 10
0.1838149606299213
 20
2.502677165354331
 30
0.0
 10
0.1725196850393701
 20
2.516362204724409
 30
0.0
 10
0.1725196850393701
 20
2.516362204724409
 30
0.0
 10
0.1725196850393701
 20
2.516362204724409
 30
0.0
 10
0.1725196850393701
 20
2.516362204724409
 30
0.0
 10
0.1618346456692913
 20
2.531515748031496
 30
0.0
 10
0.1618346456692913
 20
2.531515748031496
 30
0.0
 10
0.1618346456692913
 20
2.531515748031496
 30
0.0
 10
0.1618346456692913
 20
2.531515748031496
 30
0.0
 10
0.1518385826771654
 20
2.548307086614174
 30
0.0
 10
0.1518385826771654
 20
2.548307086614174
 30
0.0
 10
0.1518385826771654
 20
2.548307086614174
 30
0.0
 10
0.1518385826771654
 20
2.548307086614174
 30
0.0
 10
0.1425708661417323
 20
2.566870078740158
 30
0.0
 10
0.1425708661417323
 20
2.566870078740158
 30
0.0
 10
0.1425708661417323
 20
2.566870078740158
 30
0.0
 10
0.1425708661417323
 20
2.566870078740158
 30
0.0
 10
0.1341023622047244
 20
2.58736220472441
 30
0.0
 10
0.1341023622047244
 20
2.58736220472441
 30
0.0
 10
0.1341023622047244
 20
2.58736220472441
 30
0.0
 10
0.1341023622047244
 20
2.58736220472441
 30
0.0
 10
0.1264763779527559
 20
2.60992125984252
 30
0.0
 10
0.1264763779527559
 20
2.60992125984252
 30
0.0
 10
0.1264763779527559
 20
2.60992125984252
 30
0.0
 10
0.1264763779527559
 20
2.60992125984252
 30
0.0
 10
0.1197598425196851
 20
2.634712598425197
 30
0.0
 10
0.1197598425196851
 20
2.634712598425197
 30
0.0
 10
0.1197598425196851
 20
2.634712598425197
 30
0.0
 10
0.1197598425196851
 20
2.634712598425197
 30
0.0
 10
0.114003937007874
 20
2.661874015748031
 30
0.0
 10
0.114003937007874
 20
2.661874015748031
 30
0.0
 10
0.114003937007874
 20
2.661874015748031
 30
0.0
 10
0.114003937007874
 20
2.661874015748031
 30
0.0
 10
0.1092755905511811
 20
2.69155905511811
 30
0.0
 10
0.1092755905511811
 20
2.69155905511811
 30
0.0
  0
SPLINE
  5
6C
330
1F
100
AcDbEntity
  8
LAYER_1
 62
   252
100
AcDbSpline
210
0.0
220
0.0
230
1.0
 70
    11
 71
     3
 72
    20
 73
    16
 74
     0
 42
0.0000000001
 43
0.0000000001
 40
0.0
 40
0.0
 40
0.0
 40
0.0
 40
0.25
 40
0.25
 40
0.25
 40
0.25
 40
0.5
 40
0.5
 40
0.5
 40
0.5
 40
0.75
 40
0.75
 40
0.75
 40
0.75
 40
1.0
 40
1.0
 40
1.0
 40
1.0
 10
0.4842755905511811
 20
2.25405905511811
 30
0.0
 10
0.4842755905511811
 20
2.25405905511811
 30
0.0
 10
0.4865157480314961
 20
3.007161417322835
 30
0.0
 10
0.4865157480314961
 20
3.007161417322835
 30
0.0
 10
0.4865157480314961
 20
3.007161417322835
 30
0.0
 10
0.4865157480314961
 20
3.007161417322835
 30
0.0
 10
0.6115157480314961
 20
3.007161417322835
 30
0.0
 10
0.6115157480314961
 20
3.007161417322835
 30
0.0
 10
0.6115157480314961
 20
3.007161417322835
 30
0.0
 10
0.6115157480314961
 20
3.007161417322835
 30
0.0
 10
0.6092755905511811
 20
2.25405905511811
 30
0.0
 10
0.6092755905511811
 20
2.25405905511811
 30
0.0
 10
0.6092755905511811
 20
2.25405905511811
 30
0.0
 10
0.6092755905511811
 20
2.25405905511811
 30
0.0
 10
0.4842755905511811
 20
2.25405905511811
 30
0.0
 10
0.4842755905511811
 20
2.25405905511811
 30
0.0
  0
SPLINE
  5
6D
330
1F
100
AcDbEntity
  8
LAYER_1
 62
   250
100
AcDbSpline
210
0.0
220
0.0
230
1.0
 70
    11
 71
     3
 72
    20
 73
    16
 74
     0
 42
0.0000000001
 43
0.0000000001
 40
0.0
 40
0.0
 40
0.0
 40
0.0
 40
0.25
 40
0.25
 40
0.25
 40
0.25
 40
0.5
 40
0.5
 40
0.5
 40
0.5
 40
0.75
 40
0.75
 40
0.75
 40
0.75
 40
1.0
 40
1.0
 40
1.0
 40
1.0
 10
0.4842755905511811
 20
2.25405905511811
 30
0.0
 10
0.4842755905511811
 20
2.25405905511811
 30
0.0
 10
0.4865157480314961
 20
3.007161417322835
 30
0.0
 10
0.4865157480314961
 20
3.007161417322835
 30
0.0
 10
0.4865157480314961
 20
3.007161417322835
 30
0.0
 10
0.4865157480314961
 20
3.007161417322835
 30
0.0
 10
0.6115157480314961
 20
3.007161417322835
 30
0.0
 10
0.6115157480314961
 20
3.007161417322835
 30
0.0
 10
0.6115157480314961
 20
3.007161417322835
 30
0.0
 10
0.6115157480314961
 20
3.007161417322835
 30
0.0
 10
0.6092755905511811
 20
2.25405905511811
 30
0.0
 10
0.6092755905511811
 20
2.25405905511811
 30
0.0
 10
0.6092755905511811
 20
2.25405905511811
 30
0.0
 10
0.6092755905511811
 20
2.25405905511811
 30
0.0
 10
0.4842755905511811
 20
2.25405905511811
 30
0.0
 10
0.4842755905511811
 20
2.25405905511811
 30
0.0
  0
SPLINE
  5
6E
330
1F
100
AcDbEntity
  8
LAYER_1
 62
     7
100
AcDbSpline
210
0.0
220
0.0
230
1.0
 70
    11
 71
     3
 72
    28
 73
    24
 74
     0
 42
0.0000000001
 43
0.0000000001
 40
0.0
 40
0.0
 40
0.0
 40
0.0
 40
0.1666666666666667
 40
0.1666666666666667
 40
0.1666666666666667
 40
0.1666666666666667
 40
0.3333333333333333
 40
0.3333333333333333
 40
0.3333333333333333
 40
0.3333333333333333
 40
0.5
 40
0.5
 40
0.5
 40
0.5
 40
0.6666666666666666
 40
0.6666666666666666
 40
0.6666666666666666
 40
0.6666666666666666
 40
0.8333333333333333
 40
0.8333333333333333
 40
0.8333333333333333
 40
0.8333333333333333
 40
1.0
 40
1.0
 40
1.0
 40
1.0
 10
-0.0782244094488189
 20
2.69155905511811
 30
0.0
 10
-0.0782244094488189
 20
2.69155905511811
 30
0.0
 10
0.1092755905511811
 20
2.69155905511811
 30
0.0
 10
0.1092755905511811
 20
2.69155905511811
 30
0.0
 10
0.1092755905511811
 20
2.69155905511811
 30
0.0
 10
0.1541417322834646
 20
2.361
 30
0.0
 10
0.3827795275590551
 20
2.486011811023622
 30
0.0
 10
0.4842755905511811
 20
2.25405905511811
 30
0.0
 10
0.4842755905511811
 20
2.25405905511811
 30
0.0
 10
0.4842755905511811
 20
2.25405905511811
 30
0.0
 10
0.6092755905511811
 20
2.25405905511811
 30
0.0
 10
0.6092755905511811
 20
2.25405905511811
 30
0.0
 10
0.6092755905511811
 20
2.25405905511811
 30
0.0
 10
0.6092755905511811
 20
2.25405905511811
 30
0.0
 10
0.6092755905511811
 20
2.12905905511811
 30
0.0
 10
0.6092755905511811
 20
2.12905905511811
 30
0.0
 10
0.6092755905511811
 20
2.12905905511811
 30
0.0
 10
0.6092755905511811
 20
2.12905905511811
 30
0.0
 10
-0.0782244094488189
 20
2.12905905511811
 30
0.0
 10
-0.0782244094488189
 20
2.12905905511811
 30
0.0
 10
-0.0782244094488189
 20
2.12905905511811
 30
0.0
 10
-0.0782244094488189
 20
2.12905905511811
 30
0.0
 10
-0.0782244094488189
 20
2.69155905511811
 30
0.0
 10
-0.0782244094488189
 20
2.69155905511811
 30
0.0
  0
SPLINE
  5
6F
330
1F
100
AcDbEntity
  8
LAYER_1
 62
   250
100
AcDbSpline
210
0.0
220
0.0
230
1.0
 70
    11
 71
     3
 72
   104
 73
   100
 74
     0
 42
0.0000000001
 43
0.0000000001
 40
0.0
 40
0.0
 40
0.0
 40
0.0
 40
0.04
 40
0.04
 40
0.04
 40
0.04
 40
0.08
 40
0.08
 40
0.08
 40
0.08
 40
0.12
 40
0.12
 40
0.12
 40
0.12
 40
0.16
 40
0.16
 40
0.16
 40
0.16
 40
0.2
 40
0.2
 40
0.2
 40
0.2
 40
0.24
 40
0.24
 40
0.24
 40
0.24
 40
0.28
 40
0.28
 40
0.28
 40
0.28
 40
0.32
 40
0.32
 40
0.32
 40
0.32
 40
0.36
 40
0.36
 40
0.36
 40
0.36
 40
0.4
 40
0.4
 40
0.4
 40
0.4
 40
0.44
 40
0.44
 40
0.44
 40
0.44
 40
0.4799999999999999
 40
0.4799999999999999
 40
0.4799999999999999
 40
0.4799999999999999
 40
0.5199999999999999
 40
0.5199999999999999
 40
0.5199999999999999
 40
0.5199999999999999
 40
0.5599999999999999
 40
0.5599999999999999
 40
0.5599999999999999
 40
0.5599999999999999
 40
0.6
 40
0.6
 40
0.6
 40
0.6
 40
0.64
 40
0.64
 40
0.64
 40
0.64
 40
0.6800000000000001
 40
0.6800000000000001
 40
0.6800000000000001
 40
0.6800000000000001
 40
0.7200000000000001
 40
0.7200000000000001
 40
0.7200000000000001
 40
0.7200000000000001
 40
0.7600000000000001
 40
0.7600000000000001
 40
0.7600000000000001
 40
0.7600000000000001
 40
0.8000000000000002
 40
0.8000000000000002
 40
0.8000000000000002
 40
0.8000000000000002
 40
0.8400000000000002
 40
0.8400000000000002
 40
0.8400000000000002
 40
0.8400000000000002
 40
0.8800000000000002
 40
0.8800000000000002
 40
0.8800000000000002
 40
0.8800000000000002
 40
0.9200000000000003
 40
0.9200000000000003
 40
0.9200000000000003
 40
0.9200000000000003
 40
0.9600000000000003
 40
0.9600000000000003
 40
0.9600000000000003
 40
0.9600000000000003
 40
1.0
 40
1.0
 40
1.0
 40
1.0
 10
-0.1019566929133858
 20
1.995177165354331
 30
0.0
 10
-0.1019566929133858
 20
1.995177165354331
 30
0.0
 10
-0.0479842519685039
 20
1.995177165354331
 30
0.0
 10
-0.0479842519685039
 20
1.995177165354331
 30
0.0
 10
-0.0479842519685039
 20
1.995177165354331
 30
0.0
 10
-0.0348149606299213
 20
1.995177165354331
 30
0.0
 10
-0.0257874015748032
 20
1.994566929133858
 30
0.0
 10
-0.0209015748031496
 20
1.993370078740158
 30
0.0
 10
-0.0209015748031496
 20
1.993370078740158
 30
0.0
 10
-0.0136771653543307
 20
1.991649606299213
 30
0.0
 10
-0.0079842519685039
 20
1.988511811023622
 30
0.0
 10
-0.003759842519685
 20
1.983952755905512
 30
0.0
 10
-0.003759842519685
 20
1.983952755905512
 30
0.0
 10
0.0004330708661417
 20
1.979397637795276
 30
0.0
 10
0.0025433070866142
 20
1.973897637795276
 30
0.0
 10
0.0025433070866142
 20
1.967511811023622
 30
0.0
 10
0.0025433070866142
 20
1.967511811023622
 30
0.0
 10
0.0025433070866142
 20
1.962897637795276
 30
0.0
 10
0.0014330708661417
 20
1.958759842519685
 30
0.0
 10
-0.0007874015748031
 20
1.955094488188977
 30
0.0
 10
-0.0007874015748031
 20
1.955094488188977
 30
0.0
 10
-0.003011811023622
 20
1.951425196850394
 30
0.0
 10
-0.006259842519685
 20
1.948287401574803
 30
0.0
 10
-0.0104842519685039
 20
1.945704724409449
 30
0.0
 10
-0.0104842519685039
 20
1.945704724409449
 30
0.0
 10
-0.0132047244094488
 20
1.944011811023622
 30
0.0
 10
-0.0168740157480315
 20
1.942566929133858
 30
0.0
 10
-0.0215393700787402
 20
1.941370078740158
 30
0.0
 10
-0.0215393700787402
 20
1.941370078740158
 30
0.0
 10
-0.0156220472440945
 20
1.940287401574803
 30
0.0
 10
-0.0111220472440945
 20
1.938984251968504
 30
0.0
 10
-0.0080393700787402
 20
1.937484251968504
 30
0.0
 10
-0.0080393700787402
 20
1.937484251968504
 30
0.0
 10
-0.0033740157480315
 20
1.935204724409449
 30
0.0
 10
0.0003228346456693
 20
1.931956692913386
 30
0.0
 10
0.0030157480314961
 20
1.927704724409449
 30
0.0
 10
0.0030157480314961
 20
1.927704724409449
 30
0.0
 10
0.005740157480315
 20
1.923484251968504
 30
0.0
 10
0.0070984251968504
 20
1.918704724409449
 30
0.0
 10
0.0070984251968504
 20
1.913397637795276
 30
0.0
 10
0.0070984251968504
 20
1.913397637795276
 30
0.0
 10
0.0070984251968504
 20
1.908232283464567
 30
0.0
 10
0.0057677165354331
 20
1.903456692913386
 30
0.0
 10
0.0030984251968504
 20
1.899066929133858
 30
0.0
 10
0.0030984251968504
 20
1.899066929133858
 30
0.0
 10
0.0004606299212598
 20
1.894677165354331
 30
0.0
 10
-0.0033149606299213
 20
1.891066929133858
 30
0.0
 10
-0.0081496062992126
 20
1.888232283464567
 30
0.0
 10
-0.0081496062992126
 20
1.888232283464567
 30
0.0
 10
-0.013011811023622
 20
1.885429133858268
 30
0.0
 10
-0.0186771653543307
 20
1.883622047244095
 30
0.0
 10
-0.0251220472440945
 20
1.882814960629921
 30
0.0
 10
-0.0251220472440945
 20
1.882814960629921
 30
0.0
 10
-0.0315944881889764
 20
1.88203937007874
 30
0.0
 10
-0.0382322834645669
 20
1.881649606299213
 30
0.0
 10
-0.0450669291338583
 20
1.881649606299213
 30
0.0
 10
-0.0450669291338583
 20
1.881649606299213
 30
0.0
 10
-0.0450669291338583
 20
1.881649606299213
 30
0.0
 10
-0.1019566929133858
 20
1.881649606299213
 30
0.0
 10
-0.1019566929133858
 20
1.881649606299213
 30
0.0
 10
-0.1019566929133858
 20
1.881649606299213
 30
0.0
 10
-0.1019566929133858
 20
1.881649606299213
 30
0.0
 10
-0.1019566929133858
 20
1.888484251968504
 30
0.0
 10
-0.1019566929133858
 20
1.888484251968504
 30
0.0
 10
-0.1019566929133858
 20
1.888484251968504
 30
0.0
 10
-0.1019566929133858
 20
1.888484251968504
 30
0.0
 10
-0.0981220472440945
 20
1.888484251968504
 30
0.0
 10
-0.0981220472440945
 20
1.888484251968504
 30
0.0
 10
-0.0981220472440945
 20
1.888484251968504
 30
0.0
 10
-0.0944251968503937
 20
1.888484251968504
 30
0.0
 10
-0.0919251968503937
 20
1.889066929133858
 30
0.0
 10
-0.0905669291338583
 20
1.890204724409449
 30
0.0
 10
-0.0905669291338583
 20
1.890204724409449
 30
0.0
 10
-0.0885944881889764
 20
1.891759842519685
 30
0.0
 10
-0.0876220472440945
 20
1.894370078740158
 30
0.0
 10
-0.0876220472440945
 20
1.898011811023622
 30
0.0
 10
-0.0876220472440945
 20
1.898011811023622
 30
0.0
 10
-0.0876220472440945
 20
1.898011811023622
 30
0.0
 10
-0.0876220472440945
 20
1.976870078740158
 30
0.0
 10
-0.0876220472440945
 20
1.976870078740158
 30
0.0
 10
-0.0876220472440945
 20
1.976870078740158
 30
0.0
 10
-0.0876220472440945
 20
1.980566929133858
 30
0.0
 10
-0.0879251968503937
 20
1.983066929133858
 30
0.0
 10
-0.088511811023622
 20
1.984425196850394
 30
0.0
 10
-0.088511811023622
 20
1.984425196850394
 30
0.0
 10
-0.0891220472440945
 20
1.985787401574803
 30
0.0
 10
-0.090011811023622
 20
1.986759842519685
 30
0.0
 10
-0.0912047244094488
 20
1.987370078740158
 30
0.0
 10
-0.0912047244094488
 20
1.987370078740158
 30
0.0
 10
-0.0923976377952756
 20
1.987952755905512
 30
0.0
 10
-0.0947047244094488
 20
1.988259842519685
 30
0.0
 10
-0.0981220472440945
 20
1.988259842519685
 30
0.0
 10
-0.0981220472440945
 20
1.988259842519685
 30
0.0
 10
-0.0981220472440945
 20
1.988259842519685
 30
0.0
 10
-0.1019566929133858
 20
1.988259842519685
 30
0.0
 10
-0.1019566929133858
 20
1.988259842519685
 30
0.0
 10
-0.1019566929133858
 20
1.988259842519685
 30
0.0
 10
-0.1019566929133858
 20
1.988259842519685
 30
0.0
 10
-0.1019566929133858
 20
1.995177165354331
 30
0.0
 10
-0.1019566929133858
 20
1.995177165354331
 30
0.0
  0
SPLINE
  5
70
330
1F
100
AcDbEntity
  8
LAYER_1
 62
   250
100
AcDbSpline
210
0.0
220
0.0
230
1.0
 70
    11
 71
     3
 72
    40
 73
    36
 74
     0
 42
0.0000000001
 43
0.0000000001
 40
0.0
 40
0.0
 40
0.0
 40
0.0
 40
0.1111111111111111
 40
0.1111111111111111
 40
0.1111111111111111
 40
0.1111111111111111
 40
0.2222222222222222
 40
0.2222222222222222
 40
0.2222222222222222
 40
0.2222222222222222
 40
0.3333333333333333
 40
0.3333333333333333
 40
0.3333333333333333
 40
0.3333333333333333
 40
0.4444444444444444
 40
0.4444444444444444
 40
0.4444444444444444
 40
0.4444444444444444
 40
0.5555555555555556
 40
0.5555555555555556
 40
0.5555555555555556
 40
0.5555555555555556
 40
0.6666666666666667
 40
0.6666666666666667
 40
0.6666666666666667
 40
0.6666666666666667
 40
0.7777777777777779
 40
0.7777777777777779
 40
0.7777777777777779
 40
0.7777777777777779
 40
0.8888888888888891
 40
0.8888888888888891
 40
0.8888888888888891
 40
0.8888888888888891
 40
1.0
 40
1.0
 40
1.0
 40
1.0
 10
-0.0723976377952756
 20
1.986149606299213
 30
0.0
 10
-0.0723976377952756
 20
1.986149606299213
 30
0.0
 10
-0.0723976377952756
 20
1.944566929133858
 30
0.0
 10
-0.0723976377952756
 20
1.944566929133858
 30
0.0
 10
-0.0723976377952756
 20
1.944566929133858
 30
0.0
 10
-0.0723976377952756
 20
1.944566929133858
 30
0.0
 10
-0.0516496062992126
 20
1.944566929133858
 30
0.0
 10
-0.0516496062992126
 20
1.944566929133858
 30
0.0
 10
-0.0516496062992126
 20
1.944566929133858
 30
0.0
 10
-0.0419566929133858
 20
1.944566929133858
 30
0.0
 10
-0.0352874015748032
 20
1.945011811023622
 30
0.0
 10
-0.0317322834645669
 20
1.945925196850394
 30
0.0
 10
-0.0317322834645669
 20
1.945925196850394
 30
0.0
 10
-0.0261220472440945
 20
1.947397637795276
 30
0.0
 10
-0.0218740157480315
 20
1.949897637795276
 30
0.0
 10
-0.0189015748031496
 20
1.953425196850394
 30
0.0
 10
-0.0189015748031496
 20
1.953425196850394
 30
0.0
 10
-0.0159566929133858
 20
1.956952755905512
 30
0.0
 10
-0.0144566929133858
 20
1.961484251968504
 30
0.0
 10
-0.0144566929133858
 20
1.967011811023622
 30
0.0
 10
-0.0144566929133858
 20
1.967011811023622
 30
0.0
 10
-0.0144566929133858
 20
1.971677165354331
 30
0.0
 10
-0.0158149606299213
 20
1.975566929133859
 30
0.0
 10
-0.0184842519685039
 20
1.978704724409449
 30
0.0
 10
-0.0184842519685039
 20
1.978704724409449
 30
0.0
 10
-0.0211771653543307
 20
1.981814960629921
 30
0.0
 10
-0.0247874015748032
 20
1.983952755905512
 30
0.0
 10
-0.0292874015748032
 20
1.985094488188977
 30
0.0
 10
-0.0292874015748032
 20
1.985094488188977
 30
0.0
 10
-0.0322047244094488
 20
1.985787401574803
 30
0.0
 10
-0.0382874015748031
 20
1.986149606299213
 30
0.0
 10
-0.0475118110236221
 20
1.986149606299213
 30
0.0
 10
-0.0475118110236221
 20
1.986149606299213
 30
0.0
 10
-0.0475118110236221
 20
1.986149606299213
 30
0.0
 10
-0.0723976377952756
 20
1.986149606299213
 30
0.0
 10
-0.0723976377952756
 20
1.986149606299213
 30
0.0
  0
SPLINE
  5
71
330
1F
100
AcDbEntity
  8
LAYER_1
 62
   250
100
AcDbSpline
210
0.0
220
0.0
230
1.0
 70
    11
 71
     3
 72
    52
 73
    48
 74
     0
 42
0.0000000001
 43
0.0000000001
 40
0.0
 40
0.0
 40
0.0
 40
0.0
 40
0.0833333333333333
 40
0.0833333333333333
 40
0.0833333333333333
 40
0.0833333333333333
 40
0.1666666666666667
 40
0.1666666666666667
 40
0.1666666666666667
 40
0.1666666666666667
 40
0.25
 40
0.25
 40
0.25
 40
0.25
 40
0.3333333333333333
 40
0.3333333333333333
 40
0.3333333333333333
 40
0.3333333333333333
 40
0.4166666666666666
 40
0.4166666666666666
 40
0.4166666666666666
 40
0.4166666666666666
 40
0.4999999999999999
 40
0.4999999999999999
 40
0.4999999999999999
 40
0.4999999999999999
 40
0.5833333333333333
 40
0.5833333333333333
 40
0.5833333333333333
 40
0.5833333333333333
 40
0.6666666666666666
 40
0.6666666666666666
 40
0.6666666666666666
 40
0.6666666666666666
 40
0.75
 40
0.75
 40
0.75
 40
0.75
 40
0.8333333333333334
 40
0.8333333333333334
 40
0.8333333333333334
 40
0.8333333333333334
 40
0.9166666666666667
 40
0.9166666666666667
 40
0.9166666666666667
 40
0.9166666666666667
 40
1.0
 40
1.0
 40
1.0
 40
1.0
 10
-0.0723976377952756
 20
1.936732283464567
 30
0.0
 10
-0.0723976377952756
 20
1.936732283464567
 30
0.0
 10
-0.0723976377952756
 20
1.899484251968504
 30
0.0
 10
-0.0723976377952756
 20
1.899484251968504
 30
0.0
 10
-0.0723976377952756
 20
1.899484251968504
 30
0.0
 10
-0.0723976377952756
 20
1.895732283464567
 30
0.0
 10
-0.0722322834645669
 20
1.893511811023622
 30
0.0
 10
-0.0719291338582677
 20
1.892787401574803
 30
0.0
 10
-0.0719291338582677
 20
1.892787401574803
 30
0.0
 10
-0.0714842519685039
 20
1.891814960629921
 30
0.0
 10
-0.0706220472440945
 20
1.891149606299213
 30
0.0
 10
-0.0693149606299213
 20
1.890759842519685
 30
0.0
 10
-0.0693149606299213
 20
1.890759842519685
 30
0.0
 10
-0.0683976377952756
 20
1.890484251968504
 30
0.0
 10
-0.0657874015748032
 20
1.890342519685039
 30
0.0
 10
-0.061511811023622
 20
1.890342519685039
 30
0.0
 10
-0.061511811023622
 20
1.890342519685039
 30
0.0
 10
-0.061511811023622
 20
1.890342519685039
 30
0.0
 10
-0.0504291338582677
 20
1.890342519685039
 30
0.0
 10
-0.0504291338582677
 20
1.890342519685039
 30
0.0
 10
-0.0504291338582677
 20
1.890342519685039
 30
0.0
 10
-0.0394842519685039
 20
1.890342519685039
 30
0.0
 10
-0.0316496062992126
 20
1.890956692913386
 30
0.0
 10
-0.0269566929133858
 20
1.892177165354331
 30
0.0
 10
-0.0269566929133858
 20
1.892177165354331
 30
0.0
 10
-0.022259842519685
 20
1.893397637795276
 30
0.0
 10
-0.018259842519685
 20
1.895984251968504
 30
0.0
 10
-0.0149566929133858
 20
1.899929133858268
 30
0.0
 10
-0.0149566929133858
 20
1.899929133858268
 30
0.0
 10
-0.0116496062992126
 20
1.90384251968504
 30
0.0
 10
-0.0099842519685039
 20
1.908594488188977
 30
0.0
 10
-0.0099842519685039
 20
1.914122047244095
 30
0.0
 10
-0.0099842519685039
 20
1.914122047244095
 30
0.0
 10
-0.0099842519685039
 20
1.918787401574803
 30
0.0
 10
-0.0113425196850394
 20
1.922925196850394
 30
0.0
 10
-0.014011811023622
 20
1.92653937007874
 30
0.0
 10
-0.014011811023622
 20
1.92653937007874
 30
0.0
 10
-0.0167047244094488
 20
1.930149606299213
 30
0.0
 10
-0.0204291338582677
 20
1.932732283464567
 30
0.0
 10
-0.0251771653543307
 20
1.93434251968504
 30
0.0
 10
-0.0251771653543307
 20
1.93434251968504
 30
0.0
 10
-0.0299291338582677
 20
1.935956692913386
 30
0.0
 10
-0.0383425196850394
 20
1.936732283464567
 30
0.0
 10
-0.0504291338582677
 20
1.936732283464567
 30
0.0
 10
-0.0504291338582677
 20
1.936732283464567
 30
0.0
 10
-0.0504291338582677
 20
1.936732283464567
 30
0.0
 10
-0.0723976377952756
 20
1.936732283464567
 30
0.0
 10
-0.0723976377952756
 20
1.936732283464567
 30
0.0
  0
SPLINE
  5
72
330
1F
100
AcDbEntity
  8
LAYER_1
 62
   250
100
AcDbSpline
210
0.0
220
0.0
230
1.0
 70
    11
 71
     3
 72
   112
 73
   108
 74
     0
 42
0.0000000001
 43
0.0000000001
 40
0.0
 40
0.0
 40
0.0
 40
0.0
 40
0.037037037037037
 40
0.037037037037037
 40
0.037037037037037
 40
0.037037037037037
 40
0.0740740740740741
 40
0.0740740740740741
 40
0.0740740740740741
 40
0.0740740740740741
 40
0.1111111111111111
 40
0.1111111111111111
 40
0.1111111111111111
 40
0.1111111111111111
 40
0.1481481481481481
 40
0.1481481481481481
 40
0.1481481481481481
 40
0.1481481481481481
 40
0.1851851851851852
 40
0.1851851851851852
 40
0.1851851851851852
 40
0.1851851851851852
 40
0.2222222222222222
 40
0.2222222222222222
 40
0.2222222222222222
 40
0.2222222222222222
 40
0.2592592592592592
 40
0.2592592592592592
 40
0.2592592592592592
 40
0.2592592592592592
 40
0.2962962962962963
 40
0.2962962962962963
 40
0.2962962962962963
 40
0.2962962962962963
 40
0.3333333333333333
 40
0.3333333333333333
 40
0.3333333333333333
 40
0.3333333333333333
 40
0.3703703703703704
 40
0.3703703703703704
 40
0.3703703703703704
 40
0.3703703703703704
 40
0.4074074074074074
 40
0.4074074074074074
 40
0.4074074074074074
 40
0.4074074074074074
 40
0.4444444444444444
 40
0.4444444444444444
 40
0.4444444444444444
 40
0.4444444444444444
 40
0.4814814814814815
 40
0.4814814814814815
 40
0.4814814814814815
 40
0.4814814814814815
 40
0.5185185185185185
 40
0.5185185185185185
 40
0.5185185185185185
 40
0.5185185185185185
 40
0.5555555555555556
 40
0.5555555555555556
 40
0.5555555555555556
 40
0.5555555555555556
 40
0.5925925925925926
 40
0.5925925925925926
 40
0.5925925925925926
 40
0.5925925925925926
 40
0.6296296296296295
 40
0.6296296296296295
 40
0.6296296296296295
 40
0.6296296296296295
 40
0.6666666666666665
 40
0.6666666666666665
 40
0.6666666666666665
 40
0.6666666666666665
 40
0.7037037037037035
 40
0.7037037037037035
 40
0.7037037037037035
 40
0.7037037037037035
 40
0.7407407407407405
 40
0.7407407407407405
 40
0.7407407407407405
 40
0.7407407407407405
 40
0.7777777777777775
 40
0.7777777777777775
 40
0.7777777777777775
 40
0.7777777777777775
 40
0.8148148148148144
 40
0.8148148148148144
 40
0.8148148148148144
 40
0.8148148148148144
 40
0.8518518518518514
 40
0.8518518518518514
 40
0.8518518518518514
 40
0.8518518518518514
 40
0.8888888888888884
 40
0.8888888888888884
 40
0.8888888888888884
 40
0.8888888888888884
 40
0.9259259259259254
 40
0.9259259259259254
 40
0.9259259259259254
 40
0.9259259259259254
 40
0.9629629629629624
 40
0.9629629629629624
 40
0.9629629629629624
 40
0.9629629629629624
 40
1.0
 40
1.0
 40
1.0
 40
1.0
 10
0.0647086614173228
 20
1.995177165354331
 30
0.0
 10
0.0647086614173228
 20
1.995177165354331
 30
0.0
 10
0.0781259842519685
 20
1.995177165354331
 30
0.0
 10
0.0781259842519685
 20
1.995177165354331
 30
0.0
 10
0.0781259842519685
 20
1.995177165354331
 30
0.0
 10
0.0781259842519685
 20
1.995177165354331
 30
0.0
 10
0.1133740157480315
 20
1.900287401574803
 30
0.0
 10
0.1133740157480315
 20
1.900287401574803
 30
0.0
 10
0.1133740157480315
 20
1.900287401574803
 30
0.0
 10
0.1150984251968504
 20
1.895511811023622
 30
0.0
 10
0.1168464566929134
 20
1.892342519685039
 30
0.0
 10
0.1186259842519685
 20
1.890814960629921
 30
0.0
 10
0.1186259842519685
 20
1.890814960629921
 30
0.0
 10
0.1203740157480315
 20
1.889259842519685
 30
0.0
 10
0.1227637795275591
 20
1.888484251968504
 30
0.0
 10
0.125736220472441
 20
1.888484251968504
 30
0.0
 10
0.125736220472441
 20
1.888484251968504
 30
0.0
 10
0.125736220472441
 20
1.888484251968504
 30
0.0
 10
0.1275157480314961
 20
1.888484251968504
 30
0.0
 10
0.1275157480314961
 20
1.888484251968504
 30
0.0
 10
0.1275157480314961
 20
1.888484251968504
 30
0.0
 10
0.1275157480314961
 20
1.888484251968504
 30
0.0
 10
0.1275157480314961
 20
1.881649606299213
 30
0.0
 10
0.1275157480314961
 20
1.881649606299213
 30
0.0
 10
0.1275157480314961
 20
1.881649606299213
 30
0.0
 10
0.1275157480314961
 20
1.881649606299213
 30
0.0
 10
0.0870708661417323
 20
1.881649606299213
 30
0.0
 10
0.0870708661417323
 20
1.881649606299213
 30
0.0
 10
0.0870708661417323
 20
1.881649606299213
 30
0.0
 10
0.0870708661417323
 20
1.881649606299213
 30
0.0
 10
0.0870708661417323
 20
1.888484251968504
 30
0.0
 10
0.0870708661417323
 20
1.888484251968504
 30
0.0
 10
0.0870708661417323
 20
1.888484251968504
 30
0.0
 10
0.0883740157480315
 20
1.888594488188977
 30
0.0
 10
0.0896535433070866
 20
1.888649606299213
 30
0.0
 10
0.0909055118110236
 20
1.888649606299213
 30
0.0
 10
0.0909055118110236
 20
1.888649606299213
 30
0.0
 10
0.0935157480314961
 20
1.888649606299213
 30
0.0
 10
0.0952086614173228
 20
1.888929133858268
 30
0.0
 10
0.0960433070866142
 20
1.889456692913386
 30
0.0
 10
0.0960433070866142
 20
1.889456692913386
 30
0.0
 10
0.0975984251968504
 20
1.890484251968504
 30
0.0
 10
0.0984015748031496
 20
1.891787401574803
 30
0.0
 10
0.0984015748031496
 20
1.893370078740158
 30
0.0
 10
0.0984015748031496
 20
1.893370078740158
 30
0.0
 10
0.0984015748031496
 20
1.894511811023622
 30
0.0
 10
0.0976259842519685
 20
1.897287401574803
 30
0.0
 10
0.0961259842519685
 20
1.901759842519685
 30
0.0
 10
0.0961259842519685
 20
1.901759842519685
 30
0.0
 10
0.0961259842519685
 20
1.901759842519685
 30
0.0
 10
0.0886259842519685
 20
1.923732283464567
 30
0.0
 10
0.0886259842519685
 20
1.923732283464567
 30
0.0
 10
0.0886259842519685
 20
1.923732283464567
 30
0.0
 10
0.0886259842519685
 20
1.923732283464567
 30
0.0
 10
0.0474606299212598
 20
1.923732283464567
 30
0.0
 10
0.0474606299212598
 20
1.923732283464567
 30
0.0
 10
0.0474606299212598
 20
1.923732283464567
 30
0.0
 10
0.0474606299212598
 20
1.923732283464567
 30
0.0
 10
0.0386535433070866
 20
1.899149606299213
 30
0.0
 10
0.0386535433070866
 20
1.899149606299213
 30
0.0
 10
0.0386535433070866
 20
1.899149606299213
 30
0.0
 10
0.0377362204724409
 20
1.896594488188977
 30
0.0
 10
0.0372637795275591
 20
1.894842519685039
 30
0.0
 10
0.0372637795275591
 20
1.89384251968504
 30
0.0
 10
0.0372637795275591
 20
1.89384251968504
 30
0.0
 10
0.0372637795275591
 20
1.892759842519685
 30
0.0
 10
0.0375708661417323
 20
1.891814960629921
 30
0.0
 10
0.0381259842519685
 20
1.891011811023622
 30
0.0
 10
0.0381259842519685
 20
1.891011811023622
 30
0.0
 10
0.0387086614173228
 20
1.890204724409449
 30
0.0
 10
0.0394606299212598
 20
1.889594488188976
 30
0.0
 10
0.0404606299212598
 20
1.889177165354331
 30
0.0
 10
0.0404606299212598
 20
1.889177165354331
 30
0.0
 10
0.0414330708661417
 20
1.888759842519685
 30
0.0
 10
0.042988188976378
 20
1.888566929133858
 30
0.0
 10
0.0451811023622047
 20
1.888566929133858
 30
0.0
 10
0.0451811023622047
 20
1.888566929133858
 30
0.0
 10
0.0466259842519685
 20
1.888566929133858
 30
0.0
 10
0.0478188976377953
 20
1.88853937007874
 30
0.0
 10
0.0487362204724409
 20
1.888484251968504
 30
0.0
 10
0.0487362204724409
 20
1.888484251968504
 30
0.0
 10
0.0487362204724409
 20
1.888484251968504
 30
0.0
 10
0.0487362204724409
 20
1.881649606299213
 30
0.0
 10
0.0487362204724409
 20
1.881649606299213
 30
0.0
 10
0.0487362204724409
 20
1.881649606299213
 30
0.0
 10
0.0487362204724409
 20
1.881649606299213
 30
0.0
 10
0.0148188976377953
 20
1.881649606299213
 30
0.0
 10
0.0148188976377953
 20
1.881649606299213
 30
0.0
 10
0.0148188976377953
 20
1.881649606299213
 30
0.0
 10
0.0148188976377953
 20
1.881649606299213
 30
0.0
 10
0.0148188976377953
 20
1.888484251968504
 30
0.0
 10
0.0148188976377953
 20
1.888484251968504
 30
0.0
 10
0.0148188976377953
 20
1.888484251968504
 30
0.0
 10
0.0179606299212598
 20
1.888484251968504
 30
0.0
 10
0.0202362204724409
 20
1.888787401574803
 30
0.0
 10
0.0215984251968504
 20
1.889429133858268
 30
0.0
 10
0.0215984251968504
 20
1.889429133858268
 30
0.0
 10
0.022988188976378
 20
1.89003937007874
 30
0.0
 10
0.0242086614173228
 20
1.89103937007874
 30
0.0
 10
0.0252362204724409
 20
1.892429133858268
 30
0.0
 10
0.0252362204724409
 20
1.892429133858268
 30
0.0
 10
0.0262637795275591
 20
1.893814960629921
 30
0.0
 10
0.0276259842519685
 20
1.896732283464567
 30
0.0
 10
0.0292913385826772
 20
1.901177165354331
 30
0.0
 10
0.0292913385826772
 20
1.901177165354331
 30
0.0
 10
0.0292913385826772
 20
1.901177165354331
 30
0.0
 10
0.0647086614173228
 20
1.995177165354331
 30
0.0
 10
0.0647086614173228
 20
1.995177165354331
 30
0.0
  0
SPLINE
  5
73
330
1F
100
AcDbEntity
  8
LAYER_1
 62
   250
100
AcDbSpline
210
0.0
220
0.0
230
1.0
 70
    11
 71
     3
 72
    16
 73
    12
 74
     0
 42
0.0000000001
 43
0.0000000001
 40
0.0
 40
0.0
 40
0.0
 40
0.0
 40
0.3333333333333333
 40
0.3333333333333333
 40
0.3333333333333333
 40
0.3333333333333333
 40
0.6666666666666666
 40
0.6666666666666666
 40
0.6666666666666666
 40
0.6666666666666666
 40
1.0
 40
1.0
 40
1.0
 40
1.0
 10
0.0504606299212598
 20
1.931704724409449
 30
0.0
 10
0.0504606299212598
 20
1.931704724409449
 30
0.0
 10
0.0855433070866142
 20
1.931704724409449
 30
0.0
 10
0.0855433070866142
 20
1.931704724409449
 30
0.0
 10
0.0855433070866142
 20
1.931704724409449
 30
0.0
 10
0.0855433070866142
 20
1.931704724409449
 30
0.0
 10
0.0679606299212598
 20
1.98053937007874
 30
0.0
 10
0.0679606299212598
 20
1.98053937007874
 30
0.0
 10
0.0679606299212598
 20
1.98053937007874
 30
0.0
 10
0.0679606299212598
 20
1.98053937007874
 30
0.0
 10
0.0504606299212598
 20
1.931704724409449
 30
0.0
 10
0.0504606299212598
 20
1.931704724409449
 30
0.0
  0
SPLINE
  5
74
330
1F
100
AcDbEntity
  8
LAYER_1
 62
   250
100
AcDbSpline
210
0.0
220
0.0
230
1.0
 70
    11
 71
     3
 72
    72
 73
    68
 74
     0
 42
0.0000000001
 43
0.0000000001
 40
0.0
 40
0.0
 40
0.0
 40
0.0
 40
0.0588235294117647
 40
0.0588235294117647
 40
0.0588235294117647
 40
0.0588235294117647
 40
0.1176470588235294
 40
0.1176470588235294
 40
0.1176470588235294
 40
0.1176470588235294
 40
0.1764705882352941
 40
0.1764705882352941
 40
0.1764705882352941
 40
0.1764705882352941
 40
0.2352941176470588
 40
0.2352941176470588
 40
0.2352941176470588
 40
0.2352941176470588
 40
0.2941176470588235
 40
0.2941176470588235
 40
0.2941176470588235
 40
0.2941176470588235
 40
0.3529411764705883
 40
0.3529411764705883
 40
0.3529411764705883
 40
0.3529411764705883
 40
0.411764705882353
 40
0.411764705882353
 40
0.411764705882353
 40
0.411764705882353
 40
0.4705882352941177
 40
0.4705882352941177
 40
0.4705882352941177
 40
0.4705882352941177
 40
0.5294117647058824
 40
0.5294117647058824
 40
0.5294117647058824
 40
0.5294117647058824
 40
0.5882352941176471
 40
0.5882352941176471
 40
0.5882352941176471
 40
0.5882352941176471
 40
0.6470588235294118
 40
0.6470588235294118
 40
0.6470588235294118
 40
0.6470588235294118
 40
0.7058823529411765
 40
0.7058823529411765
 40
0.7058823529411765
 40
0.7058823529411765
 40
0.7647058823529412
 40
0.7647058823529412
 40
0.7647058823529412
 40
0.7647058823529412
 40
0.823529411764706
 40
0.823529411764706
 40
0.823529411764706
 40
0.823529411764706
 40
0.8823529411764707
 40
0.8823529411764707
 40
0.8823529411764707
 40
0.8823529411764707
 40
0.9411764705882354
 40
0.9411764705882354
 40
0.9411764705882354
 40
0.9411764705882354
 40
1.0
 40
1.0
 40
1.0
 40
1.0
 10
0.2905433070866142
 20
1.995177165354331
 30
0.0
 10
0.2905433070866142
 20
1.995177165354331
 30
0.0
 10
0.2966259842519685
 20
1.995177165354331
 30
0.0
 10
0.2966259842519685
 20
1.995177165354331
 30
0.0
 10
0.2966259842519685
 20
1.995177165354331
 30
0.0
 10
0.2966259842519685
 20
1.995177165354331
 30
0.0
 10
0.2966259842519685
 20
1.900929133858268
 30
0.0
 10
0.2966259842519685
 20
1.900929133858268
 30
0.0
 10
0.2966259842519685
 20
1.900929133858268
 30
0.0
 10
0.2966259842519685
 20
1.896484251968504
 30
0.0
 10
0.2969330708661417
 20
1.893622047244095
 30
0.0
 10
0.297488188976378
 20
1.892342519685039
 30
0.0
 10
0.297488188976378
 20
1.892342519685039
 30
0.0
 10
0.2980708661417323
 20
1.891066929133858
 30
0.0
 10
0.298988188976378
 20
1.890122047244095
 30
0.0
 10
0.3002913385826772
 20
1.889456692913386
 30
0.0
 10
0.3002913385826772
 20
1.889456692913386
 30
0.0
 10
0.3015984251968504
 20
1.888814960629921
 30
0.0
 10
0.3041811023622048
 20
1.888484251968504
 30
0.0
 10
0.3080433070866142
 20
1.888484251968504
 30
0.0
 10
0.3080433070866142
 20
1.888484251968504
 30
0.0
 10
0.3080433070866142
 20
1.888484251968504
 30
0.0
 10
0.3160157480314961
 20
1.888484251968504
 30
0.0
 10
0.3160157480314961
 20
1.888484251968504
 30
0.0
 10
0.3160157480314961
 20
1.888484251968504
 30
0.0
 10
0.3160157480314961
 20
1.888484251968504
 30
0.0
 10
0.3160157480314961
 20
1.881649606299213
 30
0.0
 10
0.3160157480314961
 20
1.881649606299213
 30
0.0
 10
0.3160157480314961
 20
1.881649606299213
 30
0.0
 10
0.3160157480314961
 20
1.881649606299213
 30
0.0
 10
0.2623779527559055
 20
1.881649606299213
 30
0.0
 10
0.2623779527559055
 20
1.881649606299213
 30
0.0
 10
0.2623779527559055
 20
1.881649606299213
 30
0.0
 10
0.2623779527559055
 20
1.881649606299213
 30
0.0
 10
0.2623779527559055
 20
1.888484251968504
 30
0.0
 10
0.2623779527559055
 20
1.888484251968504
 30
0.0
 10
0.2623779527559055
 20
1.888484251968504
 30
0.0
 10
0.2623779527559055
 20
1.888484251968504
 30
0.0
 10
0.271236220472441
 20
1.888484251968504
 30
0.0
 10
0.271236220472441
 20
1.888484251968504
 30
0.0
 10
0.271236220472441
 20
1.888484251968504
 30
0.0
 10
0.2750984251968504
 20
1.888484251968504
 30
0.0
 10
0.2776535433070866
 20
1.888814960629921
 30
0.0
 10
0.2789330708661417
 20
1.889511811023622
 30
0.0
 10
0.2789330708661417
 20
1.889511811023622
 30
0.0
 10
0.2802086614173229
 20
1.890177165354331
 30
0.0
 10
0.2812086614173229
 20
1.891259842519685
 30
0.0
 10
0.2819055118110236
 20
1.892759842519685
 30
0.0
 10
0.2819055118110236
 20
1.892759842519685
 30
0.0
 10
0.2825984251968504
 20
1.894259842519685
 30
0.0
 10
0.2829606299212599
 20
1.896984251968504
 30
0.0
 10
0.2829606299212599
 20
1.900929133858268
 30
0.0
 10
0.2829606299212599
 20
1.900929133858268
 30
0.0
 10
0.2829606299212599
 20
1.900929133858268
 30
0.0
 10
0.2829606299212599
 20
1.978397637795276
 30
0.0
 10
0.2829606299212599
 20
1.978397637795276
 30
0.0
 10
0.2829606299212599
 20
1.978397637795276
 30
0.0
 10
0.2829606299212599
 20
1.978397637795276
 30
0.0
 10
0.2623779527559055
 20
1.978397637795276
 30
0.0
 10
0.2623779527559055
 20
1.978397637795276
 30
0.0
 10
0.2623779527559055
 20
1.978397637795276
 30
0.0
 10
0.2623779527559055
 20
1.978397637795276
 30
0.0
 10
0.2623779527559055
 20
1.985397637795276
 30
0.0
 10
0.2623779527559055
 20
1.985397637795276
 30
0.0
 10
0.2623779527559055
 20
1.985397637795276
 30
0.0
 10
0.2735984251968504
 20
1.98698031496063
 30
0.0
 10
0.282988188976378
 20
1.990232283464567
 30
0.0
 10
0.2905433070866142
 20
1.995177165354331
 30
0.0
  0
SPLINE
  5
75
330
1F
100
AcDbEntity
  8
LAYER_1
 62
   250
100
AcDbSpline
210
0.0
220
0.0
230
1.0
 70
    11
 71
     3
 72
    80
 73
    76
 74
     0
 42
0.0000000001
 43
0.0000000001
 40
0.0
 40
0.0
 40
0.0
 40
0.0
 40
0.0526315789473684
 40
0.0526315789473684
 40
0.0526315789473684
 40
0.0526315789473684
 40
0.1052631578947368
 40
0.1052631578947368
 40
0.1052631578947368
 40
0.1052631578947368
 40
0.1578947368421053
 40
0.1578947368421053
 40
0.1578947368421053
 40
0.1578947368421053
 40
0.2105263157894737
 40
0.2105263157894737
 40
0.2105263157894737
 40
0.2105263157894737
 40
0.2631578947368421
 40
0.2631578947368421
 40
0.2631578947368421
 40
0.2631578947368421
 40
0.3157894736842105
 40
0.3157894736842105
 40
0.3157894736842105
 40
0.3157894736842105
 40
0.3684210526315789
 40
0.3684210526315789
 40
0.3684210526315789
 40
0.3684210526315789
 40
0.4210526315789474
 40
0.4210526315789474
 40
0.4210526315789474
 40
0.4210526315789474
 40
0.4736842105263158
 40
0.4736842105263158
 40
0.4736842105263158
 40
0.4736842105263158
 40
0.5263157894736842
 40
0.5263157894736842
 40
0.5263157894736842
 40
0.5263157894736842
 40
0.5789473684210527
 40
0.5789473684210527
 40
0.5789473684210527
 40
0.5789473684210527
 40
0.631578947368421
 40
0.631578947368421
 40
0.631578947368421
 40
0.631578947368421
 40
0.6842105263157894
 40
0.6842105263157894
 40
0.6842105263157894
 40
0.6842105263157894
 40
0.7368421052631577
 40
0.7368421052631577
 40
0.7368421052631577
 40
0.7368421052631577
 40
0.7894736842105261
 40
0.7894736842105261
 40
0.7894736842105261
 40
0.7894736842105261
 40
0.8421052631578945
 40
0.8421052631578945
 40
0.8421052631578945
 40
0.8421052631578945
 40
0.8947368421052628
 40
0.8947368421052628
 40
0.8947368421052628
 40
0.8947368421052628
 40
0.9473684210526312
 40
0.9473684210526312
 40
0.9473684210526312
 40
0.9473684210526312
 40
1.0
 40
1.0
 40
1.0
 40
1.0
 10
0.3559606299212599
 20
1.999314960629921
 30
0.0
 10
0.3559606299212599
 20
1.999314960629921
 30
0.0
 10
0.3613503937007874
 20
1.999314960629921
 30
0.0
 10
0.3613503937007874
 20
1.999314960629921
 30
0.0
 10
0.3613503937007874
 20
1.999314960629921
 30
0.0
 10
0.3613503937007874
 20
1.999314960629921
 30
0.0
 10
0.3623228346456693
 20
1.995177165354331
 30
0.0
 10
0.3623228346456693
 20
1.995177165354331
 30
0.0
 10
0.3623228346456693
 20
1.995177165354331
 30
0.0
 10
0.3623228346456693
 20
1.995177165354331
 30
0.0
 10
0.4334330708661418
 20
1.995177165354331
 30
0.0
 10
0.4334330708661418
 20
1.995177165354331
 30
0.0
 10
0.4334330708661418
 20
1.995177165354331
 30
0.0
 10
0.4334330708661418
 20
1.995177165354331
 30
0.0
 10
0.4334330708661418
 20
1.988259842519685
 30
0.0
 10
0.4334330708661418
 20
1.988259842519685
 30
0.0
 10
0.4334330708661418
 20
1.988259842519685
 30
0.0
 10
0.4249330708661417
 20
1.978425196850394
 30
0.0
 10
0.4172086614173228
 20
1.967259842519685
 30
0.0
 10
0.4102952755905512
 20
1.954677165354331
 30
0.0
 10
0.4102952755905512
 20
1.954677165354331
 30
0.0
 10
0.4033779527559055
 20
1.942122047244095
 30
0.0
 10
0.3980157480314961
 20
1.929342519685039
 30
0.0
 10
0.3942086614173229
 20
1.916314960629921
 30
0.0
 10
0.3942086614173229
 20
1.916314960629921
 30
0.0
 10
0.3914606299212599
 20
1.906929133858268
 30
0.0
 10
0.3892125984251968
 20
1.895370078740158
 30
0.0
 10
0.3874606299212599
 20
1.881649606299213
 30
0.0
 10
0.3874606299212599
 20
1.881649606299213
 30
0.0
 10
0.3874606299212599
 20
1.881649606299213
 30
0.0
 10
0.3707952755905512
 20
1.881649606299213
 30
0.0
 10
0.3707952755905512
 20
1.881649606299213
 30
0.0
 10
0.3707952755905512
 20
1.881649606299213
 30
0.0
 10
0.3724055118110237
 20
1.893759842519685
 30
0.0
 10
0.3750708661417323
 20
1.905066929133858
 30
0.0
 10
0.3787952755905512
 20
1.915594488188976
 30
0.0
 10
0.3787952755905512
 20
1.915594488188976
 30
0.0
 10
0.3825157480314961
 20
1.926122047244095
 30
0.0
 10
0.3878779527559055
 20
1.937122047244095
 30
0.0
 10
0.3949055118110236
 20
1.948594488188977
 30
0.0
 10
0.3949055118110236
 20
1.948594488188977
 30
0.0
 10
0.4019330708661418
 20
1.960066929133858
 30
0.0
 10
0.4104606299212599
 20
1.971511811023622
 30
0.0
 10
0.4205157480314961
 20
1.982952755905512
 30
0.0
 10
0.4205157480314961
 20
1.982952755905512
 30
0.0
 10
0.4205157480314961
 20
1.982952755905512
 30
0.0
 10
0.3697952755905512
 20
1.982952755905512
 30
0.0
 10
0.3697952755905512
 20
1.982952755905512
 30
0.0
 10
0.3697952755905512
 20
1.982952755905512
 30
0.0
 10
0.3661259842519685
 20
1.982952755905512
 30
0.0
 10
0.3635984251968504
 20
1.982787401574803
 30
0.0
 10
0.362240157480315
 20
1.982397637795276
 30
0.0
 10
0.362240157480315
 20
1.982397637795276
 30
0.0
 10
0.3608779527559055
 20
1.982011811023622
 30
0.0
 10
0.3598228346456693
 20
1.981425196850394
 30
0.0
 10
0.3590708661417323
 20
1.980622047244095
 30
0.0
 10
0.3590708661417323
 20
1.980622047244095
 30
0.0
 10
0.3582952755905512
 20
1.979787401574803
 30
0.0
 10
0.3576535433070867
 20
1.97834251968504
 30
0.0
 10
0.3570984251968504
 20
1.976287401574803
 30
0.0
 10
0.3570984251968504
 20
1.976287401574803
 30
0.0
 10
0.3570984251968504
 20
1.976287401574803
 30
0.0
 10
0.3567125984251969
 20
1.974759842519685
 30
0.0
 10
0.3567125984251969
 20
1.974759842519685
 30
0.0
 10
0.3567125984251969
 20
1.974759842519685
 30
0.0
 10
0.3567125984251969
 20
1.974759842519685
 30
0.0
 10
0.3539330708661417
 20
1.965149606299213
 30
0.0
 10
0.3539330708661417
 20
1.965149606299213
 30
0.0
 10
0.3539330708661417
 20
1.965149606299213
 30
0.0
 10
0.3539330708661417
 20
1.965149606299213
 30
0.0
 10
0.3470157480314961
 20
1.966622047244095
 30
0.0
 10
0.3470157480314961
 20
1.966622047244095
 30
0.0
 10
0.3470157480314961
 20
1.966622047244095
 30
0.0
 10
0.3470157480314961
 20
1.966622047244095
 30
0.0
 10
0.3559606299212599
 20
1.999314960629921
 30
0.0
 10
0.3559606299212599
 20
1.999314960629921
 30
0.0
  0
SPLINE
  5
76
330
1F
100
AcDbEntity
  8
LAYER_1
 62
   250
100
AcDbSpline
210
0.0
220
0.0
230
1.0
 70
    11
 71
     3
 72
    84
 73
    80
 74
     0
 42
0.0000000001
 43
0.0000000001
 40
0.0
 40
0.0
 40
0.0
 40
0.0
 40
0.05
 40
0.05
 40
0.05
 40
0.05
 40
0.1
 40
0.1
 40
0.1
 40
0.1
 40
0.15
 40
0.15
 40
0.15
 40
0.15
 40
0.2
 40
0.2
 40
0.2
 40
0.2
 40
0.25
 40
0.25
 40
0.25
 40
0.25
 40
0.3
 40
0.3
 40
0.3
 40
0.3
 40
0.35
 40
0.35
 40
0.35
 40
0.35
 40
0.4
 40
0.4
 40
0.4
 40
0.4
 40
0.45
 40
0.45
 40
0.45
 40
0.45
 40
0.4999999999999999
 40
0.4999999999999999
 40
0.4999999999999999
 40
0.4999999999999999
 40
0.5499999999999999
 40
0.5499999999999999
 40
0.5499999999999999
 40
0.5499999999999999
 40
0.6
 40
0.6
 40
0.6
 40
0.6
 40
0.65
 40
0.65
 40
0.65
 40
0.65
 40
0.7000000000000001
 40
0.7000000000000001
 40
0.7000000000000001
 40
0.7000000000000001
 40
0.7500000000000001
 40
0.7500000000000001
 40
0.7500000000000001
 40
0.7500000000000001
 40
0.8000000000000002
 40
0.8000000000000002
 40
0.8000000000000002
 40
0.8000000000000002
 40
0.8500000000000002
 40
0.8500000000000002
 40
0.8500000000000002
 40
0.8500000000000002
 40
0.9000000000000002
 40
0.9000000000000002
 40
0.9000000000000002
 40
0.9000000000000002
 40
0.9500000000000003
 40
0.9500000000000003
 40
0.9500000000000003
 40
0.9500000000000003
 40
1.0
 40
1.0
 40
1.0
 40
1.0
 10
0.5255708661417323
 20
1.997287401574803
 30
0.0
 10
0.5255708661417323
 20
1.997287401574803
 30
0.0
 10
0.5255708661417323
 20
1.989870078740158
 30
0.0
 10
0.5255708661417323
 20
1.989870078740158
 30
0.0
 10
0.5255708661417323
 20
1.989870078740158
 30
0.0
 10
0.5121850393700788
 20
1.989732283464567
 30
0.0
 10
0.5013503937007874
 20
1.987759842519685
 30
0.0
 10
0.4930748031496063
 20
1.98403937007874
 30
0.0
 10
0.4930748031496063
 20
1.98403937007874
 30
0.0
 10
0.4847952755905512
 20
1.980287401574803
 30
0.0
 10
0.4787125984251969
 20
1.974677165354331
 30
0.0
 10
0.4747952755905512
 20
1.967232283464567
 30
0.0
 10
0.4747952755905512
 20
1.967232283464567
 30
0.0
 10
0.4708779527559056
 20
1.959759842519685
 30
0.0
 10
0.4686850393700788
 20
1.950566929133858
 30
0.0
 10
0.4682125984251969
 20
1.939677165354331
 30
0.0
 10
0.4682125984251969
 20
1.939677165354331
 30
0.0
 10
0.4709606299212599
 20
1.943897637795276
 30
0.0
 10
0.4737952755905512
 20
1.947204724409449
 30
0.0
 10
0.4767125984251969
 20
1.949566929133858
 30
0.0
 10
0.4767125984251969
 20
1.949566929133858
 30
0.0
 10
0.4796023622047244
 20
1.951925196850394
 30
0.0
 10
0.482988188976378
 20
1.953732283464567
 30
0.0
 10
0.4868779527559055
 20
1.955011811023622
 30
0.0
 10
0.4868779527559055
 20
1.955011811023622
 30
0.0
 10
0.4907677165354331
 20
1.956287401574803
 30
0.0
 10
0.4950157480314961
 20
1.956925196850394
 30
0.0
 10
0.4996299212598425
 20
1.956925196850394
 30
0.0
 10
0.4996299212598425
 20
1.956925196850394
 30
0.0
 10
0.506988188976378
 20
1.956925196850394
 30
0.0
 10
0.5135708661417323
 20
1.955287401574803
 30
0.0
 10
0.5193228346456693
 20
1.95203937007874
 30
0.0
 10
0.5193228346456693
 20
1.95203937007874
 30
0.0
 10
0.5250708661417323
 20
1.948787401574803
 30
0.0
 10
0.5295433070866142
 20
1.944370078740158
 30
0.0
 10
0.532740157480315
 20
1.938814960629921
 30
0.0
 10
0.532740157480315
 20
1.938814960629921
 30
0.0
 10
0.5359330708661417
 20
1.933259842519685
 30
0.0
 10
0.5375433070866142
 20
1.926704724409449
 30
0.0
 10
0.5375433070866142
 20
1.919177165354331
 30
0.0
 10
0.5375433070866142
 20
1.919177165354331
 30
0.0
 10
0.5375433070866142
 20
1.907177165354331
 30
0.0
 10
0.5339330708661417
 20
1.897759842519685
 30
0.0
 10
0.5267125984251969
 20
1.890929133858268
 30
0.0
 10
0.5267125984251969
 20
1.890929133858268
 30
0.0
 10
0.518740157480315
 20
1.883429133858268
 30
0.0
 10
0.5084055118110237
 20
1.879704724409449
 30
0.0
 10
0.4957125984251969
 20
1.879704724409449
 30
0.0
 10
0.4957125984251969
 20
1.879704724409449
 30
0.0
 10
0.4865433070866142
 20
1.879704724409449
 30
0.0
 10
0.4788228346456693
 20
1.881594488188976
 30
0.0
 10
0.4725157480314961
 20
1.885397637795276
 30
0.0
 10
0.4725157480314961
 20
1.885397637795276
 30
0.0
 10
0.4662125984251969
 20
1.889177165354331
 30
0.0
 10
0.4612125984251969
 20
1.894984251968504
 30
0.0
 10
0.457488188976378
 20
1.902814960629921
 30
0.0
 10
0.457488188976378
 20
1.902814960629921
 30
0.0
 10
0.4537952755905512
 20
1.910622047244095
 30
0.0
 10
0.4519330708661418
 20
1.920287401574803
 30
0.0
 10
0.4519330708661418
 20
1.931787401574803
 30
0.0
 10
0.4519330708661418
 20
1.931787401574803
 30
0.0
 10
0.4519330708661418
 20
1.943342519685039
 30
0.0
 10
0.4539055118110236
 20
1.953594488188976
 30
0.0
 10
0.4578228346456693
 20
1.96253937007874
 30
0.0
 10
0.4578228346456693
 20
1.96253937007874
 30
0.0
 10
0.4617677165354331
 20
1.97148031496063
 30
0.0
 10
0.4672125984251969
 20
1.978677165354331
 30
0.0
 10
0.4741574803149606
 20
1.984094488188976
 30
0.0
 10
0.4741574803149606
 20
1.984094488188976
 30
0.0
 10
0.4811023622047244
 20
1.98953937007874
 30
0.0
 10
0.4887125984251969
 20
1.993094488188977
 30
0.0
 10
0.4969606299212599
 20
1.994759842519685
 30
0.0
 10
0.4969606299212599
 20
1.994759842519685
 30
0.0
 10
0.505240157480315
 20
1.996452755905512
 30
0.0
 10
0.5126574803149606
 20
1.997287401574803
 30
0.0
 10
0.5192401574803149
 20
1.997287401574803
 30
0.0
 10
0.5192401574803149
 20
1.997287401574803
 30
0.0
 10
0.5192401574803149
 20
1.997287401574803
 30
0.0
 10
0.5255708661417323
 20
1.997287401574803
 30
0.0
 10
0.5255708661417323
 20
1.997287401574803
 30
0.0
  0
SPLINE
  5
77
330
1F
100
AcDbEntity
  8
LAYER_1
 62
   250
100
AcDbSpline
210
0.0
220
0.0
230
1.0
 70
    11
 71
     3
 72
    40
 73
    36
 74
     0
 42
0.0000000001
 43
0.0000000001
 40
0.0
 40
0.0
 40
0.0
 40
0.0
 40
0.1111111111111111
 40
0.1111111111111111
 40
0.1111111111111111
 40
0.1111111111111111
 40
0.2222222222222222
 40
0.2222222222222222
 40
0.2222222222222222
 40
0.2222222222222222
 40
0.3333333333333333
 40
0.3333333333333333
 40
0.3333333333333333
 40
0.3333333333333333
 40
0.4444444444444444
 40
0.4444444444444444
 40
0.4444444444444444
 40
0.4444444444444444
 40
0.5555555555555556
 40
0.5555555555555556
 40
0.5555555555555556
 40
0.5555555555555556
 40
0.6666666666666667
 40
0.6666666666666667
 40
0.6666666666666667
 40
0.6666666666666667
 40
0.7777777777777779
 40
0.7777777777777779
 40
0.7777777777777779
 40
0.7777777777777779
 40
0.8888888888888891
 40
0.8888888888888891
 40
0.8888888888888891
 40
0.8888888888888891
 40
1.0
 40
1.0
 40
1.0
 40
1.0
 10
0.4958779527559055
 20
1.948287401574803
 30
0.0
 10
0.4880748031496063
 20
1.948287401574803
 30
0.0
 10
0.4816574803149606
 20
1.945342519685039
 30
0.0
 10
0.4766299212598426
 20
1.939425196850394
 30
0.0
 10
0.4766299212598426
 20
1.939425196850394
 30
0.0
 10
0.4716023622047244
 20
1.933511811023622
 30
0.0
 10
0.4691023622047245
 20
1.926397637795276
 30
0.0
 10
0.4691023622047245
 20
1.918122047244095
 30
0.0
 10
0.4691023622047245
 20
1.918122047244095
 30
0.0
 10
0.4691023622047245
 20
1.912259842519685
 30
0.0
 10
0.4703228346456693
 20
1.906842519685039
 30
0.0
 10
0.4727677165354331
 20
1.901870078740158
 30
0.0
 10
0.4727677165354331
 20
1.901870078740158
 30
0.0
 10
0.4752125984251969
 20
1.896897637795276
 30
0.0
 10
0.4783503937007874
 20
1.893232283464567
 30
0.0
 10
0.4822125984251969
 20
1.890814960629921
 30
0.0
 10
0.4822125984251969
 20
1.890814960629921
 30
0.0
 10
0.4860433070866142
 20
1.888397637795276
 30
0.0
 10
0.4904055118110237
 20
1.887177165354331
 30
0.0
 10
0.4952125984251969
 20
1.887177165354331
 30
0.0
 10
0.4952125984251969
 20
1.887177165354331
 30
0.0
 10
0.5027125984251969
 20
1.887177165354331
 30
0.0
 10
0.5089330708661417
 20
1.890011811023622
 30
0.0
 10
0.5139055118110236
 20
1.895677165354331
 30
0.0
 10
0.5139055118110236
 20
1.895677165354331
 30
0.0
 10
0.5188503937007875
 20
1.90134251968504
 30
0.0
 10
0.5213503937007874
 20
1.908956692913386
 30
0.0
 10
0.5213503937007874
 20
1.918511811023622
 30
0.0
 10
0.5213503937007874
 20
1.918511811023622
 30
0.0
 10
0.5213503937007874
 20
1.927622047244095
 30
0.0
 10
0.5189330708661417
 20
1.934870078740158
 30
0.0
 10
0.5141023622047244
 20
1.940232283464567
 30
0.0
 10
0.5141023622047244
 20
1.940232283464567
 30
0.0
 10
0.5092677165354331
 20
1.945622047244095
 30
0.0
 10
0.5031850393700788
 20
1.948287401574803
 30
0.0
 10
0.4958779527559055
 20
1.948287401574803
 30
0.0
  0
SPLINE
  5
78
330
1F
100
AcDbEntity
  8
LAYER_1
 62
   250
100
AcDbSpline
210
0.0
220
0.0
230
1.0
 70
    11
 71
     3
 72
    80
 73
    76
 74
     0
 42
0.0000000001
 43
0.0000000001
 40
0.0
 40
0.0
 40
0.0
 40
0.0
 40
0.0526315789473684
 40
0.0526315789473684
 40
0.0526315789473684
 40
0.0526315789473684
 40
0.1052631578947368
 40
0.1052631578947368
 40
0.1052631578947368
 40
0.1052631578947368
 40
0.1578947368421053
 40
0.1578947368421053
 40
0.1578947368421053
 40
0.1578947368421053
 40
0.2105263157894737
 40
0.2105263157894737
 40
0.2105263157894737
 40
0.2105263157894737
 40
0.2631578947368421
 40
0.2631578947368421
 40
0.2631578947368421
 40
0.2631578947368421
 40
0.3157894736842105
 40
0.3157894736842105
 40
0.3157894736842105
 40
0.3157894736842105
 40
0.3684210526315789
 40
0.3684210526315789
 40
0.3684210526315789
 40
0.3684210526315789
 40
0.4210526315789474
 40
0.4210526315789474
 40
0.4210526315789474
 40
0.4210526315789474
 40
0.4736842105263158
 40
0.4736842105263158
 40
0.4736842105263158
 40
0.4736842105263158
 40
0.5263157894736842
 40
0.5263157894736842
 40
0.5263157894736842
 40
0.5263157894736842
 40
0.5789473684210527
 40
0.5789473684210527
 40
0.5789473684210527
 40
0.5789473684210527
 40
0.631578947368421
 40
0.631578947368421
 40
0.631578947368421
 40
0.631578947368421
 40
0.6842105263157894
 40
0.6842105263157894
 40
0.6842105263157894
 40
0.6842105263157894
 40
0.7368421052631577
 40
0.7368421052631577
 40
0.7368421052631577
 40
0.7368421052631577
 40
0.7894736842105261
 40
0.7894736842105261
 40
0.7894736842105261
 40
0.7894736842105261
 40
0.8421052631578945
 40
0.8421052631578945
 40
0.8421052631578945
 40
0.8421052631578945
 40
0.8947368421052628
 40
0.8947368421052628
 40
0.8947368421052628
 40
0.8947368421052628
 40
0.9473684210526312
 40
0.9473684210526312
 40
0.9473684210526312
 40
0.9473684210526312
 40
1.0
 40
1.0
 40
1.0
 40
1.0
 10
0.5626850393700787
 20
1.999314960629921
 30
0.0
 10
0.5626850393700787
 20
1.999314960629921
 30
0.0
 10
0.5680748031496063
 20
1.999314960629921
 30
0.0
 10
0.5680748031496063
 20
1.999314960629921
 30
0.0
 10
0.5680748031496063
 20
1.999314960629921
 30
0.0
 10
0.5680748031496063
 20
1.999314960629921
 30
0.0
 10
0.5690472440944883
 20
1.995177165354331
 30
0.0
 10
0.5690472440944883
 20
1.995177165354331
 30
0.0
 10
0.5690472440944883
 20
1.995177165354331
 30
0.0
 10
0.5690472440944883
 20
1.995177165354331
 30
0.0
 10
0.6401574803149607
 20
1.995177165354331
 30
0.0
 10
0.6401574803149607
 20
1.995177165354331
 30
0.0
 10
0.6401574803149607
 20
1.995177165354331
 30
0.0
 10
0.6401574803149607
 20
1.995177165354331
 30
0.0
 10
0.6401574803149607
 20
1.988259842519685
 30
0.0
 10
0.6401574803149607
 20
1.988259842519685
 30
0.0
 10
0.6401574803149607
 20
1.988259842519685
 30
0.0
 10
0.6316574803149606
 20
1.978425196850394
 30
0.0
 10
0.6239330708661418
 20
1.967259842519685
 30
0.0
 10
0.6170196850393701
 20
1.954677165354331
 30
0.0
 10
0.6170196850393701
 20
1.954677165354331
 30
0.0
 10
0.6101023622047245
 20
1.942122047244095
 30
0.0
 10
0.604740157480315
 20
1.929342519685039
 30
0.0
 10
0.6009330708661418
 20
1.916314960629921
 30
0.0
 10
0.6009330708661418
 20
1.916314960629921
 30
0.0
 10
0.5981850393700787
 20
1.906929133858268
 30
0.0
 10
0.5959370078740158
 20
1.895370078740158
 30
0.0
 10
0.5941850393700787
 20
1.881649606299213
 30
0.0
 10
0.5941850393700787
 20
1.881649606299213
 30
0.0
 10
0.5941850393700787
 20
1.881649606299213
 30
0.0
 10
0.5775196850393701
 20
1.881649606299213
 30
0.0
 10
0.5775196850393701
 20
1.881649606299213
 30
0.0
 10
0.5775196850393701
 20
1.881649606299213
 30
0.0
 10
0.5791299212598425
 20
1.893759842519685
 30
0.0
 10
0.5817952755905512
 20
1.905066929133858
 30
0.0
 10
0.5855196850393701
 20
1.915594488188976
 30
0.0
 10
0.5855196850393701
 20
1.915594488188976
 30
0.0
 10
0.589240157480315
 20
1.926122047244095
 30
0.0
 10
0.5946023622047244
 20
1.937122047244095
 30
0.0
 10
0.6016299212598425
 20
1.948594488188977
 30
0.0
 10
0.6016299212598425
 20
1.948594488188977
 30
0.0
 10
0.6086574803149607
 20
1.960066929133858
 30
0.0
 10
0.6171850393700787
 20
1.971511811023622
 30
0.0
 10
0.627240157480315
 20
1.982952755905512
 30
0.0
 10
0.627240157480315
 20
1.982952755905512
 30
0.0
 10
0.627240157480315
 20
1.982952755905512
 30
0.0
 10
0.5765196850393701
 20
1.982952755905512
 30
0.0
 10
0.5765196850393701
 20
1.982952755905512
 30
0.0
 10
0.5765196850393701
 20
1.982952755905512
 30
0.0
 10
0.5728503937007874
 20
1.982952755905512
 30
0.0
 10
0.5703228346456694
 20
1.982787401574803
 30
0.0
 10
0.5689645669291339
 20
1.982397637795276
 30
0.0
 10
0.5689645669291339
 20
1.982397637795276
 30
0.0
 10
0.5676023622047244
 20
1.982011811023622
 30
0.0
 10
0.5665472440944882
 20
1.981425196850394
 30
0.0
 10
0.5657952755905512
 20
1.980622047244095
 30
0.0
 10
0.5657952755905512
 20
1.980622047244095
 30
0.0
 10
0.5650196850393701
 20
1.979787401574803
 30
0.0
 10
0.5643779527559055
 20
1.97834251968504
 30
0.0
 10
0.5638228346456693
 20
1.976287401574803
 30
0.0
 10
0.5638228346456693
 20
1.976287401574803
 30
0.0
 10
0.5638228346456693
 20
1.976287401574803
 30
0.0
 10
0.5634370078740157
 20
1.974759842519685
 30
0.0
 10
0.5634370078740157
 20
1.974759842519685
 30
0.0
 10
0.5634370078740157
 20
1.974759842519685
 30
0.0
 10
0.5634370078740157
 20
1.974759842519685
 30
0.0
 10
0.5606574803149607
 20
1.965149606299213
 30
0.0
 10
0.5606574803149607
 20
1.965149606299213
 30
0.0
 10
0.5606574803149607
 20
1.965149606299213
 30
0.0
 10
0.5606574803149607
 20
1.965149606299213
 30
0.0
 10
0.553740157480315
 20
1.966622047244095
 30
0.0
 10
0.553740157480315
 20
1.966622047244095
 30
0.0
 10
0.553740157480315
 20
1.966622047244095
 30
0.0
 10
0.553740157480315
 20
1.966622047244095
 30
0.0
 10
0.5626850393700787
 20
1.999314960629921
 30
0.0
 10
0.5626850393700787
 20
1.999314960629921
 30
0.0
  0
SPLINE
  5
79
330
1F
100
AcDbEntity
  8
LAYER_1
 62
   250
100
AcDbSpline
210
0.0
220
0.0
230
1.0
 70
    11
 71
     3
 72
   172
 73
   168
 74
     0
 42
0.0000000001
 43
0.0000000001
 40
0.0
 40
0.0
 40
0.0
 40
0.0
 40
0.0238095238095238
 40
0.0238095238095238
 40
0.0238095238095238
 40
0.0238095238095238
 40
0.0476190476190476
 40
0.0476190476190476
 40
0.0476190476190476
 40
0.0476190476190476
 40
0.0714285714285714
 40
0.0714285714285714
 40
0.0714285714285714
 40
0.0714285714285714
 40
0.0952380952380952
 40
0.0952380952380952
 40
0.0952380952380952
 40
0.0952380952380952
 40
0.119047619047619
 40
0.119047619047619
 40
0.119047619047619
 40
0.119047619047619
 40
0.1428571428571429
 40
0.1428571428571429
 40
0.1428571428571429
 40
0.1428571428571429
 40
0.1666666666666667
 40
0.1666666666666667
 40
0.1666666666666667
 40
0.1666666666666667
 40
0.1904761904761905
 40
0.1904761904761905
 40
0.1904761904761905
 40
0.1904761904761905
 40
0.2142857142857143
 40
0.2142857142857143
 40
0.2142857142857143
 40
0.2142857142857143
 40
0.2380952380952381
 40
0.2380952380952381
 40
0.2380952380952381
 40
0.2380952380952381
 40
0.2619047619047619
 40
0.2619047619047619
 40
0.2619047619047619
 40
0.2619047619047619
 40
0.2857142857142857
 40
0.2857142857142857
 40
0.2857142857142857
 40
0.2857142857142857
 40
0.3095238095238095
 40
0.3095238095238095
 40
0.3095238095238095
 40
0.3095238095238095
 40
0.3333333333333334
 40
0.3333333333333334
 40
0.3333333333333334
 40
0.3333333333333334
 40
0.3571428571428572
 40
0.3571428571428572
 40
0.3571428571428572
 40
0.3571428571428572
 40
0.380952380952381
 40
0.380952380952381
 40
0.380952380952381
 40
0.380952380952381
 40
0.4047619047619049
 40
0.4047619047619049
 40
0.4047619047619049
 40
0.4047619047619049
 40
0.4285714285714287
 40
0.4285714285714287
 40
0.4285714285714287
 40
0.4285714285714287
 40
0.4523809523809526
 40
0.4523809523809526
 40
0.4523809523809526
 40
0.4523809523809526
 40
0.4761904761904764
 40
0.4761904761904764
 40
0.4761904761904764
 40
0.4761904761904764
 40
0.5000000000000002
 40
0.5000000000000002
 40
0.5000000000000002
 40
0.5000000000000002
 40
0.5238095238095241
 40
0.5238095238095241
 40
0.5238095238095241
 40
0.5238095238095241
 40
0.5476190476190479
 40
0.5476190476190479
 40
0.5476190476190479
 40
0.5476190476190479
 40
0.5714285714285717
 40
0.5714285714285717
 40
0.5714285714285717
 40
0.5714285714285717
 40
0.5952380952380956
 40
0.5952380952380956
 40
0.5952380952380956
 40
0.5952380952380956
 40
0.6190476190476194
 40
0.6190476190476194
 40
0.6190476190476194
 40
0.6190476190476194
 40
0.6428571428571432
 40
0.6428571428571432
 40
0.6428571428571432
 40
0.6428571428571432
 40
0.6666666666666671
 40
0.6666666666666671
 40
0.6666666666666671
 40
0.6666666666666671
 40
0.6904761904761909
 40
0.6904761904761909
 40
0.6904761904761909
 40
0.6904761904761909
 40
0.7142857142857148
 40
0.7142857142857148
 40
0.7142857142857148
 40
0.7142857142857148
 40
0.7380952380952386
 40
0.7380952380952386
 40
0.7380952380952386
 40
0.7380952380952386
 40
0.7619047619047624
 40
0.7619047619047624
 40
0.7619047619047624
 40
0.7619047619047624
 40
0.7857142857142863
 40
0.7857142857142863
 40
0.7857142857142863
 40
0.7857142857142863
 40
0.8095238095238101
 40
0.8095238095238101
 40
0.8095238095238101
 40
0.8095238095238101
 40
0.8333333333333339
 40
0.8333333333333339
 40
0.8333333333333339
 40
0.8333333333333339
 40
0.8571428571428578
 40
0.8571428571428578
 40
0.8571428571428578
 40
0.8571428571428578
 40
0.8809523809523816
 40
0.8809523809523816
 40
0.8809523809523816
 40
0.8809523809523816
 40
0.9047619047619054
 40
0.9047619047619054
 40
0.9047619047619054
 40
0.9047619047619054
 40
0.9285714285714293
 40
0.9285714285714293
 40
0.9285714285714293
 40
0.9285714285714293
 40
0.9523809523809531
 40
0.9523809523809531
 40
0.9523809523809531
 40
0.9523809523809531
 40
0.9761904761904769
 40
0.9761904761904769
 40
0.9761904761904769
 40
0.9761904761904769
 40
1.0
 40
1.0
 40
1.0
 40
1.0
 10
-0.2333425196850394
 20
1.777314960629921
 30
0.0
 10
-0.2333425196850394
 20
1.777314960629921
 30
0.0
 10
-0.2411496062992126
 20
1.77853937007874
 30
0.0
 10
-0.2411496062992126
 20
1.77853937007874
 30
0.0
 10
-0.2411496062992126
 20
1.77853937007874
 30
0.0
 10
-0.2404527559055118
 20
1.784397637795276
 30
0.0
 10
-0.2389251968503937
 20
1.789259842519685
 30
0.0
 10
-0.2365905511811024
 20
1.793122047244095
 30
0.0
 10
-0.2365905511811024
 20
1.793122047244095
 30
0.0
 10
-0.2335078740157481
 20
1.798314960629921
 30
0.0
 10
-0.2291496062992126
 20
1.802370078740158
 30
0.0
 10
-0.223507874015748
 20
1.805259842519685
 30
0.0
 10
-0.223507874015748
 20
1.805259842519685
 30
0.0
 10
-0.2178425196850394
 20
1.808177165354331
 30
0.0
 10
-0.2113700787401575
 20
1.809622047244095
 30
0.0
 10
-0.2040354330708662
 20
1.809622047244095
 30
0.0
 10
-0.2040354330708662
 20
1.809622047244095
 30
0.0
 10
-0.1968425196850394
 20
1.809622047244095
 30
0.0
 10
-0.1904803149606299
 20
1.808342519685039
 30
0.0
 10
-0.185007874015748
 20
1.805759842519685
 30
0.0
 10
-0.185007874015748
 20
1.805759842519685
 30
0.0
 10
-0.1795354330708661
 20
1.803177165354331
 30
0.0
 10
-0.1753976377952756
 20
1.799759842519685
 30
0.0
 10
-0.1725944881889764
 20
1.795511811023622
 30
0.0
 10
-0.1725944881889764
 20
1.795511811023622
 30
0.0
 10
-0.1697874015748032
 20
1.791259842519685
 30
0.0
 10
-0.1683976377952756
 20
1.786649606299213
 30
0.0
 10
-0.1683976377952756
 20
1.781704724409449
 30
0.0
 10
-0.1683976377952756
 20
1.781704724409449
 30
0.0
 10
-0.1683976377952756
 20
1.777370078740158
 30
0.0
 10
-0.1694527559055118
 20
1.773484251968504
 30
0.0
 10
-0.1715669291338583
 20
1.770066929133858
 30
0.0
 10
-0.1715669291338583
 20
1.770066929133858
 30
0.0
 10
-0.1737047244094488
 20
1.766649606299213
 30
0.0
 10
-0.1768425196850394
 20
1.763594488188977
 30
0.0
 10
-0.181007874015748
 20
1.760870078740157
 30
0.0
 10
-0.181007874015748
 20
1.760870078740157
 30
0.0
 10
-0.1839527559055118
 20
1.758984251968504
 30
0.0
 10
-0.1877598425196851
 20
1.757314960629921
 30
0.0
 10
-0.1924803149606299
 20
1.755925196850394
 30
0.0
 10
-0.1924803149606299
 20
1.755925196850394
 30
0.0
 10
-0.1874527559055118
 20
1.755204724409449
 30
0.0
 10
-0.1833149606299213
 20
1.75403937007874
 30
0.0
 10
-0.1801220472440945
 20
1.752425196850394
 30
0.0
 10
-0.1801220472440945
 20
1.752425196850394
 30
0.0
 10
-0.1749251968503937
 20
1.749759842519685
 30
0.0
 10
-0.1708149606299213
 20
1.746094488188976
 30
0.0
 10
-0.1678425196850394
 20
1.741425196850394
 30
0.0
 10
-0.1678425196850394
 20
1.741425196850394
 30
0.0
 10
-0.1648425196850394
 20
1.736759842519685
 30
0.0
 10
-0.1633700787401575
 20
1.731649606299213
 30
0.0
 10
-0.1633700787401575
 20
1.72603937007874
 30
0.0
 10
-0.1633700787401575
 20
1.72603937007874
 30
0.0
 10
-0.1633700787401575
 20
1.717094488188977
 30
0.0
 10
-0.1672874015748032
 20
1.709204724409449
 30
0.0
 10
-0.1751496062992126
 20
1.702397637795276
 30
0.0
 10
-0.1751496062992126
 20
1.702397637795276
 30
0.0
 10
-0.1830354330708661
 20
1.695594488188976
 30
0.0
 10
-0.1932047244094488
 20
1.692204724409449
 30
0.0
 10
-0.2056771653543307
 20
1.692204724409449
 30
0.0
 10
-0.2056771653543307
 20
1.692204724409449
 30
0.0
 10
-0.2179803149606299
 20
1.692204724409449
 30
0.0
 10
-0.2283425196850394
 20
1.695484251968504
 30
0.0
 10
-0.236759842519685
 20
1.70203937007874
 30
0.0
 10
-0.236759842519685
 20
1.70203937007874
 30
0.0
 10
-0.2438149606299213
 20
1.707622047244095
 30
0.0
 10
-0.2473425196850394
 20
1.713259842519685
 30
0.0
 10
-0.2473425196850394
 20
1.718897637795276
 30
0.0
 10
-0.2473425196850394
 20
1.718897637795276
 30
0.0
 10
-0.2473425196850394
 20
1.721122047244095
 30
0.0
 10
-0.2466181102362205
 20
1.722984251968504
 30
0.0
 10
-0.2451771653543307
 20
1.724456692913386
 30
0.0
 10
-0.2451771653543307
 20
1.724456692913386
 30
0.0
 10
-0.2437598425196851
 20
1.725956692913386
 30
0.0
 10
-0.2419527559055118
 20
1.726704724409449
 30
0.0
 10
-0.2397598425196851
 20
1.726704724409449
 30
0.0
 10
-0.2397598425196851
 20
1.726704724409449
 30
0.0
 10
-0.2373976377952756
 20
1.726704724409449
 30
0.0
 10
-0.2353425196850394
 20
1.725787401574803
 30
0.0
 10
-0.2336771653543307
 20
1.723925196850394
 30
0.0
 10
-0.2336771653543307
 20
1.723925196850394
 30
0.0
 10
-0.232759842519685
 20
1.722897637795276
 30
0.0
 10
-0.2316771653543307
 20
1.720429133858268
 30
0.0
 10
-0.230507874015748
 20
1.71653937007874
 30
0.0
 10
-0.230507874015748
 20
1.71653937007874
 30
0.0
 10
-0.2288149606299213
 20
1.71103937007874
 30
0.0
 10
-0.2259527559055118
 20
1.706870078740158
 30
0.0
 10
-0.2219527559055118
 20
1.704011811023622
 30
0.0
 10
-0.2219527559055118
 20
1.704011811023622
 30
0.0
 10
-0.2179251968503937
 20
1.701122047244095
 30
0.0
 10
-0.2129527559055118
 20
1.699677165354331
 30
0.0
 10
-0.2069803149606299
 20
1.699677165354331
 30
0.0
 10
-0.2069803149606299
 20
1.699677165354331
 30
0.0
 10
-0.2016496062992126
 20
1.699677165354331
 30
0.0
 10
-0.1968976377952756
 20
1.700842519685039
 30
0.0
 10
-0.1927047244094488
 20
1.703177165354331
 30
0.0
 10
-0.1927047244094488
 20
1.703177165354331
 30
0.0
 10
-0.1884803149606299
 20
1.705511811023622
 30
0.0
 10
-0.1851771653543307
 20
1.708814960629921
 30
0.0
 10
-0.1827322834645669
 20
1.713122047244094
 30
0.0
 10
-0.1827322834645669
 20
1.713122047244094
 30
0.0
 10
-0.1802874015748032
 20
1.717397637795276
 30
0.0
 10
-0.1790629921259843
 20
1.722094488188976
 30
0.0
 10
-0.1790629921259843
 20
1.727177165354331
 30
0.0
 10
-0.1790629921259843
 20
1.727177165354331
 30
0.0
 10
-0.1790629921259843
 20
1.731314960629921
 30
0.0
 10
-0.1799527559055118
 20
1.735011811023622
 30
0.0
 10
-0.1817047244094488
 20
1.738287401574803
 30
0.0
 10
-0.1817047244094488
 20
1.738287401574803
 30
0.0
 10
-0.1834803149606299
 20
1.741594488188976
 30
0.0
 10
-0.1859803149606299
 20
1.744370078740158
 30
0.0
 10
-0.1892322834645669
 20
1.746649606299213
 30
0.0
 10
-0.1892322834645669
 20
1.746649606299213
 30
0.0
 10
-0.1917322834645669
 20
1.748425196850394
 30
0.0
 10
-0.1949251968503937
 20
1.749677165354331
 30
0.0
 10
-0.1987874015748032
 20
1.750370078740158
 30
0.0
 10
-0.1987874015748032
 20
1.750370078740158
 30
0.0
 10
-0.2026771653543307
 20
1.751094488188977
 30
0.0
 10
-0.2061771653543307
 20
1.751452755905512
 30
0.0
 10
-0.2092598425196851
 20
1.751452755905512
 30
0.0
 10
-0.2092598425196851
 20
1.751452755905512
 30
0.0
 10
-0.2092598425196851
 20
1.751452755905512
 30
0.0
 10
-0.2168149606299213
 20
1.751452755905512
 30
0.0
 10
-0.2168149606299213
 20
1.751452755905512
 30
0.0
 10
-0.2168149606299213
 20
1.751452755905512
 30
0.0
 10
-0.2168149606299213
 20
1.751452755905512
 30
0.0
 10
-0.2168149606299213
 20
1.759342519685039
 30
0.0
 10
-0.2168149606299213
 20
1.759342519685039
 30
0.0
 10
-0.2168149606299213
 20
1.759342519685039
 30
0.0
 10
-0.2168149606299213
 20
1.759342519685039
 30
0.0
 10
-0.212007874015748
 20
1.759342519685039
 30
0.0
 10
-0.212007874015748
 20
1.759342519685039
 30
0.0
 10
-0.212007874015748
 20
1.759342519685039
 30
0.0
 10
-0.207259842519685
 20
1.759342519685039
 30
0.0
 10
-0.2027047244094488
 20
1.759897637795276
 30
0.0
 10
-0.1983425196850394
 20
1.761011811023622
 30
0.0
 10
-0.1983425196850394
 20
1.761011811023622
 30
0.0
 10
-0.194007874015748
 20
1.762122047244095
 30
0.0
 10
-0.1905354330708662
 20
1.764397637795276
 30
0.0
 10
-0.1879251968503937
 20
1.767870078740158
 30
0.0
 10
-0.1879251968503937
 20
1.767870078740158
 30
0.0
 10
-0.1853425196850394
 20
1.771342519685039
 30
0.0
 10
-0.1840354330708661
 20
1.775287401574803
 30
0.0
 10
-0.1840354330708661
 20
1.779677165354331
 30
0.0
 10
-0.1840354330708661
 20
1.779677165354331
 30
0.0
 10
-0.1840354330708661
 20
1.78348031496063
 30
0.0
 10
-0.1849251968503937
 20
1.786897637795276
 30
0.0
 10
-0.1867598425196851
 20
1.789925196850394
 30
0.0
 10
-0.1867598425196851
 20
1.789925196850394
 30
0.0
 10
-0.1885629921259843
 20
1.79298031496063
 30
0.0
 10
-0.1912322834645669
 20
1.795397637795276
 30
0.0
 10
-0.194759842519685
 20
1.797177165354331
 30
0.0
 10
-0.194759842519685
 20
1.797177165354331
 30
0.0
 10
-0.1982874015748032
 20
1.798952755905512
 30
0.0
 10
-0.2023700787401575
 20
1.799870078740158
 30
0.0
 10
-0.2069803149606299
 20
1.799870078740158
 30
0.0
 10
-0.2069803149606299
 20
1.799870078740158
 30
0.0
 10
-0.2114803149606299
 20
1.799870078740158
 30
0.0
 10
-0.2156220472440945
 20
1.798925196850394
 30
0.0
 10
-0.2193976377952756
 20
1.797094488188977
 30
0.0
 10
-0.2193976377952756
 20
1.797094488188977
 30
0.0
 10
-0.2231496062992126
 20
1.795259842519685
 30
0.0
 10
-0.2261771653543307
 20
1.792787401574803
 30
0.0
 10
-0.2284527559055118
 20
1.789677165354331
 30
0.0
 10
-0.2284527559055118
 20
1.789677165354331
 30
0.0
 10
-0.230732283464567
 20
1.786594488188976
 30
0.0
 10
-0.2323700787401575
 20
1.78248031496063
 30
0.0
 10
-0.2333425196850394
 20
1.777314960629921
 30
0.0
  0
SPLINE
  5
7A
330
1F
100
AcDbEntity
  8
LAYER_1
 62
   250
100
AcDbSpline
210
0.0
220
0.0
230
1.0
 70
    11
 71
     3
 72
    20
 73
    16
 74
     0
 42
0.0000000001
 43
0.0000000001
 40
0.0
 40
0.0
 40
0.0
 40
0.0
 40
0.25
 40
0.25
 40
0.25
 40
0.25
 40
0.5
 40
0.5
 40
0.5
 40
0.5
 40
0.75
 40
0.75
 40
0.75
 40
0.75
 40
1.0
 40
1.0
 40
1.0
 40
1.0
 10
-0.0705629921259843
 20
1.81353937007874
 30
0.0
 10
-0.0705629921259843
 20
1.81353937007874
 30
0.0
 10
-0.1261456692913386
 20
1.65784251968504
 30
0.0
 10
-0.1261456692913386
 20
1.65784251968504
 30
0.0
 10
-0.1261456692913386
 20
1.65784251968504
 30
0.0
 10
-0.1261456692913386
 20
1.65784251968504
 30
0.0
 10
-0.1382007874015748
 20
1.65784251968504
 30
0.0
 10
-0.1382007874015748
 20
1.65784251968504
 30
0.0
 10
-0.1382007874015748
 20
1.65784251968504
 30
0.0
 10
-0.1382007874015748
 20
1.65784251968504
 30
0.0
 10
-0.0829527559055118
 20
1.81353937007874
 30
0.0
 10
-0.0829527559055118
 20
1.81353937007874
 30
0.0
 10
-0.0829527559055118
 20
1.81353937007874
 30
0.0
 10
-0.0829527559055118
 20
1.81353937007874
 30
0.0
 10
-0.0705629921259843
 20
1.81353937007874
 30
0.0
 10
-0.0705629921259843
 20
1.81353937007874
 30
0.0
  0
SPLINE
  5
7B
330
1F
100
AcDbEntity
  8
LAYER_1
 62
   250
100
AcDbSpline
210
0.0
220
0.0
230
1.0
 70
    11
 71
     3
 72
    76
 73
    72
 74
     0
 42
0.0000000001
 43
0.0000000001
 40
0.0
 40
0.0
 40
0.0
 40
0.0
 40
0.0555555555555556
 40
0.0555555555555556
 40
0.0555555555555556
 40
0.0555555555555556
 40
0.1111111111111111
 40
0.1111111111111111
 40
0.1111111111111111
 40
0.1111111111111111
 40
0.1666666666666667
 40
0.1666666666666667
 40
0.1666666666666667
 40
0.1666666666666667
 40
0.2222222222222222
 40
0.2222222222222222
 40
0.2222222222222222
 40
0.2222222222222222
 40
0.2777777777777778
 40
0.2777777777777778
 40
0.2777777777777778
 40
0.2777777777777778
 40
0.3333333333333334
 40
0.3333333333333334
 40
0.3333333333333334
 40
0.3333333333333334
 40
0.388888888888889
 40
0.388888888888889
 40
0.388888888888889
 40
0.388888888888889
 40
0.4444444444444445
 40
0.4444444444444445
 40
0.4444444444444445
 40
0.4444444444444445
 40
0.5000000000000001
 40
0.5000000000000001
 40
0.5000000000000001
 40
0.5000000000000001
 40
0.5555555555555557
 40
0.5555555555555557
 40
0.5555555555555557
 40
0.5555555555555557
 40
0.6111111111111113
 40
0.6111111111111113
 40
0.6111111111111113
 40
0.6111111111111113
 40
0.6666666666666669
 40
0.6666666666666669
 40
0.6666666666666669
 40
0.6666666666666669
 40
0.7222222222222224
 40
0.7222222222222224
 40
0.7222222222222224
 40
0.7222222222222224
 40
0.777777777777778
 40
0.777777777777778
 40
0.777777777777778
 40
0.777777777777778
 40
0.8333333333333336
 40
0.8333333333333336
 40
0.8333333333333336
 40
0.8333333333333336
 40
0.8888888888888892
 40
0.8888888888888892
 40
0.8888888888888892
 40
0.8888888888888892
 40
0.9444444444444448
 40
0.9444444444444448
 40
0.9444444444444448
 40
0.9444444444444448
 40
1.0
 40
1.0
 40
1.0
 40
1.0
 10
0.0124370078740157
 20
1.757149606299213
 30
0.0
 10
0.0188543307086614
 20
1.754704724409449
 30
0.0
 10
0.023740157480315
 20
1.752397637795276
 30
0.0
 10
0.0271023622047244
 20
1.750232283464567
 30
0.0
 10
0.0271023622047244
 20
1.750232283464567
 30
0.0
 10
0.0320196850393701
 20
1.747066929133858
 30
0.0
 10
0.035740157480315
 20
1.743370078740158
 30
0.0
 10
0.038240157480315
 20
1.739122047244095
 30
0.0
 10
0.038240157480315
 20
1.739122047244095
 30
0.0
 10
0.040740157480315
 20
1.734842519685039
 30
0.0
 10
0.041992125984252
 20
1.730232283464567
 30
0.0
 10
0.041992125984252
 20
1.725232283464567
 30
0.0
 10
0.041992125984252
 20
1.725232283464567
 30
0.0
 10
0.041992125984252
 20
1.716287401574803
 30
0.0
 10
0.0381299212598425
 20
1.70853937007874
 30
0.0
 10
0.0304370078740158
 20
1.702011811023622
 30
0.0
 10
0.0304370078740158
 20
1.702011811023622
 30
0.0
 10
0.0227125984251969
 20
1.695456692913386
 30
0.0
 10
0.0123267716535433
 20
1.692204724409449
 30
0.0
 10
-0.0007322834645669
 20
1.692204724409449
 30
0.0
 10
-0.0007322834645669
 20
1.692204724409449
 30
0.0
 10
-0.0145629921259843
 20
1.692204724409449
 30
0.0
 10
-0.0254251968503937
 20
1.695897637795276
 30
0.0
 10
-0.0332874015748032
 20
1.703259842519685
 30
0.0
 10
-0.0332874015748032
 20
1.703259842519685
 30
0.0
 10
-0.0395354330708661
 20
1.709177165354331
 30
0.0
 10
-0.0426456692913386
 20
1.715870078740158
 30
0.0
 10
-0.0426456692913386
 20
1.723370078740158
 30
0.0
 10
-0.0426456692913386
 20
1.723370078740158
 30
0.0
 10
-0.0426456692913386
 20
1.729397637795276
 30
0.0
 10
-0.0405354330708661
 20
1.734787401574803
 30
0.0
 10
-0.0363149606299213
 20
1.739566929133858
 30
0.0
 10
-0.0363149606299213
 20
1.739566929133858
 30
0.0
 10
-0.0312007874015748
 20
1.745259842519685
 30
0.0
 10
-0.0239251968503937
 20
1.749704724409449
 30
0.0
 10
-0.0144803149606299
 20
1.752897637795276
 30
0.0
 10
-0.0144803149606299
 20
1.752897637795276
 30
0.0
 10
-0.0218700787401575
 20
1.756370078740158
 30
0.0
 10
-0.0271732283464567
 20
1.759897637795276
 30
0.0
 10
-0.0304527559055118
 20
1.763484251968504
 30
0.0
 10
-0.0304527559055118
 20
1.763484251968504
 30
0.0
 10
-0.0346181102362205
 20
1.768204724409449
 30
0.0
 10
-0.0367007874015748
 20
1.773870078740158
 30
0.0
 10
-0.0367007874015748
 20
1.78048031496063
 30
0.0
 10
-0.0367007874015748
 20
1.78048031496063
 30
0.0
 10
-0.0367007874015748
 20
1.788677165354331
 30
0.0
 10
-0.0336181102362205
 20
1.795314960629921
 30
0.0
 10
-0.0274251968503937
 20
1.800342519685039
 30
0.0
 10
-0.0274251968503937
 20
1.800342519685039
 30
0.0
 10
-0.0198425196850394
 20
1.80653937007874
 30
0.0
 10
-0.0103425196850394
 20
1.809622047244095
 30
0.0
 10
0.0010472440944882
 20
1.809622047244095
 30
0.0
 10
0.0010472440944882
 20
1.809622047244095
 30
0.0
 10
0.0114645669291339
 20
1.809622047244095
 30
0.0
 10
0.0198818897637795
 20
1.806952755905512
 30
0.0
 10
0.0263267716535433
 20
1.801622047244095
 30
0.0
 10
0.0263267716535433
 20
1.801622047244095
 30
0.0
 10
0.032740157480315
 20
1.796259842519685
 30
0.0
 10
0.0359645669291339
 20
1.790149606299213
 30
0.0
 10
0.0359645669291339
 20
1.783259842519685
 30
0.0
 10
0.0359645669291339
 20
1.783259842519685
 30
0.0
 10
0.0359645669291339
 20
1.779842519685039
 30
0.0
 10
0.0351574803149606
 20
1.776566929133858
 30
0.0
 10
0.0335748031496063
 20
1.773452755905512
 30
0.0
 10
0.0335748031496063
 20
1.773452755905512
 30
0.0
 10
0.0319645669291339
 20
1.77034251968504
 30
0.0
 10
0.0295196850393701
 20
1.767425196850394
 30
0.0
 10
0.0261850393700787
 20
1.764759842519685
 30
0.0
 10
0.0261850393700787
 20
1.764759842519685
 30
0.0
 10
0.0228818897637795
 20
1.762066929133858
 30
0.0
 10
0.0182952755905512
 20
1.75953937007874
 30
0.0
 10
0.0124370078740157
 20
1.757149606299213
 30
0.0
  0
SPLINE
  5
7C
330
1F
100
AcDbEntity
  8
LAYER_1
 62
   250
100
AcDbSpline
210
0.0
220
0.0
230
1.0
 70
    11
 71
     3
 72
    48
 73
    44
 74
     0
 42
0.0000000001
 43
0.0000000001
 40
0.0
 40
0.0
 40
0.0
 40
0.0
 40
0.0909090909090909
 40
0.0909090909090909
 40
0.0909090909090909
 40
0.0909090909090909
 40
0.1818181818181818
 40
0.1818181818181818
 40
0.1818181818181818
 40
0.1818181818181818
 40
0.2727272727272727
 40
0.2727272727272727
 40
0.2727272727272727
 40
0.2727272727272727
 40
0.3636363636363637
 40
0.3636363636363637
 40
0.3636363636363637
 40
0.3636363636363637
 40
0.4545454545454546
 40
0.4545454545454546
 40
0.4545454545454546
 40
0.4545454545454546
 40
0.5454545454545455
 40
0.5454545454545455
 40
0.5454545454545455
 40
0.5454545454545455
 40
0.6363636363636365
 40
0.6363636363636365
 40
0.6363636363636365
 40
0.6363636363636365
 40
0.7272727272727274
 40
0.7272727272727274
 40
0.7272727272727274
 40
0.7272727272727274
 40
0.8181818181818183
 40
0.8181818181818183
 40
0.8181818181818183
 40
0.8181818181818183
 40
0.9090909090909093
 40
0.9090909090909093
 40
0.9090909090909093
 40
0.9090909090909093
 40
1.0
 40
1.0
 40
1.0
 40
1.0
 10
0.0050472440944882
 20
1.760149606299213
 30
0.0
 10
0.0112125984251969
 20
1.764814960629921
 30
0.0
 10
0.015240157480315
 20
1.768066929133858
 30
0.0
 10
0.0170748031496063
 20
1.769925196850394
 30
0.0
 10
0.0170748031496063
 20
1.769925196850394
 30
0.0
 10
0.0189370078740157
 20
1.771759842519685
 30
0.0
 10
0.0203543307086614
 20
1.773870078740158
 30
0.0
 10
0.0213543307086614
 20
1.776232283464567
 30
0.0
 10
0.0213543307086614
 20
1.776232283464567
 30
0.0
 10
0.0223543307086614
 20
1.778594488188976
 30
0.0
 10
0.0228543307086614
 20
1.780870078740158
 30
0.0
 10
0.0228543307086614
 20
1.783094488188977
 30
0.0
 10
0.0228543307086614
 20
1.783094488188977
 30
0.0
 10
0.0228543307086614
 20
1.786287401574803
 30
0.0
 10
0.0219094488188976
 20
1.789342519685039
 30
0.0
 10
0.0200196850393701
 20
1.792259842519685
 30
0.0
 10
0.0200196850393701
 20
1.792259842519685
 30
0.0
 10
0.0181023622047244
 20
1.795149606299213
 30
0.0
 10
0.0153267716535433
 20
1.797511811023622
 30
0.0
 10
0.0116574803149606
 20
1.799287401574803
 30
0.0
 10
0.0116574803149606
 20
1.799287401574803
 30
0.0
 10
0.0080196850393701
 20
1.801094488188977
 30
0.0
 10
0.0039094488188976
 20
1.80198031496063
 30
0.0
 10
-0.0006456692913386
 20
1.80198031496063
 30
0.0
 10
-0.0006456692913386
 20
1.80198031496063
 30
0.0
 10
-0.0073976377952756
 20
1.80198031496063
 30
0.0
 10
-0.0129803149606299
 20
1.800122047244095
 30
0.0
 10
-0.0174251968503937
 20
1.796397637795276
 30
0.0
 10
-0.0174251968503937
 20
1.796397637795276
 30
0.0
 10
-0.0218700787401575
 20
1.792677165354331
 30
0.0
 10
-0.0240905511811024
 20
1.788397637795276
 30
0.0
 10
-0.0240905511811024
 20
1.783511811023622
 30
0.0
 10
-0.0240905511811024
 20
1.783511811023622
 30
0.0
 10
-0.0240905511811024
 20
1.779594488188977
 30
0.0
 10
-0.0227007874015748
 20
1.776094488188976
 30
0.0
 10
-0.0199527559055118
 20
1.773011811023622
 30
0.0
 10
-0.0199527559055118
 20
1.773011811023622
 30
0.0
 10
-0.0171732283464567
 20
1.769925196850394
 30
0.0
 10
-0.0120354330708661
 20
1.766870078740157
 30
0.0
 10
-0.0044803149606299
 20
1.763897637795276
 30
0.0
 10
-0.0044803149606299
 20
1.763897637795276
 30
0.0
 10
-0.0044803149606299
 20
1.763897637795276
 30
0.0
 10
0.0050472440944882
 20
1.760149606299213
 30
0.0
 10
0.0050472440944882
 20
1.760149606299213
 30
0.0
  0
SPLINE
  5
7D
330
1F
100
AcDbEntity
  8
LAYER_1
 62
   250
100
AcDbSpline
210
0.0
220
0.0
230
1.0
 70
    11
 71
     3
 72
    40
 73
    36
 74
     0
 42
0.0000000001
 43
0.0000000001
 40
0.0
 40
0.0
 40
0.0
 40
0.0
 40
0.1111111111111111
 40
0.1111111111111111
 40
0.1111111111111111
 40
0.1111111111111111
 40
0.2222222222222222
 40
0.2222222222222222
 40
0.2222222222222222
 40
0.2222222222222222
 40
0.3333333333333333
 40
0.3333333333333333
 40
0.3333333333333333
 40
0.3333333333333333
 40
0.4444444444444444
 40
0.4444444444444444
 40
0.4444444444444444
 40
0.4444444444444444
 40
0.5555555555555556
 40
0.5555555555555556
 40
0.5555555555555556
 40
0.5555555555555556
 40
0.6666666666666667
 40
0.6666666666666667
 40
0.6666666666666667
 40
0.6666666666666667
 40
0.7777777777777779
 40
0.7777777777777779
 40
0.7777777777777779
 40
0.7777777777777779
 40
0.8888888888888891
 40
0.8888888888888891
 40
0.8888888888888891
 40
0.8888888888888891
 40
1.0
 40
1.0
 40
1.0
 40
1.0
 10
-0.0064251968503937
 20
1.749732283464567
 30
0.0
 10
-0.0140905511811024
 20
1.746370078740158
 30
0.0
 10
-0.0201456692913386
 20
1.742011811023622
 30
0.0
 10
-0.0245905511811024
 20
1.736622047244095
 30
0.0
 10
-0.0245905511811024
 20
1.736622047244095
 30
0.0
 10
-0.0280629921259843
 20
1.732397637795276
 30
0.0
 10
-0.0297874015748032
 20
1.728011811023622
 30
0.0
 10
-0.0297874015748032
 20
1.723456692913386
 30
0.0
 10
-0.0297874015748032
 20
1.723456692913386
 30
0.0
 10
-0.0297874015748032
 20
1.717259842519685
 30
0.0
 10
-0.0270629921259843
 20
1.711759842519685
 30
0.0
 10
-0.0215629921259843
 20
1.706956692913386
 30
0.0
 10
-0.0215629921259843
 20
1.706956692913386
 30
0.0
 10
-0.0160905511811024
 20
1.702177165354331
 30
0.0
 10
-0.009007874015748
 20
1.699759842519685
 30
0.0
 10
-0.0003425196850394
 20
1.699759842519685
 30
0.0
 10
-0.0003425196850394
 20
1.699759842519685
 30
0.0
 10
0.0085196850393701
 20
1.699759842519685
 30
0.0
 10
0.0158818897637795
 20
1.702511811023622
 30
0.0
 10
0.0217952755905512
 20
1.707984251968504
 30
0.0
 10
0.0217952755905512
 20
1.707984251968504
 30
0.0
 10
0.0266299212598425
 20
1.712429133858268
 30
0.0
 10
0.0290472440944882
 20
1.717204724409449
 30
0.0
 10
0.0290472440944882
 20
1.722314960629921
 30
0.0
 10
0.0290472440944882
 20
1.722314960629921
 30
0.0
 10
0.0290472440944882
 20
1.726314960629921
 30
0.0
 10
0.0274645669291339
 20
1.730149606299213
 30
0.0
 10
0.0242952755905512
 20
1.733814960629921
 30
0.0
 10
0.0242952755905512
 20
1.733814960629921
 30
0.0
 10
0.0211023622047244
 20
1.737484251968504
 30
0.0
 10
0.0152125984251969
 20
1.74103937007874
 30
0.0
 10
0.0065748031496063
 20
1.744511811023622
 30
0.0
 10
0.0065748031496063
 20
1.744511811023622
 30
0.0
 10
0.0065748031496063
 20
1.744511811023622
 30
0.0
 10
-0.0064251968503937
 20
1.749732283464567
 30
0.0
 10
-0.0064251968503937
 20
1.749732283464567
 30
0.0
  0
SPLINE
  5
7E
330
1F
100
AcDbEntity
  8
LAYER_1
 62
   250
100
AcDbSpline
210
0.0
220
0.0
230
1.0
 70
    11
 71
     3
 72
    60
 73
    56
 74
     0
 42
0.0000000001
 43
0.0000000001
 40
0.0
 40
0.0
 40
0.0
 40
0.0
 40
0.0714285714285714
 40
0.0714285714285714
 40
0.0714285714285714
 40
0.0714285714285714
 40
0.1428571428571429
 40
0.1428571428571429
 40
0.1428571428571429
 40
0.1428571428571429
 40
0.2142857142857143
 40
0.2142857142857143
 40
0.2142857142857143
 40
0.2142857142857143
 40
0.2857142857142857
 40
0.2857142857142857
 40
0.2857142857142857
 40
0.2857142857142857
 40
0.3571428571428571
 40
0.3571428571428571
 40
0.3571428571428571
 40
0.3571428571428571
 40
0.4285714285714285
 40
0.4285714285714285
 40
0.4285714285714285
 40
0.4285714285714285
 40
0.4999999999999999
 40
0.4999999999999999
 40
0.4999999999999999
 40
0.4999999999999999
 40
0.5714285714285713
 40
0.5714285714285713
 40
0.5714285714285713
 40
0.5714285714285713
 40
0.6428571428571427
 40
0.6428571428571427
 40
0.6428571428571427
 40
0.6428571428571427
 40
0.7142857142857141
 40
0.7142857142857141
 40
0.7142857142857141
 40
0.7142857142857141
 40
0.7857142857142855
 40
0.7857142857142855
 40
0.7857142857142855
 40
0.7857142857142855
 40
0.8571428571428569
 40
0.8571428571428569
 40
0.8571428571428569
 40
0.8571428571428569
 40
0.9285714285714283
 40
0.9285714285714283
 40
0.9285714285714283
 40
0.9285714285714283
 40
1.0
 40
1.0
 40
1.0
 40
1.0
 10
0.0614370078740158
 20
1.765594488188977
 30
0.0
 10
0.0614370078740158
 20
1.765594488188977
 30
0.0
 10
0.0570472440944882
 20
1.770984251968504
 30
0.0
 10
0.0570472440944882
 20
1.770984251968504
 30
0.0
 10
0.0570472440944882
 20
1.770984251968504
 30
0.0
 10
0.0681614173228347
 20
1.78003937007874
 30
0.0
 10
0.073744094488189
 20
1.787594488188977
 30
0.0
 10
0.073744094488189
 20
1.793677165354331
 30
0.0
 10
0.073744094488189
 20
1.793677165354331
 30
0.0
 10
0.073744094488189
 20
1.794370078740158
 30
0.0
 10
0.0736889763779528
 20
1.795259842519685
 30
0.0
 10
0.0735748031496063
 20
1.796287401574803
 30
0.0
 10
0.0735748031496063
 20
1.796287401574803
 30
0.0
 10
0.0726614173228347
 20
1.795897637795276
 30
0.0
 10
0.071744094488189
 20
1.795594488188977
 30
0.0
 10
0.0708818897637795
 20
1.795397637795276
 30
0.0
 10
0.0708818897637795
 20
1.795397637795276
 30
0.0
 10
0.0700196850393701
 20
1.795177165354331
 30
0.0
 10
0.0692165354330709
 20
1.795066929133858
 30
0.0
 10
0.0684370078740158
 20
1.795066929133858
 30
0.0
 10
0.0684370078740158
 20
1.795066929133858
 30
0.0
 10
0.0658267716535433
 20
1.795066929133858
 30
0.0
 10
0.063744094488189
 20
1.795897637795276
 30
0.0
 10
0.0621889763779528
 20
1.797594488188977
 30
0.0
 10
0.0621889763779528
 20
1.797594488188977
 30
0.0
 10
0.0606023622047244
 20
1.799259842519685
 30
0.0
 10
0.0598267716535433
 20
1.801397637795276
 30
0.0
 10
0.0598267716535433
 20
1.804011811023622
 30
0.0
 10
0.0598267716535433
 20
1.804011811023622
 30
0.0
 10
0.0598267716535433
 20
1.806566929133858
 30
0.0
 10
0.0607716535433071
 20
1.808787401574803
 30
0.0
 10
0.0626614173228346
 20
1.810677165354331
 30
0.0
 10
0.0626614173228346
 20
1.810677165354331
 30
0.0
 10
0.0645748031496063
 20
1.812594488188976
 30
0.0
 10
0.0668543307086614
 20
1.81353937007874
 30
0.0
 10
0.069492125984252
 20
1.81353937007874
 30
0.0
 10
0.069492125984252
 20
1.81353937007874
 30
0.0
 10
0.0731889763779528
 20
1.81353937007874
 30
0.0
 10
0.0763543307086614
 20
1.812066929133858
 30
0.0
 10
0.078992125984252
 20
1.809094488188977
 30
0.0
 10
0.078992125984252
 20
1.809094488188977
 30
0.0
 10
0.0816023622047244
 20
1.806149606299213
 30
0.0
 10
0.0829370078740158
 20
1.802342519685039
 30
0.0
 10
0.0829370078740158
 20
1.797677165354331
 30
0.0
 10
0.0829370078740158
 20
1.797677165354331
 30
0.0
 10
0.0829370078740158
 20
1.794622047244095
 30
0.0
 10
0.0822992125984252
 20
1.791425196850394
 30
0.0
 10
0.0810472440944882
 20
1.788094488188976
 30
0.0
 10
0.0810472440944882
 20
1.788094488188976
 30
0.0
 10
0.0797992125984252
 20
1.784759842519685
 30
0.0
 10
0.077992125984252
 20
1.781677165354331
 30
0.0
 10
0.0756023622047244
 20
1.778814960629921
 30
0.0
 10
0.0756023622047244
 20
1.778814960629921
 30
0.0
 10
0.0732165354330709
 20
1.775984251968504
 30
0.0
 10
0.068492125984252
 20
1.771566929133858
 30
0.0
 10
0.0614370078740158
 20
1.765594488188977
 30
0.0
  0
SPLINE
  5
7F
330
1F
100
AcDbEntity
  8
LAYER_1
 62
   250
100
AcDbSpline
210
0.0
220
0.0
230
1.0
 70
    11
 71
     3
 72
    60
 73
    56
 74
     0
 42
0.0000000001
 43
0.0000000001
 40
0.0
 40
0.0
 40
0.0
 40
0.0
 40
0.0714285714285714
 40
0.0714285714285714
 40
0.0714285714285714
 40
0.0714285714285714
 40
0.1428571428571429
 40
0.1428571428571429
 40
0.1428571428571429
 40
0.1428571428571429
 40
0.2142857142857143
 40
0.2142857142857143
 40
0.2142857142857143
 40
0.2142857142857143
 40
0.2857142857142857
 40
0.2857142857142857
 40
0.2857142857142857
 40
0.2857142857142857
 40
0.3571428571428571
 40
0.3571428571428571
 40
0.3571428571428571
 40
0.3571428571428571
 40
0.4285714285714285
 40
0.4285714285714285
 40
0.4285714285714285
 40
0.4285714285714285
 40
0.4999999999999999
 40
0.4999999999999999
 40
0.4999999999999999
 40
0.4999999999999999
 40
0.5714285714285713
 40
0.5714285714285713
 40
0.5714285714285713
 40
0.5714285714285713
 40
0.6428571428571427
 40
0.6428571428571427
 40
0.6428571428571427
 40
0.6428571428571427
 40
0.7142857142857141
 40
0.7142857142857141
 40
0.7142857142857141
 40
0.7142857142857141
 40
0.7857142857142855
 40
0.7857142857142855
 40
0.7857142857142855
 40
0.7857142857142855
 40
0.8571428571428569
 40
0.8571428571428569
 40
0.8571428571428569
 40
0.8571428571428569
 40
0.9285714285714283
 40
0.9285714285714283
 40
0.9285714285714283
 40
0.9285714285714283
 40
1.0
 40
1.0
 40
1.0
 40
1.0
 10
0.090492125984252
 20
1.765594488188977
 30
0.0
 10
0.090492125984252
 20
1.765594488188977
 30
0.0
 10
0.0861023622047244
 20
1.770984251968504
 30
0.0
 10
0.0861023622047244
 20
1.770984251968504
 30
0.0
 10
0.0861023622047244
 20
1.770984251968504
 30
0.0
 10
0.0972165354330709
 20
1.78003937007874
 30
0.0
 10
0.1027992125984252
 20
1.787594488188977
 30
0.0
 10
0.1027992125984252
 20
1.793677165354331
 30
0.0
 10
0.1027992125984252
 20
1.793677165354331
 30
0.0
 10
0.1027992125984252
 20
1.794370078740158
 30
0.0
 10
0.102744094488189
 20
1.795259842519685
 30
0.0
 10
0.1026299212598425
 20
1.796287401574803
 30
0.0
 10
0.1026299212598425
 20
1.796287401574803
 30
0.0
 10
0.1017165354330709
 20
1.795897637795276
 30
0.0
 10
0.1007992125984252
 20
1.795594488188977
 30
0.0
 10
0.0999370078740158
 20
1.795397637795276
 30
0.0
 10
0.0999370078740158
 20
1.795397637795276
 30
0.0
 10
0.0990748031496063
 20
1.795177165354331
 30
0.0
 10
0.098244094488189
 20
1.795066929133858
 30
0.0
 10
0.0974094488188976
 20
1.795066929133858
 30
0.0
 10
0.0974094488188976
 20
1.795066929133858
 30
0.0
 10
0.0948543307086614
 20
1.795066929133858
 30
0.0
 10
0.0927992125984252
 20
1.795897637795276
 30
0.0
 10
0.091244094488189
 20
1.797594488188977
 30
0.0
 10
0.091244094488189
 20
1.797594488188977
 30
0.0
 10
0.0896614173228347
 20
1.799259842519685
 30
0.0
 10
0.0888818897637795
 20
1.801397637795276
 30
0.0
 10
0.0888818897637795
 20
1.804011811023622
 30
0.0
 10
0.0888818897637795
 20
1.804011811023622
 30
0.0
 10
0.0888818897637795
 20
1.806566929133858
 30
0.0
 10
0.0898267716535433
 20
1.808787401574803
 30
0.0
 10
0.0917165354330709
 20
1.810677165354331
 30
0.0
 10
0.0917165354330709
 20
1.810677165354331
 30
0.0
 10
0.0936023622047244
 20
1.812594488188976
 30
0.0
 10
0.0959094488188976
 20
1.81353937007874
 30
0.0
 10
0.0985472440944882
 20
1.81353937007874
 30
0.0
 10
0.0985472440944882
 20
1.81353937007874
 30
0.0
 10
0.102244094488189
 20
1.81353937007874
 30
0.0
 10
0.1054094488188977
 20
1.812066929133858
 30
0.0
 10
0.1080472440944882
 20
1.809094488188977
 30
0.0
 10
0.1080472440944882
 20
1.809094488188977
 30
0.0
 10
0.1106574803149606
 20
1.806149606299213
 30
0.0
 10
0.111992125984252
 20
1.802342519685039
 30
0.0
 10
0.111992125984252
 20
1.797677165354331
 30
0.0
 10
0.111992125984252
 20
1.797677165354331
 30
0.0
 10
0.111992125984252
 20
1.794622047244095
 30
0.0
 10
0.1113543307086614
 20
1.791425196850394
 30
0.0
 10
0.1101023622047244
 20
1.788094488188976
 30
0.0
 10
0.1101023622047244
 20
1.788094488188976
 30
0.0
 10
0.1088543307086614
 20
1.784759842519685
 30
0.0
 10
0.1070472440944882
 20
1.781677165354331
 30
0.0
 10
0.1046614173228347
 20
1.778814960629921
 30
0.0
 10
0.1046614173228347
 20
1.778814960629921
 30
0.0
 10
0.1022716535433071
 20
1.775984251968504
 30
0.0
 10
0.0975472440944882
 20
1.771566929133858
 30
0.0
 10
0.090492125984252
 20
1.765594488188977
 30
0.0
  0
SPLINE
  5
80
330
1F
100
AcDbEntity
  8
LAYER_1
 62
   250
100
AcDbSpline
210
0.0
220
0.0
230
1.0
 70
    11
 71
     3
 72
   204
 73
   200
 74
     0
 42
0.0000000001
 43
0.0000000001
 40
0.0
 40
0.0
 40
0.0
 40
0.0
 40
0.02
 40
0.02
 40
0.02
 40
0.02
 40
0.04
 40
0.04
 40
0.04
 40
0.04
 40
0.06
 40
0.06
 40
0.06
 40
0.06
 40
0.08
 40
0.08
 40
0.08
 40
0.08
 40
0.1
 40
0.1
 40
0.1
 40
0.1
 40
0.12
 40
0.12
 40
0.12
 40
0.12
 40
0.14
 40
0.14
 40
0.14
 40
0.14
 40
0.16
 40
0.16
 40
0.16
 40
0.16
 40
0.18
 40
0.18
 40
0.18
 40
0.18
 40
0.2
 40
0.2
 40
0.2
 40
0.2
 40
0.22
 40
0.22
 40
0.22
 40
0.22
 40
0.24
 40
0.24
 40
0.24
 40
0.24
 40
0.26
 40
0.26
 40
0.26
 40
0.26
 40
0.28
 40
0.28
 40
0.28
 40
0.28
 40
0.3
 40
0.3
 40
0.3
 40
0.3
 40
0.32
 40
0.32
 40
0.32
 40
0.32
 40
0.34
 40
0.34
 40
0.34
 40
0.34
 40
0.36
 40
0.36
 40
0.36
 40
0.36
 40
0.3800000000000001
 40
0.3800000000000001
 40
0.3800000000000001
 40
0.3800000000000001
 40
0.4000000000000001
 40
0.4000000000000001
 40
0.4000000000000001
 40
0.4000000000000001
 40
0.4200000000000001
 40
0.4200000000000001
 40
0.4200000000000001
 40
0.4200000000000001
 40
0.4400000000000001
 40
0.4400000000000001
 40
0.4400000000000001
 40
0.4400000000000001
 40
0.4600000000000001
 40
0.4600000000000001
 40
0.4600000000000001
 40
0.4600000000000001
 40
0.4800000000000002
 40
0.4800000000000002
 40
0.4800000000000002
 40
0.4800000000000002
 40
0.5000000000000001
 40
0.5000000000000001
 40
0.5000000000000001
 40
0.5000000000000001
 40
0.5200000000000001
 40
0.5200000000000001
 40
0.5200000000000001
 40
0.5200000000000001
 40
0.5400000000000002
 40
0.5400000000000002
 40
0.5400000000000002
 40
0.5400000000000002
 40
0.5600000000000002
 40
0.5600000000000002
 40
0.5600000000000002
 40
0.5600000000000002
 40
0.5800000000000002
 40
0.5800000000000002
 40
0.5800000000000002
 40
0.5800000000000002
 40
0.6000000000000002
 40
0.6000000000000002
 40
0.6000000000000002
 40
0.6000000000000002
 40
0.6200000000000002
 40
0.6200000000000002
 40
0.6200000000000002
 40
0.6200000000000002
 40
0.6400000000000002
 40
0.6400000000000002
 40
0.6400000000000002
 40
0.6400000000000002
 40
0.6600000000000003
 40
0.6600000000000003
 40
0.6600000000000003
 40
0.6600000000000003
 40
0.6800000000000003
 40
0.6800000000000003
 40
0.6800000000000003
 40
0.6800000000000003
 40
0.7000000000000003
 40
0.7000000000000003
 40
0.7000000000000003
 40
0.7000000000000003
 40
0.7200000000000003
 40
0.7200000000000003
 40
0.7200000000000003
 40
0.7200000000000003
 40
0.7400000000000003
 40
0.7400000000000003
 40
0.7400000000000003
 40
0.7400000000000003
 40
0.7600000000000003
 40
0.7600000000000003
 40
0.7600000000000003
 40
0.7600000000000003
 40
0.7800000000000004
 40
0.7800000000000004
 40
0.7800000000000004
 40
0.7800000000000004
 40
0.8000000000000004
 40
0.8000000000000004
 40
0.8000000000000004
 40
0.8000000000000004
 40
0.8200000000000004
 40
0.8200000000000004
 40
0.8200000000000004
 40
0.8200000000000004
 40
0.8400000000000004
 40
0.8400000000000004
 40
0.8400000000000004
 40
0.8400000000000004
 40
0.8600000000000004
 40
0.8600000000000004
 40
0.8600000000000004
 40
0.8600000000000004
 40
0.8800000000000005
 40
0.8800000000000005
 40
0.8800000000000005
 40
0.8800000000000005
 40
0.9000000000000005
 40
0.9000000000000005
 40
0.9000000000000005
 40
0.9000000000000005
 40
0.9200000000000005
 40
0.9200000000000005
 40
0.9200000000000005
 40
0.9200000000000005
 40
0.9400000000000005
 40
0.9400000000000005
 40
0.9400000000000005
 40
0.9400000000000005
 40
0.9600000000000005
 40
0.9600000000000005
 40
0.9600000000000005
 40
0.9600000000000005
 40
0.9800000000000005
 40
0.9800000000000005
 40
0.9800000000000005
 40
0.9800000000000005
 40
1.0
 40
1.0
 40
1.0
 40
1.0
 10
0.1742992125984252
 20
1.772677165354331
 30
0.0
 10
0.1742992125984252
 20
1.772677165354331
 30
0.0
 10
0.215244094488189
 20
1.772677165354331
 30
0.0
 10
0.215244094488189
 20
1.772677165354331
 30
0.0
 10
0.215244094488189
 20
1.772677165354331
 30
0.0
 10
0.215244094488189
 20
1.772677165354331
 30
0.0
 10
0.215244094488189
 20
1.765842519685039
 30
0.0
 10
0.215244094488189
 20
1.765842519685039
 30
0.0
 10
0.215244094488189
 20
1.765842519685039
 30
0.0
 10
0.215244094488189
 20
1.765842519685039
 30
0.0
 10
0.2124094488188976
 20
1.765842519685039
 30
0.0
 10
0.2124094488188976
 20
1.765842519685039
 30
0.0
 10
0.2124094488188976
 20
1.765842519685039
 30
0.0
 10
0.2107716535433071
 20
1.765842519685039
 30
0.0
 10
0.2092716535433071
 20
1.765649606299213
 30
0.0
 10
0.2079094488188976
 20
1.765287401574803
 30
0.0
 10
0.2079094488188976
 20
1.765287401574803
 30
0.0
 10
0.2071062992125984
 20
1.765066929133858
 30
0.0
 10
0.2064370078740158
 20
1.764649606299213
 30
0.0
 10
0.2059370078740158
 20
1.764011811023622
 30
0.0
 10
0.2059370078740158
 20
1.764011811023622
 30
0.0
 10
0.2054094488188976
 20
1.763397637795276
 30
0.0
 10
0.2051614173228347
 20
1.762814960629921
 30
0.0
 10
0.2051614173228347
 20
1.762259842519685
 30
0.0
 10
0.2051614173228347
 20
1.762259842519685
 30
0.0
 10
0.2051614173228347
 20
1.761011811023622
 30
0.0
 10
0.2061889763779528
 20
1.759149606299213
 30
0.0
 10
0.208244094488189
 20
1.756649606299213
 30
0.0
 10
0.208244094488189
 20
1.756649606299213
 30
0.0
 10
0.208244094488189
 20
1.756649606299213
 30
0.0
 10
0.2198818897637795
 20
1.742011811023622
 30
0.0
 10
0.2198818897637795
 20
1.742011811023622
 30
0.0
 10
0.2198818897637795
 20
1.742011811023622
 30
0.0
 10
0.2198818897637795
 20
1.742011811023622
 30
0.0
 10
0.2334645669291339
 20
1.756649606299213
 30
0.0
 10
0.2334645669291339
 20
1.756649606299213
 30
0.0
 10
0.2334645669291339
 20
1.756649606299213
 30
0.0
 10
0.2359645669291339
 20
1.759370078740158
 30
0.0
 10
0.2372165354330709
 20
1.761397637795276
 30
0.0
 10
0.2372165354330709
 20
1.762759842519685
 30
0.0
 10
0.2372165354330709
 20
1.762759842519685
 30
0.0
 10
0.2372165354330709
 20
1.763732283464567
 30
0.0
 10
0.2367716535433071
 20
1.764484251968504
 30
0.0
 10
0.2359094488188976
 20
1.76503937007874
 30
0.0
 10
0.2359094488188976
 20
1.76503937007874
 30
0.0
 10
0.2350472440944882
 20
1.765566929133858
 30
0.0
 10
0.2331889763779528
 20
1.765842519685039
 30
0.0
 10
0.2302992125984252
 20
1.765842519685039
 30
0.0
 10
0.2302992125984252
 20
1.765842519685039
 30
0.0
 10
0.2302992125984252
 20
1.765842519685039
 30
0.0
 10
0.2272165354330709
 20
1.765842519685039
 30
0.0
 10
0.2272165354330709
 20
1.765842519685039
 30
0.0
 10
0.2272165354330709
 20
1.765842519685039
 30
0.0
 10
0.2272165354330709
 20
1.765842519685039
 30
0.0
 10
0.2272165354330709
 20
1.772677165354331
 30
0.0
 10
0.2272165354330709
 20
1.772677165354331
 30
0.0
 10
0.2272165354330709
 20
1.772677165354331
 30
0.0
 10
0.2272165354330709
 20
1.772677165354331
 30
0.0
 10
0.2619645669291339
 20
1.772677165354331
 30
0.0
 10
0.2619645669291339
 20
1.772677165354331
 30
0.0
 10
0.2619645669291339
 20
1.772677165354331
 30
0.0
 10
0.2619645669291339
 20
1.772677165354331
 30
0.0
 10
0.2619645669291339
 20
1.765842519685039
 30
0.0
 10
0.2619645669291339
 20
1.765842519685039
 30
0.0
 10
0.2619645669291339
 20
1.765842519685039
 30
0.0
 10
0.2585472440944882
 20
1.765677165354331
 30
0.0
 10
0.2556023622047244
 20
1.764984251968504
 30
0.0
 10
0.2531338582677166
 20
1.763732283464567
 30
0.0
 10
0.2531338582677166
 20
1.763732283464567
 30
0.0
 10
0.2506614173228347
 20
1.762484251968504
 30
0.0
 10
0.247744094488189
 20
1.760122047244095
 30
0.0
 10
0.2443818897637795
 20
1.756649606299213
 30
0.0
 10
0.2443818897637795
 20
1.756649606299213
 30
0.0
 10
0.2443818897637795
 20
1.756649606299213
 30
0.0
 10
0.225744094488189
 20
1.737287401574803
 30
0.0
 10
0.225744094488189
 20
1.737287401574803
 30
0.0
 10
0.225744094488189
 20
1.737287401574803
 30
0.0
 10
0.225744094488189
 20
1.737287401574803
 30
0.0
 10
0.2489370078740158
 20
1.710842519685039
 30
0.0
 10
0.2489370078740158
 20
1.710842519685039
 30
0.0
 10
0.2489370078740158
 20
1.710842519685039
 30
0.0
 10
0.2489370078740158
 20
1.710842519685039
 30
0.0
 10
0.2498267716535433
 20
1.709704724409449
 30
0.0
 10
0.2498267716535433
 20
1.709704724409449
 30
0.0
 10
0.2498267716535433
 20
1.709704724409449
 30
0.0
 10
0.2521023622047244
 20
1.706759842519685
 30
0.0
 10
0.2546614173228347
 20
1.704397637795276
 30
0.0
 10
0.257492125984252
 20
1.702622047244095
 30
0.0
 10
0.257492125984252
 20
1.702622047244095
 30
0.0
 10
0.2590472440944882
 20
1.701594488188976
 30
0.0
 10
0.261492125984252
 20
1.70103937007874
 30
0.0
 10
0.2647992125984252
 20
1.700984251968504
 30
0.0
 10
0.2647992125984252
 20
1.700984251968504
 30
0.0
 10
0.2647992125984252
 20
1.700984251968504
 30
0.0
 10
0.2647992125984252
 20
1.694149606299213
 30
0.0
 10
0.2647992125984252
 20
1.694149606299213
 30
0.0
 10
0.2647992125984252
 20
1.694149606299213
 30
0.0
 10
0.2647992125984252
 20
1.694149606299213
 30
0.0
 10
0.2248543307086614
 20
1.694149606299213
 30
0.0
 10
0.2248543307086614
 20
1.694149606299213
 30
0.0
 10
0.2248543307086614
 20
1.694149606299213
 30
0.0
 10
0.2248543307086614
 20
1.694149606299213
 30
0.0
 10
0.2248543307086614
 20
1.700984251968504
 30
0.0
 10
0.2248543307086614
 20
1.700984251968504
 30
0.0
 10
0.2248543307086614
 20
1.700984251968504
 30
0.0
 10
0.2248543307086614
 20
1.700984251968504
 30
0.0
 10
0.2282716535433071
 20
1.700984251968504
 30
0.0
 10
0.2282716535433071
 20
1.700984251968504
 30
0.0
 10
0.2282716535433071
 20
1.700984251968504
 30
0.0
 10
0.2308818897637796
 20
1.700984251968504
 30
0.0
 10
0.2325196850393701
 20
1.701149606299213
 30
0.0
 10
0.233244094488189
 20
1.701484251968504
 30
0.0
 10
0.233244094488189
 20
1.701484251968504
 30
0.0
 10
0.2344094488188976
 20
1.702011811023622
 30
0.0
 10
0.2350196850393701
 20
1.702929133858268
 30
0.0
 10
0.2350196850393701
 20
1.704232283464567
 30
0.0
 10
0.2350196850393701
 20
1.704232283464567
 30
0.0
 10
0.2350196850393701
 20
1.705429133858268
 30
0.0
 10
0.2337165354330709
 20
1.707622047244095
 30
0.0
 10
0.2311023622047244
 20
1.710842519685039
 30
0.0
 10
0.2311023622047244
 20
1.710842519685039
 30
0.0
 10
0.2311023622047244
 20
1.710842519685039
 30
0.0
 10
0.2162992125984252
 20
1.728984251968504
 30
0.0
 10
0.2162992125984252
 20
1.728984251968504
 30
0.0
 10
0.2162992125984252
 20
1.728984251968504
 30
0.0
 10
0.2162992125984252
 20
1.728984251968504
 30
0.0
 10
0.1997716535433071
 20
1.710842519685039
 30
0.0
 10
0.1997716535433071
 20
1.710842519685039
 30
0.0
 10
0.1997716535433071
 20
1.710842519685039
 30
0.0
 10
0.1997716535433071
 20
1.710842519685039
 30
0.0
 10
0.1981614173228347
 20
1.708870078740158
 30
0.0
 10
0.1981614173228347
 20
1.708870078740158
 30
0.0
 10
0.1981614173228347
 20
1.708870078740158
 30
0.0
 10
0.1981614173228347
 20
1.708870078740158
 30
0.0
 10
0.1972716535433071
 20
1.707897637795276
 30
0.0
 10
0.1972716535433071
 20
1.707897637795276
 30
0.0
 10
0.1972716535433071
 20
1.707897637795276
 30
0.0
 10
0.1959094488188977
 20
1.706429133858268
 30
0.0
 10
0.1952165354330709
 20
1.705149606299213
 30
0.0
 10
0.1952165354330709
 20
1.704011811023622
 30
0.0
 10
0.1952165354330709
 20
1.704011811023622
 30
0.0
 10
0.1952165354330709
 20
1.702956692913386
 30
0.0
 10
0.1956338582677165
 20
1.702204724409449
 30
0.0
 10
0.196492125984252
 20
1.701704724409449
 30
0.0
 10
0.196492125984252
 20
1.701704724409449
 30
0.0
 10
0.1973267716535433
 20
1.701232283464567
 30
0.0
 10
0.1992165354330709
 20
1.700984251968504
 30
0.0
 10
0.2021338582677165
 20
1.700984251968504
 30
0.0
 10
0.2021338582677165
 20
1.700984251968504
 30
0.0
 10
0.2021338582677165
 20
1.700984251968504
 30
0.0
 10
0.2054094488188976
 20
1.700984251968504
 30
0.0
 10
0.2054094488188976
 20
1.700984251968504
 30
0.0
 10
0.2054094488188976
 20
1.700984251968504
 30
0.0
 10
0.2054094488188976
 20
1.700984251968504
 30
0.0
 10
0.2054094488188976
 20
1.694149606299213
 30
0.0
 10
0.2054094488188976
 20
1.694149606299213
 30
0.0
 10
0.2054094488188976
 20
1.694149606299213
 30
0.0
 10
0.2054094488188976
 20
1.694149606299213
 30
0.0
 10
0.1711338582677165
 20
1.694149606299213
 30
0.0
 10
0.1711338582677165
 20
1.694149606299213
 30
0.0
 10
0.1711338582677165
 20
1.694149606299213
 30
0.0
 10
0.1711338582677165
 20
1.694149606299213
 30
0.0
 10
0.1711338582677165
 20
1.700984251968504
 30
0.0
 10
0.1711338582677165
 20
1.700984251968504
 30
0.0
 10
0.1711338582677165
 20
1.700984251968504
 30
0.0
 10
0.1737992125984252
 20
1.70103937007874
 30
0.0
 10
0.1758818897637795
 20
1.701314960629921
 30
0.0
 10
0.1774094488188976
 20
1.70184251968504
 30
0.0
 10
0.1774094488188976
 20
1.70184251968504
 30
0.0
 10
0.1789094488188976
 20
1.70234251968504
 30
0.0
 10
0.1803818897637795
 20
1.703149606299213
 30
0.0
 10
0.1817992125984252
 20
1.704232283464567
 30
0.0
 10
0.1817992125984252
 20
1.704232283464567
 30
0.0
 10
0.184244094488189
 20
1.706204724409449
 30
0.0
 10
0.185992125984252
 20
1.707732283464567
 30
0.0
 10
0.1870787401574803
 20
1.708870078740158
 30
0.0
 10
0.1870787401574803
 20
1.708870078740158
 30
0.0
 10
0.1870787401574803
 20
1.708870078740158
 30
0.0
 10
0.2109370078740158
 20
1.733370078740158
 30
0.0
 10
0.2109370078740158
 20
1.733370078740158
 30
0.0
 10
0.2109370078740158
 20
1.733370078740158
 30
0.0
 10
0.2109370078740158
 20
1.733370078740158
 30
0.0
 10
0.1906614173228347
 20
1.756649606299213
 30
0.0
 10
0.1906614173228347
 20
1.756649606299213
 30
0.0
 10
0.1906614173228347
 20
1.756649606299213
 30
0.0
 10
0.1881062992125984
 20
1.75953937007874
 30
0.0
 10
0.1861062992125984
 20
1.76153937007874
 30
0.0
 10
0.1846062992125984
 20
1.762704724409449
 30
0.0
 10
0.1846062992125984
 20
1.762704724409449
 30
0.0
 10
0.1831062992125984
 20
1.763870078740158
 30
0.0
 10
0.1816614173228346
 20
1.764704724409449
 30
0.0
 10
0.180244094488189
 20
1.765149606299213
 30
0.0
 10
0.180244094488189
 20
1.765149606299213
 30
0.0
 10
0.1788267716535433
 20
1.765622047244095
 30
0.0
 10
0.1768543307086614
 20
1.765842519685039
 30
0.0
 10
0.1742992125984252
 20
1.765842519685039
 30
0.0
 10
0.1742992125984252
 20
1.765842519685039
 30
0.0
 10
0.1742992125984252
 20
1.765842519685039
 30
0.0
 10
0.1742992125984252
 20
1.772677165354331
 30
0.0
 10
0.1742992125984252
 20
1.772677165354331
 30
0.0
  0
SPLINE
  5
81
330
1F
100
AcDbEntity
  8
LAYER_1
 62
   250
100
AcDbSpline
210
0.0
220
0.0
230
1.0
 70
    11
 71
     3
 72
    80
 73
    76
 74
     0
 42
0.0000000001
 43
0.0000000001
 40
0.0
 40
0.0
 40
0.0
 40
0.0
 40
0.0526315789473684
 40
0.0526315789473684
 40
0.0526315789473684
 40
0.0526315789473684
 40
0.1052631578947368
 40
0.1052631578947368
 40
0.1052631578947368
 40
0.1052631578947368
 40
0.1578947368421053
 40
0.1578947368421053
 40
0.1578947368421053
 40
0.1578947368421053
 40
0.2105263157894737
 40
0.2105263157894737
 40
0.2105263157894737
 40
0.2105263157894737
 40
0.2631578947368421
 40
0.2631578947368421
 40
0.2631578947368421
 40
0.2631578947368421
 40
0.3157894736842105
 40
0.3157894736842105
 40
0.3157894736842105
 40
0.3157894736842105
 40
0.3684210526315789
 40
0.3684210526315789
 40
0.3684210526315789
 40
0.3684210526315789
 40
0.4210526315789474
 40
0.4210526315789474
 40
0.4210526315789474
 40
0.4210526315789474
 40
0.4736842105263158
 40
0.4736842105263158
 40
0.4736842105263158
 40
0.4736842105263158
 40
0.5263157894736842
 40
0.5263157894736842
 40
0.5263157894736842
 40
0.5263157894736842
 40
0.5789473684210527
 40
0.5789473684210527
 40
0.5789473684210527
 40
0.5789473684210527
 40
0.631578947368421
 40
0.631578947368421
 40
0.631578947368421
 40
0.631578947368421
 40
0.6842105263157894
 40
0.6842105263157894
 40
0.6842105263157894
 40
0.6842105263157894
 40
0.7368421052631577
 40
0.7368421052631577
 40
0.7368421052631577
 40
0.7368421052631577
 40
0.7894736842105261
 40
0.7894736842105261
 40
0.7894736842105261
 40
0.7894736842105261
 40
0.8421052631578945
 40
0.8421052631578945
 40
0.8421052631578945
 40
0.8421052631578945
 40
0.8947368421052628
 40
0.8947368421052628
 40
0.8947368421052628
 40
0.8947368421052628
 40
0.9473684210526312
 40
0.9473684210526312
 40
0.9473684210526312
 40
0.9473684210526312
 40
1.0
 40
1.0
 40
1.0
 40
1.0
 10
0.335992125984252
 20
1.811814960629921
 30
0.0
 10
0.335992125984252
 20
1.811814960629921
 30
0.0
 10
0.3413818897637795
 20
1.811814960629921
 30
0.0
 10
0.3413818897637795
 20
1.811814960629921
 30
0.0
 10
0.3413818897637795
 20
1.811814960629921
 30
0.0
 10
0.3413818897637795
 20
1.811814960629921
 30
0.0
 10
0.3423543307086615
 20
1.807677165354331
 30
0.0
 10
0.3423543307086615
 20
1.807677165354331
 30
0.0
 10
0.3423543307086615
 20
1.807677165354331
 30
0.0
 10
0.3423543307086615
 20
1.807677165354331
 30
0.0
 10
0.4134645669291339
 20
1.807677165354331
 30
0.0
 10
0.4134645669291339
 20
1.807677165354331
 30
0.0
 10
0.4134645669291339
 20
1.807677165354331
 30
0.0
 10
0.4134645669291339
 20
1.807677165354331
 30
0.0
 10
0.4134645669291339
 20
1.800759842519685
 30
0.0
 10
0.4134645669291339
 20
1.800759842519685
 30
0.0
 10
0.4134645669291339
 20
1.800759842519685
 30
0.0
 10
0.4049645669291339
 20
1.790925196850394
 30
0.0
 10
0.397240157480315
 20
1.779759842519685
 30
0.0
 10
0.3903267716535434
 20
1.767177165354331
 30
0.0
 10
0.3903267716535434
 20
1.767177165354331
 30
0.0
 10
0.3834094488188977
 20
1.754622047244095
 30
0.0
 10
0.3780472440944882
 20
1.741842519685039
 30
0.0
 10
0.374240157480315
 20
1.728814960629921
 30
0.0
 10
0.374240157480315
 20
1.728814960629921
 30
0.0
 10
0.371492125984252
 20
1.719429133858268
 30
0.0
 10
0.369244094488189
 20
1.707870078740158
 30
0.0
 10
0.367492125984252
 20
1.694149606299213
 30
0.0
 10
0.367492125984252
 20
1.694149606299213
 30
0.0
 10
0.367492125984252
 20
1.694149606299213
 30
0.0
 10
0.3508267716535433
 20
1.694149606299213
 30
0.0
 10
0.3508267716535433
 20
1.694149606299213
 30
0.0
 10
0.3508267716535433
 20
1.694149606299213
 30
0.0
 10
0.3524370078740158
 20
1.706259842519685
 30
0.0
 10
0.3551023622047244
 20
1.717566929133858
 30
0.0
 10
0.3588267716535433
 20
1.728094488188976
 30
0.0
 10
0.3588267716535433
 20
1.728094488188976
 30
0.0
 10
0.3625472440944882
 20
1.738622047244095
 30
0.0
 10
0.3679094488188976
 20
1.749622047244095
 30
0.0
 10
0.3749370078740157
 20
1.761094488188977
 30
0.0
 10
0.3749370078740157
 20
1.761094488188977
 30
0.0
 10
0.3819645669291339
 20
1.772566929133858
 30
0.0
 10
0.390492125984252
 20
1.784011811023622
 30
0.0
 10
0.4005472440944882
 20
1.795452755905512
 30
0.0
 10
0.4005472440944882
 20
1.795452755905512
 30
0.0
 10
0.4005472440944882
 20
1.795452755905512
 30
0.0
 10
0.3498267716535433
 20
1.795452755905512
 30
0.0
 10
0.3498267716535433
 20
1.795452755905512
 30
0.0
 10
0.3498267716535433
 20
1.795452755905512
 30
0.0
 10
0.3461574803149606
 20
1.795452755905512
 30
0.0
 10
0.3436299212598425
 20
1.795287401574803
 30
0.0
 10
0.3422716535433071
 20
1.794897637795276
 30
0.0
 10
0.3422716535433071
 20
1.794897637795276
 30
0.0
 10
0.3409094488188977
 20
1.794511811023622
 30
0.0
 10
0.3398543307086615
 20
1.793925196850394
 30
0.0
 10
0.3391023622047244
 20
1.793122047244095
 30
0.0
 10
0.3391023622047244
 20
1.793122047244095
 30
0.0
 10
0.3383267716535433
 20
1.792287401574803
 30
0.0
 10
0.3376850393700788
 20
1.79084251968504
 30
0.0
 10
0.3371299212598425
 20
1.788787401574803
 30
0.0
 10
0.3371299212598425
 20
1.788787401574803
 30
0.0
 10
0.3371299212598425
 20
1.788787401574803
 30
0.0
 10
0.336744094488189
 20
1.787259842519685
 30
0.0
 10
0.336744094488189
 20
1.787259842519685
 30
0.0
 10
0.336744094488189
 20
1.787259842519685
 30
0.0
 10
0.336744094488189
 20
1.787259842519685
 30
0.0
 10
0.3339645669291338
 20
1.777649606299213
 30
0.0
 10
0.3339645669291338
 20
1.777649606299213
 30
0.0
 10
0.3339645669291338
 20
1.777649606299213
 30
0.0
 10
0.3339645669291338
 20
1.777649606299213
 30
0.0
 10
0.3270472440944882
 20
1.779122047244095
 30
0.0
 10
0.3270472440944882
 20
1.779122047244095
 30
0.0
 10
0.3270472440944882
 20
1.779122047244095
 30
0.0
 10
0.3270472440944882
 20
1.779122047244095
 30
0.0
 10
0.335992125984252
 20
1.811814960629921
 30
0.0
 10
0.335992125984252
 20
1.811814960629921
 30
0.0
  0
SPLINE
  5
82
330
1F
100
AcDbEntity
  8
LAYER_1
 62
   250
100
AcDbSpline
210
0.0
220
0.0
230
1.0
 70
    11
 71
     3
 72
    20
 73
    16
 74
     0
 42
0.0000000001
 43
0.0000000001
 40
0.0
 40
0.0
 40
0.0
 40
0.0
 40
0.25
 40
0.25
 40
0.25
 40
0.25
 40
0.5
 40
0.5
 40
0.5
 40
0.5
 40
0.75
 40
0.75
 40
0.75
 40
0.75
 40
1.0
 40
1.0
 40
1.0
 40
1.0
 10
0.5027716535433071
 20
1.81353937007874
 30
0.0
 10
0.5027716535433071
 20
1.81353937007874
 30
0.0
 10
0.4471889763779528
 20
1.65784251968504
 30
0.0
 10
0.4471889763779528
 20
1.65784251968504
 30
0.0
 10
0.4471889763779528
 20
1.65784251968504
 30
0.0
 10
0.4471889763779528
 20
1.65784251968504
 30
0.0
 10
0.4351338582677166
 20
1.65784251968504
 30
0.0
 10
0.4351338582677166
 20
1.65784251968504
 30
0.0
 10
0.4351338582677166
 20
1.65784251968504
 30
0.0
 10
0.4351338582677166
 20
1.65784251968504
 30
0.0
 10
0.4903818897637796
 20
1.81353937007874
 30
0.0
 10
0.4903818897637796
 20
1.81353937007874
 30
0.0
 10
0.4903818897637796
 20
1.81353937007874
 30
0.0
 10
0.4903818897637796
 20
1.81353937007874
 30
0.0
 10
0.5027716535433071
 20
1.81353937007874
 30
0.0
 10
0.5027716535433071
 20
1.81353937007874
 30
0.0
  0
SPLINE
  5
83
330
1F
100
AcDbEntity
  8
LAYER_1
 62
   250
100
AcDbSpline
210
0.0
220
0.0
230
1.0
 70
    11
 71
     3
 72
    72
 73
    68
 74
     0
 42
0.0000000001
 43
0.0000000001
 40
0.0
 40
0.0
 40
0.0
 40
0.0
 40
0.0588235294117647
 40
0.0588235294117647
 40
0.0588235294117647
 40
0.0588235294117647
 40
0.1176470588235294
 40
0.1176470588235294
 40
0.1176470588235294
 40
0.1176470588235294
 40
0.1764705882352941
 40
0.1764705882352941
 40
0.1764705882352941
 40
0.1764705882352941
 40
0.2352941176470588
 40
0.2352941176470588
 40
0.2352941176470588
 40
0.2352941176470588
 40
0.2941176470588235
 40
0.2941176470588235
 40
0.2941176470588235
 40
0.2941176470588235
 40
0.3529411764705883
 40
0.3529411764705883
 40
0.3529411764705883
 40
0.3529411764705883
 40
0.411764705882353
 40
0.411764705882353
 40
0.411764705882353
 40
0.411764705882353
 40
0.4705882352941177
 40
0.4705882352941177
 40
0.4705882352941177
 40
0.4705882352941177
 40
0.5294117647058824
 40
0.5294117647058824
 40
0.5294117647058824
 40
0.5294117647058824
 40
0.5882352941176471
 40
0.5882352941176471
 40
0.5882352941176471
 40
0.5882352941176471
 40
0.6470588235294118
 40
0.6470588235294118
 40
0.6470588235294118
 40
0.6470588235294118
 40
0.7058823529411765
 40
0.7058823529411765
 40
0.7058823529411765
 40
0.7058823529411765
 40
0.7647058823529412
 40
0.7647058823529412
 40
0.7647058823529412
 40
0.7647058823529412
 40
0.823529411764706
 40
0.823529411764706
 40
0.823529411764706
 40
0.823529411764706
 40
0.8823529411764707
 40
0.8823529411764707
 40
0.8823529411764707
 40
0.8823529411764707
 40
0.9411764705882354
 40
0.9411764705882354
 40
0.9411764705882354
 40
0.9411764705882354
 40
1.0
 40
1.0
 40
1.0
 40
1.0
 10
0.5773267716535433
 20
1.807677165354331
 30
0.0
 10
0.5773267716535433
 20
1.807677165354331
 30
0.0
 10
0.5834094488188977
 20
1.807677165354331
 30
0.0
 10
0.5834094488188977
 20
1.807677165354331
 30
0.0
 10
0.5834094488188977
 20
1.807677165354331
 30
0.0
 10
0.5834094488188977
 20
1.807677165354331
 30
0.0
 10
0.5834094488188977
 20
1.713429133858268
 30
0.0
 10
0.5834094488188977
 20
1.713429133858268
 30
0.0
 10
0.5834094488188977
 20
1.713429133858268
 30
0.0
 10
0.5834094488188977
 20
1.708984251968504
 30
0.0
 10
0.5837165354330709
 20
1.706122047244095
 30
0.0
 10
0.5842716535433071
 20
1.704842519685039
 30
0.0
 10
0.5842716535433071
 20
1.704842519685039
 30
0.0
 10
0.5848543307086614
 20
1.703566929133858
 30
0.0
 10
0.5857716535433071
 20
1.702622047244095
 30
0.0
 10
0.5870748031496064
 20
1.701956692913386
 30
0.0
 10
0.5870748031496064
 20
1.701956692913386
 30
0.0
 10
0.5883818897637796
 20
1.701314960629921
 30
0.0
 10
0.5909645669291339
 20
1.700984251968504
 30
0.0
 10
0.5948267716535434
 20
1.700984251968504
 30
0.0
 10
0.5948267716535434
 20
1.700984251968504
 30
0.0
 10
0.5948267716535434
 20
1.700984251968504
 30
0.0
 10
0.6027992125984252
 20
1.700984251968504
 30
0.0
 10
0.6027992125984252
 20
1.700984251968504
 30
0.0
 10
0.6027992125984252
 20
1.700984251968504
 30
0.0
 10
0.6027992125984252
 20
1.700984251968504
 30
0.0
 10
0.6027992125984252
 20
1.694149606299213
 30
0.0
 10
0.6027992125984252
 20
1.694149606299213
 30
0.0
 10
0.6027992125984252
 20
1.694149606299213
 30
0.0
 10
0.6027992125984252
 20
1.694149606299213
 30
0.0
 10
0.5491614173228346
 20
1.694149606299213
 30
0.0
 10
0.5491614173228346
 20
1.694149606299213
 30
0.0
 10
0.5491614173228346
 20
1.694149606299213
 30
0.0
 10
0.5491614173228346
 20
1.694149606299213
 30
0.0
 10
0.5491614173228346
 20
1.700984251968504
 30
0.0
 10
0.5491614173228346
 20
1.700984251968504
 30
0.0
 10
0.5491614173228346
 20
1.700984251968504
 30
0.0
 10
0.5491614173228346
 20
1.700984251968504
 30
0.0
 10
0.5580196850393701
 20
1.700984251968504
 30
0.0
 10
0.5580196850393701
 20
1.700984251968504
 30
0.0
 10
0.5580196850393701
 20
1.700984251968504
 30
0.0
 10
0.5618818897637795
 20
1.700984251968504
 30
0.0
 10
0.5644370078740157
 20
1.701314960629921
 30
0.0
 10
0.5657165354330709
 20
1.702011811023622
 30
0.0
 10
0.5657165354330709
 20
1.702011811023622
 30
0.0
 10
0.566992125984252
 20
1.702677165354331
 30
0.0
 10
0.567992125984252
 20
1.703759842519685
 30
0.0
 10
0.5686889763779528
 20
1.705259842519685
 30
0.0
 10
0.5686889763779528
 20
1.705259842519685
 30
0.0
 10
0.5693818897637796
 20
1.706759842519685
 30
0.0
 10
0.569744094488189
 20
1.709484251968504
 30
0.0
 10
0.569744094488189
 20
1.713429133858268
 30
0.0
 10
0.569744094488189
 20
1.713429133858268
 30
0.0
 10
0.569744094488189
 20
1.713429133858268
 30
0.0
 10
0.569744094488189
 20
1.790897637795276
 30
0.0
 10
0.569744094488189
 20
1.790897637795276
 30
0.0
 10
0.569744094488189
 20
1.790897637795276
 30
0.0
 10
0.569744094488189
 20
1.790897637795276
 30
0.0
 10
0.5491614173228346
 20
1.790897637795276
 30
0.0
 10
0.5491614173228346
 20
1.790897637795276
 30
0.0
 10
0.5491614173228346
 20
1.790897637795276
 30
0.0
 10
0.5491614173228346
 20
1.790897637795276
 30
0.0
 10
0.5491614173228346
 20
1.797897637795276
 30
0.0
 10
0.5491614173228346
 20
1.797897637795276
 30
0.0
 10
0.5491614173228346
 20
1.797897637795276
 30
0.0
 10
0.5603818897637796
 20
1.79948031496063
 30
0.0
 10
0.5697716535433071
 20
1.802732283464567
 30
0.0
 10
0.5773267716535433
 20
1.807677165354331
 30
0.0
  0
SPLINE
  5
84
330
1F
100
AcDbEntity
  8
LAYER_1
 62
   250
100
AcDbSpline
210
0.0
220
0.0
230
1.0
 70
    11
 71
     3
 72
    84
 73
    80
 74
     0
 42
0.0000000001
 43
0.0000000001
 40
0.0
 40
0.0
 40
0.0
 40
0.0
 40
0.05
 40
0.05
 40
0.05
 40
0.05
 40
0.1
 40
0.1
 40
0.1
 40
0.1
 40
0.15
 40
0.15
 40
0.15
 40
0.15
 40
0.2
 40
0.2
 40
0.2
 40
0.2
 40
0.25
 40
0.25
 40
0.25
 40
0.25
 40
0.3
 40
0.3
 40
0.3
 40
0.3
 40
0.35
 40
0.35
 40
0.35
 40
0.35
 40
0.4
 40
0.4
 40
0.4
 40
0.4
 40
0.45
 40
0.45
 40
0.45
 40
0.45
 40
0.4999999999999999
 40
0.4999999999999999
 40
0.4999999999999999
 40
0.4999999999999999
 40
0.5499999999999999
 40
0.5499999999999999
 40
0.5499999999999999
 40
0.5499999999999999
 40
0.6
 40
0.6
 40
0.6
 40
0.6
 40
0.65
 40
0.65
 40
0.65
 40
0.65
 40
0.7000000000000001
 40
0.7000000000000001
 40
0.7000000000000001
 40
0.7000000000000001
 40
0.7500000000000001
 40
0.7500000000000001
 40
0.7500000000000001
 40
0.7500000000000001
 40
0.8000000000000002
 40
0.8000000000000002
 40
0.8000000000000002
 40
0.8000000000000002
 40
0.8500000000000002
 40
0.8500000000000002
 40
0.8500000000000002
 40
0.8500000000000002
 40
0.9000000000000002
 40
0.9000000000000002
 40
0.9000000000000002
 40
0.9000000000000002
 40
0.9500000000000003
 40
0.9500000000000003
 40
0.9500000000000003
 40
0.9500000000000003
 40
1.0
 40
1.0
 40
1.0
 40
1.0
 10
0.708992125984252
 20
1.809787401574803
 30
0.0
 10
0.708992125984252
 20
1.809787401574803
 30
0.0
 10
0.708992125984252
 20
1.802370078740158
 30
0.0
 10
0.708992125984252
 20
1.802370078740158
 30
0.0
 10
0.708992125984252
 20
1.802370078740158
 30
0.0
 10
0.6956062992125984
 20
1.802232283464567
 30
0.0
 10
0.6847716535433072
 20
1.800259842519685
 30
0.0
 10
0.6764960629921261
 20
1.79653937007874
 30
0.0
 10
0.6764960629921261
 20
1.79653937007874
 30
0.0
 10
0.6682165354330709
 20
1.792787401574803
 30
0.0
 10
0.6621338582677165
 20
1.787177165354331
 30
0.0
 10
0.6582165354330709
 20
1.779732283464567
 30
0.0
 10
0.6582165354330709
 20
1.779732283464567
 30
0.0
 10
0.6542992125984253
 20
1.772259842519685
 30
0.0
 10
0.6521062992125984
 20
1.763066929133858
 30
0.0
 10
0.6516338582677166
 20
1.752177165354331
 30
0.0
 10
0.6516338582677166
 20
1.752177165354331
 30
0.0
 10
0.6543818897637795
 20
1.756397637795276
 30
0.0
 10
0.6572165354330709
 20
1.759704724409449
 30
0.0
 10
0.6601338582677165
 20
1.762066929133858
 30
0.0
 10
0.6601338582677165
 20
1.762066929133858
 30
0.0
 10
0.6630236220472441
 20
1.764425196850394
 30
0.0
 10
0.6664094488188976
 20
1.766232283464567
 30
0.0
 10
0.6702992125984252
 20
1.767511811023622
 30
0.0
 10
0.6702992125984252
 20
1.767511811023622
 30
0.0
 10
0.6741889763779528
 20
1.768787401574803
 30
0.0
 10
0.6784370078740157
 20
1.769425196850394
 30
0.0
 10
0.6830511811023622
 20
1.769425196850394
 30
0.0
 10
0.6830511811023622
 20
1.769425196850394
 30
0.0
 10
0.6904094488188977
 20
1.769425196850394
 30
0.0
 10
0.696992125984252
 20
1.767787401574803
 30
0.0
 10
0.702744094488189
 20
1.76453937007874
 30
0.0
 10
0.702744094488189
 20
1.76453937007874
 30
0.0
 10
0.708492125984252
 20
1.761287401574803
 30
0.0
 10
0.7129645669291339
 20
1.756870078740157
 30
0.0
 10
0.7161614173228347
 20
1.751314960629921
 30
0.0
 10
0.7161614173228347
 20
1.751314960629921
 30
0.0
 10
0.7193543307086614
 20
1.745759842519685
 30
0.0
 10
0.7209645669291339
 20
1.739204724409449
 30
0.0
 10
0.7209645669291339
 20
1.731677165354331
 30
0.0
 10
0.7209645669291339
 20
1.731677165354331
 30
0.0
 10
0.7209645669291339
 20
1.719677165354331
 30
0.0
 10
0.7173543307086614
 20
1.710259842519685
 30
0.0
 10
0.7101338582677166
 20
1.703429133858268
 30
0.0
 10
0.7101338582677166
 20
1.703429133858268
 30
0.0
 10
0.7021614173228347
 20
1.695929133858268
 30
0.0
 10
0.6918267716535433
 20
1.692204724409449
 30
0.0
 10
0.6791338582677166
 20
1.692204724409449
 30
0.0
 10
0.6791338582677166
 20
1.692204724409449
 30
0.0
 10
0.6699645669291339
 20
1.692204724409449
 30
0.0
 10
0.662244094488189
 20
1.694094488188976
 30
0.0
 10
0.6559370078740158
 20
1.697897637795276
 30
0.0
 10
0.6559370078740158
 20
1.697897637795276
 30
0.0
 10
0.6496338582677166
 20
1.701677165354331
 30
0.0
 10
0.6446338582677166
 20
1.707484251968504
 30
0.0
 10
0.6409094488188977
 20
1.715314960629921
 30
0.0
 10
0.6409094488188977
 20
1.715314960629921
 30
0.0
 10
0.6372165354330709
 20
1.723122047244095
 30
0.0
 10
0.6353543307086614
 20
1.732787401574803
 30
0.0
 10
0.6353543307086614
 20
1.744287401574803
 30
0.0
 10
0.6353543307086614
 20
1.744287401574803
 30
0.0
 10
0.6353543307086614
 20
1.755842519685039
 30
0.0
 10
0.6373267716535433
 20
1.766094488188976
 30
0.0
 10
0.641244094488189
 20
1.77503937007874
 30
0.0
 10
0.641244094488189
 20
1.77503937007874
 30
0.0
 10
0.6451889763779528
 20
1.78398031496063
 30
0.0
 10
0.6506338582677166
 20
1.791177165354331
 30
0.0
 10
0.6575787401574803
 20
1.796594488188976
 30
0.0
 10
0.6575787401574803
 20
1.796594488188976
 30
0.0
 10
0.6645236220472441
 20
1.80203937007874
 30
0.0
 10
0.6721338582677165
 20
1.805594488188977
 30
0.0
 10
0.6803818897637796
 20
1.807259842519685
 30
0.0
 10
0.6803818897637796
 20
1.807259842519685
 30
0.0
 10
0.6886614173228347
 20
1.808952755905512
 30
0.0
 10
0.6960787401574804
 20
1.809787401574803
 30
0.0
 10
0.7026614173228347
 20
1.809787401574803
 30
0.0
 10
0.7026614173228347
 20
1.809787401574803
 30
0.0
 10
0.7026614173228347
 20
1.809787401574803
 30
0.0
 10
0.708992125984252
 20
1.809787401574803
 30
0.0
 10
0.708992125984252
 20
1.809787401574803
 30
0.0
  0
SPLINE
  5
85
330
1F
100
AcDbEntity
  8
LAYER_1
 62
   250
100
AcDbSpline
210
0.0
220
0.0
230
1.0
 70
    11
 71
     3
 72
    40
 73
    36
 74
     0
 42
0.0000000001
 43
0.0000000001
 40
0.0
 40
0.0
 40
0.0
 40
0.0
 40
0.1111111111111111
 40
0.1111111111111111
 40
0.1111111111111111
 40
0.1111111111111111
 40
0.2222222222222222
 40
0.2222222222222222
 40
0.2222222222222222
 40
0.2222222222222222
 40
0.3333333333333333
 40
0.3333333333333333
 40
0.3333333333333333
 40
0.3333333333333333
 40
0.4444444444444444
 40
0.4444444444444444
 40
0.4444444444444444
 40
0.4444444444444444
 40
0.5555555555555556
 40
0.5555555555555556
 40
0.5555555555555556
 40
0.5555555555555556
 40
0.6666666666666667
 40
0.6666666666666667
 40
0.6666666666666667
 40
0.6666666666666667
 40
0.7777777777777779
 40
0.7777777777777779
 40
0.7777777777777779
 40
0.7777777777777779
 40
0.8888888888888891
 40
0.8888888888888891
 40
0.8888888888888891
 40
0.8888888888888891
 40
1.0
 40
1.0
 40
1.0
 40
1.0
 10
0.6792992125984252
 20
1.760787401574803
 30
0.0
 10
0.6714960629921261
 20
1.760787401574803
 30
0.0
 10
0.6650787401574804
 20
1.757842519685039
 30
0.0
 10
0.6600511811023623
 20
1.751925196850394
 30
0.0
 10
0.6600511811023623
 20
1.751925196850394
 30
0.0
 10
0.6550236220472441
 20
1.746011811023622
 30
0.0
 10
0.6525236220472441
 20
1.738897637795276
 30
0.0
 10
0.6525236220472441
 20
1.730622047244095
 30
0.0
 10
0.6525236220472441
 20
1.730622047244095
 30
0.0
 10
0.6525236220472441
 20
1.724759842519685
 30
0.0
 10
0.653744094488189
 20
1.719342519685039
 30
0.0
 10
0.6561889763779528
 20
1.714370078740158
 30
0.0
 10
0.6561889763779528
 20
1.714370078740158
 30
0.0
 10
0.6586338582677166
 20
1.709397637795276
 30
0.0
 10
0.6617716535433071
 20
1.705732283464567
 30
0.0
 10
0.6656338582677166
 20
1.703314960629921
 30
0.0
 10
0.6656338582677166
 20
1.703314960629921
 30
0.0
 10
0.6694645669291339
 20
1.700897637795276
 30
0.0
 10
0.6738267716535433
 20
1.699677165354331
 30
0.0
 10
0.6786338582677166
 20
1.699677165354331
 30
0.0
 10
0.6786338582677166
 20
1.699677165354331
 30
0.0
 10
0.6861338582677166
 20
1.699677165354331
 30
0.0
 10
0.6923543307086615
 20
1.702511811023622
 30
0.0
 10
0.6973267716535433
 20
1.708177165354331
 30
0.0
 10
0.6973267716535433
 20
1.708177165354331
 30
0.0
 10
0.7022716535433071
 20
1.71384251968504
 30
0.0
 10
0.7047716535433071
 20
1.721456692913386
 30
0.0
 10
0.7047716535433071
 20
1.731011811023622
 30
0.0
 10
0.7047716535433071
 20
1.731011811023622
 30
0.0
 10
0.7047716535433071
 20
1.740122047244095
 30
0.0
 10
0.7023543307086615
 20
1.747370078740158
 30
0.0
 10
0.6975236220472442
 20
1.752732283464567
 30
0.0
 10
0.6975236220472442
 20
1.752732283464567
 30
0.0
 10
0.6926889763779528
 20
1.758122047244095
 30
0.0
 10
0.6866062992125984
 20
1.760787401574803
 30
0.0
 10
0.6792992125984252
 20
1.760787401574803
 30
0.0
  0
SPLINE
  5
86
330
1F
100
AcDbEntity
  8
LAYER_1
 62
   250
100
AcDbSpline
210
0.0
220
0.0
230
1.0
 70
    11
 71
     3
 72
    60
 73
    56
 74
     0
 42
0.0000000001
 43
0.0000000001
 40
0.0
 40
0.0
 40
0.0
 40
0.0
 40
0.0714285714285714
 40
0.0714285714285714
 40
0.0714285714285714
 40
0.0714285714285714
 40
0.1428571428571429
 40
0.1428571428571429
 40
0.1428571428571429
 40
0.1428571428571429
 40
0.2142857142857143
 40
0.2142857142857143
 40
0.2142857142857143
 40
0.2142857142857143
 40
0.2857142857142857
 40
0.2857142857142857
 40
0.2857142857142857
 40
0.2857142857142857
 40
0.3571428571428571
 40
0.3571428571428571
 40
0.3571428571428571
 40
0.3571428571428571
 40
0.4285714285714285
 40
0.4285714285714285
 40
0.4285714285714285
 40
0.4285714285714285
 40
0.4999999999999999
 40
0.4999999999999999
 40
0.4999999999999999
 40
0.4999999999999999
 40
0.5714285714285713
 40
0.5714285714285713
 40
0.5714285714285713
 40
0.5714285714285713
 40
0.6428571428571427
 40
0.6428571428571427
 40
0.6428571428571427
 40
0.6428571428571427
 40
0.7142857142857141
 40
0.7142857142857141
 40
0.7142857142857141
 40
0.7142857142857141
 40
0.7857142857142855
 40
0.7857142857142855
 40
0.7857142857142855
 40
0.7857142857142855
 40
0.8571428571428569
 40
0.8571428571428569
 40
0.8571428571428569
 40
0.8571428571428569
 40
0.9285714285714283
 40
0.9285714285714283
 40
0.9285714285714283
 40
0.9285714285714283
 40
1.0
 40
1.0
 40
1.0
 40
1.0
 10
0.7381338582677166
 20
1.765594488188977
 30
0.0
 10
0.7381338582677166
 20
1.765594488188977
 30
0.0
 10
0.733744094488189
 20
1.770984251968504
 30
0.0
 10
0.733744094488189
 20
1.770984251968504
 30
0.0
 10
0.733744094488189
 20
1.770984251968504
 30
0.0
 10
0.7448582677165355
 20
1.78003937007874
 30
0.0
 10
0.7504409448818898
 20
1.787594488188977
 30
0.0
 10
0.7504409448818898
 20
1.793677165354331
 30
0.0
 10
0.7504409448818898
 20
1.793677165354331
 30
0.0
 10
0.7504409448818898
 20
1.794370078740158
 30
0.0
 10
0.7503858267716536
 20
1.795259842519685
 30
0.0
 10
0.7502716535433072
 20
1.796287401574803
 30
0.0
 10
0.7502716535433072
 20
1.796287401574803
 30
0.0
 10
0.7493582677165355
 20
1.795897637795276
 30
0.0
 10
0.7484409448818898
 20
1.795594488188977
 30
0.0
 10
0.7475787401574804
 20
1.795397637795276
 30
0.0
 10
0.7475787401574804
 20
1.795397637795276
 30
0.0
 10
0.7467165354330709
 20
1.795177165354331
 30
0.0
 10
0.7459133858267717
 20
1.795066929133858
 30
0.0
 10
0.7451338582677166
 20
1.795066929133858
 30
0.0
 10
0.7451338582677166
 20
1.795066929133858
 30
0.0
 10
0.7425236220472441
 20
1.795066929133858
 30
0.0
 10
0.7404409448818898
 20
1.795897637795276
 30
0.0
 10
0.7388858267716536
 20
1.797594488188977
 30
0.0
 10
0.7388858267716536
 20
1.797594488188977
 30
0.0
 10
0.7372992125984252
 20
1.799259842519685
 30
0.0
 10
0.7365236220472441
 20
1.801397637795276
 30
0.0
 10
0.7365236220472441
 20
1.804011811023622
 30
0.0
 10
0.7365236220472441
 20
1.804011811023622
 30
0.0
 10
0.7365236220472441
 20
1.806566929133858
 30
0.0
 10
0.7374685039370079
 20
1.808787401574803
 30
0.0
 10
0.7393582677165355
 20
1.810677165354331
 30
0.0
 10
0.7393582677165355
 20
1.810677165354331
 30
0.0
 10
0.7412716535433072
 20
1.812594488188976
 30
0.0
 10
0.7435511811023622
 20
1.81353937007874
 30
0.0
 10
0.7461889763779528
 20
1.81353937007874
 30
0.0
 10
0.7461889763779528
 20
1.81353937007874
 30
0.0
 10
0.7498858267716536
 20
1.81353937007874
 30
0.0
 10
0.7530511811023622
 20
1.812066929133858
 30
0.0
 10
0.7556889763779527
 20
1.809094488188977
 30
0.0
 10
0.7556889763779527
 20
1.809094488188977
 30
0.0
 10
0.7582992125984253
 20
1.806149606299213
 30
0.0
 10
0.7596338582677166
 20
1.802342519685039
 30
0.0
 10
0.7596338582677166
 20
1.797677165354331
 30
0.0
 10
0.7596338582677166
 20
1.797677165354331
 30
0.0
 10
0.7596338582677166
 20
1.794622047244095
 30
0.0
 10
0.758996062992126
 20
1.791425196850394
 30
0.0
 10
0.757744094488189
 20
1.788094488188976
 30
0.0
 10
0.757744094488189
 20
1.788094488188976
 30
0.0
 10
0.756496062992126
 20
1.784759842519685
 30
0.0
 10
0.7546889763779527
 20
1.781677165354331
 30
0.0
 10
0.7522992125984253
 20
1.778814960629921
 30
0.0
 10
0.7522992125984253
 20
1.778814960629921
 30
0.0
 10
0.7499133858267717
 20
1.775984251968504
 30
0.0
 10
0.7451889763779528
 20
1.771566929133858
 30
0.0
 10
0.7381338582677166
 20
1.765594488188977
 30
0.0
  0
SPLINE
  5
87
330
1F
100
AcDbEntity
  8
LAYER_1
 62
   250
100
AcDbSpline
210
0.0
220
0.0
230
1.0
 70
    11
 71
     3
 72
    60
 73
    56
 74
     0
 42
0.0000000001
 43
0.0000000001
 40
0.0
 40
0.0
 40
0.0
 40
0.0
 40
0.0714285714285714
 40
0.0714285714285714
 40
0.0714285714285714
 40
0.0714285714285714
 40
0.1428571428571429
 40
0.1428571428571429
 40
0.1428571428571429
 40
0.1428571428571429
 40
0.2142857142857143
 40
0.2142857142857143
 40
0.2142857142857143
 40
0.2142857142857143
 40
0.2857142857142857
 40
0.2857142857142857
 40
0.2857142857142857
 40
0.2857142857142857
 40
0.3571428571428571
 40
0.3571428571428571
 40
0.3571428571428571
 40
0.3571428571428571
 40
0.4285714285714285
 40
0.4285714285714285
 40
0.4285714285714285
 40
0.4285714285714285
 40
0.4999999999999999
 40
0.4999999999999999
 40
0.4999999999999999
 40
0.4999999999999999
 40
0.5714285714285713
 40
0.5714285714285713
 40
0.5714285714285713
 40
0.5714285714285713
 40
0.6428571428571427
 40
0.6428571428571427
 40
0.6428571428571427
 40
0.6428571428571427
 40
0.7142857142857141
 40
0.7142857142857141
 40
0.7142857142857141
 40
0.7142857142857141
 40
0.7857142857142855
 40
0.7857142857142855
 40
0.7857142857142855
 40
0.7857142857142855
 40
0.8571428571428569
 40
0.8571428571428569
 40
0.8571428571428569
 40
0.8571428571428569
 40
0.9285714285714283
 40
0.9285714285714283
 40
0.9285714285714283
 40
0.9285714285714283
 40
1.0
 40
1.0
 40
1.0
 40
1.0
 10
0.7671889763779528
 20
1.765594488188977
 30
0.0
 10
0.7671889763779528
 20
1.765594488188977
 30
0.0
 10
0.7627992125984252
 20
1.770984251968504
 30
0.0
 10
0.7627992125984252
 20
1.770984251968504
 30
0.0
 10
0.7627992125984252
 20
1.770984251968504
 30
0.0
 10
0.7739133858267717
 20
1.78003937007874
 30
0.0
 10
0.779496062992126
 20
1.787594488188977
 30
0.0
 10
0.779496062992126
 20
1.793677165354331
 30
0.0
 10
0.779496062992126
 20
1.793677165354331
 30
0.0
 10
0.779496062992126
 20
1.794370078740158
 30
0.0
 10
0.7794409448818898
 20
1.795259842519685
 30
0.0
 10
0.7793267716535434
 20
1.796287401574803
 30
0.0
 10
0.7793267716535434
 20
1.796287401574803
 30
0.0
 10
0.7784133858267717
 20
1.795897637795276
 30
0.0
 10
0.777496062992126
 20
1.795594488188977
 30
0.0
 10
0.7766338582677166
 20
1.795397637795276
 30
0.0
 10
0.7766338582677166
 20
1.795397637795276
 30
0.0
 10
0.7757716535433071
 20
1.795177165354331
 30
0.0
 10
0.7749409448818898
 20
1.795066929133858
 30
0.0
 10
0.7741062992125984
 20
1.795066929133858
 30
0.0
 10
0.7741062992125984
 20
1.795066929133858
 30
0.0
 10
0.7715511811023622
 20
1.795066929133858
 30
0.0
 10
0.769496062992126
 20
1.795897637795276
 30
0.0
 10
0.7679409448818898
 20
1.797594488188977
 30
0.0
 10
0.7679409448818898
 20
1.797594488188977
 30
0.0
 10
0.7663582677165355
 20
1.799259842519685
 30
0.0
 10
0.7655787401574804
 20
1.801397637795276
 30
0.0
 10
0.7655787401574804
 20
1.804011811023622
 30
0.0
 10
0.7655787401574804
 20
1.804011811023622
 30
0.0
 10
0.7655787401574804
 20
1.806566929133858
 30
0.0
 10
0.7665236220472441
 20
1.808787401574803
 30
0.0
 10
0.7684133858267717
 20
1.810677165354331
 30
0.0
 10
0.7684133858267717
 20
1.810677165354331
 30
0.0
 10
0.7702992125984253
 20
1.812594488188976
 30
0.0
 10
0.7726062992125985
 20
1.81353937007874
 30
0.0
 10
0.775244094488189
 20
1.81353937007874
 30
0.0
 10
0.775244094488189
 20
1.81353937007874
 30
0.0
 10
0.7789409448818898
 20
1.81353937007874
 30
0.0
 10
0.7821062992125984
 20
1.812066929133858
 30
0.0
 10
0.7847440944881891
 20
1.809094488188977
 30
0.0
 10
0.7847440944881891
 20
1.809094488188977
 30
0.0
 10
0.7873543307086615
 20
1.806149606299213
 30
0.0
 10
0.7886889763779528
 20
1.802342519685039
 30
0.0
 10
0.7886889763779528
 20
1.797677165354331
 30
0.0
 10
0.7886889763779528
 20
1.797677165354331
 30
0.0
 10
0.7886889763779528
 20
1.794622047244095
 30
0.0
 10
0.7880511811023623
 20
1.791425196850394
 30
0.0
 10
0.7867992125984252
 20
1.788094488188976
 30
0.0
 10
0.7867992125984252
 20
1.788094488188976
 30
0.0
 10
0.7855511811023622
 20
1.784759842519685
 30
0.0
 10
0.7837440944881891
 20
1.781677165354331
 30
0.0
 10
0.7813582677165355
 20
1.778814960629921
 30
0.0
 10
0.7813582677165355
 20
1.778814960629921
 30
0.0
 10
0.7789685039370079
 20
1.775984251968504
 30
0.0
 10
0.774244094488189
 20
1.771566929133858
 30
0.0
 10
0.7671889763779528
 20
1.765594488188977
 30
0.0
  0
ENDSEC
  0
SECTION
  2
OBJECTS
  0
DICTIONARY
  5
C
330
0
100
AcDbDictionary
  3
ACAD_GROUP
350
D
  3
ACAD_LAYOUT
350
1A
  3
ACAD_MLINESTYLE
350
17
  3
ACAD_PLOTSETTINGS
350
19
  3
ACDBHEADERROUNDTRIPXREC
350
88
  0
DICTIONARY
  5
A8
330
29
100
AcDbDictionary
280
     1
  3
ACAD_XREC_ROUNDTRIP
360
A9
  0
DICTIONARY
  5
D
102
{ACAD_REACTORS
330
C
102
}
330
C
100
AcDbDictionary
  0
DICTIONARY
  5
1A
102
{ACAD_REACTORS
330
C
102
}
330
C
100
AcDbDictionary
  0
DICTIONARY
  5
17
102
{ACAD_REACTORS
330
C
102
}
330
C
100
AcDbDictionary
  3
STANDARD
350
18
  0
DICTIONARY
  5
19
102
{ACAD_REACTORS
330
C
102
}
330
C
100
AcDbDictionary
  0
DICTIONARY
  5
88
102
{ACAD_REACTORS
330
C
102
}
330
C
100
AcDbDictionary
  3
CEPSNTYPE
350
91
  3
DIMSTYLEDATA
350
A7
  3
FINGERPRINTGUID
350
92
  3
HYPERLINKBASE
350
8B
  3
INSUNITS
350
90
  3
LAYOUTDICT
350
8D
  3
LWETCUNION
350
8F
  3
PLOTSETDICT
350
8E
  3
PSVPSCALE
350
94
  3
PUCSBASE
350
97
  3
PUCSORGBACK
350
9D
  3
PUCSORGBOTTOM
350
99
  3
PUCSORGFRONT
350
9C
  3
PUCSORGLEFT
350
9A
  3
PUCSORGRIGHT
350
9B
  3
PUCSORGTOP
350
98
  3
PUCSORTHOREF
350
95
  3
PUCSORTHOVIEW
350
96
  3
STYLESHEET
350
8C
  3
TSTACKALIGN
350
89
  3
TSTACKSIZE
350
8A
  3
UCSBASE
350
A0
  3
UCSORGBACK
350
A6
  3
UCSORGBOTTOM
350
A2
  3
UCSORGFRONT
350
A5
  3
UCSORGLEFT
350
A3
  3
UCSORGRIGHT
350
A4
  3
UCSORGTOP
350
A1
  3
UCSORTHOREF
350
9E
  3
UCSORTHOVIEW
350
9F
  3
VERSIONGUID
350
93
  0
XRECORD
  5
A9
102
{ACAD_REACTORS
330
A8
102
}
330
A8
100
AcDbXrecord
102
UCS
 74
     0
 71
     1
 10
0.0
 20
0.0
 30
0.0
 10
1.0
 20
0.0
 30
0.0
 10
0.0
 20
1.0
 30
0.0
146
0.0
 79
     0
102
VIEW
281
     0
  0
MLINESTYLE
  5
18
102
{ACAD_REACTORS
330
17
102
}
330
17
100
AcDbMlineStyle
  2
Standard
 70
     0
  3

 62
   256
 51
90.0
 52
90.0
 71
     2
 49
0.5
 62
   256
  6
BYLAYER
 49
-0.5
 62
   256
  6
BYLAYER
  0
XRECORD
  5
91
102
{ACAD_REACTORS
330
88
102
}
330
88
100
AcDbXrecord
 90
        0
  0
XRECORD
  5
A7
102
{ACAD_REACTORS
330
88
102
}
330
88
100
AcDbXrecord
1000
DSTYLE
1002
{
1070
   340
340
11
1002
}
  0
XRECORD
  5
92
102
{ACAD_REACTORS
330
88
102
}
330
88
100
AcDbXrecord
  1
{FAEB1C30-E019-11D5-929B-00C0DF256EC4}
  0
XRECORD
  5
8B
102
{ACAD_REACTORS
330
88
102
}
330
88
100
AcDbXrecord
  1

  0
XRECORD
  5
90
102
{ACAD_REACTORS
330
88
102
}
330
88
100
AcDbXrecord
 90
        1
  0
XRECORD
  5
8D
102
{ACAD_REACTORS
330
88
102
}
330
88
100
AcDbXrecord
340
1A
  0
XRECORD
  5
8F
102
{ACAD_REACTORS
330
88
102
}
330
88
100
AcDbXrecord
 90
     2560
  0
XRECORD
  5
8E
102
{ACAD_REACTORS
330
88
102
}
330
88
100
AcDbXrecord
340
19
  0
XRECORD
  5
94
102
{ACAD_REACTORS
330
88
102
}
330
88
100
AcDbXrecord
 40
0.0
  0
XRECORD
  5
97
102
{ACAD_REACTORS
330
88
102
}
330
88
100
AcDbXrecord
340
0
  0
XRECORD
  5
9D
102
{ACAD_REACTORS
330
88
102
}
330
88
100
AcDbXrecord
 10
0.0
 20
0.0
 30
0.0
  0
XRECORD
  5
99
102
{ACAD_REACTORS
330
88
102
}
330
88
100
AcDbXrecord
 10
0.0
 20
0.0
 30
0.0
  0
XRECORD
  5
9C
102
{ACAD_REACTORS
330
88
102
}
330
88
100
AcDbXrecord
 10
0.0
 20
0.0
 30
0.0
  0
XRECORD
  5
9A
102
{ACAD_REACTORS
330
88
102
}
330
88
100
AcDbXrecord
 10
0.0
 20
0.0
 30
0.0
  0
XRECORD
  5
9B
102
{ACAD_REACTORS
330
88
102
}
330
88
100
AcDbXrecord
 10
0.0
 20
0.0
 30
0.0
  0
XRECORD
  5
98
102
{ACAD_REACTORS
330
88
102
}
330
88
100
AcDbXrecord
 10
0.0
 20
0.0
 30
0.0
  0
XRECORD
  5
95
102
{ACAD_REACTORS
330
88
102
}
330
88
100
AcDbXrecord
340
0
  0
XRECORD
  5
96
102
{ACAD_REACTORS
330
88
102
}
330
88
100
AcDbXrecord
 70
     0
  0
XRECORD
  5
8C
102
{ACAD_REACTORS
330
88
102
}
330
88
100
AcDbXrecord
  1

  0
XRECORD
  5
89
102
{ACAD_REACTORS
330
88
102
}
330
88
100
AcDbXrecord
 90
        1
  0
XRECORD
  5
8A
102
{ACAD_REACTORS
330
88
102
}
330
88
100
AcDbXrecord
 90
       70
  0
XRECORD
  5
A0
102
{ACAD_REACTORS
330
88
102
}
330
88
100
AcDbXrecord
340
0
  0
XRECORD
  5
A6
102
{ACAD_REACTORS
330
88
102
}
330
88
100
AcDbXrecord
 10
0.0
 20
0.0
 30
0.0
  0
XRECORD
  5
A2
102
{ACAD_REACTORS
330
88
102
}
330
88
100
AcDbXrecord
 10
0.0
 20
0.0
 30
0.0
  0
XRECORD
  5
A5
102
{ACAD_REACTORS
330
88
102
}
330
88
100
AcDbXrecord
 10
0.0
 20
0.0
 30
0.0
  0
XRECORD
  5
A3
102
{ACAD_REACTORS
330
88
102
}
330
88
100
AcDbXrecord
 10
0.0
 20
0.0
 30
0.0
  0
XRECORD
  5
A4
102
{ACAD_REACTORS
330
88
102
}
330
88
100
AcDbXrecord
 10
0.0
 20
0.0
 30
0.0
  0
XRECORD
  5
A1
102
{ACAD_REACTORS
330
88
102
}
330
88
100
AcDbXrecord
 10
0.0
 20
0.0
 30
0.0
  0
XRECORD
  5
9E
102
{ACAD_REACTORS
330
88
102
}
330
88
100
AcDbXrecord
340
0
  0
XRECORD
  5
9F
102
{ACAD_REACTORS
330
88
102
}
330
88
100
AcDbXrecord
 70
     0
  0
XRECORD
  5
93
102
{ACAD_REACTORS
330
88
102
}
330
88
100
AcDbXrecord
  1
{FAEB1C32-E019-11D5-929B-00C0DF256EC4}
  0
ENDSEC
  0
EOF
