  0
SECTION
  2
HEADER
  9
$ACADVER
  1
AC1014
  9
$ACADMAINTVER
 70
     9
  9
$DWGCODEPAGE
  3
ANSI_1252
  9
$INSBASE
 10
0.0
 20
0.0
 30
0.0
  9
$EXTMIN
 10
-3.088070866141732
 20
0.164496062992126
 30
0.0
  9
$EXTMAX
 10
2.639885826771653
 20
4.133822834645669
 30
0.0
  9
$LIMMIN
 10
0.0
 20
0.0
  9
$LIMMAX
 10
12.0
 20
9.0
  9
$ORTHOMODE
 70
     0
  9
$REGENMODE
 70
     1
  9
$FILLMODE
 70
     1
  9
$QTEXTMODE
 70
     0
  9
$MIRRTEXT
 70
     1
  9
$DRAGMODE
 70
     2
  9
$LTSCALE
 40
1.0
  9
$OSMODE
 70
    37
  9
$ATTMODE
 70
     1
  9
$TEXTSIZE
 40
0.2
  9
$TRACEWID
 40
0.05
  9
$TEXTSTYLE
  7
STANDARD
  9
$CLAYER
  8
0
  9
$CELTYPE
  6
BYLAYER
  9
$CECOLOR
 62
   256
  9
$CELTSCALE
 40
1.0
  9
$DELOBJ
 70
     1
  9
$DISPSILH
 70
     0
  9
$DIMSCALE
 40
1.0
  9
$DIMASZ
 40
0.18
  9
$DIMEXO
 40
0.0625
  9
$DIMDLI
 40
0.38
  9
$DIMRND
 40
0.0
  9
$DIMDLE
 40
0.0
  9
$DIMEXE
 40
0.18
  9
$DIMTP
 40
0.0
  9
$DIMTM
 40
0.0
  9
$DIMTXT
 40
0.18
  9
$DIMCEN
 40
0.09
  9
$DIMTSZ
 40
0.0
  9
$DIMTOL
 70
     0
  9
$DIMLIM
 70
     0
  9
$DIMTIH
 70
     1
  9
$DIMTOH
 70
     1
  9
$DIMSE1
 70
     0
  9
$DIMSE2
 70
     0
  9
$DIMTAD
 70
     0
  9
$DIMZIN
 70
     0
  9
$DIMBLK
  1

  9
$DIMASO
 70
     1
  9
$DIMSHO
 70
     1
  9
$DIMPOST
  1

  9
$DIMAPOST
  1

  9
$DIMALT
 70
     0
  9
$DIMALTD
 70
     2
  9
$DIMALTF
 40
25.4
  9
$DIMLFAC
 40
1.0
  9
$DIMTOFL
 70
     0
  9
$DIMTVP
 40
0.0
  9
$DIMTIX
 70
     0
  9
$DIMSOXD
 70
     0
  9
$DIMSAH
 70
     0
  9
$DIMBLK1
  1

  9
$DIMBLK2
  1

  9
$DIMSTYLE
  2
STANDARD
  9
$DIMCLRD
 70
     0
  9
$DIMCLRE
 70
     0
  9
$DIMCLRT
 70
     0
  9
$DIMTFAC
 40
1.0
  9
$DIMGAP
 40
0.09
  9
$DIMJUST
 70
     0
  9
$DIMSD1
 70
     0
  9
$DIMSD2
 70
     0
  9
$DIMTOLJ
 70
     1
  9
$DIMTZIN
 70
     0
  9
$DIMALTZ
 70
     0
  9
$DIMALTTZ
 70
     0
  9
$DIMFIT
 70
     3
  9
$DIMUPT
 70
     0
  9
$DIMUNIT
 70
     2
  9
$DIMDEC
 70
     4
  9
$DIMTDEC
 70
     4
  9
$DIMALTU
 70
     2
  9
$DIMALTTD
 70
     2
  9
$DIMTXSTY
  7
STANDARD
  9
$DIMAUNIT
 70
     0
  9
$LUNITS
 70
     2
  9
$LUPREC
 70
     4
  9
$SKETCHINC
 40
0.1
  9
$FILLETRAD
 40
0.5
  9
$AUNITS
 70
     0
  9
$AUPREC
 70
     0
  9
$MENU
  1
.
  9
$ELEVATION
 40
0.0
  9
$PELEVATION
 40
0.0
  9
$THICKNESS
 40
0.0
  9
$LIMCHECK
 70
     0
  9
$CHAMFERA
 40
0.5
  9
$CHAMFERB
 40
0.5
  9
$CHAMFERC
 40
1.0
  9
$CHAMFERD
 40
0.0
  9
$SKPOLY
 70
     0
  9
$TDCREATE
 40
2454123.657819456
  9
$TDUPDATE
 40
2454123.657819468
  9
$TDINDWG
 40
0.0000000116
  9
$TDUSRTIMER
 40
0.0000000116
  9
$USRTIMER
 70
     1
  9
$ANGBASE
 50
0.0
  9
$ANGDIR
 70
     0
  9
$PDMODE
 70
     0
  9
$PDSIZE
 40
0.0
  9
$PLINEWID
 40
0.0
  9
$COORDS
 70
     1
  9
$SPLFRAME
 70
     0
  9
$SPLINETYPE
 70
     6
  9
$SPLINESEGS
 70
     8
  9
$ATTDIA
 70
     0
  9
$ATTREQ
 70
     1
  9
$HANDLING
 70
     1
  9
$HANDSEED
  5
CB
  9
$SURFTAB1
 70
     6
  9
$SURFTAB2
 70
     6
  9
$SURFTYPE
 70
     6
  9
$SURFU
 70
     6
  9
$SURFV
 70
     6
  9
$UCSNAME
  2

  9
$UCSORG
 10
0.0
 20
0.0
 30
0.0
  9
$UCSXDIR
 10
1.0
 20
0.0
 30
0.0
  9
$UCSYDIR
 10
0.0
 20
1.0
 30
0.0
  9
$PUCSNAME
  2

  9
$PUCSORG
 10
0.0
 20
0.0
 30
0.0
  9
$PUCSXDIR
 10
1.0
 20
0.0
 30
0.0
  9
$PUCSYDIR
 10
0.0
 20
1.0
 30
0.0
  9
$USERI1
 70
     0
  9
$USERI2
 70
     0
  9
$USERI3
 70
     0
  9
$USERI4
 70
     0
  9
$USERI5
 70
     0
  9
$USERR1
 40
0.0
  9
$USERR2
 40
0.0
  9
$USERR3
 40
0.0
  9
$USERR4
 40
0.0
  9
$USERR5
 40
0.0
  9
$WORLDVIEW
 70
     1
  9
$SHADEDGE
 70
     3
  9
$SHADEDIF
 70
    70
  9
$TILEMODE
 70
     1
  9
$MAXACTVP
 70
    64
  9
$PINSBASE
 10
0.0
 20
0.0
 30
0.0
  9
$PLIMCHECK
 70
     0
  9
$PEXTMIN
 10
1.000000000000000E+20
 20
1.000000000000000E+20
 30
1.000000000000000E+20
  9
$PEXTMAX
 10
-1.000000000000000E+20
 20
-1.000000000000000E+20
 30
-1.000000000000000E+20
  9
$PLIMMIN
 10
0.0
 20
0.0
  9
$PLIMMAX
 10
12.0
 20
9.0
  9
$UNITMODE
 70
     0
  9
$VISRETAIN
 70
     1
  9
$PLINEGEN
 70
     0
  9
$PSLTSCALE
 70
     1
  9
$TREEDEPTH
 70
  3020
  9
$PICKSTYLE
 70
     1
  9
$CMLSTYLE
  2
STANDARD
  9
$CMLJUST
 70
     0
  9
$CMLSCALE
 40
1.0
  9
$PROXYGRAPHICS
 70
     1
  9
$MEASUREMENT
 70
     0
  0
ENDSEC
  0
SECTION
  2
CLASSES
  0
CLASS
  1
ACDBDICTIONARYWDFLT
  2
AcDbDictionaryWithDefault
  3
ObjectDBX Classes
 90
        0
280
     0
281
     0
  0
CLASS
  1
XRECORD
  2
AcDbXrecord
  3
AutoCAD 2000
 90
        0
280
     0
281
     0
  0
CLASS
  1
LWPOLYLINE
  2
AcDbPolyline
  3
AutoCAD 2000
 90
        0
280
     0
281
     1
  0
CLASS
  1
HATCH
  2
AcDbHatch
  3
AutoCAD 2000
 90
        0
280
     0
281
     1
  0
CLASS
  1
ACDBPLACEHOLDER
  2
AcDbPlaceHolder
  3
ObjectDBX Classes
 90
        0
280
     0
281
     0
  0
CLASS
  1
LAYOUT
  2
AcDbLayout
  3
ObjectDBX Classes
 90
        0
280
     0
281
     0
  0
ENDSEC
  0
SECTION
  2
TABLES
  0
TABLE
  2
VPORT
  5
8
330
0
100
AcDbSymbolTable
 70
     2
  0
VPORT
  5
29
102
{ACAD_XDICTIONARY
360
C9
102
}
330
8
100
AcDbSymbolTableRecord
100
AcDbViewportTableRecord
  2
*ACTIVE
 70
     0
 10
0.0
 20
0.0
 11
1.0
 21
1.0
 12
10.42990654205607
 22
4.5
 13
0.0
 23
0.0
 14
0.5
 24
0.5
 15
0.5
 25
0.5
 16
0.0
 26
0.0
 36
1.0
 17
0.0
 27
0.0
 37
0.0
 40
9.0
 41
1.972972972850329
 42
50.0
 43
0.0
 44
0.0
 50
0.0
 51
0.0
 71
     0
 72
   100
 73
     1
 74
     3
 75
     0
 76
     0
 77
     0
 78
     0
  0
ENDTAB
  0
TABLE
  2
LTYPE
  5
5
330
0
100
AcDbSymbolTable
 70
     1
  0
LTYPE
  5
14
330
5
100
AcDbSymbolTableRecord
100
AcDbLinetypeTableRecord
  2
BYBLOCK
 70
     0
  3

 72
    65
 73
     0
 40
0.0
  0
LTYPE
  5
15
330
5
100
AcDbSymbolTableRecord
100
AcDbLinetypeTableRecord
  2
BYLAYER
 70
     0
  3

 72
    65
 73
     0
 40
0.0
  0
LTYPE
  5
16
330
5
100
AcDbSymbolTableRecord
100
AcDbLinetypeTableRecord
  2
CONTINUOUS
 70
     0
  3
Solid line
 72
    65
 73
     0
 40
0.0
  0
ENDTAB
  0
TABLE
  2
LAYER
  5
2
330
0
100
AcDbSymbolTable
 70
     3
  0
LAYER
  5
10
330
2
100
AcDbSymbolTableRecord
100
AcDbLayerTableRecord
  2
0
 70
     0
 62
     7
  6
CONTINUOUS
  0
LAYER
  5
2B
330
2
100
AcDbSymbolTableRecord
100
AcDbLayerTableRecord
  2
LAYER_1
 70
     0
 62
     7
  6
CONTINUOUS
  0
LAYER
  5
46
330
2
100
AcDbSymbolTableRecord
100
AcDbLayerTableRecord
  2
P1-LAYER_1
 70
     0
 62
     7
  6
CONTINUOUS
  0
ENDTAB
  0
TABLE
  2
STYLE
  5
3
330
0
100
AcDbSymbolTable
 70
     1
  0
STYLE
  5
11
330
3
100
AcDbSymbolTableRecord
100
AcDbTextStyleTableRecord
  2
STANDARD
 70
     0
 40
0.0
 41
1.0
 50
0.0
 71
     0
 42
0.2
  3
txt
  4

  0
ENDTAB
  0
TABLE
  2
VIEW
  5
6
330
0
100
AcDbSymbolTable
 70
     0
  0
ENDTAB
  0
TABLE
  2
UCS
  5
7
330
0
100
AcDbSymbolTable
 70
     0
  0
ENDTAB
  0
TABLE
  2
APPID
  5
9
330
0
100
AcDbSymbolTable
 70
     2
  0
APPID
  5
12
330
9
100
AcDbSymbolTableRecord
100
AcDbRegAppTableRecord
  2
ACAD
 70
     0
  0
APPID
  5
2A
330
9
100
AcDbSymbolTableRecord
100
AcDbRegAppTableRecord
  2
ODA
 70
     0
  0
ENDTAB
  0
TABLE
  2
DIMSTYLE
  5
A
330
0
100
AcDbSymbolTable
 70
     1
  0
DIMSTYLE
105
27
330
A
100
AcDbSymbolTableRecord
100
AcDbDimStyleTableRecord
  2
STANDARD
 70
     0
  3

  4

  5

  6

  7

 40
1.0
 41
0.18
 42
0.0625
 43
0.38
 44
0.18
 45
0.0
 46
0.0
 47
0.0
 48
0.0
140
0.18
141
0.09
142
0.0
143
25.4
144
1.0
145
0.0
146
1.0
147
0.09
 71
     0
 72
     0
 73
     1
 74
     1
 75
     0
 76
     0
 77
     0
 78
     0
170
     0
171
     2
172
     0
173
     0
174
     0
175
     0
176
     0
177
     0
178
     0
270
     2
271
     4
272
     4
273
     2
274
     2
340
11
275
     0
280
     0
281
     0
282
     0
283
     1
284
     0
285
     0
286
     0
287
     3
288
     0
  0
ENDTAB
  0
TABLE
  2
BLOCK_RECORD
  5
1
330
0
100
AcDbSymbolTable
 70
     1
  0
BLOCK_RECORD
  5
1F
330
1
100
AcDbSymbolTableRecord
100
AcDbBlockTableRecord
  2
*MODEL_SPACE
  0
BLOCK_RECORD
  5
1B
330
1
100
AcDbSymbolTableRecord
100
AcDbBlockTableRecord
  2
*PAPER_SPACE
  0
ENDTAB
  0
ENDSEC
  0
SECTION
  2
BLOCKS
  0
BLOCK
  5
20
330
1F
100
AcDbEntity
  8
0
100
AcDbBlockBegin
  2
*MODEL_SPACE
 70
     0
 71
     0
 10
0.0
 20
0.0
 30
0.0
  3
*MODEL_SPACE
  1

  0
ENDBLK
  5
21
330
1F
100
AcDbEntity
  8
0
100
AcDbBlockEnd
  0
BLOCK
  5
1C
330
1B
100
AcDbEntity
 67
     1
  8
0
100
AcDbBlockBegin
  2
*PAPER_SPACE
 70
     0
 71
     0
 10
0.0
 20
0.0
 30
0.0
  3
*PAPER_SPACE
  1

  0
ENDBLK
  5
1D
330
1B
100
AcDbEntity
 67
     1
  8
0
100
AcDbBlockEnd
  0
ENDSEC
  0
SECTION
  2
ENTITIES
  0
SPLINE
  5
2C
330
1F
100
AcDbEntity
  8
LAYER_1
 62
   250
100
AcDbSpline
210
0.0
220
0.0
230
1.0
 70
    11
 71
     3
 72
    24
 73
    20
 74
     0
 42
0.0000000001
 43
0.0000000001
 40
0.0
 40
0.0
 40
0.0
 40
0.0
 40
0.2
 40
0.2
 40
0.2
 40
0.2
 40
0.4
 40
0.4
 40
0.4
 40
0.4
 40
0.6000000000000001
 40
0.6000000000000001
 40
0.6000000000000001
 40
0.6000000000000001
 40
0.8
 40
0.8
 40
0.8
 40
0.8
 40
1.0
 40
1.0
 40
1.0
 40
1.0
 10
-0.0928070866141732
 20
3.323610236220473
 30
0.0
 10
-0.0928070866141732
 20
3.323610236220473
 30
0.0
 10
-0.5450393700787402
 20
3.323610236220473
 30
0.0
 10
-0.5450393700787402
 20
3.323610236220473
 30
0.0
 10
-0.5450393700787402
 20
3.323610236220473
 30
0.0
 10
-0.8685551181102362
 20
2.330409448818898
 30
0.0
 10
-1.672188976377953
 20
2.310602362204725
 30
0.0
 10
-3.081125984251969
 20
2.307035433070866
 30
0.0
 10
-3.081125984251969
 20
2.307035433070866
 30
0.0
 10
-3.081125984251969
 20
2.307035433070866
 30
0.0
 10
-3.081125984251969
 20
1.584444881889764
 30
0.0
 10
-3.081125984251969
 20
1.584444881889764
 30
0.0
 10
-3.081125984251969
 20
1.584444881889764
 30
0.0
 10
-3.081125984251969
 20
1.584444881889764
 30
0.0
 10
-0.0928070866141732
 20
1.584444881889764
 30
0.0
 10
-0.0928070866141732
 20
1.584444881889764
 30
0.0
 10
-0.0928070866141732
 20
1.584444881889764
 30
0.0
 10
-0.0928070866141732
 20
1.584444881889764
 30
0.0
 10
-0.0928070866141732
 20
3.323610236220473
 30
0.0
 10
-0.0928070866141732
 20
3.323610236220473
 30
0.0
  0
SPLINE
  5
2D
330
1F
100
AcDbEntity
  8
LAYER_1
 62
   250
100
AcDbSpline
210
0.0
220
0.0
230
1.0
 70
    27
 71
     3
 72
     8
 73
     4
 74
     0
 42
0.0000000001
 43
0.0000000001
 40
0.0
 40
0.0
 40
0.0
 40
0.0
 40
1.0
 40
1.0
 40
1.0
 40
1.0
 10
1.172503937007874
 20
4.133814960629922
 30
0.0
 10
1.172503937007874
 20
4.133814960629922
 30
0.0
 10
1.172503937007874
 20
4.133814960629922
 30
0.0
 10
1.172503937007874
 20
4.133814960629922
 30
0.0
  0
SPLINE
  5
2E
330
1F
100
AcDbEntity
  8
LAYER_1
 62
   250
100
AcDbSpline
210
0.0
220
0.0
230
1.0
 70
    27
 71
     3
 72
     8
 73
     4
 74
     0
 42
0.0000000001
 43
0.0000000001
 40
0.0
 40
0.0
 40
0.0
 40
0.0
 40
1.0
 40
1.0
 40
1.0
 40
1.0
 10
-0.5123110236220473
 20
3.152763779527559
 30
0.0
 10
-0.5123110236220473
 20
3.152763779527559
 30
0.0
 10
-0.5123110236220473
 20
3.152763779527559
 30
0.0
 10
-0.5123110236220473
 20
3.152763779527559
 30
0.0
  0
SPLINE
  5
2F
330
1F
100
AcDbEntity
  8
LAYER_1
 62
   250
100
AcDbSpline
210
0.0
220
0.0
230
1.0
 70
    11
 71
     3
 72
   104
 73
   100
 74
     0
 42
0.0000000001
 43
0.0000000001
 40
0.0
 40
0.0
 40
0.0
 40
0.0
 40
0.04
 40
0.04
 40
0.04
 40
0.04
 40
0.08
 40
0.08
 40
0.08
 40
0.08
 40
0.12
 40
0.12
 40
0.12
 40
0.12
 40
0.16
 40
0.16
 40
0.16
 40
0.16
 40
0.2
 40
0.2
 40
0.2
 40
0.2
 40
0.24
 40
0.24
 40
0.24
 40
0.24
 40
0.28
 40
0.28
 40
0.28
 40
0.28
 40
0.32
 40
0.32
 40
0.32
 40
0.32
 40
0.36
 40
0.36
 40
0.36
 40
0.36
 40
0.4
 40
0.4
 40
0.4
 40
0.4
 40
0.44
 40
0.44
 40
0.44
 40
0.44
 40
0.4799999999999999
 40
0.4799999999999999
 40
0.4799999999999999
 40
0.4799999999999999
 40
0.5199999999999999
 40
0.5199999999999999
 40
0.5199999999999999
 40
0.5199999999999999
 40
0.5599999999999999
 40
0.5599999999999999
 40
0.5599999999999999
 40
0.5599999999999999
 40
0.6
 40
0.6
 40
0.6
 40
0.6
 40
0.64
 40
0.64
 40
0.64
 40
0.64
 40
0.6800000000000001
 40
0.6800000000000001
 40
0.6800000000000001
 40
0.6800000000000001
 40
0.7200000000000001
 40
0.7200000000000001
 40
0.7200000000000001
 40
0.7200000000000001
 40
0.7600000000000001
 40
0.7600000000000001
 40
0.7600000000000001
 40
0.7600000000000001
 40
0.8000000000000002
 40
0.8000000000000002
 40
0.8000000000000002
 40
0.8000000000000002
 40
0.8400000000000002
 40
0.8400000000000002
 40
0.8400000000000002
 40
0.8400000000000002
 40
0.8800000000000002
 40
0.8800000000000002
 40
0.8800000000000002
 40
0.8800000000000002
 40
0.9200000000000003
 40
0.9200000000000003
 40
0.9200000000000003
 40
0.9200000000000003
 40
0.9600000000000003
 40
0.9600000000000003
 40
0.9600000000000003
 40
0.9600000000000003
 40
1.0
 40
1.0
 40
1.0
 40
1.0
 10
-1.855574803149606
 20
1.420720472440945
 30
0.0
 10
-1.855574803149606
 20
1.420720472440945
 30
0.0
 10
-1.801602362204725
 20
1.420720472440945
 30
0.0
 10
-1.801602362204725
 20
1.420720472440945
 30
0.0
 10
-1.801602362204725
 20
1.420720472440945
 30
0.0
 10
-1.788433070866142
 20
1.420720472440945
 30
0.0
 10
-1.779405511811024
 20
1.420110236220473
 30
0.0
 10
-1.77451968503937
 20
1.418913385826772
 30
0.0
 10
-1.77451968503937
 20
1.418913385826772
 30
0.0
 10
-1.767295275590551
 20
1.417192913385827
 30
0.0
 10
-1.761602362204725
 20
1.414055118110236
 30
0.0
 10
-1.757377952755906
 20
1.409496062992126
 30
0.0
 10
-1.757377952755906
 20
1.409496062992126
 30
0.0
 10
-1.753185039370079
 20
1.40494094488189
 30
0.0
 10
-1.751074803149606
 20
1.39944094488189
 30
0.0
 10
-1.751074803149606
 20
1.393055118110236
 30
0.0
 10
-1.751074803149606
 20
1.393055118110236
 30
0.0
 10
-1.751074803149606
 20
1.38844094488189
 30
0.0
 10
-1.752185039370079
 20
1.384303149606299
 30
0.0
 10
-1.754405511811024
 20
1.380637795275591
 30
0.0
 10
-1.754405511811024
 20
1.380637795275591
 30
0.0
 10
-1.756629921259843
 20
1.376968503937008
 30
0.0
 10
-1.759877952755906
 20
1.373830708661417
 30
0.0
 10
-1.764102362204725
 20
1.371248031496063
 30
0.0
 10
-1.764102362204725
 20
1.371248031496063
 30
0.0
 10
-1.766822834645669
 20
1.369555118110236
 30
0.0
 10
-1.770492125984252
 20
1.368110236220473
 30
0.0
 10
-1.775157480314961
 20
1.366913385826772
 30
0.0
 10
-1.775157480314961
 20
1.366913385826772
 30
0.0
 10
-1.769240157480315
 20
1.365830708661417
 30
0.0
 10
-1.764740157480315
 20
1.364527559055118
 30
0.0
 10
-1.761657480314961
 20
1.363027559055118
 30
0.0
 10
-1.761657480314961
 20
1.363027559055118
 30
0.0
 10
-1.756992125984252
 20
1.360748031496063
 30
0.0
 10
-1.753295275590551
 20
1.3575
 30
0.0
 10
-1.750602362204724
 20
1.353248031496063
 30
0.0
 10
-1.750602362204724
 20
1.353248031496063
 30
0.0
 10
-1.747877952755906
 20
1.349027559055118
 30
0.0
 10
-1.74651968503937
 20
1.344248031496063
 30
0.0
 10
-1.74651968503937
 20
1.33894094488189
 30
0.0
 10
-1.74651968503937
 20
1.33894094488189
 30
0.0
 10
-1.74651968503937
 20
1.333775590551181
 30
0.0
 10
-1.747850393700787
 20
1.329
 30
0.0
 10
-1.75051968503937
 20
1.324610236220473
 30
0.0
 10
-1.75051968503937
 20
1.324610236220473
 30
0.0
 10
-1.753157480314961
 20
1.320220472440945
 30
0.0
 10
-1.756933070866142
 20
1.316610236220473
 30
0.0
 10
-1.761767716535433
 20
1.313775590551181
 30
0.0
 10
-1.761767716535433
 20
1.313775590551181
 30
0.0
 10
-1.766629921259843
 20
1.310972440944882
 30
0.0
 10
-1.772295275590551
 20
1.309165354330709
 30
0.0
 10
-1.778740157480315
 20
1.308358267716536
 30
0.0
 10
-1.778740157480315
 20
1.308358267716536
 30
0.0
 10
-1.785212598425197
 20
1.307582677165355
 30
0.0
 10
-1.791850393700788
 20
1.307192913385827
 30
0.0
 10
-1.798685039370079
 20
1.307192913385827
 30
0.0
 10
-1.798685039370079
 20
1.307192913385827
 30
0.0
 10
-1.798685039370079
 20
1.307192913385827
 30
0.0
 10
-1.855574803149606
 20
1.307192913385827
 30
0.0
 10
-1.855574803149606
 20
1.307192913385827
 30
0.0
 10
-1.855574803149606
 20
1.307192913385827
 30
0.0
 10
-1.855574803149606
 20
1.307192913385827
 30
0.0
 10
-1.855574803149606
 20
1.314027559055118
 30
0.0
 10
-1.855574803149606
 20
1.314027559055118
 30
0.0
 10
-1.855574803149606
 20
1.314027559055118
 30
0.0
 10
-1.855574803149606
 20
1.314027559055118
 30
0.0
 10
-1.851740157480315
 20
1.314027559055118
 30
0.0
 10
-1.851740157480315
 20
1.314027559055118
 30
0.0
 10
-1.851740157480315
 20
1.314027559055118
 30
0.0
 10
-1.848043307086614
 20
1.314027559055118
 30
0.0
 10
-1.845543307086614
 20
1.314610236220473
 30
0.0
 10
-1.844185039370079
 20
1.315748031496063
 30
0.0
 10
-1.844185039370079
 20
1.315748031496063
 30
0.0
 10
-1.842212598425197
 20
1.317303149606299
 30
0.0
 10
-1.841240157480315
 20
1.319913385826772
 30
0.0
 10
-1.841240157480315
 20
1.323555118110236
 30
0.0
 10
-1.841240157480315
 20
1.323555118110236
 30
0.0
 10
-1.841240157480315
 20
1.323555118110236
 30
0.0
 10
-1.841240157480315
 20
1.402413385826772
 30
0.0
 10
-1.841240157480315
 20
1.402413385826772
 30
0.0
 10
-1.841240157480315
 20
1.402413385826772
 30
0.0
 10
-1.841240157480315
 20
1.406110236220473
 30
0.0
 10
-1.841543307086614
 20
1.408610236220472
 30
0.0
 10
-1.842129921259843
 20
1.409968503937008
 30
0.0
 10
-1.842129921259843
 20
1.409968503937008
 30
0.0
 10
-1.842740157480315
 20
1.411330708661417
 30
0.0
 10
-1.843629921259843
 20
1.412303149606299
 30
0.0
 10
-1.844822834645669
 20
1.412913385826772
 30
0.0
 10
-1.844822834645669
 20
1.412913385826772
 30
0.0
 10
-1.846015748031496
 20
1.413496062992126
 30
0.0
 10
-1.848322834645669
 20
1.413803149606299
 30
0.0
 10
-1.851740157480315
 20
1.413803149606299
 30
0.0
 10
-1.851740157480315
 20
1.413803149606299
 30
0.0
 10
-1.851740157480315
 20
1.413803149606299
 30
0.0
 10
-1.855574803149606
 20
1.413803149606299
 30
0.0
 10
-1.855574803149606
 20
1.413803149606299
 30
0.0
 10
-1.855574803149606
 20
1.413803149606299
 30
0.0
 10
-1.855574803149606
 20
1.413803149606299
 30
0.0
 10
-1.855574803149606
 20
1.420720472440945
 30
0.0
 10
-1.855574803149606
 20
1.420720472440945
 30
0.0
  0
SPLINE
  5
30
330
1F
100
AcDbEntity
  8
LAYER_1
 62
   250
100
AcDbSpline
210
0.0
220
0.0
230
1.0
 70
    11
 71
     3
 72
    40
 73
    36
 74
     0
 42
0.0000000001
 43
0.0000000001
 40
0.0
 40
0.0
 40
0.0
 40
0.0
 40
0.1111111111111111
 40
0.1111111111111111
 40
0.1111111111111111
 40
0.1111111111111111
 40
0.2222222222222222
 40
0.2222222222222222
 40
0.2222222222222222
 40
0.2222222222222222
 40
0.3333333333333333
 40
0.3333333333333333
 40
0.3333333333333333
 40
0.3333333333333333
 40
0.4444444444444444
 40
0.4444444444444444
 40
0.4444444444444444
 40
0.4444444444444444
 40
0.5555555555555556
 40
0.5555555555555556
 40
0.5555555555555556
 40
0.5555555555555556
 40
0.6666666666666667
 40
0.6666666666666667
 40
0.6666666666666667
 40
0.6666666666666667
 40
0.7777777777777779
 40
0.7777777777777779
 40
0.7777777777777779
 40
0.7777777777777779
 40
0.8888888888888891
 40
0.8888888888888891
 40
0.8888888888888891
 40
0.8888888888888891
 40
1.0
 40
1.0
 40
1.0
 40
1.0
 10
-1.826015748031496
 20
1.411692913385827
 30
0.0
 10
-1.826015748031496
 20
1.411692913385827
 30
0.0
 10
-1.826015748031496
 20
1.370110236220473
 30
0.0
 10
-1.826015748031496
 20
1.370110236220473
 30
0.0
 10
-1.826015748031496
 20
1.370110236220473
 30
0.0
 10
-1.826015748031496
 20
1.370110236220473
 30
0.0
 10
-1.805267716535433
 20
1.370110236220473
 30
0.0
 10
-1.805267716535433
 20
1.370110236220473
 30
0.0
 10
-1.805267716535433
 20
1.370110236220473
 30
0.0
 10
-1.795574803149606
 20
1.370110236220473
 30
0.0
 10
-1.788905511811024
 20
1.370555118110236
 30
0.0
 10
-1.785350393700788
 20
1.371468503937008
 30
0.0
 10
-1.785350393700788
 20
1.371468503937008
 30
0.0
 10
-1.779740157480315
 20
1.37294094488189
 30
0.0
 10
-1.775492125984252
 20
1.37544094488189
 30
0.0
 10
-1.77251968503937
 20
1.378968503937008
 30
0.0
 10
-1.77251968503937
 20
1.378968503937008
 30
0.0
 10
-1.769574803149606
 20
1.382496062992126
 30
0.0
 10
-1.768074803149606
 20
1.387027559055118
 30
0.0
 10
-1.768074803149606
 20
1.392555118110236
 30
0.0
 10
-1.768074803149606
 20
1.392555118110236
 30
0.0
 10
-1.768074803149606
 20
1.397220472440945
 30
0.0
 10
-1.769433070866142
 20
1.401110236220473
 30
0.0
 10
-1.772102362204725
 20
1.404248031496063
 30
0.0
 10
-1.772102362204725
 20
1.404248031496063
 30
0.0
 10
-1.774795275590551
 20
1.407358267716536
 30
0.0
 10
-1.778405511811024
 20
1.409496062992126
 30
0.0
 10
-1.782905511811024
 20
1.410637795275591
 30
0.0
 10
-1.782905511811024
 20
1.410637795275591
 30
0.0
 10
-1.785822834645669
 20
1.411330708661417
 30
0.0
 10
-1.791905511811024
 20
1.411692913385827
 30
0.0
 10
-1.801129921259843
 20
1.411692913385827
 30
0.0
 10
-1.801129921259843
 20
1.411692913385827
 30
0.0
 10
-1.801129921259843
 20
1.411692913385827
 30
0.0
 10
-1.826015748031496
 20
1.411692913385827
 30
0.0
 10
-1.826015748031496
 20
1.411692913385827
 30
0.0
  0
SPLINE
  5
31
330
1F
100
AcDbEntity
  8
LAYER_1
 62
   250
100
AcDbSpline
210
0.0
220
0.0
230
1.0
 70
    11
 71
     3
 72
    52
 73
    48
 74
     0
 42
0.0000000001
 43
0.0000000001
 40
0.0
 40
0.0
 40
0.0
 40
0.0
 40
0.0833333333333333
 40
0.0833333333333333
 40
0.0833333333333333
 40
0.0833333333333333
 40
0.1666666666666667
 40
0.1666666666666667
 40
0.1666666666666667
 40
0.1666666666666667
 40
0.25
 40
0.25
 40
0.25
 40
0.25
 40
0.3333333333333333
 40
0.3333333333333333
 40
0.3333333333333333
 40
0.3333333333333333
 40
0.4166666666666666
 40
0.4166666666666666
 40
0.4166666666666666
 40
0.4166666666666666
 40
0.4999999999999999
 40
0.4999999999999999
 40
0.4999999999999999
 40
0.4999999999999999
 40
0.5833333333333333
 40
0.5833333333333333
 40
0.5833333333333333
 40
0.5833333333333333
 40
0.6666666666666666
 40
0.6666666666666666
 40
0.6666666666666666
 40
0.6666666666666666
 40
0.75
 40
0.75
 40
0.75
 40
0.75
 40
0.8333333333333334
 40
0.8333333333333334
 40
0.8333333333333334
 40
0.8333333333333334
 40
0.9166666666666667
 40
0.9166666666666667
 40
0.9166666666666667
 40
0.9166666666666667
 40
1.0
 40
1.0
 40
1.0
 40
1.0
 10
-1.826015748031496
 20
1.362275590551181
 30
0.0
 10
-1.826015748031496
 20
1.362275590551181
 30
0.0
 10
-1.826015748031496
 20
1.325027559055118
 30
0.0
 10
-1.826015748031496
 20
1.325027559055118
 30
0.0
 10
-1.826015748031496
 20
1.325027559055118
 30
0.0
 10
-1.826015748031496
 20
1.321275590551181
 30
0.0
 10
-1.825850393700788
 20
1.319055118110236
 30
0.0
 10
-1.825547244094488
 20
1.318330708661417
 30
0.0
 10
-1.825547244094488
 20
1.318330708661417
 30
0.0
 10
-1.825102362204724
 20
1.317358267716535
 30
0.0
 10
-1.824240157480315
 20
1.316692913385827
 30
0.0
 10
-1.822933070866142
 20
1.316303149606299
 30
0.0
 10
-1.822933070866142
 20
1.316303149606299
 30
0.0
 10
-1.822015748031496
 20
1.316027559055118
 30
0.0
 10
-1.819405511811024
 20
1.315885826771654
 30
0.0
 10
-1.815129921259843
 20
1.315885826771654
 30
0.0
 10
-1.815129921259843
 20
1.315885826771654
 30
0.0
 10
-1.815129921259843
 20
1.315885826771654
 30
0.0
 10
-1.804047244094488
 20
1.315885826771654
 30
0.0
 10
-1.804047244094488
 20
1.315885826771654
 30
0.0
 10
-1.804047244094488
 20
1.315885826771654
 30
0.0
 10
-1.793102362204724
 20
1.315885826771654
 30
0.0
 10
-1.785267716535433
 20
1.3165
 30
0.0
 10
-1.780574803149606
 20
1.317720472440945
 30
0.0
 10
-1.780574803149606
 20
1.317720472440945
 30
0.0
 10
-1.775877952755906
 20
1.31894094488189
 30
0.0
 10
-1.771877952755906
 20
1.321527559055118
 30
0.0
 10
-1.768574803149607
 20
1.325472440944882
 30
0.0
 10
-1.768574803149607
 20
1.325472440944882
 30
0.0
 10
-1.765267716535433
 20
1.329385826771654
 30
0.0
 10
-1.763602362204725
 20
1.334137795275591
 30
0.0
 10
-1.763602362204725
 20
1.339665354330709
 30
0.0
 10
-1.763602362204725
 20
1.339665354330709
 30
0.0
 10
-1.763602362204725
 20
1.344330708661417
 30
0.0
 10
-1.76496062992126
 20
1.348468503937008
 30
0.0
 10
-1.767629921259843
 20
1.352082677165355
 30
0.0
 10
-1.767629921259843
 20
1.352082677165355
 30
0.0
 10
-1.770322834645669
 20
1.355692913385827
 30
0.0
 10
-1.774047244094488
 20
1.358275590551181
 30
0.0
 10
-1.778795275590551
 20
1.359885826771654
 30
0.0
 10
-1.778795275590551
 20
1.359885826771654
 30
0.0
 10
-1.783547244094488
 20
1.3615
 30
0.0
 10
-1.79196062992126
 20
1.362275590551181
 30
0.0
 10
-1.804047244094488
 20
1.362275590551181
 30
0.0
 10
-1.804047244094488
 20
1.362275590551181
 30
0.0
 10
-1.804047244094488
 20
1.362275590551181
 30
0.0
 10
-1.826015748031496
 20
1.362275590551181
 30
0.0
 10
-1.826015748031496
 20
1.362275590551181
 30
0.0
  0
SPLINE
  5
32
330
1F
100
AcDbEntity
  8
LAYER_1
 62
   250
100
AcDbSpline
210
0.0
220
0.0
230
1.0
 70
    11
 71
     3
 72
   112
 73
   108
 74
     0
 42
0.0000000001
 43
0.0000000001
 40
0.0
 40
0.0
 40
0.0
 40
0.0
 40
0.037037037037037
 40
0.037037037037037
 40
0.037037037037037
 40
0.037037037037037
 40
0.0740740740740741
 40
0.0740740740740741
 40
0.0740740740740741
 40
0.0740740740740741
 40
0.1111111111111111
 40
0.1111111111111111
 40
0.1111111111111111
 40
0.1111111111111111
 40
0.1481481481481481
 40
0.1481481481481481
 40
0.1481481481481481
 40
0.1481481481481481
 40
0.1851851851851852
 40
0.1851851851851852
 40
0.1851851851851852
 40
0.1851851851851852
 40
0.2222222222222222
 40
0.2222222222222222
 40
0.2222222222222222
 40
0.2222222222222222
 40
0.2592592592592592
 40
0.2592592592592592
 40
0.2592592592592592
 40
0.2592592592592592
 40
0.2962962962962963
 40
0.2962962962962963
 40
0.2962962962962963
 40
0.2962962962962963
 40
0.3333333333333333
 40
0.3333333333333333
 40
0.3333333333333333
 40
0.3333333333333333
 40
0.3703703703703704
 40
0.3703703703703704
 40
0.3703703703703704
 40
0.3703703703703704
 40
0.4074074074074074
 40
0.4074074074074074
 40
0.4074074074074074
 40
0.4074074074074074
 40
0.4444444444444444
 40
0.4444444444444444
 40
0.4444444444444444
 40
0.4444444444444444
 40
0.4814814814814815
 40
0.4814814814814815
 40
0.4814814814814815
 40
0.4814814814814815
 40
0.5185185185185185
 40
0.5185185185185185
 40
0.5185185185185185
 40
0.5185185185185185
 40
0.5555555555555556
 40
0.5555555555555556
 40
0.5555555555555556
 40
0.5555555555555556
 40
0.5925925925925926
 40
0.5925925925925926
 40
0.5925925925925926
 40
0.5925925925925926
 40
0.6296296296296295
 40
0.6296296296296295
 40
0.6296296296296295
 40
0.6296296296296295
 40
0.6666666666666665
 40
0.6666666666666665
 40
0.6666666666666665
 40
0.6666666666666665
 40
0.7037037037037035
 40
0.7037037037037035
 40
0.7037037037037035
 40
0.7037037037037035
 40
0.7407407407407405
 40
0.7407407407407405
 40
0.7407407407407405
 40
0.7407407407407405
 40
0.7777777777777775
 40
0.7777777777777775
 40
0.7777777777777775
 40
0.7777777777777775
 40
0.8148148148148144
 40
0.8148148148148144
 40
0.8148148148148144
 40
0.8148148148148144
 40
0.8518518518518514
 40
0.8518518518518514
 40
0.8518518518518514
 40
0.8518518518518514
 40
0.8888888888888884
 40
0.8888888888888884
 40
0.8888888888888884
 40
0.8888888888888884
 40
0.9259259259259254
 40
0.9259259259259254
 40
0.9259259259259254
 40
0.9259259259259254
 40
0.9629629629629624
 40
0.9629629629629624
 40
0.9629629629629624
 40
0.9629629629629624
 40
1.0
 40
1.0
 40
1.0
 40
1.0
 10
-1.688909448818898
 20
1.420720472440945
 30
0.0
 10
-1.688909448818898
 20
1.420720472440945
 30
0.0
 10
-1.675492125984252
 20
1.420720472440945
 30
0.0
 10
-1.675492125984252
 20
1.420720472440945
 30
0.0
 10
-1.675492125984252
 20
1.420720472440945
 30
0.0
 10
-1.675492125984252
 20
1.420720472440945
 30
0.0
 10
-1.640244094488189
 20
1.325830708661417
 30
0.0
 10
-1.640244094488189
 20
1.325830708661417
 30
0.0
 10
-1.640244094488189
 20
1.325830708661417
 30
0.0
 10
-1.63851968503937
 20
1.321055118110236
 30
0.0
 10
-1.636771653543307
 20
1.317885826771654
 30
0.0
 10
-1.634992125984252
 20
1.316358267716536
 30
0.0
 10
-1.634992125984252
 20
1.316358267716536
 30
0.0
 10
-1.633244094488189
 20
1.314803149606299
 30
0.0
 10
-1.630854330708661
 20
1.314027559055118
 30
0.0
 10
-1.62788188976378
 20
1.314027559055118
 30
0.0
 10
-1.62788188976378
 20
1.314027559055118
 30
0.0
 10
-1.62788188976378
 20
1.314027559055118
 30
0.0
 10
-1.626102362204724
 20
1.314027559055118
 30
0.0
 10
-1.626102362204724
 20
1.314027559055118
 30
0.0
 10
-1.626102362204724
 20
1.314027559055118
 30
0.0
 10
-1.626102362204724
 20
1.314027559055118
 30
0.0
 10
-1.626102362204724
 20
1.307192913385827
 30
0.0
 10
-1.626102362204724
 20
1.307192913385827
 30
0.0
 10
-1.626102362204724
 20
1.307192913385827
 30
0.0
 10
-1.626102362204724
 20
1.307192913385827
 30
0.0
 10
-1.666547244094488
 20
1.307192913385827
 30
0.0
 10
-1.666547244094488
 20
1.307192913385827
 30
0.0
 10
-1.666547244094488
 20
1.307192913385827
 30
0.0
 10
-1.666547244094488
 20
1.307192913385827
 30
0.0
 10
-1.666547244094488
 20
1.314027559055118
 30
0.0
 10
-1.666547244094488
 20
1.314027559055118
 30
0.0
 10
-1.666547244094488
 20
1.314027559055118
 30
0.0
 10
-1.665244094488189
 20
1.314137795275591
 30
0.0
 10
-1.663964566929134
 20
1.314192913385827
 30
0.0
 10
-1.662712598425197
 20
1.314192913385827
 30
0.0
 10
-1.662712598425197
 20
1.314192913385827
 30
0.0
 10
-1.660102362204724
 20
1.314192913385827
 30
0.0
 10
-1.658409448818898
 20
1.314472440944882
 30
0.0
 10
-1.657574803149606
 20
1.315
 30
0.0
 10
-1.657574803149606
 20
1.315
 30
0.0
 10
-1.65601968503937
 20
1.316027559055118
 30
0.0
 10
-1.655216535433071
 20
1.317330708661417
 30
0.0
 10
-1.655216535433071
 20
1.318913385826772
 30
0.0
 10
-1.655216535433071
 20
1.318913385826772
 30
0.0
 10
-1.655216535433071
 20
1.320055118110236
 30
0.0
 10
-1.655992125984252
 20
1.322830708661417
 30
0.0
 10
-1.657492125984252
 20
1.327303149606299
 30
0.0
 10
-1.657492125984252
 20
1.327303149606299
 30
0.0
 10
-1.657492125984252
 20
1.327303149606299
 30
0.0
 10
-1.664992125984252
 20
1.349275590551181
 30
0.0
 10
-1.664992125984252
 20
1.349275590551181
 30
0.0
 10
-1.664992125984252
 20
1.349275590551181
 30
0.0
 10
-1.664992125984252
 20
1.349275590551181
 30
0.0
 10
-1.706157480314961
 20
1.349275590551181
 30
0.0
 10
-1.706157480314961
 20
1.349275590551181
 30
0.0
 10
-1.706157480314961
 20
1.349275590551181
 30
0.0
 10
-1.706157480314961
 20
1.349275590551181
 30
0.0
 10
-1.714964566929134
 20
1.324692913385827
 30
0.0
 10
-1.714964566929134
 20
1.324692913385827
 30
0.0
 10
-1.714964566929134
 20
1.324692913385827
 30
0.0
 10
-1.71588188976378
 20
1.322137795275591
 30
0.0
 10
-1.716354330708662
 20
1.320385826771654
 30
0.0
 10
-1.716354330708662
 20
1.319385826771654
 30
0.0
 10
-1.716354330708662
 20
1.319385826771654
 30
0.0
 10
-1.716354330708662
 20
1.318303149606299
 30
0.0
 10
-1.716047244094488
 20
1.317358267716535
 30
0.0
 10
-1.715492125984252
 20
1.316555118110236
 30
0.0
 10
-1.715492125984252
 20
1.316555118110236
 30
0.0
 10
-1.714909448818898
 20
1.315748031496063
 30
0.0
 10
-1.714157480314961
 20
1.315137795275591
 30
0.0
 10
-1.713157480314961
 20
1.314720472440945
 30
0.0
 10
-1.713157480314961
 20
1.314720472440945
 30
0.0
 10
-1.712185039370079
 20
1.314303149606299
 30
0.0
 10
-1.710629921259843
 20
1.314110236220472
 30
0.0
 10
-1.708437007874016
 20
1.314110236220472
 30
0.0
 10
-1.708437007874016
 20
1.314110236220472
 30
0.0
 10
-1.706992125984252
 20
1.314110236220472
 30
0.0
 10
-1.705799212598425
 20
1.314082677165354
 30
0.0
 10
-1.70488188976378
 20
1.314027559055118
 30
0.0
 10
-1.70488188976378
 20
1.314027559055118
 30
0.0
 10
-1.70488188976378
 20
1.314027559055118
 30
0.0
 10
-1.70488188976378
 20
1.307192913385827
 30
0.0
 10
-1.70488188976378
 20
1.307192913385827
 30
0.0
 10
-1.70488188976378
 20
1.307192913385827
 30
0.0
 10
-1.70488188976378
 20
1.307192913385827
 30
0.0
 10
-1.738799212598425
 20
1.307192913385827
 30
0.0
 10
-1.738799212598425
 20
1.307192913385827
 30
0.0
 10
-1.738799212598425
 20
1.307192913385827
 30
0.0
 10
-1.738799212598425
 20
1.307192913385827
 30
0.0
 10
-1.738799212598425
 20
1.314027559055118
 30
0.0
 10
-1.738799212598425
 20
1.314027559055118
 30
0.0
 10
-1.738799212598425
 20
1.314027559055118
 30
0.0
 10
-1.735657480314961
 20
1.314027559055118
 30
0.0
 10
-1.73338188976378
 20
1.314330708661417
 30
0.0
 10
-1.73201968503937
 20
1.314972440944882
 30
0.0
 10
-1.73201968503937
 20
1.314972440944882
 30
0.0
 10
-1.730629921259843
 20
1.315582677165355
 30
0.0
 10
-1.729409448818898
 20
1.316582677165354
 30
0.0
 10
-1.72838188976378
 20
1.317972440944882
 30
0.0
 10
-1.72838188976378
 20
1.317972440944882
 30
0.0
 10
-1.727354330708661
 20
1.319358267716535
 30
0.0
 10
-1.725992125984252
 20
1.322275590551181
 30
0.0
 10
-1.724326771653543
 20
1.326720472440945
 30
0.0
 10
-1.724326771653543
 20
1.326720472440945
 30
0.0
 10
-1.724326771653543
 20
1.326720472440945
 30
0.0
 10
-1.688909448818898
 20
1.420720472440945
 30
0.0
 10
-1.688909448818898
 20
1.420720472440945
 30
0.0
  0
SPLINE
  5
33
330
1F
100
AcDbEntity
  8
LAYER_1
 62
   250
100
AcDbSpline
210
0.0
220
0.0
230
1.0
 70
    11
 71
     3
 72
    16
 73
    12
 74
     0
 42
0.0000000001
 43
0.0000000001
 40
0.0
 40
0.0
 40
0.0
 40
0.0
 40
0.3333333333333333
 40
0.3333333333333333
 40
0.3333333333333333
 40
0.3333333333333333
 40
0.6666666666666666
 40
0.6666666666666666
 40
0.6666666666666666
 40
0.6666666666666666
 40
1.0
 40
1.0
 40
1.0
 40
1.0
 10
-1.703157480314961
 20
1.357248031496063
 30
0.0
 10
-1.703157480314961
 20
1.357248031496063
 30
0.0
 10
-1.668074803149606
 20
1.357248031496063
 30
0.0
 10
-1.668074803149606
 20
1.357248031496063
 30
0.0
 10
-1.668074803149606
 20
1.357248031496063
 30
0.0
 10
-1.668074803149606
 20
1.357248031496063
 30
0.0
 10
-1.685657480314961
 20
1.406082677165354
 30
0.0
 10
-1.685657480314961
 20
1.406082677165354
 30
0.0
 10
-1.685657480314961
 20
1.406082677165354
 30
0.0
 10
-1.685657480314961
 20
1.406082677165354
 30
0.0
 10
-1.703157480314961
 20
1.357248031496063
 30
0.0
 10
-1.703157480314961
 20
1.357248031496063
 30
0.0
  0
SPLINE
  5
34
330
1F
100
AcDbEntity
  8
LAYER_1
 62
   250
100
AcDbSpline
210
0.0
220
0.0
230
1.0
 70
    11
 71
     3
 72
    72
 73
    68
 74
     0
 42
0.0000000001
 43
0.0000000001
 40
0.0
 40
0.0
 40
0.0
 40
0.0
 40
0.0588235294117647
 40
0.0588235294117647
 40
0.0588235294117647
 40
0.0588235294117647
 40
0.1176470588235294
 40
0.1176470588235294
 40
0.1176470588235294
 40
0.1176470588235294
 40
0.1764705882352941
 40
0.1764705882352941
 40
0.1764705882352941
 40
0.1764705882352941
 40
0.2352941176470588
 40
0.2352941176470588
 40
0.2352941176470588
 40
0.2352941176470588
 40
0.2941176470588235
 40
0.2941176470588235
 40
0.2941176470588235
 40
0.2941176470588235
 40
0.3529411764705883
 40
0.3529411764705883
 40
0.3529411764705883
 40
0.3529411764705883
 40
0.411764705882353
 40
0.411764705882353
 40
0.411764705882353
 40
0.411764705882353
 40
0.4705882352941177
 40
0.4705882352941177
 40
0.4705882352941177
 40
0.4705882352941177
 40
0.5294117647058824
 40
0.5294117647058824
 40
0.5294117647058824
 40
0.5294117647058824
 40
0.5882352941176471
 40
0.5882352941176471
 40
0.5882352941176471
 40
0.5882352941176471
 40
0.6470588235294118
 40
0.6470588235294118
 40
0.6470588235294118
 40
0.6470588235294118
 40
0.7058823529411765
 40
0.7058823529411765
 40
0.7058823529411765
 40
0.7058823529411765
 40
0.7647058823529412
 40
0.7647058823529412
 40
0.7647058823529412
 40
0.7647058823529412
 40
0.823529411764706
 40
0.823529411764706
 40
0.823529411764706
 40
0.823529411764706
 40
0.8823529411764707
 40
0.8823529411764707
 40
0.8823529411764707
 40
0.8823529411764707
 40
0.9411764705882354
 40
0.9411764705882354
 40
0.9411764705882354
 40
0.9411764705882354
 40
1.0
 40
1.0
 40
1.0
 40
1.0
 10
-1.463074803149606
 20
1.420720472440945
 30
0.0
 10
-1.463074803149606
 20
1.420720472440945
 30
0.0
 10
-1.456992125984252
 20
1.420720472440945
 30
0.0
 10
-1.456992125984252
 20
1.420720472440945
 30
0.0
 10
-1.456992125984252
 20
1.420720472440945
 30
0.0
 10
-1.456992125984252
 20
1.420720472440945
 30
0.0
 10
-1.456992125984252
 20
1.326472440944882
 30
0.0
 10
-1.456992125984252
 20
1.326472440944882
 30
0.0
 10
-1.456992125984252
 20
1.326472440944882
 30
0.0
 10
-1.456992125984252
 20
1.322027559055118
 30
0.0
 10
-1.456685039370079
 20
1.319165354330709
 30
0.0
 10
-1.456129921259843
 20
1.317885826771654
 30
0.0
 10
-1.456129921259843
 20
1.317885826771654
 30
0.0
 10
-1.455547244094488
 20
1.316610236220473
 30
0.0
 10
-1.454629921259843
 20
1.315665354330709
 30
0.0
 10
-1.453326771653543
 20
1.315
 30
0.0
 10
-1.453326771653543
 20
1.315
 30
0.0
 10
-1.45201968503937
 20
1.314358267716536
 30
0.0
 10
-1.449437007874016
 20
1.314027559055118
 30
0.0
 10
-1.445574803149606
 20
1.314027559055118
 30
0.0
 10
-1.445574803149606
 20
1.314027559055118
 30
0.0
 10
-1.445574803149606
 20
1.314027559055118
 30
0.0
 10
-1.437602362204725
 20
1.314027559055118
 30
0.0
 10
-1.437602362204725
 20
1.314027559055118
 30
0.0
 10
-1.437602362204725
 20
1.314027559055118
 30
0.0
 10
-1.437602362204725
 20
1.314027559055118
 30
0.0
 10
-1.437602362204725
 20
1.307192913385827
 30
0.0
 10
-1.437602362204725
 20
1.307192913385827
 30
0.0
 10
-1.437602362204725
 20
1.307192913385827
 30
0.0
 10
-1.437602362204725
 20
1.307192913385827
 30
0.0
 10
-1.491240157480315
 20
1.307192913385827
 30
0.0
 10
-1.491240157480315
 20
1.307192913385827
 30
0.0
 10
-1.491240157480315
 20
1.307192913385827
 30
0.0
 10
-1.491240157480315
 20
1.307192913385827
 30
0.0
 10
-1.491240157480315
 20
1.314027559055118
 30
0.0
 10
-1.491240157480315
 20
1.314027559055118
 30
0.0
 10
-1.491240157480315
 20
1.314027559055118
 30
0.0
 10
-1.491240157480315
 20
1.314027559055118
 30
0.0
 10
-1.48238188976378
 20
1.314027559055118
 30
0.0
 10
-1.48238188976378
 20
1.314027559055118
 30
0.0
 10
-1.48238188976378
 20
1.314027559055118
 30
0.0
 10
-1.47851968503937
 20
1.314027559055118
 30
0.0
 10
-1.475964566929134
 20
1.314358267716536
 30
0.0
 10
-1.474685039370079
 20
1.315055118110236
 30
0.0
 10
-1.474685039370079
 20
1.315055118110236
 30
0.0
 10
-1.473409448818898
 20
1.315720472440945
 30
0.0
 10
-1.472409448818898
 20
1.316803149606299
 30
0.0
 10
-1.471712598425197
 20
1.318303149606299
 30
0.0
 10
-1.471712598425197
 20
1.318303149606299
 30
0.0
 10
-1.47101968503937
 20
1.319803149606299
 30
0.0
 10
-1.470657480314961
 20
1.322527559055118
 30
0.0
 10
-1.470657480314961
 20
1.326472440944882
 30
0.0
 10
-1.470657480314961
 20
1.326472440944882
 30
0.0
 10
-1.470657480314961
 20
1.326472440944882
 30
0.0
 10
-1.470657480314961
 20
1.40394094488189
 30
0.0
 10
-1.470657480314961
 20
1.40394094488189
 30
0.0
 10
-1.470657480314961
 20
1.40394094488189
 30
0.0
 10
-1.470657480314961
 20
1.40394094488189
 30
0.0
 10
-1.491240157480315
 20
1.40394094488189
 30
0.0
 10
-1.491240157480315
 20
1.40394094488189
 30
0.0
 10
-1.491240157480315
 20
1.40394094488189
 30
0.0
 10
-1.491240157480315
 20
1.40394094488189
 30
0.0
 10
-1.491240157480315
 20
1.41094094488189
 30
0.0
 10
-1.491240157480315
 20
1.41094094488189
 30
0.0
 10
-1.491240157480315
 20
1.41094094488189
 30
0.0
 10
-1.48001968503937
 20
1.412523622047244
 30
0.0
 10
-1.470629921259843
 20
1.415775590551181
 30
0.0
 10
-1.463074803149606
 20
1.420720472440945
 30
0.0
  0
SPLINE
  5
35
330
1F
100
AcDbEntity
  8
LAYER_1
 62
   250
100
AcDbSpline
210
0.0
220
0.0
230
1.0
 70
    11
 71
     3
 72
    80
 73
    76
 74
     0
 42
0.0000000001
 43
0.0000000001
 40
0.0
 40
0.0
 40
0.0
 40
0.0
 40
0.0526315789473684
 40
0.0526315789473684
 40
0.0526315789473684
 40
0.0526315789473684
 40
0.1052631578947368
 40
0.1052631578947368
 40
0.1052631578947368
 40
0.1052631578947368
 40
0.1578947368421053
 40
0.1578947368421053
 40
0.1578947368421053
 40
0.1578947368421053
 40
0.2105263157894737
 40
0.2105263157894737
 40
0.2105263157894737
 40
0.2105263157894737
 40
0.2631578947368421
 40
0.2631578947368421
 40
0.2631578947368421
 40
0.2631578947368421
 40
0.3157894736842105
 40
0.3157894736842105
 40
0.3157894736842105
 40
0.3157894736842105
 40
0.3684210526315789
 40
0.3684210526315789
 40
0.3684210526315789
 40
0.3684210526315789
 40
0.4210526315789474
 40
0.4210526315789474
 40
0.4210526315789474
 40
0.4210526315789474
 40
0.4736842105263158
 40
0.4736842105263158
 40
0.4736842105263158
 40
0.4736842105263158
 40
0.5263157894736842
 40
0.5263157894736842
 40
0.5263157894736842
 40
0.5263157894736842
 40
0.5789473684210527
 40
0.5789473684210527
 40
0.5789473684210527
 40
0.5789473684210527
 40
0.631578947368421
 40
0.631578947368421
 40
0.631578947368421
 40
0.631578947368421
 40
0.6842105263157894
 40
0.6842105263157894
 40
0.6842105263157894
 40
0.6842105263157894
 40
0.7368421052631577
 40
0.7368421052631577
 40
0.7368421052631577
 40
0.7368421052631577
 40
0.7894736842105261
 40
0.7894736842105261
 40
0.7894736842105261
 40
0.7894736842105261
 40
0.8421052631578945
 40
0.8421052631578945
 40
0.8421052631578945
 40
0.8421052631578945
 40
0.8947368421052628
 40
0.8947368421052628
 40
0.8947368421052628
 40
0.8947368421052628
 40
0.9473684210526312
 40
0.9473684210526312
 40
0.9473684210526312
 40
0.9473684210526312
 40
1.0
 40
1.0
 40
1.0
 40
1.0
 10
-1.397657480314961
 20
1.424858267716536
 30
0.0
 10
-1.397657480314961
 20
1.424858267716536
 30
0.0
 10
-1.392267716535433
 20
1.424858267716536
 30
0.0
 10
-1.392267716535433
 20
1.424858267716536
 30
0.0
 10
-1.392267716535433
 20
1.424858267716536
 30
0.0
 10
-1.392267716535433
 20
1.424858267716536
 30
0.0
 10
-1.391295275590551
 20
1.420720472440945
 30
0.0
 10
-1.391295275590551
 20
1.420720472440945
 30
0.0
 10
-1.391295275590551
 20
1.420720472440945
 30
0.0
 10
-1.391295275590551
 20
1.420720472440945
 30
0.0
 10
-1.320185039370079
 20
1.420720472440945
 30
0.0
 10
-1.320185039370079
 20
1.420720472440945
 30
0.0
 10
-1.320185039370079
 20
1.420720472440945
 30
0.0
 10
-1.320185039370079
 20
1.420720472440945
 30
0.0
 10
-1.320185039370079
 20
1.413803149606299
 30
0.0
 10
-1.320185039370079
 20
1.413803149606299
 30
0.0
 10
-1.320185039370079
 20
1.413803149606299
 30
0.0
 10
-1.328685039370079
 20
1.403968503937008
 30
0.0
 10
-1.336409448818898
 20
1.392803149606299
 30
0.0
 10
-1.343322834645669
 20
1.380220472440945
 30
0.0
 10
-1.343322834645669
 20
1.380220472440945
 30
0.0
 10
-1.350240157480315
 20
1.367665354330709
 30
0.0
 10
-1.355602362204724
 20
1.354885826771654
 30
0.0
 10
-1.359409448818898
 20
1.341858267716535
 30
0.0
 10
-1.359409448818898
 20
1.341858267716535
 30
0.0
 10
-1.362157480314961
 20
1.332472440944882
 30
0.0
 10
-1.364405511811024
 20
1.320913385826772
 30
0.0
 10
-1.366157480314961
 20
1.307192913385827
 30
0.0
 10
-1.366157480314961
 20
1.307192913385827
 30
0.0
 10
-1.366157480314961
 20
1.307192913385827
 30
0.0
 10
-1.382822834645669
 20
1.307192913385827
 30
0.0
 10
-1.382822834645669
 20
1.307192913385827
 30
0.0
 10
-1.382822834645669
 20
1.307192913385827
 30
0.0
 10
-1.381212598425197
 20
1.319303149606299
 30
0.0
 10
-1.378547244094488
 20
1.330610236220473
 30
0.0
 10
-1.374822834645669
 20
1.341137795275591
 30
0.0
 10
-1.374822834645669
 20
1.341137795275591
 30
0.0
 10
-1.371102362204725
 20
1.351665354330709
 30
0.0
 10
-1.365740157480315
 20
1.362665354330709
 30
0.0
 10
-1.358712598425197
 20
1.374137795275591
 30
0.0
 10
-1.358712598425197
 20
1.374137795275591
 30
0.0
 10
-1.351685039370079
 20
1.385610236220473
 30
0.0
 10
-1.343157480314961
 20
1.397055118110236
 30
0.0
 10
-1.333102362204724
 20
1.408496062992126
 30
0.0
 10
-1.333102362204724
 20
1.408496062992126
 30
0.0
 10
-1.333102362204724
 20
1.408496062992126
 30
0.0
 10
-1.383822834645669
 20
1.408496062992126
 30
0.0
 10
-1.383822834645669
 20
1.408496062992126
 30
0.0
 10
-1.383822834645669
 20
1.408496062992126
 30
0.0
 10
-1.387492125984252
 20
1.408496062992126
 30
0.0
 10
-1.39001968503937
 20
1.408330708661417
 30
0.0
 10
-1.391377952755906
 20
1.40794094488189
 30
0.0
 10
-1.391377952755906
 20
1.40794094488189
 30
0.0
 10
-1.392740157480315
 20
1.407555118110236
 30
0.0
 10
-1.393795275590551
 20
1.406968503937008
 30
0.0
 10
-1.394547244094488
 20
1.406165354330709
 30
0.0
 10
-1.394547244094488
 20
1.406165354330709
 30
0.0
 10
-1.395322834645669
 20
1.405330708661417
 30
0.0
 10
-1.395964566929134
 20
1.403885826771654
 30
0.0
 10
-1.39651968503937
 20
1.401830708661418
 30
0.0
 10
-1.39651968503937
 20
1.401830708661418
 30
0.0
 10
-1.39651968503937
 20
1.401830708661418
 30
0.0
 10
-1.396905511811024
 20
1.400303149606299
 30
0.0
 10
-1.396905511811024
 20
1.400303149606299
 30
0.0
 10
-1.396905511811024
 20
1.400303149606299
 30
0.0
 10
-1.396905511811024
 20
1.400303149606299
 30
0.0
 10
-1.399685039370079
 20
1.390692913385827
 30
0.0
 10
-1.399685039370079
 20
1.390692913385827
 30
0.0
 10
-1.399685039370079
 20
1.390692913385827
 30
0.0
 10
-1.399685039370079
 20
1.390692913385827
 30
0.0
 10
-1.406602362204725
 20
1.392165354330709
 30
0.0
 10
-1.406602362204725
 20
1.392165354330709
 30
0.0
 10
-1.406602362204725
 20
1.392165354330709
 30
0.0
 10
-1.406602362204725
 20
1.392165354330709
 30
0.0
 10
-1.397657480314961
 20
1.424858267716536
 30
0.0
 10
-1.397657480314961
 20
1.424858267716536
 30
0.0
  0
SPLINE
  5
36
330
1F
100
AcDbEntity
  8
LAYER_1
 62
   250
100
AcDbSpline
210
0.0
220
0.0
230
1.0
 70
    11
 71
     3
 72
    84
 73
    80
 74
     0
 42
0.0000000001
 43
0.0000000001
 40
0.0
 40
0.0
 40
0.0
 40
0.0
 40
0.05
 40
0.05
 40
0.05
 40
0.05
 40
0.1
 40
0.1
 40
0.1
 40
0.1
 40
0.15
 40
0.15
 40
0.15
 40
0.15
 40
0.2
 40
0.2
 40
0.2
 40
0.2
 40
0.25
 40
0.25
 40
0.25
 40
0.25
 40
0.3
 40
0.3
 40
0.3
 40
0.3
 40
0.35
 40
0.35
 40
0.35
 40
0.35
 40
0.4
 40
0.4
 40
0.4
 40
0.4
 40
0.45
 40
0.45
 40
0.45
 40
0.45
 40
0.4999999999999999
 40
0.4999999999999999
 40
0.4999999999999999
 40
0.4999999999999999
 40
0.5499999999999999
 40
0.5499999999999999
 40
0.5499999999999999
 40
0.5499999999999999
 40
0.6
 40
0.6
 40
0.6
 40
0.6
 40
0.65
 40
0.65
 40
0.65
 40
0.65
 40
0.7000000000000001
 40
0.7000000000000001
 40
0.7000000000000001
 40
0.7000000000000001
 40
0.7500000000000001
 40
0.7500000000000001
 40
0.7500000000000001
 40
0.7500000000000001
 40
0.8000000000000002
 40
0.8000000000000002
 40
0.8000000000000002
 40
0.8000000000000002
 40
0.8500000000000002
 40
0.8500000000000002
 40
0.8500000000000002
 40
0.8500000000000002
 40
0.9000000000000002
 40
0.9000000000000002
 40
0.9000000000000002
 40
0.9000000000000002
 40
0.9500000000000003
 40
0.9500000000000003
 40
0.9500000000000003
 40
0.9500000000000003
 40
1.0
 40
1.0
 40
1.0
 40
1.0
 10
-1.228047244094488
 20
1.422830708661417
 30
0.0
 10
-1.228047244094488
 20
1.422830708661417
 30
0.0
 10
-1.228047244094488
 20
1.415413385826772
 30
0.0
 10
-1.228047244094488
 20
1.415413385826772
 30
0.0
 10
-1.228047244094488
 20
1.415413385826772
 30
0.0
 10
-1.241433070866142
 20
1.415275590551181
 30
0.0
 10
-1.252267716535433
 20
1.413303149606299
 30
0.0
 10
-1.260543307086614
 20
1.409582677165354
 30
0.0
 10
-1.260543307086614
 20
1.409582677165354
 30
0.0
 10
-1.268822834645669
 20
1.405830708661418
 30
0.0
 10
-1.274905511811024
 20
1.400220472440945
 30
0.0
 10
-1.278822834645669
 20
1.392775590551181
 30
0.0
 10
-1.278822834645669
 20
1.392775590551181
 30
0.0
 10
-1.282740157480315
 20
1.385303149606299
 30
0.0
 10
-1.284933070866142
 20
1.376110236220473
 30
0.0
 10
-1.285405511811024
 20
1.365220472440945
 30
0.0
 10
-1.285405511811024
 20
1.365220472440945
 30
0.0
 10
-1.282657480314961
 20
1.36944094488189
 30
0.0
 10
-1.279822834645669
 20
1.372748031496063
 30
0.0
 10
-1.276905511811024
 20
1.375110236220473
 30
0.0
 10
-1.276905511811024
 20
1.375110236220473
 30
0.0
 10
-1.274015748031496
 20
1.377468503937008
 30
0.0
 10
-1.270629921259843
 20
1.379275590551181
 30
0.0
 10
-1.266740157480315
 20
1.380555118110236
 30
0.0
 10
-1.266740157480315
 20
1.380555118110236
 30
0.0
 10
-1.262850393700788
 20
1.381830708661417
 30
0.0
 10
-1.258602362204724
 20
1.382468503937008
 30
0.0
 10
-1.253988188976378
 20
1.382468503937008
 30
0.0
 10
-1.253988188976378
 20
1.382468503937008
 30
0.0
 10
-1.246629921259843
 20
1.382468503937008
 30
0.0
 10
-1.240047244094488
 20
1.380830708661417
 30
0.0
 10
-1.234295275590551
 20
1.377582677165354
 30
0.0
 10
-1.234295275590551
 20
1.377582677165354
 30
0.0
 10
-1.228547244094488
 20
1.374330708661417
 30
0.0
 10
-1.224074803149606
 20
1.369913385826772
 30
0.0
 10
-1.220877952755906
 20
1.364358267716536
 30
0.0
 10
-1.220877952755906
 20
1.364358267716536
 30
0.0
 10
-1.217685039370079
 20
1.358803149606299
 30
0.0
 10
-1.216074803149606
 20
1.352248031496063
 30
0.0
 10
-1.216074803149606
 20
1.344720472440945
 30
0.0
 10
-1.216074803149606
 20
1.344720472440945
 30
0.0
 10
-1.216074803149606
 20
1.332720472440945
 30
0.0
 10
-1.219685039370079
 20
1.323303149606299
 30
0.0
 10
-1.226905511811024
 20
1.316472440944882
 30
0.0
 10
-1.226905511811024
 20
1.316472440944882
 30
0.0
 10
-1.234877952755906
 20
1.308972440944882
 30
0.0
 10
-1.245212598425197
 20
1.305248031496063
 30
0.0
 10
-1.257905511811024
 20
1.305248031496063
 30
0.0
 10
-1.257905511811024
 20
1.305248031496063
 30
0.0
 10
-1.267074803149606
 20
1.305248031496063
 30
0.0
 10
-1.274795275590551
 20
1.307137795275591
 30
0.0
 10
-1.281102362204724
 20
1.31094094488189
 30
0.0
 10
-1.281102362204724
 20
1.31094094488189
 30
0.0
 10
-1.287405511811024
 20
1.314720472440945
 30
0.0
 10
-1.292405511811024
 20
1.320527559055118
 30
0.0
 10
-1.296129921259843
 20
1.328358267716536
 30
0.0
 10
-1.296129921259843
 20
1.328358267716536
 30
0.0
 10
-1.299822834645669
 20
1.336165354330709
 30
0.0
 10
-1.301685039370079
 20
1.345830708661417
 30
0.0
 10
-1.301685039370079
 20
1.357330708661418
 30
0.0
 10
-1.301685039370079
 20
1.357330708661418
 30
0.0
 10
-1.301685039370079
 20
1.368885826771654
 30
0.0
 10
-1.299712598425197
 20
1.379137795275591
 30
0.0
 10
-1.295795275590551
 20
1.388082677165354
 30
0.0
 10
-1.295795275590551
 20
1.388082677165354
 30
0.0
 10
-1.291850393700788
 20
1.397023622047244
 30
0.0
 10
-1.286405511811024
 20
1.404220472440945
 30
0.0
 10
-1.27946062992126
 20
1.409637795275591
 30
0.0
 10
-1.27946062992126
 20
1.409637795275591
 30
0.0
 10
-1.272515748031496
 20
1.415082677165354
 30
0.0
 10
-1.264905511811024
 20
1.418637795275591
 30
0.0
 10
-1.256657480314961
 20
1.420303149606299
 30
0.0
 10
-1.256657480314961
 20
1.420303149606299
 30
0.0
 10
-1.248377952755906
 20
1.421996062992126
 30
0.0
 10
-1.24096062992126
 20
1.422830708661417
 30
0.0
 10
-1.234377952755906
 20
1.422830708661417
 30
0.0
 10
-1.234377952755906
 20
1.422830708661417
 30
0.0
 10
-1.234377952755906
 20
1.422830708661417
 30
0.0
 10
-1.228047244094488
 20
1.422830708661417
 30
0.0
 10
-1.228047244094488
 20
1.422830708661417
 30
0.0
  0
SPLINE
  5
37
330
1F
100
AcDbEntity
  8
LAYER_1
 62
   250
100
AcDbSpline
210
0.0
220
0.0
230
1.0
 70
    11
 71
     3
 72
    40
 73
    36
 74
     0
 42
0.0000000001
 43
0.0000000001
 40
0.0
 40
0.0
 40
0.0
 40
0.0
 40
0.1111111111111111
 40
0.1111111111111111
 40
0.1111111111111111
 40
0.1111111111111111
 40
0.2222222222222222
 40
0.2222222222222222
 40
0.2222222222222222
 40
0.2222222222222222
 40
0.3333333333333333
 40
0.3333333333333333
 40
0.3333333333333333
 40
0.3333333333333333
 40
0.4444444444444444
 40
0.4444444444444444
 40
0.4444444444444444
 40
0.4444444444444444
 40
0.5555555555555556
 40
0.5555555555555556
 40
0.5555555555555556
 40
0.5555555555555556
 40
0.6666666666666667
 40
0.6666666666666667
 40
0.6666666666666667
 40
0.6666666666666667
 40
0.7777777777777779
 40
0.7777777777777779
 40
0.7777777777777779
 40
0.7777777777777779
 40
0.8888888888888891
 40
0.8888888888888891
 40
0.8888888888888891
 40
0.8888888888888891
 40
1.0
 40
1.0
 40
1.0
 40
1.0
 10
-1.257740157480315
 20
1.373830708661417
 30
0.0
 10
-1.265543307086614
 20
1.373830708661417
 30
0.0
 10
-1.27196062992126
 20
1.370885826771654
 30
0.0
 10
-1.276988188976378
 20
1.364968503937008
 30
0.0
 10
-1.276988188976378
 20
1.364968503937008
 30
0.0
 10
-1.282015748031496
 20
1.359055118110236
 30
0.0
 10
-1.284515748031496
 20
1.35194094488189
 30
0.0
 10
-1.284515748031496
 20
1.343665354330709
 30
0.0
 10
-1.284515748031496
 20
1.343665354330709
 30
0.0
 10
-1.284515748031496
 20
1.337803149606299
 30
0.0
 10
-1.283295275590551
 20
1.332385826771654
 30
0.0
 10
-1.280850393700787
 20
1.327413385826772
 30
0.0
 10
-1.280850393700787
 20
1.327413385826772
 30
0.0
 10
-1.278405511811024
 20
1.32244094488189
 30
0.0
 10
-1.275267716535433
 20
1.318775590551181
 30
0.0
 10
-1.271405511811024
 20
1.316358267716536
 30
0.0
 10
-1.271405511811024
 20
1.316358267716536
 30
0.0
 10
-1.267574803149606
 20
1.31394094488189
 30
0.0
 10
-1.263212598425197
 20
1.312720472440945
 30
0.0
 10
-1.258405511811024
 20
1.312720472440945
 30
0.0
 10
-1.258405511811024
 20
1.312720472440945
 30
0.0
 10
-1.250905511811024
 20
1.312720472440945
 30
0.0
 10
-1.244685039370079
 20
1.315555118110236
 30
0.0
 10
-1.239712598425197
 20
1.321220472440945
 30
0.0
 10
-1.239712598425197
 20
1.321220472440945
 30
0.0
 10
-1.234767716535433
 20
1.326885826771654
 30
0.0
 10
-1.232267716535433
 20
1.3345
 30
0.0
 10
-1.232267716535433
 20
1.344055118110236
 30
0.0
 10
-1.232267716535433
 20
1.344055118110236
 30
0.0
 10
-1.232267716535433
 20
1.353165354330709
 30
0.0
 10
-1.234685039370079
 20
1.360413385826772
 30
0.0
 10
-1.239515748031496
 20
1.365775590551181
 30
0.0
 10
-1.239515748031496
 20
1.365775590551181
 30
0.0
 10
-1.244350393700787
 20
1.371165354330709
 30
0.0
 10
-1.250433070866142
 20
1.373830708661417
 30
0.0
 10
-1.257740157480315
 20
1.373830708661417
 30
0.0
  0
SPLINE
  5
38
330
1F
100
AcDbEntity
  8
LAYER_1
 62
   250
100
AcDbSpline
210
0.0
220
0.0
230
1.0
 70
    11
 71
     3
 72
    48
 73
    44
 74
     0
 42
0.0000000001
 43
0.0000000001
 40
0.0
 40
0.0
 40
0.0
 40
0.0
 40
0.0909090909090909
 40
0.0909090909090909
 40
0.0909090909090909
 40
0.0909090909090909
 40
0.1818181818181818
 40
0.1818181818181818
 40
0.1818181818181818
 40
0.1818181818181818
 40
0.2727272727272727
 40
0.2727272727272727
 40
0.2727272727272727
 40
0.2727272727272727
 40
0.3636363636363637
 40
0.3636363636363637
 40
0.3636363636363637
 40
0.3636363636363637
 40
0.4545454545454546
 40
0.4545454545454546
 40
0.4545454545454546
 40
0.4545454545454546
 40
0.5454545454545455
 40
0.5454545454545455
 40
0.5454545454545455
 40
0.5454545454545455
 40
0.6363636363636365
 40
0.6363636363636365
 40
0.6363636363636365
 40
0.6363636363636365
 40
0.7272727272727274
 40
0.7272727272727274
 40
0.7272727272727274
 40
0.7272727272727274
 40
0.8181818181818183
 40
0.8181818181818183
 40
0.8181818181818183
 40
0.8181818181818183
 40
0.9090909090909093
 40
0.9090909090909093
 40
0.9090909090909093
 40
0.9090909090909093
 40
1.0
 40
1.0
 40
1.0
 40
1.0
 10
-1.14859842519685
 20
1.420720472440945
 30
0.0
 10
-1.14859842519685
 20
1.420720472440945
 30
0.0
 10
-1.134850393700787
 20
1.420720472440945
 30
0.0
 10
-1.134850393700787
 20
1.420720472440945
 30
0.0
 10
-1.134850393700787
 20
1.420720472440945
 30
0.0
 10
-1.134850393700787
 20
1.420720472440945
 30
0.0
 10
-1.134850393700787
 20
1.354720472440945
 30
0.0
 10
-1.134850393700787
 20
1.354720472440945
 30
0.0
 10
-1.134850393700787
 20
1.354720472440945
 30
0.0
 10
-1.134850393700787
 20
1.354720472440945
 30
0.0
 10
-1.113515748031496
 20
1.354720472440945
 30
0.0
 10
-1.113515748031496
 20
1.354720472440945
 30
0.0
 10
-1.113515748031496
 20
1.354720472440945
 30
0.0
 10
-1.113515748031496
 20
1.354720472440945
 30
0.0
 10
-1.113515748031496
 20
1.344555118110236
 30
0.0
 10
-1.113515748031496
 20
1.344555118110236
 30
0.0
 10
-1.113515748031496
 20
1.344555118110236
 30
0.0
 10
-1.113515748031496
 20
1.344555118110236
 30
0.0
 10
-1.134850393700787
 20
1.344555118110236
 30
0.0
 10
-1.134850393700787
 20
1.344555118110236
 30
0.0
 10
-1.134850393700787
 20
1.344555118110236
 30
0.0
 10
-1.134850393700787
 20
1.344555118110236
 30
0.0
 10
-1.134850393700787
 20
1.307192913385827
 30
0.0
 10
-1.134850393700787
 20
1.307192913385827
 30
0.0
 10
-1.134850393700787
 20
1.307192913385827
 30
0.0
 10
-1.134850393700787
 20
1.307192913385827
 30
0.0
 10
-1.14859842519685
 20
1.307192913385827
 30
0.0
 10
-1.14859842519685
 20
1.307192913385827
 30
0.0
 10
-1.14859842519685
 20
1.307192913385827
 30
0.0
 10
-1.14859842519685
 20
1.307192913385827
 30
0.0
 10
-1.14859842519685
 20
1.344555118110236
 30
0.0
 10
-1.14859842519685
 20
1.344555118110236
 30
0.0
 10
-1.14859842519685
 20
1.344555118110236
 30
0.0
 10
-1.14859842519685
 20
1.344555118110236
 30
0.0
 10
-1.202070866141732
 20
1.344555118110236
 30
0.0
 10
-1.202070866141732
 20
1.344555118110236
 30
0.0
 10
-1.202070866141732
 20
1.344555118110236
 30
0.0
 10
-1.202070866141732
 20
1.344555118110236
 30
0.0
 10
-1.202070866141732
 20
1.358858267716536
 30
0.0
 10
-1.202070866141732
 20
1.358858267716536
 30
0.0
 10
-1.202070866141732
 20
1.358858267716536
 30
0.0
 10
-1.202070866141732
 20
1.358858267716536
 30
0.0
 10
-1.14859842519685
 20
1.420720472440945
 30
0.0
 10
-1.14859842519685
 20
1.420720472440945
 30
0.0
  0
SPLINE
  5
39
330
1F
100
AcDbEntity
  8
LAYER_1
 62
   250
100
AcDbSpline
210
0.0
220
0.0
230
1.0
 70
    11
 71
     3
 72
    16
 73
    12
 74
     0
 42
0.0000000001
 43
0.0000000001
 40
0.0
 40
0.0
 40
0.0
 40
0.0
 40
0.3333333333333333
 40
0.3333333333333333
 40
0.3333333333333333
 40
0.3333333333333333
 40
0.6666666666666666
 40
0.6666666666666666
 40
0.6666666666666666
 40
0.6666666666666666
 40
1.0
 40
1.0
 40
1.0
 40
1.0
 10
-1.14859842519685
 20
1.354720472440945
 30
0.0
 10
-1.14859842519685
 20
1.354720472440945
 30
0.0
 10
-1.14859842519685
 20
1.408110236220473
 30
0.0
 10
-1.14859842519685
 20
1.408110236220473
 30
0.0
 10
-1.14859842519685
 20
1.408110236220473
 30
0.0
 10
-1.14859842519685
 20
1.408110236220473
 30
0.0
 10
-1.194653543307087
 20
1.354720472440945
 30
0.0
 10
-1.194653543307087
 20
1.354720472440945
 30
0.0
 10
-1.194653543307087
 20
1.354720472440945
 30
0.0
 10
-1.194653543307087
 20
1.354720472440945
 30
0.0
 10
-1.14859842519685
 20
1.354720472440945
 30
0.0
 10
-1.14859842519685
 20
1.354720472440945
 30
0.0
  0
SPLINE
  5
3A
330
1F
100
AcDbEntity
  8
LAYER_1
 62
   250
100
AcDbSpline
210
0.0
220
0.0
230
1.0
 70
    11
 71
     3
 72
    72
 73
    68
 74
     0
 42
0.0000000001
 43
0.0000000001
 40
0.0
 40
0.0
 40
0.0
 40
0.0
 40
0.0588235294117647
 40
0.0588235294117647
 40
0.0588235294117647
 40
0.0588235294117647
 40
0.1176470588235294
 40
0.1176470588235294
 40
0.1176470588235294
 40
0.1176470588235294
 40
0.1764705882352941
 40
0.1764705882352941
 40
0.1764705882352941
 40
0.1764705882352941
 40
0.2352941176470588
 40
0.2352941176470588
 40
0.2352941176470588
 40
0.2352941176470588
 40
0.2941176470588235
 40
0.2941176470588235
 40
0.2941176470588235
 40
0.2941176470588235
 40
0.3529411764705883
 40
0.3529411764705883
 40
0.3529411764705883
 40
0.3529411764705883
 40
0.411764705882353
 40
0.411764705882353
 40
0.411764705882353
 40
0.411764705882353
 40
0.4705882352941177
 40
0.4705882352941177
 40
0.4705882352941177
 40
0.4705882352941177
 40
0.5294117647058824
 40
0.5294117647058824
 40
0.5294117647058824
 40
0.5294117647058824
 40
0.5882352941176471
 40
0.5882352941176471
 40
0.5882352941176471
 40
0.5882352941176471
 40
0.6470588235294118
 40
0.6470588235294118
 40
0.6470588235294118
 40
0.6470588235294118
 40
0.7058823529411765
 40
0.7058823529411765
 40
0.7058823529411765
 40
0.7058823529411765
 40
0.7647058823529412
 40
0.7647058823529412
 40
0.7647058823529412
 40
0.7647058823529412
 40
0.823529411764706
 40
0.823529411764706
 40
0.823529411764706
 40
0.823529411764706
 40
0.8823529411764707
 40
0.8823529411764707
 40
0.8823529411764707
 40
0.8823529411764707
 40
0.9411764705882354
 40
0.9411764705882354
 40
0.9411764705882354
 40
0.9411764705882354
 40
1.0
 40
1.0
 40
1.0
 40
1.0
 10
-1.884641732283465
 20
1.233220472440945
 30
0.0
 10
-1.884641732283465
 20
1.233220472440945
 30
0.0
 10
-1.87855905511811
 20
1.233220472440945
 30
0.0
 10
-1.87855905511811
 20
1.233220472440945
 30
0.0
 10
-1.87855905511811
 20
1.233220472440945
 30
0.0
 10
-1.87855905511811
 20
1.233220472440945
 30
0.0
 10
-1.87855905511811
 20
1.138972440944882
 30
0.0
 10
-1.87855905511811
 20
1.138972440944882
 30
0.0
 10
-1.87855905511811
 20
1.138972440944882
 30
0.0
 10
-1.87855905511811
 20
1.134527559055118
 30
0.0
 10
-1.878251968503937
 20
1.131665354330709
 30
0.0
 10
-1.877696850393701
 20
1.130385826771654
 30
0.0
 10
-1.877696850393701
 20
1.130385826771654
 30
0.0
 10
-1.877114173228347
 20
1.129110236220473
 30
0.0
 10
-1.876196850393701
 20
1.128165354330709
 30
0.0
 10
-1.874893700787402
 20
1.1275
 30
0.0
 10
-1.874893700787402
 20
1.1275
 30
0.0
 10
-1.873586614173229
 20
1.126858267716536
 30
0.0
 10
-1.871003937007874
 20
1.126527559055118
 30
0.0
 10
-1.867141732283465
 20
1.126527559055118
 30
0.0
 10
-1.867141732283465
 20
1.126527559055118
 30
0.0
 10
-1.867141732283465
 20
1.126527559055118
 30
0.0
 10
-1.859169291338583
 20
1.126527559055118
 30
0.0
 10
-1.859169291338583
 20
1.126527559055118
 30
0.0
 10
-1.859169291338583
 20
1.126527559055118
 30
0.0
 10
-1.859169291338583
 20
1.126527559055118
 30
0.0
 10
-1.859169291338583
 20
1.119692913385827
 30
0.0
 10
-1.859169291338583
 20
1.119692913385827
 30
0.0
 10
-1.859169291338583
 20
1.119692913385827
 30
0.0
 10
-1.859169291338583
 20
1.119692913385827
 30
0.0
 10
-1.912807086614173
 20
1.119692913385827
 30
0.0
 10
-1.912807086614173
 20
1.119692913385827
 30
0.0
 10
-1.912807086614173
 20
1.119692913385827
 30
0.0
 10
-1.912807086614173
 20
1.119692913385827
 30
0.0
 10
-1.912807086614173
 20
1.126527559055118
 30
0.0
 10
-1.912807086614173
 20
1.126527559055118
 30
0.0
 10
-1.912807086614173
 20
1.126527559055118
 30
0.0
 10
-1.912807086614173
 20
1.126527559055118
 30
0.0
 10
-1.903948818897638
 20
1.126527559055118
 30
0.0
 10
-1.903948818897638
 20
1.126527559055118
 30
0.0
 10
-1.903948818897638
 20
1.126527559055118
 30
0.0
 10
-1.900086614173228
 20
1.126527559055118
 30
0.0
 10
-1.897531496062992
 20
1.126858267716536
 30
0.0
 10
-1.896251968503937
 20
1.127555118110236
 30
0.0
 10
-1.896251968503937
 20
1.127555118110236
 30
0.0
 10
-1.894976377952756
 20
1.128220472440945
 30
0.0
 10
-1.893976377952756
 20
1.129303149606299
 30
0.0
 10
-1.893279527559055
 20
1.130803149606299
 30
0.0
 10
-1.893279527559055
 20
1.130803149606299
 30
0.0
 10
-1.892586614173228
 20
1.132303149606299
 30
0.0
 10
-1.892224409448819
 20
1.135027559055118
 30
0.0
 10
-1.892224409448819
 20
1.138972440944882
 30
0.0
 10
-1.892224409448819
 20
1.138972440944882
 30
0.0
 10
-1.892224409448819
 20
1.138972440944882
 30
0.0
 10
-1.892224409448819
 20
1.21644094488189
 30
0.0
 10
-1.892224409448819
 20
1.21644094488189
 30
0.0
 10
-1.892224409448819
 20
1.21644094488189
 30
0.0
 10
-1.892224409448819
 20
1.21644094488189
 30
0.0
 10
-1.912807086614173
 20
1.21644094488189
 30
0.0
 10
-1.912807086614173
 20
1.21644094488189
 30
0.0
 10
-1.912807086614173
 20
1.21644094488189
 30
0.0
 10
-1.912807086614173
 20
1.21644094488189
 30
0.0
 10
-1.912807086614173
 20
1.22344094488189
 30
0.0
 10
-1.912807086614173
 20
1.22344094488189
 30
0.0
 10
-1.912807086614173
 20
1.22344094488189
 30
0.0
 10
-1.901586614173229
 20
1.225023622047244
 30
0.0
 10
-1.892196850393701
 20
1.228275590551181
 30
0.0
 10
-1.884641732283465
 20
1.233220472440945
 30
0.0
  0
SPLINE
  5
3B
330
1F
100
AcDbEntity
  8
LAYER_1
 62
   250
100
AcDbSpline
210
0.0
220
0.0
230
1.0
 70
    11
 71
     3
 72
    20
 73
    16
 74
     0
 42
0.0000000001
 43
0.0000000001
 40
0.0
 40
0.0
 40
0.0
 40
0.0
 40
0.25
 40
0.25
 40
0.25
 40
0.25
 40
0.5
 40
0.5
 40
0.5
 40
0.5
 40
0.75
 40
0.75
 40
0.75
 40
0.75
 40
1.0
 40
1.0
 40
1.0
 40
1.0
 10
-1.828169291338583
 20
1.166165354330709
 30
0.0
 10
-1.828169291338583
 20
1.166165354330709
 30
0.0
 10
-1.779834645669292
 20
1.166165354330709
 30
0.0
 10
-1.779834645669292
 20
1.166165354330709
 30
0.0
 10
-1.779834645669292
 20
1.166165354330709
 30
0.0
 10
-1.779834645669292
 20
1.166165354330709
 30
0.0
 10
-1.779834645669292
 20
1.156082677165354
 30
0.0
 10
-1.779834645669292
 20
1.156082677165354
 30
0.0
 10
-1.779834645669292
 20
1.156082677165354
 30
0.0
 10
-1.779834645669292
 20
1.156082677165354
 30
0.0
 10
-1.828169291338583
 20
1.156082677165354
 30
0.0
 10
-1.828169291338583
 20
1.156082677165354
 30
0.0
 10
-1.828169291338583
 20
1.156082677165354
 30
0.0
 10
-1.828169291338583
 20
1.156082677165354
 30
0.0
 10
-1.828169291338583
 20
1.166165354330709
 30
0.0
 10
-1.828169291338583
 20
1.166165354330709
 30
0.0
  0
SPLINE
  5
3C
330
1F
100
AcDbEntity
  8
LAYER_1
 62
   250
100
AcDbSpline
210
0.0
220
0.0
230
1.0
 70
    11
 71
     3
 72
   172
 73
   168
 74
     0
 42
0.0000000001
 43
0.0000000001
 40
0.0
 40
0.0
 40
0.0
 40
0.0
 40
0.0238095238095238
 40
0.0238095238095238
 40
0.0238095238095238
 40
0.0238095238095238
 40
0.0476190476190476
 40
0.0476190476190476
 40
0.0476190476190476
 40
0.0476190476190476
 40
0.0714285714285714
 40
0.0714285714285714
 40
0.0714285714285714
 40
0.0714285714285714
 40
0.0952380952380952
 40
0.0952380952380952
 40
0.0952380952380952
 40
0.0952380952380952
 40
0.119047619047619
 40
0.119047619047619
 40
0.119047619047619
 40
0.119047619047619
 40
0.1428571428571429
 40
0.1428571428571429
 40
0.1428571428571429
 40
0.1428571428571429
 40
0.1666666666666667
 40
0.1666666666666667
 40
0.1666666666666667
 40
0.1666666666666667
 40
0.1904761904761905
 40
0.1904761904761905
 40
0.1904761904761905
 40
0.1904761904761905
 40
0.2142857142857143
 40
0.2142857142857143
 40
0.2142857142857143
 40
0.2142857142857143
 40
0.2380952380952381
 40
0.2380952380952381
 40
0.2380952380952381
 40
0.2380952380952381
 40
0.2619047619047619
 40
0.2619047619047619
 40
0.2619047619047619
 40
0.2619047619047619
 40
0.2857142857142857
 40
0.2857142857142857
 40
0.2857142857142857
 40
0.2857142857142857
 40
0.3095238095238095
 40
0.3095238095238095
 40
0.3095238095238095
 40
0.3095238095238095
 40
0.3333333333333334
 40
0.3333333333333334
 40
0.3333333333333334
 40
0.3333333333333334
 40
0.3571428571428572
 40
0.3571428571428572
 40
0.3571428571428572
 40
0.3571428571428572
 40
0.380952380952381
 40
0.380952380952381
 40
0.380952380952381
 40
0.380952380952381
 40
0.4047619047619049
 40
0.4047619047619049
 40
0.4047619047619049
 40
0.4047619047619049
 40
0.4285714285714287
 40
0.4285714285714287
 40
0.4285714285714287
 40
0.4285714285714287
 40
0.4523809523809526
 40
0.4523809523809526
 40
0.4523809523809526
 40
0.4523809523809526
 40
0.4761904761904764
 40
0.4761904761904764
 40
0.4761904761904764
 40
0.4761904761904764
 40
0.5000000000000002
 40
0.5000000000000002
 40
0.5000000000000002
 40
0.5000000000000002
 40
0.5238095238095241
 40
0.5238095238095241
 40
0.5238095238095241
 40
0.5238095238095241
 40
0.5476190476190479
 40
0.5476190476190479
 40
0.5476190476190479
 40
0.5476190476190479
 40
0.5714285714285717
 40
0.5714285714285717
 40
0.5714285714285717
 40
0.5714285714285717
 40
0.5952380952380956
 40
0.5952380952380956
 40
0.5952380952380956
 40
0.5952380952380956
 40
0.6190476190476194
 40
0.6190476190476194
 40
0.6190476190476194
 40
0.6190476190476194
 40
0.6428571428571432
 40
0.6428571428571432
 40
0.6428571428571432
 40
0.6428571428571432
 40
0.6666666666666671
 40
0.6666666666666671
 40
0.6666666666666671
 40
0.6666666666666671
 40
0.6904761904761909
 40
0.6904761904761909
 40
0.6904761904761909
 40
0.6904761904761909
 40
0.7142857142857148
 40
0.7142857142857148
 40
0.7142857142857148
 40
0.7142857142857148
 40
0.7380952380952386
 40
0.7380952380952386
 40
0.7380952380952386
 40
0.7380952380952386
 40
0.7619047619047624
 40
0.7619047619047624
 40
0.7619047619047624
 40
0.7619047619047624
 40
0.7857142857142863
 40
0.7857142857142863
 40
0.7857142857142863
 40
0.7857142857142863
 40
0.8095238095238101
 40
0.8095238095238101
 40
0.8095238095238101
 40
0.8095238095238101
 40
0.8333333333333339
 40
0.8333333333333339
 40
0.8333333333333339
 40
0.8333333333333339
 40
0.8571428571428578
 40
0.8571428571428578
 40
0.8571428571428578
 40
0.8571428571428578
 40
0.8809523809523816
 40
0.8809523809523816
 40
0.8809523809523816
 40
0.8809523809523816
 40
0.9047619047619054
 40
0.9047619047619054
 40
0.9047619047619054
 40
0.9047619047619054
 40
0.9285714285714293
 40
0.9285714285714293
 40
0.9285714285714293
 40
0.9285714285714293
 40
0.9523809523809531
 40
0.9523809523809531
 40
0.9523809523809531
 40
0.9523809523809531
 40
0.9761904761904769
 40
0.9761904761904769
 40
0.9761904761904769
 40
0.9761904761904769
 40
1.0
 40
1.0
 40
1.0
 40
1.0
 10
-1.748586614173229
 20
1.202858267716535
 30
0.0
 10
-1.748586614173229
 20
1.202858267716535
 30
0.0
 10
-1.756393700787402
 20
1.204082677165354
 30
0.0
 10
-1.756393700787402
 20
1.204082677165354
 30
0.0
 10
-1.756393700787402
 20
1.204082677165354
 30
0.0
 10
-1.755696850393701
 20
1.20994094488189
 30
0.0
 10
-1.754169291338583
 20
1.214803149606299
 30
0.0
 10
-1.751834645669292
 20
1.218665354330709
 30
0.0
 10
-1.751834645669292
 20
1.218665354330709
 30
0.0
 10
-1.748751968503937
 20
1.223858267716536
 30
0.0
 10
-1.744393700787402
 20
1.227913385826772
 30
0.0
 10
-1.738751968503937
 20
1.230803149606299
 30
0.0
 10
-1.738751968503937
 20
1.230803149606299
 30
0.0
 10
-1.733086614173228
 20
1.233720472440945
 30
0.0
 10
-1.726614173228346
 20
1.235165354330709
 30
0.0
 10
-1.719279527559055
 20
1.235165354330709
 30
0.0
 10
-1.719279527559055
 20
1.235165354330709
 30
0.0
 10
-1.712086614173229
 20
1.235165354330709
 30
0.0
 10
-1.705724409448819
 20
1.233885826771654
 30
0.0
 10
-1.700251968503937
 20
1.231303149606299
 30
0.0
 10
-1.700251968503937
 20
1.231303149606299
 30
0.0
 10
-1.694779527559055
 20
1.228720472440945
 30
0.0
 10
-1.690641732283465
 20
1.225303149606299
 30
0.0
 10
-1.687838582677165
 20
1.221055118110236
 30
0.0
 10
-1.687838582677165
 20
1.221055118110236
 30
0.0
 10
-1.685031496062992
 20
1.216803149606299
 30
0.0
 10
-1.683641732283465
 20
1.212192913385827
 30
0.0
 10
-1.683641732283465
 20
1.207248031496063
 30
0.0
 10
-1.683641732283465
 20
1.207248031496063
 30
0.0
 10
-1.683641732283465
 20
1.202913385826772
 30
0.0
 10
-1.684696850393701
 20
1.199027559055118
 30
0.0
 10
-1.686811023622047
 20
1.195610236220473
 30
0.0
 10
-1.686811023622047
 20
1.195610236220473
 30
0.0
 10
-1.688948818897638
 20
1.192192913385827
 30
0.0
 10
-1.692086614173229
 20
1.189137795275591
 30
0.0
 10
-1.696251968503937
 20
1.186413385826772
 30
0.0
 10
-1.696251968503937
 20
1.186413385826772
 30
0.0
 10
-1.699196850393701
 20
1.184527559055118
 30
0.0
 10
-1.703003937007874
 20
1.182858267716536
 30
0.0
 10
-1.707724409448819
 20
1.181468503937008
 30
0.0
 10
-1.707724409448819
 20
1.181468503937008
 30
0.0
 10
-1.702696850393701
 20
1.180748031496063
 30
0.0
 10
-1.69855905511811
 20
1.179582677165354
 30
0.0
 10
-1.695366141732284
 20
1.177968503937008
 30
0.0
 10
-1.695366141732284
 20
1.177968503937008
 30
0.0
 10
-1.690169291338583
 20
1.175303149606299
 30
0.0
 10
-1.68605905511811
 20
1.171637795275591
 30
0.0
 10
-1.683086614173228
 20
1.166968503937008
 30
0.0
 10
-1.683086614173228
 20
1.166968503937008
 30
0.0
 10
-1.680086614173229
 20
1.162303149606299
 30
0.0
 10
-1.678614173228347
 20
1.157192913385827
 30
0.0
 10
-1.678614173228347
 20
1.151582677165354
 30
0.0
 10
-1.678614173228347
 20
1.151582677165354
 30
0.0
 10
-1.678614173228347
 20
1.142637795275591
 30
0.0
 10
-1.682531496062992
 20
1.134748031496063
 30
0.0
 10
-1.690393700787402
 20
1.12794094488189
 30
0.0
 10
-1.690393700787402
 20
1.12794094488189
 30
0.0
 10
-1.698279527559055
 20
1.121137795275591
 30
0.0
 10
-1.708448818897638
 20
1.117748031496063
 30
0.0
 10
-1.72092125984252
 20
1.117748031496063
 30
0.0
 10
-1.72092125984252
 20
1.117748031496063
 30
0.0
 10
-1.733224409448819
 20
1.117748031496063
 30
0.0
 10
-1.743586614173228
 20
1.121027559055118
 30
0.0
 10
-1.752003937007874
 20
1.127582677165354
 30
0.0
 10
-1.752003937007874
 20
1.127582677165354
 30
0.0
 10
-1.75905905511811
 20
1.133165354330709
 30
0.0
 10
-1.762586614173229
 20
1.138803149606299
 30
0.0
 10
-1.762586614173229
 20
1.14444094488189
 30
0.0
 10
-1.762586614173229
 20
1.14444094488189
 30
0.0
 10
-1.762586614173229
 20
1.146665354330709
 30
0.0
 10
-1.76186220472441
 20
1.148527559055118
 30
0.0
 10
-1.76042125984252
 20
1.15
 30
0.0
 10
-1.76042125984252
 20
1.15
 30
0.0
 10
-1.759003937007874
 20
1.1515
 30
0.0
 10
-1.757196850393701
 20
1.152248031496063
 30
0.0
 10
-1.755003937007874
 20
1.152248031496063
 30
0.0
 10
-1.755003937007874
 20
1.152248031496063
 30
0.0
 10
-1.752641732283465
 20
1.152248031496063
 30
0.0
 10
-1.750586614173229
 20
1.151330708661417
 30
0.0
 10
-1.74892125984252
 20
1.149468503937008
 30
0.0
 10
-1.74892125984252
 20
1.149468503937008
 30
0.0
 10
-1.748003937007874
 20
1.14844094488189
 30
0.0
 10
-1.74692125984252
 20
1.145972440944882
 30
0.0
 10
-1.745751968503937
 20
1.142082677165354
 30
0.0
 10
-1.745751968503937
 20
1.142082677165354
 30
0.0
 10
-1.74405905511811
 20
1.136582677165354
 30
0.0
 10
-1.741196850393701
 20
1.132413385826772
 30
0.0
 10
-1.737196850393701
 20
1.129555118110236
 30
0.0
 10
-1.737196850393701
 20
1.129555118110236
 30
0.0
 10
-1.733169291338583
 20
1.126665354330709
 30
0.0
 10
-1.728196850393701
 20
1.125220472440945
 30
0.0
 10
-1.722224409448819
 20
1.125220472440945
 30
0.0
 10
-1.722224409448819
 20
1.125220472440945
 30
0.0
 10
-1.716893700787402
 20
1.125220472440945
 30
0.0
 10
-1.712141732283465
 20
1.126385826771654
 30
0.0
 10
-1.707948818897638
 20
1.128720472440945
 30
0.0
 10
-1.707948818897638
 20
1.128720472440945
 30
0.0
 10
-1.703724409448819
 20
1.131055118110236
 30
0.0
 10
-1.70042125984252
 20
1.134358267716536
 30
0.0
 10
-1.697976377952756
 20
1.138665354330709
 30
0.0
 10
-1.697976377952756
 20
1.138665354330709
 30
0.0
 10
-1.695531496062992
 20
1.14294094488189
 30
0.0
 10
-1.694307086614173
 20
1.147637795275591
 30
0.0
 10
-1.694307086614173
 20
1.152720472440945
 30
0.0
 10
-1.694307086614173
 20
1.152720472440945
 30
0.0
 10
-1.694307086614173
 20
1.156858267716536
 30
0.0
 10
-1.695196850393701
 20
1.160555118110236
 30
0.0
 10
-1.696948818897638
 20
1.163830708661418
 30
0.0
 10
-1.696948818897638
 20
1.163830708661418
 30
0.0
 10
-1.698724409448819
 20
1.167137795275591
 30
0.0
 10
-1.701224409448819
 20
1.169913385826772
 30
0.0
 10
-1.704476377952756
 20
1.172192913385827
 30
0.0
 10
-1.704476377952756
 20
1.172192913385827
 30
0.0
 10
-1.706976377952756
 20
1.173968503937008
 30
0.0
 10
-1.710169291338583
 20
1.175220472440945
 30
0.0
 10
-1.714031496062992
 20
1.175913385826772
 30
0.0
 10
-1.714031496062992
 20
1.175913385826772
 30
0.0
 10
-1.71792125984252
 20
1.176637795275591
 30
0.0
 10
-1.72142125984252
 20
1.176996062992126
 30
0.0
 10
-1.724503937007874
 20
1.176996062992126
 30
0.0
 10
-1.724503937007874
 20
1.176996062992126
 30
0.0
 10
-1.724503937007874
 20
1.176996062992126
 30
0.0
 10
-1.73205905511811
 20
1.176996062992126
 30
0.0
 10
-1.73205905511811
 20
1.176996062992126
 30
0.0
 10
-1.73205905511811
 20
1.176996062992126
 30
0.0
 10
-1.73205905511811
 20
1.176996062992126
 30
0.0
 10
-1.73205905511811
 20
1.184885826771654
 30
0.0
 10
-1.73205905511811
 20
1.184885826771654
 30
0.0
 10
-1.73205905511811
 20
1.184885826771654
 30
0.0
 10
-1.73205905511811
 20
1.184885826771654
 30
0.0
 10
-1.727251968503937
 20
1.184885826771654
 30
0.0
 10
-1.727251968503937
 20
1.184885826771654
 30
0.0
 10
-1.727251968503937
 20
1.184885826771654
 30
0.0
 10
-1.722503937007874
 20
1.184885826771654
 30
0.0
 10
-1.717948818897638
 20
1.18544094488189
 30
0.0
 10
-1.713586614173228
 20
1.186555118110236
 30
0.0
 10
-1.713586614173228
 20
1.186555118110236
 30
0.0
 10
-1.709251968503937
 20
1.187665354330709
 30
0.0
 10
-1.705779527559055
 20
1.18994094488189
 30
0.0
 10
-1.703169291338583
 20
1.193413385826772
 30
0.0
 10
-1.703169291338583
 20
1.193413385826772
 30
0.0
 10
-1.700586614173228
 20
1.196885826771654
 30
0.0
 10
-1.699279527559055
 20
1.200830708661417
 30
0.0
 10
-1.699279527559055
 20
1.205220472440945
 30
0.0
 10
-1.699279527559055
 20
1.205220472440945
 30
0.0
 10
-1.699279527559055
 20
1.209023622047244
 30
0.0
 10
-1.700169291338583
 20
1.21244094488189
 30
0.0
 10
-1.702003937007874
 20
1.215468503937008
 30
0.0
 10
-1.702003937007874
 20
1.215468503937008
 30
0.0
 10
-1.703807086614173
 20
1.218523622047244
 30
0.0
 10
-1.706476377952756
 20
1.22094094488189
 30
0.0
 10
-1.710003937007874
 20
1.222720472440945
 30
0.0
 10
-1.710003937007874
 20
1.222720472440945
 30
0.0
 10
-1.713531496062992
 20
1.224496062992126
 30
0.0
 10
-1.717614173228347
 20
1.225413385826772
 30
0.0
 10
-1.722224409448819
 20
1.225413385826772
 30
0.0
 10
-1.722224409448819
 20
1.225413385826772
 30
0.0
 10
-1.726724409448819
 20
1.225413385826772
 30
0.0
 10
-1.730866141732284
 20
1.224468503937008
 30
0.0
 10
-1.734641732283465
 20
1.222637795275591
 30
0.0
 10
-1.734641732283465
 20
1.222637795275591
 30
0.0
 10
-1.738393700787402
 20
1.220803149606299
 30
0.0
 10
-1.74142125984252
 20
1.218330708661418
 30
0.0
 10
-1.743696850393701
 20
1.215220472440945
 30
0.0
 10
-1.743696850393701
 20
1.215220472440945
 30
0.0
 10
-1.745976377952756
 20
1.212137795275591
 30
0.0
 10
-1.747614173228347
 20
1.208023622047244
 30
0.0
 10
-1.748586614173229
 20
1.202858267716535
 30
0.0
  0
SPLINE
  5
3D
330
1F
100
AcDbEntity
  8
LAYER_1
 62
   250
100
AcDbSpline
210
0.0
220
0.0
230
1.0
 70
    11
 71
     3
 72
    20
 73
    16
 74
     0
 42
0.0000000001
 43
0.0000000001
 40
0.0
 40
0.0
 40
0.0
 40
0.0
 40
0.25
 40
0.25
 40
0.25
 40
0.25
 40
0.5
 40
0.5
 40
0.5
 40
0.5
 40
0.75
 40
0.75
 40
0.75
 40
0.75
 40
1.0
 40
1.0
 40
1.0
 40
1.0
 10
-1.585807086614173
 20
1.239082677165355
 30
0.0
 10
-1.585807086614173
 20
1.239082677165355
 30
0.0
 10
-1.641389763779528
 20
1.083385826771654
 30
0.0
 10
-1.641389763779528
 20
1.083385826771654
 30
0.0
 10
-1.641389763779528
 20
1.083385826771654
 30
0.0
 10
-1.641389763779528
 20
1.083385826771654
 30
0.0
 10
-1.653444881889764
 20
1.083385826771654
 30
0.0
 10
-1.653444881889764
 20
1.083385826771654
 30
0.0
 10
-1.653444881889764
 20
1.083385826771654
 30
0.0
 10
-1.653444881889764
 20
1.083385826771654
 30
0.0
 10
-1.598196850393701
 20
1.239082677165355
 30
0.0
 10
-1.598196850393701
 20
1.239082677165355
 30
0.0
 10
-1.598196850393701
 20
1.239082677165355
 30
0.0
 10
-1.598196850393701
 20
1.239082677165355
 30
0.0
 10
-1.585807086614173
 20
1.239082677165355
 30
0.0
 10
-1.585807086614173
 20
1.239082677165355
 30
0.0
  0
SPLINE
  5
3E
330
1F
100
AcDbEntity
  8
LAYER_1
 62
   250
100
AcDbSpline
210
0.0
220
0.0
230
1.0
 70
    11
 71
     3
 72
    48
 73
    44
 74
     0
 42
0.0000000001
 43
0.0000000001
 40
0.0
 40
0.0
 40
0.0
 40
0.0
 40
0.0909090909090909
 40
0.0909090909090909
 40
0.0909090909090909
 40
0.0909090909090909
 40
0.1818181818181818
 40
0.1818181818181818
 40
0.1818181818181818
 40
0.1818181818181818
 40
0.2727272727272727
 40
0.2727272727272727
 40
0.2727272727272727
 40
0.2727272727272727
 40
0.3636363636363637
 40
0.3636363636363637
 40
0.3636363636363637
 40
0.3636363636363637
 40
0.4545454545454546
 40
0.4545454545454546
 40
0.4545454545454546
 40
0.4545454545454546
 40
0.5454545454545455
 40
0.5454545454545455
 40
0.5454545454545455
 40
0.5454545454545455
 40
0.6363636363636365
 40
0.6363636363636365
 40
0.6363636363636365
 40
0.6363636363636365
 40
0.7272727272727274
 40
0.7272727272727274
 40
0.7272727272727274
 40
0.7272727272727274
 40
0.8181818181818183
 40
0.8181818181818183
 40
0.8181818181818183
 40
0.8181818181818183
 40
0.9090909090909093
 40
0.9090909090909093
 40
0.9090909090909093
 40
0.9090909090909093
 40
1.0
 40
1.0
 40
1.0
 40
1.0
 10
-1.50686220472441
 20
1.233220472440945
 30
0.0
 10
-1.50686220472441
 20
1.233220472440945
 30
0.0
 10
-1.493114173228347
 20
1.233220472440945
 30
0.0
 10
-1.493114173228347
 20
1.233220472440945
 30
0.0
 10
-1.493114173228347
 20
1.233220472440945
 30
0.0
 10
-1.493114173228347
 20
1.233220472440945
 30
0.0
 10
-1.493114173228347
 20
1.167220472440945
 30
0.0
 10
-1.493114173228347
 20
1.167220472440945
 30
0.0
 10
-1.493114173228347
 20
1.167220472440945
 30
0.0
 10
-1.493114173228347
 20
1.167220472440945
 30
0.0
 10
-1.471779527559055
 20
1.167220472440945
 30
0.0
 10
-1.471779527559055
 20
1.167220472440945
 30
0.0
 10
-1.471779527559055
 20
1.167220472440945
 30
0.0
 10
-1.471779527559055
 20
1.167220472440945
 30
0.0
 10
-1.471779527559055
 20
1.157055118110236
 30
0.0
 10
-1.471779527559055
 20
1.157055118110236
 30
0.0
 10
-1.471779527559055
 20
1.157055118110236
 30
0.0
 10
-1.471779527559055
 20
1.157055118110236
 30
0.0
 10
-1.493114173228347
 20
1.157055118110236
 30
0.0
 10
-1.493114173228347
 20
1.157055118110236
 30
0.0
 10
-1.493114173228347
 20
1.157055118110236
 30
0.0
 10
-1.493114173228347
 20
1.157055118110236
 30
0.0
 10
-1.493114173228347
 20
1.119692913385827
 30
0.0
 10
-1.493114173228347
 20
1.119692913385827
 30
0.0
 10
-1.493114173228347
 20
1.119692913385827
 30
0.0
 10
-1.493114173228347
 20
1.119692913385827
 30
0.0
 10
-1.50686220472441
 20
1.119692913385827
 30
0.0
 10
-1.50686220472441
 20
1.119692913385827
 30
0.0
 10
-1.50686220472441
 20
1.119692913385827
 30
0.0
 10
-1.50686220472441
 20
1.119692913385827
 30
0.0
 10
-1.50686220472441
 20
1.157055118110236
 30
0.0
 10
-1.50686220472441
 20
1.157055118110236
 30
0.0
 10
-1.50686220472441
 20
1.157055118110236
 30
0.0
 10
-1.50686220472441
 20
1.157055118110236
 30
0.0
 10
-1.560334645669292
 20
1.157055118110236
 30
0.0
 10
-1.560334645669292
 20
1.157055118110236
 30
0.0
 10
-1.560334645669292
 20
1.157055118110236
 30
0.0
 10
-1.560334645669292
 20
1.157055118110236
 30
0.0
 10
-1.560334645669292
 20
1.171358267716536
 30
0.0
 10
-1.560334645669292
 20
1.171358267716536
 30
0.0
 10
-1.560334645669292
 20
1.171358267716536
 30
0.0
 10
-1.560334645669292
 20
1.171358267716536
 30
0.0
 10
-1.50686220472441
 20
1.233220472440945
 30
0.0
 10
-1.50686220472441
 20
1.233220472440945
 30
0.0
  0
SPLINE
  5
3F
330
1F
100
AcDbEntity
  8
LAYER_1
 62
   250
100
AcDbSpline
210
0.0
220
0.0
230
1.0
 70
    11
 71
     3
 72
    16
 73
    12
 74
     0
 42
0.0000000001
 43
0.0000000001
 40
0.0
 40
0.0
 40
0.0
 40
0.0
 40
0.3333333333333333
 40
0.3333333333333333
 40
0.3333333333333333
 40
0.3333333333333333
 40
0.6666666666666666
 40
0.6666666666666666
 40
0.6666666666666666
 40
0.6666666666666666
 40
1.0
 40
1.0
 40
1.0
 40
1.0
 10
-1.50686220472441
 20
1.167220472440945
 30
0.0
 10
-1.50686220472441
 20
1.167220472440945
 30
0.0
 10
-1.50686220472441
 20
1.220610236220473
 30
0.0
 10
-1.50686220472441
 20
1.220610236220473
 30
0.0
 10
-1.50686220472441
 20
1.220610236220473
 30
0.0
 10
-1.50686220472441
 20
1.220610236220473
 30
0.0
 10
-1.552917322834646
 20
1.167220472440945
 30
0.0
 10
-1.552917322834646
 20
1.167220472440945
 30
0.0
 10
-1.552917322834646
 20
1.167220472440945
 30
0.0
 10
-1.552917322834646
 20
1.167220472440945
 30
0.0
 10
-1.50686220472441
 20
1.167220472440945
 30
0.0
 10
-1.50686220472441
 20
1.167220472440945
 30
0.0
  0
SPLINE
  5
40
330
1F
100
AcDbEntity
  8
LAYER_1
 62
   250
100
AcDbSpline
210
0.0
220
0.0
230
1.0
 70
    11
 71
     3
 72
    60
 73
    56
 74
     0
 42
0.0000000001
 43
0.0000000001
 40
0.0
 40
0.0
 40
0.0
 40
0.0
 40
0.0714285714285714
 40
0.0714285714285714
 40
0.0714285714285714
 40
0.0714285714285714
 40
0.1428571428571429
 40
0.1428571428571429
 40
0.1428571428571429
 40
0.1428571428571429
 40
0.2142857142857143
 40
0.2142857142857143
 40
0.2142857142857143
 40
0.2142857142857143
 40
0.2857142857142857
 40
0.2857142857142857
 40
0.2857142857142857
 40
0.2857142857142857
 40
0.3571428571428571
 40
0.3571428571428571
 40
0.3571428571428571
 40
0.3571428571428571
 40
0.4285714285714285
 40
0.4285714285714285
 40
0.4285714285714285
 40
0.4285714285714285
 40
0.4999999999999999
 40
0.4999999999999999
 40
0.4999999999999999
 40
0.4999999999999999
 40
0.5714285714285713
 40
0.5714285714285713
 40
0.5714285714285713
 40
0.5714285714285713
 40
0.6428571428571427
 40
0.6428571428571427
 40
0.6428571428571427
 40
0.6428571428571427
 40
0.7142857142857141
 40
0.7142857142857141
 40
0.7142857142857141
 40
0.7142857142857141
 40
0.7857142857142855
 40
0.7857142857142855
 40
0.7857142857142855
 40
0.7857142857142855
 40
0.8571428571428569
 40
0.8571428571428569
 40
0.8571428571428569
 40
0.8571428571428569
 40
0.9285714285714283
 40
0.9285714285714283
 40
0.9285714285714283
 40
0.9285714285714283
 40
1.0
 40
1.0
 40
1.0
 40
1.0
 10
-1.453807086614173
 20
1.191137795275591
 30
0.0
 10
-1.453807086614173
 20
1.191137795275591
 30
0.0
 10
-1.458196850393701
 20
1.196527559055118
 30
0.0
 10
-1.458196850393701
 20
1.196527559055118
 30
0.0
 10
-1.458196850393701
 20
1.196527559055118
 30
0.0
 10
-1.447082677165354
 20
1.205582677165354
 30
0.0
 10
-1.4415
 20
1.213137795275591
 30
0.0
 10
-1.4415
 20
1.219220472440945
 30
0.0
 10
-1.4415
 20
1.219220472440945
 30
0.0
 10
-1.4415
 20
1.219913385826772
 30
0.0
 10
-1.441555118110236
 20
1.220803149606299
 30
0.0
 10
-1.441669291338583
 20
1.221830708661417
 30
0.0
 10
-1.441669291338583
 20
1.221830708661417
 30
0.0
 10
-1.442582677165355
 20
1.22144094488189
 30
0.0
 10
-1.4435
 20
1.221137795275591
 30
0.0
 10
-1.44436220472441
 20
1.22094094488189
 30
0.0
 10
-1.44436220472441
 20
1.22094094488189
 30
0.0
 10
-1.445224409448819
 20
1.220720472440945
 30
0.0
 10
-1.446027559055118
 20
1.220610236220473
 30
0.0
 10
-1.446807086614173
 20
1.220610236220473
 30
0.0
 10
-1.446807086614173
 20
1.220610236220473
 30
0.0
 10
-1.449417322834646
 20
1.220610236220473
 30
0.0
 10
-1.4515
 20
1.22144094488189
 30
0.0
 10
-1.453055118110236
 20
1.223137795275591
 30
0.0
 10
-1.453055118110236
 20
1.223137795275591
 30
0.0
 10
-1.454641732283465
 20
1.224803149606299
 30
0.0
 10
-1.455417322834646
 20
1.22694094488189
 30
0.0
 10
-1.455417322834646
 20
1.229555118110236
 30
0.0
 10
-1.455417322834646
 20
1.229555118110236
 30
0.0
 10
-1.455417322834646
 20
1.232110236220473
 30
0.0
 10
-1.454472440944882
 20
1.234330708661418
 30
0.0
 10
-1.452582677165354
 20
1.236220472440945
 30
0.0
 10
-1.452582677165354
 20
1.236220472440945
 30
0.0
 10
-1.450669291338583
 20
1.238137795275591
 30
0.0
 10
-1.448389763779528
 20
1.239082677165355
 30
0.0
 10
-1.445751968503937
 20
1.239082677165355
 30
0.0
 10
-1.445751968503937
 20
1.239082677165355
 30
0.0
 10
-1.442055118110236
 20
1.239082677165355
 30
0.0
 10
-1.438889763779528
 20
1.237610236220472
 30
0.0
 10
-1.436251968503937
 20
1.234637795275591
 30
0.0
 10
-1.436251968503937
 20
1.234637795275591
 30
0.0
 10
-1.433641732283465
 20
1.231692913385827
 30
0.0
 10
-1.432307086614173
 20
1.227885826771654
 30
0.0
 10
-1.432307086614173
 20
1.223220472440945
 30
0.0
 10
-1.432307086614173
 20
1.223220472440945
 30
0.0
 10
-1.432307086614173
 20
1.220165354330709
 30
0.0
 10
-1.432944881889764
 20
1.216968503937008
 30
0.0
 10
-1.434196850393701
 20
1.213637795275591
 30
0.0
 10
-1.434196850393701
 20
1.213637795275591
 30
0.0
 10
-1.435444881889764
 20
1.210303149606299
 30
0.0
 10
-1.437251968503937
 20
1.207220472440945
 30
0.0
 10
-1.439641732283465
 20
1.204358267716535
 30
0.0
 10
-1.439641732283465
 20
1.204358267716535
 30
0.0
 10
-1.442027559055118
 20
1.201527559055118
 30
0.0
 10
-1.446751968503937
 20
1.197110236220472
 30
0.0
 10
-1.453807086614173
 20
1.191137795275591
 30
0.0
  0
SPLINE
  5
41
330
1F
100
AcDbEntity
  8
LAYER_1
 62
   250
100
AcDbSpline
210
0.0
220
0.0
230
1.0
 70
    11
 71
     3
 72
    60
 73
    56
 74
     0
 42
0.0000000001
 43
0.0000000001
 40
0.0
 40
0.0
 40
0.0
 40
0.0
 40
0.0714285714285714
 40
0.0714285714285714
 40
0.0714285714285714
 40
0.0714285714285714
 40
0.1428571428571429
 40
0.1428571428571429
 40
0.1428571428571429
 40
0.1428571428571429
 40
0.2142857142857143
 40
0.2142857142857143
 40
0.2142857142857143
 40
0.2142857142857143
 40
0.2857142857142857
 40
0.2857142857142857
 40
0.2857142857142857
 40
0.2857142857142857
 40
0.3571428571428571
 40
0.3571428571428571
 40
0.3571428571428571
 40
0.3571428571428571
 40
0.4285714285714285
 40
0.4285714285714285
 40
0.4285714285714285
 40
0.4285714285714285
 40
0.4999999999999999
 40
0.4999999999999999
 40
0.4999999999999999
 40
0.4999999999999999
 40
0.5714285714285713
 40
0.5714285714285713
 40
0.5714285714285713
 40
0.5714285714285713
 40
0.6428571428571427
 40
0.6428571428571427
 40
0.6428571428571427
 40
0.6428571428571427
 40
0.7142857142857141
 40
0.7142857142857141
 40
0.7142857142857141
 40
0.7142857142857141
 40
0.7857142857142855
 40
0.7857142857142855
 40
0.7857142857142855
 40
0.7857142857142855
 40
0.8571428571428569
 40
0.8571428571428569
 40
0.8571428571428569
 40
0.8571428571428569
 40
0.9285714285714283
 40
0.9285714285714283
 40
0.9285714285714283
 40
0.9285714285714283
 40
1.0
 40
1.0
 40
1.0
 40
1.0
 10
-1.424751968503937
 20
1.191137795275591
 30
0.0
 10
-1.424751968503937
 20
1.191137795275591
 30
0.0
 10
-1.429141732283465
 20
1.196527559055118
 30
0.0
 10
-1.429141732283465
 20
1.196527559055118
 30
0.0
 10
-1.429141732283465
 20
1.196527559055118
 30
0.0
 10
-1.418027559055118
 20
1.205582677165354
 30
0.0
 10
-1.412444881889764
 20
1.213137795275591
 30
0.0
 10
-1.412444881889764
 20
1.219220472440945
 30
0.0
 10
-1.412444881889764
 20
1.219220472440945
 30
0.0
 10
-1.412444881889764
 20
1.219913385826772
 30
0.0
 10
-1.4125
 20
1.220803149606299
 30
0.0
 10
-1.412614173228347
 20
1.221830708661417
 30
0.0
 10
-1.412614173228347
 20
1.221830708661417
 30
0.0
 10
-1.413527559055118
 20
1.22144094488189
 30
0.0
 10
-1.414444881889764
 20
1.221137795275591
 30
0.0
 10
-1.415307086614173
 20
1.22094094488189
 30
0.0
 10
-1.415307086614173
 20
1.22094094488189
 30
0.0
 10
-1.416169291338583
 20
1.220720472440945
 30
0.0
 10
-1.417
 20
1.220610236220473
 30
0.0
 10
-1.417834645669291
 20
1.220610236220473
 30
0.0
 10
-1.417834645669291
 20
1.220610236220473
 30
0.0
 10
-1.420389763779528
 20
1.220610236220473
 30
0.0
 10
-1.422444881889764
 20
1.22144094488189
 30
0.0
 10
-1.424
 20
1.223137795275591
 30
0.0
 10
-1.424
 20
1.223137795275591
 30
0.0
 10
-1.425582677165354
 20
1.224803149606299
 30
0.0
 10
-1.42636220472441
 20
1.22694094488189
 30
0.0
 10
-1.42636220472441
 20
1.229555118110236
 30
0.0
 10
-1.42636220472441
 20
1.229555118110236
 30
0.0
 10
-1.42636220472441
 20
1.232110236220473
 30
0.0
 10
-1.425417322834646
 20
1.234330708661418
 30
0.0
 10
-1.423527559055118
 20
1.236220472440945
 30
0.0
 10
-1.423527559055118
 20
1.236220472440945
 30
0.0
 10
-1.421641732283465
 20
1.238137795275591
 30
0.0
 10
-1.419334645669292
 20
1.239082677165355
 30
0.0
 10
-1.416696850393701
 20
1.239082677165355
 30
0.0
 10
-1.416696850393701
 20
1.239082677165355
 30
0.0
 10
-1.413
 20
1.239082677165355
 30
0.0
 10
-1.409834645669291
 20
1.237610236220472
 30
0.0
 10
-1.407196850393701
 20
1.234637795275591
 30
0.0
 10
-1.407196850393701
 20
1.234637795275591
 30
0.0
 10
-1.404586614173228
 20
1.231692913385827
 30
0.0
 10
-1.403251968503937
 20
1.227885826771654
 30
0.0
 10
-1.403251968503937
 20
1.223220472440945
 30
0.0
 10
-1.403251968503937
 20
1.223220472440945
 30
0.0
 10
-1.403251968503937
 20
1.220165354330709
 30
0.0
 10
-1.403889763779528
 20
1.216968503937008
 30
0.0
 10
-1.405141732283465
 20
1.213637795275591
 30
0.0
 10
-1.405141732283465
 20
1.213637795275591
 30
0.0
 10
-1.406389763779528
 20
1.210303149606299
 30
0.0
 10
-1.408196850393701
 20
1.207220472440945
 30
0.0
 10
-1.410582677165355
 20
1.204358267716535
 30
0.0
 10
-1.410582677165355
 20
1.204358267716535
 30
0.0
 10
-1.412972440944882
 20
1.201527559055118
 30
0.0
 10
-1.417696850393701
 20
1.197110236220472
 30
0.0
 10
-1.424751968503937
 20
1.191137795275591
 30
0.0
  0
SPLINE
  5
42
330
1F
100
AcDbEntity
  8
LAYER_1
 62
   250
100
AcDbSpline
210
0.0
220
0.0
230
1.0
 70
    11
 71
     3
 72
   204
 73
   200
 74
     0
 42
0.0000000001
 43
0.0000000001
 40
0.0
 40
0.0
 40
0.0
 40
0.0
 40
0.02
 40
0.02
 40
0.02
 40
0.02
 40
0.04
 40
0.04
 40
0.04
 40
0.04
 40
0.06
 40
0.06
 40
0.06
 40
0.06
 40
0.08
 40
0.08
 40
0.08
 40
0.08
 40
0.1
 40
0.1
 40
0.1
 40
0.1
 40
0.12
 40
0.12
 40
0.12
 40
0.12
 40
0.14
 40
0.14
 40
0.14
 40
0.14
 40
0.16
 40
0.16
 40
0.16
 40
0.16
 40
0.18
 40
0.18
 40
0.18
 40
0.18
 40
0.2
 40
0.2
 40
0.2
 40
0.2
 40
0.22
 40
0.22
 40
0.22
 40
0.22
 40
0.24
 40
0.24
 40
0.24
 40
0.24
 40
0.26
 40
0.26
 40
0.26
 40
0.26
 40
0.28
 40
0.28
 40
0.28
 40
0.28
 40
0.3
 40
0.3
 40
0.3
 40
0.3
 40
0.32
 40
0.32
 40
0.32
 40
0.32
 40
0.34
 40
0.34
 40
0.34
 40
0.34
 40
0.36
 40
0.36
 40
0.36
 40
0.36
 40
0.3800000000000001
 40
0.3800000000000001
 40
0.3800000000000001
 40
0.3800000000000001
 40
0.4000000000000001
 40
0.4000000000000001
 40
0.4000000000000001
 40
0.4000000000000001
 40
0.4200000000000001
 40
0.4200000000000001
 40
0.4200000000000001
 40
0.4200000000000001
 40
0.4400000000000001
 40
0.4400000000000001
 40
0.4400000000000001
 40
0.4400000000000001
 40
0.4600000000000001
 40
0.4600000000000001
 40
0.4600000000000001
 40
0.4600000000000001
 40
0.4800000000000002
 40
0.4800000000000002
 40
0.4800000000000002
 40
0.4800000000000002
 40
0.5000000000000001
 40
0.5000000000000001
 40
0.5000000000000001
 40
0.5000000000000001
 40
0.5200000000000001
 40
0.5200000000000001
 40
0.5200000000000001
 40
0.5200000000000001
 40
0.5400000000000002
 40
0.5400000000000002
 40
0.5400000000000002
 40
0.5400000000000002
 40
0.5600000000000002
 40
0.5600000000000002
 40
0.5600000000000002
 40
0.5600000000000002
 40
0.5800000000000002
 40
0.5800000000000002
 40
0.5800000000000002
 40
0.5800000000000002
 40
0.6000000000000002
 40
0.6000000000000002
 40
0.6000000000000002
 40
0.6000000000000002
 40
0.6200000000000002
 40
0.6200000000000002
 40
0.6200000000000002
 40
0.6200000000000002
 40
0.6400000000000002
 40
0.6400000000000002
 40
0.6400000000000002
 40
0.6400000000000002
 40
0.6600000000000003
 40
0.6600000000000003
 40
0.6600000000000003
 40
0.6600000000000003
 40
0.6800000000000003
 40
0.6800000000000003
 40
0.6800000000000003
 40
0.6800000000000003
 40
0.7000000000000003
 40
0.7000000000000003
 40
0.7000000000000003
 40
0.7000000000000003
 40
0.7200000000000003
 40
0.7200000000000003
 40
0.7200000000000003
 40
0.7200000000000003
 40
0.7400000000000003
 40
0.7400000000000003
 40
0.7400000000000003
 40
0.7400000000000003
 40
0.7600000000000003
 40
0.7600000000000003
 40
0.7600000000000003
 40
0.7600000000000003
 40
0.7800000000000004
 40
0.7800000000000004
 40
0.7800000000000004
 40
0.7800000000000004
 40
0.8000000000000004
 40
0.8000000000000004
 40
0.8000000000000004
 40
0.8000000000000004
 40
0.8200000000000004
 40
0.8200000000000004
 40
0.8200000000000004
 40
0.8200000000000004
 40
0.8400000000000004
 40
0.8400000000000004
 40
0.8400000000000004
 40
0.8400000000000004
 40
0.8600000000000004
 40
0.8600000000000004
 40
0.8600000000000004
 40
0.8600000000000004
 40
0.8800000000000005
 40
0.8800000000000005
 40
0.8800000000000005
 40
0.8800000000000005
 40
0.9000000000000005
 40
0.9000000000000005
 40
0.9000000000000005
 40
0.9000000000000005
 40
0.9200000000000005
 40
0.9200000000000005
 40
0.9200000000000005
 40
0.9200000000000005
 40
0.9400000000000005
 40
0.9400000000000005
 40
0.9400000000000005
 40
0.9400000000000005
 40
0.9600000000000005
 40
0.9600000000000005
 40
0.9600000000000005
 40
0.9600000000000005
 40
0.9800000000000005
 40
0.9800000000000005
 40
0.9800000000000005
 40
0.9800000000000005
 40
1.0
 40
1.0
 40
1.0
 40
1.0
 10
-1.340944881889764
 20
1.198220472440945
 30
0.0
 10
-1.340944881889764
 20
1.198220472440945
 30
0.0
 10
-1.3
 20
1.198220472440945
 30
0.0
 10
-1.3
 20
1.198220472440945
 30
0.0
 10
-1.3
 20
1.198220472440945
 30
0.0
 10
-1.3
 20
1.198220472440945
 30
0.0
 10
-1.3
 20
1.191385826771654
 30
0.0
 10
-1.3
 20
1.191385826771654
 30
0.0
 10
-1.3
 20
1.191385826771654
 30
0.0
 10
-1.3
 20
1.191385826771654
 30
0.0
 10
-1.302834645669291
 20
1.191385826771654
 30
0.0
 10
-1.302834645669291
 20
1.191385826771654
 30
0.0
 10
-1.302834645669291
 20
1.191385826771654
 30
0.0
 10
-1.304472440944882
 20
1.191385826771654
 30
0.0
 10
-1.305972440944882
 20
1.191192913385827
 30
0.0
 10
-1.307334645669291
 20
1.190830708661417
 30
0.0
 10
-1.307334645669291
 20
1.190830708661417
 30
0.0
 10
-1.308137795275591
 20
1.190610236220473
 30
0.0
 10
-1.308807086614173
 20
1.190192913385827
 30
0.0
 10
-1.309307086614173
 20
1.189555118110236
 30
0.0
 10
-1.309307086614173
 20
1.189555118110236
 30
0.0
 10
-1.309834645669291
 20
1.18894094488189
 30
0.0
 10
-1.310082677165354
 20
1.188358267716535
 30
0.0
 10
-1.310082677165354
 20
1.187803149606299
 30
0.0
 10
-1.310082677165354
 20
1.187803149606299
 30
0.0
 10
-1.310082677165354
 20
1.186555118110236
 30
0.0
 10
-1.309055118110236
 20
1.184692913385827
 30
0.0
 10
-1.307
 20
1.182192913385827
 30
0.0
 10
-1.307
 20
1.182192913385827
 30
0.0
 10
-1.307
 20
1.182192913385827
 30
0.0
 10
-1.29536220472441
 20
1.167555118110236
 30
0.0
 10
-1.29536220472441
 20
1.167555118110236
 30
0.0
 10
-1.29536220472441
 20
1.167555118110236
 30
0.0
 10
-1.29536220472441
 20
1.167555118110236
 30
0.0
 10
-1.281779527559055
 20
1.182192913385827
 30
0.0
 10
-1.281779527559055
 20
1.182192913385827
 30
0.0
 10
-1.281779527559055
 20
1.182192913385827
 30
0.0
 10
-1.279279527559055
 20
1.184913385826772
 30
0.0
 10
-1.278027559055118
 20
1.18694094488189
 30
0.0
 10
-1.278027559055118
 20
1.188303149606299
 30
0.0
 10
-1.278027559055118
 20
1.188303149606299
 30
0.0
 10
-1.278027559055118
 20
1.189275590551181
 30
0.0
 10
-1.278472440944882
 20
1.190027559055118
 30
0.0
 10
-1.279334645669291
 20
1.190582677165355
 30
0.0
 10
-1.279334645669291
 20
1.190582677165355
 30
0.0
 10
-1.280196850393701
 20
1.191110236220472
 30
0.0
 10
-1.282055118110236
 20
1.191385826771654
 30
0.0
 10
-1.284944881889764
 20
1.191385826771654
 30
0.0
 10
-1.284944881889764
 20
1.191385826771654
 30
0.0
 10
-1.284944881889764
 20
1.191385826771654
 30
0.0
 10
-1.288027559055118
 20
1.191385826771654
 30
0.0
 10
-1.288027559055118
 20
1.191385826771654
 30
0.0
 10
-1.288027559055118
 20
1.191385826771654
 30
0.0
 10
-1.288027559055118
 20
1.191385826771654
 30
0.0
 10
-1.288027559055118
 20
1.198220472440945
 30
0.0
 10
-1.288027559055118
 20
1.198220472440945
 30
0.0
 10
-1.288027559055118
 20
1.198220472440945
 30
0.0
 10
-1.288027559055118
 20
1.198220472440945
 30
0.0
 10
-1.253279527559055
 20
1.198220472440945
 30
0.0
 10
-1.253279527559055
 20
1.198220472440945
 30
0.0
 10
-1.253279527559055
 20
1.198220472440945
 30
0.0
 10
-1.253279527559055
 20
1.198220472440945
 30
0.0
 10
-1.253279527559055
 20
1.191385826771654
 30
0.0
 10
-1.253279527559055
 20
1.191385826771654
 30
0.0
 10
-1.253279527559055
 20
1.191385826771654
 30
0.0
 10
-1.256696850393701
 20
1.191220472440945
 30
0.0
 10
-1.259641732283465
 20
1.190527559055118
 30
0.0
 10
-1.262110236220473
 20
1.189275590551181
 30
0.0
 10
-1.262110236220473
 20
1.189275590551181
 30
0.0
 10
-1.264582677165354
 20
1.188027559055118
 30
0.0
 10
-1.2675
 20
1.185665354330709
 30
0.0
 10
-1.27086220472441
 20
1.182192913385827
 30
0.0
 10
-1.27086220472441
 20
1.182192913385827
 30
0.0
 10
-1.27086220472441
 20
1.182192913385827
 30
0.0
 10
-1.2895
 20
1.162830708661417
 30
0.0
 10
-1.2895
 20
1.162830708661417
 30
0.0
 10
-1.2895
 20
1.162830708661417
 30
0.0
 10
-1.2895
 20
1.162830708661417
 30
0.0
 10
-1.266307086614173
 20
1.136385826771654
 30
0.0
 10
-1.266307086614173
 20
1.136385826771654
 30
0.0
 10
-1.266307086614173
 20
1.136385826771654
 30
0.0
 10
-1.266307086614173
 20
1.136385826771654
 30
0.0
 10
-1.265417322834646
 20
1.135248031496063
 30
0.0
 10
-1.265417322834646
 20
1.135248031496063
 30
0.0
 10
-1.265417322834646
 20
1.135248031496063
 30
0.0
 10
-1.263141732283465
 20
1.132303149606299
 30
0.0
 10
-1.260582677165354
 20
1.12994094488189
 30
0.0
 10
-1.257751968503937
 20
1.128165354330709
 30
0.0
 10
-1.257751968503937
 20
1.128165354330709
 30
0.0
 10
-1.256196850393701
 20
1.127137795275591
 30
0.0
 10
-1.253751968503937
 20
1.126582677165354
 30
0.0
 10
-1.250444881889764
 20
1.126527559055118
 30
0.0
 10
-1.250444881889764
 20
1.126527559055118
 30
0.0
 10
-1.250444881889764
 20
1.126527559055118
 30
0.0
 10
-1.250444881889764
 20
1.119692913385827
 30
0.0
 10
-1.250444881889764
 20
1.119692913385827
 30
0.0
 10
-1.250444881889764
 20
1.119692913385827
 30
0.0
 10
-1.250444881889764
 20
1.119692913385827
 30
0.0
 10
-1.290389763779528
 20
1.119692913385827
 30
0.0
 10
-1.290389763779528
 20
1.119692913385827
 30
0.0
 10
-1.290389763779528
 20
1.119692913385827
 30
0.0
 10
-1.290389763779528
 20
1.119692913385827
 30
0.0
 10
-1.290389763779528
 20
1.126527559055118
 30
0.0
 10
-1.290389763779528
 20
1.126527559055118
 30
0.0
 10
-1.290389763779528
 20
1.126527559055118
 30
0.0
 10
-1.290389763779528
 20
1.126527559055118
 30
0.0
 10
-1.286972440944882
 20
1.126527559055118
 30
0.0
 10
-1.286972440944882
 20
1.126527559055118
 30
0.0
 10
-1.286972440944882
 20
1.126527559055118
 30
0.0
 10
-1.284362204724409
 20
1.126527559055118
 30
0.0
 10
-1.282724409448819
 20
1.126692913385827
 30
0.0
 10
-1.282
 20
1.127027559055118
 30
0.0
 10
-1.282
 20
1.127027559055118
 30
0.0
 10
-1.280834645669291
 20
1.127555118110236
 30
0.0
 10
-1.280224409448819
 20
1.128472440944882
 30
0.0
 10
-1.280224409448819
 20
1.129775590551181
 30
0.0
 10
-1.280224409448819
 20
1.129775590551181
 30
0.0
 10
-1.280224409448819
 20
1.130972440944882
 30
0.0
 10
-1.281527559055118
 20
1.133165354330709
 30
0.0
 10
-1.284141732283465
 20
1.136385826771654
 30
0.0
 10
-1.284141732283465
 20
1.136385826771654
 30
0.0
 10
-1.284141732283465
 20
1.136385826771654
 30
0.0
 10
-1.298944881889764
 20
1.154527559055118
 30
0.0
 10
-1.298944881889764
 20
1.154527559055118
 30
0.0
 10
-1.298944881889764
 20
1.154527559055118
 30
0.0
 10
-1.298944881889764
 20
1.154527559055118
 30
0.0
 10
-1.315472440944882
 20
1.136385826771654
 30
0.0
 10
-1.315472440944882
 20
1.136385826771654
 30
0.0
 10
-1.315472440944882
 20
1.136385826771654
 30
0.0
 10
-1.315472440944882
 20
1.136385826771654
 30
0.0
 10
-1.317082677165354
 20
1.134413385826772
 30
0.0
 10
-1.317082677165354
 20
1.134413385826772
 30
0.0
 10
-1.317082677165354
 20
1.134413385826772
 30
0.0
 10
-1.317082677165354
 20
1.134413385826772
 30
0.0
 10
-1.317972440944882
 20
1.13344094488189
 30
0.0
 10
-1.317972440944882
 20
1.13344094488189
 30
0.0
 10
-1.317972440944882
 20
1.13344094488189
 30
0.0
 10
-1.319334645669291
 20
1.131972440944882
 30
0.0
 10
-1.320027559055118
 20
1.130692913385827
 30
0.0
 10
-1.320027559055118
 20
1.129555118110236
 30
0.0
 10
-1.320027559055118
 20
1.129555118110236
 30
0.0
 10
-1.320027559055118
 20
1.1285
 30
0.0
 10
-1.319610236220473
 20
1.127748031496063
 30
0.0
 10
-1.318751968503937
 20
1.127248031496063
 30
0.0
 10
-1.318751968503937
 20
1.127248031496063
 30
0.0
 10
-1.317917322834646
 20
1.126775590551181
 30
0.0
 10
-1.316027559055118
 20
1.126527559055118
 30
0.0
 10
-1.313110236220473
 20
1.126527559055118
 30
0.0
 10
-1.313110236220473
 20
1.126527559055118
 30
0.0
 10
-1.313110236220473
 20
1.126527559055118
 30
0.0
 10
-1.309834645669291
 20
1.126527559055118
 30
0.0
 10
-1.309834645669291
 20
1.126527559055118
 30
0.0
 10
-1.309834645669291
 20
1.126527559055118
 30
0.0
 10
-1.309834645669291
 20
1.126527559055118
 30
0.0
 10
-1.309834645669291
 20
1.119692913385827
 30
0.0
 10
-1.309834645669291
 20
1.119692913385827
 30
0.0
 10
-1.309834645669291
 20
1.119692913385827
 30
0.0
 10
-1.309834645669291
 20
1.119692913385827
 30
0.0
 10
-1.344110236220472
 20
1.119692913385827
 30
0.0
 10
-1.344110236220472
 20
1.119692913385827
 30
0.0
 10
-1.344110236220472
 20
1.119692913385827
 30
0.0
 10
-1.344110236220472
 20
1.119692913385827
 30
0.0
 10
-1.344110236220472
 20
1.126527559055118
 30
0.0
 10
-1.344110236220472
 20
1.126527559055118
 30
0.0
 10
-1.344110236220472
 20
1.126527559055118
 30
0.0
 10
-1.341444881889764
 20
1.126582677165354
 30
0.0
 10
-1.33936220472441
 20
1.126858267716536
 30
0.0
 10
-1.337834645669291
 20
1.127385826771654
 30
0.0
 10
-1.337834645669291
 20
1.127385826771654
 30
0.0
 10
-1.336334645669292
 20
1.127885826771654
 30
0.0
 10
-1.334862204724409
 20
1.128692913385827
 30
0.0
 10
-1.333444881889764
 20
1.129775590551181
 30
0.0
 10
-1.333444881889764
 20
1.129775590551181
 30
0.0
 10
-1.331
 20
1.131748031496063
 30
0.0
 10
-1.329251968503937
 20
1.133275590551181
 30
0.0
 10
-1.328165354330709
 20
1.134413385826772
 30
0.0
 10
-1.328165354330709
 20
1.134413385826772
 30
0.0
 10
-1.328165354330709
 20
1.134413385826772
 30
0.0
 10
-1.304307086614173
 20
1.158913385826772
 30
0.0
 10
-1.304307086614173
 20
1.158913385826772
 30
0.0
 10
-1.304307086614173
 20
1.158913385826772
 30
0.0
 10
-1.304307086614173
 20
1.158913385826772
 30
0.0
 10
-1.324582677165354
 20
1.182192913385827
 30
0.0
 10
-1.324582677165354
 20
1.182192913385827
 30
0.0
 10
-1.324582677165354
 20
1.182192913385827
 30
0.0
 10
-1.327137795275591
 20
1.185082677165354
 30
0.0
 10
-1.329137795275591
 20
1.187082677165354
 30
0.0
 10
-1.330637795275591
 20
1.188248031496063
 30
0.0
 10
-1.330637795275591
 20
1.188248031496063
 30
0.0
 10
-1.332137795275591
 20
1.189413385826772
 30
0.0
 10
-1.333582677165354
 20
1.190248031496063
 30
0.0
 10
-1.335
 20
1.190692913385827
 30
0.0
 10
-1.335
 20
1.190692913385827
 30
0.0
 10
-1.336417322834646
 20
1.191165354330709
 30
0.0
 10
-1.338389763779528
 20
1.191385826771654
 30
0.0
 10
-1.340944881889764
 20
1.191385826771654
 30
0.0
 10
-1.340944881889764
 20
1.191385826771654
 30
0.0
 10
-1.340944881889764
 20
1.191385826771654
 30
0.0
 10
-1.340944881889764
 20
1.198220472440945
 30
0.0
 10
-1.340944881889764
 20
1.198220472440945
 30
0.0
  0
SPLINE
  5
43
330
1F
100
AcDbEntity
  8
LAYER_1
 62
   250
100
AcDbSpline
210
0.0
220
0.0
230
1.0
 70
    11
 71
     3
 72
   172
 73
   168
 74
     0
 42
0.0000000001
 43
0.0000000001
 40
0.0
 40
0.0
 40
0.0
 40
0.0
 40
0.0238095238095238
 40
0.0238095238095238
 40
0.0238095238095238
 40
0.0238095238095238
 40
0.0476190476190476
 40
0.0476190476190476
 40
0.0476190476190476
 40
0.0476190476190476
 40
0.0714285714285714
 40
0.0714285714285714
 40
0.0714285714285714
 40
0.0714285714285714
 40
0.0952380952380952
 40
0.0952380952380952
 40
0.0952380952380952
 40
0.0952380952380952
 40
0.119047619047619
 40
0.119047619047619
 40
0.119047619047619
 40
0.119047619047619
 40
0.1428571428571429
 40
0.1428571428571429
 40
0.1428571428571429
 40
0.1428571428571429
 40
0.1666666666666667
 40
0.1666666666666667
 40
0.1666666666666667
 40
0.1666666666666667
 40
0.1904761904761905
 40
0.1904761904761905
 40
0.1904761904761905
 40
0.1904761904761905
 40
0.2142857142857143
 40
0.2142857142857143
 40
0.2142857142857143
 40
0.2142857142857143
 40
0.2380952380952381
 40
0.2380952380952381
 40
0.2380952380952381
 40
0.2380952380952381
 40
0.2619047619047619
 40
0.2619047619047619
 40
0.2619047619047619
 40
0.2619047619047619
 40
0.2857142857142857
 40
0.2857142857142857
 40
0.2857142857142857
 40
0.2857142857142857
 40
0.3095238095238095
 40
0.3095238095238095
 40
0.3095238095238095
 40
0.3095238095238095
 40
0.3333333333333334
 40
0.3333333333333334
 40
0.3333333333333334
 40
0.3333333333333334
 40
0.3571428571428572
 40
0.3571428571428572
 40
0.3571428571428572
 40
0.3571428571428572
 40
0.380952380952381
 40
0.380952380952381
 40
0.380952380952381
 40
0.380952380952381
 40
0.4047619047619049
 40
0.4047619047619049
 40
0.4047619047619049
 40
0.4047619047619049
 40
0.4285714285714287
 40
0.4285714285714287
 40
0.4285714285714287
 40
0.4285714285714287
 40
0.4523809523809526
 40
0.4523809523809526
 40
0.4523809523809526
 40
0.4523809523809526
 40
0.4761904761904764
 40
0.4761904761904764
 40
0.4761904761904764
 40
0.4761904761904764
 40
0.5000000000000002
 40
0.5000000000000002
 40
0.5000000000000002
 40
0.5000000000000002
 40
0.5238095238095241
 40
0.5238095238095241
 40
0.5238095238095241
 40
0.5238095238095241
 40
0.5476190476190479
 40
0.5476190476190479
 40
0.5476190476190479
 40
0.5476190476190479
 40
0.5714285714285717
 40
0.5714285714285717
 40
0.5714285714285717
 40
0.5714285714285717
 40
0.5952380952380956
 40
0.5952380952380956
 40
0.5952380952380956
 40
0.5952380952380956
 40
0.6190476190476194
 40
0.6190476190476194
 40
0.6190476190476194
 40
0.6190476190476194
 40
0.6428571428571432
 40
0.6428571428571432
 40
0.6428571428571432
 40
0.6428571428571432
 40
0.6666666666666671
 40
0.6666666666666671
 40
0.6666666666666671
 40
0.6666666666666671
 40
0.6904761904761909
 40
0.6904761904761909
 40
0.6904761904761909
 40
0.6904761904761909
 40
0.7142857142857148
 40
0.7142857142857148
 40
0.7142857142857148
 40
0.7142857142857148
 40
0.7380952380952386
 40
0.7380952380952386
 40
0.7380952380952386
 40
0.7380952380952386
 40
0.7619047619047624
 40
0.7619047619047624
 40
0.7619047619047624
 40
0.7619047619047624
 40
0.7857142857142863
 40
0.7857142857142863
 40
0.7857142857142863
 40
0.7857142857142863
 40
0.8095238095238101
 40
0.8095238095238101
 40
0.8095238095238101
 40
0.8095238095238101
 40
0.8333333333333339
 40
0.8333333333333339
 40
0.8333333333333339
 40
0.8333333333333339
 40
0.8571428571428578
 40
0.8571428571428578
 40
0.8571428571428578
 40
0.8571428571428578
 40
0.8809523809523816
 40
0.8809523809523816
 40
0.8809523809523816
 40
0.8809523809523816
 40
0.9047619047619054
 40
0.9047619047619054
 40
0.9047619047619054
 40
0.9047619047619054
 40
0.9285714285714293
 40
0.9285714285714293
 40
0.9285714285714293
 40
0.9285714285714293
 40
0.9523809523809531
 40
0.9523809523809531
 40
0.9523809523809531
 40
0.9523809523809531
 40
0.9761904761904769
 40
0.9761904761904769
 40
0.9761904761904769
 40
0.9761904761904769
 40
1.0
 40
1.0
 40
1.0
 40
1.0
 10
-1.175251968503937
 20
1.202858267716535
 30
0.0
 10
-1.175251968503937
 20
1.202858267716535
 30
0.0
 10
-1.18305905511811
 20
1.204082677165354
 30
0.0
 10
-1.18305905511811
 20
1.204082677165354
 30
0.0
 10
-1.18305905511811
 20
1.204082677165354
 30
0.0
 10
-1.18236220472441
 20
1.20994094488189
 30
0.0
 10
-1.180834645669291
 20
1.214803149606299
 30
0.0
 10
-1.1785
 20
1.218665354330709
 30
0.0
 10
-1.1785
 20
1.218665354330709
 30
0.0
 10
-1.175417322834646
 20
1.223858267716536
 30
0.0
 10
-1.17105905511811
 20
1.227913385826772
 30
0.0
 10
-1.165417322834646
 20
1.230803149606299
 30
0.0
 10
-1.165417322834646
 20
1.230803149606299
 30
0.0
 10
-1.159751968503937
 20
1.233720472440945
 30
0.0
 10
-1.153279527559055
 20
1.235165354330709
 30
0.0
 10
-1.145944881889764
 20
1.235165354330709
 30
0.0
 10
-1.145944881889764
 20
1.235165354330709
 30
0.0
 10
-1.138751968503937
 20
1.235165354330709
 30
0.0
 10
-1.132389763779528
 20
1.233885826771654
 30
0.0
 10
-1.126917322834646
 20
1.231303149606299
 30
0.0
 10
-1.126917322834646
 20
1.231303149606299
 30
0.0
 10
-1.121444881889764
 20
1.228720472440945
 30
0.0
 10
-1.117307086614173
 20
1.225303149606299
 30
0.0
 10
-1.114503937007874
 20
1.221055118110236
 30
0.0
 10
-1.114503937007874
 20
1.221055118110236
 30
0.0
 10
-1.111696850393701
 20
1.216803149606299
 30
0.0
 10
-1.110307086614173
 20
1.212192913385827
 30
0.0
 10
-1.110307086614173
 20
1.207248031496063
 30
0.0
 10
-1.110307086614173
 20
1.207248031496063
 30
0.0
 10
-1.110307086614173
 20
1.202913385826772
 30
0.0
 10
-1.111362204724409
 20
1.199027559055118
 30
0.0
 10
-1.113476377952756
 20
1.195610236220473
 30
0.0
 10
-1.113476377952756
 20
1.195610236220473
 30
0.0
 10
-1.115614173228346
 20
1.192192913385827
 30
0.0
 10
-1.118751968503937
 20
1.189137795275591
 30
0.0
 10
-1.122917322834646
 20
1.186413385826772
 30
0.0
 10
-1.122917322834646
 20
1.186413385826772
 30
0.0
 10
-1.12586220472441
 20
1.184527559055118
 30
0.0
 10
-1.129669291338583
 20
1.182858267716536
 30
0.0
 10
-1.134389763779528
 20
1.181468503937008
 30
0.0
 10
-1.134389763779528
 20
1.181468503937008
 30
0.0
 10
-1.129362204724409
 20
1.180748031496063
 30
0.0
 10
-1.125224409448819
 20
1.179582677165354
 30
0.0
 10
-1.122031496062992
 20
1.177968503937008
 30
0.0
 10
-1.122031496062992
 20
1.177968503937008
 30
0.0
 10
-1.116834645669292
 20
1.175303149606299
 30
0.0
 10
-1.112724409448819
 20
1.171637795275591
 30
0.0
 10
-1.109751968503937
 20
1.166968503937008
 30
0.0
 10
-1.109751968503937
 20
1.166968503937008
 30
0.0
 10
-1.106751968503937
 20
1.162303149606299
 30
0.0
 10
-1.105279527559055
 20
1.157192913385827
 30
0.0
 10
-1.105279527559055
 20
1.151582677165354
 30
0.0
 10
-1.105279527559055
 20
1.151582677165354
 30
0.0
 10
-1.105279527559055
 20
1.142637795275591
 30
0.0
 10
-1.109196850393701
 20
1.134748031496063
 30
0.0
 10
-1.11705905511811
 20
1.12794094488189
 30
0.0
 10
-1.11705905511811
 20
1.12794094488189
 30
0.0
 10
-1.124944881889764
 20
1.121137795275591
 30
0.0
 10
-1.135114173228347
 20
1.117748031496063
 30
0.0
 10
-1.147586614173229
 20
1.117748031496063
 30
0.0
 10
-1.147586614173229
 20
1.117748031496063
 30
0.0
 10
-1.159889763779528
 20
1.117748031496063
 30
0.0
 10
-1.170251968503937
 20
1.121027559055118
 30
0.0
 10
-1.178669291338583
 20
1.127582677165354
 30
0.0
 10
-1.178669291338583
 20
1.127582677165354
 30
0.0
 10
-1.185724409448819
 20
1.133165354330709
 30
0.0
 10
-1.189251968503937
 20
1.138803149606299
 30
0.0
 10
-1.189251968503937
 20
1.14444094488189
 30
0.0
 10
-1.189251968503937
 20
1.14444094488189
 30
0.0
 10
-1.189251968503937
 20
1.146665354330709
 30
0.0
 10
-1.188527559055118
 20
1.148527559055118
 30
0.0
 10
-1.187086614173228
 20
1.15
 30
0.0
 10
-1.187086614173228
 20
1.15
 30
0.0
 10
-1.185669291338583
 20
1.1515
 30
0.0
 10
-1.183862204724409
 20
1.152248031496063
 30
0.0
 10
-1.181669291338583
 20
1.152248031496063
 30
0.0
 10
-1.181669291338583
 20
1.152248031496063
 30
0.0
 10
-1.179307086614173
 20
1.152248031496063
 30
0.0
 10
-1.177251968503937
 20
1.151330708661417
 30
0.0
 10
-1.175586614173228
 20
1.149468503937008
 30
0.0
 10
-1.175586614173228
 20
1.149468503937008
 30
0.0
 10
-1.174669291338583
 20
1.14844094488189
 30
0.0
 10
-1.173586614173228
 20
1.145972440944882
 30
0.0
 10
-1.172417322834646
 20
1.142082677165354
 30
0.0
 10
-1.172417322834646
 20
1.142082677165354
 30
0.0
 10
-1.170724409448819
 20
1.136582677165354
 30
0.0
 10
-1.16786220472441
 20
1.132413385826772
 30
0.0
 10
-1.16386220472441
 20
1.129555118110236
 30
0.0
 10
-1.16386220472441
 20
1.129555118110236
 30
0.0
 10
-1.159834645669291
 20
1.126665354330709
 30
0.0
 10
-1.15486220472441
 20
1.125220472440945
 30
0.0
 10
-1.148889763779528
 20
1.125220472440945
 30
0.0
 10
-1.148889763779528
 20
1.125220472440945
 30
0.0
 10
-1.14355905511811
 20
1.125220472440945
 30
0.0
 10
-1.138807086614173
 20
1.126385826771654
 30
0.0
 10
-1.134614173228347
 20
1.128720472440945
 30
0.0
 10
-1.134614173228347
 20
1.128720472440945
 30
0.0
 10
-1.130389763779528
 20
1.131055118110236
 30
0.0
 10
-1.127086614173228
 20
1.134358267716536
 30
0.0
 10
-1.124641732283465
 20
1.138665354330709
 30
0.0
 10
-1.124641732283465
 20
1.138665354330709
 30
0.0
 10
-1.122196850393701
 20
1.14294094488189
 30
0.0
 10
-1.120972440944882
 20
1.147637795275591
 30
0.0
 10
-1.120972440944882
 20
1.152720472440945
 30
0.0
 10
-1.120972440944882
 20
1.152720472440945
 30
0.0
 10
-1.120972440944882
 20
1.156858267716536
 30
0.0
 10
-1.12186220472441
 20
1.160555118110236
 30
0.0
 10
-1.123614173228346
 20
1.163830708661418
 30
0.0
 10
-1.123614173228346
 20
1.163830708661418
 30
0.0
 10
-1.125389763779528
 20
1.167137795275591
 30
0.0
 10
-1.127889763779528
 20
1.169913385826772
 30
0.0
 10
-1.131141732283465
 20
1.172192913385827
 30
0.0
 10
-1.131141732283465
 20
1.172192913385827
 30
0.0
 10
-1.133641732283465
 20
1.173968503937008
 30
0.0
 10
-1.136834645669292
 20
1.175220472440945
 30
0.0
 10
-1.140696850393701
 20
1.175913385826772
 30
0.0
 10
-1.140696850393701
 20
1.175913385826772
 30
0.0
 10
-1.144586614173228
 20
1.176637795275591
 30
0.0
 10
-1.148086614173228
 20
1.176996062992126
 30
0.0
 10
-1.151169291338583
 20
1.176996062992126
 30
0.0
 10
-1.151169291338583
 20
1.176996062992126
 30
0.0
 10
-1.151169291338583
 20
1.176996062992126
 30
0.0
 10
-1.158724409448819
 20
1.176996062992126
 30
0.0
 10
-1.158724409448819
 20
1.176996062992126
 30
0.0
 10
-1.158724409448819
 20
1.176996062992126
 30
0.0
 10
-1.158724409448819
 20
1.176996062992126
 30
0.0
 10
-1.158724409448819
 20
1.184885826771654
 30
0.0
 10
-1.158724409448819
 20
1.184885826771654
 30
0.0
 10
-1.158724409448819
 20
1.184885826771654
 30
0.0
 10
-1.158724409448819
 20
1.184885826771654
 30
0.0
 10
-1.153917322834646
 20
1.184885826771654
 30
0.0
 10
-1.153917322834646
 20
1.184885826771654
 30
0.0
 10
-1.153917322834646
 20
1.184885826771654
 30
0.0
 10
-1.149169291338583
 20
1.184885826771654
 30
0.0
 10
-1.144614173228347
 20
1.18544094488189
 30
0.0
 10
-1.140251968503937
 20
1.186555118110236
 30
0.0
 10
-1.140251968503937
 20
1.186555118110236
 30
0.0
 10
-1.135917322834646
 20
1.187665354330709
 30
0.0
 10
-1.132444881889764
 20
1.18994094488189
 30
0.0
 10
-1.129834645669291
 20
1.193413385826772
 30
0.0
 10
-1.129834645669291
 20
1.193413385826772
 30
0.0
 10
-1.127251968503937
 20
1.196885826771654
 30
0.0
 10
-1.125944881889764
 20
1.200830708661417
 30
0.0
 10
-1.125944881889764
 20
1.205220472440945
 30
0.0
 10
-1.125944881889764
 20
1.205220472440945
 30
0.0
 10
-1.125944881889764
 20
1.209023622047244
 30
0.0
 10
-1.126834645669292
 20
1.21244094488189
 30
0.0
 10
-1.128669291338583
 20
1.215468503937008
 30
0.0
 10
-1.128669291338583
 20
1.215468503937008
 30
0.0
 10
-1.130472440944882
 20
1.218523622047244
 30
0.0
 10
-1.133141732283465
 20
1.22094094488189
 30
0.0
 10
-1.136669291338583
 20
1.222720472440945
 30
0.0
 10
-1.136669291338583
 20
1.222720472440945
 30
0.0
 10
-1.140196850393701
 20
1.224496062992126
 30
0.0
 10
-1.144279527559055
 20
1.225413385826772
 30
0.0
 10
-1.148889763779528
 20
1.225413385826772
 30
0.0
 10
-1.148889763779528
 20
1.225413385826772
 30
0.0
 10
-1.153389763779528
 20
1.225413385826772
 30
0.0
 10
-1.157531496062992
 20
1.224468503937008
 30
0.0
 10
-1.161307086614173
 20
1.222637795275591
 30
0.0
 10
-1.161307086614173
 20
1.222637795275591
 30
0.0
 10
-1.16505905511811
 20
1.220803149606299
 30
0.0
 10
-1.168086614173229
 20
1.218330708661418
 30
0.0
 10
-1.17036220472441
 20
1.215220472440945
 30
0.0
 10
-1.17036220472441
 20
1.215220472440945
 30
0.0
 10
-1.172641732283465
 20
1.212137795275591
 30
0.0
 10
-1.174279527559055
 20
1.208023622047244
 30
0.0
 10
-1.175251968503937
 20
1.202858267716535
 30
0.0
  0
SPLINE
  5
44
330
1F
100
AcDbEntity
  8
LAYER_1
 62
   250
100
AcDbSpline
210
0.0
220
0.0
230
1.0
 70
    11
 71
     3
 72
    60
 73
    56
 74
     0
 42
0.0000000001
 43
0.0000000001
 40
0.0
 40
0.0
 40
0.0
 40
0.0
 40
0.0714285714285714
 40
0.0714285714285714
 40
0.0714285714285714
 40
0.0714285714285714
 40
0.1428571428571429
 40
0.1428571428571429
 40
0.1428571428571429
 40
0.1428571428571429
 40
0.2142857142857143
 40
0.2142857142857143
 40
0.2142857142857143
 40
0.2142857142857143
 40
0.2857142857142857
 40
0.2857142857142857
 40
0.2857142857142857
 40
0.2857142857142857
 40
0.3571428571428571
 40
0.3571428571428571
 40
0.3571428571428571
 40
0.3571428571428571
 40
0.4285714285714285
 40
0.4285714285714285
 40
0.4285714285714285
 40
0.4285714285714285
 40
0.4999999999999999
 40
0.4999999999999999
 40
0.4999999999999999
 40
0.4999999999999999
 40
0.5714285714285713
 40
0.5714285714285713
 40
0.5714285714285713
 40
0.5714285714285713
 40
0.6428571428571427
 40
0.6428571428571427
 40
0.6428571428571427
 40
0.6428571428571427
 40
0.7142857142857141
 40
0.7142857142857141
 40
0.7142857142857141
 40
0.7142857142857141
 40
0.7857142857142855
 40
0.7857142857142855
 40
0.7857142857142855
 40
0.7857142857142855
 40
0.8571428571428569
 40
0.8571428571428569
 40
0.8571428571428569
 40
0.8571428571428569
 40
0.9285714285714283
 40
0.9285714285714283
 40
0.9285714285714283
 40
0.9285714285714283
 40
1.0
 40
1.0
 40
1.0
 40
1.0
 10
-1.08386220472441
 20
1.191137795275591
 30
0.0
 10
-1.08386220472441
 20
1.191137795275591
 30
0.0
 10
-1.088251968503937
 20
1.196527559055118
 30
0.0
 10
-1.088251968503937
 20
1.196527559055118
 30
0.0
 10
-1.088251968503937
 20
1.196527559055118
 30
0.0
 10
-1.077137795275591
 20
1.205582677165354
 30
0.0
 10
-1.071555118110236
 20
1.213137795275591
 30
0.0
 10
-1.071555118110236
 20
1.219220472440945
 30
0.0
 10
-1.071555118110236
 20
1.219220472440945
 30
0.0
 10
-1.071555118110236
 20
1.219913385826772
 30
0.0
 10
-1.071610236220473
 20
1.220803149606299
 30
0.0
 10
-1.071724409448819
 20
1.221830708661417
 30
0.0
 10
-1.071724409448819
 20
1.221830708661417
 30
0.0
 10
-1.072637795275591
 20
1.22144094488189
 30
0.0
 10
-1.073555118110236
 20
1.221137795275591
 30
0.0
 10
-1.074417322834646
 20
1.22094094488189
 30
0.0
 10
-1.074417322834646
 20
1.22094094488189
 30
0.0
 10
-1.075279527559055
 20
1.220720472440945
 30
0.0
 10
-1.076082677165354
 20
1.220610236220473
 30
0.0
 10
-1.076862204724409
 20
1.220610236220473
 30
0.0
 10
-1.076862204724409
 20
1.220610236220473
 30
0.0
 10
-1.079472440944882
 20
1.220610236220473
 30
0.0
 10
-1.081555118110236
 20
1.22144094488189
 30
0.0
 10
-1.083110236220473
 20
1.223137795275591
 30
0.0
 10
-1.083110236220473
 20
1.223137795275591
 30
0.0
 10
-1.084696850393701
 20
1.224803149606299
 30
0.0
 10
-1.085472440944882
 20
1.22694094488189
 30
0.0
 10
-1.085472440944882
 20
1.229555118110236
 30
0.0
 10
-1.085472440944882
 20
1.229555118110236
 30
0.0
 10
-1.085472440944882
 20
1.232110236220473
 30
0.0
 10
-1.084527559055118
 20
1.234330708661418
 30
0.0
 10
-1.082637795275591
 20
1.236220472440945
 30
0.0
 10
-1.082637795275591
 20
1.236220472440945
 30
0.0
 10
-1.080724409448819
 20
1.238137795275591
 30
0.0
 10
-1.078444881889764
 20
1.239082677165355
 30
0.0
 10
-1.075807086614173
 20
1.239082677165355
 30
0.0
 10
-1.075807086614173
 20
1.239082677165355
 30
0.0
 10
-1.072110236220472
 20
1.239082677165355
 30
0.0
 10
-1.068944881889764
 20
1.237610236220472
 30
0.0
 10
-1.066307086614173
 20
1.234637795275591
 30
0.0
 10
-1.066307086614173
 20
1.234637795275591
 30
0.0
 10
-1.063696850393701
 20
1.231692913385827
 30
0.0
 10
-1.06236220472441
 20
1.227885826771654
 30
0.0
 10
-1.06236220472441
 20
1.223220472440945
 30
0.0
 10
-1.06236220472441
 20
1.223220472440945
 30
0.0
 10
-1.06236220472441
 20
1.220165354330709
 30
0.0
 10
-1.063
 20
1.216968503937008
 30
0.0
 10
-1.064251968503937
 20
1.213637795275591
 30
0.0
 10
-1.064251968503937
 20
1.213637795275591
 30
0.0
 10
-1.0655
 20
1.210303149606299
 30
0.0
 10
-1.067307086614173
 20
1.207220472440945
 30
0.0
 10
-1.069696850393701
 20
1.204358267716535
 30
0.0
 10
-1.069696850393701
 20
1.204358267716535
 30
0.0
 10
-1.072082677165354
 20
1.201527559055118
 30
0.0
 10
-1.076807086614173
 20
1.197110236220472
 30
0.0
 10
-1.08386220472441
 20
1.191137795275591
 30
0.0
  0
SPLINE
  5
45
330
1F
100
AcDbEntity
  8
LAYER_1
 62
   250
100
AcDbSpline
210
0.0
220
0.0
230
1.0
 70
    11
 71
     3
 72
    60
 73
    56
 74
     0
 42
0.0000000001
 43
0.0000000001
 40
0.0
 40
0.0
 40
0.0
 40
0.0
 40
0.0714285714285714
 40
0.0714285714285714
 40
0.0714285714285714
 40
0.0714285714285714
 40
0.1428571428571429
 40
0.1428571428571429
 40
0.1428571428571429
 40
0.1428571428571429
 40
0.2142857142857143
 40
0.2142857142857143
 40
0.2142857142857143
 40
0.2142857142857143
 40
0.2857142857142857
 40
0.2857142857142857
 40
0.2857142857142857
 40
0.2857142857142857
 40
0.3571428571428571
 40
0.3571428571428571
 40
0.3571428571428571
 40
0.3571428571428571
 40
0.4285714285714285
 40
0.4285714285714285
 40
0.4285714285714285
 40
0.4285714285714285
 40
0.4999999999999999
 40
0.4999999999999999
 40
0.4999999999999999
 40
0.4999999999999999
 40
0.5714285714285713
 40
0.5714285714285713
 40
0.5714285714285713
 40
0.5714285714285713
 40
0.6428571428571427
 40
0.6428571428571427
 40
0.6428571428571427
 40
0.6428571428571427
 40
0.7142857142857141
 40
0.7142857142857141
 40
0.7142857142857141
 40
0.7142857142857141
 40
0.7857142857142855
 40
0.7857142857142855
 40
0.7857142857142855
 40
0.7857142857142855
 40
0.8571428571428569
 40
0.8571428571428569
 40
0.8571428571428569
 40
0.8571428571428569
 40
0.9285714285714283
 40
0.9285714285714283
 40
0.9285714285714283
 40
0.9285714285714283
 40
1.0
 40
1.0
 40
1.0
 40
1.0
 10
-1.054807086614173
 20
1.191137795275591
 30
0.0
 10
-1.054807086614173
 20
1.191137795275591
 30
0.0
 10
-1.059196850393701
 20
1.196527559055118
 30
0.0
 10
-1.059196850393701
 20
1.196527559055118
 30
0.0
 10
-1.059196850393701
 20
1.196527559055118
 30
0.0
 10
-1.048082677165354
 20
1.205582677165354
 30
0.0
 10
-1.0425
 20
1.213137795275591
 30
0.0
 10
-1.0425
 20
1.219220472440945
 30
0.0
 10
-1.0425
 20
1.219220472440945
 30
0.0
 10
-1.0425
 20
1.219913385826772
 30
0.0
 10
-1.042555118110236
 20
1.220803149606299
 30
0.0
 10
-1.042669291338583
 20
1.221830708661417
 30
0.0
 10
-1.042669291338583
 20
1.221830708661417
 30
0.0
 10
-1.043582677165355
 20
1.22144094488189
 30
0.0
 10
-1.0445
 20
1.221137795275591
 30
0.0
 10
-1.04536220472441
 20
1.22094094488189
 30
0.0
 10
-1.04536220472441
 20
1.22094094488189
 30
0.0
 10
-1.046224409448819
 20
1.220720472440945
 30
0.0
 10
-1.047055118110236
 20
1.220610236220473
 30
0.0
 10
-1.047889763779528
 20
1.220610236220473
 30
0.0
 10
-1.047889763779528
 20
1.220610236220473
 30
0.0
 10
-1.050444881889764
 20
1.220610236220473
 30
0.0
 10
-1.0525
 20
1.22144094488189
 30
0.0
 10
-1.054055118110236
 20
1.223137795275591
 30
0.0
 10
-1.054055118110236
 20
1.223137795275591
 30
0.0
 10
-1.055637795275591
 20
1.224803149606299
 30
0.0
 10
-1.056417322834646
 20
1.22694094488189
 30
0.0
 10
-1.056417322834646
 20
1.229555118110236
 30
0.0
 10
-1.056417322834646
 20
1.229555118110236
 30
0.0
 10
-1.056417322834646
 20
1.232110236220473
 30
0.0
 10
-1.055472440944882
 20
1.234330708661418
 30
0.0
 10
-1.053582677165355
 20
1.236220472440945
 30
0.0
 10
-1.053582677165355
 20
1.236220472440945
 30
0.0
 10
-1.051696850393701
 20
1.238137795275591
 30
0.0
 10
-1.049389763779528
 20
1.239082677165355
 30
0.0
 10
-1.046751968503937
 20
1.239082677165355
 30
0.0
 10
-1.046751968503937
 20
1.239082677165355
 30
0.0
 10
-1.043055118110236
 20
1.239082677165355
 30
0.0
 10
-1.039889763779528
 20
1.237610236220472
 30
0.0
 10
-1.037251968503937
 20
1.234637795275591
 30
0.0
 10
-1.037251968503937
 20
1.234637795275591
 30
0.0
 10
-1.034641732283465
 20
1.231692913385827
 30
0.0
 10
-1.033307086614173
 20
1.227885826771654
 30
0.0
 10
-1.033307086614173
 20
1.223220472440945
 30
0.0
 10
-1.033307086614173
 20
1.223220472440945
 30
0.0
 10
-1.033307086614173
 20
1.220165354330709
 30
0.0
 10
-1.033944881889764
 20
1.216968503937008
 30
0.0
 10
-1.035196850393701
 20
1.213637795275591
 30
0.0
 10
-1.035196850393701
 20
1.213637795275591
 30
0.0
 10
-1.036444881889764
 20
1.210303149606299
 30
0.0
 10
-1.038251968503937
 20
1.207220472440945
 30
0.0
 10
-1.040637795275591
 20
1.204358267716535
 30
0.0
 10
-1.040637795275591
 20
1.204358267716535
 30
0.0
 10
-1.043027559055118
 20
1.201527559055118
 30
0.0
 10
-1.047751968503937
 20
1.197110236220472
 30
0.0
 10
-1.054807086614173
 20
1.191137795275591
 30
0.0
  0
SPLINE
  5
47
330
1F
100
AcDbEntity
  8
P1-LAYER_1
 62
   253
100
AcDbSpline
210
0.0
220
0.0
230
1.0
 70
    11
 71
     3
 72
    20
 73
    16
 74
     0
 42
0.0000000001
 43
0.0000000001
 40
0.0
 40
0.0
 40
0.0
 40
0.0
 40
0.25
 40
0.25
 40
0.25
 40
0.25
 40
0.5
 40
0.5
 40
0.5
 40
0.5
 40
0.75
 40
0.75
 40
0.75
 40
0.75
 40
1.0
 40
1.0
 40
1.0
 40
1.0
 10
1.899204724409449
 20
3.529031496062992
 30
0.0
 10
1.899204724409449
 20
3.529031496062992
 30
0.0
 10
2.549314960629921
 20
3.154314960629921
 30
0.0
 10
2.549314960629921
 20
3.154314960629921
 30
0.0
 10
2.549314960629921
 20
3.154314960629921
 30
0.0
 10
2.549314960629921
 20
3.154314960629921
 30
0.0
 10
2.549314960629921
 20
2.702082677165354
 30
0.0
 10
2.549314960629921
 20
2.702082677165354
 30
0.0
 10
2.549314960629921
 20
2.702082677165354
 30
0.0
 10
2.549314960629921
 20
2.702082677165354
 30
0.0
 10
1.899204724409449
 20
3.076799212598425
 30
0.0
 10
1.899204724409449
 20
3.076799212598425
 30
0.0
 10
1.899204724409449
 20
3.076799212598425
 30
0.0
 10
1.899204724409449
 20
3.076799212598425
 30
0.0
 10
1.899204724409449
 20
3.529031496062992
 30
0.0
 10
1.899204724409449
 20
3.529031496062992
 30
0.0
  0
SPLINE
  5
48
330
1F
100
AcDbEntity
  8
P1-LAYER_1
 62
   250
100
AcDbSpline
210
0.0
220
0.0
230
1.0
 70
    11
 71
     3
 72
    20
 73
    16
 74
     0
 42
0.0000000001
 43
0.0000000001
 40
0.0
 40
0.0
 40
0.0
 40
0.0
 40
0.25
 40
0.25
 40
0.25
 40
0.25
 40
0.5
 40
0.5
 40
0.5
 40
0.5
 40
0.75
 40
0.75
 40
0.75
 40
0.75
 40
1.0
 40
1.0
 40
1.0
 40
1.0
 10
1.899204724409449
 20
3.529031496062992
 30
0.0
 10
1.899204724409449
 20
3.529031496062992
 30
0.0
 10
2.549314960629921
 20
3.154314960629921
 30
0.0
 10
2.549314960629921
 20
3.154314960629921
 30
0.0
 10
2.549314960629921
 20
3.154314960629921
 30
0.0
 10
2.549314960629921
 20
3.154314960629921
 30
0.0
 10
2.549314960629921
 20
2.702082677165354
 30
0.0
 10
2.549314960629921
 20
2.702082677165354
 30
0.0
 10
2.549314960629921
 20
2.702082677165354
 30
0.0
 10
2.549314960629921
 20
2.702082677165354
 30
0.0
 10
1.899204724409449
 20
3.076799212598425
 30
0.0
 10
1.899204724409449
 20
3.076799212598425
 30
0.0
 10
1.899204724409449
 20
3.076799212598425
 30
0.0
 10
1.899204724409449
 20
3.076799212598425
 30
0.0
 10
1.899204724409449
 20
3.529031496062992
 30
0.0
 10
1.899204724409449
 20
3.529031496062992
 30
0.0
  0
SPLINE
  5
49
330
1F
100
AcDbEntity
  8
P1-LAYER_1
 62
   253
100
AcDbSpline
210
0.0
220
0.0
230
1.0
 70
    11
 71
     3
 72
    20
 73
    16
 74
     0
 42
0.0000000001
 43
0.0000000001
 40
0.0
 40
0.0
 40
0.0
 40
0.0
 40
0.25
 40
0.25
 40
0.25
 40
0.25
 40
0.5
 40
0.5
 40
0.5
 40
0.5
 40
0.75
 40
0.75
 40
0.75
 40
0.75
 40
1.0
 40
1.0
 40
1.0
 40
1.0
 10
1.899204724409449
 20
3.076799212598425
 30
0.0
 10
1.899204724409449
 20
3.076799212598425
 30
0.0
 10
2.549314960629921
 20
2.702082677165354
 30
0.0
 10
2.549314960629921
 20
2.702082677165354
 30
0.0
 10
2.549314960629921
 20
2.702082677165354
 30
0.0
 10
2.549314960629921
 20
2.702082677165354
 30
0.0
 10
2.459015748031496
 20
2.670346456692914
 30
0.0
 10
2.459015748031496
 20
2.670346456692914
 30
0.0
 10
2.459015748031496
 20
2.670346456692914
 30
0.0
 10
2.459015748031496
 20
2.670346456692914
 30
0.0
 10
1.808905511811024
 20
3.045062992125984
 30
0.0
 10
1.808905511811024
 20
3.045062992125984
 30
0.0
 10
1.808905511811024
 20
3.045062992125984
 30
0.0
 10
1.808905511811024
 20
3.045062992125984
 30
0.0
 10
1.899204724409449
 20
3.076799212598425
 30
0.0
 10
1.899204724409449
 20
3.076799212598425
 30
0.0
  0
SPLINE
  5
4A
330
1F
100
AcDbEntity
  8
P1-LAYER_1
 62
   253
100
AcDbSpline
210
0.0
220
0.0
230
1.0
 70
    11
 71
     3
 72
    20
 73
    16
 74
     0
 42
0.0000000001
 43
0.0000000001
 40
0.0
 40
0.0
 40
0.0
 40
0.0
 40
0.25
 40
0.25
 40
0.25
 40
0.25
 40
0.5
 40
0.5
 40
0.5
 40
0.5
 40
0.75
 40
0.75
 40
0.75
 40
0.75
 40
1.0
 40
1.0
 40
1.0
 40
1.0
 10
1.808905511811024
 20
3.045062992125984
 30
0.0
 10
1.808905511811024
 20
3.045062992125984
 30
0.0
 10
2.459015748031496
 20
2.670346456692914
 30
0.0
 10
2.459015748031496
 20
2.670346456692914
 30
0.0
 10
2.459015748031496
 20
2.670346456692914
 30
0.0
 10
2.459015748031496
 20
2.670346456692914
 30
0.0
 10
2.374255905511811
 20
2.635771653543307
 30
0.0
 10
2.374255905511811
 20
2.635771653543307
 30
0.0
 10
2.374255905511811
 20
2.635771653543307
 30
0.0
 10
2.374255905511811
 20
2.635771653543307
 30
0.0
 10
1.724145669291339
 20
3.010488188976378
 30
0.0
 10
1.724145669291339
 20
3.010488188976378
 30
0.0
 10
1.724145669291339
 20
3.010488188976378
 30
0.0
 10
1.724145669291339
 20
3.010488188976378
 30
0.0
 10
1.808905511811024
 20
3.045062992125984
 30
0.0
 10
1.808905511811024
 20
3.045062992125984
 30
0.0
  0
SPLINE
  5
4B
330
1F
100
AcDbEntity
  8
P1-LAYER_1
 62
   253
100
AcDbSpline
210
0.0
220
0.0
230
1.0
 70
    11
 71
     3
 72
    20
 73
    16
 74
     0
 42
0.0000000001
 43
0.0000000001
 40
0.0
 40
0.0
 40
0.0
 40
0.0
 40
0.25
 40
0.25
 40
0.25
 40
0.25
 40
0.5
 40
0.5
 40
0.5
 40
0.5
 40
0.75
 40
0.75
 40
0.75
 40
0.75
 40
1.0
 40
1.0
 40
1.0
 40
1.0
 10
1.724145669291339
 20
3.010488188976378
 30
0.0
 10
1.724145669291339
 20
3.010488188976378
 30
0.0
 10
2.374255905511811
 20
2.635771653543307
 30
0.0
 10
2.374255905511811
 20
2.635771653543307
 30
0.0
 10
2.374255905511811
 20
2.635771653543307
 30
0.0
 10
2.374255905511811
 20
2.635771653543307
 30
0.0
 10
2.29484251968504
 20
2.598338582677166
 30
0.0
 10
2.29484251968504
 20
2.598338582677166
 30
0.0
 10
2.29484251968504
 20
2.598338582677166
 30
0.0
 10
2.29484251968504
 20
2.598338582677166
 30
0.0
 10
1.644732283464567
 20
2.973055118110236
 30
0.0
 10
1.644732283464567
 20
2.973055118110236
 30
0.0
 10
1.644732283464567
 20
2.973055118110236
 30
0.0
 10
1.644732283464567
 20
2.973055118110236
 30
0.0
 10
1.724145669291339
 20
3.010488188976378
 30
0.0
 10
1.724145669291339
 20
3.010488188976378
 30
0.0
  0
SPLINE
  5
4C
330
1F
100
AcDbEntity
  8
P1-LAYER_1
 62
   253
100
AcDbSpline
210
0.0
220
0.0
230
1.0
 70
    11
 71
     3
 72
    20
 73
    16
 74
     0
 42
0.0000000001
 43
0.0000000001
 40
0.0
 40
0.0
 40
0.0
 40
0.0
 40
0.25
 40
0.25
 40
0.25
 40
0.25
 40
0.5
 40
0.5
 40
0.5
 40
0.5
 40
0.75
 40
0.75
 40
0.75
 40
0.75
 40
1.0
 40
1.0
 40
1.0
 40
1.0
 10
1.644732283464567
 20
2.973055118110236
 30
0.0
 10
1.644732283464567
 20
2.973055118110236
 30
0.0
 10
2.29484251968504
 20
2.598338582677166
 30
0.0
 10
2.29484251968504
 20
2.598338582677166
 30
0.0
 10
2.29484251968504
 20
2.598338582677166
 30
0.0
 10
2.29484251968504
 20
2.598338582677166
 30
0.0
 10
2.220618110236221
 20
2.55801968503937
 30
0.0
 10
2.220618110236221
 20
2.55801968503937
 30
0.0
 10
2.220618110236221
 20
2.55801968503937
 30
0.0
 10
2.220618110236221
 20
2.55801968503937
 30
0.0
 10
1.570507874015748
 20
2.932736220472441
 30
0.0
 10
1.570507874015748
 20
2.932736220472441
 30
0.0
 10
1.570507874015748
 20
2.932736220472441
 30
0.0
 10
1.570507874015748
 20
2.932736220472441
 30
0.0
 10
1.644732283464567
 20
2.973055118110236
 30
0.0
 10
1.644732283464567
 20
2.973055118110236
 30
0.0
  0
SPLINE
  5
4D
330
1F
100
AcDbEntity
  8
P1-LAYER_1
 62
   253
100
AcDbSpline
210
0.0
220
0.0
230
1.0
 70
    11
 71
     3
 72
    20
 73
    16
 74
     0
 42
0.0000000001
 43
0.0000000001
 40
0.0
 40
0.0
 40
0.0
 40
0.0
 40
0.25
 40
0.25
 40
0.25
 40
0.25
 40
0.5
 40
0.5
 40
0.5
 40
0.5
 40
0.75
 40
0.75
 40
0.75
 40
0.75
 40
1.0
 40
1.0
 40
1.0
 40
1.0
 10
1.570507874015748
 20
2.932736220472441
 30
0.0
 10
1.570507874015748
 20
2.932736220472441
 30
0.0
 10
2.220618110236221
 20
2.55801968503937
 30
0.0
 10
2.220618110236221
 20
2.55801968503937
 30
0.0
 10
2.220618110236221
 20
2.55801968503937
 30
0.0
 10
2.220618110236221
 20
2.55801968503937
 30
0.0
 10
2.151385826771654
 20
2.514799212598425
 30
0.0
 10
2.151385826771654
 20
2.514799212598425
 30
0.0
 10
2.151385826771654
 20
2.514799212598425
 30
0.0
 10
2.151385826771654
 20
2.514799212598425
 30
0.0
 10
1.501275590551181
 20
2.889515748031496
 30
0.0
 10
1.501275590551181
 20
2.889515748031496
 30
0.0
 10
1.501275590551181
 20
2.889515748031496
 30
0.0
 10
1.501275590551181
 20
2.889515748031496
 30
0.0
 10
1.570507874015748
 20
2.932736220472441
 30
0.0
 10
1.570507874015748
 20
2.932736220472441
 30
0.0
  0
SPLINE
  5
4E
330
1F
100
AcDbEntity
  8
P1-LAYER_1
 62
   253
100
AcDbSpline
210
0.0
220
0.0
230
1.0
 70
    11
 71
     3
 72
    20
 73
    16
 74
     0
 42
0.0000000001
 43
0.0000000001
 40
0.0
 40
0.0
 40
0.0
 40
0.0
 40
0.25
 40
0.25
 40
0.25
 40
0.25
 40
0.5
 40
0.5
 40
0.5
 40
0.5
 40
0.75
 40
0.75
 40
0.75
 40
0.75
 40
1.0
 40
1.0
 40
1.0
 40
1.0
 10
1.501275590551181
 20
2.889515748031496
 30
0.0
 10
1.501275590551181
 20
2.889515748031496
 30
0.0
 10
2.151385826771654
 20
2.514799212598425
 30
0.0
 10
2.151385826771654
 20
2.514799212598425
 30
0.0
 10
2.151385826771654
 20
2.514799212598425
 30
0.0
 10
2.151385826771654
 20
2.514799212598425
 30
0.0
 10
2.086988188976378
 20
2.468649606299213
 30
0.0
 10
2.086988188976378
 20
2.468649606299213
 30
0.0
 10
2.086988188976378
 20
2.468649606299213
 30
0.0
 10
2.086988188976378
 20
2.468649606299213
 30
0.0
 10
1.436877952755906
 20
2.843366141732284
 30
0.0
 10
1.436877952755906
 20
2.843366141732284
 30
0.0
 10
1.436877952755906
 20
2.843366141732284
 30
0.0
 10
1.436877952755906
 20
2.843366141732284
 30
0.0
 10
1.501275590551181
 20
2.889515748031496
 30
0.0
 10
1.501275590551181
 20
2.889515748031496
 30
0.0
  0
SPLINE
  5
4F
330
1F
100
AcDbEntity
  8
P1-LAYER_1
 62
   253
100
AcDbSpline
210
0.0
220
0.0
230
1.0
 70
    11
 71
     3
 72
    20
 73
    16
 74
     0
 42
0.0000000001
 43
0.0000000001
 40
0.0
 40
0.0
 40
0.0
 40
0.0
 40
0.25
 40
0.25
 40
0.25
 40
0.25
 40
0.5
 40
0.5
 40
0.5
 40
0.5
 40
0.75
 40
0.75
 40
0.75
 40
0.75
 40
1.0
 40
1.0
 40
1.0
 40
1.0
 10
1.436877952755906
 20
2.843366141732284
 30
0.0
 10
1.436877952755906
 20
2.843366141732284
 30
0.0
 10
2.086988188976378
 20
2.468649606299213
 30
0.0
 10
2.086988188976378
 20
2.468649606299213
 30
0.0
 10
2.086988188976378
 20
2.468649606299213
 30
0.0
 10
2.086988188976378
 20
2.468649606299213
 30
0.0
 10
2.027240157480315
 20
2.419551181102362
 30
0.0
 10
2.027240157480315
 20
2.419551181102362
 30
0.0
 10
2.027240157480315
 20
2.419551181102362
 30
0.0
 10
2.027240157480315
 20
2.419551181102362
 30
0.0
 10
1.377129921259843
 20
2.794267716535433
 30
0.0
 10
1.377129921259843
 20
2.794267716535433
 30
0.0
 10
1.377129921259843
 20
2.794267716535433
 30
0.0
 10
1.377129921259843
 20
2.794267716535433
 30
0.0
 10
1.436877952755906
 20
2.843366141732284
 30
0.0
 10
1.436877952755906
 20
2.843366141732284
 30
0.0
  0
SPLINE
  5
50
330
1F
100
AcDbEntity
  8
P1-LAYER_1
 62
   253
100
AcDbSpline
210
0.0
220
0.0
230
1.0
 70
    11
 71
     3
 72
    20
 73
    16
 74
     0
 42
0.0000000001
 43
0.0000000001
 40
0.0
 40
0.0
 40
0.0
 40
0.0
 40
0.25
 40
0.25
 40
0.25
 40
0.25
 40
0.5
 40
0.5
 40
0.5
 40
0.5
 40
0.75
 40
0.75
 40
0.75
 40
0.75
 40
1.0
 40
1.0
 40
1.0
 40
1.0
 10
1.377129921259843
 20
2.794267716535433
 30
0.0
 10
1.377129921259843
 20
2.794267716535433
 30
0.0
 10
2.027240157480315
 20
2.419551181102362
 30
0.0
 10
2.027240157480315
 20
2.419551181102362
 30
0.0
 10
2.027240157480315
 20
2.419551181102362
 30
0.0
 10
2.027240157480315
 20
2.419551181102362
 30
0.0
 10
1.971972440944882
 20
2.367472440944882
 30
0.0
 10
1.971972440944882
 20
2.367472440944882
 30
0.0
 10
1.971972440944882
 20
2.367472440944882
 30
0.0
 10
1.971972440944882
 20
2.367472440944882
 30
0.0
 10
1.32186220472441
 20
2.742188976377953
 30
0.0
 10
1.32186220472441
 20
2.742188976377953
 30
0.0
 10
1.32186220472441
 20
2.742188976377953
 30
0.0
 10
1.32186220472441
 20
2.742188976377953
 30
0.0
 10
1.377129921259843
 20
2.794267716535433
 30
0.0
 10
1.377129921259843
 20
2.794267716535433
 30
0.0
  0
SPLINE
  5
51
330
1F
100
AcDbEntity
  8
P1-LAYER_1
 62
   253
100
AcDbSpline
210
0.0
220
0.0
230
1.0
 70
    11
 71
     3
 72
    20
 73
    16
 74
     0
 42
0.0000000001
 43
0.0000000001
 40
0.0
 40
0.0
 40
0.0
 40
0.0
 40
0.25
 40
0.25
 40
0.25
 40
0.25
 40
0.5
 40
0.5
 40
0.5
 40
0.5
 40
0.75
 40
0.75
 40
0.75
 40
0.75
 40
1.0
 40
1.0
 40
1.0
 40
1.0
 10
1.32186220472441
 20
2.742188976377953
 30
0.0
 10
1.32186220472441
 20
2.742188976377953
 30
0.0
 10
1.971972440944882
 20
2.367472440944882
 30
0.0
 10
1.971972440944882
 20
2.367472440944882
 30
0.0
 10
1.971972440944882
 20
2.367472440944882
 30
0.0
 10
1.971972440944882
 20
2.367472440944882
 30
0.0
 10
1.921007874015748
 20
2.312405511811024
 30
0.0
 10
1.921007874015748
 20
2.312405511811024
 30
0.0
 10
1.921007874015748
 20
2.312405511811024
 30
0.0
 10
1.921007874015748
 20
2.312405511811024
 30
0.0
 10
1.270897637795276
 20
2.687122047244094
 30
0.0
 10
1.270897637795276
 20
2.687122047244094
 30
0.0
 10
1.270897637795276
 20
2.687122047244094
 30
0.0
 10
1.270897637795276
 20
2.687122047244094
 30
0.0
 10
1.32186220472441
 20
2.742188976377953
 30
0.0
 10
1.32186220472441
 20
2.742188976377953
 30
0.0
  0
SPLINE
  5
52
330
1F
100
AcDbEntity
  8
P1-LAYER_1
 62
   253
100
AcDbSpline
210
0.0
220
0.0
230
1.0
 70
    11
 71
     3
 72
    20
 73
    16
 74
     0
 42
0.0000000001
 43
0.0000000001
 40
0.0
 40
0.0
 40
0.0
 40
0.0
 40
0.25
 40
0.25
 40
0.25
 40
0.25
 40
0.5
 40
0.5
 40
0.5
 40
0.5
 40
0.75
 40
0.75
 40
0.75
 40
0.75
 40
1.0
 40
1.0
 40
1.0
 40
1.0
 10
1.270897637795276
 20
2.687122047244094
 30
0.0
 10
1.270897637795276
 20
2.687122047244094
 30
0.0
 10
1.921007874015748
 20
2.312405511811024
 30
0.0
 10
1.921007874015748
 20
2.312405511811024
 30
0.0
 10
1.921007874015748
 20
2.312405511811024
 30
0.0
 10
1.921007874015748
 20
2.312405511811024
 30
0.0
 10
1.874161417322835
 20
2.254314960629921
 30
0.0
 10
1.874161417322835
 20
2.254314960629921
 30
0.0
 10
1.874161417322835
 20
2.254314960629921
 30
0.0
 10
1.874161417322835
 20
2.254314960629921
 30
0.0
 10
1.224051181102362
 20
2.629031496062992
 30
0.0
 10
1.224051181102362
 20
2.629031496062992
 30
0.0
 10
1.224051181102362
 20
2.629031496062992
 30
0.0
 10
1.224051181102362
 20
2.629031496062992
 30
0.0
 10
1.270897637795276
 20
2.687122047244094
 30
0.0
 10
1.270897637795276
 20
2.687122047244094
 30
0.0
  0
SPLINE
  5
53
330
1F
100
AcDbEntity
  8
P1-LAYER_1
 62
   253
100
AcDbSpline
210
0.0
220
0.0
230
1.0
 70
    11
 71
     3
 72
    20
 73
    16
 74
     0
 42
0.0000000001
 43
0.0000000001
 40
0.0
 40
0.0
 40
0.0
 40
0.0
 40
0.25
 40
0.25
 40
0.25
 40
0.25
 40
0.5
 40
0.5
 40
0.5
 40
0.5
 40
0.75
 40
0.75
 40
0.75
 40
0.75
 40
1.0
 40
1.0
 40
1.0
 40
1.0
 10
1.224051181102362
 20
2.629031496062992
 30
0.0
 10
1.224051181102362
 20
2.629031496062992
 30
0.0
 10
1.874161417322835
 20
2.254314960629921
 30
0.0
 10
1.874161417322835
 20
2.254314960629921
 30
0.0
 10
1.874161417322835
 20
2.254314960629921
 30
0.0
 10
1.874161417322835
 20
2.254314960629921
 30
0.0
 10
1.831271653543307
 20
2.193188976377953
 30
0.0
 10
1.831271653543307
 20
2.193188976377953
 30
0.0
 10
1.831271653543307
 20
2.193188976377953
 30
0.0
 10
1.831271653543307
 20
2.193188976377953
 30
0.0
 10
1.181161417322835
 20
2.567905511811024
 30
0.0
 10
1.181161417322835
 20
2.567905511811024
 30
0.0
 10
1.181161417322835
 20
2.567905511811024
 30
0.0
 10
1.181161417322835
 20
2.567905511811024
 30
0.0
 10
1.224051181102362
 20
2.629031496062992
 30
0.0
 10
1.224051181102362
 20
2.629031496062992
 30
0.0
  0
SPLINE
  5
54
330
1F
100
AcDbEntity
  8
P1-LAYER_1
 62
   253
100
AcDbSpline
210
0.0
220
0.0
230
1.0
 70
    11
 71
     3
 72
    20
 73
    16
 74
     0
 42
0.0000000001
 43
0.0000000001
 40
0.0
 40
0.0
 40
0.0
 40
0.0
 40
0.25
 40
0.25
 40
0.25
 40
0.25
 40
0.5
 40
0.5
 40
0.5
 40
0.5
 40
0.75
 40
0.75
 40
0.75
 40
0.75
 40
1.0
 40
1.0
 40
1.0
 40
1.0
 10
1.181161417322835
 20
2.567905511811024
 30
0.0
 10
1.181161417322835
 20
2.567905511811024
 30
0.0
 10
1.831271653543307
 20
2.193188976377953
 30
0.0
 10
1.831271653543307
 20
2.193188976377953
 30
0.0
 10
1.831271653543307
 20
2.193188976377953
 30
0.0
 10
1.831271653543307
 20
2.193188976377953
 30
0.0
 10
1.792145669291339
 20
2.128984251968504
 30
0.0
 10
1.792145669291339
 20
2.128984251968504
 30
0.0
 10
1.792145669291339
 20
2.128984251968504
 30
0.0
 10
1.792145669291339
 20
2.128984251968504
 30
0.0
 10
1.142035433070866
 20
2.503700787401575
 30
0.0
 10
1.142035433070866
 20
2.503700787401575
 30
0.0
 10
1.142035433070866
 20
2.503700787401575
 30
0.0
 10
1.142035433070866
 20
2.503700787401575
 30
0.0
 10
1.181161417322835
 20
2.567905511811024
 30
0.0
 10
1.181161417322835
 20
2.567905511811024
 30
0.0
  0
SPLINE
  5
55
330
1F
100
AcDbEntity
  8
P1-LAYER_1
 62
   253
100
AcDbSpline
210
0.0
220
0.0
230
1.0
 70
    11
 71
     3
 72
    20
 73
    16
 74
     0
 42
0.0000000001
 43
0.0000000001
 40
0.0
 40
0.0
 40
0.0
 40
0.0
 40
0.25
 40
0.25
 40
0.25
 40
0.25
 40
0.5
 40
0.5
 40
0.5
 40
0.5
 40
0.75
 40
0.75
 40
0.75
 40
0.75
 40
1.0
 40
1.0
 40
1.0
 40
1.0
 10
1.142035433070866
 20
2.503700787401575
 30
0.0
 10
1.142035433070866
 20
2.503700787401575
 30
0.0
 10
1.792145669291339
 20
2.128984251968504
 30
0.0
 10
1.792145669291339
 20
2.128984251968504
 30
0.0
 10
1.792145669291339
 20
2.128984251968504
 30
0.0
 10
1.792145669291339
 20
2.128984251968504
 30
0.0
 10
1.756629921259843
 20
2.061700787401575
 30
0.0
 10
1.756629921259843
 20
2.061700787401575
 30
0.0
 10
1.756629921259843
 20
2.061700787401575
 30
0.0
 10
1.756629921259843
 20
2.061700787401575
 30
0.0
 10
1.10651968503937
 20
2.436417322834646
 30
0.0
 10
1.10651968503937
 20
2.436417322834646
 30
0.0
 10
1.10651968503937
 20
2.436417322834646
 30
0.0
 10
1.10651968503937
 20
2.436417322834646
 30
0.0
 10
1.142035433070866
 20
2.503700787401575
 30
0.0
 10
1.142035433070866
 20
2.503700787401575
 30
0.0
  0
SPLINE
  5
56
330
1F
100
AcDbEntity
  8
P1-LAYER_1
 62
   253
100
AcDbSpline
210
0.0
220
0.0
230
1.0
 70
    11
 71
     3
 72
    20
 73
    16
 74
     0
 42
0.0000000001
 43
0.0000000001
 40
0.0
 40
0.0
 40
0.0
 40
0.0
 40
0.25
 40
0.25
 40
0.25
 40
0.25
 40
0.5
 40
0.5
 40
0.5
 40
0.5
 40
0.75
 40
0.75
 40
0.75
 40
0.75
 40
1.0
 40
1.0
 40
1.0
 40
1.0
 10
1.10651968503937
 20
2.436417322834646
 30
0.0
 10
1.10651968503937
 20
2.436417322834646
 30
0.0
 10
1.756629921259843
 20
2.061700787401575
 30
0.0
 10
1.756629921259843
 20
2.061700787401575
 30
0.0
 10
1.756629921259843
 20
2.061700787401575
 30
0.0
 10
1.756629921259843
 20
2.061700787401575
 30
0.0
 10
1.724535433070866
 20
1.991299212598425
 30
0.0
 10
1.724535433070866
 20
1.991299212598425
 30
0.0
 10
1.724535433070866
 20
1.991299212598425
 30
0.0
 10
1.724535433070866
 20
1.991299212598425
 30
0.0
 10
1.074425196850394
 20
2.366015748031496
 30
0.0
 10
1.074425196850394
 20
2.366015748031496
 30
0.0
 10
1.074425196850394
 20
2.366015748031496
 30
0.0
 10
1.074425196850394
 20
2.366015748031496
 30
0.0
 10
1.10651968503937
 20
2.436417322834646
 30
0.0
 10
1.10651968503937
 20
2.436417322834646
 30
0.0
  0
SPLINE
  5
57
330
1F
100
AcDbEntity
  8
P1-LAYER_1
 62
   253
100
AcDbSpline
210
0.0
220
0.0
230
1.0
 70
    11
 71
     3
 72
    20
 73
    16
 74
     0
 42
0.0000000001
 43
0.0000000001
 40
0.0
 40
0.0
 40
0.0
 40
0.0
 40
0.25
 40
0.25
 40
0.25
 40
0.25
 40
0.5
 40
0.5
 40
0.5
 40
0.5
 40
0.75
 40
0.75
 40
0.75
 40
0.75
 40
1.0
 40
1.0
 40
1.0
 40
1.0
 10
1.074425196850394
 20
2.366015748031496
 30
0.0
 10
1.074425196850394
 20
2.366015748031496
 30
0.0
 10
1.724535433070866
 20
1.991299212598425
 30
0.0
 10
1.724535433070866
 20
1.991299212598425
 30
0.0
 10
1.724535433070866
 20
1.991299212598425
 30
0.0
 10
1.724535433070866
 20
1.991299212598425
 30
0.0
 10
1.695692913385827
 20
1.917767716535433
 30
0.0
 10
1.695692913385827
 20
1.917767716535433
 30
0.0
 10
1.695692913385827
 20
1.917767716535433
 30
0.0
 10
1.695692913385827
 20
1.917767716535433
 30
0.0
 10
1.045582677165355
 20
2.292484251968504
 30
0.0
 10
1.045582677165355
 20
2.292484251968504
 30
0.0
 10
1.045582677165355
 20
2.292484251968504
 30
0.0
 10
1.045582677165355
 20
2.292484251968504
 30
0.0
 10
1.074425196850394
 20
2.366015748031496
 30
0.0
 10
1.074425196850394
 20
2.366015748031496
 30
0.0
  0
SPLINE
  5
58
330
1F
100
AcDbEntity
  8
P1-LAYER_1
 62
   253
100
AcDbSpline
210
0.0
220
0.0
230
1.0
 70
    11
 71
     3
 72
    20
 73
    16
 74
     0
 42
0.0000000001
 43
0.0000000001
 40
0.0
 40
0.0
 40
0.0
 40
0.0
 40
0.25
 40
0.25
 40
0.25
 40
0.25
 40
0.5
 40
0.5
 40
0.5
 40
0.5
 40
0.75
 40
0.75
 40
0.75
 40
0.75
 40
1.0
 40
1.0
 40
1.0
 40
1.0
 10
1.045582677165355
 20
2.292484251968504
 30
0.0
 10
1.045582677165355
 20
2.292484251968504
 30
0.0
 10
1.695692913385827
 20
1.917767716535433
 30
0.0
 10
1.695692913385827
 20
1.917767716535433
 30
0.0
 10
1.695692913385827
 20
1.917767716535433
 30
0.0
 10
1.695692913385827
 20
1.917767716535433
 30
0.0
 10
1.669917322834646
 20
1.841074803149607
 30
0.0
 10
1.669917322834646
 20
1.841074803149607
 30
0.0
 10
1.669917322834646
 20
1.841074803149607
 30
0.0
 10
1.669917322834646
 20
1.841074803149607
 30
0.0
 10
1.019807086614173
 20
2.215791338582677
 30
0.0
 10
1.019807086614173
 20
2.215791338582677
 30
0.0
 10
1.019807086614173
 20
2.215791338582677
 30
0.0
 10
1.019807086614173
 20
2.215791338582677
 30
0.0
 10
1.045582677165355
 20
2.292484251968504
 30
0.0
 10
1.045582677165355
 20
2.292484251968504
 30
0.0
  0
SPLINE
  5
59
330
1F
100
AcDbEntity
  8
P1-LAYER_1
 62
   253
100
AcDbSpline
210
0.0
220
0.0
230
1.0
 70
    11
 71
     3
 72
    20
 73
    16
 74
     0
 42
0.0000000001
 43
0.0000000001
 40
0.0
 40
0.0
 40
0.0
 40
0.0
 40
0.25
 40
0.25
 40
0.25
 40
0.25
 40
0.5
 40
0.5
 40
0.5
 40
0.5
 40
0.75
 40
0.75
 40
0.75
 40
0.75
 40
1.0
 40
1.0
 40
1.0
 40
1.0
 10
1.019807086614173
 20
2.215791338582677
 30
0.0
 10
1.019807086614173
 20
2.215791338582677
 30
0.0
 10
1.669917322834646
 20
1.841074803149607
 30
0.0
 10
1.669917322834646
 20
1.841074803149607
 30
0.0
 10
1.669917322834646
 20
1.841074803149607
 30
0.0
 10
1.669917322834646
 20
1.841074803149607
 30
0.0
 10
1.647051181102362
 20
1.761212598425197
 30
0.0
 10
1.647051181102362
 20
1.761212598425197
 30
0.0
 10
1.647051181102362
 20
1.761212598425197
 30
0.0
 10
1.647051181102362
 20
1.761212598425197
 30
0.0
 10
0.9969409448818898
 20
2.135929133858268
 30
0.0
 10
0.9969409448818898
 20
2.135929133858268
 30
0.0
 10
0.9969409448818898
 20
2.135929133858268
 30
0.0
 10
0.9969409448818898
 20
2.135929133858268
 30
0.0
 10
1.019807086614173
 20
2.215791338582677
 30
0.0
 10
1.019807086614173
 20
2.215791338582677
 30
0.0
  0
SPLINE
  5
5A
330
1F
100
AcDbEntity
  8
P1-LAYER_1
 62
   253
100
AcDbSpline
210
0.0
220
0.0
230
1.0
 70
    11
 71
     3
 72
    20
 73
    16
 74
     0
 42
0.0000000001
 43
0.0000000001
 40
0.0
 40
0.0
 40
0.0
 40
0.0
 40
0.25
 40
0.25
 40
0.25
 40
0.25
 40
0.5
 40
0.5
 40
0.5
 40
0.5
 40
0.75
 40
0.75
 40
0.75
 40
0.75
 40
1.0
 40
1.0
 40
1.0
 40
1.0
 10
0.9969409448818898
 20
2.135929133858268
 30
0.0
 10
0.9969409448818898
 20
2.135929133858268
 30
0.0
 10
1.647051181102362
 20
1.761212598425197
 30
0.0
 10
1.647051181102362
 20
1.761212598425197
 30
0.0
 10
1.647051181102362
 20
1.761212598425197
 30
0.0
 10
1.647051181102362
 20
1.761212598425197
 30
0.0
 10
1.626905511811024
 20
1.678137795275591
 30
0.0
 10
1.626905511811024
 20
1.678137795275591
 30
0.0
 10
1.626905511811024
 20
1.678137795275591
 30
0.0
 10
1.626905511811024
 20
1.678137795275591
 30
0.0
 10
0.9767952755905512
 20
2.052854330708661
 30
0.0
 10
0.9767952755905512
 20
2.052854330708661
 30
0.0
 10
0.9767952755905512
 20
2.052854330708661
 30
0.0
 10
0.9767952755905512
 20
2.052854330708661
 30
0.0
 10
0.9969409448818898
 20
2.135929133858268
 30
0.0
 10
0.9969409448818898
 20
2.135929133858268
 30
0.0
  0
SPLINE
  5
5B
330
1F
100
AcDbEntity
  8
P1-LAYER_1
 62
   253
100
AcDbSpline
210
0.0
220
0.0
230
1.0
 70
    11
 71
     3
 72
    20
 73
    16
 74
     0
 42
0.0000000001
 43
0.0000000001
 40
0.0
 40
0.0
 40
0.0
 40
0.0
 40
0.25
 40
0.25
 40
0.25
 40
0.25
 40
0.5
 40
0.5
 40
0.5
 40
0.5
 40
0.75
 40
0.75
 40
0.75
 40
0.75
 40
1.0
 40
1.0
 40
1.0
 40
1.0
 10
0.9767952755905512
 20
2.052854330708661
 30
0.0
 10
0.9767952755905512
 20
2.052854330708661
 30
0.0
 10
1.626905511811024
 20
1.678137795275591
 30
0.0
 10
1.626905511811024
 20
1.678137795275591
 30
0.0
 10
1.626905511811024
 20
1.678137795275591
 30
0.0
 10
1.626905511811024
 20
1.678137795275591
 30
0.0
 10
1.609314960629921
 20
1.591846456692913
 30
0.0
 10
1.609314960629921
 20
1.591846456692913
 30
0.0
 10
1.609314960629921
 20
1.591846456692913
 30
0.0
 10
1.609314960629921
 20
1.591846456692913
 30
0.0
 10
0.9592047244094488
 20
1.966562992125984
 30
0.0
 10
0.9592047244094488
 20
1.966562992125984
 30
0.0
 10
0.9592047244094488
 20
1.966562992125984
 30
0.0
 10
0.9592047244094488
 20
1.966562992125984
 30
0.0
 10
0.9767952755905512
 20
2.052854330708661
 30
0.0
 10
0.9767952755905512
 20
2.052854330708661
 30
0.0
  0
SPLINE
  5
5C
330
1F
100
AcDbEntity
  8
P1-LAYER_1
 62
   253
100
AcDbSpline
210
0.0
220
0.0
230
1.0
 70
    11
 71
     3
 72
    20
 73
    16
 74
     0
 42
0.0000000001
 43
0.0000000001
 40
0.0
 40
0.0
 40
0.0
 40
0.0
 40
0.25
 40
0.25
 40
0.25
 40
0.25
 40
0.5
 40
0.5
 40
0.5
 40
0.5
 40
0.75
 40
0.75
 40
0.75
 40
0.75
 40
1.0
 40
1.0
 40
1.0
 40
1.0
 10
0.9592047244094488
 20
1.966562992125984
 30
0.0
 10
0.9592047244094488
 20
1.966562992125984
 30
0.0
 10
1.609314960629921
 20
1.591846456692913
 30
0.0
 10
1.609314960629921
 20
1.591846456692913
 30
0.0
 10
1.609314960629921
 20
1.591846456692913
 30
0.0
 10
1.609314960629921
 20
1.591846456692913
 30
0.0
 10
1.594086614173228
 20
1.502295275590551
 30
0.0
 10
1.594086614173228
 20
1.502295275590551
 30
0.0
 10
1.594086614173228
 20
1.502295275590551
 30
0.0
 10
1.594086614173228
 20
1.502295275590551
 30
0.0
 10
0.9439763779527559
 20
1.877011811023622
 30
0.0
 10
0.9439763779527559
 20
1.877011811023622
 30
0.0
 10
0.9439763779527559
 20
1.877011811023622
 30
0.0
 10
0.9439763779527559
 20
1.877011811023622
 30
0.0
 10
0.9592047244094488
 20
1.966562992125984
 30
0.0
 10
0.9592047244094488
 20
1.966562992125984
 30
0.0
  0
SPLINE
  5
5D
330
1F
100
AcDbEntity
  8
P1-LAYER_1
 62
   253
100
AcDbSpline
210
0.0
220
0.0
230
1.0
 70
    11
 71
     3
 72
    20
 73
    16
 74
     0
 42
0.0000000001
 43
0.0000000001
 40
0.0
 40
0.0
 40
0.0
 40
0.0
 40
0.25
 40
0.25
 40
0.25
 40
0.25
 40
0.5
 40
0.5
 40
0.5
 40
0.5
 40
0.75
 40
0.75
 40
0.75
 40
0.75
 40
1.0
 40
1.0
 40
1.0
 40
1.0
 10
0.9439763779527559
 20
1.877011811023622
 30
0.0
 10
0.9439763779527559
 20
1.877011811023622
 30
0.0
 10
1.594086614173228
 20
1.502295275590551
 30
0.0
 10
1.594086614173228
 20
1.502295275590551
 30
0.0
 10
1.594086614173228
 20
1.502295275590551
 30
0.0
 10
1.594086614173228
 20
1.502295275590551
 30
0.0
 10
1.581066929133858
 20
1.409484251968504
 30
0.0
 10
1.581066929133858
 20
1.409484251968504
 30
0.0
 10
1.581066929133858
 20
1.409484251968504
 30
0.0
 10
1.581066929133858
 20
1.409484251968504
 30
0.0
 10
0.9309566929133859
 20
1.784200787401575
 30
0.0
 10
0.9309566929133859
 20
1.784200787401575
 30
0.0
 10
0.9309566929133859
 20
1.784200787401575
 30
0.0
 10
0.9309566929133859
 20
1.784200787401575
 30
0.0
 10
0.9439763779527559
 20
1.877011811023622
 30
0.0
 10
0.9439763779527559
 20
1.877011811023622
 30
0.0
  0
SPLINE
  5
5E
330
1F
100
AcDbEntity
  8
P1-LAYER_1
 62
   253
100
AcDbSpline
210
0.0
220
0.0
230
1.0
 70
    11
 71
     3
 72
    20
 73
    16
 74
     0
 42
0.0000000001
 43
0.0000000001
 40
0.0
 40
0.0
 40
0.0
 40
0.0
 40
0.25
 40
0.25
 40
0.25
 40
0.25
 40
0.5
 40
0.5
 40
0.5
 40
0.5
 40
0.75
 40
0.75
 40
0.75
 40
0.75
 40
1.0
 40
1.0
 40
1.0
 40
1.0
 10
0.9309566929133859
 20
1.784200787401575
 30
0.0
 10
0.9309566929133859
 20
1.784200787401575
 30
0.0
 10
1.581066929133858
 20
1.409484251968504
 30
0.0
 10
1.581066929133858
 20
1.409484251968504
 30
0.0
 10
1.581066929133858
 20
1.409484251968504
 30
0.0
 10
1.581066929133858
 20
1.409484251968504
 30
0.0
 10
1.570062992125984
 20
1.313370078740157
 30
0.0
 10
1.570062992125984
 20
1.313370078740157
 30
0.0
 10
1.570062992125984
 20
1.313370078740157
 30
0.0
 10
1.570062992125984
 20
1.313370078740157
 30
0.0
 10
0.9199527559055118
 20
1.688086614173229
 30
0.0
 10
0.9199527559055118
 20
1.688086614173229
 30
0.0
 10
0.9199527559055118
 20
1.688086614173229
 30
0.0
 10
0.9199527559055118
 20
1.688086614173229
 30
0.0
 10
0.9309566929133859
 20
1.784200787401575
 30
0.0
 10
0.9309566929133859
 20
1.784200787401575
 30
0.0
  0
SPLINE
  5
5F
330
1F
100
AcDbEntity
  8
P1-LAYER_1
 62
   253
100
AcDbSpline
210
0.0
220
0.0
230
1.0
 70
    11
 71
     3
 72
    20
 73
    16
 74
     0
 42
0.0000000001
 43
0.0000000001
 40
0.0
 40
0.0
 40
0.0
 40
0.0
 40
0.25
 40
0.25
 40
0.25
 40
0.25
 40
0.5
 40
0.5
 40
0.5
 40
0.5
 40
0.75
 40
0.75
 40
0.75
 40
0.75
 40
1.0
 40
1.0
 40
1.0
 40
1.0
 10
0.9199527559055118
 20
1.688086614173229
 30
0.0
 10
0.9199527559055118
 20
1.688086614173229
 30
0.0
 10
1.570062992125984
 20
1.313370078740157
 30
0.0
 10
1.570062992125984
 20
1.313370078740157
 30
0.0
 10
1.570062992125984
 20
1.313370078740157
 30
0.0
 10
1.570062992125984
 20
1.313370078740157
 30
0.0
 10
1.560909448818898
 20
1.21394094488189
 30
0.0
 10
1.560909448818898
 20
1.21394094488189
 30
0.0
 10
1.560909448818898
 20
1.21394094488189
 30
0.0
 10
1.560909448818898
 20
1.21394094488189
 30
0.0
 10
0.9107992125984252
 20
1.588657480314961
 30
0.0
 10
0.9107992125984252
 20
1.588657480314961
 30
0.0
 10
0.9107992125984252
 20
1.588657480314961
 30
0.0
 10
0.9107992125984252
 20
1.588657480314961
 30
0.0
 10
0.9199527559055118
 20
1.688086614173229
 30
0.0
 10
0.9199527559055118
 20
1.688086614173229
 30
0.0
  0
SPLINE
  5
60
330
1F
100
AcDbEntity
  8
P1-LAYER_1
 62
   253
100
AcDbSpline
210
0.0
220
0.0
230
1.0
 70
    11
 71
     3
 72
    20
 73
    16
 74
     0
 42
0.0000000001
 43
0.0000000001
 40
0.0
 40
0.0
 40
0.0
 40
0.0
 40
0.25
 40
0.25
 40
0.25
 40
0.25
 40
0.5
 40
0.5
 40
0.5
 40
0.5
 40
0.75
 40
0.75
 40
0.75
 40
0.75
 40
1.0
 40
1.0
 40
1.0
 40
1.0
 10
0.9107992125984252
 20
1.588657480314961
 30
0.0
 10
0.9107992125984252
 20
1.588657480314961
 30
0.0
 10
1.560909448818898
 20
1.21394094488189
 30
0.0
 10
1.560909448818898
 20
1.21394094488189
 30
0.0
 10
1.560909448818898
 20
1.21394094488189
 30
0.0
 10
1.560909448818898
 20
1.21394094488189
 30
0.0
 10
1.55342125984252
 20
1.111165354330709
 30
0.0
 10
1.55342125984252
 20
1.111165354330709
 30
0.0
 10
1.55342125984252
 20
1.111165354330709
 30
0.0
 10
1.55342125984252
 20
1.111165354330709
 30
0.0
 10
0.9033110236220473
 20
1.48588188976378
 30
0.0
 10
0.9033110236220473
 20
1.48588188976378
 30
0.0
 10
0.9033110236220473
 20
1.48588188976378
 30
0.0
 10
0.9033110236220473
 20
1.48588188976378
 30
0.0
 10
0.9107992125984252
 20
1.588657480314961
 30
0.0
 10
0.9107992125984252
 20
1.588657480314961
 30
0.0
  0
SPLINE
  5
61
330
1F
100
AcDbEntity
  8
P1-LAYER_1
 62
   253
100
AcDbSpline
210
0.0
220
0.0
230
1.0
 70
    11
 71
     3
 72
    20
 73
    16
 74
     0
 42
0.0000000001
 43
0.0000000001
 40
0.0
 40
0.0
 40
0.0
 40
0.0
 40
0.25
 40
0.25
 40
0.25
 40
0.25
 40
0.5
 40
0.5
 40
0.5
 40
0.5
 40
0.75
 40
0.75
 40
0.75
 40
0.75
 40
1.0
 40
1.0
 40
1.0
 40
1.0
 10
0.9033110236220473
 20
1.48588188976378
 30
0.0
 10
0.9033110236220473
 20
1.48588188976378
 30
0.0
 10
1.55342125984252
 20
1.111165354330709
 30
0.0
 10
1.55342125984252
 20
1.111165354330709
 30
0.0
 10
1.55342125984252
 20
1.111165354330709
 30
0.0
 10
1.55342125984252
 20
1.111165354330709
 30
0.0
 10
1.54744094488189
 20
1.005035433070866
 30
0.0
 10
1.54744094488189
 20
1.005035433070866
 30
0.0
 10
1.54744094488189
 20
1.005035433070866
 30
0.0
 10
1.54744094488189
 20
1.005035433070866
 30
0.0
 10
0.8973307086614174
 20
1.379751968503937
 30
0.0
 10
0.8973307086614174
 20
1.379751968503937
 30
0.0
 10
0.8973307086614174
 20
1.379751968503937
 30
0.0
 10
0.8973307086614174
 20
1.379751968503937
 30
0.0
 10
0.9033110236220473
 20
1.48588188976378
 30
0.0
 10
0.9033110236220473
 20
1.48588188976378
 30
0.0
  0
SPLINE
  5
62
330
1F
100
AcDbEntity
  8
P1-LAYER_1
 62
   253
100
AcDbSpline
210
0.0
220
0.0
230
1.0
 70
    11
 71
     3
 72
    20
 73
    16
 74
     0
 42
0.0000000001
 43
0.0000000001
 40
0.0
 40
0.0
 40
0.0
 40
0.0
 40
0.25
 40
0.25
 40
0.25
 40
0.25
 40
0.5
 40
0.5
 40
0.5
 40
0.5
 40
0.75
 40
0.75
 40
0.75
 40
0.75
 40
1.0
 40
1.0
 40
1.0
 40
1.0
 10
0.8973307086614174
 20
1.379751968503937
 30
0.0
 10
0.8973307086614174
 20
1.379751968503937
 30
0.0
 10
1.54744094488189
 20
1.005035433070866
 30
0.0
 10
1.54744094488189
 20
1.005035433070866
 30
0.0
 10
1.54744094488189
 20
1.005035433070866
 30
0.0
 10
1.54744094488189
 20
1.005035433070866
 30
0.0
 10
1.542779527559055
 20
0.8955157480314961
 30
0.0
 10
1.542779527559055
 20
0.8955157480314961
 30
0.0
 10
1.542779527559055
 20
0.8955157480314961
 30
0.0
 10
1.542779527559055
 20
0.8955157480314961
 30
0.0
 10
0.8926692913385828
 20
1.270232283464567
 30
0.0
 10
0.8926692913385828
 20
1.270232283464567
 30
0.0
 10
0.8926692913385828
 20
1.270232283464567
 30
0.0
 10
0.8926692913385828
 20
1.270232283464567
 30
0.0
 10
0.8973307086614174
 20
1.379751968503937
 30
0.0
 10
0.8973307086614174
 20
1.379751968503937
 30
0.0
  0
SPLINE
  5
63
330
1F
100
AcDbEntity
  8
P1-LAYER_1
 62
   253
100
AcDbSpline
210
0.0
220
0.0
230
1.0
 70
    11
 71
     3
 72
    20
 73
    16
 74
     0
 42
0.0000000001
 43
0.0000000001
 40
0.0
 40
0.0
 40
0.0
 40
0.0
 40
0.25
 40
0.25
 40
0.25
 40
0.25
 40
0.5
 40
0.5
 40
0.5
 40
0.5
 40
0.75
 40
0.75
 40
0.75
 40
0.75
 40
1.0
 40
1.0
 40
1.0
 40
1.0
 10
0.8926692913385828
 20
1.270232283464567
 30
0.0
 10
0.8926692913385828
 20
1.270232283464567
 30
0.0
 10
1.542779527559055
 20
0.8955157480314961
 30
0.0
 10
1.542779527559055
 20
0.8955157480314961
 30
0.0
 10
1.542779527559055
 20
0.8955157480314961
 30
0.0
 10
1.542779527559055
 20
0.8955157480314961
 30
0.0
 10
1.539263779527559
 20
0.7825905511811024
 30
0.0
 10
1.539263779527559
 20
0.7825905511811024
 30
0.0
 10
1.539263779527559
 20
0.7825905511811024
 30
0.0
 10
1.539263779527559
 20
0.7825905511811024
 30
0.0
 10
0.8891535433070866
 20
1.157307086614173
 30
0.0
 10
0.8891535433070866
 20
1.157307086614173
 30
0.0
 10
0.8891535433070866
 20
1.157307086614173
 30
0.0
 10
0.8891535433070866
 20
1.157307086614173
 30
0.0
 10
0.8926692913385828
 20
1.270232283464567
 30
0.0
 10
0.8926692913385828
 20
1.270232283464567
 30
0.0
  0
SPLINE
  5
64
330
1F
100
AcDbEntity
  8
P1-LAYER_1
 62
   253
100
AcDbSpline
210
0.0
220
0.0
230
1.0
 70
    11
 71
     3
 72
    20
 73
    16
 74
     0
 42
0.0000000001
 43
0.0000000001
 40
0.0
 40
0.0
 40
0.0
 40
0.0
 40
0.25
 40
0.25
 40
0.25
 40
0.25
 40
0.5
 40
0.5
 40
0.5
 40
0.5
 40
0.75
 40
0.75
 40
0.75
 40
0.75
 40
1.0
 40
1.0
 40
1.0
 40
1.0
 10
0.8891535433070866
 20
1.157307086614173
 30
0.0
 10
0.8891535433070866
 20
1.157307086614173
 30
0.0
 10
1.539263779527559
 20
0.7825905511811024
 30
0.0
 10
1.539263779527559
 20
0.7825905511811024
 30
0.0
 10
1.539263779527559
 20
0.7825905511811024
 30
0.0
 10
1.539263779527559
 20
0.7825905511811024
 30
0.0
 10
1.536716535433071
 20
0.6662244094488189
 30
0.0
 10
1.536716535433071
 20
0.6662244094488189
 30
0.0
 10
1.536716535433071
 20
0.6662244094488189
 30
0.0
 10
1.536716535433071
 20
0.6662244094488189
 30
0.0
 10
0.8866062992125985
 20
1.04094094488189
 30
0.0
 10
0.8866062992125985
 20
1.04094094488189
 30
0.0
 10
0.8866062992125985
 20
1.04094094488189
 30
0.0
 10
0.8866062992125985
 20
1.04094094488189
 30
0.0
 10
0.8891535433070866
 20
1.157307086614173
 30
0.0
 10
0.8891535433070866
 20
1.157307086614173
 30
0.0
  0
SPLINE
  5
65
330
1F
100
AcDbEntity
  8
P1-LAYER_1
 62
   253
100
AcDbSpline
210
0.0
220
0.0
230
1.0
 70
    11
 71
     3
 72
    20
 73
    16
 74
     0
 42
0.0000000001
 43
0.0000000001
 40
0.0
 40
0.0
 40
0.0
 40
0.0
 40
0.25
 40
0.25
 40
0.25
 40
0.25
 40
0.5
 40
0.5
 40
0.5
 40
0.5
 40
0.75
 40
0.75
 40
0.75
 40
0.75
 40
1.0
 40
1.0
 40
1.0
 40
1.0
 10
0.8866062992125985
 20
1.04094094488189
 30
0.0
 10
0.8866062992125985
 20
1.04094094488189
 30
0.0
 10
1.536716535433071
 20
0.6662244094488189
 30
0.0
 10
1.536716535433071
 20
0.6662244094488189
 30
0.0
 10
1.536716535433071
 20
0.6662244094488189
 30
0.0
 10
1.536716535433071
 20
0.6662244094488189
 30
0.0
 10
1.534968503937008
 20
0.5464094488188976
 30
0.0
 10
1.534968503937008
 20
0.5464094488188976
 30
0.0
 10
1.534968503937008
 20
0.5464094488188976
 30
0.0
 10
1.534968503937008
 20
0.5464094488188976
 30
0.0
 10
0.8848582677165354
 20
0.9211259842519686
 30
0.0
 10
0.8848582677165354
 20
0.9211259842519686
 30
0.0
 10
0.8848582677165354
 20
0.9211259842519686
 30
0.0
 10
0.8848582677165354
 20
0.9211259842519686
 30
0.0
 10
0.8866062992125985
 20
1.04094094488189
 30
0.0
 10
0.8866062992125985
 20
1.04094094488189
 30
0.0
  0
SPLINE
  5
66
330
1F
100
AcDbEntity
  8
P1-LAYER_1
 62
   253
100
AcDbSpline
210
0.0
220
0.0
230
1.0
 70
    11
 71
     3
 72
    20
 73
    16
 74
     0
 42
0.0000000001
 43
0.0000000001
 40
0.0
 40
0.0
 40
0.0
 40
0.0
 40
0.25
 40
0.25
 40
0.25
 40
0.25
 40
0.5
 40
0.5
 40
0.5
 40
0.5
 40
0.75
 40
0.75
 40
0.75
 40
0.75
 40
1.0
 40
1.0
 40
1.0
 40
1.0
 10
0.8848582677165354
 20
0.9211259842519686
 30
0.0
 10
0.8848582677165354
 20
0.9211259842519686
 30
0.0
 10
1.534968503937008
 20
0.5464094488188976
 30
0.0
 10
1.534968503937008
 20
0.5464094488188976
 30
0.0
 10
1.534968503937008
 20
0.5464094488188976
 30
0.0
 10
1.534968503937008
 20
0.5464094488188976
 30
0.0
 10
1.533838582677165
 20
0.4231141732283465
 30
0.0
 10
1.533838582677165
 20
0.4231141732283465
 30
0.0
 10
1.533838582677165
 20
0.4231141732283465
 30
0.0
 10
1.533838582677165
 20
0.4231141732283465
 30
0.0
 10
0.883728346456693
 20
0.7978307086614174
 30
0.0
 10
0.883728346456693
 20
0.7978307086614174
 30
0.0
 10
0.883728346456693
 20
0.7978307086614174
 30
0.0
 10
0.883728346456693
 20
0.7978307086614174
 30
0.0
 10
0.8848582677165354
 20
0.9211259842519686
 30
0.0
 10
0.8848582677165354
 20
0.9211259842519686
 30
0.0
  0
SPLINE
  5
67
330
1F
100
AcDbEntity
  8
P1-LAYER_1
 62
   253
100
AcDbSpline
210
0.0
220
0.0
230
1.0
 70
    11
 71
     3
 72
    20
 73
    16
 74
     0
 42
0.0000000001
 43
0.0000000001
 40
0.0
 40
0.0
 40
0.0
 40
0.0
 40
0.25
 40
0.25
 40
0.25
 40
0.25
 40
0.5
 40
0.5
 40
0.5
 40
0.5
 40
0.75
 40
0.75
 40
0.75
 40
0.75
 40
1.0
 40
1.0
 40
1.0
 40
1.0
 10
0.883728346456693
 20
0.7978307086614174
 30
0.0
 10
0.883728346456693
 20
0.7978307086614174
 30
0.0
 10
1.533838582677165
 20
0.4231141732283465
 30
0.0
 10
1.533838582677165
 20
0.4231141732283465
 30
0.0
 10
1.533838582677165
 20
0.4231141732283465
 30
0.0
 10
1.533838582677165
 20
0.4231141732283465
 30
0.0
 10
1.533157480314961
 20
0.2963188976377953
 30
0.0
 10
1.533157480314961
 20
0.2963188976377953
 30
0.0
 10
1.533157480314961
 20
0.2963188976377953
 30
0.0
 10
1.533157480314961
 20
0.2963188976377953
 30
0.0
 10
0.8830472440944882
 20
0.6710354330708662
 30
0.0
 10
0.8830472440944882
 20
0.6710354330708662
 30
0.0
 10
0.8830472440944882
 20
0.6710354330708662
 30
0.0
 10
0.8830472440944882
 20
0.6710354330708662
 30
0.0
 10
0.883728346456693
 20
0.7978307086614174
 30
0.0
 10
0.883728346456693
 20
0.7978307086614174
 30
0.0
  0
SPLINE
  5
68
330
1F
100
AcDbEntity
  8
P1-LAYER_1
 62
   253
100
AcDbSpline
210
0.0
220
0.0
230
1.0
 70
    11
 71
     3
 72
    20
 73
    16
 74
     0
 42
0.0000000001
 43
0.0000000001
 40
0.0
 40
0.0
 40
0.0
 40
0.0
 40
0.25
 40
0.25
 40
0.25
 40
0.25
 40
0.5
 40
0.5
 40
0.5
 40
0.5
 40
0.75
 40
0.75
 40
0.75
 40
0.75
 40
1.0
 40
1.0
 40
1.0
 40
1.0
 10
0.8830472440944882
 20
0.6710354330708662
 30
0.0
 10
0.8830472440944882
 20
0.6710354330708662
 30
0.0
 10
1.533157480314961
 20
0.2963188976377953
 30
0.0
 10
1.533157480314961
 20
0.2963188976377953
 30
0.0
 10
1.533157480314961
 20
0.2963188976377953
 30
0.0
 10
1.533157480314961
 20
0.2963188976377953
 30
0.0
 10
1.532740157480315
 20
0.165996062992126
 30
0.0
 10
1.532740157480315
 20
0.165996062992126
 30
0.0
 10
1.532740157480315
 20
0.165996062992126
 30
0.0
 10
1.532740157480315
 20
0.165996062992126
 30
0.0
 10
0.8826299212598425
 20
0.5407125984251969
 30
0.0
 10
0.8826299212598425
 20
0.5407125984251969
 30
0.0
 10
0.8826299212598425
 20
0.5407125984251969
 30
0.0
 10
0.8826299212598425
 20
0.5407125984251969
 30
0.0
 10
0.8830472440944882
 20
0.6710354330708662
 30
0.0
 10
0.8830472440944882
 20
0.6710354330708662
 30
0.0
  0
SPLINE
  5
69
330
1F
100
AcDbEntity
  8
P1-LAYER_1
 62
   250
100
AcDbSpline
210
0.0
220
0.0
230
1.0
 70
    11
 71
     3
 72
   268
 73
   264
 74
     0
 42
0.0000000001
 43
0.0000000001
 40
0.0
 40
0.0
 40
0.0
 40
0.0
 40
0.0151515151515152
 40
0.0151515151515152
 40
0.0151515151515152
 40
0.0151515151515152
 40
0.0303030303030303
 40
0.0303030303030303
 40
0.0303030303030303
 40
0.0303030303030303
 40
0.0454545454545455
 40
0.0454545454545455
 40
0.0454545454545455
 40
0.0454545454545455
 40
0.0606060606060606
 40
0.0606060606060606
 40
0.0606060606060606
 40
0.0606060606060606
 40
0.0757575757575758
 40
0.0757575757575758
 40
0.0757575757575758
 40
0.0757575757575758
 40
0.0909090909090909
 40
0.0909090909090909
 40
0.0909090909090909
 40
0.0909090909090909
 40
0.1060606060606061
 40
0.1060606060606061
 40
0.1060606060606061
 40
0.1060606060606061
 40
0.1212121212121212
 40
0.1212121212121212
 40
0.1212121212121212
 40
0.1212121212121212
 40
0.1363636363636364
 40
0.1363636363636364
 40
0.1363636363636364
 40
0.1363636363636364
 40
0.1515151515151515
 40
0.1515151515151515
 40
0.1515151515151515
 40
0.1515151515151515
 40
0.1666666666666666
 40
0.1666666666666666
 40
0.1666666666666666
 40
0.1666666666666666
 40
0.1818181818181818
 40
0.1818181818181818
 40
0.1818181818181818
 40
0.1818181818181818
 40
0.1969696969696969
 40
0.1969696969696969
 40
0.1969696969696969
 40
0.1969696969696969
 40
0.212121212121212
 40
0.212121212121212
 40
0.212121212121212
 40
0.212121212121212
 40
0.2272727272727272
 40
0.2272727272727272
 40
0.2272727272727272
 40
0.2272727272727272
 40
0.2424242424242423
 40
0.2424242424242423
 40
0.2424242424242423
 40
0.2424242424242423
 40
0.2575757575757575
 40
0.2575757575757575
 40
0.2575757575757575
 40
0.2575757575757575
 40
0.2727272727272726
 40
0.2727272727272726
 40
0.2727272727272726
 40
0.2727272727272726
 40
0.2878787878787877
 40
0.2878787878787877
 40
0.2878787878787877
 40
0.2878787878787877
 40
0.3030303030303029
 40
0.3030303030303029
 40
0.3030303030303029
 40
0.3030303030303029
 40
0.318181818181818
 40
0.318181818181818
 40
0.318181818181818
 40
0.318181818181818
 40
0.3333333333333332
 40
0.3333333333333332
 40
0.3333333333333332
 40
0.3333333333333332
 40
0.3484848484848483
 40
0.3484848484848483
 40
0.3484848484848483
 40
0.3484848484848483
 40
0.3636363636363634
 40
0.3636363636363634
 40
0.3636363636363634
 40
0.3636363636363634
 40
0.3787878787878786
 40
0.3787878787878786
 40
0.3787878787878786
 40
0.3787878787878786
 40
0.3939393939393937
 40
0.3939393939393937
 40
0.3939393939393937
 40
0.3939393939393937
 40
0.4090909090909088
 40
0.4090909090909088
 40
0.4090909090909088
 40
0.4090909090909088
 40
0.424242424242424
 40
0.424242424242424
 40
0.424242424242424
 40
0.424242424242424
 40
0.4393939393939391
 40
0.4393939393939391
 40
0.4393939393939391
 40
0.4393939393939391
 40
0.4545454545454543
 40
0.4545454545454543
 40
0.4545454545454543
 40
0.4545454545454543
 40
0.4696969696969694
 40
0.4696969696969694
 40
0.4696969696969694
 40
0.4696969696969694
 40
0.4848484848484845
 40
0.4848484848484845
 40
0.4848484848484845
 40
0.4848484848484845
 40
0.4999999999999997
 40
0.4999999999999997
 40
0.4999999999999997
 40
0.4999999999999997
 40
0.5151515151515148
 40
0.5151515151515148
 40
0.5151515151515148
 40
0.5151515151515148
 40
0.5303030303030299
 40
0.5303030303030299
 40
0.5303030303030299
 40
0.5303030303030299
 40
0.5454545454545451
 40
0.5454545454545451
 40
0.5454545454545451
 40
0.5454545454545451
 40
0.5606060606060602
 40
0.5606060606060602
 40
0.5606060606060602
 40
0.5606060606060602
 40
0.5757575757575754
 40
0.5757575757575754
 40
0.5757575757575754
 40
0.5757575757575754
 40
0.5909090909090905
 40
0.5909090909090905
 40
0.5909090909090905
 40
0.5909090909090905
 40
0.6060606060606056
 40
0.6060606060606056
 40
0.6060606060606056
 40
0.6060606060606056
 40
0.6212121212121208
 40
0.6212121212121208
 40
0.6212121212121208
 40
0.6212121212121208
 40
0.6363636363636359
 40
0.6363636363636359
 40
0.6363636363636359
 40
0.6363636363636359
 40
0.6515151515151511
 40
0.6515151515151511
 40
0.6515151515151511
 40
0.6515151515151511
 40
0.6666666666666662
 40
0.6666666666666662
 40
0.6666666666666662
 40
0.6666666666666662
 40
0.6818181818181813
 40
0.6818181818181813
 40
0.6818181818181813
 40
0.6818181818181813
 40
0.6969696969696965
 40
0.6969696969696965
 40
0.6969696969696965
 40
0.6969696969696965
 40
0.7121212121212116
 40
0.7121212121212116
 40
0.7121212121212116
 40
0.7121212121212116
 40
0.7272727272727267
 40
0.7272727272727267
 40
0.7272727272727267
 40
0.7272727272727267
 40
0.7424242424242419
 40
0.7424242424242419
 40
0.7424242424242419
 40
0.7424242424242419
 40
0.757575757575757
 40
0.757575757575757
 40
0.757575757575757
 40
0.757575757575757
 40
0.7727272727272722
 40
0.7727272727272722
 40
0.7727272727272722
 40
0.7727272727272722
 40
0.7878787878787873
 40
0.7878787878787873
 40
0.7878787878787873
 40
0.7878787878787873
 40
0.8030303030303024
 40
0.8030303030303024
 40
0.8030303030303024
 40
0.8030303030303024
 40
0.8181818181818176
 40
0.8181818181818176
 40
0.8181818181818176
 40
0.8181818181818176
 40
0.8333333333333327
 40
0.8333333333333327
 40
0.8333333333333327
 40
0.8333333333333327
 40
0.8484848484848478
 40
0.8484848484848478
 40
0.8484848484848478
 40
0.8484848484848478
 40
0.863636363636363
 40
0.863636363636363
 40
0.863636363636363
 40
0.863636363636363
 40
0.8787878787878781
 40
0.8787878787878781
 40
0.8787878787878781
 40
0.8787878787878781
 40
0.8939393939393933
 40
0.8939393939393933
 40
0.8939393939393933
 40
0.8939393939393933
 40
0.9090909090909084
 40
0.9090909090909084
 40
0.9090909090909084
 40
0.9090909090909084
 40
0.9242424242424235
 40
0.9242424242424235
 40
0.9242424242424235
 40
0.9242424242424235
 40
0.9393939393939387
 40
0.9393939393939387
 40
0.9393939393939387
 40
0.9393939393939387
 40
0.9545454545454538
 40
0.9545454545454538
 40
0.9545454545454538
 40
0.9545454545454538
 40
0.969696969696969
 40
0.969696969696969
 40
0.969696969696969
 40
0.969696969696969
 40
0.9848484848484841
 40
0.9848484848484841
 40
0.9848484848484841
 40
0.9848484848484841
 40
1.0
 40
1.0
 40
1.0
 40
1.0
 10
1.899204724409449
 20
3.076799212598425
 30
0.0
 10
1.899204724409449
 20
3.076799212598425
 30
0.0
 10
2.549314960629921
 20
2.702082677165354
 30
0.0
 10
2.549314960629921
 20
2.702082677165354
 30
0.0
 10
2.549314960629921
 20
2.702082677165354
 30
0.0
 10
2.549314960629921
 20
2.702082677165354
 30
0.0
 10
2.459015748031496
 20
2.670346456692914
 30
0.0
 10
2.459015748031496
 20
2.670346456692914
 30
0.0
 10
2.459015748031496
 20
2.670346456692914
 30
0.0
 10
2.459015748031496
 20
2.670346456692914
 30
0.0
 10
2.374255905511811
 20
2.635771653543307
 30
0.0
 10
2.374255905511811
 20
2.635771653543307
 30
0.0
 10
2.374255905511811
 20
2.635771653543307
 30
0.0
 10
2.374255905511811
 20
2.635771653543307
 30
0.0
 10
2.29484251968504
 20
2.598338582677166
 30
0.0
 10
2.29484251968504
 20
2.598338582677166
 30
0.0
 10
2.29484251968504
 20
2.598338582677166
 30
0.0
 10
2.29484251968504
 20
2.598338582677166
 30
0.0
 10
2.220618110236221
 20
2.55801968503937
 30
0.0
 10
2.220618110236221
 20
2.55801968503937
 30
0.0
 10
2.220618110236221
 20
2.55801968503937
 30
0.0
 10
2.220618110236221
 20
2.55801968503937
 30
0.0
 10
2.151385826771654
 20
2.514799212598425
 30
0.0
 10
2.151385826771654
 20
2.514799212598425
 30
0.0
 10
2.151385826771654
 20
2.514799212598425
 30
0.0
 10
2.151385826771654
 20
2.514799212598425
 30
0.0
 10
2.086988188976378
 20
2.468649606299213
 30
0.0
 10
2.086988188976378
 20
2.468649606299213
 30
0.0
 10
2.086988188976378
 20
2.468649606299213
 30
0.0
 10
2.086988188976378
 20
2.468649606299213
 30
0.0
 10
2.027240157480315
 20
2.419551181102362
 30
0.0
 10
2.027240157480315
 20
2.419551181102362
 30
0.0
 10
2.027240157480315
 20
2.419551181102362
 30
0.0
 10
2.027240157480315
 20
2.419551181102362
 30
0.0
 10
1.971972440944882
 20
2.367472440944882
 30
0.0
 10
1.971972440944882
 20
2.367472440944882
 30
0.0
 10
1.971972440944882
 20
2.367472440944882
 30
0.0
 10
1.971972440944882
 20
2.367472440944882
 30
0.0
 10
1.921007874015748
 20
2.312405511811024
 30
0.0
 10
1.921007874015748
 20
2.312405511811024
 30
0.0
 10
1.921007874015748
 20
2.312405511811024
 30
0.0
 10
1.921007874015748
 20
2.312405511811024
 30
0.0
 10
1.874161417322835
 20
2.254314960629921
 30
0.0
 10
1.874161417322835
 20
2.254314960629921
 30
0.0
 10
1.874161417322835
 20
2.254314960629921
 30
0.0
 10
1.874161417322835
 20
2.254314960629921
 30
0.0
 10
1.831271653543307
 20
2.193188976377953
 30
0.0
 10
1.831271653543307
 20
2.193188976377953
 30
0.0
 10
1.831271653543307
 20
2.193188976377953
 30
0.0
 10
1.831271653543307
 20
2.193188976377953
 30
0.0
 10
1.792145669291339
 20
2.128984251968504
 30
0.0
 10
1.792145669291339
 20
2.128984251968504
 30
0.0
 10
1.792145669291339
 20
2.128984251968504
 30
0.0
 10
1.792145669291339
 20
2.128984251968504
 30
0.0
 10
1.756629921259843
 20
2.061700787401575
 30
0.0
 10
1.756629921259843
 20
2.061700787401575
 30
0.0
 10
1.756629921259843
 20
2.061700787401575
 30
0.0
 10
1.756629921259843
 20
2.061700787401575
 30
0.0
 10
1.724535433070866
 20
1.991299212598425
 30
0.0
 10
1.724535433070866
 20
1.991299212598425
 30
0.0
 10
1.724535433070866
 20
1.991299212598425
 30
0.0
 10
1.724535433070866
 20
1.991299212598425
 30
0.0
 10
1.695692913385827
 20
1.917767716535433
 30
0.0
 10
1.695692913385827
 20
1.917767716535433
 30
0.0
 10
1.695692913385827
 20
1.917767716535433
 30
0.0
 10
1.695692913385827
 20
1.917767716535433
 30
0.0
 10
1.669917322834646
 20
1.841074803149607
 30
0.0
 10
1.669917322834646
 20
1.841074803149607
 30
0.0
 10
1.669917322834646
 20
1.841074803149607
 30
0.0
 10
1.669917322834646
 20
1.841074803149607
 30
0.0
 10
1.647051181102362
 20
1.761212598425197
 30
0.0
 10
1.647051181102362
 20
1.761212598425197
 30
0.0
 10
1.647051181102362
 20
1.761212598425197
 30
0.0
 10
1.647051181102362
 20
1.761212598425197
 30
0.0
 10
1.626905511811024
 20
1.678137795275591
 30
0.0
 10
1.626905511811024
 20
1.678137795275591
 30
0.0
 10
1.626905511811024
 20
1.678137795275591
 30
0.0
 10
1.626905511811024
 20
1.678137795275591
 30
0.0
 10
1.609314960629921
 20
1.591846456692913
 30
0.0
 10
1.609314960629921
 20
1.591846456692913
 30
0.0
 10
1.609314960629921
 20
1.591846456692913
 30
0.0
 10
1.609314960629921
 20
1.591846456692913
 30
0.0
 10
1.594086614173228
 20
1.502295275590551
 30
0.0
 10
1.594086614173228
 20
1.502295275590551
 30
0.0
 10
1.594086614173228
 20
1.502295275590551
 30
0.0
 10
1.594086614173228
 20
1.502295275590551
 30
0.0
 10
1.581066929133858
 20
1.409484251968504
 30
0.0
 10
1.581066929133858
 20
1.409484251968504
 30
0.0
 10
1.581066929133858
 20
1.409484251968504
 30
0.0
 10
1.581066929133858
 20
1.409484251968504
 30
0.0
 10
1.570062992125984
 20
1.313370078740157
 30
0.0
 10
1.570062992125984
 20
1.313370078740157
 30
0.0
 10
1.570062992125984
 20
1.313370078740157
 30
0.0
 10
1.570062992125984
 20
1.313370078740157
 30
0.0
 10
1.560909448818898
 20
1.21394094488189
 30
0.0
 10
1.560909448818898
 20
1.21394094488189
 30
0.0
 10
1.560909448818898
 20
1.21394094488189
 30
0.0
 10
1.560909448818898
 20
1.21394094488189
 30
0.0
 10
1.55342125984252
 20
1.111165354330709
 30
0.0
 10
1.55342125984252
 20
1.111165354330709
 30
0.0
 10
1.55342125984252
 20
1.111165354330709
 30
0.0
 10
1.55342125984252
 20
1.111165354330709
 30
0.0
 10
1.54744094488189
 20
1.005035433070866
 30
0.0
 10
1.54744094488189
 20
1.005035433070866
 30
0.0
 10
1.54744094488189
 20
1.005035433070866
 30
0.0
 10
1.54744094488189
 20
1.005035433070866
 30
0.0
 10
1.542779527559055
 20
0.8955157480314961
 30
0.0
 10
1.542779527559055
 20
0.8955157480314961
 30
0.0
 10
1.542779527559055
 20
0.8955157480314961
 30
0.0
 10
1.542779527559055
 20
0.8955157480314961
 30
0.0
 10
1.539263779527559
 20
0.7825905511811024
 30
0.0
 10
1.539263779527559
 20
0.7825905511811024
 30
0.0
 10
1.539263779527559
 20
0.7825905511811024
 30
0.0
 10
1.539263779527559
 20
0.7825905511811024
 30
0.0
 10
1.536716535433071
 20
0.6662244094488189
 30
0.0
 10
1.536716535433071
 20
0.6662244094488189
 30
0.0
 10
1.536716535433071
 20
0.6662244094488189
 30
0.0
 10
1.536716535433071
 20
0.6662244094488189
 30
0.0
 10
1.534968503937008
 20
0.5464094488188976
 30
0.0
 10
1.534968503937008
 20
0.5464094488188976
 30
0.0
 10
1.534968503937008
 20
0.5464094488188976
 30
0.0
 10
1.534968503937008
 20
0.5464094488188976
 30
0.0
 10
1.533838582677165
 20
0.4231141732283465
 30
0.0
 10
1.533838582677165
 20
0.4231141732283465
 30
0.0
 10
1.533838582677165
 20
0.4231141732283465
 30
0.0
 10
1.533838582677165
 20
0.4231141732283465
 30
0.0
 10
1.533157480314961
 20
0.2963188976377953
 30
0.0
 10
1.533157480314961
 20
0.2963188976377953
 30
0.0
 10
1.533157480314961
 20
0.2963188976377953
 30
0.0
 10
1.533157480314961
 20
0.2963188976377953
 30
0.0
 10
1.532740157480315
 20
0.165996062992126
 30
0.0
 10
1.532740157480315
 20
0.165996062992126
 30
0.0
 10
1.532740157480315
 20
0.165996062992126
 30
0.0
 10
1.532740157480315
 20
0.165996062992126
 30
0.0
 10
0.8826299212598425
 20
0.5407125984251969
 30
0.0
 10
0.8826299212598425
 20
0.5407125984251969
 30
0.0
 10
0.8826299212598425
 20
0.5407125984251969
 30
0.0
 10
0.8826299212598425
 20
0.5407125984251969
 30
0.0
 10
0.8830472440944882
 20
0.6710354330708662
 30
0.0
 10
0.8830472440944882
 20
0.6710354330708662
 30
0.0
 10
0.8830472440944882
 20
0.6710354330708662
 30
0.0
 10
0.8830472440944882
 20
0.6710354330708662
 30
0.0
 10
0.883728346456693
 20
0.7978307086614174
 30
0.0
 10
0.883728346456693
 20
0.7978307086614174
 30
0.0
 10
0.883728346456693
 20
0.7978307086614174
 30
0.0
 10
0.883728346456693
 20
0.7978307086614174
 30
0.0
 10
0.8848582677165354
 20
0.9211259842519686
 30
0.0
 10
0.8848582677165354
 20
0.9211259842519686
 30
0.0
 10
0.8848582677165354
 20
0.9211259842519686
 30
0.0
 10
0.8848582677165354
 20
0.9211259842519686
 30
0.0
 10
0.8866062992125985
 20
1.04094094488189
 30
0.0
 10
0.8866062992125985
 20
1.04094094488189
 30
0.0
 10
0.8866062992125985
 20
1.04094094488189
 30
0.0
 10
0.8866062992125985
 20
1.04094094488189
 30
0.0
 10
0.8891535433070866
 20
1.157307086614173
 30
0.0
 10
0.8891535433070866
 20
1.157307086614173
 30
0.0
 10
0.8891535433070866
 20
1.157307086614173
 30
0.0
 10
0.8891535433070866
 20
1.157307086614173
 30
0.0
 10
0.8926692913385828
 20
1.270232283464567
 30
0.0
 10
0.8926692913385828
 20
1.270232283464567
 30
0.0
 10
0.8926692913385828
 20
1.270232283464567
 30
0.0
 10
0.8926692913385828
 20
1.270232283464567
 30
0.0
 10
0.8973307086614174
 20
1.379751968503937
 30
0.0
 10
0.8973307086614174
 20
1.379751968503937
 30
0.0
 10
0.8973307086614174
 20
1.379751968503937
 30
0.0
 10
0.8973307086614174
 20
1.379751968503937
 30
0.0
 10
0.9033110236220473
 20
1.48588188976378
 30
0.0
 10
0.9033110236220473
 20
1.48588188976378
 30
0.0
 10
0.9033110236220473
 20
1.48588188976378
 30
0.0
 10
0.9033110236220473
 20
1.48588188976378
 30
0.0
 10
0.9107992125984252
 20
1.588657480314961
 30
0.0
 10
0.9107992125984252
 20
1.588657480314961
 30
0.0
 10
0.9107992125984252
 20
1.588657480314961
 30
0.0
 10
0.9107992125984252
 20
1.588657480314961
 30
0.0
 10
0.9199527559055118
 20
1.688086614173229
 30
0.0
 10
0.9199527559055118
 20
1.688086614173229
 30
0.0
 10
0.9199527559055118
 20
1.688086614173229
 30
0.0
 10
0.9199527559055118
 20
1.688086614173229
 30
0.0
 10
0.9309566929133859
 20
1.784200787401575
 30
0.0
 10
0.9309566929133859
 20
1.784200787401575
 30
0.0
 10
0.9309566929133859
 20
1.784200787401575
 30
0.0
 10
0.9309566929133859
 20
1.784200787401575
 30
0.0
 10
0.9439763779527559
 20
1.877011811023622
 30
0.0
 10
0.9439763779527559
 20
1.877011811023622
 30
0.0
 10
0.9439763779527559
 20
1.877011811023622
 30
0.0
 10
0.9439763779527559
 20
1.877011811023622
 30
0.0
 10
0.9592047244094488
 20
1.966562992125984
 30
0.0
 10
0.9592047244094488
 20
1.966562992125984
 30
0.0
 10
0.9592047244094488
 20
1.966562992125984
 30
0.0
 10
0.9592047244094488
 20
1.966562992125984
 30
0.0
 10
0.9767952755905512
 20
2.052854330708661
 30
0.0
 10
0.9767952755905512
 20
2.052854330708661
 30
0.0
 10
0.9767952755905512
 20
2.052854330708661
 30
0.0
 10
0.9767952755905512
 20
2.052854330708661
 30
0.0
 10
0.9969409448818898
 20
2.135929133858268
 30
0.0
 10
0.9969409448818898
 20
2.135929133858268
 30
0.0
 10
0.9969409448818898
 20
2.135929133858268
 30
0.0
 10
0.9969409448818898
 20
2.135929133858268
 30
0.0
 10
1.019807086614173
 20
2.215791338582677
 30
0.0
 10
1.019807086614173
 20
2.215791338582677
 30
0.0
 10
1.019807086614173
 20
2.215791338582677
 30
0.0
 10
1.019807086614173
 20
2.215791338582677
 30
0.0
 10
1.045582677165355
 20
2.292484251968504
 30
0.0
 10
1.045582677165355
 20
2.292484251968504
 30
0.0
 10
1.045582677165355
 20
2.292484251968504
 30
0.0
 10
1.045582677165355
 20
2.292484251968504
 30
0.0
 10
1.074425196850394
 20
2.366015748031496
 30
0.0
 10
1.074425196850394
 20
2.366015748031496
 30
0.0
 10
1.074425196850394
 20
2.366015748031496
 30
0.0
 10
1.074425196850394
 20
2.366015748031496
 30
0.0
 10
1.10651968503937
 20
2.436417322834646
 30
0.0
 10
1.10651968503937
 20
2.436417322834646
 30
0.0
 10
1.10651968503937
 20
2.436417322834646
 30
0.0
 10
1.10651968503937
 20
2.436417322834646
 30
0.0
 10
1.142035433070866
 20
2.503700787401575
 30
0.0
 10
1.142035433070866
 20
2.503700787401575
 30
0.0
 10
1.142035433070866
 20
2.503700787401575
 30
0.0
 10
1.142035433070866
 20
2.503700787401575
 30
0.0
 10
1.181161417322835
 20
2.567905511811024
 30
0.0
 10
1.181161417322835
 20
2.567905511811024
 30
0.0
 10
1.181161417322835
 20
2.567905511811024
 30
0.0
 10
1.181161417322835
 20
2.567905511811024
 30
0.0
 10
1.224051181102362
 20
2.629031496062992
 30
0.0
 10
1.224051181102362
 20
2.629031496062992
 30
0.0
 10
1.224051181102362
 20
2.629031496062992
 30
0.0
 10
1.224051181102362
 20
2.629031496062992
 30
0.0
 10
1.270897637795276
 20
2.687122047244094
 30
0.0
 10
1.270897637795276
 20
2.687122047244094
 30
0.0
 10
1.270897637795276
 20
2.687122047244094
 30
0.0
 10
1.270897637795276
 20
2.687122047244094
 30
0.0
 10
1.32186220472441
 20
2.742188976377953
 30
0.0
 10
1.32186220472441
 20
2.742188976377953
 30
0.0
 10
1.32186220472441
 20
2.742188976377953
 30
0.0
 10
1.32186220472441
 20
2.742188976377953
 30
0.0
 10
1.377129921259843
 20
2.794267716535433
 30
0.0
 10
1.377129921259843
 20
2.794267716535433
 30
0.0
 10
1.377129921259843
 20
2.794267716535433
 30
0.0
 10
1.377129921259843
 20
2.794267716535433
 30
0.0
 10
1.436877952755906
 20
2.843366141732284
 30
0.0
 10
1.436877952755906
 20
2.843366141732284
 30
0.0
 10
1.436877952755906
 20
2.843366141732284
 30
0.0
 10
1.436877952755906
 20
2.843366141732284
 30
0.0
 10
1.501275590551181
 20
2.889515748031496
 30
0.0
 10
1.501275590551181
 20
2.889515748031496
 30
0.0
 10
1.501275590551181
 20
2.889515748031496
 30
0.0
 10
1.501275590551181
 20
2.889515748031496
 30
0.0
 10
1.570507874015748
 20
2.932736220472441
 30
0.0
 10
1.570507874015748
 20
2.932736220472441
 30
0.0
 10
1.570507874015748
 20
2.932736220472441
 30
0.0
 10
1.570507874015748
 20
2.932736220472441
 30
0.0
 10
1.644732283464567
 20
2.973055118110236
 30
0.0
 10
1.644732283464567
 20
2.973055118110236
 30
0.0
 10
1.644732283464567
 20
2.973055118110236
 30
0.0
 10
1.644732283464567
 20
2.973055118110236
 30
0.0
 10
1.724145669291339
 20
3.010488188976378
 30
0.0
 10
1.724145669291339
 20
3.010488188976378
 30
0.0
 10
1.724145669291339
 20
3.010488188976378
 30
0.0
 10
1.724145669291339
 20
3.010488188976378
 30
0.0
 10
1.808905511811024
 20
3.045062992125984
 30
0.0
 10
1.808905511811024
 20
3.045062992125984
 30
0.0
 10
1.808905511811024
 20
3.045062992125984
 30
0.0
 10
1.808905511811024
 20
3.045062992125984
 30
0.0
 10
1.899204724409449
 20
3.076799212598425
 30
0.0
 10
1.899204724409449
 20
3.076799212598425
 30
0.0
  0
SPLINE
  5
6A
330
1F
100
AcDbEntity
  8
P1-LAYER_1
 62
   253
100
AcDbSpline
210
0.0
220
0.0
230
1.0
 70
    11
 71
     3
 72
    20
 73
    16
 74
     0
 42
0.0000000001
 43
0.0000000001
 40
0.0
 40
0.0
 40
0.0
 40
0.0
 40
0.25
 40
0.25
 40
0.25
 40
0.25
 40
0.5
 40
0.5
 40
0.5
 40
0.5
 40
0.75
 40
0.75
 40
0.75
 40
0.75
 40
1.0
 40
1.0
 40
1.0
 40
1.0
 10
0.8826299212598425
 20
0.5407125984251969
 30
0.0
 10
0.8826299212598425
 20
0.5407125984251969
 30
0.0
 10
1.532740157480315
 20
0.165996062992126
 30
0.0
 10
1.532740157480315
 20
0.165996062992126
 30
0.0
 10
1.532740157480315
 20
0.165996062992126
 30
0.0
 10
1.532740157480315
 20
0.165996062992126
 30
0.0
 10
0.8101496062992126
 20
0.165996062992126
 30
0.0
 10
0.8101496062992126
 20
0.165996062992126
 30
0.0
 10
0.8101496062992126
 20
0.165996062992126
 30
0.0
 10
0.8101496062992126
 20
0.165996062992126
 30
0.0
 10
0.1600393700787402
 20
0.5407125984251969
 30
0.0
 10
0.1600393700787402
 20
0.5407125984251969
 30
0.0
 10
0.1600393700787402
 20
0.5407125984251969
 30
0.0
 10
0.1600393700787402
 20
0.5407125984251969
 30
0.0
 10
0.8826299212598425
 20
0.5407125984251969
 30
0.0
 10
0.8826299212598425
 20
0.5407125984251969
 30
0.0
  0
SPLINE
  5
6B
330
1F
100
AcDbEntity
  8
P1-LAYER_1
 62
   250
100
AcDbSpline
210
0.0
220
0.0
230
1.0
 70
    11
 71
     3
 72
    20
 73
    16
 74
     0
 42
0.0000000001
 43
0.0000000001
 40
0.0
 40
0.0
 40
0.0
 40
0.0
 40
0.25
 40
0.25
 40
0.25
 40
0.25
 40
0.5
 40
0.5
 40
0.5
 40
0.5
 40
0.75
 40
0.75
 40
0.75
 40
0.75
 40
1.0
 40
1.0
 40
1.0
 40
1.0
 10
0.8826299212598425
 20
0.5407125984251969
 30
0.0
 10
0.8826299212598425
 20
0.5407125984251969
 30
0.0
 10
1.532740157480315
 20
0.165996062992126
 30
0.0
 10
1.532740157480315
 20
0.165996062992126
 30
0.0
 10
1.532740157480315
 20
0.165996062992126
 30
0.0
 10
1.532740157480315
 20
0.165996062992126
 30
0.0
 10
0.8101496062992126
 20
0.165996062992126
 30
0.0
 10
0.8101496062992126
 20
0.165996062992126
 30
0.0
 10
0.8101496062992126
 20
0.165996062992126
 30
0.0
 10
0.8101496062992126
 20
0.165996062992126
 30
0.0
 10
0.1600393700787402
 20
0.5407125984251969
 30
0.0
 10
0.1600393700787402
 20
0.5407125984251969
 30
0.0
 10
0.1600393700787402
 20
0.5407125984251969
 30
0.0
 10
0.1600393700787402
 20
0.5407125984251969
 30
0.0
 10
0.8826299212598425
 20
0.5407125984251969
 30
0.0
 10
0.8826299212598425
 20
0.5407125984251969
 30
0.0
  0
SPLINE
  5
6C
330
1F
100
AcDbEntity
  8
P1-LAYER_1
 62
   253
100
AcDbSpline
210
0.0
220
0.0
230
1.0
 70
    11
 71
     3
 72
    20
 73
    16
 74
     0
 42
0.0000000001
 43
0.0000000001
 40
0.0
 40
0.0
 40
0.0
 40
0.0
 40
0.25
 40
0.25
 40
0.25
 40
0.25
 40
0.5
 40
0.5
 40
0.5
 40
0.5
 40
0.75
 40
0.75
 40
0.75
 40
0.75
 40
1.0
 40
1.0
 40
1.0
 40
1.0
 10
1.899204724409449
 20
3.529031496062992
 30
0.0
 10
1.899204724409449
 20
3.529031496062992
 30
0.0
 10
2.549314960629921
 20
3.154314960629921
 30
0.0
 10
2.549314960629921
 20
3.154314960629921
 30
0.0
 10
2.549314960629921
 20
3.154314960629921
 30
0.0
 10
2.549314960629921
 20
3.154314960629921
 30
0.0
 10
2.549314960629921
 20
2.702082677165354
 30
0.0
 10
2.549314960629921
 20
2.702082677165354
 30
0.0
 10
2.549314960629921
 20
2.702082677165354
 30
0.0
 10
2.549314960629921
 20
2.702082677165354
 30
0.0
 10
1.899204724409449
 20
3.076799212598425
 30
0.0
 10
1.899204724409449
 20
3.076799212598425
 30
0.0
 10
1.899204724409449
 20
3.076799212598425
 30
0.0
 10
1.899204724409449
 20
3.076799212598425
 30
0.0
 10
1.899204724409449
 20
3.529031496062992
 30
0.0
 10
1.899204724409449
 20
3.529031496062992
 30
0.0
  0
SPLINE
  5
6D
330
1F
100
AcDbEntity
  8
P1-LAYER_1
 62
   250
100
AcDbSpline
210
0.0
220
0.0
230
1.0
 70
    11
 71
     3
 72
    20
 73
    16
 74
     0
 42
0.0000000001
 43
0.0000000001
 40
0.0
 40
0.0
 40
0.0
 40
0.0
 40
0.25
 40
0.25
 40
0.25
 40
0.25
 40
0.5
 40
0.5
 40
0.5
 40
0.5
 40
0.75
 40
0.75
 40
0.75
 40
0.75
 40
1.0
 40
1.0
 40
1.0
 40
1.0
 10
1.899204724409449
 20
3.529031496062992
 30
0.0
 10
1.899204724409449
 20
3.529031496062992
 30
0.0
 10
2.549314960629921
 20
3.154314960629921
 30
0.0
 10
2.549314960629921
 20
3.154314960629921
 30
0.0
 10
2.549314960629921
 20
3.154314960629921
 30
0.0
 10
2.549314960629921
 20
3.154314960629921
 30
0.0
 10
2.549314960629921
 20
2.702082677165354
 30
0.0
 10
2.549314960629921
 20
2.702082677165354
 30
0.0
 10
2.549314960629921
 20
2.702082677165354
 30
0.0
 10
2.549314960629921
 20
2.702082677165354
 30
0.0
 10
1.899204724409449
 20
3.076799212598425
 30
0.0
 10
1.899204724409449
 20
3.076799212598425
 30
0.0
 10
1.899204724409449
 20
3.076799212598425
 30
0.0
 10
1.899204724409449
 20
3.076799212598425
 30
0.0
 10
1.899204724409449
 20
3.529031496062992
 30
0.0
 10
1.899204724409449
 20
3.529031496062992
 30
0.0
  0
SPLINE
  5
6E
330
1F
100
AcDbEntity
  8
P1-LAYER_1
 62
   253
100
AcDbSpline
210
0.0
220
0.0
230
1.0
 70
    11
 71
     3
 72
    20
 73
    16
 74
     0
 42
0.0000000001
 43
0.0000000001
 40
0.0
 40
0.0
 40
0.0
 40
0.0
 40
0.25
 40
0.25
 40
0.25
 40
0.25
 40
0.5
 40
0.5
 40
0.5
 40
0.5
 40
0.75
 40
0.75
 40
0.75
 40
0.75
 40
1.0
 40
1.0
 40
1.0
 40
1.0
 10
1.899204724409449
 20
3.076799212598425
 30
0.0
 10
1.899204724409449
 20
3.076799212598425
 30
0.0
 10
2.549314960629921
 20
2.702082677165354
 30
0.0
 10
2.549314960629921
 20
2.702082677165354
 30
0.0
 10
2.549314960629921
 20
2.702082677165354
 30
0.0
 10
2.549314960629921
 20
2.702082677165354
 30
0.0
 10
2.459015748031496
 20
2.670346456692914
 30
0.0
 10
2.459015748031496
 20
2.670346456692914
 30
0.0
 10
2.459015748031496
 20
2.670346456692914
 30
0.0
 10
2.459015748031496
 20
2.670346456692914
 30
0.0
 10
1.808905511811024
 20
3.045062992125984
 30
0.0
 10
1.808905511811024
 20
3.045062992125984
 30
0.0
 10
1.808905511811024
 20
3.045062992125984
 30
0.0
 10
1.808905511811024
 20
3.045062992125984
 30
0.0
 10
1.899204724409449
 20
3.076799212598425
 30
0.0
 10
1.899204724409449
 20
3.076799212598425
 30
0.0
  0
SPLINE
  5
6F
330
1F
100
AcDbEntity
  8
P1-LAYER_1
 62
   253
100
AcDbSpline
210
0.0
220
0.0
230
1.0
 70
    11
 71
     3
 72
    20
 73
    16
 74
     0
 42
0.0000000001
 43
0.0000000001
 40
0.0
 40
0.0
 40
0.0
 40
0.0
 40
0.25
 40
0.25
 40
0.25
 40
0.25
 40
0.5
 40
0.5
 40
0.5
 40
0.5
 40
0.75
 40
0.75
 40
0.75
 40
0.75
 40
1.0
 40
1.0
 40
1.0
 40
1.0
 10
1.808905511811024
 20
3.045062992125984
 30
0.0
 10
1.808905511811024
 20
3.045062992125984
 30
0.0
 10
2.459015748031496
 20
2.670346456692914
 30
0.0
 10
2.459015748031496
 20
2.670346456692914
 30
0.0
 10
2.459015748031496
 20
2.670346456692914
 30
0.0
 10
2.459015748031496
 20
2.670346456692914
 30
0.0
 10
2.374255905511811
 20
2.635771653543307
 30
0.0
 10
2.374255905511811
 20
2.635771653543307
 30
0.0
 10
2.374255905511811
 20
2.635771653543307
 30
0.0
 10
2.374255905511811
 20
2.635771653543307
 30
0.0
 10
1.724145669291339
 20
3.010488188976378
 30
0.0
 10
1.724145669291339
 20
3.010488188976378
 30
0.0
 10
1.724145669291339
 20
3.010488188976378
 30
0.0
 10
1.724145669291339
 20
3.010488188976378
 30
0.0
 10
1.808905511811024
 20
3.045062992125984
 30
0.0
 10
1.808905511811024
 20
3.045062992125984
 30
0.0
  0
SPLINE
  5
70
330
1F
100
AcDbEntity
  8
P1-LAYER_1
 62
   253
100
AcDbSpline
210
0.0
220
0.0
230
1.0
 70
    11
 71
     3
 72
    20
 73
    16
 74
     0
 42
0.0000000001
 43
0.0000000001
 40
0.0
 40
0.0
 40
0.0
 40
0.0
 40
0.25
 40
0.25
 40
0.25
 40
0.25
 40
0.5
 40
0.5
 40
0.5
 40
0.5
 40
0.75
 40
0.75
 40
0.75
 40
0.75
 40
1.0
 40
1.0
 40
1.0
 40
1.0
 10
1.724145669291339
 20
3.010488188976378
 30
0.0
 10
1.724145669291339
 20
3.010488188976378
 30
0.0
 10
2.374255905511811
 20
2.635771653543307
 30
0.0
 10
2.374255905511811
 20
2.635771653543307
 30
0.0
 10
2.374255905511811
 20
2.635771653543307
 30
0.0
 10
2.374255905511811
 20
2.635771653543307
 30
0.0
 10
2.29484251968504
 20
2.598338582677166
 30
0.0
 10
2.29484251968504
 20
2.598338582677166
 30
0.0
 10
2.29484251968504
 20
2.598338582677166
 30
0.0
 10
2.29484251968504
 20
2.598338582677166
 30
0.0
 10
1.644732283464567
 20
2.973055118110236
 30
0.0
 10
1.644732283464567
 20
2.973055118110236
 30
0.0
 10
1.644732283464567
 20
2.973055118110236
 30
0.0
 10
1.644732283464567
 20
2.973055118110236
 30
0.0
 10
1.724145669291339
 20
3.010488188976378
 30
0.0
 10
1.724145669291339
 20
3.010488188976378
 30
0.0
  0
SPLINE
  5
71
330
1F
100
AcDbEntity
  8
P1-LAYER_1
 62
   253
100
AcDbSpline
210
0.0
220
0.0
230
1.0
 70
    11
 71
     3
 72
    20
 73
    16
 74
     0
 42
0.0000000001
 43
0.0000000001
 40
0.0
 40
0.0
 40
0.0
 40
0.0
 40
0.25
 40
0.25
 40
0.25
 40
0.25
 40
0.5
 40
0.5
 40
0.5
 40
0.5
 40
0.75
 40
0.75
 40
0.75
 40
0.75
 40
1.0
 40
1.0
 40
1.0
 40
1.0
 10
1.644732283464567
 20
2.973055118110236
 30
0.0
 10
1.644732283464567
 20
2.973055118110236
 30
0.0
 10
2.29484251968504
 20
2.598338582677166
 30
0.0
 10
2.29484251968504
 20
2.598338582677166
 30
0.0
 10
2.29484251968504
 20
2.598338582677166
 30
0.0
 10
2.29484251968504
 20
2.598338582677166
 30
0.0
 10
2.220618110236221
 20
2.55801968503937
 30
0.0
 10
2.220618110236221
 20
2.55801968503937
 30
0.0
 10
2.220618110236221
 20
2.55801968503937
 30
0.0
 10
2.220618110236221
 20
2.55801968503937
 30
0.0
 10
1.570507874015748
 20
2.932736220472441
 30
0.0
 10
1.570507874015748
 20
2.932736220472441
 30
0.0
 10
1.570507874015748
 20
2.932736220472441
 30
0.0
 10
1.570507874015748
 20
2.932736220472441
 30
0.0
 10
1.644732283464567
 20
2.973055118110236
 30
0.0
 10
1.644732283464567
 20
2.973055118110236
 30
0.0
  0
SPLINE
  5
72
330
1F
100
AcDbEntity
  8
P1-LAYER_1
 62
   253
100
AcDbSpline
210
0.0
220
0.0
230
1.0
 70
    11
 71
     3
 72
    20
 73
    16
 74
     0
 42
0.0000000001
 43
0.0000000001
 40
0.0
 40
0.0
 40
0.0
 40
0.0
 40
0.25
 40
0.25
 40
0.25
 40
0.25
 40
0.5
 40
0.5
 40
0.5
 40
0.5
 40
0.75
 40
0.75
 40
0.75
 40
0.75
 40
1.0
 40
1.0
 40
1.0
 40
1.0
 10
1.570507874015748
 20
2.932736220472441
 30
0.0
 10
1.570507874015748
 20
2.932736220472441
 30
0.0
 10
2.220618110236221
 20
2.55801968503937
 30
0.0
 10
2.220618110236221
 20
2.55801968503937
 30
0.0
 10
2.220618110236221
 20
2.55801968503937
 30
0.0
 10
2.220618110236221
 20
2.55801968503937
 30
0.0
 10
2.151385826771654
 20
2.514799212598425
 30
0.0
 10
2.151385826771654
 20
2.514799212598425
 30
0.0
 10
2.151385826771654
 20
2.514799212598425
 30
0.0
 10
2.151385826771654
 20
2.514799212598425
 30
0.0
 10
1.501275590551181
 20
2.889515748031496
 30
0.0
 10
1.501275590551181
 20
2.889515748031496
 30
0.0
 10
1.501275590551181
 20
2.889515748031496
 30
0.0
 10
1.501275590551181
 20
2.889515748031496
 30
0.0
 10
1.570507874015748
 20
2.932736220472441
 30
0.0
 10
1.570507874015748
 20
2.932736220472441
 30
0.0
  0
SPLINE
  5
73
330
1F
100
AcDbEntity
  8
P1-LAYER_1
 62
   253
100
AcDbSpline
210
0.0
220
0.0
230
1.0
 70
    11
 71
     3
 72
    20
 73
    16
 74
     0
 42
0.0000000001
 43
0.0000000001
 40
0.0
 40
0.0
 40
0.0
 40
0.0
 40
0.25
 40
0.25
 40
0.25
 40
0.25
 40
0.5
 40
0.5
 40
0.5
 40
0.5
 40
0.75
 40
0.75
 40
0.75
 40
0.75
 40
1.0
 40
1.0
 40
1.0
 40
1.0
 10
1.501275590551181
 20
2.889515748031496
 30
0.0
 10
1.501275590551181
 20
2.889515748031496
 30
0.0
 10
2.151385826771654
 20
2.514799212598425
 30
0.0
 10
2.151385826771654
 20
2.514799212598425
 30
0.0
 10
2.151385826771654
 20
2.514799212598425
 30
0.0
 10
2.151385826771654
 20
2.514799212598425
 30
0.0
 10
2.086988188976378
 20
2.468649606299213
 30
0.0
 10
2.086988188976378
 20
2.468649606299213
 30
0.0
 10
2.086988188976378
 20
2.468649606299213
 30
0.0
 10
2.086988188976378
 20
2.468649606299213
 30
0.0
 10
1.436877952755906
 20
2.843366141732284
 30
0.0
 10
1.436877952755906
 20
2.843366141732284
 30
0.0
 10
1.436877952755906
 20
2.843366141732284
 30
0.0
 10
1.436877952755906
 20
2.843366141732284
 30
0.0
 10
1.501275590551181
 20
2.889515748031496
 30
0.0
 10
1.501275590551181
 20
2.889515748031496
 30
0.0
  0
SPLINE
  5
74
330
1F
100
AcDbEntity
  8
P1-LAYER_1
 62
   253
100
AcDbSpline
210
0.0
220
0.0
230
1.0
 70
    11
 71
     3
 72
    20
 73
    16
 74
     0
 42
0.0000000001
 43
0.0000000001
 40
0.0
 40
0.0
 40
0.0
 40
0.0
 40
0.25
 40
0.25
 40
0.25
 40
0.25
 40
0.5
 40
0.5
 40
0.5
 40
0.5
 40
0.75
 40
0.75
 40
0.75
 40
0.75
 40
1.0
 40
1.0
 40
1.0
 40
1.0
 10
1.436877952755906
 20
2.843366141732284
 30
0.0
 10
1.436877952755906
 20
2.843366141732284
 30
0.0
 10
2.086988188976378
 20
2.468649606299213
 30
0.0
 10
2.086988188976378
 20
2.468649606299213
 30
0.0
 10
2.086988188976378
 20
2.468649606299213
 30
0.0
 10
2.086988188976378
 20
2.468649606299213
 30
0.0
 10
2.027240157480315
 20
2.419551181102362
 30
0.0
 10
2.027240157480315
 20
2.419551181102362
 30
0.0
 10
2.027240157480315
 20
2.419551181102362
 30
0.0
 10
2.027240157480315
 20
2.419551181102362
 30
0.0
 10
1.377129921259843
 20
2.794267716535433
 30
0.0
 10
1.377129921259843
 20
2.794267716535433
 30
0.0
 10
1.377129921259843
 20
2.794267716535433
 30
0.0
 10
1.377129921259843
 20
2.794267716535433
 30
0.0
 10
1.436877952755906
 20
2.843366141732284
 30
0.0
 10
1.436877952755906
 20
2.843366141732284
 30
0.0
  0
SPLINE
  5
75
330
1F
100
AcDbEntity
  8
P1-LAYER_1
 62
   253
100
AcDbSpline
210
0.0
220
0.0
230
1.0
 70
    11
 71
     3
 72
    20
 73
    16
 74
     0
 42
0.0000000001
 43
0.0000000001
 40
0.0
 40
0.0
 40
0.0
 40
0.0
 40
0.25
 40
0.25
 40
0.25
 40
0.25
 40
0.5
 40
0.5
 40
0.5
 40
0.5
 40
0.75
 40
0.75
 40
0.75
 40
0.75
 40
1.0
 40
1.0
 40
1.0
 40
1.0
 10
1.377129921259843
 20
2.794267716535433
 30
0.0
 10
1.377129921259843
 20
2.794267716535433
 30
0.0
 10
2.027240157480315
 20
2.419551181102362
 30
0.0
 10
2.027240157480315
 20
2.419551181102362
 30
0.0
 10
2.027240157480315
 20
2.419551181102362
 30
0.0
 10
2.027240157480315
 20
2.419551181102362
 30
0.0
 10
1.971972440944882
 20
2.367472440944882
 30
0.0
 10
1.971972440944882
 20
2.367472440944882
 30
0.0
 10
1.971972440944882
 20
2.367472440944882
 30
0.0
 10
1.971972440944882
 20
2.367472440944882
 30
0.0
 10
1.32186220472441
 20
2.742188976377953
 30
0.0
 10
1.32186220472441
 20
2.742188976377953
 30
0.0
 10
1.32186220472441
 20
2.742188976377953
 30
0.0
 10
1.32186220472441
 20
2.742188976377953
 30
0.0
 10
1.377129921259843
 20
2.794267716535433
 30
0.0
 10
1.377129921259843
 20
2.794267716535433
 30
0.0
  0
SPLINE
  5
76
330
1F
100
AcDbEntity
  8
P1-LAYER_1
 62
   253
100
AcDbSpline
210
0.0
220
0.0
230
1.0
 70
    11
 71
     3
 72
    20
 73
    16
 74
     0
 42
0.0000000001
 43
0.0000000001
 40
0.0
 40
0.0
 40
0.0
 40
0.0
 40
0.25
 40
0.25
 40
0.25
 40
0.25
 40
0.5
 40
0.5
 40
0.5
 40
0.5
 40
0.75
 40
0.75
 40
0.75
 40
0.75
 40
1.0
 40
1.0
 40
1.0
 40
1.0
 10
1.32186220472441
 20
2.742188976377953
 30
0.0
 10
1.32186220472441
 20
2.742188976377953
 30
0.0
 10
1.971972440944882
 20
2.367472440944882
 30
0.0
 10
1.971972440944882
 20
2.367472440944882
 30
0.0
 10
1.971972440944882
 20
2.367472440944882
 30
0.0
 10
1.971972440944882
 20
2.367472440944882
 30
0.0
 10
1.921007874015748
 20
2.312405511811024
 30
0.0
 10
1.921007874015748
 20
2.312405511811024
 30
0.0
 10
1.921007874015748
 20
2.312405511811024
 30
0.0
 10
1.921007874015748
 20
2.312405511811024
 30
0.0
 10
1.270897637795276
 20
2.687122047244094
 30
0.0
 10
1.270897637795276
 20
2.687122047244094
 30
0.0
 10
1.270897637795276
 20
2.687122047244094
 30
0.0
 10
1.270897637795276
 20
2.687122047244094
 30
0.0
 10
1.32186220472441
 20
2.742188976377953
 30
0.0
 10
1.32186220472441
 20
2.742188976377953
 30
0.0
  0
SPLINE
  5
77
330
1F
100
AcDbEntity
  8
P1-LAYER_1
 62
   253
100
AcDbSpline
210
0.0
220
0.0
230
1.0
 70
    11
 71
     3
 72
    20
 73
    16
 74
     0
 42
0.0000000001
 43
0.0000000001
 40
0.0
 40
0.0
 40
0.0
 40
0.0
 40
0.25
 40
0.25
 40
0.25
 40
0.25
 40
0.5
 40
0.5
 40
0.5
 40
0.5
 40
0.75
 40
0.75
 40
0.75
 40
0.75
 40
1.0
 40
1.0
 40
1.0
 40
1.0
 10
1.270897637795276
 20
2.687122047244094
 30
0.0
 10
1.270897637795276
 20
2.687122047244094
 30
0.0
 10
1.921007874015748
 20
2.312405511811024
 30
0.0
 10
1.921007874015748
 20
2.312405511811024
 30
0.0
 10
1.921007874015748
 20
2.312405511811024
 30
0.0
 10
1.921007874015748
 20
2.312405511811024
 30
0.0
 10
1.874161417322835
 20
2.254314960629921
 30
0.0
 10
1.874161417322835
 20
2.254314960629921
 30
0.0
 10
1.874161417322835
 20
2.254314960629921
 30
0.0
 10
1.874161417322835
 20
2.254314960629921
 30
0.0
 10
1.224051181102362
 20
2.629031496062992
 30
0.0
 10
1.224051181102362
 20
2.629031496062992
 30
0.0
 10
1.224051181102362
 20
2.629031496062992
 30
0.0
 10
1.224051181102362
 20
2.629031496062992
 30
0.0
 10
1.270897637795276
 20
2.687122047244094
 30
0.0
 10
1.270897637795276
 20
2.687122047244094
 30
0.0
  0
SPLINE
  5
78
330
1F
100
AcDbEntity
  8
P1-LAYER_1
 62
   253
100
AcDbSpline
210
0.0
220
0.0
230
1.0
 70
    11
 71
     3
 72
    20
 73
    16
 74
     0
 42
0.0000000001
 43
0.0000000001
 40
0.0
 40
0.0
 40
0.0
 40
0.0
 40
0.25
 40
0.25
 40
0.25
 40
0.25
 40
0.5
 40
0.5
 40
0.5
 40
0.5
 40
0.75
 40
0.75
 40
0.75
 40
0.75
 40
1.0
 40
1.0
 40
1.0
 40
1.0
 10
1.224051181102362
 20
2.629031496062992
 30
0.0
 10
1.224051181102362
 20
2.629031496062992
 30
0.0
 10
1.874161417322835
 20
2.254314960629921
 30
0.0
 10
1.874161417322835
 20
2.254314960629921
 30
0.0
 10
1.874161417322835
 20
2.254314960629921
 30
0.0
 10
1.874161417322835
 20
2.254314960629921
 30
0.0
 10
1.831271653543307
 20
2.193188976377953
 30
0.0
 10
1.831271653543307
 20
2.193188976377953
 30
0.0
 10
1.831271653543307
 20
2.193188976377953
 30
0.0
 10
1.831271653543307
 20
2.193188976377953
 30
0.0
 10
1.181161417322835
 20
2.567905511811024
 30
0.0
 10
1.181161417322835
 20
2.567905511811024
 30
0.0
 10
1.181161417322835
 20
2.567905511811024
 30
0.0
 10
1.181161417322835
 20
2.567905511811024
 30
0.0
 10
1.224051181102362
 20
2.629031496062992
 30
0.0
 10
1.224051181102362
 20
2.629031496062992
 30
0.0
  0
SPLINE
  5
79
330
1F
100
AcDbEntity
  8
P1-LAYER_1
 62
   253
100
AcDbSpline
210
0.0
220
0.0
230
1.0
 70
    11
 71
     3
 72
    20
 73
    16
 74
     0
 42
0.0000000001
 43
0.0000000001
 40
0.0
 40
0.0
 40
0.0
 40
0.0
 40
0.25
 40
0.25
 40
0.25
 40
0.25
 40
0.5
 40
0.5
 40
0.5
 40
0.5
 40
0.75
 40
0.75
 40
0.75
 40
0.75
 40
1.0
 40
1.0
 40
1.0
 40
1.0
 10
1.181161417322835
 20
2.567905511811024
 30
0.0
 10
1.181161417322835
 20
2.567905511811024
 30
0.0
 10
1.831271653543307
 20
2.193188976377953
 30
0.0
 10
1.831271653543307
 20
2.193188976377953
 30
0.0
 10
1.831271653543307
 20
2.193188976377953
 30
0.0
 10
1.831271653543307
 20
2.193188976377953
 30
0.0
 10
1.792145669291339
 20
2.128984251968504
 30
0.0
 10
1.792145669291339
 20
2.128984251968504
 30
0.0
 10
1.792145669291339
 20
2.128984251968504
 30
0.0
 10
1.792145669291339
 20
2.128984251968504
 30
0.0
 10
1.142035433070866
 20
2.503700787401575
 30
0.0
 10
1.142035433070866
 20
2.503700787401575
 30
0.0
 10
1.142035433070866
 20
2.503700787401575
 30
0.0
 10
1.142035433070866
 20
2.503700787401575
 30
0.0
 10
1.181161417322835
 20
2.567905511811024
 30
0.0
 10
1.181161417322835
 20
2.567905511811024
 30
0.0
  0
SPLINE
  5
7A
330
1F
100
AcDbEntity
  8
P1-LAYER_1
 62
   253
100
AcDbSpline
210
0.0
220
0.0
230
1.0
 70
    11
 71
     3
 72
    20
 73
    16
 74
     0
 42
0.0000000001
 43
0.0000000001
 40
0.0
 40
0.0
 40
0.0
 40
0.0
 40
0.25
 40
0.25
 40
0.25
 40
0.25
 40
0.5
 40
0.5
 40
0.5
 40
0.5
 40
0.75
 40
0.75
 40
0.75
 40
0.75
 40
1.0
 40
1.0
 40
1.0
 40
1.0
 10
1.142035433070866
 20
2.503700787401575
 30
0.0
 10
1.142035433070866
 20
2.503700787401575
 30
0.0
 10
1.792145669291339
 20
2.128984251968504
 30
0.0
 10
1.792145669291339
 20
2.128984251968504
 30
0.0
 10
1.792145669291339
 20
2.128984251968504
 30
0.0
 10
1.792145669291339
 20
2.128984251968504
 30
0.0
 10
1.756629921259843
 20
2.061700787401575
 30
0.0
 10
1.756629921259843
 20
2.061700787401575
 30
0.0
 10
1.756629921259843
 20
2.061700787401575
 30
0.0
 10
1.756629921259843
 20
2.061700787401575
 30
0.0
 10
1.10651968503937
 20
2.436417322834646
 30
0.0
 10
1.10651968503937
 20
2.436417322834646
 30
0.0
 10
1.10651968503937
 20
2.436417322834646
 30
0.0
 10
1.10651968503937
 20
2.436417322834646
 30
0.0
 10
1.142035433070866
 20
2.503700787401575
 30
0.0
 10
1.142035433070866
 20
2.503700787401575
 30
0.0
  0
SPLINE
  5
7B
330
1F
100
AcDbEntity
  8
P1-LAYER_1
 62
   253
100
AcDbSpline
210
0.0
220
0.0
230
1.0
 70
    11
 71
     3
 72
    20
 73
    16
 74
     0
 42
0.0000000001
 43
0.0000000001
 40
0.0
 40
0.0
 40
0.0
 40
0.0
 40
0.25
 40
0.25
 40
0.25
 40
0.25
 40
0.5
 40
0.5
 40
0.5
 40
0.5
 40
0.75
 40
0.75
 40
0.75
 40
0.75
 40
1.0
 40
1.0
 40
1.0
 40
1.0
 10
1.10651968503937
 20
2.436417322834646
 30
0.0
 10
1.10651968503937
 20
2.436417322834646
 30
0.0
 10
1.756629921259843
 20
2.061700787401575
 30
0.0
 10
1.756629921259843
 20
2.061700787401575
 30
0.0
 10
1.756629921259843
 20
2.061700787401575
 30
0.0
 10
1.756629921259843
 20
2.061700787401575
 30
0.0
 10
1.724535433070866
 20
1.991299212598425
 30
0.0
 10
1.724535433070866
 20
1.991299212598425
 30
0.0
 10
1.724535433070866
 20
1.991299212598425
 30
0.0
 10
1.724535433070866
 20
1.991299212598425
 30
0.0
 10
1.074425196850394
 20
2.366015748031496
 30
0.0
 10
1.074425196850394
 20
2.366015748031496
 30
0.0
 10
1.074425196850394
 20
2.366015748031496
 30
0.0
 10
1.074425196850394
 20
2.366015748031496
 30
0.0
 10
1.10651968503937
 20
2.436417322834646
 30
0.0
 10
1.10651968503937
 20
2.436417322834646
 30
0.0
  0
SPLINE
  5
7C
330
1F
100
AcDbEntity
  8
P1-LAYER_1
 62
   253
100
AcDbSpline
210
0.0
220
0.0
230
1.0
 70
    11
 71
     3
 72
    20
 73
    16
 74
     0
 42
0.0000000001
 43
0.0000000001
 40
0.0
 40
0.0
 40
0.0
 40
0.0
 40
0.25
 40
0.25
 40
0.25
 40
0.25
 40
0.5
 40
0.5
 40
0.5
 40
0.5
 40
0.75
 40
0.75
 40
0.75
 40
0.75
 40
1.0
 40
1.0
 40
1.0
 40
1.0
 10
1.074425196850394
 20
2.366015748031496
 30
0.0
 10
1.074425196850394
 20
2.366015748031496
 30
0.0
 10
1.724535433070866
 20
1.991299212598425
 30
0.0
 10
1.724535433070866
 20
1.991299212598425
 30
0.0
 10
1.724535433070866
 20
1.991299212598425
 30
0.0
 10
1.724535433070866
 20
1.991299212598425
 30
0.0
 10
1.695692913385827
 20
1.917767716535433
 30
0.0
 10
1.695692913385827
 20
1.917767716535433
 30
0.0
 10
1.695692913385827
 20
1.917767716535433
 30
0.0
 10
1.695692913385827
 20
1.917767716535433
 30
0.0
 10
1.045582677165355
 20
2.292484251968504
 30
0.0
 10
1.045582677165355
 20
2.292484251968504
 30
0.0
 10
1.045582677165355
 20
2.292484251968504
 30
0.0
 10
1.045582677165355
 20
2.292484251968504
 30
0.0
 10
1.074425196850394
 20
2.366015748031496
 30
0.0
 10
1.074425196850394
 20
2.366015748031496
 30
0.0
  0
SPLINE
  5
7D
330
1F
100
AcDbEntity
  8
P1-LAYER_1
 62
   253
100
AcDbSpline
210
0.0
220
0.0
230
1.0
 70
    11
 71
     3
 72
    20
 73
    16
 74
     0
 42
0.0000000001
 43
0.0000000001
 40
0.0
 40
0.0
 40
0.0
 40
0.0
 40
0.25
 40
0.25
 40
0.25
 40
0.25
 40
0.5
 40
0.5
 40
0.5
 40
0.5
 40
0.75
 40
0.75
 40
0.75
 40
0.75
 40
1.0
 40
1.0
 40
1.0
 40
1.0
 10
1.045582677165355
 20
2.292484251968504
 30
0.0
 10
1.045582677165355
 20
2.292484251968504
 30
0.0
 10
1.695692913385827
 20
1.917767716535433
 30
0.0
 10
1.695692913385827
 20
1.917767716535433
 30
0.0
 10
1.695692913385827
 20
1.917767716535433
 30
0.0
 10
1.695692913385827
 20
1.917767716535433
 30
0.0
 10
1.669917322834646
 20
1.841074803149607
 30
0.0
 10
1.669917322834646
 20
1.841074803149607
 30
0.0
 10
1.669917322834646
 20
1.841074803149607
 30
0.0
 10
1.669917322834646
 20
1.841074803149607
 30
0.0
 10
1.019807086614173
 20
2.215791338582677
 30
0.0
 10
1.019807086614173
 20
2.215791338582677
 30
0.0
 10
1.019807086614173
 20
2.215791338582677
 30
0.0
 10
1.019807086614173
 20
2.215791338582677
 30
0.0
 10
1.045582677165355
 20
2.292484251968504
 30
0.0
 10
1.045582677165355
 20
2.292484251968504
 30
0.0
  0
SPLINE
  5
7E
330
1F
100
AcDbEntity
  8
P1-LAYER_1
 62
   253
100
AcDbSpline
210
0.0
220
0.0
230
1.0
 70
    11
 71
     3
 72
    20
 73
    16
 74
     0
 42
0.0000000001
 43
0.0000000001
 40
0.0
 40
0.0
 40
0.0
 40
0.0
 40
0.25
 40
0.25
 40
0.25
 40
0.25
 40
0.5
 40
0.5
 40
0.5
 40
0.5
 40
0.75
 40
0.75
 40
0.75
 40
0.75
 40
1.0
 40
1.0
 40
1.0
 40
1.0
 10
1.019807086614173
 20
2.215791338582677
 30
0.0
 10
1.019807086614173
 20
2.215791338582677
 30
0.0
 10
1.669917322834646
 20
1.841074803149607
 30
0.0
 10
1.669917322834646
 20
1.841074803149607
 30
0.0
 10
1.669917322834646
 20
1.841074803149607
 30
0.0
 10
1.669917322834646
 20
1.841074803149607
 30
0.0
 10
1.647051181102362
 20
1.761212598425197
 30
0.0
 10
1.647051181102362
 20
1.761212598425197
 30
0.0
 10
1.647051181102362
 20
1.761212598425197
 30
0.0
 10
1.647051181102362
 20
1.761212598425197
 30
0.0
 10
0.9969409448818898
 20
2.135929133858268
 30
0.0
 10
0.9969409448818898
 20
2.135929133858268
 30
0.0
 10
0.9969409448818898
 20
2.135929133858268
 30
0.0
 10
0.9969409448818898
 20
2.135929133858268
 30
0.0
 10
1.019807086614173
 20
2.215791338582677
 30
0.0
 10
1.019807086614173
 20
2.215791338582677
 30
0.0
  0
SPLINE
  5
7F
330
1F
100
AcDbEntity
  8
P1-LAYER_1
 62
   253
100
AcDbSpline
210
0.0
220
0.0
230
1.0
 70
    11
 71
     3
 72
    20
 73
    16
 74
     0
 42
0.0000000001
 43
0.0000000001
 40
0.0
 40
0.0
 40
0.0
 40
0.0
 40
0.25
 40
0.25
 40
0.25
 40
0.25
 40
0.5
 40
0.5
 40
0.5
 40
0.5
 40
0.75
 40
0.75
 40
0.75
 40
0.75
 40
1.0
 40
1.0
 40
1.0
 40
1.0
 10
0.9969409448818898
 20
2.135929133858268
 30
0.0
 10
0.9969409448818898
 20
2.135929133858268
 30
0.0
 10
1.647051181102362
 20
1.761212598425197
 30
0.0
 10
1.647051181102362
 20
1.761212598425197
 30
0.0
 10
1.647051181102362
 20
1.761212598425197
 30
0.0
 10
1.647051181102362
 20
1.761212598425197
 30
0.0
 10
1.626905511811024
 20
1.678137795275591
 30
0.0
 10
1.626905511811024
 20
1.678137795275591
 30
0.0
 10
1.626905511811024
 20
1.678137795275591
 30
0.0
 10
1.626905511811024
 20
1.678137795275591
 30
0.0
 10
0.9767952755905512
 20
2.052854330708661
 30
0.0
 10
0.9767952755905512
 20
2.052854330708661
 30
0.0
 10
0.9767952755905512
 20
2.052854330708661
 30
0.0
 10
0.9767952755905512
 20
2.052854330708661
 30
0.0
 10
0.9969409448818898
 20
2.135929133858268
 30
0.0
 10
0.9969409448818898
 20
2.135929133858268
 30
0.0
  0
SPLINE
  5
80
330
1F
100
AcDbEntity
  8
P1-LAYER_1
 62
   253
100
AcDbSpline
210
0.0
220
0.0
230
1.0
 70
    11
 71
     3
 72
    20
 73
    16
 74
     0
 42
0.0000000001
 43
0.0000000001
 40
0.0
 40
0.0
 40
0.0
 40
0.0
 40
0.25
 40
0.25
 40
0.25
 40
0.25
 40
0.5
 40
0.5
 40
0.5
 40
0.5
 40
0.75
 40
0.75
 40
0.75
 40
0.75
 40
1.0
 40
1.0
 40
1.0
 40
1.0
 10
0.9767952755905512
 20
2.052854330708661
 30
0.0
 10
0.9767952755905512
 20
2.052854330708661
 30
0.0
 10
1.626905511811024
 20
1.678137795275591
 30
0.0
 10
1.626905511811024
 20
1.678137795275591
 30
0.0
 10
1.626905511811024
 20
1.678137795275591
 30
0.0
 10
1.626905511811024
 20
1.678137795275591
 30
0.0
 10
1.609314960629921
 20
1.591846456692913
 30
0.0
 10
1.609314960629921
 20
1.591846456692913
 30
0.0
 10
1.609314960629921
 20
1.591846456692913
 30
0.0
 10
1.609314960629921
 20
1.591846456692913
 30
0.0
 10
0.9592047244094488
 20
1.966562992125984
 30
0.0
 10
0.9592047244094488
 20
1.966562992125984
 30
0.0
 10
0.9592047244094488
 20
1.966562992125984
 30
0.0
 10
0.9592047244094488
 20
1.966562992125984
 30
0.0
 10
0.9767952755905512
 20
2.052854330708661
 30
0.0
 10
0.9767952755905512
 20
2.052854330708661
 30
0.0
  0
SPLINE
  5
81
330
1F
100
AcDbEntity
  8
P1-LAYER_1
 62
   253
100
AcDbSpline
210
0.0
220
0.0
230
1.0
 70
    11
 71
     3
 72
    20
 73
    16
 74
     0
 42
0.0000000001
 43
0.0000000001
 40
0.0
 40
0.0
 40
0.0
 40
0.0
 40
0.25
 40
0.25
 40
0.25
 40
0.25
 40
0.5
 40
0.5
 40
0.5
 40
0.5
 40
0.75
 40
0.75
 40
0.75
 40
0.75
 40
1.0
 40
1.0
 40
1.0
 40
1.0
 10
0.9592047244094488
 20
1.966562992125984
 30
0.0
 10
0.9592047244094488
 20
1.966562992125984
 30
0.0
 10
1.609314960629921
 20
1.591846456692913
 30
0.0
 10
1.609314960629921
 20
1.591846456692913
 30
0.0
 10
1.609314960629921
 20
1.591846456692913
 30
0.0
 10
1.609314960629921
 20
1.591846456692913
 30
0.0
 10
1.594086614173228
 20
1.502295275590551
 30
0.0
 10
1.594086614173228
 20
1.502295275590551
 30
0.0
 10
1.594086614173228
 20
1.502295275590551
 30
0.0
 10
1.594086614173228
 20
1.502295275590551
 30
0.0
 10
0.9439763779527559
 20
1.877011811023622
 30
0.0
 10
0.9439763779527559
 20
1.877011811023622
 30
0.0
 10
0.9439763779527559
 20
1.877011811023622
 30
0.0
 10
0.9439763779527559
 20
1.877011811023622
 30
0.0
 10
0.9592047244094488
 20
1.966562992125984
 30
0.0
 10
0.9592047244094488
 20
1.966562992125984
 30
0.0
  0
SPLINE
  5
82
330
1F
100
AcDbEntity
  8
P1-LAYER_1
 62
   253
100
AcDbSpline
210
0.0
220
0.0
230
1.0
 70
    11
 71
     3
 72
    20
 73
    16
 74
     0
 42
0.0000000001
 43
0.0000000001
 40
0.0
 40
0.0
 40
0.0
 40
0.0
 40
0.25
 40
0.25
 40
0.25
 40
0.25
 40
0.5
 40
0.5
 40
0.5
 40
0.5
 40
0.75
 40
0.75
 40
0.75
 40
0.75
 40
1.0
 40
1.0
 40
1.0
 40
1.0
 10
0.9439763779527559
 20
1.877011811023622
 30
0.0
 10
0.9439763779527559
 20
1.877011811023622
 30
0.0
 10
1.594086614173228
 20
1.502295275590551
 30
0.0
 10
1.594086614173228
 20
1.502295275590551
 30
0.0
 10
1.594086614173228
 20
1.502295275590551
 30
0.0
 10
1.594086614173228
 20
1.502295275590551
 30
0.0
 10
1.581066929133858
 20
1.409484251968504
 30
0.0
 10
1.581066929133858
 20
1.409484251968504
 30
0.0
 10
1.581066929133858
 20
1.409484251968504
 30
0.0
 10
1.581066929133858
 20
1.409484251968504
 30
0.0
 10
0.9309566929133859
 20
1.784200787401575
 30
0.0
 10
0.9309566929133859
 20
1.784200787401575
 30
0.0
 10
0.9309566929133859
 20
1.784200787401575
 30
0.0
 10
0.9309566929133859
 20
1.784200787401575
 30
0.0
 10
0.9439763779527559
 20
1.877011811023622
 30
0.0
 10
0.9439763779527559
 20
1.877011811023622
 30
0.0
  0
SPLINE
  5
83
330
1F
100
AcDbEntity
  8
P1-LAYER_1
 62
   253
100
AcDbSpline
210
0.0
220
0.0
230
1.0
 70
    11
 71
     3
 72
    20
 73
    16
 74
     0
 42
0.0000000001
 43
0.0000000001
 40
0.0
 40
0.0
 40
0.0
 40
0.0
 40
0.25
 40
0.25
 40
0.25
 40
0.25
 40
0.5
 40
0.5
 40
0.5
 40
0.5
 40
0.75
 40
0.75
 40
0.75
 40
0.75
 40
1.0
 40
1.0
 40
1.0
 40
1.0
 10
0.9309566929133859
 20
1.784200787401575
 30
0.0
 10
0.9309566929133859
 20
1.784200787401575
 30
0.0
 10
1.581066929133858
 20
1.409484251968504
 30
0.0
 10
1.581066929133858
 20
1.409484251968504
 30
0.0
 10
1.581066929133858
 20
1.409484251968504
 30
0.0
 10
1.581066929133858
 20
1.409484251968504
 30
0.0
 10
1.570062992125984
 20
1.313370078740157
 30
0.0
 10
1.570062992125984
 20
1.313370078740157
 30
0.0
 10
1.570062992125984
 20
1.313370078740157
 30
0.0
 10
1.570062992125984
 20
1.313370078740157
 30
0.0
 10
0.9199527559055118
 20
1.688086614173229
 30
0.0
 10
0.9199527559055118
 20
1.688086614173229
 30
0.0
 10
0.9199527559055118
 20
1.688086614173229
 30
0.0
 10
0.9199527559055118
 20
1.688086614173229
 30
0.0
 10
0.9309566929133859
 20
1.784200787401575
 30
0.0
 10
0.9309566929133859
 20
1.784200787401575
 30
0.0
  0
SPLINE
  5
84
330
1F
100
AcDbEntity
  8
P1-LAYER_1
 62
   253
100
AcDbSpline
210
0.0
220
0.0
230
1.0
 70
    11
 71
     3
 72
    20
 73
    16
 74
     0
 42
0.0000000001
 43
0.0000000001
 40
0.0
 40
0.0
 40
0.0
 40
0.0
 40
0.25
 40
0.25
 40
0.25
 40
0.25
 40
0.5
 40
0.5
 40
0.5
 40
0.5
 40
0.75
 40
0.75
 40
0.75
 40
0.75
 40
1.0
 40
1.0
 40
1.0
 40
1.0
 10
0.9199527559055118
 20
1.688086614173229
 30
0.0
 10
0.9199527559055118
 20
1.688086614173229
 30
0.0
 10
1.570062992125984
 20
1.313370078740157
 30
0.0
 10
1.570062992125984
 20
1.313370078740157
 30
0.0
 10
1.570062992125984
 20
1.313370078740157
 30
0.0
 10
1.570062992125984
 20
1.313370078740157
 30
0.0
 10
1.560909448818898
 20
1.21394094488189
 30
0.0
 10
1.560909448818898
 20
1.21394094488189
 30
0.0
 10
1.560909448818898
 20
1.21394094488189
 30
0.0
 10
1.560909448818898
 20
1.21394094488189
 30
0.0
 10
0.9107992125984252
 20
1.588657480314961
 30
0.0
 10
0.9107992125984252
 20
1.588657480314961
 30
0.0
 10
0.9107992125984252
 20
1.588657480314961
 30
0.0
 10
0.9107992125984252
 20
1.588657480314961
 30
0.0
 10
0.9199527559055118
 20
1.688086614173229
 30
0.0
 10
0.9199527559055118
 20
1.688086614173229
 30
0.0
  0
SPLINE
  5
85
330
1F
100
AcDbEntity
  8
P1-LAYER_1
 62
   253
100
AcDbSpline
210
0.0
220
0.0
230
1.0
 70
    11
 71
     3
 72
    20
 73
    16
 74
     0
 42
0.0000000001
 43
0.0000000001
 40
0.0
 40
0.0
 40
0.0
 40
0.0
 40
0.25
 40
0.25
 40
0.25
 40
0.25
 40
0.5
 40
0.5
 40
0.5
 40
0.5
 40
0.75
 40
0.75
 40
0.75
 40
0.75
 40
1.0
 40
1.0
 40
1.0
 40
1.0
 10
0.9107992125984252
 20
1.588657480314961
 30
0.0
 10
0.9107992125984252
 20
1.588657480314961
 30
0.0
 10
1.560909448818898
 20
1.21394094488189
 30
0.0
 10
1.560909448818898
 20
1.21394094488189
 30
0.0
 10
1.560909448818898
 20
1.21394094488189
 30
0.0
 10
1.560909448818898
 20
1.21394094488189
 30
0.0
 10
1.55342125984252
 20
1.111165354330709
 30
0.0
 10
1.55342125984252
 20
1.111165354330709
 30
0.0
 10
1.55342125984252
 20
1.111165354330709
 30
0.0
 10
1.55342125984252
 20
1.111165354330709
 30
0.0
 10
0.9033110236220473
 20
1.48588188976378
 30
0.0
 10
0.9033110236220473
 20
1.48588188976378
 30
0.0
 10
0.9033110236220473
 20
1.48588188976378
 30
0.0
 10
0.9033110236220473
 20
1.48588188976378
 30
0.0
 10
0.9107992125984252
 20
1.588657480314961
 30
0.0
 10
0.9107992125984252
 20
1.588657480314961
 30
0.0
  0
SPLINE
  5
86
330
1F
100
AcDbEntity
  8
P1-LAYER_1
 62
   253
100
AcDbSpline
210
0.0
220
0.0
230
1.0
 70
    11
 71
     3
 72
    20
 73
    16
 74
     0
 42
0.0000000001
 43
0.0000000001
 40
0.0
 40
0.0
 40
0.0
 40
0.0
 40
0.25
 40
0.25
 40
0.25
 40
0.25
 40
0.5
 40
0.5
 40
0.5
 40
0.5
 40
0.75
 40
0.75
 40
0.75
 40
0.75
 40
1.0
 40
1.0
 40
1.0
 40
1.0
 10
0.9033110236220473
 20
1.48588188976378
 30
0.0
 10
0.9033110236220473
 20
1.48588188976378
 30
0.0
 10
1.55342125984252
 20
1.111165354330709
 30
0.0
 10
1.55342125984252
 20
1.111165354330709
 30
0.0
 10
1.55342125984252
 20
1.111165354330709
 30
0.0
 10
1.55342125984252
 20
1.111165354330709
 30
0.0
 10
1.54744094488189
 20
1.005035433070866
 30
0.0
 10
1.54744094488189
 20
1.005035433070866
 30
0.0
 10
1.54744094488189
 20
1.005035433070866
 30
0.0
 10
1.54744094488189
 20
1.005035433070866
 30
0.0
 10
0.8973307086614174
 20
1.379751968503937
 30
0.0
 10
0.8973307086614174
 20
1.379751968503937
 30
0.0
 10
0.8973307086614174
 20
1.379751968503937
 30
0.0
 10
0.8973307086614174
 20
1.379751968503937
 30
0.0
 10
0.9033110236220473
 20
1.48588188976378
 30
0.0
 10
0.9033110236220473
 20
1.48588188976378
 30
0.0
  0
SPLINE
  5
87
330
1F
100
AcDbEntity
  8
P1-LAYER_1
 62
   253
100
AcDbSpline
210
0.0
220
0.0
230
1.0
 70
    11
 71
     3
 72
    20
 73
    16
 74
     0
 42
0.0000000001
 43
0.0000000001
 40
0.0
 40
0.0
 40
0.0
 40
0.0
 40
0.25
 40
0.25
 40
0.25
 40
0.25
 40
0.5
 40
0.5
 40
0.5
 40
0.5
 40
0.75
 40
0.75
 40
0.75
 40
0.75
 40
1.0
 40
1.0
 40
1.0
 40
1.0
 10
0.8973307086614174
 20
1.379751968503937
 30
0.0
 10
0.8973307086614174
 20
1.379751968503937
 30
0.0
 10
1.54744094488189
 20
1.005035433070866
 30
0.0
 10
1.54744094488189
 20
1.005035433070866
 30
0.0
 10
1.54744094488189
 20
1.005035433070866
 30
0.0
 10
1.54744094488189
 20
1.005035433070866
 30
0.0
 10
1.542779527559055
 20
0.8955157480314961
 30
0.0
 10
1.542779527559055
 20
0.8955157480314961
 30
0.0
 10
1.542779527559055
 20
0.8955157480314961
 30
0.0
 10
1.542779527559055
 20
0.8955157480314961
 30
0.0
 10
0.8926692913385828
 20
1.270232283464567
 30
0.0
 10
0.8926692913385828
 20
1.270232283464567
 30
0.0
 10
0.8926692913385828
 20
1.270232283464567
 30
0.0
 10
0.8926692913385828
 20
1.270232283464567
 30
0.0
 10
0.8973307086614174
 20
1.379751968503937
 30
0.0
 10
0.8973307086614174
 20
1.379751968503937
 30
0.0
  0
SPLINE
  5
88
330
1F
100
AcDbEntity
  8
P1-LAYER_1
 62
   253
100
AcDbSpline
210
0.0
220
0.0
230
1.0
 70
    11
 71
     3
 72
    20
 73
    16
 74
     0
 42
0.0000000001
 43
0.0000000001
 40
0.0
 40
0.0
 40
0.0
 40
0.0
 40
0.25
 40
0.25
 40
0.25
 40
0.25
 40
0.5
 40
0.5
 40
0.5
 40
0.5
 40
0.75
 40
0.75
 40
0.75
 40
0.75
 40
1.0
 40
1.0
 40
1.0
 40
1.0
 10
0.8926692913385828
 20
1.270232283464567
 30
0.0
 10
0.8926692913385828
 20
1.270232283464567
 30
0.0
 10
1.542779527559055
 20
0.8955157480314961
 30
0.0
 10
1.542779527559055
 20
0.8955157480314961
 30
0.0
 10
1.542779527559055
 20
0.8955157480314961
 30
0.0
 10
1.542779527559055
 20
0.8955157480314961
 30
0.0
 10
1.539263779527559
 20
0.7825905511811024
 30
0.0
 10
1.539263779527559
 20
0.7825905511811024
 30
0.0
 10
1.539263779527559
 20
0.7825905511811024
 30
0.0
 10
1.539263779527559
 20
0.7825905511811024
 30
0.0
 10
0.8891535433070866
 20
1.157307086614173
 30
0.0
 10
0.8891535433070866
 20
1.157307086614173
 30
0.0
 10
0.8891535433070866
 20
1.157307086614173
 30
0.0
 10
0.8891535433070866
 20
1.157307086614173
 30
0.0
 10
0.8926692913385828
 20
1.270232283464567
 30
0.0
 10
0.8926692913385828
 20
1.270232283464567
 30
0.0
  0
SPLINE
  5
89
330
1F
100
AcDbEntity
  8
P1-LAYER_1
 62
   253
100
AcDbSpline
210
0.0
220
0.0
230
1.0
 70
    11
 71
     3
 72
    20
 73
    16
 74
     0
 42
0.0000000001
 43
0.0000000001
 40
0.0
 40
0.0
 40
0.0
 40
0.0
 40
0.25
 40
0.25
 40
0.25
 40
0.25
 40
0.5
 40
0.5
 40
0.5
 40
0.5
 40
0.75
 40
0.75
 40
0.75
 40
0.75
 40
1.0
 40
1.0
 40
1.0
 40
1.0
 10
0.8891535433070866
 20
1.157307086614173
 30
0.0
 10
0.8891535433070866
 20
1.157307086614173
 30
0.0
 10
1.539263779527559
 20
0.7825905511811024
 30
0.0
 10
1.539263779527559
 20
0.7825905511811024
 30
0.0
 10
1.539263779527559
 20
0.7825905511811024
 30
0.0
 10
1.539263779527559
 20
0.7825905511811024
 30
0.0
 10
1.536716535433071
 20
0.6662244094488189
 30
0.0
 10
1.536716535433071
 20
0.6662244094488189
 30
0.0
 10
1.536716535433071
 20
0.6662244094488189
 30
0.0
 10
1.536716535433071
 20
0.6662244094488189
 30
0.0
 10
0.8866062992125985
 20
1.04094094488189
 30
0.0
 10
0.8866062992125985
 20
1.04094094488189
 30
0.0
 10
0.8866062992125985
 20
1.04094094488189
 30
0.0
 10
0.8866062992125985
 20
1.04094094488189
 30
0.0
 10
0.8891535433070866
 20
1.157307086614173
 30
0.0
 10
0.8891535433070866
 20
1.157307086614173
 30
0.0
  0
SPLINE
  5
8A
330
1F
100
AcDbEntity
  8
P1-LAYER_1
 62
   253
100
AcDbSpline
210
0.0
220
0.0
230
1.0
 70
    11
 71
     3
 72
    20
 73
    16
 74
     0
 42
0.0000000001
 43
0.0000000001
 40
0.0
 40
0.0
 40
0.0
 40
0.0
 40
0.25
 40
0.25
 40
0.25
 40
0.25
 40
0.5
 40
0.5
 40
0.5
 40
0.5
 40
0.75
 40
0.75
 40
0.75
 40
0.75
 40
1.0
 40
1.0
 40
1.0
 40
1.0
 10
0.8866062992125985
 20
1.04094094488189
 30
0.0
 10
0.8866062992125985
 20
1.04094094488189
 30
0.0
 10
1.536716535433071
 20
0.6662244094488189
 30
0.0
 10
1.536716535433071
 20
0.6662244094488189
 30
0.0
 10
1.536716535433071
 20
0.6662244094488189
 30
0.0
 10
1.536716535433071
 20
0.6662244094488189
 30
0.0
 10
1.534968503937008
 20
0.5464094488188976
 30
0.0
 10
1.534968503937008
 20
0.5464094488188976
 30
0.0
 10
1.534968503937008
 20
0.5464094488188976
 30
0.0
 10
1.534968503937008
 20
0.5464094488188976
 30
0.0
 10
0.8848582677165354
 20
0.9211259842519686
 30
0.0
 10
0.8848582677165354
 20
0.9211259842519686
 30
0.0
 10
0.8848582677165354
 20
0.9211259842519686
 30
0.0
 10
0.8848582677165354
 20
0.9211259842519686
 30
0.0
 10
0.8866062992125985
 20
1.04094094488189
 30
0.0
 10
0.8866062992125985
 20
1.04094094488189
 30
0.0
  0
SPLINE
  5
8B
330
1F
100
AcDbEntity
  8
P1-LAYER_1
 62
   253
100
AcDbSpline
210
0.0
220
0.0
230
1.0
 70
    11
 71
     3
 72
    20
 73
    16
 74
     0
 42
0.0000000001
 43
0.0000000001
 40
0.0
 40
0.0
 40
0.0
 40
0.0
 40
0.25
 40
0.25
 40
0.25
 40
0.25
 40
0.5
 40
0.5
 40
0.5
 40
0.5
 40
0.75
 40
0.75
 40
0.75
 40
0.75
 40
1.0
 40
1.0
 40
1.0
 40
1.0
 10
0.8848582677165354
 20
0.9211259842519686
 30
0.0
 10
0.8848582677165354
 20
0.9211259842519686
 30
0.0
 10
1.534968503937008
 20
0.5464094488188976
 30
0.0
 10
1.534968503937008
 20
0.5464094488188976
 30
0.0
 10
1.534968503937008
 20
0.5464094488188976
 30
0.0
 10
1.534968503937008
 20
0.5464094488188976
 30
0.0
 10
1.533838582677165
 20
0.4231141732283465
 30
0.0
 10
1.533838582677165
 20
0.4231141732283465
 30
0.0
 10
1.533838582677165
 20
0.4231141732283465
 30
0.0
 10
1.533838582677165
 20
0.4231141732283465
 30
0.0
 10
0.883728346456693
 20
0.7978307086614174
 30
0.0
 10
0.883728346456693
 20
0.7978307086614174
 30
0.0
 10
0.883728346456693
 20
0.7978307086614174
 30
0.0
 10
0.883728346456693
 20
0.7978307086614174
 30
0.0
 10
0.8848582677165354
 20
0.9211259842519686
 30
0.0
 10
0.8848582677165354
 20
0.9211259842519686
 30
0.0
  0
SPLINE
  5
8C
330
1F
100
AcDbEntity
  8
P1-LAYER_1
 62
   253
100
AcDbSpline
210
0.0
220
0.0
230
1.0
 70
    11
 71
     3
 72
    20
 73
    16
 74
     0
 42
0.0000000001
 43
0.0000000001
 40
0.0
 40
0.0
 40
0.0
 40
0.0
 40
0.25
 40
0.25
 40
0.25
 40
0.25
 40
0.5
 40
0.5
 40
0.5
 40
0.5
 40
0.75
 40
0.75
 40
0.75
 40
0.75
 40
1.0
 40
1.0
 40
1.0
 40
1.0
 10
0.883728346456693
 20
0.7978307086614174
 30
0.0
 10
0.883728346456693
 20
0.7978307086614174
 30
0.0
 10
1.533838582677165
 20
0.4231141732283465
 30
0.0
 10
1.533838582677165
 20
0.4231141732283465
 30
0.0
 10
1.533838582677165
 20
0.4231141732283465
 30
0.0
 10
1.533838582677165
 20
0.4231141732283465
 30
0.0
 10
1.533157480314961
 20
0.2963188976377953
 30
0.0
 10
1.533157480314961
 20
0.2963188976377953
 30
0.0
 10
1.533157480314961
 20
0.2963188976377953
 30
0.0
 10
1.533157480314961
 20
0.2963188976377953
 30
0.0
 10
0.8830472440944882
 20
0.6710354330708662
 30
0.0
 10
0.8830472440944882
 20
0.6710354330708662
 30
0.0
 10
0.8830472440944882
 20
0.6710354330708662
 30
0.0
 10
0.8830472440944882
 20
0.6710354330708662
 30
0.0
 10
0.883728346456693
 20
0.7978307086614174
 30
0.0
 10
0.883728346456693
 20
0.7978307086614174
 30
0.0
  0
SPLINE
  5
8D
330
1F
100
AcDbEntity
  8
P1-LAYER_1
 62
   253
100
AcDbSpline
210
0.0
220
0.0
230
1.0
 70
    11
 71
     3
 72
    20
 73
    16
 74
     0
 42
0.0000000001
 43
0.0000000001
 40
0.0
 40
0.0
 40
0.0
 40
0.0
 40
0.25
 40
0.25
 40
0.25
 40
0.25
 40
0.5
 40
0.5
 40
0.5
 40
0.5
 40
0.75
 40
0.75
 40
0.75
 40
0.75
 40
1.0
 40
1.0
 40
1.0
 40
1.0
 10
0.8830472440944882
 20
0.6710354330708662
 30
0.0
 10
0.8830472440944882
 20
0.6710354330708662
 30
0.0
 10
1.533157480314961
 20
0.2963188976377953
 30
0.0
 10
1.533157480314961
 20
0.2963188976377953
 30
0.0
 10
1.533157480314961
 20
0.2963188976377953
 30
0.0
 10
1.533157480314961
 20
0.2963188976377953
 30
0.0
 10
1.532740157480315
 20
0.165996062992126
 30
0.0
 10
1.532740157480315
 20
0.165996062992126
 30
0.0
 10
1.532740157480315
 20
0.165996062992126
 30
0.0
 10
1.532740157480315
 20
0.165996062992126
 30
0.0
 10
0.8826299212598425
 20
0.5407125984251969
 30
0.0
 10
0.8826299212598425
 20
0.5407125984251969
 30
0.0
 10
0.8826299212598425
 20
0.5407125984251969
 30
0.0
 10
0.8826299212598425
 20
0.5407125984251969
 30
0.0
 10
0.8830472440944882
 20
0.6710354330708662
 30
0.0
 10
0.8830472440944882
 20
0.6710354330708662
 30
0.0
  0
SPLINE
  5
8E
330
1F
100
AcDbEntity
  8
P1-LAYER_1
 62
   250
100
AcDbSpline
210
0.0
220
0.0
230
1.0
 70
    11
 71
     3
 72
   268
 73
   264
 74
     0
 42
0.0000000001
 43
0.0000000001
 40
0.0
 40
0.0
 40
0.0
 40
0.0
 40
0.0151515151515152
 40
0.0151515151515152
 40
0.0151515151515152
 40
0.0151515151515152
 40
0.0303030303030303
 40
0.0303030303030303
 40
0.0303030303030303
 40
0.0303030303030303
 40
0.0454545454545455
 40
0.0454545454545455
 40
0.0454545454545455
 40
0.0454545454545455
 40
0.0606060606060606
 40
0.0606060606060606
 40
0.0606060606060606
 40
0.0606060606060606
 40
0.0757575757575758
 40
0.0757575757575758
 40
0.0757575757575758
 40
0.0757575757575758
 40
0.0909090909090909
 40
0.0909090909090909
 40
0.0909090909090909
 40
0.0909090909090909
 40
0.1060606060606061
 40
0.1060606060606061
 40
0.1060606060606061
 40
0.1060606060606061
 40
0.1212121212121212
 40
0.1212121212121212
 40
0.1212121212121212
 40
0.1212121212121212
 40
0.1363636363636364
 40
0.1363636363636364
 40
0.1363636363636364
 40
0.1363636363636364
 40
0.1515151515151515
 40
0.1515151515151515
 40
0.1515151515151515
 40
0.1515151515151515
 40
0.1666666666666666
 40
0.1666666666666666
 40
0.1666666666666666
 40
0.1666666666666666
 40
0.1818181818181818
 40
0.1818181818181818
 40
0.1818181818181818
 40
0.1818181818181818
 40
0.1969696969696969
 40
0.1969696969696969
 40
0.1969696969696969
 40
0.1969696969696969
 40
0.212121212121212
 40
0.212121212121212
 40
0.212121212121212
 40
0.212121212121212
 40
0.2272727272727272
 40
0.2272727272727272
 40
0.2272727272727272
 40
0.2272727272727272
 40
0.2424242424242423
 40
0.2424242424242423
 40
0.2424242424242423
 40
0.2424242424242423
 40
0.2575757575757575
 40
0.2575757575757575
 40
0.2575757575757575
 40
0.2575757575757575
 40
0.2727272727272726
 40
0.2727272727272726
 40
0.2727272727272726
 40
0.2727272727272726
 40
0.2878787878787877
 40
0.2878787878787877
 40
0.2878787878787877
 40
0.2878787878787877
 40
0.3030303030303029
 40
0.3030303030303029
 40
0.3030303030303029
 40
0.3030303030303029
 40
0.318181818181818
 40
0.318181818181818
 40
0.318181818181818
 40
0.318181818181818
 40
0.3333333333333332
 40
0.3333333333333332
 40
0.3333333333333332
 40
0.3333333333333332
 40
0.3484848484848483
 40
0.3484848484848483
 40
0.3484848484848483
 40
0.3484848484848483
 40
0.3636363636363634
 40
0.3636363636363634
 40
0.3636363636363634
 40
0.3636363636363634
 40
0.3787878787878786
 40
0.3787878787878786
 40
0.3787878787878786
 40
0.3787878787878786
 40
0.3939393939393937
 40
0.3939393939393937
 40
0.3939393939393937
 40
0.3939393939393937
 40
0.4090909090909088
 40
0.4090909090909088
 40
0.4090909090909088
 40
0.4090909090909088
 40
0.424242424242424
 40
0.424242424242424
 40
0.424242424242424
 40
0.424242424242424
 40
0.4393939393939391
 40
0.4393939393939391
 40
0.4393939393939391
 40
0.4393939393939391
 40
0.4545454545454543
 40
0.4545454545454543
 40
0.4545454545454543
 40
0.4545454545454543
 40
0.4696969696969694
 40
0.4696969696969694
 40
0.4696969696969694
 40
0.4696969696969694
 40
0.4848484848484845
 40
0.4848484848484845
 40
0.4848484848484845
 40
0.4848484848484845
 40
0.4999999999999997
 40
0.4999999999999997
 40
0.4999999999999997
 40
0.4999999999999997
 40
0.5151515151515148
 40
0.5151515151515148
 40
0.5151515151515148
 40
0.5151515151515148
 40
0.5303030303030299
 40
0.5303030303030299
 40
0.5303030303030299
 40
0.5303030303030299
 40
0.5454545454545451
 40
0.5454545454545451
 40
0.5454545454545451
 40
0.5454545454545451
 40
0.5606060606060602
 40
0.5606060606060602
 40
0.5606060606060602
 40
0.5606060606060602
 40
0.5757575757575754
 40
0.5757575757575754
 40
0.5757575757575754
 40
0.5757575757575754
 40
0.5909090909090905
 40
0.5909090909090905
 40
0.5909090909090905
 40
0.5909090909090905
 40
0.6060606060606056
 40
0.6060606060606056
 40
0.6060606060606056
 40
0.6060606060606056
 40
0.6212121212121208
 40
0.6212121212121208
 40
0.6212121212121208
 40
0.6212121212121208
 40
0.6363636363636359
 40
0.6363636363636359
 40
0.6363636363636359
 40
0.6363636363636359
 40
0.6515151515151511
 40
0.6515151515151511
 40
0.6515151515151511
 40
0.6515151515151511
 40
0.6666666666666662
 40
0.6666666666666662
 40
0.6666666666666662
 40
0.6666666666666662
 40
0.6818181818181813
 40
0.6818181818181813
 40
0.6818181818181813
 40
0.6818181818181813
 40
0.6969696969696965
 40
0.6969696969696965
 40
0.6969696969696965
 40
0.6969696969696965
 40
0.7121212121212116
 40
0.7121212121212116
 40
0.7121212121212116
 40
0.7121212121212116
 40
0.7272727272727267
 40
0.7272727272727267
 40
0.7272727272727267
 40
0.7272727272727267
 40
0.7424242424242419
 40
0.7424242424242419
 40
0.7424242424242419
 40
0.7424242424242419
 40
0.757575757575757
 40
0.757575757575757
 40
0.757575757575757
 40
0.757575757575757
 40
0.7727272727272722
 40
0.7727272727272722
 40
0.7727272727272722
 40
0.7727272727272722
 40
0.7878787878787873
 40
0.7878787878787873
 40
0.7878787878787873
 40
0.7878787878787873
 40
0.8030303030303024
 40
0.8030303030303024
 40
0.8030303030303024
 40
0.8030303030303024
 40
0.8181818181818176
 40
0.8181818181818176
 40
0.8181818181818176
 40
0.8181818181818176
 40
0.8333333333333327
 40
0.8333333333333327
 40
0.8333333333333327
 40
0.8333333333333327
 40
0.8484848484848478
 40
0.8484848484848478
 40
0.8484848484848478
 40
0.8484848484848478
 40
0.863636363636363
 40
0.863636363636363
 40
0.863636363636363
 40
0.863636363636363
 40
0.8787878787878781
 40
0.8787878787878781
 40
0.8787878787878781
 40
0.8787878787878781
 40
0.8939393939393933
 40
0.8939393939393933
 40
0.8939393939393933
 40
0.8939393939393933
 40
0.9090909090909084
 40
0.9090909090909084
 40
0.9090909090909084
 40
0.9090909090909084
 40
0.9242424242424235
 40
0.9242424242424235
 40
0.9242424242424235
 40
0.9242424242424235
 40
0.9393939393939387
 40
0.9393939393939387
 40
0.9393939393939387
 40
0.9393939393939387
 40
0.9545454545454538
 40
0.9545454545454538
 40
0.9545454545454538
 40
0.9545454545454538
 40
0.969696969696969
 40
0.969696969696969
 40
0.969696969696969
 40
0.969696969696969
 40
0.9848484848484841
 40
0.9848484848484841
 40
0.9848484848484841
 40
0.9848484848484841
 40
1.0
 40
1.0
 40
1.0
 40
1.0
 10
1.899204724409449
 20
3.076799212598425
 30
0.0
 10
1.899204724409449
 20
3.076799212598425
 30
0.0
 10
2.549314960629921
 20
2.702082677165354
 30
0.0
 10
2.549314960629921
 20
2.702082677165354
 30
0.0
 10
2.549314960629921
 20
2.702082677165354
 30
0.0
 10
2.549314960629921
 20
2.702082677165354
 30
0.0
 10
2.459015748031496
 20
2.670346456692914
 30
0.0
 10
2.459015748031496
 20
2.670346456692914
 30
0.0
 10
2.459015748031496
 20
2.670346456692914
 30
0.0
 10
2.459015748031496
 20
2.670346456692914
 30
0.0
 10
2.374255905511811
 20
2.635771653543307
 30
0.0
 10
2.374255905511811
 20
2.635771653543307
 30
0.0
 10
2.374255905511811
 20
2.635771653543307
 30
0.0
 10
2.374255905511811
 20
2.635771653543307
 30
0.0
 10
2.29484251968504
 20
2.598338582677166
 30
0.0
 10
2.29484251968504
 20
2.598338582677166
 30
0.0
 10
2.29484251968504
 20
2.598338582677166
 30
0.0
 10
2.29484251968504
 20
2.598338582677166
 30
0.0
 10
2.220618110236221
 20
2.55801968503937
 30
0.0
 10
2.220618110236221
 20
2.55801968503937
 30
0.0
 10
2.220618110236221
 20
2.55801968503937
 30
0.0
 10
2.220618110236221
 20
2.55801968503937
 30
0.0
 10
2.151385826771654
 20
2.514799212598425
 30
0.0
 10
2.151385826771654
 20
2.514799212598425
 30
0.0
 10
2.151385826771654
 20
2.514799212598425
 30
0.0
 10
2.151385826771654
 20
2.514799212598425
 30
0.0
 10
2.086988188976378
 20
2.468649606299213
 30
0.0
 10
2.086988188976378
 20
2.468649606299213
 30
0.0
 10
2.086988188976378
 20
2.468649606299213
 30
0.0
 10
2.086988188976378
 20
2.468649606299213
 30
0.0
 10
2.027240157480315
 20
2.419551181102362
 30
0.0
 10
2.027240157480315
 20
2.419551181102362
 30
0.0
 10
2.027240157480315
 20
2.419551181102362
 30
0.0
 10
2.027240157480315
 20
2.419551181102362
 30
0.0
 10
1.971972440944882
 20
2.367472440944882
 30
0.0
 10
1.971972440944882
 20
2.367472440944882
 30
0.0
 10
1.971972440944882
 20
2.367472440944882
 30
0.0
 10
1.971972440944882
 20
2.367472440944882
 30
0.0
 10
1.921007874015748
 20
2.312405511811024
 30
0.0
 10
1.921007874015748
 20
2.312405511811024
 30
0.0
 10
1.921007874015748
 20
2.312405511811024
 30
0.0
 10
1.921007874015748
 20
2.312405511811024
 30
0.0
 10
1.874161417322835
 20
2.254314960629921
 30
0.0
 10
1.874161417322835
 20
2.254314960629921
 30
0.0
 10
1.874161417322835
 20
2.254314960629921
 30
0.0
 10
1.874161417322835
 20
2.254314960629921
 30
0.0
 10
1.831271653543307
 20
2.193188976377953
 30
0.0
 10
1.831271653543307
 20
2.193188976377953
 30
0.0
 10
1.831271653543307
 20
2.193188976377953
 30
0.0
 10
1.831271653543307
 20
2.193188976377953
 30
0.0
 10
1.792145669291339
 20
2.128984251968504
 30
0.0
 10
1.792145669291339
 20
2.128984251968504
 30
0.0
 10
1.792145669291339
 20
2.128984251968504
 30
0.0
 10
1.792145669291339
 20
2.128984251968504
 30
0.0
 10
1.756629921259843
 20
2.061700787401575
 30
0.0
 10
1.756629921259843
 20
2.061700787401575
 30
0.0
 10
1.756629921259843
 20
2.061700787401575
 30
0.0
 10
1.756629921259843
 20
2.061700787401575
 30
0.0
 10
1.724535433070866
 20
1.991299212598425
 30
0.0
 10
1.724535433070866
 20
1.991299212598425
 30
0.0
 10
1.724535433070866
 20
1.991299212598425
 30
0.0
 10
1.724535433070866
 20
1.991299212598425
 30
0.0
 10
1.695692913385827
 20
1.917767716535433
 30
0.0
 10
1.695692913385827
 20
1.917767716535433
 30
0.0
 10
1.695692913385827
 20
1.917767716535433
 30
0.0
 10
1.695692913385827
 20
1.917767716535433
 30
0.0
 10
1.669917322834646
 20
1.841074803149607
 30
0.0
 10
1.669917322834646
 20
1.841074803149607
 30
0.0
 10
1.669917322834646
 20
1.841074803149607
 30
0.0
 10
1.669917322834646
 20
1.841074803149607
 30
0.0
 10
1.647051181102362
 20
1.761212598425197
 30
0.0
 10
1.647051181102362
 20
1.761212598425197
 30
0.0
 10
1.647051181102362
 20
1.761212598425197
 30
0.0
 10
1.647051181102362
 20
1.761212598425197
 30
0.0
 10
1.626905511811024
 20
1.678137795275591
 30
0.0
 10
1.626905511811024
 20
1.678137795275591
 30
0.0
 10
1.626905511811024
 20
1.678137795275591
 30
0.0
 10
1.626905511811024
 20
1.678137795275591
 30
0.0
 10
1.609314960629921
 20
1.591846456692913
 30
0.0
 10
1.609314960629921
 20
1.591846456692913
 30
0.0
 10
1.609314960629921
 20
1.591846456692913
 30
0.0
 10
1.609314960629921
 20
1.591846456692913
 30
0.0
 10
1.594086614173228
 20
1.502295275590551
 30
0.0
 10
1.594086614173228
 20
1.502295275590551
 30
0.0
 10
1.594086614173228
 20
1.502295275590551
 30
0.0
 10
1.594086614173228
 20
1.502295275590551
 30
0.0
 10
1.581066929133858
 20
1.409484251968504
 30
0.0
 10
1.581066929133858
 20
1.409484251968504
 30
0.0
 10
1.581066929133858
 20
1.409484251968504
 30
0.0
 10
1.581066929133858
 20
1.409484251968504
 30
0.0
 10
1.570062992125984
 20
1.313370078740157
 30
0.0
 10
1.570062992125984
 20
1.313370078740157
 30
0.0
 10
1.570062992125984
 20
1.313370078740157
 30
0.0
 10
1.570062992125984
 20
1.313370078740157
 30
0.0
 10
1.560909448818898
 20
1.21394094488189
 30
0.0
 10
1.560909448818898
 20
1.21394094488189
 30
0.0
 10
1.560909448818898
 20
1.21394094488189
 30
0.0
 10
1.560909448818898
 20
1.21394094488189
 30
0.0
 10
1.55342125984252
 20
1.111165354330709
 30
0.0
 10
1.55342125984252
 20
1.111165354330709
 30
0.0
 10
1.55342125984252
 20
1.111165354330709
 30
0.0
 10
1.55342125984252
 20
1.111165354330709
 30
0.0
 10
1.54744094488189
 20
1.005035433070866
 30
0.0
 10
1.54744094488189
 20
1.005035433070866
 30
0.0
 10
1.54744094488189
 20
1.005035433070866
 30
0.0
 10
1.54744094488189
 20
1.005035433070866
 30
0.0
 10
1.542779527559055
 20
0.8955157480314961
 30
0.0
 10
1.542779527559055
 20
0.8955157480314961
 30
0.0
 10
1.542779527559055
 20
0.8955157480314961
 30
0.0
 10
1.542779527559055
 20
0.8955157480314961
 30
0.0
 10
1.539263779527559
 20
0.7825905511811024
 30
0.0
 10
1.539263779527559
 20
0.7825905511811024
 30
0.0
 10
1.539263779527559
 20
0.7825905511811024
 30
0.0
 10
1.539263779527559
 20
0.7825905511811024
 30
0.0
 10
1.536716535433071
 20
0.6662244094488189
 30
0.0
 10
1.536716535433071
 20
0.6662244094488189
 30
0.0
 10
1.536716535433071
 20
0.6662244094488189
 30
0.0
 10
1.536716535433071
 20
0.6662244094488189
 30
0.0
 10
1.534968503937008
 20
0.5464094488188976
 30
0.0
 10
1.534968503937008
 20
0.5464094488188976
 30
0.0
 10
1.534968503937008
 20
0.5464094488188976
 30
0.0
 10
1.534968503937008
 20
0.5464094488188976
 30
0.0
 10
1.533838582677165
 20
0.4231141732283465
 30
0.0
 10
1.533838582677165
 20
0.4231141732283465
 30
0.0
 10
1.533838582677165
 20
0.4231141732283465
 30
0.0
 10
1.533838582677165
 20
0.4231141732283465
 30
0.0
 10
1.533157480314961
 20
0.2963188976377953
 30
0.0
 10
1.533157480314961
 20
0.2963188976377953
 30
0.0
 10
1.533157480314961
 20
0.2963188976377953
 30
0.0
 10
1.533157480314961
 20
0.2963188976377953
 30
0.0
 10
1.532740157480315
 20
0.165996062992126
 30
0.0
 10
1.532740157480315
 20
0.165996062992126
 30
0.0
 10
1.532740157480315
 20
0.165996062992126
 30
0.0
 10
1.532740157480315
 20
0.165996062992126
 30
0.0
 10
0.8826299212598425
 20
0.5407125984251969
 30
0.0
 10
0.8826299212598425
 20
0.5407125984251969
 30
0.0
 10
0.8826299212598425
 20
0.5407125984251969
 30
0.0
 10
0.8826299212598425
 20
0.5407125984251969
 30
0.0
 10
0.8830472440944882
 20
0.6710354330708662
 30
0.0
 10
0.8830472440944882
 20
0.6710354330708662
 30
0.0
 10
0.8830472440944882
 20
0.6710354330708662
 30
0.0
 10
0.8830472440944882
 20
0.6710354330708662
 30
0.0
 10
0.883728346456693
 20
0.7978307086614174
 30
0.0
 10
0.883728346456693
 20
0.7978307086614174
 30
0.0
 10
0.883728346456693
 20
0.7978307086614174
 30
0.0
 10
0.883728346456693
 20
0.7978307086614174
 30
0.0
 10
0.8848582677165354
 20
0.9211259842519686
 30
0.0
 10
0.8848582677165354
 20
0.9211259842519686
 30
0.0
 10
0.8848582677165354
 20
0.9211259842519686
 30
0.0
 10
0.8848582677165354
 20
0.9211259842519686
 30
0.0
 10
0.8866062992125985
 20
1.04094094488189
 30
0.0
 10
0.8866062992125985
 20
1.04094094488189
 30
0.0
 10
0.8866062992125985
 20
1.04094094488189
 30
0.0
 10
0.8866062992125985
 20
1.04094094488189
 30
0.0
 10
0.8891535433070866
 20
1.157307086614173
 30
0.0
 10
0.8891535433070866
 20
1.157307086614173
 30
0.0
 10
0.8891535433070866
 20
1.157307086614173
 30
0.0
 10
0.8891535433070866
 20
1.157307086614173
 30
0.0
 10
0.8926692913385828
 20
1.270232283464567
 30
0.0
 10
0.8926692913385828
 20
1.270232283464567
 30
0.0
 10
0.8926692913385828
 20
1.270232283464567
 30
0.0
 10
0.8926692913385828
 20
1.270232283464567
 30
0.0
 10
0.8973307086614174
 20
1.379751968503937
 30
0.0
 10
0.8973307086614174
 20
1.379751968503937
 30
0.0
 10
0.8973307086614174
 20
1.379751968503937
 30
0.0
 10
0.8973307086614174
 20
1.379751968503937
 30
0.0
 10
0.9033110236220473
 20
1.48588188976378
 30
0.0
 10
0.9033110236220473
 20
1.48588188976378
 30
0.0
 10
0.9033110236220473
 20
1.48588188976378
 30
0.0
 10
0.9033110236220473
 20
1.48588188976378
 30
0.0
 10
0.9107992125984252
 20
1.588657480314961
 30
0.0
 10
0.9107992125984252
 20
1.588657480314961
 30
0.0
 10
0.9107992125984252
 20
1.588657480314961
 30
0.0
 10
0.9107992125984252
 20
1.588657480314961
 30
0.0
 10
0.9199527559055118
 20
1.688086614173229
 30
0.0
 10
0.9199527559055118
 20
1.688086614173229
 30
0.0
 10
0.9199527559055118
 20
1.688086614173229
 30
0.0
 10
0.9199527559055118
 20
1.688086614173229
 30
0.0
 10
0.9309566929133859
 20
1.784200787401575
 30
0.0
 10
0.9309566929133859
 20
1.784200787401575
 30
0.0
 10
0.9309566929133859
 20
1.784200787401575
 30
0.0
 10
0.9309566929133859
 20
1.784200787401575
 30
0.0
 10
0.9439763779527559
 20
1.877011811023622
 30
0.0
 10
0.9439763779527559
 20
1.877011811023622
 30
0.0
 10
0.9439763779527559
 20
1.877011811023622
 30
0.0
 10
0.9439763779527559
 20
1.877011811023622
 30
0.0
 10
0.9592047244094488
 20
1.966562992125984
 30
0.0
 10
0.9592047244094488
 20
1.966562992125984
 30
0.0
 10
0.9592047244094488
 20
1.966562992125984
 30
0.0
 10
0.9592047244094488
 20
1.966562992125984
 30
0.0
 10
0.9767952755905512
 20
2.052854330708661
 30
0.0
 10
0.9767952755905512
 20
2.052854330708661
 30
0.0
 10
0.9767952755905512
 20
2.052854330708661
 30
0.0
 10
0.9767952755905512
 20
2.052854330708661
 30
0.0
 10
0.9969409448818898
 20
2.135929133858268
 30
0.0
 10
0.9969409448818898
 20
2.135929133858268
 30
0.0
 10
0.9969409448818898
 20
2.135929133858268
 30
0.0
 10
0.9969409448818898
 20
2.135929133858268
 30
0.0
 10
1.019807086614173
 20
2.215791338582677
 30
0.0
 10
1.019807086614173
 20
2.215791338582677
 30
0.0
 10
1.019807086614173
 20
2.215791338582677
 30
0.0
 10
1.019807086614173
 20
2.215791338582677
 30
0.0
 10
1.045582677165355
 20
2.292484251968504
 30
0.0
 10
1.045582677165355
 20
2.292484251968504
 30
0.0
 10
1.045582677165355
 20
2.292484251968504
 30
0.0
 10
1.045582677165355
 20
2.292484251968504
 30
0.0
 10
1.074425196850394
 20
2.366015748031496
 30
0.0
 10
1.074425196850394
 20
2.366015748031496
 30
0.0
 10
1.074425196850394
 20
2.366015748031496
 30
0.0
 10
1.074425196850394
 20
2.366015748031496
 30
0.0
 10
1.10651968503937
 20
2.436417322834646
 30
0.0
 10
1.10651968503937
 20
2.436417322834646
 30
0.0
 10
1.10651968503937
 20
2.436417322834646
 30
0.0
 10
1.10651968503937
 20
2.436417322834646
 30
0.0
 10
1.142035433070866
 20
2.503700787401575
 30
0.0
 10
1.142035433070866
 20
2.503700787401575
 30
0.0
 10
1.142035433070866
 20
2.503700787401575
 30
0.0
 10
1.142035433070866
 20
2.503700787401575
 30
0.0
 10
1.181161417322835
 20
2.567905511811024
 30
0.0
 10
1.181161417322835
 20
2.567905511811024
 30
0.0
 10
1.181161417322835
 20
2.567905511811024
 30
0.0
 10
1.181161417322835
 20
2.567905511811024
 30
0.0
 10
1.224051181102362
 20
2.629031496062992
 30
0.0
 10
1.224051181102362
 20
2.629031496062992
 30
0.0
 10
1.224051181102362
 20
2.629031496062992
 30
0.0
 10
1.224051181102362
 20
2.629031496062992
 30
0.0
 10
1.270897637795276
 20
2.687122047244094
 30
0.0
 10
1.270897637795276
 20
2.687122047244094
 30
0.0
 10
1.270897637795276
 20
2.687122047244094
 30
0.0
 10
1.270897637795276
 20
2.687122047244094
 30
0.0
 10
1.32186220472441
 20
2.742188976377953
 30
0.0
 10
1.32186220472441
 20
2.742188976377953
 30
0.0
 10
1.32186220472441
 20
2.742188976377953
 30
0.0
 10
1.32186220472441
 20
2.742188976377953
 30
0.0
 10
1.377129921259843
 20
2.794267716535433
 30
0.0
 10
1.377129921259843
 20
2.794267716535433
 30
0.0
 10
1.377129921259843
 20
2.794267716535433
 30
0.0
 10
1.377129921259843
 20
2.794267716535433
 30
0.0
 10
1.436877952755906
 20
2.843366141732284
 30
0.0
 10
1.436877952755906
 20
2.843366141732284
 30
0.0
 10
1.436877952755906
 20
2.843366141732284
 30
0.0
 10
1.436877952755906
 20
2.843366141732284
 30
0.0
 10
1.501275590551181
 20
2.889515748031496
 30
0.0
 10
1.501275590551181
 20
2.889515748031496
 30
0.0
 10
1.501275590551181
 20
2.889515748031496
 30
0.0
 10
1.501275590551181
 20
2.889515748031496
 30
0.0
 10
1.570507874015748
 20
2.932736220472441
 30
0.0
 10
1.570507874015748
 20
2.932736220472441
 30
0.0
 10
1.570507874015748
 20
2.932736220472441
 30
0.0
 10
1.570507874015748
 20
2.932736220472441
 30
0.0
 10
1.644732283464567
 20
2.973055118110236
 30
0.0
 10
1.644732283464567
 20
2.973055118110236
 30
0.0
 10
1.644732283464567
 20
2.973055118110236
 30
0.0
 10
1.644732283464567
 20
2.973055118110236
 30
0.0
 10
1.724145669291339
 20
3.010488188976378
 30
0.0
 10
1.724145669291339
 20
3.010488188976378
 30
0.0
 10
1.724145669291339
 20
3.010488188976378
 30
0.0
 10
1.724145669291339
 20
3.010488188976378
 30
0.0
 10
1.808905511811024
 20
3.045062992125984
 30
0.0
 10
1.808905511811024
 20
3.045062992125984
 30
0.0
 10
1.808905511811024
 20
3.045062992125984
 30
0.0
 10
1.808905511811024
 20
3.045062992125984
 30
0.0
 10
1.899204724409449
 20
3.076799212598425
 30
0.0
 10
1.899204724409449
 20
3.076799212598425
 30
0.0
  0
SPLINE
  5
8F
330
1F
100
AcDbEntity
  8
P1-LAYER_1
 62
   253
100
AcDbSpline
210
0.0
220
0.0
230
1.0
 70
    11
 71
     3
 72
    20
 73
    16
 74
     0
 42
0.0000000001
 43
0.0000000001
 40
0.0
 40
0.0
 40
0.0
 40
0.0
 40
0.25
 40
0.25
 40
0.25
 40
0.25
 40
0.5
 40
0.5
 40
0.5
 40
0.5
 40
0.75
 40
0.75
 40
0.75
 40
0.75
 40
1.0
 40
1.0
 40
1.0
 40
1.0
 10
0.8826299212598425
 20
0.5407125984251969
 30
0.0
 10
0.8826299212598425
 20
0.5407125984251969
 30
0.0
 10
1.532740157480315
 20
0.165996062992126
 30
0.0
 10
1.532740157480315
 20
0.165996062992126
 30
0.0
 10
1.532740157480315
 20
0.165996062992126
 30
0.0
 10
1.532740157480315
 20
0.165996062992126
 30
0.0
 10
0.8101496062992126
 20
0.165996062992126
 30
0.0
 10
0.8101496062992126
 20
0.165996062992126
 30
0.0
 10
0.8101496062992126
 20
0.165996062992126
 30
0.0
 10
0.8101496062992126
 20
0.165996062992126
 30
0.0
 10
0.1600393700787402
 20
0.5407125984251969
 30
0.0
 10
0.1600393700787402
 20
0.5407125984251969
 30
0.0
 10
0.1600393700787402
 20
0.5407125984251969
 30
0.0
 10
0.1600393700787402
 20
0.5407125984251969
 30
0.0
 10
0.8826299212598425
 20
0.5407125984251969
 30
0.0
 10
0.8826299212598425
 20
0.5407125984251969
 30
0.0
  0
SPLINE
  5
90
330
1F
100
AcDbEntity
  8
P1-LAYER_1
 62
   250
100
AcDbSpline
210
0.0
220
0.0
230
1.0
 70
    11
 71
     3
 72
    20
 73
    16
 74
     0
 42
0.0000000001
 43
0.0000000001
 40
0.0
 40
0.0
 40
0.0
 40
0.0
 40
0.25
 40
0.25
 40
0.25
 40
0.25
 40
0.5
 40
0.5
 40
0.5
 40
0.5
 40
0.75
 40
0.75
 40
0.75
 40
0.75
 40
1.0
 40
1.0
 40
1.0
 40
1.0
 10
0.8826299212598425
 20
0.5407125984251969
 30
0.0
 10
0.8826299212598425
 20
0.5407125984251969
 30
0.0
 10
1.532740157480315
 20
0.165996062992126
 30
0.0
 10
1.532740157480315
 20
0.165996062992126
 30
0.0
 10
1.532740157480315
 20
0.165996062992126
 30
0.0
 10
1.532740157480315
 20
0.165996062992126
 30
0.0
 10
0.8101496062992126
 20
0.165996062992126
 30
0.0
 10
0.8101496062992126
 20
0.165996062992126
 30
0.0
 10
0.8101496062992126
 20
0.165996062992126
 30
0.0
 10
0.8101496062992126
 20
0.165996062992126
 30
0.0
 10
0.1600393700787402
 20
0.5407125984251969
 30
0.0
 10
0.1600393700787402
 20
0.5407125984251969
 30
0.0
 10
0.1600393700787402
 20
0.5407125984251969
 30
0.0
 10
0.1600393700787402
 20
0.5407125984251969
 30
0.0
 10
0.8826299212598425
 20
0.5407125984251969
 30
0.0
 10
0.8826299212598425
 20
0.5407125984251969
 30
0.0
  0
SPLINE
  5
91
330
1F
100
AcDbEntity
  8
P1-LAYER_1
 62
     7
100
AcDbSpline
210
0.0
220
0.0
230
1.0
 70
    11
 71
     3
 72
    24
 73
    20
 74
     0
 42
0.0000000001
 43
0.0000000001
 40
0.0
 40
0.0
 40
0.0
 40
0.0
 40
0.2
 40
0.2
 40
0.2
 40
0.2
 40
0.4
 40
0.4
 40
0.4
 40
0.4
 40
0.6000000000000001
 40
0.6000000000000001
 40
0.6000000000000001
 40
0.6000000000000001
 40
0.8
 40
0.8
 40
0.8
 40
0.8
 40
1.0
 40
1.0
 40
1.0
 40
1.0
 10
1.899204724409449
 20
3.529031496062992
 30
0.0
 10
1.899204724409449
 20
3.529031496062992
 30
0.0
 10
1.899204724409449
 20
3.076799212598425
 30
0.0
 10
1.899204724409449
 20
3.076799212598425
 30
0.0
 10
1.899204724409449
 20
3.076799212598425
 30
0.0
 10
0.9060039370078741
 20
2.753283464566929
 30
0.0
 10
0.8861968503937008
 20
1.949649606299213
 30
0.0
 10
0.8826299212598425
 20
0.5407125984251969
 30
0.0
 10
0.8826299212598425
 20
0.5407125984251969
 30
0.0
 10
0.8826299212598425
 20
0.5407125984251969
 30
0.0
 10
0.1600393700787402
 20
0.5407125984251969
 30
0.0
 10
0.1600393700787402
 20
0.5407125984251969
 30
0.0
 10
0.1600393700787402
 20
0.5407125984251969
 30
0.0
 10
0.1600393700787402
 20
0.5407125984251969
 30
0.0
 10
0.1600393700787402
 20
3.529031496062992
 30
0.0
 10
0.1600393700787402
 20
3.529031496062992
 30
0.0
 10
0.1600393700787402
 20
3.529031496062992
 30
0.0
 10
0.1600393700787402
 20
3.529031496062992
 30
0.0
 10
1.899204724409449
 20
3.529031496062992
 30
0.0
 10
1.899204724409449
 20
3.529031496062992
 30
0.0
  0
SPLINE
  5
92
330
1F
100
AcDbEntity
  8
P1-LAYER_1
 62
   250
100
AcDbSpline
210
0.0
220
0.0
230
1.0
 70
    11
 71
     3
 72
   104
 73
   100
 74
     0
 42
0.0000000001
 43
0.0000000001
 40
0.0
 40
0.0
 40
0.0
 40
0.0
 40
0.04
 40
0.04
 40
0.04
 40
0.04
 40
0.08
 40
0.08
 40
0.08
 40
0.08
 40
0.12
 40
0.12
 40
0.12
 40
0.12
 40
0.16
 40
0.16
 40
0.16
 40
0.16
 40
0.2
 40
0.2
 40
0.2
 40
0.2
 40
0.24
 40
0.24
 40
0.24
 40
0.24
 40
0.28
 40
0.28
 40
0.28
 40
0.28
 40
0.32
 40
0.32
 40
0.32
 40
0.32
 40
0.36
 40
0.36
 40
0.36
 40
0.36
 40
0.4
 40
0.4
 40
0.4
 40
0.4
 40
0.44
 40
0.44
 40
0.44
 40
0.44
 40
0.4799999999999999
 40
0.4799999999999999
 40
0.4799999999999999
 40
0.4799999999999999
 40
0.5199999999999999
 40
0.5199999999999999
 40
0.5199999999999999
 40
0.5199999999999999
 40
0.5599999999999999
 40
0.5599999999999999
 40
0.5599999999999999
 40
0.5599999999999999
 40
0.6
 40
0.6
 40
0.6
 40
0.6
 40
0.64
 40
0.64
 40
0.64
 40
0.64
 40
0.6800000000000001
 40
0.6800000000000001
 40
0.6800000000000001
 40
0.6800000000000001
 40
0.7200000000000001
 40
0.7200000000000001
 40
0.7200000000000001
 40
0.7200000000000001
 40
0.7600000000000001
 40
0.7600000000000001
 40
0.7600000000000001
 40
0.7600000000000001
 40
0.8000000000000002
 40
0.8000000000000002
 40
0.8000000000000002
 40
0.8000000000000002
 40
0.8400000000000002
 40
0.8400000000000002
 40
0.8400000000000002
 40
0.8400000000000002
 40
0.8800000000000002
 40
0.8800000000000002
 40
0.8800000000000002
 40
0.8800000000000002
 40
0.9200000000000003
 40
0.9200000000000003
 40
0.9200000000000003
 40
0.9200000000000003
 40
0.9600000000000003
 40
0.9600000000000003
 40
0.9600000000000003
 40
0.9600000000000003
 40
1.0
 40
1.0
 40
1.0
 40
1.0
 10
1.817618110236221
 20
0.5033307086614174
 30
0.0
 10
1.817618110236221
 20
0.5033307086614174
 30
0.0
 10
1.871590551181102
 20
0.5033307086614174
 30
0.0
 10
1.871590551181102
 20
0.5033307086614174
 30
0.0
 10
1.871590551181102
 20
0.5033307086614174
 30
0.0
 10
1.884759842519685
 20
0.5033307086614174
 30
0.0
 10
1.893787401574803
 20
0.5027204724409449
 30
0.0
 10
1.898673228346457
 20
0.5015236220472441
 30
0.0
 10
1.898673228346457
 20
0.5015236220472441
 30
0.0
 10
1.905897637795276
 20
0.4998031496062992
 30
0.0
 10
1.911590551181102
 20
0.4966653543307087
 30
0.0
 10
1.915814960629921
 20
0.4921062992125985
 30
0.0
 10
1.915814960629921
 20
0.4921062992125985
 30
0.0
 10
1.920007874015748
 20
0.4875511811023622
 30
0.0
 10
1.922118110236221
 20
0.4820511811023622
 30
0.0
 10
1.922118110236221
 20
0.4756653543307087
 30
0.0
 10
1.922118110236221
 20
0.4756653543307087
 30
0.0
 10
1.922118110236221
 20
0.4710511811023622
 30
0.0
 10
1.921007874015748
 20
0.4669133858267717
 30
0.0
 10
1.918787401574803
 20
0.463248031496063
 30
0.0
 10
1.918787401574803
 20
0.463248031496063
 30
0.0
 10
1.916562992125984
 20
0.4595787401574804
 30
0.0
 10
1.913314960629921
 20
0.4564409448818898
 30
0.0
 10
1.909090551181103
 20
0.4538582677165354
 30
0.0
 10
1.909090551181103
 20
0.4538582677165354
 30
0.0
 10
1.906370078740158
 20
0.4521653543307087
 30
0.0
 10
1.902700787401575
 20
0.4507204724409449
 30
0.0
 10
1.898035433070866
 20
0.4495236220472441
 30
0.0
 10
1.898035433070866
 20
0.4495236220472441
 30
0.0
 10
1.903952755905512
 20
0.4484409448818898
 30
0.0
 10
1.908452755905512
 20
0.4471377952755906
 30
0.0
 10
1.911535433070866
 20
0.4456377952755906
 30
0.0
 10
1.911535433070866
 20
0.4456377952755906
 30
0.0
 10
1.916200787401575
 20
0.4433582677165355
 30
0.0
 10
1.919897637795276
 20
0.4401102362204725
 30
0.0
 10
1.922590551181102
 20
0.4358582677165355
 30
0.0
 10
1.922590551181102
 20
0.4358582677165355
 30
0.0
 10
1.925314960629921
 20
0.4316377952755905
 30
0.0
 10
1.926673228346457
 20
0.4268582677165355
 30
0.0
 10
1.926673228346457
 20
0.4215511811023622
 30
0.0
 10
1.926673228346457
 20
0.4215511811023622
 30
0.0
 10
1.926673228346457
 20
0.4163858267716535
 30
0.0
 10
1.925342519685039
 20
0.4116102362204724
 30
0.0
 10
1.922673228346457
 20
0.4072204724409449
 30
0.0
 10
1.922673228346457
 20
0.4072204724409449
 30
0.0
 10
1.920035433070866
 20
0.4028307086614174
 30
0.0
 10
1.916259842519685
 20
0.3992204724409449
 30
0.0
 10
1.911425196850394
 20
0.3963858267716536
 30
0.0
 10
1.911425196850394
 20
0.3963858267716536
 30
0.0
 10
1.906562992125984
 20
0.3935826771653543
 30
0.0
 10
1.900897637795276
 20
0.3917755905511811
 30
0.0
 10
1.894452755905512
 20
0.3909685039370079
 30
0.0
 10
1.894452755905512
 20
0.3909685039370079
 30
0.0
 10
1.88798031496063
 20
0.3901929133858268
 30
0.0
 10
1.88134251968504
 20
0.3898031496062993
 30
0.0
 10
1.874507874015748
 20
0.3898031496062993
 30
0.0
 10
1.874507874015748
 20
0.3898031496062993
 30
0.0
 10
1.874507874015748
 20
0.3898031496062993
 30
0.0
 10
1.817618110236221
 20
0.3898031496062993
 30
0.0
 10
1.817618110236221
 20
0.3898031496062993
 30
0.0
 10
1.817618110236221
 20
0.3898031496062993
 30
0.0
 10
1.817618110236221
 20
0.3898031496062993
 30
0.0
 10
1.817618110236221
 20
0.3966377952755906
 30
0.0
 10
1.817618110236221
 20
0.3966377952755906
 30
0.0
 10
1.817618110236221
 20
0.3966377952755906
 30
0.0
 10
1.817618110236221
 20
0.3966377952755906
 30
0.0
 10
1.821452755905512
 20
0.3966377952755906
 30
0.0
 10
1.821452755905512
 20
0.3966377952755906
 30
0.0
 10
1.821452755905512
 20
0.3966377952755906
 30
0.0
 10
1.825149606299213
 20
0.3966377952755906
 30
0.0
 10
1.827649606299213
 20
0.3972204724409449
 30
0.0
 10
1.829007874015748
 20
0.3983582677165354
 30
0.0
 10
1.829007874015748
 20
0.3983582677165354
 30
0.0
 10
1.83098031496063
 20
0.3999133858267717
 30
0.0
 10
1.831952755905512
 20
0.4025236220472441
 30
0.0
 10
1.831952755905512
 20
0.4061653543307087
 30
0.0
 10
1.831952755905512
 20
0.4061653543307087
 30
0.0
 10
1.831952755905512
 20
0.4061653543307087
 30
0.0
 10
1.831952755905512
 20
0.4850236220472441
 30
0.0
 10
1.831952755905512
 20
0.4850236220472441
 30
0.0
 10
1.831952755905512
 20
0.4850236220472441
 30
0.0
 10
1.831952755905512
 20
0.4887204724409449
 30
0.0
 10
1.831649606299213
 20
0.4912204724409449
 30
0.0
 10
1.831062992125984
 20
0.4925787401574803
 30
0.0
 10
1.831062992125984
 20
0.4925787401574803
 30
0.0
 10
1.830452755905512
 20
0.4939409448818898
 30
0.0
 10
1.829562992125984
 20
0.4949133858267717
 30
0.0
 10
1.828370078740158
 20
0.4955236220472441
 30
0.0
 10
1.828370078740158
 20
0.4955236220472441
 30
0.0
 10
1.827177165354331
 20
0.4961062992125985
 30
0.0
 10
1.824870078740158
 20
0.4964133858267717
 30
0.0
 10
1.821452755905512
 20
0.4964133858267717
 30
0.0
 10
1.821452755905512
 20
0.4964133858267717
 30
0.0
 10
1.821452755905512
 20
0.4964133858267717
 30
0.0
 10
1.817618110236221
 20
0.4964133858267717
 30
0.0
 10
1.817618110236221
 20
0.4964133858267717
 30
0.0
 10
1.817618110236221
 20
0.4964133858267717
 30
0.0
 10
1.817618110236221
 20
0.4964133858267717
 30
0.0
 10
1.817618110236221
 20
0.5033307086614174
 30
0.0
 10
1.817618110236221
 20
0.5033307086614174
 30
0.0
  0
SPLINE
  5
93
330
1F
100
AcDbEntity
  8
P1-LAYER_1
 62
   250
100
AcDbSpline
210
0.0
220
0.0
230
1.0
 70
    11
 71
     3
 72
    40
 73
    36
 74
     0
 42
0.0000000001
 43
0.0000000001
 40
0.0
 40
0.0
 40
0.0
 40
0.0
 40
0.1111111111111111
 40
0.1111111111111111
 40
0.1111111111111111
 40
0.1111111111111111
 40
0.2222222222222222
 40
0.2222222222222222
 40
0.2222222222222222
 40
0.2222222222222222
 40
0.3333333333333333
 40
0.3333333333333333
 40
0.3333333333333333
 40
0.3333333333333333
 40
0.4444444444444444
 40
0.4444444444444444
 40
0.4444444444444444
 40
0.4444444444444444
 40
0.5555555555555556
 40
0.5555555555555556
 40
0.5555555555555556
 40
0.5555555555555556
 40
0.6666666666666667
 40
0.6666666666666667
 40
0.6666666666666667
 40
0.6666666666666667
 40
0.7777777777777779
 40
0.7777777777777779
 40
0.7777777777777779
 40
0.7777777777777779
 40
0.8888888888888891
 40
0.8888888888888891
 40
0.8888888888888891
 40
0.8888888888888891
 40
1.0
 40
1.0
 40
1.0
 40
1.0
 10
1.847177165354331
 20
0.4943031496062992
 30
0.0
 10
1.847177165354331
 20
0.4943031496062992
 30
0.0
 10
1.847177165354331
 20
0.4527204724409449
 30
0.0
 10
1.847177165354331
 20
0.4527204724409449
 30
0.0
 10
1.847177165354331
 20
0.4527204724409449
 30
0.0
 10
1.847177165354331
 20
0.4527204724409449
 30
0.0
 10
1.867925196850394
 20
0.4527204724409449
 30
0.0
 10
1.867925196850394
 20
0.4527204724409449
 30
0.0
 10
1.867925196850394
 20
0.4527204724409449
 30
0.0
 10
1.877618110236221
 20
0.4527204724409449
 30
0.0
 10
1.884287401574803
 20
0.4531653543307087
 30
0.0
 10
1.88784251968504
 20
0.4540787401574803
 30
0.0
 10
1.88784251968504
 20
0.4540787401574803
 30
0.0
 10
1.893452755905512
 20
0.4555511811023622
 30
0.0
 10
1.897700787401575
 20
0.4580511811023622
 30
0.0
 10
1.900673228346457
 20
0.4615787401574804
 30
0.0
 10
1.900673228346457
 20
0.4615787401574804
 30
0.0
 10
1.903618110236221
 20
0.4651062992125984
 30
0.0
 10
1.905118110236221
 20
0.4696377952755906
 30
0.0
 10
1.905118110236221
 20
0.4751653543307087
 30
0.0
 10
1.905118110236221
 20
0.4751653543307087
 30
0.0
 10
1.905118110236221
 20
0.4798307086614174
 30
0.0
 10
1.903759842519685
 20
0.4837204724409449
 30
0.0
 10
1.901090551181103
 20
0.4868582677165355
 30
0.0
 10
1.901090551181103
 20
0.4868582677165355
 30
0.0
 10
1.898397637795276
 20
0.4899685039370079
 30
0.0
 10
1.894787401574803
 20
0.4921062992125985
 30
0.0
 10
1.890287401574803
 20
0.493248031496063
 30
0.0
 10
1.890287401574803
 20
0.493248031496063
 30
0.0
 10
1.887370078740158
 20
0.4939409448818898
 30
0.0
 10
1.881287401574803
 20
0.4943031496062992
 30
0.0
 10
1.872062992125984
 20
0.4943031496062992
 30
0.0
 10
1.872062992125984
 20
0.4943031496062992
 30
0.0
 10
1.872062992125984
 20
0.4943031496062992
 30
0.0
 10
1.847177165354331
 20
0.4943031496062992
 30
0.0
 10
1.847177165354331
 20
0.4943031496062992
 30
0.0
  0
SPLINE
  5
94
330
1F
100
AcDbEntity
  8
P1-LAYER_1
 62
   250
100
AcDbSpline
210
0.0
220
0.0
230
1.0
 70
    11
 71
     3
 72
    52
 73
    48
 74
     0
 42
0.0000000001
 43
0.0000000001
 40
0.0
 40
0.0
 40
0.0
 40
0.0
 40
0.0833333333333333
 40
0.0833333333333333
 40
0.0833333333333333
 40
0.0833333333333333
 40
0.1666666666666667
 40
0.1666666666666667
 40
0.1666666666666667
 40
0.1666666666666667
 40
0.25
 40
0.25
 40
0.25
 40
0.25
 40
0.3333333333333333
 40
0.3333333333333333
 40
0.3333333333333333
 40
0.3333333333333333
 40
0.4166666666666666
 40
0.4166666666666666
 40
0.4166666666666666
 40
0.4166666666666666
 40
0.4999999999999999
 40
0.4999999999999999
 40
0.4999999999999999
 40
0.4999999999999999
 40
0.5833333333333333
 40
0.5833333333333333
 40
0.5833333333333333
 40
0.5833333333333333
 40
0.6666666666666666
 40
0.6666666666666666
 40
0.6666666666666666
 40
0.6666666666666666
 40
0.75
 40
0.75
 40
0.75
 40
0.75
 40
0.8333333333333334
 40
0.8333333333333334
 40
0.8333333333333334
 40
0.8333333333333334
 40
0.9166666666666667
 40
0.9166666666666667
 40
0.9166666666666667
 40
0.9166666666666667
 40
1.0
 40
1.0
 40
1.0
 40
1.0
 10
1.847177165354331
 20
0.4448858267716536
 30
0.0
 10
1.847177165354331
 20
0.4448858267716536
 30
0.0
 10
1.847177165354331
 20
0.4076377952755906
 30
0.0
 10
1.847177165354331
 20
0.4076377952755906
 30
0.0
 10
1.847177165354331
 20
0.4076377952755906
 30
0.0
 10
1.847177165354331
 20
0.4038858267716536
 30
0.0
 10
1.84734251968504
 20
0.4016653543307087
 30
0.0
 10
1.847645669291339
 20
0.4009409448818898
 30
0.0
 10
1.847645669291339
 20
0.4009409448818898
 30
0.0
 10
1.848090551181102
 20
0.3999685039370079
 30
0.0
 10
1.848952755905512
 20
0.3993031496062992
 30
0.0
 10
1.850259842519685
 20
0.3989133858267717
 30
0.0
 10
1.850259842519685
 20
0.3989133858267717
 30
0.0
 10
1.851177165354331
 20
0.3986377952755906
 30
0.0
 10
1.853787401574803
 20
0.398496062992126
 30
0.0
 10
1.858062992125984
 20
0.398496062992126
 30
0.0
 10
1.858062992125984
 20
0.398496062992126
 30
0.0
 10
1.858062992125984
 20
0.398496062992126
 30
0.0
 10
1.869145669291339
 20
0.398496062992126
 30
0.0
 10
1.869145669291339
 20
0.398496062992126
 30
0.0
 10
1.869145669291339
 20
0.398496062992126
 30
0.0
 10
1.880090551181102
 20
0.398496062992126
 30
0.0
 10
1.887925196850394
 20
0.3991102362204725
 30
0.0
 10
1.892618110236221
 20
0.4003307086614173
 30
0.0
 10
1.892618110236221
 20
0.4003307086614173
 30
0.0
 10
1.897314960629921
 20
0.4015511811023622
 30
0.0
 10
1.901314960629921
 20
0.4041377952755906
 30
0.0
 10
1.904618110236221
 20
0.4080826771653544
 30
0.0
 10
1.904618110236221
 20
0.4080826771653544
 30
0.0
 10
1.907925196850394
 20
0.411996062992126
 30
0.0
 10
1.909590551181102
 20
0.416748031496063
 30
0.0
 10
1.909590551181102
 20
0.4222755905511811
 30
0.0
 10
1.909590551181102
 20
0.4222755905511811
 30
0.0
 10
1.909590551181102
 20
0.4269409448818898
 30
0.0
 10
1.908232283464567
 20
0.4310787401574803
 30
0.0
 10
1.905562992125984
 20
0.4346929133858268
 30
0.0
 10
1.905562992125984
 20
0.4346929133858268
 30
0.0
 10
1.902870078740158
 20
0.4383031496062992
 30
0.0
 10
1.899145669291339
 20
0.4408858267716536
 30
0.0
 10
1.894397637795276
 20
0.442496062992126
 30
0.0
 10
1.894397637795276
 20
0.442496062992126
 30
0.0
 10
1.889645669291339
 20
0.4441102362204725
 30
0.0
 10
1.881232283464567
 20
0.4448858267716536
 30
0.0
 10
1.869145669291339
 20
0.4448858267716536
 30
0.0
 10
1.869145669291339
 20
0.4448858267716536
 30
0.0
 10
1.869145669291339
 20
0.4448858267716536
 30
0.0
 10
1.847177165354331
 20
0.4448858267716536
 30
0.0
 10
1.847177165354331
 20
0.4448858267716536
 30
0.0
  0
SPLINE
  5
95
330
1F
100
AcDbEntity
  8
P1-LAYER_1
 62
   250
100
AcDbSpline
210
0.0
220
0.0
230
1.0
 70
    11
 71
     3
 72
   112
 73
   108
 74
     0
 42
0.0000000001
 43
0.0000000001
 40
0.0
 40
0.0
 40
0.0
 40
0.0
 40
0.037037037037037
 40
0.037037037037037
 40
0.037037037037037
 40
0.037037037037037
 40
0.0740740740740741
 40
0.0740740740740741
 40
0.0740740740740741
 40
0.0740740740740741
 40
0.1111111111111111
 40
0.1111111111111111
 40
0.1111111111111111
 40
0.1111111111111111
 40
0.1481481481481481
 40
0.1481481481481481
 40
0.1481481481481481
 40
0.1481481481481481
 40
0.1851851851851852
 40
0.1851851851851852
 40
0.1851851851851852
 40
0.1851851851851852
 40
0.2222222222222222
 40
0.2222222222222222
 40
0.2222222222222222
 40
0.2222222222222222
 40
0.2592592592592592
 40
0.2592592592592592
 40
0.2592592592592592
 40
0.2592592592592592
 40
0.2962962962962963
 40
0.2962962962962963
 40
0.2962962962962963
 40
0.2962962962962963
 40
0.3333333333333333
 40
0.3333333333333333
 40
0.3333333333333333
 40
0.3333333333333333
 40
0.3703703703703704
 40
0.3703703703703704
 40
0.3703703703703704
 40
0.3703703703703704
 40
0.4074074074074074
 40
0.4074074074074074
 40
0.4074074074074074
 40
0.4074074074074074
 40
0.4444444444444444
 40
0.4444444444444444
 40
0.4444444444444444
 40
0.4444444444444444
 40
0.4814814814814815
 40
0.4814814814814815
 40
0.4814814814814815
 40
0.4814814814814815
 40
0.5185185185185185
 40
0.5185185185185185
 40
0.5185185185185185
 40
0.5185185185185185
 40
0.5555555555555556
 40
0.5555555555555556
 40
0.5555555555555556
 40
0.5555555555555556
 40
0.5925925925925926
 40
0.5925925925925926
 40
0.5925925925925926
 40
0.5925925925925926
 40
0.6296296296296295
 40
0.6296296296296295
 40
0.6296296296296295
 40
0.6296296296296295
 40
0.6666666666666665
 40
0.6666666666666665
 40
0.6666666666666665
 40
0.6666666666666665
 40
0.7037037037037035
 40
0.7037037037037035
 40
0.7037037037037035
 40
0.7037037037037035
 40
0.7407407407407405
 40
0.7407407407407405
 40
0.7407407407407405
 40
0.7407407407407405
 40
0.7777777777777775
 40
0.7777777777777775
 40
0.7777777777777775
 40
0.7777777777777775
 40
0.8148148148148144
 40
0.8148148148148144
 40
0.8148148148148144
 40
0.8148148148148144
 40
0.8518518518518514
 40
0.8518518518518514
 40
0.8518518518518514
 40
0.8518518518518514
 40
0.8888888888888884
 40
0.8888888888888884
 40
0.8888888888888884
 40
0.8888888888888884
 40
0.9259259259259254
 40
0.9259259259259254
 40
0.9259259259259254
 40
0.9259259259259254
 40
0.9629629629629624
 40
0.9629629629629624
 40
0.9629629629629624
 40
0.9629629629629624
 40
1.0
 40
1.0
 40
1.0
 40
1.0
 10
1.984283464566929
 20
0.5033307086614174
 30
0.0
 10
1.984283464566929
 20
0.5033307086614174
 30
0.0
 10
1.997700787401575
 20
0.5033307086614174
 30
0.0
 10
1.997700787401575
 20
0.5033307086614174
 30
0.0
 10
1.997700787401575
 20
0.5033307086614174
 30
0.0
 10
1.997700787401575
 20
0.5033307086614174
 30
0.0
 10
2.032948818897638
 20
0.4084409448818898
 30
0.0
 10
2.032948818897638
 20
0.4084409448818898
 30
0.0
 10
2.032948818897638
 20
0.4084409448818898
 30
0.0
 10
2.034673228346457
 20
0.4036653543307087
 30
0.0
 10
2.03642125984252
 20
0.400496062992126
 30
0.0
 10
2.038200787401575
 20
0.3989685039370079
 30
0.0
 10
2.038200787401575
 20
0.3989685039370079
 30
0.0
 10
2.039948818897638
 20
0.3974133858267717
 30
0.0
 10
2.042338582677166
 20
0.3966377952755906
 30
0.0
 10
2.045311023622047
 20
0.3966377952755906
 30
0.0
 10
2.045311023622047
 20
0.3966377952755906
 30
0.0
 10
2.045311023622047
 20
0.3966377952755906
 30
0.0
 10
2.047090551181102
 20
0.3966377952755906
 30
0.0
 10
2.047090551181102
 20
0.3966377952755906
 30
0.0
 10
2.047090551181102
 20
0.3966377952755906
 30
0.0
 10
2.047090551181102
 20
0.3966377952755906
 30
0.0
 10
2.047090551181102
 20
0.3898031496062993
 30
0.0
 10
2.047090551181102
 20
0.3898031496062993
 30
0.0
 10
2.047090551181102
 20
0.3898031496062993
 30
0.0
 10
2.047090551181102
 20
0.3898031496062993
 30
0.0
 10
2.006645669291339
 20
0.3898031496062993
 30
0.0
 10
2.006645669291339
 20
0.3898031496062993
 30
0.0
 10
2.006645669291339
 20
0.3898031496062993
 30
0.0
 10
2.006645669291339
 20
0.3898031496062993
 30
0.0
 10
2.006645669291339
 20
0.3966377952755906
 30
0.0
 10
2.006645669291339
 20
0.3966377952755906
 30
0.0
 10
2.006645669291339
 20
0.3966377952755906
 30
0.0
 10
2.007948818897638
 20
0.396748031496063
 30
0.0
 10
2.009228346456693
 20
0.3968031496062993
 30
0.0
 10
2.01048031496063
 20
0.3968031496062993
 30
0.0
 10
2.01048031496063
 20
0.3968031496062993
 30
0.0
 10
2.013090551181103
 20
0.3968031496062993
 30
0.0
 10
2.014783464566929
 20
0.3970826771653543
 30
0.0
 10
2.015618110236221
 20
0.3976102362204725
 30
0.0
 10
2.015618110236221
 20
0.3976102362204725
 30
0.0
 10
2.017173228346457
 20
0.3986377952755906
 30
0.0
 10
2.017976377952756
 20
0.3999409448818898
 30
0.0
 10
2.017976377952756
 20
0.4015236220472441
 30
0.0
 10
2.017976377952756
 20
0.4015236220472441
 30
0.0
 10
2.017976377952756
 20
0.4026653543307087
 30
0.0
 10
2.017200787401575
 20
0.4054409448818898
 30
0.0
 10
2.015700787401575
 20
0.4099133858267717
 30
0.0
 10
2.015700787401575
 20
0.4099133858267717
 30
0.0
 10
2.015700787401575
 20
0.4099133858267717
 30
0.0
 10
2.008200787401575
 20
0.4318858267716536
 30
0.0
 10
2.008200787401575
 20
0.4318858267716536
 30
0.0
 10
2.008200787401575
 20
0.4318858267716536
 30
0.0
 10
2.008200787401575
 20
0.4318858267716536
 30
0.0
 10
1.967035433070866
 20
0.4318858267716536
 30
0.0
 10
1.967035433070866
 20
0.4318858267716536
 30
0.0
 10
1.967035433070866
 20
0.4318858267716536
 30
0.0
 10
1.967035433070866
 20
0.4318858267716536
 30
0.0
 10
1.958228346456693
 20
0.4073031496062992
 30
0.0
 10
1.958228346456693
 20
0.4073031496062992
 30
0.0
 10
1.958228346456693
 20
0.4073031496062992
 30
0.0
 10
1.957311023622047
 20
0.404748031496063
 30
0.0
 10
1.956838582677166
 20
0.402996062992126
 30
0.0
 10
1.956838582677166
 20
0.401996062992126
 30
0.0
 10
1.956838582677166
 20
0.401996062992126
 30
0.0
 10
1.956838582677166
 20
0.4009133858267717
 30
0.0
 10
1.957145669291339
 20
0.3999685039370079
 30
0.0
 10
1.957700787401575
 20
0.3991653543307087
 30
0.0
 10
1.957700787401575
 20
0.3991653543307087
 30
0.0
 10
1.958283464566929
 20
0.3983582677165354
 30
0.0
 10
1.959035433070866
 20
0.397748031496063
 30
0.0
 10
1.960035433070866
 20
0.3973307086614173
 30
0.0
 10
1.960035433070866
 20
0.3973307086614173
 30
0.0
 10
1.961007874015748
 20
0.3969133858267717
 30
0.0
 10
1.962562992125984
 20
0.3967204724409449
 30
0.0
 10
1.964755905511811
 20
0.3967204724409449
 30
0.0
 10
1.964755905511811
 20
0.3967204724409449
 30
0.0
 10
1.966200787401575
 20
0.3967204724409449
 30
0.0
 10
1.967393700787402
 20
0.3966929133858268
 30
0.0
 10
1.968311023622047
 20
0.3966377952755906
 30
0.0
 10
1.968311023622047
 20
0.3966377952755906
 30
0.0
 10
1.968311023622047
 20
0.3966377952755906
 30
0.0
 10
1.968311023622047
 20
0.3898031496062993
 30
0.0
 10
1.968311023622047
 20
0.3898031496062993
 30
0.0
 10
1.968311023622047
 20
0.3898031496062993
 30
0.0
 10
1.968311023622047
 20
0.3898031496062993
 30
0.0
 10
1.934393700787402
 20
0.3898031496062993
 30
0.0
 10
1.934393700787402
 20
0.3898031496062993
 30
0.0
 10
1.934393700787402
 20
0.3898031496062993
 30
0.0
 10
1.934393700787402
 20
0.3898031496062993
 30
0.0
 10
1.934393700787402
 20
0.3966377952755906
 30
0.0
 10
1.934393700787402
 20
0.3966377952755906
 30
0.0
 10
1.934393700787402
 20
0.3966377952755906
 30
0.0
 10
1.937535433070866
 20
0.3966377952755906
 30
0.0
 10
1.939811023622047
 20
0.3969409448818898
 30
0.0
 10
1.941173228346457
 20
0.3975826771653543
 30
0.0
 10
1.941173228346457
 20
0.3975826771653543
 30
0.0
 10
1.942562992125984
 20
0.3981929133858268
 30
0.0
 10
1.943783464566929
 20
0.3991929133858268
 30
0.0
 10
1.944811023622047
 20
0.4005826771653543
 30
0.0
 10
1.944811023622047
 20
0.4005826771653543
 30
0.0
 10
1.945838582677165
 20
0.4019685039370079
 30
0.0
 10
1.947200787401575
 20
0.4048858267716536
 30
0.0
 10
1.948866141732284
 20
0.4093307086614174
 30
0.0
 10
1.948866141732284
 20
0.4093307086614174
 30
0.0
 10
1.948866141732284
 20
0.4093307086614174
 30
0.0
 10
1.984283464566929
 20
0.5033307086614174
 30
0.0
 10
1.984283464566929
 20
0.5033307086614174
 30
0.0
  0
SPLINE
  5
96
330
1F
100
AcDbEntity
  8
P1-LAYER_1
 62
   250
100
AcDbSpline
210
0.0
220
0.0
230
1.0
 70
    11
 71
     3
 72
    16
 73
    12
 74
     0
 42
0.0000000001
 43
0.0000000001
 40
0.0
 40
0.0
 40
0.0
 40
0.0
 40
0.3333333333333333
 40
0.3333333333333333
 40
0.3333333333333333
 40
0.3333333333333333
 40
0.6666666666666666
 40
0.6666666666666666
 40
0.6666666666666666
 40
0.6666666666666666
 40
1.0
 40
1.0
 40
1.0
 40
1.0
 10
1.970035433070866
 20
0.4398582677165355
 30
0.0
 10
1.970035433070866
 20
0.4398582677165355
 30
0.0
 10
2.005118110236221
 20
0.4398582677165355
 30
0.0
 10
2.005118110236221
 20
0.4398582677165355
 30
0.0
 10
2.005118110236221
 20
0.4398582677165355
 30
0.0
 10
2.005118110236221
 20
0.4398582677165355
 30
0.0
 10
1.987535433070866
 20
0.4886929133858268
 30
0.0
 10
1.987535433070866
 20
0.4886929133858268
 30
0.0
 10
1.987535433070866
 20
0.4886929133858268
 30
0.0
 10
1.987535433070866
 20
0.4886929133858268
 30
0.0
 10
1.970035433070866
 20
0.4398582677165355
 30
0.0
 10
1.970035433070866
 20
0.4398582677165355
 30
0.0
  0
SPLINE
  5
97
330
1F
100
AcDbEntity
  8
P1-LAYER_1
 62
   250
100
AcDbSpline
210
0.0
220
0.0
230
1.0
 70
    11
 71
     3
 72
    72
 73
    68
 74
     0
 42
0.0000000001
 43
0.0000000001
 40
0.0
 40
0.0
 40
0.0
 40
0.0
 40
0.0588235294117647
 40
0.0588235294117647
 40
0.0588235294117647
 40
0.0588235294117647
 40
0.1176470588235294
 40
0.1176470588235294
 40
0.1176470588235294
 40
0.1176470588235294
 40
0.1764705882352941
 40
0.1764705882352941
 40
0.1764705882352941
 40
0.1764705882352941
 40
0.2352941176470588
 40
0.2352941176470588
 40
0.2352941176470588
 40
0.2352941176470588
 40
0.2941176470588235
 40
0.2941176470588235
 40
0.2941176470588235
 40
0.2941176470588235
 40
0.3529411764705883
 40
0.3529411764705883
 40
0.3529411764705883
 40
0.3529411764705883
 40
0.411764705882353
 40
0.411764705882353
 40
0.411764705882353
 40
0.411764705882353
 40
0.4705882352941177
 40
0.4705882352941177
 40
0.4705882352941177
 40
0.4705882352941177
 40
0.5294117647058824
 40
0.5294117647058824
 40
0.5294117647058824
 40
0.5294117647058824
 40
0.5882352941176471
 40
0.5882352941176471
 40
0.5882352941176471
 40
0.5882352941176471
 40
0.6470588235294118
 40
0.6470588235294118
 40
0.6470588235294118
 40
0.6470588235294118
 40
0.7058823529411765
 40
0.7058823529411765
 40
0.7058823529411765
 40
0.7058823529411765
 40
0.7647058823529412
 40
0.7647058823529412
 40
0.7647058823529412
 40
0.7647058823529412
 40
0.823529411764706
 40
0.823529411764706
 40
0.823529411764706
 40
0.823529411764706
 40
0.8823529411764707
 40
0.8823529411764707
 40
0.8823529411764707
 40
0.8823529411764707
 40
0.9411764705882354
 40
0.9411764705882354
 40
0.9411764705882354
 40
0.9411764705882354
 40
1.0
 40
1.0
 40
1.0
 40
1.0
 10
2.210118110236221
 20
0.5033307086614174
 30
0.0
 10
2.210118110236221
 20
0.5033307086614174
 30
0.0
 10
2.216200787401575
 20
0.5033307086614174
 30
0.0
 10
2.216200787401575
 20
0.5033307086614174
 30
0.0
 10
2.216200787401575
 20
0.5033307086614174
 30
0.0
 10
2.216200787401575
 20
0.5033307086614174
 30
0.0
 10
2.216200787401575
 20
0.4090826771653544
 30
0.0
 10
2.216200787401575
 20
0.4090826771653544
 30
0.0
 10
2.216200787401575
 20
0.4090826771653544
 30
0.0
 10
2.216200787401575
 20
0.4046377952755906
 30
0.0
 10
2.216507874015748
 20
0.4017755905511811
 30
0.0
 10
2.217062992125984
 20
0.400496062992126
 30
0.0
 10
2.217062992125984
 20
0.400496062992126
 30
0.0
 10
2.217645669291339
 20
0.3992204724409449
 30
0.0
 10
2.218562992125984
 20
0.3982755905511811
 30
0.0
 10
2.219866141732283
 20
0.3976102362204725
 30
0.0
 10
2.219866141732283
 20
0.3976102362204725
 30
0.0
 10
2.221173228346457
 20
0.3969685039370079
 30
0.0
 10
2.223755905511811
 20
0.3966377952755906
 30
0.0
 10
2.227618110236221
 20
0.3966377952755906
 30
0.0
 10
2.227618110236221
 20
0.3966377952755906
 30
0.0
 10
2.227618110236221
 20
0.3966377952755906
 30
0.0
 10
2.235590551181102
 20
0.3966377952755906
 30
0.0
 10
2.235590551181102
 20
0.3966377952755906
 30
0.0
 10
2.235590551181102
 20
0.3966377952755906
 30
0.0
 10
2.235590551181102
 20
0.3966377952755906
 30
0.0
 10
2.235590551181102
 20
0.3898031496062993
 30
0.0
 10
2.235590551181102
 20
0.3898031496062993
 30
0.0
 10
2.235590551181102
 20
0.3898031496062993
 30
0.0
 10
2.235590551181102
 20
0.3898031496062993
 30
0.0
 10
2.181952755905512
 20
0.3898031496062993
 30
0.0
 10
2.181952755905512
 20
0.3898031496062993
 30
0.0
 10
2.181952755905512
 20
0.3898031496062993
 30
0.0
 10
2.181952755905512
 20
0.3898031496062993
 30
0.0
 10
2.181952755905512
 20
0.3966377952755906
 30
0.0
 10
2.181952755905512
 20
0.3966377952755906
 30
0.0
 10
2.181952755905512
 20
0.3966377952755906
 30
0.0
 10
2.181952755905512
 20
0.3966377952755906
 30
0.0
 10
2.190811023622048
 20
0.3966377952755906
 30
0.0
 10
2.190811023622048
 20
0.3966377952755906
 30
0.0
 10
2.190811023622048
 20
0.3966377952755906
 30
0.0
 10
2.194673228346457
 20
0.3966377952755906
 30
0.0
 10
2.197228346456693
 20
0.3969685039370079
 30
0.0
 10
2.198507874015748
 20
0.3976653543307087
 30
0.0
 10
2.198507874015748
 20
0.3976653543307087
 30
0.0
 10
2.199783464566929
 20
0.3983307086614173
 30
0.0
 10
2.200783464566929
 20
0.3994133858267717
 30
0.0
 10
2.20148031496063
 20
0.4009133858267717
 30
0.0
 10
2.20148031496063
 20
0.4009133858267717
 30
0.0
 10
2.202173228346457
 20
0.4024133858267717
 30
0.0
 10
2.202535433070866
 20
0.4051377952755906
 30
0.0
 10
2.202535433070866
 20
0.4090826771653544
 30
0.0
 10
2.202535433070866
 20
0.4090826771653544
 30
0.0
 10
2.202535433070866
 20
0.4090826771653544
 30
0.0
 10
2.202535433070866
 20
0.4865511811023622
 30
0.0
 10
2.202535433070866
 20
0.4865511811023622
 30
0.0
 10
2.202535433070866
 20
0.4865511811023622
 30
0.0
 10
2.202535433070866
 20
0.4865511811023622
 30
0.0
 10
2.181952755905512
 20
0.4865511811023622
 30
0.0
 10
2.181952755905512
 20
0.4865511811023622
 30
0.0
 10
2.181952755905512
 20
0.4865511811023622
 30
0.0
 10
2.181952755905512
 20
0.4865511811023622
 30
0.0
 10
2.181952755905512
 20
0.4935511811023622
 30
0.0
 10
2.181952755905512
 20
0.4935511811023622
 30
0.0
 10
2.181952755905512
 20
0.4935511811023622
 30
0.0
 10
2.193173228346457
 20
0.4951338582677166
 30
0.0
 10
2.202562992125984
 20
0.4983858267716536
 30
0.0
 10
2.210118110236221
 20
0.5033307086614174
 30
0.0
  0
SPLINE
  5
98
330
1F
100
AcDbEntity
  8
P1-LAYER_1
 62
   250
100
AcDbSpline
210
0.0
220
0.0
230
1.0
 70
    11
 71
     3
 72
    80
 73
    76
 74
     0
 42
0.0000000001
 43
0.0000000001
 40
0.0
 40
0.0
 40
0.0
 40
0.0
 40
0.0526315789473684
 40
0.0526315789473684
 40
0.0526315789473684
 40
0.0526315789473684
 40
0.1052631578947368
 40
0.1052631578947368
 40
0.1052631578947368
 40
0.1052631578947368
 40
0.1578947368421053
 40
0.1578947368421053
 40
0.1578947368421053
 40
0.1578947368421053
 40
0.2105263157894737
 40
0.2105263157894737
 40
0.2105263157894737
 40
0.2105263157894737
 40
0.2631578947368421
 40
0.2631578947368421
 40
0.2631578947368421
 40
0.2631578947368421
 40
0.3157894736842105
 40
0.3157894736842105
 40
0.3157894736842105
 40
0.3157894736842105
 40
0.3684210526315789
 40
0.3684210526315789
 40
0.3684210526315789
 40
0.3684210526315789
 40
0.4210526315789474
 40
0.4210526315789474
 40
0.4210526315789474
 40
0.4210526315789474
 40
0.4736842105263158
 40
0.4736842105263158
 40
0.4736842105263158
 40
0.4736842105263158
 40
0.5263157894736842
 40
0.5263157894736842
 40
0.5263157894736842
 40
0.5263157894736842
 40
0.5789473684210527
 40
0.5789473684210527
 40
0.5789473684210527
 40
0.5789473684210527
 40
0.631578947368421
 40
0.631578947368421
 40
0.631578947368421
 40
0.631578947368421
 40
0.6842105263157894
 40
0.6842105263157894
 40
0.6842105263157894
 40
0.6842105263157894
 40
0.7368421052631577
 40
0.7368421052631577
 40
0.7368421052631577
 40
0.7368421052631577
 40
0.7894736842105261
 40
0.7894736842105261
 40
0.7894736842105261
 40
0.7894736842105261
 40
0.8421052631578945
 40
0.8421052631578945
 40
0.8421052631578945
 40
0.8421052631578945
 40
0.8947368421052628
 40
0.8947368421052628
 40
0.8947368421052628
 40
0.8947368421052628
 40
0.9473684210526312
 40
0.9473684210526312
 40
0.9473684210526312
 40
0.9473684210526312
 40
1.0
 40
1.0
 40
1.0
 40
1.0
 10
2.275535433070866
 20
0.5074685039370079
 30
0.0
 10
2.275535433070866
 20
0.5074685039370079
 30
0.0
 10
2.280925196850394
 20
0.5074685039370079
 30
0.0
 10
2.280925196850394
 20
0.5074685039370079
 30
0.0
 10
2.280925196850394
 20
0.5074685039370079
 30
0.0
 10
2.280925196850394
 20
0.5074685039370079
 30
0.0
 10
2.281897637795276
 20
0.5033307086614174
 30
0.0
 10
2.281897637795276
 20
0.5033307086614174
 30
0.0
 10
2.281897637795276
 20
0.5033307086614174
 30
0.0
 10
2.281897637795276
 20
0.5033307086614174
 30
0.0
 10
2.353007874015748
 20
0.5033307086614174
 30
0.0
 10
2.353007874015748
 20
0.5033307086614174
 30
0.0
 10
2.353007874015748
 20
0.5033307086614174
 30
0.0
 10
2.353007874015748
 20
0.5033307086614174
 30
0.0
 10
2.353007874015748
 20
0.4964133858267717
 30
0.0
 10
2.353007874015748
 20
0.4964133858267717
 30
0.0
 10
2.353007874015748
 20
0.4964133858267717
 30
0.0
 10
2.344507874015748
 20
0.4865787401574803
 30
0.0
 10
2.336783464566929
 20
0.4754133858267717
 30
0.0
 10
2.329870078740158
 20
0.4628307086614173
 30
0.0
 10
2.329870078740158
 20
0.4628307086614173
 30
0.0
 10
2.322952755905512
 20
0.4502755905511811
 30
0.0
 10
2.317590551181103
 20
0.437496062992126
 30
0.0
 10
2.313783464566929
 20
0.4244685039370079
 30
0.0
 10
2.313783464566929
 20
0.4244685039370079
 30
0.0
 10
2.311035433070866
 20
0.4150826771653544
 30
0.0
 10
2.308787401574803
 20
0.4035236220472441
 30
0.0
 10
2.307035433070866
 20
0.3898031496062993
 30
0.0
 10
2.307035433070866
 20
0.3898031496062993
 30
0.0
 10
2.307035433070866
 20
0.3898031496062993
 30
0.0
 10
2.290370078740158
 20
0.3898031496062993
 30
0.0
 10
2.290370078740158
 20
0.3898031496062993
 30
0.0
 10
2.290370078740158
 20
0.3898031496062993
 30
0.0
 10
2.29198031496063
 20
0.4019133858267717
 30
0.0
 10
2.294645669291339
 20
0.4132204724409449
 30
0.0
 10
2.298370078740158
 20
0.423748031496063
 30
0.0
 10
2.298370078740158
 20
0.423748031496063
 30
0.0
 10
2.302090551181102
 20
0.4342755905511812
 30
0.0
 10
2.307452755905512
 20
0.4452755905511811
 30
0.0
 10
2.31448031496063
 20
0.456748031496063
 30
0.0
 10
2.31448031496063
 20
0.456748031496063
 30
0.0
 10
2.321507874015748
 20
0.4682204724409449
 30
0.0
 10
2.330035433070866
 20
0.4796653543307087
 30
0.0
 10
2.340090551181103
 20
0.4911062992125985
 30
0.0
 10
2.340090551181103
 20
0.4911062992125985
 30
0.0
 10
2.340090551181103
 20
0.4911062992125985
 30
0.0
 10
2.289370078740157
 20
0.4911062992125985
 30
0.0
 10
2.289370078740157
 20
0.4911062992125985
 30
0.0
 10
2.289370078740157
 20
0.4911062992125985
 30
0.0
 10
2.285700787401575
 20
0.4911062992125985
 30
0.0
 10
2.283173228346457
 20
0.4909409448818898
 30
0.0
 10
2.281814960629921
 20
0.4905511811023622
 30
0.0
 10
2.281814960629921
 20
0.4905511811023622
 30
0.0
 10
2.280452755905512
 20
0.4901653543307087
 30
0.0
 10
2.279397637795276
 20
0.4895787401574803
 30
0.0
 10
2.278645669291339
 20
0.4887755905511811
 30
0.0
 10
2.278645669291339
 20
0.4887755905511811
 30
0.0
 10
2.277870078740158
 20
0.4879409448818898
 30
0.0
 10
2.277228346456693
 20
0.486496062992126
 30
0.0
 10
2.276673228346457
 20
0.4844409448818898
 30
0.0
 10
2.276673228346457
 20
0.4844409448818898
 30
0.0
 10
2.276673228346457
 20
0.4844409448818898
 30
0.0
 10
2.276287401574803
 20
0.4829133858267717
 30
0.0
 10
2.276287401574803
 20
0.4829133858267717
 30
0.0
 10
2.276287401574803
 20
0.4829133858267717
 30
0.0
 10
2.276287401574803
 20
0.4829133858267717
 30
0.0
 10
2.273507874015748
 20
0.4733031496062992
 30
0.0
 10
2.273507874015748
 20
0.4733031496062992
 30
0.0
 10
2.273507874015748
 20
0.4733031496062992
 30
0.0
 10
2.273507874015748
 20
0.4733031496062992
 30
0.0
 10
2.266590551181102
 20
0.4747755905511811
 30
0.0
 10
2.266590551181102
 20
0.4747755905511811
 30
0.0
 10
2.266590551181102
 20
0.4747755905511811
 30
0.0
 10
2.266590551181102
 20
0.4747755905511811
 30
0.0
 10
2.275535433070866
 20
0.5074685039370079
 30
0.0
 10
2.275535433070866
 20
0.5074685039370079
 30
0.0
  0
SPLINE
  5
99
330
1F
100
AcDbEntity
  8
P1-LAYER_1
 62
   250
100
AcDbSpline
210
0.0
220
0.0
230
1.0
 70
    11
 71
     3
 72
    84
 73
    80
 74
     0
 42
0.0000000001
 43
0.0000000001
 40
0.0
 40
0.0
 40
0.0
 40
0.0
 40
0.05
 40
0.05
 40
0.05
 40
0.05
 40
0.1
 40
0.1
 40
0.1
 40
0.1
 40
0.15
 40
0.15
 40
0.15
 40
0.15
 40
0.2
 40
0.2
 40
0.2
 40
0.2
 40
0.25
 40
0.25
 40
0.25
 40
0.25
 40
0.3
 40
0.3
 40
0.3
 40
0.3
 40
0.35
 40
0.35
 40
0.35
 40
0.35
 40
0.4
 40
0.4
 40
0.4
 40
0.4
 40
0.45
 40
0.45
 40
0.45
 40
0.45
 40
0.4999999999999999
 40
0.4999999999999999
 40
0.4999999999999999
 40
0.4999999999999999
 40
0.5499999999999999
 40
0.5499999999999999
 40
0.5499999999999999
 40
0.5499999999999999
 40
0.6
 40
0.6
 40
0.6
 40
0.6
 40
0.65
 40
0.65
 40
0.65
 40
0.65
 40
0.7000000000000001
 40
0.7000000000000001
 40
0.7000000000000001
 40
0.7000000000000001
 40
0.7500000000000001
 40
0.7500000000000001
 40
0.7500000000000001
 40
0.7500000000000001
 40
0.8000000000000002
 40
0.8000000000000002
 40
0.8000000000000002
 40
0.8000000000000002
 40
0.8500000000000002
 40
0.8500000000000002
 40
0.8500000000000002
 40
0.8500000000000002
 40
0.9000000000000002
 40
0.9000000000000002
 40
0.9000000000000002
 40
0.9000000000000002
 40
0.9500000000000003
 40
0.9500000000000003
 40
0.9500000000000003
 40
0.9500000000000003
 40
1.0
 40
1.0
 40
1.0
 40
1.0
 10
2.445145669291339
 20
0.5054409448818897
 30
0.0
 10
2.445145669291339
 20
0.5054409448818897
 30
0.0
 10
2.445145669291339
 20
0.4980236220472441
 30
0.0
 10
2.445145669291339
 20
0.4980236220472441
 30
0.0
 10
2.445145669291339
 20
0.4980236220472441
 30
0.0
 10
2.431759842519685
 20
0.4978858267716536
 30
0.0
 10
2.420925196850394
 20
0.4959133858267717
 30
0.0
 10
2.412649606299213
 20
0.4921929133858268
 30
0.0
 10
2.412649606299213
 20
0.4921929133858268
 30
0.0
 10
2.404370078740158
 20
0.4884409448818898
 30
0.0
 10
2.398287401574803
 20
0.4828307086614174
 30
0.0
 10
2.394370078740157
 20
0.4753858267716536
 30
0.0
 10
2.394370078740157
 20
0.4753858267716536
 30
0.0
 10
2.390452755905512
 20
0.4679133858267717
 30
0.0
 10
2.388259842519685
 20
0.4587204724409449
 30
0.0
 10
2.387787401574803
 20
0.4478307086614173
 30
0.0
 10
2.387787401574803
 20
0.4478307086614173
 30
0.0
 10
2.390535433070866
 20
0.4520511811023622
 30
0.0
 10
2.393370078740158
 20
0.4553582677165354
 30
0.0
 10
2.396287401574803
 20
0.4577204724409449
 30
0.0
 10
2.396287401574803
 20
0.4577204724409449
 30
0.0
 10
2.399177165354331
 20
0.4600787401574804
 30
0.0
 10
2.402562992125985
 20
0.4618858267716536
 30
0.0
 10
2.406452755905512
 20
0.4631653543307087
 30
0.0
 10
2.406452755905512
 20
0.4631653543307087
 30
0.0
 10
2.410342519685039
 20
0.4644409448818898
 30
0.0
 10
2.414590551181103
 20
0.4650787401574804
 30
0.0
 10
2.419204724409449
 20
0.4650787401574804
 30
0.0
 10
2.419204724409449
 20
0.4650787401574804
 30
0.0
 10
2.426562992125984
 20
0.4650787401574804
 30
0.0
 10
2.433145669291339
 20
0.4634409448818898
 30
0.0
 10
2.438897637795276
 20
0.4601929133858268
 30
0.0
 10
2.438897637795276
 20
0.4601929133858268
 30
0.0
 10
2.444645669291339
 20
0.4569409448818898
 30
0.0
 10
2.449118110236221
 20
0.4525236220472441
 30
0.0
 10
2.452314960629921
 20
0.4469685039370079
 30
0.0
 10
2.452314960629921
 20
0.4469685039370079
 30
0.0
 10
2.455507874015748
 20
0.4414133858267716
 30
0.0
 10
2.457118110236221
 20
0.4348582677165355
 30
0.0
 10
2.457118110236221
 20
0.4273307086614173
 30
0.0
 10
2.457118110236221
 20
0.4273307086614173
 30
0.0
 10
2.457118110236221
 20
0.4153307086614174
 30
0.0
 10
2.453507874015748
 20
0.4059133858267717
 30
0.0
 10
2.446287401574803
 20
0.3990826771653543
 30
0.0
 10
2.446287401574803
 20
0.3990826771653543
 30
0.0
 10
2.438314960629922
 20
0.3915826771653543
 30
0.0
 10
2.42798031496063
 20
0.3878582677165354
 30
0.0
 10
2.415287401574803
 20
0.3878582677165354
 30
0.0
 10
2.415287401574803
 20
0.3878582677165354
 30
0.0
 10
2.40611811023622
 20
0.3878582677165354
 30
0.0
 10
2.398397637795276
 20
0.389748031496063
 30
0.0
 10
2.392090551181103
 20
0.3935511811023622
 30
0.0
 10
2.392090551181103
 20
0.3935511811023622
 30
0.0
 10
2.385787401574803
 20
0.3973307086614173
 30
0.0
 10
2.380787401574803
 20
0.4031377952755906
 30
0.0
 10
2.377062992125985
 20
0.4109685039370079
 30
0.0
 10
2.377062992125985
 20
0.4109685039370079
 30
0.0
 10
2.373370078740158
 20
0.4187755905511811
 30
0.0
 10
2.371507874015748
 20
0.4284409448818898
 30
0.0
 10
2.371507874015748
 20
0.4399409448818898
 30
0.0
 10
2.371507874015748
 20
0.4399409448818898
 30
0.0
 10
2.371507874015748
 20
0.451496062992126
 30
0.0
 10
2.37348031496063
 20
0.461748031496063
 30
0.0
 10
2.377397637795276
 20
0.4706929133858268
 30
0.0
 10
2.377397637795276
 20
0.4706929133858268
 30
0.0
 10
2.38134251968504
 20
0.4796338582677165
 30
0.0
 10
2.386787401574803
 20
0.4868307086614174
 30
0.0
 10
2.393732283464567
 20
0.492248031496063
 30
0.0
 10
2.393732283464567
 20
0.492248031496063
 30
0.0
 10
2.400677165354331
 20
0.4976929133858268
 30
0.0
 10
2.408287401574803
 20
0.501248031496063
 30
0.0
 10
2.416535433070866
 20
0.5029133858267717
 30
0.0
 10
2.416535433070866
 20
0.5029133858267717
 30
0.0
 10
2.424814960629921
 20
0.5046062992125985
 30
0.0
 10
2.432232283464567
 20
0.5054409448818897
 30
0.0
 10
2.438814960629921
 20
0.5054409448818897
 30
0.0
 10
2.438814960629921
 20
0.5054409448818897
 30
0.0
 10
2.438814960629921
 20
0.5054409448818897
 30
0.0
 10
2.445145669291339
 20
0.5054409448818897
 30
0.0
 10
2.445145669291339
 20
0.5054409448818897
 30
0.0
  0
SPLINE
  5
9A
330
1F
100
AcDbEntity
  8
P1-LAYER_1
 62
   250
100
AcDbSpline
210
0.0
220
0.0
230
1.0
 70
    11
 71
     3
 72
    40
 73
    36
 74
     0
 42
0.0000000001
 43
0.0000000001
 40
0.0
 40
0.0
 40
0.0
 40
0.0
 40
0.1111111111111111
 40
0.1111111111111111
 40
0.1111111111111111
 40
0.1111111111111111
 40
0.2222222222222222
 40
0.2222222222222222
 40
0.2222222222222222
 40
0.2222222222222222
 40
0.3333333333333333
 40
0.3333333333333333
 40
0.3333333333333333
 40
0.3333333333333333
 40
0.4444444444444444
 40
0.4444444444444444
 40
0.4444444444444444
 40
0.4444444444444444
 40
0.5555555555555556
 40
0.5555555555555556
 40
0.5555555555555556
 40
0.5555555555555556
 40
0.6666666666666667
 40
0.6666666666666667
 40
0.6666666666666667
 40
0.6666666666666667
 40
0.7777777777777779
 40
0.7777777777777779
 40
0.7777777777777779
 40
0.7777777777777779
 40
0.8888888888888891
 40
0.8888888888888891
 40
0.8888888888888891
 40
0.8888888888888891
 40
1.0
 40
1.0
 40
1.0
 40
1.0
 10
2.415452755905512
 20
0.4564409448818898
 30
0.0
 10
2.407649606299213
 20
0.4564409448818898
 30
0.0
 10
2.401232283464567
 20
0.453496062992126
 30
0.0
 10
2.396204724409449
 20
0.4475787401574803
 30
0.0
 10
2.396204724409449
 20
0.4475787401574803
 30
0.0
 10
2.391177165354331
 20
0.4416653543307087
 30
0.0
 10
2.388677165354331
 20
0.4345511811023622
 30
0.0
 10
2.388677165354331
 20
0.4262755905511811
 30
0.0
 10
2.388677165354331
 20
0.4262755905511811
 30
0.0
 10
2.388677165354331
 20
0.4204133858267717
 30
0.0
 10
2.389897637795276
 20
0.414996062992126
 30
0.0
 10
2.39234251968504
 20
0.4100236220472441
 30
0.0
 10
2.39234251968504
 20
0.4100236220472441
 30
0.0
 10
2.394787401574803
 20
0.4050511811023622
 30
0.0
 10
2.397925196850394
 20
0.4013858267716536
 30
0.0
 10
2.401787401574803
 20
0.3989685039370079
 30
0.0
 10
2.401787401574803
 20
0.3989685039370079
 30
0.0
 10
2.405618110236221
 20
0.3965511811023622
 30
0.0
 10
2.40998031496063
 20
0.3953307086614173
 30
0.0
 10
2.414787401574803
 20
0.3953307086614173
 30
0.0
 10
2.414787401574803
 20
0.3953307086614173
 30
0.0
 10
2.422287401574803
 20
0.3953307086614173
 30
0.0
 10
2.428507874015748
 20
0.3981653543307087
 30
0.0
 10
2.43348031496063
 20
0.4038307086614174
 30
0.0
 10
2.43348031496063
 20
0.4038307086614174
 30
0.0
 10
2.438425196850394
 20
0.409496062992126
 30
0.0
 10
2.440925196850394
 20
0.4171102362204724
 30
0.0
 10
2.440925196850394
 20
0.4266653543307087
 30
0.0
 10
2.440925196850394
 20
0.4266653543307087
 30
0.0
 10
2.440925196850394
 20
0.4357755905511811
 30
0.0
 10
2.438507874015748
 20
0.4430236220472441
 30
0.0
 10
2.433677165354331
 20
0.4483858267716536
 30
0.0
 10
2.433677165354331
 20
0.4483858267716536
 30
0.0
 10
2.428842519685039
 20
0.4537755905511811
 30
0.0
 10
2.422759842519685
 20
0.4564409448818898
 30
0.0
 10
2.415452755905512
 20
0.4564409448818898
 30
0.0
  0
SPLINE
  5
9B
330
1F
100
AcDbEntity
  8
P1-LAYER_1
 62
   250
100
AcDbSpline
210
0.0
220
0.0
230
1.0
 70
    11
 71
     3
 72
    48
 73
    44
 74
     0
 42
0.0000000001
 43
0.0000000001
 40
0.0
 40
0.0
 40
0.0
 40
0.0
 40
0.0909090909090909
 40
0.0909090909090909
 40
0.0909090909090909
 40
0.0909090909090909
 40
0.1818181818181818
 40
0.1818181818181818
 40
0.1818181818181818
 40
0.1818181818181818
 40
0.2727272727272727
 40
0.2727272727272727
 40
0.2727272727272727
 40
0.2727272727272727
 40
0.3636363636363637
 40
0.3636363636363637
 40
0.3636363636363637
 40
0.3636363636363637
 40
0.4545454545454546
 40
0.4545454545454546
 40
0.4545454545454546
 40
0.4545454545454546
 40
0.5454545454545455
 40
0.5454545454545455
 40
0.5454545454545455
 40
0.5454545454545455
 40
0.6363636363636365
 40
0.6363636363636365
 40
0.6363636363636365
 40
0.6363636363636365
 40
0.7272727272727274
 40
0.7272727272727274
 40
0.7272727272727274
 40
0.7272727272727274
 40
0.8181818181818183
 40
0.8181818181818183
 40
0.8181818181818183
 40
0.8181818181818183
 40
0.9090909090909093
 40
0.9090909090909093
 40
0.9090909090909093
 40
0.9090909090909093
 40
1.0
 40
1.0
 40
1.0
 40
1.0
 10
2.524594488188976
 20
0.5033307086614174
 30
0.0
 10
2.524594488188976
 20
0.5033307086614174
 30
0.0
 10
2.53834251968504
 20
0.5033307086614174
 30
0.0
 10
2.53834251968504
 20
0.5033307086614174
 30
0.0
 10
2.53834251968504
 20
0.5033307086614174
 30
0.0
 10
2.53834251968504
 20
0.5033307086614174
 30
0.0
 10
2.53834251968504
 20
0.4373307086614173
 30
0.0
 10
2.53834251968504
 20
0.4373307086614173
 30
0.0
 10
2.53834251968504
 20
0.4373307086614173
 30
0.0
 10
2.53834251968504
 20
0.4373307086614173
 30
0.0
 10
2.559677165354331
 20
0.4373307086614173
 30
0.0
 10
2.559677165354331
 20
0.4373307086614173
 30
0.0
 10
2.559677165354331
 20
0.4373307086614173
 30
0.0
 10
2.559677165354331
 20
0.4373307086614173
 30
0.0
 10
2.559677165354331
 20
0.4271653543307087
 30
0.0
 10
2.559677165354331
 20
0.4271653543307087
 30
0.0
 10
2.559677165354331
 20
0.4271653543307087
 30
0.0
 10
2.559677165354331
 20
0.4271653543307087
 30
0.0
 10
2.53834251968504
 20
0.4271653543307087
 30
0.0
 10
2.53834251968504
 20
0.4271653543307087
 30
0.0
 10
2.53834251968504
 20
0.4271653543307087
 30
0.0
 10
2.53834251968504
 20
0.4271653543307087
 30
0.0
 10
2.53834251968504
 20
0.3898031496062993
 30
0.0
 10
2.53834251968504
 20
0.3898031496062993
 30
0.0
 10
2.53834251968504
 20
0.3898031496062993
 30
0.0
 10
2.53834251968504
 20
0.3898031496062993
 30
0.0
 10
2.524594488188976
 20
0.3898031496062993
 30
0.0
 10
2.524594488188976
 20
0.3898031496062993
 30
0.0
 10
2.524594488188976
 20
0.3898031496062993
 30
0.0
 10
2.524594488188976
 20
0.3898031496062993
 30
0.0
 10
2.524594488188976
 20
0.4271653543307087
 30
0.0
 10
2.524594488188976
 20
0.4271653543307087
 30
0.0
 10
2.524594488188976
 20
0.4271653543307087
 30
0.0
 10
2.524594488188976
 20
0.4271653543307087
 30
0.0
 10
2.471122047244095
 20
0.4271653543307087
 30
0.0
 10
2.471122047244095
 20
0.4271653543307087
 30
0.0
 10
2.471122047244095
 20
0.4271653543307087
 30
0.0
 10
2.471122047244095
 20
0.4271653543307087
 30
0.0
 10
2.471122047244095
 20
0.4414685039370079
 30
0.0
 10
2.471122047244095
 20
0.4414685039370079
 30
0.0
 10
2.471122047244095
 20
0.4414685039370079
 30
0.0
 10
2.471122047244095
 20
0.4414685039370079
 30
0.0
 10
2.524594488188976
 20
0.5033307086614174
 30
0.0
 10
2.524594488188976
 20
0.5033307086614174
 30
0.0
  0
SPLINE
  5
9C
330
1F
100
AcDbEntity
  8
P1-LAYER_1
 62
   250
100
AcDbSpline
210
0.0
220
0.0
230
1.0
 70
    11
 71
     3
 72
    16
 73
    12
 74
     0
 42
0.0000000001
 43
0.0000000001
 40
0.0
 40
0.0
 40
0.0
 40
0.0
 40
0.3333333333333333
 40
0.3333333333333333
 40
0.3333333333333333
 40
0.3333333333333333
 40
0.6666666666666666
 40
0.6666666666666666
 40
0.6666666666666666
 40
0.6666666666666666
 40
1.0
 40
1.0
 40
1.0
 40
1.0
 10
2.524594488188976
 20
0.4373307086614173
 30
0.0
 10
2.524594488188976
 20
0.4373307086614173
 30
0.0
 10
2.524594488188976
 20
0.4907204724409449
 30
0.0
 10
2.524594488188976
 20
0.4907204724409449
 30
0.0
 10
2.524594488188976
 20
0.4907204724409449
 30
0.0
 10
2.524594488188976
 20
0.4907204724409449
 30
0.0
 10
2.47853937007874
 20
0.4373307086614173
 30
0.0
 10
2.47853937007874
 20
0.4373307086614173
 30
0.0
 10
2.47853937007874
 20
0.4373307086614173
 30
0.0
 10
2.47853937007874
 20
0.4373307086614173
 30
0.0
 10
2.524594488188976
 20
0.4373307086614173
 30
0.0
 10
2.524594488188976
 20
0.4373307086614173
 30
0.0
  0
SPLINE
  5
9D
330
1F
100
AcDbEntity
  8
P1-LAYER_1
 62
   250
100
AcDbSpline
210
0.0
220
0.0
230
1.0
 70
    11
 71
     3
 72
    72
 73
    68
 74
     0
 42
0.0000000001
 43
0.0000000001
 40
0.0
 40
0.0
 40
0.0
 40
0.0
 40
0.0588235294117647
 40
0.0588235294117647
 40
0.0588235294117647
 40
0.0588235294117647
 40
0.1176470588235294
 40
0.1176470588235294
 40
0.1176470588235294
 40
0.1176470588235294
 40
0.1764705882352941
 40
0.1764705882352941
 40
0.1764705882352941
 40
0.1764705882352941
 40
0.2352941176470588
 40
0.2352941176470588
 40
0.2352941176470588
 40
0.2352941176470588
 40
0.2941176470588235
 40
0.2941176470588235
 40
0.2941176470588235
 40
0.2941176470588235
 40
0.3529411764705883
 40
0.3529411764705883
 40
0.3529411764705883
 40
0.3529411764705883
 40
0.411764705882353
 40
0.411764705882353
 40
0.411764705882353
 40
0.411764705882353
 40
0.4705882352941177
 40
0.4705882352941177
 40
0.4705882352941177
 40
0.4705882352941177
 40
0.5294117647058824
 40
0.5294117647058824
 40
0.5294117647058824
 40
0.5294117647058824
 40
0.5882352941176471
 40
0.5882352941176471
 40
0.5882352941176471
 40
0.5882352941176471
 40
0.6470588235294118
 40
0.6470588235294118
 40
0.6470588235294118
 40
0.6470588235294118
 40
0.7058823529411765
 40
0.7058823529411765
 40
0.7058823529411765
 40
0.7058823529411765
 40
0.7647058823529412
 40
0.7647058823529412
 40
0.7647058823529412
 40
0.7647058823529412
 40
0.823529411764706
 40
0.823529411764706
 40
0.823529411764706
 40
0.823529411764706
 40
0.8823529411764707
 40
0.8823529411764707
 40
0.8823529411764707
 40
0.8823529411764707
 40
0.9411764705882354
 40
0.9411764705882354
 40
0.9411764705882354
 40
0.9411764705882354
 40
1.0
 40
1.0
 40
1.0
 40
1.0
 10
1.788551181102362
 20
0.3158307086614173
 30
0.0
 10
1.788551181102362
 20
0.3158307086614173
 30
0.0
 10
1.794633858267717
 20
0.3158307086614173
 30
0.0
 10
1.794633858267717
 20
0.3158307086614173
 30
0.0
 10
1.794633858267717
 20
0.3158307086614173
 30
0.0
 10
1.794633858267717
 20
0.3158307086614173
 30
0.0
 10
1.794633858267717
 20
0.2215826771653544
 30
0.0
 10
1.794633858267717
 20
0.2215826771653544
 30
0.0
 10
1.794633858267717
 20
0.2215826771653544
 30
0.0
 10
1.794633858267717
 20
0.2171377952755906
 30
0.0
 10
1.79494094488189
 20
0.2142755905511811
 30
0.0
 10
1.795496062992126
 20
0.212996062992126
 30
0.0
 10
1.795496062992126
 20
0.212996062992126
 30
0.0
 10
1.796078740157481
 20
0.2117204724409449
 30
0.0
 10
1.796996062992126
 20
0.2107755905511811
 30
0.0
 10
1.798299212598425
 20
0.2101102362204725
 30
0.0
 10
1.798299212598425
 20
0.2101102362204725
 30
0.0
 10
1.799606299212599
 20
0.2094685039370079
 30
0.0
 10
1.802188976377953
 20
0.2091377952755906
 30
0.0
 10
1.806051181102362
 20
0.2091377952755906
 30
0.0
 10
1.806051181102362
 20
0.2091377952755906
 30
0.0
 10
1.806051181102362
 20
0.2091377952755906
 30
0.0
 10
1.814023622047244
 20
0.2091377952755906
 30
0.0
 10
1.814023622047244
 20
0.2091377952755906
 30
0.0
 10
1.814023622047244
 20
0.2091377952755906
 30
0.0
 10
1.814023622047244
 20
0.2091377952755906
 30
0.0
 10
1.814023622047244
 20
0.2023031496062992
 30
0.0
 10
1.814023622047244
 20
0.2023031496062992
 30
0.0
 10
1.814023622047244
 20
0.2023031496062992
 30
0.0
 10
1.814023622047244
 20
0.2023031496062992
 30
0.0
 10
1.760385826771654
 20
0.2023031496062992
 30
0.0
 10
1.760385826771654
 20
0.2023031496062992
 30
0.0
 10
1.760385826771654
 20
0.2023031496062992
 30
0.0
 10
1.760385826771654
 20
0.2023031496062992
 30
0.0
 10
1.760385826771654
 20
0.2091377952755906
 30
0.0
 10
1.760385826771654
 20
0.2091377952755906
 30
0.0
 10
1.760385826771654
 20
0.2091377952755906
 30
0.0
 10
1.760385826771654
 20
0.2091377952755906
 30
0.0
 10
1.769244094488189
 20
0.2091377952755906
 30
0.0
 10
1.769244094488189
 20
0.2091377952755906
 30
0.0
 10
1.769244094488189
 20
0.2091377952755906
 30
0.0
 10
1.773106299212599
 20
0.2091377952755906
 30
0.0
 10
1.775661417322835
 20
0.2094685039370079
 30
0.0
 10
1.77694094488189
 20
0.2101653543307087
 30
0.0
 10
1.77694094488189
 20
0.2101653543307087
 30
0.0
 10
1.778216535433071
 20
0.2108307086614173
 30
0.0
 10
1.779216535433071
 20
0.2119133858267717
 30
0.0
 10
1.779913385826772
 20
0.2134133858267717
 30
0.0
 10
1.779913385826772
 20
0.2134133858267717
 30
0.0
 10
1.780606299212598
 20
0.2149133858267717
 30
0.0
 10
1.780968503937008
 20
0.2176377952755906
 30
0.0
 10
1.780968503937008
 20
0.2215826771653544
 30
0.0
 10
1.780968503937008
 20
0.2215826771653544
 30
0.0
 10
1.780968503937008
 20
0.2215826771653544
 30
0.0
 10
1.780968503937008
 20
0.2990511811023622
 30
0.0
 10
1.780968503937008
 20
0.2990511811023622
 30
0.0
 10
1.780968503937008
 20
0.2990511811023622
 30
0.0
 10
1.780968503937008
 20
0.2990511811023622
 30
0.0
 10
1.760385826771654
 20
0.2990511811023622
 30
0.0
 10
1.760385826771654
 20
0.2990511811023622
 30
0.0
 10
1.760385826771654
 20
0.2990511811023622
 30
0.0
 10
1.760385826771654
 20
0.2990511811023622
 30
0.0
 10
1.760385826771654
 20
0.3060511811023622
 30
0.0
 10
1.760385826771654
 20
0.3060511811023622
 30
0.0
 10
1.760385826771654
 20
0.3060511811023622
 30
0.0
 10
1.771606299212599
 20
0.3076338582677166
 30
0.0
 10
1.780996062992126
 20
0.3108858267716536
 30
0.0
 10
1.788551181102362
 20
0.3158307086614173
 30
0.0
  0
SPLINE
  5
9E
330
1F
100
AcDbEntity
  8
P1-LAYER_1
 62
   250
100
AcDbSpline
210
0.0
220
0.0
230
1.0
 70
    11
 71
     3
 72
    20
 73
    16
 74
     0
 42
0.0000000001
 43
0.0000000001
 40
0.0
 40
0.0
 40
0.0
 40
0.0
 40
0.25
 40
0.25
 40
0.25
 40
0.25
 40
0.5
 40
0.5
 40
0.5
 40
0.5
 40
0.75
 40
0.75
 40
0.75
 40
0.75
 40
1.0
 40
1.0
 40
1.0
 40
1.0
 10
1.845023622047244
 20
0.2487755905511811
 30
0.0
 10
1.845023622047244
 20
0.2487755905511811
 30
0.0
 10
1.893358267716536
 20
0.2487755905511811
 30
0.0
 10
1.893358267716536
 20
0.2487755905511811
 30
0.0
 10
1.893358267716536
 20
0.2487755905511811
 30
0.0
 10
1.893358267716536
 20
0.2487755905511811
 30
0.0
 10
1.893358267716536
 20
0.2386929133858268
 30
0.0
 10
1.893358267716536
 20
0.2386929133858268
 30
0.0
 10
1.893358267716536
 20
0.2386929133858268
 30
0.0
 10
1.893358267716536
 20
0.2386929133858268
 30
0.0
 10
1.845023622047244
 20
0.2386929133858268
 30
0.0
 10
1.845023622047244
 20
0.2386929133858268
 30
0.0
 10
1.845023622047244
 20
0.2386929133858268
 30
0.0
 10
1.845023622047244
 20
0.2386929133858268
 30
0.0
 10
1.845023622047244
 20
0.2487755905511811
 30
0.0
 10
1.845023622047244
 20
0.2487755905511811
 30
0.0
  0
SPLINE
  5
9F
330
1F
100
AcDbEntity
  8
P1-LAYER_1
 62
   250
100
AcDbSpline
210
0.0
220
0.0
230
1.0
 70
    11
 71
     3
 72
   172
 73
   168
 74
     0
 42
0.0000000001
 43
0.0000000001
 40
0.0
 40
0.0
 40
0.0
 40
0.0
 40
0.0238095238095238
 40
0.0238095238095238
 40
0.0238095238095238
 40
0.0238095238095238
 40
0.0476190476190476
 40
0.0476190476190476
 40
0.0476190476190476
 40
0.0476190476190476
 40
0.0714285714285714
 40
0.0714285714285714
 40
0.0714285714285714
 40
0.0714285714285714
 40
0.0952380952380952
 40
0.0952380952380952
 40
0.0952380952380952
 40
0.0952380952380952
 40
0.119047619047619
 40
0.119047619047619
 40
0.119047619047619
 40
0.119047619047619
 40
0.1428571428571429
 40
0.1428571428571429
 40
0.1428571428571429
 40
0.1428571428571429
 40
0.1666666666666667
 40
0.1666666666666667
 40
0.1666666666666667
 40
0.1666666666666667
 40
0.1904761904761905
 40
0.1904761904761905
 40
0.1904761904761905
 40
0.1904761904761905
 40
0.2142857142857143
 40
0.2142857142857143
 40
0.2142857142857143
 40
0.2142857142857143
 40
0.2380952380952381
 40
0.2380952380952381
 40
0.2380952380952381
 40
0.2380952380952381
 40
0.2619047619047619
 40
0.2619047619047619
 40
0.2619047619047619
 40
0.2619047619047619
 40
0.2857142857142857
 40
0.2857142857142857
 40
0.2857142857142857
 40
0.2857142857142857
 40
0.3095238095238095
 40
0.3095238095238095
 40
0.3095238095238095
 40
0.3095238095238095
 40
0.3333333333333334
 40
0.3333333333333334
 40
0.3333333333333334
 40
0.3333333333333334
 40
0.3571428571428572
 40
0.3571428571428572
 40
0.3571428571428572
 40
0.3571428571428572
 40
0.380952380952381
 40
0.380952380952381
 40
0.380952380952381
 40
0.380952380952381
 40
0.4047619047619049
 40
0.4047619047619049
 40
0.4047619047619049
 40
0.4047619047619049
 40
0.4285714285714287
 40
0.4285714285714287
 40
0.4285714285714287
 40
0.4285714285714287
 40
0.4523809523809526
 40
0.4523809523809526
 40
0.4523809523809526
 40
0.4523809523809526
 40
0.4761904761904764
 40
0.4761904761904764
 40
0.4761904761904764
 40
0.4761904761904764
 40
0.5000000000000002
 40
0.5000000000000002
 40
0.5000000000000002
 40
0.5000000000000002
 40
0.5238095238095241
 40
0.5238095238095241
 40
0.5238095238095241
 40
0.5238095238095241
 40
0.5476190476190479
 40
0.5476190476190479
 40
0.5476190476190479
 40
0.5476190476190479
 40
0.5714285714285717
 40
0.5714285714285717
 40
0.5714285714285717
 40
0.5714285714285717
 40
0.5952380952380956
 40
0.5952380952380956
 40
0.5952380952380956
 40
0.5952380952380956
 40
0.6190476190476194
 40
0.6190476190476194
 40
0.6190476190476194
 40
0.6190476190476194
 40
0.6428571428571432
 40
0.6428571428571432
 40
0.6428571428571432
 40
0.6428571428571432
 40
0.6666666666666671
 40
0.6666666666666671
 40
0.6666666666666671
 40
0.6666666666666671
 40
0.6904761904761909
 40
0.6904761904761909
 40
0.6904761904761909
 40
0.6904761904761909
 40
0.7142857142857148
 40
0.7142857142857148
 40
0.7142857142857148
 40
0.7142857142857148
 40
0.7380952380952386
 40
0.7380952380952386
 40
0.7380952380952386
 40
0.7380952380952386
 40
0.7619047619047624
 40
0.7619047619047624
 40
0.7619047619047624
 40
0.7619047619047624
 40
0.7857142857142863
 40
0.7857142857142863
 40
0.7857142857142863
 40
0.7857142857142863
 40
0.8095238095238101
 40
0.8095238095238101
 40
0.8095238095238101
 40
0.8095238095238101
 40
0.8333333333333339
 40
0.8333333333333339
 40
0.8333333333333339
 40
0.8333333333333339
 40
0.8571428571428578
 40
0.8571428571428578
 40
0.8571428571428578
 40
0.8571428571428578
 40
0.8809523809523816
 40
0.8809523809523816
 40
0.8809523809523816
 40
0.8809523809523816
 40
0.9047619047619054
 40
0.9047619047619054
 40
0.9047619047619054
 40
0.9047619047619054
 40
0.9285714285714293
 40
0.9285714285714293
 40
0.9285714285714293
 40
0.9285714285714293
 40
0.9523809523809531
 40
0.9523809523809531
 40
0.9523809523809531
 40
0.9523809523809531
 40
0.9761904761904769
 40
0.9761904761904769
 40
0.9761904761904769
 40
0.9761904761904769
 40
1.0
 40
1.0
 40
1.0
 40
1.0
 10
1.924606299212599
 20
0.2854685039370079
 30
0.0
 10
1.924606299212599
 20
0.2854685039370079
 30
0.0
 10
1.916799212598425
 20
0.2866929133858268
 30
0.0
 10
1.916799212598425
 20
0.2866929133858268
 30
0.0
 10
1.916799212598425
 20
0.2866929133858268
 30
0.0
 10
1.917496062992126
 20
0.2925511811023622
 30
0.0
 10
1.919023622047244
 20
0.2974133858267717
 30
0.0
 10
1.921358267716536
 20
0.3012755905511811
 30
0.0
 10
1.921358267716536
 20
0.3012755905511811
 30
0.0
 10
1.92444094488189
 20
0.3064685039370079
 30
0.0
 10
1.928799212598425
 20
0.3105236220472441
 30
0.0
 10
1.93444094488189
 20
0.3134133858267716
 30
0.0
 10
1.93444094488189
 20
0.3134133858267716
 30
0.0
 10
1.940106299212599
 20
0.3163307086614173
 30
0.0
 10
1.94657874015748
 20
0.3177755905511811
 30
0.0
 10
1.953913385826772
 20
0.3177755905511811
 30
0.0
 10
1.953913385826772
 20
0.3177755905511811
 30
0.0
 10
1.961106299212599
 20
0.3177755905511811
 30
0.0
 10
1.967468503937008
 20
0.316496062992126
 30
0.0
 10
1.97294094488189
 20
0.3139133858267716
 30
0.0
 10
1.97294094488189
 20
0.3139133858267716
 30
0.0
 10
1.978413385826772
 20
0.3113307086614173
 30
0.0
 10
1.982551181102362
 20
0.3079133858267717
 30
0.0
 10
1.985354330708661
 20
0.3036653543307087
 30
0.0
 10
1.985354330708661
 20
0.3036653543307087
 30
0.0
 10
1.988161417322835
 20
0.2994133858267717
 30
0.0
 10
1.989551181102362
 20
0.2948031496062992
 30
0.0
 10
1.989551181102362
 20
0.2898582677165354
 30
0.0
 10
1.989551181102362
 20
0.2898582677165354
 30
0.0
 10
1.989551181102362
 20
0.2855236220472441
 30
0.0
 10
1.988496062992126
 20
0.2816377952755906
 30
0.0
 10
1.98638188976378
 20
0.2782204724409449
 30
0.0
 10
1.98638188976378
 20
0.2782204724409449
 30
0.0
 10
1.984244094488189
 20
0.2748031496062992
 30
0.0
 10
1.981106299212599
 20
0.271748031496063
 30
0.0
 10
1.97694094488189
 20
0.2690236220472441
 30
0.0
 10
1.97694094488189
 20
0.2690236220472441
 30
0.0
 10
1.973996062992126
 20
0.2671377952755906
 30
0.0
 10
1.970188976377953
 20
0.2654685039370079
 30
0.0
 10
1.965468503937008
 20
0.2640787401574803
 30
0.0
 10
1.965468503937008
 20
0.2640787401574803
 30
0.0
 10
1.970496062992126
 20
0.2633582677165354
 30
0.0
 10
1.974633858267717
 20
0.2621929133858268
 30
0.0
 10
1.977826771653543
 20
0.2605787401574803
 30
0.0
 10
1.977826771653543
 20
0.2605787401574803
 30
0.0
 10
1.983023622047244
 20
0.2579133858267717
 30
0.0
 10
1.987133858267717
 20
0.254248031496063
 30
0.0
 10
1.990106299212598
 20
0.2495787401574803
 30
0.0
 10
1.990106299212598
 20
0.2495787401574803
 30
0.0
 10
1.993106299212599
 20
0.2449133858267717
 30
0.0
 10
1.99457874015748
 20
0.2398031496062992
 30
0.0
 10
1.99457874015748
 20
0.2341929133858268
 30
0.0
 10
1.99457874015748
 20
0.2341929133858268
 30
0.0
 10
1.99457874015748
 20
0.225248031496063
 30
0.0
 10
1.990661417322835
 20
0.2173582677165354
 30
0.0
 10
1.982799212598425
 20
0.2105511811023622
 30
0.0
 10
1.982799212598425
 20
0.2105511811023622
 30
0.0
 10
1.974913385826772
 20
0.203748031496063
 30
0.0
 10
1.964744094488189
 20
0.2003582677165355
 30
0.0
 10
1.952271653543307
 20
0.2003582677165355
 30
0.0
 10
1.952271653543307
 20
0.2003582677165355
 30
0.0
 10
1.939968503937008
 20
0.2003582677165355
 30
0.0
 10
1.929606299212598
 20
0.2036377952755906
 30
0.0
 10
1.921188976377953
 20
0.2101929133858268
 30
0.0
 10
1.921188976377953
 20
0.2101929133858268
 30
0.0
 10
1.914133858267717
 20
0.2157755905511811
 30
0.0
 10
1.910606299212599
 20
0.2214133858267717
 30
0.0
 10
1.910606299212599
 20
0.2270511811023622
 30
0.0
 10
1.910606299212599
 20
0.2270511811023622
 30
0.0
 10
1.910606299212599
 20
0.2292755905511811
 30
0.0
 10
1.911330708661417
 20
0.2311377952755906
 30
0.0
 10
1.912771653543307
 20
0.2326102362204724
 30
0.0
 10
1.912771653543307
 20
0.2326102362204724
 30
0.0
 10
1.914188976377953
 20
0.2341102362204725
 30
0.0
 10
1.915996062992126
 20
0.2348582677165355
 30
0.0
 10
1.918188976377953
 20
0.2348582677165355
 30
0.0
 10
1.918188976377953
 20
0.2348582677165355
 30
0.0
 10
1.920551181102362
 20
0.2348582677165355
 30
0.0
 10
1.922606299212599
 20
0.2339409448818898
 30
0.0
 10
1.924271653543307
 20
0.2320787401574803
 30
0.0
 10
1.924271653543307
 20
0.2320787401574803
 30
0.0
 10
1.925188976377953
 20
0.2310511811023622
 30
0.0
 10
1.926271653543307
 20
0.2285826771653544
 30
0.0
 10
1.92744094488189
 20
0.2246929133858268
 30
0.0
 10
1.92744094488189
 20
0.2246929133858268
 30
0.0
 10
1.929133858267717
 20
0.2191929133858268
 30
0.0
 10
1.931996062992126
 20
0.2150236220472441
 30
0.0
 10
1.935996062992126
 20
0.2121653543307087
 30
0.0
 10
1.935996062992126
 20
0.2121653543307087
 30
0.0
 10
1.940023622047244
 20
0.2092755905511811
 30
0.0
 10
1.944996062992126
 20
0.2078307086614173
 30
0.0
 10
1.950968503937008
 20
0.2078307086614173
 30
0.0
 10
1.950968503937008
 20
0.2078307086614173
 30
0.0
 10
1.956299212598425
 20
0.2078307086614173
 30
0.0
 10
1.961051181102362
 20
0.208996062992126
 30
0.0
 10
1.965244094488189
 20
0.2113307086614173
 30
0.0
 10
1.965244094488189
 20
0.2113307086614173
 30
0.0
 10
1.969468503937008
 20
0.2136653543307087
 30
0.0
 10
1.972771653543307
 20
0.2169685039370079
 30
0.0
 10
1.975216535433071
 20
0.2212755905511811
 30
0.0
 10
1.975216535433071
 20
0.2212755905511811
 30
0.0
 10
1.977661417322835
 20
0.2255511811023622
 30
0.0
 10
1.978885826771654
 20
0.230248031496063
 30
0.0
 10
1.978885826771654
 20
0.2353307086614173
 30
0.0
 10
1.978885826771654
 20
0.2353307086614173
 30
0.0
 10
1.978885826771654
 20
0.2394685039370079
 30
0.0
 10
1.977996062992126
 20
0.2431653543307087
 30
0.0
 10
1.976244094488189
 20
0.2464409448818898
 30
0.0
 10
1.976244094488189
 20
0.2464409448818898
 30
0.0
 10
1.974468503937008
 20
0.249748031496063
 30
0.0
 10
1.971968503937008
 20
0.2525236220472441
 30
0.0
 10
1.968716535433071
 20
0.2548031496062992
 30
0.0
 10
1.968716535433071
 20
0.2548031496062992
 30
0.0
 10
1.966216535433071
 20
0.2565787401574803
 30
0.0
 10
1.963023622047244
 20
0.2578307086614173
 30
0.0
 10
1.959161417322835
 20
0.2585236220472441
 30
0.0
 10
1.959161417322835
 20
0.2585236220472441
 30
0.0
 10
1.955271653543307
 20
0.259248031496063
 30
0.0
 10
1.951771653543307
 20
0.2596062992125984
 30
0.0
 10
1.948688976377953
 20
0.2596062992125984
 30
0.0
 10
1.948688976377953
 20
0.2596062992125984
 30
0.0
 10
1.948688976377953
 20
0.2596062992125984
 30
0.0
 10
1.941133858267717
 20
0.2596062992125984
 30
0.0
 10
1.941133858267717
 20
0.2596062992125984
 30
0.0
 10
1.941133858267717
 20
0.2596062992125984
 30
0.0
 10
1.941133858267717
 20
0.2596062992125984
 30
0.0
 10
1.941133858267717
 20
0.267496062992126
 30
0.0
 10
1.941133858267717
 20
0.267496062992126
 30
0.0
 10
1.941133858267717
 20
0.267496062992126
 30
0.0
 10
1.941133858267717
 20
0.267496062992126
 30
0.0
 10
1.94594094488189
 20
0.267496062992126
 30
0.0
 10
1.94594094488189
 20
0.267496062992126
 30
0.0
 10
1.94594094488189
 20
0.267496062992126
 30
0.0
 10
1.950688976377953
 20
0.267496062992126
 30
0.0
 10
1.955244094488189
 20
0.2680511811023622
 30
0.0
 10
1.959606299212598
 20
0.2691653543307087
 30
0.0
 10
1.959606299212598
 20
0.2691653543307087
 30
0.0
 10
1.96394094488189
 20
0.2702755905511811
 30
0.0
 10
1.967413385826772
 20
0.2725511811023622
 30
0.0
 10
1.970023622047244
 20
0.2760236220472441
 30
0.0
 10
1.970023622047244
 20
0.2760236220472441
 30
0.0
 10
1.972606299212599
 20
0.279496062992126
 30
0.0
 10
1.973913385826772
 20
0.2834409448818898
 30
0.0
 10
1.973913385826772
 20
0.2878307086614174
 30
0.0
 10
1.973913385826772
 20
0.2878307086614174
 30
0.0
 10
1.973913385826772
 20
0.2916338582677165
 30
0.0
 10
1.973023622047244
 20
0.2950511811023622
 30
0.0
 10
1.971188976377953
 20
0.2980787401574803
 30
0.0
 10
1.971188976377953
 20
0.2980787401574803
 30
0.0
 10
1.969385826771654
 20
0.3011338582677166
 30
0.0
 10
1.966716535433071
 20
0.3035511811023622
 30
0.0
 10
1.963188976377953
 20
0.3053307086614173
 30
0.0
 10
1.963188976377953
 20
0.3053307086614173
 30
0.0
 10
1.959661417322835
 20
0.3071062992125984
 30
0.0
 10
1.955578740157481
 20
0.3080236220472441
 30
0.0
 10
1.950968503937008
 20
0.3080236220472441
 30
0.0
 10
1.950968503937008
 20
0.3080236220472441
 30
0.0
 10
1.946468503937008
 20
0.3080236220472441
 30
0.0
 10
1.942326771653543
 20
0.3070787401574803
 30
0.0
 10
1.938551181102362
 20
0.305248031496063
 30
0.0
 10
1.938551181102362
 20
0.305248031496063
 30
0.0
 10
1.934799212598425
 20
0.3034133858267717
 30
0.0
 10
1.931771653543307
 20
0.3009409448818898
 30
0.0
 10
1.929496062992126
 20
0.2978307086614173
 30
0.0
 10
1.929496062992126
 20
0.2978307086614173
 30
0.0
 10
1.927216535433071
 20
0.294748031496063
 30
0.0
 10
1.92557874015748
 20
0.2906338582677165
 30
0.0
 10
1.924606299212599
 20
0.2854685039370079
 30
0.0
  0
SPLINE
  5
A0
330
1F
100
AcDbEntity
  8
P1-LAYER_1
 62
   250
100
AcDbSpline
210
0.0
220
0.0
230
1.0
 70
    11
 71
     3
 72
    20
 73
    16
 74
     0
 42
0.0000000001
 43
0.0000000001
 40
0.0
 40
0.0
 40
0.0
 40
0.0
 40
0.25
 40
0.25
 40
0.25
 40
0.25
 40
0.5
 40
0.5
 40
0.5
 40
0.5
 40
0.75
 40
0.75
 40
0.75
 40
0.75
 40
1.0
 40
1.0
 40
1.0
 40
1.0
 10
2.087385826771654
 20
0.3216929133858268
 30
0.0
 10
2.087385826771654
 20
0.3216929133858268
 30
0.0
 10
2.031803149606299
 20
0.165996062992126
 30
0.0
 10
2.031803149606299
 20
0.165996062992126
 30
0.0
 10
2.031803149606299
 20
0.165996062992126
 30
0.0
 10
2.031803149606299
 20
0.165996062992126
 30
0.0
 10
2.019748031496063
 20
0.165996062992126
 30
0.0
 10
2.019748031496063
 20
0.165996062992126
 30
0.0
 10
2.019748031496063
 20
0.165996062992126
 30
0.0
 10
2.019748031496063
 20
0.165996062992126
 30
0.0
 10
2.074996062992126
 20
0.3216929133858268
 30
0.0
 10
2.074996062992126
 20
0.3216929133858268
 30
0.0
 10
2.074996062992126
 20
0.3216929133858268
 30
0.0
 10
2.074996062992126
 20
0.3216929133858268
 30
0.0
 10
2.087385826771654
 20
0.3216929133858268
 30
0.0
 10
2.087385826771654
 20
0.3216929133858268
 30
0.0
  0
SPLINE
  5
A1
330
1F
100
AcDbEntity
  8
P1-LAYER_1
 62
   250
100
AcDbSpline
210
0.0
220
0.0
230
1.0
 70
    11
 71
     3
 72
    48
 73
    44
 74
     0
 42
0.0000000001
 43
0.0000000001
 40
0.0
 40
0.0
 40
0.0
 40
0.0
 40
0.0909090909090909
 40
0.0909090909090909
 40
0.0909090909090909
 40
0.0909090909090909
 40
0.1818181818181818
 40
0.1818181818181818
 40
0.1818181818181818
 40
0.1818181818181818
 40
0.2727272727272727
 40
0.2727272727272727
 40
0.2727272727272727
 40
0.2727272727272727
 40
0.3636363636363637
 40
0.3636363636363637
 40
0.3636363636363637
 40
0.3636363636363637
 40
0.4545454545454546
 40
0.4545454545454546
 40
0.4545454545454546
 40
0.4545454545454546
 40
0.5454545454545455
 40
0.5454545454545455
 40
0.5454545454545455
 40
0.5454545454545455
 40
0.6363636363636365
 40
0.6363636363636365
 40
0.6363636363636365
 40
0.6363636363636365
 40
0.7272727272727274
 40
0.7272727272727274
 40
0.7272727272727274
 40
0.7272727272727274
 40
0.8181818181818183
 40
0.8181818181818183
 40
0.8181818181818183
 40
0.8181818181818183
 40
0.9090909090909093
 40
0.9090909090909093
 40
0.9090909090909093
 40
0.9090909090909093
 40
1.0
 40
1.0
 40
1.0
 40
1.0
 10
2.166330708661417
 20
0.3158307086614173
 30
0.0
 10
2.166330708661417
 20
0.3158307086614173
 30
0.0
 10
2.180078740157481
 20
0.3158307086614173
 30
0.0
 10
2.180078740157481
 20
0.3158307086614173
 30
0.0
 10
2.180078740157481
 20
0.3158307086614173
 30
0.0
 10
2.180078740157481
 20
0.3158307086614173
 30
0.0
 10
2.180078740157481
 20
0.2498307086614173
 30
0.0
 10
2.180078740157481
 20
0.2498307086614173
 30
0.0
 10
2.180078740157481
 20
0.2498307086614173
 30
0.0
 10
2.180078740157481
 20
0.2498307086614173
 30
0.0
 10
2.201413385826772
 20
0.2498307086614173
 30
0.0
 10
2.201413385826772
 20
0.2498307086614173
 30
0.0
 10
2.201413385826772
 20
0.2498307086614173
 30
0.0
 10
2.201413385826772
 20
0.2498307086614173
 30
0.0
 10
2.201413385826772
 20
0.2396653543307087
 30
0.0
 10
2.201413385826772
 20
0.2396653543307087
 30
0.0
 10
2.201413385826772
 20
0.2396653543307087
 30
0.0
 10
2.201413385826772
 20
0.2396653543307087
 30
0.0
 10
2.180078740157481
 20
0.2396653543307087
 30
0.0
 10
2.180078740157481
 20
0.2396653543307087
 30
0.0
 10
2.180078740157481
 20
0.2396653543307087
 30
0.0
 10
2.180078740157481
 20
0.2396653543307087
 30
0.0
 10
2.180078740157481
 20
0.2023031496062992
 30
0.0
 10
2.180078740157481
 20
0.2023031496062992
 30
0.0
 10
2.180078740157481
 20
0.2023031496062992
 30
0.0
 10
2.180078740157481
 20
0.2023031496062992
 30
0.0
 10
2.166330708661417
 20
0.2023031496062992
 30
0.0
 10
2.166330708661417
 20
0.2023031496062992
 30
0.0
 10
2.166330708661417
 20
0.2023031496062992
 30
0.0
 10
2.166330708661417
 20
0.2023031496062992
 30
0.0
 10
2.166330708661417
 20
0.2396653543307087
 30
0.0
 10
2.166330708661417
 20
0.2396653543307087
 30
0.0
 10
2.166330708661417
 20
0.2396653543307087
 30
0.0
 10
2.166330708661417
 20
0.2396653543307087
 30
0.0
 10
2.112858267716536
 20
0.2396653543307087
 30
0.0
 10
2.112858267716536
 20
0.2396653543307087
 30
0.0
 10
2.112858267716536
 20
0.2396653543307087
 30
0.0
 10
2.112858267716536
 20
0.2396653543307087
 30
0.0
 10
2.112858267716536
 20
0.2539685039370079
 30
0.0
 10
2.112858267716536
 20
0.2539685039370079
 30
0.0
 10
2.112858267716536
 20
0.2539685039370079
 30
0.0
 10
2.112858267716536
 20
0.2539685039370079
 30
0.0
 10
2.166330708661417
 20
0.3158307086614173
 30
0.0
 10
2.166330708661417
 20
0.3158307086614173
 30
0.0
  0
SPLINE
  5
A2
330
1F
100
AcDbEntity
  8
P1-LAYER_1
 62
   250
100
AcDbSpline
210
0.0
220
0.0
230
1.0
 70
    11
 71
     3
 72
    16
 73
    12
 74
     0
 42
0.0000000001
 43
0.0000000001
 40
0.0
 40
0.0
 40
0.0
 40
0.0
 40
0.3333333333333333
 40
0.3333333333333333
 40
0.3333333333333333
 40
0.3333333333333333
 40
0.6666666666666666
 40
0.6666666666666666
 40
0.6666666666666666
 40
0.6666666666666666
 40
1.0
 40
1.0
 40
1.0
 40
1.0
 10
2.166330708661417
 20
0.2498307086614173
 30
0.0
 10
2.166330708661417
 20
0.2498307086614173
 30
0.0
 10
2.166330708661417
 20
0.3032204724409449
 30
0.0
 10
2.166330708661417
 20
0.3032204724409449
 30
0.0
 10
2.166330708661417
 20
0.3032204724409449
 30
0.0
 10
2.166330708661417
 20
0.3032204724409449
 30
0.0
 10
2.120275590551181
 20
0.2498307086614173
 30
0.0
 10
2.120275590551181
 20
0.2498307086614173
 30
0.0
 10
2.120275590551181
 20
0.2498307086614173
 30
0.0
 10
2.120275590551181
 20
0.2498307086614173
 30
0.0
 10
2.166330708661417
 20
0.2498307086614173
 30
0.0
 10
2.166330708661417
 20
0.2498307086614173
 30
0.0
  0
SPLINE
  5
A3
330
1F
100
AcDbEntity
  8
P1-LAYER_1
 62
   250
100
AcDbSpline
210
0.0
220
0.0
230
1.0
 70
    11
 71
     3
 72
    60
 73
    56
 74
     0
 42
0.0000000001
 43
0.0000000001
 40
0.0
 40
0.0
 40
0.0
 40
0.0
 40
0.0714285714285714
 40
0.0714285714285714
 40
0.0714285714285714
 40
0.0714285714285714
 40
0.1428571428571429
 40
0.1428571428571429
 40
0.1428571428571429
 40
0.1428571428571429
 40
0.2142857142857143
 40
0.2142857142857143
 40
0.2142857142857143
 40
0.2142857142857143
 40
0.2857142857142857
 40
0.2857142857142857
 40
0.2857142857142857
 40
0.2857142857142857
 40
0.3571428571428571
 40
0.3571428571428571
 40
0.3571428571428571
 40
0.3571428571428571
 40
0.4285714285714285
 40
0.4285714285714285
 40
0.4285714285714285
 40
0.4285714285714285
 40
0.4999999999999999
 40
0.4999999999999999
 40
0.4999999999999999
 40
0.4999999999999999
 40
0.5714285714285713
 40
0.5714285714285713
 40
0.5714285714285713
 40
0.5714285714285713
 40
0.6428571428571427
 40
0.6428571428571427
 40
0.6428571428571427
 40
0.6428571428571427
 40
0.7142857142857141
 40
0.7142857142857141
 40
0.7142857142857141
 40
0.7142857142857141
 40
0.7857142857142855
 40
0.7857142857142855
 40
0.7857142857142855
 40
0.7857142857142855
 40
0.8571428571428569
 40
0.8571428571428569
 40
0.8571428571428569
 40
0.8571428571428569
 40
0.9285714285714283
 40
0.9285714285714283
 40
0.9285714285714283
 40
0.9285714285714283
 40
1.0
 40
1.0
 40
1.0
 40
1.0
 10
2.219385826771654
 20
0.273748031496063
 30
0.0
 10
2.219385826771654
 20
0.273748031496063
 30
0.0
 10
2.214996062992126
 20
0.2791377952755906
 30
0.0
 10
2.214996062992126
 20
0.2791377952755906
 30
0.0
 10
2.214996062992126
 20
0.2791377952755906
 30
0.0
 10
2.226110236220472
 20
0.2881929133858268
 30
0.0
 10
2.231692913385827
 20
0.295748031496063
 30
0.0
 10
2.231692913385827
 20
0.3018307086614173
 30
0.0
 10
2.231692913385827
 20
0.3018307086614173
 30
0.0
 10
2.231692913385827
 20
0.3025236220472441
 30
0.0
 10
2.231637795275591
 20
0.3034133858267717
 30
0.0
 10
2.231523622047244
 20
0.3044409448818898
 30
0.0
 10
2.231523622047244
 20
0.3044409448818898
 30
0.0
 10
2.230610236220473
 20
0.3040511811023622
 30
0.0
 10
2.229692913385827
 20
0.303748031496063
 30
0.0
 10
2.228830708661417
 20
0.3035511811023622
 30
0.0
 10
2.228830708661417
 20
0.3035511811023622
 30
0.0
 10
2.227968503937008
 20
0.3033307086614173
 30
0.0
 10
2.227165354330709
 20
0.3032204724409449
 30
0.0
 10
2.226385826771653
 20
0.3032204724409449
 30
0.0
 10
2.226385826771653
 20
0.3032204724409449
 30
0.0
 10
2.223775590551181
 20
0.3032204724409449
 30
0.0
 10
2.221692913385827
 20
0.3040511811023622
 30
0.0
 10
2.220137795275591
 20
0.305748031496063
 30
0.0
 10
2.220137795275591
 20
0.305748031496063
 30
0.0
 10
2.218551181102362
 20
0.3074133858267717
 30
0.0
 10
2.217775590551181
 20
0.3095511811023622
 30
0.0
 10
2.217775590551181
 20
0.3121653543307087
 30
0.0
 10
2.217775590551181
 20
0.3121653543307087
 30
0.0
 10
2.217775590551181
 20
0.3147204724409449
 30
0.0
 10
2.218720472440945
 20
0.3169409448818898
 30
0.0
 10
2.220610236220473
 20
0.3188307086614173
 30
0.0
 10
2.220610236220473
 20
0.3188307086614173
 30
0.0
 10
2.222523622047244
 20
0.320748031496063
 30
0.0
 10
2.224803149606299
 20
0.3216929133858268
 30
0.0
 10
2.22744094488189
 20
0.3216929133858268
 30
0.0
 10
2.22744094488189
 20
0.3216929133858268
 30
0.0
 10
2.231137795275591
 20
0.3216929133858268
 30
0.0
 10
2.2343031496063
 20
0.3202204724409449
 30
0.0
 10
2.23694094488189
 20
0.317248031496063
 30
0.0
 10
2.23694094488189
 20
0.317248031496063
 30
0.0
 10
2.239551181102363
 20
0.3143031496062992
 30
0.0
 10
2.240885826771654
 20
0.310496062992126
 30
0.0
 10
2.240885826771654
 20
0.3058307086614173
 30
0.0
 10
2.240885826771654
 20
0.3058307086614173
 30
0.0
 10
2.240885826771654
 20
0.3027755905511811
 30
0.0
 10
2.240248031496063
 20
0.2995787401574803
 30
0.0
 10
2.238996062992126
 20
0.296248031496063
 30
0.0
 10
2.238996062992126
 20
0.296248031496063
 30
0.0
 10
2.237748031496063
 20
0.2929133858267717
 30
0.0
 10
2.23594094488189
 20
0.2898307086614174
 30
0.0
 10
2.233551181102362
 20
0.2869685039370079
 30
0.0
 10
2.233551181102362
 20
0.2869685039370079
 30
0.0
 10
2.231165354330709
 20
0.2841377952755906
 30
0.0
 10
2.22644094488189
 20
0.2797204724409449
 30
0.0
 10
2.219385826771654
 20
0.273748031496063
 30
0.0
  0
SPLINE
  5
A4
330
1F
100
AcDbEntity
  8
P1-LAYER_1
 62
   250
100
AcDbSpline
210
0.0
220
0.0
230
1.0
 70
    11
 71
     3
 72
    60
 73
    56
 74
     0
 42
0.0000000001
 43
0.0000000001
 40
0.0
 40
0.0
 40
0.0
 40
0.0
 40
0.0714285714285714
 40
0.0714285714285714
 40
0.0714285714285714
 40
0.0714285714285714
 40
0.1428571428571429
 40
0.1428571428571429
 40
0.1428571428571429
 40
0.1428571428571429
 40
0.2142857142857143
 40
0.2142857142857143
 40
0.2142857142857143
 40
0.2142857142857143
 40
0.2857142857142857
 40
0.2857142857142857
 40
0.2857142857142857
 40
0.2857142857142857
 40
0.3571428571428571
 40
0.3571428571428571
 40
0.3571428571428571
 40
0.3571428571428571
 40
0.4285714285714285
 40
0.4285714285714285
 40
0.4285714285714285
 40
0.4285714285714285
 40
0.4999999999999999
 40
0.4999999999999999
 40
0.4999999999999999
 40
0.4999999999999999
 40
0.5714285714285713
 40
0.5714285714285713
 40
0.5714285714285713
 40
0.5714285714285713
 40
0.6428571428571427
 40
0.6428571428571427
 40
0.6428571428571427
 40
0.6428571428571427
 40
0.7142857142857141
 40
0.7142857142857141
 40
0.7142857142857141
 40
0.7142857142857141
 40
0.7857142857142855
 40
0.7857142857142855
 40
0.7857142857142855
 40
0.7857142857142855
 40
0.8571428571428569
 40
0.8571428571428569
 40
0.8571428571428569
 40
0.8571428571428569
 40
0.9285714285714283
 40
0.9285714285714283
 40
0.9285714285714283
 40
0.9285714285714283
 40
1.0
 40
1.0
 40
1.0
 40
1.0
 10
2.24844094488189
 20
0.273748031496063
 30
0.0
 10
2.24844094488189
 20
0.273748031496063
 30
0.0
 10
2.244051181102362
 20
0.2791377952755906
 30
0.0
 10
2.244051181102362
 20
0.2791377952755906
 30
0.0
 10
2.244051181102362
 20
0.2791377952755906
 30
0.0
 10
2.255165354330709
 20
0.2881929133858268
 30
0.0
 10
2.260748031496063
 20
0.295748031496063
 30
0.0
 10
2.260748031496063
 20
0.3018307086614173
 30
0.0
 10
2.260748031496063
 20
0.3018307086614173
 30
0.0
 10
2.260748031496063
 20
0.3025236220472441
 30
0.0
 10
2.260692913385827
 20
0.3034133858267717
 30
0.0
 10
2.26057874015748
 20
0.3044409448818898
 30
0.0
 10
2.26057874015748
 20
0.3044409448818898
 30
0.0
 10
2.259665354330709
 20
0.3040511811023622
 30
0.0
 10
2.258748031496063
 20
0.303748031496063
 30
0.0
 10
2.257885826771654
 20
0.3035511811023622
 30
0.0
 10
2.257885826771654
 20
0.3035511811023622
 30
0.0
 10
2.257023622047244
 20
0.3033307086614173
 30
0.0
 10
2.256192913385827
 20
0.3032204724409449
 30
0.0
 10
2.255358267716535
 20
0.3032204724409449
 30
0.0
 10
2.255358267716535
 20
0.3032204724409449
 30
0.0
 10
2.2528031496063
 20
0.3032204724409449
 30
0.0
 10
2.250748031496063
 20
0.3040511811023622
 30
0.0
 10
2.249192913385827
 20
0.305748031496063
 30
0.0
 10
2.249192913385827
 20
0.305748031496063
 30
0.0
 10
2.247610236220472
 20
0.3074133858267717
 30
0.0
 10
2.246830708661417
 20
0.3095511811023622
 30
0.0
 10
2.246830708661417
 20
0.3121653543307087
 30
0.0
 10
2.246830708661417
 20
0.3121653543307087
 30
0.0
 10
2.246830708661417
 20
0.3147204724409449
 30
0.0
 10
2.247775590551181
 20
0.3169409448818898
 30
0.0
 10
2.249665354330709
 20
0.3188307086614173
 30
0.0
 10
2.249665354330709
 20
0.3188307086614173
 30
0.0
 10
2.251551181102362
 20
0.320748031496063
 30
0.0
 10
2.253858267716535
 20
0.3216929133858268
 30
0.0
 10
2.256496062992126
 20
0.3216929133858268
 30
0.0
 10
2.256496062992126
 20
0.3216929133858268
 30
0.0
 10
2.260192913385827
 20
0.3216929133858268
 30
0.0
 10
2.263358267716535
 20
0.3202204724409449
 30
0.0
 10
2.265996062992126
 20
0.317248031496063
 30
0.0
 10
2.265996062992126
 20
0.317248031496063
 30
0.0
 10
2.268606299212598
 20
0.3143031496062992
 30
0.0
 10
2.26994094488189
 20
0.310496062992126
 30
0.0
 10
2.26994094488189
 20
0.3058307086614173
 30
0.0
 10
2.26994094488189
 20
0.3058307086614173
 30
0.0
 10
2.26994094488189
 20
0.3027755905511811
 30
0.0
 10
2.269303149606299
 20
0.2995787401574803
 30
0.0
 10
2.268051181102362
 20
0.296248031496063
 30
0.0
 10
2.268051181102362
 20
0.296248031496063
 30
0.0
 10
2.266803149606299
 20
0.2929133858267717
 30
0.0
 10
2.264996062992126
 20
0.2898307086614174
 30
0.0
 10
2.262610236220473
 20
0.2869685039370079
 30
0.0
 10
2.262610236220473
 20
0.2869685039370079
 30
0.0
 10
2.260220472440945
 20
0.2841377952755906
 30
0.0
 10
2.255496062992126
 20
0.2797204724409449
 30
0.0
 10
2.24844094488189
 20
0.273748031496063
 30
0.0
  0
SPLINE
  5
A5
330
1F
100
AcDbEntity
  8
P1-LAYER_1
 62
   250
100
AcDbSpline
210
0.0
220
0.0
230
1.0
 70
    11
 71
     3
 72
   204
 73
   200
 74
     0
 42
0.0000000001
 43
0.0000000001
 40
0.0
 40
0.0
 40
0.0
 40
0.0
 40
0.02
 40
0.02
 40
0.02
 40
0.02
 40
0.04
 40
0.04
 40
0.04
 40
0.04
 40
0.06
 40
0.06
 40
0.06
 40
0.06
 40
0.08
 40
0.08
 40
0.08
 40
0.08
 40
0.1
 40
0.1
 40
0.1
 40
0.1
 40
0.12
 40
0.12
 40
0.12
 40
0.12
 40
0.14
 40
0.14
 40
0.14
 40
0.14
 40
0.16
 40
0.16
 40
0.16
 40
0.16
 40
0.18
 40
0.18
 40
0.18
 40
0.18
 40
0.2
 40
0.2
 40
0.2
 40
0.2
 40
0.22
 40
0.22
 40
0.22
 40
0.22
 40
0.24
 40
0.24
 40
0.24
 40
0.24
 40
0.26
 40
0.26
 40
0.26
 40
0.26
 40
0.28
 40
0.28
 40
0.28
 40
0.28
 40
0.3
 40
0.3
 40
0.3
 40
0.3
 40
0.32
 40
0.32
 40
0.32
 40
0.32
 40
0.34
 40
0.34
 40
0.34
 40
0.34
 40
0.36
 40
0.36
 40
0.36
 40
0.36
 40
0.3800000000000001
 40
0.3800000000000001
 40
0.3800000000000001
 40
0.3800000000000001
 40
0.4000000000000001
 40
0.4000000000000001
 40
0.4000000000000001
 40
0.4000000000000001
 40
0.4200000000000001
 40
0.4200000000000001
 40
0.4200000000000001
 40
0.4200000000000001
 40
0.4400000000000001
 40
0.4400000000000001
 40
0.4400000000000001
 40
0.4400000000000001
 40
0.4600000000000001
 40
0.4600000000000001
 40
0.4600000000000001
 40
0.4600000000000001
 40
0.4800000000000002
 40
0.4800000000000002
 40
0.4800000000000002
 40
0.4800000000000002
 40
0.5000000000000001
 40
0.5000000000000001
 40
0.5000000000000001
 40
0.5000000000000001
 40
0.5200000000000001
 40
0.5200000000000001
 40
0.5200000000000001
 40
0.5200000000000001
 40
0.5400000000000002
 40
0.5400000000000002
 40
0.5400000000000002
 40
0.5400000000000002
 40
0.5600000000000002
 40
0.5600000000000002
 40
0.5600000000000002
 40
0.5600000000000002
 40
0.5800000000000002
 40
0.5800000000000002
 40
0.5800000000000002
 40
0.5800000000000002
 40
0.6000000000000002
 40
0.6000000000000002
 40
0.6000000000000002
 40
0.6000000000000002
 40
0.6200000000000002
 40
0.6200000000000002
 40
0.6200000000000002
 40
0.6200000000000002
 40
0.6400000000000002
 40
0.6400000000000002
 40
0.6400000000000002
 40
0.6400000000000002
 40
0.6600000000000003
 40
0.6600000000000003
 40
0.6600000000000003
 40
0.6600000000000003
 40
0.6800000000000003
 40
0.6800000000000003
 40
0.6800000000000003
 40
0.6800000000000003
 40
0.7000000000000003
 40
0.7000000000000003
 40
0.7000000000000003
 40
0.7000000000000003
 40
0.7200000000000003
 40
0.7200000000000003
 40
0.7200000000000003
 40
0.7200000000000003
 40
0.7400000000000003
 40
0.7400000000000003
 40
0.7400000000000003
 40
0.7400000000000003
 40
0.7600000000000003
 40
0.7600000000000003
 40
0.7600000000000003
 40
0.7600000000000003
 40
0.7800000000000004
 40
0.7800000000000004
 40
0.7800000000000004
 40
0.7800000000000004
 40
0.8000000000000004
 40
0.8000000000000004
 40
0.8000000000000004
 40
0.8000000000000004
 40
0.8200000000000004
 40
0.8200000000000004
 40
0.8200000000000004
 40
0.8200000000000004
 40
0.8400000000000004
 40
0.8400000000000004
 40
0.8400000000000004
 40
0.8400000000000004
 40
0.8600000000000004
 40
0.8600000000000004
 40
0.8600000000000004
 40
0.8600000000000004
 40
0.8800000000000005
 40
0.8800000000000005
 40
0.8800000000000005
 40
0.8800000000000005
 40
0.9000000000000005
 40
0.9000000000000005
 40
0.9000000000000005
 40
0.9000000000000005
 40
0.9200000000000005
 40
0.9200000000000005
 40
0.9200000000000005
 40
0.9200000000000005
 40
0.9400000000000005
 40
0.9400000000000005
 40
0.9400000000000005
 40
0.9400000000000005
 40
0.9600000000000005
 40
0.9600000000000005
 40
0.9600000000000005
 40
0.9600000000000005
 40
0.9800000000000005
 40
0.9800000000000005
 40
0.9800000000000005
 40
0.9800000000000005
 40
1.0
 40
1.0
 40
1.0
 40
1.0
 10
2.332248031496063
 20
0.2808307086614174
 30
0.0
 10
2.332248031496063
 20
0.2808307086614174
 30
0.0
 10
2.373192913385827
 20
0.2808307086614174
 30
0.0
 10
2.373192913385827
 20
0.2808307086614174
 30
0.0
 10
2.373192913385827
 20
0.2808307086614174
 30
0.0
 10
2.373192913385827
 20
0.2808307086614174
 30
0.0
 10
2.373192913385827
 20
0.273996062992126
 30
0.0
 10
2.373192913385827
 20
0.273996062992126
 30
0.0
 10
2.373192913385827
 20
0.273996062992126
 30
0.0
 10
2.373192913385827
 20
0.273996062992126
 30
0.0
 10
2.370358267716536
 20
0.273996062992126
 30
0.0
 10
2.370358267716536
 20
0.273996062992126
 30
0.0
 10
2.370358267716536
 20
0.273996062992126
 30
0.0
 10
2.368720472440945
 20
0.273996062992126
 30
0.0
 10
2.367220472440945
 20
0.2738031496062992
 30
0.0
 10
2.365858267716535
 20
0.2734409448818898
 30
0.0
 10
2.365858267716535
 20
0.2734409448818898
 30
0.0
 10
2.365055118110236
 20
0.2732204724409449
 30
0.0
 10
2.364385826771654
 20
0.2728031496062992
 30
0.0
 10
2.363885826771654
 20
0.2721653543307087
 30
0.0
 10
2.363885826771654
 20
0.2721653543307087
 30
0.0
 10
2.363358267716536
 20
0.2715511811023622
 30
0.0
 10
2.363110236220472
 20
0.2709685039370079
 30
0.0
 10
2.363110236220472
 20
0.2704133858267717
 30
0.0
 10
2.363110236220472
 20
0.2704133858267717
 30
0.0
 10
2.363110236220472
 20
0.2691653543307087
 30
0.0
 10
2.364137795275591
 20
0.2673031496062992
 30
0.0
 10
2.366192913385827
 20
0.2648031496062993
 30
0.0
 10
2.366192913385827
 20
0.2648031496062993
 30
0.0
 10
2.366192913385827
 20
0.2648031496062993
 30
0.0
 10
2.377830708661417
 20
0.2501653543307087
 30
0.0
 10
2.377830708661417
 20
0.2501653543307087
 30
0.0
 10
2.377830708661417
 20
0.2501653543307087
 30
0.0
 10
2.377830708661417
 20
0.2501653543307087
 30
0.0
 10
2.391413385826772
 20
0.2648031496062993
 30
0.0
 10
2.391413385826772
 20
0.2648031496062993
 30
0.0
 10
2.391413385826772
 20
0.2648031496062993
 30
0.0
 10
2.393913385826772
 20
0.2675236220472441
 30
0.0
 10
2.395165354330709
 20
0.2695511811023622
 30
0.0
 10
2.395165354330709
 20
0.2709133858267717
 30
0.0
 10
2.395165354330709
 20
0.2709133858267717
 30
0.0
 10
2.395165354330709
 20
0.2718858267716536
 30
0.0
 10
2.394720472440945
 20
0.2726377952755906
 30
0.0
 10
2.393858267716535
 20
0.2731929133858268
 30
0.0
 10
2.393858267716535
 20
0.2731929133858268
 30
0.0
 10
2.392996062992126
 20
0.2737204724409449
 30
0.0
 10
2.391137795275591
 20
0.273996062992126
 30
0.0
 10
2.388248031496063
 20
0.273996062992126
 30
0.0
 10
2.388248031496063
 20
0.273996062992126
 30
0.0
 10
2.388248031496063
 20
0.273996062992126
 30
0.0
 10
2.385165354330709
 20
0.273996062992126
 30
0.0
 10
2.385165354330709
 20
0.273996062992126
 30
0.0
 10
2.385165354330709
 20
0.273996062992126
 30
0.0
 10
2.385165354330709
 20
0.273996062992126
 30
0.0
 10
2.385165354330709
 20
0.2808307086614174
 30
0.0
 10
2.385165354330709
 20
0.2808307086614174
 30
0.0
 10
2.385165354330709
 20
0.2808307086614174
 30
0.0
 10
2.385165354330709
 20
0.2808307086614174
 30
0.0
 10
2.419913385826772
 20
0.2808307086614174
 30
0.0
 10
2.419913385826772
 20
0.2808307086614174
 30
0.0
 10
2.419913385826772
 20
0.2808307086614174
 30
0.0
 10
2.419913385826772
 20
0.2808307086614174
 30
0.0
 10
2.419913385826772
 20
0.273996062992126
 30
0.0
 10
2.419913385826772
 20
0.273996062992126
 30
0.0
 10
2.419913385826772
 20
0.273996062992126
 30
0.0
 10
2.416496062992126
 20
0.2738307086614173
 30
0.0
 10
2.413551181102362
 20
0.2731377952755906
 30
0.0
 10
2.411082677165354
 20
0.2718858267716536
 30
0.0
 10
2.411082677165354
 20
0.2718858267716536
 30
0.0
 10
2.408610236220472
 20
0.2706377952755906
 30
0.0
 10
2.405692913385827
 20
0.2682755905511811
 30
0.0
 10
2.402330708661418
 20
0.2648031496062993
 30
0.0
 10
2.402330708661418
 20
0.2648031496062993
 30
0.0
 10
2.402330708661418
 20
0.2648031496062993
 30
0.0
 10
2.383692913385827
 20
0.2454409448818898
 30
0.0
 10
2.383692913385827
 20
0.2454409448818898
 30
0.0
 10
2.383692913385827
 20
0.2454409448818898
 30
0.0
 10
2.383692913385827
 20
0.2454409448818898
 30
0.0
 10
2.406885826771654
 20
0.218996062992126
 30
0.0
 10
2.406885826771654
 20
0.218996062992126
 30
0.0
 10
2.406885826771654
 20
0.218996062992126
 30
0.0
 10
2.406885826771654
 20
0.218996062992126
 30
0.0
 10
2.407775590551181
 20
0.2178582677165354
 30
0.0
 10
2.407775590551181
 20
0.2178582677165354
 30
0.0
 10
2.407775590551181
 20
0.2178582677165354
 30
0.0
 10
2.410051181102362
 20
0.2149133858267717
 30
0.0
 10
2.412610236220472
 20
0.2125511811023622
 30
0.0
 10
2.41544094488189
 20
0.2107755905511811
 30
0.0
 10
2.41544094488189
 20
0.2107755905511811
 30
0.0
 10
2.416996062992126
 20
0.209748031496063
 30
0.0
 10
2.41944094488189
 20
0.2091929133858268
 30
0.0
 10
2.422748031496063
 20
0.2091377952755906
 30
0.0
 10
2.422748031496063
 20
0.2091377952755906
 30
0.0
 10
2.422748031496063
 20
0.2091377952755906
 30
0.0
 10
2.422748031496063
 20
0.2023031496062992
 30
0.0
 10
2.422748031496063
 20
0.2023031496062992
 30
0.0
 10
2.422748031496063
 20
0.2023031496062992
 30
0.0
 10
2.422748031496063
 20
0.2023031496062992
 30
0.0
 10
2.382803149606299
 20
0.2023031496062992
 30
0.0
 10
2.382803149606299
 20
0.2023031496062992
 30
0.0
 10
2.382803149606299
 20
0.2023031496062992
 30
0.0
 10
2.382803149606299
 20
0.2023031496062992
 30
0.0
 10
2.382803149606299
 20
0.2091377952755906
 30
0.0
 10
2.382803149606299
 20
0.2091377952755906
 30
0.0
 10
2.382803149606299
 20
0.2091377952755906
 30
0.0
 10
2.382803149606299
 20
0.2091377952755906
 30
0.0
 10
2.386220472440945
 20
0.2091377952755906
 30
0.0
 10
2.386220472440945
 20
0.2091377952755906
 30
0.0
 10
2.386220472440945
 20
0.2091377952755906
 30
0.0
 10
2.388830708661418
 20
0.2091377952755906
 30
0.0
 10
2.390468503937008
 20
0.2093031496062992
 30
0.0
 10
2.391192913385827
 20
0.2096377952755906
 30
0.0
 10
2.391192913385827
 20
0.2096377952755906
 30
0.0
 10
2.392358267716535
 20
0.2101653543307087
 30
0.0
 10
2.392968503937008
 20
0.2110826771653543
 30
0.0
 10
2.392968503937008
 20
0.2123858267716536
 30
0.0
 10
2.392968503937008
 20
0.2123858267716536
 30
0.0
 10
2.392968503937008
 20
0.2135826771653543
 30
0.0
 10
2.391665354330709
 20
0.2157755905511811
 30
0.0
 10
2.389051181102362
 20
0.218996062992126
 30
0.0
 10
2.389051181102362
 20
0.218996062992126
 30
0.0
 10
2.389051181102362
 20
0.218996062992126
 30
0.0
 10
2.374248031496063
 20
0.2371377952755906
 30
0.0
 10
2.374248031496063
 20
0.2371377952755906
 30
0.0
 10
2.374248031496063
 20
0.2371377952755906
 30
0.0
 10
2.374248031496063
 20
0.2371377952755906
 30
0.0
 10
2.357720472440945
 20
0.218996062992126
 30
0.0
 10
2.357720472440945
 20
0.218996062992126
 30
0.0
 10
2.357720472440945
 20
0.218996062992126
 30
0.0
 10
2.357720472440945
 20
0.218996062992126
 30
0.0
 10
2.356110236220473
 20
0.2170236220472441
 30
0.0
 10
2.356110236220473
 20
0.2170236220472441
 30
0.0
 10
2.356110236220473
 20
0.2170236220472441
 30
0.0
 10
2.356110236220473
 20
0.2170236220472441
 30
0.0
 10
2.355220472440945
 20
0.2160511811023622
 30
0.0
 10
2.355220472440945
 20
0.2160511811023622
 30
0.0
 10
2.355220472440945
 20
0.2160511811023622
 30
0.0
 10
2.353858267716535
 20
0.2145826771653543
 30
0.0
 10
2.353165354330709
 20
0.2133031496062992
 30
0.0
 10
2.353165354330709
 20
0.2121653543307087
 30
0.0
 10
2.353165354330709
 20
0.2121653543307087
 30
0.0
 10
2.353165354330709
 20
0.2111102362204725
 30
0.0
 10
2.353582677165354
 20
0.2103582677165354
 30
0.0
 10
2.35444094488189
 20
0.2098582677165354
 30
0.0
 10
2.35444094488189
 20
0.2098582677165354
 30
0.0
 10
2.355275590551181
 20
0.2093858267716535
 30
0.0
 10
2.357165354330709
 20
0.2091377952755906
 30
0.0
 10
2.360082677165354
 20
0.2091377952755906
 30
0.0
 10
2.360082677165354
 20
0.2091377952755906
 30
0.0
 10
2.360082677165354
 20
0.2091377952755906
 30
0.0
 10
2.363358267716536
 20
0.2091377952755906
 30
0.0
 10
2.363358267716536
 20
0.2091377952755906
 30
0.0
 10
2.363358267716536
 20
0.2091377952755906
 30
0.0
 10
2.363358267716536
 20
0.2091377952755906
 30
0.0
 10
2.363358267716536
 20
0.2023031496062992
 30
0.0
 10
2.363358267716536
 20
0.2023031496062992
 30
0.0
 10
2.363358267716536
 20
0.2023031496062992
 30
0.0
 10
2.363358267716536
 20
0.2023031496062992
 30
0.0
 10
2.329082677165355
 20
0.2023031496062992
 30
0.0
 10
2.329082677165355
 20
0.2023031496062992
 30
0.0
 10
2.329082677165355
 20
0.2023031496062992
 30
0.0
 10
2.329082677165355
 20
0.2023031496062992
 30
0.0
 10
2.329082677165355
 20
0.2091377952755906
 30
0.0
 10
2.329082677165355
 20
0.2091377952755906
 30
0.0
 10
2.329082677165355
 20
0.2091377952755906
 30
0.0
 10
2.331748031496063
 20
0.2091929133858268
 30
0.0
 10
2.333830708661417
 20
0.2094685039370079
 30
0.0
 10
2.335358267716535
 20
0.209996062992126
 30
0.0
 10
2.335358267716535
 20
0.209996062992126
 30
0.0
 10
2.336858267716536
 20
0.210496062992126
 30
0.0
 10
2.338330708661418
 20
0.2113031496062992
 30
0.0
 10
2.339748031496063
 20
0.2123858267716536
 30
0.0
 10
2.339748031496063
 20
0.2123858267716536
 30
0.0
 10
2.342192913385827
 20
0.2143582677165354
 30
0.0
 10
2.34394094488189
 20
0.2158858267716536
 30
0.0
 10
2.345027559055118
 20
0.2170236220472441
 30
0.0
 10
2.345027559055118
 20
0.2170236220472441
 30
0.0
 10
2.345027559055118
 20
0.2170236220472441
 30
0.0
 10
2.368885826771654
 20
0.2415236220472441
 30
0.0
 10
2.368885826771654
 20
0.2415236220472441
 30
0.0
 10
2.368885826771654
 20
0.2415236220472441
 30
0.0
 10
2.368885826771654
 20
0.2415236220472441
 30
0.0
 10
2.348610236220472
 20
0.2648031496062993
 30
0.0
 10
2.348610236220472
 20
0.2648031496062993
 30
0.0
 10
2.348610236220472
 20
0.2648031496062993
 30
0.0
 10
2.346055118110237
 20
0.2676929133858268
 30
0.0
 10
2.344055118110236
 20
0.2696929133858268
 30
0.0
 10
2.342555118110236
 20
0.2708582677165354
 30
0.0
 10
2.342555118110236
 20
0.2708582677165354
 30
0.0
 10
2.341055118110236
 20
0.2720236220472441
 30
0.0
 10
2.339610236220473
 20
0.2728582677165354
 30
0.0
 10
2.338192913385827
 20
0.2733031496062992
 30
0.0
 10
2.338192913385827
 20
0.2733031496062992
 30
0.0
 10
2.336775590551181
 20
0.2737755905511811
 30
0.0
 10
2.334803149606299
 20
0.273996062992126
 30
0.0
 10
2.332248031496063
 20
0.273996062992126
 30
0.0
 10
2.332248031496063
 20
0.273996062992126
 30
0.0
 10
2.332248031496063
 20
0.273996062992126
 30
0.0
 10
2.332248031496063
 20
0.2808307086614174
 30
0.0
 10
2.332248031496063
 20
0.2808307086614174
 30
0.0
  0
SPLINE
  5
A6
330
1F
100
AcDbEntity
  8
P1-LAYER_1
 62
   250
100
AcDbSpline
210
0.0
220
0.0
230
1.0
 70
    11
 71
     3
 72
   172
 73
   168
 74
     0
 42
0.0000000001
 43
0.0000000001
 40
0.0
 40
0.0
 40
0.0
 40
0.0
 40
0.0238095238095238
 40
0.0238095238095238
 40
0.0238095238095238
 40
0.0238095238095238
 40
0.0476190476190476
 40
0.0476190476190476
 40
0.0476190476190476
 40
0.0476190476190476
 40
0.0714285714285714
 40
0.0714285714285714
 40
0.0714285714285714
 40
0.0714285714285714
 40
0.0952380952380952
 40
0.0952380952380952
 40
0.0952380952380952
 40
0.0952380952380952
 40
0.119047619047619
 40
0.119047619047619
 40
0.119047619047619
 40
0.119047619047619
 40
0.1428571428571429
 40
0.1428571428571429
 40
0.1428571428571429
 40
0.1428571428571429
 40
0.1666666666666667
 40
0.1666666666666667
 40
0.1666666666666667
 40
0.1666666666666667
 40
0.1904761904761905
 40
0.1904761904761905
 40
0.1904761904761905
 40
0.1904761904761905
 40
0.2142857142857143
 40
0.2142857142857143
 40
0.2142857142857143
 40
0.2142857142857143
 40
0.2380952380952381
 40
0.2380952380952381
 40
0.2380952380952381
 40
0.2380952380952381
 40
0.2619047619047619
 40
0.2619047619047619
 40
0.2619047619047619
 40
0.2619047619047619
 40
0.2857142857142857
 40
0.2857142857142857
 40
0.2857142857142857
 40
0.2857142857142857
 40
0.3095238095238095
 40
0.3095238095238095
 40
0.3095238095238095
 40
0.3095238095238095
 40
0.3333333333333334
 40
0.3333333333333334
 40
0.3333333333333334
 40
0.3333333333333334
 40
0.3571428571428572
 40
0.3571428571428572
 40
0.3571428571428572
 40
0.3571428571428572
 40
0.380952380952381
 40
0.380952380952381
 40
0.380952380952381
 40
0.380952380952381
 40
0.4047619047619049
 40
0.4047619047619049
 40
0.4047619047619049
 40
0.4047619047619049
 40
0.4285714285714287
 40
0.4285714285714287
 40
0.4285714285714287
 40
0.4285714285714287
 40
0.4523809523809526
 40
0.4523809523809526
 40
0.4523809523809526
 40
0.4523809523809526
 40
0.4761904761904764
 40
0.4761904761904764
 40
0.4761904761904764
 40
0.4761904761904764
 40
0.5000000000000002
 40
0.5000000000000002
 40
0.5000000000000002
 40
0.5000000000000002
 40
0.5238095238095241
 40
0.5238095238095241
 40
0.5238095238095241
 40
0.5238095238095241
 40
0.5476190476190479
 40
0.5476190476190479
 40
0.5476190476190479
 40
0.5476190476190479
 40
0.5714285714285717
 40
0.5714285714285717
 40
0.5714285714285717
 40
0.5714285714285717
 40
0.5952380952380956
 40
0.5952380952380956
 40
0.5952380952380956
 40
0.5952380952380956
 40
0.6190476190476194
 40
0.6190476190476194
 40
0.6190476190476194
 40
0.6190476190476194
 40
0.6428571428571432
 40
0.6428571428571432
 40
0.6428571428571432
 40
0.6428571428571432
 40
0.6666666666666671
 40
0.6666666666666671
 40
0.6666666666666671
 40
0.6666666666666671
 40
0.6904761904761909
 40
0.6904761904761909
 40
0.6904761904761909
 40
0.6904761904761909
 40
0.7142857142857148
 40
0.7142857142857148
 40
0.7142857142857148
 40
0.7142857142857148
 40
0.7380952380952386
 40
0.7380952380952386
 40
0.7380952380952386
 40
0.7380952380952386
 40
0.7619047619047624
 40
0.7619047619047624
 40
0.7619047619047624
 40
0.7619047619047624
 40
0.7857142857142863
 40
0.7857142857142863
 40
0.7857142857142863
 40
0.7857142857142863
 40
0.8095238095238101
 40
0.8095238095238101
 40
0.8095238095238101
 40
0.8095238095238101
 40
0.8333333333333339
 40
0.8333333333333339
 40
0.8333333333333339
 40
0.8333333333333339
 40
0.8571428571428578
 40
0.8571428571428578
 40
0.8571428571428578
 40
0.8571428571428578
 40
0.8809523809523816
 40
0.8809523809523816
 40
0.8809523809523816
 40
0.8809523809523816
 40
0.9047619047619054
 40
0.9047619047619054
 40
0.9047619047619054
 40
0.9047619047619054
 40
0.9285714285714293
 40
0.9285714285714293
 40
0.9285714285714293
 40
0.9285714285714293
 40
0.9523809523809531
 40
0.9523809523809531
 40
0.9523809523809531
 40
0.9523809523809531
 40
0.9761904761904769
 40
0.9761904761904769
 40
0.9761904761904769
 40
0.9761904761904769
 40
1.0
 40
1.0
 40
1.0
 40
1.0
 10
2.49794094488189
 20
0.2854685039370079
 30
0.0
 10
2.49794094488189
 20
0.2854685039370079
 30
0.0
 10
2.490133858267717
 20
0.2866929133858268
 30
0.0
 10
2.490133858267717
 20
0.2866929133858268
 30
0.0
 10
2.490133858267717
 20
0.2866929133858268
 30
0.0
 10
2.490830708661417
 20
0.2925511811023622
 30
0.0
 10
2.492358267716536
 20
0.2974133858267717
 30
0.0
 10
2.494692913385827
 20
0.3012755905511811
 30
0.0
 10
2.494692913385827
 20
0.3012755905511811
 30
0.0
 10
2.497775590551181
 20
0.3064685039370079
 30
0.0
 10
2.502133858267717
 20
0.3105236220472441
 30
0.0
 10
2.507775590551181
 20
0.3134133858267716
 30
0.0
 10
2.507775590551181
 20
0.3134133858267716
 30
0.0
 10
2.51344094488189
 20
0.3163307086614173
 30
0.0
 10
2.519913385826772
 20
0.3177755905511811
 30
0.0
 10
2.527248031496063
 20
0.3177755905511811
 30
0.0
 10
2.527248031496063
 20
0.3177755905511811
 30
0.0
 10
2.53444094488189
 20
0.3177755905511811
 30
0.0
 10
2.540803149606299
 20
0.316496062992126
 30
0.0
 10
2.546275590551181
 20
0.3139133858267716
 30
0.0
 10
2.546275590551181
 20
0.3139133858267716
 30
0.0
 10
2.551748031496063
 20
0.3113307086614173
 30
0.0
 10
2.555885826771654
 20
0.3079133858267717
 30
0.0
 10
2.558688976377953
 20
0.3036653543307087
 30
0.0
 10
2.558688976377953
 20
0.3036653543307087
 30
0.0
 10
2.561496062992126
 20
0.2994133858267717
 30
0.0
 10
2.562885826771653
 20
0.2948031496062992
 30
0.0
 10
2.562885826771653
 20
0.2898582677165354
 30
0.0
 10
2.562885826771653
 20
0.2898582677165354
 30
0.0
 10
2.562885826771653
 20
0.2855236220472441
 30
0.0
 10
2.561830708661418
 20
0.2816377952755906
 30
0.0
 10
2.559716535433071
 20
0.2782204724409449
 30
0.0
 10
2.559716535433071
 20
0.2782204724409449
 30
0.0
 10
2.557578740157481
 20
0.2748031496062992
 30
0.0
 10
2.55444094488189
 20
0.271748031496063
 30
0.0
 10
2.550275590551181
 20
0.2690236220472441
 30
0.0
 10
2.550275590551181
 20
0.2690236220472441
 30
0.0
 10
2.547330708661417
 20
0.2671377952755906
 30
0.0
 10
2.543523622047244
 20
0.2654685039370079
 30
0.0
 10
2.5388031496063
 20
0.2640787401574803
 30
0.0
 10
2.5388031496063
 20
0.2640787401574803
 30
0.0
 10
2.543830708661417
 20
0.2633582677165354
 30
0.0
 10
2.547968503937008
 20
0.2621929133858268
 30
0.0
 10
2.551161417322835
 20
0.2605787401574803
 30
0.0
 10
2.551161417322835
 20
0.2605787401574803
 30
0.0
 10
2.556358267716536
 20
0.2579133858267717
 30
0.0
 10
2.560468503937008
 20
0.254248031496063
 30
0.0
 10
2.56344094488189
 20
0.2495787401574803
 30
0.0
 10
2.56344094488189
 20
0.2495787401574803
 30
0.0
 10
2.56644094488189
 20
0.2449133858267717
 30
0.0
 10
2.567913385826772
 20
0.2398031496062992
 30
0.0
 10
2.567913385826772
 20
0.2341929133858268
 30
0.0
 10
2.567913385826772
 20
0.2341929133858268
 30
0.0
 10
2.567913385826772
 20
0.225248031496063
 30
0.0
 10
2.563996062992126
 20
0.2173582677165354
 30
0.0
 10
2.556133858267716
 20
0.2105511811023622
 30
0.0
 10
2.556133858267716
 20
0.2105511811023622
 30
0.0
 10
2.548248031496063
 20
0.203748031496063
 30
0.0
 10
2.53807874015748
 20
0.2003582677165355
 30
0.0
 10
2.525606299212599
 20
0.2003582677165355
 30
0.0
 10
2.525606299212599
 20
0.2003582677165355
 30
0.0
 10
2.513303149606299
 20
0.2003582677165355
 30
0.0
 10
2.50294094488189
 20
0.2036377952755906
 30
0.0
 10
2.494523622047244
 20
0.2101929133858268
 30
0.0
 10
2.494523622047244
 20
0.2101929133858268
 30
0.0
 10
2.487468503937008
 20
0.2157755905511811
 30
0.0
 10
2.48394094488189
 20
0.2214133858267717
 30
0.0
 10
2.48394094488189
 20
0.2270511811023622
 30
0.0
 10
2.48394094488189
 20
0.2270511811023622
 30
0.0
 10
2.48394094488189
 20
0.2292755905511811
 30
0.0
 10
2.484665354330709
 20
0.2311377952755906
 30
0.0
 10
2.486106299212599
 20
0.2326102362204724
 30
0.0
 10
2.486106299212599
 20
0.2326102362204724
 30
0.0
 10
2.487523622047244
 20
0.2341102362204725
 30
0.0
 10
2.489330708661417
 20
0.2348582677165355
 30
0.0
 10
2.491523622047244
 20
0.2348582677165355
 30
0.0
 10
2.491523622047244
 20
0.2348582677165355
 30
0.0
 10
2.493885826771654
 20
0.2348582677165355
 30
0.0
 10
2.49594094488189
 20
0.2339409448818898
 30
0.0
 10
2.497606299212599
 20
0.2320787401574803
 30
0.0
 10
2.497606299212599
 20
0.2320787401574803
 30
0.0
 10
2.498523622047244
 20
0.2310511811023622
 30
0.0
 10
2.499606299212599
 20
0.2285826771653544
 30
0.0
 10
2.500775590551181
 20
0.2246929133858268
 30
0.0
 10
2.500775590551181
 20
0.2246929133858268
 30
0.0
 10
2.502468503937008
 20
0.2191929133858268
 30
0.0
 10
2.505330708661417
 20
0.2150236220472441
 30
0.0
 10
2.509330708661417
 20
0.2121653543307087
 30
0.0
 10
2.509330708661417
 20
0.2121653543307087
 30
0.0
 10
2.513358267716535
 20
0.2092755905511811
 30
0.0
 10
2.518330708661417
 20
0.2078307086614173
 30
0.0
 10
2.524303149606299
 20
0.2078307086614173
 30
0.0
 10
2.524303149606299
 20
0.2078307086614173
 30
0.0
 10
2.529633858267717
 20
0.2078307086614173
 30
0.0
 10
2.534385826771654
 20
0.208996062992126
 30
0.0
 10
2.53857874015748
 20
0.2113307086614173
 30
0.0
 10
2.53857874015748
 20
0.2113307086614173
 30
0.0
 10
2.5428031496063
 20
0.2136653543307087
 30
0.0
 10
2.546106299212599
 20
0.2169685039370079
 30
0.0
 10
2.548551181102362
 20
0.2212755905511811
 30
0.0
 10
2.548551181102362
 20
0.2212755905511811
 30
0.0
 10
2.550996062992126
 20
0.2255511811023622
 30
0.0
 10
2.552220472440945
 20
0.230248031496063
 30
0.0
 10
2.552220472440945
 20
0.2353307086614173
 30
0.0
 10
2.552220472440945
 20
0.2353307086614173
 30
0.0
 10
2.552220472440945
 20
0.2394685039370079
 30
0.0
 10
2.551330708661417
 20
0.2431653543307087
 30
0.0
 10
2.549578740157481
 20
0.2464409448818898
 30
0.0
 10
2.549578740157481
 20
0.2464409448818898
 30
0.0
 10
2.547803149606299
 20
0.249748031496063
 30
0.0
 10
2.545303149606299
 20
0.2525236220472441
 30
0.0
 10
2.542051181102362
 20
0.2548031496062992
 30
0.0
 10
2.542051181102362
 20
0.2548031496062992
 30
0.0
 10
2.539551181102362
 20
0.2565787401574803
 30
0.0
 10
2.536358267716536
 20
0.2578307086614173
 30
0.0
 10
2.532496062992126
 20
0.2585236220472441
 30
0.0
 10
2.532496062992126
 20
0.2585236220472441
 30
0.0
 10
2.528606299212599
 20
0.259248031496063
 30
0.0
 10
2.525106299212598
 20
0.2596062992125984
 30
0.0
 10
2.522023622047244
 20
0.2596062992125984
 30
0.0
 10
2.522023622047244
 20
0.2596062992125984
 30
0.0
 10
2.522023622047244
 20
0.2596062992125984
 30
0.0
 10
2.514468503937008
 20
0.2596062992125984
 30
0.0
 10
2.514468503937008
 20
0.2596062992125984
 30
0.0
 10
2.514468503937008
 20
0.2596062992125984
 30
0.0
 10
2.514468503937008
 20
0.2596062992125984
 30
0.0
 10
2.514468503937008
 20
0.267496062992126
 30
0.0
 10
2.514468503937008
 20
0.267496062992126
 30
0.0
 10
2.514468503937008
 20
0.267496062992126
 30
0.0
 10
2.514468503937008
 20
0.267496062992126
 30
0.0
 10
2.519275590551181
 20
0.267496062992126
 30
0.0
 10
2.519275590551181
 20
0.267496062992126
 30
0.0
 10
2.519275590551181
 20
0.267496062992126
 30
0.0
 10
2.524023622047244
 20
0.267496062992126
 30
0.0
 10
2.528578740157481
 20
0.2680511811023622
 30
0.0
 10
2.53294094488189
 20
0.2691653543307087
 30
0.0
 10
2.53294094488189
 20
0.2691653543307087
 30
0.0
 10
2.537275590551181
 20
0.2702755905511811
 30
0.0
 10
2.540748031496063
 20
0.2725511811023622
 30
0.0
 10
2.543358267716536
 20
0.2760236220472441
 30
0.0
 10
2.543358267716536
 20
0.2760236220472441
 30
0.0
 10
2.54594094488189
 20
0.279496062992126
 30
0.0
 10
2.547248031496063
 20
0.2834409448818898
 30
0.0
 10
2.547248031496063
 20
0.2878307086614174
 30
0.0
 10
2.547248031496063
 20
0.2878307086614174
 30
0.0
 10
2.547248031496063
 20
0.2916338582677165
 30
0.0
 10
2.546358267716536
 20
0.2950511811023622
 30
0.0
 10
2.544523622047244
 20
0.2980787401574803
 30
0.0
 10
2.544523622047244
 20
0.2980787401574803
 30
0.0
 10
2.542720472440945
 20
0.3011338582677166
 30
0.0
 10
2.540051181102363
 20
0.3035511811023622
 30
0.0
 10
2.536523622047244
 20
0.3053307086614173
 30
0.0
 10
2.536523622047244
 20
0.3053307086614173
 30
0.0
 10
2.532996062992126
 20
0.3071062992125984
 30
0.0
 10
2.528913385826772
 20
0.3080236220472441
 30
0.0
 10
2.524303149606299
 20
0.3080236220472441
 30
0.0
 10
2.524303149606299
 20
0.3080236220472441
 30
0.0
 10
2.519803149606299
 20
0.3080236220472441
 30
0.0
 10
2.515661417322835
 20
0.3070787401574803
 30
0.0
 10
2.511885826771654
 20
0.305248031496063
 30
0.0
 10
2.511885826771654
 20
0.305248031496063
 30
0.0
 10
2.508133858267717
 20
0.3034133858267717
 30
0.0
 10
2.505106299212598
 20
0.3009409448818898
 30
0.0
 10
2.502830708661417
 20
0.2978307086614173
 30
0.0
 10
2.502830708661417
 20
0.2978307086614173
 30
0.0
 10
2.500551181102362
 20
0.294748031496063
 30
0.0
 10
2.498913385826772
 20
0.2906338582677165
 30
0.0
 10
2.49794094488189
 20
0.2854685039370079
 30
0.0
  0
SPLINE
  5
A7
330
1F
100
AcDbEntity
  8
P1-LAYER_1
 62
   250
100
AcDbSpline
210
0.0
220
0.0
230
1.0
 70
    11
 71
     3
 72
    60
 73
    56
 74
     0
 42
0.0000000001
 43
0.0000000001
 40
0.0
 40
0.0
 40
0.0
 40
0.0
 40
0.0714285714285714
 40
0.0714285714285714
 40
0.0714285714285714
 40
0.0714285714285714
 40
0.1428571428571429
 40
0.1428571428571429
 40
0.1428571428571429
 40
0.1428571428571429
 40
0.2142857142857143
 40
0.2142857142857143
 40
0.2142857142857143
 40
0.2142857142857143
 40
0.2857142857142857
 40
0.2857142857142857
 40
0.2857142857142857
 40
0.2857142857142857
 40
0.3571428571428571
 40
0.3571428571428571
 40
0.3571428571428571
 40
0.3571428571428571
 40
0.4285714285714285
 40
0.4285714285714285
 40
0.4285714285714285
 40
0.4285714285714285
 40
0.4999999999999999
 40
0.4999999999999999
 40
0.4999999999999999
 40
0.4999999999999999
 40
0.5714285714285713
 40
0.5714285714285713
 40
0.5714285714285713
 40
0.5714285714285713
 40
0.6428571428571427
 40
0.6428571428571427
 40
0.6428571428571427
 40
0.6428571428571427
 40
0.7142857142857141
 40
0.7142857142857141
 40
0.7142857142857141
 40
0.7142857142857141
 40
0.7857142857142855
 40
0.7857142857142855
 40
0.7857142857142855
 40
0.7857142857142855
 40
0.8571428571428569
 40
0.8571428571428569
 40
0.8571428571428569
 40
0.8571428571428569
 40
0.9285714285714283
 40
0.9285714285714283
 40
0.9285714285714283
 40
0.9285714285714283
 40
1.0
 40
1.0
 40
1.0
 40
1.0
 10
2.589330708661418
 20
0.273748031496063
 30
0.0
 10
2.589330708661418
 20
0.273748031496063
 30
0.0
 10
2.58494094488189
 20
0.2791377952755906
 30
0.0
 10
2.58494094488189
 20
0.2791377952755906
 30
0.0
 10
2.58494094488189
 20
0.2791377952755906
 30
0.0
 10
2.596055118110237
 20
0.2881929133858268
 30
0.0
 10
2.601637795275591
 20
0.295748031496063
 30
0.0
 10
2.601637795275591
 20
0.3018307086614173
 30
0.0
 10
2.601637795275591
 20
0.3018307086614173
 30
0.0
 10
2.601637795275591
 20
0.3025236220472441
 30
0.0
 10
2.601582677165355
 20
0.3034133858267717
 30
0.0
 10
2.601468503937008
 20
0.3044409448818898
 30
0.0
 10
2.601468503937008
 20
0.3044409448818898
 30
0.0
 10
2.600555118110236
 20
0.3040511811023622
 30
0.0
 10
2.599637795275591
 20
0.303748031496063
 30
0.0
 10
2.598775590551181
 20
0.3035511811023622
 30
0.0
 10
2.598775590551181
 20
0.3035511811023622
 30
0.0
 10
2.597913385826772
 20
0.3033307086614173
 30
0.0
 10
2.597110236220472
 20
0.3032204724409449
 30
0.0
 10
2.596330708661418
 20
0.3032204724409449
 30
0.0
 10
2.596330708661418
 20
0.3032204724409449
 30
0.0
 10
2.593720472440945
 20
0.3032204724409449
 30
0.0
 10
2.591637795275591
 20
0.3040511811023622
 30
0.0
 10
2.590082677165354
 20
0.305748031496063
 30
0.0
 10
2.590082677165354
 20
0.305748031496063
 30
0.0
 10
2.588496062992126
 20
0.3074133858267717
 30
0.0
 10
2.587720472440945
 20
0.3095511811023622
 30
0.0
 10
2.587720472440945
 20
0.3121653543307087
 30
0.0
 10
2.587720472440945
 20
0.3121653543307087
 30
0.0
 10
2.587720472440945
 20
0.3147204724409449
 30
0.0
 10
2.588665354330709
 20
0.3169409448818898
 30
0.0
 10
2.590555118110236
 20
0.3188307086614173
 30
0.0
 10
2.590555118110236
 20
0.3188307086614173
 30
0.0
 10
2.592468503937008
 20
0.320748031496063
 30
0.0
 10
2.594748031496063
 20
0.3216929133858268
 30
0.0
 10
2.597385826771654
 20
0.3216929133858268
 30
0.0
 10
2.597385826771654
 20
0.3216929133858268
 30
0.0
 10
2.601082677165354
 20
0.3216929133858268
 30
0.0
 10
2.604248031496063
 20
0.3202204724409449
 30
0.0
 10
2.606885826771654
 20
0.317248031496063
 30
0.0
 10
2.606885826771654
 20
0.317248031496063
 30
0.0
 10
2.609496062992126
 20
0.3143031496062992
 30
0.0
 10
2.610830708661418
 20
0.310496062992126
 30
0.0
 10
2.610830708661418
 20
0.3058307086614173
 30
0.0
 10
2.610830708661418
 20
0.3058307086614173
 30
0.0
 10
2.610830708661418
 20
0.3027755905511811
 30
0.0
 10
2.610192913385827
 20
0.2995787401574803
 30
0.0
 10
2.60894094488189
 20
0.296248031496063
 30
0.0
 10
2.60894094488189
 20
0.296248031496063
 30
0.0
 10
2.607692913385827
 20
0.2929133858267717
 30
0.0
 10
2.605885826771654
 20
0.2898307086614174
 30
0.0
 10
2.603496062992126
 20
0.2869685039370079
 30
0.0
 10
2.603496062992126
 20
0.2869685039370079
 30
0.0
 10
2.601110236220472
 20
0.2841377952755906
 30
0.0
 10
2.596385826771654
 20
0.2797204724409449
 30
0.0
 10
2.589330708661418
 20
0.273748031496063
 30
0.0
  0
SPLINE
  5
A8
330
1F
100
AcDbEntity
  8
P1-LAYER_1
 62
   250
100
AcDbSpline
210
0.0
220
0.0
230
1.0
 70
    11
 71
     3
 72
    60
 73
    56
 74
     0
 42
0.0000000001
 43
0.0000000001
 40
0.0
 40
0.0
 40
0.0
 40
0.0
 40
0.0714285714285714
 40
0.0714285714285714
 40
0.0714285714285714
 40
0.0714285714285714
 40
0.1428571428571429
 40
0.1428571428571429
 40
0.1428571428571429
 40
0.1428571428571429
 40
0.2142857142857143
 40
0.2142857142857143
 40
0.2142857142857143
 40
0.2142857142857143
 40
0.2857142857142857
 40
0.2857142857142857
 40
0.2857142857142857
 40
0.2857142857142857
 40
0.3571428571428571
 40
0.3571428571428571
 40
0.3571428571428571
 40
0.3571428571428571
 40
0.4285714285714285
 40
0.4285714285714285
 40
0.4285714285714285
 40
0.4285714285714285
 40
0.4999999999999999
 40
0.4999999999999999
 40
0.4999999999999999
 40
0.4999999999999999
 40
0.5714285714285713
 40
0.5714285714285713
 40
0.5714285714285713
 40
0.5714285714285713
 40
0.6428571428571427
 40
0.6428571428571427
 40
0.6428571428571427
 40
0.6428571428571427
 40
0.7142857142857141
 40
0.7142857142857141
 40
0.7142857142857141
 40
0.7142857142857141
 40
0.7857142857142855
 40
0.7857142857142855
 40
0.7857142857142855
 40
0.7857142857142855
 40
0.8571428571428569
 40
0.8571428571428569
 40
0.8571428571428569
 40
0.8571428571428569
 40
0.9285714285714283
 40
0.9285714285714283
 40
0.9285714285714283
 40
0.9285714285714283
 40
1.0
 40
1.0
 40
1.0
 40
1.0
 10
2.618385826771654
 20
0.273748031496063
 30
0.0
 10
2.618385826771654
 20
0.273748031496063
 30
0.0
 10
2.613996062992126
 20
0.2791377952755906
 30
0.0
 10
2.613996062992126
 20
0.2791377952755906
 30
0.0
 10
2.613996062992126
 20
0.2791377952755906
 30
0.0
 10
2.625110236220472
 20
0.2881929133858268
 30
0.0
 10
2.630692913385827
 20
0.295748031496063
 30
0.0
 10
2.630692913385827
 20
0.3018307086614173
 30
0.0
 10
2.630692913385827
 20
0.3018307086614173
 30
0.0
 10
2.630692913385827
 20
0.3025236220472441
 30
0.0
 10
2.630637795275591
 20
0.3034133858267717
 30
0.0
 10
2.630523622047244
 20
0.3044409448818898
 30
0.0
 10
2.630523622047244
 20
0.3044409448818898
 30
0.0
 10
2.629610236220473
 20
0.3040511811023622
 30
0.0
 10
2.628692913385827
 20
0.303748031496063
 30
0.0
 10
2.627830708661417
 20
0.3035511811023622
 30
0.0
 10
2.627830708661417
 20
0.3035511811023622
 30
0.0
 10
2.626968503937008
 20
0.3033307086614173
 30
0.0
 10
2.626137795275591
 20
0.3032204724409449
 30
0.0
 10
2.6253031496063
 20
0.3032204724409449
 30
0.0
 10
2.6253031496063
 20
0.3032204724409449
 30
0.0
 10
2.622748031496063
 20
0.3032204724409449
 30
0.0
 10
2.620692913385827
 20
0.3040511811023622
 30
0.0
 10
2.619137795275591
 20
0.305748031496063
 30
0.0
 10
2.619137795275591
 20
0.305748031496063
 30
0.0
 10
2.617555118110236
 20
0.3074133858267717
 30
0.0
 10
2.616775590551181
 20
0.3095511811023622
 30
0.0
 10
2.616775590551181
 20
0.3121653543307087
 30
0.0
 10
2.616775590551181
 20
0.3121653543307087
 30
0.0
 10
2.616775590551181
 20
0.3147204724409449
 30
0.0
 10
2.617720472440945
 20
0.3169409448818898
 30
0.0
 10
2.619610236220473
 20
0.3188307086614173
 30
0.0
 10
2.619610236220473
 20
0.3188307086614173
 30
0.0
 10
2.621496062992126
 20
0.320748031496063
 30
0.0
 10
2.6238031496063
 20
0.3216929133858268
 30
0.0
 10
2.62644094488189
 20
0.3216929133858268
 30
0.0
 10
2.62644094488189
 20
0.3216929133858268
 30
0.0
 10
2.630137795275591
 20
0.3216929133858268
 30
0.0
 10
2.6333031496063
 20
0.3202204724409449
 30
0.0
 10
2.63594094488189
 20
0.317248031496063
 30
0.0
 10
2.63594094488189
 20
0.317248031496063
 30
0.0
 10
2.638551181102362
 20
0.3143031496062992
 30
0.0
 10
2.639885826771654
 20
0.310496062992126
 30
0.0
 10
2.639885826771654
 20
0.3058307086614173
 30
0.0
 10
2.639885826771654
 20
0.3058307086614173
 30
0.0
 10
2.639885826771654
 20
0.3027755905511811
 30
0.0
 10
2.639248031496063
 20
0.2995787401574803
 30
0.0
 10
2.637996062992126
 20
0.296248031496063
 30
0.0
 10
2.637996062992126
 20
0.296248031496063
 30
0.0
 10
2.636748031496063
 20
0.2929133858267717
 30
0.0
 10
2.63494094488189
 20
0.2898307086614174
 30
0.0
 10
2.632555118110236
 20
0.2869685039370079
 30
0.0
 10
2.632555118110236
 20
0.2869685039370079
 30
0.0
 10
2.630165354330709
 20
0.2841377952755906
 30
0.0
 10
2.62544094488189
 20
0.2797204724409449
 30
0.0
 10
2.618385826771654
 20
0.273748031496063
 30
0.0
  0
ENDSEC
  0
SECTION
  2
OBJECTS
  0
DICTIONARY
  5
C
330
0
100
AcDbDictionary
  3
ACAD_GROUP
350
D
  3
ACAD_LAYOUT
350
1A
  3
ACAD_MLINESTYLE
350
17
  3
ACAD_PLOTSETTINGS
350
19
  3
ACDBHEADERROUNDTRIPXREC
350
A9
  0
DICTIONARY
  5
C9
330
29
100
AcDbDictionary
280
     1
  3
ACAD_XREC_ROUNDTRIP
360
CA
  0
DICTIONARY
  5
D
102
{ACAD_REACTORS
330
C
102
}
330
C
100
AcDbDictionary
  0
DICTIONARY
  5
1A
102
{ACAD_REACTORS
330
C
102
}
330
C
100
AcDbDictionary
  0
DICTIONARY
  5
17
102
{ACAD_REACTORS
330
C
102
}
330
C
100
AcDbDictionary
  3
STANDARD
350
18
  0
DICTIONARY
  5
19
102
{ACAD_REACTORS
330
C
102
}
330
C
100
AcDbDictionary
  0
DICTIONARY
  5
A9
102
{ACAD_REACTORS
330
C
102
}
330
C
100
AcDbDictionary
  3
CEPSNTYPE
350
B2
  3
DIMSTYLEDATA
350
C8
  3
FINGERPRINTGUID
350
B3
  3
HYPERLINKBASE
350
AC
  3
INSUNITS
350
B1
  3
LAYOUTDICT
350
AE
  3
LWETCUNION
350
B0
  3
PLOTSETDICT
350
AF
  3
PSVPSCALE
350
B5
  3
PUCSBASE
350
B8
  3
PUCSORGBACK
350
BE
  3
PUCSORGBOTTOM
350
BA
  3
PUCSORGFRONT
350
BD
  3
PUCSORGLEFT
350
BB
  3
PUCSORGRIGHT
350
BC
  3
PUCSORGTOP
350
B9
  3
PUCSORTHOREF
350
B6
  3
PUCSORTHOVIEW
350
B7
  3
STYLESHEET
350
AD
  3
TSTACKALIGN
350
AA
  3
TSTACKSIZE
350
AB
  3
UCSBASE
350
C1
  3
UCSORGBACK
350
C7
  3
UCSORGBOTTOM
350
C3
  3
UCSORGFRONT
350
C6
  3
UCSORGLEFT
350
C4
  3
UCSORGRIGHT
350
C5
  3
UCSORGTOP
350
C2
  3
UCSORTHOREF
350
BF
  3
UCSORTHOVIEW
350
C0
  3
VERSIONGUID
350
B4
  0
XRECORD
  5
CA
102
{ACAD_REACTORS
330
C9
102
}
330
C9
100
AcDbXrecord
102
UCS
 74
     0
 71
     1
 10
0.0
 20
0.0
 30
0.0
 10
1.0
 20
0.0
 30
0.0
 10
0.0
 20
1.0
 30
0.0
146
0.0
 79
     0
102
VIEW
281
     0
  0
MLINESTYLE
  5
18
102
{ACAD_REACTORS
330
17
102
}
330
17
100
AcDbMlineStyle
  2
Standard
 70
     0
  3

 62
   256
 51
90.0
 52
90.0
 71
     2
 49
0.5
 62
   256
  6
BYLAYER
 49
-0.5
 62
   256
  6
BYLAYER
  0
XRECORD
  5
B2
102
{ACAD_REACTORS
330
A9
102
}
330
A9
100
AcDbXrecord
 90
        0
  0
XRECORD
  5
C8
102
{ACAD_REACTORS
330
A9
102
}
330
A9
100
AcDbXrecord
1000
DSTYLE
1002
{
1070
   340
340
11
1002
}
  0
XRECORD
  5
B3
102
{ACAD_REACTORS
330
A9
102
}
330
A9
100
AcDbXrecord
  1
{FAEB1C30-E019-11D5-929B-00C0DF256EC4}
  0
XRECORD
  5
AC
102
{ACAD_REACTORS
330
A9
102
}
330
A9
100
AcDbXrecord
  1

  0
XRECORD
  5
B1
102
{ACAD_REACTORS
330
A9
102
}
330
A9
100
AcDbXrecord
 90
        1
  0
XRECORD
  5
AE
102
{ACAD_REACTORS
330
A9
102
}
330
A9
100
AcDbXrecord
340
1A
  0
XRECORD
  5
B0
102
{ACAD_REACTORS
330
A9
102
}
330
A9
100
AcDbXrecord
 90
     2560
  0
XRECORD
  5
AF
102
{ACAD_REACTORS
330
A9
102
}
330
A9
100
AcDbXrecord
340
19
  0
XRECORD
  5
B5
102
{ACAD_REACTORS
330
A9
102
}
330
A9
100
AcDbXrecord
 40
0.0
  0
XRECORD
  5
B8
102
{ACAD_REACTORS
330
A9
102
}
330
A9
100
AcDbXrecord
340
0
  0
XRECORD
  5
BE
102
{ACAD_REACTORS
330
A9
102
}
330
A9
100
AcDbXrecord
 10
0.0
 20
0.0
 30
0.0
  0
XRECORD
  5
BA
102
{ACAD_REACTORS
330
A9
102
}
330
A9
100
AcDbXrecord
 10
0.0
 20
0.0
 30
0.0
  0
XRECORD
  5
BD
102
{ACAD_REACTORS
330
A9
102
}
330
A9
100
AcDbXrecord
 10
0.0
 20
0.0
 30
0.0
  0
XRECORD
  5
BB
102
{ACAD_REACTORS
330
A9
102
}
330
A9
100
AcDbXrecord
 10
0.0
 20
0.0
 30
0.0
  0
XRECORD
  5
BC
102
{ACAD_REACTORS
330
A9
102
}
330
A9
100
AcDbXrecord
 10
0.0
 20
0.0
 30
0.0
  0
XRECORD
  5
B9
102
{ACAD_REACTORS
330
A9
102
}
330
A9
100
AcDbXrecord
 10
0.0
 20
0.0
 30
0.0
  0
XRECORD
  5
B6
102
{ACAD_REACTORS
330
A9
102
}
330
A9
100
AcDbXrecord
340
0
  0
XRECORD
  5
B7
102
{ACAD_REACTORS
330
A9
102
}
330
A9
100
AcDbXrecord
 70
     0
  0
XRECORD
  5
AD
102
{ACAD_REACTORS
330
A9
102
}
330
A9
100
AcDbXrecord
  1

  0
XRECORD
  5
AA
102
{ACAD_REACTORS
330
A9
102
}
330
A9
100
AcDbXrecord
 90
        1
  0
XRECORD
  5
AB
102
{ACAD_REACTORS
330
A9
102
}
330
A9
100
AcDbXrecord
 90
       70
  0
XRECORD
  5
C1
102
{ACAD_REACTORS
330
A9
102
}
330
A9
100
AcDbXrecord
340
0
  0
XRECORD
  5
C7
102
{ACAD_REACTORS
330
A9
102
}
330
A9
100
AcDbXrecord
 10
0.0
 20
0.0
 30
0.0
  0
XRECORD
  5
C3
102
{ACAD_REACTORS
330
A9
102
}
330
A9
100
AcDbXrecord
 10
0.0
 20
0.0
 30
0.0
  0
XRECORD
  5
C6
102
{ACAD_REACTORS
330
A9
102
}
330
A9
100
AcDbXrecord
 10
0.0
 20
0.0
 30
0.0
  0
XRECORD
  5
C4
102
{ACAD_REACTORS
330
A9
102
}
330
A9
100
AcDbXrecord
 10
0.0
 20
0.0
 30
0.0
  0
XRECORD
  5
C5
102
{ACAD_REACTORS
330
A9
102
}
330
A9
100
AcDbXrecord
 10
0.0
 20
0.0
 30
0.0
  0
XRECORD
  5
C2
102
{ACAD_REACTORS
330
A9
102
}
330
A9
100
AcDbXrecord
 10
0.0
 20
0.0
 30
0.0
  0
XRECORD
  5
BF
102
{ACAD_REACTORS
330
A9
102
}
330
A9
100
AcDbXrecord
340
0
  0
XRECORD
  5
C0
102
{ACAD_REACTORS
330
A9
102
}
330
A9
100
AcDbXrecord
 70
     0
  0
XRECORD
  5
B4
102
{ACAD_REACTORS
330
A9
102
}
330
A9
100
AcDbXrecord
  1
{FAEB1C32-E019-11D5-929B-00C0DF256EC4}
  0
ENDSEC
  0
EOF
