  0
SECTION
  2
HEADER
  9
$ACADVER
  1
AC1014
  9
$ACADMAINTVER
 70
     9
  9
$DWGCODEPAGE
  3
ANSI_1252
  9
$INSBASE
 10
0.0
 20
0.0
 30
0.0
  9
$EXTMIN
 10
-1.48401968503937
 20
-2.643185039370079
 30
0.0
  9
$EXTMAX
 10
0.5251889763779528
 20
2.099338582677166
 30
0.0
  9
$LIMMIN
 10
0.0
 20
0.0
  9
$LIMMAX
 10
12.0
 20
9.0
  9
$ORTHOMODE
 70
     0
  9
$REGENMODE
 70
     1
  9
$FILLMODE
 70
     1
  9
$QTEXTMODE
 70
     0
  9
$MIRRTEXT
 70
     1
  9
$DRAGMODE
 70
     2
  9
$LTSCALE
 40
1.0
  9
$OSMODE
 70
    37
  9
$ATTMODE
 70
     1
  9
$TEXTSIZE
 40
0.2
  9
$TRACEWID
 40
0.05
  9
$TEXTSTYLE
  7
STANDARD
  9
$CLAYER
  8
0
  9
$CELTYPE
  6
BYLAYER
  9
$CECOLOR
 62
   256
  9
$CELTSCALE
 40
1.0
  9
$DELOBJ
 70
     1
  9
$DISPSILH
 70
     0
  9
$DIMSCALE
 40
1.0
  9
$DIMASZ
 40
0.18
  9
$DIMEXO
 40
0.0625
  9
$DIMDLI
 40
0.38
  9
$DIMRND
 40
0.0
  9
$DIMDLE
 40
0.0
  9
$DIMEXE
 40
0.18
  9
$DIMTP
 40
0.0
  9
$DIMTM
 40
0.0
  9
$DIMTXT
 40
0.18
  9
$DIMCEN
 40
0.09
  9
$DIMTSZ
 40
0.0
  9
$DIMTOL
 70
     0
  9
$DIMLIM
 70
     0
  9
$DIMTIH
 70
     1
  9
$DIMTOH
 70
     1
  9
$DIMSE1
 70
     0
  9
$DIMSE2
 70
     0
  9
$DIMTAD
 70
     0
  9
$DIMZIN
 70
     0
  9
$DIMBLK
  1

  9
$DIMASO
 70
     1
  9
$DIMSHO
 70
     1
  9
$DIMPOST
  1

  9
$DIMAPOST
  1

  9
$DIMALT
 70
     0
  9
$DIMALTD
 70
     2
  9
$DIMALTF
 40
25.4
  9
$DIMLFAC
 40
1.0
  9
$DIMTOFL
 70
     0
  9
$DIMTVP
 40
0.0
  9
$DIMTIX
 70
     0
  9
$DIMSOXD
 70
     0
  9
$DIMSAH
 70
     0
  9
$DIMBLK1
  1

  9
$DIMBLK2
  1

  9
$DIMSTYLE
  2
STANDARD
  9
$DIMCLRD
 70
     0
  9
$DIMCLRE
 70
     0
  9
$DIMCLRT
 70
     0
  9
$DIMTFAC
 40
1.0
  9
$DIMGAP
 40
0.09
  9
$DIMJUST
 70
     0
  9
$DIMSD1
 70
     0
  9
$DIMSD2
 70
     0
  9
$DIMTOLJ
 70
     1
  9
$DIMTZIN
 70
     0
  9
$DIMALTZ
 70
     0
  9
$DIMALTTZ
 70
     0
  9
$DIMFIT
 70
     3
  9
$DIMUPT
 70
     0
  9
$DIMUNIT
 70
     2
  9
$DIMDEC
 70
     4
  9
$DIMTDEC
 70
     4
  9
$DIMALTU
 70
     2
  9
$DIMALTTD
 70
     2
  9
$DIMTXSTY
  7
STANDARD
  9
$DIMAUNIT
 70
     0
  9
$LUNITS
 70
     2
  9
$LUPREC
 70
     4
  9
$SKETCHINC
 40
0.1
  9
$FILLETRAD
 40
0.5
  9
$AUNITS
 70
     0
  9
$AUPREC
 70
     0
  9
$MENU
  1
.
  9
$ELEVATION
 40
0.0
  9
$PELEVATION
 40
0.0
  9
$THICKNESS
 40
0.0
  9
$LIMCHECK
 70
     0
  9
$CHAMFERA
 40
0.5
  9
$CHAMFERB
 40
0.5
  9
$CHAMFERC
 40
1.0
  9
$CHAMFERD
 40
0.0
  9
$SKPOLY
 70
     0
  9
$TDCREATE
 40
2454123.576575972
  9
$TDUPDATE
 40
2454123.576575984
  9
$TDINDWG
 40
0.0000000116
  9
$TDUSRTIMER
 40
0.0000000116
  9
$USRTIMER
 70
     1
  9
$ANGBASE
 50
0.0
  9
$ANGDIR
 70
     0
  9
$PDMODE
 70
     0
  9
$PDSIZE
 40
0.0
  9
$PLINEWID
 40
0.0
  9
$COORDS
 70
     1
  9
$SPLFRAME
 70
     0
  9
$SPLINETYPE
 70
     6
  9
$SPLINESEGS
 70
     8
  9
$ATTDIA
 70
     0
  9
$ATTREQ
 70
     1
  9
$HANDLING
 70
     1
  9
$HANDSEED
  5
A2
  9
$SURFTAB1
 70
     6
  9
$SURFTAB2
 70
     6
  9
$SURFTYPE
 70
     6
  9
$SURFU
 70
     6
  9
$SURFV
 70
     6
  9
$UCSNAME
  2

  9
$UCSORG
 10
0.0
 20
0.0
 30
0.0
  9
$UCSXDIR
 10
1.0
 20
0.0
 30
0.0
  9
$UCSYDIR
 10
0.0
 20
1.0
 30
0.0
  9
$PUCSNAME
  2

  9
$PUCSORG
 10
0.0
 20
0.0
 30
0.0
  9
$PUCSXDIR
 10
1.0
 20
0.0
 30
0.0
  9
$PUCSYDIR
 10
0.0
 20
1.0
 30
0.0
  9
$USERI1
 70
     0
  9
$USERI2
 70
     0
  9
$USERI3
 70
     0
  9
$USERI4
 70
     0
  9
$USERI5
 70
     0
  9
$USERR1
 40
0.0
  9
$USERR2
 40
0.0
  9
$USERR3
 40
0.0
  9
$USERR4
 40
0.0
  9
$USERR5
 40
0.0
  9
$WORLDVIEW
 70
     1
  9
$SHADEDGE
 70
     3
  9
$SHADEDIF
 70
    70
  9
$TILEMODE
 70
     1
  9
$MAXACTVP
 70
    64
  9
$PINSBASE
 10
0.0
 20
0.0
 30
0.0
  9
$PLIMCHECK
 70
     0
  9
$PEXTMIN
 10
1.000000000000000E+20
 20
1.000000000000000E+20
 30
1.000000000000000E+20
  9
$PEXTMAX
 10
-1.000000000000000E+20
 20
-1.000000000000000E+20
 30
-1.000000000000000E+20
  9
$PLIMMIN
 10
0.0
 20
0.0
  9
$PLIMMAX
 10
12.0
 20
9.0
  9
$UNITMODE
 70
     0
  9
$VISRETAIN
 70
     1
  9
$PLINEGEN
 70
     0
  9
$PSLTSCALE
 70
     1
  9
$TREEDEPTH
 70
  3020
  9
$PICKSTYLE
 70
     1
  9
$CMLSTYLE
  2
STANDARD
  9
$CMLJUST
 70
     0
  9
$CMLSCALE
 40
1.0
  9
$PROXYGRAPHICS
 70
     1
  9
$MEASUREMENT
 70
     0
  0
ENDSEC
  0
SECTION
  2
CLASSES
  0
CLASS
  1
ACDBDICTIONARYWDFLT
  2
AcDbDictionaryWithDefault
  3
ObjectDBX Classes
 90
        0
280
     0
281
     0
  0
CLASS
  1
XRECORD
  2
AcDbXrecord
  3
AutoCAD 2000
 90
        0
280
     0
281
     0
  0
CLASS
  1
LWPOLYLINE
  2
AcDbPolyline
  3
AutoCAD 2000
 90
        0
280
     0
281
     1
  0
CLASS
  1
HATCH
  2
AcDbHatch
  3
AutoCAD 2000
 90
        0
280
     0
281
     1
  0
CLASS
  1
ACDBPLACEHOLDER
  2
AcDbPlaceHolder
  3
ObjectDBX Classes
 90
        0
280
     0
281
     0
  0
CLASS
  1
LAYOUT
  2
AcDbLayout
  3
ObjectDBX Classes
 90
        0
280
     0
281
     0
  0
ENDSEC
  0
SECTION
  2
TABLES
  0
TABLE
  2
VPORT
  5
8
330
0
100
AcDbSymbolTable
 70
     2
  0
VPORT
  5
29
102
{ACAD_XDICTIONARY
360
A0
102
}
330
8
100
AcDbSymbolTableRecord
100
AcDbViewportTableRecord
  2
*ACTIVE
 70
     0
 10
0.0
 20
0.0
 11
1.0
 21
1.0
 12
10.42990654205607
 22
4.5
 13
0.0
 23
0.0
 14
0.5
 24
0.5
 15
0.5
 25
0.5
 16
0.0
 26
0.0
 36
1.0
 17
0.0
 27
0.0
 37
0.0
 40
9.0
 41
1.972972972850329
 42
50.0
 43
0.0
 44
0.0
 50
0.0
 51
0.0
 71
     0
 72
   100
 73
     1
 74
     3
 75
     0
 76
     0
 77
     0
 78
     0
  0
ENDTAB
  0
TABLE
  2
LTYPE
  5
5
330
0
100
AcDbSymbolTable
 70
     1
  0
LTYPE
  5
14
330
5
100
AcDbSymbolTableRecord
100
AcDbLinetypeTableRecord
  2
BYBLOCK
 70
     0
  3

 72
    65
 73
     0
 40
0.0
  0
LTYPE
  5
15
330
5
100
AcDbSymbolTableRecord
100
AcDbLinetypeTableRecord
  2
BYLAYER
 70
     0
  3

 72
    65
 73
     0
 40
0.0
  0
LTYPE
  5
16
330
5
100
AcDbSymbolTableRecord
100
AcDbLinetypeTableRecord
  2
CONTINUOUS
 70
     0
  3
Solid line
 72
    65
 73
     0
 40
0.0
  0
ENDTAB
  0
TABLE
  2
LAYER
  5
2
330
0
100
AcDbSymbolTable
 70
     2
  0
LAYER
  5
10
330
2
100
AcDbSymbolTableRecord
100
AcDbLayerTableRecord
  2
0
 70
     0
 62
     7
  6
CONTINUOUS
  0
LAYER
  5
2B
330
2
100
AcDbSymbolTableRecord
100
AcDbLayerTableRecord
  2
LAYER_1
 70
     0
 62
     7
  6
CONTINUOUS
  0
ENDTAB
  0
TABLE
  2
STYLE
  5
3
330
0
100
AcDbSymbolTable
 70
     1
  0
STYLE
  5
11
330
3
100
AcDbSymbolTableRecord
100
AcDbTextStyleTableRecord
  2
STANDARD
 70
     0
 40
0.0
 41
1.0
 50
0.0
 71
     0
 42
0.2
  3
txt
  4

  0
ENDTAB
  0
TABLE
  2
VIEW
  5
6
330
0
100
AcDbSymbolTable
 70
     0
  0
ENDTAB
  0
TABLE
  2
UCS
  5
7
330
0
100
AcDbSymbolTable
 70
     0
  0
ENDTAB
  0
TABLE
  2
APPID
  5
9
330
0
100
AcDbSymbolTable
 70
     2
  0
APPID
  5
12
330
9
100
AcDbSymbolTableRecord
100
AcDbRegAppTableRecord
  2
ACAD
 70
     0
  0
APPID
  5
2A
330
9
100
AcDbSymbolTableRecord
100
AcDbRegAppTableRecord
  2
ODA
 70
     0
  0
ENDTAB
  0
TABLE
  2
DIMSTYLE
  5
A
330
0
100
AcDbSymbolTable
 70
     1
  0
DIMSTYLE
105
27
330
A
100
AcDbSymbolTableRecord
100
AcDbDimStyleTableRecord
  2
STANDARD
 70
     0
  3

  4

  5

  6

  7

 40
1.0
 41
0.18
 42
0.0625
 43
0.38
 44
0.18
 45
0.0
 46
0.0
 47
0.0
 48
0.0
140
0.18
141
0.09
142
0.0
143
25.4
144
1.0
145
0.0
146
1.0
147
0.09
 71
     0
 72
     0
 73
     1
 74
     1
 75
     0
 76
     0
 77
     0
 78
     0
170
     0
171
     2
172
     0
173
     0
174
     0
175
     0
176
     0
177
     0
178
     0
270
     2
271
     4
272
     4
273
     2
274
     2
340
11
275
     0
280
     0
281
     0
282
     0
283
     1
284
     0
285
     0
286
     0
287
     3
288
     0
  0
ENDTAB
  0
TABLE
  2
BLOCK_RECORD
  5
1
330
0
100
AcDbSymbolTable
 70
     1
  0
BLOCK_RECORD
  5
1F
330
1
100
AcDbSymbolTableRecord
100
AcDbBlockTableRecord
  2
*MODEL_SPACE
  0
BLOCK_RECORD
  5
1B
330
1
100
AcDbSymbolTableRecord
100
AcDbBlockTableRecord
  2
*PAPER_SPACE
  0
ENDTAB
  0
ENDSEC
  0
SECTION
  2
BLOCKS
  0
BLOCK
  5
20
330
1F
100
AcDbEntity
  8
0
100
AcDbBlockBegin
  2
*MODEL_SPACE
 70
     0
 71
     0
 10
0.0
 20
0.0
 30
0.0
  3
*MODEL_SPACE
  1

  0
ENDBLK
  5
21
330
1F
100
AcDbEntity
  8
0
100
AcDbBlockEnd
  0
BLOCK
  5
1C
330
1B
100
AcDbEntity
 67
     1
  8
0
100
AcDbBlockBegin
  2
*PAPER_SPACE
 70
     0
 71
     0
 10
0.0
 20
0.0
 30
0.0
  3
*PAPER_SPACE
  1

  0
ENDBLK
  5
1D
330
1B
100
AcDbEntity
 67
     1
  8
0
100
AcDbBlockEnd
  0
ENDSEC
  0
SECTION
  2
ENTITIES
  0
SPLINE
  5
2C
330
1F
100
AcDbEntity
  8
LAYER_1
 62
     7
100
AcDbSpline
210
0.0
220
0.0
230
1.0
 70
    11
 71
     3
 72
    40
 73
    36
 74
     0
 42
0.0000000001
 43
0.0000000001
 40
0.0
 40
0.0
 40
0.0
 40
0.0
 40
0.1111111111111111
 40
0.1111111111111111
 40
0.1111111111111111
 40
0.1111111111111111
 40
0.2222222222222222
 40
0.2222222222222222
 40
0.2222222222222222
 40
0.2222222222222222
 40
0.3333333333333333
 40
0.3333333333333333
 40
0.3333333333333333
 40
0.3333333333333333
 40
0.4444444444444444
 40
0.4444444444444444
 40
0.4444444444444444
 40
0.4444444444444444
 40
0.5555555555555556
 40
0.5555555555555556
 40
0.5555555555555556
 40
0.5555555555555556
 40
0.6666666666666667
 40
0.6666666666666667
 40
0.6666666666666667
 40
0.6666666666666667
 40
0.7777777777777779
 40
0.7777777777777779
 40
0.7777777777777779
 40
0.7777777777777779
 40
0.8888888888888891
 40
0.8888888888888891
 40
0.8888888888888891
 40
0.8888888888888891
 40
1.0
 40
1.0
 40
1.0
 40
1.0
 10
-1.482523622047244
 20
-1.583511811023622
 30
0.0
 10
-1.482523622047244
 20
-1.583511811023622
 30
0.0
 10
-1.482523622047244
 20
-1.346043307086614
 30
0.0
 10
-1.482523622047244
 20
-1.346043307086614
 30
0.0
 10
-1.482523622047244
 20
-1.346043307086614
 30
0.0
 10
-1.482523622047244
 20
-1.346043307086614
 30
0.0
 10
-1.276224409448819
 20
-1.346043307086614
 30
0.0
 10
-1.276224409448819
 20
-1.346043307086614
 30
0.0
 10
-1.276224409448819
 20
-1.346043307086614
 30
0.0
 10
-1.276224409448819
 20
-1.346043307086614
 30
0.0
 10
-0.4639212598425197
 20
-1.067763779527559
 30
0.0
 10
-0.4639212598425197
 20
-1.067763779527559
 30
0.0
 10
-0.4639212598425197
 20
-1.067763779527559
 30
0.0
 10
-0.4639212598425197
 20
-1.067763779527559
 30
0.0
 10
-0.4200826771653544
 20
-0.8795157480314961
 30
0.0
 10
-0.4200826771653544
 20
-0.8795157480314961
 30
0.0
 10
-0.4200826771653544
 20
-0.8795157480314961
 30
0.0
 10
-0.4200826771653544
 20
-0.8795157480314961
 30
0.0
 10
0.0569842519685039
 20
-0.8795157480314961
 30
0.0
 10
0.0569842519685039
 20
-0.8795157480314961
 30
0.0
 10
0.0569842519685039
 20
-0.8795157480314961
 30
0.0
 10
0.0569842519685039
 20
-0.8795157480314961
 30
0.0
 10
0.0569842519685039
 20
-1.254511811023622
 30
0.0
 10
0.0569842519685039
 20
-1.254511811023622
 30
0.0
 10
0.0569842519685039
 20
-1.254511811023622
 30
0.0
 10
0.0569842519685039
 20
-1.254511811023622
 30
0.0
 10
-0.1930157480314961
 20
-1.254511811023622
 30
0.0
 10
-0.1930157480314961
 20
-1.254511811023622
 30
0.0
 10
-0.1930157480314961
 20
-1.254511811023622
 30
0.0
 10
-0.1930157480314961
 20
-1.254511811023622
 30
0.0
 10
-0.1930157480314961
 20
-1.583511811023622
 30
0.0
 10
-0.1930157480314961
 20
-1.583511811023622
 30
0.0
 10
-0.1930157480314961
 20
-1.583511811023622
 30
0.0
 10
-0.1930157480314961
 20
-1.583511811023622
 30
0.0
 10
-1.482523622047244
 20
-1.583511811023622
 30
0.0
 10
-1.482523622047244
 20
-1.583511811023622
 30
0.0
  0
SPLINE
  5
2D
330
1F
100
AcDbEntity
  8
LAYER_1
 62
   250
100
AcDbSpline
210
0.0
220
0.0
230
1.0
 70
    11
 71
     3
 72
   104
 73
   100
 74
     0
 42
0.0000000001
 43
0.0000000001
 40
0.0
 40
0.0
 40
0.0
 40
0.0
 40
0.04
 40
0.04
 40
0.04
 40
0.04
 40
0.08
 40
0.08
 40
0.08
 40
0.08
 40
0.12
 40
0.12
 40
0.12
 40
0.12
 40
0.16
 40
0.16
 40
0.16
 40
0.16
 40
0.2
 40
0.2
 40
0.2
 40
0.2
 40
0.24
 40
0.24
 40
0.24
 40
0.24
 40
0.28
 40
0.28
 40
0.28
 40
0.28
 40
0.32
 40
0.32
 40
0.32
 40
0.32
 40
0.36
 40
0.36
 40
0.36
 40
0.36
 40
0.4
 40
0.4
 40
0.4
 40
0.4
 40
0.44
 40
0.44
 40
0.44
 40
0.44
 40
0.4799999999999999
 40
0.4799999999999999
 40
0.4799999999999999
 40
0.4799999999999999
 40
0.5199999999999999
 40
0.5199999999999999
 40
0.5199999999999999
 40
0.5199999999999999
 40
0.5599999999999999
 40
0.5599999999999999
 40
0.5599999999999999
 40
0.5599999999999999
 40
0.6
 40
0.6
 40
0.6
 40
0.6
 40
0.64
 40
0.64
 40
0.64
 40
0.64
 40
0.6800000000000001
 40
0.6800000000000001
 40
0.6800000000000001
 40
0.6800000000000001
 40
0.7200000000000001
 40
0.7200000000000001
 40
0.7200000000000001
 40
0.7200000000000001
 40
0.7600000000000001
 40
0.7600000000000001
 40
0.7600000000000001
 40
0.7600000000000001
 40
0.8000000000000002
 40
0.8000000000000002
 40
0.8000000000000002
 40
0.8000000000000002
 40
0.8400000000000002
 40
0.8400000000000002
 40
0.8400000000000002
 40
0.8400000000000002
 40
0.8800000000000002
 40
0.8800000000000002
 40
0.8800000000000002
 40
0.8800000000000002
 40
0.9200000000000003
 40
0.9200000000000003
 40
0.9200000000000003
 40
0.9200000000000003
 40
0.9600000000000003
 40
0.9600000000000003
 40
0.9600000000000003
 40
0.9600000000000003
 40
1.0
 40
1.0
 40
1.0
 40
1.0
 10
-1.014736220472441
 20
-1.688141732283465
 30
0.0
 10
-1.014736220472441
 20
-1.688141732283465
 30
0.0
 10
-0.9607637795275591
 20
-1.688141732283465
 30
0.0
 10
-0.9607637795275591
 20
-1.688141732283465
 30
0.0
 10
-0.9607637795275591
 20
-1.688141732283465
 30
0.0
 10
-0.9475944881889764
 20
-1.688141732283465
 30
0.0
 10
-0.9385669291338583
 20
-1.688751968503937
 30
0.0
 10
-0.9336811023622048
 20
-1.689948818897638
 30
0.0
 10
-0.9336811023622048
 20
-1.689948818897638
 30
0.0
 10
-0.9264566929133858
 20
-1.691669291338583
 30
0.0
 10
-0.9207637795275591
 20
-1.694807086614173
 30
0.0
 10
-0.9165393700787402
 20
-1.699366141732284
 30
0.0
 10
-0.9165393700787402
 20
-1.699366141732284
 30
0.0
 10
-0.9123464566929134
 20
-1.70392125984252
 30
0.0
 10
-0.910236220472441
 20
-1.70942125984252
 30
0.0
 10
-0.910236220472441
 20
-1.715807086614173
 30
0.0
 10
-0.910236220472441
 20
-1.715807086614173
 30
0.0
 10
-0.910236220472441
 20
-1.72042125984252
 30
0.0
 10
-0.9113464566929134
 20
-1.72455905511811
 30
0.0
 10
-0.9135669291338583
 20
-1.728224409448819
 30
0.0
 10
-0.9135669291338583
 20
-1.728224409448819
 30
0.0
 10
-0.9157913385826773
 20
-1.731893700787402
 30
0.0
 10
-0.9190393700787402
 20
-1.735031496062992
 30
0.0
 10
-0.9232637795275591
 20
-1.737614173228347
 30
0.0
 10
-0.9232637795275591
 20
-1.737614173228347
 30
0.0
 10
-0.925984251968504
 20
-1.739307086614173
 30
0.0
 10
-0.9296535433070866
 20
-1.740751968503937
 30
0.0
 10
-0.9343188976377953
 20
-1.741948818897638
 30
0.0
 10
-0.9343188976377953
 20
-1.741948818897638
 30
0.0
 10
-0.9284015748031497
 20
-1.743031496062992
 30
0.0
 10
-0.9239015748031496
 20
-1.744334645669291
 30
0.0
 10
-0.9208188976377953
 20
-1.745834645669292
 30
0.0
 10
-0.9208188976377953
 20
-1.745834645669292
 30
0.0
 10
-0.9161535433070867
 20
-1.748114173228347
 30
0.0
 10
-0.9124566929133858
 20
-1.75136220472441
 30
0.0
 10
-0.9097637795275591
 20
-1.755614173228347
 30
0.0
 10
-0.9097637795275591
 20
-1.755614173228347
 30
0.0
 10
-0.9070393700787401
 20
-1.759834645669292
 30
0.0
 10
-0.9056811023622048
 20
-1.764614173228347
 30
0.0
 10
-0.9056811023622048
 20
-1.76992125984252
 30
0.0
 10
-0.9056811023622048
 20
-1.76992125984252
 30
0.0
 10
-0.9056811023622048
 20
-1.775086614173228
 30
0.0
 10
-0.9070118110236221
 20
-1.77986220472441
 30
0.0
 10
-0.9096811023622048
 20
-1.784251968503937
 30
0.0
 10
-0.9096811023622048
 20
-1.784251968503937
 30
0.0
 10
-0.9123188976377953
 20
-1.788641732283465
 30
0.0
 10
-0.9160944881889764
 20
-1.792251968503937
 30
0.0
 10
-0.9209291338582678
 20
-1.795086614173229
 30
0.0
 10
-0.9209291338582678
 20
-1.795086614173229
 30
0.0
 10
-0.9257913385826772
 20
-1.797889763779528
 30
0.0
 10
-0.9314566929133858
 20
-1.799696850393701
 30
0.0
 10
-0.9379015748031496
 20
-1.800503937007874
 30
0.0
 10
-0.9379015748031496
 20
-1.800503937007874
 30
0.0
 10
-0.9443740157480315
 20
-1.801279527559055
 30
0.0
 10
-0.9510118110236221
 20
-1.801669291338583
 30
0.0
 10
-0.9578464566929135
 20
-1.801669291338583
 30
0.0
 10
-0.9578464566929135
 20
-1.801669291338583
 30
0.0
 10
-0.9578464566929135
 20
-1.801669291338583
 30
0.0
 10
-1.014736220472441
 20
-1.801669291338583
 30
0.0
 10
-1.014736220472441
 20
-1.801669291338583
 30
0.0
 10
-1.014736220472441
 20
-1.801669291338583
 30
0.0
 10
-1.014736220472441
 20
-1.801669291338583
 30
0.0
 10
-1.014736220472441
 20
-1.794834645669291
 30
0.0
 10
-1.014736220472441
 20
-1.794834645669291
 30
0.0
 10
-1.014736220472441
 20
-1.794834645669291
 30
0.0
 10
-1.014736220472441
 20
-1.794834645669291
 30
0.0
 10
-1.01090157480315
 20
-1.794834645669291
 30
0.0
 10
-1.01090157480315
 20
-1.794834645669291
 30
0.0
 10
-1.01090157480315
 20
-1.794834645669291
 30
0.0
 10
-1.007204724409449
 20
-1.794834645669291
 30
0.0
 10
-1.004704724409449
 20
-1.794251968503937
 30
0.0
 10
-1.003346456692913
 20
-1.793114173228346
 30
0.0
 10
-1.003346456692913
 20
-1.793114173228346
 30
0.0
 10
-1.001374015748032
 20
-1.79155905511811
 30
0.0
 10
-1.00040157480315
 20
-1.788948818897638
 30
0.0
 10
-1.00040157480315
 20
-1.785307086614173
 30
0.0
 10
-1.00040157480315
 20
-1.785307086614173
 30
0.0
 10
-1.00040157480315
 20
-1.785307086614173
 30
0.0
 10
-1.00040157480315
 20
-1.706448818897638
 30
0.0
 10
-1.00040157480315
 20
-1.706448818897638
 30
0.0
 10
-1.00040157480315
 20
-1.706448818897638
 30
0.0
 10
-1.00040157480315
 20
-1.702751968503937
 30
0.0
 10
-1.000704724409449
 20
-1.700251968503937
 30
0.0
 10
-1.001291338582677
 20
-1.698893700787402
 30
0.0
 10
-1.001291338582677
 20
-1.698893700787402
 30
0.0
 10
-1.00190157480315
 20
-1.697531496062992
 30
0.0
 10
-1.002791338582677
 20
-1.69655905511811
 30
0.0
 10
-1.003984251968504
 20
-1.695948818897638
 30
0.0
 10
-1.003984251968504
 20
-1.695948818897638
 30
0.0
 10
-1.005177165354331
 20
-1.695366141732284
 30
0.0
 10
-1.007484251968504
 20
-1.69505905511811
 30
0.0
 10
-1.01090157480315
 20
-1.69505905511811
 30
0.0
 10
-1.01090157480315
 20
-1.69505905511811
 30
0.0
 10
-1.01090157480315
 20
-1.69505905511811
 30
0.0
 10
-1.014736220472441
 20
-1.69505905511811
 30
0.0
 10
-1.014736220472441
 20
-1.69505905511811
 30
0.0
 10
-1.014736220472441
 20
-1.69505905511811
 30
0.0
 10
-1.014736220472441
 20
-1.69505905511811
 30
0.0
 10
-1.014736220472441
 20
-1.688141732283465
 30
0.0
 10
-1.014736220472441
 20
-1.688141732283465
 30
0.0
  0
SPLINE
  5
2E
330
1F
100
AcDbEntity
  8
LAYER_1
 62
   250
100
AcDbSpline
210
0.0
220
0.0
230
1.0
 70
    11
 71
     3
 72
    40
 73
    36
 74
     0
 42
0.0000000001
 43
0.0000000001
 40
0.0
 40
0.0
 40
0.0
 40
0.0
 40
0.1111111111111111
 40
0.1111111111111111
 40
0.1111111111111111
 40
0.1111111111111111
 40
0.2222222222222222
 40
0.2222222222222222
 40
0.2222222222222222
 40
0.2222222222222222
 40
0.3333333333333333
 40
0.3333333333333333
 40
0.3333333333333333
 40
0.3333333333333333
 40
0.4444444444444444
 40
0.4444444444444444
 40
0.4444444444444444
 40
0.4444444444444444
 40
0.5555555555555556
 40
0.5555555555555556
 40
0.5555555555555556
 40
0.5555555555555556
 40
0.6666666666666667
 40
0.6666666666666667
 40
0.6666666666666667
 40
0.6666666666666667
 40
0.7777777777777779
 40
0.7777777777777779
 40
0.7777777777777779
 40
0.7777777777777779
 40
0.8888888888888891
 40
0.8888888888888891
 40
0.8888888888888891
 40
0.8888888888888891
 40
1.0
 40
1.0
 40
1.0
 40
1.0
 10
-0.9851771653543308
 20
-1.697169291338583
 30
0.0
 10
-0.9851771653543308
 20
-1.697169291338583
 30
0.0
 10
-0.9851771653543308
 20
-1.738751968503937
 30
0.0
 10
-0.9851771653543308
 20
-1.738751968503937
 30
0.0
 10
-0.9851771653543308
 20
-1.738751968503937
 30
0.0
 10
-0.9851771653543308
 20
-1.738751968503937
 30
0.0
 10
-0.9644291338582678
 20
-1.738751968503937
 30
0.0
 10
-0.9644291338582678
 20
-1.738751968503937
 30
0.0
 10
-0.9644291338582678
 20
-1.738751968503937
 30
0.0
 10
-0.954736220472441
 20
-1.738751968503937
 30
0.0
 10
-0.9480669291338583
 20
-1.738307086614173
 30
0.0
 10
-0.944511811023622
 20
-1.737393700787402
 30
0.0
 10
-0.944511811023622
 20
-1.737393700787402
 30
0.0
 10
-0.9389015748031496
 20
-1.73592125984252
 30
0.0
 10
-0.9346535433070866
 20
-1.73342125984252
 30
0.0
 10
-0.9316811023622048
 20
-1.729893700787402
 30
0.0
 10
-0.9316811023622048
 20
-1.729893700787402
 30
0.0
 10
-0.928736220472441
 20
-1.726366141732284
 30
0.0
 10
-0.927236220472441
 20
-1.721834645669292
 30
0.0
 10
-0.927236220472441
 20
-1.716307086614173
 30
0.0
 10
-0.927236220472441
 20
-1.716307086614173
 30
0.0
 10
-0.927236220472441
 20
-1.711641732283465
 30
0.0
 10
-0.9285944881889764
 20
-1.707751968503937
 30
0.0
 10
-0.9312637795275591
 20
-1.704614173228347
 30
0.0
 10
-0.9312637795275591
 20
-1.704614173228347
 30
0.0
 10
-0.9339566929133859
 20
-1.701503937007874
 30
0.0
 10
-0.9375669291338583
 20
-1.699366141732284
 30
0.0
 10
-0.9420669291338583
 20
-1.698224409448819
 30
0.0
 10
-0.9420669291338583
 20
-1.698224409448819
 30
0.0
 10
-0.944984251968504
 20
-1.697531496062992
 30
0.0
 10
-0.9510669291338583
 20
-1.697169291338583
 30
0.0
 10
-0.9602913385826772
 20
-1.697169291338583
 30
0.0
 10
-0.9602913385826772
 20
-1.697169291338583
 30
0.0
 10
-0.9602913385826772
 20
-1.697169291338583
 30
0.0
 10
-0.9851771653543308
 20
-1.697169291338583
 30
0.0
 10
-0.9851771653543308
 20
-1.697169291338583
 30
0.0
  0
SPLINE
  5
2F
330
1F
100
AcDbEntity
  8
LAYER_1
 62
   250
100
AcDbSpline
210
0.0
220
0.0
230
1.0
 70
    11
 71
     3
 72
    52
 73
    48
 74
     0
 42
0.0000000001
 43
0.0000000001
 40
0.0
 40
0.0
 40
0.0
 40
0.0
 40
0.0833333333333333
 40
0.0833333333333333
 40
0.0833333333333333
 40
0.0833333333333333
 40
0.1666666666666667
 40
0.1666666666666667
 40
0.1666666666666667
 40
0.1666666666666667
 40
0.25
 40
0.25
 40
0.25
 40
0.25
 40
0.3333333333333333
 40
0.3333333333333333
 40
0.3333333333333333
 40
0.3333333333333333
 40
0.4166666666666666
 40
0.4166666666666666
 40
0.4166666666666666
 40
0.4166666666666666
 40
0.4999999999999999
 40
0.4999999999999999
 40
0.4999999999999999
 40
0.4999999999999999
 40
0.5833333333333333
 40
0.5833333333333333
 40
0.5833333333333333
 40
0.5833333333333333
 40
0.6666666666666666
 40
0.6666666666666666
 40
0.6666666666666666
 40
0.6666666666666666
 40
0.75
 40
0.75
 40
0.75
 40
0.75
 40
0.8333333333333334
 40
0.8333333333333334
 40
0.8333333333333334
 40
0.8333333333333334
 40
0.9166666666666667
 40
0.9166666666666667
 40
0.9166666666666667
 40
0.9166666666666667
 40
1.0
 40
1.0
 40
1.0
 40
1.0
 10
-0.9851771653543308
 20
-1.746586614173229
 30
0.0
 10
-0.9851771653543308
 20
-1.746586614173229
 30
0.0
 10
-0.9851771653543308
 20
-1.783834645669292
 30
0.0
 10
-0.9851771653543308
 20
-1.783834645669292
 30
0.0
 10
-0.9851771653543308
 20
-1.783834645669292
 30
0.0
 10
-0.9851771653543308
 20
-1.787586614173228
 30
0.0
 10
-0.9850118110236221
 20
-1.789807086614173
 30
0.0
 10
-0.9847086614173228
 20
-1.790531496062992
 30
0.0
 10
-0.9847086614173228
 20
-1.790531496062992
 30
0.0
 10
-0.9842637795275591
 20
-1.791503937007874
 30
0.0
 10
-0.9834015748031496
 20
-1.792169291338583
 30
0.0
 10
-0.9820944881889764
 20
-1.79255905511811
 30
0.0
 10
-0.9820944881889764
 20
-1.79255905511811
 30
0.0
 10
-0.9811771653543308
 20
-1.792834645669291
 30
0.0
 10
-0.9785669291338583
 20
-1.792976377952756
 30
0.0
 10
-0.9742913385826773
 20
-1.792976377952756
 30
0.0
 10
-0.9742913385826773
 20
-1.792976377952756
 30
0.0
 10
-0.9742913385826773
 20
-1.792976377952756
 30
0.0
 10
-0.9632086614173229
 20
-1.792976377952756
 30
0.0
 10
-0.9632086614173229
 20
-1.792976377952756
 30
0.0
 10
-0.9632086614173229
 20
-1.792976377952756
 30
0.0
 10
-0.9522637795275591
 20
-1.792976377952756
 30
0.0
 10
-0.9444291338582678
 20
-1.792362204724409
 30
0.0
 10
-0.939736220472441
 20
-1.791141732283465
 30
0.0
 10
-0.939736220472441
 20
-1.791141732283465
 30
0.0
 10
-0.9350393700787402
 20
-1.78992125984252
 30
0.0
 10
-0.9310393700787402
 20
-1.787334645669291
 30
0.0
 10
-0.927736220472441
 20
-1.783389763779528
 30
0.0
 10
-0.927736220472441
 20
-1.783389763779528
 30
0.0
 10
-0.9244291338582678
 20
-1.779476377952756
 30
0.0
 10
-0.9227637795275591
 20
-1.774724409448819
 30
0.0
 10
-0.9227637795275591
 20
-1.769196850393701
 30
0.0
 10
-0.9227637795275591
 20
-1.769196850393701
 30
0.0
 10
-0.9227637795275591
 20
-1.764531496062992
 30
0.0
 10
-0.9241220472440945
 20
-1.760393700787402
 30
0.0
 10
-0.9267913385826772
 20
-1.756779527559055
 30
0.0
 10
-0.9267913385826772
 20
-1.756779527559055
 30
0.0
 10
-0.9294842519685039
 20
-1.753169291338583
 30
0.0
 10
-0.9332086614173228
 20
-1.750586614173229
 30
0.0
 10
-0.9379566929133859
 20
-1.748976377952756
 30
0.0
 10
-0.9379566929133859
 20
-1.748976377952756
 30
0.0
 10
-0.9427086614173229
 20
-1.74736220472441
 30
0.0
 10
-0.9511220472440946
 20
-1.746586614173229
 30
0.0
 10
-0.9632086614173229
 20
-1.746586614173229
 30
0.0
 10
-0.9632086614173229
 20
-1.746586614173229
 30
0.0
 10
-0.9632086614173229
 20
-1.746586614173229
 30
0.0
 10
-0.9851771653543308
 20
-1.746586614173229
 30
0.0
 10
-0.9851771653543308
 20
-1.746586614173229
 30
0.0
  0
SPLINE
  5
30
330
1F
100
AcDbEntity
  8
LAYER_1
 62
   250
100
AcDbSpline
210
0.0
220
0.0
230
1.0
 70
    11
 71
     3
 72
   112
 73
   108
 74
     0
 42
0.0000000001
 43
0.0000000001
 40
0.0
 40
0.0
 40
0.0
 40
0.0
 40
0.037037037037037
 40
0.037037037037037
 40
0.037037037037037
 40
0.037037037037037
 40
0.0740740740740741
 40
0.0740740740740741
 40
0.0740740740740741
 40
0.0740740740740741
 40
0.1111111111111111
 40
0.1111111111111111
 40
0.1111111111111111
 40
0.1111111111111111
 40
0.1481481481481481
 40
0.1481481481481481
 40
0.1481481481481481
 40
0.1481481481481481
 40
0.1851851851851852
 40
0.1851851851851852
 40
0.1851851851851852
 40
0.1851851851851852
 40
0.2222222222222222
 40
0.2222222222222222
 40
0.2222222222222222
 40
0.2222222222222222
 40
0.2592592592592592
 40
0.2592592592592592
 40
0.2592592592592592
 40
0.2592592592592592
 40
0.2962962962962963
 40
0.2962962962962963
 40
0.2962962962962963
 40
0.2962962962962963
 40
0.3333333333333333
 40
0.3333333333333333
 40
0.3333333333333333
 40
0.3333333333333333
 40
0.3703703703703704
 40
0.3703703703703704
 40
0.3703703703703704
 40
0.3703703703703704
 40
0.4074074074074074
 40
0.4074074074074074
 40
0.4074074074074074
 40
0.4074074074074074
 40
0.4444444444444444
 40
0.4444444444444444
 40
0.4444444444444444
 40
0.4444444444444444
 40
0.4814814814814815
 40
0.4814814814814815
 40
0.4814814814814815
 40
0.4814814814814815
 40
0.5185185185185185
 40
0.5185185185185185
 40
0.5185185185185185
 40
0.5185185185185185
 40
0.5555555555555556
 40
0.5555555555555556
 40
0.5555555555555556
 40
0.5555555555555556
 40
0.5925925925925926
 40
0.5925925925925926
 40
0.5925925925925926
 40
0.5925925925925926
 40
0.6296296296296295
 40
0.6296296296296295
 40
0.6296296296296295
 40
0.6296296296296295
 40
0.6666666666666665
 40
0.6666666666666665
 40
0.6666666666666665
 40
0.6666666666666665
 40
0.7037037037037035
 40
0.7037037037037035
 40
0.7037037037037035
 40
0.7037037037037035
 40
0.7407407407407405
 40
0.7407407407407405
 40
0.7407407407407405
 40
0.7407407407407405
 40
0.7777777777777775
 40
0.7777777777777775
 40
0.7777777777777775
 40
0.7777777777777775
 40
0.8148148148148144
 40
0.8148148148148144
 40
0.8148148148148144
 40
0.8148148148148144
 40
0.8518518518518514
 40
0.8518518518518514
 40
0.8518518518518514
 40
0.8518518518518514
 40
0.8888888888888884
 40
0.8888888888888884
 40
0.8888888888888884
 40
0.8888888888888884
 40
0.9259259259259254
 40
0.9259259259259254
 40
0.9259259259259254
 40
0.9259259259259254
 40
0.9629629629629624
 40
0.9629629629629624
 40
0.9629629629629624
 40
0.9629629629629624
 40
1.0
 40
1.0
 40
1.0
 40
1.0
 10
-0.8480708661417323
 20
-1.688141732283465
 30
0.0
 10
-0.8480708661417323
 20
-1.688141732283465
 30
0.0
 10
-0.8346535433070866
 20
-1.688141732283465
 30
0.0
 10
-0.8346535433070866
 20
-1.688141732283465
 30
0.0
 10
-0.8346535433070866
 20
-1.688141732283465
 30
0.0
 10
-0.8346535433070866
 20
-1.688141732283465
 30
0.0
 10
-0.7994055118110237
 20
-1.783031496062992
 30
0.0
 10
-0.7994055118110237
 20
-1.783031496062992
 30
0.0
 10
-0.7994055118110237
 20
-1.783031496062992
 30
0.0
 10
-0.7976811023622048
 20
-1.787807086614173
 30
0.0
 10
-0.7959330708661417
 20
-1.790976377952756
 30
0.0
 10
-0.7941535433070867
 20
-1.792503937007874
 30
0.0
 10
-0.7941535433070867
 20
-1.792503937007874
 30
0.0
 10
-0.7924055118110237
 20
-1.79405905511811
 30
0.0
 10
-0.7900157480314961
 20
-1.794834645669291
 30
0.0
 10
-0.7870433070866142
 20
-1.794834645669291
 30
0.0
 10
-0.7870433070866142
 20
-1.794834645669291
 30
0.0
 10
-0.7870433070866142
 20
-1.794834645669291
 30
0.0
 10
-0.7852637795275591
 20
-1.794834645669291
 30
0.0
 10
-0.7852637795275591
 20
-1.794834645669291
 30
0.0
 10
-0.7852637795275591
 20
-1.794834645669291
 30
0.0
 10
-0.7852637795275591
 20
-1.794834645669291
 30
0.0
 10
-0.7852637795275591
 20
-1.801669291338583
 30
0.0
 10
-0.7852637795275591
 20
-1.801669291338583
 30
0.0
 10
-0.7852637795275591
 20
-1.801669291338583
 30
0.0
 10
-0.7852637795275591
 20
-1.801669291338583
 30
0.0
 10
-0.8257086614173229
 20
-1.801669291338583
 30
0.0
 10
-0.8257086614173229
 20
-1.801669291338583
 30
0.0
 10
-0.8257086614173229
 20
-1.801669291338583
 30
0.0
 10
-0.8257086614173229
 20
-1.801669291338583
 30
0.0
 10
-0.8257086614173229
 20
-1.794834645669291
 30
0.0
 10
-0.8257086614173229
 20
-1.794834645669291
 30
0.0
 10
-0.8257086614173229
 20
-1.794834645669291
 30
0.0
 10
-0.8244055118110236
 20
-1.794724409448819
 30
0.0
 10
-0.8231259842519686
 20
-1.794669291338583
 30
0.0
 10
-0.8218740157480315
 20
-1.794669291338583
 30
0.0
 10
-0.8218740157480315
 20
-1.794669291338583
 30
0.0
 10
-0.8192637795275591
 20
-1.794669291338583
 30
0.0
 10
-0.8175708661417324
 20
-1.794389763779528
 30
0.0
 10
-0.816736220472441
 20
-1.79386220472441
 30
0.0
 10
-0.816736220472441
 20
-1.79386220472441
 30
0.0
 10
-0.8151811023622048
 20
-1.792834645669291
 30
0.0
 10
-0.8143779527559055
 20
-1.791531496062992
 30
0.0
 10
-0.8143779527559055
 20
-1.789948818897638
 30
0.0
 10
-0.8143779527559055
 20
-1.789948818897638
 30
0.0
 10
-0.8143779527559055
 20
-1.788807086614173
 30
0.0
 10
-0.8151535433070867
 20
-1.786031496062992
 30
0.0
 10
-0.8166535433070866
 20
-1.78155905511811
 30
0.0
 10
-0.8166535433070866
 20
-1.78155905511811
 30
0.0
 10
-0.8166535433070866
 20
-1.78155905511811
 30
0.0
 10
-0.8241535433070867
 20
-1.759586614173228
 30
0.0
 10
-0.8241535433070867
 20
-1.759586614173228
 30
0.0
 10
-0.8241535433070867
 20
-1.759586614173228
 30
0.0
 10
-0.8241535433070867
 20
-1.759586614173228
 30
0.0
 10
-0.8653188976377954
 20
-1.759586614173228
 30
0.0
 10
-0.8653188976377954
 20
-1.759586614173228
 30
0.0
 10
-0.8653188976377954
 20
-1.759586614173228
 30
0.0
 10
-0.8653188976377954
 20
-1.759586614173228
 30
0.0
 10
-0.8741259842519685
 20
-1.784169291338583
 30
0.0
 10
-0.8741259842519685
 20
-1.784169291338583
 30
0.0
 10
-0.8741259842519685
 20
-1.784169291338583
 30
0.0
 10
-0.8750433070866142
 20
-1.786724409448819
 30
0.0
 10
-0.8755157480314961
 20
-1.788476377952756
 30
0.0
 10
-0.8755157480314961
 20
-1.789476377952756
 30
0.0
 10
-0.8755157480314961
 20
-1.789476377952756
 30
0.0
 10
-0.8755157480314961
 20
-1.79055905511811
 30
0.0
 10
-0.8752086614173229
 20
-1.791503937007874
 30
0.0
 10
-0.8746535433070867
 20
-1.792307086614173
 30
0.0
 10
-0.8746535433070867
 20
-1.792307086614173
 30
0.0
 10
-0.8740708661417324
 20
-1.793114173228346
 30
0.0
 10
-0.8733188976377954
 20
-1.793724409448819
 30
0.0
 10
-0.8723188976377954
 20
-1.794141732283465
 30
0.0
 10
-0.8723188976377954
 20
-1.794141732283465
 30
0.0
 10
-0.8713464566929134
 20
-1.79455905511811
 30
0.0
 10
-0.8697913385826772
 20
-1.794751968503937
 30
0.0
 10
-0.8675984251968504
 20
-1.794751968503937
 30
0.0
 10
-0.8675984251968504
 20
-1.794751968503937
 30
0.0
 10
-0.8661535433070866
 20
-1.794751968503937
 30
0.0
 10
-0.8649606299212599
 20
-1.794779527559055
 30
0.0
 10
-0.8640433070866143
 20
-1.794834645669291
 30
0.0
 10
-0.8640433070866143
 20
-1.794834645669291
 30
0.0
 10
-0.8640433070866143
 20
-1.794834645669291
 30
0.0
 10
-0.8640433070866143
 20
-1.801669291338583
 30
0.0
 10
-0.8640433070866143
 20
-1.801669291338583
 30
0.0
 10
-0.8640433070866143
 20
-1.801669291338583
 30
0.0
 10
-0.8640433070866143
 20
-1.801669291338583
 30
0.0
 10
-0.8979606299212599
 20
-1.801669291338583
 30
0.0
 10
-0.8979606299212599
 20
-1.801669291338583
 30
0.0
 10
-0.8979606299212599
 20
-1.801669291338583
 30
0.0
 10
-0.8979606299212599
 20
-1.801669291338583
 30
0.0
 10
-0.8979606299212599
 20
-1.794834645669291
 30
0.0
 10
-0.8979606299212599
 20
-1.794834645669291
 30
0.0
 10
-0.8979606299212599
 20
-1.794834645669291
 30
0.0
 10
-0.8948188976377953
 20
-1.794834645669291
 30
0.0
 10
-0.8925433070866142
 20
-1.794531496062992
 30
0.0
 10
-0.8911811023622047
 20
-1.793889763779528
 30
0.0
 10
-0.8911811023622047
 20
-1.793889763779528
 30
0.0
 10
-0.8897913385826772
 20
-1.793279527559055
 30
0.0
 10
-0.8885708661417323
 20
-1.792279527559055
 30
0.0
 10
-0.8875433070866142
 20
-1.790889763779528
 30
0.0
 10
-0.8875433070866142
 20
-1.790889763779528
 30
0.0
 10
-0.8865157480314961
 20
-1.789503937007874
 30
0.0
 10
-0.8851535433070866
 20
-1.786586614173229
 30
0.0
 10
-0.883488188976378
 20
-1.782141732283465
 30
0.0
 10
-0.883488188976378
 20
-1.782141732283465
 30
0.0
 10
-0.883488188976378
 20
-1.782141732283465
 30
0.0
 10
-0.8480708661417323
 20
-1.688141732283465
 30
0.0
 10
-0.8480708661417323
 20
-1.688141732283465
 30
0.0
  0
SPLINE
  5
31
330
1F
100
AcDbEntity
  8
LAYER_1
 62
   250
100
AcDbSpline
210
0.0
220
0.0
230
1.0
 70
    11
 71
     3
 72
    16
 73
    12
 74
     0
 42
0.0000000001
 43
0.0000000001
 40
0.0
 40
0.0
 40
0.0
 40
0.0
 40
0.3333333333333333
 40
0.3333333333333333
 40
0.3333333333333333
 40
0.3333333333333333
 40
0.6666666666666666
 40
0.6666666666666666
 40
0.6666666666666666
 40
0.6666666666666666
 40
1.0
 40
1.0
 40
1.0
 40
1.0
 10
-0.8623188976377954
 20
-1.751614173228347
 30
0.0
 10
-0.8623188976377954
 20
-1.751614173228347
 30
0.0
 10
-0.8272362204724409
 20
-1.751614173228347
 30
0.0
 10
-0.8272362204724409
 20
-1.751614173228347
 30
0.0
 10
-0.8272362204724409
 20
-1.751614173228347
 30
0.0
 10
-0.8272362204724409
 20
-1.751614173228347
 30
0.0
 10
-0.8448188976377953
 20
-1.702779527559055
 30
0.0
 10
-0.8448188976377953
 20
-1.702779527559055
 30
0.0
 10
-0.8448188976377953
 20
-1.702779527559055
 30
0.0
 10
-0.8448188976377953
 20
-1.702779527559055
 30
0.0
 10
-0.8623188976377954
 20
-1.751614173228347
 30
0.0
 10
-0.8623188976377954
 20
-1.751614173228347
 30
0.0
  0
SPLINE
  5
32
330
1F
100
AcDbEntity
  8
LAYER_1
 62
   250
100
AcDbSpline
210
0.0
220
0.0
230
1.0
 70
    11
 71
     3
 72
    72
 73
    68
 74
     0
 42
0.0000000001
 43
0.0000000001
 40
0.0
 40
0.0
 40
0.0
 40
0.0
 40
0.0588235294117647
 40
0.0588235294117647
 40
0.0588235294117647
 40
0.0588235294117647
 40
0.1176470588235294
 40
0.1176470588235294
 40
0.1176470588235294
 40
0.1176470588235294
 40
0.1764705882352941
 40
0.1764705882352941
 40
0.1764705882352941
 40
0.1764705882352941
 40
0.2352941176470588
 40
0.2352941176470588
 40
0.2352941176470588
 40
0.2352941176470588
 40
0.2941176470588235
 40
0.2941176470588235
 40
0.2941176470588235
 40
0.2941176470588235
 40
0.3529411764705883
 40
0.3529411764705883
 40
0.3529411764705883
 40
0.3529411764705883
 40
0.411764705882353
 40
0.411764705882353
 40
0.411764705882353
 40
0.411764705882353
 40
0.4705882352941177
 40
0.4705882352941177
 40
0.4705882352941177
 40
0.4705882352941177
 40
0.5294117647058824
 40
0.5294117647058824
 40
0.5294117647058824
 40
0.5294117647058824
 40
0.5882352941176471
 40
0.5882352941176471
 40
0.5882352941176471
 40
0.5882352941176471
 40
0.6470588235294118
 40
0.6470588235294118
 40
0.6470588235294118
 40
0.6470588235294118
 40
0.7058823529411765
 40
0.7058823529411765
 40
0.7058823529411765
 40
0.7058823529411765
 40
0.7647058823529412
 40
0.7647058823529412
 40
0.7647058823529412
 40
0.7647058823529412
 40
0.823529411764706
 40
0.823529411764706
 40
0.823529411764706
 40
0.823529411764706
 40
0.8823529411764707
 40
0.8823529411764707
 40
0.8823529411764707
 40
0.8823529411764707
 40
0.9411764705882354
 40
0.9411764705882354
 40
0.9411764705882354
 40
0.9411764705882354
 40
1.0
 40
1.0
 40
1.0
 40
1.0
 10
-0.622236220472441
 20
-1.688141732283465
 30
0.0
 10
-0.622236220472441
 20
-1.688141732283465
 30
0.0
 10
-0.6161535433070866
 20
-1.688141732283465
 30
0.0
 10
-0.6161535433070866
 20
-1.688141732283465
 30
0.0
 10
-0.6161535433070866
 20
-1.688141732283465
 30
0.0
 10
-0.6161535433070866
 20
-1.688141732283465
 30
0.0
 10
-0.6161535433070866
 20
-1.782389763779528
 30
0.0
 10
-0.6161535433070866
 20
-1.782389763779528
 30
0.0
 10
-0.6161535433070866
 20
-1.782389763779528
 30
0.0
 10
-0.6161535433070866
 20
-1.786834645669291
 30
0.0
 10
-0.6158464566929134
 20
-1.789696850393701
 30
0.0
 10
-0.6152913385826772
 20
-1.790976377952756
 30
0.0
 10
-0.6152913385826772
 20
-1.790976377952756
 30
0.0
 10
-0.6147086614173228
 20
-1.792251968503937
 30
0.0
 10
-0.6137913385826772
 20
-1.793196850393701
 30
0.0
 10
-0.612488188976378
 20
-1.79386220472441
 30
0.0
 10
-0.612488188976378
 20
-1.79386220472441
 30
0.0
 10
-0.6111811023622048
 20
-1.794503937007874
 30
0.0
 10
-0.6085984251968504
 20
-1.794834645669291
 30
0.0
 10
-0.604736220472441
 20
-1.794834645669291
 30
0.0
 10
-0.604736220472441
 20
-1.794834645669291
 30
0.0
 10
-0.604736220472441
 20
-1.794834645669291
 30
0.0
 10
-0.5967637795275591
 20
-1.794834645669291
 30
0.0
 10
-0.5967637795275591
 20
-1.794834645669291
 30
0.0
 10
-0.5967637795275591
 20
-1.794834645669291
 30
0.0
 10
-0.5967637795275591
 20
-1.794834645669291
 30
0.0
 10
-0.5967637795275591
 20
-1.801669291338583
 30
0.0
 10
-0.5967637795275591
 20
-1.801669291338583
 30
0.0
 10
-0.5967637795275591
 20
-1.801669291338583
 30
0.0
 10
-0.5967637795275591
 20
-1.801669291338583
 30
0.0
 10
-0.6504015748031496
 20
-1.801669291338583
 30
0.0
 10
-0.6504015748031496
 20
-1.801669291338583
 30
0.0
 10
-0.6504015748031496
 20
-1.801669291338583
 30
0.0
 10
-0.6504015748031496
 20
-1.801669291338583
 30
0.0
 10
-0.6504015748031496
 20
-1.794834645669291
 30
0.0
 10
-0.6504015748031496
 20
-1.794834645669291
 30
0.0
 10
-0.6504015748031496
 20
-1.794834645669291
 30
0.0
 10
-0.6504015748031496
 20
-1.794834645669291
 30
0.0
 10
-0.6415433070866142
 20
-1.794834645669291
 30
0.0
 10
-0.6415433070866142
 20
-1.794834645669291
 30
0.0
 10
-0.6415433070866142
 20
-1.794834645669291
 30
0.0
 10
-0.6376811023622048
 20
-1.794834645669291
 30
0.0
 10
-0.6351259842519685
 20
-1.794503937007874
 30
0.0
 10
-0.6338464566929134
 20
-1.793807086614173
 30
0.0
 10
-0.6338464566929134
 20
-1.793807086614173
 30
0.0
 10
-0.6325708661417323
 20
-1.793141732283465
 30
0.0
 10
-0.6315708661417323
 20
-1.79205905511811
 30
0.0
 10
-0.6308740157480315
 20
-1.79055905511811
 30
0.0
 10
-0.6308740157480315
 20
-1.79055905511811
 30
0.0
 10
-0.6301811023622047
 20
-1.78905905511811
 30
0.0
 10
-0.6298188976377953
 20
-1.786334645669292
 30
0.0
 10
-0.6298188976377953
 20
-1.782389763779528
 30
0.0
 10
-0.6298188976377953
 20
-1.782389763779528
 30
0.0
 10
-0.6298188976377953
 20
-1.782389763779528
 30
0.0
 10
-0.6298188976377953
 20
-1.70492125984252
 30
0.0
 10
-0.6298188976377953
 20
-1.70492125984252
 30
0.0
 10
-0.6298188976377953
 20
-1.70492125984252
 30
0.0
 10
-0.6298188976377953
 20
-1.70492125984252
 30
0.0
 10
-0.6504015748031496
 20
-1.70492125984252
 30
0.0
 10
-0.6504015748031496
 20
-1.70492125984252
 30
0.0
 10
-0.6504015748031496
 20
-1.70492125984252
 30
0.0
 10
-0.6504015748031496
 20
-1.70492125984252
 30
0.0
 10
-0.6504015748031496
 20
-1.69792125984252
 30
0.0
 10
-0.6504015748031496
 20
-1.69792125984252
 30
0.0
 10
-0.6504015748031496
 20
-1.69792125984252
 30
0.0
 10
-0.6391811023622047
 20
-1.696338582677165
 30
0.0
 10
-0.6297913385826772
 20
-1.693086614173228
 30
0.0
 10
-0.622236220472441
 20
-1.688141732283465
 30
0.0
  0
SPLINE
  5
33
330
1F
100
AcDbEntity
  8
LAYER_1
 62
   250
100
AcDbSpline
210
0.0
220
0.0
230
1.0
 70
    11
 71
     3
 72
    80
 73
    76
 74
     0
 42
0.0000000001
 43
0.0000000001
 40
0.0
 40
0.0
 40
0.0
 40
0.0
 40
0.0526315789473684
 40
0.0526315789473684
 40
0.0526315789473684
 40
0.0526315789473684
 40
0.1052631578947368
 40
0.1052631578947368
 40
0.1052631578947368
 40
0.1052631578947368
 40
0.1578947368421053
 40
0.1578947368421053
 40
0.1578947368421053
 40
0.1578947368421053
 40
0.2105263157894737
 40
0.2105263157894737
 40
0.2105263157894737
 40
0.2105263157894737
 40
0.2631578947368421
 40
0.2631578947368421
 40
0.2631578947368421
 40
0.2631578947368421
 40
0.3157894736842105
 40
0.3157894736842105
 40
0.3157894736842105
 40
0.3157894736842105
 40
0.3684210526315789
 40
0.3684210526315789
 40
0.3684210526315789
 40
0.3684210526315789
 40
0.4210526315789474
 40
0.4210526315789474
 40
0.4210526315789474
 40
0.4210526315789474
 40
0.4736842105263158
 40
0.4736842105263158
 40
0.4736842105263158
 40
0.4736842105263158
 40
0.5263157894736842
 40
0.5263157894736842
 40
0.5263157894736842
 40
0.5263157894736842
 40
0.5789473684210527
 40
0.5789473684210527
 40
0.5789473684210527
 40
0.5789473684210527
 40
0.631578947368421
 40
0.631578947368421
 40
0.631578947368421
 40
0.631578947368421
 40
0.6842105263157894
 40
0.6842105263157894
 40
0.6842105263157894
 40
0.6842105263157894
 40
0.7368421052631577
 40
0.7368421052631577
 40
0.7368421052631577
 40
0.7368421052631577
 40
0.7894736842105261
 40
0.7894736842105261
 40
0.7894736842105261
 40
0.7894736842105261
 40
0.8421052631578945
 40
0.8421052631578945
 40
0.8421052631578945
 40
0.8421052631578945
 40
0.8947368421052628
 40
0.8947368421052628
 40
0.8947368421052628
 40
0.8947368421052628
 40
0.9473684210526312
 40
0.9473684210526312
 40
0.9473684210526312
 40
0.9473684210526312
 40
1.0
 40
1.0
 40
1.0
 40
1.0
 10
-0.5568188976377954
 20
-1.684003937007874
 30
0.0
 10
-0.5568188976377954
 20
-1.684003937007874
 30
0.0
 10
-0.5514291338582678
 20
-1.684003937007874
 30
0.0
 10
-0.5514291338582678
 20
-1.684003937007874
 30
0.0
 10
-0.5514291338582678
 20
-1.684003937007874
 30
0.0
 10
-0.5514291338582678
 20
-1.684003937007874
 30
0.0
 10
-0.5504566929133858
 20
-1.688141732283465
 30
0.0
 10
-0.5504566929133858
 20
-1.688141732283465
 30
0.0
 10
-0.5504566929133858
 20
-1.688141732283465
 30
0.0
 10
-0.5504566929133858
 20
-1.688141732283465
 30
0.0
 10
-0.4793464566929134
 20
-1.688141732283465
 30
0.0
 10
-0.4793464566929134
 20
-1.688141732283465
 30
0.0
 10
-0.4793464566929134
 20
-1.688141732283465
 30
0.0
 10
-0.4793464566929134
 20
-1.688141732283465
 30
0.0
 10
-0.4793464566929134
 20
-1.69505905511811
 30
0.0
 10
-0.4793464566929134
 20
-1.69505905511811
 30
0.0
 10
-0.4793464566929134
 20
-1.69505905511811
 30
0.0
 10
-0.4878464566929134
 20
-1.704893700787402
 30
0.0
 10
-0.4955708661417323
 20
-1.71605905511811
 30
0.0
 10
-0.502484251968504
 20
-1.728641732283465
 30
0.0
 10
-0.502484251968504
 20
-1.728641732283465
 30
0.0
 10
-0.5094015748031496
 20
-1.741196850393701
 30
0.0
 10
-0.514763779527559
 20
-1.753976377952756
 30
0.0
 10
-0.5185708661417323
 20
-1.767003937007874
 30
0.0
 10
-0.5185708661417323
 20
-1.767003937007874
 30
0.0
 10
-0.5213188976377953
 20
-1.776389763779528
 30
0.0
 10
-0.5235669291338583
 20
-1.787948818897638
 30
0.0
 10
-0.5253188976377953
 20
-1.801669291338583
 30
0.0
 10
-0.5253188976377953
 20
-1.801669291338583
 30
0.0
 10
-0.5253188976377953
 20
-1.801669291338583
 30
0.0
 10
-0.541984251968504
 20
-1.801669291338583
 30
0.0
 10
-0.541984251968504
 20
-1.801669291338583
 30
0.0
 10
-0.541984251968504
 20
-1.801669291338583
 30
0.0
 10
-0.5403740157480316
 20
-1.78955905511811
 30
0.0
 10
-0.5377086614173229
 20
-1.778251968503937
 30
0.0
 10
-0.533984251968504
 20
-1.767724409448819
 30
0.0
 10
-0.533984251968504
 20
-1.767724409448819
 30
0.0
 10
-0.5302637795275591
 20
-1.757196850393701
 30
0.0
 10
-0.5249015748031496
 20
-1.746196850393701
 30
0.0
 10
-0.5178740157480315
 20
-1.734724409448819
 30
0.0
 10
-0.5178740157480315
 20
-1.734724409448819
 30
0.0
 10
-0.5108464566929134
 20
-1.723251968503937
 30
0.0
 10
-0.5023188976377953
 20
-1.711807086614173
 30
0.0
 10
-0.4922637795275591
 20
-1.700366141732284
 30
0.0
 10
-0.4922637795275591
 20
-1.700366141732284
 30
0.0
 10
-0.4922637795275591
 20
-1.700366141732284
 30
0.0
 10
-0.542984251968504
 20
-1.700366141732284
 30
0.0
 10
-0.542984251968504
 20
-1.700366141732284
 30
0.0
 10
-0.542984251968504
 20
-1.700366141732284
 30
0.0
 10
-0.5466535433070866
 20
-1.700366141732284
 30
0.0
 10
-0.5491811023622047
 20
-1.700531496062992
 30
0.0
 10
-0.5505393700787402
 20
-1.70092125984252
 30
0.0
 10
-0.5505393700787402
 20
-1.70092125984252
 30
0.0
 10
-0.5519015748031496
 20
-1.701307086614173
 30
0.0
 10
-0.5529566929133859
 20
-1.701893700787402
 30
0.0
 10
-0.5537086614173229
 20
-1.702696850393701
 30
0.0
 10
-0.5537086614173229
 20
-1.702696850393701
 30
0.0
 10
-0.5544842519685039
 20
-1.703531496062992
 30
0.0
 10
-0.5551259842519686
 20
-1.704976377952756
 30
0.0
 10
-0.5556811023622047
 20
-1.707031496062992
 30
0.0
 10
-0.5556811023622047
 20
-1.707031496062992
 30
0.0
 10
-0.5556811023622047
 20
-1.707031496062992
 30
0.0
 10
-0.5560669291338583
 20
-1.70855905511811
 30
0.0
 10
-0.5560669291338583
 20
-1.70855905511811
 30
0.0
 10
-0.5560669291338583
 20
-1.70855905511811
 30
0.0
 10
-0.5560669291338583
 20
-1.70855905511811
 30
0.0
 10
-0.5588464566929134
 20
-1.718169291338583
 30
0.0
 10
-0.5588464566929134
 20
-1.718169291338583
 30
0.0
 10
-0.5588464566929134
 20
-1.718169291338583
 30
0.0
 10
-0.5588464566929134
 20
-1.718169291338583
 30
0.0
 10
-0.5657637795275591
 20
-1.716696850393701
 30
0.0
 10
-0.5657637795275591
 20
-1.716696850393701
 30
0.0
 10
-0.5657637795275591
 20
-1.716696850393701
 30
0.0
 10
-0.5657637795275591
 20
-1.716696850393701
 30
0.0
 10
-0.5568188976377954
 20
-1.684003937007874
 30
0.0
 10
-0.5568188976377954
 20
-1.684003937007874
 30
0.0
  0
SPLINE
  5
34
330
1F
100
AcDbEntity
  8
LAYER_1
 62
   250
100
AcDbSpline
210
0.0
220
0.0
230
1.0
 70
    11
 71
     3
 72
   132
 73
   128
 74
     0
 42
0.0000000001
 43
0.0000000001
 40
0.0
 40
0.0
 40
0.0
 40
0.0
 40
0.03125
 40
0.03125
 40
0.03125
 40
0.03125
 40
0.0625
 40
0.0625
 40
0.0625
 40
0.0625
 40
0.09375
 40
0.09375
 40
0.09375
 40
0.09375
 40
0.125
 40
0.125
 40
0.125
 40
0.125
 40
0.15625
 40
0.15625
 40
0.15625
 40
0.15625
 40
0.1875
 40
0.1875
 40
0.1875
 40
0.1875
 40
0.21875
 40
0.21875
 40
0.21875
 40
0.21875
 40
0.25
 40
0.25
 40
0.25
 40
0.25
 40
0.28125
 40
0.28125
 40
0.28125
 40
0.28125
 40
0.3125
 40
0.3125
 40
0.3125
 40
0.3125
 40
0.34375
 40
0.34375
 40
0.34375
 40
0.34375
 40
0.375
 40
0.375
 40
0.375
 40
0.375
 40
0.40625
 40
0.40625
 40
0.40625
 40
0.40625
 40
0.4375
 40
0.4375
 40
0.4375
 40
0.4375
 40
0.46875
 40
0.46875
 40
0.46875
 40
0.46875
 40
0.5
 40
0.5
 40
0.5
 40
0.5
 40
0.53125
 40
0.53125
 40
0.53125
 40
0.53125
 40
0.5625
 40
0.5625
 40
0.5625
 40
0.5625
 40
0.59375
 40
0.59375
 40
0.59375
 40
0.59375
 40
0.625
 40
0.625
 40
0.625
 40
0.625
 40
0.65625
 40
0.65625
 40
0.65625
 40
0.65625
 40
0.6875
 40
0.6875
 40
0.6875
 40
0.6875
 40
0.71875
 40
0.71875
 40
0.71875
 40
0.71875
 40
0.75
 40
0.75
 40
0.75
 40
0.75
 40
0.78125
 40
0.78125
 40
0.78125
 40
0.78125
 40
0.8125
 40
0.8125
 40
0.8125
 40
0.8125
 40
0.84375
 40
0.84375
 40
0.84375
 40
0.84375
 40
0.875
 40
0.875
 40
0.875
 40
0.875
 40
0.90625
 40
0.90625
 40
0.90625
 40
0.90625
 40
0.9375
 40
0.9375
 40
0.9375
 40
0.9375
 40
0.96875
 40
0.96875
 40
0.96875
 40
0.96875
 40
1.0
 40
1.0
 40
1.0
 40
1.0
 10
-0.4491220472440945
 20
-1.688141732283465
 30
0.0
 10
-0.4491220472440945
 20
-1.688141732283465
 30
0.0
 10
-0.398511811023622
 20
-1.688141732283465
 30
0.0
 10
-0.398511811023622
 20
-1.688141732283465
 30
0.0
 10
-0.398511811023622
 20
-1.688141732283465
 30
0.0
 10
-0.3954291338582677
 20
-1.688141732283465
 30
0.0
 10
-0.3935393700787402
 20
-1.687976377952756
 30
0.0
 10
-0.3929015748031496
 20
-1.687641732283465
 30
0.0
 10
-0.3929015748031496
 20
-1.687641732283465
 30
0.0
 10
-0.391984251968504
 20
-1.687114173228347
 30
0.0
 10
-0.3914291338582677
 20
-1.685948818897638
 30
0.0
 10
-0.3912637795275591
 20
-1.684169291338583
 30
0.0
 10
-0.3912637795275591
 20
-1.684169291338583
 30
0.0
 10
-0.3912637795275591
 20
-1.684169291338583
 30
0.0
 10
-0.3853188976377953
 20
-1.684169291338583
 30
0.0
 10
-0.3853188976377953
 20
-1.684169291338583
 30
0.0
 10
-0.3853188976377953
 20
-1.684169291338583
 30
0.0
 10
-0.3853188976377953
 20
-1.684169291338583
 30
0.0
 10
-0.3853188976377953
 20
-1.701338582677165
 30
0.0
 10
-0.3853188976377953
 20
-1.701338582677165
 30
0.0
 10
-0.3853188976377953
 20
-1.701338582677165
 30
0.0
 10
-0.3853188976377953
 20
-1.701338582677165
 30
0.0
 10
-0.4415669291338583
 20
-1.701338582677165
 30
0.0
 10
-0.4415669291338583
 20
-1.701338582677165
 30
0.0
 10
-0.4415669291338583
 20
-1.701338582677165
 30
0.0
 10
-0.4415669291338583
 20
-1.701338582677165
 30
0.0
 10
-0.4429566929133859
 20
-1.729976377952756
 30
0.0
 10
-0.4429566929133859
 20
-1.729976377952756
 30
0.0
 10
-0.4429566929133859
 20
-1.729976377952756
 30
0.0
 10
-0.4406220472440945
 20
-1.729307086614173
 30
0.0
 10
-0.4376496062992126
 20
-1.728779527559055
 30
0.0
 10
-0.4340669291338583
 20
-1.728334645669291
 30
0.0
 10
-0.4340669291338583
 20
-1.728334645669291
 30
0.0
 10
-0.4294566929133858
 20
-1.727807086614173
 30
0.0
 10
-0.4253464566929134
 20
-1.727531496062992
 30
0.0
 10
-0.4217047244094488
 20
-1.727531496062992
 30
0.0
 10
-0.4217047244094488
 20
-1.727531496062992
 30
0.0
 10
-0.4126496062992126
 20
-1.727531496062992
 30
0.0
 10
-0.4047637795275591
 20
-1.729169291338583
 30
0.0
 10
-0.398011811023622
 20
-1.73242125984252
 30
0.0
 10
-0.398011811023622
 20
-1.73242125984252
 30
0.0
 10
-0.3912913385826772
 20
-1.735669291338583
 30
0.0
 10
-0.3861811023622048
 20
-1.740141732283465
 30
0.0
 10
-0.3826811023622048
 20
-1.745807086614173
 30
0.0
 10
-0.3826811023622048
 20
-1.745807086614173
 30
0.0
 10
-0.3791811023622048
 20
-1.751476377952756
 30
0.0
 10
-0.3774291338582677
 20
-1.757807086614173
 30
0.0
 10
-0.3774291338582677
 20
-1.764807086614173
 30
0.0
 10
-0.3774291338582677
 20
-1.764807086614173
 30
0.0
 10
-0.3774291338582677
 20
-1.775641732283465
 30
0.0
 10
-0.3815118110236221
 20
-1.784834645669291
 30
0.0
 10
-0.3896496062992126
 20
-1.792362204724409
 30
0.0
 10
-0.3896496062992126
 20
-1.792362204724409
 30
0.0
 10
-0.3977913385826772
 20
-1.79986220472441
 30
0.0
 10
-0.4081496062992126
 20
-1.803614173228347
 30
0.0
 10
-0.420736220472441
 20
-1.803614173228347
 30
0.0
 10
-0.420736220472441
 20
-1.803614173228347
 30
0.0
 10
-0.4280118110236221
 20
-1.803614173228347
 30
0.0
 10
-0.4345669291338583
 20
-1.802307086614173
 30
0.0
 10
-0.4404566929133859
 20
-1.799724409448819
 30
0.0
 10
-0.4404566929133859
 20
-1.799724409448819
 30
0.0
 10
-0.4463464566929134
 20
-1.797114173228346
 30
0.0
 10
-0.4509566929133859
 20
-1.793669291338583
 30
0.0
 10
-0.4542637795275591
 20
-1.78942125984252
 30
0.0
 10
-0.4542637795275591
 20
-1.78942125984252
 30
0.0
 10
-0.4575669291338583
 20
-1.785169291338583
 30
0.0
 10
-0.459232283464567
 20
-1.78142125984252
 30
0.0
 10
-0.459232283464567
 20
-1.778224409448819
 30
0.0
 10
-0.459232283464567
 20
-1.778224409448819
 30
0.0
 10
-0.459232283464567
 20
-1.776114173228347
 30
0.0
 10
-0.458511811023622
 20
-1.774279527559055
 30
0.0
 10
-0.4570944881889764
 20
-1.772724409448819
 30
0.0
 10
-0.4570944881889764
 20
-1.772724409448819
 30
0.0
 10
-0.4557047244094488
 20
-1.771196850393701
 30
0.0
 10
-0.4538740157480315
 20
-1.77042125984252
 30
0.0
 10
-0.4516496062992126
 20
-1.77042125984252
 30
0.0
 10
-0.4516496062992126
 20
-1.77042125984252
 30
0.0
 10
-0.4493740157480315
 20
-1.77042125984252
 30
0.0
 10
-0.4473740157480315
 20
-1.77136220472441
 30
0.0
 10
-0.4456220472440945
 20
-1.773279527559055
 30
0.0
 10
-0.4456220472440945
 20
-1.773279527559055
 30
0.0
 10
-0.4446496062992126
 20
-1.774251968503937
 30
0.0
 10
-0.4434842519685039
 20
-1.776641732283465
 30
0.0
 10
-0.4421220472440945
 20
-1.78042125984252
 30
0.0
 10
-0.4421220472440945
 20
-1.78042125984252
 30
0.0
 10
-0.4402913385826772
 20
-1.785751968503937
 30
0.0
 10
-0.4375393700787402
 20
-1.789641732283465
 30
0.0
 10
-0.4339015748031496
 20
-1.792141732283465
 30
0.0
 10
-0.4339015748031496
 20
-1.792141732283465
 30
0.0
 10
-0.4303464566929134
 20
-1.794696850393701
 30
0.0
 10
-0.4258188976377953
 20
-1.795976377952756
 30
0.0
 10
-0.4204015748031496
 20
-1.795976377952756
 30
0.0
 10
-0.4204015748031496
 20
-1.795976377952756
 30
0.0
 10
-0.414984251968504
 20
-1.795976377952756
 30
0.0
 10
-0.4101496062992126
 20
-1.794779527559055
 30
0.0
 10
-0.4059291338582677
 20
-1.79242125984252
 30
0.0
 10
-0.4059291338582677
 20
-1.79242125984252
 30
0.0
 10
-0.4016771653543307
 20
-1.790086614173228
 30
0.0
 10
-0.3983464566929134
 20
-1.786669291338583
 30
0.0
 10
-0.3959015748031496
 20
-1.782251968503937
 30
0.0
 10
-0.3959015748031496
 20
-1.782251968503937
 30
0.0
 10
-0.3934566929133859
 20
-1.777834645669292
 30
0.0
 10
-0.3922362204724409
 20
-1.77292125984252
 30
0.0
 10
-0.3922362204724409
 20
-1.767503937007874
 30
0.0
 10
-0.3922362204724409
 20
-1.767503937007874
 30
0.0
 10
-0.3922362204724409
 20
-1.761779527559055
 30
0.0
 10
-0.3935669291338583
 20
-1.756724409448819
 30
0.0
 10
-0.3962086614173229
 20
-1.752279527559055
 30
0.0
 10
-0.3962086614173229
 20
-1.752279527559055
 30
0.0
 10
-0.3988188976377953
 20
-1.747834645669292
 30
0.0
 10
-0.4025944881889764
 20
-1.744366141732284
 30
0.0
 10
-0.4075118110236221
 20
-1.741948818897638
 30
0.0
 10
-0.4075118110236221
 20
-1.741948818897638
 30
0.0
 10
-0.4124291338582677
 20
-1.739503937007874
 30
0.0
 10
-0.4184015748031496
 20
-1.738279527559055
 30
0.0
 10
-0.4254566929133858
 20
-1.738279527559055
 30
0.0
 10
-0.4254566929133858
 20
-1.738279527559055
 30
0.0
 10
-0.429736220472441
 20
-1.738279527559055
 30
0.0
 10
-0.4343464566929134
 20
-1.738724409448819
 30
0.0
 10
-0.439236220472441
 20
-1.739669291338583
 30
0.0
 10
-0.439236220472441
 20
-1.739669291338583
 30
0.0
 10
-0.4441496062992126
 20
-1.740586614173229
 30
0.0
 10
-0.4483740157480315
 20
-1.741751968503937
 30
0.0
 10
-0.4519015748031496
 20
-1.743169291338583
 30
0.0
 10
-0.4519015748031496
 20
-1.743169291338583
 30
0.0
 10
-0.4519015748031496
 20
-1.743169291338583
 30
0.0
 10
-0.4491220472440945
 20
-1.688141732283465
 30
0.0
 10
-0.4491220472440945
 20
-1.688141732283465
 30
0.0
  0
SPLINE
  5
35
330
1F
100
AcDbEntity
  8
LAYER_1
 62
   250
100
AcDbSpline
210
0.0
220
0.0
230
1.0
 70
    11
 71
     3
 72
    72
 73
    68
 74
     0
 42
0.0000000001
 43
0.0000000001
 40
0.0
 40
0.0
 40
0.0
 40
0.0
 40
0.0588235294117647
 40
0.0588235294117647
 40
0.0588235294117647
 40
0.0588235294117647
 40
0.1176470588235294
 40
0.1176470588235294
 40
0.1176470588235294
 40
0.1176470588235294
 40
0.1764705882352941
 40
0.1764705882352941
 40
0.1764705882352941
 40
0.1764705882352941
 40
0.2352941176470588
 40
0.2352941176470588
 40
0.2352941176470588
 40
0.2352941176470588
 40
0.2941176470588235
 40
0.2941176470588235
 40
0.2941176470588235
 40
0.2941176470588235
 40
0.3529411764705883
 40
0.3529411764705883
 40
0.3529411764705883
 40
0.3529411764705883
 40
0.411764705882353
 40
0.411764705882353
 40
0.411764705882353
 40
0.411764705882353
 40
0.4705882352941177
 40
0.4705882352941177
 40
0.4705882352941177
 40
0.4705882352941177
 40
0.5294117647058824
 40
0.5294117647058824
 40
0.5294117647058824
 40
0.5294117647058824
 40
0.5882352941176471
 40
0.5882352941176471
 40
0.5882352941176471
 40
0.5882352941176471
 40
0.6470588235294118
 40
0.6470588235294118
 40
0.6470588235294118
 40
0.6470588235294118
 40
0.7058823529411765
 40
0.7058823529411765
 40
0.7058823529411765
 40
0.7058823529411765
 40
0.7647058823529412
 40
0.7647058823529412
 40
0.7647058823529412
 40
0.7647058823529412
 40
0.823529411764706
 40
0.823529411764706
 40
0.823529411764706
 40
0.823529411764706
 40
0.8823529411764707
 40
0.8823529411764707
 40
0.8823529411764707
 40
0.8823529411764707
 40
0.9411764705882354
 40
0.9411764705882354
 40
0.9411764705882354
 40
0.9411764705882354
 40
1.0
 40
1.0
 40
1.0
 40
1.0
 10
-0.3121496062992126
 20
-1.688141732283465
 30
0.0
 10
-0.3121496062992126
 20
-1.688141732283465
 30
0.0
 10
-0.3060669291338583
 20
-1.688141732283465
 30
0.0
 10
-0.3060669291338583
 20
-1.688141732283465
 30
0.0
 10
-0.3060669291338583
 20
-1.688141732283465
 30
0.0
 10
-0.3060669291338583
 20
-1.688141732283465
 30
0.0
 10
-0.3060669291338583
 20
-1.782389763779528
 30
0.0
 10
-0.3060669291338583
 20
-1.782389763779528
 30
0.0
 10
-0.3060669291338583
 20
-1.782389763779528
 30
0.0
 10
-0.3060669291338583
 20
-1.786834645669291
 30
0.0
 10
-0.3057598425196851
 20
-1.789696850393701
 30
0.0
 10
-0.3052047244094489
 20
-1.790976377952756
 30
0.0
 10
-0.3052047244094489
 20
-1.790976377952756
 30
0.0
 10
-0.3046220472440945
 20
-1.792251968503937
 30
0.0
 10
-0.3037047244094489
 20
-1.793196850393701
 30
0.0
 10
-0.3024015748031496
 20
-1.79386220472441
 30
0.0
 10
-0.3024015748031496
 20
-1.79386220472441
 30
0.0
 10
-0.3010944881889764
 20
-1.794503937007874
 30
0.0
 10
-0.2985118110236221
 20
-1.794834645669291
 30
0.0
 10
-0.2946496062992126
 20
-1.794834645669291
 30
0.0
 10
-0.2946496062992126
 20
-1.794834645669291
 30
0.0
 10
-0.2946496062992126
 20
-1.794834645669291
 30
0.0
 10
-0.2866771653543307
 20
-1.794834645669291
 30
0.0
 10
-0.2866771653543307
 20
-1.794834645669291
 30
0.0
 10
-0.2866771653543307
 20
-1.794834645669291
 30
0.0
 10
-0.2866771653543307
 20
-1.794834645669291
 30
0.0
 10
-0.2866771653543307
 20
-1.801669291338583
 30
0.0
 10
-0.2866771653543307
 20
-1.801669291338583
 30
0.0
 10
-0.2866771653543307
 20
-1.801669291338583
 30
0.0
 10
-0.2866771653543307
 20
-1.801669291338583
 30
0.0
 10
-0.3403149606299213
 20
-1.801669291338583
 30
0.0
 10
-0.3403149606299213
 20
-1.801669291338583
 30
0.0
 10
-0.3403149606299213
 20
-1.801669291338583
 30
0.0
 10
-0.3403149606299213
 20
-1.801669291338583
 30
0.0
 10
-0.3403149606299213
 20
-1.794834645669291
 30
0.0
 10
-0.3403149606299213
 20
-1.794834645669291
 30
0.0
 10
-0.3403149606299213
 20
-1.794834645669291
 30
0.0
 10
-0.3403149606299213
 20
-1.794834645669291
 30
0.0
 10
-0.3314566929133859
 20
-1.794834645669291
 30
0.0
 10
-0.3314566929133859
 20
-1.794834645669291
 30
0.0
 10
-0.3314566929133859
 20
-1.794834645669291
 30
0.0
 10
-0.3275944881889764
 20
-1.794834645669291
 30
0.0
 10
-0.3250393700787402
 20
-1.794503937007874
 30
0.0
 10
-0.323759842519685
 20
-1.793807086614173
 30
0.0
 10
-0.323759842519685
 20
-1.793807086614173
 30
0.0
 10
-0.3224842519685039
 20
-1.793141732283465
 30
0.0
 10
-0.3214842519685039
 20
-1.79205905511811
 30
0.0
 10
-0.3207874015748032
 20
-1.79055905511811
 30
0.0
 10
-0.3207874015748032
 20
-1.79055905511811
 30
0.0
 10
-0.3200944881889764
 20
-1.78905905511811
 30
0.0
 10
-0.319732283464567
 20
-1.786334645669292
 30
0.0
 10
-0.319732283464567
 20
-1.782389763779528
 30
0.0
 10
-0.319732283464567
 20
-1.782389763779528
 30
0.0
 10
-0.319732283464567
 20
-1.782389763779528
 30
0.0
 10
-0.319732283464567
 20
-1.70492125984252
 30
0.0
 10
-0.319732283464567
 20
-1.70492125984252
 30
0.0
 10
-0.319732283464567
 20
-1.70492125984252
 30
0.0
 10
-0.319732283464567
 20
-1.70492125984252
 30
0.0
 10
-0.3403149606299213
 20
-1.70492125984252
 30
0.0
 10
-0.3403149606299213
 20
-1.70492125984252
 30
0.0
 10
-0.3403149606299213
 20
-1.70492125984252
 30
0.0
 10
-0.3403149606299213
 20
-1.70492125984252
 30
0.0
 10
-0.3403149606299213
 20
-1.69792125984252
 30
0.0
 10
-0.3403149606299213
 20
-1.69792125984252
 30
0.0
 10
-0.3403149606299213
 20
-1.69792125984252
 30
0.0
 10
-0.3290944881889764
 20
-1.696338582677165
 30
0.0
 10
-0.3197047244094488
 20
-1.693086614173228
 30
0.0
 10
-0.3121496062992126
 20
-1.688141732283465
 30
0.0
  0
SPLINE
  5
36
330
1F
100
AcDbEntity
  8
LAYER_1
 62
   250
100
AcDbSpline
210
0.0
220
0.0
230
1.0
 70
    11
 71
     3
 72
    72
 73
    68
 74
     0
 42
0.0000000001
 43
0.0000000001
 40
0.0
 40
0.0
 40
0.0
 40
0.0
 40
0.0588235294117647
 40
0.0588235294117647
 40
0.0588235294117647
 40
0.0588235294117647
 40
0.1176470588235294
 40
0.1176470588235294
 40
0.1176470588235294
 40
0.1176470588235294
 40
0.1764705882352941
 40
0.1764705882352941
 40
0.1764705882352941
 40
0.1764705882352941
 40
0.2352941176470588
 40
0.2352941176470588
 40
0.2352941176470588
 40
0.2352941176470588
 40
0.2941176470588235
 40
0.2941176470588235
 40
0.2941176470588235
 40
0.2941176470588235
 40
0.3529411764705883
 40
0.3529411764705883
 40
0.3529411764705883
 40
0.3529411764705883
 40
0.411764705882353
 40
0.411764705882353
 40
0.411764705882353
 40
0.411764705882353
 40
0.4705882352941177
 40
0.4705882352941177
 40
0.4705882352941177
 40
0.4705882352941177
 40
0.5294117647058824
 40
0.5294117647058824
 40
0.5294117647058824
 40
0.5294117647058824
 40
0.5882352941176471
 40
0.5882352941176471
 40
0.5882352941176471
 40
0.5882352941176471
 40
0.6470588235294118
 40
0.6470588235294118
 40
0.6470588235294118
 40
0.6470588235294118
 40
0.7058823529411765
 40
0.7058823529411765
 40
0.7058823529411765
 40
0.7058823529411765
 40
0.7647058823529412
 40
0.7647058823529412
 40
0.7647058823529412
 40
0.7647058823529412
 40
0.823529411764706
 40
0.823529411764706
 40
0.823529411764706
 40
0.823529411764706
 40
0.8823529411764707
 40
0.8823529411764707
 40
0.8823529411764707
 40
0.8823529411764707
 40
0.9411764705882354
 40
0.9411764705882354
 40
0.9411764705882354
 40
0.9411764705882354
 40
1.0
 40
1.0
 40
1.0
 40
1.0
 10
-1.248858267716535
 20
-1.875641732283465
 30
0.0
 10
-1.248858267716535
 20
-1.875641732283465
 30
0.0
 10
-1.242775590551181
 20
-1.875641732283465
 30
0.0
 10
-1.242775590551181
 20
-1.875641732283465
 30
0.0
 10
-1.242775590551181
 20
-1.875641732283465
 30
0.0
 10
-1.242775590551181
 20
-1.875641732283465
 30
0.0
 10
-1.242775590551181
 20
-1.969889763779528
 30
0.0
 10
-1.242775590551181
 20
-1.969889763779528
 30
0.0
 10
-1.242775590551181
 20
-1.969889763779528
 30
0.0
 10
-1.242775590551181
 20
-1.974334645669291
 30
0.0
 10
-1.242468503937008
 20
-1.977196850393701
 30
0.0
 10
-1.241913385826772
 20
-1.978476377952756
 30
0.0
 10
-1.241913385826772
 20
-1.978476377952756
 30
0.0
 10
-1.241330708661417
 20
-1.979751968503937
 30
0.0
 10
-1.240413385826772
 20
-1.980696850393701
 30
0.0
 10
-1.239110236220472
 20
-1.98136220472441
 30
0.0
 10
-1.239110236220472
 20
-1.98136220472441
 30
0.0
 10
-1.237803149606299
 20
-1.982003937007874
 30
0.0
 10
-1.235220472440945
 20
-1.982334645669291
 30
0.0
 10
-1.231358267716536
 20
-1.982334645669291
 30
0.0
 10
-1.231358267716536
 20
-1.982334645669291
 30
0.0
 10
-1.231358267716536
 20
-1.982334645669291
 30
0.0
 10
-1.223385826771654
 20
-1.982334645669291
 30
0.0
 10
-1.223385826771654
 20
-1.982334645669291
 30
0.0
 10
-1.223385826771654
 20
-1.982334645669291
 30
0.0
 10
-1.223385826771654
 20
-1.982334645669291
 30
0.0
 10
-1.223385826771654
 20
-1.989169291338583
 30
0.0
 10
-1.223385826771654
 20
-1.989169291338583
 30
0.0
 10
-1.223385826771654
 20
-1.989169291338583
 30
0.0
 10
-1.223385826771654
 20
-1.989169291338583
 30
0.0
 10
-1.277023622047244
 20
-1.989169291338583
 30
0.0
 10
-1.277023622047244
 20
-1.989169291338583
 30
0.0
 10
-1.277023622047244
 20
-1.989169291338583
 30
0.0
 10
-1.277023622047244
 20
-1.989169291338583
 30
0.0
 10
-1.277023622047244
 20
-1.982334645669291
 30
0.0
 10
-1.277023622047244
 20
-1.982334645669291
 30
0.0
 10
-1.277023622047244
 20
-1.982334645669291
 30
0.0
 10
-1.277023622047244
 20
-1.982334645669291
 30
0.0
 10
-1.268165354330709
 20
-1.982334645669291
 30
0.0
 10
-1.268165354330709
 20
-1.982334645669291
 30
0.0
 10
-1.268165354330709
 20
-1.982334645669291
 30
0.0
 10
-1.264303149606299
 20
-1.982334645669291
 30
0.0
 10
-1.261748031496063
 20
-1.982003937007874
 30
0.0
 10
-1.260468503937008
 20
-1.981307086614173
 30
0.0
 10
-1.260468503937008
 20
-1.981307086614173
 30
0.0
 10
-1.259192913385827
 20
-1.980641732283465
 30
0.0
 10
-1.258192913385827
 20
-1.97955905511811
 30
0.0
 10
-1.257496062992126
 20
-1.97805905511811
 30
0.0
 10
-1.257496062992126
 20
-1.97805905511811
 30
0.0
 10
-1.256803149606299
 20
-1.97655905511811
 30
0.0
 10
-1.25644094488189
 20
-1.973834645669292
 30
0.0
 10
-1.25644094488189
 20
-1.969889763779528
 30
0.0
 10
-1.25644094488189
 20
-1.969889763779528
 30
0.0
 10
-1.25644094488189
 20
-1.969889763779528
 30
0.0
 10
-1.25644094488189
 20
-1.89242125984252
 30
0.0
 10
-1.25644094488189
 20
-1.89242125984252
 30
0.0
 10
-1.25644094488189
 20
-1.89242125984252
 30
0.0
 10
-1.25644094488189
 20
-1.89242125984252
 30
0.0
 10
-1.277023622047244
 20
-1.89242125984252
 30
0.0
 10
-1.277023622047244
 20
-1.89242125984252
 30
0.0
 10
-1.277023622047244
 20
-1.89242125984252
 30
0.0
 10
-1.277023622047244
 20
-1.89242125984252
 30
0.0
 10
-1.277023622047244
 20
-1.88542125984252
 30
0.0
 10
-1.277023622047244
 20
-1.88542125984252
 30
0.0
 10
-1.277023622047244
 20
-1.88542125984252
 30
0.0
 10
-1.265803149606299
 20
-1.883838582677166
 30
0.0
 10
-1.256413385826772
 20
-1.880586614173228
 30
0.0
 10
-1.248858267716535
 20
-1.875641732283465
 30
0.0
  0
SPLINE
  5
37
330
1F
100
AcDbEntity
  8
LAYER_1
 62
   250
100
AcDbSpline
210
0.0
220
0.0
230
1.0
 70
    11
 71
     3
 72
    72
 73
    68
 74
     0
 42
0.0000000001
 43
0.0000000001
 40
0.0
 40
0.0
 40
0.0
 40
0.0
 40
0.0588235294117647
 40
0.0588235294117647
 40
0.0588235294117647
 40
0.0588235294117647
 40
0.1176470588235294
 40
0.1176470588235294
 40
0.1176470588235294
 40
0.1176470588235294
 40
0.1764705882352941
 40
0.1764705882352941
 40
0.1764705882352941
 40
0.1764705882352941
 40
0.2352941176470588
 40
0.2352941176470588
 40
0.2352941176470588
 40
0.2352941176470588
 40
0.2941176470588235
 40
0.2941176470588235
 40
0.2941176470588235
 40
0.2941176470588235
 40
0.3529411764705883
 40
0.3529411764705883
 40
0.3529411764705883
 40
0.3529411764705883
 40
0.411764705882353
 40
0.411764705882353
 40
0.411764705882353
 40
0.411764705882353
 40
0.4705882352941177
 40
0.4705882352941177
 40
0.4705882352941177
 40
0.4705882352941177
 40
0.5294117647058824
 40
0.5294117647058824
 40
0.5294117647058824
 40
0.5294117647058824
 40
0.5882352941176471
 40
0.5882352941176471
 40
0.5882352941176471
 40
0.5882352941176471
 40
0.6470588235294118
 40
0.6470588235294118
 40
0.6470588235294118
 40
0.6470588235294118
 40
0.7058823529411765
 40
0.7058823529411765
 40
0.7058823529411765
 40
0.7058823529411765
 40
0.7647058823529412
 40
0.7647058823529412
 40
0.7647058823529412
 40
0.7647058823529412
 40
0.823529411764706
 40
0.823529411764706
 40
0.823529411764706
 40
0.823529411764706
 40
0.8823529411764707
 40
0.8823529411764707
 40
0.8823529411764707
 40
0.8823529411764707
 40
0.9411764705882354
 40
0.9411764705882354
 40
0.9411764705882354
 40
0.9411764705882354
 40
1.0
 40
1.0
 40
1.0
 40
1.0
 10
-1.145496062992126
 20
-1.875641732283465
 30
0.0
 10
-1.145496062992126
 20
-1.875641732283465
 30
0.0
 10
-1.139413385826772
 20
-1.875641732283465
 30
0.0
 10
-1.139413385826772
 20
-1.875641732283465
 30
0.0
 10
-1.139413385826772
 20
-1.875641732283465
 30
0.0
 10
-1.139413385826772
 20
-1.875641732283465
 30
0.0
 10
-1.139413385826772
 20
-1.969889763779528
 30
0.0
 10
-1.139413385826772
 20
-1.969889763779528
 30
0.0
 10
-1.139413385826772
 20
-1.969889763779528
 30
0.0
 10
-1.139413385826772
 20
-1.974334645669291
 30
0.0
 10
-1.139106299212598
 20
-1.977196850393701
 30
0.0
 10
-1.138551181102362
 20
-1.978476377952756
 30
0.0
 10
-1.138551181102362
 20
-1.978476377952756
 30
0.0
 10
-1.137968503937008
 20
-1.979751968503937
 30
0.0
 10
-1.137051181102362
 20
-1.980696850393701
 30
0.0
 10
-1.135748031496063
 20
-1.98136220472441
 30
0.0
 10
-1.135748031496063
 20
-1.98136220472441
 30
0.0
 10
-1.13444094488189
 20
-1.982003937007874
 30
0.0
 10
-1.131858267716535
 20
-1.982334645669291
 30
0.0
 10
-1.127996062992126
 20
-1.982334645669291
 30
0.0
 10
-1.127996062992126
 20
-1.982334645669291
 30
0.0
 10
-1.127996062992126
 20
-1.982334645669291
 30
0.0
 10
-1.120023622047244
 20
-1.982334645669291
 30
0.0
 10
-1.120023622047244
 20
-1.982334645669291
 30
0.0
 10
-1.120023622047244
 20
-1.982334645669291
 30
0.0
 10
-1.120023622047244
 20
-1.982334645669291
 30
0.0
 10
-1.120023622047244
 20
-1.989169291338583
 30
0.0
 10
-1.120023622047244
 20
-1.989169291338583
 30
0.0
 10
-1.120023622047244
 20
-1.989169291338583
 30
0.0
 10
-1.120023622047244
 20
-1.989169291338583
 30
0.0
 10
-1.173661417322835
 20
-1.989169291338583
 30
0.0
 10
-1.173661417322835
 20
-1.989169291338583
 30
0.0
 10
-1.173661417322835
 20
-1.989169291338583
 30
0.0
 10
-1.173661417322835
 20
-1.989169291338583
 30
0.0
 10
-1.173661417322835
 20
-1.982334645669291
 30
0.0
 10
-1.173661417322835
 20
-1.982334645669291
 30
0.0
 10
-1.173661417322835
 20
-1.982334645669291
 30
0.0
 10
-1.173661417322835
 20
-1.982334645669291
 30
0.0
 10
-1.164803149606299
 20
-1.982334645669291
 30
0.0
 10
-1.164803149606299
 20
-1.982334645669291
 30
0.0
 10
-1.164803149606299
 20
-1.982334645669291
 30
0.0
 10
-1.16094094488189
 20
-1.982334645669291
 30
0.0
 10
-1.158385826771654
 20
-1.982003937007874
 30
0.0
 10
-1.157106299212598
 20
-1.981307086614173
 30
0.0
 10
-1.157106299212598
 20
-1.981307086614173
 30
0.0
 10
-1.155830708661418
 20
-1.980641732283465
 30
0.0
 10
-1.154830708661417
 20
-1.97955905511811
 30
0.0
 10
-1.154133858267717
 20
-1.97805905511811
 30
0.0
 10
-1.154133858267717
 20
-1.97805905511811
 30
0.0
 10
-1.15344094488189
 20
-1.97655905511811
 30
0.0
 10
-1.153078740157481
 20
-1.973834645669292
 30
0.0
 10
-1.153078740157481
 20
-1.969889763779528
 30
0.0
 10
-1.153078740157481
 20
-1.969889763779528
 30
0.0
 10
-1.153078740157481
 20
-1.969889763779528
 30
0.0
 10
-1.153078740157481
 20
-1.89242125984252
 30
0.0
 10
-1.153078740157481
 20
-1.89242125984252
 30
0.0
 10
-1.153078740157481
 20
-1.89242125984252
 30
0.0
 10
-1.153078740157481
 20
-1.89242125984252
 30
0.0
 10
-1.173661417322835
 20
-1.89242125984252
 30
0.0
 10
-1.173661417322835
 20
-1.89242125984252
 30
0.0
 10
-1.173661417322835
 20
-1.89242125984252
 30
0.0
 10
-1.173661417322835
 20
-1.89242125984252
 30
0.0
 10
-1.173661417322835
 20
-1.88542125984252
 30
0.0
 10
-1.173661417322835
 20
-1.88542125984252
 30
0.0
 10
-1.173661417322835
 20
-1.88542125984252
 30
0.0
 10
-1.16244094488189
 20
-1.883838582677166
 30
0.0
 10
-1.153051181102362
 20
-1.880586614173228
 30
0.0
 10
-1.145496062992126
 20
-1.875641732283465
 30
0.0
  0
SPLINE
  5
38
330
1F
100
AcDbEntity
  8
LAYER_1
 62
   250
100
AcDbSpline
210
0.0
220
0.0
230
1.0
 70
    11
 71
     3
 72
    20
 73
    16
 74
     0
 42
0.0000000001
 43
0.0000000001
 40
0.0
 40
0.0
 40
0.0
 40
0.0
 40
0.25
 40
0.25
 40
0.25
 40
0.25
 40
0.5
 40
0.5
 40
0.5
 40
0.5
 40
0.75
 40
0.75
 40
0.75
 40
0.75
 40
1.0
 40
1.0
 40
1.0
 40
1.0
 10
-1.016661417322835
 20
-1.869779527559055
 30
0.0
 10
-1.016661417322835
 20
-1.869779527559055
 30
0.0
 10
-1.072244094488189
 20
-2.025476377952756
 30
0.0
 10
-1.072244094488189
 20
-2.025476377952756
 30
0.0
 10
-1.072244094488189
 20
-2.025476377952756
 30
0.0
 10
-1.072244094488189
 20
-2.025476377952756
 30
0.0
 10
-1.084299212598425
 20
-2.025476377952756
 30
0.0
 10
-1.084299212598425
 20
-2.025476377952756
 30
0.0
 10
-1.084299212598425
 20
-2.025476377952756
 30
0.0
 10
-1.084299212598425
 20
-2.025476377952756
 30
0.0
 10
-1.029051181102362
 20
-1.869779527559055
 30
0.0
 10
-1.029051181102362
 20
-1.869779527559055
 30
0.0
 10
-1.029051181102362
 20
-1.869779527559055
 30
0.0
 10
-1.029051181102362
 20
-1.869779527559055
 30
0.0
 10
-1.016661417322835
 20
-1.869779527559055
 30
0.0
 10
-1.016661417322835
 20
-1.869779527559055
 30
0.0
  0
SPLINE
  5
39
330
1F
100
AcDbEntity
  8
LAYER_1
 62
   250
100
AcDbSpline
210
0.0
220
0.0
230
1.0
 70
    11
 71
     3
 72
    72
 73
    68
 74
     0
 42
0.0000000001
 43
0.0000000001
 40
0.0
 40
0.0
 40
0.0
 40
0.0
 40
0.0588235294117647
 40
0.0588235294117647
 40
0.0588235294117647
 40
0.0588235294117647
 40
0.1176470588235294
 40
0.1176470588235294
 40
0.1176470588235294
 40
0.1176470588235294
 40
0.1764705882352941
 40
0.1764705882352941
 40
0.1764705882352941
 40
0.1764705882352941
 40
0.2352941176470588
 40
0.2352941176470588
 40
0.2352941176470588
 40
0.2352941176470588
 40
0.2941176470588235
 40
0.2941176470588235
 40
0.2941176470588235
 40
0.2941176470588235
 40
0.3529411764705883
 40
0.3529411764705883
 40
0.3529411764705883
 40
0.3529411764705883
 40
0.411764705882353
 40
0.411764705882353
 40
0.411764705882353
 40
0.411764705882353
 40
0.4705882352941177
 40
0.4705882352941177
 40
0.4705882352941177
 40
0.4705882352941177
 40
0.5294117647058824
 40
0.5294117647058824
 40
0.5294117647058824
 40
0.5294117647058824
 40
0.5882352941176471
 40
0.5882352941176471
 40
0.5882352941176471
 40
0.5882352941176471
 40
0.6470588235294118
 40
0.6470588235294118
 40
0.6470588235294118
 40
0.6470588235294118
 40
0.7058823529411765
 40
0.7058823529411765
 40
0.7058823529411765
 40
0.7058823529411765
 40
0.7647058823529412
 40
0.7647058823529412
 40
0.7647058823529412
 40
0.7647058823529412
 40
0.823529411764706
 40
0.823529411764706
 40
0.823529411764706
 40
0.823529411764706
 40
0.8823529411764707
 40
0.8823529411764707
 40
0.8823529411764707
 40
0.8823529411764707
 40
0.9411764705882354
 40
0.9411764705882354
 40
0.9411764705882354
 40
0.9411764705882354
 40
1.0
 40
1.0
 40
1.0
 40
1.0
 10
-0.9421062992125985
 20
-1.875641732283465
 30
0.0
 10
-0.9421062992125985
 20
-1.875641732283465
 30
0.0
 10
-0.9360236220472441
 20
-1.875641732283465
 30
0.0
 10
-0.9360236220472441
 20
-1.875641732283465
 30
0.0
 10
-0.9360236220472441
 20
-1.875641732283465
 30
0.0
 10
-0.9360236220472441
 20
-1.875641732283465
 30
0.0
 10
-0.9360236220472441
 20
-1.969889763779528
 30
0.0
 10
-0.9360236220472441
 20
-1.969889763779528
 30
0.0
 10
-0.9360236220472441
 20
-1.969889763779528
 30
0.0
 10
-0.9360236220472441
 20
-1.974334645669291
 30
0.0
 10
-0.9357165354330709
 20
-1.977196850393701
 30
0.0
 10
-0.9351614173228346
 20
-1.978476377952756
 30
0.0
 10
-0.9351614173228346
 20
-1.978476377952756
 30
0.0
 10
-0.9345787401574803
 20
-1.979751968503937
 30
0.0
 10
-0.9336614173228347
 20
-1.980696850393701
 30
0.0
 10
-0.9323582677165355
 20
-1.98136220472441
 30
0.0
 10
-0.9323582677165355
 20
-1.98136220472441
 30
0.0
 10
-0.9310511811023623
 20
-1.982003937007874
 30
0.0
 10
-0.9284685039370079
 20
-1.982334645669291
 30
0.0
 10
-0.9246062992125985
 20
-1.982334645669291
 30
0.0
 10
-0.9246062992125985
 20
-1.982334645669291
 30
0.0
 10
-0.9246062992125985
 20
-1.982334645669291
 30
0.0
 10
-0.9166338582677166
 20
-1.982334645669291
 30
0.0
 10
-0.9166338582677166
 20
-1.982334645669291
 30
0.0
 10
-0.9166338582677166
 20
-1.982334645669291
 30
0.0
 10
-0.9166338582677166
 20
-1.982334645669291
 30
0.0
 10
-0.9166338582677166
 20
-1.989169291338583
 30
0.0
 10
-0.9166338582677166
 20
-1.989169291338583
 30
0.0
 10
-0.9166338582677166
 20
-1.989169291338583
 30
0.0
 10
-0.9166338582677166
 20
-1.989169291338583
 30
0.0
 10
-0.9702716535433071
 20
-1.989169291338583
 30
0.0
 10
-0.9702716535433071
 20
-1.989169291338583
 30
0.0
 10
-0.9702716535433071
 20
-1.989169291338583
 30
0.0
 10
-0.9702716535433071
 20
-1.989169291338583
 30
0.0
 10
-0.9702716535433071
 20
-1.982334645669291
 30
0.0
 10
-0.9702716535433071
 20
-1.982334645669291
 30
0.0
 10
-0.9702716535433071
 20
-1.982334645669291
 30
0.0
 10
-0.9702716535433071
 20
-1.982334645669291
 30
0.0
 10
-0.9614133858267717
 20
-1.982334645669291
 30
0.0
 10
-0.9614133858267717
 20
-1.982334645669291
 30
0.0
 10
-0.9614133858267717
 20
-1.982334645669291
 30
0.0
 10
-0.9575511811023623
 20
-1.982334645669291
 30
0.0
 10
-0.954996062992126
 20
-1.982003937007874
 30
0.0
 10
-0.9537165354330709
 20
-1.981307086614173
 30
0.0
 10
-0.9537165354330709
 20
-1.981307086614173
 30
0.0
 10
-0.9524409448818898
 20
-1.980641732283465
 30
0.0
 10
-0.9514409448818898
 20
-1.97955905511811
 30
0.0
 10
-0.950744094488189
 20
-1.97805905511811
 30
0.0
 10
-0.950744094488189
 20
-1.97805905511811
 30
0.0
 10
-0.9500511811023622
 20
-1.97655905511811
 30
0.0
 10
-0.9496889763779528
 20
-1.973834645669292
 30
0.0
 10
-0.9496889763779528
 20
-1.969889763779528
 30
0.0
 10
-0.9496889763779528
 20
-1.969889763779528
 30
0.0
 10
-0.9496889763779528
 20
-1.969889763779528
 30
0.0
 10
-0.9496889763779528
 20
-1.89242125984252
 30
0.0
 10
-0.9496889763779528
 20
-1.89242125984252
 30
0.0
 10
-0.9496889763779528
 20
-1.89242125984252
 30
0.0
 10
-0.9496889763779528
 20
-1.89242125984252
 30
0.0
 10
-0.9702716535433071
 20
-1.89242125984252
 30
0.0
 10
-0.9702716535433071
 20
-1.89242125984252
 30
0.0
 10
-0.9702716535433071
 20
-1.89242125984252
 30
0.0
 10
-0.9702716535433071
 20
-1.89242125984252
 30
0.0
 10
-0.9702716535433071
 20
-1.88542125984252
 30
0.0
 10
-0.9702716535433071
 20
-1.88542125984252
 30
0.0
 10
-0.9702716535433071
 20
-1.88542125984252
 30
0.0
 10
-0.9590511811023622
 20
-1.883838582677166
 30
0.0
 10
-0.9496614173228347
 20
-1.880586614173228
 30
0.0
 10
-0.9421062992125985
 20
-1.875641732283465
 30
0.0
  0
SPLINE
  5
3A
330
1F
100
AcDbEntity
  8
LAYER_1
 62
   250
100
AcDbSpline
210
0.0
220
0.0
230
1.0
 70
    11
 71
     3
 72
    84
 73
    80
 74
     0
 42
0.0000000001
 43
0.0000000001
 40
0.0
 40
0.0
 40
0.0
 40
0.0
 40
0.05
 40
0.05
 40
0.05
 40
0.05
 40
0.1
 40
0.1
 40
0.1
 40
0.1
 40
0.15
 40
0.15
 40
0.15
 40
0.15
 40
0.2
 40
0.2
 40
0.2
 40
0.2
 40
0.25
 40
0.25
 40
0.25
 40
0.25
 40
0.3
 40
0.3
 40
0.3
 40
0.3
 40
0.35
 40
0.35
 40
0.35
 40
0.35
 40
0.4
 40
0.4
 40
0.4
 40
0.4
 40
0.45
 40
0.45
 40
0.45
 40
0.45
 40
0.4999999999999999
 40
0.4999999999999999
 40
0.4999999999999999
 40
0.4999999999999999
 40
0.5499999999999999
 40
0.5499999999999999
 40
0.5499999999999999
 40
0.5499999999999999
 40
0.6
 40
0.6
 40
0.6
 40
0.6
 40
0.65
 40
0.65
 40
0.65
 40
0.65
 40
0.7000000000000001
 40
0.7000000000000001
 40
0.7000000000000001
 40
0.7000000000000001
 40
0.7500000000000001
 40
0.7500000000000001
 40
0.7500000000000001
 40
0.7500000000000001
 40
0.8000000000000002
 40
0.8000000000000002
 40
0.8000000000000002
 40
0.8000000000000002
 40
0.8500000000000002
 40
0.8500000000000002
 40
0.8500000000000002
 40
0.8500000000000002
 40
0.9000000000000002
 40
0.9000000000000002
 40
0.9000000000000002
 40
0.9000000000000002
 40
0.9500000000000003
 40
0.9500000000000003
 40
0.9500000000000003
 40
0.9500000000000003
 40
1.0
 40
1.0
 40
1.0
 40
1.0
 10
-0.8104409448818898
 20
-1.873531496062992
 30
0.0
 10
-0.8104409448818898
 20
-1.873531496062992
 30
0.0
 10
-0.8104409448818898
 20
-1.880948818897638
 30
0.0
 10
-0.8104409448818898
 20
-1.880948818897638
 30
0.0
 10
-0.8104409448818898
 20
-1.880948818897638
 30
0.0
 10
-0.8238267716535433
 20
-1.881086614173228
 30
0.0
 10
-0.8346614173228347
 20
-1.88305905511811
 30
0.0
 10
-0.8429370078740158
 20
-1.886779527559055
 30
0.0
 10
-0.8429370078740158
 20
-1.886779527559055
 30
0.0
 10
-0.8512165354330709
 20
-1.890531496062992
 30
0.0
 10
-0.8572992125984252
 20
-1.896141732283465
 30
0.0
 10
-0.8612165354330709
 20
-1.903586614173229
 30
0.0
 10
-0.8612165354330709
 20
-1.903586614173229
 30
0.0
 10
-0.8651338582677166
 20
-1.91105905511811
 30
0.0
 10
-0.8673267716535433
 20
-1.920251968503937
 30
0.0
 10
-0.8677992125984252
 20
-1.931141732283465
 30
0.0
 10
-0.8677992125984252
 20
-1.931141732283465
 30
0.0
 10
-0.8650511811023622
 20
-1.92692125984252
 30
0.0
 10
-0.8622165354330709
 20
-1.923614173228347
 30
0.0
 10
-0.8592992125984252
 20
-1.921251968503937
 30
0.0
 10
-0.8592992125984252
 20
-1.921251968503937
 30
0.0
 10
-0.8564094488188977
 20
-1.918893700787402
 30
0.0
 10
-0.8530236220472441
 20
-1.917086614173228
 30
0.0
 10
-0.8491338582677166
 20
-1.915807086614173
 30
0.0
 10
-0.8491338582677166
 20
-1.915807086614173
 30
0.0
 10
-0.8452440944881891
 20
-1.914531496062992
 30
0.0
 10
-0.840996062992126
 20
-1.913893700787402
 30
0.0
 10
-0.8363818897637796
 20
-1.913893700787402
 30
0.0
 10
-0.8363818897637796
 20
-1.913893700787402
 30
0.0
 10
-0.8290236220472441
 20
-1.913893700787402
 30
0.0
 10
-0.8224409448818898
 20
-1.915531496062992
 30
0.0
 10
-0.8166889763779528
 20
-1.918779527559055
 30
0.0
 10
-0.8166889763779528
 20
-1.918779527559055
 30
0.0
 10
-0.8109409448818898
 20
-1.922031496062992
 30
0.0
 10
-0.8064685039370079
 20
-1.926448818897638
 30
0.0
 10
-0.8032716535433071
 20
-1.932003937007874
 30
0.0
 10
-0.8032716535433071
 20
-1.932003937007874
 30
0.0
 10
-0.8000787401574804
 20
-1.93755905511811
 30
0.0
 10
-0.7984685039370079
 20
-1.944114173228347
 30
0.0
 10
-0.7984685039370079
 20
-1.951641732283465
 30
0.0
 10
-0.7984685039370079
 20
-1.951641732283465
 30
0.0
 10
-0.7984685039370079
 20
-1.963641732283465
 30
0.0
 10
-0.8020787401574804
 20
-1.97305905511811
 30
0.0
 10
-0.8092992125984252
 20
-1.979889763779528
 30
0.0
 10
-0.8092992125984252
 20
-1.979889763779528
 30
0.0
 10
-0.8172716535433071
 20
-1.987389763779528
 30
0.0
 10
-0.8276062992125984
 20
-1.991114173228347
 30
0.0
 10
-0.8402992125984252
 20
-1.991114173228347
 30
0.0
 10
-0.8402992125984252
 20
-1.991114173228347
 30
0.0
 10
-0.8494685039370079
 20
-1.991114173228347
 30
0.0
 10
-0.8571889763779528
 20
-1.989224409448819
 30
0.0
 10
-0.863496062992126
 20
-1.98542125984252
 30
0.0
 10
-0.863496062992126
 20
-1.98542125984252
 30
0.0
 10
-0.8697992125984252
 20
-1.981641732283465
 30
0.0
 10
-0.8747992125984252
 20
-1.975834645669292
 30
0.0
 10
-0.8785236220472441
 20
-1.968003937007874
 30
0.0
 10
-0.8785236220472441
 20
-1.968003937007874
 30
0.0
 10
-0.8822165354330709
 20
-1.960196850393701
 30
0.0
 10
-0.8840787401574803
 20
-1.950531496062992
 30
0.0
 10
-0.8840787401574803
 20
-1.939031496062992
 30
0.0
 10
-0.8840787401574803
 20
-1.939031496062992
 30
0.0
 10
-0.8840787401574803
 20
-1.927476377952756
 30
0.0
 10
-0.8821062992125984
 20
-1.917224409448819
 30
0.0
 10
-0.8781889763779528
 20
-1.908279527559055
 30
0.0
 10
-0.8781889763779528
 20
-1.908279527559055
 30
0.0
 10
-0.874244094488189
 20
-1.899338582677165
 30
0.0
 10
-0.8687992125984252
 20
-1.892141732283465
 30
0.0
 10
-0.8618543307086615
 20
-1.886724409448819
 30
0.0
 10
-0.8618543307086615
 20
-1.886724409448819
 30
0.0
 10
-0.8549094488188976
 20
-1.881279527559055
 30
0.0
 10
-0.8472992125984252
 20
-1.877724409448819
 30
0.0
 10
-0.8390511811023622
 20
-1.87605905511811
 30
0.0
 10
-0.8390511811023622
 20
-1.87605905511811
 30
0.0
 10
-0.8307716535433071
 20
-1.874366141732283
 30
0.0
 10
-0.8233543307086615
 20
-1.873531496062992
 30
0.0
 10
-0.8167716535433072
 20
-1.873531496062992
 30
0.0
 10
-0.8167716535433072
 20
-1.873531496062992
 30
0.0
 10
-0.8167716535433072
 20
-1.873531496062992
 30
0.0
 10
-0.8104409448818898
 20
-1.873531496062992
 30
0.0
 10
-0.8104409448818898
 20
-1.873531496062992
 30
0.0
  0
SPLINE
  5
3B
330
1F
100
AcDbEntity
  8
LAYER_1
 62
   250
100
AcDbSpline
210
0.0
220
0.0
230
1.0
 70
    11
 71
     3
 72
    40
 73
    36
 74
     0
 42
0.0000000001
 43
0.0000000001
 40
0.0
 40
0.0
 40
0.0
 40
0.0
 40
0.1111111111111111
 40
0.1111111111111111
 40
0.1111111111111111
 40
0.1111111111111111
 40
0.2222222222222222
 40
0.2222222222222222
 40
0.2222222222222222
 40
0.2222222222222222
 40
0.3333333333333333
 40
0.3333333333333333
 40
0.3333333333333333
 40
0.3333333333333333
 40
0.4444444444444444
 40
0.4444444444444444
 40
0.4444444444444444
 40
0.4444444444444444
 40
0.5555555555555556
 40
0.5555555555555556
 40
0.5555555555555556
 40
0.5555555555555556
 40
0.6666666666666667
 40
0.6666666666666667
 40
0.6666666666666667
 40
0.6666666666666667
 40
0.7777777777777779
 40
0.7777777777777779
 40
0.7777777777777779
 40
0.7777777777777779
 40
0.8888888888888891
 40
0.8888888888888891
 40
0.8888888888888891
 40
0.8888888888888891
 40
1.0
 40
1.0
 40
1.0
 40
1.0
 10
-0.8401338582677166
 20
-1.922531496062992
 30
0.0
 10
-0.8479370078740158
 20
-1.922531496062992
 30
0.0
 10
-0.8543543307086614
 20
-1.925476377952756
 30
0.0
 10
-0.8593818897637796
 20
-1.931393700787402
 30
0.0
 10
-0.8593818897637796
 20
-1.931393700787402
 30
0.0
 10
-0.8644094488188977
 20
-1.937307086614173
 30
0.0
 10
-0.8669094488188976
 20
-1.94442125984252
 30
0.0
 10
-0.8669094488188976
 20
-1.952696850393701
 30
0.0
 10
-0.8669094488188976
 20
-1.952696850393701
 30
0.0
 10
-0.8669094488188976
 20
-1.95855905511811
 30
0.0
 10
-0.8656889763779528
 20
-1.963976377952756
 30
0.0
 10
-0.8632440944881891
 20
-1.968948818897638
 30
0.0
 10
-0.8632440944881891
 20
-1.968948818897638
 30
0.0
 10
-0.8607992125984252
 20
-1.97392125984252
 30
0.0
 10
-0.8576614173228346
 20
-1.977586614173228
 30
0.0
 10
-0.8537992125984253
 20
-1.980003937007874
 30
0.0
 10
-0.8537992125984253
 20
-1.980003937007874
 30
0.0
 10
-0.849968503937008
 20
-1.98242125984252
 30
0.0
 10
-0.8456062992125984
 20
-1.983641732283465
 30
0.0
 10
-0.8407992125984253
 20
-1.983641732283465
 30
0.0
 10
-0.8407992125984253
 20
-1.983641732283465
 30
0.0
 10
-0.8332992125984252
 20
-1.983641732283465
 30
0.0
 10
-0.8270787401574804
 20
-1.980807086614173
 30
0.0
 10
-0.8221062992125985
 20
-1.975141732283465
 30
0.0
 10
-0.8221062992125985
 20
-1.975141732283465
 30
0.0
 10
-0.8171614173228347
 20
-1.969476377952756
 30
0.0
 10
-0.8146614173228347
 20
-1.961862204724409
 30
0.0
 10
-0.8146614173228347
 20
-1.952307086614173
 30
0.0
 10
-0.8146614173228347
 20
-1.952307086614173
 30
0.0
 10
-0.8146614173228347
 20
-1.943196850393701
 30
0.0
 10
-0.8170787401574804
 20
-1.935948818897638
 30
0.0
 10
-0.8219094488188977
 20
-1.930586614173228
 30
0.0
 10
-0.8219094488188977
 20
-1.930586614173228
 30
0.0
 10
-0.826744094488189
 20
-1.925196850393701
 30
0.0
 10
-0.8328267716535434
 20
-1.922531496062992
 30
0.0
 10
-0.8401338582677166
 20
-1.922531496062992
 30
0.0
  0
SPLINE
  5
3C
330
1F
100
AcDbEntity
  8
LAYER_1
 62
   250
100
AcDbSpline
210
0.0
220
0.0
230
1.0
 70
    11
 71
     3
 72
    60
 73
    56
 74
     0
 42
0.0000000001
 43
0.0000000001
 40
0.0
 40
0.0
 40
0.0
 40
0.0
 40
0.0714285714285714
 40
0.0714285714285714
 40
0.0714285714285714
 40
0.0714285714285714
 40
0.1428571428571429
 40
0.1428571428571429
 40
0.1428571428571429
 40
0.1428571428571429
 40
0.2142857142857143
 40
0.2142857142857143
 40
0.2142857142857143
 40
0.2142857142857143
 40
0.2857142857142857
 40
0.2857142857142857
 40
0.2857142857142857
 40
0.2857142857142857
 40
0.3571428571428571
 40
0.3571428571428571
 40
0.3571428571428571
 40
0.3571428571428571
 40
0.4285714285714285
 40
0.4285714285714285
 40
0.4285714285714285
 40
0.4285714285714285
 40
0.4999999999999999
 40
0.4999999999999999
 40
0.4999999999999999
 40
0.4999999999999999
 40
0.5714285714285713
 40
0.5714285714285713
 40
0.5714285714285713
 40
0.5714285714285713
 40
0.6428571428571427
 40
0.6428571428571427
 40
0.6428571428571427
 40
0.6428571428571427
 40
0.7142857142857141
 40
0.7142857142857141
 40
0.7142857142857141
 40
0.7142857142857141
 40
0.7857142857142855
 40
0.7857142857142855
 40
0.7857142857142855
 40
0.7857142857142855
 40
0.8571428571428569
 40
0.8571428571428569
 40
0.8571428571428569
 40
0.8571428571428569
 40
0.9285714285714283
 40
0.9285714285714283
 40
0.9285714285714283
 40
0.9285714285714283
 40
1.0
 40
1.0
 40
1.0
 40
1.0
 10
-0.7812992125984253
 20
-1.917724409448819
 30
0.0
 10
-0.7812992125984253
 20
-1.917724409448819
 30
0.0
 10
-0.7856889763779528
 20
-1.912334645669291
 30
0.0
 10
-0.7856889763779528
 20
-1.912334645669291
 30
0.0
 10
-0.7856889763779528
 20
-1.912334645669291
 30
0.0
 10
-0.7745748031496064
 20
-1.903279527559055
 30
0.0
 10
-0.768992125984252
 20
-1.895724409448819
 30
0.0
 10
-0.768992125984252
 20
-1.889641732283465
 30
0.0
 10
-0.768992125984252
 20
-1.889641732283465
 30
0.0
 10
-0.768992125984252
 20
-1.888948818897638
 30
0.0
 10
-0.7690472440944882
 20
-1.88805905511811
 30
0.0
 10
-0.7691614173228347
 20
-1.887031496062992
 30
0.0
 10
-0.7691614173228347
 20
-1.887031496062992
 30
0.0
 10
-0.7700748031496063
 20
-1.88742125984252
 30
0.0
 10
-0.770992125984252
 20
-1.887724409448819
 30
0.0
 10
-0.7718543307086615
 20
-1.88792125984252
 30
0.0
 10
-0.7718543307086615
 20
-1.88792125984252
 30
0.0
 10
-0.772716535433071
 20
-1.888141732283465
 30
0.0
 10
-0.7735196850393701
 20
-1.888251968503937
 30
0.0
 10
-0.7742992125984253
 20
-1.888251968503937
 30
0.0
 10
-0.7742992125984253
 20
-1.888251968503937
 30
0.0
 10
-0.7769094488188977
 20
-1.888251968503937
 30
0.0
 10
-0.7789921259842521
 20
-1.88742125984252
 30
0.0
 10
-0.7805472440944882
 20
-1.885724409448819
 30
0.0
 10
-0.7805472440944882
 20
-1.885724409448819
 30
0.0
 10
-0.7821338582677165
 20
-1.88405905511811
 30
0.0
 10
-0.7829094488188977
 20
-1.88192125984252
 30
0.0
 10
-0.7829094488188977
 20
-1.879307086614173
 30
0.0
 10
-0.7829094488188977
 20
-1.879307086614173
 30
0.0
 10
-0.7829094488188977
 20
-1.876751968503937
 30
0.0
 10
-0.7819645669291339
 20
-1.874531496062992
 30
0.0
 10
-0.7800748031496063
 20
-1.872641732283465
 30
0.0
 10
-0.7800748031496063
 20
-1.872641732283465
 30
0.0
 10
-0.7781614173228347
 20
-1.870724409448819
 30
0.0
 10
-0.7758818897637796
 20
-1.869779527559055
 30
0.0
 10
-0.773244094488189
 20
-1.869779527559055
 30
0.0
 10
-0.773244094488189
 20
-1.869779527559055
 30
0.0
 10
-0.7695472440944883
 20
-1.869779527559055
 30
0.0
 10
-0.7663818897637795
 20
-1.871251968503937
 30
0.0
 10
-0.763744094488189
 20
-1.874224409448819
 30
0.0
 10
-0.763744094488189
 20
-1.874224409448819
 30
0.0
 10
-0.7611338582677165
 20
-1.877169291338583
 30
0.0
 10
-0.7597992125984252
 20
-1.880976377952756
 30
0.0
 10
-0.7597992125984252
 20
-1.885641732283465
 30
0.0
 10
-0.7597992125984252
 20
-1.885641732283465
 30
0.0
 10
-0.7597992125984252
 20
-1.888696850393701
 30
0.0
 10
-0.7604370078740158
 20
-1.891893700787402
 30
0.0
 10
-0.7616889763779527
 20
-1.895224409448819
 30
0.0
 10
-0.7616889763779527
 20
-1.895224409448819
 30
0.0
 10
-0.7629370078740158
 20
-1.89855905511811
 30
0.0
 10
-0.764744094488189
 20
-1.901641732283465
 30
0.0
 10
-0.7671338582677165
 20
-1.904503937007874
 30
0.0
 10
-0.7671338582677165
 20
-1.904503937007874
 30
0.0
 10
-0.7695196850393701
 20
-1.907334645669292
 30
0.0
 10
-0.774244094488189
 20
-1.911751968503937
 30
0.0
 10
-0.7812992125984253
 20
-1.917724409448819
 30
0.0
  0
SPLINE
  5
3D
330
1F
100
AcDbEntity
  8
LAYER_1
 62
   250
100
AcDbSpline
210
0.0
220
0.0
230
1.0
 70
    11
 71
     3
 72
    60
 73
    56
 74
     0
 42
0.0000000001
 43
0.0000000001
 40
0.0
 40
0.0
 40
0.0
 40
0.0
 40
0.0714285714285714
 40
0.0714285714285714
 40
0.0714285714285714
 40
0.0714285714285714
 40
0.1428571428571429
 40
0.1428571428571429
 40
0.1428571428571429
 40
0.1428571428571429
 40
0.2142857142857143
 40
0.2142857142857143
 40
0.2142857142857143
 40
0.2142857142857143
 40
0.2857142857142857
 40
0.2857142857142857
 40
0.2857142857142857
 40
0.2857142857142857
 40
0.3571428571428571
 40
0.3571428571428571
 40
0.3571428571428571
 40
0.3571428571428571
 40
0.4285714285714285
 40
0.4285714285714285
 40
0.4285714285714285
 40
0.4285714285714285
 40
0.4999999999999999
 40
0.4999999999999999
 40
0.4999999999999999
 40
0.4999999999999999
 40
0.5714285714285713
 40
0.5714285714285713
 40
0.5714285714285713
 40
0.5714285714285713
 40
0.6428571428571427
 40
0.6428571428571427
 40
0.6428571428571427
 40
0.6428571428571427
 40
0.7142857142857141
 40
0.7142857142857141
 40
0.7142857142857141
 40
0.7142857142857141
 40
0.7857142857142855
 40
0.7857142857142855
 40
0.7857142857142855
 40
0.7857142857142855
 40
0.8571428571428569
 40
0.8571428571428569
 40
0.8571428571428569
 40
0.8571428571428569
 40
0.9285714285714283
 40
0.9285714285714283
 40
0.9285714285714283
 40
0.9285714285714283
 40
1.0
 40
1.0
 40
1.0
 40
1.0
 10
-0.752244094488189
 20
-1.917724409448819
 30
0.0
 10
-0.752244094488189
 20
-1.917724409448819
 30
0.0
 10
-0.7566338582677166
 20
-1.912334645669291
 30
0.0
 10
-0.7566338582677166
 20
-1.912334645669291
 30
0.0
 10
-0.7566338582677166
 20
-1.912334645669291
 30
0.0
 10
-0.7455196850393702
 20
-1.903279527559055
 30
0.0
 10
-0.7399370078740157
 20
-1.895724409448819
 30
0.0
 10
-0.7399370078740157
 20
-1.889641732283465
 30
0.0
 10
-0.7399370078740157
 20
-1.889641732283465
 30
0.0
 10
-0.7399370078740157
 20
-1.888948818897638
 30
0.0
 10
-0.739992125984252
 20
-1.88805905511811
 30
0.0
 10
-0.7401062992125984
 20
-1.887031496062992
 30
0.0
 10
-0.7401062992125984
 20
-1.887031496062992
 30
0.0
 10
-0.7410196850393701
 20
-1.88742125984252
 30
0.0
 10
-0.7419370078740157
 20
-1.887724409448819
 30
0.0
 10
-0.7427992125984252
 20
-1.88792125984252
 30
0.0
 10
-0.7427992125984252
 20
-1.88792125984252
 30
0.0
 10
-0.7436614173228346
 20
-1.888141732283465
 30
0.0
 10
-0.744492125984252
 20
-1.888251968503937
 30
0.0
 10
-0.7453267716535433
 20
-1.888251968503937
 30
0.0
 10
-0.7453267716535433
 20
-1.888251968503937
 30
0.0
 10
-0.7478818897637796
 20
-1.888251968503937
 30
0.0
 10
-0.7499370078740157
 20
-1.88742125984252
 30
0.0
 10
-0.751492125984252
 20
-1.885724409448819
 30
0.0
 10
-0.751492125984252
 20
-1.885724409448819
 30
0.0
 10
-0.7530748031496063
 20
-1.88405905511811
 30
0.0
 10
-0.7538543307086615
 20
-1.88192125984252
 30
0.0
 10
-0.7538543307086615
 20
-1.879307086614173
 30
0.0
 10
-0.7538543307086615
 20
-1.879307086614173
 30
0.0
 10
-0.7538543307086615
 20
-1.876751968503937
 30
0.0
 10
-0.7529094488188977
 20
-1.874531496062992
 30
0.0
 10
-0.7510196850393701
 20
-1.872641732283465
 30
0.0
 10
-0.7510196850393701
 20
-1.872641732283465
 30
0.0
 10
-0.7491338582677166
 20
-1.870724409448819
 30
0.0
 10
-0.7468267716535434
 20
-1.869779527559055
 30
0.0
 10
-0.7441889763779528
 20
-1.869779527559055
 30
0.0
 10
-0.7441889763779528
 20
-1.869779527559055
 30
0.0
 10
-0.740492125984252
 20
-1.869779527559055
 30
0.0
 10
-0.7373267716535433
 20
-1.871251968503937
 30
0.0
 10
-0.7346889763779528
 20
-1.874224409448819
 30
0.0
 10
-0.7346889763779528
 20
-1.874224409448819
 30
0.0
 10
-0.7320787401574803
 20
-1.877169291338583
 30
0.0
 10
-0.730744094488189
 20
-1.880976377952756
 30
0.0
 10
-0.730744094488189
 20
-1.885641732283465
 30
0.0
 10
-0.730744094488189
 20
-1.885641732283465
 30
0.0
 10
-0.730744094488189
 20
-1.888696850393701
 30
0.0
 10
-0.7313818897637796
 20
-1.891893700787402
 30
0.0
 10
-0.7326338582677165
 20
-1.895224409448819
 30
0.0
 10
-0.7326338582677165
 20
-1.895224409448819
 30
0.0
 10
-0.7338818897637796
 20
-1.89855905511811
 30
0.0
 10
-0.7356889763779528
 20
-1.901641732283465
 30
0.0
 10
-0.7380748031496063
 20
-1.904503937007874
 30
0.0
 10
-0.7380748031496063
 20
-1.904503937007874
 30
0.0
 10
-0.7404645669291339
 20
-1.907334645669292
 30
0.0
 10
-0.7451889763779528
 20
-1.911751968503937
 30
0.0
 10
-0.752244094488189
 20
-1.917724409448819
 30
0.0
  0
SPLINE
  5
3E
330
1F
100
AcDbEntity
  8
LAYER_1
 62
   250
100
AcDbSpline
210
0.0
220
0.0
230
1.0
 70
    11
 71
     3
 72
   204
 73
   200
 74
     0
 42
0.0000000001
 43
0.0000000001
 40
0.0
 40
0.0
 40
0.0
 40
0.0
 40
0.02
 40
0.02
 40
0.02
 40
0.02
 40
0.04
 40
0.04
 40
0.04
 40
0.04
 40
0.06
 40
0.06
 40
0.06
 40
0.06
 40
0.08
 40
0.08
 40
0.08
 40
0.08
 40
0.1
 40
0.1
 40
0.1
 40
0.1
 40
0.12
 40
0.12
 40
0.12
 40
0.12
 40
0.14
 40
0.14
 40
0.14
 40
0.14
 40
0.16
 40
0.16
 40
0.16
 40
0.16
 40
0.18
 40
0.18
 40
0.18
 40
0.18
 40
0.2
 40
0.2
 40
0.2
 40
0.2
 40
0.22
 40
0.22
 40
0.22
 40
0.22
 40
0.24
 40
0.24
 40
0.24
 40
0.24
 40
0.26
 40
0.26
 40
0.26
 40
0.26
 40
0.28
 40
0.28
 40
0.28
 40
0.28
 40
0.3
 40
0.3
 40
0.3
 40
0.3
 40
0.32
 40
0.32
 40
0.32
 40
0.32
 40
0.34
 40
0.34
 40
0.34
 40
0.34
 40
0.36
 40
0.36
 40
0.36
 40
0.36
 40
0.3800000000000001
 40
0.3800000000000001
 40
0.3800000000000001
 40
0.3800000000000001
 40
0.4000000000000001
 40
0.4000000000000001
 40
0.4000000000000001
 40
0.4000000000000001
 40
0.4200000000000001
 40
0.4200000000000001
 40
0.4200000000000001
 40
0.4200000000000001
 40
0.4400000000000001
 40
0.4400000000000001
 40
0.4400000000000001
 40
0.4400000000000001
 40
0.4600000000000001
 40
0.4600000000000001
 40
0.4600000000000001
 40
0.4600000000000001
 40
0.4800000000000002
 40
0.4800000000000002
 40
0.4800000000000002
 40
0.4800000000000002
 40
0.5000000000000001
 40
0.5000000000000001
 40
0.5000000000000001
 40
0.5000000000000001
 40
0.5200000000000001
 40
0.5200000000000001
 40
0.5200000000000001
 40
0.5200000000000001
 40
0.5400000000000002
 40
0.5400000000000002
 40
0.5400000000000002
 40
0.5400000000000002
 40
0.5600000000000002
 40
0.5600000000000002
 40
0.5600000000000002
 40
0.5600000000000002
 40
0.5800000000000002
 40
0.5800000000000002
 40
0.5800000000000002
 40
0.5800000000000002
 40
0.6000000000000002
 40
0.6000000000000002
 40
0.6000000000000002
 40
0.6000000000000002
 40
0.6200000000000002
 40
0.6200000000000002
 40
0.6200000000000002
 40
0.6200000000000002
 40
0.6400000000000002
 40
0.6400000000000002
 40
0.6400000000000002
 40
0.6400000000000002
 40
0.6600000000000003
 40
0.6600000000000003
 40
0.6600000000000003
 40
0.6600000000000003
 40
0.6800000000000003
 40
0.6800000000000003
 40
0.6800000000000003
 40
0.6800000000000003
 40
0.7000000000000003
 40
0.7000000000000003
 40
0.7000000000000003
 40
0.7000000000000003
 40
0.7200000000000003
 40
0.7200000000000003
 40
0.7200000000000003
 40
0.7200000000000003
 40
0.7400000000000003
 40
0.7400000000000003
 40
0.7400000000000003
 40
0.7400000000000003
 40
0.7600000000000003
 40
0.7600000000000003
 40
0.7600000000000003
 40
0.7600000000000003
 40
0.7800000000000004
 40
0.7800000000000004
 40
0.7800000000000004
 40
0.7800000000000004
 40
0.8000000000000004
 40
0.8000000000000004
 40
0.8000000000000004
 40
0.8000000000000004
 40
0.8200000000000004
 40
0.8200000000000004
 40
0.8200000000000004
 40
0.8200000000000004
 40
0.8400000000000004
 40
0.8400000000000004
 40
0.8400000000000004
 40
0.8400000000000004
 40
0.8600000000000004
 40
0.8600000000000004
 40
0.8600000000000004
 40
0.8600000000000004
 40
0.8800000000000005
 40
0.8800000000000005
 40
0.8800000000000005
 40
0.8800000000000005
 40
0.9000000000000005
 40
0.9000000000000005
 40
0.9000000000000005
 40
0.9000000000000005
 40
0.9200000000000005
 40
0.9200000000000005
 40
0.9200000000000005
 40
0.9200000000000005
 40
0.9400000000000005
 40
0.9400000000000005
 40
0.9400000000000005
 40
0.9400000000000005
 40
0.9600000000000005
 40
0.9600000000000005
 40
0.9600000000000005
 40
0.9600000000000005
 40
0.9800000000000005
 40
0.9800000000000005
 40
0.9800000000000005
 40
0.9800000000000005
 40
1.0
 40
1.0
 40
1.0
 40
1.0
 10
-0.6684370078740157
 20
-1.910641732283465
 30
0.0
 10
-0.6684370078740157
 20
-1.910641732283465
 30
0.0
 10
-0.627492125984252
 20
-1.910641732283465
 30
0.0
 10
-0.627492125984252
 20
-1.910641732283465
 30
0.0
 10
-0.627492125984252
 20
-1.910641732283465
 30
0.0
 10
-0.627492125984252
 20
-1.910641732283465
 30
0.0
 10
-0.627492125984252
 20
-1.917476377952756
 30
0.0
 10
-0.627492125984252
 20
-1.917476377952756
 30
0.0
 10
-0.627492125984252
 20
-1.917476377952756
 30
0.0
 10
-0.627492125984252
 20
-1.917476377952756
 30
0.0
 10
-0.6303267716535433
 20
-1.917476377952756
 30
0.0
 10
-0.6303267716535433
 20
-1.917476377952756
 30
0.0
 10
-0.6303267716535433
 20
-1.917476377952756
 30
0.0
 10
-0.6319645669291338
 20
-1.917476377952756
 30
0.0
 10
-0.6334645669291339
 20
-1.917669291338583
 30
0.0
 10
-0.6348267716535433
 20
-1.918031496062992
 30
0.0
 10
-0.6348267716535433
 20
-1.918031496062992
 30
0.0
 10
-0.6356299212598425
 20
-1.918251968503937
 30
0.0
 10
-0.6362992125984253
 20
-1.918669291338583
 30
0.0
 10
-0.6367992125984252
 20
-1.919307086614173
 30
0.0
 10
-0.6367992125984252
 20
-1.919307086614173
 30
0.0
 10
-0.6373267716535433
 20
-1.91992125984252
 30
0.0
 10
-0.6375748031496064
 20
-1.920503937007874
 30
0.0
 10
-0.6375748031496064
 20
-1.92105905511811
 30
0.0
 10
-0.6375748031496064
 20
-1.92105905511811
 30
0.0
 10
-0.6375748031496064
 20
-1.922307086614173
 30
0.0
 10
-0.6365472440944883
 20
-1.924169291338583
 30
0.0
 10
-0.634492125984252
 20
-1.926669291338583
 30
0.0
 10
-0.634492125984252
 20
-1.926669291338583
 30
0.0
 10
-0.634492125984252
 20
-1.926669291338583
 30
0.0
 10
-0.6228543307086615
 20
-1.941307086614173
 30
0.0
 10
-0.6228543307086615
 20
-1.941307086614173
 30
0.0
 10
-0.6228543307086615
 20
-1.941307086614173
 30
0.0
 10
-0.6228543307086615
 20
-1.941307086614173
 30
0.0
 10
-0.6092716535433072
 20
-1.926669291338583
 30
0.0
 10
-0.6092716535433072
 20
-1.926669291338583
 30
0.0
 10
-0.6092716535433072
 20
-1.926669291338583
 30
0.0
 10
-0.6067716535433071
 20
-1.923948818897638
 30
0.0
 10
-0.6055196850393702
 20
-1.92192125984252
 30
0.0
 10
-0.6055196850393702
 20
-1.92055905511811
 30
0.0
 10
-0.6055196850393702
 20
-1.92055905511811
 30
0.0
 10
-0.6055196850393702
 20
-1.919586614173229
 30
0.0
 10
-0.6059645669291339
 20
-1.918834645669292
 30
0.0
 10
-0.6068267716535434
 20
-1.918279527559055
 30
0.0
 10
-0.6068267716535434
 20
-1.918279527559055
 30
0.0
 10
-0.6076889763779528
 20
-1.917751968503937
 30
0.0
 10
-0.6095472440944882
 20
-1.917476377952756
 30
0.0
 10
-0.6124370078740158
 20
-1.917476377952756
 30
0.0
 10
-0.6124370078740158
 20
-1.917476377952756
 30
0.0
 10
-0.6124370078740158
 20
-1.917476377952756
 30
0.0
 10
-0.6155196850393702
 20
-1.917476377952756
 30
0.0
 10
-0.6155196850393702
 20
-1.917476377952756
 30
0.0
 10
-0.6155196850393702
 20
-1.917476377952756
 30
0.0
 10
-0.6155196850393702
 20
-1.917476377952756
 30
0.0
 10
-0.6155196850393702
 20
-1.910641732283465
 30
0.0
 10
-0.6155196850393702
 20
-1.910641732283465
 30
0.0
 10
-0.6155196850393702
 20
-1.910641732283465
 30
0.0
 10
-0.6155196850393702
 20
-1.910641732283465
 30
0.0
 10
-0.5807716535433071
 20
-1.910641732283465
 30
0.0
 10
-0.5807716535433071
 20
-1.910641732283465
 30
0.0
 10
-0.5807716535433071
 20
-1.910641732283465
 30
0.0
 10
-0.5807716535433071
 20
-1.910641732283465
 30
0.0
 10
-0.5807716535433071
 20
-1.917476377952756
 30
0.0
 10
-0.5807716535433071
 20
-1.917476377952756
 30
0.0
 10
-0.5807716535433071
 20
-1.917476377952756
 30
0.0
 10
-0.5841889763779528
 20
-1.917641732283465
 30
0.0
 10
-0.5871338582677166
 20
-1.918334645669291
 30
0.0
 10
-0.5896023622047244
 20
-1.919586614173229
 30
0.0
 10
-0.5896023622047244
 20
-1.919586614173229
 30
0.0
 10
-0.5920748031496064
 20
-1.920834645669292
 30
0.0
 10
-0.594992125984252
 20
-1.923196850393701
 30
0.0
 10
-0.5983543307086614
 20
-1.926669291338583
 30
0.0
 10
-0.5983543307086614
 20
-1.926669291338583
 30
0.0
 10
-0.5983543307086614
 20
-1.926669291338583
 30
0.0
 10
-0.616992125984252
 20
-1.946031496062992
 30
0.0
 10
-0.616992125984252
 20
-1.946031496062992
 30
0.0
 10
-0.616992125984252
 20
-1.946031496062992
 30
0.0
 10
-0.616992125984252
 20
-1.946031496062992
 30
0.0
 10
-0.5937992125984253
 20
-1.972476377952756
 30
0.0
 10
-0.5937992125984253
 20
-1.972476377952756
 30
0.0
 10
-0.5937992125984253
 20
-1.972476377952756
 30
0.0
 10
-0.5937992125984253
 20
-1.972476377952756
 30
0.0
 10
-0.5929094488188976
 20
-1.973614173228347
 30
0.0
 10
-0.5929094488188976
 20
-1.973614173228347
 30
0.0
 10
-0.5929094488188976
 20
-1.973614173228347
 30
0.0
 10
-0.5906338582677165
 20
-1.97655905511811
 30
0.0
 10
-0.5880748031496064
 20
-1.97892125984252
 30
0.0
 10
-0.585244094488189
 20
-1.980696850393701
 30
0.0
 10
-0.585244094488189
 20
-1.980696850393701
 30
0.0
 10
-0.5836889763779528
 20
-1.981724409448819
 30
0.0
 10
-0.581244094488189
 20
-1.982279527559055
 30
0.0
 10
-0.5779370078740158
 20
-1.982334645669291
 30
0.0
 10
-0.5779370078740158
 20
-1.982334645669291
 30
0.0
 10
-0.5779370078740158
 20
-1.982334645669291
 30
0.0
 10
-0.5779370078740158
 20
-1.989169291338583
 30
0.0
 10
-0.5779370078740158
 20
-1.989169291338583
 30
0.0
 10
-0.5779370078740158
 20
-1.989169291338583
 30
0.0
 10
-0.5779370078740158
 20
-1.989169291338583
 30
0.0
 10
-0.6178818897637796
 20
-1.989169291338583
 30
0.0
 10
-0.6178818897637796
 20
-1.989169291338583
 30
0.0
 10
-0.6178818897637796
 20
-1.989169291338583
 30
0.0
 10
-0.6178818897637796
 20
-1.989169291338583
 30
0.0
 10
-0.6178818897637796
 20
-1.982334645669291
 30
0.0
 10
-0.6178818897637796
 20
-1.982334645669291
 30
0.0
 10
-0.6178818897637796
 20
-1.982334645669291
 30
0.0
 10
-0.6178818897637796
 20
-1.982334645669291
 30
0.0
 10
-0.6144645669291339
 20
-1.982334645669291
 30
0.0
 10
-0.6144645669291339
 20
-1.982334645669291
 30
0.0
 10
-0.6144645669291339
 20
-1.982334645669291
 30
0.0
 10
-0.6118543307086615
 20
-1.982334645669291
 30
0.0
 10
-0.6102165354330709
 20
-1.982169291338583
 30
0.0
 10
-0.609492125984252
 20
-1.981834645669292
 30
0.0
 10
-0.609492125984252
 20
-1.981834645669292
 30
0.0
 10
-0.6083267716535433
 20
-1.981307086614173
 30
0.0
 10
-0.6077165354330709
 20
-1.980389763779528
 30
0.0
 10
-0.6077165354330709
 20
-1.979086614173228
 30
0.0
 10
-0.6077165354330709
 20
-1.979086614173228
 30
0.0
 10
-0.6077165354330709
 20
-1.977889763779528
 30
0.0
 10
-0.6090196850393701
 20
-1.975696850393701
 30
0.0
 10
-0.6116338582677166
 20
-1.972476377952756
 30
0.0
 10
-0.6116338582677166
 20
-1.972476377952756
 30
0.0
 10
-0.6116338582677166
 20
-1.972476377952756
 30
0.0
 10
-0.6264370078740158
 20
-1.954334645669291
 30
0.0
 10
-0.6264370078740158
 20
-1.954334645669291
 30
0.0
 10
-0.6264370078740158
 20
-1.954334645669291
 30
0.0
 10
-0.6264370078740158
 20
-1.954334645669291
 30
0.0
 10
-0.6429645669291338
 20
-1.972476377952756
 30
0.0
 10
-0.6429645669291338
 20
-1.972476377952756
 30
0.0
 10
-0.6429645669291338
 20
-1.972476377952756
 30
0.0
 10
-0.6429645669291338
 20
-1.972476377952756
 30
0.0
 10
-0.6445748031496064
 20
-1.974448818897638
 30
0.0
 10
-0.6445748031496064
 20
-1.974448818897638
 30
0.0
 10
-0.6445748031496064
 20
-1.974448818897638
 30
0.0
 10
-0.6445748031496064
 20
-1.974448818897638
 30
0.0
 10
-0.6454645669291339
 20
-1.97542125984252
 30
0.0
 10
-0.6454645669291339
 20
-1.97542125984252
 30
0.0
 10
-0.6454645669291339
 20
-1.97542125984252
 30
0.0
 10
-0.6468267716535433
 20
-1.976889763779528
 30
0.0
 10
-0.6475196850393701
 20
-1.978169291338583
 30
0.0
 10
-0.6475196850393701
 20
-1.979307086614173
 30
0.0
 10
-0.6475196850393701
 20
-1.979307086614173
 30
0.0
 10
-0.6475196850393701
 20
-1.98036220472441
 30
0.0
 10
-0.6471023622047244
 20
-1.981114173228347
 30
0.0
 10
-0.646244094488189
 20
-1.981614173228347
 30
0.0
 10
-0.646244094488189
 20
-1.981614173228347
 30
0.0
 10
-0.6454094488188976
 20
-1.982086614173229
 30
0.0
 10
-0.6435196850393701
 20
-1.982334645669291
 30
0.0
 10
-0.6406023622047244
 20
-1.982334645669291
 30
0.0
 10
-0.6406023622047244
 20
-1.982334645669291
 30
0.0
 10
-0.6406023622047244
 20
-1.982334645669291
 30
0.0
 10
-0.6373267716535433
 20
-1.982334645669291
 30
0.0
 10
-0.6373267716535433
 20
-1.982334645669291
 30
0.0
 10
-0.6373267716535433
 20
-1.982334645669291
 30
0.0
 10
-0.6373267716535433
 20
-1.982334645669291
 30
0.0
 10
-0.6373267716535433
 20
-1.989169291338583
 30
0.0
 10
-0.6373267716535433
 20
-1.989169291338583
 30
0.0
 10
-0.6373267716535433
 20
-1.989169291338583
 30
0.0
 10
-0.6373267716535433
 20
-1.989169291338583
 30
0.0
 10
-0.6716023622047245
 20
-1.989169291338583
 30
0.0
 10
-0.6716023622047245
 20
-1.989169291338583
 30
0.0
 10
-0.6716023622047245
 20
-1.989169291338583
 30
0.0
 10
-0.6716023622047245
 20
-1.989169291338583
 30
0.0
 10
-0.6716023622047245
 20
-1.982334645669291
 30
0.0
 10
-0.6716023622047245
 20
-1.982334645669291
 30
0.0
 10
-0.6716023622047245
 20
-1.982334645669291
 30
0.0
 10
-0.6689370078740158
 20
-1.982279527559055
 30
0.0
 10
-0.6668543307086614
 20
-1.982003937007874
 30
0.0
 10
-0.6653267716535434
 20
-1.981476377952756
 30
0.0
 10
-0.6653267716535434
 20
-1.981476377952756
 30
0.0
 10
-0.6638267716535433
 20
-1.980976377952756
 30
0.0
 10
-0.6623543307086615
 20
-1.980169291338583
 30
0.0
 10
-0.6609370078740158
 20
-1.979086614173228
 30
0.0
 10
-0.6609370078740158
 20
-1.979086614173228
 30
0.0
 10
-0.658492125984252
 20
-1.977114173228347
 30
0.0
 10
-0.6567440944881891
 20
-1.975586614173228
 30
0.0
 10
-0.6556574803149606
 20
-1.974448818897638
 30
0.0
 10
-0.6556574803149606
 20
-1.974448818897638
 30
0.0
 10
-0.6556574803149606
 20
-1.974448818897638
 30
0.0
 10
-0.6317992125984252
 20
-1.949948818897638
 30
0.0
 10
-0.6317992125984252
 20
-1.949948818897638
 30
0.0
 10
-0.6317992125984252
 20
-1.949948818897638
 30
0.0
 10
-0.6317992125984252
 20
-1.949948818897638
 30
0.0
 10
-0.6520748031496063
 20
-1.926669291338583
 30
0.0
 10
-0.6520748031496063
 20
-1.926669291338583
 30
0.0
 10
-0.6520748031496063
 20
-1.926669291338583
 30
0.0
 10
-0.6546299212598425
 20
-1.923779527559055
 30
0.0
 10
-0.6566299212598425
 20
-1.921779527559055
 30
0.0
 10
-0.6581299212598426
 20
-1.920614173228347
 30
0.0
 10
-0.6581299212598426
 20
-1.920614173228347
 30
0.0
 10
-0.6596299212598425
 20
-1.919448818897638
 30
0.0
 10
-0.6610748031496063
 20
-1.918614173228347
 30
0.0
 10
-0.662492125984252
 20
-1.918169291338583
 30
0.0
 10
-0.662492125984252
 20
-1.918169291338583
 30
0.0
 10
-0.6639094488188977
 20
-1.917696850393701
 30
0.0
 10
-0.6658818897637796
 20
-1.917476377952756
 30
0.0
 10
-0.6684370078740157
 20
-1.917476377952756
 30
0.0
 10
-0.6684370078740157
 20
-1.917476377952756
 30
0.0
 10
-0.6684370078740157
 20
-1.917476377952756
 30
0.0
 10
-0.6684370078740157
 20
-1.910641732283465
 30
0.0
 10
-0.6684370078740157
 20
-1.910641732283465
 30
0.0
  0
SPLINE
  5
3F
330
1F
100
AcDbEntity
  8
LAYER_1
 62
   250
100
AcDbSpline
210
0.0
220
0.0
230
1.0
 70
    11
 71
     3
 72
    72
 73
    68
 74
     0
 42
0.0000000001
 43
0.0000000001
 40
0.0
 40
0.0
 40
0.0
 40
0.0
 40
0.0588235294117647
 40
0.0588235294117647
 40
0.0588235294117647
 40
0.0588235294117647
 40
0.1176470588235294
 40
0.1176470588235294
 40
0.1176470588235294
 40
0.1176470588235294
 40
0.1764705882352941
 40
0.1764705882352941
 40
0.1764705882352941
 40
0.1764705882352941
 40
0.2352941176470588
 40
0.2352941176470588
 40
0.2352941176470588
 40
0.2352941176470588
 40
0.2941176470588235
 40
0.2941176470588235
 40
0.2941176470588235
 40
0.2941176470588235
 40
0.3529411764705883
 40
0.3529411764705883
 40
0.3529411764705883
 40
0.3529411764705883
 40
0.411764705882353
 40
0.411764705882353
 40
0.411764705882353
 40
0.411764705882353
 40
0.4705882352941177
 40
0.4705882352941177
 40
0.4705882352941177
 40
0.4705882352941177
 40
0.5294117647058824
 40
0.5294117647058824
 40
0.5294117647058824
 40
0.5294117647058824
 40
0.5882352941176471
 40
0.5882352941176471
 40
0.5882352941176471
 40
0.5882352941176471
 40
0.6470588235294118
 40
0.6470588235294118
 40
0.6470588235294118
 40
0.6470588235294118
 40
0.7058823529411765
 40
0.7058823529411765
 40
0.7058823529411765
 40
0.7058823529411765
 40
0.7647058823529412
 40
0.7647058823529412
 40
0.7647058823529412
 40
0.7647058823529412
 40
0.823529411764706
 40
0.823529411764706
 40
0.823529411764706
 40
0.823529411764706
 40
0.8823529411764707
 40
0.8823529411764707
 40
0.8823529411764707
 40
0.8823529411764707
 40
0.9411764705882354
 40
0.9411764705882354
 40
0.9411764705882354
 40
0.9411764705882354
 40
1.0
 40
1.0
 40
1.0
 40
1.0
 10
-0.4687992125984252
 20
-1.875641732283465
 30
0.0
 10
-0.4687992125984252
 20
-1.875641732283465
 30
0.0
 10
-0.4627165354330709
 20
-1.875641732283465
 30
0.0
 10
-0.4627165354330709
 20
-1.875641732283465
 30
0.0
 10
-0.4627165354330709
 20
-1.875641732283465
 30
0.0
 10
-0.4627165354330709
 20
-1.875641732283465
 30
0.0
 10
-0.4627165354330709
 20
-1.969889763779528
 30
0.0
 10
-0.4627165354330709
 20
-1.969889763779528
 30
0.0
 10
-0.4627165354330709
 20
-1.969889763779528
 30
0.0
 10
-0.4627165354330709
 20
-1.974334645669291
 30
0.0
 10
-0.4624094488188977
 20
-1.977196850393701
 30
0.0
 10
-0.4618543307086614
 20
-1.978476377952756
 30
0.0
 10
-0.4618543307086614
 20
-1.978476377952756
 30
0.0
 10
-0.4612716535433071
 20
-1.979751968503937
 30
0.0
 10
-0.4603543307086614
 20
-1.980696850393701
 30
0.0
 10
-0.4590511811023622
 20
-1.98136220472441
 30
0.0
 10
-0.4590511811023622
 20
-1.98136220472441
 30
0.0
 10
-0.457744094488189
 20
-1.982003937007874
 30
0.0
 10
-0.4551614173228347
 20
-1.982334645669291
 30
0.0
 10
-0.4512992125984252
 20
-1.982334645669291
 30
0.0
 10
-0.4512992125984252
 20
-1.982334645669291
 30
0.0
 10
-0.4512992125984252
 20
-1.982334645669291
 30
0.0
 10
-0.4433267716535433
 20
-1.982334645669291
 30
0.0
 10
-0.4433267716535433
 20
-1.982334645669291
 30
0.0
 10
-0.4433267716535433
 20
-1.982334645669291
 30
0.0
 10
-0.4433267716535433
 20
-1.982334645669291
 30
0.0
 10
-0.4433267716535433
 20
-1.989169291338583
 30
0.0
 10
-0.4433267716535433
 20
-1.989169291338583
 30
0.0
 10
-0.4433267716535433
 20
-1.989169291338583
 30
0.0
 10
-0.4433267716535433
 20
-1.989169291338583
 30
0.0
 10
-0.4969645669291339
 20
-1.989169291338583
 30
0.0
 10
-0.4969645669291339
 20
-1.989169291338583
 30
0.0
 10
-0.4969645669291339
 20
-1.989169291338583
 30
0.0
 10
-0.4969645669291339
 20
-1.989169291338583
 30
0.0
 10
-0.4969645669291339
 20
-1.982334645669291
 30
0.0
 10
-0.4969645669291339
 20
-1.982334645669291
 30
0.0
 10
-0.4969645669291339
 20
-1.982334645669291
 30
0.0
 10
-0.4969645669291339
 20
-1.982334645669291
 30
0.0
 10
-0.4881062992125985
 20
-1.982334645669291
 30
0.0
 10
-0.4881062992125985
 20
-1.982334645669291
 30
0.0
 10
-0.4881062992125985
 20
-1.982334645669291
 30
0.0
 10
-0.484244094488189
 20
-1.982334645669291
 30
0.0
 10
-0.4816889763779528
 20
-1.982003937007874
 30
0.0
 10
-0.4804094488188976
 20
-1.981307086614173
 30
0.0
 10
-0.4804094488188976
 20
-1.981307086614173
 30
0.0
 10
-0.4791338582677165
 20
-1.980641732283465
 30
0.0
 10
-0.4781338582677165
 20
-1.97955905511811
 30
0.0
 10
-0.4774370078740158
 20
-1.97805905511811
 30
0.0
 10
-0.4774370078740158
 20
-1.97805905511811
 30
0.0
 10
-0.476744094488189
 20
-1.97655905511811
 30
0.0
 10
-0.4763818897637795
 20
-1.973834645669292
 30
0.0
 10
-0.4763818897637795
 20
-1.969889763779528
 30
0.0
 10
-0.4763818897637795
 20
-1.969889763779528
 30
0.0
 10
-0.4763818897637795
 20
-1.969889763779528
 30
0.0
 10
-0.4763818897637795
 20
-1.89242125984252
 30
0.0
 10
-0.4763818897637795
 20
-1.89242125984252
 30
0.0
 10
-0.4763818897637795
 20
-1.89242125984252
 30
0.0
 10
-0.4763818897637795
 20
-1.89242125984252
 30
0.0
 10
-0.4969645669291339
 20
-1.89242125984252
 30
0.0
 10
-0.4969645669291339
 20
-1.89242125984252
 30
0.0
 10
-0.4969645669291339
 20
-1.89242125984252
 30
0.0
 10
-0.4969645669291339
 20
-1.89242125984252
 30
0.0
 10
-0.4969645669291339
 20
-1.88542125984252
 30
0.0
 10
-0.4969645669291339
 20
-1.88542125984252
 30
0.0
 10
-0.4969645669291339
 20
-1.88542125984252
 30
0.0
 10
-0.485744094488189
 20
-1.883838582677166
 30
0.0
 10
-0.4763543307086615
 20
-1.880586614173228
 30
0.0
 10
-0.4687992125984252
 20
-1.875641732283465
 30
0.0
  0
SPLINE
  5
40
330
1F
100
AcDbEntity
  8
LAYER_1
 62
   250
100
AcDbSpline
210
0.0
220
0.0
230
1.0
 70
    11
 71
     3
 72
    20
 73
    16
 74
     0
 42
0.0000000001
 43
0.0000000001
 40
0.0
 40
0.0
 40
0.0
 40
0.0
 40
0.25
 40
0.25
 40
0.25
 40
0.25
 40
0.5
 40
0.5
 40
0.5
 40
0.5
 40
0.75
 40
0.75
 40
0.75
 40
0.75
 40
1.0
 40
1.0
 40
1.0
 40
1.0
 10
-0.4123267716535433
 20
-1.942696850393701
 30
0.0
 10
-0.4123267716535433
 20
-1.942696850393701
 30
0.0
 10
-0.363992125984252
 20
-1.942696850393701
 30
0.0
 10
-0.363992125984252
 20
-1.942696850393701
 30
0.0
 10
-0.363992125984252
 20
-1.942696850393701
 30
0.0
 10
-0.363992125984252
 20
-1.942696850393701
 30
0.0
 10
-0.363992125984252
 20
-1.952779527559055
 30
0.0
 10
-0.363992125984252
 20
-1.952779527559055
 30
0.0
 10
-0.363992125984252
 20
-1.952779527559055
 30
0.0
 10
-0.363992125984252
 20
-1.952779527559055
 30
0.0
 10
-0.4123267716535433
 20
-1.952779527559055
 30
0.0
 10
-0.4123267716535433
 20
-1.952779527559055
 30
0.0
 10
-0.4123267716535433
 20
-1.952779527559055
 30
0.0
 10
-0.4123267716535433
 20
-1.952779527559055
 30
0.0
 10
-0.4123267716535433
 20
-1.942696850393701
 30
0.0
 10
-0.4123267716535433
 20
-1.942696850393701
 30
0.0
  0
SPLINE
  5
41
330
1F
100
AcDbEntity
  8
LAYER_1
 62
   250
100
AcDbSpline
210
0.0
220
0.0
230
1.0
 70
    11
 71
     3
 72
    72
 73
    68
 74
     0
 42
0.0000000001
 43
0.0000000001
 40
0.0
 40
0.0
 40
0.0
 40
0.0
 40
0.0588235294117647
 40
0.0588235294117647
 40
0.0588235294117647
 40
0.0588235294117647
 40
0.1176470588235294
 40
0.1176470588235294
 40
0.1176470588235294
 40
0.1176470588235294
 40
0.1764705882352941
 40
0.1764705882352941
 40
0.1764705882352941
 40
0.1764705882352941
 40
0.2352941176470588
 40
0.2352941176470588
 40
0.2352941176470588
 40
0.2352941176470588
 40
0.2941176470588235
 40
0.2941176470588235
 40
0.2941176470588235
 40
0.2941176470588235
 40
0.3529411764705883
 40
0.3529411764705883
 40
0.3529411764705883
 40
0.3529411764705883
 40
0.411764705882353
 40
0.411764705882353
 40
0.411764705882353
 40
0.411764705882353
 40
0.4705882352941177
 40
0.4705882352941177
 40
0.4705882352941177
 40
0.4705882352941177
 40
0.5294117647058824
 40
0.5294117647058824
 40
0.5294117647058824
 40
0.5294117647058824
 40
0.5882352941176471
 40
0.5882352941176471
 40
0.5882352941176471
 40
0.5882352941176471
 40
0.6470588235294118
 40
0.6470588235294118
 40
0.6470588235294118
 40
0.6470588235294118
 40
0.7058823529411765
 40
0.7058823529411765
 40
0.7058823529411765
 40
0.7058823529411765
 40
0.7647058823529412
 40
0.7647058823529412
 40
0.7647058823529412
 40
0.7647058823529412
 40
0.823529411764706
 40
0.823529411764706
 40
0.823529411764706
 40
0.823529411764706
 40
0.8823529411764707
 40
0.8823529411764707
 40
0.8823529411764707
 40
0.8823529411764707
 40
0.9411764705882354
 40
0.9411764705882354
 40
0.9411764705882354
 40
0.9411764705882354
 40
1.0
 40
1.0
 40
1.0
 40
1.0
 10
-0.2987992125984252
 20
-1.875641732283465
 30
0.0
 10
-0.2987992125984252
 20
-1.875641732283465
 30
0.0
 10
-0.2927165354330709
 20
-1.875641732283465
 30
0.0
 10
-0.2927165354330709
 20
-1.875641732283465
 30
0.0
 10
-0.2927165354330709
 20
-1.875641732283465
 30
0.0
 10
-0.2927165354330709
 20
-1.875641732283465
 30
0.0
 10
-0.2927165354330709
 20
-1.969889763779528
 30
0.0
 10
-0.2927165354330709
 20
-1.969889763779528
 30
0.0
 10
-0.2927165354330709
 20
-1.969889763779528
 30
0.0
 10
-0.2927165354330709
 20
-1.974334645669291
 30
0.0
 10
-0.2924094488188976
 20
-1.977196850393701
 30
0.0
 10
-0.2918543307086614
 20
-1.978476377952756
 30
0.0
 10
-0.2918543307086614
 20
-1.978476377952756
 30
0.0
 10
-0.2912716535433071
 20
-1.979751968503937
 30
0.0
 10
-0.2903543307086614
 20
-1.980696850393701
 30
0.0
 10
-0.2890511811023622
 20
-1.98136220472441
 30
0.0
 10
-0.2890511811023622
 20
-1.98136220472441
 30
0.0
 10
-0.287744094488189
 20
-1.982003937007874
 30
0.0
 10
-0.2851614173228347
 20
-1.982334645669291
 30
0.0
 10
-0.2812992125984252
 20
-1.982334645669291
 30
0.0
 10
-0.2812992125984252
 20
-1.982334645669291
 30
0.0
 10
-0.2812992125984252
 20
-1.982334645669291
 30
0.0
 10
-0.2733267716535433
 20
-1.982334645669291
 30
0.0
 10
-0.2733267716535433
 20
-1.982334645669291
 30
0.0
 10
-0.2733267716535433
 20
-1.982334645669291
 30
0.0
 10
-0.2733267716535433
 20
-1.982334645669291
 30
0.0
 10
-0.2733267716535433
 20
-1.989169291338583
 30
0.0
 10
-0.2733267716535433
 20
-1.989169291338583
 30
0.0
 10
-0.2733267716535433
 20
-1.989169291338583
 30
0.0
 10
-0.2733267716535433
 20
-1.989169291338583
 30
0.0
 10
-0.3269645669291339
 20
-1.989169291338583
 30
0.0
 10
-0.3269645669291339
 20
-1.989169291338583
 30
0.0
 10
-0.3269645669291339
 20
-1.989169291338583
 30
0.0
 10
-0.3269645669291339
 20
-1.989169291338583
 30
0.0
 10
-0.3269645669291339
 20
-1.982334645669291
 30
0.0
 10
-0.3269645669291339
 20
-1.982334645669291
 30
0.0
 10
-0.3269645669291339
 20
-1.982334645669291
 30
0.0
 10
-0.3269645669291339
 20
-1.982334645669291
 30
0.0
 10
-0.3181062992125984
 20
-1.982334645669291
 30
0.0
 10
-0.3181062992125984
 20
-1.982334645669291
 30
0.0
 10
-0.3181062992125984
 20
-1.982334645669291
 30
0.0
 10
-0.314244094488189
 20
-1.982334645669291
 30
0.0
 10
-0.3116889763779528
 20
-1.982003937007874
 30
0.0
 10
-0.3104094488188977
 20
-1.981307086614173
 30
0.0
 10
-0.3104094488188977
 20
-1.981307086614173
 30
0.0
 10
-0.3091338582677166
 20
-1.980641732283465
 30
0.0
 10
-0.3081338582677166
 20
-1.97955905511811
 30
0.0
 10
-0.3074370078740157
 20
-1.97805905511811
 30
0.0
 10
-0.3074370078740157
 20
-1.97805905511811
 30
0.0
 10
-0.306744094488189
 20
-1.97655905511811
 30
0.0
 10
-0.3063818897637796
 20
-1.973834645669292
 30
0.0
 10
-0.3063818897637796
 20
-1.969889763779528
 30
0.0
 10
-0.3063818897637796
 20
-1.969889763779528
 30
0.0
 10
-0.3063818897637796
 20
-1.969889763779528
 30
0.0
 10
-0.3063818897637796
 20
-1.89242125984252
 30
0.0
 10
-0.3063818897637796
 20
-1.89242125984252
 30
0.0
 10
-0.3063818897637796
 20
-1.89242125984252
 30
0.0
 10
-0.3063818897637796
 20
-1.89242125984252
 30
0.0
 10
-0.3269645669291339
 20
-1.89242125984252
 30
0.0
 10
-0.3269645669291339
 20
-1.89242125984252
 30
0.0
 10
-0.3269645669291339
 20
-1.89242125984252
 30
0.0
 10
-0.3269645669291339
 20
-1.89242125984252
 30
0.0
 10
-0.3269645669291339
 20
-1.88542125984252
 30
0.0
 10
-0.3269645669291339
 20
-1.88542125984252
 30
0.0
 10
-0.3269645669291339
 20
-1.88542125984252
 30
0.0
 10
-0.315744094488189
 20
-1.883838582677166
 30
0.0
 10
-0.3063543307086614
 20
-1.880586614173228
 30
0.0
 10
-0.2987992125984252
 20
-1.875641732283465
 30
0.0
  0
SPLINE
  5
42
330
1F
100
AcDbEntity
  8
LAYER_1
 62
   250
100
AcDbSpline
210
0.0
220
0.0
230
1.0
 70
    11
 71
     3
 72
    20
 73
    16
 74
     0
 42
0.0000000001
 43
0.0000000001
 40
0.0
 40
0.0
 40
0.0
 40
0.0
 40
0.25
 40
0.25
 40
0.25
 40
0.25
 40
0.5
 40
0.5
 40
0.5
 40
0.5
 40
0.75
 40
0.75
 40
0.75
 40
0.75
 40
1.0
 40
1.0
 40
1.0
 40
1.0
 10
-0.1699645669291339
 20
-1.869779527559055
 30
0.0
 10
-0.1699645669291339
 20
-1.869779527559055
 30
0.0
 10
-0.2255472440944882
 20
-2.025476377952756
 30
0.0
 10
-0.2255472440944882
 20
-2.025476377952756
 30
0.0
 10
-0.2255472440944882
 20
-2.025476377952756
 30
0.0
 10
-0.2255472440944882
 20
-2.025476377952756
 30
0.0
 10
-0.2376023622047244
 20
-2.025476377952756
 30
0.0
 10
-0.2376023622047244
 20
-2.025476377952756
 30
0.0
 10
-0.2376023622047244
 20
-2.025476377952756
 30
0.0
 10
-0.2376023622047244
 20
-2.025476377952756
 30
0.0
 10
-0.1823543307086614
 20
-1.869779527559055
 30
0.0
 10
-0.1823543307086614
 20
-1.869779527559055
 30
0.0
 10
-0.1823543307086614
 20
-1.869779527559055
 30
0.0
 10
-0.1823543307086614
 20
-1.869779527559055
 30
0.0
 10
-0.1699645669291339
 20
-1.869779527559055
 30
0.0
 10
-0.1699645669291339
 20
-1.869779527559055
 30
0.0
  0
SPLINE
  5
43
330
1F
100
AcDbEntity
  8
LAYER_1
 62
   250
100
AcDbSpline
210
0.0
220
0.0
230
1.0
 70
    11
 71
     3
 72
   136
 73
   132
 74
     0
 42
0.0000000001
 43
0.0000000001
 40
0.0
 40
0.0
 40
0.0
 40
0.0
 40
0.0303030303030303
 40
0.0303030303030303
 40
0.0303030303030303
 40
0.0303030303030303
 40
0.0606060606060606
 40
0.0606060606060606
 40
0.0606060606060606
 40
0.0606060606060606
 40
0.0909090909090909
 40
0.0909090909090909
 40
0.0909090909090909
 40
0.0909090909090909
 40
0.1212121212121212
 40
0.1212121212121212
 40
0.1212121212121212
 40
0.1212121212121212
 40
0.1515151515151515
 40
0.1515151515151515
 40
0.1515151515151515
 40
0.1515151515151515
 40
0.1818181818181818
 40
0.1818181818181818
 40
0.1818181818181818
 40
0.1818181818181818
 40
0.2121212121212121
 40
0.2121212121212121
 40
0.2121212121212121
 40
0.2121212121212121
 40
0.2424242424242424
 40
0.2424242424242424
 40
0.2424242424242424
 40
0.2424242424242424
 40
0.2727272727272727
 40
0.2727272727272727
 40
0.2727272727272727
 40
0.2727272727272727
 40
0.303030303030303
 40
0.303030303030303
 40
0.303030303030303
 40
0.303030303030303
 40
0.3333333333333333
 40
0.3333333333333333
 40
0.3333333333333333
 40
0.3333333333333333
 40
0.3636363636363635
 40
0.3636363636363635
 40
0.3636363636363635
 40
0.3636363636363635
 40
0.3939393939393938
 40
0.3939393939393938
 40
0.3939393939393938
 40
0.3939393939393938
 40
0.4242424242424241
 40
0.4242424242424241
 40
0.4242424242424241
 40
0.4242424242424241
 40
0.4545454545454544
 40
0.4545454545454544
 40
0.4545454545454544
 40
0.4545454545454544
 40
0.4848484848484846
 40
0.4848484848484846
 40
0.4848484848484846
 40
0.4848484848484846
 40
0.5151515151515149
 40
0.5151515151515149
 40
0.5151515151515149
 40
0.5151515151515149
 40
0.5454545454545452
 40
0.5454545454545452
 40
0.5454545454545452
 40
0.5454545454545452
 40
0.5757575757575755
 40
0.5757575757575755
 40
0.5757575757575755
 40
0.5757575757575755
 40
0.6060606060606057
 40
0.6060606060606057
 40
0.6060606060606057
 40
0.6060606060606057
 40
0.636363636363636
 40
0.636363636363636
 40
0.636363636363636
 40
0.636363636363636
 40
0.6666666666666663
 40
0.6666666666666663
 40
0.6666666666666663
 40
0.6666666666666663
 40
0.6969696969696966
 40
0.6969696969696966
 40
0.6969696969696966
 40
0.6969696969696966
 40
0.7272727272727269
 40
0.7272727272727269
 40
0.7272727272727269
 40
0.7272727272727269
 40
0.7575757575757571
 40
0.7575757575757571
 40
0.7575757575757571
 40
0.7575757575757571
 40
0.7878787878787874
 40
0.7878787878787874
 40
0.7878787878787874
 40
0.7878787878787874
 40
0.8181818181818177
 40
0.8181818181818177
 40
0.8181818181818177
 40
0.8181818181818177
 40
0.848484848484848
 40
0.848484848484848
 40
0.848484848484848
 40
0.848484848484848
 40
0.8787878787878782
 40
0.8787878787878782
 40
0.8787878787878782
 40
0.8787878787878782
 40
0.9090909090909085
 40
0.9090909090909085
 40
0.9090909090909085
 40
0.9090909090909085
 40
0.9393939393939388
 40
0.9393939393939388
 40
0.9393939393939388
 40
0.9393939393939388
 40
0.9696969696969691
 40
0.9696969696969691
 40
0.9696969696969691
 40
0.9696969696969691
 40
1.0
 40
1.0
 40
1.0
 40
1.0
 10
-0.1325196850393701
 20
-1.918448818897638
 30
0.0
 10
-0.1325196850393701
 20
-1.918448818897638
 30
0.0
 10
-0.1404094488188976
 20
-1.91942125984252
 30
0.0
 10
-0.1404094488188976
 20
-1.91942125984252
 30
0.0
 10
-0.1404094488188976
 20
-1.91942125984252
 30
0.0
 10
-0.1408543307086614
 20
-1.915586614173229
 30
0.0
 10
-0.1410748031496063
 20
-1.91242125984252
 30
0.0
 10
-0.1410748031496063
 20
-1.909976377952756
 30
0.0
 10
-0.1410748031496063
 20
-1.909976377952756
 30
0.0
 10
-0.1410748031496063
 20
-1.903586614173229
 30
0.0
 10
-0.1393267716535433
 20
-1.897531496062992
 30
0.0
 10
-0.1358543307086614
 20
-1.891838582677166
 30
0.0
 10
-0.1358543307086614
 20
-1.891838582677166
 30
0.0
 10
-0.1323818897637795
 20
-1.886141732283465
 30
0.0
 10
-0.1275472440944882
 20
-1.881696850393701
 30
0.0
 10
-0.1213267716535433
 20
-1.878503937007874
 30
0.0
 10
-0.1213267716535433
 20
-1.878503937007874
 30
0.0
 10
-0.1151338582677165
 20
-1.875279527559055
 30
0.0
 10
-0.107992125984252
 20
-1.873696850393701
 30
0.0
 10
-0.0999645669291339
 20
-1.873696850393701
 30
0.0
 10
-0.0999645669291339
 20
-1.873696850393701
 30
0.0
 10
-0.0922165354330709
 20
-1.873696850393701
 30
0.0
 10
-0.0854094488188976
 20
-1.875196850393701
 30
0.0
 10
-0.0795472440944882
 20
-1.878196850393701
 30
0.0
 10
-0.0795472440944882
 20
-1.878196850393701
 30
0.0
 10
-0.0736889763779528
 20
-1.881224409448819
 30
0.0
 10
-0.0692165354330709
 20
-1.885338582677165
 30
0.0
 10
-0.0660787401574803
 20
-1.890586614173228
 30
0.0
 10
-0.0660787401574803
 20
-1.890586614173228
 30
0.0
 10
-0.0629645669291339
 20
-1.895807086614173
 30
0.0
 10
-0.0614094488188976
 20
-1.901779527559055
 30
0.0
 10
-0.0614094488188976
 20
-1.908531496062992
 30
0.0
 10
-0.0614094488188976
 20
-1.908531496062992
 30
0.0
 10
-0.0614094488188976
 20
-1.914224409448819
 30
0.0
 10
-0.0624094488188976
 20
-1.919503937007874
 30
0.0
 10
-0.0644645669291339
 20
-1.924334645669291
 30
0.0
 10
-0.0644645669291339
 20
-1.924334645669291
 30
0.0
 10
-0.066492125984252
 20
-1.929196850393701
 30
0.0
 10
-0.0697716535433071
 20
-1.934114173228346
 30
0.0
 10
-0.0742716535433071
 20
-1.939031496062992
 30
0.0
 10
-0.0742716535433071
 20
-1.939031496062992
 30
0.0
 10
-0.0776338582677165
 20
-1.942724409448819
 30
0.0
 10
-0.0844370078740158
 20
-1.94836220472441
 30
0.0
 10
-0.0946889763779528
 20
-1.955976377952756
 30
0.0
 10
-0.0946889763779528
 20
-1.955976377952756
 30
0.0
 10
-0.1076023622047244
 20
-1.965614173228347
 30
0.0
 10
-0.117492125984252
 20
-1.972614173228346
 30
0.0
 10
-0.1243818897637795
 20
-1.976976377952756
 30
0.0
 10
-0.1243818897637795
 20
-1.976976377952756
 30
0.0
 10
-0.1243818897637795
 20
-1.976976377952756
 30
0.0
 10
-0.0820748031496063
 20
-1.976976377952756
 30
0.0
 10
-0.0820748031496063
 20
-1.976976377952756
 30
0.0
 10
-0.0820748031496063
 20
-1.976976377952756
 30
0.0
 10
-0.0770748031496063
 20
-1.976976377952756
 30
0.0
 10
-0.0738267716535433
 20
-1.976503937007874
 30
0.0
 10
-0.0722992125984252
 20
-1.975586614173228
 30
0.0
 10
-0.0722992125984252
 20
-1.975586614173228
 30
0.0
 10
-0.0701889763779528
 20
-1.974389763779528
 30
0.0
 10
-0.068744094488189
 20
-1.971614173228347
 30
0.0
 10
-0.067992125984252
 20
-1.967279527559055
 30
0.0
 10
-0.067992125984252
 20
-1.967279527559055
 30
0.0
 10
-0.067992125984252
 20
-1.967279527559055
 30
0.0
 10
-0.0672716535433071
 20
-1.962641732283465
 30
0.0
 10
-0.0672716535433071
 20
-1.962641732283465
 30
0.0
 10
-0.0672716535433071
 20
-1.962641732283465
 30
0.0
 10
-0.0672716535433071
 20
-1.962641732283465
 30
0.0
 10
-0.0603543307086614
 20
-1.962641732283465
 30
0.0
 10
-0.0603543307086614
 20
-1.962641732283465
 30
0.0
 10
-0.0603543307086614
 20
-1.962641732283465
 30
0.0
 10
-0.0603543307086614
 20
-1.962641732283465
 30
0.0
 10
-0.0658818897637795
 20
-1.993224409448819
 30
0.0
 10
-0.0658818897637795
 20
-1.993224409448819
 30
0.0
 10
-0.0658818897637795
 20
-1.993224409448819
 30
0.0
 10
-0.0658818897637795
 20
-1.993224409448819
 30
0.0
 10
-0.0710748031496063
 20
-1.993224409448819
 30
0.0
 10
-0.0710748031496063
 20
-1.993224409448819
 30
0.0
 10
-0.0710748031496063
 20
-1.993224409448819
 30
0.0
 10
-0.0710748031496063
 20
-1.993224409448819
 30
0.0
 10
-0.071992125984252
 20
-1.989169291338583
 30
0.0
 10
-0.071992125984252
 20
-1.989169291338583
 30
0.0
 10
-0.071992125984252
 20
-1.989169291338583
 30
0.0
 10
-0.071992125984252
 20
-1.989169291338583
 30
0.0
 10
-0.1431023622047244
 20
-1.989169291338583
 30
0.0
 10
-0.1431023622047244
 20
-1.989169291338583
 30
0.0
 10
-0.1431023622047244
 20
-1.989169291338583
 30
0.0
 10
-0.1431023622047244
 20
-1.989169291338583
 30
0.0
 10
-0.1431023622047244
 20
-1.982334645669291
 30
0.0
 10
-0.1431023622047244
 20
-1.982334645669291
 30
0.0
 10
-0.1431023622047244
 20
-1.982334645669291
 30
0.0
 10
-0.1431023622047244
 20
-1.982334645669291
 30
0.0
 10
-0.1300748031496063
 20
-1.972476377952756
 30
0.0
 10
-0.1300748031496063
 20
-1.972476377952756
 30
0.0
 10
-0.1300748031496063
 20
-1.972476377952756
 30
0.0
 10
-0.1202165354330709
 20
-1.965169291338583
 30
0.0
 10
-0.1129645669291339
 20
-1.95955905511811
 30
0.0
 10
-0.1083543307086614
 20
-1.955641732283465
 30
0.0
 10
-0.1083543307086614
 20
-1.955641732283465
 30
0.0
 10
-0.0996338582677165
 20
-1.948251968503937
 30
0.0
 10
-0.0930472440944882
 20
-1.941948818897638
 30
0.0
 10
-0.0886338582677165
 20
-1.936724409448819
 30
0.0
 10
-0.0886338582677165
 20
-1.936724409448819
 30
0.0
 10
-0.0842165354330709
 20
-1.931476377952756
 30
0.0
 10
-0.0811614173228346
 20
-1.926751968503937
 30
0.0
 10
-0.0795196850393701
 20
-1.92255905511811
 30
0.0
 10
-0.0795196850393701
 20
-1.92255905511811
 30
0.0
 10
-0.0778543307086614
 20
-1.918366141732284
 30
0.0
 10
-0.0770196850393701
 20
-1.913948818897638
 30
0.0
 10
-0.0770196850393701
 20
-1.909334645669292
 30
0.0
 10
-0.0770196850393701
 20
-1.909334645669292
 30
0.0
 10
-0.0770196850393701
 20
-1.901696850393701
 30
0.0
 10
-0.079492125984252
 20
-1.89542125984252
 30
0.0
 10
-0.0843818897637795
 20
-1.890531496062992
 30
0.0
 10
-0.0843818897637795
 20
-1.890531496062992
 30
0.0
 10
-0.0892992125984252
 20
-1.885641732283465
 30
0.0
 10
-0.0956889763779528
 20
-1.883224409448819
 30
0.0
 10
-0.1035472440944882
 20
-1.883224409448819
 30
0.0
 10
-0.1035472440944882
 20
-1.883224409448819
 30
0.0
 10
-0.1091889763779528
 20
-1.883224409448819
 30
0.0
 10
-0.114244094488189
 20
-1.88442125984252
 30
0.0
 10
-0.1186614173228347
 20
-1.886866141732284
 30
0.0
 10
-0.1186614173228347
 20
-1.886866141732284
 30
0.0
 10
-0.1230748031496063
 20
-1.889307086614173
 30
0.0
 10
-0.1265472440944882
 20
-1.892724409448819
 30
0.0
 10
-0.1291023622047244
 20
-1.897141732283465
 30
0.0
 10
-0.1291023622047244
 20
-1.897141732283465
 30
0.0
 10
-0.1316614173228347
 20
-1.901531496062992
 30
0.0
 10
-0.1329370078740157
 20
-1.906279527559055
 30
0.0
 10
-0.1329370078740157
 20
-1.911366141732284
 30
0.0
 10
-0.1329370078740157
 20
-1.911366141732284
 30
0.0
 10
-0.1329370078740157
 20
-1.913279527559055
 30
0.0
 10
-0.1327992125984252
 20
-1.915641732283465
 30
0.0
 10
-0.1325196850393701
 20
-1.918448818897638
 30
0.0
  0
SPLINE
  5
44
330
1F
100
AcDbEntity
  8
LAYER_1
 62
   250
100
AcDbSpline
210
0.0
220
0.0
230
1.0
 70
    11
 71
     3
 72
    60
 73
    56
 74
     0
 42
0.0000000001
 43
0.0000000001
 40
0.0
 40
0.0
 40
0.0
 40
0.0
 40
0.0714285714285714
 40
0.0714285714285714
 40
0.0714285714285714
 40
0.0714285714285714
 40
0.1428571428571429
 40
0.1428571428571429
 40
0.1428571428571429
 40
0.1428571428571429
 40
0.2142857142857143
 40
0.2142857142857143
 40
0.2142857142857143
 40
0.2142857142857143
 40
0.2857142857142857
 40
0.2857142857142857
 40
0.2857142857142857
 40
0.2857142857142857
 40
0.3571428571428571
 40
0.3571428571428571
 40
0.3571428571428571
 40
0.3571428571428571
 40
0.4285714285714285
 40
0.4285714285714285
 40
0.4285714285714285
 40
0.4285714285714285
 40
0.4999999999999999
 40
0.4999999999999999
 40
0.4999999999999999
 40
0.4999999999999999
 40
0.5714285714285713
 40
0.5714285714285713
 40
0.5714285714285713
 40
0.5714285714285713
 40
0.6428571428571427
 40
0.6428571428571427
 40
0.6428571428571427
 40
0.6428571428571427
 40
0.7142857142857141
 40
0.7142857142857141
 40
0.7142857142857141
 40
0.7142857142857141
 40
0.7857142857142855
 40
0.7857142857142855
 40
0.7857142857142855
 40
0.7857142857142855
 40
0.8571428571428569
 40
0.8571428571428569
 40
0.8571428571428569
 40
0.8571428571428569
 40
0.9285714285714283
 40
0.9285714285714283
 40
0.9285714285714283
 40
0.9285714285714283
 40
1.0
 40
1.0
 40
1.0
 40
1.0
 10
-0.0379645669291339
 20
-1.917724409448819
 30
0.0
 10
-0.0379645669291339
 20
-1.917724409448819
 30
0.0
 10
-0.0423543307086614
 20
-1.912334645669291
 30
0.0
 10
-0.0423543307086614
 20
-1.912334645669291
 30
0.0
 10
-0.0423543307086614
 20
-1.912334645669291
 30
0.0
 10
-0.031240157480315
 20
-1.903279527559055
 30
0.0
 10
-0.0256574803149606
 20
-1.895724409448819
 30
0.0
 10
-0.0256574803149606
 20
-1.889641732283465
 30
0.0
 10
-0.0256574803149606
 20
-1.889641732283465
 30
0.0
 10
-0.0256574803149606
 20
-1.888948818897638
 30
0.0
 10
-0.0257125984251969
 20
-1.88805905511811
 30
0.0
 10
-0.0258267716535433
 20
-1.887031496062992
 30
0.0
 10
-0.0258267716535433
 20
-1.887031496062992
 30
0.0
 10
-0.026740157480315
 20
-1.88742125984252
 30
0.0
 10
-0.0276574803149606
 20
-1.887724409448819
 30
0.0
 10
-0.0285196850393701
 20
-1.88792125984252
 30
0.0
 10
-0.0285196850393701
 20
-1.88792125984252
 30
0.0
 10
-0.0293818897637795
 20
-1.888141732283465
 30
0.0
 10
-0.0301850393700787
 20
-1.888251968503937
 30
0.0
 10
-0.0309645669291339
 20
-1.888251968503937
 30
0.0
 10
-0.0309645669291339
 20
-1.888251968503937
 30
0.0
 10
-0.0335748031496063
 20
-1.888251968503937
 30
0.0
 10
-0.0356574803149606
 20
-1.88742125984252
 30
0.0
 10
-0.0372125984251968
 20
-1.885724409448819
 30
0.0
 10
-0.0372125984251968
 20
-1.885724409448819
 30
0.0
 10
-0.0387992125984252
 20
-1.88405905511811
 30
0.0
 10
-0.0395748031496063
 20
-1.88192125984252
 30
0.0
 10
-0.0395748031496063
 20
-1.879307086614173
 30
0.0
 10
-0.0395748031496063
 20
-1.879307086614173
 30
0.0
 10
-0.0395748031496063
 20
-1.876751968503937
 30
0.0
 10
-0.0386299212598425
 20
-1.874531496062992
 30
0.0
 10
-0.036740157480315
 20
-1.872641732283465
 30
0.0
 10
-0.036740157480315
 20
-1.872641732283465
 30
0.0
 10
-0.0348267716535433
 20
-1.870724409448819
 30
0.0
 10
-0.0325472440944882
 20
-1.869779527559055
 30
0.0
 10
-0.0299094488188976
 20
-1.869779527559055
 30
0.0
 10
-0.0299094488188976
 20
-1.869779527559055
 30
0.0
 10
-0.0262125984251969
 20
-1.869779527559055
 30
0.0
 10
-0.0230472440944882
 20
-1.871251968503937
 30
0.0
 10
-0.0204094488188976
 20
-1.874224409448819
 30
0.0
 10
-0.0204094488188976
 20
-1.874224409448819
 30
0.0
 10
-0.0177992125984252
 20
-1.877169291338583
 30
0.0
 10
-0.0164645669291339
 20
-1.880976377952756
 30
0.0
 10
-0.0164645669291339
 20
-1.885641732283465
 30
0.0
 10
-0.0164645669291339
 20
-1.885641732283465
 30
0.0
 10
-0.0164645669291339
 20
-1.888696850393701
 30
0.0
 10
-0.0171023622047244
 20
-1.891893700787402
 30
0.0
 10
-0.0183543307086614
 20
-1.895224409448819
 30
0.0
 10
-0.0183543307086614
 20
-1.895224409448819
 30
0.0
 10
-0.0196023622047244
 20
-1.89855905511811
 30
0.0
 10
-0.0214094488188976
 20
-1.901641732283465
 30
0.0
 10
-0.0237992125984252
 20
-1.904503937007874
 30
0.0
 10
-0.0237992125984252
 20
-1.904503937007874
 30
0.0
 10
-0.0261850393700787
 20
-1.907334645669292
 30
0.0
 10
-0.0309094488188976
 20
-1.911751968503937
 30
0.0
 10
-0.0379645669291339
 20
-1.917724409448819
 30
0.0
  0
SPLINE
  5
45
330
1F
100
AcDbEntity
  8
LAYER_1
 62
   250
100
AcDbSpline
210
0.0
220
0.0
230
1.0
 70
    11
 71
     3
 72
    60
 73
    56
 74
     0
 42
0.0000000001
 43
0.0000000001
 40
0.0
 40
0.0
 40
0.0
 40
0.0
 40
0.0714285714285714
 40
0.0714285714285714
 40
0.0714285714285714
 40
0.0714285714285714
 40
0.1428571428571429
 40
0.1428571428571429
 40
0.1428571428571429
 40
0.1428571428571429
 40
0.2142857142857143
 40
0.2142857142857143
 40
0.2142857142857143
 40
0.2142857142857143
 40
0.2857142857142857
 40
0.2857142857142857
 40
0.2857142857142857
 40
0.2857142857142857
 40
0.3571428571428571
 40
0.3571428571428571
 40
0.3571428571428571
 40
0.3571428571428571
 40
0.4285714285714285
 40
0.4285714285714285
 40
0.4285714285714285
 40
0.4285714285714285
 40
0.4999999999999999
 40
0.4999999999999999
 40
0.4999999999999999
 40
0.4999999999999999
 40
0.5714285714285713
 40
0.5714285714285713
 40
0.5714285714285713
 40
0.5714285714285713
 40
0.6428571428571427
 40
0.6428571428571427
 40
0.6428571428571427
 40
0.6428571428571427
 40
0.7142857142857141
 40
0.7142857142857141
 40
0.7142857142857141
 40
0.7142857142857141
 40
0.7857142857142855
 40
0.7857142857142855
 40
0.7857142857142855
 40
0.7857142857142855
 40
0.8571428571428569
 40
0.8571428571428569
 40
0.8571428571428569
 40
0.8571428571428569
 40
0.9285714285714283
 40
0.9285714285714283
 40
0.9285714285714283
 40
0.9285714285714283
 40
1.0
 40
1.0
 40
1.0
 40
1.0
 10
-0.0089094488188976
 20
-1.917724409448819
 30
0.0
 10
-0.0089094488188976
 20
-1.917724409448819
 30
0.0
 10
-0.0132992125984252
 20
-1.912334645669291
 30
0.0
 10
-0.0132992125984252
 20
-1.912334645669291
 30
0.0
 10
-0.0132992125984252
 20
-1.912334645669291
 30
0.0
 10
-0.0021850393700787
 20
-1.903279527559055
 30
0.0
 10
0.0033976377952756
 20
-1.895724409448819
 30
0.0
 10
0.0033976377952756
 20
-1.889641732283465
 30
0.0
 10
0.0033976377952756
 20
-1.889641732283465
 30
0.0
 10
0.0033976377952756
 20
-1.888948818897638
 30
0.0
 10
0.0033425196850394
 20
-1.88805905511811
 30
0.0
 10
0.0032283464566929
 20
-1.887031496062992
 30
0.0
 10
0.0032283464566929
 20
-1.887031496062992
 30
0.0
 10
0.0023149606299213
 20
-1.88742125984252
 30
0.0
 10
0.0013976377952756
 20
-1.887724409448819
 30
0.0
 10
0.0005354330708661
 20
-1.88792125984252
 30
0.0
 10
0.0005354330708661
 20
-1.88792125984252
 30
0.0
 10
-0.0003267716535433
 20
-1.888141732283465
 30
0.0
 10
-0.0011574803149606
 20
-1.888251968503937
 30
0.0
 10
-0.001992125984252
 20
-1.888251968503937
 30
0.0
 10
-0.001992125984252
 20
-1.888251968503937
 30
0.0
 10
-0.0045472440944882
 20
-1.888251968503937
 30
0.0
 10
-0.0066023622047244
 20
-1.88742125984252
 30
0.0
 10
-0.0081574803149606
 20
-1.885724409448819
 30
0.0
 10
-0.0081574803149606
 20
-1.885724409448819
 30
0.0
 10
-0.009740157480315
 20
-1.88405905511811
 30
0.0
 10
-0.0105196850393701
 20
-1.88192125984252
 30
0.0
 10
-0.0105196850393701
 20
-1.879307086614173
 30
0.0
 10
-0.0105196850393701
 20
-1.879307086614173
 30
0.0
 10
-0.0105196850393701
 20
-1.876751968503937
 30
0.0
 10
-0.0095748031496063
 20
-1.874531496062992
 30
0.0
 10
-0.0076850393700787
 20
-1.872641732283465
 30
0.0
 10
-0.0076850393700787
 20
-1.872641732283465
 30
0.0
 10
-0.0057992125984252
 20
-1.870724409448819
 30
0.0
 10
-0.003492125984252
 20
-1.869779527559055
 30
0.0
 10
-0.0008543307086614
 20
-1.869779527559055
 30
0.0
 10
-0.0008543307086614
 20
-1.869779527559055
 30
0.0
 10
0.0028425196850394
 20
-1.869779527559055
 30
0.0
 10
0.006007874015748
 20
-1.871251968503937
 30
0.0
 10
0.0086456692913386
 20
-1.874224409448819
 30
0.0
 10
0.0086456692913386
 20
-1.874224409448819
 30
0.0
 10
0.011255905511811
 20
-1.877169291338583
 30
0.0
 10
0.0125905511811024
 20
-1.880976377952756
 30
0.0
 10
0.0125905511811024
 20
-1.885641732283465
 30
0.0
 10
0.0125905511811024
 20
-1.885641732283465
 30
0.0
 10
0.0125905511811024
 20
-1.888696850393701
 30
0.0
 10
0.0119527559055118
 20
-1.891893700787402
 30
0.0
 10
0.0107007874015748
 20
-1.895224409448819
 30
0.0
 10
0.0107007874015748
 20
-1.895224409448819
 30
0.0
 10
0.0094527559055118
 20
-1.89855905511811
 30
0.0
 10
0.0076456692913386
 20
-1.901641732283465
 30
0.0
 10
0.005259842519685
 20
-1.904503937007874
 30
0.0
 10
0.005259842519685
 20
-1.904503937007874
 30
0.0
 10
0.0028700787401575
 20
-1.907334645669292
 30
0.0
 10
-0.0018543307086614
 20
-1.911751968503937
 30
0.0
 10
-0.0089094488188976
 20
-1.917724409448819
 30
0.0
  0
SPLINE
  5
46
330
1F
100
AcDbEntity
  8
LAYER_1
 62
   252
100
AcDbSpline
210
0.0
220
0.0
230
1.0
 70
    11
 71
     3
 72
    20
 73
    16
 74
     0
 42
0.0000000001
 43
0.0000000001
 40
0.0
 40
0.0
 40
0.0
 40
0.0
 40
0.25
 40
0.25
 40
0.25
 40
0.25
 40
0.5
 40
0.5
 40
0.5
 40
0.5
 40
0.75
 40
0.75
 40
0.75
 40
0.75
 40
1.0
 40
1.0
 40
1.0
 40
1.0
 10
-0.8323582677165354
 20
1.720259842519685
 30
0.0
 10
-0.8323582677165354
 20
1.720259842519685
 30
0.0
 10
-0.1803070866141733
 20
2.097842519685039
 30
0.0
 10
-0.1803070866141733
 20
2.097842519685039
 30
0.0
 10
-0.1803070866141733
 20
2.097842519685039
 30
0.0
 10
-0.1803070866141733
 20
2.097842519685039
 30
0.0
 10
0.0571614173228346
 20
2.097842519685039
 30
0.0
 10
0.0571614173228346
 20
2.097842519685039
 30
0.0
 10
0.0571614173228346
 20
2.097842519685039
 30
0.0
 10
0.0571614173228346
 20
2.097842519685039
 30
0.0
 10
-0.5948897637795276
 20
1.720259842519685
 30
0.0
 10
-0.5948897637795276
 20
1.720259842519685
 30
0.0
 10
-0.5948897637795276
 20
1.720259842519685
 30
0.0
 10
-0.5948897637795276
 20
1.720259842519685
 30
0.0
 10
-0.8323582677165354
 20
1.720259842519685
 30
0.0
 10
-0.8323582677165354
 20
1.720259842519685
 30
0.0
  0
SPLINE
  5
47
330
1F
100
AcDbEntity
  8
LAYER_1
 62
   250
100
AcDbSpline
210
0.0
220
0.0
230
1.0
 70
    11
 71
     3
 72
    20
 73
    16
 74
     0
 42
0.0000000001
 43
0.0000000001
 40
0.0
 40
0.0
 40
0.0
 40
0.0
 40
0.25
 40
0.25
 40
0.25
 40
0.25
 40
0.5
 40
0.5
 40
0.5
 40
0.5
 40
0.75
 40
0.75
 40
0.75
 40
0.75
 40
1.0
 40
1.0
 40
1.0
 40
1.0
 10
-0.8323582677165354
 20
1.720259842519685
 30
0.0
 10
-0.8323582677165354
 20
1.720259842519685
 30
0.0
 10
-0.1803070866141733
 20
2.097842519685039
 30
0.0
 10
-0.1803070866141733
 20
2.097842519685039
 30
0.0
 10
-0.1803070866141733
 20
2.097842519685039
 30
0.0
 10
-0.1803070866141733
 20
2.097842519685039
 30
0.0
 10
0.0571614173228346
 20
2.097842519685039
 30
0.0
 10
0.0571614173228346
 20
2.097842519685039
 30
0.0
 10
0.0571614173228346
 20
2.097842519685039
 30
0.0
 10
0.0571614173228346
 20
2.097842519685039
 30
0.0
 10
-0.5948897637795276
 20
1.720259842519685
 30
0.0
 10
-0.5948897637795276
 20
1.720259842519685
 30
0.0
 10
-0.5948897637795276
 20
1.720259842519685
 30
0.0
 10
-0.5948897637795276
 20
1.720259842519685
 30
0.0
 10
-0.8323582677165354
 20
1.720259842519685
 30
0.0
 10
-0.8323582677165354
 20
1.720259842519685
 30
0.0
  0
SPLINE
  5
48
330
1F
100
AcDbEntity
  8
LAYER_1
 62
   253
100
AcDbSpline
210
0.0
220
0.0
230
1.0
 70
    11
 71
     3
 72
    20
 73
    16
 74
     0
 42
0.0000000001
 43
0.0000000001
 40
0.0
 40
0.0
 40
0.0
 40
0.0
 40
0.25
 40
0.25
 40
0.25
 40
0.25
 40
0.5
 40
0.5
 40
0.5
 40
0.5
 40
0.75
 40
0.75
 40
0.75
 40
0.75
 40
1.0
 40
1.0
 40
1.0
 40
1.0
 10
-0.5948897637795276
 20
1.720259842519685
 30
0.0
 10
-0.5948897637795276
 20
1.720259842519685
 30
0.0
 10
0.0571614173228346
 20
2.097842519685039
 30
0.0
 10
0.0571614173228346
 20
2.097842519685039
 30
0.0
 10
0.0571614173228346
 20
2.097842519685039
 30
0.0
 10
0.0571614173228346
 20
2.097842519685039
 30
0.0
 10
0.0571614173228346
 20
1.891543307086614
 30
0.0
 10
0.0571614173228346
 20
1.891543307086614
 30
0.0
 10
0.0571614173228346
 20
1.891543307086614
 30
0.0
 10
0.0571614173228346
 20
1.891543307086614
 30
0.0
 10
-0.5948897637795276
 20
1.51396062992126
 30
0.0
 10
-0.5948897637795276
 20
1.51396062992126
 30
0.0
 10
-0.5948897637795276
 20
1.51396062992126
 30
0.0
 10
-0.5948897637795276
 20
1.51396062992126
 30
0.0
 10
-0.5948897637795276
 20
1.720259842519685
 30
0.0
 10
-0.5948897637795276
 20
1.720259842519685
 30
0.0
  0
SPLINE
  5
49
330
1F
100
AcDbEntity
  8
LAYER_1
 62
   250
100
AcDbSpline
210
0.0
220
0.0
230
1.0
 70
    11
 71
     3
 72
    20
 73
    16
 74
     0
 42
0.0000000001
 43
0.0000000001
 40
0.0
 40
0.0
 40
0.0
 40
0.0
 40
0.25
 40
0.25
 40
0.25
 40
0.25
 40
0.5
 40
0.5
 40
0.5
 40
0.5
 40
0.75
 40
0.75
 40
0.75
 40
0.75
 40
1.0
 40
1.0
 40
1.0
 40
1.0
 10
-0.5948897637795276
 20
1.720259842519685
 30
0.0
 10
-0.5948897637795276
 20
1.720259842519685
 30
0.0
 10
0.0571614173228346
 20
2.097842519685039
 30
0.0
 10
0.0571614173228346
 20
2.097842519685039
 30
0.0
 10
0.0571614173228346
 20
2.097842519685039
 30
0.0
 10
0.0571614173228346
 20
2.097842519685039
 30
0.0
 10
0.0571614173228346
 20
1.891543307086614
 30
0.0
 10
0.0571614173228346
 20
1.891543307086614
 30
0.0
 10
0.0571614173228346
 20
1.891543307086614
 30
0.0
 10
0.0571614173228346
 20
1.891543307086614
 30
0.0
 10
-0.5948897637795276
 20
1.51396062992126
 30
0.0
 10
-0.5948897637795276
 20
1.51396062992126
 30
0.0
 10
-0.5948897637795276
 20
1.51396062992126
 30
0.0
 10
-0.5948897637795276
 20
1.51396062992126
 30
0.0
 10
-0.5948897637795276
 20
1.720259842519685
 30
0.0
 10
-0.5948897637795276
 20
1.720259842519685
 30
0.0
  0
SPLINE
  5
4A
330
1F
100
AcDbEntity
  8
LAYER_1
 62
   253
100
AcDbSpline
210
0.0
220
0.0
230
1.0
 70
    11
 71
     3
 72
    20
 73
    16
 74
     0
 42
0.0000000001
 43
0.0000000001
 40
0.0
 40
0.0
 40
0.0
 40
0.0
 40
0.25
 40
0.25
 40
0.25
 40
0.25
 40
0.5
 40
0.5
 40
0.5
 40
0.5
 40
0.75
 40
0.75
 40
0.75
 40
0.75
 40
1.0
 40
1.0
 40
1.0
 40
1.0
 10
-0.5948897637795276
 20
1.51396062992126
 30
0.0
 10
-0.5948897637795276
 20
1.51396062992126
 30
0.0
 10
0.0571614173228346
 20
1.891543307086614
 30
0.0
 10
0.0571614173228346
 20
1.891543307086614
 30
0.0
 10
0.0571614173228346
 20
1.891543307086614
 30
0.0
 10
0.0571614173228346
 20
1.891543307086614
 30
0.0
 10
0.3354409448818898
 20
1.079240157480315
 30
0.0
 10
0.3354409448818898
 20
1.079240157480315
 30
0.0
 10
0.3354409448818898
 20
1.079240157480315
 30
0.0
 10
0.3354409448818898
 20
1.079240157480315
 30
0.0
 10
-0.3166102362204725
 20
0.7016574803149607
 30
0.0
 10
-0.3166102362204725
 20
0.7016574803149607
 30
0.0
 10
-0.3166102362204725
 20
0.7016574803149607
 30
0.0
 10
-0.3166102362204725
 20
0.7016574803149607
 30
0.0
 10
-0.5948897637795276
 20
1.51396062992126
 30
0.0
 10
-0.5948897637795276
 20
1.51396062992126
 30
0.0
  0
SPLINE
  5
4B
330
1F
100
AcDbEntity
  8
LAYER_1
 62
   250
100
AcDbSpline
210
0.0
220
0.0
230
1.0
 70
    11
 71
     3
 72
    20
 73
    16
 74
     0
 42
0.0000000001
 43
0.0000000001
 40
0.0
 40
0.0
 40
0.0
 40
0.0
 40
0.25
 40
0.25
 40
0.25
 40
0.25
 40
0.5
 40
0.5
 40
0.5
 40
0.5
 40
0.75
 40
0.75
 40
0.75
 40
0.75
 40
1.0
 40
1.0
 40
1.0
 40
1.0
 10
-0.5948897637795276
 20
1.51396062992126
 30
0.0
 10
-0.5948897637795276
 20
1.51396062992126
 30
0.0
 10
0.0571614173228346
 20
1.891543307086614
 30
0.0
 10
0.0571614173228346
 20
1.891543307086614
 30
0.0
 10
0.0571614173228346
 20
1.891543307086614
 30
0.0
 10
0.0571614173228346
 20
1.891543307086614
 30
0.0
 10
0.3354409448818898
 20
1.079240157480315
 30
0.0
 10
0.3354409448818898
 20
1.079240157480315
 30
0.0
 10
0.3354409448818898
 20
1.079240157480315
 30
0.0
 10
0.3354409448818898
 20
1.079240157480315
 30
0.0
 10
-0.3166102362204725
 20
0.7016574803149607
 30
0.0
 10
-0.3166102362204725
 20
0.7016574803149607
 30
0.0
 10
-0.3166102362204725
 20
0.7016574803149607
 30
0.0
 10
-0.3166102362204725
 20
0.7016574803149607
 30
0.0
 10
-0.5948897637795276
 20
1.51396062992126
 30
0.0
 10
-0.5948897637795276
 20
1.51396062992126
 30
0.0
  0
SPLINE
  5
4C
330
1F
100
AcDbEntity
  8
LAYER_1
 62
   252
100
AcDbSpline
210
0.0
220
0.0
230
1.0
 70
    11
 71
     3
 72
    20
 73
    16
 74
     0
 42
0.0000000001
 43
0.0000000001
 40
0.0
 40
0.0
 40
0.0
 40
0.0
 40
0.25
 40
0.25
 40
0.25
 40
0.25
 40
0.5
 40
0.5
 40
0.5
 40
0.5
 40
0.75
 40
0.75
 40
0.75
 40
0.75
 40
1.0
 40
1.0
 40
1.0
 40
1.0
 10
-0.3166102362204725
 20
0.7016574803149607
 30
0.0
 10
-0.3166102362204725
 20
0.7016574803149607
 30
0.0
 10
0.3354409448818898
 20
1.079240157480315
 30
0.0
 10
0.3354409448818898
 20
1.079240157480315
 30
0.0
 10
0.3354409448818898
 20
1.079240157480315
 30
0.0
 10
0.3354409448818898
 20
1.079240157480315
 30
0.0
 10
0.5236889763779528
 20
1.03540157480315
 30
0.0
 10
0.5236889763779528
 20
1.03540157480315
 30
0.0
 10
0.5236889763779528
 20
1.03540157480315
 30
0.0
 10
0.5236889763779528
 20
1.03540157480315
 30
0.0
 10
-0.1283622047244095
 20
0.6578188976377953
 30
0.0
 10
-0.1283622047244095
 20
0.6578188976377953
 30
0.0
 10
-0.1283622047244095
 20
0.6578188976377953
 30
0.0
 10
-0.1283622047244095
 20
0.6578188976377953
 30
0.0
 10
-0.3166102362204725
 20
0.7016574803149607
 30
0.0
 10
-0.3166102362204725
 20
0.7016574803149607
 30
0.0
  0
SPLINE
  5
4D
330
1F
100
AcDbEntity
  8
LAYER_1
 62
   250
100
AcDbSpline
210
0.0
220
0.0
230
1.0
 70
    11
 71
     3
 72
    20
 73
    16
 74
     0
 42
0.0000000001
 43
0.0000000001
 40
0.0
 40
0.0
 40
0.0
 40
0.0
 40
0.25
 40
0.25
 40
0.25
 40
0.25
 40
0.5
 40
0.5
 40
0.5
 40
0.5
 40
0.75
 40
0.75
 40
0.75
 40
0.75
 40
1.0
 40
1.0
 40
1.0
 40
1.0
 10
-0.3166102362204725
 20
0.7016574803149607
 30
0.0
 10
-0.3166102362204725
 20
0.7016574803149607
 30
0.0
 10
0.3354409448818898
 20
1.079240157480315
 30
0.0
 10
0.3354409448818898
 20
1.079240157480315
 30
0.0
 10
0.3354409448818898
 20
1.079240157480315
 30
0.0
 10
0.3354409448818898
 20
1.079240157480315
 30
0.0
 10
0.5236889763779528
 20
1.03540157480315
 30
0.0
 10
0.5236889763779528
 20
1.03540157480315
 30
0.0
 10
0.5236889763779528
 20
1.03540157480315
 30
0.0
 10
0.5236889763779528
 20
1.03540157480315
 30
0.0
 10
-0.1283622047244095
 20
0.6578188976377953
 30
0.0
 10
-0.1283622047244095
 20
0.6578188976377953
 30
0.0
 10
-0.1283622047244095
 20
0.6578188976377953
 30
0.0
 10
-0.1283622047244095
 20
0.6578188976377953
 30
0.0
 10
-0.3166102362204725
 20
0.7016574803149607
 30
0.0
 10
-0.3166102362204725
 20
0.7016574803149607
 30
0.0
  0
SPLINE
  5
4E
330
1F
100
AcDbEntity
  8
LAYER_1
 62
   253
100
AcDbSpline
210
0.0
220
0.0
230
1.0
 70
    11
 71
     3
 72
    20
 73
    16
 74
     0
 42
0.0000000001
 43
0.0000000001
 40
0.0
 40
0.0
 40
0.0
 40
0.0
 40
0.25
 40
0.25
 40
0.25
 40
0.25
 40
0.5
 40
0.5
 40
0.5
 40
0.5
 40
0.75
 40
0.75
 40
0.75
 40
0.75
 40
1.0
 40
1.0
 40
1.0
 40
1.0
 10
-0.1283622047244095
 20
0.6578188976377953
 30
0.0
 10
-0.1283622047244095
 20
0.6578188976377953
 30
0.0
 10
0.5236889763779528
 20
1.03540157480315
 30
0.0
 10
0.5236889763779528
 20
1.03540157480315
 30
0.0
 10
0.5236889763779528
 20
1.03540157480315
 30
0.0
 10
0.5236889763779528
 20
1.03540157480315
 30
0.0
 10
0.5236889763779528
 20
0.5583346456692914
 30
0.0
 10
0.5236889763779528
 20
0.5583346456692914
 30
0.0
 10
0.5236889763779528
 20
0.5583346456692914
 30
0.0
 10
0.5236889763779528
 20
0.5583346456692914
 30
0.0
 10
-0.1283622047244095
 20
0.180751968503937
 30
0.0
 10
-0.1283622047244095
 20
0.180751968503937
 30
0.0
 10
-0.1283622047244095
 20
0.180751968503937
 30
0.0
 10
-0.1283622047244095
 20
0.180751968503937
 30
0.0
 10
-0.1283622047244095
 20
0.6578188976377953
 30
0.0
 10
-0.1283622047244095
 20
0.6578188976377953
 30
0.0
  0
SPLINE
  5
4F
330
1F
100
AcDbEntity
  8
LAYER_1
 62
   250
100
AcDbSpline
210
0.0
220
0.0
230
1.0
 70
    11
 71
     3
 72
    20
 73
    16
 74
     0
 42
0.0000000001
 43
0.0000000001
 40
0.0
 40
0.0
 40
0.0
 40
0.0
 40
0.25
 40
0.25
 40
0.25
 40
0.25
 40
0.5
 40
0.5
 40
0.5
 40
0.5
 40
0.75
 40
0.75
 40
0.75
 40
0.75
 40
1.0
 40
1.0
 40
1.0
 40
1.0
 10
-0.1283622047244095
 20
0.6578188976377953
 30
0.0
 10
-0.1283622047244095
 20
0.6578188976377953
 30
0.0
 10
0.5236889763779528
 20
1.03540157480315
 30
0.0
 10
0.5236889763779528
 20
1.03540157480315
 30
0.0
 10
0.5236889763779528
 20
1.03540157480315
 30
0.0
 10
0.5236889763779528
 20
1.03540157480315
 30
0.0
 10
0.5236889763779528
 20
0.5583346456692914
 30
0.0
 10
0.5236889763779528
 20
0.5583346456692914
 30
0.0
 10
0.5236889763779528
 20
0.5583346456692914
 30
0.0
 10
0.5236889763779528
 20
0.5583346456692914
 30
0.0
 10
-0.1283622047244095
 20
0.180751968503937
 30
0.0
 10
-0.1283622047244095
 20
0.180751968503937
 30
0.0
 10
-0.1283622047244095
 20
0.180751968503937
 30
0.0
 10
-0.1283622047244095
 20
0.180751968503937
 30
0.0
 10
-0.1283622047244095
 20
0.6578188976377953
 30
0.0
 10
-0.1283622047244095
 20
0.6578188976377953
 30
0.0
  0
SPLINE
  5
50
330
1F
100
AcDbEntity
  8
LAYER_1
 62
   252
100
AcDbSpline
210
0.0
220
0.0
230
1.0
 70
    11
 71
     3
 72
    20
 73
    16
 74
     0
 42
0.0000000001
 43
0.0000000001
 40
0.0
 40
0.0
 40
0.0
 40
0.0
 40
0.25
 40
0.25
 40
0.25
 40
0.25
 40
0.5
 40
0.5
 40
0.5
 40
0.5
 40
0.75
 40
0.75
 40
0.75
 40
0.75
 40
1.0
 40
1.0
 40
1.0
 40
1.0
 10
-0.8323582677165354
 20
1.720259842519685
 30
0.0
 10
-0.8323582677165354
 20
1.720259842519685
 30
0.0
 10
-0.1803070866141733
 20
2.097842519685039
 30
0.0
 10
-0.1803070866141733
 20
2.097842519685039
 30
0.0
 10
-0.1803070866141733
 20
2.097842519685039
 30
0.0
 10
-0.1803070866141733
 20
2.097842519685039
 30
0.0
 10
0.0571614173228346
 20
2.097842519685039
 30
0.0
 10
0.0571614173228346
 20
2.097842519685039
 30
0.0
 10
0.0571614173228346
 20
2.097842519685039
 30
0.0
 10
0.0571614173228346
 20
2.097842519685039
 30
0.0
 10
-0.5948897637795276
 20
1.720259842519685
 30
0.0
 10
-0.5948897637795276
 20
1.720259842519685
 30
0.0
 10
-0.5948897637795276
 20
1.720259842519685
 30
0.0
 10
-0.5948897637795276
 20
1.720259842519685
 30
0.0
 10
-0.8323582677165354
 20
1.720259842519685
 30
0.0
 10
-0.8323582677165354
 20
1.720259842519685
 30
0.0
  0
SPLINE
  5
51
330
1F
100
AcDbEntity
  8
LAYER_1
 62
   250
100
AcDbSpline
210
0.0
220
0.0
230
1.0
 70
    11
 71
     3
 72
    20
 73
    16
 74
     0
 42
0.0000000001
 43
0.0000000001
 40
0.0
 40
0.0
 40
0.0
 40
0.0
 40
0.25
 40
0.25
 40
0.25
 40
0.25
 40
0.5
 40
0.5
 40
0.5
 40
0.5
 40
0.75
 40
0.75
 40
0.75
 40
0.75
 40
1.0
 40
1.0
 40
1.0
 40
1.0
 10
-0.8323582677165354
 20
1.720259842519685
 30
0.0
 10
-0.8323582677165354
 20
1.720259842519685
 30
0.0
 10
-0.1803070866141733
 20
2.097842519685039
 30
0.0
 10
-0.1803070866141733
 20
2.097842519685039
 30
0.0
 10
-0.1803070866141733
 20
2.097842519685039
 30
0.0
 10
-0.1803070866141733
 20
2.097842519685039
 30
0.0
 10
0.0571614173228346
 20
2.097842519685039
 30
0.0
 10
0.0571614173228346
 20
2.097842519685039
 30
0.0
 10
0.0571614173228346
 20
2.097842519685039
 30
0.0
 10
0.0571614173228346
 20
2.097842519685039
 30
0.0
 10
-0.5948897637795276
 20
1.720259842519685
 30
0.0
 10
-0.5948897637795276
 20
1.720259842519685
 30
0.0
 10
-0.5948897637795276
 20
1.720259842519685
 30
0.0
 10
-0.5948897637795276
 20
1.720259842519685
 30
0.0
 10
-0.8323582677165354
 20
1.720259842519685
 30
0.0
 10
-0.8323582677165354
 20
1.720259842519685
 30
0.0
  0
SPLINE
  5
52
330
1F
100
AcDbEntity
  8
LAYER_1
 62
   253
100
AcDbSpline
210
0.0
220
0.0
230
1.0
 70
    11
 71
     3
 72
    20
 73
    16
 74
     0
 42
0.0000000001
 43
0.0000000001
 40
0.0
 40
0.0
 40
0.0
 40
0.0
 40
0.25
 40
0.25
 40
0.25
 40
0.25
 40
0.5
 40
0.5
 40
0.5
 40
0.5
 40
0.75
 40
0.75
 40
0.75
 40
0.75
 40
1.0
 40
1.0
 40
1.0
 40
1.0
 10
-0.5948897637795276
 20
1.720259842519685
 30
0.0
 10
-0.5948897637795276
 20
1.720259842519685
 30
0.0
 10
0.0571614173228346
 20
2.097842519685039
 30
0.0
 10
0.0571614173228346
 20
2.097842519685039
 30
0.0
 10
0.0571614173228346
 20
2.097842519685039
 30
0.0
 10
0.0571614173228346
 20
2.097842519685039
 30
0.0
 10
0.0571614173228346
 20
1.891543307086614
 30
0.0
 10
0.0571614173228346
 20
1.891543307086614
 30
0.0
 10
0.0571614173228346
 20
1.891543307086614
 30
0.0
 10
0.0571614173228346
 20
1.891543307086614
 30
0.0
 10
-0.5948897637795276
 20
1.51396062992126
 30
0.0
 10
-0.5948897637795276
 20
1.51396062992126
 30
0.0
 10
-0.5948897637795276
 20
1.51396062992126
 30
0.0
 10
-0.5948897637795276
 20
1.51396062992126
 30
0.0
 10
-0.5948897637795276
 20
1.720259842519685
 30
0.0
 10
-0.5948897637795276
 20
1.720259842519685
 30
0.0
  0
SPLINE
  5
53
330
1F
100
AcDbEntity
  8
LAYER_1
 62
   250
100
AcDbSpline
210
0.0
220
0.0
230
1.0
 70
    11
 71
     3
 72
    20
 73
    16
 74
     0
 42
0.0000000001
 43
0.0000000001
 40
0.0
 40
0.0
 40
0.0
 40
0.0
 40
0.25
 40
0.25
 40
0.25
 40
0.25
 40
0.5
 40
0.5
 40
0.5
 40
0.5
 40
0.75
 40
0.75
 40
0.75
 40
0.75
 40
1.0
 40
1.0
 40
1.0
 40
1.0
 10
-0.5948897637795276
 20
1.720259842519685
 30
0.0
 10
-0.5948897637795276
 20
1.720259842519685
 30
0.0
 10
0.0571614173228346
 20
2.097842519685039
 30
0.0
 10
0.0571614173228346
 20
2.097842519685039
 30
0.0
 10
0.0571614173228346
 20
2.097842519685039
 30
0.0
 10
0.0571614173228346
 20
2.097842519685039
 30
0.0
 10
0.0571614173228346
 20
1.891543307086614
 30
0.0
 10
0.0571614173228346
 20
1.891543307086614
 30
0.0
 10
0.0571614173228346
 20
1.891543307086614
 30
0.0
 10
0.0571614173228346
 20
1.891543307086614
 30
0.0
 10
-0.5948897637795276
 20
1.51396062992126
 30
0.0
 10
-0.5948897637795276
 20
1.51396062992126
 30
0.0
 10
-0.5948897637795276
 20
1.51396062992126
 30
0.0
 10
-0.5948897637795276
 20
1.51396062992126
 30
0.0
 10
-0.5948897637795276
 20
1.720259842519685
 30
0.0
 10
-0.5948897637795276
 20
1.720259842519685
 30
0.0
  0
SPLINE
  5
54
330
1F
100
AcDbEntity
  8
LAYER_1
 62
   253
100
AcDbSpline
210
0.0
220
0.0
230
1.0
 70
    11
 71
     3
 72
    20
 73
    16
 74
     0
 42
0.0000000001
 43
0.0000000001
 40
0.0
 40
0.0
 40
0.0
 40
0.0
 40
0.25
 40
0.25
 40
0.25
 40
0.25
 40
0.5
 40
0.5
 40
0.5
 40
0.5
 40
0.75
 40
0.75
 40
0.75
 40
0.75
 40
1.0
 40
1.0
 40
1.0
 40
1.0
 10
-0.5948897637795276
 20
1.51396062992126
 30
0.0
 10
-0.5948897637795276
 20
1.51396062992126
 30
0.0
 10
0.0571614173228346
 20
1.891543307086614
 30
0.0
 10
0.0571614173228346
 20
1.891543307086614
 30
0.0
 10
0.0571614173228346
 20
1.891543307086614
 30
0.0
 10
0.0571614173228346
 20
1.891543307086614
 30
0.0
 10
0.3354409448818898
 20
1.079240157480315
 30
0.0
 10
0.3354409448818898
 20
1.079240157480315
 30
0.0
 10
0.3354409448818898
 20
1.079240157480315
 30
0.0
 10
0.3354409448818898
 20
1.079240157480315
 30
0.0
 10
-0.3166102362204725
 20
0.7016574803149607
 30
0.0
 10
-0.3166102362204725
 20
0.7016574803149607
 30
0.0
 10
-0.3166102362204725
 20
0.7016574803149607
 30
0.0
 10
-0.3166102362204725
 20
0.7016574803149607
 30
0.0
 10
-0.5948897637795276
 20
1.51396062992126
 30
0.0
 10
-0.5948897637795276
 20
1.51396062992126
 30
0.0
  0
SPLINE
  5
55
330
1F
100
AcDbEntity
  8
LAYER_1
 62
   250
100
AcDbSpline
210
0.0
220
0.0
230
1.0
 70
    11
 71
     3
 72
    20
 73
    16
 74
     0
 42
0.0000000001
 43
0.0000000001
 40
0.0
 40
0.0
 40
0.0
 40
0.0
 40
0.25
 40
0.25
 40
0.25
 40
0.25
 40
0.5
 40
0.5
 40
0.5
 40
0.5
 40
0.75
 40
0.75
 40
0.75
 40
0.75
 40
1.0
 40
1.0
 40
1.0
 40
1.0
 10
-0.5948897637795276
 20
1.51396062992126
 30
0.0
 10
-0.5948897637795276
 20
1.51396062992126
 30
0.0
 10
0.0571614173228346
 20
1.891543307086614
 30
0.0
 10
0.0571614173228346
 20
1.891543307086614
 30
0.0
 10
0.0571614173228346
 20
1.891543307086614
 30
0.0
 10
0.0571614173228346
 20
1.891543307086614
 30
0.0
 10
0.3354409448818898
 20
1.079240157480315
 30
0.0
 10
0.3354409448818898
 20
1.079240157480315
 30
0.0
 10
0.3354409448818898
 20
1.079240157480315
 30
0.0
 10
0.3354409448818898
 20
1.079240157480315
 30
0.0
 10
-0.3166102362204725
 20
0.7016574803149607
 30
0.0
 10
-0.3166102362204725
 20
0.7016574803149607
 30
0.0
 10
-0.3166102362204725
 20
0.7016574803149607
 30
0.0
 10
-0.3166102362204725
 20
0.7016574803149607
 30
0.0
 10
-0.5948897637795276
 20
1.51396062992126
 30
0.0
 10
-0.5948897637795276
 20
1.51396062992126
 30
0.0
  0
SPLINE
  5
56
330
1F
100
AcDbEntity
  8
LAYER_1
 62
   252
100
AcDbSpline
210
0.0
220
0.0
230
1.0
 70
    11
 71
     3
 72
    20
 73
    16
 74
     0
 42
0.0000000001
 43
0.0000000001
 40
0.0
 40
0.0
 40
0.0
 40
0.0
 40
0.25
 40
0.25
 40
0.25
 40
0.25
 40
0.5
 40
0.5
 40
0.5
 40
0.5
 40
0.75
 40
0.75
 40
0.75
 40
0.75
 40
1.0
 40
1.0
 40
1.0
 40
1.0
 10
-0.3166102362204725
 20
0.7016574803149607
 30
0.0
 10
-0.3166102362204725
 20
0.7016574803149607
 30
0.0
 10
0.3354409448818898
 20
1.079240157480315
 30
0.0
 10
0.3354409448818898
 20
1.079240157480315
 30
0.0
 10
0.3354409448818898
 20
1.079240157480315
 30
0.0
 10
0.3354409448818898
 20
1.079240157480315
 30
0.0
 10
0.5236889763779528
 20
1.03540157480315
 30
0.0
 10
0.5236889763779528
 20
1.03540157480315
 30
0.0
 10
0.5236889763779528
 20
1.03540157480315
 30
0.0
 10
0.5236889763779528
 20
1.03540157480315
 30
0.0
 10
-0.1283622047244095
 20
0.6578188976377953
 30
0.0
 10
-0.1283622047244095
 20
0.6578188976377953
 30
0.0
 10
-0.1283622047244095
 20
0.6578188976377953
 30
0.0
 10
-0.1283622047244095
 20
0.6578188976377953
 30
0.0
 10
-0.3166102362204725
 20
0.7016574803149607
 30
0.0
 10
-0.3166102362204725
 20
0.7016574803149607
 30
0.0
  0
SPLINE
  5
57
330
1F
100
AcDbEntity
  8
LAYER_1
 62
   250
100
AcDbSpline
210
0.0
220
0.0
230
1.0
 70
    11
 71
     3
 72
    20
 73
    16
 74
     0
 42
0.0000000001
 43
0.0000000001
 40
0.0
 40
0.0
 40
0.0
 40
0.0
 40
0.25
 40
0.25
 40
0.25
 40
0.25
 40
0.5
 40
0.5
 40
0.5
 40
0.5
 40
0.75
 40
0.75
 40
0.75
 40
0.75
 40
1.0
 40
1.0
 40
1.0
 40
1.0
 10
-0.3166102362204725
 20
0.7016574803149607
 30
0.0
 10
-0.3166102362204725
 20
0.7016574803149607
 30
0.0
 10
0.3354409448818898
 20
1.079240157480315
 30
0.0
 10
0.3354409448818898
 20
1.079240157480315
 30
0.0
 10
0.3354409448818898
 20
1.079240157480315
 30
0.0
 10
0.3354409448818898
 20
1.079240157480315
 30
0.0
 10
0.5236889763779528
 20
1.03540157480315
 30
0.0
 10
0.5236889763779528
 20
1.03540157480315
 30
0.0
 10
0.5236889763779528
 20
1.03540157480315
 30
0.0
 10
0.5236889763779528
 20
1.03540157480315
 30
0.0
 10
-0.1283622047244095
 20
0.6578188976377953
 30
0.0
 10
-0.1283622047244095
 20
0.6578188976377953
 30
0.0
 10
-0.1283622047244095
 20
0.6578188976377953
 30
0.0
 10
-0.1283622047244095
 20
0.6578188976377953
 30
0.0
 10
-0.3166102362204725
 20
0.7016574803149607
 30
0.0
 10
-0.3166102362204725
 20
0.7016574803149607
 30
0.0
  0
SPLINE
  5
58
330
1F
100
AcDbEntity
  8
LAYER_1
 62
   253
100
AcDbSpline
210
0.0
220
0.0
230
1.0
 70
    11
 71
     3
 72
    20
 73
    16
 74
     0
 42
0.0000000001
 43
0.0000000001
 40
0.0
 40
0.0
 40
0.0
 40
0.0
 40
0.25
 40
0.25
 40
0.25
 40
0.25
 40
0.5
 40
0.5
 40
0.5
 40
0.5
 40
0.75
 40
0.75
 40
0.75
 40
0.75
 40
1.0
 40
1.0
 40
1.0
 40
1.0
 10
-0.1283622047244095
 20
0.6578188976377953
 30
0.0
 10
-0.1283622047244095
 20
0.6578188976377953
 30
0.0
 10
0.5236889763779528
 20
1.03540157480315
 30
0.0
 10
0.5236889763779528
 20
1.03540157480315
 30
0.0
 10
0.5236889763779528
 20
1.03540157480315
 30
0.0
 10
0.5236889763779528
 20
1.03540157480315
 30
0.0
 10
0.5236889763779528
 20
0.5583346456692914
 30
0.0
 10
0.5236889763779528
 20
0.5583346456692914
 30
0.0
 10
0.5236889763779528
 20
0.5583346456692914
 30
0.0
 10
0.5236889763779528
 20
0.5583346456692914
 30
0.0
 10
-0.1283622047244095
 20
0.180751968503937
 30
0.0
 10
-0.1283622047244095
 20
0.180751968503937
 30
0.0
 10
-0.1283622047244095
 20
0.180751968503937
 30
0.0
 10
-0.1283622047244095
 20
0.180751968503937
 30
0.0
 10
-0.1283622047244095
 20
0.6578188976377953
 30
0.0
 10
-0.1283622047244095
 20
0.6578188976377953
 30
0.0
  0
SPLINE
  5
59
330
1F
100
AcDbEntity
  8
LAYER_1
 62
   250
100
AcDbSpline
210
0.0
220
0.0
230
1.0
 70
    11
 71
     3
 72
    20
 73
    16
 74
     0
 42
0.0000000001
 43
0.0000000001
 40
0.0
 40
0.0
 40
0.0
 40
0.0
 40
0.25
 40
0.25
 40
0.25
 40
0.25
 40
0.5
 40
0.5
 40
0.5
 40
0.5
 40
0.75
 40
0.75
 40
0.75
 40
0.75
 40
1.0
 40
1.0
 40
1.0
 40
1.0
 10
-0.1283622047244095
 20
0.6578188976377953
 30
0.0
 10
-0.1283622047244095
 20
0.6578188976377953
 30
0.0
 10
0.5236889763779528
 20
1.03540157480315
 30
0.0
 10
0.5236889763779528
 20
1.03540157480315
 30
0.0
 10
0.5236889763779528
 20
1.03540157480315
 30
0.0
 10
0.5236889763779528
 20
1.03540157480315
 30
0.0
 10
0.5236889763779528
 20
0.5583346456692914
 30
0.0
 10
0.5236889763779528
 20
0.5583346456692914
 30
0.0
 10
0.5236889763779528
 20
0.5583346456692914
 30
0.0
 10
0.5236889763779528
 20
0.5583346456692914
 30
0.0
 10
-0.1283622047244095
 20
0.180751968503937
 30
0.0
 10
-0.1283622047244095
 20
0.180751968503937
 30
0.0
 10
-0.1283622047244095
 20
0.180751968503937
 30
0.0
 10
-0.1283622047244095
 20
0.180751968503937
 30
0.0
 10
-0.1283622047244095
 20
0.6578188976377953
 30
0.0
 10
-0.1283622047244095
 20
0.6578188976377953
 30
0.0
  0
SPLINE
  5
5A
330
1F
100
AcDbEntity
  8
LAYER_1
 62
     7
100
AcDbSpline
210
0.0
220
0.0
230
1.0
 70
    11
 71
     3
 72
    40
 73
    36
 74
     0
 42
0.0000000001
 43
0.0000000001
 40
0.0
 40
0.0
 40
0.0
 40
0.0
 40
0.1111111111111111
 40
0.1111111111111111
 40
0.1111111111111111
 40
0.1111111111111111
 40
0.2222222222222222
 40
0.2222222222222222
 40
0.2222222222222222
 40
0.2222222222222222
 40
0.3333333333333333
 40
0.3333333333333333
 40
0.3333333333333333
 40
0.3333333333333333
 40
0.4444444444444444
 40
0.4444444444444444
 40
0.4444444444444444
 40
0.4444444444444444
 40
0.5555555555555556
 40
0.5555555555555556
 40
0.5555555555555556
 40
0.5555555555555556
 40
0.6666666666666667
 40
0.6666666666666667
 40
0.6666666666666667
 40
0.6666666666666667
 40
0.7777777777777779
 40
0.7777777777777779
 40
0.7777777777777779
 40
0.7777777777777779
 40
0.8888888888888891
 40
0.8888888888888891
 40
0.8888888888888891
 40
0.8888888888888891
 40
1.0
 40
1.0
 40
1.0
 40
1.0
 10
-0.8323582677165354
 20
1.720259842519685
 30
0.0
 10
-0.8323582677165354
 20
1.720259842519685
 30
0.0
 10
-0.5948897637795276
 20
1.720259842519685
 30
0.0
 10
-0.5948897637795276
 20
1.720259842519685
 30
0.0
 10
-0.5948897637795276
 20
1.720259842519685
 30
0.0
 10
-0.5948897637795276
 20
1.720259842519685
 30
0.0
 10
-0.5948897637795276
 20
1.51396062992126
 30
0.0
 10
-0.5948897637795276
 20
1.51396062992126
 30
0.0
 10
-0.5948897637795276
 20
1.51396062992126
 30
0.0
 10
-0.5948897637795276
 20
1.51396062992126
 30
0.0
 10
-0.3166102362204725
 20
0.7016574803149607
 30
0.0
 10
-0.3166102362204725
 20
0.7016574803149607
 30
0.0
 10
-0.3166102362204725
 20
0.7016574803149607
 30
0.0
 10
-0.3166102362204725
 20
0.7016574803149607
 30
0.0
 10
-0.1283622047244095
 20
0.6578188976377953
 30
0.0
 10
-0.1283622047244095
 20
0.6578188976377953
 30
0.0
 10
-0.1283622047244095
 20
0.6578188976377953
 30
0.0
 10
-0.1283622047244095
 20
0.6578188976377953
 30
0.0
 10
-0.1283622047244095
 20
0.180751968503937
 30
0.0
 10
-0.1283622047244095
 20
0.180751968503937
 30
0.0
 10
-0.1283622047244095
 20
0.180751968503937
 30
0.0
 10
-0.1283622047244095
 20
0.180751968503937
 30
0.0
 10
-0.5033582677165355
 20
0.180751968503937
 30
0.0
 10
-0.5033582677165355
 20
0.180751968503937
 30
0.0
 10
-0.5033582677165355
 20
0.180751968503937
 30
0.0
 10
-0.5033582677165355
 20
0.180751968503937
 30
0.0
 10
-0.5033582677165355
 20
0.430751968503937
 30
0.0
 10
-0.5033582677165355
 20
0.430751968503937
 30
0.0
 10
-0.5033582677165355
 20
0.430751968503937
 30
0.0
 10
-0.5033582677165355
 20
0.430751968503937
 30
0.0
 10
-0.8323582677165354
 20
0.430751968503937
 30
0.0
 10
-0.8323582677165354
 20
0.430751968503937
 30
0.0
 10
-0.8323582677165354
 20
0.430751968503937
 30
0.0
 10
-0.8323582677165354
 20
0.430751968503937
 30
0.0
 10
-0.8323582677165354
 20
1.720259842519685
 30
0.0
 10
-0.8323582677165354
 20
1.720259842519685
 30
0.0
  0
SPLINE
  5
5B
330
1F
100
AcDbEntity
  8
LAYER_1
 62
   250
100
AcDbSpline
210
0.0
220
0.0
230
1.0
 70
    11
 71
     3
 72
   104
 73
   100
 74
     0
 42
0.0000000001
 43
0.0000000001
 40
0.0
 40
0.0
 40
0.0
 40
0.0
 40
0.04
 40
0.04
 40
0.04
 40
0.04
 40
0.08
 40
0.08
 40
0.08
 40
0.08
 40
0.12
 40
0.12
 40
0.12
 40
0.12
 40
0.16
 40
0.16
 40
0.16
 40
0.16
 40
0.2
 40
0.2
 40
0.2
 40
0.2
 40
0.24
 40
0.24
 40
0.24
 40
0.24
 40
0.28
 40
0.28
 40
0.28
 40
0.28
 40
0.32
 40
0.32
 40
0.32
 40
0.32
 40
0.36
 40
0.36
 40
0.36
 40
0.36
 40
0.4
 40
0.4
 40
0.4
 40
0.4
 40
0.44
 40
0.44
 40
0.44
 40
0.44
 40
0.4799999999999999
 40
0.4799999999999999
 40
0.4799999999999999
 40
0.4799999999999999
 40
0.5199999999999999
 40
0.5199999999999999
 40
0.5199999999999999
 40
0.5199999999999999
 40
0.5599999999999999
 40
0.5599999999999999
 40
0.5599999999999999
 40
0.5599999999999999
 40
0.6
 40
0.6
 40
0.6
 40
0.6
 40
0.64
 40
0.64
 40
0.64
 40
0.64
 40
0.6800000000000001
 40
0.6800000000000001
 40
0.6800000000000001
 40
0.6800000000000001
 40
0.7200000000000001
 40
0.7200000000000001
 40
0.7200000000000001
 40
0.7200000000000001
 40
0.7600000000000001
 40
0.7600000000000001
 40
0.7600000000000001
 40
0.7600000000000001
 40
0.8000000000000002
 40
0.8000000000000002
 40
0.8000000000000002
 40
0.8000000000000002
 40
0.8400000000000002
 40
0.8400000000000002
 40
0.8400000000000002
 40
0.8400000000000002
 40
0.8800000000000002
 40
0.8800000000000002
 40
0.8800000000000002
 40
0.8800000000000002
 40
0.9200000000000003
 40
0.9200000000000003
 40
0.9200000000000003
 40
0.9200000000000003
 40
0.9600000000000003
 40
0.9600000000000003
 40
0.9600000000000003
 40
0.9600000000000003
 40
1.0
 40
1.0
 40
1.0
 40
1.0
 10
-0.5229370078740158
 20
0.0712874015748032
 30
0.0
 10
-0.5229370078740158
 20
0.0712874015748032
 30
0.0
 10
-0.4689645669291339
 20
0.0712874015748032
 30
0.0
 10
-0.4689645669291339
 20
0.0712874015748032
 30
0.0
 10
-0.4689645669291339
 20
0.0712874015748032
 30
0.0
 10
-0.4557952755905512
 20
0.0712874015748032
 30
0.0
 10
-0.4467677165354331
 20
0.0706771653543307
 30
0.0
 10
-0.4418818897637796
 20
0.0694803149606299
 30
0.0
 10
-0.4418818897637796
 20
0.0694803149606299
 30
0.0
 10
-0.4346574803149607
 20
0.067759842519685
 30
0.0
 10
-0.4289645669291339
 20
0.0646220472440945
 30
0.0
 10
-0.424740157480315
 20
0.0600629921259843
 30
0.0
 10
-0.424740157480315
 20
0.0600629921259843
 30
0.0
 10
-0.4205472440944882
 20
0.055507874015748
 30
0.0
 10
-0.4184370078740158
 20
0.050007874015748
 30
0.0
 10
-0.4184370078740158
 20
0.0436220472440945
 30
0.0
 10
-0.4184370078740158
 20
0.0436220472440945
 30
0.0
 10
-0.4184370078740158
 20
0.039007874015748
 30
0.0
 10
-0.4195472440944882
 20
0.0348700787401575
 30
0.0
 10
-0.4217677165354331
 20
0.0312047244094488
 30
0.0
 10
-0.4217677165354331
 20
0.0312047244094488
 30
0.0
 10
-0.423992125984252
 20
0.0275354330708661
 30
0.0
 10
-0.427240157480315
 20
0.0243976377952756
 30
0.0
 10
-0.4314645669291339
 20
0.0218149606299213
 30
0.0
 10
-0.4314645669291339
 20
0.0218149606299213
 30
0.0
 10
-0.4341850393700787
 20
0.0201220472440945
 30
0.0
 10
-0.4378543307086614
 20
0.0186771653543307
 30
0.0
 10
-0.4425196850393701
 20
0.0174803149606299
 30
0.0
 10
-0.4425196850393701
 20
0.0174803149606299
 30
0.0
 10
-0.4366023622047244
 20
0.0163976377952756
 30
0.0
 10
-0.4321023622047244
 20
0.0150944881889764
 30
0.0
 10
-0.4290196850393701
 20
0.0135944881889764
 30
0.0
 10
-0.4290196850393701
 20
0.0135944881889764
 30
0.0
 10
-0.4243543307086614
 20
0.0113149606299213
 30
0.0
 10
-0.4206574803149606
 20
0.0080669291338583
 30
0.0
 10
-0.4179645669291339
 20
0.0038149606299213
 30
0.0
 10
-0.4179645669291339
 20
0.0038149606299213
 30
0.0
 10
-0.415240157480315
 20
-0.0004055118110236
 30
0.0
 10
-0.4138818897637795
 20
-0.0051850393700787
 30
0.0
 10
-0.4138818897637795
 20
-0.010492125984252
 30
0.0
 10
-0.4138818897637795
 20
-0.010492125984252
 30
0.0
 10
-0.4138818897637795
 20
-0.0156574803149606
 30
0.0
 10
-0.4152125984251969
 20
-0.0204330708661417
 30
0.0
 10
-0.4178818897637796
 20
-0.0248228346456693
 30
0.0
 10
-0.4178818897637796
 20
-0.0248228346456693
 30
0.0
 10
-0.4205196850393701
 20
-0.0292125984251969
 30
0.0
 10
-0.4242952755905512
 20
-0.0328228346456693
 30
0.0
 10
-0.4291299212598426
 20
-0.0356574803149606
 30
0.0
 10
-0.4291299212598426
 20
-0.0356574803149606
 30
0.0
 10
-0.433992125984252
 20
-0.0384606299212598
 30
0.0
 10
-0.4396574803149607
 20
-0.0402677165354331
 30
0.0
 10
-0.4461023622047244
 20
-0.0410748031496063
 30
0.0
 10
-0.4461023622047244
 20
-0.0410748031496063
 30
0.0
 10
-0.4525748031496063
 20
-0.0418503937007874
 30
0.0
 10
-0.4592125984251969
 20
-0.042240157480315
 30
0.0
 10
-0.4660472440944882
 20
-0.042240157480315
 30
0.0
 10
-0.4660472440944882
 20
-0.042240157480315
 30
0.0
 10
-0.4660472440944882
 20
-0.042240157480315
 30
0.0
 10
-0.5229370078740158
 20
-0.042240157480315
 30
0.0
 10
-0.5229370078740158
 20
-0.042240157480315
 30
0.0
 10
-0.5229370078740158
 20
-0.042240157480315
 30
0.0
 10
-0.5229370078740158
 20
-0.042240157480315
 30
0.0
 10
-0.5229370078740158
 20
-0.0354055118110236
 30
0.0
 10
-0.5229370078740158
 20
-0.0354055118110236
 30
0.0
 10
-0.5229370078740158
 20
-0.0354055118110236
 30
0.0
 10
-0.5229370078740158
 20
-0.0354055118110236
 30
0.0
 10
-0.5191023622047244
 20
-0.0354055118110236
 30
0.0
 10
-0.5191023622047244
 20
-0.0354055118110236
 30
0.0
 10
-0.5191023622047244
 20
-0.0354055118110236
 30
0.0
 10
-0.5154055118110237
 20
-0.0354055118110236
 30
0.0
 10
-0.5129055118110236
 20
-0.0348228346456693
 30
0.0
 10
-0.5115472440944883
 20
-0.0336850393700787
 30
0.0
 10
-0.5115472440944883
 20
-0.0336850393700787
 30
0.0
 10
-0.5095748031496064
 20
-0.0321299212598425
 30
0.0
 10
-0.5086023622047244
 20
-0.0295196850393701
 30
0.0
 10
-0.5086023622047244
 20
-0.0258779527559055
 30
0.0
 10
-0.5086023622047244
 20
-0.0258779527559055
 30
0.0
 10
-0.5086023622047244
 20
-0.0258779527559055
 30
0.0
 10
-0.5086023622047244
 20
0.0529803149606299
 30
0.0
 10
-0.5086023622047244
 20
0.0529803149606299
 30
0.0
 10
-0.5086023622047244
 20
0.0529803149606299
 30
0.0
 10
-0.5086023622047244
 20
0.0566771653543307
 30
0.0
 10
-0.5089055118110236
 20
0.0591771653543307
 30
0.0
 10
-0.509492125984252
 20
0.0605354330708661
 30
0.0
 10
-0.509492125984252
 20
0.0605354330708661
 30
0.0
 10
-0.5101023622047244
 20
0.0618976377952756
 30
0.0
 10
-0.510992125984252
 20
0.0628700787401575
 30
0.0
 10
-0.5121850393700788
 20
0.0634803149606299
 30
0.0
 10
-0.5121850393700788
 20
0.0634803149606299
 30
0.0
 10
-0.5133779527559056
 20
0.0640629921259843
 30
0.0
 10
-0.5156850393700788
 20
0.0643700787401575
 30
0.0
 10
-0.5191023622047244
 20
0.0643700787401575
 30
0.0
 10
-0.5191023622047244
 20
0.0643700787401575
 30
0.0
 10
-0.5191023622047244
 20
0.0643700787401575
 30
0.0
 10
-0.5229370078740158
 20
0.0643700787401575
 30
0.0
 10
-0.5229370078740158
 20
0.0643700787401575
 30
0.0
 10
-0.5229370078740158
 20
0.0643700787401575
 30
0.0
 10
-0.5229370078740158
 20
0.0643700787401575
 30
0.0
 10
-0.5229370078740158
 20
0.0712874015748032
 30
0.0
 10
-0.5229370078740158
 20
0.0712874015748032
 30
0.0
  0
SPLINE
  5
5C
330
1F
100
AcDbEntity
  8
LAYER_1
 62
   250
100
AcDbSpline
210
0.0
220
0.0
230
1.0
 70
    11
 71
     3
 72
    40
 73
    36
 74
     0
 42
0.0000000001
 43
0.0000000001
 40
0.0
 40
0.0
 40
0.0
 40
0.0
 40
0.1111111111111111
 40
0.1111111111111111
 40
0.1111111111111111
 40
0.1111111111111111
 40
0.2222222222222222
 40
0.2222222222222222
 40
0.2222222222222222
 40
0.2222222222222222
 40
0.3333333333333333
 40
0.3333333333333333
 40
0.3333333333333333
 40
0.3333333333333333
 40
0.4444444444444444
 40
0.4444444444444444
 40
0.4444444444444444
 40
0.4444444444444444
 40
0.5555555555555556
 40
0.5555555555555556
 40
0.5555555555555556
 40
0.5555555555555556
 40
0.6666666666666667
 40
0.6666666666666667
 40
0.6666666666666667
 40
0.6666666666666667
 40
0.7777777777777779
 40
0.7777777777777779
 40
0.7777777777777779
 40
0.7777777777777779
 40
0.8888888888888891
 40
0.8888888888888891
 40
0.8888888888888891
 40
0.8888888888888891
 40
1.0
 40
1.0
 40
1.0
 40
1.0
 10
-0.4933779527559055
 20
0.062259842519685
 30
0.0
 10
-0.4933779527559055
 20
0.062259842519685
 30
0.0
 10
-0.4933779527559055
 20
0.0206771653543307
 30
0.0
 10
-0.4933779527559055
 20
0.0206771653543307
 30
0.0
 10
-0.4933779527559055
 20
0.0206771653543307
 30
0.0
 10
-0.4933779527559055
 20
0.0206771653543307
 30
0.0
 10
-0.4726299212598425
 20
0.0206771653543307
 30
0.0
 10
-0.4726299212598425
 20
0.0206771653543307
 30
0.0
 10
-0.4726299212598425
 20
0.0206771653543307
 30
0.0
 10
-0.4629370078740158
 20
0.0206771653543307
 30
0.0
 10
-0.4562677165354331
 20
0.0211220472440945
 30
0.0
 10
-0.4527125984251968
 20
0.0220354330708661
 30
0.0
 10
-0.4527125984251968
 20
0.0220354330708661
 30
0.0
 10
-0.4471023622047244
 20
0.023507874015748
 30
0.0
 10
-0.4428543307086614
 20
0.026007874015748
 30
0.0
 10
-0.4398818897637796
 20
0.0295354330708661
 30
0.0
 10
-0.4398818897637796
 20
0.0295354330708661
 30
0.0
 10
-0.4369370078740157
 20
0.0330629921259843
 30
0.0
 10
-0.4354370078740158
 20
0.0375944881889764
 30
0.0
 10
-0.4354370078740158
 20
0.0431220472440945
 30
0.0
 10
-0.4354370078740158
 20
0.0431220472440945
 30
0.0
 10
-0.4354370078740158
 20
0.0477874015748032
 30
0.0
 10
-0.4367952755905512
 20
0.0516771653543307
 30
0.0
 10
-0.4394645669291339
 20
0.0548149606299213
 30
0.0
 10
-0.4394645669291339
 20
0.0548149606299213
 30
0.0
 10
-0.4421574803149607
 20
0.0579251968503937
 30
0.0
 10
-0.4457677165354331
 20
0.0600629921259843
 30
0.0
 10
-0.4502677165354331
 20
0.0612047244094488
 30
0.0
 10
-0.4502677165354331
 20
0.0612047244094488
 30
0.0
 10
-0.4531850393700788
 20
0.0618976377952756
 30
0.0
 10
-0.4592677165354331
 20
0.062259842519685
 30
0.0
 10
-0.468492125984252
 20
0.062259842519685
 30
0.0
 10
-0.468492125984252
 20
0.062259842519685
 30
0.0
 10
-0.468492125984252
 20
0.062259842519685
 30
0.0
 10
-0.4933779527559055
 20
0.062259842519685
 30
0.0
 10
-0.4933779527559055
 20
0.062259842519685
 30
0.0
  0
SPLINE
  5
5D
330
1F
100
AcDbEntity
  8
LAYER_1
 62
   250
100
AcDbSpline
210
0.0
220
0.0
230
1.0
 70
    11
 71
     3
 72
    52
 73
    48
 74
     0
 42
0.0000000001
 43
0.0000000001
 40
0.0
 40
0.0
 40
0.0
 40
0.0
 40
0.0833333333333333
 40
0.0833333333333333
 40
0.0833333333333333
 40
0.0833333333333333
 40
0.1666666666666667
 40
0.1666666666666667
 40
0.1666666666666667
 40
0.1666666666666667
 40
0.25
 40
0.25
 40
0.25
 40
0.25
 40
0.3333333333333333
 40
0.3333333333333333
 40
0.3333333333333333
 40
0.3333333333333333
 40
0.4166666666666666
 40
0.4166666666666666
 40
0.4166666666666666
 40
0.4166666666666666
 40
0.4999999999999999
 40
0.4999999999999999
 40
0.4999999999999999
 40
0.4999999999999999
 40
0.5833333333333333
 40
0.5833333333333333
 40
0.5833333333333333
 40
0.5833333333333333
 40
0.6666666666666666
 40
0.6666666666666666
 40
0.6666666666666666
 40
0.6666666666666666
 40
0.75
 40
0.75
 40
0.75
 40
0.75
 40
0.8333333333333334
 40
0.8333333333333334
 40
0.8333333333333334
 40
0.8333333333333334
 40
0.9166666666666667
 40
0.9166666666666667
 40
0.9166666666666667
 40
0.9166666666666667
 40
1.0
 40
1.0
 40
1.0
 40
1.0
 10
-0.4933779527559055
 20
0.0128425196850394
 30
0.0
 10
-0.4933779527559055
 20
0.0128425196850394
 30
0.0
 10
-0.4933779527559055
 20
-0.0244055118110236
 30
0.0
 10
-0.4933779527559055
 20
-0.0244055118110236
 30
0.0
 10
-0.4933779527559055
 20
-0.0244055118110236
 30
0.0
 10
-0.4933779527559055
 20
-0.0281574803149606
 30
0.0
 10
-0.4932125984251969
 20
-0.0303779527559055
 30
0.0
 10
-0.4929094488188976
 20
-0.0311023622047244
 30
0.0
 10
-0.4929094488188976
 20
-0.0311023622047244
 30
0.0
 10
-0.4924645669291339
 20
-0.0320748031496063
 30
0.0
 10
-0.4916023622047244
 20
-0.032740157480315
 30
0.0
 10
-0.4902952755905512
 20
-0.0331299212598425
 30
0.0
 10
-0.4902952755905512
 20
-0.0331299212598425
 30
0.0
 10
-0.4893779527559055
 20
-0.0334055118110236
 30
0.0
 10
-0.4867677165354331
 20
-0.0335472440944882
 30
0.0
 10
-0.482492125984252
 20
-0.0335472440944882
 30
0.0
 10
-0.482492125984252
 20
-0.0335472440944882
 30
0.0
 10
-0.482492125984252
 20
-0.0335472440944882
 30
0.0
 10
-0.4714094488188977
 20
-0.0335472440944882
 30
0.0
 10
-0.4714094488188977
 20
-0.0335472440944882
 30
0.0
 10
-0.4714094488188977
 20
-0.0335472440944882
 30
0.0
 10
-0.4604645669291339
 20
-0.0335472440944882
 30
0.0
 10
-0.4526299212598425
 20
-0.0329330708661417
 30
0.0
 10
-0.4479370078740158
 20
-0.0317125984251969
 30
0.0
 10
-0.4479370078740158
 20
-0.0317125984251969
 30
0.0
 10
-0.443240157480315
 20
-0.030492125984252
 30
0.0
 10
-0.439240157480315
 20
-0.0279055118110236
 30
0.0
 10
-0.4359370078740158
 20
-0.0239606299212598
 30
0.0
 10
-0.4359370078740158
 20
-0.0239606299212598
 30
0.0
 10
-0.4326299212598425
 20
-0.0200472440944882
 30
0.0
 10
-0.4309645669291339
 20
-0.0152952755905512
 30
0.0
 10
-0.4309645669291339
 20
-0.0097677165354331
 30
0.0
 10
-0.4309645669291339
 20
-0.0097677165354331
 30
0.0
 10
-0.4309645669291339
 20
-0.0051023622047244
 30
0.0
 10
-0.4323228346456693
 20
-0.0009645669291339
 30
0.0
 10
-0.434992125984252
 20
0.0026496062992126
 30
0.0
 10
-0.434992125984252
 20
0.0026496062992126
 30
0.0
 10
-0.4376850393700787
 20
0.006259842519685
 30
0.0
 10
-0.4414094488188977
 20
0.0088425196850394
 30
0.0
 10
-0.4461574803149607
 20
0.0104527559055118
 30
0.0
 10
-0.4461574803149607
 20
0.0104527559055118
 30
0.0
 10
-0.4509094488188977
 20
0.0120669291338583
 30
0.0
 10
-0.4593228346456693
 20
0.0128425196850394
 30
0.0
 10
-0.4714094488188977
 20
0.0128425196850394
 30
0.0
 10
-0.4714094488188977
 20
0.0128425196850394
 30
0.0
 10
-0.4714094488188977
 20
0.0128425196850394
 30
0.0
 10
-0.4933779527559055
 20
0.0128425196850394
 30
0.0
 10
-0.4933779527559055
 20
0.0128425196850394
 30
0.0
  0
SPLINE
  5
5E
330
1F
100
AcDbEntity
  8
LAYER_1
 62
   250
100
AcDbSpline
210
0.0
220
0.0
230
1.0
 70
    11
 71
     3
 72
   112
 73
   108
 74
     0
 42
0.0000000001
 43
0.0000000001
 40
0.0
 40
0.0
 40
0.0
 40
0.0
 40
0.037037037037037
 40
0.037037037037037
 40
0.037037037037037
 40
0.037037037037037
 40
0.0740740740740741
 40
0.0740740740740741
 40
0.0740740740740741
 40
0.0740740740740741
 40
0.1111111111111111
 40
0.1111111111111111
 40
0.1111111111111111
 40
0.1111111111111111
 40
0.1481481481481481
 40
0.1481481481481481
 40
0.1481481481481481
 40
0.1481481481481481
 40
0.1851851851851852
 40
0.1851851851851852
 40
0.1851851851851852
 40
0.1851851851851852
 40
0.2222222222222222
 40
0.2222222222222222
 40
0.2222222222222222
 40
0.2222222222222222
 40
0.2592592592592592
 40
0.2592592592592592
 40
0.2592592592592592
 40
0.2592592592592592
 40
0.2962962962962963
 40
0.2962962962962963
 40
0.2962962962962963
 40
0.2962962962962963
 40
0.3333333333333333
 40
0.3333333333333333
 40
0.3333333333333333
 40
0.3333333333333333
 40
0.3703703703703704
 40
0.3703703703703704
 40
0.3703703703703704
 40
0.3703703703703704
 40
0.4074074074074074
 40
0.4074074074074074
 40
0.4074074074074074
 40
0.4074074074074074
 40
0.4444444444444444
 40
0.4444444444444444
 40
0.4444444444444444
 40
0.4444444444444444
 40
0.4814814814814815
 40
0.4814814814814815
 40
0.4814814814814815
 40
0.4814814814814815
 40
0.5185185185185185
 40
0.5185185185185185
 40
0.5185185185185185
 40
0.5185185185185185
 40
0.5555555555555556
 40
0.5555555555555556
 40
0.5555555555555556
 40
0.5555555555555556
 40
0.5925925925925926
 40
0.5925925925925926
 40
0.5925925925925926
 40
0.5925925925925926
 40
0.6296296296296295
 40
0.6296296296296295
 40
0.6296296296296295
 40
0.6296296296296295
 40
0.6666666666666665
 40
0.6666666666666665
 40
0.6666666666666665
 40
0.6666666666666665
 40
0.7037037037037035
 40
0.7037037037037035
 40
0.7037037037037035
 40
0.7037037037037035
 40
0.7407407407407405
 40
0.7407407407407405
 40
0.7407407407407405
 40
0.7407407407407405
 40
0.7777777777777775
 40
0.7777777777777775
 40
0.7777777777777775
 40
0.7777777777777775
 40
0.8148148148148144
 40
0.8148148148148144
 40
0.8148148148148144
 40
0.8148148148148144
 40
0.8518518518518514
 40
0.8518518518518514
 40
0.8518518518518514
 40
0.8518518518518514
 40
0.8888888888888884
 40
0.8888888888888884
 40
0.8888888888888884
 40
0.8888888888888884
 40
0.9259259259259254
 40
0.9259259259259254
 40
0.9259259259259254
 40
0.9259259259259254
 40
0.9629629629629624
 40
0.9629629629629624
 40
0.9629629629629624
 40
0.9629629629629624
 40
1.0
 40
1.0
 40
1.0
 40
1.0
 10
-0.3562716535433071
 20
0.0712874015748032
 30
0.0
 10
-0.3562716535433071
 20
0.0712874015748032
 30
0.0
 10
-0.3428543307086615
 20
0.0712874015748032
 30
0.0
 10
-0.3428543307086615
 20
0.0712874015748032
 30
0.0
 10
-0.3428543307086615
 20
0.0712874015748032
 30
0.0
 10
-0.3428543307086615
 20
0.0712874015748032
 30
0.0
 10
-0.3076062992125984
 20
-0.0236023622047244
 30
0.0
 10
-0.3076062992125984
 20
-0.0236023622047244
 30
0.0
 10
-0.3076062992125984
 20
-0.0236023622047244
 30
0.0
 10
-0.3058818897637796
 20
-0.0283779527559055
 30
0.0
 10
-0.3041338582677166
 20
-0.0315472440944882
 30
0.0
 10
-0.3023543307086614
 20
-0.0330748031496063
 30
0.0
 10
-0.3023543307086614
 20
-0.0330748031496063
 30
0.0
 10
-0.3006062992125985
 20
-0.0346299212598425
 30
0.0
 10
-0.2982165354330709
 20
-0.0354055118110236
 30
0.0
 10
-0.295244094488189
 20
-0.0354055118110236
 30
0.0
 10
-0.295244094488189
 20
-0.0354055118110236
 30
0.0
 10
-0.295244094488189
 20
-0.0354055118110236
 30
0.0
 10
-0.2934645669291339
 20
-0.0354055118110236
 30
0.0
 10
-0.2934645669291339
 20
-0.0354055118110236
 30
0.0
 10
-0.2934645669291339
 20
-0.0354055118110236
 30
0.0
 10
-0.2934645669291339
 20
-0.0354055118110236
 30
0.0
 10
-0.2934645669291339
 20
-0.042240157480315
 30
0.0
 10
-0.2934645669291339
 20
-0.042240157480315
 30
0.0
 10
-0.2934645669291339
 20
-0.042240157480315
 30
0.0
 10
-0.2934645669291339
 20
-0.042240157480315
 30
0.0
 10
-0.3339094488188977
 20
-0.042240157480315
 30
0.0
 10
-0.3339094488188977
 20
-0.042240157480315
 30
0.0
 10
-0.3339094488188977
 20
-0.042240157480315
 30
0.0
 10
-0.3339094488188977
 20
-0.042240157480315
 30
0.0
 10
-0.3339094488188977
 20
-0.0354055118110236
 30
0.0
 10
-0.3339094488188977
 20
-0.0354055118110236
 30
0.0
 10
-0.3339094488188977
 20
-0.0354055118110236
 30
0.0
 10
-0.3326062992125984
 20
-0.0352952755905512
 30
0.0
 10
-0.3313267716535433
 20
-0.035240157480315
 30
0.0
 10
-0.3300748031496063
 20
-0.035240157480315
 30
0.0
 10
-0.3300748031496063
 20
-0.035240157480315
 30
0.0
 10
-0.3274645669291339
 20
-0.035240157480315
 30
0.0
 10
-0.3257716535433071
 20
-0.0349606299212598
 30
0.0
 10
-0.3249370078740158
 20
-0.0344330708661417
 30
0.0
 10
-0.3249370078740158
 20
-0.0344330708661417
 30
0.0
 10
-0.3233818897637795
 20
-0.0334055118110236
 30
0.0
 10
-0.3225787401574803
 20
-0.0321023622047244
 30
0.0
 10
-0.3225787401574803
 20
-0.0305196850393701
 30
0.0
 10
-0.3225787401574803
 20
-0.0305196850393701
 30
0.0
 10
-0.3225787401574803
 20
-0.0293779527559055
 30
0.0
 10
-0.3233543307086614
 20
-0.0266023622047244
 30
0.0
 10
-0.3248543307086614
 20
-0.0221299212598425
 30
0.0
 10
-0.3248543307086614
 20
-0.0221299212598425
 30
0.0
 10
-0.3248543307086614
 20
-0.0221299212598425
 30
0.0
 10
-0.3323543307086614
 20
-0.0001574803149606
 30
0.0
 10
-0.3323543307086614
 20
-0.0001574803149606
 30
0.0
 10
-0.3323543307086614
 20
-0.0001574803149606
 30
0.0
 10
-0.3323543307086614
 20
-0.0001574803149606
 30
0.0
 10
-0.3735196850393701
 20
-0.0001574803149606
 30
0.0
 10
-0.3735196850393701
 20
-0.0001574803149606
 30
0.0
 10
-0.3735196850393701
 20
-0.0001574803149606
 30
0.0
 10
-0.3735196850393701
 20
-0.0001574803149606
 30
0.0
 10
-0.3823267716535433
 20
-0.024740157480315
 30
0.0
 10
-0.3823267716535433
 20
-0.024740157480315
 30
0.0
 10
-0.3823267716535433
 20
-0.024740157480315
 30
0.0
 10
-0.383244094488189
 20
-0.0272952755905512
 30
0.0
 10
-0.3837165354330709
 20
-0.0290472440944882
 30
0.0
 10
-0.3837165354330709
 20
-0.0300472440944882
 30
0.0
 10
-0.3837165354330709
 20
-0.0300472440944882
 30
0.0
 10
-0.3837165354330709
 20
-0.0311299212598425
 30
0.0
 10
-0.3834094488188977
 20
-0.0320748031496063
 30
0.0
 10
-0.3828543307086614
 20
-0.0328779527559055
 30
0.0
 10
-0.3828543307086614
 20
-0.0328779527559055
 30
0.0
 10
-0.3822716535433071
 20
-0.0336850393700787
 30
0.0
 10
-0.3815196850393701
 20
-0.0342952755905512
 30
0.0
 10
-0.3805196850393701
 20
-0.0347125984251969
 30
0.0
 10
-0.3805196850393701
 20
-0.0347125984251969
 30
0.0
 10
-0.3795472440944882
 20
-0.0351299212598425
 30
0.0
 10
-0.377992125984252
 20
-0.0353228346456693
 30
0.0
 10
-0.3757992125984252
 20
-0.0353228346456693
 30
0.0
 10
-0.3757992125984252
 20
-0.0353228346456693
 30
0.0
 10
-0.3743543307086614
 20
-0.0353228346456693
 30
0.0
 10
-0.3731614173228346
 20
-0.0353503937007874
 30
0.0
 10
-0.372244094488189
 20
-0.0354055118110236
 30
0.0
 10
-0.372244094488189
 20
-0.0354055118110236
 30
0.0
 10
-0.372244094488189
 20
-0.0354055118110236
 30
0.0
 10
-0.372244094488189
 20
-0.042240157480315
 30
0.0
 10
-0.372244094488189
 20
-0.042240157480315
 30
0.0
 10
-0.372244094488189
 20
-0.042240157480315
 30
0.0
 10
-0.372244094488189
 20
-0.042240157480315
 30
0.0
 10
-0.4061614173228347
 20
-0.042240157480315
 30
0.0
 10
-0.4061614173228347
 20
-0.042240157480315
 30
0.0
 10
-0.4061614173228347
 20
-0.042240157480315
 30
0.0
 10
-0.4061614173228347
 20
-0.042240157480315
 30
0.0
 10
-0.4061614173228347
 20
-0.0354055118110236
 30
0.0
 10
-0.4061614173228347
 20
-0.0354055118110236
 30
0.0
 10
-0.4061614173228347
 20
-0.0354055118110236
 30
0.0
 10
-0.4030196850393701
 20
-0.0354055118110236
 30
0.0
 10
-0.400744094488189
 20
-0.0351023622047244
 30
0.0
 10
-0.3993818897637795
 20
-0.0344606299212598
 30
0.0
 10
-0.3993818897637795
 20
-0.0344606299212598
 30
0.0
 10
-0.397992125984252
 20
-0.0338503937007874
 30
0.0
 10
-0.3967716535433071
 20
-0.0328503937007874
 30
0.0
 10
-0.395744094488189
 20
-0.0314606299212598
 30
0.0
 10
-0.395744094488189
 20
-0.0314606299212598
 30
0.0
 10
-0.3947165354330709
 20
-0.0300748031496063
 30
0.0
 10
-0.3933543307086614
 20
-0.0271574803149606
 30
0.0
 10
-0.3916889763779528
 20
-0.0227125984251969
 30
0.0
 10
-0.3916889763779528
 20
-0.0227125984251969
 30
0.0
 10
-0.3916889763779528
 20
-0.0227125984251969
 30
0.0
 10
-0.3562716535433071
 20
0.0712874015748032
 30
0.0
 10
-0.3562716535433071
 20
0.0712874015748032
 30
0.0
  0
SPLINE
  5
5F
330
1F
100
AcDbEntity
  8
LAYER_1
 62
   250
100
AcDbSpline
210
0.0
220
0.0
230
1.0
 70
    11
 71
     3
 72
    16
 73
    12
 74
     0
 42
0.0000000001
 43
0.0000000001
 40
0.0
 40
0.0
 40
0.0
 40
0.0
 40
0.3333333333333333
 40
0.3333333333333333
 40
0.3333333333333333
 40
0.3333333333333333
 40
0.6666666666666666
 40
0.6666666666666666
 40
0.6666666666666666
 40
0.6666666666666666
 40
1.0
 40
1.0
 40
1.0
 40
1.0
 10
-0.3705196850393701
 20
0.0078149606299213
 30
0.0
 10
-0.3705196850393701
 20
0.0078149606299213
 30
0.0
 10
-0.3354370078740158
 20
0.0078149606299213
 30
0.0
 10
-0.3354370078740158
 20
0.0078149606299213
 30
0.0
 10
-0.3354370078740158
 20
0.0078149606299213
 30
0.0
 10
-0.3354370078740158
 20
0.0078149606299213
 30
0.0
 10
-0.3530196850393701
 20
0.0566496062992126
 30
0.0
 10
-0.3530196850393701
 20
0.0566496062992126
 30
0.0
 10
-0.3530196850393701
 20
0.0566496062992126
 30
0.0
 10
-0.3530196850393701
 20
0.0566496062992126
 30
0.0
 10
-0.3705196850393701
 20
0.0078149606299213
 30
0.0
 10
-0.3705196850393701
 20
0.0078149606299213
 30
0.0
  0
SPLINE
  5
60
330
1F
100
AcDbEntity
  8
LAYER_1
 62
   250
100
AcDbSpline
210
0.0
220
0.0
230
1.0
 70
    11
 71
     3
 72
    72
 73
    68
 74
     0
 42
0.0000000001
 43
0.0000000001
 40
0.0
 40
0.0
 40
0.0
 40
0.0
 40
0.0588235294117647
 40
0.0588235294117647
 40
0.0588235294117647
 40
0.0588235294117647
 40
0.1176470588235294
 40
0.1176470588235294
 40
0.1176470588235294
 40
0.1176470588235294
 40
0.1764705882352941
 40
0.1764705882352941
 40
0.1764705882352941
 40
0.1764705882352941
 40
0.2352941176470588
 40
0.2352941176470588
 40
0.2352941176470588
 40
0.2352941176470588
 40
0.2941176470588235
 40
0.2941176470588235
 40
0.2941176470588235
 40
0.2941176470588235
 40
0.3529411764705883
 40
0.3529411764705883
 40
0.3529411764705883
 40
0.3529411764705883
 40
0.411764705882353
 40
0.411764705882353
 40
0.411764705882353
 40
0.411764705882353
 40
0.4705882352941177
 40
0.4705882352941177
 40
0.4705882352941177
 40
0.4705882352941177
 40
0.5294117647058824
 40
0.5294117647058824
 40
0.5294117647058824
 40
0.5294117647058824
 40
0.5882352941176471
 40
0.5882352941176471
 40
0.5882352941176471
 40
0.5882352941176471
 40
0.6470588235294118
 40
0.6470588235294118
 40
0.6470588235294118
 40
0.6470588235294118
 40
0.7058823529411765
 40
0.7058823529411765
 40
0.7058823529411765
 40
0.7058823529411765
 40
0.7647058823529412
 40
0.7647058823529412
 40
0.7647058823529412
 40
0.7647058823529412
 40
0.823529411764706
 40
0.823529411764706
 40
0.823529411764706
 40
0.823529411764706
 40
0.8823529411764707
 40
0.8823529411764707
 40
0.8823529411764707
 40
0.8823529411764707
 40
0.9411764705882354
 40
0.9411764705882354
 40
0.9411764705882354
 40
0.9411764705882354
 40
1.0
 40
1.0
 40
1.0
 40
1.0
 10
-0.1304370078740157
 20
0.0712874015748032
 30
0.0
 10
-0.1304370078740157
 20
0.0712874015748032
 30
0.0
 10
-0.1243543307086614
 20
0.0712874015748032
 30
0.0
 10
-0.1243543307086614
 20
0.0712874015748032
 30
0.0
 10
-0.1243543307086614
 20
0.0712874015748032
 30
0.0
 10
-0.1243543307086614
 20
0.0712874015748032
 30
0.0
 10
-0.1243543307086614
 20
-0.0229606299212598
 30
0.0
 10
-0.1243543307086614
 20
-0.0229606299212598
 30
0.0
 10
-0.1243543307086614
 20
-0.0229606299212598
 30
0.0
 10
-0.1243543307086614
 20
-0.0274055118110236
 30
0.0
 10
-0.1240472440944882
 20
-0.0302677165354331
 30
0.0
 10
-0.123492125984252
 20
-0.0315472440944882
 30
0.0
 10
-0.123492125984252
 20
-0.0315472440944882
 30
0.0
 10
-0.1229094488188977
 20
-0.0328228346456693
 30
0.0
 10
-0.121992125984252
 20
-0.0337677165354331
 30
0.0
 10
-0.1206889763779528
 20
-0.0344330708661417
 30
0.0
 10
-0.1206889763779528
 20
-0.0344330708661417
 30
0.0
 10
-0.1193818897637795
 20
-0.0350748031496063
 30
0.0
 10
-0.1167992125984252
 20
-0.0354055118110236
 30
0.0
 10
-0.1129370078740158
 20
-0.0354055118110236
 30
0.0
 10
-0.1129370078740158
 20
-0.0354055118110236
 30
0.0
 10
-0.1129370078740158
 20
-0.0354055118110236
 30
0.0
 10
-0.1049645669291339
 20
-0.0354055118110236
 30
0.0
 10
-0.1049645669291339
 20
-0.0354055118110236
 30
0.0
 10
-0.1049645669291339
 20
-0.0354055118110236
 30
0.0
 10
-0.1049645669291339
 20
-0.0354055118110236
 30
0.0
 10
-0.1049645669291339
 20
-0.042240157480315
 30
0.0
 10
-0.1049645669291339
 20
-0.042240157480315
 30
0.0
 10
-0.1049645669291339
 20
-0.042240157480315
 30
0.0
 10
-0.1049645669291339
 20
-0.042240157480315
 30
0.0
 10
-0.1586023622047244
 20
-0.042240157480315
 30
0.0
 10
-0.1586023622047244
 20
-0.042240157480315
 30
0.0
 10
-0.1586023622047244
 20
-0.042240157480315
 30
0.0
 10
-0.1586023622047244
 20
-0.042240157480315
 30
0.0
 10
-0.1586023622047244
 20
-0.0354055118110236
 30
0.0
 10
-0.1586023622047244
 20
-0.0354055118110236
 30
0.0
 10
-0.1586023622047244
 20
-0.0354055118110236
 30
0.0
 10
-0.1586023622047244
 20
-0.0354055118110236
 30
0.0
 10
-0.149744094488189
 20
-0.0354055118110236
 30
0.0
 10
-0.149744094488189
 20
-0.0354055118110236
 30
0.0
 10
-0.149744094488189
 20
-0.0354055118110236
 30
0.0
 10
-0.1458818897637795
 20
-0.0354055118110236
 30
0.0
 10
-0.1433267716535433
 20
-0.0350748031496063
 30
0.0
 10
-0.1420472440944882
 20
-0.0343779527559055
 30
0.0
 10
-0.1420472440944882
 20
-0.0343779527559055
 30
0.0
 10
-0.1407716535433071
 20
-0.0337125984251969
 30
0.0
 10
-0.1397716535433071
 20
-0.0326299212598425
 30
0.0
 10
-0.1390748031496063
 20
-0.0311299212598425
 30
0.0
 10
-0.1390748031496063
 20
-0.0311299212598425
 30
0.0
 10
-0.1383818897637795
 20
-0.0296299212598425
 30
0.0
 10
-0.1380196850393701
 20
-0.0269055118110236
 30
0.0
 10
-0.1380196850393701
 20
-0.0229606299212598
 30
0.0
 10
-0.1380196850393701
 20
-0.0229606299212598
 30
0.0
 10
-0.1380196850393701
 20
-0.0229606299212598
 30
0.0
 10
-0.1380196850393701
 20
0.054507874015748
 30
0.0
 10
-0.1380196850393701
 20
0.054507874015748
 30
0.0
 10
-0.1380196850393701
 20
0.054507874015748
 30
0.0
 10
-0.1380196850393701
 20
0.054507874015748
 30
0.0
 10
-0.1586023622047244
 20
0.054507874015748
 30
0.0
 10
-0.1586023622047244
 20
0.054507874015748
 30
0.0
 10
-0.1586023622047244
 20
0.054507874015748
 30
0.0
 10
-0.1586023622047244
 20
0.054507874015748
 30
0.0
 10
-0.1586023622047244
 20
0.061507874015748
 30
0.0
 10
-0.1586023622047244
 20
0.061507874015748
 30
0.0
 10
-0.1586023622047244
 20
0.061507874015748
 30
0.0
 10
-0.1473818897637795
 20
0.0630905511811024
 30
0.0
 10
-0.137992125984252
 20
0.0663425196850394
 30
0.0
 10
-0.1304370078740157
 20
0.0712874015748032
 30
0.0
  0
SPLINE
  5
61
330
1F
100
AcDbEntity
  8
LAYER_1
 62
   250
100
AcDbSpline
210
0.0
220
0.0
230
1.0
 70
    11
 71
     3
 72
    80
 73
    76
 74
     0
 42
0.0000000001
 43
0.0000000001
 40
0.0
 40
0.0
 40
0.0
 40
0.0
 40
0.0526315789473684
 40
0.0526315789473684
 40
0.0526315789473684
 40
0.0526315789473684
 40
0.1052631578947368
 40
0.1052631578947368
 40
0.1052631578947368
 40
0.1052631578947368
 40
0.1578947368421053
 40
0.1578947368421053
 40
0.1578947368421053
 40
0.1578947368421053
 40
0.2105263157894737
 40
0.2105263157894737
 40
0.2105263157894737
 40
0.2105263157894737
 40
0.2631578947368421
 40
0.2631578947368421
 40
0.2631578947368421
 40
0.2631578947368421
 40
0.3157894736842105
 40
0.3157894736842105
 40
0.3157894736842105
 40
0.3157894736842105
 40
0.3684210526315789
 40
0.3684210526315789
 40
0.3684210526315789
 40
0.3684210526315789
 40
0.4210526315789474
 40
0.4210526315789474
 40
0.4210526315789474
 40
0.4210526315789474
 40
0.4736842105263158
 40
0.4736842105263158
 40
0.4736842105263158
 40
0.4736842105263158
 40
0.5263157894736842
 40
0.5263157894736842
 40
0.5263157894736842
 40
0.5263157894736842
 40
0.5789473684210527
 40
0.5789473684210527
 40
0.5789473684210527
 40
0.5789473684210527
 40
0.631578947368421
 40
0.631578947368421
 40
0.631578947368421
 40
0.631578947368421
 40
0.6842105263157894
 40
0.6842105263157894
 40
0.6842105263157894
 40
0.6842105263157894
 40
0.7368421052631577
 40
0.7368421052631577
 40
0.7368421052631577
 40
0.7368421052631577
 40
0.7894736842105261
 40
0.7894736842105261
 40
0.7894736842105261
 40
0.7894736842105261
 40
0.8421052631578945
 40
0.8421052631578945
 40
0.8421052631578945
 40
0.8421052631578945
 40
0.8947368421052628
 40
0.8947368421052628
 40
0.8947368421052628
 40
0.8947368421052628
 40
0.9473684210526312
 40
0.9473684210526312
 40
0.9473684210526312
 40
0.9473684210526312
 40
1.0
 40
1.0
 40
1.0
 40
1.0
 10
-0.0650196850393701
 20
0.0754251968503937
 30
0.0
 10
-0.0650196850393701
 20
0.0754251968503937
 30
0.0
 10
-0.0596299212598425
 20
0.0754251968503937
 30
0.0
 10
-0.0596299212598425
 20
0.0754251968503937
 30
0.0
 10
-0.0596299212598425
 20
0.0754251968503937
 30
0.0
 10
-0.0596299212598425
 20
0.0754251968503937
 30
0.0
 10
-0.0586574803149606
 20
0.0712874015748032
 30
0.0
 10
-0.0586574803149606
 20
0.0712874015748032
 30
0.0
 10
-0.0586574803149606
 20
0.0712874015748032
 30
0.0
 10
-0.0586574803149606
 20
0.0712874015748032
 30
0.0
 10
0.0124527559055118
 20
0.0712874015748032
 30
0.0
 10
0.0124527559055118
 20
0.0712874015748032
 30
0.0
 10
0.0124527559055118
 20
0.0712874015748032
 30
0.0
 10
0.0124527559055118
 20
0.0712874015748032
 30
0.0
 10
0.0124527559055118
 20
0.0643700787401575
 30
0.0
 10
0.0124527559055118
 20
0.0643700787401575
 30
0.0
 10
0.0124527559055118
 20
0.0643700787401575
 30
0.0
 10
0.0039527559055118
 20
0.0545354330708661
 30
0.0
 10
-0.0037716535433071
 20
0.0433700787401575
 30
0.0
 10
-0.0106850393700787
 20
0.0307874015748032
 30
0.0
 10
-0.0106850393700787
 20
0.0307874015748032
 30
0.0
 10
-0.0176023622047244
 20
0.0182322834645669
 30
0.0
 10
-0.0229645669291339
 20
0.0054527559055118
 30
0.0
 10
-0.0267716535433071
 20
-0.0075748031496063
 30
0.0
 10
-0.0267716535433071
 20
-0.0075748031496063
 30
0.0
 10
-0.0295196850393701
 20
-0.0169606299212598
 30
0.0
 10
-0.0317677165354331
 20
-0.0285196850393701
 30
0.0
 10
-0.0335196850393701
 20
-0.042240157480315
 30
0.0
 10
-0.0335196850393701
 20
-0.042240157480315
 30
0.0
 10
-0.0335196850393701
 20
-0.042240157480315
 30
0.0
 10
-0.0501850393700787
 20
-0.042240157480315
 30
0.0
 10
-0.0501850393700787
 20
-0.042240157480315
 30
0.0
 10
-0.0501850393700787
 20
-0.042240157480315
 30
0.0
 10
-0.0485748031496063
 20
-0.0301299212598425
 30
0.0
 10
-0.0459094488188976
 20
-0.0188228346456693
 30
0.0
 10
-0.0421850393700787
 20
-0.0082952755905512
 30
0.0
 10
-0.0421850393700787
 20
-0.0082952755905512
 30
0.0
 10
-0.0384645669291339
 20
0.0022322834645669
 30
0.0
 10
-0.0331023622047244
 20
0.0132322834645669
 30
0.0
 10
-0.0260748031496063
 20
0.0247047244094488
 30
0.0
 10
-0.0260748031496063
 20
0.0247047244094488
 30
0.0
 10
-0.0190472440944882
 20
0.0361771653543307
 30
0.0
 10
-0.0105196850393701
 20
0.0476220472440945
 30
0.0
 10
-0.0004645669291339
 20
0.0590629921259843
 30
0.0
 10
-0.0004645669291339
 20
0.0590629921259843
 30
0.0
 10
-0.0004645669291339
 20
0.0590629921259843
 30
0.0
 10
-0.0511850393700787
 20
0.0590629921259843
 30
0.0
 10
-0.0511850393700787
 20
0.0590629921259843
 30
0.0
 10
-0.0511850393700787
 20
0.0590629921259843
 30
0.0
 10
-0.0548543307086614
 20
0.0590629921259843
 30
0.0
 10
-0.0573818897637795
 20
0.0588976377952756
 30
0.0
 10
-0.058740157480315
 20
0.058507874015748
 30
0.0
 10
-0.058740157480315
 20
0.058507874015748
 30
0.0
 10
-0.0601023622047244
 20
0.0581220472440945
 30
0.0
 10
-0.0611574803149606
 20
0.0575354330708661
 30
0.0
 10
-0.0619094488188976
 20
0.0567322834645669
 30
0.0
 10
-0.0619094488188976
 20
0.0567322834645669
 30
0.0
 10
-0.0626850393700787
 20
0.0558976377952756
 30
0.0
 10
-0.0633267716535433
 20
0.0544527559055118
 30
0.0
 10
-0.0638818897637795
 20
0.0523976377952756
 30
0.0
 10
-0.0638818897637795
 20
0.0523976377952756
 30
0.0
 10
-0.0638818897637795
 20
0.0523976377952756
 30
0.0
 10
-0.0642677165354331
 20
0.0508700787401575
 30
0.0
 10
-0.0642677165354331
 20
0.0508700787401575
 30
0.0
 10
-0.0642677165354331
 20
0.0508700787401575
 30
0.0
 10
-0.0642677165354331
 20
0.0508700787401575
 30
0.0
 10
-0.0670472440944882
 20
0.041259842519685
 30
0.0
 10
-0.0670472440944882
 20
0.041259842519685
 30
0.0
 10
-0.0670472440944882
 20
0.041259842519685
 30
0.0
 10
-0.0670472440944882
 20
0.041259842519685
 30
0.0
 10
-0.0739645669291339
 20
0.0427322834645669
 30
0.0
 10
-0.0739645669291339
 20
0.0427322834645669
 30
0.0
 10
-0.0739645669291339
 20
0.0427322834645669
 30
0.0
 10
-0.0739645669291339
 20
0.0427322834645669
 30
0.0
 10
-0.0650196850393701
 20
0.0754251968503937
 30
0.0
 10
-0.0650196850393701
 20
0.0754251968503937
 30
0.0
  0
SPLINE
  5
62
330
1F
100
AcDbEntity
  8
LAYER_1
 62
   250
100
AcDbSpline
210
0.0
220
0.0
230
1.0
 70
    11
 71
     3
 72
   132
 73
   128
 74
     0
 42
0.0000000001
 43
0.0000000001
 40
0.0
 40
0.0
 40
0.0
 40
0.0
 40
0.03125
 40
0.03125
 40
0.03125
 40
0.03125
 40
0.0625
 40
0.0625
 40
0.0625
 40
0.0625
 40
0.09375
 40
0.09375
 40
0.09375
 40
0.09375
 40
0.125
 40
0.125
 40
0.125
 40
0.125
 40
0.15625
 40
0.15625
 40
0.15625
 40
0.15625
 40
0.1875
 40
0.1875
 40
0.1875
 40
0.1875
 40
0.21875
 40
0.21875
 40
0.21875
 40
0.21875
 40
0.25
 40
0.25
 40
0.25
 40
0.25
 40
0.28125
 40
0.28125
 40
0.28125
 40
0.28125
 40
0.3125
 40
0.3125
 40
0.3125
 40
0.3125
 40
0.34375
 40
0.34375
 40
0.34375
 40
0.34375
 40
0.375
 40
0.375
 40
0.375
 40
0.375
 40
0.40625
 40
0.40625
 40
0.40625
 40
0.40625
 40
0.4375
 40
0.4375
 40
0.4375
 40
0.4375
 40
0.46875
 40
0.46875
 40
0.46875
 40
0.46875
 40
0.5
 40
0.5
 40
0.5
 40
0.5
 40
0.53125
 40
0.53125
 40
0.53125
 40
0.53125
 40
0.5625
 40
0.5625
 40
0.5625
 40
0.5625
 40
0.59375
 40
0.59375
 40
0.59375
 40
0.59375
 40
0.625
 40
0.625
 40
0.625
 40
0.625
 40
0.65625
 40
0.65625
 40
0.65625
 40
0.65625
 40
0.6875
 40
0.6875
 40
0.6875
 40
0.6875
 40
0.71875
 40
0.71875
 40
0.71875
 40
0.71875
 40
0.75
 40
0.75
 40
0.75
 40
0.75
 40
0.78125
 40
0.78125
 40
0.78125
 40
0.78125
 40
0.8125
 40
0.8125
 40
0.8125
 40
0.8125
 40
0.84375
 40
0.84375
 40
0.84375
 40
0.84375
 40
0.875
 40
0.875
 40
0.875
 40
0.875
 40
0.90625
 40
0.90625
 40
0.90625
 40
0.90625
 40
0.9375
 40
0.9375
 40
0.9375
 40
0.9375
 40
0.96875
 40
0.96875
 40
0.96875
 40
0.96875
 40
1.0
 40
1.0
 40
1.0
 40
1.0
 10
0.0426771653543307
 20
0.0712874015748032
 30
0.0
 10
0.0426771653543307
 20
0.0712874015748032
 30
0.0
 10
0.0932874015748032
 20
0.0712874015748032
 30
0.0
 10
0.0932874015748032
 20
0.0712874015748032
 30
0.0
 10
0.0932874015748032
 20
0.0712874015748032
 30
0.0
 10
0.0963700787401575
 20
0.0712874015748032
 30
0.0
 10
0.098259842519685
 20
0.0714527559055118
 30
0.0
 10
0.0988976377952756
 20
0.0717874015748032
 30
0.0
 10
0.0988976377952756
 20
0.0717874015748032
 30
0.0
 10
0.0998149606299213
 20
0.0723149606299213
 30
0.0
 10
0.1003700787401575
 20
0.0734803149606299
 30
0.0
 10
0.1005354330708661
 20
0.075259842519685
 30
0.0
 10
0.1005354330708661
 20
0.075259842519685
 30
0.0
 10
0.1005354330708661
 20
0.075259842519685
 30
0.0
 10
0.1064803149606299
 20
0.075259842519685
 30
0.0
 10
0.1064803149606299
 20
0.075259842519685
 30
0.0
 10
0.1064803149606299
 20
0.075259842519685
 30
0.0
 10
0.1064803149606299
 20
0.075259842519685
 30
0.0
 10
0.1064803149606299
 20
0.0580905511811024
 30
0.0
 10
0.1064803149606299
 20
0.0580905511811024
 30
0.0
 10
0.1064803149606299
 20
0.0580905511811024
 30
0.0
 10
0.1064803149606299
 20
0.0580905511811024
 30
0.0
 10
0.0502322834645669
 20
0.0580905511811024
 30
0.0
 10
0.0502322834645669
 20
0.0580905511811024
 30
0.0
 10
0.0502322834645669
 20
0.0580905511811024
 30
0.0
 10
0.0502322834645669
 20
0.0580905511811024
 30
0.0
 10
0.0488425196850394
 20
0.0294527559055118
 30
0.0
 10
0.0488425196850394
 20
0.0294527559055118
 30
0.0
 10
0.0488425196850394
 20
0.0294527559055118
 30
0.0
 10
0.0511771653543307
 20
0.0301220472440945
 30
0.0
 10
0.0541496062992126
 20
0.0306496062992126
 30
0.0
 10
0.0577322834645669
 20
0.0310944881889764
 30
0.0
 10
0.0577322834645669
 20
0.0310944881889764
 30
0.0
 10
0.0623425196850394
 20
0.0316220472440945
 30
0.0
 10
0.0664527559055118
 20
0.0318976377952756
 30
0.0
 10
0.0700944881889764
 20
0.0318976377952756
 30
0.0
 10
0.0700944881889764
 20
0.0318976377952756
 30
0.0
 10
0.0791496062992126
 20
0.0318976377952756
 30
0.0
 10
0.0870354330708661
 20
0.030259842519685
 30
0.0
 10
0.0937874015748032
 20
0.027007874015748
 30
0.0
 10
0.0937874015748032
 20
0.027007874015748
 30
0.0
 10
0.100507874015748
 20
0.023759842519685
 30
0.0
 10
0.1056181102362205
 20
0.0192874015748031
 30
0.0
 10
0.1091181102362205
 20
0.0136220472440945
 30
0.0
 10
0.1091181102362205
 20
0.0136220472440945
 30
0.0
 10
0.1126181102362205
 20
0.0079527559055118
 30
0.0
 10
0.1143700787401575
 20
0.0016220472440945
 30
0.0
 10
0.1143700787401575
 20
-0.0053779527559055
 30
0.0
 10
0.1143700787401575
 20
-0.0053779527559055
 30
0.0
 10
0.1143700787401575
 20
-0.0162125984251969
 30
0.0
 10
0.1102874015748032
 20
-0.0254055118110236
 30
0.0
 10
0.1021496062992126
 20
-0.0329330708661417
 30
0.0
 10
0.1021496062992126
 20
-0.0329330708661417
 30
0.0
 10
0.094007874015748
 20
-0.0404330708661417
 30
0.0
 10
0.0836496062992126
 20
-0.0441850393700787
 30
0.0
 10
0.0710629921259843
 20
-0.0441850393700787
 30
0.0
 10
0.0710629921259843
 20
-0.0441850393700787
 30
0.0
 10
0.0637874015748032
 20
-0.0441850393700787
 30
0.0
 10
0.0572322834645669
 20
-0.0428779527559055
 30
0.0
 10
0.0513425196850394
 20
-0.0402952755905512
 30
0.0
 10
0.0513425196850394
 20
-0.0402952755905512
 30
0.0
 10
0.0454527559055118
 20
-0.0376850393700787
 30
0.0
 10
0.0408425196850394
 20
-0.034240157480315
 30
0.0
 10
0.0375354330708661
 20
-0.029992125984252
 30
0.0
 10
0.0375354330708661
 20
-0.029992125984252
 30
0.0
 10
0.0342322834645669
 20
-0.025740157480315
 30
0.0
 10
0.0325669291338583
 20
-0.021992125984252
 30
0.0
 10
0.0325669291338583
 20
-0.0187952755905512
 30
0.0
 10
0.0325669291338583
 20
-0.0187952755905512
 30
0.0
 10
0.0325669291338583
 20
-0.0166850393700787
 30
0.0
 10
0.0332874015748032
 20
-0.0148503937007874
 30
0.0
 10
0.0347047244094488
 20
-0.0132952755905512
 30
0.0
 10
0.0347047244094488
 20
-0.0132952755905512
 30
0.0
 10
0.0360944881889764
 20
-0.0117677165354331
 30
0.0
 10
0.0379251968503937
 20
-0.010992125984252
 30
0.0
 10
0.0401496062992126
 20
-0.010992125984252
 30
0.0
 10
0.0401496062992126
 20
-0.010992125984252
 30
0.0
 10
0.0424251968503937
 20
-0.010992125984252
 30
0.0
 10
0.0444251968503937
 20
-0.0119330708661417
 30
0.0
 10
0.0461771653543307
 20
-0.0138503937007874
 30
0.0
 10
0.0461771653543307
 20
-0.0138503937007874
 30
0.0
 10
0.0471496062992126
 20
-0.0148228346456693
 30
0.0
 10
0.0483149606299213
 20
-0.0172125984251969
 30
0.0
 10
0.0496771653543307
 20
-0.020992125984252
 30
0.0
 10
0.0496771653543307
 20
-0.020992125984252
 30
0.0
 10
0.051507874015748
 20
-0.0263228346456693
 30
0.0
 10
0.054259842519685
 20
-0.0302125984251969
 30
0.0
 10
0.0578976377952756
 20
-0.0327125984251969
 30
0.0
 10
0.0578976377952756
 20
-0.0327125984251969
 30
0.0
 10
0.0614527559055118
 20
-0.0352677165354331
 30
0.0
 10
0.0659803149606299
 20
-0.0365472440944882
 30
0.0
 10
0.0713976377952756
 20
-0.0365472440944882
 30
0.0
 10
0.0713976377952756
 20
-0.0365472440944882
 30
0.0
 10
0.0768149606299213
 20
-0.0365472440944882
 30
0.0
 10
0.0816496062992126
 20
-0.0353503937007874
 30
0.0
 10
0.0858700787401575
 20
-0.032992125984252
 30
0.0
 10
0.0858700787401575
 20
-0.032992125984252
 30
0.0
 10
0.0901220472440945
 20
-0.0306574803149606
 30
0.0
 10
0.0934527559055118
 20
-0.027240157480315
 30
0.0
 10
0.0958976377952756
 20
-0.0228228346456693
 30
0.0
 10
0.0958976377952756
 20
-0.0228228346456693
 30
0.0
 10
0.0983425196850394
 20
-0.0184055118110236
 30
0.0
 10
0.0995629921259843
 20
-0.013492125984252
 30
0.0
 10
0.0995629921259843
 20
-0.0080748031496063
 30
0.0
 10
0.0995629921259843
 20
-0.0080748031496063
 30
0.0
 10
0.0995629921259843
 20
-0.0023503937007874
 30
0.0
 10
0.0982322834645669
 20
0.0027047244094488
 30
0.0
 10
0.0955905511811024
 20
0.0071496062992126
 30
0.0
 10
0.0955905511811024
 20
0.0071496062992126
 30
0.0
 10
0.0929803149606299
 20
0.0115944881889764
 30
0.0
 10
0.0892047244094488
 20
0.0150629921259843
 30
0.0
 10
0.0842874015748031
 20
0.0174803149606299
 30
0.0
 10
0.0842874015748031
 20
0.0174803149606299
 30
0.0
 10
0.0793700787401575
 20
0.0199251968503937
 30
0.0
 10
0.0733976377952756
 20
0.0211496062992126
 30
0.0
 10
0.0663425196850394
 20
0.0211496062992126
 30
0.0
 10
0.0663425196850394
 20
0.0211496062992126
 30
0.0
 10
0.0620629921259843
 20
0.0211496062992126
 30
0.0
 10
0.0574527559055118
 20
0.0207047244094488
 30
0.0
 10
0.0525629921259843
 20
0.019759842519685
 30
0.0
 10
0.0525629921259843
 20
0.019759842519685
 30
0.0
 10
0.0476496062992126
 20
0.0188425196850394
 30
0.0
 10
0.0434251968503937
 20
0.0176771653543307
 30
0.0
 10
0.0398976377952756
 20
0.016259842519685
 30
0.0
 10
0.0398976377952756
 20
0.016259842519685
 30
0.0
 10
0.0398976377952756
 20
0.016259842519685
 30
0.0
 10
0.0426771653543307
 20
0.0712874015748032
 30
0.0
 10
0.0426771653543307
 20
0.0712874015748032
 30
0.0
  0
SPLINE
  5
63
330
1F
100
AcDbEntity
  8
LAYER_1
 62
   250
100
AcDbSpline
210
0.0
220
0.0
230
1.0
 70
    11
 71
     3
 72
    72
 73
    68
 74
     0
 42
0.0000000001
 43
0.0000000001
 40
0.0
 40
0.0
 40
0.0
 40
0.0
 40
0.0588235294117647
 40
0.0588235294117647
 40
0.0588235294117647
 40
0.0588235294117647
 40
0.1176470588235294
 40
0.1176470588235294
 40
0.1176470588235294
 40
0.1176470588235294
 40
0.1764705882352941
 40
0.1764705882352941
 40
0.1764705882352941
 40
0.1764705882352941
 40
0.2352941176470588
 40
0.2352941176470588
 40
0.2352941176470588
 40
0.2352941176470588
 40
0.2941176470588235
 40
0.2941176470588235
 40
0.2941176470588235
 40
0.2941176470588235
 40
0.3529411764705883
 40
0.3529411764705883
 40
0.3529411764705883
 40
0.3529411764705883
 40
0.411764705882353
 40
0.411764705882353
 40
0.411764705882353
 40
0.411764705882353
 40
0.4705882352941177
 40
0.4705882352941177
 40
0.4705882352941177
 40
0.4705882352941177
 40
0.5294117647058824
 40
0.5294117647058824
 40
0.5294117647058824
 40
0.5294117647058824
 40
0.5882352941176471
 40
0.5882352941176471
 40
0.5882352941176471
 40
0.5882352941176471
 40
0.6470588235294118
 40
0.6470588235294118
 40
0.6470588235294118
 40
0.6470588235294118
 40
0.7058823529411765
 40
0.7058823529411765
 40
0.7058823529411765
 40
0.7058823529411765
 40
0.7647058823529412
 40
0.7647058823529412
 40
0.7647058823529412
 40
0.7647058823529412
 40
0.823529411764706
 40
0.823529411764706
 40
0.823529411764706
 40
0.823529411764706
 40
0.8823529411764707
 40
0.8823529411764707
 40
0.8823529411764707
 40
0.8823529411764707
 40
0.9411764705882354
 40
0.9411764705882354
 40
0.9411764705882354
 40
0.9411764705882354
 40
1.0
 40
1.0
 40
1.0
 40
1.0
 10
0.1796496062992126
 20
0.0712874015748032
 30
0.0
 10
0.1796496062992126
 20
0.0712874015748032
 30
0.0
 10
0.1857322834645669
 20
0.0712874015748032
 30
0.0
 10
0.1857322834645669
 20
0.0712874015748032
 30
0.0
 10
0.1857322834645669
 20
0.0712874015748032
 30
0.0
 10
0.1857322834645669
 20
0.0712874015748032
 30
0.0
 10
0.1857322834645669
 20
-0.0229606299212598
 30
0.0
 10
0.1857322834645669
 20
-0.0229606299212598
 30
0.0
 10
0.1857322834645669
 20
-0.0229606299212598
 30
0.0
 10
0.1857322834645669
 20
-0.0274055118110236
 30
0.0
 10
0.1860393700787402
 20
-0.0302677165354331
 30
0.0
 10
0.1865944881889764
 20
-0.0315472440944882
 30
0.0
 10
0.1865944881889764
 20
-0.0315472440944882
 30
0.0
 10
0.1871771653543307
 20
-0.0328228346456693
 30
0.0
 10
0.1880944881889764
 20
-0.0337677165354331
 30
0.0
 10
0.1893976377952756
 20
-0.0344330708661417
 30
0.0
 10
0.1893976377952756
 20
-0.0344330708661417
 30
0.0
 10
0.1907047244094488
 20
-0.0350748031496063
 30
0.0
 10
0.1932874015748032
 20
-0.0354055118110236
 30
0.0
 10
0.1971496062992126
 20
-0.0354055118110236
 30
0.0
 10
0.1971496062992126
 20
-0.0354055118110236
 30
0.0
 10
0.1971496062992126
 20
-0.0354055118110236
 30
0.0
 10
0.2051220472440945
 20
-0.0354055118110236
 30
0.0
 10
0.2051220472440945
 20
-0.0354055118110236
 30
0.0
 10
0.2051220472440945
 20
-0.0354055118110236
 30
0.0
 10
0.2051220472440945
 20
-0.0354055118110236
 30
0.0
 10
0.2051220472440945
 20
-0.042240157480315
 30
0.0
 10
0.2051220472440945
 20
-0.042240157480315
 30
0.0
 10
0.2051220472440945
 20
-0.042240157480315
 30
0.0
 10
0.2051220472440945
 20
-0.042240157480315
 30
0.0
 10
0.1514842519685039
 20
-0.042240157480315
 30
0.0
 10
0.1514842519685039
 20
-0.042240157480315
 30
0.0
 10
0.1514842519685039
 20
-0.042240157480315
 30
0.0
 10
0.1514842519685039
 20
-0.042240157480315
 30
0.0
 10
0.1514842519685039
 20
-0.0354055118110236
 30
0.0
 10
0.1514842519685039
 20
-0.0354055118110236
 30
0.0
 10
0.1514842519685039
 20
-0.0354055118110236
 30
0.0
 10
0.1514842519685039
 20
-0.0354055118110236
 30
0.0
 10
0.1603425196850394
 20
-0.0354055118110236
 30
0.0
 10
0.1603425196850394
 20
-0.0354055118110236
 30
0.0
 10
0.1603425196850394
 20
-0.0354055118110236
 30
0.0
 10
0.1642047244094488
 20
-0.0354055118110236
 30
0.0
 10
0.166759842519685
 20
-0.0350748031496063
 30
0.0
 10
0.1680393700787402
 20
-0.0343779527559055
 30
0.0
 10
0.1680393700787402
 20
-0.0343779527559055
 30
0.0
 10
0.1693149606299213
 20
-0.0337125984251969
 30
0.0
 10
0.1703149606299213
 20
-0.0326299212598425
 30
0.0
 10
0.1710118110236221
 20
-0.0311299212598425
 30
0.0
 10
0.1710118110236221
 20
-0.0311299212598425
 30
0.0
 10
0.1717047244094488
 20
-0.0296299212598425
 30
0.0
 10
0.1720669291338583
 20
-0.0269055118110236
 30
0.0
 10
0.1720669291338583
 20
-0.0229606299212598
 30
0.0
 10
0.1720669291338583
 20
-0.0229606299212598
 30
0.0
 10
0.1720669291338583
 20
-0.0229606299212598
 30
0.0
 10
0.1720669291338583
 20
0.054507874015748
 30
0.0
 10
0.1720669291338583
 20
0.054507874015748
 30
0.0
 10
0.1720669291338583
 20
0.054507874015748
 30
0.0
 10
0.1720669291338583
 20
0.054507874015748
 30
0.0
 10
0.1514842519685039
 20
0.054507874015748
 30
0.0
 10
0.1514842519685039
 20
0.054507874015748
 30
0.0
 10
0.1514842519685039
 20
0.054507874015748
 30
0.0
 10
0.1514842519685039
 20
0.054507874015748
 30
0.0
 10
0.1514842519685039
 20
0.061507874015748
 30
0.0
 10
0.1514842519685039
 20
0.061507874015748
 30
0.0
 10
0.1514842519685039
 20
0.061507874015748
 30
0.0
 10
0.1627047244094488
 20
0.0630905511811024
 30
0.0
 10
0.1720944881889764
 20
0.0663425196850394
 30
0.0
 10
0.1796496062992126
 20
0.0712874015748032
 30
0.0
  0
SPLINE
  5
64
330
1F
100
AcDbEntity
  8
LAYER_1
 62
   250
100
AcDbSpline
210
0.0
220
0.0
230
1.0
 70
    11
 71
     3
 72
    72
 73
    68
 74
     0
 42
0.0000000001
 43
0.0000000001
 40
0.0
 40
0.0
 40
0.0
 40
0.0
 40
0.0588235294117647
 40
0.0588235294117647
 40
0.0588235294117647
 40
0.0588235294117647
 40
0.1176470588235294
 40
0.1176470588235294
 40
0.1176470588235294
 40
0.1176470588235294
 40
0.1764705882352941
 40
0.1764705882352941
 40
0.1764705882352941
 40
0.1764705882352941
 40
0.2352941176470588
 40
0.2352941176470588
 40
0.2352941176470588
 40
0.2352941176470588
 40
0.2941176470588235
 40
0.2941176470588235
 40
0.2941176470588235
 40
0.2941176470588235
 40
0.3529411764705883
 40
0.3529411764705883
 40
0.3529411764705883
 40
0.3529411764705883
 40
0.411764705882353
 40
0.411764705882353
 40
0.411764705882353
 40
0.411764705882353
 40
0.4705882352941177
 40
0.4705882352941177
 40
0.4705882352941177
 40
0.4705882352941177
 40
0.5294117647058824
 40
0.5294117647058824
 40
0.5294117647058824
 40
0.5294117647058824
 40
0.5882352941176471
 40
0.5882352941176471
 40
0.5882352941176471
 40
0.5882352941176471
 40
0.6470588235294118
 40
0.6470588235294118
 40
0.6470588235294118
 40
0.6470588235294118
 40
0.7058823529411765
 40
0.7058823529411765
 40
0.7058823529411765
 40
0.7058823529411765
 40
0.7647058823529412
 40
0.7647058823529412
 40
0.7647058823529412
 40
0.7647058823529412
 40
0.823529411764706
 40
0.823529411764706
 40
0.823529411764706
 40
0.823529411764706
 40
0.8823529411764707
 40
0.8823529411764707
 40
0.8823529411764707
 40
0.8823529411764707
 40
0.9411764705882354
 40
0.9411764705882354
 40
0.9411764705882354
 40
0.9411764705882354
 40
1.0
 40
1.0
 40
1.0
 40
1.0
 10
-0.7570590551181102
 20
-0.1162125984251969
 30
0.0
 10
-0.7570590551181102
 20
-0.1162125984251969
 30
0.0
 10
-0.750976377952756
 20
-0.1162125984251969
 30
0.0
 10
-0.750976377952756
 20
-0.1162125984251969
 30
0.0
 10
-0.750976377952756
 20
-0.1162125984251969
 30
0.0
 10
-0.750976377952756
 20
-0.1162125984251969
 30
0.0
 10
-0.750976377952756
 20
-0.2104606299212599
 30
0.0
 10
-0.750976377952756
 20
-0.2104606299212599
 30
0.0
 10
-0.750976377952756
 20
-0.2104606299212599
 30
0.0
 10
-0.750976377952756
 20
-0.2149055118110236
 30
0.0
 10
-0.7506692913385827
 20
-0.2177677165354331
 30
0.0
 10
-0.7501141732283465
 20
-0.2190472440944882
 30
0.0
 10
-0.7501141732283465
 20
-0.2190472440944882
 30
0.0
 10
-0.7495314960629922
 20
-0.2203228346456693
 30
0.0
 10
-0.7486141732283465
 20
-0.2212677165354331
 30
0.0
 10
-0.7473110236220473
 20
-0.2219330708661418
 30
0.0
 10
-0.7473110236220473
 20
-0.2219330708661418
 30
0.0
 10
-0.746003937007874
 20
-0.2225748031496063
 30
0.0
 10
-0.7434212598425197
 20
-0.2229055118110236
 30
0.0
 10
-0.7395590551181103
 20
-0.2229055118110236
 30
0.0
 10
-0.7395590551181103
 20
-0.2229055118110236
 30
0.0
 10
-0.7395590551181103
 20
-0.2229055118110236
 30
0.0
 10
-0.7315866141732283
 20
-0.2229055118110236
 30
0.0
 10
-0.7315866141732283
 20
-0.2229055118110236
 30
0.0
 10
-0.7315866141732283
 20
-0.2229055118110236
 30
0.0
 10
-0.7315866141732283
 20
-0.2229055118110236
 30
0.0
 10
-0.7315866141732283
 20
-0.229740157480315
 30
0.0
 10
-0.7315866141732283
 20
-0.229740157480315
 30
0.0
 10
-0.7315866141732283
 20
-0.229740157480315
 30
0.0
 10
-0.7315866141732283
 20
-0.229740157480315
 30
0.0
 10
-0.7852244094488189
 20
-0.229740157480315
 30
0.0
 10
-0.7852244094488189
 20
-0.229740157480315
 30
0.0
 10
-0.7852244094488189
 20
-0.229740157480315
 30
0.0
 10
-0.7852244094488189
 20
-0.229740157480315
 30
0.0
 10
-0.7852244094488189
 20
-0.2229055118110236
 30
0.0
 10
-0.7852244094488189
 20
-0.2229055118110236
 30
0.0
 10
-0.7852244094488189
 20
-0.2229055118110236
 30
0.0
 10
-0.7852244094488189
 20
-0.2229055118110236
 30
0.0
 10
-0.7763661417322835
 20
-0.2229055118110236
 30
0.0
 10
-0.7763661417322835
 20
-0.2229055118110236
 30
0.0
 10
-0.7763661417322835
 20
-0.2229055118110236
 30
0.0
 10
-0.772503937007874
 20
-0.2229055118110236
 30
0.0
 10
-0.7699488188976378
 20
-0.2225748031496063
 30
0.0
 10
-0.7686692913385828
 20
-0.2218779527559055
 30
0.0
 10
-0.7686692913385828
 20
-0.2218779527559055
 30
0.0
 10
-0.7673937007874017
 20
-0.2212125984251969
 30
0.0
 10
-0.7663937007874017
 20
-0.2201299212598425
 30
0.0
 10
-0.7656968503937008
 20
-0.2186299212598425
 30
0.0
 10
-0.7656968503937008
 20
-0.2186299212598425
 30
0.0
 10
-0.7650039370078741
 20
-0.2171299212598425
 30
0.0
 10
-0.7646417322834646
 20
-0.2144055118110236
 30
0.0
 10
-0.7646417322834646
 20
-0.2104606299212599
 30
0.0
 10
-0.7646417322834646
 20
-0.2104606299212599
 30
0.0
 10
-0.7646417322834646
 20
-0.2104606299212599
 30
0.0
 10
-0.7646417322834646
 20
-0.132992125984252
 30
0.0
 10
-0.7646417322834646
 20
-0.132992125984252
 30
0.0
 10
-0.7646417322834646
 20
-0.132992125984252
 30
0.0
 10
-0.7646417322834646
 20
-0.132992125984252
 30
0.0
 10
-0.7852244094488189
 20
-0.132992125984252
 30
0.0
 10
-0.7852244094488189
 20
-0.132992125984252
 30
0.0
 10
-0.7852244094488189
 20
-0.132992125984252
 30
0.0
 10
-0.7852244094488189
 20
-0.132992125984252
 30
0.0
 10
-0.7852244094488189
 20
-0.125992125984252
 30
0.0
 10
-0.7852244094488189
 20
-0.125992125984252
 30
0.0
 10
-0.7852244094488189
 20
-0.125992125984252
 30
0.0
 10
-0.7740039370078741
 20
-0.1244094488188976
 30
0.0
 10
-0.7646141732283465
 20
-0.1211574803149606
 30
0.0
 10
-0.7570590551181102
 20
-0.1162125984251969
 30
0.0
  0
SPLINE
  5
65
330
1F
100
AcDbEntity
  8
LAYER_1
 62
   250
100
AcDbSpline
210
0.0
220
0.0
230
1.0
 70
    11
 71
     3
 72
    72
 73
    68
 74
     0
 42
0.0000000001
 43
0.0000000001
 40
0.0
 40
0.0
 40
0.0
 40
0.0
 40
0.0588235294117647
 40
0.0588235294117647
 40
0.0588235294117647
 40
0.0588235294117647
 40
0.1176470588235294
 40
0.1176470588235294
 40
0.1176470588235294
 40
0.1176470588235294
 40
0.1764705882352941
 40
0.1764705882352941
 40
0.1764705882352941
 40
0.1764705882352941
 40
0.2352941176470588
 40
0.2352941176470588
 40
0.2352941176470588
 40
0.2352941176470588
 40
0.2941176470588235
 40
0.2941176470588235
 40
0.2941176470588235
 40
0.2941176470588235
 40
0.3529411764705883
 40
0.3529411764705883
 40
0.3529411764705883
 40
0.3529411764705883
 40
0.411764705882353
 40
0.411764705882353
 40
0.411764705882353
 40
0.411764705882353
 40
0.4705882352941177
 40
0.4705882352941177
 40
0.4705882352941177
 40
0.4705882352941177
 40
0.5294117647058824
 40
0.5294117647058824
 40
0.5294117647058824
 40
0.5294117647058824
 40
0.5882352941176471
 40
0.5882352941176471
 40
0.5882352941176471
 40
0.5882352941176471
 40
0.6470588235294118
 40
0.6470588235294118
 40
0.6470588235294118
 40
0.6470588235294118
 40
0.7058823529411765
 40
0.7058823529411765
 40
0.7058823529411765
 40
0.7058823529411765
 40
0.7647058823529412
 40
0.7647058823529412
 40
0.7647058823529412
 40
0.7647058823529412
 40
0.823529411764706
 40
0.823529411764706
 40
0.823529411764706
 40
0.823529411764706
 40
0.8823529411764707
 40
0.8823529411764707
 40
0.8823529411764707
 40
0.8823529411764707
 40
0.9411764705882354
 40
0.9411764705882354
 40
0.9411764705882354
 40
0.9411764705882354
 40
1.0
 40
1.0
 40
1.0
 40
1.0
 10
-0.6536968503937009
 20
-0.1162125984251969
 30
0.0
 10
-0.6536968503937009
 20
-0.1162125984251969
 30
0.0
 10
-0.6476141732283465
 20
-0.1162125984251969
 30
0.0
 10
-0.6476141732283465
 20
-0.1162125984251969
 30
0.0
 10
-0.6476141732283465
 20
-0.1162125984251969
 30
0.0
 10
-0.6476141732283465
 20
-0.1162125984251969
 30
0.0
 10
-0.6476141732283465
 20
-0.2104606299212599
 30
0.0
 10
-0.6476141732283465
 20
-0.2104606299212599
 30
0.0
 10
-0.6476141732283465
 20
-0.2104606299212599
 30
0.0
 10
-0.6476141732283465
 20
-0.2149055118110236
 30
0.0
 10
-0.6473070866141732
 20
-0.2177677165354331
 30
0.0
 10
-0.646751968503937
 20
-0.2190472440944882
 30
0.0
 10
-0.646751968503937
 20
-0.2190472440944882
 30
0.0
 10
-0.6461692913385827
 20
-0.2203228346456693
 30
0.0
 10
-0.6452519685039371
 20
-0.2212677165354331
 30
0.0
 10
-0.6439488188976378
 20
-0.2219330708661418
 30
0.0
 10
-0.6439488188976378
 20
-0.2219330708661418
 30
0.0
 10
-0.6426417322834646
 20
-0.2225748031496063
 30
0.0
 10
-0.6400590551181102
 20
-0.2229055118110236
 30
0.0
 10
-0.6361968503937008
 20
-0.2229055118110236
 30
0.0
 10
-0.6361968503937008
 20
-0.2229055118110236
 30
0.0
 10
-0.6361968503937008
 20
-0.2229055118110236
 30
0.0
 10
-0.628224409448819
 20
-0.2229055118110236
 30
0.0
 10
-0.628224409448819
 20
-0.2229055118110236
 30
0.0
 10
-0.628224409448819
 20
-0.2229055118110236
 30
0.0
 10
-0.628224409448819
 20
-0.2229055118110236
 30
0.0
 10
-0.628224409448819
 20
-0.229740157480315
 30
0.0
 10
-0.628224409448819
 20
-0.229740157480315
 30
0.0
 10
-0.628224409448819
 20
-0.229740157480315
 30
0.0
 10
-0.628224409448819
 20
-0.229740157480315
 30
0.0
 10
-0.6818622047244095
 20
-0.229740157480315
 30
0.0
 10
-0.6818622047244095
 20
-0.229740157480315
 30
0.0
 10
-0.6818622047244095
 20
-0.229740157480315
 30
0.0
 10
-0.6818622047244095
 20
-0.229740157480315
 30
0.0
 10
-0.6818622047244095
 20
-0.2229055118110236
 30
0.0
 10
-0.6818622047244095
 20
-0.2229055118110236
 30
0.0
 10
-0.6818622047244095
 20
-0.2229055118110236
 30
0.0
 10
-0.6818622047244095
 20
-0.2229055118110236
 30
0.0
 10
-0.6730039370078741
 20
-0.2229055118110236
 30
0.0
 10
-0.6730039370078741
 20
-0.2229055118110236
 30
0.0
 10
-0.6730039370078741
 20
-0.2229055118110236
 30
0.0
 10
-0.6691417322834646
 20
-0.2229055118110236
 30
0.0
 10
-0.6665866141732284
 20
-0.2225748031496063
 30
0.0
 10
-0.6653070866141733
 20
-0.2218779527559055
 30
0.0
 10
-0.6653070866141733
 20
-0.2218779527559055
 30
0.0
 10
-0.6640314960629922
 20
-0.2212125984251969
 30
0.0
 10
-0.6630314960629922
 20
-0.2201299212598425
 30
0.0
 10
-0.6623346456692913
 20
-0.2186299212598425
 30
0.0
 10
-0.6623346456692913
 20
-0.2186299212598425
 30
0.0
 10
-0.6616417322834646
 20
-0.2171299212598425
 30
0.0
 10
-0.6612795275590552
 20
-0.2144055118110236
 30
0.0
 10
-0.6612795275590552
 20
-0.2104606299212599
 30
0.0
 10
-0.6612795275590552
 20
-0.2104606299212599
 30
0.0
 10
-0.6612795275590552
 20
-0.2104606299212599
 30
0.0
 10
-0.6612795275590552
 20
-0.132992125984252
 30
0.0
 10
-0.6612795275590552
 20
-0.132992125984252
 30
0.0
 10
-0.6612795275590552
 20
-0.132992125984252
 30
0.0
 10
-0.6612795275590552
 20
-0.132992125984252
 30
0.0
 10
-0.6818622047244095
 20
-0.132992125984252
 30
0.0
 10
-0.6818622047244095
 20
-0.132992125984252
 30
0.0
 10
-0.6818622047244095
 20
-0.132992125984252
 30
0.0
 10
-0.6818622047244095
 20
-0.132992125984252
 30
0.0
 10
-0.6818622047244095
 20
-0.125992125984252
 30
0.0
 10
-0.6818622047244095
 20
-0.125992125984252
 30
0.0
 10
-0.6818622047244095
 20
-0.125992125984252
 30
0.0
 10
-0.6706417322834646
 20
-0.1244094488188976
 30
0.0
 10
-0.6612519685039371
 20
-0.1211574803149606
 30
0.0
 10
-0.6536968503937009
 20
-0.1162125984251969
 30
0.0
  0
SPLINE
  5
66
330
1F
100
AcDbEntity
  8
LAYER_1
 62
   250
100
AcDbSpline
210
0.0
220
0.0
230
1.0
 70
    11
 71
     3
 72
    20
 73
    16
 74
     0
 42
0.0000000001
 43
0.0000000001
 40
0.0
 40
0.0
 40
0.0
 40
0.0
 40
0.25
 40
0.25
 40
0.25
 40
0.25
 40
0.5
 40
0.5
 40
0.5
 40
0.5
 40
0.75
 40
0.75
 40
0.75
 40
0.75
 40
1.0
 40
1.0
 40
1.0
 40
1.0
 10
-0.5248622047244095
 20
-0.1103503937007874
 30
0.0
 10
-0.5248622047244095
 20
-0.1103503937007874
 30
0.0
 10
-0.5804448818897638
 20
-0.2660472440944882
 30
0.0
 10
-0.5804448818897638
 20
-0.2660472440944882
 30
0.0
 10
-0.5804448818897638
 20
-0.2660472440944882
 30
0.0
 10
-0.5804448818897638
 20
-0.2660472440944882
 30
0.0
 10
-0.5925
 20
-0.2660472440944882
 30
0.0
 10
-0.5925
 20
-0.2660472440944882
 30
0.0
 10
-0.5925
 20
-0.2660472440944882
 30
0.0
 10
-0.5925
 20
-0.2660472440944882
 30
0.0
 10
-0.5372519685039371
 20
-0.1103503937007874
 30
0.0
 10
-0.5372519685039371
 20
-0.1103503937007874
 30
0.0
 10
-0.5372519685039371
 20
-0.1103503937007874
 30
0.0
 10
-0.5372519685039371
 20
-0.1103503937007874
 30
0.0
 10
-0.5248622047244095
 20
-0.1103503937007874
 30
0.0
 10
-0.5248622047244095
 20
-0.1103503937007874
 30
0.0
  0
SPLINE
  5
67
330
1F
100
AcDbEntity
  8
LAYER_1
 62
   250
100
AcDbSpline
210
0.0
220
0.0
230
1.0
 70
    11
 71
     3
 72
    72
 73
    68
 74
     0
 42
0.0000000001
 43
0.0000000001
 40
0.0
 40
0.0
 40
0.0
 40
0.0
 40
0.0588235294117647
 40
0.0588235294117647
 40
0.0588235294117647
 40
0.0588235294117647
 40
0.1176470588235294
 40
0.1176470588235294
 40
0.1176470588235294
 40
0.1176470588235294
 40
0.1764705882352941
 40
0.1764705882352941
 40
0.1764705882352941
 40
0.1764705882352941
 40
0.2352941176470588
 40
0.2352941176470588
 40
0.2352941176470588
 40
0.2352941176470588
 40
0.2941176470588235
 40
0.2941176470588235
 40
0.2941176470588235
 40
0.2941176470588235
 40
0.3529411764705883
 40
0.3529411764705883
 40
0.3529411764705883
 40
0.3529411764705883
 40
0.411764705882353
 40
0.411764705882353
 40
0.411764705882353
 40
0.411764705882353
 40
0.4705882352941177
 40
0.4705882352941177
 40
0.4705882352941177
 40
0.4705882352941177
 40
0.5294117647058824
 40
0.5294117647058824
 40
0.5294117647058824
 40
0.5294117647058824
 40
0.5882352941176471
 40
0.5882352941176471
 40
0.5882352941176471
 40
0.5882352941176471
 40
0.6470588235294118
 40
0.6470588235294118
 40
0.6470588235294118
 40
0.6470588235294118
 40
0.7058823529411765
 40
0.7058823529411765
 40
0.7058823529411765
 40
0.7058823529411765
 40
0.7647058823529412
 40
0.7647058823529412
 40
0.7647058823529412
 40
0.7647058823529412
 40
0.823529411764706
 40
0.823529411764706
 40
0.823529411764706
 40
0.823529411764706
 40
0.8823529411764707
 40
0.8823529411764707
 40
0.8823529411764707
 40
0.8823529411764707
 40
0.9411764705882354
 40
0.9411764705882354
 40
0.9411764705882354
 40
0.9411764705882354
 40
1.0
 40
1.0
 40
1.0
 40
1.0
 10
-0.4503070866141732
 20
-0.1162125984251969
 30
0.0
 10
-0.4503070866141732
 20
-0.1162125984251969
 30
0.0
 10
-0.4442244094488189
 20
-0.1162125984251969
 30
0.0
 10
-0.4442244094488189
 20
-0.1162125984251969
 30
0.0
 10
-0.4442244094488189
 20
-0.1162125984251969
 30
0.0
 10
-0.4442244094488189
 20
-0.1162125984251969
 30
0.0
 10
-0.4442244094488189
 20
-0.2104606299212599
 30
0.0
 10
-0.4442244094488189
 20
-0.2104606299212599
 30
0.0
 10
-0.4442244094488189
 20
-0.2104606299212599
 30
0.0
 10
-0.4442244094488189
 20
-0.2149055118110236
 30
0.0
 10
-0.4439173228346457
 20
-0.2177677165354331
 30
0.0
 10
-0.4433622047244095
 20
-0.2190472440944882
 30
0.0
 10
-0.4433622047244095
 20
-0.2190472440944882
 30
0.0
 10
-0.4427795275590551
 20
-0.2203228346456693
 30
0.0
 10
-0.4418622047244095
 20
-0.2212677165354331
 30
0.0
 10
-0.4405590551181103
 20
-0.2219330708661418
 30
0.0
 10
-0.4405590551181103
 20
-0.2219330708661418
 30
0.0
 10
-0.4392519685039371
 20
-0.2225748031496063
 30
0.0
 10
-0.4366692913385827
 20
-0.2229055118110236
 30
0.0
 10
-0.4328070866141732
 20
-0.2229055118110236
 30
0.0
 10
-0.4328070866141732
 20
-0.2229055118110236
 30
0.0
 10
-0.4328070866141732
 20
-0.2229055118110236
 30
0.0
 10
-0.4248346456692914
 20
-0.2229055118110236
 30
0.0
 10
-0.4248346456692914
 20
-0.2229055118110236
 30
0.0
 10
-0.4248346456692914
 20
-0.2229055118110236
 30
0.0
 10
-0.4248346456692914
 20
-0.2229055118110236
 30
0.0
 10
-0.4248346456692914
 20
-0.229740157480315
 30
0.0
 10
-0.4248346456692914
 20
-0.229740157480315
 30
0.0
 10
-0.4248346456692914
 20
-0.229740157480315
 30
0.0
 10
-0.4248346456692914
 20
-0.229740157480315
 30
0.0
 10
-0.4784724409448819
 20
-0.229740157480315
 30
0.0
 10
-0.4784724409448819
 20
-0.229740157480315
 30
0.0
 10
-0.4784724409448819
 20
-0.229740157480315
 30
0.0
 10
-0.4784724409448819
 20
-0.229740157480315
 30
0.0
 10
-0.4784724409448819
 20
-0.2229055118110236
 30
0.0
 10
-0.4784724409448819
 20
-0.2229055118110236
 30
0.0
 10
-0.4784724409448819
 20
-0.2229055118110236
 30
0.0
 10
-0.4784724409448819
 20
-0.2229055118110236
 30
0.0
 10
-0.4696141732283465
 20
-0.2229055118110236
 30
0.0
 10
-0.4696141732283465
 20
-0.2229055118110236
 30
0.0
 10
-0.4696141732283465
 20
-0.2229055118110236
 30
0.0
 10
-0.465751968503937
 20
-0.2229055118110236
 30
0.0
 10
-0.4631968503937008
 20
-0.2225748031496063
 30
0.0
 10
-0.4619173228346457
 20
-0.2218779527559055
 30
0.0
 10
-0.4619173228346457
 20
-0.2218779527559055
 30
0.0
 10
-0.4606417322834646
 20
-0.2212125984251969
 30
0.0
 10
-0.4596417322834646
 20
-0.2201299212598425
 30
0.0
 10
-0.4589448818897638
 20
-0.2186299212598425
 30
0.0
 10
-0.4589448818897638
 20
-0.2186299212598425
 30
0.0
 10
-0.458251968503937
 20
-0.2171299212598425
 30
0.0
 10
-0.4578897637795276
 20
-0.2144055118110236
 30
0.0
 10
-0.4578897637795276
 20
-0.2104606299212599
 30
0.0
 10
-0.4578897637795276
 20
-0.2104606299212599
 30
0.0
 10
-0.4578897637795276
 20
-0.2104606299212599
 30
0.0
 10
-0.4578897637795276
 20
-0.132992125984252
 30
0.0
 10
-0.4578897637795276
 20
-0.132992125984252
 30
0.0
 10
-0.4578897637795276
 20
-0.132992125984252
 30
0.0
 10
-0.4578897637795276
 20
-0.132992125984252
 30
0.0
 10
-0.4784724409448819
 20
-0.132992125984252
 30
0.0
 10
-0.4784724409448819
 20
-0.132992125984252
 30
0.0
 10
-0.4784724409448819
 20
-0.132992125984252
 30
0.0
 10
-0.4784724409448819
 20
-0.132992125984252
 30
0.0
 10
-0.4784724409448819
 20
-0.125992125984252
 30
0.0
 10
-0.4784724409448819
 20
-0.125992125984252
 30
0.0
 10
-0.4784724409448819
 20
-0.125992125984252
 30
0.0
 10
-0.467251968503937
 20
-0.1244094488188976
 30
0.0
 10
-0.4578622047244095
 20
-0.1211574803149606
 30
0.0
 10
-0.4503070866141732
 20
-0.1162125984251969
 30
0.0
  0
SPLINE
  5
68
330
1F
100
AcDbEntity
  8
LAYER_1
 62
   250
100
AcDbSpline
210
0.0
220
0.0
230
1.0
 70
    11
 71
     3
 72
    84
 73
    80
 74
     0
 42
0.0000000001
 43
0.0000000001
 40
0.0
 40
0.0
 40
0.0
 40
0.0
 40
0.05
 40
0.05
 40
0.05
 40
0.05
 40
0.1
 40
0.1
 40
0.1
 40
0.1
 40
0.15
 40
0.15
 40
0.15
 40
0.15
 40
0.2
 40
0.2
 40
0.2
 40
0.2
 40
0.25
 40
0.25
 40
0.25
 40
0.25
 40
0.3
 40
0.3
 40
0.3
 40
0.3
 40
0.35
 40
0.35
 40
0.35
 40
0.35
 40
0.4
 40
0.4
 40
0.4
 40
0.4
 40
0.45
 40
0.45
 40
0.45
 40
0.45
 40
0.4999999999999999
 40
0.4999999999999999
 40
0.4999999999999999
 40
0.4999999999999999
 40
0.5499999999999999
 40
0.5499999999999999
 40
0.5499999999999999
 40
0.5499999999999999
 40
0.6
 40
0.6
 40
0.6
 40
0.6
 40
0.65
 40
0.65
 40
0.65
 40
0.65
 40
0.7000000000000001
 40
0.7000000000000001
 40
0.7000000000000001
 40
0.7000000000000001
 40
0.7500000000000001
 40
0.7500000000000001
 40
0.7500000000000001
 40
0.7500000000000001
 40
0.8000000000000002
 40
0.8000000000000002
 40
0.8000000000000002
 40
0.8000000000000002
 40
0.8500000000000002
 40
0.8500000000000002
 40
0.8500000000000002
 40
0.8500000000000002
 40
0.9000000000000002
 40
0.9000000000000002
 40
0.9000000000000002
 40
0.9000000000000002
 40
0.9500000000000003
 40
0.9500000000000003
 40
0.9500000000000003
 40
0.9500000000000003
 40
1.0
 40
1.0
 40
1.0
 40
1.0
 10
-0.3186417322834646
 20
-0.1141023622047244
 30
0.0
 10
-0.3186417322834646
 20
-0.1141023622047244
 30
0.0
 10
-0.3186417322834646
 20
-0.1215196850393701
 30
0.0
 10
-0.3186417322834646
 20
-0.1215196850393701
 30
0.0
 10
-0.3186417322834646
 20
-0.1215196850393701
 30
0.0
 10
-0.3320275590551181
 20
-0.1216574803149606
 30
0.0
 10
-0.3428622047244095
 20
-0.1236299212598425
 30
0.0
 10
-0.3511377952755906
 20
-0.1273503937007874
 30
0.0
 10
-0.3511377952755906
 20
-0.1273503937007874
 30
0.0
 10
-0.3594173228346457
 20
-0.1311023622047244
 30
0.0
 10
-0.3655
 20
-0.1367125984251969
 30
0.0
 10
-0.3694173228346457
 20
-0.1441574803149607
 30
0.0
 10
-0.3694173228346457
 20
-0.1441574803149607
 30
0.0
 10
-0.3733346456692914
 20
-0.1516299212598425
 30
0.0
 10
-0.3755275590551181
 20
-0.1608228346456693
 30
0.0
 10
-0.376
 20
-0.1717125984251968
 30
0.0
 10
-0.376
 20
-0.1717125984251968
 30
0.0
 10
-0.3732519685039371
 20
-0.167492125984252
 30
0.0
 10
-0.3704173228346457
 20
-0.1641850393700788
 30
0.0
 10
-0.3675
 20
-0.1618228346456693
 30
0.0
 10
-0.3675
 20
-0.1618228346456693
 30
0.0
 10
-0.3646102362204725
 20
-0.1594645669291339
 30
0.0
 10
-0.3612244094488189
 20
-0.1576574803149606
 30
0.0
 10
-0.3573346456692914
 20
-0.1563779527559055
 30
0.0
 10
-0.3573346456692914
 20
-0.1563779527559055
 30
0.0
 10
-0.3534448818897638
 20
-0.1551023622047244
 30
0.0
 10
-0.3491968503937008
 20
-0.1544645669291339
 30
0.0
 10
-0.3445826771653544
 20
-0.1544645669291339
 30
0.0
 10
-0.3445826771653544
 20
-0.1544645669291339
 30
0.0
 10
-0.3372244094488189
 20
-0.1544645669291339
 30
0.0
 10
-0.3306417322834646
 20
-0.1561023622047244
 30
0.0
 10
-0.3248897637795276
 20
-0.1593503937007874
 30
0.0
 10
-0.3248897637795276
 20
-0.1593503937007874
 30
0.0
 10
-0.3191417322834646
 20
-0.1626023622047244
 30
0.0
 10
-0.3146692913385827
 20
-0.1670196850393701
 30
0.0
 10
-0.3114724409448819
 20
-0.1725748031496063
 30
0.0
 10
-0.3114724409448819
 20
-0.1725748031496063
 30
0.0
 10
-0.3082795275590551
 20
-0.1781299212598425
 30
0.0
 10
-0.3066692913385827
 20
-0.1846850393700787
 30
0.0
 10
-0.3066692913385827
 20
-0.1922125984251969
 30
0.0
 10
-0.3066692913385827
 20
-0.1922125984251969
 30
0.0
 10
-0.3066692913385827
 20
-0.2042125984251969
 30
0.0
 10
-0.3102795275590551
 20
-0.2136299212598425
 30
0.0
 10
-0.3175
 20
-0.2204606299212598
 30
0.0
 10
-0.3175
 20
-0.2204606299212598
 30
0.0
 10
-0.3254724409448819
 20
-0.2279606299212598
 30
0.0
 10
-0.3358070866141732
 20
-0.2316850393700788
 30
0.0
 10
-0.3485
 20
-0.2316850393700788
 30
0.0
 10
-0.3485
 20
-0.2316850393700788
 30
0.0
 10
-0.3576692913385827
 20
-0.2316850393700788
 30
0.0
 10
-0.3653897637795276
 20
-0.2297952755905512
 30
0.0
 10
-0.3716968503937008
 20
-0.225992125984252
 30
0.0
 10
-0.3716968503937008
 20
-0.225992125984252
 30
0.0
 10
-0.378
 20
-0.2222125984251969
 30
0.0
 10
-0.383
 20
-0.2164055118110236
 30
0.0
 10
-0.3867244094488189
 20
-0.2085748031496063
 30
0.0
 10
-0.3867244094488189
 20
-0.2085748031496063
 30
0.0
 10
-0.3904173228346457
 20
-0.2007677165354331
 30
0.0
 10
-0.3922795275590552
 20
-0.1911023622047244
 30
0.0
 10
-0.3922795275590552
 20
-0.1796023622047244
 30
0.0
 10
-0.3922795275590552
 20
-0.1796023622047244
 30
0.0
 10
-0.3922795275590552
 20
-0.1680472440944882
 30
0.0
 10
-0.3903070866141732
 20
-0.1577952755905512
 30
0.0
 10
-0.3863897637795276
 20
-0.1488503937007874
 30
0.0
 10
-0.3863897637795276
 20
-0.1488503937007874
 30
0.0
 10
-0.3824448818897638
 20
-0.1399094488188976
 30
0.0
 10
-0.377
 20
-0.1327125984251969
 30
0.0
 10
-0.3700551181102362
 20
-0.1272952755905512
 30
0.0
 10
-0.3700551181102362
 20
-0.1272952755905512
 30
0.0
 10
-0.3631102362204725
 20
-0.1218503937007874
 30
0.0
 10
-0.3555
 20
-0.1182952755905512
 30
0.0
 10
-0.347251968503937
 20
-0.1166299212598425
 30
0.0
 10
-0.347251968503937
 20
-0.1166299212598425
 30
0.0
 10
-0.3389724409448819
 20
-0.1149370078740158
 30
0.0
 10
-0.3315551181102363
 20
-0.1141023622047244
 30
0.0
 10
-0.3249724409448819
 20
-0.1141023622047244
 30
0.0
 10
-0.3249724409448819
 20
-0.1141023622047244
 30
0.0
 10
-0.3249724409448819
 20
-0.1141023622047244
 30
0.0
 10
-0.3186417322834646
 20
-0.1141023622047244
 30
0.0
 10
-0.3186417322834646
 20
-0.1141023622047244
 30
0.0
  0
SPLINE
  5
69
330
1F
100
AcDbEntity
  8
LAYER_1
 62
   250
100
AcDbSpline
210
0.0
220
0.0
230
1.0
 70
    11
 71
     3
 72
    40
 73
    36
 74
     0
 42
0.0000000001
 43
0.0000000001
 40
0.0
 40
0.0
 40
0.0
 40
0.0
 40
0.1111111111111111
 40
0.1111111111111111
 40
0.1111111111111111
 40
0.1111111111111111
 40
0.2222222222222222
 40
0.2222222222222222
 40
0.2222222222222222
 40
0.2222222222222222
 40
0.3333333333333333
 40
0.3333333333333333
 40
0.3333333333333333
 40
0.3333333333333333
 40
0.4444444444444444
 40
0.4444444444444444
 40
0.4444444444444444
 40
0.4444444444444444
 40
0.5555555555555556
 40
0.5555555555555556
 40
0.5555555555555556
 40
0.5555555555555556
 40
0.6666666666666667
 40
0.6666666666666667
 40
0.6666666666666667
 40
0.6666666666666667
 40
0.7777777777777779
 40
0.7777777777777779
 40
0.7777777777777779
 40
0.7777777777777779
 40
0.8888888888888891
 40
0.8888888888888891
 40
0.8888888888888891
 40
0.8888888888888891
 40
1.0
 40
1.0
 40
1.0
 40
1.0
 10
-0.3483346456692913
 20
-0.1631023622047244
 30
0.0
 10
-0.3561377952755906
 20
-0.1631023622047244
 30
0.0
 10
-0.3625551181102362
 20
-0.1660472440944882
 30
0.0
 10
-0.3675826771653544
 20
-0.1719645669291339
 30
0.0
 10
-0.3675826771653544
 20
-0.1719645669291339
 30
0.0
 10
-0.3726102362204725
 20
-0.1778779527559055
 30
0.0
 10
-0.3751102362204725
 20
-0.184992125984252
 30
0.0
 10
-0.3751102362204725
 20
-0.1932677165354331
 30
0.0
 10
-0.3751102362204725
 20
-0.1932677165354331
 30
0.0
 10
-0.3751102362204725
 20
-0.1991299212598425
 30
0.0
 10
-0.3738897637795276
 20
-0.2045472440944882
 30
0.0
 10
-0.3714448818897638
 20
-0.2095196850393701
 30
0.0
 10
-0.3714448818897638
 20
-0.2095196850393701
 30
0.0
 10
-0.369
 20
-0.214492125984252
 30
0.0
 10
-0.3658622047244095
 20
-0.2181574803149606
 30
0.0
 10
-0.362
 20
-0.2205748031496063
 30
0.0
 10
-0.362
 20
-0.2205748031496063
 30
0.0
 10
-0.3581692913385827
 20
-0.222992125984252
 30
0.0
 10
-0.3538070866141733
 20
-0.2242125984251969
 30
0.0
 10
-0.349
 20
-0.2242125984251969
 30
0.0
 10
-0.349
 20
-0.2242125984251969
 30
0.0
 10
-0.3415
 20
-0.2242125984251969
 30
0.0
 10
-0.3352795275590552
 20
-0.2213779527559055
 30
0.0
 10
-0.3303070866141732
 20
-0.2157125984251969
 30
0.0
 10
-0.3303070866141732
 20
-0.2157125984251969
 30
0.0
 10
-0.3253622047244095
 20
-0.2100472440944882
 30
0.0
 10
-0.3228622047244095
 20
-0.2024330708661417
 30
0.0
 10
-0.3228622047244095
 20
-0.1928779527559055
 30
0.0
 10
-0.3228622047244095
 20
-0.1928779527559055
 30
0.0
 10
-0.3228622047244095
 20
-0.1837677165354331
 30
0.0
 10
-0.3252795275590552
 20
-0.1765196850393701
 30
0.0
 10
-0.3301102362204725
 20
-0.1711574803149606
 30
0.0
 10
-0.3301102362204725
 20
-0.1711574803149606
 30
0.0
 10
-0.3349448818897638
 20
-0.1657677165354331
 30
0.0
 10
-0.3410275590551181
 20
-0.1631023622047244
 30
0.0
 10
-0.3483346456692913
 20
-0.1631023622047244
 30
0.0
  0
SPLINE
  5
6A
330
1F
100
AcDbEntity
  8
LAYER_1
 62
   250
100
AcDbSpline
210
0.0
220
0.0
230
1.0
 70
    11
 71
     3
 72
    60
 73
    56
 74
     0
 42
0.0000000001
 43
0.0000000001
 40
0.0
 40
0.0
 40
0.0
 40
0.0
 40
0.0714285714285714
 40
0.0714285714285714
 40
0.0714285714285714
 40
0.0714285714285714
 40
0.1428571428571429
 40
0.1428571428571429
 40
0.1428571428571429
 40
0.1428571428571429
 40
0.2142857142857143
 40
0.2142857142857143
 40
0.2142857142857143
 40
0.2142857142857143
 40
0.2857142857142857
 40
0.2857142857142857
 40
0.2857142857142857
 40
0.2857142857142857
 40
0.3571428571428571
 40
0.3571428571428571
 40
0.3571428571428571
 40
0.3571428571428571
 40
0.4285714285714285
 40
0.4285714285714285
 40
0.4285714285714285
 40
0.4285714285714285
 40
0.4999999999999999
 40
0.4999999999999999
 40
0.4999999999999999
 40
0.4999999999999999
 40
0.5714285714285713
 40
0.5714285714285713
 40
0.5714285714285713
 40
0.5714285714285713
 40
0.6428571428571427
 40
0.6428571428571427
 40
0.6428571428571427
 40
0.6428571428571427
 40
0.7142857142857141
 40
0.7142857142857141
 40
0.7142857142857141
 40
0.7142857142857141
 40
0.7857142857142855
 40
0.7857142857142855
 40
0.7857142857142855
 40
0.7857142857142855
 40
0.8571428571428569
 40
0.8571428571428569
 40
0.8571428571428569
 40
0.8571428571428569
 40
0.9285714285714283
 40
0.9285714285714283
 40
0.9285714285714283
 40
0.9285714285714283
 40
1.0
 40
1.0
 40
1.0
 40
1.0
 10
-0.2895
 20
-0.1582952755905512
 30
0.0
 10
-0.2895
 20
-0.1582952755905512
 30
0.0
 10
-0.2938897637795276
 20
-0.1529055118110236
 30
0.0
 10
-0.2938897637795276
 20
-0.1529055118110236
 30
0.0
 10
-0.2938897637795276
 20
-0.1529055118110236
 30
0.0
 10
-0.2827755905511811
 20
-0.1438503937007874
 30
0.0
 10
-0.2771929133858268
 20
-0.1362952755905512
 30
0.0
 10
-0.2771929133858268
 20
-0.1302125984251969
 30
0.0
 10
-0.2771929133858268
 20
-0.1302125984251969
 30
0.0
 10
-0.2771929133858268
 20
-0.1295196850393701
 30
0.0
 10
-0.277248031496063
 20
-0.1286299212598425
 30
0.0
 10
-0.2773622047244095
 20
-0.1276023622047244
 30
0.0
 10
-0.2773622047244095
 20
-0.1276023622047244
 30
0.0
 10
-0.2782755905511811
 20
-0.127992125984252
 30
0.0
 10
-0.2791929133858268
 20
-0.1282952755905512
 30
0.0
 10
-0.2800551181102363
 20
-0.128492125984252
 30
0.0
 10
-0.2800551181102363
 20
-0.128492125984252
 30
0.0
 10
-0.2809173228346457
 20
-0.1287125984251969
 30
0.0
 10
-0.2817204724409449
 20
-0.1288228346456693
 30
0.0
 10
-0.2825
 20
-0.1288228346456693
 30
0.0
 10
-0.2825
 20
-0.1288228346456693
 30
0.0
 10
-0.2851102362204724
 20
-0.1288228346456693
 30
0.0
 10
-0.2871929133858268
 20
-0.127992125984252
 30
0.0
 10
-0.288748031496063
 20
-0.1262952755905512
 30
0.0
 10
-0.288748031496063
 20
-0.1262952755905512
 30
0.0
 10
-0.2903346456692914
 20
-0.1246299212598425
 30
0.0
 10
-0.2911102362204724
 20
-0.122492125984252
 30
0.0
 10
-0.2911102362204724
 20
-0.1198779527559055
 30
0.0
 10
-0.2911102362204724
 20
-0.1198779527559055
 30
0.0
 10
-0.2911102362204724
 20
-0.1173228346456693
 30
0.0
 10
-0.2901653543307087
 20
-0.1151023622047244
 30
0.0
 10
-0.2882755905511811
 20
-0.1132125984251969
 30
0.0
 10
-0.2882755905511811
 20
-0.1132125984251969
 30
0.0
 10
-0.2863622047244095
 20
-0.1112952755905512
 30
0.0
 10
-0.2840826771653544
 20
-0.1103503937007874
 30
0.0
 10
-0.2814448818897638
 20
-0.1103503937007874
 30
0.0
 10
-0.2814448818897638
 20
-0.1103503937007874
 30
0.0
 10
-0.277748031496063
 20
-0.1103503937007874
 30
0.0
 10
-0.2745826771653543
 20
-0.1118228346456693
 30
0.0
 10
-0.2719448818897638
 20
-0.1147952755905512
 30
0.0
 10
-0.2719448818897638
 20
-0.1147952755905512
 30
0.0
 10
-0.2693346456692913
 20
-0.117740157480315
 30
0.0
 10
-0.268
 20
-0.1215472440944882
 30
0.0
 10
-0.268
 20
-0.1262125984251969
 30
0.0
 10
-0.268
 20
-0.1262125984251969
 30
0.0
 10
-0.268
 20
-0.1292677165354331
 30
0.0
 10
-0.2686377952755906
 20
-0.1324645669291339
 30
0.0
 10
-0.2698897637795276
 20
-0.1357952755905512
 30
0.0
 10
-0.2698897637795276
 20
-0.1357952755905512
 30
0.0
 10
-0.2711377952755906
 20
-0.1391299212598425
 30
0.0
 10
-0.2729448818897638
 20
-0.1422125984251969
 30
0.0
 10
-0.2753346456692913
 20
-0.1450748031496063
 30
0.0
 10
-0.2753346456692913
 20
-0.1450748031496063
 30
0.0
 10
-0.2777204724409449
 20
-0.1479055118110236
 30
0.0
 10
-0.2824448818897638
 20
-0.1523228346456693
 30
0.0
 10
-0.2895
 20
-0.1582952755905512
 30
0.0
  0
SPLINE
  5
6B
330
1F
100
AcDbEntity
  8
LAYER_1
 62
   250
100
AcDbSpline
210
0.0
220
0.0
230
1.0
 70
    11
 71
     3
 72
    60
 73
    56
 74
     0
 42
0.0000000001
 43
0.0000000001
 40
0.0
 40
0.0
 40
0.0
 40
0.0
 40
0.0714285714285714
 40
0.0714285714285714
 40
0.0714285714285714
 40
0.0714285714285714
 40
0.1428571428571429
 40
0.1428571428571429
 40
0.1428571428571429
 40
0.1428571428571429
 40
0.2142857142857143
 40
0.2142857142857143
 40
0.2142857142857143
 40
0.2142857142857143
 40
0.2857142857142857
 40
0.2857142857142857
 40
0.2857142857142857
 40
0.2857142857142857
 40
0.3571428571428571
 40
0.3571428571428571
 40
0.3571428571428571
 40
0.3571428571428571
 40
0.4285714285714285
 40
0.4285714285714285
 40
0.4285714285714285
 40
0.4285714285714285
 40
0.4999999999999999
 40
0.4999999999999999
 40
0.4999999999999999
 40
0.4999999999999999
 40
0.5714285714285713
 40
0.5714285714285713
 40
0.5714285714285713
 40
0.5714285714285713
 40
0.6428571428571427
 40
0.6428571428571427
 40
0.6428571428571427
 40
0.6428571428571427
 40
0.7142857142857141
 40
0.7142857142857141
 40
0.7142857142857141
 40
0.7142857142857141
 40
0.7857142857142855
 40
0.7857142857142855
 40
0.7857142857142855
 40
0.7857142857142855
 40
0.8571428571428569
 40
0.8571428571428569
 40
0.8571428571428569
 40
0.8571428571428569
 40
0.9285714285714283
 40
0.9285714285714283
 40
0.9285714285714283
 40
0.9285714285714283
 40
1.0
 40
1.0
 40
1.0
 40
1.0
 10
-0.2604448818897638
 20
-0.1582952755905512
 30
0.0
 10
-0.2604448818897638
 20
-0.1582952755905512
 30
0.0
 10
-0.2648346456692913
 20
-0.1529055118110236
 30
0.0
 10
-0.2648346456692913
 20
-0.1529055118110236
 30
0.0
 10
-0.2648346456692913
 20
-0.1529055118110236
 30
0.0
 10
-0.2537204724409449
 20
-0.1438503937007874
 30
0.0
 10
-0.2481377952755906
 20
-0.1362952755905512
 30
0.0
 10
-0.2481377952755906
 20
-0.1302125984251969
 30
0.0
 10
-0.2481377952755906
 20
-0.1302125984251969
 30
0.0
 10
-0.2481377952755906
 20
-0.1295196850393701
 30
0.0
 10
-0.2481929133858268
 20
-0.1286299212598425
 30
0.0
 10
-0.2483070866141733
 20
-0.1276023622047244
 30
0.0
 10
-0.2483070866141733
 20
-0.1276023622047244
 30
0.0
 10
-0.2492204724409449
 20
-0.127992125984252
 30
0.0
 10
-0.2501377952755906
 20
-0.1282952755905512
 30
0.0
 10
-0.251
 20
-0.128492125984252
 30
0.0
 10
-0.251
 20
-0.128492125984252
 30
0.0
 10
-0.2518622047244095
 20
-0.1287125984251969
 30
0.0
 10
-0.2526929133858268
 20
-0.1288228346456693
 30
0.0
 10
-0.2535275590551182
 20
-0.1288228346456693
 30
0.0
 10
-0.2535275590551182
 20
-0.1288228346456693
 30
0.0
 10
-0.2560826771653543
 20
-0.1288228346456693
 30
0.0
 10
-0.2581377952755906
 20
-0.127992125984252
 30
0.0
 10
-0.2596929133858268
 20
-0.1262952755905512
 30
0.0
 10
-0.2596929133858268
 20
-0.1262952755905512
 30
0.0
 10
-0.2612755905511811
 20
-0.1246299212598425
 30
0.0
 10
-0.2620551181102362
 20
-0.122492125984252
 30
0.0
 10
-0.2620551181102362
 20
-0.1198779527559055
 30
0.0
 10
-0.2620551181102362
 20
-0.1198779527559055
 30
0.0
 10
-0.2620551181102362
 20
-0.1173228346456693
 30
0.0
 10
-0.2611102362204725
 20
-0.1151023622047244
 30
0.0
 10
-0.2592204724409449
 20
-0.1132125984251969
 30
0.0
 10
-0.2592204724409449
 20
-0.1132125984251969
 30
0.0
 10
-0.2573346456692914
 20
-0.1112952755905512
 30
0.0
 10
-0.2550275590551182
 20
-0.1103503937007874
 30
0.0
 10
-0.2523897637795275
 20
-0.1103503937007874
 30
0.0
 10
-0.2523897637795275
 20
-0.1103503937007874
 30
0.0
 10
-0.2486929133858268
 20
-0.1103503937007874
 30
0.0
 10
-0.2455275590551181
 20
-0.1118228346456693
 30
0.0
 10
-0.2428897637795276
 20
-0.1147952755905512
 30
0.0
 10
-0.2428897637795276
 20
-0.1147952755905512
 30
0.0
 10
-0.2402795275590551
 20
-0.117740157480315
 30
0.0
 10
-0.2389448818897638
 20
-0.1215472440944882
 30
0.0
 10
-0.2389448818897638
 20
-0.1262125984251969
 30
0.0
 10
-0.2389448818897638
 20
-0.1262125984251969
 30
0.0
 10
-0.2389448818897638
 20
-0.1292677165354331
 30
0.0
 10
-0.2395826771653543
 20
-0.1324645669291339
 30
0.0
 10
-0.2408346456692914
 20
-0.1357952755905512
 30
0.0
 10
-0.2408346456692914
 20
-0.1357952755905512
 30
0.0
 10
-0.2420826771653543
 20
-0.1391299212598425
 30
0.0
 10
-0.2438897637795276
 20
-0.1422125984251969
 30
0.0
 10
-0.2462755905511811
 20
-0.1450748031496063
 30
0.0
 10
-0.2462755905511811
 20
-0.1450748031496063
 30
0.0
 10
-0.2486653543307087
 20
-0.1479055118110236
 30
0.0
 10
-0.2533897637795275
 20
-0.1523228346456693
 30
0.0
 10
-0.2604448818897638
 20
-0.1582952755905512
 30
0.0
  0
SPLINE
  5
6C
330
1F
100
AcDbEntity
  8
LAYER_1
 62
   250
100
AcDbSpline
210
0.0
220
0.0
230
1.0
 70
    11
 71
     3
 72
   204
 73
   200
 74
     0
 42
0.0000000001
 43
0.0000000001
 40
0.0
 40
0.0
 40
0.0
 40
0.0
 40
0.02
 40
0.02
 40
0.02
 40
0.02
 40
0.04
 40
0.04
 40
0.04
 40
0.04
 40
0.06
 40
0.06
 40
0.06
 40
0.06
 40
0.08
 40
0.08
 40
0.08
 40
0.08
 40
0.1
 40
0.1
 40
0.1
 40
0.1
 40
0.12
 40
0.12
 40
0.12
 40
0.12
 40
0.14
 40
0.14
 40
0.14
 40
0.14
 40
0.16
 40
0.16
 40
0.16
 40
0.16
 40
0.18
 40
0.18
 40
0.18
 40
0.18
 40
0.2
 40
0.2
 40
0.2
 40
0.2
 40
0.22
 40
0.22
 40
0.22
 40
0.22
 40
0.24
 40
0.24
 40
0.24
 40
0.24
 40
0.26
 40
0.26
 40
0.26
 40
0.26
 40
0.28
 40
0.28
 40
0.28
 40
0.28
 40
0.3
 40
0.3
 40
0.3
 40
0.3
 40
0.32
 40
0.32
 40
0.32
 40
0.32
 40
0.34
 40
0.34
 40
0.34
 40
0.34
 40
0.36
 40
0.36
 40
0.36
 40
0.36
 40
0.3800000000000001
 40
0.3800000000000001
 40
0.3800000000000001
 40
0.3800000000000001
 40
0.4000000000000001
 40
0.4000000000000001
 40
0.4000000000000001
 40
0.4000000000000001
 40
0.4200000000000001
 40
0.4200000000000001
 40
0.4200000000000001
 40
0.4200000000000001
 40
0.4400000000000001
 40
0.4400000000000001
 40
0.4400000000000001
 40
0.4400000000000001
 40
0.4600000000000001
 40
0.4600000000000001
 40
0.4600000000000001
 40
0.4600000000000001
 40
0.4800000000000002
 40
0.4800000000000002
 40
0.4800000000000002
 40
0.4800000000000002
 40
0.5000000000000001
 40
0.5000000000000001
 40
0.5000000000000001
 40
0.5000000000000001
 40
0.5200000000000001
 40
0.5200000000000001
 40
0.5200000000000001
 40
0.5200000000000001
 40
0.5400000000000002
 40
0.5400000000000002
 40
0.5400000000000002
 40
0.5400000000000002
 40
0.5600000000000002
 40
0.5600000000000002
 40
0.5600000000000002
 40
0.5600000000000002
 40
0.5800000000000002
 40
0.5800000000000002
 40
0.5800000000000002
 40
0.5800000000000002
 40
0.6000000000000002
 40
0.6000000000000002
 40
0.6000000000000002
 40
0.6000000000000002
 40
0.6200000000000002
 40
0.6200000000000002
 40
0.6200000000000002
 40
0.6200000000000002
 40
0.6400000000000002
 40
0.6400000000000002
 40
0.6400000000000002
 40
0.6400000000000002
 40
0.6600000000000003
 40
0.6600000000000003
 40
0.6600000000000003
 40
0.6600000000000003
 40
0.6800000000000003
 40
0.6800000000000003
 40
0.6800000000000003
 40
0.6800000000000003
 40
0.7000000000000003
 40
0.7000000000000003
 40
0.7000000000000003
 40
0.7000000000000003
 40
0.7200000000000003
 40
0.7200000000000003
 40
0.7200000000000003
 40
0.7200000000000003
 40
0.7400000000000003
 40
0.7400000000000003
 40
0.7400000000000003
 40
0.7400000000000003
 40
0.7600000000000003
 40
0.7600000000000003
 40
0.7600000000000003
 40
0.7600000000000003
 40
0.7800000000000004
 40
0.7800000000000004
 40
0.7800000000000004
 40
0.7800000000000004
 40
0.8000000000000004
 40
0.8000000000000004
 40
0.8000000000000004
 40
0.8000000000000004
 40
0.8200000000000004
 40
0.8200000000000004
 40
0.8200000000000004
 40
0.8200000000000004
 40
0.8400000000000004
 40
0.8400000000000004
 40
0.8400000000000004
 40
0.8400000000000004
 40
0.8600000000000004
 40
0.8600000000000004
 40
0.8600000000000004
 40
0.8600000000000004
 40
0.8800000000000005
 40
0.8800000000000005
 40
0.8800000000000005
 40
0.8800000000000005
 40
0.9000000000000005
 40
0.9000000000000005
 40
0.9000000000000005
 40
0.9000000000000005
 40
0.9200000000000005
 40
0.9200000000000005
 40
0.9200000000000005
 40
0.9200000000000005
 40
0.9400000000000005
 40
0.9400000000000005
 40
0.9400000000000005
 40
0.9400000000000005
 40
0.9600000000000005
 40
0.9600000000000005
 40
0.9600000000000005
 40
0.9600000000000005
 40
0.9800000000000005
 40
0.9800000000000005
 40
0.9800000000000005
 40
0.9800000000000005
 40
1.0
 40
1.0
 40
1.0
 40
1.0
 10
-0.1766377952755906
 20
-0.1512125984251969
 30
0.0
 10
-0.1766377952755906
 20
-0.1512125984251969
 30
0.0
 10
-0.1356929133858268
 20
-0.1512125984251969
 30
0.0
 10
-0.1356929133858268
 20
-0.1512125984251969
 30
0.0
 10
-0.1356929133858268
 20
-0.1512125984251969
 30
0.0
 10
-0.1356929133858268
 20
-0.1512125984251969
 30
0.0
 10
-0.1356929133858268
 20
-0.1580472440944882
 30
0.0
 10
-0.1356929133858268
 20
-0.1580472440944882
 30
0.0
 10
-0.1356929133858268
 20
-0.1580472440944882
 30
0.0
 10
-0.1356929133858268
 20
-0.1580472440944882
 30
0.0
 10
-0.1385275590551181
 20
-0.1580472440944882
 30
0.0
 10
-0.1385275590551181
 20
-0.1580472440944882
 30
0.0
 10
-0.1385275590551181
 20
-0.1580472440944882
 30
0.0
 10
-0.1401653543307087
 20
-0.1580472440944882
 30
0.0
 10
-0.1416653543307087
 20
-0.158240157480315
 30
0.0
 10
-0.1430275590551181
 20
-0.1586023622047244
 30
0.0
 10
-0.1430275590551181
 20
-0.1586023622047244
 30
0.0
 10
-0.1438307086614173
 20
-0.1588228346456693
 30
0.0
 10
-0.1445
 20
-0.159240157480315
 30
0.0
 10
-0.145
 20
-0.1598779527559055
 30
0.0
 10
-0.145
 20
-0.1598779527559055
 30
0.0
 10
-0.1455275590551181
 20
-0.160492125984252
 30
0.0
 10
-0.1457755905511811
 20
-0.1610748031496063
 30
0.0
 10
-0.1457755905511811
 20
-0.1616299212598425
 30
0.0
 10
-0.1457755905511811
 20
-0.1616299212598425
 30
0.0
 10
-0.1457755905511811
 20
-0.1628779527559055
 30
0.0
 10
-0.144748031496063
 20
-0.164740157480315
 30
0.0
 10
-0.1426929133858268
 20
-0.167240157480315
 30
0.0
 10
-0.1426929133858268
 20
-0.167240157480315
 30
0.0
 10
-0.1426929133858268
 20
-0.167240157480315
 30
0.0
 10
-0.1310551181102362
 20
-0.1818779527559055
 30
0.0
 10
-0.1310551181102362
 20
-0.1818779527559055
 30
0.0
 10
-0.1310551181102362
 20
-0.1818779527559055
 30
0.0
 10
-0.1310551181102362
 20
-0.1818779527559055
 30
0.0
 10
-0.1174724409448819
 20
-0.167240157480315
 30
0.0
 10
-0.1174724409448819
 20
-0.167240157480315
 30
0.0
 10
-0.1174724409448819
 20
-0.167240157480315
 30
0.0
 10
-0.1149724409448819
 20
-0.1645196850393701
 30
0.0
 10
-0.1137204724409449
 20
-0.162492125984252
 30
0.0
 10
-0.1137204724409449
 20
-0.1611299212598425
 30
0.0
 10
-0.1137204724409449
 20
-0.1611299212598425
 30
0.0
 10
-0.1137204724409449
 20
-0.1601574803149606
 30
0.0
 10
-0.1141653543307087
 20
-0.1594055118110236
 30
0.0
 10
-0.1150275590551181
 20
-0.1588503937007874
 30
0.0
 10
-0.1150275590551181
 20
-0.1588503937007874
 30
0.0
 10
-0.1158897637795276
 20
-0.1583228346456693
 30
0.0
 10
-0.117748031496063
 20
-0.1580472440944882
 30
0.0
 10
-0.1206377952755906
 20
-0.1580472440944882
 30
0.0
 10
-0.1206377952755906
 20
-0.1580472440944882
 30
0.0
 10
-0.1206377952755906
 20
-0.1580472440944882
 30
0.0
 10
-0.1237204724409449
 20
-0.1580472440944882
 30
0.0
 10
-0.1237204724409449
 20
-0.1580472440944882
 30
0.0
 10
-0.1237204724409449
 20
-0.1580472440944882
 30
0.0
 10
-0.1237204724409449
 20
-0.1580472440944882
 30
0.0
 10
-0.1237204724409449
 20
-0.1512125984251969
 30
0.0
 10
-0.1237204724409449
 20
-0.1512125984251969
 30
0.0
 10
-0.1237204724409449
 20
-0.1512125984251969
 30
0.0
 10
-0.1237204724409449
 20
-0.1512125984251969
 30
0.0
 10
-0.0889724409448819
 20
-0.1512125984251969
 30
0.0
 10
-0.0889724409448819
 20
-0.1512125984251969
 30
0.0
 10
-0.0889724409448819
 20
-0.1512125984251969
 30
0.0
 10
-0.0889724409448819
 20
-0.1512125984251969
 30
0.0
 10
-0.0889724409448819
 20
-0.1580472440944882
 30
0.0
 10
-0.0889724409448819
 20
-0.1580472440944882
 30
0.0
 10
-0.0889724409448819
 20
-0.1580472440944882
 30
0.0
 10
-0.0923897637795276
 20
-0.1582125984251969
 30
0.0
 10
-0.0953346456692913
 20
-0.1589055118110236
 30
0.0
 10
-0.0978031496062992
 20
-0.1601574803149606
 30
0.0
 10
-0.0978031496062992
 20
-0.1601574803149606
 30
0.0
 10
-0.1002755905511811
 20
-0.1614055118110236
 30
0.0
 10
-0.1031929133858268
 20
-0.1637677165354331
 30
0.0
 10
-0.1065551181102362
 20
-0.167240157480315
 30
0.0
 10
-0.1065551181102362
 20
-0.167240157480315
 30
0.0
 10
-0.1065551181102362
 20
-0.167240157480315
 30
0.0
 10
-0.1251929133858268
 20
-0.1866023622047244
 30
0.0
 10
-0.1251929133858268
 20
-0.1866023622047244
 30
0.0
 10
-0.1251929133858268
 20
-0.1866023622047244
 30
0.0
 10
-0.1251929133858268
 20
-0.1866023622047244
 30
0.0
 10
-0.102
 20
-0.2130472440944882
 30
0.0
 10
-0.102
 20
-0.2130472440944882
 30
0.0
 10
-0.102
 20
-0.2130472440944882
 30
0.0
 10
-0.102
 20
-0.2130472440944882
 30
0.0
 10
-0.1011102362204724
 20
-0.2141850393700787
 30
0.0
 10
-0.1011102362204724
 20
-0.2141850393700787
 30
0.0
 10
-0.1011102362204724
 20
-0.2141850393700787
 30
0.0
 10
-0.0988346456692913
 20
-0.2171299212598425
 30
0.0
 10
-0.0962755905511811
 20
-0.219492125984252
 30
0.0
 10
-0.0934448818897638
 20
-0.2212677165354331
 30
0.0
 10
-0.0934448818897638
 20
-0.2212677165354331
 30
0.0
 10
-0.0918897637795276
 20
-0.2222952755905512
 30
0.0
 10
-0.0894448818897638
 20
-0.2228503937007874
 30
0.0
 10
-0.0861377952755906
 20
-0.2229055118110236
 30
0.0
 10
-0.0861377952755906
 20
-0.2229055118110236
 30
0.0
 10
-0.0861377952755906
 20
-0.2229055118110236
 30
0.0
 10
-0.0861377952755906
 20
-0.229740157480315
 30
0.0
 10
-0.0861377952755906
 20
-0.229740157480315
 30
0.0
 10
-0.0861377952755906
 20
-0.229740157480315
 30
0.0
 10
-0.0861377952755906
 20
-0.229740157480315
 30
0.0
 10
-0.1260826771653544
 20
-0.229740157480315
 30
0.0
 10
-0.1260826771653544
 20
-0.229740157480315
 30
0.0
 10
-0.1260826771653544
 20
-0.229740157480315
 30
0.0
 10
-0.1260826771653544
 20
-0.229740157480315
 30
0.0
 10
-0.1260826771653544
 20
-0.2229055118110236
 30
0.0
 10
-0.1260826771653544
 20
-0.2229055118110236
 30
0.0
 10
-0.1260826771653544
 20
-0.2229055118110236
 30
0.0
 10
-0.1260826771653544
 20
-0.2229055118110236
 30
0.0
 10
-0.1226653543307087
 20
-0.2229055118110236
 30
0.0
 10
-0.1226653543307087
 20
-0.2229055118110236
 30
0.0
 10
-0.1226653543307087
 20
-0.2229055118110236
 30
0.0
 10
-0.1200551181102362
 20
-0.2229055118110236
 30
0.0
 10
-0.1184173228346457
 20
-0.222740157480315
 30
0.0
 10
-0.1176929133858268
 20
-0.2224055118110236
 30
0.0
 10
-0.1176929133858268
 20
-0.2224055118110236
 30
0.0
 10
-0.1165275590551181
 20
-0.2218779527559055
 30
0.0
 10
-0.1159173228346457
 20
-0.2209606299212598
 30
0.0
 10
-0.1159173228346457
 20
-0.2196574803149606
 30
0.0
 10
-0.1159173228346457
 20
-0.2196574803149606
 30
0.0
 10
-0.1159173228346457
 20
-0.2184606299212599
 30
0.0
 10
-0.1172204724409449
 20
-0.2162677165354331
 30
0.0
 10
-0.1198346456692914
 20
-0.2130472440944882
 30
0.0
 10
-0.1198346456692914
 20
-0.2130472440944882
 30
0.0
 10
-0.1198346456692914
 20
-0.2130472440944882
 30
0.0
 10
-0.1346377952755906
 20
-0.1949055118110236
 30
0.0
 10
-0.1346377952755906
 20
-0.1949055118110236
 30
0.0
 10
-0.1346377952755906
 20
-0.1949055118110236
 30
0.0
 10
-0.1346377952755906
 20
-0.1949055118110236
 30
0.0
 10
-0.1511653543307087
 20
-0.2130472440944882
 30
0.0
 10
-0.1511653543307087
 20
-0.2130472440944882
 30
0.0
 10
-0.1511653543307087
 20
-0.2130472440944882
 30
0.0
 10
-0.1511653543307087
 20
-0.2130472440944882
 30
0.0
 10
-0.1527755905511811
 20
-0.2150196850393701
 30
0.0
 10
-0.1527755905511811
 20
-0.2150196850393701
 30
0.0
 10
-0.1527755905511811
 20
-0.2150196850393701
 30
0.0
 10
-0.1527755905511811
 20
-0.2150196850393701
 30
0.0
 10
-0.1536653543307087
 20
-0.215992125984252
 30
0.0
 10
-0.1536653543307087
 20
-0.215992125984252
 30
0.0
 10
-0.1536653543307087
 20
-0.215992125984252
 30
0.0
 10
-0.1550275590551181
 20
-0.2174606299212599
 30
0.0
 10
-0.1557204724409449
 20
-0.218740157480315
 30
0.0
 10
-0.1557204724409449
 20
-0.2198779527559055
 30
0.0
 10
-0.1557204724409449
 20
-0.2198779527559055
 30
0.0
 10
-0.1557204724409449
 20
-0.2209330708661418
 30
0.0
 10
-0.1553031496062992
 20
-0.2216850393700788
 30
0.0
 10
-0.1544448818897638
 20
-0.2221850393700788
 30
0.0
 10
-0.1544448818897638
 20
-0.2221850393700788
 30
0.0
 10
-0.1536102362204725
 20
-0.2226574803149606
 30
0.0
 10
-0.1517204724409449
 20
-0.2229055118110236
 30
0.0
 10
-0.1488031496062992
 20
-0.2229055118110236
 30
0.0
 10
-0.1488031496062992
 20
-0.2229055118110236
 30
0.0
 10
-0.1488031496062992
 20
-0.2229055118110236
 30
0.0
 10
-0.1455275590551181
 20
-0.2229055118110236
 30
0.0
 10
-0.1455275590551181
 20
-0.2229055118110236
 30
0.0
 10
-0.1455275590551181
 20
-0.2229055118110236
 30
0.0
 10
-0.1455275590551181
 20
-0.2229055118110236
 30
0.0
 10
-0.1455275590551181
 20
-0.229740157480315
 30
0.0
 10
-0.1455275590551181
 20
-0.229740157480315
 30
0.0
 10
-0.1455275590551181
 20
-0.229740157480315
 30
0.0
 10
-0.1455275590551181
 20
-0.229740157480315
 30
0.0
 10
-0.1798031496062992
 20
-0.229740157480315
 30
0.0
 10
-0.1798031496062992
 20
-0.229740157480315
 30
0.0
 10
-0.1798031496062992
 20
-0.229740157480315
 30
0.0
 10
-0.1798031496062992
 20
-0.229740157480315
 30
0.0
 10
-0.1798031496062992
 20
-0.2229055118110236
 30
0.0
 10
-0.1798031496062992
 20
-0.2229055118110236
 30
0.0
 10
-0.1798031496062992
 20
-0.2229055118110236
 30
0.0
 10
-0.1771377952755906
 20
-0.2228503937007874
 30
0.0
 10
-0.1750551181102362
 20
-0.2225748031496063
 30
0.0
 10
-0.1735275590551181
 20
-0.2220472440944882
 30
0.0
 10
-0.1735275590551181
 20
-0.2220472440944882
 30
0.0
 10
-0.1720275590551181
 20
-0.2215472440944882
 30
0.0
 10
-0.1705551181102362
 20
-0.220740157480315
 30
0.0
 10
-0.1691377952755906
 20
-0.2196574803149606
 30
0.0
 10
-0.1691377952755906
 20
-0.2196574803149606
 30
0.0
 10
-0.1666929133858268
 20
-0.2176850393700787
 30
0.0
 10
-0.1649448818897638
 20
-0.2161574803149606
 30
0.0
 10
-0.1638582677165354
 20
-0.2150196850393701
 30
0.0
 10
-0.1638582677165354
 20
-0.2150196850393701
 30
0.0
 10
-0.1638582677165354
 20
-0.2150196850393701
 30
0.0
 10
-0.14
 20
-0.1905196850393701
 30
0.0
 10
-0.14
 20
-0.1905196850393701
 30
0.0
 10
-0.14
 20
-0.1905196850393701
 30
0.0
 10
-0.14
 20
-0.1905196850393701
 30
0.0
 10
-0.1602755905511811
 20
-0.167240157480315
 30
0.0
 10
-0.1602755905511811
 20
-0.167240157480315
 30
0.0
 10
-0.1602755905511811
 20
-0.167240157480315
 30
0.0
 10
-0.1628307086614173
 20
-0.1643503937007874
 30
0.0
 10
-0.1648307086614173
 20
-0.1623503937007874
 30
0.0
 10
-0.1663307086614173
 20
-0.1611850393700788
 30
0.0
 10
-0.1663307086614173
 20
-0.1611850393700788
 30
0.0
 10
-0.1678307086614173
 20
-0.1600196850393701
 30
0.0
 10
-0.1692755905511811
 20
-0.1591850393700788
 30
0.0
 10
-0.1706929133858268
 20
-0.158740157480315
 30
0.0
 10
-0.1706929133858268
 20
-0.158740157480315
 30
0.0
 10
-0.1721102362204725
 20
-0.1582677165354331
 30
0.0
 10
-0.1740826771653543
 20
-0.1580472440944882
 30
0.0
 10
-0.1766377952755906
 20
-0.1580472440944882
 30
0.0
 10
-0.1766377952755906
 20
-0.1580472440944882
 30
0.0
 10
-0.1766377952755906
 20
-0.1580472440944882
 30
0.0
 10
-0.1766377952755906
 20
-0.1512125984251969
 30
0.0
 10
-0.1766377952755906
 20
-0.1512125984251969
 30
0.0
  0
SPLINE
  5
6D
330
1F
100
AcDbEntity
  8
LAYER_1
 62
   250
100
AcDbSpline
210
0.0
220
0.0
230
1.0
 70
    11
 71
     3
 72
    72
 73
    68
 74
     0
 42
0.0000000001
 43
0.0000000001
 40
0.0
 40
0.0
 40
0.0
 40
0.0
 40
0.0588235294117647
 40
0.0588235294117647
 40
0.0588235294117647
 40
0.0588235294117647
 40
0.1176470588235294
 40
0.1176470588235294
 40
0.1176470588235294
 40
0.1176470588235294
 40
0.1764705882352941
 40
0.1764705882352941
 40
0.1764705882352941
 40
0.1764705882352941
 40
0.2352941176470588
 40
0.2352941176470588
 40
0.2352941176470588
 40
0.2352941176470588
 40
0.2941176470588235
 40
0.2941176470588235
 40
0.2941176470588235
 40
0.2941176470588235
 40
0.3529411764705883
 40
0.3529411764705883
 40
0.3529411764705883
 40
0.3529411764705883
 40
0.411764705882353
 40
0.411764705882353
 40
0.411764705882353
 40
0.411764705882353
 40
0.4705882352941177
 40
0.4705882352941177
 40
0.4705882352941177
 40
0.4705882352941177
 40
0.5294117647058824
 40
0.5294117647058824
 40
0.5294117647058824
 40
0.5294117647058824
 40
0.5882352941176471
 40
0.5882352941176471
 40
0.5882352941176471
 40
0.5882352941176471
 40
0.6470588235294118
 40
0.6470588235294118
 40
0.6470588235294118
 40
0.6470588235294118
 40
0.7058823529411765
 40
0.7058823529411765
 40
0.7058823529411765
 40
0.7058823529411765
 40
0.7647058823529412
 40
0.7647058823529412
 40
0.7647058823529412
 40
0.7647058823529412
 40
0.823529411764706
 40
0.823529411764706
 40
0.823529411764706
 40
0.823529411764706
 40
0.8823529411764707
 40
0.8823529411764707
 40
0.8823529411764707
 40
0.8823529411764707
 40
0.9411764705882354
 40
0.9411764705882354
 40
0.9411764705882354
 40
0.9411764705882354
 40
1.0
 40
1.0
 40
1.0
 40
1.0
 10
0.023
 20
-0.1162125984251969
 30
0.0
 10
0.023
 20
-0.1162125984251969
 30
0.0
 10
0.0290826771653543
 20
-0.1162125984251969
 30
0.0
 10
0.0290826771653543
 20
-0.1162125984251969
 30
0.0
 10
0.0290826771653543
 20
-0.1162125984251969
 30
0.0
 10
0.0290826771653543
 20
-0.1162125984251969
 30
0.0
 10
0.0290826771653543
 20
-0.2104606299212599
 30
0.0
 10
0.0290826771653543
 20
-0.2104606299212599
 30
0.0
 10
0.0290826771653543
 20
-0.2104606299212599
 30
0.0
 10
0.0290826771653543
 20
-0.2149055118110236
 30
0.0
 10
0.0293897637795276
 20
-0.2177677165354331
 30
0.0
 10
0.0299448818897638
 20
-0.2190472440944882
 30
0.0
 10
0.0299448818897638
 20
-0.2190472440944882
 30
0.0
 10
0.0305275590551181
 20
-0.2203228346456693
 30
0.0
 10
0.0314448818897638
 20
-0.2212677165354331
 30
0.0
 10
0.032748031496063
 20
-0.2219330708661418
 30
0.0
 10
0.032748031496063
 20
-0.2219330708661418
 30
0.0
 10
0.0340551181102362
 20
-0.2225748031496063
 30
0.0
 10
0.0366377952755906
 20
-0.2229055118110236
 30
0.0
 10
0.0405
 20
-0.2229055118110236
 30
0.0
 10
0.0405
 20
-0.2229055118110236
 30
0.0
 10
0.0405
 20
-0.2229055118110236
 30
0.0
 10
0.0484724409448819
 20
-0.2229055118110236
 30
0.0
 10
0.0484724409448819
 20
-0.2229055118110236
 30
0.0
 10
0.0484724409448819
 20
-0.2229055118110236
 30
0.0
 10
0.0484724409448819
 20
-0.2229055118110236
 30
0.0
 10
0.0484724409448819
 20
-0.229740157480315
 30
0.0
 10
0.0484724409448819
 20
-0.229740157480315
 30
0.0
 10
0.0484724409448819
 20
-0.229740157480315
 30
0.0
 10
0.0484724409448819
 20
-0.229740157480315
 30
0.0
 10
-0.0051653543307087
 20
-0.229740157480315
 30
0.0
 10
-0.0051653543307087
 20
-0.229740157480315
 30
0.0
 10
-0.0051653543307087
 20
-0.229740157480315
 30
0.0
 10
-0.0051653543307087
 20
-0.229740157480315
 30
0.0
 10
-0.0051653543307087
 20
-0.2229055118110236
 30
0.0
 10
-0.0051653543307087
 20
-0.2229055118110236
 30
0.0
 10
-0.0051653543307087
 20
-0.2229055118110236
 30
0.0
 10
-0.0051653543307087
 20
-0.2229055118110236
 30
0.0
 10
0.0036929133858268
 20
-0.2229055118110236
 30
0.0
 10
0.0036929133858268
 20
-0.2229055118110236
 30
0.0
 10
0.0036929133858268
 20
-0.2229055118110236
 30
0.0
 10
0.0075551181102362
 20
-0.2229055118110236
 30
0.0
 10
0.0101102362204724
 20
-0.2225748031496063
 30
0.0
 10
0.0113897637795276
 20
-0.2218779527559055
 30
0.0
 10
0.0113897637795276
 20
-0.2218779527559055
 30
0.0
 10
0.0126653543307087
 20
-0.2212125984251969
 30
0.0
 10
0.0136653543307087
 20
-0.2201299212598425
 30
0.0
 10
0.0143622047244094
 20
-0.2186299212598425
 30
0.0
 10
0.0143622047244094
 20
-0.2186299212598425
 30
0.0
 10
0.0150551181102362
 20
-0.2171299212598425
 30
0.0
 10
0.0154173228346457
 20
-0.2144055118110236
 30
0.0
 10
0.0154173228346457
 20
-0.2104606299212599
 30
0.0
 10
0.0154173228346457
 20
-0.2104606299212599
 30
0.0
 10
0.0154173228346457
 20
-0.2104606299212599
 30
0.0
 10
0.0154173228346457
 20
-0.132992125984252
 30
0.0
 10
0.0154173228346457
 20
-0.132992125984252
 30
0.0
 10
0.0154173228346457
 20
-0.132992125984252
 30
0.0
 10
0.0154173228346457
 20
-0.132992125984252
 30
0.0
 10
-0.0051653543307087
 20
-0.132992125984252
 30
0.0
 10
-0.0051653543307087
 20
-0.132992125984252
 30
0.0
 10
-0.0051653543307087
 20
-0.132992125984252
 30
0.0
 10
-0.0051653543307087
 20
-0.132992125984252
 30
0.0
 10
-0.0051653543307087
 20
-0.125992125984252
 30
0.0
 10
-0.0051653543307087
 20
-0.125992125984252
 30
0.0
 10
-0.0051653543307087
 20
-0.125992125984252
 30
0.0
 10
0.0060551181102362
 20
-0.1244094488188976
 30
0.0
 10
0.0154448818897638
 20
-0.1211574803149606
 30
0.0
 10
0.023
 20
-0.1162125984251969
 30
0.0
  0
SPLINE
  5
6E
330
1F
100
AcDbEntity
  8
LAYER_1
 62
   250
100
AcDbSpline
210
0.0
220
0.0
230
1.0
 70
    11
 71
     3
 72
    20
 73
    16
 74
     0
 42
0.0000000001
 43
0.0000000001
 40
0.0
 40
0.0
 40
0.0
 40
0.0
 40
0.25
 40
0.25
 40
0.25
 40
0.25
 40
0.5
 40
0.5
 40
0.5
 40
0.5
 40
0.75
 40
0.75
 40
0.75
 40
0.75
 40
1.0
 40
1.0
 40
1.0
 40
1.0
 10
0.0794724409448819
 20
-0.1832677165354331
 30
0.0
 10
0.0794724409448819
 20
-0.1832677165354331
 30
0.0
 10
0.1278070866141732
 20
-0.1832677165354331
 30
0.0
 10
0.1278070866141732
 20
-0.1832677165354331
 30
0.0
 10
0.1278070866141732
 20
-0.1832677165354331
 30
0.0
 10
0.1278070866141732
 20
-0.1832677165354331
 30
0.0
 10
0.1278070866141732
 20
-0.1933503937007874
 30
0.0
 10
0.1278070866141732
 20
-0.1933503937007874
 30
0.0
 10
0.1278070866141732
 20
-0.1933503937007874
 30
0.0
 10
0.1278070866141732
 20
-0.1933503937007874
 30
0.0
 10
0.0794724409448819
 20
-0.1933503937007874
 30
0.0
 10
0.0794724409448819
 20
-0.1933503937007874
 30
0.0
 10
0.0794724409448819
 20
-0.1933503937007874
 30
0.0
 10
0.0794724409448819
 20
-0.1933503937007874
 30
0.0
 10
0.0794724409448819
 20
-0.1832677165354331
 30
0.0
 10
0.0794724409448819
 20
-0.1832677165354331
 30
0.0
  0
SPLINE
  5
6F
330
1F
100
AcDbEntity
  8
LAYER_1
 62
   250
100
AcDbSpline
210
0.0
220
0.0
230
1.0
 70
    11
 71
     3
 72
    72
 73
    68
 74
     0
 42
0.0000000001
 43
0.0000000001
 40
0.0
 40
0.0
 40
0.0
 40
0.0
 40
0.0588235294117647
 40
0.0588235294117647
 40
0.0588235294117647
 40
0.0588235294117647
 40
0.1176470588235294
 40
0.1176470588235294
 40
0.1176470588235294
 40
0.1176470588235294
 40
0.1764705882352941
 40
0.1764705882352941
 40
0.1764705882352941
 40
0.1764705882352941
 40
0.2352941176470588
 40
0.2352941176470588
 40
0.2352941176470588
 40
0.2352941176470588
 40
0.2941176470588235
 40
0.2941176470588235
 40
0.2941176470588235
 40
0.2941176470588235
 40
0.3529411764705883
 40
0.3529411764705883
 40
0.3529411764705883
 40
0.3529411764705883
 40
0.411764705882353
 40
0.411764705882353
 40
0.411764705882353
 40
0.411764705882353
 40
0.4705882352941177
 40
0.4705882352941177
 40
0.4705882352941177
 40
0.4705882352941177
 40
0.5294117647058824
 40
0.5294117647058824
 40
0.5294117647058824
 40
0.5294117647058824
 40
0.5882352941176471
 40
0.5882352941176471
 40
0.5882352941176471
 40
0.5882352941176471
 40
0.6470588235294118
 40
0.6470588235294118
 40
0.6470588235294118
 40
0.6470588235294118
 40
0.7058823529411765
 40
0.7058823529411765
 40
0.7058823529411765
 40
0.7058823529411765
 40
0.7647058823529412
 40
0.7647058823529412
 40
0.7647058823529412
 40
0.7647058823529412
 40
0.823529411764706
 40
0.823529411764706
 40
0.823529411764706
 40
0.823529411764706
 40
0.8823529411764707
 40
0.8823529411764707
 40
0.8823529411764707
 40
0.8823529411764707
 40
0.9411764705882354
 40
0.9411764705882354
 40
0.9411764705882354
 40
0.9411764705882354
 40
1.0
 40
1.0
 40
1.0
 40
1.0
 10
0.193
 20
-0.1162125984251969
 30
0.0
 10
0.193
 20
-0.1162125984251969
 30
0.0
 10
0.1990826771653543
 20
-0.1162125984251969
 30
0.0
 10
0.1990826771653543
 20
-0.1162125984251969
 30
0.0
 10
0.1990826771653543
 20
-0.1162125984251969
 30
0.0
 10
0.1990826771653543
 20
-0.1162125984251969
 30
0.0
 10
0.1990826771653543
 20
-0.2104606299212599
 30
0.0
 10
0.1990826771653543
 20
-0.2104606299212599
 30
0.0
 10
0.1990826771653543
 20
-0.2104606299212599
 30
0.0
 10
0.1990826771653543
 20
-0.2149055118110236
 30
0.0
 10
0.1993897637795276
 20
-0.2177677165354331
 30
0.0
 10
0.1999448818897638
 20
-0.2190472440944882
 30
0.0
 10
0.1999448818897638
 20
-0.2190472440944882
 30
0.0
 10
0.2005275590551181
 20
-0.2203228346456693
 30
0.0
 10
0.2014448818897638
 20
-0.2212677165354331
 30
0.0
 10
0.202748031496063
 20
-0.2219330708661418
 30
0.0
 10
0.202748031496063
 20
-0.2219330708661418
 30
0.0
 10
0.2040551181102362
 20
-0.2225748031496063
 30
0.0
 10
0.2066377952755906
 20
-0.2229055118110236
 30
0.0
 10
0.2105
 20
-0.2229055118110236
 30
0.0
 10
0.2105
 20
-0.2229055118110236
 30
0.0
 10
0.2105
 20
-0.2229055118110236
 30
0.0
 10
0.2184724409448819
 20
-0.2229055118110236
 30
0.0
 10
0.2184724409448819
 20
-0.2229055118110236
 30
0.0
 10
0.2184724409448819
 20
-0.2229055118110236
 30
0.0
 10
0.2184724409448819
 20
-0.2229055118110236
 30
0.0
 10
0.2184724409448819
 20
-0.229740157480315
 30
0.0
 10
0.2184724409448819
 20
-0.229740157480315
 30
0.0
 10
0.2184724409448819
 20
-0.229740157480315
 30
0.0
 10
0.2184724409448819
 20
-0.229740157480315
 30
0.0
 10
0.1648346456692914
 20
-0.229740157480315
 30
0.0
 10
0.1648346456692914
 20
-0.229740157480315
 30
0.0
 10
0.1648346456692914
 20
-0.229740157480315
 30
0.0
 10
0.1648346456692914
 20
-0.229740157480315
 30
0.0
 10
0.1648346456692914
 20
-0.2229055118110236
 30
0.0
 10
0.1648346456692914
 20
-0.2229055118110236
 30
0.0
 10
0.1648346456692914
 20
-0.2229055118110236
 30
0.0
 10
0.1648346456692914
 20
-0.2229055118110236
 30
0.0
 10
0.1736929133858268
 20
-0.2229055118110236
 30
0.0
 10
0.1736929133858268
 20
-0.2229055118110236
 30
0.0
 10
0.1736929133858268
 20
-0.2229055118110236
 30
0.0
 10
0.1775551181102362
 20
-0.2229055118110236
 30
0.0
 10
0.1801102362204725
 20
-0.2225748031496063
 30
0.0
 10
0.1813897637795276
 20
-0.2218779527559055
 30
0.0
 10
0.1813897637795276
 20
-0.2218779527559055
 30
0.0
 10
0.1826653543307087
 20
-0.2212125984251969
 30
0.0
 10
0.1836653543307087
 20
-0.2201299212598425
 30
0.0
 10
0.1843622047244095
 20
-0.2186299212598425
 30
0.0
 10
0.1843622047244095
 20
-0.2186299212598425
 30
0.0
 10
0.1850551181102362
 20
-0.2171299212598425
 30
0.0
 10
0.1854173228346457
 20
-0.2144055118110236
 30
0.0
 10
0.1854173228346457
 20
-0.2104606299212599
 30
0.0
 10
0.1854173228346457
 20
-0.2104606299212599
 30
0.0
 10
0.1854173228346457
 20
-0.2104606299212599
 30
0.0
 10
0.1854173228346457
 20
-0.132992125984252
 30
0.0
 10
0.1854173228346457
 20
-0.132992125984252
 30
0.0
 10
0.1854173228346457
 20
-0.132992125984252
 30
0.0
 10
0.1854173228346457
 20
-0.132992125984252
 30
0.0
 10
0.1648346456692914
 20
-0.132992125984252
 30
0.0
 10
0.1648346456692914
 20
-0.132992125984252
 30
0.0
 10
0.1648346456692914
 20
-0.132992125984252
 30
0.0
 10
0.1648346456692914
 20
-0.132992125984252
 30
0.0
 10
0.1648346456692914
 20
-0.125992125984252
 30
0.0
 10
0.1648346456692914
 20
-0.125992125984252
 30
0.0
 10
0.1648346456692914
 20
-0.125992125984252
 30
0.0
 10
0.1760551181102362
 20
-0.1244094488188976
 30
0.0
 10
0.1854448818897638
 20
-0.1211574803149606
 30
0.0
 10
0.193
 20
-0.1162125984251969
 30
0.0
  0
SPLINE
  5
70
330
1F
100
AcDbEntity
  8
LAYER_1
 62
   250
100
AcDbSpline
210
0.0
220
0.0
230
1.0
 70
    11
 71
     3
 72
    20
 73
    16
 74
     0
 42
0.0000000001
 43
0.0000000001
 40
0.0
 40
0.0
 40
0.0
 40
0.0
 40
0.25
 40
0.25
 40
0.25
 40
0.25
 40
0.5
 40
0.5
 40
0.5
 40
0.5
 40
0.75
 40
0.75
 40
0.75
 40
0.75
 40
1.0
 40
1.0
 40
1.0
 40
1.0
 10
0.3218346456692914
 20
-0.1103503937007874
 30
0.0
 10
0.3218346456692914
 20
-0.1103503937007874
 30
0.0
 10
0.266251968503937
 20
-0.2660472440944882
 30
0.0
 10
0.266251968503937
 20
-0.2660472440944882
 30
0.0
 10
0.266251968503937
 20
-0.2660472440944882
 30
0.0
 10
0.266251968503937
 20
-0.2660472440944882
 30
0.0
 10
0.2541968503937008
 20
-0.2660472440944882
 30
0.0
 10
0.2541968503937008
 20
-0.2660472440944882
 30
0.0
 10
0.2541968503937008
 20
-0.2660472440944882
 30
0.0
 10
0.2541968503937008
 20
-0.2660472440944882
 30
0.0
 10
0.3094448818897638
 20
-0.1103503937007874
 30
0.0
 10
0.3094448818897638
 20
-0.1103503937007874
 30
0.0
 10
0.3094448818897638
 20
-0.1103503937007874
 30
0.0
 10
0.3094448818897638
 20
-0.1103503937007874
 30
0.0
 10
0.3218346456692914
 20
-0.1103503937007874
 30
0.0
 10
0.3218346456692914
 20
-0.1103503937007874
 30
0.0
  0
SPLINE
  5
71
330
1F
100
AcDbEntity
  8
LAYER_1
 62
   250
100
AcDbSpline
210
0.0
220
0.0
230
1.0
 70
    11
 71
     3
 72
   136
 73
   132
 74
     0
 42
0.0000000001
 43
0.0000000001
 40
0.0
 40
0.0
 40
0.0
 40
0.0
 40
0.0303030303030303
 40
0.0303030303030303
 40
0.0303030303030303
 40
0.0303030303030303
 40
0.0606060606060606
 40
0.0606060606060606
 40
0.0606060606060606
 40
0.0606060606060606
 40
0.0909090909090909
 40
0.0909090909090909
 40
0.0909090909090909
 40
0.0909090909090909
 40
0.1212121212121212
 40
0.1212121212121212
 40
0.1212121212121212
 40
0.1212121212121212
 40
0.1515151515151515
 40
0.1515151515151515
 40
0.1515151515151515
 40
0.1515151515151515
 40
0.1818181818181818
 40
0.1818181818181818
 40
0.1818181818181818
 40
0.1818181818181818
 40
0.2121212121212121
 40
0.2121212121212121
 40
0.2121212121212121
 40
0.2121212121212121
 40
0.2424242424242424
 40
0.2424242424242424
 40
0.2424242424242424
 40
0.2424242424242424
 40
0.2727272727272727
 40
0.2727272727272727
 40
0.2727272727272727
 40
0.2727272727272727
 40
0.303030303030303
 40
0.303030303030303
 40
0.303030303030303
 40
0.303030303030303
 40
0.3333333333333333
 40
0.3333333333333333
 40
0.3333333333333333
 40
0.3333333333333333
 40
0.3636363636363635
 40
0.3636363636363635
 40
0.3636363636363635
 40
0.3636363636363635
 40
0.3939393939393938
 40
0.3939393939393938
 40
0.3939393939393938
 40
0.3939393939393938
 40
0.4242424242424241
 40
0.4242424242424241
 40
0.4242424242424241
 40
0.4242424242424241
 40
0.4545454545454544
 40
0.4545454545454544
 40
0.4545454545454544
 40
0.4545454545454544
 40
0.4848484848484846
 40
0.4848484848484846
 40
0.4848484848484846
 40
0.4848484848484846
 40
0.5151515151515149
 40
0.5151515151515149
 40
0.5151515151515149
 40
0.5151515151515149
 40
0.5454545454545452
 40
0.5454545454545452
 40
0.5454545454545452
 40
0.5454545454545452
 40
0.5757575757575755
 40
0.5757575757575755
 40
0.5757575757575755
 40
0.5757575757575755
 40
0.6060606060606057
 40
0.6060606060606057
 40
0.6060606060606057
 40
0.6060606060606057
 40
0.636363636363636
 40
0.636363636363636
 40
0.636363636363636
 40
0.636363636363636
 40
0.6666666666666663
 40
0.6666666666666663
 40
0.6666666666666663
 40
0.6666666666666663
 40
0.6969696969696966
 40
0.6969696969696966
 40
0.6969696969696966
 40
0.6969696969696966
 40
0.7272727272727269
 40
0.7272727272727269
 40
0.7272727272727269
 40
0.7272727272727269
 40
0.7575757575757571
 40
0.7575757575757571
 40
0.7575757575757571
 40
0.7575757575757571
 40
0.7878787878787874
 40
0.7878787878787874
 40
0.7878787878787874
 40
0.7878787878787874
 40
0.8181818181818177
 40
0.8181818181818177
 40
0.8181818181818177
 40
0.8181818181818177
 40
0.848484848484848
 40
0.848484848484848
 40
0.848484848484848
 40
0.848484848484848
 40
0.8787878787878782
 40
0.8787878787878782
 40
0.8787878787878782
 40
0.8787878787878782
 40
0.9090909090909085
 40
0.9090909090909085
 40
0.9090909090909085
 40
0.9090909090909085
 40
0.9393939393939388
 40
0.9393939393939388
 40
0.9393939393939388
 40
0.9393939393939388
 40
0.9696969696969691
 40
0.9696969696969691
 40
0.9696969696969691
 40
0.9696969696969691
 40
1.0
 40
1.0
 40
1.0
 40
1.0
 10
0.3592795275590551
 20
-0.1590196850393701
 30
0.0
 10
0.3592795275590551
 20
-0.1590196850393701
 30
0.0
 10
0.3513897637795276
 20
-0.159992125984252
 30
0.0
 10
0.3513897637795276
 20
-0.159992125984252
 30
0.0
 10
0.3513897637795276
 20
-0.159992125984252
 30
0.0
 10
0.3509448818897638
 20
-0.1561574803149606
 30
0.0
 10
0.3507244094488189
 20
-0.152992125984252
 30
0.0
 10
0.3507244094488189
 20
-0.1505472440944882
 30
0.0
 10
0.3507244094488189
 20
-0.1505472440944882
 30
0.0
 10
0.3507244094488189
 20
-0.1441574803149607
 30
0.0
 10
0.3524724409448819
 20
-0.1381023622047244
 30
0.0
 10
0.3559448818897638
 20
-0.1324094488188976
 30
0.0
 10
0.3559448818897638
 20
-0.1324094488188976
 30
0.0
 10
0.3594173228346457
 20
-0.1267125984251969
 30
0.0
 10
0.364251968503937
 20
-0.1222677165354331
 30
0.0
 10
0.3704724409448819
 20
-0.1190748031496063
 30
0.0
 10
0.3704724409448819
 20
-0.1190748031496063
 30
0.0
 10
0.3766653543307087
 20
-0.1158503937007874
 30
0.0
 10
0.3838070866141732
 20
-0.1142677165354331
 30
0.0
 10
0.3918346456692913
 20
-0.1142677165354331
 30
0.0
 10
0.3918346456692913
 20
-0.1142677165354331
 30
0.0
 10
0.3995826771653543
 20
-0.1142677165354331
 30
0.0
 10
0.4063897637795276
 20
-0.1157677165354331
 30
0.0
 10
0.412251968503937
 20
-0.1187677165354331
 30
0.0
 10
0.412251968503937
 20
-0.1187677165354331
 30
0.0
 10
0.4181102362204724
 20
-0.1217952755905512
 30
0.0
 10
0.4225826771653544
 20
-0.1259094488188977
 30
0.0
 10
0.4257204724409449
 20
-0.1311574803149606
 30
0.0
 10
0.4257204724409449
 20
-0.1311574803149606
 30
0.0
 10
0.4288346456692914
 20
-0.1363779527559055
 30
0.0
 10
0.4303897637795276
 20
-0.1423503937007874
 30
0.0
 10
0.4303897637795276
 20
-0.1491023622047244
 30
0.0
 10
0.4303897637795276
 20
-0.1491023622047244
 30
0.0
 10
0.4303897637795276
 20
-0.1547952755905512
 30
0.0
 10
0.4293897637795276
 20
-0.1600748031496063
 30
0.0
 10
0.4273346456692914
 20
-0.1649055118110236
 30
0.0
 10
0.4273346456692914
 20
-0.1649055118110236
 30
0.0
 10
0.4253070866141733
 20
-0.1697677165354331
 30
0.0
 10
0.4220275590551181
 20
-0.1746850393700788
 30
0.0
 10
0.4175275590551181
 20
-0.1796023622047244
 30
0.0
 10
0.4175275590551181
 20
-0.1796023622047244
 30
0.0
 10
0.4141653543307087
 20
-0.1832952755905512
 30
0.0
 10
0.4073622047244095
 20
-0.1889330708661418
 30
0.0
 10
0.3971102362204725
 20
-0.1965472440944882
 30
0.0
 10
0.3971102362204725
 20
-0.1965472440944882
 30
0.0
 10
0.3841968503937008
 20
-0.2061850393700788
 30
0.0
 10
0.3743070866141732
 20
-0.2131850393700787
 30
0.0
 10
0.3674173228346457
 20
-0.2175472440944882
 30
0.0
 10
0.3674173228346457
 20
-0.2175472440944882
 30
0.0
 10
0.3674173228346457
 20
-0.2175472440944882
 30
0.0
 10
0.4097244094488189
 20
-0.2175472440944882
 30
0.0
 10
0.4097244094488189
 20
-0.2175472440944882
 30
0.0
 10
0.4097244094488189
 20
-0.2175472440944882
 30
0.0
 10
0.4147244094488189
 20
-0.2175472440944882
 30
0.0
 10
0.4179724409448819
 20
-0.2170748031496063
 30
0.0
 10
0.4195
 20
-0.2161574803149606
 30
0.0
 10
0.4195
 20
-0.2161574803149606
 30
0.0
 10
0.4216102362204725
 20
-0.2149606299212599
 30
0.0
 10
0.4230551181102362
 20
-0.2121850393700787
 30
0.0
 10
0.4238070866141733
 20
-0.2078503937007874
 30
0.0
 10
0.4238070866141733
 20
-0.2078503937007874
 30
0.0
 10
0.4238070866141733
 20
-0.2078503937007874
 30
0.0
 10
0.4245275590551181
 20
-0.2032125984251968
 30
0.0
 10
0.4245275590551181
 20
-0.2032125984251968
 30
0.0
 10
0.4245275590551181
 20
-0.2032125984251968
 30
0.0
 10
0.4245275590551181
 20
-0.2032125984251968
 30
0.0
 10
0.4314448818897638
 20
-0.2032125984251968
 30
0.0
 10
0.4314448818897638
 20
-0.2032125984251968
 30
0.0
 10
0.4314448818897638
 20
-0.2032125984251968
 30
0.0
 10
0.4314448818897638
 20
-0.2032125984251968
 30
0.0
 10
0.4259173228346457
 20
-0.2337952755905512
 30
0.0
 10
0.4259173228346457
 20
-0.2337952755905512
 30
0.0
 10
0.4259173228346457
 20
-0.2337952755905512
 30
0.0
 10
0.4259173228346457
 20
-0.2337952755905512
 30
0.0
 10
0.4207244094488189
 20
-0.2337952755905512
 30
0.0
 10
0.4207244094488189
 20
-0.2337952755905512
 30
0.0
 10
0.4207244094488189
 20
-0.2337952755905512
 30
0.0
 10
0.4207244094488189
 20
-0.2337952755905512
 30
0.0
 10
0.4198070866141733
 20
-0.229740157480315
 30
0.0
 10
0.4198070866141733
 20
-0.229740157480315
 30
0.0
 10
0.4198070866141733
 20
-0.229740157480315
 30
0.0
 10
0.4198070866141733
 20
-0.229740157480315
 30
0.0
 10
0.3486968503937008
 20
-0.229740157480315
 30
0.0
 10
0.3486968503937008
 20
-0.229740157480315
 30
0.0
 10
0.3486968503937008
 20
-0.229740157480315
 30
0.0
 10
0.3486968503937008
 20
-0.229740157480315
 30
0.0
 10
0.3486968503937008
 20
-0.2229055118110236
 30
0.0
 10
0.3486968503937008
 20
-0.2229055118110236
 30
0.0
 10
0.3486968503937008
 20
-0.2229055118110236
 30
0.0
 10
0.3486968503937008
 20
-0.2229055118110236
 30
0.0
 10
0.3617244094488189
 20
-0.2130472440944882
 30
0.0
 10
0.3617244094488189
 20
-0.2130472440944882
 30
0.0
 10
0.3617244094488189
 20
-0.2130472440944882
 30
0.0
 10
0.3715826771653544
 20
-0.205740157480315
 30
0.0
 10
0.3788346456692914
 20
-0.2001299212598425
 30
0.0
 10
0.3834448818897638
 20
-0.1962125984251969
 30
0.0
 10
0.3834448818897638
 20
-0.1962125984251969
 30
0.0
 10
0.3921653543307087
 20
-0.1888228346456693
 30
0.0
 10
0.398751968503937
 20
-0.1825196850393701
 30
0.0
 10
0.4031653543307087
 20
-0.1772952755905512
 30
0.0
 10
0.4031653543307087
 20
-0.1772952755905512
 30
0.0
 10
0.4075826771653544
 20
-0.1720472440944882
 30
0.0
 10
0.4106377952755906
 20
-0.1673228346456693
 30
0.0
 10
0.4122795275590551
 20
-0.1631299212598425
 30
0.0
 10
0.4122795275590551
 20
-0.1631299212598425
 30
0.0
 10
0.4139448818897638
 20
-0.1589370078740158
 30
0.0
 10
0.4147795275590551
 20
-0.1545196850393701
 30
0.0
 10
0.4147795275590551
 20
-0.1499055118110236
 30
0.0
 10
0.4147795275590551
 20
-0.1499055118110236
 30
0.0
 10
0.4147795275590551
 20
-0.1422677165354331
 30
0.0
 10
0.4123070866141733
 20
-0.135992125984252
 30
0.0
 10
0.4074173228346457
 20
-0.1311023622047244
 30
0.0
 10
0.4074173228346457
 20
-0.1311023622047244
 30
0.0
 10
0.4025
 20
-0.1262125984251969
 30
0.0
 10
0.3961102362204725
 20
-0.1237952755905512
 30
0.0
 10
0.388251968503937
 20
-0.1237952755905512
 30
0.0
 10
0.388251968503937
 20
-0.1237952755905512
 30
0.0
 10
0.3826102362204725
 20
-0.1237952755905512
 30
0.0
 10
0.3775551181102362
 20
-0.124992125984252
 30
0.0
 10
0.3731377952755905
 20
-0.1274370078740157
 30
0.0
 10
0.3731377952755905
 20
-0.1274370078740157
 30
0.0
 10
0.3687244094488189
 20
-0.1298779527559055
 30
0.0
 10
0.365251968503937
 20
-0.1332952755905512
 30
0.0
 10
0.3626968503937008
 20
-0.1377125984251969
 30
0.0
 10
0.3626968503937008
 20
-0.1377125984251969
 30
0.0
 10
0.3601377952755906
 20
-0.1421023622047244
 30
0.0
 10
0.3588622047244094
 20
-0.1468503937007874
 30
0.0
 10
0.3588622047244094
 20
-0.1519370078740158
 30
0.0
 10
0.3588622047244094
 20
-0.1519370078740158
 30
0.0
 10
0.3588622047244094
 20
-0.1538503937007874
 30
0.0
 10
0.359
 20
-0.1562125984251969
 30
0.0
 10
0.3592795275590551
 20
-0.1590196850393701
 30
0.0
  0
SPLINE
  5
72
330
1F
100
AcDbEntity
  8
LAYER_1
 62
   250
100
AcDbSpline
210
0.0
220
0.0
230
1.0
 70
    11
 71
     3
 72
    60
 73
    56
 74
     0
 42
0.0000000001
 43
0.0000000001
 40
0.0
 40
0.0
 40
0.0
 40
0.0
 40
0.0714285714285714
 40
0.0714285714285714
 40
0.0714285714285714
 40
0.0714285714285714
 40
0.1428571428571429
 40
0.1428571428571429
 40
0.1428571428571429
 40
0.1428571428571429
 40
0.2142857142857143
 40
0.2142857142857143
 40
0.2142857142857143
 40
0.2142857142857143
 40
0.2857142857142857
 40
0.2857142857142857
 40
0.2857142857142857
 40
0.2857142857142857
 40
0.3571428571428571
 40
0.3571428571428571
 40
0.3571428571428571
 40
0.3571428571428571
 40
0.4285714285714285
 40
0.4285714285714285
 40
0.4285714285714285
 40
0.4285714285714285
 40
0.4999999999999999
 40
0.4999999999999999
 40
0.4999999999999999
 40
0.4999999999999999
 40
0.5714285714285713
 40
0.5714285714285713
 40
0.5714285714285713
 40
0.5714285714285713
 40
0.6428571428571427
 40
0.6428571428571427
 40
0.6428571428571427
 40
0.6428571428571427
 40
0.7142857142857141
 40
0.7142857142857141
 40
0.7142857142857141
 40
0.7142857142857141
 40
0.7857142857142855
 40
0.7857142857142855
 40
0.7857142857142855
 40
0.7857142857142855
 40
0.8571428571428569
 40
0.8571428571428569
 40
0.8571428571428569
 40
0.8571428571428569
 40
0.9285714285714283
 40
0.9285714285714283
 40
0.9285714285714283
 40
0.9285714285714283
 40
1.0
 40
1.0
 40
1.0
 40
1.0
 10
0.4538346456692914
 20
-0.1582952755905512
 30
0.0
 10
0.4538346456692914
 20
-0.1582952755905512
 30
0.0
 10
0.4494448818897638
 20
-0.1529055118110236
 30
0.0
 10
0.4494448818897638
 20
-0.1529055118110236
 30
0.0
 10
0.4494448818897638
 20
-0.1529055118110236
 30
0.0
 10
0.4605590551181102
 20
-0.1438503937007874
 30
0.0
 10
0.4661417322834646
 20
-0.1362952755905512
 30
0.0
 10
0.4661417322834646
 20
-0.1302125984251969
 30
0.0
 10
0.4661417322834646
 20
-0.1302125984251969
 30
0.0
 10
0.4661417322834646
 20
-0.1295196850393701
 30
0.0
 10
0.4660866141732284
 20
-0.1286299212598425
 30
0.0
 10
0.4659724409448819
 20
-0.1276023622047244
 30
0.0
 10
0.4659724409448819
 20
-0.1276023622047244
 30
0.0
 10
0.4650590551181102
 20
-0.127992125984252
 30
0.0
 10
0.4641417322834646
 20
-0.1282952755905512
 30
0.0
 10
0.4632795275590552
 20
-0.128492125984252
 30
0.0
 10
0.4632795275590552
 20
-0.128492125984252
 30
0.0
 10
0.4624173228346457
 20
-0.1287125984251969
 30
0.0
 10
0.4616141732283465
 20
-0.1288228346456693
 30
0.0
 10
0.4608346456692913
 20
-0.1288228346456693
 30
0.0
 10
0.4608346456692913
 20
-0.1288228346456693
 30
0.0
 10
0.4582244094488189
 20
-0.1288228346456693
 30
0.0
 10
0.4561417322834646
 20
-0.127992125984252
 30
0.0
 10
0.4545866141732284
 20
-0.1262952755905512
 30
0.0
 10
0.4545866141732284
 20
-0.1262952755905512
 30
0.0
 10
0.453
 20
-0.1246299212598425
 30
0.0
 10
0.4522244094488189
 20
-0.122492125984252
 30
0.0
 10
0.4522244094488189
 20
-0.1198779527559055
 30
0.0
 10
0.4522244094488189
 20
-0.1198779527559055
 30
0.0
 10
0.4522244094488189
 20
-0.1173228346456693
 30
0.0
 10
0.4531692913385827
 20
-0.1151023622047244
 30
0.0
 10
0.4550590551181102
 20
-0.1132125984251969
 30
0.0
 10
0.4550590551181102
 20
-0.1132125984251969
 30
0.0
 10
0.4569724409448819
 20
-0.1112952755905512
 30
0.0
 10
0.459251968503937
 20
-0.1103503937007874
 30
0.0
 10
0.4618897637795276
 20
-0.1103503937007874
 30
0.0
 10
0.4618897637795276
 20
-0.1103503937007874
 30
0.0
 10
0.4655866141732284
 20
-0.1103503937007874
 30
0.0
 10
0.468751968503937
 20
-0.1118228346456693
 30
0.0
 10
0.4713897637795276
 20
-0.1147952755905512
 30
0.0
 10
0.4713897637795276
 20
-0.1147952755905512
 30
0.0
 10
0.474
 20
-0.117740157480315
 30
0.0
 10
0.4753346456692913
 20
-0.1215472440944882
 30
0.0
 10
0.4753346456692913
 20
-0.1262125984251969
 30
0.0
 10
0.4753346456692913
 20
-0.1262125984251969
 30
0.0
 10
0.4753346456692913
 20
-0.1292677165354331
 30
0.0
 10
0.4746968503937008
 20
-0.1324645669291339
 30
0.0
 10
0.4734448818897638
 20
-0.1357952755905512
 30
0.0
 10
0.4734448818897638
 20
-0.1357952755905512
 30
0.0
 10
0.4721968503937008
 20
-0.1391299212598425
 30
0.0
 10
0.4703897637795276
 20
-0.1422125984251969
 30
0.0
 10
0.468
 20
-0.1450748031496063
 30
0.0
 10
0.468
 20
-0.1450748031496063
 30
0.0
 10
0.4656141732283465
 20
-0.1479055118110236
 30
0.0
 10
0.4608897637795276
 20
-0.1523228346456693
 30
0.0
 10
0.4538346456692914
 20
-0.1582952755905512
 30
0.0
  0
SPLINE
  5
73
330
1F
100
AcDbEntity
  8
LAYER_1
 62
   250
100
AcDbSpline
210
0.0
220
0.0
230
1.0
 70
    11
 71
     3
 72
    60
 73
    56
 74
     0
 42
0.0000000001
 43
0.0000000001
 40
0.0
 40
0.0
 40
0.0
 40
0.0
 40
0.0714285714285714
 40
0.0714285714285714
 40
0.0714285714285714
 40
0.0714285714285714
 40
0.1428571428571429
 40
0.1428571428571429
 40
0.1428571428571429
 40
0.1428571428571429
 40
0.2142857142857143
 40
0.2142857142857143
 40
0.2142857142857143
 40
0.2142857142857143
 40
0.2857142857142857
 40
0.2857142857142857
 40
0.2857142857142857
 40
0.2857142857142857
 40
0.3571428571428571
 40
0.3571428571428571
 40
0.3571428571428571
 40
0.3571428571428571
 40
0.4285714285714285
 40
0.4285714285714285
 40
0.4285714285714285
 40
0.4285714285714285
 40
0.4999999999999999
 40
0.4999999999999999
 40
0.4999999999999999
 40
0.4999999999999999
 40
0.5714285714285713
 40
0.5714285714285713
 40
0.5714285714285713
 40
0.5714285714285713
 40
0.6428571428571427
 40
0.6428571428571427
 40
0.6428571428571427
 40
0.6428571428571427
 40
0.7142857142857141
 40
0.7142857142857141
 40
0.7142857142857141
 40
0.7142857142857141
 40
0.7857142857142855
 40
0.7857142857142855
 40
0.7857142857142855
 40
0.7857142857142855
 40
0.8571428571428569
 40
0.8571428571428569
 40
0.8571428571428569
 40
0.8571428571428569
 40
0.9285714285714283
 40
0.9285714285714283
 40
0.9285714285714283
 40
0.9285714285714283
 40
1.0
 40
1.0
 40
1.0
 40
1.0
 10
0.4828897637795276
 20
-0.1582952755905512
 30
0.0
 10
0.4828897637795276
 20
-0.1582952755905512
 30
0.0
 10
0.4785
 20
-0.1529055118110236
 30
0.0
 10
0.4785
 20
-0.1529055118110236
 30
0.0
 10
0.4785
 20
-0.1529055118110236
 30
0.0
 10
0.4896141732283465
 20
-0.1438503937007874
 30
0.0
 10
0.4951968503937008
 20
-0.1362952755905512
 30
0.0
 10
0.4951968503937008
 20
-0.1302125984251969
 30
0.0
 10
0.4951968503937008
 20
-0.1302125984251969
 30
0.0
 10
0.4951968503937008
 20
-0.1295196850393701
 30
0.0
 10
0.4951417322834646
 20
-0.1286299212598425
 30
0.0
 10
0.4950275590551181
 20
-0.1276023622047244
 30
0.0
 10
0.4950275590551181
 20
-0.1276023622047244
 30
0.0
 10
0.4941141732283465
 20
-0.127992125984252
 30
0.0
 10
0.4931968503937008
 20
-0.1282952755905512
 30
0.0
 10
0.4923346456692914
 20
-0.128492125984252
 30
0.0
 10
0.4923346456692914
 20
-0.128492125984252
 30
0.0
 10
0.4914724409448819
 20
-0.1287125984251969
 30
0.0
 10
0.4906417322834646
 20
-0.1288228346456693
 30
0.0
 10
0.4898070866141733
 20
-0.1288228346456693
 30
0.0
 10
0.4898070866141733
 20
-0.1288228346456693
 30
0.0
 10
0.487251968503937
 20
-0.1288228346456693
 30
0.0
 10
0.4851968503937008
 20
-0.127992125984252
 30
0.0
 10
0.4836417322834646
 20
-0.1262952755905512
 30
0.0
 10
0.4836417322834646
 20
-0.1262952755905512
 30
0.0
 10
0.4820590551181103
 20
-0.1246299212598425
 30
0.0
 10
0.4812795275590551
 20
-0.122492125984252
 30
0.0
 10
0.4812795275590551
 20
-0.1198779527559055
 30
0.0
 10
0.4812795275590551
 20
-0.1198779527559055
 30
0.0
 10
0.4812795275590551
 20
-0.1173228346456693
 30
0.0
 10
0.4822244094488189
 20
-0.1151023622047244
 30
0.0
 10
0.4841141732283465
 20
-0.1132125984251969
 30
0.0
 10
0.4841141732283465
 20
-0.1132125984251969
 30
0.0
 10
0.486
 20
-0.1112952755905512
 30
0.0
 10
0.4883070866141733
 20
-0.1103503937007874
 30
0.0
 10
0.4909448818897638
 20
-0.1103503937007874
 30
0.0
 10
0.4909448818897638
 20
-0.1103503937007874
 30
0.0
 10
0.4946417322834646
 20
-0.1103503937007874
 30
0.0
 10
0.4978070866141732
 20
-0.1118228346456693
 30
0.0
 10
0.5004448818897638
 20
-0.1147952755905512
 30
0.0
 10
0.5004448818897638
 20
-0.1147952755905512
 30
0.0
 10
0.5030551181102363
 20
-0.117740157480315
 30
0.0
 10
0.5043897637795276
 20
-0.1215472440944882
 30
0.0
 10
0.5043897637795276
 20
-0.1262125984251969
 30
0.0
 10
0.5043897637795276
 20
-0.1262125984251969
 30
0.0
 10
0.5043897637795276
 20
-0.1292677165354331
 30
0.0
 10
0.503751968503937
 20
-0.1324645669291339
 30
0.0
 10
0.5025000000000001
 20
-0.1357952755905512
 30
0.0
 10
0.5025000000000001
 20
-0.1357952755905512
 30
0.0
 10
0.5012519685039371
 20
-0.1391299212598425
 30
0.0
 10
0.4994448818897638
 20
-0.1422125984251969
 30
0.0
 10
0.4970590551181103
 20
-0.1450748031496063
 30
0.0
 10
0.4970590551181103
 20
-0.1450748031496063
 30
0.0
 10
0.4946692913385827
 20
-0.1479055118110236
 30
0.0
 10
0.4899448818897638
 20
-0.1523228346456693
 30
0.0
 10
0.4828897637795276
 20
-0.1582952755905512
 30
0.0
  0
SPLINE
  5
74
330
1F
100
AcDbEntity
  8
LAYER_1
 62
   250
100
AcDbSpline
210
0.0
220
0.0
230
1.0
 70
    11
 71
     3
 72
    76
 73
    72
 74
     0
 42
0.0000000001
 43
0.0000000001
 40
0.0
 40
0.0
 40
0.0
 40
0.0
 40
0.0555555555555556
 40
0.0555555555555556
 40
0.0555555555555556
 40
0.0555555555555556
 40
0.1111111111111111
 40
0.1111111111111111
 40
0.1111111111111111
 40
0.1111111111111111
 40
0.1666666666666667
 40
0.1666666666666667
 40
0.1666666666666667
 40
0.1666666666666667
 40
0.2222222222222222
 40
0.2222222222222222
 40
0.2222222222222222
 40
0.2222222222222222
 40
0.2777777777777778
 40
0.2777777777777778
 40
0.2777777777777778
 40
0.2777777777777778
 40
0.3333333333333334
 40
0.3333333333333334
 40
0.3333333333333334
 40
0.3333333333333334
 40
0.388888888888889
 40
0.388888888888889
 40
0.388888888888889
 40
0.388888888888889
 40
0.4444444444444445
 40
0.4444444444444445
 40
0.4444444444444445
 40
0.4444444444444445
 40
0.5000000000000001
 40
0.5000000000000001
 40
0.5000000000000001
 40
0.5000000000000001
 40
0.5555555555555557
 40
0.5555555555555557
 40
0.5555555555555557
 40
0.5555555555555557
 40
0.6111111111111113
 40
0.6111111111111113
 40
0.6111111111111113
 40
0.6111111111111113
 40
0.6666666666666669
 40
0.6666666666666669
 40
0.6666666666666669
 40
0.6666666666666669
 40
0.7222222222222224
 40
0.7222222222222224
 40
0.7222222222222224
 40
0.7222222222222224
 40
0.777777777777778
 40
0.777777777777778
 40
0.777777777777778
 40
0.777777777777778
 40
0.8333333333333336
 40
0.8333333333333336
 40
0.8333333333333336
 40
0.8333333333333336
 40
0.8888888888888892
 40
0.8888888888888892
 40
0.8888888888888892
 40
0.8888888888888892
 40
0.9444444444444448
 40
0.9444444444444448
 40
0.9444444444444448
 40
0.9444444444444448
 40
1.0
 40
1.0
 40
1.0
 40
1.0
 10
-1.074385826771654
 20
-2.501074803149606
 30
0.0
 10
-1.074385826771654
 20
-2.501074803149606
 30
0.0
 10
-1.074385826771654
 20
-2.494322834645669
 30
0.0
 10
-1.074385826771654
 20
-2.494322834645669
 30
0.0
 10
-1.074385826771654
 20
-2.494322834645669
 30
0.0
 10
-1.070803149606299
 20
-2.494047244094488
 30
0.0
 10
-1.067358267716535
 20
-2.493405511811024
 30
0.0
 10
-1.063996062992126
 20
-2.492377952755906
 30
0.0
 10
-1.063996062992126
 20
-2.492377952755906
 30
0.0
 10
-1.060661417322835
 20
-2.491350393700788
 30
0.0
 10
-1.05694094488189
 20
-2.489712598425197
 30
0.0
 10
-1.052830708661417
 20
-2.487488188976378
 30
0.0
 10
-1.052830708661417
 20
-2.487488188976378
 30
0.0
 10
-1.052830708661417
 20
-2.487488188976378
 30
0.0
 10
-1.046885826771654
 20
-2.487488188976378
 30
0.0
 10
-1.046885826771654
 20
-2.487488188976378
 30
0.0
 10
-1.046885826771654
 20
-2.487488188976378
 30
0.0
 10
-1.046885826771654
 20
-2.487488188976378
 30
0.0
 10
-1.046885826771654
 20
-2.537129921259843
 30
0.0
 10
-1.046885826771654
 20
-2.537129921259843
 30
0.0
 10
-1.046885826771654
 20
-2.537129921259843
 30
0.0
 10
-1.042106299212599
 20
-2.533543307086614
 30
0.0
 10
-1.037188976377953
 20
-2.530877952755906
 30
0.0
 10
-1.032133858267717
 20
-2.529074803149606
 30
0.0
 10
-1.032133858267717
 20
-2.529074803149606
 30
0.0
 10
-1.027106299212599
 20
-2.527295275590551
 30
0.0
 10
-1.02194094488189
 20
-2.526405511811024
 30
0.0
 10
-1.016688976377953
 20
-2.526405511811024
 30
0.0
 10
-1.016688976377953
 20
-2.526405511811024
 30
0.0
 10
-1.010606299212598
 20
-2.526405511811024
 30
0.0
 10
-1.004996062992126
 20
-2.528015748031496
 30
0.0
 10
-0.9998307086614173
 20
-2.531267716535433
 30
0.0
 10
-0.9998307086614173
 20
-2.531267716535433
 30
0.0
 10
-0.9946929133858268
 20
-2.534515748031496
 30
0.0
 10
-0.9906338582677166
 20
-2.539129921259843
 30
0.0
 10
-0.9876614173228346
 20
-2.545074803149606
 30
0.0
 10
-0.9876614173228346
 20
-2.545074803149606
 30
0.0
 10
-0.984720472440945
 20
-2.551015748031496
 30
0.0
 10
-0.983248031496063
 20
-2.558015748031496
 30
0.0
 10
-0.983248031496063
 20
-2.566102362204724
 30
0.0
 10
-0.983248031496063
 20
-2.566102362204724
 30
0.0
 10
-0.983248031496063
 20
-2.578795275590551
 30
0.0
 10
-0.9869685039370079
 20
-2.589240157480315
 30
0.0
 10
-0.9943858267716536
 20
-2.597433070866142
 30
0.0
 10
-0.9943858267716536
 20
-2.597433070866142
 30
0.0
 10
-1.001275590551181
 20
-2.605043307086614
 30
0.0
 10
-1.010023622047244
 20
-2.608822834645669
 30
0.0
 10
-1.02057874015748
 20
-2.608822834645669
 30
0.0
 10
-1.02057874015748
 20
-2.608822834645669
 30
0.0
 10
-1.02694094488189
 20
-2.608822834645669
 30
0.0
 10
-1.032606299212598
 20
-2.607488188976378
 30
0.0
 10
-1.037606299212599
 20
-2.604850393700787
 30
0.0
 10
-1.037606299212599
 20
-2.604850393700787
 30
0.0
 10
-1.041303149606299
 20
-2.602877952755906
 30
0.0
 10
-1.044858267716535
 20
-2.599877952755906
 30
0.0
 10
-1.048330708661417
 20
-2.59582283464567
 30
0.0
 10
-1.048330708661417
 20
-2.59582283464567
 30
0.0
 10
-1.048330708661417
 20
-2.59582283464567
 30
0.0
 10
-1.052830708661417
 20
-2.606877952755906
 30
0.0
 10
-1.052830708661417
 20
-2.606877952755906
 30
0.0
 10
-1.052830708661417
 20
-2.606877952755906
 30
0.0
 10
-1.052830708661417
 20
-2.606877952755906
 30
0.0
 10
-1.060385826771654
 20
-2.606877952755906
 30
0.0
 10
-1.060385826771654
 20
-2.606877952755906
 30
0.0
 10
-1.060385826771654
 20
-2.606877952755906
 30
0.0
 10
-1.060385826771654
 20
-2.606877952755906
 30
0.0
 10
-1.060385826771654
 20
-2.501074803149606
 30
0.0
 10
-1.060385826771654
 20
-2.501074803149606
 30
0.0
 10
-1.060385826771654
 20
-2.501074803149606
 30
0.0
 10
-1.060385826771654
 20
-2.501074803149606
 30
0.0
 10
-1.074385826771654
 20
-2.501074803149606
 30
0.0
 10
-1.074385826771654
 20
-2.501074803149606
 30
0.0
  0
SPLINE
  5
75
330
1F
100
AcDbEntity
  8
LAYER_1
 62
   250
100
AcDbSpline
210
0.0
220
0.0
230
1.0
 70
    11
 71
     3
 72
    52
 73
    48
 74
     0
 42
0.0000000001
 43
0.0000000001
 40
0.0
 40
0.0
 40
0.0
 40
0.0
 40
0.0833333333333333
 40
0.0833333333333333
 40
0.0833333333333333
 40
0.0833333333333333
 40
0.1666666666666667
 40
0.1666666666666667
 40
0.1666666666666667
 40
0.1666666666666667
 40
0.25
 40
0.25
 40
0.25
 40
0.25
 40
0.3333333333333333
 40
0.3333333333333333
 40
0.3333333333333333
 40
0.3333333333333333
 40
0.4166666666666666
 40
0.4166666666666666
 40
0.4166666666666666
 40
0.4166666666666666
 40
0.4999999999999999
 40
0.4999999999999999
 40
0.4999999999999999
 40
0.4999999999999999
 40
0.5833333333333333
 40
0.5833333333333333
 40
0.5833333333333333
 40
0.5833333333333333
 40
0.6666666666666666
 40
0.6666666666666666
 40
0.6666666666666666
 40
0.6666666666666666
 40
0.75
 40
0.75
 40
0.75
 40
0.75
 40
0.8333333333333334
 40
0.8333333333333334
 40
0.8333333333333334
 40
0.8333333333333334
 40
0.9166666666666667
 40
0.9166666666666667
 40
0.9166666666666667
 40
0.9166666666666667
 40
1.0
 40
1.0
 40
1.0
 40
1.0
 10
-1.046885826771654
 20
-2.545185039370079
 30
0.0
 10
-1.046885826771654
 20
-2.545185039370079
 30
0.0
 10
-1.046885826771654
 20
-2.576515748031496
 30
0.0
 10
-1.046885826771654
 20
-2.576515748031496
 30
0.0
 10
-1.046885826771654
 20
-2.576515748031496
 30
0.0
 10
-1.046885826771654
 20
-2.58146062992126
 30
0.0
 10
-1.046523622047244
 20
-2.584905511811024
 30
0.0
 10
-1.045830708661417
 20
-2.586905511811024
 30
0.0
 10
-1.045830708661417
 20
-2.586905511811024
 30
0.0
 10
-1.045106299212599
 20
-2.588877952755906
 30
0.0
 10
-1.043661417322835
 20
-2.590905511811024
 30
0.0
 10
-1.041468503937008
 20
-2.592988188976378
 30
0.0
 10
-1.041468503937008
 20
-2.592988188976378
 30
0.0
 10
-1.039275590551181
 20
-2.59509842519685
 30
0.0
 10
-1.036688976377953
 20
-2.596740157480315
 30
0.0
 10
-1.033748031496063
 20
-2.59796062992126
 30
0.0
 10
-1.033748031496063
 20
-2.59796062992126
 30
0.0
 10
-1.030775590551181
 20
-2.599185039370079
 30
0.0
 10
-1.027716535433071
 20
-2.599795275590551
 30
0.0
 10
-1.02457874015748
 20
-2.599795275590551
 30
0.0
 10
-1.02457874015748
 20
-2.599795275590551
 30
0.0
 10
-1.019748031496063
 20
-2.599795275590551
 30
0.0
 10
-1.015358267716535
 20
-2.598515748031496
 30
0.0
 10
-1.011385826771654
 20
-2.59596062992126
 30
0.0
 10
-1.011385826771654
 20
-2.59596062992126
 30
0.0
 10
-1.00744094488189
 20
-2.593433070866142
 30
0.0
 10
-1.004330708661417
 20
-2.589657480314961
 30
0.0
 10
-1.002051181102362
 20
-2.584657480314961
 30
0.0
 10
-1.002051181102362
 20
-2.584657480314961
 30
0.0
 10
-0.9997480314960631
 20
-2.579657480314961
 30
0.0
 10
-0.9986062992125985
 20
-2.573685039370079
 30
0.0
 10
-0.9986062992125985
 20
-2.566685039370079
 30
0.0
 10
-0.9986062992125985
 20
-2.566685039370079
 30
0.0
 10
-0.9986062992125985
 20
-2.556850393700787
 30
0.0
 10
-1.001023622047244
 20
-2.548988188976378
 30
0.0
 10
-1.005858267716536
 20
-2.543074803149606
 30
0.0
 10
-1.005858267716536
 20
-2.543074803149606
 30
0.0
 10
-1.009720472440945
 20
-2.538185039370079
 30
0.0
 10
-1.015106299212599
 20
-2.535740157480315
 30
0.0
 10
-1.022051181102362
 20
-2.535740157480315
 30
0.0
 10
-1.022051181102362
 20
-2.535740157480315
 30
0.0
 10
-1.025633858267717
 20
-2.535740157480315
 30
0.0
 10
-1.029275590551181
 20
-2.536405511811024
 30
0.0
 10
-1.032968503937008
 20
-2.537740157480315
 30
0.0
 10
-1.032968503937008
 20
-2.537740157480315
 30
0.0
 10
-1.036661417322835
 20
-2.539074803149606
 30
0.0
 10
-1.041303149606299
 20
-2.541543307086614
 30
0.0
 10
-1.046885826771654
 20
-2.545185039370079
 30
0.0
  0
SPLINE
  5
76
330
1F
100
AcDbEntity
  8
LAYER_1
 62
   250
100
AcDbSpline
210
0.0
220
0.0
230
1.0
 70
    11
 71
     3
 72
   140
 73
   136
 74
     0
 42
0.0000000001
 43
0.0000000001
 40
0.0
 40
0.0
 40
0.0
 40
0.0
 40
0.0294117647058824
 40
0.0294117647058824
 40
0.0294117647058824
 40
0.0294117647058824
 40
0.0588235294117647
 40
0.0588235294117647
 40
0.0588235294117647
 40
0.0588235294117647
 40
0.0882352941176471
 40
0.0882352941176471
 40
0.0882352941176471
 40
0.0882352941176471
 40
0.1176470588235294
 40
0.1176470588235294
 40
0.1176470588235294
 40
0.1176470588235294
 40
0.1470588235294118
 40
0.1470588235294118
 40
0.1470588235294118
 40
0.1470588235294118
 40
0.1764705882352941
 40
0.1764705882352941
 40
0.1764705882352941
 40
0.1764705882352941
 40
0.2058823529411765
 40
0.2058823529411765
 40
0.2058823529411765
 40
0.2058823529411765
 40
0.2352941176470589
 40
0.2352941176470589
 40
0.2352941176470589
 40
0.2352941176470589
 40
0.2647058823529412
 40
0.2647058823529412
 40
0.2647058823529412
 40
0.2647058823529412
 40
0.2941176470588235
 40
0.2941176470588235
 40
0.2941176470588235
 40
0.2941176470588235
 40
0.3235294117647059
 40
0.3235294117647059
 40
0.3235294117647059
 40
0.3235294117647059
 40
0.3529411764705883
 40
0.3529411764705883
 40
0.3529411764705883
 40
0.3529411764705883
 40
0.3823529411764706
 40
0.3823529411764706
 40
0.3823529411764706
 40
0.3823529411764706
 40
0.411764705882353
 40
0.411764705882353
 40
0.411764705882353
 40
0.411764705882353
 40
0.4411764705882353
 40
0.4411764705882353
 40
0.4411764705882353
 40
0.4411764705882353
 40
0.4705882352941177
 40
0.4705882352941177
 40
0.4705882352941177
 40
0.4705882352941177
 40
0.5
 40
0.5
 40
0.5
 40
0.5
 40
0.5294117647058824
 40
0.5294117647058824
 40
0.5294117647058824
 40
0.5294117647058824
 40
0.5588235294117647
 40
0.5588235294117647
 40
0.5588235294117647
 40
0.5588235294117647
 40
0.5882352941176471
 40
0.5882352941176471
 40
0.5882352941176471
 40
0.5882352941176471
 40
0.6176470588235294
 40
0.6176470588235294
 40
0.6176470588235294
 40
0.6176470588235294
 40
0.6470588235294118
 40
0.6470588235294118
 40
0.6470588235294118
 40
0.6470588235294118
 40
0.6764705882352942
 40
0.6764705882352942
 40
0.6764705882352942
 40
0.6764705882352942
 40
0.7058823529411765
 40
0.7058823529411765
 40
0.7058823529411765
 40
0.7058823529411765
 40
0.7352941176470589
 40
0.7352941176470589
 40
0.7352941176470589
 40
0.7352941176470589
 40
0.7647058823529412
 40
0.7647058823529412
 40
0.7647058823529412
 40
0.7647058823529412
 40
0.7941176470588236
 40
0.7941176470588236
 40
0.7941176470588236
 40
0.7941176470588236
 40
0.823529411764706
 40
0.823529411764706
 40
0.823529411764706
 40
0.823529411764706
 40
0.8529411764705883
 40
0.8529411764705883
 40
0.8529411764705883
 40
0.8529411764705883
 40
0.8823529411764707
 40
0.8823529411764707
 40
0.8823529411764707
 40
0.8823529411764707
 40
0.911764705882353
 40
0.911764705882353
 40
0.911764705882353
 40
0.911764705882353
 40
0.9411764705882354
 40
0.9411764705882354
 40
0.9411764705882354
 40
0.9411764705882354
 40
0.9705882352941178
 40
0.9705882352941178
 40
0.9705882352941178
 40
0.9705882352941178
 40
1.0
 40
1.0
 40
1.0
 40
1.0
 10
-0.9111338582677165
 20
-2.559767716535433
 30
0.0
 10
-0.9111338582677165
 20
-2.559767716535433
 30
0.0
 10
-0.9111338582677165
 20
-2.550877952755906
 30
0.0
 10
-0.9111338582677165
 20
-2.550877952755906
 30
0.0
 10
-0.9111338582677165
 20
-2.550877952755906
 30
0.0
 10
-0.9111338582677165
 20
-2.544877952755906
 30
0.0
 10
-0.9127992125984252
 20
-2.540574803149606
 30
0.0
 10
-0.9161614173228346
 20
-2.537988188976378
 30
0.0
 10
-0.9161614173228346
 20
-2.537988188976378
 30
0.0
 10
-0.9195236220472441
 20
-2.535405511811024
 30
0.0
 10
-0.9242716535433071
 20
-2.534129921259843
 30
0.0
 10
-0.9304133858267717
 20
-2.534129921259843
 30
0.0
 10
-0.9304133858267717
 20
-2.534129921259843
 30
0.0
 10
-0.9334409448818898
 20
-2.534129921259843
 30
0.0
 10
-0.9361062992125985
 20
-2.534488188976378
 30
0.0
 10
-0.9383858267716536
 20
-2.535212598425197
 30
0.0
 10
-0.9383858267716536
 20
-2.535212598425197
 30
0.0
 10
-0.9406614173228347
 20
-2.53596062992126
 30
0.0
 10
-0.9424960629921261
 20
-2.53696062992126
 30
0.0
 10
-0.9438858267716536
 20
-2.538240157480315
 30
0.0
 10
-0.9438858267716536
 20
-2.538240157480315
 30
0.0
 10
-0.9452716535433071
 20
-2.539515748031496
 30
0.0
 10
-0.9462716535433071
 20
-2.54096062992126
 30
0.0
 10
-0.9469409448818899
 20
-2.542602362204725
 30
0.0
 10
-0.9469409448818899
 20
-2.542602362204725
 30
0.0
 10
-0.9472165354330709
 20
-2.543185039370079
 30
0.0
 10
-0.9478543307086614
 20
-2.545488188976378
 30
0.0
 10
-0.9488818897637795
 20
-2.549515748031496
 30
0.0
 10
-0.9488818897637795
 20
-2.549515748031496
 30
0.0
 10
-0.9501338582677166
 20
-2.554377952755905
 30
0.0
 10
-0.9526614173228347
 20
-2.556822834645669
 30
0.0
 10
-0.9564685039370079
 20
-2.556822834645669
 30
0.0
 10
-0.9564685039370079
 20
-2.556822834645669
 30
0.0
 10
-0.9586338582677165
 20
-2.556822834645669
 30
0.0
 10
-0.9603818897637796
 20
-2.556102362204725
 30
0.0
 10
-0.9617165354330709
 20
-2.554685039370079
 30
0.0
 10
-0.9617165354330709
 20
-2.554685039370079
 30
0.0
 10
-0.9630236220472441
 20
-2.553240157480315
 30
0.0
 10
-0.9636889763779528
 20
-2.551295275590551
 30
0.0
 10
-0.9636889763779528
 20
-2.548850393700787
 30
0.0
 10
-0.9636889763779528
 20
-2.548850393700787
 30
0.0
 10
-0.9636889763779528
 20
-2.545267716535433
 30
0.0
 10
-0.9623543307086615
 20
-2.541767716535433
 30
0.0
 10
-0.9597165354330709
 20
-2.538322834645669
 30
0.0
 10
-0.9597165354330709
 20
-2.538322834645669
 30
0.0
 10
-0.9570511811023622
 20
-2.534877952755906
 30
0.0
 10
-0.952996062992126
 20
-2.532015748031496
 30
0.0
 10
-0.9475511811023623
 20
-2.529767716535433
 30
0.0
 10
-0.9475511811023623
 20
-2.529767716535433
 30
0.0
 10
-0.9421062992125985
 20
-2.527515748031496
 30
0.0
 10
-0.9356614173228347
 20
-2.526405511811024
 30
0.0
 10
-0.9282165354330709
 20
-2.526405511811024
 30
0.0
 10
-0.9282165354330709
 20
-2.526405511811024
 30
0.0
 10
-0.9212716535433071
 20
-2.526405511811024
 30
0.0
 10
-0.9153267716535434
 20
-2.52746062992126
 30
0.0
 10
-0.9103858267716536
 20
-2.529602362204725
 30
0.0
 10
-0.9103858267716536
 20
-2.529602362204725
 30
0.0
 10
-0.905468503937008
 20
-2.531740157480315
 30
0.0
 10
-0.9018267716535433
 20
-2.53482283464567
 30
0.0
 10
-0.899496062992126
 20
-2.538850393700788
 30
0.0
 10
-0.899496062992126
 20
-2.538850393700788
 30
0.0
 10
-0.8978582677165354
 20
-2.541602362204725
 30
0.0
 10
-0.8970511811023623
 20
-2.546657480314961
 30
0.0
 10
-0.8970511811023623
 20
-2.553988188976378
 30
0.0
 10
-0.8970511811023623
 20
-2.553988188976378
 30
0.0
 10
-0.8970511811023623
 20
-2.553988188976378
 30
0.0
 10
-0.8970511811023623
 20
-2.58532283464567
 30
0.0
 10
-0.8970511811023623
 20
-2.58532283464567
 30
0.0
 10
-0.8970511811023623
 20
-2.58532283464567
 30
0.0
 10
-0.8970511811023623
 20
-2.589767716535433
 30
0.0
 10
-0.8969133858267717
 20
-2.592657480314961
 30
0.0
 10
-0.8966338582677166
 20
-2.594015748031496
 30
0.0
 10
-0.8966338582677166
 20
-2.594015748031496
 30
0.0
 10
-0.8960511811023623
 20
-2.596350393700788
 30
0.0
 10
-0.894996062992126
 20
-2.59809842519685
 30
0.0
 10
-0.893496062992126
 20
-2.599267716535433
 30
0.0
 10
-0.893496062992126
 20
-2.599267716535433
 30
0.0
 10
-0.8920236220472442
 20
-2.600433070866142
 30
0.0
 10
-0.8900787401574803
 20
-2.601015748031496
 30
0.0
 10
-0.8876889763779527
 20
-2.601015748031496
 30
0.0
 10
-0.8876889763779527
 20
-2.601015748031496
 30
0.0
 10
-0.8851889763779528
 20
-2.601015748031496
 30
0.0
 10
-0.8822165354330709
 20
-2.600433070866142
 30
0.0
 10
-0.878744094488189
 20
-2.599240157480315
 30
0.0
 10
-0.878744094488189
 20
-2.599240157480315
 30
0.0
 10
-0.878744094488189
 20
-2.599240157480315
 30
0.0
 10
-0.878744094488189
 20
-2.606295275590551
 30
0.0
 10
-0.878744094488189
 20
-2.606295275590551
 30
0.0
 10
-0.878744094488189
 20
-2.606295275590551
 30
0.0
 10
-0.883244094488189
 20
-2.607598425196851
 30
0.0
 10
-0.8872716535433072
 20
-2.608267716535433
 30
0.0
 10
-0.8908582677165354
 20
-2.608267716535433
 30
0.0
 10
-0.8908582677165354
 20
-2.608267716535433
 30
0.0
 10
-0.894716535433071
 20
-2.608267716535433
 30
0.0
 10
-0.8979685039370079
 20
-2.607712598425197
 30
0.0
 10
-0.9005787401574803
 20
-2.606629921259843
 30
0.0
 10
-0.9005787401574803
 20
-2.606629921259843
 30
0.0
 10
-0.9032165354330709
 20
-2.605543307086614
 30
0.0
 10
-0.9053858267716536
 20
-2.60396062992126
 30
0.0
 10
-0.9070511811023623
 20
-2.601877952755906
 30
0.0
 10
-0.9070511811023623
 20
-2.601877952755906
 30
0.0
 10
-0.9087440944881891
 20
-2.599795275590551
 30
0.0
 10
-0.9098267716535433
 20
-2.597295275590551
 30
0.0
 10
-0.9102992125984253
 20
-2.594433070866142
 30
0.0
 10
-0.9102992125984253
 20
-2.594433070866142
 30
0.0
 10
-0.9168267716535433
 20
-2.599515748031496
 30
0.0
 10
-0.9227165354330709
 20
-2.60309842519685
 30
0.0
 10
-0.9279685039370079
 20
-2.605157480314961
 30
0.0
 10
-0.9279685039370079
 20
-2.605157480314961
 30
0.0
 10
-0.933244094488189
 20
-2.607240157480315
 30
0.0
 10
-0.9385511811023622
 20
-2.608267716535433
 30
0.0
 10
-0.9439133858267716
 20
-2.608267716535433
 30
0.0
 10
-0.9439133858267716
 20
-2.608267716535433
 30
0.0
 10
-0.9514133858267717
 20
-2.608267716535433
 30
0.0
 10
-0.957496062992126
 20
-2.606240157480315
 30
0.0
 10
-0.9621614173228347
 20
-2.602157480314961
 30
0.0
 10
-0.9621614173228347
 20
-2.602157480314961
 30
0.0
 10
-0.9668267716535434
 20
-2.59809842519685
 30
0.0
 10
-0.9691614173228347
 20
-2.59332283464567
 30
0.0
 10
-0.9691614173228347
 20
-2.58782283464567
 30
0.0
 10
-0.9691614173228347
 20
-2.58782283464567
 30
0.0
 10
-0.9691614173228347
 20
-2.584515748031496
 30
0.0
 10
-0.9682992125984252
 20
-2.581377952755906
 30
0.0
 10
-0.9665787401574804
 20
-2.578405511811024
 30
0.0
 10
-0.9665787401574804
 20
-2.578405511811024
 30
0.0
 10
-0.9648818897637795
 20
-2.575405511811024
 30
0.0
 10
-0.9622716535433071
 20
-2.572767716535433
 30
0.0
 10
-0.9587716535433071
 20
-2.570488188976378
 30
0.0
 10
-0.9587716535433071
 20
-2.570488188976378
 30
0.0
 10
-0.9552716535433071
 20
-2.568212598425197
 30
0.0
 10
-0.9497716535433072
 20
-2.566212598425197
 30
0.0
 10
-0.9422992125984252
 20
-2.564488188976378
 30
0.0
 10
-0.9422992125984252
 20
-2.564488188976378
 30
0.0
 10
-0.9347992125984252
 20
-2.562740157480315
 30
0.0
 10
-0.9244133858267717
 20
-2.561157480314961
 30
0.0
 10
-0.9111338582677165
 20
-2.559767716535433
 30
0.0
  0
SPLINE
  5
77
330
1F
100
AcDbEntity
  8
LAYER_1
 62
   250
100
AcDbSpline
210
0.0
220
0.0
230
1.0
 70
    11
 71
     3
 72
    44
 73
    40
 74
     0
 42
0.0000000001
 43
0.0000000001
 40
0.0
 40
0.0
 40
0.0
 40
0.0
 40
0.1
 40
0.1
 40
0.1
 40
0.1
 40
0.2
 40
0.2
 40
0.2
 40
0.2
 40
0.3
 40
0.3
 40
0.3
 40
0.3
 40
0.4
 40
0.4
 40
0.4
 40
0.4
 40
0.5
 40
0.5
 40
0.5
 40
0.5
 40
0.6
 40
0.6
 40
0.6
 40
0.6
 40
0.7
 40
0.7
 40
0.7
 40
0.7
 40
0.7999999999999999
 40
0.7999999999999999
 40
0.7999999999999999
 40
0.7999999999999999
 40
0.8999999999999999
 40
0.8999999999999999
 40
0.8999999999999999
 40
0.8999999999999999
 40
1.0
 40
1.0
 40
1.0
 40
1.0
 10
-0.9111338582677165
 20
-2.566850393700788
 30
0.0
 10
-0.9237165354330709
 20
-2.568685039370079
 30
0.0
 10
-0.9314960629921261
 20
-2.56996062992126
 30
0.0
 10
-0.9344960629921261
 20
-2.570657480314961
 30
0.0
 10
-0.9344960629921261
 20
-2.570657480314961
 30
0.0
 10
-0.9403858267716536
 20
-2.572015748031496
 30
0.0
 10
-0.9446338582677166
 20
-2.573515748031496
 30
0.0
 10
-0.9471889763779527
 20
-2.575129921259843
 30
0.0
 10
-0.9471889763779527
 20
-2.575129921259843
 30
0.0
 10
-0.9497165354330709
 20
-2.576767716535433
 30
0.0
 10
-0.9515511811023623
 20
-2.578515748031496
 30
0.0
 10
-0.9526338582677166
 20
-2.580377952755906
 30
0.0
 10
-0.9526338582677166
 20
-2.580377952755906
 30
0.0
 10
-0.9537165354330709
 20
-2.582267716535433
 30
0.0
 10
-0.954244094488189
 20
-2.584267716535433
 30
0.0
 10
-0.954244094488189
 20
-2.586377952755905
 30
0.0
 10
-0.954244094488189
 20
-2.586377952755905
 30
0.0
 10
-0.954244094488189
 20
-2.588488188976378
 30
0.0
 10
-0.9536614173228347
 20
-2.590543307086614
 30
0.0
 10
-0.9524409448818898
 20
-2.592515748031496
 30
0.0
 10
-0.9524409448818898
 20
-2.592515748031496
 30
0.0
 10
-0.9512165354330709
 20
-2.594488188976378
 30
0.0
 10
-0.949496062992126
 20
-2.596043307086614
 30
0.0
 10
-0.9472716535433071
 20
-2.597185039370079
 30
0.0
 10
-0.9472716535433071
 20
-2.597185039370079
 30
0.0
 10
-0.9450236220472441
 20
-2.59832283464567
 30
0.0
 10
-0.9426614173228347
 20
-2.598905511811024
 30
0.0
 10
-0.9401889763779529
 20
-2.598905511811024
 30
0.0
 10
-0.9401889763779529
 20
-2.598905511811024
 30
0.0
 10
-0.9366614173228347
 20
-2.598905511811024
 30
0.0
 10
-0.9326614173228347
 20
-2.598070866141732
 30
0.0
 10
-0.9282165354330709
 20
-2.596377952755906
 30
0.0
 10
-0.9282165354330709
 20
-2.596377952755906
 30
0.0
 10
-0.9237716535433072
 20
-2.594712598425197
 30
0.0
 10
-0.9180787401574804
 20
-2.591405511811024
 30
0.0
 10
-0.9111338582677165
 20
-2.586543307086614
 30
0.0
 10
-0.9111338582677165
 20
-2.586543307086614
 30
0.0
 10
-0.9111338582677165
 20
-2.586543307086614
 30
0.0
 10
-0.9111338582677165
 20
-2.566850393700788
 30
0.0
 10
-0.9111338582677165
 20
-2.566850393700788
 30
0.0
  0
SPLINE
  5
78
330
1F
100
AcDbEntity
  8
LAYER_1
 62
   250
100
AcDbSpline
210
0.0
220
0.0
230
1.0
 70
    11
 71
     3
 72
   140
 73
   136
 74
     0
 42
0.0000000001
 43
0.0000000001
 40
0.0
 40
0.0
 40
0.0
 40
0.0
 40
0.0294117647058824
 40
0.0294117647058824
 40
0.0294117647058824
 40
0.0294117647058824
 40
0.0588235294117647
 40
0.0588235294117647
 40
0.0588235294117647
 40
0.0588235294117647
 40
0.0882352941176471
 40
0.0882352941176471
 40
0.0882352941176471
 40
0.0882352941176471
 40
0.1176470588235294
 40
0.1176470588235294
 40
0.1176470588235294
 40
0.1176470588235294
 40
0.1470588235294118
 40
0.1470588235294118
 40
0.1470588235294118
 40
0.1470588235294118
 40
0.1764705882352941
 40
0.1764705882352941
 40
0.1764705882352941
 40
0.1764705882352941
 40
0.2058823529411765
 40
0.2058823529411765
 40
0.2058823529411765
 40
0.2058823529411765
 40
0.2352941176470589
 40
0.2352941176470589
 40
0.2352941176470589
 40
0.2352941176470589
 40
0.2647058823529412
 40
0.2647058823529412
 40
0.2647058823529412
 40
0.2647058823529412
 40
0.2941176470588235
 40
0.2941176470588235
 40
0.2941176470588235
 40
0.2941176470588235
 40
0.3235294117647059
 40
0.3235294117647059
 40
0.3235294117647059
 40
0.3235294117647059
 40
0.3529411764705883
 40
0.3529411764705883
 40
0.3529411764705883
 40
0.3529411764705883
 40
0.3823529411764706
 40
0.3823529411764706
 40
0.3823529411764706
 40
0.3823529411764706
 40
0.411764705882353
 40
0.411764705882353
 40
0.411764705882353
 40
0.411764705882353
 40
0.4411764705882353
 40
0.4411764705882353
 40
0.4411764705882353
 40
0.4411764705882353
 40
0.4705882352941177
 40
0.4705882352941177
 40
0.4705882352941177
 40
0.4705882352941177
 40
0.5
 40
0.5
 40
0.5
 40
0.5
 40
0.5294117647058824
 40
0.5294117647058824
 40
0.5294117647058824
 40
0.5294117647058824
 40
0.5588235294117647
 40
0.5588235294117647
 40
0.5588235294117647
 40
0.5588235294117647
 40
0.5882352941176471
 40
0.5882352941176471
 40
0.5882352941176471
 40
0.5882352941176471
 40
0.6176470588235294
 40
0.6176470588235294
 40
0.6176470588235294
 40
0.6176470588235294
 40
0.6470588235294118
 40
0.6470588235294118
 40
0.6470588235294118
 40
0.6470588235294118
 40
0.6764705882352942
 40
0.6764705882352942
 40
0.6764705882352942
 40
0.6764705882352942
 40
0.7058823529411765
 40
0.7058823529411765
 40
0.7058823529411765
 40
0.7058823529411765
 40
0.7352941176470589
 40
0.7352941176470589
 40
0.7352941176470589
 40
0.7352941176470589
 40
0.7647058823529412
 40
0.7647058823529412
 40
0.7647058823529412
 40
0.7647058823529412
 40
0.7941176470588236
 40
0.7941176470588236
 40
0.7941176470588236
 40
0.7941176470588236
 40
0.823529411764706
 40
0.823529411764706
 40
0.823529411764706
 40
0.823529411764706
 40
0.8529411764705883
 40
0.8529411764705883
 40
0.8529411764705883
 40
0.8529411764705883
 40
0.8823529411764707
 40
0.8823529411764707
 40
0.8823529411764707
 40
0.8823529411764707
 40
0.911764705882353
 40
0.911764705882353
 40
0.911764705882353
 40
0.911764705882353
 40
0.9411764705882354
 40
0.9411764705882354
 40
0.9411764705882354
 40
0.9411764705882354
 40
0.9705882352941178
 40
0.9705882352941178
 40
0.9705882352941178
 40
0.9705882352941178
 40
1.0
 40
1.0
 40
1.0
 40
1.0
 10
-0.8178858267716536
 20
-2.528350393700788
 30
0.0
 10
-0.8178858267716536
 20
-2.528350393700788
 30
0.0
 10
-0.8121929133858268
 20
-2.528350393700788
 30
0.0
 10
-0.8121929133858268
 20
-2.528350393700788
 30
0.0
 10
-0.8121929133858268
 20
-2.528350393700788
 30
0.0
 10
-0.8121929133858268
 20
-2.528350393700788
 30
0.0
 10
-0.8048582677165355
 20
-2.553240157480315
 30
0.0
 10
-0.8048582677165355
 20
-2.553240157480315
 30
0.0
 10
-0.8048582677165355
 20
-2.553240157480315
 30
0.0
 10
-0.8048582677165355
 20
-2.553240157480315
 30
0.0
 10
-0.8121929133858268
 20
-2.555685039370079
 30
0.0
 10
-0.8121929133858268
 20
-2.555685039370079
 30
0.0
 10
-0.8121929133858268
 20
-2.555685039370079
 30
0.0
 10
-0.8151062992125985
 20
-2.549015748031496
 30
0.0
 10
-0.8192204724409449
 20
-2.543767716535433
 30
0.0
 10
-0.8245236220472442
 20
-2.539933070866142
 30
0.0
 10
-0.8245236220472442
 20
-2.539933070866142
 30
0.0
 10
-0.8298031496062992
 20
-2.536129921259843
 30
0.0
 10
-0.8351614173228347
 20
-2.534212598425197
 30
0.0
 10
-0.8405787401574804
 20
-2.534212598425197
 30
0.0
 10
-0.8405787401574804
 20
-2.534212598425197
 30
0.0
 10
-0.8447755905511811
 20
-2.534212598425197
 30
0.0
 10
-0.8481614173228347
 20
-2.535212598425197
 30
0.0
 10
-0.850748031496063
 20
-2.537267716535433
 30
0.0
 10
-0.850748031496063
 20
-2.537267716535433
 30
0.0
 10
-0.8533582677165355
 20
-2.539295275590551
 30
0.0
 10
-0.8546614173228346
 20
-2.541629921259843
 30
0.0
 10
-0.8546614173228346
 20
-2.544295275590551
 30
0.0
 10
-0.8546614173228346
 20
-2.544295275590551
 30
0.0
 10
-0.8546614173228346
 20
-2.546795275590551
 30
0.0
 10
-0.8537165354330709
 20
-2.548933070866142
 30
0.0
 10
-0.8518031496062992
 20
-2.550740157480315
 30
0.0
 10
-0.8518031496062992
 20
-2.550740157480315
 30
0.0
 10
-0.849968503937008
 20
-2.552570866141732
 30
0.0
 10
-0.8458307086614174
 20
-2.554657480314961
 30
0.0
 10
-0.8393582677165354
 20
-2.556988188976378
 30
0.0
 10
-0.8393582677165354
 20
-2.556988188976378
 30
0.0
 10
-0.8393582677165354
 20
-2.556988188976378
 30
0.0
 10
-0.823496062992126
 20
-2.562602362204725
 30
0.0
 10
-0.823496062992126
 20
-2.562602362204725
 30
0.0
 10
-0.823496062992126
 20
-2.562602362204725
 30
0.0
 10
-0.8145511811023622
 20
-2.565795275590551
 30
0.0
 10
-0.8084409448818898
 20
-2.569240157480315
 30
0.0
 10
-0.8051929133858268
 20
-2.572850393700787
 30
0.0
 10
-0.8051929133858268
 20
-2.572850393700787
 30
0.0
 10
-0.801996062992126
 20
-2.576543307086614
 30
0.0
 10
-0.8003858267716536
 20
-2.580740157480315
 30
0.0
 10
-0.8003858267716536
 20
-2.585405511811024
 30
0.0
 10
-0.8003858267716536
 20
-2.585405511811024
 30
0.0
 10
-0.8003858267716536
 20
-2.589350393700788
 30
0.0
 10
-0.8015787401574803
 20
-2.593157480314961
 30
0.0
 10
-0.8039685039370079
 20
-2.596822834645669
 30
0.0
 10
-0.8039685039370079
 20
-2.596822834645669
 30
0.0
 10
-0.8063582677165355
 20
-2.600488188976378
 30
0.0
 10
-0.8098031496062993
 20
-2.603405511811024
 30
0.0
 10
-0.8143307086614173
 20
-2.605570866141732
 30
0.0
 10
-0.8143307086614173
 20
-2.605570866141732
 30
0.0
 10
-0.8188582677165355
 20
-2.607740157480315
 30
0.0
 10
-0.8240511811023622
 20
-2.608822834645669
 30
0.0
 10
-0.8299133858267717
 20
-2.608822834645669
 30
0.0
 10
-0.8299133858267717
 20
-2.608822834645669
 30
0.0
 10
-0.8390511811023622
 20
-2.608822834645669
 30
0.0
 10
-0.8468582677165355
 20
-2.606240157480315
 30
0.0
 10
-0.8533582677165355
 20
-2.601015748031496
 30
0.0
 10
-0.8533582677165355
 20
-2.601015748031496
 30
0.0
 10
-0.8533582677165355
 20
-2.601015748031496
 30
0.0
 10
-0.8550787401574803
 20
-2.606877952755906
 30
0.0
 10
-0.8550787401574803
 20
-2.606877952755906
 30
0.0
 10
-0.8550787401574803
 20
-2.606877952755906
 30
0.0
 10
-0.8550787401574803
 20
-2.606877952755906
 30
0.0
 10
-0.8608582677165355
 20
-2.606877952755906
 30
0.0
 10
-0.8608582677165355
 20
-2.606877952755906
 30
0.0
 10
-0.8608582677165355
 20
-2.606877952755906
 30
0.0
 10
-0.8608582677165355
 20
-2.606877952755906
 30
0.0
 10
-0.8710236220472442
 20
-2.580267716535433
 30
0.0
 10
-0.8710236220472442
 20
-2.580267716535433
 30
0.0
 10
-0.8710236220472442
 20
-2.580267716535433
 30
0.0
 10
-0.8710236220472442
 20
-2.580267716535433
 30
0.0
 10
-0.8636062992125985
 20
-2.577350393700788
 30
0.0
 10
-0.8636062992125985
 20
-2.577350393700788
 30
0.0
 10
-0.8636062992125985
 20
-2.577350393700788
 30
0.0
 10
-0.8586889763779528
 20
-2.585157480314961
 30
0.0
 10
-0.8540236220472441
 20
-2.590685039370079
 30
0.0
 10
-0.8496062992125985
 20
-2.593933070866142
 30
0.0
 10
-0.8496062992125985
 20
-2.593933070866142
 30
0.0
 10
-0.843496062992126
 20
-2.598543307086614
 30
0.0
 10
-0.8368582677165355
 20
-2.600850393700787
 30
0.0
 10
-0.8297755905511811
 20
-2.600850393700787
 30
0.0
 10
-0.8297755905511811
 20
-2.600850393700787
 30
0.0
 10
-0.8250511811023622
 20
-2.600850393700787
 30
0.0
 10
-0.8211614173228347
 20
-2.599598425196851
 30
0.0
 10
-0.8181338582677166
 20
-2.597070866141733
 30
0.0
 10
-0.8181338582677166
 20
-2.597070866141733
 30
0.0
 10
-0.8150787401574804
 20
-2.594543307086614
 30
0.0
 10
-0.8135787401574803
 20
-2.591740157480315
 30
0.0
 10
-0.8135787401574803
 20
-2.588657480314961
 30
0.0
 10
-0.8135787401574803
 20
-2.588657480314961
 30
0.0
 10
-0.8135787401574803
 20
-2.58609842519685
 30
0.0
 10
-0.8145236220472442
 20
-2.583767716535433
 30
0.0
 10
-0.8164133858267717
 20
-2.581657480314961
 30
0.0
 10
-0.8164133858267717
 20
-2.581657480314961
 30
0.0
 10
-0.8183582677165354
 20
-2.579598425196851
 30
0.0
 10
-0.8221062992125985
 20
-2.577570866141732
 30
0.0
 10
-0.8276338582677165
 20
-2.575629921259843
 30
0.0
 10
-0.8276338582677165
 20
-2.575629921259843
 30
0.0
 10
-0.8276338582677165
 20
-2.575629921259843
 30
0.0
 10
-0.8464409448818898
 20
-2.568795275590551
 30
0.0
 10
-0.8464409448818898
 20
-2.568795275590551
 30
0.0
 10
-0.8464409448818898
 20
-2.568795275590551
 30
0.0
 10
-0.8545236220472441
 20
-2.565850393700788
 30
0.0
 10
-0.8601338582677166
 20
-2.562657480314961
 30
0.0
 10
-0.8633031496062993
 20
-2.559185039370079
 30
0.0
 10
-0.8633031496062993
 20
-2.559185039370079
 30
0.0
 10
-0.8664409448818898
 20
-2.555712598425197
 30
0.0
 10
-0.8679960629921261
 20
-2.551740157480315
 30
0.0
 10
-0.8679960629921261
 20
-2.547240157480315
 30
0.0
 10
-0.8679960629921261
 20
-2.547240157480315
 30
0.0
 10
-0.8679960629921261
 20
-2.541740157480315
 30
0.0
 10
-0.8654409448818898
 20
-2.536905511811024
 30
0.0
 10
-0.8603307086614174
 20
-2.532712598425197
 30
0.0
 10
-0.8603307086614174
 20
-2.532712598425197
 30
0.0
 10
-0.8551889763779528
 20
-2.528488188976378
 30
0.0
 10
-0.8486614173228347
 20
-2.526405511811024
 30
0.0
 10
-0.840748031496063
 20
-2.526405511811024
 30
0.0
 10
-0.840748031496063
 20
-2.526405511811024
 30
0.0
 10
-0.8366338582677165
 20
-2.526405511811024
 30
0.0
 10
-0.8329409448818897
 20
-2.526933070866142
 30
0.0
 10
-0.8296889763779528
 20
-2.527988188976378
 30
0.0
 10
-0.8296889763779528
 20
-2.527988188976378
 30
0.0
 10
-0.8264133858267717
 20
-2.529043307086614
 30
0.0
 10
-0.8232204724409449
 20
-2.530795275590551
 30
0.0
 10
-0.8200787401574804
 20
-2.533240157480315
 30
0.0
 10
-0.8200787401574804
 20
-2.533240157480315
 30
0.0
 10
-0.8200787401574804
 20
-2.533240157480315
 30
0.0
 10
-0.8178858267716536
 20
-2.528350393700788
 30
0.0
 10
-0.8178858267716536
 20
-2.528350393700788
 30
0.0
  0
SPLINE
  5
79
330
1F
100
AcDbEntity
  8
LAYER_1
 62
   250
100
AcDbSpline
210
0.0
220
0.0
230
1.0
 70
    11
 71
     3
 72
    88
 73
    84
 74
     0
 42
0.0000000001
 43
0.0000000001
 40
0.0
 40
0.0
 40
0.0
 40
0.0
 40
0.0476190476190476
 40
0.0476190476190476
 40
0.0476190476190476
 40
0.0476190476190476
 40
0.0952380952380952
 40
0.0952380952380952
 40
0.0952380952380952
 40
0.0952380952380952
 40
0.1428571428571429
 40
0.1428571428571429
 40
0.1428571428571429
 40
0.1428571428571429
 40
0.1904761904761905
 40
0.1904761904761905
 40
0.1904761904761905
 40
0.1904761904761905
 40
0.2380952380952381
 40
0.2380952380952381
 40
0.2380952380952381
 40
0.2380952380952381
 40
0.2857142857142857
 40
0.2857142857142857
 40
0.2857142857142857
 40
0.2857142857142857
 40
0.3333333333333333
 40
0.3333333333333333
 40
0.3333333333333333
 40
0.3333333333333333
 40
0.3809523809523809
 40
0.3809523809523809
 40
0.3809523809523809
 40
0.3809523809523809
 40
0.4285714285714286
 40
0.4285714285714286
 40
0.4285714285714286
 40
0.4285714285714286
 40
0.4761904761904762
 40
0.4761904761904762
 40
0.4761904761904762
 40
0.4761904761904762
 40
0.5238095238095237
 40
0.5238095238095237
 40
0.5238095238095237
 40
0.5238095238095237
 40
0.5714285714285714
 40
0.5714285714285714
 40
0.5714285714285714
 40
0.5714285714285714
 40
0.6190476190476191
 40
0.6190476190476191
 40
0.6190476190476191
 40
0.6190476190476191
 40
0.6666666666666667
 40
0.6666666666666667
 40
0.6666666666666667
 40
0.6666666666666667
 40
0.7142857142857144
 40
0.7142857142857144
 40
0.7142857142857144
 40
0.7142857142857144
 40
0.7619047619047621
 40
0.7619047619047621
 40
0.7619047619047621
 40
0.7619047619047621
 40
0.8095238095238098
 40
0.8095238095238098
 40
0.8095238095238098
 40
0.8095238095238098
 40
0.8571428571428574
 40
0.8571428571428574
 40
0.8571428571428574
 40
0.8571428571428574
 40
0.9047619047619051
 40
0.9047619047619051
 40
0.9047619047619051
 40
0.9047619047619051
 40
0.9523809523809528
 40
0.9523809523809528
 40
0.9523809523809528
 40
0.9523809523809528
 40
1.0
 40
1.0
 40
1.0
 40
1.0
 10
-0.7166377952755906
 20
-2.585877952755906
 30
0.0
 10
-0.7166377952755906
 20
-2.585877952755906
 30
0.0
 10
-0.7114409448818898
 20
-2.59009842519685
 30
0.0
 10
-0.7114409448818898
 20
-2.59009842519685
 30
0.0
 10
-0.7114409448818898
 20
-2.59009842519685
 30
0.0
 10
-0.7153858267716535
 20
-2.594822834645669
 30
0.0
 10
-0.719248031496063
 20
-2.598570866141732
 30
0.0
 10
-0.7229409448818898
 20
-2.601350393700788
 30
0.0
 10
-0.7229409448818898
 20
-2.601350393700788
 30
0.0
 10
-0.7266653543307087
 20
-2.604098425196851
 30
0.0
 10
-0.7301929133858268
 20
-2.606043307086615
 30
0.0
 10
-0.733496062992126
 20
-2.607157480314961
 30
0.0
 10
-0.733496062992126
 20
-2.607157480314961
 30
0.0
 10
-0.7368031496062992
 20
-2.608267716535433
 30
0.0
 10
-0.7406929133858268
 20
-2.608822834645669
 30
0.0
 10
-0.7451377952755905
 20
-2.608822834645669
 30
0.0
 10
-0.7451377952755905
 20
-2.608822834645669
 30
0.0
 10
-0.7531102362204725
 20
-2.608822834645669
 30
0.0
 10
-0.7598858267716536
 20
-2.607212598425197
 30
0.0
 10
-0.7654685039370079
 20
-2.60396062992126
 30
0.0
 10
-0.7654685039370079
 20
-2.60396062992126
 30
0.0
 10
-0.7718858267716536
 20
-2.600212598425197
 30
0.0
 10
-0.7767755905511812
 20
-2.595322834645669
 30
0.0
 10
-0.7801929133858268
 20
-2.589295275590551
 30
0.0
 10
-0.7801929133858268
 20
-2.589295275590551
 30
0.0
 10
-0.7836377952755906
 20
-2.583267716535433
 30
0.0
 10
-0.7853307086614173
 20
-2.576185039370079
 30
0.0
 10
-0.7853307086614173
 20
-2.567988188976378
 30
0.0
 10
-0.7853307086614173
 20
-2.567988188976378
 30
0.0
 10
-0.7853307086614173
 20
-2.559405511811024
 30
0.0
 10
-0.7836653543307087
 20
-2.552070866141732
 30
0.0
 10
-0.7803582677165355
 20
-2.546015748031496
 30
0.0
 10
-0.7803582677165355
 20
-2.546015748031496
 30
0.0
 10
-0.7770511811023623
 20
-2.539933070866142
 30
0.0
 10
-0.7724409448818898
 20
-2.535129921259843
 30
0.0
 10
-0.766496062992126
 20
-2.531629921259843
 30
0.0
 10
-0.766496062992126
 20
-2.531629921259843
 30
0.0
 10
-0.7605551181102362
 20
-2.528157480314961
 30
0.0
 10
-0.7536653543307087
 20
-2.526405511811024
 30
0.0
 10
-0.7458582677165354
 20
-2.526405511811024
 30
0.0
 10
-0.7458582677165354
 20
-2.526405511811024
 30
0.0
 10
-0.7400551181102363
 20
-2.526405511811024
 30
0.0
 10
-0.7350275590551182
 20
-2.527295275590551
 30
0.0
 10
-0.730720472440945
 20
-2.529129921259843
 30
0.0
 10
-0.730720472440945
 20
-2.529129921259843
 30
0.0
 10
-0.7264409448818898
 20
-2.530933070866142
 30
0.0
 10
-0.7228031496062992
 20
-2.533685039370079
 30
0.0
 10
-0.7198307086614173
 20
-2.537350393700788
 30
0.0
 10
-0.7198307086614173
 20
-2.537350393700788
 30
0.0
 10
-0.7168307086614174
 20
-2.540988188976378
 30
0.0
 10
-0.7146653543307087
 20
-2.545185039370079
 30
0.0
 10
-0.7133031496062993
 20
-2.549905511811024
 30
0.0
 10
-0.7133031496062993
 20
-2.549905511811024
 30
0.0
 10
-0.7125551181102362
 20
-2.552685039370079
 30
0.0
 10
-0.7121102362204724
 20
-2.556267716535433
 30
0.0
 10
-0.711996062992126
 20
-2.560657480314961
 30
0.0
 10
-0.711996062992126
 20
-2.560657480314961
 30
0.0
 10
-0.711996062992126
 20
-2.560657480314961
 30
0.0
 10
-0.7695511811023622
 20
-2.560657480314961
 30
0.0
 10
-0.7695511811023622
 20
-2.560657480314961
 30
0.0
 10
-0.7695511811023622
 20
-2.560657480314961
 30
0.0
 10
-0.7697204724409449
 20
-2.563322834645669
 30
0.0
 10
-0.7697755905511812
 20
-2.565295275590551
 30
0.0
 10
-0.7697755905511812
 20
-2.566602362204725
 30
0.0
 10
-0.7697755905511812
 20
-2.566602362204725
 30
0.0
 10
-0.7697755905511812
 20
-2.573433070866142
 30
0.0
 10
-0.7685826771653543
 20
-2.579515748031496
 30
0.0
 10
-0.7662204724409449
 20
-2.584877952755906
 30
0.0
 10
-0.7662204724409449
 20
-2.584877952755906
 30
0.0
 10
-0.7638307086614173
 20
-2.590212598425197
 30
0.0
 10
-0.7606653543307087
 20
-2.594157480314961
 30
0.0
 10
-0.7567204724409449
 20
-2.596657480314961
 30
0.0
 10
-0.7567204724409449
 20
-2.596657480314961
 30
0.0
 10
-0.7528031496062992
 20
-2.599185039370079
 30
0.0
 10
-0.7483307086614174
 20
-2.60046062992126
 30
0.0
 10
-0.7433307086614174
 20
-2.60046062992126
 30
0.0
 10
-0.7433307086614174
 20
-2.60046062992126
 30
0.0
 10
-0.7391102362204725
 20
-2.60046062992126
 30
0.0
 10
-0.7350275590551182
 20
-2.59946062992126
 30
0.0
 10
-0.7310551181102363
 20
-2.597488188976378
 30
0.0
 10
-0.7310551181102363
 20
-2.597488188976378
 30
0.0
 10
-0.7270826771653544
 20
-2.595488188976378
 30
0.0
 10
-0.7223031496062993
 20
-2.591629921259843
 30
0.0
 10
-0.7166377952755906
 20
-2.585877952755906
 30
0.0
  0
SPLINE
  5
7A
330
1F
100
AcDbEntity
  8
LAYER_1
 62
   250
100
AcDbSpline
210
0.0
220
0.0
230
1.0
 70
    11
 71
     3
 72
    32
 73
    28
 74
     0
 42
0.0000000001
 43
0.0000000001
 40
0.0
 40
0.0
 40
0.0
 40
0.0
 40
0.1428571428571429
 40
0.1428571428571429
 40
0.1428571428571429
 40
0.1428571428571429
 40
0.2857142857142857
 40
0.2857142857142857
 40
0.2857142857142857
 40
0.2857142857142857
 40
0.4285714285714286
 40
0.4285714285714286
 40
0.4285714285714286
 40
0.4285714285714286
 40
0.5714285714285714
 40
0.5714285714285714
 40
0.5714285714285714
 40
0.5714285714285714
 40
0.7142857142857142
 40
0.7142857142857142
 40
0.7142857142857142
 40
0.7142857142857142
 40
0.857142857142857
 40
0.857142857142857
 40
0.857142857142857
 40
0.857142857142857
 40
1.0
 40
1.0
 40
1.0
 40
1.0
 10
-0.7270551181102363
 20
-2.553015748031496
 30
0.0
 10
-0.7278858267716536
 20
-2.548015748031496
 30
0.0
 10
-0.7290275590551182
 20
-2.544322834645669
 30
0.0
 10
-0.7305275590551181
 20
-2.541933070866142
 30
0.0
 10
-0.7305275590551181
 20
-2.541933070866142
 30
0.0
 10
-0.7320275590551182
 20
-2.539543307086615
 30
0.0
 10
-0.7341377952755905
 20
-2.537657480314961
 30
0.0
 10
-0.7368582677165355
 20
-2.536240157480315
 30
0.0
 10
-0.7368582677165355
 20
-2.536240157480315
 30
0.0
 10
-0.7396102362204725
 20
-2.53482283464567
 30
0.0
 10
-0.7426929133858268
 20
-2.534129921259843
 30
0.0
 10
-0.7461102362204725
 20
-2.534129921259843
 30
0.0
 10
-0.7461102362204725
 20
-2.534129921259843
 30
0.0
 10
-0.7495236220472441
 20
-2.534129921259843
 30
0.0
 10
-0.7527204724409449
 20
-2.53482283464567
 30
0.0
 10
-0.7557204724409449
 20
-2.536240157480315
 30
0.0
 10
-0.7557204724409449
 20
-2.536240157480315
 30
0.0
 10
-0.7586929133858268
 20
-2.537657480314961
 30
0.0
 10
-0.7611653543307086
 20
-2.539602362204724
 30
0.0
 10
-0.7631653543307087
 20
-2.542102362204724
 30
0.0
 10
-0.7631653543307087
 20
-2.542102362204724
 30
0.0
 10
-0.7651377952755906
 20
-2.544602362204725
 30
0.0
 10
-0.7668582677165354
 20
-2.548240157480315
 30
0.0
 10
-0.7683307086614174
 20
-2.553015748031496
 30
0.0
 10
-0.7683307086614174
 20
-2.553015748031496
 30
0.0
 10
-0.7683307086614174
 20
-2.553015748031496
 30
0.0
 10
-0.7270551181102363
 20
-2.553015748031496
 30
0.0
 10
-0.7270551181102363
 20
-2.553015748031496
 30
0.0
  0
SPLINE
  5
7B
330
1F
100
AcDbEntity
  8
LAYER_1
 62
   250
100
AcDbSpline
210
0.0
220
0.0
230
1.0
 70
    11
 71
     3
 72
   104
 73
   100
 74
     0
 42
0.0000000001
 43
0.0000000001
 40
0.0
 40
0.0
 40
0.0
 40
0.0
 40
0.04
 40
0.04
 40
0.04
 40
0.04
 40
0.08
 40
0.08
 40
0.08
 40
0.08
 40
0.12
 40
0.12
 40
0.12
 40
0.12
 40
0.16
 40
0.16
 40
0.16
 40
0.16
 40
0.2
 40
0.2
 40
0.2
 40
0.2
 40
0.24
 40
0.24
 40
0.24
 40
0.24
 40
0.28
 40
0.28
 40
0.28
 40
0.28
 40
0.32
 40
0.32
 40
0.32
 40
0.32
 40
0.36
 40
0.36
 40
0.36
 40
0.36
 40
0.4
 40
0.4
 40
0.4
 40
0.4
 40
0.44
 40
0.44
 40
0.44
 40
0.44
 40
0.4799999999999999
 40
0.4799999999999999
 40
0.4799999999999999
 40
0.4799999999999999
 40
0.5199999999999999
 40
0.5199999999999999
 40
0.5199999999999999
 40
0.5199999999999999
 40
0.5599999999999999
 40
0.5599999999999999
 40
0.5599999999999999
 40
0.5599999999999999
 40
0.6
 40
0.6
 40
0.6
 40
0.6
 40
0.64
 40
0.64
 40
0.64
 40
0.64
 40
0.6800000000000001
 40
0.6800000000000001
 40
0.6800000000000001
 40
0.6800000000000001
 40
0.7200000000000001
 40
0.7200000000000001
 40
0.7200000000000001
 40
0.7200000000000001
 40
0.7600000000000001
 40
0.7600000000000001
 40
0.7600000000000001
 40
0.7600000000000001
 40
0.8000000000000002
 40
0.8000000000000002
 40
0.8000000000000002
 40
0.8000000000000002
 40
0.8400000000000002
 40
0.8400000000000002
 40
0.8400000000000002
 40
0.8400000000000002
 40
0.8800000000000002
 40
0.8800000000000002
 40
0.8800000000000002
 40
0.8800000000000002
 40
0.9200000000000003
 40
0.9200000000000003
 40
0.9200000000000003
 40
0.9200000000000003
 40
0.9600000000000003
 40
0.9600000000000003
 40
0.9600000000000003
 40
0.9600000000000003
 40
1.0
 40
1.0
 40
1.0
 40
1.0
 10
-0.5743858267716536
 20
-2.584185039370079
 30
0.0
 10
-0.5743858267716536
 20
-2.584185039370079
 30
0.0
 10
-0.5691929133858268
 20
-2.588405511811024
 30
0.0
 10
-0.5691929133858268
 20
-2.588405511811024
 30
0.0
 10
-0.5691929133858268
 20
-2.588405511811024
 30
0.0
 10
-0.5793858267716535
 20
-2.602015748031496
 30
0.0
 10
-0.5916102362204725
 20
-2.608822834645669
 30
0.0
 10
-0.6058858267716536
 20
-2.608822834645669
 30
0.0
 10
-0.6058858267716536
 20
-2.608822834645669
 30
0.0
 10
-0.6170236220472442
 20
-2.608822834645669
 30
0.0
 10
-0.6263858267716536
 20
-2.604877952755905
 30
0.0
 10
-0.6340511811023623
 20
-2.59696062992126
 30
0.0
 10
-0.6340511811023623
 20
-2.59696062992126
 30
0.0
 10
-0.6416929133858268
 20
-2.589015748031496
 30
0.0
 10
-0.6455236220472441
 20
-2.579185039370079
 30
0.0
 10
-0.6455236220472441
 20
-2.567405511811024
 30
0.0
 10
-0.6455236220472441
 20
-2.567405511811024
 30
0.0
 10
-0.6455236220472441
 20
-2.559543307086615
 30
0.0
 10
-0.643748031496063
 20
-2.552488188976378
 30
0.0
 10
-0.6401929133858269
 20
-2.546212598425197
 30
0.0
 10
-0.6401929133858269
 20
-2.546212598425197
 30
0.0
 10
-0.6366377952755906
 20
-2.539933070866142
 30
0.0
 10
-0.6316929133858268
 20
-2.535074803149606
 30
0.0
 10
-0.6253858267716536
 20
-2.531602362204724
 30
0.0
 10
-0.6253858267716536
 20
-2.531602362204724
 30
0.0
 10
-0.6190511811023622
 20
-2.528129921259843
 30
0.0
 10
-0.6118031496062992
 20
-2.526405511811024
 30
0.0
 10
-0.6036102362204725
 20
-2.526405511811024
 30
0.0
 10
-0.6036102362204725
 20
-2.526405511811024
 30
0.0
 10
-0.5942755905511812
 20
-2.526405511811024
 30
0.0
 10
-0.586496062992126
 20
-2.528685039370079
 30
0.0
 10
-0.580248031496063
 20
-2.533267716535433
 30
0.0
 10
-0.580248031496063
 20
-2.533267716535433
 30
0.0
 10
-0.5740236220472441
 20
-2.537850393700788
 30
0.0
 10
-0.5708858267716536
 20
-2.542488188976378
 30
0.0
 10
-0.5708858267716536
 20
-2.547157480314961
 30
0.0
 10
-0.5708858267716536
 20
-2.547157480314961
 30
0.0
 10
-0.5708858267716536
 20
-2.549629921259843
 30
0.0
 10
-0.5716377952755906
 20
-2.551570866141733
 30
0.0
 10
-0.5730826771653543
 20
-2.552933070866142
 30
0.0
 10
-0.5730826771653543
 20
-2.552933070866142
 30
0.0
 10
-0.5745551181102363
 20
-2.554267716535433
 30
0.0
 10
-0.5762204724409449
 20
-2.55496062992126
 30
0.0
 10
-0.5780551181102362
 20
-2.55496062992126
 30
0.0
 10
-0.5780551181102362
 20
-2.55496062992126
 30
0.0
 10
-0.5790236220472441
 20
-2.55496062992126
 30
0.0
 10
-0.579996062992126
 20
-2.554712598425197
 30
0.0
 10
-0.5809133858267717
 20
-2.554212598425197
 30
0.0
 10
-0.5809133858267717
 20
-2.554212598425197
 30
0.0
 10
-0.5818307086614174
 20
-2.553740157480315
 30
0.0
 10
-0.5827755905511811
 20
-2.55296062992126
 30
0.0
 10
-0.583748031496063
 20
-2.551877952755906
 30
0.0
 10
-0.583748031496063
 20
-2.551877952755906
 30
0.0
 10
-0.5841929133858268
 20
-2.551377952755906
 30
0.0
 10
-0.5849685039370079
 20
-2.549850393700788
 30
0.0
 10
-0.5861102362204724
 20
-2.547295275590551
 30
0.0
 10
-0.5861102362204724
 20
-2.547295275590551
 30
0.0
 10
-0.5875826771653544
 20
-2.544157480314961
 30
0.0
 10
-0.5887204724409449
 20
-2.542043307086614
 30
0.0
 10
-0.5895236220472441
 20
-2.54096062992126
 30
0.0
 10
-0.5895236220472441
 20
-2.54096062992126
 30
0.0
 10
-0.5912204724409449
 20
-2.538795275590551
 30
0.0
 10
-0.5933031496062993
 20
-2.537074803149606
 30
0.0
 10
-0.595748031496063
 20
-2.53582283464567
 30
0.0
 10
-0.595748031496063
 20
-2.53582283464567
 30
0.0
 10
-0.5982204724409449
 20
-2.534574803149607
 30
0.0
 10
-0.6009685039370079
 20
-2.53396062992126
 30
0.0
 10
-0.6040236220472441
 20
-2.53396062992126
 30
0.0
 10
-0.6040236220472441
 20
-2.53396062992126
 30
0.0
 10
-0.6086377952755906
 20
-2.53396062992126
 30
0.0
 10
-0.6129133858267717
 20
-2.535240157480315
 30
0.0
 10
-0.6168307086614173
 20
-2.537795275590551
 30
0.0
 10
-0.6168307086614173
 20
-2.537795275590551
 30
0.0
 10
-0.6207755905511811
 20
-2.540322834645669
 30
0.0
 10
-0.6238858267716536
 20
-2.544102362204725
 30
0.0
 10
-0.6261929133858268
 20
-2.549043307086614
 30
0.0
 10
-0.6261929133858268
 20
-2.549043307086614
 30
0.0
 10
-0.628496062992126
 20
-2.554015748031496
 30
0.0
 10
-0.6296653543307087
 20
-2.55996062992126
 30
0.0
 10
-0.6296653543307087
 20
-2.566850393700788
 30
0.0
 10
-0.6296653543307087
 20
-2.566850393700788
 30
0.0
 10
-0.6296653543307087
 20
-2.577515748031496
 30
0.0
 10
-0.6268031496062992
 20
-2.586015748031496
 30
0.0
 10
-0.6211102362204725
 20
-2.592322834645669
 30
0.0
 10
-0.6211102362204725
 20
-2.592322834645669
 30
0.0
 10
-0.6161653543307087
 20
-2.597740157480315
 30
0.0
 10
-0.6102755905511811
 20
-2.60046062992126
 30
0.0
 10
-0.6034409448818898
 20
-2.60046062992126
 30
0.0
 10
-0.6034409448818898
 20
-2.60046062992126
 30
0.0
 10
-0.6003031496062993
 20
-2.60046062992126
 30
0.0
 10
-0.5971102362204724
 20
-2.599933070866142
 30
0.0
 10
-0.5938858267716536
 20
-2.598850393700788
 30
0.0
 10
-0.5938858267716536
 20
-2.598850393700788
 30
0.0
 10
-0.5906653543307087
 20
-2.597795275590551
 30
0.0
 10
-0.5876102362204725
 20
-2.596240157480315
 30
0.0
 10
-0.5847204724409449
 20
-2.594185039370079
 30
0.0
 10
-0.5847204724409449
 20
-2.594185039370079
 30
0.0
 10
-0.5826102362204725
 20
-2.592712598425197
 30
0.0
 10
-0.5791653543307087
 20
-2.589377952755906
 30
0.0
 10
-0.5743858267716536
 20
-2.584185039370079
 30
0.0
  0
SPLINE
  5
7C
330
1F
100
AcDbEntity
  8
LAYER_1
 62
   250
100
AcDbSpline
210
0.0
220
0.0
230
1.0
 70
    11
 71
     3
 72
   140
 73
   136
 74
     0
 42
0.0000000001
 43
0.0000000001
 40
0.0
 40
0.0
 40
0.0
 40
0.0
 40
0.0294117647058824
 40
0.0294117647058824
 40
0.0294117647058824
 40
0.0294117647058824
 40
0.0588235294117647
 40
0.0588235294117647
 40
0.0588235294117647
 40
0.0588235294117647
 40
0.0882352941176471
 40
0.0882352941176471
 40
0.0882352941176471
 40
0.0882352941176471
 40
0.1176470588235294
 40
0.1176470588235294
 40
0.1176470588235294
 40
0.1176470588235294
 40
0.1470588235294118
 40
0.1470588235294118
 40
0.1470588235294118
 40
0.1470588235294118
 40
0.1764705882352941
 40
0.1764705882352941
 40
0.1764705882352941
 40
0.1764705882352941
 40
0.2058823529411765
 40
0.2058823529411765
 40
0.2058823529411765
 40
0.2058823529411765
 40
0.2352941176470589
 40
0.2352941176470589
 40
0.2352941176470589
 40
0.2352941176470589
 40
0.2647058823529412
 40
0.2647058823529412
 40
0.2647058823529412
 40
0.2647058823529412
 40
0.2941176470588235
 40
0.2941176470588235
 40
0.2941176470588235
 40
0.2941176470588235
 40
0.3235294117647059
 40
0.3235294117647059
 40
0.3235294117647059
 40
0.3235294117647059
 40
0.3529411764705883
 40
0.3529411764705883
 40
0.3529411764705883
 40
0.3529411764705883
 40
0.3823529411764706
 40
0.3823529411764706
 40
0.3823529411764706
 40
0.3823529411764706
 40
0.411764705882353
 40
0.411764705882353
 40
0.411764705882353
 40
0.411764705882353
 40
0.4411764705882353
 40
0.4411764705882353
 40
0.4411764705882353
 40
0.4411764705882353
 40
0.4705882352941177
 40
0.4705882352941177
 40
0.4705882352941177
 40
0.4705882352941177
 40
0.5
 40
0.5
 40
0.5
 40
0.5
 40
0.5294117647058824
 40
0.5294117647058824
 40
0.5294117647058824
 40
0.5294117647058824
 40
0.5588235294117647
 40
0.5588235294117647
 40
0.5588235294117647
 40
0.5588235294117647
 40
0.5882352941176471
 40
0.5882352941176471
 40
0.5882352941176471
 40
0.5882352941176471
 40
0.6176470588235294
 40
0.6176470588235294
 40
0.6176470588235294
 40
0.6176470588235294
 40
0.6470588235294118
 40
0.6470588235294118
 40
0.6470588235294118
 40
0.6470588235294118
 40
0.6764705882352942
 40
0.6764705882352942
 40
0.6764705882352942
 40
0.6764705882352942
 40
0.7058823529411765
 40
0.7058823529411765
 40
0.7058823529411765
 40
0.7058823529411765
 40
0.7352941176470589
 40
0.7352941176470589
 40
0.7352941176470589
 40
0.7352941176470589
 40
0.7647058823529412
 40
0.7647058823529412
 40
0.7647058823529412
 40
0.7647058823529412
 40
0.7941176470588236
 40
0.7941176470588236
 40
0.7941176470588236
 40
0.7941176470588236
 40
0.823529411764706
 40
0.823529411764706
 40
0.823529411764706
 40
0.823529411764706
 40
0.8529411764705883
 40
0.8529411764705883
 40
0.8529411764705883
 40
0.8529411764705883
 40
0.8823529411764707
 40
0.8823529411764707
 40
0.8823529411764707
 40
0.8823529411764707
 40
0.911764705882353
 40
0.911764705882353
 40
0.911764705882353
 40
0.911764705882353
 40
0.9411764705882354
 40
0.9411764705882354
 40
0.9411764705882354
 40
0.9411764705882354
 40
0.9705882352941178
 40
0.9705882352941178
 40
0.9705882352941178
 40
0.9705882352941178
 40
1.0
 40
1.0
 40
1.0
 40
1.0
 10
-0.5011653543307086
 20
-2.559767716535433
 30
0.0
 10
-0.5011653543307086
 20
-2.559767716535433
 30
0.0
 10
-0.5011653543307086
 20
-2.550877952755906
 30
0.0
 10
-0.5011653543307086
 20
-2.550877952755906
 30
0.0
 10
-0.5011653543307086
 20
-2.550877952755906
 30
0.0
 10
-0.5011653543307086
 20
-2.544877952755906
 30
0.0
 10
-0.5028307086614173
 20
-2.540574803149606
 30
0.0
 10
-0.5061929133858268
 20
-2.537988188976378
 30
0.0
 10
-0.5061929133858268
 20
-2.537988188976378
 30
0.0
 10
-0.5095551181102362
 20
-2.535405511811024
 30
0.0
 10
-0.5143031496062992
 20
-2.534129921259843
 30
0.0
 10
-0.5204448818897638
 20
-2.534129921259843
 30
0.0
 10
-0.5204448818897638
 20
-2.534129921259843
 30
0.0
 10
-0.5234724409448819
 20
-2.534129921259843
 30
0.0
 10
-0.5261377952755906
 20
-2.534488188976378
 30
0.0
 10
-0.5284173228346457
 20
-2.535212598425197
 30
0.0
 10
-0.5284173228346457
 20
-2.535212598425197
 30
0.0
 10
-0.5306929133858268
 20
-2.53596062992126
 30
0.0
 10
-0.5325275590551182
 20
-2.53696062992126
 30
0.0
 10
-0.5339173228346457
 20
-2.538240157480315
 30
0.0
 10
-0.5339173228346457
 20
-2.538240157480315
 30
0.0
 10
-0.5353031496062992
 20
-2.539515748031496
 30
0.0
 10
-0.5363031496062992
 20
-2.54096062992126
 30
0.0
 10
-0.536972440944882
 20
-2.542602362204725
 30
0.0
 10
-0.536972440944882
 20
-2.542602362204725
 30
0.0
 10
-0.537248031496063
 20
-2.543185039370079
 30
0.0
 10
-0.5378858267716535
 20
-2.545488188976378
 30
0.0
 10
-0.5389133858267717
 20
-2.549515748031496
 30
0.0
 10
-0.5389133858267717
 20
-2.549515748031496
 30
0.0
 10
-0.5401653543307087
 20
-2.554377952755905
 30
0.0
 10
-0.5426929133858268
 20
-2.556822834645669
 30
0.0
 10
-0.5465
 20
-2.556822834645669
 30
0.0
 10
-0.5465
 20
-2.556822834645669
 30
0.0
 10
-0.5486653543307087
 20
-2.556822834645669
 30
0.0
 10
-0.5504133858267717
 20
-2.556102362204725
 30
0.0
 10
-0.551748031496063
 20
-2.554685039370079
 30
0.0
 10
-0.551748031496063
 20
-2.554685039370079
 30
0.0
 10
-0.5530551181102362
 20
-2.553240157480315
 30
0.0
 10
-0.5537204724409449
 20
-2.551295275590551
 30
0.0
 10
-0.5537204724409449
 20
-2.548850393700787
 30
0.0
 10
-0.5537204724409449
 20
-2.548850393700787
 30
0.0
 10
-0.5537204724409449
 20
-2.545267716535433
 30
0.0
 10
-0.5523858267716536
 20
-2.541767716535433
 30
0.0
 10
-0.549748031496063
 20
-2.538322834645669
 30
0.0
 10
-0.549748031496063
 20
-2.538322834645669
 30
0.0
 10
-0.5470826771653543
 20
-2.534877952755906
 30
0.0
 10
-0.5430275590551181
 20
-2.532015748031496
 30
0.0
 10
-0.5375826771653544
 20
-2.529767716535433
 30
0.0
 10
-0.5375826771653544
 20
-2.529767716535433
 30
0.0
 10
-0.5321377952755906
 20
-2.527515748031496
 30
0.0
 10
-0.5256929133858268
 20
-2.526405511811024
 30
0.0
 10
-0.518248031496063
 20
-2.526405511811024
 30
0.0
 10
-0.518248031496063
 20
-2.526405511811024
 30
0.0
 10
-0.5113031496062992
 20
-2.526405511811024
 30
0.0
 10
-0.5053582677165355
 20
-2.52746062992126
 30
0.0
 10
-0.5004173228346457
 20
-2.529602362204725
 30
0.0
 10
-0.5004173228346457
 20
-2.529602362204725
 30
0.0
 10
-0.4955
 20
-2.531740157480315
 30
0.0
 10
-0.4918582677165355
 20
-2.53482283464567
 30
0.0
 10
-0.4895275590551181
 20
-2.538850393700788
 30
0.0
 10
-0.4895275590551181
 20
-2.538850393700788
 30
0.0
 10
-0.4878897637795276
 20
-2.541602362204725
 30
0.0
 10
-0.4870826771653544
 20
-2.546657480314961
 30
0.0
 10
-0.4870826771653544
 20
-2.553988188976378
 30
0.0
 10
-0.4870826771653544
 20
-2.553988188976378
 30
0.0
 10
-0.4870826771653544
 20
-2.553988188976378
 30
0.0
 10
-0.4870826771653544
 20
-2.58532283464567
 30
0.0
 10
-0.4870826771653544
 20
-2.58532283464567
 30
0.0
 10
-0.4870826771653544
 20
-2.58532283464567
 30
0.0
 10
-0.4870826771653544
 20
-2.589767716535433
 30
0.0
 10
-0.4869448818897638
 20
-2.592657480314961
 30
0.0
 10
-0.4866653543307087
 20
-2.594015748031496
 30
0.0
 10
-0.4866653543307087
 20
-2.594015748031496
 30
0.0
 10
-0.4860826771653544
 20
-2.596350393700788
 30
0.0
 10
-0.4850275590551181
 20
-2.59809842519685
 30
0.0
 10
-0.4835275590551181
 20
-2.599267716535433
 30
0.0
 10
-0.4835275590551181
 20
-2.599267716535433
 30
0.0
 10
-0.4820551181102362
 20
-2.600433070866142
 30
0.0
 10
-0.4801102362204724
 20
-2.601015748031496
 30
0.0
 10
-0.4777204724409449
 20
-2.601015748031496
 30
0.0
 10
-0.4777204724409449
 20
-2.601015748031496
 30
0.0
 10
-0.4752204724409449
 20
-2.601015748031496
 30
0.0
 10
-0.472248031496063
 20
-2.600433070866142
 30
0.0
 10
-0.4687755905511811
 20
-2.599240157480315
 30
0.0
 10
-0.4687755905511811
 20
-2.599240157480315
 30
0.0
 10
-0.4687755905511811
 20
-2.599240157480315
 30
0.0
 10
-0.4687755905511811
 20
-2.606295275590551
 30
0.0
 10
-0.4687755905511811
 20
-2.606295275590551
 30
0.0
 10
-0.4687755905511811
 20
-2.606295275590551
 30
0.0
 10
-0.4732755905511811
 20
-2.607598425196851
 30
0.0
 10
-0.4773031496062992
 20
-2.608267716535433
 30
0.0
 10
-0.4808897637795276
 20
-2.608267716535433
 30
0.0
 10
-0.4808897637795276
 20
-2.608267716535433
 30
0.0
 10
-0.484748031496063
 20
-2.608267716535433
 30
0.0
 10
-0.488
 20
-2.607712598425197
 30
0.0
 10
-0.4906102362204725
 20
-2.606629921259843
 30
0.0
 10
-0.4906102362204725
 20
-2.606629921259843
 30
0.0
 10
-0.493248031496063
 20
-2.605543307086614
 30
0.0
 10
-0.4954173228346457
 20
-2.60396062992126
 30
0.0
 10
-0.4970826771653544
 20
-2.601877952755906
 30
0.0
 10
-0.4970826771653544
 20
-2.601877952755906
 30
0.0
 10
-0.4987755905511812
 20
-2.599795275590551
 30
0.0
 10
-0.4998582677165355
 20
-2.597295275590551
 30
0.0
 10
-0.5003307086614174
 20
-2.594433070866142
 30
0.0
 10
-0.5003307086614174
 20
-2.594433070866142
 30
0.0
 10
-0.5068582677165354
 20
-2.599515748031496
 30
0.0
 10
-0.512748031496063
 20
-2.60309842519685
 30
0.0
 10
-0.518
 20
-2.605157480314961
 30
0.0
 10
-0.518
 20
-2.605157480314961
 30
0.0
 10
-0.5232755905511811
 20
-2.607240157480315
 30
0.0
 10
-0.5285826771653543
 20
-2.608267716535433
 30
0.0
 10
-0.5339448818897637
 20
-2.608267716535433
 30
0.0
 10
-0.5339448818897637
 20
-2.608267716535433
 30
0.0
 10
-0.5414448818897638
 20
-2.608267716535433
 30
0.0
 10
-0.5475275590551182
 20
-2.606240157480315
 30
0.0
 10
-0.5521929133858268
 20
-2.602157480314961
 30
0.0
 10
-0.5521929133858268
 20
-2.602157480314961
 30
0.0
 10
-0.5568582677165355
 20
-2.59809842519685
 30
0.0
 10
-0.5591929133858268
 20
-2.59332283464567
 30
0.0
 10
-0.5591929133858268
 20
-2.58782283464567
 30
0.0
 10
-0.5591929133858268
 20
-2.58782283464567
 30
0.0
 10
-0.5591929133858268
 20
-2.584515748031496
 30
0.0
 10
-0.5583307086614173
 20
-2.581377952755906
 30
0.0
 10
-0.5566102362204725
 20
-2.578405511811024
 30
0.0
 10
-0.5566102362204725
 20
-2.578405511811024
 30
0.0
 10
-0.5549133858267716
 20
-2.575405511811024
 30
0.0
 10
-0.5523031496062992
 20
-2.572767716535433
 30
0.0
 10
-0.5488031496062993
 20
-2.570488188976378
 30
0.0
 10
-0.5488031496062993
 20
-2.570488188976378
 30
0.0
 10
-0.5453031496062992
 20
-2.568212598425197
 30
0.0
 10
-0.5398031496062993
 20
-2.566212598425197
 30
0.0
 10
-0.5323307086614173
 20
-2.564488188976378
 30
0.0
 10
-0.5323307086614173
 20
-2.564488188976378
 30
0.0
 10
-0.5248307086614173
 20
-2.562740157480315
 30
0.0
 10
-0.5144448818897638
 20
-2.561157480314961
 30
0.0
 10
-0.5011653543307086
 20
-2.559767716535433
 30
0.0
  0
SPLINE
  5
7D
330
1F
100
AcDbEntity
  8
LAYER_1
 62
   250
100
AcDbSpline
210
0.0
220
0.0
230
1.0
 70
    11
 71
     3
 72
    44
 73
    40
 74
     0
 42
0.0000000001
 43
0.0000000001
 40
0.0
 40
0.0
 40
0.0
 40
0.0
 40
0.1
 40
0.1
 40
0.1
 40
0.1
 40
0.2
 40
0.2
 40
0.2
 40
0.2
 40
0.3
 40
0.3
 40
0.3
 40
0.3
 40
0.4
 40
0.4
 40
0.4
 40
0.4
 40
0.5
 40
0.5
 40
0.5
 40
0.5
 40
0.6
 40
0.6
 40
0.6
 40
0.6
 40
0.7
 40
0.7
 40
0.7
 40
0.7
 40
0.7999999999999999
 40
0.7999999999999999
 40
0.7999999999999999
 40
0.7999999999999999
 40
0.8999999999999999
 40
0.8999999999999999
 40
0.8999999999999999
 40
0.8999999999999999
 40
1.0
 40
1.0
 40
1.0
 40
1.0
 10
-0.5011653543307086
 20
-2.566850393700788
 30
0.0
 10
-0.513748031496063
 20
-2.568685039370079
 30
0.0
 10
-0.5215275590551182
 20
-2.56996062992126
 30
0.0
 10
-0.5245275590551182
 20
-2.570657480314961
 30
0.0
 10
-0.5245275590551182
 20
-2.570657480314961
 30
0.0
 10
-0.5304173228346457
 20
-2.572015748031496
 30
0.0
 10
-0.5346653543307087
 20
-2.573515748031496
 30
0.0
 10
-0.537220472440945
 20
-2.575129921259843
 30
0.0
 10
-0.537220472440945
 20
-2.575129921259843
 30
0.0
 10
-0.539748031496063
 20
-2.576767716535433
 30
0.0
 10
-0.5415826771653544
 20
-2.578515748031496
 30
0.0
 10
-0.5426653543307087
 20
-2.580377952755906
 30
0.0
 10
-0.5426653543307087
 20
-2.580377952755906
 30
0.0
 10
-0.543748031496063
 20
-2.582267716535433
 30
0.0
 10
-0.5442755905511811
 20
-2.584267716535433
 30
0.0
 10
-0.5442755905511811
 20
-2.586377952755905
 30
0.0
 10
-0.5442755905511811
 20
-2.586377952755905
 30
0.0
 10
-0.5442755905511811
 20
-2.588488188976378
 30
0.0
 10
-0.5436929133858268
 20
-2.590543307086614
 30
0.0
 10
-0.5424724409448819
 20
-2.592515748031496
 30
0.0
 10
-0.5424724409448819
 20
-2.592515748031496
 30
0.0
 10
-0.541248031496063
 20
-2.594488188976378
 30
0.0
 10
-0.5395275590551182
 20
-2.596043307086614
 30
0.0
 10
-0.5373031496062992
 20
-2.597185039370079
 30
0.0
 10
-0.5373031496062992
 20
-2.597185039370079
 30
0.0
 10
-0.5350551181102362
 20
-2.59832283464567
 30
0.0
 10
-0.5326929133858268
 20
-2.598905511811024
 30
0.0
 10
-0.530220472440945
 20
-2.598905511811024
 30
0.0
 10
-0.530220472440945
 20
-2.598905511811024
 30
0.0
 10
-0.5266929133858268
 20
-2.598905511811024
 30
0.0
 10
-0.5226929133858268
 20
-2.598070866141732
 30
0.0
 10
-0.518248031496063
 20
-2.596377952755906
 30
0.0
 10
-0.518248031496063
 20
-2.596377952755906
 30
0.0
 10
-0.5138031496062993
 20
-2.594712598425197
 30
0.0
 10
-0.5081102362204725
 20
-2.591405511811024
 30
0.0
 10
-0.5011653543307086
 20
-2.586543307086614
 30
0.0
 10
-0.5011653543307086
 20
-2.586543307086614
 30
0.0
 10
-0.5011653543307086
 20
-2.586543307086614
 30
0.0
 10
-0.5011653543307086
 20
-2.566850393700788
 30
0.0
 10
-0.5011653543307086
 20
-2.566850393700788
 30
0.0
  0
SPLINE
  5
7E
330
1F
100
AcDbEntity
  8
LAYER_1
 62
   250
100
AcDbSpline
210
0.0
220
0.0
230
1.0
 70
    11
 71
     3
 72
   112
 73
   108
 74
     0
 42
0.0000000001
 43
0.0000000001
 40
0.0
 40
0.0
 40
0.0
 40
0.0
 40
0.037037037037037
 40
0.037037037037037
 40
0.037037037037037
 40
0.037037037037037
 40
0.0740740740740741
 40
0.0740740740740741
 40
0.0740740740740741
 40
0.0740740740740741
 40
0.1111111111111111
 40
0.1111111111111111
 40
0.1111111111111111
 40
0.1111111111111111
 40
0.1481481481481481
 40
0.1481481481481481
 40
0.1481481481481481
 40
0.1481481481481481
 40
0.1851851851851852
 40
0.1851851851851852
 40
0.1851851851851852
 40
0.1851851851851852
 40
0.2222222222222222
 40
0.2222222222222222
 40
0.2222222222222222
 40
0.2222222222222222
 40
0.2592592592592592
 40
0.2592592592592592
 40
0.2592592592592592
 40
0.2592592592592592
 40
0.2962962962962963
 40
0.2962962962962963
 40
0.2962962962962963
 40
0.2962962962962963
 40
0.3333333333333333
 40
0.3333333333333333
 40
0.3333333333333333
 40
0.3333333333333333
 40
0.3703703703703704
 40
0.3703703703703704
 40
0.3703703703703704
 40
0.3703703703703704
 40
0.4074074074074074
 40
0.4074074074074074
 40
0.4074074074074074
 40
0.4074074074074074
 40
0.4444444444444444
 40
0.4444444444444444
 40
0.4444444444444444
 40
0.4444444444444444
 40
0.4814814814814815
 40
0.4814814814814815
 40
0.4814814814814815
 40
0.4814814814814815
 40
0.5185185185185185
 40
0.5185185185185185
 40
0.5185185185185185
 40
0.5185185185185185
 40
0.5555555555555556
 40
0.5555555555555556
 40
0.5555555555555556
 40
0.5555555555555556
 40
0.5925925925925926
 40
0.5925925925925926
 40
0.5925925925925926
 40
0.5925925925925926
 40
0.6296296296296295
 40
0.6296296296296295
 40
0.6296296296296295
 40
0.6296296296296295
 40
0.6666666666666665
 40
0.6666666666666665
 40
0.6666666666666665
 40
0.6666666666666665
 40
0.7037037037037035
 40
0.7037037037037035
 40
0.7037037037037035
 40
0.7037037037037035
 40
0.7407407407407405
 40
0.7407407407407405
 40
0.7407407407407405
 40
0.7407407407407405
 40
0.7777777777777775
 40
0.7777777777777775
 40
0.7777777777777775
 40
0.7777777777777775
 40
0.8148148148148144
 40
0.8148148148148144
 40
0.8148148148148144
 40
0.8148148148148144
 40
0.8518518518518514
 40
0.8518518518518514
 40
0.8518518518518514
 40
0.8518518518518514
 40
0.8888888888888884
 40
0.8888888888888884
 40
0.8888888888888884
 40
0.8888888888888884
 40
0.9259259259259254
 40
0.9259259259259254
 40
0.9259259259259254
 40
0.9259259259259254
 40
0.9629629629629624
 40
0.9629629629629624
 40
0.9629629629629624
 40
0.9629629629629624
 40
1.0
 40
1.0
 40
1.0
 40
1.0
 10
-0.4638070866141733
 20
-2.539988188976378
 30
0.0
 10
-0.4638070866141733
 20
-2.539988188976378
 30
0.0
 10
-0.4638070866141733
 20
-2.53332283464567
 30
0.0
 10
-0.4638070866141733
 20
-2.53332283464567
 30
0.0
 10
-0.4638070866141733
 20
-2.53332283464567
 30
0.0
 10
-0.459748031496063
 20
-2.53332283464567
 30
0.0
 10
-0.4561377952755906
 20
-2.532795275590551
 30
0.0
 10
-0.453
 20
-2.531767716535433
 30
0.0
 10
-0.453
 20
-2.531767716535433
 30
0.0
 10
-0.4498622047244095
 20
-2.530740157480315
 30
0.0
 10
-0.4464173228346457
 20
-2.528933070866142
 30
0.0
 10
-0.4426653543307087
 20
-2.526405511811024
 30
0.0
 10
-0.4426653543307087
 20
-2.526405511811024
 30
0.0
 10
-0.4426653543307087
 20
-2.526405511811024
 30
0.0
 10
-0.4362204724409449
 20
-2.526405511811024
 30
0.0
 10
-0.4362204724409449
 20
-2.526405511811024
 30
0.0
 10
-0.4362204724409449
 20
-2.526405511811024
 30
0.0
 10
-0.4362204724409449
 20
-2.526405511811024
 30
0.0
 10
-0.4362204724409449
 20
-2.539988188976378
 30
0.0
 10
-0.4362204724409449
 20
-2.539988188976378
 30
0.0
 10
-0.4362204724409449
 20
-2.539988188976378
 30
0.0
 10
-0.4294448818897638
 20
-2.534602362204725
 30
0.0
 10
-0.4238070866141733
 20
-2.531015748031496
 30
0.0
 10
-0.4193070866141733
 20
-2.529157480314961
 30
0.0
 10
-0.4193070866141733
 20
-2.529157480314961
 30
0.0
 10
-0.4148070866141733
 20
-2.527322834645669
 30
0.0
 10
-0.4103070866141733
 20
-2.526405511811024
 30
0.0
 10
-0.4058070866141733
 20
-2.526405511811024
 30
0.0
 10
-0.4058070866141733
 20
-2.526405511811024
 30
0.0
 10
-0.3965275590551181
 20
-2.526405511811024
 30
0.0
 10
-0.3886102362204725
 20
-2.530015748031496
 30
0.0
 10
-0.3820826771653543
 20
-2.537295275590551
 30
0.0
 10
-0.3820826771653543
 20
-2.537295275590551
 30
0.0
 10
-0.3755275590551181
 20
-2.544574803149606
 30
0.0
 10
-0.3722795275590551
 20
-2.554043307086614
 30
0.0
 10
-0.3722795275590551
 20
-2.565712598425197
 30
0.0
 10
-0.3722795275590551
 20
-2.565712598425197
 30
0.0
 10
-0.3722795275590551
 20
-2.578602362204725
 30
0.0
 10
-0.3759724409448819
 20
-2.589185039370079
 30
0.0
 10
-0.3834173228346457
 20
-2.597433070866142
 30
0.0
 10
-0.3834173228346457
 20
-2.597433070866142
 30
0.0
 10
-0.3901929133858268
 20
-2.605043307086614
 30
0.0
 10
-0.3989448818897638
 20
-2.608822834645669
 30
0.0
 10
-0.4096102362204724
 20
-2.608822834645669
 30
0.0
 10
-0.4096102362204724
 20
-2.608822834645669
 30
0.0
 10
-0.4149448818897638
 20
-2.608822834645669
 30
0.0
 10
-0.4199173228346457
 20
-2.60782283464567
 30
0.0
 10
-0.4245826771653544
 20
-2.605822834645669
 30
0.0
 10
-0.4245826771653544
 20
-2.605822834645669
 30
0.0
 10
-0.4279448818897638
 20
-2.604405511811024
 30
0.0
 10
-0.4318346456692914
 20
-2.601877952755906
 30
0.0
 10
-0.4362204724409449
 20
-2.598240157480315
 30
0.0
 10
-0.4362204724409449
 20
-2.598240157480315
 30
0.0
 10
-0.4362204724409449
 20
-2.598240157480315
 30
0.0
 10
-0.4362204724409449
 20
-2.625015748031496
 30
0.0
 10
-0.4362204724409449
 20
-2.625015748031496
 30
0.0
 10
-0.4362204724409449
 20
-2.625015748031496
 30
0.0
 10
-0.4362204724409449
 20
-2.629043307086614
 30
0.0
 10
-0.4361102362204725
 20
-2.631405511811024
 30
0.0
 10
-0.4359173228346457
 20
-2.632098425196851
 30
0.0
 10
-0.4359173228346457
 20
-2.632098425196851
 30
0.0
 10
-0.4356377952755905
 20
-2.633125984251969
 30
0.0
 10
-0.4350826771653544
 20
-2.634015748031496
 30
0.0
 10
-0.4342795275590551
 20
-2.634712598425197
 30
0.0
 10
-0.4342795275590551
 20
-2.634712598425197
 30
0.0
 10
-0.4334724409448819
 20
-2.635405511811024
 30
0.0
 10
-0.4324448818897638
 20
-2.635877952755906
 30
0.0
 10
-0.4311929133858268
 20
-2.636098425196851
 30
0.0
 10
-0.4311929133858268
 20
-2.636098425196851
 30
0.0
 10
-0.430251968503937
 20
-2.636267716535433
 30
0.0
 10
-0.4271653543307087
 20
-2.636350393700788
 30
0.0
 10
-0.4219173228346457
 20
-2.636350393700788
 30
0.0
 10
-0.4219173228346457
 20
-2.636350393700788
 30
0.0
 10
-0.4219173228346457
 20
-2.636350393700788
 30
0.0
 10
-0.4219173228346457
 20
-2.643185039370079
 30
0.0
 10
-0.4219173228346457
 20
-2.643185039370079
 30
0.0
 10
-0.4219173228346457
 20
-2.643185039370079
 30
0.0
 10
-0.4219173228346457
 20
-2.643185039370079
 30
0.0
 10
-0.4638070866141733
 20
-2.643185039370079
 30
0.0
 10
-0.4638070866141733
 20
-2.643185039370079
 30
0.0
 10
-0.4638070866141733
 20
-2.643185039370079
 30
0.0
 10
-0.4638070866141733
 20
-2.643185039370079
 30
0.0
 10
-0.4638070866141733
 20
-2.636350393700788
 30
0.0
 10
-0.4638070866141733
 20
-2.636350393700788
 30
0.0
 10
-0.4638070866141733
 20
-2.636350393700788
 30
0.0
 10
-0.4638070866141733
 20
-2.636350393700788
 30
0.0
 10
-0.4601653543307087
 20
-2.636350393700788
 30
0.0
 10
-0.4601653543307087
 20
-2.636350393700788
 30
0.0
 10
-0.4601653543307087
 20
-2.636350393700788
 30
0.0
 10
-0.4564173228346457
 20
-2.636350393700788
 30
0.0
 10
-0.4539724409448819
 20
-2.636043307086614
 30
0.0
 10
-0.4528622047244095
 20
-2.635488188976378
 30
0.0
 10
-0.4528622047244095
 20
-2.635488188976378
 30
0.0
 10
-0.451748031496063
 20
-2.634905511811024
 30
0.0
 10
-0.4509448818897638
 20
-2.634043307086615
 30
0.0
 10
-0.4503897637795276
 20
-2.632850393700787
 30
0.0
 10
-0.4503897637795276
 20
-2.632850393700787
 30
0.0
 10
-0.4500551181102362
 20
-2.631905511811024
 30
0.0
 10
-0.4499173228346457
 20
-2.629098425196851
 30
0.0
 10
-0.4499173228346457
 20
-2.624377952755906
 30
0.0
 10
-0.4499173228346457
 20
-2.624377952755906
 30
0.0
 10
-0.4499173228346457
 20
-2.624377952755906
 30
0.0
 10
-0.4499173228346457
 20
-2.539988188976378
 30
0.0
 10
-0.4499173228346457
 20
-2.539988188976378
 30
0.0
 10
-0.4499173228346457
 20
-2.539988188976378
 30
0.0
 10
-0.4499173228346457
 20
-2.539988188976378
 30
0.0
 10
-0.4638070866141733
 20
-2.539988188976378
 30
0.0
 10
-0.4638070866141733
 20
-2.539988188976378
 30
0.0
  0
SPLINE
  5
7F
330
1F
100
AcDbEntity
  8
LAYER_1
 62
   250
100
AcDbSpline
210
0.0
220
0.0
230
1.0
 70
    11
 71
     3
 72
    48
 73
    44
 74
     0
 42
0.0000000001
 43
0.0000000001
 40
0.0
 40
0.0
 40
0.0
 40
0.0
 40
0.0909090909090909
 40
0.0909090909090909
 40
0.0909090909090909
 40
0.0909090909090909
 40
0.1818181818181818
 40
0.1818181818181818
 40
0.1818181818181818
 40
0.1818181818181818
 40
0.2727272727272727
 40
0.2727272727272727
 40
0.2727272727272727
 40
0.2727272727272727
 40
0.3636363636363637
 40
0.3636363636363637
 40
0.3636363636363637
 40
0.3636363636363637
 40
0.4545454545454546
 40
0.4545454545454546
 40
0.4545454545454546
 40
0.4545454545454546
 40
0.5454545454545455
 40
0.5454545454545455
 40
0.5454545454545455
 40
0.5454545454545455
 40
0.6363636363636365
 40
0.6363636363636365
 40
0.6363636363636365
 40
0.6363636363636365
 40
0.7272727272727274
 40
0.7272727272727274
 40
0.7272727272727274
 40
0.7272727272727274
 40
0.8181818181818183
 40
0.8181818181818183
 40
0.8181818181818183
 40
0.8181818181818183
 40
0.9090909090909093
 40
0.9090909090909093
 40
0.9090909090909093
 40
0.9090909090909093
 40
1.0
 40
1.0
 40
1.0
 40
1.0
 10
-0.4362204724409449
 20
-2.548377952755906
 30
0.0
 10
-0.4362204724409449
 20
-2.548377952755906
 30
0.0
 10
-0.4362204724409449
 20
-2.576350393700788
 30
0.0
 10
-0.4362204724409449
 20
-2.576350393700788
 30
0.0
 10
-0.4362204724409449
 20
-2.576350393700788
 30
0.0
 10
-0.4362204724409449
 20
-2.580043307086614
 30
0.0
 10
-0.4360275590551181
 20
-2.582795275590551
 30
0.0
 10
-0.4355826771653544
 20
-2.584570866141732
 30
0.0
 10
-0.4355826771653544
 20
-2.584570866141732
 30
0.0
 10
-0.4349173228346457
 20
-2.587350393700787
 30
0.0
 10
-0.4336653543307087
 20
-2.589850393700787
 30
0.0
 10
-0.4318070866141732
 20
-2.592070866141732
 30
0.0
 10
-0.4318070866141732
 20
-2.592070866141732
 30
0.0
 10
-0.4299173228346457
 20
-2.594295275590551
 30
0.0
 10
-0.4273622047244094
 20
-2.596185039370079
 30
0.0
 10
-0.4241377952755906
 20
-2.597767716535433
 30
0.0
 10
-0.4241377952755906
 20
-2.597767716535433
 30
0.0
 10
-0.4209173228346457
 20
-2.599350393700787
 30
0.0
 10
-0.4175275590551181
 20
-2.600129921259843
 30
0.0
 10
-0.4140275590551181
 20
-2.600129921259843
 30
0.0
 10
-0.4140275590551181
 20
-2.600129921259843
 30
0.0
 10
-0.4069724409448819
 20
-2.600129921259843
 30
0.0
 10
-0.4008346456692913
 20
-2.59746062992126
 30
0.0
 10
-0.3956653543307087
 20
-2.592157480314961
 30
0.0
 10
-0.3956653543307087
 20
-2.592157480314961
 30
0.0
 10
-0.3904724409448819
 20
-2.586822834645669
 30
0.0
 10
-0.3878897637795276
 20
-2.578767716535433
 30
0.0
 10
-0.3878897637795276
 20
-2.567988188976378
 30
0.0
 10
-0.3878897637795276
 20
-2.567988188976378
 30
0.0
 10
-0.3878897637795276
 20
-2.557877952755906
 30
0.0
 10
-0.3900275590551181
 20
-2.550102362204724
 30
0.0
 10
-0.3943346456692913
 20
-2.544574803149606
 30
0.0
 10
-0.3943346456692913
 20
-2.544574803149606
 30
0.0
 10
-0.3986102362204725
 20
-2.539074803149606
 30
0.0
 10
-0.4036653543307087
 20
-2.536322834645669
 30
0.0
 10
-0.4095275590551181
 20
-2.536322834645669
 30
0.0
 10
-0.4095275590551181
 20
-2.536322834645669
 30
0.0
 10
-0.4133346456692914
 20
-2.536322834645669
 30
0.0
 10
-0.4174724409448819
 20
-2.53732283464567
 30
0.0
 10
-0.4219173228346457
 20
-2.539322834645669
 30
0.0
 10
-0.4219173228346457
 20
-2.539322834645669
 30
0.0
 10
-0.4263622047244094
 20
-2.541350393700788
 30
0.0
 10
-0.4311377952755905
 20
-2.544350393700788
 30
0.0
 10
-0.4362204724409449
 20
-2.548377952755906
 30
0.0
  0
ENDSEC
  0
SECTION
  2
OBJECTS
  0
DICTIONARY
  5
C
330
0
100
AcDbDictionary
  3
ACAD_GROUP
350
D
  3
ACAD_LAYOUT
350
1A
  3
ACAD_MLINESTYLE
350
17
  3
ACAD_PLOTSETTINGS
350
19
  3
ACDBHEADERROUNDTRIPXREC
350
80
  0
DICTIONARY
  5
A0
330
29
100
AcDbDictionary
280
     1
  3
ACAD_XREC_ROUNDTRIP
360
A1
  0
DICTIONARY
  5
D
102
{ACAD_REACTORS
330
C
102
}
330
C
100
AcDbDictionary
  0
DICTIONARY
  5
1A
102
{ACAD_REACTORS
330
C
102
}
330
C
100
AcDbDictionary
  0
DICTIONARY
  5
17
102
{ACAD_REACTORS
330
C
102
}
330
C
100
AcDbDictionary
  3
STANDARD
350
18
  0
DICTIONARY
  5
19
102
{ACAD_REACTORS
330
C
102
}
330
C
100
AcDbDictionary
  0
DICTIONARY
  5
80
102
{ACAD_REACTORS
330
C
102
}
330
C
100
AcDbDictionary
  3
CEPSNTYPE
350
89
  3
DIMSTYLEDATA
350
9F
  3
FINGERPRINTGUID
350
8A
  3
HYPERLINKBASE
350
83
  3
INSUNITS
350
88
  3
LAYOUTDICT
350
85
  3
LWETCUNION
350
87
  3
PLOTSETDICT
350
86
  3
PSVPSCALE
350
8C
  3
PUCSBASE
350
8F
  3
PUCSORGBACK
350
95
  3
PUCSORGBOTTOM
350
91
  3
PUCSORGFRONT
350
94
  3
PUCSORGLEFT
350
92
  3
PUCSORGRIGHT
350
93
  3
PUCSORGTOP
350
90
  3
PUCSORTHOREF
350
8D
  3
PUCSORTHOVIEW
350
8E
  3
STYLESHEET
350
84
  3
TSTACKALIGN
350
81
  3
TSTACKSIZE
350
82
  3
UCSBASE
350
98
  3
UCSORGBACK
350
9E
  3
UCSORGBOTTOM
350
9A
  3
UCSORGFRONT
350
9D
  3
UCSORGLEFT
350
9B
  3
UCSORGRIGHT
350
9C
  3
UCSORGTOP
350
99
  3
UCSORTHOREF
350
96
  3
UCSORTHOVIEW
350
97
  3
VERSIONGUID
350
8B
  0
XRECORD
  5
A1
102
{ACAD_REACTORS
330
A0
102
}
330
A0
100
AcDbXrecord
102
UCS
 74
     0
 71
     1
 10
0.0
 20
0.0
 30
0.0
 10
1.0
 20
0.0
 30
0.0
 10
0.0
 20
1.0
 30
0.0
146
0.0
 79
     0
102
VIEW
281
     0
  0
MLINESTYLE
  5
18
102
{ACAD_REACTORS
330
17
102
}
330
17
100
AcDbMlineStyle
  2
Standard
 70
     0
  3

 62
   256
 51
90.0
 52
90.0
 71
     2
 49
0.5
 62
   256
  6
BYLAYER
 49
-0.5
 62
   256
  6
BYLAYER
  0
XRECORD
  5
89
102
{ACAD_REACTORS
330
80
102
}
330
80
100
AcDbXrecord
 90
        0
  0
XRECORD
  5
9F
102
{ACAD_REACTORS
330
80
102
}
330
80
100
AcDbXrecord
1000
DSTYLE
1002
{
1070
   340
340
11
1002
}
  0
XRECORD
  5
8A
102
{ACAD_REACTORS
330
80
102
}
330
80
100
AcDbXrecord
  1
{FAEB1C30-E019-11D5-929B-00C0DF256EC4}
  0
XRECORD
  5
83
102
{ACAD_REACTORS
330
80
102
}
330
80
100
AcDbXrecord
  1

  0
XRECORD
  5
88
102
{ACAD_REACTORS
330
80
102
}
330
80
100
AcDbXrecord
 90
        1
  0
XRECORD
  5
85
102
{ACAD_REACTORS
330
80
102
}
330
80
100
AcDbXrecord
340
1A
  0
XRECORD
  5
87
102
{ACAD_REACTORS
330
80
102
}
330
80
100
AcDbXrecord
 90
     2560
  0
XRECORD
  5
86
102
{ACAD_REACTORS
330
80
102
}
330
80
100
AcDbXrecord
340
19
  0
XRECORD
  5
8C
102
{ACAD_REACTORS
330
80
102
}
330
80
100
AcDbXrecord
 40
0.0
  0
XRECORD
  5
8F
102
{ACAD_REACTORS
330
80
102
}
330
80
100
AcDbXrecord
340
0
  0
XRECORD
  5
95
102
{ACAD_REACTORS
330
80
102
}
330
80
100
AcDbXrecord
 10
0.0
 20
0.0
 30
0.0
  0
XRECORD
  5
91
102
{ACAD_REACTORS
330
80
102
}
330
80
100
AcDbXrecord
 10
0.0
 20
0.0
 30
0.0
  0
XRECORD
  5
94
102
{ACAD_REACTORS
330
80
102
}
330
80
100
AcDbXrecord
 10
0.0
 20
0.0
 30
0.0
  0
XRECORD
  5
92
102
{ACAD_REACTORS
330
80
102
}
330
80
100
AcDbXrecord
 10
0.0
 20
0.0
 30
0.0
  0
XRECORD
  5
93
102
{ACAD_REACTORS
330
80
102
}
330
80
100
AcDbXrecord
 10
0.0
 20
0.0
 30
0.0
  0
XRECORD
  5
90
102
{ACAD_REACTORS
330
80
102
}
330
80
100
AcDbXrecord
 10
0.0
 20
0.0
 30
0.0
  0
XRECORD
  5
8D
102
{ACAD_REACTORS
330
80
102
}
330
80
100
AcDbXrecord
340
0
  0
XRECORD
  5
8E
102
{ACAD_REACTORS
330
80
102
}
330
80
100
AcDbXrecord
 70
     0
  0
XRECORD
  5
84
102
{ACAD_REACTORS
330
80
102
}
330
80
100
AcDbXrecord
  1

  0
XRECORD
  5
81
102
{ACAD_REACTORS
330
80
102
}
330
80
100
AcDbXrecord
 90
        1
  0
XRECORD
  5
82
102
{ACAD_REACTORS
330
80
102
}
330
80
100
AcDbXrecord
 90
       70
  0
XRECORD
  5
98
102
{ACAD_REACTORS
330
80
102
}
330
80
100
AcDbXrecord
340
0
  0
XRECORD
  5
9E
102
{ACAD_REACTORS
330
80
102
}
330
80
100
AcDbXrecord
 10
0.0
 20
0.0
 30
0.0
  0
XRECORD
  5
9A
102
{ACAD_REACTORS
330
80
102
}
330
80
100
AcDbXrecord
 10
0.0
 20
0.0
 30
0.0
  0
XRECORD
  5
9D
102
{ACAD_REACTORS
330
80
102
}
330
80
100
AcDbXrecord
 10
0.0
 20
0.0
 30
0.0
  0
XRECORD
  5
9B
102
{ACAD_REACTORS
330
80
102
}
330
80
100
AcDbXrecord
 10
0.0
 20
0.0
 30
0.0
  0
XRECORD
  5
9C
102
{ACAD_REACTORS
330
80
102
}
330
80
100
AcDbXrecord
 10
0.0
 20
0.0
 30
0.0
  0
XRECORD
  5
99
102
{ACAD_REACTORS
330
80
102
}
330
80
100
AcDbXrecord
 10
0.0
 20
0.0
 30
0.0
  0
XRECORD
  5
96
102
{ACAD_REACTORS
330
80
102
}
330
80
100
AcDbXrecord
340
0
  0
XRECORD
  5
97
102
{ACAD_REACTORS
330
80
102
}
330
80
100
AcDbXrecord
 70
     0
  0
XRECORD
  5
8B
102
{ACAD_REACTORS
330
80
102
}
330
80
100
AcDbXrecord
  1
{FAEB1C32-E019-11D5-929B-00C0DF256EC4}
  0
ENDSEC
  0
EOF
