  0
SECTION
  2
HEADER
  9
$ACADVER
  1
AC1014
  9
$ACADMAINTVER
 70
     9
  9
$DWGCODEPAGE
  3
ANSI_1252
  9
$INSBASE
 10
0.0
 20
0.0
 30
0.0
  9
$EXTMIN
 10
-1.063799212598425
 20
-3.592251968503937
 30
0.0
  9
$EXTMAX
 10
1.507716535433071
 20
3.230452755905512
 30
0.0
  9
$LIMMIN
 10
0.0
 20
0.0
  9
$LIMMAX
 10
12.0
 20
9.0
  9
$ORTHOMODE
 70
     0
  9
$REGENMODE
 70
     1
  9
$FILLMODE
 70
     1
  9
$QTEXTMODE
 70
     0
  9
$MIRRTEXT
 70
     1
  9
$DRAGMODE
 70
     2
  9
$LTSCALE
 40
1.0
  9
$OSMODE
 70
    37
  9
$ATTMODE
 70
     1
  9
$TEXTSIZE
 40
0.2
  9
$TRACEWID
 40
0.05
  9
$TEXTSTYLE
  7
STANDARD
  9
$CLAYER
  8
0
  9
$CELTYPE
  6
BYLAYER
  9
$CECOLOR
 62
   256
  9
$CELTSCALE
 40
1.0
  9
$DELOBJ
 70
     1
  9
$DISPSILH
 70
     0
  9
$DIMSCALE
 40
1.0
  9
$DIMASZ
 40
0.18
  9
$DIMEXO
 40
0.0625
  9
$DIMDLI
 40
0.38
  9
$DIMRND
 40
0.0
  9
$DIMDLE
 40
0.0
  9
$DIMEXE
 40
0.18
  9
$DIMTP
 40
0.0
  9
$DIMTM
 40
0.0
  9
$DIMTXT
 40
0.18
  9
$DIMCEN
 40
0.09
  9
$DIMTSZ
 40
0.0
  9
$DIMTOL
 70
     0
  9
$DIMLIM
 70
     0
  9
$DIMTIH
 70
     1
  9
$DIMTOH
 70
     1
  9
$DIMSE1
 70
     0
  9
$DIMSE2
 70
     0
  9
$DIMTAD
 70
     0
  9
$DIMZIN
 70
     0
  9
$DIMBLK
  1

  9
$DIMASO
 70
     1
  9
$DIMSHO
 70
     1
  9
$DIMPOST
  1

  9
$DIMAPOST
  1

  9
$DIMALT
 70
     0
  9
$DIMALTD
 70
     2
  9
$DIMALTF
 40
25.4
  9
$DIMLFAC
 40
1.0
  9
$DIMTOFL
 70
     0
  9
$DIMTVP
 40
0.0
  9
$DIMTIX
 70
     0
  9
$DIMSOXD
 70
     0
  9
$DIMSAH
 70
     0
  9
$DIMBLK1
  1

  9
$DIMBLK2
  1

  9
$DIMSTYLE
  2
STANDARD
  9
$DIMCLRD
 70
     0
  9
$DIMCLRE
 70
     0
  9
$DIMCLRT
 70
     0
  9
$DIMTFAC
 40
1.0
  9
$DIMGAP
 40
0.09
  9
$DIMJUST
 70
     0
  9
$DIMSD1
 70
     0
  9
$DIMSD2
 70
     0
  9
$DIMTOLJ
 70
     1
  9
$DIMTZIN
 70
     0
  9
$DIMALTZ
 70
     0
  9
$DIMALTTZ
 70
     0
  9
$DIMFIT
 70
     3
  9
$DIMUPT
 70
     0
  9
$DIMUNIT
 70
     2
  9
$DIMDEC
 70
     4
  9
$DIMTDEC
 70
     4
  9
$DIMALTU
 70
     2
  9
$DIMALTTD
 70
     2
  9
$DIMTXSTY
  7
STANDARD
  9
$DIMAUNIT
 70
     0
  9
$LUNITS
 70
     2
  9
$LUPREC
 70
     4
  9
$SKETCHINC
 40
0.1
  9
$FILLETRAD
 40
0.5
  9
$AUNITS
 70
     0
  9
$AUPREC
 70
     0
  9
$MENU
  1
.
  9
$ELEVATION
 40
0.0
  9
$PELEVATION
 40
0.0
  9
$THICKNESS
 40
0.0
  9
$LIMCHECK
 70
     0
  9
$CHAMFERA
 40
0.5
  9
$CHAMFERB
 40
0.5
  9
$CHAMFERC
 40
1.0
  9
$CHAMFERD
 40
0.0
  9
$SKPOLY
 70
     0
  9
$TDCREATE
 40
2454123.57756103
  9
$TDUPDATE
 40
2454123.577561042
  9
$TDINDWG
 40
0.0000000116
  9
$TDUSRTIMER
 40
0.0000000116
  9
$USRTIMER
 70
     1
  9
$ANGBASE
 50
0.0
  9
$ANGDIR
 70
     0
  9
$PDMODE
 70
     0
  9
$PDSIZE
 40
0.0
  9
$PLINEWID
 40
0.0
  9
$COORDS
 70
     1
  9
$SPLFRAME
 70
     0
  9
$SPLINETYPE
 70
     6
  9
$SPLINESEGS
 70
     8
  9
$ATTDIA
 70
     0
  9
$ATTREQ
 70
     1
  9
$HANDLING
 70
     1
  9
$HANDSEED
  5
CC
  9
$SURFTAB1
 70
     6
  9
$SURFTAB2
 70
     6
  9
$SURFTYPE
 70
     6
  9
$SURFU
 70
     6
  9
$SURFV
 70
     6
  9
$UCSNAME
  2

  9
$UCSORG
 10
0.0
 20
0.0
 30
0.0
  9
$UCSXDIR
 10
1.0
 20
0.0
 30
0.0
  9
$UCSYDIR
 10
0.0
 20
1.0
 30
0.0
  9
$PUCSNAME
  2

  9
$PUCSORG
 10
0.0
 20
0.0
 30
0.0
  9
$PUCSXDIR
 10
1.0
 20
0.0
 30
0.0
  9
$PUCSYDIR
 10
0.0
 20
1.0
 30
0.0
  9
$USERI1
 70
     0
  9
$USERI2
 70
     0
  9
$USERI3
 70
     0
  9
$USERI4
 70
     0
  9
$USERI5
 70
     0
  9
$USERR1
 40
0.0
  9
$USERR2
 40
0.0
  9
$USERR3
 40
0.0
  9
$USERR4
 40
0.0
  9
$USERR5
 40
0.0
  9
$WORLDVIEW
 70
     1
  9
$SHADEDGE
 70
     3
  9
$SHADEDIF
 70
    70
  9
$TILEMODE
 70
     1
  9
$MAXACTVP
 70
    64
  9
$PINSBASE
 10
0.0
 20
0.0
 30
0.0
  9
$PLIMCHECK
 70
     0
  9
$PEXTMIN
 10
1.000000000000000E+20
 20
1.000000000000000E+20
 30
1.000000000000000E+20
  9
$PEXTMAX
 10
-1.000000000000000E+20
 20
-1.000000000000000E+20
 30
-1.000000000000000E+20
  9
$PLIMMIN
 10
0.0
 20
0.0
  9
$PLIMMAX
 10
12.0
 20
9.0
  9
$UNITMODE
 70
     0
  9
$VISRETAIN
 70
     1
  9
$PLINEGEN
 70
     0
  9
$PSLTSCALE
 70
     1
  9
$TREEDEPTH
 70
  3020
  9
$PICKSTYLE
 70
     1
  9
$CMLSTYLE
  2
STANDARD
  9
$CMLJUST
 70
     0
  9
$CMLSCALE
 40
1.0
  9
$PROXYGRAPHICS
 70
     1
  9
$MEASUREMENT
 70
     0
  0
ENDSEC
  0
SECTION
  2
CLASSES
  0
CLASS
  1
ACDBDICTIONARYWDFLT
  2
AcDbDictionaryWithDefault
  3
ObjectDBX Classes
 90
        0
280
     0
281
     0
  0
CLASS
  1
XRECORD
  2
AcDbXrecord
  3
AutoCAD 2000
 90
        0
280
     0
281
     0
  0
CLASS
  1
LWPOLYLINE
  2
AcDbPolyline
  3
AutoCAD 2000
 90
        0
280
     0
281
     1
  0
CLASS
  1
HATCH
  2
AcDbHatch
  3
AutoCAD 2000
 90
        0
280
     0
281
     1
  0
CLASS
  1
ACDBPLACEHOLDER
  2
AcDbPlaceHolder
  3
ObjectDBX Classes
 90
        0
280
     0
281
     0
  0
CLASS
  1
LAYOUT
  2
AcDbLayout
  3
ObjectDBX Classes
 90
        0
280
     0
281
     0
  0
ENDSEC
  0
SECTION
  2
TABLES
  0
TABLE
  2
VPORT
  5
8
330
0
100
AcDbSymbolTable
 70
     2
  0
VPORT
  5
29
102
{ACAD_XDICTIONARY
360
CA
102
}
330
8
100
AcDbSymbolTableRecord
100
AcDbViewportTableRecord
  2
*ACTIVE
 70
     0
 10
0.0
 20
0.0
 11
1.0
 21
1.0
 12
10.42990654205607
 22
4.5
 13
0.0
 23
0.0
 14
0.5
 24
0.5
 15
0.5
 25
0.5
 16
0.0
 26
0.0
 36
1.0
 17
0.0
 27
0.0
 37
0.0
 40
9.0
 41
1.972972972850329
 42
50.0
 43
0.0
 44
0.0
 50
0.0
 51
0.0
 71
     0
 72
   100
 73
     1
 74
     3
 75
     0
 76
     0
 77
     0
 78
     0
  0
ENDTAB
  0
TABLE
  2
LTYPE
  5
5
330
0
100
AcDbSymbolTable
 70
     1
  0
LTYPE
  5
14
330
5
100
AcDbSymbolTableRecord
100
AcDbLinetypeTableRecord
  2
BYBLOCK
 70
     0
  3

 72
    65
 73
     0
 40
0.0
  0
LTYPE
  5
15
330
5
100
AcDbSymbolTableRecord
100
AcDbLinetypeTableRecord
  2
BYLAYER
 70
     0
  3

 72
    65
 73
     0
 40
0.0
  0
LTYPE
  5
16
330
5
100
AcDbSymbolTableRecord
100
AcDbLinetypeTableRecord
  2
CONTINUOUS
 70
     0
  3
Solid line
 72
    65
 73
     0
 40
0.0
  0
ENDTAB
  0
TABLE
  2
LAYER
  5
2
330
0
100
AcDbSymbolTable
 70
     2
  0
LAYER
  5
10
330
2
100
AcDbSymbolTableRecord
100
AcDbLayerTableRecord
  2
0
 70
     0
 62
     7
  6
CONTINUOUS
  0
LAYER
  5
2B
330
2
100
AcDbSymbolTableRecord
100
AcDbLayerTableRecord
  2
LAYER_1
 70
     0
 62
     7
  6
CONTINUOUS
  0
ENDTAB
  0
TABLE
  2
STYLE
  5
3
330
0
100
AcDbSymbolTable
 70
     1
  0
STYLE
  5
11
330
3
100
AcDbSymbolTableRecord
100
AcDbTextStyleTableRecord
  2
STANDARD
 70
     0
 40
0.0
 41
1.0
 50
0.0
 71
     0
 42
0.2
  3
txt
  4

  0
ENDTAB
  0
TABLE
  2
VIEW
  5
6
330
0
100
AcDbSymbolTable
 70
     0
  0
ENDTAB
  0
TABLE
  2
UCS
  5
7
330
0
100
AcDbSymbolTable
 70
     0
  0
ENDTAB
  0
TABLE
  2
APPID
  5
9
330
0
100
AcDbSymbolTable
 70
     2
  0
APPID
  5
12
330
9
100
AcDbSymbolTableRecord
100
AcDbRegAppTableRecord
  2
ACAD
 70
     0
  0
APPID
  5
2A
330
9
100
AcDbSymbolTableRecord
100
AcDbRegAppTableRecord
  2
ODA
 70
     0
  0
ENDTAB
  0
TABLE
  2
DIMSTYLE
  5
A
330
0
100
AcDbSymbolTable
 70
     1
  0
DIMSTYLE
105
27
330
A
100
AcDbSymbolTableRecord
100
AcDbDimStyleTableRecord
  2
STANDARD
 70
     0
  3

  4

  5

  6

  7

 40
1.0
 41
0.18
 42
0.0625
 43
0.38
 44
0.18
 45
0.0
 46
0.0
 47
0.0
 48
0.0
140
0.18
141
0.09
142
0.0
143
25.4
144
1.0
145
0.0
146
1.0
147
0.09
 71
     0
 72
     0
 73
     1
 74
     1
 75
     0
 76
     0
 77
     0
 78
     0
170
     0
171
     2
172
     0
173
     0
174
     0
175
     0
176
     0
177
     0
178
     0
270
     2
271
     4
272
     4
273
     2
274
     2
340
11
275
     0
280
     0
281
     0
282
     0
283
     1
284
     0
285
     0
286
     0
287
     3
288
     0
  0
ENDTAB
  0
TABLE
  2
BLOCK_RECORD
  5
1
330
0
100
AcDbSymbolTable
 70
     1
  0
BLOCK_RECORD
  5
1F
330
1
100
AcDbSymbolTableRecord
100
AcDbBlockTableRecord
  2
*MODEL_SPACE
  0
BLOCK_RECORD
  5
1B
330
1
100
AcDbSymbolTableRecord
100
AcDbBlockTableRecord
  2
*PAPER_SPACE
  0
ENDTAB
  0
ENDSEC
  0
SECTION
  2
BLOCKS
  0
BLOCK
  5
20
330
1F
100
AcDbEntity
  8
0
100
AcDbBlockBegin
  2
*MODEL_SPACE
 70
     0
 71
     0
 10
0.0
 20
0.0
 30
0.0
  3
*MODEL_SPACE
  1

  0
ENDBLK
  5
21
330
1F
100
AcDbEntity
  8
0
100
AcDbBlockEnd
  0
BLOCK
  5
1C
330
1B
100
AcDbEntity
 67
     1
  8
0
100
AcDbBlockBegin
  2
*PAPER_SPACE
 70
     0
 71
     0
 10
0.0
 20
0.0
 30
0.0
  3
*PAPER_SPACE
  1

  0
ENDBLK
  5
1D
330
1B
100
AcDbEntity
 67
     1
  8
0
100
AcDbBlockEnd
  0
ENDSEC
  0
SECTION
  2
ENTITIES
  0
SPLINE
  5
2C
330
1F
100
AcDbEntity
  8
LAYER_1
 62
     7
100
AcDbSpline
210
0.0
220
0.0
230
1.0
 70
    11
 71
     3
 72
    32
 73
    28
 74
     0
 42
0.0000000001
 43
0.0000000001
 40
0.0
 40
0.0
 40
0.0
 40
0.0
 40
0.1428571428571429
 40
0.1428571428571429
 40
0.1428571428571429
 40
0.1428571428571429
 40
0.2857142857142857
 40
0.2857142857142857
 40
0.2857142857142857
 40
0.2857142857142857
 40
0.4285714285714286
 40
0.4285714285714286
 40
0.4285714285714286
 40
0.4285714285714286
 40
0.5714285714285714
 40
0.5714285714285714
 40
0.5714285714285714
 40
0.5714285714285714
 40
0.7142857142857142
 40
0.7142857142857142
 40
0.7142857142857142
 40
0.7142857142857142
 40
0.857142857142857
 40
0.857142857142857
 40
0.857142857142857
 40
0.857142857142857
 40
1.0
 40
1.0
 40
1.0
 40
1.0
 10
1.159185039370079
 20
-0.8394370078740158
 30
0.0
 10
1.159185039370079
 20
-0.8394370078740158
 30
0.0
 10
1.159185039370079
 20
-1.374003937007874
 30
0.0
 10
1.159185039370079
 20
-1.374003937007874
 30
0.0
 10
1.159185039370079
 20
-1.374003937007874
 30
0.0
 10
1.159185039370079
 20
-1.374003937007874
 30
0.0
 10
0.8660354330708662
 20
-1.404181102362205
 30
0.0
 10
0.8660354330708662
 20
-1.404181102362205
 30
0.0
 10
0.8660354330708662
 20
-1.404181102362205
 30
0.0
 10
0.8574133858267717
 20
-2.119811023622047
 30
0.0
 10
0.5642637795275591
 20
-2.706110236220473
 30
0.0
 10
-0.4100275590551181
 20
-2.891484251968504
 30
0.0
 10
-0.4100275590551181
 20
-2.891484251968504
 30
0.0
 10
-0.4100275590551181
 20
-2.891484251968504
 30
0.0
 10
-0.4100275590551181
 20
-3.326897637795276
 30
0.0
 10
-0.4100275590551181
 20
-3.326897637795276
 30
0.0
 10
-0.4100275590551181
 20
-3.326897637795276
 30
0.0
 10
-0.4100275590551181
 20
-3.326897637795276
 30
0.0
 10
-0.7592204724409449
 20
-3.326897637795276
 30
0.0
 10
-0.7592204724409449
 20
-3.326897637795276
 30
0.0
 10
-0.7592204724409449
 20
-3.326897637795276
 30
0.0
 10
-0.7592204724409449
 20
-3.326897637795276
 30
0.0
 10
-0.7592204724409449
 20
-0.8394370078740158
 30
0.0
 10
-0.7592204724409449
 20
-0.8394370078740158
 30
0.0
 10
-0.7592204724409449
 20
-0.8394370078740158
 30
0.0
 10
-0.7592204724409449
 20
-0.8394370078740158
 30
0.0
 10
1.159185039370079
 20
-0.8394370078740158
 30
0.0
 10
1.159185039370079
 20
-0.8394370078740158
 30
0.0
  0
SPLINE
  5
2D
330
1F
100
AcDbEntity
  8
LAYER_1
 62
   250
100
AcDbSpline
210
0.0
220
0.0
230
1.0
 70
    11
 71
     3
 72
   104
 73
   100
 74
     0
 42
0.0000000001
 43
0.0000000001
 40
0.0
 40
0.0
 40
0.0
 40
0.0
 40
0.04
 40
0.04
 40
0.04
 40
0.04
 40
0.08
 40
0.08
 40
0.08
 40
0.08
 40
0.12
 40
0.12
 40
0.12
 40
0.12
 40
0.16
 40
0.16
 40
0.16
 40
0.16
 40
0.2
 40
0.2
 40
0.2
 40
0.2
 40
0.24
 40
0.24
 40
0.24
 40
0.24
 40
0.28
 40
0.28
 40
0.28
 40
0.28
 40
0.32
 40
0.32
 40
0.32
 40
0.32
 40
0.36
 40
0.36
 40
0.36
 40
0.36
 40
0.4
 40
0.4
 40
0.4
 40
0.4
 40
0.44
 40
0.44
 40
0.44
 40
0.44
 40
0.4799999999999999
 40
0.4799999999999999
 40
0.4799999999999999
 40
0.4799999999999999
 40
0.5199999999999999
 40
0.5199999999999999
 40
0.5199999999999999
 40
0.5199999999999999
 40
0.5599999999999999
 40
0.5599999999999999
 40
0.5599999999999999
 40
0.5599999999999999
 40
0.6
 40
0.6
 40
0.6
 40
0.6
 40
0.64
 40
0.64
 40
0.64
 40
0.64
 40
0.6800000000000001
 40
0.6800000000000001
 40
0.6800000000000001
 40
0.6800000000000001
 40
0.7200000000000001
 40
0.7200000000000001
 40
0.7200000000000001
 40
0.7200000000000001
 40
0.7600000000000001
 40
0.7600000000000001
 40
0.7600000000000001
 40
0.7600000000000001
 40
0.8000000000000002
 40
0.8000000000000002
 40
0.8000000000000002
 40
0.8000000000000002
 40
0.8400000000000002
 40
0.8400000000000002
 40
0.8400000000000002
 40
0.8400000000000002
 40
0.8800000000000002
 40
0.8800000000000002
 40
0.8800000000000002
 40
0.8800000000000002
 40
0.9200000000000003
 40
0.9200000000000003
 40
0.9200000000000003
 40
0.9200000000000003
 40
0.9600000000000003
 40
0.9600000000000003
 40
0.9600000000000003
 40
0.9600000000000003
 40
1.0
 40
1.0
 40
1.0
 40
1.0
 10
-0.0031102362204724
 20
-3.254917322834646
 30
0.0
 10
-0.0031102362204724
 20
-3.254917322834646
 30
0.0
 10
0.0508622047244095
 20
-3.254917322834646
 30
0.0
 10
0.0508622047244095
 20
-3.254917322834646
 30
0.0
 10
0.0508622047244095
 20
-3.254917322834646
 30
0.0
 10
0.0640314960629921
 20
-3.254917322834646
 30
0.0
 10
0.0730590551181102
 20
-3.255527559055118
 30
0.0
 10
0.0779448818897638
 20
-3.256724409448819
 30
0.0
 10
0.0779448818897638
 20
-3.256724409448819
 30
0.0
 10
0.0851692913385827
 20
-3.258444881889764
 30
0.0
 10
0.0908622047244095
 20
-3.261582677165355
 30
0.0
 10
0.0950866141732283
 20
-3.266141732283465
 30
0.0
 10
0.0950866141732283
 20
-3.266141732283465
 30
0.0
 10
0.0992795275590551
 20
-3.270696850393701
 30
0.0
 10
0.1013897637795276
 20
-3.276196850393701
 30
0.0
 10
0.1013897637795276
 20
-3.282582677165355
 30
0.0
 10
0.1013897637795276
 20
-3.282582677165355
 30
0.0
 10
0.1013897637795276
 20
-3.287196850393701
 30
0.0
 10
0.1002795275590551
 20
-3.291334645669291
 30
0.0
 10
0.0980590551181102
 20
-3.295
 30
0.0
 10
0.0980590551181102
 20
-3.295
 30
0.0
 10
0.0958346456692913
 20
-3.298669291338583
 30
0.0
 10
0.0925866141732283
 20
-3.301807086614173
 30
0.0
 10
0.0883622047244094
 20
-3.304389763779528
 30
0.0
 10
0.0883622047244094
 20
-3.304389763779528
 30
0.0
 10
0.0856417322834646
 20
-3.306082677165354
 30
0.0
 10
0.0819724409448819
 20
-3.307527559055118
 30
0.0
 10
0.0773070866141732
 20
-3.308724409448819
 30
0.0
 10
0.0773070866141732
 20
-3.308724409448819
 30
0.0
 10
0.0832244094488189
 20
-3.309807086614173
 30
0.0
 10
0.0877244094488189
 20
-3.311110236220473
 30
0.0
 10
0.0908070866141732
 20
-3.312610236220472
 30
0.0
 10
0.0908070866141732
 20
-3.312610236220472
 30
0.0
 10
0.0954724409448819
 20
-3.314889763779528
 30
0.0
 10
0.0991692913385827
 20
-3.318137795275591
 30
0.0
 10
0.1018622047244095
 20
-3.322389763779528
 30
0.0
 10
0.1018622047244095
 20
-3.322389763779528
 30
0.0
 10
0.1045866141732284
 20
-3.326610236220473
 30
0.0
 10
0.1059448818897638
 20
-3.331389763779528
 30
0.0
 10
0.1059448818897638
 20
-3.336696850393701
 30
0.0
 10
0.1059448818897638
 20
-3.336696850393701
 30
0.0
 10
0.1059448818897638
 20
-3.34186220472441
 30
0.0
 10
0.1046141732283465
 20
-3.346637795275591
 30
0.0
 10
0.1019448818897638
 20
-3.351027559055118
 30
0.0
 10
0.1019448818897638
 20
-3.351027559055118
 30
0.0
 10
0.0993070866141732
 20
-3.355417322834646
 30
0.0
 10
0.0955314960629921
 20
-3.359027559055118
 30
0.0
 10
0.0906968503937008
 20
-3.36186220472441
 30
0.0
 10
0.0906968503937008
 20
-3.36186220472441
 30
0.0
 10
0.0858346456692913
 20
-3.364665354330709
 30
0.0
 10
0.0801692913385827
 20
-3.366472440944882
 30
0.0
 10
0.0737244094488189
 20
-3.367279527559056
 30
0.0
 10
0.0737244094488189
 20
-3.367279527559056
 30
0.0
 10
0.067251968503937
 20
-3.368055118110236
 30
0.0
 10
0.0606141732283465
 20
-3.368444881889764
 30
0.0
 10
0.0537795275590551
 20
-3.368444881889764
 30
0.0
 10
0.0537795275590551
 20
-3.368444881889764
 30
0.0
 10
0.0537795275590551
 20
-3.368444881889764
 30
0.0
 10
-0.0031102362204724
 20
-3.368444881889764
 30
0.0
 10
-0.0031102362204724
 20
-3.368444881889764
 30
0.0
 10
-0.0031102362204724
 20
-3.368444881889764
 30
0.0
 10
-0.0031102362204724
 20
-3.368444881889764
 30
0.0
 10
-0.0031102362204724
 20
-3.361610236220473
 30
0.0
 10
-0.0031102362204724
 20
-3.361610236220473
 30
0.0
 10
-0.0031102362204724
 20
-3.361610236220473
 30
0.0
 10
-0.0031102362204724
 20
-3.361610236220473
 30
0.0
 10
0.0007244094488189
 20
-3.361610236220473
 30
0.0
 10
0.0007244094488189
 20
-3.361610236220473
 30
0.0
 10
0.0007244094488189
 20
-3.361610236220473
 30
0.0
 10
0.0044212598425197
 20
-3.361610236220473
 30
0.0
 10
0.0069212598425197
 20
-3.361027559055118
 30
0.0
 10
0.0082795275590551
 20
-3.359889763779528
 30
0.0
 10
0.0082795275590551
 20
-3.359889763779528
 30
0.0
 10
0.010251968503937
 20
-3.358334645669292
 30
0.0
 10
0.0112244094488189
 20
-3.355724409448819
 30
0.0
 10
0.0112244094488189
 20
-3.352082677165354
 30
0.0
 10
0.0112244094488189
 20
-3.352082677165354
 30
0.0
 10
0.0112244094488189
 20
-3.352082677165354
 30
0.0
 10
0.0112244094488189
 20
-3.273224409448819
 30
0.0
 10
0.0112244094488189
 20
-3.273224409448819
 30
0.0
 10
0.0112244094488189
 20
-3.273224409448819
 30
0.0
 10
0.0112244094488189
 20
-3.269527559055118
 30
0.0
 10
0.0109212598425197
 20
-3.267027559055118
 30
0.0
 10
0.0103346456692913
 20
-3.265669291338583
 30
0.0
 10
0.0103346456692913
 20
-3.265669291338583
 30
0.0
 10
0.0097244094488189
 20
-3.264307086614173
 30
0.0
 10
0.0088346456692913
 20
-3.263334645669291
 30
0.0
 10
0.0076417322834646
 20
-3.262724409448819
 30
0.0
 10
0.0076417322834646
 20
-3.262724409448819
 30
0.0
 10
0.0064488188976378
 20
-3.262141732283465
 30
0.0
 10
0.0041417322834646
 20
-3.261834645669291
 30
0.0
 10
0.0007244094488189
 20
-3.261834645669291
 30
0.0
 10
0.0007244094488189
 20
-3.261834645669291
 30
0.0
 10
0.0007244094488189
 20
-3.261834645669291
 30
0.0
 10
-0.0031102362204724
 20
-3.261834645669291
 30
0.0
 10
-0.0031102362204724
 20
-3.261834645669291
 30
0.0
 10
-0.0031102362204724
 20
-3.261834645669291
 30
0.0
 10
-0.0031102362204724
 20
-3.261834645669291
 30
0.0
 10
-0.0031102362204724
 20
-3.254917322834646
 30
0.0
 10
-0.0031102362204724
 20
-3.254917322834646
 30
0.0
  0
SPLINE
  5
2E
330
1F
100
AcDbEntity
  8
LAYER_1
 62
   250
100
AcDbSpline
210
0.0
220
0.0
230
1.0
 70
    11
 71
     3
 72
    40
 73
    36
 74
     0
 42
0.0000000001
 43
0.0000000001
 40
0.0
 40
0.0
 40
0.0
 40
0.0
 40
0.1111111111111111
 40
0.1111111111111111
 40
0.1111111111111111
 40
0.1111111111111111
 40
0.2222222222222222
 40
0.2222222222222222
 40
0.2222222222222222
 40
0.2222222222222222
 40
0.3333333333333333
 40
0.3333333333333333
 40
0.3333333333333333
 40
0.3333333333333333
 40
0.4444444444444444
 40
0.4444444444444444
 40
0.4444444444444444
 40
0.4444444444444444
 40
0.5555555555555556
 40
0.5555555555555556
 40
0.5555555555555556
 40
0.5555555555555556
 40
0.6666666666666667
 40
0.6666666666666667
 40
0.6666666666666667
 40
0.6666666666666667
 40
0.7777777777777779
 40
0.7777777777777779
 40
0.7777777777777779
 40
0.7777777777777779
 40
0.8888888888888891
 40
0.8888888888888891
 40
0.8888888888888891
 40
0.8888888888888891
 40
1.0
 40
1.0
 40
1.0
 40
1.0
 10
0.0264488188976378
 20
-3.263944881889764
 30
0.0
 10
0.0264488188976378
 20
-3.263944881889764
 30
0.0
 10
0.0264488188976378
 20
-3.305527559055118
 30
0.0
 10
0.0264488188976378
 20
-3.305527559055118
 30
0.0
 10
0.0264488188976378
 20
-3.305527559055118
 30
0.0
 10
0.0264488188976378
 20
-3.305527559055118
 30
0.0
 10
0.0471968503937008
 20
-3.305527559055118
 30
0.0
 10
0.0471968503937008
 20
-3.305527559055118
 30
0.0
 10
0.0471968503937008
 20
-3.305527559055118
 30
0.0
 10
0.0568897637795276
 20
-3.305527559055118
 30
0.0
 10
0.0635590551181102
 20
-3.305082677165355
 30
0.0
 10
0.0671141732283465
 20
-3.304169291338583
 30
0.0
 10
0.0671141732283465
 20
-3.304169291338583
 30
0.0
 10
0.0727244094488189
 20
-3.302696850393701
 30
0.0
 10
0.0769724409448819
 20
-3.300196850393701
 30
0.0
 10
0.0799448818897638
 20
-3.296669291338583
 30
0.0
 10
0.0799448818897638
 20
-3.296669291338583
 30
0.0
 10
0.0828897637795276
 20
-3.293141732283465
 30
0.0
 10
0.0843897637795276
 20
-3.288610236220473
 30
0.0
 10
0.0843897637795276
 20
-3.283082677165354
 30
0.0
 10
0.0843897637795276
 20
-3.283082677165354
 30
0.0
 10
0.0843897637795276
 20
-3.278417322834646
 30
0.0
 10
0.0830314960629921
 20
-3.274527559055118
 30
0.0
 10
0.0803622047244095
 20
-3.271389763779528
 30
0.0
 10
0.0803622047244095
 20
-3.271389763779528
 30
0.0
 10
0.0776692913385827
 20
-3.268279527559055
 30
0.0
 10
0.0740590551181102
 20
-3.266141732283465
 30
0.0
 10
0.0695590551181102
 20
-3.265
 30
0.0
 10
0.0695590551181102
 20
-3.265
 30
0.0
 10
0.0666417322834646
 20
-3.264307086614173
 30
0.0
 10
0.0605590551181102
 20
-3.263944881889764
 30
0.0
 10
0.0513346456692913
 20
-3.263944881889764
 30
0.0
 10
0.0513346456692913
 20
-3.263944881889764
 30
0.0
 10
0.0513346456692913
 20
-3.263944881889764
 30
0.0
 10
0.0264488188976378
 20
-3.263944881889764
 30
0.0
 10
0.0264488188976378
 20
-3.263944881889764
 30
0.0
  0
SPLINE
  5
2F
330
1F
100
AcDbEntity
  8
LAYER_1
 62
   250
100
AcDbSpline
210
0.0
220
0.0
230
1.0
 70
    11
 71
     3
 72
    52
 73
    48
 74
     0
 42
0.0000000001
 43
0.0000000001
 40
0.0
 40
0.0
 40
0.0
 40
0.0
 40
0.0833333333333333
 40
0.0833333333333333
 40
0.0833333333333333
 40
0.0833333333333333
 40
0.1666666666666667
 40
0.1666666666666667
 40
0.1666666666666667
 40
0.1666666666666667
 40
0.25
 40
0.25
 40
0.25
 40
0.25
 40
0.3333333333333333
 40
0.3333333333333333
 40
0.3333333333333333
 40
0.3333333333333333
 40
0.4166666666666666
 40
0.4166666666666666
 40
0.4166666666666666
 40
0.4166666666666666
 40
0.4999999999999999
 40
0.4999999999999999
 40
0.4999999999999999
 40
0.4999999999999999
 40
0.5833333333333333
 40
0.5833333333333333
 40
0.5833333333333333
 40
0.5833333333333333
 40
0.6666666666666666
 40
0.6666666666666666
 40
0.6666666666666666
 40
0.6666666666666666
 40
0.75
 40
0.75
 40
0.75
 40
0.75
 40
0.8333333333333334
 40
0.8333333333333334
 40
0.8333333333333334
 40
0.8333333333333334
 40
0.9166666666666667
 40
0.9166666666666667
 40
0.9166666666666667
 40
0.9166666666666667
 40
1.0
 40
1.0
 40
1.0
 40
1.0
 10
0.0264488188976378
 20
-3.31336220472441
 30
0.0
 10
0.0264488188976378
 20
-3.31336220472441
 30
0.0
 10
0.0264488188976378
 20
-3.350610236220473
 30
0.0
 10
0.0264488188976378
 20
-3.350610236220473
 30
0.0
 10
0.0264488188976378
 20
-3.350610236220473
 30
0.0
 10
0.0264488188976378
 20
-3.35436220472441
 30
0.0
 10
0.0266141732283465
 20
-3.356582677165354
 30
0.0
 10
0.0269173228346457
 20
-3.357307086614173
 30
0.0
 10
0.0269173228346457
 20
-3.357307086614173
 30
0.0
 10
0.0273622047244095
 20
-3.358279527559055
 30
0.0
 10
0.0282244094488189
 20
-3.358944881889764
 30
0.0
 10
0.0295314960629921
 20
-3.359334645669291
 30
0.0
 10
0.0295314960629921
 20
-3.359334645669291
 30
0.0
 10
0.0304488188976378
 20
-3.359610236220473
 30
0.0
 10
0.0330590551181102
 20
-3.359751968503937
 30
0.0
 10
0.0373346456692913
 20
-3.359751968503937
 30
0.0
 10
0.0373346456692913
 20
-3.359751968503937
 30
0.0
 10
0.0373346456692913
 20
-3.359751968503937
 30
0.0
 10
0.0484173228346457
 20
-3.359751968503937
 30
0.0
 10
0.0484173228346457
 20
-3.359751968503937
 30
0.0
 10
0.0484173228346457
 20
-3.359751968503937
 30
0.0
 10
0.0593622047244095
 20
-3.359751968503937
 30
0.0
 10
0.0671968503937008
 20
-3.359137795275591
 30
0.0
 10
0.0718897637795276
 20
-3.357917322834646
 30
0.0
 10
0.0718897637795276
 20
-3.357917322834646
 30
0.0
 10
0.0765866141732283
 20
-3.356696850393701
 30
0.0
 10
0.0805866141732283
 20
-3.354110236220472
 30
0.0
 10
0.0838897637795276
 20
-3.350165354330709
 30
0.0
 10
0.0838897637795276
 20
-3.350165354330709
 30
0.0
 10
0.0871968503937008
 20
-3.346251968503937
 30
0.0
 10
0.0888622047244094
 20
-3.3415
 30
0.0
 10
0.0888622047244094
 20
-3.335972440944882
 30
0.0
 10
0.0888622047244094
 20
-3.335972440944882
 30
0.0
 10
0.0888622047244094
 20
-3.331307086614173
 30
0.0
 10
0.087503937007874
 20
-3.327169291338583
 30
0.0
 10
0.0848346456692913
 20
-3.323555118110237
 30
0.0
 10
0.0848346456692913
 20
-3.323555118110237
 30
0.0
 10
0.0821417322834646
 20
-3.319944881889764
 30
0.0
 10
0.0784173228346457
 20
-3.31736220472441
 30
0.0
 10
0.0736692913385827
 20
-3.315751968503937
 30
0.0
 10
0.0736692913385827
 20
-3.315751968503937
 30
0.0
 10
0.0689173228346457
 20
-3.314137795275591
 30
0.0
 10
0.060503937007874
 20
-3.31336220472441
 30
0.0
 10
0.0484173228346457
 20
-3.31336220472441
 30
0.0
 10
0.0484173228346457
 20
-3.31336220472441
 30
0.0
 10
0.0484173228346457
 20
-3.31336220472441
 30
0.0
 10
0.0264488188976378
 20
-3.31336220472441
 30
0.0
 10
0.0264488188976378
 20
-3.31336220472441
 30
0.0
  0
SPLINE
  5
30
330
1F
100
AcDbEntity
  8
LAYER_1
 62
   250
100
AcDbSpline
210
0.0
220
0.0
230
1.0
 70
    11
 71
     3
 72
   112
 73
   108
 74
     0
 42
0.0000000001
 43
0.0000000001
 40
0.0
 40
0.0
 40
0.0
 40
0.0
 40
0.037037037037037
 40
0.037037037037037
 40
0.037037037037037
 40
0.037037037037037
 40
0.0740740740740741
 40
0.0740740740740741
 40
0.0740740740740741
 40
0.0740740740740741
 40
0.1111111111111111
 40
0.1111111111111111
 40
0.1111111111111111
 40
0.1111111111111111
 40
0.1481481481481481
 40
0.1481481481481481
 40
0.1481481481481481
 40
0.1481481481481481
 40
0.1851851851851852
 40
0.1851851851851852
 40
0.1851851851851852
 40
0.1851851851851852
 40
0.2222222222222222
 40
0.2222222222222222
 40
0.2222222222222222
 40
0.2222222222222222
 40
0.2592592592592592
 40
0.2592592592592592
 40
0.2592592592592592
 40
0.2592592592592592
 40
0.2962962962962963
 40
0.2962962962962963
 40
0.2962962962962963
 40
0.2962962962962963
 40
0.3333333333333333
 40
0.3333333333333333
 40
0.3333333333333333
 40
0.3333333333333333
 40
0.3703703703703704
 40
0.3703703703703704
 40
0.3703703703703704
 40
0.3703703703703704
 40
0.4074074074074074
 40
0.4074074074074074
 40
0.4074074074074074
 40
0.4074074074074074
 40
0.4444444444444444
 40
0.4444444444444444
 40
0.4444444444444444
 40
0.4444444444444444
 40
0.4814814814814815
 40
0.4814814814814815
 40
0.4814814814814815
 40
0.4814814814814815
 40
0.5185185185185185
 40
0.5185185185185185
 40
0.5185185185185185
 40
0.5185185185185185
 40
0.5555555555555556
 40
0.5555555555555556
 40
0.5555555555555556
 40
0.5555555555555556
 40
0.5925925925925926
 40
0.5925925925925926
 40
0.5925925925925926
 40
0.5925925925925926
 40
0.6296296296296295
 40
0.6296296296296295
 40
0.6296296296296295
 40
0.6296296296296295
 40
0.6666666666666665
 40
0.6666666666666665
 40
0.6666666666666665
 40
0.6666666666666665
 40
0.7037037037037035
 40
0.7037037037037035
 40
0.7037037037037035
 40
0.7037037037037035
 40
0.7407407407407405
 40
0.7407407407407405
 40
0.7407407407407405
 40
0.7407407407407405
 40
0.7777777777777775
 40
0.7777777777777775
 40
0.7777777777777775
 40
0.7777777777777775
 40
0.8148148148148144
 40
0.8148148148148144
 40
0.8148148148148144
 40
0.8148148148148144
 40
0.8518518518518514
 40
0.8518518518518514
 40
0.8518518518518514
 40
0.8518518518518514
 40
0.8888888888888884
 40
0.8888888888888884
 40
0.8888888888888884
 40
0.8888888888888884
 40
0.9259259259259254
 40
0.9259259259259254
 40
0.9259259259259254
 40
0.9259259259259254
 40
0.9629629629629624
 40
0.9629629629629624
 40
0.9629629629629624
 40
0.9629629629629624
 40
1.0
 40
1.0
 40
1.0
 40
1.0
 10
0.1635551181102362
 20
-3.254917322834646
 30
0.0
 10
0.1635551181102362
 20
-3.254917322834646
 30
0.0
 10
0.1769724409448819
 20
-3.254917322834646
 30
0.0
 10
0.1769724409448819
 20
-3.254917322834646
 30
0.0
 10
0.1769724409448819
 20
-3.254917322834646
 30
0.0
 10
0.1769724409448819
 20
-3.254917322834646
 30
0.0
 10
0.2122204724409449
 20
-3.349807086614173
 30
0.0
 10
0.2122204724409449
 20
-3.349807086614173
 30
0.0
 10
0.2122204724409449
 20
-3.349807086614173
 30
0.0
 10
0.2139448818897638
 20
-3.354582677165355
 30
0.0
 10
0.2156929133858268
 20
-3.357751968503937
 30
0.0
 10
0.2174724409448819
 20
-3.359279527559056
 30
0.0
 10
0.2174724409448819
 20
-3.359279527559056
 30
0.0
 10
0.2192204724409449
 20
-3.360834645669292
 30
0.0
 10
0.2216102362204725
 20
-3.361610236220473
 30
0.0
 10
0.2245826771653544
 20
-3.361610236220473
 30
0.0
 10
0.2245826771653544
 20
-3.361610236220473
 30
0.0
 10
0.2245826771653544
 20
-3.361610236220473
 30
0.0
 10
0.2263622047244095
 20
-3.361610236220473
 30
0.0
 10
0.2263622047244095
 20
-3.361610236220473
 30
0.0
 10
0.2263622047244095
 20
-3.361610236220473
 30
0.0
 10
0.2263622047244095
 20
-3.361610236220473
 30
0.0
 10
0.2263622047244095
 20
-3.368444881889764
 30
0.0
 10
0.2263622047244095
 20
-3.368444881889764
 30
0.0
 10
0.2263622047244095
 20
-3.368444881889764
 30
0.0
 10
0.2263622047244095
 20
-3.368444881889764
 30
0.0
 10
0.1859173228346457
 20
-3.368444881889764
 30
0.0
 10
0.1859173228346457
 20
-3.368444881889764
 30
0.0
 10
0.1859173228346457
 20
-3.368444881889764
 30
0.0
 10
0.1859173228346457
 20
-3.368444881889764
 30
0.0
 10
0.1859173228346457
 20
-3.361610236220473
 30
0.0
 10
0.1859173228346457
 20
-3.361610236220473
 30
0.0
 10
0.1859173228346457
 20
-3.361610236220473
 30
0.0
 10
0.1872204724409449
 20
-3.3615
 30
0.0
 10
0.1885
 20
-3.361444881889764
 30
0.0
 10
0.189751968503937
 20
-3.361444881889764
 30
0.0
 10
0.189751968503937
 20
-3.361444881889764
 30
0.0
 10
0.1923622047244095
 20
-3.361444881889764
 30
0.0
 10
0.1940551181102362
 20
-3.361165354330709
 30
0.0
 10
0.1948897637795276
 20
-3.360637795275591
 30
0.0
 10
0.1948897637795276
 20
-3.360637795275591
 30
0.0
 10
0.1964448818897638
 20
-3.359610236220473
 30
0.0
 10
0.197248031496063
 20
-3.358307086614174
 30
0.0
 10
0.197248031496063
 20
-3.356724409448819
 30
0.0
 10
0.197248031496063
 20
-3.356724409448819
 30
0.0
 10
0.197248031496063
 20
-3.355582677165355
 30
0.0
 10
0.1964724409448819
 20
-3.352807086614174
 30
0.0
 10
0.1949724409448819
 20
-3.348334645669291
 30
0.0
 10
0.1949724409448819
 20
-3.348334645669291
 30
0.0
 10
0.1949724409448819
 20
-3.348334645669291
 30
0.0
 10
0.1874724409448819
 20
-3.32636220472441
 30
0.0
 10
0.1874724409448819
 20
-3.32636220472441
 30
0.0
 10
0.1874724409448819
 20
-3.32636220472441
 30
0.0
 10
0.1874724409448819
 20
-3.32636220472441
 30
0.0
 10
0.1463070866141732
 20
-3.32636220472441
 30
0.0
 10
0.1463070866141732
 20
-3.32636220472441
 30
0.0
 10
0.1463070866141732
 20
-3.32636220472441
 30
0.0
 10
0.1463070866141732
 20
-3.32636220472441
 30
0.0
 10
0.1375
 20
-3.350944881889764
 30
0.0
 10
0.1375
 20
-3.350944881889764
 30
0.0
 10
0.1375
 20
-3.350944881889764
 30
0.0
 10
0.1365826771653543
 20
-3.3535
 30
0.0
 10
0.1361102362204724
 20
-3.355251968503937
 30
0.0
 10
0.1361102362204724
 20
-3.356251968503937
 30
0.0
 10
0.1361102362204724
 20
-3.356251968503937
 30
0.0
 10
0.1361102362204724
 20
-3.357334645669292
 30
0.0
 10
0.1364173228346457
 20
-3.358279527559055
 30
0.0
 10
0.1369724409448819
 20
-3.359082677165354
 30
0.0
 10
0.1369724409448819
 20
-3.359082677165354
 30
0.0
 10
0.1375551181102362
 20
-3.359889763779528
 30
0.0
 10
0.1383070866141732
 20
-3.3605
 30
0.0
 10
0.1393070866141732
 20
-3.360917322834646
 30
0.0
 10
0.1393070866141732
 20
-3.360917322834646
 30
0.0
 10
0.1402795275590551
 20
-3.361334645669292
 30
0.0
 10
0.1418346456692914
 20
-3.361527559055118
 30
0.0
 10
0.1440275590551181
 20
-3.361527559055118
 30
0.0
 10
0.1440275590551181
 20
-3.361527559055118
 30
0.0
 10
0.1454724409448819
 20
-3.361527559055118
 30
0.0
 10
0.1466653543307087
 20
-3.361555118110236
 30
0.0
 10
0.1475826771653543
 20
-3.361610236220473
 30
0.0
 10
0.1475826771653543
 20
-3.361610236220473
 30
0.0
 10
0.1475826771653543
 20
-3.361610236220473
 30
0.0
 10
0.1475826771653543
 20
-3.368444881889764
 30
0.0
 10
0.1475826771653543
 20
-3.368444881889764
 30
0.0
 10
0.1475826771653543
 20
-3.368444881889764
 30
0.0
 10
0.1475826771653543
 20
-3.368444881889764
 30
0.0
 10
0.1136653543307087
 20
-3.368444881889764
 30
0.0
 10
0.1136653543307087
 20
-3.368444881889764
 30
0.0
 10
0.1136653543307087
 20
-3.368444881889764
 30
0.0
 10
0.1136653543307087
 20
-3.368444881889764
 30
0.0
 10
0.1136653543307087
 20
-3.361610236220473
 30
0.0
 10
0.1136653543307087
 20
-3.361610236220473
 30
0.0
 10
0.1136653543307087
 20
-3.361610236220473
 30
0.0
 10
0.1168070866141732
 20
-3.361610236220473
 30
0.0
 10
0.1190826771653543
 20
-3.361307086614173
 30
0.0
 10
0.1204448818897638
 20
-3.360665354330709
 30
0.0
 10
0.1204448818897638
 20
-3.360665354330709
 30
0.0
 10
0.1218346456692914
 20
-3.360055118110236
 30
0.0
 10
0.1230551181102362
 20
-3.359055118110236
 30
0.0
 10
0.1240826771653543
 20
-3.357665354330709
 30
0.0
 10
0.1240826771653543
 20
-3.357665354330709
 30
0.0
 10
0.1251102362204725
 20
-3.356279527559055
 30
0.0
 10
0.1264724409448819
 20
-3.35336220472441
 30
0.0
 10
0.1281377952755906
 20
-3.348917322834646
 30
0.0
 10
0.1281377952755906
 20
-3.348917322834646
 30
0.0
 10
0.1281377952755906
 20
-3.348917322834646
 30
0.0
 10
0.1635551181102362
 20
-3.254917322834646
 30
0.0
 10
0.1635551181102362
 20
-3.254917322834646
 30
0.0
  0
SPLINE
  5
31
330
1F
100
AcDbEntity
  8
LAYER_1
 62
   250
100
AcDbSpline
210
0.0
220
0.0
230
1.0
 70
    11
 71
     3
 72
    16
 73
    12
 74
     0
 42
0.0000000001
 43
0.0000000001
 40
0.0
 40
0.0
 40
0.0
 40
0.0
 40
0.3333333333333333
 40
0.3333333333333333
 40
0.3333333333333333
 40
0.3333333333333333
 40
0.6666666666666666
 40
0.6666666666666666
 40
0.6666666666666666
 40
0.6666666666666666
 40
1.0
 40
1.0
 40
1.0
 40
1.0
 10
0.1493070866141733
 20
-3.318389763779528
 30
0.0
 10
0.1493070866141733
 20
-3.318389763779528
 30
0.0
 10
0.1843897637795276
 20
-3.318389763779528
 30
0.0
 10
0.1843897637795276
 20
-3.318389763779528
 30
0.0
 10
0.1843897637795276
 20
-3.318389763779528
 30
0.0
 10
0.1843897637795276
 20
-3.318389763779528
 30
0.0
 10
0.1668070866141732
 20
-3.269555118110236
 30
0.0
 10
0.1668070866141732
 20
-3.269555118110236
 30
0.0
 10
0.1668070866141732
 20
-3.269555118110236
 30
0.0
 10
0.1668070866141732
 20
-3.269555118110236
 30
0.0
 10
0.1493070866141733
 20
-3.318389763779528
 30
0.0
 10
0.1493070866141733
 20
-3.318389763779528
 30
0.0
  0
SPLINE
  5
32
330
1F
100
AcDbEntity
  8
LAYER_1
 62
   250
100
AcDbSpline
210
0.0
220
0.0
230
1.0
 70
    11
 71
     3
 72
    72
 73
    68
 74
     0
 42
0.0000000001
 43
0.0000000001
 40
0.0
 40
0.0
 40
0.0
 40
0.0
 40
0.0588235294117647
 40
0.0588235294117647
 40
0.0588235294117647
 40
0.0588235294117647
 40
0.1176470588235294
 40
0.1176470588235294
 40
0.1176470588235294
 40
0.1176470588235294
 40
0.1764705882352941
 40
0.1764705882352941
 40
0.1764705882352941
 40
0.1764705882352941
 40
0.2352941176470588
 40
0.2352941176470588
 40
0.2352941176470588
 40
0.2352941176470588
 40
0.2941176470588235
 40
0.2941176470588235
 40
0.2941176470588235
 40
0.2941176470588235
 40
0.3529411764705883
 40
0.3529411764705883
 40
0.3529411764705883
 40
0.3529411764705883
 40
0.411764705882353
 40
0.411764705882353
 40
0.411764705882353
 40
0.411764705882353
 40
0.4705882352941177
 40
0.4705882352941177
 40
0.4705882352941177
 40
0.4705882352941177
 40
0.5294117647058824
 40
0.5294117647058824
 40
0.5294117647058824
 40
0.5294117647058824
 40
0.5882352941176471
 40
0.5882352941176471
 40
0.5882352941176471
 40
0.5882352941176471
 40
0.6470588235294118
 40
0.6470588235294118
 40
0.6470588235294118
 40
0.6470588235294118
 40
0.7058823529411765
 40
0.7058823529411765
 40
0.7058823529411765
 40
0.7058823529411765
 40
0.7647058823529412
 40
0.7647058823529412
 40
0.7647058823529412
 40
0.7647058823529412
 40
0.823529411764706
 40
0.823529411764706
 40
0.823529411764706
 40
0.823529411764706
 40
0.8823529411764707
 40
0.8823529411764707
 40
0.8823529411764707
 40
0.8823529411764707
 40
0.9411764705882354
 40
0.9411764705882354
 40
0.9411764705882354
 40
0.9411764705882354
 40
1.0
 40
1.0
 40
1.0
 40
1.0
 10
0.3893897637795276
 20
-3.254917322834646
 30
0.0
 10
0.3893897637795276
 20
-3.254917322834646
 30
0.0
 10
0.3954724409448819
 20
-3.254917322834646
 30
0.0
 10
0.3954724409448819
 20
-3.254917322834646
 30
0.0
 10
0.3954724409448819
 20
-3.254917322834646
 30
0.0
 10
0.3954724409448819
 20
-3.254917322834646
 30
0.0
 10
0.3954724409448819
 20
-3.349165354330709
 30
0.0
 10
0.3954724409448819
 20
-3.349165354330709
 30
0.0
 10
0.3954724409448819
 20
-3.349165354330709
 30
0.0
 10
0.3954724409448819
 20
-3.353610236220473
 30
0.0
 10
0.3957795275590552
 20
-3.356472440944882
 30
0.0
 10
0.3963346456692913
 20
-3.357751968503937
 30
0.0
 10
0.3963346456692913
 20
-3.357751968503937
 30
0.0
 10
0.3969173228346457
 20
-3.359027559055118
 30
0.0
 10
0.3978346456692913
 20
-3.359972440944882
 30
0.0
 10
0.3991377952755906
 20
-3.360637795275591
 30
0.0
 10
0.3991377952755906
 20
-3.360637795275591
 30
0.0
 10
0.4004448818897638
 20
-3.361279527559055
 30
0.0
 10
0.4030275590551181
 20
-3.361610236220473
 30
0.0
 10
0.4068897637795276
 20
-3.361610236220473
 30
0.0
 10
0.4068897637795276
 20
-3.361610236220473
 30
0.0
 10
0.4068897637795276
 20
-3.361610236220473
 30
0.0
 10
0.4148622047244095
 20
-3.361610236220473
 30
0.0
 10
0.4148622047244095
 20
-3.361610236220473
 30
0.0
 10
0.4148622047244095
 20
-3.361610236220473
 30
0.0
 10
0.4148622047244095
 20
-3.361610236220473
 30
0.0
 10
0.4148622047244095
 20
-3.368444881889764
 30
0.0
 10
0.4148622047244095
 20
-3.368444881889764
 30
0.0
 10
0.4148622047244095
 20
-3.368444881889764
 30
0.0
 10
0.4148622047244095
 20
-3.368444881889764
 30
0.0
 10
0.3612244094488189
 20
-3.368444881889764
 30
0.0
 10
0.3612244094488189
 20
-3.368444881889764
 30
0.0
 10
0.3612244094488189
 20
-3.368444881889764
 30
0.0
 10
0.3612244094488189
 20
-3.368444881889764
 30
0.0
 10
0.3612244094488189
 20
-3.361610236220473
 30
0.0
 10
0.3612244094488189
 20
-3.361610236220473
 30
0.0
 10
0.3612244094488189
 20
-3.361610236220473
 30
0.0
 10
0.3612244094488189
 20
-3.361610236220473
 30
0.0
 10
0.3700826771653544
 20
-3.361610236220473
 30
0.0
 10
0.3700826771653544
 20
-3.361610236220473
 30
0.0
 10
0.3700826771653544
 20
-3.361610236220473
 30
0.0
 10
0.3739448818897638
 20
-3.361610236220473
 30
0.0
 10
0.3765
 20
-3.361279527559055
 30
0.0
 10
0.3777795275590551
 20
-3.360582677165354
 30
0.0
 10
0.3777795275590551
 20
-3.360582677165354
 30
0.0
 10
0.3790551181102362
 20
-3.359917322834646
 30
0.0
 10
0.3800551181102362
 20
-3.358834645669292
 30
0.0
 10
0.380751968503937
 20
-3.357334645669292
 30
0.0
 10
0.380751968503937
 20
-3.357334645669292
 30
0.0
 10
0.3814448818897638
 20
-3.355834645669292
 30
0.0
 10
0.3818070866141732
 20
-3.353110236220473
 30
0.0
 10
0.3818070866141732
 20
-3.349165354330709
 30
0.0
 10
0.3818070866141732
 20
-3.349165354330709
 30
0.0
 10
0.3818070866141732
 20
-3.349165354330709
 30
0.0
 10
0.3818070866141732
 20
-3.271696850393701
 30
0.0
 10
0.3818070866141732
 20
-3.271696850393701
 30
0.0
 10
0.3818070866141732
 20
-3.271696850393701
 30
0.0
 10
0.3818070866141732
 20
-3.271696850393701
 30
0.0
 10
0.3612244094488189
 20
-3.271696850393701
 30
0.0
 10
0.3612244094488189
 20
-3.271696850393701
 30
0.0
 10
0.3612244094488189
 20
-3.271696850393701
 30
0.0
 10
0.3612244094488189
 20
-3.271696850393701
 30
0.0
 10
0.3612244094488189
 20
-3.264696850393701
 30
0.0
 10
0.3612244094488189
 20
-3.264696850393701
 30
0.0
 10
0.3612244094488189
 20
-3.264696850393701
 30
0.0
 10
0.3724448818897638
 20
-3.263114173228347
 30
0.0
 10
0.3818346456692914
 20
-3.25986220472441
 30
0.0
 10
0.3893897637795276
 20
-3.254917322834646
 30
0.0
  0
SPLINE
  5
33
330
1F
100
AcDbEntity
  8
LAYER_1
 62
   250
100
AcDbSpline
210
0.0
220
0.0
230
1.0
 70
    11
 71
     3
 72
    80
 73
    76
 74
     0
 42
0.0000000001
 43
0.0000000001
 40
0.0
 40
0.0
 40
0.0
 40
0.0
 40
0.0526315789473684
 40
0.0526315789473684
 40
0.0526315789473684
 40
0.0526315789473684
 40
0.1052631578947368
 40
0.1052631578947368
 40
0.1052631578947368
 40
0.1052631578947368
 40
0.1578947368421053
 40
0.1578947368421053
 40
0.1578947368421053
 40
0.1578947368421053
 40
0.2105263157894737
 40
0.2105263157894737
 40
0.2105263157894737
 40
0.2105263157894737
 40
0.2631578947368421
 40
0.2631578947368421
 40
0.2631578947368421
 40
0.2631578947368421
 40
0.3157894736842105
 40
0.3157894736842105
 40
0.3157894736842105
 40
0.3157894736842105
 40
0.3684210526315789
 40
0.3684210526315789
 40
0.3684210526315789
 40
0.3684210526315789
 40
0.4210526315789474
 40
0.4210526315789474
 40
0.4210526315789474
 40
0.4210526315789474
 40
0.4736842105263158
 40
0.4736842105263158
 40
0.4736842105263158
 40
0.4736842105263158
 40
0.5263157894736842
 40
0.5263157894736842
 40
0.5263157894736842
 40
0.5263157894736842
 40
0.5789473684210527
 40
0.5789473684210527
 40
0.5789473684210527
 40
0.5789473684210527
 40
0.631578947368421
 40
0.631578947368421
 40
0.631578947368421
 40
0.631578947368421
 40
0.6842105263157894
 40
0.6842105263157894
 40
0.6842105263157894
 40
0.6842105263157894
 40
0.7368421052631577
 40
0.7368421052631577
 40
0.7368421052631577
 40
0.7368421052631577
 40
0.7894736842105261
 40
0.7894736842105261
 40
0.7894736842105261
 40
0.7894736842105261
 40
0.8421052631578945
 40
0.8421052631578945
 40
0.8421052631578945
 40
0.8421052631578945
 40
0.8947368421052628
 40
0.8947368421052628
 40
0.8947368421052628
 40
0.8947368421052628
 40
0.9473684210526312
 40
0.9473684210526312
 40
0.9473684210526312
 40
0.9473684210526312
 40
1.0
 40
1.0
 40
1.0
 40
1.0
 10
0.4548070866141732
 20
-3.250779527559055
 30
0.0
 10
0.4548070866141732
 20
-3.250779527559055
 30
0.0
 10
0.4601968503937008
 20
-3.250779527559055
 30
0.0
 10
0.4601968503937008
 20
-3.250779527559055
 30
0.0
 10
0.4601968503937008
 20
-3.250779527559055
 30
0.0
 10
0.4601968503937008
 20
-3.250779527559055
 30
0.0
 10
0.4611692913385827
 20
-3.254917322834646
 30
0.0
 10
0.4611692913385827
 20
-3.254917322834646
 30
0.0
 10
0.4611692913385827
 20
-3.254917322834646
 30
0.0
 10
0.4611692913385827
 20
-3.254917322834646
 30
0.0
 10
0.5322795275590552
 20
-3.254917322834646
 30
0.0
 10
0.5322795275590552
 20
-3.254917322834646
 30
0.0
 10
0.5322795275590552
 20
-3.254917322834646
 30
0.0
 10
0.5322795275590552
 20
-3.254917322834646
 30
0.0
 10
0.5322795275590552
 20
-3.261834645669291
 30
0.0
 10
0.5322795275590552
 20
-3.261834645669291
 30
0.0
 10
0.5322795275590552
 20
-3.261834645669291
 30
0.0
 10
0.5237795275590551
 20
-3.271669291338583
 30
0.0
 10
0.5160551181102362
 20
-3.282834645669292
 30
0.0
 10
0.5091417322834646
 20
-3.295417322834646
 30
0.0
 10
0.5091417322834646
 20
-3.295417322834646
 30
0.0
 10
0.502224409448819
 20
-3.307972440944882
 30
0.0
 10
0.4968622047244095
 20
-3.320751968503937
 30
0.0
 10
0.4930551181102362
 20
-3.333779527559055
 30
0.0
 10
0.4930551181102362
 20
-3.333779527559055
 30
0.0
 10
0.4903070866141733
 20
-3.343165354330709
 30
0.0
 10
0.4880590551181103
 20
-3.354724409448819
 30
0.0
 10
0.4863070866141733
 20
-3.368444881889764
 30
0.0
 10
0.4863070866141733
 20
-3.368444881889764
 30
0.0
 10
0.4863070866141733
 20
-3.368444881889764
 30
0.0
 10
0.4696417322834646
 20
-3.368444881889764
 30
0.0
 10
0.4696417322834646
 20
-3.368444881889764
 30
0.0
 10
0.4696417322834646
 20
-3.368444881889764
 30
0.0
 10
0.471251968503937
 20
-3.356334645669291
 30
0.0
 10
0.4739173228346457
 20
-3.345027559055118
 30
0.0
 10
0.4776417322834646
 20
-3.3345
 30
0.0
 10
0.4776417322834646
 20
-3.3345
 30
0.0
 10
0.4813622047244095
 20
-3.323972440944882
 30
0.0
 10
0.4867244094488189
 20
-3.312972440944882
 30
0.0
 10
0.493751968503937
 20
-3.3015
 30
0.0
 10
0.493751968503937
 20
-3.3015
 30
0.0
 10
0.5007795275590551
 20
-3.290027559055119
 30
0.0
 10
0.5093070866141732
 20
-3.278582677165355
 30
0.0
 10
0.5193622047244094
 20
-3.267141732283465
 30
0.0
 10
0.5193622047244094
 20
-3.267141732283465
 30
0.0
 10
0.5193622047244094
 20
-3.267141732283465
 30
0.0
 10
0.4686417322834646
 20
-3.267141732283465
 30
0.0
 10
0.4686417322834646
 20
-3.267141732283465
 30
0.0
 10
0.4686417322834646
 20
-3.267141732283465
 30
0.0
 10
0.4649724409448819
 20
-3.267141732283465
 30
0.0
 10
0.4624448818897638
 20
-3.267307086614173
 30
0.0
 10
0.4610866141732284
 20
-3.267696850393701
 30
0.0
 10
0.4610866141732284
 20
-3.267696850393701
 30
0.0
 10
0.4597244094488189
 20
-3.268082677165355
 30
0.0
 10
0.4586692913385827
 20
-3.268669291338583
 30
0.0
 10
0.4579173228346457
 20
-3.269472440944882
 30
0.0
 10
0.4579173228346457
 20
-3.269472440944882
 30
0.0
 10
0.4571417322834646
 20
-3.270307086614174
 30
0.0
 10
0.4565
 20
-3.271751968503937
 30
0.0
 10
0.4559448818897638
 20
-3.273807086614173
 30
0.0
 10
0.4559448818897638
 20
-3.273807086614173
 30
0.0
 10
0.4559448818897638
 20
-3.273807086614173
 30
0.0
 10
0.4555590551181102
 20
-3.275334645669291
 30
0.0
 10
0.4555590551181102
 20
-3.275334645669291
 30
0.0
 10
0.4555590551181102
 20
-3.275334645669291
 30
0.0
 10
0.4555590551181102
 20
-3.275334645669291
 30
0.0
 10
0.4527795275590552
 20
-3.284944881889764
 30
0.0
 10
0.4527795275590552
 20
-3.284944881889764
 30
0.0
 10
0.4527795275590552
 20
-3.284944881889764
 30
0.0
 10
0.4527795275590552
 20
-3.284944881889764
 30
0.0
 10
0.4458622047244095
 20
-3.283472440944882
 30
0.0
 10
0.4458622047244095
 20
-3.283472440944882
 30
0.0
 10
0.4458622047244095
 20
-3.283472440944882
 30
0.0
 10
0.4458622047244095
 20
-3.283472440944882
 30
0.0
 10
0.4548070866141732
 20
-3.250779527559055
 30
0.0
 10
0.4548070866141732
 20
-3.250779527559055
 30
0.0
  0
SPLINE
  5
34
330
1F
100
AcDbEntity
  8
LAYER_1
 62
   250
100
AcDbSpline
210
0.0
220
0.0
230
1.0
 70
    11
 71
     3
 72
   132
 73
   128
 74
     0
 42
0.0000000001
 43
0.0000000001
 40
0.0
 40
0.0
 40
0.0
 40
0.0
 40
0.03125
 40
0.03125
 40
0.03125
 40
0.03125
 40
0.0625
 40
0.0625
 40
0.0625
 40
0.0625
 40
0.09375
 40
0.09375
 40
0.09375
 40
0.09375
 40
0.125
 40
0.125
 40
0.125
 40
0.125
 40
0.15625
 40
0.15625
 40
0.15625
 40
0.15625
 40
0.1875
 40
0.1875
 40
0.1875
 40
0.1875
 40
0.21875
 40
0.21875
 40
0.21875
 40
0.21875
 40
0.25
 40
0.25
 40
0.25
 40
0.25
 40
0.28125
 40
0.28125
 40
0.28125
 40
0.28125
 40
0.3125
 40
0.3125
 40
0.3125
 40
0.3125
 40
0.34375
 40
0.34375
 40
0.34375
 40
0.34375
 40
0.375
 40
0.375
 40
0.375
 40
0.375
 40
0.40625
 40
0.40625
 40
0.40625
 40
0.40625
 40
0.4375
 40
0.4375
 40
0.4375
 40
0.4375
 40
0.46875
 40
0.46875
 40
0.46875
 40
0.46875
 40
0.5
 40
0.5
 40
0.5
 40
0.5
 40
0.53125
 40
0.53125
 40
0.53125
 40
0.53125
 40
0.5625
 40
0.5625
 40
0.5625
 40
0.5625
 40
0.59375
 40
0.59375
 40
0.59375
 40
0.59375
 40
0.625
 40
0.625
 40
0.625
 40
0.625
 40
0.65625
 40
0.65625
 40
0.65625
 40
0.65625
 40
0.6875
 40
0.6875
 40
0.6875
 40
0.6875
 40
0.71875
 40
0.71875
 40
0.71875
 40
0.71875
 40
0.75
 40
0.75
 40
0.75
 40
0.75
 40
0.78125
 40
0.78125
 40
0.78125
 40
0.78125
 40
0.8125
 40
0.8125
 40
0.8125
 40
0.8125
 40
0.84375
 40
0.84375
 40
0.84375
 40
0.84375
 40
0.875
 40
0.875
 40
0.875
 40
0.875
 40
0.90625
 40
0.90625
 40
0.90625
 40
0.90625
 40
0.9375
 40
0.9375
 40
0.9375
 40
0.9375
 40
0.96875
 40
0.96875
 40
0.96875
 40
0.96875
 40
1.0
 40
1.0
 40
1.0
 40
1.0
 10
0.562503937007874
 20
-3.254917322834646
 30
0.0
 10
0.562503937007874
 20
-3.254917322834646
 30
0.0
 10
0.6131141732283465
 20
-3.254917322834646
 30
0.0
 10
0.6131141732283465
 20
-3.254917322834646
 30
0.0
 10
0.6131141732283465
 20
-3.254917322834646
 30
0.0
 10
0.6161968503937008
 20
-3.254917322834646
 30
0.0
 10
0.6180866141732284
 20
-3.254751968503937
 30
0.0
 10
0.6187244094488189
 20
-3.254417322834646
 30
0.0
 10
0.6187244094488189
 20
-3.254417322834646
 30
0.0
 10
0.6196417322834646
 20
-3.253889763779528
 30
0.0
 10
0.6201968503937008
 20
-3.252724409448819
 30
0.0
 10
0.6203622047244095
 20
-3.250944881889764
 30
0.0
 10
0.6203622047244095
 20
-3.250944881889764
 30
0.0
 10
0.6203622047244095
 20
-3.250944881889764
 30
0.0
 10
0.6263070866141732
 20
-3.250944881889764
 30
0.0
 10
0.6263070866141732
 20
-3.250944881889764
 30
0.0
 10
0.6263070866141732
 20
-3.250944881889764
 30
0.0
 10
0.6263070866141732
 20
-3.250944881889764
 30
0.0
 10
0.6263070866141732
 20
-3.268114173228347
 30
0.0
 10
0.6263070866141732
 20
-3.268114173228347
 30
0.0
 10
0.6263070866141732
 20
-3.268114173228347
 30
0.0
 10
0.6263070866141732
 20
-3.268114173228347
 30
0.0
 10
0.5700590551181103
 20
-3.268114173228347
 30
0.0
 10
0.5700590551181103
 20
-3.268114173228347
 30
0.0
 10
0.5700590551181103
 20
-3.268114173228347
 30
0.0
 10
0.5700590551181103
 20
-3.268114173228347
 30
0.0
 10
0.5686692913385827
 20
-3.296751968503937
 30
0.0
 10
0.5686692913385827
 20
-3.296751968503937
 30
0.0
 10
0.5686692913385827
 20
-3.296751968503937
 30
0.0
 10
0.571003937007874
 20
-3.296082677165355
 30
0.0
 10
0.5739763779527559
 20
-3.295555118110237
 30
0.0
 10
0.5775590551181102
 20
-3.295110236220473
 30
0.0
 10
0.5775590551181102
 20
-3.295110236220473
 30
0.0
 10
0.5821692913385828
 20
-3.294582677165355
 30
0.0
 10
0.5862795275590551
 20
-3.294307086614174
 30
0.0
 10
0.5899212598425198
 20
-3.294307086614174
 30
0.0
 10
0.5899212598425198
 20
-3.294307086614174
 30
0.0
 10
0.5989763779527559
 20
-3.294307086614174
 30
0.0
 10
0.6068622047244094
 20
-3.295944881889764
 30
0.0
 10
0.6136141732283464
 20
-3.299196850393701
 30
0.0
 10
0.6136141732283464
 20
-3.299196850393701
 30
0.0
 10
0.6203346456692913
 20
-3.302444881889764
 30
0.0
 10
0.6254448818897638
 20
-3.306917322834646
 30
0.0
 10
0.6289448818897638
 20
-3.312582677165354
 30
0.0
 10
0.6289448818897638
 20
-3.312582677165354
 30
0.0
 10
0.6324448818897638
 20
-3.318251968503937
 30
0.0
 10
0.6341968503937008
 20
-3.324582677165354
 30
0.0
 10
0.6341968503937008
 20
-3.331582677165355
 30
0.0
 10
0.6341968503937008
 20
-3.331582677165355
 30
0.0
 10
0.6341968503937008
 20
-3.342417322834646
 30
0.0
 10
0.6301141732283465
 20
-3.351610236220473
 30
0.0
 10
0.621976377952756
 20
-3.359137795275591
 30
0.0
 10
0.621976377952756
 20
-3.359137795275591
 30
0.0
 10
0.6138346456692914
 20
-3.366637795275591
 30
0.0
 10
0.6034763779527559
 20
-3.370389763779528
 30
0.0
 10
0.5908897637795276
 20
-3.370389763779528
 30
0.0
 10
0.5908897637795276
 20
-3.370389763779528
 30
0.0
 10
0.5836141732283465
 20
-3.370389763779528
 30
0.0
 10
0.5770590551181103
 20
-3.369082677165355
 30
0.0
 10
0.5711692913385827
 20
-3.3665
 30
0.0
 10
0.5711692913385827
 20
-3.3665
 30
0.0
 10
0.5652795275590552
 20
-3.363889763779528
 30
0.0
 10
0.5606692913385827
 20
-3.360444881889764
 30
0.0
 10
0.5573622047244095
 20
-3.356196850393701
 30
0.0
 10
0.5573622047244095
 20
-3.356196850393701
 30
0.0
 10
0.5540590551181103
 20
-3.351944881889764
 30
0.0
 10
0.5523937007874016
 20
-3.348196850393701
 30
0.0
 10
0.5523937007874016
 20
-3.345
 30
0.0
 10
0.5523937007874016
 20
-3.345
 30
0.0
 10
0.5523937007874016
 20
-3.342889763779528
 30
0.0
 10
0.5531141732283464
 20
-3.341055118110236
 30
0.0
 10
0.5545314960629921
 20
-3.3395
 30
0.0
 10
0.5545314960629921
 20
-3.3395
 30
0.0
 10
0.5559212598425197
 20
-3.337972440944882
 30
0.0
 10
0.5577519685039371
 20
-3.337196850393701
 30
0.0
 10
0.5599763779527559
 20
-3.337196850393701
 30
0.0
 10
0.5599763779527559
 20
-3.337196850393701
 30
0.0
 10
0.562251968503937
 20
-3.337196850393701
 30
0.0
 10
0.564251968503937
 20
-3.338137795275591
 30
0.0
 10
0.566003937007874
 20
-3.340055118110236
 30
0.0
 10
0.566003937007874
 20
-3.340055118110236
 30
0.0
 10
0.5669763779527559
 20
-3.341027559055118
 30
0.0
 10
0.5681417322834645
 20
-3.343417322834646
 30
0.0
 10
0.5695039370078741
 20
-3.347196850393701
 30
0.0
 10
0.5695039370078741
 20
-3.347196850393701
 30
0.0
 10
0.5713346456692914
 20
-3.352527559055119
 30
0.0
 10
0.5740866141732284
 20
-3.356417322834646
 30
0.0
 10
0.5777244094488189
 20
-3.358917322834646
 30
0.0
 10
0.5777244094488189
 20
-3.358917322834646
 30
0.0
 10
0.5812795275590551
 20
-3.361472440944882
 30
0.0
 10
0.5858070866141732
 20
-3.362751968503937
 30
0.0
 10
0.5912244094488189
 20
-3.362751968503937
 30
0.0
 10
0.5912244094488189
 20
-3.362751968503937
 30
0.0
 10
0.5966417322834646
 20
-3.362751968503937
 30
0.0
 10
0.6014763779527559
 20
-3.361555118110236
 30
0.0
 10
0.6056968503937008
 20
-3.359196850393701
 30
0.0
 10
0.6056968503937008
 20
-3.359196850393701
 30
0.0
 10
0.6099488188976379
 20
-3.356862204724409
 30
0.0
 10
0.6132795275590551
 20
-3.353444881889764
 30
0.0
 10
0.6157244094488189
 20
-3.349027559055118
 30
0.0
 10
0.6157244094488189
 20
-3.349027559055118
 30
0.0
 10
0.6181692913385827
 20
-3.344610236220472
 30
0.0
 10
0.6193897637795276
 20
-3.339696850393701
 30
0.0
 10
0.6193897637795276
 20
-3.334279527559055
 30
0.0
 10
0.6193897637795276
 20
-3.334279527559055
 30
0.0
 10
0.6193897637795276
 20
-3.328555118110236
 30
0.0
 10
0.6180590551181102
 20
-3.3235
 30
0.0
 10
0.6154173228346457
 20
-3.319055118110236
 30
0.0
 10
0.6154173228346457
 20
-3.319055118110236
 30
0.0
 10
0.6128070866141733
 20
-3.314610236220473
 30
0.0
 10
0.6090314960629921
 20
-3.311141732283465
 30
0.0
 10
0.6041141732283465
 20
-3.308724409448819
 30
0.0
 10
0.6041141732283465
 20
-3.308724409448819
 30
0.0
 10
0.5991968503937009
 20
-3.306279527559055
 30
0.0
 10
0.5932244094488189
 20
-3.305055118110237
 30
0.0
 10
0.5861692913385828
 20
-3.305055118110237
 30
0.0
 10
0.5861692913385828
 20
-3.305055118110237
 30
0.0
 10
0.5818897637795276
 20
-3.305055118110237
 30
0.0
 10
0.5772795275590551
 20
-3.3055
 30
0.0
 10
0.5723897637795276
 20
-3.306444881889764
 30
0.0
 10
0.5723897637795276
 20
-3.306444881889764
 30
0.0
 10
0.567476377952756
 20
-3.30736220472441
 30
0.0
 10
0.563251968503937
 20
-3.308527559055118
 30
0.0
 10
0.559724409448819
 20
-3.309944881889764
 30
0.0
 10
0.559724409448819
 20
-3.309944881889764
 30
0.0
 10
0.559724409448819
 20
-3.309944881889764
 30
0.0
 10
0.562503937007874
 20
-3.254917322834646
 30
0.0
 10
0.562503937007874
 20
-3.254917322834646
 30
0.0
  0
SPLINE
  5
35
330
1F
100
AcDbEntity
  8
LAYER_1
 62
   250
100
AcDbSpline
210
0.0
220
0.0
230
1.0
 70
    11
 71
     3
 72
    48
 73
    44
 74
     0
 42
0.0000000001
 43
0.0000000001
 40
0.0
 40
0.0
 40
0.0
 40
0.0
 40
0.0909090909090909
 40
0.0909090909090909
 40
0.0909090909090909
 40
0.0909090909090909
 40
0.1818181818181818
 40
0.1818181818181818
 40
0.1818181818181818
 40
0.1818181818181818
 40
0.2727272727272727
 40
0.2727272727272727
 40
0.2727272727272727
 40
0.2727272727272727
 40
0.3636363636363637
 40
0.3636363636363637
 40
0.3636363636363637
 40
0.3636363636363637
 40
0.4545454545454546
 40
0.4545454545454546
 40
0.4545454545454546
 40
0.4545454545454546
 40
0.5454545454545455
 40
0.5454545454545455
 40
0.5454545454545455
 40
0.5454545454545455
 40
0.6363636363636365
 40
0.6363636363636365
 40
0.6363636363636365
 40
0.6363636363636365
 40
0.7272727272727274
 40
0.7272727272727274
 40
0.7272727272727274
 40
0.7272727272727274
 40
0.8181818181818183
 40
0.8181818181818183
 40
0.8181818181818183
 40
0.8181818181818183
 40
0.9090909090909093
 40
0.9090909090909093
 40
0.9090909090909093
 40
0.9090909090909093
 40
1.0
 40
1.0
 40
1.0
 40
1.0
 10
0.6953937007874016
 20
-3.252972440944882
 30
0.0
 10
0.7037519685039371
 20
-3.252972440944882
 30
0.0
 10
0.7110590551181103
 20
-3.255086614173229
 30
0.0
 10
0.7172795275590551
 20
-3.25936220472441
 30
0.0
 10
0.7172795275590551
 20
-3.25936220472441
 30
0.0
 10
0.7235314960629922
 20
-3.263614173228347
 30
0.0
 10
0.7285866141732283
 20
-3.270307086614174
 30
0.0
 10
0.7325039370078741
 20
-3.279417322834646
 30
0.0
 10
0.7325039370078741
 20
-3.279417322834646
 30
0.0
 10
0.7364212598425197
 20
-3.288527559055118
 30
0.0
 10
0.7383661417322835
 20
-3.299582677165355
 30
0.0
 10
0.7383661417322835
 20
-3.312527559055118
 30
0.0
 10
0.7383661417322835
 20
-3.312527559055118
 30
0.0
 10
0.7383661417322835
 20
-3.331751968503937
 30
0.0
 10
0.7335590551181103
 20
-3.346696850393701
 30
0.0
 10
0.7239488188976379
 20
-3.357389763779528
 30
0.0
 10
0.7239488188976379
 20
-3.357389763779528
 30
0.0
 10
0.7161417322834646
 20
-3.366055118110237
 30
0.0
 10
0.7062795275590551
 20
-3.370389763779528
 30
0.0
 10
0.6943385826771654
 20
-3.370389763779528
 30
0.0
 10
0.6943385826771654
 20
-3.370389763779528
 30
0.0
 10
0.686251968503937
 20
-3.370389763779528
 30
0.0
 10
0.6790866141732284
 20
-3.368251968503937
 30
0.0
 10
0.6728661417322835
 20
-3.363917322834646
 30
0.0
 10
0.6728661417322835
 20
-3.363917322834646
 30
0.0
 10
0.6666141732283465
 20
-3.359610236220473
 30
0.0
 10
0.6615590551181103
 20
-3.353137795275591
 30
0.0
 10
0.6577244094488189
 20
-3.344527559055118
 30
0.0
 10
0.6577244094488189
 20
-3.344527559055118
 30
0.0
 10
0.6538661417322835
 20
-3.335889763779528
 30
0.0
 10
0.6519488188976378
 20
-3.324944881889764
 30
0.0
 10
0.6519488188976378
 20
-3.311641732283465
 30
0.0
 10
0.6519488188976378
 20
-3.311641732283465
 30
0.0
 10
0.6519488188976378
 20
-3.298251968503937
 30
0.0
 10
0.6538385826771653
 20
-3.287307086614173
 30
0.0
 10
0.6575866141732284
 20
-3.278834645669292
 30
0.0
 10
0.6575866141732284
 20
-3.278834645669292
 30
0.0
 10
0.6613661417322835
 20
-3.270389763779528
 30
0.0
 10
0.666503937007874
 20
-3.263944881889764
 30
0.0
 10
0.6730039370078741
 20
-3.259555118110237
 30
0.0
 10
0.6730039370078741
 20
-3.259555118110237
 30
0.0
 10
0.6795314960629921
 20
-3.255169291338583
 30
0.0
 10
0.6869763779527559
 20
-3.252972440944882
 30
0.0
 10
0.6953937007874016
 20
-3.252972440944882
 30
0.0
  0
SPLINE
  5
36
330
1F
100
AcDbEntity
  8
LAYER_1
 62
   250
100
AcDbSpline
210
0.0
220
0.0
230
1.0
 70
    11
 71
     3
 72
    56
 73
    52
 74
     0
 42
0.0000000001
 43
0.0000000001
 40
0.0
 40
0.0
 40
0.0
 40
0.0
 40
0.0769230769230769
 40
0.0769230769230769
 40
0.0769230769230769
 40
0.0769230769230769
 40
0.1538461538461539
 40
0.1538461538461539
 40
0.1538461538461539
 40
0.1538461538461539
 40
0.2307692307692308
 40
0.2307692307692308
 40
0.2307692307692308
 40
0.2307692307692308
 40
0.3076923076923077
 40
0.3076923076923077
 40
0.3076923076923077
 40
0.3076923076923077
 40
0.3846153846153846
 40
0.3846153846153846
 40
0.3846153846153846
 40
0.3846153846153846
 40
0.4615384615384616
 40
0.4615384615384616
 40
0.4615384615384616
 40
0.4615384615384616
 40
0.5384615384615386
 40
0.5384615384615386
 40
0.5384615384615386
 40
0.5384615384615386
 40
0.6153846153846154
 40
0.6153846153846154
 40
0.6153846153846154
 40
0.6153846153846154
 40
0.6923076923076923
 40
0.6923076923076923
 40
0.6923076923076923
 40
0.6923076923076923
 40
0.7692307692307692
 40
0.7692307692307692
 40
0.7692307692307692
 40
0.7692307692307692
 40
0.846153846153846
 40
0.846153846153846
 40
0.846153846153846
 40
0.846153846153846
 40
0.9230769230769229
 40
0.9230769230769229
 40
0.9230769230769229
 40
0.9230769230769229
 40
1.0
 40
1.0
 40
1.0
 40
1.0
 10
0.695003937007874
 20
-3.261027559055118
 30
0.0
 10
0.6893385826771654
 20
-3.261027559055118
 30
0.0
 10
0.6843937007874016
 20
-3.263082677165354
 30
0.0
 10
0.6800866141732284
 20
-3.267196850393701
 30
0.0
 10
0.6800866141732284
 20
-3.267196850393701
 30
0.0
 10
0.6763661417322835
 20
-3.270779527559055
 30
0.0
 10
0.6733937007874016
 20
-3.276417322834646
 30
0.0
 10
0.6712244094488189
 20
-3.284141732283465
 30
0.0
 10
0.6712244094488189
 20
-3.284141732283465
 30
0.0
 10
0.668724409448819
 20
-3.292917322834646
 30
0.0
 10
0.6674763779527559
 20
-3.302641732283465
 30
0.0
 10
0.6674763779527559
 20
-3.313279527559055
 30
0.0
 10
0.6674763779527559
 20
-3.313279527559055
 30
0.0
 10
0.6674763779527559
 20
-3.321527559055118
 30
0.0
 10
0.668255905511811
 20
-3.329
 30
0.0
 10
0.6698110236220473
 20
-3.335696850393701
 30
0.0
 10
0.6698110236220473
 20
-3.335696850393701
 30
0.0
 10
0.6713385826771654
 20
-3.342389763779528
 30
0.0
 10
0.6733937007874016
 20
-3.347610236220473
 30
0.0
 10
0.6759488188976378
 20
-3.351307086614173
 30
0.0
 10
0.6759488188976378
 20
-3.351307086614173
 30
0.0
 10
0.678503937007874
 20
-3.355027559055118
 30
0.0
 10
0.6813937007874016
 20
-3.357779527559055
 30
0.0
 10
0.6846141732283465
 20
-3.359582677165355
 30
0.0
 10
0.6846141732283465
 20
-3.359582677165355
 30
0.0
 10
0.6878385826771654
 20
-3.36136220472441
 30
0.0
 10
0.691251968503937
 20
-3.362251968503937
 30
0.0
 10
0.6948385826771654
 20
-3.362251968503937
 30
0.0
 10
0.6948385826771654
 20
-3.362251968503937
 30
0.0
 10
0.7001968503937008
 20
-3.362251968503937
 30
0.0
 10
0.7052244094488189
 20
-3.360165354330709
 30
0.0
 10
0.7098937007874016
 20
-3.356
 30
0.0
 10
0.7098937007874016
 20
-3.356
 30
0.0
 10
0.7136141732283465
 20
-3.352582677165354
 30
0.0
 10
0.7165866141732283
 20
-3.347472440944882
 30
0.0
 10
0.7187519685039371
 20
-3.340696850393701
 30
0.0
 10
0.7187519685039371
 20
-3.340696850393701
 30
0.0
 10
0.7213661417322835
 20
-3.332444881889764
 30
0.0
 10
0.7226692913385827
 20
-3.322751968503937
 30
0.0
 10
0.7226692913385827
 20
-3.311641732283465
 30
0.0
 10
0.7226692913385827
 20
-3.311641732283465
 30
0.0
 10
0.7226692913385827
 20
-3.300141732283465
 30
0.0
 10
0.7213385826771653
 20
-3.290362204724409
 30
0.0
 10
0.7186692913385827
 20
-3.282334645669292
 30
0.0
 10
0.7186692913385827
 20
-3.282334645669292
 30
0.0
 10
0.716003937007874
 20
-3.274307086614174
 30
0.0
 10
0.7127519685039371
 20
-3.268751968503937
 30
0.0
 10
0.7088661417322835
 20
-3.265669291338583
 30
0.0
 10
0.7088661417322835
 20
-3.265669291338583
 30
0.0
 10
0.7049763779527559
 20
-3.262555118110236
 30
0.0
 10
0.7003661417322835
 20
-3.261027559055118
 30
0.0
 10
0.695003937007874
 20
-3.261027559055118
 30
0.0
  0
SPLINE
  5
37
330
1F
100
AcDbEntity
  8
LAYER_1
 62
   250
100
AcDbSpline
210
0.0
220
0.0
230
1.0
 70
    11
 71
     3
 72
   136
 73
   132
 74
     0
 42
0.0000000001
 43
0.0000000001
 40
0.0
 40
0.0
 40
0.0
 40
0.0
 40
0.0303030303030303
 40
0.0303030303030303
 40
0.0303030303030303
 40
0.0303030303030303
 40
0.0606060606060606
 40
0.0606060606060606
 40
0.0606060606060606
 40
0.0606060606060606
 40
0.0909090909090909
 40
0.0909090909090909
 40
0.0909090909090909
 40
0.0909090909090909
 40
0.1212121212121212
 40
0.1212121212121212
 40
0.1212121212121212
 40
0.1212121212121212
 40
0.1515151515151515
 40
0.1515151515151515
 40
0.1515151515151515
 40
0.1515151515151515
 40
0.1818181818181818
 40
0.1818181818181818
 40
0.1818181818181818
 40
0.1818181818181818
 40
0.2121212121212121
 40
0.2121212121212121
 40
0.2121212121212121
 40
0.2121212121212121
 40
0.2424242424242424
 40
0.2424242424242424
 40
0.2424242424242424
 40
0.2424242424242424
 40
0.2727272727272727
 40
0.2727272727272727
 40
0.2727272727272727
 40
0.2727272727272727
 40
0.303030303030303
 40
0.303030303030303
 40
0.303030303030303
 40
0.303030303030303
 40
0.3333333333333333
 40
0.3333333333333333
 40
0.3333333333333333
 40
0.3333333333333333
 40
0.3636363636363635
 40
0.3636363636363635
 40
0.3636363636363635
 40
0.3636363636363635
 40
0.3939393939393938
 40
0.3939393939393938
 40
0.3939393939393938
 40
0.3939393939393938
 40
0.4242424242424241
 40
0.4242424242424241
 40
0.4242424242424241
 40
0.4242424242424241
 40
0.4545454545454544
 40
0.4545454545454544
 40
0.4545454545454544
 40
0.4545454545454544
 40
0.4848484848484846
 40
0.4848484848484846
 40
0.4848484848484846
 40
0.4848484848484846
 40
0.5151515151515149
 40
0.5151515151515149
 40
0.5151515151515149
 40
0.5151515151515149
 40
0.5454545454545452
 40
0.5454545454545452
 40
0.5454545454545452
 40
0.5454545454545452
 40
0.5757575757575755
 40
0.5757575757575755
 40
0.5757575757575755
 40
0.5757575757575755
 40
0.6060606060606057
 40
0.6060606060606057
 40
0.6060606060606057
 40
0.6060606060606057
 40
0.636363636363636
 40
0.636363636363636
 40
0.636363636363636
 40
0.636363636363636
 40
0.6666666666666663
 40
0.6666666666666663
 40
0.6666666666666663
 40
0.6666666666666663
 40
0.6969696969696966
 40
0.6969696969696966
 40
0.6969696969696966
 40
0.6969696969696966
 40
0.7272727272727269
 40
0.7272727272727269
 40
0.7272727272727269
 40
0.7272727272727269
 40
0.7575757575757571
 40
0.7575757575757571
 40
0.7575757575757571
 40
0.7575757575757571
 40
0.7878787878787874
 40
0.7878787878787874
 40
0.7878787878787874
 40
0.7878787878787874
 40
0.8181818181818177
 40
0.8181818181818177
 40
0.8181818181818177
 40
0.8181818181818177
 40
0.848484848484848
 40
0.848484848484848
 40
0.848484848484848
 40
0.848484848484848
 40
0.8787878787878782
 40
0.8787878787878782
 40
0.8787878787878782
 40
0.8787878787878782
 40
0.9090909090909085
 40
0.9090909090909085
 40
0.9090909090909085
 40
0.9090909090909085
 40
0.9393939393939388
 40
0.9393939393939388
 40
0.9393939393939388
 40
0.9393939393939388
 40
0.9696969696969691
 40
0.9696969696969691
 40
0.9696969696969691
 40
0.9696969696969691
 40
1.0
 40
1.0
 40
1.0
 40
1.0
 10
-0.0692874015748031
 20
-3.485224409448819
 30
0.0
 10
-0.0692874015748031
 20
-3.485224409448819
 30
0.0
 10
-0.0771771653543307
 20
-3.486196850393701
 30
0.0
 10
-0.0771771653543307
 20
-3.486196850393701
 30
0.0
 10
-0.0771771653543307
 20
-3.486196850393701
 30
0.0
 10
-0.0776220472440945
 20
-3.48236220472441
 30
0.0
 10
-0.0778425196850394
 20
-3.479196850393701
 30
0.0
 10
-0.0778425196850394
 20
-3.476751968503937
 30
0.0
 10
-0.0778425196850394
 20
-3.476751968503937
 30
0.0
 10
-0.0778425196850394
 20
-3.47036220472441
 30
0.0
 10
-0.0760944881889764
 20
-3.464307086614173
 30
0.0
 10
-0.0726220472440945
 20
-3.458614173228347
 30
0.0
 10
-0.0726220472440945
 20
-3.458614173228347
 30
0.0
 10
-0.0691496062992126
 20
-3.452917322834646
 30
0.0
 10
-0.0643149606299213
 20
-3.448472440944882
 30
0.0
 10
-0.0580944881889764
 20
-3.445279527559055
 30
0.0
 10
-0.0580944881889764
 20
-3.445279527559055
 30
0.0
 10
-0.0519015748031496
 20
-3.442055118110237
 30
0.0
 10
-0.044759842519685
 20
-3.440472440944882
 30
0.0
 10
-0.0367322834645669
 20
-3.440472440944882
 30
0.0
 10
-0.0367322834645669
 20
-3.440472440944882
 30
0.0
 10
-0.0289842519685039
 20
-3.440472440944882
 30
0.0
 10
-0.0221771653543307
 20
-3.441972440944882
 30
0.0
 10
-0.0163149606299213
 20
-3.444972440944882
 30
0.0
 10
-0.0163149606299213
 20
-3.444972440944882
 30
0.0
 10
-0.0104566929133858
 20
-3.448
 30
0.0
 10
-0.0059842519685039
 20
-3.452114173228347
 30
0.0
 10
-0.0028464566929134
 20
-3.45736220472441
 30
0.0
 10
-0.0028464566929134
 20
-3.45736220472441
 30
0.0
 10
0.0002677165354331
 20
-3.462582677165354
 30
0.0
 10
0.0018228346456693
 20
-3.468555118110237
 30
0.0
 10
0.0018228346456693
 20
-3.475307086614174
 30
0.0
 10
0.0018228346456693
 20
-3.475307086614174
 30
0.0
 10
0.0018228346456693
 20
-3.481
 30
0.0
 10
0.0008228346456693
 20
-3.486279527559055
 30
0.0
 10
-0.0012322834645669
 20
-3.491110236220473
 30
0.0
 10
-0.0012322834645669
 20
-3.491110236220473
 30
0.0
 10
-0.003259842519685
 20
-3.495972440944882
 30
0.0
 10
-0.0065393700787402
 20
-3.500889763779528
 30
0.0
 10
-0.0110393700787402
 20
-3.505807086614174
 30
0.0
 10
-0.0110393700787402
 20
-3.505807086614174
 30
0.0
 10
-0.0144015748031496
 20
-3.5095
 30
0.0
 10
-0.0212047244094488
 20
-3.515137795275591
 30
0.0
 10
-0.0314566929133858
 20
-3.522751968503937
 30
0.0
 10
-0.0314566929133858
 20
-3.522751968503937
 30
0.0
 10
-0.0443700787401575
 20
-3.532389763779528
 30
0.0
 10
-0.054259842519685
 20
-3.539389763779528
 30
0.0
 10
-0.0611496062992126
 20
-3.543751968503937
 30
0.0
 10
-0.0611496062992126
 20
-3.543751968503937
 30
0.0
 10
-0.0611496062992126
 20
-3.543751968503937
 30
0.0
 10
-0.0188425196850394
 20
-3.543751968503937
 30
0.0
 10
-0.0188425196850394
 20
-3.543751968503937
 30
0.0
 10
-0.0188425196850394
 20
-3.543751968503937
 30
0.0
 10
-0.0138425196850394
 20
-3.543751968503937
 30
0.0
 10
-0.0105944881889764
 20
-3.543279527559055
 30
0.0
 10
-0.0090669291338583
 20
-3.54236220472441
 30
0.0
 10
-0.0090669291338583
 20
-3.54236220472441
 30
0.0
 10
-0.0069566929133858
 20
-3.541165354330709
 30
0.0
 10
-0.005511811023622
 20
-3.538389763779528
 30
0.0
 10
-0.004759842519685
 20
-3.534055118110236
 30
0.0
 10
-0.004759842519685
 20
-3.534055118110236
 30
0.0
 10
-0.004759842519685
 20
-3.534055118110236
 30
0.0
 10
-0.0040393700787402
 20
-3.529417322834646
 30
0.0
 10
-0.0040393700787402
 20
-3.529417322834646
 30
0.0
 10
-0.0040393700787402
 20
-3.529417322834646
 30
0.0
 10
-0.0040393700787402
 20
-3.529417322834646
 30
0.0
 10
0.0028779527559055
 20
-3.529417322834646
 30
0.0
 10
0.0028779527559055
 20
-3.529417322834646
 30
0.0
 10
0.0028779527559055
 20
-3.529417322834646
 30
0.0
 10
0.0028779527559055
 20
-3.529417322834646
 30
0.0
 10
-0.0026496062992126
 20
-3.56
 30
0.0
 10
-0.0026496062992126
 20
-3.56
 30
0.0
 10
-0.0026496062992126
 20
-3.56
 30
0.0
 10
-0.0026496062992126
 20
-3.56
 30
0.0
 10
-0.0078425196850394
 20
-3.56
 30
0.0
 10
-0.0078425196850394
 20
-3.56
 30
0.0
 10
-0.0078425196850394
 20
-3.56
 30
0.0
 10
-0.0078425196850394
 20
-3.56
 30
0.0
 10
-0.008759842519685
 20
-3.555944881889764
 30
0.0
 10
-0.008759842519685
 20
-3.555944881889764
 30
0.0
 10
-0.008759842519685
 20
-3.555944881889764
 30
0.0
 10
-0.008759842519685
 20
-3.555944881889764
 30
0.0
 10
-0.0798700787401575
 20
-3.555944881889764
 30
0.0
 10
-0.0798700787401575
 20
-3.555944881889764
 30
0.0
 10
-0.0798700787401575
 20
-3.555944881889764
 30
0.0
 10
-0.0798700787401575
 20
-3.555944881889764
 30
0.0
 10
-0.0798700787401575
 20
-3.549110236220473
 30
0.0
 10
-0.0798700787401575
 20
-3.549110236220473
 30
0.0
 10
-0.0798700787401575
 20
-3.549110236220473
 30
0.0
 10
-0.0798700787401575
 20
-3.549110236220473
 30
0.0
 10
-0.0668425196850394
 20
-3.539251968503937
 30
0.0
 10
-0.0668425196850394
 20
-3.539251968503937
 30
0.0
 10
-0.0668425196850394
 20
-3.539251968503937
 30
0.0
 10
-0.0569842519685039
 20
-3.531944881889764
 30
0.0
 10
-0.0497322834645669
 20
-3.526334645669292
 30
0.0
 10
-0.0451220472440945
 20
-3.522417322834646
 30
0.0
 10
-0.0451220472440945
 20
-3.522417322834646
 30
0.0
 10
-0.0364015748031496
 20
-3.515027559055118
 30
0.0
 10
-0.0298149606299213
 20
-3.508724409448819
 30
0.0
 10
-0.0254015748031496
 20
-3.5035
 30
0.0
 10
-0.0254015748031496
 20
-3.5035
 30
0.0
 10
-0.0209842519685039
 20
-3.498251968503937
 30
0.0
 10
-0.0179291338582677
 20
-3.493527559055118
 30
0.0
 10
-0.0162874015748031
 20
-3.489334645669291
 30
0.0
 10
-0.0162874015748031
 20
-3.489334645669291
 30
0.0
 10
-0.0146220472440945
 20
-3.485141732283465
 30
0.0
 10
-0.0137874015748032
 20
-3.480724409448819
 30
0.0
 10
-0.0137874015748032
 20
-3.476110236220473
 30
0.0
 10
-0.0137874015748032
 20
-3.476110236220473
 30
0.0
 10
-0.0137874015748032
 20
-3.468472440944882
 30
0.0
 10
-0.016259842519685
 20
-3.462196850393701
 30
0.0
 10
-0.0211496062992126
 20
-3.457307086614173
 30
0.0
 10
-0.0211496062992126
 20
-3.457307086614173
 30
0.0
 10
-0.0260669291338583
 20
-3.452417322834646
 30
0.0
 10
-0.0324566929133858
 20
-3.45
 30
0.0
 10
-0.0403149606299213
 20
-3.45
 30
0.0
 10
-0.0403149606299213
 20
-3.45
 30
0.0
 10
-0.0459566929133858
 20
-3.45
 30
0.0
 10
-0.051011811023622
 20
-3.451196850393701
 30
0.0
 10
-0.0554291338582677
 20
-3.453641732283465
 30
0.0
 10
-0.0554291338582677
 20
-3.453641732283465
 30
0.0
 10
-0.0598425196850394
 20
-3.456082677165354
 30
0.0
 10
-0.0633149606299213
 20
-3.4595
 30
0.0
 10
-0.0658700787401575
 20
-3.463917322834646
 30
0.0
 10
-0.0658700787401575
 20
-3.463917322834646
 30
0.0
 10
-0.0684291338582677
 20
-3.468307086614173
 30
0.0
 10
-0.0697047244094488
 20
-3.473055118110236
 30
0.0
 10
-0.0697047244094488
 20
-3.478141732283465
 30
0.0
 10
-0.0697047244094488
 20
-3.478141732283465
 30
0.0
 10
-0.0697047244094488
 20
-3.480055118110236
 30
0.0
 10
-0.0695669291338583
 20
-3.482417322834646
 30
0.0
 10
-0.0692874015748031
 20
-3.485224409448819
 30
0.0
  0
SPLINE
  5
38
330
1F
100
AcDbEntity
  8
LAYER_1
 62
   250
100
AcDbSpline
210
0.0
220
0.0
230
1.0
 70
    11
 71
     3
 72
    60
 73
    56
 74
     0
 42
0.0000000001
 43
0.0000000001
 40
0.0
 40
0.0
 40
0.0
 40
0.0
 40
0.0714285714285714
 40
0.0714285714285714
 40
0.0714285714285714
 40
0.0714285714285714
 40
0.1428571428571429
 40
0.1428571428571429
 40
0.1428571428571429
 40
0.1428571428571429
 40
0.2142857142857143
 40
0.2142857142857143
 40
0.2142857142857143
 40
0.2142857142857143
 40
0.2857142857142857
 40
0.2857142857142857
 40
0.2857142857142857
 40
0.2857142857142857
 40
0.3571428571428571
 40
0.3571428571428571
 40
0.3571428571428571
 40
0.3571428571428571
 40
0.4285714285714285
 40
0.4285714285714285
 40
0.4285714285714285
 40
0.4285714285714285
 40
0.4999999999999999
 40
0.4999999999999999
 40
0.4999999999999999
 40
0.4999999999999999
 40
0.5714285714285713
 40
0.5714285714285713
 40
0.5714285714285713
 40
0.5714285714285713
 40
0.6428571428571427
 40
0.6428571428571427
 40
0.6428571428571427
 40
0.6428571428571427
 40
0.7142857142857141
 40
0.7142857142857141
 40
0.7142857142857141
 40
0.7142857142857141
 40
0.7857142857142855
 40
0.7857142857142855
 40
0.7857142857142855
 40
0.7857142857142855
 40
0.8571428571428569
 40
0.8571428571428569
 40
0.8571428571428569
 40
0.8571428571428569
 40
0.9285714285714283
 40
0.9285714285714283
 40
0.9285714285714283
 40
0.9285714285714283
 40
1.0
 40
1.0
 40
1.0
 40
1.0
 10
0.0252677165354331
 20
-3.4845
 30
0.0
 10
0.0252677165354331
 20
-3.4845
 30
0.0
 10
0.0208779527559055
 20
-3.479110236220472
 30
0.0
 10
0.0208779527559055
 20
-3.479110236220472
 30
0.0
 10
0.0208779527559055
 20
-3.479110236220472
 30
0.0
 10
0.031992125984252
 20
-3.470055118110236
 30
0.0
 10
0.0375748031496063
 20
-3.4625
 30
0.0
 10
0.0375748031496063
 20
-3.456417322834646
 30
0.0
 10
0.0375748031496063
 20
-3.456417322834646
 30
0.0
 10
0.0375748031496063
 20
-3.455724409448819
 30
0.0
 10
0.0375196850393701
 20
-3.454834645669291
 30
0.0
 10
0.0374055118110236
 20
-3.453807086614174
 30
0.0
 10
0.0374055118110236
 20
-3.453807086614174
 30
0.0
 10
0.036492125984252
 20
-3.454196850393701
 30
0.0
 10
0.0355748031496063
 20
-3.4545
 30
0.0
 10
0.0347125984251969
 20
-3.454696850393701
 30
0.0
 10
0.0347125984251969
 20
-3.454696850393701
 30
0.0
 10
0.0338503937007874
 20
-3.454917322834646
 30
0.0
 10
0.0330472440944882
 20
-3.455027559055118
 30
0.0
 10
0.0322677165354331
 20
-3.455027559055118
 30
0.0
 10
0.0322677165354331
 20
-3.455027559055118
 30
0.0
 10
0.0296574803149606
 20
-3.455027559055118
 30
0.0
 10
0.0275748031496063
 20
-3.454196850393701
 30
0.0
 10
0.0260196850393701
 20
-3.4525
 30
0.0
 10
0.0260196850393701
 20
-3.4525
 30
0.0
 10
0.0244330708661417
 20
-3.450834645669291
 30
0.0
 10
0.0236574803149606
 20
-3.448696850393701
 30
0.0
 10
0.0236574803149606
 20
-3.446082677165355
 30
0.0
 10
0.0236574803149606
 20
-3.446082677165355
 30
0.0
 10
0.0236574803149606
 20
-3.443527559055118
 30
0.0
 10
0.0246023622047244
 20
-3.441307086614173
 30
0.0
 10
0.026492125984252
 20
-3.439417322834646
 30
0.0
 10
0.026492125984252
 20
-3.439417322834646
 30
0.0
 10
0.0284055118110236
 20
-3.4375
 30
0.0
 10
0.0306850393700787
 20
-3.436555118110237
 30
0.0
 10
0.0333228346456693
 20
-3.436555118110237
 30
0.0
 10
0.0333228346456693
 20
-3.436555118110237
 30
0.0
 10
0.0370196850393701
 20
-3.436555118110237
 30
0.0
 10
0.0401850393700787
 20
-3.438027559055118
 30
0.0
 10
0.0428228346456693
 20
-3.441
 30
0.0
 10
0.0428228346456693
 20
-3.441
 30
0.0
 10
0.0454330708661417
 20
-3.443944881889764
 30
0.0
 10
0.0467677165354331
 20
-3.447751968503937
 30
0.0
 10
0.0467677165354331
 20
-3.452417322834646
 30
0.0
 10
0.0467677165354331
 20
-3.452417322834646
 30
0.0
 10
0.0467677165354331
 20
-3.455472440944882
 30
0.0
 10
0.0461299212598425
 20
-3.458669291338583
 30
0.0
 10
0.0448779527559055
 20
-3.462
 30
0.0
 10
0.0448779527559055
 20
-3.462
 30
0.0
 10
0.0436299212598425
 20
-3.465334645669291
 30
0.0
 10
0.0418228346456693
 20
-3.468417322834646
 30
0.0
 10
0.0394330708661417
 20
-3.471279527559055
 30
0.0
 10
0.0394330708661417
 20
-3.471279527559055
 30
0.0
 10
0.0370472440944882
 20
-3.474110236220473
 30
0.0
 10
0.0323228346456693
 20
-3.478527559055118
 30
0.0
 10
0.0252677165354331
 20
-3.4845
 30
0.0
  0
SPLINE
  5
39
330
1F
100
AcDbEntity
  8
LAYER_1
 62
   250
100
AcDbSpline
210
0.0
220
0.0
230
1.0
 70
    11
 71
     3
 72
    60
 73
    56
 74
     0
 42
0.0000000001
 43
0.0000000001
 40
0.0
 40
0.0
 40
0.0
 40
0.0
 40
0.0714285714285714
 40
0.0714285714285714
 40
0.0714285714285714
 40
0.0714285714285714
 40
0.1428571428571429
 40
0.1428571428571429
 40
0.1428571428571429
 40
0.1428571428571429
 40
0.2142857142857143
 40
0.2142857142857143
 40
0.2142857142857143
 40
0.2142857142857143
 40
0.2857142857142857
 40
0.2857142857142857
 40
0.2857142857142857
 40
0.2857142857142857
 40
0.3571428571428571
 40
0.3571428571428571
 40
0.3571428571428571
 40
0.3571428571428571
 40
0.4285714285714285
 40
0.4285714285714285
 40
0.4285714285714285
 40
0.4285714285714285
 40
0.4999999999999999
 40
0.4999999999999999
 40
0.4999999999999999
 40
0.4999999999999999
 40
0.5714285714285713
 40
0.5714285714285713
 40
0.5714285714285713
 40
0.5714285714285713
 40
0.6428571428571427
 40
0.6428571428571427
 40
0.6428571428571427
 40
0.6428571428571427
 40
0.7142857142857141
 40
0.7142857142857141
 40
0.7142857142857141
 40
0.7142857142857141
 40
0.7857142857142855
 40
0.7857142857142855
 40
0.7857142857142855
 40
0.7857142857142855
 40
0.8571428571428569
 40
0.8571428571428569
 40
0.8571428571428569
 40
0.8571428571428569
 40
0.9285714285714283
 40
0.9285714285714283
 40
0.9285714285714283
 40
0.9285714285714283
 40
1.0
 40
1.0
 40
1.0
 40
1.0
 10
0.0543228346456693
 20
-3.4845
 30
0.0
 10
0.0543228346456693
 20
-3.4845
 30
0.0
 10
0.0499330708661417
 20
-3.479110236220472
 30
0.0
 10
0.0499330708661417
 20
-3.479110236220472
 30
0.0
 10
0.0499330708661417
 20
-3.479110236220472
 30
0.0
 10
0.0610472440944882
 20
-3.470055118110236
 30
0.0
 10
0.0666299212598425
 20
-3.4625
 30
0.0
 10
0.0666299212598425
 20
-3.456417322834646
 30
0.0
 10
0.0666299212598425
 20
-3.456417322834646
 30
0.0
 10
0.0666299212598425
 20
-3.455724409448819
 30
0.0
 10
0.0665748031496063
 20
-3.454834645669291
 30
0.0
 10
0.0664606299212598
 20
-3.453807086614174
 30
0.0
 10
0.0664606299212598
 20
-3.453807086614174
 30
0.0
 10
0.0655472440944882
 20
-3.454196850393701
 30
0.0
 10
0.0646299212598425
 20
-3.4545
 30
0.0
 10
0.0637677165354331
 20
-3.454696850393701
 30
0.0
 10
0.0637677165354331
 20
-3.454696850393701
 30
0.0
 10
0.0629055118110236
 20
-3.454917322834646
 30
0.0
 10
0.0620748031496063
 20
-3.455027559055118
 30
0.0
 10
0.061240157480315
 20
-3.455027559055118
 30
0.0
 10
0.061240157480315
 20
-3.455027559055118
 30
0.0
 10
0.0586850393700787
 20
-3.455027559055118
 30
0.0
 10
0.0566299212598425
 20
-3.454196850393701
 30
0.0
 10
0.0550748031496063
 20
-3.4525
 30
0.0
 10
0.0550748031496063
 20
-3.4525
 30
0.0
 10
0.053492125984252
 20
-3.450834645669291
 30
0.0
 10
0.0527125984251968
 20
-3.448696850393701
 30
0.0
 10
0.0527125984251968
 20
-3.446082677165355
 30
0.0
 10
0.0527125984251968
 20
-3.446082677165355
 30
0.0
 10
0.0527125984251968
 20
-3.443527559055118
 30
0.0
 10
0.0536574803149606
 20
-3.441307086614173
 30
0.0
 10
0.0555472440944882
 20
-3.439417322834646
 30
0.0
 10
0.0555472440944882
 20
-3.439417322834646
 30
0.0
 10
0.0574330708661417
 20
-3.4375
 30
0.0
 10
0.059740157480315
 20
-3.436555118110237
 30
0.0
 10
0.0623779527559055
 20
-3.436555118110237
 30
0.0
 10
0.0623779527559055
 20
-3.436555118110237
 30
0.0
 10
0.0660748031496063
 20
-3.436555118110237
 30
0.0
 10
0.069240157480315
 20
-3.438027559055118
 30
0.0
 10
0.0718779527559055
 20
-3.441
 30
0.0
 10
0.0718779527559055
 20
-3.441
 30
0.0
 10
0.074488188976378
 20
-3.443944881889764
 30
0.0
 10
0.0758228346456693
 20
-3.447751968503937
 30
0.0
 10
0.0758228346456693
 20
-3.452417322834646
 30
0.0
 10
0.0758228346456693
 20
-3.452417322834646
 30
0.0
 10
0.0758228346456693
 20
-3.455472440944882
 30
0.0
 10
0.0751850393700787
 20
-3.458669291338583
 30
0.0
 10
0.0739330708661417
 20
-3.462
 30
0.0
 10
0.0739330708661417
 20
-3.462
 30
0.0
 10
0.0726850393700787
 20
-3.465334645669291
 30
0.0
 10
0.0708779527559055
 20
-3.468417322834646
 30
0.0
 10
0.068492125984252
 20
-3.471279527559055
 30
0.0
 10
0.068492125984252
 20
-3.471279527559055
 30
0.0
 10
0.0661023622047244
 20
-3.474110236220473
 30
0.0
 10
0.0613779527559055
 20
-3.478527559055118
 30
0.0
 10
0.0543228346456693
 20
-3.4845
 30
0.0
  0
SPLINE
  5
3A
330
1F
100
AcDbEntity
  8
LAYER_1
 62
   250
100
AcDbSpline
210
0.0
220
0.0
230
1.0
 70
    11
 71
     3
 72
   204
 73
   200
 74
     0
 42
0.0000000001
 43
0.0000000001
 40
0.0
 40
0.0
 40
0.0
 40
0.0
 40
0.02
 40
0.02
 40
0.02
 40
0.02
 40
0.04
 40
0.04
 40
0.04
 40
0.04
 40
0.06
 40
0.06
 40
0.06
 40
0.06
 40
0.08
 40
0.08
 40
0.08
 40
0.08
 40
0.1
 40
0.1
 40
0.1
 40
0.1
 40
0.12
 40
0.12
 40
0.12
 40
0.12
 40
0.14
 40
0.14
 40
0.14
 40
0.14
 40
0.16
 40
0.16
 40
0.16
 40
0.16
 40
0.18
 40
0.18
 40
0.18
 40
0.18
 40
0.2
 40
0.2
 40
0.2
 40
0.2
 40
0.22
 40
0.22
 40
0.22
 40
0.22
 40
0.24
 40
0.24
 40
0.24
 40
0.24
 40
0.26
 40
0.26
 40
0.26
 40
0.26
 40
0.28
 40
0.28
 40
0.28
 40
0.28
 40
0.3
 40
0.3
 40
0.3
 40
0.3
 40
0.32
 40
0.32
 40
0.32
 40
0.32
 40
0.34
 40
0.34
 40
0.34
 40
0.34
 40
0.36
 40
0.36
 40
0.36
 40
0.36
 40
0.3800000000000001
 40
0.3800000000000001
 40
0.3800000000000001
 40
0.3800000000000001
 40
0.4000000000000001
 40
0.4000000000000001
 40
0.4000000000000001
 40
0.4000000000000001
 40
0.4200000000000001
 40
0.4200000000000001
 40
0.4200000000000001
 40
0.4200000000000001
 40
0.4400000000000001
 40
0.4400000000000001
 40
0.4400000000000001
 40
0.4400000000000001
 40
0.4600000000000001
 40
0.4600000000000001
 40
0.4600000000000001
 40
0.4600000000000001
 40
0.4800000000000002
 40
0.4800000000000002
 40
0.4800000000000002
 40
0.4800000000000002
 40
0.5000000000000001
 40
0.5000000000000001
 40
0.5000000000000001
 40
0.5000000000000001
 40
0.5200000000000001
 40
0.5200000000000001
 40
0.5200000000000001
 40
0.5200000000000001
 40
0.5400000000000002
 40
0.5400000000000002
 40
0.5400000000000002
 40
0.5400000000000002
 40
0.5600000000000002
 40
0.5600000000000002
 40
0.5600000000000002
 40
0.5600000000000002
 40
0.5800000000000002
 40
0.5800000000000002
 40
0.5800000000000002
 40
0.5800000000000002
 40
0.6000000000000002
 40
0.6000000000000002
 40
0.6000000000000002
 40
0.6000000000000002
 40
0.6200000000000002
 40
0.6200000000000002
 40
0.6200000000000002
 40
0.6200000000000002
 40
0.6400000000000002
 40
0.6400000000000002
 40
0.6400000000000002
 40
0.6400000000000002
 40
0.6600000000000003
 40
0.6600000000000003
 40
0.6600000000000003
 40
0.6600000000000003
 40
0.6800000000000003
 40
0.6800000000000003
 40
0.6800000000000003
 40
0.6800000000000003
 40
0.7000000000000003
 40
0.7000000000000003
 40
0.7000000000000003
 40
0.7000000000000003
 40
0.7200000000000003
 40
0.7200000000000003
 40
0.7200000000000003
 40
0.7200000000000003
 40
0.7400000000000003
 40
0.7400000000000003
 40
0.7400000000000003
 40
0.7400000000000003
 40
0.7600000000000003
 40
0.7600000000000003
 40
0.7600000000000003
 40
0.7600000000000003
 40
0.7800000000000004
 40
0.7800000000000004
 40
0.7800000000000004
 40
0.7800000000000004
 40
0.8000000000000004
 40
0.8000000000000004
 40
0.8000000000000004
 40
0.8000000000000004
 40
0.8200000000000004
 40
0.8200000000000004
 40
0.8200000000000004
 40
0.8200000000000004
 40
0.8400000000000004
 40
0.8400000000000004
 40
0.8400000000000004
 40
0.8400000000000004
 40
0.8600000000000004
 40
0.8600000000000004
 40
0.8600000000000004
 40
0.8600000000000004
 40
0.8800000000000005
 40
0.8800000000000005
 40
0.8800000000000005
 40
0.8800000000000005
 40
0.9000000000000005
 40
0.9000000000000005
 40
0.9000000000000005
 40
0.9000000000000005
 40
0.9200000000000005
 40
0.9200000000000005
 40
0.9200000000000005
 40
0.9200000000000005
 40
0.9400000000000005
 40
0.9400000000000005
 40
0.9400000000000005
 40
0.9400000000000005
 40
0.9600000000000005
 40
0.9600000000000005
 40
0.9600000000000005
 40
0.9600000000000005
 40
0.9800000000000005
 40
0.9800000000000005
 40
0.9800000000000005
 40
0.9800000000000005
 40
1.0
 40
1.0
 40
1.0
 40
1.0
 10
0.1381299212598425
 20
-3.477417322834646
 30
0.0
 10
0.1381299212598425
 20
-3.477417322834646
 30
0.0
 10
0.1790748031496063
 20
-3.477417322834646
 30
0.0
 10
0.1790748031496063
 20
-3.477417322834646
 30
0.0
 10
0.1790748031496063
 20
-3.477417322834646
 30
0.0
 10
0.1790748031496063
 20
-3.477417322834646
 30
0.0
 10
0.1790748031496063
 20
-3.484251968503937
 30
0.0
 10
0.1790748031496063
 20
-3.484251968503937
 30
0.0
 10
0.1790748031496063
 20
-3.484251968503937
 30
0.0
 10
0.1790748031496063
 20
-3.484251968503937
 30
0.0
 10
0.176240157480315
 20
-3.484251968503937
 30
0.0
 10
0.176240157480315
 20
-3.484251968503937
 30
0.0
 10
0.176240157480315
 20
-3.484251968503937
 30
0.0
 10
0.1746023622047244
 20
-3.484251968503937
 30
0.0
 10
0.1731023622047244
 20
-3.484444881889764
 30
0.0
 10
0.171740157480315
 20
-3.484807086614173
 30
0.0
 10
0.171740157480315
 20
-3.484807086614173
 30
0.0
 10
0.1709370078740158
 20
-3.485027559055118
 30
0.0
 10
0.1702677165354331
 20
-3.485444881889764
 30
0.0
 10
0.1697677165354331
 20
-3.486082677165355
 30
0.0
 10
0.1697677165354331
 20
-3.486082677165355
 30
0.0
 10
0.169240157480315
 20
-3.486696850393701
 30
0.0
 10
0.168992125984252
 20
-3.487279527559055
 30
0.0
 10
0.168992125984252
 20
-3.487834645669292
 30
0.0
 10
0.168992125984252
 20
-3.487834645669292
 30
0.0
 10
0.168992125984252
 20
-3.489082677165354
 30
0.0
 10
0.1700196850393701
 20
-3.490944881889764
 30
0.0
 10
0.1720748031496063
 20
-3.493444881889764
 30
0.0
 10
0.1720748031496063
 20
-3.493444881889764
 30
0.0
 10
0.1720748031496063
 20
-3.493444881889764
 30
0.0
 10
0.1837125984251969
 20
-3.508082677165354
 30
0.0
 10
0.1837125984251969
 20
-3.508082677165354
 30
0.0
 10
0.1837125984251969
 20
-3.508082677165354
 30
0.0
 10
0.1837125984251969
 20
-3.508082677165354
 30
0.0
 10
0.1972952755905512
 20
-3.493444881889764
 30
0.0
 10
0.1972952755905512
 20
-3.493444881889764
 30
0.0
 10
0.1972952755905512
 20
-3.493444881889764
 30
0.0
 10
0.1997952755905512
 20
-3.490724409448819
 30
0.0
 10
0.2010472440944882
 20
-3.488696850393701
 30
0.0
 10
0.2010472440944882
 20
-3.487334645669292
 30
0.0
 10
0.2010472440944882
 20
-3.487334645669292
 30
0.0
 10
0.2010472440944882
 20
-3.48636220472441
 30
0.0
 10
0.2006023622047244
 20
-3.485610236220472
 30
0.0
 10
0.199740157480315
 20
-3.485055118110236
 30
0.0
 10
0.199740157480315
 20
-3.485055118110236
 30
0.0
 10
0.1988779527559055
 20
-3.484527559055118
 30
0.0
 10
0.1970196850393701
 20
-3.484251968503937
 30
0.0
 10
0.1941299212598425
 20
-3.484251968503937
 30
0.0
 10
0.1941299212598425
 20
-3.484251968503937
 30
0.0
 10
0.1941299212598425
 20
-3.484251968503937
 30
0.0
 10
0.1910472440944882
 20
-3.484251968503937
 30
0.0
 10
0.1910472440944882
 20
-3.484251968503937
 30
0.0
 10
0.1910472440944882
 20
-3.484251968503937
 30
0.0
 10
0.1910472440944882
 20
-3.484251968503937
 30
0.0
 10
0.1910472440944882
 20
-3.477417322834646
 30
0.0
 10
0.1910472440944882
 20
-3.477417322834646
 30
0.0
 10
0.1910472440944882
 20
-3.477417322834646
 30
0.0
 10
0.1910472440944882
 20
-3.477417322834646
 30
0.0
 10
0.2257952755905512
 20
-3.477417322834646
 30
0.0
 10
0.2257952755905512
 20
-3.477417322834646
 30
0.0
 10
0.2257952755905512
 20
-3.477417322834646
 30
0.0
 10
0.2257952755905512
 20
-3.477417322834646
 30
0.0
 10
0.2257952755905512
 20
-3.484251968503937
 30
0.0
 10
0.2257952755905512
 20
-3.484251968503937
 30
0.0
 10
0.2257952755905512
 20
-3.484251968503937
 30
0.0
 10
0.2223779527559055
 20
-3.484417322834646
 30
0.0
 10
0.2194330708661418
 20
-3.485110236220473
 30
0.0
 10
0.2169645669291339
 20
-3.48636220472441
 30
0.0
 10
0.2169645669291339
 20
-3.48636220472441
 30
0.0
 10
0.214492125984252
 20
-3.487610236220473
 30
0.0
 10
0.2115748031496063
 20
-3.489972440944882
 30
0.0
 10
0.2082125984251969
 20
-3.493444881889764
 30
0.0
 10
0.2082125984251969
 20
-3.493444881889764
 30
0.0
 10
0.2082125984251969
 20
-3.493444881889764
 30
0.0
 10
0.1895748031496063
 20
-3.512807086614173
 30
0.0
 10
0.1895748031496063
 20
-3.512807086614173
 30
0.0
 10
0.1895748031496063
 20
-3.512807086614173
 30
0.0
 10
0.1895748031496063
 20
-3.512807086614173
 30
0.0
 10
0.2127677165354331
 20
-3.539251968503937
 30
0.0
 10
0.2127677165354331
 20
-3.539251968503937
 30
0.0
 10
0.2127677165354331
 20
-3.539251968503937
 30
0.0
 10
0.2127677165354331
 20
-3.539251968503937
 30
0.0
 10
0.2136574803149607
 20
-3.540389763779528
 30
0.0
 10
0.2136574803149607
 20
-3.540389763779528
 30
0.0
 10
0.2136574803149607
 20
-3.540389763779528
 30
0.0
 10
0.2159330708661418
 20
-3.543334645669292
 30
0.0
 10
0.218492125984252
 20
-3.545696850393701
 30
0.0
 10
0.2213228346456693
 20
-3.547472440944882
 30
0.0
 10
0.2213228346456693
 20
-3.547472440944882
 30
0.0
 10
0.2228779527559055
 20
-3.5485
 30
0.0
 10
0.2253228346456693
 20
-3.549055118110236
 30
0.0
 10
0.2286299212598425
 20
-3.549110236220473
 30
0.0
 10
0.2286299212598425
 20
-3.549110236220473
 30
0.0
 10
0.2286299212598425
 20
-3.549110236220473
 30
0.0
 10
0.2286299212598425
 20
-3.555944881889764
 30
0.0
 10
0.2286299212598425
 20
-3.555944881889764
 30
0.0
 10
0.2286299212598425
 20
-3.555944881889764
 30
0.0
 10
0.2286299212598425
 20
-3.555944881889764
 30
0.0
 10
0.1886850393700787
 20
-3.555944881889764
 30
0.0
 10
0.1886850393700787
 20
-3.555944881889764
 30
0.0
 10
0.1886850393700787
 20
-3.555944881889764
 30
0.0
 10
0.1886850393700787
 20
-3.555944881889764
 30
0.0
 10
0.1886850393700787
 20
-3.549110236220473
 30
0.0
 10
0.1886850393700787
 20
-3.549110236220473
 30
0.0
 10
0.1886850393700787
 20
-3.549110236220473
 30
0.0
 10
0.1886850393700787
 20
-3.549110236220473
 30
0.0
 10
0.1921023622047244
 20
-3.549110236220473
 30
0.0
 10
0.1921023622047244
 20
-3.549110236220473
 30
0.0
 10
0.1921023622047244
 20
-3.549110236220473
 30
0.0
 10
0.1947125984251969
 20
-3.549110236220473
 30
0.0
 10
0.1963503937007874
 20
-3.548944881889764
 30
0.0
 10
0.1970748031496063
 20
-3.548610236220473
 30
0.0
 10
0.1970748031496063
 20
-3.548610236220473
 30
0.0
 10
0.198240157480315
 20
-3.548082677165354
 30
0.0
 10
0.1988503937007874
 20
-3.547165354330709
 30
0.0
 10
0.1988503937007874
 20
-3.54586220472441
 30
0.0
 10
0.1988503937007874
 20
-3.54586220472441
 30
0.0
 10
0.1988503937007874
 20
-3.544665354330709
 30
0.0
 10
0.1975472440944882
 20
-3.542472440944882
 30
0.0
 10
0.1949330708661417
 20
-3.539251968503937
 30
0.0
 10
0.1949330708661417
 20
-3.539251968503937
 30
0.0
 10
0.1949330708661417
 20
-3.539251968503937
 30
0.0
 10
0.1801299212598425
 20
-3.521110236220473
 30
0.0
 10
0.1801299212598425
 20
-3.521110236220473
 30
0.0
 10
0.1801299212598425
 20
-3.521110236220473
 30
0.0
 10
0.1801299212598425
 20
-3.521110236220473
 30
0.0
 10
0.1636023622047244
 20
-3.539251968503937
 30
0.0
 10
0.1636023622047244
 20
-3.539251968503937
 30
0.0
 10
0.1636023622047244
 20
-3.539251968503937
 30
0.0
 10
0.1636023622047244
 20
-3.539251968503937
 30
0.0
 10
0.161992125984252
 20
-3.541224409448819
 30
0.0
 10
0.161992125984252
 20
-3.541224409448819
 30
0.0
 10
0.161992125984252
 20
-3.541224409448819
 30
0.0
 10
0.161992125984252
 20
-3.541224409448819
 30
0.0
 10
0.1611023622047244
 20
-3.542196850393701
 30
0.0
 10
0.1611023622047244
 20
-3.542196850393701
 30
0.0
 10
0.1611023622047244
 20
-3.542196850393701
 30
0.0
 10
0.159740157480315
 20
-3.543665354330709
 30
0.0
 10
0.1590472440944882
 20
-3.544944881889764
 30
0.0
 10
0.1590472440944882
 20
-3.546082677165355
 30
0.0
 10
0.1590472440944882
 20
-3.546082677165355
 30
0.0
 10
0.1590472440944882
 20
-3.547137795275591
 30
0.0
 10
0.1594645669291339
 20
-3.547889763779528
 30
0.0
 10
0.1603228346456693
 20
-3.548389763779528
 30
0.0
 10
0.1603228346456693
 20
-3.548389763779528
 30
0.0
 10
0.1611574803149606
 20
-3.54886220472441
 30
0.0
 10
0.1630472440944882
 20
-3.549110236220473
 30
0.0
 10
0.1659645669291339
 20
-3.549110236220473
 30
0.0
 10
0.1659645669291339
 20
-3.549110236220473
 30
0.0
 10
0.1659645669291339
 20
-3.549110236220473
 30
0.0
 10
0.169240157480315
 20
-3.549110236220473
 30
0.0
 10
0.169240157480315
 20
-3.549110236220473
 30
0.0
 10
0.169240157480315
 20
-3.549110236220473
 30
0.0
 10
0.169240157480315
 20
-3.549110236220473
 30
0.0
 10
0.169240157480315
 20
-3.555944881889764
 30
0.0
 10
0.169240157480315
 20
-3.555944881889764
 30
0.0
 10
0.169240157480315
 20
-3.555944881889764
 30
0.0
 10
0.169240157480315
 20
-3.555944881889764
 30
0.0
 10
0.1349645669291339
 20
-3.555944881889764
 30
0.0
 10
0.1349645669291339
 20
-3.555944881889764
 30
0.0
 10
0.1349645669291339
 20
-3.555944881889764
 30
0.0
 10
0.1349645669291339
 20
-3.555944881889764
 30
0.0
 10
0.1349645669291339
 20
-3.549110236220473
 30
0.0
 10
0.1349645669291339
 20
-3.549110236220473
 30
0.0
 10
0.1349645669291339
 20
-3.549110236220473
 30
0.0
 10
0.1376299212598425
 20
-3.549055118110236
 30
0.0
 10
0.1397125984251968
 20
-3.548779527559055
 30
0.0
 10
0.141240157480315
 20
-3.548251968503937
 30
0.0
 10
0.141240157480315
 20
-3.548251968503937
 30
0.0
 10
0.142740157480315
 20
-3.547751968503937
 30
0.0
 10
0.1442125984251969
 20
-3.546944881889764
 30
0.0
 10
0.1456299212598425
 20
-3.54586220472441
 30
0.0
 10
0.1456299212598425
 20
-3.54586220472441
 30
0.0
 10
0.1480748031496063
 20
-3.543889763779528
 30
0.0
 10
0.1498228346456693
 20
-3.54236220472441
 30
0.0
 10
0.1509094488188977
 20
-3.541224409448819
 30
0.0
 10
0.1509094488188977
 20
-3.541224409448819
 30
0.0
 10
0.1509094488188977
 20
-3.541224409448819
 30
0.0
 10
0.1747677165354331
 20
-3.516724409448819
 30
0.0
 10
0.1747677165354331
 20
-3.516724409448819
 30
0.0
 10
0.1747677165354331
 20
-3.516724409448819
 30
0.0
 10
0.1747677165354331
 20
-3.516724409448819
 30
0.0
 10
0.154492125984252
 20
-3.493444881889764
 30
0.0
 10
0.154492125984252
 20
-3.493444881889764
 30
0.0
 10
0.154492125984252
 20
-3.493444881889764
 30
0.0
 10
0.1519370078740158
 20
-3.490555118110236
 30
0.0
 10
0.1499370078740158
 20
-3.488555118110237
 30
0.0
 10
0.1484370078740158
 20
-3.487389763779528
 30
0.0
 10
0.1484370078740158
 20
-3.487389763779528
 30
0.0
 10
0.1469370078740158
 20
-3.486224409448819
 30
0.0
 10
0.145492125984252
 20
-3.485389763779528
 30
0.0
 10
0.1440748031496063
 20
-3.484944881889764
 30
0.0
 10
0.1440748031496063
 20
-3.484944881889764
 30
0.0
 10
0.1426574803149606
 20
-3.484472440944882
 30
0.0
 10
0.1406850393700788
 20
-3.484251968503937
 30
0.0
 10
0.1381299212598425
 20
-3.484251968503937
 30
0.0
 10
0.1381299212598425
 20
-3.484251968503937
 30
0.0
 10
0.1381299212598425
 20
-3.484251968503937
 30
0.0
 10
0.1381299212598425
 20
-3.477417322834646
 30
0.0
 10
0.1381299212598425
 20
-3.477417322834646
 30
0.0
  0
SPLINE
  5
3B
330
1F
100
AcDbEntity
  8
LAYER_1
 62
   250
100
AcDbSpline
210
0.0
220
0.0
230
1.0
 70
    11
 71
     3
 72
   136
 73
   132
 74
     0
 42
0.0000000001
 43
0.0000000001
 40
0.0
 40
0.0
 40
0.0
 40
0.0
 40
0.0303030303030303
 40
0.0303030303030303
 40
0.0303030303030303
 40
0.0303030303030303
 40
0.0606060606060606
 40
0.0606060606060606
 40
0.0606060606060606
 40
0.0606060606060606
 40
0.0909090909090909
 40
0.0909090909090909
 40
0.0909090909090909
 40
0.0909090909090909
 40
0.1212121212121212
 40
0.1212121212121212
 40
0.1212121212121212
 40
0.1212121212121212
 40
0.1515151515151515
 40
0.1515151515151515
 40
0.1515151515151515
 40
0.1515151515151515
 40
0.1818181818181818
 40
0.1818181818181818
 40
0.1818181818181818
 40
0.1818181818181818
 40
0.2121212121212121
 40
0.2121212121212121
 40
0.2121212121212121
 40
0.2121212121212121
 40
0.2424242424242424
 40
0.2424242424242424
 40
0.2424242424242424
 40
0.2424242424242424
 40
0.2727272727272727
 40
0.2727272727272727
 40
0.2727272727272727
 40
0.2727272727272727
 40
0.303030303030303
 40
0.303030303030303
 40
0.303030303030303
 40
0.303030303030303
 40
0.3333333333333333
 40
0.3333333333333333
 40
0.3333333333333333
 40
0.3333333333333333
 40
0.3636363636363635
 40
0.3636363636363635
 40
0.3636363636363635
 40
0.3636363636363635
 40
0.3939393939393938
 40
0.3939393939393938
 40
0.3939393939393938
 40
0.3939393939393938
 40
0.4242424242424241
 40
0.4242424242424241
 40
0.4242424242424241
 40
0.4242424242424241
 40
0.4545454545454544
 40
0.4545454545454544
 40
0.4545454545454544
 40
0.4545454545454544
 40
0.4848484848484846
 40
0.4848484848484846
 40
0.4848484848484846
 40
0.4848484848484846
 40
0.5151515151515149
 40
0.5151515151515149
 40
0.5151515151515149
 40
0.5151515151515149
 40
0.5454545454545452
 40
0.5454545454545452
 40
0.5454545454545452
 40
0.5454545454545452
 40
0.5757575757575755
 40
0.5757575757575755
 40
0.5757575757575755
 40
0.5757575757575755
 40
0.6060606060606057
 40
0.6060606060606057
 40
0.6060606060606057
 40
0.6060606060606057
 40
0.636363636363636
 40
0.636363636363636
 40
0.636363636363636
 40
0.636363636363636
 40
0.6666666666666663
 40
0.6666666666666663
 40
0.6666666666666663
 40
0.6666666666666663
 40
0.6969696969696966
 40
0.6969696969696966
 40
0.6969696969696966
 40
0.6969696969696966
 40
0.7272727272727269
 40
0.7272727272727269
 40
0.7272727272727269
 40
0.7272727272727269
 40
0.7575757575757571
 40
0.7575757575757571
 40
0.7575757575757571
 40
0.7575757575757571
 40
0.7878787878787874
 40
0.7878787878787874
 40
0.7878787878787874
 40
0.7878787878787874
 40
0.8181818181818177
 40
0.8181818181818177
 40
0.8181818181818177
 40
0.8181818181818177
 40
0.848484848484848
 40
0.848484848484848
 40
0.848484848484848
 40
0.848484848484848
 40
0.8787878787878782
 40
0.8787878787878782
 40
0.8787878787878782
 40
0.8787878787878782
 40
0.9090909090909085
 40
0.9090909090909085
 40
0.9090909090909085
 40
0.9090909090909085
 40
0.9393939393939388
 40
0.9393939393939388
 40
0.9393939393939388
 40
0.9393939393939388
 40
0.9696969696969691
 40
0.9696969696969691
 40
0.9696969696969691
 40
0.9696969696969691
 40
1.0
 40
1.0
 40
1.0
 40
1.0
 10
0.3006574803149607
 20
-3.485224409448819
 30
0.0
 10
0.3006574803149607
 20
-3.485224409448819
 30
0.0
 10
0.2927677165354331
 20
-3.486196850393701
 30
0.0
 10
0.2927677165354331
 20
-3.486196850393701
 30
0.0
 10
0.2927677165354331
 20
-3.486196850393701
 30
0.0
 10
0.2923228346456693
 20
-3.48236220472441
 30
0.0
 10
0.2921023622047244
 20
-3.479196850393701
 30
0.0
 10
0.2921023622047244
 20
-3.476751968503937
 30
0.0
 10
0.2921023622047244
 20
-3.476751968503937
 30
0.0
 10
0.2921023622047244
 20
-3.47036220472441
 30
0.0
 10
0.2938503937007874
 20
-3.464307086614173
 30
0.0
 10
0.2973228346456693
 20
-3.458614173228347
 30
0.0
 10
0.2973228346456693
 20
-3.458614173228347
 30
0.0
 10
0.3007952755905512
 20
-3.452917322834646
 30
0.0
 10
0.3056299212598425
 20
-3.448472440944882
 30
0.0
 10
0.3118503937007874
 20
-3.445279527559055
 30
0.0
 10
0.3118503937007874
 20
-3.445279527559055
 30
0.0
 10
0.3180433070866142
 20
-3.442055118110237
 30
0.0
 10
0.3251850393700788
 20
-3.440472440944882
 30
0.0
 10
0.3332125984251969
 20
-3.440472440944882
 30
0.0
 10
0.3332125984251969
 20
-3.440472440944882
 30
0.0
 10
0.3409606299212599
 20
-3.440472440944882
 30
0.0
 10
0.3477677165354331
 20
-3.441972440944882
 30
0.0
 10
0.3536299212598426
 20
-3.444972440944882
 30
0.0
 10
0.3536299212598426
 20
-3.444972440944882
 30
0.0
 10
0.359488188976378
 20
-3.448
 30
0.0
 10
0.3639606299212599
 20
-3.452114173228347
 30
0.0
 10
0.3670984251968504
 20
-3.45736220472441
 30
0.0
 10
0.3670984251968504
 20
-3.45736220472441
 30
0.0
 10
0.3702125984251969
 20
-3.462582677165354
 30
0.0
 10
0.3717677165354331
 20
-3.468555118110237
 30
0.0
 10
0.3717677165354331
 20
-3.475307086614174
 30
0.0
 10
0.3717677165354331
 20
-3.475307086614174
 30
0.0
 10
0.3717677165354331
 20
-3.481
 30
0.0
 10
0.3707677165354331
 20
-3.486279527559055
 30
0.0
 10
0.3687125984251969
 20
-3.491110236220473
 30
0.0
 10
0.3687125984251969
 20
-3.491110236220473
 30
0.0
 10
0.3666850393700787
 20
-3.495972440944882
 30
0.0
 10
0.3634055118110237
 20
-3.500889763779528
 30
0.0
 10
0.3589055118110237
 20
-3.505807086614174
 30
0.0
 10
0.3589055118110237
 20
-3.505807086614174
 30
0.0
 10
0.3555433070866142
 20
-3.5095
 30
0.0
 10
0.348740157480315
 20
-3.515137795275591
 30
0.0
 10
0.338488188976378
 20
-3.522751968503937
 30
0.0
 10
0.338488188976378
 20
-3.522751968503937
 30
0.0
 10
0.3255748031496063
 20
-3.532389763779528
 30
0.0
 10
0.3156850393700788
 20
-3.539389763779528
 30
0.0
 10
0.3087952755905512
 20
-3.543751968503937
 30
0.0
 10
0.3087952755905512
 20
-3.543751968503937
 30
0.0
 10
0.3087952755905512
 20
-3.543751968503937
 30
0.0
 10
0.3511023622047244
 20
-3.543751968503937
 30
0.0
 10
0.3511023622047244
 20
-3.543751968503937
 30
0.0
 10
0.3511023622047244
 20
-3.543751968503937
 30
0.0
 10
0.3561023622047244
 20
-3.543751968503937
 30
0.0
 10
0.3593503937007874
 20
-3.543279527559055
 30
0.0
 10
0.3608779527559055
 20
-3.54236220472441
 30
0.0
 10
0.3608779527559055
 20
-3.54236220472441
 30
0.0
 10
0.362988188976378
 20
-3.541165354330709
 30
0.0
 10
0.3644330708661417
 20
-3.538389763779528
 30
0.0
 10
0.3651850393700787
 20
-3.534055118110236
 30
0.0
 10
0.3651850393700787
 20
-3.534055118110236
 30
0.0
 10
0.3651850393700787
 20
-3.534055118110236
 30
0.0
 10
0.3659055118110237
 20
-3.529417322834646
 30
0.0
 10
0.3659055118110237
 20
-3.529417322834646
 30
0.0
 10
0.3659055118110237
 20
-3.529417322834646
 30
0.0
 10
0.3659055118110237
 20
-3.529417322834646
 30
0.0
 10
0.3728228346456693
 20
-3.529417322834646
 30
0.0
 10
0.3728228346456693
 20
-3.529417322834646
 30
0.0
 10
0.3728228346456693
 20
-3.529417322834646
 30
0.0
 10
0.3728228346456693
 20
-3.529417322834646
 30
0.0
 10
0.3672952755905512
 20
-3.56
 30
0.0
 10
0.3672952755905512
 20
-3.56
 30
0.0
 10
0.3672952755905512
 20
-3.56
 30
0.0
 10
0.3672952755905512
 20
-3.56
 30
0.0
 10
0.3621023622047244
 20
-3.56
 30
0.0
 10
0.3621023622047244
 20
-3.56
 30
0.0
 10
0.3621023622047244
 20
-3.56
 30
0.0
 10
0.3621023622047244
 20
-3.56
 30
0.0
 10
0.3611850393700787
 20
-3.555944881889764
 30
0.0
 10
0.3611850393700787
 20
-3.555944881889764
 30
0.0
 10
0.3611850393700787
 20
-3.555944881889764
 30
0.0
 10
0.3611850393700787
 20
-3.555944881889764
 30
0.0
 10
0.2900748031496063
 20
-3.555944881889764
 30
0.0
 10
0.2900748031496063
 20
-3.555944881889764
 30
0.0
 10
0.2900748031496063
 20
-3.555944881889764
 30
0.0
 10
0.2900748031496063
 20
-3.555944881889764
 30
0.0
 10
0.2900748031496063
 20
-3.549110236220473
 30
0.0
 10
0.2900748031496063
 20
-3.549110236220473
 30
0.0
 10
0.2900748031496063
 20
-3.549110236220473
 30
0.0
 10
0.2900748031496063
 20
-3.549110236220473
 30
0.0
 10
0.3031023622047244
 20
-3.539251968503937
 30
0.0
 10
0.3031023622047244
 20
-3.539251968503937
 30
0.0
 10
0.3031023622047244
 20
-3.539251968503937
 30
0.0
 10
0.3129606299212598
 20
-3.531944881889764
 30
0.0
 10
0.3202125984251968
 20
-3.526334645669292
 30
0.0
 10
0.3248228346456693
 20
-3.522417322834646
 30
0.0
 10
0.3248228346456693
 20
-3.522417322834646
 30
0.0
 10
0.3335433070866142
 20
-3.515027559055118
 30
0.0
 10
0.3401299212598425
 20
-3.508724409448819
 30
0.0
 10
0.3445433070866142
 20
-3.5035
 30
0.0
 10
0.3445433070866142
 20
-3.5035
 30
0.0
 10
0.3489606299212599
 20
-3.498251968503937
 30
0.0
 10
0.3520157480314961
 20
-3.493527559055118
 30
0.0
 10
0.3536574803149606
 20
-3.489334645669291
 30
0.0
 10
0.3536574803149606
 20
-3.489334645669291
 30
0.0
 10
0.3553228346456693
 20
-3.485141732283465
 30
0.0
 10
0.3561574803149606
 20
-3.480724409448819
 30
0.0
 10
0.3561574803149606
 20
-3.476110236220473
 30
0.0
 10
0.3561574803149606
 20
-3.476110236220473
 30
0.0
 10
0.3561574803149606
 20
-3.468472440944882
 30
0.0
 10
0.3536850393700788
 20
-3.462196850393701
 30
0.0
 10
0.3487952755905512
 20
-3.457307086614173
 30
0.0
 10
0.3487952755905512
 20
-3.457307086614173
 30
0.0
 10
0.3438779527559056
 20
-3.452417322834646
 30
0.0
 10
0.337488188976378
 20
-3.45
 30
0.0
 10
0.3296299212598425
 20
-3.45
 30
0.0
 10
0.3296299212598425
 20
-3.45
 30
0.0
 10
0.323988188976378
 20
-3.45
 30
0.0
 10
0.3189330708661418
 20
-3.451196850393701
 30
0.0
 10
0.3145157480314961
 20
-3.453641732283465
 30
0.0
 10
0.3145157480314961
 20
-3.453641732283465
 30
0.0
 10
0.3101023622047244
 20
-3.456082677165354
 30
0.0
 10
0.3066299212598425
 20
-3.4595
 30
0.0
 10
0.3040748031496063
 20
-3.463917322834646
 30
0.0
 10
0.3040748031496063
 20
-3.463917322834646
 30
0.0
 10
0.3015157480314961
 20
-3.468307086614173
 30
0.0
 10
0.300240157480315
 20
-3.473055118110236
 30
0.0
 10
0.300240157480315
 20
-3.478141732283465
 30
0.0
 10
0.300240157480315
 20
-3.478141732283465
 30
0.0
 10
0.300240157480315
 20
-3.480055118110236
 30
0.0
 10
0.3003779527559055
 20
-3.482417322834646
 30
0.0
 10
0.3006574803149607
 20
-3.485224409448819
 30
0.0
  0
SPLINE
  5
3C
330
1F
100
AcDbEntity
  8
LAYER_1
 62
   250
100
AcDbSpline
210
0.0
220
0.0
230
1.0
 70
    11
 71
     3
 72
    20
 73
    16
 74
     0
 42
0.0000000001
 43
0.0000000001
 40
0.0
 40
0.0
 40
0.0
 40
0.0
 40
0.25
 40
0.25
 40
0.25
 40
0.25
 40
0.5
 40
0.5
 40
0.5
 40
0.5
 40
0.75
 40
0.75
 40
0.75
 40
0.75
 40
1.0
 40
1.0
 40
1.0
 40
1.0
 10
0.394240157480315
 20
-3.509472440944882
 30
0.0
 10
0.394240157480315
 20
-3.509472440944882
 30
0.0
 10
0.4425748031496063
 20
-3.509472440944882
 30
0.0
 10
0.4425748031496063
 20
-3.509472440944882
 30
0.0
 10
0.4425748031496063
 20
-3.509472440944882
 30
0.0
 10
0.4425748031496063
 20
-3.509472440944882
 30
0.0
 10
0.4425748031496063
 20
-3.519555118110236
 30
0.0
 10
0.4425748031496063
 20
-3.519555118110236
 30
0.0
 10
0.4425748031496063
 20
-3.519555118110236
 30
0.0
 10
0.4425748031496063
 20
-3.519555118110236
 30
0.0
 10
0.394240157480315
 20
-3.519555118110236
 30
0.0
 10
0.394240157480315
 20
-3.519555118110236
 30
0.0
 10
0.394240157480315
 20
-3.519555118110236
 30
0.0
 10
0.394240157480315
 20
-3.519555118110236
 30
0.0
 10
0.394240157480315
 20
-3.509472440944882
 30
0.0
 10
0.394240157480315
 20
-3.509472440944882
 30
0.0
  0
SPLINE
  5
3D
330
1F
100
AcDbEntity
  8
LAYER_1
 62
   250
100
AcDbSpline
210
0.0
220
0.0
230
1.0
 70
    11
 71
     3
 72
    72
 73
    68
 74
     0
 42
0.0000000001
 43
0.0000000001
 40
0.0
 40
0.0
 40
0.0
 40
0.0
 40
0.0588235294117647
 40
0.0588235294117647
 40
0.0588235294117647
 40
0.0588235294117647
 40
0.1176470588235294
 40
0.1176470588235294
 40
0.1176470588235294
 40
0.1176470588235294
 40
0.1764705882352941
 40
0.1764705882352941
 40
0.1764705882352941
 40
0.1764705882352941
 40
0.2352941176470588
 40
0.2352941176470588
 40
0.2352941176470588
 40
0.2352941176470588
 40
0.2941176470588235
 40
0.2941176470588235
 40
0.2941176470588235
 40
0.2941176470588235
 40
0.3529411764705883
 40
0.3529411764705883
 40
0.3529411764705883
 40
0.3529411764705883
 40
0.411764705882353
 40
0.411764705882353
 40
0.411764705882353
 40
0.411764705882353
 40
0.4705882352941177
 40
0.4705882352941177
 40
0.4705882352941177
 40
0.4705882352941177
 40
0.5294117647058824
 40
0.5294117647058824
 40
0.5294117647058824
 40
0.5294117647058824
 40
0.5882352941176471
 40
0.5882352941176471
 40
0.5882352941176471
 40
0.5882352941176471
 40
0.6470588235294118
 40
0.6470588235294118
 40
0.6470588235294118
 40
0.6470588235294118
 40
0.7058823529411765
 40
0.7058823529411765
 40
0.7058823529411765
 40
0.7058823529411765
 40
0.7647058823529412
 40
0.7647058823529412
 40
0.7647058823529412
 40
0.7647058823529412
 40
0.823529411764706
 40
0.823529411764706
 40
0.823529411764706
 40
0.823529411764706
 40
0.8823529411764707
 40
0.8823529411764707
 40
0.8823529411764707
 40
0.8823529411764707
 40
0.9411764705882354
 40
0.9411764705882354
 40
0.9411764705882354
 40
0.9411764705882354
 40
1.0
 40
1.0
 40
1.0
 40
1.0
 10
0.5077677165354331
 20
-3.442417322834646
 30
0.0
 10
0.5077677165354331
 20
-3.442417322834646
 30
0.0
 10
0.5138503937007874
 20
-3.442417322834646
 30
0.0
 10
0.5138503937007874
 20
-3.442417322834646
 30
0.0
 10
0.5138503937007874
 20
-3.442417322834646
 30
0.0
 10
0.5138503937007874
 20
-3.442417322834646
 30
0.0
 10
0.5138503937007874
 20
-3.536665354330709
 30
0.0
 10
0.5138503937007874
 20
-3.536665354330709
 30
0.0
 10
0.5138503937007874
 20
-3.536665354330709
 30
0.0
 10
0.5138503937007874
 20
-3.541110236220473
 30
0.0
 10
0.5141574803149607
 20
-3.543972440944882
 30
0.0
 10
0.5147125984251969
 20
-3.545251968503937
 30
0.0
 10
0.5147125984251969
 20
-3.545251968503937
 30
0.0
 10
0.5152952755905512
 20
-3.546527559055118
 30
0.0
 10
0.5162125984251968
 20
-3.547472440944882
 30
0.0
 10
0.5175157480314961
 20
-3.548137795275591
 30
0.0
 10
0.5175157480314961
 20
-3.548137795275591
 30
0.0
 10
0.5188228346456694
 20
-3.548779527559055
 30
0.0
 10
0.5214055118110237
 20
-3.549110236220473
 30
0.0
 10
0.5252677165354331
 20
-3.549110236220473
 30
0.0
 10
0.5252677165354331
 20
-3.549110236220473
 30
0.0
 10
0.5252677165354331
 20
-3.549110236220473
 30
0.0
 10
0.533240157480315
 20
-3.549110236220473
 30
0.0
 10
0.533240157480315
 20
-3.549110236220473
 30
0.0
 10
0.533240157480315
 20
-3.549110236220473
 30
0.0
 10
0.533240157480315
 20
-3.549110236220473
 30
0.0
 10
0.533240157480315
 20
-3.555944881889764
 30
0.0
 10
0.533240157480315
 20
-3.555944881889764
 30
0.0
 10
0.533240157480315
 20
-3.555944881889764
 30
0.0
 10
0.533240157480315
 20
-3.555944881889764
 30
0.0
 10
0.4796023622047244
 20
-3.555944881889764
 30
0.0
 10
0.4796023622047244
 20
-3.555944881889764
 30
0.0
 10
0.4796023622047244
 20
-3.555944881889764
 30
0.0
 10
0.4796023622047244
 20
-3.555944881889764
 30
0.0
 10
0.4796023622047244
 20
-3.549110236220473
 30
0.0
 10
0.4796023622047244
 20
-3.549110236220473
 30
0.0
 10
0.4796023622047244
 20
-3.549110236220473
 30
0.0
 10
0.4796023622047244
 20
-3.549110236220473
 30
0.0
 10
0.4884606299212599
 20
-3.549110236220473
 30
0.0
 10
0.4884606299212599
 20
-3.549110236220473
 30
0.0
 10
0.4884606299212599
 20
-3.549110236220473
 30
0.0
 10
0.4923228346456693
 20
-3.549110236220473
 30
0.0
 10
0.4948779527559055
 20
-3.548779527559055
 30
0.0
 10
0.4961574803149607
 20
-3.548082677165354
 30
0.0
 10
0.4961574803149607
 20
-3.548082677165354
 30
0.0
 10
0.4974330708661418
 20
-3.547417322834646
 30
0.0
 10
0.4984330708661418
 20
-3.546334645669292
 30
0.0
 10
0.4991299212598425
 20
-3.544834645669292
 30
0.0
 10
0.4991299212598425
 20
-3.544834645669292
 30
0.0
 10
0.4998228346456693
 20
-3.543334645669292
 30
0.0
 10
0.5001850393700787
 20
-3.540610236220473
 30
0.0
 10
0.5001850393700787
 20
-3.536665354330709
 30
0.0
 10
0.5001850393700787
 20
-3.536665354330709
 30
0.0
 10
0.5001850393700787
 20
-3.536665354330709
 30
0.0
 10
0.5001850393700787
 20
-3.459196850393701
 30
0.0
 10
0.5001850393700787
 20
-3.459196850393701
 30
0.0
 10
0.5001850393700787
 20
-3.459196850393701
 30
0.0
 10
0.5001850393700787
 20
-3.459196850393701
 30
0.0
 10
0.4796023622047244
 20
-3.459196850393701
 30
0.0
 10
0.4796023622047244
 20
-3.459196850393701
 30
0.0
 10
0.4796023622047244
 20
-3.459196850393701
 30
0.0
 10
0.4796023622047244
 20
-3.459196850393701
 30
0.0
 10
0.4796023622047244
 20
-3.452196850393701
 30
0.0
 10
0.4796023622047244
 20
-3.452196850393701
 30
0.0
 10
0.4796023622047244
 20
-3.452196850393701
 30
0.0
 10
0.4908228346456693
 20
-3.450614173228347
 30
0.0
 10
0.5002125984251968
 20
-3.44736220472441
 30
0.0
 10
0.5077677165354331
 20
-3.442417322834646
 30
0.0
  0
SPLINE
  5
3E
330
1F
100
AcDbEntity
  8
LAYER_1
 62
   250
100
AcDbSpline
210
0.0
220
0.0
230
1.0
 70
    11
 71
     3
 72
    20
 73
    16
 74
     0
 42
0.0000000001
 43
0.0000000001
 40
0.0
 40
0.0
 40
0.0
 40
0.0
 40
0.25
 40
0.25
 40
0.25
 40
0.25
 40
0.5
 40
0.5
 40
0.5
 40
0.5
 40
0.75
 40
0.75
 40
0.75
 40
0.75
 40
1.0
 40
1.0
 40
1.0
 40
1.0
 10
0.6366023622047244
 20
-3.436555118110237
 30
0.0
 10
0.6366023622047244
 20
-3.436555118110237
 30
0.0
 10
0.5810196850393701
 20
-3.592251968503937
 30
0.0
 10
0.5810196850393701
 20
-3.592251968503937
 30
0.0
 10
0.5810196850393701
 20
-3.592251968503937
 30
0.0
 10
0.5810196850393701
 20
-3.592251968503937
 30
0.0
 10
0.5689645669291339
 20
-3.592251968503937
 30
0.0
 10
0.5689645669291339
 20
-3.592251968503937
 30
0.0
 10
0.5689645669291339
 20
-3.592251968503937
 30
0.0
 10
0.5689645669291339
 20
-3.592251968503937
 30
0.0
 10
0.6242125984251968
 20
-3.436555118110237
 30
0.0
 10
0.6242125984251968
 20
-3.436555118110237
 30
0.0
 10
0.6242125984251968
 20
-3.436555118110237
 30
0.0
 10
0.6242125984251968
 20
-3.436555118110237
 30
0.0
 10
0.6366023622047244
 20
-3.436555118110237
 30
0.0
 10
0.6366023622047244
 20
-3.436555118110237
 30
0.0
  0
SPLINE
  5
3F
330
1F
100
AcDbEntity
  8
LAYER_1
 62
   250
100
AcDbSpline
210
0.0
220
0.0
230
1.0
 70
    11
 71
     3
 72
   136
 73
   132
 74
     0
 42
0.0000000001
 43
0.0000000001
 40
0.0
 40
0.0
 40
0.0
 40
0.0
 40
0.0303030303030303
 40
0.0303030303030303
 40
0.0303030303030303
 40
0.0303030303030303
 40
0.0606060606060606
 40
0.0606060606060606
 40
0.0606060606060606
 40
0.0606060606060606
 40
0.0909090909090909
 40
0.0909090909090909
 40
0.0909090909090909
 40
0.0909090909090909
 40
0.1212121212121212
 40
0.1212121212121212
 40
0.1212121212121212
 40
0.1212121212121212
 40
0.1515151515151515
 40
0.1515151515151515
 40
0.1515151515151515
 40
0.1515151515151515
 40
0.1818181818181818
 40
0.1818181818181818
 40
0.1818181818181818
 40
0.1818181818181818
 40
0.2121212121212121
 40
0.2121212121212121
 40
0.2121212121212121
 40
0.2121212121212121
 40
0.2424242424242424
 40
0.2424242424242424
 40
0.2424242424242424
 40
0.2424242424242424
 40
0.2727272727272727
 40
0.2727272727272727
 40
0.2727272727272727
 40
0.2727272727272727
 40
0.303030303030303
 40
0.303030303030303
 40
0.303030303030303
 40
0.303030303030303
 40
0.3333333333333333
 40
0.3333333333333333
 40
0.3333333333333333
 40
0.3333333333333333
 40
0.3636363636363635
 40
0.3636363636363635
 40
0.3636363636363635
 40
0.3636363636363635
 40
0.3939393939393938
 40
0.3939393939393938
 40
0.3939393939393938
 40
0.3939393939393938
 40
0.4242424242424241
 40
0.4242424242424241
 40
0.4242424242424241
 40
0.4242424242424241
 40
0.4545454545454544
 40
0.4545454545454544
 40
0.4545454545454544
 40
0.4545454545454544
 40
0.4848484848484846
 40
0.4848484848484846
 40
0.4848484848484846
 40
0.4848484848484846
 40
0.5151515151515149
 40
0.5151515151515149
 40
0.5151515151515149
 40
0.5151515151515149
 40
0.5454545454545452
 40
0.5454545454545452
 40
0.5454545454545452
 40
0.5454545454545452
 40
0.5757575757575755
 40
0.5757575757575755
 40
0.5757575757575755
 40
0.5757575757575755
 40
0.6060606060606057
 40
0.6060606060606057
 40
0.6060606060606057
 40
0.6060606060606057
 40
0.636363636363636
 40
0.636363636363636
 40
0.636363636363636
 40
0.636363636363636
 40
0.6666666666666663
 40
0.6666666666666663
 40
0.6666666666666663
 40
0.6666666666666663
 40
0.6969696969696966
 40
0.6969696969696966
 40
0.6969696969696966
 40
0.6969696969696966
 40
0.7272727272727269
 40
0.7272727272727269
 40
0.7272727272727269
 40
0.7272727272727269
 40
0.7575757575757571
 40
0.7575757575757571
 40
0.7575757575757571
 40
0.7575757575757571
 40
0.7878787878787874
 40
0.7878787878787874
 40
0.7878787878787874
 40
0.7878787878787874
 40
0.8181818181818177
 40
0.8181818181818177
 40
0.8181818181818177
 40
0.8181818181818177
 40
0.848484848484848
 40
0.848484848484848
 40
0.848484848484848
 40
0.848484848484848
 40
0.8787878787878782
 40
0.8787878787878782
 40
0.8787878787878782
 40
0.8787878787878782
 40
0.9090909090909085
 40
0.9090909090909085
 40
0.9090909090909085
 40
0.9090909090909085
 40
0.9393939393939388
 40
0.9393939393939388
 40
0.9393939393939388
 40
0.9393939393939388
 40
0.9696969696969691
 40
0.9696969696969691
 40
0.9696969696969691
 40
0.9696969696969691
 40
1.0
 40
1.0
 40
1.0
 40
1.0
 10
0.6740472440944882
 20
-3.485224409448819
 30
0.0
 10
0.6740472440944882
 20
-3.485224409448819
 30
0.0
 10
0.6661574803149607
 20
-3.486196850393701
 30
0.0
 10
0.6661574803149607
 20
-3.486196850393701
 30
0.0
 10
0.6661574803149607
 20
-3.486196850393701
 30
0.0
 10
0.6657125984251969
 20
-3.48236220472441
 30
0.0
 10
0.665492125984252
 20
-3.479196850393701
 30
0.0
 10
0.665492125984252
 20
-3.476751968503937
 30
0.0
 10
0.665492125984252
 20
-3.476751968503937
 30
0.0
 10
0.665492125984252
 20
-3.47036220472441
 30
0.0
 10
0.667240157480315
 20
-3.464307086614173
 30
0.0
 10
0.6707125984251969
 20
-3.458614173228347
 30
0.0
 10
0.6707125984251969
 20
-3.458614173228347
 30
0.0
 10
0.6741850393700788
 20
-3.452917322834646
 30
0.0
 10
0.6790196850393702
 20
-3.448472440944882
 30
0.0
 10
0.685240157480315
 20
-3.445279527559055
 30
0.0
 10
0.685240157480315
 20
-3.445279527559055
 30
0.0
 10
0.6914330708661418
 20
-3.442055118110237
 30
0.0
 10
0.6985748031496063
 20
-3.440472440944882
 30
0.0
 10
0.7066023622047244
 20
-3.440472440944882
 30
0.0
 10
0.7066023622047244
 20
-3.440472440944882
 30
0.0
 10
0.7143503937007875
 20
-3.440472440944882
 30
0.0
 10
0.7211574803149606
 20
-3.441972440944882
 30
0.0
 10
0.7270196850393701
 20
-3.444972440944882
 30
0.0
 10
0.7270196850393701
 20
-3.444972440944882
 30
0.0
 10
0.7328779527559055
 20
-3.448
 30
0.0
 10
0.7373503937007875
 20
-3.452114173228347
 30
0.0
 10
0.740488188976378
 20
-3.45736220472441
 30
0.0
 10
0.740488188976378
 20
-3.45736220472441
 30
0.0
 10
0.7436023622047244
 20
-3.462582677165354
 30
0.0
 10
0.7451574803149607
 20
-3.468555118110237
 30
0.0
 10
0.7451574803149607
 20
-3.475307086614174
 30
0.0
 10
0.7451574803149607
 20
-3.475307086614174
 30
0.0
 10
0.7451574803149607
 20
-3.481
 30
0.0
 10
0.7441574803149607
 20
-3.486279527559055
 30
0.0
 10
0.7421023622047245
 20
-3.491110236220473
 30
0.0
 10
0.7421023622047245
 20
-3.491110236220473
 30
0.0
 10
0.7400748031496063
 20
-3.495972440944882
 30
0.0
 10
0.7367952755905513
 20
-3.500889763779528
 30
0.0
 10
0.7322952755905512
 20
-3.505807086614174
 30
0.0
 10
0.7322952755905512
 20
-3.505807086614174
 30
0.0
 10
0.7289330708661418
 20
-3.5095
 30
0.0
 10
0.7221299212598425
 20
-3.515137795275591
 30
0.0
 10
0.7118779527559055
 20
-3.522751968503937
 30
0.0
 10
0.7118779527559055
 20
-3.522751968503937
 30
0.0
 10
0.6989645669291339
 20
-3.532389763779528
 30
0.0
 10
0.6890748031496063
 20
-3.539389763779528
 30
0.0
 10
0.6821850393700788
 20
-3.543751968503937
 30
0.0
 10
0.6821850393700788
 20
-3.543751968503937
 30
0.0
 10
0.6821850393700788
 20
-3.543751968503937
 30
0.0
 10
0.7244921259842519
 20
-3.543751968503937
 30
0.0
 10
0.7244921259842519
 20
-3.543751968503937
 30
0.0
 10
0.7244921259842519
 20
-3.543751968503937
 30
0.0
 10
0.729492125984252
 20
-3.543751968503937
 30
0.0
 10
0.732740157480315
 20
-3.543279527559055
 30
0.0
 10
0.7342677165354331
 20
-3.54236220472441
 30
0.0
 10
0.7342677165354331
 20
-3.54236220472441
 30
0.0
 10
0.7363779527559056
 20
-3.541165354330709
 30
0.0
 10
0.7378228346456693
 20
-3.538389763779528
 30
0.0
 10
0.7385748031496063
 20
-3.534055118110236
 30
0.0
 10
0.7385748031496063
 20
-3.534055118110236
 30
0.0
 10
0.7385748031496063
 20
-3.534055118110236
 30
0.0
 10
0.7392952755905512
 20
-3.529417322834646
 30
0.0
 10
0.7392952755905512
 20
-3.529417322834646
 30
0.0
 10
0.7392952755905512
 20
-3.529417322834646
 30
0.0
 10
0.7392952755905512
 20
-3.529417322834646
 30
0.0
 10
0.7462125984251968
 20
-3.529417322834646
 30
0.0
 10
0.7462125984251968
 20
-3.529417322834646
 30
0.0
 10
0.7462125984251968
 20
-3.529417322834646
 30
0.0
 10
0.7462125984251968
 20
-3.529417322834646
 30
0.0
 10
0.7406850393700788
 20
-3.56
 30
0.0
 10
0.7406850393700788
 20
-3.56
 30
0.0
 10
0.7406850393700788
 20
-3.56
 30
0.0
 10
0.7406850393700788
 20
-3.56
 30
0.0
 10
0.735492125984252
 20
-3.56
 30
0.0
 10
0.735492125984252
 20
-3.56
 30
0.0
 10
0.735492125984252
 20
-3.56
 30
0.0
 10
0.735492125984252
 20
-3.56
 30
0.0
 10
0.7345748031496063
 20
-3.555944881889764
 30
0.0
 10
0.7345748031496063
 20
-3.555944881889764
 30
0.0
 10
0.7345748031496063
 20
-3.555944881889764
 30
0.0
 10
0.7345748031496063
 20
-3.555944881889764
 30
0.0
 10
0.6634645669291339
 20
-3.555944881889764
 30
0.0
 10
0.6634645669291339
 20
-3.555944881889764
 30
0.0
 10
0.6634645669291339
 20
-3.555944881889764
 30
0.0
 10
0.6634645669291339
 20
-3.555944881889764
 30
0.0
 10
0.6634645669291339
 20
-3.549110236220473
 30
0.0
 10
0.6634645669291339
 20
-3.549110236220473
 30
0.0
 10
0.6634645669291339
 20
-3.549110236220473
 30
0.0
 10
0.6634645669291339
 20
-3.549110236220473
 30
0.0
 10
0.676492125984252
 20
-3.539251968503937
 30
0.0
 10
0.676492125984252
 20
-3.539251968503937
 30
0.0
 10
0.676492125984252
 20
-3.539251968503937
 30
0.0
 10
0.6863503937007874
 20
-3.531944881889764
 30
0.0
 10
0.6936023622047245
 20
-3.526334645669292
 30
0.0
 10
0.6982125984251969
 20
-3.522417322834646
 30
0.0
 10
0.6982125984251969
 20
-3.522417322834646
 30
0.0
 10
0.7069330708661418
 20
-3.515027559055118
 30
0.0
 10
0.7135196850393701
 20
-3.508724409448819
 30
0.0
 10
0.7179330708661418
 20
-3.5035
 30
0.0
 10
0.7179330708661418
 20
-3.5035
 30
0.0
 10
0.7223503937007875
 20
-3.498251968503937
 30
0.0
 10
0.7254055118110236
 20
-3.493527559055118
 30
0.0
 10
0.7270472440944882
 20
-3.489334645669291
 30
0.0
 10
0.7270472440944882
 20
-3.489334645669291
 30
0.0
 10
0.7287125984251969
 20
-3.485141732283465
 30
0.0
 10
0.7295472440944882
 20
-3.480724409448819
 30
0.0
 10
0.7295472440944882
 20
-3.476110236220473
 30
0.0
 10
0.7295472440944882
 20
-3.476110236220473
 30
0.0
 10
0.7295472440944882
 20
-3.468472440944882
 30
0.0
 10
0.7270748031496064
 20
-3.462196850393701
 30
0.0
 10
0.7221850393700787
 20
-3.457307086614173
 30
0.0
 10
0.7221850393700787
 20
-3.457307086614173
 30
0.0
 10
0.7172677165354331
 20
-3.452417322834646
 30
0.0
 10
0.7108779527559055
 20
-3.45
 30
0.0
 10
0.7030196850393701
 20
-3.45
 30
0.0
 10
0.7030196850393701
 20
-3.45
 30
0.0
 10
0.6973779527559055
 20
-3.45
 30
0.0
 10
0.6923228346456694
 20
-3.451196850393701
 30
0.0
 10
0.6879055118110237
 20
-3.453641732283465
 30
0.0
 10
0.6879055118110237
 20
-3.453641732283465
 30
0.0
 10
0.683492125984252
 20
-3.456082677165354
 30
0.0
 10
0.6800196850393702
 20
-3.4595
 30
0.0
 10
0.6774645669291339
 20
-3.463917322834646
 30
0.0
 10
0.6774645669291339
 20
-3.463917322834646
 30
0.0
 10
0.6749055118110237
 20
-3.468307086614173
 30
0.0
 10
0.6736299212598426
 20
-3.473055118110236
 30
0.0
 10
0.6736299212598426
 20
-3.478141732283465
 30
0.0
 10
0.6736299212598426
 20
-3.478141732283465
 30
0.0
 10
0.6736299212598426
 20
-3.480055118110236
 30
0.0
 10
0.6737677165354331
 20
-3.482417322834646
 30
0.0
 10
0.6740472440944882
 20
-3.485224409448819
 30
0.0
  0
SPLINE
  5
40
330
1F
100
AcDbEntity
  8
LAYER_1
 62
   250
100
AcDbSpline
210
0.0
220
0.0
230
1.0
 70
    11
 71
     3
 72
    60
 73
    56
 74
     0
 42
0.0000000001
 43
0.0000000001
 40
0.0
 40
0.0
 40
0.0
 40
0.0
 40
0.0714285714285714
 40
0.0714285714285714
 40
0.0714285714285714
 40
0.0714285714285714
 40
0.1428571428571429
 40
0.1428571428571429
 40
0.1428571428571429
 40
0.1428571428571429
 40
0.2142857142857143
 40
0.2142857142857143
 40
0.2142857142857143
 40
0.2142857142857143
 40
0.2857142857142857
 40
0.2857142857142857
 40
0.2857142857142857
 40
0.2857142857142857
 40
0.3571428571428571
 40
0.3571428571428571
 40
0.3571428571428571
 40
0.3571428571428571
 40
0.4285714285714285
 40
0.4285714285714285
 40
0.4285714285714285
 40
0.4285714285714285
 40
0.4999999999999999
 40
0.4999999999999999
 40
0.4999999999999999
 40
0.4999999999999999
 40
0.5714285714285713
 40
0.5714285714285713
 40
0.5714285714285713
 40
0.5714285714285713
 40
0.6428571428571427
 40
0.6428571428571427
 40
0.6428571428571427
 40
0.6428571428571427
 40
0.7142857142857141
 40
0.7142857142857141
 40
0.7142857142857141
 40
0.7142857142857141
 40
0.7857142857142855
 40
0.7857142857142855
 40
0.7857142857142855
 40
0.7857142857142855
 40
0.8571428571428569
 40
0.8571428571428569
 40
0.8571428571428569
 40
0.8571428571428569
 40
0.9285714285714283
 40
0.9285714285714283
 40
0.9285714285714283
 40
0.9285714285714283
 40
1.0
 40
1.0
 40
1.0
 40
1.0
 10
0.7686023622047244
 20
-3.4845
 30
0.0
 10
0.7686023622047244
 20
-3.4845
 30
0.0
 10
0.7642125984251968
 20
-3.479110236220472
 30
0.0
 10
0.7642125984251968
 20
-3.479110236220472
 30
0.0
 10
0.7642125984251968
 20
-3.479110236220472
 30
0.0
 10
0.7753267716535434
 20
-3.470055118110236
 30
0.0
 10
0.7809094488188977
 20
-3.4625
 30
0.0
 10
0.7809094488188977
 20
-3.456417322834646
 30
0.0
 10
0.7809094488188977
 20
-3.456417322834646
 30
0.0
 10
0.7809094488188977
 20
-3.455724409448819
 30
0.0
 10
0.7808543307086614
 20
-3.454834645669291
 30
0.0
 10
0.780740157480315
 20
-3.453807086614174
 30
0.0
 10
0.780740157480315
 20
-3.453807086614174
 30
0.0
 10
0.7798267716535433
 20
-3.454196850393701
 30
0.0
 10
0.7789094488188977
 20
-3.4545
 30
0.0
 10
0.7780472440944882
 20
-3.454696850393701
 30
0.0
 10
0.7780472440944882
 20
-3.454696850393701
 30
0.0
 10
0.7771850393700788
 20
-3.454917322834646
 30
0.0
 10
0.7763818897637795
 20
-3.455027559055118
 30
0.0
 10
0.7756023622047245
 20
-3.455027559055118
 30
0.0
 10
0.7756023622047245
 20
-3.455027559055118
 30
0.0
 10
0.772992125984252
 20
-3.455027559055118
 30
0.0
 10
0.7709094488188977
 20
-3.454196850393701
 30
0.0
 10
0.7693543307086614
 20
-3.4525
 30
0.0
 10
0.7693543307086614
 20
-3.4525
 30
0.0
 10
0.7677677165354331
 20
-3.450834645669291
 30
0.0
 10
0.766992125984252
 20
-3.448696850393701
 30
0.0
 10
0.766992125984252
 20
-3.446082677165355
 30
0.0
 10
0.766992125984252
 20
-3.446082677165355
 30
0.0
 10
0.766992125984252
 20
-3.443527559055118
 30
0.0
 10
0.7679370078740158
 20
-3.441307086614173
 30
0.0
 10
0.7698267716535433
 20
-3.439417322834646
 30
0.0
 10
0.7698267716535433
 20
-3.439417322834646
 30
0.0
 10
0.771740157480315
 20
-3.4375
 30
0.0
 10
0.7740196850393701
 20
-3.436555118110237
 30
0.0
 10
0.7766574803149606
 20
-3.436555118110237
 30
0.0
 10
0.7766574803149606
 20
-3.436555118110237
 30
0.0
 10
0.7803543307086615
 20
-3.436555118110237
 30
0.0
 10
0.7835196850393701
 20
-3.438027559055118
 30
0.0
 10
0.7861574803149607
 20
-3.441
 30
0.0
 10
0.7861574803149607
 20
-3.441
 30
0.0
 10
0.7887677165354331
 20
-3.443944881889764
 30
0.0
 10
0.7901023622047244
 20
-3.447751968503937
 30
0.0
 10
0.7901023622047244
 20
-3.452417322834646
 30
0.0
 10
0.7901023622047244
 20
-3.452417322834646
 30
0.0
 10
0.7901023622047244
 20
-3.455472440944882
 30
0.0
 10
0.7894645669291339
 20
-3.458669291338583
 30
0.0
 10
0.7882125984251969
 20
-3.462
 30
0.0
 10
0.7882125984251969
 20
-3.462
 30
0.0
 10
0.7869645669291339
 20
-3.465334645669291
 30
0.0
 10
0.7851574803149607
 20
-3.468417322834646
 30
0.0
 10
0.7827677165354331
 20
-3.471279527559055
 30
0.0
 10
0.7827677165354331
 20
-3.471279527559055
 30
0.0
 10
0.7803818897637795
 20
-3.474110236220473
 30
0.0
 10
0.7756574803149606
 20
-3.478527559055118
 30
0.0
 10
0.7686023622047244
 20
-3.4845
 30
0.0
  0
SPLINE
  5
41
330
1F
100
AcDbEntity
  8
LAYER_1
 62
   250
100
AcDbSpline
210
0.0
220
0.0
230
1.0
 70
    11
 71
     3
 72
    60
 73
    56
 74
     0
 42
0.0000000001
 43
0.0000000001
 40
0.0
 40
0.0
 40
0.0
 40
0.0
 40
0.0714285714285714
 40
0.0714285714285714
 40
0.0714285714285714
 40
0.0714285714285714
 40
0.1428571428571429
 40
0.1428571428571429
 40
0.1428571428571429
 40
0.1428571428571429
 40
0.2142857142857143
 40
0.2142857142857143
 40
0.2142857142857143
 40
0.2142857142857143
 40
0.2857142857142857
 40
0.2857142857142857
 40
0.2857142857142857
 40
0.2857142857142857
 40
0.3571428571428571
 40
0.3571428571428571
 40
0.3571428571428571
 40
0.3571428571428571
 40
0.4285714285714285
 40
0.4285714285714285
 40
0.4285714285714285
 40
0.4285714285714285
 40
0.4999999999999999
 40
0.4999999999999999
 40
0.4999999999999999
 40
0.4999999999999999
 40
0.5714285714285713
 40
0.5714285714285713
 40
0.5714285714285713
 40
0.5714285714285713
 40
0.6428571428571427
 40
0.6428571428571427
 40
0.6428571428571427
 40
0.6428571428571427
 40
0.7142857142857141
 40
0.7142857142857141
 40
0.7142857142857141
 40
0.7142857142857141
 40
0.7857142857142855
 40
0.7857142857142855
 40
0.7857142857142855
 40
0.7857142857142855
 40
0.8571428571428569
 40
0.8571428571428569
 40
0.8571428571428569
 40
0.8571428571428569
 40
0.9285714285714283
 40
0.9285714285714283
 40
0.9285714285714283
 40
0.9285714285714283
 40
1.0
 40
1.0
 40
1.0
 40
1.0
 10
0.7976574803149606
 20
-3.4845
 30
0.0
 10
0.7976574803149606
 20
-3.4845
 30
0.0
 10
0.7932677165354332
 20
-3.479110236220472
 30
0.0
 10
0.7932677165354332
 20
-3.479110236220472
 30
0.0
 10
0.7932677165354332
 20
-3.479110236220472
 30
0.0
 10
0.8043818897637796
 20
-3.470055118110236
 30
0.0
 10
0.8099645669291339
 20
-3.4625
 30
0.0
 10
0.8099645669291339
 20
-3.456417322834646
 30
0.0
 10
0.8099645669291339
 20
-3.456417322834646
 30
0.0
 10
0.8099645669291339
 20
-3.455724409448819
 30
0.0
 10
0.8099094488188977
 20
-3.454834645669291
 30
0.0
 10
0.8097952755905512
 20
-3.453807086614174
 30
0.0
 10
0.8097952755905512
 20
-3.453807086614174
 30
0.0
 10
0.8088818897637795
 20
-3.454196850393701
 30
0.0
 10
0.8079645669291339
 20
-3.4545
 30
0.0
 10
0.8071023622047244
 20
-3.454696850393701
 30
0.0
 10
0.8071023622047244
 20
-3.454696850393701
 30
0.0
 10
0.806240157480315
 20
-3.454917322834646
 30
0.0
 10
0.8054094488188976
 20
-3.455027559055118
 30
0.0
 10
0.8045748031496063
 20
-3.455027559055118
 30
0.0
 10
0.8045748031496063
 20
-3.455027559055118
 30
0.0
 10
0.8020196850393702
 20
-3.455027559055118
 30
0.0
 10
0.7999645669291339
 20
-3.454196850393701
 30
0.0
 10
0.7984094488188976
 20
-3.4525
 30
0.0
 10
0.7984094488188976
 20
-3.4525
 30
0.0
 10
0.7968267716535433
 20
-3.450834645669291
 30
0.0
 10
0.7960472440944882
 20
-3.448696850393701
 30
0.0
 10
0.7960472440944882
 20
-3.446082677165355
 30
0.0
 10
0.7960472440944882
 20
-3.446082677165355
 30
0.0
 10
0.7960472440944882
 20
-3.443527559055118
 30
0.0
 10
0.796992125984252
 20
-3.441307086614173
 30
0.0
 10
0.7988818897637796
 20
-3.439417322834646
 30
0.0
 10
0.7988818897637796
 20
-3.439417322834646
 30
0.0
 10
0.8007677165354331
 20
-3.4375
 30
0.0
 10
0.8030748031496063
 20
-3.436555118110237
 30
0.0
 10
0.8057125984251969
 20
-3.436555118110237
 30
0.0
 10
0.8057125984251969
 20
-3.436555118110237
 30
0.0
 10
0.8094094488188977
 20
-3.436555118110237
 30
0.0
 10
0.8125748031496063
 20
-3.438027559055118
 30
0.0
 10
0.8152125984251969
 20
-3.441
 30
0.0
 10
0.8152125984251969
 20
-3.441
 30
0.0
 10
0.8178228346456693
 20
-3.443944881889764
 30
0.0
 10
0.8191574803149606
 20
-3.447751968503937
 30
0.0
 10
0.8191574803149606
 20
-3.452417322834646
 30
0.0
 10
0.8191574803149606
 20
-3.452417322834646
 30
0.0
 10
0.8191574803149606
 20
-3.455472440944882
 30
0.0
 10
0.8185196850393701
 20
-3.458669291338583
 30
0.0
 10
0.8172677165354331
 20
-3.462
 30
0.0
 10
0.8172677165354331
 20
-3.462
 30
0.0
 10
0.8160196850393701
 20
-3.465334645669291
 30
0.0
 10
0.8142125984251969
 20
-3.468417322834646
 30
0.0
 10
0.8118267716535433
 20
-3.471279527559055
 30
0.0
 10
0.8118267716535433
 20
-3.471279527559055
 30
0.0
 10
0.8094370078740157
 20
-3.474110236220473
 30
0.0
 10
0.8047125984251969
 20
-3.478527559055118
 30
0.0
 10
0.7976574803149606
 20
-3.4845
 30
0.0
  0
SPLINE
  5
42
330
1F
100
AcDbEntity
  8
LAYER_1
 62
   253
100
AcDbSpline
210
0.0
220
0.0
230
1.0
 70
    11
 71
     3
 72
    20
 73
    16
 74
     0
 42
0.0000000001
 43
0.0000000001
 40
0.0
 40
0.0
 40
0.0
 40
0.0
 40
0.25
 40
0.25
 40
0.25
 40
0.25
 40
0.5
 40
0.5
 40
0.5
 40
0.5
 40
0.75
 40
0.75
 40
0.75
 40
0.75
 40
1.0
 40
1.0
 40
1.0
 40
1.0
 10
0.8561062992125985
 20
3.228952755905512
 30
0.0
 10
0.8561062992125985
 20
3.228952755905512
 30
0.0
 10
1.506216535433071
 20
2.854236220472441
 30
0.0
 10
1.506216535433071
 20
2.854236220472441
 30
0.0
 10
1.506216535433071
 20
2.854236220472441
 30
0.0
 10
1.506216535433071
 20
2.854236220472441
 30
0.0
 10
1.506216535433071
 20
2.319669291338583
 30
0.0
 10
1.506216535433071
 20
2.319669291338583
 30
0.0
 10
1.506216535433071
 20
2.319669291338583
 30
0.0
 10
1.506216535433071
 20
2.319669291338583
 30
0.0
 10
0.8561062992125985
 20
2.694385826771654
 30
0.0
 10
0.8561062992125985
 20
2.694385826771654
 30
0.0
 10
0.8561062992125985
 20
2.694385826771654
 30
0.0
 10
0.8561062992125985
 20
2.694385826771654
 30
0.0
 10
0.8561062992125985
 20
3.228952755905512
 30
0.0
 10
0.8561062992125985
 20
3.228952755905512
 30
0.0
  0
SPLINE
  5
43
330
1F
100
AcDbEntity
  8
LAYER_1
 62
   250
100
AcDbSpline
210
0.0
220
0.0
230
1.0
 70
    11
 71
     3
 72
    20
 73
    16
 74
     0
 42
0.0000000001
 43
0.0000000001
 40
0.0
 40
0.0
 40
0.0
 40
0.0
 40
0.25
 40
0.25
 40
0.25
 40
0.25
 40
0.5
 40
0.5
 40
0.5
 40
0.5
 40
0.75
 40
0.75
 40
0.75
 40
0.75
 40
1.0
 40
1.0
 40
1.0
 40
1.0
 10
0.8561062992125985
 20
3.228952755905512
 30
0.0
 10
0.8561062992125985
 20
3.228952755905512
 30
0.0
 10
1.506216535433071
 20
2.854236220472441
 30
0.0
 10
1.506216535433071
 20
2.854236220472441
 30
0.0
 10
1.506216535433071
 20
2.854236220472441
 30
0.0
 10
1.506216535433071
 20
2.854236220472441
 30
0.0
 10
1.506216535433071
 20
2.319669291338583
 30
0.0
 10
1.506216535433071
 20
2.319669291338583
 30
0.0
 10
1.506216535433071
 20
2.319669291338583
 30
0.0
 10
1.506216535433071
 20
2.319669291338583
 30
0.0
 10
0.8561062992125985
 20
2.694385826771654
 30
0.0
 10
0.8561062992125985
 20
2.694385826771654
 30
0.0
 10
0.8561062992125985
 20
2.694385826771654
 30
0.0
 10
0.8561062992125985
 20
2.694385826771654
 30
0.0
 10
0.8561062992125985
 20
3.228952755905512
 30
0.0
 10
0.8561062992125985
 20
3.228952755905512
 30
0.0
  0
SPLINE
  5
44
330
1F
100
AcDbEntity
  8
LAYER_1
 62
   253
100
AcDbSpline
210
0.0
220
0.0
230
1.0
 70
    11
 71
     3
 72
    20
 73
    16
 74
     0
 42
0.0000000001
 43
0.0000000001
 40
0.0
 40
0.0
 40
0.0
 40
0.0
 40
0.25
 40
0.25
 40
0.25
 40
0.25
 40
0.5
 40
0.5
 40
0.5
 40
0.5
 40
0.75
 40
0.75
 40
0.75
 40
0.75
 40
1.0
 40
1.0
 40
1.0
 40
1.0
 10
0.8561062992125985
 20
2.694385826771654
 30
0.0
 10
0.8561062992125985
 20
2.694385826771654
 30
0.0
 10
1.506216535433071
 20
2.319669291338583
 30
0.0
 10
1.506216535433071
 20
2.319669291338583
 30
0.0
 10
1.506216535433071
 20
2.319669291338583
 30
0.0
 10
1.506216535433071
 20
2.319669291338583
 30
0.0
 10
1.213066929133858
 20
2.289492125984252
 30
0.0
 10
1.213066929133858
 20
2.289492125984252
 30
0.0
 10
1.213066929133858
 20
2.289492125984252
 30
0.0
 10
1.213066929133858
 20
2.289492125984252
 30
0.0
 10
0.5629566929133859
 20
2.664208661417323
 30
0.0
 10
0.5629566929133859
 20
2.664208661417323
 30
0.0
 10
0.5629566929133859
 20
2.664208661417323
 30
0.0
 10
0.5629566929133859
 20
2.664208661417323
 30
0.0
 10
0.8561062992125985
 20
2.694385826771654
 30
0.0
 10
0.8561062992125985
 20
2.694385826771654
 30
0.0
  0
SPLINE
  5
45
330
1F
100
AcDbEntity
  8
LAYER_1
 62
   250
100
AcDbSpline
210
0.0
220
0.0
230
1.0
 70
    11
 71
     3
 72
    20
 73
    16
 74
     0
 42
0.0000000001
 43
0.0000000001
 40
0.0
 40
0.0
 40
0.0
 40
0.0
 40
0.25
 40
0.25
 40
0.25
 40
0.25
 40
0.5
 40
0.5
 40
0.5
 40
0.5
 40
0.75
 40
0.75
 40
0.75
 40
0.75
 40
1.0
 40
1.0
 40
1.0
 40
1.0
 10
0.8561062992125985
 20
2.694385826771654
 30
0.0
 10
0.8561062992125985
 20
2.694385826771654
 30
0.0
 10
1.506216535433071
 20
2.319669291338583
 30
0.0
 10
1.506216535433071
 20
2.319669291338583
 30
0.0
 10
1.506216535433071
 20
2.319669291338583
 30
0.0
 10
1.506216535433071
 20
2.319669291338583
 30
0.0
 10
1.213066929133858
 20
2.289492125984252
 30
0.0
 10
1.213066929133858
 20
2.289492125984252
 30
0.0
 10
1.213066929133858
 20
2.289492125984252
 30
0.0
 10
1.213066929133858
 20
2.289492125984252
 30
0.0
 10
0.5629566929133859
 20
2.664208661417323
 30
0.0
 10
0.5629566929133859
 20
2.664208661417323
 30
0.0
 10
0.5629566929133859
 20
2.664208661417323
 30
0.0
 10
0.5629566929133859
 20
2.664208661417323
 30
0.0
 10
0.8561062992125985
 20
2.694385826771654
 30
0.0
 10
0.8561062992125985
 20
2.694385826771654
 30
0.0
  0
SPLINE
  5
46
330
1F
100
AcDbEntity
  8
LAYER_1
 62
   253
100
AcDbSpline
210
0.0
220
0.0
230
1.0
 70
    11
 71
     3
 72
    20
 73
    16
 74
     0
 42
0.0000000001
 43
0.0000000001
 40
0.0
 40
0.0
 40
0.0
 40
0.0
 40
0.25
 40
0.25
 40
0.25
 40
0.25
 40
0.5
 40
0.5
 40
0.5
 40
0.5
 40
0.75
 40
0.75
 40
0.75
 40
0.75
 40
1.0
 40
1.0
 40
1.0
 40
1.0
 10
0.5629566929133859
 20
2.664208661417323
 30
0.0
 10
0.5629566929133859
 20
2.664208661417323
 30
0.0
 10
1.213066929133858
 20
2.289492125984252
 30
0.0
 10
1.213066929133858
 20
2.289492125984252
 30
0.0
 10
1.213066929133858
 20
2.289492125984252
 30
0.0
 10
1.213066929133858
 20
2.289492125984252
 30
0.0
 10
1.211409448818898
 20
2.222783464566929
 30
0.0
 10
1.211409448818898
 20
2.222783464566929
 30
0.0
 10
1.211409448818898
 20
2.222783464566929
 30
0.0
 10
1.211409448818898
 20
2.222783464566929
 30
0.0
 10
0.5612992125984252
 20
2.5975
 30
0.0
 10
0.5612992125984252
 20
2.5975
 30
0.0
 10
0.5612992125984252
 20
2.5975
 30
0.0
 10
0.5612992125984252
 20
2.5975
 30
0.0
 10
0.5629566929133859
 20
2.664208661417323
 30
0.0
 10
0.5629566929133859
 20
2.664208661417323
 30
0.0
  0
SPLINE
  5
47
330
1F
100
AcDbEntity
  8
LAYER_1
 62
   253
100
AcDbSpline
210
0.0
220
0.0
230
1.0
 70
    11
 71
     3
 72
    20
 73
    16
 74
     0
 42
0.0000000001
 43
0.0000000001
 40
0.0
 40
0.0
 40
0.0
 40
0.0
 40
0.25
 40
0.25
 40
0.25
 40
0.25
 40
0.5
 40
0.5
 40
0.5
 40
0.5
 40
0.75
 40
0.75
 40
0.75
 40
0.75
 40
1.0
 40
1.0
 40
1.0
 40
1.0
 10
0.5612992125984252
 20
2.5975
 30
0.0
 10
0.5612992125984252
 20
2.5975
 30
0.0
 10
1.211409448818898
 20
2.222783464566929
 30
0.0
 10
1.211409448818898
 20
2.222783464566929
 30
0.0
 10
1.211409448818898
 20
2.222783464566929
 30
0.0
 10
1.211409448818898
 20
2.222783464566929
 30
0.0
 10
1.208011811023622
 20
2.156889763779528
 30
0.0
 10
1.208011811023622
 20
2.156889763779528
 30
0.0
 10
1.208011811023622
 20
2.156889763779528
 30
0.0
 10
1.208011811023622
 20
2.156889763779528
 30
0.0
 10
0.5579015748031496
 20
2.531606299212599
 30
0.0
 10
0.5579015748031496
 20
2.531606299212599
 30
0.0
 10
0.5579015748031496
 20
2.531606299212599
 30
0.0
 10
0.5579015748031496
 20
2.531606299212599
 30
0.0
 10
0.5612992125984252
 20
2.5975
 30
0.0
 10
0.5612992125984252
 20
2.5975
 30
0.0
  0
SPLINE
  5
48
330
1F
100
AcDbEntity
  8
LAYER_1
 62
   253
100
AcDbSpline
210
0.0
220
0.0
230
1.0
 70
    11
 71
     3
 72
    20
 73
    16
 74
     0
 42
0.0000000001
 43
0.0000000001
 40
0.0
 40
0.0
 40
0.0
 40
0.0
 40
0.25
 40
0.25
 40
0.25
 40
0.25
 40
0.5
 40
0.5
 40
0.5
 40
0.5
 40
0.75
 40
0.75
 40
0.75
 40
0.75
 40
1.0
 40
1.0
 40
1.0
 40
1.0
 10
0.5579015748031496
 20
2.531606299212599
 30
0.0
 10
0.5579015748031496
 20
2.531606299212599
 30
0.0
 10
1.208011811023622
 20
2.156889763779528
 30
0.0
 10
1.208011811023622
 20
2.156889763779528
 30
0.0
 10
1.208011811023622
 20
2.156889763779528
 30
0.0
 10
1.208011811023622
 20
2.156889763779528
 30
0.0
 10
1.202803149606299
 20
2.091850393700788
 30
0.0
 10
1.202803149606299
 20
2.091850393700788
 30
0.0
 10
1.202803149606299
 20
2.091850393700788
 30
0.0
 10
1.202803149606299
 20
2.091850393700788
 30
0.0
 10
0.5526929133858268
 20
2.466566929133859
 30
0.0
 10
0.5526929133858268
 20
2.466566929133859
 30
0.0
 10
0.5526929133858268
 20
2.466566929133859
 30
0.0
 10
0.5526929133858268
 20
2.466566929133859
 30
0.0
 10
0.5579015748031496
 20
2.531606299212599
 30
0.0
 10
0.5579015748031496
 20
2.531606299212599
 30
0.0
  0
SPLINE
  5
49
330
1F
100
AcDbEntity
  8
LAYER_1
 62
   253
100
AcDbSpline
210
0.0
220
0.0
230
1.0
 70
    11
 71
     3
 72
    20
 73
    16
 74
     0
 42
0.0000000001
 43
0.0000000001
 40
0.0
 40
0.0
 40
0.0
 40
0.0
 40
0.25
 40
0.25
 40
0.25
 40
0.25
 40
0.5
 40
0.5
 40
0.5
 40
0.5
 40
0.75
 40
0.75
 40
0.75
 40
0.75
 40
1.0
 40
1.0
 40
1.0
 40
1.0
 10
0.5526929133858268
 20
2.466566929133859
 30
0.0
 10
0.5526929133858268
 20
2.466566929133859
 30
0.0
 10
1.202803149606299
 20
2.091850393700788
 30
0.0
 10
1.202803149606299
 20
2.091850393700788
 30
0.0
 10
1.202803149606299
 20
2.091850393700788
 30
0.0
 10
1.202803149606299
 20
2.091850393700788
 30
0.0
 10
1.195716535433071
 20
2.027724409448819
 30
0.0
 10
1.195716535433071
 20
2.027724409448819
 30
0.0
 10
1.195716535433071
 20
2.027724409448819
 30
0.0
 10
1.195716535433071
 20
2.027724409448819
 30
0.0
 10
0.5456062992125984
 20
2.40244094488189
 30
0.0
 10
0.5456062992125984
 20
2.40244094488189
 30
0.0
 10
0.5456062992125984
 20
2.40244094488189
 30
0.0
 10
0.5456062992125984
 20
2.40244094488189
 30
0.0
 10
0.5526929133858268
 20
2.466566929133859
 30
0.0
 10
0.5526929133858268
 20
2.466566929133859
 30
0.0
  0
SPLINE
  5
4A
330
1F
100
AcDbEntity
  8
LAYER_1
 62
   253
100
AcDbSpline
210
0.0
220
0.0
230
1.0
 70
    11
 71
     3
 72
    20
 73
    16
 74
     0
 42
0.0000000001
 43
0.0000000001
 40
0.0
 40
0.0
 40
0.0
 40
0.0
 40
0.25
 40
0.25
 40
0.25
 40
0.25
 40
0.5
 40
0.5
 40
0.5
 40
0.5
 40
0.75
 40
0.75
 40
0.75
 40
0.75
 40
1.0
 40
1.0
 40
1.0
 40
1.0
 10
0.5456062992125984
 20
2.40244094488189
 30
0.0
 10
0.5456062992125984
 20
2.40244094488189
 30
0.0
 10
1.195716535433071
 20
2.027724409448819
 30
0.0
 10
1.195716535433071
 20
2.027724409448819
 30
0.0
 10
1.195716535433071
 20
2.027724409448819
 30
0.0
 10
1.195716535433071
 20
2.027724409448819
 30
0.0
 10
1.186665354330709
 20
1.964551181102362
 30
0.0
 10
1.186665354330709
 20
1.964551181102362
 30
0.0
 10
1.186665354330709
 20
1.964551181102362
 30
0.0
 10
1.186665354330709
 20
1.964551181102362
 30
0.0
 10
0.5365551181102363
 20
2.339267716535433
 30
0.0
 10
0.5365551181102363
 20
2.339267716535433
 30
0.0
 10
0.5365551181102363
 20
2.339267716535433
 30
0.0
 10
0.5365551181102363
 20
2.339267716535433
 30
0.0
 10
0.5456062992125984
 20
2.40244094488189
 30
0.0
 10
0.5456062992125984
 20
2.40244094488189
 30
0.0
  0
SPLINE
  5
4B
330
1F
100
AcDbEntity
  8
LAYER_1
 62
   253
100
AcDbSpline
210
0.0
220
0.0
230
1.0
 70
    11
 71
     3
 72
    20
 73
    16
 74
     0
 42
0.0000000001
 43
0.0000000001
 40
0.0
 40
0.0
 40
0.0
 40
0.0
 40
0.25
 40
0.25
 40
0.25
 40
0.25
 40
0.5
 40
0.5
 40
0.5
 40
0.5
 40
0.75
 40
0.75
 40
0.75
 40
0.75
 40
1.0
 40
1.0
 40
1.0
 40
1.0
 10
0.5365551181102363
 20
2.339267716535433
 30
0.0
 10
0.5365551181102363
 20
2.339267716535433
 30
0.0
 10
1.186665354330709
 20
1.964551181102362
 30
0.0
 10
1.186665354330709
 20
1.964551181102362
 30
0.0
 10
1.186665354330709
 20
1.964551181102362
 30
0.0
 10
1.186665354330709
 20
1.964551181102362
 30
0.0
 10
1.175586614173228
 20
1.90238188976378
 30
0.0
 10
1.175586614173228
 20
1.90238188976378
 30
0.0
 10
1.175586614173228
 20
1.90238188976378
 30
0.0
 10
1.175586614173228
 20
1.90238188976378
 30
0.0
 10
0.5254763779527559
 20
2.277098425196851
 30
0.0
 10
0.5254763779527559
 20
2.277098425196851
 30
0.0
 10
0.5254763779527559
 20
2.277098425196851
 30
0.0
 10
0.5254763779527559
 20
2.277098425196851
 30
0.0
 10
0.5365551181102363
 20
2.339267716535433
 30
0.0
 10
0.5365551181102363
 20
2.339267716535433
 30
0.0
  0
SPLINE
  5
4C
330
1F
100
AcDbEntity
  8
LAYER_1
 62
   253
100
AcDbSpline
210
0.0
220
0.0
230
1.0
 70
    11
 71
     3
 72
    20
 73
    16
 74
     0
 42
0.0000000001
 43
0.0000000001
 40
0.0
 40
0.0
 40
0.0
 40
0.0
 40
0.25
 40
0.25
 40
0.25
 40
0.25
 40
0.5
 40
0.5
 40
0.5
 40
0.5
 40
0.75
 40
0.75
 40
0.75
 40
0.75
 40
1.0
 40
1.0
 40
1.0
 40
1.0
 10
0.5254763779527559
 20
2.277098425196851
 30
0.0
 10
0.5254763779527559
 20
2.277098425196851
 30
0.0
 10
1.175586614173228
 20
1.90238188976378
 30
0.0
 10
1.175586614173228
 20
1.90238188976378
 30
0.0
 10
1.175586614173228
 20
1.90238188976378
 30
0.0
 10
1.175586614173228
 20
1.90238188976378
 30
0.0
 10
1.16240157480315
 20
1.841271653543307
 30
0.0
 10
1.16240157480315
 20
1.841271653543307
 30
0.0
 10
1.16240157480315
 20
1.841271653543307
 30
0.0
 10
1.16240157480315
 20
1.841271653543307
 30
0.0
 10
0.5122913385826772
 20
2.215988188976378
 30
0.0
 10
0.5122913385826772
 20
2.215988188976378
 30
0.0
 10
0.5122913385826772
 20
2.215988188976378
 30
0.0
 10
0.5122913385826772
 20
2.215988188976378
 30
0.0
 10
0.5254763779527559
 20
2.277098425196851
 30
0.0
 10
0.5254763779527559
 20
2.277098425196851
 30
0.0
  0
SPLINE
  5
4D
330
1F
100
AcDbEntity
  8
LAYER_1
 62
   253
100
AcDbSpline
210
0.0
220
0.0
230
1.0
 70
    11
 71
     3
 72
    20
 73
    16
 74
     0
 42
0.0000000001
 43
0.0000000001
 40
0.0
 40
0.0
 40
0.0
 40
0.0
 40
0.25
 40
0.25
 40
0.25
 40
0.25
 40
0.5
 40
0.5
 40
0.5
 40
0.5
 40
0.75
 40
0.75
 40
0.75
 40
0.75
 40
1.0
 40
1.0
 40
1.0
 40
1.0
 10
0.5122913385826772
 20
2.215988188976378
 30
0.0
 10
0.5122913385826772
 20
2.215988188976378
 30
0.0
 10
1.16240157480315
 20
1.841271653543307
 30
0.0
 10
1.16240157480315
 20
1.841271653543307
 30
0.0
 10
1.16240157480315
 20
1.841271653543307
 30
0.0
 10
1.16240157480315
 20
1.841271653543307
 30
0.0
 10
1.147047244094488
 20
1.781263779527559
 30
0.0
 10
1.147047244094488
 20
1.781263779527559
 30
0.0
 10
1.147047244094488
 20
1.781263779527559
 30
0.0
 10
1.147047244094488
 20
1.781263779527559
 30
0.0
 10
0.4969370078740158
 20
2.15598031496063
 30
0.0
 10
0.4969370078740158
 20
2.15598031496063
 30
0.0
 10
0.4969370078740158
 20
2.15598031496063
 30
0.0
 10
0.4969370078740158
 20
2.15598031496063
 30
0.0
 10
0.5122913385826772
 20
2.215988188976378
 30
0.0
 10
0.5122913385826772
 20
2.215988188976378
 30
0.0
  0
SPLINE
  5
4E
330
1F
100
AcDbEntity
  8
LAYER_1
 62
   253
100
AcDbSpline
210
0.0
220
0.0
230
1.0
 70
    11
 71
     3
 72
    20
 73
    16
 74
     0
 42
0.0000000001
 43
0.0000000001
 40
0.0
 40
0.0
 40
0.0
 40
0.0
 40
0.25
 40
0.25
 40
0.25
 40
0.25
 40
0.5
 40
0.5
 40
0.5
 40
0.5
 40
0.75
 40
0.75
 40
0.75
 40
0.75
 40
1.0
 40
1.0
 40
1.0
 40
1.0
 10
0.4969370078740158
 20
2.15598031496063
 30
0.0
 10
0.4969370078740158
 20
2.15598031496063
 30
0.0
 10
1.147047244094488
 20
1.781263779527559
 30
0.0
 10
1.147047244094488
 20
1.781263779527559
 30
0.0
 10
1.147047244094488
 20
1.781263779527559
 30
0.0
 10
1.147047244094488
 20
1.781263779527559
 30
0.0
 10
1.129437007874016
 20
1.722417322834646
 30
0.0
 10
1.129437007874016
 20
1.722417322834646
 30
0.0
 10
1.129437007874016
 20
1.722417322834646
 30
0.0
 10
1.129437007874016
 20
1.722417322834646
 30
0.0
 10
0.4793267716535433
 20
2.097133858267717
 30
0.0
 10
0.4793267716535433
 20
2.097133858267717
 30
0.0
 10
0.4793267716535433
 20
2.097133858267717
 30
0.0
 10
0.4793267716535433
 20
2.097133858267717
 30
0.0
 10
0.4969370078740158
 20
2.15598031496063
 30
0.0
 10
0.4969370078740158
 20
2.15598031496063
 30
0.0
  0
SPLINE
  5
4F
330
1F
100
AcDbEntity
  8
LAYER_1
 62
   253
100
AcDbSpline
210
0.0
220
0.0
230
1.0
 70
    11
 71
     3
 72
    20
 73
    16
 74
     0
 42
0.0000000001
 43
0.0000000001
 40
0.0
 40
0.0
 40
0.0
 40
0.0
 40
0.25
 40
0.25
 40
0.25
 40
0.25
 40
0.5
 40
0.5
 40
0.5
 40
0.5
 40
0.75
 40
0.75
 40
0.75
 40
0.75
 40
1.0
 40
1.0
 40
1.0
 40
1.0
 10
0.4793267716535433
 20
2.097133858267717
 30
0.0
 10
0.4793267716535433
 20
2.097133858267717
 30
0.0
 10
1.129437007874016
 20
1.722417322834646
 30
0.0
 10
1.129437007874016
 20
1.722417322834646
 30
0.0
 10
1.129437007874016
 20
1.722417322834646
 30
0.0
 10
1.129437007874016
 20
1.722417322834646
 30
0.0
 10
1.109511811023622
 20
1.664771653543307
 30
0.0
 10
1.109511811023622
 20
1.664771653543307
 30
0.0
 10
1.109511811023622
 20
1.664771653543307
 30
0.0
 10
1.109511811023622
 20
1.664771653543307
 30
0.0
 10
0.4594015748031496
 20
2.039488188976378
 30
0.0
 10
0.4594015748031496
 20
2.039488188976378
 30
0.0
 10
0.4594015748031496
 20
2.039488188976378
 30
0.0
 10
0.4594015748031496
 20
2.039488188976378
 30
0.0
 10
0.4793267716535433
 20
2.097133858267717
 30
0.0
 10
0.4793267716535433
 20
2.097133858267717
 30
0.0
  0
SPLINE
  5
50
330
1F
100
AcDbEntity
  8
LAYER_1
 62
   253
100
AcDbSpline
210
0.0
220
0.0
230
1.0
 70
    11
 71
     3
 72
    20
 73
    16
 74
     0
 42
0.0000000001
 43
0.0000000001
 40
0.0
 40
0.0
 40
0.0
 40
0.0
 40
0.25
 40
0.25
 40
0.25
 40
0.25
 40
0.5
 40
0.5
 40
0.5
 40
0.5
 40
0.75
 40
0.75
 40
0.75
 40
0.75
 40
1.0
 40
1.0
 40
1.0
 40
1.0
 10
0.4594015748031496
 20
2.039488188976378
 30
0.0
 10
0.4594015748031496
 20
2.039488188976378
 30
0.0
 10
1.109511811023622
 20
1.664771653543307
 30
0.0
 10
1.109511811023622
 20
1.664771653543307
 30
0.0
 10
1.109511811023622
 20
1.664771653543307
 30
0.0
 10
1.109511811023622
 20
1.664771653543307
 30
0.0
 10
1.087192913385827
 20
1.608385826771654
 30
0.0
 10
1.087192913385827
 20
1.608385826771654
 30
0.0
 10
1.087192913385827
 20
1.608385826771654
 30
0.0
 10
1.087192913385827
 20
1.608385826771654
 30
0.0
 10
0.4370826771653544
 20
1.983102362204725
 30
0.0
 10
0.4370826771653544
 20
1.983102362204725
 30
0.0
 10
0.4370826771653544
 20
1.983102362204725
 30
0.0
 10
0.4370826771653544
 20
1.983102362204725
 30
0.0
 10
0.4594015748031496
 20
2.039488188976378
 30
0.0
 10
0.4594015748031496
 20
2.039488188976378
 30
0.0
  0
SPLINE
  5
51
330
1F
100
AcDbEntity
  8
LAYER_1
 62
   253
100
AcDbSpline
210
0.0
220
0.0
230
1.0
 70
    11
 71
     3
 72
    20
 73
    16
 74
     0
 42
0.0000000001
 43
0.0000000001
 40
0.0
 40
0.0
 40
0.0
 40
0.0
 40
0.25
 40
0.25
 40
0.25
 40
0.25
 40
0.5
 40
0.5
 40
0.5
 40
0.5
 40
0.75
 40
0.75
 40
0.75
 40
0.75
 40
1.0
 40
1.0
 40
1.0
 40
1.0
 10
0.4370826771653544
 20
1.983102362204725
 30
0.0
 10
0.4370826771653544
 20
1.983102362204725
 30
0.0
 10
1.087192913385827
 20
1.608385826771654
 30
0.0
 10
1.087192913385827
 20
1.608385826771654
 30
0.0
 10
1.087192913385827
 20
1.608385826771654
 30
0.0
 10
1.087192913385827
 20
1.608385826771654
 30
0.0
 10
1.062409448818898
 20
1.553299212598425
 30
0.0
 10
1.062409448818898
 20
1.553299212598425
 30
0.0
 10
1.062409448818898
 20
1.553299212598425
 30
0.0
 10
1.062409448818898
 20
1.553299212598425
 30
0.0
 10
0.4122992125984252
 20
1.928015748031496
 30
0.0
 10
0.4122992125984252
 20
1.928015748031496
 30
0.0
 10
0.4122992125984252
 20
1.928015748031496
 30
0.0
 10
0.4122992125984252
 20
1.928015748031496
 30
0.0
 10
0.4370826771653544
 20
1.983102362204725
 30
0.0
 10
0.4370826771653544
 20
1.983102362204725
 30
0.0
  0
SPLINE
  5
52
330
1F
100
AcDbEntity
  8
LAYER_1
 62
   253
100
AcDbSpline
210
0.0
220
0.0
230
1.0
 70
    11
 71
     3
 72
    20
 73
    16
 74
     0
 42
0.0000000001
 43
0.0000000001
 40
0.0
 40
0.0
 40
0.0
 40
0.0
 40
0.25
 40
0.25
 40
0.25
 40
0.25
 40
0.5
 40
0.5
 40
0.5
 40
0.5
 40
0.75
 40
0.75
 40
0.75
 40
0.75
 40
1.0
 40
1.0
 40
1.0
 40
1.0
 10
0.4122992125984252
 20
1.928015748031496
 30
0.0
 10
0.4122992125984252
 20
1.928015748031496
 30
0.0
 10
1.062409448818898
 20
1.553299212598425
 30
0.0
 10
1.062409448818898
 20
1.553299212598425
 30
0.0
 10
1.062409448818898
 20
1.553299212598425
 30
0.0
 10
1.062409448818898
 20
1.553299212598425
 30
0.0
 10
1.035082677165354
 20
1.499574803149606
 30
0.0
 10
1.035082677165354
 20
1.499574803149606
 30
0.0
 10
1.035082677165354
 20
1.499574803149606
 30
0.0
 10
1.035082677165354
 20
1.499574803149606
 30
0.0
 10
0.3849724409448819
 20
1.874291338582677
 30
0.0
 10
0.3849724409448819
 20
1.874291338582677
 30
0.0
 10
0.3849724409448819
 20
1.874291338582677
 30
0.0
 10
0.3849724409448819
 20
1.874291338582677
 30
0.0
 10
0.4122992125984252
 20
1.928015748031496
 30
0.0
 10
0.4122992125984252
 20
1.928015748031496
 30
0.0
  0
SPLINE
  5
53
330
1F
100
AcDbEntity
  8
LAYER_1
 62
   253
100
AcDbSpline
210
0.0
220
0.0
230
1.0
 70
    11
 71
     3
 72
    20
 73
    16
 74
     0
 42
0.0000000001
 43
0.0000000001
 40
0.0
 40
0.0
 40
0.0
 40
0.0
 40
0.25
 40
0.25
 40
0.25
 40
0.25
 40
0.5
 40
0.5
 40
0.5
 40
0.5
 40
0.75
 40
0.75
 40
0.75
 40
0.75
 40
1.0
 40
1.0
 40
1.0
 40
1.0
 10
0.3849724409448819
 20
1.874291338582677
 30
0.0
 10
0.3849724409448819
 20
1.874291338582677
 30
0.0
 10
1.035082677165354
 20
1.499574803149606
 30
0.0
 10
1.035082677165354
 20
1.499574803149606
 30
0.0
 10
1.035082677165354
 20
1.499574803149606
 30
0.0
 10
1.035082677165354
 20
1.499574803149606
 30
0.0
 10
1.005145669291339
 20
1.447244094488189
 30
0.0
 10
1.005145669291339
 20
1.447244094488189
 30
0.0
 10
1.005145669291339
 20
1.447244094488189
 30
0.0
 10
1.005145669291339
 20
1.447244094488189
 30
0.0
 10
0.3550354330708662
 20
1.82196062992126
 30
0.0
 10
0.3550354330708662
 20
1.82196062992126
 30
0.0
 10
0.3550354330708662
 20
1.82196062992126
 30
0.0
 10
0.3550354330708662
 20
1.82196062992126
 30
0.0
 10
0.3849724409448819
 20
1.874291338582677
 30
0.0
 10
0.3849724409448819
 20
1.874291338582677
 30
0.0
  0
SPLINE
  5
54
330
1F
100
AcDbEntity
  8
LAYER_1
 62
   253
100
AcDbSpline
210
0.0
220
0.0
230
1.0
 70
    11
 71
     3
 72
    20
 73
    16
 74
     0
 42
0.0000000001
 43
0.0000000001
 40
0.0
 40
0.0
 40
0.0
 40
0.0
 40
0.25
 40
0.25
 40
0.25
 40
0.25
 40
0.5
 40
0.5
 40
0.5
 40
0.5
 40
0.75
 40
0.75
 40
0.75
 40
0.75
 40
1.0
 40
1.0
 40
1.0
 40
1.0
 10
0.3550354330708662
 20
1.82196062992126
 30
0.0
 10
0.3550354330708662
 20
1.82196062992126
 30
0.0
 10
1.005145669291339
 20
1.447244094488189
 30
0.0
 10
1.005145669291339
 20
1.447244094488189
 30
0.0
 10
1.005145669291339
 20
1.447244094488189
 30
0.0
 10
1.005145669291339
 20
1.447244094488189
 30
0.0
 10
0.9725275590551181
 20
1.396370078740158
 30
0.0
 10
0.9725275590551181
 20
1.396370078740158
 30
0.0
 10
0.9725275590551181
 20
1.396370078740158
 30
0.0
 10
0.9725275590551181
 20
1.396370078740158
 30
0.0
 10
0.3224173228346457
 20
1.771086614173228
 30
0.0
 10
0.3224173228346457
 20
1.771086614173228
 30
0.0
 10
0.3224173228346457
 20
1.771086614173228
 30
0.0
 10
0.3224173228346457
 20
1.771086614173228
 30
0.0
 10
0.3550354330708662
 20
1.82196062992126
 30
0.0
 10
0.3550354330708662
 20
1.82196062992126
 30
0.0
  0
SPLINE
  5
55
330
1F
100
AcDbEntity
  8
LAYER_1
 62
   253
100
AcDbSpline
210
0.0
220
0.0
230
1.0
 70
    11
 71
     3
 72
    20
 73
    16
 74
     0
 42
0.0000000001
 43
0.0000000001
 40
0.0
 40
0.0
 40
0.0
 40
0.0
 40
0.25
 40
0.25
 40
0.25
 40
0.25
 40
0.5
 40
0.5
 40
0.5
 40
0.5
 40
0.75
 40
0.75
 40
0.75
 40
0.75
 40
1.0
 40
1.0
 40
1.0
 40
1.0
 10
0.3224173228346457
 20
1.771086614173228
 30
0.0
 10
0.3224173228346457
 20
1.771086614173228
 30
0.0
 10
0.9725275590551181
 20
1.396370078740158
 30
0.0
 10
0.9725275590551181
 20
1.396370078740158
 30
0.0
 10
0.9725275590551181
 20
1.396370078740158
 30
0.0
 10
0.9725275590551181
 20
1.396370078740158
 30
0.0
 10
0.9371574803149607
 20
1.346996062992126
 30
0.0
 10
0.9371574803149607
 20
1.346996062992126
 30
0.0
 10
0.9371574803149607
 20
1.346996062992126
 30
0.0
 10
0.9371574803149607
 20
1.346996062992126
 30
0.0
 10
0.2870472440944882
 20
1.721712598425197
 30
0.0
 10
0.2870472440944882
 20
1.721712598425197
 30
0.0
 10
0.2870472440944882
 20
1.721712598425197
 30
0.0
 10
0.2870472440944882
 20
1.721712598425197
 30
0.0
 10
0.3224173228346457
 20
1.771086614173228
 30
0.0
 10
0.3224173228346457
 20
1.771086614173228
 30
0.0
  0
SPLINE
  5
56
330
1F
100
AcDbEntity
  8
LAYER_1
 62
   253
100
AcDbSpline
210
0.0
220
0.0
230
1.0
 70
    11
 71
     3
 72
    20
 73
    16
 74
     0
 42
0.0000000001
 43
0.0000000001
 40
0.0
 40
0.0
 40
0.0
 40
0.0
 40
0.25
 40
0.25
 40
0.25
 40
0.25
 40
0.5
 40
0.5
 40
0.5
 40
0.5
 40
0.75
 40
0.75
 40
0.75
 40
0.75
 40
1.0
 40
1.0
 40
1.0
 40
1.0
 10
0.2870472440944882
 20
1.721712598425197
 30
0.0
 10
0.2870472440944882
 20
1.721712598425197
 30
0.0
 10
0.9371574803149607
 20
1.346996062992126
 30
0.0
 10
0.9371574803149607
 20
1.346996062992126
 30
0.0
 10
0.9371574803149607
 20
1.346996062992126
 30
0.0
 10
0.9371574803149607
 20
1.346996062992126
 30
0.0
 10
0.8989488188976378
 20
1.299185039370079
 30
0.0
 10
0.8989488188976378
 20
1.299185039370079
 30
0.0
 10
0.8989488188976378
 20
1.299185039370079
 30
0.0
 10
0.8989488188976378
 20
1.299185039370079
 30
0.0
 10
0.2488385826771654
 20
1.67390157480315
 30
0.0
 10
0.2488385826771654
 20
1.67390157480315
 30
0.0
 10
0.2488385826771654
 20
1.67390157480315
 30
0.0
 10
0.2488385826771654
 20
1.67390157480315
 30
0.0
 10
0.2870472440944882
 20
1.721712598425197
 30
0.0
 10
0.2870472440944882
 20
1.721712598425197
 30
0.0
  0
SPLINE
  5
57
330
1F
100
AcDbEntity
  8
LAYER_1
 62
   253
100
AcDbSpline
210
0.0
220
0.0
230
1.0
 70
    11
 71
     3
 72
    20
 73
    16
 74
     0
 42
0.0000000001
 43
0.0000000001
 40
0.0
 40
0.0
 40
0.0
 40
0.0
 40
0.25
 40
0.25
 40
0.25
 40
0.25
 40
0.5
 40
0.5
 40
0.5
 40
0.5
 40
0.75
 40
0.75
 40
0.75
 40
0.75
 40
1.0
 40
1.0
 40
1.0
 40
1.0
 10
0.2488385826771654
 20
1.67390157480315
 30
0.0
 10
0.2488385826771654
 20
1.67390157480315
 30
0.0
 10
0.8989488188976378
 20
1.299185039370079
 30
0.0
 10
0.8989488188976378
 20
1.299185039370079
 30
0.0
 10
0.8989488188976378
 20
1.299185039370079
 30
0.0
 10
0.8989488188976378
 20
1.299185039370079
 30
0.0
 10
0.8578425196850394
 20
1.252976377952756
 30
0.0
 10
0.8578425196850394
 20
1.252976377952756
 30
0.0
 10
0.8578425196850394
 20
1.252976377952756
 30
0.0
 10
0.8578425196850394
 20
1.252976377952756
 30
0.0
 10
0.2077322834645669
 20
1.627692913385827
 30
0.0
 10
0.2077322834645669
 20
1.627692913385827
 30
0.0
 10
0.2077322834645669
 20
1.627692913385827
 30
0.0
 10
0.2077322834645669
 20
1.627692913385827
 30
0.0
 10
0.2488385826771654
 20
1.67390157480315
 30
0.0
 10
0.2488385826771654
 20
1.67390157480315
 30
0.0
  0
SPLINE
  5
58
330
1F
100
AcDbEntity
  8
LAYER_1
 62
   253
100
AcDbSpline
210
0.0
220
0.0
230
1.0
 70
    11
 71
     3
 72
    20
 73
    16
 74
     0
 42
0.0000000001
 43
0.0000000001
 40
0.0
 40
0.0
 40
0.0
 40
0.0
 40
0.25
 40
0.25
 40
0.25
 40
0.25
 40
0.5
 40
0.5
 40
0.5
 40
0.5
 40
0.75
 40
0.75
 40
0.75
 40
0.75
 40
1.0
 40
1.0
 40
1.0
 40
1.0
 10
0.2077322834645669
 20
1.627692913385827
 30
0.0
 10
0.2077322834645669
 20
1.627692913385827
 30
0.0
 10
0.8578425196850394
 20
1.252976377952756
 30
0.0
 10
0.8578425196850394
 20
1.252976377952756
 30
0.0
 10
0.8578425196850394
 20
1.252976377952756
 30
0.0
 10
0.8578425196850394
 20
1.252976377952756
 30
0.0
 10
0.813759842519685
 20
1.20842125984252
 30
0.0
 10
0.813759842519685
 20
1.20842125984252
 30
0.0
 10
0.813759842519685
 20
1.20842125984252
 30
0.0
 10
0.813759842519685
 20
1.20842125984252
 30
0.0
 10
0.1636496062992126
 20
1.583137795275591
 30
0.0
 10
0.1636496062992126
 20
1.583137795275591
 30
0.0
 10
0.1636496062992126
 20
1.583137795275591
 30
0.0
 10
0.1636496062992126
 20
1.583137795275591
 30
0.0
 10
0.2077322834645669
 20
1.627692913385827
 30
0.0
 10
0.2077322834645669
 20
1.627692913385827
 30
0.0
  0
SPLINE
  5
59
330
1F
100
AcDbEntity
  8
LAYER_1
 62
   253
100
AcDbSpline
210
0.0
220
0.0
230
1.0
 70
    11
 71
     3
 72
    20
 73
    16
 74
     0
 42
0.0000000001
 43
0.0000000001
 40
0.0
 40
0.0
 40
0.0
 40
0.0
 40
0.25
 40
0.25
 40
0.25
 40
0.25
 40
0.5
 40
0.5
 40
0.5
 40
0.5
 40
0.75
 40
0.75
 40
0.75
 40
0.75
 40
1.0
 40
1.0
 40
1.0
 40
1.0
 10
0.1636496062992126
 20
1.583137795275591
 30
0.0
 10
0.1636496062992126
 20
1.583137795275591
 30
0.0
 10
0.813759842519685
 20
1.20842125984252
 30
0.0
 10
0.813759842519685
 20
1.20842125984252
 30
0.0
 10
0.813759842519685
 20
1.20842125984252
 30
0.0
 10
0.813759842519685
 20
1.20842125984252
 30
0.0
 10
0.7666338582677166
 20
1.16555905511811
 30
0.0
 10
0.7666338582677166
 20
1.16555905511811
 30
0.0
 10
0.7666338582677166
 20
1.16555905511811
 30
0.0
 10
0.7666338582677166
 20
1.16555905511811
 30
0.0
 10
0.1165236220472441
 20
1.540275590551181
 30
0.0
 10
0.1165236220472441
 20
1.540275590551181
 30
0.0
 10
0.1165236220472441
 20
1.540275590551181
 30
0.0
 10
0.1165236220472441
 20
1.540275590551181
 30
0.0
 10
0.1636496062992126
 20
1.583137795275591
 30
0.0
 10
0.1636496062992126
 20
1.583137795275591
 30
0.0
  0
SPLINE
  5
5A
330
1F
100
AcDbEntity
  8
LAYER_1
 62
   253
100
AcDbSpline
210
0.0
220
0.0
230
1.0
 70
    11
 71
     3
 72
    20
 73
    16
 74
     0
 42
0.0000000001
 43
0.0000000001
 40
0.0
 40
0.0
 40
0.0
 40
0.0
 40
0.25
 40
0.25
 40
0.25
 40
0.25
 40
0.5
 40
0.5
 40
0.5
 40
0.5
 40
0.75
 40
0.75
 40
0.75
 40
0.75
 40
1.0
 40
1.0
 40
1.0
 40
1.0
 10
0.1165236220472441
 20
1.540275590551181
 30
0.0
 10
0.1165236220472441
 20
1.540275590551181
 30
0.0
 10
0.7666338582677166
 20
1.16555905511811
 30
0.0
 10
0.7666338582677166
 20
1.16555905511811
 30
0.0
 10
0.7666338582677166
 20
1.16555905511811
 30
0.0
 10
0.7666338582677166
 20
1.16555905511811
 30
0.0
 10
0.7163818897637796
 20
1.12446062992126
 30
0.0
 10
0.7163818897637796
 20
1.12446062992126
 30
0.0
 10
0.7163818897637796
 20
1.12446062992126
 30
0.0
 10
0.7163818897637796
 20
1.12446062992126
 30
0.0
 10
0.0662716535433071
 20
1.499177165354331
 30
0.0
 10
0.0662716535433071
 20
1.499177165354331
 30
0.0
 10
0.0662716535433071
 20
1.499177165354331
 30
0.0
 10
0.0662716535433071
 20
1.499177165354331
 30
0.0
 10
0.1165236220472441
 20
1.540275590551181
 30
0.0
 10
0.1165236220472441
 20
1.540275590551181
 30
0.0
  0
SPLINE
  5
5B
330
1F
100
AcDbEntity
  8
LAYER_1
 62
   253
100
AcDbSpline
210
0.0
220
0.0
230
1.0
 70
    11
 71
     3
 72
    20
 73
    16
 74
     0
 42
0.0000000001
 43
0.0000000001
 40
0.0
 40
0.0
 40
0.0
 40
0.0
 40
0.25
 40
0.25
 40
0.25
 40
0.25
 40
0.5
 40
0.5
 40
0.5
 40
0.5
 40
0.75
 40
0.75
 40
0.75
 40
0.75
 40
1.0
 40
1.0
 40
1.0
 40
1.0
 10
0.0662716535433071
 20
1.499177165354331
 30
0.0
 10
0.0662716535433071
 20
1.499177165354331
 30
0.0
 10
0.7163818897637796
 20
1.12446062992126
 30
0.0
 10
0.7163818897637796
 20
1.12446062992126
 30
0.0
 10
0.7163818897637796
 20
1.12446062992126
 30
0.0
 10
0.7163818897637796
 20
1.12446062992126
 30
0.0
 10
0.6629448818897639
 20
1.085157480314961
 30
0.0
 10
0.6629448818897639
 20
1.085157480314961
 30
0.0
 10
0.6629448818897639
 20
1.085157480314961
 30
0.0
 10
0.6629448818897639
 20
1.085157480314961
 30
0.0
 10
0.0128346456692913
 20
1.459874015748032
 30
0.0
 10
0.0128346456692913
 20
1.459874015748032
 30
0.0
 10
0.0128346456692913
 20
1.459874015748032
 30
0.0
 10
0.0128346456692913
 20
1.459874015748032
 30
0.0
 10
0.0662716535433071
 20
1.499177165354331
 30
0.0
 10
0.0662716535433071
 20
1.499177165354331
 30
0.0
  0
SPLINE
  5
5C
330
1F
100
AcDbEntity
  8
LAYER_1
 62
   253
100
AcDbSpline
210
0.0
220
0.0
230
1.0
 70
    11
 71
     3
 72
    20
 73
    16
 74
     0
 42
0.0000000001
 43
0.0000000001
 40
0.0
 40
0.0
 40
0.0
 40
0.0
 40
0.25
 40
0.25
 40
0.25
 40
0.25
 40
0.5
 40
0.5
 40
0.5
 40
0.5
 40
0.75
 40
0.75
 40
0.75
 40
0.75
 40
1.0
 40
1.0
 40
1.0
 40
1.0
 10
0.0128346456692913
 20
1.459874015748032
 30
0.0
 10
0.0128346456692913
 20
1.459874015748032
 30
0.0
 10
0.6629448818897639
 20
1.085157480314961
 30
0.0
 10
0.6629448818897639
 20
1.085157480314961
 30
0.0
 10
0.6629448818897639
 20
1.085157480314961
 30
0.0
 10
0.6629448818897639
 20
1.085157480314961
 30
0.0
 10
0.606240157480315
 20
1.047708661417323
 30
0.0
 10
0.606240157480315
 20
1.047708661417323
 30
0.0
 10
0.606240157480315
 20
1.047708661417323
 30
0.0
 10
0.606240157480315
 20
1.047708661417323
 30
0.0
 10
-0.0438700787401575
 20
1.422425196850394
 30
0.0
 10
-0.0438700787401575
 20
1.422425196850394
 30
0.0
 10
-0.0438700787401575
 20
1.422425196850394
 30
0.0
 10
-0.0438700787401575
 20
1.422425196850394
 30
0.0
 10
0.0128346456692913
 20
1.459874015748032
 30
0.0
 10
0.0128346456692913
 20
1.459874015748032
 30
0.0
  0
SPLINE
  5
5D
330
1F
100
AcDbEntity
  8
LAYER_1
 62
   253
100
AcDbSpline
210
0.0
220
0.0
230
1.0
 70
    11
 71
     3
 72
    20
 73
    16
 74
     0
 42
0.0000000001
 43
0.0000000001
 40
0.0
 40
0.0
 40
0.0
 40
0.0
 40
0.25
 40
0.25
 40
0.25
 40
0.25
 40
0.5
 40
0.5
 40
0.5
 40
0.5
 40
0.75
 40
0.75
 40
0.75
 40
0.75
 40
1.0
 40
1.0
 40
1.0
 40
1.0
 10
-0.0438700787401575
 20
1.422425196850394
 30
0.0
 10
-0.0438700787401575
 20
1.422425196850394
 30
0.0
 10
0.606240157480315
 20
1.047708661417323
 30
0.0
 10
0.606240157480315
 20
1.047708661417323
 30
0.0
 10
0.606240157480315
 20
1.047708661417323
 30
0.0
 10
0.606240157480315
 20
1.047708661417323
 30
0.0
 10
0.5462007874015749
 20
1.012153543307087
 30
0.0
 10
0.5462007874015749
 20
1.012153543307087
 30
0.0
 10
0.5462007874015749
 20
1.012153543307087
 30
0.0
 10
0.5462007874015749
 20
1.012153543307087
 30
0.0
 10
-0.1039094488188977
 20
1.386870078740158
 30
0.0
 10
-0.1039094488188977
 20
1.386870078740158
 30
0.0
 10
-0.1039094488188977
 20
1.386870078740158
 30
0.0
 10
-0.1039094488188977
 20
1.386870078740158
 30
0.0
 10
-0.0438700787401575
 20
1.422425196850394
 30
0.0
 10
-0.0438700787401575
 20
1.422425196850394
 30
0.0
  0
SPLINE
  5
5E
330
1F
100
AcDbEntity
  8
LAYER_1
 62
   253
100
AcDbSpline
210
0.0
220
0.0
230
1.0
 70
    11
 71
     3
 72
    20
 73
    16
 74
     0
 42
0.0000000001
 43
0.0000000001
 40
0.0
 40
0.0
 40
0.0
 40
0.0
 40
0.25
 40
0.25
 40
0.25
 40
0.25
 40
0.5
 40
0.5
 40
0.5
 40
0.5
 40
0.75
 40
0.75
 40
0.75
 40
0.75
 40
1.0
 40
1.0
 40
1.0
 40
1.0
 10
-0.1039094488188977
 20
1.386870078740158
 30
0.0
 10
-0.1039094488188977
 20
1.386870078740158
 30
0.0
 10
0.5462007874015749
 20
1.012153543307087
 30
0.0
 10
0.5462007874015749
 20
1.012153543307087
 30
0.0
 10
0.5462007874015749
 20
1.012153543307087
 30
0.0
 10
0.5462007874015749
 20
1.012153543307087
 30
0.0
 10
0.482744094488189
 20
0.9785629921259843
 30
0.0
 10
0.482744094488189
 20
0.9785629921259843
 30
0.0
 10
0.482744094488189
 20
0.9785629921259843
 30
0.0
 10
0.482744094488189
 20
0.9785629921259843
 30
0.0
 10
-0.1673661417322835
 20
1.353279527559055
 30
0.0
 10
-0.1673661417322835
 20
1.353279527559055
 30
0.0
 10
-0.1673661417322835
 20
1.353279527559055
 30
0.0
 10
-0.1673661417322835
 20
1.353279527559055
 30
0.0
 10
-0.1039094488188977
 20
1.386870078740158
 30
0.0
 10
-0.1039094488188977
 20
1.386870078740158
 30
0.0
  0
SPLINE
  5
5F
330
1F
100
AcDbEntity
  8
LAYER_1
 62
   253
100
AcDbSpline
210
0.0
220
0.0
230
1.0
 70
    11
 71
     3
 72
    20
 73
    16
 74
     0
 42
0.0000000001
 43
0.0000000001
 40
0.0
 40
0.0
 40
0.0
 40
0.0
 40
0.25
 40
0.25
 40
0.25
 40
0.25
 40
0.5
 40
0.5
 40
0.5
 40
0.5
 40
0.75
 40
0.75
 40
0.75
 40
0.75
 40
1.0
 40
1.0
 40
1.0
 40
1.0
 10
-0.1673661417322835
 20
1.353279527559055
 30
0.0
 10
-0.1673661417322835
 20
1.353279527559055
 30
0.0
 10
0.482744094488189
 20
0.9785629921259843
 30
0.0
 10
0.482744094488189
 20
0.9785629921259843
 30
0.0
 10
0.482744094488189
 20
0.9785629921259843
 30
0.0
 10
0.482744094488189
 20
0.9785629921259843
 30
0.0
 10
0.4158110236220473
 20
0.9469645669291339
 30
0.0
 10
0.4158110236220473
 20
0.9469645669291339
 30
0.0
 10
0.4158110236220473
 20
0.9469645669291339
 30
0.0
 10
0.4158110236220473
 20
0.9469645669291339
 30
0.0
 10
-0.2342992125984252
 20
1.321681102362205
 30
0.0
 10
-0.2342992125984252
 20
1.321681102362205
 30
0.0
 10
-0.2342992125984252
 20
1.321681102362205
 30
0.0
 10
-0.2342992125984252
 20
1.321681102362205
 30
0.0
 10
-0.1673661417322835
 20
1.353279527559055
 30
0.0
 10
-0.1673661417322835
 20
1.353279527559055
 30
0.0
  0
SPLINE
  5
60
330
1F
100
AcDbEntity
  8
LAYER_1
 62
   253
100
AcDbSpline
210
0.0
220
0.0
230
1.0
 70
    11
 71
     3
 72
    20
 73
    16
 74
     0
 42
0.0000000001
 43
0.0000000001
 40
0.0
 40
0.0
 40
0.0
 40
0.0
 40
0.25
 40
0.25
 40
0.25
 40
0.25
 40
0.5
 40
0.5
 40
0.5
 40
0.5
 40
0.75
 40
0.75
 40
0.75
 40
0.75
 40
1.0
 40
1.0
 40
1.0
 40
1.0
 10
-0.2342992125984252
 20
1.321681102362205
 30
0.0
 10
-0.2342992125984252
 20
1.321681102362205
 30
0.0
 10
0.4158110236220473
 20
0.9469645669291339
 30
0.0
 10
0.4158110236220473
 20
0.9469645669291339
 30
0.0
 10
0.4158110236220473
 20
0.9469645669291339
 30
0.0
 10
0.4158110236220473
 20
0.9469645669291339
 30
0.0
 10
0.3453188976377953
 20
0.9174212598425198
 30
0.0
 10
0.3453188976377953
 20
0.9174212598425198
 30
0.0
 10
0.3453188976377953
 20
0.9174212598425198
 30
0.0
 10
0.3453188976377953
 20
0.9174212598425198
 30
0.0
 10
-0.3047913385826772
 20
1.292137795275591
 30
0.0
 10
-0.3047913385826772
 20
1.292137795275591
 30
0.0
 10
-0.3047913385826772
 20
1.292137795275591
 30
0.0
 10
-0.3047913385826772
 20
1.292137795275591
 30
0.0
 10
-0.2342992125984252
 20
1.321681102362205
 30
0.0
 10
-0.2342992125984252
 20
1.321681102362205
 30
0.0
  0
SPLINE
  5
61
330
1F
100
AcDbEntity
  8
LAYER_1
 62
   253
100
AcDbSpline
210
0.0
220
0.0
230
1.0
 70
    11
 71
     3
 72
    20
 73
    16
 74
     0
 42
0.0000000001
 43
0.0000000001
 40
0.0
 40
0.0
 40
0.0
 40
0.0
 40
0.25
 40
0.25
 40
0.25
 40
0.25
 40
0.5
 40
0.5
 40
0.5
 40
0.5
 40
0.75
 40
0.75
 40
0.75
 40
0.75
 40
1.0
 40
1.0
 40
1.0
 40
1.0
 10
-0.3047913385826772
 20
1.292137795275591
 30
0.0
 10
-0.3047913385826772
 20
1.292137795275591
 30
0.0
 10
0.3453188976377953
 20
0.9174212598425198
 30
0.0
 10
0.3453188976377953
 20
0.9174212598425198
 30
0.0
 10
0.3453188976377953
 20
0.9174212598425198
 30
0.0
 10
0.3453188976377953
 20
0.9174212598425198
 30
0.0
 10
0.2712047244094488
 20
0.8899724409448819
 30
0.0
 10
0.2712047244094488
 20
0.8899724409448819
 30
0.0
 10
0.2712047244094488
 20
0.8899724409448819
 30
0.0
 10
0.2712047244094488
 20
0.8899724409448819
 30
0.0
 10
-0.3789055118110236
 20
1.264688976377953
 30
0.0
 10
-0.3789055118110236
 20
1.264688976377953
 30
0.0
 10
-0.3789055118110236
 20
1.264688976377953
 30
0.0
 10
-0.3789055118110236
 20
1.264688976377953
 30
0.0
 10
-0.3047913385826772
 20
1.292137795275591
 30
0.0
 10
-0.3047913385826772
 20
1.292137795275591
 30
0.0
  0
SPLINE
  5
62
330
1F
100
AcDbEntity
  8
LAYER_1
 62
   253
100
AcDbSpline
210
0.0
220
0.0
230
1.0
 70
    11
 71
     3
 72
    20
 73
    16
 74
     0
 42
0.0000000001
 43
0.0000000001
 40
0.0
 40
0.0
 40
0.0
 40
0.0
 40
0.25
 40
0.25
 40
0.25
 40
0.25
 40
0.5
 40
0.5
 40
0.5
 40
0.5
 40
0.75
 40
0.75
 40
0.75
 40
0.75
 40
1.0
 40
1.0
 40
1.0
 40
1.0
 10
-0.3789055118110236
 20
1.264688976377953
 30
0.0
 10
-0.3789055118110236
 20
1.264688976377953
 30
0.0
 10
0.2712047244094488
 20
0.8899724409448819
 30
0.0
 10
0.2712047244094488
 20
0.8899724409448819
 30
0.0
 10
0.2712047244094488
 20
0.8899724409448819
 30
0.0
 10
0.2712047244094488
 20
0.8899724409448819
 30
0.0
 10
0.1933818897637795
 20
0.8646811023622048
 30
0.0
 10
0.1933818897637795
 20
0.8646811023622048
 30
0.0
 10
0.1933818897637795
 20
0.8646811023622048
 30
0.0
 10
0.1933818897637795
 20
0.8646811023622048
 30
0.0
 10
-0.4567283464566929
 20
1.239397637795276
 30
0.0
 10
-0.4567283464566929
 20
1.239397637795276
 30
0.0
 10
-0.4567283464566929
 20
1.239397637795276
 30
0.0
 10
-0.4567283464566929
 20
1.239397637795276
 30
0.0
 10
-0.3789055118110236
 20
1.264688976377953
 30
0.0
 10
-0.3789055118110236
 20
1.264688976377953
 30
0.0
  0
SPLINE
  5
63
330
1F
100
AcDbEntity
  8
LAYER_1
 62
   253
100
AcDbSpline
210
0.0
220
0.0
230
1.0
 70
    11
 71
     3
 72
    20
 73
    16
 74
     0
 42
0.0000000001
 43
0.0000000001
 40
0.0
 40
0.0
 40
0.0
 40
0.0
 40
0.25
 40
0.25
 40
0.25
 40
0.25
 40
0.5
 40
0.5
 40
0.5
 40
0.5
 40
0.75
 40
0.75
 40
0.75
 40
0.75
 40
1.0
 40
1.0
 40
1.0
 40
1.0
 10
-0.4567283464566929
 20
1.239397637795276
 30
0.0
 10
-0.4567283464566929
 20
1.239397637795276
 30
0.0
 10
0.1933818897637795
 20
0.8646811023622048
 30
0.0
 10
0.1933818897637795
 20
0.8646811023622048
 30
0.0
 10
0.1933818897637795
 20
0.8646811023622048
 30
0.0
 10
0.1933818897637795
 20
0.8646811023622048
 30
0.0
 10
0.1117913385826772
 20
0.8415826771653544
 30
0.0
 10
0.1117913385826772
 20
0.8415826771653544
 30
0.0
 10
0.1117913385826772
 20
0.8415826771653544
 30
0.0
 10
0.1117913385826772
 20
0.8415826771653544
 30
0.0
 10
-0.5383188976377953
 20
1.216299212598425
 30
0.0
 10
-0.5383188976377953
 20
1.216299212598425
 30
0.0
 10
-0.5383188976377953
 20
1.216299212598425
 30
0.0
 10
-0.5383188976377953
 20
1.216299212598425
 30
0.0
 10
-0.4567283464566929
 20
1.239397637795276
 30
0.0
 10
-0.4567283464566929
 20
1.239397637795276
 30
0.0
  0
SPLINE
  5
64
330
1F
100
AcDbEntity
  8
LAYER_1
 62
   253
100
AcDbSpline
210
0.0
220
0.0
230
1.0
 70
    11
 71
     3
 72
    20
 73
    16
 74
     0
 42
0.0000000001
 43
0.0000000001
 40
0.0
 40
0.0
 40
0.0
 40
0.0
 40
0.25
 40
0.25
 40
0.25
 40
0.25
 40
0.5
 40
0.5
 40
0.5
 40
0.5
 40
0.75
 40
0.75
 40
0.75
 40
0.75
 40
1.0
 40
1.0
 40
1.0
 40
1.0
 10
-0.5383188976377953
 20
1.216299212598425
 30
0.0
 10
-0.5383188976377953
 20
1.216299212598425
 30
0.0
 10
0.1117913385826772
 20
0.8415826771653544
 30
0.0
 10
0.1117913385826772
 20
0.8415826771653544
 30
0.0
 10
0.1117913385826772
 20
0.8415826771653544
 30
0.0
 10
0.1117913385826772
 20
0.8415826771653544
 30
0.0
 10
0.0263543307086614
 20
0.820740157480315
 30
0.0
 10
0.0263543307086614
 20
0.820740157480315
 30
0.0
 10
0.0263543307086614
 20
0.820740157480315
 30
0.0
 10
0.0263543307086614
 20
0.820740157480315
 30
0.0
 10
-0.623755905511811
 20
1.195456692913386
 30
0.0
 10
-0.623755905511811
 20
1.195456692913386
 30
0.0
 10
-0.623755905511811
 20
1.195456692913386
 30
0.0
 10
-0.623755905511811
 20
1.195456692913386
 30
0.0
 10
-0.5383188976377953
 20
1.216299212598425
 30
0.0
 10
-0.5383188976377953
 20
1.216299212598425
 30
0.0
  0
SPLINE
  5
65
330
1F
100
AcDbEntity
  8
LAYER_1
 62
   253
100
AcDbSpline
210
0.0
220
0.0
230
1.0
 70
    11
 71
     3
 72
    20
 73
    16
 74
     0
 42
0.0000000001
 43
0.0000000001
 40
0.0
 40
0.0
 40
0.0
 40
0.0
 40
0.25
 40
0.25
 40
0.25
 40
0.25
 40
0.5
 40
0.5
 40
0.5
 40
0.5
 40
0.75
 40
0.75
 40
0.75
 40
0.75
 40
1.0
 40
1.0
 40
1.0
 40
1.0
 10
-0.623755905511811
 20
1.195456692913386
 30
0.0
 10
-0.623755905511811
 20
1.195456692913386
 30
0.0
 10
0.0263543307086614
 20
0.820740157480315
 30
0.0
 10
0.0263543307086614
 20
0.820740157480315
 30
0.0
 10
0.0263543307086614
 20
0.820740157480315
 30
0.0
 10
0.0263543307086614
 20
0.820740157480315
 30
0.0
 10
-0.062996062992126
 20
0.8021889763779528
 30
0.0
 10
-0.062996062992126
 20
0.8021889763779528
 30
0.0
 10
-0.062996062992126
 20
0.8021889763779528
 30
0.0
 10
-0.062996062992126
 20
0.8021889763779528
 30
0.0
 10
-0.7131062992125985
 20
1.176905511811024
 30
0.0
 10
-0.7131062992125985
 20
1.176905511811024
 30
0.0
 10
-0.7131062992125985
 20
1.176905511811024
 30
0.0
 10
-0.7131062992125985
 20
1.176905511811024
 30
0.0
 10
-0.623755905511811
 20
1.195456692913386
 30
0.0
 10
-0.623755905511811
 20
1.195456692913386
 30
0.0
  0
SPLINE
  5
66
330
1F
100
AcDbEntity
  8
LAYER_1
 62
   250
100
AcDbSpline
210
0.0
220
0.0
230
1.0
 70
    11
 71
     3
 72
   268
 73
   264
 74
     0
 42
0.0000000001
 43
0.0000000001
 40
0.0
 40
0.0
 40
0.0
 40
0.0
 40
0.0151515151515152
 40
0.0151515151515152
 40
0.0151515151515152
 40
0.0151515151515152
 40
0.0303030303030303
 40
0.0303030303030303
 40
0.0303030303030303
 40
0.0303030303030303
 40
0.0454545454545455
 40
0.0454545454545455
 40
0.0454545454545455
 40
0.0454545454545455
 40
0.0606060606060606
 40
0.0606060606060606
 40
0.0606060606060606
 40
0.0606060606060606
 40
0.0757575757575758
 40
0.0757575757575758
 40
0.0757575757575758
 40
0.0757575757575758
 40
0.0909090909090909
 40
0.0909090909090909
 40
0.0909090909090909
 40
0.0909090909090909
 40
0.1060606060606061
 40
0.1060606060606061
 40
0.1060606060606061
 40
0.1060606060606061
 40
0.1212121212121212
 40
0.1212121212121212
 40
0.1212121212121212
 40
0.1212121212121212
 40
0.1363636363636364
 40
0.1363636363636364
 40
0.1363636363636364
 40
0.1363636363636364
 40
0.1515151515151515
 40
0.1515151515151515
 40
0.1515151515151515
 40
0.1515151515151515
 40
0.1666666666666666
 40
0.1666666666666666
 40
0.1666666666666666
 40
0.1666666666666666
 40
0.1818181818181818
 40
0.1818181818181818
 40
0.1818181818181818
 40
0.1818181818181818
 40
0.1969696969696969
 40
0.1969696969696969
 40
0.1969696969696969
 40
0.1969696969696969
 40
0.212121212121212
 40
0.212121212121212
 40
0.212121212121212
 40
0.212121212121212
 40
0.2272727272727272
 40
0.2272727272727272
 40
0.2272727272727272
 40
0.2272727272727272
 40
0.2424242424242423
 40
0.2424242424242423
 40
0.2424242424242423
 40
0.2424242424242423
 40
0.2575757575757575
 40
0.2575757575757575
 40
0.2575757575757575
 40
0.2575757575757575
 40
0.2727272727272726
 40
0.2727272727272726
 40
0.2727272727272726
 40
0.2727272727272726
 40
0.2878787878787877
 40
0.2878787878787877
 40
0.2878787878787877
 40
0.2878787878787877
 40
0.3030303030303029
 40
0.3030303030303029
 40
0.3030303030303029
 40
0.3030303030303029
 40
0.318181818181818
 40
0.318181818181818
 40
0.318181818181818
 40
0.318181818181818
 40
0.3333333333333332
 40
0.3333333333333332
 40
0.3333333333333332
 40
0.3333333333333332
 40
0.3484848484848483
 40
0.3484848484848483
 40
0.3484848484848483
 40
0.3484848484848483
 40
0.3636363636363634
 40
0.3636363636363634
 40
0.3636363636363634
 40
0.3636363636363634
 40
0.3787878787878786
 40
0.3787878787878786
 40
0.3787878787878786
 40
0.3787878787878786
 40
0.3939393939393937
 40
0.3939393939393937
 40
0.3939393939393937
 40
0.3939393939393937
 40
0.4090909090909088
 40
0.4090909090909088
 40
0.4090909090909088
 40
0.4090909090909088
 40
0.424242424242424
 40
0.424242424242424
 40
0.424242424242424
 40
0.424242424242424
 40
0.4393939393939391
 40
0.4393939393939391
 40
0.4393939393939391
 40
0.4393939393939391
 40
0.4545454545454543
 40
0.4545454545454543
 40
0.4545454545454543
 40
0.4545454545454543
 40
0.4696969696969694
 40
0.4696969696969694
 40
0.4696969696969694
 40
0.4696969696969694
 40
0.4848484848484845
 40
0.4848484848484845
 40
0.4848484848484845
 40
0.4848484848484845
 40
0.4999999999999997
 40
0.4999999999999997
 40
0.4999999999999997
 40
0.4999999999999997
 40
0.5151515151515148
 40
0.5151515151515148
 40
0.5151515151515148
 40
0.5151515151515148
 40
0.5303030303030299
 40
0.5303030303030299
 40
0.5303030303030299
 40
0.5303030303030299
 40
0.5454545454545451
 40
0.5454545454545451
 40
0.5454545454545451
 40
0.5454545454545451
 40
0.5606060606060602
 40
0.5606060606060602
 40
0.5606060606060602
 40
0.5606060606060602
 40
0.5757575757575754
 40
0.5757575757575754
 40
0.5757575757575754
 40
0.5757575757575754
 40
0.5909090909090905
 40
0.5909090909090905
 40
0.5909090909090905
 40
0.5909090909090905
 40
0.6060606060606056
 40
0.6060606060606056
 40
0.6060606060606056
 40
0.6060606060606056
 40
0.6212121212121208
 40
0.6212121212121208
 40
0.6212121212121208
 40
0.6212121212121208
 40
0.6363636363636359
 40
0.6363636363636359
 40
0.6363636363636359
 40
0.6363636363636359
 40
0.6515151515151511
 40
0.6515151515151511
 40
0.6515151515151511
 40
0.6515151515151511
 40
0.6666666666666662
 40
0.6666666666666662
 40
0.6666666666666662
 40
0.6666666666666662
 40
0.6818181818181813
 40
0.6818181818181813
 40
0.6818181818181813
 40
0.6818181818181813
 40
0.6969696969696965
 40
0.6969696969696965
 40
0.6969696969696965
 40
0.6969696969696965
 40
0.7121212121212116
 40
0.7121212121212116
 40
0.7121212121212116
 40
0.7121212121212116
 40
0.7272727272727267
 40
0.7272727272727267
 40
0.7272727272727267
 40
0.7272727272727267
 40
0.7424242424242419
 40
0.7424242424242419
 40
0.7424242424242419
 40
0.7424242424242419
 40
0.757575757575757
 40
0.757575757575757
 40
0.757575757575757
 40
0.757575757575757
 40
0.7727272727272722
 40
0.7727272727272722
 40
0.7727272727272722
 40
0.7727272727272722
 40
0.7878787878787873
 40
0.7878787878787873
 40
0.7878787878787873
 40
0.7878787878787873
 40
0.8030303030303024
 40
0.8030303030303024
 40
0.8030303030303024
 40
0.8030303030303024
 40
0.8181818181818176
 40
0.8181818181818176
 40
0.8181818181818176
 40
0.8181818181818176
 40
0.8333333333333327
 40
0.8333333333333327
 40
0.8333333333333327
 40
0.8333333333333327
 40
0.8484848484848478
 40
0.8484848484848478
 40
0.8484848484848478
 40
0.8484848484848478
 40
0.863636363636363
 40
0.863636363636363
 40
0.863636363636363
 40
0.863636363636363
 40
0.8787878787878781
 40
0.8787878787878781
 40
0.8787878787878781
 40
0.8787878787878781
 40
0.8939393939393933
 40
0.8939393939393933
 40
0.8939393939393933
 40
0.8939393939393933
 40
0.9090909090909084
 40
0.9090909090909084
 40
0.9090909090909084
 40
0.9090909090909084
 40
0.9242424242424235
 40
0.9242424242424235
 40
0.9242424242424235
 40
0.9242424242424235
 40
0.9393939393939387
 40
0.9393939393939387
 40
0.9393939393939387
 40
0.9393939393939387
 40
0.9545454545454538
 40
0.9545454545454538
 40
0.9545454545454538
 40
0.9545454545454538
 40
0.969696969696969
 40
0.969696969696969
 40
0.969696969696969
 40
0.969696969696969
 40
0.9848484848484841
 40
0.9848484848484841
 40
0.9848484848484841
 40
0.9848484848484841
 40
1.0
 40
1.0
 40
1.0
 40
1.0
 10
0.5629566929133859
 20
2.664208661417323
 30
0.0
 10
0.5629566929133859
 20
2.664208661417323
 30
0.0
 10
1.213066929133858
 20
2.289492125984252
 30
0.0
 10
1.213066929133858
 20
2.289492125984252
 30
0.0
 10
1.213066929133858
 20
2.289492125984252
 30
0.0
 10
1.213066929133858
 20
2.289492125984252
 30
0.0
 10
1.211409448818898
 20
2.222783464566929
 30
0.0
 10
1.211409448818898
 20
2.222783464566929
 30
0.0
 10
1.211409448818898
 20
2.222783464566929
 30
0.0
 10
1.211409448818898
 20
2.222783464566929
 30
0.0
 10
1.208011811023622
 20
2.156889763779528
 30
0.0
 10
1.208011811023622
 20
2.156889763779528
 30
0.0
 10
1.208011811023622
 20
2.156889763779528
 30
0.0
 10
1.208011811023622
 20
2.156889763779528
 30
0.0
 10
1.202803149606299
 20
2.091850393700788
 30
0.0
 10
1.202803149606299
 20
2.091850393700788
 30
0.0
 10
1.202803149606299
 20
2.091850393700788
 30
0.0
 10
1.202803149606299
 20
2.091850393700788
 30
0.0
 10
1.195716535433071
 20
2.027724409448819
 30
0.0
 10
1.195716535433071
 20
2.027724409448819
 30
0.0
 10
1.195716535433071
 20
2.027724409448819
 30
0.0
 10
1.195716535433071
 20
2.027724409448819
 30
0.0
 10
1.186665354330709
 20
1.964551181102362
 30
0.0
 10
1.186665354330709
 20
1.964551181102362
 30
0.0
 10
1.186665354330709
 20
1.964551181102362
 30
0.0
 10
1.186665354330709
 20
1.964551181102362
 30
0.0
 10
1.175586614173228
 20
1.90238188976378
 30
0.0
 10
1.175586614173228
 20
1.90238188976378
 30
0.0
 10
1.175586614173228
 20
1.90238188976378
 30
0.0
 10
1.175586614173228
 20
1.90238188976378
 30
0.0
 10
1.16240157480315
 20
1.841271653543307
 30
0.0
 10
1.16240157480315
 20
1.841271653543307
 30
0.0
 10
1.16240157480315
 20
1.841271653543307
 30
0.0
 10
1.16240157480315
 20
1.841271653543307
 30
0.0
 10
1.147047244094488
 20
1.781263779527559
 30
0.0
 10
1.147047244094488
 20
1.781263779527559
 30
0.0
 10
1.147047244094488
 20
1.781263779527559
 30
0.0
 10
1.147047244094488
 20
1.781263779527559
 30
0.0
 10
1.129437007874016
 20
1.722417322834646
 30
0.0
 10
1.129437007874016
 20
1.722417322834646
 30
0.0
 10
1.129437007874016
 20
1.722417322834646
 30
0.0
 10
1.129437007874016
 20
1.722417322834646
 30
0.0
 10
1.109511811023622
 20
1.664771653543307
 30
0.0
 10
1.109511811023622
 20
1.664771653543307
 30
0.0
 10
1.109511811023622
 20
1.664771653543307
 30
0.0
 10
1.109511811023622
 20
1.664771653543307
 30
0.0
 10
1.087192913385827
 20
1.608385826771654
 30
0.0
 10
1.087192913385827
 20
1.608385826771654
 30
0.0
 10
1.087192913385827
 20
1.608385826771654
 30
0.0
 10
1.087192913385827
 20
1.608385826771654
 30
0.0
 10
1.062409448818898
 20
1.553299212598425
 30
0.0
 10
1.062409448818898
 20
1.553299212598425
 30
0.0
 10
1.062409448818898
 20
1.553299212598425
 30
0.0
 10
1.062409448818898
 20
1.553299212598425
 30
0.0
 10
1.035082677165354
 20
1.499574803149606
 30
0.0
 10
1.035082677165354
 20
1.499574803149606
 30
0.0
 10
1.035082677165354
 20
1.499574803149606
 30
0.0
 10
1.035082677165354
 20
1.499574803149606
 30
0.0
 10
1.005145669291339
 20
1.447244094488189
 30
0.0
 10
1.005145669291339
 20
1.447244094488189
 30
0.0
 10
1.005145669291339
 20
1.447244094488189
 30
0.0
 10
1.005145669291339
 20
1.447244094488189
 30
0.0
 10
0.9725275590551181
 20
1.396370078740158
 30
0.0
 10
0.9725275590551181
 20
1.396370078740158
 30
0.0
 10
0.9725275590551181
 20
1.396370078740158
 30
0.0
 10
0.9725275590551181
 20
1.396370078740158
 30
0.0
 10
0.9371574803149607
 20
1.346996062992126
 30
0.0
 10
0.9371574803149607
 20
1.346996062992126
 30
0.0
 10
0.9371574803149607
 20
1.346996062992126
 30
0.0
 10
0.9371574803149607
 20
1.346996062992126
 30
0.0
 10
0.8989488188976378
 20
1.299185039370079
 30
0.0
 10
0.8989488188976378
 20
1.299185039370079
 30
0.0
 10
0.8989488188976378
 20
1.299185039370079
 30
0.0
 10
0.8989488188976378
 20
1.299185039370079
 30
0.0
 10
0.8578425196850394
 20
1.252976377952756
 30
0.0
 10
0.8578425196850394
 20
1.252976377952756
 30
0.0
 10
0.8578425196850394
 20
1.252976377952756
 30
0.0
 10
0.8578425196850394
 20
1.252976377952756
 30
0.0
 10
0.813759842519685
 20
1.20842125984252
 30
0.0
 10
0.813759842519685
 20
1.20842125984252
 30
0.0
 10
0.813759842519685
 20
1.20842125984252
 30
0.0
 10
0.813759842519685
 20
1.20842125984252
 30
0.0
 10
0.7666338582677166
 20
1.16555905511811
 30
0.0
 10
0.7666338582677166
 20
1.16555905511811
 30
0.0
 10
0.7666338582677166
 20
1.16555905511811
 30
0.0
 10
0.7666338582677166
 20
1.16555905511811
 30
0.0
 10
0.7163818897637796
 20
1.12446062992126
 30
0.0
 10
0.7163818897637796
 20
1.12446062992126
 30
0.0
 10
0.7163818897637796
 20
1.12446062992126
 30
0.0
 10
0.7163818897637796
 20
1.12446062992126
 30
0.0
 10
0.6629448818897639
 20
1.085157480314961
 30
0.0
 10
0.6629448818897639
 20
1.085157480314961
 30
0.0
 10
0.6629448818897639
 20
1.085157480314961
 30
0.0
 10
0.6629448818897639
 20
1.085157480314961
 30
0.0
 10
0.606240157480315
 20
1.047708661417323
 30
0.0
 10
0.606240157480315
 20
1.047708661417323
 30
0.0
 10
0.606240157480315
 20
1.047708661417323
 30
0.0
 10
0.606240157480315
 20
1.047708661417323
 30
0.0
 10
0.5462007874015749
 20
1.012153543307087
 30
0.0
 10
0.5462007874015749
 20
1.012153543307087
 30
0.0
 10
0.5462007874015749
 20
1.012153543307087
 30
0.0
 10
0.5462007874015749
 20
1.012153543307087
 30
0.0
 10
0.482744094488189
 20
0.9785629921259843
 30
0.0
 10
0.482744094488189
 20
0.9785629921259843
 30
0.0
 10
0.482744094488189
 20
0.9785629921259843
 30
0.0
 10
0.482744094488189
 20
0.9785629921259843
 30
0.0
 10
0.4158110236220473
 20
0.9469645669291339
 30
0.0
 10
0.4158110236220473
 20
0.9469645669291339
 30
0.0
 10
0.4158110236220473
 20
0.9469645669291339
 30
0.0
 10
0.4158110236220473
 20
0.9469645669291339
 30
0.0
 10
0.3453188976377953
 20
0.9174212598425198
 30
0.0
 10
0.3453188976377953
 20
0.9174212598425198
 30
0.0
 10
0.3453188976377953
 20
0.9174212598425198
 30
0.0
 10
0.3453188976377953
 20
0.9174212598425198
 30
0.0
 10
0.2712047244094488
 20
0.8899724409448819
 30
0.0
 10
0.2712047244094488
 20
0.8899724409448819
 30
0.0
 10
0.2712047244094488
 20
0.8899724409448819
 30
0.0
 10
0.2712047244094488
 20
0.8899724409448819
 30
0.0
 10
0.1933818897637795
 20
0.8646811023622048
 30
0.0
 10
0.1933818897637795
 20
0.8646811023622048
 30
0.0
 10
0.1933818897637795
 20
0.8646811023622048
 30
0.0
 10
0.1933818897637795
 20
0.8646811023622048
 30
0.0
 10
0.1117913385826772
 20
0.8415826771653544
 30
0.0
 10
0.1117913385826772
 20
0.8415826771653544
 30
0.0
 10
0.1117913385826772
 20
0.8415826771653544
 30
0.0
 10
0.1117913385826772
 20
0.8415826771653544
 30
0.0
 10
0.0263543307086614
 20
0.820740157480315
 30
0.0
 10
0.0263543307086614
 20
0.820740157480315
 30
0.0
 10
0.0263543307086614
 20
0.820740157480315
 30
0.0
 10
0.0263543307086614
 20
0.820740157480315
 30
0.0
 10
-0.062996062992126
 20
0.8021889763779528
 30
0.0
 10
-0.062996062992126
 20
0.8021889763779528
 30
0.0
 10
-0.062996062992126
 20
0.8021889763779528
 30
0.0
 10
-0.062996062992126
 20
0.8021889763779528
 30
0.0
 10
-0.7131062992125985
 20
1.176905511811024
 30
0.0
 10
-0.7131062992125985
 20
1.176905511811024
 30
0.0
 10
-0.7131062992125985
 20
1.176905511811024
 30
0.0
 10
-0.7131062992125985
 20
1.176905511811024
 30
0.0
 10
-0.623755905511811
 20
1.195456692913386
 30
0.0
 10
-0.623755905511811
 20
1.195456692913386
 30
0.0
 10
-0.623755905511811
 20
1.195456692913386
 30
0.0
 10
-0.623755905511811
 20
1.195456692913386
 30
0.0
 10
-0.5383188976377953
 20
1.216299212598425
 30
0.0
 10
-0.5383188976377953
 20
1.216299212598425
 30
0.0
 10
-0.5383188976377953
 20
1.216299212598425
 30
0.0
 10
-0.5383188976377953
 20
1.216299212598425
 30
0.0
 10
-0.4567283464566929
 20
1.239397637795276
 30
0.0
 10
-0.4567283464566929
 20
1.239397637795276
 30
0.0
 10
-0.4567283464566929
 20
1.239397637795276
 30
0.0
 10
-0.4567283464566929
 20
1.239397637795276
 30
0.0
 10
-0.3789055118110236
 20
1.264688976377953
 30
0.0
 10
-0.3789055118110236
 20
1.264688976377953
 30
0.0
 10
-0.3789055118110236
 20
1.264688976377953
 30
0.0
 10
-0.3789055118110236
 20
1.264688976377953
 30
0.0
 10
-0.3047913385826772
 20
1.292137795275591
 30
0.0
 10
-0.3047913385826772
 20
1.292137795275591
 30
0.0
 10
-0.3047913385826772
 20
1.292137795275591
 30
0.0
 10
-0.3047913385826772
 20
1.292137795275591
 30
0.0
 10
-0.2342992125984252
 20
1.321681102362205
 30
0.0
 10
-0.2342992125984252
 20
1.321681102362205
 30
0.0
 10
-0.2342992125984252
 20
1.321681102362205
 30
0.0
 10
-0.2342992125984252
 20
1.321681102362205
 30
0.0
 10
-0.1673661417322835
 20
1.353279527559055
 30
0.0
 10
-0.1673661417322835
 20
1.353279527559055
 30
0.0
 10
-0.1673661417322835
 20
1.353279527559055
 30
0.0
 10
-0.1673661417322835
 20
1.353279527559055
 30
0.0
 10
-0.1039094488188977
 20
1.386870078740158
 30
0.0
 10
-0.1039094488188977
 20
1.386870078740158
 30
0.0
 10
-0.1039094488188977
 20
1.386870078740158
 30
0.0
 10
-0.1039094488188977
 20
1.386870078740158
 30
0.0
 10
-0.0438700787401575
 20
1.422425196850394
 30
0.0
 10
-0.0438700787401575
 20
1.422425196850394
 30
0.0
 10
-0.0438700787401575
 20
1.422425196850394
 30
0.0
 10
-0.0438700787401575
 20
1.422425196850394
 30
0.0
 10
0.0128346456692913
 20
1.459874015748032
 30
0.0
 10
0.0128346456692913
 20
1.459874015748032
 30
0.0
 10
0.0128346456692913
 20
1.459874015748032
 30
0.0
 10
0.0128346456692913
 20
1.459874015748032
 30
0.0
 10
0.0662716535433071
 20
1.499177165354331
 30
0.0
 10
0.0662716535433071
 20
1.499177165354331
 30
0.0
 10
0.0662716535433071
 20
1.499177165354331
 30
0.0
 10
0.0662716535433071
 20
1.499177165354331
 30
0.0
 10
0.1165236220472441
 20
1.540275590551181
 30
0.0
 10
0.1165236220472441
 20
1.540275590551181
 30
0.0
 10
0.1165236220472441
 20
1.540275590551181
 30
0.0
 10
0.1165236220472441
 20
1.540275590551181
 30
0.0
 10
0.1636496062992126
 20
1.583137795275591
 30
0.0
 10
0.1636496062992126
 20
1.583137795275591
 30
0.0
 10
0.1636496062992126
 20
1.583137795275591
 30
0.0
 10
0.1636496062992126
 20
1.583137795275591
 30
0.0
 10
0.2077322834645669
 20
1.627692913385827
 30
0.0
 10
0.2077322834645669
 20
1.627692913385827
 30
0.0
 10
0.2077322834645669
 20
1.627692913385827
 30
0.0
 10
0.2077322834645669
 20
1.627692913385827
 30
0.0
 10
0.2488385826771654
 20
1.67390157480315
 30
0.0
 10
0.2488385826771654
 20
1.67390157480315
 30
0.0
 10
0.2488385826771654
 20
1.67390157480315
 30
0.0
 10
0.2488385826771654
 20
1.67390157480315
 30
0.0
 10
0.2870472440944882
 20
1.721712598425197
 30
0.0
 10
0.2870472440944882
 20
1.721712598425197
 30
0.0
 10
0.2870472440944882
 20
1.721712598425197
 30
0.0
 10
0.2870472440944882
 20
1.721712598425197
 30
0.0
 10
0.3224173228346457
 20
1.771086614173228
 30
0.0
 10
0.3224173228346457
 20
1.771086614173228
 30
0.0
 10
0.3224173228346457
 20
1.771086614173228
 30
0.0
 10
0.3224173228346457
 20
1.771086614173228
 30
0.0
 10
0.3550354330708662
 20
1.82196062992126
 30
0.0
 10
0.3550354330708662
 20
1.82196062992126
 30
0.0
 10
0.3550354330708662
 20
1.82196062992126
 30
0.0
 10
0.3550354330708662
 20
1.82196062992126
 30
0.0
 10
0.3849724409448819
 20
1.874291338582677
 30
0.0
 10
0.3849724409448819
 20
1.874291338582677
 30
0.0
 10
0.3849724409448819
 20
1.874291338582677
 30
0.0
 10
0.3849724409448819
 20
1.874291338582677
 30
0.0
 10
0.4122992125984252
 20
1.928015748031496
 30
0.0
 10
0.4122992125984252
 20
1.928015748031496
 30
0.0
 10
0.4122992125984252
 20
1.928015748031496
 30
0.0
 10
0.4122992125984252
 20
1.928015748031496
 30
0.0
 10
0.4370826771653544
 20
1.983102362204725
 30
0.0
 10
0.4370826771653544
 20
1.983102362204725
 30
0.0
 10
0.4370826771653544
 20
1.983102362204725
 30
0.0
 10
0.4370826771653544
 20
1.983102362204725
 30
0.0
 10
0.4594015748031496
 20
2.039488188976378
 30
0.0
 10
0.4594015748031496
 20
2.039488188976378
 30
0.0
 10
0.4594015748031496
 20
2.039488188976378
 30
0.0
 10
0.4594015748031496
 20
2.039488188976378
 30
0.0
 10
0.4793267716535433
 20
2.097133858267717
 30
0.0
 10
0.4793267716535433
 20
2.097133858267717
 30
0.0
 10
0.4793267716535433
 20
2.097133858267717
 30
0.0
 10
0.4793267716535433
 20
2.097133858267717
 30
0.0
 10
0.4969370078740158
 20
2.15598031496063
 30
0.0
 10
0.4969370078740158
 20
2.15598031496063
 30
0.0
 10
0.4969370078740158
 20
2.15598031496063
 30
0.0
 10
0.4969370078740158
 20
2.15598031496063
 30
0.0
 10
0.5122913385826772
 20
2.215988188976378
 30
0.0
 10
0.5122913385826772
 20
2.215988188976378
 30
0.0
 10
0.5122913385826772
 20
2.215988188976378
 30
0.0
 10
0.5122913385826772
 20
2.215988188976378
 30
0.0
 10
0.5254763779527559
 20
2.277098425196851
 30
0.0
 10
0.5254763779527559
 20
2.277098425196851
 30
0.0
 10
0.5254763779527559
 20
2.277098425196851
 30
0.0
 10
0.5254763779527559
 20
2.277098425196851
 30
0.0
 10
0.5365551181102363
 20
2.339267716535433
 30
0.0
 10
0.5365551181102363
 20
2.339267716535433
 30
0.0
 10
0.5365551181102363
 20
2.339267716535433
 30
0.0
 10
0.5365551181102363
 20
2.339267716535433
 30
0.0
 10
0.5456062992125984
 20
2.40244094488189
 30
0.0
 10
0.5456062992125984
 20
2.40244094488189
 30
0.0
 10
0.5456062992125984
 20
2.40244094488189
 30
0.0
 10
0.5456062992125984
 20
2.40244094488189
 30
0.0
 10
0.5526929133858268
 20
2.466566929133859
 30
0.0
 10
0.5526929133858268
 20
2.466566929133859
 30
0.0
 10
0.5526929133858268
 20
2.466566929133859
 30
0.0
 10
0.5526929133858268
 20
2.466566929133859
 30
0.0
 10
0.5579015748031496
 20
2.531606299212599
 30
0.0
 10
0.5579015748031496
 20
2.531606299212599
 30
0.0
 10
0.5579015748031496
 20
2.531606299212599
 30
0.0
 10
0.5579015748031496
 20
2.531606299212599
 30
0.0
 10
0.5612992125984252
 20
2.5975
 30
0.0
 10
0.5612992125984252
 20
2.5975
 30
0.0
 10
0.5612992125984252
 20
2.5975
 30
0.0
 10
0.5612992125984252
 20
2.5975
 30
0.0
 10
0.5629566929133859
 20
2.664208661417323
 30
0.0
 10
0.5629566929133859
 20
2.664208661417323
 30
0.0
  0
SPLINE
  5
67
330
1F
100
AcDbEntity
  8
LAYER_1
 62
   253
100
AcDbSpline
210
0.0
220
0.0
230
1.0
 70
    11
 71
     3
 72
    20
 73
    16
 74
     0
 42
0.0000000001
 43
0.0000000001
 40
0.0
 40
0.0
 40
0.0
 40
0.0
 40
0.25
 40
0.25
 40
0.25
 40
0.25
 40
0.5
 40
0.5
 40
0.5
 40
0.5
 40
0.75
 40
0.75
 40
0.75
 40
0.75
 40
1.0
 40
1.0
 40
1.0
 40
1.0
 10
-0.7131062992125985
 20
1.176905511811024
 30
0.0
 10
-0.7131062992125985
 20
1.176905511811024
 30
0.0
 10
-0.062996062992126
 20
0.8021889763779528
 30
0.0
 10
-0.062996062992126
 20
0.8021889763779528
 30
0.0
 10
-0.062996062992126
 20
0.8021889763779528
 30
0.0
 10
-0.062996062992126
 20
0.8021889763779528
 30
0.0
 10
-0.062996062992126
 20
0.3667755905511811
 30
0.0
 10
-0.062996062992126
 20
0.3667755905511811
 30
0.0
 10
-0.062996062992126
 20
0.3667755905511811
 30
0.0
 10
-0.062996062992126
 20
0.3667755905511811
 30
0.0
 10
-0.7131062992125985
 20
0.741492125984252
 30
0.0
 10
-0.7131062992125985
 20
0.741492125984252
 30
0.0
 10
-0.7131062992125985
 20
0.741492125984252
 30
0.0
 10
-0.7131062992125985
 20
0.741492125984252
 30
0.0
 10
-0.7131062992125985
 20
1.176905511811024
 30
0.0
 10
-0.7131062992125985
 20
1.176905511811024
 30
0.0
  0
SPLINE
  5
68
330
1F
100
AcDbEntity
  8
LAYER_1
 62
   250
100
AcDbSpline
210
0.0
220
0.0
230
1.0
 70
    11
 71
     3
 72
    20
 73
    16
 74
     0
 42
0.0000000001
 43
0.0000000001
 40
0.0
 40
0.0
 40
0.0
 40
0.0
 40
0.25
 40
0.25
 40
0.25
 40
0.25
 40
0.5
 40
0.5
 40
0.5
 40
0.5
 40
0.75
 40
0.75
 40
0.75
 40
0.75
 40
1.0
 40
1.0
 40
1.0
 40
1.0
 10
-0.7131062992125985
 20
1.176905511811024
 30
0.0
 10
-0.7131062992125985
 20
1.176905511811024
 30
0.0
 10
-0.062996062992126
 20
0.8021889763779528
 30
0.0
 10
-0.062996062992126
 20
0.8021889763779528
 30
0.0
 10
-0.062996062992126
 20
0.8021889763779528
 30
0.0
 10
-0.062996062992126
 20
0.8021889763779528
 30
0.0
 10
-0.062996062992126
 20
0.3667755905511811
 30
0.0
 10
-0.062996062992126
 20
0.3667755905511811
 30
0.0
 10
-0.062996062992126
 20
0.3667755905511811
 30
0.0
 10
-0.062996062992126
 20
0.3667755905511811
 30
0.0
 10
-0.7131062992125985
 20
0.741492125984252
 30
0.0
 10
-0.7131062992125985
 20
0.741492125984252
 30
0.0
 10
-0.7131062992125985
 20
0.741492125984252
 30
0.0
 10
-0.7131062992125985
 20
0.741492125984252
 30
0.0
 10
-0.7131062992125985
 20
1.176905511811024
 30
0.0
 10
-0.7131062992125985
 20
1.176905511811024
 30
0.0
  0
SPLINE
  5
69
330
1F
100
AcDbEntity
  8
LAYER_1
 62
   253
100
AcDbSpline
210
0.0
220
0.0
230
1.0
 70
    11
 71
     3
 72
    20
 73
    16
 74
     0
 42
0.0000000001
 43
0.0000000001
 40
0.0
 40
0.0
 40
0.0
 40
0.0
 40
0.25
 40
0.25
 40
0.25
 40
0.25
 40
0.5
 40
0.5
 40
0.5
 40
0.5
 40
0.75
 40
0.75
 40
0.75
 40
0.75
 40
1.0
 40
1.0
 40
1.0
 40
1.0
 10
-0.7131062992125985
 20
0.741492125984252
 30
0.0
 10
-0.7131062992125985
 20
0.741492125984252
 30
0.0
 10
-0.062996062992126
 20
0.3667755905511811
 30
0.0
 10
-0.062996062992126
 20
0.3667755905511811
 30
0.0
 10
-0.062996062992126
 20
0.3667755905511811
 30
0.0
 10
-0.062996062992126
 20
0.3667755905511811
 30
0.0
 10
-0.4121889763779528
 20
0.3667755905511811
 30
0.0
 10
-0.4121889763779528
 20
0.3667755905511811
 30
0.0
 10
-0.4121889763779528
 20
0.3667755905511811
 30
0.0
 10
-0.4121889763779528
 20
0.3667755905511811
 30
0.0
 10
-1.062299212598425
 20
0.741492125984252
 30
0.0
 10
-1.062299212598425
 20
0.741492125984252
 30
0.0
 10
-1.062299212598425
 20
0.741492125984252
 30
0.0
 10
-1.062299212598425
 20
0.741492125984252
 30
0.0
 10
-0.7131062992125985
 20
0.741492125984252
 30
0.0
 10
-0.7131062992125985
 20
0.741492125984252
 30
0.0
  0
SPLINE
  5
6A
330
1F
100
AcDbEntity
  8
LAYER_1
 62
   250
100
AcDbSpline
210
0.0
220
0.0
230
1.0
 70
    11
 71
     3
 72
    20
 73
    16
 74
     0
 42
0.0000000001
 43
0.0000000001
 40
0.0
 40
0.0
 40
0.0
 40
0.0
 40
0.25
 40
0.25
 40
0.25
 40
0.25
 40
0.5
 40
0.5
 40
0.5
 40
0.5
 40
0.75
 40
0.75
 40
0.75
 40
0.75
 40
1.0
 40
1.0
 40
1.0
 40
1.0
 10
-0.7131062992125985
 20
0.741492125984252
 30
0.0
 10
-0.7131062992125985
 20
0.741492125984252
 30
0.0
 10
-0.062996062992126
 20
0.3667755905511811
 30
0.0
 10
-0.062996062992126
 20
0.3667755905511811
 30
0.0
 10
-0.062996062992126
 20
0.3667755905511811
 30
0.0
 10
-0.062996062992126
 20
0.3667755905511811
 30
0.0
 10
-0.4121889763779528
 20
0.3667755905511811
 30
0.0
 10
-0.4121889763779528
 20
0.3667755905511811
 30
0.0
 10
-0.4121889763779528
 20
0.3667755905511811
 30
0.0
 10
-0.4121889763779528
 20
0.3667755905511811
 30
0.0
 10
-1.062299212598425
 20
0.741492125984252
 30
0.0
 10
-1.062299212598425
 20
0.741492125984252
 30
0.0
 10
-1.062299212598425
 20
0.741492125984252
 30
0.0
 10
-1.062299212598425
 20
0.741492125984252
 30
0.0
 10
-0.7131062992125985
 20
0.741492125984252
 30
0.0
 10
-0.7131062992125985
 20
0.741492125984252
 30
0.0
  0
SPLINE
  5
6B
330
1F
100
AcDbEntity
  8
LAYER_1
 62
   253
100
AcDbSpline
210
0.0
220
0.0
230
1.0
 70
    11
 71
     3
 72
    20
 73
    16
 74
     0
 42
0.0000000001
 43
0.0000000001
 40
0.0
 40
0.0
 40
0.0
 40
0.0
 40
0.25
 40
0.25
 40
0.25
 40
0.25
 40
0.5
 40
0.5
 40
0.5
 40
0.5
 40
0.75
 40
0.75
 40
0.75
 40
0.75
 40
1.0
 40
1.0
 40
1.0
 40
1.0
 10
0.8561062992125985
 20
3.228952755905512
 30
0.0
 10
0.8561062992125985
 20
3.228952755905512
 30
0.0
 10
1.506216535433071
 20
2.854236220472441
 30
0.0
 10
1.506216535433071
 20
2.854236220472441
 30
0.0
 10
1.506216535433071
 20
2.854236220472441
 30
0.0
 10
1.506216535433071
 20
2.854236220472441
 30
0.0
 10
1.506216535433071
 20
2.319669291338583
 30
0.0
 10
1.506216535433071
 20
2.319669291338583
 30
0.0
 10
1.506216535433071
 20
2.319669291338583
 30
0.0
 10
1.506216535433071
 20
2.319669291338583
 30
0.0
 10
0.8561062992125985
 20
2.694385826771654
 30
0.0
 10
0.8561062992125985
 20
2.694385826771654
 30
0.0
 10
0.8561062992125985
 20
2.694385826771654
 30
0.0
 10
0.8561062992125985
 20
2.694385826771654
 30
0.0
 10
0.8561062992125985
 20
3.228952755905512
 30
0.0
 10
0.8561062992125985
 20
3.228952755905512
 30
0.0
  0
SPLINE
  5
6C
330
1F
100
AcDbEntity
  8
LAYER_1
 62
   250
100
AcDbSpline
210
0.0
220
0.0
230
1.0
 70
    11
 71
     3
 72
    20
 73
    16
 74
     0
 42
0.0000000001
 43
0.0000000001
 40
0.0
 40
0.0
 40
0.0
 40
0.0
 40
0.25
 40
0.25
 40
0.25
 40
0.25
 40
0.5
 40
0.5
 40
0.5
 40
0.5
 40
0.75
 40
0.75
 40
0.75
 40
0.75
 40
1.0
 40
1.0
 40
1.0
 40
1.0
 10
0.8561062992125985
 20
3.228952755905512
 30
0.0
 10
0.8561062992125985
 20
3.228952755905512
 30
0.0
 10
1.506216535433071
 20
2.854236220472441
 30
0.0
 10
1.506216535433071
 20
2.854236220472441
 30
0.0
 10
1.506216535433071
 20
2.854236220472441
 30
0.0
 10
1.506216535433071
 20
2.854236220472441
 30
0.0
 10
1.506216535433071
 20
2.319669291338583
 30
0.0
 10
1.506216535433071
 20
2.319669291338583
 30
0.0
 10
1.506216535433071
 20
2.319669291338583
 30
0.0
 10
1.506216535433071
 20
2.319669291338583
 30
0.0
 10
0.8561062992125985
 20
2.694385826771654
 30
0.0
 10
0.8561062992125985
 20
2.694385826771654
 30
0.0
 10
0.8561062992125985
 20
2.694385826771654
 30
0.0
 10
0.8561062992125985
 20
2.694385826771654
 30
0.0
 10
0.8561062992125985
 20
3.228952755905512
 30
0.0
 10
0.8561062992125985
 20
3.228952755905512
 30
0.0
  0
SPLINE
  5
6D
330
1F
100
AcDbEntity
  8
LAYER_1
 62
   253
100
AcDbSpline
210
0.0
220
0.0
230
1.0
 70
    11
 71
     3
 72
    20
 73
    16
 74
     0
 42
0.0000000001
 43
0.0000000001
 40
0.0
 40
0.0
 40
0.0
 40
0.0
 40
0.25
 40
0.25
 40
0.25
 40
0.25
 40
0.5
 40
0.5
 40
0.5
 40
0.5
 40
0.75
 40
0.75
 40
0.75
 40
0.75
 40
1.0
 40
1.0
 40
1.0
 40
1.0
 10
0.8561062992125985
 20
2.694385826771654
 30
0.0
 10
0.8561062992125985
 20
2.694385826771654
 30
0.0
 10
1.506216535433071
 20
2.319669291338583
 30
0.0
 10
1.506216535433071
 20
2.319669291338583
 30
0.0
 10
1.506216535433071
 20
2.319669291338583
 30
0.0
 10
1.506216535433071
 20
2.319669291338583
 30
0.0
 10
1.213066929133858
 20
2.289492125984252
 30
0.0
 10
1.213066929133858
 20
2.289492125984252
 30
0.0
 10
1.213066929133858
 20
2.289492125984252
 30
0.0
 10
1.213066929133858
 20
2.289492125984252
 30
0.0
 10
0.5629566929133859
 20
2.664208661417323
 30
0.0
 10
0.5629566929133859
 20
2.664208661417323
 30
0.0
 10
0.5629566929133859
 20
2.664208661417323
 30
0.0
 10
0.5629566929133859
 20
2.664208661417323
 30
0.0
 10
0.8561062992125985
 20
2.694385826771654
 30
0.0
 10
0.8561062992125985
 20
2.694385826771654
 30
0.0
  0
SPLINE
  5
6E
330
1F
100
AcDbEntity
  8
LAYER_1
 62
   250
100
AcDbSpline
210
0.0
220
0.0
230
1.0
 70
    11
 71
     3
 72
    20
 73
    16
 74
     0
 42
0.0000000001
 43
0.0000000001
 40
0.0
 40
0.0
 40
0.0
 40
0.0
 40
0.25
 40
0.25
 40
0.25
 40
0.25
 40
0.5
 40
0.5
 40
0.5
 40
0.5
 40
0.75
 40
0.75
 40
0.75
 40
0.75
 40
1.0
 40
1.0
 40
1.0
 40
1.0
 10
0.8561062992125985
 20
2.694385826771654
 30
0.0
 10
0.8561062992125985
 20
2.694385826771654
 30
0.0
 10
1.506216535433071
 20
2.319669291338583
 30
0.0
 10
1.506216535433071
 20
2.319669291338583
 30
0.0
 10
1.506216535433071
 20
2.319669291338583
 30
0.0
 10
1.506216535433071
 20
2.319669291338583
 30
0.0
 10
1.213066929133858
 20
2.289492125984252
 30
0.0
 10
1.213066929133858
 20
2.289492125984252
 30
0.0
 10
1.213066929133858
 20
2.289492125984252
 30
0.0
 10
1.213066929133858
 20
2.289492125984252
 30
0.0
 10
0.5629566929133859
 20
2.664208661417323
 30
0.0
 10
0.5629566929133859
 20
2.664208661417323
 30
0.0
 10
0.5629566929133859
 20
2.664208661417323
 30
0.0
 10
0.5629566929133859
 20
2.664208661417323
 30
0.0
 10
0.8561062992125985
 20
2.694385826771654
 30
0.0
 10
0.8561062992125985
 20
2.694385826771654
 30
0.0
  0
SPLINE
  5
6F
330
1F
100
AcDbEntity
  8
LAYER_1
 62
   253
100
AcDbSpline
210
0.0
220
0.0
230
1.0
 70
    11
 71
     3
 72
    20
 73
    16
 74
     0
 42
0.0000000001
 43
0.0000000001
 40
0.0
 40
0.0
 40
0.0
 40
0.0
 40
0.25
 40
0.25
 40
0.25
 40
0.25
 40
0.5
 40
0.5
 40
0.5
 40
0.5
 40
0.75
 40
0.75
 40
0.75
 40
0.75
 40
1.0
 40
1.0
 40
1.0
 40
1.0
 10
0.5629566929133859
 20
2.664208661417323
 30
0.0
 10
0.5629566929133859
 20
2.664208661417323
 30
0.0
 10
1.213066929133858
 20
2.289492125984252
 30
0.0
 10
1.213066929133858
 20
2.289492125984252
 30
0.0
 10
1.213066929133858
 20
2.289492125984252
 30
0.0
 10
1.213066929133858
 20
2.289492125984252
 30
0.0
 10
1.211409448818898
 20
2.222783464566929
 30
0.0
 10
1.211409448818898
 20
2.222783464566929
 30
0.0
 10
1.211409448818898
 20
2.222783464566929
 30
0.0
 10
1.211409448818898
 20
2.222783464566929
 30
0.0
 10
0.5612992125984252
 20
2.5975
 30
0.0
 10
0.5612992125984252
 20
2.5975
 30
0.0
 10
0.5612992125984252
 20
2.5975
 30
0.0
 10
0.5612992125984252
 20
2.5975
 30
0.0
 10
0.5629566929133859
 20
2.664208661417323
 30
0.0
 10
0.5629566929133859
 20
2.664208661417323
 30
0.0
  0
SPLINE
  5
70
330
1F
100
AcDbEntity
  8
LAYER_1
 62
   253
100
AcDbSpline
210
0.0
220
0.0
230
1.0
 70
    11
 71
     3
 72
    20
 73
    16
 74
     0
 42
0.0000000001
 43
0.0000000001
 40
0.0
 40
0.0
 40
0.0
 40
0.0
 40
0.25
 40
0.25
 40
0.25
 40
0.25
 40
0.5
 40
0.5
 40
0.5
 40
0.5
 40
0.75
 40
0.75
 40
0.75
 40
0.75
 40
1.0
 40
1.0
 40
1.0
 40
1.0
 10
0.5612992125984252
 20
2.5975
 30
0.0
 10
0.5612992125984252
 20
2.5975
 30
0.0
 10
1.211409448818898
 20
2.222783464566929
 30
0.0
 10
1.211409448818898
 20
2.222783464566929
 30
0.0
 10
1.211409448818898
 20
2.222783464566929
 30
0.0
 10
1.211409448818898
 20
2.222783464566929
 30
0.0
 10
1.208011811023622
 20
2.156889763779528
 30
0.0
 10
1.208011811023622
 20
2.156889763779528
 30
0.0
 10
1.208011811023622
 20
2.156889763779528
 30
0.0
 10
1.208011811023622
 20
2.156889763779528
 30
0.0
 10
0.5579015748031496
 20
2.531606299212599
 30
0.0
 10
0.5579015748031496
 20
2.531606299212599
 30
0.0
 10
0.5579015748031496
 20
2.531606299212599
 30
0.0
 10
0.5579015748031496
 20
2.531606299212599
 30
0.0
 10
0.5612992125984252
 20
2.5975
 30
0.0
 10
0.5612992125984252
 20
2.5975
 30
0.0
  0
SPLINE
  5
71
330
1F
100
AcDbEntity
  8
LAYER_1
 62
   253
100
AcDbSpline
210
0.0
220
0.0
230
1.0
 70
    11
 71
     3
 72
    20
 73
    16
 74
     0
 42
0.0000000001
 43
0.0000000001
 40
0.0
 40
0.0
 40
0.0
 40
0.0
 40
0.25
 40
0.25
 40
0.25
 40
0.25
 40
0.5
 40
0.5
 40
0.5
 40
0.5
 40
0.75
 40
0.75
 40
0.75
 40
0.75
 40
1.0
 40
1.0
 40
1.0
 40
1.0
 10
0.5579015748031496
 20
2.531606299212599
 30
0.0
 10
0.5579015748031496
 20
2.531606299212599
 30
0.0
 10
1.208011811023622
 20
2.156889763779528
 30
0.0
 10
1.208011811023622
 20
2.156889763779528
 30
0.0
 10
1.208011811023622
 20
2.156889763779528
 30
0.0
 10
1.208011811023622
 20
2.156889763779528
 30
0.0
 10
1.202803149606299
 20
2.091850393700788
 30
0.0
 10
1.202803149606299
 20
2.091850393700788
 30
0.0
 10
1.202803149606299
 20
2.091850393700788
 30
0.0
 10
1.202803149606299
 20
2.091850393700788
 30
0.0
 10
0.5526929133858268
 20
2.466566929133859
 30
0.0
 10
0.5526929133858268
 20
2.466566929133859
 30
0.0
 10
0.5526929133858268
 20
2.466566929133859
 30
0.0
 10
0.5526929133858268
 20
2.466566929133859
 30
0.0
 10
0.5579015748031496
 20
2.531606299212599
 30
0.0
 10
0.5579015748031496
 20
2.531606299212599
 30
0.0
  0
SPLINE
  5
72
330
1F
100
AcDbEntity
  8
LAYER_1
 62
   253
100
AcDbSpline
210
0.0
220
0.0
230
1.0
 70
    11
 71
     3
 72
    20
 73
    16
 74
     0
 42
0.0000000001
 43
0.0000000001
 40
0.0
 40
0.0
 40
0.0
 40
0.0
 40
0.25
 40
0.25
 40
0.25
 40
0.25
 40
0.5
 40
0.5
 40
0.5
 40
0.5
 40
0.75
 40
0.75
 40
0.75
 40
0.75
 40
1.0
 40
1.0
 40
1.0
 40
1.0
 10
0.5526929133858268
 20
2.466566929133859
 30
0.0
 10
0.5526929133858268
 20
2.466566929133859
 30
0.0
 10
1.202803149606299
 20
2.091850393700788
 30
0.0
 10
1.202803149606299
 20
2.091850393700788
 30
0.0
 10
1.202803149606299
 20
2.091850393700788
 30
0.0
 10
1.202803149606299
 20
2.091850393700788
 30
0.0
 10
1.195716535433071
 20
2.027724409448819
 30
0.0
 10
1.195716535433071
 20
2.027724409448819
 30
0.0
 10
1.195716535433071
 20
2.027724409448819
 30
0.0
 10
1.195716535433071
 20
2.027724409448819
 30
0.0
 10
0.5456062992125984
 20
2.40244094488189
 30
0.0
 10
0.5456062992125984
 20
2.40244094488189
 30
0.0
 10
0.5456062992125984
 20
2.40244094488189
 30
0.0
 10
0.5456062992125984
 20
2.40244094488189
 30
0.0
 10
0.5526929133858268
 20
2.466566929133859
 30
0.0
 10
0.5526929133858268
 20
2.466566929133859
 30
0.0
  0
SPLINE
  5
73
330
1F
100
AcDbEntity
  8
LAYER_1
 62
   253
100
AcDbSpline
210
0.0
220
0.0
230
1.0
 70
    11
 71
     3
 72
    20
 73
    16
 74
     0
 42
0.0000000001
 43
0.0000000001
 40
0.0
 40
0.0
 40
0.0
 40
0.0
 40
0.25
 40
0.25
 40
0.25
 40
0.25
 40
0.5
 40
0.5
 40
0.5
 40
0.5
 40
0.75
 40
0.75
 40
0.75
 40
0.75
 40
1.0
 40
1.0
 40
1.0
 40
1.0
 10
0.5456062992125984
 20
2.40244094488189
 30
0.0
 10
0.5456062992125984
 20
2.40244094488189
 30
0.0
 10
1.195716535433071
 20
2.027724409448819
 30
0.0
 10
1.195716535433071
 20
2.027724409448819
 30
0.0
 10
1.195716535433071
 20
2.027724409448819
 30
0.0
 10
1.195716535433071
 20
2.027724409448819
 30
0.0
 10
1.186665354330709
 20
1.964551181102362
 30
0.0
 10
1.186665354330709
 20
1.964551181102362
 30
0.0
 10
1.186665354330709
 20
1.964551181102362
 30
0.0
 10
1.186665354330709
 20
1.964551181102362
 30
0.0
 10
0.5365551181102363
 20
2.339267716535433
 30
0.0
 10
0.5365551181102363
 20
2.339267716535433
 30
0.0
 10
0.5365551181102363
 20
2.339267716535433
 30
0.0
 10
0.5365551181102363
 20
2.339267716535433
 30
0.0
 10
0.5456062992125984
 20
2.40244094488189
 30
0.0
 10
0.5456062992125984
 20
2.40244094488189
 30
0.0
  0
SPLINE
  5
74
330
1F
100
AcDbEntity
  8
LAYER_1
 62
   253
100
AcDbSpline
210
0.0
220
0.0
230
1.0
 70
    11
 71
     3
 72
    20
 73
    16
 74
     0
 42
0.0000000001
 43
0.0000000001
 40
0.0
 40
0.0
 40
0.0
 40
0.0
 40
0.25
 40
0.25
 40
0.25
 40
0.25
 40
0.5
 40
0.5
 40
0.5
 40
0.5
 40
0.75
 40
0.75
 40
0.75
 40
0.75
 40
1.0
 40
1.0
 40
1.0
 40
1.0
 10
0.5365551181102363
 20
2.339267716535433
 30
0.0
 10
0.5365551181102363
 20
2.339267716535433
 30
0.0
 10
1.186665354330709
 20
1.964551181102362
 30
0.0
 10
1.186665354330709
 20
1.964551181102362
 30
0.0
 10
1.186665354330709
 20
1.964551181102362
 30
0.0
 10
1.186665354330709
 20
1.964551181102362
 30
0.0
 10
1.175586614173228
 20
1.90238188976378
 30
0.0
 10
1.175586614173228
 20
1.90238188976378
 30
0.0
 10
1.175586614173228
 20
1.90238188976378
 30
0.0
 10
1.175586614173228
 20
1.90238188976378
 30
0.0
 10
0.5254763779527559
 20
2.277098425196851
 30
0.0
 10
0.5254763779527559
 20
2.277098425196851
 30
0.0
 10
0.5254763779527559
 20
2.277098425196851
 30
0.0
 10
0.5254763779527559
 20
2.277098425196851
 30
0.0
 10
0.5365551181102363
 20
2.339267716535433
 30
0.0
 10
0.5365551181102363
 20
2.339267716535433
 30
0.0
  0
SPLINE
  5
75
330
1F
100
AcDbEntity
  8
LAYER_1
 62
   253
100
AcDbSpline
210
0.0
220
0.0
230
1.0
 70
    11
 71
     3
 72
    20
 73
    16
 74
     0
 42
0.0000000001
 43
0.0000000001
 40
0.0
 40
0.0
 40
0.0
 40
0.0
 40
0.25
 40
0.25
 40
0.25
 40
0.25
 40
0.5
 40
0.5
 40
0.5
 40
0.5
 40
0.75
 40
0.75
 40
0.75
 40
0.75
 40
1.0
 40
1.0
 40
1.0
 40
1.0
 10
0.5254763779527559
 20
2.277098425196851
 30
0.0
 10
0.5254763779527559
 20
2.277098425196851
 30
0.0
 10
1.175586614173228
 20
1.90238188976378
 30
0.0
 10
1.175586614173228
 20
1.90238188976378
 30
0.0
 10
1.175586614173228
 20
1.90238188976378
 30
0.0
 10
1.175586614173228
 20
1.90238188976378
 30
0.0
 10
1.16240157480315
 20
1.841271653543307
 30
0.0
 10
1.16240157480315
 20
1.841271653543307
 30
0.0
 10
1.16240157480315
 20
1.841271653543307
 30
0.0
 10
1.16240157480315
 20
1.841271653543307
 30
0.0
 10
0.5122913385826772
 20
2.215988188976378
 30
0.0
 10
0.5122913385826772
 20
2.215988188976378
 30
0.0
 10
0.5122913385826772
 20
2.215988188976378
 30
0.0
 10
0.5122913385826772
 20
2.215988188976378
 30
0.0
 10
0.5254763779527559
 20
2.277098425196851
 30
0.0
 10
0.5254763779527559
 20
2.277098425196851
 30
0.0
  0
SPLINE
  5
76
330
1F
100
AcDbEntity
  8
LAYER_1
 62
   253
100
AcDbSpline
210
0.0
220
0.0
230
1.0
 70
    11
 71
     3
 72
    20
 73
    16
 74
     0
 42
0.0000000001
 43
0.0000000001
 40
0.0
 40
0.0
 40
0.0
 40
0.0
 40
0.25
 40
0.25
 40
0.25
 40
0.25
 40
0.5
 40
0.5
 40
0.5
 40
0.5
 40
0.75
 40
0.75
 40
0.75
 40
0.75
 40
1.0
 40
1.0
 40
1.0
 40
1.0
 10
0.5122913385826772
 20
2.215988188976378
 30
0.0
 10
0.5122913385826772
 20
2.215988188976378
 30
0.0
 10
1.16240157480315
 20
1.841271653543307
 30
0.0
 10
1.16240157480315
 20
1.841271653543307
 30
0.0
 10
1.16240157480315
 20
1.841271653543307
 30
0.0
 10
1.16240157480315
 20
1.841271653543307
 30
0.0
 10
1.147047244094488
 20
1.781263779527559
 30
0.0
 10
1.147047244094488
 20
1.781263779527559
 30
0.0
 10
1.147047244094488
 20
1.781263779527559
 30
0.0
 10
1.147047244094488
 20
1.781263779527559
 30
0.0
 10
0.4969370078740158
 20
2.15598031496063
 30
0.0
 10
0.4969370078740158
 20
2.15598031496063
 30
0.0
 10
0.4969370078740158
 20
2.15598031496063
 30
0.0
 10
0.4969370078740158
 20
2.15598031496063
 30
0.0
 10
0.5122913385826772
 20
2.215988188976378
 30
0.0
 10
0.5122913385826772
 20
2.215988188976378
 30
0.0
  0
SPLINE
  5
77
330
1F
100
AcDbEntity
  8
LAYER_1
 62
   253
100
AcDbSpline
210
0.0
220
0.0
230
1.0
 70
    11
 71
     3
 72
    20
 73
    16
 74
     0
 42
0.0000000001
 43
0.0000000001
 40
0.0
 40
0.0
 40
0.0
 40
0.0
 40
0.25
 40
0.25
 40
0.25
 40
0.25
 40
0.5
 40
0.5
 40
0.5
 40
0.5
 40
0.75
 40
0.75
 40
0.75
 40
0.75
 40
1.0
 40
1.0
 40
1.0
 40
1.0
 10
0.4969370078740158
 20
2.15598031496063
 30
0.0
 10
0.4969370078740158
 20
2.15598031496063
 30
0.0
 10
1.147047244094488
 20
1.781263779527559
 30
0.0
 10
1.147047244094488
 20
1.781263779527559
 30
0.0
 10
1.147047244094488
 20
1.781263779527559
 30
0.0
 10
1.147047244094488
 20
1.781263779527559
 30
0.0
 10
1.129437007874016
 20
1.722417322834646
 30
0.0
 10
1.129437007874016
 20
1.722417322834646
 30
0.0
 10
1.129437007874016
 20
1.722417322834646
 30
0.0
 10
1.129437007874016
 20
1.722417322834646
 30
0.0
 10
0.4793267716535433
 20
2.097133858267717
 30
0.0
 10
0.4793267716535433
 20
2.097133858267717
 30
0.0
 10
0.4793267716535433
 20
2.097133858267717
 30
0.0
 10
0.4793267716535433
 20
2.097133858267717
 30
0.0
 10
0.4969370078740158
 20
2.15598031496063
 30
0.0
 10
0.4969370078740158
 20
2.15598031496063
 30
0.0
  0
SPLINE
  5
78
330
1F
100
AcDbEntity
  8
LAYER_1
 62
   253
100
AcDbSpline
210
0.0
220
0.0
230
1.0
 70
    11
 71
     3
 72
    20
 73
    16
 74
     0
 42
0.0000000001
 43
0.0000000001
 40
0.0
 40
0.0
 40
0.0
 40
0.0
 40
0.25
 40
0.25
 40
0.25
 40
0.25
 40
0.5
 40
0.5
 40
0.5
 40
0.5
 40
0.75
 40
0.75
 40
0.75
 40
0.75
 40
1.0
 40
1.0
 40
1.0
 40
1.0
 10
0.4793267716535433
 20
2.097133858267717
 30
0.0
 10
0.4793267716535433
 20
2.097133858267717
 30
0.0
 10
1.129437007874016
 20
1.722417322834646
 30
0.0
 10
1.129437007874016
 20
1.722417322834646
 30
0.0
 10
1.129437007874016
 20
1.722417322834646
 30
0.0
 10
1.129437007874016
 20
1.722417322834646
 30
0.0
 10
1.109511811023622
 20
1.664771653543307
 30
0.0
 10
1.109511811023622
 20
1.664771653543307
 30
0.0
 10
1.109511811023622
 20
1.664771653543307
 30
0.0
 10
1.109511811023622
 20
1.664771653543307
 30
0.0
 10
0.4594015748031496
 20
2.039488188976378
 30
0.0
 10
0.4594015748031496
 20
2.039488188976378
 30
0.0
 10
0.4594015748031496
 20
2.039488188976378
 30
0.0
 10
0.4594015748031496
 20
2.039488188976378
 30
0.0
 10
0.4793267716535433
 20
2.097133858267717
 30
0.0
 10
0.4793267716535433
 20
2.097133858267717
 30
0.0
  0
SPLINE
  5
79
330
1F
100
AcDbEntity
  8
LAYER_1
 62
   253
100
AcDbSpline
210
0.0
220
0.0
230
1.0
 70
    11
 71
     3
 72
    20
 73
    16
 74
     0
 42
0.0000000001
 43
0.0000000001
 40
0.0
 40
0.0
 40
0.0
 40
0.0
 40
0.25
 40
0.25
 40
0.25
 40
0.25
 40
0.5
 40
0.5
 40
0.5
 40
0.5
 40
0.75
 40
0.75
 40
0.75
 40
0.75
 40
1.0
 40
1.0
 40
1.0
 40
1.0
 10
0.4594015748031496
 20
2.039488188976378
 30
0.0
 10
0.4594015748031496
 20
2.039488188976378
 30
0.0
 10
1.109511811023622
 20
1.664771653543307
 30
0.0
 10
1.109511811023622
 20
1.664771653543307
 30
0.0
 10
1.109511811023622
 20
1.664771653543307
 30
0.0
 10
1.109511811023622
 20
1.664771653543307
 30
0.0
 10
1.087192913385827
 20
1.608385826771654
 30
0.0
 10
1.087192913385827
 20
1.608385826771654
 30
0.0
 10
1.087192913385827
 20
1.608385826771654
 30
0.0
 10
1.087192913385827
 20
1.608385826771654
 30
0.0
 10
0.4370826771653544
 20
1.983102362204725
 30
0.0
 10
0.4370826771653544
 20
1.983102362204725
 30
0.0
 10
0.4370826771653544
 20
1.983102362204725
 30
0.0
 10
0.4370826771653544
 20
1.983102362204725
 30
0.0
 10
0.4594015748031496
 20
2.039488188976378
 30
0.0
 10
0.4594015748031496
 20
2.039488188976378
 30
0.0
  0
SPLINE
  5
7A
330
1F
100
AcDbEntity
  8
LAYER_1
 62
   253
100
AcDbSpline
210
0.0
220
0.0
230
1.0
 70
    11
 71
     3
 72
    20
 73
    16
 74
     0
 42
0.0000000001
 43
0.0000000001
 40
0.0
 40
0.0
 40
0.0
 40
0.0
 40
0.25
 40
0.25
 40
0.25
 40
0.25
 40
0.5
 40
0.5
 40
0.5
 40
0.5
 40
0.75
 40
0.75
 40
0.75
 40
0.75
 40
1.0
 40
1.0
 40
1.0
 40
1.0
 10
0.4370826771653544
 20
1.983102362204725
 30
0.0
 10
0.4370826771653544
 20
1.983102362204725
 30
0.0
 10
1.087192913385827
 20
1.608385826771654
 30
0.0
 10
1.087192913385827
 20
1.608385826771654
 30
0.0
 10
1.087192913385827
 20
1.608385826771654
 30
0.0
 10
1.087192913385827
 20
1.608385826771654
 30
0.0
 10
1.062409448818898
 20
1.553299212598425
 30
0.0
 10
1.062409448818898
 20
1.553299212598425
 30
0.0
 10
1.062409448818898
 20
1.553299212598425
 30
0.0
 10
1.062409448818898
 20
1.553299212598425
 30
0.0
 10
0.4122992125984252
 20
1.928015748031496
 30
0.0
 10
0.4122992125984252
 20
1.928015748031496
 30
0.0
 10
0.4122992125984252
 20
1.928015748031496
 30
0.0
 10
0.4122992125984252
 20
1.928015748031496
 30
0.0
 10
0.4370826771653544
 20
1.983102362204725
 30
0.0
 10
0.4370826771653544
 20
1.983102362204725
 30
0.0
  0
SPLINE
  5
7B
330
1F
100
AcDbEntity
  8
LAYER_1
 62
   253
100
AcDbSpline
210
0.0
220
0.0
230
1.0
 70
    11
 71
     3
 72
    20
 73
    16
 74
     0
 42
0.0000000001
 43
0.0000000001
 40
0.0
 40
0.0
 40
0.0
 40
0.0
 40
0.25
 40
0.25
 40
0.25
 40
0.25
 40
0.5
 40
0.5
 40
0.5
 40
0.5
 40
0.75
 40
0.75
 40
0.75
 40
0.75
 40
1.0
 40
1.0
 40
1.0
 40
1.0
 10
0.4122992125984252
 20
1.928015748031496
 30
0.0
 10
0.4122992125984252
 20
1.928015748031496
 30
0.0
 10
1.062409448818898
 20
1.553299212598425
 30
0.0
 10
1.062409448818898
 20
1.553299212598425
 30
0.0
 10
1.062409448818898
 20
1.553299212598425
 30
0.0
 10
1.062409448818898
 20
1.553299212598425
 30
0.0
 10
1.035082677165354
 20
1.499574803149606
 30
0.0
 10
1.035082677165354
 20
1.499574803149606
 30
0.0
 10
1.035082677165354
 20
1.499574803149606
 30
0.0
 10
1.035082677165354
 20
1.499574803149606
 30
0.0
 10
0.3849724409448819
 20
1.874291338582677
 30
0.0
 10
0.3849724409448819
 20
1.874291338582677
 30
0.0
 10
0.3849724409448819
 20
1.874291338582677
 30
0.0
 10
0.3849724409448819
 20
1.874291338582677
 30
0.0
 10
0.4122992125984252
 20
1.928015748031496
 30
0.0
 10
0.4122992125984252
 20
1.928015748031496
 30
0.0
  0
SPLINE
  5
7C
330
1F
100
AcDbEntity
  8
LAYER_1
 62
   253
100
AcDbSpline
210
0.0
220
0.0
230
1.0
 70
    11
 71
     3
 72
    20
 73
    16
 74
     0
 42
0.0000000001
 43
0.0000000001
 40
0.0
 40
0.0
 40
0.0
 40
0.0
 40
0.25
 40
0.25
 40
0.25
 40
0.25
 40
0.5
 40
0.5
 40
0.5
 40
0.5
 40
0.75
 40
0.75
 40
0.75
 40
0.75
 40
1.0
 40
1.0
 40
1.0
 40
1.0
 10
0.3849724409448819
 20
1.874291338582677
 30
0.0
 10
0.3849724409448819
 20
1.874291338582677
 30
0.0
 10
1.035082677165354
 20
1.499574803149606
 30
0.0
 10
1.035082677165354
 20
1.499574803149606
 30
0.0
 10
1.035082677165354
 20
1.499574803149606
 30
0.0
 10
1.035082677165354
 20
1.499574803149606
 30
0.0
 10
1.005145669291339
 20
1.447244094488189
 30
0.0
 10
1.005145669291339
 20
1.447244094488189
 30
0.0
 10
1.005145669291339
 20
1.447244094488189
 30
0.0
 10
1.005145669291339
 20
1.447244094488189
 30
0.0
 10
0.3550354330708662
 20
1.82196062992126
 30
0.0
 10
0.3550354330708662
 20
1.82196062992126
 30
0.0
 10
0.3550354330708662
 20
1.82196062992126
 30
0.0
 10
0.3550354330708662
 20
1.82196062992126
 30
0.0
 10
0.3849724409448819
 20
1.874291338582677
 30
0.0
 10
0.3849724409448819
 20
1.874291338582677
 30
0.0
  0
SPLINE
  5
7D
330
1F
100
AcDbEntity
  8
LAYER_1
 62
   253
100
AcDbSpline
210
0.0
220
0.0
230
1.0
 70
    11
 71
     3
 72
    20
 73
    16
 74
     0
 42
0.0000000001
 43
0.0000000001
 40
0.0
 40
0.0
 40
0.0
 40
0.0
 40
0.25
 40
0.25
 40
0.25
 40
0.25
 40
0.5
 40
0.5
 40
0.5
 40
0.5
 40
0.75
 40
0.75
 40
0.75
 40
0.75
 40
1.0
 40
1.0
 40
1.0
 40
1.0
 10
0.3550354330708662
 20
1.82196062992126
 30
0.0
 10
0.3550354330708662
 20
1.82196062992126
 30
0.0
 10
1.005145669291339
 20
1.447244094488189
 30
0.0
 10
1.005145669291339
 20
1.447244094488189
 30
0.0
 10
1.005145669291339
 20
1.447244094488189
 30
0.0
 10
1.005145669291339
 20
1.447244094488189
 30
0.0
 10
0.9725275590551181
 20
1.396370078740158
 30
0.0
 10
0.9725275590551181
 20
1.396370078740158
 30
0.0
 10
0.9725275590551181
 20
1.396370078740158
 30
0.0
 10
0.9725275590551181
 20
1.396370078740158
 30
0.0
 10
0.3224173228346457
 20
1.771086614173228
 30
0.0
 10
0.3224173228346457
 20
1.771086614173228
 30
0.0
 10
0.3224173228346457
 20
1.771086614173228
 30
0.0
 10
0.3224173228346457
 20
1.771086614173228
 30
0.0
 10
0.3550354330708662
 20
1.82196062992126
 30
0.0
 10
0.3550354330708662
 20
1.82196062992126
 30
0.0
  0
SPLINE
  5
7E
330
1F
100
AcDbEntity
  8
LAYER_1
 62
   253
100
AcDbSpline
210
0.0
220
0.0
230
1.0
 70
    11
 71
     3
 72
    20
 73
    16
 74
     0
 42
0.0000000001
 43
0.0000000001
 40
0.0
 40
0.0
 40
0.0
 40
0.0
 40
0.25
 40
0.25
 40
0.25
 40
0.25
 40
0.5
 40
0.5
 40
0.5
 40
0.5
 40
0.75
 40
0.75
 40
0.75
 40
0.75
 40
1.0
 40
1.0
 40
1.0
 40
1.0
 10
0.3224173228346457
 20
1.771086614173228
 30
0.0
 10
0.3224173228346457
 20
1.771086614173228
 30
0.0
 10
0.9725275590551181
 20
1.396370078740158
 30
0.0
 10
0.9725275590551181
 20
1.396370078740158
 30
0.0
 10
0.9725275590551181
 20
1.396370078740158
 30
0.0
 10
0.9725275590551181
 20
1.396370078740158
 30
0.0
 10
0.9371574803149607
 20
1.346996062992126
 30
0.0
 10
0.9371574803149607
 20
1.346996062992126
 30
0.0
 10
0.9371574803149607
 20
1.346996062992126
 30
0.0
 10
0.9371574803149607
 20
1.346996062992126
 30
0.0
 10
0.2870472440944882
 20
1.721712598425197
 30
0.0
 10
0.2870472440944882
 20
1.721712598425197
 30
0.0
 10
0.2870472440944882
 20
1.721712598425197
 30
0.0
 10
0.2870472440944882
 20
1.721712598425197
 30
0.0
 10
0.3224173228346457
 20
1.771086614173228
 30
0.0
 10
0.3224173228346457
 20
1.771086614173228
 30
0.0
  0
SPLINE
  5
7F
330
1F
100
AcDbEntity
  8
LAYER_1
 62
   253
100
AcDbSpline
210
0.0
220
0.0
230
1.0
 70
    11
 71
     3
 72
    20
 73
    16
 74
     0
 42
0.0000000001
 43
0.0000000001
 40
0.0
 40
0.0
 40
0.0
 40
0.0
 40
0.25
 40
0.25
 40
0.25
 40
0.25
 40
0.5
 40
0.5
 40
0.5
 40
0.5
 40
0.75
 40
0.75
 40
0.75
 40
0.75
 40
1.0
 40
1.0
 40
1.0
 40
1.0
 10
0.2870472440944882
 20
1.721712598425197
 30
0.0
 10
0.2870472440944882
 20
1.721712598425197
 30
0.0
 10
0.9371574803149607
 20
1.346996062992126
 30
0.0
 10
0.9371574803149607
 20
1.346996062992126
 30
0.0
 10
0.9371574803149607
 20
1.346996062992126
 30
0.0
 10
0.9371574803149607
 20
1.346996062992126
 30
0.0
 10
0.8989488188976378
 20
1.299185039370079
 30
0.0
 10
0.8989488188976378
 20
1.299185039370079
 30
0.0
 10
0.8989488188976378
 20
1.299185039370079
 30
0.0
 10
0.8989488188976378
 20
1.299185039370079
 30
0.0
 10
0.2488385826771654
 20
1.67390157480315
 30
0.0
 10
0.2488385826771654
 20
1.67390157480315
 30
0.0
 10
0.2488385826771654
 20
1.67390157480315
 30
0.0
 10
0.2488385826771654
 20
1.67390157480315
 30
0.0
 10
0.2870472440944882
 20
1.721712598425197
 30
0.0
 10
0.2870472440944882
 20
1.721712598425197
 30
0.0
  0
SPLINE
  5
80
330
1F
100
AcDbEntity
  8
LAYER_1
 62
   253
100
AcDbSpline
210
0.0
220
0.0
230
1.0
 70
    11
 71
     3
 72
    20
 73
    16
 74
     0
 42
0.0000000001
 43
0.0000000001
 40
0.0
 40
0.0
 40
0.0
 40
0.0
 40
0.25
 40
0.25
 40
0.25
 40
0.25
 40
0.5
 40
0.5
 40
0.5
 40
0.5
 40
0.75
 40
0.75
 40
0.75
 40
0.75
 40
1.0
 40
1.0
 40
1.0
 40
1.0
 10
0.2488385826771654
 20
1.67390157480315
 30
0.0
 10
0.2488385826771654
 20
1.67390157480315
 30
0.0
 10
0.8989488188976378
 20
1.299185039370079
 30
0.0
 10
0.8989488188976378
 20
1.299185039370079
 30
0.0
 10
0.8989488188976378
 20
1.299185039370079
 30
0.0
 10
0.8989488188976378
 20
1.299185039370079
 30
0.0
 10
0.8578425196850394
 20
1.252976377952756
 30
0.0
 10
0.8578425196850394
 20
1.252976377952756
 30
0.0
 10
0.8578425196850394
 20
1.252976377952756
 30
0.0
 10
0.8578425196850394
 20
1.252976377952756
 30
0.0
 10
0.2077322834645669
 20
1.627692913385827
 30
0.0
 10
0.2077322834645669
 20
1.627692913385827
 30
0.0
 10
0.2077322834645669
 20
1.627692913385827
 30
0.0
 10
0.2077322834645669
 20
1.627692913385827
 30
0.0
 10
0.2488385826771654
 20
1.67390157480315
 30
0.0
 10
0.2488385826771654
 20
1.67390157480315
 30
0.0
  0
SPLINE
  5
81
330
1F
100
AcDbEntity
  8
LAYER_1
 62
   253
100
AcDbSpline
210
0.0
220
0.0
230
1.0
 70
    11
 71
     3
 72
    20
 73
    16
 74
     0
 42
0.0000000001
 43
0.0000000001
 40
0.0
 40
0.0
 40
0.0
 40
0.0
 40
0.25
 40
0.25
 40
0.25
 40
0.25
 40
0.5
 40
0.5
 40
0.5
 40
0.5
 40
0.75
 40
0.75
 40
0.75
 40
0.75
 40
1.0
 40
1.0
 40
1.0
 40
1.0
 10
0.2077322834645669
 20
1.627692913385827
 30
0.0
 10
0.2077322834645669
 20
1.627692913385827
 30
0.0
 10
0.8578425196850394
 20
1.252976377952756
 30
0.0
 10
0.8578425196850394
 20
1.252976377952756
 30
0.0
 10
0.8578425196850394
 20
1.252976377952756
 30
0.0
 10
0.8578425196850394
 20
1.252976377952756
 30
0.0
 10
0.813759842519685
 20
1.20842125984252
 30
0.0
 10
0.813759842519685
 20
1.20842125984252
 30
0.0
 10
0.813759842519685
 20
1.20842125984252
 30
0.0
 10
0.813759842519685
 20
1.20842125984252
 30
0.0
 10
0.1636496062992126
 20
1.583137795275591
 30
0.0
 10
0.1636496062992126
 20
1.583137795275591
 30
0.0
 10
0.1636496062992126
 20
1.583137795275591
 30
0.0
 10
0.1636496062992126
 20
1.583137795275591
 30
0.0
 10
0.2077322834645669
 20
1.627692913385827
 30
0.0
 10
0.2077322834645669
 20
1.627692913385827
 30
0.0
  0
SPLINE
  5
82
330
1F
100
AcDbEntity
  8
LAYER_1
 62
   253
100
AcDbSpline
210
0.0
220
0.0
230
1.0
 70
    11
 71
     3
 72
    20
 73
    16
 74
     0
 42
0.0000000001
 43
0.0000000001
 40
0.0
 40
0.0
 40
0.0
 40
0.0
 40
0.25
 40
0.25
 40
0.25
 40
0.25
 40
0.5
 40
0.5
 40
0.5
 40
0.5
 40
0.75
 40
0.75
 40
0.75
 40
0.75
 40
1.0
 40
1.0
 40
1.0
 40
1.0
 10
0.1636496062992126
 20
1.583137795275591
 30
0.0
 10
0.1636496062992126
 20
1.583137795275591
 30
0.0
 10
0.813759842519685
 20
1.20842125984252
 30
0.0
 10
0.813759842519685
 20
1.20842125984252
 30
0.0
 10
0.813759842519685
 20
1.20842125984252
 30
0.0
 10
0.813759842519685
 20
1.20842125984252
 30
0.0
 10
0.7666338582677166
 20
1.16555905511811
 30
0.0
 10
0.7666338582677166
 20
1.16555905511811
 30
0.0
 10
0.7666338582677166
 20
1.16555905511811
 30
0.0
 10
0.7666338582677166
 20
1.16555905511811
 30
0.0
 10
0.1165236220472441
 20
1.540275590551181
 30
0.0
 10
0.1165236220472441
 20
1.540275590551181
 30
0.0
 10
0.1165236220472441
 20
1.540275590551181
 30
0.0
 10
0.1165236220472441
 20
1.540275590551181
 30
0.0
 10
0.1636496062992126
 20
1.583137795275591
 30
0.0
 10
0.1636496062992126
 20
1.583137795275591
 30
0.0
  0
SPLINE
  5
83
330
1F
100
AcDbEntity
  8
LAYER_1
 62
   253
100
AcDbSpline
210
0.0
220
0.0
230
1.0
 70
    11
 71
     3
 72
    20
 73
    16
 74
     0
 42
0.0000000001
 43
0.0000000001
 40
0.0
 40
0.0
 40
0.0
 40
0.0
 40
0.25
 40
0.25
 40
0.25
 40
0.25
 40
0.5
 40
0.5
 40
0.5
 40
0.5
 40
0.75
 40
0.75
 40
0.75
 40
0.75
 40
1.0
 40
1.0
 40
1.0
 40
1.0
 10
0.1165236220472441
 20
1.540275590551181
 30
0.0
 10
0.1165236220472441
 20
1.540275590551181
 30
0.0
 10
0.7666338582677166
 20
1.16555905511811
 30
0.0
 10
0.7666338582677166
 20
1.16555905511811
 30
0.0
 10
0.7666338582677166
 20
1.16555905511811
 30
0.0
 10
0.7666338582677166
 20
1.16555905511811
 30
0.0
 10
0.7163818897637796
 20
1.12446062992126
 30
0.0
 10
0.7163818897637796
 20
1.12446062992126
 30
0.0
 10
0.7163818897637796
 20
1.12446062992126
 30
0.0
 10
0.7163818897637796
 20
1.12446062992126
 30
0.0
 10
0.0662716535433071
 20
1.499177165354331
 30
0.0
 10
0.0662716535433071
 20
1.499177165354331
 30
0.0
 10
0.0662716535433071
 20
1.499177165354331
 30
0.0
 10
0.0662716535433071
 20
1.499177165354331
 30
0.0
 10
0.1165236220472441
 20
1.540275590551181
 30
0.0
 10
0.1165236220472441
 20
1.540275590551181
 30
0.0
  0
SPLINE
  5
84
330
1F
100
AcDbEntity
  8
LAYER_1
 62
   253
100
AcDbSpline
210
0.0
220
0.0
230
1.0
 70
    11
 71
     3
 72
    20
 73
    16
 74
     0
 42
0.0000000001
 43
0.0000000001
 40
0.0
 40
0.0
 40
0.0
 40
0.0
 40
0.25
 40
0.25
 40
0.25
 40
0.25
 40
0.5
 40
0.5
 40
0.5
 40
0.5
 40
0.75
 40
0.75
 40
0.75
 40
0.75
 40
1.0
 40
1.0
 40
1.0
 40
1.0
 10
0.0662716535433071
 20
1.499177165354331
 30
0.0
 10
0.0662716535433071
 20
1.499177165354331
 30
0.0
 10
0.7163818897637796
 20
1.12446062992126
 30
0.0
 10
0.7163818897637796
 20
1.12446062992126
 30
0.0
 10
0.7163818897637796
 20
1.12446062992126
 30
0.0
 10
0.7163818897637796
 20
1.12446062992126
 30
0.0
 10
0.6629448818897639
 20
1.085157480314961
 30
0.0
 10
0.6629448818897639
 20
1.085157480314961
 30
0.0
 10
0.6629448818897639
 20
1.085157480314961
 30
0.0
 10
0.6629448818897639
 20
1.085157480314961
 30
0.0
 10
0.0128346456692913
 20
1.459874015748032
 30
0.0
 10
0.0128346456692913
 20
1.459874015748032
 30
0.0
 10
0.0128346456692913
 20
1.459874015748032
 30
0.0
 10
0.0128346456692913
 20
1.459874015748032
 30
0.0
 10
0.0662716535433071
 20
1.499177165354331
 30
0.0
 10
0.0662716535433071
 20
1.499177165354331
 30
0.0
  0
SPLINE
  5
85
330
1F
100
AcDbEntity
  8
LAYER_1
 62
   253
100
AcDbSpline
210
0.0
220
0.0
230
1.0
 70
    11
 71
     3
 72
    20
 73
    16
 74
     0
 42
0.0000000001
 43
0.0000000001
 40
0.0
 40
0.0
 40
0.0
 40
0.0
 40
0.25
 40
0.25
 40
0.25
 40
0.25
 40
0.5
 40
0.5
 40
0.5
 40
0.5
 40
0.75
 40
0.75
 40
0.75
 40
0.75
 40
1.0
 40
1.0
 40
1.0
 40
1.0
 10
0.0128346456692913
 20
1.459874015748032
 30
0.0
 10
0.0128346456692913
 20
1.459874015748032
 30
0.0
 10
0.6629448818897639
 20
1.085157480314961
 30
0.0
 10
0.6629448818897639
 20
1.085157480314961
 30
0.0
 10
0.6629448818897639
 20
1.085157480314961
 30
0.0
 10
0.6629448818897639
 20
1.085157480314961
 30
0.0
 10
0.606240157480315
 20
1.047708661417323
 30
0.0
 10
0.606240157480315
 20
1.047708661417323
 30
0.0
 10
0.606240157480315
 20
1.047708661417323
 30
0.0
 10
0.606240157480315
 20
1.047708661417323
 30
0.0
 10
-0.0438700787401575
 20
1.422425196850394
 30
0.0
 10
-0.0438700787401575
 20
1.422425196850394
 30
0.0
 10
-0.0438700787401575
 20
1.422425196850394
 30
0.0
 10
-0.0438700787401575
 20
1.422425196850394
 30
0.0
 10
0.0128346456692913
 20
1.459874015748032
 30
0.0
 10
0.0128346456692913
 20
1.459874015748032
 30
0.0
  0
SPLINE
  5
86
330
1F
100
AcDbEntity
  8
LAYER_1
 62
   253
100
AcDbSpline
210
0.0
220
0.0
230
1.0
 70
    11
 71
     3
 72
    20
 73
    16
 74
     0
 42
0.0000000001
 43
0.0000000001
 40
0.0
 40
0.0
 40
0.0
 40
0.0
 40
0.25
 40
0.25
 40
0.25
 40
0.25
 40
0.5
 40
0.5
 40
0.5
 40
0.5
 40
0.75
 40
0.75
 40
0.75
 40
0.75
 40
1.0
 40
1.0
 40
1.0
 40
1.0
 10
-0.0438700787401575
 20
1.422425196850394
 30
0.0
 10
-0.0438700787401575
 20
1.422425196850394
 30
0.0
 10
0.606240157480315
 20
1.047708661417323
 30
0.0
 10
0.606240157480315
 20
1.047708661417323
 30
0.0
 10
0.606240157480315
 20
1.047708661417323
 30
0.0
 10
0.606240157480315
 20
1.047708661417323
 30
0.0
 10
0.5462007874015749
 20
1.012153543307087
 30
0.0
 10
0.5462007874015749
 20
1.012153543307087
 30
0.0
 10
0.5462007874015749
 20
1.012153543307087
 30
0.0
 10
0.5462007874015749
 20
1.012153543307087
 30
0.0
 10
-0.1039094488188977
 20
1.386870078740158
 30
0.0
 10
-0.1039094488188977
 20
1.386870078740158
 30
0.0
 10
-0.1039094488188977
 20
1.386870078740158
 30
0.0
 10
-0.1039094488188977
 20
1.386870078740158
 30
0.0
 10
-0.0438700787401575
 20
1.422425196850394
 30
0.0
 10
-0.0438700787401575
 20
1.422425196850394
 30
0.0
  0
SPLINE
  5
87
330
1F
100
AcDbEntity
  8
LAYER_1
 62
   253
100
AcDbSpline
210
0.0
220
0.0
230
1.0
 70
    11
 71
     3
 72
    20
 73
    16
 74
     0
 42
0.0000000001
 43
0.0000000001
 40
0.0
 40
0.0
 40
0.0
 40
0.0
 40
0.25
 40
0.25
 40
0.25
 40
0.25
 40
0.5
 40
0.5
 40
0.5
 40
0.5
 40
0.75
 40
0.75
 40
0.75
 40
0.75
 40
1.0
 40
1.0
 40
1.0
 40
1.0
 10
-0.1039094488188977
 20
1.386870078740158
 30
0.0
 10
-0.1039094488188977
 20
1.386870078740158
 30
0.0
 10
0.5462007874015749
 20
1.012153543307087
 30
0.0
 10
0.5462007874015749
 20
1.012153543307087
 30
0.0
 10
0.5462007874015749
 20
1.012153543307087
 30
0.0
 10
0.5462007874015749
 20
1.012153543307087
 30
0.0
 10
0.482744094488189
 20
0.9785629921259843
 30
0.0
 10
0.482744094488189
 20
0.9785629921259843
 30
0.0
 10
0.482744094488189
 20
0.9785629921259843
 30
0.0
 10
0.482744094488189
 20
0.9785629921259843
 30
0.0
 10
-0.1673661417322835
 20
1.353279527559055
 30
0.0
 10
-0.1673661417322835
 20
1.353279527559055
 30
0.0
 10
-0.1673661417322835
 20
1.353279527559055
 30
0.0
 10
-0.1673661417322835
 20
1.353279527559055
 30
0.0
 10
-0.1039094488188977
 20
1.386870078740158
 30
0.0
 10
-0.1039094488188977
 20
1.386870078740158
 30
0.0
  0
SPLINE
  5
88
330
1F
100
AcDbEntity
  8
LAYER_1
 62
   253
100
AcDbSpline
210
0.0
220
0.0
230
1.0
 70
    11
 71
     3
 72
    20
 73
    16
 74
     0
 42
0.0000000001
 43
0.0000000001
 40
0.0
 40
0.0
 40
0.0
 40
0.0
 40
0.25
 40
0.25
 40
0.25
 40
0.25
 40
0.5
 40
0.5
 40
0.5
 40
0.5
 40
0.75
 40
0.75
 40
0.75
 40
0.75
 40
1.0
 40
1.0
 40
1.0
 40
1.0
 10
-0.1673661417322835
 20
1.353279527559055
 30
0.0
 10
-0.1673661417322835
 20
1.353279527559055
 30
0.0
 10
0.482744094488189
 20
0.9785629921259843
 30
0.0
 10
0.482744094488189
 20
0.9785629921259843
 30
0.0
 10
0.482744094488189
 20
0.9785629921259843
 30
0.0
 10
0.482744094488189
 20
0.9785629921259843
 30
0.0
 10
0.4158110236220473
 20
0.9469645669291339
 30
0.0
 10
0.4158110236220473
 20
0.9469645669291339
 30
0.0
 10
0.4158110236220473
 20
0.9469645669291339
 30
0.0
 10
0.4158110236220473
 20
0.9469645669291339
 30
0.0
 10
-0.2342992125984252
 20
1.321681102362205
 30
0.0
 10
-0.2342992125984252
 20
1.321681102362205
 30
0.0
 10
-0.2342992125984252
 20
1.321681102362205
 30
0.0
 10
-0.2342992125984252
 20
1.321681102362205
 30
0.0
 10
-0.1673661417322835
 20
1.353279527559055
 30
0.0
 10
-0.1673661417322835
 20
1.353279527559055
 30
0.0
  0
SPLINE
  5
89
330
1F
100
AcDbEntity
  8
LAYER_1
 62
   253
100
AcDbSpline
210
0.0
220
0.0
230
1.0
 70
    11
 71
     3
 72
    20
 73
    16
 74
     0
 42
0.0000000001
 43
0.0000000001
 40
0.0
 40
0.0
 40
0.0
 40
0.0
 40
0.25
 40
0.25
 40
0.25
 40
0.25
 40
0.5
 40
0.5
 40
0.5
 40
0.5
 40
0.75
 40
0.75
 40
0.75
 40
0.75
 40
1.0
 40
1.0
 40
1.0
 40
1.0
 10
-0.2342992125984252
 20
1.321681102362205
 30
0.0
 10
-0.2342992125984252
 20
1.321681102362205
 30
0.0
 10
0.4158110236220473
 20
0.9469645669291339
 30
0.0
 10
0.4158110236220473
 20
0.9469645669291339
 30
0.0
 10
0.4158110236220473
 20
0.9469645669291339
 30
0.0
 10
0.4158110236220473
 20
0.9469645669291339
 30
0.0
 10
0.3453188976377953
 20
0.9174212598425198
 30
0.0
 10
0.3453188976377953
 20
0.9174212598425198
 30
0.0
 10
0.3453188976377953
 20
0.9174212598425198
 30
0.0
 10
0.3453188976377953
 20
0.9174212598425198
 30
0.0
 10
-0.3047913385826772
 20
1.292137795275591
 30
0.0
 10
-0.3047913385826772
 20
1.292137795275591
 30
0.0
 10
-0.3047913385826772
 20
1.292137795275591
 30
0.0
 10
-0.3047913385826772
 20
1.292137795275591
 30
0.0
 10
-0.2342992125984252
 20
1.321681102362205
 30
0.0
 10
-0.2342992125984252
 20
1.321681102362205
 30
0.0
  0
SPLINE
  5
8A
330
1F
100
AcDbEntity
  8
LAYER_1
 62
   253
100
AcDbSpline
210
0.0
220
0.0
230
1.0
 70
    11
 71
     3
 72
    20
 73
    16
 74
     0
 42
0.0000000001
 43
0.0000000001
 40
0.0
 40
0.0
 40
0.0
 40
0.0
 40
0.25
 40
0.25
 40
0.25
 40
0.25
 40
0.5
 40
0.5
 40
0.5
 40
0.5
 40
0.75
 40
0.75
 40
0.75
 40
0.75
 40
1.0
 40
1.0
 40
1.0
 40
1.0
 10
-0.3047913385826772
 20
1.292137795275591
 30
0.0
 10
-0.3047913385826772
 20
1.292137795275591
 30
0.0
 10
0.3453188976377953
 20
0.9174212598425198
 30
0.0
 10
0.3453188976377953
 20
0.9174212598425198
 30
0.0
 10
0.3453188976377953
 20
0.9174212598425198
 30
0.0
 10
0.3453188976377953
 20
0.9174212598425198
 30
0.0
 10
0.2712047244094488
 20
0.8899724409448819
 30
0.0
 10
0.2712047244094488
 20
0.8899724409448819
 30
0.0
 10
0.2712047244094488
 20
0.8899724409448819
 30
0.0
 10
0.2712047244094488
 20
0.8899724409448819
 30
0.0
 10
-0.3789055118110236
 20
1.264688976377953
 30
0.0
 10
-0.3789055118110236
 20
1.264688976377953
 30
0.0
 10
-0.3789055118110236
 20
1.264688976377953
 30
0.0
 10
-0.3789055118110236
 20
1.264688976377953
 30
0.0
 10
-0.3047913385826772
 20
1.292137795275591
 30
0.0
 10
-0.3047913385826772
 20
1.292137795275591
 30
0.0
  0
SPLINE
  5
8B
330
1F
100
AcDbEntity
  8
LAYER_1
 62
   253
100
AcDbSpline
210
0.0
220
0.0
230
1.0
 70
    11
 71
     3
 72
    20
 73
    16
 74
     0
 42
0.0000000001
 43
0.0000000001
 40
0.0
 40
0.0
 40
0.0
 40
0.0
 40
0.25
 40
0.25
 40
0.25
 40
0.25
 40
0.5
 40
0.5
 40
0.5
 40
0.5
 40
0.75
 40
0.75
 40
0.75
 40
0.75
 40
1.0
 40
1.0
 40
1.0
 40
1.0
 10
-0.3789055118110236
 20
1.264688976377953
 30
0.0
 10
-0.3789055118110236
 20
1.264688976377953
 30
0.0
 10
0.2712047244094488
 20
0.8899724409448819
 30
0.0
 10
0.2712047244094488
 20
0.8899724409448819
 30
0.0
 10
0.2712047244094488
 20
0.8899724409448819
 30
0.0
 10
0.2712047244094488
 20
0.8899724409448819
 30
0.0
 10
0.1933818897637795
 20
0.8646811023622048
 30
0.0
 10
0.1933818897637795
 20
0.8646811023622048
 30
0.0
 10
0.1933818897637795
 20
0.8646811023622048
 30
0.0
 10
0.1933818897637795
 20
0.8646811023622048
 30
0.0
 10
-0.4567283464566929
 20
1.239397637795276
 30
0.0
 10
-0.4567283464566929
 20
1.239397637795276
 30
0.0
 10
-0.4567283464566929
 20
1.239397637795276
 30
0.0
 10
-0.4567283464566929
 20
1.239397637795276
 30
0.0
 10
-0.3789055118110236
 20
1.264688976377953
 30
0.0
 10
-0.3789055118110236
 20
1.264688976377953
 30
0.0
  0
SPLINE
  5
8C
330
1F
100
AcDbEntity
  8
LAYER_1
 62
   253
100
AcDbSpline
210
0.0
220
0.0
230
1.0
 70
    11
 71
     3
 72
    20
 73
    16
 74
     0
 42
0.0000000001
 43
0.0000000001
 40
0.0
 40
0.0
 40
0.0
 40
0.0
 40
0.25
 40
0.25
 40
0.25
 40
0.25
 40
0.5
 40
0.5
 40
0.5
 40
0.5
 40
0.75
 40
0.75
 40
0.75
 40
0.75
 40
1.0
 40
1.0
 40
1.0
 40
1.0
 10
-0.4567283464566929
 20
1.239397637795276
 30
0.0
 10
-0.4567283464566929
 20
1.239397637795276
 30
0.0
 10
0.1933818897637795
 20
0.8646811023622048
 30
0.0
 10
0.1933818897637795
 20
0.8646811023622048
 30
0.0
 10
0.1933818897637795
 20
0.8646811023622048
 30
0.0
 10
0.1933818897637795
 20
0.8646811023622048
 30
0.0
 10
0.1117913385826772
 20
0.8415826771653544
 30
0.0
 10
0.1117913385826772
 20
0.8415826771653544
 30
0.0
 10
0.1117913385826772
 20
0.8415826771653544
 30
0.0
 10
0.1117913385826772
 20
0.8415826771653544
 30
0.0
 10
-0.5383188976377953
 20
1.216299212598425
 30
0.0
 10
-0.5383188976377953
 20
1.216299212598425
 30
0.0
 10
-0.5383188976377953
 20
1.216299212598425
 30
0.0
 10
-0.5383188976377953
 20
1.216299212598425
 30
0.0
 10
-0.4567283464566929
 20
1.239397637795276
 30
0.0
 10
-0.4567283464566929
 20
1.239397637795276
 30
0.0
  0
SPLINE
  5
8D
330
1F
100
AcDbEntity
  8
LAYER_1
 62
   253
100
AcDbSpline
210
0.0
220
0.0
230
1.0
 70
    11
 71
     3
 72
    20
 73
    16
 74
     0
 42
0.0000000001
 43
0.0000000001
 40
0.0
 40
0.0
 40
0.0
 40
0.0
 40
0.25
 40
0.25
 40
0.25
 40
0.25
 40
0.5
 40
0.5
 40
0.5
 40
0.5
 40
0.75
 40
0.75
 40
0.75
 40
0.75
 40
1.0
 40
1.0
 40
1.0
 40
1.0
 10
-0.5383188976377953
 20
1.216299212598425
 30
0.0
 10
-0.5383188976377953
 20
1.216299212598425
 30
0.0
 10
0.1117913385826772
 20
0.8415826771653544
 30
0.0
 10
0.1117913385826772
 20
0.8415826771653544
 30
0.0
 10
0.1117913385826772
 20
0.8415826771653544
 30
0.0
 10
0.1117913385826772
 20
0.8415826771653544
 30
0.0
 10
0.0263543307086614
 20
0.820740157480315
 30
0.0
 10
0.0263543307086614
 20
0.820740157480315
 30
0.0
 10
0.0263543307086614
 20
0.820740157480315
 30
0.0
 10
0.0263543307086614
 20
0.820740157480315
 30
0.0
 10
-0.623755905511811
 20
1.195456692913386
 30
0.0
 10
-0.623755905511811
 20
1.195456692913386
 30
0.0
 10
-0.623755905511811
 20
1.195456692913386
 30
0.0
 10
-0.623755905511811
 20
1.195456692913386
 30
0.0
 10
-0.5383188976377953
 20
1.216299212598425
 30
0.0
 10
-0.5383188976377953
 20
1.216299212598425
 30
0.0
  0
SPLINE
  5
8E
330
1F
100
AcDbEntity
  8
LAYER_1
 62
   253
100
AcDbSpline
210
0.0
220
0.0
230
1.0
 70
    11
 71
     3
 72
    20
 73
    16
 74
     0
 42
0.0000000001
 43
0.0000000001
 40
0.0
 40
0.0
 40
0.0
 40
0.0
 40
0.25
 40
0.25
 40
0.25
 40
0.25
 40
0.5
 40
0.5
 40
0.5
 40
0.5
 40
0.75
 40
0.75
 40
0.75
 40
0.75
 40
1.0
 40
1.0
 40
1.0
 40
1.0
 10
-0.623755905511811
 20
1.195456692913386
 30
0.0
 10
-0.623755905511811
 20
1.195456692913386
 30
0.0
 10
0.0263543307086614
 20
0.820740157480315
 30
0.0
 10
0.0263543307086614
 20
0.820740157480315
 30
0.0
 10
0.0263543307086614
 20
0.820740157480315
 30
0.0
 10
0.0263543307086614
 20
0.820740157480315
 30
0.0
 10
-0.062996062992126
 20
0.8021889763779528
 30
0.0
 10
-0.062996062992126
 20
0.8021889763779528
 30
0.0
 10
-0.062996062992126
 20
0.8021889763779528
 30
0.0
 10
-0.062996062992126
 20
0.8021889763779528
 30
0.0
 10
-0.7131062992125985
 20
1.176905511811024
 30
0.0
 10
-0.7131062992125985
 20
1.176905511811024
 30
0.0
 10
-0.7131062992125985
 20
1.176905511811024
 30
0.0
 10
-0.7131062992125985
 20
1.176905511811024
 30
0.0
 10
-0.623755905511811
 20
1.195456692913386
 30
0.0
 10
-0.623755905511811
 20
1.195456692913386
 30
0.0
  0
SPLINE
  5
8F
330
1F
100
AcDbEntity
  8
LAYER_1
 62
   250
100
AcDbSpline
210
0.0
220
0.0
230
1.0
 70
    11
 71
     3
 72
   268
 73
   264
 74
     0
 42
0.0000000001
 43
0.0000000001
 40
0.0
 40
0.0
 40
0.0
 40
0.0
 40
0.0151515151515152
 40
0.0151515151515152
 40
0.0151515151515152
 40
0.0151515151515152
 40
0.0303030303030303
 40
0.0303030303030303
 40
0.0303030303030303
 40
0.0303030303030303
 40
0.0454545454545455
 40
0.0454545454545455
 40
0.0454545454545455
 40
0.0454545454545455
 40
0.0606060606060606
 40
0.0606060606060606
 40
0.0606060606060606
 40
0.0606060606060606
 40
0.0757575757575758
 40
0.0757575757575758
 40
0.0757575757575758
 40
0.0757575757575758
 40
0.0909090909090909
 40
0.0909090909090909
 40
0.0909090909090909
 40
0.0909090909090909
 40
0.1060606060606061
 40
0.1060606060606061
 40
0.1060606060606061
 40
0.1060606060606061
 40
0.1212121212121212
 40
0.1212121212121212
 40
0.1212121212121212
 40
0.1212121212121212
 40
0.1363636363636364
 40
0.1363636363636364
 40
0.1363636363636364
 40
0.1363636363636364
 40
0.1515151515151515
 40
0.1515151515151515
 40
0.1515151515151515
 40
0.1515151515151515
 40
0.1666666666666666
 40
0.1666666666666666
 40
0.1666666666666666
 40
0.1666666666666666
 40
0.1818181818181818
 40
0.1818181818181818
 40
0.1818181818181818
 40
0.1818181818181818
 40
0.1969696969696969
 40
0.1969696969696969
 40
0.1969696969696969
 40
0.1969696969696969
 40
0.212121212121212
 40
0.212121212121212
 40
0.212121212121212
 40
0.212121212121212
 40
0.2272727272727272
 40
0.2272727272727272
 40
0.2272727272727272
 40
0.2272727272727272
 40
0.2424242424242423
 40
0.2424242424242423
 40
0.2424242424242423
 40
0.2424242424242423
 40
0.2575757575757575
 40
0.2575757575757575
 40
0.2575757575757575
 40
0.2575757575757575
 40
0.2727272727272726
 40
0.2727272727272726
 40
0.2727272727272726
 40
0.2727272727272726
 40
0.2878787878787877
 40
0.2878787878787877
 40
0.2878787878787877
 40
0.2878787878787877
 40
0.3030303030303029
 40
0.3030303030303029
 40
0.3030303030303029
 40
0.3030303030303029
 40
0.318181818181818
 40
0.318181818181818
 40
0.318181818181818
 40
0.318181818181818
 40
0.3333333333333332
 40
0.3333333333333332
 40
0.3333333333333332
 40
0.3333333333333332
 40
0.3484848484848483
 40
0.3484848484848483
 40
0.3484848484848483
 40
0.3484848484848483
 40
0.3636363636363634
 40
0.3636363636363634
 40
0.3636363636363634
 40
0.3636363636363634
 40
0.3787878787878786
 40
0.3787878787878786
 40
0.3787878787878786
 40
0.3787878787878786
 40
0.3939393939393937
 40
0.3939393939393937
 40
0.3939393939393937
 40
0.3939393939393937
 40
0.4090909090909088
 40
0.4090909090909088
 40
0.4090909090909088
 40
0.4090909090909088
 40
0.424242424242424
 40
0.424242424242424
 40
0.424242424242424
 40
0.424242424242424
 40
0.4393939393939391
 40
0.4393939393939391
 40
0.4393939393939391
 40
0.4393939393939391
 40
0.4545454545454543
 40
0.4545454545454543
 40
0.4545454545454543
 40
0.4545454545454543
 40
0.4696969696969694
 40
0.4696969696969694
 40
0.4696969696969694
 40
0.4696969696969694
 40
0.4848484848484845
 40
0.4848484848484845
 40
0.4848484848484845
 40
0.4848484848484845
 40
0.4999999999999997
 40
0.4999999999999997
 40
0.4999999999999997
 40
0.4999999999999997
 40
0.5151515151515148
 40
0.5151515151515148
 40
0.5151515151515148
 40
0.5151515151515148
 40
0.5303030303030299
 40
0.5303030303030299
 40
0.5303030303030299
 40
0.5303030303030299
 40
0.5454545454545451
 40
0.5454545454545451
 40
0.5454545454545451
 40
0.5454545454545451
 40
0.5606060606060602
 40
0.5606060606060602
 40
0.5606060606060602
 40
0.5606060606060602
 40
0.5757575757575754
 40
0.5757575757575754
 40
0.5757575757575754
 40
0.5757575757575754
 40
0.5909090909090905
 40
0.5909090909090905
 40
0.5909090909090905
 40
0.5909090909090905
 40
0.6060606060606056
 40
0.6060606060606056
 40
0.6060606060606056
 40
0.6060606060606056
 40
0.6212121212121208
 40
0.6212121212121208
 40
0.6212121212121208
 40
0.6212121212121208
 40
0.6363636363636359
 40
0.6363636363636359
 40
0.6363636363636359
 40
0.6363636363636359
 40
0.6515151515151511
 40
0.6515151515151511
 40
0.6515151515151511
 40
0.6515151515151511
 40
0.6666666666666662
 40
0.6666666666666662
 40
0.6666666666666662
 40
0.6666666666666662
 40
0.6818181818181813
 40
0.6818181818181813
 40
0.6818181818181813
 40
0.6818181818181813
 40
0.6969696969696965
 40
0.6969696969696965
 40
0.6969696969696965
 40
0.6969696969696965
 40
0.7121212121212116
 40
0.7121212121212116
 40
0.7121212121212116
 40
0.7121212121212116
 40
0.7272727272727267
 40
0.7272727272727267
 40
0.7272727272727267
 40
0.7272727272727267
 40
0.7424242424242419
 40
0.7424242424242419
 40
0.7424242424242419
 40
0.7424242424242419
 40
0.757575757575757
 40
0.757575757575757
 40
0.757575757575757
 40
0.757575757575757
 40
0.7727272727272722
 40
0.7727272727272722
 40
0.7727272727272722
 40
0.7727272727272722
 40
0.7878787878787873
 40
0.7878787878787873
 40
0.7878787878787873
 40
0.7878787878787873
 40
0.8030303030303024
 40
0.8030303030303024
 40
0.8030303030303024
 40
0.8030303030303024
 40
0.8181818181818176
 40
0.8181818181818176
 40
0.8181818181818176
 40
0.8181818181818176
 40
0.8333333333333327
 40
0.8333333333333327
 40
0.8333333333333327
 40
0.8333333333333327
 40
0.8484848484848478
 40
0.8484848484848478
 40
0.8484848484848478
 40
0.8484848484848478
 40
0.863636363636363
 40
0.863636363636363
 40
0.863636363636363
 40
0.863636363636363
 40
0.8787878787878781
 40
0.8787878787878781
 40
0.8787878787878781
 40
0.8787878787878781
 40
0.8939393939393933
 40
0.8939393939393933
 40
0.8939393939393933
 40
0.8939393939393933
 40
0.9090909090909084
 40
0.9090909090909084
 40
0.9090909090909084
 40
0.9090909090909084
 40
0.9242424242424235
 40
0.9242424242424235
 40
0.9242424242424235
 40
0.9242424242424235
 40
0.9393939393939387
 40
0.9393939393939387
 40
0.9393939393939387
 40
0.9393939393939387
 40
0.9545454545454538
 40
0.9545454545454538
 40
0.9545454545454538
 40
0.9545454545454538
 40
0.969696969696969
 40
0.969696969696969
 40
0.969696969696969
 40
0.969696969696969
 40
0.9848484848484841
 40
0.9848484848484841
 40
0.9848484848484841
 40
0.9848484848484841
 40
1.0
 40
1.0
 40
1.0
 40
1.0
 10
0.5629566929133859
 20
2.664208661417323
 30
0.0
 10
0.5629566929133859
 20
2.664208661417323
 30
0.0
 10
1.213066929133858
 20
2.289492125984252
 30
0.0
 10
1.213066929133858
 20
2.289492125984252
 30
0.0
 10
1.213066929133858
 20
2.289492125984252
 30
0.0
 10
1.213066929133858
 20
2.289492125984252
 30
0.0
 10
1.211409448818898
 20
2.222783464566929
 30
0.0
 10
1.211409448818898
 20
2.222783464566929
 30
0.0
 10
1.211409448818898
 20
2.222783464566929
 30
0.0
 10
1.211409448818898
 20
2.222783464566929
 30
0.0
 10
1.208011811023622
 20
2.156889763779528
 30
0.0
 10
1.208011811023622
 20
2.156889763779528
 30
0.0
 10
1.208011811023622
 20
2.156889763779528
 30
0.0
 10
1.208011811023622
 20
2.156889763779528
 30
0.0
 10
1.202803149606299
 20
2.091850393700788
 30
0.0
 10
1.202803149606299
 20
2.091850393700788
 30
0.0
 10
1.202803149606299
 20
2.091850393700788
 30
0.0
 10
1.202803149606299
 20
2.091850393700788
 30
0.0
 10
1.195716535433071
 20
2.027724409448819
 30
0.0
 10
1.195716535433071
 20
2.027724409448819
 30
0.0
 10
1.195716535433071
 20
2.027724409448819
 30
0.0
 10
1.195716535433071
 20
2.027724409448819
 30
0.0
 10
1.186665354330709
 20
1.964551181102362
 30
0.0
 10
1.186665354330709
 20
1.964551181102362
 30
0.0
 10
1.186665354330709
 20
1.964551181102362
 30
0.0
 10
1.186665354330709
 20
1.964551181102362
 30
0.0
 10
1.175586614173228
 20
1.90238188976378
 30
0.0
 10
1.175586614173228
 20
1.90238188976378
 30
0.0
 10
1.175586614173228
 20
1.90238188976378
 30
0.0
 10
1.175586614173228
 20
1.90238188976378
 30
0.0
 10
1.16240157480315
 20
1.841271653543307
 30
0.0
 10
1.16240157480315
 20
1.841271653543307
 30
0.0
 10
1.16240157480315
 20
1.841271653543307
 30
0.0
 10
1.16240157480315
 20
1.841271653543307
 30
0.0
 10
1.147047244094488
 20
1.781263779527559
 30
0.0
 10
1.147047244094488
 20
1.781263779527559
 30
0.0
 10
1.147047244094488
 20
1.781263779527559
 30
0.0
 10
1.147047244094488
 20
1.781263779527559
 30
0.0
 10
1.129437007874016
 20
1.722417322834646
 30
0.0
 10
1.129437007874016
 20
1.722417322834646
 30
0.0
 10
1.129437007874016
 20
1.722417322834646
 30
0.0
 10
1.129437007874016
 20
1.722417322834646
 30
0.0
 10
1.109511811023622
 20
1.664771653543307
 30
0.0
 10
1.109511811023622
 20
1.664771653543307
 30
0.0
 10
1.109511811023622
 20
1.664771653543307
 30
0.0
 10
1.109511811023622
 20
1.664771653543307
 30
0.0
 10
1.087192913385827
 20
1.608385826771654
 30
0.0
 10
1.087192913385827
 20
1.608385826771654
 30
0.0
 10
1.087192913385827
 20
1.608385826771654
 30
0.0
 10
1.087192913385827
 20
1.608385826771654
 30
0.0
 10
1.062409448818898
 20
1.553299212598425
 30
0.0
 10
1.062409448818898
 20
1.553299212598425
 30
0.0
 10
1.062409448818898
 20
1.553299212598425
 30
0.0
 10
1.062409448818898
 20
1.553299212598425
 30
0.0
 10
1.035082677165354
 20
1.499574803149606
 30
0.0
 10
1.035082677165354
 20
1.499574803149606
 30
0.0
 10
1.035082677165354
 20
1.499574803149606
 30
0.0
 10
1.035082677165354
 20
1.499574803149606
 30
0.0
 10
1.005145669291339
 20
1.447244094488189
 30
0.0
 10
1.005145669291339
 20
1.447244094488189
 30
0.0
 10
1.005145669291339
 20
1.447244094488189
 30
0.0
 10
1.005145669291339
 20
1.447244094488189
 30
0.0
 10
0.9725275590551181
 20
1.396370078740158
 30
0.0
 10
0.9725275590551181
 20
1.396370078740158
 30
0.0
 10
0.9725275590551181
 20
1.396370078740158
 30
0.0
 10
0.9725275590551181
 20
1.396370078740158
 30
0.0
 10
0.9371574803149607
 20
1.346996062992126
 30
0.0
 10
0.9371574803149607
 20
1.346996062992126
 30
0.0
 10
0.9371574803149607
 20
1.346996062992126
 30
0.0
 10
0.9371574803149607
 20
1.346996062992126
 30
0.0
 10
0.8989488188976378
 20
1.299185039370079
 30
0.0
 10
0.8989488188976378
 20
1.299185039370079
 30
0.0
 10
0.8989488188976378
 20
1.299185039370079
 30
0.0
 10
0.8989488188976378
 20
1.299185039370079
 30
0.0
 10
0.8578425196850394
 20
1.252976377952756
 30
0.0
 10
0.8578425196850394
 20
1.252976377952756
 30
0.0
 10
0.8578425196850394
 20
1.252976377952756
 30
0.0
 10
0.8578425196850394
 20
1.252976377952756
 30
0.0
 10
0.813759842519685
 20
1.20842125984252
 30
0.0
 10
0.813759842519685
 20
1.20842125984252
 30
0.0
 10
0.813759842519685
 20
1.20842125984252
 30
0.0
 10
0.813759842519685
 20
1.20842125984252
 30
0.0
 10
0.7666338582677166
 20
1.16555905511811
 30
0.0
 10
0.7666338582677166
 20
1.16555905511811
 30
0.0
 10
0.7666338582677166
 20
1.16555905511811
 30
0.0
 10
0.7666338582677166
 20
1.16555905511811
 30
0.0
 10
0.7163818897637796
 20
1.12446062992126
 30
0.0
 10
0.7163818897637796
 20
1.12446062992126
 30
0.0
 10
0.7163818897637796
 20
1.12446062992126
 30
0.0
 10
0.7163818897637796
 20
1.12446062992126
 30
0.0
 10
0.6629448818897639
 20
1.085157480314961
 30
0.0
 10
0.6629448818897639
 20
1.085157480314961
 30
0.0
 10
0.6629448818897639
 20
1.085157480314961
 30
0.0
 10
0.6629448818897639
 20
1.085157480314961
 30
0.0
 10
0.606240157480315
 20
1.047708661417323
 30
0.0
 10
0.606240157480315
 20
1.047708661417323
 30
0.0
 10
0.606240157480315
 20
1.047708661417323
 30
0.0
 10
0.606240157480315
 20
1.047708661417323
 30
0.0
 10
0.5462007874015749
 20
1.012153543307087
 30
0.0
 10
0.5462007874015749
 20
1.012153543307087
 30
0.0
 10
0.5462007874015749
 20
1.012153543307087
 30
0.0
 10
0.5462007874015749
 20
1.012153543307087
 30
0.0
 10
0.482744094488189
 20
0.9785629921259843
 30
0.0
 10
0.482744094488189
 20
0.9785629921259843
 30
0.0
 10
0.482744094488189
 20
0.9785629921259843
 30
0.0
 10
0.482744094488189
 20
0.9785629921259843
 30
0.0
 10
0.4158110236220473
 20
0.9469645669291339
 30
0.0
 10
0.4158110236220473
 20
0.9469645669291339
 30
0.0
 10
0.4158110236220473
 20
0.9469645669291339
 30
0.0
 10
0.4158110236220473
 20
0.9469645669291339
 30
0.0
 10
0.3453188976377953
 20
0.9174212598425198
 30
0.0
 10
0.3453188976377953
 20
0.9174212598425198
 30
0.0
 10
0.3453188976377953
 20
0.9174212598425198
 30
0.0
 10
0.3453188976377953
 20
0.9174212598425198
 30
0.0
 10
0.2712047244094488
 20
0.8899724409448819
 30
0.0
 10
0.2712047244094488
 20
0.8899724409448819
 30
0.0
 10
0.2712047244094488
 20
0.8899724409448819
 30
0.0
 10
0.2712047244094488
 20
0.8899724409448819
 30
0.0
 10
0.1933818897637795
 20
0.8646811023622048
 30
0.0
 10
0.1933818897637795
 20
0.8646811023622048
 30
0.0
 10
0.1933818897637795
 20
0.8646811023622048
 30
0.0
 10
0.1933818897637795
 20
0.8646811023622048
 30
0.0
 10
0.1117913385826772
 20
0.8415826771653544
 30
0.0
 10
0.1117913385826772
 20
0.8415826771653544
 30
0.0
 10
0.1117913385826772
 20
0.8415826771653544
 30
0.0
 10
0.1117913385826772
 20
0.8415826771653544
 30
0.0
 10
0.0263543307086614
 20
0.820740157480315
 30
0.0
 10
0.0263543307086614
 20
0.820740157480315
 30
0.0
 10
0.0263543307086614
 20
0.820740157480315
 30
0.0
 10
0.0263543307086614
 20
0.820740157480315
 30
0.0
 10
-0.062996062992126
 20
0.8021889763779528
 30
0.0
 10
-0.062996062992126
 20
0.8021889763779528
 30
0.0
 10
-0.062996062992126
 20
0.8021889763779528
 30
0.0
 10
-0.062996062992126
 20
0.8021889763779528
 30
0.0
 10
-0.7131062992125985
 20
1.176905511811024
 30
0.0
 10
-0.7131062992125985
 20
1.176905511811024
 30
0.0
 10
-0.7131062992125985
 20
1.176905511811024
 30
0.0
 10
-0.7131062992125985
 20
1.176905511811024
 30
0.0
 10
-0.623755905511811
 20
1.195456692913386
 30
0.0
 10
-0.623755905511811
 20
1.195456692913386
 30
0.0
 10
-0.623755905511811
 20
1.195456692913386
 30
0.0
 10
-0.623755905511811
 20
1.195456692913386
 30
0.0
 10
-0.5383188976377953
 20
1.216299212598425
 30
0.0
 10
-0.5383188976377953
 20
1.216299212598425
 30
0.0
 10
-0.5383188976377953
 20
1.216299212598425
 30
0.0
 10
-0.5383188976377953
 20
1.216299212598425
 30
0.0
 10
-0.4567283464566929
 20
1.239397637795276
 30
0.0
 10
-0.4567283464566929
 20
1.239397637795276
 30
0.0
 10
-0.4567283464566929
 20
1.239397637795276
 30
0.0
 10
-0.4567283464566929
 20
1.239397637795276
 30
0.0
 10
-0.3789055118110236
 20
1.264688976377953
 30
0.0
 10
-0.3789055118110236
 20
1.264688976377953
 30
0.0
 10
-0.3789055118110236
 20
1.264688976377953
 30
0.0
 10
-0.3789055118110236
 20
1.264688976377953
 30
0.0
 10
-0.3047913385826772
 20
1.292137795275591
 30
0.0
 10
-0.3047913385826772
 20
1.292137795275591
 30
0.0
 10
-0.3047913385826772
 20
1.292137795275591
 30
0.0
 10
-0.3047913385826772
 20
1.292137795275591
 30
0.0
 10
-0.2342992125984252
 20
1.321681102362205
 30
0.0
 10
-0.2342992125984252
 20
1.321681102362205
 30
0.0
 10
-0.2342992125984252
 20
1.321681102362205
 30
0.0
 10
-0.2342992125984252
 20
1.321681102362205
 30
0.0
 10
-0.1673661417322835
 20
1.353279527559055
 30
0.0
 10
-0.1673661417322835
 20
1.353279527559055
 30
0.0
 10
-0.1673661417322835
 20
1.353279527559055
 30
0.0
 10
-0.1673661417322835
 20
1.353279527559055
 30
0.0
 10
-0.1039094488188977
 20
1.386870078740158
 30
0.0
 10
-0.1039094488188977
 20
1.386870078740158
 30
0.0
 10
-0.1039094488188977
 20
1.386870078740158
 30
0.0
 10
-0.1039094488188977
 20
1.386870078740158
 30
0.0
 10
-0.0438700787401575
 20
1.422425196850394
 30
0.0
 10
-0.0438700787401575
 20
1.422425196850394
 30
0.0
 10
-0.0438700787401575
 20
1.422425196850394
 30
0.0
 10
-0.0438700787401575
 20
1.422425196850394
 30
0.0
 10
0.0128346456692913
 20
1.459874015748032
 30
0.0
 10
0.0128346456692913
 20
1.459874015748032
 30
0.0
 10
0.0128346456692913
 20
1.459874015748032
 30
0.0
 10
0.0128346456692913
 20
1.459874015748032
 30
0.0
 10
0.0662716535433071
 20
1.499177165354331
 30
0.0
 10
0.0662716535433071
 20
1.499177165354331
 30
0.0
 10
0.0662716535433071
 20
1.499177165354331
 30
0.0
 10
0.0662716535433071
 20
1.499177165354331
 30
0.0
 10
0.1165236220472441
 20
1.540275590551181
 30
0.0
 10
0.1165236220472441
 20
1.540275590551181
 30
0.0
 10
0.1165236220472441
 20
1.540275590551181
 30
0.0
 10
0.1165236220472441
 20
1.540275590551181
 30
0.0
 10
0.1636496062992126
 20
1.583137795275591
 30
0.0
 10
0.1636496062992126
 20
1.583137795275591
 30
0.0
 10
0.1636496062992126
 20
1.583137795275591
 30
0.0
 10
0.1636496062992126
 20
1.583137795275591
 30
0.0
 10
0.2077322834645669
 20
1.627692913385827
 30
0.0
 10
0.2077322834645669
 20
1.627692913385827
 30
0.0
 10
0.2077322834645669
 20
1.627692913385827
 30
0.0
 10
0.2077322834645669
 20
1.627692913385827
 30
0.0
 10
0.2488385826771654
 20
1.67390157480315
 30
0.0
 10
0.2488385826771654
 20
1.67390157480315
 30
0.0
 10
0.2488385826771654
 20
1.67390157480315
 30
0.0
 10
0.2488385826771654
 20
1.67390157480315
 30
0.0
 10
0.2870472440944882
 20
1.721712598425197
 30
0.0
 10
0.2870472440944882
 20
1.721712598425197
 30
0.0
 10
0.2870472440944882
 20
1.721712598425197
 30
0.0
 10
0.2870472440944882
 20
1.721712598425197
 30
0.0
 10
0.3224173228346457
 20
1.771086614173228
 30
0.0
 10
0.3224173228346457
 20
1.771086614173228
 30
0.0
 10
0.3224173228346457
 20
1.771086614173228
 30
0.0
 10
0.3224173228346457
 20
1.771086614173228
 30
0.0
 10
0.3550354330708662
 20
1.82196062992126
 30
0.0
 10
0.3550354330708662
 20
1.82196062992126
 30
0.0
 10
0.3550354330708662
 20
1.82196062992126
 30
0.0
 10
0.3550354330708662
 20
1.82196062992126
 30
0.0
 10
0.3849724409448819
 20
1.874291338582677
 30
0.0
 10
0.3849724409448819
 20
1.874291338582677
 30
0.0
 10
0.3849724409448819
 20
1.874291338582677
 30
0.0
 10
0.3849724409448819
 20
1.874291338582677
 30
0.0
 10
0.4122992125984252
 20
1.928015748031496
 30
0.0
 10
0.4122992125984252
 20
1.928015748031496
 30
0.0
 10
0.4122992125984252
 20
1.928015748031496
 30
0.0
 10
0.4122992125984252
 20
1.928015748031496
 30
0.0
 10
0.4370826771653544
 20
1.983102362204725
 30
0.0
 10
0.4370826771653544
 20
1.983102362204725
 30
0.0
 10
0.4370826771653544
 20
1.983102362204725
 30
0.0
 10
0.4370826771653544
 20
1.983102362204725
 30
0.0
 10
0.4594015748031496
 20
2.039488188976378
 30
0.0
 10
0.4594015748031496
 20
2.039488188976378
 30
0.0
 10
0.4594015748031496
 20
2.039488188976378
 30
0.0
 10
0.4594015748031496
 20
2.039488188976378
 30
0.0
 10
0.4793267716535433
 20
2.097133858267717
 30
0.0
 10
0.4793267716535433
 20
2.097133858267717
 30
0.0
 10
0.4793267716535433
 20
2.097133858267717
 30
0.0
 10
0.4793267716535433
 20
2.097133858267717
 30
0.0
 10
0.4969370078740158
 20
2.15598031496063
 30
0.0
 10
0.4969370078740158
 20
2.15598031496063
 30
0.0
 10
0.4969370078740158
 20
2.15598031496063
 30
0.0
 10
0.4969370078740158
 20
2.15598031496063
 30
0.0
 10
0.5122913385826772
 20
2.215988188976378
 30
0.0
 10
0.5122913385826772
 20
2.215988188976378
 30
0.0
 10
0.5122913385826772
 20
2.215988188976378
 30
0.0
 10
0.5122913385826772
 20
2.215988188976378
 30
0.0
 10
0.5254763779527559
 20
2.277098425196851
 30
0.0
 10
0.5254763779527559
 20
2.277098425196851
 30
0.0
 10
0.5254763779527559
 20
2.277098425196851
 30
0.0
 10
0.5254763779527559
 20
2.277098425196851
 30
0.0
 10
0.5365551181102363
 20
2.339267716535433
 30
0.0
 10
0.5365551181102363
 20
2.339267716535433
 30
0.0
 10
0.5365551181102363
 20
2.339267716535433
 30
0.0
 10
0.5365551181102363
 20
2.339267716535433
 30
0.0
 10
0.5456062992125984
 20
2.40244094488189
 30
0.0
 10
0.5456062992125984
 20
2.40244094488189
 30
0.0
 10
0.5456062992125984
 20
2.40244094488189
 30
0.0
 10
0.5456062992125984
 20
2.40244094488189
 30
0.0
 10
0.5526929133858268
 20
2.466566929133859
 30
0.0
 10
0.5526929133858268
 20
2.466566929133859
 30
0.0
 10
0.5526929133858268
 20
2.466566929133859
 30
0.0
 10
0.5526929133858268
 20
2.466566929133859
 30
0.0
 10
0.5579015748031496
 20
2.531606299212599
 30
0.0
 10
0.5579015748031496
 20
2.531606299212599
 30
0.0
 10
0.5579015748031496
 20
2.531606299212599
 30
0.0
 10
0.5579015748031496
 20
2.531606299212599
 30
0.0
 10
0.5612992125984252
 20
2.5975
 30
0.0
 10
0.5612992125984252
 20
2.5975
 30
0.0
 10
0.5612992125984252
 20
2.5975
 30
0.0
 10
0.5612992125984252
 20
2.5975
 30
0.0
 10
0.5629566929133859
 20
2.664208661417323
 30
0.0
 10
0.5629566929133859
 20
2.664208661417323
 30
0.0
  0
SPLINE
  5
90
330
1F
100
AcDbEntity
  8
LAYER_1
 62
   253
100
AcDbSpline
210
0.0
220
0.0
230
1.0
 70
    11
 71
     3
 72
    20
 73
    16
 74
     0
 42
0.0000000001
 43
0.0000000001
 40
0.0
 40
0.0
 40
0.0
 40
0.0
 40
0.25
 40
0.25
 40
0.25
 40
0.25
 40
0.5
 40
0.5
 40
0.5
 40
0.5
 40
0.75
 40
0.75
 40
0.75
 40
0.75
 40
1.0
 40
1.0
 40
1.0
 40
1.0
 10
-0.7131062992125985
 20
1.176905511811024
 30
0.0
 10
-0.7131062992125985
 20
1.176905511811024
 30
0.0
 10
-0.062996062992126
 20
0.8021889763779528
 30
0.0
 10
-0.062996062992126
 20
0.8021889763779528
 30
0.0
 10
-0.062996062992126
 20
0.8021889763779528
 30
0.0
 10
-0.062996062992126
 20
0.8021889763779528
 30
0.0
 10
-0.062996062992126
 20
0.3667755905511811
 30
0.0
 10
-0.062996062992126
 20
0.3667755905511811
 30
0.0
 10
-0.062996062992126
 20
0.3667755905511811
 30
0.0
 10
-0.062996062992126
 20
0.3667755905511811
 30
0.0
 10
-0.7131062992125985
 20
0.741492125984252
 30
0.0
 10
-0.7131062992125985
 20
0.741492125984252
 30
0.0
 10
-0.7131062992125985
 20
0.741492125984252
 30
0.0
 10
-0.7131062992125985
 20
0.741492125984252
 30
0.0
 10
-0.7131062992125985
 20
1.176905511811024
 30
0.0
 10
-0.7131062992125985
 20
1.176905511811024
 30
0.0
  0
SPLINE
  5
91
330
1F
100
AcDbEntity
  8
LAYER_1
 62
   250
100
AcDbSpline
210
0.0
220
0.0
230
1.0
 70
    11
 71
     3
 72
    20
 73
    16
 74
     0
 42
0.0000000001
 43
0.0000000001
 40
0.0
 40
0.0
 40
0.0
 40
0.0
 40
0.25
 40
0.25
 40
0.25
 40
0.25
 40
0.5
 40
0.5
 40
0.5
 40
0.5
 40
0.75
 40
0.75
 40
0.75
 40
0.75
 40
1.0
 40
1.0
 40
1.0
 40
1.0
 10
-0.7131062992125985
 20
1.176905511811024
 30
0.0
 10
-0.7131062992125985
 20
1.176905511811024
 30
0.0
 10
-0.062996062992126
 20
0.8021889763779528
 30
0.0
 10
-0.062996062992126
 20
0.8021889763779528
 30
0.0
 10
-0.062996062992126
 20
0.8021889763779528
 30
0.0
 10
-0.062996062992126
 20
0.8021889763779528
 30
0.0
 10
-0.062996062992126
 20
0.3667755905511811
 30
0.0
 10
-0.062996062992126
 20
0.3667755905511811
 30
0.0
 10
-0.062996062992126
 20
0.3667755905511811
 30
0.0
 10
-0.062996062992126
 20
0.3667755905511811
 30
0.0
 10
-0.7131062992125985
 20
0.741492125984252
 30
0.0
 10
-0.7131062992125985
 20
0.741492125984252
 30
0.0
 10
-0.7131062992125985
 20
0.741492125984252
 30
0.0
 10
-0.7131062992125985
 20
0.741492125984252
 30
0.0
 10
-0.7131062992125985
 20
1.176905511811024
 30
0.0
 10
-0.7131062992125985
 20
1.176905511811024
 30
0.0
  0
SPLINE
  5
92
330
1F
100
AcDbEntity
  8
LAYER_1
 62
   253
100
AcDbSpline
210
0.0
220
0.0
230
1.0
 70
    11
 71
     3
 72
    20
 73
    16
 74
     0
 42
0.0000000001
 43
0.0000000001
 40
0.0
 40
0.0
 40
0.0
 40
0.0
 40
0.25
 40
0.25
 40
0.25
 40
0.25
 40
0.5
 40
0.5
 40
0.5
 40
0.5
 40
0.75
 40
0.75
 40
0.75
 40
0.75
 40
1.0
 40
1.0
 40
1.0
 40
1.0
 10
-0.7131062992125985
 20
0.741492125984252
 30
0.0
 10
-0.7131062992125985
 20
0.741492125984252
 30
0.0
 10
-0.062996062992126
 20
0.3667755905511811
 30
0.0
 10
-0.062996062992126
 20
0.3667755905511811
 30
0.0
 10
-0.062996062992126
 20
0.3667755905511811
 30
0.0
 10
-0.062996062992126
 20
0.3667755905511811
 30
0.0
 10
-0.4121889763779528
 20
0.3667755905511811
 30
0.0
 10
-0.4121889763779528
 20
0.3667755905511811
 30
0.0
 10
-0.4121889763779528
 20
0.3667755905511811
 30
0.0
 10
-0.4121889763779528
 20
0.3667755905511811
 30
0.0
 10
-1.062299212598425
 20
0.741492125984252
 30
0.0
 10
-1.062299212598425
 20
0.741492125984252
 30
0.0
 10
-1.062299212598425
 20
0.741492125984252
 30
0.0
 10
-1.062299212598425
 20
0.741492125984252
 30
0.0
 10
-0.7131062992125985
 20
0.741492125984252
 30
0.0
 10
-0.7131062992125985
 20
0.741492125984252
 30
0.0
  0
SPLINE
  5
93
330
1F
100
AcDbEntity
  8
LAYER_1
 62
   250
100
AcDbSpline
210
0.0
220
0.0
230
1.0
 70
    11
 71
     3
 72
    20
 73
    16
 74
     0
 42
0.0000000001
 43
0.0000000001
 40
0.0
 40
0.0
 40
0.0
 40
0.0
 40
0.25
 40
0.25
 40
0.25
 40
0.25
 40
0.5
 40
0.5
 40
0.5
 40
0.5
 40
0.75
 40
0.75
 40
0.75
 40
0.75
 40
1.0
 40
1.0
 40
1.0
 40
1.0
 10
-0.7131062992125985
 20
0.741492125984252
 30
0.0
 10
-0.7131062992125985
 20
0.741492125984252
 30
0.0
 10
-0.062996062992126
 20
0.3667755905511811
 30
0.0
 10
-0.062996062992126
 20
0.3667755905511811
 30
0.0
 10
-0.062996062992126
 20
0.3667755905511811
 30
0.0
 10
-0.062996062992126
 20
0.3667755905511811
 30
0.0
 10
-0.4121889763779528
 20
0.3667755905511811
 30
0.0
 10
-0.4121889763779528
 20
0.3667755905511811
 30
0.0
 10
-0.4121889763779528
 20
0.3667755905511811
 30
0.0
 10
-0.4121889763779528
 20
0.3667755905511811
 30
0.0
 10
-1.062299212598425
 20
0.741492125984252
 30
0.0
 10
-1.062299212598425
 20
0.741492125984252
 30
0.0
 10
-1.062299212598425
 20
0.741492125984252
 30
0.0
 10
-1.062299212598425
 20
0.741492125984252
 30
0.0
 10
-0.7131062992125985
 20
0.741492125984252
 30
0.0
 10
-0.7131062992125985
 20
0.741492125984252
 30
0.0
  0
SPLINE
  5
94
330
1F
100
AcDbEntity
  8
LAYER_1
 62
     7
100
AcDbSpline
210
0.0
220
0.0
230
1.0
 70
    11
 71
     3
 72
    32
 73
    28
 74
     0
 42
0.0000000001
 43
0.0000000001
 40
0.0
 40
0.0
 40
0.0
 40
0.0
 40
0.1428571428571429
 40
0.1428571428571429
 40
0.1428571428571429
 40
0.1428571428571429
 40
0.2857142857142857
 40
0.2857142857142857
 40
0.2857142857142857
 40
0.2857142857142857
 40
0.4285714285714286
 40
0.4285714285714286
 40
0.4285714285714286
 40
0.4285714285714286
 40
0.5714285714285714
 40
0.5714285714285714
 40
0.5714285714285714
 40
0.5714285714285714
 40
0.7142857142857142
 40
0.7142857142857142
 40
0.7142857142857142
 40
0.7142857142857142
 40
0.857142857142857
 40
0.857142857142857
 40
0.857142857142857
 40
0.857142857142857
 40
1.0
 40
1.0
 40
1.0
 40
1.0
 10
0.8561062992125985
 20
3.228952755905512
 30
0.0
 10
0.8561062992125985
 20
3.228952755905512
 30
0.0
 10
0.8561062992125985
 20
2.694385826771654
 30
0.0
 10
0.8561062992125985
 20
2.694385826771654
 30
0.0
 10
0.8561062992125985
 20
2.694385826771654
 30
0.0
 10
0.8561062992125985
 20
2.694385826771654
 30
0.0
 10
0.5629566929133859
 20
2.664208661417323
 30
0.0
 10
0.5629566929133859
 20
2.664208661417323
 30
0.0
 10
0.5629566929133859
 20
2.664208661417323
 30
0.0
 10
0.5543346456692914
 20
1.94857874015748
 30
0.0
 10
0.2611850393700788
 20
1.362279527559055
 30
0.0
 10
-0.7131062992125985
 20
1.176905511811024
 30
0.0
 10
-0.7131062992125985
 20
1.176905511811024
 30
0.0
 10
-0.7131062992125985
 20
1.176905511811024
 30
0.0
 10
-0.7131062992125985
 20
0.741492125984252
 30
0.0
 10
-0.7131062992125985
 20
0.741492125984252
 30
0.0
 10
-0.7131062992125985
 20
0.741492125984252
 30
0.0
 10
-0.7131062992125985
 20
0.741492125984252
 30
0.0
 10
-1.062299212598425
 20
0.741492125984252
 30
0.0
 10
-1.062299212598425
 20
0.741492125984252
 30
0.0
 10
-1.062299212598425
 20
0.741492125984252
 30
0.0
 10
-1.062299212598425
 20
0.741492125984252
 30
0.0
 10
-1.062299212598425
 20
3.228952755905512
 30
0.0
 10
-1.062299212598425
 20
3.228952755905512
 30
0.0
 10
-1.062299212598425
 20
3.228952755905512
 30
0.0
 10
-1.062299212598425
 20
3.228952755905512
 30
0.0
 10
0.8561062992125985
 20
3.228952755905512
 30
0.0
 10
0.8561062992125985
 20
3.228952755905512
 30
0.0
  0
SPLINE
  5
95
330
1F
100
AcDbEntity
  8
LAYER_1
 62
   250
100
AcDbSpline
210
0.0
220
0.0
230
1.0
 70
    11
 71
     3
 72
   104
 73
   100
 74
     0
 42
0.0000000001
 43
0.0000000001
 40
0.0
 40
0.0
 40
0.0
 40
0.0
 40
0.04
 40
0.04
 40
0.04
 40
0.04
 40
0.08
 40
0.08
 40
0.08
 40
0.08
 40
0.12
 40
0.12
 40
0.12
 40
0.12
 40
0.16
 40
0.16
 40
0.16
 40
0.16
 40
0.2
 40
0.2
 40
0.2
 40
0.2
 40
0.24
 40
0.24
 40
0.24
 40
0.24
 40
0.28
 40
0.28
 40
0.28
 40
0.28
 40
0.32
 40
0.32
 40
0.32
 40
0.32
 40
0.36
 40
0.36
 40
0.36
 40
0.36
 40
0.4
 40
0.4
 40
0.4
 40
0.4
 40
0.44
 40
0.44
 40
0.44
 40
0.44
 40
0.4799999999999999
 40
0.4799999999999999
 40
0.4799999999999999
 40
0.4799999999999999
 40
0.5199999999999999
 40
0.5199999999999999
 40
0.5199999999999999
 40
0.5199999999999999
 40
0.5599999999999999
 40
0.5599999999999999
 40
0.5599999999999999
 40
0.5599999999999999
 40
0.6
 40
0.6
 40
0.6
 40
0.6
 40
0.64
 40
0.64
 40
0.64
 40
0.64
 40
0.6800000000000001
 40
0.6800000000000001
 40
0.6800000000000001
 40
0.6800000000000001
 40
0.7200000000000001
 40
0.7200000000000001
 40
0.7200000000000001
 40
0.7200000000000001
 40
0.7600000000000001
 40
0.7600000000000001
 40
0.7600000000000001
 40
0.7600000000000001
 40
0.8000000000000002
 40
0.8000000000000002
 40
0.8000000000000002
 40
0.8000000000000002
 40
0.8400000000000002
 40
0.8400000000000002
 40
0.8400000000000002
 40
0.8400000000000002
 40
0.8800000000000002
 40
0.8800000000000002
 40
0.8800000000000002
 40
0.8800000000000002
 40
0.9200000000000003
 40
0.9200000000000003
 40
0.9200000000000003
 40
0.9200000000000003
 40
0.9600000000000003
 40
0.9600000000000003
 40
0.9600000000000003
 40
0.9600000000000003
 40
1.0
 40
1.0
 40
1.0
 40
1.0
 10
0.4522874015748032
 20
0.7041102362204724
 30
0.0
 10
0.4522874015748032
 20
0.7041102362204724
 30
0.0
 10
0.506259842519685
 20
0.7041102362204724
 30
0.0
 10
0.506259842519685
 20
0.7041102362204724
 30
0.0
 10
0.506259842519685
 20
0.7041102362204724
 30
0.0
 10
0.5194291338582677
 20
0.7041102362204724
 30
0.0
 10
0.5284566929133858
 20
0.7035
 30
0.0
 10
0.5333425196850394
 20
0.7023031496062993
 30
0.0
 10
0.5333425196850394
 20
0.7023031496062993
 30
0.0
 10
0.5405669291338583
 20
0.7005826771653544
 30
0.0
 10
0.5462598425196851
 20
0.6974448818897638
 30
0.0
 10
0.5504842519685039
 20
0.6928858267716536
 30
0.0
 10
0.5504842519685039
 20
0.6928858267716536
 30
0.0
 10
0.5546771653543308
 20
0.6883307086614173
 30
0.0
 10
0.5567874015748032
 20
0.6828307086614174
 30
0.0
 10
0.5567874015748032
 20
0.6764448818897638
 30
0.0
 10
0.5567874015748032
 20
0.6764448818897638
 30
0.0
 10
0.5567874015748032
 20
0.6718307086614174
 30
0.0
 10
0.5556771653543308
 20
0.6676929133858268
 30
0.0
 10
0.5534566929133858
 20
0.6640275590551181
 30
0.0
 10
0.5534566929133858
 20
0.6640275590551181
 30
0.0
 10
0.551232283464567
 20
0.6603582677165355
 30
0.0
 10
0.547984251968504
 20
0.657220472440945
 30
0.0
 10
0.543759842519685
 20
0.6546377952755906
 30
0.0
 10
0.543759842519685
 20
0.6546377952755906
 30
0.0
 10
0.5410393700787401
 20
0.6529448818897639
 30
0.0
 10
0.5373700787401575
 20
0.6515000000000001
 30
0.0
 10
0.5327047244094488
 20
0.6503031496062992
 30
0.0
 10
0.5327047244094488
 20
0.6503031496062992
 30
0.0
 10
0.5386220472440945
 20
0.6492204724409449
 30
0.0
 10
0.5431220472440945
 20
0.6479173228346457
 30
0.0
 10
0.5462047244094489
 20
0.6464173228346457
 30
0.0
 10
0.5462047244094489
 20
0.6464173228346457
 30
0.0
 10
0.5508700787401575
 20
0.6441377952755906
 30
0.0
 10
0.5545669291338583
 20
0.6408897637795276
 30
0.0
 10
0.5572598425196851
 20
0.6366377952755906
 30
0.0
 10
0.5572598425196851
 20
0.6366377952755906
 30
0.0
 10
0.559984251968504
 20
0.6324173228346457
 30
0.0
 10
0.5613425196850393
 20
0.6276377952755906
 30
0.0
 10
0.5613425196850393
 20
0.6223307086614174
 30
0.0
 10
0.5613425196850393
 20
0.6223307086614174
 30
0.0
 10
0.5613425196850393
 20
0.6171653543307087
 30
0.0
 10
0.5600118110236221
 20
0.6123897637795276
 30
0.0
 10
0.5573425196850393
 20
0.608
 30
0.0
 10
0.5573425196850393
 20
0.608
 30
0.0
 10
0.5547047244094489
 20
0.6036102362204725
 30
0.0
 10
0.5509291338582677
 20
0.6
 30
0.0
 10
0.5460944881889764
 20
0.5971653543307087
 30
0.0
 10
0.5460944881889764
 20
0.5971653543307087
 30
0.0
 10
0.541232283464567
 20
0.5943622047244095
 30
0.0
 10
0.5355669291338583
 20
0.5925551181102362
 30
0.0
 10
0.5291220472440945
 20
0.591748031496063
 30
0.0
 10
0.5291220472440945
 20
0.591748031496063
 30
0.0
 10
0.5226496062992126
 20
0.5909724409448819
 30
0.0
 10
0.516011811023622
 20
0.5905826771653544
 30
0.0
 10
0.5091771653543308
 20
0.5905826771653544
 30
0.0
 10
0.5091771653543308
 20
0.5905826771653544
 30
0.0
 10
0.5091771653543308
 20
0.5905826771653544
 30
0.0
 10
0.4522874015748032
 20
0.5905826771653544
 30
0.0
 10
0.4522874015748032
 20
0.5905826771653544
 30
0.0
 10
0.4522874015748032
 20
0.5905826771653544
 30
0.0
 10
0.4522874015748032
 20
0.5905826771653544
 30
0.0
 10
0.4522874015748032
 20
0.5974173228346457
 30
0.0
 10
0.4522874015748032
 20
0.5974173228346457
 30
0.0
 10
0.4522874015748032
 20
0.5974173228346457
 30
0.0
 10
0.4522874015748032
 20
0.5974173228346457
 30
0.0
 10
0.4561220472440945
 20
0.5974173228346457
 30
0.0
 10
0.4561220472440945
 20
0.5974173228346457
 30
0.0
 10
0.4561220472440945
 20
0.5974173228346457
 30
0.0
 10
0.4598188976377953
 20
0.5974173228346457
 30
0.0
 10
0.4623188976377953
 20
0.598
 30
0.0
 10
0.4636771653543307
 20
0.5991377952755905
 30
0.0
 10
0.4636771653543307
 20
0.5991377952755905
 30
0.0
 10
0.4656496062992126
 20
0.6006929133858268
 30
0.0
 10
0.4666220472440945
 20
0.6033031496062993
 30
0.0
 10
0.4666220472440945
 20
0.6069448818897638
 30
0.0
 10
0.4666220472440945
 20
0.6069448818897638
 30
0.0
 10
0.4666220472440945
 20
0.6069448818897638
 30
0.0
 10
0.4666220472440945
 20
0.6858031496062993
 30
0.0
 10
0.4666220472440945
 20
0.6858031496062993
 30
0.0
 10
0.4666220472440945
 20
0.6858031496062993
 30
0.0
 10
0.4666220472440945
 20
0.6895
 30
0.0
 10
0.4663188976377953
 20
0.6920000000000001
 30
0.0
 10
0.465732283464567
 20
0.6933582677165354
 30
0.0
 10
0.465732283464567
 20
0.6933582677165354
 30
0.0
 10
0.4651220472440945
 20
0.6947204724409449
 30
0.0
 10
0.464232283464567
 20
0.6956929133858268
 30
0.0
 10
0.4630393700787402
 20
0.6963031496062992
 30
0.0
 10
0.4630393700787402
 20
0.6963031496062992
 30
0.0
 10
0.4618464566929134
 20
0.6968858267716536
 30
0.0
 10
0.4595393700787402
 20
0.6971929133858268
 30
0.0
 10
0.4561220472440945
 20
0.6971929133858268
 30
0.0
 10
0.4561220472440945
 20
0.6971929133858268
 30
0.0
 10
0.4561220472440945
 20
0.6971929133858268
 30
0.0
 10
0.4522874015748032
 20
0.6971929133858268
 30
0.0
 10
0.4522874015748032
 20
0.6971929133858268
 30
0.0
 10
0.4522874015748032
 20
0.6971929133858268
 30
0.0
 10
0.4522874015748032
 20
0.6971929133858268
 30
0.0
 10
0.4522874015748032
 20
0.7041102362204724
 30
0.0
 10
0.4522874015748032
 20
0.7041102362204724
 30
0.0
  0
SPLINE
  5
96
330
1F
100
AcDbEntity
  8
LAYER_1
 62
   250
100
AcDbSpline
210
0.0
220
0.0
230
1.0
 70
    11
 71
     3
 72
    40
 73
    36
 74
     0
 42
0.0000000001
 43
0.0000000001
 40
0.0
 40
0.0
 40
0.0
 40
0.0
 40
0.1111111111111111
 40
0.1111111111111111
 40
0.1111111111111111
 40
0.1111111111111111
 40
0.2222222222222222
 40
0.2222222222222222
 40
0.2222222222222222
 40
0.2222222222222222
 40
0.3333333333333333
 40
0.3333333333333333
 40
0.3333333333333333
 40
0.3333333333333333
 40
0.4444444444444444
 40
0.4444444444444444
 40
0.4444444444444444
 40
0.4444444444444444
 40
0.5555555555555556
 40
0.5555555555555556
 40
0.5555555555555556
 40
0.5555555555555556
 40
0.6666666666666667
 40
0.6666666666666667
 40
0.6666666666666667
 40
0.6666666666666667
 40
0.7777777777777779
 40
0.7777777777777779
 40
0.7777777777777779
 40
0.7777777777777779
 40
0.8888888888888891
 40
0.8888888888888891
 40
0.8888888888888891
 40
0.8888888888888891
 40
1.0
 40
1.0
 40
1.0
 40
1.0
 10
0.4818464566929134
 20
0.6950826771653543
 30
0.0
 10
0.4818464566929134
 20
0.6950826771653543
 30
0.0
 10
0.4818464566929134
 20
0.6535
 30
0.0
 10
0.4818464566929134
 20
0.6535
 30
0.0
 10
0.4818464566929134
 20
0.6535
 30
0.0
 10
0.4818464566929134
 20
0.6535
 30
0.0
 10
0.5025944881889765
 20
0.6535
 30
0.0
 10
0.5025944881889765
 20
0.6535
 30
0.0
 10
0.5025944881889765
 20
0.6535
 30
0.0
 10
0.5122874015748031
 20
0.6535
 30
0.0
 10
0.5189566929133859
 20
0.6539448818897639
 30
0.0
 10
0.5225118110236221
 20
0.6548582677165354
 30
0.0
 10
0.5225118110236221
 20
0.6548582677165354
 30
0.0
 10
0.5281220472440945
 20
0.6563307086614173
 30
0.0
 10
0.5323700787401575
 20
0.6588307086614174
 30
0.0
 10
0.5353425196850394
 20
0.6623582677165355
 30
0.0
 10
0.5353425196850394
 20
0.6623582677165355
 30
0.0
 10
0.5382874015748032
 20
0.6658858267716535
 30
0.0
 10
0.5397874015748032
 20
0.6704173228346457
 30
0.0
 10
0.5397874015748032
 20
0.6759448818897638
 30
0.0
 10
0.5397874015748032
 20
0.6759448818897638
 30
0.0
 10
0.5397874015748032
 20
0.6806102362204725
 30
0.0
 10
0.5384291338582677
 20
0.6845
 30
0.0
 10
0.5357598425196851
 20
0.6876377952755906
 30
0.0
 10
0.5357598425196851
 20
0.6876377952755906
 30
0.0
 10
0.5330669291338583
 20
0.690748031496063
 30
0.0
 10
0.5294566929133858
 20
0.6928858267716536
 30
0.0
 10
0.5249566929133859
 20
0.6940275590551182
 30
0.0
 10
0.5249566929133859
 20
0.6940275590551182
 30
0.0
 10
0.5220393700787401
 20
0.6947204724409449
 30
0.0
 10
0.5159566929133859
 20
0.6950826771653543
 30
0.0
 10
0.506732283464567
 20
0.6950826771653543
 30
0.0
 10
0.506732283464567
 20
0.6950826771653543
 30
0.0
 10
0.506732283464567
 20
0.6950826771653543
 30
0.0
 10
0.4818464566929134
 20
0.6950826771653543
 30
0.0
 10
0.4818464566929134
 20
0.6950826771653543
 30
0.0
  0
SPLINE
  5
97
330
1F
100
AcDbEntity
  8
LAYER_1
 62
   250
100
AcDbSpline
210
0.0
220
0.0
230
1.0
 70
    11
 71
     3
 72
    52
 73
    48
 74
     0
 42
0.0000000001
 43
0.0000000001
 40
0.0
 40
0.0
 40
0.0
 40
0.0
 40
0.0833333333333333
 40
0.0833333333333333
 40
0.0833333333333333
 40
0.0833333333333333
 40
0.1666666666666667
 40
0.1666666666666667
 40
0.1666666666666667
 40
0.1666666666666667
 40
0.25
 40
0.25
 40
0.25
 40
0.25
 40
0.3333333333333333
 40
0.3333333333333333
 40
0.3333333333333333
 40
0.3333333333333333
 40
0.4166666666666666
 40
0.4166666666666666
 40
0.4166666666666666
 40
0.4166666666666666
 40
0.4999999999999999
 40
0.4999999999999999
 40
0.4999999999999999
 40
0.4999999999999999
 40
0.5833333333333333
 40
0.5833333333333333
 40
0.5833333333333333
 40
0.5833333333333333
 40
0.6666666666666666
 40
0.6666666666666666
 40
0.6666666666666666
 40
0.6666666666666666
 40
0.75
 40
0.75
 40
0.75
 40
0.75
 40
0.8333333333333334
 40
0.8333333333333334
 40
0.8333333333333334
 40
0.8333333333333334
 40
0.9166666666666667
 40
0.9166666666666667
 40
0.9166666666666667
 40
0.9166666666666667
 40
1.0
 40
1.0
 40
1.0
 40
1.0
 10
0.4818464566929134
 20
0.6456653543307087
 30
0.0
 10
0.4818464566929134
 20
0.6456653543307087
 30
0.0
 10
0.4818464566929134
 20
0.6084173228346457
 30
0.0
 10
0.4818464566929134
 20
0.6084173228346457
 30
0.0
 10
0.4818464566929134
 20
0.6084173228346457
 30
0.0
 10
0.4818464566929134
 20
0.6046653543307087
 30
0.0
 10
0.4820118110236221
 20
0.6024448818897638
 30
0.0
 10
0.4823149606299213
 20
0.601720472440945
 30
0.0
 10
0.4823149606299213
 20
0.601720472440945
 30
0.0
 10
0.4827598425196851
 20
0.600748031496063
 30
0.0
 10
0.4836220472440945
 20
0.6000826771653544
 30
0.0
 10
0.4849291338582678
 20
0.5996929133858268
 30
0.0
 10
0.4849291338582678
 20
0.5996929133858268
 30
0.0
 10
0.4858464566929134
 20
0.5994173228346457
 30
0.0
 10
0.4884566929133858
 20
0.5992755905511811
 30
0.0
 10
0.4927322834645669
 20
0.5992755905511811
 30
0.0
 10
0.4927322834645669
 20
0.5992755905511811
 30
0.0
 10
0.4927322834645669
 20
0.5992755905511811
 30
0.0
 10
0.5038149606299213
 20
0.5992755905511811
 30
0.0
 10
0.5038149606299213
 20
0.5992755905511811
 30
0.0
 10
0.5038149606299213
 20
0.5992755905511811
 30
0.0
 10
0.5147598425196851
 20
0.5992755905511811
 30
0.0
 10
0.5225944881889764
 20
0.5998897637795276
 30
0.0
 10
0.5272874015748031
 20
0.6011102362204724
 30
0.0
 10
0.5272874015748031
 20
0.6011102362204724
 30
0.0
 10
0.531984251968504
 20
0.6023307086614174
 30
0.0
 10
0.535984251968504
 20
0.6049173228346457
 30
0.0
 10
0.5392874015748032
 20
0.6088622047244094
 30
0.0
 10
0.5392874015748032
 20
0.6088622047244094
 30
0.0
 10
0.5425944881889764
 20
0.6127755905511811
 30
0.0
 10
0.5442598425196851
 20
0.6175275590551181
 30
0.0
 10
0.5442598425196851
 20
0.6230551181102363
 30
0.0
 10
0.5442598425196851
 20
0.6230551181102363
 30
0.0
 10
0.5442598425196851
 20
0.6277204724409449
 30
0.0
 10
0.5429015748031496
 20
0.6318582677165354
 30
0.0
 10
0.540232283464567
 20
0.6354724409448819
 30
0.0
 10
0.540232283464567
 20
0.6354724409448819
 30
0.0
 10
0.5375393700787402
 20
0.6390826771653544
 30
0.0
 10
0.5338149606299213
 20
0.6416653543307087
 30
0.0
 10
0.5290669291338583
 20
0.6432755905511811
 30
0.0
 10
0.5290669291338583
 20
0.6432755905511811
 30
0.0
 10
0.5243149606299213
 20
0.6448897637795276
 30
0.0
 10
0.5159015748031496
 20
0.6456653543307087
 30
0.0
 10
0.5038149606299213
 20
0.6456653543307087
 30
0.0
 10
0.5038149606299213
 20
0.6456653543307087
 30
0.0
 10
0.5038149606299213
 20
0.6456653543307087
 30
0.0
 10
0.4818464566929134
 20
0.6456653543307087
 30
0.0
 10
0.4818464566929134
 20
0.6456653543307087
 30
0.0
  0
SPLINE
  5
98
330
1F
100
AcDbEntity
  8
LAYER_1
 62
   250
100
AcDbSpline
210
0.0
220
0.0
230
1.0
 70
    11
 71
     3
 72
   112
 73
   108
 74
     0
 42
0.0000000001
 43
0.0000000001
 40
0.0
 40
0.0
 40
0.0
 40
0.0
 40
0.037037037037037
 40
0.037037037037037
 40
0.037037037037037
 40
0.037037037037037
 40
0.0740740740740741
 40
0.0740740740740741
 40
0.0740740740740741
 40
0.0740740740740741
 40
0.1111111111111111
 40
0.1111111111111111
 40
0.1111111111111111
 40
0.1111111111111111
 40
0.1481481481481481
 40
0.1481481481481481
 40
0.1481481481481481
 40
0.1481481481481481
 40
0.1851851851851852
 40
0.1851851851851852
 40
0.1851851851851852
 40
0.1851851851851852
 40
0.2222222222222222
 40
0.2222222222222222
 40
0.2222222222222222
 40
0.2222222222222222
 40
0.2592592592592592
 40
0.2592592592592592
 40
0.2592592592592592
 40
0.2592592592592592
 40
0.2962962962962963
 40
0.2962962962962963
 40
0.2962962962962963
 40
0.2962962962962963
 40
0.3333333333333333
 40
0.3333333333333333
 40
0.3333333333333333
 40
0.3333333333333333
 40
0.3703703703703704
 40
0.3703703703703704
 40
0.3703703703703704
 40
0.3703703703703704
 40
0.4074074074074074
 40
0.4074074074074074
 40
0.4074074074074074
 40
0.4074074074074074
 40
0.4444444444444444
 40
0.4444444444444444
 40
0.4444444444444444
 40
0.4444444444444444
 40
0.4814814814814815
 40
0.4814814814814815
 40
0.4814814814814815
 40
0.4814814814814815
 40
0.5185185185185185
 40
0.5185185185185185
 40
0.5185185185185185
 40
0.5185185185185185
 40
0.5555555555555556
 40
0.5555555555555556
 40
0.5555555555555556
 40
0.5555555555555556
 40
0.5925925925925926
 40
0.5925925925925926
 40
0.5925925925925926
 40
0.5925925925925926
 40
0.6296296296296295
 40
0.6296296296296295
 40
0.6296296296296295
 40
0.6296296296296295
 40
0.6666666666666665
 40
0.6666666666666665
 40
0.6666666666666665
 40
0.6666666666666665
 40
0.7037037037037035
 40
0.7037037037037035
 40
0.7037037037037035
 40
0.7037037037037035
 40
0.7407407407407405
 40
0.7407407407407405
 40
0.7407407407407405
 40
0.7407407407407405
 40
0.7777777777777775
 40
0.7777777777777775
 40
0.7777777777777775
 40
0.7777777777777775
 40
0.8148148148148144
 40
0.8148148148148144
 40
0.8148148148148144
 40
0.8148148148148144
 40
0.8518518518518514
 40
0.8518518518518514
 40
0.8518518518518514
 40
0.8518518518518514
 40
0.8888888888888884
 40
0.8888888888888884
 40
0.8888888888888884
 40
0.8888888888888884
 40
0.9259259259259254
 40
0.9259259259259254
 40
0.9259259259259254
 40
0.9259259259259254
 40
0.9629629629629624
 40
0.9629629629629624
 40
0.9629629629629624
 40
0.9629629629629624
 40
1.0
 40
1.0
 40
1.0
 40
1.0
 10
0.6189527559055118
 20
0.7041102362204724
 30
0.0
 10
0.6189527559055118
 20
0.7041102362204724
 30
0.0
 10
0.6323700787401575
 20
0.7041102362204724
 30
0.0
 10
0.6323700787401575
 20
0.7041102362204724
 30
0.0
 10
0.6323700787401575
 20
0.7041102362204724
 30
0.0
 10
0.6323700787401575
 20
0.7041102362204724
 30
0.0
 10
0.6676181102362205
 20
0.6092204724409449
 30
0.0
 10
0.6676181102362205
 20
0.6092204724409449
 30
0.0
 10
0.6676181102362205
 20
0.6092204724409449
 30
0.0
 10
0.6693425196850394
 20
0.6044448818897638
 30
0.0
 10
0.6710905511811024
 20
0.6012755905511811
 30
0.0
 10
0.6728700787401575
 20
0.599748031496063
 30
0.0
 10
0.6728700787401575
 20
0.599748031496063
 30
0.0
 10
0.6746181102362205
 20
0.5981929133858268
 30
0.0
 10
0.677007874015748
 20
0.5974173228346457
 30
0.0
 10
0.6799803149606299
 20
0.5974173228346457
 30
0.0
 10
0.6799803149606299
 20
0.5974173228346457
 30
0.0
 10
0.6799803149606299
 20
0.5974173228346457
 30
0.0
 10
0.681759842519685
 20
0.5974173228346457
 30
0.0
 10
0.681759842519685
 20
0.5974173228346457
 30
0.0
 10
0.681759842519685
 20
0.5974173228346457
 30
0.0
 10
0.681759842519685
 20
0.5974173228346457
 30
0.0
 10
0.681759842519685
 20
0.5905826771653544
 30
0.0
 10
0.681759842519685
 20
0.5905826771653544
 30
0.0
 10
0.681759842519685
 20
0.5905826771653544
 30
0.0
 10
0.681759842519685
 20
0.5905826771653544
 30
0.0
 10
0.6413149606299213
 20
0.5905826771653544
 30
0.0
 10
0.6413149606299213
 20
0.5905826771653544
 30
0.0
 10
0.6413149606299213
 20
0.5905826771653544
 30
0.0
 10
0.6413149606299213
 20
0.5905826771653544
 30
0.0
 10
0.6413149606299213
 20
0.5974173228346457
 30
0.0
 10
0.6413149606299213
 20
0.5974173228346457
 30
0.0
 10
0.6413149606299213
 20
0.5974173228346457
 30
0.0
 10
0.6426181102362205
 20
0.5975275590551181
 30
0.0
 10
0.6438976377952757
 20
0.5975826771653544
 30
0.0
 10
0.6451496062992126
 20
0.5975826771653544
 30
0.0
 10
0.6451496062992126
 20
0.5975826771653544
 30
0.0
 10
0.6477598425196851
 20
0.5975826771653544
 30
0.0
 10
0.6494527559055119
 20
0.5978622047244094
 30
0.0
 10
0.6502874015748031
 20
0.5983897637795276
 30
0.0
 10
0.6502874015748031
 20
0.5983897637795276
 30
0.0
 10
0.6518425196850394
 20
0.5994173228346457
 30
0.0
 10
0.6526456692913386
 20
0.600720472440945
 30
0.0
 10
0.6526456692913386
 20
0.6023031496062993
 30
0.0
 10
0.6526456692913386
 20
0.6023031496062993
 30
0.0
 10
0.6526456692913386
 20
0.6034448818897638
 30
0.0
 10
0.6518700787401575
 20
0.6062204724409449
 30
0.0
 10
0.6503700787401575
 20
0.6106929133858268
 30
0.0
 10
0.6503700787401575
 20
0.6106929133858268
 30
0.0
 10
0.6503700787401575
 20
0.6106929133858268
 30
0.0
 10
0.6428700787401576
 20
0.6326653543307087
 30
0.0
 10
0.6428700787401576
 20
0.6326653543307087
 30
0.0
 10
0.6428700787401576
 20
0.6326653543307087
 30
0.0
 10
0.6428700787401576
 20
0.6326653543307087
 30
0.0
 10
0.6017047244094489
 20
0.6326653543307087
 30
0.0
 10
0.6017047244094489
 20
0.6326653543307087
 30
0.0
 10
0.6017047244094489
 20
0.6326653543307087
 30
0.0
 10
0.6017047244094489
 20
0.6326653543307087
 30
0.0
 10
0.5928976377952756
 20
0.6080826771653544
 30
0.0
 10
0.5928976377952756
 20
0.6080826771653544
 30
0.0
 10
0.5928976377952756
 20
0.6080826771653544
 30
0.0
 10
0.59198031496063
 20
0.6055275590551181
 30
0.0
 10
0.591507874015748
 20
0.6037755905511811
 30
0.0
 10
0.591507874015748
 20
0.6027755905511811
 30
0.0
 10
0.591507874015748
 20
0.6027755905511811
 30
0.0
 10
0.591507874015748
 20
0.6016929133858268
 30
0.0
 10
0.5918149606299212
 20
0.600748031496063
 30
0.0
 10
0.5923700787401575
 20
0.5999448818897638
 30
0.0
 10
0.5923700787401575
 20
0.5999448818897638
 30
0.0
 10
0.5929527559055119
 20
0.5991377952755905
 30
0.0
 10
0.5937047244094489
 20
0.5985275590551181
 30
0.0
 10
0.5947047244094489
 20
0.5981102362204724
 30
0.0
 10
0.5947047244094489
 20
0.5981102362204724
 30
0.0
 10
0.5956771653543307
 20
0.5976929133858268
 30
0.0
 10
0.5972322834645669
 20
0.5975
 30
0.0
 10
0.5994251968503938
 20
0.5975
 30
0.0
 10
0.5994251968503938
 20
0.5975
 30
0.0
 10
0.6008700787401575
 20
0.5975
 30
0.0
 10
0.6020629921259842
 20
0.5974724409448819
 30
0.0
 10
0.60298031496063
 20
0.5974173228346457
 30
0.0
 10
0.60298031496063
 20
0.5974173228346457
 30
0.0
 10
0.60298031496063
 20
0.5974173228346457
 30
0.0
 10
0.60298031496063
 20
0.5905826771653544
 30
0.0
 10
0.60298031496063
 20
0.5905826771653544
 30
0.0
 10
0.60298031496063
 20
0.5905826771653544
 30
0.0
 10
0.60298031496063
 20
0.5905826771653544
 30
0.0
 10
0.5690629921259843
 20
0.5905826771653544
 30
0.0
 10
0.5690629921259843
 20
0.5905826771653544
 30
0.0
 10
0.5690629921259843
 20
0.5905826771653544
 30
0.0
 10
0.5690629921259843
 20
0.5905826771653544
 30
0.0
 10
0.5690629921259843
 20
0.5974173228346457
 30
0.0
 10
0.5690629921259843
 20
0.5974173228346457
 30
0.0
 10
0.5690629921259843
 20
0.5974173228346457
 30
0.0
 10
0.5722047244094488
 20
0.5974173228346457
 30
0.0
 10
0.5744803149606299
 20
0.597720472440945
 30
0.0
 10
0.5758425196850394
 20
0.5983622047244095
 30
0.0
 10
0.5758425196850394
 20
0.5983622047244095
 30
0.0
 10
0.5772322834645669
 20
0.5989724409448819
 30
0.0
 10
0.5784527559055118
 20
0.5999724409448819
 30
0.0
 10
0.5794803149606299
 20
0.6013622047244095
 30
0.0
 10
0.5794803149606299
 20
0.6013622047244095
 30
0.0
 10
0.5805078740157481
 20
0.602748031496063
 30
0.0
 10
0.5818700787401575
 20
0.6056653543307087
 30
0.0
 10
0.5835354330708662
 20
0.6101102362204725
 30
0.0
 10
0.5835354330708662
 20
0.6101102362204725
 30
0.0
 10
0.5835354330708662
 20
0.6101102362204725
 30
0.0
 10
0.6189527559055118
 20
0.7041102362204724
 30
0.0
 10
0.6189527559055118
 20
0.7041102362204724
 30
0.0
  0
SPLINE
  5
99
330
1F
100
AcDbEntity
  8
LAYER_1
 62
   250
100
AcDbSpline
210
0.0
220
0.0
230
1.0
 70
    11
 71
     3
 72
    16
 73
    12
 74
     0
 42
0.0000000001
 43
0.0000000001
 40
0.0
 40
0.0
 40
0.0
 40
0.0
 40
0.3333333333333333
 40
0.3333333333333333
 40
0.3333333333333333
 40
0.3333333333333333
 40
0.6666666666666666
 40
0.6666666666666666
 40
0.6666666666666666
 40
0.6666666666666666
 40
1.0
 40
1.0
 40
1.0
 40
1.0
 10
0.6047047244094489
 20
0.6406377952755906
 30
0.0
 10
0.6047047244094489
 20
0.6406377952755906
 30
0.0
 10
0.6397874015748032
 20
0.6406377952755906
 30
0.0
 10
0.6397874015748032
 20
0.6406377952755906
 30
0.0
 10
0.6397874015748032
 20
0.6406377952755906
 30
0.0
 10
0.6397874015748032
 20
0.6406377952755906
 30
0.0
 10
0.6222047244094489
 20
0.6894724409448819
 30
0.0
 10
0.6222047244094489
 20
0.6894724409448819
 30
0.0
 10
0.6222047244094489
 20
0.6894724409448819
 30
0.0
 10
0.6222047244094489
 20
0.6894724409448819
 30
0.0
 10
0.6047047244094489
 20
0.6406377952755906
 30
0.0
 10
0.6047047244094489
 20
0.6406377952755906
 30
0.0
  0
SPLINE
  5
9A
330
1F
100
AcDbEntity
  8
LAYER_1
 62
   250
100
AcDbSpline
210
0.0
220
0.0
230
1.0
 70
    11
 71
     3
 72
    72
 73
    68
 74
     0
 42
0.0000000001
 43
0.0000000001
 40
0.0
 40
0.0
 40
0.0
 40
0.0
 40
0.0588235294117647
 40
0.0588235294117647
 40
0.0588235294117647
 40
0.0588235294117647
 40
0.1176470588235294
 40
0.1176470588235294
 40
0.1176470588235294
 40
0.1176470588235294
 40
0.1764705882352941
 40
0.1764705882352941
 40
0.1764705882352941
 40
0.1764705882352941
 40
0.2352941176470588
 40
0.2352941176470588
 40
0.2352941176470588
 40
0.2352941176470588
 40
0.2941176470588235
 40
0.2941176470588235
 40
0.2941176470588235
 40
0.2941176470588235
 40
0.3529411764705883
 40
0.3529411764705883
 40
0.3529411764705883
 40
0.3529411764705883
 40
0.411764705882353
 40
0.411764705882353
 40
0.411764705882353
 40
0.411764705882353
 40
0.4705882352941177
 40
0.4705882352941177
 40
0.4705882352941177
 40
0.4705882352941177
 40
0.5294117647058824
 40
0.5294117647058824
 40
0.5294117647058824
 40
0.5294117647058824
 40
0.5882352941176471
 40
0.5882352941176471
 40
0.5882352941176471
 40
0.5882352941176471
 40
0.6470588235294118
 40
0.6470588235294118
 40
0.6470588235294118
 40
0.6470588235294118
 40
0.7058823529411765
 40
0.7058823529411765
 40
0.7058823529411765
 40
0.7058823529411765
 40
0.7647058823529412
 40
0.7647058823529412
 40
0.7647058823529412
 40
0.7647058823529412
 40
0.823529411764706
 40
0.823529411764706
 40
0.823529411764706
 40
0.823529411764706
 40
0.8823529411764707
 40
0.8823529411764707
 40
0.8823529411764707
 40
0.8823529411764707
 40
0.9411764705882354
 40
0.9411764705882354
 40
0.9411764705882354
 40
0.9411764705882354
 40
1.0
 40
1.0
 40
1.0
 40
1.0
 10
0.8447874015748031
 20
0.7041102362204724
 30
0.0
 10
0.8447874015748031
 20
0.7041102362204724
 30
0.0
 10
0.8508700787401575
 20
0.7041102362204724
 30
0.0
 10
0.8508700787401575
 20
0.7041102362204724
 30
0.0
 10
0.8508700787401575
 20
0.7041102362204724
 30
0.0
 10
0.8508700787401575
 20
0.7041102362204724
 30
0.0
 10
0.8508700787401575
 20
0.6098622047244094
 30
0.0
 10
0.8508700787401575
 20
0.6098622047244094
 30
0.0
 10
0.8508700787401575
 20
0.6098622047244094
 30
0.0
 10
0.8508700787401575
 20
0.6054173228346457
 30
0.0
 10
0.8511771653543307
 20
0.6025551181102362
 30
0.0
 10
0.851732283464567
 20
0.6012755905511811
 30
0.0
 10
0.851732283464567
 20
0.6012755905511811
 30
0.0
 10
0.8523149606299213
 20
0.6
 30
0.0
 10
0.8532322834645669
 20
0.5990551181102363
 30
0.0
 10
0.8545354330708662
 20
0.5983897637795276
 30
0.0
 10
0.8545354330708662
 20
0.5983897637795276
 30
0.0
 10
0.8558425196850394
 20
0.597748031496063
 30
0.0
 10
0.8584251968503938
 20
0.5974173228346457
 30
0.0
 10
0.8622874015748032
 20
0.5974173228346457
 30
0.0
 10
0.8622874015748032
 20
0.5974173228346457
 30
0.0
 10
0.8622874015748032
 20
0.5974173228346457
 30
0.0
 10
0.870259842519685
 20
0.5974173228346457
 30
0.0
 10
0.870259842519685
 20
0.5974173228346457
 30
0.0
 10
0.870259842519685
 20
0.5974173228346457
 30
0.0
 10
0.870259842519685
 20
0.5974173228346457
 30
0.0
 10
0.870259842519685
 20
0.5905826771653544
 30
0.0
 10
0.870259842519685
 20
0.5905826771653544
 30
0.0
 10
0.870259842519685
 20
0.5905826771653544
 30
0.0
 10
0.870259842519685
 20
0.5905826771653544
 30
0.0
 10
0.8166220472440945
 20
0.5905826771653544
 30
0.0
 10
0.8166220472440945
 20
0.5905826771653544
 30
0.0
 10
0.8166220472440945
 20
0.5905826771653544
 30
0.0
 10
0.8166220472440945
 20
0.5905826771653544
 30
0.0
 10
0.8166220472440945
 20
0.5974173228346457
 30
0.0
 10
0.8166220472440945
 20
0.5974173228346457
 30
0.0
 10
0.8166220472440945
 20
0.5974173228346457
 30
0.0
 10
0.8166220472440945
 20
0.5974173228346457
 30
0.0
 10
0.8254803149606299
 20
0.5974173228346457
 30
0.0
 10
0.8254803149606299
 20
0.5974173228346457
 30
0.0
 10
0.8254803149606299
 20
0.5974173228346457
 30
0.0
 10
0.8293425196850394
 20
0.5974173228346457
 30
0.0
 10
0.8318976377952756
 20
0.597748031496063
 30
0.0
 10
0.8331771653543307
 20
0.5984448818897638
 30
0.0
 10
0.8331771653543307
 20
0.5984448818897638
 30
0.0
 10
0.8344527559055118
 20
0.5991102362204724
 30
0.0
 10
0.8354527559055118
 20
0.6001929133858268
 30
0.0
 10
0.8361496062992126
 20
0.6016929133858268
 30
0.0
 10
0.8361496062992126
 20
0.6016929133858268
 30
0.0
 10
0.8368425196850394
 20
0.6031929133858268
 30
0.0
 10
0.8372047244094488
 20
0.6059173228346457
 30
0.0
 10
0.8372047244094488
 20
0.6098622047244094
 30
0.0
 10
0.8372047244094488
 20
0.6098622047244094
 30
0.0
 10
0.8372047244094488
 20
0.6098622047244094
 30
0.0
 10
0.8372047244094488
 20
0.6873307086614173
 30
0.0
 10
0.8372047244094488
 20
0.6873307086614173
 30
0.0
 10
0.8372047244094488
 20
0.6873307086614173
 30
0.0
 10
0.8372047244094488
 20
0.6873307086614173
 30
0.0
 10
0.8166220472440945
 20
0.6873307086614173
 30
0.0
 10
0.8166220472440945
 20
0.6873307086614173
 30
0.0
 10
0.8166220472440945
 20
0.6873307086614173
 30
0.0
 10
0.8166220472440945
 20
0.6873307086614173
 30
0.0
 10
0.8166220472440945
 20
0.6943307086614173
 30
0.0
 10
0.8166220472440945
 20
0.6943307086614173
 30
0.0
 10
0.8166220472440945
 20
0.6943307086614173
 30
0.0
 10
0.8278425196850394
 20
0.6959133858267717
 30
0.0
 10
0.8372322834645669
 20
0.6991653543307087
 30
0.0
 10
0.8447874015748031
 20
0.7041102362204724
 30
0.0
  0
SPLINE
  5
9B
330
1F
100
AcDbEntity
  8
LAYER_1
 62
   250
100
AcDbSpline
210
0.0
220
0.0
230
1.0
 70
    11
 71
     3
 72
    80
 73
    76
 74
     0
 42
0.0000000001
 43
0.0000000001
 40
0.0
 40
0.0
 40
0.0
 40
0.0
 40
0.0526315789473684
 40
0.0526315789473684
 40
0.0526315789473684
 40
0.0526315789473684
 40
0.1052631578947368
 40
0.1052631578947368
 40
0.1052631578947368
 40
0.1052631578947368
 40
0.1578947368421053
 40
0.1578947368421053
 40
0.1578947368421053
 40
0.1578947368421053
 40
0.2105263157894737
 40
0.2105263157894737
 40
0.2105263157894737
 40
0.2105263157894737
 40
0.2631578947368421
 40
0.2631578947368421
 40
0.2631578947368421
 40
0.2631578947368421
 40
0.3157894736842105
 40
0.3157894736842105
 40
0.3157894736842105
 40
0.3157894736842105
 40
0.3684210526315789
 40
0.3684210526315789
 40
0.3684210526315789
 40
0.3684210526315789
 40
0.4210526315789474
 40
0.4210526315789474
 40
0.4210526315789474
 40
0.4210526315789474
 40
0.4736842105263158
 40
0.4736842105263158
 40
0.4736842105263158
 40
0.4736842105263158
 40
0.5263157894736842
 40
0.5263157894736842
 40
0.5263157894736842
 40
0.5263157894736842
 40
0.5789473684210527
 40
0.5789473684210527
 40
0.5789473684210527
 40
0.5789473684210527
 40
0.631578947368421
 40
0.631578947368421
 40
0.631578947368421
 40
0.631578947368421
 40
0.6842105263157894
 40
0.6842105263157894
 40
0.6842105263157894
 40
0.6842105263157894
 40
0.7368421052631577
 40
0.7368421052631577
 40
0.7368421052631577
 40
0.7368421052631577
 40
0.7894736842105261
 40
0.7894736842105261
 40
0.7894736842105261
 40
0.7894736842105261
 40
0.8421052631578945
 40
0.8421052631578945
 40
0.8421052631578945
 40
0.8421052631578945
 40
0.8947368421052628
 40
0.8947368421052628
 40
0.8947368421052628
 40
0.8947368421052628
 40
0.9473684210526312
 40
0.9473684210526312
 40
0.9473684210526312
 40
0.9473684210526312
 40
1.0
 40
1.0
 40
1.0
 40
1.0
 10
0.9102047244094489
 20
0.708248031496063
 30
0.0
 10
0.9102047244094489
 20
0.708248031496063
 30
0.0
 10
0.9155944881889764
 20
0.708248031496063
 30
0.0
 10
0.9155944881889764
 20
0.708248031496063
 30
0.0
 10
0.9155944881889764
 20
0.708248031496063
 30
0.0
 10
0.9155944881889764
 20
0.708248031496063
 30
0.0
 10
0.9165669291338583
 20
0.7041102362204724
 30
0.0
 10
0.9165669291338583
 20
0.7041102362204724
 30
0.0
 10
0.9165669291338583
 20
0.7041102362204724
 30
0.0
 10
0.9165669291338583
 20
0.7041102362204724
 30
0.0
 10
0.9876771653543307
 20
0.7041102362204724
 30
0.0
 10
0.9876771653543307
 20
0.7041102362204724
 30
0.0
 10
0.9876771653543307
 20
0.7041102362204724
 30
0.0
 10
0.9876771653543307
 20
0.7041102362204724
 30
0.0
 10
0.9876771653543307
 20
0.6971929133858268
 30
0.0
 10
0.9876771653543307
 20
0.6971929133858268
 30
0.0
 10
0.9876771653543307
 20
0.6971929133858268
 30
0.0
 10
0.9791771653543308
 20
0.6873582677165354
 30
0.0
 10
0.9714527559055118
 20
0.6761929133858268
 30
0.0
 10
0.9645393700787402
 20
0.6636102362204724
 30
0.0
 10
0.9645393700787402
 20
0.6636102362204724
 30
0.0
 10
0.9576220472440945
 20
0.6510551181102362
 30
0.0
 10
0.9522598425196851
 20
0.6382755905511811
 30
0.0
 10
0.9484527559055118
 20
0.625248031496063
 30
0.0
 10
0.9484527559055118
 20
0.625248031496063
 30
0.0
 10
0.9457047244094489
 20
0.6158622047244095
 30
0.0
 10
0.9434566929133859
 20
0.6043031496062993
 30
0.0
 10
0.9417047244094489
 20
0.5905826771653544
 30
0.0
 10
0.9417047244094489
 20
0.5905826771653544
 30
0.0
 10
0.9417047244094489
 20
0.5905826771653544
 30
0.0
 10
0.9250393700787402
 20
0.5905826771653544
 30
0.0
 10
0.9250393700787402
 20
0.5905826771653544
 30
0.0
 10
0.9250393700787402
 20
0.5905826771653544
 30
0.0
 10
0.9266496062992127
 20
0.6026929133858268
 30
0.0
 10
0.9293149606299213
 20
0.614
 30
0.0
 10
0.9330393700787402
 20
0.6245275590551181
 30
0.0
 10
0.9330393700787402
 20
0.6245275590551181
 30
0.0
 10
0.936759842519685
 20
0.6350551181102363
 30
0.0
 10
0.9421220472440945
 20
0.6460551181102362
 30
0.0
 10
0.9491496062992126
 20
0.6575275590551182
 30
0.0
 10
0.9491496062992126
 20
0.6575275590551182
 30
0.0
 10
0.9561771653543307
 20
0.669
 30
0.0
 10
0.9647047244094489
 20
0.6804448818897638
 30
0.0
 10
0.9747598425196851
 20
0.6918858267716536
 30
0.0
 10
0.9747598425196851
 20
0.6918858267716536
 30
0.0
 10
0.9747598425196851
 20
0.6918858267716536
 30
0.0
 10
0.9240393700787402
 20
0.6918858267716536
 30
0.0
 10
0.9240393700787402
 20
0.6918858267716536
 30
0.0
 10
0.9240393700787402
 20
0.6918858267716536
 30
0.0
 10
0.9203700787401575
 20
0.6918858267716536
 30
0.0
 10
0.9178425196850394
 20
0.6917204724409449
 30
0.0
 10
0.916484251968504
 20
0.6913307086614173
 30
0.0
 10
0.916484251968504
 20
0.6913307086614173
 30
0.0
 10
0.9151220472440945
 20
0.6909448818897638
 30
0.0
 10
0.9140669291338583
 20
0.6903582677165354
 30
0.0
 10
0.9133149606299214
 20
0.6895551181102363
 30
0.0
 10
0.9133149606299214
 20
0.6895551181102363
 30
0.0
 10
0.9125393700787402
 20
0.6887204724409449
 30
0.0
 10
0.9118976377952757
 20
0.6872755905511812
 30
0.0
 10
0.9113425196850394
 20
0.6852204724409449
 30
0.0
 10
0.9113425196850394
 20
0.6852204724409449
 30
0.0
 10
0.9113425196850394
 20
0.6852204724409449
 30
0.0
 10
0.9109566929133859
 20
0.6836929133858268
 30
0.0
 10
0.9109566929133859
 20
0.6836929133858268
 30
0.0
 10
0.9109566929133859
 20
0.6836929133858268
 30
0.0
 10
0.9109566929133859
 20
0.6836929133858268
 30
0.0
 10
0.9081771653543308
 20
0.6740826771653543
 30
0.0
 10
0.9081771653543308
 20
0.6740826771653543
 30
0.0
 10
0.9081771653543308
 20
0.6740826771653543
 30
0.0
 10
0.9081771653543308
 20
0.6740826771653543
 30
0.0
 10
0.9012598425196851
 20
0.6755551181102363
 30
0.0
 10
0.9012598425196851
 20
0.6755551181102363
 30
0.0
 10
0.9012598425196851
 20
0.6755551181102363
 30
0.0
 10
0.9012598425196851
 20
0.6755551181102363
 30
0.0
 10
0.9102047244094489
 20
0.708248031496063
 30
0.0
 10
0.9102047244094489
 20
0.708248031496063
 30
0.0
  0
SPLINE
  5
9C
330
1F
100
AcDbEntity
  8
LAYER_1
 62
   250
100
AcDbSpline
210
0.0
220
0.0
230
1.0
 70
    11
 71
     3
 72
   132
 73
   128
 74
     0
 42
0.0000000001
 43
0.0000000001
 40
0.0
 40
0.0
 40
0.0
 40
0.0
 40
0.03125
 40
0.03125
 40
0.03125
 40
0.03125
 40
0.0625
 40
0.0625
 40
0.0625
 40
0.0625
 40
0.09375
 40
0.09375
 40
0.09375
 40
0.09375
 40
0.125
 40
0.125
 40
0.125
 40
0.125
 40
0.15625
 40
0.15625
 40
0.15625
 40
0.15625
 40
0.1875
 40
0.1875
 40
0.1875
 40
0.1875
 40
0.21875
 40
0.21875
 40
0.21875
 40
0.21875
 40
0.25
 40
0.25
 40
0.25
 40
0.25
 40
0.28125
 40
0.28125
 40
0.28125
 40
0.28125
 40
0.3125
 40
0.3125
 40
0.3125
 40
0.3125
 40
0.34375
 40
0.34375
 40
0.34375
 40
0.34375
 40
0.375
 40
0.375
 40
0.375
 40
0.375
 40
0.40625
 40
0.40625
 40
0.40625
 40
0.40625
 40
0.4375
 40
0.4375
 40
0.4375
 40
0.4375
 40
0.46875
 40
0.46875
 40
0.46875
 40
0.46875
 40
0.5
 40
0.5
 40
0.5
 40
0.5
 40
0.53125
 40
0.53125
 40
0.53125
 40
0.53125
 40
0.5625
 40
0.5625
 40
0.5625
 40
0.5625
 40
0.59375
 40
0.59375
 40
0.59375
 40
0.59375
 40
0.625
 40
0.625
 40
0.625
 40
0.625
 40
0.65625
 40
0.65625
 40
0.65625
 40
0.65625
 40
0.6875
 40
0.6875
 40
0.6875
 40
0.6875
 40
0.71875
 40
0.71875
 40
0.71875
 40
0.71875
 40
0.75
 40
0.75
 40
0.75
 40
0.75
 40
0.78125
 40
0.78125
 40
0.78125
 40
0.78125
 40
0.8125
 40
0.8125
 40
0.8125
 40
0.8125
 40
0.84375
 40
0.84375
 40
0.84375
 40
0.84375
 40
0.875
 40
0.875
 40
0.875
 40
0.875
 40
0.90625
 40
0.90625
 40
0.90625
 40
0.90625
 40
0.9375
 40
0.9375
 40
0.9375
 40
0.9375
 40
0.96875
 40
0.96875
 40
0.96875
 40
0.96875
 40
1.0
 40
1.0
 40
1.0
 40
1.0
 10
1.01790157480315
 20
0.7041102362204724
 30
0.0
 10
1.01790157480315
 20
0.7041102362204724
 30
0.0
 10
1.068511811023622
 20
0.7041102362204724
 30
0.0
 10
1.068511811023622
 20
0.7041102362204724
 30
0.0
 10
1.068511811023622
 20
0.7041102362204724
 30
0.0
 10
1.071594488188977
 20
0.7041102362204724
 30
0.0
 10
1.073484251968504
 20
0.7042755905511812
 30
0.0
 10
1.074122047244094
 20
0.7046102362204725
 30
0.0
 10
1.074122047244094
 20
0.7046102362204725
 30
0.0
 10
1.07503937007874
 20
0.7051377952755906
 30
0.0
 10
1.075594488188977
 20
0.7063031496062993
 30
0.0
 10
1.075759842519685
 20
0.7080826771653543
 30
0.0
 10
1.075759842519685
 20
0.7080826771653543
 30
0.0
 10
1.075759842519685
 20
0.7080826771653543
 30
0.0
 10
1.081704724409449
 20
0.7080826771653543
 30
0.0
 10
1.081704724409449
 20
0.7080826771653543
 30
0.0
 10
1.081704724409449
 20
0.7080826771653543
 30
0.0
 10
1.081704724409449
 20
0.7080826771653543
 30
0.0
 10
1.081704724409449
 20
0.6909133858267716
 30
0.0
 10
1.081704724409449
 20
0.6909133858267716
 30
0.0
 10
1.081704724409449
 20
0.6909133858267716
 30
0.0
 10
1.081704724409449
 20
0.6909133858267716
 30
0.0
 10
1.025456692913386
 20
0.6909133858267716
 30
0.0
 10
1.025456692913386
 20
0.6909133858267716
 30
0.0
 10
1.025456692913386
 20
0.6909133858267716
 30
0.0
 10
1.025456692913386
 20
0.6909133858267716
 30
0.0
 10
1.024066929133858
 20
0.6622755905511811
 30
0.0
 10
1.024066929133858
 20
0.6622755905511811
 30
0.0
 10
1.024066929133858
 20
0.6622755905511811
 30
0.0
 10
1.02640157480315
 20
0.6629448818897639
 30
0.0
 10
1.029374015748032
 20
0.6634724409448819
 30
0.0
 10
1.032956692913386
 20
0.6639173228346457
 30
0.0
 10
1.032956692913386
 20
0.6639173228346457
 30
0.0
 10
1.037566929133858
 20
0.6644448818897638
 30
0.0
 10
1.041677165354331
 20
0.6647204724409449
 30
0.0
 10
1.045318897637795
 20
0.6647204724409449
 30
0.0
 10
1.045318897637795
 20
0.6647204724409449
 30
0.0
 10
1.054374015748032
 20
0.6647204724409449
 30
0.0
 10
1.062259842519685
 20
0.6630826771653544
 30
0.0
 10
1.069011811023622
 20
0.6598307086614174
 30
0.0
 10
1.069011811023622
 20
0.6598307086614174
 30
0.0
 10
1.075732283464567
 20
0.6565826771653543
 30
0.0
 10
1.080842519685039
 20
0.6521102362204725
 30
0.0
 10
1.084342519685039
 20
0.6464448818897638
 30
0.0
 10
1.084342519685039
 20
0.6464448818897638
 30
0.0
 10
1.087842519685039
 20
0.6407755905511812
 30
0.0
 10
1.089594488188977
 20
0.6344448818897638
 30
0.0
 10
1.089594488188977
 20
0.6274448818897638
 30
0.0
 10
1.089594488188977
 20
0.6274448818897638
 30
0.0
 10
1.089594488188977
 20
0.6166102362204725
 30
0.0
 10
1.085511811023622
 20
0.6074173228346457
 30
0.0
 10
1.077374015748032
 20
0.5998897637795276
 30
0.0
 10
1.077374015748032
 20
0.5998897637795276
 30
0.0
 10
1.069232283464567
 20
0.5923897637795276
 30
0.0
 10
1.058874015748032
 20
0.5886377952755906
 30
0.0
 10
1.046287401574803
 20
0.5886377952755906
 30
0.0
 10
1.046287401574803
 20
0.5886377952755906
 30
0.0
 10
1.039011811023622
 20
0.5886377952755906
 30
0.0
 10
1.032456692913386
 20
0.5899448818897638
 30
0.0
 10
1.026566929133858
 20
0.5925275590551181
 30
0.0
 10
1.026566929133858
 20
0.5925275590551181
 30
0.0
 10
1.020677165354331
 20
0.5951377952755905
 30
0.0
 10
1.016066929133858
 20
0.5985826771653544
 30
0.0
 10
1.012759842519685
 20
0.6028307086614173
 30
0.0
 10
1.012759842519685
 20
0.6028307086614173
 30
0.0
 10
1.009456692913386
 20
0.6070826771653544
 30
0.0
 10
1.007791338582677
 20
0.6108307086614173
 30
0.0
 10
1.007791338582677
 20
0.6140275590551182
 30
0.0
 10
1.007791338582677
 20
0.6140275590551182
 30
0.0
 10
1.007791338582677
 20
0.6161377952755905
 30
0.0
 10
1.008511811023622
 20
0.6179724409448819
 30
0.0
 10
1.009929133858268
 20
0.6195275590551181
 30
0.0
 10
1.009929133858268
 20
0.6195275590551181
 30
0.0
 10
1.011318897637795
 20
0.6210551181102363
 30
0.0
 10
1.013149606299213
 20
0.6218307086614173
 30
0.0
 10
1.015374015748032
 20
0.6218307086614173
 30
0.0
 10
1.015374015748032
 20
0.6218307086614173
 30
0.0
 10
1.017649606299213
 20
0.6218307086614173
 30
0.0
 10
1.019649606299213
 20
0.6208897637795275
 30
0.0
 10
1.02140157480315
 20
0.6189724409448819
 30
0.0
 10
1.02140157480315
 20
0.6189724409448819
 30
0.0
 10
1.022374015748031
 20
0.618
 30
0.0
 10
1.02353937007874
 20
0.6156102362204725
 30
0.0
 10
1.02490157480315
 20
0.6118307086614173
 30
0.0
 10
1.02490157480315
 20
0.6118307086614173
 30
0.0
 10
1.026732283464567
 20
0.6065
 30
0.0
 10
1.029484251968504
 20
0.6026102362204725
 30
0.0
 10
1.033122047244095
 20
0.6001102362204724
 30
0.0
 10
1.033122047244095
 20
0.6001102362204724
 30
0.0
 10
1.036677165354331
 20
0.5975551181102362
 30
0.0
 10
1.041204724409449
 20
0.5962755905511812
 30
0.0
 10
1.046622047244095
 20
0.5962755905511812
 30
0.0
 10
1.046622047244095
 20
0.5962755905511812
 30
0.0
 10
1.05203937007874
 20
0.5962755905511812
 30
0.0
 10
1.056874015748032
 20
0.5974724409448819
 30
0.0
 10
1.061094488188976
 20
0.5998307086614173
 30
0.0
 10
1.061094488188976
 20
0.5998307086614173
 30
0.0
 10
1.065346456692913
 20
0.6021653543307087
 30
0.0
 10
1.068677165354331
 20
0.6055826771653543
 30
0.0
 10
1.071122047244095
 20
0.61
 30
0.0
 10
1.071122047244095
 20
0.61
 30
0.0
 10
1.073566929133858
 20
0.6144173228346457
 30
0.0
 10
1.074787401574803
 20
0.6193307086614174
 30
0.0
 10
1.074787401574803
 20
0.6247480314960631
 30
0.0
 10
1.074787401574803
 20
0.6247480314960631
 30
0.0
 10
1.074787401574803
 20
0.6304724409448819
 30
0.0
 10
1.073456692913386
 20
0.6355275590551182
 30
0.0
 10
1.070814960629921
 20
0.6399724409448819
 30
0.0
 10
1.070814960629921
 20
0.6399724409448819
 30
0.0
 10
1.068204724409449
 20
0.6444173228346457
 30
0.0
 10
1.064429133858268
 20
0.6478858267716535
 30
0.0
 10
1.059511811023622
 20
0.6503031496062992
 30
0.0
 10
1.059511811023622
 20
0.6503031496062992
 30
0.0
 10
1.054594488188976
 20
0.652748031496063
 30
0.0
 10
1.048622047244095
 20
0.6539724409448819
 30
0.0
 10
1.041566929133858
 20
0.6539724409448819
 30
0.0
 10
1.041566929133858
 20
0.6539724409448819
 30
0.0
 10
1.037287401574803
 20
0.6539724409448819
 30
0.0
 10
1.032677165354331
 20
0.6535275590551182
 30
0.0
 10
1.027787401574803
 20
0.6525826771653543
 30
0.0
 10
1.027787401574803
 20
0.6525826771653543
 30
0.0
 10
1.022874015748032
 20
0.6516653543307087
 30
0.0
 10
1.018649606299213
 20
0.6505000000000001
 30
0.0
 10
1.015122047244095
 20
0.6490826771653544
 30
0.0
 10
1.015122047244095
 20
0.6490826771653544
 30
0.0
 10
1.015122047244095
 20
0.6490826771653544
 30
0.0
 10
1.01790157480315
 20
0.7041102362204724
 30
0.0
 10
1.01790157480315
 20
0.7041102362204724
 30
0.0
  0
SPLINE
  5
9D
330
1F
100
AcDbEntity
  8
LAYER_1
 62
   250
100
AcDbSpline
210
0.0
220
0.0
230
1.0
 70
    11
 71
     3
 72
    48
 73
    44
 74
     0
 42
0.0000000001
 43
0.0000000001
 40
0.0
 40
0.0
 40
0.0
 40
0.0
 40
0.0909090909090909
 40
0.0909090909090909
 40
0.0909090909090909
 40
0.0909090909090909
 40
0.1818181818181818
 40
0.1818181818181818
 40
0.1818181818181818
 40
0.1818181818181818
 40
0.2727272727272727
 40
0.2727272727272727
 40
0.2727272727272727
 40
0.2727272727272727
 40
0.3636363636363637
 40
0.3636363636363637
 40
0.3636363636363637
 40
0.3636363636363637
 40
0.4545454545454546
 40
0.4545454545454546
 40
0.4545454545454546
 40
0.4545454545454546
 40
0.5454545454545455
 40
0.5454545454545455
 40
0.5454545454545455
 40
0.5454545454545455
 40
0.6363636363636365
 40
0.6363636363636365
 40
0.6363636363636365
 40
0.6363636363636365
 40
0.7272727272727274
 40
0.7272727272727274
 40
0.7272727272727274
 40
0.7272727272727274
 40
0.8181818181818183
 40
0.8181818181818183
 40
0.8181818181818183
 40
0.8181818181818183
 40
0.9090909090909093
 40
0.9090909090909093
 40
0.9090909090909093
 40
0.9090909090909093
 40
1.0
 40
1.0
 40
1.0
 40
1.0
 10
1.150791338582677
 20
0.7060551181102363
 30
0.0
 10
1.159149606299213
 20
0.7060551181102363
 30
0.0
 10
1.166456692913386
 20
0.7039409448818897
 30
0.0
 10
1.172677165354331
 20
0.6996653543307086
 30
0.0
 10
1.172677165354331
 20
0.6996653543307086
 30
0.0
 10
1.178929133858268
 20
0.6954133858267717
 30
0.0
 10
1.183984251968504
 20
0.6887204724409449
 30
0.0
 10
1.18790157480315
 20
0.6796102362204725
 30
0.0
 10
1.18790157480315
 20
0.6796102362204725
 30
0.0
 10
1.191818897637795
 20
0.6705
 30
0.0
 10
1.193763779527559
 20
0.6594448818897638
 30
0.0
 10
1.193763779527559
 20
0.6465000000000001
 30
0.0
 10
1.193763779527559
 20
0.6465000000000001
 30
0.0
 10
1.193763779527559
 20
0.6272755905511811
 30
0.0
 10
1.188956692913386
 20
0.6123307086614174
 30
0.0
 10
1.179346456692914
 20
0.6016377952755906
 30
0.0
 10
1.179346456692914
 20
0.6016377952755906
 30
0.0
 10
1.17153937007874
 20
0.5929724409448819
 30
0.0
 10
1.161677165354331
 20
0.5886377952755906
 30
0.0
 10
1.149736220472441
 20
0.5886377952755906
 30
0.0
 10
1.149736220472441
 20
0.5886377952755906
 30
0.0
 10
1.141649606299213
 20
0.5886377952755906
 30
0.0
 10
1.134484251968504
 20
0.5907755905511811
 30
0.0
 10
1.128263779527559
 20
0.5951102362204724
 30
0.0
 10
1.128263779527559
 20
0.5951102362204724
 30
0.0
 10
1.122011811023622
 20
0.5994173228346457
 30
0.0
 10
1.116956692913386
 20
0.6058897637795276
 30
0.0
 10
1.113122047244095
 20
0.6145000000000001
 30
0.0
 10
1.113122047244095
 20
0.6145000000000001
 30
0.0
 10
1.109263779527559
 20
0.6231377952755905
 30
0.0
 10
1.107346456692913
 20
0.6340826771653544
 30
0.0
 10
1.107346456692913
 20
0.6473858267716536
 30
0.0
 10
1.107346456692913
 20
0.6473858267716536
 30
0.0
 10
1.107346456692913
 20
0.6607755905511812
 30
0.0
 10
1.109236220472441
 20
0.6717204724409449
 30
0.0
 10
1.112984251968504
 20
0.6801929133858268
 30
0.0
 10
1.112984251968504
 20
0.6801929133858268
 30
0.0
 10
1.116763779527559
 20
0.6886377952755906
 30
0.0
 10
1.12190157480315
 20
0.6950826771653543
 30
0.0
 10
1.12840157480315
 20
0.6994724409448819
 30
0.0
 10
1.12840157480315
 20
0.6994724409448819
 30
0.0
 10
1.134929133858268
 20
0.7038582677165355
 30
0.0
 10
1.142374015748032
 20
0.7060551181102363
 30
0.0
 10
1.150791338582677
 20
0.7060551181102363
 30
0.0
  0
SPLINE
  5
9E
330
1F
100
AcDbEntity
  8
LAYER_1
 62
   250
100
AcDbSpline
210
0.0
220
0.0
230
1.0
 70
    11
 71
     3
 72
    56
 73
    52
 74
     0
 42
0.0000000001
 43
0.0000000001
 40
0.0
 40
0.0
 40
0.0
 40
0.0
 40
0.0769230769230769
 40
0.0769230769230769
 40
0.0769230769230769
 40
0.0769230769230769
 40
0.1538461538461539
 40
0.1538461538461539
 40
0.1538461538461539
 40
0.1538461538461539
 40
0.2307692307692308
 40
0.2307692307692308
 40
0.2307692307692308
 40
0.2307692307692308
 40
0.3076923076923077
 40
0.3076923076923077
 40
0.3076923076923077
 40
0.3076923076923077
 40
0.3846153846153846
 40
0.3846153846153846
 40
0.3846153846153846
 40
0.3846153846153846
 40
0.4615384615384616
 40
0.4615384615384616
 40
0.4615384615384616
 40
0.4615384615384616
 40
0.5384615384615386
 40
0.5384615384615386
 40
0.5384615384615386
 40
0.5384615384615386
 40
0.6153846153846154
 40
0.6153846153846154
 40
0.6153846153846154
 40
0.6153846153846154
 40
0.6923076923076923
 40
0.6923076923076923
 40
0.6923076923076923
 40
0.6923076923076923
 40
0.7692307692307692
 40
0.7692307692307692
 40
0.7692307692307692
 40
0.7692307692307692
 40
0.846153846153846
 40
0.846153846153846
 40
0.846153846153846
 40
0.846153846153846
 40
0.9230769230769229
 40
0.9230769230769229
 40
0.9230769230769229
 40
0.9230769230769229
 40
1.0
 40
1.0
 40
1.0
 40
1.0
 10
1.15040157480315
 20
0.6980000000000001
 30
0.0
 10
1.144736220472441
 20
0.6980000000000001
 30
0.0
 10
1.139791338582677
 20
0.6959448818897638
 30
0.0
 10
1.135484251968504
 20
0.6918307086614174
 30
0.0
 10
1.135484251968504
 20
0.6918307086614174
 30
0.0
 10
1.131763779527559
 20
0.6882480314960631
 30
0.0
 10
1.128791338582677
 20
0.6826102362204725
 30
0.0
 10
1.126622047244094
 20
0.6748858267716535
 30
0.0
 10
1.126622047244094
 20
0.6748858267716535
 30
0.0
 10
1.124122047244095
 20
0.6661102362204725
 30
0.0
 10
1.122874015748032
 20
0.6563858267716536
 30
0.0
 10
1.122874015748032
 20
0.645748031496063
 30
0.0
 10
1.122874015748032
 20
0.645748031496063
 30
0.0
 10
1.122874015748032
 20
0.6375000000000001
 30
0.0
 10
1.123653543307087
 20
0.6300275590551181
 30
0.0
 10
1.125208661417323
 20
0.6233307086614174
 30
0.0
 10
1.125208661417323
 20
0.6233307086614174
 30
0.0
 10
1.126736220472441
 20
0.6166377952755906
 30
0.0
 10
1.128791338582677
 20
0.6114173228346457
 30
0.0
 10
1.131346456692913
 20
0.607720472440945
 30
0.0
 10
1.131346456692913
 20
0.607720472440945
 30
0.0
 10
1.13390157480315
 20
0.604
 30
0.0
 10
1.136791338582677
 20
0.601248031496063
 30
0.0
 10
1.140011811023622
 20
0.5994448818897638
 30
0.0
 10
1.140011811023622
 20
0.5994448818897638
 30
0.0
 10
1.143236220472441
 20
0.5976653543307087
 30
0.0
 10
1.146649606299213
 20
0.5967755905511811
 30
0.0
 10
1.150236220472441
 20
0.5967755905511811
 30
0.0
 10
1.150236220472441
 20
0.5967755905511811
 30
0.0
 10
1.155594488188976
 20
0.5967755905511811
 30
0.0
 10
1.160622047244095
 20
0.5988622047244094
 30
0.0
 10
1.165291338582677
 20
0.6030275590551182
 30
0.0
 10
1.165291338582677
 20
0.6030275590551182
 30
0.0
 10
1.169011811023622
 20
0.6064448818897638
 30
0.0
 10
1.171984251968504
 20
0.6115551181102362
 30
0.0
 10
1.174149606299213
 20
0.6183307086614174
 30
0.0
 10
1.174149606299213
 20
0.6183307086614174
 30
0.0
 10
1.176763779527559
 20
0.6265826771653543
 30
0.0
 10
1.178066929133858
 20
0.6362755905511811
 30
0.0
 10
1.178066929133858
 20
0.6473858267716536
 30
0.0
 10
1.178066929133858
 20
0.6473858267716536
 30
0.0
 10
1.178066929133858
 20
0.6588858267716535
 30
0.0
 10
1.176736220472441
 20
0.6686653543307087
 30
0.0
 10
1.174066929133858
 20
0.6766929133858268
 30
0.0
 10
1.174066929133858
 20
0.6766929133858268
 30
0.0
 10
1.17140157480315
 20
0.6847204724409449
 30
0.0
 10
1.168149606299213
 20
0.6902755905511812
 30
0.0
 10
1.164263779527559
 20
0.6933582677165354
 30
0.0
 10
1.164263779527559
 20
0.6933582677165354
 30
0.0
 10
1.160374015748032
 20
0.6964724409448819
 30
0.0
 10
1.155763779527559
 20
0.6980000000000001
 30
0.0
 10
1.15040157480315
 20
0.6980000000000001
 30
0.0
  0
SPLINE
  5
9F
330
1F
100
AcDbEntity
  8
LAYER_1
 62
   250
100
AcDbSpline
210
0.0
220
0.0
230
1.0
 70
    11
 71
     3
 72
   136
 73
   132
 74
     0
 42
0.0000000001
 43
0.0000000001
 40
0.0
 40
0.0
 40
0.0
 40
0.0
 40
0.0303030303030303
 40
0.0303030303030303
 40
0.0303030303030303
 40
0.0303030303030303
 40
0.0606060606060606
 40
0.0606060606060606
 40
0.0606060606060606
 40
0.0606060606060606
 40
0.0909090909090909
 40
0.0909090909090909
 40
0.0909090909090909
 40
0.0909090909090909
 40
0.1212121212121212
 40
0.1212121212121212
 40
0.1212121212121212
 40
0.1212121212121212
 40
0.1515151515151515
 40
0.1515151515151515
 40
0.1515151515151515
 40
0.1515151515151515
 40
0.1818181818181818
 40
0.1818181818181818
 40
0.1818181818181818
 40
0.1818181818181818
 40
0.2121212121212121
 40
0.2121212121212121
 40
0.2121212121212121
 40
0.2121212121212121
 40
0.2424242424242424
 40
0.2424242424242424
 40
0.2424242424242424
 40
0.2424242424242424
 40
0.2727272727272727
 40
0.2727272727272727
 40
0.2727272727272727
 40
0.2727272727272727
 40
0.303030303030303
 40
0.303030303030303
 40
0.303030303030303
 40
0.303030303030303
 40
0.3333333333333333
 40
0.3333333333333333
 40
0.3333333333333333
 40
0.3333333333333333
 40
0.3636363636363635
 40
0.3636363636363635
 40
0.3636363636363635
 40
0.3636363636363635
 40
0.3939393939393938
 40
0.3939393939393938
 40
0.3939393939393938
 40
0.3939393939393938
 40
0.4242424242424241
 40
0.4242424242424241
 40
0.4242424242424241
 40
0.4242424242424241
 40
0.4545454545454544
 40
0.4545454545454544
 40
0.4545454545454544
 40
0.4545454545454544
 40
0.4848484848484846
 40
0.4848484848484846
 40
0.4848484848484846
 40
0.4848484848484846
 40
0.5151515151515149
 40
0.5151515151515149
 40
0.5151515151515149
 40
0.5151515151515149
 40
0.5454545454545452
 40
0.5454545454545452
 40
0.5454545454545452
 40
0.5454545454545452
 40
0.5757575757575755
 40
0.5757575757575755
 40
0.5757575757575755
 40
0.5757575757575755
 40
0.6060606060606057
 40
0.6060606060606057
 40
0.6060606060606057
 40
0.6060606060606057
 40
0.636363636363636
 40
0.636363636363636
 40
0.636363636363636
 40
0.636363636363636
 40
0.6666666666666663
 40
0.6666666666666663
 40
0.6666666666666663
 40
0.6666666666666663
 40
0.6969696969696966
 40
0.6969696969696966
 40
0.6969696969696966
 40
0.6969696969696966
 40
0.7272727272727269
 40
0.7272727272727269
 40
0.7272727272727269
 40
0.7272727272727269
 40
0.7575757575757571
 40
0.7575757575757571
 40
0.7575757575757571
 40
0.7575757575757571
 40
0.7878787878787874
 40
0.7878787878787874
 40
0.7878787878787874
 40
0.7878787878787874
 40
0.8181818181818177
 40
0.8181818181818177
 40
0.8181818181818177
 40
0.8181818181818177
 40
0.848484848484848
 40
0.848484848484848
 40
0.848484848484848
 40
0.848484848484848
 40
0.8787878787878782
 40
0.8787878787878782
 40
0.8787878787878782
 40
0.8787878787878782
 40
0.9090909090909085
 40
0.9090909090909085
 40
0.9090909090909085
 40
0.9090909090909085
 40
0.9393939393939388
 40
0.9393939393939388
 40
0.9393939393939388
 40
0.9393939393939388
 40
0.9696969696969691
 40
0.9696969696969691
 40
0.9696969696969691
 40
0.9696969696969691
 40
1.0
 40
1.0
 40
1.0
 40
1.0
 10
0.3861102362204725
 20
0.4738031496062992
 30
0.0
 10
0.3861102362204725
 20
0.4738031496062992
 30
0.0
 10
0.3782204724409449
 20
0.4728307086614174
 30
0.0
 10
0.3782204724409449
 20
0.4728307086614174
 30
0.0
 10
0.3782204724409449
 20
0.4728307086614174
 30
0.0
 10
0.3777755905511811
 20
0.4766653543307087
 30
0.0
 10
0.3775551181102362
 20
0.4798307086614174
 30
0.0
 10
0.3775551181102362
 20
0.4822755905511811
 30
0.0
 10
0.3775551181102362
 20
0.4822755905511811
 30
0.0
 10
0.3775551181102362
 20
0.4886653543307087
 30
0.0
 10
0.3793031496062992
 20
0.4947204724409449
 30
0.0
 10
0.3827755905511811
 20
0.5004133858267716
 30
0.0
 10
0.3827755905511811
 20
0.5004133858267716
 30
0.0
 10
0.386248031496063
 20
0.5061102362204725
 30
0.0
 10
0.3910826771653543
 20
0.5105551181102362
 30
0.0
 10
0.3973031496062993
 20
0.513748031496063
 30
0.0
 10
0.3973031496062993
 20
0.513748031496063
 30
0.0
 10
0.403496062992126
 20
0.5169724409448819
 30
0.0
 10
0.4106377952755906
 20
0.5185551181102363
 30
0.0
 10
0.4186653543307087
 20
0.5185551181102363
 30
0.0
 10
0.4186653543307087
 20
0.5185551181102363
 30
0.0
 10
0.4264133858267717
 20
0.5185551181102363
 30
0.0
 10
0.4332204724409449
 20
0.5170551181102362
 30
0.0
 10
0.4390826771653544
 20
0.5140551181102362
 30
0.0
 10
0.4390826771653544
 20
0.5140551181102362
 30
0.0
 10
0.4449409448818898
 20
0.5110275590551181
 30
0.0
 10
0.4494133858267717
 20
0.5069133858267717
 30
0.0
 10
0.4525511811023622
 20
0.5016653543307087
 30
0.0
 10
0.4525511811023622
 20
0.5016653543307087
 30
0.0
 10
0.4556653543307087
 20
0.4964448818897638
 30
0.0
 10
0.4572204724409449
 20
0.4904724409448819
 30
0.0
 10
0.4572204724409449
 20
0.4837204724409449
 30
0.0
 10
0.4572204724409449
 20
0.4837204724409449
 30
0.0
 10
0.4572204724409449
 20
0.4780275590551181
 30
0.0
 10
0.4562204724409449
 20
0.472748031496063
 30
0.0
 10
0.4541653543307087
 20
0.4679173228346457
 30
0.0
 10
0.4541653543307087
 20
0.4679173228346457
 30
0.0
 10
0.4521377952755906
 20
0.4630551181102363
 30
0.0
 10
0.4488582677165355
 20
0.4581377952755906
 30
0.0
 10
0.4443582677165355
 20
0.4532204724409449
 30
0.0
 10
0.4443582677165355
 20
0.4532204724409449
 30
0.0
 10
0.440996062992126
 20
0.4495275590551182
 30
0.0
 10
0.4341929133858268
 20
0.4438897637795276
 30
0.0
 10
0.4239409448818898
 20
0.4362755905511811
 30
0.0
 10
0.4239409448818898
 20
0.4362755905511811
 30
0.0
 10
0.4110275590551181
 20
0.4266377952755906
 30
0.0
 10
0.4011377952755906
 20
0.4196377952755906
 30
0.0
 10
0.394248031496063
 20
0.4152755905511811
 30
0.0
 10
0.394248031496063
 20
0.4152755905511811
 30
0.0
 10
0.394248031496063
 20
0.4152755905511811
 30
0.0
 10
0.4365551181102362
 20
0.4152755905511811
 30
0.0
 10
0.4365551181102362
 20
0.4152755905511811
 30
0.0
 10
0.4365551181102362
 20
0.4152755905511811
 30
0.0
 10
0.4415551181102362
 20
0.4152755905511811
 30
0.0
 10
0.4448031496062992
 20
0.415748031496063
 30
0.0
 10
0.4463307086614173
 20
0.4166653543307087
 30
0.0
 10
0.4463307086614173
 20
0.4166653543307087
 30
0.0
 10
0.4484409448818898
 20
0.4178622047244095
 30
0.0
 10
0.4498858267716536
 20
0.4206377952755906
 30
0.0
 10
0.4506377952755906
 20
0.4249724409448819
 30
0.0
 10
0.4506377952755906
 20
0.4249724409448819
 30
0.0
 10
0.4506377952755906
 20
0.4249724409448819
 30
0.0
 10
0.4513582677165355
 20
0.4296102362204725
 30
0.0
 10
0.4513582677165355
 20
0.4296102362204725
 30
0.0
 10
0.4513582677165355
 20
0.4296102362204725
 30
0.0
 10
0.4513582677165355
 20
0.4296102362204725
 30
0.0
 10
0.4582755905511811
 20
0.4296102362204725
 30
0.0
 10
0.4582755905511811
 20
0.4296102362204725
 30
0.0
 10
0.4582755905511811
 20
0.4296102362204725
 30
0.0
 10
0.4582755905511811
 20
0.4296102362204725
 30
0.0
 10
0.452748031496063
 20
0.3990275590551181
 30
0.0
 10
0.452748031496063
 20
0.3990275590551181
 30
0.0
 10
0.452748031496063
 20
0.3990275590551181
 30
0.0
 10
0.452748031496063
 20
0.3990275590551181
 30
0.0
 10
0.4475551181102362
 20
0.3990275590551181
 30
0.0
 10
0.4475551181102362
 20
0.3990275590551181
 30
0.0
 10
0.4475551181102362
 20
0.3990275590551181
 30
0.0
 10
0.4475551181102362
 20
0.3990275590551181
 30
0.0
 10
0.4466377952755906
 20
0.4030826771653543
 30
0.0
 10
0.4466377952755906
 20
0.4030826771653543
 30
0.0
 10
0.4466377952755906
 20
0.4030826771653543
 30
0.0
 10
0.4466377952755906
 20
0.4030826771653543
 30
0.0
 10
0.3755275590551181
 20
0.4030826771653543
 30
0.0
 10
0.3755275590551181
 20
0.4030826771653543
 30
0.0
 10
0.3755275590551181
 20
0.4030826771653543
 30
0.0
 10
0.3755275590551181
 20
0.4030826771653543
 30
0.0
 10
0.3755275590551181
 20
0.4099173228346457
 30
0.0
 10
0.3755275590551181
 20
0.4099173228346457
 30
0.0
 10
0.3755275590551181
 20
0.4099173228346457
 30
0.0
 10
0.3755275590551181
 20
0.4099173228346457
 30
0.0
 10
0.3885551181102362
 20
0.4197755905511811
 30
0.0
 10
0.3885551181102362
 20
0.4197755905511811
 30
0.0
 10
0.3885551181102362
 20
0.4197755905511811
 30
0.0
 10
0.3984133858267717
 20
0.4270826771653544
 30
0.0
 10
0.4056653543307087
 20
0.4326929133858268
 30
0.0
 10
0.4102755905511811
 20
0.4366102362204725
 30
0.0
 10
0.4102755905511811
 20
0.4366102362204725
 30
0.0
 10
0.418996062992126
 20
0.444
 30
0.0
 10
0.4255826771653544
 20
0.4503031496062993
 30
0.0
 10
0.429996062992126
 20
0.4555275590551181
 30
0.0
 10
0.429996062992126
 20
0.4555275590551181
 30
0.0
 10
0.4344133858267717
 20
0.4607755905511811
 30
0.0
 10
0.4374685039370079
 20
0.4655
 30
0.0
 10
0.4391102362204725
 20
0.4696929133858268
 30
0.0
 10
0.4391102362204725
 20
0.4696929133858268
 30
0.0
 10
0.4407755905511811
 20
0.4738858267716536
 30
0.0
 10
0.4416102362204725
 20
0.4783031496062992
 30
0.0
 10
0.4416102362204725
 20
0.4829173228346457
 30
0.0
 10
0.4416102362204725
 20
0.4829173228346457
 30
0.0
 10
0.4416102362204725
 20
0.4905551181102362
 30
0.0
 10
0.4391377952755906
 20
0.4968307086614173
 30
0.0
 10
0.434248031496063
 20
0.5017204724409449
 30
0.0
 10
0.434248031496063
 20
0.5017204724409449
 30
0.0
 10
0.4293307086614173
 20
0.5066102362204724
 30
0.0
 10
0.4229409448818898
 20
0.5090275590551181
 30
0.0
 10
0.4150826771653544
 20
0.5090275590551181
 30
0.0
 10
0.4150826771653544
 20
0.5090275590551181
 30
0.0
 10
0.4094409448818898
 20
0.5090275590551181
 30
0.0
 10
0.4043858267716536
 20
0.5078307086614173
 30
0.0
 10
0.3999685039370079
 20
0.5053858267716536
 30
0.0
 10
0.3999685039370079
 20
0.5053858267716536
 30
0.0
 10
0.3955551181102363
 20
0.5029448818897638
 30
0.0
 10
0.3920826771653543
 20
0.4995275590551181
 30
0.0
 10
0.3895275590551181
 20
0.4951102362204725
 30
0.0
 10
0.3895275590551181
 20
0.4951102362204725
 30
0.0
 10
0.3869685039370079
 20
0.4907204724409449
 30
0.0
 10
0.3856929133858268
 20
0.4859724409448819
 30
0.0
 10
0.3856929133858268
 20
0.4808858267716535
 30
0.0
 10
0.3856929133858268
 20
0.4808858267716535
 30
0.0
 10
0.3856929133858268
 20
0.4789724409448819
 30
0.0
 10
0.3858307086614173
 20
0.4766102362204724
 30
0.0
 10
0.3861102362204725
 20
0.4738031496062992
 30
0.0
  0
SPLINE
  5
A0
330
1F
100
AcDbEntity
  8
LAYER_1
 62
   250
100
AcDbSpline
210
0.0
220
0.0
230
1.0
 70
    11
 71
     3
 72
    60
 73
    56
 74
     0
 42
0.0000000001
 43
0.0000000001
 40
0.0
 40
0.0
 40
0.0
 40
0.0
 40
0.0714285714285714
 40
0.0714285714285714
 40
0.0714285714285714
 40
0.0714285714285714
 40
0.1428571428571429
 40
0.1428571428571429
 40
0.1428571428571429
 40
0.1428571428571429
 40
0.2142857142857143
 40
0.2142857142857143
 40
0.2142857142857143
 40
0.2142857142857143
 40
0.2857142857142857
 40
0.2857142857142857
 40
0.2857142857142857
 40
0.2857142857142857
 40
0.3571428571428571
 40
0.3571428571428571
 40
0.3571428571428571
 40
0.3571428571428571
 40
0.4285714285714285
 40
0.4285714285714285
 40
0.4285714285714285
 40
0.4285714285714285
 40
0.4999999999999999
 40
0.4999999999999999
 40
0.4999999999999999
 40
0.4999999999999999
 40
0.5714285714285713
 40
0.5714285714285713
 40
0.5714285714285713
 40
0.5714285714285713
 40
0.6428571428571427
 40
0.6428571428571427
 40
0.6428571428571427
 40
0.6428571428571427
 40
0.7142857142857141
 40
0.7142857142857141
 40
0.7142857142857141
 40
0.7142857142857141
 40
0.7857142857142855
 40
0.7857142857142855
 40
0.7857142857142855
 40
0.7857142857142855
 40
0.8571428571428569
 40
0.8571428571428569
 40
0.8571428571428569
 40
0.8571428571428569
 40
0.9285714285714283
 40
0.9285714285714283
 40
0.9285714285714283
 40
0.9285714285714283
 40
1.0
 40
1.0
 40
1.0
 40
1.0
 10
0.4806653543307087
 20
0.4745275590551181
 30
0.0
 10
0.4806653543307087
 20
0.4745275590551181
 30
0.0
 10
0.4762755905511811
 20
0.4799173228346457
 30
0.0
 10
0.4762755905511811
 20
0.4799173228346457
 30
0.0
 10
0.4762755905511811
 20
0.4799173228346457
 30
0.0
 10
0.4873897637795276
 20
0.4889724409448819
 30
0.0
 10
0.4929724409448819
 20
0.4965275590551181
 30
0.0
 10
0.4929724409448819
 20
0.5026102362204724
 30
0.0
 10
0.4929724409448819
 20
0.5026102362204724
 30
0.0
 10
0.4929724409448819
 20
0.5033031496062992
 30
0.0
 10
0.4929173228346457
 20
0.5041929133858268
 30
0.0
 10
0.4928031496062992
 20
0.5052204724409449
 30
0.0
 10
0.4928031496062992
 20
0.5052204724409449
 30
0.0
 10
0.4918897637795276
 20
0.5048307086614173
 30
0.0
 10
0.4909724409448819
 20
0.5045275590551182
 30
0.0
 10
0.4901102362204725
 20
0.5043307086614174
 30
0.0
 10
0.4901102362204725
 20
0.5043307086614174
 30
0.0
 10
0.489248031496063
 20
0.5041102362204725
 30
0.0
 10
0.4884448818897638
 20
0.504
 30
0.0
 10
0.4876653543307087
 20
0.504
 30
0.0
 10
0.4876653543307087
 20
0.504
 30
0.0
 10
0.4850551181102362
 20
0.504
 30
0.0
 10
0.4829724409448819
 20
0.5048307086614173
 30
0.0
 10
0.4814173228346457
 20
0.5065275590551182
 30
0.0
 10
0.4814173228346457
 20
0.5065275590551182
 30
0.0
 10
0.4798307086614174
 20
0.5081929133858268
 30
0.0
 10
0.4790551181102362
 20
0.5103307086614174
 30
0.0
 10
0.4790551181102362
 20
0.5129448818897638
 30
0.0
 10
0.4790551181102362
 20
0.5129448818897638
 30
0.0
 10
0.4790551181102362
 20
0.5155000000000001
 30
0.0
 10
0.48
 20
0.5177204724409449
 30
0.0
 10
0.4818897637795276
 20
0.5196102362204724
 30
0.0
 10
0.4818897637795276
 20
0.5196102362204724
 30
0.0
 10
0.4838031496062992
 20
0.5215275590551182
 30
0.0
 10
0.4860826771653544
 20
0.5224724409448819
 30
0.0
 10
0.4887204724409449
 20
0.5224724409448819
 30
0.0
 10
0.4887204724409449
 20
0.5224724409448819
 30
0.0
 10
0.4924173228346457
 20
0.5224724409448819
 30
0.0
 10
0.4955826771653544
 20
0.521
 30
0.0
 10
0.4982204724409449
 20
0.5180275590551181
 30
0.0
 10
0.4982204724409449
 20
0.5180275590551181
 30
0.0
 10
0.5008307086614173
 20
0.5150826771653544
 30
0.0
 10
0.5021653543307086
 20
0.5112755905511811
 30
0.0
 10
0.5021653543307086
 20
0.5066102362204724
 30
0.0
 10
0.5021653543307086
 20
0.5066102362204724
 30
0.0
 10
0.5021653543307086
 20
0.5035551181102362
 30
0.0
 10
0.5015275590551181
 20
0.5003582677165355
 30
0.0
 10
0.5002755905511811
 20
0.4970275590551181
 30
0.0
 10
0.5002755905511811
 20
0.4970275590551181
 30
0.0
 10
0.4990275590551181
 20
0.4936929133858268
 30
0.0
 10
0.4972204724409449
 20
0.4906102362204725
 30
0.0
 10
0.4948307086614173
 20
0.487748031496063
 30
0.0
 10
0.4948307086614173
 20
0.487748031496063
 30
0.0
 10
0.4924448818897638
 20
0.4849173228346457
 30
0.0
 10
0.4877204724409449
 20
0.4805
 30
0.0
 10
0.4806653543307087
 20
0.4745275590551181
 30
0.0
  0
SPLINE
  5
A1
330
1F
100
AcDbEntity
  8
LAYER_1
 62
   250
100
AcDbSpline
210
0.0
220
0.0
230
1.0
 70
    11
 71
     3
 72
    60
 73
    56
 74
     0
 42
0.0000000001
 43
0.0000000001
 40
0.0
 40
0.0
 40
0.0
 40
0.0
 40
0.0714285714285714
 40
0.0714285714285714
 40
0.0714285714285714
 40
0.0714285714285714
 40
0.1428571428571429
 40
0.1428571428571429
 40
0.1428571428571429
 40
0.1428571428571429
 40
0.2142857142857143
 40
0.2142857142857143
 40
0.2142857142857143
 40
0.2142857142857143
 40
0.2857142857142857
 40
0.2857142857142857
 40
0.2857142857142857
 40
0.2857142857142857
 40
0.3571428571428571
 40
0.3571428571428571
 40
0.3571428571428571
 40
0.3571428571428571
 40
0.4285714285714285
 40
0.4285714285714285
 40
0.4285714285714285
 40
0.4285714285714285
 40
0.4999999999999999
 40
0.4999999999999999
 40
0.4999999999999999
 40
0.4999999999999999
 40
0.5714285714285713
 40
0.5714285714285713
 40
0.5714285714285713
 40
0.5714285714285713
 40
0.6428571428571427
 40
0.6428571428571427
 40
0.6428571428571427
 40
0.6428571428571427
 40
0.7142857142857141
 40
0.7142857142857141
 40
0.7142857142857141
 40
0.7142857142857141
 40
0.7857142857142855
 40
0.7857142857142855
 40
0.7857142857142855
 40
0.7857142857142855
 40
0.8571428571428569
 40
0.8571428571428569
 40
0.8571428571428569
 40
0.8571428571428569
 40
0.9285714285714283
 40
0.9285714285714283
 40
0.9285714285714283
 40
0.9285714285714283
 40
1.0
 40
1.0
 40
1.0
 40
1.0
 10
0.5097204724409449
 20
0.4745275590551181
 30
0.0
 10
0.5097204724409449
 20
0.4745275590551181
 30
0.0
 10
0.5053307086614174
 20
0.4799173228346457
 30
0.0
 10
0.5053307086614174
 20
0.4799173228346457
 30
0.0
 10
0.5053307086614174
 20
0.4799173228346457
 30
0.0
 10
0.5164448818897638
 20
0.4889724409448819
 30
0.0
 10
0.5220275590551181
 20
0.4965275590551181
 30
0.0
 10
0.5220275590551181
 20
0.5026102362204724
 30
0.0
 10
0.5220275590551181
 20
0.5026102362204724
 30
0.0
 10
0.5220275590551181
 20
0.5033031496062992
 30
0.0
 10
0.5219724409448819
 20
0.5041929133858268
 30
0.0
 10
0.5218582677165354
 20
0.5052204724409449
 30
0.0
 10
0.5218582677165354
 20
0.5052204724409449
 30
0.0
 10
0.5209448818897638
 20
0.5048307086614173
 30
0.0
 10
0.5200275590551181
 20
0.5045275590551182
 30
0.0
 10
0.5191653543307087
 20
0.5043307086614174
 30
0.0
 10
0.5191653543307087
 20
0.5043307086614174
 30
0.0
 10
0.5183031496062992
 20
0.5041102362204725
 30
0.0
 10
0.5174724409448819
 20
0.504
 30
0.0
 10
0.5166377952755906
 20
0.504
 30
0.0
 10
0.5166377952755906
 20
0.504
 30
0.0
 10
0.5140826771653544
 20
0.504
 30
0.0
 10
0.5120275590551181
 20
0.5048307086614173
 30
0.0
 10
0.5104724409448819
 20
0.5065275590551182
 30
0.0
 10
0.5104724409448819
 20
0.5065275590551182
 30
0.0
 10
0.5088897637795276
 20
0.5081929133858268
 30
0.0
 10
0.5081102362204725
 20
0.5103307086614174
 30
0.0
 10
0.5081102362204725
 20
0.5129448818897638
 30
0.0
 10
0.5081102362204725
 20
0.5129448818897638
 30
0.0
 10
0.5081102362204725
 20
0.5155000000000001
 30
0.0
 10
0.5090551181102363
 20
0.5177204724409449
 30
0.0
 10
0.5109448818897638
 20
0.5196102362204724
 30
0.0
 10
0.5109448818897638
 20
0.5196102362204724
 30
0.0
 10
0.5128307086614173
 20
0.5215275590551182
 30
0.0
 10
0.5151377952755906
 20
0.5224724409448819
 30
0.0
 10
0.5177755905511812
 20
0.5224724409448819
 30
0.0
 10
0.5177755905511812
 20
0.5224724409448819
 30
0.0
 10
0.5214724409448819
 20
0.5224724409448819
 30
0.0
 10
0.5246377952755906
 20
0.521
 30
0.0
 10
0.5272755905511811
 20
0.5180275590551181
 30
0.0
 10
0.5272755905511811
 20
0.5180275590551181
 30
0.0
 10
0.5298858267716535
 20
0.5150826771653544
 30
0.0
 10
0.531220472440945
 20
0.5112755905511811
 30
0.0
 10
0.531220472440945
 20
0.5066102362204724
 30
0.0
 10
0.531220472440945
 20
0.5066102362204724
 30
0.0
 10
0.531220472440945
 20
0.5035551181102362
 30
0.0
 10
0.5305826771653543
 20
0.5003582677165355
 30
0.0
 10
0.5293307086614173
 20
0.4970275590551181
 30
0.0
 10
0.5293307086614173
 20
0.4970275590551181
 30
0.0
 10
0.5280826771653544
 20
0.4936929133858268
 30
0.0
 10
0.5262755905511811
 20
0.4906102362204725
 30
0.0
 10
0.5238897637795276
 20
0.487748031496063
 30
0.0
 10
0.5238897637795276
 20
0.487748031496063
 30
0.0
 10
0.5215000000000001
 20
0.4849173228346457
 30
0.0
 10
0.5167755905511812
 20
0.4805
 30
0.0
 10
0.5097204724409449
 20
0.4745275590551181
 30
0.0
  0
SPLINE
  5
A2
330
1F
100
AcDbEntity
  8
LAYER_1
 62
   250
100
AcDbSpline
210
0.0
220
0.0
230
1.0
 70
    11
 71
     3
 72
   204
 73
   200
 74
     0
 42
0.0000000001
 43
0.0000000001
 40
0.0
 40
0.0
 40
0.0
 40
0.0
 40
0.02
 40
0.02
 40
0.02
 40
0.02
 40
0.04
 40
0.04
 40
0.04
 40
0.04
 40
0.06
 40
0.06
 40
0.06
 40
0.06
 40
0.08
 40
0.08
 40
0.08
 40
0.08
 40
0.1
 40
0.1
 40
0.1
 40
0.1
 40
0.12
 40
0.12
 40
0.12
 40
0.12
 40
0.14
 40
0.14
 40
0.14
 40
0.14
 40
0.16
 40
0.16
 40
0.16
 40
0.16
 40
0.18
 40
0.18
 40
0.18
 40
0.18
 40
0.2
 40
0.2
 40
0.2
 40
0.2
 40
0.22
 40
0.22
 40
0.22
 40
0.22
 40
0.24
 40
0.24
 40
0.24
 40
0.24
 40
0.26
 40
0.26
 40
0.26
 40
0.26
 40
0.28
 40
0.28
 40
0.28
 40
0.28
 40
0.3
 40
0.3
 40
0.3
 40
0.3
 40
0.32
 40
0.32
 40
0.32
 40
0.32
 40
0.34
 40
0.34
 40
0.34
 40
0.34
 40
0.36
 40
0.36
 40
0.36
 40
0.36
 40
0.3800000000000001
 40
0.3800000000000001
 40
0.3800000000000001
 40
0.3800000000000001
 40
0.4000000000000001
 40
0.4000000000000001
 40
0.4000000000000001
 40
0.4000000000000001
 40
0.4200000000000001
 40
0.4200000000000001
 40
0.4200000000000001
 40
0.4200000000000001
 40
0.4400000000000001
 40
0.4400000000000001
 40
0.4400000000000001
 40
0.4400000000000001
 40
0.4600000000000001
 40
0.4600000000000001
 40
0.4600000000000001
 40
0.4600000000000001
 40
0.4800000000000002
 40
0.4800000000000002
 40
0.4800000000000002
 40
0.4800000000000002
 40
0.5000000000000001
 40
0.5000000000000001
 40
0.5000000000000001
 40
0.5000000000000001
 40
0.5200000000000001
 40
0.5200000000000001
 40
0.5200000000000001
 40
0.5200000000000001
 40
0.5400000000000002
 40
0.5400000000000002
 40
0.5400000000000002
 40
0.5400000000000002
 40
0.5600000000000002
 40
0.5600000000000002
 40
0.5600000000000002
 40
0.5600000000000002
 40
0.5800000000000002
 40
0.5800000000000002
 40
0.5800000000000002
 40
0.5800000000000002
 40
0.6000000000000002
 40
0.6000000000000002
 40
0.6000000000000002
 40
0.6000000000000002
 40
0.6200000000000002
 40
0.6200000000000002
 40
0.6200000000000002
 40
0.6200000000000002
 40
0.6400000000000002
 40
0.6400000000000002
 40
0.6400000000000002
 40
0.6400000000000002
 40
0.6600000000000003
 40
0.6600000000000003
 40
0.6600000000000003
 40
0.6600000000000003
 40
0.6800000000000003
 40
0.6800000000000003
 40
0.6800000000000003
 40
0.6800000000000003
 40
0.7000000000000003
 40
0.7000000000000003
 40
0.7000000000000003
 40
0.7000000000000003
 40
0.7200000000000003
 40
0.7200000000000003
 40
0.7200000000000003
 40
0.7200000000000003
 40
0.7400000000000003
 40
0.7400000000000003
 40
0.7400000000000003
 40
0.7400000000000003
 40
0.7600000000000003
 40
0.7600000000000003
 40
0.7600000000000003
 40
0.7600000000000003
 40
0.7800000000000004
 40
0.7800000000000004
 40
0.7800000000000004
 40
0.7800000000000004
 40
0.8000000000000004
 40
0.8000000000000004
 40
0.8000000000000004
 40
0.8000000000000004
 40
0.8200000000000004
 40
0.8200000000000004
 40
0.8200000000000004
 40
0.8200000000000004
 40
0.8400000000000004
 40
0.8400000000000004
 40
0.8400000000000004
 40
0.8400000000000004
 40
0.8600000000000004
 40
0.8600000000000004
 40
0.8600000000000004
 40
0.8600000000000004
 40
0.8800000000000005
 40
0.8800000000000005
 40
0.8800000000000005
 40
0.8800000000000005
 40
0.9000000000000005
 40
0.9000000000000005
 40
0.9000000000000005
 40
0.9000000000000005
 40
0.9200000000000005
 40
0.9200000000000005
 40
0.9200000000000005
 40
0.9200000000000005
 40
0.9400000000000005
 40
0.9400000000000005
 40
0.9400000000000005
 40
0.9400000000000005
 40
0.9600000000000005
 40
0.9600000000000005
 40
0.9600000000000005
 40
0.9600000000000005
 40
0.9800000000000005
 40
0.9800000000000005
 40
0.9800000000000005
 40
0.9800000000000005
 40
1.0
 40
1.0
 40
1.0
 40
1.0
 10
0.5935275590551181
 20
0.4816102362204724
 30
0.0
 10
0.5935275590551181
 20
0.4816102362204724
 30
0.0
 10
0.6344724409448819
 20
0.4816102362204724
 30
0.0
 10
0.6344724409448819
 20
0.4816102362204724
 30
0.0
 10
0.6344724409448819
 20
0.4816102362204724
 30
0.0
 10
0.6344724409448819
 20
0.4816102362204724
 30
0.0
 10
0.6344724409448819
 20
0.4747755905511811
 30
0.0
 10
0.6344724409448819
 20
0.4747755905511811
 30
0.0
 10
0.6344724409448819
 20
0.4747755905511811
 30
0.0
 10
0.6344724409448819
 20
0.4747755905511811
 30
0.0
 10
0.6316377952755906
 20
0.4747755905511811
 30
0.0
 10
0.6316377952755906
 20
0.4747755905511811
 30
0.0
 10
0.6316377952755906
 20
0.4747755905511811
 30
0.0
 10
0.63
 20
0.4747755905511811
 30
0.0
 10
0.6285000000000001
 20
0.4745826771653544
 30
0.0
 10
0.6271377952755906
 20
0.4742204724409449
 30
0.0
 10
0.6271377952755906
 20
0.4742204724409449
 30
0.0
 10
0.6263346456692913
 20
0.474
 30
0.0
 10
0.6256653543307087
 20
0.4735826771653544
 30
0.0
 10
0.6251653543307086
 20
0.4729448818897638
 30
0.0
 10
0.6251653543307086
 20
0.4729448818897638
 30
0.0
 10
0.6246377952755906
 20
0.4723307086614174
 30
0.0
 10
0.6243897637795276
 20
0.471748031496063
 30
0.0
 10
0.6243897637795276
 20
0.4711929133858268
 30
0.0
 10
0.6243897637795276
 20
0.4711929133858268
 30
0.0
 10
0.6243897637795276
 20
0.4699448818897638
 30
0.0
 10
0.6254173228346457
 20
0.4680826771653543
 30
0.0
 10
0.6274724409448819
 20
0.4655826771653543
 30
0.0
 10
0.6274724409448819
 20
0.4655826771653543
 30
0.0
 10
0.6274724409448819
 20
0.4655826771653543
 30
0.0
 10
0.6391102362204725
 20
0.4509448818897638
 30
0.0
 10
0.6391102362204725
 20
0.4509448818897638
 30
0.0
 10
0.6391102362204725
 20
0.4509448818897638
 30
0.0
 10
0.6391102362204725
 20
0.4509448818897638
 30
0.0
 10
0.6526929133858268
 20
0.4655826771653543
 30
0.0
 10
0.6526929133858268
 20
0.4655826771653543
 30
0.0
 10
0.6526929133858268
 20
0.4655826771653543
 30
0.0
 10
0.6551929133858268
 20
0.4683031496062992
 30
0.0
 10
0.6564448818897638
 20
0.4703307086614174
 30
0.0
 10
0.6564448818897638
 20
0.4716929133858268
 30
0.0
 10
0.6564448818897638
 20
0.4716929133858268
 30
0.0
 10
0.6564448818897638
 20
0.4726653543307087
 30
0.0
 10
0.656
 20
0.4734173228346457
 30
0.0
 10
0.6551377952755906
 20
0.4739724409448819
 30
0.0
 10
0.6551377952755906
 20
0.4739724409448819
 30
0.0
 10
0.6542755905511811
 20
0.4745
 30
0.0
 10
0.6524173228346457
 20
0.4747755905511811
 30
0.0
 10
0.6495275590551182
 20
0.4747755905511811
 30
0.0
 10
0.6495275590551182
 20
0.4747755905511811
 30
0.0
 10
0.6495275590551182
 20
0.4747755905511811
 30
0.0
 10
0.6464448818897638
 20
0.4747755905511811
 30
0.0
 10
0.6464448818897638
 20
0.4747755905511811
 30
0.0
 10
0.6464448818897638
 20
0.4747755905511811
 30
0.0
 10
0.6464448818897638
 20
0.4747755905511811
 30
0.0
 10
0.6464448818897638
 20
0.4816102362204724
 30
0.0
 10
0.6464448818897638
 20
0.4816102362204724
 30
0.0
 10
0.6464448818897638
 20
0.4816102362204724
 30
0.0
 10
0.6464448818897638
 20
0.4816102362204724
 30
0.0
 10
0.6811929133858268
 20
0.4816102362204724
 30
0.0
 10
0.6811929133858268
 20
0.4816102362204724
 30
0.0
 10
0.6811929133858268
 20
0.4816102362204724
 30
0.0
 10
0.6811929133858268
 20
0.4816102362204724
 30
0.0
 10
0.6811929133858268
 20
0.4747755905511811
 30
0.0
 10
0.6811929133858268
 20
0.4747755905511811
 30
0.0
 10
0.6811929133858268
 20
0.4747755905511811
 30
0.0
 10
0.6777755905511811
 20
0.4746102362204724
 30
0.0
 10
0.6748307086614174
 20
0.4739173228346457
 30
0.0
 10
0.6723622047244094
 20
0.4726653543307087
 30
0.0
 10
0.6723622047244094
 20
0.4726653543307087
 30
0.0
 10
0.6698897637795276
 20
0.4714173228346457
 30
0.0
 10
0.666972440944882
 20
0.4690551181102363
 30
0.0
 10
0.6636102362204724
 20
0.4655826771653543
 30
0.0
 10
0.6636102362204724
 20
0.4655826771653543
 30
0.0
 10
0.6636102362204724
 20
0.4655826771653543
 30
0.0
 10
0.6449724409448819
 20
0.4462204724409449
 30
0.0
 10
0.6449724409448819
 20
0.4462204724409449
 30
0.0
 10
0.6449724409448819
 20
0.4462204724409449
 30
0.0
 10
0.6449724409448819
 20
0.4462204724409449
 30
0.0
 10
0.6681653543307087
 20
0.4197755905511811
 30
0.0
 10
0.6681653543307087
 20
0.4197755905511811
 30
0.0
 10
0.6681653543307087
 20
0.4197755905511811
 30
0.0
 10
0.6681653543307087
 20
0.4197755905511811
 30
0.0
 10
0.6690551181102362
 20
0.4186377952755906
 30
0.0
 10
0.6690551181102362
 20
0.4186377952755906
 30
0.0
 10
0.6690551181102362
 20
0.4186377952755906
 30
0.0
 10
0.6713307086614173
 20
0.4156929133858268
 30
0.0
 10
0.6738897637795276
 20
0.4133307086614174
 30
0.0
 10
0.6767204724409449
 20
0.4115551181102363
 30
0.0
 10
0.6767204724409449
 20
0.4115551181102363
 30
0.0
 10
0.6782755905511811
 20
0.4105275590551181
 30
0.0
 10
0.6807204724409449
 20
0.4099724409448819
 30
0.0
 10
0.6840275590551181
 20
0.4099173228346457
 30
0.0
 10
0.6840275590551181
 20
0.4099173228346457
 30
0.0
 10
0.6840275590551181
 20
0.4099173228346457
 30
0.0
 10
0.6840275590551181
 20
0.4030826771653543
 30
0.0
 10
0.6840275590551181
 20
0.4030826771653543
 30
0.0
 10
0.6840275590551181
 20
0.4030826771653543
 30
0.0
 10
0.6840275590551181
 20
0.4030826771653543
 30
0.0
 10
0.6440826771653544
 20
0.4030826771653543
 30
0.0
 10
0.6440826771653544
 20
0.4030826771653543
 30
0.0
 10
0.6440826771653544
 20
0.4030826771653543
 30
0.0
 10
0.6440826771653544
 20
0.4030826771653543
 30
0.0
 10
0.6440826771653544
 20
0.4099173228346457
 30
0.0
 10
0.6440826771653544
 20
0.4099173228346457
 30
0.0
 10
0.6440826771653544
 20
0.4099173228346457
 30
0.0
 10
0.6440826771653544
 20
0.4099173228346457
 30
0.0
 10
0.6475000000000001
 20
0.4099173228346457
 30
0.0
 10
0.6475000000000001
 20
0.4099173228346457
 30
0.0
 10
0.6475000000000001
 20
0.4099173228346457
 30
0.0
 10
0.6501102362204725
 20
0.4099173228346457
 30
0.0
 10
0.651748031496063
 20
0.4100826771653544
 30
0.0
 10
0.6524724409448819
 20
0.4104173228346457
 30
0.0
 10
0.6524724409448819
 20
0.4104173228346457
 30
0.0
 10
0.6536377952755906
 20
0.4109448818897638
 30
0.0
 10
0.654248031496063
 20
0.4118622047244095
 30
0.0
 10
0.654248031496063
 20
0.4131653543307087
 30
0.0
 10
0.654248031496063
 20
0.4131653543307087
 30
0.0
 10
0.654248031496063
 20
0.4143622047244095
 30
0.0
 10
0.6529448818897639
 20
0.4165551181102362
 30
0.0
 10
0.6503307086614174
 20
0.4197755905511811
 30
0.0
 10
0.6503307086614174
 20
0.4197755905511811
 30
0.0
 10
0.6503307086614174
 20
0.4197755905511811
 30
0.0
 10
0.6355275590551182
 20
0.4379173228346457
 30
0.0
 10
0.6355275590551182
 20
0.4379173228346457
 30
0.0
 10
0.6355275590551182
 20
0.4379173228346457
 30
0.0
 10
0.6355275590551182
 20
0.4379173228346457
 30
0.0
 10
0.619
 20
0.4197755905511811
 30
0.0
 10
0.619
 20
0.4197755905511811
 30
0.0
 10
0.619
 20
0.4197755905511811
 30
0.0
 10
0.619
 20
0.4197755905511811
 30
0.0
 10
0.6173897637795276
 20
0.4178031496062992
 30
0.0
 10
0.6173897637795276
 20
0.4178031496062992
 30
0.0
 10
0.6173897637795276
 20
0.4178031496062992
 30
0.0
 10
0.6173897637795276
 20
0.4178031496062992
 30
0.0
 10
0.6165000000000001
 20
0.4168307086614174
 30
0.0
 10
0.6165000000000001
 20
0.4168307086614174
 30
0.0
 10
0.6165000000000001
 20
0.4168307086614174
 30
0.0
 10
0.6151377952755905
 20
0.4153622047244095
 30
0.0
 10
0.6144448818897638
 20
0.4140826771653544
 30
0.0
 10
0.6144448818897638
 20
0.4129448818897638
 30
0.0
 10
0.6144448818897638
 20
0.4129448818897638
 30
0.0
 10
0.6144448818897638
 20
0.4118897637795276
 30
0.0
 10
0.6148622047244094
 20
0.4111377952755906
 30
0.0
 10
0.6157204724409449
 20
0.4106377952755906
 30
0.0
 10
0.6157204724409449
 20
0.4106377952755906
 30
0.0
 10
0.6165551181102362
 20
0.4101653543307087
 30
0.0
 10
0.6184448818897638
 20
0.4099173228346457
 30
0.0
 10
0.6213622047244095
 20
0.4099173228346457
 30
0.0
 10
0.6213622047244095
 20
0.4099173228346457
 30
0.0
 10
0.6213622047244095
 20
0.4099173228346457
 30
0.0
 10
0.6246377952755906
 20
0.4099173228346457
 30
0.0
 10
0.6246377952755906
 20
0.4099173228346457
 30
0.0
 10
0.6246377952755906
 20
0.4099173228346457
 30
0.0
 10
0.6246377952755906
 20
0.4099173228346457
 30
0.0
 10
0.6246377952755906
 20
0.4030826771653543
 30
0.0
 10
0.6246377952755906
 20
0.4030826771653543
 30
0.0
 10
0.6246377952755906
 20
0.4030826771653543
 30
0.0
 10
0.6246377952755906
 20
0.4030826771653543
 30
0.0
 10
0.5903622047244095
 20
0.4030826771653543
 30
0.0
 10
0.5903622047244095
 20
0.4030826771653543
 30
0.0
 10
0.5903622047244095
 20
0.4030826771653543
 30
0.0
 10
0.5903622047244095
 20
0.4030826771653543
 30
0.0
 10
0.5903622047244095
 20
0.4099173228346457
 30
0.0
 10
0.5903622047244095
 20
0.4099173228346457
 30
0.0
 10
0.5903622047244095
 20
0.4099173228346457
 30
0.0
 10
0.5930275590551182
 20
0.4099724409448819
 30
0.0
 10
0.5951102362204724
 20
0.410248031496063
 30
0.0
 10
0.5966377952755906
 20
0.4107755905511811
 30
0.0
 10
0.5966377952755906
 20
0.4107755905511811
 30
0.0
 10
0.5981377952755905
 20
0.4112755905511811
 30
0.0
 10
0.5996102362204725
 20
0.4120826771653544
 30
0.0
 10
0.6010275590551182
 20
0.4131653543307087
 30
0.0
 10
0.6010275590551182
 20
0.4131653543307087
 30
0.0
 10
0.603472440944882
 20
0.4151377952755906
 30
0.0
 10
0.6052204724409449
 20
0.4166653543307087
 30
0.0
 10
0.6063070866141732
 20
0.4178031496062992
 30
0.0
 10
0.6063070866141732
 20
0.4178031496062992
 30
0.0
 10
0.6063070866141732
 20
0.4178031496062992
 30
0.0
 10
0.6301653543307086
 20
0.4423031496062992
 30
0.0
 10
0.6301653543307086
 20
0.4423031496062992
 30
0.0
 10
0.6301653543307086
 20
0.4423031496062992
 30
0.0
 10
0.6301653543307086
 20
0.4423031496062992
 30
0.0
 10
0.6098897637795275
 20
0.4655826771653543
 30
0.0
 10
0.6098897637795275
 20
0.4655826771653543
 30
0.0
 10
0.6098897637795275
 20
0.4655826771653543
 30
0.0
 10
0.6073346456692914
 20
0.4684724409448819
 30
0.0
 10
0.6053346456692914
 20
0.4704724409448819
 30
0.0
 10
0.6038346456692914
 20
0.4716377952755906
 30
0.0
 10
0.6038346456692914
 20
0.4716377952755906
 30
0.0
 10
0.6023346456692914
 20
0.4728031496062992
 30
0.0
 10
0.6008897637795276
 20
0.4736377952755906
 30
0.0
 10
0.599472440944882
 20
0.4740826771653544
 30
0.0
 10
0.599472440944882
 20
0.4740826771653544
 30
0.0
 10
0.5980551181102363
 20
0.4745551181102363
 30
0.0
 10
0.5960826771653544
 20
0.4747755905511811
 30
0.0
 10
0.5935275590551181
 20
0.4747755905511811
 30
0.0
 10
0.5935275590551181
 20
0.4747755905511811
 30
0.0
 10
0.5935275590551181
 20
0.4747755905511811
 30
0.0
 10
0.5935275590551181
 20
0.4816102362204724
 30
0.0
 10
0.5935275590551181
 20
0.4816102362204724
 30
0.0
  0
SPLINE
  5
A3
330
1F
100
AcDbEntity
  8
LAYER_1
 62
   250
100
AcDbSpline
210
0.0
220
0.0
230
1.0
 70
    11
 71
     3
 72
   136
 73
   132
 74
     0
 42
0.0000000001
 43
0.0000000001
 40
0.0
 40
0.0
 40
0.0
 40
0.0
 40
0.0303030303030303
 40
0.0303030303030303
 40
0.0303030303030303
 40
0.0303030303030303
 40
0.0606060606060606
 40
0.0606060606060606
 40
0.0606060606060606
 40
0.0606060606060606
 40
0.0909090909090909
 40
0.0909090909090909
 40
0.0909090909090909
 40
0.0909090909090909
 40
0.1212121212121212
 40
0.1212121212121212
 40
0.1212121212121212
 40
0.1212121212121212
 40
0.1515151515151515
 40
0.1515151515151515
 40
0.1515151515151515
 40
0.1515151515151515
 40
0.1818181818181818
 40
0.1818181818181818
 40
0.1818181818181818
 40
0.1818181818181818
 40
0.2121212121212121
 40
0.2121212121212121
 40
0.2121212121212121
 40
0.2121212121212121
 40
0.2424242424242424
 40
0.2424242424242424
 40
0.2424242424242424
 40
0.2424242424242424
 40
0.2727272727272727
 40
0.2727272727272727
 40
0.2727272727272727
 40
0.2727272727272727
 40
0.303030303030303
 40
0.303030303030303
 40
0.303030303030303
 40
0.303030303030303
 40
0.3333333333333333
 40
0.3333333333333333
 40
0.3333333333333333
 40
0.3333333333333333
 40
0.3636363636363635
 40
0.3636363636363635
 40
0.3636363636363635
 40
0.3636363636363635
 40
0.3939393939393938
 40
0.3939393939393938
 40
0.3939393939393938
 40
0.3939393939393938
 40
0.4242424242424241
 40
0.4242424242424241
 40
0.4242424242424241
 40
0.4242424242424241
 40
0.4545454545454544
 40
0.4545454545454544
 40
0.4545454545454544
 40
0.4545454545454544
 40
0.4848484848484846
 40
0.4848484848484846
 40
0.4848484848484846
 40
0.4848484848484846
 40
0.5151515151515149
 40
0.5151515151515149
 40
0.5151515151515149
 40
0.5151515151515149
 40
0.5454545454545452
 40
0.5454545454545452
 40
0.5454545454545452
 40
0.5454545454545452
 40
0.5757575757575755
 40
0.5757575757575755
 40
0.5757575757575755
 40
0.5757575757575755
 40
0.6060606060606057
 40
0.6060606060606057
 40
0.6060606060606057
 40
0.6060606060606057
 40
0.636363636363636
 40
0.636363636363636
 40
0.636363636363636
 40
0.636363636363636
 40
0.6666666666666663
 40
0.6666666666666663
 40
0.6666666666666663
 40
0.6666666666666663
 40
0.6969696969696966
 40
0.6969696969696966
 40
0.6969696969696966
 40
0.6969696969696966
 40
0.7272727272727269
 40
0.7272727272727269
 40
0.7272727272727269
 40
0.7272727272727269
 40
0.7575757575757571
 40
0.7575757575757571
 40
0.7575757575757571
 40
0.7575757575757571
 40
0.7878787878787874
 40
0.7878787878787874
 40
0.7878787878787874
 40
0.7878787878787874
 40
0.8181818181818177
 40
0.8181818181818177
 40
0.8181818181818177
 40
0.8181818181818177
 40
0.848484848484848
 40
0.848484848484848
 40
0.848484848484848
 40
0.848484848484848
 40
0.8787878787878782
 40
0.8787878787878782
 40
0.8787878787878782
 40
0.8787878787878782
 40
0.9090909090909085
 40
0.9090909090909085
 40
0.9090909090909085
 40
0.9090909090909085
 40
0.9393939393939388
 40
0.9393939393939388
 40
0.9393939393939388
 40
0.9393939393939388
 40
0.9696969696969691
 40
0.9696969696969691
 40
0.9696969696969691
 40
0.9696969696969691
 40
1.0
 40
1.0
 40
1.0
 40
1.0
 10
0.7560551181102363
 20
0.4738031496062992
 30
0.0
 10
0.7560551181102363
 20
0.4738031496062992
 30
0.0
 10
0.7481653543307087
 20
0.4728307086614174
 30
0.0
 10
0.7481653543307087
 20
0.4728307086614174
 30
0.0
 10
0.7481653543307087
 20
0.4728307086614174
 30
0.0
 10
0.7477204724409449
 20
0.4766653543307087
 30
0.0
 10
0.7475000000000001
 20
0.4798307086614174
 30
0.0
 10
0.7475000000000001
 20
0.4822755905511811
 30
0.0
 10
0.7475000000000001
 20
0.4822755905511811
 30
0.0
 10
0.7475000000000001
 20
0.4886653543307087
 30
0.0
 10
0.749248031496063
 20
0.4947204724409449
 30
0.0
 10
0.7527204724409449
 20
0.5004133858267716
 30
0.0
 10
0.7527204724409449
 20
0.5004133858267716
 30
0.0
 10
0.7561929133858268
 20
0.5061102362204725
 30
0.0
 10
0.7610275590551181
 20
0.5105551181102362
 30
0.0
 10
0.767248031496063
 20
0.513748031496063
 30
0.0
 10
0.767248031496063
 20
0.513748031496063
 30
0.0
 10
0.7734409448818898
 20
0.5169724409448819
 30
0.0
 10
0.7805826771653543
 20
0.5185551181102363
 30
0.0
 10
0.7886102362204724
 20
0.5185551181102363
 30
0.0
 10
0.7886102362204724
 20
0.5185551181102363
 30
0.0
 10
0.7963582677165355
 20
0.5185551181102363
 30
0.0
 10
0.8031653543307087
 20
0.5170551181102362
 30
0.0
 10
0.8090275590551181
 20
0.5140551181102362
 30
0.0
 10
0.8090275590551181
 20
0.5140551181102362
 30
0.0
 10
0.8148858267716536
 20
0.5110275590551181
 30
0.0
 10
0.8193582677165354
 20
0.5069133858267717
 30
0.0
 10
0.822496062992126
 20
0.5016653543307087
 30
0.0
 10
0.822496062992126
 20
0.5016653543307087
 30
0.0
 10
0.8256102362204725
 20
0.4964448818897638
 30
0.0
 10
0.8271653543307087
 20
0.4904724409448819
 30
0.0
 10
0.8271653543307087
 20
0.4837204724409449
 30
0.0
 10
0.8271653543307087
 20
0.4837204724409449
 30
0.0
 10
0.8271653543307087
 20
0.4780275590551181
 30
0.0
 10
0.8261653543307087
 20
0.472748031496063
 30
0.0
 10
0.8241102362204725
 20
0.4679173228346457
 30
0.0
 10
0.8241102362204725
 20
0.4679173228346457
 30
0.0
 10
0.8220826771653543
 20
0.4630551181102363
 30
0.0
 10
0.8188031496062993
 20
0.4581377952755906
 30
0.0
 10
0.8143031496062992
 20
0.4532204724409449
 30
0.0
 10
0.8143031496062992
 20
0.4532204724409449
 30
0.0
 10
0.8109409448818898
 20
0.4495275590551182
 30
0.0
 10
0.8041377952755906
 20
0.4438897637795276
 30
0.0
 10
0.7938858267716535
 20
0.4362755905511811
 30
0.0
 10
0.7938858267716535
 20
0.4362755905511811
 30
0.0
 10
0.7809724409448819
 20
0.4266377952755906
 30
0.0
 10
0.7710826771653544
 20
0.4196377952755906
 30
0.0
 10
0.7641929133858268
 20
0.4152755905511811
 30
0.0
 10
0.7641929133858268
 20
0.4152755905511811
 30
0.0
 10
0.7641929133858268
 20
0.4152755905511811
 30
0.0
 10
0.8065
 20
0.4152755905511811
 30
0.0
 10
0.8065
 20
0.4152755905511811
 30
0.0
 10
0.8065
 20
0.4152755905511811
 30
0.0
 10
0.8115
 20
0.4152755905511811
 30
0.0
 10
0.814748031496063
 20
0.415748031496063
 30
0.0
 10
0.8162755905511812
 20
0.4166653543307087
 30
0.0
 10
0.8162755905511812
 20
0.4166653543307087
 30
0.0
 10
0.8183858267716536
 20
0.4178622047244095
 30
0.0
 10
0.8198307086614174
 20
0.4206377952755906
 30
0.0
 10
0.8205826771653544
 20
0.4249724409448819
 30
0.0
 10
0.8205826771653544
 20
0.4249724409448819
 30
0.0
 10
0.8205826771653544
 20
0.4249724409448819
 30
0.0
 10
0.8213031496062992
 20
0.4296102362204725
 30
0.0
 10
0.8213031496062992
 20
0.4296102362204725
 30
0.0
 10
0.8213031496062992
 20
0.4296102362204725
 30
0.0
 10
0.8213031496062992
 20
0.4296102362204725
 30
0.0
 10
0.8282204724409449
 20
0.4296102362204725
 30
0.0
 10
0.8282204724409449
 20
0.4296102362204725
 30
0.0
 10
0.8282204724409449
 20
0.4296102362204725
 30
0.0
 10
0.8282204724409449
 20
0.4296102362204725
 30
0.0
 10
0.8226929133858268
 20
0.3990275590551181
 30
0.0
 10
0.8226929133858268
 20
0.3990275590551181
 30
0.0
 10
0.8226929133858268
 20
0.3990275590551181
 30
0.0
 10
0.8226929133858268
 20
0.3990275590551181
 30
0.0
 10
0.8175
 20
0.3990275590551181
 30
0.0
 10
0.8175
 20
0.3990275590551181
 30
0.0
 10
0.8175
 20
0.3990275590551181
 30
0.0
 10
0.8175
 20
0.3990275590551181
 30
0.0
 10
0.8165826771653544
 20
0.4030826771653543
 30
0.0
 10
0.8165826771653544
 20
0.4030826771653543
 30
0.0
 10
0.8165826771653544
 20
0.4030826771653543
 30
0.0
 10
0.8165826771653544
 20
0.4030826771653543
 30
0.0
 10
0.745472440944882
 20
0.4030826771653543
 30
0.0
 10
0.745472440944882
 20
0.4030826771653543
 30
0.0
 10
0.745472440944882
 20
0.4030826771653543
 30
0.0
 10
0.745472440944882
 20
0.4030826771653543
 30
0.0
 10
0.745472440944882
 20
0.4099173228346457
 30
0.0
 10
0.745472440944882
 20
0.4099173228346457
 30
0.0
 10
0.745472440944882
 20
0.4099173228346457
 30
0.0
 10
0.745472440944882
 20
0.4099173228346457
 30
0.0
 10
0.7585000000000001
 20
0.4197755905511811
 30
0.0
 10
0.7585000000000001
 20
0.4197755905511811
 30
0.0
 10
0.7585000000000001
 20
0.4197755905511811
 30
0.0
 10
0.7683582677165355
 20
0.4270826771653544
 30
0.0
 10
0.7756102362204724
 20
0.4326929133858268
 30
0.0
 10
0.780220472440945
 20
0.4366102362204725
 30
0.0
 10
0.780220472440945
 20
0.4366102362204725
 30
0.0
 10
0.7889409448818898
 20
0.444
 30
0.0
 10
0.7955275590551182
 20
0.4503031496062993
 30
0.0
 10
0.7999409448818898
 20
0.4555275590551181
 30
0.0
 10
0.7999409448818898
 20
0.4555275590551181
 30
0.0
 10
0.8043582677165355
 20
0.4607755905511811
 30
0.0
 10
0.8074133858267717
 20
0.4655
 30
0.0
 10
0.8090551181102362
 20
0.4696929133858268
 30
0.0
 10
0.8090551181102362
 20
0.4696929133858268
 30
0.0
 10
0.8107204724409449
 20
0.4738858267716536
 30
0.0
 10
0.8115551181102363
 20
0.4783031496062992
 30
0.0
 10
0.8115551181102363
 20
0.4829173228346457
 30
0.0
 10
0.8115551181102363
 20
0.4829173228346457
 30
0.0
 10
0.8115551181102363
 20
0.4905551181102362
 30
0.0
 10
0.8090826771653543
 20
0.4968307086614173
 30
0.0
 10
0.8041929133858268
 20
0.5017204724409449
 30
0.0
 10
0.8041929133858268
 20
0.5017204724409449
 30
0.0
 10
0.7992755905511811
 20
0.5066102362204724
 30
0.0
 10
0.7928858267716535
 20
0.5090275590551181
 30
0.0
 10
0.7850275590551181
 20
0.5090275590551181
 30
0.0
 10
0.7850275590551181
 20
0.5090275590551181
 30
0.0
 10
0.7793858267716536
 20
0.5090275590551181
 30
0.0
 10
0.7743307086614174
 20
0.5078307086614173
 30
0.0
 10
0.7699133858267717
 20
0.5053858267716536
 30
0.0
 10
0.7699133858267717
 20
0.5053858267716536
 30
0.0
 10
0.7655000000000001
 20
0.5029448818897638
 30
0.0
 10
0.7620275590551181
 20
0.4995275590551181
 30
0.0
 10
0.7594724409448819
 20
0.4951102362204725
 30
0.0
 10
0.7594724409448819
 20
0.4951102362204725
 30
0.0
 10
0.7569133858267717
 20
0.4907204724409449
 30
0.0
 10
0.7556377952755906
 20
0.4859724409448819
 30
0.0
 10
0.7556377952755906
 20
0.4808858267716535
 30
0.0
 10
0.7556377952755906
 20
0.4808858267716535
 30
0.0
 10
0.7556377952755906
 20
0.4789724409448819
 30
0.0
 10
0.7557755905511812
 20
0.4766102362204724
 30
0.0
 10
0.7560551181102363
 20
0.4738031496062992
 30
0.0
  0
SPLINE
  5
A4
330
1F
100
AcDbEntity
  8
LAYER_1
 62
   250
100
AcDbSpline
210
0.0
220
0.0
230
1.0
 70
    11
 71
     3
 72
    20
 73
    16
 74
     0
 42
0.0000000001
 43
0.0000000001
 40
0.0
 40
0.0
 40
0.0
 40
0.0
 40
0.25
 40
0.25
 40
0.25
 40
0.25
 40
0.5
 40
0.5
 40
0.5
 40
0.5
 40
0.75
 40
0.75
 40
0.75
 40
0.75
 40
1.0
 40
1.0
 40
1.0
 40
1.0
 10
0.8496377952755906
 20
0.4495551181102362
 30
0.0
 10
0.8496377952755906
 20
0.4495551181102362
 30
0.0
 10
0.8979724409448819
 20
0.4495551181102362
 30
0.0
 10
0.8979724409448819
 20
0.4495551181102362
 30
0.0
 10
0.8979724409448819
 20
0.4495551181102362
 30
0.0
 10
0.8979724409448819
 20
0.4495551181102362
 30
0.0
 10
0.8979724409448819
 20
0.4394724409448819
 30
0.0
 10
0.8979724409448819
 20
0.4394724409448819
 30
0.0
 10
0.8979724409448819
 20
0.4394724409448819
 30
0.0
 10
0.8979724409448819
 20
0.4394724409448819
 30
0.0
 10
0.8496377952755906
 20
0.4394724409448819
 30
0.0
 10
0.8496377952755906
 20
0.4394724409448819
 30
0.0
 10
0.8496377952755906
 20
0.4394724409448819
 30
0.0
 10
0.8496377952755906
 20
0.4394724409448819
 30
0.0
 10
0.8496377952755906
 20
0.4495551181102362
 30
0.0
 10
0.8496377952755906
 20
0.4495551181102362
 30
0.0
  0
SPLINE
  5
A5
330
1F
100
AcDbEntity
  8
LAYER_1
 62
   250
100
AcDbSpline
210
0.0
220
0.0
230
1.0
 70
    11
 71
     3
 72
    72
 73
    68
 74
     0
 42
0.0000000001
 43
0.0000000001
 40
0.0
 40
0.0
 40
0.0
 40
0.0
 40
0.0588235294117647
 40
0.0588235294117647
 40
0.0588235294117647
 40
0.0588235294117647
 40
0.1176470588235294
 40
0.1176470588235294
 40
0.1176470588235294
 40
0.1176470588235294
 40
0.1764705882352941
 40
0.1764705882352941
 40
0.1764705882352941
 40
0.1764705882352941
 40
0.2352941176470588
 40
0.2352941176470588
 40
0.2352941176470588
 40
0.2352941176470588
 40
0.2941176470588235
 40
0.2941176470588235
 40
0.2941176470588235
 40
0.2941176470588235
 40
0.3529411764705883
 40
0.3529411764705883
 40
0.3529411764705883
 40
0.3529411764705883
 40
0.411764705882353
 40
0.411764705882353
 40
0.411764705882353
 40
0.411764705882353
 40
0.4705882352941177
 40
0.4705882352941177
 40
0.4705882352941177
 40
0.4705882352941177
 40
0.5294117647058824
 40
0.5294117647058824
 40
0.5294117647058824
 40
0.5294117647058824
 40
0.5882352941176471
 40
0.5882352941176471
 40
0.5882352941176471
 40
0.5882352941176471
 40
0.6470588235294118
 40
0.6470588235294118
 40
0.6470588235294118
 40
0.6470588235294118
 40
0.7058823529411765
 40
0.7058823529411765
 40
0.7058823529411765
 40
0.7058823529411765
 40
0.7647058823529412
 40
0.7647058823529412
 40
0.7647058823529412
 40
0.7647058823529412
 40
0.823529411764706
 40
0.823529411764706
 40
0.823529411764706
 40
0.823529411764706
 40
0.8823529411764707
 40
0.8823529411764707
 40
0.8823529411764707
 40
0.8823529411764707
 40
0.9411764705882354
 40
0.9411764705882354
 40
0.9411764705882354
 40
0.9411764705882354
 40
1.0
 40
1.0
 40
1.0
 40
1.0
 10
0.9631653543307087
 20
0.5166102362204724
 30
0.0
 10
0.9631653543307087
 20
0.5166102362204724
 30
0.0
 10
0.969248031496063
 20
0.5166102362204724
 30
0.0
 10
0.969248031496063
 20
0.5166102362204724
 30
0.0
 10
0.969248031496063
 20
0.5166102362204724
 30
0.0
 10
0.969248031496063
 20
0.5166102362204724
 30
0.0
 10
0.969248031496063
 20
0.4223622047244094
 30
0.0
 10
0.969248031496063
 20
0.4223622047244094
 30
0.0
 10
0.969248031496063
 20
0.4223622047244094
 30
0.0
 10
0.969248031496063
 20
0.4179173228346457
 30
0.0
 10
0.9695551181102362
 20
0.4150551181102362
 30
0.0
 10
0.9701102362204724
 20
0.4137755905511811
 30
0.0
 10
0.9701102362204724
 20
0.4137755905511811
 30
0.0
 10
0.9706929133858269
 20
0.4125
 30
0.0
 10
0.9716102362204725
 20
0.4115551181102363
 30
0.0
 10
0.9729133858267717
 20
0.4108897637795276
 30
0.0
 10
0.9729133858267717
 20
0.4108897637795276
 30
0.0
 10
0.9742204724409449
 20
0.410248031496063
 30
0.0
 10
0.9768031496062992
 20
0.4099173228346457
 30
0.0
 10
0.9806653543307087
 20
0.4099173228346457
 30
0.0
 10
0.9806653543307087
 20
0.4099173228346457
 30
0.0
 10
0.9806653543307087
 20
0.4099173228346457
 30
0.0
 10
0.9886377952755906
 20
0.4099173228346457
 30
0.0
 10
0.9886377952755906
 20
0.4099173228346457
 30
0.0
 10
0.9886377952755906
 20
0.4099173228346457
 30
0.0
 10
0.9886377952755906
 20
0.4099173228346457
 30
0.0
 10
0.9886377952755906
 20
0.4030826771653543
 30
0.0
 10
0.9886377952755906
 20
0.4030826771653543
 30
0.0
 10
0.9886377952755906
 20
0.4030826771653543
 30
0.0
 10
0.9886377952755906
 20
0.4030826771653543
 30
0.0
 10
0.9350000000000001
 20
0.4030826771653543
 30
0.0
 10
0.9350000000000001
 20
0.4030826771653543
 30
0.0
 10
0.9350000000000001
 20
0.4030826771653543
 30
0.0
 10
0.9350000000000001
 20
0.4030826771653543
 30
0.0
 10
0.9350000000000001
 20
0.4099173228346457
 30
0.0
 10
0.9350000000000001
 20
0.4099173228346457
 30
0.0
 10
0.9350000000000001
 20
0.4099173228346457
 30
0.0
 10
0.9350000000000001
 20
0.4099173228346457
 30
0.0
 10
0.9438582677165355
 20
0.4099173228346457
 30
0.0
 10
0.9438582677165355
 20
0.4099173228346457
 30
0.0
 10
0.9438582677165355
 20
0.4099173228346457
 30
0.0
 10
0.9477204724409449
 20
0.4099173228346457
 30
0.0
 10
0.9502755905511812
 20
0.410248031496063
 30
0.0
 10
0.9515551181102363
 20
0.4109448818897638
 30
0.0
 10
0.9515551181102363
 20
0.4109448818897638
 30
0.0
 10
0.9528307086614174
 20
0.4116102362204724
 30
0.0
 10
0.9538307086614174
 20
0.4126929133858268
 30
0.0
 10
0.9545275590551181
 20
0.4141929133858268
 30
0.0
 10
0.9545275590551181
 20
0.4141929133858268
 30
0.0
 10
0.9552204724409449
 20
0.4156929133858268
 30
0.0
 10
0.9555826771653544
 20
0.4184173228346457
 30
0.0
 10
0.9555826771653544
 20
0.4223622047244094
 30
0.0
 10
0.9555826771653544
 20
0.4223622047244094
 30
0.0
 10
0.9555826771653544
 20
0.4223622047244094
 30
0.0
 10
0.9555826771653544
 20
0.4998307086614173
 30
0.0
 10
0.9555826771653544
 20
0.4998307086614173
 30
0.0
 10
0.9555826771653544
 20
0.4998307086614173
 30
0.0
 10
0.9555826771653544
 20
0.4998307086614173
 30
0.0
 10
0.9350000000000001
 20
0.4998307086614173
 30
0.0
 10
0.9350000000000001
 20
0.4998307086614173
 30
0.0
 10
0.9350000000000001
 20
0.4998307086614173
 30
0.0
 10
0.9350000000000001
 20
0.4998307086614173
 30
0.0
 10
0.9350000000000001
 20
0.5068307086614173
 30
0.0
 10
0.9350000000000001
 20
0.5068307086614173
 30
0.0
 10
0.9350000000000001
 20
0.5068307086614173
 30
0.0
 10
0.9462204724409449
 20
0.5084133858267717
 30
0.0
 10
0.9556102362204725
 20
0.5116653543307087
 30
0.0
 10
0.9631653543307087
 20
0.5166102362204724
 30
0.0
  0
SPLINE
  5
A6
330
1F
100
AcDbEntity
  8
LAYER_1
 62
   250
100
AcDbSpline
210
0.0
220
0.0
230
1.0
 70
    11
 71
     3
 72
    20
 73
    16
 74
     0
 42
0.0000000001
 43
0.0000000001
 40
0.0
 40
0.0
 40
0.0
 40
0.0
 40
0.25
 40
0.25
 40
0.25
 40
0.25
 40
0.5
 40
0.5
 40
0.5
 40
0.5
 40
0.75
 40
0.75
 40
0.75
 40
0.75
 40
1.0
 40
1.0
 40
1.0
 40
1.0
 10
1.092
 20
0.5224724409448819
 30
0.0
 10
1.092
 20
0.5224724409448819
 30
0.0
 10
1.036417322834646
 20
0.3667755905511811
 30
0.0
 10
1.036417322834646
 20
0.3667755905511811
 30
0.0
 10
1.036417322834646
 20
0.3667755905511811
 30
0.0
 10
1.036417322834646
 20
0.3667755905511811
 30
0.0
 10
1.024362204724409
 20
0.3667755905511811
 30
0.0
 10
1.024362204724409
 20
0.3667755905511811
 30
0.0
 10
1.024362204724409
 20
0.3667755905511811
 30
0.0
 10
1.024362204724409
 20
0.3667755905511811
 30
0.0
 10
1.079610236220473
 20
0.5224724409448819
 30
0.0
 10
1.079610236220473
 20
0.5224724409448819
 30
0.0
 10
1.079610236220473
 20
0.5224724409448819
 30
0.0
 10
1.079610236220473
 20
0.5224724409448819
 30
0.0
 10
1.092
 20
0.5224724409448819
 30
0.0
 10
1.092
 20
0.5224724409448819
 30
0.0
  0
SPLINE
  5
A7
330
1F
100
AcDbEntity
  8
LAYER_1
 62
   250
100
AcDbSpline
210
0.0
220
0.0
230
1.0
 70
    11
 71
     3
 72
   136
 73
   132
 74
     0
 42
0.0000000001
 43
0.0000000001
 40
0.0
 40
0.0
 40
0.0
 40
0.0
 40
0.0303030303030303
 40
0.0303030303030303
 40
0.0303030303030303
 40
0.0303030303030303
 40
0.0606060606060606
 40
0.0606060606060606
 40
0.0606060606060606
 40
0.0606060606060606
 40
0.0909090909090909
 40
0.0909090909090909
 40
0.0909090909090909
 40
0.0909090909090909
 40
0.1212121212121212
 40
0.1212121212121212
 40
0.1212121212121212
 40
0.1212121212121212
 40
0.1515151515151515
 40
0.1515151515151515
 40
0.1515151515151515
 40
0.1515151515151515
 40
0.1818181818181818
 40
0.1818181818181818
 40
0.1818181818181818
 40
0.1818181818181818
 40
0.2121212121212121
 40
0.2121212121212121
 40
0.2121212121212121
 40
0.2121212121212121
 40
0.2424242424242424
 40
0.2424242424242424
 40
0.2424242424242424
 40
0.2424242424242424
 40
0.2727272727272727
 40
0.2727272727272727
 40
0.2727272727272727
 40
0.2727272727272727
 40
0.303030303030303
 40
0.303030303030303
 40
0.303030303030303
 40
0.303030303030303
 40
0.3333333333333333
 40
0.3333333333333333
 40
0.3333333333333333
 40
0.3333333333333333
 40
0.3636363636363635
 40
0.3636363636363635
 40
0.3636363636363635
 40
0.3636363636363635
 40
0.3939393939393938
 40
0.3939393939393938
 40
0.3939393939393938
 40
0.3939393939393938
 40
0.4242424242424241
 40
0.4242424242424241
 40
0.4242424242424241
 40
0.4242424242424241
 40
0.4545454545454544
 40
0.4545454545454544
 40
0.4545454545454544
 40
0.4545454545454544
 40
0.4848484848484846
 40
0.4848484848484846
 40
0.4848484848484846
 40
0.4848484848484846
 40
0.5151515151515149
 40
0.5151515151515149
 40
0.5151515151515149
 40
0.5151515151515149
 40
0.5454545454545452
 40
0.5454545454545452
 40
0.5454545454545452
 40
0.5454545454545452
 40
0.5757575757575755
 40
0.5757575757575755
 40
0.5757575757575755
 40
0.5757575757575755
 40
0.6060606060606057
 40
0.6060606060606057
 40
0.6060606060606057
 40
0.6060606060606057
 40
0.636363636363636
 40
0.636363636363636
 40
0.636363636363636
 40
0.636363636363636
 40
0.6666666666666663
 40
0.6666666666666663
 40
0.6666666666666663
 40
0.6666666666666663
 40
0.6969696969696966
 40
0.6969696969696966
 40
0.6969696969696966
 40
0.6969696969696966
 40
0.7272727272727269
 40
0.7272727272727269
 40
0.7272727272727269
 40
0.7272727272727269
 40
0.7575757575757571
 40
0.7575757575757571
 40
0.7575757575757571
 40
0.7575757575757571
 40
0.7878787878787874
 40
0.7878787878787874
 40
0.7878787878787874
 40
0.7878787878787874
 40
0.8181818181818177
 40
0.8181818181818177
 40
0.8181818181818177
 40
0.8181818181818177
 40
0.848484848484848
 40
0.848484848484848
 40
0.848484848484848
 40
0.848484848484848
 40
0.8787878787878782
 40
0.8787878787878782
 40
0.8787878787878782
 40
0.8787878787878782
 40
0.9090909090909085
 40
0.9090909090909085
 40
0.9090909090909085
 40
0.9090909090909085
 40
0.9393939393939388
 40
0.9393939393939388
 40
0.9393939393939388
 40
0.9393939393939388
 40
0.9696969696969691
 40
0.9696969696969691
 40
0.9696969696969691
 40
0.9696969696969691
 40
1.0
 40
1.0
 40
1.0
 40
1.0
 10
1.129444881889764
 20
0.4738031496062992
 30
0.0
 10
1.129444881889764
 20
0.4738031496062992
 30
0.0
 10
1.121555118110236
 20
0.4728307086614174
 30
0.0
 10
1.121555118110236
 20
0.4728307086614174
 30
0.0
 10
1.121555118110236
 20
0.4728307086614174
 30
0.0
 10
1.121110236220473
 20
0.4766653543307087
 30
0.0
 10
1.120889763779528
 20
0.4798307086614174
 30
0.0
 10
1.120889763779528
 20
0.4822755905511811
 30
0.0
 10
1.120889763779528
 20
0.4822755905511811
 30
0.0
 10
1.120889763779528
 20
0.4886653543307087
 30
0.0
 10
1.122637795275591
 20
0.4947204724409449
 30
0.0
 10
1.126110236220473
 20
0.5004133858267716
 30
0.0
 10
1.126110236220473
 20
0.5004133858267716
 30
0.0
 10
1.129582677165354
 20
0.5061102362204725
 30
0.0
 10
1.134417322834646
 20
0.5105551181102362
 30
0.0
 10
1.140637795275591
 20
0.513748031496063
 30
0.0
 10
1.140637795275591
 20
0.513748031496063
 30
0.0
 10
1.146830708661417
 20
0.5169724409448819
 30
0.0
 10
1.153972440944882
 20
0.5185551181102363
 30
0.0
 10
1.162
 20
0.5185551181102363
 30
0.0
 10
1.162
 20
0.5185551181102363
 30
0.0
 10
1.169748031496063
 20
0.5185551181102363
 30
0.0
 10
1.176555118110236
 20
0.5170551181102362
 30
0.0
 10
1.182417322834646
 20
0.5140551181102362
 30
0.0
 10
1.182417322834646
 20
0.5140551181102362
 30
0.0
 10
1.188275590551181
 20
0.5110275590551181
 30
0.0
 10
1.192748031496063
 20
0.5069133858267717
 30
0.0
 10
1.195885826771654
 20
0.5016653543307087
 30
0.0
 10
1.195885826771654
 20
0.5016653543307087
 30
0.0
 10
1.199
 20
0.4964448818897638
 30
0.0
 10
1.200555118110236
 20
0.4904724409448819
 30
0.0
 10
1.200555118110236
 20
0.4837204724409449
 30
0.0
 10
1.200555118110236
 20
0.4837204724409449
 30
0.0
 10
1.200555118110236
 20
0.4780275590551181
 30
0.0
 10
1.199555118110236
 20
0.472748031496063
 30
0.0
 10
1.1975
 20
0.4679173228346457
 30
0.0
 10
1.1975
 20
0.4679173228346457
 30
0.0
 10
1.195472440944882
 20
0.4630551181102363
 30
0.0
 10
1.192192913385827
 20
0.4581377952755906
 30
0.0
 10
1.187692913385827
 20
0.4532204724409449
 30
0.0
 10
1.187692913385827
 20
0.4532204724409449
 30
0.0
 10
1.184330708661417
 20
0.4495275590551182
 30
0.0
 10
1.177527559055118
 20
0.4438897637795276
 30
0.0
 10
1.167275590551181
 20
0.4362755905511811
 30
0.0
 10
1.167275590551181
 20
0.4362755905511811
 30
0.0
 10
1.15436220472441
 20
0.4266377952755906
 30
0.0
 10
1.144472440944882
 20
0.4196377952755906
 30
0.0
 10
1.137582677165354
 20
0.4152755905511811
 30
0.0
 10
1.137582677165354
 20
0.4152755905511811
 30
0.0
 10
1.137582677165354
 20
0.4152755905511811
 30
0.0
 10
1.179889763779528
 20
0.4152755905511811
 30
0.0
 10
1.179889763779528
 20
0.4152755905511811
 30
0.0
 10
1.179889763779528
 20
0.4152755905511811
 30
0.0
 10
1.184889763779528
 20
0.4152755905511811
 30
0.0
 10
1.188137795275591
 20
0.415748031496063
 30
0.0
 10
1.189665354330709
 20
0.4166653543307087
 30
0.0
 10
1.189665354330709
 20
0.4166653543307087
 30
0.0
 10
1.191775590551181
 20
0.4178622047244095
 30
0.0
 10
1.193220472440945
 20
0.4206377952755906
 30
0.0
 10
1.193972440944882
 20
0.4249724409448819
 30
0.0
 10
1.193972440944882
 20
0.4249724409448819
 30
0.0
 10
1.193972440944882
 20
0.4249724409448819
 30
0.0
 10
1.194692913385827
 20
0.4296102362204725
 30
0.0
 10
1.194692913385827
 20
0.4296102362204725
 30
0.0
 10
1.194692913385827
 20
0.4296102362204725
 30
0.0
 10
1.194692913385827
 20
0.4296102362204725
 30
0.0
 10
1.201610236220473
 20
0.4296102362204725
 30
0.0
 10
1.201610236220473
 20
0.4296102362204725
 30
0.0
 10
1.201610236220473
 20
0.4296102362204725
 30
0.0
 10
1.201610236220473
 20
0.4296102362204725
 30
0.0
 10
1.196082677165354
 20
0.3990275590551181
 30
0.0
 10
1.196082677165354
 20
0.3990275590551181
 30
0.0
 10
1.196082677165354
 20
0.3990275590551181
 30
0.0
 10
1.196082677165354
 20
0.3990275590551181
 30
0.0
 10
1.190889763779528
 20
0.3990275590551181
 30
0.0
 10
1.190889763779528
 20
0.3990275590551181
 30
0.0
 10
1.190889763779528
 20
0.3990275590551181
 30
0.0
 10
1.190889763779528
 20
0.3990275590551181
 30
0.0
 10
1.189972440944882
 20
0.4030826771653543
 30
0.0
 10
1.189972440944882
 20
0.4030826771653543
 30
0.0
 10
1.189972440944882
 20
0.4030826771653543
 30
0.0
 10
1.189972440944882
 20
0.4030826771653543
 30
0.0
 10
1.118862204724409
 20
0.4030826771653543
 30
0.0
 10
1.118862204724409
 20
0.4030826771653543
 30
0.0
 10
1.118862204724409
 20
0.4030826771653543
 30
0.0
 10
1.118862204724409
 20
0.4030826771653543
 30
0.0
 10
1.118862204724409
 20
0.4099173228346457
 30
0.0
 10
1.118862204724409
 20
0.4099173228346457
 30
0.0
 10
1.118862204724409
 20
0.4099173228346457
 30
0.0
 10
1.118862204724409
 20
0.4099173228346457
 30
0.0
 10
1.131889763779528
 20
0.4197755905511811
 30
0.0
 10
1.131889763779528
 20
0.4197755905511811
 30
0.0
 10
1.131889763779528
 20
0.4197755905511811
 30
0.0
 10
1.141748031496063
 20
0.4270826771653544
 30
0.0
 10
1.149
 20
0.4326929133858268
 30
0.0
 10
1.153610236220473
 20
0.4366102362204725
 30
0.0
 10
1.153610236220473
 20
0.4366102362204725
 30
0.0
 10
1.162330708661417
 20
0.444
 30
0.0
 10
1.168917322834646
 20
0.4503031496062993
 30
0.0
 10
1.173330708661417
 20
0.4555275590551181
 30
0.0
 10
1.173330708661417
 20
0.4555275590551181
 30
0.0
 10
1.177748031496063
 20
0.4607755905511811
 30
0.0
 10
1.180803149606299
 20
0.4655
 30
0.0
 10
1.182444881889764
 20
0.4696929133858268
 30
0.0
 10
1.182444881889764
 20
0.4696929133858268
 30
0.0
 10
1.184110236220473
 20
0.4738858267716536
 30
0.0
 10
1.184944881889764
 20
0.4783031496062992
 30
0.0
 10
1.184944881889764
 20
0.4829173228346457
 30
0.0
 10
1.184944881889764
 20
0.4829173228346457
 30
0.0
 10
1.184944881889764
 20
0.4905551181102362
 30
0.0
 10
1.182472440944882
 20
0.4968307086614173
 30
0.0
 10
1.177582677165354
 20
0.5017204724409449
 30
0.0
 10
1.177582677165354
 20
0.5017204724409449
 30
0.0
 10
1.172665354330709
 20
0.5066102362204724
 30
0.0
 10
1.166275590551181
 20
0.5090275590551181
 30
0.0
 10
1.158417322834646
 20
0.5090275590551181
 30
0.0
 10
1.158417322834646
 20
0.5090275590551181
 30
0.0
 10
1.152775590551181
 20
0.5090275590551181
 30
0.0
 10
1.147720472440945
 20
0.5078307086614173
 30
0.0
 10
1.143303149606299
 20
0.5053858267716536
 30
0.0
 10
1.143303149606299
 20
0.5053858267716536
 30
0.0
 10
1.138889763779528
 20
0.5029448818897638
 30
0.0
 10
1.135417322834646
 20
0.4995275590551181
 30
0.0
 10
1.13286220472441
 20
0.4951102362204725
 30
0.0
 10
1.13286220472441
 20
0.4951102362204725
 30
0.0
 10
1.130303149606299
 20
0.4907204724409449
 30
0.0
 10
1.129027559055118
 20
0.4859724409448819
 30
0.0
 10
1.129027559055118
 20
0.4808858267716535
 30
0.0
 10
1.129027559055118
 20
0.4808858267716535
 30
0.0
 10
1.129027559055118
 20
0.4789724409448819
 30
0.0
 10
1.129165354330709
 20
0.4766102362204724
 30
0.0
 10
1.129444881889764
 20
0.4738031496062992
 30
0.0
  0
SPLINE
  5
A8
330
1F
100
AcDbEntity
  8
LAYER_1
 62
   250
100
AcDbSpline
210
0.0
220
0.0
230
1.0
 70
    11
 71
     3
 72
    60
 73
    56
 74
     0
 42
0.0000000001
 43
0.0000000001
 40
0.0
 40
0.0
 40
0.0
 40
0.0
 40
0.0714285714285714
 40
0.0714285714285714
 40
0.0714285714285714
 40
0.0714285714285714
 40
0.1428571428571429
 40
0.1428571428571429
 40
0.1428571428571429
 40
0.1428571428571429
 40
0.2142857142857143
 40
0.2142857142857143
 40
0.2142857142857143
 40
0.2142857142857143
 40
0.2857142857142857
 40
0.2857142857142857
 40
0.2857142857142857
 40
0.2857142857142857
 40
0.3571428571428571
 40
0.3571428571428571
 40
0.3571428571428571
 40
0.3571428571428571
 40
0.4285714285714285
 40
0.4285714285714285
 40
0.4285714285714285
 40
0.4285714285714285
 40
0.4999999999999999
 40
0.4999999999999999
 40
0.4999999999999999
 40
0.4999999999999999
 40
0.5714285714285713
 40
0.5714285714285713
 40
0.5714285714285713
 40
0.5714285714285713
 40
0.6428571428571427
 40
0.6428571428571427
 40
0.6428571428571427
 40
0.6428571428571427
 40
0.7142857142857141
 40
0.7142857142857141
 40
0.7142857142857141
 40
0.7142857142857141
 40
0.7857142857142855
 40
0.7857142857142855
 40
0.7857142857142855
 40
0.7857142857142855
 40
0.8571428571428569
 40
0.8571428571428569
 40
0.8571428571428569
 40
0.8571428571428569
 40
0.9285714285714283
 40
0.9285714285714283
 40
0.9285714285714283
 40
0.9285714285714283
 40
1.0
 40
1.0
 40
1.0
 40
1.0
 10
1.224
 20
0.4745275590551181
 30
0.0
 10
1.224
 20
0.4745275590551181
 30
0.0
 10
1.219610236220472
 20
0.4799173228346457
 30
0.0
 10
1.219610236220472
 20
0.4799173228346457
 30
0.0
 10
1.219610236220472
 20
0.4799173228346457
 30
0.0
 10
1.230724409448819
 20
0.4889724409448819
 30
0.0
 10
1.236307086614173
 20
0.4965275590551181
 30
0.0
 10
1.236307086614173
 20
0.5026102362204724
 30
0.0
 10
1.236307086614173
 20
0.5026102362204724
 30
0.0
 10
1.236307086614173
 20
0.5033031496062992
 30
0.0
 10
1.236251968503937
 20
0.5041929133858268
 30
0.0
 10
1.236137795275591
 20
0.5052204724409449
 30
0.0
 10
1.236137795275591
 20
0.5052204724409449
 30
0.0
 10
1.235224409448819
 20
0.5048307086614173
 30
0.0
 10
1.234307086614173
 20
0.5045275590551182
 30
0.0
 10
1.233444881889764
 20
0.5043307086614174
 30
0.0
 10
1.233444881889764
 20
0.5043307086614174
 30
0.0
 10
1.232582677165354
 20
0.5041102362204725
 30
0.0
 10
1.231779527559055
 20
0.504
 30
0.0
 10
1.231
 20
0.504
 30
0.0
 10
1.231
 20
0.504
 30
0.0
 10
1.228389763779528
 20
0.504
 30
0.0
 10
1.226307086614173
 20
0.5048307086614173
 30
0.0
 10
1.224751968503937
 20
0.5065275590551182
 30
0.0
 10
1.224751968503937
 20
0.5065275590551182
 30
0.0
 10
1.223165354330709
 20
0.5081929133858268
 30
0.0
 10
1.222389763779528
 20
0.5103307086614174
 30
0.0
 10
1.222389763779528
 20
0.5129448818897638
 30
0.0
 10
1.222389763779528
 20
0.5129448818897638
 30
0.0
 10
1.222389763779528
 20
0.5155000000000001
 30
0.0
 10
1.223334645669291
 20
0.5177204724409449
 30
0.0
 10
1.225224409448819
 20
0.5196102362204724
 30
0.0
 10
1.225224409448819
 20
0.5196102362204724
 30
0.0
 10
1.227137795275591
 20
0.5215275590551182
 30
0.0
 10
1.229417322834646
 20
0.5224724409448819
 30
0.0
 10
1.232055118110236
 20
0.5224724409448819
 30
0.0
 10
1.232055118110236
 20
0.5224724409448819
 30
0.0
 10
1.235751968503937
 20
0.5224724409448819
 30
0.0
 10
1.238917322834646
 20
0.521
 30
0.0
 10
1.241555118110236
 20
0.5180275590551181
 30
0.0
 10
1.241555118110236
 20
0.5180275590551181
 30
0.0
 10
1.244165354330709
 20
0.5150826771653544
 30
0.0
 10
1.2455
 20
0.5112755905511811
 30
0.0
 10
1.2455
 20
0.5066102362204724
 30
0.0
 10
1.2455
 20
0.5066102362204724
 30
0.0
 10
1.2455
 20
0.5035551181102362
 30
0.0
 10
1.24486220472441
 20
0.5003582677165355
 30
0.0
 10
1.243610236220472
 20
0.4970275590551181
 30
0.0
 10
1.243610236220472
 20
0.4970275590551181
 30
0.0
 10
1.242362204724409
 20
0.4936929133858268
 30
0.0
 10
1.240555118110236
 20
0.4906102362204725
 30
0.0
 10
1.238165354330709
 20
0.487748031496063
 30
0.0
 10
1.238165354330709
 20
0.487748031496063
 30
0.0
 10
1.235779527559055
 20
0.4849173228346457
 30
0.0
 10
1.231055118110236
 20
0.4805
 30
0.0
 10
1.224
 20
0.4745275590551181
 30
0.0
  0
SPLINE
  5
A9
330
1F
100
AcDbEntity
  8
LAYER_1
 62
   250
100
AcDbSpline
210
0.0
220
0.0
230
1.0
 70
    11
 71
     3
 72
    60
 73
    56
 74
     0
 42
0.0000000001
 43
0.0000000001
 40
0.0
 40
0.0
 40
0.0
 40
0.0
 40
0.0714285714285714
 40
0.0714285714285714
 40
0.0714285714285714
 40
0.0714285714285714
 40
0.1428571428571429
 40
0.1428571428571429
 40
0.1428571428571429
 40
0.1428571428571429
 40
0.2142857142857143
 40
0.2142857142857143
 40
0.2142857142857143
 40
0.2142857142857143
 40
0.2857142857142857
 40
0.2857142857142857
 40
0.2857142857142857
 40
0.2857142857142857
 40
0.3571428571428571
 40
0.3571428571428571
 40
0.3571428571428571
 40
0.3571428571428571
 40
0.4285714285714285
 40
0.4285714285714285
 40
0.4285714285714285
 40
0.4285714285714285
 40
0.4999999999999999
 40
0.4999999999999999
 40
0.4999999999999999
 40
0.4999999999999999
 40
0.5714285714285713
 40
0.5714285714285713
 40
0.5714285714285713
 40
0.5714285714285713
 40
0.6428571428571427
 40
0.6428571428571427
 40
0.6428571428571427
 40
0.6428571428571427
 40
0.7142857142857141
 40
0.7142857142857141
 40
0.7142857142857141
 40
0.7142857142857141
 40
0.7857142857142855
 40
0.7857142857142855
 40
0.7857142857142855
 40
0.7857142857142855
 40
0.8571428571428569
 40
0.8571428571428569
 40
0.8571428571428569
 40
0.8571428571428569
 40
0.9285714285714283
 40
0.9285714285714283
 40
0.9285714285714283
 40
0.9285714285714283
 40
1.0
 40
1.0
 40
1.0
 40
1.0
 10
1.253055118110236
 20
0.4745275590551181
 30
0.0
 10
1.253055118110236
 20
0.4745275590551181
 30
0.0
 10
1.248665354330709
 20
0.4799173228346457
 30
0.0
 10
1.248665354330709
 20
0.4799173228346457
 30
0.0
 10
1.248665354330709
 20
0.4799173228346457
 30
0.0
 10
1.259779527559055
 20
0.4889724409448819
 30
0.0
 10
1.26536220472441
 20
0.4965275590551181
 30
0.0
 10
1.26536220472441
 20
0.5026102362204724
 30
0.0
 10
1.26536220472441
 20
0.5026102362204724
 30
0.0
 10
1.26536220472441
 20
0.5033031496062992
 30
0.0
 10
1.265307086614173
 20
0.5041929133858268
 30
0.0
 10
1.265192913385827
 20
0.5052204724409449
 30
0.0
 10
1.265192913385827
 20
0.5052204724409449
 30
0.0
 10
1.264279527559055
 20
0.5048307086614173
 30
0.0
 10
1.26336220472441
 20
0.5045275590551182
 30
0.0
 10
1.2625
 20
0.5043307086614174
 30
0.0
 10
1.2625
 20
0.5043307086614174
 30
0.0
 10
1.261637795275591
 20
0.5041102362204725
 30
0.0
 10
1.260807086614173
 20
0.504
 30
0.0
 10
1.259972440944882
 20
0.504
 30
0.0
 10
1.259972440944882
 20
0.504
 30
0.0
 10
1.257417322834646
 20
0.504
 30
0.0
 10
1.25536220472441
 20
0.5048307086614173
 30
0.0
 10
1.253807086614173
 20
0.5065275590551182
 30
0.0
 10
1.253807086614173
 20
0.5065275590551182
 30
0.0
 10
1.252224409448819
 20
0.5081929133858268
 30
0.0
 10
1.251444881889764
 20
0.5103307086614174
 30
0.0
 10
1.251444881889764
 20
0.5129448818897638
 30
0.0
 10
1.251444881889764
 20
0.5129448818897638
 30
0.0
 10
1.251444881889764
 20
0.5155000000000001
 30
0.0
 10
1.252389763779528
 20
0.5177204724409449
 30
0.0
 10
1.254279527559055
 20
0.5196102362204724
 30
0.0
 10
1.254279527559055
 20
0.5196102362204724
 30
0.0
 10
1.256165354330709
 20
0.5215275590551182
 30
0.0
 10
1.258472440944882
 20
0.5224724409448819
 30
0.0
 10
1.261110236220473
 20
0.5224724409448819
 30
0.0
 10
1.261110236220473
 20
0.5224724409448819
 30
0.0
 10
1.264807086614173
 20
0.5224724409448819
 30
0.0
 10
1.267972440944882
 20
0.521
 30
0.0
 10
1.270610236220473
 20
0.5180275590551181
 30
0.0
 10
1.270610236220473
 20
0.5180275590551181
 30
0.0
 10
1.273220472440945
 20
0.5150826771653544
 30
0.0
 10
1.274555118110236
 20
0.5112755905511811
 30
0.0
 10
1.274555118110236
 20
0.5066102362204724
 30
0.0
 10
1.274555118110236
 20
0.5066102362204724
 30
0.0
 10
1.274555118110236
 20
0.5035551181102362
 30
0.0
 10
1.273917322834646
 20
0.5003582677165355
 30
0.0
 10
1.272665354330709
 20
0.4970275590551181
 30
0.0
 10
1.272665354330709
 20
0.4970275590551181
 30
0.0
 10
1.271417322834646
 20
0.4936929133858268
 30
0.0
 10
1.269610236220472
 20
0.4906102362204725
 30
0.0
 10
1.267224409448819
 20
0.487748031496063
 30
0.0
 10
1.267224409448819
 20
0.487748031496063
 30
0.0
 10
1.264834645669291
 20
0.4849173228346457
 30
0.0
 10
1.260110236220473
 20
0.4805
 30
0.0
 10
1.253055118110236
 20
0.4745275590551181
 30
0.0
  0
ENDSEC
  0
SECTION
  2
OBJECTS
  0
DICTIONARY
  5
C
330
0
100
AcDbDictionary
  3
ACAD_GROUP
350
D
  3
ACAD_LAYOUT
350
1A
  3
ACAD_MLINESTYLE
350
17
  3
ACAD_PLOTSETTINGS
350
19
  3
ACDBHEADERROUNDTRIPXREC
350
AA
  0
DICTIONARY
  5
CA
330
29
100
AcDbDictionary
280
     1
  3
ACAD_XREC_ROUNDTRIP
360
CB
  0
DICTIONARY
  5
D
102
{ACAD_REACTORS
330
C
102
}
330
C
100
AcDbDictionary
  0
DICTIONARY
  5
1A
102
{ACAD_REACTORS
330
C
102
}
330
C
100
AcDbDictionary
  0
DICTIONARY
  5
17
102
{ACAD_REACTORS
330
C
102
}
330
C
100
AcDbDictionary
  3
STANDARD
350
18
  0
DICTIONARY
  5
19
102
{ACAD_REACTORS
330
C
102
}
330
C
100
AcDbDictionary
  0
DICTIONARY
  5
AA
102
{ACAD_REACTORS
330
C
102
}
330
C
100
AcDbDictionary
  3
CEPSNTYPE
350
B3
  3
DIMSTYLEDATA
350
C9
  3
FINGERPRINTGUID
350
B4
  3
HYPERLINKBASE
350
AD
  3
INSUNITS
350
B2
  3
LAYOUTDICT
350
AF
  3
LWETCUNION
350
B1
  3
PLOTSETDICT
350
B0
  3
PSVPSCALE
350
B6
  3
PUCSBASE
350
B9
  3
PUCSORGBACK
350
BF
  3
PUCSORGBOTTOM
350
BB
  3
PUCSORGFRONT
350
BE
  3
PUCSORGLEFT
350
BC
  3
PUCSORGRIGHT
350
BD
  3
PUCSORGTOP
350
BA
  3
PUCSORTHOREF
350
B7
  3
PUCSORTHOVIEW
350
B8
  3
STYLESHEET
350
AE
  3
TSTACKALIGN
350
AB
  3
TSTACKSIZE
350
AC
  3
UCSBASE
350
C2
  3
UCSORGBACK
350
C8
  3
UCSORGBOTTOM
350
C4
  3
UCSORGFRONT
350
C7
  3
UCSORGLEFT
350
C5
  3
UCSORGRIGHT
350
C6
  3
UCSORGTOP
350
C3
  3
UCSORTHOREF
350
C0
  3
UCSORTHOVIEW
350
C1
  3
VERSIONGUID
350
B5
  0
XRECORD
  5
CB
102
{ACAD_REACTORS
330
CA
102
}
330
CA
100
AcDbXrecord
102
UCS
 74
     0
 71
     1
 10
0.0
 20
0.0
 30
0.0
 10
1.0
 20
0.0
 30
0.0
 10
0.0
 20
1.0
 30
0.0
146
0.0
 79
     0
102
VIEW
281
     0
  0
MLINESTYLE
  5
18
102
{ACAD_REACTORS
330
17
102
}
330
17
100
AcDbMlineStyle
  2
Standard
 70
     0
  3

 62
   256
 51
90.0
 52
90.0
 71
     2
 49
0.5
 62
   256
  6
BYLAYER
 49
-0.5
 62
   256
  6
BYLAYER
  0
XRECORD
  5
B3
102
{ACAD_REACTORS
330
AA
102
}
330
AA
100
AcDbXrecord
 90
        0
  0
XRECORD
  5
C9
102
{ACAD_REACTORS
330
AA
102
}
330
AA
100
AcDbXrecord
1000
DSTYLE
1002
{
1070
   340
340
11
1002
}
  0
XRECORD
  5
B4
102
{ACAD_REACTORS
330
AA
102
}
330
AA
100
AcDbXrecord
  1
{FAEB1C30-E019-11D5-929B-00C0DF256EC4}
  0
XRECORD
  5
AD
102
{ACAD_REACTORS
330
AA
102
}
330
AA
100
AcDbXrecord
  1

  0
XRECORD
  5
B2
102
{ACAD_REACTORS
330
AA
102
}
330
AA
100
AcDbXrecord
 90
        1
  0
XRECORD
  5
AF
102
{ACAD_REACTORS
330
AA
102
}
330
AA
100
AcDbXrecord
340
1A
  0
XRECORD
  5
B1
102
{ACAD_REACTORS
330
AA
102
}
330
AA
100
AcDbXrecord
 90
     2560
  0
XRECORD
  5
B0
102
{ACAD_REACTORS
330
AA
102
}
330
AA
100
AcDbXrecord
340
19
  0
XRECORD
  5
B6
102
{ACAD_REACTORS
330
AA
102
}
330
AA
100
AcDbXrecord
 40
0.0
  0
XRECORD
  5
B9
102
{ACAD_REACTORS
330
AA
102
}
330
AA
100
AcDbXrecord
340
0
  0
XRECORD
  5
BF
102
{ACAD_REACTORS
330
AA
102
}
330
AA
100
AcDbXrecord
 10
0.0
 20
0.0
 30
0.0
  0
XRECORD
  5
BB
102
{ACAD_REACTORS
330
AA
102
}
330
AA
100
AcDbXrecord
 10
0.0
 20
0.0
 30
0.0
  0
XRECORD
  5
BE
102
{ACAD_REACTORS
330
AA
102
}
330
AA
100
AcDbXrecord
 10
0.0
 20
0.0
 30
0.0
  0
XRECORD
  5
BC
102
{ACAD_REACTORS
330
AA
102
}
330
AA
100
AcDbXrecord
 10
0.0
 20
0.0
 30
0.0
  0
XRECORD
  5
BD
102
{ACAD_REACTORS
330
AA
102
}
330
AA
100
AcDbXrecord
 10
0.0
 20
0.0
 30
0.0
  0
XRECORD
  5
BA
102
{ACAD_REACTORS
330
AA
102
}
330
AA
100
AcDbXrecord
 10
0.0
 20
0.0
 30
0.0
  0
XRECORD
  5
B7
102
{ACAD_REACTORS
330
AA
102
}
330
AA
100
AcDbXrecord
340
0
  0
XRECORD
  5
B8
102
{ACAD_REACTORS
330
AA
102
}
330
AA
100
AcDbXrecord
 70
     0
  0
XRECORD
  5
AE
102
{ACAD_REACTORS
330
AA
102
}
330
AA
100
AcDbXrecord
  1

  0
XRECORD
  5
AB
102
{ACAD_REACTORS
330
AA
102
}
330
AA
100
AcDbXrecord
 90
        1
  0
XRECORD
  5
AC
102
{ACAD_REACTORS
330
AA
102
}
330
AA
100
AcDbXrecord
 90
       70
  0
XRECORD
  5
C2
102
{ACAD_REACTORS
330
AA
102
}
330
AA
100
AcDbXrecord
340
0
  0
XRECORD
  5
C8
102
{ACAD_REACTORS
330
AA
102
}
330
AA
100
AcDbXrecord
 10
0.0
 20
0.0
 30
0.0
  0
XRECORD
  5
C4
102
{ACAD_REACTORS
330
AA
102
}
330
AA
100
AcDbXrecord
 10
0.0
 20
0.0
 30
0.0
  0
XRECORD
  5
C7
102
{ACAD_REACTORS
330
AA
102
}
330
AA
100
AcDbXrecord
 10
0.0
 20
0.0
 30
0.0
  0
XRECORD
  5
C5
102
{ACAD_REACTORS
330
AA
102
}
330
AA
100
AcDbXrecord
 10
0.0
 20
0.0
 30
0.0
  0
XRECORD
  5
C6
102
{ACAD_REACTORS
330
AA
102
}
330
AA
100
AcDbXrecord
 10
0.0
 20
0.0
 30
0.0
  0
XRECORD
  5
C3
102
{ACAD_REACTORS
330
AA
102
}
330
AA
100
AcDbXrecord
 10
0.0
 20
0.0
 30
0.0
  0
XRECORD
  5
C0
102
{ACAD_REACTORS
330
AA
102
}
330
AA
100
AcDbXrecord
340
0
  0
XRECORD
  5
C1
102
{ACAD_REACTORS
330
AA
102
}
330
AA
100
AcDbXrecord
 70
     0
  0
XRECORD
  5
B5
102
{ACAD_REACTORS
330
AA
102
}
330
AA
100
AcDbXrecord
  1
{FAEB1C32-E019-11D5-929B-00C0DF256EC4}
  0
ENDSEC
  0
EOF
