  0
SECTION
  2
HEADER
  9
$ACADVER
  1
AC1014
  9
$ACADMAINTVER
 70
     9
  9
$DWGCODEPAGE
  3
ANSI_1252
  9
$INSBASE
 10
0.0
 20
0.0
 30
0.0
  9
$EXTMIN
 10
-2.919251968503937
 20
0.8769566929133859
 30
0.0
  9
$EXTMAX
 10
3.203543307086614
 20
2.453948818897638
 30
0.0
  9
$LIMMIN
 10
0.0
 20
0.0
  9
$LIMMAX
 10
12.0
 20
9.0
  9
$ORTHOMODE
 70
     0
  9
$REGENMODE
 70
     1
  9
$FILLMODE
 70
     1
  9
$QTEXTMODE
 70
     0
  9
$MIRRTEXT
 70
     1
  9
$DRAGMODE
 70
     2
  9
$LTSCALE
 40
1.0
  9
$OSMODE
 70
    37
  9
$ATTMODE
 70
     1
  9
$TEXTSIZE
 40
0.2
  9
$TRACEWID
 40
0.05
  9
$TEXTSTYLE
  7
STANDARD
  9
$CLAYER
  8
0
  9
$CELTYPE
  6
BYLAYER
  9
$CECOLOR
 62
   256
  9
$CELTSCALE
 40
1.0
  9
$DELOBJ
 70
     1
  9
$DISPSILH
 70
     0
  9
$DIMSCALE
 40
1.0
  9
$DIMASZ
 40
0.18
  9
$DIMEXO
 40
0.0625
  9
$DIMDLI
 40
0.38
  9
$DIMRND
 40
0.0
  9
$DIMDLE
 40
0.0
  9
$DIMEXE
 40
0.18
  9
$DIMTP
 40
0.0
  9
$DIMTM
 40
0.0
  9
$DIMTXT
 40
0.18
  9
$DIMCEN
 40
0.09
  9
$DIMTSZ
 40
0.0
  9
$DIMTOL
 70
     0
  9
$DIMLIM
 70
     0
  9
$DIMTIH
 70
     1
  9
$DIMTOH
 70
     1
  9
$DIMSE1
 70
     0
  9
$DIMSE2
 70
     0
  9
$DIMTAD
 70
     0
  9
$DIMZIN
 70
     0
  9
$DIMBLK
  1

  9
$DIMASO
 70
     1
  9
$DIMSHO
 70
     1
  9
$DIMPOST
  1

  9
$DIMAPOST
  1

  9
$DIMALT
 70
     0
  9
$DIMALTD
 70
     2
  9
$DIMALTF
 40
25.4
  9
$DIMLFAC
 40
1.0
  9
$DIMTOFL
 70
     0
  9
$DIMTVP
 40
0.0
  9
$DIMTIX
 70
     0
  9
$DIMSOXD
 70
     0
  9
$DIMSAH
 70
     0
  9
$DIMBLK1
  1

  9
$DIMBLK2
  1

  9
$DIMSTYLE
  2
STANDARD
  9
$DIMCLRD
 70
     0
  9
$DIMCLRE
 70
     0
  9
$DIMCLRT
 70
     0
  9
$DIMTFAC
 40
1.0
  9
$DIMGAP
 40
0.09
  9
$DIMJUST
 70
     0
  9
$DIMSD1
 70
     0
  9
$DIMSD2
 70
     0
  9
$DIMTOLJ
 70
     1
  9
$DIMTZIN
 70
     0
  9
$DIMALTZ
 70
     0
  9
$DIMALTTZ
 70
     0
  9
$DIMFIT
 70
     3
  9
$DIMUPT
 70
     0
  9
$DIMUNIT
 70
     2
  9
$DIMDEC
 70
     4
  9
$DIMTDEC
 70
     4
  9
$DIMALTU
 70
     2
  9
$DIMALTTD
 70
     2
  9
$DIMTXSTY
  7
STANDARD
  9
$DIMAUNIT
 70
     0
  9
$LUNITS
 70
     2
  9
$LUPREC
 70
     4
  9
$SKETCHINC
 40
0.1
  9
$FILLETRAD
 40
0.5
  9
$AUNITS
 70
     0
  9
$AUPREC
 70
     0
  9
$MENU
  1
.
  9
$ELEVATION
 40
0.0
  9
$PELEVATION
 40
0.0
  9
$THICKNESS
 40
0.0
  9
$LIMCHECK
 70
     0
  9
$CHAMFERA
 40
0.5
  9
$CHAMFERB
 40
0.5
  9
$CHAMFERC
 40
1.0
  9
$CHAMFERD
 40
0.0
  9
$SKPOLY
 70
     0
  9
$TDCREATE
 40
2454123.554077234
  9
$TDUPDATE
 40
2454123.554077245
  9
$TDINDWG
 40
0.0000000116
  9
$TDUSRTIMER
 40
0.0000000116
  9
$USRTIMER
 70
     1
  9
$ANGBASE
 50
0.0
  9
$ANGDIR
 70
     0
  9
$PDMODE
 70
     0
  9
$PDSIZE
 40
0.0
  9
$PLINEWID
 40
0.0
  9
$COORDS
 70
     1
  9
$SPLFRAME
 70
     0
  9
$SPLINETYPE
 70
     6
  9
$SPLINESEGS
 70
     8
  9
$ATTDIA
 70
     0
  9
$ATTREQ
 70
     1
  9
$HANDLING
 70
     1
  9
$HANDSEED
  5
AC
  9
$SURFTAB1
 70
     6
  9
$SURFTAB2
 70
     6
  9
$SURFTYPE
 70
     6
  9
$SURFU
 70
     6
  9
$SURFV
 70
     6
  9
$UCSNAME
  2

  9
$UCSORG
 10
0.0
 20
0.0
 30
0.0
  9
$UCSXDIR
 10
1.0
 20
0.0
 30
0.0
  9
$UCSYDIR
 10
0.0
 20
1.0
 30
0.0
  9
$PUCSNAME
  2

  9
$PUCSORG
 10
0.0
 20
0.0
 30
0.0
  9
$PUCSXDIR
 10
1.0
 20
0.0
 30
0.0
  9
$PUCSYDIR
 10
0.0
 20
1.0
 30
0.0
  9
$USERI1
 70
     0
  9
$USERI2
 70
     0
  9
$USERI3
 70
     0
  9
$USERI4
 70
     0
  9
$USERI5
 70
     0
  9
$USERR1
 40
0.0
  9
$USERR2
 40
0.0
  9
$USERR3
 40
0.0
  9
$USERR4
 40
0.0
  9
$USERR5
 40
0.0
  9
$WORLDVIEW
 70
     1
  9
$SHADEDGE
 70
     3
  9
$SHADEDIF
 70
    70
  9
$TILEMODE
 70
     1
  9
$MAXACTVP
 70
    64
  9
$PINSBASE
 10
0.0
 20
0.0
 30
0.0
  9
$PLIMCHECK
 70
     0
  9
$PEXTMIN
 10
1.000000000000000E+20
 20
1.000000000000000E+20
 30
1.000000000000000E+20
  9
$PEXTMAX
 10
-1.000000000000000E+20
 20
-1.000000000000000E+20
 30
-1.000000000000000E+20
  9
$PLIMMIN
 10
0.0
 20
0.0
  9
$PLIMMAX
 10
12.0
 20
9.0
  9
$UNITMODE
 70
     0
  9
$VISRETAIN
 70
     1
  9
$PLINEGEN
 70
     0
  9
$PSLTSCALE
 70
     1
  9
$TREEDEPTH
 70
  3020
  9
$PICKSTYLE
 70
     1
  9
$CMLSTYLE
  2
STANDARD
  9
$CMLJUST
 70
     0
  9
$CMLSCALE
 40
1.0
  9
$PROXYGRAPHICS
 70
     1
  9
$MEASUREMENT
 70
     0
  0
ENDSEC
  0
SECTION
  2
CLASSES
  0
CLASS
  1
ACDBDICTIONARYWDFLT
  2
AcDbDictionaryWithDefault
  3
ObjectDBX Classes
 90
        0
280
     0
281
     0
  0
CLASS
  1
XRECORD
  2
AcDbXrecord
  3
AutoCAD 2000
 90
        0
280
     0
281
     0
  0
CLASS
  1
LWPOLYLINE
  2
AcDbPolyline
  3
AutoCAD 2000
 90
        0
280
     0
281
     1
  0
CLASS
  1
HATCH
  2
AcDbHatch
  3
AutoCAD 2000
 90
        0
280
     0
281
     1
  0
CLASS
  1
ACDBPLACEHOLDER
  2
AcDbPlaceHolder
  3
ObjectDBX Classes
 90
        0
280
     0
281
     0
  0
CLASS
  1
LAYOUT
  2
AcDbLayout
  3
ObjectDBX Classes
 90
        0
280
     0
281
     0
  0
ENDSEC
  0
SECTION
  2
TABLES
  0
TABLE
  2
VPORT
  5
8
330
0
100
AcDbSymbolTable
 70
     2
  0
VPORT
  5
29
102
{ACAD_XDICTIONARY
360
AA
102
}
330
8
100
AcDbSymbolTableRecord
100
AcDbViewportTableRecord
  2
*ACTIVE
 70
     0
 10
0.0
 20
0.0
 11
1.0
 21
1.0
 12
10.42990654205607
 22
4.5
 13
0.0
 23
0.0
 14
0.5
 24
0.5
 15
0.5
 25
0.5
 16
0.0
 26
0.0
 36
1.0
 17
0.0
 27
0.0
 37
0.0
 40
9.0
 41
1.972972972850329
 42
50.0
 43
0.0
 44
0.0
 50
0.0
 51
0.0
 71
     0
 72
   100
 73
     1
 74
     3
 75
     0
 76
     0
 77
     0
 78
     0
  0
ENDTAB
  0
TABLE
  2
LTYPE
  5
5
330
0
100
AcDbSymbolTable
 70
     1
  0
LTYPE
  5
14
330
5
100
AcDbSymbolTableRecord
100
AcDbLinetypeTableRecord
  2
BYBLOCK
 70
     0
  3

 72
    65
 73
     0
 40
0.0
  0
LTYPE
  5
15
330
5
100
AcDbSymbolTableRecord
100
AcDbLinetypeTableRecord
  2
BYLAYER
 70
     0
  3

 72
    65
 73
     0
 40
0.0
  0
LTYPE
  5
16
330
5
100
AcDbSymbolTableRecord
100
AcDbLinetypeTableRecord
  2
CONTINUOUS
 70
     0
  3
Solid line
 72
    65
 73
     0
 40
0.0
  0
ENDTAB
  0
TABLE
  2
LAYER
  5
2
330
0
100
AcDbSymbolTable
 70
     2
  0
LAYER
  5
10
330
2
100
AcDbSymbolTableRecord
100
AcDbLayerTableRecord
  2
0
 70
     0
 62
     7
  6
CONTINUOUS
  0
LAYER
  5
2B
330
2
100
AcDbSymbolTableRecord
100
AcDbLayerTableRecord
  2
LAYER_1
 70
     0
 62
     7
  6
CONTINUOUS
  0
ENDTAB
  0
TABLE
  2
STYLE
  5
3
330
0
100
AcDbSymbolTable
 70
     1
  0
STYLE
  5
11
330
3
100
AcDbSymbolTableRecord
100
AcDbTextStyleTableRecord
  2
STANDARD
 70
     0
 40
0.0
 41
1.0
 50
0.0
 71
     0
 42
0.2
  3
txt
  4

  0
ENDTAB
  0
TABLE
  2
VIEW
  5
6
330
0
100
AcDbSymbolTable
 70
     0
  0
ENDTAB
  0
TABLE
  2
UCS
  5
7
330
0
100
AcDbSymbolTable
 70
     0
  0
ENDTAB
  0
TABLE
  2
APPID
  5
9
330
0
100
AcDbSymbolTable
 70
     2
  0
APPID
  5
12
330
9
100
AcDbSymbolTableRecord
100
AcDbRegAppTableRecord
  2
ACAD
 70
     0
  0
APPID
  5
2A
330
9
100
AcDbSymbolTableRecord
100
AcDbRegAppTableRecord
  2
ODA
 70
     0
  0
ENDTAB
  0
TABLE
  2
DIMSTYLE
  5
A
330
0
100
AcDbSymbolTable
 70
     1
  0
DIMSTYLE
105
27
330
A
100
AcDbSymbolTableRecord
100
AcDbDimStyleTableRecord
  2
STANDARD
 70
     0
  3

  4

  5

  6

  7

 40
1.0
 41
0.18
 42
0.0625
 43
0.38
 44
0.18
 45
0.0
 46
0.0
 47
0.0
 48
0.0
140
0.18
141
0.09
142
0.0
143
25.4
144
1.0
145
0.0
146
1.0
147
0.09
 71
     0
 72
     0
 73
     1
 74
     1
 75
     0
 76
     0
 77
     0
 78
     0
170
     0
171
     2
172
     0
173
     0
174
     0
175
     0
176
     0
177
     0
178
     0
270
     2
271
     4
272
     4
273
     2
274
     2
340
11
275
     0
280
     0
281
     0
282
     0
283
     1
284
     0
285
     0
286
     0
287
     3
288
     0
  0
ENDTAB
  0
TABLE
  2
BLOCK_RECORD
  5
1
330
0
100
AcDbSymbolTable
 70
     1
  0
BLOCK_RECORD
  5
1F
330
1
100
AcDbSymbolTableRecord
100
AcDbBlockTableRecord
  2
*MODEL_SPACE
  0
BLOCK_RECORD
  5
1B
330
1
100
AcDbSymbolTableRecord
100
AcDbBlockTableRecord
  2
*PAPER_SPACE
  0
ENDTAB
  0
ENDSEC
  0
SECTION
  2
BLOCKS
  0
BLOCK
  5
20
330
1F
100
AcDbEntity
  8
0
100
AcDbBlockBegin
  2
*MODEL_SPACE
 70
     0
 71
     0
 10
0.0
 20
0.0
 30
0.0
  3
*MODEL_SPACE
  1

  0
ENDBLK
  5
21
330
1F
100
AcDbEntity
  8
0
100
AcDbBlockEnd
  0
BLOCK
  5
1C
330
1B
100
AcDbEntity
 67
     1
  8
0
100
AcDbBlockBegin
  2
*PAPER_SPACE
 70
     0
 71
     0
 10
0.0
 20
0.0
 30
0.0
  3
*PAPER_SPACE
  1

  0
ENDBLK
  5
1D
330
1B
100
AcDbEntity
 67
     1
  8
0
100
AcDbBlockEnd
  0
ENDSEC
  0
SECTION
  2
ENTITIES
  0
SPLINE
  5
2C
330
1F
100
AcDbEntity
  8
LAYER_1
 62
   250
100
AcDbSpline
210
0.0
220
0.0
230
1.0
 70
    11
 71
     3
 72
    68
 73
    64
 74
     0
 42
0.0000000001
 43
0.0000000001
 40
0.0
 40
0.0
 40
0.0
 40
0.0
 40
0.0625
 40
0.0625
 40
0.0625
 40
0.0625
 40
0.125
 40
0.125
 40
0.125
 40
0.125
 40
0.1875
 40
0.1875
 40
0.1875
 40
0.1875
 40
0.25
 40
0.25
 40
0.25
 40
0.25
 40
0.3125
 40
0.3125
 40
0.3125
 40
0.3125
 40
0.375
 40
0.375
 40
0.375
 40
0.375
 40
0.4375
 40
0.4375
 40
0.4375
 40
0.4375
 40
0.5
 40
0.5
 40
0.5
 40
0.5
 40
0.5625
 40
0.5625
 40
0.5625
 40
0.5625
 40
0.625
 40
0.625
 40
0.625
 40
0.625
 40
0.6875
 40
0.6875
 40
0.6875
 40
0.6875
 40
0.75
 40
0.75
 40
0.75
 40
0.75
 40
0.8125
 40
0.8125
 40
0.8125
 40
0.8125
 40
0.875
 40
0.875
 40
0.875
 40
0.875
 40
0.9375
 40
0.9375
 40
0.9375
 40
0.9375
 40
1.0
 40
1.0
 40
1.0
 40
1.0
 10
-2.912307086614173
 20
2.081685039370079
 30
0.0
 10
-2.912307086614173
 20
2.081685039370079
 30
0.0
 10
-2.595488188976378
 20
2.081685039370079
 30
0.0
 10
-2.595488188976378
 20
2.081685039370079
 30
0.0
 10
-2.595488188976378
 20
2.081685039370079
 30
0.0
 10
-2.595488188976378
 20
2.081685039370079
 30
0.0
 10
-2.566661417322835
 20
1.581685039370079
 30
0.0
 10
-2.566661417322835
 20
1.581685039370079
 30
0.0
 10
-2.566661417322835
 20
1.581685039370079
 30
0.0
 10
-2.566661417322835
 20
1.581685039370079
 30
0.0
 10
-2.409527559055118
 20
1.581685039370079
 30
0.0
 10
-2.409527559055118
 20
1.581685039370079
 30
0.0
 10
-2.409527559055118
 20
1.581685039370079
 30
0.0
 10
-2.409527559055118
 20
1.581685039370079
 30
0.0
 10
-2.380700787401575
 20
2.081685039370079
 30
0.0
 10
-2.380700787401575
 20
2.081685039370079
 30
0.0
 10
-2.380700787401575
 20
2.081685039370079
 30
0.0
 10
-2.380700787401575
 20
2.081685039370079
 30
0.0
 10
-2.073212598425197
 20
2.081685039370079
 30
0.0
 10
-2.073212598425197
 20
2.081685039370079
 30
0.0
 10
-2.073212598425197
 20
2.081685039370079
 30
0.0
 10
-2.073212598425197
 20
2.081685039370079
 30
0.0
 10
-2.044385826771654
 20
1.581685039370079
 30
0.0
 10
-2.044385826771654
 20
1.581685039370079
 30
0.0
 10
-2.044385826771654
 20
1.581685039370079
 30
0.0
 10
-2.044385826771654
 20
1.581685039370079
 30
0.0
 10
-1.887251968503937
 20
1.581685039370079
 30
0.0
 10
-1.887251968503937
 20
1.581685039370079
 30
0.0
 10
-1.887251968503937
 20
1.581685039370079
 30
0.0
 10
-1.887251968503937
 20
1.581685039370079
 30
0.0
 10
-1.858425196850394
 20
2.081685039370079
 30
0.0
 10
-1.858425196850394
 20
2.081685039370079
 30
0.0
 10
-1.858425196850394
 20
2.081685039370079
 30
0.0
 10
-1.858425196850394
 20
2.081685039370079
 30
0.0
 10
-1.553003937007874
 20
2.081685039370079
 30
0.0
 10
-1.553003937007874
 20
2.081685039370079
 30
0.0
 10
-1.553003937007874
 20
2.081685039370079
 30
0.0
 10
-1.553003937007874
 20
2.081685039370079
 30
0.0
 10
-1.524177165354331
 20
1.581685039370079
 30
0.0
 10
-1.524177165354331
 20
1.581685039370079
 30
0.0
 10
-1.524177165354331
 20
1.581685039370079
 30
0.0
 10
-1.524177165354331
 20
1.581685039370079
 30
0.0
 10
-0.9244488188976379
 20
1.581685039370079
 30
0.0
 10
-0.9244488188976379
 20
1.581685039370079
 30
0.0
 10
-0.9244488188976379
 20
1.581685039370079
 30
0.0
 10
-0.9244488188976379
 20
1.581685039370079
 30
0.0
 10
-0.8956220472440946
 20
2.081685039370079
 30
0.0
 10
-0.8956220472440946
 20
2.081685039370079
 30
0.0
 10
-0.8956220472440946
 20
2.081685039370079
 30
0.0
 10
-0.8956220472440946
 20
2.081685039370079
 30
0.0
 10
-0.4123110236220473
 20
2.081685039370079
 30
0.0
 10
-0.4123110236220473
 20
2.081685039370079
 30
0.0
 10
-0.4123110236220473
 20
2.081685039370079
 30
0.0
 10
-0.4123110236220473
 20
2.081685039370079
 30
0.0
 10
-0.4123110236220473
 20
1.331685039370079
 30
0.0
 10
-0.4123110236220473
 20
1.331685039370079
 30
0.0
 10
-0.4123110236220473
 20
1.331685039370079
 30
0.0
 10
-0.4123110236220473
 20
1.331685039370079
 30
0.0
 10
-2.912307086614173
 20
1.331685039370079
 30
0.0
 10
-2.912307086614173
 20
1.331685039370079
 30
0.0
 10
-2.912307086614173
 20
1.331685039370079
 30
0.0
 10
-2.912307086614173
 20
1.331685039370079
 30
0.0
 10
-2.912307086614173
 20
2.081685039370079
 30
0.0
 10
-2.912307086614173
 20
2.081685039370079
 30
0.0
  0
SPLINE
  5
2D
330
1F
100
AcDbEntity
  8
LAYER_1
 62
   252
100
AcDbSpline
210
0.0
220
0.0
230
1.0
 70
    11
 71
     3
 72
    20
 73
    16
 74
     0
 42
0.0000000001
 43
0.0000000001
 40
0.0
 40
0.0
 40
0.0
 40
0.0
 40
0.25
 40
0.25
 40
0.25
 40
0.25
 40
0.5
 40
0.5
 40
0.5
 40
0.5
 40
0.75
 40
0.75
 40
0.75
 40
0.75
 40
1.0
 40
1.0
 40
1.0
 40
1.0
 10
0.049996062992126
 20
2.074866141732283
 30
0.0
 10
0.049996062992126
 20
2.074866141732283
 30
0.0
 10
0.7020472440944883
 20
2.452448818897638
 30
0.0
 10
0.7020472440944883
 20
2.452448818897638
 30
0.0
 10
0.7020472440944883
 20
2.452448818897638
 30
0.0
 10
0.7020472440944883
 20
2.452448818897638
 30
0.0
 10
1.018866141732284
 20
2.452448818897638
 30
0.0
 10
1.018866141732284
 20
2.452448818897638
 30
0.0
 10
1.018866141732284
 20
2.452448818897638
 30
0.0
 10
1.018866141732284
 20
2.452448818897638
 30
0.0
 10
0.3668149606299213
 20
2.074866141732283
 30
0.0
 10
0.3668149606299213
 20
2.074866141732283
 30
0.0
 10
0.3668149606299213
 20
2.074866141732283
 30
0.0
 10
0.3668149606299213
 20
2.074866141732283
 30
0.0
 10
0.049996062992126
 20
2.074866141732283
 30
0.0
 10
0.049996062992126
 20
2.074866141732283
 30
0.0
  0
SPLINE
  5
2E
330
1F
100
AcDbEntity
  8
LAYER_1
 62
   250
100
AcDbSpline
210
0.0
220
0.0
230
1.0
 70
    11
 71
     3
 72
    20
 73
    16
 74
     0
 42
0.0000000001
 43
0.0000000001
 40
0.0
 40
0.0
 40
0.0
 40
0.0
 40
0.25
 40
0.25
 40
0.25
 40
0.25
 40
0.5
 40
0.5
 40
0.5
 40
0.5
 40
0.75
 40
0.75
 40
0.75
 40
0.75
 40
1.0
 40
1.0
 40
1.0
 40
1.0
 10
0.049996062992126
 20
2.074866141732283
 30
0.0
 10
0.049996062992126
 20
2.074866141732283
 30
0.0
 10
0.7020472440944883
 20
2.452448818897638
 30
0.0
 10
0.7020472440944883
 20
2.452448818897638
 30
0.0
 10
0.7020472440944883
 20
2.452448818897638
 30
0.0
 10
0.7020472440944883
 20
2.452448818897638
 30
0.0
 10
1.018866141732284
 20
2.452448818897638
 30
0.0
 10
1.018866141732284
 20
2.452448818897638
 30
0.0
 10
1.018866141732284
 20
2.452448818897638
 30
0.0
 10
1.018866141732284
 20
2.452448818897638
 30
0.0
 10
0.3668149606299213
 20
2.074866141732283
 30
0.0
 10
0.3668149606299213
 20
2.074866141732283
 30
0.0
 10
0.3668149606299213
 20
2.074866141732283
 30
0.0
 10
0.3668149606299213
 20
2.074866141732283
 30
0.0
 10
0.049996062992126
 20
2.074866141732283
 30
0.0
 10
0.049996062992126
 20
2.074866141732283
 30
0.0
  0
SPLINE
  5
2F
330
1F
100
AcDbEntity
  8
LAYER_1
 62
   253
100
AcDbSpline
210
0.0
220
0.0
230
1.0
 70
    11
 71
     3
 72
    20
 73
    16
 74
     0
 42
0.0000000001
 43
0.0000000001
 40
0.0
 40
0.0
 40
0.0
 40
0.0
 40
0.25
 40
0.25
 40
0.25
 40
0.25
 40
0.5
 40
0.5
 40
0.5
 40
0.5
 40
0.75
 40
0.75
 40
0.75
 40
0.75
 40
1.0
 40
1.0
 40
1.0
 40
1.0
 10
0.3668149606299213
 20
2.074866141732283
 30
0.0
 10
0.3668149606299213
 20
2.074866141732283
 30
0.0
 10
1.018866141732284
 20
2.452448818897638
 30
0.0
 10
1.018866141732284
 20
2.452448818897638
 30
0.0
 10
1.018866141732284
 20
2.452448818897638
 30
0.0
 10
1.018866141732284
 20
2.452448818897638
 30
0.0
 10
1.047692913385827
 20
1.952448818897638
 30
0.0
 10
1.047692913385827
 20
1.952448818897638
 30
0.0
 10
1.047692913385827
 20
1.952448818897638
 30
0.0
 10
1.047692913385827
 20
1.952448818897638
 30
0.0
 10
0.3956417322834646
 20
1.574866141732284
 30
0.0
 10
0.3956417322834646
 20
1.574866141732284
 30
0.0
 10
0.3956417322834646
 20
1.574866141732284
 30
0.0
 10
0.3956417322834646
 20
1.574866141732284
 30
0.0
 10
0.3668149606299213
 20
2.074866141732283
 30
0.0
 10
0.3668149606299213
 20
2.074866141732283
 30
0.0
  0
SPLINE
  5
30
330
1F
100
AcDbEntity
  8
LAYER_1
 62
   250
100
AcDbSpline
210
0.0
220
0.0
230
1.0
 70
    11
 71
     3
 72
    20
 73
    16
 74
     0
 42
0.0000000001
 43
0.0000000001
 40
0.0
 40
0.0
 40
0.0
 40
0.0
 40
0.25
 40
0.25
 40
0.25
 40
0.25
 40
0.5
 40
0.5
 40
0.5
 40
0.5
 40
0.75
 40
0.75
 40
0.75
 40
0.75
 40
1.0
 40
1.0
 40
1.0
 40
1.0
 10
0.3668149606299213
 20
2.074866141732283
 30
0.0
 10
0.3668149606299213
 20
2.074866141732283
 30
0.0
 10
1.018866141732284
 20
2.452448818897638
 30
0.0
 10
1.018866141732284
 20
2.452448818897638
 30
0.0
 10
1.018866141732284
 20
2.452448818897638
 30
0.0
 10
1.018866141732284
 20
2.452448818897638
 30
0.0
 10
1.047692913385827
 20
1.952448818897638
 30
0.0
 10
1.047692913385827
 20
1.952448818897638
 30
0.0
 10
1.047692913385827
 20
1.952448818897638
 30
0.0
 10
1.047692913385827
 20
1.952448818897638
 30
0.0
 10
0.3956417322834646
 20
1.574866141732284
 30
0.0
 10
0.3956417322834646
 20
1.574866141732284
 30
0.0
 10
0.3956417322834646
 20
1.574866141732284
 30
0.0
 10
0.3956417322834646
 20
1.574866141732284
 30
0.0
 10
0.3668149606299213
 20
2.074866141732283
 30
0.0
 10
0.3668149606299213
 20
2.074866141732283
 30
0.0
  0
SPLINE
  5
31
330
1F
100
AcDbEntity
  8
LAYER_1
 62
   252
100
AcDbSpline
210
0.0
220
0.0
230
1.0
 70
    11
 71
     3
 72
    20
 73
    16
 74
     0
 42
0.0000000001
 43
0.0000000001
 40
0.0
 40
0.0
 40
0.0
 40
0.0
 40
0.25
 40
0.25
 40
0.25
 40
0.25
 40
0.5
 40
0.5
 40
0.5
 40
0.5
 40
0.75
 40
0.75
 40
0.75
 40
0.75
 40
1.0
 40
1.0
 40
1.0
 40
1.0
 10
0.3956417322834646
 20
1.574866141732284
 30
0.0
 10
0.3956417322834646
 20
1.574866141732284
 30
0.0
 10
1.047692913385827
 20
1.952448818897638
 30
0.0
 10
1.047692913385827
 20
1.952448818897638
 30
0.0
 10
1.047692913385827
 20
1.952448818897638
 30
0.0
 10
1.047692913385827
 20
1.952448818897638
 30
0.0
 10
1.204826771653544
 20
1.952448818897638
 30
0.0
 10
1.204826771653544
 20
1.952448818897638
 30
0.0
 10
1.204826771653544
 20
1.952448818897638
 30
0.0
 10
1.204826771653544
 20
1.952448818897638
 30
0.0
 10
0.5527755905511811
 20
1.574866141732284
 30
0.0
 10
0.5527755905511811
 20
1.574866141732284
 30
0.0
 10
0.5527755905511811
 20
1.574866141732284
 30
0.0
 10
0.5527755905511811
 20
1.574866141732284
 30
0.0
 10
0.3956417322834646
 20
1.574866141732284
 30
0.0
 10
0.3956417322834646
 20
1.574866141732284
 30
0.0
  0
SPLINE
  5
32
330
1F
100
AcDbEntity
  8
LAYER_1
 62
   250
100
AcDbSpline
210
0.0
220
0.0
230
1.0
 70
    11
 71
     3
 72
    20
 73
    16
 74
     0
 42
0.0000000001
 43
0.0000000001
 40
0.0
 40
0.0
 40
0.0
 40
0.0
 40
0.25
 40
0.25
 40
0.25
 40
0.25
 40
0.5
 40
0.5
 40
0.5
 40
0.5
 40
0.75
 40
0.75
 40
0.75
 40
0.75
 40
1.0
 40
1.0
 40
1.0
 40
1.0
 10
0.3956417322834646
 20
1.574866141732284
 30
0.0
 10
0.3956417322834646
 20
1.574866141732284
 30
0.0
 10
1.047692913385827
 20
1.952448818897638
 30
0.0
 10
1.047692913385827
 20
1.952448818897638
 30
0.0
 10
1.047692913385827
 20
1.952448818897638
 30
0.0
 10
1.047692913385827
 20
1.952448818897638
 30
0.0
 10
1.204826771653544
 20
1.952448818897638
 30
0.0
 10
1.204826771653544
 20
1.952448818897638
 30
0.0
 10
1.204826771653544
 20
1.952448818897638
 30
0.0
 10
1.204826771653544
 20
1.952448818897638
 30
0.0
 10
0.5527755905511811
 20
1.574866141732284
 30
0.0
 10
0.5527755905511811
 20
1.574866141732284
 30
0.0
 10
0.5527755905511811
 20
1.574866141732284
 30
0.0
 10
0.5527755905511811
 20
1.574866141732284
 30
0.0
 10
0.3956417322834646
 20
1.574866141732284
 30
0.0
 10
0.3956417322834646
 20
1.574866141732284
 30
0.0
  0
SPLINE
  5
33
330
1F
100
AcDbEntity
  8
LAYER_1
 62
   252
100
AcDbSpline
210
0.0
220
0.0
230
1.0
 70
    11
 71
     3
 72
    20
 73
    16
 74
     0
 42
0.0000000001
 43
0.0000000001
 40
0.0
 40
0.0
 40
0.0
 40
0.0
 40
0.25
 40
0.25
 40
0.25
 40
0.25
 40
0.5
 40
0.5
 40
0.5
 40
0.5
 40
0.75
 40
0.75
 40
0.75
 40
0.75
 40
1.0
 40
1.0
 40
1.0
 40
1.0
 10
0.5816023622047244
 20
2.074866141732283
 30
0.0
 10
0.5816023622047244
 20
2.074866141732283
 30
0.0
 10
1.233653543307087
 20
2.452448818897638
 30
0.0
 10
1.233653543307087
 20
2.452448818897638
 30
0.0
 10
1.233653543307087
 20
2.452448818897638
 30
0.0
 10
1.233653543307087
 20
2.452448818897638
 30
0.0
 10
1.541141732283465
 20
2.452448818897638
 30
0.0
 10
1.541141732283465
 20
2.452448818897638
 30
0.0
 10
1.541141732283465
 20
2.452448818897638
 30
0.0
 10
1.541141732283465
 20
2.452448818897638
 30
0.0
 10
0.8890905511811024
 20
2.074866141732283
 30
0.0
 10
0.8890905511811024
 20
2.074866141732283
 30
0.0
 10
0.8890905511811024
 20
2.074866141732283
 30
0.0
 10
0.8890905511811024
 20
2.074866141732283
 30
0.0
 10
0.5816023622047244
 20
2.074866141732283
 30
0.0
 10
0.5816023622047244
 20
2.074866141732283
 30
0.0
  0
SPLINE
  5
34
330
1F
100
AcDbEntity
  8
LAYER_1
 62
   250
100
AcDbSpline
210
0.0
220
0.0
230
1.0
 70
    11
 71
     3
 72
    20
 73
    16
 74
     0
 42
0.0000000001
 43
0.0000000001
 40
0.0
 40
0.0
 40
0.0
 40
0.0
 40
0.25
 40
0.25
 40
0.25
 40
0.25
 40
0.5
 40
0.5
 40
0.5
 40
0.5
 40
0.75
 40
0.75
 40
0.75
 40
0.75
 40
1.0
 40
1.0
 40
1.0
 40
1.0
 10
0.5816023622047244
 20
2.074866141732283
 30
0.0
 10
0.5816023622047244
 20
2.074866141732283
 30
0.0
 10
1.233653543307087
 20
2.452448818897638
 30
0.0
 10
1.233653543307087
 20
2.452448818897638
 30
0.0
 10
1.233653543307087
 20
2.452448818897638
 30
0.0
 10
1.233653543307087
 20
2.452448818897638
 30
0.0
 10
1.541141732283465
 20
2.452448818897638
 30
0.0
 10
1.541141732283465
 20
2.452448818897638
 30
0.0
 10
1.541141732283465
 20
2.452448818897638
 30
0.0
 10
1.541141732283465
 20
2.452448818897638
 30
0.0
 10
0.8890905511811024
 20
2.074866141732283
 30
0.0
 10
0.8890905511811024
 20
2.074866141732283
 30
0.0
 10
0.8890905511811024
 20
2.074866141732283
 30
0.0
 10
0.8890905511811024
 20
2.074866141732283
 30
0.0
 10
0.5816023622047244
 20
2.074866141732283
 30
0.0
 10
0.5816023622047244
 20
2.074866141732283
 30
0.0
  0
SPLINE
  5
35
330
1F
100
AcDbEntity
  8
LAYER_1
 62
   253
100
AcDbSpline
210
0.0
220
0.0
230
1.0
 70
    11
 71
     3
 72
    20
 73
    16
 74
     0
 42
0.0000000001
 43
0.0000000001
 40
0.0
 40
0.0
 40
0.0
 40
0.0
 40
0.25
 40
0.25
 40
0.25
 40
0.25
 40
0.5
 40
0.5
 40
0.5
 40
0.5
 40
0.75
 40
0.75
 40
0.75
 40
0.75
 40
1.0
 40
1.0
 40
1.0
 40
1.0
 10
0.8890905511811024
 20
2.074866141732283
 30
0.0
 10
0.8890905511811024
 20
2.074866141732283
 30
0.0
 10
1.541141732283465
 20
2.452448818897638
 30
0.0
 10
1.541141732283465
 20
2.452448818897638
 30
0.0
 10
1.541141732283465
 20
2.452448818897638
 30
0.0
 10
1.541141732283465
 20
2.452448818897638
 30
0.0
 10
1.569968503937008
 20
1.952448818897638
 30
0.0
 10
1.569968503937008
 20
1.952448818897638
 30
0.0
 10
1.569968503937008
 20
1.952448818897638
 30
0.0
 10
1.569968503937008
 20
1.952448818897638
 30
0.0
 10
0.9179173228346457
 20
1.574866141732284
 30
0.0
 10
0.9179173228346457
 20
1.574866141732284
 30
0.0
 10
0.9179173228346457
 20
1.574866141732284
 30
0.0
 10
0.9179173228346457
 20
1.574866141732284
 30
0.0
 10
0.8890905511811024
 20
2.074866141732283
 30
0.0
 10
0.8890905511811024
 20
2.074866141732283
 30
0.0
  0
SPLINE
  5
36
330
1F
100
AcDbEntity
  8
LAYER_1
 62
   250
100
AcDbSpline
210
0.0
220
0.0
230
1.0
 70
    11
 71
     3
 72
    20
 73
    16
 74
     0
 42
0.0000000001
 43
0.0000000001
 40
0.0
 40
0.0
 40
0.0
 40
0.0
 40
0.25
 40
0.25
 40
0.25
 40
0.25
 40
0.5
 40
0.5
 40
0.5
 40
0.5
 40
0.75
 40
0.75
 40
0.75
 40
0.75
 40
1.0
 40
1.0
 40
1.0
 40
1.0
 10
0.8890905511811024
 20
2.074866141732283
 30
0.0
 10
0.8890905511811024
 20
2.074866141732283
 30
0.0
 10
1.541141732283465
 20
2.452448818897638
 30
0.0
 10
1.541141732283465
 20
2.452448818897638
 30
0.0
 10
1.541141732283465
 20
2.452448818897638
 30
0.0
 10
1.541141732283465
 20
2.452448818897638
 30
0.0
 10
1.569968503937008
 20
1.952448818897638
 30
0.0
 10
1.569968503937008
 20
1.952448818897638
 30
0.0
 10
1.569968503937008
 20
1.952448818897638
 30
0.0
 10
1.569968503937008
 20
1.952448818897638
 30
0.0
 10
0.9179173228346457
 20
1.574866141732284
 30
0.0
 10
0.9179173228346457
 20
1.574866141732284
 30
0.0
 10
0.9179173228346457
 20
1.574866141732284
 30
0.0
 10
0.9179173228346457
 20
1.574866141732284
 30
0.0
 10
0.8890905511811024
 20
2.074866141732283
 30
0.0
 10
0.8890905511811024
 20
2.074866141732283
 30
0.0
  0
SPLINE
  5
37
330
1F
100
AcDbEntity
  8
LAYER_1
 62
   252
100
AcDbSpline
210
0.0
220
0.0
230
1.0
 70
    11
 71
     3
 72
    20
 73
    16
 74
     0
 42
0.0000000001
 43
0.0000000001
 40
0.0
 40
0.0
 40
0.0
 40
0.0
 40
0.25
 40
0.25
 40
0.25
 40
0.25
 40
0.5
 40
0.5
 40
0.5
 40
0.5
 40
0.75
 40
0.75
 40
0.75
 40
0.75
 40
1.0
 40
1.0
 40
1.0
 40
1.0
 10
0.9179173228346457
 20
1.574866141732284
 30
0.0
 10
0.9179173228346457
 20
1.574866141732284
 30
0.0
 10
1.569968503937008
 20
1.952448818897638
 30
0.0
 10
1.569968503937008
 20
1.952448818897638
 30
0.0
 10
1.569968503937008
 20
1.952448818897638
 30
0.0
 10
1.569968503937008
 20
1.952448818897638
 30
0.0
 10
1.727102362204725
 20
1.952448818897638
 30
0.0
 10
1.727102362204725
 20
1.952448818897638
 30
0.0
 10
1.727102362204725
 20
1.952448818897638
 30
0.0
 10
1.727102362204725
 20
1.952448818897638
 30
0.0
 10
1.075051181102362
 20
1.574866141732284
 30
0.0
 10
1.075051181102362
 20
1.574866141732284
 30
0.0
 10
1.075051181102362
 20
1.574866141732284
 30
0.0
 10
1.075051181102362
 20
1.574866141732284
 30
0.0
 10
0.9179173228346457
 20
1.574866141732284
 30
0.0
 10
0.9179173228346457
 20
1.574866141732284
 30
0.0
  0
SPLINE
  5
38
330
1F
100
AcDbEntity
  8
LAYER_1
 62
   250
100
AcDbSpline
210
0.0
220
0.0
230
1.0
 70
    11
 71
     3
 72
    20
 73
    16
 74
     0
 42
0.0000000001
 43
0.0000000001
 40
0.0
 40
0.0
 40
0.0
 40
0.0
 40
0.25
 40
0.25
 40
0.25
 40
0.25
 40
0.5
 40
0.5
 40
0.5
 40
0.5
 40
0.75
 40
0.75
 40
0.75
 40
0.75
 40
1.0
 40
1.0
 40
1.0
 40
1.0
 10
0.9179173228346457
 20
1.574866141732284
 30
0.0
 10
0.9179173228346457
 20
1.574866141732284
 30
0.0
 10
1.569968503937008
 20
1.952448818897638
 30
0.0
 10
1.569968503937008
 20
1.952448818897638
 30
0.0
 10
1.569968503937008
 20
1.952448818897638
 30
0.0
 10
1.569968503937008
 20
1.952448818897638
 30
0.0
 10
1.727102362204725
 20
1.952448818897638
 30
0.0
 10
1.727102362204725
 20
1.952448818897638
 30
0.0
 10
1.727102362204725
 20
1.952448818897638
 30
0.0
 10
1.727102362204725
 20
1.952448818897638
 30
0.0
 10
1.075051181102362
 20
1.574866141732284
 30
0.0
 10
1.075051181102362
 20
1.574866141732284
 30
0.0
 10
1.075051181102362
 20
1.574866141732284
 30
0.0
 10
1.075051181102362
 20
1.574866141732284
 30
0.0
 10
0.9179173228346457
 20
1.574866141732284
 30
0.0
 10
0.9179173228346457
 20
1.574866141732284
 30
0.0
  0
SPLINE
  5
39
330
1F
100
AcDbEntity
  8
LAYER_1
 62
   252
100
AcDbSpline
210
0.0
220
0.0
230
1.0
 70
    11
 71
     3
 72
    20
 73
    16
 74
     0
 42
0.0000000001
 43
0.0000000001
 40
0.0
 40
0.0
 40
0.0
 40
0.0
 40
0.25
 40
0.25
 40
0.25
 40
0.25
 40
0.5
 40
0.5
 40
0.5
 40
0.5
 40
0.75
 40
0.75
 40
0.75
 40
0.75
 40
1.0
 40
1.0
 40
1.0
 40
1.0
 10
1.103877952755906
 20
2.074866141732283
 30
0.0
 10
1.103877952755906
 20
2.074866141732283
 30
0.0
 10
1.755929133858268
 20
2.452448818897638
 30
0.0
 10
1.755929133858268
 20
2.452448818897638
 30
0.0
 10
1.755929133858268
 20
2.452448818897638
 30
0.0
 10
1.755929133858268
 20
2.452448818897638
 30
0.0
 10
2.061350393700788
 20
2.452448818897638
 30
0.0
 10
2.061350393700788
 20
2.452448818897638
 30
0.0
 10
2.061350393700788
 20
2.452448818897638
 30
0.0
 10
2.061350393700788
 20
2.452448818897638
 30
0.0
 10
1.409299212598425
 20
2.074866141732283
 30
0.0
 10
1.409299212598425
 20
2.074866141732283
 30
0.0
 10
1.409299212598425
 20
2.074866141732283
 30
0.0
 10
1.409299212598425
 20
2.074866141732283
 30
0.0
 10
1.103877952755906
 20
2.074866141732283
 30
0.0
 10
1.103877952755906
 20
2.074866141732283
 30
0.0
  0
SPLINE
  5
3A
330
1F
100
AcDbEntity
  8
LAYER_1
 62
   250
100
AcDbSpline
210
0.0
220
0.0
230
1.0
 70
    11
 71
     3
 72
    20
 73
    16
 74
     0
 42
0.0000000001
 43
0.0000000001
 40
0.0
 40
0.0
 40
0.0
 40
0.0
 40
0.25
 40
0.25
 40
0.25
 40
0.25
 40
0.5
 40
0.5
 40
0.5
 40
0.5
 40
0.75
 40
0.75
 40
0.75
 40
0.75
 40
1.0
 40
1.0
 40
1.0
 40
1.0
 10
1.103877952755906
 20
2.074866141732283
 30
0.0
 10
1.103877952755906
 20
2.074866141732283
 30
0.0
 10
1.755929133858268
 20
2.452448818897638
 30
0.0
 10
1.755929133858268
 20
2.452448818897638
 30
0.0
 10
1.755929133858268
 20
2.452448818897638
 30
0.0
 10
1.755929133858268
 20
2.452448818897638
 30
0.0
 10
2.061350393700788
 20
2.452448818897638
 30
0.0
 10
2.061350393700788
 20
2.452448818897638
 30
0.0
 10
2.061350393700788
 20
2.452448818897638
 30
0.0
 10
2.061350393700788
 20
2.452448818897638
 30
0.0
 10
1.409299212598425
 20
2.074866141732283
 30
0.0
 10
1.409299212598425
 20
2.074866141732283
 30
0.0
 10
1.409299212598425
 20
2.074866141732283
 30
0.0
 10
1.409299212598425
 20
2.074866141732283
 30
0.0
 10
1.103877952755906
 20
2.074866141732283
 30
0.0
 10
1.103877952755906
 20
2.074866141732283
 30
0.0
  0
SPLINE
  5
3B
330
1F
100
AcDbEntity
  8
LAYER_1
 62
   253
100
AcDbSpline
210
0.0
220
0.0
230
1.0
 70
    11
 71
     3
 72
    20
 73
    16
 74
     0
 42
0.0000000001
 43
0.0000000001
 40
0.0
 40
0.0
 40
0.0
 40
0.0
 40
0.25
 40
0.25
 40
0.25
 40
0.25
 40
0.5
 40
0.5
 40
0.5
 40
0.5
 40
0.75
 40
0.75
 40
0.75
 40
0.75
 40
1.0
 40
1.0
 40
1.0
 40
1.0
 10
1.409299212598425
 20
2.074866141732283
 30
0.0
 10
1.409299212598425
 20
2.074866141732283
 30
0.0
 10
2.061350393700788
 20
2.452448818897638
 30
0.0
 10
2.061350393700788
 20
2.452448818897638
 30
0.0
 10
2.061350393700788
 20
2.452448818897638
 30
0.0
 10
2.061350393700788
 20
2.452448818897638
 30
0.0
 10
2.090177165354331
 20
1.952448818897638
 30
0.0
 10
2.090177165354331
 20
1.952448818897638
 30
0.0
 10
2.090177165354331
 20
1.952448818897638
 30
0.0
 10
2.090177165354331
 20
1.952448818897638
 30
0.0
 10
1.438125984251969
 20
1.574866141732284
 30
0.0
 10
1.438125984251969
 20
1.574866141732284
 30
0.0
 10
1.438125984251969
 20
1.574866141732284
 30
0.0
 10
1.438125984251969
 20
1.574866141732284
 30
0.0
 10
1.409299212598425
 20
2.074866141732283
 30
0.0
 10
1.409299212598425
 20
2.074866141732283
 30
0.0
  0
SPLINE
  5
3C
330
1F
100
AcDbEntity
  8
LAYER_1
 62
   250
100
AcDbSpline
210
0.0
220
0.0
230
1.0
 70
    11
 71
     3
 72
    20
 73
    16
 74
     0
 42
0.0000000001
 43
0.0000000001
 40
0.0
 40
0.0
 40
0.0
 40
0.0
 40
0.25
 40
0.25
 40
0.25
 40
0.25
 40
0.5
 40
0.5
 40
0.5
 40
0.5
 40
0.75
 40
0.75
 40
0.75
 40
0.75
 40
1.0
 40
1.0
 40
1.0
 40
1.0
 10
1.409299212598425
 20
2.074866141732283
 30
0.0
 10
1.409299212598425
 20
2.074866141732283
 30
0.0
 10
2.061350393700788
 20
2.452448818897638
 30
0.0
 10
2.061350393700788
 20
2.452448818897638
 30
0.0
 10
2.061350393700788
 20
2.452448818897638
 30
0.0
 10
2.061350393700788
 20
2.452448818897638
 30
0.0
 10
2.090177165354331
 20
1.952448818897638
 30
0.0
 10
2.090177165354331
 20
1.952448818897638
 30
0.0
 10
2.090177165354331
 20
1.952448818897638
 30
0.0
 10
2.090177165354331
 20
1.952448818897638
 30
0.0
 10
1.438125984251969
 20
1.574866141732284
 30
0.0
 10
1.438125984251969
 20
1.574866141732284
 30
0.0
 10
1.438125984251969
 20
1.574866141732284
 30
0.0
 10
1.438125984251969
 20
1.574866141732284
 30
0.0
 10
1.409299212598425
 20
2.074866141732283
 30
0.0
 10
1.409299212598425
 20
2.074866141732283
 30
0.0
  0
SPLINE
  5
3D
330
1F
100
AcDbEntity
  8
LAYER_1
 62
   252
100
AcDbSpline
210
0.0
220
0.0
230
1.0
 70
    11
 71
     3
 72
    20
 73
    16
 74
     0
 42
0.0000000001
 43
0.0000000001
 40
0.0
 40
0.0
 40
0.0
 40
0.0
 40
0.25
 40
0.25
 40
0.25
 40
0.25
 40
0.5
 40
0.5
 40
0.5
 40
0.5
 40
0.75
 40
0.75
 40
0.75
 40
0.75
 40
1.0
 40
1.0
 40
1.0
 40
1.0
 10
1.438125984251969
 20
1.574866141732284
 30
0.0
 10
1.438125984251969
 20
1.574866141732284
 30
0.0
 10
2.090177165354331
 20
1.952448818897638
 30
0.0
 10
2.090177165354331
 20
1.952448818897638
 30
0.0
 10
2.090177165354331
 20
1.952448818897638
 30
0.0
 10
2.090177165354331
 20
1.952448818897638
 30
0.0
 10
2.689905511811024
 20
1.952448818897638
 30
0.0
 10
2.689905511811024
 20
1.952448818897638
 30
0.0
 10
2.689905511811024
 20
1.952448818897638
 30
0.0
 10
2.689905511811024
 20
1.952448818897638
 30
0.0
 10
2.037854330708662
 20
1.574866141732284
 30
0.0
 10
2.037854330708662
 20
1.574866141732284
 30
0.0
 10
2.037854330708662
 20
1.574866141732284
 30
0.0
 10
2.037854330708662
 20
1.574866141732284
 30
0.0
 10
1.438125984251969
 20
1.574866141732284
 30
0.0
 10
1.438125984251969
 20
1.574866141732284
 30
0.0
  0
SPLINE
  5
3E
330
1F
100
AcDbEntity
  8
LAYER_1
 62
   250
100
AcDbSpline
210
0.0
220
0.0
230
1.0
 70
    11
 71
     3
 72
    20
 73
    16
 74
     0
 42
0.0000000001
 43
0.0000000001
 40
0.0
 40
0.0
 40
0.0
 40
0.0
 40
0.25
 40
0.25
 40
0.25
 40
0.25
 40
0.5
 40
0.5
 40
0.5
 40
0.5
 40
0.75
 40
0.75
 40
0.75
 40
0.75
 40
1.0
 40
1.0
 40
1.0
 40
1.0
 10
1.438125984251969
 20
1.574866141732284
 30
0.0
 10
1.438125984251969
 20
1.574866141732284
 30
0.0
 10
2.090177165354331
 20
1.952448818897638
 30
0.0
 10
2.090177165354331
 20
1.952448818897638
 30
0.0
 10
2.090177165354331
 20
1.952448818897638
 30
0.0
 10
2.090177165354331
 20
1.952448818897638
 30
0.0
 10
2.689905511811024
 20
1.952448818897638
 30
0.0
 10
2.689905511811024
 20
1.952448818897638
 30
0.0
 10
2.689905511811024
 20
1.952448818897638
 30
0.0
 10
2.689905511811024
 20
1.952448818897638
 30
0.0
 10
2.037854330708662
 20
1.574866141732284
 30
0.0
 10
2.037854330708662
 20
1.574866141732284
 30
0.0
 10
2.037854330708662
 20
1.574866141732284
 30
0.0
 10
2.037854330708662
 20
1.574866141732284
 30
0.0
 10
1.438125984251969
 20
1.574866141732284
 30
0.0
 10
1.438125984251969
 20
1.574866141732284
 30
0.0
  0
SPLINE
  5
3F
330
1F
100
AcDbEntity
  8
LAYER_1
 62
   252
100
AcDbSpline
210
0.0
220
0.0
230
1.0
 70
    11
 71
     3
 72
    20
 73
    16
 74
     0
 42
0.0000000001
 43
0.0000000001
 40
0.0
 40
0.0
 40
0.0
 40
0.0
 40
0.25
 40
0.25
 40
0.25
 40
0.25
 40
0.5
 40
0.5
 40
0.5
 40
0.5
 40
0.75
 40
0.75
 40
0.75
 40
0.75
 40
1.0
 40
1.0
 40
1.0
 40
1.0
 10
2.066681102362205
 20
2.074866141732283
 30
0.0
 10
2.066681102362205
 20
2.074866141732283
 30
0.0
 10
2.718732283464567
 20
2.452448818897638
 30
0.0
 10
2.718732283464567
 20
2.452448818897638
 30
0.0
 10
2.718732283464567
 20
2.452448818897638
 30
0.0
 10
2.718732283464567
 20
2.452448818897638
 30
0.0
 10
3.202043307086614
 20
2.452448818897638
 30
0.0
 10
3.202043307086614
 20
2.452448818897638
 30
0.0
 10
3.202043307086614
 20
2.452448818897638
 30
0.0
 10
3.202043307086614
 20
2.452448818897638
 30
0.0
 10
2.549992125984252
 20
2.074866141732283
 30
0.0
 10
2.549992125984252
 20
2.074866141732283
 30
0.0
 10
2.549992125984252
 20
2.074866141732283
 30
0.0
 10
2.549992125984252
 20
2.074866141732283
 30
0.0
 10
2.066681102362205
 20
2.074866141732283
 30
0.0
 10
2.066681102362205
 20
2.074866141732283
 30
0.0
  0
SPLINE
  5
40
330
1F
100
AcDbEntity
  8
LAYER_1
 62
   250
100
AcDbSpline
210
0.0
220
0.0
230
1.0
 70
    11
 71
     3
 72
    20
 73
    16
 74
     0
 42
0.0000000001
 43
0.0000000001
 40
0.0
 40
0.0
 40
0.0
 40
0.0
 40
0.25
 40
0.25
 40
0.25
 40
0.25
 40
0.5
 40
0.5
 40
0.5
 40
0.5
 40
0.75
 40
0.75
 40
0.75
 40
0.75
 40
1.0
 40
1.0
 40
1.0
 40
1.0
 10
2.066681102362205
 20
2.074866141732283
 30
0.0
 10
2.066681102362205
 20
2.074866141732283
 30
0.0
 10
2.718732283464567
 20
2.452448818897638
 30
0.0
 10
2.718732283464567
 20
2.452448818897638
 30
0.0
 10
2.718732283464567
 20
2.452448818897638
 30
0.0
 10
2.718732283464567
 20
2.452448818897638
 30
0.0
 10
3.202043307086614
 20
2.452448818897638
 30
0.0
 10
3.202043307086614
 20
2.452448818897638
 30
0.0
 10
3.202043307086614
 20
2.452448818897638
 30
0.0
 10
3.202043307086614
 20
2.452448818897638
 30
0.0
 10
2.549992125984252
 20
2.074866141732283
 30
0.0
 10
2.549992125984252
 20
2.074866141732283
 30
0.0
 10
2.549992125984252
 20
2.074866141732283
 30
0.0
 10
2.549992125984252
 20
2.074866141732283
 30
0.0
 10
2.066681102362205
 20
2.074866141732283
 30
0.0
 10
2.066681102362205
 20
2.074866141732283
 30
0.0
  0
SPLINE
  5
41
330
1F
100
AcDbEntity
  8
LAYER_1
 62
   253
100
AcDbSpline
210
0.0
220
0.0
230
1.0
 70
    11
 71
     3
 72
    20
 73
    16
 74
     0
 42
0.0000000001
 43
0.0000000001
 40
0.0
 40
0.0
 40
0.0
 40
0.0
 40
0.25
 40
0.25
 40
0.25
 40
0.25
 40
0.5
 40
0.5
 40
0.5
 40
0.5
 40
0.75
 40
0.75
 40
0.75
 40
0.75
 40
1.0
 40
1.0
 40
1.0
 40
1.0
 10
2.549992125984252
 20
2.074866141732283
 30
0.0
 10
2.549992125984252
 20
2.074866141732283
 30
0.0
 10
3.202043307086614
 20
2.452448818897638
 30
0.0
 10
3.202043307086614
 20
2.452448818897638
 30
0.0
 10
3.202043307086614
 20
2.452448818897638
 30
0.0
 10
3.202043307086614
 20
2.452448818897638
 30
0.0
 10
3.202043307086614
 20
1.702448818897638
 30
0.0
 10
3.202043307086614
 20
1.702448818897638
 30
0.0
 10
3.202043307086614
 20
1.702448818897638
 30
0.0
 10
3.202043307086614
 20
1.702448818897638
 30
0.0
 10
2.549992125984252
 20
1.324866141732284
 30
0.0
 10
2.549992125984252
 20
1.324866141732284
 30
0.0
 10
2.549992125984252
 20
1.324866141732284
 30
0.0
 10
2.549992125984252
 20
1.324866141732284
 30
0.0
 10
2.549992125984252
 20
2.074866141732283
 30
0.0
 10
2.549992125984252
 20
2.074866141732283
 30
0.0
  0
SPLINE
  5
42
330
1F
100
AcDbEntity
  8
LAYER_1
 62
   250
100
AcDbSpline
210
0.0
220
0.0
230
1.0
 70
    11
 71
     3
 72
    20
 73
    16
 74
     0
 42
0.0000000001
 43
0.0000000001
 40
0.0
 40
0.0
 40
0.0
 40
0.0
 40
0.25
 40
0.25
 40
0.25
 40
0.25
 40
0.5
 40
0.5
 40
0.5
 40
0.5
 40
0.75
 40
0.75
 40
0.75
 40
0.75
 40
1.0
 40
1.0
 40
1.0
 40
1.0
 10
2.549992125984252
 20
2.074866141732283
 30
0.0
 10
2.549992125984252
 20
2.074866141732283
 30
0.0
 10
3.202043307086614
 20
2.452448818897638
 30
0.0
 10
3.202043307086614
 20
2.452448818897638
 30
0.0
 10
3.202043307086614
 20
2.452448818897638
 30
0.0
 10
3.202043307086614
 20
2.452448818897638
 30
0.0
 10
3.202043307086614
 20
1.702448818897638
 30
0.0
 10
3.202043307086614
 20
1.702448818897638
 30
0.0
 10
3.202043307086614
 20
1.702448818897638
 30
0.0
 10
3.202043307086614
 20
1.702448818897638
 30
0.0
 10
2.549992125984252
 20
1.324866141732284
 30
0.0
 10
2.549992125984252
 20
1.324866141732284
 30
0.0
 10
2.549992125984252
 20
1.324866141732284
 30
0.0
 10
2.549992125984252
 20
1.324866141732284
 30
0.0
 10
2.549992125984252
 20
2.074866141732283
 30
0.0
 10
2.549992125984252
 20
2.074866141732283
 30
0.0
  0
SPLINE
  5
43
330
1F
100
AcDbEntity
  8
LAYER_1
 62
   252
100
AcDbSpline
210
0.0
220
0.0
230
1.0
 70
    11
 71
     3
 72
    20
 73
    16
 74
     0
 42
0.0000000001
 43
0.0000000001
 40
0.0
 40
0.0
 40
0.0
 40
0.0
 40
0.25
 40
0.25
 40
0.25
 40
0.25
 40
0.5
 40
0.5
 40
0.5
 40
0.5
 40
0.75
 40
0.75
 40
0.75
 40
0.75
 40
1.0
 40
1.0
 40
1.0
 40
1.0
 10
0.049996062992126
 20
2.074866141732283
 30
0.0
 10
0.049996062992126
 20
2.074866141732283
 30
0.0
 10
0.7020472440944883
 20
2.452448818897638
 30
0.0
 10
0.7020472440944883
 20
2.452448818897638
 30
0.0
 10
0.7020472440944883
 20
2.452448818897638
 30
0.0
 10
0.7020472440944883
 20
2.452448818897638
 30
0.0
 10
1.018866141732284
 20
2.452448818897638
 30
0.0
 10
1.018866141732284
 20
2.452448818897638
 30
0.0
 10
1.018866141732284
 20
2.452448818897638
 30
0.0
 10
1.018866141732284
 20
2.452448818897638
 30
0.0
 10
0.3668149606299213
 20
2.074866141732283
 30
0.0
 10
0.3668149606299213
 20
2.074866141732283
 30
0.0
 10
0.3668149606299213
 20
2.074866141732283
 30
0.0
 10
0.3668149606299213
 20
2.074866141732283
 30
0.0
 10
0.049996062992126
 20
2.074866141732283
 30
0.0
 10
0.049996062992126
 20
2.074866141732283
 30
0.0
  0
SPLINE
  5
44
330
1F
100
AcDbEntity
  8
LAYER_1
 62
   250
100
AcDbSpline
210
0.0
220
0.0
230
1.0
 70
    11
 71
     3
 72
    20
 73
    16
 74
     0
 42
0.0000000001
 43
0.0000000001
 40
0.0
 40
0.0
 40
0.0
 40
0.0
 40
0.25
 40
0.25
 40
0.25
 40
0.25
 40
0.5
 40
0.5
 40
0.5
 40
0.5
 40
0.75
 40
0.75
 40
0.75
 40
0.75
 40
1.0
 40
1.0
 40
1.0
 40
1.0
 10
0.049996062992126
 20
2.074866141732283
 30
0.0
 10
0.049996062992126
 20
2.074866141732283
 30
0.0
 10
0.7020472440944883
 20
2.452448818897638
 30
0.0
 10
0.7020472440944883
 20
2.452448818897638
 30
0.0
 10
0.7020472440944883
 20
2.452448818897638
 30
0.0
 10
0.7020472440944883
 20
2.452448818897638
 30
0.0
 10
1.018866141732284
 20
2.452448818897638
 30
0.0
 10
1.018866141732284
 20
2.452448818897638
 30
0.0
 10
1.018866141732284
 20
2.452448818897638
 30
0.0
 10
1.018866141732284
 20
2.452448818897638
 30
0.0
 10
0.3668149606299213
 20
2.074866141732283
 30
0.0
 10
0.3668149606299213
 20
2.074866141732283
 30
0.0
 10
0.3668149606299213
 20
2.074866141732283
 30
0.0
 10
0.3668149606299213
 20
2.074866141732283
 30
0.0
 10
0.049996062992126
 20
2.074866141732283
 30
0.0
 10
0.049996062992126
 20
2.074866141732283
 30
0.0
  0
SPLINE
  5
45
330
1F
100
AcDbEntity
  8
LAYER_1
 62
   253
100
AcDbSpline
210
0.0
220
0.0
230
1.0
 70
    11
 71
     3
 72
    20
 73
    16
 74
     0
 42
0.0000000001
 43
0.0000000001
 40
0.0
 40
0.0
 40
0.0
 40
0.0
 40
0.25
 40
0.25
 40
0.25
 40
0.25
 40
0.5
 40
0.5
 40
0.5
 40
0.5
 40
0.75
 40
0.75
 40
0.75
 40
0.75
 40
1.0
 40
1.0
 40
1.0
 40
1.0
 10
0.3668149606299213
 20
2.074866141732283
 30
0.0
 10
0.3668149606299213
 20
2.074866141732283
 30
0.0
 10
1.018866141732284
 20
2.452448818897638
 30
0.0
 10
1.018866141732284
 20
2.452448818897638
 30
0.0
 10
1.018866141732284
 20
2.452448818897638
 30
0.0
 10
1.018866141732284
 20
2.452448818897638
 30
0.0
 10
1.047692913385827
 20
1.952448818897638
 30
0.0
 10
1.047692913385827
 20
1.952448818897638
 30
0.0
 10
1.047692913385827
 20
1.952448818897638
 30
0.0
 10
1.047692913385827
 20
1.952448818897638
 30
0.0
 10
0.3956417322834646
 20
1.574866141732284
 30
0.0
 10
0.3956417322834646
 20
1.574866141732284
 30
0.0
 10
0.3956417322834646
 20
1.574866141732284
 30
0.0
 10
0.3956417322834646
 20
1.574866141732284
 30
0.0
 10
0.3668149606299213
 20
2.074866141732283
 30
0.0
 10
0.3668149606299213
 20
2.074866141732283
 30
0.0
  0
SPLINE
  5
46
330
1F
100
AcDbEntity
  8
LAYER_1
 62
   250
100
AcDbSpline
210
0.0
220
0.0
230
1.0
 70
    11
 71
     3
 72
    20
 73
    16
 74
     0
 42
0.0000000001
 43
0.0000000001
 40
0.0
 40
0.0
 40
0.0
 40
0.0
 40
0.25
 40
0.25
 40
0.25
 40
0.25
 40
0.5
 40
0.5
 40
0.5
 40
0.5
 40
0.75
 40
0.75
 40
0.75
 40
0.75
 40
1.0
 40
1.0
 40
1.0
 40
1.0
 10
0.3668149606299213
 20
2.074866141732283
 30
0.0
 10
0.3668149606299213
 20
2.074866141732283
 30
0.0
 10
1.018866141732284
 20
2.452448818897638
 30
0.0
 10
1.018866141732284
 20
2.452448818897638
 30
0.0
 10
1.018866141732284
 20
2.452448818897638
 30
0.0
 10
1.018866141732284
 20
2.452448818897638
 30
0.0
 10
1.047692913385827
 20
1.952448818897638
 30
0.0
 10
1.047692913385827
 20
1.952448818897638
 30
0.0
 10
1.047692913385827
 20
1.952448818897638
 30
0.0
 10
1.047692913385827
 20
1.952448818897638
 30
0.0
 10
0.3956417322834646
 20
1.574866141732284
 30
0.0
 10
0.3956417322834646
 20
1.574866141732284
 30
0.0
 10
0.3956417322834646
 20
1.574866141732284
 30
0.0
 10
0.3956417322834646
 20
1.574866141732284
 30
0.0
 10
0.3668149606299213
 20
2.074866141732283
 30
0.0
 10
0.3668149606299213
 20
2.074866141732283
 30
0.0
  0
SPLINE
  5
47
330
1F
100
AcDbEntity
  8
LAYER_1
 62
   252
100
AcDbSpline
210
0.0
220
0.0
230
1.0
 70
    11
 71
     3
 72
    20
 73
    16
 74
     0
 42
0.0000000001
 43
0.0000000001
 40
0.0
 40
0.0
 40
0.0
 40
0.0
 40
0.25
 40
0.25
 40
0.25
 40
0.25
 40
0.5
 40
0.5
 40
0.5
 40
0.5
 40
0.75
 40
0.75
 40
0.75
 40
0.75
 40
1.0
 40
1.0
 40
1.0
 40
1.0
 10
0.3956417322834646
 20
1.574866141732284
 30
0.0
 10
0.3956417322834646
 20
1.574866141732284
 30
0.0
 10
1.047692913385827
 20
1.952448818897638
 30
0.0
 10
1.047692913385827
 20
1.952448818897638
 30
0.0
 10
1.047692913385827
 20
1.952448818897638
 30
0.0
 10
1.047692913385827
 20
1.952448818897638
 30
0.0
 10
1.204826771653544
 20
1.952448818897638
 30
0.0
 10
1.204826771653544
 20
1.952448818897638
 30
0.0
 10
1.204826771653544
 20
1.952448818897638
 30
0.0
 10
1.204826771653544
 20
1.952448818897638
 30
0.0
 10
0.5527755905511811
 20
1.574866141732284
 30
0.0
 10
0.5527755905511811
 20
1.574866141732284
 30
0.0
 10
0.5527755905511811
 20
1.574866141732284
 30
0.0
 10
0.5527755905511811
 20
1.574866141732284
 30
0.0
 10
0.3956417322834646
 20
1.574866141732284
 30
0.0
 10
0.3956417322834646
 20
1.574866141732284
 30
0.0
  0
SPLINE
  5
48
330
1F
100
AcDbEntity
  8
LAYER_1
 62
   250
100
AcDbSpline
210
0.0
220
0.0
230
1.0
 70
    11
 71
     3
 72
    20
 73
    16
 74
     0
 42
0.0000000001
 43
0.0000000001
 40
0.0
 40
0.0
 40
0.0
 40
0.0
 40
0.25
 40
0.25
 40
0.25
 40
0.25
 40
0.5
 40
0.5
 40
0.5
 40
0.5
 40
0.75
 40
0.75
 40
0.75
 40
0.75
 40
1.0
 40
1.0
 40
1.0
 40
1.0
 10
0.3956417322834646
 20
1.574866141732284
 30
0.0
 10
0.3956417322834646
 20
1.574866141732284
 30
0.0
 10
1.047692913385827
 20
1.952448818897638
 30
0.0
 10
1.047692913385827
 20
1.952448818897638
 30
0.0
 10
1.047692913385827
 20
1.952448818897638
 30
0.0
 10
1.047692913385827
 20
1.952448818897638
 30
0.0
 10
1.204826771653544
 20
1.952448818897638
 30
0.0
 10
1.204826771653544
 20
1.952448818897638
 30
0.0
 10
1.204826771653544
 20
1.952448818897638
 30
0.0
 10
1.204826771653544
 20
1.952448818897638
 30
0.0
 10
0.5527755905511811
 20
1.574866141732284
 30
0.0
 10
0.5527755905511811
 20
1.574866141732284
 30
0.0
 10
0.5527755905511811
 20
1.574866141732284
 30
0.0
 10
0.5527755905511811
 20
1.574866141732284
 30
0.0
 10
0.3956417322834646
 20
1.574866141732284
 30
0.0
 10
0.3956417322834646
 20
1.574866141732284
 30
0.0
  0
SPLINE
  5
49
330
1F
100
AcDbEntity
  8
LAYER_1
 62
   252
100
AcDbSpline
210
0.0
220
0.0
230
1.0
 70
    11
 71
     3
 72
    20
 73
    16
 74
     0
 42
0.0000000001
 43
0.0000000001
 40
0.0
 40
0.0
 40
0.0
 40
0.0
 40
0.25
 40
0.25
 40
0.25
 40
0.25
 40
0.5
 40
0.5
 40
0.5
 40
0.5
 40
0.75
 40
0.75
 40
0.75
 40
0.75
 40
1.0
 40
1.0
 40
1.0
 40
1.0
 10
0.5816023622047244
 20
2.074866141732283
 30
0.0
 10
0.5816023622047244
 20
2.074866141732283
 30
0.0
 10
1.233653543307087
 20
2.452448818897638
 30
0.0
 10
1.233653543307087
 20
2.452448818897638
 30
0.0
 10
1.233653543307087
 20
2.452448818897638
 30
0.0
 10
1.233653543307087
 20
2.452448818897638
 30
0.0
 10
1.541141732283465
 20
2.452448818897638
 30
0.0
 10
1.541141732283465
 20
2.452448818897638
 30
0.0
 10
1.541141732283465
 20
2.452448818897638
 30
0.0
 10
1.541141732283465
 20
2.452448818897638
 30
0.0
 10
0.8890905511811024
 20
2.074866141732283
 30
0.0
 10
0.8890905511811024
 20
2.074866141732283
 30
0.0
 10
0.8890905511811024
 20
2.074866141732283
 30
0.0
 10
0.8890905511811024
 20
2.074866141732283
 30
0.0
 10
0.5816023622047244
 20
2.074866141732283
 30
0.0
 10
0.5816023622047244
 20
2.074866141732283
 30
0.0
  0
SPLINE
  5
4A
330
1F
100
AcDbEntity
  8
LAYER_1
 62
   250
100
AcDbSpline
210
0.0
220
0.0
230
1.0
 70
    11
 71
     3
 72
    20
 73
    16
 74
     0
 42
0.0000000001
 43
0.0000000001
 40
0.0
 40
0.0
 40
0.0
 40
0.0
 40
0.25
 40
0.25
 40
0.25
 40
0.25
 40
0.5
 40
0.5
 40
0.5
 40
0.5
 40
0.75
 40
0.75
 40
0.75
 40
0.75
 40
1.0
 40
1.0
 40
1.0
 40
1.0
 10
0.5816023622047244
 20
2.074866141732283
 30
0.0
 10
0.5816023622047244
 20
2.074866141732283
 30
0.0
 10
1.233653543307087
 20
2.452448818897638
 30
0.0
 10
1.233653543307087
 20
2.452448818897638
 30
0.0
 10
1.233653543307087
 20
2.452448818897638
 30
0.0
 10
1.233653543307087
 20
2.452448818897638
 30
0.0
 10
1.541141732283465
 20
2.452448818897638
 30
0.0
 10
1.541141732283465
 20
2.452448818897638
 30
0.0
 10
1.541141732283465
 20
2.452448818897638
 30
0.0
 10
1.541141732283465
 20
2.452448818897638
 30
0.0
 10
0.8890905511811024
 20
2.074866141732283
 30
0.0
 10
0.8890905511811024
 20
2.074866141732283
 30
0.0
 10
0.8890905511811024
 20
2.074866141732283
 30
0.0
 10
0.8890905511811024
 20
2.074866141732283
 30
0.0
 10
0.5816023622047244
 20
2.074866141732283
 30
0.0
 10
0.5816023622047244
 20
2.074866141732283
 30
0.0
  0
SPLINE
  5
4B
330
1F
100
AcDbEntity
  8
LAYER_1
 62
   253
100
AcDbSpline
210
0.0
220
0.0
230
1.0
 70
    11
 71
     3
 72
    20
 73
    16
 74
     0
 42
0.0000000001
 43
0.0000000001
 40
0.0
 40
0.0
 40
0.0
 40
0.0
 40
0.25
 40
0.25
 40
0.25
 40
0.25
 40
0.5
 40
0.5
 40
0.5
 40
0.5
 40
0.75
 40
0.75
 40
0.75
 40
0.75
 40
1.0
 40
1.0
 40
1.0
 40
1.0
 10
0.8890905511811024
 20
2.074866141732283
 30
0.0
 10
0.8890905511811024
 20
2.074866141732283
 30
0.0
 10
1.541141732283465
 20
2.452448818897638
 30
0.0
 10
1.541141732283465
 20
2.452448818897638
 30
0.0
 10
1.541141732283465
 20
2.452448818897638
 30
0.0
 10
1.541141732283465
 20
2.452448818897638
 30
0.0
 10
1.569968503937008
 20
1.952448818897638
 30
0.0
 10
1.569968503937008
 20
1.952448818897638
 30
0.0
 10
1.569968503937008
 20
1.952448818897638
 30
0.0
 10
1.569968503937008
 20
1.952448818897638
 30
0.0
 10
0.9179173228346457
 20
1.574866141732284
 30
0.0
 10
0.9179173228346457
 20
1.574866141732284
 30
0.0
 10
0.9179173228346457
 20
1.574866141732284
 30
0.0
 10
0.9179173228346457
 20
1.574866141732284
 30
0.0
 10
0.8890905511811024
 20
2.074866141732283
 30
0.0
 10
0.8890905511811024
 20
2.074866141732283
 30
0.0
  0
SPLINE
  5
4C
330
1F
100
AcDbEntity
  8
LAYER_1
 62
   250
100
AcDbSpline
210
0.0
220
0.0
230
1.0
 70
    11
 71
     3
 72
    20
 73
    16
 74
     0
 42
0.0000000001
 43
0.0000000001
 40
0.0
 40
0.0
 40
0.0
 40
0.0
 40
0.25
 40
0.25
 40
0.25
 40
0.25
 40
0.5
 40
0.5
 40
0.5
 40
0.5
 40
0.75
 40
0.75
 40
0.75
 40
0.75
 40
1.0
 40
1.0
 40
1.0
 40
1.0
 10
0.8890905511811024
 20
2.074866141732283
 30
0.0
 10
0.8890905511811024
 20
2.074866141732283
 30
0.0
 10
1.541141732283465
 20
2.452448818897638
 30
0.0
 10
1.541141732283465
 20
2.452448818897638
 30
0.0
 10
1.541141732283465
 20
2.452448818897638
 30
0.0
 10
1.541141732283465
 20
2.452448818897638
 30
0.0
 10
1.569968503937008
 20
1.952448818897638
 30
0.0
 10
1.569968503937008
 20
1.952448818897638
 30
0.0
 10
1.569968503937008
 20
1.952448818897638
 30
0.0
 10
1.569968503937008
 20
1.952448818897638
 30
0.0
 10
0.9179173228346457
 20
1.574866141732284
 30
0.0
 10
0.9179173228346457
 20
1.574866141732284
 30
0.0
 10
0.9179173228346457
 20
1.574866141732284
 30
0.0
 10
0.9179173228346457
 20
1.574866141732284
 30
0.0
 10
0.8890905511811024
 20
2.074866141732283
 30
0.0
 10
0.8890905511811024
 20
2.074866141732283
 30
0.0
  0
SPLINE
  5
4D
330
1F
100
AcDbEntity
  8
LAYER_1
 62
   252
100
AcDbSpline
210
0.0
220
0.0
230
1.0
 70
    11
 71
     3
 72
    20
 73
    16
 74
     0
 42
0.0000000001
 43
0.0000000001
 40
0.0
 40
0.0
 40
0.0
 40
0.0
 40
0.25
 40
0.25
 40
0.25
 40
0.25
 40
0.5
 40
0.5
 40
0.5
 40
0.5
 40
0.75
 40
0.75
 40
0.75
 40
0.75
 40
1.0
 40
1.0
 40
1.0
 40
1.0
 10
0.9179173228346457
 20
1.574866141732284
 30
0.0
 10
0.9179173228346457
 20
1.574866141732284
 30
0.0
 10
1.569968503937008
 20
1.952448818897638
 30
0.0
 10
1.569968503937008
 20
1.952448818897638
 30
0.0
 10
1.569968503937008
 20
1.952448818897638
 30
0.0
 10
1.569968503937008
 20
1.952448818897638
 30
0.0
 10
1.727102362204725
 20
1.952448818897638
 30
0.0
 10
1.727102362204725
 20
1.952448818897638
 30
0.0
 10
1.727102362204725
 20
1.952448818897638
 30
0.0
 10
1.727102362204725
 20
1.952448818897638
 30
0.0
 10
1.075051181102362
 20
1.574866141732284
 30
0.0
 10
1.075051181102362
 20
1.574866141732284
 30
0.0
 10
1.075051181102362
 20
1.574866141732284
 30
0.0
 10
1.075051181102362
 20
1.574866141732284
 30
0.0
 10
0.9179173228346457
 20
1.574866141732284
 30
0.0
 10
0.9179173228346457
 20
1.574866141732284
 30
0.0
  0
SPLINE
  5
4E
330
1F
100
AcDbEntity
  8
LAYER_1
 62
   250
100
AcDbSpline
210
0.0
220
0.0
230
1.0
 70
    11
 71
     3
 72
    20
 73
    16
 74
     0
 42
0.0000000001
 43
0.0000000001
 40
0.0
 40
0.0
 40
0.0
 40
0.0
 40
0.25
 40
0.25
 40
0.25
 40
0.25
 40
0.5
 40
0.5
 40
0.5
 40
0.5
 40
0.75
 40
0.75
 40
0.75
 40
0.75
 40
1.0
 40
1.0
 40
1.0
 40
1.0
 10
0.9179173228346457
 20
1.574866141732284
 30
0.0
 10
0.9179173228346457
 20
1.574866141732284
 30
0.0
 10
1.569968503937008
 20
1.952448818897638
 30
0.0
 10
1.569968503937008
 20
1.952448818897638
 30
0.0
 10
1.569968503937008
 20
1.952448818897638
 30
0.0
 10
1.569968503937008
 20
1.952448818897638
 30
0.0
 10
1.727102362204725
 20
1.952448818897638
 30
0.0
 10
1.727102362204725
 20
1.952448818897638
 30
0.0
 10
1.727102362204725
 20
1.952448818897638
 30
0.0
 10
1.727102362204725
 20
1.952448818897638
 30
0.0
 10
1.075051181102362
 20
1.574866141732284
 30
0.0
 10
1.075051181102362
 20
1.574866141732284
 30
0.0
 10
1.075051181102362
 20
1.574866141732284
 30
0.0
 10
1.075051181102362
 20
1.574866141732284
 30
0.0
 10
0.9179173228346457
 20
1.574866141732284
 30
0.0
 10
0.9179173228346457
 20
1.574866141732284
 30
0.0
  0
SPLINE
  5
4F
330
1F
100
AcDbEntity
  8
LAYER_1
 62
   252
100
AcDbSpline
210
0.0
220
0.0
230
1.0
 70
    11
 71
     3
 72
    20
 73
    16
 74
     0
 42
0.0000000001
 43
0.0000000001
 40
0.0
 40
0.0
 40
0.0
 40
0.0
 40
0.25
 40
0.25
 40
0.25
 40
0.25
 40
0.5
 40
0.5
 40
0.5
 40
0.5
 40
0.75
 40
0.75
 40
0.75
 40
0.75
 40
1.0
 40
1.0
 40
1.0
 40
1.0
 10
1.103877952755906
 20
2.074866141732283
 30
0.0
 10
1.103877952755906
 20
2.074866141732283
 30
0.0
 10
1.755929133858268
 20
2.452448818897638
 30
0.0
 10
1.755929133858268
 20
2.452448818897638
 30
0.0
 10
1.755929133858268
 20
2.452448818897638
 30
0.0
 10
1.755929133858268
 20
2.452448818897638
 30
0.0
 10
2.061350393700788
 20
2.452448818897638
 30
0.0
 10
2.061350393700788
 20
2.452448818897638
 30
0.0
 10
2.061350393700788
 20
2.452448818897638
 30
0.0
 10
2.061350393700788
 20
2.452448818897638
 30
0.0
 10
1.409299212598425
 20
2.074866141732283
 30
0.0
 10
1.409299212598425
 20
2.074866141732283
 30
0.0
 10
1.409299212598425
 20
2.074866141732283
 30
0.0
 10
1.409299212598425
 20
2.074866141732283
 30
0.0
 10
1.103877952755906
 20
2.074866141732283
 30
0.0
 10
1.103877952755906
 20
2.074866141732283
 30
0.0
  0
SPLINE
  5
50
330
1F
100
AcDbEntity
  8
LAYER_1
 62
   250
100
AcDbSpline
210
0.0
220
0.0
230
1.0
 70
    11
 71
     3
 72
    20
 73
    16
 74
     0
 42
0.0000000001
 43
0.0000000001
 40
0.0
 40
0.0
 40
0.0
 40
0.0
 40
0.25
 40
0.25
 40
0.25
 40
0.25
 40
0.5
 40
0.5
 40
0.5
 40
0.5
 40
0.75
 40
0.75
 40
0.75
 40
0.75
 40
1.0
 40
1.0
 40
1.0
 40
1.0
 10
1.103877952755906
 20
2.074866141732283
 30
0.0
 10
1.103877952755906
 20
2.074866141732283
 30
0.0
 10
1.755929133858268
 20
2.452448818897638
 30
0.0
 10
1.755929133858268
 20
2.452448818897638
 30
0.0
 10
1.755929133858268
 20
2.452448818897638
 30
0.0
 10
1.755929133858268
 20
2.452448818897638
 30
0.0
 10
2.061350393700788
 20
2.452448818897638
 30
0.0
 10
2.061350393700788
 20
2.452448818897638
 30
0.0
 10
2.061350393700788
 20
2.452448818897638
 30
0.0
 10
2.061350393700788
 20
2.452448818897638
 30
0.0
 10
1.409299212598425
 20
2.074866141732283
 30
0.0
 10
1.409299212598425
 20
2.074866141732283
 30
0.0
 10
1.409299212598425
 20
2.074866141732283
 30
0.0
 10
1.409299212598425
 20
2.074866141732283
 30
0.0
 10
1.103877952755906
 20
2.074866141732283
 30
0.0
 10
1.103877952755906
 20
2.074866141732283
 30
0.0
  0
SPLINE
  5
51
330
1F
100
AcDbEntity
  8
LAYER_1
 62
   253
100
AcDbSpline
210
0.0
220
0.0
230
1.0
 70
    11
 71
     3
 72
    20
 73
    16
 74
     0
 42
0.0000000001
 43
0.0000000001
 40
0.0
 40
0.0
 40
0.0
 40
0.0
 40
0.25
 40
0.25
 40
0.25
 40
0.25
 40
0.5
 40
0.5
 40
0.5
 40
0.5
 40
0.75
 40
0.75
 40
0.75
 40
0.75
 40
1.0
 40
1.0
 40
1.0
 40
1.0
 10
1.409299212598425
 20
2.074866141732283
 30
0.0
 10
1.409299212598425
 20
2.074866141732283
 30
0.0
 10
2.061350393700788
 20
2.452448818897638
 30
0.0
 10
2.061350393700788
 20
2.452448818897638
 30
0.0
 10
2.061350393700788
 20
2.452448818897638
 30
0.0
 10
2.061350393700788
 20
2.452448818897638
 30
0.0
 10
2.090177165354331
 20
1.952448818897638
 30
0.0
 10
2.090177165354331
 20
1.952448818897638
 30
0.0
 10
2.090177165354331
 20
1.952448818897638
 30
0.0
 10
2.090177165354331
 20
1.952448818897638
 30
0.0
 10
1.438125984251969
 20
1.574866141732284
 30
0.0
 10
1.438125984251969
 20
1.574866141732284
 30
0.0
 10
1.438125984251969
 20
1.574866141732284
 30
0.0
 10
1.438125984251969
 20
1.574866141732284
 30
0.0
 10
1.409299212598425
 20
2.074866141732283
 30
0.0
 10
1.409299212598425
 20
2.074866141732283
 30
0.0
  0
SPLINE
  5
52
330
1F
100
AcDbEntity
  8
LAYER_1
 62
   250
100
AcDbSpline
210
0.0
220
0.0
230
1.0
 70
    11
 71
     3
 72
    20
 73
    16
 74
     0
 42
0.0000000001
 43
0.0000000001
 40
0.0
 40
0.0
 40
0.0
 40
0.0
 40
0.25
 40
0.25
 40
0.25
 40
0.25
 40
0.5
 40
0.5
 40
0.5
 40
0.5
 40
0.75
 40
0.75
 40
0.75
 40
0.75
 40
1.0
 40
1.0
 40
1.0
 40
1.0
 10
1.409299212598425
 20
2.074866141732283
 30
0.0
 10
1.409299212598425
 20
2.074866141732283
 30
0.0
 10
2.061350393700788
 20
2.452448818897638
 30
0.0
 10
2.061350393700788
 20
2.452448818897638
 30
0.0
 10
2.061350393700788
 20
2.452448818897638
 30
0.0
 10
2.061350393700788
 20
2.452448818897638
 30
0.0
 10
2.090177165354331
 20
1.952448818897638
 30
0.0
 10
2.090177165354331
 20
1.952448818897638
 30
0.0
 10
2.090177165354331
 20
1.952448818897638
 30
0.0
 10
2.090177165354331
 20
1.952448818897638
 30
0.0
 10
1.438125984251969
 20
1.574866141732284
 30
0.0
 10
1.438125984251969
 20
1.574866141732284
 30
0.0
 10
1.438125984251969
 20
1.574866141732284
 30
0.0
 10
1.438125984251969
 20
1.574866141732284
 30
0.0
 10
1.409299212598425
 20
2.074866141732283
 30
0.0
 10
1.409299212598425
 20
2.074866141732283
 30
0.0
  0
SPLINE
  5
53
330
1F
100
AcDbEntity
  8
LAYER_1
 62
   252
100
AcDbSpline
210
0.0
220
0.0
230
1.0
 70
    11
 71
     3
 72
    20
 73
    16
 74
     0
 42
0.0000000001
 43
0.0000000001
 40
0.0
 40
0.0
 40
0.0
 40
0.0
 40
0.25
 40
0.25
 40
0.25
 40
0.25
 40
0.5
 40
0.5
 40
0.5
 40
0.5
 40
0.75
 40
0.75
 40
0.75
 40
0.75
 40
1.0
 40
1.0
 40
1.0
 40
1.0
 10
1.438125984251969
 20
1.574866141732284
 30
0.0
 10
1.438125984251969
 20
1.574866141732284
 30
0.0
 10
2.090177165354331
 20
1.952448818897638
 30
0.0
 10
2.090177165354331
 20
1.952448818897638
 30
0.0
 10
2.090177165354331
 20
1.952448818897638
 30
0.0
 10
2.090177165354331
 20
1.952448818897638
 30
0.0
 10
2.689905511811024
 20
1.952448818897638
 30
0.0
 10
2.689905511811024
 20
1.952448818897638
 30
0.0
 10
2.689905511811024
 20
1.952448818897638
 30
0.0
 10
2.689905511811024
 20
1.952448818897638
 30
0.0
 10
2.037854330708662
 20
1.574866141732284
 30
0.0
 10
2.037854330708662
 20
1.574866141732284
 30
0.0
 10
2.037854330708662
 20
1.574866141732284
 30
0.0
 10
2.037854330708662
 20
1.574866141732284
 30
0.0
 10
1.438125984251969
 20
1.574866141732284
 30
0.0
 10
1.438125984251969
 20
1.574866141732284
 30
0.0
  0
SPLINE
  5
54
330
1F
100
AcDbEntity
  8
LAYER_1
 62
   250
100
AcDbSpline
210
0.0
220
0.0
230
1.0
 70
    11
 71
     3
 72
    20
 73
    16
 74
     0
 42
0.0000000001
 43
0.0000000001
 40
0.0
 40
0.0
 40
0.0
 40
0.0
 40
0.25
 40
0.25
 40
0.25
 40
0.25
 40
0.5
 40
0.5
 40
0.5
 40
0.5
 40
0.75
 40
0.75
 40
0.75
 40
0.75
 40
1.0
 40
1.0
 40
1.0
 40
1.0
 10
1.438125984251969
 20
1.574866141732284
 30
0.0
 10
1.438125984251969
 20
1.574866141732284
 30
0.0
 10
2.090177165354331
 20
1.952448818897638
 30
0.0
 10
2.090177165354331
 20
1.952448818897638
 30
0.0
 10
2.090177165354331
 20
1.952448818897638
 30
0.0
 10
2.090177165354331
 20
1.952448818897638
 30
0.0
 10
2.689905511811024
 20
1.952448818897638
 30
0.0
 10
2.689905511811024
 20
1.952448818897638
 30
0.0
 10
2.689905511811024
 20
1.952448818897638
 30
0.0
 10
2.689905511811024
 20
1.952448818897638
 30
0.0
 10
2.037854330708662
 20
1.574866141732284
 30
0.0
 10
2.037854330708662
 20
1.574866141732284
 30
0.0
 10
2.037854330708662
 20
1.574866141732284
 30
0.0
 10
2.037854330708662
 20
1.574866141732284
 30
0.0
 10
1.438125984251969
 20
1.574866141732284
 30
0.0
 10
1.438125984251969
 20
1.574866141732284
 30
0.0
  0
SPLINE
  5
55
330
1F
100
AcDbEntity
  8
LAYER_1
 62
   252
100
AcDbSpline
210
0.0
220
0.0
230
1.0
 70
    11
 71
     3
 72
    20
 73
    16
 74
     0
 42
0.0000000001
 43
0.0000000001
 40
0.0
 40
0.0
 40
0.0
 40
0.0
 40
0.25
 40
0.25
 40
0.25
 40
0.25
 40
0.5
 40
0.5
 40
0.5
 40
0.5
 40
0.75
 40
0.75
 40
0.75
 40
0.75
 40
1.0
 40
1.0
 40
1.0
 40
1.0
 10
2.066681102362205
 20
2.074866141732283
 30
0.0
 10
2.066681102362205
 20
2.074866141732283
 30
0.0
 10
2.718732283464567
 20
2.452448818897638
 30
0.0
 10
2.718732283464567
 20
2.452448818897638
 30
0.0
 10
2.718732283464567
 20
2.452448818897638
 30
0.0
 10
2.718732283464567
 20
2.452448818897638
 30
0.0
 10
3.202043307086614
 20
2.452448818897638
 30
0.0
 10
3.202043307086614
 20
2.452448818897638
 30
0.0
 10
3.202043307086614
 20
2.452448818897638
 30
0.0
 10
3.202043307086614
 20
2.452448818897638
 30
0.0
 10
2.549992125984252
 20
2.074866141732283
 30
0.0
 10
2.549992125984252
 20
2.074866141732283
 30
0.0
 10
2.549992125984252
 20
2.074866141732283
 30
0.0
 10
2.549992125984252
 20
2.074866141732283
 30
0.0
 10
2.066681102362205
 20
2.074866141732283
 30
0.0
 10
2.066681102362205
 20
2.074866141732283
 30
0.0
  0
SPLINE
  5
56
330
1F
100
AcDbEntity
  8
LAYER_1
 62
   250
100
AcDbSpline
210
0.0
220
0.0
230
1.0
 70
    11
 71
     3
 72
    20
 73
    16
 74
     0
 42
0.0000000001
 43
0.0000000001
 40
0.0
 40
0.0
 40
0.0
 40
0.0
 40
0.25
 40
0.25
 40
0.25
 40
0.25
 40
0.5
 40
0.5
 40
0.5
 40
0.5
 40
0.75
 40
0.75
 40
0.75
 40
0.75
 40
1.0
 40
1.0
 40
1.0
 40
1.0
 10
2.066681102362205
 20
2.074866141732283
 30
0.0
 10
2.066681102362205
 20
2.074866141732283
 30
0.0
 10
2.718732283464567
 20
2.452448818897638
 30
0.0
 10
2.718732283464567
 20
2.452448818897638
 30
0.0
 10
2.718732283464567
 20
2.452448818897638
 30
0.0
 10
2.718732283464567
 20
2.452448818897638
 30
0.0
 10
3.202043307086614
 20
2.452448818897638
 30
0.0
 10
3.202043307086614
 20
2.452448818897638
 30
0.0
 10
3.202043307086614
 20
2.452448818897638
 30
0.0
 10
3.202043307086614
 20
2.452448818897638
 30
0.0
 10
2.549992125984252
 20
2.074866141732283
 30
0.0
 10
2.549992125984252
 20
2.074866141732283
 30
0.0
 10
2.549992125984252
 20
2.074866141732283
 30
0.0
 10
2.549992125984252
 20
2.074866141732283
 30
0.0
 10
2.066681102362205
 20
2.074866141732283
 30
0.0
 10
2.066681102362205
 20
2.074866141732283
 30
0.0
  0
SPLINE
  5
57
330
1F
100
AcDbEntity
  8
LAYER_1
 62
   253
100
AcDbSpline
210
0.0
220
0.0
230
1.0
 70
    11
 71
     3
 72
    20
 73
    16
 74
     0
 42
0.0000000001
 43
0.0000000001
 40
0.0
 40
0.0
 40
0.0
 40
0.0
 40
0.25
 40
0.25
 40
0.25
 40
0.25
 40
0.5
 40
0.5
 40
0.5
 40
0.5
 40
0.75
 40
0.75
 40
0.75
 40
0.75
 40
1.0
 40
1.0
 40
1.0
 40
1.0
 10
2.549992125984252
 20
2.074866141732283
 30
0.0
 10
2.549992125984252
 20
2.074866141732283
 30
0.0
 10
3.202043307086614
 20
2.452448818897638
 30
0.0
 10
3.202043307086614
 20
2.452448818897638
 30
0.0
 10
3.202043307086614
 20
2.452448818897638
 30
0.0
 10
3.202043307086614
 20
2.452448818897638
 30
0.0
 10
3.202043307086614
 20
1.702448818897638
 30
0.0
 10
3.202043307086614
 20
1.702448818897638
 30
0.0
 10
3.202043307086614
 20
1.702448818897638
 30
0.0
 10
3.202043307086614
 20
1.702448818897638
 30
0.0
 10
2.549992125984252
 20
1.324866141732284
 30
0.0
 10
2.549992125984252
 20
1.324866141732284
 30
0.0
 10
2.549992125984252
 20
1.324866141732284
 30
0.0
 10
2.549992125984252
 20
1.324866141732284
 30
0.0
 10
2.549992125984252
 20
2.074866141732283
 30
0.0
 10
2.549992125984252
 20
2.074866141732283
 30
0.0
  0
SPLINE
  5
58
330
1F
100
AcDbEntity
  8
LAYER_1
 62
   250
100
AcDbSpline
210
0.0
220
0.0
230
1.0
 70
    11
 71
     3
 72
    20
 73
    16
 74
     0
 42
0.0000000001
 43
0.0000000001
 40
0.0
 40
0.0
 40
0.0
 40
0.0
 40
0.25
 40
0.25
 40
0.25
 40
0.25
 40
0.5
 40
0.5
 40
0.5
 40
0.5
 40
0.75
 40
0.75
 40
0.75
 40
0.75
 40
1.0
 40
1.0
 40
1.0
 40
1.0
 10
2.549992125984252
 20
2.074866141732283
 30
0.0
 10
2.549992125984252
 20
2.074866141732283
 30
0.0
 10
3.202043307086614
 20
2.452448818897638
 30
0.0
 10
3.202043307086614
 20
2.452448818897638
 30
0.0
 10
3.202043307086614
 20
2.452448818897638
 30
0.0
 10
3.202043307086614
 20
2.452448818897638
 30
0.0
 10
3.202043307086614
 20
1.702448818897638
 30
0.0
 10
3.202043307086614
 20
1.702448818897638
 30
0.0
 10
3.202043307086614
 20
1.702448818897638
 30
0.0
 10
3.202043307086614
 20
1.702448818897638
 30
0.0
 10
2.549992125984252
 20
1.324866141732284
 30
0.0
 10
2.549992125984252
 20
1.324866141732284
 30
0.0
 10
2.549992125984252
 20
1.324866141732284
 30
0.0
 10
2.549992125984252
 20
1.324866141732284
 30
0.0
 10
2.549992125984252
 20
2.074866141732283
 30
0.0
 10
2.549992125984252
 20
2.074866141732283
 30
0.0
  0
SPLINE
  5
59
330
1F
100
AcDbEntity
  8
LAYER_1
 62
     7
100
AcDbSpline
210
0.0
220
0.0
230
1.0
 70
    11
 71
     3
 72
    68
 73
    64
 74
     0
 42
0.0000000001
 43
0.0000000001
 40
0.0
 40
0.0
 40
0.0
 40
0.0
 40
0.0625
 40
0.0625
 40
0.0625
 40
0.0625
 40
0.125
 40
0.125
 40
0.125
 40
0.125
 40
0.1875
 40
0.1875
 40
0.1875
 40
0.1875
 40
0.25
 40
0.25
 40
0.25
 40
0.25
 40
0.3125
 40
0.3125
 40
0.3125
 40
0.3125
 40
0.375
 40
0.375
 40
0.375
 40
0.375
 40
0.4375
 40
0.4375
 40
0.4375
 40
0.4375
 40
0.5
 40
0.5
 40
0.5
 40
0.5
 40
0.5625
 40
0.5625
 40
0.5625
 40
0.5625
 40
0.625
 40
0.625
 40
0.625
 40
0.625
 40
0.6875
 40
0.6875
 40
0.6875
 40
0.6875
 40
0.75
 40
0.75
 40
0.75
 40
0.75
 40
0.8125
 40
0.8125
 40
0.8125
 40
0.8125
 40
0.875
 40
0.875
 40
0.875
 40
0.875
 40
0.9375
 40
0.9375
 40
0.9375
 40
0.9375
 40
1.0
 40
1.0
 40
1.0
 40
1.0
 10
0.049996062992126
 20
2.074866141732283
 30
0.0
 10
0.049996062992126
 20
2.074866141732283
 30
0.0
 10
0.3668149606299213
 20
2.074866141732283
 30
0.0
 10
0.3668149606299213
 20
2.074866141732283
 30
0.0
 10
0.3668149606299213
 20
2.074866141732283
 30
0.0
 10
0.3668149606299213
 20
2.074866141732283
 30
0.0
 10
0.3956417322834646
 20
1.574866141732284
 30
0.0
 10
0.3956417322834646
 20
1.574866141732284
 30
0.0
 10
0.3956417322834646
 20
1.574866141732284
 30
0.0
 10
0.3956417322834646
 20
1.574866141732284
 30
0.0
 10
0.5527755905511811
 20
1.574866141732284
 30
0.0
 10
0.5527755905511811
 20
1.574866141732284
 30
0.0
 10
0.5527755905511811
 20
1.574866141732284
 30
0.0
 10
0.5527755905511811
 20
1.574866141732284
 30
0.0
 10
0.5816023622047244
 20
2.074866141732283
 30
0.0
 10
0.5816023622047244
 20
2.074866141732283
 30
0.0
 10
0.5816023622047244
 20
2.074866141732283
 30
0.0
 10
0.5816023622047244
 20
2.074866141732283
 30
0.0
 10
0.8890905511811024
 20
2.074866141732283
 30
0.0
 10
0.8890905511811024
 20
2.074866141732283
 30
0.0
 10
0.8890905511811024
 20
2.074866141732283
 30
0.0
 10
0.8890905511811024
 20
2.074866141732283
 30
0.0
 10
0.9179173228346457
 20
1.574866141732284
 30
0.0
 10
0.9179173228346457
 20
1.574866141732284
 30
0.0
 10
0.9179173228346457
 20
1.574866141732284
 30
0.0
 10
0.9179173228346457
 20
1.574866141732284
 30
0.0
 10
1.075051181102362
 20
1.574866141732284
 30
0.0
 10
1.075051181102362
 20
1.574866141732284
 30
0.0
 10
1.075051181102362
 20
1.574866141732284
 30
0.0
 10
1.075051181102362
 20
1.574866141732284
 30
0.0
 10
1.103877952755906
 20
2.074866141732283
 30
0.0
 10
1.103877952755906
 20
2.074866141732283
 30
0.0
 10
1.103877952755906
 20
2.074866141732283
 30
0.0
 10
1.103877952755906
 20
2.074866141732283
 30
0.0
 10
1.409299212598425
 20
2.074866141732283
 30
0.0
 10
1.409299212598425
 20
2.074866141732283
 30
0.0
 10
1.409299212598425
 20
2.074866141732283
 30
0.0
 10
1.409299212598425
 20
2.074866141732283
 30
0.0
 10
1.438125984251969
 20
1.574866141732284
 30
0.0
 10
1.438125984251969
 20
1.574866141732284
 30
0.0
 10
1.438125984251969
 20
1.574866141732284
 30
0.0
 10
1.438125984251969
 20
1.574866141732284
 30
0.0
 10
2.037854330708662
 20
1.574866141732284
 30
0.0
 10
2.037854330708662
 20
1.574866141732284
 30
0.0
 10
2.037854330708662
 20
1.574866141732284
 30
0.0
 10
2.037854330708662
 20
1.574866141732284
 30
0.0
 10
2.066681102362205
 20
2.074866141732283
 30
0.0
 10
2.066681102362205
 20
2.074866141732283
 30
0.0
 10
2.066681102362205
 20
2.074866141732283
 30
0.0
 10
2.066681102362205
 20
2.074866141732283
 30
0.0
 10
2.549992125984252
 20
2.074866141732283
 30
0.0
 10
2.549992125984252
 20
2.074866141732283
 30
0.0
 10
2.549992125984252
 20
2.074866141732283
 30
0.0
 10
2.549992125984252
 20
2.074866141732283
 30
0.0
 10
2.549992125984252
 20
1.324866141732284
 30
0.0
 10
2.549992125984252
 20
1.324866141732284
 30
0.0
 10
2.549992125984252
 20
1.324866141732284
 30
0.0
 10
2.549992125984252
 20
1.324866141732284
 30
0.0
 10
0.049996062992126
 20
1.324866141732284
 30
0.0
 10
0.049996062992126
 20
1.324866141732284
 30
0.0
 10
0.049996062992126
 20
1.324866141732284
 30
0.0
 10
0.049996062992126
 20
1.324866141732284
 30
0.0
 10
0.049996062992126
 20
2.074866141732283
 30
0.0
 10
0.049996062992126
 20
2.074866141732283
 30
0.0
  0
SPLINE
  5
5A
330
1F
100
AcDbEntity
  8
LAYER_1
 62
   250
100
AcDbSpline
210
0.0
220
0.0
230
1.0
 70
    11
 71
     3
 72
   104
 73
   100
 74
     0
 42
0.0000000001
 43
0.0000000001
 40
0.0
 40
0.0
 40
0.0
 40
0.0
 40
0.04
 40
0.04
 40
0.04
 40
0.04
 40
0.08
 40
0.08
 40
0.08
 40
0.08
 40
0.12
 40
0.12
 40
0.12
 40
0.12
 40
0.16
 40
0.16
 40
0.16
 40
0.16
 40
0.2
 40
0.2
 40
0.2
 40
0.2
 40
0.24
 40
0.24
 40
0.24
 40
0.24
 40
0.28
 40
0.28
 40
0.28
 40
0.28
 40
0.32
 40
0.32
 40
0.32
 40
0.32
 40
0.36
 40
0.36
 40
0.36
 40
0.36
 40
0.4
 40
0.4
 40
0.4
 40
0.4
 40
0.44
 40
0.44
 40
0.44
 40
0.44
 40
0.4799999999999999
 40
0.4799999999999999
 40
0.4799999999999999
 40
0.4799999999999999
 40
0.5199999999999999
 40
0.5199999999999999
 40
0.5199999999999999
 40
0.5199999999999999
 40
0.5599999999999999
 40
0.5599999999999999
 40
0.5599999999999999
 40
0.5599999999999999
 40
0.6
 40
0.6
 40
0.6
 40
0.6
 40
0.64
 40
0.64
 40
0.64
 40
0.64
 40
0.6800000000000001
 40
0.6800000000000001
 40
0.6800000000000001
 40
0.6800000000000001
 40
0.7200000000000001
 40
0.7200000000000001
 40
0.7200000000000001
 40
0.7200000000000001
 40
0.7600000000000001
 40
0.7600000000000001
 40
0.7600000000000001
 40
0.7600000000000001
 40
0.8000000000000002
 40
0.8000000000000002
 40
0.8000000000000002
 40
0.8000000000000002
 40
0.8400000000000002
 40
0.8400000000000002
 40
0.8400000000000002
 40
0.8400000000000002
 40
0.8800000000000002
 40
0.8800000000000002
 40
0.8800000000000002
 40
0.8800000000000002
 40
0.9200000000000003
 40
0.9200000000000003
 40
0.9200000000000003
 40
0.9200000000000003
 40
0.9600000000000003
 40
0.9600000000000003
 40
0.9600000000000003
 40
0.9600000000000003
 40
1.0
 40
1.0
 40
1.0
 40
1.0
 10
-2.017527559055118
 20
1.221110236220472
 30
0.0
 10
-2.017527559055118
 20
1.221110236220472
 30
0.0
 10
-1.963555118110236
 20
1.221110236220472
 30
0.0
 10
-1.963555118110236
 20
1.221110236220472
 30
0.0
 10
-1.963555118110236
 20
1.221110236220472
 30
0.0
 10
-1.950385826771654
 20
1.221110236220472
 30
0.0
 10
-1.941358267716536
 20
1.2205
 30
0.0
 10
-1.936472440944882
 20
1.219303149606299
 30
0.0
 10
-1.936472440944882
 20
1.219303149606299
 30
0.0
 10
-1.929248031496063
 20
1.217582677165354
 30
0.0
 10
-1.923555118110236
 20
1.214444881889764
 30
0.0
 10
-1.919330708661417
 20
1.209885826771654
 30
0.0
 10
-1.919330708661417
 20
1.209885826771654
 30
0.0
 10
-1.915137795275591
 20
1.205330708661417
 30
0.0
 10
-1.913027559055118
 20
1.199830708661417
 30
0.0
 10
-1.913027559055118
 20
1.193444881889764
 30
0.0
 10
-1.913027559055118
 20
1.193444881889764
 30
0.0
 10
-1.913027559055118
 20
1.188830708661417
 30
0.0
 10
-1.914137795275591
 20
1.184692913385827
 30
0.0
 10
-1.916358267716536
 20
1.181027559055118
 30
0.0
 10
-1.916358267716536
 20
1.181027559055118
 30
0.0
 10
-1.918582677165355
 20
1.177358267716536
 30
0.0
 10
-1.921830708661418
 20
1.174220472440945
 30
0.0
 10
-1.926055118110236
 20
1.171637795275591
 30
0.0
 10
-1.926055118110236
 20
1.171637795275591
 30
0.0
 10
-1.928775590551181
 20
1.169944881889764
 30
0.0
 10
-1.932444881889764
 20
1.1685
 30
0.0
 10
-1.937110236220472
 20
1.167303149606299
 30
0.0
 10
-1.937110236220472
 20
1.167303149606299
 30
0.0
 10
-1.931192913385827
 20
1.166220472440945
 30
0.0
 10
-1.926692913385827
 20
1.164917322834646
 30
0.0
 10
-1.923610236220473
 20
1.163417322834646
 30
0.0
 10
-1.923610236220473
 20
1.163417322834646
 30
0.0
 10
-1.918944881889764
 20
1.161137795275591
 30
0.0
 10
-1.915248031496063
 20
1.157889763779528
 30
0.0
 10
-1.912555118110236
 20
1.153637795275591
 30
0.0
 10
-1.912555118110236
 20
1.153637795275591
 30
0.0
 10
-1.909830708661418
 20
1.149417322834646
 30
0.0
 10
-1.908472440944882
 20
1.144637795275591
 30
0.0
 10
-1.908472440944882
 20
1.139330708661417
 30
0.0
 10
-1.908472440944882
 20
1.139330708661417
 30
0.0
 10
-1.908472440944882
 20
1.134165354330709
 30
0.0
 10
-1.909803149606299
 20
1.129389763779528
 30
0.0
 10
-1.912472440944882
 20
1.125
 30
0.0
 10
-1.912472440944882
 20
1.125
 30
0.0
 10
-1.915110236220473
 20
1.120610236220472
 30
0.0
 10
-1.918885826771654
 20
1.117
 30
0.0
 10
-1.923720472440945
 20
1.114165354330709
 30
0.0
 10
-1.923720472440945
 20
1.114165354330709
 30
0.0
 10
-1.928582677165355
 20
1.111362204724409
 30
0.0
 10
-1.934248031496063
 20
1.109555118110236
 30
0.0
 10
-1.940692913385827
 20
1.108748031496063
 30
0.0
 10
-1.940692913385827
 20
1.108748031496063
 30
0.0
 10
-1.947165354330709
 20
1.107972440944882
 30
0.0
 10
-1.953803149606299
 20
1.107582677165354
 30
0.0
 10
-1.960637795275591
 20
1.107582677165354
 30
0.0
 10
-1.960637795275591
 20
1.107582677165354
 30
0.0
 10
-1.960637795275591
 20
1.107582677165354
 30
0.0
 10
-2.017527559055118
 20
1.107582677165354
 30
0.0
 10
-2.017527559055118
 20
1.107582677165354
 30
0.0
 10
-2.017527559055118
 20
1.107582677165354
 30
0.0
 10
-2.017527559055118
 20
1.107582677165354
 30
0.0
 10
-2.017527559055118
 20
1.114417322834646
 30
0.0
 10
-2.017527559055118
 20
1.114417322834646
 30
0.0
 10
-2.017527559055118
 20
1.114417322834646
 30
0.0
 10
-2.017527559055118
 20
1.114417322834646
 30
0.0
 10
-2.013692913385827
 20
1.114417322834646
 30
0.0
 10
-2.013692913385827
 20
1.114417322834646
 30
0.0
 10
-2.013692913385827
 20
1.114417322834646
 30
0.0
 10
-2.009996062992126
 20
1.114417322834646
 30
0.0
 10
-2.007496062992126
 20
1.115
 30
0.0
 10
-2.006137795275591
 20
1.116137795275591
 30
0.0
 10
-2.006137795275591
 20
1.116137795275591
 30
0.0
 10
-2.004165354330709
 20
1.117692913385827
 30
0.0
 10
-2.003192913385827
 20
1.120303149606299
 30
0.0
 10
-2.003192913385827
 20
1.123944881889764
 30
0.0
 10
-2.003192913385827
 20
1.123944881889764
 30
0.0
 10
-2.003192913385827
 20
1.123944881889764
 30
0.0
 10
-2.003192913385827
 20
1.202803149606299
 30
0.0
 10
-2.003192913385827
 20
1.202803149606299
 30
0.0
 10
-2.003192913385827
 20
1.202803149606299
 30
0.0
 10
-2.003192913385827
 20
1.2065
 30
0.0
 10
-2.003496062992126
 20
1.209
 30
0.0
 10
-2.004082677165354
 20
1.210358267716535
 30
0.0
 10
-2.004082677165354
 20
1.210358267716535
 30
0.0
 10
-2.004692913385827
 20
1.211720472440945
 30
0.0
 10
-2.005582677165354
 20
1.212692913385827
 30
0.0
 10
-2.006775590551181
 20
1.213303149606299
 30
0.0
 10
-2.006775590551181
 20
1.213303149606299
 30
0.0
 10
-2.007968503937008
 20
1.213885826771654
 30
0.0
 10
-2.010275590551181
 20
1.214192913385827
 30
0.0
 10
-2.013692913385827
 20
1.214192913385827
 30
0.0
 10
-2.013692913385827
 20
1.214192913385827
 30
0.0
 10
-2.013692913385827
 20
1.214192913385827
 30
0.0
 10
-2.017527559055118
 20
1.214192913385827
 30
0.0
 10
-2.017527559055118
 20
1.214192913385827
 30
0.0
 10
-2.017527559055118
 20
1.214192913385827
 30
0.0
 10
-2.017527559055118
 20
1.214192913385827
 30
0.0
 10
-2.017527559055118
 20
1.221110236220472
 30
0.0
 10
-2.017527559055118
 20
1.221110236220472
 30
0.0
  0
SPLINE
  5
5B
330
1F
100
AcDbEntity
  8
LAYER_1
 62
   250
100
AcDbSpline
210
0.0
220
0.0
230
1.0
 70
    11
 71
     3
 72
    40
 73
    36
 74
     0
 42
0.0000000001
 43
0.0000000001
 40
0.0
 40
0.0
 40
0.0
 40
0.0
 40
0.1111111111111111
 40
0.1111111111111111
 40
0.1111111111111111
 40
0.1111111111111111
 40
0.2222222222222222
 40
0.2222222222222222
 40
0.2222222222222222
 40
0.2222222222222222
 40
0.3333333333333333
 40
0.3333333333333333
 40
0.3333333333333333
 40
0.3333333333333333
 40
0.4444444444444444
 40
0.4444444444444444
 40
0.4444444444444444
 40
0.4444444444444444
 40
0.5555555555555556
 40
0.5555555555555556
 40
0.5555555555555556
 40
0.5555555555555556
 40
0.6666666666666667
 40
0.6666666666666667
 40
0.6666666666666667
 40
0.6666666666666667
 40
0.7777777777777779
 40
0.7777777777777779
 40
0.7777777777777779
 40
0.7777777777777779
 40
0.8888888888888891
 40
0.8888888888888891
 40
0.8888888888888891
 40
0.8888888888888891
 40
1.0
 40
1.0
 40
1.0
 40
1.0
 10
-1.987968503937008
 20
1.212082677165354
 30
0.0
 10
-1.987968503937008
 20
1.212082677165354
 30
0.0
 10
-1.987968503937008
 20
1.1705
 30
0.0
 10
-1.987968503937008
 20
1.1705
 30
0.0
 10
-1.987968503937008
 20
1.1705
 30
0.0
 10
-1.987968503937008
 20
1.1705
 30
0.0
 10
-1.967220472440945
 20
1.1705
 30
0.0
 10
-1.967220472440945
 20
1.1705
 30
0.0
 10
-1.967220472440945
 20
1.1705
 30
0.0
 10
-1.957527559055118
 20
1.1705
 30
0.0
 10
-1.950858267716536
 20
1.170944881889764
 30
0.0
 10
-1.947303149606299
 20
1.171858267716536
 30
0.0
 10
-1.947303149606299
 20
1.171858267716536
 30
0.0
 10
-1.941692913385827
 20
1.173330708661417
 30
0.0
 10
-1.937444881889764
 20
1.175830708661417
 30
0.0
 10
-1.934472440944882
 20
1.179358267716536
 30
0.0
 10
-1.934472440944882
 20
1.179358267716536
 30
0.0
 10
-1.931527559055118
 20
1.182885826771654
 30
0.0
 10
-1.930027559055118
 20
1.187417322834646
 30
0.0
 10
-1.930027559055118
 20
1.192944881889764
 30
0.0
 10
-1.930027559055118
 20
1.192944881889764
 30
0.0
 10
-1.930027559055118
 20
1.197610236220473
 30
0.0
 10
-1.931385826771654
 20
1.2015
 30
0.0
 10
-1.934055118110236
 20
1.204637795275591
 30
0.0
 10
-1.934055118110236
 20
1.204637795275591
 30
0.0
 10
-1.936748031496063
 20
1.207748031496063
 30
0.0
 10
-1.940358267716535
 20
1.209885826771654
 30
0.0
 10
-1.944858267716536
 20
1.211027559055118
 30
0.0
 10
-1.944858267716536
 20
1.211027559055118
 30
0.0
 10
-1.947775590551181
 20
1.211720472440945
 30
0.0
 10
-1.953858267716536
 20
1.212082677165354
 30
0.0
 10
-1.963082677165355
 20
1.212082677165354
 30
0.0
 10
-1.963082677165355
 20
1.212082677165354
 30
0.0
 10
-1.963082677165355
 20
1.212082677165354
 30
0.0
 10
-1.987968503937008
 20
1.212082677165354
 30
0.0
 10
-1.987968503937008
 20
1.212082677165354
 30
0.0
  0
SPLINE
  5
5C
330
1F
100
AcDbEntity
  8
LAYER_1
 62
   250
100
AcDbSpline
210
0.0
220
0.0
230
1.0
 70
    11
 71
     3
 72
    52
 73
    48
 74
     0
 42
0.0000000001
 43
0.0000000001
 40
0.0
 40
0.0
 40
0.0
 40
0.0
 40
0.0833333333333333
 40
0.0833333333333333
 40
0.0833333333333333
 40
0.0833333333333333
 40
0.1666666666666667
 40
0.1666666666666667
 40
0.1666666666666667
 40
0.1666666666666667
 40
0.25
 40
0.25
 40
0.25
 40
0.25
 40
0.3333333333333333
 40
0.3333333333333333
 40
0.3333333333333333
 40
0.3333333333333333
 40
0.4166666666666666
 40
0.4166666666666666
 40
0.4166666666666666
 40
0.4166666666666666
 40
0.4999999999999999
 40
0.4999999999999999
 40
0.4999999999999999
 40
0.4999999999999999
 40
0.5833333333333333
 40
0.5833333333333333
 40
0.5833333333333333
 40
0.5833333333333333
 40
0.6666666666666666
 40
0.6666666666666666
 40
0.6666666666666666
 40
0.6666666666666666
 40
0.75
 40
0.75
 40
0.75
 40
0.75
 40
0.8333333333333334
 40
0.8333333333333334
 40
0.8333333333333334
 40
0.8333333333333334
 40
0.9166666666666667
 40
0.9166666666666667
 40
0.9166666666666667
 40
0.9166666666666667
 40
1.0
 40
1.0
 40
1.0
 40
1.0
 10
-1.987968503937008
 20
1.162665354330709
 30
0.0
 10
-1.987968503937008
 20
1.162665354330709
 30
0.0
 10
-1.987968503937008
 20
1.125417322834646
 30
0.0
 10
-1.987968503937008
 20
1.125417322834646
 30
0.0
 10
-1.987968503937008
 20
1.125417322834646
 30
0.0
 10
-1.987968503937008
 20
1.121665354330709
 30
0.0
 10
-1.987803149606299
 20
1.119444881889764
 30
0.0
 10
-1.9875
 20
1.118720472440945
 30
0.0
 10
-1.9875
 20
1.118720472440945
 30
0.0
 10
-1.987055118110236
 20
1.117748031496063
 30
0.0
 10
-1.986192913385827
 20
1.117082677165354
 30
0.0
 10
-1.984885826771654
 20
1.116692913385827
 30
0.0
 10
-1.984885826771654
 20
1.116692913385827
 30
0.0
 10
-1.983968503937008
 20
1.116417322834646
 30
0.0
 10
-1.981358267716536
 20
1.116275590551181
 30
0.0
 10
-1.977082677165355
 20
1.116275590551181
 30
0.0
 10
-1.977082677165355
 20
1.116275590551181
 30
0.0
 10
-1.977082677165355
 20
1.116275590551181
 30
0.0
 10
-1.966
 20
1.116275590551181
 30
0.0
 10
-1.966
 20
1.116275590551181
 30
0.0
 10
-1.966
 20
1.116275590551181
 30
0.0
 10
-1.955055118110236
 20
1.116275590551181
 30
0.0
 10
-1.947220472440945
 20
1.116889763779528
 30
0.0
 10
-1.942527559055118
 20
1.118110236220473
 30
0.0
 10
-1.942527559055118
 20
1.118110236220473
 30
0.0
 10
-1.937830708661418
 20
1.119330708661417
 30
0.0
 10
-1.933830708661418
 20
1.121917322834646
 30
0.0
 10
-1.930527559055118
 20
1.12586220472441
 30
0.0
 10
-1.930527559055118
 20
1.12586220472441
 30
0.0
 10
-1.927220472440945
 20
1.129775590551181
 30
0.0
 10
-1.925555118110236
 20
1.134527559055118
 30
0.0
 10
-1.925555118110236
 20
1.140055118110236
 30
0.0
 10
-1.925555118110236
 20
1.140055118110236
 30
0.0
 10
-1.925555118110236
 20
1.144720472440945
 30
0.0
 10
-1.926913385826772
 20
1.148858267716536
 30
0.0
 10
-1.929582677165354
 20
1.152472440944882
 30
0.0
 10
-1.929582677165354
 20
1.152472440944882
 30
0.0
 10
-1.932275590551181
 20
1.156082677165354
 30
0.0
 10
-1.936
 20
1.158665354330709
 30
0.0
 10
-1.940748031496063
 20
1.160275590551181
 30
0.0
 10
-1.940748031496063
 20
1.160275590551181
 30
0.0
 10
-1.9455
 20
1.161889763779528
 30
0.0
 10
-1.953913385826772
 20
1.162665354330709
 30
0.0
 10
-1.966
 20
1.162665354330709
 30
0.0
 10
-1.966
 20
1.162665354330709
 30
0.0
 10
-1.966
 20
1.162665354330709
 30
0.0
 10
-1.987968503937008
 20
1.162665354330709
 30
0.0
 10
-1.987968503937008
 20
1.162665354330709
 30
0.0
  0
SPLINE
  5
5D
330
1F
100
AcDbEntity
  8
LAYER_1
 62
   250
100
AcDbSpline
210
0.0
220
0.0
230
1.0
 70
    11
 71
     3
 72
   112
 73
   108
 74
     0
 42
0.0000000001
 43
0.0000000001
 40
0.0
 40
0.0
 40
0.0
 40
0.0
 40
0.037037037037037
 40
0.037037037037037
 40
0.037037037037037
 40
0.037037037037037
 40
0.0740740740740741
 40
0.0740740740740741
 40
0.0740740740740741
 40
0.0740740740740741
 40
0.1111111111111111
 40
0.1111111111111111
 40
0.1111111111111111
 40
0.1111111111111111
 40
0.1481481481481481
 40
0.1481481481481481
 40
0.1481481481481481
 40
0.1481481481481481
 40
0.1851851851851852
 40
0.1851851851851852
 40
0.1851851851851852
 40
0.1851851851851852
 40
0.2222222222222222
 40
0.2222222222222222
 40
0.2222222222222222
 40
0.2222222222222222
 40
0.2592592592592592
 40
0.2592592592592592
 40
0.2592592592592592
 40
0.2592592592592592
 40
0.2962962962962963
 40
0.2962962962962963
 40
0.2962962962962963
 40
0.2962962962962963
 40
0.3333333333333333
 40
0.3333333333333333
 40
0.3333333333333333
 40
0.3333333333333333
 40
0.3703703703703704
 40
0.3703703703703704
 40
0.3703703703703704
 40
0.3703703703703704
 40
0.4074074074074074
 40
0.4074074074074074
 40
0.4074074074074074
 40
0.4074074074074074
 40
0.4444444444444444
 40
0.4444444444444444
 40
0.4444444444444444
 40
0.4444444444444444
 40
0.4814814814814815
 40
0.4814814814814815
 40
0.4814814814814815
 40
0.4814814814814815
 40
0.5185185185185185
 40
0.5185185185185185
 40
0.5185185185185185
 40
0.5185185185185185
 40
0.5555555555555556
 40
0.5555555555555556
 40
0.5555555555555556
 40
0.5555555555555556
 40
0.5925925925925926
 40
0.5925925925925926
 40
0.5925925925925926
 40
0.5925925925925926
 40
0.6296296296296295
 40
0.6296296296296295
 40
0.6296296296296295
 40
0.6296296296296295
 40
0.6666666666666665
 40
0.6666666666666665
 40
0.6666666666666665
 40
0.6666666666666665
 40
0.7037037037037035
 40
0.7037037037037035
 40
0.7037037037037035
 40
0.7037037037037035
 40
0.7407407407407405
 40
0.7407407407407405
 40
0.7407407407407405
 40
0.7407407407407405
 40
0.7777777777777775
 40
0.7777777777777775
 40
0.7777777777777775
 40
0.7777777777777775
 40
0.8148148148148144
 40
0.8148148148148144
 40
0.8148148148148144
 40
0.8148148148148144
 40
0.8518518518518514
 40
0.8518518518518514
 40
0.8518518518518514
 40
0.8518518518518514
 40
0.8888888888888884
 40
0.8888888888888884
 40
0.8888888888888884
 40
0.8888888888888884
 40
0.9259259259259254
 40
0.9259259259259254
 40
0.9259259259259254
 40
0.9259259259259254
 40
0.9629629629629624
 40
0.9629629629629624
 40
0.9629629629629624
 40
0.9629629629629624
 40
1.0
 40
1.0
 40
1.0
 40
1.0
 10
-1.850862204724409
 20
1.221110236220472
 30
0.0
 10
-1.850862204724409
 20
1.221110236220472
 30
0.0
 10
-1.837444881889764
 20
1.221110236220472
 30
0.0
 10
-1.837444881889764
 20
1.221110236220472
 30
0.0
 10
-1.837444881889764
 20
1.221110236220472
 30
0.0
 10
-1.837444881889764
 20
1.221110236220472
 30
0.0
 10
-1.802196850393701
 20
1.126220472440945
 30
0.0
 10
-1.802196850393701
 20
1.126220472440945
 30
0.0
 10
-1.802196850393701
 20
1.126220472440945
 30
0.0
 10
-1.800472440944882
 20
1.121444881889764
 30
0.0
 10
-1.798724409448819
 20
1.118275590551181
 30
0.0
 10
-1.796944881889764
 20
1.116748031496063
 30
0.0
 10
-1.796944881889764
 20
1.116748031496063
 30
0.0
 10
-1.795196850393701
 20
1.115192913385827
 30
0.0
 10
-1.792807086614173
 20
1.114417322834646
 30
0.0
 10
-1.789834645669292
 20
1.114417322834646
 30
0.0
 10
-1.789834645669292
 20
1.114417322834646
 30
0.0
 10
-1.789834645669292
 20
1.114417322834646
 30
0.0
 10
-1.788055118110236
 20
1.114417322834646
 30
0.0
 10
-1.788055118110236
 20
1.114417322834646
 30
0.0
 10
-1.788055118110236
 20
1.114417322834646
 30
0.0
 10
-1.788055118110236
 20
1.114417322834646
 30
0.0
 10
-1.788055118110236
 20
1.107582677165354
 30
0.0
 10
-1.788055118110236
 20
1.107582677165354
 30
0.0
 10
-1.788055118110236
 20
1.107582677165354
 30
0.0
 10
-1.788055118110236
 20
1.107582677165354
 30
0.0
 10
-1.8285
 20
1.107582677165354
 30
0.0
 10
-1.8285
 20
1.107582677165354
 30
0.0
 10
-1.8285
 20
1.107582677165354
 30
0.0
 10
-1.8285
 20
1.107582677165354
 30
0.0
 10
-1.8285
 20
1.114417322834646
 30
0.0
 10
-1.8285
 20
1.114417322834646
 30
0.0
 10
-1.8285
 20
1.114417322834646
 30
0.0
 10
-1.827196850393701
 20
1.114527559055118
 30
0.0
 10
-1.825917322834646
 20
1.114582677165354
 30
0.0
 10
-1.824665354330709
 20
1.114582677165354
 30
0.0
 10
-1.824665354330709
 20
1.114582677165354
 30
0.0
 10
-1.822055118110236
 20
1.114582677165354
 30
0.0
 10
-1.82036220472441
 20
1.114862204724409
 30
0.0
 10
-1.819527559055118
 20
1.115389763779528
 30
0.0
 10
-1.819527559055118
 20
1.115389763779528
 30
0.0
 10
-1.817972440944882
 20
1.116417322834646
 30
0.0
 10
-1.817169291338583
 20
1.117720472440945
 30
0.0
 10
-1.817169291338583
 20
1.119303149606299
 30
0.0
 10
-1.817169291338583
 20
1.119303149606299
 30
0.0
 10
-1.817169291338583
 20
1.120444881889764
 30
0.0
 10
-1.817944881889764
 20
1.123220472440945
 30
0.0
 10
-1.819444881889764
 20
1.127692913385827
 30
0.0
 10
-1.819444881889764
 20
1.127692913385827
 30
0.0
 10
-1.819444881889764
 20
1.127692913385827
 30
0.0
 10
-1.826944881889764
 20
1.149665354330709
 30
0.0
 10
-1.826944881889764
 20
1.149665354330709
 30
0.0
 10
-1.826944881889764
 20
1.149665354330709
 30
0.0
 10
-1.826944881889764
 20
1.149665354330709
 30
0.0
 10
-1.868110236220473
 20
1.149665354330709
 30
0.0
 10
-1.868110236220473
 20
1.149665354330709
 30
0.0
 10
-1.868110236220473
 20
1.149665354330709
 30
0.0
 10
-1.868110236220473
 20
1.149665354330709
 30
0.0
 10
-1.876917322834646
 20
1.125082677165354
 30
0.0
 10
-1.876917322834646
 20
1.125082677165354
 30
0.0
 10
-1.876917322834646
 20
1.125082677165354
 30
0.0
 10
-1.877834645669291
 20
1.122527559055118
 30
0.0
 10
-1.878307086614173
 20
1.120775590551181
 30
0.0
 10
-1.878307086614173
 20
1.119775590551181
 30
0.0
 10
-1.878307086614173
 20
1.119775590551181
 30
0.0
 10
-1.878307086614173
 20
1.118692913385827
 30
0.0
 10
-1.878
 20
1.117748031496063
 30
0.0
 10
-1.877444881889764
 20
1.116944881889764
 30
0.0
 10
-1.877444881889764
 20
1.116944881889764
 30
0.0
 10
-1.87686220472441
 20
1.116137795275591
 30
0.0
 10
-1.876110236220473
 20
1.115527559055118
 30
0.0
 10
-1.875110236220473
 20
1.115110236220473
 30
0.0
 10
-1.875110236220473
 20
1.115110236220473
 30
0.0
 10
-1.874137795275591
 20
1.114692913385827
 30
0.0
 10
-1.872582677165354
 20
1.1145
 30
0.0
 10
-1.870389763779528
 20
1.1145
 30
0.0
 10
-1.870389763779528
 20
1.1145
 30
0.0
 10
-1.868944881889764
 20
1.1145
 30
0.0
 10
-1.867751968503937
 20
1.114472440944882
 30
0.0
 10
-1.866834645669292
 20
1.114417322834646
 30
0.0
 10
-1.866834645669292
 20
1.114417322834646
 30
0.0
 10
-1.866834645669292
 20
1.114417322834646
 30
0.0
 10
-1.866834645669292
 20
1.107582677165354
 30
0.0
 10
-1.866834645669292
 20
1.107582677165354
 30
0.0
 10
-1.866834645669292
 20
1.107582677165354
 30
0.0
 10
-1.866834645669292
 20
1.107582677165354
 30
0.0
 10
-1.900751968503937
 20
1.107582677165354
 30
0.0
 10
-1.900751968503937
 20
1.107582677165354
 30
0.0
 10
-1.900751968503937
 20
1.107582677165354
 30
0.0
 10
-1.900751968503937
 20
1.107582677165354
 30
0.0
 10
-1.900751968503937
 20
1.114417322834646
 30
0.0
 10
-1.900751968503937
 20
1.114417322834646
 30
0.0
 10
-1.900751968503937
 20
1.114417322834646
 30
0.0
 10
-1.897610236220473
 20
1.114417322834646
 30
0.0
 10
-1.895334645669291
 20
1.114720472440945
 30
0.0
 10
-1.893972440944882
 20
1.115362204724409
 30
0.0
 10
-1.893972440944882
 20
1.115362204724409
 30
0.0
 10
-1.892582677165354
 20
1.115972440944882
 30
0.0
 10
-1.891362204724409
 20
1.116972440944882
 30
0.0
 10
-1.890334645669291
 20
1.11836220472441
 30
0.0
 10
-1.890334645669291
 20
1.11836220472441
 30
0.0
 10
-1.889307086614173
 20
1.119748031496063
 30
0.0
 10
-1.887944881889764
 20
1.122665354330709
 30
0.0
 10
-1.886279527559055
 20
1.127110236220473
 30
0.0
 10
-1.886279527559055
 20
1.127110236220473
 30
0.0
 10
-1.886279527559055
 20
1.127110236220473
 30
0.0
 10
-1.850862204724409
 20
1.221110236220472
 30
0.0
 10
-1.850862204724409
 20
1.221110236220472
 30
0.0
  0
SPLINE
  5
5E
330
1F
100
AcDbEntity
  8
LAYER_1
 62
   250
100
AcDbSpline
210
0.0
220
0.0
230
1.0
 70
    11
 71
     3
 72
    16
 73
    12
 74
     0
 42
0.0000000001
 43
0.0000000001
 40
0.0
 40
0.0
 40
0.0
 40
0.0
 40
0.3333333333333333
 40
0.3333333333333333
 40
0.3333333333333333
 40
0.3333333333333333
 40
0.6666666666666666
 40
0.6666666666666666
 40
0.6666666666666666
 40
0.6666666666666666
 40
1.0
 40
1.0
 40
1.0
 40
1.0
 10
-1.865110236220473
 20
1.157637795275591
 30
0.0
 10
-1.865110236220473
 20
1.157637795275591
 30
0.0
 10
-1.830027559055118
 20
1.157637795275591
 30
0.0
 10
-1.830027559055118
 20
1.157637795275591
 30
0.0
 10
-1.830027559055118
 20
1.157637795275591
 30
0.0
 10
-1.830027559055118
 20
1.157637795275591
 30
0.0
 10
-1.847610236220473
 20
1.206472440944882
 30
0.0
 10
-1.847610236220473
 20
1.206472440944882
 30
0.0
 10
-1.847610236220473
 20
1.206472440944882
 30
0.0
 10
-1.847610236220473
 20
1.206472440944882
 30
0.0
 10
-1.865110236220473
 20
1.157637795275591
 30
0.0
 10
-1.865110236220473
 20
1.157637795275591
 30
0.0
  0
SPLINE
  5
5F
330
1F
100
AcDbEntity
  8
LAYER_1
 62
   250
100
AcDbSpline
210
0.0
220
0.0
230
1.0
 70
    11
 71
     3
 72
    72
 73
    68
 74
     0
 42
0.0000000001
 43
0.0000000001
 40
0.0
 40
0.0
 40
0.0
 40
0.0
 40
0.0588235294117647
 40
0.0588235294117647
 40
0.0588235294117647
 40
0.0588235294117647
 40
0.1176470588235294
 40
0.1176470588235294
 40
0.1176470588235294
 40
0.1176470588235294
 40
0.1764705882352941
 40
0.1764705882352941
 40
0.1764705882352941
 40
0.1764705882352941
 40
0.2352941176470588
 40
0.2352941176470588
 40
0.2352941176470588
 40
0.2352941176470588
 40
0.2941176470588235
 40
0.2941176470588235
 40
0.2941176470588235
 40
0.2941176470588235
 40
0.3529411764705883
 40
0.3529411764705883
 40
0.3529411764705883
 40
0.3529411764705883
 40
0.411764705882353
 40
0.411764705882353
 40
0.411764705882353
 40
0.411764705882353
 40
0.4705882352941177
 40
0.4705882352941177
 40
0.4705882352941177
 40
0.4705882352941177
 40
0.5294117647058824
 40
0.5294117647058824
 40
0.5294117647058824
 40
0.5294117647058824
 40
0.5882352941176471
 40
0.5882352941176471
 40
0.5882352941176471
 40
0.5882352941176471
 40
0.6470588235294118
 40
0.6470588235294118
 40
0.6470588235294118
 40
0.6470588235294118
 40
0.7058823529411765
 40
0.7058823529411765
 40
0.7058823529411765
 40
0.7058823529411765
 40
0.7647058823529412
 40
0.7647058823529412
 40
0.7647058823529412
 40
0.7647058823529412
 40
0.823529411764706
 40
0.823529411764706
 40
0.823529411764706
 40
0.823529411764706
 40
0.8823529411764707
 40
0.8823529411764707
 40
0.8823529411764707
 40
0.8823529411764707
 40
0.9411764705882354
 40
0.9411764705882354
 40
0.9411764705882354
 40
0.9411764705882354
 40
1.0
 40
1.0
 40
1.0
 40
1.0
 10
-1.625027559055118
 20
1.221110236220472
 30
0.0
 10
-1.625027559055118
 20
1.221110236220472
 30
0.0
 10
-1.618944881889764
 20
1.221110236220472
 30
0.0
 10
-1.618944881889764
 20
1.221110236220472
 30
0.0
 10
-1.618944881889764
 20
1.221110236220472
 30
0.0
 10
-1.618944881889764
 20
1.221110236220472
 30
0.0
 10
-1.618944881889764
 20
1.12686220472441
 30
0.0
 10
-1.618944881889764
 20
1.12686220472441
 30
0.0
 10
-1.618944881889764
 20
1.12686220472441
 30
0.0
 10
-1.618944881889764
 20
1.122417322834646
 30
0.0
 10
-1.618637795275591
 20
1.119555118110236
 30
0.0
 10
-1.618082677165355
 20
1.118275590551181
 30
0.0
 10
-1.618082677165355
 20
1.118275590551181
 30
0.0
 10
-1.6175
 20
1.117
 30
0.0
 10
-1.616582677165354
 20
1.116055118110236
 30
0.0
 10
-1.615279527559055
 20
1.115389763779528
 30
0.0
 10
-1.615279527559055
 20
1.115389763779528
 30
0.0
 10
-1.613972440944882
 20
1.114748031496063
 30
0.0
 10
-1.611389763779528
 20
1.114417322834646
 30
0.0
 10
-1.607527559055118
 20
1.114417322834646
 30
0.0
 10
-1.607527559055118
 20
1.114417322834646
 30
0.0
 10
-1.607527559055118
 20
1.114417322834646
 30
0.0
 10
-1.599555118110236
 20
1.114417322834646
 30
0.0
 10
-1.599555118110236
 20
1.114417322834646
 30
0.0
 10
-1.599555118110236
 20
1.114417322834646
 30
0.0
 10
-1.599555118110236
 20
1.114417322834646
 30
0.0
 10
-1.599555118110236
 20
1.107582677165354
 30
0.0
 10
-1.599555118110236
 20
1.107582677165354
 30
0.0
 10
-1.599555118110236
 20
1.107582677165354
 30
0.0
 10
-1.599555118110236
 20
1.107582677165354
 30
0.0
 10
-1.653192913385827
 20
1.107582677165354
 30
0.0
 10
-1.653192913385827
 20
1.107582677165354
 30
0.0
 10
-1.653192913385827
 20
1.107582677165354
 30
0.0
 10
-1.653192913385827
 20
1.107582677165354
 30
0.0
 10
-1.653192913385827
 20
1.114417322834646
 30
0.0
 10
-1.653192913385827
 20
1.114417322834646
 30
0.0
 10
-1.653192913385827
 20
1.114417322834646
 30
0.0
 10
-1.653192913385827
 20
1.114417322834646
 30
0.0
 10
-1.644334645669291
 20
1.114417322834646
 30
0.0
 10
-1.644334645669291
 20
1.114417322834646
 30
0.0
 10
-1.644334645669291
 20
1.114417322834646
 30
0.0
 10
-1.640472440944882
 20
1.114417322834646
 30
0.0
 10
-1.637917322834646
 20
1.114748031496063
 30
0.0
 10
-1.636637795275591
 20
1.115444881889764
 30
0.0
 10
-1.636637795275591
 20
1.115444881889764
 30
0.0
 10
-1.635362204724409
 20
1.116110236220473
 30
0.0
 10
-1.63436220472441
 20
1.117192913385827
 30
0.0
 10
-1.633665354330709
 20
1.118692913385827
 30
0.0
 10
-1.633665354330709
 20
1.118692913385827
 30
0.0
 10
-1.632972440944882
 20
1.120192913385827
 30
0.0
 10
-1.632610236220472
 20
1.122917322834646
 30
0.0
 10
-1.632610236220472
 20
1.12686220472441
 30
0.0
 10
-1.632610236220472
 20
1.12686220472441
 30
0.0
 10
-1.632610236220472
 20
1.12686220472441
 30
0.0
 10
-1.632610236220472
 20
1.204330708661417
 30
0.0
 10
-1.632610236220472
 20
1.204330708661417
 30
0.0
 10
-1.632610236220472
 20
1.204330708661417
 30
0.0
 10
-1.632610236220472
 20
1.204330708661417
 30
0.0
 10
-1.653192913385827
 20
1.204330708661417
 30
0.0
 10
-1.653192913385827
 20
1.204330708661417
 30
0.0
 10
-1.653192913385827
 20
1.204330708661417
 30
0.0
 10
-1.653192913385827
 20
1.204330708661417
 30
0.0
 10
-1.653192913385827
 20
1.211330708661417
 30
0.0
 10
-1.653192913385827
 20
1.211330708661417
 30
0.0
 10
-1.653192913385827
 20
1.211330708661417
 30
0.0
 10
-1.641972440944882
 20
1.212913385826772
 30
0.0
 10
-1.632582677165354
 20
1.216165354330709
 30
0.0
 10
-1.625027559055118
 20
1.221110236220472
 30
0.0
  0
SPLINE
  5
60
330
1F
100
AcDbEntity
  8
LAYER_1
 62
   250
100
AcDbSpline
210
0.0
220
0.0
230
1.0
 70
    11
 71
     3
 72
    80
 73
    76
 74
     0
 42
0.0000000001
 43
0.0000000001
 40
0.0
 40
0.0
 40
0.0
 40
0.0
 40
0.0526315789473684
 40
0.0526315789473684
 40
0.0526315789473684
 40
0.0526315789473684
 40
0.1052631578947368
 40
0.1052631578947368
 40
0.1052631578947368
 40
0.1052631578947368
 40
0.1578947368421053
 40
0.1578947368421053
 40
0.1578947368421053
 40
0.1578947368421053
 40
0.2105263157894737
 40
0.2105263157894737
 40
0.2105263157894737
 40
0.2105263157894737
 40
0.2631578947368421
 40
0.2631578947368421
 40
0.2631578947368421
 40
0.2631578947368421
 40
0.3157894736842105
 40
0.3157894736842105
 40
0.3157894736842105
 40
0.3157894736842105
 40
0.3684210526315789
 40
0.3684210526315789
 40
0.3684210526315789
 40
0.3684210526315789
 40
0.4210526315789474
 40
0.4210526315789474
 40
0.4210526315789474
 40
0.4210526315789474
 40
0.4736842105263158
 40
0.4736842105263158
 40
0.4736842105263158
 40
0.4736842105263158
 40
0.5263157894736842
 40
0.5263157894736842
 40
0.5263157894736842
 40
0.5263157894736842
 40
0.5789473684210527
 40
0.5789473684210527
 40
0.5789473684210527
 40
0.5789473684210527
 40
0.631578947368421
 40
0.631578947368421
 40
0.631578947368421
 40
0.631578947368421
 40
0.6842105263157894
 40
0.6842105263157894
 40
0.6842105263157894
 40
0.6842105263157894
 40
0.7368421052631577
 40
0.7368421052631577
 40
0.7368421052631577
 40
0.7368421052631577
 40
0.7894736842105261
 40
0.7894736842105261
 40
0.7894736842105261
 40
0.7894736842105261
 40
0.8421052631578945
 40
0.8421052631578945
 40
0.8421052631578945
 40
0.8421052631578945
 40
0.8947368421052628
 40
0.8947368421052628
 40
0.8947368421052628
 40
0.8947368421052628
 40
0.9473684210526312
 40
0.9473684210526312
 40
0.9473684210526312
 40
0.9473684210526312
 40
1.0
 40
1.0
 40
1.0
 40
1.0
 10
-1.559610236220473
 20
1.225248031496063
 30
0.0
 10
-1.559610236220473
 20
1.225248031496063
 30
0.0
 10
-1.554220472440945
 20
1.225248031496063
 30
0.0
 10
-1.554220472440945
 20
1.225248031496063
 30
0.0
 10
-1.554220472440945
 20
1.225248031496063
 30
0.0
 10
-1.554220472440945
 20
1.225248031496063
 30
0.0
 10
-1.553248031496063
 20
1.221110236220472
 30
0.0
 10
-1.553248031496063
 20
1.221110236220472
 30
0.0
 10
-1.553248031496063
 20
1.221110236220472
 30
0.0
 10
-1.553248031496063
 20
1.221110236220472
 30
0.0
 10
-1.482137795275591
 20
1.221110236220472
 30
0.0
 10
-1.482137795275591
 20
1.221110236220472
 30
0.0
 10
-1.482137795275591
 20
1.221110236220472
 30
0.0
 10
-1.482137795275591
 20
1.221110236220472
 30
0.0
 10
-1.482137795275591
 20
1.214192913385827
 30
0.0
 10
-1.482137795275591
 20
1.214192913385827
 30
0.0
 10
-1.482137795275591
 20
1.214192913385827
 30
0.0
 10
-1.490637795275591
 20
1.204358267716535
 30
0.0
 10
-1.498362204724409
 20
1.193192913385827
 30
0.0
 10
-1.505275590551181
 20
1.180610236220473
 30
0.0
 10
-1.505275590551181
 20
1.180610236220473
 30
0.0
 10
-1.512192913385827
 20
1.168055118110236
 30
0.0
 10
-1.517555118110236
 20
1.155275590551181
 30
0.0
 10
-1.52136220472441
 20
1.142248031496063
 30
0.0
 10
-1.52136220472441
 20
1.142248031496063
 30
0.0
 10
-1.524110236220473
 20
1.13286220472441
 30
0.0
 10
-1.526358267716536
 20
1.121303149606299
 30
0.0
 10
-1.528110236220473
 20
1.107582677165354
 30
0.0
 10
-1.528110236220473
 20
1.107582677165354
 30
0.0
 10
-1.528110236220473
 20
1.107582677165354
 30
0.0
 10
-1.544775590551181
 20
1.107582677165354
 30
0.0
 10
-1.544775590551181
 20
1.107582677165354
 30
0.0
 10
-1.544775590551181
 20
1.107582677165354
 30
0.0
 10
-1.543165354330709
 20
1.119692913385827
 30
0.0
 10
-1.5405
 20
1.131
 30
0.0
 10
-1.536775590551181
 20
1.141527559055118
 30
0.0
 10
-1.536775590551181
 20
1.141527559055118
 30
0.0
 10
-1.533055118110236
 20
1.152055118110236
 30
0.0
 10
-1.527692913385827
 20
1.163055118110236
 30
0.0
 10
-1.520665354330709
 20
1.174527559055118
 30
0.0
 10
-1.520665354330709
 20
1.174527559055118
 30
0.0
 10
-1.513637795275591
 20
1.186
 30
0.0
 10
-1.505110236220473
 20
1.197444881889764
 30
0.0
 10
-1.495055118110236
 20
1.208885826771654
 30
0.0
 10
-1.495055118110236
 20
1.208885826771654
 30
0.0
 10
-1.495055118110236
 20
1.208885826771654
 30
0.0
 10
-1.545775590551181
 20
1.208885826771654
 30
0.0
 10
-1.545775590551181
 20
1.208885826771654
 30
0.0
 10
-1.545775590551181
 20
1.208885826771654
 30
0.0
 10
-1.549444881889764
 20
1.208885826771654
 30
0.0
 10
-1.551972440944882
 20
1.208720472440945
 30
0.0
 10
-1.553330708661417
 20
1.208330708661418
 30
0.0
 10
-1.553330708661417
 20
1.208330708661418
 30
0.0
 10
-1.554692913385827
 20
1.207944881889764
 30
0.0
 10
-1.555748031496063
 20
1.207358267716536
 30
0.0
 10
-1.5565
 20
1.206555118110236
 30
0.0
 10
-1.5565
 20
1.206555118110236
 30
0.0
 10
-1.557275590551181
 20
1.205720472440945
 30
0.0
 10
-1.557917322834646
 20
1.204275590551181
 30
0.0
 10
-1.558472440944882
 20
1.202220472440945
 30
0.0
 10
-1.558472440944882
 20
1.202220472440945
 30
0.0
 10
-1.558472440944882
 20
1.202220472440945
 30
0.0
 10
-1.558858267716536
 20
1.200692913385827
 30
0.0
 10
-1.558858267716536
 20
1.200692913385827
 30
0.0
 10
-1.558858267716536
 20
1.200692913385827
 30
0.0
 10
-1.558858267716536
 20
1.200692913385827
 30
0.0
 10
-1.561637795275591
 20
1.191082677165354
 30
0.0
 10
-1.561637795275591
 20
1.191082677165354
 30
0.0
 10
-1.561637795275591
 20
1.191082677165354
 30
0.0
 10
-1.561637795275591
 20
1.191082677165354
 30
0.0
 10
-1.568555118110236
 20
1.192555118110236
 30
0.0
 10
-1.568555118110236
 20
1.192555118110236
 30
0.0
 10
-1.568555118110236
 20
1.192555118110236
 30
0.0
 10
-1.568555118110236
 20
1.192555118110236
 30
0.0
 10
-1.559610236220473
 20
1.225248031496063
 30
0.0
 10
-1.559610236220473
 20
1.225248031496063
 30
0.0
  0
SPLINE
  5
61
330
1F
100
AcDbEntity
  8
LAYER_1
 62
   250
100
AcDbSpline
210
0.0
220
0.0
230
1.0
 70
    11
 71
     3
 72
    48
 73
    44
 74
     0
 42
0.0000000001
 43
0.0000000001
 40
0.0
 40
0.0
 40
0.0
 40
0.0
 40
0.0909090909090909
 40
0.0909090909090909
 40
0.0909090909090909
 40
0.0909090909090909
 40
0.1818181818181818
 40
0.1818181818181818
 40
0.1818181818181818
 40
0.1818181818181818
 40
0.2727272727272727
 40
0.2727272727272727
 40
0.2727272727272727
 40
0.2727272727272727
 40
0.3636363636363637
 40
0.3636363636363637
 40
0.3636363636363637
 40
0.3636363636363637
 40
0.4545454545454546
 40
0.4545454545454546
 40
0.4545454545454546
 40
0.4545454545454546
 40
0.5454545454545455
 40
0.5454545454545455
 40
0.5454545454545455
 40
0.5454545454545455
 40
0.6363636363636365
 40
0.6363636363636365
 40
0.6363636363636365
 40
0.6363636363636365
 40
0.7272727272727274
 40
0.7272727272727274
 40
0.7272727272727274
 40
0.7272727272727274
 40
0.8181818181818183
 40
0.8181818181818183
 40
0.8181818181818183
 40
0.8181818181818183
 40
0.9090909090909093
 40
0.9090909090909093
 40
0.9090909090909093
 40
0.9090909090909093
 40
1.0
 40
1.0
 40
1.0
 40
1.0
 10
-1.413913385826772
 20
1.221110236220472
 30
0.0
 10
-1.413913385826772
 20
1.221110236220472
 30
0.0
 10
-1.400165354330709
 20
1.221110236220472
 30
0.0
 10
-1.400165354330709
 20
1.221110236220472
 30
0.0
 10
-1.400165354330709
 20
1.221110236220472
 30
0.0
 10
-1.400165354330709
 20
1.221110236220472
 30
0.0
 10
-1.400165354330709
 20
1.155110236220472
 30
0.0
 10
-1.400165354330709
 20
1.155110236220472
 30
0.0
 10
-1.400165354330709
 20
1.155110236220472
 30
0.0
 10
-1.400165354330709
 20
1.155110236220472
 30
0.0
 10
-1.378830708661417
 20
1.155110236220472
 30
0.0
 10
-1.378830708661417
 20
1.155110236220472
 30
0.0
 10
-1.378830708661417
 20
1.155110236220472
 30
0.0
 10
-1.378830708661417
 20
1.155110236220472
 30
0.0
 10
-1.378830708661417
 20
1.144944881889764
 30
0.0
 10
-1.378830708661417
 20
1.144944881889764
 30
0.0
 10
-1.378830708661417
 20
1.144944881889764
 30
0.0
 10
-1.378830708661417
 20
1.144944881889764
 30
0.0
 10
-1.400165354330709
 20
1.144944881889764
 30
0.0
 10
-1.400165354330709
 20
1.144944881889764
 30
0.0
 10
-1.400165354330709
 20
1.144944881889764
 30
0.0
 10
-1.400165354330709
 20
1.144944881889764
 30
0.0
 10
-1.400165354330709
 20
1.107582677165354
 30
0.0
 10
-1.400165354330709
 20
1.107582677165354
 30
0.0
 10
-1.400165354330709
 20
1.107582677165354
 30
0.0
 10
-1.400165354330709
 20
1.107582677165354
 30
0.0
 10
-1.413913385826772
 20
1.107582677165354
 30
0.0
 10
-1.413913385826772
 20
1.107582677165354
 30
0.0
 10
-1.413913385826772
 20
1.107582677165354
 30
0.0
 10
-1.413913385826772
 20
1.107582677165354
 30
0.0
 10
-1.413913385826772
 20
1.144944881889764
 30
0.0
 10
-1.413913385826772
 20
1.144944881889764
 30
0.0
 10
-1.413913385826772
 20
1.144944881889764
 30
0.0
 10
-1.413913385826772
 20
1.144944881889764
 30
0.0
 10
-1.467385826771654
 20
1.144944881889764
 30
0.0
 10
-1.467385826771654
 20
1.144944881889764
 30
0.0
 10
-1.467385826771654
 20
1.144944881889764
 30
0.0
 10
-1.467385826771654
 20
1.144944881889764
 30
0.0
 10
-1.467385826771654
 20
1.159248031496063
 30
0.0
 10
-1.467385826771654
 20
1.159248031496063
 30
0.0
 10
-1.467385826771654
 20
1.159248031496063
 30
0.0
 10
-1.467385826771654
 20
1.159248031496063
 30
0.0
 10
-1.413913385826772
 20
1.221110236220472
 30
0.0
 10
-1.413913385826772
 20
1.221110236220472
 30
0.0
  0
SPLINE
  5
62
330
1F
100
AcDbEntity
  8
LAYER_1
 62
   250
100
AcDbSpline
210
0.0
220
0.0
230
1.0
 70
    11
 71
     3
 72
    16
 73
    12
 74
     0
 42
0.0000000001
 43
0.0000000001
 40
0.0
 40
0.0
 40
0.0
 40
0.0
 40
0.3333333333333333
 40
0.3333333333333333
 40
0.3333333333333333
 40
0.3333333333333333
 40
0.6666666666666666
 40
0.6666666666666666
 40
0.6666666666666666
 40
0.6666666666666666
 40
1.0
 40
1.0
 40
1.0
 40
1.0
 10
-1.413913385826772
 20
1.155110236220472
 30
0.0
 10
-1.413913385826772
 20
1.155110236220472
 30
0.0
 10
-1.413913385826772
 20
1.2085
 30
0.0
 10
-1.413913385826772
 20
1.2085
 30
0.0
 10
-1.413913385826772
 20
1.2085
 30
0.0
 10
-1.413913385826772
 20
1.2085
 30
0.0
 10
-1.459968503937008
 20
1.155110236220472
 30
0.0
 10
-1.459968503937008
 20
1.155110236220472
 30
0.0
 10
-1.459968503937008
 20
1.155110236220472
 30
0.0
 10
-1.459968503937008
 20
1.155110236220472
 30
0.0
 10
-1.413913385826772
 20
1.155110236220472
 30
0.0
 10
-1.413913385826772
 20
1.155110236220472
 30
0.0
  0
SPLINE
  5
63
330
1F
100
AcDbEntity
  8
LAYER_1
 62
   250
100
AcDbSpline
210
0.0
220
0.0
230
1.0
 70
    11
 71
     3
 72
   136
 73
   132
 74
     0
 42
0.0000000001
 43
0.0000000001
 40
0.0
 40
0.0
 40
0.0
 40
0.0
 40
0.0303030303030303
 40
0.0303030303030303
 40
0.0303030303030303
 40
0.0303030303030303
 40
0.0606060606060606
 40
0.0606060606060606
 40
0.0606060606060606
 40
0.0606060606060606
 40
0.0909090909090909
 40
0.0909090909090909
 40
0.0909090909090909
 40
0.0909090909090909
 40
0.1212121212121212
 40
0.1212121212121212
 40
0.1212121212121212
 40
0.1212121212121212
 40
0.1515151515151515
 40
0.1515151515151515
 40
0.1515151515151515
 40
0.1515151515151515
 40
0.1818181818181818
 40
0.1818181818181818
 40
0.1818181818181818
 40
0.1818181818181818
 40
0.2121212121212121
 40
0.2121212121212121
 40
0.2121212121212121
 40
0.2121212121212121
 40
0.2424242424242424
 40
0.2424242424242424
 40
0.2424242424242424
 40
0.2424242424242424
 40
0.2727272727272727
 40
0.2727272727272727
 40
0.2727272727272727
 40
0.2727272727272727
 40
0.303030303030303
 40
0.303030303030303
 40
0.303030303030303
 40
0.303030303030303
 40
0.3333333333333333
 40
0.3333333333333333
 40
0.3333333333333333
 40
0.3333333333333333
 40
0.3636363636363635
 40
0.3636363636363635
 40
0.3636363636363635
 40
0.3636363636363635
 40
0.3939393939393938
 40
0.3939393939393938
 40
0.3939393939393938
 40
0.3939393939393938
 40
0.4242424242424241
 40
0.4242424242424241
 40
0.4242424242424241
 40
0.4242424242424241
 40
0.4545454545454544
 40
0.4545454545454544
 40
0.4545454545454544
 40
0.4545454545454544
 40
0.4848484848484846
 40
0.4848484848484846
 40
0.4848484848484846
 40
0.4848484848484846
 40
0.5151515151515149
 40
0.5151515151515149
 40
0.5151515151515149
 40
0.5151515151515149
 40
0.5454545454545452
 40
0.5454545454545452
 40
0.5454545454545452
 40
0.5454545454545452
 40
0.5757575757575755
 40
0.5757575757575755
 40
0.5757575757575755
 40
0.5757575757575755
 40
0.6060606060606057
 40
0.6060606060606057
 40
0.6060606060606057
 40
0.6060606060606057
 40
0.636363636363636
 40
0.636363636363636
 40
0.636363636363636
 40
0.636363636363636
 40
0.6666666666666663
 40
0.6666666666666663
 40
0.6666666666666663
 40
0.6666666666666663
 40
0.6969696969696966
 40
0.6969696969696966
 40
0.6969696969696966
 40
0.6969696969696966
 40
0.7272727272727269
 40
0.7272727272727269
 40
0.7272727272727269
 40
0.7272727272727269
 40
0.7575757575757571
 40
0.7575757575757571
 40
0.7575757575757571
 40
0.7575757575757571
 40
0.7878787878787874
 40
0.7878787878787874
 40
0.7878787878787874
 40
0.7878787878787874
 40
0.8181818181818177
 40
0.8181818181818177
 40
0.8181818181818177
 40
0.8181818181818177
 40
0.848484848484848
 40
0.848484848484848
 40
0.848484848484848
 40
0.848484848484848
 40
0.8787878787878782
 40
0.8787878787878782
 40
0.8787878787878782
 40
0.8787878787878782
 40
0.9090909090909085
 40
0.9090909090909085
 40
0.9090909090909085
 40
0.9090909090909085
 40
0.9393939393939388
 40
0.9393939393939388
 40
0.9393939393939388
 40
0.9393939393939388
 40
0.9696969696969691
 40
0.9696969696969691
 40
0.9696969696969691
 40
0.9696969696969691
 40
1.0
 40
1.0
 40
1.0
 40
1.0
 10
-1.352051181102362
 20
1.178303149606299
 30
0.0
 10
-1.352051181102362
 20
1.178303149606299
 30
0.0
 10
-1.35994094488189
 20
1.177330708661417
 30
0.0
 10
-1.35994094488189
 20
1.177330708661417
 30
0.0
 10
-1.35994094488189
 20
1.177330708661417
 30
0.0
 10
-1.360385826771654
 20
1.181165354330709
 30
0.0
 10
-1.360606299212599
 20
1.184330708661417
 30
0.0
 10
-1.360606299212599
 20
1.186775590551181
 30
0.0
 10
-1.360606299212599
 20
1.186775590551181
 30
0.0
 10
-1.360606299212599
 20
1.193165354330709
 30
0.0
 10
-1.358858267716536
 20
1.199220472440945
 30
0.0
 10
-1.355385826771654
 20
1.204913385826772
 30
0.0
 10
-1.355385826771654
 20
1.204913385826772
 30
0.0
 10
-1.351913385826772
 20
1.210610236220473
 30
0.0
 10
-1.34707874015748
 20
1.215055118110236
 30
0.0
 10
-1.340858267716536
 20
1.218248031496063
 30
0.0
 10
-1.340858267716536
 20
1.218248031496063
 30
0.0
 10
-1.334665354330709
 20
1.221472440944882
 30
0.0
 10
-1.327523622047244
 20
1.223055118110236
 30
0.0
 10
-1.319496062992126
 20
1.223055118110236
 30
0.0
 10
-1.319496062992126
 20
1.223055118110236
 30
0.0
 10
-1.311748031496063
 20
1.223055118110236
 30
0.0
 10
-1.30494094488189
 20
1.221555118110236
 30
0.0
 10
-1.29907874015748
 20
1.218555118110236
 30
0.0
 10
-1.29907874015748
 20
1.218555118110236
 30
0.0
 10
-1.293220472440945
 20
1.215527559055118
 30
0.0
 10
-1.288748031496063
 20
1.211413385826772
 30
0.0
 10
-1.285610236220472
 20
1.206165354330709
 30
0.0
 10
-1.285610236220472
 20
1.206165354330709
 30
0.0
 10
-1.282496062992126
 20
1.200944881889764
 30
0.0
 10
-1.28094094488189
 20
1.194972440944882
 30
0.0
 10
-1.28094094488189
 20
1.188220472440945
 30
0.0
 10
-1.28094094488189
 20
1.188220472440945
 30
0.0
 10
-1.28094094488189
 20
1.182527559055118
 30
0.0
 10
-1.28194094488189
 20
1.177248031496063
 30
0.0
 10
-1.283996062992126
 20
1.172417322834646
 30
0.0
 10
-1.283996062992126
 20
1.172417322834646
 30
0.0
 10
-1.286023622047244
 20
1.167555118110236
 30
0.0
 10
-1.289303149606299
 20
1.162637795275591
 30
0.0
 10
-1.293803149606299
 20
1.157720472440945
 30
0.0
 10
-1.293803149606299
 20
1.157720472440945
 30
0.0
 10
-1.297165354330709
 20
1.154027559055118
 30
0.0
 10
-1.303968503937008
 20
1.148389763779528
 30
0.0
 10
-1.314220472440945
 20
1.140775590551181
 30
0.0
 10
-1.314220472440945
 20
1.140775590551181
 30
0.0
 10
-1.327133858267717
 20
1.131137795275591
 30
0.0
 10
-1.337023622047244
 20
1.124137795275591
 30
0.0
 10
-1.343913385826772
 20
1.119775590551181
 30
0.0
 10
-1.343913385826772
 20
1.119775590551181
 30
0.0
 10
-1.343913385826772
 20
1.119775590551181
 30
0.0
 10
-1.301606299212599
 20
1.119775590551181
 30
0.0
 10
-1.301606299212599
 20
1.119775590551181
 30
0.0
 10
-1.301606299212599
 20
1.119775590551181
 30
0.0
 10
-1.296606299212598
 20
1.119775590551181
 30
0.0
 10
-1.293358267716535
 20
1.120248031496063
 30
0.0
 10
-1.291830708661417
 20
1.121165354330709
 30
0.0
 10
-1.291830708661417
 20
1.121165354330709
 30
0.0
 10
-1.289720472440945
 20
1.12236220472441
 30
0.0
 10
-1.288275590551181
 20
1.125137795275591
 30
0.0
 10
-1.287523622047244
 20
1.129472440944882
 30
0.0
 10
-1.287523622047244
 20
1.129472440944882
 30
0.0
 10
-1.287523622047244
 20
1.129472440944882
 30
0.0
 10
-1.286803149606299
 20
1.134110236220473
 30
0.0
 10
-1.286803149606299
 20
1.134110236220473
 30
0.0
 10
-1.286803149606299
 20
1.134110236220473
 30
0.0
 10
-1.286803149606299
 20
1.134110236220473
 30
0.0
 10
-1.279885826771654
 20
1.134110236220473
 30
0.0
 10
-1.279885826771654
 20
1.134110236220473
 30
0.0
 10
-1.279885826771654
 20
1.134110236220473
 30
0.0
 10
-1.279885826771654
 20
1.134110236220473
 30
0.0
 10
-1.285413385826772
 20
1.103527559055118
 30
0.0
 10
-1.285413385826772
 20
1.103527559055118
 30
0.0
 10
-1.285413385826772
 20
1.103527559055118
 30
0.0
 10
-1.285413385826772
 20
1.103527559055118
 30
0.0
 10
-1.290606299212598
 20
1.103527559055118
 30
0.0
 10
-1.290606299212598
 20
1.103527559055118
 30
0.0
 10
-1.290606299212598
 20
1.103527559055118
 30
0.0
 10
-1.290606299212598
 20
1.103527559055118
 30
0.0
 10
-1.291523622047244
 20
1.107582677165354
 30
0.0
 10
-1.291523622047244
 20
1.107582677165354
 30
0.0
 10
-1.291523622047244
 20
1.107582677165354
 30
0.0
 10
-1.291523622047244
 20
1.107582677165354
 30
0.0
 10
-1.362633858267717
 20
1.107582677165354
 30
0.0
 10
-1.362633858267717
 20
1.107582677165354
 30
0.0
 10
-1.362633858267717
 20
1.107582677165354
 30
0.0
 10
-1.362633858267717
 20
1.107582677165354
 30
0.0
 10
-1.362633858267717
 20
1.114417322834646
 30
0.0
 10
-1.362633858267717
 20
1.114417322834646
 30
0.0
 10
-1.362633858267717
 20
1.114417322834646
 30
0.0
 10
-1.362633858267717
 20
1.114417322834646
 30
0.0
 10
-1.349606299212599
 20
1.124275590551181
 30
0.0
 10
-1.349606299212599
 20
1.124275590551181
 30
0.0
 10
-1.349606299212599
 20
1.124275590551181
 30
0.0
 10
-1.339748031496063
 20
1.131582677165354
 30
0.0
 10
-1.332496062992126
 20
1.137192913385827
 30
0.0
 10
-1.327885826771654
 20
1.141110236220473
 30
0.0
 10
-1.327885826771654
 20
1.141110236220473
 30
0.0
 10
-1.319165354330709
 20
1.1485
 30
0.0
 10
-1.31257874015748
 20
1.154803149606299
 30
0.0
 10
-1.308165354330709
 20
1.160027559055118
 30
0.0
 10
-1.308165354330709
 20
1.160027559055118
 30
0.0
 10
-1.303748031496063
 20
1.165275590551181
 30
0.0
 10
-1.300692913385827
 20
1.17
 30
0.0
 10
-1.299051181102362
 20
1.174192913385827
 30
0.0
 10
-1.299051181102362
 20
1.174192913385827
 30
0.0
 10
-1.297385826771654
 20
1.178385826771654
 30
0.0
 10
-1.296551181102362
 20
1.182803149606299
 30
0.0
 10
-1.296551181102362
 20
1.187417322834646
 30
0.0
 10
-1.296551181102362
 20
1.187417322834646
 30
0.0
 10
-1.296551181102362
 20
1.195055118110236
 30
0.0
 10
-1.299023622047244
 20
1.201330708661417
 30
0.0
 10
-1.303913385826772
 20
1.206220472440945
 30
0.0
 10
-1.303913385826772
 20
1.206220472440945
 30
0.0
 10
-1.308830708661417
 20
1.211110236220472
 30
0.0
 10
-1.315220472440945
 20
1.213527559055118
 30
0.0
 10
-1.32307874015748
 20
1.213527559055118
 30
0.0
 10
-1.32307874015748
 20
1.213527559055118
 30
0.0
 10
-1.328720472440945
 20
1.213527559055118
 30
0.0
 10
-1.333775590551181
 20
1.212330708661418
 30
0.0
 10
-1.338192913385827
 20
1.209885826771654
 30
0.0
 10
-1.338192913385827
 20
1.209885826771654
 30
0.0
 10
-1.342606299212598
 20
1.207444881889764
 30
0.0
 10
-1.34607874015748
 20
1.204027559055118
 30
0.0
 10
-1.348633858267717
 20
1.199610236220473
 30
0.0
 10
-1.348633858267717
 20
1.199610236220473
 30
0.0
 10
-1.351192913385827
 20
1.195220472440945
 30
0.0
 10
-1.352468503937008
 20
1.190472440944882
 30
0.0
 10
-1.352468503937008
 20
1.185385826771654
 30
0.0
 10
-1.352468503937008
 20
1.185385826771654
 30
0.0
 10
-1.352468503937008
 20
1.183472440944882
 30
0.0
 10
-1.352330708661417
 20
1.181110236220472
 30
0.0
 10
-1.352051181102362
 20
1.178303149606299
 30
0.0
  0
SPLINE
  5
64
330
1F
100
AcDbEntity
  8
LAYER_1
 62
   250
100
AcDbSpline
210
0.0
220
0.0
230
1.0
 70
    11
 71
     3
 72
   172
 73
   168
 74
     0
 42
0.0000000001
 43
0.0000000001
 40
0.0
 40
0.0
 40
0.0
 40
0.0
 40
0.0238095238095238
 40
0.0238095238095238
 40
0.0238095238095238
 40
0.0238095238095238
 40
0.0476190476190476
 40
0.0476190476190476
 40
0.0476190476190476
 40
0.0476190476190476
 40
0.0714285714285714
 40
0.0714285714285714
 40
0.0714285714285714
 40
0.0714285714285714
 40
0.0952380952380952
 40
0.0952380952380952
 40
0.0952380952380952
 40
0.0952380952380952
 40
0.119047619047619
 40
0.119047619047619
 40
0.119047619047619
 40
0.119047619047619
 40
0.1428571428571429
 40
0.1428571428571429
 40
0.1428571428571429
 40
0.1428571428571429
 40
0.1666666666666667
 40
0.1666666666666667
 40
0.1666666666666667
 40
0.1666666666666667
 40
0.1904761904761905
 40
0.1904761904761905
 40
0.1904761904761905
 40
0.1904761904761905
 40
0.2142857142857143
 40
0.2142857142857143
 40
0.2142857142857143
 40
0.2142857142857143
 40
0.2380952380952381
 40
0.2380952380952381
 40
0.2380952380952381
 40
0.2380952380952381
 40
0.2619047619047619
 40
0.2619047619047619
 40
0.2619047619047619
 40
0.2619047619047619
 40
0.2857142857142857
 40
0.2857142857142857
 40
0.2857142857142857
 40
0.2857142857142857
 40
0.3095238095238095
 40
0.3095238095238095
 40
0.3095238095238095
 40
0.3095238095238095
 40
0.3333333333333334
 40
0.3333333333333334
 40
0.3333333333333334
 40
0.3333333333333334
 40
0.3571428571428572
 40
0.3571428571428572
 40
0.3571428571428572
 40
0.3571428571428572
 40
0.380952380952381
 40
0.380952380952381
 40
0.380952380952381
 40
0.380952380952381
 40
0.4047619047619049
 40
0.4047619047619049
 40
0.4047619047619049
 40
0.4047619047619049
 40
0.4285714285714287
 40
0.4285714285714287
 40
0.4285714285714287
 40
0.4285714285714287
 40
0.4523809523809526
 40
0.4523809523809526
 40
0.4523809523809526
 40
0.4523809523809526
 40
0.4761904761904764
 40
0.4761904761904764
 40
0.4761904761904764
 40
0.4761904761904764
 40
0.5000000000000002
 40
0.5000000000000002
 40
0.5000000000000002
 40
0.5000000000000002
 40
0.5238095238095241
 40
0.5238095238095241
 40
0.5238095238095241
 40
0.5238095238095241
 40
0.5476190476190479
 40
0.5476190476190479
 40
0.5476190476190479
 40
0.5476190476190479
 40
0.5714285714285717
 40
0.5714285714285717
 40
0.5714285714285717
 40
0.5714285714285717
 40
0.5952380952380956
 40
0.5952380952380956
 40
0.5952380952380956
 40
0.5952380952380956
 40
0.6190476190476194
 40
0.6190476190476194
 40
0.6190476190476194
 40
0.6190476190476194
 40
0.6428571428571432
 40
0.6428571428571432
 40
0.6428571428571432
 40
0.6428571428571432
 40
0.6666666666666671
 40
0.6666666666666671
 40
0.6666666666666671
 40
0.6666666666666671
 40
0.6904761904761909
 40
0.6904761904761909
 40
0.6904761904761909
 40
0.6904761904761909
 40
0.7142857142857148
 40
0.7142857142857148
 40
0.7142857142857148
 40
0.7142857142857148
 40
0.7380952380952386
 40
0.7380952380952386
 40
0.7380952380952386
 40
0.7380952380952386
 40
0.7619047619047624
 40
0.7619047619047624
 40
0.7619047619047624
 40
0.7619047619047624
 40
0.7857142857142863
 40
0.7857142857142863
 40
0.7857142857142863
 40
0.7857142857142863
 40
0.8095238095238101
 40
0.8095238095238101
 40
0.8095238095238101
 40
0.8095238095238101
 40
0.8333333333333339
 40
0.8333333333333339
 40
0.8333333333333339
 40
0.8333333333333339
 40
0.8571428571428578
 40
0.8571428571428578
 40
0.8571428571428578
 40
0.8571428571428578
 40
0.8809523809523816
 40
0.8809523809523816
 40
0.8809523809523816
 40
0.8809523809523816
 40
0.9047619047619054
 40
0.9047619047619054
 40
0.9047619047619054
 40
0.9047619047619054
 40
0.9285714285714293
 40
0.9285714285714293
 40
0.9285714285714293
 40
0.9285714285714293
 40
0.9523809523809531
 40
0.9523809523809531
 40
0.9523809523809531
 40
0.9523809523809531
 40
0.9761904761904769
 40
0.9761904761904769
 40
0.9761904761904769
 40
0.9761904761904769
 40
1.0
 40
1.0
 40
1.0
 40
1.0
 10
-2.182232283464567
 20
1.003248031496063
 30
0.0
 10
-2.182232283464567
 20
1.003248031496063
 30
0.0
 10
-2.19003937007874
 20
1.004472440944882
 30
0.0
 10
-2.19003937007874
 20
1.004472440944882
 30
0.0
 10
-2.19003937007874
 20
1.004472440944882
 30
0.0
 10
-2.189342519685039
 20
1.010330708661417
 30
0.0
 10
-2.187814960629921
 20
1.015192913385827
 30
0.0
 10
-2.18548031496063
 20
1.019055118110236
 30
0.0
 10
-2.18548031496063
 20
1.019055118110236
 30
0.0
 10
-2.182397637795276
 20
1.024248031496063
 30
0.0
 10
-2.17803937007874
 20
1.028303149606299
 30
0.0
 10
-2.172397637795276
 20
1.031192913385827
 30
0.0
 10
-2.172397637795276
 20
1.031192913385827
 30
0.0
 10
-2.166732283464567
 20
1.034110236220472
 30
0.0
 10
-2.160259842519685
 20
1.035555118110236
 30
0.0
 10
-2.152925196850394
 20
1.035555118110236
 30
0.0
 10
-2.152925196850394
 20
1.035555118110236
 30
0.0
 10
-2.145732283464567
 20
1.035555118110236
 30
0.0
 10
-2.139370078740158
 20
1.034275590551181
 30
0.0
 10
-2.133897637795276
 20
1.031692913385827
 30
0.0
 10
-2.133897637795276
 20
1.031692913385827
 30
0.0
 10
-2.128425196850394
 20
1.029110236220473
 30
0.0
 10
-2.124287401574803
 20
1.025692913385827
 30
0.0
 10
-2.121484251968504
 20
1.021444881889764
 30
0.0
 10
-2.121484251968504
 20
1.021444881889764
 30
0.0
 10
-2.118677165354331
 20
1.017192913385827
 30
0.0
 10
-2.117287401574803
 20
1.012582677165354
 30
0.0
 10
-2.117287401574803
 20
1.007637795275591
 30
0.0
 10
-2.117287401574803
 20
1.007637795275591
 30
0.0
 10
-2.117287401574803
 20
1.003303149606299
 30
0.0
 10
-2.11834251968504
 20
0.9994173228346457
 30
0.0
 10
-2.120456692913386
 20
0.996
 30
0.0
 10
-2.120456692913386
 20
0.996
 30
0.0
 10
-2.122594488188977
 20
0.9925826771653544
 30
0.0
 10
-2.125732283464567
 20
0.9895275590551181
 30
0.0
 10
-2.129897637795276
 20
0.9868031496062992
 30
0.0
 10
-2.129897637795276
 20
0.9868031496062992
 30
0.0
 10
-2.13284251968504
 20
0.9849173228346457
 30
0.0
 10
-2.136649606299213
 20
0.983248031496063
 30
0.0
 10
-2.141370078740158
 20
0.9818582677165355
 30
0.0
 10
-2.141370078740158
 20
0.9818582677165355
 30
0.0
 10
-2.136342519685039
 20
0.9811377952755906
 30
0.0
 10
-2.132204724409449
 20
0.9799724409448819
 30
0.0
 10
-2.129011811023622
 20
0.9783582677165355
 30
0.0
 10
-2.129011811023622
 20
0.9783582677165355
 30
0.0
 10
-2.123814960629921
 20
0.9756929133858268
 30
0.0
 10
-2.119704724409449
 20
0.9720275590551182
 30
0.0
 10
-2.116732283464567
 20
0.9673582677165354
 30
0.0
 10
-2.116732283464567
 20
0.9673582677165354
 30
0.0
 10
-2.113732283464567
 20
0.9626929133858269
 30
0.0
 10
-2.112259842519685
 20
0.9575826771653544
 30
0.0
 10
-2.112259842519685
 20
0.9519724409448819
 30
0.0
 10
-2.112259842519685
 20
0.9519724409448819
 30
0.0
 10
-2.112259842519685
 20
0.9430275590551182
 30
0.0
 10
-2.116177165354331
 20
0.9351377952755906
 30
0.0
 10
-2.12403937007874
 20
0.9283307086614173
 30
0.0
 10
-2.12403937007874
 20
0.9283307086614173
 30
0.0
 10
-2.131925196850394
 20
0.9215275590551182
 30
0.0
 10
-2.142094488188977
 20
0.9181377952755906
 30
0.0
 10
-2.154566929133858
 20
0.9181377952755906
 30
0.0
 10
-2.154566929133858
 20
0.9181377952755906
 30
0.0
 10
-2.166870078740157
 20
0.9181377952755906
 30
0.0
 10
-2.177232283464567
 20
0.9214173228346457
 30
0.0
 10
-2.185649606299213
 20
0.927972440944882
 30
0.0
 10
-2.185649606299213
 20
0.927972440944882
 30
0.0
 10
-2.192704724409449
 20
0.9335551181102363
 30
0.0
 10
-2.196232283464567
 20
0.9391929133858268
 30
0.0
 10
-2.196232283464567
 20
0.9448307086614174
 30
0.0
 10
-2.196232283464567
 20
0.9448307086614174
 30
0.0
 10
-2.196232283464567
 20
0.9470551181102362
 30
0.0
 10
-2.195507874015748
 20
0.9489173228346457
 30
0.0
 10
-2.194066929133858
 20
0.9503897637795276
 30
0.0
 10
-2.194066929133858
 20
0.9503897637795276
 30
0.0
 10
-2.192649606299213
 20
0.9518897637795276
 30
0.0
 10
-2.190842519685039
 20
0.9526377952755906
 30
0.0
 10
-2.188649606299213
 20
0.9526377952755906
 30
0.0
 10
-2.188649606299213
 20
0.9526377952755906
 30
0.0
 10
-2.186287401574803
 20
0.9526377952755906
 30
0.0
 10
-2.184232283464567
 20
0.9517204724409449
 30
0.0
 10
-2.182566929133858
 20
0.9498582677165355
 30
0.0
 10
-2.182566929133858
 20
0.9498582677165355
 30
0.0
 10
-2.181649606299213
 20
0.9488307086614174
 30
0.0
 10
-2.180566929133859
 20
0.9463622047244095
 30
0.0
 10
-2.179397637795276
 20
0.9424724409448819
 30
0.0
 10
-2.179397637795276
 20
0.9424724409448819
 30
0.0
 10
-2.177704724409449
 20
0.936972440944882
 30
0.0
 10
-2.174842519685039
 20
0.9328031496062993
 30
0.0
 10
-2.170842519685039
 20
0.9299448818897638
 30
0.0
 10
-2.170842519685039
 20
0.9299448818897638
 30
0.0
 10
-2.166814960629921
 20
0.9270551181102362
 30
0.0
 10
-2.16184251968504
 20
0.9256102362204725
 30
0.0
 10
-2.155870078740158
 20
0.9256102362204725
 30
0.0
 10
-2.155870078740158
 20
0.9256102362204725
 30
0.0
 10
-2.15053937007874
 20
0.9256102362204725
 30
0.0
 10
-2.145787401574803
 20
0.9267755905511811
 30
0.0
 10
-2.141594488188976
 20
0.9291102362204725
 30
0.0
 10
-2.141594488188976
 20
0.9291102362204725
 30
0.0
 10
-2.137370078740158
 20
0.9314448818897638
 30
0.0
 10
-2.134066929133859
 20
0.934748031496063
 30
0.0
 10
-2.131622047244095
 20
0.9390551181102362
 30
0.0
 10
-2.131622047244095
 20
0.9390551181102362
 30
0.0
 10
-2.129177165354331
 20
0.9433307086614173
 30
0.0
 10
-2.127952755905512
 20
0.9480275590551182
 30
0.0
 10
-2.127952755905512
 20
0.9531102362204725
 30
0.0
 10
-2.127952755905512
 20
0.9531102362204725
 30
0.0
 10
-2.127952755905512
 20
0.9572480314960631
 30
0.0
 10
-2.12884251968504
 20
0.9609448818897638
 30
0.0
 10
-2.130594488188977
 20
0.9642204724409449
 30
0.0
 10
-2.130594488188977
 20
0.9642204724409449
 30
0.0
 10
-2.132370078740157
 20
0.9675275590551181
 30
0.0
 10
-2.134870078740158
 20
0.9703031496062993
 30
0.0
 10
-2.138122047244095
 20
0.9725826771653544
 30
0.0
 10
-2.138122047244095
 20
0.9725826771653544
 30
0.0
 10
-2.140622047244094
 20
0.9743582677165354
 30
0.0
 10
-2.143814960629921
 20
0.9756102362204725
 30
0.0
 10
-2.147677165354331
 20
0.9763031496062993
 30
0.0
 10
-2.147677165354331
 20
0.9763031496062993
 30
0.0
 10
-2.151566929133858
 20
0.9770275590551182
 30
0.0
 10
-2.155066929133858
 20
0.9773858267716535
 30
0.0
 10
-2.158149606299213
 20
0.9773858267716535
 30
0.0
 10
-2.158149606299213
 20
0.9773858267716535
 30
0.0
 10
-2.158149606299213
 20
0.9773858267716535
 30
0.0
 10
-2.165704724409449
 20
0.9773858267716535
 30
0.0
 10
-2.165704724409449
 20
0.9773858267716535
 30
0.0
 10
-2.165704724409449
 20
0.9773858267716535
 30
0.0
 10
-2.165704724409449
 20
0.9773858267716535
 30
0.0
 10
-2.165704724409449
 20
0.9852755905511812
 30
0.0
 10
-2.165704724409449
 20
0.9852755905511812
 30
0.0
 10
-2.165704724409449
 20
0.9852755905511812
 30
0.0
 10
-2.165704724409449
 20
0.9852755905511812
 30
0.0
 10
-2.160897637795276
 20
0.9852755905511812
 30
0.0
 10
-2.160897637795276
 20
0.9852755905511812
 30
0.0
 10
-2.160897637795276
 20
0.9852755905511812
 30
0.0
 10
-2.156149606299213
 20
0.9852755905511812
 30
0.0
 10
-2.151594488188977
 20
0.9858307086614173
 30
0.0
 10
-2.147232283464567
 20
0.9869448818897638
 30
0.0
 10
-2.147232283464567
 20
0.9869448818897638
 30
0.0
 10
-2.142897637795276
 20
0.9880551181102363
 30
0.0
 10
-2.139425196850394
 20
0.9903307086614174
 30
0.0
 10
-2.136814960629921
 20
0.9938031496062992
 30
0.0
 10
-2.136814960629921
 20
0.9938031496062992
 30
0.0
 10
-2.134232283464567
 20
0.9972755905511811
 30
0.0
 10
-2.132925196850394
 20
1.001220472440945
 30
0.0
 10
-2.132925196850394
 20
1.005610236220472
 30
0.0
 10
-2.132925196850394
 20
1.005610236220472
 30
0.0
 10
-2.132925196850394
 20
1.009413385826772
 30
0.0
 10
-2.133814960629922
 20
1.012830708661417
 30
0.0
 10
-2.135649606299213
 20
1.015858267716536
 30
0.0
 10
-2.135649606299213
 20
1.015858267716536
 30
0.0
 10
-2.137452755905512
 20
1.018913385826772
 30
0.0
 10
-2.140122047244095
 20
1.021330708661417
 30
0.0
 10
-2.143649606299213
 20
1.023110236220473
 30
0.0
 10
-2.143649606299213
 20
1.023110236220473
 30
0.0
 10
-2.147177165354331
 20
1.024885826771654
 30
0.0
 10
-2.151259842519685
 20
1.025803149606299
 30
0.0
 10
-2.155870078740158
 20
1.025803149606299
 30
0.0
 10
-2.155870078740158
 20
1.025803149606299
 30
0.0
 10
-2.160370078740157
 20
1.025803149606299
 30
0.0
 10
-2.164511811023622
 20
1.024858267716535
 30
0.0
 10
-2.168287401574803
 20
1.023027559055118
 30
0.0
 10
-2.168287401574803
 20
1.023027559055118
 30
0.0
 10
-2.17203937007874
 20
1.021192913385827
 30
0.0
 10
-2.175066929133859
 20
1.018720472440945
 30
0.0
 10
-2.177342519685039
 20
1.015610236220472
 30
0.0
 10
-2.177342519685039
 20
1.015610236220472
 30
0.0
 10
-2.179622047244095
 20
1.012527559055118
 30
0.0
 10
-2.181259842519685
 20
1.008413385826772
 30
0.0
 10
-2.182232283464567
 20
1.003248031496063
 30
0.0
  0
SPLINE
  5
65
330
1F
100
AcDbEntity
  8
LAYER_1
 62
   250
100
AcDbSpline
210
0.0
220
0.0
230
1.0
 70
    11
 71
     3
 72
    20
 73
    16
 74
     0
 42
0.0000000001
 43
0.0000000001
 40
0.0
 40
0.0
 40
0.0
 40
0.0
 40
0.25
 40
0.25
 40
0.25
 40
0.25
 40
0.5
 40
0.5
 40
0.5
 40
0.5
 40
0.75
 40
0.75
 40
0.75
 40
0.75
 40
1.0
 40
1.0
 40
1.0
 40
1.0
 10
-2.019452755905512
 20
1.039472440944882
 30
0.0
 10
-2.019452755905512
 20
1.039472440944882
 30
0.0
 10
-2.075035433070866
 20
0.8837755905511812
 30
0.0
 10
-2.075035433070866
 20
0.8837755905511812
 30
0.0
 10
-2.075035433070866
 20
0.8837755905511812
 30
0.0
 10
-2.075035433070866
 20
0.8837755905511812
 30
0.0
 10
-2.087090551181102
 20
0.8837755905511812
 30
0.0
 10
-2.087090551181102
 20
0.8837755905511812
 30
0.0
 10
-2.087090551181102
 20
0.8837755905511812
 30
0.0
 10
-2.087090551181102
 20
0.8837755905511812
 30
0.0
 10
-2.03184251968504
 20
1.039472440944882
 30
0.0
 10
-2.03184251968504
 20
1.039472440944882
 30
0.0
 10
-2.03184251968504
 20
1.039472440944882
 30
0.0
 10
-2.03184251968504
 20
1.039472440944882
 30
0.0
 10
-2.019452755905512
 20
1.039472440944882
 30
0.0
 10
-2.019452755905512
 20
1.039472440944882
 30
0.0
  0
SPLINE
  5
66
330
1F
100
AcDbEntity
  8
LAYER_1
 62
   250
100
AcDbSpline
210
0.0
220
0.0
230
1.0
 70
    11
 71
     3
 72
    48
 73
    44
 74
     0
 42
0.0000000001
 43
0.0000000001
 40
0.0
 40
0.0
 40
0.0
 40
0.0
 40
0.0909090909090909
 40
0.0909090909090909
 40
0.0909090909090909
 40
0.0909090909090909
 40
0.1818181818181818
 40
0.1818181818181818
 40
0.1818181818181818
 40
0.1818181818181818
 40
0.2727272727272727
 40
0.2727272727272727
 40
0.2727272727272727
 40
0.2727272727272727
 40
0.3636363636363637
 40
0.3636363636363637
 40
0.3636363636363637
 40
0.3636363636363637
 40
0.4545454545454546
 40
0.4545454545454546
 40
0.4545454545454546
 40
0.4545454545454546
 40
0.5454545454545455
 40
0.5454545454545455
 40
0.5454545454545455
 40
0.5454545454545455
 40
0.6363636363636365
 40
0.6363636363636365
 40
0.6363636363636365
 40
0.6363636363636365
 40
0.7272727272727274
 40
0.7272727272727274
 40
0.7272727272727274
 40
0.7272727272727274
 40
0.8181818181818183
 40
0.8181818181818183
 40
0.8181818181818183
 40
0.8181818181818183
 40
0.9090909090909093
 40
0.9090909090909093
 40
0.9090909090909093
 40
0.9090909090909093
 40
1.0
 40
1.0
 40
1.0
 40
1.0
 10
-1.940507874015748
 20
1.033610236220472
 30
0.0
 10
-1.940507874015748
 20
1.033610236220472
 30
0.0
 10
-1.926759842519685
 20
1.033610236220472
 30
0.0
 10
-1.926759842519685
 20
1.033610236220472
 30
0.0
 10
-1.926759842519685
 20
1.033610236220472
 30
0.0
 10
-1.926759842519685
 20
1.033610236220472
 30
0.0
 10
-1.926759842519685
 20
0.9676102362204725
 30
0.0
 10
-1.926759842519685
 20
0.9676102362204725
 30
0.0
 10
-1.926759842519685
 20
0.9676102362204725
 30
0.0
 10
-1.926759842519685
 20
0.9676102362204725
 30
0.0
 10
-1.905425196850394
 20
0.9676102362204725
 30
0.0
 10
-1.905425196850394
 20
0.9676102362204725
 30
0.0
 10
-1.905425196850394
 20
0.9676102362204725
 30
0.0
 10
-1.905425196850394
 20
0.9676102362204725
 30
0.0
 10
-1.905425196850394
 20
0.9574448818897638
 30
0.0
 10
-1.905425196850394
 20
0.9574448818897638
 30
0.0
 10
-1.905425196850394
 20
0.9574448818897638
 30
0.0
 10
-1.905425196850394
 20
0.9574448818897638
 30
0.0
 10
-1.926759842519685
 20
0.9574448818897638
 30
0.0
 10
-1.926759842519685
 20
0.9574448818897638
 30
0.0
 10
-1.926759842519685
 20
0.9574448818897638
 30
0.0
 10
-1.926759842519685
 20
0.9574448818897638
 30
0.0
 10
-1.926759842519685
 20
0.9200826771653544
 30
0.0
 10
-1.926759842519685
 20
0.9200826771653544
 30
0.0
 10
-1.926759842519685
 20
0.9200826771653544
 30
0.0
 10
-1.926759842519685
 20
0.9200826771653544
 30
0.0
 10
-1.940507874015748
 20
0.9200826771653544
 30
0.0
 10
-1.940507874015748
 20
0.9200826771653544
 30
0.0
 10
-1.940507874015748
 20
0.9200826771653544
 30
0.0
 10
-1.940507874015748
 20
0.9200826771653544
 30
0.0
 10
-1.940507874015748
 20
0.9574448818897638
 30
0.0
 10
-1.940507874015748
 20
0.9574448818897638
 30
0.0
 10
-1.940507874015748
 20
0.9574448818897638
 30
0.0
 10
-1.940507874015748
 20
0.9574448818897638
 30
0.0
 10
-1.99398031496063
 20
0.9574448818897638
 30
0.0
 10
-1.99398031496063
 20
0.9574448818897638
 30
0.0
 10
-1.99398031496063
 20
0.9574448818897638
 30
0.0
 10
-1.99398031496063
 20
0.9574448818897638
 30
0.0
 10
-1.99398031496063
 20
0.971748031496063
 30
0.0
 10
-1.99398031496063
 20
0.971748031496063
 30
0.0
 10
-1.99398031496063
 20
0.971748031496063
 30
0.0
 10
-1.99398031496063
 20
0.971748031496063
 30
0.0
 10
-1.940507874015748
 20
1.033610236220472
 30
0.0
 10
-1.940507874015748
 20
1.033610236220472
 30
0.0
  0
SPLINE
  5
67
330
1F
100
AcDbEntity
  8
LAYER_1
 62
   250
100
AcDbSpline
210
0.0
220
0.0
230
1.0
 70
    11
 71
     3
 72
    16
 73
    12
 74
     0
 42
0.0000000001
 43
0.0000000001
 40
0.0
 40
0.0
 40
0.0
 40
0.0
 40
0.3333333333333333
 40
0.3333333333333333
 40
0.3333333333333333
 40
0.3333333333333333
 40
0.6666666666666666
 40
0.6666666666666666
 40
0.6666666666666666
 40
0.6666666666666666
 40
1.0
 40
1.0
 40
1.0
 40
1.0
 10
-1.940507874015748
 20
0.9676102362204725
 30
0.0
 10
-1.940507874015748
 20
0.9676102362204725
 30
0.0
 10
-1.940507874015748
 20
1.021
 30
0.0
 10
-1.940507874015748
 20
1.021
 30
0.0
 10
-1.940507874015748
 20
1.021
 30
0.0
 10
-1.940507874015748
 20
1.021
 30
0.0
 10
-1.986562992125984
 20
0.9676102362204725
 30
0.0
 10
-1.986562992125984
 20
0.9676102362204725
 30
0.0
 10
-1.986562992125984
 20
0.9676102362204725
 30
0.0
 10
-1.986562992125984
 20
0.9676102362204725
 30
0.0
 10
-1.940507874015748
 20
0.9676102362204725
 30
0.0
 10
-1.940507874015748
 20
0.9676102362204725
 30
0.0
  0
SPLINE
  5
68
330
1F
100
AcDbEntity
  8
LAYER_1
 62
   250
100
AcDbSpline
210
0.0
220
0.0
230
1.0
 70
    11
 71
     3
 72
    60
 73
    56
 74
     0
 42
0.0000000001
 43
0.0000000001
 40
0.0
 40
0.0
 40
0.0
 40
0.0
 40
0.0714285714285714
 40
0.0714285714285714
 40
0.0714285714285714
 40
0.0714285714285714
 40
0.1428571428571429
 40
0.1428571428571429
 40
0.1428571428571429
 40
0.1428571428571429
 40
0.2142857142857143
 40
0.2142857142857143
 40
0.2142857142857143
 40
0.2142857142857143
 40
0.2857142857142857
 40
0.2857142857142857
 40
0.2857142857142857
 40
0.2857142857142857
 40
0.3571428571428571
 40
0.3571428571428571
 40
0.3571428571428571
 40
0.3571428571428571
 40
0.4285714285714285
 40
0.4285714285714285
 40
0.4285714285714285
 40
0.4285714285714285
 40
0.4999999999999999
 40
0.4999999999999999
 40
0.4999999999999999
 40
0.4999999999999999
 40
0.5714285714285713
 40
0.5714285714285713
 40
0.5714285714285713
 40
0.5714285714285713
 40
0.6428571428571427
 40
0.6428571428571427
 40
0.6428571428571427
 40
0.6428571428571427
 40
0.7142857142857141
 40
0.7142857142857141
 40
0.7142857142857141
 40
0.7142857142857141
 40
0.7857142857142855
 40
0.7857142857142855
 40
0.7857142857142855
 40
0.7857142857142855
 40
0.8571428571428569
 40
0.8571428571428569
 40
0.8571428571428569
 40
0.8571428571428569
 40
0.9285714285714283
 40
0.9285714285714283
 40
0.9285714285714283
 40
0.9285714285714283
 40
1.0
 40
1.0
 40
1.0
 40
1.0
 10
-1.887452755905512
 20
0.9915275590551181
 30
0.0
 10
-1.887452755905512
 20
0.9915275590551181
 30
0.0
 10
-1.89184251968504
 20
0.9969173228346457
 30
0.0
 10
-1.89184251968504
 20
0.9969173228346457
 30
0.0
 10
-1.89184251968504
 20
0.9969173228346457
 30
0.0
 10
-1.880728346456693
 20
1.005972440944882
 30
0.0
 10
-1.875145669291339
 20
1.013527559055118
 30
0.0
 10
-1.875145669291339
 20
1.019610236220472
 30
0.0
 10
-1.875145669291339
 20
1.019610236220472
 30
0.0
 10
-1.875145669291339
 20
1.020303149606299
 30
0.0
 10
-1.875200787401575
 20
1.021192913385827
 30
0.0
 10
-1.875314960629921
 20
1.022220472440945
 30
0.0
 10
-1.875314960629921
 20
1.022220472440945
 30
0.0
 10
-1.876228346456693
 20
1.021830708661417
 30
0.0
 10
-1.877145669291339
 20
1.021527559055118
 30
0.0
 10
-1.878007874015748
 20
1.021330708661417
 30
0.0
 10
-1.878007874015748
 20
1.021330708661417
 30
0.0
 10
-1.878870078740158
 20
1.021110236220473
 30
0.0
 10
-1.879673228346457
 20
1.021
 30
0.0
 10
-1.880452755905512
 20
1.021
 30
0.0
 10
-1.880452755905512
 20
1.021
 30
0.0
 10
-1.883062992125984
 20
1.021
 30
0.0
 10
-1.885145669291339
 20
1.021830708661417
 30
0.0
 10
-1.886700787401575
 20
1.023527559055118
 30
0.0
 10
-1.886700787401575
 20
1.023527559055118
 30
0.0
 10
-1.888287401574803
 20
1.025192913385827
 30
0.0
 10
-1.889062992125984
 20
1.027330708661417
 30
0.0
 10
-1.889062992125984
 20
1.029944881889764
 30
0.0
 10
-1.889062992125984
 20
1.029944881889764
 30
0.0
 10
-1.889062992125984
 20
1.0325
 30
0.0
 10
-1.888118110236221
 20
1.034720472440945
 30
0.0
 10
-1.886228346456693
 20
1.036610236220473
 30
0.0
 10
-1.886228346456693
 20
1.036610236220473
 30
0.0
 10
-1.884314960629921
 20
1.038527559055118
 30
0.0
 10
-1.882035433070866
 20
1.039472440944882
 30
0.0
 10
-1.879397637795276
 20
1.039472440944882
 30
0.0
 10
-1.879397637795276
 20
1.039472440944882
 30
0.0
 10
-1.875700787401575
 20
1.039472440944882
 30
0.0
 10
-1.872535433070866
 20
1.038
 30
0.0
 10
-1.869897637795276
 20
1.035027559055118
 30
0.0
 10
-1.869897637795276
 20
1.035027559055118
 30
0.0
 10
-1.867287401574803
 20
1.032082677165354
 30
0.0
 10
-1.865952755905512
 20
1.028275590551181
 30
0.0
 10
-1.865952755905512
 20
1.023610236220472
 30
0.0
 10
-1.865952755905512
 20
1.023610236220472
 30
0.0
 10
-1.865952755905512
 20
1.020555118110236
 30
0.0
 10
-1.866590551181103
 20
1.017358267716535
 30
0.0
 10
-1.867842519685039
 20
1.014027559055118
 30
0.0
 10
-1.867842519685039
 20
1.014027559055118
 30
0.0
 10
-1.869090551181103
 20
1.010692913385827
 30
0.0
 10
-1.870897637795276
 20
1.007610236220472
 30
0.0
 10
-1.873287401574803
 20
1.004748031496063
 30
0.0
 10
-1.873287401574803
 20
1.004748031496063
 30
0.0
 10
-1.875673228346457
 20
1.001917322834646
 30
0.0
 10
-1.880397637795276
 20
0.9975000000000001
 30
0.0
 10
-1.887452755905512
 20
0.9915275590551181
 30
0.0
  0
SPLINE
  5
69
330
1F
100
AcDbEntity
  8
LAYER_1
 62
   250
100
AcDbSpline
210
0.0
220
0.0
230
1.0
 70
    11
 71
     3
 72
    60
 73
    56
 74
     0
 42
0.0000000001
 43
0.0000000001
 40
0.0
 40
0.0
 40
0.0
 40
0.0
 40
0.0714285714285714
 40
0.0714285714285714
 40
0.0714285714285714
 40
0.0714285714285714
 40
0.1428571428571429
 40
0.1428571428571429
 40
0.1428571428571429
 40
0.1428571428571429
 40
0.2142857142857143
 40
0.2142857142857143
 40
0.2142857142857143
 40
0.2142857142857143
 40
0.2857142857142857
 40
0.2857142857142857
 40
0.2857142857142857
 40
0.2857142857142857
 40
0.3571428571428571
 40
0.3571428571428571
 40
0.3571428571428571
 40
0.3571428571428571
 40
0.4285714285714285
 40
0.4285714285714285
 40
0.4285714285714285
 40
0.4285714285714285
 40
0.4999999999999999
 40
0.4999999999999999
 40
0.4999999999999999
 40
0.4999999999999999
 40
0.5714285714285713
 40
0.5714285714285713
 40
0.5714285714285713
 40
0.5714285714285713
 40
0.6428571428571427
 40
0.6428571428571427
 40
0.6428571428571427
 40
0.6428571428571427
 40
0.7142857142857141
 40
0.7142857142857141
 40
0.7142857142857141
 40
0.7142857142857141
 40
0.7857142857142855
 40
0.7857142857142855
 40
0.7857142857142855
 40
0.7857142857142855
 40
0.8571428571428569
 40
0.8571428571428569
 40
0.8571428571428569
 40
0.8571428571428569
 40
0.9285714285714283
 40
0.9285714285714283
 40
0.9285714285714283
 40
0.9285714285714283
 40
1.0
 40
1.0
 40
1.0
 40
1.0
 10
-1.858397637795276
 20
0.9915275590551181
 30
0.0
 10
-1.858397637795276
 20
0.9915275590551181
 30
0.0
 10
-1.862787401574803
 20
0.9969173228346457
 30
0.0
 10
-1.862787401574803
 20
0.9969173228346457
 30
0.0
 10
-1.862787401574803
 20
0.9969173228346457
 30
0.0
 10
-1.851673228346457
 20
1.005972440944882
 30
0.0
 10
-1.846090551181102
 20
1.013527559055118
 30
0.0
 10
-1.846090551181102
 20
1.019610236220472
 30
0.0
 10
-1.846090551181102
 20
1.019610236220472
 30
0.0
 10
-1.846090551181102
 20
1.020303149606299
 30
0.0
 10
-1.846145669291339
 20
1.021192913385827
 30
0.0
 10
-1.846259842519685
 20
1.022220472440945
 30
0.0
 10
-1.846259842519685
 20
1.022220472440945
 30
0.0
 10
-1.847173228346457
 20
1.021830708661417
 30
0.0
 10
-1.848090551181102
 20
1.021527559055118
 30
0.0
 10
-1.848952755905512
 20
1.021330708661417
 30
0.0
 10
-1.848952755905512
 20
1.021330708661417
 30
0.0
 10
-1.849814960629921
 20
1.021110236220473
 30
0.0
 10
-1.850645669291339
 20
1.021
 30
0.0
 10
-1.85148031496063
 20
1.021
 30
0.0
 10
-1.85148031496063
 20
1.021
 30
0.0
 10
-1.854035433070866
 20
1.021
 30
0.0
 10
-1.856090551181102
 20
1.021830708661417
 30
0.0
 10
-1.857645669291339
 20
1.023527559055118
 30
0.0
 10
-1.857645669291339
 20
1.023527559055118
 30
0.0
 10
-1.859228346456693
 20
1.025192913385827
 30
0.0
 10
-1.860007874015748
 20
1.027330708661417
 30
0.0
 10
-1.860007874015748
 20
1.029944881889764
 30
0.0
 10
-1.860007874015748
 20
1.029944881889764
 30
0.0
 10
-1.860007874015748
 20
1.0325
 30
0.0
 10
-1.859062992125984
 20
1.034720472440945
 30
0.0
 10
-1.857173228346457
 20
1.036610236220473
 30
0.0
 10
-1.857173228346457
 20
1.036610236220473
 30
0.0
 10
-1.855287401574803
 20
1.038527559055118
 30
0.0
 10
-1.85298031496063
 20
1.039472440944882
 30
0.0
 10
-1.850342519685039
 20
1.039472440944882
 30
0.0
 10
-1.850342519685039
 20
1.039472440944882
 30
0.0
 10
-1.846645669291339
 20
1.039472440944882
 30
0.0
 10
-1.84348031496063
 20
1.038
 30
0.0
 10
-1.84084251968504
 20
1.035027559055118
 30
0.0
 10
-1.84084251968504
 20
1.035027559055118
 30
0.0
 10
-1.838232283464567
 20
1.032082677165354
 30
0.0
 10
-1.836897637795276
 20
1.028275590551181
 30
0.0
 10
-1.836897637795276
 20
1.023610236220472
 30
0.0
 10
-1.836897637795276
 20
1.023610236220472
 30
0.0
 10
-1.836897637795276
 20
1.020555118110236
 30
0.0
 10
-1.837535433070866
 20
1.017358267716535
 30
0.0
 10
-1.838787401574803
 20
1.014027559055118
 30
0.0
 10
-1.838787401574803
 20
1.014027559055118
 30
0.0
 10
-1.840035433070866
 20
1.010692913385827
 30
0.0
 10
-1.841842519685039
 20
1.007610236220472
 30
0.0
 10
-1.844228346456693
 20
1.004748031496063
 30
0.0
 10
-1.844228346456693
 20
1.004748031496063
 30
0.0
 10
-1.846618110236221
 20
1.001917322834646
 30
0.0
 10
-1.85134251968504
 20
0.9975000000000001
 30
0.0
 10
-1.858397637795276
 20
0.9915275590551181
 30
0.0
  0
SPLINE
  5
6A
330
1F
100
AcDbEntity
  8
LAYER_1
 62
   250
100
AcDbSpline
210
0.0
220
0.0
230
1.0
 70
    11
 71
     3
 72
   204
 73
   200
 74
     0
 42
0.0000000001
 43
0.0000000001
 40
0.0
 40
0.0
 40
0.0
 40
0.0
 40
0.02
 40
0.02
 40
0.02
 40
0.02
 40
0.04
 40
0.04
 40
0.04
 40
0.04
 40
0.06
 40
0.06
 40
0.06
 40
0.06
 40
0.08
 40
0.08
 40
0.08
 40
0.08
 40
0.1
 40
0.1
 40
0.1
 40
0.1
 40
0.12
 40
0.12
 40
0.12
 40
0.12
 40
0.14
 40
0.14
 40
0.14
 40
0.14
 40
0.16
 40
0.16
 40
0.16
 40
0.16
 40
0.18
 40
0.18
 40
0.18
 40
0.18
 40
0.2
 40
0.2
 40
0.2
 40
0.2
 40
0.22
 40
0.22
 40
0.22
 40
0.22
 40
0.24
 40
0.24
 40
0.24
 40
0.24
 40
0.26
 40
0.26
 40
0.26
 40
0.26
 40
0.28
 40
0.28
 40
0.28
 40
0.28
 40
0.3
 40
0.3
 40
0.3
 40
0.3
 40
0.32
 40
0.32
 40
0.32
 40
0.32
 40
0.34
 40
0.34
 40
0.34
 40
0.34
 40
0.36
 40
0.36
 40
0.36
 40
0.36
 40
0.3800000000000001
 40
0.3800000000000001
 40
0.3800000000000001
 40
0.3800000000000001
 40
0.4000000000000001
 40
0.4000000000000001
 40
0.4000000000000001
 40
0.4000000000000001
 40
0.4200000000000001
 40
0.4200000000000001
 40
0.4200000000000001
 40
0.4200000000000001
 40
0.4400000000000001
 40
0.4400000000000001
 40
0.4400000000000001
 40
0.4400000000000001
 40
0.4600000000000001
 40
0.4600000000000001
 40
0.4600000000000001
 40
0.4600000000000001
 40
0.4800000000000002
 40
0.4800000000000002
 40
0.4800000000000002
 40
0.4800000000000002
 40
0.5000000000000001
 40
0.5000000000000001
 40
0.5000000000000001
 40
0.5000000000000001
 40
0.5200000000000001
 40
0.5200000000000001
 40
0.5200000000000001
 40
0.5200000000000001
 40
0.5400000000000002
 40
0.5400000000000002
 40
0.5400000000000002
 40
0.5400000000000002
 40
0.5600000000000002
 40
0.5600000000000002
 40
0.5600000000000002
 40
0.5600000000000002
 40
0.5800000000000002
 40
0.5800000000000002
 40
0.5800000000000002
 40
0.5800000000000002
 40
0.6000000000000002
 40
0.6000000000000002
 40
0.6000000000000002
 40
0.6000000000000002
 40
0.6200000000000002
 40
0.6200000000000002
 40
0.6200000000000002
 40
0.6200000000000002
 40
0.6400000000000002
 40
0.6400000000000002
 40
0.6400000000000002
 40
0.6400000000000002
 40
0.6600000000000003
 40
0.6600000000000003
 40
0.6600000000000003
 40
0.6600000000000003
 40
0.6800000000000003
 40
0.6800000000000003
 40
0.6800000000000003
 40
0.6800000000000003
 40
0.7000000000000003
 40
0.7000000000000003
 40
0.7000000000000003
 40
0.7000000000000003
 40
0.7200000000000003
 40
0.7200000000000003
 40
0.7200000000000003
 40
0.7200000000000003
 40
0.7400000000000003
 40
0.7400000000000003
 40
0.7400000000000003
 40
0.7400000000000003
 40
0.7600000000000003
 40
0.7600000000000003
 40
0.7600000000000003
 40
0.7600000000000003
 40
0.7800000000000004
 40
0.7800000000000004
 40
0.7800000000000004
 40
0.7800000000000004
 40
0.8000000000000004
 40
0.8000000000000004
 40
0.8000000000000004
 40
0.8000000000000004
 40
0.8200000000000004
 40
0.8200000000000004
 40
0.8200000000000004
 40
0.8200000000000004
 40
0.8400000000000004
 40
0.8400000000000004
 40
0.8400000000000004
 40
0.8400000000000004
 40
0.8600000000000004
 40
0.8600000000000004
 40
0.8600000000000004
 40
0.8600000000000004
 40
0.8800000000000005
 40
0.8800000000000005
 40
0.8800000000000005
 40
0.8800000000000005
 40
0.9000000000000005
 40
0.9000000000000005
 40
0.9000000000000005
 40
0.9000000000000005
 40
0.9200000000000005
 40
0.9200000000000005
 40
0.9200000000000005
 40
0.9200000000000005
 40
0.9400000000000005
 40
0.9400000000000005
 40
0.9400000000000005
 40
0.9400000000000005
 40
0.9600000000000005
 40
0.9600000000000005
 40
0.9600000000000005
 40
0.9600000000000005
 40
0.9800000000000005
 40
0.9800000000000005
 40
0.9800000000000005
 40
0.9800000000000005
 40
1.0
 40
1.0
 40
1.0
 40
1.0
 10
-1.774590551181102
 20
0.9986102362204725
 30
0.0
 10
-1.774590551181102
 20
0.9986102362204725
 30
0.0
 10
-1.733645669291339
 20
0.9986102362204725
 30
0.0
 10
-1.733645669291339
 20
0.9986102362204725
 30
0.0
 10
-1.733645669291339
 20
0.9986102362204725
 30
0.0
 10
-1.733645669291339
 20
0.9986102362204725
 30
0.0
 10
-1.733645669291339
 20
0.9917755905511811
 30
0.0
 10
-1.733645669291339
 20
0.9917755905511811
 30
0.0
 10
-1.733645669291339
 20
0.9917755905511811
 30
0.0
 10
-1.733645669291339
 20
0.9917755905511811
 30
0.0
 10
-1.73648031496063
 20
0.9917755905511811
 30
0.0
 10
-1.73648031496063
 20
0.9917755905511811
 30
0.0
 10
-1.73648031496063
 20
0.9917755905511811
 30
0.0
 10
-1.738118110236221
 20
0.9917755905511811
 30
0.0
 10
-1.739618110236221
 20
0.9915826771653544
 30
0.0
 10
-1.74098031496063
 20
0.9912204724409449
 30
0.0
 10
-1.74098031496063
 20
0.9912204724409449
 30
0.0
 10
-1.741783464566929
 20
0.991
 30
0.0
 10
-1.742452755905512
 20
0.9905826771653544
 30
0.0
 10
-1.742952755905512
 20
0.9899448818897638
 30
0.0
 10
-1.742952755905512
 20
0.9899448818897638
 30
0.0
 10
-1.74348031496063
 20
0.9893307086614174
 30
0.0
 10
-1.743728346456693
 20
0.9887480314960631
 30
0.0
 10
-1.743728346456693
 20
0.9881929133858268
 30
0.0
 10
-1.743728346456693
 20
0.9881929133858268
 30
0.0
 10
-1.743728346456693
 20
0.9869448818897638
 30
0.0
 10
-1.742700787401575
 20
0.9850826771653544
 30
0.0
 10
-1.740645669291339
 20
0.9825826771653544
 30
0.0
 10
-1.740645669291339
 20
0.9825826771653544
 30
0.0
 10
-1.740645669291339
 20
0.9825826771653544
 30
0.0
 10
-1.729007874015748
 20
0.9679448818897638
 30
0.0
 10
-1.729007874015748
 20
0.9679448818897638
 30
0.0
 10
-1.729007874015748
 20
0.9679448818897638
 30
0.0
 10
-1.729007874015748
 20
0.9679448818897638
 30
0.0
 10
-1.715425196850394
 20
0.9825826771653544
 30
0.0
 10
-1.715425196850394
 20
0.9825826771653544
 30
0.0
 10
-1.715425196850394
 20
0.9825826771653544
 30
0.0
 10
-1.712925196850394
 20
0.9853031496062993
 30
0.0
 10
-1.711673228346457
 20
0.9873307086614174
 30
0.0
 10
-1.711673228346457
 20
0.9886929133858268
 30
0.0
 10
-1.711673228346457
 20
0.9886929133858268
 30
0.0
 10
-1.711673228346457
 20
0.9896653543307087
 30
0.0
 10
-1.712118110236221
 20
0.9904173228346457
 30
0.0
 10
-1.71298031496063
 20
0.9909724409448819
 30
0.0
 10
-1.71298031496063
 20
0.9909724409448819
 30
0.0
 10
-1.71384251968504
 20
0.9915000000000001
 30
0.0
 10
-1.715700787401575
 20
0.9917755905511811
 30
0.0
 10
-1.718590551181102
 20
0.9917755905511811
 30
0.0
 10
-1.718590551181102
 20
0.9917755905511811
 30
0.0
 10
-1.718590551181102
 20
0.9917755905511811
 30
0.0
 10
-1.721673228346457
 20
0.9917755905511811
 30
0.0
 10
-1.721673228346457
 20
0.9917755905511811
 30
0.0
 10
-1.721673228346457
 20
0.9917755905511811
 30
0.0
 10
-1.721673228346457
 20
0.9917755905511811
 30
0.0
 10
-1.721673228346457
 20
0.9986102362204725
 30
0.0
 10
-1.721673228346457
 20
0.9986102362204725
 30
0.0
 10
-1.721673228346457
 20
0.9986102362204725
 30
0.0
 10
-1.721673228346457
 20
0.9986102362204725
 30
0.0
 10
-1.686925196850394
 20
0.9986102362204725
 30
0.0
 10
-1.686925196850394
 20
0.9986102362204725
 30
0.0
 10
-1.686925196850394
 20
0.9986102362204725
 30
0.0
 10
-1.686925196850394
 20
0.9986102362204725
 30
0.0
 10
-1.686925196850394
 20
0.9917755905511811
 30
0.0
 10
-1.686925196850394
 20
0.9917755905511811
 30
0.0
 10
-1.686925196850394
 20
0.9917755905511811
 30
0.0
 10
-1.69034251968504
 20
0.9916102362204725
 30
0.0
 10
-1.693287401574803
 20
0.9909173228346457
 30
0.0
 10
-1.695755905511811
 20
0.9896653543307087
 30
0.0
 10
-1.695755905511811
 20
0.9896653543307087
 30
0.0
 10
-1.698228346456693
 20
0.9884173228346457
 30
0.0
 10
-1.701145669291339
 20
0.9860551181102363
 30
0.0
 10
-1.704507874015748
 20
0.9825826771653544
 30
0.0
 10
-1.704507874015748
 20
0.9825826771653544
 30
0.0
 10
-1.704507874015748
 20
0.9825826771653544
 30
0.0
 10
-1.723145669291339
 20
0.9632204724409449
 30
0.0
 10
-1.723145669291339
 20
0.9632204724409449
 30
0.0
 10
-1.723145669291339
 20
0.9632204724409449
 30
0.0
 10
-1.723145669291339
 20
0.9632204724409449
 30
0.0
 10
-1.699952755905512
 20
0.9367755905511811
 30
0.0
 10
-1.699952755905512
 20
0.9367755905511811
 30
0.0
 10
-1.699952755905512
 20
0.9367755905511811
 30
0.0
 10
-1.699952755905512
 20
0.9367755905511811
 30
0.0
 10
-1.699062992125984
 20
0.9356377952755905
 30
0.0
 10
-1.699062992125984
 20
0.9356377952755905
 30
0.0
 10
-1.699062992125984
 20
0.9356377952755905
 30
0.0
 10
-1.696787401574803
 20
0.9326929133858268
 30
0.0
 10
-1.694228346456693
 20
0.9303307086614173
 30
0.0
 10
-1.691397637795276
 20
0.9285551181102363
 30
0.0
 10
-1.691397637795276
 20
0.9285551181102363
 30
0.0
 10
-1.68984251968504
 20
0.9275275590551182
 30
0.0
 10
-1.687397637795276
 20
0.926972440944882
 30
0.0
 10
-1.684090551181102
 20
0.9269173228346457
 30
0.0
 10
-1.684090551181102
 20
0.9269173228346457
 30
0.0
 10
-1.684090551181102
 20
0.9269173228346457
 30
0.0
 10
-1.684090551181102
 20
0.9200826771653544
 30
0.0
 10
-1.684090551181102
 20
0.9200826771653544
 30
0.0
 10
-1.684090551181102
 20
0.9200826771653544
 30
0.0
 10
-1.684090551181102
 20
0.9200826771653544
 30
0.0
 10
-1.724035433070866
 20
0.9200826771653544
 30
0.0
 10
-1.724035433070866
 20
0.9200826771653544
 30
0.0
 10
-1.724035433070866
 20
0.9200826771653544
 30
0.0
 10
-1.724035433070866
 20
0.9200826771653544
 30
0.0
 10
-1.724035433070866
 20
0.9269173228346457
 30
0.0
 10
-1.724035433070866
 20
0.9269173228346457
 30
0.0
 10
-1.724035433070866
 20
0.9269173228346457
 30
0.0
 10
-1.724035433070866
 20
0.9269173228346457
 30
0.0
 10
-1.720618110236221
 20
0.9269173228346457
 30
0.0
 10
-1.720618110236221
 20
0.9269173228346457
 30
0.0
 10
-1.720618110236221
 20
0.9269173228346457
 30
0.0
 10
-1.718007874015748
 20
0.9269173228346457
 30
0.0
 10
-1.716370078740158
 20
0.9270826771653544
 30
0.0
 10
-1.715645669291339
 20
0.9274173228346457
 30
0.0
 10
-1.715645669291339
 20
0.9274173228346457
 30
0.0
 10
-1.71448031496063
 20
0.9279448818897638
 30
0.0
 10
-1.713870078740158
 20
0.9288622047244095
 30
0.0
 10
-1.713870078740158
 20
0.9301653543307087
 30
0.0
 10
-1.713870078740158
 20
0.9301653543307087
 30
0.0
 10
-1.713870078740158
 20
0.9313622047244095
 30
0.0
 10
-1.715173228346457
 20
0.9335551181102363
 30
0.0
 10
-1.717787401574803
 20
0.9367755905511811
 30
0.0
 10
-1.717787401574803
 20
0.9367755905511811
 30
0.0
 10
-1.717787401574803
 20
0.9367755905511811
 30
0.0
 10
-1.732590551181102
 20
0.9549173228346457
 30
0.0
 10
-1.732590551181102
 20
0.9549173228346457
 30
0.0
 10
-1.732590551181102
 20
0.9549173228346457
 30
0.0
 10
-1.732590551181102
 20
0.9549173228346457
 30
0.0
 10
-1.749118110236221
 20
0.9367755905511811
 30
0.0
 10
-1.749118110236221
 20
0.9367755905511811
 30
0.0
 10
-1.749118110236221
 20
0.9367755905511811
 30
0.0
 10
-1.749118110236221
 20
0.9367755905511811
 30
0.0
 10
-1.750728346456693
 20
0.9348031496062993
 30
0.0
 10
-1.750728346456693
 20
0.9348031496062993
 30
0.0
 10
-1.750728346456693
 20
0.9348031496062993
 30
0.0
 10
-1.750728346456693
 20
0.9348031496062993
 30
0.0
 10
-1.751618110236221
 20
0.9338307086614174
 30
0.0
 10
-1.751618110236221
 20
0.9338307086614174
 30
0.0
 10
-1.751618110236221
 20
0.9338307086614174
 30
0.0
 10
-1.75298031496063
 20
0.9323622047244095
 30
0.0
 10
-1.753673228346457
 20
0.9310826771653543
 30
0.0
 10
-1.753673228346457
 20
0.9299448818897638
 30
0.0
 10
-1.753673228346457
 20
0.9299448818897638
 30
0.0
 10
-1.753673228346457
 20
0.9288897637795276
 30
0.0
 10
-1.753255905511811
 20
0.9281377952755906
 30
0.0
 10
-1.752397637795276
 20
0.9276377952755905
 30
0.0
 10
-1.752397637795276
 20
0.9276377952755905
 30
0.0
 10
-1.751562992125984
 20
0.9271653543307087
 30
0.0
 10
-1.749673228346457
 20
0.9269173228346457
 30
0.0
 10
-1.746755905511811
 20
0.9269173228346457
 30
0.0
 10
-1.746755905511811
 20
0.9269173228346457
 30
0.0
 10
-1.746755905511811
 20
0.9269173228346457
 30
0.0
 10
-1.74348031496063
 20
0.9269173228346457
 30
0.0
 10
-1.74348031496063
 20
0.9269173228346457
 30
0.0
 10
-1.74348031496063
 20
0.9269173228346457
 30
0.0
 10
-1.74348031496063
 20
0.9269173228346457
 30
0.0
 10
-1.74348031496063
 20
0.9200826771653544
 30
0.0
 10
-1.74348031496063
 20
0.9200826771653544
 30
0.0
 10
-1.74348031496063
 20
0.9200826771653544
 30
0.0
 10
-1.74348031496063
 20
0.9200826771653544
 30
0.0
 10
-1.777755905511811
 20
0.9200826771653544
 30
0.0
 10
-1.777755905511811
 20
0.9200826771653544
 30
0.0
 10
-1.777755905511811
 20
0.9200826771653544
 30
0.0
 10
-1.777755905511811
 20
0.9200826771653544
 30
0.0
 10
-1.777755905511811
 20
0.9269173228346457
 30
0.0
 10
-1.777755905511811
 20
0.9269173228346457
 30
0.0
 10
-1.777755905511811
 20
0.9269173228346457
 30
0.0
 10
-1.775090551181102
 20
0.926972440944882
 30
0.0
 10
-1.773007874015748
 20
0.9272480314960631
 30
0.0
 10
-1.77148031496063
 20
0.9277755905511811
 30
0.0
 10
-1.77148031496063
 20
0.9277755905511811
 30
0.0
 10
-1.76998031496063
 20
0.9282755905511811
 30
0.0
 10
-1.768507874015748
 20
0.9290826771653544
 30
0.0
 10
-1.767090551181102
 20
0.9301653543307087
 30
0.0
 10
-1.767090551181102
 20
0.9301653543307087
 30
0.0
 10
-1.764645669291339
 20
0.9321377952755906
 30
0.0
 10
-1.762897637795276
 20
0.9336653543307087
 30
0.0
 10
-1.761811023622047
 20
0.9348031496062993
 30
0.0
 10
-1.761811023622047
 20
0.9348031496062993
 30
0.0
 10
-1.761811023622047
 20
0.9348031496062993
 30
0.0
 10
-1.737952755905512
 20
0.9593031496062993
 30
0.0
 10
-1.737952755905512
 20
0.9593031496062993
 30
0.0
 10
-1.737952755905512
 20
0.9593031496062993
 30
0.0
 10
-1.737952755905512
 20
0.9593031496062993
 30
0.0
 10
-1.758228346456693
 20
0.9825826771653544
 30
0.0
 10
-1.758228346456693
 20
0.9825826771653544
 30
0.0
 10
-1.758228346456693
 20
0.9825826771653544
 30
0.0
 10
-1.760783464566929
 20
0.985472440944882
 30
0.0
 10
-1.762783464566929
 20
0.987472440944882
 30
0.0
 10
-1.764283464566929
 20
0.9886377952755906
 30
0.0
 10
-1.764283464566929
 20
0.9886377952755906
 30
0.0
 10
-1.765783464566929
 20
0.9898031496062992
 30
0.0
 10
-1.767228346456693
 20
0.9906377952755906
 30
0.0
 10
-1.768645669291339
 20
0.9910826771653544
 30
0.0
 10
-1.768645669291339
 20
0.9910826771653544
 30
0.0
 10
-1.770062992125984
 20
0.9915551181102362
 30
0.0
 10
-1.772035433070866
 20
0.9917755905511811
 30
0.0
 10
-1.774590551181102
 20
0.9917755905511811
 30
0.0
 10
-1.774590551181102
 20
0.9917755905511811
 30
0.0
 10
-1.774590551181102
 20
0.9917755905511811
 30
0.0
 10
-1.774590551181102
 20
0.9986102362204725
 30
0.0
 10
-1.774590551181102
 20
0.9986102362204725
 30
0.0
  0
SPLINE
  5
6B
330
1F
100
AcDbEntity
  8
LAYER_1
 62
   250
100
AcDbSpline
210
0.0
220
0.0
230
1.0
 70
    11
 71
     3
 72
   136
 73
   132
 74
     0
 42
0.0000000001
 43
0.0000000001
 40
0.0
 40
0.0
 40
0.0
 40
0.0
 40
0.0303030303030303
 40
0.0303030303030303
 40
0.0303030303030303
 40
0.0303030303030303
 40
0.0606060606060606
 40
0.0606060606060606
 40
0.0606060606060606
 40
0.0606060606060606
 40
0.0909090909090909
 40
0.0909090909090909
 40
0.0909090909090909
 40
0.0909090909090909
 40
0.1212121212121212
 40
0.1212121212121212
 40
0.1212121212121212
 40
0.1212121212121212
 40
0.1515151515151515
 40
0.1515151515151515
 40
0.1515151515151515
 40
0.1515151515151515
 40
0.1818181818181818
 40
0.1818181818181818
 40
0.1818181818181818
 40
0.1818181818181818
 40
0.2121212121212121
 40
0.2121212121212121
 40
0.2121212121212121
 40
0.2121212121212121
 40
0.2424242424242424
 40
0.2424242424242424
 40
0.2424242424242424
 40
0.2424242424242424
 40
0.2727272727272727
 40
0.2727272727272727
 40
0.2727272727272727
 40
0.2727272727272727
 40
0.303030303030303
 40
0.303030303030303
 40
0.303030303030303
 40
0.303030303030303
 40
0.3333333333333333
 40
0.3333333333333333
 40
0.3333333333333333
 40
0.3333333333333333
 40
0.3636363636363635
 40
0.3636363636363635
 40
0.3636363636363635
 40
0.3636363636363635
 40
0.3939393939393938
 40
0.3939393939393938
 40
0.3939393939393938
 40
0.3939393939393938
 40
0.4242424242424241
 40
0.4242424242424241
 40
0.4242424242424241
 40
0.4242424242424241
 40
0.4545454545454544
 40
0.4545454545454544
 40
0.4545454545454544
 40
0.4545454545454544
 40
0.4848484848484846
 40
0.4848484848484846
 40
0.4848484848484846
 40
0.4848484848484846
 40
0.5151515151515149
 40
0.5151515151515149
 40
0.5151515151515149
 40
0.5151515151515149
 40
0.5454545454545452
 40
0.5454545454545452
 40
0.5454545454545452
 40
0.5454545454545452
 40
0.5757575757575755
 40
0.5757575757575755
 40
0.5757575757575755
 40
0.5757575757575755
 40
0.6060606060606057
 40
0.6060606060606057
 40
0.6060606060606057
 40
0.6060606060606057
 40
0.636363636363636
 40
0.636363636363636
 40
0.636363636363636
 40
0.636363636363636
 40
0.6666666666666663
 40
0.6666666666666663
 40
0.6666666666666663
 40
0.6666666666666663
 40
0.6969696969696966
 40
0.6969696969696966
 40
0.6969696969696966
 40
0.6969696969696966
 40
0.7272727272727269
 40
0.7272727272727269
 40
0.7272727272727269
 40
0.7272727272727269
 40
0.7575757575757571
 40
0.7575757575757571
 40
0.7575757575757571
 40
0.7575757575757571
 40
0.7878787878787874
 40
0.7878787878787874
 40
0.7878787878787874
 40
0.7878787878787874
 40
0.8181818181818177
 40
0.8181818181818177
 40
0.8181818181818177
 40
0.8181818181818177
 40
0.848484848484848
 40
0.848484848484848
 40
0.848484848484848
 40
0.848484848484848
 40
0.8787878787878782
 40
0.8787878787878782
 40
0.8787878787878782
 40
0.8787878787878782
 40
0.9090909090909085
 40
0.9090909090909085
 40
0.9090909090909085
 40
0.9090909090909085
 40
0.9393939393939388
 40
0.9393939393939388
 40
0.9393939393939388
 40
0.9393939393939388
 40
0.9696969696969691
 40
0.9696969696969691
 40
0.9696969696969691
 40
0.9696969696969691
 40
1.0
 40
1.0
 40
1.0
 40
1.0
 10
-1.612062992125984
 20
0.9908031496062992
 30
0.0
 10
-1.612062992125984
 20
0.9908031496062992
 30
0.0
 10
-1.619952755905512
 20
0.9898307086614173
 30
0.0
 10
-1.619952755905512
 20
0.9898307086614173
 30
0.0
 10
-1.619952755905512
 20
0.9898307086614173
 30
0.0
 10
-1.620397637795276
 20
0.9936653543307087
 30
0.0
 10
-1.620618110236221
 20
0.9968307086614173
 30
0.0
 10
-1.620618110236221
 20
0.9992755905511811
 30
0.0
 10
-1.620618110236221
 20
0.9992755905511811
 30
0.0
 10
-1.620618110236221
 20
1.005665354330709
 30
0.0
 10
-1.618870078740158
 20
1.011720472440945
 30
0.0
 10
-1.615397637795276
 20
1.017413385826772
 30
0.0
 10
-1.615397637795276
 20
1.017413385826772
 30
0.0
 10
-1.611925196850394
 20
1.023110236220473
 30
0.0
 10
-1.607090551181102
 20
1.027555118110236
 30
0.0
 10
-1.600870078740158
 20
1.030748031496063
 30
0.0
 10
-1.600870078740158
 20
1.030748031496063
 30
0.0
 10
-1.594677165354331
 20
1.033972440944882
 30
0.0
 10
-1.587535433070866
 20
1.035555118110236
 30
0.0
 10
-1.579507874015748
 20
1.035555118110236
 30
0.0
 10
-1.579507874015748
 20
1.035555118110236
 30
0.0
 10
-1.571759842519685
 20
1.035555118110236
 30
0.0
 10
-1.564952755905512
 20
1.034055118110236
 30
0.0
 10
-1.559090551181102
 20
1.031055118110236
 30
0.0
 10
-1.559090551181102
 20
1.031055118110236
 30
0.0
 10
-1.553232283464567
 20
1.028027559055118
 30
0.0
 10
-1.548759842519685
 20
1.023913385826772
 30
0.0
 10
-1.545622047244095
 20
1.018665354330709
 30
0.0
 10
-1.545622047244095
 20
1.018665354330709
 30
0.0
 10
-1.542507874015748
 20
1.013444881889764
 30
0.0
 10
-1.540952755905512
 20
1.007472440944882
 30
0.0
 10
-1.540952755905512
 20
1.000720472440945
 30
0.0
 10
-1.540952755905512
 20
1.000720472440945
 30
0.0
 10
-1.540952755905512
 20
0.9950275590551182
 30
0.0
 10
-1.541952755905512
 20
0.9897480314960631
 30
0.0
 10
-1.544007874015748
 20
0.9849173228346457
 30
0.0
 10
-1.544007874015748
 20
0.9849173228346457
 30
0.0
 10
-1.546035433070866
 20
0.9800551181102363
 30
0.0
 10
-1.549314960629921
 20
0.9751377952755906
 30
0.0
 10
-1.553814960629921
 20
0.9702204724409449
 30
0.0
 10
-1.553814960629921
 20
0.9702204724409449
 30
0.0
 10
-1.557177165354331
 20
0.9665275590551181
 30
0.0
 10
-1.56398031496063
 20
0.9608897637795276
 30
0.0
 10
-1.574232283464567
 20
0.9532755905511812
 30
0.0
 10
-1.574232283464567
 20
0.9532755905511812
 30
0.0
 10
-1.587145669291339
 20
0.9436377952755906
 30
0.0
 10
-1.597035433070866
 20
0.9366377952755906
 30
0.0
 10
-1.603925196850394
 20
0.9322755905511811
 30
0.0
 10
-1.603925196850394
 20
0.9322755905511811
 30
0.0
 10
-1.603925196850394
 20
0.9322755905511811
 30
0.0
 10
-1.561618110236221
 20
0.9322755905511811
 30
0.0
 10
-1.561618110236221
 20
0.9322755905511811
 30
0.0
 10
-1.561618110236221
 20
0.9322755905511811
 30
0.0
 10
-1.55661811023622
 20
0.9322755905511811
 30
0.0
 10
-1.553370078740158
 20
0.932748031496063
 30
0.0
 10
-1.551842519685039
 20
0.9336653543307087
 30
0.0
 10
-1.551842519685039
 20
0.9336653543307087
 30
0.0
 10
-1.549732283464567
 20
0.9348622047244095
 30
0.0
 10
-1.548287401574803
 20
0.9376377952755906
 30
0.0
 10
-1.547535433070866
 20
0.941972440944882
 30
0.0
 10
-1.547535433070866
 20
0.941972440944882
 30
0.0
 10
-1.547535433070866
 20
0.941972440944882
 30
0.0
 10
-1.546814960629921
 20
0.9466102362204725
 30
0.0
 10
-1.546814960629921
 20
0.9466102362204725
 30
0.0
 10
-1.546814960629921
 20
0.9466102362204725
 30
0.0
 10
-1.546814960629921
 20
0.9466102362204725
 30
0.0
 10
-1.539897637795276
 20
0.9466102362204725
 30
0.0
 10
-1.539897637795276
 20
0.9466102362204725
 30
0.0
 10
-1.539897637795276
 20
0.9466102362204725
 30
0.0
 10
-1.539897637795276
 20
0.9466102362204725
 30
0.0
 10
-1.545425196850394
 20
0.9160275590551181
 30
0.0
 10
-1.545425196850394
 20
0.9160275590551181
 30
0.0
 10
-1.545425196850394
 20
0.9160275590551181
 30
0.0
 10
-1.545425196850394
 20
0.9160275590551181
 30
0.0
 10
-1.55061811023622
 20
0.9160275590551181
 30
0.0
 10
-1.55061811023622
 20
0.9160275590551181
 30
0.0
 10
-1.55061811023622
 20
0.9160275590551181
 30
0.0
 10
-1.55061811023622
 20
0.9160275590551181
 30
0.0
 10
-1.551535433070866
 20
0.9200826771653544
 30
0.0
 10
-1.551535433070866
 20
0.9200826771653544
 30
0.0
 10
-1.551535433070866
 20
0.9200826771653544
 30
0.0
 10
-1.551535433070866
 20
0.9200826771653544
 30
0.0
 10
-1.622645669291339
 20
0.9200826771653544
 30
0.0
 10
-1.622645669291339
 20
0.9200826771653544
 30
0.0
 10
-1.622645669291339
 20
0.9200826771653544
 30
0.0
 10
-1.622645669291339
 20
0.9200826771653544
 30
0.0
 10
-1.622645669291339
 20
0.9269173228346457
 30
0.0
 10
-1.622645669291339
 20
0.9269173228346457
 30
0.0
 10
-1.622645669291339
 20
0.9269173228346457
 30
0.0
 10
-1.622645669291339
 20
0.9269173228346457
 30
0.0
 10
-1.609618110236221
 20
0.9367755905511811
 30
0.0
 10
-1.609618110236221
 20
0.9367755905511811
 30
0.0
 10
-1.609618110236221
 20
0.9367755905511811
 30
0.0
 10
-1.599759842519685
 20
0.9440826771653543
 30
0.0
 10
-1.592507874015748
 20
0.9496929133858268
 30
0.0
 10
-1.587897637795276
 20
0.9536102362204725
 30
0.0
 10
-1.587897637795276
 20
0.9536102362204725
 30
0.0
 10
-1.579177165354331
 20
0.9610000000000001
 30
0.0
 10
-1.572590551181103
 20
0.9673031496062993
 30
0.0
 10
-1.568177165354331
 20
0.9725275590551181
 30
0.0
 10
-1.568177165354331
 20
0.9725275590551181
 30
0.0
 10
-1.563759842519685
 20
0.9777755905511811
 30
0.0
 10
-1.560704724409449
 20
0.9825
 30
0.0
 10
-1.559062992125984
 20
0.9866929133858268
 30
0.0
 10
-1.559062992125984
 20
0.9866929133858268
 30
0.0
 10
-1.557397637795276
 20
0.9908858267716536
 30
0.0
 10
-1.556562992125984
 20
0.9953031496062993
 30
0.0
 10
-1.556562992125984
 20
0.9999173228346457
 30
0.0
 10
-1.556562992125984
 20
0.9999173228346457
 30
0.0
 10
-1.556562992125984
 20
1.007555118110236
 30
0.0
 10
-1.559035433070866
 20
1.013830708661417
 30
0.0
 10
-1.563925196850394
 20
1.018720472440945
 30
0.0
 10
-1.563925196850394
 20
1.018720472440945
 30
0.0
 10
-1.56884251968504
 20
1.023610236220472
 30
0.0
 10
-1.575232283464567
 20
1.026027559055118
 30
0.0
 10
-1.583090551181102
 20
1.026027559055118
 30
0.0
 10
-1.583090551181102
 20
1.026027559055118
 30
0.0
 10
-1.588732283464567
 20
1.026027559055118
 30
0.0
 10
-1.593787401574803
 20
1.024830708661418
 30
0.0
 10
-1.598204724409449
 20
1.022385826771654
 30
0.0
 10
-1.598204724409449
 20
1.022385826771654
 30
0.0
 10
-1.602618110236221
 20
1.019944881889764
 30
0.0
 10
-1.606090551181102
 20
1.016527559055118
 30
0.0
 10
-1.608645669291339
 20
1.012110236220473
 30
0.0
 10
-1.608645669291339
 20
1.012110236220473
 30
0.0
 10
-1.611204724409449
 20
1.007720472440945
 30
0.0
 10
-1.61248031496063
 20
1.002972440944882
 30
0.0
 10
-1.61248031496063
 20
0.9978858267716536
 30
0.0
 10
-1.61248031496063
 20
0.9978858267716536
 30
0.0
 10
-1.61248031496063
 20
0.9959724409448819
 30
0.0
 10
-1.612342519685039
 20
0.9936102362204725
 30
0.0
 10
-1.612062992125984
 20
0.9908031496062992
 30
0.0
  0
SPLINE
  5
6C
330
1F
100
AcDbEntity
  8
LAYER_1
 62
   250
100
AcDbSpline
210
0.0
220
0.0
230
1.0
 70
    11
 71
     3
 72
    20
 73
    16
 74
     0
 42
0.0000000001
 43
0.0000000001
 40
0.0
 40
0.0
 40
0.0
 40
0.0
 40
0.25
 40
0.25
 40
0.25
 40
0.25
 40
0.5
 40
0.5
 40
0.5
 40
0.5
 40
0.75
 40
0.75
 40
0.75
 40
0.75
 40
1.0
 40
1.0
 40
1.0
 40
1.0
 10
-1.51848031496063
 20
0.9665551181102363
 30
0.0
 10
-1.51848031496063
 20
0.9665551181102363
 30
0.0
 10
-1.470145669291339
 20
0.9665551181102363
 30
0.0
 10
-1.470145669291339
 20
0.9665551181102363
 30
0.0
 10
-1.470145669291339
 20
0.9665551181102363
 30
0.0
 10
-1.470145669291339
 20
0.9665551181102363
 30
0.0
 10
-1.470145669291339
 20
0.9564724409448819
 30
0.0
 10
-1.470145669291339
 20
0.9564724409448819
 30
0.0
 10
-1.470145669291339
 20
0.9564724409448819
 30
0.0
 10
-1.470145669291339
 20
0.9564724409448819
 30
0.0
 10
-1.51848031496063
 20
0.9564724409448819
 30
0.0
 10
-1.51848031496063
 20
0.9564724409448819
 30
0.0
 10
-1.51848031496063
 20
0.9564724409448819
 30
0.0
 10
-1.51848031496063
 20
0.9564724409448819
 30
0.0
 10
-1.51848031496063
 20
0.9665551181102363
 30
0.0
 10
-1.51848031496063
 20
0.9665551181102363
 30
0.0
  0
SPLINE
  5
6D
330
1F
100
AcDbEntity
  8
LAYER_1
 62
   250
100
AcDbSpline
210
0.0
220
0.0
230
1.0
 70
    11
 71
     3
 72
    72
 73
    68
 74
     0
 42
0.0000000001
 43
0.0000000001
 40
0.0
 40
0.0
 40
0.0
 40
0.0
 40
0.0588235294117647
 40
0.0588235294117647
 40
0.0588235294117647
 40
0.0588235294117647
 40
0.1176470588235294
 40
0.1176470588235294
 40
0.1176470588235294
 40
0.1176470588235294
 40
0.1764705882352941
 40
0.1764705882352941
 40
0.1764705882352941
 40
0.1764705882352941
 40
0.2352941176470588
 40
0.2352941176470588
 40
0.2352941176470588
 40
0.2352941176470588
 40
0.2941176470588235
 40
0.2941176470588235
 40
0.2941176470588235
 40
0.2941176470588235
 40
0.3529411764705883
 40
0.3529411764705883
 40
0.3529411764705883
 40
0.3529411764705883
 40
0.411764705882353
 40
0.411764705882353
 40
0.411764705882353
 40
0.411764705882353
 40
0.4705882352941177
 40
0.4705882352941177
 40
0.4705882352941177
 40
0.4705882352941177
 40
0.5294117647058824
 40
0.5294117647058824
 40
0.5294117647058824
 40
0.5294117647058824
 40
0.5882352941176471
 40
0.5882352941176471
 40
0.5882352941176471
 40
0.5882352941176471
 40
0.6470588235294118
 40
0.6470588235294118
 40
0.6470588235294118
 40
0.6470588235294118
 40
0.7058823529411765
 40
0.7058823529411765
 40
0.7058823529411765
 40
0.7058823529411765
 40
0.7647058823529412
 40
0.7647058823529412
 40
0.7647058823529412
 40
0.7647058823529412
 40
0.823529411764706
 40
0.823529411764706
 40
0.823529411764706
 40
0.823529411764706
 40
0.8823529411764707
 40
0.8823529411764707
 40
0.8823529411764707
 40
0.8823529411764707
 40
0.9411764705882354
 40
0.9411764705882354
 40
0.9411764705882354
 40
0.9411764705882354
 40
1.0
 40
1.0
 40
1.0
 40
1.0
 10
-1.404952755905512
 20
1.033610236220472
 30
0.0
 10
-1.404952755905512
 20
1.033610236220472
 30
0.0
 10
-1.398870078740158
 20
1.033610236220472
 30
0.0
 10
-1.398870078740158
 20
1.033610236220472
 30
0.0
 10
-1.398870078740158
 20
1.033610236220472
 30
0.0
 10
-1.398870078740158
 20
1.033610236220472
 30
0.0
 10
-1.398870078740158
 20
0.9393622047244095
 30
0.0
 10
-1.398870078740158
 20
0.9393622047244095
 30
0.0
 10
-1.398870078740158
 20
0.9393622047244095
 30
0.0
 10
-1.398870078740158
 20
0.9349173228346457
 30
0.0
 10
-1.398562992125984
 20
0.9320551181102362
 30
0.0
 10
-1.398007874015748
 20
0.9307755905511811
 30
0.0
 10
-1.398007874015748
 20
0.9307755905511811
 30
0.0
 10
-1.397425196850394
 20
0.9295
 30
0.0
 10
-1.396507874015748
 20
0.9285551181102363
 30
0.0
 10
-1.395204724409449
 20
0.9278897637795276
 30
0.0
 10
-1.395204724409449
 20
0.9278897637795276
 30
0.0
 10
-1.393897637795276
 20
0.9272480314960631
 30
0.0
 10
-1.391314960629921
 20
0.9269173228346457
 30
0.0
 10
-1.387452755905512
 20
0.9269173228346457
 30
0.0
 10
-1.387452755905512
 20
0.9269173228346457
 30
0.0
 10
-1.387452755905512
 20
0.9269173228346457
 30
0.0
 10
-1.37948031496063
 20
0.9269173228346457
 30
0.0
 10
-1.37948031496063
 20
0.9269173228346457
 30
0.0
 10
-1.37948031496063
 20
0.9269173228346457
 30
0.0
 10
-1.37948031496063
 20
0.9269173228346457
 30
0.0
 10
-1.37948031496063
 20
0.9200826771653544
 30
0.0
 10
-1.37948031496063
 20
0.9200826771653544
 30
0.0
 10
-1.37948031496063
 20
0.9200826771653544
 30
0.0
 10
-1.37948031496063
 20
0.9200826771653544
 30
0.0
 10
-1.433118110236221
 20
0.9200826771653544
 30
0.0
 10
-1.433118110236221
 20
0.9200826771653544
 30
0.0
 10
-1.433118110236221
 20
0.9200826771653544
 30
0.0
 10
-1.433118110236221
 20
0.9200826771653544
 30
0.0
 10
-1.433118110236221
 20
0.9269173228346457
 30
0.0
 10
-1.433118110236221
 20
0.9269173228346457
 30
0.0
 10
-1.433118110236221
 20
0.9269173228346457
 30
0.0
 10
-1.433118110236221
 20
0.9269173228346457
 30
0.0
 10
-1.424259842519685
 20
0.9269173228346457
 30
0.0
 10
-1.424259842519685
 20
0.9269173228346457
 30
0.0
 10
-1.424259842519685
 20
0.9269173228346457
 30
0.0
 10
-1.420397637795276
 20
0.9269173228346457
 30
0.0
 10
-1.41784251968504
 20
0.9272480314960631
 30
0.0
 10
-1.416562992125984
 20
0.9279448818897638
 30
0.0
 10
-1.416562992125984
 20
0.9279448818897638
 30
0.0
 10
-1.415287401574803
 20
0.9286102362204725
 30
0.0
 10
-1.414287401574803
 20
0.9296929133858268
 30
0.0
 10
-1.413590551181102
 20
0.9311929133858268
 30
0.0
 10
-1.413590551181102
 20
0.9311929133858268
 30
0.0
 10
-1.412897637795276
 20
0.9326929133858268
 30
0.0
 10
-1.412535433070866
 20
0.9354173228346457
 30
0.0
 10
-1.412535433070866
 20
0.9393622047244095
 30
0.0
 10
-1.412535433070866
 20
0.9393622047244095
 30
0.0
 10
-1.412535433070866
 20
0.9393622047244095
 30
0.0
 10
-1.412535433070866
 20
1.016830708661417
 30
0.0
 10
-1.412535433070866
 20
1.016830708661417
 30
0.0
 10
-1.412535433070866
 20
1.016830708661417
 30
0.0
 10
-1.412535433070866
 20
1.016830708661417
 30
0.0
 10
-1.433118110236221
 20
1.016830708661417
 30
0.0
 10
-1.433118110236221
 20
1.016830708661417
 30
0.0
 10
-1.433118110236221
 20
1.016830708661417
 30
0.0
 10
-1.433118110236221
 20
1.016830708661417
 30
0.0
 10
-1.433118110236221
 20
1.023830708661417
 30
0.0
 10
-1.433118110236221
 20
1.023830708661417
 30
0.0
 10
-1.433118110236221
 20
1.023830708661417
 30
0.0
 10
-1.421897637795276
 20
1.025413385826772
 30
0.0
 10
-1.412507874015748
 20
1.028665354330709
 30
0.0
 10
-1.404952755905512
 20
1.033610236220472
 30
0.0
  0
SPLINE
  5
6E
330
1F
100
AcDbEntity
  8
LAYER_1
 62
   250
100
AcDbSpline
210
0.0
220
0.0
230
1.0
 70
    11
 71
     3
 72
    20
 73
    16
 74
     0
 42
0.0000000001
 43
0.0000000001
 40
0.0
 40
0.0
 40
0.0
 40
0.0
 40
0.25
 40
0.25
 40
0.25
 40
0.25
 40
0.5
 40
0.5
 40
0.5
 40
0.5
 40
0.75
 40
0.75
 40
0.75
 40
0.75
 40
1.0
 40
1.0
 40
1.0
 40
1.0
 10
-1.276118110236221
 20
1.039472440944882
 30
0.0
 10
-1.276118110236221
 20
1.039472440944882
 30
0.0
 10
-1.331700787401575
 20
0.8837755905511812
 30
0.0
 10
-1.331700787401575
 20
0.8837755905511812
 30
0.0
 10
-1.331700787401575
 20
0.8837755905511812
 30
0.0
 10
-1.331700787401575
 20
0.8837755905511812
 30
0.0
 10
-1.343755905511811
 20
0.8837755905511812
 30
0.0
 10
-1.343755905511811
 20
0.8837755905511812
 30
0.0
 10
-1.343755905511811
 20
0.8837755905511812
 30
0.0
 10
-1.343755905511811
 20
0.8837755905511812
 30
0.0
 10
-1.288507874015748
 20
1.039472440944882
 30
0.0
 10
-1.288507874015748
 20
1.039472440944882
 30
0.0
 10
-1.288507874015748
 20
1.039472440944882
 30
0.0
 10
-1.288507874015748
 20
1.039472440944882
 30
0.0
 10
-1.276118110236221
 20
1.039472440944882
 30
0.0
 10
-1.276118110236221
 20
1.039472440944882
 30
0.0
  0
SPLINE
  5
6F
330
1F
100
AcDbEntity
  8
LAYER_1
 62
   250
100
AcDbSpline
210
0.0
220
0.0
230
1.0
 70
    11
 71
     3
 72
   136
 73
   132
 74
     0
 42
0.0000000001
 43
0.0000000001
 40
0.0
 40
0.0
 40
0.0
 40
0.0
 40
0.0303030303030303
 40
0.0303030303030303
 40
0.0303030303030303
 40
0.0303030303030303
 40
0.0606060606060606
 40
0.0606060606060606
 40
0.0606060606060606
 40
0.0606060606060606
 40
0.0909090909090909
 40
0.0909090909090909
 40
0.0909090909090909
 40
0.0909090909090909
 40
0.1212121212121212
 40
0.1212121212121212
 40
0.1212121212121212
 40
0.1212121212121212
 40
0.1515151515151515
 40
0.1515151515151515
 40
0.1515151515151515
 40
0.1515151515151515
 40
0.1818181818181818
 40
0.1818181818181818
 40
0.1818181818181818
 40
0.1818181818181818
 40
0.2121212121212121
 40
0.2121212121212121
 40
0.2121212121212121
 40
0.2121212121212121
 40
0.2424242424242424
 40
0.2424242424242424
 40
0.2424242424242424
 40
0.2424242424242424
 40
0.2727272727272727
 40
0.2727272727272727
 40
0.2727272727272727
 40
0.2727272727272727
 40
0.303030303030303
 40
0.303030303030303
 40
0.303030303030303
 40
0.303030303030303
 40
0.3333333333333333
 40
0.3333333333333333
 40
0.3333333333333333
 40
0.3333333333333333
 40
0.3636363636363635
 40
0.3636363636363635
 40
0.3636363636363635
 40
0.3636363636363635
 40
0.3939393939393938
 40
0.3939393939393938
 40
0.3939393939393938
 40
0.3939393939393938
 40
0.4242424242424241
 40
0.4242424242424241
 40
0.4242424242424241
 40
0.4242424242424241
 40
0.4545454545454544
 40
0.4545454545454544
 40
0.4545454545454544
 40
0.4545454545454544
 40
0.4848484848484846
 40
0.4848484848484846
 40
0.4848484848484846
 40
0.4848484848484846
 40
0.5151515151515149
 40
0.5151515151515149
 40
0.5151515151515149
 40
0.5151515151515149
 40
0.5454545454545452
 40
0.5454545454545452
 40
0.5454545454545452
 40
0.5454545454545452
 40
0.5757575757575755
 40
0.5757575757575755
 40
0.5757575757575755
 40
0.5757575757575755
 40
0.6060606060606057
 40
0.6060606060606057
 40
0.6060606060606057
 40
0.6060606060606057
 40
0.636363636363636
 40
0.636363636363636
 40
0.636363636363636
 40
0.636363636363636
 40
0.6666666666666663
 40
0.6666666666666663
 40
0.6666666666666663
 40
0.6666666666666663
 40
0.6969696969696966
 40
0.6969696969696966
 40
0.6969696969696966
 40
0.6969696969696966
 40
0.7272727272727269
 40
0.7272727272727269
 40
0.7272727272727269
 40
0.7272727272727269
 40
0.7575757575757571
 40
0.7575757575757571
 40
0.7575757575757571
 40
0.7575757575757571
 40
0.7878787878787874
 40
0.7878787878787874
 40
0.7878787878787874
 40
0.7878787878787874
 40
0.8181818181818177
 40
0.8181818181818177
 40
0.8181818181818177
 40
0.8181818181818177
 40
0.848484848484848
 40
0.848484848484848
 40
0.848484848484848
 40
0.848484848484848
 40
0.8787878787878782
 40
0.8787878787878782
 40
0.8787878787878782
 40
0.8787878787878782
 40
0.9090909090909085
 40
0.9090909090909085
 40
0.9090909090909085
 40
0.9090909090909085
 40
0.9393939393939388
 40
0.9393939393939388
 40
0.9393939393939388
 40
0.9393939393939388
 40
0.9696969696969691
 40
0.9696969696969691
 40
0.9696969696969691
 40
0.9696969696969691
 40
1.0
 40
1.0
 40
1.0
 40
1.0
 10
-1.238673228346457
 20
0.9908031496062992
 30
0.0
 10
-1.238673228346457
 20
0.9908031496062992
 30
0.0
 10
-1.246562992125984
 20
0.9898307086614173
 30
0.0
 10
-1.246562992125984
 20
0.9898307086614173
 30
0.0
 10
-1.246562992125984
 20
0.9898307086614173
 30
0.0
 10
-1.247007874015748
 20
0.9936653543307087
 30
0.0
 10
-1.247228346456693
 20
0.9968307086614173
 30
0.0
 10
-1.247228346456693
 20
0.9992755905511811
 30
0.0
 10
-1.247228346456693
 20
0.9992755905511811
 30
0.0
 10
-1.247228346456693
 20
1.005665354330709
 30
0.0
 10
-1.24548031496063
 20
1.011720472440945
 30
0.0
 10
-1.242007874015748
 20
1.017413385826772
 30
0.0
 10
-1.242007874015748
 20
1.017413385826772
 30
0.0
 10
-1.238535433070866
 20
1.023110236220473
 30
0.0
 10
-1.233700787401575
 20
1.027555118110236
 30
0.0
 10
-1.22748031496063
 20
1.030748031496063
 30
0.0
 10
-1.22748031496063
 20
1.030748031496063
 30
0.0
 10
-1.221287401574803
 20
1.033972440944882
 30
0.0
 10
-1.214145669291339
 20
1.035555118110236
 30
0.0
 10
-1.206118110236221
 20
1.035555118110236
 30
0.0
 10
-1.206118110236221
 20
1.035555118110236
 30
0.0
 10
-1.198370078740157
 20
1.035555118110236
 30
0.0
 10
-1.191562992125984
 20
1.034055118110236
 30
0.0
 10
-1.185700787401575
 20
1.031055118110236
 30
0.0
 10
-1.185700787401575
 20
1.031055118110236
 30
0.0
 10
-1.17984251968504
 20
1.028027559055118
 30
0.0
 10
-1.175370078740158
 20
1.023913385826772
 30
0.0
 10
-1.172232283464567
 20
1.018665354330709
 30
0.0
 10
-1.172232283464567
 20
1.018665354330709
 30
0.0
 10
-1.169118110236221
 20
1.013444881889764
 30
0.0
 10
-1.167562992125984
 20
1.007472440944882
 30
0.0
 10
-1.167562992125984
 20
1.000720472440945
 30
0.0
 10
-1.167562992125984
 20
1.000720472440945
 30
0.0
 10
-1.167562992125984
 20
0.9950275590551182
 30
0.0
 10
-1.168562992125984
 20
0.9897480314960631
 30
0.0
 10
-1.170618110236221
 20
0.9849173228346457
 30
0.0
 10
-1.170618110236221
 20
0.9849173228346457
 30
0.0
 10
-1.172645669291339
 20
0.9800551181102363
 30
0.0
 10
-1.175925196850394
 20
0.9751377952755906
 30
0.0
 10
-1.180425196850394
 20
0.9702204724409449
 30
0.0
 10
-1.180425196850394
 20
0.9702204724409449
 30
0.0
 10
-1.183787401574803
 20
0.9665275590551181
 30
0.0
 10
-1.190590551181102
 20
0.9608897637795276
 30
0.0
 10
-1.200842519685039
 20
0.9532755905511812
 30
0.0
 10
-1.200842519685039
 20
0.9532755905511812
 30
0.0
 10
-1.213755905511811
 20
0.9436377952755906
 30
0.0
 10
-1.223645669291339
 20
0.9366377952755906
 30
0.0
 10
-1.230535433070866
 20
0.9322755905511811
 30
0.0
 10
-1.230535433070866
 20
0.9322755905511811
 30
0.0
 10
-1.230535433070866
 20
0.9322755905511811
 30
0.0
 10
-1.188228346456693
 20
0.9322755905511811
 30
0.0
 10
-1.188228346456693
 20
0.9322755905511811
 30
0.0
 10
-1.188228346456693
 20
0.9322755905511811
 30
0.0
 10
-1.183228346456693
 20
0.9322755905511811
 30
0.0
 10
-1.17998031496063
 20
0.932748031496063
 30
0.0
 10
-1.178452755905512
 20
0.9336653543307087
 30
0.0
 10
-1.178452755905512
 20
0.9336653543307087
 30
0.0
 10
-1.176342519685039
 20
0.9348622047244095
 30
0.0
 10
-1.174897637795276
 20
0.9376377952755906
 30
0.0
 10
-1.174145669291339
 20
0.941972440944882
 30
0.0
 10
-1.174145669291339
 20
0.941972440944882
 30
0.0
 10
-1.174145669291339
 20
0.941972440944882
 30
0.0
 10
-1.173425196850394
 20
0.9466102362204725
 30
0.0
 10
-1.173425196850394
 20
0.9466102362204725
 30
0.0
 10
-1.173425196850394
 20
0.9466102362204725
 30
0.0
 10
-1.173425196850394
 20
0.9466102362204725
 30
0.0
 10
-1.166507874015748
 20
0.9466102362204725
 30
0.0
 10
-1.166507874015748
 20
0.9466102362204725
 30
0.0
 10
-1.166507874015748
 20
0.9466102362204725
 30
0.0
 10
-1.166507874015748
 20
0.9466102362204725
 30
0.0
 10
-1.172035433070866
 20
0.9160275590551181
 30
0.0
 10
-1.172035433070866
 20
0.9160275590551181
 30
0.0
 10
-1.172035433070866
 20
0.9160275590551181
 30
0.0
 10
-1.172035433070866
 20
0.9160275590551181
 30
0.0
 10
-1.177228346456693
 20
0.9160275590551181
 30
0.0
 10
-1.177228346456693
 20
0.9160275590551181
 30
0.0
 10
-1.177228346456693
 20
0.9160275590551181
 30
0.0
 10
-1.177228346456693
 20
0.9160275590551181
 30
0.0
 10
-1.178145669291339
 20
0.9200826771653544
 30
0.0
 10
-1.178145669291339
 20
0.9200826771653544
 30
0.0
 10
-1.178145669291339
 20
0.9200826771653544
 30
0.0
 10
-1.178145669291339
 20
0.9200826771653544
 30
0.0
 10
-1.249255905511811
 20
0.9200826771653544
 30
0.0
 10
-1.249255905511811
 20
0.9200826771653544
 30
0.0
 10
-1.249255905511811
 20
0.9200826771653544
 30
0.0
 10
-1.249255905511811
 20
0.9200826771653544
 30
0.0
 10
-1.249255905511811
 20
0.9269173228346457
 30
0.0
 10
-1.249255905511811
 20
0.9269173228346457
 30
0.0
 10
-1.249255905511811
 20
0.9269173228346457
 30
0.0
 10
-1.249255905511811
 20
0.9269173228346457
 30
0.0
 10
-1.236228346456693
 20
0.9367755905511811
 30
0.0
 10
-1.236228346456693
 20
0.9367755905511811
 30
0.0
 10
-1.236228346456693
 20
0.9367755905511811
 30
0.0
 10
-1.226370078740158
 20
0.9440826771653543
 30
0.0
 10
-1.219118110236221
 20
0.9496929133858268
 30
0.0
 10
-1.214507874015748
 20
0.9536102362204725
 30
0.0
 10
-1.214507874015748
 20
0.9536102362204725
 30
0.0
 10
-1.205787401574803
 20
0.9610000000000001
 30
0.0
 10
-1.199200787401575
 20
0.9673031496062993
 30
0.0
 10
-1.194787401574803
 20
0.9725275590551181
 30
0.0
 10
-1.194787401574803
 20
0.9725275590551181
 30
0.0
 10
-1.190370078740157
 20
0.9777755905511811
 30
0.0
 10
-1.187314960629921
 20
0.9825
 30
0.0
 10
-1.185673228346457
 20
0.9866929133858268
 30
0.0
 10
-1.185673228346457
 20
0.9866929133858268
 30
0.0
 10
-1.184007874015748
 20
0.9908858267716536
 30
0.0
 10
-1.183173228346457
 20
0.9953031496062993
 30
0.0
 10
-1.183173228346457
 20
0.9999173228346457
 30
0.0
 10
-1.183173228346457
 20
0.9999173228346457
 30
0.0
 10
-1.183173228346457
 20
1.007555118110236
 30
0.0
 10
-1.185645669291339
 20
1.013830708661417
 30
0.0
 10
-1.190535433070866
 20
1.018720472440945
 30
0.0
 10
-1.190535433070866
 20
1.018720472440945
 30
0.0
 10
-1.195452755905512
 20
1.023610236220472
 30
0.0
 10
-1.20184251968504
 20
1.026027559055118
 30
0.0
 10
-1.209700787401575
 20
1.026027559055118
 30
0.0
 10
-1.209700787401575
 20
1.026027559055118
 30
0.0
 10
-1.215342519685039
 20
1.026027559055118
 30
0.0
 10
-1.220397637795276
 20
1.024830708661418
 30
0.0
 10
-1.224814960629921
 20
1.022385826771654
 30
0.0
 10
-1.224814960629921
 20
1.022385826771654
 30
0.0
 10
-1.229228346456693
 20
1.019944881889764
 30
0.0
 10
-1.232700787401575
 20
1.016527559055118
 30
0.0
 10
-1.235255905511811
 20
1.012110236220473
 30
0.0
 10
-1.235255905511811
 20
1.012110236220473
 30
0.0
 10
-1.237814960629921
 20
1.007720472440945
 30
0.0
 10
-1.239090551181102
 20
1.002972440944882
 30
0.0
 10
-1.239090551181102
 20
0.9978858267716536
 30
0.0
 10
-1.239090551181102
 20
0.9978858267716536
 30
0.0
 10
-1.239090551181102
 20
0.9959724409448819
 30
0.0
 10
-1.238952755905512
 20
0.9936102362204725
 30
0.0
 10
-1.238673228346457
 20
0.9908031496062992
 30
0.0
  0
SPLINE
  5
70
330
1F
100
AcDbEntity
  8
LAYER_1
 62
   250
100
AcDbSpline
210
0.0
220
0.0
230
1.0
 70
    11
 71
     3
 72
    60
 73
    56
 74
     0
 42
0.0000000001
 43
0.0000000001
 40
0.0
 40
0.0
 40
0.0
 40
0.0
 40
0.0714285714285714
 40
0.0714285714285714
 40
0.0714285714285714
 40
0.0714285714285714
 40
0.1428571428571429
 40
0.1428571428571429
 40
0.1428571428571429
 40
0.1428571428571429
 40
0.2142857142857143
 40
0.2142857142857143
 40
0.2142857142857143
 40
0.2142857142857143
 40
0.2857142857142857
 40
0.2857142857142857
 40
0.2857142857142857
 40
0.2857142857142857
 40
0.3571428571428571
 40
0.3571428571428571
 40
0.3571428571428571
 40
0.3571428571428571
 40
0.4285714285714285
 40
0.4285714285714285
 40
0.4285714285714285
 40
0.4285714285714285
 40
0.4999999999999999
 40
0.4999999999999999
 40
0.4999999999999999
 40
0.4999999999999999
 40
0.5714285714285713
 40
0.5714285714285713
 40
0.5714285714285713
 40
0.5714285714285713
 40
0.6428571428571427
 40
0.6428571428571427
 40
0.6428571428571427
 40
0.6428571428571427
 40
0.7142857142857141
 40
0.7142857142857141
 40
0.7142857142857141
 40
0.7142857142857141
 40
0.7857142857142855
 40
0.7857142857142855
 40
0.7857142857142855
 40
0.7857142857142855
 40
0.8571428571428569
 40
0.8571428571428569
 40
0.8571428571428569
 40
0.8571428571428569
 40
0.9285714285714283
 40
0.9285714285714283
 40
0.9285714285714283
 40
0.9285714285714283
 40
1.0
 40
1.0
 40
1.0
 40
1.0
 10
-1.144118110236221
 20
0.9915275590551181
 30
0.0
 10
-1.144118110236221
 20
0.9915275590551181
 30
0.0
 10
-1.148507874015748
 20
0.9969173228346457
 30
0.0
 10
-1.148507874015748
 20
0.9969173228346457
 30
0.0
 10
-1.148507874015748
 20
0.9969173228346457
 30
0.0
 10
-1.137393700787402
 20
1.005972440944882
 30
0.0
 10
-1.131811023622047
 20
1.013527559055118
 30
0.0
 10
-1.131811023622047
 20
1.019610236220472
 30
0.0
 10
-1.131811023622047
 20
1.019610236220472
 30
0.0
 10
-1.131811023622047
 20
1.020303149606299
 30
0.0
 10
-1.131866141732284
 20
1.021192913385827
 30
0.0
 10
-1.13198031496063
 20
1.022220472440945
 30
0.0
 10
-1.13198031496063
 20
1.022220472440945
 30
0.0
 10
-1.132893700787402
 20
1.021830708661417
 30
0.0
 10
-1.133811023622047
 20
1.021527559055118
 30
0.0
 10
-1.134673228346457
 20
1.021330708661417
 30
0.0
 10
-1.134673228346457
 20
1.021330708661417
 30
0.0
 10
-1.135535433070866
 20
1.021110236220473
 30
0.0
 10
-1.136338582677166
 20
1.021
 30
0.0
 10
-1.13711811023622
 20
1.021
 30
0.0
 10
-1.13711811023622
 20
1.021
 30
0.0
 10
-1.139728346456693
 20
1.021
 30
0.0
 10
-1.141811023622047
 20
1.021830708661417
 30
0.0
 10
-1.143366141732284
 20
1.023527559055118
 30
0.0
 10
-1.143366141732284
 20
1.023527559055118
 30
0.0
 10
-1.144952755905512
 20
1.025192913385827
 30
0.0
 10
-1.145728346456693
 20
1.027330708661417
 30
0.0
 10
-1.145728346456693
 20
1.029944881889764
 30
0.0
 10
-1.145728346456693
 20
1.029944881889764
 30
0.0
 10
-1.145728346456693
 20
1.0325
 30
0.0
 10
-1.144783464566929
 20
1.034720472440945
 30
0.0
 10
-1.142893700787402
 20
1.036610236220473
 30
0.0
 10
-1.142893700787402
 20
1.036610236220473
 30
0.0
 10
-1.14098031496063
 20
1.038527559055118
 30
0.0
 10
-1.138700787401575
 20
1.039472440944882
 30
0.0
 10
-1.136062992125984
 20
1.039472440944882
 30
0.0
 10
-1.136062992125984
 20
1.039472440944882
 30
0.0
 10
-1.132366141732283
 20
1.039472440944882
 30
0.0
 10
-1.129200787401575
 20
1.038
 30
0.0
 10
-1.126562992125984
 20
1.035027559055118
 30
0.0
 10
-1.126562992125984
 20
1.035027559055118
 30
0.0
 10
-1.123952755905512
 20
1.032082677165354
 30
0.0
 10
-1.122618110236221
 20
1.028275590551181
 30
0.0
 10
-1.122618110236221
 20
1.023610236220472
 30
0.0
 10
-1.122618110236221
 20
1.023610236220472
 30
0.0
 10
-1.122618110236221
 20
1.020555118110236
 30
0.0
 10
-1.123255905511811
 20
1.017358267716535
 30
0.0
 10
-1.124507874015748
 20
1.014027559055118
 30
0.0
 10
-1.124507874015748
 20
1.014027559055118
 30
0.0
 10
-1.125755905511811
 20
1.010692913385827
 30
0.0
 10
-1.127562992125984
 20
1.007610236220472
 30
0.0
 10
-1.129952755905512
 20
1.004748031496063
 30
0.0
 10
-1.129952755905512
 20
1.004748031496063
 30
0.0
 10
-1.132338582677166
 20
1.001917322834646
 30
0.0
 10
-1.137062992125984
 20
0.9975000000000001
 30
0.0
 10
-1.144118110236221
 20
0.9915275590551181
 30
0.0
  0
SPLINE
  5
71
330
1F
100
AcDbEntity
  8
LAYER_1
 62
   250
100
AcDbSpline
210
0.0
220
0.0
230
1.0
 70
    11
 71
     3
 72
    60
 73
    56
 74
     0
 42
0.0000000001
 43
0.0000000001
 40
0.0
 40
0.0
 40
0.0
 40
0.0
 40
0.0714285714285714
 40
0.0714285714285714
 40
0.0714285714285714
 40
0.0714285714285714
 40
0.1428571428571429
 40
0.1428571428571429
 40
0.1428571428571429
 40
0.1428571428571429
 40
0.2142857142857143
 40
0.2142857142857143
 40
0.2142857142857143
 40
0.2142857142857143
 40
0.2857142857142857
 40
0.2857142857142857
 40
0.2857142857142857
 40
0.2857142857142857
 40
0.3571428571428571
 40
0.3571428571428571
 40
0.3571428571428571
 40
0.3571428571428571
 40
0.4285714285714285
 40
0.4285714285714285
 40
0.4285714285714285
 40
0.4285714285714285
 40
0.4999999999999999
 40
0.4999999999999999
 40
0.4999999999999999
 40
0.4999999999999999
 40
0.5714285714285713
 40
0.5714285714285713
 40
0.5714285714285713
 40
0.5714285714285713
 40
0.6428571428571427
 40
0.6428571428571427
 40
0.6428571428571427
 40
0.6428571428571427
 40
0.7142857142857141
 40
0.7142857142857141
 40
0.7142857142857141
 40
0.7142857142857141
 40
0.7857142857142855
 40
0.7857142857142855
 40
0.7857142857142855
 40
0.7857142857142855
 40
0.8571428571428569
 40
0.8571428571428569
 40
0.8571428571428569
 40
0.8571428571428569
 40
0.9285714285714283
 40
0.9285714285714283
 40
0.9285714285714283
 40
0.9285714285714283
 40
1.0
 40
1.0
 40
1.0
 40
1.0
 10
-1.115062992125984
 20
0.9915275590551181
 30
0.0
 10
-1.115062992125984
 20
0.9915275590551181
 30
0.0
 10
-1.119452755905512
 20
0.9969173228346457
 30
0.0
 10
-1.119452755905512
 20
0.9969173228346457
 30
0.0
 10
-1.119452755905512
 20
0.9969173228346457
 30
0.0
 10
-1.108338582677166
 20
1.005972440944882
 30
0.0
 10
-1.102755905511811
 20
1.013527559055118
 30
0.0
 10
-1.102755905511811
 20
1.019610236220472
 30
0.0
 10
-1.102755905511811
 20
1.019610236220472
 30
0.0
 10
-1.102755905511811
 20
1.020303149606299
 30
0.0
 10
-1.102811023622047
 20
1.021192913385827
 30
0.0
 10
-1.102925196850394
 20
1.022220472440945
 30
0.0
 10
-1.102925196850394
 20
1.022220472440945
 30
0.0
 10
-1.103838582677166
 20
1.021830708661417
 30
0.0
 10
-1.104755905511811
 20
1.021527559055118
 30
0.0
 10
-1.105618110236221
 20
1.021330708661417
 30
0.0
 10
-1.105618110236221
 20
1.021330708661417
 30
0.0
 10
-1.10648031496063
 20
1.021110236220473
 30
0.0
 10
-1.107311023622047
 20
1.021
 30
0.0
 10
-1.108145669291339
 20
1.021
 30
0.0
 10
-1.108145669291339
 20
1.021
 30
0.0
 10
-1.110700787401575
 20
1.021
 30
0.0
 10
-1.112755905511811
 20
1.021830708661417
 30
0.0
 10
-1.114311023622047
 20
1.023527559055118
 30
0.0
 10
-1.114311023622047
 20
1.023527559055118
 30
0.0
 10
-1.115893700787402
 20
1.025192913385827
 30
0.0
 10
-1.116673228346457
 20
1.027330708661417
 30
0.0
 10
-1.116673228346457
 20
1.029944881889764
 30
0.0
 10
-1.116673228346457
 20
1.029944881889764
 30
0.0
 10
-1.116673228346457
 20
1.0325
 30
0.0
 10
-1.115728346456693
 20
1.034720472440945
 30
0.0
 10
-1.113838582677165
 20
1.036610236220473
 30
0.0
 10
-1.113838582677165
 20
1.036610236220473
 30
0.0
 10
-1.111952755905512
 20
1.038527559055118
 30
0.0
 10
-1.109645669291339
 20
1.039472440944882
 30
0.0
 10
-1.107007874015748
 20
1.039472440944882
 30
0.0
 10
-1.107007874015748
 20
1.039472440944882
 30
0.0
 10
-1.103311023622047
 20
1.039472440944882
 30
0.0
 10
-1.100145669291339
 20
1.038
 30
0.0
 10
-1.097507874015748
 20
1.035027559055118
 30
0.0
 10
-1.097507874015748
 20
1.035027559055118
 30
0.0
 10
-1.094897637795276
 20
1.032082677165354
 30
0.0
 10
-1.093562992125984
 20
1.028275590551181
 30
0.0
 10
-1.093562992125984
 20
1.023610236220472
 30
0.0
 10
-1.093562992125984
 20
1.023610236220472
 30
0.0
 10
-1.093562992125984
 20
1.020555118110236
 30
0.0
 10
-1.094200787401575
 20
1.017358267716535
 30
0.0
 10
-1.095452755905512
 20
1.014027559055118
 30
0.0
 10
-1.095452755905512
 20
1.014027559055118
 30
0.0
 10
-1.096700787401575
 20
1.010692913385827
 30
0.0
 10
-1.098507874015748
 20
1.007610236220472
 30
0.0
 10
-1.100893700787402
 20
1.004748031496063
 30
0.0
 10
-1.100893700787402
 20
1.004748031496063
 30
0.0
 10
-1.103283464566929
 20
1.001917322834646
 30
0.0
 10
-1.108007874015748
 20
0.9975000000000001
 30
0.0
 10
-1.115062992125984
 20
0.9915275590551181
 30
0.0
  0
SPLINE
  5
72
330
1F
100
AcDbEntity
  8
LAYER_1
 62
   250
100
AcDbSpline
210
0.0
220
0.0
230
1.0
 70
    11
 71
     3
 72
   104
 73
   100
 74
     0
 42
0.0000000001
 43
0.0000000001
 40
0.0
 40
0.0
 40
0.0
 40
0.0
 40
0.04
 40
0.04
 40
0.04
 40
0.04
 40
0.08
 40
0.08
 40
0.08
 40
0.08
 40
0.12
 40
0.12
 40
0.12
 40
0.12
 40
0.16
 40
0.16
 40
0.16
 40
0.16
 40
0.2
 40
0.2
 40
0.2
 40
0.2
 40
0.24
 40
0.24
 40
0.24
 40
0.24
 40
0.28
 40
0.28
 40
0.28
 40
0.28
 40
0.32
 40
0.32
 40
0.32
 40
0.32
 40
0.36
 40
0.36
 40
0.36
 40
0.36
 40
0.4
 40
0.4
 40
0.4
 40
0.4
 40
0.44
 40
0.44
 40
0.44
 40
0.44
 40
0.4799999999999999
 40
0.4799999999999999
 40
0.4799999999999999
 40
0.4799999999999999
 40
0.5199999999999999
 40
0.5199999999999999
 40
0.5199999999999999
 40
0.5199999999999999
 40
0.5599999999999999
 40
0.5599999999999999
 40
0.5599999999999999
 40
0.5599999999999999
 40
0.6
 40
0.6
 40
0.6
 40
0.6
 40
0.64
 40
0.64
 40
0.64
 40
0.64
 40
0.6800000000000001
 40
0.6800000000000001
 40
0.6800000000000001
 40
0.6800000000000001
 40
0.7200000000000001
 40
0.7200000000000001
 40
0.7200000000000001
 40
0.7200000000000001
 40
0.7600000000000001
 40
0.7600000000000001
 40
0.7600000000000001
 40
0.7600000000000001
 40
0.8000000000000002
 40
0.8000000000000002
 40
0.8000000000000002
 40
0.8000000000000002
 40
0.8400000000000002
 40
0.8400000000000002
 40
0.8400000000000002
 40
0.8400000000000002
 40
0.8800000000000002
 40
0.8800000000000002
 40
0.8800000000000002
 40
0.8800000000000002
 40
0.9200000000000003
 40
0.9200000000000003
 40
0.9200000000000003
 40
0.9200000000000003
 40
0.9600000000000003
 40
0.9600000000000003
 40
0.9600000000000003
 40
0.9600000000000003
 40
1.0
 40
1.0
 40
1.0
 40
1.0
 10
0.9447755905511811
 20
1.214291338582677
 30
0.0
 10
0.9447755905511811
 20
1.214291338582677
 30
0.0
 10
0.9987480314960631
 20
1.214291338582677
 30
0.0
 10
0.9987480314960631
 20
1.214291338582677
 30
0.0
 10
0.9987480314960631
 20
1.214291338582677
 30
0.0
 10
1.011917322834646
 20
1.214291338582677
 30
0.0
 10
1.020944881889764
 20
1.213681102362205
 30
0.0
 10
1.025830708661417
 20
1.212484251968504
 30
0.0
 10
1.025830708661417
 20
1.212484251968504
 30
0.0
 10
1.033055118110236
 20
1.210763779527559
 30
0.0
 10
1.038748031496063
 20
1.207625984251969
 30
0.0
 10
1.042972440944882
 20
1.203066929133858
 30
0.0
 10
1.042972440944882
 20
1.203066929133858
 30
0.0
 10
1.047165354330709
 20
1.198511811023622
 30
0.0
 10
1.049275590551181
 20
1.193011811023622
 30
0.0
 10
1.049275590551181
 20
1.186625984251969
 30
0.0
 10
1.049275590551181
 20
1.186625984251969
 30
0.0
 10
1.049275590551181
 20
1.182011811023622
 30
0.0
 10
1.048165354330709
 20
1.177874015748032
 30
0.0
 10
1.045944881889764
 20
1.174208661417323
 30
0.0
 10
1.045944881889764
 20
1.174208661417323
 30
0.0
 10
1.043720472440945
 20
1.17053937007874
 30
0.0
 10
1.040472440944882
 20
1.16740157480315
 30
0.0
 10
1.036248031496063
 20
1.164818897637795
 30
0.0
 10
1.036248031496063
 20
1.164818897637795
 30
0.0
 10
1.033527559055118
 20
1.163125984251969
 30
0.0
 10
1.029858267716536
 20
1.161681102362205
 30
0.0
 10
1.025192913385827
 20
1.160484251968504
 30
0.0
 10
1.025192913385827
 20
1.160484251968504
 30
0.0
 10
1.031110236220473
 20
1.15940157480315
 30
0.0
 10
1.035610236220472
 20
1.158098425196851
 30
0.0
 10
1.038692913385827
 20
1.15659842519685
 30
0.0
 10
1.038692913385827
 20
1.15659842519685
 30
0.0
 10
1.043358267716535
 20
1.154318897637795
 30
0.0
 10
1.047055118110236
 20
1.151070866141732
 30
0.0
 10
1.049748031496063
 20
1.146818897637795
 30
0.0
 10
1.049748031496063
 20
1.146818897637795
 30
0.0
 10
1.052472440944882
 20
1.14259842519685
 30
0.0
 10
1.053830708661417
 20
1.137818897637795
 30
0.0
 10
1.053830708661417
 20
1.132511811023622
 30
0.0
 10
1.053830708661417
 20
1.132511811023622
 30
0.0
 10
1.053830708661417
 20
1.127346456692913
 30
0.0
 10
1.0525
 20
1.122570866141732
 30
0.0
 10
1.049830708661417
 20
1.118181102362205
 30
0.0
 10
1.049830708661417
 20
1.118181102362205
 30
0.0
 10
1.047192913385827
 20
1.113791338582677
 30
0.0
 10
1.043417322834646
 20
1.110181102362205
 30
0.0
 10
1.038582677165354
 20
1.107346456692913
 30
0.0
 10
1.038582677165354
 20
1.107346456692913
 30
0.0
 10
1.033720472440945
 20
1.104543307086614
 30
0.0
 10
1.028055118110236
 20
1.102736220472441
 30
0.0
 10
1.021610236220472
 20
1.101929133858268
 30
0.0
 10
1.021610236220472
 20
1.101929133858268
 30
0.0
 10
1.015137795275591
 20
1.101153543307087
 30
0.0
 10
1.0085
 20
1.100763779527559
 30
0.0
 10
1.001665354330709
 20
1.100763779527559
 30
0.0
 10
1.001665354330709
 20
1.100763779527559
 30
0.0
 10
1.001665354330709
 20
1.100763779527559
 30
0.0
 10
0.9447755905511811
 20
1.100763779527559
 30
0.0
 10
0.9447755905511811
 20
1.100763779527559
 30
0.0
 10
0.9447755905511811
 20
1.100763779527559
 30
0.0
 10
0.9447755905511811
 20
1.100763779527559
 30
0.0
 10
0.9447755905511811
 20
1.107598425196851
 30
0.0
 10
0.9447755905511811
 20
1.107598425196851
 30
0.0
 10
0.9447755905511811
 20
1.107598425196851
 30
0.0
 10
0.9447755905511811
 20
1.107598425196851
 30
0.0
 10
0.9486102362204725
 20
1.107598425196851
 30
0.0
 10
0.9486102362204725
 20
1.107598425196851
 30
0.0
 10
0.9486102362204725
 20
1.107598425196851
 30
0.0
 10
0.9523070866141733
 20
1.107598425196851
 30
0.0
 10
0.9548070866141732
 20
1.108181102362205
 30
0.0
 10
0.9561653543307087
 20
1.109318897637795
 30
0.0
 10
0.9561653543307087
 20
1.109318897637795
 30
0.0
 10
0.9581377952755906
 20
1.110874015748032
 30
0.0
 10
0.9591102362204724
 20
1.113484251968504
 30
0.0
 10
0.9591102362204724
 20
1.117125984251969
 30
0.0
 10
0.9591102362204724
 20
1.117125984251969
 30
0.0
 10
0.9591102362204724
 20
1.117125984251969
 30
0.0
 10
0.9591102362204724
 20
1.195984251968504
 30
0.0
 10
0.9591102362204724
 20
1.195984251968504
 30
0.0
 10
0.9591102362204724
 20
1.195984251968504
 30
0.0
 10
0.9591102362204724
 20
1.199681102362205
 30
0.0
 10
0.9588070866141732
 20
1.202181102362205
 30
0.0
 10
0.9582204724409449
 20
1.20353937007874
 30
0.0
 10
0.9582204724409449
 20
1.20353937007874
 30
0.0
 10
0.9576102362204725
 20
1.20490157480315
 30
0.0
 10
0.9567204724409449
 20
1.205874015748031
 30
0.0
 10
0.9555275590551181
 20
1.206484251968504
 30
0.0
 10
0.9555275590551181
 20
1.206484251968504
 30
0.0
 10
0.9543346456692914
 20
1.207066929133858
 30
0.0
 10
0.9520275590551182
 20
1.207374015748032
 30
0.0
 10
0.9486102362204725
 20
1.207374015748032
 30
0.0
 10
0.9486102362204725
 20
1.207374015748032
 30
0.0
 10
0.9486102362204725
 20
1.207374015748032
 30
0.0
 10
0.9447755905511811
 20
1.207374015748032
 30
0.0
 10
0.9447755905511811
 20
1.207374015748032
 30
0.0
 10
0.9447755905511811
 20
1.207374015748032
 30
0.0
 10
0.9447755905511811
 20
1.207374015748032
 30
0.0
 10
0.9447755905511811
 20
1.214291338582677
 30
0.0
 10
0.9447755905511811
 20
1.214291338582677
 30
0.0
  0
SPLINE
  5
73
330
1F
100
AcDbEntity
  8
LAYER_1
 62
   250
100
AcDbSpline
210
0.0
220
0.0
230
1.0
 70
    11
 71
     3
 72
    40
 73
    36
 74
     0
 42
0.0000000001
 43
0.0000000001
 40
0.0
 40
0.0
 40
0.0
 40
0.0
 40
0.1111111111111111
 40
0.1111111111111111
 40
0.1111111111111111
 40
0.1111111111111111
 40
0.2222222222222222
 40
0.2222222222222222
 40
0.2222222222222222
 40
0.2222222222222222
 40
0.3333333333333333
 40
0.3333333333333333
 40
0.3333333333333333
 40
0.3333333333333333
 40
0.4444444444444444
 40
0.4444444444444444
 40
0.4444444444444444
 40
0.4444444444444444
 40
0.5555555555555556
 40
0.5555555555555556
 40
0.5555555555555556
 40
0.5555555555555556
 40
0.6666666666666667
 40
0.6666666666666667
 40
0.6666666666666667
 40
0.6666666666666667
 40
0.7777777777777779
 40
0.7777777777777779
 40
0.7777777777777779
 40
0.7777777777777779
 40
0.8888888888888891
 40
0.8888888888888891
 40
0.8888888888888891
 40
0.8888888888888891
 40
1.0
 40
1.0
 40
1.0
 40
1.0
 10
0.9743346456692914
 20
1.205263779527559
 30
0.0
 10
0.9743346456692914
 20
1.205263779527559
 30
0.0
 10
0.9743346456692914
 20
1.163681102362205
 30
0.0
 10
0.9743346456692914
 20
1.163681102362205
 30
0.0
 10
0.9743346456692914
 20
1.163681102362205
 30
0.0
 10
0.9743346456692914
 20
1.163681102362205
 30
0.0
 10
0.9950826771653544
 20
1.163681102362205
 30
0.0
 10
0.9950826771653544
 20
1.163681102362205
 30
0.0
 10
0.9950826771653544
 20
1.163681102362205
 30
0.0
 10
1.004775590551181
 20
1.163681102362205
 30
0.0
 10
1.011444881889764
 20
1.164125984251968
 30
0.0
 10
1.015
 20
1.16503937007874
 30
0.0
 10
1.015
 20
1.16503937007874
 30
0.0
 10
1.020610236220473
 20
1.166511811023622
 30
0.0
 10
1.024858267716535
 20
1.169011811023622
 30
0.0
 10
1.027830708661417
 20
1.17253937007874
 30
0.0
 10
1.027830708661417
 20
1.17253937007874
 30
0.0
 10
1.030775590551181
 20
1.176066929133858
 30
0.0
 10
1.032275590551181
 20
1.18059842519685
 30
0.0
 10
1.032275590551181
 20
1.186125984251969
 30
0.0
 10
1.032275590551181
 20
1.186125984251969
 30
0.0
 10
1.032275590551181
 20
1.190791338582677
 30
0.0
 10
1.030917322834646
 20
1.194681102362205
 30
0.0
 10
1.028248031496063
 20
1.197818897637795
 30
0.0
 10
1.028248031496063
 20
1.197818897637795
 30
0.0
 10
1.025555118110236
 20
1.200929133858268
 30
0.0
 10
1.021944881889764
 20
1.203066929133858
 30
0.0
 10
1.017444881889764
 20
1.204208661417323
 30
0.0
 10
1.017444881889764
 20
1.204208661417323
 30
0.0
 10
1.014527559055118
 20
1.20490157480315
 30
0.0
 10
1.008444881889764
 20
1.205263779527559
 30
0.0
 10
0.9992204724409449
 20
1.205263779527559
 30
0.0
 10
0.9992204724409449
 20
1.205263779527559
 30
0.0
 10
0.9992204724409449
 20
1.205263779527559
 30
0.0
 10
0.9743346456692914
 20
1.205263779527559
 30
0.0
 10
0.9743346456692914
 20
1.205263779527559
 30
0.0
  0
SPLINE
  5
74
330
1F
100
AcDbEntity
  8
LAYER_1
 62
   250
100
AcDbSpline
210
0.0
220
0.0
230
1.0
 70
    11
 71
     3
 72
    52
 73
    48
 74
     0
 42
0.0000000001
 43
0.0000000001
 40
0.0
 40
0.0
 40
0.0
 40
0.0
 40
0.0833333333333333
 40
0.0833333333333333
 40
0.0833333333333333
 40
0.0833333333333333
 40
0.1666666666666667
 40
0.1666666666666667
 40
0.1666666666666667
 40
0.1666666666666667
 40
0.25
 40
0.25
 40
0.25
 40
0.25
 40
0.3333333333333333
 40
0.3333333333333333
 40
0.3333333333333333
 40
0.3333333333333333
 40
0.4166666666666666
 40
0.4166666666666666
 40
0.4166666666666666
 40
0.4166666666666666
 40
0.4999999999999999
 40
0.4999999999999999
 40
0.4999999999999999
 40
0.4999999999999999
 40
0.5833333333333333
 40
0.5833333333333333
 40
0.5833333333333333
 40
0.5833333333333333
 40
0.6666666666666666
 40
0.6666666666666666
 40
0.6666666666666666
 40
0.6666666666666666
 40
0.75
 40
0.75
 40
0.75
 40
0.75
 40
0.8333333333333334
 40
0.8333333333333334
 40
0.8333333333333334
 40
0.8333333333333334
 40
0.9166666666666667
 40
0.9166666666666667
 40
0.9166666666666667
 40
0.9166666666666667
 40
1.0
 40
1.0
 40
1.0
 40
1.0
 10
0.9743346456692914
 20
1.155846456692913
 30
0.0
 10
0.9743346456692914
 20
1.155846456692913
 30
0.0
 10
0.9743346456692914
 20
1.11859842519685
 30
0.0
 10
0.9743346456692914
 20
1.11859842519685
 30
0.0
 10
0.9743346456692914
 20
1.11859842519685
 30
0.0
 10
0.9743346456692914
 20
1.114846456692914
 30
0.0
 10
0.9745
 20
1.112625984251969
 30
0.0
 10
0.9748031496062992
 20
1.11190157480315
 30
0.0
 10
0.9748031496062992
 20
1.11190157480315
 30
0.0
 10
0.975248031496063
 20
1.110929133858268
 30
0.0
 10
0.9761102362204724
 20
1.110263779527559
 30
0.0
 10
0.9774173228346457
 20
1.109874015748032
 30
0.0
 10
0.9774173228346457
 20
1.109874015748032
 30
0.0
 10
0.9783346456692914
 20
1.109598425196851
 30
0.0
 10
0.9809448818897638
 20
1.109456692913386
 30
0.0
 10
0.9852204724409449
 20
1.109456692913386
 30
0.0
 10
0.9852204724409449
 20
1.109456692913386
 30
0.0
 10
0.9852204724409449
 20
1.109456692913386
 30
0.0
 10
0.9963031496062993
 20
1.109456692913386
 30
0.0
 10
0.9963031496062993
 20
1.109456692913386
 30
0.0
 10
0.9963031496062993
 20
1.109456692913386
 30
0.0
 10
1.007248031496063
 20
1.109456692913386
 30
0.0
 10
1.015082677165354
 20
1.110070866141732
 30
0.0
 10
1.019775590551181
 20
1.111291338582677
 30
0.0
 10
1.019775590551181
 20
1.111291338582677
 30
0.0
 10
1.024472440944882
 20
1.112511811023622
 30
0.0
 10
1.028472440944882
 20
1.115098425196851
 30
0.0
 10
1.031775590551181
 20
1.119043307086614
 30
0.0
 10
1.031775590551181
 20
1.119043307086614
 30
0.0
 10
1.035082677165354
 20
1.122956692913386
 30
0.0
 10
1.036748031496063
 20
1.127708661417323
 30
0.0
 10
1.036748031496063
 20
1.133236220472441
 30
0.0
 10
1.036748031496063
 20
1.133236220472441
 30
0.0
 10
1.036748031496063
 20
1.13790157480315
 30
0.0
 10
1.035389763779528
 20
1.14203937007874
 30
0.0
 10
1.032720472440945
 20
1.145653543307087
 30
0.0
 10
1.032720472440945
 20
1.145653543307087
 30
0.0
 10
1.030027559055118
 20
1.149263779527559
 30
0.0
 10
1.026303149606299
 20
1.151846456692913
 30
0.0
 10
1.021555118110236
 20
1.153456692913386
 30
0.0
 10
1.021555118110236
 20
1.153456692913386
 30
0.0
 10
1.016803149606299
 20
1.155070866141732
 30
0.0
 10
1.008389763779528
 20
1.155846456692913
 30
0.0
 10
0.9963031496062993
 20
1.155846456692913
 30
0.0
 10
0.9963031496062993
 20
1.155846456692913
 30
0.0
 10
0.9963031496062993
 20
1.155846456692913
 30
0.0
 10
0.9743346456692914
 20
1.155846456692913
 30
0.0
 10
0.9743346456692914
 20
1.155846456692913
 30
0.0
  0
SPLINE
  5
75
330
1F
100
AcDbEntity
  8
LAYER_1
 62
   250
100
AcDbSpline
210
0.0
220
0.0
230
1.0
 70
    11
 71
     3
 72
   112
 73
   108
 74
     0
 42
0.0000000001
 43
0.0000000001
 40
0.0
 40
0.0
 40
0.0
 40
0.0
 40
0.037037037037037
 40
0.037037037037037
 40
0.037037037037037
 40
0.037037037037037
 40
0.0740740740740741
 40
0.0740740740740741
 40
0.0740740740740741
 40
0.0740740740740741
 40
0.1111111111111111
 40
0.1111111111111111
 40
0.1111111111111111
 40
0.1111111111111111
 40
0.1481481481481481
 40
0.1481481481481481
 40
0.1481481481481481
 40
0.1481481481481481
 40
0.1851851851851852
 40
0.1851851851851852
 40
0.1851851851851852
 40
0.1851851851851852
 40
0.2222222222222222
 40
0.2222222222222222
 40
0.2222222222222222
 40
0.2222222222222222
 40
0.2592592592592592
 40
0.2592592592592592
 40
0.2592592592592592
 40
0.2592592592592592
 40
0.2962962962962963
 40
0.2962962962962963
 40
0.2962962962962963
 40
0.2962962962962963
 40
0.3333333333333333
 40
0.3333333333333333
 40
0.3333333333333333
 40
0.3333333333333333
 40
0.3703703703703704
 40
0.3703703703703704
 40
0.3703703703703704
 40
0.3703703703703704
 40
0.4074074074074074
 40
0.4074074074074074
 40
0.4074074074074074
 40
0.4074074074074074
 40
0.4444444444444444
 40
0.4444444444444444
 40
0.4444444444444444
 40
0.4444444444444444
 40
0.4814814814814815
 40
0.4814814814814815
 40
0.4814814814814815
 40
0.4814814814814815
 40
0.5185185185185185
 40
0.5185185185185185
 40
0.5185185185185185
 40
0.5185185185185185
 40
0.5555555555555556
 40
0.5555555555555556
 40
0.5555555555555556
 40
0.5555555555555556
 40
0.5925925925925926
 40
0.5925925925925926
 40
0.5925925925925926
 40
0.5925925925925926
 40
0.6296296296296295
 40
0.6296296296296295
 40
0.6296296296296295
 40
0.6296296296296295
 40
0.6666666666666665
 40
0.6666666666666665
 40
0.6666666666666665
 40
0.6666666666666665
 40
0.7037037037037035
 40
0.7037037037037035
 40
0.7037037037037035
 40
0.7037037037037035
 40
0.7407407407407405
 40
0.7407407407407405
 40
0.7407407407407405
 40
0.7407407407407405
 40
0.7777777777777775
 40
0.7777777777777775
 40
0.7777777777777775
 40
0.7777777777777775
 40
0.8148148148148144
 40
0.8148148148148144
 40
0.8148148148148144
 40
0.8148148148148144
 40
0.8518518518518514
 40
0.8518518518518514
 40
0.8518518518518514
 40
0.8518518518518514
 40
0.8888888888888884
 40
0.8888888888888884
 40
0.8888888888888884
 40
0.8888888888888884
 40
0.9259259259259254
 40
0.9259259259259254
 40
0.9259259259259254
 40
0.9259259259259254
 40
0.9629629629629624
 40
0.9629629629629624
 40
0.9629629629629624
 40
0.9629629629629624
 40
1.0
 40
1.0
 40
1.0
 40
1.0
 10
1.11144094488189
 20
1.214291338582677
 30
0.0
 10
1.11144094488189
 20
1.214291338582677
 30
0.0
 10
1.124858267716536
 20
1.214291338582677
 30
0.0
 10
1.124858267716536
 20
1.214291338582677
 30
0.0
 10
1.124858267716536
 20
1.214291338582677
 30
0.0
 10
1.124858267716536
 20
1.214291338582677
 30
0.0
 10
1.160106299212599
 20
1.11940157480315
 30
0.0
 10
1.160106299212599
 20
1.11940157480315
 30
0.0
 10
1.160106299212599
 20
1.11940157480315
 30
0.0
 10
1.161830708661418
 20
1.114625984251969
 30
0.0
 10
1.16357874015748
 20
1.111456692913386
 30
0.0
 10
1.165358267716536
 20
1.109929133858268
 30
0.0
 10
1.165358267716536
 20
1.109929133858268
 30
0.0
 10
1.167106299212599
 20
1.108374015748032
 30
0.0
 10
1.169496062992126
 20
1.107598425196851
 30
0.0
 10
1.172468503937008
 20
1.107598425196851
 30
0.0
 10
1.172468503937008
 20
1.107598425196851
 30
0.0
 10
1.172468503937008
 20
1.107598425196851
 30
0.0
 10
1.174248031496063
 20
1.107598425196851
 30
0.0
 10
1.174248031496063
 20
1.107598425196851
 30
0.0
 10
1.174248031496063
 20
1.107598425196851
 30
0.0
 10
1.174248031496063
 20
1.107598425196851
 30
0.0
 10
1.174248031496063
 20
1.100763779527559
 30
0.0
 10
1.174248031496063
 20
1.100763779527559
 30
0.0
 10
1.174248031496063
 20
1.100763779527559
 30
0.0
 10
1.174248031496063
 20
1.100763779527559
 30
0.0
 10
1.133803149606299
 20
1.100763779527559
 30
0.0
 10
1.133803149606299
 20
1.100763779527559
 30
0.0
 10
1.133803149606299
 20
1.100763779527559
 30
0.0
 10
1.133803149606299
 20
1.100763779527559
 30
0.0
 10
1.133803149606299
 20
1.107598425196851
 30
0.0
 10
1.133803149606299
 20
1.107598425196851
 30
0.0
 10
1.133803149606299
 20
1.107598425196851
 30
0.0
 10
1.135106299212598
 20
1.107708661417323
 30
0.0
 10
1.136385826771654
 20
1.107763779527559
 30
0.0
 10
1.137637795275591
 20
1.107763779527559
 30
0.0
 10
1.137637795275591
 20
1.107763779527559
 30
0.0
 10
1.140248031496063
 20
1.107763779527559
 30
0.0
 10
1.14194094488189
 20
1.108043307086614
 30
0.0
 10
1.142775590551181
 20
1.108570866141732
 30
0.0
 10
1.142775590551181
 20
1.108570866141732
 30
0.0
 10
1.144330708661417
 20
1.109598425196851
 30
0.0
 10
1.145133858267717
 20
1.11090157480315
 30
0.0
 10
1.145133858267717
 20
1.112484251968504
 30
0.0
 10
1.145133858267717
 20
1.112484251968504
 30
0.0
 10
1.145133858267717
 20
1.113625984251969
 30
0.0
 10
1.144358267716535
 20
1.11640157480315
 30
0.0
 10
1.142858267716536
 20
1.120874015748032
 30
0.0
 10
1.142858267716536
 20
1.120874015748032
 30
0.0
 10
1.142858267716536
 20
1.120874015748032
 30
0.0
 10
1.135358267716536
 20
1.142846456692914
 30
0.0
 10
1.135358267716536
 20
1.142846456692914
 30
0.0
 10
1.135358267716536
 20
1.142846456692914
 30
0.0
 10
1.135358267716536
 20
1.142846456692914
 30
0.0
 10
1.094192913385827
 20
1.142846456692914
 30
0.0
 10
1.094192913385827
 20
1.142846456692914
 30
0.0
 10
1.094192913385827
 20
1.142846456692914
 30
0.0
 10
1.094192913385827
 20
1.142846456692914
 30
0.0
 10
1.085385826771654
 20
1.118263779527559
 30
0.0
 10
1.085385826771654
 20
1.118263779527559
 30
0.0
 10
1.085385826771654
 20
1.118263779527559
 30
0.0
 10
1.084468503937008
 20
1.115708661417323
 30
0.0
 10
1.083996062992126
 20
1.113956692913386
 30
0.0
 10
1.083996062992126
 20
1.112956692913386
 30
0.0
 10
1.083996062992126
 20
1.112956692913386
 30
0.0
 10
1.083996062992126
 20
1.111874015748032
 30
0.0
 10
1.084303149606299
 20
1.110929133858268
 30
0.0
 10
1.084858267716536
 20
1.110125984251969
 30
0.0
 10
1.084858267716536
 20
1.110125984251969
 30
0.0
 10
1.08544094488189
 20
1.109318897637795
 30
0.0
 10
1.086192913385827
 20
1.108708661417323
 30
0.0
 10
1.087192913385827
 20
1.108291338582677
 30
0.0
 10
1.087192913385827
 20
1.108291338582677
 30
0.0
 10
1.088165354330709
 20
1.107874015748032
 30
0.0
 10
1.089720472440945
 20
1.107681102362205
 30
0.0
 10
1.091913385826772
 20
1.107681102362205
 30
0.0
 10
1.091913385826772
 20
1.107681102362205
 30
0.0
 10
1.093358267716535
 20
1.107681102362205
 30
0.0
 10
1.094551181102362
 20
1.107653543307087
 30
0.0
 10
1.095468503937008
 20
1.107598425196851
 30
0.0
 10
1.095468503937008
 20
1.107598425196851
 30
0.0
 10
1.095468503937008
 20
1.107598425196851
 30
0.0
 10
1.095468503937008
 20
1.100763779527559
 30
0.0
 10
1.095468503937008
 20
1.100763779527559
 30
0.0
 10
1.095468503937008
 20
1.100763779527559
 30
0.0
 10
1.095468503937008
 20
1.100763779527559
 30
0.0
 10
1.061551181102362
 20
1.100763779527559
 30
0.0
 10
1.061551181102362
 20
1.100763779527559
 30
0.0
 10
1.061551181102362
 20
1.100763779527559
 30
0.0
 10
1.061551181102362
 20
1.100763779527559
 30
0.0
 10
1.061551181102362
 20
1.107598425196851
 30
0.0
 10
1.061551181102362
 20
1.107598425196851
 30
0.0
 10
1.061551181102362
 20
1.107598425196851
 30
0.0
 10
1.064692913385827
 20
1.107598425196851
 30
0.0
 10
1.066968503937008
 20
1.10790157480315
 30
0.0
 10
1.068330708661417
 20
1.108543307086614
 30
0.0
 10
1.068330708661417
 20
1.108543307086614
 30
0.0
 10
1.069720472440945
 20
1.109153543307087
 30
0.0
 10
1.07094094488189
 20
1.110153543307087
 30
0.0
 10
1.071968503937008
 20
1.111543307086614
 30
0.0
 10
1.071968503937008
 20
1.111543307086614
 30
0.0
 10
1.072996062992126
 20
1.112929133858268
 30
0.0
 10
1.074358267716536
 20
1.115846456692913
 30
0.0
 10
1.076023622047244
 20
1.120291338582677
 30
0.0
 10
1.076023622047244
 20
1.120291338582677
 30
0.0
 10
1.076023622047244
 20
1.120291338582677
 30
0.0
 10
1.11144094488189
 20
1.214291338582677
 30
0.0
 10
1.11144094488189
 20
1.214291338582677
 30
0.0
  0
SPLINE
  5
76
330
1F
100
AcDbEntity
  8
LAYER_1
 62
   250
100
AcDbSpline
210
0.0
220
0.0
230
1.0
 70
    11
 71
     3
 72
    16
 73
    12
 74
     0
 42
0.0000000001
 43
0.0000000001
 40
0.0
 40
0.0
 40
0.0
 40
0.0
 40
0.3333333333333333
 40
0.3333333333333333
 40
0.3333333333333333
 40
0.3333333333333333
 40
0.6666666666666666
 40
0.6666666666666666
 40
0.6666666666666666
 40
0.6666666666666666
 40
1.0
 40
1.0
 40
1.0
 40
1.0
 10
1.097192913385827
 20
1.150818897637795
 30
0.0
 10
1.097192913385827
 20
1.150818897637795
 30
0.0
 10
1.132275590551181
 20
1.150818897637795
 30
0.0
 10
1.132275590551181
 20
1.150818897637795
 30
0.0
 10
1.132275590551181
 20
1.150818897637795
 30
0.0
 10
1.132275590551181
 20
1.150818897637795
 30
0.0
 10
1.114692913385827
 20
1.199653543307087
 30
0.0
 10
1.114692913385827
 20
1.199653543307087
 30
0.0
 10
1.114692913385827
 20
1.199653543307087
 30
0.0
 10
1.114692913385827
 20
1.199653543307087
 30
0.0
 10
1.097192913385827
 20
1.150818897637795
 30
0.0
 10
1.097192913385827
 20
1.150818897637795
 30
0.0
  0
SPLINE
  5
77
330
1F
100
AcDbEntity
  8
LAYER_1
 62
   250
100
AcDbSpline
210
0.0
220
0.0
230
1.0
 70
    11
 71
     3
 72
    72
 73
    68
 74
     0
 42
0.0000000001
 43
0.0000000001
 40
0.0
 40
0.0
 40
0.0
 40
0.0
 40
0.0588235294117647
 40
0.0588235294117647
 40
0.0588235294117647
 40
0.0588235294117647
 40
0.1176470588235294
 40
0.1176470588235294
 40
0.1176470588235294
 40
0.1176470588235294
 40
0.1764705882352941
 40
0.1764705882352941
 40
0.1764705882352941
 40
0.1764705882352941
 40
0.2352941176470588
 40
0.2352941176470588
 40
0.2352941176470588
 40
0.2352941176470588
 40
0.2941176470588235
 40
0.2941176470588235
 40
0.2941176470588235
 40
0.2941176470588235
 40
0.3529411764705883
 40
0.3529411764705883
 40
0.3529411764705883
 40
0.3529411764705883
 40
0.411764705882353
 40
0.411764705882353
 40
0.411764705882353
 40
0.411764705882353
 40
0.4705882352941177
 40
0.4705882352941177
 40
0.4705882352941177
 40
0.4705882352941177
 40
0.5294117647058824
 40
0.5294117647058824
 40
0.5294117647058824
 40
0.5294117647058824
 40
0.5882352941176471
 40
0.5882352941176471
 40
0.5882352941176471
 40
0.5882352941176471
 40
0.6470588235294118
 40
0.6470588235294118
 40
0.6470588235294118
 40
0.6470588235294118
 40
0.7058823529411765
 40
0.7058823529411765
 40
0.7058823529411765
 40
0.7058823529411765
 40
0.7647058823529412
 40
0.7647058823529412
 40
0.7647058823529412
 40
0.7647058823529412
 40
0.823529411764706
 40
0.823529411764706
 40
0.823529411764706
 40
0.823529411764706
 40
0.8823529411764707
 40
0.8823529411764707
 40
0.8823529411764707
 40
0.8823529411764707
 40
0.9411764705882354
 40
0.9411764705882354
 40
0.9411764705882354
 40
0.9411764705882354
 40
1.0
 40
1.0
 40
1.0
 40
1.0
 10
1.337275590551181
 20
1.214291338582677
 30
0.0
 10
1.337275590551181
 20
1.214291338582677
 30
0.0
 10
1.343358267716535
 20
1.214291338582677
 30
0.0
 10
1.343358267716535
 20
1.214291338582677
 30
0.0
 10
1.343358267716535
 20
1.214291338582677
 30
0.0
 10
1.343358267716535
 20
1.214291338582677
 30
0.0
 10
1.343358267716535
 20
1.120043307086614
 30
0.0
 10
1.343358267716535
 20
1.120043307086614
 30
0.0
 10
1.343358267716535
 20
1.120043307086614
 30
0.0
 10
1.343358267716535
 20
1.115598425196851
 30
0.0
 10
1.343665354330709
 20
1.112736220472441
 30
0.0
 10
1.344220472440945
 20
1.111456692913386
 30
0.0
 10
1.344220472440945
 20
1.111456692913386
 30
0.0
 10
1.344803149606299
 20
1.110181102362205
 30
0.0
 10
1.345720472440945
 20
1.109236220472441
 30
0.0
 10
1.347023622047244
 20
1.108570866141732
 30
0.0
 10
1.347023622047244
 20
1.108570866141732
 30
0.0
 10
1.348330708661417
 20
1.107929133858268
 30
0.0
 10
1.350913385826772
 20
1.107598425196851
 30
0.0
 10
1.354775590551181
 20
1.107598425196851
 30
0.0
 10
1.354775590551181
 20
1.107598425196851
 30
0.0
 10
1.354775590551181
 20
1.107598425196851
 30
0.0
 10
1.362748031496063
 20
1.107598425196851
 30
0.0
 10
1.362748031496063
 20
1.107598425196851
 30
0.0
 10
1.362748031496063
 20
1.107598425196851
 30
0.0
 10
1.362748031496063
 20
1.107598425196851
 30
0.0
 10
1.362748031496063
 20
1.100763779527559
 30
0.0
 10
1.362748031496063
 20
1.100763779527559
 30
0.0
 10
1.362748031496063
 20
1.100763779527559
 30
0.0
 10
1.362748031496063
 20
1.100763779527559
 30
0.0
 10
1.309110236220473
 20
1.100763779527559
 30
0.0
 10
1.309110236220473
 20
1.100763779527559
 30
0.0
 10
1.309110236220473
 20
1.100763779527559
 30
0.0
 10
1.309110236220473
 20
1.100763779527559
 30
0.0
 10
1.309110236220473
 20
1.107598425196851
 30
0.0
 10
1.309110236220473
 20
1.107598425196851
 30
0.0
 10
1.309110236220473
 20
1.107598425196851
 30
0.0
 10
1.309110236220473
 20
1.107598425196851
 30
0.0
 10
1.317968503937008
 20
1.107598425196851
 30
0.0
 10
1.317968503937008
 20
1.107598425196851
 30
0.0
 10
1.317968503937008
 20
1.107598425196851
 30
0.0
 10
1.321830708661417
 20
1.107598425196851
 30
0.0
 10
1.324385826771654
 20
1.107929133858268
 30
0.0
 10
1.325665354330709
 20
1.108625984251969
 30
0.0
 10
1.325665354330709
 20
1.108625984251969
 30
0.0
 10
1.32694094488189
 20
1.109291338582677
 30
0.0
 10
1.32794094488189
 20
1.110374015748032
 30
0.0
 10
1.328637795275591
 20
1.111874015748032
 30
0.0
 10
1.328637795275591
 20
1.111874015748032
 30
0.0
 10
1.329330708661417
 20
1.113374015748032
 30
0.0
 10
1.329692913385827
 20
1.11609842519685
 30
0.0
 10
1.329692913385827
 20
1.120043307086614
 30
0.0
 10
1.329692913385827
 20
1.120043307086614
 30
0.0
 10
1.329692913385827
 20
1.120043307086614
 30
0.0
 10
1.329692913385827
 20
1.197511811023622
 30
0.0
 10
1.329692913385827
 20
1.197511811023622
 30
0.0
 10
1.329692913385827
 20
1.197511811023622
 30
0.0
 10
1.329692913385827
 20
1.197511811023622
 30
0.0
 10
1.309110236220473
 20
1.197511811023622
 30
0.0
 10
1.309110236220473
 20
1.197511811023622
 30
0.0
 10
1.309110236220473
 20
1.197511811023622
 30
0.0
 10
1.309110236220473
 20
1.197511811023622
 30
0.0
 10
1.309110236220473
 20
1.204511811023622
 30
0.0
 10
1.309110236220473
 20
1.204511811023622
 30
0.0
 10
1.309110236220473
 20
1.204511811023622
 30
0.0
 10
1.320330708661417
 20
1.206094488188976
 30
0.0
 10
1.329720472440945
 20
1.209346456692914
 30
0.0
 10
1.337275590551181
 20
1.214291338582677
 30
0.0
  0
SPLINE
  5
78
330
1F
100
AcDbEntity
  8
LAYER_1
 62
   250
100
AcDbSpline
210
0.0
220
0.0
230
1.0
 70
    11
 71
     3
 72
    80
 73
    76
 74
     0
 42
0.0000000001
 43
0.0000000001
 40
0.0
 40
0.0
 40
0.0
 40
0.0
 40
0.0526315789473684
 40
0.0526315789473684
 40
0.0526315789473684
 40
0.0526315789473684
 40
0.1052631578947368
 40
0.1052631578947368
 40
0.1052631578947368
 40
0.1052631578947368
 40
0.1578947368421053
 40
0.1578947368421053
 40
0.1578947368421053
 40
0.1578947368421053
 40
0.2105263157894737
 40
0.2105263157894737
 40
0.2105263157894737
 40
0.2105263157894737
 40
0.2631578947368421
 40
0.2631578947368421
 40
0.2631578947368421
 40
0.2631578947368421
 40
0.3157894736842105
 40
0.3157894736842105
 40
0.3157894736842105
 40
0.3157894736842105
 40
0.3684210526315789
 40
0.3684210526315789
 40
0.3684210526315789
 40
0.3684210526315789
 40
0.4210526315789474
 40
0.4210526315789474
 40
0.4210526315789474
 40
0.4210526315789474
 40
0.4736842105263158
 40
0.4736842105263158
 40
0.4736842105263158
 40
0.4736842105263158
 40
0.5263157894736842
 40
0.5263157894736842
 40
0.5263157894736842
 40
0.5263157894736842
 40
0.5789473684210527
 40
0.5789473684210527
 40
0.5789473684210527
 40
0.5789473684210527
 40
0.631578947368421
 40
0.631578947368421
 40
0.631578947368421
 40
0.631578947368421
 40
0.6842105263157894
 40
0.6842105263157894
 40
0.6842105263157894
 40
0.6842105263157894
 40
0.7368421052631577
 40
0.7368421052631577
 40
0.7368421052631577
 40
0.7368421052631577
 40
0.7894736842105261
 40
0.7894736842105261
 40
0.7894736842105261
 40
0.7894736842105261
 40
0.8421052631578945
 40
0.8421052631578945
 40
0.8421052631578945
 40
0.8421052631578945
 40
0.8947368421052628
 40
0.8947368421052628
 40
0.8947368421052628
 40
0.8947368421052628
 40
0.9473684210526312
 40
0.9473684210526312
 40
0.9473684210526312
 40
0.9473684210526312
 40
1.0
 40
1.0
 40
1.0
 40
1.0
 10
1.402692913385827
 20
1.218429133858268
 30
0.0
 10
1.402692913385827
 20
1.218429133858268
 30
0.0
 10
1.408082677165354
 20
1.218429133858268
 30
0.0
 10
1.408082677165354
 20
1.218429133858268
 30
0.0
 10
1.408082677165354
 20
1.218429133858268
 30
0.0
 10
1.408082677165354
 20
1.218429133858268
 30
0.0
 10
1.409055118110236
 20
1.214291338582677
 30
0.0
 10
1.409055118110236
 20
1.214291338582677
 30
0.0
 10
1.409055118110236
 20
1.214291338582677
 30
0.0
 10
1.409055118110236
 20
1.214291338582677
 30
0.0
 10
1.480165354330709
 20
1.214291338582677
 30
0.0
 10
1.480165354330709
 20
1.214291338582677
 30
0.0
 10
1.480165354330709
 20
1.214291338582677
 30
0.0
 10
1.480165354330709
 20
1.214291338582677
 30
0.0
 10
1.480165354330709
 20
1.207374015748032
 30
0.0
 10
1.480165354330709
 20
1.207374015748032
 30
0.0
 10
1.480165354330709
 20
1.207374015748032
 30
0.0
 10
1.471665354330709
 20
1.19753937007874
 30
0.0
 10
1.46394094488189
 20
1.186374015748032
 30
0.0
 10
1.457027559055118
 20
1.173791338582677
 30
0.0
 10
1.457027559055118
 20
1.173791338582677
 30
0.0
 10
1.450110236220473
 20
1.161236220472441
 30
0.0
 10
1.444748031496063
 20
1.148456692913386
 30
0.0
 10
1.44094094488189
 20
1.135429133858268
 30
0.0
 10
1.44094094488189
 20
1.135429133858268
 30
0.0
 10
1.438192913385827
 20
1.126043307086614
 30
0.0
 10
1.435944881889764
 20
1.114484251968504
 30
0.0
 10
1.434192913385827
 20
1.100763779527559
 30
0.0
 10
1.434192913385827
 20
1.100763779527559
 30
0.0
 10
1.434192913385827
 20
1.100763779527559
 30
0.0
 10
1.417527559055118
 20
1.100763779527559
 30
0.0
 10
1.417527559055118
 20
1.100763779527559
 30
0.0
 10
1.417527559055118
 20
1.100763779527559
 30
0.0
 10
1.419137795275591
 20
1.112874015748032
 30
0.0
 10
1.421803149606299
 20
1.124181102362205
 30
0.0
 10
1.425527559055118
 20
1.134708661417323
 30
0.0
 10
1.425527559055118
 20
1.134708661417323
 30
0.0
 10
1.429248031496063
 20
1.145236220472441
 30
0.0
 10
1.434610236220473
 20
1.156236220472441
 30
0.0
 10
1.441637795275591
 20
1.167708661417323
 30
0.0
 10
1.441637795275591
 20
1.167708661417323
 30
0.0
 10
1.448665354330709
 20
1.179181102362205
 30
0.0
 10
1.457192913385827
 20
1.190625984251969
 30
0.0
 10
1.467248031496063
 20
1.202066929133858
 30
0.0
 10
1.467248031496063
 20
1.202066929133858
 30
0.0
 10
1.467248031496063
 20
1.202066929133858
 30
0.0
 10
1.416527559055118
 20
1.202066929133858
 30
0.0
 10
1.416527559055118
 20
1.202066929133858
 30
0.0
 10
1.416527559055118
 20
1.202066929133858
 30
0.0
 10
1.412858267716536
 20
1.202066929133858
 30
0.0
 10
1.410330708661417
 20
1.20190157480315
 30
0.0
 10
1.408972440944882
 20
1.201511811023622
 30
0.0
 10
1.408972440944882
 20
1.201511811023622
 30
0.0
 10
1.407610236220473
 20
1.201125984251969
 30
0.0
 10
1.406555118110236
 20
1.20053937007874
 30
0.0
 10
1.405803149606299
 20
1.199736220472441
 30
0.0
 10
1.405803149606299
 20
1.199736220472441
 30
0.0
 10
1.405027559055118
 20
1.19890157480315
 30
0.0
 10
1.404385826771654
 20
1.197456692913386
 30
0.0
 10
1.403830708661418
 20
1.19540157480315
 30
0.0
 10
1.403830708661418
 20
1.19540157480315
 30
0.0
 10
1.403830708661418
 20
1.19540157480315
 30
0.0
 10
1.403444881889764
 20
1.193874015748032
 30
0.0
 10
1.403444881889764
 20
1.193874015748032
 30
0.0
 10
1.403444881889764
 20
1.193874015748032
 30
0.0
 10
1.403444881889764
 20
1.193874015748032
 30
0.0
 10
1.400665354330709
 20
1.184263779527559
 30
0.0
 10
1.400665354330709
 20
1.184263779527559
 30
0.0
 10
1.400665354330709
 20
1.184263779527559
 30
0.0
 10
1.400665354330709
 20
1.184263779527559
 30
0.0
 10
1.393748031496063
 20
1.185736220472441
 30
0.0
 10
1.393748031496063
 20
1.185736220472441
 30
0.0
 10
1.393748031496063
 20
1.185736220472441
 30
0.0
 10
1.393748031496063
 20
1.185736220472441
 30
0.0
 10
1.402692913385827
 20
1.218429133858268
 30
0.0
 10
1.402692913385827
 20
1.218429133858268
 30
0.0
  0
SPLINE
  5
79
330
1F
100
AcDbEntity
  8
LAYER_1
 62
   250
100
AcDbSpline
210
0.0
220
0.0
230
1.0
 70
    11
 71
     3
 72
    48
 73
    44
 74
     0
 42
0.0000000001
 43
0.0000000001
 40
0.0
 40
0.0
 40
0.0
 40
0.0
 40
0.0909090909090909
 40
0.0909090909090909
 40
0.0909090909090909
 40
0.0909090909090909
 40
0.1818181818181818
 40
0.1818181818181818
 40
0.1818181818181818
 40
0.1818181818181818
 40
0.2727272727272727
 40
0.2727272727272727
 40
0.2727272727272727
 40
0.2727272727272727
 40
0.3636363636363637
 40
0.3636363636363637
 40
0.3636363636363637
 40
0.3636363636363637
 40
0.4545454545454546
 40
0.4545454545454546
 40
0.4545454545454546
 40
0.4545454545454546
 40
0.5454545454545455
 40
0.5454545454545455
 40
0.5454545454545455
 40
0.5454545454545455
 40
0.6363636363636365
 40
0.6363636363636365
 40
0.6363636363636365
 40
0.6363636363636365
 40
0.7272727272727274
 40
0.7272727272727274
 40
0.7272727272727274
 40
0.7272727272727274
 40
0.8181818181818183
 40
0.8181818181818183
 40
0.8181818181818183
 40
0.8181818181818183
 40
0.9090909090909093
 40
0.9090909090909093
 40
0.9090909090909093
 40
0.9090909090909093
 40
1.0
 40
1.0
 40
1.0
 40
1.0
 10
1.548389763779528
 20
1.214291338582677
 30
0.0
 10
1.548389763779528
 20
1.214291338582677
 30
0.0
 10
1.562137795275591
 20
1.214291338582677
 30
0.0
 10
1.562137795275591
 20
1.214291338582677
 30
0.0
 10
1.562137795275591
 20
1.214291338582677
 30
0.0
 10
1.562137795275591
 20
1.214291338582677
 30
0.0
 10
1.562137795275591
 20
1.148291338582677
 30
0.0
 10
1.562137795275591
 20
1.148291338582677
 30
0.0
 10
1.562137795275591
 20
1.148291338582677
 30
0.0
 10
1.562137795275591
 20
1.148291338582677
 30
0.0
 10
1.583472440944882
 20
1.148291338582677
 30
0.0
 10
1.583472440944882
 20
1.148291338582677
 30
0.0
 10
1.583472440944882
 20
1.148291338582677
 30
0.0
 10
1.583472440944882
 20
1.148291338582677
 30
0.0
 10
1.583472440944882
 20
1.138125984251969
 30
0.0
 10
1.583472440944882
 20
1.138125984251969
 30
0.0
 10
1.583472440944882
 20
1.138125984251969
 30
0.0
 10
1.583472440944882
 20
1.138125984251969
 30
0.0
 10
1.562137795275591
 20
1.138125984251969
 30
0.0
 10
1.562137795275591
 20
1.138125984251969
 30
0.0
 10
1.562137795275591
 20
1.138125984251969
 30
0.0
 10
1.562137795275591
 20
1.138125984251969
 30
0.0
 10
1.562137795275591
 20
1.100763779527559
 30
0.0
 10
1.562137795275591
 20
1.100763779527559
 30
0.0
 10
1.562137795275591
 20
1.100763779527559
 30
0.0
 10
1.562137795275591
 20
1.100763779527559
 30
0.0
 10
1.548389763779528
 20
1.100763779527559
 30
0.0
 10
1.548389763779528
 20
1.100763779527559
 30
0.0
 10
1.548389763779528
 20
1.100763779527559
 30
0.0
 10
1.548389763779528
 20
1.100763779527559
 30
0.0
 10
1.548389763779528
 20
1.138125984251969
 30
0.0
 10
1.548389763779528
 20
1.138125984251969
 30
0.0
 10
1.548389763779528
 20
1.138125984251969
 30
0.0
 10
1.548389763779528
 20
1.138125984251969
 30
0.0
 10
1.494917322834646
 20
1.138125984251969
 30
0.0
 10
1.494917322834646
 20
1.138125984251969
 30
0.0
 10
1.494917322834646
 20
1.138125984251969
 30
0.0
 10
1.494917322834646
 20
1.138125984251969
 30
0.0
 10
1.494917322834646
 20
1.152429133858268
 30
0.0
 10
1.494917322834646
 20
1.152429133858268
 30
0.0
 10
1.494917322834646
 20
1.152429133858268
 30
0.0
 10
1.494917322834646
 20
1.152429133858268
 30
0.0
 10
1.548389763779528
 20
1.214291338582677
 30
0.0
 10
1.548389763779528
 20
1.214291338582677
 30
0.0
  0
SPLINE
  5
7A
330
1F
100
AcDbEntity
  8
LAYER_1
 62
   250
100
AcDbSpline
210
0.0
220
0.0
230
1.0
 70
    11
 71
     3
 72
    16
 73
    12
 74
     0
 42
0.0000000001
 43
0.0000000001
 40
0.0
 40
0.0
 40
0.0
 40
0.0
 40
0.3333333333333333
 40
0.3333333333333333
 40
0.3333333333333333
 40
0.3333333333333333
 40
0.6666666666666666
 40
0.6666666666666666
 40
0.6666666666666666
 40
0.6666666666666666
 40
1.0
 40
1.0
 40
1.0
 40
1.0
 10
1.548389763779528
 20
1.148291338582677
 30
0.0
 10
1.548389763779528
 20
1.148291338582677
 30
0.0
 10
1.548389763779528
 20
1.201681102362205
 30
0.0
 10
1.548389763779528
 20
1.201681102362205
 30
0.0
 10
1.548389763779528
 20
1.201681102362205
 30
0.0
 10
1.548389763779528
 20
1.201681102362205
 30
0.0
 10
1.502334645669291
 20
1.148291338582677
 30
0.0
 10
1.502334645669291
 20
1.148291338582677
 30
0.0
 10
1.502334645669291
 20
1.148291338582677
 30
0.0
 10
1.502334645669291
 20
1.148291338582677
 30
0.0
 10
1.548389763779528
 20
1.148291338582677
 30
0.0
 10
1.548389763779528
 20
1.148291338582677
 30
0.0
  0
SPLINE
  5
7B
330
1F
100
AcDbEntity
  8
LAYER_1
 62
   250
100
AcDbSpline
210
0.0
220
0.0
230
1.0
 70
    11
 71
     3
 72
   136
 73
   132
 74
     0
 42
0.0000000001
 43
0.0000000001
 40
0.0
 40
0.0
 40
0.0
 40
0.0
 40
0.0303030303030303
 40
0.0303030303030303
 40
0.0303030303030303
 40
0.0303030303030303
 40
0.0606060606060606
 40
0.0606060606060606
 40
0.0606060606060606
 40
0.0606060606060606
 40
0.0909090909090909
 40
0.0909090909090909
 40
0.0909090909090909
 40
0.0909090909090909
 40
0.1212121212121212
 40
0.1212121212121212
 40
0.1212121212121212
 40
0.1212121212121212
 40
0.1515151515151515
 40
0.1515151515151515
 40
0.1515151515151515
 40
0.1515151515151515
 40
0.1818181818181818
 40
0.1818181818181818
 40
0.1818181818181818
 40
0.1818181818181818
 40
0.2121212121212121
 40
0.2121212121212121
 40
0.2121212121212121
 40
0.2121212121212121
 40
0.2424242424242424
 40
0.2424242424242424
 40
0.2424242424242424
 40
0.2424242424242424
 40
0.2727272727272727
 40
0.2727272727272727
 40
0.2727272727272727
 40
0.2727272727272727
 40
0.303030303030303
 40
0.303030303030303
 40
0.303030303030303
 40
0.303030303030303
 40
0.3333333333333333
 40
0.3333333333333333
 40
0.3333333333333333
 40
0.3333333333333333
 40
0.3636363636363635
 40
0.3636363636363635
 40
0.3636363636363635
 40
0.3636363636363635
 40
0.3939393939393938
 40
0.3939393939393938
 40
0.3939393939393938
 40
0.3939393939393938
 40
0.4242424242424241
 40
0.4242424242424241
 40
0.4242424242424241
 40
0.4242424242424241
 40
0.4545454545454544
 40
0.4545454545454544
 40
0.4545454545454544
 40
0.4545454545454544
 40
0.4848484848484846
 40
0.4848484848484846
 40
0.4848484848484846
 40
0.4848484848484846
 40
0.5151515151515149
 40
0.5151515151515149
 40
0.5151515151515149
 40
0.5151515151515149
 40
0.5454545454545452
 40
0.5454545454545452
 40
0.5454545454545452
 40
0.5454545454545452
 40
0.5757575757575755
 40
0.5757575757575755
 40
0.5757575757575755
 40
0.5757575757575755
 40
0.6060606060606057
 40
0.6060606060606057
 40
0.6060606060606057
 40
0.6060606060606057
 40
0.636363636363636
 40
0.636363636363636
 40
0.636363636363636
 40
0.636363636363636
 40
0.6666666666666663
 40
0.6666666666666663
 40
0.6666666666666663
 40
0.6666666666666663
 40
0.6969696969696966
 40
0.6969696969696966
 40
0.6969696969696966
 40
0.6969696969696966
 40
0.7272727272727269
 40
0.7272727272727269
 40
0.7272727272727269
 40
0.7272727272727269
 40
0.7575757575757571
 40
0.7575757575757571
 40
0.7575757575757571
 40
0.7575757575757571
 40
0.7878787878787874
 40
0.7878787878787874
 40
0.7878787878787874
 40
0.7878787878787874
 40
0.8181818181818177
 40
0.8181818181818177
 40
0.8181818181818177
 40
0.8181818181818177
 40
0.848484848484848
 40
0.848484848484848
 40
0.848484848484848
 40
0.848484848484848
 40
0.8787878787878782
 40
0.8787878787878782
 40
0.8787878787878782
 40
0.8787878787878782
 40
0.9090909090909085
 40
0.9090909090909085
 40
0.9090909090909085
 40
0.9090909090909085
 40
0.9393939393939388
 40
0.9393939393939388
 40
0.9393939393939388
 40
0.9393939393939388
 40
0.9696969696969691
 40
0.9696969696969691
 40
0.9696969696969691
 40
0.9696969696969691
 40
1.0
 40
1.0
 40
1.0
 40
1.0
 10
1.610251968503937
 20
1.171484251968504
 30
0.0
 10
1.610251968503937
 20
1.171484251968504
 30
0.0
 10
1.60236220472441
 20
1.170511811023622
 30
0.0
 10
1.60236220472441
 20
1.170511811023622
 30
0.0
 10
1.60236220472441
 20
1.170511811023622
 30
0.0
 10
1.601917322834646
 20
1.174346456692913
 30
0.0
 10
1.601696850393701
 20
1.177511811023622
 30
0.0
 10
1.601696850393701
 20
1.179956692913386
 30
0.0
 10
1.601696850393701
 20
1.179956692913386
 30
0.0
 10
1.601696850393701
 20
1.186346456692913
 30
0.0
 10
1.603444881889764
 20
1.19240157480315
 30
0.0
 10
1.606917322834646
 20
1.198094488188976
 30
0.0
 10
1.606917322834646
 20
1.198094488188976
 30
0.0
 10
1.610389763779528
 20
1.203791338582677
 30
0.0
 10
1.615224409448819
 20
1.208236220472441
 30
0.0
 10
1.621444881889764
 20
1.211429133858268
 30
0.0
 10
1.621444881889764
 20
1.211429133858268
 30
0.0
 10
1.627637795275591
 20
1.214653543307087
 30
0.0
 10
1.634779527559055
 20
1.216236220472441
 30
0.0
 10
1.642807086614173
 20
1.216236220472441
 30
0.0
 10
1.642807086614173
 20
1.216236220472441
 30
0.0
 10
1.650555118110236
 20
1.216236220472441
 30
0.0
 10
1.657362204724409
 20
1.214736220472441
 30
0.0
 10
1.663224409448819
 20
1.211736220472441
 30
0.0
 10
1.663224409448819
 20
1.211736220472441
 30
0.0
 10
1.669082677165354
 20
1.208708661417323
 30
0.0
 10
1.673555118110236
 20
1.204594488188977
 30
0.0
 10
1.676692913385827
 20
1.199346456692914
 30
0.0
 10
1.676692913385827
 20
1.199346456692914
 30
0.0
 10
1.679807086614173
 20
1.194125984251969
 30
0.0
 10
1.681362204724409
 20
1.188153543307087
 30
0.0
 10
1.681362204724409
 20
1.18140157480315
 30
0.0
 10
1.681362204724409
 20
1.18140157480315
 30
0.0
 10
1.681362204724409
 20
1.175708661417323
 30
0.0
 10
1.68036220472441
 20
1.170429133858268
 30
0.0
 10
1.678307086614173
 20
1.165598425196851
 30
0.0
 10
1.678307086614173
 20
1.165598425196851
 30
0.0
 10
1.676279527559055
 20
1.160736220472441
 30
0.0
 10
1.673
 20
1.155818897637795
 30
0.0
 10
1.6685
 20
1.15090157480315
 30
0.0
 10
1.6685
 20
1.15090157480315
 30
0.0
 10
1.665137795275591
 20
1.147208661417323
 30
0.0
 10
1.658334645669291
 20
1.141570866141732
 30
0.0
 10
1.648082677165355
 20
1.133956692913386
 30
0.0
 10
1.648082677165355
 20
1.133956692913386
 30
0.0
 10
1.635169291338583
 20
1.124318897637795
 30
0.0
 10
1.625279527559055
 20
1.117318897637795
 30
0.0
 10
1.618389763779528
 20
1.112956692913386
 30
0.0
 10
1.618389763779528
 20
1.112956692913386
 30
0.0
 10
1.618389763779528
 20
1.112956692913386
 30
0.0
 10
1.660696850393701
 20
1.112956692913386
 30
0.0
 10
1.660696850393701
 20
1.112956692913386
 30
0.0
 10
1.660696850393701
 20
1.112956692913386
 30
0.0
 10
1.665696850393701
 20
1.112956692913386
 30
0.0
 10
1.668944881889764
 20
1.113429133858268
 30
0.0
 10
1.670472440944882
 20
1.114346456692913
 30
0.0
 10
1.670472440944882
 20
1.114346456692913
 30
0.0
 10
1.672582677165355
 20
1.115543307086614
 30
0.0
 10
1.674027559055118
 20
1.118318897637795
 30
0.0
 10
1.674779527559055
 20
1.122653543307087
 30
0.0
 10
1.674779527559055
 20
1.122653543307087
 30
0.0
 10
1.674779527559055
 20
1.122653543307087
 30
0.0
 10
1.6755
 20
1.127291338582677
 30
0.0
 10
1.6755
 20
1.127291338582677
 30
0.0
 10
1.6755
 20
1.127291338582677
 30
0.0
 10
1.6755
 20
1.127291338582677
 30
0.0
 10
1.682417322834646
 20
1.127291338582677
 30
0.0
 10
1.682417322834646
 20
1.127291338582677
 30
0.0
 10
1.682417322834646
 20
1.127291338582677
 30
0.0
 10
1.682417322834646
 20
1.127291338582677
 30
0.0
 10
1.676889763779528
 20
1.096708661417323
 30
0.0
 10
1.676889763779528
 20
1.096708661417323
 30
0.0
 10
1.676889763779528
 20
1.096708661417323
 30
0.0
 10
1.676889763779528
 20
1.096708661417323
 30
0.0
 10
1.671696850393701
 20
1.096708661417323
 30
0.0
 10
1.671696850393701
 20
1.096708661417323
 30
0.0
 10
1.671696850393701
 20
1.096708661417323
 30
0.0
 10
1.671696850393701
 20
1.096708661417323
 30
0.0
 10
1.670779527559055
 20
1.100763779527559
 30
0.0
 10
1.670779527559055
 20
1.100763779527559
 30
0.0
 10
1.670779527559055
 20
1.100763779527559
 30
0.0
 10
1.670779527559055
 20
1.100763779527559
 30
0.0
 10
1.599669291338583
 20
1.100763779527559
 30
0.0
 10
1.599669291338583
 20
1.100763779527559
 30
0.0
 10
1.599669291338583
 20
1.100763779527559
 30
0.0
 10
1.599669291338583
 20
1.100763779527559
 30
0.0
 10
1.599669291338583
 20
1.107598425196851
 30
0.0
 10
1.599669291338583
 20
1.107598425196851
 30
0.0
 10
1.599669291338583
 20
1.107598425196851
 30
0.0
 10
1.599669291338583
 20
1.107598425196851
 30
0.0
 10
1.612696850393701
 20
1.117456692913386
 30
0.0
 10
1.612696850393701
 20
1.117456692913386
 30
0.0
 10
1.612696850393701
 20
1.117456692913386
 30
0.0
 10
1.622555118110236
 20
1.124763779527559
 30
0.0
 10
1.629807086614173
 20
1.130374015748032
 30
0.0
 10
1.634417322834646
 20
1.134291338582677
 30
0.0
 10
1.634417322834646
 20
1.134291338582677
 30
0.0
 10
1.643137795275591
 20
1.141681102362205
 30
0.0
 10
1.649724409448819
 20
1.147984251968504
 30
0.0
 10
1.654137795275591
 20
1.153208661417323
 30
0.0
 10
1.654137795275591
 20
1.153208661417323
 30
0.0
 10
1.658555118110236
 20
1.158456692913386
 30
0.0
 10
1.661610236220473
 20
1.163181102362205
 30
0.0
 10
1.663251968503937
 20
1.167374015748032
 30
0.0
 10
1.663251968503937
 20
1.167374015748032
 30
0.0
 10
1.664917322834646
 20
1.171566929133858
 30
0.0
 10
1.665751968503937
 20
1.175984251968504
 30
0.0
 10
1.665751968503937
 20
1.18059842519685
 30
0.0
 10
1.665751968503937
 20
1.18059842519685
 30
0.0
 10
1.665751968503937
 20
1.188236220472441
 30
0.0
 10
1.663279527559055
 20
1.194511811023622
 30
0.0
 10
1.658389763779528
 20
1.19940157480315
 30
0.0
 10
1.658389763779528
 20
1.19940157480315
 30
0.0
 10
1.653472440944882
 20
1.204291338582677
 30
0.0
 10
1.647082677165354
 20
1.206708661417323
 30
0.0
 10
1.639224409448819
 20
1.206708661417323
 30
0.0
 10
1.639224409448819
 20
1.206708661417323
 30
0.0
 10
1.633582677165354
 20
1.206708661417323
 30
0.0
 10
1.628527559055118
 20
1.205511811023622
 30
0.0
 10
1.624110236220473
 20
1.203066929133858
 30
0.0
 10
1.624110236220473
 20
1.203066929133858
 30
0.0
 10
1.619696850393701
 20
1.200625984251969
 30
0.0
 10
1.616224409448819
 20
1.197208661417323
 30
0.0
 10
1.613669291338583
 20
1.192791338582677
 30
0.0
 10
1.613669291338583
 20
1.192791338582677
 30
0.0
 10
1.611110236220473
 20
1.18840157480315
 30
0.0
 10
1.609834645669291
 20
1.183653543307087
 30
0.0
 10
1.609834645669291
 20
1.178566929133858
 30
0.0
 10
1.609834645669291
 20
1.178566929133858
 30
0.0
 10
1.609834645669291
 20
1.176653543307087
 30
0.0
 10
1.609972440944882
 20
1.174291338582677
 30
0.0
 10
1.610251968503937
 20
1.171484251968504
 30
0.0
  0
SPLINE
  5
7C
330
1F
100
AcDbEntity
  8
LAYER_1
 62
   250
100
AcDbSpline
210
0.0
220
0.0
230
1.0
 70
    11
 71
     3
 72
   172
 73
   168
 74
     0
 42
0.0000000001
 43
0.0000000001
 40
0.0
 40
0.0
 40
0.0
 40
0.0
 40
0.0238095238095238
 40
0.0238095238095238
 40
0.0238095238095238
 40
0.0238095238095238
 40
0.0476190476190476
 40
0.0476190476190476
 40
0.0476190476190476
 40
0.0476190476190476
 40
0.0714285714285714
 40
0.0714285714285714
 40
0.0714285714285714
 40
0.0714285714285714
 40
0.0952380952380952
 40
0.0952380952380952
 40
0.0952380952380952
 40
0.0952380952380952
 40
0.119047619047619
 40
0.119047619047619
 40
0.119047619047619
 40
0.119047619047619
 40
0.1428571428571429
 40
0.1428571428571429
 40
0.1428571428571429
 40
0.1428571428571429
 40
0.1666666666666667
 40
0.1666666666666667
 40
0.1666666666666667
 40
0.1666666666666667
 40
0.1904761904761905
 40
0.1904761904761905
 40
0.1904761904761905
 40
0.1904761904761905
 40
0.2142857142857143
 40
0.2142857142857143
 40
0.2142857142857143
 40
0.2142857142857143
 40
0.2380952380952381
 40
0.2380952380952381
 40
0.2380952380952381
 40
0.2380952380952381
 40
0.2619047619047619
 40
0.2619047619047619
 40
0.2619047619047619
 40
0.2619047619047619
 40
0.2857142857142857
 40
0.2857142857142857
 40
0.2857142857142857
 40
0.2857142857142857
 40
0.3095238095238095
 40
0.3095238095238095
 40
0.3095238095238095
 40
0.3095238095238095
 40
0.3333333333333334
 40
0.3333333333333334
 40
0.3333333333333334
 40
0.3333333333333334
 40
0.3571428571428572
 40
0.3571428571428572
 40
0.3571428571428572
 40
0.3571428571428572
 40
0.380952380952381
 40
0.380952380952381
 40
0.380952380952381
 40
0.380952380952381
 40
0.4047619047619049
 40
0.4047619047619049
 40
0.4047619047619049
 40
0.4047619047619049
 40
0.4285714285714287
 40
0.4285714285714287
 40
0.4285714285714287
 40
0.4285714285714287
 40
0.4523809523809526
 40
0.4523809523809526
 40
0.4523809523809526
 40
0.4523809523809526
 40
0.4761904761904764
 40
0.4761904761904764
 40
0.4761904761904764
 40
0.4761904761904764
 40
0.5000000000000002
 40
0.5000000000000002
 40
0.5000000000000002
 40
0.5000000000000002
 40
0.5238095238095241
 40
0.5238095238095241
 40
0.5238095238095241
 40
0.5238095238095241
 40
0.5476190476190479
 40
0.5476190476190479
 40
0.5476190476190479
 40
0.5476190476190479
 40
0.5714285714285717
 40
0.5714285714285717
 40
0.5714285714285717
 40
0.5714285714285717
 40
0.5952380952380956
 40
0.5952380952380956
 40
0.5952380952380956
 40
0.5952380952380956
 40
0.6190476190476194
 40
0.6190476190476194
 40
0.6190476190476194
 40
0.6190476190476194
 40
0.6428571428571432
 40
0.6428571428571432
 40
0.6428571428571432
 40
0.6428571428571432
 40
0.6666666666666671
 40
0.6666666666666671
 40
0.6666666666666671
 40
0.6666666666666671
 40
0.6904761904761909
 40
0.6904761904761909
 40
0.6904761904761909
 40
0.6904761904761909
 40
0.7142857142857148
 40
0.7142857142857148
 40
0.7142857142857148
 40
0.7142857142857148
 40
0.7380952380952386
 40
0.7380952380952386
 40
0.7380952380952386
 40
0.7380952380952386
 40
0.7619047619047624
 40
0.7619047619047624
 40
0.7619047619047624
 40
0.7619047619047624
 40
0.7857142857142863
 40
0.7857142857142863
 40
0.7857142857142863
 40
0.7857142857142863
 40
0.8095238095238101
 40
0.8095238095238101
 40
0.8095238095238101
 40
0.8095238095238101
 40
0.8333333333333339
 40
0.8333333333333339
 40
0.8333333333333339
 40
0.8333333333333339
 40
0.8571428571428578
 40
0.8571428571428578
 40
0.8571428571428578
 40
0.8571428571428578
 40
0.8809523809523816
 40
0.8809523809523816
 40
0.8809523809523816
 40
0.8809523809523816
 40
0.9047619047619054
 40
0.9047619047619054
 40
0.9047619047619054
 40
0.9047619047619054
 40
0.9285714285714293
 40
0.9285714285714293
 40
0.9285714285714293
 40
0.9285714285714293
 40
0.9523809523809531
 40
0.9523809523809531
 40
0.9523809523809531
 40
0.9523809523809531
 40
0.9761904761904769
 40
0.9761904761904769
 40
0.9761904761904769
 40
0.9761904761904769
 40
1.0
 40
1.0
 40
1.0
 40
1.0
 10
0.7800708661417323
 20
0.9964291338582677
 30
0.0
 10
0.7800708661417323
 20
0.9964291338582677
 30
0.0
 10
0.7722637795275591
 20
0.9976535433070867
 30
0.0
 10
0.7722637795275591
 20
0.9976535433070867
 30
0.0
 10
0.7722637795275591
 20
0.9976535433070867
 30
0.0
 10
0.7729606299212599
 20
1.003511811023622
 30
0.0
 10
0.7744881889763779
 20
1.008374015748031
 30
0.0
 10
0.7768228346456694
 20
1.012236220472441
 30
0.0
 10
0.7768228346456694
 20
1.012236220472441
 30
0.0
 10
0.7799055118110236
 20
1.017429133858268
 30
0.0
 10
0.7842637795275591
 20
1.021484251968504
 30
0.0
 10
0.7899055118110236
 20
1.024374015748031
 30
0.0
 10
0.7899055118110236
 20
1.024374015748031
 30
0.0
 10
0.7955708661417323
 20
1.027291338582677
 30
0.0
 10
0.8020433070866142
 20
1.028736220472441
 30
0.0
 10
0.8093779527559055
 20
1.028736220472441
 30
0.0
 10
0.8093779527559055
 20
1.028736220472441
 30
0.0
 10
0.8165708661417324
 20
1.028736220472441
 30
0.0
 10
0.8229330708661418
 20
1.027456692913386
 30
0.0
 10
0.8284055118110236
 20
1.024874015748032
 30
0.0
 10
0.8284055118110236
 20
1.024874015748032
 30
0.0
 10
0.8338779527559056
 20
1.022291338582677
 30
0.0
 10
0.8380157480314961
 20
1.018874015748032
 30
0.0
 10
0.8408188976377953
 20
1.014625984251969
 30
0.0
 10
0.8408188976377953
 20
1.014625984251969
 30
0.0
 10
0.8436259842519686
 20
1.010374015748031
 30
0.0
 10
0.8450157480314962
 20
1.005763779527559
 30
0.0
 10
0.8450157480314962
 20
1.000818897637795
 30
0.0
 10
0.8450157480314962
 20
1.000818897637795
 30
0.0
 10
0.8450157480314962
 20
0.996484251968504
 30
0.0
 10
0.8439606299212599
 20
0.9925984251968504
 30
0.0
 10
0.8418464566929135
 20
0.9891811023622048
 30
0.0
 10
0.8418464566929135
 20
0.9891811023622048
 30
0.0
 10
0.8397086614173229
 20
0.9857637795275591
 30
0.0
 10
0.8365708661417323
 20
0.9827086614173228
 30
0.0
 10
0.8324055118110236
 20
0.979984251968504
 30
0.0
 10
0.8324055118110236
 20
0.979984251968504
 30
0.0
 10
0.8294606299212599
 20
0.9780984251968504
 30
0.0
 10
0.8256535433070866
 20
0.9764291338582678
 30
0.0
 10
0.8209330708661418
 20
0.9750393700787402
 30
0.0
 10
0.8209330708661418
 20
0.9750393700787402
 30
0.0
 10
0.8259606299212599
 20
0.9743188976377953
 30
0.0
 10
0.8300984251968504
 20
0.9731535433070867
 30
0.0
 10
0.8332913385826772
 20
0.9715393700787401
 30
0.0
 10
0.8332913385826772
 20
0.9715393700787401
 30
0.0
 10
0.838488188976378
 20
0.9688740157480316
 30
0.0
 10
0.8425984251968505
 20
0.9652086614173229
 30
0.0
 10
0.8455708661417323
 20
0.9605393700787402
 30
0.0
 10
0.8455708661417323
 20
0.9605393700787402
 30
0.0
 10
0.8485708661417323
 20
0.9558740157480316
 30
0.0
 10
0.8500433070866142
 20
0.9507637795275591
 30
0.0
 10
0.8500433070866142
 20
0.9451535433070867
 30
0.0
 10
0.8500433070866142
 20
0.9451535433070867
 30
0.0
 10
0.8500433070866142
 20
0.9362086614173228
 30
0.0
 10
0.8461259842519685
 20
0.9283188976377953
 30
0.0
 10
0.838263779527559
 20
0.9215118110236221
 30
0.0
 10
0.838263779527559
 20
0.9215118110236221
 30
0.0
 10
0.8303779527559055
 20
0.9147086614173229
 30
0.0
 10
0.8202086614173229
 20
0.9113188976377953
 30
0.0
 10
0.807736220472441
 20
0.9113188976377953
 30
0.0
 10
0.807736220472441
 20
0.9113188976377953
 30
0.0
 10
0.7954330708661418
 20
0.9113188976377953
 30
0.0
 10
0.7850708661417323
 20
0.9145984251968504
 30
0.0
 10
0.7766535433070867
 20
0.9211535433070867
 30
0.0
 10
0.7766535433070867
 20
0.9211535433070867
 30
0.0
 10
0.7695984251968504
 20
0.926736220472441
 30
0.0
 10
0.7660708661417324
 20
0.9323740157480316
 30
0.0
 10
0.7660708661417324
 20
0.9380118110236221
 30
0.0
 10
0.7660708661417324
 20
0.9380118110236221
 30
0.0
 10
0.7660708661417324
 20
0.9402362204724409
 30
0.0
 10
0.7667952755905512
 20
0.9420984251968504
 30
0.0
 10
0.768236220472441
 20
0.9435708661417324
 30
0.0
 10
0.768236220472441
 20
0.9435708661417324
 30
0.0
 10
0.7696535433070867
 20
0.9450708661417323
 30
0.0
 10
0.7714606299212599
 20
0.9458188976377954
 30
0.0
 10
0.7736535433070867
 20
0.9458188976377954
 30
0.0
 10
0.7736535433070867
 20
0.9458188976377954
 30
0.0
 10
0.7760157480314961
 20
0.9458188976377954
 30
0.0
 10
0.7780708661417323
 20
0.9449015748031496
 30
0.0
 10
0.779736220472441
 20
0.9430393700787402
 30
0.0
 10
0.779736220472441
 20
0.9430393700787402
 30
0.0
 10
0.7806535433070867
 20
0.9420118110236221
 30
0.0
 10
0.781736220472441
 20
0.9395433070866142
 30
0.0
 10
0.7829055118110236
 20
0.9356535433070866
 30
0.0
 10
0.7829055118110236
 20
0.9356535433070866
 30
0.0
 10
0.7845984251968504
 20
0.9301535433070867
 30
0.0
 10
0.7874606299212599
 20
0.925984251968504
 30
0.0
 10
0.7914606299212599
 20
0.9231259842519686
 30
0.0
 10
0.7914606299212599
 20
0.9231259842519686
 30
0.0
 10
0.795488188976378
 20
0.920236220472441
 30
0.0
 10
0.8004606299212599
 20
0.9187913385826773
 30
0.0
 10
0.8064330708661418
 20
0.9187913385826773
 30
0.0
 10
0.8064330708661418
 20
0.9187913385826773
 30
0.0
 10
0.8117637795275591
 20
0.9187913385826773
 30
0.0
 10
0.8165157480314961
 20
0.9199566929133859
 30
0.0
 10
0.8207086614173229
 20
0.9222913385826772
 30
0.0
 10
0.8207086614173229
 20
0.9222913385826772
 30
0.0
 10
0.8249330708661418
 20
0.9246259842519685
 30
0.0
 10
0.8282362204724409
 20
0.9279291338582677
 30
0.0
 10
0.8306811023622047
 20
0.932236220472441
 30
0.0
 10
0.8306811023622047
 20
0.932236220472441
 30
0.0
 10
0.8331259842519685
 20
0.9365118110236221
 30
0.0
 10
0.8343503937007875
 20
0.9412086614173228
 30
0.0
 10
0.8343503937007875
 20
0.9462913385826772
 30
0.0
 10
0.8343503937007875
 20
0.9462913385826772
 30
0.0
 10
0.8343503937007875
 20
0.9504291338582678
 30
0.0
 10
0.8334606299212599
 20
0.9541259842519686
 30
0.0
 10
0.8317086614173229
 20
0.9574015748031497
 30
0.0
 10
0.8317086614173229
 20
0.9574015748031497
 30
0.0
 10
0.8299330708661418
 20
0.9607086614173229
 30
0.0
 10
0.8274330708661418
 20
0.963484251968504
 30
0.0
 10
0.8241811023622048
 20
0.9657637795275591
 30
0.0
 10
0.8241811023622048
 20
0.9657637795275591
 30
0.0
 10
0.8216811023622047
 20
0.9675393700787403
 30
0.0
 10
0.818488188976378
 20
0.9687913385826772
 30
0.0
 10
0.8146259842519685
 20
0.969484251968504
 30
0.0
 10
0.8146259842519685
 20
0.969484251968504
 30
0.0
 10
0.810736220472441
 20
0.9702086614173229
 30
0.0
 10
0.8072362204724409
 20
0.9705669291338583
 30
0.0
 10
0.8041535433070867
 20
0.9705669291338583
 30
0.0
 10
0.8041535433070867
 20
0.9705669291338583
 30
0.0
 10
0.8041535433070867
 20
0.9705669291338583
 30
0.0
 10
0.7965984251968504
 20
0.9705669291338583
 30
0.0
 10
0.7965984251968504
 20
0.9705669291338583
 30
0.0
 10
0.7965984251968504
 20
0.9705669291338583
 30
0.0
 10
0.7965984251968504
 20
0.9705669291338583
 30
0.0
 10
0.7965984251968504
 20
0.9784566929133859
 30
0.0
 10
0.7965984251968504
 20
0.9784566929133859
 30
0.0
 10
0.7965984251968504
 20
0.9784566929133859
 30
0.0
 10
0.7965984251968504
 20
0.9784566929133859
 30
0.0
 10
0.8014055118110237
 20
0.9784566929133859
 30
0.0
 10
0.8014055118110237
 20
0.9784566929133859
 30
0.0
 10
0.8014055118110237
 20
0.9784566929133859
 30
0.0
 10
0.8061535433070867
 20
0.9784566929133859
 30
0.0
 10
0.8107086614173229
 20
0.9790118110236221
 30
0.0
 10
0.8150708661417323
 20
0.9801259842519685
 30
0.0
 10
0.8150708661417323
 20
0.9801259842519685
 30
0.0
 10
0.8194055118110236
 20
0.981236220472441
 30
0.0
 10
0.8228779527559056
 20
0.9835118110236221
 30
0.0
 10
0.825488188976378
 20
0.9869842519685039
 30
0.0
 10
0.825488188976378
 20
0.9869842519685039
 30
0.0
 10
0.8280708661417323
 20
0.9904566929133859
 30
0.0
 10
0.8293779527559055
 20
0.9944015748031496
 30
0.0
 10
0.8293779527559055
 20
0.9987913385826772
 30
0.0
 10
0.8293779527559055
 20
0.9987913385826772
 30
0.0
 10
0.8293779527559055
 20
1.002594488188976
 30
0.0
 10
0.828488188976378
 20
1.006011811023622
 30
0.0
 10
0.8266535433070866
 20
1.00903937007874
 30
0.0
 10
0.8266535433070866
 20
1.00903937007874
 30
0.0
 10
0.8248503937007874
 20
1.012094488188976
 30
0.0
 10
0.8221811023622048
 20
1.014511811023622
 30
0.0
 10
0.8186535433070866
 20
1.016291338582677
 30
0.0
 10
0.8186535433070866
 20
1.016291338582677
 30
0.0
 10
0.8151259842519686
 20
1.018066929133858
 30
0.0
 10
0.8110433070866142
 20
1.018984251968504
 30
0.0
 10
0.8064330708661418
 20
1.018984251968504
 30
0.0
 10
0.8064330708661418
 20
1.018984251968504
 30
0.0
 10
0.8019330708661417
 20
1.018984251968504
 30
0.0
 10
0.7977913385826772
 20
1.01803937007874
 30
0.0
 10
0.7940157480314961
 20
1.016208661417323
 30
0.0
 10
0.7940157480314961
 20
1.016208661417323
 30
0.0
 10
0.7902637795275591
 20
1.014374015748031
 30
0.0
 10
0.787236220472441
 20
1.01190157480315
 30
0.0
 10
0.7849606299212599
 20
1.008791338582677
 30
0.0
 10
0.7849606299212599
 20
1.008791338582677
 30
0.0
 10
0.7826811023622048
 20
1.005708661417323
 30
0.0
 10
0.7810433070866142
 20
1.001594488188977
 30
0.0
 10
0.7800708661417323
 20
0.9964291338582677
 30
0.0
  0
SPLINE
  5
7D
330
1F
100
AcDbEntity
  8
LAYER_1
 62
   250
100
AcDbSpline
210
0.0
220
0.0
230
1.0
 70
    11
 71
     3
 72
    20
 73
    16
 74
     0
 42
0.0000000001
 43
0.0000000001
 40
0.0
 40
0.0
 40
0.0
 40
0.0
 40
0.25
 40
0.25
 40
0.25
 40
0.25
 40
0.5
 40
0.5
 40
0.5
 40
0.5
 40
0.75
 40
0.75
 40
0.75
 40
0.75
 40
1.0
 40
1.0
 40
1.0
 40
1.0
 10
0.9428503937007875
 20
1.032653543307087
 30
0.0
 10
0.9428503937007875
 20
1.032653543307087
 30
0.0
 10
0.8872677165354331
 20
0.8769566929133859
 30
0.0
 10
0.8872677165354331
 20
0.8769566929133859
 30
0.0
 10
0.8872677165354331
 20
0.8769566929133859
 30
0.0
 10
0.8872677165354331
 20
0.8769566929133859
 30
0.0
 10
0.8752125984251968
 20
0.8769566929133859
 30
0.0
 10
0.8752125984251968
 20
0.8769566929133859
 30
0.0
 10
0.8752125984251968
 20
0.8769566929133859
 30
0.0
 10
0.8752125984251968
 20
0.8769566929133859
 30
0.0
 10
0.9304606299212599
 20
1.032653543307087
 30
0.0
 10
0.9304606299212599
 20
1.032653543307087
 30
0.0
 10
0.9304606299212599
 20
1.032653543307087
 30
0.0
 10
0.9304606299212599
 20
1.032653543307087
 30
0.0
 10
0.9428503937007875
 20
1.032653543307087
 30
0.0
 10
0.9428503937007875
 20
1.032653543307087
 30
0.0
  0
SPLINE
  5
7E
330
1F
100
AcDbEntity
  8
LAYER_1
 62
   250
100
AcDbSpline
210
0.0
220
0.0
230
1.0
 70
    11
 71
     3
 72
    48
 73
    44
 74
     0
 42
0.0000000001
 43
0.0000000001
 40
0.0
 40
0.0
 40
0.0
 40
0.0
 40
0.0909090909090909
 40
0.0909090909090909
 40
0.0909090909090909
 40
0.0909090909090909
 40
0.1818181818181818
 40
0.1818181818181818
 40
0.1818181818181818
 40
0.1818181818181818
 40
0.2727272727272727
 40
0.2727272727272727
 40
0.2727272727272727
 40
0.2727272727272727
 40
0.3636363636363637
 40
0.3636363636363637
 40
0.3636363636363637
 40
0.3636363636363637
 40
0.4545454545454546
 40
0.4545454545454546
 40
0.4545454545454546
 40
0.4545454545454546
 40
0.5454545454545455
 40
0.5454545454545455
 40
0.5454545454545455
 40
0.5454545454545455
 40
0.6363636363636365
 40
0.6363636363636365
 40
0.6363636363636365
 40
0.6363636363636365
 40
0.7272727272727274
 40
0.7272727272727274
 40
0.7272727272727274
 40
0.7272727272727274
 40
0.8181818181818183
 40
0.8181818181818183
 40
0.8181818181818183
 40
0.8181818181818183
 40
0.9090909090909093
 40
0.9090909090909093
 40
0.9090909090909093
 40
0.9090909090909093
 40
1.0
 40
1.0
 40
1.0
 40
1.0
 10
1.021795275590551
 20
1.026791338582677
 30
0.0
 10
1.021795275590551
 20
1.026791338582677
 30
0.0
 10
1.035543307086614
 20
1.026791338582677
 30
0.0
 10
1.035543307086614
 20
1.026791338582677
 30
0.0
 10
1.035543307086614
 20
1.026791338582677
 30
0.0
 10
1.035543307086614
 20
1.026791338582677
 30
0.0
 10
1.035543307086614
 20
0.9607913385826772
 30
0.0
 10
1.035543307086614
 20
0.9607913385826772
 30
0.0
 10
1.035543307086614
 20
0.9607913385826772
 30
0.0
 10
1.035543307086614
 20
0.9607913385826772
 30
0.0
 10
1.056877952755906
 20
0.9607913385826772
 30
0.0
 10
1.056877952755906
 20
0.9607913385826772
 30
0.0
 10
1.056877952755906
 20
0.9607913385826772
 30
0.0
 10
1.056877952755906
 20
0.9607913385826772
 30
0.0
 10
1.056877952755906
 20
0.9506259842519685
 30
0.0
 10
1.056877952755906
 20
0.9506259842519685
 30
0.0
 10
1.056877952755906
 20
0.9506259842519685
 30
0.0
 10
1.056877952755906
 20
0.9506259842519685
 30
0.0
 10
1.035543307086614
 20
0.9506259842519685
 30
0.0
 10
1.035543307086614
 20
0.9506259842519685
 30
0.0
 10
1.035543307086614
 20
0.9506259842519685
 30
0.0
 10
1.035543307086614
 20
0.9506259842519685
 30
0.0
 10
1.035543307086614
 20
0.9132637795275591
 30
0.0
 10
1.035543307086614
 20
0.9132637795275591
 30
0.0
 10
1.035543307086614
 20
0.9132637795275591
 30
0.0
 10
1.035543307086614
 20
0.9132637795275591
 30
0.0
 10
1.021795275590551
 20
0.9132637795275591
 30
0.0
 10
1.021795275590551
 20
0.9132637795275591
 30
0.0
 10
1.021795275590551
 20
0.9132637795275591
 30
0.0
 10
1.021795275590551
 20
0.9132637795275591
 30
0.0
 10
1.021795275590551
 20
0.9506259842519685
 30
0.0
 10
1.021795275590551
 20
0.9506259842519685
 30
0.0
 10
1.021795275590551
 20
0.9506259842519685
 30
0.0
 10
1.021795275590551
 20
0.9506259842519685
 30
0.0
 10
0.9683228346456694
 20
0.9506259842519685
 30
0.0
 10
0.9683228346456694
 20
0.9506259842519685
 30
0.0
 10
0.9683228346456694
 20
0.9506259842519685
 30
0.0
 10
0.9683228346456694
 20
0.9506259842519685
 30
0.0
 10
0.9683228346456694
 20
0.9649291338582677
 30
0.0
 10
0.9683228346456694
 20
0.9649291338582677
 30
0.0
 10
0.9683228346456694
 20
0.9649291338582677
 30
0.0
 10
0.9683228346456694
 20
0.9649291338582677
 30
0.0
 10
1.021795275590551
 20
1.026791338582677
 30
0.0
 10
1.021795275590551
 20
1.026791338582677
 30
0.0
  0
SPLINE
  5
7F
330
1F
100
AcDbEntity
  8
LAYER_1
 62
   250
100
AcDbSpline
210
0.0
220
0.0
230
1.0
 70
    11
 71
     3
 72
    16
 73
    12
 74
     0
 42
0.0000000001
 43
0.0000000001
 40
0.0
 40
0.0
 40
0.0
 40
0.0
 40
0.3333333333333333
 40
0.3333333333333333
 40
0.3333333333333333
 40
0.3333333333333333
 40
0.6666666666666666
 40
0.6666666666666666
 40
0.6666666666666666
 40
0.6666666666666666
 40
1.0
 40
1.0
 40
1.0
 40
1.0
 10
1.021795275590551
 20
0.9607913385826772
 30
0.0
 10
1.021795275590551
 20
0.9607913385826772
 30
0.0
 10
1.021795275590551
 20
1.014181102362205
 30
0.0
 10
1.021795275590551
 20
1.014181102362205
 30
0.0
 10
1.021795275590551
 20
1.014181102362205
 30
0.0
 10
1.021795275590551
 20
1.014181102362205
 30
0.0
 10
0.975740157480315
 20
0.9607913385826772
 30
0.0
 10
0.975740157480315
 20
0.9607913385826772
 30
0.0
 10
0.975740157480315
 20
0.9607913385826772
 30
0.0
 10
0.975740157480315
 20
0.9607913385826772
 30
0.0
 10
1.021795275590551
 20
0.9607913385826772
 30
0.0
 10
1.021795275590551
 20
0.9607913385826772
 30
0.0
  0
SPLINE
  5
80
330
1F
100
AcDbEntity
  8
LAYER_1
 62
   250
100
AcDbSpline
210
0.0
220
0.0
230
1.0
 70
    11
 71
     3
 72
    60
 73
    56
 74
     0
 42
0.0000000001
 43
0.0000000001
 40
0.0
 40
0.0
 40
0.0
 40
0.0
 40
0.0714285714285714
 40
0.0714285714285714
 40
0.0714285714285714
 40
0.0714285714285714
 40
0.1428571428571429
 40
0.1428571428571429
 40
0.1428571428571429
 40
0.1428571428571429
 40
0.2142857142857143
 40
0.2142857142857143
 40
0.2142857142857143
 40
0.2142857142857143
 40
0.2857142857142857
 40
0.2857142857142857
 40
0.2857142857142857
 40
0.2857142857142857
 40
0.3571428571428571
 40
0.3571428571428571
 40
0.3571428571428571
 40
0.3571428571428571
 40
0.4285714285714285
 40
0.4285714285714285
 40
0.4285714285714285
 40
0.4285714285714285
 40
0.4999999999999999
 40
0.4999999999999999
 40
0.4999999999999999
 40
0.4999999999999999
 40
0.5714285714285713
 40
0.5714285714285713
 40
0.5714285714285713
 40
0.5714285714285713
 40
0.6428571428571427
 40
0.6428571428571427
 40
0.6428571428571427
 40
0.6428571428571427
 40
0.7142857142857141
 40
0.7142857142857141
 40
0.7142857142857141
 40
0.7142857142857141
 40
0.7857142857142855
 40
0.7857142857142855
 40
0.7857142857142855
 40
0.7857142857142855
 40
0.8571428571428569
 40
0.8571428571428569
 40
0.8571428571428569
 40
0.8571428571428569
 40
0.9285714285714283
 40
0.9285714285714283
 40
0.9285714285714283
 40
0.9285714285714283
 40
1.0
 40
1.0
 40
1.0
 40
1.0
 10
1.074850393700787
 20
0.9847086614173228
 30
0.0
 10
1.074850393700787
 20
0.9847086614173228
 30
0.0
 10
1.07046062992126
 20
0.9900984251968504
 30
0.0
 10
1.07046062992126
 20
0.9900984251968504
 30
0.0
 10
1.07046062992126
 20
0.9900984251968504
 30
0.0
 10
1.081574803149606
 20
0.9991535433070866
 30
0.0
 10
1.087157480314961
 20
1.006708661417323
 30
0.0
 10
1.087157480314961
 20
1.012791338582677
 30
0.0
 10
1.087157480314961
 20
1.012791338582677
 30
0.0
 10
1.087157480314961
 20
1.013484251968504
 30
0.0
 10
1.087102362204724
 20
1.014374015748031
 30
0.0
 10
1.086988188976378
 20
1.01540157480315
 30
0.0
 10
1.086988188976378
 20
1.01540157480315
 30
0.0
 10
1.086074803149606
 20
1.015011811023622
 30
0.0
 10
1.085157480314961
 20
1.014708661417323
 30
0.0
 10
1.084295275590551
 20
1.014511811023622
 30
0.0
 10
1.084295275590551
 20
1.014511811023622
 30
0.0
 10
1.083433070866142
 20
1.014291338582677
 30
0.0
 10
1.082629921259843
 20
1.014181102362205
 30
0.0
 10
1.081850393700788
 20
1.014181102362205
 30
0.0
 10
1.081850393700788
 20
1.014181102362205
 30
0.0
 10
1.079240157480315
 20
1.014181102362205
 30
0.0
 10
1.077157480314961
 20
1.015011811023622
 30
0.0
 10
1.075602362204724
 20
1.016708661417323
 30
0.0
 10
1.075602362204724
 20
1.016708661417323
 30
0.0
 10
1.074015748031496
 20
1.018374015748031
 30
0.0
 10
1.073240157480315
 20
1.020511811023622
 30
0.0
 10
1.073240157480315
 20
1.023125984251968
 30
0.0
 10
1.073240157480315
 20
1.023125984251968
 30
0.0
 10
1.073240157480315
 20
1.025681102362205
 30
0.0
 10
1.074185039370079
 20
1.02790157480315
 30
0.0
 10
1.076074803149606
 20
1.029791338582677
 30
0.0
 10
1.076074803149606
 20
1.029791338582677
 30
0.0
 10
1.077988188976378
 20
1.031708661417323
 30
0.0
 10
1.080267716535433
 20
1.032653543307087
 30
0.0
 10
1.082905511811024
 20
1.032653543307087
 30
0.0
 10
1.082905511811024
 20
1.032653543307087
 30
0.0
 10
1.086602362204725
 20
1.032653543307087
 30
0.0
 10
1.089767716535433
 20
1.031181102362205
 30
0.0
 10
1.092405511811024
 20
1.028208661417323
 30
0.0
 10
1.092405511811024
 20
1.028208661417323
 30
0.0
 10
1.095015748031496
 20
1.025263779527559
 30
0.0
 10
1.096350393700788
 20
1.021456692913386
 30
0.0
 10
1.096350393700788
 20
1.016791338582677
 30
0.0
 10
1.096350393700788
 20
1.016791338582677
 30
0.0
 10
1.096350393700788
 20
1.013736220472441
 30
0.0
 10
1.095712598425197
 20
1.01053937007874
 30
0.0
 10
1.09446062992126
 20
1.007208661417323
 30
0.0
 10
1.09446062992126
 20
1.007208661417323
 30
0.0
 10
1.093212598425197
 20
1.003874015748032
 30
0.0
 10
1.091405511811024
 20
1.000791338582677
 30
0.0
 10
1.089015748031496
 20
0.9979291338582678
 30
0.0
 10
1.089015748031496
 20
0.9979291338582678
 30
0.0
 10
1.086629921259843
 20
0.9950984251968504
 30
0.0
 10
1.081905511811024
 20
0.9906811023622048
 30
0.0
 10
1.074850393700787
 20
0.9847086614173228
 30
0.0
  0
SPLINE
  5
81
330
1F
100
AcDbEntity
  8
LAYER_1
 62
   250
100
AcDbSpline
210
0.0
220
0.0
230
1.0
 70
    11
 71
     3
 72
    60
 73
    56
 74
     0
 42
0.0000000001
 43
0.0000000001
 40
0.0
 40
0.0
 40
0.0
 40
0.0
 40
0.0714285714285714
 40
0.0714285714285714
 40
0.0714285714285714
 40
0.0714285714285714
 40
0.1428571428571429
 40
0.1428571428571429
 40
0.1428571428571429
 40
0.1428571428571429
 40
0.2142857142857143
 40
0.2142857142857143
 40
0.2142857142857143
 40
0.2142857142857143
 40
0.2857142857142857
 40
0.2857142857142857
 40
0.2857142857142857
 40
0.2857142857142857
 40
0.3571428571428571
 40
0.3571428571428571
 40
0.3571428571428571
 40
0.3571428571428571
 40
0.4285714285714285
 40
0.4285714285714285
 40
0.4285714285714285
 40
0.4285714285714285
 40
0.4999999999999999
 40
0.4999999999999999
 40
0.4999999999999999
 40
0.4999999999999999
 40
0.5714285714285713
 40
0.5714285714285713
 40
0.5714285714285713
 40
0.5714285714285713
 40
0.6428571428571427
 40
0.6428571428571427
 40
0.6428571428571427
 40
0.6428571428571427
 40
0.7142857142857141
 40
0.7142857142857141
 40
0.7142857142857141
 40
0.7142857142857141
 40
0.7857142857142855
 40
0.7857142857142855
 40
0.7857142857142855
 40
0.7857142857142855
 40
0.8571428571428569
 40
0.8571428571428569
 40
0.8571428571428569
 40
0.8571428571428569
 40
0.9285714285714283
 40
0.9285714285714283
 40
0.9285714285714283
 40
0.9285714285714283
 40
1.0
 40
1.0
 40
1.0
 40
1.0
 10
1.103905511811024
 20
0.9847086614173228
 30
0.0
 10
1.103905511811024
 20
0.9847086614173228
 30
0.0
 10
1.099515748031496
 20
0.9900984251968504
 30
0.0
 10
1.099515748031496
 20
0.9900984251968504
 30
0.0
 10
1.099515748031496
 20
0.9900984251968504
 30
0.0
 10
1.110629921259843
 20
0.9991535433070866
 30
0.0
 10
1.116212598425197
 20
1.006708661417323
 30
0.0
 10
1.116212598425197
 20
1.012791338582677
 30
0.0
 10
1.116212598425197
 20
1.012791338582677
 30
0.0
 10
1.116212598425197
 20
1.013484251968504
 30
0.0
 10
1.116157480314961
 20
1.014374015748031
 30
0.0
 10
1.116043307086614
 20
1.01540157480315
 30
0.0
 10
1.116043307086614
 20
1.01540157480315
 30
0.0
 10
1.115129921259843
 20
1.015011811023622
 30
0.0
 10
1.114212598425197
 20
1.014708661417323
 30
0.0
 10
1.113350393700787
 20
1.014511811023622
 30
0.0
 10
1.113350393700787
 20
1.014511811023622
 30
0.0
 10
1.112488188976378
 20
1.014291338582677
 30
0.0
 10
1.111657480314961
 20
1.014181102362205
 30
0.0
 10
1.110822834645669
 20
1.014181102362205
 30
0.0
 10
1.110822834645669
 20
1.014181102362205
 30
0.0
 10
1.108267716535433
 20
1.014181102362205
 30
0.0
 10
1.106212598425197
 20
1.015011811023622
 30
0.0
 10
1.104657480314961
 20
1.016708661417323
 30
0.0
 10
1.104657480314961
 20
1.016708661417323
 30
0.0
 10
1.103074803149606
 20
1.018374015748031
 30
0.0
 10
1.102295275590551
 20
1.020511811023622
 30
0.0
 10
1.102295275590551
 20
1.023125984251968
 30
0.0
 10
1.102295275590551
 20
1.023125984251968
 30
0.0
 10
1.102295275590551
 20
1.025681102362205
 30
0.0
 10
1.103240157480315
 20
1.02790157480315
 30
0.0
 10
1.105129921259843
 20
1.029791338582677
 30
0.0
 10
1.105129921259843
 20
1.029791338582677
 30
0.0
 10
1.107015748031496
 20
1.031708661417323
 30
0.0
 10
1.109322834645669
 20
1.032653543307087
 30
0.0
 10
1.11196062992126
 20
1.032653543307087
 30
0.0
 10
1.11196062992126
 20
1.032653543307087
 30
0.0
 10
1.115657480314961
 20
1.032653543307087
 30
0.0
 10
1.118822834645669
 20
1.031181102362205
 30
0.0
 10
1.12146062992126
 20
1.028208661417323
 30
0.0
 10
1.12146062992126
 20
1.028208661417323
 30
0.0
 10
1.124070866141732
 20
1.025263779527559
 30
0.0
 10
1.125405511811024
 20
1.021456692913386
 30
0.0
 10
1.125405511811024
 20
1.016791338582677
 30
0.0
 10
1.125405511811024
 20
1.016791338582677
 30
0.0
 10
1.125405511811024
 20
1.013736220472441
 30
0.0
 10
1.124767716535433
 20
1.01053937007874
 30
0.0
 10
1.123515748031496
 20
1.007208661417323
 30
0.0
 10
1.123515748031496
 20
1.007208661417323
 30
0.0
 10
1.122267716535433
 20
1.003874015748032
 30
0.0
 10
1.12046062992126
 20
1.000791338582677
 30
0.0
 10
1.118074803149606
 20
0.9979291338582678
 30
0.0
 10
1.118074803149606
 20
0.9979291338582678
 30
0.0
 10
1.115685039370079
 20
0.9950984251968504
 30
0.0
 10
1.11096062992126
 20
0.9906811023622048
 30
0.0
 10
1.103905511811024
 20
0.9847086614173228
 30
0.0
  0
SPLINE
  5
82
330
1F
100
AcDbEntity
  8
LAYER_1
 62
   250
100
AcDbSpline
210
0.0
220
0.0
230
1.0
 70
    11
 71
     3
 72
   204
 73
   200
 74
     0
 42
0.0000000001
 43
0.0000000001
 40
0.0
 40
0.0
 40
0.0
 40
0.0
 40
0.02
 40
0.02
 40
0.02
 40
0.02
 40
0.04
 40
0.04
 40
0.04
 40
0.04
 40
0.06
 40
0.06
 40
0.06
 40
0.06
 40
0.08
 40
0.08
 40
0.08
 40
0.08
 40
0.1
 40
0.1
 40
0.1
 40
0.1
 40
0.12
 40
0.12
 40
0.12
 40
0.12
 40
0.14
 40
0.14
 40
0.14
 40
0.14
 40
0.16
 40
0.16
 40
0.16
 40
0.16
 40
0.18
 40
0.18
 40
0.18
 40
0.18
 40
0.2
 40
0.2
 40
0.2
 40
0.2
 40
0.22
 40
0.22
 40
0.22
 40
0.22
 40
0.24
 40
0.24
 40
0.24
 40
0.24
 40
0.26
 40
0.26
 40
0.26
 40
0.26
 40
0.28
 40
0.28
 40
0.28
 40
0.28
 40
0.3
 40
0.3
 40
0.3
 40
0.3
 40
0.32
 40
0.32
 40
0.32
 40
0.32
 40
0.34
 40
0.34
 40
0.34
 40
0.34
 40
0.36
 40
0.36
 40
0.36
 40
0.36
 40
0.3800000000000001
 40
0.3800000000000001
 40
0.3800000000000001
 40
0.3800000000000001
 40
0.4000000000000001
 40
0.4000000000000001
 40
0.4000000000000001
 40
0.4000000000000001
 40
0.4200000000000001
 40
0.4200000000000001
 40
0.4200000000000001
 40
0.4200000000000001
 40
0.4400000000000001
 40
0.4400000000000001
 40
0.4400000000000001
 40
0.4400000000000001
 40
0.4600000000000001
 40
0.4600000000000001
 40
0.4600000000000001
 40
0.4600000000000001
 40
0.4800000000000002
 40
0.4800000000000002
 40
0.4800000000000002
 40
0.4800000000000002
 40
0.5000000000000001
 40
0.5000000000000001
 40
0.5000000000000001
 40
0.5000000000000001
 40
0.5200000000000001
 40
0.5200000000000001
 40
0.5200000000000001
 40
0.5200000000000001
 40
0.5400000000000002
 40
0.5400000000000002
 40
0.5400000000000002
 40
0.5400000000000002
 40
0.5600000000000002
 40
0.5600000000000002
 40
0.5600000000000002
 40
0.5600000000000002
 40
0.5800000000000002
 40
0.5800000000000002
 40
0.5800000000000002
 40
0.5800000000000002
 40
0.6000000000000002
 40
0.6000000000000002
 40
0.6000000000000002
 40
0.6000000000000002
 40
0.6200000000000002
 40
0.6200000000000002
 40
0.6200000000000002
 40
0.6200000000000002
 40
0.6400000000000002
 40
0.6400000000000002
 40
0.6400000000000002
 40
0.6400000000000002
 40
0.6600000000000003
 40
0.6600000000000003
 40
0.6600000000000003
 40
0.6600000000000003
 40
0.6800000000000003
 40
0.6800000000000003
 40
0.6800000000000003
 40
0.6800000000000003
 40
0.7000000000000003
 40
0.7000000000000003
 40
0.7000000000000003
 40
0.7000000000000003
 40
0.7200000000000003
 40
0.7200000000000003
 40
0.7200000000000003
 40
0.7200000000000003
 40
0.7400000000000003
 40
0.7400000000000003
 40
0.7400000000000003
 40
0.7400000000000003
 40
0.7600000000000003
 40
0.7600000000000003
 40
0.7600000000000003
 40
0.7600000000000003
 40
0.7800000000000004
 40
0.7800000000000004
 40
0.7800000000000004
 40
0.7800000000000004
 40
0.8000000000000004
 40
0.8000000000000004
 40
0.8000000000000004
 40
0.8000000000000004
 40
0.8200000000000004
 40
0.8200000000000004
 40
0.8200000000000004
 40
0.8200000000000004
 40
0.8400000000000004
 40
0.8400000000000004
 40
0.8400000000000004
 40
0.8400000000000004
 40
0.8600000000000004
 40
0.8600000000000004
 40
0.8600000000000004
 40
0.8600000000000004
 40
0.8800000000000005
 40
0.8800000000000005
 40
0.8800000000000005
 40
0.8800000000000005
 40
0.9000000000000005
 40
0.9000000000000005
 40
0.9000000000000005
 40
0.9000000000000005
 40
0.9200000000000005
 40
0.9200000000000005
 40
0.9200000000000005
 40
0.9200000000000005
 40
0.9400000000000005
 40
0.9400000000000005
 40
0.9400000000000005
 40
0.9400000000000005
 40
0.9600000000000005
 40
0.9600000000000005
 40
0.9600000000000005
 40
0.9600000000000005
 40
0.9800000000000005
 40
0.9800000000000005
 40
0.9800000000000005
 40
0.9800000000000005
 40
1.0
 40
1.0
 40
1.0
 40
1.0
 10
1.187712598425197
 20
0.9917913385826772
 30
0.0
 10
1.187712598425197
 20
0.9917913385826772
 30
0.0
 10
1.228657480314961
 20
0.9917913385826772
 30
0.0
 10
1.228657480314961
 20
0.9917913385826772
 30
0.0
 10
1.228657480314961
 20
0.9917913385826772
 30
0.0
 10
1.228657480314961
 20
0.9917913385826772
 30
0.0
 10
1.228657480314961
 20
0.9849566929133858
 30
0.0
 10
1.228657480314961
 20
0.9849566929133858
 30
0.0
 10
1.228657480314961
 20
0.9849566929133858
 30
0.0
 10
1.228657480314961
 20
0.9849566929133858
 30
0.0
 10
1.225822834645669
 20
0.9849566929133858
 30
0.0
 10
1.225822834645669
 20
0.9849566929133858
 30
0.0
 10
1.225822834645669
 20
0.9849566929133858
 30
0.0
 10
1.224185039370079
 20
0.9849566929133858
 30
0.0
 10
1.222685039370079
 20
0.9847637795275591
 30
0.0
 10
1.221322834645669
 20
0.9844015748031496
 30
0.0
 10
1.221322834645669
 20
0.9844015748031496
 30
0.0
 10
1.22051968503937
 20
0.9841811023622048
 30
0.0
 10
1.219850393700787
 20
0.9837637795275591
 30
0.0
 10
1.219350393700788
 20
0.9831259842519685
 30
0.0
 10
1.219350393700788
 20
0.9831259842519685
 30
0.0
 10
1.218822834645669
 20
0.9825118110236221
 30
0.0
 10
1.218574803149606
 20
0.9819291338582677
 30
0.0
 10
1.218574803149606
 20
0.9813740157480315
 30
0.0
 10
1.218574803149606
 20
0.9813740157480315
 30
0.0
 10
1.218574803149606
 20
0.9801259842519685
 30
0.0
 10
1.219602362204725
 20
0.9782637795275591
 30
0.0
 10
1.221657480314961
 20
0.9757637795275591
 30
0.0
 10
1.221657480314961
 20
0.9757637795275591
 30
0.0
 10
1.221657480314961
 20
0.9757637795275591
 30
0.0
 10
1.233295275590551
 20
0.9611259842519685
 30
0.0
 10
1.233295275590551
 20
0.9611259842519685
 30
0.0
 10
1.233295275590551
 20
0.9611259842519685
 30
0.0
 10
1.233295275590551
 20
0.9611259842519685
 30
0.0
 10
1.246877952755906
 20
0.9757637795275591
 30
0.0
 10
1.246877952755906
 20
0.9757637795275591
 30
0.0
 10
1.246877952755906
 20
0.9757637795275591
 30
0.0
 10
1.249377952755906
 20
0.978484251968504
 30
0.0
 10
1.250629921259843
 20
0.9805118110236221
 30
0.0
 10
1.250629921259843
 20
0.9818740157480316
 30
0.0
 10
1.250629921259843
 20
0.9818740157480316
 30
0.0
 10
1.250629921259843
 20
0.9828464566929134
 30
0.0
 10
1.250185039370079
 20
0.9835984251968505
 30
0.0
 10
1.249322834645669
 20
0.9841535433070866
 30
0.0
 10
1.249322834645669
 20
0.9841535433070866
 30
0.0
 10
1.24846062992126
 20
0.9846811023622047
 30
0.0
 10
1.246602362204724
 20
0.9849566929133858
 30
0.0
 10
1.243712598425197
 20
0.9849566929133858
 30
0.0
 10
1.243712598425197
 20
0.9849566929133858
 30
0.0
 10
1.243712598425197
 20
0.9849566929133858
 30
0.0
 10
1.240629921259843
 20
0.9849566929133858
 30
0.0
 10
1.240629921259843
 20
0.9849566929133858
 30
0.0
 10
1.240629921259843
 20
0.9849566929133858
 30
0.0
 10
1.240629921259843
 20
0.9849566929133858
 30
0.0
 10
1.240629921259843
 20
0.9917913385826772
 30
0.0
 10
1.240629921259843
 20
0.9917913385826772
 30
0.0
 10
1.240629921259843
 20
0.9917913385826772
 30
0.0
 10
1.240629921259843
 20
0.9917913385826772
 30
0.0
 10
1.275377952755906
 20
0.9917913385826772
 30
0.0
 10
1.275377952755906
 20
0.9917913385826772
 30
0.0
 10
1.275377952755906
 20
0.9917913385826772
 30
0.0
 10
1.275377952755906
 20
0.9917913385826772
 30
0.0
 10
1.275377952755906
 20
0.9849566929133858
 30
0.0
 10
1.275377952755906
 20
0.9849566929133858
 30
0.0
 10
1.275377952755906
 20
0.9849566929133858
 30
0.0
 10
1.27196062992126
 20
0.9847913385826772
 30
0.0
 10
1.269015748031496
 20
0.9840984251968504
 30
0.0
 10
1.266547244094488
 20
0.9828464566929134
 30
0.0
 10
1.266547244094488
 20
0.9828464566929134
 30
0.0
 10
1.264074803149606
 20
0.9815984251968505
 30
0.0
 10
1.261157480314961
 20
0.979236220472441
 30
0.0
 10
1.257795275590551
 20
0.9757637795275591
 30
0.0
 10
1.257795275590551
 20
0.9757637795275591
 30
0.0
 10
1.257795275590551
 20
0.9757637795275591
 30
0.0
 10
1.239157480314961
 20
0.9564015748031497
 30
0.0
 10
1.239157480314961
 20
0.9564015748031497
 30
0.0
 10
1.239157480314961
 20
0.9564015748031497
 30
0.0
 10
1.239157480314961
 20
0.9564015748031497
 30
0.0
 10
1.262350393700787
 20
0.9299566929133859
 30
0.0
 10
1.262350393700787
 20
0.9299566929133859
 30
0.0
 10
1.262350393700787
 20
0.9299566929133859
 30
0.0
 10
1.262350393700787
 20
0.9299566929133859
 30
0.0
 10
1.263240157480315
 20
0.9288188976377954
 30
0.0
 10
1.263240157480315
 20
0.9288188976377954
 30
0.0
 10
1.263240157480315
 20
0.9288188976377954
 30
0.0
 10
1.265515748031496
 20
0.9258740157480315
 30
0.0
 10
1.268074803149606
 20
0.9235118110236221
 30
0.0
 10
1.270905511811024
 20
0.921736220472441
 30
0.0
 10
1.270905511811024
 20
0.921736220472441
 30
0.0
 10
1.27246062992126
 20
0.9207086614173229
 30
0.0
 10
1.274905511811024
 20
0.9201535433070867
 30
0.0
 10
1.278212598425197
 20
0.9200984251968505
 30
0.0
 10
1.278212598425197
 20
0.9200984251968505
 30
0.0
 10
1.278212598425197
 20
0.9200984251968505
 30
0.0
 10
1.278212598425197
 20
0.9132637795275591
 30
0.0
 10
1.278212598425197
 20
0.9132637795275591
 30
0.0
 10
1.278212598425197
 20
0.9132637795275591
 30
0.0
 10
1.278212598425197
 20
0.9132637795275591
 30
0.0
 10
1.238267716535433
 20
0.9132637795275591
 30
0.0
 10
1.238267716535433
 20
0.9132637795275591
 30
0.0
 10
1.238267716535433
 20
0.9132637795275591
 30
0.0
 10
1.238267716535433
 20
0.9132637795275591
 30
0.0
 10
1.238267716535433
 20
0.9200984251968505
 30
0.0
 10
1.238267716535433
 20
0.9200984251968505
 30
0.0
 10
1.238267716535433
 20
0.9200984251968505
 30
0.0
 10
1.238267716535433
 20
0.9200984251968505
 30
0.0
 10
1.241685039370079
 20
0.9200984251968505
 30
0.0
 10
1.241685039370079
 20
0.9200984251968505
 30
0.0
 10
1.241685039370079
 20
0.9200984251968505
 30
0.0
 10
1.244295275590551
 20
0.9200984251968505
 30
0.0
 10
1.245933070866142
 20
0.9202637795275591
 30
0.0
 10
1.246657480314961
 20
0.9205984251968504
 30
0.0
 10
1.246657480314961
 20
0.9205984251968504
 30
0.0
 10
1.247822834645669
 20
0.9211259842519686
 30
0.0
 10
1.248433070866142
 20
0.9220433070866142
 30
0.0
 10
1.248433070866142
 20
0.9233464566929134
 30
0.0
 10
1.248433070866142
 20
0.9233464566929134
 30
0.0
 10
1.248433070866142
 20
0.9245433070866143
 30
0.0
 10
1.247129921259843
 20
0.926736220472441
 30
0.0
 10
1.244515748031496
 20
0.9299566929133859
 30
0.0
 10
1.244515748031496
 20
0.9299566929133859
 30
0.0
 10
1.244515748031496
 20
0.9299566929133859
 30
0.0
 10
1.229712598425197
 20
0.9480984251968504
 30
0.0
 10
1.229712598425197
 20
0.9480984251968504
 30
0.0
 10
1.229712598425197
 20
0.9480984251968504
 30
0.0
 10
1.229712598425197
 20
0.9480984251968504
 30
0.0
 10
1.213185039370079
 20
0.9299566929133859
 30
0.0
 10
1.213185039370079
 20
0.9299566929133859
 30
0.0
 10
1.213185039370079
 20
0.9299566929133859
 30
0.0
 10
1.213185039370079
 20
0.9299566929133859
 30
0.0
 10
1.211574803149606
 20
0.927984251968504
 30
0.0
 10
1.211574803149606
 20
0.927984251968504
 30
0.0
 10
1.211574803149606
 20
0.927984251968504
 30
0.0
 10
1.211574803149606
 20
0.927984251968504
 30
0.0
 10
1.210685039370079
 20
0.9270118110236221
 30
0.0
 10
1.210685039370079
 20
0.9270118110236221
 30
0.0
 10
1.210685039370079
 20
0.9270118110236221
 30
0.0
 10
1.209322834645669
 20
0.9255433070866143
 30
0.0
 10
1.208629921259843
 20
0.9242637795275591
 30
0.0
 10
1.208629921259843
 20
0.9231259842519686
 30
0.0
 10
1.208629921259843
 20
0.9231259842519686
 30
0.0
 10
1.208629921259843
 20
0.9220708661417323
 30
0.0
 10
1.209047244094488
 20
0.9213188976377953
 30
0.0
 10
1.209905511811024
 20
0.9208188976377953
 30
0.0
 10
1.209905511811024
 20
0.9208188976377953
 30
0.0
 10
1.210740157480315
 20
0.9203464566929134
 30
0.0
 10
1.212629921259843
 20
0.9200984251968505
 30
0.0
 10
1.215547244094488
 20
0.9200984251968505
 30
0.0
 10
1.215547244094488
 20
0.9200984251968505
 30
0.0
 10
1.215547244094488
 20
0.9200984251968505
 30
0.0
 10
1.218822834645669
 20
0.9200984251968505
 30
0.0
 10
1.218822834645669
 20
0.9200984251968505
 30
0.0
 10
1.218822834645669
 20
0.9200984251968505
 30
0.0
 10
1.218822834645669
 20
0.9200984251968505
 30
0.0
 10
1.218822834645669
 20
0.9132637795275591
 30
0.0
 10
1.218822834645669
 20
0.9132637795275591
 30
0.0
 10
1.218822834645669
 20
0.9132637795275591
 30
0.0
 10
1.218822834645669
 20
0.9132637795275591
 30
0.0
 10
1.184547244094488
 20
0.9132637795275591
 30
0.0
 10
1.184547244094488
 20
0.9132637795275591
 30
0.0
 10
1.184547244094488
 20
0.9132637795275591
 30
0.0
 10
1.184547244094488
 20
0.9132637795275591
 30
0.0
 10
1.184547244094488
 20
0.9200984251968505
 30
0.0
 10
1.184547244094488
 20
0.9200984251968505
 30
0.0
 10
1.184547244094488
 20
0.9200984251968505
 30
0.0
 10
1.187212598425197
 20
0.9201535433070867
 30
0.0
 10
1.189295275590551
 20
0.9204291338582678
 30
0.0
 10
1.190822834645669
 20
0.9209566929133859
 30
0.0
 10
1.190822834645669
 20
0.9209566929133859
 30
0.0
 10
1.192322834645669
 20
0.9214566929133858
 30
0.0
 10
1.193795275590551
 20
0.9222637795275591
 30
0.0
 10
1.195212598425197
 20
0.9233464566929134
 30
0.0
 10
1.195212598425197
 20
0.9233464566929134
 30
0.0
 10
1.197657480314961
 20
0.9253188976377953
 30
0.0
 10
1.199405511811024
 20
0.9268464566929134
 30
0.0
 10
1.200492125984252
 20
0.927984251968504
 30
0.0
 10
1.200492125984252
 20
0.927984251968504
 30
0.0
 10
1.200492125984252
 20
0.927984251968504
 30
0.0
 10
1.224350393700787
 20
0.952484251968504
 30
0.0
 10
1.224350393700787
 20
0.952484251968504
 30
0.0
 10
1.224350393700787
 20
0.952484251968504
 30
0.0
 10
1.224350393700787
 20
0.952484251968504
 30
0.0
 10
1.204074803149606
 20
0.9757637795275591
 30
0.0
 10
1.204074803149606
 20
0.9757637795275591
 30
0.0
 10
1.204074803149606
 20
0.9757637795275591
 30
0.0
 10
1.20151968503937
 20
0.9786535433070867
 30
0.0
 10
1.19951968503937
 20
0.9806535433070867
 30
0.0
 10
1.19801968503937
 20
0.9818188976377953
 30
0.0
 10
1.19801968503937
 20
0.9818188976377953
 30
0.0
 10
1.19651968503937
 20
0.9829842519685039
 30
0.0
 10
1.195074803149606
 20
0.9838188976377953
 30
0.0
 10
1.193657480314961
 20
0.9842637795275591
 30
0.0
 10
1.193657480314961
 20
0.9842637795275591
 30
0.0
 10
1.192240157480315
 20
0.984736220472441
 30
0.0
 10
1.190267716535433
 20
0.9849566929133858
 30
0.0
 10
1.187712598425197
 20
0.9849566929133858
 30
0.0
 10
1.187712598425197
 20
0.9849566929133858
 30
0.0
 10
1.187712598425197
 20
0.9849566929133858
 30
0.0
 10
1.187712598425197
 20
0.9917913385826772
 30
0.0
 10
1.187712598425197
 20
0.9917913385826772
 30
0.0
  0
SPLINE
  5
83
330
1F
100
AcDbEntity
  8
LAYER_1
 62
   250
100
AcDbSpline
210
0.0
220
0.0
230
1.0
 70
    11
 71
     3
 72
   136
 73
   132
 74
     0
 42
0.0000000001
 43
0.0000000001
 40
0.0
 40
0.0
 40
0.0
 40
0.0
 40
0.0303030303030303
 40
0.0303030303030303
 40
0.0303030303030303
 40
0.0303030303030303
 40
0.0606060606060606
 40
0.0606060606060606
 40
0.0606060606060606
 40
0.0606060606060606
 40
0.0909090909090909
 40
0.0909090909090909
 40
0.0909090909090909
 40
0.0909090909090909
 40
0.1212121212121212
 40
0.1212121212121212
 40
0.1212121212121212
 40
0.1212121212121212
 40
0.1515151515151515
 40
0.1515151515151515
 40
0.1515151515151515
 40
0.1515151515151515
 40
0.1818181818181818
 40
0.1818181818181818
 40
0.1818181818181818
 40
0.1818181818181818
 40
0.2121212121212121
 40
0.2121212121212121
 40
0.2121212121212121
 40
0.2121212121212121
 40
0.2424242424242424
 40
0.2424242424242424
 40
0.2424242424242424
 40
0.2424242424242424
 40
0.2727272727272727
 40
0.2727272727272727
 40
0.2727272727272727
 40
0.2727272727272727
 40
0.303030303030303
 40
0.303030303030303
 40
0.303030303030303
 40
0.303030303030303
 40
0.3333333333333333
 40
0.3333333333333333
 40
0.3333333333333333
 40
0.3333333333333333
 40
0.3636363636363635
 40
0.3636363636363635
 40
0.3636363636363635
 40
0.3636363636363635
 40
0.3939393939393938
 40
0.3939393939393938
 40
0.3939393939393938
 40
0.3939393939393938
 40
0.4242424242424241
 40
0.4242424242424241
 40
0.4242424242424241
 40
0.4242424242424241
 40
0.4545454545454544
 40
0.4545454545454544
 40
0.4545454545454544
 40
0.4545454545454544
 40
0.4848484848484846
 40
0.4848484848484846
 40
0.4848484848484846
 40
0.4848484848484846
 40
0.5151515151515149
 40
0.5151515151515149
 40
0.5151515151515149
 40
0.5151515151515149
 40
0.5454545454545452
 40
0.5454545454545452
 40
0.5454545454545452
 40
0.5454545454545452
 40
0.5757575757575755
 40
0.5757575757575755
 40
0.5757575757575755
 40
0.5757575757575755
 40
0.6060606060606057
 40
0.6060606060606057
 40
0.6060606060606057
 40
0.6060606060606057
 40
0.636363636363636
 40
0.636363636363636
 40
0.636363636363636
 40
0.636363636363636
 40
0.6666666666666663
 40
0.6666666666666663
 40
0.6666666666666663
 40
0.6666666666666663
 40
0.6969696969696966
 40
0.6969696969696966
 40
0.6969696969696966
 40
0.6969696969696966
 40
0.7272727272727269
 40
0.7272727272727269
 40
0.7272727272727269
 40
0.7272727272727269
 40
0.7575757575757571
 40
0.7575757575757571
 40
0.7575757575757571
 40
0.7575757575757571
 40
0.7878787878787874
 40
0.7878787878787874
 40
0.7878787878787874
 40
0.7878787878787874
 40
0.8181818181818177
 40
0.8181818181818177
 40
0.8181818181818177
 40
0.8181818181818177
 40
0.848484848484848
 40
0.848484848484848
 40
0.848484848484848
 40
0.848484848484848
 40
0.8787878787878782
 40
0.8787878787878782
 40
0.8787878787878782
 40
0.8787878787878782
 40
0.9090909090909085
 40
0.9090909090909085
 40
0.9090909090909085
 40
0.9090909090909085
 40
0.9393939393939388
 40
0.9393939393939388
 40
0.9393939393939388
 40
0.9393939393939388
 40
0.9696969696969691
 40
0.9696969696969691
 40
0.9696969696969691
 40
0.9696969696969691
 40
1.0
 40
1.0
 40
1.0
 40
1.0
 10
1.350240157480315
 20
0.9839842519685039
 30
0.0
 10
1.350240157480315
 20
0.9839842519685039
 30
0.0
 10
1.342350393700788
 20
0.9830118110236221
 30
0.0
 10
1.342350393700788
 20
0.9830118110236221
 30
0.0
 10
1.342350393700788
 20
0.9830118110236221
 30
0.0
 10
1.341905511811024
 20
0.9868464566929134
 30
0.0
 10
1.341685039370079
 20
0.9900118110236221
 30
0.0
 10
1.341685039370079
 20
0.9924566929133859
 30
0.0
 10
1.341685039370079
 20
0.9924566929133859
 30
0.0
 10
1.341685039370079
 20
0.9988464566929134
 30
0.0
 10
1.343433070866142
 20
1.00490157480315
 30
0.0
 10
1.346905511811024
 20
1.010594488188976
 30
0.0
 10
1.346905511811024
 20
1.010594488188976
 30
0.0
 10
1.350377952755906
 20
1.016291338582677
 30
0.0
 10
1.355212598425197
 20
1.020736220472441
 30
0.0
 10
1.361433070866142
 20
1.023929133858268
 30
0.0
 10
1.361433070866142
 20
1.023929133858268
 30
0.0
 10
1.367625984251969
 20
1.027153543307087
 30
0.0
 10
1.374767716535433
 20
1.028736220472441
 30
0.0
 10
1.382795275590551
 20
1.028736220472441
 30
0.0
 10
1.382795275590551
 20
1.028736220472441
 30
0.0
 10
1.390543307086614
 20
1.028736220472441
 30
0.0
 10
1.397350393700787
 20
1.027236220472441
 30
0.0
 10
1.403212598425197
 20
1.024236220472441
 30
0.0
 10
1.403212598425197
 20
1.024236220472441
 30
0.0
 10
1.409070866141732
 20
1.021208661417323
 30
0.0
 10
1.413543307086614
 20
1.017094488188977
 30
0.0
 10
1.416681102362205
 20
1.011846456692914
 30
0.0
 10
1.416681102362205
 20
1.011846456692914
 30
0.0
 10
1.419795275590551
 20
1.006625984251969
 30
0.0
 10
1.421350393700787
 20
1.000653543307087
 30
0.0
 10
1.421350393700787
 20
0.9939015748031497
 30
0.0
 10
1.421350393700787
 20
0.9939015748031497
 30
0.0
 10
1.421350393700787
 20
0.9882086614173229
 30
0.0
 10
1.420350393700788
 20
0.9829291338582678
 30
0.0
 10
1.418295275590551
 20
0.9780984251968504
 30
0.0
 10
1.418295275590551
 20
0.9780984251968504
 30
0.0
 10
1.416267716535433
 20
0.973236220472441
 30
0.0
 10
1.412988188976378
 20
0.9683188976377953
 30
0.0
 10
1.408488188976378
 20
0.9634015748031497
 30
0.0
 10
1.408488188976378
 20
0.9634015748031497
 30
0.0
 10
1.405125984251969
 20
0.9597086614173229
 30
0.0
 10
1.398322834645669
 20
0.9540708661417323
 30
0.0
 10
1.388070866141732
 20
0.9464566929133859
 30
0.0
 10
1.388070866141732
 20
0.9464566929133859
 30
0.0
 10
1.375157480314961
 20
0.9368188976377954
 30
0.0
 10
1.365267716535433
 20
0.9298188976377954
 30
0.0
 10
1.358377952755906
 20
0.9254566929133858
 30
0.0
 10
1.358377952755906
 20
0.9254566929133858
 30
0.0
 10
1.358377952755906
 20
0.9254566929133858
 30
0.0
 10
1.400685039370079
 20
0.9254566929133858
 30
0.0
 10
1.400685039370079
 20
0.9254566929133858
 30
0.0
 10
1.400685039370079
 20
0.9254566929133858
 30
0.0
 10
1.405685039370079
 20
0.9254566929133858
 30
0.0
 10
1.408933070866142
 20
0.9259291338582678
 30
0.0
 10
1.41046062992126
 20
0.9268464566929134
 30
0.0
 10
1.41046062992126
 20
0.9268464566929134
 30
0.0
 10
1.412570866141732
 20
0.9280433070866142
 30
0.0
 10
1.414015748031496
 20
0.9308188976377954
 30
0.0
 10
1.414767716535433
 20
0.9351535433070867
 30
0.0
 10
1.414767716535433
 20
0.9351535433070867
 30
0.0
 10
1.414767716535433
 20
0.9351535433070867
 30
0.0
 10
1.415488188976378
 20
0.9397913385826772
 30
0.0
 10
1.415488188976378
 20
0.9397913385826772
 30
0.0
 10
1.415488188976378
 20
0.9397913385826772
 30
0.0
 10
1.415488188976378
 20
0.9397913385826772
 30
0.0
 10
1.422405511811024
 20
0.9397913385826772
 30
0.0
 10
1.422405511811024
 20
0.9397913385826772
 30
0.0
 10
1.422405511811024
 20
0.9397913385826772
 30
0.0
 10
1.422405511811024
 20
0.9397913385826772
 30
0.0
 10
1.416877952755906
 20
0.9092086614173228
 30
0.0
 10
1.416877952755906
 20
0.9092086614173228
 30
0.0
 10
1.416877952755906
 20
0.9092086614173228
 30
0.0
 10
1.416877952755906
 20
0.9092086614173228
 30
0.0
 10
1.411685039370079
 20
0.9092086614173228
 30
0.0
 10
1.411685039370079
 20
0.9092086614173228
 30
0.0
 10
1.411685039370079
 20
0.9092086614173228
 30
0.0
 10
1.411685039370079
 20
0.9092086614173228
 30
0.0
 10
1.410767716535433
 20
0.9132637795275591
 30
0.0
 10
1.410767716535433
 20
0.9132637795275591
 30
0.0
 10
1.410767716535433
 20
0.9132637795275591
 30
0.0
 10
1.410767716535433
 20
0.9132637795275591
 30
0.0
 10
1.339657480314961
 20
0.9132637795275591
 30
0.0
 10
1.339657480314961
 20
0.9132637795275591
 30
0.0
 10
1.339657480314961
 20
0.9132637795275591
 30
0.0
 10
1.339657480314961
 20
0.9132637795275591
 30
0.0
 10
1.339657480314961
 20
0.9200984251968505
 30
0.0
 10
1.339657480314961
 20
0.9200984251968505
 30
0.0
 10
1.339657480314961
 20
0.9200984251968505
 30
0.0
 10
1.339657480314961
 20
0.9200984251968505
 30
0.0
 10
1.352685039370079
 20
0.9299566929133859
 30
0.0
 10
1.352685039370079
 20
0.9299566929133859
 30
0.0
 10
1.352685039370079
 20
0.9299566929133859
 30
0.0
 10
1.362543307086614
 20
0.9372637795275591
 30
0.0
 10
1.369795275590551
 20
0.9428740157480315
 30
0.0
 10
1.374405511811024
 20
0.9467913385826772
 30
0.0
 10
1.374405511811024
 20
0.9467913385826772
 30
0.0
 10
1.383125984251969
 20
0.9541811023622048
 30
0.0
 10
1.389712598425197
 20
0.960484251968504
 30
0.0
 10
1.394125984251969
 20
0.9657086614173229
 30
0.0
 10
1.394125984251969
 20
0.9657086614173229
 30
0.0
 10
1.398543307086614
 20
0.9709566929133858
 30
0.0
 10
1.401598425196851
 20
0.9756811023622047
 30
0.0
 10
1.403240157480315
 20
0.9798740157480316
 30
0.0
 10
1.403240157480315
 20
0.9798740157480316
 30
0.0
 10
1.404905511811024
 20
0.9840669291338583
 30
0.0
 10
1.405740157480315
 20
0.988484251968504
 30
0.0
 10
1.405740157480315
 20
0.9930984251968504
 30
0.0
 10
1.405740157480315
 20
0.9930984251968504
 30
0.0
 10
1.405740157480315
 20
1.000736220472441
 30
0.0
 10
1.403267716535433
 20
1.007011811023622
 30
0.0
 10
1.398377952755906
 20
1.01190157480315
 30
0.0
 10
1.398377952755906
 20
1.01190157480315
 30
0.0
 10
1.39346062992126
 20
1.016791338582677
 30
0.0
 10
1.387070866141732
 20
1.019208661417323
 30
0.0
 10
1.379212598425197
 20
1.019208661417323
 30
0.0
 10
1.379212598425197
 20
1.019208661417323
 30
0.0
 10
1.373570866141732
 20
1.019208661417323
 30
0.0
 10
1.368515748031496
 20
1.018011811023622
 30
0.0
 10
1.36409842519685
 20
1.015566929133858
 30
0.0
 10
1.36409842519685
 20
1.015566929133858
 30
0.0
 10
1.359685039370079
 20
1.013125984251969
 30
0.0
 10
1.356212598425197
 20
1.009708661417323
 30
0.0
 10
1.353657480314961
 20
1.005291338582677
 30
0.0
 10
1.353657480314961
 20
1.005291338582677
 30
0.0
 10
1.351098425196851
 20
1.00090157480315
 30
0.0
 10
1.349822834645669
 20
0.9961535433070866
 30
0.0
 10
1.349822834645669
 20
0.9910669291338583
 30
0.0
 10
1.349822834645669
 20
0.9910669291338583
 30
0.0
 10
1.349822834645669
 20
0.9891535433070866
 30
0.0
 10
1.34996062992126
 20
0.9867913385826772
 30
0.0
 10
1.350240157480315
 20
0.9839842519685039
 30
0.0
  0
SPLINE
  5
84
330
1F
100
AcDbEntity
  8
LAYER_1
 62
   250
100
AcDbSpline
210
0.0
220
0.0
230
1.0
 70
    11
 71
     3
 72
    20
 73
    16
 74
     0
 42
0.0000000001
 43
0.0000000001
 40
0.0
 40
0.0
 40
0.0
 40
0.0
 40
0.25
 40
0.25
 40
0.25
 40
0.25
 40
0.5
 40
0.5
 40
0.5
 40
0.5
 40
0.75
 40
0.75
 40
0.75
 40
0.75
 40
1.0
 40
1.0
 40
1.0
 40
1.0
 10
1.443822834645669
 20
0.959736220472441
 30
0.0
 10
1.443822834645669
 20
0.959736220472441
 30
0.0
 10
1.492157480314961
 20
0.959736220472441
 30
0.0
 10
1.492157480314961
 20
0.959736220472441
 30
0.0
 10
1.492157480314961
 20
0.959736220472441
 30
0.0
 10
1.492157480314961
 20
0.959736220472441
 30
0.0
 10
1.492157480314961
 20
0.9496535433070866
 30
0.0
 10
1.492157480314961
 20
0.9496535433070866
 30
0.0
 10
1.492157480314961
 20
0.9496535433070866
 30
0.0
 10
1.492157480314961
 20
0.9496535433070866
 30
0.0
 10
1.443822834645669
 20
0.9496535433070866
 30
0.0
 10
1.443822834645669
 20
0.9496535433070866
 30
0.0
 10
1.443822834645669
 20
0.9496535433070866
 30
0.0
 10
1.443822834645669
 20
0.9496535433070866
 30
0.0
 10
1.443822834645669
 20
0.959736220472441
 30
0.0
 10
1.443822834645669
 20
0.959736220472441
 30
0.0
  0
SPLINE
  5
85
330
1F
100
AcDbEntity
  8
LAYER_1
 62
   250
100
AcDbSpline
210
0.0
220
0.0
230
1.0
 70
    11
 71
     3
 72
    72
 73
    68
 74
     0
 42
0.0000000001
 43
0.0000000001
 40
0.0
 40
0.0
 40
0.0
 40
0.0
 40
0.0588235294117647
 40
0.0588235294117647
 40
0.0588235294117647
 40
0.0588235294117647
 40
0.1176470588235294
 40
0.1176470588235294
 40
0.1176470588235294
 40
0.1176470588235294
 40
0.1764705882352941
 40
0.1764705882352941
 40
0.1764705882352941
 40
0.1764705882352941
 40
0.2352941176470588
 40
0.2352941176470588
 40
0.2352941176470588
 40
0.2352941176470588
 40
0.2941176470588235
 40
0.2941176470588235
 40
0.2941176470588235
 40
0.2941176470588235
 40
0.3529411764705883
 40
0.3529411764705883
 40
0.3529411764705883
 40
0.3529411764705883
 40
0.411764705882353
 40
0.411764705882353
 40
0.411764705882353
 40
0.411764705882353
 40
0.4705882352941177
 40
0.4705882352941177
 40
0.4705882352941177
 40
0.4705882352941177
 40
0.5294117647058824
 40
0.5294117647058824
 40
0.5294117647058824
 40
0.5294117647058824
 40
0.5882352941176471
 40
0.5882352941176471
 40
0.5882352941176471
 40
0.5882352941176471
 40
0.6470588235294118
 40
0.6470588235294118
 40
0.6470588235294118
 40
0.6470588235294118
 40
0.7058823529411765
 40
0.7058823529411765
 40
0.7058823529411765
 40
0.7058823529411765
 40
0.7647058823529412
 40
0.7647058823529412
 40
0.7647058823529412
 40
0.7647058823529412
 40
0.823529411764706
 40
0.823529411764706
 40
0.823529411764706
 40
0.823529411764706
 40
0.8823529411764707
 40
0.8823529411764707
 40
0.8823529411764707
 40
0.8823529411764707
 40
0.9411764705882354
 40
0.9411764705882354
 40
0.9411764705882354
 40
0.9411764705882354
 40
1.0
 40
1.0
 40
1.0
 40
1.0
 10
1.557350393700788
 20
1.026791338582677
 30
0.0
 10
1.557350393700788
 20
1.026791338582677
 30
0.0
 10
1.563433070866142
 20
1.026791338582677
 30
0.0
 10
1.563433070866142
 20
1.026791338582677
 30
0.0
 10
1.563433070866142
 20
1.026791338582677
 30
0.0
 10
1.563433070866142
 20
1.026791338582677
 30
0.0
 10
1.563433070866142
 20
0.9325433070866143
 30
0.0
 10
1.563433070866142
 20
0.9325433070866143
 30
0.0
 10
1.563433070866142
 20
0.9325433070866143
 30
0.0
 10
1.563433070866142
 20
0.9280984251968504
 30
0.0
 10
1.563740157480315
 20
0.925236220472441
 30
0.0
 10
1.564295275590551
 20
0.9239566929133859
 30
0.0
 10
1.564295275590551
 20
0.9239566929133859
 30
0.0
 10
1.564877952755906
 20
0.9226811023622048
 30
0.0
 10
1.565795275590551
 20
0.921736220472441
 30
0.0
 10
1.567098425196851
 20
0.9210708661417323
 30
0.0
 10
1.567098425196851
 20
0.9210708661417323
 30
0.0
 10
1.568405511811024
 20
0.9204291338582678
 30
0.0
 10
1.570988188976378
 20
0.9200984251968505
 30
0.0
 10
1.574850393700787
 20
0.9200984251968505
 30
0.0
 10
1.574850393700787
 20
0.9200984251968505
 30
0.0
 10
1.574850393700787
 20
0.9200984251968505
 30
0.0
 10
1.582822834645669
 20
0.9200984251968505
 30
0.0
 10
1.582822834645669
 20
0.9200984251968505
 30
0.0
 10
1.582822834645669
 20
0.9200984251968505
 30
0.0
 10
1.582822834645669
 20
0.9200984251968505
 30
0.0
 10
1.582822834645669
 20
0.9132637795275591
 30
0.0
 10
1.582822834645669
 20
0.9132637795275591
 30
0.0
 10
1.582822834645669
 20
0.9132637795275591
 30
0.0
 10
1.582822834645669
 20
0.9132637795275591
 30
0.0
 10
1.529185039370079
 20
0.9132637795275591
 30
0.0
 10
1.529185039370079
 20
0.9132637795275591
 30
0.0
 10
1.529185039370079
 20
0.9132637795275591
 30
0.0
 10
1.529185039370079
 20
0.9132637795275591
 30
0.0
 10
1.529185039370079
 20
0.9200984251968505
 30
0.0
 10
1.529185039370079
 20
0.9200984251968505
 30
0.0
 10
1.529185039370079
 20
0.9200984251968505
 30
0.0
 10
1.529185039370079
 20
0.9200984251968505
 30
0.0
 10
1.538043307086614
 20
0.9200984251968505
 30
0.0
 10
1.538043307086614
 20
0.9200984251968505
 30
0.0
 10
1.538043307086614
 20
0.9200984251968505
 30
0.0
 10
1.541905511811024
 20
0.9200984251968505
 30
0.0
 10
1.54446062992126
 20
0.9204291338582678
 30
0.0
 10
1.545740157480315
 20
0.9211259842519686
 30
0.0
 10
1.545740157480315
 20
0.9211259842519686
 30
0.0
 10
1.547015748031496
 20
0.9217913385826773
 30
0.0
 10
1.548015748031496
 20
0.9228740157480315
 30
0.0
 10
1.548712598425197
 20
0.9243740157480316
 30
0.0
 10
1.548712598425197
 20
0.9243740157480316
 30
0.0
 10
1.549405511811024
 20
0.9258740157480315
 30
0.0
 10
1.549767716535433
 20
0.9285984251968504
 30
0.0
 10
1.549767716535433
 20
0.9325433070866143
 30
0.0
 10
1.549767716535433
 20
0.9325433070866143
 30
0.0
 10
1.549767716535433
 20
0.9325433070866143
 30
0.0
 10
1.549767716535433
 20
1.010011811023622
 30
0.0
 10
1.549767716535433
 20
1.010011811023622
 30
0.0
 10
1.549767716535433
 20
1.010011811023622
 30
0.0
 10
1.549767716535433
 20
1.010011811023622
 30
0.0
 10
1.529185039370079
 20
1.010011811023622
 30
0.0
 10
1.529185039370079
 20
1.010011811023622
 30
0.0
 10
1.529185039370079
 20
1.010011811023622
 30
0.0
 10
1.529185039370079
 20
1.010011811023622
 30
0.0
 10
1.529185039370079
 20
1.017011811023622
 30
0.0
 10
1.529185039370079
 20
1.017011811023622
 30
0.0
 10
1.529185039370079
 20
1.017011811023622
 30
0.0
 10
1.540405511811024
 20
1.018594488188976
 30
0.0
 10
1.549795275590551
 20
1.021846456692914
 30
0.0
 10
1.557350393700788
 20
1.026791338582677
 30
0.0
  0
SPLINE
  5
86
330
1F
100
AcDbEntity
  8
LAYER_1
 62
   250
100
AcDbSpline
210
0.0
220
0.0
230
1.0
 70
    11
 71
     3
 72
    20
 73
    16
 74
     0
 42
0.0000000001
 43
0.0000000001
 40
0.0
 40
0.0
 40
0.0
 40
0.0
 40
0.25
 40
0.25
 40
0.25
 40
0.25
 40
0.5
 40
0.5
 40
0.5
 40
0.5
 40
0.75
 40
0.75
 40
0.75
 40
0.75
 40
1.0
 40
1.0
 40
1.0
 40
1.0
 10
1.686185039370079
 20
1.032653543307087
 30
0.0
 10
1.686185039370079
 20
1.032653543307087
 30
0.0
 10
1.630602362204725
 20
0.8769566929133859
 30
0.0
 10
1.630602362204725
 20
0.8769566929133859
 30
0.0
 10
1.630602362204725
 20
0.8769566929133859
 30
0.0
 10
1.630602362204725
 20
0.8769566929133859
 30
0.0
 10
1.618547244094488
 20
0.8769566929133859
 30
0.0
 10
1.618547244094488
 20
0.8769566929133859
 30
0.0
 10
1.618547244094488
 20
0.8769566929133859
 30
0.0
 10
1.618547244094488
 20
0.8769566929133859
 30
0.0
 10
1.673795275590551
 20
1.032653543307087
 30
0.0
 10
1.673795275590551
 20
1.032653543307087
 30
0.0
 10
1.673795275590551
 20
1.032653543307087
 30
0.0
 10
1.673795275590551
 20
1.032653543307087
 30
0.0
 10
1.686185039370079
 20
1.032653543307087
 30
0.0
 10
1.686185039370079
 20
1.032653543307087
 30
0.0
  0
SPLINE
  5
87
330
1F
100
AcDbEntity
  8
LAYER_1
 62
   250
100
AcDbSpline
210
0.0
220
0.0
230
1.0
 70
    11
 71
     3
 72
   136
 73
   132
 74
     0
 42
0.0000000001
 43
0.0000000001
 40
0.0
 40
0.0
 40
0.0
 40
0.0
 40
0.0303030303030303
 40
0.0303030303030303
 40
0.0303030303030303
 40
0.0303030303030303
 40
0.0606060606060606
 40
0.0606060606060606
 40
0.0606060606060606
 40
0.0606060606060606
 40
0.0909090909090909
 40
0.0909090909090909
 40
0.0909090909090909
 40
0.0909090909090909
 40
0.1212121212121212
 40
0.1212121212121212
 40
0.1212121212121212
 40
0.1212121212121212
 40
0.1515151515151515
 40
0.1515151515151515
 40
0.1515151515151515
 40
0.1515151515151515
 40
0.1818181818181818
 40
0.1818181818181818
 40
0.1818181818181818
 40
0.1818181818181818
 40
0.2121212121212121
 40
0.2121212121212121
 40
0.2121212121212121
 40
0.2121212121212121
 40
0.2424242424242424
 40
0.2424242424242424
 40
0.2424242424242424
 40
0.2424242424242424
 40
0.2727272727272727
 40
0.2727272727272727
 40
0.2727272727272727
 40
0.2727272727272727
 40
0.303030303030303
 40
0.303030303030303
 40
0.303030303030303
 40
0.303030303030303
 40
0.3333333333333333
 40
0.3333333333333333
 40
0.3333333333333333
 40
0.3333333333333333
 40
0.3636363636363635
 40
0.3636363636363635
 40
0.3636363636363635
 40
0.3636363636363635
 40
0.3939393939393938
 40
0.3939393939393938
 40
0.3939393939393938
 40
0.3939393939393938
 40
0.4242424242424241
 40
0.4242424242424241
 40
0.4242424242424241
 40
0.4242424242424241
 40
0.4545454545454544
 40
0.4545454545454544
 40
0.4545454545454544
 40
0.4545454545454544
 40
0.4848484848484846
 40
0.4848484848484846
 40
0.4848484848484846
 40
0.4848484848484846
 40
0.5151515151515149
 40
0.5151515151515149
 40
0.5151515151515149
 40
0.5151515151515149
 40
0.5454545454545452
 40
0.5454545454545452
 40
0.5454545454545452
 40
0.5454545454545452
 40
0.5757575757575755
 40
0.5757575757575755
 40
0.5757575757575755
 40
0.5757575757575755
 40
0.6060606060606057
 40
0.6060606060606057
 40
0.6060606060606057
 40
0.6060606060606057
 40
0.636363636363636
 40
0.636363636363636
 40
0.636363636363636
 40
0.636363636363636
 40
0.6666666666666663
 40
0.6666666666666663
 40
0.6666666666666663
 40
0.6666666666666663
 40
0.6969696969696966
 40
0.6969696969696966
 40
0.6969696969696966
 40
0.6969696969696966
 40
0.7272727272727269
 40
0.7272727272727269
 40
0.7272727272727269
 40
0.7272727272727269
 40
0.7575757575757571
 40
0.7575757575757571
 40
0.7575757575757571
 40
0.7575757575757571
 40
0.7878787878787874
 40
0.7878787878787874
 40
0.7878787878787874
 40
0.7878787878787874
 40
0.8181818181818177
 40
0.8181818181818177
 40
0.8181818181818177
 40
0.8181818181818177
 40
0.848484848484848
 40
0.848484848484848
 40
0.848484848484848
 40
0.848484848484848
 40
0.8787878787878782
 40
0.8787878787878782
 40
0.8787878787878782
 40
0.8787878787878782
 40
0.9090909090909085
 40
0.9090909090909085
 40
0.9090909090909085
 40
0.9090909090909085
 40
0.9393939393939388
 40
0.9393939393939388
 40
0.9393939393939388
 40
0.9393939393939388
 40
0.9696969696969691
 40
0.9696969696969691
 40
0.9696969696969691
 40
0.9696969696969691
 40
1.0
 40
1.0
 40
1.0
 40
1.0
 10
1.723629921259843
 20
0.9839842519685039
 30
0.0
 10
1.723629921259843
 20
0.9839842519685039
 30
0.0
 10
1.715740157480315
 20
0.9830118110236221
 30
0.0
 10
1.715740157480315
 20
0.9830118110236221
 30
0.0
 10
1.715740157480315
 20
0.9830118110236221
 30
0.0
 10
1.715295275590551
 20
0.9868464566929134
 30
0.0
 10
1.715074803149606
 20
0.9900118110236221
 30
0.0
 10
1.715074803149606
 20
0.9924566929133859
 30
0.0
 10
1.715074803149606
 20
0.9924566929133859
 30
0.0
 10
1.715074803149606
 20
0.9988464566929134
 30
0.0
 10
1.716822834645669
 20
1.00490157480315
 30
0.0
 10
1.720295275590551
 20
1.010594488188976
 30
0.0
 10
1.720295275590551
 20
1.010594488188976
 30
0.0
 10
1.723767716535433
 20
1.016291338582677
 30
0.0
 10
1.728602362204724
 20
1.020736220472441
 30
0.0
 10
1.734822834645669
 20
1.023929133858268
 30
0.0
 10
1.734822834645669
 20
1.023929133858268
 30
0.0
 10
1.741015748031496
 20
1.027153543307087
 30
0.0
 10
1.748157480314961
 20
1.028736220472441
 30
0.0
 10
1.756185039370079
 20
1.028736220472441
 30
0.0
 10
1.756185039370079
 20
1.028736220472441
 30
0.0
 10
1.763933070866142
 20
1.028736220472441
 30
0.0
 10
1.770740157480315
 20
1.027236220472441
 30
0.0
 10
1.776602362204725
 20
1.024236220472441
 30
0.0
 10
1.776602362204725
 20
1.024236220472441
 30
0.0
 10
1.78246062992126
 20
1.021208661417323
 30
0.0
 10
1.786933070866142
 20
1.017094488188977
 30
0.0
 10
1.790070866141732
 20
1.011846456692914
 30
0.0
 10
1.790070866141732
 20
1.011846456692914
 30
0.0
 10
1.793185039370079
 20
1.006625984251969
 30
0.0
 10
1.794740157480315
 20
1.000653543307087
 30
0.0
 10
1.794740157480315
 20
0.9939015748031497
 30
0.0
 10
1.794740157480315
 20
0.9939015748031497
 30
0.0
 10
1.794740157480315
 20
0.9882086614173229
 30
0.0
 10
1.793740157480315
 20
0.9829291338582678
 30
0.0
 10
1.791685039370079
 20
0.9780984251968504
 30
0.0
 10
1.791685039370079
 20
0.9780984251968504
 30
0.0
 10
1.789657480314961
 20
0.973236220472441
 30
0.0
 10
1.786377952755906
 20
0.9683188976377953
 30
0.0
 10
1.781877952755906
 20
0.9634015748031497
 30
0.0
 10
1.781877952755906
 20
0.9634015748031497
 30
0.0
 10
1.778515748031496
 20
0.9597086614173229
 30
0.0
 10
1.771712598425197
 20
0.9540708661417323
 30
0.0
 10
1.76146062992126
 20
0.9464566929133859
 30
0.0
 10
1.76146062992126
 20
0.9464566929133859
 30
0.0
 10
1.748547244094488
 20
0.9368188976377954
 30
0.0
 10
1.738657480314961
 20
0.9298188976377954
 30
0.0
 10
1.731767716535433
 20
0.9254566929133858
 30
0.0
 10
1.731767716535433
 20
0.9254566929133858
 30
0.0
 10
1.731767716535433
 20
0.9254566929133858
 30
0.0
 10
1.774074803149606
 20
0.9254566929133858
 30
0.0
 10
1.774074803149606
 20
0.9254566929133858
 30
0.0
 10
1.774074803149606
 20
0.9254566929133858
 30
0.0
 10
1.779074803149606
 20
0.9254566929133858
 30
0.0
 10
1.782322834645669
 20
0.9259291338582678
 30
0.0
 10
1.783850393700788
 20
0.9268464566929134
 30
0.0
 10
1.783850393700788
 20
0.9268464566929134
 30
0.0
 10
1.78596062992126
 20
0.9280433070866142
 30
0.0
 10
1.787405511811024
 20
0.9308188976377954
 30
0.0
 10
1.788157480314961
 20
0.9351535433070867
 30
0.0
 10
1.788157480314961
 20
0.9351535433070867
 30
0.0
 10
1.788157480314961
 20
0.9351535433070867
 30
0.0
 10
1.788877952755906
 20
0.9397913385826772
 30
0.0
 10
1.788877952755906
 20
0.9397913385826772
 30
0.0
 10
1.788877952755906
 20
0.9397913385826772
 30
0.0
 10
1.788877952755906
 20
0.9397913385826772
 30
0.0
 10
1.795795275590551
 20
0.9397913385826772
 30
0.0
 10
1.795795275590551
 20
0.9397913385826772
 30
0.0
 10
1.795795275590551
 20
0.9397913385826772
 30
0.0
 10
1.795795275590551
 20
0.9397913385826772
 30
0.0
 10
1.790267716535433
 20
0.9092086614173228
 30
0.0
 10
1.790267716535433
 20
0.9092086614173228
 30
0.0
 10
1.790267716535433
 20
0.9092086614173228
 30
0.0
 10
1.790267716535433
 20
0.9092086614173228
 30
0.0
 10
1.785074803149606
 20
0.9092086614173228
 30
0.0
 10
1.785074803149606
 20
0.9092086614173228
 30
0.0
 10
1.785074803149606
 20
0.9092086614173228
 30
0.0
 10
1.785074803149606
 20
0.9092086614173228
 30
0.0
 10
1.784157480314961
 20
0.9132637795275591
 30
0.0
 10
1.784157480314961
 20
0.9132637795275591
 30
0.0
 10
1.784157480314961
 20
0.9132637795275591
 30
0.0
 10
1.784157480314961
 20
0.9132637795275591
 30
0.0
 10
1.713047244094488
 20
0.9132637795275591
 30
0.0
 10
1.713047244094488
 20
0.9132637795275591
 30
0.0
 10
1.713047244094488
 20
0.9132637795275591
 30
0.0
 10
1.713047244094488
 20
0.9132637795275591
 30
0.0
 10
1.713047244094488
 20
0.9200984251968505
 30
0.0
 10
1.713047244094488
 20
0.9200984251968505
 30
0.0
 10
1.713047244094488
 20
0.9200984251968505
 30
0.0
 10
1.713047244094488
 20
0.9200984251968505
 30
0.0
 10
1.726074803149606
 20
0.9299566929133859
 30
0.0
 10
1.726074803149606
 20
0.9299566929133859
 30
0.0
 10
1.726074803149606
 20
0.9299566929133859
 30
0.0
 10
1.735933070866142
 20
0.9372637795275591
 30
0.0
 10
1.743185039370079
 20
0.9428740157480315
 30
0.0
 10
1.747795275590551
 20
0.9467913385826772
 30
0.0
 10
1.747795275590551
 20
0.9467913385826772
 30
0.0
 10
1.756515748031496
 20
0.9541811023622048
 30
0.0
 10
1.763102362204724
 20
0.960484251968504
 30
0.0
 10
1.767515748031496
 20
0.9657086614173229
 30
0.0
 10
1.767515748031496
 20
0.9657086614173229
 30
0.0
 10
1.771933070866142
 20
0.9709566929133858
 30
0.0
 10
1.774988188976378
 20
0.9756811023622047
 30
0.0
 10
1.776629921259843
 20
0.9798740157480316
 30
0.0
 10
1.776629921259843
 20
0.9798740157480316
 30
0.0
 10
1.778295275590551
 20
0.9840669291338583
 30
0.0
 10
1.779129921259843
 20
0.988484251968504
 30
0.0
 10
1.779129921259843
 20
0.9930984251968504
 30
0.0
 10
1.779129921259843
 20
0.9930984251968504
 30
0.0
 10
1.779129921259843
 20
1.000736220472441
 30
0.0
 10
1.776657480314961
 20
1.007011811023622
 30
0.0
 10
1.771767716535433
 20
1.01190157480315
 30
0.0
 10
1.771767716535433
 20
1.01190157480315
 30
0.0
 10
1.766850393700788
 20
1.016791338582677
 30
0.0
 10
1.76046062992126
 20
1.019208661417323
 30
0.0
 10
1.752602362204724
 20
1.019208661417323
 30
0.0
 10
1.752602362204724
 20
1.019208661417323
 30
0.0
 10
1.74696062992126
 20
1.019208661417323
 30
0.0
 10
1.741905511811024
 20
1.018011811023622
 30
0.0
 10
1.737488188976378
 20
1.015566929133858
 30
0.0
 10
1.737488188976378
 20
1.015566929133858
 30
0.0
 10
1.733074803149606
 20
1.013125984251969
 30
0.0
 10
1.729602362204725
 20
1.009708661417323
 30
0.0
 10
1.727047244094488
 20
1.005291338582677
 30
0.0
 10
1.727047244094488
 20
1.005291338582677
 30
0.0
 10
1.724488188976378
 20
1.00090157480315
 30
0.0
 10
1.723212598425197
 20
0.9961535433070866
 30
0.0
 10
1.723212598425197
 20
0.9910669291338583
 30
0.0
 10
1.723212598425197
 20
0.9910669291338583
 30
0.0
 10
1.723212598425197
 20
0.9891535433070866
 30
0.0
 10
1.723350393700788
 20
0.9867913385826772
 30
0.0
 10
1.723629921259843
 20
0.9839842519685039
 30
0.0
  0
SPLINE
  5
88
330
1F
100
AcDbEntity
  8
LAYER_1
 62
   250
100
AcDbSpline
210
0.0
220
0.0
230
1.0
 70
    11
 71
     3
 72
    60
 73
    56
 74
     0
 42
0.0000000001
 43
0.0000000001
 40
0.0
 40
0.0
 40
0.0
 40
0.0
 40
0.0714285714285714
 40
0.0714285714285714
 40
0.0714285714285714
 40
0.0714285714285714
 40
0.1428571428571429
 40
0.1428571428571429
 40
0.1428571428571429
 40
0.1428571428571429
 40
0.2142857142857143
 40
0.2142857142857143
 40
0.2142857142857143
 40
0.2142857142857143
 40
0.2857142857142857
 40
0.2857142857142857
 40
0.2857142857142857
 40
0.2857142857142857
 40
0.3571428571428571
 40
0.3571428571428571
 40
0.3571428571428571
 40
0.3571428571428571
 40
0.4285714285714285
 40
0.4285714285714285
 40
0.4285714285714285
 40
0.4285714285714285
 40
0.4999999999999999
 40
0.4999999999999999
 40
0.4999999999999999
 40
0.4999999999999999
 40
0.5714285714285713
 40
0.5714285714285713
 40
0.5714285714285713
 40
0.5714285714285713
 40
0.6428571428571427
 40
0.6428571428571427
 40
0.6428571428571427
 40
0.6428571428571427
 40
0.7142857142857141
 40
0.7142857142857141
 40
0.7142857142857141
 40
0.7142857142857141
 40
0.7857142857142855
 40
0.7857142857142855
 40
0.7857142857142855
 40
0.7857142857142855
 40
0.8571428571428569
 40
0.8571428571428569
 40
0.8571428571428569
 40
0.8571428571428569
 40
0.9285714285714283
 40
0.9285714285714283
 40
0.9285714285714283
 40
0.9285714285714283
 40
1.0
 40
1.0
 40
1.0
 40
1.0
 10
1.818185039370079
 20
0.9847086614173228
 30
0.0
 10
1.818185039370079
 20
0.9847086614173228
 30
0.0
 10
1.813795275590551
 20
0.9900984251968504
 30
0.0
 10
1.813795275590551
 20
0.9900984251968504
 30
0.0
 10
1.813795275590551
 20
0.9900984251968504
 30
0.0
 10
1.824909448818898
 20
0.9991535433070866
 30
0.0
 10
1.830492125984252
 20
1.006708661417323
 30
0.0
 10
1.830492125984252
 20
1.012791338582677
 30
0.0
 10
1.830492125984252
 20
1.012791338582677
 30
0.0
 10
1.830492125984252
 20
1.013484251968504
 30
0.0
 10
1.830437007874016
 20
1.014374015748031
 30
0.0
 10
1.830322834645669
 20
1.01540157480315
 30
0.0
 10
1.830322834645669
 20
1.01540157480315
 30
0.0
 10
1.829409448818898
 20
1.015011811023622
 30
0.0
 10
1.828492125984252
 20
1.014708661417323
 30
0.0
 10
1.827629921259843
 20
1.014511811023622
 30
0.0
 10
1.827629921259843
 20
1.014511811023622
 30
0.0
 10
1.826767716535433
 20
1.014291338582677
 30
0.0
 10
1.825964566929134
 20
1.014181102362205
 30
0.0
 10
1.825185039370079
 20
1.014181102362205
 30
0.0
 10
1.825185039370079
 20
1.014181102362205
 30
0.0
 10
1.822574803149606
 20
1.014181102362205
 30
0.0
 10
1.820492125984252
 20
1.015011811023622
 30
0.0
 10
1.818937007874016
 20
1.016708661417323
 30
0.0
 10
1.818937007874016
 20
1.016708661417323
 30
0.0
 10
1.817350393700788
 20
1.018374015748031
 30
0.0
 10
1.816574803149606
 20
1.020511811023622
 30
0.0
 10
1.816574803149606
 20
1.023125984251968
 30
0.0
 10
1.816574803149606
 20
1.023125984251968
 30
0.0
 10
1.816574803149606
 20
1.025681102362205
 30
0.0
 10
1.81751968503937
 20
1.02790157480315
 30
0.0
 10
1.819409448818898
 20
1.029791338582677
 30
0.0
 10
1.819409448818898
 20
1.029791338582677
 30
0.0
 10
1.821322834645669
 20
1.031708661417323
 30
0.0
 10
1.823602362204724
 20
1.032653543307087
 30
0.0
 10
1.826240157480315
 20
1.032653543307087
 30
0.0
 10
1.826240157480315
 20
1.032653543307087
 30
0.0
 10
1.829937007874016
 20
1.032653543307087
 30
0.0
 10
1.833102362204724
 20
1.031181102362205
 30
0.0
 10
1.835740157480315
 20
1.028208661417323
 30
0.0
 10
1.835740157480315
 20
1.028208661417323
 30
0.0
 10
1.838350393700788
 20
1.025263779527559
 30
0.0
 10
1.839685039370079
 20
1.021456692913386
 30
0.0
 10
1.839685039370079
 20
1.016791338582677
 30
0.0
 10
1.839685039370079
 20
1.016791338582677
 30
0.0
 10
1.839685039370079
 20
1.013736220472441
 30
0.0
 10
1.839047244094488
 20
1.01053937007874
 30
0.0
 10
1.837795275590551
 20
1.007208661417323
 30
0.0
 10
1.837795275590551
 20
1.007208661417323
 30
0.0
 10
1.836547244094488
 20
1.003874015748032
 30
0.0
 10
1.834740157480315
 20
1.000791338582677
 30
0.0
 10
1.832350393700787
 20
0.9979291338582678
 30
0.0
 10
1.832350393700787
 20
0.9979291338582678
 30
0.0
 10
1.829964566929134
 20
0.9950984251968504
 30
0.0
 10
1.825240157480315
 20
0.9906811023622048
 30
0.0
 10
1.818185039370079
 20
0.9847086614173228
 30
0.0
  0
SPLINE
  5
89
330
1F
100
AcDbEntity
  8
LAYER_1
 62
   250
100
AcDbSpline
210
0.0
220
0.0
230
1.0
 70
    11
 71
     3
 72
    60
 73
    56
 74
     0
 42
0.0000000001
 43
0.0000000001
 40
0.0
 40
0.0
 40
0.0
 40
0.0
 40
0.0714285714285714
 40
0.0714285714285714
 40
0.0714285714285714
 40
0.0714285714285714
 40
0.1428571428571429
 40
0.1428571428571429
 40
0.1428571428571429
 40
0.1428571428571429
 40
0.2142857142857143
 40
0.2142857142857143
 40
0.2142857142857143
 40
0.2142857142857143
 40
0.2857142857142857
 40
0.2857142857142857
 40
0.2857142857142857
 40
0.2857142857142857
 40
0.3571428571428571
 40
0.3571428571428571
 40
0.3571428571428571
 40
0.3571428571428571
 40
0.4285714285714285
 40
0.4285714285714285
 40
0.4285714285714285
 40
0.4285714285714285
 40
0.4999999999999999
 40
0.4999999999999999
 40
0.4999999999999999
 40
0.4999999999999999
 40
0.5714285714285713
 40
0.5714285714285713
 40
0.5714285714285713
 40
0.5714285714285713
 40
0.6428571428571427
 40
0.6428571428571427
 40
0.6428571428571427
 40
0.6428571428571427
 40
0.7142857142857141
 40
0.7142857142857141
 40
0.7142857142857141
 40
0.7142857142857141
 40
0.7857142857142855
 40
0.7857142857142855
 40
0.7857142857142855
 40
0.7857142857142855
 40
0.8571428571428569
 40
0.8571428571428569
 40
0.8571428571428569
 40
0.8571428571428569
 40
0.9285714285714283
 40
0.9285714285714283
 40
0.9285714285714283
 40
0.9285714285714283
 40
1.0
 40
1.0
 40
1.0
 40
1.0
 10
1.847240157480315
 20
0.9847086614173228
 30
0.0
 10
1.847240157480315
 20
0.9847086614173228
 30
0.0
 10
1.842850393700787
 20
0.9900984251968504
 30
0.0
 10
1.842850393700787
 20
0.9900984251968504
 30
0.0
 10
1.842850393700787
 20
0.9900984251968504
 30
0.0
 10
1.853964566929134
 20
0.9991535433070866
 30
0.0
 10
1.859547244094488
 20
1.006708661417323
 30
0.0
 10
1.859547244094488
 20
1.012791338582677
 30
0.0
 10
1.859547244094488
 20
1.012791338582677
 30
0.0
 10
1.859547244094488
 20
1.013484251968504
 30
0.0
 10
1.859492125984252
 20
1.014374015748031
 30
0.0
 10
1.859377952755906
 20
1.01540157480315
 30
0.0
 10
1.859377952755906
 20
1.01540157480315
 30
0.0
 10
1.858464566929134
 20
1.015011811023622
 30
0.0
 10
1.857547244094488
 20
1.014708661417323
 30
0.0
 10
1.856685039370079
 20
1.014511811023622
 30
0.0
 10
1.856685039370079
 20
1.014511811023622
 30
0.0
 10
1.855822834645669
 20
1.014291338582677
 30
0.0
 10
1.854992125984252
 20
1.014181102362205
 30
0.0
 10
1.854157480314961
 20
1.014181102362205
 30
0.0
 10
1.854157480314961
 20
1.014181102362205
 30
0.0
 10
1.851602362204724
 20
1.014181102362205
 30
0.0
 10
1.849547244094488
 20
1.015011811023622
 30
0.0
 10
1.847992125984252
 20
1.016708661417323
 30
0.0
 10
1.847992125984252
 20
1.016708661417323
 30
0.0
 10
1.846409448818898
 20
1.018374015748031
 30
0.0
 10
1.845629921259843
 20
1.020511811023622
 30
0.0
 10
1.845629921259843
 20
1.023125984251968
 30
0.0
 10
1.845629921259843
 20
1.023125984251968
 30
0.0
 10
1.845629921259843
 20
1.025681102362205
 30
0.0
 10
1.846574803149606
 20
1.02790157480315
 30
0.0
 10
1.848464566929134
 20
1.029791338582677
 30
0.0
 10
1.848464566929134
 20
1.029791338582677
 30
0.0
 10
1.850350393700788
 20
1.031708661417323
 30
0.0
 10
1.852657480314961
 20
1.032653543307087
 30
0.0
 10
1.855295275590551
 20
1.032653543307087
 30
0.0
 10
1.855295275590551
 20
1.032653543307087
 30
0.0
 10
1.858992125984252
 20
1.032653543307087
 30
0.0
 10
1.862157480314961
 20
1.031181102362205
 30
0.0
 10
1.864795275590551
 20
1.028208661417323
 30
0.0
 10
1.864795275590551
 20
1.028208661417323
 30
0.0
 10
1.867405511811024
 20
1.025263779527559
 30
0.0
 10
1.868740157480315
 20
1.021456692913386
 30
0.0
 10
1.868740157480315
 20
1.016791338582677
 30
0.0
 10
1.868740157480315
 20
1.016791338582677
 30
0.0
 10
1.868740157480315
 20
1.013736220472441
 30
0.0
 10
1.868102362204725
 20
1.01053937007874
 30
0.0
 10
1.866850393700787
 20
1.007208661417323
 30
0.0
 10
1.866850393700787
 20
1.007208661417323
 30
0.0
 10
1.865602362204724
 20
1.003874015748032
 30
0.0
 10
1.863795275590551
 20
1.000791338582677
 30
0.0
 10
1.861409448818898
 20
0.9979291338582678
 30
0.0
 10
1.861409448818898
 20
0.9979291338582678
 30
0.0
 10
1.85901968503937
 20
0.9950984251968504
 30
0.0
 10
1.854295275590551
 20
0.9906811023622048
 30
0.0
 10
1.847240157480315
 20
0.9847086614173228
 30
0.0
  0
ENDSEC
  0
SECTION
  2
OBJECTS
  0
DICTIONARY
  5
C
330
0
100
AcDbDictionary
  3
ACAD_GROUP
350
D
  3
ACAD_LAYOUT
350
1A
  3
ACAD_MLINESTYLE
350
17
  3
ACAD_PLOTSETTINGS
350
19
  3
ACDBHEADERROUNDTRIPXREC
350
8A
  0
DICTIONARY
  5
AA
330
29
100
AcDbDictionary
280
     1
  3
ACAD_XREC_ROUNDTRIP
360
AB
  0
DICTIONARY
  5
D
102
{ACAD_REACTORS
330
C
102
}
330
C
100
AcDbDictionary
  0
DICTIONARY
  5
1A
102
{ACAD_REACTORS
330
C
102
}
330
C
100
AcDbDictionary
  0
DICTIONARY
  5
17
102
{ACAD_REACTORS
330
C
102
}
330
C
100
AcDbDictionary
  3
STANDARD
350
18
  0
DICTIONARY
  5
19
102
{ACAD_REACTORS
330
C
102
}
330
C
100
AcDbDictionary
  0
DICTIONARY
  5
8A
102
{ACAD_REACTORS
330
C
102
}
330
C
100
AcDbDictionary
  3
CEPSNTYPE
350
93
  3
DIMSTYLEDATA
350
A9
  3
FINGERPRINTGUID
350
94
  3
HYPERLINKBASE
350
8D
  3
INSUNITS
350
92
  3
LAYOUTDICT
350
8F
  3
LWETCUNION
350
91
  3
PLOTSETDICT
350
90
  3
PSVPSCALE
350
96
  3
PUCSBASE
350
99
  3
PUCSORGBACK
350
9F
  3
PUCSORGBOTTOM
350
9B
  3
PUCSORGFRONT
350
9E
  3
PUCSORGLEFT
350
9C
  3
PUCSORGRIGHT
350
9D
  3
PUCSORGTOP
350
9A
  3
PUCSORTHOREF
350
97
  3
PUCSORTHOVIEW
350
98
  3
STYLESHEET
350
8E
  3
TSTACKALIGN
350
8B
  3
TSTACKSIZE
350
8C
  3
UCSBASE
350
A2
  3
UCSORGBACK
350
A8
  3
UCSORGBOTTOM
350
A4
  3
UCSORGFRONT
350
A7
  3
UCSORGLEFT
350
A5
  3
UCSORGRIGHT
350
A6
  3
UCSORGTOP
350
A3
  3
UCSORTHOREF
350
A0
  3
UCSORTHOVIEW
350
A1
  3
VERSIONGUID
350
95
  0
XRECORD
  5
AB
102
{ACAD_REACTORS
330
AA
102
}
330
AA
100
AcDbXrecord
102
UCS
 74
     0
 71
     1
 10
0.0
 20
0.0
 30
0.0
 10
1.0
 20
0.0
 30
0.0
 10
0.0
 20
1.0
 30
0.0
146
0.0
 79
     0
102
VIEW
281
     0
  0
MLINESTYLE
  5
18
102
{ACAD_REACTORS
330
17
102
}
330
17
100
AcDbMlineStyle
  2
Standard
 70
     0
  3

 62
   256
 51
90.0
 52
90.0
 71
     2
 49
0.5
 62
   256
  6
BYLAYER
 49
-0.5
 62
   256
  6
BYLAYER
  0
XRECORD
  5
93
102
{ACAD_REACTORS
330
8A
102
}
330
8A
100
AcDbXrecord
 90
        0
  0
XRECORD
  5
A9
102
{ACAD_REACTORS
330
8A
102
}
330
8A
100
AcDbXrecord
1000
DSTYLE
1002
{
1070
   340
340
11
1002
}
  0
XRECORD
  5
94
102
{ACAD_REACTORS
330
8A
102
}
330
8A
100
AcDbXrecord
  1
{FAEB1C30-E019-11D5-929B-00C0DF256EC4}
  0
XRECORD
  5
8D
102
{ACAD_REACTORS
330
8A
102
}
330
8A
100
AcDbXrecord
  1

  0
XRECORD
  5
92
102
{ACAD_REACTORS
330
8A
102
}
330
8A
100
AcDbXrecord
 90
        1
  0
XRECORD
  5
8F
102
{ACAD_REACTORS
330
8A
102
}
330
8A
100
AcDbXrecord
340
1A
  0
XRECORD
  5
91
102
{ACAD_REACTORS
330
8A
102
}
330
8A
100
AcDbXrecord
 90
     2560
  0
XRECORD
  5
90
102
{ACAD_REACTORS
330
8A
102
}
330
8A
100
AcDbXrecord
340
19
  0
XRECORD
  5
96
102
{ACAD_REACTORS
330
8A
102
}
330
8A
100
AcDbXrecord
 40
0.0
  0
XRECORD
  5
99
102
{ACAD_REACTORS
330
8A
102
}
330
8A
100
AcDbXrecord
340
0
  0
XRECORD
  5
9F
102
{ACAD_REACTORS
330
8A
102
}
330
8A
100
AcDbXrecord
 10
0.0
 20
0.0
 30
0.0
  0
XRECORD
  5
9B
102
{ACAD_REACTORS
330
8A
102
}
330
8A
100
AcDbXrecord
 10
0.0
 20
0.0
 30
0.0
  0
XRECORD
  5
9E
102
{ACAD_REACTORS
330
8A
102
}
330
8A
100
AcDbXrecord
 10
0.0
 20
0.0
 30
0.0
  0
XRECORD
  5
9C
102
{ACAD_REACTORS
330
8A
102
}
330
8A
100
AcDbXrecord
 10
0.0
 20
0.0
 30
0.0
  0
XRECORD
  5
9D
102
{ACAD_REACTORS
330
8A
102
}
330
8A
100
AcDbXrecord
 10
0.0
 20
0.0
 30
0.0
  0
XRECORD
  5
9A
102
{ACAD_REACTORS
330
8A
102
}
330
8A
100
AcDbXrecord
 10
0.0
 20
0.0
 30
0.0
  0
XRECORD
  5
97
102
{ACAD_REACTORS
330
8A
102
}
330
8A
100
AcDbXrecord
340
0
  0
XRECORD
  5
98
102
{ACAD_REACTORS
330
8A
102
}
330
8A
100
AcDbXrecord
 70
     0
  0
XRECORD
  5
8E
102
{ACAD_REACTORS
330
8A
102
}
330
8A
100
AcDbXrecord
  1

  0
XRECORD
  5
8B
102
{ACAD_REACTORS
330
8A
102
}
330
8A
100
AcDbXrecord
 90
        1
  0
XRECORD
  5
8C
102
{ACAD_REACTORS
330
8A
102
}
330
8A
100
AcDbXrecord
 90
       70
  0
XRECORD
  5
A2
102
{ACAD_REACTORS
330
8A
102
}
330
8A
100
AcDbXrecord
340
0
  0
XRECORD
  5
A8
102
{ACAD_REACTORS
330
8A
102
}
330
8A
100
AcDbXrecord
 10
0.0
 20
0.0
 30
0.0
  0
XRECORD
  5
A4
102
{ACAD_REACTORS
330
8A
102
}
330
8A
100
AcDbXrecord
 10
0.0
 20
0.0
 30
0.0
  0
XRECORD
  5
A7
102
{ACAD_REACTORS
330
8A
102
}
330
8A
100
AcDbXrecord
 10
0.0
 20
0.0
 30
0.0
  0
XRECORD
  5
A5
102
{ACAD_REACTORS
330
8A
102
}
330
8A
100
AcDbXrecord
 10
0.0
 20
0.0
 30
0.0
  0
XRECORD
  5
A6
102
{ACAD_REACTORS
330
8A
102
}
330
8A
100
AcDbXrecord
 10
0.0
 20
0.0
 30
0.0
  0
XRECORD
  5
A3
102
{ACAD_REACTORS
330
8A
102
}
330
8A
100
AcDbXrecord
 10
0.0
 20
0.0
 30
0.0
  0
XRECORD
  5
A0
102
{ACAD_REACTORS
330
8A
102
}
330
8A
100
AcDbXrecord
340
0
  0
XRECORD
  5
A1
102
{ACAD_REACTORS
330
8A
102
}
330
8A
100
AcDbXrecord
 70
     0
  0
XRECORD
  5
95
102
{ACAD_REACTORS
330
8A
102
}
330
8A
100
AcDbXrecord
  1
{FAEB1C32-E019-11D5-929B-00C0DF256EC4}
  0
ENDSEC
  0
EOF
