  0
SECTION
  2
HEADER
  9
$ACADVER
  1
AC1014
  9
$ACADMAINTVER
 70
     9
  9
$DWGCODEPAGE
  3
ANSI_1252
  9
$INSBASE
 10
0.0
 20
0.0
 30
0.0
  9
$EXTMIN
 10
-0.442248031496063
 20
-0.5993976377952756
 30
0.0
  9
$EXTMAX
 10
1.016141732283465
 20
3.833358267716536
 30
0.0
  9
$LIMMIN
 10
0.0
 20
0.0
  9
$LIMMAX
 10
12.0
 20
9.0
  9
$ORTHOMODE
 70
     0
  9
$REGENMODE
 70
     1
  9
$FILLMODE
 70
     1
  9
$QTEXTMODE
 70
     0
  9
$MIRRTEXT
 70
     1
  9
$DRAGMODE
 70
     2
  9
$LTSCALE
 40
1.0
  9
$OSMODE
 70
    37
  9
$ATTMODE
 70
     1
  9
$TEXTSIZE
 40
0.2
  9
$TRACEWID
 40
0.05
  9
$TEXTSTYLE
  7
STANDARD
  9
$CLAYER
  8
0
  9
$CELTYPE
  6
BYLAYER
  9
$CECOLOR
 62
   256
  9
$CELTSCALE
 40
1.0
  9
$DELOBJ
 70
     1
  9
$DISPSILH
 70
     0
  9
$DIMSCALE
 40
1.0
  9
$DIMASZ
 40
0.18
  9
$DIMEXO
 40
0.0625
  9
$DIMDLI
 40
0.38
  9
$DIMRND
 40
0.0
  9
$DIMDLE
 40
0.0
  9
$DIMEXE
 40
0.18
  9
$DIMTP
 40
0.0
  9
$DIMTM
 40
0.0
  9
$DIMTXT
 40
0.18
  9
$DIMCEN
 40
0.09
  9
$DIMTSZ
 40
0.0
  9
$DIMTOL
 70
     0
  9
$DIMLIM
 70
     0
  9
$DIMTIH
 70
     1
  9
$DIMTOH
 70
     1
  9
$DIMSE1
 70
     0
  9
$DIMSE2
 70
     0
  9
$DIMTAD
 70
     0
  9
$DIMZIN
 70
     0
  9
$DIMBLK
  1

  9
$DIMASO
 70
     1
  9
$DIMSHO
 70
     1
  9
$DIMPOST
  1

  9
$DIMAPOST
  1

  9
$DIMALT
 70
     0
  9
$DIMALTD
 70
     2
  9
$DIMALTF
 40
25.4
  9
$DIMLFAC
 40
1.0
  9
$DIMTOFL
 70
     0
  9
$DIMTVP
 40
0.0
  9
$DIMTIX
 70
     0
  9
$DIMSOXD
 70
     0
  9
$DIMSAH
 70
     0
  9
$DIMBLK1
  1

  9
$DIMBLK2
  1

  9
$DIMSTYLE
  2
STANDARD
  9
$DIMCLRD
 70
     0
  9
$DIMCLRE
 70
     0
  9
$DIMCLRT
 70
     0
  9
$DIMTFAC
 40
1.0
  9
$DIMGAP
 40
0.09
  9
$DIMJUST
 70
     0
  9
$DIMSD1
 70
     0
  9
$DIMSD2
 70
     0
  9
$DIMTOLJ
 70
     1
  9
$DIMTZIN
 70
     0
  9
$DIMALTZ
 70
     0
  9
$DIMALTTZ
 70
     0
  9
$DIMFIT
 70
     3
  9
$DIMUPT
 70
     0
  9
$DIMUNIT
 70
     2
  9
$DIMDEC
 70
     4
  9
$DIMTDEC
 70
     4
  9
$DIMALTU
 70
     2
  9
$DIMALTTD
 70
     2
  9
$DIMTXSTY
  7
STANDARD
  9
$DIMAUNIT
 70
     0
  9
$LUNITS
 70
     2
  9
$LUPREC
 70
     4
  9
$SKETCHINC
 40
0.1
  9
$FILLETRAD
 40
0.5
  9
$AUNITS
 70
     0
  9
$AUPREC
 70
     0
  9
$MENU
  1
.
  9
$ELEVATION
 40
0.0
  9
$PELEVATION
 40
0.0
  9
$THICKNESS
 40
0.0
  9
$LIMCHECK
 70
     0
  9
$CHAMFERA
 40
0.5
  9
$CHAMFERB
 40
0.5
  9
$CHAMFERC
 40
1.0
  9
$CHAMFERD
 40
0.0
  9
$SKPOLY
 70
     0
  9
$TDCREATE
 40
2454123.470262292
  9
$TDUPDATE
 40
2454123.470262303
  9
$TDINDWG
 40
0.0000000116
  9
$TDUSRTIMER
 40
0.0000000116
  9
$USRTIMER
 70
     1
  9
$ANGBASE
 50
0.0
  9
$ANGDIR
 70
     0
  9
$PDMODE
 70
     0
  9
$PDSIZE
 40
0.0
  9
$PLINEWID
 40
0.0
  9
$COORDS
 70
     1
  9
$SPLFRAME
 70
     0
  9
$SPLINETYPE
 70
     6
  9
$SPLINESEGS
 70
     8
  9
$ATTDIA
 70
     0
  9
$ATTREQ
 70
     1
  9
$HANDLING
 70
     1
  9
$HANDSEED
  5
96
  9
$SURFTAB1
 70
     6
  9
$SURFTAB2
 70
     6
  9
$SURFTYPE
 70
     6
  9
$SURFU
 70
     6
  9
$SURFV
 70
     6
  9
$UCSNAME
  2

  9
$UCSORG
 10
0.0
 20
0.0
 30
0.0
  9
$UCSXDIR
 10
1.0
 20
0.0
 30
0.0
  9
$UCSYDIR
 10
0.0
 20
1.0
 30
0.0
  9
$PUCSNAME
  2

  9
$PUCSORG
 10
0.0
 20
0.0
 30
0.0
  9
$PUCSXDIR
 10
1.0
 20
0.0
 30
0.0
  9
$PUCSYDIR
 10
0.0
 20
1.0
 30
0.0
  9
$USERI1
 70
     0
  9
$USERI2
 70
     0
  9
$USERI3
 70
     0
  9
$USERI4
 70
     0
  9
$USERI5
 70
     0
  9
$USERR1
 40
0.0
  9
$USERR2
 40
0.0
  9
$USERR3
 40
0.0
  9
$USERR4
 40
0.0
  9
$USERR5
 40
0.0
  9
$WORLDVIEW
 70
     1
  9
$SHADEDGE
 70
     3
  9
$SHADEDIF
 70
    70
  9
$TILEMODE
 70
     1
  9
$MAXACTVP
 70
    64
  9
$PINSBASE
 10
0.0
 20
0.0
 30
0.0
  9
$PLIMCHECK
 70
     0
  9
$PEXTMIN
 10
1.000000000000000E+20
 20
1.000000000000000E+20
 30
1.000000000000000E+20
  9
$PEXTMAX
 10
-1.000000000000000E+20
 20
-1.000000000000000E+20
 30
-1.000000000000000E+20
  9
$PLIMMIN
 10
0.0
 20
0.0
  9
$PLIMMAX
 10
12.0
 20
9.0
  9
$UNITMODE
 70
     0
  9
$VISRETAIN
 70
     1
  9
$PLINEGEN
 70
     0
  9
$PSLTSCALE
 70
     1
  9
$TREEDEPTH
 70
  3020
  9
$PICKSTYLE
 70
     1
  9
$CMLSTYLE
  2
STANDARD
  9
$CMLJUST
 70
     0
  9
$CMLSCALE
 40
1.0
  9
$PROXYGRAPHICS
 70
     1
  9
$MEASUREMENT
 70
     0
  0
ENDSEC
  0
SECTION
  2
CLASSES
  0
CLASS
  1
ACDBDICTIONARYWDFLT
  2
AcDbDictionaryWithDefault
  3
ObjectDBX Classes
 90
        0
280
     0
281
     0
  0
CLASS
  1
XRECORD
  2
AcDbXrecord
  3
AutoCAD 2000
 90
        0
280
     0
281
     0
  0
CLASS
  1
LWPOLYLINE
  2
AcDbPolyline
  3
AutoCAD 2000
 90
        0
280
     0
281
     1
  0
CLASS
  1
HATCH
  2
AcDbHatch
  3
AutoCAD 2000
 90
        0
280
     0
281
     1
  0
CLASS
  1
ACDBPLACEHOLDER
  2
AcDbPlaceHolder
  3
ObjectDBX Classes
 90
        0
280
     0
281
     0
  0
CLASS
  1
LAYOUT
  2
AcDbLayout
  3
ObjectDBX Classes
 90
        0
280
     0
281
     0
  0
ENDSEC
  0
SECTION
  2
TABLES
  0
TABLE
  2
VPORT
  5
8
330
0
100
AcDbSymbolTable
 70
     2
  0
VPORT
  5
29
102
{ACAD_XDICTIONARY
360
94
102
}
330
8
100
AcDbSymbolTableRecord
100
AcDbViewportTableRecord
  2
*ACTIVE
 70
     0
 10
0.0
 20
0.0
 11
1.0
 21
1.0
 12
10.42990654205607
 22
4.5
 13
0.0
 23
0.0
 14
0.5
 24
0.5
 15
0.5
 25
0.5
 16
0.0
 26
0.0
 36
1.0
 17
0.0
 27
0.0
 37
0.0
 40
9.0
 41
1.972972972850329
 42
50.0
 43
0.0
 44
0.0
 50
0.0
 51
0.0
 71
     0
 72
   100
 73
     1
 74
     3
 75
     0
 76
     0
 77
     0
 78
     0
  0
ENDTAB
  0
TABLE
  2
LTYPE
  5
5
330
0
100
AcDbSymbolTable
 70
     1
  0
LTYPE
  5
14
330
5
100
AcDbSymbolTableRecord
100
AcDbLinetypeTableRecord
  2
BYBLOCK
 70
     0
  3

 72
    65
 73
     0
 40
0.0
  0
LTYPE
  5
15
330
5
100
AcDbSymbolTableRecord
100
AcDbLinetypeTableRecord
  2
BYLAYER
 70
     0
  3

 72
    65
 73
     0
 40
0.0
  0
LTYPE
  5
16
330
5
100
AcDbSymbolTableRecord
100
AcDbLinetypeTableRecord
  2
CONTINUOUS
 70
     0
  3
Solid line
 72
    65
 73
     0
 40
0.0
  0
ENDTAB
  0
TABLE
  2
LAYER
  5
2
330
0
100
AcDbSymbolTable
 70
     2
  0
LAYER
  5
10
330
2
100
AcDbSymbolTableRecord
100
AcDbLayerTableRecord
  2
0
 70
     0
 62
     7
  6
CONTINUOUS
  0
LAYER
  5
2B
330
2
100
AcDbSymbolTableRecord
100
AcDbLayerTableRecord
  2
LAYER_1
 70
     0
 62
     7
  6
CONTINUOUS
  0
ENDTAB
  0
TABLE
  2
STYLE
  5
3
330
0
100
AcDbSymbolTable
 70
     1
  0
STYLE
  5
11
330
3
100
AcDbSymbolTableRecord
100
AcDbTextStyleTableRecord
  2
STANDARD
 70
     0
 40
0.0
 41
1.0
 50
0.0
 71
     0
 42
0.2
  3
txt
  4

  0
ENDTAB
  0
TABLE
  2
VIEW
  5
6
330
0
100
AcDbSymbolTable
 70
     0
  0
ENDTAB
  0
TABLE
  2
UCS
  5
7
330
0
100
AcDbSymbolTable
 70
     0
  0
ENDTAB
  0
TABLE
  2
APPID
  5
9
330
0
100
AcDbSymbolTable
 70
     2
  0
APPID
  5
12
330
9
100
AcDbSymbolTableRecord
100
AcDbRegAppTableRecord
  2
ACAD
 70
     0
  0
APPID
  5
2A
330
9
100
AcDbSymbolTableRecord
100
AcDbRegAppTableRecord
  2
ODA
 70
     0
  0
ENDTAB
  0
TABLE
  2
DIMSTYLE
  5
A
330
0
100
AcDbSymbolTable
 70
     1
  0
DIMSTYLE
105
27
330
A
100
AcDbSymbolTableRecord
100
AcDbDimStyleTableRecord
  2
STANDARD
 70
     0
  3

  4

  5

  6

  7

 40
1.0
 41
0.18
 42
0.0625
 43
0.38
 44
0.18
 45
0.0
 46
0.0
 47
0.0
 48
0.0
140
0.18
141
0.09
142
0.0
143
25.4
144
1.0
145
0.0
146
1.0
147
0.09
 71
     0
 72
     0
 73
     1
 74
     1
 75
     0
 76
     0
 77
     0
 78
     0
170
     0
171
     2
172
     0
173
     0
174
     0
175
     0
176
     0
177
     0
178
     0
270
     2
271
     4
272
     4
273
     2
274
     2
340
11
275
     0
280
     0
281
     0
282
     0
283
     1
284
     0
285
     0
286
     0
287
     3
288
     0
  0
ENDTAB
  0
TABLE
  2
BLOCK_RECORD
  5
1
330
0
100
AcDbSymbolTable
 70
     1
  0
BLOCK_RECORD
  5
1F
330
1
100
AcDbSymbolTableRecord
100
AcDbBlockTableRecord
  2
*MODEL_SPACE
  0
BLOCK_RECORD
  5
1B
330
1
100
AcDbSymbolTableRecord
100
AcDbBlockTableRecord
  2
*PAPER_SPACE
  0
ENDTAB
  0
ENDSEC
  0
SECTION
  2
BLOCKS
  0
BLOCK
  5
20
330
1F
100
AcDbEntity
  8
0
100
AcDbBlockBegin
  2
*MODEL_SPACE
 70
     0
 71
     0
 10
0.0
 20
0.0
 30
0.0
  3
*MODEL_SPACE
  1

  0
ENDBLK
  5
21
330
1F
100
AcDbEntity
  8
0
100
AcDbBlockEnd
  0
BLOCK
  5
1C
330
1B
100
AcDbEntity
 67
     1
  8
0
100
AcDbBlockBegin
  2
*PAPER_SPACE
 70
     0
 71
     0
 10
0.0
 20
0.0
 30
0.0
  3
*PAPER_SPACE
  1

  0
ENDBLK
  5
1D
330
1B
100
AcDbEntity
 67
     1
  8
0
100
AcDbBlockEnd
  0
ENDSEC
  0
SECTION
  2
ENTITIES
  0
SPLINE
  5
2C
330
1F
100
AcDbEntity
  8
LAYER_1
 62
   250
100
AcDbSpline
210
0.0
220
0.0
230
1.0
 70
    11
 71
     3
 72
    32
 73
    28
 74
     0
 42
0.0000000001
 43
0.0000000001
 40
0.0
 40
0.0
 40
0.0
 40
0.0
 40
0.1428571428571429
 40
0.1428571428571429
 40
0.1428571428571429
 40
0.1428571428571429
 40
0.2857142857142857
 40
0.2857142857142857
 40
0.2857142857142857
 40
0.2857142857142857
 40
0.4285714285714286
 40
0.4285714285714286
 40
0.4285714285714286
 40
0.4285714285714286
 40
0.5714285714285714
 40
0.5714285714285714
 40
0.5714285714285714
 40
0.5714285714285714
 40
0.7142857142857142
 40
0.7142857142857142
 40
0.7142857142857142
 40
0.7142857142857142
 40
0.857142857142857
 40
0.857142857142857
 40
0.857142857142857
 40
0.857142857142857
 40
1.0
 40
1.0
 40
1.0
 40
1.0
 10
-0.27
 20
0.5600000000000001
 30
0.0
 10
-0.27
 20
0.5600000000000001
 30
0.0
 10
0.0400118110236221
 20
0.5600000000000001
 30
0.0
 10
0.0400118110236221
 20
0.5600000000000001
 30
0.0
 10
0.0400118110236221
 20
0.5600000000000001
 30
0.0
 10
0.0400118110236221
 20
0.5600000000000001
 30
0.0
 10
0.0400118110236221
 20
0.4025
 30
0.0
 10
0.0400118110236221
 20
0.4025
 30
0.0
 10
0.0400118110236221
 20
0.4025
 30
0.0
 10
0.0400118110236221
 20
0.4025
 30
0.0
 10
0.46
 20
0.09
 30
0.0
 10
0.46
 20
0.09
 30
0.0
 10
0.46
 20
0.09
 30
0.0
 10
0.46
 20
0.09
 30
0.0
 10
0.63
 20
0.09
 30
0.0
 10
0.63
 20
0.09
 30
0.0
 10
0.63
 20
0.09
 30
0.0
 10
0.63
 20
0.09
 30
0.0
 10
0.63
 20
-0.14
 30
0.0
 10
0.63
 20
-0.14
 30
0.0
 10
0.63
 20
-0.14
 30
0.0
 10
0.63
 20
-0.14
 30
0.0
 10
-0.27
 20
-0.14
 30
0.0
 10
-0.27
 20
-0.14
 30
0.0
 10
-0.27
 20
-0.14
 30
0.0
 10
-0.27
 20
-0.14
 30
0.0
 10
-0.27
 20
0.5600000000000001
 30
0.0
 10
-0.27
 20
0.5600000000000001
 30
0.0
  0
SPLINE
  5
2D
330
1F
100
AcDbEntity
  8
LAYER_1
 62
   250
100
AcDbSpline
210
0.0
220
0.0
230
1.0
 70
    11
 71
     3
 72
   104
 73
   100
 74
     0
 42
0.0000000001
 43
0.0000000001
 40
0.0
 40
0.0
 40
0.0
 40
0.0
 40
0.04
 40
0.04
 40
0.04
 40
0.04
 40
0.08
 40
0.08
 40
0.08
 40
0.08
 40
0.12
 40
0.12
 40
0.12
 40
0.12
 40
0.16
 40
0.16
 40
0.16
 40
0.16
 40
0.2
 40
0.2
 40
0.2
 40
0.2
 40
0.24
 40
0.24
 40
0.24
 40
0.24
 40
0.28
 40
0.28
 40
0.28
 40
0.28
 40
0.32
 40
0.32
 40
0.32
 40
0.32
 40
0.36
 40
0.36
 40
0.36
 40
0.36
 40
0.4
 40
0.4
 40
0.4
 40
0.4
 40
0.44
 40
0.44
 40
0.44
 40
0.44
 40
0.4799999999999999
 40
0.4799999999999999
 40
0.4799999999999999
 40
0.4799999999999999
 40
0.5199999999999999
 40
0.5199999999999999
 40
0.5199999999999999
 40
0.5199999999999999
 40
0.5599999999999999
 40
0.5599999999999999
 40
0.5599999999999999
 40
0.5599999999999999
 40
0.6
 40
0.6
 40
0.6
 40
0.6
 40
0.64
 40
0.64
 40
0.64
 40
0.64
 40
0.6800000000000001
 40
0.6800000000000001
 40
0.6800000000000001
 40
0.6800000000000001
 40
0.7200000000000001
 40
0.7200000000000001
 40
0.7200000000000001
 40
0.7200000000000001
 40
0.7600000000000001
 40
0.7600000000000001
 40
0.7600000000000001
 40
0.7600000000000001
 40
0.8000000000000002
 40
0.8000000000000002
 40
0.8000000000000002
 40
0.8000000000000002
 40
0.8400000000000002
 40
0.8400000000000002
 40
0.8400000000000002
 40
0.8400000000000002
 40
0.8800000000000002
 40
0.8800000000000002
 40
0.8800000000000002
 40
0.8800000000000002
 40
0.9200000000000003
 40
0.9200000000000003
 40
0.9200000000000003
 40
0.9200000000000003
 40
0.9600000000000003
 40
0.9600000000000003
 40
0.9600000000000003
 40
0.9600000000000003
 40
1.0
 40
1.0
 40
1.0
 40
1.0
 10
-0.0295472440944882
 20
-0.2620629921259843
 30
0.0
 10
-0.0295472440944882
 20
-0.2620629921259843
 30
0.0
 10
0.0244251968503937
 20
-0.2620629921259843
 30
0.0
 10
0.0244251968503937
 20
-0.2620629921259843
 30
0.0
 10
0.0244251968503937
 20
-0.2620629921259843
 30
0.0
 10
0.0375944881889764
 20
-0.2620629921259843
 30
0.0
 10
0.0466220472440945
 20
-0.2626732283464567
 30
0.0
 10
0.051507874015748
 20
-0.2638700787401575
 30
0.0
 10
0.051507874015748
 20
-0.2638700787401575
 30
0.0
 10
0.0587322834645669
 20
-0.2655905511811024
 30
0.0
 10
0.0644251968503937
 20
-0.2687283464566929
 30
0.0
 10
0.0686496062992126
 20
-0.2732874015748031
 30
0.0
 10
0.0686496062992126
 20
-0.2732874015748031
 30
0.0
 10
0.0728425196850394
 20
-0.2778425196850394
 30
0.0
 10
0.0749527559055118
 20
-0.2833425196850394
 30
0.0
 10
0.0749527559055118
 20
-0.2897283464566929
 30
0.0
 10
0.0749527559055118
 20
-0.2897283464566929
 30
0.0
 10
0.0749527559055118
 20
-0.2943425196850394
 30
0.0
 10
0.0738425196850394
 20
-0.2984803149606299
 30
0.0
 10
0.0716220472440945
 20
-0.3021456692913386
 30
0.0
 10
0.0716220472440945
 20
-0.3021456692913386
 30
0.0
 10
0.0693976377952756
 20
-0.3058149606299213
 30
0.0
 10
0.0661496062992126
 20
-0.3089527559055118
 30
0.0
 10
0.0619251968503937
 20
-0.3115354330708662
 30
0.0
 10
0.0619251968503937
 20
-0.3115354330708662
 30
0.0
 10
0.0592047244094488
 20
-0.313228346456693
 30
0.0
 10
0.0555354330708661
 20
-0.3146732283464567
 30
0.0
 10
0.0508700787401575
 20
-0.3158700787401575
 30
0.0
 10
0.0508700787401575
 20
-0.3158700787401575
 30
0.0
 10
0.0567874015748032
 20
-0.3169527559055118
 30
0.0
 10
0.0612874015748032
 20
-0.318255905511811
 30
0.0
 10
0.0643700787401575
 20
-0.319755905511811
 30
0.0
 10
0.0643700787401575
 20
-0.319755905511811
 30
0.0
 10
0.0690354330708661
 20
-0.3220354330708661
 30
0.0
 10
0.0727322834645669
 20
-0.3252834645669291
 30
0.0
 10
0.0754251968503937
 20
-0.3295354330708661
 30
0.0
 10
0.0754251968503937
 20
-0.3295354330708661
 30
0.0
 10
0.0781496062992126
 20
-0.3337559055118111
 30
0.0
 10
0.079507874015748
 20
-0.3385354330708661
 30
0.0
 10
0.079507874015748
 20
-0.3438425196850394
 30
0.0
 10
0.079507874015748
 20
-0.3438425196850394
 30
0.0
 10
0.079507874015748
 20
-0.3490078740157481
 30
0.0
 10
0.0781771653543307
 20
-0.3537834645669292
 30
0.0
 10
0.075507874015748
 20
-0.3581732283464567
 30
0.0
 10
0.075507874015748
 20
-0.3581732283464567
 30
0.0
 10
0.0728700787401575
 20
-0.3625629921259843
 30
0.0
 10
0.0690944881889764
 20
-0.3661732283464567
 30
0.0
 10
0.064259842519685
 20
-0.369007874015748
 30
0.0
 10
0.064259842519685
 20
-0.369007874015748
 30
0.0
 10
0.0593976377952756
 20
-0.3718110236220473
 30
0.0
 10
0.0537322834645669
 20
-0.3736181102362205
 30
0.0
 10
0.0472874015748031
 20
-0.3744251968503937
 30
0.0
 10
0.0472874015748031
 20
-0.3744251968503937
 30
0.0
 10
0.0408149606299213
 20
-0.3752007874015748
 30
0.0
 10
0.0341771653543307
 20
-0.3755905511811024
 30
0.0
 10
0.0273425196850394
 20
-0.3755905511811024
 30
0.0
 10
0.0273425196850394
 20
-0.3755905511811024
 30
0.0
 10
0.0273425196850394
 20
-0.3755905511811024
 30
0.0
 10
-0.0295472440944882
 20
-0.3755905511811024
 30
0.0
 10
-0.0295472440944882
 20
-0.3755905511811024
 30
0.0
 10
-0.0295472440944882
 20
-0.3755905511811024
 30
0.0
 10
-0.0295472440944882
 20
-0.3755905511811024
 30
0.0
 10
-0.0295472440944882
 20
-0.368755905511811
 30
0.0
 10
-0.0295472440944882
 20
-0.368755905511811
 30
0.0
 10
-0.0295472440944882
 20
-0.368755905511811
 30
0.0
 10
-0.0295472440944882
 20
-0.368755905511811
 30
0.0
 10
-0.0257125984251969
 20
-0.368755905511811
 30
0.0
 10
-0.0257125984251969
 20
-0.368755905511811
 30
0.0
 10
-0.0257125984251969
 20
-0.368755905511811
 30
0.0
 10
-0.0220157480314961
 20
-0.368755905511811
 30
0.0
 10
-0.0195157480314961
 20
-0.3681732283464567
 30
0.0
 10
-0.0181574803149606
 20
-0.3670354330708662
 30
0.0
 10
-0.0181574803149606
 20
-0.3670354330708662
 30
0.0
 10
-0.0161850393700787
 20
-0.3654803149606299
 30
0.0
 10
-0.0152125984251969
 20
-0.3628700787401575
 30
0.0
 10
-0.0152125984251969
 20
-0.3592283464566929
 30
0.0
 10
-0.0152125984251969
 20
-0.3592283464566929
 30
0.0
 10
-0.0152125984251969
 20
-0.3592283464566929
 30
0.0
 10
-0.0152125984251969
 20
-0.2803700787401575
 30
0.0
 10
-0.0152125984251969
 20
-0.2803700787401575
 30
0.0
 10
-0.0152125984251969
 20
-0.2803700787401575
 30
0.0
 10
-0.0152125984251969
 20
-0.2766732283464567
 30
0.0
 10
-0.0155157480314961
 20
-0.2741732283464567
 30
0.0
 10
-0.0161023622047244
 20
-0.2728149606299213
 30
0.0
 10
-0.0161023622047244
 20
-0.2728149606299213
 30
0.0
 10
-0.0167125984251969
 20
-0.2714527559055118
 30
0.0
 10
-0.0176023622047244
 20
-0.2704803149606299
 30
0.0
 10
-0.0187952755905512
 20
-0.2698700787401575
 30
0.0
 10
-0.0187952755905512
 20
-0.2698700787401575
 30
0.0
 10
-0.019988188976378
 20
-0.2692874015748032
 30
0.0
 10
-0.0222952755905512
 20
-0.2689803149606299
 30
0.0
 10
-0.0257125984251969
 20
-0.2689803149606299
 30
0.0
 10
-0.0257125984251969
 20
-0.2689803149606299
 30
0.0
 10
-0.0257125984251969
 20
-0.2689803149606299
 30
0.0
 10
-0.0295472440944882
 20
-0.2689803149606299
 30
0.0
 10
-0.0295472440944882
 20
-0.2689803149606299
 30
0.0
 10
-0.0295472440944882
 20
-0.2689803149606299
 30
0.0
 10
-0.0295472440944882
 20
-0.2689803149606299
 30
0.0
 10
-0.0295472440944882
 20
-0.2620629921259843
 30
0.0
 10
-0.0295472440944882
 20
-0.2620629921259843
 30
0.0
  0
SPLINE
  5
2E
330
1F
100
AcDbEntity
  8
LAYER_1
 62
   250
100
AcDbSpline
210
0.0
220
0.0
230
1.0
 70
    11
 71
     3
 72
    40
 73
    36
 74
     0
 42
0.0000000001
 43
0.0000000001
 40
0.0
 40
0.0
 40
0.0
 40
0.0
 40
0.1111111111111111
 40
0.1111111111111111
 40
0.1111111111111111
 40
0.1111111111111111
 40
0.2222222222222222
 40
0.2222222222222222
 40
0.2222222222222222
 40
0.2222222222222222
 40
0.3333333333333333
 40
0.3333333333333333
 40
0.3333333333333333
 40
0.3333333333333333
 40
0.4444444444444444
 40
0.4444444444444444
 40
0.4444444444444444
 40
0.4444444444444444
 40
0.5555555555555556
 40
0.5555555555555556
 40
0.5555555555555556
 40
0.5555555555555556
 40
0.6666666666666667
 40
0.6666666666666667
 40
0.6666666666666667
 40
0.6666666666666667
 40
0.7777777777777779
 40
0.7777777777777779
 40
0.7777777777777779
 40
0.7777777777777779
 40
0.8888888888888891
 40
0.8888888888888891
 40
0.8888888888888891
 40
0.8888888888888891
 40
1.0
 40
1.0
 40
1.0
 40
1.0
 10
0.000011811023622
 20
-0.2710905511811024
 30
0.0
 10
0.000011811023622
 20
-0.2710905511811024
 30
0.0
 10
0.000011811023622
 20
-0.3126732283464567
 30
0.0
 10
0.000011811023622
 20
-0.3126732283464567
 30
0.0
 10
0.000011811023622
 20
-0.3126732283464567
 30
0.0
 10
0.000011811023622
 20
-0.3126732283464567
 30
0.0
 10
0.020759842519685
 20
-0.3126732283464567
 30
0.0
 10
0.020759842519685
 20
-0.3126732283464567
 30
0.0
 10
0.020759842519685
 20
-0.3126732283464567
 30
0.0
 10
0.0304527559055118
 20
-0.3126732283464567
 30
0.0
 10
0.0371220472440945
 20
-0.312228346456693
 30
0.0
 10
0.0406771653543307
 20
-0.3113149606299213
 30
0.0
 10
0.0406771653543307
 20
-0.3113149606299213
 30
0.0
 10
0.0462874015748031
 20
-0.3098425196850394
 30
0.0
 10
0.0505354330708661
 20
-0.3073425196850394
 30
0.0
 10
0.053507874015748
 20
-0.3038149606299213
 30
0.0
 10
0.053507874015748
 20
-0.3038149606299213
 30
0.0
 10
0.0564527559055118
 20
-0.3002874015748032
 30
0.0
 10
0.0579527559055118
 20
-0.295755905511811
 30
0.0
 10
0.0579527559055118
 20
-0.2902283464566929
 30
0.0
 10
0.0579527559055118
 20
-0.2902283464566929
 30
0.0
 10
0.0579527559055118
 20
-0.2855629921259842
 30
0.0
 10
0.0565944881889764
 20
-0.2816732283464567
 30
0.0
 10
0.0539251968503937
 20
-0.2785354330708662
 30
0.0
 10
0.0539251968503937
 20
-0.2785354330708662
 30
0.0
 10
0.0512322834645669
 20
-0.2754251968503937
 30
0.0
 10
0.0476220472440945
 20
-0.2732874015748031
 30
0.0
 10
0.0431220472440945
 20
-0.2721456692913386
 30
0.0
 10
0.0431220472440945
 20
-0.2721456692913386
 30
0.0
 10
0.0402047244094488
 20
-0.2714527559055118
 30
0.0
 10
0.0341220472440945
 20
-0.2710905511811024
 30
0.0
 10
0.0248976377952756
 20
-0.2710905511811024
 30
0.0
 10
0.0248976377952756
 20
-0.2710905511811024
 30
0.0
 10
0.0248976377952756
 20
-0.2710905511811024
 30
0.0
 10
0.000011811023622
 20
-0.2710905511811024
 30
0.0
 10
0.000011811023622
 20
-0.2710905511811024
 30
0.0
  0
SPLINE
  5
2F
330
1F
100
AcDbEntity
  8
LAYER_1
 62
   250
100
AcDbSpline
210
0.0
220
0.0
230
1.0
 70
    11
 71
     3
 72
    52
 73
    48
 74
     0
 42
0.0000000001
 43
0.0000000001
 40
0.0
 40
0.0
 40
0.0
 40
0.0
 40
0.0833333333333333
 40
0.0833333333333333
 40
0.0833333333333333
 40
0.0833333333333333
 40
0.1666666666666667
 40
0.1666666666666667
 40
0.1666666666666667
 40
0.1666666666666667
 40
0.25
 40
0.25
 40
0.25
 40
0.25
 40
0.3333333333333333
 40
0.3333333333333333
 40
0.3333333333333333
 40
0.3333333333333333
 40
0.4166666666666666
 40
0.4166666666666666
 40
0.4166666666666666
 40
0.4166666666666666
 40
0.4999999999999999
 40
0.4999999999999999
 40
0.4999999999999999
 40
0.4999999999999999
 40
0.5833333333333333
 40
0.5833333333333333
 40
0.5833333333333333
 40
0.5833333333333333
 40
0.6666666666666666
 40
0.6666666666666666
 40
0.6666666666666666
 40
0.6666666666666666
 40
0.75
 40
0.75
 40
0.75
 40
0.75
 40
0.8333333333333334
 40
0.8333333333333334
 40
0.8333333333333334
 40
0.8333333333333334
 40
0.9166666666666667
 40
0.9166666666666667
 40
0.9166666666666667
 40
0.9166666666666667
 40
1.0
 40
1.0
 40
1.0
 40
1.0
 10
0.000011811023622
 20
-0.320507874015748
 30
0.0
 10
0.000011811023622
 20
-0.320507874015748
 30
0.0
 10
0.000011811023622
 20
-0.357755905511811
 30
0.0
 10
0.000011811023622
 20
-0.357755905511811
 30
0.0
 10
0.000011811023622
 20
-0.357755905511811
 30
0.0
 10
0.000011811023622
 20
-0.361507874015748
 30
0.0
 10
0.0001771653543307
 20
-0.3637283464566929
 30
0.0
 10
0.0004803149606299
 20
-0.3644527559055119
 30
0.0
 10
0.0004803149606299
 20
-0.3644527559055119
 30
0.0
 10
0.0009251968503937
 20
-0.3654251968503937
 30
0.0
 10
0.0017874015748031
 20
-0.3660905511811024
 30
0.0
 10
0.0030944881889764
 20
-0.3664803149606299
 30
0.0
 10
0.0030944881889764
 20
-0.3664803149606299
 30
0.0
 10
0.004011811023622
 20
-0.366755905511811
 30
0.0
 10
0.0066220472440945
 20
-0.3668976377952756
 30
0.0
 10
0.0108976377952756
 20
-0.3668976377952756
 30
0.0
 10
0.0108976377952756
 20
-0.3668976377952756
 30
0.0
 10
0.0108976377952756
 20
-0.3668976377952756
 30
0.0
 10
0.0219803149606299
 20
-0.3668976377952756
 30
0.0
 10
0.0219803149606299
 20
-0.3668976377952756
 30
0.0
 10
0.0219803149606299
 20
-0.3668976377952756
 30
0.0
 10
0.0329251968503937
 20
-0.3668976377952756
 30
0.0
 10
0.040759842519685
 20
-0.3662834645669292
 30
0.0
 10
0.0454527559055118
 20
-0.3650629921259843
 30
0.0
 10
0.0454527559055118
 20
-0.3650629921259843
 30
0.0
 10
0.0501496062992126
 20
-0.3638425196850394
 30
0.0
 10
0.0541496062992126
 20
-0.361255905511811
 30
0.0
 10
0.0574527559055118
 20
-0.3573110236220473
 30
0.0
 10
0.0574527559055118
 20
-0.3573110236220473
 30
0.0
 10
0.060759842519685
 20
-0.3533976377952756
 30
0.0
 10
0.0624251968503937
 20
-0.3486456692913386
 30
0.0
 10
0.0624251968503937
 20
-0.3431181102362205
 30
0.0
 10
0.0624251968503937
 20
-0.3431181102362205
 30
0.0
 10
0.0624251968503937
 20
-0.3384527559055118
 30
0.0
 10
0.0610669291338583
 20
-0.3343149606299213
 30
0.0
 10
0.0583976377952756
 20
-0.3307007874015748
 30
0.0
 10
0.0583976377952756
 20
-0.3307007874015748
 30
0.0
 10
0.0557047244094488
 20
-0.3270905511811024
 30
0.0
 10
0.0519803149606299
 20
-0.324507874015748
 30
0.0
 10
0.0472322834645669
 20
-0.3228976377952756
 30
0.0
 10
0.0472322834645669
 20
-0.3228976377952756
 30
0.0
 10
0.0424803149606299
 20
-0.3212834645669291
 30
0.0
 10
0.0340669291338583
 20
-0.320507874015748
 30
0.0
 10
0.0219803149606299
 20
-0.320507874015748
 30
0.0
 10
0.0219803149606299
 20
-0.320507874015748
 30
0.0
 10
0.0219803149606299
 20
-0.320507874015748
 30
0.0
 10
0.000011811023622
 20
-0.320507874015748
 30
0.0
 10
0.000011811023622
 20
-0.320507874015748
 30
0.0
  0
SPLINE
  5
30
330
1F
100
AcDbEntity
  8
LAYER_1
 62
   250
100
AcDbSpline
210
0.0
220
0.0
230
1.0
 70
    11
 71
     3
 72
   112
 73
   108
 74
     0
 42
0.0000000001
 43
0.0000000001
 40
0.0
 40
0.0
 40
0.0
 40
0.0
 40
0.037037037037037
 40
0.037037037037037
 40
0.037037037037037
 40
0.037037037037037
 40
0.0740740740740741
 40
0.0740740740740741
 40
0.0740740740740741
 40
0.0740740740740741
 40
0.1111111111111111
 40
0.1111111111111111
 40
0.1111111111111111
 40
0.1111111111111111
 40
0.1481481481481481
 40
0.1481481481481481
 40
0.1481481481481481
 40
0.1481481481481481
 40
0.1851851851851852
 40
0.1851851851851852
 40
0.1851851851851852
 40
0.1851851851851852
 40
0.2222222222222222
 40
0.2222222222222222
 40
0.2222222222222222
 40
0.2222222222222222
 40
0.2592592592592592
 40
0.2592592592592592
 40
0.2592592592592592
 40
0.2592592592592592
 40
0.2962962962962963
 40
0.2962962962962963
 40
0.2962962962962963
 40
0.2962962962962963
 40
0.3333333333333333
 40
0.3333333333333333
 40
0.3333333333333333
 40
0.3333333333333333
 40
0.3703703703703704
 40
0.3703703703703704
 40
0.3703703703703704
 40
0.3703703703703704
 40
0.4074074074074074
 40
0.4074074074074074
 40
0.4074074074074074
 40
0.4074074074074074
 40
0.4444444444444444
 40
0.4444444444444444
 40
0.4444444444444444
 40
0.4444444444444444
 40
0.4814814814814815
 40
0.4814814814814815
 40
0.4814814814814815
 40
0.4814814814814815
 40
0.5185185185185185
 40
0.5185185185185185
 40
0.5185185185185185
 40
0.5185185185185185
 40
0.5555555555555556
 40
0.5555555555555556
 40
0.5555555555555556
 40
0.5555555555555556
 40
0.5925925925925926
 40
0.5925925925925926
 40
0.5925925925925926
 40
0.5925925925925926
 40
0.6296296296296295
 40
0.6296296296296295
 40
0.6296296296296295
 40
0.6296296296296295
 40
0.6666666666666665
 40
0.6666666666666665
 40
0.6666666666666665
 40
0.6666666666666665
 40
0.7037037037037035
 40
0.7037037037037035
 40
0.7037037037037035
 40
0.7037037037037035
 40
0.7407407407407405
 40
0.7407407407407405
 40
0.7407407407407405
 40
0.7407407407407405
 40
0.7777777777777775
 40
0.7777777777777775
 40
0.7777777777777775
 40
0.7777777777777775
 40
0.8148148148148144
 40
0.8148148148148144
 40
0.8148148148148144
 40
0.8148148148148144
 40
0.8518518518518514
 40
0.8518518518518514
 40
0.8518518518518514
 40
0.8518518518518514
 40
0.8888888888888884
 40
0.8888888888888884
 40
0.8888888888888884
 40
0.8888888888888884
 40
0.9259259259259254
 40
0.9259259259259254
 40
0.9259259259259254
 40
0.9259259259259254
 40
0.9629629629629624
 40
0.9629629629629624
 40
0.9629629629629624
 40
0.9629629629629624
 40
1.0
 40
1.0
 40
1.0
 40
1.0
 10
0.1371181102362205
 20
-0.2620629921259843
 30
0.0
 10
0.1371181102362205
 20
-0.2620629921259843
 30
0.0
 10
0.1505354330708661
 20
-0.2620629921259843
 30
0.0
 10
0.1505354330708661
 20
-0.2620629921259843
 30
0.0
 10
0.1505354330708661
 20
-0.2620629921259843
 30
0.0
 10
0.1505354330708661
 20
-0.2620629921259843
 30
0.0
 10
0.1857834645669292
 20
-0.3569527559055118
 30
0.0
 10
0.1857834645669292
 20
-0.3569527559055118
 30
0.0
 10
0.1857834645669292
 20
-0.3569527559055118
 30
0.0
 10
0.187507874015748
 20
-0.3617283464566929
 30
0.0
 10
0.189255905511811
 20
-0.3648976377952756
 30
0.0
 10
0.1910354330708662
 20
-0.3664251968503937
 30
0.0
 10
0.1910354330708662
 20
-0.3664251968503937
 30
0.0
 10
0.1927834645669291
 20
-0.3679803149606299
 30
0.0
 10
0.1951732283464567
 20
-0.368755905511811
 30
0.0
 10
0.1981456692913386
 20
-0.368755905511811
 30
0.0
 10
0.1981456692913386
 20
-0.368755905511811
 30
0.0
 10
0.1981456692913386
 20
-0.368755905511811
 30
0.0
 10
0.1999251968503937
 20
-0.368755905511811
 30
0.0
 10
0.1999251968503937
 20
-0.368755905511811
 30
0.0
 10
0.1999251968503937
 20
-0.368755905511811
 30
0.0
 10
0.1999251968503937
 20
-0.368755905511811
 30
0.0
 10
0.1999251968503937
 20
-0.3755905511811024
 30
0.0
 10
0.1999251968503937
 20
-0.3755905511811024
 30
0.0
 10
0.1999251968503937
 20
-0.3755905511811024
 30
0.0
 10
0.1999251968503937
 20
-0.3755905511811024
 30
0.0
 10
0.1594803149606299
 20
-0.3755905511811024
 30
0.0
 10
0.1594803149606299
 20
-0.3755905511811024
 30
0.0
 10
0.1594803149606299
 20
-0.3755905511811024
 30
0.0
 10
0.1594803149606299
 20
-0.3755905511811024
 30
0.0
 10
0.1594803149606299
 20
-0.368755905511811
 30
0.0
 10
0.1594803149606299
 20
-0.368755905511811
 30
0.0
 10
0.1594803149606299
 20
-0.368755905511811
 30
0.0
 10
0.1607834645669291
 20
-0.3686456692913386
 30
0.0
 10
0.1620629921259843
 20
-0.3685905511811024
 30
0.0
 10
0.1633149606299213
 20
-0.3685905511811024
 30
0.0
 10
0.1633149606299213
 20
-0.3685905511811024
 30
0.0
 10
0.1659251968503937
 20
-0.3685905511811024
 30
0.0
 10
0.1676181102362205
 20
-0.3683110236220473
 30
0.0
 10
0.1684527559055118
 20
-0.3677834645669292
 30
0.0
 10
0.1684527559055118
 20
-0.3677834645669292
 30
0.0
 10
0.1700078740157481
 20
-0.366755905511811
 30
0.0
 10
0.1708110236220473
 20
-0.3654527559055119
 30
0.0
 10
0.1708110236220473
 20
-0.3638700787401575
 30
0.0
 10
0.1708110236220473
 20
-0.3638700787401575
 30
0.0
 10
0.1708110236220473
 20
-0.3627283464566929
 30
0.0
 10
0.1700354330708662
 20
-0.3599527559055119
 30
0.0
 10
0.1685354330708662
 20
-0.3554803149606299
 30
0.0
 10
0.1685354330708662
 20
-0.3554803149606299
 30
0.0
 10
0.1685354330708662
 20
-0.3554803149606299
 30
0.0
 10
0.1610354330708662
 20
-0.3335078740157481
 30
0.0
 10
0.1610354330708662
 20
-0.3335078740157481
 30
0.0
 10
0.1610354330708662
 20
-0.3335078740157481
 30
0.0
 10
0.1610354330708662
 20
-0.3335078740157481
 30
0.0
 10
0.1198700787401575
 20
-0.3335078740157481
 30
0.0
 10
0.1198700787401575
 20
-0.3335078740157481
 30
0.0
 10
0.1198700787401575
 20
-0.3335078740157481
 30
0.0
 10
0.1198700787401575
 20
-0.3335078740157481
 30
0.0
 10
0.1110629921259843
 20
-0.3580905511811024
 30
0.0
 10
0.1110629921259843
 20
-0.3580905511811024
 30
0.0
 10
0.1110629921259843
 20
-0.3580905511811024
 30
0.0
 10
0.1101456692913386
 20
-0.3606456692913386
 30
0.0
 10
0.1096732283464567
 20
-0.3623976377952756
 30
0.0
 10
0.1096732283464567
 20
-0.3633976377952756
 30
0.0
 10
0.1096732283464567
 20
-0.3633976377952756
 30
0.0
 10
0.1096732283464567
 20
-0.3644803149606299
 30
0.0
 10
0.1099803149606299
 20
-0.3654251968503937
 30
0.0
 10
0.1105354330708662
 20
-0.3662283464566929
 30
0.0
 10
0.1105354330708662
 20
-0.3662283464566929
 30
0.0
 10
0.1111181102362205
 20
-0.3670354330708662
 30
0.0
 10
0.1118700787401575
 20
-0.3676456692913386
 30
0.0
 10
0.1128700787401575
 20
-0.3680629921259843
 30
0.0
 10
0.1128700787401575
 20
-0.3680629921259843
 30
0.0
 10
0.1138425196850394
 20
-0.3684803149606299
 30
0.0
 10
0.1153976377952756
 20
-0.3686732283464567
 30
0.0
 10
0.1175905511811024
 20
-0.3686732283464567
 30
0.0
 10
0.1175905511811024
 20
-0.3686732283464567
 30
0.0
 10
0.1190354330708661
 20
-0.3686732283464567
 30
0.0
 10
0.1202283464566929
 20
-0.3687007874015748
 30
0.0
 10
0.1211456692913386
 20
-0.368755905511811
 30
0.0
 10
0.1211456692913386
 20
-0.368755905511811
 30
0.0
 10
0.1211456692913386
 20
-0.368755905511811
 30
0.0
 10
0.1211456692913386
 20
-0.3755905511811024
 30
0.0
 10
0.1211456692913386
 20
-0.3755905511811024
 30
0.0
 10
0.1211456692913386
 20
-0.3755905511811024
 30
0.0
 10
0.1211456692913386
 20
-0.3755905511811024
 30
0.0
 10
0.0872283464566929
 20
-0.3755905511811024
 30
0.0
 10
0.0872283464566929
 20
-0.3755905511811024
 30
0.0
 10
0.0872283464566929
 20
-0.3755905511811024
 30
0.0
 10
0.0872283464566929
 20
-0.3755905511811024
 30
0.0
 10
0.0872283464566929
 20
-0.368755905511811
 30
0.0
 10
0.0872283464566929
 20
-0.368755905511811
 30
0.0
 10
0.0872283464566929
 20
-0.368755905511811
 30
0.0
 10
0.0903700787401575
 20
-0.368755905511811
 30
0.0
 10
0.0926456692913386
 20
-0.3684527559055118
 30
0.0
 10
0.094007874015748
 20
-0.3678110236220473
 30
0.0
 10
0.094007874015748
 20
-0.3678110236220473
 30
0.0
 10
0.0953976377952756
 20
-0.3672007874015748
 30
0.0
 10
0.0966181102362205
 20
-0.3662007874015748
 30
0.0
 10
0.0976456692913386
 20
-0.3648110236220473
 30
0.0
 10
0.0976456692913386
 20
-0.3648110236220473
 30
0.0
 10
0.0986732283464567
 20
-0.3634251968503937
 30
0.0
 10
0.1000354330708661
 20
-0.360507874015748
 30
0.0
 10
0.1017007874015748
 20
-0.3560629921259843
 30
0.0
 10
0.1017007874015748
 20
-0.3560629921259843
 30
0.0
 10
0.1017007874015748
 20
-0.3560629921259843
 30
0.0
 10
0.1371181102362205
 20
-0.2620629921259843
 30
0.0
 10
0.1371181102362205
 20
-0.2620629921259843
 30
0.0
  0
SPLINE
  5
31
330
1F
100
AcDbEntity
  8
LAYER_1
 62
   250
100
AcDbSpline
210
0.0
220
0.0
230
1.0
 70
    11
 71
     3
 72
    16
 73
    12
 74
     0
 42
0.0000000001
 43
0.0000000001
 40
0.0
 40
0.0
 40
0.0
 40
0.0
 40
0.3333333333333333
 40
0.3333333333333333
 40
0.3333333333333333
 40
0.3333333333333333
 40
0.6666666666666666
 40
0.6666666666666666
 40
0.6666666666666666
 40
0.6666666666666666
 40
1.0
 40
1.0
 40
1.0
 40
1.0
 10
0.1228700787401575
 20
-0.3255354330708661
 30
0.0
 10
0.1228700787401575
 20
-0.3255354330708661
 30
0.0
 10
0.1579527559055118
 20
-0.3255354330708661
 30
0.0
 10
0.1579527559055118
 20
-0.3255354330708661
 30
0.0
 10
0.1579527559055118
 20
-0.3255354330708661
 30
0.0
 10
0.1579527559055118
 20
-0.3255354330708661
 30
0.0
 10
0.1403700787401575
 20
-0.2767007874015748
 30
0.0
 10
0.1403700787401575
 20
-0.2767007874015748
 30
0.0
 10
0.1403700787401575
 20
-0.2767007874015748
 30
0.0
 10
0.1403700787401575
 20
-0.2767007874015748
 30
0.0
 10
0.1228700787401575
 20
-0.3255354330708661
 30
0.0
 10
0.1228700787401575
 20
-0.3255354330708661
 30
0.0
  0
SPLINE
  5
32
330
1F
100
AcDbEntity
  8
LAYER_1
 62
   250
100
AcDbSpline
210
0.0
220
0.0
230
1.0
 70
    11
 71
     3
 72
    72
 73
    68
 74
     0
 42
0.0000000001
 43
0.0000000001
 40
0.0
 40
0.0
 40
0.0
 40
0.0
 40
0.0588235294117647
 40
0.0588235294117647
 40
0.0588235294117647
 40
0.0588235294117647
 40
0.1176470588235294
 40
0.1176470588235294
 40
0.1176470588235294
 40
0.1176470588235294
 40
0.1764705882352941
 40
0.1764705882352941
 40
0.1764705882352941
 40
0.1764705882352941
 40
0.2352941176470588
 40
0.2352941176470588
 40
0.2352941176470588
 40
0.2352941176470588
 40
0.2941176470588235
 40
0.2941176470588235
 40
0.2941176470588235
 40
0.2941176470588235
 40
0.3529411764705883
 40
0.3529411764705883
 40
0.3529411764705883
 40
0.3529411764705883
 40
0.411764705882353
 40
0.411764705882353
 40
0.411764705882353
 40
0.411764705882353
 40
0.4705882352941177
 40
0.4705882352941177
 40
0.4705882352941177
 40
0.4705882352941177
 40
0.5294117647058824
 40
0.5294117647058824
 40
0.5294117647058824
 40
0.5294117647058824
 40
0.5882352941176471
 40
0.5882352941176471
 40
0.5882352941176471
 40
0.5882352941176471
 40
0.6470588235294118
 40
0.6470588235294118
 40
0.6470588235294118
 40
0.6470588235294118
 40
0.7058823529411765
 40
0.7058823529411765
 40
0.7058823529411765
 40
0.7058823529411765
 40
0.7647058823529412
 40
0.7647058823529412
 40
0.7647058823529412
 40
0.7647058823529412
 40
0.823529411764706
 40
0.823529411764706
 40
0.823529411764706
 40
0.823529411764706
 40
0.8823529411764707
 40
0.8823529411764707
 40
0.8823529411764707
 40
0.8823529411764707
 40
0.9411764705882354
 40
0.9411764705882354
 40
0.9411764705882354
 40
0.9411764705882354
 40
1.0
 40
1.0
 40
1.0
 40
1.0
 10
0.3629527559055119
 20
-0.2620629921259843
 30
0.0
 10
0.3629527559055119
 20
-0.2620629921259843
 30
0.0
 10
0.3690354330708662
 20
-0.2620629921259843
 30
0.0
 10
0.3690354330708662
 20
-0.2620629921259843
 30
0.0
 10
0.3690354330708662
 20
-0.2620629921259843
 30
0.0
 10
0.3690354330708662
 20
-0.2620629921259843
 30
0.0
 10
0.3690354330708662
 20
-0.3563110236220473
 30
0.0
 10
0.3690354330708662
 20
-0.3563110236220473
 30
0.0
 10
0.3690354330708662
 20
-0.3563110236220473
 30
0.0
 10
0.3690354330708662
 20
-0.360755905511811
 30
0.0
 10
0.3693425196850394
 20
-0.3636181102362205
 30
0.0
 10
0.3698976377952756
 20
-0.3648976377952756
 30
0.0
 10
0.3698976377952756
 20
-0.3648976377952756
 30
0.0
 10
0.3704803149606299
 20
-0.3661732283464567
 30
0.0
 10
0.3713976377952756
 20
-0.3671181102362205
 30
0.0
 10
0.3727007874015748
 20
-0.3677834645669292
 30
0.0
 10
0.3727007874015748
 20
-0.3677834645669292
 30
0.0
 10
0.374007874015748
 20
-0.3684251968503937
 30
0.0
 10
0.3765905511811024
 20
-0.368755905511811
 30
0.0
 10
0.3804527559055118
 20
-0.368755905511811
 30
0.0
 10
0.3804527559055118
 20
-0.368755905511811
 30
0.0
 10
0.3804527559055118
 20
-0.368755905511811
 30
0.0
 10
0.3884251968503937
 20
-0.368755905511811
 30
0.0
 10
0.3884251968503937
 20
-0.368755905511811
 30
0.0
 10
0.3884251968503937
 20
-0.368755905511811
 30
0.0
 10
0.3884251968503937
 20
-0.368755905511811
 30
0.0
 10
0.3884251968503937
 20
-0.3755905511811024
 30
0.0
 10
0.3884251968503937
 20
-0.3755905511811024
 30
0.0
 10
0.3884251968503937
 20
-0.3755905511811024
 30
0.0
 10
0.3884251968503937
 20
-0.3755905511811024
 30
0.0
 10
0.3347874015748032
 20
-0.3755905511811024
 30
0.0
 10
0.3347874015748032
 20
-0.3755905511811024
 30
0.0
 10
0.3347874015748032
 20
-0.3755905511811024
 30
0.0
 10
0.3347874015748032
 20
-0.3755905511811024
 30
0.0
 10
0.3347874015748032
 20
-0.368755905511811
 30
0.0
 10
0.3347874015748032
 20
-0.368755905511811
 30
0.0
 10
0.3347874015748032
 20
-0.368755905511811
 30
0.0
 10
0.3347874015748032
 20
-0.368755905511811
 30
0.0
 10
0.3436456692913386
 20
-0.368755905511811
 30
0.0
 10
0.3436456692913386
 20
-0.368755905511811
 30
0.0
 10
0.3436456692913386
 20
-0.368755905511811
 30
0.0
 10
0.3475078740157481
 20
-0.368755905511811
 30
0.0
 10
0.3500629921259842
 20
-0.3684251968503937
 30
0.0
 10
0.3513425196850394
 20
-0.3677283464566929
 30
0.0
 10
0.3513425196850394
 20
-0.3677283464566929
 30
0.0
 10
0.3526181102362205
 20
-0.3670629921259843
 30
0.0
 10
0.3536181102362205
 20
-0.3659803149606299
 30
0.0
 10
0.3543149606299213
 20
-0.3644803149606299
 30
0.0
 10
0.3543149606299213
 20
-0.3644803149606299
 30
0.0
 10
0.3550078740157481
 20
-0.3629803149606299
 30
0.0
 10
0.3553700787401575
 20
-0.360255905511811
 30
0.0
 10
0.3553700787401575
 20
-0.3563110236220473
 30
0.0
 10
0.3553700787401575
 20
-0.3563110236220473
 30
0.0
 10
0.3553700787401575
 20
-0.3563110236220473
 30
0.0
 10
0.3553700787401575
 20
-0.2788425196850394
 30
0.0
 10
0.3553700787401575
 20
-0.2788425196850394
 30
0.0
 10
0.3553700787401575
 20
-0.2788425196850394
 30
0.0
 10
0.3553700787401575
 20
-0.2788425196850394
 30
0.0
 10
0.3347874015748032
 20
-0.2788425196850394
 30
0.0
 10
0.3347874015748032
 20
-0.2788425196850394
 30
0.0
 10
0.3347874015748032
 20
-0.2788425196850394
 30
0.0
 10
0.3347874015748032
 20
-0.2788425196850394
 30
0.0
 10
0.3347874015748032
 20
-0.2718425196850394
 30
0.0
 10
0.3347874015748032
 20
-0.2718425196850394
 30
0.0
 10
0.3347874015748032
 20
-0.2718425196850394
 30
0.0
 10
0.3460078740157481
 20
-0.2702598425196851
 30
0.0
 10
0.3553976377952756
 20
-0.2670078740157481
 30
0.0
 10
0.3629527559055119
 20
-0.2620629921259843
 30
0.0
  0
SPLINE
  5
33
330
1F
100
AcDbEntity
  8
LAYER_1
 62
   250
100
AcDbSpline
210
0.0
220
0.0
230
1.0
 70
    11
 71
     3
 72
    80
 73
    76
 74
     0
 42
0.0000000001
 43
0.0000000001
 40
0.0
 40
0.0
 40
0.0
 40
0.0
 40
0.0526315789473684
 40
0.0526315789473684
 40
0.0526315789473684
 40
0.0526315789473684
 40
0.1052631578947368
 40
0.1052631578947368
 40
0.1052631578947368
 40
0.1052631578947368
 40
0.1578947368421053
 40
0.1578947368421053
 40
0.1578947368421053
 40
0.1578947368421053
 40
0.2105263157894737
 40
0.2105263157894737
 40
0.2105263157894737
 40
0.2105263157894737
 40
0.2631578947368421
 40
0.2631578947368421
 40
0.2631578947368421
 40
0.2631578947368421
 40
0.3157894736842105
 40
0.3157894736842105
 40
0.3157894736842105
 40
0.3157894736842105
 40
0.3684210526315789
 40
0.3684210526315789
 40
0.3684210526315789
 40
0.3684210526315789
 40
0.4210526315789474
 40
0.4210526315789474
 40
0.4210526315789474
 40
0.4210526315789474
 40
0.4736842105263158
 40
0.4736842105263158
 40
0.4736842105263158
 40
0.4736842105263158
 40
0.5263157894736842
 40
0.5263157894736842
 40
0.5263157894736842
 40
0.5263157894736842
 40
0.5789473684210527
 40
0.5789473684210527
 40
0.5789473684210527
 40
0.5789473684210527
 40
0.631578947368421
 40
0.631578947368421
 40
0.631578947368421
 40
0.631578947368421
 40
0.6842105263157894
 40
0.6842105263157894
 40
0.6842105263157894
 40
0.6842105263157894
 40
0.7368421052631577
 40
0.7368421052631577
 40
0.7368421052631577
 40
0.7368421052631577
 40
0.7894736842105261
 40
0.7894736842105261
 40
0.7894736842105261
 40
0.7894736842105261
 40
0.8421052631578945
 40
0.8421052631578945
 40
0.8421052631578945
 40
0.8421052631578945
 40
0.8947368421052628
 40
0.8947368421052628
 40
0.8947368421052628
 40
0.8947368421052628
 40
0.9473684210526312
 40
0.9473684210526312
 40
0.9473684210526312
 40
0.9473684210526312
 40
1.0
 40
1.0
 40
1.0
 40
1.0
 10
0.4283700787401575
 20
-0.2579251968503937
 30
0.0
 10
0.4283700787401575
 20
-0.2579251968503937
 30
0.0
 10
0.4337598425196851
 20
-0.2579251968503937
 30
0.0
 10
0.4337598425196851
 20
-0.2579251968503937
 30
0.0
 10
0.4337598425196851
 20
-0.2579251968503937
 30
0.0
 10
0.4337598425196851
 20
-0.2579251968503937
 30
0.0
 10
0.4347322834645669
 20
-0.2620629921259843
 30
0.0
 10
0.4347322834645669
 20
-0.2620629921259843
 30
0.0
 10
0.4347322834645669
 20
-0.2620629921259843
 30
0.0
 10
0.4347322834645669
 20
-0.2620629921259843
 30
0.0
 10
0.5058425196850394
 20
-0.2620629921259843
 30
0.0
 10
0.5058425196850394
 20
-0.2620629921259843
 30
0.0
 10
0.5058425196850394
 20
-0.2620629921259843
 30
0.0
 10
0.5058425196850394
 20
-0.2620629921259843
 30
0.0
 10
0.5058425196850394
 20
-0.2689803149606299
 30
0.0
 10
0.5058425196850394
 20
-0.2689803149606299
 30
0.0
 10
0.5058425196850394
 20
-0.2689803149606299
 30
0.0
 10
0.4973425196850394
 20
-0.2788149606299213
 30
0.0
 10
0.4896181102362205
 20
-0.2899803149606299
 30
0.0
 10
0.4827047244094488
 20
-0.3025629921259843
 30
0.0
 10
0.4827047244094488
 20
-0.3025629921259843
 30
0.0
 10
0.4757874015748032
 20
-0.3151181102362205
 30
0.0
 10
0.4704251968503938
 20
-0.3278976377952756
 30
0.0
 10
0.4666181102362205
 20
-0.3409251968503937
 30
0.0
 10
0.4666181102362205
 20
-0.3409251968503937
 30
0.0
 10
0.4638700787401575
 20
-0.3503110236220473
 30
0.0
 10
0.4616220472440945
 20
-0.3618700787401575
 30
0.0
 10
0.4598700787401575
 20
-0.3755905511811024
 30
0.0
 10
0.4598700787401575
 20
-0.3755905511811024
 30
0.0
 10
0.4598700787401575
 20
-0.3755905511811024
 30
0.0
 10
0.4432047244094489
 20
-0.3755905511811024
 30
0.0
 10
0.4432047244094489
 20
-0.3755905511811024
 30
0.0
 10
0.4432047244094489
 20
-0.3755905511811024
 30
0.0
 10
0.4448149606299213
 20
-0.3634803149606299
 30
0.0
 10
0.44748031496063
 20
-0.3521732283464567
 30
0.0
 10
0.4512047244094488
 20
-0.3416456692913386
 30
0.0
 10
0.4512047244094488
 20
-0.3416456692913386
 30
0.0
 10
0.4549251968503937
 20
-0.3311181102362205
 30
0.0
 10
0.4602874015748032
 20
-0.3201181102362205
 30
0.0
 10
0.4673149606299213
 20
-0.3086456692913386
 30
0.0
 10
0.4673149606299213
 20
-0.3086456692913386
 30
0.0
 10
0.4743425196850394
 20
-0.2971732283464567
 30
0.0
 10
0.4828700787401575
 20
-0.2857283464566929
 30
0.0
 10
0.4929251968503937
 20
-0.2742874015748031
 30
0.0
 10
0.4929251968503937
 20
-0.2742874015748031
 30
0.0
 10
0.4929251968503937
 20
-0.2742874015748031
 30
0.0
 10
0.4422047244094489
 20
-0.2742874015748031
 30
0.0
 10
0.4422047244094489
 20
-0.2742874015748031
 30
0.0
 10
0.4422047244094489
 20
-0.2742874015748031
 30
0.0
 10
0.4385354330708662
 20
-0.2742874015748031
 30
0.0
 10
0.436007874015748
 20
-0.2744527559055118
 30
0.0
 10
0.4346496062992126
 20
-0.2748425196850394
 30
0.0
 10
0.4346496062992126
 20
-0.2748425196850394
 30
0.0
 10
0.4332874015748032
 20
-0.2752283464566929
 30
0.0
 10
0.4322322834645669
 20
-0.2758149606299213
 30
0.0
 10
0.4314803149606299
 20
-0.2766181102362205
 30
0.0
 10
0.4314803149606299
 20
-0.2766181102362205
 30
0.0
 10
0.4307047244094489
 20
-0.2774527559055118
 30
0.0
 10
0.4300629921259843
 20
-0.2788976377952756
 30
0.0
 10
0.429507874015748
 20
-0.2809527559055118
 30
0.0
 10
0.429507874015748
 20
-0.2809527559055118
 30
0.0
 10
0.429507874015748
 20
-0.2809527559055118
 30
0.0
 10
0.4291220472440945
 20
-0.2824803149606299
 30
0.0
 10
0.4291220472440945
 20
-0.2824803149606299
 30
0.0
 10
0.4291220472440945
 20
-0.2824803149606299
 30
0.0
 10
0.4291220472440945
 20
-0.2824803149606299
 30
0.0
 10
0.4263425196850394
 20
-0.2920905511811024
 30
0.0
 10
0.4263425196850394
 20
-0.2920905511811024
 30
0.0
 10
0.4263425196850394
 20
-0.2920905511811024
 30
0.0
 10
0.4263425196850394
 20
-0.2920905511811024
 30
0.0
 10
0.4194251968503937
 20
-0.2906181102362205
 30
0.0
 10
0.4194251968503937
 20
-0.2906181102362205
 30
0.0
 10
0.4194251968503937
 20
-0.2906181102362205
 30
0.0
 10
0.4194251968503937
 20
-0.2906181102362205
 30
0.0
 10
0.4283700787401575
 20
-0.2579251968503937
 30
0.0
 10
0.4283700787401575
 20
-0.2579251968503937
 30
0.0
  0
SPLINE
  5
34
330
1F
100
AcDbEntity
  8
LAYER_1
 62
   250
100
AcDbSpline
210
0.0
220
0.0
230
1.0
 70
    11
 71
     3
 72
   136
 73
   132
 74
     0
 42
0.0000000001
 43
0.0000000001
 40
0.0
 40
0.0
 40
0.0
 40
0.0
 40
0.0303030303030303
 40
0.0303030303030303
 40
0.0303030303030303
 40
0.0303030303030303
 40
0.0606060606060606
 40
0.0606060606060606
 40
0.0606060606060606
 40
0.0606060606060606
 40
0.0909090909090909
 40
0.0909090909090909
 40
0.0909090909090909
 40
0.0909090909090909
 40
0.1212121212121212
 40
0.1212121212121212
 40
0.1212121212121212
 40
0.1212121212121212
 40
0.1515151515151515
 40
0.1515151515151515
 40
0.1515151515151515
 40
0.1515151515151515
 40
0.1818181818181818
 40
0.1818181818181818
 40
0.1818181818181818
 40
0.1818181818181818
 40
0.2121212121212121
 40
0.2121212121212121
 40
0.2121212121212121
 40
0.2121212121212121
 40
0.2424242424242424
 40
0.2424242424242424
 40
0.2424242424242424
 40
0.2424242424242424
 40
0.2727272727272727
 40
0.2727272727272727
 40
0.2727272727272727
 40
0.2727272727272727
 40
0.303030303030303
 40
0.303030303030303
 40
0.303030303030303
 40
0.303030303030303
 40
0.3333333333333333
 40
0.3333333333333333
 40
0.3333333333333333
 40
0.3333333333333333
 40
0.3636363636363635
 40
0.3636363636363635
 40
0.3636363636363635
 40
0.3636363636363635
 40
0.3939393939393938
 40
0.3939393939393938
 40
0.3939393939393938
 40
0.3939393939393938
 40
0.4242424242424241
 40
0.4242424242424241
 40
0.4242424242424241
 40
0.4242424242424241
 40
0.4545454545454544
 40
0.4545454545454544
 40
0.4545454545454544
 40
0.4545454545454544
 40
0.4848484848484846
 40
0.4848484848484846
 40
0.4848484848484846
 40
0.4848484848484846
 40
0.5151515151515149
 40
0.5151515151515149
 40
0.5151515151515149
 40
0.5151515151515149
 40
0.5454545454545452
 40
0.5454545454545452
 40
0.5454545454545452
 40
0.5454545454545452
 40
0.5757575757575755
 40
0.5757575757575755
 40
0.5757575757575755
 40
0.5757575757575755
 40
0.6060606060606057
 40
0.6060606060606057
 40
0.6060606060606057
 40
0.6060606060606057
 40
0.636363636363636
 40
0.636363636363636
 40
0.636363636363636
 40
0.636363636363636
 40
0.6666666666666663
 40
0.6666666666666663
 40
0.6666666666666663
 40
0.6666666666666663
 40
0.6969696969696966
 40
0.6969696969696966
 40
0.6969696969696966
 40
0.6969696969696966
 40
0.7272727272727269
 40
0.7272727272727269
 40
0.7272727272727269
 40
0.7272727272727269
 40
0.7575757575757571
 40
0.7575757575757571
 40
0.7575757575757571
 40
0.7575757575757571
 40
0.7878787878787874
 40
0.7878787878787874
 40
0.7878787878787874
 40
0.7878787878787874
 40
0.8181818181818177
 40
0.8181818181818177
 40
0.8181818181818177
 40
0.8181818181818177
 40
0.848484848484848
 40
0.848484848484848
 40
0.848484848484848
 40
0.848484848484848
 40
0.8787878787878782
 40
0.8787878787878782
 40
0.8787878787878782
 40
0.8787878787878782
 40
0.9090909090909085
 40
0.9090909090909085
 40
0.9090909090909085
 40
0.9090909090909085
 40
0.9393939393939388
 40
0.9393939393939388
 40
0.9393939393939388
 40
0.9393939393939388
 40
0.9696969696969691
 40
0.9696969696969691
 40
0.9696969696969691
 40
0.9696969696969691
 40
1.0
 40
1.0
 40
1.0
 40
1.0
 10
0.5325669291338583
 20
-0.3048700787401575
 30
0.0
 10
0.5325669291338583
 20
-0.3048700787401575
 30
0.0
 10
0.5246771653543307
 20
-0.3058425196850394
 30
0.0
 10
0.5246771653543307
 20
-0.3058425196850394
 30
0.0
 10
0.5246771653543307
 20
-0.3058425196850394
 30
0.0
 10
0.524232283464567
 20
-0.302007874015748
 30
0.0
 10
0.524011811023622
 20
-0.2988425196850394
 30
0.0
 10
0.524011811023622
 20
-0.2963976377952756
 30
0.0
 10
0.524011811023622
 20
-0.2963976377952756
 30
0.0
 10
0.524011811023622
 20
-0.2900078740157481
 30
0.0
 10
0.5257598425196851
 20
-0.2839527559055118
 30
0.0
 10
0.529232283464567
 20
-0.2782598425196851
 30
0.0
 10
0.529232283464567
 20
-0.2782598425196851
 30
0.0
 10
0.5327047244094488
 20
-0.2725629921259843
 30
0.0
 10
0.5375393700787402
 20
-0.2681181102362205
 30
0.0
 10
0.543759842519685
 20
-0.2649251968503937
 30
0.0
 10
0.543759842519685
 20
-0.2649251968503937
 30
0.0
 10
0.5499527559055119
 20
-0.2617007874015748
 30
0.0
 10
0.5570944881889764
 20
-0.2601181102362205
 30
0.0
 10
0.5651220472440945
 20
-0.2601181102362205
 30
0.0
 10
0.5651220472440945
 20
-0.2601181102362205
 30
0.0
 10
0.5728700787401575
 20
-0.2601181102362205
 30
0.0
 10
0.5796771653543308
 20
-0.2616181102362205
 30
0.0
 10
0.5855393700787401
 20
-0.2646181102362205
 30
0.0
 10
0.5855393700787401
 20
-0.2646181102362205
 30
0.0
 10
0.5913976377952757
 20
-0.2676456692913386
 30
0.0
 10
0.5958700787401575
 20
-0.2717598425196851
 30
0.0
 10
0.5990078740157481
 20
-0.2770078740157481
 30
0.0
 10
0.5990078740157481
 20
-0.2770078740157481
 30
0.0
 10
0.6021220472440945
 20
-0.2822283464566929
 30
0.0
 10
0.6036771653543307
 20
-0.2882007874015748
 30
0.0
 10
0.6036771653543307
 20
-0.2949527559055118
 30
0.0
 10
0.6036771653543307
 20
-0.2949527559055118
 30
0.0
 10
0.6036771653543307
 20
-0.3006456692913386
 30
0.0
 10
0.6026771653543307
 20
-0.3059251968503937
 30
0.0
 10
0.6006220472440945
 20
-0.310755905511811
 30
0.0
 10
0.6006220472440945
 20
-0.310755905511811
 30
0.0
 10
0.5985944881889764
 20
-0.3156181102362205
 30
0.0
 10
0.5953149606299213
 20
-0.3205354330708661
 30
0.0
 10
0.5908149606299213
 20
-0.3254527559055118
 30
0.0
 10
0.5908149606299213
 20
-0.3254527559055118
 30
0.0
 10
0.5874527559055118
 20
-0.3291456692913386
 30
0.0
 10
0.5806496062992126
 20
-0.3347834645669292
 30
0.0
 10
0.5703976377952756
 20
-0.3423976377952756
 30
0.0
 10
0.5703976377952756
 20
-0.3423976377952756
 30
0.0
 10
0.5574842519685039
 20
-0.3520354330708662
 30
0.0
 10
0.5475944881889764
 20
-0.3590354330708662
 30
0.0
 10
0.5407047244094488
 20
-0.3633976377952756
 30
0.0
 10
0.5407047244094488
 20
-0.3633976377952756
 30
0.0
 10
0.5407047244094488
 20
-0.3633976377952756
 30
0.0
 10
0.5830118110236221
 20
-0.3633976377952756
 30
0.0
 10
0.5830118110236221
 20
-0.3633976377952756
 30
0.0
 10
0.5830118110236221
 20
-0.3633976377952756
 30
0.0
 10
0.5880118110236221
 20
-0.3633976377952756
 30
0.0
 10
0.5912598425196851
 20
-0.3629251968503937
 30
0.0
 10
0.5927874015748031
 20
-0.362007874015748
 30
0.0
 10
0.5927874015748031
 20
-0.362007874015748
 30
0.0
 10
0.5948976377952756
 20
-0.3608110236220473
 30
0.0
 10
0.5963425196850394
 20
-0.3580354330708662
 30
0.0
 10
0.5970944881889764
 20
-0.3537007874015748
 30
0.0
 10
0.5970944881889764
 20
-0.3537007874015748
 30
0.0
 10
0.5970944881889764
 20
-0.3537007874015748
 30
0.0
 10
0.5978149606299212
 20
-0.3490629921259842
 30
0.0
 10
0.5978149606299212
 20
-0.3490629921259842
 30
0.0
 10
0.5978149606299212
 20
-0.3490629921259842
 30
0.0
 10
0.5978149606299212
 20
-0.3490629921259842
 30
0.0
 10
0.604732283464567
 20
-0.3490629921259842
 30
0.0
 10
0.604732283464567
 20
-0.3490629921259842
 30
0.0
 10
0.604732283464567
 20
-0.3490629921259842
 30
0.0
 10
0.604732283464567
 20
-0.3490629921259842
 30
0.0
 10
0.5992047244094488
 20
-0.3796456692913386
 30
0.0
 10
0.5992047244094488
 20
-0.3796456692913386
 30
0.0
 10
0.5992047244094488
 20
-0.3796456692913386
 30
0.0
 10
0.5992047244094488
 20
-0.3796456692913386
 30
0.0
 10
0.5940118110236221
 20
-0.3796456692913386
 30
0.0
 10
0.5940118110236221
 20
-0.3796456692913386
 30
0.0
 10
0.5940118110236221
 20
-0.3796456692913386
 30
0.0
 10
0.5940118110236221
 20
-0.3796456692913386
 30
0.0
 10
0.5930944881889764
 20
-0.3755905511811024
 30
0.0
 10
0.5930944881889764
 20
-0.3755905511811024
 30
0.0
 10
0.5930944881889764
 20
-0.3755905511811024
 30
0.0
 10
0.5930944881889764
 20
-0.3755905511811024
 30
0.0
 10
0.521984251968504
 20
-0.3755905511811024
 30
0.0
 10
0.521984251968504
 20
-0.3755905511811024
 30
0.0
 10
0.521984251968504
 20
-0.3755905511811024
 30
0.0
 10
0.521984251968504
 20
-0.3755905511811024
 30
0.0
 10
0.521984251968504
 20
-0.368755905511811
 30
0.0
 10
0.521984251968504
 20
-0.368755905511811
 30
0.0
 10
0.521984251968504
 20
-0.368755905511811
 30
0.0
 10
0.521984251968504
 20
-0.368755905511811
 30
0.0
 10
0.5350118110236221
 20
-0.3588976377952756
 30
0.0
 10
0.5350118110236221
 20
-0.3588976377952756
 30
0.0
 10
0.5350118110236221
 20
-0.3588976377952756
 30
0.0
 10
0.5448700787401575
 20
-0.3515905511811024
 30
0.0
 10
0.5521220472440945
 20
-0.3459803149606299
 30
0.0
 10
0.5567322834645669
 20
-0.3420629921259843
 30
0.0
 10
0.5567322834645669
 20
-0.3420629921259843
 30
0.0
 10
0.5654527559055118
 20
-0.3346732283464567
 30
0.0
 10
0.5720393700787402
 20
-0.3283700787401575
 30
0.0
 10
0.5764527559055118
 20
-0.3231456692913386
 30
0.0
 10
0.5764527559055118
 20
-0.3231456692913386
 30
0.0
 10
0.5808700787401575
 20
-0.3178976377952756
 30
0.0
 10
0.5839251968503937
 20
-0.3131732283464567
 30
0.0
 10
0.5855669291338583
 20
-0.3089803149606299
 30
0.0
 10
0.5855669291338583
 20
-0.3089803149606299
 30
0.0
 10
0.5872322834645669
 20
-0.3047874015748032
 30
0.0
 10
0.5880669291338583
 20
-0.3003700787401575
 30
0.0
 10
0.5880669291338583
 20
-0.295755905511811
 30
0.0
 10
0.5880669291338583
 20
-0.295755905511811
 30
0.0
 10
0.5880669291338583
 20
-0.2881181102362205
 30
0.0
 10
0.5855944881889764
 20
-0.2818425196850394
 30
0.0
 10
0.5807047244094489
 20
-0.2769527559055118
 30
0.0
 10
0.5807047244094489
 20
-0.2769527559055118
 30
0.0
 10
0.5757874015748031
 20
-0.2720629921259843
 30
0.0
 10
0.5693976377952756
 20
-0.2696456692913386
 30
0.0
 10
0.5615393700787402
 20
-0.2696456692913386
 30
0.0
 10
0.5615393700787402
 20
-0.2696456692913386
 30
0.0
 10
0.5558976377952756
 20
-0.2696456692913386
 30
0.0
 10
0.5508425196850394
 20
-0.2708425196850394
 30
0.0
 10
0.5464251968503937
 20
-0.2732874015748031
 30
0.0
 10
0.5464251968503937
 20
-0.2732874015748031
 30
0.0
 10
0.5420118110236221
 20
-0.2757283464566929
 30
0.0
 10
0.5385393700787402
 20
-0.2791456692913386
 30
0.0
 10
0.535984251968504
 20
-0.2835629921259842
 30
0.0
 10
0.535984251968504
 20
-0.2835629921259842
 30
0.0
 10
0.5334251968503937
 20
-0.2879527559055118
 30
0.0
 10
0.5321496062992126
 20
-0.2927007874015748
 30
0.0
 10
0.5321496062992126
 20
-0.2977874015748032
 30
0.0
 10
0.5321496062992126
 20
-0.2977874015748032
 30
0.0
 10
0.5321496062992126
 20
-0.2997007874015748
 30
0.0
 10
0.5322874015748031
 20
-0.3020629921259843
 30
0.0
 10
0.5325669291338583
 20
-0.3048700787401575
 30
0.0
  0
SPLINE
  5
35
330
1F
100
AcDbEntity
  8
LAYER_1
 62
   250
100
AcDbSpline
210
0.0
220
0.0
230
1.0
 70
    11
 71
     3
 72
    84
 73
    80
 74
     0
 42
0.0000000001
 43
0.0000000001
 40
0.0
 40
0.0
 40
0.0
 40
0.0
 40
0.05
 40
0.05
 40
0.05
 40
0.05
 40
0.1
 40
0.1
 40
0.1
 40
0.1
 40
0.15
 40
0.15
 40
0.15
 40
0.15
 40
0.2
 40
0.2
 40
0.2
 40
0.2
 40
0.25
 40
0.25
 40
0.25
 40
0.25
 40
0.3
 40
0.3
 40
0.3
 40
0.3
 40
0.35
 40
0.35
 40
0.35
 40
0.35
 40
0.4
 40
0.4
 40
0.4
 40
0.4
 40
0.45
 40
0.45
 40
0.45
 40
0.45
 40
0.4999999999999999
 40
0.4999999999999999
 40
0.4999999999999999
 40
0.4999999999999999
 40
0.5499999999999999
 40
0.5499999999999999
 40
0.5499999999999999
 40
0.5499999999999999
 40
0.6
 40
0.6
 40
0.6
 40
0.6
 40
0.65
 40
0.65
 40
0.65
 40
0.65
 40
0.7000000000000001
 40
0.7000000000000001
 40
0.7000000000000001
 40
0.7000000000000001
 40
0.7500000000000001
 40
0.7500000000000001
 40
0.7500000000000001
 40
0.7500000000000001
 40
0.8000000000000002
 40
0.8000000000000002
 40
0.8000000000000002
 40
0.8000000000000002
 40
0.8500000000000002
 40
0.8500000000000002
 40
0.8500000000000002
 40
0.8500000000000002
 40
0.9000000000000002
 40
0.9000000000000002
 40
0.9000000000000002
 40
0.9000000000000002
 40
0.9500000000000003
 40
0.9500000000000003
 40
0.9500000000000003
 40
0.9500000000000003
 40
1.0
 40
1.0
 40
1.0
 40
1.0
 10
0.6361496062992126
 20
-0.3775354330708662
 30
0.0
 10
0.6361496062992126
 20
-0.3775354330708662
 30
0.0
 10
0.6361496062992126
 20
-0.3699803149606299
 30
0.0
 10
0.6361496062992126
 20
-0.3699803149606299
 30
0.0
 10
0.6361496062992126
 20
-0.3699803149606299
 30
0.0
 10
0.6496220472440946
 20
-0.3698110236220473
 30
0.0
 10
0.6604842519685039
 20
-0.3678700787401575
 30
0.0
 10
0.668759842519685
 20
-0.3641456692913386
 30
0.0
 10
0.668759842519685
 20
-0.3641456692913386
 30
0.0
 10
0.6770393700787402
 20
-0.3604527559055119
 30
0.0
 10
0.6830944881889765
 20
-0.3548425196850394
 30
0.0
 10
0.686984251968504
 20
-0.3473425196850394
 30
0.0
 10
0.686984251968504
 20
-0.3473425196850394
 30
0.0
 10
0.6908740157480315
 20
-0.3398700787401575
 30
0.0
 10
0.6930393700787402
 20
-0.3307007874015748
 30
0.0
 10
0.6935393700787402
 20
-0.3198425196850394
 30
0.0
 10
0.6935393700787402
 20
-0.3198425196850394
 30
0.0
 10
0.690759842519685
 20
-0.3240629921259843
 30
0.0
 10
0.6879291338582677
 20
-0.3273700787401575
 30
0.0
 10
0.6850393700787402
 20
-0.3297007874015748
 30
0.0
 10
0.6850393700787402
 20
-0.3297007874015748
 30
0.0
 10
0.6821220472440945
 20
-0.3320354330708661
 30
0.0
 10
0.6787322834645669
 20
-0.3338425196850394
 30
0.0
 10
0.6748740157480315
 20
-0.3351456692913386
 30
0.0
 10
0.6748740157480315
 20
-0.3351456692913386
 30
0.0
 10
0.670984251968504
 20
-0.3364527559055118
 30
0.0
 10
0.6667598425196851
 20
-0.3370905511811024
 30
0.0
 10
0.6622047244094489
 20
-0.3370905511811024
 30
0.0
 10
0.6622047244094489
 20
-0.3370905511811024
 30
0.0
 10
0.6548149606299213
 20
-0.3370905511811024
 30
0.0
 10
0.6482598425196851
 20
-0.3354803149606299
 30
0.0
 10
0.642484251968504
 20
-0.3322007874015748
 30
0.0
 10
0.642484251968504
 20
-0.3322007874015748
 30
0.0
 10
0.6367047244094488
 20
-0.3289527559055118
 30
0.0
 10
0.6322047244094489
 20
-0.3245629921259843
 30
0.0
 10
0.629011811023622
 20
-0.3190354330708662
 30
0.0
 10
0.629011811023622
 20
-0.3190354330708662
 30
0.0
 10
0.6257874015748032
 20
-0.313507874015748
 30
0.0
 10
0.6242047244094489
 20
-0.3069803149606299
 30
0.0
 10
0.6242047244094489
 20
-0.299507874015748
 30
0.0
 10
0.6242047244094489
 20
-0.299507874015748
 30
0.0
 10
0.6242047244094489
 20
-0.2875629921259842
 30
0.0
 10
0.6278188976377953
 20
-0.2781732283464567
 30
0.0
 10
0.635011811023622
 20
-0.2713425196850394
 30
0.0
 10
0.635011811023622
 20
-0.2713425196850394
 30
0.0
 10
0.643011811023622
 20
-0.2638700787401575
 30
0.0
 10
0.6533740157480316
 20
-0.2601181102362205
 30
0.0
 10
0.6661220472440945
 20
-0.2601181102362205
 30
0.0
 10
0.6661220472440945
 20
-0.2601181102362205
 30
0.0
 10
0.6752874015748032
 20
-0.2601181102362205
 30
0.0
 10
0.6830118110236221
 20
-0.262007874015748
 30
0.0
 10
0.6893149606299213
 20
-0.2658149606299213
 30
0.0
 10
0.6893149606299213
 20
-0.2658149606299213
 30
0.0
 10
0.6955944881889764
 20
-0.2696181102362205
 30
0.0
 10
0.7005944881889764
 20
-0.2754251968503937
 30
0.0
 10
0.7042874015748032
 20
-0.2832283464566929
 30
0.0
 10
0.7042874015748032
 20
-0.2832283464566929
 30
0.0
 10
0.7079566929133858
 20
-0.2910354330708662
 30
0.0
 10
0.7098149606299213
 20
-0.3006456692913386
 30
0.0
 10
0.7098149606299213
 20
-0.3120354330708662
 30
0.0
 10
0.7098149606299213
 20
-0.3120354330708662
 30
0.0
 10
0.7098149606299213
 20
-0.3234251968503937
 30
0.0
 10
0.7079015748031496
 20
-0.3335905511811024
 30
0.0
 10
0.7040393700787402
 20
-0.3425629921259843
 30
0.0
 10
0.7040393700787402
 20
-0.3425629921259843
 30
0.0
 10
0.7001771653543307
 20
-0.3515078740157481
 30
0.0
 10
0.6947874015748031
 20
-0.3586732283464567
 30
0.0
 10
0.6878740157480315
 20
-0.3640629921259843
 30
0.0
 10
0.6878740157480315
 20
-0.3640629921259843
 30
0.0
 10
0.6809566929133859
 20
-0.3694803149606299
 30
0.0
 10
0.6733425196850394
 20
-0.3730629921259843
 30
0.0
 10
0.6650669291338583
 20
-0.3748700787401575
 30
0.0
 10
0.6650669291338583
 20
-0.3748700787401575
 30
0.0
 10
0.6567598425196851
 20
-0.3766456692913386
 30
0.0
 10
0.649232283464567
 20
-0.3775354330708662
 30
0.0
 10
0.6425118110236221
 20
-0.3775354330708662
 30
0.0
 10
0.6425118110236221
 20
-0.3775354330708662
 30
0.0
 10
0.6425118110236221
 20
-0.3775354330708662
 30
0.0
 10
0.6361496062992126
 20
-0.3775354330708662
 30
0.0
 10
0.6361496062992126
 20
-0.3775354330708662
 30
0.0
  0
SPLINE
  5
36
330
1F
100
AcDbEntity
  8
LAYER_1
 62
   250
100
AcDbSpline
210
0.0
220
0.0
230
1.0
 70
    11
 71
     3
 72
    40
 73
    36
 74
     0
 42
0.0000000001
 43
0.0000000001
 40
0.0
 40
0.0
 40
0.0
 40
0.0
 40
0.1111111111111111
 40
0.1111111111111111
 40
0.1111111111111111
 40
0.1111111111111111
 40
0.2222222222222222
 40
0.2222222222222222
 40
0.2222222222222222
 40
0.2222222222222222
 40
0.3333333333333333
 40
0.3333333333333333
 40
0.3333333333333333
 40
0.3333333333333333
 40
0.4444444444444444
 40
0.4444444444444444
 40
0.4444444444444444
 40
0.4444444444444444
 40
0.5555555555555556
 40
0.5555555555555556
 40
0.5555555555555556
 40
0.5555555555555556
 40
0.6666666666666667
 40
0.6666666666666667
 40
0.6666666666666667
 40
0.6666666666666667
 40
0.7777777777777779
 40
0.7777777777777779
 40
0.7777777777777779
 40
0.7777777777777779
 40
0.8888888888888891
 40
0.8888888888888891
 40
0.8888888888888891
 40
0.8888888888888891
 40
1.0
 40
1.0
 40
1.0
 40
1.0
 10
0.6659566929133859
 20
-0.3283976377952756
 30
0.0
 10
0.6737047244094488
 20
-0.3283976377952756
 30
0.0
 10
0.6800944881889764
 20
-0.3254527559055118
 30
0.0
 10
0.6851220472440945
 20
-0.3195629921259843
 30
0.0
 10
0.6851220472440945
 20
-0.3195629921259843
 30
0.0
 10
0.6901220472440945
 20
-0.3136732283464567
 30
0.0
 10
0.6926496062992126
 20
-0.3065905511811024
 30
0.0
 10
0.6926496062992126
 20
-0.2982874015748032
 30
0.0
 10
0.6926496062992126
 20
-0.2982874015748032
 30
0.0
 10
0.6926496062992126
 20
-0.2924251968503937
 30
0.0
 10
0.6914291338582678
 20
-0.2870078740157481
 30
0.0
 10
0.688984251968504
 20
-0.2820354330708662
 30
0.0
 10
0.688984251968504
 20
-0.2820354330708662
 30
0.0
 10
0.6865393700787402
 20
-0.2770905511811024
 30
0.0
 10
0.6834015748031497
 20
-0.2733976377952756
 30
0.0
 10
0.6795669291338583
 20
-0.2709803149606299
 30
0.0
 10
0.6795669291338583
 20
-0.2709803149606299
 30
0.0
 10
0.675759842519685
 20
-0.2685629921259843
 30
0.0
 10
0.6714015748031497
 20
-0.2673700787401575
 30
0.0
 10
0.6665118110236221
 20
-0.2673700787401575
 30
0.0
 10
0.6665118110236221
 20
-0.2673700787401575
 30
0.0
 10
0.6590944881889764
 20
-0.2673700787401575
 30
0.0
 10
0.6528740157480315
 20
-0.2702007874015748
 30
0.0
 10
0.6478740157480315
 20
-0.2758700787401575
 30
0.0
 10
0.6478740157480315
 20
-0.2758700787401575
 30
0.0
 10
0.6429015748031496
 20
-0.2815354330708662
 30
0.0
 10
0.6404015748031496
 20
-0.2891456692913386
 30
0.0
 10
0.6404015748031496
 20
-0.2986732283464567
 30
0.0
 10
0.6404015748031496
 20
-0.2986732283464567
 30
0.0
 10
0.6404015748031496
 20
-0.3078149606299213
 30
0.0
 10
0.6428188976377953
 20
-0.3150354330708662
 30
0.0
 10
0.6476771653543307
 20
-0.3203700787401575
 30
0.0
 10
0.6476771653543307
 20
-0.3203700787401575
 30
0.0
 10
0.6525393700787402
 20
-0.3257283464566929
 30
0.0
 10
0.6586220472440946
 20
-0.3283976377952756
 30
0.0
 10
0.6659566929133859
 20
-0.3283976377952756
 30
0.0
  0
SPLINE
  5
37
330
1F
100
AcDbEntity
  8
LAYER_1
 62
   250
100
AcDbSpline
210
0.0
220
0.0
230
1.0
 70
    11
 71
     3
 72
    72
 73
    68
 74
     0
 42
0.0000000001
 43
0.0000000001
 40
0.0
 40
0.0
 40
0.0
 40
0.0
 40
0.0588235294117647
 40
0.0588235294117647
 40
0.0588235294117647
 40
0.0588235294117647
 40
0.1176470588235294
 40
0.1176470588235294
 40
0.1176470588235294
 40
0.1176470588235294
 40
0.1764705882352941
 40
0.1764705882352941
 40
0.1764705882352941
 40
0.1764705882352941
 40
0.2352941176470588
 40
0.2352941176470588
 40
0.2352941176470588
 40
0.2352941176470588
 40
0.2941176470588235
 40
0.2941176470588235
 40
0.2941176470588235
 40
0.2941176470588235
 40
0.3529411764705883
 40
0.3529411764705883
 40
0.3529411764705883
 40
0.3529411764705883
 40
0.411764705882353
 40
0.411764705882353
 40
0.411764705882353
 40
0.411764705882353
 40
0.4705882352941177
 40
0.4705882352941177
 40
0.4705882352941177
 40
0.4705882352941177
 40
0.5294117647058824
 40
0.5294117647058824
 40
0.5294117647058824
 40
0.5294117647058824
 40
0.5882352941176471
 40
0.5882352941176471
 40
0.5882352941176471
 40
0.5882352941176471
 40
0.6470588235294118
 40
0.6470588235294118
 40
0.6470588235294118
 40
0.6470588235294118
 40
0.7058823529411765
 40
0.7058823529411765
 40
0.7058823529411765
 40
0.7058823529411765
 40
0.7647058823529412
 40
0.7647058823529412
 40
0.7647058823529412
 40
0.7647058823529412
 40
0.823529411764706
 40
0.823529411764706
 40
0.823529411764706
 40
0.823529411764706
 40
0.8823529411764707
 40
0.8823529411764707
 40
0.8823529411764707
 40
0.8823529411764707
 40
0.9411764705882354
 40
0.9411764705882354
 40
0.9411764705882354
 40
0.9411764705882354
 40
1.0
 40
1.0
 40
1.0
 40
1.0
 10
-0.2820314960629922
 20
-0.4495629921259843
 30
0.0
 10
-0.2820314960629922
 20
-0.4495629921259843
 30
0.0
 10
-0.2759488188976378
 20
-0.4495629921259843
 30
0.0
 10
-0.2759488188976378
 20
-0.4495629921259843
 30
0.0
 10
-0.2759488188976378
 20
-0.4495629921259843
 30
0.0
 10
-0.2759488188976378
 20
-0.4495629921259843
 30
0.0
 10
-0.2759488188976378
 20
-0.5438110236220473
 30
0.0
 10
-0.2759488188976378
 20
-0.5438110236220473
 30
0.0
 10
-0.2759488188976378
 20
-0.5438110236220473
 30
0.0
 10
-0.2759488188976378
 20
-0.548255905511811
 30
0.0
 10
-0.2756417322834646
 20
-0.5511181102362205
 30
0.0
 10
-0.2750866141732284
 20
-0.5523976377952756
 30
0.0
 10
-0.2750866141732284
 20
-0.5523976377952756
 30
0.0
 10
-0.274503937007874
 20
-0.5536732283464567
 30
0.0
 10
-0.2735866141732284
 20
-0.5546181102362205
 30
0.0
 10
-0.2722834645669292
 20
-0.5552834645669291
 30
0.0
 10
-0.2722834645669292
 20
-0.5552834645669291
 30
0.0
 10
-0.2709763779527559
 20
-0.5559251968503938
 30
0.0
 10
-0.2683937007874016
 20
-0.556255905511811
 30
0.0
 10
-0.2645314960629921
 20
-0.556255905511811
 30
0.0
 10
-0.2645314960629921
 20
-0.556255905511811
 30
0.0
 10
-0.2645314960629921
 20
-0.556255905511811
 30
0.0
 10
-0.2565590551181102
 20
-0.556255905511811
 30
0.0
 10
-0.2565590551181102
 20
-0.556255905511811
 30
0.0
 10
-0.2565590551181102
 20
-0.556255905511811
 30
0.0
 10
-0.2565590551181102
 20
-0.556255905511811
 30
0.0
 10
-0.2565590551181102
 20
-0.5630905511811024
 30
0.0
 10
-0.2565590551181102
 20
-0.5630905511811024
 30
0.0
 10
-0.2565590551181102
 20
-0.5630905511811024
 30
0.0
 10
-0.2565590551181102
 20
-0.5630905511811024
 30
0.0
 10
-0.3101968503937008
 20
-0.5630905511811024
 30
0.0
 10
-0.3101968503937008
 20
-0.5630905511811024
 30
0.0
 10
-0.3101968503937008
 20
-0.5630905511811024
 30
0.0
 10
-0.3101968503937008
 20
-0.5630905511811024
 30
0.0
 10
-0.3101968503937008
 20
-0.556255905511811
 30
0.0
 10
-0.3101968503937008
 20
-0.556255905511811
 30
0.0
 10
-0.3101968503937008
 20
-0.556255905511811
 30
0.0
 10
-0.3101968503937008
 20
-0.556255905511811
 30
0.0
 10
-0.3013385826771654
 20
-0.556255905511811
 30
0.0
 10
-0.3013385826771654
 20
-0.556255905511811
 30
0.0
 10
-0.3013385826771654
 20
-0.556255905511811
 30
0.0
 10
-0.2974763779527559
 20
-0.556255905511811
 30
0.0
 10
-0.2949212598425197
 20
-0.5559251968503938
 30
0.0
 10
-0.2936417322834646
 20
-0.5552283464566929
 30
0.0
 10
-0.2936417322834646
 20
-0.5552283464566929
 30
0.0
 10
-0.2923661417322835
 20
-0.5545629921259843
 30
0.0
 10
-0.2913661417322835
 20
-0.55348031496063
 30
0.0
 10
-0.2906692913385827
 20
-0.5519803149606299
 30
0.0
 10
-0.2906692913385827
 20
-0.5519803149606299
 30
0.0
 10
-0.2899763779527559
 20
-0.55048031496063
 30
0.0
 10
-0.2896141732283465
 20
-0.5477559055118111
 30
0.0
 10
-0.2896141732283465
 20
-0.5438110236220473
 30
0.0
 10
-0.2896141732283465
 20
-0.5438110236220473
 30
0.0
 10
-0.2896141732283465
 20
-0.5438110236220473
 30
0.0
 10
-0.2896141732283465
 20
-0.4663425196850394
 30
0.0
 10
-0.2896141732283465
 20
-0.4663425196850394
 30
0.0
 10
-0.2896141732283465
 20
-0.4663425196850394
 30
0.0
 10
-0.2896141732283465
 20
-0.4663425196850394
 30
0.0
 10
-0.3101968503937008
 20
-0.4663425196850394
 30
0.0
 10
-0.3101968503937008
 20
-0.4663425196850394
 30
0.0
 10
-0.3101968503937008
 20
-0.4663425196850394
 30
0.0
 10
-0.3101968503937008
 20
-0.4663425196850394
 30
0.0
 10
-0.3101968503937008
 20
-0.4593425196850394
 30
0.0
 10
-0.3101968503937008
 20
-0.4593425196850394
 30
0.0
 10
-0.3101968503937008
 20
-0.4593425196850394
 30
0.0
 10
-0.2989763779527559
 20
-0.4577598425196851
 30
0.0
 10
-0.2895866141732283
 20
-0.4545078740157481
 30
0.0
 10
-0.2820314960629922
 20
-0.4495629921259843
 30
0.0
  0
SPLINE
  5
38
330
1F
100
AcDbEntity
  8
LAYER_1
 62
   250
100
AcDbSpline
210
0.0
220
0.0
230
1.0
 70
    11
 71
     3
 72
    72
 73
    68
 74
     0
 42
0.0000000001
 43
0.0000000001
 40
0.0
 40
0.0
 40
0.0
 40
0.0
 40
0.0588235294117647
 40
0.0588235294117647
 40
0.0588235294117647
 40
0.0588235294117647
 40
0.1176470588235294
 40
0.1176470588235294
 40
0.1176470588235294
 40
0.1176470588235294
 40
0.1764705882352941
 40
0.1764705882352941
 40
0.1764705882352941
 40
0.1764705882352941
 40
0.2352941176470588
 40
0.2352941176470588
 40
0.2352941176470588
 40
0.2352941176470588
 40
0.2941176470588235
 40
0.2941176470588235
 40
0.2941176470588235
 40
0.2941176470588235
 40
0.3529411764705883
 40
0.3529411764705883
 40
0.3529411764705883
 40
0.3529411764705883
 40
0.411764705882353
 40
0.411764705882353
 40
0.411764705882353
 40
0.411764705882353
 40
0.4705882352941177
 40
0.4705882352941177
 40
0.4705882352941177
 40
0.4705882352941177
 40
0.5294117647058824
 40
0.5294117647058824
 40
0.5294117647058824
 40
0.5294117647058824
 40
0.5882352941176471
 40
0.5882352941176471
 40
0.5882352941176471
 40
0.5882352941176471
 40
0.6470588235294118
 40
0.6470588235294118
 40
0.6470588235294118
 40
0.6470588235294118
 40
0.7058823529411765
 40
0.7058823529411765
 40
0.7058823529411765
 40
0.7058823529411765
 40
0.7647058823529412
 40
0.7647058823529412
 40
0.7647058823529412
 40
0.7647058823529412
 40
0.823529411764706
 40
0.823529411764706
 40
0.823529411764706
 40
0.823529411764706
 40
0.8823529411764707
 40
0.8823529411764707
 40
0.8823529411764707
 40
0.8823529411764707
 40
0.9411764705882354
 40
0.9411764705882354
 40
0.9411764705882354
 40
0.9411764705882354
 40
1.0
 40
1.0
 40
1.0
 40
1.0
 10
-0.1786692913385827
 20
-0.4495629921259843
 30
0.0
 10
-0.1786692913385827
 20
-0.4495629921259843
 30
0.0
 10
-0.1725866141732284
 20
-0.4495629921259843
 30
0.0
 10
-0.1725866141732284
 20
-0.4495629921259843
 30
0.0
 10
-0.1725866141732284
 20
-0.4495629921259843
 30
0.0
 10
-0.1725866141732284
 20
-0.4495629921259843
 30
0.0
 10
-0.1725866141732284
 20
-0.5438110236220473
 30
0.0
 10
-0.1725866141732284
 20
-0.5438110236220473
 30
0.0
 10
-0.1725866141732284
 20
-0.5438110236220473
 30
0.0
 10
-0.1725866141732284
 20
-0.548255905511811
 30
0.0
 10
-0.1722795275590551
 20
-0.5511181102362205
 30
0.0
 10
-0.1717244094488189
 20
-0.5523976377952756
 30
0.0
 10
-0.1717244094488189
 20
-0.5523976377952756
 30
0.0
 10
-0.1711417322834646
 20
-0.5536732283464567
 30
0.0
 10
-0.1702244094488189
 20
-0.5546181102362205
 30
0.0
 10
-0.1689212598425197
 20
-0.5552834645669291
 30
0.0
 10
-0.1689212598425197
 20
-0.5552834645669291
 30
0.0
 10
-0.1676141732283465
 20
-0.5559251968503938
 30
0.0
 10
-0.1650314960629921
 20
-0.556255905511811
 30
0.0
 10
-0.1611692913385827
 20
-0.556255905511811
 30
0.0
 10
-0.1611692913385827
 20
-0.556255905511811
 30
0.0
 10
-0.1611692913385827
 20
-0.556255905511811
 30
0.0
 10
-0.1531968503937008
 20
-0.556255905511811
 30
0.0
 10
-0.1531968503937008
 20
-0.556255905511811
 30
0.0
 10
-0.1531968503937008
 20
-0.556255905511811
 30
0.0
 10
-0.1531968503937008
 20
-0.556255905511811
 30
0.0
 10
-0.1531968503937008
 20
-0.5630905511811024
 30
0.0
 10
-0.1531968503937008
 20
-0.5630905511811024
 30
0.0
 10
-0.1531968503937008
 20
-0.5630905511811024
 30
0.0
 10
-0.1531968503937008
 20
-0.5630905511811024
 30
0.0
 10
-0.2068346456692914
 20
-0.5630905511811024
 30
0.0
 10
-0.2068346456692914
 20
-0.5630905511811024
 30
0.0
 10
-0.2068346456692914
 20
-0.5630905511811024
 30
0.0
 10
-0.2068346456692914
 20
-0.5630905511811024
 30
0.0
 10
-0.2068346456692914
 20
-0.556255905511811
 30
0.0
 10
-0.2068346456692914
 20
-0.556255905511811
 30
0.0
 10
-0.2068346456692914
 20
-0.556255905511811
 30
0.0
 10
-0.2068346456692914
 20
-0.556255905511811
 30
0.0
 10
-0.1979763779527559
 20
-0.556255905511811
 30
0.0
 10
-0.1979763779527559
 20
-0.556255905511811
 30
0.0
 10
-0.1979763779527559
 20
-0.556255905511811
 30
0.0
 10
-0.1941141732283465
 20
-0.556255905511811
 30
0.0
 10
-0.1915590551181103
 20
-0.5559251968503938
 30
0.0
 10
-0.1902795275590551
 20
-0.5552283464566929
 30
0.0
 10
-0.1902795275590551
 20
-0.5552283464566929
 30
0.0
 10
-0.189003937007874
 20
-0.5545629921259843
 30
0.0
 10
-0.188003937007874
 20
-0.55348031496063
 30
0.0
 10
-0.1873070866141732
 20
-0.5519803149606299
 30
0.0
 10
-0.1873070866141732
 20
-0.5519803149606299
 30
0.0
 10
-0.1866141732283465
 20
-0.55048031496063
 30
0.0
 10
-0.186251968503937
 20
-0.5477559055118111
 30
0.0
 10
-0.186251968503937
 20
-0.5438110236220473
 30
0.0
 10
-0.186251968503937
 20
-0.5438110236220473
 30
0.0
 10
-0.186251968503937
 20
-0.5438110236220473
 30
0.0
 10
-0.186251968503937
 20
-0.4663425196850394
 30
0.0
 10
-0.186251968503937
 20
-0.4663425196850394
 30
0.0
 10
-0.186251968503937
 20
-0.4663425196850394
 30
0.0
 10
-0.186251968503937
 20
-0.4663425196850394
 30
0.0
 10
-0.2068346456692914
 20
-0.4663425196850394
 30
0.0
 10
-0.2068346456692914
 20
-0.4663425196850394
 30
0.0
 10
-0.2068346456692914
 20
-0.4663425196850394
 30
0.0
 10
-0.2068346456692914
 20
-0.4663425196850394
 30
0.0
 10
-0.2068346456692914
 20
-0.4593425196850394
 30
0.0
 10
-0.2068346456692914
 20
-0.4593425196850394
 30
0.0
 10
-0.2068346456692914
 20
-0.4593425196850394
 30
0.0
 10
-0.1956141732283465
 20
-0.4577598425196851
 30
0.0
 10
-0.1862244094488189
 20
-0.4545078740157481
 30
0.0
 10
-0.1786692913385827
 20
-0.4495629921259843
 30
0.0
  0
SPLINE
  5
39
330
1F
100
AcDbEntity
  8
LAYER_1
 62
   250
100
AcDbSpline
210
0.0
220
0.0
230
1.0
 70
    11
 71
     3
 72
    20
 73
    16
 74
     0
 42
0.0000000001
 43
0.0000000001
 40
0.0
 40
0.0
 40
0.0
 40
0.0
 40
0.25
 40
0.25
 40
0.25
 40
0.25
 40
0.5
 40
0.5
 40
0.5
 40
0.5
 40
0.75
 40
0.75
 40
0.75
 40
0.75
 40
1.0
 40
1.0
 40
1.0
 40
1.0
 10
-0.0498346456692913
 20
-0.4437007874015748
 30
0.0
 10
-0.0498346456692913
 20
-0.4437007874015748
 30
0.0
 10
-0.1054173228346457
 20
-0.5993976377952757
 30
0.0
 10
-0.1054173228346457
 20
-0.5993976377952757
 30
0.0
 10
-0.1054173228346457
 20
-0.5993976377952757
 30
0.0
 10
-0.1054173228346457
 20
-0.5993976377952757
 30
0.0
 10
-0.1174724409448819
 20
-0.5993976377952757
 30
0.0
 10
-0.1174724409448819
 20
-0.5993976377952757
 30
0.0
 10
-0.1174724409448819
 20
-0.5993976377952757
 30
0.0
 10
-0.1174724409448819
 20
-0.5993976377952757
 30
0.0
 10
-0.0622244094488189
 20
-0.4437007874015748
 30
0.0
 10
-0.0622244094488189
 20
-0.4437007874015748
 30
0.0
 10
-0.0622244094488189
 20
-0.4437007874015748
 30
0.0
 10
-0.0622244094488189
 20
-0.4437007874015748
 30
0.0
 10
-0.0498346456692913
 20
-0.4437007874015748
 30
0.0
 10
-0.0498346456692913
 20
-0.4437007874015748
 30
0.0
  0
SPLINE
  5
3A
330
1F
100
AcDbEntity
  8
LAYER_1
 62
   250
100
AcDbSpline
210
0.0
220
0.0
230
1.0
 70
    11
 71
     3
 72
    72
 73
    68
 74
     0
 42
0.0000000001
 43
0.0000000001
 40
0.0
 40
0.0
 40
0.0
 40
0.0
 40
0.0588235294117647
 40
0.0588235294117647
 40
0.0588235294117647
 40
0.0588235294117647
 40
0.1176470588235294
 40
0.1176470588235294
 40
0.1176470588235294
 40
0.1176470588235294
 40
0.1764705882352941
 40
0.1764705882352941
 40
0.1764705882352941
 40
0.1764705882352941
 40
0.2352941176470588
 40
0.2352941176470588
 40
0.2352941176470588
 40
0.2352941176470588
 40
0.2941176470588235
 40
0.2941176470588235
 40
0.2941176470588235
 40
0.2941176470588235
 40
0.3529411764705883
 40
0.3529411764705883
 40
0.3529411764705883
 40
0.3529411764705883
 40
0.411764705882353
 40
0.411764705882353
 40
0.411764705882353
 40
0.411764705882353
 40
0.4705882352941177
 40
0.4705882352941177
 40
0.4705882352941177
 40
0.4705882352941177
 40
0.5294117647058824
 40
0.5294117647058824
 40
0.5294117647058824
 40
0.5294117647058824
 40
0.5882352941176471
 40
0.5882352941176471
 40
0.5882352941176471
 40
0.5882352941176471
 40
0.6470588235294118
 40
0.6470588235294118
 40
0.6470588235294118
 40
0.6470588235294118
 40
0.7058823529411765
 40
0.7058823529411765
 40
0.7058823529411765
 40
0.7058823529411765
 40
0.7647058823529412
 40
0.7647058823529412
 40
0.7647058823529412
 40
0.7647058823529412
 40
0.823529411764706
 40
0.823529411764706
 40
0.823529411764706
 40
0.823529411764706
 40
0.8823529411764707
 40
0.8823529411764707
 40
0.8823529411764707
 40
0.8823529411764707
 40
0.9411764705882354
 40
0.9411764705882354
 40
0.9411764705882354
 40
0.9411764705882354
 40
1.0
 40
1.0
 40
1.0
 40
1.0
 10
0.0247204724409449
 20
-0.4495629921259843
 30
0.0
 10
0.0247204724409449
 20
-0.4495629921259843
 30
0.0
 10
0.0308031496062992
 20
-0.4495629921259843
 30
0.0
 10
0.0308031496062992
 20
-0.4495629921259843
 30
0.0
 10
0.0308031496062992
 20
-0.4495629921259843
 30
0.0
 10
0.0308031496062992
 20
-0.4495629921259843
 30
0.0
 10
0.0308031496062992
 20
-0.5438110236220473
 30
0.0
 10
0.0308031496062992
 20
-0.5438110236220473
 30
0.0
 10
0.0308031496062992
 20
-0.5438110236220473
 30
0.0
 10
0.0308031496062992
 20
-0.548255905511811
 30
0.0
 10
0.0311102362204724
 20
-0.5511181102362205
 30
0.0
 10
0.0316653543307087
 20
-0.5523976377952756
 30
0.0
 10
0.0316653543307087
 20
-0.5523976377952756
 30
0.0
 10
0.032248031496063
 20
-0.5536732283464567
 30
0.0
 10
0.0331653543307087
 20
-0.5546181102362205
 30
0.0
 10
0.0344685039370079
 20
-0.5552834645669291
 30
0.0
 10
0.0344685039370079
 20
-0.5552834645669291
 30
0.0
 10
0.0357755905511811
 20
-0.5559251968503938
 30
0.0
 10
0.0383582677165354
 20
-0.556255905511811
 30
0.0
 10
0.0422204724409449
 20
-0.556255905511811
 30
0.0
 10
0.0422204724409449
 20
-0.556255905511811
 30
0.0
 10
0.0422204724409449
 20
-0.556255905511811
 30
0.0
 10
0.0501929133858268
 20
-0.556255905511811
 30
0.0
 10
0.0501929133858268
 20
-0.556255905511811
 30
0.0
 10
0.0501929133858268
 20
-0.556255905511811
 30
0.0
 10
0.0501929133858268
 20
-0.556255905511811
 30
0.0
 10
0.0501929133858268
 20
-0.5630905511811024
 30
0.0
 10
0.0501929133858268
 20
-0.5630905511811024
 30
0.0
 10
0.0501929133858268
 20
-0.5630905511811024
 30
0.0
 10
0.0501929133858268
 20
-0.5630905511811024
 30
0.0
 10
-0.0034448818897638
 20
-0.5630905511811024
 30
0.0
 10
-0.0034448818897638
 20
-0.5630905511811024
 30
0.0
 10
-0.0034448818897638
 20
-0.5630905511811024
 30
0.0
 10
-0.0034448818897638
 20
-0.5630905511811024
 30
0.0
 10
-0.0034448818897638
 20
-0.556255905511811
 30
0.0
 10
-0.0034448818897638
 20
-0.556255905511811
 30
0.0
 10
-0.0034448818897638
 20
-0.556255905511811
 30
0.0
 10
-0.0034448818897638
 20
-0.556255905511811
 30
0.0
 10
0.0054133858267717
 20
-0.556255905511811
 30
0.0
 10
0.0054133858267717
 20
-0.556255905511811
 30
0.0
 10
0.0054133858267717
 20
-0.556255905511811
 30
0.0
 10
0.0092755905511811
 20
-0.556255905511811
 30
0.0
 10
0.0118307086614173
 20
-0.5559251968503938
 30
0.0
 10
0.0131102362204724
 20
-0.5552283464566929
 30
0.0
 10
0.0131102362204724
 20
-0.5552283464566929
 30
0.0
 10
0.0143858267716535
 20
-0.5545629921259843
 30
0.0
 10
0.0153858267716535
 20
-0.55348031496063
 30
0.0
 10
0.0160826771653543
 20
-0.5519803149606299
 30
0.0
 10
0.0160826771653543
 20
-0.5519803149606299
 30
0.0
 10
0.0167755905511811
 20
-0.55048031496063
 30
0.0
 10
0.0171377952755906
 20
-0.5477559055118111
 30
0.0
 10
0.0171377952755906
 20
-0.5438110236220473
 30
0.0
 10
0.0171377952755906
 20
-0.5438110236220473
 30
0.0
 10
0.0171377952755906
 20
-0.5438110236220473
 30
0.0
 10
0.0171377952755906
 20
-0.4663425196850394
 30
0.0
 10
0.0171377952755906
 20
-0.4663425196850394
 30
0.0
 10
0.0171377952755906
 20
-0.4663425196850394
 30
0.0
 10
0.0171377952755906
 20
-0.4663425196850394
 30
0.0
 10
-0.0034448818897638
 20
-0.4663425196850394
 30
0.0
 10
-0.0034448818897638
 20
-0.4663425196850394
 30
0.0
 10
-0.0034448818897638
 20
-0.4663425196850394
 30
0.0
 10
-0.0034448818897638
 20
-0.4663425196850394
 30
0.0
 10
-0.0034448818897638
 20
-0.4593425196850394
 30
0.0
 10
-0.0034448818897638
 20
-0.4593425196850394
 30
0.0
 10
-0.0034448818897638
 20
-0.4593425196850394
 30
0.0
 10
0.0077755905511811
 20
-0.4577598425196851
 30
0.0
 10
0.0171653543307087
 20
-0.4545078740157481
 30
0.0
 10
0.0247204724409449
 20
-0.4495629921259843
 30
0.0
  0
SPLINE
  5
3B
330
1F
100
AcDbEntity
  8
LAYER_1
 62
   250
100
AcDbSpline
210
0.0
220
0.0
230
1.0
 70
    11
 71
     3
 72
    84
 73
    80
 74
     0
 42
0.0000000001
 43
0.0000000001
 40
0.0
 40
0.0
 40
0.0
 40
0.0
 40
0.05
 40
0.05
 40
0.05
 40
0.05
 40
0.1
 40
0.1
 40
0.1
 40
0.1
 40
0.15
 40
0.15
 40
0.15
 40
0.15
 40
0.2
 40
0.2
 40
0.2
 40
0.2
 40
0.25
 40
0.25
 40
0.25
 40
0.25
 40
0.3
 40
0.3
 40
0.3
 40
0.3
 40
0.35
 40
0.35
 40
0.35
 40
0.35
 40
0.4
 40
0.4
 40
0.4
 40
0.4
 40
0.45
 40
0.45
 40
0.45
 40
0.45
 40
0.4999999999999999
 40
0.4999999999999999
 40
0.4999999999999999
 40
0.4999999999999999
 40
0.5499999999999999
 40
0.5499999999999999
 40
0.5499999999999999
 40
0.5499999999999999
 40
0.6
 40
0.6
 40
0.6
 40
0.6
 40
0.65
 40
0.65
 40
0.65
 40
0.65
 40
0.7000000000000001
 40
0.7000000000000001
 40
0.7000000000000001
 40
0.7000000000000001
 40
0.7500000000000001
 40
0.7500000000000001
 40
0.7500000000000001
 40
0.7500000000000001
 40
0.8000000000000002
 40
0.8000000000000002
 40
0.8000000000000002
 40
0.8000000000000002
 40
0.8500000000000002
 40
0.8500000000000002
 40
0.8500000000000002
 40
0.8500000000000002
 40
0.9000000000000002
 40
0.9000000000000002
 40
0.9000000000000002
 40
0.9000000000000002
 40
0.9500000000000003
 40
0.9500000000000003
 40
0.9500000000000003
 40
0.9500000000000003
 40
1.0
 40
1.0
 40
1.0
 40
1.0
 10
0.1563858267716536
 20
-0.4474527559055118
 30
0.0
 10
0.1563858267716536
 20
-0.4474527559055118
 30
0.0
 10
0.1563858267716536
 20
-0.4548700787401575
 30
0.0
 10
0.1563858267716536
 20
-0.4548700787401575
 30
0.0
 10
0.1563858267716536
 20
-0.4548700787401575
 30
0.0
 10
0.143
 20
-0.4550078740157481
 30
0.0
 10
0.1321653543307087
 20
-0.45698031496063
 30
0.0
 10
0.1238897637795276
 20
-0.4607007874015748
 30
0.0
 10
0.1238897637795276
 20
-0.4607007874015748
 30
0.0
 10
0.1156102362204725
 20
-0.4644527559055118
 30
0.0
 10
0.1095275590551181
 20
-0.4700629921259843
 30
0.0
 10
0.1056102362204724
 20
-0.4775078740157481
 30
0.0
 10
0.1056102362204724
 20
-0.4775078740157481
 30
0.0
 10
0.1016929133858268
 20
-0.4849803149606299
 30
0.0
 10
0.0995
 20
-0.4941732283464567
 30
0.0
 10
0.0990275590551181
 20
-0.5050629921259843
 30
0.0
 10
0.0990275590551181
 20
-0.5050629921259843
 30
0.0
 10
0.1017755905511811
 20
-0.5008425196850393
 30
0.0
 10
0.1046102362204724
 20
-0.4975354330708662
 30
0.0
 10
0.1075275590551181
 20
-0.4951732283464567
 30
0.0
 10
0.1075275590551181
 20
-0.4951732283464567
 30
0.0
 10
0.1104173228346457
 20
-0.4928149606299213
 30
0.0
 10
0.1138031496062992
 20
-0.491007874015748
 30
0.0
 10
0.1176929133858268
 20
-0.4897283464566929
 30
0.0
 10
0.1176929133858268
 20
-0.4897283464566929
 30
0.0
 10
0.1215826771653543
 20
-0.4884527559055119
 30
0.0
 10
0.1258307086614173
 20
-0.4878149606299213
 30
0.0
 10
0.1304448818897638
 20
-0.4878149606299213
 30
0.0
 10
0.1304448818897638
 20
-0.4878149606299213
 30
0.0
 10
0.1378031496062992
 20
-0.4878149606299213
 30
0.0
 10
0.1443858267716535
 20
-0.4894527559055119
 30
0.0
 10
0.1501377952755906
 20
-0.4927007874015748
 30
0.0
 10
0.1501377952755906
 20
-0.4927007874015748
 30
0.0
 10
0.1558858267716536
 20
-0.4959527559055119
 30
0.0
 10
0.1603582677165354
 20
-0.5003700787401575
 30
0.0
 10
0.1635551181102362
 20
-0.5059251968503937
 30
0.0
 10
0.1635551181102362
 20
-0.5059251968503937
 30
0.0
 10
0.166748031496063
 20
-0.51148031496063
 30
0.0
 10
0.1683582677165355
 20
-0.5180354330708662
 30
0.0
 10
0.1683582677165355
 20
-0.5255629921259842
 30
0.0
 10
0.1683582677165355
 20
-0.5255629921259842
 30
0.0
 10
0.1683582677165355
 20
-0.5375629921259842
 30
0.0
 10
0.164748031496063
 20
-0.5469803149606299
 30
0.0
 10
0.1575275590551181
 20
-0.5538110236220473
 30
0.0
 10
0.1575275590551181
 20
-0.5538110236220473
 30
0.0
 10
0.1495551181102362
 20
-0.5613110236220472
 30
0.0
 10
0.1392204724409449
 20
-0.5650354330708661
 30
0.0
 10
0.1265275590551181
 20
-0.5650354330708661
 30
0.0
 10
0.1265275590551181
 20
-0.5650354330708661
 30
0.0
 10
0.1173582677165354
 20
-0.5650354330708661
 30
0.0
 10
0.1096377952755906
 20
-0.5631456692913386
 30
0.0
 10
0.1033307086614173
 20
-0.5593425196850393
 30
0.0
 10
0.1033307086614173
 20
-0.5593425196850393
 30
0.0
 10
0.0970275590551181
 20
-0.5555629921259843
 30
0.0
 10
0.0920275590551181
 20
-0.5497559055118111
 30
0.0
 10
0.0883031496062992
 20
-0.5419251968503938
 30
0.0
 10
0.0883031496062992
 20
-0.5419251968503938
 30
0.0
 10
0.0846102362204724
 20
-0.5341181102362205
 30
0.0
 10
0.082748031496063
 20
-0.5244527559055119
 30
0.0
 10
0.082748031496063
 20
-0.5129527559055118
 30
0.0
 10
0.082748031496063
 20
-0.5129527559055118
 30
0.0
 10
0.082748031496063
 20
-0.5013976377952756
 30
0.0
 10
0.0847204724409449
 20
-0.4911456692913386
 30
0.0
 10
0.0886377952755906
 20
-0.4822007874015749
 30
0.0
 10
0.0886377952755906
 20
-0.4822007874015749
 30
0.0
 10
0.0925826771653543
 20
-0.4732598425196851
 30
0.0
 10
0.0980275590551181
 20
-0.4660629921259843
 30
0.0
 10
0.1049724409448819
 20
-0.4606456692913386
 30
0.0
 10
0.1049724409448819
 20
-0.4606456692913386
 30
0.0
 10
0.1119173228346457
 20
-0.4552007874015748
 30
0.0
 10
0.1195275590551181
 20
-0.4516456692913386
 30
0.0
 10
0.1277755905511811
 20
-0.44998031496063
 30
0.0
 10
0.1277755905511811
 20
-0.44998031496063
 30
0.0
 10
0.1360551181102362
 20
-0.4482874015748032
 30
0.0
 10
0.1434724409448819
 20
-0.4474527559055118
 30
0.0
 10
0.1500551181102362
 20
-0.4474527559055118
 30
0.0
 10
0.1500551181102362
 20
-0.4474527559055118
 30
0.0
 10
0.1500551181102362
 20
-0.4474527559055118
 30
0.0
 10
0.1563858267716536
 20
-0.4474527559055118
 30
0.0
 10
0.1563858267716536
 20
-0.4474527559055118
 30
0.0
  0
SPLINE
  5
3C
330
1F
100
AcDbEntity
  8
LAYER_1
 62
   250
100
AcDbSpline
210
0.0
220
0.0
230
1.0
 70
    11
 71
     3
 72
    40
 73
    36
 74
     0
 42
0.0000000001
 43
0.0000000001
 40
0.0
 40
0.0
 40
0.0
 40
0.0
 40
0.1111111111111111
 40
0.1111111111111111
 40
0.1111111111111111
 40
0.1111111111111111
 40
0.2222222222222222
 40
0.2222222222222222
 40
0.2222222222222222
 40
0.2222222222222222
 40
0.3333333333333333
 40
0.3333333333333333
 40
0.3333333333333333
 40
0.3333333333333333
 40
0.4444444444444444
 40
0.4444444444444444
 40
0.4444444444444444
 40
0.4444444444444444
 40
0.5555555555555556
 40
0.5555555555555556
 40
0.5555555555555556
 40
0.5555555555555556
 40
0.6666666666666667
 40
0.6666666666666667
 40
0.6666666666666667
 40
0.6666666666666667
 40
0.7777777777777779
 40
0.7777777777777779
 40
0.7777777777777779
 40
0.7777777777777779
 40
0.8888888888888891
 40
0.8888888888888891
 40
0.8888888888888891
 40
0.8888888888888891
 40
1.0
 40
1.0
 40
1.0
 40
1.0
 10
0.1266929133858268
 20
-0.4964527559055119
 30
0.0
 10
0.1188897637795276
 20
-0.4964527559055119
 30
0.0
 10
0.1124724409448819
 20
-0.4993976377952756
 30
0.0
 10
0.1074448818897638
 20
-0.5053149606299213
 30
0.0
 10
0.1074448818897638
 20
-0.5053149606299213
 30
0.0
 10
0.1024173228346457
 20
-0.5112283464566929
 30
0.0
 10
0.0999173228346457
 20
-0.5183425196850394
 30
0.0
 10
0.0999173228346457
 20
-0.5266181102362205
 30
0.0
 10
0.0999173228346457
 20
-0.5266181102362205
 30
0.0
 10
0.0999173228346457
 20
-0.53248031496063
 30
0.0
 10
0.1011377952755906
 20
-0.5378976377952757
 30
0.0
 10
0.1035826771653543
 20
-0.5428700787401575
 30
0.0
 10
0.1035826771653543
 20
-0.5428700787401575
 30
0.0
 10
0.1060275590551181
 20
-0.5478425196850394
 30
0.0
 10
0.1091653543307087
 20
-0.5515078740157481
 30
0.0
 10
0.1130275590551181
 20
-0.5539251968503938
 30
0.0
 10
0.1130275590551181
 20
-0.5539251968503938
 30
0.0
 10
0.1168582677165354
 20
-0.5563425196850393
 30
0.0
 10
0.1212204724409449
 20
-0.5575629921259843
 30
0.0
 10
0.1260275590551181
 20
-0.5575629921259843
 30
0.0
 10
0.1260275590551181
 20
-0.5575629921259843
 30
0.0
 10
0.1335275590551181
 20
-0.5575629921259843
 30
0.0
 10
0.139748031496063
 20
-0.5547283464566929
 30
0.0
 10
0.1447204724409449
 20
-0.5490629921259843
 30
0.0
 10
0.1447204724409449
 20
-0.5490629921259843
 30
0.0
 10
0.1496653543307087
 20
-0.5433976377952756
 30
0.0
 10
0.1521653543307087
 20
-0.5357834645669292
 30
0.0
 10
0.1521653543307087
 20
-0.5262283464566929
 30
0.0
 10
0.1521653543307087
 20
-0.5262283464566929
 30
0.0
 10
0.1521653543307087
 20
-0.5171181102362205
 30
0.0
 10
0.149748031496063
 20
-0.5098700787401576
 30
0.0
 10
0.1449173228346457
 20
-0.504507874015748
 30
0.0
 10
0.1449173228346457
 20
-0.504507874015748
 30
0.0
 10
0.1400826771653543
 20
-0.4991181102362205
 30
0.0
 10
0.134
 20
-0.4964527559055119
 30
0.0
 10
0.1266929133858268
 20
-0.4964527559055119
 30
0.0
  0
SPLINE
  5
3D
330
1F
100
AcDbEntity
  8
LAYER_1
 62
   250
100
AcDbSpline
210
0.0
220
0.0
230
1.0
 70
    11
 71
     3
 72
    60
 73
    56
 74
     0
 42
0.0000000001
 43
0.0000000001
 40
0.0
 40
0.0
 40
0.0
 40
0.0
 40
0.0714285714285714
 40
0.0714285714285714
 40
0.0714285714285714
 40
0.0714285714285714
 40
0.1428571428571429
 40
0.1428571428571429
 40
0.1428571428571429
 40
0.1428571428571429
 40
0.2142857142857143
 40
0.2142857142857143
 40
0.2142857142857143
 40
0.2142857142857143
 40
0.2857142857142857
 40
0.2857142857142857
 40
0.2857142857142857
 40
0.2857142857142857
 40
0.3571428571428571
 40
0.3571428571428571
 40
0.3571428571428571
 40
0.3571428571428571
 40
0.4285714285714285
 40
0.4285714285714285
 40
0.4285714285714285
 40
0.4285714285714285
 40
0.4999999999999999
 40
0.4999999999999999
 40
0.4999999999999999
 40
0.4999999999999999
 40
0.5714285714285713
 40
0.5714285714285713
 40
0.5714285714285713
 40
0.5714285714285713
 40
0.6428571428571427
 40
0.6428571428571427
 40
0.6428571428571427
 40
0.6428571428571427
 40
0.7142857142857141
 40
0.7142857142857141
 40
0.7142857142857141
 40
0.7142857142857141
 40
0.7857142857142855
 40
0.7857142857142855
 40
0.7857142857142855
 40
0.7857142857142855
 40
0.8571428571428569
 40
0.8571428571428569
 40
0.8571428571428569
 40
0.8571428571428569
 40
0.9285714285714283
 40
0.9285714285714283
 40
0.9285714285714283
 40
0.9285714285714283
 40
1.0
 40
1.0
 40
1.0
 40
1.0
 10
0.1855275590551181
 20
-0.4916456692913386
 30
0.0
 10
0.1855275590551181
 20
-0.4916456692913386
 30
0.0
 10
0.1811377952755906
 20
-0.486255905511811
 30
0.0
 10
0.1811377952755906
 20
-0.486255905511811
 30
0.0
 10
0.1811377952755906
 20
-0.486255905511811
 30
0.0
 10
0.192251968503937
 20
-0.4772007874015748
 30
0.0
 10
0.1978346456692914
 20
-0.4696456692913386
 30
0.0
 10
0.1978346456692914
 20
-0.4635629921259843
 30
0.0
 10
0.1978346456692914
 20
-0.4635629921259843
 30
0.0
 10
0.1978346456692914
 20
-0.4628700787401575
 30
0.0
 10
0.1977795275590551
 20
-0.4619803149606299
 30
0.0
 10
0.1976653543307087
 20
-0.4609527559055118
 30
0.0
 10
0.1976653543307087
 20
-0.4609527559055118
 30
0.0
 10
0.196751968503937
 20
-0.4613425196850394
 30
0.0
 10
0.1958346456692914
 20
-0.4616456692913386
 30
0.0
 10
0.1949724409448819
 20
-0.4618425196850394
 30
0.0
 10
0.1949724409448819
 20
-0.4618425196850394
 30
0.0
 10
0.1941102362204724
 20
-0.4620629921259843
 30
0.0
 10
0.1933070866141732
 20
-0.4621732283464567
 30
0.0
 10
0.1925275590551181
 20
-0.4621732283464567
 30
0.0
 10
0.1925275590551181
 20
-0.4621732283464567
 30
0.0
 10
0.1899173228346457
 20
-0.4621732283464567
 30
0.0
 10
0.1878346456692913
 20
-0.4613425196850394
 30
0.0
 10
0.1862795275590551
 20
-0.4596456692913386
 30
0.0
 10
0.1862795275590551
 20
-0.4596456692913386
 30
0.0
 10
0.1846929133858268
 20
-0.45798031496063
 30
0.0
 10
0.1839173228346457
 20
-0.4558425196850394
 30
0.0
 10
0.1839173228346457
 20
-0.4532283464566929
 30
0.0
 10
0.1839173228346457
 20
-0.4532283464566929
 30
0.0
 10
0.1839173228346457
 20
-0.4506732283464567
 30
0.0
 10
0.1848622047244095
 20
-0.4484527559055118
 30
0.0
 10
0.186751968503937
 20
-0.4465629921259843
 30
0.0
 10
0.186751968503937
 20
-0.4465629921259843
 30
0.0
 10
0.1886653543307087
 20
-0.4446456692913386
 30
0.0
 10
0.1909448818897638
 20
-0.4437007874015748
 30
0.0
 10
0.1935826771653544
 20
-0.4437007874015748
 30
0.0
 10
0.1935826771653544
 20
-0.4437007874015748
 30
0.0
 10
0.1972795275590551
 20
-0.4437007874015748
 30
0.0
 10
0.2004448818897638
 20
-0.4451732283464567
 30
0.0
 10
0.2030826771653543
 20
-0.4481456692913386
 30
0.0
 10
0.2030826771653543
 20
-0.4481456692913386
 30
0.0
 10
0.2056929133858268
 20
-0.4510905511811024
 30
0.0
 10
0.2070275590551181
 20
-0.4548976377952756
 30
0.0
 10
0.2070275590551181
 20
-0.4595629921259843
 30
0.0
 10
0.2070275590551181
 20
-0.4595629921259843
 30
0.0
 10
0.2070275590551181
 20
-0.4626181102362205
 30
0.0
 10
0.2063897637795276
 20
-0.4658149606299213
 30
0.0
 10
0.2051377952755906
 20
-0.4691456692913386
 30
0.0
 10
0.2051377952755906
 20
-0.4691456692913386
 30
0.0
 10
0.2038897637795276
 20
-0.4724803149606299
 30
0.0
 10
0.2020826771653543
 20
-0.4755629921259843
 30
0.0
 10
0.1996929133858268
 20
-0.4784251968503937
 30
0.0
 10
0.1996929133858268
 20
-0.4784251968503937
 30
0.0
 10
0.1973070866141732
 20
-0.481255905511811
 30
0.0
 10
0.1925826771653544
 20
-0.4856732283464567
 30
0.0
 10
0.1855275590551181
 20
-0.4916456692913386
 30
0.0
  0
SPLINE
  5
3E
330
1F
100
AcDbEntity
  8
LAYER_1
 62
   250
100
AcDbSpline
210
0.0
220
0.0
230
1.0
 70
    11
 71
     3
 72
    60
 73
    56
 74
     0
 42
0.0000000001
 43
0.0000000001
 40
0.0
 40
0.0
 40
0.0
 40
0.0
 40
0.0714285714285714
 40
0.0714285714285714
 40
0.0714285714285714
 40
0.0714285714285714
 40
0.1428571428571429
 40
0.1428571428571429
 40
0.1428571428571429
 40
0.1428571428571429
 40
0.2142857142857143
 40
0.2142857142857143
 40
0.2142857142857143
 40
0.2142857142857143
 40
0.2857142857142857
 40
0.2857142857142857
 40
0.2857142857142857
 40
0.2857142857142857
 40
0.3571428571428571
 40
0.3571428571428571
 40
0.3571428571428571
 40
0.3571428571428571
 40
0.4285714285714285
 40
0.4285714285714285
 40
0.4285714285714285
 40
0.4285714285714285
 40
0.4999999999999999
 40
0.4999999999999999
 40
0.4999999999999999
 40
0.4999999999999999
 40
0.5714285714285713
 40
0.5714285714285713
 40
0.5714285714285713
 40
0.5714285714285713
 40
0.6428571428571427
 40
0.6428571428571427
 40
0.6428571428571427
 40
0.6428571428571427
 40
0.7142857142857141
 40
0.7142857142857141
 40
0.7142857142857141
 40
0.7142857142857141
 40
0.7857142857142855
 40
0.7857142857142855
 40
0.7857142857142855
 40
0.7857142857142855
 40
0.8571428571428569
 40
0.8571428571428569
 40
0.8571428571428569
 40
0.8571428571428569
 40
0.9285714285714283
 40
0.9285714285714283
 40
0.9285714285714283
 40
0.9285714285714283
 40
1.0
 40
1.0
 40
1.0
 40
1.0
 10
0.2145826771653543
 20
-0.4916456692913386
 30
0.0
 10
0.2145826771653543
 20
-0.4916456692913386
 30
0.0
 10
0.2101929133858268
 20
-0.486255905511811
 30
0.0
 10
0.2101929133858268
 20
-0.486255905511811
 30
0.0
 10
0.2101929133858268
 20
-0.486255905511811
 30
0.0
 10
0.2213070866141732
 20
-0.4772007874015748
 30
0.0
 10
0.2268897637795276
 20
-0.4696456692913386
 30
0.0
 10
0.2268897637795276
 20
-0.4635629921259843
 30
0.0
 10
0.2268897637795276
 20
-0.4635629921259843
 30
0.0
 10
0.2268897637795276
 20
-0.4628700787401575
 30
0.0
 10
0.2268346456692914
 20
-0.4619803149606299
 30
0.0
 10
0.2267204724409449
 20
-0.4609527559055118
 30
0.0
 10
0.2267204724409449
 20
-0.4609527559055118
 30
0.0
 10
0.2258070866141732
 20
-0.4613425196850394
 30
0.0
 10
0.2248897637795276
 20
-0.4616456692913386
 30
0.0
 10
0.2240275590551181
 20
-0.4618425196850394
 30
0.0
 10
0.2240275590551181
 20
-0.4618425196850394
 30
0.0
 10
0.2231653543307087
 20
-0.4620629921259843
 30
0.0
 10
0.2223346456692913
 20
-0.4621732283464567
 30
0.0
 10
0.2215
 20
-0.4621732283464567
 30
0.0
 10
0.2215
 20
-0.4621732283464567
 30
0.0
 10
0.2189448818897638
 20
-0.4621732283464567
 30
0.0
 10
0.2168897637795276
 20
-0.4613425196850394
 30
0.0
 10
0.2153346456692913
 20
-0.4596456692913386
 30
0.0
 10
0.2153346456692913
 20
-0.4596456692913386
 30
0.0
 10
0.213751968503937
 20
-0.45798031496063
 30
0.0
 10
0.2129724409448819
 20
-0.4558425196850394
 30
0.0
 10
0.2129724409448819
 20
-0.4532283464566929
 30
0.0
 10
0.2129724409448819
 20
-0.4532283464566929
 30
0.0
 10
0.2129724409448819
 20
-0.4506732283464567
 30
0.0
 10
0.2139173228346457
 20
-0.4484527559055118
 30
0.0
 10
0.2158070866141733
 20
-0.4465629921259843
 30
0.0
 10
0.2158070866141733
 20
-0.4465629921259843
 30
0.0
 10
0.2176929133858268
 20
-0.4446456692913386
 30
0.0
 10
0.22
 20
-0.4437007874015748
 30
0.0
 10
0.2226377952755906
 20
-0.4437007874015748
 30
0.0
 10
0.2226377952755906
 20
-0.4437007874015748
 30
0.0
 10
0.2263346456692914
 20
-0.4437007874015748
 30
0.0
 10
0.2295
 20
-0.4451732283464567
 30
0.0
 10
0.2321377952755906
 20
-0.4481456692913386
 30
0.0
 10
0.2321377952755906
 20
-0.4481456692913386
 30
0.0
 10
0.234748031496063
 20
-0.4510905511811024
 30
0.0
 10
0.2360826771653543
 20
-0.4548976377952756
 30
0.0
 10
0.2360826771653543
 20
-0.4595629921259843
 30
0.0
 10
0.2360826771653543
 20
-0.4595629921259843
 30
0.0
 10
0.2360826771653543
 20
-0.4626181102362205
 30
0.0
 10
0.2354448818897638
 20
-0.4658149606299213
 30
0.0
 10
0.2341929133858268
 20
-0.4691456692913386
 30
0.0
 10
0.2341929133858268
 20
-0.4691456692913386
 30
0.0
 10
0.2329448818897638
 20
-0.4724803149606299
 30
0.0
 10
0.2311377952755906
 20
-0.4755629921259843
 30
0.0
 10
0.228751968503937
 20
-0.4784251968503937
 30
0.0
 10
0.228751968503937
 20
-0.4784251968503937
 30
0.0
 10
0.2263622047244095
 20
-0.481255905511811
 30
0.0
 10
0.2216377952755906
 20
-0.4856732283464567
 30
0.0
 10
0.2145826771653543
 20
-0.4916456692913386
 30
0.0
  0
SPLINE
  5
3F
330
1F
100
AcDbEntity
  8
LAYER_1
 62
   250
100
AcDbSpline
210
0.0
220
0.0
230
1.0
 70
    11
 71
     3
 72
   204
 73
   200
 74
     0
 42
0.0000000001
 43
0.0000000001
 40
0.0
 40
0.0
 40
0.0
 40
0.0
 40
0.02
 40
0.02
 40
0.02
 40
0.02
 40
0.04
 40
0.04
 40
0.04
 40
0.04
 40
0.06
 40
0.06
 40
0.06
 40
0.06
 40
0.08
 40
0.08
 40
0.08
 40
0.08
 40
0.1
 40
0.1
 40
0.1
 40
0.1
 40
0.12
 40
0.12
 40
0.12
 40
0.12
 40
0.14
 40
0.14
 40
0.14
 40
0.14
 40
0.16
 40
0.16
 40
0.16
 40
0.16
 40
0.18
 40
0.18
 40
0.18
 40
0.18
 40
0.2
 40
0.2
 40
0.2
 40
0.2
 40
0.22
 40
0.22
 40
0.22
 40
0.22
 40
0.24
 40
0.24
 40
0.24
 40
0.24
 40
0.26
 40
0.26
 40
0.26
 40
0.26
 40
0.28
 40
0.28
 40
0.28
 40
0.28
 40
0.3
 40
0.3
 40
0.3
 40
0.3
 40
0.32
 40
0.32
 40
0.32
 40
0.32
 40
0.34
 40
0.34
 40
0.34
 40
0.34
 40
0.36
 40
0.36
 40
0.36
 40
0.36
 40
0.3800000000000001
 40
0.3800000000000001
 40
0.3800000000000001
 40
0.3800000000000001
 40
0.4000000000000001
 40
0.4000000000000001
 40
0.4000000000000001
 40
0.4000000000000001
 40
0.4200000000000001
 40
0.4200000000000001
 40
0.4200000000000001
 40
0.4200000000000001
 40
0.4400000000000001
 40
0.4400000000000001
 40
0.4400000000000001
 40
0.4400000000000001
 40
0.4600000000000001
 40
0.4600000000000001
 40
0.4600000000000001
 40
0.4600000000000001
 40
0.4800000000000002
 40
0.4800000000000002
 40
0.4800000000000002
 40
0.4800000000000002
 40
0.5000000000000001
 40
0.5000000000000001
 40
0.5000000000000001
 40
0.5000000000000001
 40
0.5200000000000001
 40
0.5200000000000001
 40
0.5200000000000001
 40
0.5200000000000001
 40
0.5400000000000002
 40
0.5400000000000002
 40
0.5400000000000002
 40
0.5400000000000002
 40
0.5600000000000002
 40
0.5600000000000002
 40
0.5600000000000002
 40
0.5600000000000002
 40
0.5800000000000002
 40
0.5800000000000002
 40
0.5800000000000002
 40
0.5800000000000002
 40
0.6000000000000002
 40
0.6000000000000002
 40
0.6000000000000002
 40
0.6000000000000002
 40
0.6200000000000002
 40
0.6200000000000002
 40
0.6200000000000002
 40
0.6200000000000002
 40
0.6400000000000002
 40
0.6400000000000002
 40
0.6400000000000002
 40
0.6400000000000002
 40
0.6600000000000003
 40
0.6600000000000003
 40
0.6600000000000003
 40
0.6600000000000003
 40
0.6800000000000003
 40
0.6800000000000003
 40
0.6800000000000003
 40
0.6800000000000003
 40
0.7000000000000003
 40
0.7000000000000003
 40
0.7000000000000003
 40
0.7000000000000003
 40
0.7200000000000003
 40
0.7200000000000003
 40
0.7200000000000003
 40
0.7200000000000003
 40
0.7400000000000003
 40
0.7400000000000003
 40
0.7400000000000003
 40
0.7400000000000003
 40
0.7600000000000003
 40
0.7600000000000003
 40
0.7600000000000003
 40
0.7600000000000003
 40
0.7800000000000004
 40
0.7800000000000004
 40
0.7800000000000004
 40
0.7800000000000004
 40
0.8000000000000004
 40
0.8000000000000004
 40
0.8000000000000004
 40
0.8000000000000004
 40
0.8200000000000004
 40
0.8200000000000004
 40
0.8200000000000004
 40
0.8200000000000004
 40
0.8400000000000004
 40
0.8400000000000004
 40
0.8400000000000004
 40
0.8400000000000004
 40
0.8600000000000004
 40
0.8600000000000004
 40
0.8600000000000004
 40
0.8600000000000004
 40
0.8800000000000005
 40
0.8800000000000005
 40
0.8800000000000005
 40
0.8800000000000005
 40
0.9000000000000005
 40
0.9000000000000005
 40
0.9000000000000005
 40
0.9000000000000005
 40
0.9200000000000005
 40
0.9200000000000005
 40
0.9200000000000005
 40
0.9200000000000005
 40
0.9400000000000005
 40
0.9400000000000005
 40
0.9400000000000005
 40
0.9400000000000005
 40
0.9600000000000005
 40
0.9600000000000005
 40
0.9600000000000005
 40
0.9600000000000005
 40
0.9800000000000005
 40
0.9800000000000005
 40
0.9800000000000005
 40
0.9800000000000005
 40
1.0
 40
1.0
 40
1.0
 40
1.0
 10
0.2983897637795276
 20
-0.4845629921259843
 30
0.0
 10
0.2983897637795276
 20
-0.4845629921259843
 30
0.0
 10
0.3393346456692913
 20
-0.4845629921259843
 30
0.0
 10
0.3393346456692913
 20
-0.4845629921259843
 30
0.0
 10
0.3393346456692913
 20
-0.4845629921259843
 30
0.0
 10
0.3393346456692913
 20
-0.4845629921259843
 30
0.0
 10
0.3393346456692913
 20
-0.4913976377952756
 30
0.0
 10
0.3393346456692913
 20
-0.4913976377952756
 30
0.0
 10
0.3393346456692913
 20
-0.4913976377952756
 30
0.0
 10
0.3393346456692913
 20
-0.4913976377952756
 30
0.0
 10
0.3365
 20
-0.4913976377952756
 30
0.0
 10
0.3365
 20
-0.4913976377952756
 30
0.0
 10
0.3365
 20
-0.4913976377952756
 30
0.0
 10
0.3348622047244095
 20
-0.4913976377952756
 30
0.0
 10
0.3333622047244095
 20
-0.4915905511811024
 30
0.0
 10
0.332
 20
-0.4919527559055119
 30
0.0
 10
0.332
 20
-0.4919527559055119
 30
0.0
 10
0.3311968503937008
 20
-0.4921732283464567
 30
0.0
 10
0.3305275590551181
 20
-0.4925905511811024
 30
0.0
 10
0.3300275590551181
 20
-0.493228346456693
 30
0.0
 10
0.3300275590551181
 20
-0.493228346456693
 30
0.0
 10
0.3295
 20
-0.4938425196850394
 30
0.0
 10
0.329251968503937
 20
-0.4944251968503937
 30
0.0
 10
0.329251968503937
 20
-0.4949803149606299
 30
0.0
 10
0.329251968503937
 20
-0.4949803149606299
 30
0.0
 10
0.329251968503937
 20
-0.496228346456693
 30
0.0
 10
0.3302795275590552
 20
-0.4980905511811024
 30
0.0
 10
0.3323346456692913
 20
-0.5005905511811024
 30
0.0
 10
0.3323346456692913
 20
-0.5005905511811024
 30
0.0
 10
0.3323346456692913
 20
-0.5005905511811024
 30
0.0
 10
0.3439724409448819
 20
-0.5152283464566929
 30
0.0
 10
0.3439724409448819
 20
-0.5152283464566929
 30
0.0
 10
0.3439724409448819
 20
-0.5152283464566929
 30
0.0
 10
0.3439724409448819
 20
-0.5152283464566929
 30
0.0
 10
0.3575551181102362
 20
-0.5005905511811024
 30
0.0
 10
0.3575551181102362
 20
-0.5005905511811024
 30
0.0
 10
0.3575551181102362
 20
-0.5005905511811024
 30
0.0
 10
0.3600551181102362
 20
-0.4978700787401575
 30
0.0
 10
0.3613070866141733
 20
-0.4958425196850394
 30
0.0
 10
0.3613070866141733
 20
-0.4944803149606299
 30
0.0
 10
0.3613070866141733
 20
-0.4944803149606299
 30
0.0
 10
0.3613070866141733
 20
-0.493507874015748
 30
0.0
 10
0.3608622047244094
 20
-0.492755905511811
 30
0.0
 10
0.36
 20
-0.4922007874015748
 30
0.0
 10
0.36
 20
-0.4922007874015748
 30
0.0
 10
0.3591377952755906
 20
-0.4916732283464567
 30
0.0
 10
0.3572795275590551
 20
-0.4913976377952756
 30
0.0
 10
0.3543897637795276
 20
-0.4913976377952756
 30
0.0
 10
0.3543897637795276
 20
-0.4913976377952756
 30
0.0
 10
0.3543897637795276
 20
-0.4913976377952756
 30
0.0
 10
0.3513070866141733
 20
-0.4913976377952756
 30
0.0
 10
0.3513070866141733
 20
-0.4913976377952756
 30
0.0
 10
0.3513070866141733
 20
-0.4913976377952756
 30
0.0
 10
0.3513070866141733
 20
-0.4913976377952756
 30
0.0
 10
0.3513070866141733
 20
-0.4845629921259843
 30
0.0
 10
0.3513070866141733
 20
-0.4845629921259843
 30
0.0
 10
0.3513070866141733
 20
-0.4845629921259843
 30
0.0
 10
0.3513070866141733
 20
-0.4845629921259843
 30
0.0
 10
0.3860551181102362
 20
-0.4845629921259843
 30
0.0
 10
0.3860551181102362
 20
-0.4845629921259843
 30
0.0
 10
0.3860551181102362
 20
-0.4845629921259843
 30
0.0
 10
0.3860551181102362
 20
-0.4845629921259843
 30
0.0
 10
0.3860551181102362
 20
-0.4913976377952756
 30
0.0
 10
0.3860551181102362
 20
-0.4913976377952756
 30
0.0
 10
0.3860551181102362
 20
-0.4913976377952756
 30
0.0
 10
0.3826377952755906
 20
-0.4915629921259843
 30
0.0
 10
0.3796929133858268
 20
-0.492255905511811
 30
0.0
 10
0.3772244094488189
 20
-0.493507874015748
 30
0.0
 10
0.3772244094488189
 20
-0.493507874015748
 30
0.0
 10
0.3747519685039371
 20
-0.494755905511811
 30
0.0
 10
0.3718346456692914
 20
-0.4971181102362205
 30
0.0
 10
0.3684724409448819
 20
-0.5005905511811024
 30
0.0
 10
0.3684724409448819
 20
-0.5005905511811024
 30
0.0
 10
0.3684724409448819
 20
-0.5005905511811024
 30
0.0
 10
0.3498346456692913
 20
-0.5199527559055118
 30
0.0
 10
0.3498346456692913
 20
-0.5199527559055118
 30
0.0
 10
0.3498346456692913
 20
-0.5199527559055118
 30
0.0
 10
0.3498346456692913
 20
-0.5199527559055118
 30
0.0
 10
0.3730275590551181
 20
-0.5463976377952756
 30
0.0
 10
0.3730275590551181
 20
-0.5463976377952756
 30
0.0
 10
0.3730275590551181
 20
-0.5463976377952756
 30
0.0
 10
0.3730275590551181
 20
-0.5463976377952756
 30
0.0
 10
0.3739173228346457
 20
-0.5475354330708662
 30
0.0
 10
0.3739173228346457
 20
-0.5475354330708662
 30
0.0
 10
0.3739173228346457
 20
-0.5475354330708662
 30
0.0
 10
0.3761929133858268
 20
-0.55048031496063
 30
0.0
 10
0.378751968503937
 20
-0.5528425196850394
 30
0.0
 10
0.3815826771653543
 20
-0.5546181102362205
 30
0.0
 10
0.3815826771653543
 20
-0.5546181102362205
 30
0.0
 10
0.3831377952755906
 20
-0.5556456692913386
 30
0.0
 10
0.3855826771653543
 20
-0.5562007874015749
 30
0.0
 10
0.3888897637795276
 20
-0.556255905511811
 30
0.0
 10
0.3888897637795276
 20
-0.556255905511811
 30
0.0
 10
0.3888897637795276
 20
-0.556255905511811
 30
0.0
 10
0.3888897637795276
 20
-0.5630905511811024
 30
0.0
 10
0.3888897637795276
 20
-0.5630905511811024
 30
0.0
 10
0.3888897637795276
 20
-0.5630905511811024
 30
0.0
 10
0.3888897637795276
 20
-0.5630905511811024
 30
0.0
 10
0.3489448818897638
 20
-0.5630905511811024
 30
0.0
 10
0.3489448818897638
 20
-0.5630905511811024
 30
0.0
 10
0.3489448818897638
 20
-0.5630905511811024
 30
0.0
 10
0.3489448818897638
 20
-0.5630905511811024
 30
0.0
 10
0.3489448818897638
 20
-0.556255905511811
 30
0.0
 10
0.3489448818897638
 20
-0.556255905511811
 30
0.0
 10
0.3489448818897638
 20
-0.556255905511811
 30
0.0
 10
0.3489448818897638
 20
-0.556255905511811
 30
0.0
 10
0.3523622047244095
 20
-0.556255905511811
 30
0.0
 10
0.3523622047244095
 20
-0.556255905511811
 30
0.0
 10
0.3523622047244095
 20
-0.556255905511811
 30
0.0
 10
0.3549724409448819
 20
-0.556255905511811
 30
0.0
 10
0.3566102362204724
 20
-0.5560905511811024
 30
0.0
 10
0.3573346456692914
 20
-0.5557559055118111
 30
0.0
 10
0.3573346456692914
 20
-0.5557559055118111
 30
0.0
 10
0.3585
 20
-0.5552283464566929
 30
0.0
 10
0.3591102362204725
 20
-0.5543110236220473
 30
0.0
 10
0.3591102362204725
 20
-0.553007874015748
 30
0.0
 10
0.3591102362204725
 20
-0.553007874015748
 30
0.0
 10
0.3591102362204725
 20
-0.5518110236220473
 30
0.0
 10
0.3578070866141733
 20
-0.5496181102362205
 30
0.0
 10
0.3551929133858268
 20
-0.5463976377952756
 30
0.0
 10
0.3551929133858268
 20
-0.5463976377952756
 30
0.0
 10
0.3551929133858268
 20
-0.5463976377952756
 30
0.0
 10
0.3403897637795276
 20
-0.528255905511811
 30
0.0
 10
0.3403897637795276
 20
-0.528255905511811
 30
0.0
 10
0.3403897637795276
 20
-0.528255905511811
 30
0.0
 10
0.3403897637795276
 20
-0.528255905511811
 30
0.0
 10
0.3238622047244095
 20
-0.5463976377952756
 30
0.0
 10
0.3238622047244095
 20
-0.5463976377952756
 30
0.0
 10
0.3238622047244095
 20
-0.5463976377952756
 30
0.0
 10
0.3238622047244095
 20
-0.5463976377952756
 30
0.0
 10
0.322251968503937
 20
-0.5483700787401575
 30
0.0
 10
0.322251968503937
 20
-0.5483700787401575
 30
0.0
 10
0.322251968503937
 20
-0.5483700787401575
 30
0.0
 10
0.322251968503937
 20
-0.5483700787401575
 30
0.0
 10
0.3213622047244095
 20
-0.5493425196850394
 30
0.0
 10
0.3213622047244095
 20
-0.5493425196850394
 30
0.0
 10
0.3213622047244095
 20
-0.5493425196850394
 30
0.0
 10
0.32
 20
-0.5508110236220473
 30
0.0
 10
0.3193070866141732
 20
-0.5520905511811024
 30
0.0
 10
0.3193070866141732
 20
-0.5532283464566929
 30
0.0
 10
0.3193070866141732
 20
-0.5532283464566929
 30
0.0
 10
0.3193070866141732
 20
-0.5542834645669291
 30
0.0
 10
0.3197244094488189
 20
-0.5550354330708661
 30
0.0
 10
0.3205826771653543
 20
-0.5555354330708662
 30
0.0
 10
0.3205826771653543
 20
-0.5555354330708662
 30
0.0
 10
0.3214173228346457
 20
-0.556007874015748
 30
0.0
 10
0.3233070866141732
 20
-0.556255905511811
 30
0.0
 10
0.3262244094488189
 20
-0.556255905511811
 30
0.0
 10
0.3262244094488189
 20
-0.556255905511811
 30
0.0
 10
0.3262244094488189
 20
-0.556255905511811
 30
0.0
 10
0.3295
 20
-0.556255905511811
 30
0.0
 10
0.3295
 20
-0.556255905511811
 30
0.0
 10
0.3295
 20
-0.556255905511811
 30
0.0
 10
0.3295
 20
-0.556255905511811
 30
0.0
 10
0.3295
 20
-0.5630905511811024
 30
0.0
 10
0.3295
 20
-0.5630905511811024
 30
0.0
 10
0.3295
 20
-0.5630905511811024
 30
0.0
 10
0.3295
 20
-0.5630905511811024
 30
0.0
 10
0.2952244094488189
 20
-0.5630905511811024
 30
0.0
 10
0.2952244094488189
 20
-0.5630905511811024
 30
0.0
 10
0.2952244094488189
 20
-0.5630905511811024
 30
0.0
 10
0.2952244094488189
 20
-0.5630905511811024
 30
0.0
 10
0.2952244094488189
 20
-0.556255905511811
 30
0.0
 10
0.2952244094488189
 20
-0.556255905511811
 30
0.0
 10
0.2952244094488189
 20
-0.556255905511811
 30
0.0
 10
0.2978897637795276
 20
-0.5562007874015749
 30
0.0
 10
0.2999724409448819
 20
-0.5559251968503938
 30
0.0
 10
0.3015
 20
-0.5553976377952756
 30
0.0
 10
0.3015
 20
-0.5553976377952756
 30
0.0
 10
0.303
 20
-0.5548976377952756
 30
0.0
 10
0.3044724409448819
 20
-0.5540905511811024
 30
0.0
 10
0.3058897637795276
 20
-0.553007874015748
 30
0.0
 10
0.3058897637795276
 20
-0.553007874015748
 30
0.0
 10
0.3083346456692914
 20
-0.5510354330708661
 30
0.0
 10
0.3100826771653544
 20
-0.5495078740157481
 30
0.0
 10
0.3111692913385827
 20
-0.5483700787401575
 30
0.0
 10
0.3111692913385827
 20
-0.5483700787401575
 30
0.0
 10
0.3111692913385827
 20
-0.5483700787401575
 30
0.0
 10
0.3350275590551181
 20
-0.5238700787401575
 30
0.0
 10
0.3350275590551181
 20
-0.5238700787401575
 30
0.0
 10
0.3350275590551181
 20
-0.5238700787401575
 30
0.0
 10
0.3350275590551181
 20
-0.5238700787401575
 30
0.0
 10
0.314751968503937
 20
-0.5005905511811024
 30
0.0
 10
0.314751968503937
 20
-0.5005905511811024
 30
0.0
 10
0.314751968503937
 20
-0.5005905511811024
 30
0.0
 10
0.3121968503937008
 20
-0.4977007874015748
 30
0.0
 10
0.3101968503937008
 20
-0.4957007874015748
 30
0.0
 10
0.3086968503937008
 20
-0.4945354330708662
 30
0.0
 10
0.3086968503937008
 20
-0.4945354330708662
 30
0.0
 10
0.3071968503937008
 20
-0.4933700787401575
 30
0.0
 10
0.305751968503937
 20
-0.4925354330708662
 30
0.0
 10
0.3043346456692914
 20
-0.4920905511811024
 30
0.0
 10
0.3043346456692914
 20
-0.4920905511811024
 30
0.0
 10
0.3029173228346457
 20
-0.4916181102362205
 30
0.0
 10
0.3009448818897638
 20
-0.4913976377952756
 30
0.0
 10
0.2983897637795276
 20
-0.4913976377952756
 30
0.0
 10
0.2983897637795276
 20
-0.4913976377952756
 30
0.0
 10
0.2983897637795276
 20
-0.4913976377952756
 30
0.0
 10
0.2983897637795276
 20
-0.4845629921259843
 30
0.0
 10
0.2983897637795276
 20
-0.4845629921259843
 30
0.0
  0
SPLINE
  5
40
330
1F
100
AcDbEntity
  8
LAYER_1
 62
   250
100
AcDbSpline
210
0.0
220
0.0
230
1.0
 70
    11
 71
     3
 72
    72
 73
    68
 74
     0
 42
0.0000000001
 43
0.0000000001
 40
0.0
 40
0.0
 40
0.0
 40
0.0
 40
0.0588235294117647
 40
0.0588235294117647
 40
0.0588235294117647
 40
0.0588235294117647
 40
0.1176470588235294
 40
0.1176470588235294
 40
0.1176470588235294
 40
0.1176470588235294
 40
0.1764705882352941
 40
0.1764705882352941
 40
0.1764705882352941
 40
0.1764705882352941
 40
0.2352941176470588
 40
0.2352941176470588
 40
0.2352941176470588
 40
0.2352941176470588
 40
0.2941176470588235
 40
0.2941176470588235
 40
0.2941176470588235
 40
0.2941176470588235
 40
0.3529411764705883
 40
0.3529411764705883
 40
0.3529411764705883
 40
0.3529411764705883
 40
0.411764705882353
 40
0.411764705882353
 40
0.411764705882353
 40
0.411764705882353
 40
0.4705882352941177
 40
0.4705882352941177
 40
0.4705882352941177
 40
0.4705882352941177
 40
0.5294117647058824
 40
0.5294117647058824
 40
0.5294117647058824
 40
0.5294117647058824
 40
0.5882352941176471
 40
0.5882352941176471
 40
0.5882352941176471
 40
0.5882352941176471
 40
0.6470588235294118
 40
0.6470588235294118
 40
0.6470588235294118
 40
0.6470588235294118
 40
0.7058823529411765
 40
0.7058823529411765
 40
0.7058823529411765
 40
0.7058823529411765
 40
0.7647058823529412
 40
0.7647058823529412
 40
0.7647058823529412
 40
0.7647058823529412
 40
0.823529411764706
 40
0.823529411764706
 40
0.823529411764706
 40
0.823529411764706
 40
0.8823529411764707
 40
0.8823529411764707
 40
0.8823529411764707
 40
0.8823529411764707
 40
0.9411764705882354
 40
0.9411764705882354
 40
0.9411764705882354
 40
0.9411764705882354
 40
1.0
 40
1.0
 40
1.0
 40
1.0
 10
0.4980275590551181
 20
-0.4495629921259843
 30
0.0
 10
0.4980275590551181
 20
-0.4495629921259843
 30
0.0
 10
0.5041102362204725
 20
-0.4495629921259843
 30
0.0
 10
0.5041102362204725
 20
-0.4495629921259843
 30
0.0
 10
0.5041102362204725
 20
-0.4495629921259843
 30
0.0
 10
0.5041102362204725
 20
-0.4495629921259843
 30
0.0
 10
0.5041102362204725
 20
-0.5438110236220473
 30
0.0
 10
0.5041102362204725
 20
-0.5438110236220473
 30
0.0
 10
0.5041102362204725
 20
-0.5438110236220473
 30
0.0
 10
0.5041102362204725
 20
-0.548255905511811
 30
0.0
 10
0.5044173228346457
 20
-0.5511181102362205
 30
0.0
 10
0.5049724409448819
 20
-0.5523976377952756
 30
0.0
 10
0.5049724409448819
 20
-0.5523976377952756
 30
0.0
 10
0.5055551181102362
 20
-0.5536732283464567
 30
0.0
 10
0.5064724409448819
 20
-0.5546181102362205
 30
0.0
 10
0.5077755905511812
 20
-0.5552834645669291
 30
0.0
 10
0.5077755905511812
 20
-0.5552834645669291
 30
0.0
 10
0.5090826771653544
 20
-0.5559251968503938
 30
0.0
 10
0.5116653543307087
 20
-0.556255905511811
 30
0.0
 10
0.5155275590551182
 20
-0.556255905511811
 30
0.0
 10
0.5155275590551182
 20
-0.556255905511811
 30
0.0
 10
0.5155275590551182
 20
-0.556255905511811
 30
0.0
 10
0.5235
 20
-0.556255905511811
 30
0.0
 10
0.5235
 20
-0.556255905511811
 30
0.0
 10
0.5235
 20
-0.556255905511811
 30
0.0
 10
0.5235
 20
-0.556255905511811
 30
0.0
 10
0.5235
 20
-0.5630905511811024
 30
0.0
 10
0.5235
 20
-0.5630905511811024
 30
0.0
 10
0.5235
 20
-0.5630905511811024
 30
0.0
 10
0.5235
 20
-0.5630905511811024
 30
0.0
 10
0.4698622047244095
 20
-0.5630905511811024
 30
0.0
 10
0.4698622047244095
 20
-0.5630905511811024
 30
0.0
 10
0.4698622047244095
 20
-0.5630905511811024
 30
0.0
 10
0.4698622047244095
 20
-0.5630905511811024
 30
0.0
 10
0.4698622047244095
 20
-0.556255905511811
 30
0.0
 10
0.4698622047244095
 20
-0.556255905511811
 30
0.0
 10
0.4698622047244095
 20
-0.556255905511811
 30
0.0
 10
0.4698622047244095
 20
-0.556255905511811
 30
0.0
 10
0.4787204724409449
 20
-0.556255905511811
 30
0.0
 10
0.4787204724409449
 20
-0.556255905511811
 30
0.0
 10
0.4787204724409449
 20
-0.556255905511811
 30
0.0
 10
0.4825826771653544
 20
-0.556255905511811
 30
0.0
 10
0.4851377952755906
 20
-0.5559251968503938
 30
0.0
 10
0.4864173228346457
 20
-0.5552283464566929
 30
0.0
 10
0.4864173228346457
 20
-0.5552283464566929
 30
0.0
 10
0.4876929133858268
 20
-0.5545629921259843
 30
0.0
 10
0.4886929133858268
 20
-0.55348031496063
 30
0.0
 10
0.4893897637795276
 20
-0.5519803149606299
 30
0.0
 10
0.4893897637795276
 20
-0.5519803149606299
 30
0.0
 10
0.4900826771653544
 20
-0.55048031496063
 30
0.0
 10
0.4904448818897638
 20
-0.5477559055118111
 30
0.0
 10
0.4904448818897638
 20
-0.5438110236220473
 30
0.0
 10
0.4904448818897638
 20
-0.5438110236220473
 30
0.0
 10
0.4904448818897638
 20
-0.5438110236220473
 30
0.0
 10
0.4904448818897638
 20
-0.4663425196850394
 30
0.0
 10
0.4904448818897638
 20
-0.4663425196850394
 30
0.0
 10
0.4904448818897638
 20
-0.4663425196850394
 30
0.0
 10
0.4904448818897638
 20
-0.4663425196850394
 30
0.0
 10
0.4698622047244095
 20
-0.4663425196850394
 30
0.0
 10
0.4698622047244095
 20
-0.4663425196850394
 30
0.0
 10
0.4698622047244095
 20
-0.4663425196850394
 30
0.0
 10
0.4698622047244095
 20
-0.4663425196850394
 30
0.0
 10
0.4698622047244095
 20
-0.4593425196850394
 30
0.0
 10
0.4698622047244095
 20
-0.4593425196850394
 30
0.0
 10
0.4698622047244095
 20
-0.4593425196850394
 30
0.0
 10
0.4810826771653544
 20
-0.4577598425196851
 30
0.0
 10
0.4904724409448819
 20
-0.4545078740157481
 30
0.0
 10
0.4980275590551181
 20
-0.4495629921259843
 30
0.0
  0
SPLINE
  5
41
330
1F
100
AcDbEntity
  8
LAYER_1
 62
   250
100
AcDbSpline
210
0.0
220
0.0
230
1.0
 70
    11
 71
     3
 72
   132
 73
   128
 74
     0
 42
0.0000000001
 43
0.0000000001
 40
0.0
 40
0.0
 40
0.0
 40
0.0
 40
0.03125
 40
0.03125
 40
0.03125
 40
0.03125
 40
0.0625
 40
0.0625
 40
0.0625
 40
0.0625
 40
0.09375
 40
0.09375
 40
0.09375
 40
0.09375
 40
0.125
 40
0.125
 40
0.125
 40
0.125
 40
0.15625
 40
0.15625
 40
0.15625
 40
0.15625
 40
0.1875
 40
0.1875
 40
0.1875
 40
0.1875
 40
0.21875
 40
0.21875
 40
0.21875
 40
0.21875
 40
0.25
 40
0.25
 40
0.25
 40
0.25
 40
0.28125
 40
0.28125
 40
0.28125
 40
0.28125
 40
0.3125
 40
0.3125
 40
0.3125
 40
0.3125
 40
0.34375
 40
0.34375
 40
0.34375
 40
0.34375
 40
0.375
 40
0.375
 40
0.375
 40
0.375
 40
0.40625
 40
0.40625
 40
0.40625
 40
0.40625
 40
0.4375
 40
0.4375
 40
0.4375
 40
0.4375
 40
0.46875
 40
0.46875
 40
0.46875
 40
0.46875
 40
0.5
 40
0.5
 40
0.5
 40
0.5
 40
0.53125
 40
0.53125
 40
0.53125
 40
0.53125
 40
0.5625
 40
0.5625
 40
0.5625
 40
0.5625
 40
0.59375
 40
0.59375
 40
0.59375
 40
0.59375
 40
0.625
 40
0.625
 40
0.625
 40
0.625
 40
0.65625
 40
0.65625
 40
0.65625
 40
0.65625
 40
0.6875
 40
0.6875
 40
0.6875
 40
0.6875
 40
0.71875
 40
0.71875
 40
0.71875
 40
0.71875
 40
0.75
 40
0.75
 40
0.75
 40
0.75
 40
0.78125
 40
0.78125
 40
0.78125
 40
0.78125
 40
0.8125
 40
0.8125
 40
0.8125
 40
0.8125
 40
0.84375
 40
0.84375
 40
0.84375
 40
0.84375
 40
0.875
 40
0.875
 40
0.875
 40
0.875
 40
0.90625
 40
0.90625
 40
0.90625
 40
0.90625
 40
0.9375
 40
0.9375
 40
0.9375
 40
0.9375
 40
0.96875
 40
0.96875
 40
0.96875
 40
0.96875
 40
1.0
 40
1.0
 40
1.0
 40
1.0
 10
0.5677795275590551
 20
-0.4495629921259843
 30
0.0
 10
0.5677795275590551
 20
-0.4495629921259843
 30
0.0
 10
0.6183897637795276
 20
-0.4495629921259843
 30
0.0
 10
0.6183897637795276
 20
-0.4495629921259843
 30
0.0
 10
0.6183897637795276
 20
-0.4495629921259843
 30
0.0
 10
0.621472440944882
 20
-0.4495629921259843
 30
0.0
 10
0.6233622047244095
 20
-0.4493976377952756
 30
0.0
 10
0.624
 20
-0.4490629921259843
 30
0.0
 10
0.624
 20
-0.4490629921259843
 30
0.0
 10
0.6249173228346457
 20
-0.4485354330708662
 30
0.0
 10
0.625472440944882
 20
-0.4473700787401575
 30
0.0
 10
0.6256377952755906
 20
-0.4455905511811024
 30
0.0
 10
0.6256377952755906
 20
-0.4455905511811024
 30
0.0
 10
0.6256377952755906
 20
-0.4455905511811024
 30
0.0
 10
0.6315826771653543
 20
-0.4455905511811024
 30
0.0
 10
0.6315826771653543
 20
-0.4455905511811024
 30
0.0
 10
0.6315826771653543
 20
-0.4455905511811024
 30
0.0
 10
0.6315826771653543
 20
-0.4455905511811024
 30
0.0
 10
0.6315826771653543
 20
-0.4627598425196851
 30
0.0
 10
0.6315826771653543
 20
-0.4627598425196851
 30
0.0
 10
0.6315826771653543
 20
-0.4627598425196851
 30
0.0
 10
0.6315826771653543
 20
-0.4627598425196851
 30
0.0
 10
0.5753346456692914
 20
-0.4627598425196851
 30
0.0
 10
0.5753346456692914
 20
-0.4627598425196851
 30
0.0
 10
0.5753346456692914
 20
-0.4627598425196851
 30
0.0
 10
0.5753346456692914
 20
-0.4627598425196851
 30
0.0
 10
0.5739448818897638
 20
-0.4913976377952756
 30
0.0
 10
0.5739448818897638
 20
-0.4913976377952756
 30
0.0
 10
0.5739448818897638
 20
-0.4913976377952756
 30
0.0
 10
0.5762795275590551
 20
-0.4907283464566929
 30
0.0
 10
0.579251968503937
 20
-0.4902007874015748
 30
0.0
 10
0.5828346456692913
 20
-0.489755905511811
 30
0.0
 10
0.5828346456692913
 20
-0.489755905511811
 30
0.0
 10
0.5874448818897639
 20
-0.4892283464566929
 30
0.0
 10
0.5915551181102362
 20
-0.4889527559055119
 30
0.0
 10
0.5951968503937009
 20
-0.4889527559055119
 30
0.0
 10
0.5951968503937009
 20
-0.4889527559055119
 30
0.0
 10
0.604251968503937
 20
-0.4889527559055119
 30
0.0
 10
0.6121377952755905
 20
-0.4905905511811024
 30
0.0
 10
0.6188897637795275
 20
-0.4938425196850394
 30
0.0
 10
0.6188897637795275
 20
-0.4938425196850394
 30
0.0
 10
0.6256102362204725
 20
-0.4970905511811024
 30
0.0
 10
0.6307204724409449
 20
-0.5015629921259843
 30
0.0
 10
0.6342204724409449
 20
-0.5072283464566929
 30
0.0
 10
0.6342204724409449
 20
-0.5072283464566929
 30
0.0
 10
0.6377204724409449
 20
-0.5128976377952756
 30
0.0
 10
0.6394724409448819
 20
-0.5192283464566929
 30
0.0
 10
0.6394724409448819
 20
-0.5262283464566929
 30
0.0
 10
0.6394724409448819
 20
-0.5262283464566929
 30
0.0
 10
0.6394724409448819
 20
-0.5370629921259843
 30
0.0
 10
0.6353897637795276
 20
-0.546255905511811
 30
0.0
 10
0.6272519685039371
 20
-0.5537834645669292
 30
0.0
 10
0.6272519685039371
 20
-0.5537834645669292
 30
0.0
 10
0.6191102362204725
 20
-0.5612834645669291
 30
0.0
 10
0.608751968503937
 20
-0.5650354330708661
 30
0.0
 10
0.5961653543307087
 20
-0.5650354330708661
 30
0.0
 10
0.5961653543307087
 20
-0.5650354330708661
 30
0.0
 10
0.5888897637795276
 20
-0.5650354330708661
 30
0.0
 10
0.5823346456692914
 20
-0.5637283464566929
 30
0.0
 10
0.5764448818897638
 20
-0.5611456692913386
 30
0.0
 10
0.5764448818897638
 20
-0.5611456692913386
 30
0.0
 10
0.5705551181102363
 20
-0.5585354330708662
 30
0.0
 10
0.5659448818897638
 20
-0.5550905511811024
 30
0.0
 10
0.5626377952755906
 20
-0.5508425196850394
 30
0.0
 10
0.5626377952755906
 20
-0.5508425196850394
 30
0.0
 10
0.5593346456692914
 20
-0.5465905511811023
 30
0.0
 10
0.5576692913385827
 20
-0.5428425196850394
 30
0.0
 10
0.5576692913385827
 20
-0.5396456692913386
 30
0.0
 10
0.5576692913385827
 20
-0.5396456692913386
 30
0.0
 10
0.5576692913385827
 20
-0.5375354330708662
 30
0.0
 10
0.5583897637795275
 20
-0.5357007874015748
 30
0.0
 10
0.5598070866141732
 20
-0.5341456692913386
 30
0.0
 10
0.5598070866141732
 20
-0.5341456692913386
 30
0.0
 10
0.5611968503937008
 20
-0.5326181102362205
 30
0.0
 10
0.5630275590551181
 20
-0.5318425196850394
 30
0.0
 10
0.565251968503937
 20
-0.5318425196850394
 30
0.0
 10
0.565251968503937
 20
-0.5318425196850394
 30
0.0
 10
0.5675275590551181
 20
-0.5318425196850394
 30
0.0
 10
0.5695275590551181
 20
-0.5327834645669292
 30
0.0
 10
0.5712795275590551
 20
-0.5347007874015748
 30
0.0
 10
0.5712795275590551
 20
-0.5347007874015748
 30
0.0
 10
0.572251968503937
 20
-0.5356732283464567
 30
0.0
 10
0.5734173228346456
 20
-0.5380629921259843
 30
0.0
 10
0.5747795275590552
 20
-0.5418425196850394
 30
0.0
 10
0.5747795275590552
 20
-0.5418425196850394
 30
0.0
 10
0.5766102362204725
 20
-0.5471732283464568
 30
0.0
 10
0.5793622047244095
 20
-0.5510629921259843
 30
0.0
 10
0.5830000000000001
 20
-0.5535629921259843
 30
0.0
 10
0.5830000000000001
 20
-0.5535629921259843
 30
0.0
 10
0.5865551181102362
 20
-0.5561181102362205
 30
0.0
 10
0.5910826771653543
 20
-0.5573976377952756
 30
0.0
 10
0.5965
 20
-0.5573976377952756
 30
0.0
 10
0.5965
 20
-0.5573976377952756
 30
0.0
 10
0.6019173228346457
 20
-0.5573976377952756
 30
0.0
 10
0.606751968503937
 20
-0.5562007874015749
 30
0.0
 10
0.6109724409448819
 20
-0.5538425196850394
 30
0.0
 10
0.6109724409448819
 20
-0.5538425196850394
 30
0.0
 10
0.615224409448819
 20
-0.5515078740157481
 30
0.0
 10
0.6185551181102362
 20
-0.5480905511811024
 30
0.0
 10
0.621
 20
-0.5436732283464567
 30
0.0
 10
0.621
 20
-0.5436732283464567
 30
0.0
 10
0.6234448818897638
 20
-0.539255905511811
 30
0.0
 10
0.6246653543307087
 20
-0.5343425196850394
 30
0.0
 10
0.6246653543307087
 20
-0.5289251968503937
 30
0.0
 10
0.6246653543307087
 20
-0.5289251968503937
 30
0.0
 10
0.6246653543307087
 20
-0.5232007874015748
 30
0.0
 10
0.6233346456692913
 20
-0.5181456692913387
 30
0.0
 10
0.6206929133858268
 20
-0.5137007874015749
 30
0.0
 10
0.6206929133858268
 20
-0.5137007874015749
 30
0.0
 10
0.6180826771653544
 20
-0.509255905511811
 30
0.0
 10
0.6143070866141732
 20
-0.5057874015748032
 30
0.0
 10
0.6093897637795276
 20
-0.5033700787401575
 30
0.0
 10
0.6093897637795276
 20
-0.5033700787401575
 30
0.0
 10
0.604472440944882
 20
-0.5009251968503937
 30
0.0
 10
0.5985
 20
-0.4997007874015748
 30
0.0
 10
0.5914448818897639
 20
-0.4997007874015748
 30
0.0
 10
0.5914448818897639
 20
-0.4997007874015748
 30
0.0
 10
0.5871653543307087
 20
-0.4997007874015748
 30
0.0
 10
0.5825551181102362
 20
-0.5001456692913386
 30
0.0
 10
0.5776653543307087
 20
-0.5010905511811024
 30
0.0
 10
0.5776653543307087
 20
-0.5010905511811024
 30
0.0
 10
0.5727519685039371
 20
-0.5020078740157481
 30
0.0
 10
0.5685275590551181
 20
-0.5031732283464567
 30
0.0
 10
0.5650000000000001
 20
-0.5045905511811024
 30
0.0
 10
0.5650000000000001
 20
-0.5045905511811024
 30
0.0
 10
0.5650000000000001
 20
-0.5045905511811024
 30
0.0
 10
0.5677795275590551
 20
-0.4495629921259843
 30
0.0
 10
0.5677795275590551
 20
-0.4495629921259843
 30
0.0
  0
SPLINE
  5
42
330
1F
100
AcDbEntity
  8
LAYER_1
 62
   250
100
AcDbSpline
210
0.0
220
0.0
230
1.0
 70
    11
 71
     3
 72
    20
 73
    16
 74
     0
 42
0.0000000001
 43
0.0000000001
 40
0.0
 40
0.0
 40
0.0
 40
0.0
 40
0.25
 40
0.25
 40
0.25
 40
0.25
 40
0.5
 40
0.5
 40
0.5
 40
0.5
 40
0.75
 40
0.75
 40
0.75
 40
0.75
 40
1.0
 40
1.0
 40
1.0
 40
1.0
 10
0.730224409448819
 20
-0.4437007874015748
 30
0.0
 10
0.730224409448819
 20
-0.4437007874015748
 30
0.0
 10
0.6746417322834646
 20
-0.5993976377952757
 30
0.0
 10
0.6746417322834646
 20
-0.5993976377952757
 30
0.0
 10
0.6746417322834646
 20
-0.5993976377952757
 30
0.0
 10
0.6746417322834646
 20
-0.5993976377952757
 30
0.0
 10
0.6625866141732284
 20
-0.5993976377952757
 30
0.0
 10
0.6625866141732284
 20
-0.5993976377952757
 30
0.0
 10
0.6625866141732284
 20
-0.5993976377952757
 30
0.0
 10
0.6625866141732284
 20
-0.5993976377952757
 30
0.0
 10
0.7178346456692913
 20
-0.4437007874015748
 30
0.0
 10
0.7178346456692913
 20
-0.4437007874015748
 30
0.0
 10
0.7178346456692913
 20
-0.4437007874015748
 30
0.0
 10
0.7178346456692913
 20
-0.4437007874015748
 30
0.0
 10
0.730224409448819
 20
-0.4437007874015748
 30
0.0
 10
0.730224409448819
 20
-0.4437007874015748
 30
0.0
  0
SPLINE
  5
43
330
1F
100
AcDbEntity
  8
LAYER_1
 62
   250
100
AcDbSpline
210
0.0
220
0.0
230
1.0
 70
    11
 71
     3
 72
    72
 73
    68
 74
     0
 42
0.0000000001
 43
0.0000000001
 40
0.0
 40
0.0
 40
0.0
 40
0.0
 40
0.0588235294117647
 40
0.0588235294117647
 40
0.0588235294117647
 40
0.0588235294117647
 40
0.1176470588235294
 40
0.1176470588235294
 40
0.1176470588235294
 40
0.1176470588235294
 40
0.1764705882352941
 40
0.1764705882352941
 40
0.1764705882352941
 40
0.1764705882352941
 40
0.2352941176470588
 40
0.2352941176470588
 40
0.2352941176470588
 40
0.2352941176470588
 40
0.2941176470588235
 40
0.2941176470588235
 40
0.2941176470588235
 40
0.2941176470588235
 40
0.3529411764705883
 40
0.3529411764705883
 40
0.3529411764705883
 40
0.3529411764705883
 40
0.411764705882353
 40
0.411764705882353
 40
0.411764705882353
 40
0.411764705882353
 40
0.4705882352941177
 40
0.4705882352941177
 40
0.4705882352941177
 40
0.4705882352941177
 40
0.5294117647058824
 40
0.5294117647058824
 40
0.5294117647058824
 40
0.5294117647058824
 40
0.5882352941176471
 40
0.5882352941176471
 40
0.5882352941176471
 40
0.5882352941176471
 40
0.6470588235294118
 40
0.6470588235294118
 40
0.6470588235294118
 40
0.6470588235294118
 40
0.7058823529411765
 40
0.7058823529411765
 40
0.7058823529411765
 40
0.7058823529411765
 40
0.7647058823529412
 40
0.7647058823529412
 40
0.7647058823529412
 40
0.7647058823529412
 40
0.823529411764706
 40
0.823529411764706
 40
0.823529411764706
 40
0.823529411764706
 40
0.8823529411764707
 40
0.8823529411764707
 40
0.8823529411764707
 40
0.8823529411764707
 40
0.9411764705882354
 40
0.9411764705882354
 40
0.9411764705882354
 40
0.9411764705882354
 40
1.0
 40
1.0
 40
1.0
 40
1.0
 10
0.8047795275590551
 20
-0.4495629921259843
 30
0.0
 10
0.8047795275590551
 20
-0.4495629921259843
 30
0.0
 10
0.8108622047244095
 20
-0.4495629921259843
 30
0.0
 10
0.8108622047244095
 20
-0.4495629921259843
 30
0.0
 10
0.8108622047244095
 20
-0.4495629921259843
 30
0.0
 10
0.8108622047244095
 20
-0.4495629921259843
 30
0.0
 10
0.8108622047244095
 20
-0.5438110236220473
 30
0.0
 10
0.8108622047244095
 20
-0.5438110236220473
 30
0.0
 10
0.8108622047244095
 20
-0.5438110236220473
 30
0.0
 10
0.8108622047244095
 20
-0.548255905511811
 30
0.0
 10
0.8111692913385827
 20
-0.5511181102362205
 30
0.0
 10
0.811724409448819
 20
-0.5523976377952756
 30
0.0
 10
0.811724409448819
 20
-0.5523976377952756
 30
0.0
 10
0.8123070866141733
 20
-0.5536732283464567
 30
0.0
 10
0.8132244094488189
 20
-0.5546181102362205
 30
0.0
 10
0.8145275590551181
 20
-0.5552834645669291
 30
0.0
 10
0.8145275590551181
 20
-0.5552834645669291
 30
0.0
 10
0.8158346456692913
 20
-0.5559251968503938
 30
0.0
 10
0.8184173228346457
 20
-0.556255905511811
 30
0.0
 10
0.8222795275590552
 20
-0.556255905511811
 30
0.0
 10
0.8222795275590552
 20
-0.556255905511811
 30
0.0
 10
0.8222795275590552
 20
-0.556255905511811
 30
0.0
 10
0.830251968503937
 20
-0.556255905511811
 30
0.0
 10
0.830251968503937
 20
-0.556255905511811
 30
0.0
 10
0.830251968503937
 20
-0.556255905511811
 30
0.0
 10
0.830251968503937
 20
-0.556255905511811
 30
0.0
 10
0.830251968503937
 20
-0.5630905511811024
 30
0.0
 10
0.830251968503937
 20
-0.5630905511811024
 30
0.0
 10
0.830251968503937
 20
-0.5630905511811024
 30
0.0
 10
0.830251968503937
 20
-0.5630905511811024
 30
0.0
 10
0.7766141732283465
 20
-0.5630905511811024
 30
0.0
 10
0.7766141732283465
 20
-0.5630905511811024
 30
0.0
 10
0.7766141732283465
 20
-0.5630905511811024
 30
0.0
 10
0.7766141732283465
 20
-0.5630905511811024
 30
0.0
 10
0.7766141732283465
 20
-0.556255905511811
 30
0.0
 10
0.7766141732283465
 20
-0.556255905511811
 30
0.0
 10
0.7766141732283465
 20
-0.556255905511811
 30
0.0
 10
0.7766141732283465
 20
-0.556255905511811
 30
0.0
 10
0.7854724409448819
 20
-0.556255905511811
 30
0.0
 10
0.7854724409448819
 20
-0.556255905511811
 30
0.0
 10
0.7854724409448819
 20
-0.556255905511811
 30
0.0
 10
0.7893346456692914
 20
-0.556255905511811
 30
0.0
 10
0.7918897637795276
 20
-0.5559251968503938
 30
0.0
 10
0.7931692913385827
 20
-0.5552283464566929
 30
0.0
 10
0.7931692913385827
 20
-0.5552283464566929
 30
0.0
 10
0.7944448818897638
 20
-0.5545629921259843
 30
0.0
 10
0.7954448818897638
 20
-0.55348031496063
 30
0.0
 10
0.7961417322834646
 20
-0.5519803149606299
 30
0.0
 10
0.7961417322834646
 20
-0.5519803149606299
 30
0.0
 10
0.7968346456692914
 20
-0.55048031496063
 30
0.0
 10
0.7971968503937008
 20
-0.5477559055118111
 30
0.0
 10
0.7971968503937008
 20
-0.5438110236220473
 30
0.0
 10
0.7971968503937008
 20
-0.5438110236220473
 30
0.0
 10
0.7971968503937008
 20
-0.5438110236220473
 30
0.0
 10
0.7971968503937008
 20
-0.4663425196850394
 30
0.0
 10
0.7971968503937008
 20
-0.4663425196850394
 30
0.0
 10
0.7971968503937008
 20
-0.4663425196850394
 30
0.0
 10
0.7971968503937008
 20
-0.4663425196850394
 30
0.0
 10
0.7766141732283465
 20
-0.4663425196850394
 30
0.0
 10
0.7766141732283465
 20
-0.4663425196850394
 30
0.0
 10
0.7766141732283465
 20
-0.4663425196850394
 30
0.0
 10
0.7766141732283465
 20
-0.4663425196850394
 30
0.0
 10
0.7766141732283465
 20
-0.4593425196850394
 30
0.0
 10
0.7766141732283465
 20
-0.4593425196850394
 30
0.0
 10
0.7766141732283465
 20
-0.4593425196850394
 30
0.0
 10
0.7878346456692914
 20
-0.4577598425196851
 30
0.0
 10
0.7972244094488189
 20
-0.4545078740157481
 30
0.0
 10
0.8047795275590551
 20
-0.4495629921259843
 30
0.0
  0
SPLINE
  5
44
330
1F
100
AcDbEntity
  8
LAYER_1
 62
   250
100
AcDbSpline
210
0.0
220
0.0
230
1.0
 70
    11
 71
     3
 72
    84
 73
    80
 74
     0
 42
0.0000000001
 43
0.0000000001
 40
0.0
 40
0.0
 40
0.0
 40
0.0
 40
0.05
 40
0.05
 40
0.05
 40
0.05
 40
0.1
 40
0.1
 40
0.1
 40
0.1
 40
0.15
 40
0.15
 40
0.15
 40
0.15
 40
0.2
 40
0.2
 40
0.2
 40
0.2
 40
0.25
 40
0.25
 40
0.25
 40
0.25
 40
0.3
 40
0.3
 40
0.3
 40
0.3
 40
0.35
 40
0.35
 40
0.35
 40
0.35
 40
0.4
 40
0.4
 40
0.4
 40
0.4
 40
0.45
 40
0.45
 40
0.45
 40
0.45
 40
0.4999999999999999
 40
0.4999999999999999
 40
0.4999999999999999
 40
0.4999999999999999
 40
0.5499999999999999
 40
0.5499999999999999
 40
0.5499999999999999
 40
0.5499999999999999
 40
0.6
 40
0.6
 40
0.6
 40
0.6
 40
0.65
 40
0.65
 40
0.65
 40
0.65
 40
0.7000000000000001
 40
0.7000000000000001
 40
0.7000000000000001
 40
0.7000000000000001
 40
0.7500000000000001
 40
0.7500000000000001
 40
0.7500000000000001
 40
0.7500000000000001
 40
0.8000000000000002
 40
0.8000000000000002
 40
0.8000000000000002
 40
0.8000000000000002
 40
0.8500000000000002
 40
0.8500000000000002
 40
0.8500000000000002
 40
0.8500000000000002
 40
0.9000000000000002
 40
0.9000000000000002
 40
0.9000000000000002
 40
0.9000000000000002
 40
0.9500000000000003
 40
0.9500000000000003
 40
0.9500000000000003
 40
0.9500000000000003
 40
1.0
 40
1.0
 40
1.0
 40
1.0
 10
0.9364448818897638
 20
-0.4474527559055118
 30
0.0
 10
0.9364448818897638
 20
-0.4474527559055118
 30
0.0
 10
0.9364448818897638
 20
-0.4548700787401575
 30
0.0
 10
0.9364448818897638
 20
-0.4548700787401575
 30
0.0
 10
0.9364448818897638
 20
-0.4548700787401575
 30
0.0
 10
0.9230590551181103
 20
-0.4550078740157481
 30
0.0
 10
0.9122244094488189
 20
-0.45698031496063
 30
0.0
 10
0.9039488188976378
 20
-0.4607007874015748
 30
0.0
 10
0.9039488188976378
 20
-0.4607007874015748
 30
0.0
 10
0.8956692913385828
 20
-0.4644527559055118
 30
0.0
 10
0.8895866141732284
 20
-0.4700629921259843
 30
0.0
 10
0.8856692913385827
 20
-0.4775078740157481
 30
0.0
 10
0.8856692913385827
 20
-0.4775078740157481
 30
0.0
 10
0.881751968503937
 20
-0.4849803149606299
 30
0.0
 10
0.8795590551181103
 20
-0.4941732283464567
 30
0.0
 10
0.8790866141732284
 20
-0.5050629921259843
 30
0.0
 10
0.8790866141732284
 20
-0.5050629921259843
 30
0.0
 10
0.8818346456692914
 20
-0.5008425196850393
 30
0.0
 10
0.8846692913385827
 20
-0.4975354330708662
 30
0.0
 10
0.8875866141732284
 20
-0.4951732283464567
 30
0.0
 10
0.8875866141732284
 20
-0.4951732283464567
 30
0.0
 10
0.8904763779527559
 20
-0.4928149606299213
 30
0.0
 10
0.8938622047244095
 20
-0.491007874015748
 30
0.0
 10
0.897751968503937
 20
-0.4897283464566929
 30
0.0
 10
0.897751968503937
 20
-0.4897283464566929
 30
0.0
 10
0.9016417322834646
 20
-0.4884527559055119
 30
0.0
 10
0.9058897637795276
 20
-0.4878149606299213
 30
0.0
 10
0.910503937007874
 20
-0.4878149606299213
 30
0.0
 10
0.910503937007874
 20
-0.4878149606299213
 30
0.0
 10
0.9178622047244095
 20
-0.4878149606299213
 30
0.0
 10
0.9244448818897638
 20
-0.4894527559055119
 30
0.0
 10
0.9301968503937008
 20
-0.4927007874015748
 30
0.0
 10
0.9301968503937008
 20
-0.4927007874015748
 30
0.0
 10
0.9359448818897638
 20
-0.4959527559055119
 30
0.0
 10
0.9404173228346457
 20
-0.5003700787401575
 30
0.0
 10
0.9436141732283465
 20
-0.5059251968503937
 30
0.0
 10
0.9436141732283465
 20
-0.5059251968503937
 30
0.0
 10
0.9468070866141732
 20
-0.51148031496063
 30
0.0
 10
0.9484173228346458
 20
-0.5180354330708662
 30
0.0
 10
0.9484173228346458
 20
-0.5255629921259842
 30
0.0
 10
0.9484173228346458
 20
-0.5255629921259842
 30
0.0
 10
0.9484173228346458
 20
-0.5375629921259842
 30
0.0
 10
0.9448070866141732
 20
-0.5469803149606299
 30
0.0
 10
0.9375866141732284
 20
-0.5538110236220473
 30
0.0
 10
0.9375866141732284
 20
-0.5538110236220473
 30
0.0
 10
0.9296141732283465
 20
-0.5613110236220472
 30
0.0
 10
0.9192795275590552
 20
-0.5650354330708661
 30
0.0
 10
0.9065866141732284
 20
-0.5650354330708661
 30
0.0
 10
0.9065866141732284
 20
-0.5650354330708661
 30
0.0
 10
0.8974173228346457
 20
-0.5650354330708661
 30
0.0
 10
0.8896968503937008
 20
-0.5631456692913386
 30
0.0
 10
0.8833897637795276
 20
-0.5593425196850393
 30
0.0
 10
0.8833897637795276
 20
-0.5593425196850393
 30
0.0
 10
0.8770866141732284
 20
-0.5555629921259843
 30
0.0
 10
0.8720866141732284
 20
-0.5497559055118111
 30
0.0
 10
0.8683622047244095
 20
-0.5419251968503938
 30
0.0
 10
0.8683622047244095
 20
-0.5419251968503938
 30
0.0
 10
0.8646692913385827
 20
-0.5341181102362205
 30
0.0
 10
0.8628070866141733
 20
-0.5244527559055119
 30
0.0
 10
0.8628070866141733
 20
-0.5129527559055118
 30
0.0
 10
0.8628070866141733
 20
-0.5129527559055118
 30
0.0
 10
0.8628070866141733
 20
-0.5013976377952756
 30
0.0
 10
0.8647795275590552
 20
-0.4911456692913386
 30
0.0
 10
0.8686968503937008
 20
-0.4822007874015749
 30
0.0
 10
0.8686968503937008
 20
-0.4822007874015749
 30
0.0
 10
0.8726417322834646
 20
-0.4732598425196851
 30
0.0
 10
0.8780866141732284
 20
-0.4660629921259843
 30
0.0
 10
0.8850314960629921
 20
-0.4606456692913386
 30
0.0
 10
0.8850314960629921
 20
-0.4606456692913386
 30
0.0
 10
0.891976377952756
 20
-0.4552007874015748
 30
0.0
 10
0.8995866141732284
 20
-0.4516456692913386
 30
0.0
 10
0.9078346456692914
 20
-0.44998031496063
 30
0.0
 10
0.9078346456692914
 20
-0.44998031496063
 30
0.0
 10
0.9161141732283465
 20
-0.4482874015748032
 30
0.0
 10
0.9235314960629921
 20
-0.4474527559055118
 30
0.0
 10
0.9301141732283464
 20
-0.4474527559055118
 30
0.0
 10
0.9301141732283464
 20
-0.4474527559055118
 30
0.0
 10
0.9301141732283464
 20
-0.4474527559055118
 30
0.0
 10
0.9364448818897638
 20
-0.4474527559055118
 30
0.0
 10
0.9364448818897638
 20
-0.4474527559055118
 30
0.0
  0
SPLINE
  5
45
330
1F
100
AcDbEntity
  8
LAYER_1
 62
   250
100
AcDbSpline
210
0.0
220
0.0
230
1.0
 70
    11
 71
     3
 72
    40
 73
    36
 74
     0
 42
0.0000000001
 43
0.0000000001
 40
0.0
 40
0.0
 40
0.0
 40
0.0
 40
0.1111111111111111
 40
0.1111111111111111
 40
0.1111111111111111
 40
0.1111111111111111
 40
0.2222222222222222
 40
0.2222222222222222
 40
0.2222222222222222
 40
0.2222222222222222
 40
0.3333333333333333
 40
0.3333333333333333
 40
0.3333333333333333
 40
0.3333333333333333
 40
0.4444444444444444
 40
0.4444444444444444
 40
0.4444444444444444
 40
0.4444444444444444
 40
0.5555555555555556
 40
0.5555555555555556
 40
0.5555555555555556
 40
0.5555555555555556
 40
0.6666666666666667
 40
0.6666666666666667
 40
0.6666666666666667
 40
0.6666666666666667
 40
0.7777777777777779
 40
0.7777777777777779
 40
0.7777777777777779
 40
0.7777777777777779
 40
0.8888888888888891
 40
0.8888888888888891
 40
0.8888888888888891
 40
0.8888888888888891
 40
1.0
 40
1.0
 40
1.0
 40
1.0
 10
0.906751968503937
 20
-0.4964527559055119
 30
0.0
 10
0.8989488188976378
 20
-0.4964527559055119
 30
0.0
 10
0.8925314960629922
 20
-0.4993976377952756
 30
0.0
 10
0.887503937007874
 20
-0.5053149606299213
 30
0.0
 10
0.887503937007874
 20
-0.5053149606299213
 30
0.0
 10
0.8824763779527559
 20
-0.5112283464566929
 30
0.0
 10
0.879976377952756
 20
-0.5183425196850394
 30
0.0
 10
0.879976377952756
 20
-0.5266181102362205
 30
0.0
 10
0.879976377952756
 20
-0.5266181102362205
 30
0.0
 10
0.879976377952756
 20
-0.53248031496063
 30
0.0
 10
0.8811968503937008
 20
-0.5378976377952757
 30
0.0
 10
0.8836417322834647
 20
-0.5428700787401575
 30
0.0
 10
0.8836417322834647
 20
-0.5428700787401575
 30
0.0
 10
0.8860866141732284
 20
-0.5478425196850394
 30
0.0
 10
0.889224409448819
 20
-0.5515078740157481
 30
0.0
 10
0.8930866141732284
 20
-0.5539251968503938
 30
0.0
 10
0.8930866141732284
 20
-0.5539251968503938
 30
0.0
 10
0.8969173228346458
 20
-0.5563425196850393
 30
0.0
 10
0.9012795275590552
 20
-0.5575629921259843
 30
0.0
 10
0.9060866141732283
 20
-0.5575629921259843
 30
0.0
 10
0.9060866141732283
 20
-0.5575629921259843
 30
0.0
 10
0.9135866141732284
 20
-0.5575629921259843
 30
0.0
 10
0.9198070866141732
 20
-0.5547283464566929
 30
0.0
 10
0.9247795275590551
 20
-0.5490629921259843
 30
0.0
 10
0.9247795275590551
 20
-0.5490629921259843
 30
0.0
 10
0.929724409448819
 20
-0.5433976377952756
 30
0.0
 10
0.9322244094488189
 20
-0.5357834645669292
 30
0.0
 10
0.9322244094488189
 20
-0.5262283464566929
 30
0.0
 10
0.9322244094488189
 20
-0.5262283464566929
 30
0.0
 10
0.9322244094488189
 20
-0.5171181102362205
 30
0.0
 10
0.9298070866141732
 20
-0.5098700787401576
 30
0.0
 10
0.9249763779527559
 20
-0.504507874015748
 30
0.0
 10
0.9249763779527559
 20
-0.504507874015748
 30
0.0
 10
0.9201417322834646
 20
-0.4991181102362205
 30
0.0
 10
0.9140590551181103
 20
-0.4964527559055119
 30
0.0
 10
0.906751968503937
 20
-0.4964527559055119
 30
0.0
  0
SPLINE
  5
46
330
1F
100
AcDbEntity
  8
LAYER_1
 62
   250
100
AcDbSpline
210
0.0
220
0.0
230
1.0
 70
    11
 71
     3
 72
    60
 73
    56
 74
     0
 42
0.0000000001
 43
0.0000000001
 40
0.0
 40
0.0
 40
0.0
 40
0.0
 40
0.0714285714285714
 40
0.0714285714285714
 40
0.0714285714285714
 40
0.0714285714285714
 40
0.1428571428571429
 40
0.1428571428571429
 40
0.1428571428571429
 40
0.1428571428571429
 40
0.2142857142857143
 40
0.2142857142857143
 40
0.2142857142857143
 40
0.2142857142857143
 40
0.2857142857142857
 40
0.2857142857142857
 40
0.2857142857142857
 40
0.2857142857142857
 40
0.3571428571428571
 40
0.3571428571428571
 40
0.3571428571428571
 40
0.3571428571428571
 40
0.4285714285714285
 40
0.4285714285714285
 40
0.4285714285714285
 40
0.4285714285714285
 40
0.4999999999999999
 40
0.4999999999999999
 40
0.4999999999999999
 40
0.4999999999999999
 40
0.5714285714285713
 40
0.5714285714285713
 40
0.5714285714285713
 40
0.5714285714285713
 40
0.6428571428571427
 40
0.6428571428571427
 40
0.6428571428571427
 40
0.6428571428571427
 40
0.7142857142857141
 40
0.7142857142857141
 40
0.7142857142857141
 40
0.7142857142857141
 40
0.7857142857142855
 40
0.7857142857142855
 40
0.7857142857142855
 40
0.7857142857142855
 40
0.8571428571428569
 40
0.8571428571428569
 40
0.8571428571428569
 40
0.8571428571428569
 40
0.9285714285714283
 40
0.9285714285714283
 40
0.9285714285714283
 40
0.9285714285714283
 40
1.0
 40
1.0
 40
1.0
 40
1.0
 10
0.9655866141732283
 20
-0.4916456692913386
 30
0.0
 10
0.9655866141732283
 20
-0.4916456692913386
 30
0.0
 10
0.9611968503937008
 20
-0.486255905511811
 30
0.0
 10
0.9611968503937008
 20
-0.486255905511811
 30
0.0
 10
0.9611968503937008
 20
-0.486255905511811
 30
0.0
 10
0.9723110236220472
 20
-0.4772007874015748
 30
0.0
 10
0.9778937007874016
 20
-0.4696456692913386
 30
0.0
 10
0.9778937007874016
 20
-0.4635629921259843
 30
0.0
 10
0.9778937007874016
 20
-0.4635629921259843
 30
0.0
 10
0.9778937007874016
 20
-0.4628700787401575
 30
0.0
 10
0.9778385826771654
 20
-0.4619803149606299
 30
0.0
 10
0.9777244094488189
 20
-0.4609527559055118
 30
0.0
 10
0.9777244094488189
 20
-0.4609527559055118
 30
0.0
 10
0.9768110236220473
 20
-0.4613425196850394
 30
0.0
 10
0.9758937007874016
 20
-0.4616456692913386
 30
0.0
 10
0.9750314960629921
 20
-0.4618425196850394
 30
0.0
 10
0.9750314960629921
 20
-0.4618425196850394
 30
0.0
 10
0.9741692913385828
 20
-0.4620629921259843
 30
0.0
 10
0.9733661417322835
 20
-0.4621732283464567
 30
0.0
 10
0.9725866141732283
 20
-0.4621732283464567
 30
0.0
 10
0.9725866141732283
 20
-0.4621732283464567
 30
0.0
 10
0.9699763779527559
 20
-0.4621732283464567
 30
0.0
 10
0.9678937007874016
 20
-0.4613425196850394
 30
0.0
 10
0.9663385826771654
 20
-0.4596456692913386
 30
0.0
 10
0.9663385826771654
 20
-0.4596456692913386
 30
0.0
 10
0.9647519685039371
 20
-0.45798031496063
 30
0.0
 10
0.9639763779527559
 20
-0.4558425196850394
 30
0.0
 10
0.9639763779527559
 20
-0.4532283464566929
 30
0.0
 10
0.9639763779527559
 20
-0.4532283464566929
 30
0.0
 10
0.9639763779527559
 20
-0.4506732283464567
 30
0.0
 10
0.9649212598425198
 20
-0.4484527559055118
 30
0.0
 10
0.9668110236220473
 20
-0.4465629921259843
 30
0.0
 10
0.9668110236220473
 20
-0.4465629921259843
 30
0.0
 10
0.9687244094488189
 20
-0.4446456692913386
 30
0.0
 10
0.971003937007874
 20
-0.4437007874015748
 30
0.0
 10
0.9736417322834646
 20
-0.4437007874015748
 30
0.0
 10
0.9736417322834646
 20
-0.4437007874015748
 30
0.0
 10
0.9773385826771655
 20
-0.4437007874015748
 30
0.0
 10
0.9805039370078741
 20
-0.4451732283464567
 30
0.0
 10
0.9831417322834646
 20
-0.4481456692913386
 30
0.0
 10
0.9831417322834646
 20
-0.4481456692913386
 30
0.0
 10
0.9857519685039371
 20
-0.4510905511811024
 30
0.0
 10
0.9870866141732284
 20
-0.4548976377952756
 30
0.0
 10
0.9870866141732284
 20
-0.4595629921259843
 30
0.0
 10
0.9870866141732284
 20
-0.4595629921259843
 30
0.0
 10
0.9870866141732284
 20
-0.4626181102362205
 30
0.0
 10
0.9864488188976378
 20
-0.4658149606299213
 30
0.0
 10
0.9851968503937009
 20
-0.4691456692913386
 30
0.0
 10
0.9851968503937009
 20
-0.4691456692913386
 30
0.0
 10
0.9839488188976379
 20
-0.4724803149606299
 30
0.0
 10
0.9821417322834646
 20
-0.4755629921259843
 30
0.0
 10
0.9797519685039371
 20
-0.4784251968503937
 30
0.0
 10
0.9797519685039371
 20
-0.4784251968503937
 30
0.0
 10
0.9773661417322835
 20
-0.481255905511811
 30
0.0
 10
0.9726417322834646
 20
-0.4856732283464567
 30
0.0
 10
0.9655866141732283
 20
-0.4916456692913386
 30
0.0
  0
SPLINE
  5
47
330
1F
100
AcDbEntity
  8
LAYER_1
 62
   250
100
AcDbSpline
210
0.0
220
0.0
230
1.0
 70
    11
 71
     3
 72
    60
 73
    56
 74
     0
 42
0.0000000001
 43
0.0000000001
 40
0.0
 40
0.0
 40
0.0
 40
0.0
 40
0.0714285714285714
 40
0.0714285714285714
 40
0.0714285714285714
 40
0.0714285714285714
 40
0.1428571428571429
 40
0.1428571428571429
 40
0.1428571428571429
 40
0.1428571428571429
 40
0.2142857142857143
 40
0.2142857142857143
 40
0.2142857142857143
 40
0.2142857142857143
 40
0.2857142857142857
 40
0.2857142857142857
 40
0.2857142857142857
 40
0.2857142857142857
 40
0.3571428571428571
 40
0.3571428571428571
 40
0.3571428571428571
 40
0.3571428571428571
 40
0.4285714285714285
 40
0.4285714285714285
 40
0.4285714285714285
 40
0.4285714285714285
 40
0.4999999999999999
 40
0.4999999999999999
 40
0.4999999999999999
 40
0.4999999999999999
 40
0.5714285714285713
 40
0.5714285714285713
 40
0.5714285714285713
 40
0.5714285714285713
 40
0.6428571428571427
 40
0.6428571428571427
 40
0.6428571428571427
 40
0.6428571428571427
 40
0.7142857142857141
 40
0.7142857142857141
 40
0.7142857142857141
 40
0.7142857142857141
 40
0.7857142857142855
 40
0.7857142857142855
 40
0.7857142857142855
 40
0.7857142857142855
 40
0.8571428571428569
 40
0.8571428571428569
 40
0.8571428571428569
 40
0.8571428571428569
 40
0.9285714285714283
 40
0.9285714285714283
 40
0.9285714285714283
 40
0.9285714285714283
 40
1.0
 40
1.0
 40
1.0
 40
1.0
 10
0.9946417322834646
 20
-0.4916456692913386
 30
0.0
 10
0.9946417322834646
 20
-0.4916456692913386
 30
0.0
 10
0.990251968503937
 20
-0.486255905511811
 30
0.0
 10
0.990251968503937
 20
-0.486255905511811
 30
0.0
 10
0.990251968503937
 20
-0.486255905511811
 30
0.0
 10
1.001366141732283
 20
-0.4772007874015748
 30
0.0
 10
1.006948818897638
 20
-0.4696456692913386
 30
0.0
 10
1.006948818897638
 20
-0.4635629921259843
 30
0.0
 10
1.006948818897638
 20
-0.4635629921259843
 30
0.0
 10
1.006948818897638
 20
-0.4628700787401575
 30
0.0
 10
1.006893700787402
 20
-0.4619803149606299
 30
0.0
 10
1.006779527559055
 20
-0.4609527559055118
 30
0.0
 10
1.006779527559055
 20
-0.4609527559055118
 30
0.0
 10
1.005866141732283
 20
-0.4613425196850394
 30
0.0
 10
1.004948818897638
 20
-0.4616456692913386
 30
0.0
 10
1.004086614173228
 20
-0.4618425196850394
 30
0.0
 10
1.004086614173228
 20
-0.4618425196850394
 30
0.0
 10
1.003224409448819
 20
-0.4620629921259843
 30
0.0
 10
1.002393700787402
 20
-0.4621732283464567
 30
0.0
 10
1.00155905511811
 20
-0.4621732283464567
 30
0.0
 10
1.00155905511811
 20
-0.4621732283464567
 30
0.0
 10
0.999003937007874
 20
-0.4621732283464567
 30
0.0
 10
0.9969488188976379
 20
-0.4613425196850394
 30
0.0
 10
0.9953937007874016
 20
-0.4596456692913386
 30
0.0
 10
0.9953937007874016
 20
-0.4596456692913386
 30
0.0
 10
0.9938110236220473
 20
-0.45798031496063
 30
0.0
 10
0.9930314960629921
 20
-0.4558425196850394
 30
0.0
 10
0.9930314960629921
 20
-0.4532283464566929
 30
0.0
 10
0.9930314960629921
 20
-0.4532283464566929
 30
0.0
 10
0.9930314960629921
 20
-0.4506732283464567
 30
0.0
 10
0.993976377952756
 20
-0.4484527559055118
 30
0.0
 10
0.9958661417322835
 20
-0.4465629921259843
 30
0.0
 10
0.9958661417322835
 20
-0.4465629921259843
 30
0.0
 10
0.997751968503937
 20
-0.4446456692913386
 30
0.0
 10
1.00005905511811
 20
-0.4437007874015748
 30
0.0
 10
1.002696850393701
 20
-0.4437007874015748
 30
0.0
 10
1.002696850393701
 20
-0.4437007874015748
 30
0.0
 10
1.006393700787402
 20
-0.4437007874015748
 30
0.0
 10
1.00955905511811
 20
-0.4451732283464567
 30
0.0
 10
1.012196850393701
 20
-0.4481456692913386
 30
0.0
 10
1.012196850393701
 20
-0.4481456692913386
 30
0.0
 10
1.014807086614173
 20
-0.4510905511811024
 30
0.0
 10
1.016141732283465
 20
-0.4548976377952756
 30
0.0
 10
1.016141732283465
 20
-0.4595629921259843
 30
0.0
 10
1.016141732283465
 20
-0.4595629921259843
 30
0.0
 10
1.016141732283465
 20
-0.4626181102362205
 30
0.0
 10
1.015503937007874
 20
-0.4658149606299213
 30
0.0
 10
1.014251968503937
 20
-0.4691456692913386
 30
0.0
 10
1.014251968503937
 20
-0.4691456692913386
 30
0.0
 10
1.013003937007874
 20
-0.4724803149606299
 30
0.0
 10
1.011196850393701
 20
-0.4755629921259843
 30
0.0
 10
1.008811023622047
 20
-0.4784251968503937
 30
0.0
 10
1.008811023622047
 20
-0.4784251968503937
 30
0.0
 10
1.00642125984252
 20
-0.481255905511811
 30
0.0
 10
1.001696850393701
 20
-0.4856732283464567
 30
0.0
 10
0.9946417322834646
 20
-0.4916456692913386
 30
0.0
  0
SPLINE
  5
48
330
1F
100
AcDbEntity
  8
LAYER_1
 62
   253
100
AcDbSpline
210
0.0
220
0.0
230
1.0
 70
    11
 71
     3
 72
    20
 73
    16
 74
     0
 42
0.0000000001
 43
0.0000000001
 40
0.0
 40
0.0
 40
0.0
 40
0.0
 40
0.25
 40
0.25
 40
0.25
 40
0.25
 40
0.5
 40
0.5
 40
0.5
 40
0.5
 40
0.75
 40
0.75
 40
0.75
 40
0.75
 40
1.0
 40
1.0
 40
1.0
 40
1.0
 10
0.0957755905511811
 20
2.922511811023622
 30
0.0
 10
0.0957755905511811
 20
2.922511811023622
 30
0.0
 10
0.0939251968503937
 20
3.674358267716535
 30
0.0
 10
0.0939251968503937
 20
3.674358267716535
 30
0.0
 10
0.0939251968503937
 20
3.674358267716535
 30
0.0
 10
0.0939251968503937
 20
3.674358267716535
 30
0.0
 10
0.5139133858267717
 20
3.361858267716535
 30
0.0
 10
0.5139133858267717
 20
3.361858267716535
 30
0.0
 10
0.5139133858267717
 20
3.361858267716535
 30
0.0
 10
0.5139133858267717
 20
3.361858267716535
 30
0.0
 10
0.515763779527559
 20
2.610011811023622
 30
0.0
 10
0.515763779527559
 20
2.610011811023622
 30
0.0
 10
0.515763779527559
 20
2.610011811023622
 30
0.0
 10
0.515763779527559
 20
2.610011811023622
 30
0.0
 10
0.0957755905511811
 20
2.922511811023622
 30
0.0
 10
0.0957755905511811
 20
2.922511811023622
 30
0.0
  0
SPLINE
  5
49
330
1F
100
AcDbEntity
  8
LAYER_1
 62
   250
100
AcDbSpline
210
0.0
220
0.0
230
1.0
 70
    11
 71
     3
 72
    20
 73
    16
 74
     0
 42
0.0000000001
 43
0.0000000001
 40
0.0
 40
0.0
 40
0.0
 40
0.0
 40
0.25
 40
0.25
 40
0.25
 40
0.25
 40
0.5
 40
0.5
 40
0.5
 40
0.5
 40
0.75
 40
0.75
 40
0.75
 40
0.75
 40
1.0
 40
1.0
 40
1.0
 40
1.0
 10
0.0957755905511811
 20
2.922511811023622
 30
0.0
 10
0.0957755905511811
 20
2.922511811023622
 30
0.0
 10
0.0939251968503937
 20
3.674358267716535
 30
0.0
 10
0.0939251968503937
 20
3.674358267716535
 30
0.0
 10
0.0939251968503937
 20
3.674358267716535
 30
0.0
 10
0.0939251968503937
 20
3.674358267716535
 30
0.0
 10
0.5139133858267717
 20
3.361858267716535
 30
0.0
 10
0.5139133858267717
 20
3.361858267716535
 30
0.0
 10
0.5139133858267717
 20
3.361858267716535
 30
0.0
 10
0.5139133858267717
 20
3.361858267716535
 30
0.0
 10
0.515763779527559
 20
2.610011811023622
 30
0.0
 10
0.515763779527559
 20
2.610011811023622
 30
0.0
 10
0.515763779527559
 20
2.610011811023622
 30
0.0
 10
0.515763779527559
 20
2.610011811023622
 30
0.0
 10
0.0957755905511811
 20
2.922511811023622
 30
0.0
 10
0.0957755905511811
 20
2.922511811023622
 30
0.0
  0
SPLINE
  5
4A
330
1F
100
AcDbEntity
  8
LAYER_1
 62
   252
100
AcDbSpline
210
0.0
220
0.0
230
1.0
 70
    11
 71
     3
 72
    20
 73
    16
 74
     0
 42
0.0000000001
 43
0.0000000001
 40
0.0
 40
0.0
 40
0.0
 40
0.0
 40
0.25
 40
0.25
 40
0.25
 40
0.25
 40
0.5
 40
0.5
 40
0.5
 40
0.5
 40
0.75
 40
0.75
 40
0.75
 40
0.75
 40
1.0
 40
1.0
 40
1.0
 40
1.0
 10
0.0957755905511811
 20
3.080011811023622
 30
0.0
 10
0.0957755905511811
 20
3.080011811023622
 30
0.0
 10
0.0939251968503937
 20
3.831858267716536
 30
0.0
 10
0.0939251968503937
 20
3.831858267716536
 30
0.0
 10
0.0939251968503937
 20
3.831858267716536
 30
0.0
 10
0.0939251968503937
 20
3.831858267716536
 30
0.0
 10
0.0939251968503937
 20
3.674358267716535
 30
0.0
 10
0.0939251968503937
 20
3.674358267716535
 30
0.0
 10
0.0939251968503937
 20
3.674358267716535
 30
0.0
 10
0.0939251968503937
 20
3.674358267716535
 30
0.0
 10
0.0957755905511811
 20
2.922511811023622
 30
0.0
 10
0.0957755905511811
 20
2.922511811023622
 30
0.0
 10
0.0957755905511811
 20
2.922511811023622
 30
0.0
 10
0.0957755905511811
 20
2.922511811023622
 30
0.0
 10
0.0957755905511811
 20
3.080011811023622
 30
0.0
 10
0.0957755905511811
 20
3.080011811023622
 30
0.0
  0
SPLINE
  5
4B
330
1F
100
AcDbEntity
  8
LAYER_1
 62
   250
100
AcDbSpline
210
0.0
220
0.0
230
1.0
 70
    11
 71
     3
 72
    20
 73
    16
 74
     0
 42
0.0000000001
 43
0.0000000001
 40
0.0
 40
0.0
 40
0.0
 40
0.0
 40
0.25
 40
0.25
 40
0.25
 40
0.25
 40
0.5
 40
0.5
 40
0.5
 40
0.5
 40
0.75
 40
0.75
 40
0.75
 40
0.75
 40
1.0
 40
1.0
 40
1.0
 40
1.0
 10
0.0957755905511811
 20
3.080011811023622
 30
0.0
 10
0.0957755905511811
 20
3.080011811023622
 30
0.0
 10
0.0939251968503937
 20
3.831858267716536
 30
0.0
 10
0.0939251968503937
 20
3.831858267716536
 30
0.0
 10
0.0939251968503937
 20
3.831858267716536
 30
0.0
 10
0.0939251968503937
 20
3.831858267716536
 30
0.0
 10
0.0939251968503937
 20
3.674358267716535
 30
0.0
 10
0.0939251968503937
 20
3.674358267716535
 30
0.0
 10
0.0939251968503937
 20
3.674358267716535
 30
0.0
 10
0.0939251968503937
 20
3.674358267716535
 30
0.0
 10
0.0957755905511811
 20
2.922511811023622
 30
0.0
 10
0.0957755905511811
 20
2.922511811023622
 30
0.0
 10
0.0957755905511811
 20
2.922511811023622
 30
0.0
 10
0.0957755905511811
 20
2.922511811023622
 30
0.0
 10
0.0957755905511811
 20
3.080011811023622
 30
0.0
 10
0.0957755905511811
 20
3.080011811023622
 30
0.0
  0
SPLINE
  5
4C
330
1F
100
AcDbEntity
  8
LAYER_1
 62
   252
100
AcDbSpline
210
0.0
220
0.0
230
1.0
 70
    11
 71
     3
 72
    20
 73
    16
 74
     0
 42
0.0000000001
 43
0.0000000001
 40
0.0
 40
0.0
 40
0.0
 40
0.0
 40
0.25
 40
0.25
 40
0.25
 40
0.25
 40
0.5
 40
0.5
 40
0.5
 40
0.5
 40
0.75
 40
0.75
 40
0.75
 40
0.75
 40
1.0
 40
1.0
 40
1.0
 40
1.0
 10
-0.214236220472441
 20
3.080011811023622
 30
0.0
 10
-0.214236220472441
 20
3.080011811023622
 30
0.0
 10
-0.2160866141732284
 20
3.831858267716536
 30
0.0
 10
-0.2160866141732284
 20
3.831858267716536
 30
0.0
 10
-0.2160866141732284
 20
3.831858267716536
 30
0.0
 10
-0.2160866141732284
 20
3.831858267716536
 30
0.0
 10
0.0939251968503937
 20
3.831858267716536
 30
0.0
 10
0.0939251968503937
 20
3.831858267716536
 30
0.0
 10
0.0939251968503937
 20
3.831858267716536
 30
0.0
 10
0.0939251968503937
 20
3.831858267716536
 30
0.0
 10
0.0957755905511811
 20
3.080011811023622
 30
0.0
 10
0.0957755905511811
 20
3.080011811023622
 30
0.0
 10
0.0957755905511811
 20
3.080011811023622
 30
0.0
 10
0.0957755905511811
 20
3.080011811023622
 30
0.0
 10
-0.214236220472441
 20
3.080011811023622
 30
0.0
 10
-0.214236220472441
 20
3.080011811023622
 30
0.0
  0
SPLINE
  5
4D
330
1F
100
AcDbEntity
  8
LAYER_1
 62
   250
100
AcDbSpline
210
0.0
220
0.0
230
1.0
 70
    11
 71
     3
 72
    20
 73
    16
 74
     0
 42
0.0000000001
 43
0.0000000001
 40
0.0
 40
0.0
 40
0.0
 40
0.0
 40
0.25
 40
0.25
 40
0.25
 40
0.25
 40
0.5
 40
0.5
 40
0.5
 40
0.5
 40
0.75
 40
0.75
 40
0.75
 40
0.75
 40
1.0
 40
1.0
 40
1.0
 40
1.0
 10
-0.214236220472441
 20
3.080011811023622
 30
0.0
 10
-0.214236220472441
 20
3.080011811023622
 30
0.0
 10
-0.2160866141732284
 20
3.831858267716536
 30
0.0
 10
-0.2160866141732284
 20
3.831858267716536
 30
0.0
 10
-0.2160866141732284
 20
3.831858267716536
 30
0.0
 10
-0.2160866141732284
 20
3.831858267716536
 30
0.0
 10
0.0939251968503937
 20
3.831858267716536
 30
0.0
 10
0.0939251968503937
 20
3.831858267716536
 30
0.0
 10
0.0939251968503937
 20
3.831858267716536
 30
0.0
 10
0.0939251968503937
 20
3.831858267716536
 30
0.0
 10
0.0957755905511811
 20
3.080011811023622
 30
0.0
 10
0.0957755905511811
 20
3.080011811023622
 30
0.0
 10
0.0957755905511811
 20
3.080011811023622
 30
0.0
 10
0.0957755905511811
 20
3.080011811023622
 30
0.0
 10
-0.214236220472441
 20
3.080011811023622
 30
0.0
 10
-0.214236220472441
 20
3.080011811023622
 30
0.0
  0
SPLINE
  5
4E
330
1F
100
AcDbEntity
  8
LAYER_1
 62
   252
100
AcDbSpline
210
0.0
220
0.0
230
1.0
 70
    11
 71
     3
 72
    20
 73
    16
 74
     0
 42
0.0000000001
 43
0.0000000001
 40
0.0
 40
0.0
 40
0.0
 40
0.0
 40
0.25
 40
0.25
 40
0.25
 40
0.25
 40
0.5
 40
0.5
 40
0.5
 40
0.5
 40
0.75
 40
0.75
 40
0.75
 40
0.75
 40
1.0
 40
1.0
 40
1.0
 40
1.0
 10
0.515763779527559
 20
2.610011811023622
 30
0.0
 10
0.515763779527559
 20
2.610011811023622
 30
0.0
 10
0.5139133858267717
 20
3.361858267716535
 30
0.0
 10
0.5139133858267717
 20
3.361858267716535
 30
0.0
 10
0.5139133858267717
 20
3.361858267716535
 30
0.0
 10
0.5139133858267717
 20
3.361858267716535
 30
0.0
 10
0.6839133858267716
 20
3.361858267716535
 30
0.0
 10
0.6839133858267716
 20
3.361858267716535
 30
0.0
 10
0.6839133858267716
 20
3.361858267716535
 30
0.0
 10
0.6839133858267716
 20
3.361858267716535
 30
0.0
 10
0.6857637795275591
 20
2.610011811023622
 30
0.0
 10
0.6857637795275591
 20
2.610011811023622
 30
0.0
 10
0.6857637795275591
 20
2.610011811023622
 30
0.0
 10
0.6857637795275591
 20
2.610011811023622
 30
0.0
 10
0.515763779527559
 20
2.610011811023622
 30
0.0
 10
0.515763779527559
 20
2.610011811023622
 30
0.0
  0
SPLINE
  5
4F
330
1F
100
AcDbEntity
  8
LAYER_1
 62
   250
100
AcDbSpline
210
0.0
220
0.0
230
1.0
 70
    11
 71
     3
 72
    20
 73
    16
 74
     0
 42
0.0000000001
 43
0.0000000001
 40
0.0
 40
0.0
 40
0.0
 40
0.0
 40
0.25
 40
0.25
 40
0.25
 40
0.25
 40
0.5
 40
0.5
 40
0.5
 40
0.5
 40
0.75
 40
0.75
 40
0.75
 40
0.75
 40
1.0
 40
1.0
 40
1.0
 40
1.0
 10
0.515763779527559
 20
2.610011811023622
 30
0.0
 10
0.515763779527559
 20
2.610011811023622
 30
0.0
 10
0.5139133858267717
 20
3.361858267716535
 30
0.0
 10
0.5139133858267717
 20
3.361858267716535
 30
0.0
 10
0.5139133858267717
 20
3.361858267716535
 30
0.0
 10
0.5139133858267717
 20
3.361858267716535
 30
0.0
 10
0.6839133858267716
 20
3.361858267716535
 30
0.0
 10
0.6839133858267716
 20
3.361858267716535
 30
0.0
 10
0.6839133858267716
 20
3.361858267716535
 30
0.0
 10
0.6839133858267716
 20
3.361858267716535
 30
0.0
 10
0.6857637795275591
 20
2.610011811023622
 30
0.0
 10
0.6857637795275591
 20
2.610011811023622
 30
0.0
 10
0.6857637795275591
 20
2.610011811023622
 30
0.0
 10
0.6857637795275591
 20
2.610011811023622
 30
0.0
 10
0.515763779527559
 20
2.610011811023622
 30
0.0
 10
0.515763779527559
 20
2.610011811023622
 30
0.0
  0
SPLINE
  5
50
330
1F
100
AcDbEntity
  8
LAYER_1
 62
   253
100
AcDbSpline
210
0.0
220
0.0
230
1.0
 70
    11
 71
     3
 72
    20
 73
    16
 74
     0
 42
0.0000000001
 43
0.0000000001
 40
0.0
 40
0.0
 40
0.0
 40
0.0
 40
0.25
 40
0.25
 40
0.25
 40
0.25
 40
0.5
 40
0.5
 40
0.5
 40
0.5
 40
0.75
 40
0.75
 40
0.75
 40
0.75
 40
1.0
 40
1.0
 40
1.0
 40
1.0
 10
0.0957755905511811
 20
2.922511811023622
 30
0.0
 10
0.0957755905511811
 20
2.922511811023622
 30
0.0
 10
0.0939251968503937
 20
3.674358267716535
 30
0.0
 10
0.0939251968503937
 20
3.674358267716535
 30
0.0
 10
0.0939251968503937
 20
3.674358267716535
 30
0.0
 10
0.0939251968503937
 20
3.674358267716535
 30
0.0
 10
0.5139133858267717
 20
3.361858267716535
 30
0.0
 10
0.5139133858267717
 20
3.361858267716535
 30
0.0
 10
0.5139133858267717
 20
3.361858267716535
 30
0.0
 10
0.5139133858267717
 20
3.361858267716535
 30
0.0
 10
0.515763779527559
 20
2.610011811023622
 30
0.0
 10
0.515763779527559
 20
2.610011811023622
 30
0.0
 10
0.515763779527559
 20
2.610011811023622
 30
0.0
 10
0.515763779527559
 20
2.610011811023622
 30
0.0
 10
0.0957755905511811
 20
2.922511811023622
 30
0.0
 10
0.0957755905511811
 20
2.922511811023622
 30
0.0
  0
SPLINE
  5
51
330
1F
100
AcDbEntity
  8
LAYER_1
 62
   250
100
AcDbSpline
210
0.0
220
0.0
230
1.0
 70
    11
 71
     3
 72
    20
 73
    16
 74
     0
 42
0.0000000001
 43
0.0000000001
 40
0.0
 40
0.0
 40
0.0
 40
0.0
 40
0.25
 40
0.25
 40
0.25
 40
0.25
 40
0.5
 40
0.5
 40
0.5
 40
0.5
 40
0.75
 40
0.75
 40
0.75
 40
0.75
 40
1.0
 40
1.0
 40
1.0
 40
1.0
 10
0.0957755905511811
 20
2.922511811023622
 30
0.0
 10
0.0957755905511811
 20
2.922511811023622
 30
0.0
 10
0.0939251968503937
 20
3.674358267716535
 30
0.0
 10
0.0939251968503937
 20
3.674358267716535
 30
0.0
 10
0.0939251968503937
 20
3.674358267716535
 30
0.0
 10
0.0939251968503937
 20
3.674358267716535
 30
0.0
 10
0.5139133858267717
 20
3.361858267716535
 30
0.0
 10
0.5139133858267717
 20
3.361858267716535
 30
0.0
 10
0.5139133858267717
 20
3.361858267716535
 30
0.0
 10
0.5139133858267717
 20
3.361858267716535
 30
0.0
 10
0.515763779527559
 20
2.610011811023622
 30
0.0
 10
0.515763779527559
 20
2.610011811023622
 30
0.0
 10
0.515763779527559
 20
2.610011811023622
 30
0.0
 10
0.515763779527559
 20
2.610011811023622
 30
0.0
 10
0.0957755905511811
 20
2.922511811023622
 30
0.0
 10
0.0957755905511811
 20
2.922511811023622
 30
0.0
  0
SPLINE
  5
52
330
1F
100
AcDbEntity
  8
LAYER_1
 62
   252
100
AcDbSpline
210
0.0
220
0.0
230
1.0
 70
    11
 71
     3
 72
    20
 73
    16
 74
     0
 42
0.0000000001
 43
0.0000000001
 40
0.0
 40
0.0
 40
0.0
 40
0.0
 40
0.25
 40
0.25
 40
0.25
 40
0.25
 40
0.5
 40
0.5
 40
0.5
 40
0.5
 40
0.75
 40
0.75
 40
0.75
 40
0.75
 40
1.0
 40
1.0
 40
1.0
 40
1.0
 10
0.0957755905511811
 20
3.080011811023622
 30
0.0
 10
0.0957755905511811
 20
3.080011811023622
 30
0.0
 10
0.0939251968503937
 20
3.831858267716536
 30
0.0
 10
0.0939251968503937
 20
3.831858267716536
 30
0.0
 10
0.0939251968503937
 20
3.831858267716536
 30
0.0
 10
0.0939251968503937
 20
3.831858267716536
 30
0.0
 10
0.0939251968503937
 20
3.674358267716535
 30
0.0
 10
0.0939251968503937
 20
3.674358267716535
 30
0.0
 10
0.0939251968503937
 20
3.674358267716535
 30
0.0
 10
0.0939251968503937
 20
3.674358267716535
 30
0.0
 10
0.0957755905511811
 20
2.922511811023622
 30
0.0
 10
0.0957755905511811
 20
2.922511811023622
 30
0.0
 10
0.0957755905511811
 20
2.922511811023622
 30
0.0
 10
0.0957755905511811
 20
2.922511811023622
 30
0.0
 10
0.0957755905511811
 20
3.080011811023622
 30
0.0
 10
0.0957755905511811
 20
3.080011811023622
 30
0.0
  0
SPLINE
  5
53
330
1F
100
AcDbEntity
  8
LAYER_1
 62
   250
100
AcDbSpline
210
0.0
220
0.0
230
1.0
 70
    11
 71
     3
 72
    20
 73
    16
 74
     0
 42
0.0000000001
 43
0.0000000001
 40
0.0
 40
0.0
 40
0.0
 40
0.0
 40
0.25
 40
0.25
 40
0.25
 40
0.25
 40
0.5
 40
0.5
 40
0.5
 40
0.5
 40
0.75
 40
0.75
 40
0.75
 40
0.75
 40
1.0
 40
1.0
 40
1.0
 40
1.0
 10
0.0957755905511811
 20
3.080011811023622
 30
0.0
 10
0.0957755905511811
 20
3.080011811023622
 30
0.0
 10
0.0939251968503937
 20
3.831858267716536
 30
0.0
 10
0.0939251968503937
 20
3.831858267716536
 30
0.0
 10
0.0939251968503937
 20
3.831858267716536
 30
0.0
 10
0.0939251968503937
 20
3.831858267716536
 30
0.0
 10
0.0939251968503937
 20
3.674358267716535
 30
0.0
 10
0.0939251968503937
 20
3.674358267716535
 30
0.0
 10
0.0939251968503937
 20
3.674358267716535
 30
0.0
 10
0.0939251968503937
 20
3.674358267716535
 30
0.0
 10
0.0957755905511811
 20
2.922511811023622
 30
0.0
 10
0.0957755905511811
 20
2.922511811023622
 30
0.0
 10
0.0957755905511811
 20
2.922511811023622
 30
0.0
 10
0.0957755905511811
 20
2.922511811023622
 30
0.0
 10
0.0957755905511811
 20
3.080011811023622
 30
0.0
 10
0.0957755905511811
 20
3.080011811023622
 30
0.0
  0
SPLINE
  5
54
330
1F
100
AcDbEntity
  8
LAYER_1
 62
   252
100
AcDbSpline
210
0.0
220
0.0
230
1.0
 70
    11
 71
     3
 72
    20
 73
    16
 74
     0
 42
0.0000000001
 43
0.0000000001
 40
0.0
 40
0.0
 40
0.0
 40
0.0
 40
0.25
 40
0.25
 40
0.25
 40
0.25
 40
0.5
 40
0.5
 40
0.5
 40
0.5
 40
0.75
 40
0.75
 40
0.75
 40
0.75
 40
1.0
 40
1.0
 40
1.0
 40
1.0
 10
-0.214236220472441
 20
3.080011811023622
 30
0.0
 10
-0.214236220472441
 20
3.080011811023622
 30
0.0
 10
-0.2160866141732284
 20
3.831858267716536
 30
0.0
 10
-0.2160866141732284
 20
3.831858267716536
 30
0.0
 10
-0.2160866141732284
 20
3.831858267716536
 30
0.0
 10
-0.2160866141732284
 20
3.831858267716536
 30
0.0
 10
0.0939251968503937
 20
3.831858267716536
 30
0.0
 10
0.0939251968503937
 20
3.831858267716536
 30
0.0
 10
0.0939251968503937
 20
3.831858267716536
 30
0.0
 10
0.0939251968503937
 20
3.831858267716536
 30
0.0
 10
0.0957755905511811
 20
3.080011811023622
 30
0.0
 10
0.0957755905511811
 20
3.080011811023622
 30
0.0
 10
0.0957755905511811
 20
3.080011811023622
 30
0.0
 10
0.0957755905511811
 20
3.080011811023622
 30
0.0
 10
-0.214236220472441
 20
3.080011811023622
 30
0.0
 10
-0.214236220472441
 20
3.080011811023622
 30
0.0
  0
SPLINE
  5
55
330
1F
100
AcDbEntity
  8
LAYER_1
 62
   250
100
AcDbSpline
210
0.0
220
0.0
230
1.0
 70
    11
 71
     3
 72
    20
 73
    16
 74
     0
 42
0.0000000001
 43
0.0000000001
 40
0.0
 40
0.0
 40
0.0
 40
0.0
 40
0.25
 40
0.25
 40
0.25
 40
0.25
 40
0.5
 40
0.5
 40
0.5
 40
0.5
 40
0.75
 40
0.75
 40
0.75
 40
0.75
 40
1.0
 40
1.0
 40
1.0
 40
1.0
 10
-0.214236220472441
 20
3.080011811023622
 30
0.0
 10
-0.214236220472441
 20
3.080011811023622
 30
0.0
 10
-0.2160866141732284
 20
3.831858267716536
 30
0.0
 10
-0.2160866141732284
 20
3.831858267716536
 30
0.0
 10
-0.2160866141732284
 20
3.831858267716536
 30
0.0
 10
-0.2160866141732284
 20
3.831858267716536
 30
0.0
 10
0.0939251968503937
 20
3.831858267716536
 30
0.0
 10
0.0939251968503937
 20
3.831858267716536
 30
0.0
 10
0.0939251968503937
 20
3.831858267716536
 30
0.0
 10
0.0939251968503937
 20
3.831858267716536
 30
0.0
 10
0.0957755905511811
 20
3.080011811023622
 30
0.0
 10
0.0957755905511811
 20
3.080011811023622
 30
0.0
 10
0.0957755905511811
 20
3.080011811023622
 30
0.0
 10
0.0957755905511811
 20
3.080011811023622
 30
0.0
 10
-0.214236220472441
 20
3.080011811023622
 30
0.0
 10
-0.214236220472441
 20
3.080011811023622
 30
0.0
  0
SPLINE
  5
56
330
1F
100
AcDbEntity
  8
LAYER_1
 62
   252
100
AcDbSpline
210
0.0
220
0.0
230
1.0
 70
    11
 71
     3
 72
    20
 73
    16
 74
     0
 42
0.0000000001
 43
0.0000000001
 40
0.0
 40
0.0
 40
0.0
 40
0.0
 40
0.25
 40
0.25
 40
0.25
 40
0.25
 40
0.5
 40
0.5
 40
0.5
 40
0.5
 40
0.75
 40
0.75
 40
0.75
 40
0.75
 40
1.0
 40
1.0
 40
1.0
 40
1.0
 10
0.515763779527559
 20
2.610011811023622
 30
0.0
 10
0.515763779527559
 20
2.610011811023622
 30
0.0
 10
0.5139133858267717
 20
3.361858267716535
 30
0.0
 10
0.5139133858267717
 20
3.361858267716535
 30
0.0
 10
0.5139133858267717
 20
3.361858267716535
 30
0.0
 10
0.5139133858267717
 20
3.361858267716535
 30
0.0
 10
0.6839133858267716
 20
3.361858267716535
 30
0.0
 10
0.6839133858267716
 20
3.361858267716535
 30
0.0
 10
0.6839133858267716
 20
3.361858267716535
 30
0.0
 10
0.6839133858267716
 20
3.361858267716535
 30
0.0
 10
0.6857637795275591
 20
2.610011811023622
 30
0.0
 10
0.6857637795275591
 20
2.610011811023622
 30
0.0
 10
0.6857637795275591
 20
2.610011811023622
 30
0.0
 10
0.6857637795275591
 20
2.610011811023622
 30
0.0
 10
0.515763779527559
 20
2.610011811023622
 30
0.0
 10
0.515763779527559
 20
2.610011811023622
 30
0.0
  0
SPLINE
  5
57
330
1F
100
AcDbEntity
  8
LAYER_1
 62
   250
100
AcDbSpline
210
0.0
220
0.0
230
1.0
 70
    11
 71
     3
 72
    20
 73
    16
 74
     0
 42
0.0000000001
 43
0.0000000001
 40
0.0
 40
0.0
 40
0.0
 40
0.0
 40
0.25
 40
0.25
 40
0.25
 40
0.25
 40
0.5
 40
0.5
 40
0.5
 40
0.5
 40
0.75
 40
0.75
 40
0.75
 40
0.75
 40
1.0
 40
1.0
 40
1.0
 40
1.0
 10
0.515763779527559
 20
2.610011811023622
 30
0.0
 10
0.515763779527559
 20
2.610011811023622
 30
0.0
 10
0.5139133858267717
 20
3.361858267716535
 30
0.0
 10
0.5139133858267717
 20
3.361858267716535
 30
0.0
 10
0.5139133858267717
 20
3.361858267716535
 30
0.0
 10
0.5139133858267717
 20
3.361858267716535
 30
0.0
 10
0.6839133858267716
 20
3.361858267716535
 30
0.0
 10
0.6839133858267716
 20
3.361858267716535
 30
0.0
 10
0.6839133858267716
 20
3.361858267716535
 30
0.0
 10
0.6839133858267716
 20
3.361858267716535
 30
0.0
 10
0.6857637795275591
 20
2.610011811023622
 30
0.0
 10
0.6857637795275591
 20
2.610011811023622
 30
0.0
 10
0.6857637795275591
 20
2.610011811023622
 30
0.0
 10
0.6857637795275591
 20
2.610011811023622
 30
0.0
 10
0.515763779527559
 20
2.610011811023622
 30
0.0
 10
0.515763779527559
 20
2.610011811023622
 30
0.0
  0
SPLINE
  5
58
330
1F
100
AcDbEntity
  8
LAYER_1
 62
     7
100
AcDbSpline
210
0.0
220
0.0
230
1.0
 70
    11
 71
     3
 72
    32
 73
    28
 74
     0
 42
0.0000000001
 43
0.0000000001
 40
0.0
 40
0.0
 40
0.0
 40
0.0
 40
0.1428571428571429
 40
0.1428571428571429
 40
0.1428571428571429
 40
0.1428571428571429
 40
0.2857142857142857
 40
0.2857142857142857
 40
0.2857142857142857
 40
0.2857142857142857
 40
0.4285714285714286
 40
0.4285714285714286
 40
0.4285714285714286
 40
0.4285714285714286
 40
0.5714285714285714
 40
0.5714285714285714
 40
0.5714285714285714
 40
0.5714285714285714
 40
0.7142857142857142
 40
0.7142857142857142
 40
0.7142857142857142
 40
0.7142857142857142
 40
0.857142857142857
 40
0.857142857142857
 40
0.857142857142857
 40
0.857142857142857
 40
1.0
 40
1.0
 40
1.0
 40
1.0
 10
-0.214236220472441
 20
3.080011811023622
 30
0.0
 10
-0.214236220472441
 20
3.080011811023622
 30
0.0
 10
0.0957755905511811
 20
3.080011811023622
 30
0.0
 10
0.0957755905511811
 20
3.080011811023622
 30
0.0
 10
0.0957755905511811
 20
3.080011811023622
 30
0.0
 10
0.0957755905511811
 20
3.080011811023622
 30
0.0
 10
0.0957755905511811
 20
2.922511811023622
 30
0.0
 10
0.0957755905511811
 20
2.922511811023622
 30
0.0
 10
0.0957755905511811
 20
2.922511811023622
 30
0.0
 10
0.0957755905511811
 20
2.922511811023622
 30
0.0
 10
0.515763779527559
 20
2.610011811023622
 30
0.0
 10
0.515763779527559
 20
2.610011811023622
 30
0.0
 10
0.515763779527559
 20
2.610011811023622
 30
0.0
 10
0.515763779527559
 20
2.610011811023622
 30
0.0
 10
0.6857637795275591
 20
2.610011811023622
 30
0.0
 10
0.6857637795275591
 20
2.610011811023622
 30
0.0
 10
0.6857637795275591
 20
2.610011811023622
 30
0.0
 10
0.6857637795275591
 20
2.610011811023622
 30
0.0
 10
0.6857637795275591
 20
2.380011811023622
 30
0.0
 10
0.6857637795275591
 20
2.380011811023622
 30
0.0
 10
0.6857637795275591
 20
2.380011811023622
 30
0.0
 10
0.6857637795275591
 20
2.380011811023622
 30
0.0
 10
-0.214236220472441
 20
2.380011811023622
 30
0.0
 10
-0.214236220472441
 20
2.380011811023622
 30
0.0
 10
-0.214236220472441
 20
2.380011811023622
 30
0.0
 10
-0.214236220472441
 20
2.380011811023622
 30
0.0
 10
-0.214236220472441
 20
3.080011811023622
 30
0.0
 10
-0.214236220472441
 20
3.080011811023622
 30
0.0
  0
SPLINE
  5
59
330
1F
100
AcDbEntity
  8
LAYER_1
 62
   250
100
AcDbSpline
210
0.0
220
0.0
230
1.0
 70
    11
 71
     3
 72
   104
 73
   100
 74
     0
 42
0.0000000001
 43
0.0000000001
 40
0.0
 40
0.0
 40
0.0
 40
0.0
 40
0.04
 40
0.04
 40
0.04
 40
0.04
 40
0.08
 40
0.08
 40
0.08
 40
0.08
 40
0.12
 40
0.12
 40
0.12
 40
0.12
 40
0.16
 40
0.16
 40
0.16
 40
0.16
 40
0.2
 40
0.2
 40
0.2
 40
0.2
 40
0.24
 40
0.24
 40
0.24
 40
0.24
 40
0.28
 40
0.28
 40
0.28
 40
0.28
 40
0.32
 40
0.32
 40
0.32
 40
0.32
 40
0.36
 40
0.36
 40
0.36
 40
0.36
 40
0.4
 40
0.4
 40
0.4
 40
0.4
 40
0.44
 40
0.44
 40
0.44
 40
0.44
 40
0.4799999999999999
 40
0.4799999999999999
 40
0.4799999999999999
 40
0.4799999999999999
 40
0.5199999999999999
 40
0.5199999999999999
 40
0.5199999999999999
 40
0.5199999999999999
 40
0.5599999999999999
 40
0.5599999999999999
 40
0.5599999999999999
 40
0.5599999999999999
 40
0.6
 40
0.6
 40
0.6
 40
0.6
 40
0.64
 40
0.64
 40
0.64
 40
0.64
 40
0.6800000000000001
 40
0.6800000000000001
 40
0.6800000000000001
 40
0.6800000000000001
 40
0.7200000000000001
 40
0.7200000000000001
 40
0.7200000000000001
 40
0.7200000000000001
 40
0.7600000000000001
 40
0.7600000000000001
 40
0.7600000000000001
 40
0.7600000000000001
 40
0.8000000000000002
 40
0.8000000000000002
 40
0.8000000000000002
 40
0.8000000000000002
 40
0.8400000000000002
 40
0.8400000000000002
 40
0.8400000000000002
 40
0.8400000000000002
 40
0.8800000000000002
 40
0.8800000000000002
 40
0.8800000000000002
 40
0.8800000000000002
 40
0.9200000000000003
 40
0.9200000000000003
 40
0.9200000000000003
 40
0.9200000000000003
 40
0.9600000000000003
 40
0.9600000000000003
 40
0.9600000000000003
 40
0.9600000000000003
 40
1.0
 40
1.0
 40
1.0
 40
1.0
 10
-0.1337637795275591
 20
2.261799212598425
 30
0.0
 10
-0.1337637795275591
 20
2.261799212598425
 30
0.0
 10
-0.0797913385826772
 20
2.261799212598425
 30
0.0
 10
-0.0797913385826772
 20
2.261799212598425
 30
0.0
 10
-0.0797913385826772
 20
2.261799212598425
 30
0.0
 10
-0.0666220472440945
 20
2.261799212598425
 30
0.0
 10
-0.0575944881889764
 20
2.261188976377953
 30
0.0
 10
-0.0527086614173228
 20
2.259992125984252
 30
0.0
 10
-0.0527086614173228
 20
2.259992125984252
 30
0.0
 10
-0.0454842519685039
 20
2.258271653543307
 30
0.0
 10
-0.0397913385826772
 20
2.255133858267717
 30
0.0
 10
-0.0355669291338583
 20
2.250574803149606
 30
0.0
 10
-0.0355669291338583
 20
2.250574803149606
 30
0.0
 10
-0.0313740157480315
 20
2.24601968503937
 30
0.0
 10
-0.0292637795275591
 20
2.24051968503937
 30
0.0
 10
-0.0292637795275591
 20
2.234133858267717
 30
0.0
 10
-0.0292637795275591
 20
2.234133858267717
 30
0.0
 10
-0.0292637795275591
 20
2.22951968503937
 30
0.0
 10
-0.0303740157480315
 20
2.22538188976378
 30
0.0
 10
-0.0325944881889764
 20
2.221716535433071
 30
0.0
 10
-0.0325944881889764
 20
2.221716535433071
 30
0.0
 10
-0.0348188976377953
 20
2.218047244094488
 30
0.0
 10
-0.0380669291338583
 20
2.214909448818898
 30
0.0
 10
-0.0422913385826772
 20
2.212326771653543
 30
0.0
 10
-0.0422913385826772
 20
2.212326771653543
 30
0.0
 10
-0.045011811023622
 20
2.210633858267717
 30
0.0
 10
-0.0486811023622047
 20
2.209188976377953
 30
0.0
 10
-0.0533464566929134
 20
2.207992125984252
 30
0.0
 10
-0.0533464566929134
 20
2.207992125984252
 30
0.0
 10
-0.0474291338582677
 20
2.206909448818898
 30
0.0
 10
-0.0429291338582677
 20
2.205606299212599
 30
0.0
 10
-0.0398464566929134
 20
2.204106299212599
 30
0.0
 10
-0.0398464566929134
 20
2.204106299212599
 30
0.0
 10
-0.0351811023622047
 20
2.201826771653543
 30
0.0
 10
-0.0314842519685039
 20
2.198578740157481
 30
0.0
 10
-0.0287913385826772
 20
2.194326771653544
 30
0.0
 10
-0.0287913385826772
 20
2.194326771653544
 30
0.0
 10
-0.0260669291338583
 20
2.190106299212598
 30
0.0
 10
-0.0247086614173228
 20
2.185326771653544
 30
0.0
 10
-0.0247086614173228
 20
2.18001968503937
 30
0.0
 10
-0.0247086614173228
 20
2.18001968503937
 30
0.0
 10
-0.0247086614173228
 20
2.174854330708662
 30
0.0
 10
-0.0260393700787402
 20
2.17007874015748
 30
0.0
 10
-0.0287086614173228
 20
2.165688976377953
 30
0.0
 10
-0.0287086614173228
 20
2.165688976377953
 30
0.0
 10
-0.0313464566929134
 20
2.161299212598425
 30
0.0
 10
-0.0351220472440945
 20
2.157688976377953
 30
0.0
 10
-0.0399566929133858
 20
2.154854330708662
 30
0.0
 10
-0.0399566929133858
 20
2.154854330708662
 30
0.0
 10
-0.0448188976377953
 20
2.152051181102362
 30
0.0
 10
-0.0504842519685039
 20
2.150244094488189
 30
0.0
 10
-0.0569291338582677
 20
2.149437007874016
 30
0.0
 10
-0.0569291338582677
 20
2.149437007874016
 30
0.0
 10
-0.0634015748031496
 20
2.148661417322835
 30
0.0
 10
-0.0700393700787402
 20
2.148271653543307
 30
0.0
 10
-0.0768740157480315
 20
2.148271653543307
 30
0.0
 10
-0.0768740157480315
 20
2.148271653543307
 30
0.0
 10
-0.0768740157480315
 20
2.148271653543307
 30
0.0
 10
-0.1337637795275591
 20
2.148271653543307
 30
0.0
 10
-0.1337637795275591
 20
2.148271653543307
 30
0.0
 10
-0.1337637795275591
 20
2.148271653543307
 30
0.0
 10
-0.1337637795275591
 20
2.148271653543307
 30
0.0
 10
-0.1337637795275591
 20
2.155106299212599
 30
0.0
 10
-0.1337637795275591
 20
2.155106299212599
 30
0.0
 10
-0.1337637795275591
 20
2.155106299212599
 30
0.0
 10
-0.1337637795275591
 20
2.155106299212599
 30
0.0
 10
-0.1299291338582677
 20
2.155106299212599
 30
0.0
 10
-0.1299291338582677
 20
2.155106299212599
 30
0.0
 10
-0.1299291338582677
 20
2.155106299212599
 30
0.0
 10
-0.1262322834645669
 20
2.155106299212599
 30
0.0
 10
-0.1237322834645669
 20
2.155688976377953
 30
0.0
 10
-0.1223740157480315
 20
2.156826771653543
 30
0.0
 10
-0.1223740157480315
 20
2.156826771653543
 30
0.0
 10
-0.1204015748031496
 20
2.158381889763779
 30
0.0
 10
-0.1194291338582677
 20
2.160992125984252
 30
0.0
 10
-0.1194291338582677
 20
2.164633858267717
 30
0.0
 10
-0.1194291338582677
 20
2.164633858267717
 30
0.0
 10
-0.1194291338582677
 20
2.164633858267717
 30
0.0
 10
-0.1194291338582677
 20
2.243492125984252
 30
0.0
 10
-0.1194291338582677
 20
2.243492125984252
 30
0.0
 10
-0.1194291338582677
 20
2.243492125984252
 30
0.0
 10
-0.1194291338582677
 20
2.247188976377953
 30
0.0
 10
-0.1197322834645669
 20
2.249688976377953
 30
0.0
 10
-0.1203188976377953
 20
2.251047244094488
 30
0.0
 10
-0.1203188976377953
 20
2.251047244094488
 30
0.0
 10
-0.1209291338582677
 20
2.252409448818898
 30
0.0
 10
-0.1218188976377953
 20
2.25338188976378
 30
0.0
 10
-0.1230118110236221
 20
2.253992125984252
 30
0.0
 10
-0.1230118110236221
 20
2.253992125984252
 30
0.0
 10
-0.1242047244094488
 20
2.254574803149606
 30
0.0
 10
-0.1265118110236221
 20
2.25488188976378
 30
0.0
 10
-0.1299291338582677
 20
2.25488188976378
 30
0.0
 10
-0.1299291338582677
 20
2.25488188976378
 30
0.0
 10
-0.1299291338582677
 20
2.25488188976378
 30
0.0
 10
-0.1337637795275591
 20
2.25488188976378
 30
0.0
 10
-0.1337637795275591
 20
2.25488188976378
 30
0.0
 10
-0.1337637795275591
 20
2.25488188976378
 30
0.0
 10
-0.1337637795275591
 20
2.25488188976378
 30
0.0
 10
-0.1337637795275591
 20
2.261799212598425
 30
0.0
 10
-0.1337637795275591
 20
2.261799212598425
 30
0.0
  0
SPLINE
  5
5A
330
1F
100
AcDbEntity
  8
LAYER_1
 62
   250
100
AcDbSpline
210
0.0
220
0.0
230
1.0
 70
    11
 71
     3
 72
    40
 73
    36
 74
     0
 42
0.0000000001
 43
0.0000000001
 40
0.0
 40
0.0
 40
0.0
 40
0.0
 40
0.1111111111111111
 40
0.1111111111111111
 40
0.1111111111111111
 40
0.1111111111111111
 40
0.2222222222222222
 40
0.2222222222222222
 40
0.2222222222222222
 40
0.2222222222222222
 40
0.3333333333333333
 40
0.3333333333333333
 40
0.3333333333333333
 40
0.3333333333333333
 40
0.4444444444444444
 40
0.4444444444444444
 40
0.4444444444444444
 40
0.4444444444444444
 40
0.5555555555555556
 40
0.5555555555555556
 40
0.5555555555555556
 40
0.5555555555555556
 40
0.6666666666666667
 40
0.6666666666666667
 40
0.6666666666666667
 40
0.6666666666666667
 40
0.7777777777777779
 40
0.7777777777777779
 40
0.7777777777777779
 40
0.7777777777777779
 40
0.8888888888888891
 40
0.8888888888888891
 40
0.8888888888888891
 40
0.8888888888888891
 40
1.0
 40
1.0
 40
1.0
 40
1.0
 10
-0.1042047244094488
 20
2.252771653543307
 30
0.0
 10
-0.1042047244094488
 20
2.252771653543307
 30
0.0
 10
-0.1042047244094488
 20
2.211188976377953
 30
0.0
 10
-0.1042047244094488
 20
2.211188976377953
 30
0.0
 10
-0.1042047244094488
 20
2.211188976377953
 30
0.0
 10
-0.1042047244094488
 20
2.211188976377953
 30
0.0
 10
-0.0834566929133858
 20
2.211188976377953
 30
0.0
 10
-0.0834566929133858
 20
2.211188976377953
 30
0.0
 10
-0.0834566929133858
 20
2.211188976377953
 30
0.0
 10
-0.0737637795275591
 20
2.211188976377953
 30
0.0
 10
-0.0670944881889764
 20
2.211633858267716
 30
0.0
 10
-0.0635393700787402
 20
2.212547244094488
 30
0.0
 10
-0.0635393700787402
 20
2.212547244094488
 30
0.0
 10
-0.0579291338582677
 20
2.21401968503937
 30
0.0
 10
-0.0536811023622047
 20
2.21651968503937
 30
0.0
 10
-0.0507086614173228
 20
2.220047244094488
 30
0.0
 10
-0.0507086614173228
 20
2.220047244094488
 30
0.0
 10
-0.0477637795275591
 20
2.223574803149607
 30
0.0
 10
-0.0462637795275591
 20
2.228106299212599
 30
0.0
 10
-0.0462637795275591
 20
2.233633858267717
 30
0.0
 10
-0.0462637795275591
 20
2.233633858267717
 30
0.0
 10
-0.0462637795275591
 20
2.238299212598425
 30
0.0
 10
-0.0476220472440945
 20
2.242188976377953
 30
0.0
 10
-0.0502913385826772
 20
2.245326771653543
 30
0.0
 10
-0.0502913385826772
 20
2.245326771653543
 30
0.0
 10
-0.0529842519685039
 20
2.248437007874016
 30
0.0
 10
-0.0565944881889764
 20
2.250574803149606
 30
0.0
 10
-0.0610944881889764
 20
2.251716535433071
 30
0.0
 10
-0.0610944881889764
 20
2.251716535433071
 30
0.0
 10
-0.0640118110236221
 20
2.252409448818898
 30
0.0
 10
-0.0700944881889764
 20
2.252771653543307
 30
0.0
 10
-0.0793188976377953
 20
2.252771653543307
 30
0.0
 10
-0.0793188976377953
 20
2.252771653543307
 30
0.0
 10
-0.0793188976377953
 20
2.252771653543307
 30
0.0
 10
-0.1042047244094488
 20
2.252771653543307
 30
0.0
 10
-0.1042047244094488
 20
2.252771653543307
 30
0.0
  0
SPLINE
  5
5B
330
1F
100
AcDbEntity
  8
LAYER_1
 62
   250
100
AcDbSpline
210
0.0
220
0.0
230
1.0
 70
    11
 71
     3
 72
    52
 73
    48
 74
     0
 42
0.0000000001
 43
0.0000000001
 40
0.0
 40
0.0
 40
0.0
 40
0.0
 40
0.0833333333333333
 40
0.0833333333333333
 40
0.0833333333333333
 40
0.0833333333333333
 40
0.1666666666666667
 40
0.1666666666666667
 40
0.1666666666666667
 40
0.1666666666666667
 40
0.25
 40
0.25
 40
0.25
 40
0.25
 40
0.3333333333333333
 40
0.3333333333333333
 40
0.3333333333333333
 40
0.3333333333333333
 40
0.4166666666666666
 40
0.4166666666666666
 40
0.4166666666666666
 40
0.4166666666666666
 40
0.4999999999999999
 40
0.4999999999999999
 40
0.4999999999999999
 40
0.4999999999999999
 40
0.5833333333333333
 40
0.5833333333333333
 40
0.5833333333333333
 40
0.5833333333333333
 40
0.6666666666666666
 40
0.6666666666666666
 40
0.6666666666666666
 40
0.6666666666666666
 40
0.75
 40
0.75
 40
0.75
 40
0.75
 40
0.8333333333333334
 40
0.8333333333333334
 40
0.8333333333333334
 40
0.8333333333333334
 40
0.9166666666666667
 40
0.9166666666666667
 40
0.9166666666666667
 40
0.9166666666666667
 40
1.0
 40
1.0
 40
1.0
 40
1.0
 10
-0.1042047244094488
 20
2.203354330708661
 30
0.0
 10
-0.1042047244094488
 20
2.203354330708661
 30
0.0
 10
-0.1042047244094488
 20
2.166106299212598
 30
0.0
 10
-0.1042047244094488
 20
2.166106299212598
 30
0.0
 10
-0.1042047244094488
 20
2.166106299212598
 30
0.0
 10
-0.1042047244094488
 20
2.162354330708662
 30
0.0
 10
-0.1040393700787402
 20
2.160133858267717
 30
0.0
 10
-0.103736220472441
 20
2.159409448818898
 30
0.0
 10
-0.103736220472441
 20
2.159409448818898
 30
0.0
 10
-0.1032913385826772
 20
2.158437007874016
 30
0.0
 10
-0.1024291338582677
 20
2.157771653543307
 30
0.0
 10
-0.1011220472440945
 20
2.15738188976378
 30
0.0
 10
-0.1011220472440945
 20
2.15738188976378
 30
0.0
 10
-0.1002047244094488
 20
2.157106299212598
 30
0.0
 10
-0.0975944881889764
 20
2.156964566929134
 30
0.0
 10
-0.0933188976377953
 20
2.156964566929134
 30
0.0
 10
-0.0933188976377953
 20
2.156964566929134
 30
0.0
 10
-0.0933188976377953
 20
2.156964566929134
 30
0.0
 10
-0.0822362204724409
 20
2.156964566929134
 30
0.0
 10
-0.0822362204724409
 20
2.156964566929134
 30
0.0
 10
-0.0822362204724409
 20
2.156964566929134
 30
0.0
 10
-0.0712913385826772
 20
2.156964566929134
 30
0.0
 10
-0.0634566929133858
 20
2.15757874015748
 30
0.0
 10
-0.0587637795275591
 20
2.158799212598425
 30
0.0
 10
-0.0587637795275591
 20
2.158799212598425
 30
0.0
 10
-0.0540669291338583
 20
2.16001968503937
 30
0.0
 10
-0.0500669291338583
 20
2.162606299212599
 30
0.0
 10
-0.0467637795275591
 20
2.166551181102362
 30
0.0
 10
-0.0467637795275591
 20
2.166551181102362
 30
0.0
 10
-0.0434566929133858
 20
2.170464566929134
 30
0.0
 10
-0.0417913385826772
 20
2.175216535433071
 30
0.0
 10
-0.0417913385826772
 20
2.180744094488189
 30
0.0
 10
-0.0417913385826772
 20
2.180744094488189
 30
0.0
 10
-0.0417913385826772
 20
2.185409448818898
 30
0.0
 10
-0.0431496062992126
 20
2.189547244094488
 30
0.0
 10
-0.0458188976377953
 20
2.193161417322835
 30
0.0
 10
-0.0458188976377953
 20
2.193161417322835
 30
0.0
 10
-0.0485118110236221
 20
2.196771653543307
 30
0.0
 10
-0.0522362204724409
 20
2.199354330708661
 30
0.0
 10
-0.0569842519685039
 20
2.200964566929134
 30
0.0
 10
-0.0569842519685039
 20
2.200964566929134
 30
0.0
 10
-0.0617362204724409
 20
2.202578740157481
 30
0.0
 10
-0.0701496062992126
 20
2.203354330708661
 30
0.0
 10
-0.0822362204724409
 20
2.203354330708661
 30
0.0
 10
-0.0822362204724409
 20
2.203354330708661
 30
0.0
 10
-0.0822362204724409
 20
2.203354330708661
 30
0.0
 10
-0.1042047244094488
 20
2.203354330708661
 30
0.0
 10
-0.1042047244094488
 20
2.203354330708661
 30
0.0
  0
SPLINE
  5
5C
330
1F
100
AcDbEntity
  8
LAYER_1
 62
   250
100
AcDbSpline
210
0.0
220
0.0
230
1.0
 70
    11
 71
     3
 72
   112
 73
   108
 74
     0
 42
0.0000000001
 43
0.0000000001
 40
0.0
 40
0.0
 40
0.0
 40
0.0
 40
0.037037037037037
 40
0.037037037037037
 40
0.037037037037037
 40
0.037037037037037
 40
0.0740740740740741
 40
0.0740740740740741
 40
0.0740740740740741
 40
0.0740740740740741
 40
0.1111111111111111
 40
0.1111111111111111
 40
0.1111111111111111
 40
0.1111111111111111
 40
0.1481481481481481
 40
0.1481481481481481
 40
0.1481481481481481
 40
0.1481481481481481
 40
0.1851851851851852
 40
0.1851851851851852
 40
0.1851851851851852
 40
0.1851851851851852
 40
0.2222222222222222
 40
0.2222222222222222
 40
0.2222222222222222
 40
0.2222222222222222
 40
0.2592592592592592
 40
0.2592592592592592
 40
0.2592592592592592
 40
0.2592592592592592
 40
0.2962962962962963
 40
0.2962962962962963
 40
0.2962962962962963
 40
0.2962962962962963
 40
0.3333333333333333
 40
0.3333333333333333
 40
0.3333333333333333
 40
0.3333333333333333
 40
0.3703703703703704
 40
0.3703703703703704
 40
0.3703703703703704
 40
0.3703703703703704
 40
0.4074074074074074
 40
0.4074074074074074
 40
0.4074074074074074
 40
0.4074074074074074
 40
0.4444444444444444
 40
0.4444444444444444
 40
0.4444444444444444
 40
0.4444444444444444
 40
0.4814814814814815
 40
0.4814814814814815
 40
0.4814814814814815
 40
0.4814814814814815
 40
0.5185185185185185
 40
0.5185185185185185
 40
0.5185185185185185
 40
0.5185185185185185
 40
0.5555555555555556
 40
0.5555555555555556
 40
0.5555555555555556
 40
0.5555555555555556
 40
0.5925925925925926
 40
0.5925925925925926
 40
0.5925925925925926
 40
0.5925925925925926
 40
0.6296296296296295
 40
0.6296296296296295
 40
0.6296296296296295
 40
0.6296296296296295
 40
0.6666666666666665
 40
0.6666666666666665
 40
0.6666666666666665
 40
0.6666666666666665
 40
0.7037037037037035
 40
0.7037037037037035
 40
0.7037037037037035
 40
0.7037037037037035
 40
0.7407407407407405
 40
0.7407407407407405
 40
0.7407407407407405
 40
0.7407407407407405
 40
0.7777777777777775
 40
0.7777777777777775
 40
0.7777777777777775
 40
0.7777777777777775
 40
0.8148148148148144
 40
0.8148148148148144
 40
0.8148148148148144
 40
0.8148148148148144
 40
0.8518518518518514
 40
0.8518518518518514
 40
0.8518518518518514
 40
0.8518518518518514
 40
0.8888888888888884
 40
0.8888888888888884
 40
0.8888888888888884
 40
0.8888888888888884
 40
0.9259259259259254
 40
0.9259259259259254
 40
0.9259259259259254
 40
0.9259259259259254
 40
0.9629629629629624
 40
0.9629629629629624
 40
0.9629629629629624
 40
0.9629629629629624
 40
1.0
 40
1.0
 40
1.0
 40
1.0
 10
0.0329015748031496
 20
2.261799212598425
 30
0.0
 10
0.0329015748031496
 20
2.261799212598425
 30
0.0
 10
0.0463188976377953
 20
2.261799212598425
 30
0.0
 10
0.0463188976377953
 20
2.261799212598425
 30
0.0
 10
0.0463188976377953
 20
2.261799212598425
 30
0.0
 10
0.0463188976377953
 20
2.261799212598425
 30
0.0
 10
0.0815669291338583
 20
2.166909448818898
 30
0.0
 10
0.0815669291338583
 20
2.166909448818898
 30
0.0
 10
0.0815669291338583
 20
2.166909448818898
 30
0.0
 10
0.0832913385826772
 20
2.162133858267717
 30
0.0
 10
0.0850393700787402
 20
2.158964566929134
 30
0.0
 10
0.0868188976377953
 20
2.157437007874016
 30
0.0
 10
0.0868188976377953
 20
2.157437007874016
 30
0.0
 10
0.0885669291338583
 20
2.15588188976378
 30
0.0
 10
0.0909566929133858
 20
2.155106299212599
 30
0.0
 10
0.0939291338582677
 20
2.155106299212599
 30
0.0
 10
0.0939291338582677
 20
2.155106299212599
 30
0.0
 10
0.0939291338582677
 20
2.155106299212599
 30
0.0
 10
0.0957086614173228
 20
2.155106299212599
 30
0.0
 10
0.0957086614173228
 20
2.155106299212599
 30
0.0
 10
0.0957086614173228
 20
2.155106299212599
 30
0.0
 10
0.0957086614173228
 20
2.155106299212599
 30
0.0
 10
0.0957086614173228
 20
2.148271653543307
 30
0.0
 10
0.0957086614173228
 20
2.148271653543307
 30
0.0
 10
0.0957086614173228
 20
2.148271653543307
 30
0.0
 10
0.0957086614173228
 20
2.148271653543307
 30
0.0
 10
0.0552637795275591
 20
2.148271653543307
 30
0.0
 10
0.0552637795275591
 20
2.148271653543307
 30
0.0
 10
0.0552637795275591
 20
2.148271653543307
 30
0.0
 10
0.0552637795275591
 20
2.148271653543307
 30
0.0
 10
0.0552637795275591
 20
2.155106299212599
 30
0.0
 10
0.0552637795275591
 20
2.155106299212599
 30
0.0
 10
0.0552637795275591
 20
2.155106299212599
 30
0.0
 10
0.0565669291338583
 20
2.155216535433071
 30
0.0
 10
0.0578464566929134
 20
2.155271653543307
 30
0.0
 10
0.0590984251968504
 20
2.155271653543307
 30
0.0
 10
0.0590984251968504
 20
2.155271653543307
 30
0.0
 10
0.0617086614173228
 20
2.155271653543307
 30
0.0
 10
0.0634015748031496
 20
2.155551181102362
 30
0.0
 10
0.0642362204724409
 20
2.156078740157481
 30
0.0
 10
0.0642362204724409
 20
2.156078740157481
 30
0.0
 10
0.0657913385826772
 20
2.157106299212598
 30
0.0
 10
0.0665944881889764
 20
2.158409448818898
 30
0.0
 10
0.0665944881889764
 20
2.159992125984252
 30
0.0
 10
0.0665944881889764
 20
2.159992125984252
 30
0.0
 10
0.0665944881889764
 20
2.161133858267716
 30
0.0
 10
0.0658188976377953
 20
2.163909448818898
 30
0.0
 10
0.0643188976377953
 20
2.16838188976378
 30
0.0
 10
0.0643188976377953
 20
2.16838188976378
 30
0.0
 10
0.0643188976377953
 20
2.16838188976378
 30
0.0
 10
0.0568188976377953
 20
2.190354330708662
 30
0.0
 10
0.0568188976377953
 20
2.190354330708662
 30
0.0
 10
0.0568188976377953
 20
2.190354330708662
 30
0.0
 10
0.0568188976377953
 20
2.190354330708662
 30
0.0
 10
0.0156535433070866
 20
2.190354330708662
 30
0.0
 10
0.0156535433070866
 20
2.190354330708662
 30
0.0
 10
0.0156535433070866
 20
2.190354330708662
 30
0.0
 10
0.0156535433070866
 20
2.190354330708662
 30
0.0
 10
0.0068464566929134
 20
2.165771653543307
 30
0.0
 10
0.0068464566929134
 20
2.165771653543307
 30
0.0
 10
0.0068464566929134
 20
2.165771653543307
 30
0.0
 10
0.0059291338582677
 20
2.163216535433071
 30
0.0
 10
0.0054566929133858
 20
2.161464566929134
 30
0.0
 10
0.0054566929133858
 20
2.160464566929134
 30
0.0
 10
0.0054566929133858
 20
2.160464566929134
 30
0.0
 10
0.0054566929133858
 20
2.15938188976378
 30
0.0
 10
0.0057637795275591
 20
2.158437007874016
 30
0.0
 10
0.0063188976377953
 20
2.157633858267717
 30
0.0
 10
0.0063188976377953
 20
2.157633858267717
 30
0.0
 10
0.0069015748031496
 20
2.156826771653543
 30
0.0
 10
0.0076535433070866
 20
2.156216535433071
 30
0.0
 10
0.0086535433070866
 20
2.155799212598425
 30
0.0
 10
0.0086535433070866
 20
2.155799212598425
 30
0.0
 10
0.0096259842519685
 20
2.15538188976378
 30
0.0
 10
0.0111811023622047
 20
2.155188976377953
 30
0.0
 10
0.0133740157480315
 20
2.155188976377953
 30
0.0
 10
0.0133740157480315
 20
2.155188976377953
 30
0.0
 10
0.0148188976377953
 20
2.155188976377953
 30
0.0
 10
0.0160118110236221
 20
2.155161417322835
 30
0.0
 10
0.0169291338582677
 20
2.155106299212599
 30
0.0
 10
0.0169291338582677
 20
2.155106299212599
 30
0.0
 10
0.0169291338582677
 20
2.155106299212599
 30
0.0
 10
0.0169291338582677
 20
2.148271653543307
 30
0.0
 10
0.0169291338582677
 20
2.148271653543307
 30
0.0
 10
0.0169291338582677
 20
2.148271653543307
 30
0.0
 10
0.0169291338582677
 20
2.148271653543307
 30
0.0
 10
-0.016988188976378
 20
2.148271653543307
 30
0.0
 10
-0.016988188976378
 20
2.148271653543307
 30
0.0
 10
-0.016988188976378
 20
2.148271653543307
 30
0.0
 10
-0.016988188976378
 20
2.148271653543307
 30
0.0
 10
-0.016988188976378
 20
2.155106299212599
 30
0.0
 10
-0.016988188976378
 20
2.155106299212599
 30
0.0
 10
-0.016988188976378
 20
2.155106299212599
 30
0.0
 10
-0.0138464566929134
 20
2.155106299212599
 30
0.0
 10
-0.0115708661417323
 20
2.155409448818898
 30
0.0
 10
-0.0102086614173228
 20
2.156051181102362
 30
0.0
 10
-0.0102086614173228
 20
2.156051181102362
 30
0.0
 10
-0.0088188976377953
 20
2.156661417322835
 30
0.0
 10
-0.0075984251968504
 20
2.157661417322835
 30
0.0
 10
-0.0065708661417323
 20
2.159051181102362
 30
0.0
 10
-0.0065708661417323
 20
2.159051181102362
 30
0.0
 10
-0.0055433070866142
 20
2.160437007874016
 30
0.0
 10
-0.0041811023622047
 20
2.163354330708661
 30
0.0
 10
-0.0025157480314961
 20
2.167799212598425
 30
0.0
 10
-0.0025157480314961
 20
2.167799212598425
 30
0.0
 10
-0.0025157480314961
 20
2.167799212598425
 30
0.0
 10
0.0329015748031496
 20
2.261799212598425
 30
0.0
 10
0.0329015748031496
 20
2.261799212598425
 30
0.0
  0
SPLINE
  5
5D
330
1F
100
AcDbEntity
  8
LAYER_1
 62
   250
100
AcDbSpline
210
0.0
220
0.0
230
1.0
 70
    11
 71
     3
 72
    16
 73
    12
 74
     0
 42
0.0000000001
 43
0.0000000001
 40
0.0
 40
0.0
 40
0.0
 40
0.0
 40
0.3333333333333333
 40
0.3333333333333333
 40
0.3333333333333333
 40
0.3333333333333333
 40
0.6666666666666666
 40
0.6666666666666666
 40
0.6666666666666666
 40
0.6666666666666666
 40
1.0
 40
1.0
 40
1.0
 40
1.0
 10
0.0186535433070866
 20
2.198326771653544
 30
0.0
 10
0.0186535433070866
 20
2.198326771653544
 30
0.0
 10
0.0537362204724409
 20
2.198326771653544
 30
0.0
 10
0.0537362204724409
 20
2.198326771653544
 30
0.0
 10
0.0537362204724409
 20
2.198326771653544
 30
0.0
 10
0.0537362204724409
 20
2.198326771653544
 30
0.0
 10
0.0361535433070866
 20
2.247161417322835
 30
0.0
 10
0.0361535433070866
 20
2.247161417322835
 30
0.0
 10
0.0361535433070866
 20
2.247161417322835
 30
0.0
 10
0.0361535433070866
 20
2.247161417322835
 30
0.0
 10
0.0186535433070866
 20
2.198326771653544
 30
0.0
 10
0.0186535433070866
 20
2.198326771653544
 30
0.0
  0
SPLINE
  5
5E
330
1F
100
AcDbEntity
  8
LAYER_1
 62
   250
100
AcDbSpline
210
0.0
220
0.0
230
1.0
 70
    11
 71
     3
 72
    72
 73
    68
 74
     0
 42
0.0000000001
 43
0.0000000001
 40
0.0
 40
0.0
 40
0.0
 40
0.0
 40
0.0588235294117647
 40
0.0588235294117647
 40
0.0588235294117647
 40
0.0588235294117647
 40
0.1176470588235294
 40
0.1176470588235294
 40
0.1176470588235294
 40
0.1176470588235294
 40
0.1764705882352941
 40
0.1764705882352941
 40
0.1764705882352941
 40
0.1764705882352941
 40
0.2352941176470588
 40
0.2352941176470588
 40
0.2352941176470588
 40
0.2352941176470588
 40
0.2941176470588235
 40
0.2941176470588235
 40
0.2941176470588235
 40
0.2941176470588235
 40
0.3529411764705883
 40
0.3529411764705883
 40
0.3529411764705883
 40
0.3529411764705883
 40
0.411764705882353
 40
0.411764705882353
 40
0.411764705882353
 40
0.411764705882353
 40
0.4705882352941177
 40
0.4705882352941177
 40
0.4705882352941177
 40
0.4705882352941177
 40
0.5294117647058824
 40
0.5294117647058824
 40
0.5294117647058824
 40
0.5294117647058824
 40
0.5882352941176471
 40
0.5882352941176471
 40
0.5882352941176471
 40
0.5882352941176471
 40
0.6470588235294118
 40
0.6470588235294118
 40
0.6470588235294118
 40
0.6470588235294118
 40
0.7058823529411765
 40
0.7058823529411765
 40
0.7058823529411765
 40
0.7058823529411765
 40
0.7647058823529412
 40
0.7647058823529412
 40
0.7647058823529412
 40
0.7647058823529412
 40
0.823529411764706
 40
0.823529411764706
 40
0.823529411764706
 40
0.823529411764706
 40
0.8823529411764707
 40
0.8823529411764707
 40
0.8823529411764707
 40
0.8823529411764707
 40
0.9411764705882354
 40
0.9411764705882354
 40
0.9411764705882354
 40
0.9411764705882354
 40
1.0
 40
1.0
 40
1.0
 40
1.0
 10
0.2587362204724409
 20
2.261799212598425
 30
0.0
 10
0.2587362204724409
 20
2.261799212598425
 30
0.0
 10
0.2648188976377953
 20
2.261799212598425
 30
0.0
 10
0.2648188976377953
 20
2.261799212598425
 30
0.0
 10
0.2648188976377953
 20
2.261799212598425
 30
0.0
 10
0.2648188976377953
 20
2.261799212598425
 30
0.0
 10
0.2648188976377953
 20
2.167551181102362
 30
0.0
 10
0.2648188976377953
 20
2.167551181102362
 30
0.0
 10
0.2648188976377953
 20
2.167551181102362
 30
0.0
 10
0.2648188976377953
 20
2.163106299212599
 30
0.0
 10
0.2651259842519685
 20
2.160244094488189
 30
0.0
 10
0.2656811023622047
 20
2.158964566929134
 30
0.0
 10
0.2656811023622047
 20
2.158964566929134
 30
0.0
 10
0.2662637795275591
 20
2.157688976377953
 30
0.0
 10
0.2671811023622047
 20
2.156744094488189
 30
0.0
 10
0.268484251968504
 20
2.156078740157481
 30
0.0
 10
0.268484251968504
 20
2.156078740157481
 30
0.0
 10
0.2697913385826772
 20
2.155437007874016
 30
0.0
 10
0.2723740157480315
 20
2.155106299212599
 30
0.0
 10
0.276236220472441
 20
2.155106299212599
 30
0.0
 10
0.276236220472441
 20
2.155106299212599
 30
0.0
 10
0.276236220472441
 20
2.155106299212599
 30
0.0
 10
0.2842086614173229
 20
2.155106299212599
 30
0.0
 10
0.2842086614173229
 20
2.155106299212599
 30
0.0
 10
0.2842086614173229
 20
2.155106299212599
 30
0.0
 10
0.2842086614173229
 20
2.155106299212599
 30
0.0
 10
0.2842086614173229
 20
2.148271653543307
 30
0.0
 10
0.2842086614173229
 20
2.148271653543307
 30
0.0
 10
0.2842086614173229
 20
2.148271653543307
 30
0.0
 10
0.2842086614173229
 20
2.148271653543307
 30
0.0
 10
0.2305708661417323
 20
2.148271653543307
 30
0.0
 10
0.2305708661417323
 20
2.148271653543307
 30
0.0
 10
0.2305708661417323
 20
2.148271653543307
 30
0.0
 10
0.2305708661417323
 20
2.148271653543307
 30
0.0
 10
0.2305708661417323
 20
2.155106299212599
 30
0.0
 10
0.2305708661417323
 20
2.155106299212599
 30
0.0
 10
0.2305708661417323
 20
2.155106299212599
 30
0.0
 10
0.2305708661417323
 20
2.155106299212599
 30
0.0
 10
0.2394291338582677
 20
2.155106299212599
 30
0.0
 10
0.2394291338582677
 20
2.155106299212599
 30
0.0
 10
0.2394291338582677
 20
2.155106299212599
 30
0.0
 10
0.2432913385826772
 20
2.155106299212599
 30
0.0
 10
0.2458464566929134
 20
2.155437007874016
 30
0.0
 10
0.2471259842519685
 20
2.156133858267717
 30
0.0
 10
0.2471259842519685
 20
2.156133858267717
 30
0.0
 10
0.2484015748031496
 20
2.156799212598425
 30
0.0
 10
0.2494015748031496
 20
2.15788188976378
 30
0.0
 10
0.2500984251968504
 20
2.15938188976378
 30
0.0
 10
0.2500984251968504
 20
2.15938188976378
 30
0.0
 10
0.2507913385826772
 20
2.16088188976378
 30
0.0
 10
0.2511535433070866
 20
2.163606299212598
 30
0.0
 10
0.2511535433070866
 20
2.167551181102362
 30
0.0
 10
0.2511535433070866
 20
2.167551181102362
 30
0.0
 10
0.2511535433070866
 20
2.167551181102362
 30
0.0
 10
0.2511535433070866
 20
2.24501968503937
 30
0.0
 10
0.2511535433070866
 20
2.24501968503937
 30
0.0
 10
0.2511535433070866
 20
2.24501968503937
 30
0.0
 10
0.2511535433070866
 20
2.24501968503937
 30
0.0
 10
0.2305708661417323
 20
2.24501968503937
 30
0.0
 10
0.2305708661417323
 20
2.24501968503937
 30
0.0
 10
0.2305708661417323
 20
2.24501968503937
 30
0.0
 10
0.2305708661417323
 20
2.24501968503937
 30
0.0
 10
0.2305708661417323
 20
2.25201968503937
 30
0.0
 10
0.2305708661417323
 20
2.25201968503937
 30
0.0
 10
0.2305708661417323
 20
2.25201968503937
 30
0.0
 10
0.2417913385826772
 20
2.253602362204724
 30
0.0
 10
0.2511811023622048
 20
2.256854330708662
 30
0.0
 10
0.2587362204724409
 20
2.261799212598425
 30
0.0
  0
SPLINE
  5
5F
330
1F
100
AcDbEntity
  8
LAYER_1
 62
   250
100
AcDbSpline
210
0.0
220
0.0
230
1.0
 70
    11
 71
     3
 72
    80
 73
    76
 74
     0
 42
0.0000000001
 43
0.0000000001
 40
0.0
 40
0.0
 40
0.0
 40
0.0
 40
0.0526315789473684
 40
0.0526315789473684
 40
0.0526315789473684
 40
0.0526315789473684
 40
0.1052631578947368
 40
0.1052631578947368
 40
0.1052631578947368
 40
0.1052631578947368
 40
0.1578947368421053
 40
0.1578947368421053
 40
0.1578947368421053
 40
0.1578947368421053
 40
0.2105263157894737
 40
0.2105263157894737
 40
0.2105263157894737
 40
0.2105263157894737
 40
0.2631578947368421
 40
0.2631578947368421
 40
0.2631578947368421
 40
0.2631578947368421
 40
0.3157894736842105
 40
0.3157894736842105
 40
0.3157894736842105
 40
0.3157894736842105
 40
0.3684210526315789
 40
0.3684210526315789
 40
0.3684210526315789
 40
0.3684210526315789
 40
0.4210526315789474
 40
0.4210526315789474
 40
0.4210526315789474
 40
0.4210526315789474
 40
0.4736842105263158
 40
0.4736842105263158
 40
0.4736842105263158
 40
0.4736842105263158
 40
0.5263157894736842
 40
0.5263157894736842
 40
0.5263157894736842
 40
0.5263157894736842
 40
0.5789473684210527
 40
0.5789473684210527
 40
0.5789473684210527
 40
0.5789473684210527
 40
0.631578947368421
 40
0.631578947368421
 40
0.631578947368421
 40
0.631578947368421
 40
0.6842105263157894
 40
0.6842105263157894
 40
0.6842105263157894
 40
0.6842105263157894
 40
0.7368421052631577
 40
0.7368421052631577
 40
0.7368421052631577
 40
0.7368421052631577
 40
0.7894736842105261
 40
0.7894736842105261
 40
0.7894736842105261
 40
0.7894736842105261
 40
0.8421052631578945
 40
0.8421052631578945
 40
0.8421052631578945
 40
0.8421052631578945
 40
0.8947368421052628
 40
0.8947368421052628
 40
0.8947368421052628
 40
0.8947368421052628
 40
0.9473684210526312
 40
0.9473684210526312
 40
0.9473684210526312
 40
0.9473684210526312
 40
1.0
 40
1.0
 40
1.0
 40
1.0
 10
0.3241535433070866
 20
2.265937007874016
 30
0.0
 10
0.3241535433070866
 20
2.265937007874016
 30
0.0
 10
0.3295433070866142
 20
2.265937007874016
 30
0.0
 10
0.3295433070866142
 20
2.265937007874016
 30
0.0
 10
0.3295433070866142
 20
2.265937007874016
 30
0.0
 10
0.3295433070866142
 20
2.265937007874016
 30
0.0
 10
0.3305157480314961
 20
2.261799212598425
 30
0.0
 10
0.3305157480314961
 20
2.261799212598425
 30
0.0
 10
0.3305157480314961
 20
2.261799212598425
 30
0.0
 10
0.3305157480314961
 20
2.261799212598425
 30
0.0
 10
0.4016259842519685
 20
2.261799212598425
 30
0.0
 10
0.4016259842519685
 20
2.261799212598425
 30
0.0
 10
0.4016259842519685
 20
2.261799212598425
 30
0.0
 10
0.4016259842519685
 20
2.261799212598425
 30
0.0
 10
0.4016259842519685
 20
2.25488188976378
 30
0.0
 10
0.4016259842519685
 20
2.25488188976378
 30
0.0
 10
0.4016259842519685
 20
2.25488188976378
 30
0.0
 10
0.3931259842519685
 20
2.245047244094488
 30
0.0
 10
0.3854015748031496
 20
2.23388188976378
 30
0.0
 10
0.378488188976378
 20
2.221299212598425
 30
0.0
 10
0.378488188976378
 20
2.221299212598425
 30
0.0
 10
0.3715708661417323
 20
2.208744094488189
 30
0.0
 10
0.3662086614173228
 20
2.195964566929134
 30
0.0
 10
0.3624015748031496
 20
2.182937007874016
 30
0.0
 10
0.3624015748031496
 20
2.182937007874016
 30
0.0
 10
0.3596535433070867
 20
2.173551181102362
 30
0.0
 10
0.3574055118110237
 20
2.161992125984252
 30
0.0
 10
0.3556535433070867
 20
2.148271653543307
 30
0.0
 10
0.3556535433070867
 20
2.148271653543307
 30
0.0
 10
0.3556535433070867
 20
2.148271653543307
 30
0.0
 10
0.338988188976378
 20
2.148271653543307
 30
0.0
 10
0.338988188976378
 20
2.148271653543307
 30
0.0
 10
0.338988188976378
 20
2.148271653543307
 30
0.0
 10
0.3405984251968504
 20
2.16038188976378
 30
0.0
 10
0.343263779527559
 20
2.171688976377953
 30
0.0
 10
0.346988188976378
 20
2.182216535433071
 30
0.0
 10
0.346988188976378
 20
2.182216535433071
 30
0.0
 10
0.3507086614173229
 20
2.192744094488189
 30
0.0
 10
0.3560708661417323
 20
2.203744094488189
 30
0.0
 10
0.3630984251968504
 20
2.215216535433071
 30
0.0
 10
0.3630984251968504
 20
2.215216535433071
 30
0.0
 10
0.3701259842519685
 20
2.226688976377953
 30
0.0
 10
0.3786535433070866
 20
2.238133858267717
 30
0.0
 10
0.3887086614173229
 20
2.249574803149606
 30
0.0
 10
0.3887086614173229
 20
2.249574803149606
 30
0.0
 10
0.3887086614173229
 20
2.249574803149606
 30
0.0
 10
0.337988188976378
 20
2.249574803149606
 30
0.0
 10
0.337988188976378
 20
2.249574803149606
 30
0.0
 10
0.337988188976378
 20
2.249574803149606
 30
0.0
 10
0.3343188976377953
 20
2.249574803149606
 30
0.0
 10
0.3317913385826772
 20
2.249409448818898
 30
0.0
 10
0.3304330708661418
 20
2.24901968503937
 30
0.0
 10
0.3304330708661418
 20
2.24901968503937
 30
0.0
 10
0.3290708661417323
 20
2.248633858267717
 30
0.0
 10
0.3280157480314961
 20
2.248047244094488
 30
0.0
 10
0.3272637795275591
 20
2.247244094488189
 30
0.0
 10
0.3272637795275591
 20
2.247244094488189
 30
0.0
 10
0.326488188976378
 20
2.246409448818898
 30
0.0
 10
0.3258464566929134
 20
2.244964566929134
 30
0.0
 10
0.3252913385826772
 20
2.242909448818898
 30
0.0
 10
0.3252913385826772
 20
2.242909448818898
 30
0.0
 10
0.3252913385826772
 20
2.242909448818898
 30
0.0
 10
0.3249055118110236
 20
2.24138188976378
 30
0.0
 10
0.3249055118110236
 20
2.24138188976378
 30
0.0
 10
0.3249055118110236
 20
2.24138188976378
 30
0.0
 10
0.3249055118110236
 20
2.24138188976378
 30
0.0
 10
0.3221259842519685
 20
2.231771653543307
 30
0.0
 10
0.3221259842519685
 20
2.231771653543307
 30
0.0
 10
0.3221259842519685
 20
2.231771653543307
 30
0.0
 10
0.3221259842519685
 20
2.231771653543307
 30
0.0
 10
0.3152086614173228
 20
2.233244094488189
 30
0.0
 10
0.3152086614173228
 20
2.233244094488189
 30
0.0
 10
0.3152086614173228
 20
2.233244094488189
 30
0.0
 10
0.3152086614173228
 20
2.233244094488189
 30
0.0
 10
0.3241535433070866
 20
2.265937007874016
 30
0.0
 10
0.3241535433070866
 20
2.265937007874016
 30
0.0
  0
SPLINE
  5
60
330
1F
100
AcDbEntity
  8
LAYER_1
 62
   250
100
AcDbSpline
210
0.0
220
0.0
230
1.0
 70
    11
 71
     3
 72
   136
 73
   132
 74
     0
 42
0.0000000001
 43
0.0000000001
 40
0.0
 40
0.0
 40
0.0
 40
0.0
 40
0.0303030303030303
 40
0.0303030303030303
 40
0.0303030303030303
 40
0.0303030303030303
 40
0.0606060606060606
 40
0.0606060606060606
 40
0.0606060606060606
 40
0.0606060606060606
 40
0.0909090909090909
 40
0.0909090909090909
 40
0.0909090909090909
 40
0.0909090909090909
 40
0.1212121212121212
 40
0.1212121212121212
 40
0.1212121212121212
 40
0.1212121212121212
 40
0.1515151515151515
 40
0.1515151515151515
 40
0.1515151515151515
 40
0.1515151515151515
 40
0.1818181818181818
 40
0.1818181818181818
 40
0.1818181818181818
 40
0.1818181818181818
 40
0.2121212121212121
 40
0.2121212121212121
 40
0.2121212121212121
 40
0.2121212121212121
 40
0.2424242424242424
 40
0.2424242424242424
 40
0.2424242424242424
 40
0.2424242424242424
 40
0.2727272727272727
 40
0.2727272727272727
 40
0.2727272727272727
 40
0.2727272727272727
 40
0.303030303030303
 40
0.303030303030303
 40
0.303030303030303
 40
0.303030303030303
 40
0.3333333333333333
 40
0.3333333333333333
 40
0.3333333333333333
 40
0.3333333333333333
 40
0.3636363636363635
 40
0.3636363636363635
 40
0.3636363636363635
 40
0.3636363636363635
 40
0.3939393939393938
 40
0.3939393939393938
 40
0.3939393939393938
 40
0.3939393939393938
 40
0.4242424242424241
 40
0.4242424242424241
 40
0.4242424242424241
 40
0.4242424242424241
 40
0.4545454545454544
 40
0.4545454545454544
 40
0.4545454545454544
 40
0.4545454545454544
 40
0.4848484848484846
 40
0.4848484848484846
 40
0.4848484848484846
 40
0.4848484848484846
 40
0.5151515151515149
 40
0.5151515151515149
 40
0.5151515151515149
 40
0.5151515151515149
 40
0.5454545454545452
 40
0.5454545454545452
 40
0.5454545454545452
 40
0.5454545454545452
 40
0.5757575757575755
 40
0.5757575757575755
 40
0.5757575757575755
 40
0.5757575757575755
 40
0.6060606060606057
 40
0.6060606060606057
 40
0.6060606060606057
 40
0.6060606060606057
 40
0.636363636363636
 40
0.636363636363636
 40
0.636363636363636
 40
0.636363636363636
 40
0.6666666666666663
 40
0.6666666666666663
 40
0.6666666666666663
 40
0.6666666666666663
 40
0.6969696969696966
 40
0.6969696969696966
 40
0.6969696969696966
 40
0.6969696969696966
 40
0.7272727272727269
 40
0.7272727272727269
 40
0.7272727272727269
 40
0.7272727272727269
 40
0.7575757575757571
 40
0.7575757575757571
 40
0.7575757575757571
 40
0.7575757575757571
 40
0.7878787878787874
 40
0.7878787878787874
 40
0.7878787878787874
 40
0.7878787878787874
 40
0.8181818181818177
 40
0.8181818181818177
 40
0.8181818181818177
 40
0.8181818181818177
 40
0.848484848484848
 40
0.848484848484848
 40
0.848484848484848
 40
0.848484848484848
 40
0.8787878787878782
 40
0.8787878787878782
 40
0.8787878787878782
 40
0.8787878787878782
 40
0.9090909090909085
 40
0.9090909090909085
 40
0.9090909090909085
 40
0.9090909090909085
 40
0.9393939393939388
 40
0.9393939393939388
 40
0.9393939393939388
 40
0.9393939393939388
 40
0.9696969696969691
 40
0.9696969696969691
 40
0.9696969696969691
 40
0.9696969696969691
 40
1.0
 40
1.0
 40
1.0
 40
1.0
 10
0.4283503937007874
 20
2.218992125984252
 30
0.0
 10
0.4283503937007874
 20
2.218992125984252
 30
0.0
 10
0.4204606299212599
 20
2.21801968503937
 30
0.0
 10
0.4204606299212599
 20
2.21801968503937
 30
0.0
 10
0.4204606299212599
 20
2.21801968503937
 30
0.0
 10
0.4200157480314961
 20
2.221854330708661
 30
0.0
 10
0.4197952755905512
 20
2.22501968503937
 30
0.0
 10
0.4197952755905512
 20
2.227464566929134
 30
0.0
 10
0.4197952755905512
 20
2.227464566929134
 30
0.0
 10
0.4197952755905512
 20
2.233854330708661
 30
0.0
 10
0.4215433070866142
 20
2.239909448818898
 30
0.0
 10
0.4250157480314961
 20
2.245602362204724
 30
0.0
 10
0.4250157480314961
 20
2.245602362204724
 30
0.0
 10
0.428488188976378
 20
2.251299212598426
 30
0.0
 10
0.4333228346456693
 20
2.255744094488189
 30
0.0
 10
0.4395433070866142
 20
2.258937007874016
 30
0.0
 10
0.4395433070866142
 20
2.258937007874016
 30
0.0
 10
0.4457362204724409
 20
2.262161417322835
 30
0.0
 10
0.4528779527559055
 20
2.263744094488189
 30
0.0
 10
0.4609055118110236
 20
2.263744094488189
 30
0.0
 10
0.4609055118110236
 20
2.263744094488189
 30
0.0
 10
0.4686535433070866
 20
2.263744094488189
 30
0.0
 10
0.4754606299212599
 20
2.262244094488189
 30
0.0
 10
0.4813228346456693
 20
2.259244094488189
 30
0.0
 10
0.4813228346456693
 20
2.259244094488189
 30
0.0
 10
0.4871811023622047
 20
2.256216535433071
 30
0.0
 10
0.4916535433070867
 20
2.252102362204725
 30
0.0
 10
0.4947913385826772
 20
2.246854330708662
 30
0.0
 10
0.4947913385826772
 20
2.246854330708662
 30
0.0
 10
0.4979055118110237
 20
2.241633858267717
 30
0.0
 10
0.4994606299212598
 20
2.235661417322835
 30
0.0
 10
0.4994606299212598
 20
2.228909448818898
 30
0.0
 10
0.4994606299212598
 20
2.228909448818898
 30
0.0
 10
0.4994606299212598
 20
2.223216535433071
 30
0.0
 10
0.4984606299212598
 20
2.217937007874016
 30
0.0
 10
0.4964055118110237
 20
2.213106299212599
 30
0.0
 10
0.4964055118110237
 20
2.213106299212599
 30
0.0
 10
0.4943779527559055
 20
2.208244094488189
 30
0.0
 10
0.4910984251968504
 20
2.203326771653543
 30
0.0
 10
0.4865984251968504
 20
2.198409448818898
 30
0.0
 10
0.4865984251968504
 20
2.198409448818898
 30
0.0
 10
0.483236220472441
 20
2.194716535433071
 30
0.0
 10
0.4764330708661417
 20
2.189078740157481
 30
0.0
 10
0.4661811023622047
 20
2.181464566929134
 30
0.0
 10
0.4661811023622047
 20
2.181464566929134
 30
0.0
 10
0.4532677165354331
 20
2.171826771653544
 30
0.0
 10
0.4433779527559055
 20
2.164826771653543
 30
0.0
 10
0.436488188976378
 20
2.160464566929134
 30
0.0
 10
0.436488188976378
 20
2.160464566929134
 30
0.0
 10
0.436488188976378
 20
2.160464566929134
 30
0.0
 10
0.4787952755905512
 20
2.160464566929134
 30
0.0
 10
0.4787952755905512
 20
2.160464566929134
 30
0.0
 10
0.4787952755905512
 20
2.160464566929134
 30
0.0
 10
0.4837952755905512
 20
2.160464566929134
 30
0.0
 10
0.4870433070866142
 20
2.160937007874016
 30
0.0
 10
0.4885708661417323
 20
2.161854330708661
 30
0.0
 10
0.4885708661417323
 20
2.161854330708661
 30
0.0
 10
0.4906811023622048
 20
2.163051181102362
 30
0.0
 10
0.4921259842519685
 20
2.165826771653543
 30
0.0
 10
0.4928779527559055
 20
2.170161417322835
 30
0.0
 10
0.4928779527559055
 20
2.170161417322835
 30
0.0
 10
0.4928779527559055
 20
2.170161417322835
 30
0.0
 10
0.4935984251968504
 20
2.174799212598425
 30
0.0
 10
0.4935984251968504
 20
2.174799212598425
 30
0.0
 10
0.4935984251968504
 20
2.174799212598425
 30
0.0
 10
0.4935984251968504
 20
2.174799212598425
 30
0.0
 10
0.5005157480314961
 20
2.174799212598425
 30
0.0
 10
0.5005157480314961
 20
2.174799212598425
 30
0.0
 10
0.5005157480314961
 20
2.174799212598425
 30
0.0
 10
0.5005157480314961
 20
2.174799212598425
 30
0.0
 10
0.494988188976378
 20
2.144216535433071
 30
0.0
 10
0.494988188976378
 20
2.144216535433071
 30
0.0
 10
0.494988188976378
 20
2.144216535433071
 30
0.0
 10
0.494988188976378
 20
2.144216535433071
 30
0.0
 10
0.4897952755905512
 20
2.144216535433071
 30
0.0
 10
0.4897952755905512
 20
2.144216535433071
 30
0.0
 10
0.4897952755905512
 20
2.144216535433071
 30
0.0
 10
0.4897952755905512
 20
2.144216535433071
 30
0.0
 10
0.4888779527559055
 20
2.148271653543307
 30
0.0
 10
0.4888779527559055
 20
2.148271653543307
 30
0.0
 10
0.4888779527559055
 20
2.148271653543307
 30
0.0
 10
0.4888779527559055
 20
2.148271653543307
 30
0.0
 10
0.4177677165354331
 20
2.148271653543307
 30
0.0
 10
0.4177677165354331
 20
2.148271653543307
 30
0.0
 10
0.4177677165354331
 20
2.148271653543307
 30
0.0
 10
0.4177677165354331
 20
2.148271653543307
 30
0.0
 10
0.4177677165354331
 20
2.155106299212599
 30
0.0
 10
0.4177677165354331
 20
2.155106299212599
 30
0.0
 10
0.4177677165354331
 20
2.155106299212599
 30
0.0
 10
0.4177677165354331
 20
2.155106299212599
 30
0.0
 10
0.4307952755905512
 20
2.164964566929134
 30
0.0
 10
0.4307952755905512
 20
2.164964566929134
 30
0.0
 10
0.4307952755905512
 20
2.164964566929134
 30
0.0
 10
0.4406535433070866
 20
2.172271653543307
 30
0.0
 10
0.4479055118110236
 20
2.17788188976378
 30
0.0
 10
0.4525157480314961
 20
2.181799212598425
 30
0.0
 10
0.4525157480314961
 20
2.181799212598425
 30
0.0
 10
0.461236220472441
 20
2.189188976377953
 30
0.0
 10
0.4678228346456693
 20
2.195492125984252
 30
0.0
 10
0.472236220472441
 20
2.200716535433071
 30
0.0
 10
0.472236220472441
 20
2.200716535433071
 30
0.0
 10
0.4766535433070867
 20
2.205964566929134
 30
0.0
 10
0.4797086614173229
 20
2.210688976377953
 30
0.0
 10
0.4813503937007874
 20
2.21488188976378
 30
0.0
 10
0.4813503937007874
 20
2.21488188976378
 30
0.0
 10
0.4830157480314961
 20
2.219074803149606
 30
0.0
 10
0.4838503937007874
 20
2.223492125984252
 30
0.0
 10
0.4838503937007874
 20
2.228106299212599
 30
0.0
 10
0.4838503937007874
 20
2.228106299212599
 30
0.0
 10
0.4838503937007874
 20
2.235744094488189
 30
0.0
 10
0.4813779527559055
 20
2.24201968503937
 30
0.0
 10
0.476488188976378
 20
2.246909448818898
 30
0.0
 10
0.476488188976378
 20
2.246909448818898
 30
0.0
 10
0.4715708661417323
 20
2.251799212598425
 30
0.0
 10
0.4651811023622047
 20
2.254216535433071
 30
0.0
 10
0.4573228346456693
 20
2.254216535433071
 30
0.0
 10
0.4573228346456693
 20
2.254216535433071
 30
0.0
 10
0.4516811023622048
 20
2.254216535433071
 30
0.0
 10
0.4466259842519685
 20
2.25301968503937
 30
0.0
 10
0.4422086614173229
 20
2.250574803149606
 30
0.0
 10
0.4422086614173229
 20
2.250574803149606
 30
0.0
 10
0.4377952755905512
 20
2.248133858267717
 30
0.0
 10
0.4343228346456693
 20
2.244716535433071
 30
0.0
 10
0.4317677165354331
 20
2.240299212598425
 30
0.0
 10
0.4317677165354331
 20
2.240299212598425
 30
0.0
 10
0.4292086614173228
 20
2.235909448818898
 30
0.0
 10
0.4279330708661417
 20
2.231161417322835
 30
0.0
 10
0.4279330708661417
 20
2.226074803149607
 30
0.0
 10
0.4279330708661417
 20
2.226074803149607
 30
0.0
 10
0.4279330708661417
 20
2.224161417322835
 30
0.0
 10
0.4280708661417323
 20
2.221799212598425
 30
0.0
 10
0.4283503937007874
 20
2.218992125984252
 30
0.0
  0
SPLINE
  5
61
330
1F
100
AcDbEntity
  8
LAYER_1
 62
   250
100
AcDbSpline
210
0.0
220
0.0
230
1.0
 70
    11
 71
     3
 72
    84
 73
    80
 74
     0
 42
0.0000000001
 43
0.0000000001
 40
0.0
 40
0.0
 40
0.0
 40
0.0
 40
0.05
 40
0.05
 40
0.05
 40
0.05
 40
0.1
 40
0.1
 40
0.1
 40
0.1
 40
0.15
 40
0.15
 40
0.15
 40
0.15
 40
0.2
 40
0.2
 40
0.2
 40
0.2
 40
0.25
 40
0.25
 40
0.25
 40
0.25
 40
0.3
 40
0.3
 40
0.3
 40
0.3
 40
0.35
 40
0.35
 40
0.35
 40
0.35
 40
0.4
 40
0.4
 40
0.4
 40
0.4
 40
0.45
 40
0.45
 40
0.45
 40
0.45
 40
0.4999999999999999
 40
0.4999999999999999
 40
0.4999999999999999
 40
0.4999999999999999
 40
0.5499999999999999
 40
0.5499999999999999
 40
0.5499999999999999
 40
0.5499999999999999
 40
0.6
 40
0.6
 40
0.6
 40
0.6
 40
0.65
 40
0.65
 40
0.65
 40
0.65
 40
0.7000000000000001
 40
0.7000000000000001
 40
0.7000000000000001
 40
0.7000000000000001
 40
0.7500000000000001
 40
0.7500000000000001
 40
0.7500000000000001
 40
0.7500000000000001
 40
0.8000000000000002
 40
0.8000000000000002
 40
0.8000000000000002
 40
0.8000000000000002
 40
0.8500000000000002
 40
0.8500000000000002
 40
0.8500000000000002
 40
0.8500000000000002
 40
0.9000000000000002
 40
0.9000000000000002
 40
0.9000000000000002
 40
0.9000000000000002
 40
0.9500000000000003
 40
0.9500000000000003
 40
0.9500000000000003
 40
0.9500000000000003
 40
1.0
 40
1.0
 40
1.0
 40
1.0
 10
0.5319330708661417
 20
2.146326771653544
 30
0.0
 10
0.5319330708661417
 20
2.146326771653544
 30
0.0
 10
0.5319330708661417
 20
2.15388188976378
 30
0.0
 10
0.5319330708661417
 20
2.15388188976378
 30
0.0
 10
0.5319330708661417
 20
2.15388188976378
 30
0.0
 10
0.5454055118110236
 20
2.154051181102362
 30
0.0
 10
0.5562677165354331
 20
2.155992125984252
 30
0.0
 10
0.5645433070866142
 20
2.159716535433071
 30
0.0
 10
0.5645433070866142
 20
2.159716535433071
 30
0.0
 10
0.5728228346456693
 20
2.163409448818898
 30
0.0
 10
0.5788779527559055
 20
2.16901968503937
 30
0.0
 10
0.5827677165354331
 20
2.17651968503937
 30
0.0
 10
0.5827677165354331
 20
2.17651968503937
 30
0.0
 10
0.5866574803149607
 20
2.183992125984252
 30
0.0
 10
0.5888228346456693
 20
2.193161417322835
 30
0.0
 10
0.5893228346456694
 20
2.20401968503937
 30
0.0
 10
0.5893228346456694
 20
2.20401968503937
 30
0.0
 10
0.5865433070866142
 20
2.199799212598425
 30
0.0
 10
0.5837125984251969
 20
2.196492125984252
 30
0.0
 10
0.5808228346456693
 20
2.194161417322835
 30
0.0
 10
0.5808228346456693
 20
2.194161417322835
 30
0.0
 10
0.5779055118110237
 20
2.191826771653544
 30
0.0
 10
0.5745157480314961
 20
2.19001968503937
 30
0.0
 10
0.5706574803149607
 20
2.188716535433071
 30
0.0
 10
0.5706574803149607
 20
2.188716535433071
 30
0.0
 10
0.5667677165354331
 20
2.187409448818898
 30
0.0
 10
0.5625433070866142
 20
2.186771653543307
 30
0.0
 10
0.5579881889763779
 20
2.186771653543307
 30
0.0
 10
0.5579881889763779
 20
2.186771653543307
 30
0.0
 10
0.5505984251968504
 20
2.186771653543307
 30
0.0
 10
0.5440433070866142
 20
2.18838188976378
 30
0.0
 10
0.538267716535433
 20
2.191661417322835
 30
0.0
 10
0.538267716535433
 20
2.191661417322835
 30
0.0
 10
0.532488188976378
 20
2.194909448818898
 30
0.0
 10
0.527988188976378
 20
2.199299212598425
 30
0.0
 10
0.5247952755905512
 20
2.204826771653544
 30
0.0
 10
0.5247952755905512
 20
2.204826771653544
 30
0.0
 10
0.5215708661417323
 20
2.210354330708662
 30
0.0
 10
0.519988188976378
 20
2.216881889763779
 30
0.0
 10
0.519988188976378
 20
2.224354330708661
 30
0.0
 10
0.519988188976378
 20
2.224354330708661
 30
0.0
 10
0.519988188976378
 20
2.236299212598425
 30
0.0
 10
0.5236023622047245
 20
2.245688976377953
 30
0.0
 10
0.5307952755905512
 20
2.25251968503937
 30
0.0
 10
0.5307952755905512
 20
2.25251968503937
 30
0.0
 10
0.5387952755905512
 20
2.259992125984252
 30
0.0
 10
0.5491574803149607
 20
2.263744094488189
 30
0.0
 10
0.5619055118110237
 20
2.263744094488189
 30
0.0
 10
0.5619055118110237
 20
2.263744094488189
 30
0.0
 10
0.5710708661417323
 20
2.263744094488189
 30
0.0
 10
0.5787952755905512
 20
2.261854330708661
 30
0.0
 10
0.5850984251968504
 20
2.258047244094488
 30
0.0
 10
0.5850984251968504
 20
2.258047244094488
 30
0.0
 10
0.5913779527559055
 20
2.254244094488189
 30
0.0
 10
0.5963779527559056
 20
2.248437007874016
 30
0.0
 10
0.6000708661417323
 20
2.240633858267717
 30
0.0
 10
0.6000708661417323
 20
2.240633858267717
 30
0.0
 10
0.603740157480315
 20
2.232826771653544
 30
0.0
 10
0.6055984251968504
 20
2.223216535433071
 30
0.0
 10
0.6055984251968504
 20
2.211826771653544
 30
0.0
 10
0.6055984251968504
 20
2.211826771653544
 30
0.0
 10
0.6055984251968504
 20
2.200437007874016
 30
0.0
 10
0.6036850393700788
 20
2.190271653543307
 30
0.0
 10
0.5998228346456693
 20
2.181299212598425
 30
0.0
 10
0.5998228346456693
 20
2.181299212598425
 30
0.0
 10
0.5959606299212599
 20
2.172354330708662
 30
0.0
 10
0.5905708661417323
 20
2.165188976377953
 30
0.0
 10
0.5836574803149607
 20
2.159799212598425
 30
0.0
 10
0.5836574803149607
 20
2.159799212598425
 30
0.0
 10
0.5767401574803149
 20
2.154381889763779
 30
0.0
 10
0.5691259842519685
 20
2.150799212598425
 30
0.0
 10
0.5608503937007874
 20
2.148992125984252
 30
0.0
 10
0.5608503937007874
 20
2.148992125984252
 30
0.0
 10
0.5525433070866141
 20
2.147216535433071
 30
0.0
 10
0.5450157480314961
 20
2.146326771653544
 30
0.0
 10
0.5382952755905512
 20
2.146326771653544
 30
0.0
 10
0.5382952755905512
 20
2.146326771653544
 30
0.0
 10
0.5382952755905512
 20
2.146326771653544
 30
0.0
 10
0.5319330708661417
 20
2.146326771653544
 30
0.0
 10
0.5319330708661417
 20
2.146326771653544
 30
0.0
  0
SPLINE
  5
62
330
1F
100
AcDbEntity
  8
LAYER_1
 62
   250
100
AcDbSpline
210
0.0
220
0.0
230
1.0
 70
    11
 71
     3
 72
    40
 73
    36
 74
     0
 42
0.0000000001
 43
0.0000000001
 40
0.0
 40
0.0
 40
0.0
 40
0.0
 40
0.1111111111111111
 40
0.1111111111111111
 40
0.1111111111111111
 40
0.1111111111111111
 40
0.2222222222222222
 40
0.2222222222222222
 40
0.2222222222222222
 40
0.2222222222222222
 40
0.3333333333333333
 40
0.3333333333333333
 40
0.3333333333333333
 40
0.3333333333333333
 40
0.4444444444444444
 40
0.4444444444444444
 40
0.4444444444444444
 40
0.4444444444444444
 40
0.5555555555555556
 40
0.5555555555555556
 40
0.5555555555555556
 40
0.5555555555555556
 40
0.6666666666666667
 40
0.6666666666666667
 40
0.6666666666666667
 40
0.6666666666666667
 40
0.7777777777777779
 40
0.7777777777777779
 40
0.7777777777777779
 40
0.7777777777777779
 40
0.8888888888888891
 40
0.8888888888888891
 40
0.8888888888888891
 40
0.8888888888888891
 40
1.0
 40
1.0
 40
1.0
 40
1.0
 10
0.561740157480315
 20
2.195464566929134
 30
0.0
 10
0.569488188976378
 20
2.195464566929134
 30
0.0
 10
0.5758779527559056
 20
2.198409448818898
 30
0.0
 10
0.5809055118110237
 20
2.204299212598425
 30
0.0
 10
0.5809055118110237
 20
2.204299212598425
 30
0.0
 10
0.5859055118110237
 20
2.210188976377953
 30
0.0
 10
0.5884330708661417
 20
2.217271653543307
 30
0.0
 10
0.5884330708661417
 20
2.225574803149606
 30
0.0
 10
0.5884330708661417
 20
2.225574803149606
 30
0.0
 10
0.5884330708661417
 20
2.231437007874016
 30
0.0
 10
0.5872125984251969
 20
2.236854330708662
 30
0.0
 10
0.5847677165354331
 20
2.241826771653543
 30
0.0
 10
0.5847677165354331
 20
2.241826771653543
 30
0.0
 10
0.5823228346456694
 20
2.246771653543307
 30
0.0
 10
0.5791850393700788
 20
2.250464566929134
 30
0.0
 10
0.5753503937007874
 20
2.25288188976378
 30
0.0
 10
0.5753503937007874
 20
2.25288188976378
 30
0.0
 10
0.5715433070866142
 20
2.255299212598426
 30
0.0
 10
0.5671850393700788
 20
2.256492125984252
 30
0.0
 10
0.5622952755905512
 20
2.256492125984252
 30
0.0
 10
0.5622952755905512
 20
2.256492125984252
 30
0.0
 10
0.5548779527559056
 20
2.256492125984252
 30
0.0
 10
0.5486574803149606
 20
2.253661417322835
 30
0.0
 10
0.5436574803149606
 20
2.247992125984252
 30
0.0
 10
0.5436574803149606
 20
2.247992125984252
 30
0.0
 10
0.5386850393700787
 20
2.242326771653544
 30
0.0
 10
0.5361850393700788
 20
2.234716535433071
 30
0.0
 10
0.5361850393700788
 20
2.225188976377953
 30
0.0
 10
0.5361850393700788
 20
2.225188976377953
 30
0.0
 10
0.5361850393700788
 20
2.216047244094488
 30
0.0
 10
0.5386023622047245
 20
2.208826771653544
 30
0.0
 10
0.5434606299212599
 20
2.203492125984252
 30
0.0
 10
0.5434606299212599
 20
2.203492125984252
 30
0.0
 10
0.5483228346456693
 20
2.198133858267717
 30
0.0
 10
0.5544055118110236
 20
2.195464566929134
 30
0.0
 10
0.561740157480315
 20
2.195464566929134
 30
0.0
  0
SPLINE
  5
63
330
1F
100
AcDbEntity
  8
LAYER_1
 62
   250
100
AcDbSpline
210
0.0
220
0.0
230
1.0
 70
    11
 71
     3
 72
    72
 73
    68
 74
     0
 42
0.0000000001
 43
0.0000000001
 40
0.0
 40
0.0
 40
0.0
 40
0.0
 40
0.0588235294117647
 40
0.0588235294117647
 40
0.0588235294117647
 40
0.0588235294117647
 40
0.1176470588235294
 40
0.1176470588235294
 40
0.1176470588235294
 40
0.1176470588235294
 40
0.1764705882352941
 40
0.1764705882352941
 40
0.1764705882352941
 40
0.1764705882352941
 40
0.2352941176470588
 40
0.2352941176470588
 40
0.2352941176470588
 40
0.2352941176470588
 40
0.2941176470588235
 40
0.2941176470588235
 40
0.2941176470588235
 40
0.2941176470588235
 40
0.3529411764705883
 40
0.3529411764705883
 40
0.3529411764705883
 40
0.3529411764705883
 40
0.411764705882353
 40
0.411764705882353
 40
0.411764705882353
 40
0.411764705882353
 40
0.4705882352941177
 40
0.4705882352941177
 40
0.4705882352941177
 40
0.4705882352941177
 40
0.5294117647058824
 40
0.5294117647058824
 40
0.5294117647058824
 40
0.5294117647058824
 40
0.5882352941176471
 40
0.5882352941176471
 40
0.5882352941176471
 40
0.5882352941176471
 40
0.6470588235294118
 40
0.6470588235294118
 40
0.6470588235294118
 40
0.6470588235294118
 40
0.7058823529411765
 40
0.7058823529411765
 40
0.7058823529411765
 40
0.7058823529411765
 40
0.7647058823529412
 40
0.7647058823529412
 40
0.7647058823529412
 40
0.7647058823529412
 40
0.823529411764706
 40
0.823529411764706
 40
0.823529411764706
 40
0.823529411764706
 40
0.8823529411764707
 40
0.8823529411764707
 40
0.8823529411764707
 40
0.8823529411764707
 40
0.9411764705882354
 40
0.9411764705882354
 40
0.9411764705882354
 40
0.9411764705882354
 40
1.0
 40
1.0
 40
1.0
 40
1.0
 10
-0.386248031496063
 20
2.074299212598425
 30
0.0
 10
-0.386248031496063
 20
2.074299212598425
 30
0.0
 10
-0.3801653543307087
 20
2.074299212598425
 30
0.0
 10
-0.3801653543307087
 20
2.074299212598425
 30
0.0
 10
-0.3801653543307087
 20
2.074299212598425
 30
0.0
 10
-0.3801653543307087
 20
2.074299212598425
 30
0.0
 10
-0.3801653543307087
 20
1.980051181102362
 30
0.0
 10
-0.3801653543307087
 20
1.980051181102362
 30
0.0
 10
-0.3801653543307087
 20
1.980051181102362
 30
0.0
 10
-0.3801653543307087
 20
1.975606299212598
 30
0.0
 10
-0.3798582677165355
 20
1.972744094488189
 30
0.0
 10
-0.3793031496062992
 20
1.971464566929134
 30
0.0
 10
-0.3793031496062992
 20
1.971464566929134
 30
0.0
 10
-0.3787204724409449
 20
1.970188976377953
 30
0.0
 10
-0.3778031496062992
 20
1.969244094488189
 30
0.0
 10
-0.3765
 20
1.96857874015748
 30
0.0
 10
-0.3765
 20
1.96857874015748
 30
0.0
 10
-0.3751929133858268
 20
1.967937007874016
 30
0.0
 10
-0.3726102362204725
 20
1.967606299212598
 30
0.0
 10
-0.368748031496063
 20
1.967606299212598
 30
0.0
 10
-0.368748031496063
 20
1.967606299212598
 30
0.0
 10
-0.368748031496063
 20
1.967606299212598
 30
0.0
 10
-0.3607755905511811
 20
1.967606299212598
 30
0.0
 10
-0.3607755905511811
 20
1.967606299212598
 30
0.0
 10
-0.3607755905511811
 20
1.967606299212598
 30
0.0
 10
-0.3607755905511811
 20
1.967606299212598
 30
0.0
 10
-0.3607755905511811
 20
1.960771653543307
 30
0.0
 10
-0.3607755905511811
 20
1.960771653543307
 30
0.0
 10
-0.3607755905511811
 20
1.960771653543307
 30
0.0
 10
-0.3607755905511811
 20
1.960771653543307
 30
0.0
 10
-0.4144133858267717
 20
1.960771653543307
 30
0.0
 10
-0.4144133858267717
 20
1.960771653543307
 30
0.0
 10
-0.4144133858267717
 20
1.960771653543307
 30
0.0
 10
-0.4144133858267717
 20
1.960771653543307
 30
0.0
 10
-0.4144133858267717
 20
1.967606299212598
 30
0.0
 10
-0.4144133858267717
 20
1.967606299212598
 30
0.0
 10
-0.4144133858267717
 20
1.967606299212598
 30
0.0
 10
-0.4144133858267717
 20
1.967606299212598
 30
0.0
 10
-0.4055551181102363
 20
1.967606299212598
 30
0.0
 10
-0.4055551181102363
 20
1.967606299212598
 30
0.0
 10
-0.4055551181102363
 20
1.967606299212598
 30
0.0
 10
-0.4016929133858268
 20
1.967606299212598
 30
0.0
 10
-0.3991377952755906
 20
1.967937007874016
 30
0.0
 10
-0.3978582677165354
 20
1.968633858267717
 30
0.0
 10
-0.3978582677165354
 20
1.968633858267717
 30
0.0
 10
-0.3965826771653543
 20
1.969299212598425
 30
0.0
 10
-0.3955826771653543
 20
1.97038188976378
 30
0.0
 10
-0.3948858267716536
 20
1.97188188976378
 30
0.0
 10
-0.3948858267716536
 20
1.97188188976378
 30
0.0
 10
-0.3941929133858268
 20
1.97338188976378
 30
0.0
 10
-0.3938307086614173
 20
1.976106299212598
 30
0.0
 10
-0.3938307086614173
 20
1.980051181102362
 30
0.0
 10
-0.3938307086614173
 20
1.980051181102362
 30
0.0
 10
-0.3938307086614173
 20
1.980051181102362
 30
0.0
 10
-0.3938307086614173
 20
2.05751968503937
 30
0.0
 10
-0.3938307086614173
 20
2.05751968503937
 30
0.0
 10
-0.3938307086614173
 20
2.05751968503937
 30
0.0
 10
-0.3938307086614173
 20
2.05751968503937
 30
0.0
 10
-0.4144133858267717
 20
2.05751968503937
 30
0.0
 10
-0.4144133858267717
 20
2.05751968503937
 30
0.0
 10
-0.4144133858267717
 20
2.05751968503937
 30
0.0
 10
-0.4144133858267717
 20
2.05751968503937
 30
0.0
 10
-0.4144133858267717
 20
2.06451968503937
 30
0.0
 10
-0.4144133858267717
 20
2.06451968503937
 30
0.0
 10
-0.4144133858267717
 20
2.06451968503937
 30
0.0
 10
-0.4031929133858268
 20
2.066102362204724
 30
0.0
 10
-0.3938031496062993
 20
2.069354330708662
 30
0.0
 10
-0.386248031496063
 20
2.074299212598425
 30
0.0
  0
SPLINE
  5
64
330
1F
100
AcDbEntity
  8
LAYER_1
 62
   250
100
AcDbSpline
210
0.0
220
0.0
230
1.0
 70
    11
 71
     3
 72
    72
 73
    68
 74
     0
 42
0.0000000001
 43
0.0000000001
 40
0.0
 40
0.0
 40
0.0
 40
0.0
 40
0.0588235294117647
 40
0.0588235294117647
 40
0.0588235294117647
 40
0.0588235294117647
 40
0.1176470588235294
 40
0.1176470588235294
 40
0.1176470588235294
 40
0.1176470588235294
 40
0.1764705882352941
 40
0.1764705882352941
 40
0.1764705882352941
 40
0.1764705882352941
 40
0.2352941176470588
 40
0.2352941176470588
 40
0.2352941176470588
 40
0.2352941176470588
 40
0.2941176470588235
 40
0.2941176470588235
 40
0.2941176470588235
 40
0.2941176470588235
 40
0.3529411764705883
 40
0.3529411764705883
 40
0.3529411764705883
 40
0.3529411764705883
 40
0.411764705882353
 40
0.411764705882353
 40
0.411764705882353
 40
0.411764705882353
 40
0.4705882352941177
 40
0.4705882352941177
 40
0.4705882352941177
 40
0.4705882352941177
 40
0.5294117647058824
 40
0.5294117647058824
 40
0.5294117647058824
 40
0.5294117647058824
 40
0.5882352941176471
 40
0.5882352941176471
 40
0.5882352941176471
 40
0.5882352941176471
 40
0.6470588235294118
 40
0.6470588235294118
 40
0.6470588235294118
 40
0.6470588235294118
 40
0.7058823529411765
 40
0.7058823529411765
 40
0.7058823529411765
 40
0.7058823529411765
 40
0.7647058823529412
 40
0.7647058823529412
 40
0.7647058823529412
 40
0.7647058823529412
 40
0.823529411764706
 40
0.823529411764706
 40
0.823529411764706
 40
0.823529411764706
 40
0.8823529411764707
 40
0.8823529411764707
 40
0.8823529411764707
 40
0.8823529411764707
 40
0.9411764705882354
 40
0.9411764705882354
 40
0.9411764705882354
 40
0.9411764705882354
 40
1.0
 40
1.0
 40
1.0
 40
1.0
 10
-0.2828858267716536
 20
2.074299212598425
 30
0.0
 10
-0.2828858267716536
 20
2.074299212598425
 30
0.0
 10
-0.2768031496062992
 20
2.074299212598425
 30
0.0
 10
-0.2768031496062992
 20
2.074299212598425
 30
0.0
 10
-0.2768031496062992
 20
2.074299212598425
 30
0.0
 10
-0.2768031496062992
 20
2.074299212598425
 30
0.0
 10
-0.2768031496062992
 20
1.980051181102362
 30
0.0
 10
-0.2768031496062992
 20
1.980051181102362
 30
0.0
 10
-0.2768031496062992
 20
1.980051181102362
 30
0.0
 10
-0.2768031496062992
 20
1.975606299212598
 30
0.0
 10
-0.276496062992126
 20
1.972744094488189
 30
0.0
 10
-0.2759409448818898
 20
1.971464566929134
 30
0.0
 10
-0.2759409448818898
 20
1.971464566929134
 30
0.0
 10
-0.2753582677165354
 20
1.970188976377953
 30
0.0
 10
-0.2744409448818898
 20
1.969244094488189
 30
0.0
 10
-0.2731377952755906
 20
1.96857874015748
 30
0.0
 10
-0.2731377952755906
 20
1.96857874015748
 30
0.0
 10
-0.2718307086614173
 20
1.967937007874016
 30
0.0
 10
-0.269248031496063
 20
1.967606299212598
 30
0.0
 10
-0.2653858267716536
 20
1.967606299212598
 30
0.0
 10
-0.2653858267716536
 20
1.967606299212598
 30
0.0
 10
-0.2653858267716536
 20
1.967606299212598
 30
0.0
 10
-0.2574133858267717
 20
1.967606299212598
 30
0.0
 10
-0.2574133858267717
 20
1.967606299212598
 30
0.0
 10
-0.2574133858267717
 20
1.967606299212598
 30
0.0
 10
-0.2574133858267717
 20
1.967606299212598
 30
0.0
 10
-0.2574133858267717
 20
1.960771653543307
 30
0.0
 10
-0.2574133858267717
 20
1.960771653543307
 30
0.0
 10
-0.2574133858267717
 20
1.960771653543307
 30
0.0
 10
-0.2574133858267717
 20
1.960771653543307
 30
0.0
 10
-0.3110511811023622
 20
1.960771653543307
 30
0.0
 10
-0.3110511811023622
 20
1.960771653543307
 30
0.0
 10
-0.3110511811023622
 20
1.960771653543307
 30
0.0
 10
-0.3110511811023622
 20
1.960771653543307
 30
0.0
 10
-0.3110511811023622
 20
1.967606299212598
 30
0.0
 10
-0.3110511811023622
 20
1.967606299212598
 30
0.0
 10
-0.3110511811023622
 20
1.967606299212598
 30
0.0
 10
-0.3110511811023622
 20
1.967606299212598
 30
0.0
 10
-0.3021929133858268
 20
1.967606299212598
 30
0.0
 10
-0.3021929133858268
 20
1.967606299212598
 30
0.0
 10
-0.3021929133858268
 20
1.967606299212598
 30
0.0
 10
-0.2983307086614173
 20
1.967606299212598
 30
0.0
 10
-0.2957755905511811
 20
1.967937007874016
 30
0.0
 10
-0.294496062992126
 20
1.968633858267717
 30
0.0
 10
-0.294496062992126
 20
1.968633858267717
 30
0.0
 10
-0.2932204724409449
 20
1.969299212598425
 30
0.0
 10
-0.2922204724409449
 20
1.97038188976378
 30
0.0
 10
-0.2915236220472441
 20
1.97188188976378
 30
0.0
 10
-0.2915236220472441
 20
1.97188188976378
 30
0.0
 10
-0.2908307086614174
 20
1.97338188976378
 30
0.0
 10
-0.2904685039370079
 20
1.976106299212598
 30
0.0
 10
-0.2904685039370079
 20
1.980051181102362
 30
0.0
 10
-0.2904685039370079
 20
1.980051181102362
 30
0.0
 10
-0.2904685039370079
 20
1.980051181102362
 30
0.0
 10
-0.2904685039370079
 20
2.05751968503937
 30
0.0
 10
-0.2904685039370079
 20
2.05751968503937
 30
0.0
 10
-0.2904685039370079
 20
2.05751968503937
 30
0.0
 10
-0.2904685039370079
 20
2.05751968503937
 30
0.0
 10
-0.3110511811023622
 20
2.05751968503937
 30
0.0
 10
-0.3110511811023622
 20
2.05751968503937
 30
0.0
 10
-0.3110511811023622
 20
2.05751968503937
 30
0.0
 10
-0.3110511811023622
 20
2.05751968503937
 30
0.0
 10
-0.3110511811023622
 20
2.06451968503937
 30
0.0
 10
-0.3110511811023622
 20
2.06451968503937
 30
0.0
 10
-0.3110511811023622
 20
2.06451968503937
 30
0.0
 10
-0.2998307086614173
 20
2.066102362204724
 30
0.0
 10
-0.2904409448818898
 20
2.069354330708662
 30
0.0
 10
-0.2828858267716536
 20
2.074299212598425
 30
0.0
  0
SPLINE
  5
65
330
1F
100
AcDbEntity
  8
LAYER_1
 62
   250
100
AcDbSpline
210
0.0
220
0.0
230
1.0
 70
    11
 71
     3
 72
    20
 73
    16
 74
     0
 42
0.0000000001
 43
0.0000000001
 40
0.0
 40
0.0
 40
0.0
 40
0.0
 40
0.25
 40
0.25
 40
0.25
 40
0.25
 40
0.5
 40
0.5
 40
0.5
 40
0.5
 40
0.75
 40
0.75
 40
0.75
 40
0.75
 40
1.0
 40
1.0
 40
1.0
 40
1.0
 10
-0.1540511811023622
 20
2.080161417322835
 30
0.0
 10
-0.1540511811023622
 20
2.080161417322835
 30
0.0
 10
-0.2096338582677166
 20
1.924464566929134
 30
0.0
 10
-0.2096338582677166
 20
1.924464566929134
 30
0.0
 10
-0.2096338582677166
 20
1.924464566929134
 30
0.0
 10
-0.2096338582677166
 20
1.924464566929134
 30
0.0
 10
-0.2216889763779528
 20
1.924464566929134
 30
0.0
 10
-0.2216889763779528
 20
1.924464566929134
 30
0.0
 10
-0.2216889763779528
 20
1.924464566929134
 30
0.0
 10
-0.2216889763779528
 20
1.924464566929134
 30
0.0
 10
-0.1664409448818898
 20
2.080161417322835
 30
0.0
 10
-0.1664409448818898
 20
2.080161417322835
 30
0.0
 10
-0.1664409448818898
 20
2.080161417322835
 30
0.0
 10
-0.1664409448818898
 20
2.080161417322835
 30
0.0
 10
-0.1540511811023622
 20
2.080161417322835
 30
0.0
 10
-0.1540511811023622
 20
2.080161417322835
 30
0.0
  0
SPLINE
  5
66
330
1F
100
AcDbEntity
  8
LAYER_1
 62
   250
100
AcDbSpline
210
0.0
220
0.0
230
1.0
 70
    11
 71
     3
 72
    72
 73
    68
 74
     0
 42
0.0000000001
 43
0.0000000001
 40
0.0
 40
0.0
 40
0.0
 40
0.0
 40
0.0588235294117647
 40
0.0588235294117647
 40
0.0588235294117647
 40
0.0588235294117647
 40
0.1176470588235294
 40
0.1176470588235294
 40
0.1176470588235294
 40
0.1176470588235294
 40
0.1764705882352941
 40
0.1764705882352941
 40
0.1764705882352941
 40
0.1764705882352941
 40
0.2352941176470588
 40
0.2352941176470588
 40
0.2352941176470588
 40
0.2352941176470588
 40
0.2941176470588235
 40
0.2941176470588235
 40
0.2941176470588235
 40
0.2941176470588235
 40
0.3529411764705883
 40
0.3529411764705883
 40
0.3529411764705883
 40
0.3529411764705883
 40
0.411764705882353
 40
0.411764705882353
 40
0.411764705882353
 40
0.411764705882353
 40
0.4705882352941177
 40
0.4705882352941177
 40
0.4705882352941177
 40
0.4705882352941177
 40
0.5294117647058824
 40
0.5294117647058824
 40
0.5294117647058824
 40
0.5294117647058824
 40
0.5882352941176471
 40
0.5882352941176471
 40
0.5882352941176471
 40
0.5882352941176471
 40
0.6470588235294118
 40
0.6470588235294118
 40
0.6470588235294118
 40
0.6470588235294118
 40
0.7058823529411765
 40
0.7058823529411765
 40
0.7058823529411765
 40
0.7058823529411765
 40
0.7647058823529412
 40
0.7647058823529412
 40
0.7647058823529412
 40
0.7647058823529412
 40
0.823529411764706
 40
0.823529411764706
 40
0.823529411764706
 40
0.823529411764706
 40
0.8823529411764707
 40
0.8823529411764707
 40
0.8823529411764707
 40
0.8823529411764707
 40
0.9411764705882354
 40
0.9411764705882354
 40
0.9411764705882354
 40
0.9411764705882354
 40
1.0
 40
1.0
 40
1.0
 40
1.0
 10
-0.079496062992126
 20
2.074299212598425
 30
0.0
 10
-0.079496062992126
 20
2.074299212598425
 30
0.0
 10
-0.0734133858267717
 20
2.074299212598425
 30
0.0
 10
-0.0734133858267717
 20
2.074299212598425
 30
0.0
 10
-0.0734133858267717
 20
2.074299212598425
 30
0.0
 10
-0.0734133858267717
 20
2.074299212598425
 30
0.0
 10
-0.0734133858267717
 20
1.980051181102362
 30
0.0
 10
-0.0734133858267717
 20
1.980051181102362
 30
0.0
 10
-0.0734133858267717
 20
1.980051181102362
 30
0.0
 10
-0.0734133858267717
 20
1.975606299212598
 30
0.0
 10
-0.0731062992125984
 20
1.972744094488189
 30
0.0
 10
-0.0725511811023622
 20
1.971464566929134
 30
0.0
 10
-0.0725511811023622
 20
1.971464566929134
 30
0.0
 10
-0.0719685039370079
 20
1.970188976377953
 30
0.0
 10
-0.0710511811023622
 20
1.969244094488189
 30
0.0
 10
-0.069748031496063
 20
1.96857874015748
 30
0.0
 10
-0.069748031496063
 20
1.96857874015748
 30
0.0
 10
-0.0684409448818898
 20
1.967937007874016
 30
0.0
 10
-0.0658582677165354
 20
1.967606299212598
 30
0.0
 10
-0.061996062992126
 20
1.967606299212598
 30
0.0
 10
-0.061996062992126
 20
1.967606299212598
 30
0.0
 10
-0.061996062992126
 20
1.967606299212598
 30
0.0
 10
-0.0540236220472441
 20
1.967606299212598
 30
0.0
 10
-0.0540236220472441
 20
1.967606299212598
 30
0.0
 10
-0.0540236220472441
 20
1.967606299212598
 30
0.0
 10
-0.0540236220472441
 20
1.967606299212598
 30
0.0
 10
-0.0540236220472441
 20
1.960771653543307
 30
0.0
 10
-0.0540236220472441
 20
1.960771653543307
 30
0.0
 10
-0.0540236220472441
 20
1.960771653543307
 30
0.0
 10
-0.0540236220472441
 20
1.960771653543307
 30
0.0
 10
-0.1076614173228346
 20
1.960771653543307
 30
0.0
 10
-0.1076614173228346
 20
1.960771653543307
 30
0.0
 10
-0.1076614173228346
 20
1.960771653543307
 30
0.0
 10
-0.1076614173228346
 20
1.960771653543307
 30
0.0
 10
-0.1076614173228346
 20
1.967606299212598
 30
0.0
 10
-0.1076614173228346
 20
1.967606299212598
 30
0.0
 10
-0.1076614173228346
 20
1.967606299212598
 30
0.0
 10
-0.1076614173228346
 20
1.967606299212598
 30
0.0
 10
-0.0988031496062992
 20
1.967606299212598
 30
0.0
 10
-0.0988031496062992
 20
1.967606299212598
 30
0.0
 10
-0.0988031496062992
 20
1.967606299212598
 30
0.0
 10
-0.0949409448818898
 20
1.967606299212598
 30
0.0
 10
-0.0923858267716536
 20
1.967937007874016
 30
0.0
 10
-0.0911062992125984
 20
1.968633858267717
 30
0.0
 10
-0.0911062992125984
 20
1.968633858267717
 30
0.0
 10
-0.0898307086614173
 20
1.969299212598425
 30
0.0
 10
-0.0888307086614173
 20
1.97038188976378
 30
0.0
 10
-0.0881338582677165
 20
1.97188188976378
 30
0.0
 10
-0.0881338582677165
 20
1.97188188976378
 30
0.0
 10
-0.0874409448818898
 20
1.97338188976378
 30
0.0
 10
-0.0870787401574803
 20
1.976106299212598
 30
0.0
 10
-0.0870787401574803
 20
1.980051181102362
 30
0.0
 10
-0.0870787401574803
 20
1.980051181102362
 30
0.0
 10
-0.0870787401574803
 20
1.980051181102362
 30
0.0
 10
-0.0870787401574803
 20
2.05751968503937
 30
0.0
 10
-0.0870787401574803
 20
2.05751968503937
 30
0.0
 10
-0.0870787401574803
 20
2.05751968503937
 30
0.0
 10
-0.0870787401574803
 20
2.05751968503937
 30
0.0
 10
-0.1076614173228346
 20
2.05751968503937
 30
0.0
 10
-0.1076614173228346
 20
2.05751968503937
 30
0.0
 10
-0.1076614173228346
 20
2.05751968503937
 30
0.0
 10
-0.1076614173228346
 20
2.05751968503937
 30
0.0
 10
-0.1076614173228346
 20
2.06451968503937
 30
0.0
 10
-0.1076614173228346
 20
2.06451968503937
 30
0.0
 10
-0.1076614173228346
 20
2.06451968503937
 30
0.0
 10
-0.0964409448818898
 20
2.066102362204724
 30
0.0
 10
-0.0870511811023622
 20
2.069354330708662
 30
0.0
 10
-0.079496062992126
 20
2.074299212598425
 30
0.0
  0
SPLINE
  5
67
330
1F
100
AcDbEntity
  8
LAYER_1
 62
   250
100
AcDbSpline
210
0.0
220
0.0
230
1.0
 70
    11
 71
     3
 72
    84
 73
    80
 74
     0
 42
0.0000000001
 43
0.0000000001
 40
0.0
 40
0.0
 40
0.0
 40
0.0
 40
0.05
 40
0.05
 40
0.05
 40
0.05
 40
0.1
 40
0.1
 40
0.1
 40
0.1
 40
0.15
 40
0.15
 40
0.15
 40
0.15
 40
0.2
 40
0.2
 40
0.2
 40
0.2
 40
0.25
 40
0.25
 40
0.25
 40
0.25
 40
0.3
 40
0.3
 40
0.3
 40
0.3
 40
0.35
 40
0.35
 40
0.35
 40
0.35
 40
0.4
 40
0.4
 40
0.4
 40
0.4
 40
0.45
 40
0.45
 40
0.45
 40
0.45
 40
0.4999999999999999
 40
0.4999999999999999
 40
0.4999999999999999
 40
0.4999999999999999
 40
0.5499999999999999
 40
0.5499999999999999
 40
0.5499999999999999
 40
0.5499999999999999
 40
0.6
 40
0.6
 40
0.6
 40
0.6
 40
0.65
 40
0.65
 40
0.65
 40
0.65
 40
0.7000000000000001
 40
0.7000000000000001
 40
0.7000000000000001
 40
0.7000000000000001
 40
0.7500000000000001
 40
0.7500000000000001
 40
0.7500000000000001
 40
0.7500000000000001
 40
0.8000000000000002
 40
0.8000000000000002
 40
0.8000000000000002
 40
0.8000000000000002
 40
0.8500000000000002
 40
0.8500000000000002
 40
0.8500000000000002
 40
0.8500000000000002
 40
0.9000000000000002
 40
0.9000000000000002
 40
0.9000000000000002
 40
0.9000000000000002
 40
0.9500000000000003
 40
0.9500000000000003
 40
0.9500000000000003
 40
0.9500000000000003
 40
1.0
 40
1.0
 40
1.0
 40
1.0
 10
0.0521692913385827
 20
2.076409448818898
 30
0.0
 10
0.0521692913385827
 20
2.076409448818898
 30
0.0
 10
0.0521692913385827
 20
2.068992125984252
 30
0.0
 10
0.0521692913385827
 20
2.068992125984252
 30
0.0
 10
0.0521692913385827
 20
2.068992125984252
 30
0.0
 10
0.0387834645669291
 20
2.068854330708661
 30
0.0
 10
0.0279488188976378
 20
2.06688188976378
 30
0.0
 10
0.0196732283464567
 20
2.063161417322835
 30
0.0
 10
0.0196732283464567
 20
2.063161417322835
 30
0.0
 10
0.0113937007874016
 20
2.059409448818898
 30
0.0
 10
0.0053110236220472
 20
2.053799212598425
 30
0.0
 10
0.0013937007874016
 20
2.046354330708661
 30
0.0
 10
0.0013937007874016
 20
2.046354330708661
 30
0.0
 10
-0.0025236220472441
 20
2.03888188976378
 30
0.0
 10
-0.0047165354330709
 20
2.029688976377953
 30
0.0
 10
-0.0051889763779528
 20
2.018799212598425
 30
0.0
 10
-0.0051889763779528
 20
2.018799212598425
 30
0.0
 10
-0.0024409448818898
 20
2.02301968503937
 30
0.0
 10
0.0003937007874016
 20
2.026326771653543
 30
0.0
 10
0.0033110236220472
 20
2.028688976377953
 30
0.0
 10
0.0033110236220472
 20
2.028688976377953
 30
0.0
 10
0.0062007874015748
 20
2.031047244094488
 30
0.0
 10
0.0095866141732283
 20
2.032854330708661
 30
0.0
 10
0.0134763779527559
 20
2.034133858267717
 30
0.0
 10
0.0134763779527559
 20
2.034133858267717
 30
0.0
 10
0.0173661417322835
 20
2.035409448818898
 30
0.0
 10
0.0216141732283465
 20
2.036047244094488
 30
0.0
 10
0.0262283464566929
 20
2.036047244094488
 30
0.0
 10
0.0262283464566929
 20
2.036047244094488
 30
0.0
 10
0.0335866141732283
 20
2.036047244094488
 30
0.0
 10
0.0401692913385827
 20
2.034409448818898
 30
0.0
 10
0.0459212598425197
 20
2.031161417322835
 30
0.0
 10
0.0459212598425197
 20
2.031161417322835
 30
0.0
 10
0.0516692913385827
 20
2.027909448818898
 30
0.0
 10
0.0561417322834646
 20
2.023492125984252
 30
0.0
 10
0.0593385826771654
 20
2.017937007874016
 30
0.0
 10
0.0593385826771654
 20
2.017937007874016
 30
0.0
 10
0.0625314960629921
 20
2.01238188976378
 30
0.0
 10
0.0641417322834646
 20
2.005826771653543
 30
0.0
 10
0.0641417322834646
 20
1.998299212598425
 30
0.0
 10
0.0641417322834646
 20
1.998299212598425
 30
0.0
 10
0.0641417322834646
 20
1.986299212598425
 30
0.0
 10
0.0605314960629921
 20
1.97688188976378
 30
0.0
 10
0.0533110236220472
 20
1.970051181102362
 30
0.0
 10
0.0533110236220472
 20
1.970051181102362
 30
0.0
 10
0.0453385826771654
 20
1.962551181102362
 30
0.0
 10
0.035003937007874
 20
1.958826771653544
 30
0.0
 10
0.0223110236220472
 20
1.958826771653544
 30
0.0
 10
0.0223110236220472
 20
1.958826771653544
 30
0.0
 10
0.0131417322834646
 20
1.958826771653544
 30
0.0
 10
0.0054212598425197
 20
1.960716535433071
 30
0.0
 10
-0.0008858267716535
 20
1.96451968503937
 30
0.0
 10
-0.0008858267716535
 20
1.96451968503937
 30
0.0
 10
-0.0071889763779528
 20
1.968299212598425
 30
0.0
 10
-0.0121889763779528
 20
1.974106299212598
 30
0.0
 10
-0.0159133858267717
 20
1.981937007874016
 30
0.0
 10
-0.0159133858267717
 20
1.981937007874016
 30
0.0
 10
-0.0196062992125984
 20
1.989744094488189
 30
0.0
 10
-0.0214685039370079
 20
1.999409448818898
 30
0.0
 10
-0.0214685039370079
 20
2.010909448818898
 30
0.0
 10
-0.0214685039370079
 20
2.010909448818898
 30
0.0
 10
-0.0214685039370079
 20
2.022464566929134
 30
0.0
 10
-0.019496062992126
 20
2.032716535433071
 30
0.0
 10
-0.0155787401574803
 20
2.041661417322835
 30
0.0
 10
-0.0155787401574803
 20
2.041661417322835
 30
0.0
 10
-0.0116338582677165
 20
2.050602362204725
 30
0.0
 10
-0.0061889763779528
 20
2.057799212598425
 30
0.0
 10
0.000755905511811
 20
2.063216535433071
 30
0.0
 10
0.000755905511811
 20
2.063216535433071
 30
0.0
 10
0.0077007874015748
 20
2.068661417322835
 30
0.0
 10
0.0153110236220472
 20
2.072216535433071
 30
0.0
 10
0.0235590551181102
 20
2.07388188976378
 30
0.0
 10
0.0235590551181102
 20
2.07388188976378
 30
0.0
 10
0.0318385826771654
 20
2.075574803149606
 30
0.0
 10
0.039255905511811
 20
2.076409448818898
 30
0.0
 10
0.0458385826771654
 20
2.076409448818898
 30
0.0
 10
0.0458385826771654
 20
2.076409448818898
 30
0.0
 10
0.0458385826771654
 20
2.076409448818898
 30
0.0
 10
0.0521692913385827
 20
2.076409448818898
 30
0.0
 10
0.0521692913385827
 20
2.076409448818898
 30
0.0
  0
SPLINE
  5
68
330
1F
100
AcDbEntity
  8
LAYER_1
 62
   250
100
AcDbSpline
210
0.0
220
0.0
230
1.0
 70
    11
 71
     3
 72
    40
 73
    36
 74
     0
 42
0.0000000001
 43
0.0000000001
 40
0.0
 40
0.0
 40
0.0
 40
0.0
 40
0.1111111111111111
 40
0.1111111111111111
 40
0.1111111111111111
 40
0.1111111111111111
 40
0.2222222222222222
 40
0.2222222222222222
 40
0.2222222222222222
 40
0.2222222222222222
 40
0.3333333333333333
 40
0.3333333333333333
 40
0.3333333333333333
 40
0.3333333333333333
 40
0.4444444444444444
 40
0.4444444444444444
 40
0.4444444444444444
 40
0.4444444444444444
 40
0.5555555555555556
 40
0.5555555555555556
 40
0.5555555555555556
 40
0.5555555555555556
 40
0.6666666666666667
 40
0.6666666666666667
 40
0.6666666666666667
 40
0.6666666666666667
 40
0.7777777777777779
 40
0.7777777777777779
 40
0.7777777777777779
 40
0.7777777777777779
 40
0.8888888888888891
 40
0.8888888888888891
 40
0.8888888888888891
 40
0.8888888888888891
 40
1.0
 40
1.0
 40
1.0
 40
1.0
 10
0.0224763779527559
 20
2.027409448818898
 30
0.0
 10
0.0146732283464567
 20
2.027409448818898
 30
0.0
 10
0.008255905511811
 20
2.024464566929134
 30
0.0
 10
0.0032283464566929
 20
2.018547244094488
 30
0.0
 10
0.0032283464566929
 20
2.018547244094488
 30
0.0
 10
-0.0017992125984252
 20
2.012633858267717
 30
0.0
 10
-0.0042992125984252
 20
2.00551968503937
 30
0.0
 10
-0.0042992125984252
 20
1.997244094488189
 30
0.0
 10
-0.0042992125984252
 20
1.997244094488189
 30
0.0
 10
-0.0042992125984252
 20
1.99138188976378
 30
0.0
 10
-0.0030787401574803
 20
1.985964566929134
 30
0.0
 10
-0.0006338582677165
 20
1.980992125984252
 30
0.0
 10
-0.0006338582677165
 20
1.980992125984252
 30
0.0
 10
0.0018110236220472
 20
1.97601968503937
 30
0.0
 10
0.0049488188976378
 20
1.972354330708662
 30
0.0
 10
0.0088110236220472
 20
1.969937007874016
 30
0.0
 10
0.0088110236220472
 20
1.969937007874016
 30
0.0
 10
0.0126417322834646
 20
1.96751968503937
 30
0.0
 10
0.017003937007874
 20
1.966299212598425
 30
0.0
 10
0.0218110236220472
 20
1.966299212598425
 30
0.0
 10
0.0218110236220472
 20
1.966299212598425
 30
0.0
 10
0.0293110236220472
 20
1.966299212598425
 30
0.0
 10
0.0355314960629921
 20
1.969133858267717
 30
0.0
 10
0.040503937007874
 20
1.974799212598425
 30
0.0
 10
0.040503937007874
 20
1.974799212598425
 30
0.0
 10
0.0454488188976378
 20
1.980464566929134
 30
0.0
 10
0.0479488188976378
 20
1.98807874015748
 30
0.0
 10
0.0479488188976378
 20
1.997633858267717
 30
0.0
 10
0.0479488188976378
 20
1.997633858267717
 30
0.0
 10
0.0479488188976378
 20
2.006744094488189
 30
0.0
 10
0.0455314960629921
 20
2.013992125984252
 30
0.0
 10
0.0407007874015748
 20
2.019354330708662
 30
0.0
 10
0.0407007874015748
 20
2.019354330708662
 30
0.0
 10
0.0358661417322835
 20
2.024744094488189
 30
0.0
 10
0.0297834645669291
 20
2.027409448818898
 30
0.0
 10
0.0224763779527559
 20
2.027409448818898
 30
0.0
  0
SPLINE
  5
69
330
1F
100
AcDbEntity
  8
LAYER_1
 62
   250
100
AcDbSpline
210
0.0
220
0.0
230
1.0
 70
    11
 71
     3
 72
    60
 73
    56
 74
     0
 42
0.0000000001
 43
0.0000000001
 40
0.0
 40
0.0
 40
0.0
 40
0.0
 40
0.0714285714285714
 40
0.0714285714285714
 40
0.0714285714285714
 40
0.0714285714285714
 40
0.1428571428571429
 40
0.1428571428571429
 40
0.1428571428571429
 40
0.1428571428571429
 40
0.2142857142857143
 40
0.2142857142857143
 40
0.2142857142857143
 40
0.2142857142857143
 40
0.2857142857142857
 40
0.2857142857142857
 40
0.2857142857142857
 40
0.2857142857142857
 40
0.3571428571428571
 40
0.3571428571428571
 40
0.3571428571428571
 40
0.3571428571428571
 40
0.4285714285714285
 40
0.4285714285714285
 40
0.4285714285714285
 40
0.4285714285714285
 40
0.4999999999999999
 40
0.4999999999999999
 40
0.4999999999999999
 40
0.4999999999999999
 40
0.5714285714285713
 40
0.5714285714285713
 40
0.5714285714285713
 40
0.5714285714285713
 40
0.6428571428571427
 40
0.6428571428571427
 40
0.6428571428571427
 40
0.6428571428571427
 40
0.7142857142857141
 40
0.7142857142857141
 40
0.7142857142857141
 40
0.7142857142857141
 40
0.7857142857142855
 40
0.7857142857142855
 40
0.7857142857142855
 40
0.7857142857142855
 40
0.8571428571428569
 40
0.8571428571428569
 40
0.8571428571428569
 40
0.8571428571428569
 40
0.9285714285714283
 40
0.9285714285714283
 40
0.9285714285714283
 40
0.9285714285714283
 40
1.0
 40
1.0
 40
1.0
 40
1.0
 10
0.0813110236220472
 20
2.032216535433071
 30
0.0
 10
0.0813110236220472
 20
2.032216535433071
 30
0.0
 10
0.0769212598425197
 20
2.037606299212599
 30
0.0
 10
0.0769212598425197
 20
2.037606299212599
 30
0.0
 10
0.0769212598425197
 20
2.037606299212599
 30
0.0
 10
0.0880354330708661
 20
2.046661417322835
 30
0.0
 10
0.0936181102362205
 20
2.054216535433071
 30
0.0
 10
0.0936181102362205
 20
2.060299212598425
 30
0.0
 10
0.0936181102362205
 20
2.060299212598425
 30
0.0
 10
0.0936181102362205
 20
2.060992125984252
 30
0.0
 10
0.0935629921259843
 20
2.06188188976378
 30
0.0
 10
0.0934488188976378
 20
2.062909448818898
 30
0.0
 10
0.0934488188976378
 20
2.062909448818898
 30
0.0
 10
0.0925354330708661
 20
2.06251968503937
 30
0.0
 10
0.0916181102362205
 20
2.062216535433071
 30
0.0
 10
0.090755905511811
 20
2.06201968503937
 30
0.0
 10
0.090755905511811
 20
2.06201968503937
 30
0.0
 10
0.0898937007874016
 20
2.061799212598425
 30
0.0
 10
0.0890905511811024
 20
2.061688976377953
 30
0.0
 10
0.0883110236220472
 20
2.061688976377953
 30
0.0
 10
0.0883110236220472
 20
2.061688976377953
 30
0.0
 10
0.0857007874015748
 20
2.061688976377953
 30
0.0
 10
0.0836181102362205
 20
2.06251968503937
 30
0.0
 10
0.0820629921259843
 20
2.064216535433071
 30
0.0
 10
0.0820629921259843
 20
2.064216535433071
 30
0.0
 10
0.0804763779527559
 20
2.06588188976378
 30
0.0
 10
0.0797007874015748
 20
2.06801968503937
 30
0.0
 10
0.0797007874015748
 20
2.070633858267716
 30
0.0
 10
0.0797007874015748
 20
2.070633858267716
 30
0.0
 10
0.0797007874015748
 20
2.073188976377953
 30
0.0
 10
0.0806456692913386
 20
2.075409448818898
 30
0.0
 10
0.0825354330708662
 20
2.077299212598425
 30
0.0
 10
0.0825354330708662
 20
2.077299212598425
 30
0.0
 10
0.0844488188976378
 20
2.079216535433071
 30
0.0
 10
0.0867283464566929
 20
2.080161417322835
 30
0.0
 10
0.0893661417322835
 20
2.080161417322835
 30
0.0
 10
0.0893661417322835
 20
2.080161417322835
 30
0.0
 10
0.0930629921259843
 20
2.080161417322835
 30
0.0
 10
0.0962283464566929
 20
2.078688976377953
 30
0.0
 10
0.0988661417322835
 20
2.075716535433071
 30
0.0
 10
0.0988661417322835
 20
2.075716535433071
 30
0.0
 10
0.1014763779527559
 20
2.072771653543307
 30
0.0
 10
0.1028110236220473
 20
2.068964566929134
 30
0.0
 10
0.1028110236220473
 20
2.064299212598425
 30
0.0
 10
0.1028110236220473
 20
2.064299212598425
 30
0.0
 10
0.1028110236220473
 20
2.061244094488189
 30
0.0
 10
0.1021732283464567
 20
2.058047244094488
 30
0.0
 10
0.1009212598425197
 20
2.054716535433071
 30
0.0
 10
0.1009212598425197
 20
2.054716535433071
 30
0.0
 10
0.0996732283464567
 20
2.05138188976378
 30
0.0
 10
0.0978661417322835
 20
2.048299212598425
 30
0.0
 10
0.0954763779527559
 20
2.045437007874016
 30
0.0
 10
0.0954763779527559
 20
2.045437007874016
 30
0.0
 10
0.0930905511811024
 20
2.042606299212598
 30
0.0
 10
0.0883661417322835
 20
2.038188976377953
 30
0.0
 10
0.0813110236220472
 20
2.032216535433071
 30
0.0
  0
SPLINE
  5
6A
330
1F
100
AcDbEntity
  8
LAYER_1
 62
   250
100
AcDbSpline
210
0.0
220
0.0
230
1.0
 70
    11
 71
     3
 72
    60
 73
    56
 74
     0
 42
0.0000000001
 43
0.0000000001
 40
0.0
 40
0.0
 40
0.0
 40
0.0
 40
0.0714285714285714
 40
0.0714285714285714
 40
0.0714285714285714
 40
0.0714285714285714
 40
0.1428571428571429
 40
0.1428571428571429
 40
0.1428571428571429
 40
0.1428571428571429
 40
0.2142857142857143
 40
0.2142857142857143
 40
0.2142857142857143
 40
0.2142857142857143
 40
0.2857142857142857
 40
0.2857142857142857
 40
0.2857142857142857
 40
0.2857142857142857
 40
0.3571428571428571
 40
0.3571428571428571
 40
0.3571428571428571
 40
0.3571428571428571
 40
0.4285714285714285
 40
0.4285714285714285
 40
0.4285714285714285
 40
0.4285714285714285
 40
0.4999999999999999
 40
0.4999999999999999
 40
0.4999999999999999
 40
0.4999999999999999
 40
0.5714285714285713
 40
0.5714285714285713
 40
0.5714285714285713
 40
0.5714285714285713
 40
0.6428571428571427
 40
0.6428571428571427
 40
0.6428571428571427
 40
0.6428571428571427
 40
0.7142857142857141
 40
0.7142857142857141
 40
0.7142857142857141
 40
0.7142857142857141
 40
0.7857142857142855
 40
0.7857142857142855
 40
0.7857142857142855
 40
0.7857142857142855
 40
0.8571428571428569
 40
0.8571428571428569
 40
0.8571428571428569
 40
0.8571428571428569
 40
0.9285714285714283
 40
0.9285714285714283
 40
0.9285714285714283
 40
0.9285714285714283
 40
1.0
 40
1.0
 40
1.0
 40
1.0
 10
0.1103661417322835
 20
2.032216535433071
 30
0.0
 10
0.1103661417322835
 20
2.032216535433071
 30
0.0
 10
0.1059763779527559
 20
2.037606299212599
 30
0.0
 10
0.1059763779527559
 20
2.037606299212599
 30
0.0
 10
0.1059763779527559
 20
2.037606299212599
 30
0.0
 10
0.1170905511811024
 20
2.046661417322835
 30
0.0
 10
0.1226732283464567
 20
2.054216535433071
 30
0.0
 10
0.1226732283464567
 20
2.060299212598425
 30
0.0
 10
0.1226732283464567
 20
2.060299212598425
 30
0.0
 10
0.1226732283464567
 20
2.060992125984252
 30
0.0
 10
0.1226181102362205
 20
2.06188188976378
 30
0.0
 10
0.122503937007874
 20
2.062909448818898
 30
0.0
 10
0.122503937007874
 20
2.062909448818898
 30
0.0
 10
0.1215905511811024
 20
2.06251968503937
 30
0.0
 10
0.1206732283464567
 20
2.062216535433071
 30
0.0
 10
0.1198110236220473
 20
2.06201968503937
 30
0.0
 10
0.1198110236220473
 20
2.06201968503937
 30
0.0
 10
0.1189488188976378
 20
2.061799212598425
 30
0.0
 10
0.1181181102362205
 20
2.061688976377953
 30
0.0
 10
0.1172834645669291
 20
2.061688976377953
 30
0.0
 10
0.1172834645669291
 20
2.061688976377953
 30
0.0
 10
0.1147283464566929
 20
2.061688976377953
 30
0.0
 10
0.1126732283464567
 20
2.06251968503937
 30
0.0
 10
0.1111181102362205
 20
2.064216535433071
 30
0.0
 10
0.1111181102362205
 20
2.064216535433071
 30
0.0
 10
0.1095354330708662
 20
2.06588188976378
 30
0.0
 10
0.108755905511811
 20
2.06801968503937
 30
0.0
 10
0.108755905511811
 20
2.070633858267716
 30
0.0
 10
0.108755905511811
 20
2.070633858267716
 30
0.0
 10
0.108755905511811
 20
2.073188976377953
 30
0.0
 10
0.1097007874015748
 20
2.075409448818898
 30
0.0
 10
0.1115905511811024
 20
2.077299212598425
 30
0.0
 10
0.1115905511811024
 20
2.077299212598425
 30
0.0
 10
0.1134763779527559
 20
2.079216535433071
 30
0.0
 10
0.1157834645669292
 20
2.080161417322835
 30
0.0
 10
0.1184212598425197
 20
2.080161417322835
 30
0.0
 10
0.1184212598425197
 20
2.080161417322835
 30
0.0
 10
0.1221181102362205
 20
2.080161417322835
 30
0.0
 10
0.1252834645669291
 20
2.078688976377953
 30
0.0
 10
0.1279212598425197
 20
2.075716535433071
 30
0.0
 10
0.1279212598425197
 20
2.075716535433071
 30
0.0
 10
0.1305314960629921
 20
2.072771653543307
 30
0.0
 10
0.1318661417322835
 20
2.068964566929134
 30
0.0
 10
0.1318661417322835
 20
2.064299212598425
 30
0.0
 10
0.1318661417322835
 20
2.064299212598425
 30
0.0
 10
0.1318661417322835
 20
2.061244094488189
 30
0.0
 10
0.1312283464566929
 20
2.058047244094488
 30
0.0
 10
0.1299763779527559
 20
2.054716535433071
 30
0.0
 10
0.1299763779527559
 20
2.054716535433071
 30
0.0
 10
0.1287283464566929
 20
2.05138188976378
 30
0.0
 10
0.1269212598425197
 20
2.048299212598425
 30
0.0
 10
0.1245354330708662
 20
2.045437007874016
 30
0.0
 10
0.1245354330708662
 20
2.045437007874016
 30
0.0
 10
0.1221456692913386
 20
2.042606299212598
 30
0.0
 10
0.1174212598425197
 20
2.038188976377953
 30
0.0
 10
0.1103661417322835
 20
2.032216535433071
 30
0.0
  0
SPLINE
  5
6B
330
1F
100
AcDbEntity
  8
LAYER_1
 62
   250
100
AcDbSpline
210
0.0
220
0.0
230
1.0
 70
    11
 71
     3
 72
   204
 73
   200
 74
     0
 42
0.0000000001
 43
0.0000000001
 40
0.0
 40
0.0
 40
0.0
 40
0.0
 40
0.02
 40
0.02
 40
0.02
 40
0.02
 40
0.04
 40
0.04
 40
0.04
 40
0.04
 40
0.06
 40
0.06
 40
0.06
 40
0.06
 40
0.08
 40
0.08
 40
0.08
 40
0.08
 40
0.1
 40
0.1
 40
0.1
 40
0.1
 40
0.12
 40
0.12
 40
0.12
 40
0.12
 40
0.14
 40
0.14
 40
0.14
 40
0.14
 40
0.16
 40
0.16
 40
0.16
 40
0.16
 40
0.18
 40
0.18
 40
0.18
 40
0.18
 40
0.2
 40
0.2
 40
0.2
 40
0.2
 40
0.22
 40
0.22
 40
0.22
 40
0.22
 40
0.24
 40
0.24
 40
0.24
 40
0.24
 40
0.26
 40
0.26
 40
0.26
 40
0.26
 40
0.28
 40
0.28
 40
0.28
 40
0.28
 40
0.3
 40
0.3
 40
0.3
 40
0.3
 40
0.32
 40
0.32
 40
0.32
 40
0.32
 40
0.34
 40
0.34
 40
0.34
 40
0.34
 40
0.36
 40
0.36
 40
0.36
 40
0.36
 40
0.3800000000000001
 40
0.3800000000000001
 40
0.3800000000000001
 40
0.3800000000000001
 40
0.4000000000000001
 40
0.4000000000000001
 40
0.4000000000000001
 40
0.4000000000000001
 40
0.4200000000000001
 40
0.4200000000000001
 40
0.4200000000000001
 40
0.4200000000000001
 40
0.4400000000000001
 40
0.4400000000000001
 40
0.4400000000000001
 40
0.4400000000000001
 40
0.4600000000000001
 40
0.4600000000000001
 40
0.4600000000000001
 40
0.4600000000000001
 40
0.4800000000000002
 40
0.4800000000000002
 40
0.4800000000000002
 40
0.4800000000000002
 40
0.5000000000000001
 40
0.5000000000000001
 40
0.5000000000000001
 40
0.5000000000000001
 40
0.5200000000000001
 40
0.5200000000000001
 40
0.5200000000000001
 40
0.5200000000000001
 40
0.5400000000000002
 40
0.5400000000000002
 40
0.5400000000000002
 40
0.5400000000000002
 40
0.5600000000000002
 40
0.5600000000000002
 40
0.5600000000000002
 40
0.5600000000000002
 40
0.5800000000000002
 40
0.5800000000000002
 40
0.5800000000000002
 40
0.5800000000000002
 40
0.6000000000000002
 40
0.6000000000000002
 40
0.6000000000000002
 40
0.6000000000000002
 40
0.6200000000000002
 40
0.6200000000000002
 40
0.6200000000000002
 40
0.6200000000000002
 40
0.6400000000000002
 40
0.6400000000000002
 40
0.6400000000000002
 40
0.6400000000000002
 40
0.6600000000000003
 40
0.6600000000000003
 40
0.6600000000000003
 40
0.6600000000000003
 40
0.6800000000000003
 40
0.6800000000000003
 40
0.6800000000000003
 40
0.6800000000000003
 40
0.7000000000000003
 40
0.7000000000000003
 40
0.7000000000000003
 40
0.7000000000000003
 40
0.7200000000000003
 40
0.7200000000000003
 40
0.7200000000000003
 40
0.7200000000000003
 40
0.7400000000000003
 40
0.7400000000000003
 40
0.7400000000000003
 40
0.7400000000000003
 40
0.7600000000000003
 40
0.7600000000000003
 40
0.7600000000000003
 40
0.7600000000000003
 40
0.7800000000000004
 40
0.7800000000000004
 40
0.7800000000000004
 40
0.7800000000000004
 40
0.8000000000000004
 40
0.8000000000000004
 40
0.8000000000000004
 40
0.8000000000000004
 40
0.8200000000000004
 40
0.8200000000000004
 40
0.8200000000000004
 40
0.8200000000000004
 40
0.8400000000000004
 40
0.8400000000000004
 40
0.8400000000000004
 40
0.8400000000000004
 40
0.8600000000000004
 40
0.8600000000000004
 40
0.8600000000000004
 40
0.8600000000000004
 40
0.8800000000000005
 40
0.8800000000000005
 40
0.8800000000000005
 40
0.8800000000000005
 40
0.9000000000000005
 40
0.9000000000000005
 40
0.9000000000000005
 40
0.9000000000000005
 40
0.9200000000000005
 40
0.9200000000000005
 40
0.9200000000000005
 40
0.9200000000000005
 40
0.9400000000000005
 40
0.9400000000000005
 40
0.9400000000000005
 40
0.9400000000000005
 40
0.9600000000000005
 40
0.9600000000000005
 40
0.9600000000000005
 40
0.9600000000000005
 40
0.9800000000000005
 40
0.9800000000000005
 40
0.9800000000000005
 40
0.9800000000000005
 40
1.0
 40
1.0
 40
1.0
 40
1.0
 10
0.1941732283464567
 20
2.039299212598425
 30
0.0
 10
0.1941732283464567
 20
2.039299212598425
 30
0.0
 10
0.2351181102362205
 20
2.039299212598425
 30
0.0
 10
0.2351181102362205
 20
2.039299212598425
 30
0.0
 10
0.2351181102362205
 20
2.039299212598425
 30
0.0
 10
0.2351181102362205
 20
2.039299212598425
 30
0.0
 10
0.2351181102362205
 20
2.032464566929134
 30
0.0
 10
0.2351181102362205
 20
2.032464566929134
 30
0.0
 10
0.2351181102362205
 20
2.032464566929134
 30
0.0
 10
0.2351181102362205
 20
2.032464566929134
 30
0.0
 10
0.2322834645669291
 20
2.032464566929134
 30
0.0
 10
0.2322834645669291
 20
2.032464566929134
 30
0.0
 10
0.2322834645669291
 20
2.032464566929134
 30
0.0
 10
0.2306456692913386
 20
2.032464566929134
 30
0.0
 10
0.2291456692913386
 20
2.032271653543307
 30
0.0
 10
0.2277834645669291
 20
2.031909448818898
 30
0.0
 10
0.2277834645669291
 20
2.031909448818898
 30
0.0
 10
0.2269803149606299
 20
2.031688976377953
 30
0.0
 10
0.2263110236220473
 20
2.031271653543307
 30
0.0
 10
0.2258110236220473
 20
2.030633858267717
 30
0.0
 10
0.2258110236220473
 20
2.030633858267717
 30
0.0
 10
0.2252834645669291
 20
2.03001968503937
 30
0.0
 10
0.2250354330708662
 20
2.029437007874016
 30
0.0
 10
0.2250354330708662
 20
2.02888188976378
 30
0.0
 10
0.2250354330708662
 20
2.02888188976378
 30
0.0
 10
0.2250354330708662
 20
2.027633858267717
 30
0.0
 10
0.2260629921259843
 20
2.025771653543307
 30
0.0
 10
0.2281181102362205
 20
2.023271653543307
 30
0.0
 10
0.2281181102362205
 20
2.023271653543307
 30
0.0
 10
0.2281181102362205
 20
2.023271653543307
 30
0.0
 10
0.239755905511811
 20
2.008633858267717
 30
0.0
 10
0.239755905511811
 20
2.008633858267717
 30
0.0
 10
0.239755905511811
 20
2.008633858267717
 30
0.0
 10
0.239755905511811
 20
2.008633858267717
 30
0.0
 10
0.2533385826771654
 20
2.023271653543307
 30
0.0
 10
0.2533385826771654
 20
2.023271653543307
 30
0.0
 10
0.2533385826771654
 20
2.023271653543307
 30
0.0
 10
0.2558385826771654
 20
2.025992125984252
 30
0.0
 10
0.2570905511811024
 20
2.02801968503937
 30
0.0
 10
0.2570905511811024
 20
2.029381889763779
 30
0.0
 10
0.2570905511811024
 20
2.029381889763779
 30
0.0
 10
0.2570905511811024
 20
2.030354330708661
 30
0.0
 10
0.2566456692913386
 20
2.031106299212599
 30
0.0
 10
0.2557834645669291
 20
2.031661417322835
 30
0.0
 10
0.2557834645669291
 20
2.031661417322835
 30
0.0
 10
0.2549212598425197
 20
2.032188976377953
 30
0.0
 10
0.2530629921259843
 20
2.032464566929134
 30
0.0
 10
0.2501732283464567
 20
2.032464566929134
 30
0.0
 10
0.2501732283464567
 20
2.032464566929134
 30
0.0
 10
0.2501732283464567
 20
2.032464566929134
 30
0.0
 10
0.2470905511811024
 20
2.032464566929134
 30
0.0
 10
0.2470905511811024
 20
2.032464566929134
 30
0.0
 10
0.2470905511811024
 20
2.032464566929134
 30
0.0
 10
0.2470905511811024
 20
2.032464566929134
 30
0.0
 10
0.2470905511811024
 20
2.039299212598425
 30
0.0
 10
0.2470905511811024
 20
2.039299212598425
 30
0.0
 10
0.2470905511811024
 20
2.039299212598425
 30
0.0
 10
0.2470905511811024
 20
2.039299212598425
 30
0.0
 10
0.2818385826771654
 20
2.039299212598425
 30
0.0
 10
0.2818385826771654
 20
2.039299212598425
 30
0.0
 10
0.2818385826771654
 20
2.039299212598425
 30
0.0
 10
0.2818385826771654
 20
2.039299212598425
 30
0.0
 10
0.2818385826771654
 20
2.032464566929134
 30
0.0
 10
0.2818385826771654
 20
2.032464566929134
 30
0.0
 10
0.2818385826771654
 20
2.032464566929134
 30
0.0
 10
0.2784212598425197
 20
2.032299212598425
 30
0.0
 10
0.2754763779527559
 20
2.031606299212599
 30
0.0
 10
0.2730078740157481
 20
2.030354330708661
 30
0.0
 10
0.2730078740157481
 20
2.030354330708661
 30
0.0
 10
0.2705354330708661
 20
2.029106299212598
 30
0.0
 10
0.2676181102362205
 20
2.026744094488189
 30
0.0
 10
0.2642559055118111
 20
2.023271653543307
 30
0.0
 10
0.2642559055118111
 20
2.023271653543307
 30
0.0
 10
0.2642559055118111
 20
2.023271653543307
 30
0.0
 10
0.2456181102362205
 20
2.003909448818898
 30
0.0
 10
0.2456181102362205
 20
2.003909448818898
 30
0.0
 10
0.2456181102362205
 20
2.003909448818898
 30
0.0
 10
0.2456181102362205
 20
2.003909448818898
 30
0.0
 10
0.2688110236220472
 20
1.977464566929134
 30
0.0
 10
0.2688110236220472
 20
1.977464566929134
 30
0.0
 10
0.2688110236220472
 20
1.977464566929134
 30
0.0
 10
0.2688110236220472
 20
1.977464566929134
 30
0.0
 10
0.2697007874015748
 20
1.976326771653543
 30
0.0
 10
0.2697007874015748
 20
1.976326771653543
 30
0.0
 10
0.2697007874015748
 20
1.976326771653543
 30
0.0
 10
0.2719763779527559
 20
1.97338188976378
 30
0.0
 10
0.2745354330708661
 20
1.97101968503937
 30
0.0
 10
0.2773661417322835
 20
1.969244094488189
 30
0.0
 10
0.2773661417322835
 20
1.969244094488189
 30
0.0
 10
0.2789212598425197
 20
1.968216535433071
 30
0.0
 10
0.2813661417322835
 20
1.967661417322835
 30
0.0
 10
0.2846732283464567
 20
1.967606299212598
 30
0.0
 10
0.2846732283464567
 20
1.967606299212598
 30
0.0
 10
0.2846732283464567
 20
1.967606299212598
 30
0.0
 10
0.2846732283464567
 20
1.960771653543307
 30
0.0
 10
0.2846732283464567
 20
1.960771653543307
 30
0.0
 10
0.2846732283464567
 20
1.960771653543307
 30
0.0
 10
0.2846732283464567
 20
1.960771653543307
 30
0.0
 10
0.2447283464566929
 20
1.960771653543307
 30
0.0
 10
0.2447283464566929
 20
1.960771653543307
 30
0.0
 10
0.2447283464566929
 20
1.960771653543307
 30
0.0
 10
0.2447283464566929
 20
1.960771653543307
 30
0.0
 10
0.2447283464566929
 20
1.967606299212598
 30
0.0
 10
0.2447283464566929
 20
1.967606299212598
 30
0.0
 10
0.2447283464566929
 20
1.967606299212598
 30
0.0
 10
0.2447283464566929
 20
1.967606299212598
 30
0.0
 10
0.2481456692913386
 20
1.967606299212598
 30
0.0
 10
0.2481456692913386
 20
1.967606299212598
 30
0.0
 10
0.2481456692913386
 20
1.967606299212598
 30
0.0
 10
0.250755905511811
 20
1.967606299212598
 30
0.0
 10
0.2523937007874016
 20
1.967771653543307
 30
0.0
 10
0.2531181102362205
 20
1.968106299212599
 30
0.0
 10
0.2531181102362205
 20
1.968106299212599
 30
0.0
 10
0.2542834645669291
 20
1.968633858267717
 30
0.0
 10
0.2548937007874016
 20
1.969551181102362
 30
0.0
 10
0.2548937007874016
 20
1.970854330708662
 30
0.0
 10
0.2548937007874016
 20
1.970854330708662
 30
0.0
 10
0.2548937007874016
 20
1.972051181102362
 30
0.0
 10
0.2535905511811024
 20
1.974244094488189
 30
0.0
 10
0.2509763779527559
 20
1.977464566929134
 30
0.0
 10
0.2509763779527559
 20
1.977464566929134
 30
0.0
 10
0.2509763779527559
 20
1.977464566929134
 30
0.0
 10
0.2361732283464567
 20
1.995606299212599
 30
0.0
 10
0.2361732283464567
 20
1.995606299212599
 30
0.0
 10
0.2361732283464567
 20
1.995606299212599
 30
0.0
 10
0.2361732283464567
 20
1.995606299212599
 30
0.0
 10
0.2196456692913386
 20
1.977464566929134
 30
0.0
 10
0.2196456692913386
 20
1.977464566929134
 30
0.0
 10
0.2196456692913386
 20
1.977464566929134
 30
0.0
 10
0.2196456692913386
 20
1.977464566929134
 30
0.0
 10
0.2180354330708662
 20
1.975492125984252
 30
0.0
 10
0.2180354330708662
 20
1.975492125984252
 30
0.0
 10
0.2180354330708662
 20
1.975492125984252
 30
0.0
 10
0.2180354330708662
 20
1.975492125984252
 30
0.0
 10
0.2171456692913386
 20
1.97451968503937
 30
0.0
 10
0.2171456692913386
 20
1.97451968503937
 30
0.0
 10
0.2171456692913386
 20
1.97451968503937
 30
0.0
 10
0.2157834645669292
 20
1.973051181102362
 30
0.0
 10
0.2150905511811024
 20
1.971771653543307
 30
0.0
 10
0.2150905511811024
 20
1.970633858267717
 30
0.0
 10
0.2150905511811024
 20
1.970633858267717
 30
0.0
 10
0.2150905511811024
 20
1.969578740157481
 30
0.0
 10
0.215507874015748
 20
1.968826771653544
 30
0.0
 10
0.2163661417322835
 20
1.968326771653543
 30
0.0
 10
0.2163661417322835
 20
1.968326771653543
 30
0.0
 10
0.2172007874015748
 20
1.967854330708662
 30
0.0
 10
0.2190905511811024
 20
1.967606299212598
 30
0.0
 10
0.222007874015748
 20
1.967606299212598
 30
0.0
 10
0.222007874015748
 20
1.967606299212598
 30
0.0
 10
0.222007874015748
 20
1.967606299212598
 30
0.0
 10
0.2252834645669291
 20
1.967606299212598
 30
0.0
 10
0.2252834645669291
 20
1.967606299212598
 30
0.0
 10
0.2252834645669291
 20
1.967606299212598
 30
0.0
 10
0.2252834645669291
 20
1.967606299212598
 30
0.0
 10
0.2252834645669291
 20
1.960771653543307
 30
0.0
 10
0.2252834645669291
 20
1.960771653543307
 30
0.0
 10
0.2252834645669291
 20
1.960771653543307
 30
0.0
 10
0.2252834645669291
 20
1.960771653543307
 30
0.0
 10
0.191007874015748
 20
1.960771653543307
 30
0.0
 10
0.191007874015748
 20
1.960771653543307
 30
0.0
 10
0.191007874015748
 20
1.960771653543307
 30
0.0
 10
0.191007874015748
 20
1.960771653543307
 30
0.0
 10
0.191007874015748
 20
1.967606299212598
 30
0.0
 10
0.191007874015748
 20
1.967606299212598
 30
0.0
 10
0.191007874015748
 20
1.967606299212598
 30
0.0
 10
0.1936732283464567
 20
1.967661417322835
 30
0.0
 10
0.195755905511811
 20
1.967937007874016
 30
0.0
 10
0.1972834645669291
 20
1.968464566929134
 30
0.0
 10
0.1972834645669291
 20
1.968464566929134
 30
0.0
 10
0.1987834645669291
 20
1.968964566929134
 30
0.0
 10
0.200255905511811
 20
1.969771653543307
 30
0.0
 10
0.2016732283464567
 20
1.970854330708662
 30
0.0
 10
0.2016732283464567
 20
1.970854330708662
 30
0.0
 10
0.2041181102362205
 20
1.972826771653544
 30
0.0
 10
0.2058661417322835
 20
1.974354330708662
 30
0.0
 10
0.2069527559055118
 20
1.975492125984252
 30
0.0
 10
0.2069527559055118
 20
1.975492125984252
 30
0.0
 10
0.2069527559055118
 20
1.975492125984252
 30
0.0
 10
0.2308110236220473
 20
1.999992125984252
 30
0.0
 10
0.2308110236220473
 20
1.999992125984252
 30
0.0
 10
0.2308110236220473
 20
1.999992125984252
 30
0.0
 10
0.2308110236220473
 20
1.999992125984252
 30
0.0
 10
0.2105354330708661
 20
2.023271653543307
 30
0.0
 10
0.2105354330708661
 20
2.023271653543307
 30
0.0
 10
0.2105354330708661
 20
2.023271653543307
 30
0.0
 10
0.2079803149606299
 20
2.026161417322835
 30
0.0
 10
0.2059803149606299
 20
2.028161417322835
 30
0.0
 10
0.2044803149606299
 20
2.029326771653544
 30
0.0
 10
0.2044803149606299
 20
2.029326771653544
 30
0.0
 10
0.2029803149606299
 20
2.030492125984252
 30
0.0
 10
0.2015354330708662
 20
2.031326771653543
 30
0.0
 10
0.2001181102362205
 20
2.031771653543307
 30
0.0
 10
0.2001181102362205
 20
2.031771653543307
 30
0.0
 10
0.1987007874015748
 20
2.032244094488189
 30
0.0
 10
0.1967283464566929
 20
2.032464566929134
 30
0.0
 10
0.1941732283464567
 20
2.032464566929134
 30
0.0
 10
0.1941732283464567
 20
2.032464566929134
 30
0.0
 10
0.1941732283464567
 20
2.032464566929134
 30
0.0
 10
0.1941732283464567
 20
2.039299212598425
 30
0.0
 10
0.1941732283464567
 20
2.039299212598425
 30
0.0
  0
SPLINE
  5
6C
330
1F
100
AcDbEntity
  8
LAYER_1
 62
   250
100
AcDbSpline
210
0.0
220
0.0
230
1.0
 70
    11
 71
     3
 72
    72
 73
    68
 74
     0
 42
0.0000000001
 43
0.0000000001
 40
0.0
 40
0.0
 40
0.0
 40
0.0
 40
0.0588235294117647
 40
0.0588235294117647
 40
0.0588235294117647
 40
0.0588235294117647
 40
0.1176470588235294
 40
0.1176470588235294
 40
0.1176470588235294
 40
0.1176470588235294
 40
0.1764705882352941
 40
0.1764705882352941
 40
0.1764705882352941
 40
0.1764705882352941
 40
0.2352941176470588
 40
0.2352941176470588
 40
0.2352941176470588
 40
0.2352941176470588
 40
0.2941176470588235
 40
0.2941176470588235
 40
0.2941176470588235
 40
0.2941176470588235
 40
0.3529411764705883
 40
0.3529411764705883
 40
0.3529411764705883
 40
0.3529411764705883
 40
0.411764705882353
 40
0.411764705882353
 40
0.411764705882353
 40
0.411764705882353
 40
0.4705882352941177
 40
0.4705882352941177
 40
0.4705882352941177
 40
0.4705882352941177
 40
0.5294117647058824
 40
0.5294117647058824
 40
0.5294117647058824
 40
0.5294117647058824
 40
0.5882352941176471
 40
0.5882352941176471
 40
0.5882352941176471
 40
0.5882352941176471
 40
0.6470588235294118
 40
0.6470588235294118
 40
0.6470588235294118
 40
0.6470588235294118
 40
0.7058823529411765
 40
0.7058823529411765
 40
0.7058823529411765
 40
0.7058823529411765
 40
0.7647058823529412
 40
0.7647058823529412
 40
0.7647058823529412
 40
0.7647058823529412
 40
0.823529411764706
 40
0.823529411764706
 40
0.823529411764706
 40
0.823529411764706
 40
0.8823529411764707
 40
0.8823529411764707
 40
0.8823529411764707
 40
0.8823529411764707
 40
0.9411764705882354
 40
0.9411764705882354
 40
0.9411764705882354
 40
0.9411764705882354
 40
1.0
 40
1.0
 40
1.0
 40
1.0
 10
0.3938110236220473
 20
2.074299212598425
 30
0.0
 10
0.3938110236220473
 20
2.074299212598425
 30
0.0
 10
0.3998937007874016
 20
2.074299212598425
 30
0.0
 10
0.3998937007874016
 20
2.074299212598425
 30
0.0
 10
0.3998937007874016
 20
2.074299212598425
 30
0.0
 10
0.3998937007874016
 20
2.074299212598425
 30
0.0
 10
0.3998937007874016
 20
1.980051181102362
 30
0.0
 10
0.3998937007874016
 20
1.980051181102362
 30
0.0
 10
0.3998937007874016
 20
1.980051181102362
 30
0.0
 10
0.3998937007874016
 20
1.975606299212598
 30
0.0
 10
0.4002007874015748
 20
1.972744094488189
 30
0.0
 10
0.4007559055118111
 20
1.971464566929134
 30
0.0
 10
0.4007559055118111
 20
1.971464566929134
 30
0.0
 10
0.4013385826771654
 20
1.970188976377953
 30
0.0
 10
0.4022559055118111
 20
1.969244094488189
 30
0.0
 10
0.4035590551181102
 20
1.96857874015748
 30
0.0
 10
0.4035590551181102
 20
1.96857874015748
 30
0.0
 10
0.4048661417322835
 20
1.967937007874016
 30
0.0
 10
0.4074488188976378
 20
1.967606299212598
 30
0.0
 10
0.4113110236220472
 20
1.967606299212598
 30
0.0
 10
0.4113110236220472
 20
1.967606299212598
 30
0.0
 10
0.4113110236220472
 20
1.967606299212598
 30
0.0
 10
0.4192834645669292
 20
1.967606299212598
 30
0.0
 10
0.4192834645669292
 20
1.967606299212598
 30
0.0
 10
0.4192834645669292
 20
1.967606299212598
 30
0.0
 10
0.4192834645669292
 20
1.967606299212598
 30
0.0
 10
0.4192834645669292
 20
1.960771653543307
 30
0.0
 10
0.4192834645669292
 20
1.960771653543307
 30
0.0
 10
0.4192834645669292
 20
1.960771653543307
 30
0.0
 10
0.4192834645669292
 20
1.960771653543307
 30
0.0
 10
0.3656456692913386
 20
1.960771653543307
 30
0.0
 10
0.3656456692913386
 20
1.960771653543307
 30
0.0
 10
0.3656456692913386
 20
1.960771653543307
 30
0.0
 10
0.3656456692913386
 20
1.960771653543307
 30
0.0
 10
0.3656456692913386
 20
1.967606299212598
 30
0.0
 10
0.3656456692913386
 20
1.967606299212598
 30
0.0
 10
0.3656456692913386
 20
1.967606299212598
 30
0.0
 10
0.3656456692913386
 20
1.967606299212598
 30
0.0
 10
0.374503937007874
 20
1.967606299212598
 30
0.0
 10
0.374503937007874
 20
1.967606299212598
 30
0.0
 10
0.374503937007874
 20
1.967606299212598
 30
0.0
 10
0.3783661417322835
 20
1.967606299212598
 30
0.0
 10
0.3809212598425197
 20
1.967937007874016
 30
0.0
 10
0.3822007874015748
 20
1.968633858267717
 30
0.0
 10
0.3822007874015748
 20
1.968633858267717
 30
0.0
 10
0.3834763779527559
 20
1.969299212598425
 30
0.0
 10
0.3844763779527559
 20
1.97038188976378
 30
0.0
 10
0.3851732283464567
 20
1.97188188976378
 30
0.0
 10
0.3851732283464567
 20
1.97188188976378
 30
0.0
 10
0.3858661417322835
 20
1.97338188976378
 30
0.0
 10
0.3862283464566929
 20
1.976106299212598
 30
0.0
 10
0.3862283464566929
 20
1.980051181102362
 30
0.0
 10
0.3862283464566929
 20
1.980051181102362
 30
0.0
 10
0.3862283464566929
 20
1.980051181102362
 30
0.0
 10
0.3862283464566929
 20
2.05751968503937
 30
0.0
 10
0.3862283464566929
 20
2.05751968503937
 30
0.0
 10
0.3862283464566929
 20
2.05751968503937
 30
0.0
 10
0.3862283464566929
 20
2.05751968503937
 30
0.0
 10
0.3656456692913386
 20
2.05751968503937
 30
0.0
 10
0.3656456692913386
 20
2.05751968503937
 30
0.0
 10
0.3656456692913386
 20
2.05751968503937
 30
0.0
 10
0.3656456692913386
 20
2.05751968503937
 30
0.0
 10
0.3656456692913386
 20
2.06451968503937
 30
0.0
 10
0.3656456692913386
 20
2.06451968503937
 30
0.0
 10
0.3656456692913386
 20
2.06451968503937
 30
0.0
 10
0.3768661417322835
 20
2.066102362204724
 30
0.0
 10
0.3862559055118111
 20
2.069354330708662
 30
0.0
 10
0.3938110236220473
 20
2.074299212598425
 30
0.0
  0
SPLINE
  5
6D
330
1F
100
AcDbEntity
  8
LAYER_1
 62
   250
100
AcDbSpline
210
0.0
220
0.0
230
1.0
 70
    11
 71
     3
 72
   132
 73
   128
 74
     0
 42
0.0000000001
 43
0.0000000001
 40
0.0
 40
0.0
 40
0.0
 40
0.0
 40
0.03125
 40
0.03125
 40
0.03125
 40
0.03125
 40
0.0625
 40
0.0625
 40
0.0625
 40
0.0625
 40
0.09375
 40
0.09375
 40
0.09375
 40
0.09375
 40
0.125
 40
0.125
 40
0.125
 40
0.125
 40
0.15625
 40
0.15625
 40
0.15625
 40
0.15625
 40
0.1875
 40
0.1875
 40
0.1875
 40
0.1875
 40
0.21875
 40
0.21875
 40
0.21875
 40
0.21875
 40
0.25
 40
0.25
 40
0.25
 40
0.25
 40
0.28125
 40
0.28125
 40
0.28125
 40
0.28125
 40
0.3125
 40
0.3125
 40
0.3125
 40
0.3125
 40
0.34375
 40
0.34375
 40
0.34375
 40
0.34375
 40
0.375
 40
0.375
 40
0.375
 40
0.375
 40
0.40625
 40
0.40625
 40
0.40625
 40
0.40625
 40
0.4375
 40
0.4375
 40
0.4375
 40
0.4375
 40
0.46875
 40
0.46875
 40
0.46875
 40
0.46875
 40
0.5
 40
0.5
 40
0.5
 40
0.5
 40
0.53125
 40
0.53125
 40
0.53125
 40
0.53125
 40
0.5625
 40
0.5625
 40
0.5625
 40
0.5625
 40
0.59375
 40
0.59375
 40
0.59375
 40
0.59375
 40
0.625
 40
0.625
 40
0.625
 40
0.625
 40
0.65625
 40
0.65625
 40
0.65625
 40
0.65625
 40
0.6875
 40
0.6875
 40
0.6875
 40
0.6875
 40
0.71875
 40
0.71875
 40
0.71875
 40
0.71875
 40
0.75
 40
0.75
 40
0.75
 40
0.75
 40
0.78125
 40
0.78125
 40
0.78125
 40
0.78125
 40
0.8125
 40
0.8125
 40
0.8125
 40
0.8125
 40
0.84375
 40
0.84375
 40
0.84375
 40
0.84375
 40
0.875
 40
0.875
 40
0.875
 40
0.875
 40
0.90625
 40
0.90625
 40
0.90625
 40
0.90625
 40
0.9375
 40
0.9375
 40
0.9375
 40
0.9375
 40
0.96875
 40
0.96875
 40
0.96875
 40
0.96875
 40
1.0
 40
1.0
 40
1.0
 40
1.0
 10
0.4635629921259843
 20
2.074299212598425
 30
0.0
 10
0.4635629921259843
 20
2.074299212598425
 30
0.0
 10
0.5141732283464567
 20
2.074299212598425
 30
0.0
 10
0.5141732283464567
 20
2.074299212598425
 30
0.0
 10
0.5141732283464567
 20
2.074299212598425
 30
0.0
 10
0.517255905511811
 20
2.074299212598425
 30
0.0
 10
0.5191456692913387
 20
2.074464566929134
 30
0.0
 10
0.5197834645669291
 20
2.074799212598425
 30
0.0
 10
0.5197834645669291
 20
2.074799212598425
 30
0.0
 10
0.5207007874015748
 20
2.075326771653543
 30
0.0
 10
0.521255905511811
 20
2.076492125984252
 30
0.0
 10
0.5214212598425198
 20
2.078271653543307
 30
0.0
 10
0.5214212598425198
 20
2.078271653543307
 30
0.0
 10
0.5214212598425198
 20
2.078271653543307
 30
0.0
 10
0.5273661417322835
 20
2.078271653543307
 30
0.0
 10
0.5273661417322835
 20
2.078271653543307
 30
0.0
 10
0.5273661417322835
 20
2.078271653543307
 30
0.0
 10
0.5273661417322835
 20
2.078271653543307
 30
0.0
 10
0.5273661417322835
 20
2.061102362204724
 30
0.0
 10
0.5273661417322835
 20
2.061102362204724
 30
0.0
 10
0.5273661417322835
 20
2.061102362204724
 30
0.0
 10
0.5273661417322835
 20
2.061102362204724
 30
0.0
 10
0.4711181102362205
 20
2.061102362204724
 30
0.0
 10
0.4711181102362205
 20
2.061102362204724
 30
0.0
 10
0.4711181102362205
 20
2.061102362204724
 30
0.0
 10
0.4711181102362205
 20
2.061102362204724
 30
0.0
 10
0.4697283464566929
 20
2.032464566929134
 30
0.0
 10
0.4697283464566929
 20
2.032464566929134
 30
0.0
 10
0.4697283464566929
 20
2.032464566929134
 30
0.0
 10
0.4720629921259843
 20
2.033133858267717
 30
0.0
 10
0.4750354330708662
 20
2.033661417322835
 30
0.0
 10
0.4786181102362205
 20
2.034106299212599
 30
0.0
 10
0.4786181102362205
 20
2.034106299212599
 30
0.0
 10
0.4832283464566929
 20
2.034633858267717
 30
0.0
 10
0.4873385826771654
 20
2.034909448818898
 30
0.0
 10
0.4909803149606299
 20
2.034909448818898
 30
0.0
 10
0.4909803149606299
 20
2.034909448818898
 30
0.0
 10
0.5000354330708662
 20
2.034909448818898
 30
0.0
 10
0.5079212598425197
 20
2.033271653543307
 30
0.0
 10
0.5146732283464567
 20
2.03001968503937
 30
0.0
 10
0.5146732283464567
 20
2.03001968503937
 30
0.0
 10
0.5213937007874016
 20
2.026771653543307
 30
0.0
 10
0.526503937007874
 20
2.022299212598425
 30
0.0
 10
0.5300039370078741
 20
2.016633858267717
 30
0.0
 10
0.5300039370078741
 20
2.016633858267717
 30
0.0
 10
0.533503937007874
 20
2.010964566929134
 30
0.0
 10
0.535255905511811
 20
2.004633858267717
 30
0.0
 10
0.535255905511811
 20
1.997633858267717
 30
0.0
 10
0.535255905511811
 20
1.997633858267717
 30
0.0
 10
0.535255905511811
 20
1.986799212598425
 30
0.0
 10
0.5311732283464568
 20
1.977606299212599
 30
0.0
 10
0.5230354330708662
 20
1.97007874015748
 30
0.0
 10
0.5230354330708662
 20
1.97007874015748
 30
0.0
 10
0.5148937007874016
 20
1.96257874015748
 30
0.0
 10
0.5045354330708661
 20
1.958826771653544
 30
0.0
 10
0.4919488188976378
 20
1.958826771653544
 30
0.0
 10
0.4919488188976378
 20
1.958826771653544
 30
0.0
 10
0.4846732283464567
 20
1.958826771653544
 30
0.0
 10
0.4781181102362205
 20
1.960133858267717
 30
0.0
 10
0.4722283464566929
 20
1.962716535433071
 30
0.0
 10
0.4722283464566929
 20
1.962716535433071
 30
0.0
 10
0.4663385826771654
 20
1.965326771653543
 30
0.0
 10
0.4617283464566929
 20
1.968771653543307
 30
0.0
 10
0.4584212598425197
 20
1.97301968503937
 30
0.0
 10
0.4584212598425197
 20
1.97301968503937
 30
0.0
 10
0.4551181102362205
 20
1.977271653543307
 30
0.0
 10
0.4534527559055118
 20
1.98101968503937
 30
0.0
 10
0.4534527559055118
 20
1.984216535433071
 30
0.0
 10
0.4534527559055118
 20
1.984216535433071
 30
0.0
 10
0.4534527559055118
 20
1.986326771653543
 30
0.0
 10
0.4541732283464567
 20
1.988161417322835
 30
0.0
 10
0.4555905511811024
 20
1.989716535433071
 30
0.0
 10
0.4555905511811024
 20
1.989716535433071
 30
0.0
 10
0.45698031496063
 20
1.991244094488189
 30
0.0
 10
0.4588110236220473
 20
1.99201968503937
 30
0.0
 10
0.4610354330708661
 20
1.99201968503937
 30
0.0
 10
0.4610354330708661
 20
1.99201968503937
 30
0.0
 10
0.4633110236220472
 20
1.99201968503937
 30
0.0
 10
0.4653110236220472
 20
1.99107874015748
 30
0.0
 10
0.4670629921259843
 20
1.989161417322835
 30
0.0
 10
0.4670629921259843
 20
1.989161417322835
 30
0.0
 10
0.4680354330708662
 20
1.988188976377953
 30
0.0
 10
0.4692007874015748
 20
1.985799212598425
 30
0.0
 10
0.4705629921259843
 20
1.98201968503937
 30
0.0
 10
0.4705629921259843
 20
1.98201968503937
 30
0.0
 10
0.4723937007874016
 20
1.976688976377953
 30
0.0
 10
0.4751456692913386
 20
1.972799212598425
 30
0.0
 10
0.4787834645669292
 20
1.970299212598425
 30
0.0
 10
0.4787834645669292
 20
1.970299212598425
 30
0.0
 10
0.4823385826771654
 20
1.967744094488189
 30
0.0
 10
0.4868661417322835
 20
1.966464566929134
 30
0.0
 10
0.4922834645669292
 20
1.966464566929134
 30
0.0
 10
0.4922834645669292
 20
1.966464566929134
 30
0.0
 10
0.4977007874015748
 20
1.966464566929134
 30
0.0
 10
0.5025354330708661
 20
1.967661417322835
 30
0.0
 10
0.506755905511811
 20
1.97001968503937
 30
0.0
 10
0.506755905511811
 20
1.97001968503937
 30
0.0
 10
0.5110078740157481
 20
1.972354330708662
 30
0.0
 10
0.5143385826771654
 20
1.975771653543307
 30
0.0
 10
0.5167834645669291
 20
1.980188976377953
 30
0.0
 10
0.5167834645669291
 20
1.980188976377953
 30
0.0
 10
0.5192283464566929
 20
1.984606299212599
 30
0.0
 10
0.5204488188976378
 20
1.98951968503937
 30
0.0
 10
0.5204488188976378
 20
1.994937007874016
 30
0.0
 10
0.5204488188976378
 20
1.994937007874016
 30
0.0
 10
0.5204488188976378
 20
2.000661417322835
 30
0.0
 10
0.5191181102362205
 20
2.005716535433071
 30
0.0
 10
0.5164763779527559
 20
2.010161417322835
 30
0.0
 10
0.5164763779527559
 20
2.010161417322835
 30
0.0
 10
0.5138661417322835
 20
2.014606299212598
 30
0.0
 10
0.5100905511811024
 20
2.018074803149606
 30
0.0
 10
0.5051732283464567
 20
2.020492125984252
 30
0.0
 10
0.5051732283464567
 20
2.020492125984252
 30
0.0
 10
0.5002559055118111
 20
2.022937007874016
 30
0.0
 10
0.4942834645669292
 20
2.024161417322835
 30
0.0
 10
0.4872283464566929
 20
2.024161417322835
 30
0.0
 10
0.4872283464566929
 20
2.024161417322835
 30
0.0
 10
0.4829488188976378
 20
2.024161417322835
 30
0.0
 10
0.4783385826771654
 20
2.023716535433071
 30
0.0
 10
0.4734488188976378
 20
2.022771653543307
 30
0.0
 10
0.4734488188976378
 20
2.022771653543307
 30
0.0
 10
0.4685354330708662
 20
2.021854330708662
 30
0.0
 10
0.4643110236220472
 20
2.020688976377953
 30
0.0
 10
0.4607834645669292
 20
2.019271653543307
 30
0.0
 10
0.4607834645669292
 20
2.019271653543307
 30
0.0
 10
0.4607834645669292
 20
2.019271653543307
 30
0.0
 10
0.4635629921259843
 20
2.074299212598425
 30
0.0
 10
0.4635629921259843
 20
2.074299212598425
 30
0.0
  0
SPLINE
  5
6E
330
1F
100
AcDbEntity
  8
LAYER_1
 62
   250
100
AcDbSpline
210
0.0
220
0.0
230
1.0
 70
    11
 71
     3
 72
    20
 73
    16
 74
     0
 42
0.0000000001
 43
0.0000000001
 40
0.0
 40
0.0
 40
0.0
 40
0.0
 40
0.25
 40
0.25
 40
0.25
 40
0.25
 40
0.5
 40
0.5
 40
0.5
 40
0.5
 40
0.75
 40
0.75
 40
0.75
 40
0.75
 40
1.0
 40
1.0
 40
1.0
 40
1.0
 10
0.6260078740157481
 20
2.080161417322835
 30
0.0
 10
0.6260078740157481
 20
2.080161417322835
 30
0.0
 10
0.5704251968503937
 20
1.924464566929134
 30
0.0
 10
0.5704251968503937
 20
1.924464566929134
 30
0.0
 10
0.5704251968503937
 20
1.924464566929134
 30
0.0
 10
0.5704251968503937
 20
1.924464566929134
 30
0.0
 10
0.5583700787401575
 20
1.924464566929134
 30
0.0
 10
0.5583700787401575
 20
1.924464566929134
 30
0.0
 10
0.5583700787401575
 20
1.924464566929134
 30
0.0
 10
0.5583700787401575
 20
1.924464566929134
 30
0.0
 10
0.6136181102362205
 20
2.080161417322835
 30
0.0
 10
0.6136181102362205
 20
2.080161417322835
 30
0.0
 10
0.6136181102362205
 20
2.080161417322835
 30
0.0
 10
0.6136181102362205
 20
2.080161417322835
 30
0.0
 10
0.6260078740157481
 20
2.080161417322835
 30
0.0
 10
0.6260078740157481
 20
2.080161417322835
 30
0.0
  0
SPLINE
  5
6F
330
1F
100
AcDbEntity
  8
LAYER_1
 62
   250
100
AcDbSpline
210
0.0
220
0.0
230
1.0
 70
    11
 71
     3
 72
    72
 73
    68
 74
     0
 42
0.0000000001
 43
0.0000000001
 40
0.0
 40
0.0
 40
0.0
 40
0.0
 40
0.0588235294117647
 40
0.0588235294117647
 40
0.0588235294117647
 40
0.0588235294117647
 40
0.1176470588235294
 40
0.1176470588235294
 40
0.1176470588235294
 40
0.1176470588235294
 40
0.1764705882352941
 40
0.1764705882352941
 40
0.1764705882352941
 40
0.1764705882352941
 40
0.2352941176470588
 40
0.2352941176470588
 40
0.2352941176470588
 40
0.2352941176470588
 40
0.2941176470588235
 40
0.2941176470588235
 40
0.2941176470588235
 40
0.2941176470588235
 40
0.3529411764705883
 40
0.3529411764705883
 40
0.3529411764705883
 40
0.3529411764705883
 40
0.411764705882353
 40
0.411764705882353
 40
0.411764705882353
 40
0.411764705882353
 40
0.4705882352941177
 40
0.4705882352941177
 40
0.4705882352941177
 40
0.4705882352941177
 40
0.5294117647058824
 40
0.5294117647058824
 40
0.5294117647058824
 40
0.5294117647058824
 40
0.5882352941176471
 40
0.5882352941176471
 40
0.5882352941176471
 40
0.5882352941176471
 40
0.6470588235294118
 40
0.6470588235294118
 40
0.6470588235294118
 40
0.6470588235294118
 40
0.7058823529411765
 40
0.7058823529411765
 40
0.7058823529411765
 40
0.7058823529411765
 40
0.7647058823529412
 40
0.7647058823529412
 40
0.7647058823529412
 40
0.7647058823529412
 40
0.823529411764706
 40
0.823529411764706
 40
0.823529411764706
 40
0.823529411764706
 40
0.8823529411764707
 40
0.8823529411764707
 40
0.8823529411764707
 40
0.8823529411764707
 40
0.9411764705882354
 40
0.9411764705882354
 40
0.9411764705882354
 40
0.9411764705882354
 40
1.0
 40
1.0
 40
1.0
 40
1.0
 10
0.7005629921259843
 20
2.074299212598425
 30
0.0
 10
0.7005629921259843
 20
2.074299212598425
 30
0.0
 10
0.7066456692913387
 20
2.074299212598425
 30
0.0
 10
0.7066456692913387
 20
2.074299212598425
 30
0.0
 10
0.7066456692913387
 20
2.074299212598425
 30
0.0
 10
0.7066456692913387
 20
2.074299212598425
 30
0.0
 10
0.7066456692913387
 20
1.980051181102362
 30
0.0
 10
0.7066456692913387
 20
1.980051181102362
 30
0.0
 10
0.7066456692913387
 20
1.980051181102362
 30
0.0
 10
0.7066456692913387
 20
1.975606299212598
 30
0.0
 10
0.7069527559055119
 20
1.972744094488189
 30
0.0
 10
0.7075078740157481
 20
1.971464566929134
 30
0.0
 10
0.7075078740157481
 20
1.971464566929134
 30
0.0
 10
0.7080905511811024
 20
1.970188976377953
 30
0.0
 10
0.7090078740157481
 20
1.969244094488189
 30
0.0
 10
0.7103110236220472
 20
1.96857874015748
 30
0.0
 10
0.7103110236220472
 20
1.96857874015748
 30
0.0
 10
0.7116181102362205
 20
1.967937007874016
 30
0.0
 10
0.7142007874015748
 20
1.967606299212598
 30
0.0
 10
0.7180629921259842
 20
1.967606299212598
 30
0.0
 10
0.7180629921259842
 20
1.967606299212598
 30
0.0
 10
0.7180629921259842
 20
1.967606299212598
 30
0.0
 10
0.7260354330708662
 20
1.967606299212598
 30
0.0
 10
0.7260354330708662
 20
1.967606299212598
 30
0.0
 10
0.7260354330708662
 20
1.967606299212598
 30
0.0
 10
0.7260354330708662
 20
1.967606299212598
 30
0.0
 10
0.7260354330708662
 20
1.960771653543307
 30
0.0
 10
0.7260354330708662
 20
1.960771653543307
 30
0.0
 10
0.7260354330708662
 20
1.960771653543307
 30
0.0
 10
0.7260354330708662
 20
1.960771653543307
 30
0.0
 10
0.6723976377952756
 20
1.960771653543307
 30
0.0
 10
0.6723976377952756
 20
1.960771653543307
 30
0.0
 10
0.6723976377952756
 20
1.960771653543307
 30
0.0
 10
0.6723976377952756
 20
1.960771653543307
 30
0.0
 10
0.6723976377952756
 20
1.967606299212598
 30
0.0
 10
0.6723976377952756
 20
1.967606299212598
 30
0.0
 10
0.6723976377952756
 20
1.967606299212598
 30
0.0
 10
0.6723976377952756
 20
1.967606299212598
 30
0.0
 10
0.681255905511811
 20
1.967606299212598
 30
0.0
 10
0.681255905511811
 20
1.967606299212598
 30
0.0
 10
0.681255905511811
 20
1.967606299212598
 30
0.0
 10
0.6851181102362205
 20
1.967606299212598
 30
0.0
 10
0.6876732283464567
 20
1.967937007874016
 30
0.0
 10
0.6889527559055119
 20
1.968633858267717
 30
0.0
 10
0.6889527559055119
 20
1.968633858267717
 30
0.0
 10
0.690228346456693
 20
1.969299212598425
 30
0.0
 10
0.691228346456693
 20
1.97038188976378
 30
0.0
 10
0.6919251968503938
 20
1.97188188976378
 30
0.0
 10
0.6919251968503938
 20
1.97188188976378
 30
0.0
 10
0.6926181102362206
 20
1.97338188976378
 30
0.0
 10
0.69298031496063
 20
1.976106299212598
 30
0.0
 10
0.69298031496063
 20
1.980051181102362
 30
0.0
 10
0.69298031496063
 20
1.980051181102362
 30
0.0
 10
0.69298031496063
 20
1.980051181102362
 30
0.0
 10
0.69298031496063
 20
2.05751968503937
 30
0.0
 10
0.69298031496063
 20
2.05751968503937
 30
0.0
 10
0.69298031496063
 20
2.05751968503937
 30
0.0
 10
0.69298031496063
 20
2.05751968503937
 30
0.0
 10
0.6723976377952756
 20
2.05751968503937
 30
0.0
 10
0.6723976377952756
 20
2.05751968503937
 30
0.0
 10
0.6723976377952756
 20
2.05751968503937
 30
0.0
 10
0.6723976377952756
 20
2.05751968503937
 30
0.0
 10
0.6723976377952756
 20
2.06451968503937
 30
0.0
 10
0.6723976377952756
 20
2.06451968503937
 30
0.0
 10
0.6723976377952756
 20
2.06451968503937
 30
0.0
 10
0.6836181102362205
 20
2.066102362204724
 30
0.0
 10
0.693007874015748
 20
2.069354330708662
 30
0.0
 10
0.7005629921259843
 20
2.074299212598425
 30
0.0
  0
SPLINE
  5
70
330
1F
100
AcDbEntity
  8
LAYER_1
 62
   250
100
AcDbSpline
210
0.0
220
0.0
230
1.0
 70
    11
 71
     3
 72
    84
 73
    80
 74
     0
 42
0.0000000001
 43
0.0000000001
 40
0.0
 40
0.0
 40
0.0
 40
0.0
 40
0.05
 40
0.05
 40
0.05
 40
0.05
 40
0.1
 40
0.1
 40
0.1
 40
0.1
 40
0.15
 40
0.15
 40
0.15
 40
0.15
 40
0.2
 40
0.2
 40
0.2
 40
0.2
 40
0.25
 40
0.25
 40
0.25
 40
0.25
 40
0.3
 40
0.3
 40
0.3
 40
0.3
 40
0.35
 40
0.35
 40
0.35
 40
0.35
 40
0.4
 40
0.4
 40
0.4
 40
0.4
 40
0.45
 40
0.45
 40
0.45
 40
0.45
 40
0.4999999999999999
 40
0.4999999999999999
 40
0.4999999999999999
 40
0.4999999999999999
 40
0.5499999999999999
 40
0.5499999999999999
 40
0.5499999999999999
 40
0.5499999999999999
 40
0.6
 40
0.6
 40
0.6
 40
0.6
 40
0.65
 40
0.65
 40
0.65
 40
0.65
 40
0.7000000000000001
 40
0.7000000000000001
 40
0.7000000000000001
 40
0.7000000000000001
 40
0.7500000000000001
 40
0.7500000000000001
 40
0.7500000000000001
 40
0.7500000000000001
 40
0.8000000000000002
 40
0.8000000000000002
 40
0.8000000000000002
 40
0.8000000000000002
 40
0.8500000000000002
 40
0.8500000000000002
 40
0.8500000000000002
 40
0.8500000000000002
 40
0.9000000000000002
 40
0.9000000000000002
 40
0.9000000000000002
 40
0.9000000000000002
 40
0.9500000000000003
 40
0.9500000000000003
 40
0.9500000000000003
 40
0.9500000000000003
 40
1.0
 40
1.0
 40
1.0
 40
1.0
 10
0.832228346456693
 20
2.076409448818898
 30
0.0
 10
0.832228346456693
 20
2.076409448818898
 30
0.0
 10
0.832228346456693
 20
2.068992125984252
 30
0.0
 10
0.832228346456693
 20
2.068992125984252
 30
0.0
 10
0.832228346456693
 20
2.068992125984252
 30
0.0
 10
0.8188425196850394
 20
2.068854330708661
 30
0.0
 10
0.808007874015748
 20
2.06688188976378
 30
0.0
 10
0.7997322834645669
 20
2.063161417322835
 30
0.0
 10
0.7997322834645669
 20
2.063161417322835
 30
0.0
 10
0.7914527559055119
 20
2.059409448818898
 30
0.0
 10
0.7853700787401575
 20
2.053799212598425
 30
0.0
 10
0.7814527559055119
 20
2.046354330708661
 30
0.0
 10
0.7814527559055119
 20
2.046354330708661
 30
0.0
 10
0.7775354330708661
 20
2.03888188976378
 30
0.0
 10
0.7753425196850394
 20
2.029688976377953
 30
0.0
 10
0.7748700787401576
 20
2.018799212598425
 30
0.0
 10
0.7748700787401576
 20
2.018799212598425
 30
0.0
 10
0.7776181102362205
 20
2.02301968503937
 30
0.0
 10
0.7804527559055119
 20
2.026326771653543
 30
0.0
 10
0.7833700787401575
 20
2.028688976377953
 30
0.0
 10
0.7833700787401575
 20
2.028688976377953
 30
0.0
 10
0.7862598425196851
 20
2.031047244094488
 30
0.0
 10
0.7896456692913386
 20
2.032854330708661
 30
0.0
 10
0.7935354330708662
 20
2.034133858267717
 30
0.0
 10
0.7935354330708662
 20
2.034133858267717
 30
0.0
 10
0.7974251968503937
 20
2.035409448818898
 30
0.0
 10
0.8016732283464567
 20
2.036047244094488
 30
0.0
 10
0.8062874015748032
 20
2.036047244094488
 30
0.0
 10
0.8062874015748032
 20
2.036047244094488
 30
0.0
 10
0.8136456692913386
 20
2.036047244094488
 30
0.0
 10
0.820228346456693
 20
2.034409448818898
 30
0.0
 10
0.82598031496063
 20
2.031161417322835
 30
0.0
 10
0.82598031496063
 20
2.031161417322835
 30
0.0
 10
0.8317283464566929
 20
2.027909448818898
 30
0.0
 10
0.8362007874015749
 20
2.023492125984252
 30
0.0
 10
0.8393976377952757
 20
2.017937007874016
 30
0.0
 10
0.8393976377952757
 20
2.017937007874016
 30
0.0
 10
0.8425905511811024
 20
2.01238188976378
 30
0.0
 10
0.8442007874015748
 20
2.005826771653543
 30
0.0
 10
0.8442007874015748
 20
1.998299212598425
 30
0.0
 10
0.8442007874015748
 20
1.998299212598425
 30
0.0
 10
0.8442007874015748
 20
1.986299212598425
 30
0.0
 10
0.8405905511811024
 20
1.97688188976378
 30
0.0
 10
0.8333700787401576
 20
1.970051181102362
 30
0.0
 10
0.8333700787401576
 20
1.970051181102362
 30
0.0
 10
0.8253976377952756
 20
1.962551181102362
 30
0.0
 10
0.8150629921259843
 20
1.958826771653544
 30
0.0
 10
0.8023700787401575
 20
1.958826771653544
 30
0.0
 10
0.8023700787401575
 20
1.958826771653544
 30
0.0
 10
0.7932007874015749
 20
1.958826771653544
 30
0.0
 10
0.78548031496063
 20
1.960716535433071
 30
0.0
 10
0.7791732283464568
 20
1.96451968503937
 30
0.0
 10
0.7791732283464568
 20
1.96451968503937
 30
0.0
 10
0.7728700787401576
 20
1.968299212598425
 30
0.0
 10
0.7678700787401576
 20
1.974106299212598
 30
0.0
 10
0.7641456692913387
 20
1.981937007874016
 30
0.0
 10
0.7641456692913387
 20
1.981937007874016
 30
0.0
 10
0.7604527559055119
 20
1.989744094488189
 30
0.0
 10
0.7585905511811024
 20
1.999409448818898
 30
0.0
 10
0.7585905511811024
 20
2.010909448818898
 30
0.0
 10
0.7585905511811024
 20
2.010909448818898
 30
0.0
 10
0.7585905511811024
 20
2.022464566929134
 30
0.0
 10
0.7605629921259843
 20
2.032716535433071
 30
0.0
 10
0.76448031496063
 20
2.041661417322835
 30
0.0
 10
0.76448031496063
 20
2.041661417322835
 30
0.0
 10
0.7684251968503937
 20
2.050602362204725
 30
0.0
 10
0.7738700787401576
 20
2.057799212598425
 30
0.0
 10
0.7808149606299213
 20
2.063216535433071
 30
0.0
 10
0.7808149606299213
 20
2.063216535433071
 30
0.0
 10
0.7877598425196851
 20
2.068661417322835
 30
0.0
 10
0.7953700787401575
 20
2.072216535433071
 30
0.0
 10
0.8036181102362205
 20
2.07388188976378
 30
0.0
 10
0.8036181102362205
 20
2.07388188976378
 30
0.0
 10
0.8118976377952756
 20
2.075574803149606
 30
0.0
 10
0.8193149606299213
 20
2.076409448818898
 30
0.0
 10
0.8258976377952756
 20
2.076409448818898
 30
0.0
 10
0.8258976377952756
 20
2.076409448818898
 30
0.0
 10
0.8258976377952756
 20
2.076409448818898
 30
0.0
 10
0.832228346456693
 20
2.076409448818898
 30
0.0
 10
0.832228346456693
 20
2.076409448818898
 30
0.0
  0
SPLINE
  5
71
330
1F
100
AcDbEntity
  8
LAYER_1
 62
   250
100
AcDbSpline
210
0.0
220
0.0
230
1.0
 70
    11
 71
     3
 72
    40
 73
    36
 74
     0
 42
0.0000000001
 43
0.0000000001
 40
0.0
 40
0.0
 40
0.0
 40
0.0
 40
0.1111111111111111
 40
0.1111111111111111
 40
0.1111111111111111
 40
0.1111111111111111
 40
0.2222222222222222
 40
0.2222222222222222
 40
0.2222222222222222
 40
0.2222222222222222
 40
0.3333333333333333
 40
0.3333333333333333
 40
0.3333333333333333
 40
0.3333333333333333
 40
0.4444444444444444
 40
0.4444444444444444
 40
0.4444444444444444
 40
0.4444444444444444
 40
0.5555555555555556
 40
0.5555555555555556
 40
0.5555555555555556
 40
0.5555555555555556
 40
0.6666666666666667
 40
0.6666666666666667
 40
0.6666666666666667
 40
0.6666666666666667
 40
0.7777777777777779
 40
0.7777777777777779
 40
0.7777777777777779
 40
0.7777777777777779
 40
0.8888888888888891
 40
0.8888888888888891
 40
0.8888888888888891
 40
0.8888888888888891
 40
1.0
 40
1.0
 40
1.0
 40
1.0
 10
0.8025354330708662
 20
2.027409448818898
 30
0.0
 10
0.7947322834645669
 20
2.027409448818898
 30
0.0
 10
0.7883149606299212
 20
2.024464566929134
 30
0.0
 10
0.7832874015748031
 20
2.018547244094488
 30
0.0
 10
0.7832874015748031
 20
2.018547244094488
 30
0.0
 10
0.7782598425196851
 20
2.012633858267717
 30
0.0
 10
0.7757598425196851
 20
2.00551968503937
 30
0.0
 10
0.7757598425196851
 20
1.997244094488189
 30
0.0
 10
0.7757598425196851
 20
1.997244094488189
 30
0.0
 10
0.7757598425196851
 20
1.99138188976378
 30
0.0
 10
0.7769803149606299
 20
1.985964566929134
 30
0.0
 10
0.7794251968503937
 20
1.980992125984252
 30
0.0
 10
0.7794251968503937
 20
1.980992125984252
 30
0.0
 10
0.7818700787401575
 20
1.97601968503937
 30
0.0
 10
0.785007874015748
 20
1.972354330708662
 30
0.0
 10
0.7888700787401575
 20
1.969937007874016
 30
0.0
 10
0.7888700787401575
 20
1.969937007874016
 30
0.0
 10
0.7927007874015748
 20
1.96751968503937
 30
0.0
 10
0.7970629921259843
 20
1.966299212598425
 30
0.0
 10
0.8018700787401575
 20
1.966299212598425
 30
0.0
 10
0.8018700787401575
 20
1.966299212598425
 30
0.0
 10
0.8093700787401575
 20
1.966299212598425
 30
0.0
 10
0.8155905511811024
 20
1.969133858267717
 30
0.0
 10
0.8205629921259843
 20
1.974799212598425
 30
0.0
 10
0.8205629921259843
 20
1.974799212598425
 30
0.0
 10
0.8255078740157481
 20
1.980464566929134
 30
0.0
 10
0.8280078740157481
 20
1.98807874015748
 30
0.0
 10
0.8280078740157481
 20
1.997633858267717
 30
0.0
 10
0.8280078740157481
 20
1.997633858267717
 30
0.0
 10
0.8280078740157481
 20
2.006744094488189
 30
0.0
 10
0.8255905511811024
 20
2.013992125984252
 30
0.0
 10
0.820759842519685
 20
2.019354330708662
 30
0.0
 10
0.820759842519685
 20
2.019354330708662
 30
0.0
 10
0.8159251968503938
 20
2.024744094488189
 30
0.0
 10
0.8098425196850394
 20
2.027409448818898
 30
0.0
 10
0.8025354330708662
 20
2.027409448818898
 30
0.0
  0
SPLINE
  5
72
330
1F
100
AcDbEntity
  8
LAYER_1
 62
   250
100
AcDbSpline
210
0.0
220
0.0
230
1.0
 70
    11
 71
     3
 72
    60
 73
    56
 74
     0
 42
0.0000000001
 43
0.0000000001
 40
0.0
 40
0.0
 40
0.0
 40
0.0
 40
0.0714285714285714
 40
0.0714285714285714
 40
0.0714285714285714
 40
0.0714285714285714
 40
0.1428571428571429
 40
0.1428571428571429
 40
0.1428571428571429
 40
0.1428571428571429
 40
0.2142857142857143
 40
0.2142857142857143
 40
0.2142857142857143
 40
0.2142857142857143
 40
0.2857142857142857
 40
0.2857142857142857
 40
0.2857142857142857
 40
0.2857142857142857
 40
0.3571428571428571
 40
0.3571428571428571
 40
0.3571428571428571
 40
0.3571428571428571
 40
0.4285714285714285
 40
0.4285714285714285
 40
0.4285714285714285
 40
0.4285714285714285
 40
0.4999999999999999
 40
0.4999999999999999
 40
0.4999999999999999
 40
0.4999999999999999
 40
0.5714285714285713
 40
0.5714285714285713
 40
0.5714285714285713
 40
0.5714285714285713
 40
0.6428571428571427
 40
0.6428571428571427
 40
0.6428571428571427
 40
0.6428571428571427
 40
0.7142857142857141
 40
0.7142857142857141
 40
0.7142857142857141
 40
0.7142857142857141
 40
0.7857142857142855
 40
0.7857142857142855
 40
0.7857142857142855
 40
0.7857142857142855
 40
0.8571428571428569
 40
0.8571428571428569
 40
0.8571428571428569
 40
0.8571428571428569
 40
0.9285714285714283
 40
0.9285714285714283
 40
0.9285714285714283
 40
0.9285714285714283
 40
1.0
 40
1.0
 40
1.0
 40
1.0
 10
0.8613700787401575
 20
2.032216535433071
 30
0.0
 10
0.8613700787401575
 20
2.032216535433071
 30
0.0
 10
0.85698031496063
 20
2.037606299212599
 30
0.0
 10
0.85698031496063
 20
2.037606299212599
 30
0.0
 10
0.85698031496063
 20
2.037606299212599
 30
0.0
 10
0.8680944881889764
 20
2.046661417322835
 30
0.0
 10
0.8736771653543307
 20
2.054216535433071
 30
0.0
 10
0.8736771653543307
 20
2.060299212598425
 30
0.0
 10
0.8736771653543307
 20
2.060299212598425
 30
0.0
 10
0.8736771653543307
 20
2.060992125984252
 30
0.0
 10
0.8736220472440945
 20
2.06188188976378
 30
0.0
 10
0.873507874015748
 20
2.062909448818898
 30
0.0
 10
0.873507874015748
 20
2.062909448818898
 30
0.0
 10
0.8725944881889765
 20
2.06251968503937
 30
0.0
 10
0.8716771653543307
 20
2.062216535433071
 30
0.0
 10
0.8708149606299213
 20
2.06201968503937
 30
0.0
 10
0.8708149606299213
 20
2.06201968503937
 30
0.0
 10
0.8699527559055118
 20
2.061799212598425
 30
0.0
 10
0.8691496062992127
 20
2.061688976377953
 30
0.0
 10
0.8683700787401575
 20
2.061688976377953
 30
0.0
 10
0.8683700787401575
 20
2.061688976377953
 30
0.0
 10
0.8657598425196851
 20
2.061688976377953
 30
0.0
 10
0.8636771653543307
 20
2.06251968503937
 30
0.0
 10
0.8621220472440945
 20
2.064216535433071
 30
0.0
 10
0.8621220472440945
 20
2.064216535433071
 30
0.0
 10
0.8605354330708662
 20
2.06588188976378
 30
0.0
 10
0.8597598425196851
 20
2.06801968503937
 30
0.0
 10
0.8597598425196851
 20
2.070633858267716
 30
0.0
 10
0.8597598425196851
 20
2.070633858267716
 30
0.0
 10
0.8597598425196851
 20
2.073188976377953
 30
0.0
 10
0.8607047244094489
 20
2.075409448818898
 30
0.0
 10
0.8625944881889764
 20
2.077299212598425
 30
0.0
 10
0.8625944881889764
 20
2.077299212598425
 30
0.0
 10
0.864507874015748
 20
2.079216535433071
 30
0.0
 10
0.8667874015748032
 20
2.080161417322835
 30
0.0
 10
0.8694251968503938
 20
2.080161417322835
 30
0.0
 10
0.8694251968503938
 20
2.080161417322835
 30
0.0
 10
0.8731220472440945
 20
2.080161417322835
 30
0.0
 10
0.8762874015748032
 20
2.078688976377953
 30
0.0
 10
0.8789251968503937
 20
2.075716535433071
 30
0.0
 10
0.8789251968503937
 20
2.075716535433071
 30
0.0
 10
0.8815354330708661
 20
2.072771653543307
 30
0.0
 10
0.8828700787401576
 20
2.068964566929134
 30
0.0
 10
0.8828700787401576
 20
2.064299212598425
 30
0.0
 10
0.8828700787401576
 20
2.064299212598425
 30
0.0
 10
0.8828700787401576
 20
2.061244094488189
 30
0.0
 10
0.882232283464567
 20
2.058047244094488
 30
0.0
 10
0.88098031496063
 20
2.054716535433071
 30
0.0
 10
0.88098031496063
 20
2.054716535433071
 30
0.0
 10
0.879732283464567
 20
2.05138188976378
 30
0.0
 10
0.8779251968503937
 20
2.048299212598425
 30
0.0
 10
0.8755354330708661
 20
2.045437007874016
 30
0.0
 10
0.8755354330708661
 20
2.045437007874016
 30
0.0
 10
0.8731496062992127
 20
2.042606299212598
 30
0.0
 10
0.8684251968503938
 20
2.038188976377953
 30
0.0
 10
0.8613700787401575
 20
2.032216535433071
 30
0.0
  0
SPLINE
  5
73
330
1F
100
AcDbEntity
  8
LAYER_1
 62
   250
100
AcDbSpline
210
0.0
220
0.0
230
1.0
 70
    11
 71
     3
 72
    60
 73
    56
 74
     0
 42
0.0000000001
 43
0.0000000001
 40
0.0
 40
0.0
 40
0.0
 40
0.0
 40
0.0714285714285714
 40
0.0714285714285714
 40
0.0714285714285714
 40
0.0714285714285714
 40
0.1428571428571429
 40
0.1428571428571429
 40
0.1428571428571429
 40
0.1428571428571429
 40
0.2142857142857143
 40
0.2142857142857143
 40
0.2142857142857143
 40
0.2142857142857143
 40
0.2857142857142857
 40
0.2857142857142857
 40
0.2857142857142857
 40
0.2857142857142857
 40
0.3571428571428571
 40
0.3571428571428571
 40
0.3571428571428571
 40
0.3571428571428571
 40
0.4285714285714285
 40
0.4285714285714285
 40
0.4285714285714285
 40
0.4285714285714285
 40
0.4999999999999999
 40
0.4999999999999999
 40
0.4999999999999999
 40
0.4999999999999999
 40
0.5714285714285713
 40
0.5714285714285713
 40
0.5714285714285713
 40
0.5714285714285713
 40
0.6428571428571427
 40
0.6428571428571427
 40
0.6428571428571427
 40
0.6428571428571427
 40
0.7142857142857141
 40
0.7142857142857141
 40
0.7142857142857141
 40
0.7142857142857141
 40
0.7857142857142855
 40
0.7857142857142855
 40
0.7857142857142855
 40
0.7857142857142855
 40
0.8571428571428569
 40
0.8571428571428569
 40
0.8571428571428569
 40
0.8571428571428569
 40
0.9285714285714283
 40
0.9285714285714283
 40
0.9285714285714283
 40
0.9285714285714283
 40
1.0
 40
1.0
 40
1.0
 40
1.0
 10
0.8904251968503938
 20
2.032216535433071
 30
0.0
 10
0.8904251968503938
 20
2.032216535433071
 30
0.0
 10
0.8860354330708662
 20
2.037606299212599
 30
0.0
 10
0.8860354330708662
 20
2.037606299212599
 30
0.0
 10
0.8860354330708662
 20
2.037606299212599
 30
0.0
 10
0.8971496062992126
 20
2.046661417322835
 30
0.0
 10
0.9027322834645669
 20
2.054216535433071
 30
0.0
 10
0.9027322834645669
 20
2.060299212598425
 30
0.0
 10
0.9027322834645669
 20
2.060299212598425
 30
0.0
 10
0.9027322834645669
 20
2.060992125984252
 30
0.0
 10
0.9026771653543307
 20
2.06188188976378
 30
0.0
 10
0.9025629921259842
 20
2.062909448818898
 30
0.0
 10
0.9025629921259842
 20
2.062909448818898
 30
0.0
 10
0.9016496062992127
 20
2.06251968503937
 30
0.0
 10
0.900732283464567
 20
2.062216535433071
 30
0.0
 10
0.8998700787401576
 20
2.06201968503937
 30
0.0
 10
0.8998700787401576
 20
2.06201968503937
 30
0.0
 10
0.8990078740157481
 20
2.061799212598425
 30
0.0
 10
0.8981771653543308
 20
2.061688976377953
 30
0.0
 10
0.8973425196850394
 20
2.061688976377953
 30
0.0
 10
0.8973425196850394
 20
2.061688976377953
 30
0.0
 10
0.8947874015748032
 20
2.061688976377953
 30
0.0
 10
0.892732283464567
 20
2.06251968503937
 30
0.0
 10
0.8911771653543308
 20
2.064216535433071
 30
0.0
 10
0.8911771653543308
 20
2.064216535433071
 30
0.0
 10
0.8895944881889765
 20
2.06588188976378
 30
0.0
 10
0.8888149606299213
 20
2.06801968503937
 30
0.0
 10
0.8888149606299213
 20
2.070633858267716
 30
0.0
 10
0.8888149606299213
 20
2.070633858267716
 30
0.0
 10
0.8888149606299213
 20
2.073188976377953
 30
0.0
 10
0.8897598425196851
 20
2.075409448818898
 30
0.0
 10
0.8916496062992126
 20
2.077299212598425
 30
0.0
 10
0.8916496062992126
 20
2.077299212598425
 30
0.0
 10
0.8935354330708661
 20
2.079216535433071
 30
0.0
 10
0.8958425196850394
 20
2.080161417322835
 30
0.0
 10
0.89848031496063
 20
2.080161417322835
 30
0.0
 10
0.89848031496063
 20
2.080161417322835
 30
0.0
 10
0.9021771653543308
 20
2.080161417322835
 30
0.0
 10
0.9053425196850394
 20
2.078688976377953
 30
0.0
 10
0.9079803149606299
 20
2.075716535433071
 30
0.0
 10
0.9079803149606299
 20
2.075716535433071
 30
0.0
 10
0.9105905511811024
 20
2.072771653543307
 30
0.0
 10
0.9119251968503938
 20
2.068964566929134
 30
0.0
 10
0.9119251968503938
 20
2.064299212598425
 30
0.0
 10
0.9119251968503938
 20
2.064299212598425
 30
0.0
 10
0.9119251968503938
 20
2.061244094488189
 30
0.0
 10
0.9112874015748032
 20
2.058047244094488
 30
0.0
 10
0.9100354330708662
 20
2.054716535433071
 30
0.0
 10
0.9100354330708662
 20
2.054716535433071
 30
0.0
 10
0.9087874015748032
 20
2.05138188976378
 30
0.0
 10
0.9069803149606299
 20
2.048299212598425
 30
0.0
 10
0.9045944881889764
 20
2.045437007874016
 30
0.0
 10
0.9045944881889764
 20
2.045437007874016
 30
0.0
 10
0.9022047244094489
 20
2.042606299212598
 30
0.0
 10
0.89748031496063
 20
2.038188976377953
 30
0.0
 10
0.8904251968503938
 20
2.032216535433071
 30
0.0
  0
ENDSEC
  0
SECTION
  2
OBJECTS
  0
DICTIONARY
  5
C
330
0
100
AcDbDictionary
  3
ACAD_GROUP
350
D
  3
ACAD_LAYOUT
350
1A
  3
ACAD_MLINESTYLE
350
17
  3
ACAD_PLOTSETTINGS
350
19
  3
ACDBHEADERROUNDTRIPXREC
350
74
  0
DICTIONARY
  5
94
330
29
100
AcDbDictionary
280
     1
  3
ACAD_XREC_ROUNDTRIP
360
95
  0
DICTIONARY
  5
D
102
{ACAD_REACTORS
330
C
102
}
330
C
100
AcDbDictionary
  0
DICTIONARY
  5
1A
102
{ACAD_REACTORS
330
C
102
}
330
C
100
AcDbDictionary
  0
DICTIONARY
  5
17
102
{ACAD_REACTORS
330
C
102
}
330
C
100
AcDbDictionary
  3
STANDARD
350
18
  0
DICTIONARY
  5
19
102
{ACAD_REACTORS
330
C
102
}
330
C
100
AcDbDictionary
  0
DICTIONARY
  5
74
102
{ACAD_REACTORS
330
C
102
}
330
C
100
AcDbDictionary
  3
CEPSNTYPE
350
7D
  3
DIMSTYLEDATA
350
93
  3
FINGERPRINTGUID
350
7E
  3
HYPERLINKBASE
350
77
  3
INSUNITS
350
7C
  3
LAYOUTDICT
350
79
  3
LWETCUNION
350
7B
  3
PLOTSETDICT
350
7A
  3
PSVPSCALE
350
80
  3
PUCSBASE
350
83
  3
PUCSORGBACK
350
89
  3
PUCSORGBOTTOM
350
85
  3
PUCSORGFRONT
350
88
  3
PUCSORGLEFT
350
86
  3
PUCSORGRIGHT
350
87
  3
PUCSORGTOP
350
84
  3
PUCSORTHOREF
350
81
  3
PUCSORTHOVIEW
350
82
  3
STYLESHEET
350
78
  3
TSTACKALIGN
350
75
  3
TSTACKSIZE
350
76
  3
UCSBASE
350
8C
  3
UCSORGBACK
350
92
  3
UCSORGBOTTOM
350
8E
  3
UCSORGFRONT
350
91
  3
UCSORGLEFT
350
8F
  3
UCSORGRIGHT
350
90
  3
UCSORGTOP
350
8D
  3
UCSORTHOREF
350
8A
  3
UCSORTHOVIEW
350
8B
  3
VERSIONGUID
350
7F
  0
XRECORD
  5
95
102
{ACAD_REACTORS
330
94
102
}
330
94
100
AcDbXrecord
102
UCS
 74
     0
 71
     1
 10
0.0
 20
0.0
 30
0.0
 10
1.0
 20
0.0
 30
0.0
 10
0.0
 20
1.0
 30
0.0
146
0.0
 79
     0
102
VIEW
281
     0
  0
MLINESTYLE
  5
18
102
{ACAD_REACTORS
330
17
102
}
330
17
100
AcDbMlineStyle
  2
Standard
 70
     0
  3

 62
   256
 51
90.0
 52
90.0
 71
     2
 49
0.5
 62
   256
  6
BYLAYER
 49
-0.5
 62
   256
  6
BYLAYER
  0
XRECORD
  5
7D
102
{ACAD_REACTORS
330
74
102
}
330
74
100
AcDbXrecord
 90
        0
  0
XRECORD
  5
93
102
{ACAD_REACTORS
330
74
102
}
330
74
100
AcDbXrecord
1000
DSTYLE
1002
{
1070
   340
340
11
1002
}
  0
XRECORD
  5
7E
102
{ACAD_REACTORS
330
74
102
}
330
74
100
AcDbXrecord
  1
{FAEB1C30-E019-11D5-929B-00C0DF256EC4}
  0
XRECORD
  5
77
102
{ACAD_REACTORS
330
74
102
}
330
74
100
AcDbXrecord
  1

  0
XRECORD
  5
7C
102
{ACAD_REACTORS
330
74
102
}
330
74
100
AcDbXrecord
 90
        1
  0
XRECORD
  5
79
102
{ACAD_REACTORS
330
74
102
}
330
74
100
AcDbXrecord
340
1A
  0
XRECORD
  5
7B
102
{ACAD_REACTORS
330
74
102
}
330
74
100
AcDbXrecord
 90
     2560
  0
XRECORD
  5
7A
102
{ACAD_REACTORS
330
74
102
}
330
74
100
AcDbXrecord
340
19
  0
XRECORD
  5
80
102
{ACAD_REACTORS
330
74
102
}
330
74
100
AcDbXrecord
 40
0.0
  0
XRECORD
  5
83
102
{ACAD_REACTORS
330
74
102
}
330
74
100
AcDbXrecord
340
0
  0
XRECORD
  5
89
102
{ACAD_REACTORS
330
74
102
}
330
74
100
AcDbXrecord
 10
0.0
 20
0.0
 30
0.0
  0
XRECORD
  5
85
102
{ACAD_REACTORS
330
74
102
}
330
74
100
AcDbXrecord
 10
0.0
 20
0.0
 30
0.0
  0
XRECORD
  5
88
102
{ACAD_REACTORS
330
74
102
}
330
74
100
AcDbXrecord
 10
0.0
 20
0.0
 30
0.0
  0
XRECORD
  5
86
102
{ACAD_REACTORS
330
74
102
}
330
74
100
AcDbXrecord
 10
0.0
 20
0.0
 30
0.0
  0
XRECORD
  5
87
102
{ACAD_REACTORS
330
74
102
}
330
74
100
AcDbXrecord
 10
0.0
 20
0.0
 30
0.0
  0
XRECORD
  5
84
102
{ACAD_REACTORS
330
74
102
}
330
74
100
AcDbXrecord
 10
0.0
 20
0.0
 30
0.0
  0
XRECORD
  5
81
102
{ACAD_REACTORS
330
74
102
}
330
74
100
AcDbXrecord
340
0
  0
XRECORD
  5
82
102
{ACAD_REACTORS
330
74
102
}
330
74
100
AcDbXrecord
 70
     0
  0
XRECORD
  5
78
102
{ACAD_REACTORS
330
74
102
}
330
74
100
AcDbXrecord
  1

  0
XRECORD
  5
75
102
{ACAD_REACTORS
330
74
102
}
330
74
100
AcDbXrecord
 90
        1
  0
XRECORD
  5
76
102
{ACAD_REACTORS
330
74
102
}
330
74
100
AcDbXrecord
 90
       70
  0
XRECORD
  5
8C
102
{ACAD_REACTORS
330
74
102
}
330
74
100
AcDbXrecord
340
0
  0
XRECORD
  5
92
102
{ACAD_REACTORS
330
74
102
}
330
74
100
AcDbXrecord
 10
0.0
 20
0.0
 30
0.0
  0
XRECORD
  5
8E
102
{ACAD_REACTORS
330
74
102
}
330
74
100
AcDbXrecord
 10
0.0
 20
0.0
 30
0.0
  0
XRECORD
  5
91
102
{ACAD_REACTORS
330
74
102
}
330
74
100
AcDbXrecord
 10
0.0
 20
0.0
 30
0.0
  0
XRECORD
  5
8F
102
{ACAD_REACTORS
330
74
102
}
330
74
100
AcDbXrecord
 10
0.0
 20
0.0
 30
0.0
  0
XRECORD
  5
90
102
{ACAD_REACTORS
330
74
102
}
330
74
100
AcDbXrecord
 10
0.0
 20
0.0
 30
0.0
  0
XRECORD
  5
8D
102
{ACAD_REACTORS
330
74
102
}
330
74
100
AcDbXrecord
 10
0.0
 20
0.0
 30
0.0
  0
XRECORD
  5
8A
102
{ACAD_REACTORS
330
74
102
}
330
74
100
AcDbXrecord
340
0
  0
XRECORD
  5
8B
102
{ACAD_REACTORS
330
74
102
}
330
74
100
AcDbXrecord
 70
     0
  0
XRECORD
  5
7F
102
{ACAD_REACTORS
330
74
102
}
330
74
100
AcDbXrecord
  1
{FAEB1C32-E019-11D5-929B-00C0DF256EC4}
  0
ENDSEC
  0
EOF
