  0
SECTION
  2
HEADER
  9
$ACADVER
  1
AC1014
  9
$ACADMAINTVER
 70
     9
  9
$DWGCODEPAGE
  3
ANSI_1252
  9
$INSBASE
 10
0.0
 20
0.0
 30
0.0
  9
$EXTMIN
 10
-2.151153543307087
 20
1.487724409448819
 30
0.0
  9
$EXTMAX
 10
2.550763779527559
 20
3.830492125984252
 30
0.0
  9
$LIMMIN
 10
0.0
 20
0.0
  9
$LIMMAX
 10
12.0
 20
9.0
  9
$ORTHOMODE
 70
     0
  9
$REGENMODE
 70
     1
  9
$FILLMODE
 70
     1
  9
$QTEXTMODE
 70
     0
  9
$MIRRTEXT
 70
     1
  9
$DRAGMODE
 70
     2
  9
$LTSCALE
 40
1.0
  9
$OSMODE
 70
    37
  9
$ATTMODE
 70
     1
  9
$TEXTSIZE
 40
0.2
  9
$TRACEWID
 40
0.05
  9
$TEXTSTYLE
  7
STANDARD
  9
$CLAYER
  8
0
  9
$CELTYPE
  6
BYLAYER
  9
$CECOLOR
 62
   256
  9
$CELTSCALE
 40
1.0
  9
$DELOBJ
 70
     1
  9
$DISPSILH
 70
     0
  9
$DIMSCALE
 40
1.0
  9
$DIMASZ
 40
0.18
  9
$DIMEXO
 40
0.0625
  9
$DIMDLI
 40
0.38
  9
$DIMRND
 40
0.0
  9
$DIMDLE
 40
0.0
  9
$DIMEXE
 40
0.18
  9
$DIMTP
 40
0.0
  9
$DIMTM
 40
0.0
  9
$DIMTXT
 40
0.18
  9
$DIMCEN
 40
0.09
  9
$DIMTSZ
 40
0.0
  9
$DIMTOL
 70
     0
  9
$DIMLIM
 70
     0
  9
$DIMTIH
 70
     1
  9
$DIMTOH
 70
     1
  9
$DIMSE1
 70
     0
  9
$DIMSE2
 70
     0
  9
$DIMTAD
 70
     0
  9
$DIMZIN
 70
     0
  9
$DIMBLK
  1

  9
$DIMASO
 70
     1
  9
$DIMSHO
 70
     1
  9
$DIMPOST
  1

  9
$DIMAPOST
  1

  9
$DIMALT
 70
     0
  9
$DIMALTD
 70
     2
  9
$DIMALTF
 40
25.4
  9
$DIMLFAC
 40
1.0
  9
$DIMTOFL
 70
     0
  9
$DIMTVP
 40
0.0
  9
$DIMTIX
 70
     0
  9
$DIMSOXD
 70
     0
  9
$DIMSAH
 70
     0
  9
$DIMBLK1
  1

  9
$DIMBLK2
  1

  9
$DIMSTYLE
  2
STANDARD
  9
$DIMCLRD
 70
     0
  9
$DIMCLRE
 70
     0
  9
$DIMCLRT
 70
     0
  9
$DIMTFAC
 40
1.0
  9
$DIMGAP
 40
0.09
  9
$DIMJUST
 70
     0
  9
$DIMSD1
 70
     0
  9
$DIMSD2
 70
     0
  9
$DIMTOLJ
 70
     1
  9
$DIMTZIN
 70
     0
  9
$DIMALTZ
 70
     0
  9
$DIMALTTZ
 70
     0
  9
$DIMFIT
 70
     3
  9
$DIMUPT
 70
     0
  9
$DIMUNIT
 70
     2
  9
$DIMDEC
 70
     4
  9
$DIMTDEC
 70
     4
  9
$DIMALTU
 70
     2
  9
$DIMALTTD
 70
     2
  9
$DIMTXSTY
  7
STANDARD
  9
$DIMAUNIT
 70
     0
  9
$LUNITS
 70
     2
  9
$LUPREC
 70
     4
  9
$SKETCHINC
 40
0.1
  9
$FILLETRAD
 40
0.5
  9
$AUNITS
 70
     0
  9
$AUPREC
 70
     0
  9
$MENU
  1
.
  9
$ELEVATION
 40
0.0
  9
$PELEVATION
 40
0.0
  9
$THICKNESS
 40
0.0
  9
$LIMCHECK
 70
     0
  9
$CHAMFERA
 40
0.5
  9
$CHAMFERB
 40
0.5
  9
$CHAMFERC
 40
1.0
  9
$CHAMFERD
 40
0.0
  9
$SKPOLY
 70
     0
  9
$TDCREATE
 40
2454120.488832106
  9
$TDUPDATE
 40
2454120.488832118
  9
$TDINDWG
 40
0.0000000116
  9
$TDUSRTIMER
 40
0.0000000116
  9
$USRTIMER
 70
     1
  9
$ANGBASE
 50
0.0
  9
$ANGDIR
 70
     0
  9
$PDMODE
 70
     0
  9
$PDSIZE
 40
0.0
  9
$PLINEWID
 40
0.0
  9
$COORDS
 70
     1
  9
$SPLFRAME
 70
     0
  9
$SPLINETYPE
 70
     6
  9
$SPLINESEGS
 70
     8
  9
$ATTDIA
 70
     0
  9
$ATTREQ
 70
     1
  9
$HANDLING
 70
     1
  9
$HANDSEED
  5
CE
  9
$SURFTAB1
 70
     6
  9
$SURFTAB2
 70
     6
  9
$SURFTYPE
 70
     6
  9
$SURFU
 70
     6
  9
$SURFV
 70
     6
  9
$UCSNAME
  2

  9
$UCSORG
 10
0.0
 20
0.0
 30
0.0
  9
$UCSXDIR
 10
1.0
 20
0.0
 30
0.0
  9
$UCSYDIR
 10
0.0
 20
1.0
 30
0.0
  9
$PUCSNAME
  2

  9
$PUCSORG
 10
0.0
 20
0.0
 30
0.0
  9
$PUCSXDIR
 10
1.0
 20
0.0
 30
0.0
  9
$PUCSYDIR
 10
0.0
 20
1.0
 30
0.0
  9
$USERI1
 70
     0
  9
$USERI2
 70
     0
  9
$USERI3
 70
     0
  9
$USERI4
 70
     0
  9
$USERI5
 70
     0
  9
$USERR1
 40
0.0
  9
$USERR2
 40
0.0
  9
$USERR3
 40
0.0
  9
$USERR4
 40
0.0
  9
$USERR5
 40
0.0
  9
$WORLDVIEW
 70
     1
  9
$SHADEDGE
 70
     3
  9
$SHADEDIF
 70
    70
  9
$TILEMODE
 70
     1
  9
$MAXACTVP
 70
    64
  9
$PINSBASE
 10
0.0
 20
0.0
 30
0.0
  9
$PLIMCHECK
 70
     0
  9
$PEXTMIN
 10
1.000000000000000E+20
 20
1.000000000000000E+20
 30
1.000000000000000E+20
  9
$PEXTMAX
 10
-1.000000000000000E+20
 20
-1.000000000000000E+20
 30
-1.000000000000000E+20
  9
$PLIMMIN
 10
0.0
 20
0.0
  9
$PLIMMAX
 10
12.0
 20
9.0
  9
$UNITMODE
 70
     0
  9
$VISRETAIN
 70
     1
  9
$PLINEGEN
 70
     0
  9
$PSLTSCALE
 70
     1
  9
$TREEDEPTH
 70
  3020
  9
$PICKSTYLE
 70
     1
  9
$CMLSTYLE
  2
STANDARD
  9
$CMLJUST
 70
     0
  9
$CMLSCALE
 40
1.0
  9
$PROXYGRAPHICS
 70
     1
  9
$MEASUREMENT
 70
     0
  0
ENDSEC
  0
SECTION
  2
CLASSES
  0
CLASS
  1
ACDBDICTIONARYWDFLT
  2
AcDbDictionaryWithDefault
  3
ObjectDBX Classes
 90
        0
280
     0
281
     0
  0
CLASS
  1
XRECORD
  2
AcDbXrecord
  3
AutoCAD 2000
 90
        0
280
     0
281
     0
  0
CLASS
  1
LWPOLYLINE
  2
AcDbPolyline
  3
AutoCAD 2000
 90
        0
280
     0
281
     1
  0
CLASS
  1
HATCH
  2
AcDbHatch
  3
AutoCAD 2000
 90
        0
280
     0
281
     1
  0
CLASS
  1
ACDBPLACEHOLDER
  2
AcDbPlaceHolder
  3
ObjectDBX Classes
 90
        0
280
     0
281
     0
  0
CLASS
  1
LAYOUT
  2
AcDbLayout
  3
ObjectDBX Classes
 90
        0
280
     0
281
     0
  0
ENDSEC
  0
SECTION
  2
TABLES
  0
TABLE
  2
VPORT
  5
8
330
0
100
AcDbSymbolTable
 70
     2
  0
VPORT
  5
29
102
{ACAD_XDICTIONARY
360
CC
102
}
330
8
100
AcDbSymbolTableRecord
100
AcDbViewportTableRecord
  2
*ACTIVE
 70
     0
 10
0.0
 20
0.0
 11
1.0
 21
1.0
 12
10.42990654205607
 22
4.5
 13
0.0
 23
0.0
 14
0.5
 24
0.5
 15
0.5
 25
0.5
 16
0.0
 26
0.0
 36
1.0
 17
0.0
 27
0.0
 37
0.0
 40
9.0
 41
1.972972972850329
 42
50.0
 43
0.0
 44
0.0
 50
0.0
 51
0.0
 71
     0
 72
   100
 73
     1
 74
     3
 75
     0
 76
     0
 77
     0
 78
     0
  0
ENDTAB
  0
TABLE
  2
LTYPE
  5
5
330
0
100
AcDbSymbolTable
 70
     1
  0
LTYPE
  5
14
330
5
100
AcDbSymbolTableRecord
100
AcDbLinetypeTableRecord
  2
BYBLOCK
 70
     0
  3

 72
    65
 73
     0
 40
0.0
  0
LTYPE
  5
15
330
5
100
AcDbSymbolTableRecord
100
AcDbLinetypeTableRecord
  2
BYLAYER
 70
     0
  3

 72
    65
 73
     0
 40
0.0
  0
LTYPE
  5
16
330
5
100
AcDbSymbolTableRecord
100
AcDbLinetypeTableRecord
  2
CONTINUOUS
 70
     0
  3
Solid line
 72
    65
 73
     0
 40
0.0
  0
ENDTAB
  0
TABLE
  2
LAYER
  5
2
330
0
100
AcDbSymbolTable
 70
     2
  0
LAYER
  5
10
330
2
100
AcDbSymbolTableRecord
100
AcDbLayerTableRecord
  2
0
 70
     0
 62
     7
  6
CONTINUOUS
  0
LAYER
  5
2B
330
2
100
AcDbSymbolTableRecord
100
AcDbLayerTableRecord
  2
LAYER_1
 70
     0
 62
     7
  6
CONTINUOUS
  0
ENDTAB
  0
TABLE
  2
STYLE
  5
3
330
0
100
AcDbSymbolTable
 70
     1
  0
STYLE
  5
11
330
3
100
AcDbSymbolTableRecord
100
AcDbTextStyleTableRecord
  2
STANDARD
 70
     0
 40
0.0
 41
1.0
 50
0.0
 71
     0
 42
0.2
  3
txt
  4

  0
ENDTAB
  0
TABLE
  2
VIEW
  5
6
330
0
100
AcDbSymbolTable
 70
     0
  0
ENDTAB
  0
TABLE
  2
UCS
  5
7
330
0
100
AcDbSymbolTable
 70
     0
  0
ENDTAB
  0
TABLE
  2
APPID
  5
9
330
0
100
AcDbSymbolTable
 70
     2
  0
APPID
  5
12
330
9
100
AcDbSymbolTableRecord
100
AcDbRegAppTableRecord
  2
ACAD
 70
     0
  0
APPID
  5
2A
330
9
100
AcDbSymbolTableRecord
100
AcDbRegAppTableRecord
  2
ODA
 70
     0
  0
ENDTAB
  0
TABLE
  2
DIMSTYLE
  5
A
330
0
100
AcDbSymbolTable
 70
     1
  0
DIMSTYLE
105
27
330
A
100
AcDbSymbolTableRecord
100
AcDbDimStyleTableRecord
  2
STANDARD
 70
     0
  3

  4

  5

  6

  7

 40
1.0
 41
0.18
 42
0.0625
 43
0.38
 44
0.18
 45
0.0
 46
0.0
 47
0.0
 48
0.0
140
0.18
141
0.09
142
0.0
143
25.4
144
1.0
145
0.0
146
1.0
147
0.09
 71
     0
 72
     0
 73
     1
 74
     1
 75
     0
 76
     0
 77
     0
 78
     0
170
     0
171
     2
172
     0
173
     0
174
     0
175
     0
176
     0
177
     0
178
     0
270
     2
271
     4
272
     4
273
     2
274
     2
340
11
275
     0
280
     0
281
     0
282
     0
283
     1
284
     0
285
     0
286
     0
287
     3
288
     0
  0
ENDTAB
  0
TABLE
  2
BLOCK_RECORD
  5
1
330
0
100
AcDbSymbolTable
 70
     1
  0
BLOCK_RECORD
  5
1F
330
1
100
AcDbSymbolTableRecord
100
AcDbBlockTableRecord
  2
*MODEL_SPACE
  0
BLOCK_RECORD
  5
1B
330
1
100
AcDbSymbolTableRecord
100
AcDbBlockTableRecord
  2
*PAPER_SPACE
  0
ENDTAB
  0
ENDSEC
  0
SECTION
  2
BLOCKS
  0
BLOCK
  5
20
330
1F
100
AcDbEntity
  8
0
100
AcDbBlockBegin
  2
*MODEL_SPACE
 70
     0
 71
     0
 10
0.0
 20
0.0
 30
0.0
  3
*MODEL_SPACE
  1

  0
ENDBLK
  5
21
330
1F
100
AcDbEntity
  8
0
100
AcDbBlockEnd
  0
BLOCK
  5
1C
330
1B
100
AcDbEntity
 67
     1
  8
0
100
AcDbBlockBegin
  2
*PAPER_SPACE
 70
     0
 71
     0
 10
0.0
 20
0.0
 30
0.0
  3
*PAPER_SPACE
  1

  0
ENDBLK
  5
1D
330
1B
100
AcDbEntity
 67
     1
  8
0
100
AcDbBlockEnd
  0
ENDSEC
  0
SECTION
  2
ENTITIES
  0
SPLINE
  5
2C
330
1F
100
AcDbEntity
  8
LAYER_1
 62
     7
100
AcDbSpline
210
0.0
220
0.0
230
1.0
 70
    11
 71
     3
 72
    28
 73
    24
 74
     0
 42
0.0000000001
 43
0.0000000001
 40
0.0
 40
0.0
 40
0.0
 40
0.0
 40
0.1666666666666667
 40
0.1666666666666667
 40
0.1666666666666667
 40
0.1666666666666667
 40
0.3333333333333333
 40
0.3333333333333333
 40
0.3333333333333333
 40
0.3333333333333333
 40
0.5
 40
0.5
 40
0.5
 40
0.5
 40
0.6666666666666666
 40
0.6666666666666666
 40
0.6666666666666666
 40
0.6666666666666666
 40
0.8333333333333333
 40
0.8333333333333333
 40
0.8333333333333333
 40
0.8333333333333333
 40
1.0
 40
1.0
 40
1.0
 40
1.0
 10
-0.7892992125984253
 20
1.948661417322835
 30
0.0
 10
-0.7892992125984253
 20
1.948661417322835
 30
0.0
 10
-0.6501220472440945
 20
2.276909448818898
 30
0.0
 10
-0.6501220472440945
 20
2.276909448818898
 30
0.0
 10
-0.6501220472440945
 20
2.276909448818898
 30
0.0
 10
-0.6501220472440945
 20
2.276909448818898
 30
0.0
 10
-0.6501220472440945
 20
2.321551181102362
 30
0.0
 10
-0.6501220472440945
 20
2.321551181102362
 30
0.0
 10
-0.6501220472440945
 20
2.321551181102362
 30
0.0
 10
-1.023011811023622
 20
2.347811023622048
 30
0.0
 10
-1.275106299212599
 20
2.44759842519685
 30
0.0
 10
-1.367015748031496
 20
2.804732283464567
 30
0.0
 10
-1.367015748031496
 20
2.804732283464567
 30
0.0
 10
-1.367015748031496
 20
2.804732283464567
 30
0.0
 10
-2.149653543307087
 20
2.804732283464567
 30
0.0
 10
-2.149653543307087
 20
2.804732283464567
 30
0.0
 10
-2.149653543307087
 20
2.804732283464567
 30
0.0
 10
-2.149653543307087
 20
2.804732283464567
 30
0.0
 10
-2.149653543307087
 20
1.948661417322835
 30
0.0
 10
-2.149653543307087
 20
1.948661417322835
 30
0.0
 10
-2.149653543307087
 20
1.948661417322835
 30
0.0
 10
-2.149653543307087
 20
1.948661417322835
 30
0.0
 10
-0.7892992125984253
 20
1.948661417322835
 30
0.0
 10
-0.7892992125984253
 20
1.948661417322835
 30
0.0
  0
SPLINE
  5
2D
330
1F
100
AcDbEntity
  8
LAYER_1
 62
   250
100
AcDbSpline
210
0.0
220
0.0
230
1.0
 70
    11
 71
     3
 72
   104
 73
   100
 74
     0
 42
0.0000000001
 43
0.0000000001
 40
0.0
 40
0.0
 40
0.0
 40
0.0
 40
0.04
 40
0.04
 40
0.04
 40
0.04
 40
0.08
 40
0.08
 40
0.08
 40
0.08
 40
0.12
 40
0.12
 40
0.12
 40
0.12
 40
0.16
 40
0.16
 40
0.16
 40
0.16
 40
0.2
 40
0.2
 40
0.2
 40
0.2
 40
0.24
 40
0.24
 40
0.24
 40
0.24
 40
0.28
 40
0.28
 40
0.28
 40
0.28
 40
0.32
 40
0.32
 40
0.32
 40
0.32
 40
0.36
 40
0.36
 40
0.36
 40
0.36
 40
0.4
 40
0.4
 40
0.4
 40
0.4
 40
0.44
 40
0.44
 40
0.44
 40
0.44
 40
0.4799999999999999
 40
0.4799999999999999
 40
0.4799999999999999
 40
0.4799999999999999
 40
0.5199999999999999
 40
0.5199999999999999
 40
0.5199999999999999
 40
0.5199999999999999
 40
0.5599999999999999
 40
0.5599999999999999
 40
0.5599999999999999
 40
0.5599999999999999
 40
0.6
 40
0.6
 40
0.6
 40
0.6
 40
0.64
 40
0.64
 40
0.64
 40
0.64
 40
0.6800000000000001
 40
0.6800000000000001
 40
0.6800000000000001
 40
0.6800000000000001
 40
0.7200000000000001
 40
0.7200000000000001
 40
0.7200000000000001
 40
0.7200000000000001
 40
0.7600000000000001
 40
0.7600000000000001
 40
0.7600000000000001
 40
0.7600000000000001
 40
0.8000000000000002
 40
0.8000000000000002
 40
0.8000000000000002
 40
0.8000000000000002
 40
0.8400000000000002
 40
0.8400000000000002
 40
0.8400000000000002
 40
0.8400000000000002
 40
0.8800000000000002
 40
0.8800000000000002
 40
0.8800000000000002
 40
0.8800000000000002
 40
0.9200000000000003
 40
0.9200000000000003
 40
0.9200000000000003
 40
0.9200000000000003
 40
0.9600000000000003
 40
0.9600000000000003
 40
0.9600000000000003
 40
0.9600000000000003
 40
1.0
 40
1.0
 40
1.0
 40
1.0
 10
-1.768492125984252
 20
1.82505905511811
 30
0.0
 10
-1.768492125984252
 20
1.82505905511811
 30
0.0
 10
-1.71451968503937
 20
1.82505905511811
 30
0.0
 10
-1.71451968503937
 20
1.82505905511811
 30
0.0
 10
-1.71451968503937
 20
1.82505905511811
 30
0.0
 10
-1.701350393700787
 20
1.82505905511811
 30
0.0
 10
-1.692322834645669
 20
1.824448818897638
 30
0.0
 10
-1.687437007874016
 20
1.823251968503937
 30
0.0
 10
-1.687437007874016
 20
1.823251968503937
 30
0.0
 10
-1.680212598425197
 20
1.821531496062992
 30
0.0
 10
-1.67451968503937
 20
1.818393700787402
 30
0.0
 10
-1.670295275590551
 20
1.813834645669291
 30
0.0
 10
-1.670295275590551
 20
1.813834645669291
 30
0.0
 10
-1.666102362204724
 20
1.809279527559055
 30
0.0
 10
-1.663992125984252
 20
1.803779527559055
 30
0.0
 10
-1.663992125984252
 20
1.797393700787402
 30
0.0
 10
-1.663992125984252
 20
1.797393700787402
 30
0.0
 10
-1.663992125984252
 20
1.792779527559055
 30
0.0
 10
-1.665102362204725
 20
1.788641732283465
 30
0.0
 10
-1.667322834645669
 20
1.784976377952756
 30
0.0
 10
-1.667322834645669
 20
1.784976377952756
 30
0.0
 10
-1.669547244094488
 20
1.781307086614173
 30
0.0
 10
-1.672795275590551
 20
1.778169291338583
 30
0.0
 10
-1.67701968503937
 20
1.775586614173228
 30
0.0
 10
-1.67701968503937
 20
1.775586614173228
 30
0.0
 10
-1.679740157480315
 20
1.773893700787402
 30
0.0
 10
-1.683409448818898
 20
1.772448818897638
 30
0.0
 10
-1.688074803149607
 20
1.771251968503937
 30
0.0
 10
-1.688074803149607
 20
1.771251968503937
 30
0.0
 10
-1.682157480314961
 20
1.770169291338583
 30
0.0
 10
-1.677657480314961
 20
1.768866141732284
 30
0.0
 10
-1.674574803149606
 20
1.767366141732284
 30
0.0
 10
-1.674574803149606
 20
1.767366141732284
 30
0.0
 10
-1.669909448818898
 20
1.765086614173228
 30
0.0
 10
-1.666212598425197
 20
1.761838582677165
 30
0.0
 10
-1.66351968503937
 20
1.757586614173228
 30
0.0
 10
-1.66351968503937
 20
1.757586614173228
 30
0.0
 10
-1.660795275590551
 20
1.753366141732283
 30
0.0
 10
-1.659437007874016
 20
1.748586614173229
 30
0.0
 10
-1.659437007874016
 20
1.743279527559055
 30
0.0
 10
-1.659437007874016
 20
1.743279527559055
 30
0.0
 10
-1.659437007874016
 20
1.738114173228347
 30
0.0
 10
-1.660767716535433
 20
1.733338582677166
 30
0.0
 10
-1.663437007874016
 20
1.728948818897638
 30
0.0
 10
-1.663437007874016
 20
1.728948818897638
 30
0.0
 10
-1.666074803149606
 20
1.72455905511811
 30
0.0
 10
-1.669850393700787
 20
1.720948818897638
 30
0.0
 10
-1.674685039370079
 20
1.718114173228347
 30
0.0
 10
-1.674685039370079
 20
1.718114173228347
 30
0.0
 10
-1.679547244094488
 20
1.715311023622047
 30
0.0
 10
-1.685212598425197
 20
1.713503937007874
 30
0.0
 10
-1.691657480314961
 20
1.712696850393701
 30
0.0
 10
-1.691657480314961
 20
1.712696850393701
 30
0.0
 10
-1.698129921259843
 20
1.71192125984252
 30
0.0
 10
-1.704767716535433
 20
1.711531496062992
 30
0.0
 10
-1.711602362204725
 20
1.711531496062992
 30
0.0
 10
-1.711602362204725
 20
1.711531496062992
 30
0.0
 10
-1.711602362204725
 20
1.711531496062992
 30
0.0
 10
-1.768492125984252
 20
1.711531496062992
 30
0.0
 10
-1.768492125984252
 20
1.711531496062992
 30
0.0
 10
-1.768492125984252
 20
1.711531496062992
 30
0.0
 10
-1.768492125984252
 20
1.711531496062992
 30
0.0
 10
-1.768492125984252
 20
1.718366141732284
 30
0.0
 10
-1.768492125984252
 20
1.718366141732284
 30
0.0
 10
-1.768492125984252
 20
1.718366141732284
 30
0.0
 10
-1.768492125984252
 20
1.718366141732284
 30
0.0
 10
-1.764657480314961
 20
1.718366141732284
 30
0.0
 10
-1.764657480314961
 20
1.718366141732284
 30
0.0
 10
-1.764657480314961
 20
1.718366141732284
 30
0.0
 10
-1.76096062992126
 20
1.718366141732284
 30
0.0
 10
-1.75846062992126
 20
1.718948818897638
 30
0.0
 10
-1.757102362204724
 20
1.720086614173229
 30
0.0
 10
-1.757102362204724
 20
1.720086614173229
 30
0.0
 10
-1.755129921259843
 20
1.721641732283465
 30
0.0
 10
-1.754157480314961
 20
1.724251968503937
 30
0.0
 10
-1.754157480314961
 20
1.727893700787402
 30
0.0
 10
-1.754157480314961
 20
1.727893700787402
 30
0.0
 10
-1.754157480314961
 20
1.727893700787402
 30
0.0
 10
-1.754157480314961
 20
1.806751968503937
 30
0.0
 10
-1.754157480314961
 20
1.806751968503937
 30
0.0
 10
-1.754157480314961
 20
1.806751968503937
 30
0.0
 10
-1.754157480314961
 20
1.810448818897638
 30
0.0
 10
-1.75446062992126
 20
1.812948818897638
 30
0.0
 10
-1.755047244094488
 20
1.814307086614173
 30
0.0
 10
-1.755047244094488
 20
1.814307086614173
 30
0.0
 10
-1.755657480314961
 20
1.815669291338583
 30
0.0
 10
-1.756547244094488
 20
1.816641732283465
 30
0.0
 10
-1.757740157480315
 20
1.817251968503937
 30
0.0
 10
-1.757740157480315
 20
1.817251968503937
 30
0.0
 10
-1.758933070866142
 20
1.817834645669291
 30
0.0
 10
-1.761240157480315
 20
1.818141732283465
 30
0.0
 10
-1.764657480314961
 20
1.818141732283465
 30
0.0
 10
-1.764657480314961
 20
1.818141732283465
 30
0.0
 10
-1.764657480314961
 20
1.818141732283465
 30
0.0
 10
-1.768492125984252
 20
1.818141732283465
 30
0.0
 10
-1.768492125984252
 20
1.818141732283465
 30
0.0
 10
-1.768492125984252
 20
1.818141732283465
 30
0.0
 10
-1.768492125984252
 20
1.818141732283465
 30
0.0
 10
-1.768492125984252
 20
1.82505905511811
 30
0.0
 10
-1.768492125984252
 20
1.82505905511811
 30
0.0
  0
SPLINE
  5
2E
330
1F
100
AcDbEntity
  8
LAYER_1
 62
   250
100
AcDbSpline
210
0.0
220
0.0
230
1.0
 70
    11
 71
     3
 72
    40
 73
    36
 74
     0
 42
0.0000000001
 43
0.0000000001
 40
0.0
 40
0.0
 40
0.0
 40
0.0
 40
0.1111111111111111
 40
0.1111111111111111
 40
0.1111111111111111
 40
0.1111111111111111
 40
0.2222222222222222
 40
0.2222222222222222
 40
0.2222222222222222
 40
0.2222222222222222
 40
0.3333333333333333
 40
0.3333333333333333
 40
0.3333333333333333
 40
0.3333333333333333
 40
0.4444444444444444
 40
0.4444444444444444
 40
0.4444444444444444
 40
0.4444444444444444
 40
0.5555555555555556
 40
0.5555555555555556
 40
0.5555555555555556
 40
0.5555555555555556
 40
0.6666666666666667
 40
0.6666666666666667
 40
0.6666666666666667
 40
0.6666666666666667
 40
0.7777777777777779
 40
0.7777777777777779
 40
0.7777777777777779
 40
0.7777777777777779
 40
0.8888888888888891
 40
0.8888888888888891
 40
0.8888888888888891
 40
0.8888888888888891
 40
1.0
 40
1.0
 40
1.0
 40
1.0
 10
-1.738933070866142
 20
1.816031496062992
 30
0.0
 10
-1.738933070866142
 20
1.816031496062992
 30
0.0
 10
-1.738933070866142
 20
1.774448818897638
 30
0.0
 10
-1.738933070866142
 20
1.774448818897638
 30
0.0
 10
-1.738933070866142
 20
1.774448818897638
 30
0.0
 10
-1.738933070866142
 20
1.774448818897638
 30
0.0
 10
-1.718185039370079
 20
1.774448818897638
 30
0.0
 10
-1.718185039370079
 20
1.774448818897638
 30
0.0
 10
-1.718185039370079
 20
1.774448818897638
 30
0.0
 10
-1.708492125984252
 20
1.774448818897638
 30
0.0
 10
-1.701822834645669
 20
1.774893700787402
 30
0.0
 10
-1.698267716535433
 20
1.775807086614173
 30
0.0
 10
-1.698267716535433
 20
1.775807086614173
 30
0.0
 10
-1.692657480314961
 20
1.777279527559055
 30
0.0
 10
-1.688409448818898
 20
1.779779527559055
 30
0.0
 10
-1.685437007874016
 20
1.783307086614173
 30
0.0
 10
-1.685437007874016
 20
1.783307086614173
 30
0.0
 10
-1.682492125984252
 20
1.786834645669291
 30
0.0
 10
-1.680992125984252
 20
1.791366141732284
 30
0.0
 10
-1.680992125984252
 20
1.796893700787402
 30
0.0
 10
-1.680992125984252
 20
1.796893700787402
 30
0.0
 10
-1.680992125984252
 20
1.80155905511811
 30
0.0
 10
-1.682350393700788
 20
1.805448818897638
 30
0.0
 10
-1.68501968503937
 20
1.808586614173229
 30
0.0
 10
-1.68501968503937
 20
1.808586614173229
 30
0.0
 10
-1.687712598425197
 20
1.811696850393701
 30
0.0
 10
-1.69132283464567
 20
1.813834645669291
 30
0.0
 10
-1.695822834645669
 20
1.814976377952756
 30
0.0
 10
-1.695822834645669
 20
1.814976377952756
 30
0.0
 10
-1.698740157480315
 20
1.815669291338583
 30
0.0
 10
-1.704822834645669
 20
1.816031496062992
 30
0.0
 10
-1.714047244094488
 20
1.816031496062992
 30
0.0
 10
-1.714047244094488
 20
1.816031496062992
 30
0.0
 10
-1.714047244094488
 20
1.816031496062992
 30
0.0
 10
-1.738933070866142
 20
1.816031496062992
 30
0.0
 10
-1.738933070866142
 20
1.816031496062992
 30
0.0
  0
SPLINE
  5
2F
330
1F
100
AcDbEntity
  8
LAYER_1
 62
   250
100
AcDbSpline
210
0.0
220
0.0
230
1.0
 70
    11
 71
     3
 72
    52
 73
    48
 74
     0
 42
0.0000000001
 43
0.0000000001
 40
0.0
 40
0.0
 40
0.0
 40
0.0
 40
0.0833333333333333
 40
0.0833333333333333
 40
0.0833333333333333
 40
0.0833333333333333
 40
0.1666666666666667
 40
0.1666666666666667
 40
0.1666666666666667
 40
0.1666666666666667
 40
0.25
 40
0.25
 40
0.25
 40
0.25
 40
0.3333333333333333
 40
0.3333333333333333
 40
0.3333333333333333
 40
0.3333333333333333
 40
0.4166666666666666
 40
0.4166666666666666
 40
0.4166666666666666
 40
0.4166666666666666
 40
0.4999999999999999
 40
0.4999999999999999
 40
0.4999999999999999
 40
0.4999999999999999
 40
0.5833333333333333
 40
0.5833333333333333
 40
0.5833333333333333
 40
0.5833333333333333
 40
0.6666666666666666
 40
0.6666666666666666
 40
0.6666666666666666
 40
0.6666666666666666
 40
0.75
 40
0.75
 40
0.75
 40
0.75
 40
0.8333333333333334
 40
0.8333333333333334
 40
0.8333333333333334
 40
0.8333333333333334
 40
0.9166666666666667
 40
0.9166666666666667
 40
0.9166666666666667
 40
0.9166666666666667
 40
1.0
 40
1.0
 40
1.0
 40
1.0
 10
-1.738933070866142
 20
1.766614173228347
 30
0.0
 10
-1.738933070866142
 20
1.766614173228347
 30
0.0
 10
-1.738933070866142
 20
1.729366141732283
 30
0.0
 10
-1.738933070866142
 20
1.729366141732283
 30
0.0
 10
-1.738933070866142
 20
1.729366141732283
 30
0.0
 10
-1.738933070866142
 20
1.725614173228347
 30
0.0
 10
-1.738767716535433
 20
1.723393700787402
 30
0.0
 10
-1.738464566929134
 20
1.722669291338583
 30
0.0
 10
-1.738464566929134
 20
1.722669291338583
 30
0.0
 10
-1.73801968503937
 20
1.721696850393701
 30
0.0
 10
-1.737157480314961
 20
1.721031496062992
 30
0.0
 10
-1.735850393700787
 20
1.720641732283465
 30
0.0
 10
-1.735850393700787
 20
1.720641732283465
 30
0.0
 10
-1.734933070866142
 20
1.720366141732284
 30
0.0
 10
-1.732322834645669
 20
1.720224409448819
 30
0.0
 10
-1.728047244094488
 20
1.720224409448819
 30
0.0
 10
-1.728047244094488
 20
1.720224409448819
 30
0.0
 10
-1.728047244094488
 20
1.720224409448819
 30
0.0
 10
-1.716964566929134
 20
1.720224409448819
 30
0.0
 10
-1.716964566929134
 20
1.720224409448819
 30
0.0
 10
-1.716964566929134
 20
1.720224409448819
 30
0.0
 10
-1.70601968503937
 20
1.720224409448819
 30
0.0
 10
-1.698185039370079
 20
1.720838582677166
 30
0.0
 10
-1.693492125984252
 20
1.72205905511811
 30
0.0
 10
-1.693492125984252
 20
1.72205905511811
 30
0.0
 10
-1.688795275590551
 20
1.723279527559055
 30
0.0
 10
-1.684795275590551
 20
1.725866141732284
 30
0.0
 10
-1.681492125984252
 20
1.729811023622047
 30
0.0
 10
-1.681492125984252
 20
1.729811023622047
 30
0.0
 10
-1.678185039370079
 20
1.733724409448819
 30
0.0
 10
-1.67651968503937
 20
1.738476377952756
 30
0.0
 10
-1.67651968503937
 20
1.744003937007874
 30
0.0
 10
-1.67651968503937
 20
1.744003937007874
 30
0.0
 10
-1.67651968503937
 20
1.748669291338583
 30
0.0
 10
-1.677877952755906
 20
1.752807086614173
 30
0.0
 10
-1.680547244094488
 20
1.75642125984252
 30
0.0
 10
-1.680547244094488
 20
1.75642125984252
 30
0.0
 10
-1.683240157480315
 20
1.760031496062992
 30
0.0
 10
-1.686964566929134
 20
1.762614173228347
 30
0.0
 10
-1.691712598425197
 20
1.764224409448819
 30
0.0
 10
-1.691712598425197
 20
1.764224409448819
 30
0.0
 10
-1.696464566929134
 20
1.765838582677165
 30
0.0
 10
-1.704877952755906
 20
1.766614173228347
 30
0.0
 10
-1.716964566929134
 20
1.766614173228347
 30
0.0
 10
-1.716964566929134
 20
1.766614173228347
 30
0.0
 10
-1.716964566929134
 20
1.766614173228347
 30
0.0
 10
-1.738933070866142
 20
1.766614173228347
 30
0.0
 10
-1.738933070866142
 20
1.766614173228347
 30
0.0
  0
SPLINE
  5
30
330
1F
100
AcDbEntity
  8
LAYER_1
 62
   250
100
AcDbSpline
210
0.0
220
0.0
230
1.0
 70
    11
 71
     3
 72
   112
 73
   108
 74
     0
 42
0.0000000001
 43
0.0000000001
 40
0.0
 40
0.0
 40
0.0
 40
0.0
 40
0.037037037037037
 40
0.037037037037037
 40
0.037037037037037
 40
0.037037037037037
 40
0.0740740740740741
 40
0.0740740740740741
 40
0.0740740740740741
 40
0.0740740740740741
 40
0.1111111111111111
 40
0.1111111111111111
 40
0.1111111111111111
 40
0.1111111111111111
 40
0.1481481481481481
 40
0.1481481481481481
 40
0.1481481481481481
 40
0.1481481481481481
 40
0.1851851851851852
 40
0.1851851851851852
 40
0.1851851851851852
 40
0.1851851851851852
 40
0.2222222222222222
 40
0.2222222222222222
 40
0.2222222222222222
 40
0.2222222222222222
 40
0.2592592592592592
 40
0.2592592592592592
 40
0.2592592592592592
 40
0.2592592592592592
 40
0.2962962962962963
 40
0.2962962962962963
 40
0.2962962962962963
 40
0.2962962962962963
 40
0.3333333333333333
 40
0.3333333333333333
 40
0.3333333333333333
 40
0.3333333333333333
 40
0.3703703703703704
 40
0.3703703703703704
 40
0.3703703703703704
 40
0.3703703703703704
 40
0.4074074074074074
 40
0.4074074074074074
 40
0.4074074074074074
 40
0.4074074074074074
 40
0.4444444444444444
 40
0.4444444444444444
 40
0.4444444444444444
 40
0.4444444444444444
 40
0.4814814814814815
 40
0.4814814814814815
 40
0.4814814814814815
 40
0.4814814814814815
 40
0.5185185185185185
 40
0.5185185185185185
 40
0.5185185185185185
 40
0.5185185185185185
 40
0.5555555555555556
 40
0.5555555555555556
 40
0.5555555555555556
 40
0.5555555555555556
 40
0.5925925925925926
 40
0.5925925925925926
 40
0.5925925925925926
 40
0.5925925925925926
 40
0.6296296296296295
 40
0.6296296296296295
 40
0.6296296296296295
 40
0.6296296296296295
 40
0.6666666666666665
 40
0.6666666666666665
 40
0.6666666666666665
 40
0.6666666666666665
 40
0.7037037037037035
 40
0.7037037037037035
 40
0.7037037037037035
 40
0.7037037037037035
 40
0.7407407407407405
 40
0.7407407407407405
 40
0.7407407407407405
 40
0.7407407407407405
 40
0.7777777777777775
 40
0.7777777777777775
 40
0.7777777777777775
 40
0.7777777777777775
 40
0.8148148148148144
 40
0.8148148148148144
 40
0.8148148148148144
 40
0.8148148148148144
 40
0.8518518518518514
 40
0.8518518518518514
 40
0.8518518518518514
 40
0.8518518518518514
 40
0.8888888888888884
 40
0.8888888888888884
 40
0.8888888888888884
 40
0.8888888888888884
 40
0.9259259259259254
 40
0.9259259259259254
 40
0.9259259259259254
 40
0.9259259259259254
 40
0.9629629629629624
 40
0.9629629629629624
 40
0.9629629629629624
 40
0.9629629629629624
 40
1.0
 40
1.0
 40
1.0
 40
1.0
 10
-1.601826771653543
 20
1.82505905511811
 30
0.0
 10
-1.601826771653543
 20
1.82505905511811
 30
0.0
 10
-1.588409448818898
 20
1.82505905511811
 30
0.0
 10
-1.588409448818898
 20
1.82505905511811
 30
0.0
 10
-1.588409448818898
 20
1.82505905511811
 30
0.0
 10
-1.588409448818898
 20
1.82505905511811
 30
0.0
 10
-1.553161417322835
 20
1.730169291338583
 30
0.0
 10
-1.553161417322835
 20
1.730169291338583
 30
0.0
 10
-1.553161417322835
 20
1.730169291338583
 30
0.0
 10
-1.551437007874016
 20
1.725393700787402
 30
0.0
 10
-1.549688976377953
 20
1.722224409448819
 30
0.0
 10
-1.547909448818898
 20
1.720696850393701
 30
0.0
 10
-1.547909448818898
 20
1.720696850393701
 30
0.0
 10
-1.546161417322835
 20
1.719141732283465
 30
0.0
 10
-1.543771653543307
 20
1.718366141732284
 30
0.0
 10
-1.540799212598425
 20
1.718366141732284
 30
0.0
 10
-1.540799212598425
 20
1.718366141732284
 30
0.0
 10
-1.540799212598425
 20
1.718366141732284
 30
0.0
 10
-1.53901968503937
 20
1.718366141732284
 30
0.0
 10
-1.53901968503937
 20
1.718366141732284
 30
0.0
 10
-1.53901968503937
 20
1.718366141732284
 30
0.0
 10
-1.53901968503937
 20
1.718366141732284
 30
0.0
 10
-1.53901968503937
 20
1.711531496062992
 30
0.0
 10
-1.53901968503937
 20
1.711531496062992
 30
0.0
 10
-1.53901968503937
 20
1.711531496062992
 30
0.0
 10
-1.53901968503937
 20
1.711531496062992
 30
0.0
 10
-1.579464566929134
 20
1.711531496062992
 30
0.0
 10
-1.579464566929134
 20
1.711531496062992
 30
0.0
 10
-1.579464566929134
 20
1.711531496062992
 30
0.0
 10
-1.579464566929134
 20
1.711531496062992
 30
0.0
 10
-1.579464566929134
 20
1.718366141732284
 30
0.0
 10
-1.579464566929134
 20
1.718366141732284
 30
0.0
 10
-1.579464566929134
 20
1.718366141732284
 30
0.0
 10
-1.578161417322835
 20
1.718476377952756
 30
0.0
 10
-1.57688188976378
 20
1.718531496062992
 30
0.0
 10
-1.575629921259843
 20
1.718531496062992
 30
0.0
 10
-1.575629921259843
 20
1.718531496062992
 30
0.0
 10
-1.57301968503937
 20
1.718531496062992
 30
0.0
 10
-1.571326771653543
 20
1.718811023622047
 30
0.0
 10
-1.570492125984252
 20
1.719338582677165
 30
0.0
 10
-1.570492125984252
 20
1.719338582677165
 30
0.0
 10
-1.568937007874016
 20
1.720366141732284
 30
0.0
 10
-1.568133858267717
 20
1.721669291338583
 30
0.0
 10
-1.568133858267717
 20
1.723251968503937
 30
0.0
 10
-1.568133858267717
 20
1.723251968503937
 30
0.0
 10
-1.568133858267717
 20
1.724393700787402
 30
0.0
 10
-1.568909448818898
 20
1.727169291338583
 30
0.0
 10
-1.570409448818898
 20
1.731641732283465
 30
0.0
 10
-1.570409448818898
 20
1.731641732283465
 30
0.0
 10
-1.570409448818898
 20
1.731641732283465
 30
0.0
 10
-1.577909448818898
 20
1.753614173228347
 30
0.0
 10
-1.577909448818898
 20
1.753614173228347
 30
0.0
 10
-1.577909448818898
 20
1.753614173228347
 30
0.0
 10
-1.577909448818898
 20
1.753614173228347
 30
0.0
 10
-1.619074803149606
 20
1.753614173228347
 30
0.0
 10
-1.619074803149606
 20
1.753614173228347
 30
0.0
 10
-1.619074803149606
 20
1.753614173228347
 30
0.0
 10
-1.619074803149606
 20
1.753614173228347
 30
0.0
 10
-1.62788188976378
 20
1.729031496062992
 30
0.0
 10
-1.62788188976378
 20
1.729031496062992
 30
0.0
 10
-1.62788188976378
 20
1.729031496062992
 30
0.0
 10
-1.628799212598425
 20
1.726476377952756
 30
0.0
 10
-1.629271653543307
 20
1.724724409448819
 30
0.0
 10
-1.629271653543307
 20
1.723724409448819
 30
0.0
 10
-1.629271653543307
 20
1.723724409448819
 30
0.0
 10
-1.629271653543307
 20
1.722641732283465
 30
0.0
 10
-1.628964566929134
 20
1.721696850393701
 30
0.0
 10
-1.628409448818898
 20
1.720893700787402
 30
0.0
 10
-1.628409448818898
 20
1.720893700787402
 30
0.0
 10
-1.627826771653543
 20
1.720086614173229
 30
0.0
 10
-1.627074803149606
 20
1.719476377952756
 30
0.0
 10
-1.626074803149606
 20
1.71905905511811
 30
0.0
 10
-1.626074803149606
 20
1.71905905511811
 30
0.0
 10
-1.625102362204725
 20
1.718641732283465
 30
0.0
 10
-1.623547244094488
 20
1.718448818897638
 30
0.0
 10
-1.621354330708662
 20
1.718448818897638
 30
0.0
 10
-1.621354330708662
 20
1.718448818897638
 30
0.0
 10
-1.619909448818898
 20
1.718448818897638
 30
0.0
 10
-1.618716535433071
 20
1.71842125984252
 30
0.0
 10
-1.617799212598425
 20
1.718366141732284
 30
0.0
 10
-1.617799212598425
 20
1.718366141732284
 30
0.0
 10
-1.617799212598425
 20
1.718366141732284
 30
0.0
 10
-1.617799212598425
 20
1.711531496062992
 30
0.0
 10
-1.617799212598425
 20
1.711531496062992
 30
0.0
 10
-1.617799212598425
 20
1.711531496062992
 30
0.0
 10
-1.617799212598425
 20
1.711531496062992
 30
0.0
 10
-1.651716535433071
 20
1.711531496062992
 30
0.0
 10
-1.651716535433071
 20
1.711531496062992
 30
0.0
 10
-1.651716535433071
 20
1.711531496062992
 30
0.0
 10
-1.651716535433071
 20
1.711531496062992
 30
0.0
 10
-1.651716535433071
 20
1.718366141732284
 30
0.0
 10
-1.651716535433071
 20
1.718366141732284
 30
0.0
 10
-1.651716535433071
 20
1.718366141732284
 30
0.0
 10
-1.648574803149606
 20
1.718366141732284
 30
0.0
 10
-1.646299212598425
 20
1.718669291338583
 30
0.0
 10
-1.644937007874016
 20
1.719311023622047
 30
0.0
 10
-1.644937007874016
 20
1.719311023622047
 30
0.0
 10
-1.643547244094488
 20
1.71992125984252
 30
0.0
 10
-1.642326771653544
 20
1.72092125984252
 30
0.0
 10
-1.641299212598425
 20
1.722311023622047
 30
0.0
 10
-1.641299212598425
 20
1.722311023622047
 30
0.0
 10
-1.640271653543307
 20
1.723696850393701
 30
0.0
 10
-1.638909448818898
 20
1.726614173228346
 30
0.0
 10
-1.637244094488189
 20
1.73105905511811
 30
0.0
 10
-1.637244094488189
 20
1.73105905511811
 30
0.0
 10
-1.637244094488189
 20
1.73105905511811
 30
0.0
 10
-1.601826771653543
 20
1.82505905511811
 30
0.0
 10
-1.601826771653543
 20
1.82505905511811
 30
0.0
  0
SPLINE
  5
31
330
1F
100
AcDbEntity
  8
LAYER_1
 62
   250
100
AcDbSpline
210
0.0
220
0.0
230
1.0
 70
    11
 71
     3
 72
    16
 73
    12
 74
     0
 42
0.0000000001
 43
0.0000000001
 40
0.0
 40
0.0
 40
0.0
 40
0.0
 40
0.3333333333333333
 40
0.3333333333333333
 40
0.3333333333333333
 40
0.3333333333333333
 40
0.6666666666666666
 40
0.6666666666666666
 40
0.6666666666666666
 40
0.6666666666666666
 40
1.0
 40
1.0
 40
1.0
 40
1.0
 10
-1.616074803149606
 20
1.761586614173228
 30
0.0
 10
-1.616074803149606
 20
1.761586614173228
 30
0.0
 10
-1.580992125984252
 20
1.761586614173228
 30
0.0
 10
-1.580992125984252
 20
1.761586614173228
 30
0.0
 10
-1.580992125984252
 20
1.761586614173228
 30
0.0
 10
-1.580992125984252
 20
1.761586614173228
 30
0.0
 10
-1.598574803149606
 20
1.81042125984252
 30
0.0
 10
-1.598574803149606
 20
1.81042125984252
 30
0.0
 10
-1.598574803149606
 20
1.81042125984252
 30
0.0
 10
-1.598574803149606
 20
1.81042125984252
 30
0.0
 10
-1.616074803149606
 20
1.761586614173228
 30
0.0
 10
-1.616074803149606
 20
1.761586614173228
 30
0.0
  0
SPLINE
  5
32
330
1F
100
AcDbEntity
  8
LAYER_1
 62
   250
100
AcDbSpline
210
0.0
220
0.0
230
1.0
 70
    11
 71
     3
 72
    72
 73
    68
 74
     0
 42
0.0000000001
 43
0.0000000001
 40
0.0
 40
0.0
 40
0.0
 40
0.0
 40
0.0588235294117647
 40
0.0588235294117647
 40
0.0588235294117647
 40
0.0588235294117647
 40
0.1176470588235294
 40
0.1176470588235294
 40
0.1176470588235294
 40
0.1176470588235294
 40
0.1764705882352941
 40
0.1764705882352941
 40
0.1764705882352941
 40
0.1764705882352941
 40
0.2352941176470588
 40
0.2352941176470588
 40
0.2352941176470588
 40
0.2352941176470588
 40
0.2941176470588235
 40
0.2941176470588235
 40
0.2941176470588235
 40
0.2941176470588235
 40
0.3529411764705883
 40
0.3529411764705883
 40
0.3529411764705883
 40
0.3529411764705883
 40
0.411764705882353
 40
0.411764705882353
 40
0.411764705882353
 40
0.411764705882353
 40
0.4705882352941177
 40
0.4705882352941177
 40
0.4705882352941177
 40
0.4705882352941177
 40
0.5294117647058824
 40
0.5294117647058824
 40
0.5294117647058824
 40
0.5294117647058824
 40
0.5882352941176471
 40
0.5882352941176471
 40
0.5882352941176471
 40
0.5882352941176471
 40
0.6470588235294118
 40
0.6470588235294118
 40
0.6470588235294118
 40
0.6470588235294118
 40
0.7058823529411765
 40
0.7058823529411765
 40
0.7058823529411765
 40
0.7058823529411765
 40
0.7647058823529412
 40
0.7647058823529412
 40
0.7647058823529412
 40
0.7647058823529412
 40
0.823529411764706
 40
0.823529411764706
 40
0.823529411764706
 40
0.823529411764706
 40
0.8823529411764707
 40
0.8823529411764707
 40
0.8823529411764707
 40
0.8823529411764707
 40
0.9411764705882354
 40
0.9411764705882354
 40
0.9411764705882354
 40
0.9411764705882354
 40
1.0
 40
1.0
 40
1.0
 40
1.0
 10
-1.375992125984252
 20
1.82505905511811
 30
0.0
 10
-1.375992125984252
 20
1.82505905511811
 30
0.0
 10
-1.369909448818898
 20
1.82505905511811
 30
0.0
 10
-1.369909448818898
 20
1.82505905511811
 30
0.0
 10
-1.369909448818898
 20
1.82505905511811
 30
0.0
 10
-1.369909448818898
 20
1.82505905511811
 30
0.0
 10
-1.369909448818898
 20
1.730811023622047
 30
0.0
 10
-1.369909448818898
 20
1.730811023622047
 30
0.0
 10
-1.369909448818898
 20
1.730811023622047
 30
0.0
 10
-1.369909448818898
 20
1.726366141732284
 30
0.0
 10
-1.369602362204724
 20
1.723503937007874
 30
0.0
 10
-1.369047244094488
 20
1.722224409448819
 30
0.0
 10
-1.369047244094488
 20
1.722224409448819
 30
0.0
 10
-1.368464566929134
 20
1.720948818897638
 30
0.0
 10
-1.367547244094488
 20
1.720003937007874
 30
0.0
 10
-1.366244094488189
 20
1.719338582677165
 30
0.0
 10
-1.366244094488189
 20
1.719338582677165
 30
0.0
 10
-1.364937007874016
 20
1.718696850393701
 30
0.0
 10
-1.362354330708661
 20
1.718366141732284
 30
0.0
 10
-1.358492125984252
 20
1.718366141732284
 30
0.0
 10
-1.358492125984252
 20
1.718366141732284
 30
0.0
 10
-1.358492125984252
 20
1.718366141732284
 30
0.0
 10
-1.35051968503937
 20
1.718366141732284
 30
0.0
 10
-1.35051968503937
 20
1.718366141732284
 30
0.0
 10
-1.35051968503937
 20
1.718366141732284
 30
0.0
 10
-1.35051968503937
 20
1.718366141732284
 30
0.0
 10
-1.35051968503937
 20
1.711531496062992
 30
0.0
 10
-1.35051968503937
 20
1.711531496062992
 30
0.0
 10
-1.35051968503937
 20
1.711531496062992
 30
0.0
 10
-1.35051968503937
 20
1.711531496062992
 30
0.0
 10
-1.404157480314961
 20
1.711531496062992
 30
0.0
 10
-1.404157480314961
 20
1.711531496062992
 30
0.0
 10
-1.404157480314961
 20
1.711531496062992
 30
0.0
 10
-1.404157480314961
 20
1.711531496062992
 30
0.0
 10
-1.404157480314961
 20
1.718366141732284
 30
0.0
 10
-1.404157480314961
 20
1.718366141732284
 30
0.0
 10
-1.404157480314961
 20
1.718366141732284
 30
0.0
 10
-1.404157480314961
 20
1.718366141732284
 30
0.0
 10
-1.395299212598425
 20
1.718366141732284
 30
0.0
 10
-1.395299212598425
 20
1.718366141732284
 30
0.0
 10
-1.395299212598425
 20
1.718366141732284
 30
0.0
 10
-1.391437007874016
 20
1.718366141732284
 30
0.0
 10
-1.38888188976378
 20
1.718696850393701
 30
0.0
 10
-1.387602362204724
 20
1.719393700787402
 30
0.0
 10
-1.387602362204724
 20
1.719393700787402
 30
0.0
 10
-1.386326771653544
 20
1.72005905511811
 30
0.0
 10
-1.385326771653543
 20
1.721141732283465
 30
0.0
 10
-1.384629921259843
 20
1.722641732283465
 30
0.0
 10
-1.384629921259843
 20
1.722641732283465
 30
0.0
 10
-1.383937007874016
 20
1.724141732283465
 30
0.0
 10
-1.383574803149607
 20
1.726866141732284
 30
0.0
 10
-1.383574803149607
 20
1.730811023622047
 30
0.0
 10
-1.383574803149607
 20
1.730811023622047
 30
0.0
 10
-1.383574803149607
 20
1.730811023622047
 30
0.0
 10
-1.383574803149607
 20
1.808279527559055
 30
0.0
 10
-1.383574803149607
 20
1.808279527559055
 30
0.0
 10
-1.383574803149607
 20
1.808279527559055
 30
0.0
 10
-1.383574803149607
 20
1.808279527559055
 30
0.0
 10
-1.404157480314961
 20
1.808279527559055
 30
0.0
 10
-1.404157480314961
 20
1.808279527559055
 30
0.0
 10
-1.404157480314961
 20
1.808279527559055
 30
0.0
 10
-1.404157480314961
 20
1.808279527559055
 30
0.0
 10
-1.404157480314961
 20
1.815279527559055
 30
0.0
 10
-1.404157480314961
 20
1.815279527559055
 30
0.0
 10
-1.404157480314961
 20
1.815279527559055
 30
0.0
 10
-1.392937007874016
 20
1.81686220472441
 30
0.0
 10
-1.383547244094488
 20
1.820114173228347
 30
0.0
 10
-1.375992125984252
 20
1.82505905511811
 30
0.0
  0
SPLINE
  5
33
330
1F
100
AcDbEntity
  8
LAYER_1
 62
   250
100
AcDbSpline
210
0.0
220
0.0
230
1.0
 70
    11
 71
     3
 72
    80
 73
    76
 74
     0
 42
0.0000000001
 43
0.0000000001
 40
0.0
 40
0.0
 40
0.0
 40
0.0
 40
0.0526315789473684
 40
0.0526315789473684
 40
0.0526315789473684
 40
0.0526315789473684
 40
0.1052631578947368
 40
0.1052631578947368
 40
0.1052631578947368
 40
0.1052631578947368
 40
0.1578947368421053
 40
0.1578947368421053
 40
0.1578947368421053
 40
0.1578947368421053
 40
0.2105263157894737
 40
0.2105263157894737
 40
0.2105263157894737
 40
0.2105263157894737
 40
0.2631578947368421
 40
0.2631578947368421
 40
0.2631578947368421
 40
0.2631578947368421
 40
0.3157894736842105
 40
0.3157894736842105
 40
0.3157894736842105
 40
0.3157894736842105
 40
0.3684210526315789
 40
0.3684210526315789
 40
0.3684210526315789
 40
0.3684210526315789
 40
0.4210526315789474
 40
0.4210526315789474
 40
0.4210526315789474
 40
0.4210526315789474
 40
0.4736842105263158
 40
0.4736842105263158
 40
0.4736842105263158
 40
0.4736842105263158
 40
0.5263157894736842
 40
0.5263157894736842
 40
0.5263157894736842
 40
0.5263157894736842
 40
0.5789473684210527
 40
0.5789473684210527
 40
0.5789473684210527
 40
0.5789473684210527
 40
0.631578947368421
 40
0.631578947368421
 40
0.631578947368421
 40
0.631578947368421
 40
0.6842105263157894
 40
0.6842105263157894
 40
0.6842105263157894
 40
0.6842105263157894
 40
0.7368421052631577
 40
0.7368421052631577
 40
0.7368421052631577
 40
0.7368421052631577
 40
0.7894736842105261
 40
0.7894736842105261
 40
0.7894736842105261
 40
0.7894736842105261
 40
0.8421052631578945
 40
0.8421052631578945
 40
0.8421052631578945
 40
0.8421052631578945
 40
0.8947368421052628
 40
0.8947368421052628
 40
0.8947368421052628
 40
0.8947368421052628
 40
0.9473684210526312
 40
0.9473684210526312
 40
0.9473684210526312
 40
0.9473684210526312
 40
1.0
 40
1.0
 40
1.0
 40
1.0
 10
-1.310574803149606
 20
1.829196850393701
 30
0.0
 10
-1.310574803149606
 20
1.829196850393701
 30
0.0
 10
-1.305185039370079
 20
1.829196850393701
 30
0.0
 10
-1.305185039370079
 20
1.829196850393701
 30
0.0
 10
-1.305185039370079
 20
1.829196850393701
 30
0.0
 10
-1.305185039370079
 20
1.829196850393701
 30
0.0
 10
-1.304212598425197
 20
1.82505905511811
 30
0.0
 10
-1.304212598425197
 20
1.82505905511811
 30
0.0
 10
-1.304212598425197
 20
1.82505905511811
 30
0.0
 10
-1.304212598425197
 20
1.82505905511811
 30
0.0
 10
-1.233102362204724
 20
1.82505905511811
 30
0.0
 10
-1.233102362204724
 20
1.82505905511811
 30
0.0
 10
-1.233102362204724
 20
1.82505905511811
 30
0.0
 10
-1.233102362204724
 20
1.82505905511811
 30
0.0
 10
-1.233102362204724
 20
1.818141732283465
 30
0.0
 10
-1.233102362204724
 20
1.818141732283465
 30
0.0
 10
-1.233102362204724
 20
1.818141732283465
 30
0.0
 10
-1.241602362204725
 20
1.808307086614173
 30
0.0
 10
-1.249326771653543
 20
1.797141732283465
 30
0.0
 10
-1.256240157480315
 20
1.78455905511811
 30
0.0
 10
-1.256240157480315
 20
1.78455905511811
 30
0.0
 10
-1.263157480314961
 20
1.772003937007874
 30
0.0
 10
-1.26851968503937
 20
1.759224409448819
 30
0.0
 10
-1.272326771653543
 20
1.746196850393701
 30
0.0
 10
-1.272326771653543
 20
1.746196850393701
 30
0.0
 10
-1.275074803149606
 20
1.736811023622047
 30
0.0
 10
-1.277322834645669
 20
1.725251968503937
 30
0.0
 10
-1.279074803149606
 20
1.711531496062992
 30
0.0
 10
-1.279074803149606
 20
1.711531496062992
 30
0.0
 10
-1.279074803149606
 20
1.711531496062992
 30
0.0
 10
-1.295740157480315
 20
1.711531496062992
 30
0.0
 10
-1.295740157480315
 20
1.711531496062992
 30
0.0
 10
-1.295740157480315
 20
1.711531496062992
 30
0.0
 10
-1.294129921259843
 20
1.723641732283465
 30
0.0
 10
-1.291464566929134
 20
1.734948818897638
 30
0.0
 10
-1.287740157480315
 20
1.745476377952756
 30
0.0
 10
-1.287740157480315
 20
1.745476377952756
 30
0.0
 10
-1.28401968503937
 20
1.756003937007874
 30
0.0
 10
-1.278657480314961
 20
1.767003937007874
 30
0.0
 10
-1.271629921259843
 20
1.778476377952756
 30
0.0
 10
-1.271629921259843
 20
1.778476377952756
 30
0.0
 10
-1.264602362204724
 20
1.789948818897638
 30
0.0
 10
-1.256074803149606
 20
1.801393700787402
 30
0.0
 10
-1.24601968503937
 20
1.812834645669291
 30
0.0
 10
-1.24601968503937
 20
1.812834645669291
 30
0.0
 10
-1.24601968503937
 20
1.812834645669291
 30
0.0
 10
-1.296740157480315
 20
1.812834645669291
 30
0.0
 10
-1.296740157480315
 20
1.812834645669291
 30
0.0
 10
-1.296740157480315
 20
1.812834645669291
 30
0.0
 10
-1.300409448818898
 20
1.812834645669291
 30
0.0
 10
-1.302937007874016
 20
1.812669291338583
 30
0.0
 10
-1.304295275590551
 20
1.812279527559055
 30
0.0
 10
-1.304295275590551
 20
1.812279527559055
 30
0.0
 10
-1.305657480314961
 20
1.811893700787402
 30
0.0
 10
-1.306712598425197
 20
1.811307086614173
 30
0.0
 10
-1.307464566929134
 20
1.810503937007874
 30
0.0
 10
-1.307464566929134
 20
1.810503937007874
 30
0.0
 10
-1.308240157480315
 20
1.809669291338583
 30
0.0
 10
-1.30888188976378
 20
1.808224409448819
 30
0.0
 10
-1.309437007874016
 20
1.806169291338583
 30
0.0
 10
-1.309437007874016
 20
1.806169291338583
 30
0.0
 10
-1.309437007874016
 20
1.806169291338583
 30
0.0
 10
-1.309822834645669
 20
1.804641732283465
 30
0.0
 10
-1.309822834645669
 20
1.804641732283465
 30
0.0
 10
-1.309822834645669
 20
1.804641732283465
 30
0.0
 10
-1.309822834645669
 20
1.804641732283465
 30
0.0
 10
-1.312602362204725
 20
1.795031496062992
 30
0.0
 10
-1.312602362204725
 20
1.795031496062992
 30
0.0
 10
-1.312602362204725
 20
1.795031496062992
 30
0.0
 10
-1.312602362204725
 20
1.795031496062992
 30
0.0
 10
-1.31951968503937
 20
1.796503937007874
 30
0.0
 10
-1.31951968503937
 20
1.796503937007874
 30
0.0
 10
-1.31951968503937
 20
1.796503937007874
 30
0.0
 10
-1.31951968503937
 20
1.796503937007874
 30
0.0
 10
-1.310574803149606
 20
1.829196850393701
 30
0.0
 10
-1.310574803149606
 20
1.829196850393701
 30
0.0
  0
SPLINE
  5
34
330
1F
100
AcDbEntity
  8
LAYER_1
 62
   250
100
AcDbSpline
210
0.0
220
0.0
230
1.0
 70
    11
 71
     3
 72
   136
 73
   132
 74
     0
 42
0.0000000001
 43
0.0000000001
 40
0.0
 40
0.0
 40
0.0
 40
0.0
 40
0.0303030303030303
 40
0.0303030303030303
 40
0.0303030303030303
 40
0.0303030303030303
 40
0.0606060606060606
 40
0.0606060606060606
 40
0.0606060606060606
 40
0.0606060606060606
 40
0.0909090909090909
 40
0.0909090909090909
 40
0.0909090909090909
 40
0.0909090909090909
 40
0.1212121212121212
 40
0.1212121212121212
 40
0.1212121212121212
 40
0.1212121212121212
 40
0.1515151515151515
 40
0.1515151515151515
 40
0.1515151515151515
 40
0.1515151515151515
 40
0.1818181818181818
 40
0.1818181818181818
 40
0.1818181818181818
 40
0.1818181818181818
 40
0.2121212121212121
 40
0.2121212121212121
 40
0.2121212121212121
 40
0.2121212121212121
 40
0.2424242424242424
 40
0.2424242424242424
 40
0.2424242424242424
 40
0.2424242424242424
 40
0.2727272727272727
 40
0.2727272727272727
 40
0.2727272727272727
 40
0.2727272727272727
 40
0.303030303030303
 40
0.303030303030303
 40
0.303030303030303
 40
0.303030303030303
 40
0.3333333333333333
 40
0.3333333333333333
 40
0.3333333333333333
 40
0.3333333333333333
 40
0.3636363636363635
 40
0.3636363636363635
 40
0.3636363636363635
 40
0.3636363636363635
 40
0.3939393939393938
 40
0.3939393939393938
 40
0.3939393939393938
 40
0.3939393939393938
 40
0.4242424242424241
 40
0.4242424242424241
 40
0.4242424242424241
 40
0.4242424242424241
 40
0.4545454545454544
 40
0.4545454545454544
 40
0.4545454545454544
 40
0.4545454545454544
 40
0.4848484848484846
 40
0.4848484848484846
 40
0.4848484848484846
 40
0.4848484848484846
 40
0.5151515151515149
 40
0.5151515151515149
 40
0.5151515151515149
 40
0.5151515151515149
 40
0.5454545454545452
 40
0.5454545454545452
 40
0.5454545454545452
 40
0.5454545454545452
 40
0.5757575757575755
 40
0.5757575757575755
 40
0.5757575757575755
 40
0.5757575757575755
 40
0.6060606060606057
 40
0.6060606060606057
 40
0.6060606060606057
 40
0.6060606060606057
 40
0.636363636363636
 40
0.636363636363636
 40
0.636363636363636
 40
0.636363636363636
 40
0.6666666666666663
 40
0.6666666666666663
 40
0.6666666666666663
 40
0.6666666666666663
 40
0.6969696969696966
 40
0.6969696969696966
 40
0.6969696969696966
 40
0.6969696969696966
 40
0.7272727272727269
 40
0.7272727272727269
 40
0.7272727272727269
 40
0.7272727272727269
 40
0.7575757575757571
 40
0.7575757575757571
 40
0.7575757575757571
 40
0.7575757575757571
 40
0.7878787878787874
 40
0.7878787878787874
 40
0.7878787878787874
 40
0.7878787878787874
 40
0.8181818181818177
 40
0.8181818181818177
 40
0.8181818181818177
 40
0.8181818181818177
 40
0.848484848484848
 40
0.848484848484848
 40
0.848484848484848
 40
0.848484848484848
 40
0.8787878787878782
 40
0.8787878787878782
 40
0.8787878787878782
 40
0.8787878787878782
 40
0.9090909090909085
 40
0.9090909090909085
 40
0.9090909090909085
 40
0.9090909090909085
 40
0.9393939393939388
 40
0.9393939393939388
 40
0.9393939393939388
 40
0.9393939393939388
 40
0.9696969696969691
 40
0.9696969696969691
 40
0.9696969696969691
 40
0.9696969696969691
 40
1.0
 40
1.0
 40
1.0
 40
1.0
 10
-1.206377952755906
 20
1.782251968503937
 30
0.0
 10
-1.206377952755906
 20
1.782251968503937
 30
0.0
 10
-1.214267716535433
 20
1.781279527559055
 30
0.0
 10
-1.214267716535433
 20
1.781279527559055
 30
0.0
 10
-1.214267716535433
 20
1.781279527559055
 30
0.0
 10
-1.214712598425197
 20
1.785114173228346
 30
0.0
 10
-1.214933070866142
 20
1.788279527559055
 30
0.0
 10
-1.214933070866142
 20
1.790724409448819
 30
0.0
 10
-1.214933070866142
 20
1.790724409448819
 30
0.0
 10
-1.214933070866142
 20
1.797114173228346
 30
0.0
 10
-1.213185039370079
 20
1.803169291338583
 30
0.0
 10
-1.209712598425197
 20
1.80886220472441
 30
0.0
 10
-1.209712598425197
 20
1.80886220472441
 30
0.0
 10
-1.206240157480315
 20
1.81455905511811
 30
0.0
 10
-1.201405511811024
 20
1.819003937007874
 30
0.0
 10
-1.195185039370079
 20
1.822196850393701
 30
0.0
 10
-1.195185039370079
 20
1.822196850393701
 30
0.0
 10
-1.188992125984252
 20
1.82542125984252
 30
0.0
 10
-1.181850393700787
 20
1.827003937007874
 30
0.0
 10
-1.173822834645669
 20
1.827003937007874
 30
0.0
 10
-1.173822834645669
 20
1.827003937007874
 30
0.0
 10
-1.166074803149606
 20
1.827003937007874
 30
0.0
 10
-1.159267716535433
 20
1.825503937007874
 30
0.0
 10
-1.153405511811024
 20
1.822503937007874
 30
0.0
 10
-1.153405511811024
 20
1.822503937007874
 30
0.0
 10
-1.147547244094488
 20
1.819476377952756
 30
0.0
 10
-1.143074803149606
 20
1.81536220472441
 30
0.0
 10
-1.139937007874016
 20
1.810114173228347
 30
0.0
 10
-1.139937007874016
 20
1.810114173228347
 30
0.0
 10
-1.136822834645669
 20
1.804893700787402
 30
0.0
 10
-1.135267716535433
 20
1.79892125984252
 30
0.0
 10
-1.135267716535433
 20
1.792169291338583
 30
0.0
 10
-1.135267716535433
 20
1.792169291338583
 30
0.0
 10
-1.135267716535433
 20
1.786476377952756
 30
0.0
 10
-1.136267716535433
 20
1.781196850393701
 30
0.0
 10
-1.138322834645669
 20
1.776366141732284
 30
0.0
 10
-1.138322834645669
 20
1.776366141732284
 30
0.0
 10
-1.140350393700788
 20
1.771503937007874
 30
0.0
 10
-1.143629921259843
 20
1.766586614173229
 30
0.0
 10
-1.148129921259843
 20
1.761669291338583
 30
0.0
 10
-1.148129921259843
 20
1.761669291338583
 30
0.0
 10
-1.151492125984252
 20
1.757976377952756
 30
0.0
 10
-1.158295275590551
 20
1.752338582677165
 30
0.0
 10
-1.168547244094488
 20
1.744724409448819
 30
0.0
 10
-1.168547244094488
 20
1.744724409448819
 30
0.0
 10
-1.18146062992126
 20
1.735086614173228
 30
0.0
 10
-1.191350393700787
 20
1.728086614173229
 30
0.0
 10
-1.198240157480315
 20
1.723724409448819
 30
0.0
 10
-1.198240157480315
 20
1.723724409448819
 30
0.0
 10
-1.198240157480315
 20
1.723724409448819
 30
0.0
 10
-1.155933070866142
 20
1.723724409448819
 30
0.0
 10
-1.155933070866142
 20
1.723724409448819
 30
0.0
 10
-1.155933070866142
 20
1.723724409448819
 30
0.0
 10
-1.150933070866142
 20
1.723724409448819
 30
0.0
 10
-1.147685039370079
 20
1.724196850393701
 30
0.0
 10
-1.146157480314961
 20
1.725114173228347
 30
0.0
 10
-1.146157480314961
 20
1.725114173228347
 30
0.0
 10
-1.144047244094488
 20
1.726311023622047
 30
0.0
 10
-1.142602362204725
 20
1.729086614173228
 30
0.0
 10
-1.141850393700787
 20
1.73342125984252
 30
0.0
 10
-1.141850393700787
 20
1.73342125984252
 30
0.0
 10
-1.141850393700787
 20
1.73342125984252
 30
0.0
 10
-1.141129921259843
 20
1.73805905511811
 30
0.0
 10
-1.141129921259843
 20
1.73805905511811
 30
0.0
 10
-1.141129921259843
 20
1.73805905511811
 30
0.0
 10
-1.141129921259843
 20
1.73805905511811
 30
0.0
 10
-1.134212598425197
 20
1.73805905511811
 30
0.0
 10
-1.134212598425197
 20
1.73805905511811
 30
0.0
 10
-1.134212598425197
 20
1.73805905511811
 30
0.0
 10
-1.134212598425197
 20
1.73805905511811
 30
0.0
 10
-1.139740157480315
 20
1.707476377952756
 30
0.0
 10
-1.139740157480315
 20
1.707476377952756
 30
0.0
 10
-1.139740157480315
 20
1.707476377952756
 30
0.0
 10
-1.139740157480315
 20
1.707476377952756
 30
0.0
 10
-1.144933070866142
 20
1.707476377952756
 30
0.0
 10
-1.144933070866142
 20
1.707476377952756
 30
0.0
 10
-1.144933070866142
 20
1.707476377952756
 30
0.0
 10
-1.144933070866142
 20
1.707476377952756
 30
0.0
 10
-1.145850393700787
 20
1.711531496062992
 30
0.0
 10
-1.145850393700787
 20
1.711531496062992
 30
0.0
 10
-1.145850393700787
 20
1.711531496062992
 30
0.0
 10
-1.145850393700787
 20
1.711531496062992
 30
0.0
 10
-1.21696062992126
 20
1.711531496062992
 30
0.0
 10
-1.21696062992126
 20
1.711531496062992
 30
0.0
 10
-1.21696062992126
 20
1.711531496062992
 30
0.0
 10
-1.21696062992126
 20
1.711531496062992
 30
0.0
 10
-1.21696062992126
 20
1.718366141732284
 30
0.0
 10
-1.21696062992126
 20
1.718366141732284
 30
0.0
 10
-1.21696062992126
 20
1.718366141732284
 30
0.0
 10
-1.21696062992126
 20
1.718366141732284
 30
0.0
 10
-1.203933070866142
 20
1.728224409448819
 30
0.0
 10
-1.203933070866142
 20
1.728224409448819
 30
0.0
 10
-1.203933070866142
 20
1.728224409448819
 30
0.0
 10
-1.194074803149606
 20
1.735531496062992
 30
0.0
 10
-1.186822834645669
 20
1.741141732283465
 30
0.0
 10
-1.182212598425197
 20
1.74505905511811
 30
0.0
 10
-1.182212598425197
 20
1.74505905511811
 30
0.0
 10
-1.173492125984252
 20
1.752448818897638
 30
0.0
 10
-1.166905511811024
 20
1.758751968503937
 30
0.0
 10
-1.162492125984252
 20
1.763976377952756
 30
0.0
 10
-1.162492125984252
 20
1.763976377952756
 30
0.0
 10
-1.158074803149606
 20
1.769224409448819
 30
0.0
 10
-1.15501968503937
 20
1.773948818897638
 30
0.0
 10
-1.153377952755906
 20
1.778141732283465
 30
0.0
 10
-1.153377952755906
 20
1.778141732283465
 30
0.0
 10
-1.151712598425197
 20
1.782334645669292
 30
0.0
 10
-1.150877952755906
 20
1.786751968503937
 30
0.0
 10
-1.150877952755906
 20
1.791366141732284
 30
0.0
 10
-1.150877952755906
 20
1.791366141732284
 30
0.0
 10
-1.150877952755906
 20
1.799003937007874
 30
0.0
 10
-1.153350393700787
 20
1.805279527559055
 30
0.0
 10
-1.158240157480315
 20
1.810169291338583
 30
0.0
 10
-1.158240157480315
 20
1.810169291338583
 30
0.0
 10
-1.163157480314961
 20
1.81505905511811
 30
0.0
 10
-1.169547244094488
 20
1.817476377952756
 30
0.0
 10
-1.177405511811024
 20
1.817476377952756
 30
0.0
 10
-1.177405511811024
 20
1.817476377952756
 30
0.0
 10
-1.183047244094488
 20
1.817476377952756
 30
0.0
 10
-1.188102362204724
 20
1.816279527559055
 30
0.0
 10
-1.19251968503937
 20
1.813834645669291
 30
0.0
 10
-1.19251968503937
 20
1.813834645669291
 30
0.0
 10
-1.196933070866142
 20
1.811393700787402
 30
0.0
 10
-1.200405511811024
 20
1.807976377952756
 30
0.0
 10
-1.20296062992126
 20
1.80355905511811
 30
0.0
 10
-1.20296062992126
 20
1.80355905511811
 30
0.0
 10
-1.20551968503937
 20
1.799169291338583
 30
0.0
 10
-1.206795275590551
 20
1.79442125984252
 30
0.0
 10
-1.206795275590551
 20
1.789334645669291
 30
0.0
 10
-1.206795275590551
 20
1.789334645669291
 30
0.0
 10
-1.206795275590551
 20
1.78742125984252
 30
0.0
 10
-1.206657480314961
 20
1.78505905511811
 30
0.0
 10
-1.206377952755906
 20
1.782251968503937
 30
0.0
  0
SPLINE
  5
35
330
1F
100
AcDbEntity
  8
LAYER_1
 62
   250
100
AcDbSpline
210
0.0
220
0.0
230
1.0
 70
    11
 71
     3
 72
    72
 73
    68
 74
     0
 42
0.0000000001
 43
0.0000000001
 40
0.0
 40
0.0
 40
0.0
 40
0.0
 40
0.0588235294117647
 40
0.0588235294117647
 40
0.0588235294117647
 40
0.0588235294117647
 40
0.1176470588235294
 40
0.1176470588235294
 40
0.1176470588235294
 40
0.1176470588235294
 40
0.1764705882352941
 40
0.1764705882352941
 40
0.1764705882352941
 40
0.1764705882352941
 40
0.2352941176470588
 40
0.2352941176470588
 40
0.2352941176470588
 40
0.2352941176470588
 40
0.2941176470588235
 40
0.2941176470588235
 40
0.2941176470588235
 40
0.2941176470588235
 40
0.3529411764705883
 40
0.3529411764705883
 40
0.3529411764705883
 40
0.3529411764705883
 40
0.411764705882353
 40
0.411764705882353
 40
0.411764705882353
 40
0.411764705882353
 40
0.4705882352941177
 40
0.4705882352941177
 40
0.4705882352941177
 40
0.4705882352941177
 40
0.5294117647058824
 40
0.5294117647058824
 40
0.5294117647058824
 40
0.5294117647058824
 40
0.5882352941176471
 40
0.5882352941176471
 40
0.5882352941176471
 40
0.5882352941176471
 40
0.6470588235294118
 40
0.6470588235294118
 40
0.6470588235294118
 40
0.6470588235294118
 40
0.7058823529411765
 40
0.7058823529411765
 40
0.7058823529411765
 40
0.7058823529411765
 40
0.7647058823529412
 40
0.7647058823529412
 40
0.7647058823529412
 40
0.7647058823529412
 40
0.823529411764706
 40
0.823529411764706
 40
0.823529411764706
 40
0.823529411764706
 40
0.8823529411764707
 40
0.8823529411764707
 40
0.8823529411764707
 40
0.8823529411764707
 40
0.9411764705882354
 40
0.9411764705882354
 40
0.9411764705882354
 40
0.9411764705882354
 40
1.0
 40
1.0
 40
1.0
 40
1.0
 10
-1.065905511811024
 20
1.82505905511811
 30
0.0
 10
-1.065905511811024
 20
1.82505905511811
 30
0.0
 10
-1.059822834645669
 20
1.82505905511811
 30
0.0
 10
-1.059822834645669
 20
1.82505905511811
 30
0.0
 10
-1.059822834645669
 20
1.82505905511811
 30
0.0
 10
-1.059822834645669
 20
1.82505905511811
 30
0.0
 10
-1.059822834645669
 20
1.730811023622047
 30
0.0
 10
-1.059822834645669
 20
1.730811023622047
 30
0.0
 10
-1.059822834645669
 20
1.730811023622047
 30
0.0
 10
-1.059822834645669
 20
1.726366141732284
 30
0.0
 10
-1.059515748031496
 20
1.723503937007874
 30
0.0
 10
-1.05896062992126
 20
1.722224409448819
 30
0.0
 10
-1.05896062992126
 20
1.722224409448819
 30
0.0
 10
-1.058377952755906
 20
1.720948818897638
 30
0.0
 10
-1.05746062992126
 20
1.720003937007874
 30
0.0
 10
-1.056157480314961
 20
1.719338582677165
 30
0.0
 10
-1.056157480314961
 20
1.719338582677165
 30
0.0
 10
-1.054850393700787
 20
1.718696850393701
 30
0.0
 10
-1.052267716535433
 20
1.718366141732284
 30
0.0
 10
-1.048405511811024
 20
1.718366141732284
 30
0.0
 10
-1.048405511811024
 20
1.718366141732284
 30
0.0
 10
-1.048405511811024
 20
1.718366141732284
 30
0.0
 10
-1.040433070866142
 20
1.718366141732284
 30
0.0
 10
-1.040433070866142
 20
1.718366141732284
 30
0.0
 10
-1.040433070866142
 20
1.718366141732284
 30
0.0
 10
-1.040433070866142
 20
1.718366141732284
 30
0.0
 10
-1.040433070866142
 20
1.711531496062992
 30
0.0
 10
-1.040433070866142
 20
1.711531496062992
 30
0.0
 10
-1.040433070866142
 20
1.711531496062992
 30
0.0
 10
-1.040433070866142
 20
1.711531496062992
 30
0.0
 10
-1.094070866141732
 20
1.711531496062992
 30
0.0
 10
-1.094070866141732
 20
1.711531496062992
 30
0.0
 10
-1.094070866141732
 20
1.711531496062992
 30
0.0
 10
-1.094070866141732
 20
1.711531496062992
 30
0.0
 10
-1.094070866141732
 20
1.718366141732284
 30
0.0
 10
-1.094070866141732
 20
1.718366141732284
 30
0.0
 10
-1.094070866141732
 20
1.718366141732284
 30
0.0
 10
-1.094070866141732
 20
1.718366141732284
 30
0.0
 10
-1.085212598425197
 20
1.718366141732284
 30
0.0
 10
-1.085212598425197
 20
1.718366141732284
 30
0.0
 10
-1.085212598425197
 20
1.718366141732284
 30
0.0
 10
-1.081350393700787
 20
1.718366141732284
 30
0.0
 10
-1.078795275590551
 20
1.718696850393701
 30
0.0
 10
-1.077515748031496
 20
1.719393700787402
 30
0.0
 10
-1.077515748031496
 20
1.719393700787402
 30
0.0
 10
-1.076240157480315
 20
1.72005905511811
 30
0.0
 10
-1.075240157480315
 20
1.721141732283465
 30
0.0
 10
-1.074543307086614
 20
1.722641732283465
 30
0.0
 10
-1.074543307086614
 20
1.722641732283465
 30
0.0
 10
-1.073850393700788
 20
1.724141732283465
 30
0.0
 10
-1.073488188976378
 20
1.726866141732284
 30
0.0
 10
-1.073488188976378
 20
1.730811023622047
 30
0.0
 10
-1.073488188976378
 20
1.730811023622047
 30
0.0
 10
-1.073488188976378
 20
1.730811023622047
 30
0.0
 10
-1.073488188976378
 20
1.808279527559055
 30
0.0
 10
-1.073488188976378
 20
1.808279527559055
 30
0.0
 10
-1.073488188976378
 20
1.808279527559055
 30
0.0
 10
-1.073488188976378
 20
1.808279527559055
 30
0.0
 10
-1.094070866141732
 20
1.808279527559055
 30
0.0
 10
-1.094070866141732
 20
1.808279527559055
 30
0.0
 10
-1.094070866141732
 20
1.808279527559055
 30
0.0
 10
-1.094070866141732
 20
1.808279527559055
 30
0.0
 10
-1.094070866141732
 20
1.815279527559055
 30
0.0
 10
-1.094070866141732
 20
1.815279527559055
 30
0.0
 10
-1.094070866141732
 20
1.815279527559055
 30
0.0
 10
-1.082850393700787
 20
1.81686220472441
 30
0.0
 10
-1.07346062992126
 20
1.820114173228347
 30
0.0
 10
-1.065905511811024
 20
1.82505905511811
 30
0.0
  0
SPLINE
  5
36
330
1F
100
AcDbEntity
  8
LAYER_1
 62
   250
100
AcDbSpline
210
0.0
220
0.0
230
1.0
 70
    11
 71
     3
 72
    80
 73
    76
 74
     0
 42
0.0000000001
 43
0.0000000001
 40
0.0
 40
0.0
 40
0.0
 40
0.0
 40
0.0526315789473684
 40
0.0526315789473684
 40
0.0526315789473684
 40
0.0526315789473684
 40
0.1052631578947368
 40
0.1052631578947368
 40
0.1052631578947368
 40
0.1052631578947368
 40
0.1578947368421053
 40
0.1578947368421053
 40
0.1578947368421053
 40
0.1578947368421053
 40
0.2105263157894737
 40
0.2105263157894737
 40
0.2105263157894737
 40
0.2105263157894737
 40
0.2631578947368421
 40
0.2631578947368421
 40
0.2631578947368421
 40
0.2631578947368421
 40
0.3157894736842105
 40
0.3157894736842105
 40
0.3157894736842105
 40
0.3157894736842105
 40
0.3684210526315789
 40
0.3684210526315789
 40
0.3684210526315789
 40
0.3684210526315789
 40
0.4210526315789474
 40
0.4210526315789474
 40
0.4210526315789474
 40
0.4210526315789474
 40
0.4736842105263158
 40
0.4736842105263158
 40
0.4736842105263158
 40
0.4736842105263158
 40
0.5263157894736842
 40
0.5263157894736842
 40
0.5263157894736842
 40
0.5263157894736842
 40
0.5789473684210527
 40
0.5789473684210527
 40
0.5789473684210527
 40
0.5789473684210527
 40
0.631578947368421
 40
0.631578947368421
 40
0.631578947368421
 40
0.631578947368421
 40
0.6842105263157894
 40
0.6842105263157894
 40
0.6842105263157894
 40
0.6842105263157894
 40
0.7368421052631577
 40
0.7368421052631577
 40
0.7368421052631577
 40
0.7368421052631577
 40
0.7894736842105261
 40
0.7894736842105261
 40
0.7894736842105261
 40
0.7894736842105261
 40
0.8421052631578945
 40
0.8421052631578945
 40
0.8421052631578945
 40
0.8421052631578945
 40
0.8947368421052628
 40
0.8947368421052628
 40
0.8947368421052628
 40
0.8947368421052628
 40
0.9473684210526312
 40
0.9473684210526312
 40
0.9473684210526312
 40
0.9473684210526312
 40
1.0
 40
1.0
 40
1.0
 40
1.0
 10
-1.937196850393701
 20
1.641696850393701
 30
0.0
 10
-1.937196850393701
 20
1.641696850393701
 30
0.0
 10
-1.931807086614173
 20
1.641696850393701
 30
0.0
 10
-1.931807086614173
 20
1.641696850393701
 30
0.0
 10
-1.931807086614173
 20
1.641696850393701
 30
0.0
 10
-1.931807086614173
 20
1.641696850393701
 30
0.0
 10
-1.930834645669291
 20
1.63755905511811
 30
0.0
 10
-1.930834645669291
 20
1.63755905511811
 30
0.0
 10
-1.930834645669291
 20
1.63755905511811
 30
0.0
 10
-1.930834645669291
 20
1.63755905511811
 30
0.0
 10
-1.859724409448819
 20
1.63755905511811
 30
0.0
 10
-1.859724409448819
 20
1.63755905511811
 30
0.0
 10
-1.859724409448819
 20
1.63755905511811
 30
0.0
 10
-1.859724409448819
 20
1.63755905511811
 30
0.0
 10
-1.859724409448819
 20
1.630641732283465
 30
0.0
 10
-1.859724409448819
 20
1.630641732283465
 30
0.0
 10
-1.859724409448819
 20
1.630641732283465
 30
0.0
 10
-1.868224409448819
 20
1.620807086614173
 30
0.0
 10
-1.875948818897638
 20
1.609641732283465
 30
0.0
 10
-1.88286220472441
 20
1.59705905511811
 30
0.0
 10
-1.88286220472441
 20
1.59705905511811
 30
0.0
 10
-1.889779527559055
 20
1.584503937007874
 30
0.0
 10
-1.895141732283465
 20
1.571724409448819
 30
0.0
 10
-1.898948818897638
 20
1.558696850393701
 30
0.0
 10
-1.898948818897638
 20
1.558696850393701
 30
0.0
 10
-1.901696850393701
 20
1.549311023622047
 30
0.0
 10
-1.903944881889764
 20
1.537751968503937
 30
0.0
 10
-1.905696850393701
 20
1.524031496062992
 30
0.0
 10
-1.905696850393701
 20
1.524031496062992
 30
0.0
 10
-1.905696850393701
 20
1.524031496062992
 30
0.0
 10
-1.92236220472441
 20
1.524031496062992
 30
0.0
 10
-1.92236220472441
 20
1.524031496062992
 30
0.0
 10
-1.92236220472441
 20
1.524031496062992
 30
0.0
 10
-1.920751968503937
 20
1.536141732283465
 30
0.0
 10
-1.918086614173229
 20
1.547448818897638
 30
0.0
 10
-1.91436220472441
 20
1.557976377952756
 30
0.0
 10
-1.91436220472441
 20
1.557976377952756
 30
0.0
 10
-1.910641732283465
 20
1.568503937007874
 30
0.0
 10
-1.905279527559055
 20
1.579503937007874
 30
0.0
 10
-1.898251968503937
 20
1.590976377952756
 30
0.0
 10
-1.898251968503937
 20
1.590976377952756
 30
0.0
 10
-1.891224409448819
 20
1.602448818897638
 30
0.0
 10
-1.882696850393701
 20
1.613893700787402
 30
0.0
 10
-1.872641732283465
 20
1.625334645669291
 30
0.0
 10
-1.872641732283465
 20
1.625334645669291
 30
0.0
 10
-1.872641732283465
 20
1.625334645669291
 30
0.0
 10
-1.923362204724409
 20
1.625334645669291
 30
0.0
 10
-1.923362204724409
 20
1.625334645669291
 30
0.0
 10
-1.923362204724409
 20
1.625334645669291
 30
0.0
 10
-1.927031496062992
 20
1.625334645669291
 30
0.0
 10
-1.92955905511811
 20
1.625169291338583
 30
0.0
 10
-1.930917322834646
 20
1.624779527559055
 30
0.0
 10
-1.930917322834646
 20
1.624779527559055
 30
0.0
 10
-1.932279527559055
 20
1.624393700787402
 30
0.0
 10
-1.933334645669292
 20
1.623807086614173
 30
0.0
 10
-1.934086614173229
 20
1.623003937007874
 30
0.0
 10
-1.934086614173229
 20
1.623003937007874
 30
0.0
 10
-1.93486220472441
 20
1.622169291338583
 30
0.0
 10
-1.935503937007874
 20
1.620724409448819
 30
0.0
 10
-1.93605905511811
 20
1.618669291338583
 30
0.0
 10
-1.93605905511811
 20
1.618669291338583
 30
0.0
 10
-1.93605905511811
 20
1.618669291338583
 30
0.0
 10
-1.936444881889764
 20
1.617141732283465
 30
0.0
 10
-1.936444881889764
 20
1.617141732283465
 30
0.0
 10
-1.936444881889764
 20
1.617141732283465
 30
0.0
 10
-1.936444881889764
 20
1.617141732283465
 30
0.0
 10
-1.939224409448819
 20
1.607531496062992
 30
0.0
 10
-1.939224409448819
 20
1.607531496062992
 30
0.0
 10
-1.939224409448819
 20
1.607531496062992
 30
0.0
 10
-1.939224409448819
 20
1.607531496062992
 30
0.0
 10
-1.946141732283465
 20
1.609003937007874
 30
0.0
 10
-1.946141732283465
 20
1.609003937007874
 30
0.0
 10
-1.946141732283465
 20
1.609003937007874
 30
0.0
 10
-1.946141732283465
 20
1.609003937007874
 30
0.0
 10
-1.937196850393701
 20
1.641696850393701
 30
0.0
 10
-1.937196850393701
 20
1.641696850393701
 30
0.0
  0
SPLINE
  5
37
330
1F
100
AcDbEntity
  8
LAYER_1
 62
   250
100
AcDbSpline
210
0.0
220
0.0
230
1.0
 70
    11
 71
     3
 72
    20
 73
    16
 74
     0
 42
0.0000000001
 43
0.0000000001
 40
0.0
 40
0.0
 40
0.0
 40
0.0
 40
0.25
 40
0.25
 40
0.25
 40
0.25
 40
0.5
 40
0.5
 40
0.5
 40
0.5
 40
0.75
 40
0.75
 40
0.75
 40
0.75
 40
1.0
 40
1.0
 40
1.0
 40
1.0
 10
-1.770417322834646
 20
1.64342125984252
 30
0.0
 10
-1.770417322834646
 20
1.64342125984252
 30
0.0
 10
-1.826
 20
1.487724409448819
 30
0.0
 10
-1.826
 20
1.487724409448819
 30
0.0
 10
-1.826
 20
1.487724409448819
 30
0.0
 10
-1.826
 20
1.487724409448819
 30
0.0
 10
-1.838055118110236
 20
1.487724409448819
 30
0.0
 10
-1.838055118110236
 20
1.487724409448819
 30
0.0
 10
-1.838055118110236
 20
1.487724409448819
 30
0.0
 10
-1.838055118110236
 20
1.487724409448819
 30
0.0
 10
-1.782807086614173
 20
1.64342125984252
 30
0.0
 10
-1.782807086614173
 20
1.64342125984252
 30
0.0
 10
-1.782807086614173
 20
1.64342125984252
 30
0.0
 10
-1.782807086614173
 20
1.64342125984252
 30
0.0
 10
-1.770417322834646
 20
1.64342125984252
 30
0.0
 10
-1.770417322834646
 20
1.64342125984252
 30
0.0
  0
SPLINE
  5
38
330
1F
100
AcDbEntity
  8
LAYER_1
 62
   250
100
AcDbSpline
210
0.0
220
0.0
230
1.0
 70
    11
 71
     3
 72
    76
 73
    72
 74
     0
 42
0.0000000001
 43
0.0000000001
 40
0.0
 40
0.0
 40
0.0
 40
0.0
 40
0.0555555555555556
 40
0.0555555555555556
 40
0.0555555555555556
 40
0.0555555555555556
 40
0.1111111111111111
 40
0.1111111111111111
 40
0.1111111111111111
 40
0.1111111111111111
 40
0.1666666666666667
 40
0.1666666666666667
 40
0.1666666666666667
 40
0.1666666666666667
 40
0.2222222222222222
 40
0.2222222222222222
 40
0.2222222222222222
 40
0.2222222222222222
 40
0.2777777777777778
 40
0.2777777777777778
 40
0.2777777777777778
 40
0.2777777777777778
 40
0.3333333333333334
 40
0.3333333333333334
 40
0.3333333333333334
 40
0.3333333333333334
 40
0.388888888888889
 40
0.388888888888889
 40
0.388888888888889
 40
0.388888888888889
 40
0.4444444444444445
 40
0.4444444444444445
 40
0.4444444444444445
 40
0.4444444444444445
 40
0.5000000000000001
 40
0.5000000000000001
 40
0.5000000000000001
 40
0.5000000000000001
 40
0.5555555555555557
 40
0.5555555555555557
 40
0.5555555555555557
 40
0.5555555555555557
 40
0.6111111111111113
 40
0.6111111111111113
 40
0.6111111111111113
 40
0.6111111111111113
 40
0.6666666666666669
 40
0.6666666666666669
 40
0.6666666666666669
 40
0.6666666666666669
 40
0.7222222222222224
 40
0.7222222222222224
 40
0.7222222222222224
 40
0.7222222222222224
 40
0.777777777777778
 40
0.777777777777778
 40
0.777777777777778
 40
0.777777777777778
 40
0.8333333333333336
 40
0.8333333333333336
 40
0.8333333333333336
 40
0.8333333333333336
 40
0.8888888888888892
 40
0.8888888888888892
 40
0.8888888888888892
 40
0.8888888888888892
 40
0.9444444444444448
 40
0.9444444444444448
 40
0.9444444444444448
 40
0.9444444444444448
 40
1.0
 40
1.0
 40
1.0
 40
1.0
 10
-1.687417322834646
 20
1.587031496062992
 30
0.0
 10
-1.681
 20
1.584586614173228
 30
0.0
 10
-1.676114173228346
 20
1.582279527559055
 30
0.0
 10
-1.672751968503937
 20
1.580114173228347
 30
0.0
 10
-1.672751968503937
 20
1.580114173228347
 30
0.0
 10
-1.667834645669291
 20
1.576948818897638
 30
0.0
 10
-1.664114173228346
 20
1.573251968503937
 30
0.0
 10
-1.661614173228347
 20
1.569003937007874
 30
0.0
 10
-1.661614173228347
 20
1.569003937007874
 30
0.0
 10
-1.659114173228347
 20
1.564724409448819
 30
0.0
 10
-1.65786220472441
 20
1.560114173228347
 30
0.0
 10
-1.65786220472441
 20
1.555114173228346
 30
0.0
 10
-1.65786220472441
 20
1.555114173228346
 30
0.0
 10
-1.65786220472441
 20
1.546169291338583
 30
0.0
 10
-1.661724409448819
 20
1.53842125984252
 30
0.0
 10
-1.669417322834646
 20
1.531893700787402
 30
0.0
 10
-1.669417322834646
 20
1.531893700787402
 30
0.0
 10
-1.677141732283465
 20
1.525338582677166
 30
0.0
 10
-1.687527559055118
 20
1.522086614173228
 30
0.0
 10
-1.700586614173228
 20
1.522086614173228
 30
0.0
 10
-1.700586614173228
 20
1.522086614173228
 30
0.0
 10
-1.714417322834646
 20
1.522086614173228
 30
0.0
 10
-1.725279527559055
 20
1.525779527559055
 30
0.0
 10
-1.733141732283465
 20
1.533141732283465
 30
0.0
 10
-1.733141732283465
 20
1.533141732283465
 30
0.0
 10
-1.739389763779528
 20
1.53905905511811
 30
0.0
 10
-1.7425
 20
1.545751968503937
 30
0.0
 10
-1.7425
 20
1.553251968503937
 30
0.0
 10
-1.7425
 20
1.553251968503937
 30
0.0
 10
-1.7425
 20
1.559279527559055
 30
0.0
 10
-1.740389763779528
 20
1.564669291338583
 30
0.0
 10
-1.736169291338583
 20
1.569448818897638
 30
0.0
 10
-1.736169291338583
 20
1.569448818897638
 30
0.0
 10
-1.731055118110236
 20
1.575141732283465
 30
0.0
 10
-1.723779527559055
 20
1.579586614173228
 30
0.0
 10
-1.714334645669291
 20
1.582779527559055
 30
0.0
 10
-1.714334645669291
 20
1.582779527559055
 30
0.0
 10
-1.721724409448819
 20
1.586251968503937
 30
0.0
 10
-1.727027559055118
 20
1.589779527559055
 30
0.0
 10
-1.730307086614173
 20
1.593366141732284
 30
0.0
 10
-1.730307086614173
 20
1.593366141732284
 30
0.0
 10
-1.734472440944882
 20
1.598086614173228
 30
0.0
 10
-1.736555118110236
 20
1.603751968503937
 30
0.0
 10
-1.736555118110236
 20
1.61036220472441
 30
0.0
 10
-1.736555118110236
 20
1.61036220472441
 30
0.0
 10
-1.736555118110236
 20
1.61855905511811
 30
0.0
 10
-1.733472440944882
 20
1.625196850393701
 30
0.0
 10
-1.727279527559055
 20
1.630224409448819
 30
0.0
 10
-1.727279527559055
 20
1.630224409448819
 30
0.0
 10
-1.719696850393701
 20
1.63642125984252
 30
0.0
 10
-1.710196850393701
 20
1.639503937007874
 30
0.0
 10
-1.698807086614173
 20
1.639503937007874
 30
0.0
 10
-1.698807086614173
 20
1.639503937007874
 30
0.0
 10
-1.688389763779528
 20
1.639503937007874
 30
0.0
 10
-1.679972440944882
 20
1.636834645669292
 30
0.0
 10
-1.673527559055118
 20
1.631503937007874
 30
0.0
 10
-1.673527559055118
 20
1.631503937007874
 30
0.0
 10
-1.667114173228347
 20
1.626141732283465
 30
0.0
 10
-1.663889763779528
 20
1.620031496062992
 30
0.0
 10
-1.663889763779528
 20
1.613141732283465
 30
0.0
 10
-1.663889763779528
 20
1.613141732283465
 30
0.0
 10
-1.663889763779528
 20
1.609724409448819
 30
0.0
 10
-1.664696850393701
 20
1.606448818897638
 30
0.0
 10
-1.666279527559055
 20
1.603334645669291
 30
0.0
 10
-1.666279527559055
 20
1.603334645669291
 30
0.0
 10
-1.667889763779528
 20
1.600224409448819
 30
0.0
 10
-1.670334645669291
 20
1.597307086614173
 30
0.0
 10
-1.673669291338583
 20
1.594641732283465
 30
0.0
 10
-1.673669291338583
 20
1.594641732283465
 30
0.0
 10
-1.676972440944882
 20
1.591948818897638
 30
0.0
 10
-1.68155905511811
 20
1.58942125984252
 30
0.0
 10
-1.687417322834646
 20
1.587031496062992
 30
0.0
  0
SPLINE
  5
39
330
1F
100
AcDbEntity
  8
LAYER_1
 62
   250
100
AcDbSpline
210
0.0
220
0.0
230
1.0
 70
    11
 71
     3
 72
    48
 73
    44
 74
     0
 42
0.0000000001
 43
0.0000000001
 40
0.0
 40
0.0
 40
0.0
 40
0.0
 40
0.0909090909090909
 40
0.0909090909090909
 40
0.0909090909090909
 40
0.0909090909090909
 40
0.1818181818181818
 40
0.1818181818181818
 40
0.1818181818181818
 40
0.1818181818181818
 40
0.2727272727272727
 40
0.2727272727272727
 40
0.2727272727272727
 40
0.2727272727272727
 40
0.3636363636363637
 40
0.3636363636363637
 40
0.3636363636363637
 40
0.3636363636363637
 40
0.4545454545454546
 40
0.4545454545454546
 40
0.4545454545454546
 40
0.4545454545454546
 40
0.5454545454545455
 40
0.5454545454545455
 40
0.5454545454545455
 40
0.5454545454545455
 40
0.6363636363636365
 40
0.6363636363636365
 40
0.6363636363636365
 40
0.6363636363636365
 40
0.7272727272727274
 40
0.7272727272727274
 40
0.7272727272727274
 40
0.7272727272727274
 40
0.8181818181818183
 40
0.8181818181818183
 40
0.8181818181818183
 40
0.8181818181818183
 40
0.9090909090909093
 40
0.9090909090909093
 40
0.9090909090909093
 40
0.9090909090909093
 40
1.0
 40
1.0
 40
1.0
 40
1.0
 10
-1.694807086614173
 20
1.590031496062992
 30
0.0
 10
-1.688641732283465
 20
1.594696850393701
 30
0.0
 10
-1.684614173228347
 20
1.597948818897638
 30
0.0
 10
-1.682779527559055
 20
1.599807086614173
 30
0.0
 10
-1.682779527559055
 20
1.599807086614173
 30
0.0
 10
-1.680917322834646
 20
1.601641732283465
 30
0.0
 10
-1.6795
 20
1.603751968503937
 30
0.0
 10
-1.6785
 20
1.606114173228347
 30
0.0
 10
-1.6785
 20
1.606114173228347
 30
0.0
 10
-1.6775
 20
1.608476377952756
 30
0.0
 10
-1.677
 20
1.610751968503937
 30
0.0
 10
-1.677
 20
1.612976377952756
 30
0.0
 10
-1.677
 20
1.612976377952756
 30
0.0
 10
-1.677
 20
1.616169291338583
 30
0.0
 10
-1.677944881889764
 20
1.619224409448819
 30
0.0
 10
-1.679834645669291
 20
1.622141732283465
 30
0.0
 10
-1.679834645669291
 20
1.622141732283465
 30
0.0
 10
-1.681751968503937
 20
1.625031496062992
 30
0.0
 10
-1.684527559055118
 20
1.627393700787402
 30
0.0
 10
-1.688196850393701
 20
1.629169291338583
 30
0.0
 10
-1.688196850393701
 20
1.629169291338583
 30
0.0
 10
-1.691834645669291
 20
1.630976377952756
 30
0.0
 10
-1.695944881889764
 20
1.63186220472441
 30
0.0
 10
-1.7005
 20
1.63186220472441
 30
0.0
 10
-1.7005
 20
1.63186220472441
 30
0.0
 10
-1.707251968503937
 20
1.63186220472441
 30
0.0
 10
-1.712834645669291
 20
1.630003937007874
 30
0.0
 10
-1.717279527559055
 20
1.626279527559055
 30
0.0
 10
-1.717279527559055
 20
1.626279527559055
 30
0.0
 10
-1.721724409448819
 20
1.62255905511811
 30
0.0
 10
-1.723944881889764
 20
1.618279527559055
 30
0.0
 10
-1.723944881889764
 20
1.613393700787402
 30
0.0
 10
-1.723944881889764
 20
1.613393700787402
 30
0.0
 10
-1.723944881889764
 20
1.609476377952756
 30
0.0
 10
-1.722555118110236
 20
1.605976377952756
 30
0.0
 10
-1.719807086614173
 20
1.602893700787402
 30
0.0
 10
-1.719807086614173
 20
1.602893700787402
 30
0.0
 10
-1.717027559055118
 20
1.599807086614173
 30
0.0
 10
-1.711889763779528
 20
1.596751968503937
 30
0.0
 10
-1.704334645669291
 20
1.593779527559055
 30
0.0
 10
-1.704334645669291
 20
1.593779527559055
 30
0.0
 10
-1.704334645669291
 20
1.593779527559055
 30
0.0
 10
-1.694807086614173
 20
1.590031496062992
 30
0.0
 10
-1.694807086614173
 20
1.590031496062992
 30
0.0
  0
SPLINE
  5
3A
330
1F
100
AcDbEntity
  8
LAYER_1
 62
   250
100
AcDbSpline
210
0.0
220
0.0
230
1.0
 70
    11
 71
     3
 72
    40
 73
    36
 74
     0
 42
0.0000000001
 43
0.0000000001
 40
0.0
 40
0.0
 40
0.0
 40
0.0
 40
0.1111111111111111
 40
0.1111111111111111
 40
0.1111111111111111
 40
0.1111111111111111
 40
0.2222222222222222
 40
0.2222222222222222
 40
0.2222222222222222
 40
0.2222222222222222
 40
0.3333333333333333
 40
0.3333333333333333
 40
0.3333333333333333
 40
0.3333333333333333
 40
0.4444444444444444
 40
0.4444444444444444
 40
0.4444444444444444
 40
0.4444444444444444
 40
0.5555555555555556
 40
0.5555555555555556
 40
0.5555555555555556
 40
0.5555555555555556
 40
0.6666666666666667
 40
0.6666666666666667
 40
0.6666666666666667
 40
0.6666666666666667
 40
0.7777777777777779
 40
0.7777777777777779
 40
0.7777777777777779
 40
0.7777777777777779
 40
0.8888888888888891
 40
0.8888888888888891
 40
0.8888888888888891
 40
0.8888888888888891
 40
1.0
 40
1.0
 40
1.0
 40
1.0
 10
-1.706279527559055
 20
1.579614173228346
 30
0.0
 10
-1.713944881889764
 20
1.576251968503937
 30
0.0
 10
-1.72
 20
1.571893700787402
 30
0.0
 10
-1.724444881889764
 20
1.566503937007874
 30
0.0
 10
-1.724444881889764
 20
1.566503937007874
 30
0.0
 10
-1.727917322834646
 20
1.562279527559055
 30
0.0
 10
-1.729641732283465
 20
1.557893700787402
 30
0.0
 10
-1.729641732283465
 20
1.553338582677166
 30
0.0
 10
-1.729641732283465
 20
1.553338582677166
 30
0.0
 10
-1.729641732283465
 20
1.547141732283465
 30
0.0
 10
-1.726917322834646
 20
1.541641732283465
 30
0.0
 10
-1.721417322834646
 20
1.536838582677165
 30
0.0
 10
-1.721417322834646
 20
1.536838582677165
 30
0.0
 10
-1.715944881889764
 20
1.53205905511811
 30
0.0
 10
-1.70886220472441
 20
1.529641732283465
 30
0.0
 10
-1.700196850393701
 20
1.529641732283465
 30
0.0
 10
-1.700196850393701
 20
1.529641732283465
 30
0.0
 10
-1.691334645669292
 20
1.529641732283465
 30
0.0
 10
-1.683972440944882
 20
1.532393700787402
 30
0.0
 10
-1.67805905511811
 20
1.537866141732283
 30
0.0
 10
-1.67805905511811
 20
1.537866141732283
 30
0.0
 10
-1.673224409448819
 20
1.542311023622047
 30
0.0
 10
-1.670807086614173
 20
1.547086614173229
 30
0.0
 10
-1.670807086614173
 20
1.552196850393701
 30
0.0
 10
-1.670807086614173
 20
1.552196850393701
 30
0.0
 10
-1.670807086614173
 20
1.556196850393701
 30
0.0
 10
-1.672389763779528
 20
1.560031496062992
 30
0.0
 10
-1.67555905511811
 20
1.563696850393701
 30
0.0
 10
-1.67555905511811
 20
1.563696850393701
 30
0.0
 10
-1.678751968503937
 20
1.567366141732284
 30
0.0
 10
-1.684641732283465
 20
1.57092125984252
 30
0.0
 10
-1.693279527559055
 20
1.574393700787402
 30
0.0
 10
-1.693279527559055
 20
1.574393700787402
 30
0.0
 10
-1.693279527559055
 20
1.574393700787402
 30
0.0
 10
-1.706279527559055
 20
1.579614173228346
 30
0.0
 10
-1.706279527559055
 20
1.579614173228346
 30
0.0
  0
SPLINE
  5
3B
330
1F
100
AcDbEntity
  8
LAYER_1
 62
   250
100
AcDbSpline
210
0.0
220
0.0
230
1.0
 70
    11
 71
     3
 72
    60
 73
    56
 74
     0
 42
0.0000000001
 43
0.0000000001
 40
0.0
 40
0.0
 40
0.0
 40
0.0
 40
0.0714285714285714
 40
0.0714285714285714
 40
0.0714285714285714
 40
0.0714285714285714
 40
0.1428571428571429
 40
0.1428571428571429
 40
0.1428571428571429
 40
0.1428571428571429
 40
0.2142857142857143
 40
0.2142857142857143
 40
0.2142857142857143
 40
0.2142857142857143
 40
0.2857142857142857
 40
0.2857142857142857
 40
0.2857142857142857
 40
0.2857142857142857
 40
0.3571428571428571
 40
0.3571428571428571
 40
0.3571428571428571
 40
0.3571428571428571
 40
0.4285714285714285
 40
0.4285714285714285
 40
0.4285714285714285
 40
0.4285714285714285
 40
0.4999999999999999
 40
0.4999999999999999
 40
0.4999999999999999
 40
0.4999999999999999
 40
0.5714285714285713
 40
0.5714285714285713
 40
0.5714285714285713
 40
0.5714285714285713
 40
0.6428571428571427
 40
0.6428571428571427
 40
0.6428571428571427
 40
0.6428571428571427
 40
0.7142857142857141
 40
0.7142857142857141
 40
0.7142857142857141
 40
0.7142857142857141
 40
0.7857142857142855
 40
0.7857142857142855
 40
0.7857142857142855
 40
0.7857142857142855
 40
0.8571428571428569
 40
0.8571428571428569
 40
0.8571428571428569
 40
0.8571428571428569
 40
0.9285714285714283
 40
0.9285714285714283
 40
0.9285714285714283
 40
0.9285714285714283
 40
1.0
 40
1.0
 40
1.0
 40
1.0
 10
-1.638417322834646
 20
1.595476377952756
 30
0.0
 10
-1.638417322834646
 20
1.595476377952756
 30
0.0
 10
-1.642807086614173
 20
1.600866141732284
 30
0.0
 10
-1.642807086614173
 20
1.600866141732284
 30
0.0
 10
-1.642807086614173
 20
1.600866141732284
 30
0.0
 10
-1.631692913385827
 20
1.60992125984252
 30
0.0
 10
-1.626110236220473
 20
1.617476377952756
 30
0.0
 10
-1.626110236220473
 20
1.62355905511811
 30
0.0
 10
-1.626110236220473
 20
1.62355905511811
 30
0.0
 10
-1.626110236220473
 20
1.624251968503937
 30
0.0
 10
-1.626165354330709
 20
1.625141732283465
 30
0.0
 10
-1.626279527559055
 20
1.626169291338583
 30
0.0
 10
-1.626279527559055
 20
1.626169291338583
 30
0.0
 10
-1.627192913385827
 20
1.625779527559055
 30
0.0
 10
-1.628110236220473
 20
1.625476377952756
 30
0.0
 10
-1.628972440944882
 20
1.625279527559055
 30
0.0
 10
-1.628972440944882
 20
1.625279527559055
 30
0.0
 10
-1.629834645669291
 20
1.62505905511811
 30
0.0
 10
-1.630637795275591
 20
1.624948818897638
 30
0.0
 10
-1.631417322834646
 20
1.624948818897638
 30
0.0
 10
-1.631417322834646
 20
1.624948818897638
 30
0.0
 10
-1.634027559055118
 20
1.624948818897638
 30
0.0
 10
-1.636110236220473
 20
1.625779527559055
 30
0.0
 10
-1.637665354330709
 20
1.627476377952756
 30
0.0
 10
-1.637665354330709
 20
1.627476377952756
 30
0.0
 10
-1.639251968503937
 20
1.629141732283465
 30
0.0
 10
-1.640027559055118
 20
1.631279527559055
 30
0.0
 10
-1.640027559055118
 20
1.633893700787402
 30
0.0
 10
-1.640027559055118
 20
1.633893700787402
 30
0.0
 10
-1.640027559055118
 20
1.636448818897638
 30
0.0
 10
-1.639082677165354
 20
1.638669291338583
 30
0.0
 10
-1.637192913385827
 20
1.64055905511811
 30
0.0
 10
-1.637192913385827
 20
1.64055905511811
 30
0.0
 10
-1.635279527559055
 20
1.642476377952756
 30
0.0
 10
-1.633
 20
1.64342125984252
 30
0.0
 10
-1.63036220472441
 20
1.64342125984252
 30
0.0
 10
-1.63036220472441
 20
1.64342125984252
 30
0.0
 10
-1.626665354330709
 20
1.64342125984252
 30
0.0
 10
-1.6235
 20
1.641948818897638
 30
0.0
 10
-1.620862204724409
 20
1.638976377952756
 30
0.0
 10
-1.620862204724409
 20
1.638976377952756
 30
0.0
 10
-1.618251968503937
 20
1.636031496062992
 30
0.0
 10
-1.616917322834646
 20
1.632224409448819
 30
0.0
 10
-1.616917322834646
 20
1.62755905511811
 30
0.0
 10
-1.616917322834646
 20
1.62755905511811
 30
0.0
 10
-1.616917322834646
 20
1.624503937007874
 30
0.0
 10
-1.617555118110236
 20
1.621307086614173
 30
0.0
 10
-1.618807086614173
 20
1.617976377952756
 30
0.0
 10
-1.618807086614173
 20
1.617976377952756
 30
0.0
 10
-1.620055118110236
 20
1.614641732283465
 30
0.0
 10
-1.62186220472441
 20
1.61155905511811
 30
0.0
 10
-1.624251968503937
 20
1.608696850393701
 30
0.0
 10
-1.624251968503937
 20
1.608696850393701
 30
0.0
 10
-1.626637795275591
 20
1.605866141732284
 30
0.0
 10
-1.631362204724409
 20
1.601448818897638
 30
0.0
 10
-1.638417322834646
 20
1.595476377952756
 30
0.0
  0
SPLINE
  5
3C
330
1F
100
AcDbEntity
  8
LAYER_1
 62
   250
100
AcDbSpline
210
0.0
220
0.0
230
1.0
 70
    11
 71
     3
 72
    60
 73
    56
 74
     0
 42
0.0000000001
 43
0.0000000001
 40
0.0
 40
0.0
 40
0.0
 40
0.0
 40
0.0714285714285714
 40
0.0714285714285714
 40
0.0714285714285714
 40
0.0714285714285714
 40
0.1428571428571429
 40
0.1428571428571429
 40
0.1428571428571429
 40
0.1428571428571429
 40
0.2142857142857143
 40
0.2142857142857143
 40
0.2142857142857143
 40
0.2142857142857143
 40
0.2857142857142857
 40
0.2857142857142857
 40
0.2857142857142857
 40
0.2857142857142857
 40
0.3571428571428571
 40
0.3571428571428571
 40
0.3571428571428571
 40
0.3571428571428571
 40
0.4285714285714285
 40
0.4285714285714285
 40
0.4285714285714285
 40
0.4285714285714285
 40
0.4999999999999999
 40
0.4999999999999999
 40
0.4999999999999999
 40
0.4999999999999999
 40
0.5714285714285713
 40
0.5714285714285713
 40
0.5714285714285713
 40
0.5714285714285713
 40
0.6428571428571427
 40
0.6428571428571427
 40
0.6428571428571427
 40
0.6428571428571427
 40
0.7142857142857141
 40
0.7142857142857141
 40
0.7142857142857141
 40
0.7142857142857141
 40
0.7857142857142855
 40
0.7857142857142855
 40
0.7857142857142855
 40
0.7857142857142855
 40
0.8571428571428569
 40
0.8571428571428569
 40
0.8571428571428569
 40
0.8571428571428569
 40
0.9285714285714283
 40
0.9285714285714283
 40
0.9285714285714283
 40
0.9285714285714283
 40
1.0
 40
1.0
 40
1.0
 40
1.0
 10
-1.60936220472441
 20
1.595476377952756
 30
0.0
 10
-1.60936220472441
 20
1.595476377952756
 30
0.0
 10
-1.613751968503937
 20
1.600866141732284
 30
0.0
 10
-1.613751968503937
 20
1.600866141732284
 30
0.0
 10
-1.613751968503937
 20
1.600866141732284
 30
0.0
 10
-1.602637795275591
 20
1.60992125984252
 30
0.0
 10
-1.597055118110236
 20
1.617476377952756
 30
0.0
 10
-1.597055118110236
 20
1.62355905511811
 30
0.0
 10
-1.597055118110236
 20
1.62355905511811
 30
0.0
 10
-1.597055118110236
 20
1.624251968503937
 30
0.0
 10
-1.597110236220473
 20
1.625141732283465
 30
0.0
 10
-1.597224409448819
 20
1.626169291338583
 30
0.0
 10
-1.597224409448819
 20
1.626169291338583
 30
0.0
 10
-1.598137795275591
 20
1.625779527559055
 30
0.0
 10
-1.599055118110236
 20
1.625476377952756
 30
0.0
 10
-1.599917322834646
 20
1.625279527559055
 30
0.0
 10
-1.599917322834646
 20
1.625279527559055
 30
0.0
 10
-1.600779527559055
 20
1.62505905511811
 30
0.0
 10
-1.601610236220473
 20
1.624948818897638
 30
0.0
 10
-1.602444881889764
 20
1.624948818897638
 30
0.0
 10
-1.602444881889764
 20
1.624948818897638
 30
0.0
 10
-1.605
 20
1.624948818897638
 30
0.0
 10
-1.607055118110236
 20
1.625779527559055
 30
0.0
 10
-1.608610236220473
 20
1.627476377952756
 30
0.0
 10
-1.608610236220473
 20
1.627476377952756
 30
0.0
 10
-1.610192913385827
 20
1.629141732283465
 30
0.0
 10
-1.610972440944882
 20
1.631279527559055
 30
0.0
 10
-1.610972440944882
 20
1.633893700787402
 30
0.0
 10
-1.610972440944882
 20
1.633893700787402
 30
0.0
 10
-1.610972440944882
 20
1.636448818897638
 30
0.0
 10
-1.610027559055118
 20
1.638669291338583
 30
0.0
 10
-1.608137795275591
 20
1.64055905511811
 30
0.0
 10
-1.608137795275591
 20
1.64055905511811
 30
0.0
 10
-1.606251968503937
 20
1.642476377952756
 30
0.0
 10
-1.603944881889764
 20
1.64342125984252
 30
0.0
 10
-1.601307086614173
 20
1.64342125984252
 30
0.0
 10
-1.601307086614173
 20
1.64342125984252
 30
0.0
 10
-1.597610236220473
 20
1.64342125984252
 30
0.0
 10
-1.594444881889764
 20
1.641948818897638
 30
0.0
 10
-1.591807086614173
 20
1.638976377952756
 30
0.0
 10
-1.591807086614173
 20
1.638976377952756
 30
0.0
 10
-1.589196850393701
 20
1.636031496062992
 30
0.0
 10
-1.58786220472441
 20
1.632224409448819
 30
0.0
 10
-1.58786220472441
 20
1.62755905511811
 30
0.0
 10
-1.58786220472441
 20
1.62755905511811
 30
0.0
 10
-1.58786220472441
 20
1.624503937007874
 30
0.0
 10
-1.5885
 20
1.621307086614173
 30
0.0
 10
-1.589751968503937
 20
1.617976377952756
 30
0.0
 10
-1.589751968503937
 20
1.617976377952756
 30
0.0
 10
-1.591
 20
1.614641732283465
 30
0.0
 10
-1.592807086614173
 20
1.61155905511811
 30
0.0
 10
-1.595192913385827
 20
1.608696850393701
 30
0.0
 10
-1.595192913385827
 20
1.608696850393701
 30
0.0
 10
-1.597582677165354
 20
1.605866141732284
 30
0.0
 10
-1.602307086614173
 20
1.601448818897638
 30
0.0
 10
-1.60936220472441
 20
1.595476377952756
 30
0.0
  0
SPLINE
  5
3D
330
1F
100
AcDbEntity
  8
LAYER_1
 62
   250
100
AcDbSpline
210
0.0
220
0.0
230
1.0
 70
    11
 71
     3
 72
   204
 73
   200
 74
     0
 42
0.0000000001
 43
0.0000000001
 40
0.0
 40
0.0
 40
0.0
 40
0.0
 40
0.02
 40
0.02
 40
0.02
 40
0.02
 40
0.04
 40
0.04
 40
0.04
 40
0.04
 40
0.06
 40
0.06
 40
0.06
 40
0.06
 40
0.08
 40
0.08
 40
0.08
 40
0.08
 40
0.1
 40
0.1
 40
0.1
 40
0.1
 40
0.12
 40
0.12
 40
0.12
 40
0.12
 40
0.14
 40
0.14
 40
0.14
 40
0.14
 40
0.16
 40
0.16
 40
0.16
 40
0.16
 40
0.18
 40
0.18
 40
0.18
 40
0.18
 40
0.2
 40
0.2
 40
0.2
 40
0.2
 40
0.22
 40
0.22
 40
0.22
 40
0.22
 40
0.24
 40
0.24
 40
0.24
 40
0.24
 40
0.26
 40
0.26
 40
0.26
 40
0.26
 40
0.28
 40
0.28
 40
0.28
 40
0.28
 40
0.3
 40
0.3
 40
0.3
 40
0.3
 40
0.32
 40
0.32
 40
0.32
 40
0.32
 40
0.34
 40
0.34
 40
0.34
 40
0.34
 40
0.36
 40
0.36
 40
0.36
 40
0.36
 40
0.3800000000000001
 40
0.3800000000000001
 40
0.3800000000000001
 40
0.3800000000000001
 40
0.4000000000000001
 40
0.4000000000000001
 40
0.4000000000000001
 40
0.4000000000000001
 40
0.4200000000000001
 40
0.4200000000000001
 40
0.4200000000000001
 40
0.4200000000000001
 40
0.4400000000000001
 40
0.4400000000000001
 40
0.4400000000000001
 40
0.4400000000000001
 40
0.4600000000000001
 40
0.4600000000000001
 40
0.4600000000000001
 40
0.4600000000000001
 40
0.4800000000000002
 40
0.4800000000000002
 40
0.4800000000000002
 40
0.4800000000000002
 40
0.5000000000000001
 40
0.5000000000000001
 40
0.5000000000000001
 40
0.5000000000000001
 40
0.5200000000000001
 40
0.5200000000000001
 40
0.5200000000000001
 40
0.5200000000000001
 40
0.5400000000000002
 40
0.5400000000000002
 40
0.5400000000000002
 40
0.5400000000000002
 40
0.5600000000000002
 40
0.5600000000000002
 40
0.5600000000000002
 40
0.5600000000000002
 40
0.5800000000000002
 40
0.5800000000000002
 40
0.5800000000000002
 40
0.5800000000000002
 40
0.6000000000000002
 40
0.6000000000000002
 40
0.6000000000000002
 40
0.6000000000000002
 40
0.6200000000000002
 40
0.6200000000000002
 40
0.6200000000000002
 40
0.6200000000000002
 40
0.6400000000000002
 40
0.6400000000000002
 40
0.6400000000000002
 40
0.6400000000000002
 40
0.6600000000000003
 40
0.6600000000000003
 40
0.6600000000000003
 40
0.6600000000000003
 40
0.6800000000000003
 40
0.6800000000000003
 40
0.6800000000000003
 40
0.6800000000000003
 40
0.7000000000000003
 40
0.7000000000000003
 40
0.7000000000000003
 40
0.7000000000000003
 40
0.7200000000000003
 40
0.7200000000000003
 40
0.7200000000000003
 40
0.7200000000000003
 40
0.7400000000000003
 40
0.7400000000000003
 40
0.7400000000000003
 40
0.7400000000000003
 40
0.7600000000000003
 40
0.7600000000000003
 40
0.7600000000000003
 40
0.7600000000000003
 40
0.7800000000000004
 40
0.7800000000000004
 40
0.7800000000000004
 40
0.7800000000000004
 40
0.8000000000000004
 40
0.8000000000000004
 40
0.8000000000000004
 40
0.8000000000000004
 40
0.8200000000000004
 40
0.8200000000000004
 40
0.8200000000000004
 40
0.8200000000000004
 40
0.8400000000000004
 40
0.8400000000000004
 40
0.8400000000000004
 40
0.8400000000000004
 40
0.8600000000000004
 40
0.8600000000000004
 40
0.8600000000000004
 40
0.8600000000000004
 40
0.8800000000000005
 40
0.8800000000000005
 40
0.8800000000000005
 40
0.8800000000000005
 40
0.9000000000000005
 40
0.9000000000000005
 40
0.9000000000000005
 40
0.9000000000000005
 40
0.9200000000000005
 40
0.9200000000000005
 40
0.9200000000000005
 40
0.9200000000000005
 40
0.9400000000000005
 40
0.9400000000000005
 40
0.9400000000000005
 40
0.9400000000000005
 40
0.9600000000000005
 40
0.9600000000000005
 40
0.9600000000000005
 40
0.9600000000000005
 40
0.9800000000000005
 40
0.9800000000000005
 40
0.9800000000000005
 40
0.9800000000000005
 40
1.0
 40
1.0
 40
1.0
 40
1.0
 10
-1.525555118110236
 20
1.60255905511811
 30
0.0
 10
-1.525555118110236
 20
1.60255905511811
 30
0.0
 10
-1.484610236220473
 20
1.60255905511811
 30
0.0
 10
-1.484610236220473
 20
1.60255905511811
 30
0.0
 10
-1.484610236220473
 20
1.60255905511811
 30
0.0
 10
-1.484610236220473
 20
1.60255905511811
 30
0.0
 10
-1.484610236220473
 20
1.595724409448819
 30
0.0
 10
-1.484610236220473
 20
1.595724409448819
 30
0.0
 10
-1.484610236220473
 20
1.595724409448819
 30
0.0
 10
-1.484610236220473
 20
1.595724409448819
 30
0.0
 10
-1.487444881889764
 20
1.595724409448819
 30
0.0
 10
-1.487444881889764
 20
1.595724409448819
 30
0.0
 10
-1.487444881889764
 20
1.595724409448819
 30
0.0
 10
-1.489082677165355
 20
1.595724409448819
 30
0.0
 10
-1.490582677165354
 20
1.595531496062992
 30
0.0
 10
-1.491944881889764
 20
1.595169291338583
 30
0.0
 10
-1.491944881889764
 20
1.595169291338583
 30
0.0
 10
-1.492748031496063
 20
1.594948818897638
 30
0.0
 10
-1.493417322834646
 20
1.594531496062992
 30
0.0
 10
-1.493917322834646
 20
1.593893700787402
 30
0.0
 10
-1.493917322834646
 20
1.593893700787402
 30
0.0
 10
-1.494444881889764
 20
1.593279527559055
 30
0.0
 10
-1.494692913385827
 20
1.592696850393701
 30
0.0
 10
-1.494692913385827
 20
1.592141732283465
 30
0.0
 10
-1.494692913385827
 20
1.592141732283465
 30
0.0
 10
-1.494692913385827
 20
1.590893700787402
 30
0.0
 10
-1.493665354330709
 20
1.589031496062992
 30
0.0
 10
-1.491610236220472
 20
1.586531496062992
 30
0.0
 10
-1.491610236220472
 20
1.586531496062992
 30
0.0
 10
-1.491610236220472
 20
1.586531496062992
 30
0.0
 10
-1.479972440944882
 20
1.571893700787402
 30
0.0
 10
-1.479972440944882
 20
1.571893700787402
 30
0.0
 10
-1.479972440944882
 20
1.571893700787402
 30
0.0
 10
-1.479972440944882
 20
1.571893700787402
 30
0.0
 10
-1.466389763779528
 20
1.586531496062992
 30
0.0
 10
-1.466389763779528
 20
1.586531496062992
 30
0.0
 10
-1.466389763779528
 20
1.586531496062992
 30
0.0
 10
-1.463889763779528
 20
1.589251968503937
 30
0.0
 10
-1.462637795275591
 20
1.591279527559055
 30
0.0
 10
-1.462637795275591
 20
1.592641732283465
 30
0.0
 10
-1.462637795275591
 20
1.592641732283465
 30
0.0
 10
-1.462637795275591
 20
1.593614173228346
 30
0.0
 10
-1.463082677165355
 20
1.594366141732283
 30
0.0
 10
-1.463944881889764
 20
1.59492125984252
 30
0.0
 10
-1.463944881889764
 20
1.59492125984252
 30
0.0
 10
-1.464807086614173
 20
1.595448818897638
 30
0.0
 10
-1.466665354330709
 20
1.595724409448819
 30
0.0
 10
-1.469555118110236
 20
1.595724409448819
 30
0.0
 10
-1.469555118110236
 20
1.595724409448819
 30
0.0
 10
-1.469555118110236
 20
1.595724409448819
 30
0.0
 10
-1.472637795275591
 20
1.595724409448819
 30
0.0
 10
-1.472637795275591
 20
1.595724409448819
 30
0.0
 10
-1.472637795275591
 20
1.595724409448819
 30
0.0
 10
-1.472637795275591
 20
1.595724409448819
 30
0.0
 10
-1.472637795275591
 20
1.60255905511811
 30
0.0
 10
-1.472637795275591
 20
1.60255905511811
 30
0.0
 10
-1.472637795275591
 20
1.60255905511811
 30
0.0
 10
-1.472637795275591
 20
1.60255905511811
 30
0.0
 10
-1.437889763779528
 20
1.60255905511811
 30
0.0
 10
-1.437889763779528
 20
1.60255905511811
 30
0.0
 10
-1.437889763779528
 20
1.60255905511811
 30
0.0
 10
-1.437889763779528
 20
1.60255905511811
 30
0.0
 10
-1.437889763779528
 20
1.595724409448819
 30
0.0
 10
-1.437889763779528
 20
1.595724409448819
 30
0.0
 10
-1.437889763779528
 20
1.595724409448819
 30
0.0
 10
-1.441307086614173
 20
1.59555905511811
 30
0.0
 10
-1.444251968503937
 20
1.594866141732284
 30
0.0
 10
-1.446720472440945
 20
1.593614173228346
 30
0.0
 10
-1.446720472440945
 20
1.593614173228346
 30
0.0
 10
-1.449192913385827
 20
1.592366141732284
 30
0.0
 10
-1.452110236220473
 20
1.590003937007874
 30
0.0
 10
-1.455472440944882
 20
1.586531496062992
 30
0.0
 10
-1.455472440944882
 20
1.586531496062992
 30
0.0
 10
-1.455472440944882
 20
1.586531496062992
 30
0.0
 10
-1.474110236220473
 20
1.567169291338583
 30
0.0
 10
-1.474110236220473
 20
1.567169291338583
 30
0.0
 10
-1.474110236220473
 20
1.567169291338583
 30
0.0
 10
-1.474110236220473
 20
1.567169291338583
 30
0.0
 10
-1.450917322834646
 20
1.540724409448819
 30
0.0
 10
-1.450917322834646
 20
1.540724409448819
 30
0.0
 10
-1.450917322834646
 20
1.540724409448819
 30
0.0
 10
-1.450917322834646
 20
1.540724409448819
 30
0.0
 10
-1.450027559055118
 20
1.539586614173228
 30
0.0
 10
-1.450027559055118
 20
1.539586614173228
 30
0.0
 10
-1.450027559055118
 20
1.539586614173228
 30
0.0
 10
-1.447751968503937
 20
1.536641732283465
 30
0.0
 10
-1.445192913385827
 20
1.534279527559055
 30
0.0
 10
-1.44236220472441
 20
1.532503937007874
 30
0.0
 10
-1.44236220472441
 20
1.532503937007874
 30
0.0
 10
-1.440807086614173
 20
1.531476377952756
 30
0.0
 10
-1.43836220472441
 20
1.53092125984252
 30
0.0
 10
-1.435055118110236
 20
1.530866141732284
 30
0.0
 10
-1.435055118110236
 20
1.530866141732284
 30
0.0
 10
-1.435055118110236
 20
1.530866141732284
 30
0.0
 10
-1.435055118110236
 20
1.524031496062992
 30
0.0
 10
-1.435055118110236
 20
1.524031496062992
 30
0.0
 10
-1.435055118110236
 20
1.524031496062992
 30
0.0
 10
-1.435055118110236
 20
1.524031496062992
 30
0.0
 10
-1.475
 20
1.524031496062992
 30
0.0
 10
-1.475
 20
1.524031496062992
 30
0.0
 10
-1.475
 20
1.524031496062992
 30
0.0
 10
-1.475
 20
1.524031496062992
 30
0.0
 10
-1.475
 20
1.530866141732284
 30
0.0
 10
-1.475
 20
1.530866141732284
 30
0.0
 10
-1.475
 20
1.530866141732284
 30
0.0
 10
-1.475
 20
1.530866141732284
 30
0.0
 10
-1.471582677165354
 20
1.530866141732284
 30
0.0
 10
-1.471582677165354
 20
1.530866141732284
 30
0.0
 10
-1.471582677165354
 20
1.530866141732284
 30
0.0
 10
-1.468972440944882
 20
1.530866141732284
 30
0.0
 10
-1.467334645669292
 20
1.531031496062992
 30
0.0
 10
-1.466610236220473
 20
1.531366141732284
 30
0.0
 10
-1.466610236220473
 20
1.531366141732284
 30
0.0
 10
-1.465444881889764
 20
1.531893700787402
 30
0.0
 10
-1.464834645669291
 20
1.532811023622047
 30
0.0
 10
-1.464834645669291
 20
1.534114173228347
 30
0.0
 10
-1.464834645669291
 20
1.534114173228347
 30
0.0
 10
-1.464834645669291
 20
1.535311023622047
 30
0.0
 10
-1.466137795275591
 20
1.537503937007874
 30
0.0
 10
-1.468751968503937
 20
1.540724409448819
 30
0.0
 10
-1.468751968503937
 20
1.540724409448819
 30
0.0
 10
-1.468751968503937
 20
1.540724409448819
 30
0.0
 10
-1.483555118110236
 20
1.558866141732284
 30
0.0
 10
-1.483555118110236
 20
1.558866141732284
 30
0.0
 10
-1.483555118110236
 20
1.558866141732284
 30
0.0
 10
-1.483555118110236
 20
1.558866141732284
 30
0.0
 10
-1.500082677165354
 20
1.540724409448819
 30
0.0
 10
-1.500082677165354
 20
1.540724409448819
 30
0.0
 10
-1.500082677165354
 20
1.540724409448819
 30
0.0
 10
-1.500082677165354
 20
1.540724409448819
 30
0.0
 10
-1.501692913385827
 20
1.538751968503937
 30
0.0
 10
-1.501692913385827
 20
1.538751968503937
 30
0.0
 10
-1.501692913385827
 20
1.538751968503937
 30
0.0
 10
-1.501692913385827
 20
1.538751968503937
 30
0.0
 10
-1.502582677165354
 20
1.537779527559055
 30
0.0
 10
-1.502582677165354
 20
1.537779527559055
 30
0.0
 10
-1.502582677165354
 20
1.537779527559055
 30
0.0
 10
-1.503944881889764
 20
1.536311023622047
 30
0.0
 10
-1.504637795275591
 20
1.535031496062992
 30
0.0
 10
-1.504637795275591
 20
1.533893700787402
 30
0.0
 10
-1.504637795275591
 20
1.533893700787402
 30
0.0
 10
-1.504637795275591
 20
1.532838582677165
 30
0.0
 10
-1.504220472440945
 20
1.532086614173228
 30
0.0
 10
-1.50336220472441
 20
1.531586614173228
 30
0.0
 10
-1.50336220472441
 20
1.531586614173228
 30
0.0
 10
-1.502527559055118
 20
1.531114173228346
 30
0.0
 10
-1.500637795275591
 20
1.530866141732284
 30
0.0
 10
-1.497720472440945
 20
1.530866141732284
 30
0.0
 10
-1.497720472440945
 20
1.530866141732284
 30
0.0
 10
-1.497720472440945
 20
1.530866141732284
 30
0.0
 10
-1.494444881889764
 20
1.530866141732284
 30
0.0
 10
-1.494444881889764
 20
1.530866141732284
 30
0.0
 10
-1.494444881889764
 20
1.530866141732284
 30
0.0
 10
-1.494444881889764
 20
1.530866141732284
 30
0.0
 10
-1.494444881889764
 20
1.524031496062992
 30
0.0
 10
-1.494444881889764
 20
1.524031496062992
 30
0.0
 10
-1.494444881889764
 20
1.524031496062992
 30
0.0
 10
-1.494444881889764
 20
1.524031496062992
 30
0.0
 10
-1.528720472440945
 20
1.524031496062992
 30
0.0
 10
-1.528720472440945
 20
1.524031496062992
 30
0.0
 10
-1.528720472440945
 20
1.524031496062992
 30
0.0
 10
-1.528720472440945
 20
1.524031496062992
 30
0.0
 10
-1.528720472440945
 20
1.530866141732284
 30
0.0
 10
-1.528720472440945
 20
1.530866141732284
 30
0.0
 10
-1.528720472440945
 20
1.530866141732284
 30
0.0
 10
-1.526055118110236
 20
1.53092125984252
 30
0.0
 10
-1.523972440944882
 20
1.531196850393701
 30
0.0
 10
-1.522444881889764
 20
1.531724409448819
 30
0.0
 10
-1.522444881889764
 20
1.531724409448819
 30
0.0
 10
-1.520944881889764
 20
1.532224409448819
 30
0.0
 10
-1.519472440944882
 20
1.533031496062992
 30
0.0
 10
-1.518055118110236
 20
1.534114173228347
 30
0.0
 10
-1.518055118110236
 20
1.534114173228347
 30
0.0
 10
-1.515610236220472
 20
1.536086614173228
 30
0.0
 10
-1.51386220472441
 20
1.537614173228347
 30
0.0
 10
-1.512775590551181
 20
1.538751968503937
 30
0.0
 10
-1.512775590551181
 20
1.538751968503937
 30
0.0
 10
-1.512775590551181
 20
1.538751968503937
 30
0.0
 10
-1.488917322834646
 20
1.563251968503937
 30
0.0
 10
-1.488917322834646
 20
1.563251968503937
 30
0.0
 10
-1.488917322834646
 20
1.563251968503937
 30
0.0
 10
-1.488917322834646
 20
1.563251968503937
 30
0.0
 10
-1.509192913385827
 20
1.586531496062992
 30
0.0
 10
-1.509192913385827
 20
1.586531496062992
 30
0.0
 10
-1.509192913385827
 20
1.586531496062992
 30
0.0
 10
-1.511748031496063
 20
1.58942125984252
 30
0.0
 10
-1.513748031496063
 20
1.59142125984252
 30
0.0
 10
-1.515248031496063
 20
1.592586614173228
 30
0.0
 10
-1.515248031496063
 20
1.592586614173228
 30
0.0
 10
-1.516748031496063
 20
1.593751968503937
 30
0.0
 10
-1.518192913385827
 20
1.594586614173228
 30
0.0
 10
-1.519610236220472
 20
1.595031496062992
 30
0.0
 10
-1.519610236220472
 20
1.595031496062992
 30
0.0
 10
-1.521027559055118
 20
1.595503937007874
 30
0.0
 10
-1.523
 20
1.595724409448819
 30
0.0
 10
-1.525555118110236
 20
1.595724409448819
 30
0.0
 10
-1.525555118110236
 20
1.595724409448819
 30
0.0
 10
-1.525555118110236
 20
1.595724409448819
 30
0.0
 10
-1.525555118110236
 20
1.60255905511811
 30
0.0
 10
-1.525555118110236
 20
1.60255905511811
 30
0.0
  0
SPLINE
  5
3E
330
1F
100
AcDbEntity
  8
LAYER_1
 62
   250
100
AcDbSpline
210
0.0
220
0.0
230
1.0
 70
    11
 71
     3
 72
    72
 73
    68
 74
     0
 42
0.0000000001
 43
0.0000000001
 40
0.0
 40
0.0
 40
0.0
 40
0.0
 40
0.0588235294117647
 40
0.0588235294117647
 40
0.0588235294117647
 40
0.0588235294117647
 40
0.1176470588235294
 40
0.1176470588235294
 40
0.1176470588235294
 40
0.1176470588235294
 40
0.1764705882352941
 40
0.1764705882352941
 40
0.1764705882352941
 40
0.1764705882352941
 40
0.2352941176470588
 40
0.2352941176470588
 40
0.2352941176470588
 40
0.2352941176470588
 40
0.2941176470588235
 40
0.2941176470588235
 40
0.2941176470588235
 40
0.2941176470588235
 40
0.3529411764705883
 40
0.3529411764705883
 40
0.3529411764705883
 40
0.3529411764705883
 40
0.411764705882353
 40
0.411764705882353
 40
0.411764705882353
 40
0.411764705882353
 40
0.4705882352941177
 40
0.4705882352941177
 40
0.4705882352941177
 40
0.4705882352941177
 40
0.5294117647058824
 40
0.5294117647058824
 40
0.5294117647058824
 40
0.5294117647058824
 40
0.5882352941176471
 40
0.5882352941176471
 40
0.5882352941176471
 40
0.5882352941176471
 40
0.6470588235294118
 40
0.6470588235294118
 40
0.6470588235294118
 40
0.6470588235294118
 40
0.7058823529411765
 40
0.7058823529411765
 40
0.7058823529411765
 40
0.7058823529411765
 40
0.7647058823529412
 40
0.7647058823529412
 40
0.7647058823529412
 40
0.7647058823529412
 40
0.823529411764706
 40
0.823529411764706
 40
0.823529411764706
 40
0.823529411764706
 40
0.8823529411764707
 40
0.8823529411764707
 40
0.8823529411764707
 40
0.8823529411764707
 40
0.9411764705882354
 40
0.9411764705882354
 40
0.9411764705882354
 40
0.9411764705882354
 40
1.0
 40
1.0
 40
1.0
 40
1.0
 10
-1.325917322834646
 20
1.63755905511811
 30
0.0
 10
-1.325917322834646
 20
1.63755905511811
 30
0.0
 10
-1.319834645669291
 20
1.63755905511811
 30
0.0
 10
-1.319834645669291
 20
1.63755905511811
 30
0.0
 10
-1.319834645669291
 20
1.63755905511811
 30
0.0
 10
-1.319834645669291
 20
1.63755905511811
 30
0.0
 10
-1.319834645669291
 20
1.543311023622047
 30
0.0
 10
-1.319834645669291
 20
1.543311023622047
 30
0.0
 10
-1.319834645669291
 20
1.543311023622047
 30
0.0
 10
-1.319834645669291
 20
1.538866141732284
 30
0.0
 10
-1.319527559055118
 20
1.536003937007874
 30
0.0
 10
-1.318972440944882
 20
1.534724409448819
 30
0.0
 10
-1.318972440944882
 20
1.534724409448819
 30
0.0
 10
-1.318389763779528
 20
1.533448818897638
 30
0.0
 10
-1.317472440944882
 20
1.532503937007874
 30
0.0
 10
-1.316169291338583
 20
1.531838582677165
 30
0.0
 10
-1.316169291338583
 20
1.531838582677165
 30
0.0
 10
-1.314862204724409
 20
1.531196850393701
 30
0.0
 10
-1.312279527559055
 20
1.530866141732284
 30
0.0
 10
-1.308417322834646
 20
1.530866141732284
 30
0.0
 10
-1.308417322834646
 20
1.530866141732284
 30
0.0
 10
-1.308417322834646
 20
1.530866141732284
 30
0.0
 10
-1.300444881889764
 20
1.530866141732284
 30
0.0
 10
-1.300444881889764
 20
1.530866141732284
 30
0.0
 10
-1.300444881889764
 20
1.530866141732284
 30
0.0
 10
-1.300444881889764
 20
1.530866141732284
 30
0.0
 10
-1.300444881889764
 20
1.524031496062992
 30
0.0
 10
-1.300444881889764
 20
1.524031496062992
 30
0.0
 10
-1.300444881889764
 20
1.524031496062992
 30
0.0
 10
-1.300444881889764
 20
1.524031496062992
 30
0.0
 10
-1.354082677165355
 20
1.524031496062992
 30
0.0
 10
-1.354082677165355
 20
1.524031496062992
 30
0.0
 10
-1.354082677165355
 20
1.524031496062992
 30
0.0
 10
-1.354082677165355
 20
1.524031496062992
 30
0.0
 10
-1.354082677165355
 20
1.530866141732284
 30
0.0
 10
-1.354082677165355
 20
1.530866141732284
 30
0.0
 10
-1.354082677165355
 20
1.530866141732284
 30
0.0
 10
-1.354082677165355
 20
1.530866141732284
 30
0.0
 10
-1.345224409448819
 20
1.530866141732284
 30
0.0
 10
-1.345224409448819
 20
1.530866141732284
 30
0.0
 10
-1.345224409448819
 20
1.530866141732284
 30
0.0
 10
-1.34136220472441
 20
1.530866141732284
 30
0.0
 10
-1.338807086614173
 20
1.531196850393701
 30
0.0
 10
-1.337527559055118
 20
1.531893700787402
 30
0.0
 10
-1.337527559055118
 20
1.531893700787402
 30
0.0
 10
-1.336251968503937
 20
1.53255905511811
 30
0.0
 10
-1.335251968503937
 20
1.533641732283465
 30
0.0
 10
-1.334555118110236
 20
1.535141732283465
 30
0.0
 10
-1.334555118110236
 20
1.535141732283465
 30
0.0
 10
-1.33386220472441
 20
1.536641732283465
 30
0.0
 10
-1.3335
 20
1.539366141732284
 30
0.0
 10
-1.3335
 20
1.543311023622047
 30
0.0
 10
-1.3335
 20
1.543311023622047
 30
0.0
 10
-1.3335
 20
1.543311023622047
 30
0.0
 10
-1.3335
 20
1.620779527559055
 30
0.0
 10
-1.3335
 20
1.620779527559055
 30
0.0
 10
-1.3335
 20
1.620779527559055
 30
0.0
 10
-1.3335
 20
1.620779527559055
 30
0.0
 10
-1.354082677165355
 20
1.620779527559055
 30
0.0
 10
-1.354082677165355
 20
1.620779527559055
 30
0.0
 10
-1.354082677165355
 20
1.620779527559055
 30
0.0
 10
-1.354082677165355
 20
1.620779527559055
 30
0.0
 10
-1.354082677165355
 20
1.627779527559055
 30
0.0
 10
-1.354082677165355
 20
1.627779527559055
 30
0.0
 10
-1.354082677165355
 20
1.627779527559055
 30
0.0
 10
-1.342862204724409
 20
1.629362204724409
 30
0.0
 10
-1.333472440944882
 20
1.632614173228347
 30
0.0
 10
-1.325917322834646
 20
1.63755905511811
 30
0.0
  0
SPLINE
  5
3F
330
1F
100
AcDbEntity
  8
LAYER_1
 62
   250
100
AcDbSpline
210
0.0
220
0.0
230
1.0
 70
    11
 71
     3
 72
    20
 73
    16
 74
     0
 42
0.0000000001
 43
0.0000000001
 40
0.0
 40
0.0
 40
0.0
 40
0.0
 40
0.25
 40
0.25
 40
0.25
 40
0.25
 40
0.5
 40
0.5
 40
0.5
 40
0.5
 40
0.75
 40
0.75
 40
0.75
 40
0.75
 40
1.0
 40
1.0
 40
1.0
 40
1.0
 10
-1.269444881889764
 20
1.570503937007874
 30
0.0
 10
-1.269444881889764
 20
1.570503937007874
 30
0.0
 10
-1.221110236220472
 20
1.570503937007874
 30
0.0
 10
-1.221110236220472
 20
1.570503937007874
 30
0.0
 10
-1.221110236220472
 20
1.570503937007874
 30
0.0
 10
-1.221110236220472
 20
1.570503937007874
 30
0.0
 10
-1.221110236220472
 20
1.56042125984252
 30
0.0
 10
-1.221110236220472
 20
1.56042125984252
 30
0.0
 10
-1.221110236220472
 20
1.56042125984252
 30
0.0
 10
-1.221110236220472
 20
1.56042125984252
 30
0.0
 10
-1.269444881889764
 20
1.56042125984252
 30
0.0
 10
-1.269444881889764
 20
1.56042125984252
 30
0.0
 10
-1.269444881889764
 20
1.56042125984252
 30
0.0
 10
-1.269444881889764
 20
1.56042125984252
 30
0.0
 10
-1.269444881889764
 20
1.570503937007874
 30
0.0
 10
-1.269444881889764
 20
1.570503937007874
 30
0.0
  0
SPLINE
  5
40
330
1F
100
AcDbEntity
  8
LAYER_1
 62
   250
100
AcDbSpline
210
0.0
220
0.0
230
1.0
 70
    11
 71
     3
 72
    72
 73
    68
 74
     0
 42
0.0000000001
 43
0.0000000001
 40
0.0
 40
0.0
 40
0.0
 40
0.0
 40
0.0588235294117647
 40
0.0588235294117647
 40
0.0588235294117647
 40
0.0588235294117647
 40
0.1176470588235294
 40
0.1176470588235294
 40
0.1176470588235294
 40
0.1176470588235294
 40
0.1764705882352941
 40
0.1764705882352941
 40
0.1764705882352941
 40
0.1764705882352941
 40
0.2352941176470588
 40
0.2352941176470588
 40
0.2352941176470588
 40
0.2352941176470588
 40
0.2941176470588235
 40
0.2941176470588235
 40
0.2941176470588235
 40
0.2941176470588235
 40
0.3529411764705883
 40
0.3529411764705883
 40
0.3529411764705883
 40
0.3529411764705883
 40
0.411764705882353
 40
0.411764705882353
 40
0.411764705882353
 40
0.411764705882353
 40
0.4705882352941177
 40
0.4705882352941177
 40
0.4705882352941177
 40
0.4705882352941177
 40
0.5294117647058824
 40
0.5294117647058824
 40
0.5294117647058824
 40
0.5294117647058824
 40
0.5882352941176471
 40
0.5882352941176471
 40
0.5882352941176471
 40
0.5882352941176471
 40
0.6470588235294118
 40
0.6470588235294118
 40
0.6470588235294118
 40
0.6470588235294118
 40
0.7058823529411765
 40
0.7058823529411765
 40
0.7058823529411765
 40
0.7058823529411765
 40
0.7647058823529412
 40
0.7647058823529412
 40
0.7647058823529412
 40
0.7647058823529412
 40
0.823529411764706
 40
0.823529411764706
 40
0.823529411764706
 40
0.823529411764706
 40
0.8823529411764707
 40
0.8823529411764707
 40
0.8823529411764707
 40
0.8823529411764707
 40
0.9411764705882354
 40
0.9411764705882354
 40
0.9411764705882354
 40
0.9411764705882354
 40
1.0
 40
1.0
 40
1.0
 40
1.0
 10
-1.155917322834646
 20
1.63755905511811
 30
0.0
 10
-1.155917322834646
 20
1.63755905511811
 30
0.0
 10
-1.149834645669291
 20
1.63755905511811
 30
0.0
 10
-1.149834645669291
 20
1.63755905511811
 30
0.0
 10
-1.149834645669291
 20
1.63755905511811
 30
0.0
 10
-1.149834645669291
 20
1.63755905511811
 30
0.0
 10
-1.149834645669291
 20
1.543311023622047
 30
0.0
 10
-1.149834645669291
 20
1.543311023622047
 30
0.0
 10
-1.149834645669291
 20
1.543311023622047
 30
0.0
 10
-1.149834645669291
 20
1.538866141732284
 30
0.0
 10
-1.149527559055118
 20
1.536003937007874
 30
0.0
 10
-1.148972440944882
 20
1.534724409448819
 30
0.0
 10
-1.148972440944882
 20
1.534724409448819
 30
0.0
 10
-1.148389763779528
 20
1.533448818897638
 30
0.0
 10
-1.147472440944882
 20
1.532503937007874
 30
0.0
 10
-1.146169291338583
 20
1.531838582677165
 30
0.0
 10
-1.146169291338583
 20
1.531838582677165
 30
0.0
 10
-1.14486220472441
 20
1.531196850393701
 30
0.0
 10
-1.142279527559055
 20
1.530866141732284
 30
0.0
 10
-1.138417322834646
 20
1.530866141732284
 30
0.0
 10
-1.138417322834646
 20
1.530866141732284
 30
0.0
 10
-1.138417322834646
 20
1.530866141732284
 30
0.0
 10
-1.130444881889764
 20
1.530866141732284
 30
0.0
 10
-1.130444881889764
 20
1.530866141732284
 30
0.0
 10
-1.130444881889764
 20
1.530866141732284
 30
0.0
 10
-1.130444881889764
 20
1.530866141732284
 30
0.0
 10
-1.130444881889764
 20
1.524031496062992
 30
0.0
 10
-1.130444881889764
 20
1.524031496062992
 30
0.0
 10
-1.130444881889764
 20
1.524031496062992
 30
0.0
 10
-1.130444881889764
 20
1.524031496062992
 30
0.0
 10
-1.184082677165354
 20
1.524031496062992
 30
0.0
 10
-1.184082677165354
 20
1.524031496062992
 30
0.0
 10
-1.184082677165354
 20
1.524031496062992
 30
0.0
 10
-1.184082677165354
 20
1.524031496062992
 30
0.0
 10
-1.184082677165354
 20
1.530866141732284
 30
0.0
 10
-1.184082677165354
 20
1.530866141732284
 30
0.0
 10
-1.184082677165354
 20
1.530866141732284
 30
0.0
 10
-1.184082677165354
 20
1.530866141732284
 30
0.0
 10
-1.175224409448819
 20
1.530866141732284
 30
0.0
 10
-1.175224409448819
 20
1.530866141732284
 30
0.0
 10
-1.175224409448819
 20
1.530866141732284
 30
0.0
 10
-1.171362204724409
 20
1.530866141732284
 30
0.0
 10
-1.168807086614173
 20
1.531196850393701
 30
0.0
 10
-1.167527559055118
 20
1.531893700787402
 30
0.0
 10
-1.167527559055118
 20
1.531893700787402
 30
0.0
 10
-1.166251968503937
 20
1.53255905511811
 30
0.0
 10
-1.165251968503937
 20
1.533641732283465
 30
0.0
 10
-1.164555118110236
 20
1.535141732283465
 30
0.0
 10
-1.164555118110236
 20
1.535141732283465
 30
0.0
 10
-1.16386220472441
 20
1.536641732283465
 30
0.0
 10
-1.1635
 20
1.539366141732284
 30
0.0
 10
-1.1635
 20
1.543311023622047
 30
0.0
 10
-1.1635
 20
1.543311023622047
 30
0.0
 10
-1.1635
 20
1.543311023622047
 30
0.0
 10
-1.1635
 20
1.620779527559055
 30
0.0
 10
-1.1635
 20
1.620779527559055
 30
0.0
 10
-1.1635
 20
1.620779527559055
 30
0.0
 10
-1.1635
 20
1.620779527559055
 30
0.0
 10
-1.184082677165354
 20
1.620779527559055
 30
0.0
 10
-1.184082677165354
 20
1.620779527559055
 30
0.0
 10
-1.184082677165354
 20
1.620779527559055
 30
0.0
 10
-1.184082677165354
 20
1.620779527559055
 30
0.0
 10
-1.184082677165354
 20
1.627779527559055
 30
0.0
 10
-1.184082677165354
 20
1.627779527559055
 30
0.0
 10
-1.184082677165354
 20
1.627779527559055
 30
0.0
 10
-1.17286220472441
 20
1.629362204724409
 30
0.0
 10
-1.163472440944882
 20
1.632614173228347
 30
0.0
 10
-1.155917322834646
 20
1.63755905511811
 30
0.0
  0
SPLINE
  5
41
330
1F
100
AcDbEntity
  8
LAYER_1
 62
   250
100
AcDbSpline
210
0.0
220
0.0
230
1.0
 70
    11
 71
     3
 72
    20
 73
    16
 74
     0
 42
0.0000000001
 43
0.0000000001
 40
0.0
 40
0.0
 40
0.0
 40
0.0
 40
0.25
 40
0.25
 40
0.25
 40
0.25
 40
0.5
 40
0.5
 40
0.5
 40
0.5
 40
0.75
 40
0.75
 40
0.75
 40
0.75
 40
1.0
 40
1.0
 40
1.0
 40
1.0
 10
-1.027082677165354
 20
1.64342125984252
 30
0.0
 10
-1.027082677165354
 20
1.64342125984252
 30
0.0
 10
-1.082665354330709
 20
1.487724409448819
 30
0.0
 10
-1.082665354330709
 20
1.487724409448819
 30
0.0
 10
-1.082665354330709
 20
1.487724409448819
 30
0.0
 10
-1.082665354330709
 20
1.487724409448819
 30
0.0
 10
-1.094720472440945
 20
1.487724409448819
 30
0.0
 10
-1.094720472440945
 20
1.487724409448819
 30
0.0
 10
-1.094720472440945
 20
1.487724409448819
 30
0.0
 10
-1.094720472440945
 20
1.487724409448819
 30
0.0
 10
-1.039472440944882
 20
1.64342125984252
 30
0.0
 10
-1.039472440944882
 20
1.64342125984252
 30
0.0
 10
-1.039472440944882
 20
1.64342125984252
 30
0.0
 10
-1.039472440944882
 20
1.64342125984252
 30
0.0
 10
-1.027082677165354
 20
1.64342125984252
 30
0.0
 10
-1.027082677165354
 20
1.64342125984252
 30
0.0
  0
SPLINE
  5
42
330
1F
100
AcDbEntity
  8
LAYER_1
 62
   250
100
AcDbSpline
210
0.0
220
0.0
230
1.0
 70
    11
 71
     3
 72
   136
 73
   132
 74
     0
 42
0.0000000001
 43
0.0000000001
 40
0.0
 40
0.0
 40
0.0
 40
0.0
 40
0.0303030303030303
 40
0.0303030303030303
 40
0.0303030303030303
 40
0.0303030303030303
 40
0.0606060606060606
 40
0.0606060606060606
 40
0.0606060606060606
 40
0.0606060606060606
 40
0.0909090909090909
 40
0.0909090909090909
 40
0.0909090909090909
 40
0.0909090909090909
 40
0.1212121212121212
 40
0.1212121212121212
 40
0.1212121212121212
 40
0.1212121212121212
 40
0.1515151515151515
 40
0.1515151515151515
 40
0.1515151515151515
 40
0.1515151515151515
 40
0.1818181818181818
 40
0.1818181818181818
 40
0.1818181818181818
 40
0.1818181818181818
 40
0.2121212121212121
 40
0.2121212121212121
 40
0.2121212121212121
 40
0.2121212121212121
 40
0.2424242424242424
 40
0.2424242424242424
 40
0.2424242424242424
 40
0.2424242424242424
 40
0.2727272727272727
 40
0.2727272727272727
 40
0.2727272727272727
 40
0.2727272727272727
 40
0.303030303030303
 40
0.303030303030303
 40
0.303030303030303
 40
0.303030303030303
 40
0.3333333333333333
 40
0.3333333333333333
 40
0.3333333333333333
 40
0.3333333333333333
 40
0.3636363636363635
 40
0.3636363636363635
 40
0.3636363636363635
 40
0.3636363636363635
 40
0.3939393939393938
 40
0.3939393939393938
 40
0.3939393939393938
 40
0.3939393939393938
 40
0.4242424242424241
 40
0.4242424242424241
 40
0.4242424242424241
 40
0.4242424242424241
 40
0.4545454545454544
 40
0.4545454545454544
 40
0.4545454545454544
 40
0.4545454545454544
 40
0.4848484848484846
 40
0.4848484848484846
 40
0.4848484848484846
 40
0.4848484848484846
 40
0.5151515151515149
 40
0.5151515151515149
 40
0.5151515151515149
 40
0.5151515151515149
 40
0.5454545454545452
 40
0.5454545454545452
 40
0.5454545454545452
 40
0.5454545454545452
 40
0.5757575757575755
 40
0.5757575757575755
 40
0.5757575757575755
 40
0.5757575757575755
 40
0.6060606060606057
 40
0.6060606060606057
 40
0.6060606060606057
 40
0.6060606060606057
 40
0.636363636363636
 40
0.636363636363636
 40
0.636363636363636
 40
0.636363636363636
 40
0.6666666666666663
 40
0.6666666666666663
 40
0.6666666666666663
 40
0.6666666666666663
 40
0.6969696969696966
 40
0.6969696969696966
 40
0.6969696969696966
 40
0.6969696969696966
 40
0.7272727272727269
 40
0.7272727272727269
 40
0.7272727272727269
 40
0.7272727272727269
 40
0.7575757575757571
 40
0.7575757575757571
 40
0.7575757575757571
 40
0.7575757575757571
 40
0.7878787878787874
 40
0.7878787878787874
 40
0.7878787878787874
 40
0.7878787878787874
 40
0.8181818181818177
 40
0.8181818181818177
 40
0.8181818181818177
 40
0.8181818181818177
 40
0.848484848484848
 40
0.848484848484848
 40
0.848484848484848
 40
0.848484848484848
 40
0.8787878787878782
 40
0.8787878787878782
 40
0.8787878787878782
 40
0.8787878787878782
 40
0.9090909090909085
 40
0.9090909090909085
 40
0.9090909090909085
 40
0.9090909090909085
 40
0.9393939393939388
 40
0.9393939393939388
 40
0.9393939393939388
 40
0.9393939393939388
 40
0.9696969696969691
 40
0.9696969696969691
 40
0.9696969696969691
 40
0.9696969696969691
 40
1.0
 40
1.0
 40
1.0
 40
1.0
 10
-0.9896377952755906
 20
1.594751968503937
 30
0.0
 10
-0.9896377952755906
 20
1.594751968503937
 30
0.0
 10
-0.9975275590551181
 20
1.593779527559055
 30
0.0
 10
-0.9975275590551181
 20
1.593779527559055
 30
0.0
 10
-0.9975275590551181
 20
1.593779527559055
 30
0.0
 10
-0.9979724409448819
 20
1.597614173228346
 30
0.0
 10
-0.9981929133858268
 20
1.600779527559055
 30
0.0
 10
-0.9981929133858268
 20
1.603224409448819
 30
0.0
 10
-0.9981929133858268
 20
1.603224409448819
 30
0.0
 10
-0.9981929133858268
 20
1.609614173228346
 30
0.0
 10
-0.9964448818897638
 20
1.615669291338583
 30
0.0
 10
-0.9929724409448819
 20
1.62136220472441
 30
0.0
 10
-0.9929724409448819
 20
1.62136220472441
 30
0.0
 10
-0.9895000000000001
 20
1.62705905511811
 30
0.0
 10
-0.9846653543307087
 20
1.631503937007874
 30
0.0
 10
-0.9784448818897639
 20
1.634696850393701
 30
0.0
 10
-0.9784448818897639
 20
1.634696850393701
 30
0.0
 10
-0.972251968503937
 20
1.63792125984252
 30
0.0
 10
-0.9651102362204724
 20
1.639503937007874
 30
0.0
 10
-0.9570826771653543
 20
1.639503937007874
 30
0.0
 10
-0.9570826771653543
 20
1.639503937007874
 30
0.0
 10
-0.9493346456692914
 20
1.639503937007874
 30
0.0
 10
-0.9425275590551181
 20
1.638003937007874
 30
0.0
 10
-0.9366653543307087
 20
1.635003937007874
 30
0.0
 10
-0.9366653543307087
 20
1.635003937007874
 30
0.0
 10
-0.9308070866141732
 20
1.631976377952756
 30
0.0
 10
-0.9263346456692914
 20
1.62786220472441
 30
0.0
 10
-0.9231968503937008
 20
1.622614173228347
 30
0.0
 10
-0.9231968503937008
 20
1.622614173228347
 30
0.0
 10
-0.9200826771653544
 20
1.617393700787402
 30
0.0
 10
-0.9185275590551182
 20
1.61142125984252
 30
0.0
 10
-0.9185275590551182
 20
1.604669291338583
 30
0.0
 10
-0.9185275590551182
 20
1.604669291338583
 30
0.0
 10
-0.9185275590551182
 20
1.598976377952756
 30
0.0
 10
-0.9195275590551182
 20
1.593696850393701
 30
0.0
 10
-0.9215826771653544
 20
1.588866141732284
 30
0.0
 10
-0.9215826771653544
 20
1.588866141732284
 30
0.0
 10
-0.9236102362204725
 20
1.584003937007874
 30
0.0
 10
-0.9268897637795276
 20
1.579086614173229
 30
0.0
 10
-0.9313897637795277
 20
1.574169291338583
 30
0.0
 10
-0.9313897637795277
 20
1.574169291338583
 30
0.0
 10
-0.9347519685039371
 20
1.570476377952756
 30
0.0
 10
-0.9415551181102363
 20
1.564838582677165
 30
0.0
 10
-0.9518070866141732
 20
1.557224409448819
 30
0.0
 10
-0.9518070866141732
 20
1.557224409448819
 30
0.0
 10
-0.9647204724409449
 20
1.547586614173228
 30
0.0
 10
-0.9746102362204725
 20
1.540586614173229
 30
0.0
 10
-0.9815
 20
1.536224409448819
 30
0.0
 10
-0.9815
 20
1.536224409448819
 30
0.0
 10
-0.9815
 20
1.536224409448819
 30
0.0
 10
-0.9391929133858268
 20
1.536224409448819
 30
0.0
 10
-0.9391929133858268
 20
1.536224409448819
 30
0.0
 10
-0.9391929133858268
 20
1.536224409448819
 30
0.0
 10
-0.9341929133858268
 20
1.536224409448819
 30
0.0
 10
-0.9309448818897638
 20
1.536696850393701
 30
0.0
 10
-0.9294173228346457
 20
1.537614173228347
 30
0.0
 10
-0.9294173228346457
 20
1.537614173228347
 30
0.0
 10
-0.9273070866141733
 20
1.538811023622047
 30
0.0
 10
-0.9258622047244095
 20
1.541586614173228
 30
0.0
 10
-0.9251102362204725
 20
1.54592125984252
 30
0.0
 10
-0.9251102362204725
 20
1.54592125984252
 30
0.0
 10
-0.9251102362204725
 20
1.54592125984252
 30
0.0
 10
-0.9243897637795276
 20
1.55055905511811
 30
0.0
 10
-0.9243897637795276
 20
1.55055905511811
 30
0.0
 10
-0.9243897637795276
 20
1.55055905511811
 30
0.0
 10
-0.9243897637795276
 20
1.55055905511811
 30
0.0
 10
-0.9174724409448819
 20
1.55055905511811
 30
0.0
 10
-0.9174724409448819
 20
1.55055905511811
 30
0.0
 10
-0.9174724409448819
 20
1.55055905511811
 30
0.0
 10
-0.9174724409448819
 20
1.55055905511811
 30
0.0
 10
-0.923
 20
1.519976377952756
 30
0.0
 10
-0.923
 20
1.519976377952756
 30
0.0
 10
-0.923
 20
1.519976377952756
 30
0.0
 10
-0.923
 20
1.519976377952756
 30
0.0
 10
-0.9281929133858268
 20
1.519976377952756
 30
0.0
 10
-0.9281929133858268
 20
1.519976377952756
 30
0.0
 10
-0.9281929133858268
 20
1.519976377952756
 30
0.0
 10
-0.9281929133858268
 20
1.519976377952756
 30
0.0
 10
-0.9291102362204725
 20
1.524031496062992
 30
0.0
 10
-0.9291102362204725
 20
1.524031496062992
 30
0.0
 10
-0.9291102362204725
 20
1.524031496062992
 30
0.0
 10
-0.9291102362204725
 20
1.524031496062992
 30
0.0
 10
-1.000220472440945
 20
1.524031496062992
 30
0.0
 10
-1.000220472440945
 20
1.524031496062992
 30
0.0
 10
-1.000220472440945
 20
1.524031496062992
 30
0.0
 10
-1.000220472440945
 20
1.524031496062992
 30
0.0
 10
-1.000220472440945
 20
1.530866141732284
 30
0.0
 10
-1.000220472440945
 20
1.530866141732284
 30
0.0
 10
-1.000220472440945
 20
1.530866141732284
 30
0.0
 10
-1.000220472440945
 20
1.530866141732284
 30
0.0
 10
-0.9871929133858268
 20
1.540724409448819
 30
0.0
 10
-0.9871929133858268
 20
1.540724409448819
 30
0.0
 10
-0.9871929133858268
 20
1.540724409448819
 30
0.0
 10
-0.9773346456692914
 20
1.548031496062992
 30
0.0
 10
-0.9700826771653544
 20
1.553641732283465
 30
0.0
 10
-0.9654724409448819
 20
1.55755905511811
 30
0.0
 10
-0.9654724409448819
 20
1.55755905511811
 30
0.0
 10
-0.9567519685039371
 20
1.564948818897638
 30
0.0
 10
-0.9501653543307087
 20
1.571251968503937
 30
0.0
 10
-0.9457519685039371
 20
1.576476377952756
 30
0.0
 10
-0.9457519685039371
 20
1.576476377952756
 30
0.0
 10
-0.9413346456692914
 20
1.581724409448819
 30
0.0
 10
-0.9382795275590552
 20
1.586448818897638
 30
0.0
 10
-0.9366377952755906
 20
1.590641732283465
 30
0.0
 10
-0.9366377952755906
 20
1.590641732283465
 30
0.0
 10
-0.934972440944882
 20
1.594834645669292
 30
0.0
 10
-0.9341377952755906
 20
1.599251968503937
 30
0.0
 10
-0.9341377952755906
 20
1.603866141732284
 30
0.0
 10
-0.9341377952755906
 20
1.603866141732284
 30
0.0
 10
-0.9341377952755906
 20
1.611503937007874
 30
0.0
 10
-0.9366102362204725
 20
1.617779527559055
 30
0.0
 10
-0.9415
 20
1.622669291338583
 30
0.0
 10
-0.9415
 20
1.622669291338583
 30
0.0
 10
-0.9464173228346458
 20
1.62755905511811
 30
0.0
 10
-0.9528070866141732
 20
1.629976377952756
 30
0.0
 10
-0.9606653543307087
 20
1.629976377952756
 30
0.0
 10
-0.9606653543307087
 20
1.629976377952756
 30
0.0
 10
-0.9663070866141733
 20
1.629976377952756
 30
0.0
 10
-0.9713622047244095
 20
1.628779527559055
 30
0.0
 10
-0.9757795275590552
 20
1.626334645669291
 30
0.0
 10
-0.9757795275590552
 20
1.626334645669291
 30
0.0
 10
-0.9801929133858268
 20
1.623893700787402
 30
0.0
 10
-0.9836653543307087
 20
1.620476377952756
 30
0.0
 10
-0.9862204724409449
 20
1.61605905511811
 30
0.0
 10
-0.9862204724409449
 20
1.61605905511811
 30
0.0
 10
-0.9887795275590552
 20
1.611669291338583
 30
0.0
 10
-0.9900551181102363
 20
1.60692125984252
 30
0.0
 10
-0.9900551181102363
 20
1.601834645669291
 30
0.0
 10
-0.9900551181102363
 20
1.601834645669291
 30
0.0
 10
-0.9900551181102363
 20
1.59992125984252
 30
0.0
 10
-0.9899173228346457
 20
1.59755905511811
 30
0.0
 10
-0.9896377952755906
 20
1.594751968503937
 30
0.0
  0
SPLINE
  5
43
330
1F
100
AcDbEntity
  8
LAYER_1
 62
   250
100
AcDbSpline
210
0.0
220
0.0
230
1.0
 70
    11
 71
     3
 72
    60
 73
    56
 74
     0
 42
0.0000000001
 43
0.0000000001
 40
0.0
 40
0.0
 40
0.0
 40
0.0
 40
0.0714285714285714
 40
0.0714285714285714
 40
0.0714285714285714
 40
0.0714285714285714
 40
0.1428571428571429
 40
0.1428571428571429
 40
0.1428571428571429
 40
0.1428571428571429
 40
0.2142857142857143
 40
0.2142857142857143
 40
0.2142857142857143
 40
0.2142857142857143
 40
0.2857142857142857
 40
0.2857142857142857
 40
0.2857142857142857
 40
0.2857142857142857
 40
0.3571428571428571
 40
0.3571428571428571
 40
0.3571428571428571
 40
0.3571428571428571
 40
0.4285714285714285
 40
0.4285714285714285
 40
0.4285714285714285
 40
0.4285714285714285
 40
0.4999999999999999
 40
0.4999999999999999
 40
0.4999999999999999
 40
0.4999999999999999
 40
0.5714285714285713
 40
0.5714285714285713
 40
0.5714285714285713
 40
0.5714285714285713
 40
0.6428571428571427
 40
0.6428571428571427
 40
0.6428571428571427
 40
0.6428571428571427
 40
0.7142857142857141
 40
0.7142857142857141
 40
0.7142857142857141
 40
0.7142857142857141
 40
0.7857142857142855
 40
0.7857142857142855
 40
0.7857142857142855
 40
0.7857142857142855
 40
0.8571428571428569
 40
0.8571428571428569
 40
0.8571428571428569
 40
0.8571428571428569
 40
0.9285714285714283
 40
0.9285714285714283
 40
0.9285714285714283
 40
0.9285714285714283
 40
1.0
 40
1.0
 40
1.0
 40
1.0
 10
-0.8950826771653544
 20
1.595476377952756
 30
0.0
 10
-0.8950826771653544
 20
1.595476377952756
 30
0.0
 10
-0.8994724409448819
 20
1.600866141732284
 30
0.0
 10
-0.8994724409448819
 20
1.600866141732284
 30
0.0
 10
-0.8994724409448819
 20
1.600866141732284
 30
0.0
 10
-0.8883582677165355
 20
1.60992125984252
 30
0.0
 10
-0.8827755905511812
 20
1.617476377952756
 30
0.0
 10
-0.8827755905511812
 20
1.62355905511811
 30
0.0
 10
-0.8827755905511812
 20
1.62355905511811
 30
0.0
 10
-0.8827755905511812
 20
1.624251968503937
 30
0.0
 10
-0.8828307086614173
 20
1.625141732283465
 30
0.0
 10
-0.8829448818897638
 20
1.626169291338583
 30
0.0
 10
-0.8829448818897638
 20
1.626169291338583
 30
0.0
 10
-0.8838582677165354
 20
1.625779527559055
 30
0.0
 10
-0.8847755905511812
 20
1.625476377952756
 30
0.0
 10
-0.8856377952755906
 20
1.625279527559055
 30
0.0
 10
-0.8856377952755906
 20
1.625279527559055
 30
0.0
 10
-0.8865000000000001
 20
1.62505905511811
 30
0.0
 10
-0.8873031496062992
 20
1.624948818897638
 30
0.0
 10
-0.8880826771653544
 20
1.624948818897638
 30
0.0
 10
-0.8880826771653544
 20
1.624948818897638
 30
0.0
 10
-0.8906929133858268
 20
1.624948818897638
 30
0.0
 10
-0.8927755905511812
 20
1.625779527559055
 30
0.0
 10
-0.8943307086614174
 20
1.627476377952756
 30
0.0
 10
-0.8943307086614174
 20
1.627476377952756
 30
0.0
 10
-0.8959173228346458
 20
1.629141732283465
 30
0.0
 10
-0.8966929133858268
 20
1.631279527559055
 30
0.0
 10
-0.8966929133858268
 20
1.633893700787402
 30
0.0
 10
-0.8966929133858268
 20
1.633893700787402
 30
0.0
 10
-0.8966929133858268
 20
1.636448818897638
 30
0.0
 10
-0.8957480314960631
 20
1.638669291338583
 30
0.0
 10
-0.8938582677165354
 20
1.64055905511811
 30
0.0
 10
-0.8938582677165354
 20
1.64055905511811
 30
0.0
 10
-0.8919448818897638
 20
1.642476377952756
 30
0.0
 10
-0.8896653543307087
 20
1.64342125984252
 30
0.0
 10
-0.8870275590551181
 20
1.64342125984252
 30
0.0
 10
-0.8870275590551181
 20
1.64342125984252
 30
0.0
 10
-0.8833307086614174
 20
1.64342125984252
 30
0.0
 10
-0.8801653543307088
 20
1.641948818897638
 30
0.0
 10
-0.8775275590551181
 20
1.638976377952756
 30
0.0
 10
-0.8775275590551181
 20
1.638976377952756
 30
0.0
 10
-0.8749173228346457
 20
1.636031496062992
 30
0.0
 10
-0.8735826771653543
 20
1.632224409448819
 30
0.0
 10
-0.8735826771653543
 20
1.62755905511811
 30
0.0
 10
-0.8735826771653543
 20
1.62755905511811
 30
0.0
 10
-0.8735826771653543
 20
1.624503937007874
 30
0.0
 10
-0.8742204724409449
 20
1.621307086614173
 30
0.0
 10
-0.875472440944882
 20
1.617976377952756
 30
0.0
 10
-0.875472440944882
 20
1.617976377952756
 30
0.0
 10
-0.8767204724409449
 20
1.614641732283465
 30
0.0
 10
-0.8785275590551182
 20
1.61155905511811
 30
0.0
 10
-0.8809173228346457
 20
1.608696850393701
 30
0.0
 10
-0.8809173228346457
 20
1.608696850393701
 30
0.0
 10
-0.8833031496062993
 20
1.605866141732284
 30
0.0
 10
-0.8880275590551181
 20
1.601448818897638
 30
0.0
 10
-0.8950826771653544
 20
1.595476377952756
 30
0.0
  0
SPLINE
  5
44
330
1F
100
AcDbEntity
  8
LAYER_1
 62
   250
100
AcDbSpline
210
0.0
220
0.0
230
1.0
 70
    11
 71
     3
 72
    60
 73
    56
 74
     0
 42
0.0000000001
 43
0.0000000001
 40
0.0
 40
0.0
 40
0.0
 40
0.0
 40
0.0714285714285714
 40
0.0714285714285714
 40
0.0714285714285714
 40
0.0714285714285714
 40
0.1428571428571429
 40
0.1428571428571429
 40
0.1428571428571429
 40
0.1428571428571429
 40
0.2142857142857143
 40
0.2142857142857143
 40
0.2142857142857143
 40
0.2142857142857143
 40
0.2857142857142857
 40
0.2857142857142857
 40
0.2857142857142857
 40
0.2857142857142857
 40
0.3571428571428571
 40
0.3571428571428571
 40
0.3571428571428571
 40
0.3571428571428571
 40
0.4285714285714285
 40
0.4285714285714285
 40
0.4285714285714285
 40
0.4285714285714285
 40
0.4999999999999999
 40
0.4999999999999999
 40
0.4999999999999999
 40
0.4999999999999999
 40
0.5714285714285713
 40
0.5714285714285713
 40
0.5714285714285713
 40
0.5714285714285713
 40
0.6428571428571427
 40
0.6428571428571427
 40
0.6428571428571427
 40
0.6428571428571427
 40
0.7142857142857141
 40
0.7142857142857141
 40
0.7142857142857141
 40
0.7142857142857141
 40
0.7857142857142855
 40
0.7857142857142855
 40
0.7857142857142855
 40
0.7857142857142855
 40
0.8571428571428569
 40
0.8571428571428569
 40
0.8571428571428569
 40
0.8571428571428569
 40
0.9285714285714283
 40
0.9285714285714283
 40
0.9285714285714283
 40
0.9285714285714283
 40
1.0
 40
1.0
 40
1.0
 40
1.0
 10
-0.8660275590551182
 20
1.595476377952756
 30
0.0
 10
-0.8660275590551182
 20
1.595476377952756
 30
0.0
 10
-0.8704173228346457
 20
1.600866141732284
 30
0.0
 10
-0.8704173228346457
 20
1.600866141732284
 30
0.0
 10
-0.8704173228346457
 20
1.600866141732284
 30
0.0
 10
-0.8593031496062993
 20
1.60992125984252
 30
0.0
 10
-0.853720472440945
 20
1.617476377952756
 30
0.0
 10
-0.853720472440945
 20
1.62355905511811
 30
0.0
 10
-0.853720472440945
 20
1.62355905511811
 30
0.0
 10
-0.853720472440945
 20
1.624251968503937
 30
0.0
 10
-0.8537755905511811
 20
1.625141732283465
 30
0.0
 10
-0.8538897637795276
 20
1.626169291338583
 30
0.0
 10
-0.8538897637795276
 20
1.626169291338583
 30
0.0
 10
-0.8548031496062992
 20
1.625779527559055
 30
0.0
 10
-0.855720472440945
 20
1.625476377952756
 30
0.0
 10
-0.8565826771653544
 20
1.625279527559055
 30
0.0
 10
-0.8565826771653544
 20
1.625279527559055
 30
0.0
 10
-0.8574448818897639
 20
1.62505905511811
 30
0.0
 10
-0.8582755905511812
 20
1.624948818897638
 30
0.0
 10
-0.8591102362204725
 20
1.624948818897638
 30
0.0
 10
-0.8591102362204725
 20
1.624948818897638
 30
0.0
 10
-0.8616653543307087
 20
1.624948818897638
 30
0.0
 10
-0.863720472440945
 20
1.625779527559055
 30
0.0
 10
-0.8652755905511811
 20
1.627476377952756
 30
0.0
 10
-0.8652755905511811
 20
1.627476377952756
 30
0.0
 10
-0.8668582677165355
 20
1.629141732283465
 30
0.0
 10
-0.8676377952755906
 20
1.631279527559055
 30
0.0
 10
-0.8676377952755906
 20
1.633893700787402
 30
0.0
 10
-0.8676377952755906
 20
1.633893700787402
 30
0.0
 10
-0.8676377952755906
 20
1.636448818897638
 30
0.0
 10
-0.8666929133858268
 20
1.638669291338583
 30
0.0
 10
-0.8648031496062992
 20
1.64055905511811
 30
0.0
 10
-0.8648031496062992
 20
1.64055905511811
 30
0.0
 10
-0.8629173228346457
 20
1.642476377952756
 30
0.0
 10
-0.8606102362204725
 20
1.64342125984252
 30
0.0
 10
-0.8579724409448819
 20
1.64342125984252
 30
0.0
 10
-0.8579724409448819
 20
1.64342125984252
 30
0.0
 10
-0.8542755905511812
 20
1.64342125984252
 30
0.0
 10
-0.8511102362204724
 20
1.641948818897638
 30
0.0
 10
-0.8484724409448819
 20
1.638976377952756
 30
0.0
 10
-0.8484724409448819
 20
1.638976377952756
 30
0.0
 10
-0.8458622047244094
 20
1.636031496062992
 30
0.0
 10
-0.8445275590551181
 20
1.632224409448819
 30
0.0
 10
-0.8445275590551181
 20
1.62755905511811
 30
0.0
 10
-0.8445275590551181
 20
1.62755905511811
 30
0.0
 10
-0.8445275590551181
 20
1.624503937007874
 30
0.0
 10
-0.8451653543307087
 20
1.621307086614173
 30
0.0
 10
-0.8464173228346457
 20
1.617976377952756
 30
0.0
 10
-0.8464173228346457
 20
1.617976377952756
 30
0.0
 10
-0.8476653543307087
 20
1.614641732283465
 30
0.0
 10
-0.849472440944882
 20
1.61155905511811
 30
0.0
 10
-0.8518582677165355
 20
1.608696850393701
 30
0.0
 10
-0.8518582677165355
 20
1.608696850393701
 30
0.0
 10
-0.854248031496063
 20
1.605866141732284
 30
0.0
 10
-0.8589724409448819
 20
1.601448818897638
 30
0.0
 10
-0.8660275590551182
 20
1.595476377952756
 30
0.0
  0
SPLINE
  5
45
330
1F
100
AcDbEntity
  8
LAYER_1
 62
   252
100
AcDbSpline
210
0.0
220
0.0
230
1.0
 70
    11
 71
     3
 72
    20
 73
    16
 74
     0
 42
0.0000000001
 43
0.0000000001
 40
0.0
 40
0.0
 40
0.0
 40
0.0
 40
0.25
 40
0.25
 40
0.25
 40
0.25
 40
0.5
 40
0.5
 40
0.5
 40
0.5
 40
0.75
 40
0.75
 40
0.75
 40
0.75
 40
1.0
 40
1.0
 40
1.0
 40
1.0
 10
0.1690393700787402
 20
2.468637795275591
 30
0.0
 10
0.1690393700787402
 20
2.468637795275591
 30
0.0
 10
0.8097952755905512
 20
2.097330708661418
 30
0.0
 10
0.8097952755905512
 20
2.097330708661418
 30
0.0
 10
0.8097952755905512
 20
2.097330708661418
 30
0.0
 10
0.8097952755905512
 20
2.097330708661418
 30
0.0
 10
1.138043307086614
 20
1.958153543307087
 30
0.0
 10
1.138043307086614
 20
1.958153543307087
 30
0.0
 10
1.138043307086614
 20
1.958153543307087
 30
0.0
 10
1.138043307086614
 20
1.958153543307087
 30
0.0
 10
0.4972874015748032
 20
2.32946062992126
 30
0.0
 10
0.4972874015748032
 20
2.32946062992126
 30
0.0
 10
0.4972874015748032
 20
2.32946062992126
 30
0.0
 10
0.4972874015748032
 20
2.32946062992126
 30
0.0
 10
0.1690393700787402
 20
2.468637795275591
 30
0.0
 10
0.1690393700787402
 20
2.468637795275591
 30
0.0
  0
SPLINE
  5
46
330
1F
100
AcDbEntity
  8
LAYER_1
 62
   250
100
AcDbSpline
210
0.0
220
0.0
230
1.0
 70
    11
 71
     3
 72
    20
 73
    16
 74
     0
 42
0.0000000001
 43
0.0000000001
 40
0.0
 40
0.0
 40
0.0
 40
0.0
 40
0.25
 40
0.25
 40
0.25
 40
0.25
 40
0.5
 40
0.5
 40
0.5
 40
0.5
 40
0.75
 40
0.75
 40
0.75
 40
0.75
 40
1.0
 40
1.0
 40
1.0
 40
1.0
 10
0.1690393700787402
 20
2.468637795275591
 30
0.0
 10
0.1690393700787402
 20
2.468637795275591
 30
0.0
 10
0.8097952755905512
 20
2.097330708661418
 30
0.0
 10
0.8097952755905512
 20
2.097330708661418
 30
0.0
 10
0.8097952755905512
 20
2.097330708661418
 30
0.0
 10
0.8097952755905512
 20
2.097330708661418
 30
0.0
 10
1.138043307086614
 20
1.958153543307087
 30
0.0
 10
1.138043307086614
 20
1.958153543307087
 30
0.0
 10
1.138043307086614
 20
1.958153543307087
 30
0.0
 10
1.138043307086614
 20
1.958153543307087
 30
0.0
 10
0.4972874015748032
 20
2.32946062992126
 30
0.0
 10
0.4972874015748032
 20
2.32946062992126
 30
0.0
 10
0.4972874015748032
 20
2.32946062992126
 30
0.0
 10
0.4972874015748032
 20
2.32946062992126
 30
0.0
 10
0.1690393700787402
 20
2.468637795275591
 30
0.0
 10
0.1690393700787402
 20
2.468637795275591
 30
0.0
  0
SPLINE
  5
47
330
1F
100
AcDbEntity
  8
LAYER_1
 62
   253
100
AcDbSpline
210
0.0
220
0.0
230
1.0
 70
    11
 71
     3
 72
    20
 73
    16
 74
     0
 42
0.0000000001
 43
0.0000000001
 40
0.0
 40
0.0
 40
0.0
 40
0.0
 40
0.25
 40
0.25
 40
0.25
 40
0.25
 40
0.5
 40
0.5
 40
0.5
 40
0.5
 40
0.75
 40
0.75
 40
0.75
 40
0.75
 40
1.0
 40
1.0
 40
1.0
 40
1.0
 10
0.4972874015748032
 20
2.32946062992126
 30
0.0
 10
0.4972874015748032
 20
2.32946062992126
 30
0.0
 10
1.138043307086614
 20
1.958153543307087
 30
0.0
 10
1.138043307086614
 20
1.958153543307087
 30
0.0
 10
1.138043307086614
 20
1.958153543307087
 30
0.0
 10
1.138043307086614
 20
1.958153543307087
 30
0.0
 10
1.182685039370079
 20
1.958153543307087
 30
0.0
 10
1.182685039370079
 20
1.958153543307087
 30
0.0
 10
1.182685039370079
 20
1.958153543307087
 30
0.0
 10
1.182685039370079
 20
1.958153543307087
 30
0.0
 10
0.5419291338582677
 20
2.32946062992126
 30
0.0
 10
0.5419291338582677
 20
2.32946062992126
 30
0.0
 10
0.5419291338582677
 20
2.32946062992126
 30
0.0
 10
0.5419291338582677
 20
2.32946062992126
 30
0.0
 10
0.4972874015748032
 20
2.32946062992126
 30
0.0
 10
0.4972874015748032
 20
2.32946062992126
 30
0.0
  0
SPLINE
  5
48
330
1F
100
AcDbEntity
  8
LAYER_1
 62
   250
100
AcDbSpline
210
0.0
220
0.0
230
1.0
 70
    11
 71
     3
 72
    20
 73
    16
 74
     0
 42
0.0000000001
 43
0.0000000001
 40
0.0
 40
0.0
 40
0.0
 40
0.0
 40
0.25
 40
0.25
 40
0.25
 40
0.25
 40
0.5
 40
0.5
 40
0.5
 40
0.5
 40
0.75
 40
0.75
 40
0.75
 40
0.75
 40
1.0
 40
1.0
 40
1.0
 40
1.0
 10
0.4972874015748032
 20
2.32946062992126
 30
0.0
 10
0.4972874015748032
 20
2.32946062992126
 30
0.0
 10
1.138043307086614
 20
1.958153543307087
 30
0.0
 10
1.138043307086614
 20
1.958153543307087
 30
0.0
 10
1.138043307086614
 20
1.958153543307087
 30
0.0
 10
1.138043307086614
 20
1.958153543307087
 30
0.0
 10
1.182685039370079
 20
1.958153543307087
 30
0.0
 10
1.182685039370079
 20
1.958153543307087
 30
0.0
 10
1.182685039370079
 20
1.958153543307087
 30
0.0
 10
1.182685039370079
 20
1.958153543307087
 30
0.0
 10
0.5419291338582677
 20
2.32946062992126
 30
0.0
 10
0.5419291338582677
 20
2.32946062992126
 30
0.0
 10
0.5419291338582677
 20
2.32946062992126
 30
0.0
 10
0.5419291338582677
 20
2.32946062992126
 30
0.0
 10
0.4972874015748032
 20
2.32946062992126
 30
0.0
 10
0.4972874015748032
 20
2.32946062992126
 30
0.0
  0
SPLINE
  5
49
330
1F
100
AcDbEntity
  8
LAYER_1
 62
   253
100
AcDbSpline
210
0.0
220
0.0
230
1.0
 70
    11
 71
     3
 72
    20
 73
    16
 74
     0
 42
0.0000000001
 43
0.0000000001
 40
0.0
 40
0.0
 40
0.0
 40
0.0
 40
0.25
 40
0.25
 40
0.25
 40
0.25
 40
0.5
 40
0.5
 40
0.5
 40
0.5
 40
0.75
 40
0.75
 40
0.75
 40
0.75
 40
1.0
 40
1.0
 40
1.0
 40
1.0
 10
0.5419291338582677
 20
2.32946062992126
 30
0.0
 10
0.5419291338582677
 20
2.32946062992126
 30
0.0
 10
1.182685039370079
 20
1.958153543307087
 30
0.0
 10
1.182685039370079
 20
1.958153543307087
 30
0.0
 10
1.182685039370079
 20
1.958153543307087
 30
0.0
 10
1.182685039370079
 20
1.958153543307087
 30
0.0
 10
1.185374015748032
 20
1.992759842519685
 30
0.0
 10
1.185374015748032
 20
1.992759842519685
 30
0.0
 10
1.185374015748032
 20
1.992759842519685
 30
0.0
 10
1.185374015748032
 20
1.992759842519685
 30
0.0
 10
0.5446181102362205
 20
2.364066929133859
 30
0.0
 10
0.5446181102362205
 20
2.364066929133859
 30
0.0
 10
0.5446181102362205
 20
2.364066929133859
 30
0.0
 10
0.5446181102362205
 20
2.364066929133859
 30
0.0
 10
0.5419291338582677
 20
2.32946062992126
 30
0.0
 10
0.5419291338582677
 20
2.32946062992126
 30
0.0
  0
SPLINE
  5
4A
330
1F
100
AcDbEntity
  8
LAYER_1
 62
   253
100
AcDbSpline
210
0.0
220
0.0
230
1.0
 70
    11
 71
     3
 72
    20
 73
    16
 74
     0
 42
0.0000000001
 43
0.0000000001
 40
0.0
 40
0.0
 40
0.0
 40
0.0
 40
0.25
 40
0.25
 40
0.25
 40
0.25
 40
0.5
 40
0.5
 40
0.5
 40
0.5
 40
0.75
 40
0.75
 40
0.75
 40
0.75
 40
1.0
 40
1.0
 40
1.0
 40
1.0
 10
0.5446181102362205
 20
2.364066929133859
 30
0.0
 10
0.5446181102362205
 20
2.364066929133859
 30
0.0
 10
1.185374015748032
 20
1.992759842519685
 30
0.0
 10
1.185374015748032
 20
1.992759842519685
 30
0.0
 10
1.185374015748032
 20
1.992759842519685
 30
0.0
 10
1.185374015748032
 20
1.992759842519685
 30
0.0
 10
1.18851968503937
 20
2.026649606299213
 30
0.0
 10
1.18851968503937
 20
2.026649606299213
 30
0.0
 10
1.18851968503937
 20
2.026649606299213
 30
0.0
 10
1.18851968503937
 20
2.026649606299213
 30
0.0
 10
0.5477637795275591
 20
2.397956692913386
 30
0.0
 10
0.5477637795275591
 20
2.397956692913386
 30
0.0
 10
0.5477637795275591
 20
2.397956692913386
 30
0.0
 10
0.5477637795275591
 20
2.397956692913386
 30
0.0
 10
0.5446181102362205
 20
2.364066929133859
 30
0.0
 10
0.5446181102362205
 20
2.364066929133859
 30
0.0
  0
SPLINE
  5
4B
330
1F
100
AcDbEntity
  8
LAYER_1
 62
   253
100
AcDbSpline
210
0.0
220
0.0
230
1.0
 70
    11
 71
     3
 72
    20
 73
    16
 74
     0
 42
0.0000000001
 43
0.0000000001
 40
0.0
 40
0.0
 40
0.0
 40
0.0
 40
0.25
 40
0.25
 40
0.25
 40
0.25
 40
0.5
 40
0.5
 40
0.5
 40
0.5
 40
0.75
 40
0.75
 40
0.75
 40
0.75
 40
1.0
 40
1.0
 40
1.0
 40
1.0
 10
0.5477637795275591
 20
2.397956692913386
 30
0.0
 10
0.5477637795275591
 20
2.397956692913386
 30
0.0
 10
1.18851968503937
 20
2.026649606299213
 30
0.0
 10
1.18851968503937
 20
2.026649606299213
 30
0.0
 10
1.18851968503937
 20
2.026649606299213
 30
0.0
 10
1.18851968503937
 20
2.026649606299213
 30
0.0
 10
1.192169291338583
 20
2.059818897637795
 30
0.0
 10
1.192169291338583
 20
2.059818897637795
 30
0.0
 10
1.192169291338583
 20
2.059818897637795
 30
0.0
 10
1.192169291338583
 20
2.059818897637795
 30
0.0
 10
0.5514133858267717
 20
2.431125984251969
 30
0.0
 10
0.5514133858267717
 20
2.431125984251969
 30
0.0
 10
0.5514133858267717
 20
2.431125984251969
 30
0.0
 10
0.5514133858267717
 20
2.431125984251969
 30
0.0
 10
0.5477637795275591
 20
2.397956692913386
 30
0.0
 10
0.5477637795275591
 20
2.397956692913386
 30
0.0
  0
SPLINE
  5
4C
330
1F
100
AcDbEntity
  8
LAYER_1
 62
   253
100
AcDbSpline
210
0.0
220
0.0
230
1.0
 70
    11
 71
     3
 72
    20
 73
    16
 74
     0
 42
0.0000000001
 43
0.0000000001
 40
0.0
 40
0.0
 40
0.0
 40
0.0
 40
0.25
 40
0.25
 40
0.25
 40
0.25
 40
0.5
 40
0.5
 40
0.5
 40
0.5
 40
0.75
 40
0.75
 40
0.75
 40
0.75
 40
1.0
 40
1.0
 40
1.0
 40
1.0
 10
0.5514133858267717
 20
2.431125984251969
 30
0.0
 10
0.5514133858267717
 20
2.431125984251969
 30
0.0
 10
1.192169291338583
 20
2.059818897637795
 30
0.0
 10
1.192169291338583
 20
2.059818897637795
 30
0.0
 10
1.192169291338583
 20
2.059818897637795
 30
0.0
 10
1.192169291338583
 20
2.059818897637795
 30
0.0
 10
1.19634251968504
 20
2.092251968503937
 30
0.0
 10
1.19634251968504
 20
2.092251968503937
 30
0.0
 10
1.19634251968504
 20
2.092251968503937
 30
0.0
 10
1.19634251968504
 20
2.092251968503937
 30
0.0
 10
0.5555866141732284
 20
2.46355905511811
 30
0.0
 10
0.5555866141732284
 20
2.46355905511811
 30
0.0
 10
0.5555866141732284
 20
2.46355905511811
 30
0.0
 10
0.5555866141732284
 20
2.46355905511811
 30
0.0
 10
0.5514133858267717
 20
2.431125984251969
 30
0.0
 10
0.5514133858267717
 20
2.431125984251969
 30
0.0
  0
SPLINE
  5
4D
330
1F
100
AcDbEntity
  8
LAYER_1
 62
   253
100
AcDbSpline
210
0.0
220
0.0
230
1.0
 70
    11
 71
     3
 72
    20
 73
    16
 74
     0
 42
0.0000000001
 43
0.0000000001
 40
0.0
 40
0.0
 40
0.0
 40
0.0
 40
0.25
 40
0.25
 40
0.25
 40
0.25
 40
0.5
 40
0.5
 40
0.5
 40
0.5
 40
0.75
 40
0.75
 40
0.75
 40
0.75
 40
1.0
 40
1.0
 40
1.0
 40
1.0
 10
0.5555866141732284
 20
2.46355905511811
 30
0.0
 10
0.5555866141732284
 20
2.46355905511811
 30
0.0
 10
1.19634251968504
 20
2.092251968503937
 30
0.0
 10
1.19634251968504
 20
2.092251968503937
 30
0.0
 10
1.19634251968504
 20
2.092251968503937
 30
0.0
 10
1.19634251968504
 20
2.092251968503937
 30
0.0
 10
1.201090551181102
 20
2.123956692913386
 30
0.0
 10
1.201090551181102
 20
2.123956692913386
 30
0.0
 10
1.201090551181102
 20
2.123956692913386
 30
0.0
 10
1.201090551181102
 20
2.123956692913386
 30
0.0
 10
0.5603346456692914
 20
2.495263779527559
 30
0.0
 10
0.5603346456692914
 20
2.495263779527559
 30
0.0
 10
0.5603346456692914
 20
2.495263779527559
 30
0.0
 10
0.5603346456692914
 20
2.495263779527559
 30
0.0
 10
0.5555866141732284
 20
2.46355905511811
 30
0.0
 10
0.5555866141732284
 20
2.46355905511811
 30
0.0
  0
SPLINE
  5
4E
330
1F
100
AcDbEntity
  8
LAYER_1
 62
   253
100
AcDbSpline
210
0.0
220
0.0
230
1.0
 70
    11
 71
     3
 72
    20
 73
    16
 74
     0
 42
0.0000000001
 43
0.0000000001
 40
0.0
 40
0.0
 40
0.0
 40
0.0
 40
0.25
 40
0.25
 40
0.25
 40
0.25
 40
0.5
 40
0.5
 40
0.5
 40
0.5
 40
0.75
 40
0.75
 40
0.75
 40
0.75
 40
1.0
 40
1.0
 40
1.0
 40
1.0
 10
0.5603346456692914
 20
2.495263779527559
 30
0.0
 10
0.5603346456692914
 20
2.495263779527559
 30
0.0
 10
1.201090551181102
 20
2.123956692913386
 30
0.0
 10
1.201090551181102
 20
2.123956692913386
 30
0.0
 10
1.201090551181102
 20
2.123956692913386
 30
0.0
 10
1.201090551181102
 20
2.123956692913386
 30
0.0
 10
1.206429133858268
 20
2.154913385826772
 30
0.0
 10
1.206429133858268
 20
2.154913385826772
 30
0.0
 10
1.206429133858268
 20
2.154913385826772
 30
0.0
 10
1.206429133858268
 20
2.154913385826772
 30
0.0
 10
0.5656732283464567
 20
2.526220472440945
 30
0.0
 10
0.5656732283464567
 20
2.526220472440945
 30
0.0
 10
0.5656732283464567
 20
2.526220472440945
 30
0.0
 10
0.5656732283464567
 20
2.526220472440945
 30
0.0
 10
0.5603346456692914
 20
2.495263779527559
 30
0.0
 10
0.5603346456692914
 20
2.495263779527559
 30
0.0
  0
SPLINE
  5
4F
330
1F
100
AcDbEntity
  8
LAYER_1
 62
   253
100
AcDbSpline
210
0.0
220
0.0
230
1.0
 70
    11
 71
     3
 72
    20
 73
    16
 74
     0
 42
0.0000000001
 43
0.0000000001
 40
0.0
 40
0.0
 40
0.0
 40
0.0
 40
0.25
 40
0.25
 40
0.25
 40
0.25
 40
0.5
 40
0.5
 40
0.5
 40
0.5
 40
0.75
 40
0.75
 40
0.75
 40
0.75
 40
1.0
 40
1.0
 40
1.0
 40
1.0
 10
0.5656732283464567
 20
2.526220472440945
 30
0.0
 10
0.5656732283464567
 20
2.526220472440945
 30
0.0
 10
1.206429133858268
 20
2.154913385826772
 30
0.0
 10
1.206429133858268
 20
2.154913385826772
 30
0.0
 10
1.206429133858268
 20
2.154913385826772
 30
0.0
 10
1.206429133858268
 20
2.154913385826772
 30
0.0
 10
1.212405511811024
 20
2.185118110236221
 30
0.0
 10
1.212405511811024
 20
2.185118110236221
 30
0.0
 10
1.212405511811024
 20
2.185118110236221
 30
0.0
 10
1.212405511811024
 20
2.185118110236221
 30
0.0
 10
0.5716496062992126
 20
2.556425196850394
 30
0.0
 10
0.5716496062992126
 20
2.556425196850394
 30
0.0
 10
0.5716496062992126
 20
2.556425196850394
 30
0.0
 10
0.5716496062992126
 20
2.556425196850394
 30
0.0
 10
0.5656732283464567
 20
2.526220472440945
 30
0.0
 10
0.5656732283464567
 20
2.526220472440945
 30
0.0
  0
SPLINE
  5
50
330
1F
100
AcDbEntity
  8
LAYER_1
 62
   253
100
AcDbSpline
210
0.0
220
0.0
230
1.0
 70
    11
 71
     3
 72
    20
 73
    16
 74
     0
 42
0.0000000001
 43
0.0000000001
 40
0.0
 40
0.0
 40
0.0
 40
0.0
 40
0.25
 40
0.25
 40
0.25
 40
0.25
 40
0.5
 40
0.5
 40
0.5
 40
0.5
 40
0.75
 40
0.75
 40
0.75
 40
0.75
 40
1.0
 40
1.0
 40
1.0
 40
1.0
 10
0.5716496062992126
 20
2.556425196850394
 30
0.0
 10
0.5716496062992126
 20
2.556425196850394
 30
0.0
 10
1.212405511811024
 20
2.185118110236221
 30
0.0
 10
1.212405511811024
 20
2.185118110236221
 30
0.0
 10
1.212405511811024
 20
2.185118110236221
 30
0.0
 10
1.212405511811024
 20
2.185118110236221
 30
0.0
 10
1.219043307086614
 20
2.214559055118111
 30
0.0
 10
1.219043307086614
 20
2.214559055118111
 30
0.0
 10
1.219043307086614
 20
2.214559055118111
 30
0.0
 10
1.219043307086614
 20
2.214559055118111
 30
0.0
 10
0.5782874015748032
 20
2.585866141732284
 30
0.0
 10
0.5782874015748032
 20
2.585866141732284
 30
0.0
 10
0.5782874015748032
 20
2.585866141732284
 30
0.0
 10
0.5782874015748032
 20
2.585866141732284
 30
0.0
 10
0.5716496062992126
 20
2.556425196850394
 30
0.0
 10
0.5716496062992126
 20
2.556425196850394
 30
0.0
  0
SPLINE
  5
51
330
1F
100
AcDbEntity
  8
LAYER_1
 62
   253
100
AcDbSpline
210
0.0
220
0.0
230
1.0
 70
    11
 71
     3
 72
    20
 73
    16
 74
     0
 42
0.0000000001
 43
0.0000000001
 40
0.0
 40
0.0
 40
0.0
 40
0.0
 40
0.25
 40
0.25
 40
0.25
 40
0.25
 40
0.5
 40
0.5
 40
0.5
 40
0.5
 40
0.75
 40
0.75
 40
0.75
 40
0.75
 40
1.0
 40
1.0
 40
1.0
 40
1.0
 10
0.5782874015748032
 20
2.585866141732284
 30
0.0
 10
0.5782874015748032
 20
2.585866141732284
 30
0.0
 10
1.219043307086614
 20
2.214559055118111
 30
0.0
 10
1.219043307086614
 20
2.214559055118111
 30
0.0
 10
1.219043307086614
 20
2.214559055118111
 30
0.0
 10
1.219043307086614
 20
2.214559055118111
 30
0.0
 10
1.226389763779528
 20
2.243244094488189
 30
0.0
 10
1.226389763779528
 20
2.243244094488189
 30
0.0
 10
1.226389763779528
 20
2.243244094488189
 30
0.0
 10
1.226389763779528
 20
2.243244094488189
 30
0.0
 10
0.5856338582677165
 20
2.614551181102363
 30
0.0
 10
0.5856338582677165
 20
2.614551181102363
 30
0.0
 10
0.5856338582677165
 20
2.614551181102363
 30
0.0
 10
0.5856338582677165
 20
2.614551181102363
 30
0.0
 10
0.5782874015748032
 20
2.585866141732284
 30
0.0
 10
0.5782874015748032
 20
2.585866141732284
 30
0.0
  0
SPLINE
  5
52
330
1F
100
AcDbEntity
  8
LAYER_1
 62
   253
100
AcDbSpline
210
0.0
220
0.0
230
1.0
 70
    11
 71
     3
 72
    20
 73
    16
 74
     0
 42
0.0000000001
 43
0.0000000001
 40
0.0
 40
0.0
 40
0.0
 40
0.0
 40
0.25
 40
0.25
 40
0.25
 40
0.25
 40
0.5
 40
0.5
 40
0.5
 40
0.5
 40
0.75
 40
0.75
 40
0.75
 40
0.75
 40
1.0
 40
1.0
 40
1.0
 40
1.0
 10
0.5856338582677165
 20
2.614551181102363
 30
0.0
 10
0.5856338582677165
 20
2.614551181102363
 30
0.0
 10
1.226389763779528
 20
2.243244094488189
 30
0.0
 10
1.226389763779528
 20
2.243244094488189
 30
0.0
 10
1.226389763779528
 20
2.243244094488189
 30
0.0
 10
1.226389763779528
 20
2.243244094488189
 30
0.0
 10
1.234464566929134
 20
2.271153543307087
 30
0.0
 10
1.234464566929134
 20
2.271153543307087
 30
0.0
 10
1.234464566929134
 20
2.271153543307087
 30
0.0
 10
1.234464566929134
 20
2.271153543307087
 30
0.0
 10
0.5937086614173228
 20
2.64246062992126
 30
0.0
 10
0.5937086614173228
 20
2.64246062992126
 30
0.0
 10
0.5937086614173228
 20
2.64246062992126
 30
0.0
 10
0.5937086614173228
 20
2.64246062992126
 30
0.0
 10
0.5856338582677165
 20
2.614551181102363
 30
0.0
 10
0.5856338582677165
 20
2.614551181102363
 30
0.0
  0
SPLINE
  5
53
330
1F
100
AcDbEntity
  8
LAYER_1
 62
   253
100
AcDbSpline
210
0.0
220
0.0
230
1.0
 70
    11
 71
     3
 72
    20
 73
    16
 74
     0
 42
0.0000000001
 43
0.0000000001
 40
0.0
 40
0.0
 40
0.0
 40
0.0
 40
0.25
 40
0.25
 40
0.25
 40
0.25
 40
0.5
 40
0.5
 40
0.5
 40
0.5
 40
0.75
 40
0.75
 40
0.75
 40
0.75
 40
1.0
 40
1.0
 40
1.0
 40
1.0
 10
0.5937086614173228
 20
2.64246062992126
 30
0.0
 10
0.5937086614173228
 20
2.64246062992126
 30
0.0
 10
1.234464566929134
 20
2.271153543307087
 30
0.0
 10
1.234464566929134
 20
2.271153543307087
 30
0.0
 10
1.234464566929134
 20
2.271153543307087
 30
0.0
 10
1.234464566929134
 20
2.271153543307087
 30
0.0
 10
1.243307086614173
 20
2.298283464566929
 30
0.0
 10
1.243307086614173
 20
2.298283464566929
 30
0.0
 10
1.243307086614173
 20
2.298283464566929
 30
0.0
 10
1.243307086614173
 20
2.298283464566929
 30
0.0
 10
0.6025511811023623
 20
2.669590551181102
 30
0.0
 10
0.6025511811023623
 20
2.669590551181102
 30
0.0
 10
0.6025511811023623
 20
2.669590551181102
 30
0.0
 10
0.6025511811023623
 20
2.669590551181102
 30
0.0
 10
0.5937086614173228
 20
2.64246062992126
 30
0.0
 10
0.5937086614173228
 20
2.64246062992126
 30
0.0
  0
SPLINE
  5
54
330
1F
100
AcDbEntity
  8
LAYER_1
 62
   253
100
AcDbSpline
210
0.0
220
0.0
230
1.0
 70
    11
 71
     3
 72
    20
 73
    16
 74
     0
 42
0.0000000001
 43
0.0000000001
 40
0.0
 40
0.0
 40
0.0
 40
0.0
 40
0.25
 40
0.25
 40
0.25
 40
0.25
 40
0.5
 40
0.5
 40
0.5
 40
0.5
 40
0.75
 40
0.75
 40
0.75
 40
0.75
 40
1.0
 40
1.0
 40
1.0
 40
1.0
 10
0.6025511811023623
 20
2.669590551181102
 30
0.0
 10
0.6025511811023623
 20
2.669590551181102
 30
0.0
 10
1.243307086614173
 20
2.298283464566929
 30
0.0
 10
1.243307086614173
 20
2.298283464566929
 30
0.0
 10
1.243307086614173
 20
2.298283464566929
 30
0.0
 10
1.243307086614173
 20
2.298283464566929
 30
0.0
 10
1.252944881889764
 20
2.324622047244095
 30
0.0
 10
1.252944881889764
 20
2.324622047244095
 30
0.0
 10
1.252944881889764
 20
2.324622047244095
 30
0.0
 10
1.252944881889764
 20
2.324622047244095
 30
0.0
 10
0.6121889763779528
 20
2.695929133858268
 30
0.0
 10
0.6121889763779528
 20
2.695929133858268
 30
0.0
 10
0.6121889763779528
 20
2.695929133858268
 30
0.0
 10
0.6121889763779528
 20
2.695929133858268
 30
0.0
 10
0.6025511811023623
 20
2.669590551181102
 30
0.0
 10
0.6025511811023623
 20
2.669590551181102
 30
0.0
  0
SPLINE
  5
55
330
1F
100
AcDbEntity
  8
LAYER_1
 62
   253
100
AcDbSpline
210
0.0
220
0.0
230
1.0
 70
    11
 71
     3
 72
    20
 73
    16
 74
     0
 42
0.0000000001
 43
0.0000000001
 40
0.0
 40
0.0
 40
0.0
 40
0.0
 40
0.25
 40
0.25
 40
0.25
 40
0.25
 40
0.5
 40
0.5
 40
0.5
 40
0.5
 40
0.75
 40
0.75
 40
0.75
 40
0.75
 40
1.0
 40
1.0
 40
1.0
 40
1.0
 10
0.6121889763779528
 20
2.695929133858268
 30
0.0
 10
0.6121889763779528
 20
2.695929133858268
 30
0.0
 10
1.252944881889764
 20
2.324622047244095
 30
0.0
 10
1.252944881889764
 20
2.324622047244095
 30
0.0
 10
1.252944881889764
 20
2.324622047244095
 30
0.0
 10
1.252944881889764
 20
2.324622047244095
 30
0.0
 10
1.263429133858268
 20
2.350173228346457
 30
0.0
 10
1.263429133858268
 20
2.350173228346457
 30
0.0
 10
1.263429133858268
 20
2.350173228346457
 30
0.0
 10
1.263429133858268
 20
2.350173228346457
 30
0.0
 10
0.6226732283464567
 20
2.72148031496063
 30
0.0
 10
0.6226732283464567
 20
2.72148031496063
 30
0.0
 10
0.6226732283464567
 20
2.72148031496063
 30
0.0
 10
0.6226732283464567
 20
2.72148031496063
 30
0.0
 10
0.6121889763779528
 20
2.695929133858268
 30
0.0
 10
0.6121889763779528
 20
2.695929133858268
 30
0.0
  0
SPLINE
  5
56
330
1F
100
AcDbEntity
  8
LAYER_1
 62
   253
100
AcDbSpline
210
0.0
220
0.0
230
1.0
 70
    11
 71
     3
 72
    20
 73
    16
 74
     0
 42
0.0000000001
 43
0.0000000001
 40
0.0
 40
0.0
 40
0.0
 40
0.0
 40
0.25
 40
0.25
 40
0.25
 40
0.25
 40
0.5
 40
0.5
 40
0.5
 40
0.5
 40
0.75
 40
0.75
 40
0.75
 40
0.75
 40
1.0
 40
1.0
 40
1.0
 40
1.0
 10
0.6226732283464567
 20
2.72148031496063
 30
0.0
 10
0.6226732283464567
 20
2.72148031496063
 30
0.0
 10
1.263429133858268
 20
2.350173228346457
 30
0.0
 10
1.263429133858268
 20
2.350173228346457
 30
0.0
 10
1.263429133858268
 20
2.350173228346457
 30
0.0
 10
1.263429133858268
 20
2.350173228346457
 30
0.0
 10
1.274771653543307
 20
2.374917322834646
 30
0.0
 10
1.274771653543307
 20
2.374917322834646
 30
0.0
 10
1.274771653543307
 20
2.374917322834646
 30
0.0
 10
1.274771653543307
 20
2.374917322834646
 30
0.0
 10
0.6340157480314961
 20
2.746224409448819
 30
0.0
 10
0.6340157480314961
 20
2.746224409448819
 30
0.0
 10
0.6340157480314961
 20
2.746224409448819
 30
0.0
 10
0.6340157480314961
 20
2.746224409448819
 30
0.0
 10
0.6226732283464567
 20
2.72148031496063
 30
0.0
 10
0.6226732283464567
 20
2.72148031496063
 30
0.0
  0
SPLINE
  5
57
330
1F
100
AcDbEntity
  8
LAYER_1
 62
   253
100
AcDbSpline
210
0.0
220
0.0
230
1.0
 70
    11
 71
     3
 72
    20
 73
    16
 74
     0
 42
0.0000000001
 43
0.0000000001
 40
0.0
 40
0.0
 40
0.0
 40
0.0
 40
0.25
 40
0.25
 40
0.25
 40
0.25
 40
0.5
 40
0.5
 40
0.5
 40
0.5
 40
0.75
 40
0.75
 40
0.75
 40
0.75
 40
1.0
 40
1.0
 40
1.0
 40
1.0
 10
0.6340157480314961
 20
2.746224409448819
 30
0.0
 10
0.6340157480314961
 20
2.746224409448819
 30
0.0
 10
1.274771653543307
 20
2.374917322834646
 30
0.0
 10
1.274771653543307
 20
2.374917322834646
 30
0.0
 10
1.274771653543307
 20
2.374917322834646
 30
0.0
 10
1.274771653543307
 20
2.374917322834646
 30
0.0
 10
1.287023622047244
 20
2.398858267716535
 30
0.0
 10
1.287023622047244
 20
2.398858267716535
 30
0.0
 10
1.287023622047244
 20
2.398858267716535
 30
0.0
 10
1.287023622047244
 20
2.398858267716535
 30
0.0
 10
0.6462677165354331
 20
2.770165354330709
 30
0.0
 10
0.6462677165354331
 20
2.770165354330709
 30
0.0
 10
0.6462677165354331
 20
2.770165354330709
 30
0.0
 10
0.6462677165354331
 20
2.770165354330709
 30
0.0
 10
0.6340157480314961
 20
2.746224409448819
 30
0.0
 10
0.6340157480314961
 20
2.746224409448819
 30
0.0
  0
SPLINE
  5
58
330
1F
100
AcDbEntity
  8
LAYER_1
 62
   253
100
AcDbSpline
210
0.0
220
0.0
230
1.0
 70
    11
 71
     3
 72
    20
 73
    16
 74
     0
 42
0.0000000001
 43
0.0000000001
 40
0.0
 40
0.0
 40
0.0
 40
0.0
 40
0.25
 40
0.25
 40
0.25
 40
0.25
 40
0.5
 40
0.5
 40
0.5
 40
0.5
 40
0.75
 40
0.75
 40
0.75
 40
0.75
 40
1.0
 40
1.0
 40
1.0
 40
1.0
 10
0.6462677165354331
 20
2.770165354330709
 30
0.0
 10
0.6462677165354331
 20
2.770165354330709
 30
0.0
 10
1.287023622047244
 20
2.398858267716535
 30
0.0
 10
1.287023622047244
 20
2.398858267716535
 30
0.0
 10
1.287023622047244
 20
2.398858267716535
 30
0.0
 10
1.287023622047244
 20
2.398858267716535
 30
0.0
 10
1.300200787401575
 20
2.421972440944882
 30
0.0
 10
1.300200787401575
 20
2.421972440944882
 30
0.0
 10
1.300200787401575
 20
2.421972440944882
 30
0.0
 10
1.300200787401575
 20
2.421972440944882
 30
0.0
 10
0.6594448818897638
 20
2.793279527559055
 30
0.0
 10
0.6594448818897638
 20
2.793279527559055
 30
0.0
 10
0.6594448818897638
 20
2.793279527559055
 30
0.0
 10
0.6594448818897638
 20
2.793279527559055
 30
0.0
 10
0.6462677165354331
 20
2.770165354330709
 30
0.0
 10
0.6462677165354331
 20
2.770165354330709
 30
0.0
  0
SPLINE
  5
59
330
1F
100
AcDbEntity
  8
LAYER_1
 62
   253
100
AcDbSpline
210
0.0
220
0.0
230
1.0
 70
    11
 71
     3
 72
    20
 73
    16
 74
     0
 42
0.0000000001
 43
0.0000000001
 40
0.0
 40
0.0
 40
0.0
 40
0.0
 40
0.25
 40
0.25
 40
0.25
 40
0.25
 40
0.5
 40
0.5
 40
0.5
 40
0.5
 40
0.75
 40
0.75
 40
0.75
 40
0.75
 40
1.0
 40
1.0
 40
1.0
 40
1.0
 10
0.6594448818897638
 20
2.793279527559055
 30
0.0
 10
0.6594448818897638
 20
2.793279527559055
 30
0.0
 10
1.300200787401575
 20
2.421972440944882
 30
0.0
 10
1.300200787401575
 20
2.421972440944882
 30
0.0
 10
1.300200787401575
 20
2.421972440944882
 30
0.0
 10
1.300200787401575
 20
2.421972440944882
 30
0.0
 10
1.314358267716536
 20
2.444275590551181
 30
0.0
 10
1.314358267716536
 20
2.444275590551181
 30
0.0
 10
1.314358267716536
 20
2.444275590551181
 30
0.0
 10
1.314358267716536
 20
2.444275590551181
 30
0.0
 10
0.6736023622047245
 20
2.815582677165355
 30
0.0
 10
0.6736023622047245
 20
2.815582677165355
 30
0.0
 10
0.6736023622047245
 20
2.815582677165355
 30
0.0
 10
0.6736023622047245
 20
2.815582677165355
 30
0.0
 10
0.6594448818897638
 20
2.793279527559055
 30
0.0
 10
0.6594448818897638
 20
2.793279527559055
 30
0.0
  0
SPLINE
  5
5A
330
1F
100
AcDbEntity
  8
LAYER_1
 62
   253
100
AcDbSpline
210
0.0
220
0.0
230
1.0
 70
    11
 71
     3
 72
    20
 73
    16
 74
     0
 42
0.0000000001
 43
0.0000000001
 40
0.0
 40
0.0
 40
0.0
 40
0.0
 40
0.25
 40
0.25
 40
0.25
 40
0.25
 40
0.5
 40
0.5
 40
0.5
 40
0.5
 40
0.75
 40
0.75
 40
0.75
 40
0.75
 40
1.0
 40
1.0
 40
1.0
 40
1.0
 10
0.6736023622047245
 20
2.815582677165355
 30
0.0
 10
0.6736023622047245
 20
2.815582677165355
 30
0.0
 10
1.314358267716536
 20
2.444275590551181
 30
0.0
 10
1.314358267716536
 20
2.444275590551181
 30
0.0
 10
1.314358267716536
 20
2.444275590551181
 30
0.0
 10
1.314358267716536
 20
2.444275590551181
 30
0.0
 10
1.329515748031496
 20
2.465744094488189
 30
0.0
 10
1.329515748031496
 20
2.465744094488189
 30
0.0
 10
1.329515748031496
 20
2.465744094488189
 30
0.0
 10
1.329515748031496
 20
2.465744094488189
 30
0.0
 10
0.688759842519685
 20
2.837051181102362
 30
0.0
 10
0.688759842519685
 20
2.837051181102362
 30
0.0
 10
0.688759842519685
 20
2.837051181102362
 30
0.0
 10
0.688759842519685
 20
2.837051181102362
 30
0.0
 10
0.6736023622047245
 20
2.815582677165355
 30
0.0
 10
0.6736023622047245
 20
2.815582677165355
 30
0.0
  0
SPLINE
  5
5B
330
1F
100
AcDbEntity
  8
LAYER_1
 62
   253
100
AcDbSpline
210
0.0
220
0.0
230
1.0
 70
    11
 71
     3
 72
    20
 73
    16
 74
     0
 42
0.0000000001
 43
0.0000000001
 40
0.0
 40
0.0
 40
0.0
 40
0.0
 40
0.25
 40
0.25
 40
0.25
 40
0.25
 40
0.5
 40
0.5
 40
0.5
 40
0.5
 40
0.75
 40
0.75
 40
0.75
 40
0.75
 40
1.0
 40
1.0
 40
1.0
 40
1.0
 10
0.688759842519685
 20
2.837051181102362
 30
0.0
 10
0.688759842519685
 20
2.837051181102362
 30
0.0
 10
1.329515748031496
 20
2.465744094488189
 30
0.0
 10
1.329515748031496
 20
2.465744094488189
 30
0.0
 10
1.329515748031496
 20
2.465744094488189
 30
0.0
 10
1.329515748031496
 20
2.465744094488189
 30
0.0
 10
1.345712598425197
 20
2.486374015748031
 30
0.0
 10
1.345712598425197
 20
2.486374015748031
 30
0.0
 10
1.345712598425197
 20
2.486374015748031
 30
0.0
 10
1.345712598425197
 20
2.486374015748031
 30
0.0
 10
0.7049566929133858
 20
2.857681102362205
 30
0.0
 10
0.7049566929133858
 20
2.857681102362205
 30
0.0
 10
0.7049566929133858
 20
2.857681102362205
 30
0.0
 10
0.7049566929133858
 20
2.857681102362205
 30
0.0
 10
0.688759842519685
 20
2.837051181102362
 30
0.0
 10
0.688759842519685
 20
2.837051181102362
 30
0.0
  0
SPLINE
  5
5C
330
1F
100
AcDbEntity
  8
LAYER_1
 62
   253
100
AcDbSpline
210
0.0
220
0.0
230
1.0
 70
    11
 71
     3
 72
    20
 73
    16
 74
     0
 42
0.0000000001
 43
0.0000000001
 40
0.0
 40
0.0
 40
0.0
 40
0.0
 40
0.25
 40
0.25
 40
0.25
 40
0.25
 40
0.5
 40
0.5
 40
0.5
 40
0.5
 40
0.75
 40
0.75
 40
0.75
 40
0.75
 40
1.0
 40
1.0
 40
1.0
 40
1.0
 10
0.7049566929133858
 20
2.857681102362205
 30
0.0
 10
0.7049566929133858
 20
2.857681102362205
 30
0.0
 10
1.345712598425197
 20
2.486374015748031
 30
0.0
 10
1.345712598425197
 20
2.486374015748031
 30
0.0
 10
1.345712598425197
 20
2.486374015748031
 30
0.0
 10
1.345712598425197
 20
2.486374015748031
 30
0.0
 10
1.362972440944882
 20
2.506157480314961
 30
0.0
 10
1.362972440944882
 20
2.506157480314961
 30
0.0
 10
1.362972440944882
 20
2.506157480314961
 30
0.0
 10
1.362972440944882
 20
2.506157480314961
 30
0.0
 10
0.7222165354330709
 20
2.877464566929134
 30
0.0
 10
0.7222165354330709
 20
2.877464566929134
 30
0.0
 10
0.7222165354330709
 20
2.877464566929134
 30
0.0
 10
0.7222165354330709
 20
2.877464566929134
 30
0.0
 10
0.7049566929133858
 20
2.857681102362205
 30
0.0
 10
0.7049566929133858
 20
2.857681102362205
 30
0.0
  0
SPLINE
  5
5D
330
1F
100
AcDbEntity
  8
LAYER_1
 62
   253
100
AcDbSpline
210
0.0
220
0.0
230
1.0
 70
    11
 71
     3
 72
    20
 73
    16
 74
     0
 42
0.0000000001
 43
0.0000000001
 40
0.0
 40
0.0
 40
0.0
 40
0.0
 40
0.25
 40
0.25
 40
0.25
 40
0.25
 40
0.5
 40
0.5
 40
0.5
 40
0.5
 40
0.75
 40
0.75
 40
0.75
 40
0.75
 40
1.0
 40
1.0
 40
1.0
 40
1.0
 10
0.7222165354330709
 20
2.877464566929134
 30
0.0
 10
0.7222165354330709
 20
2.877464566929134
 30
0.0
 10
1.362972440944882
 20
2.506157480314961
 30
0.0
 10
1.362972440944882
 20
2.506157480314961
 30
0.0
 10
1.362972440944882
 20
2.506157480314961
 30
0.0
 10
1.362972440944882
 20
2.506157480314961
 30
0.0
 10
1.38134251968504
 20
2.525090551181103
 30
0.0
 10
1.38134251968504
 20
2.525090551181103
 30
0.0
 10
1.38134251968504
 20
2.525090551181103
 30
0.0
 10
1.38134251968504
 20
2.525090551181103
 30
0.0
 10
0.7405866141732284
 20
2.896397637795276
 30
0.0
 10
0.7405866141732284
 20
2.896397637795276
 30
0.0
 10
0.7405866141732284
 20
2.896397637795276
 30
0.0
 10
0.7405866141732284
 20
2.896397637795276
 30
0.0
 10
0.7222165354330709
 20
2.877464566929134
 30
0.0
 10
0.7222165354330709
 20
2.877464566929134
 30
0.0
  0
SPLINE
  5
5E
330
1F
100
AcDbEntity
  8
LAYER_1
 62
   253
100
AcDbSpline
210
0.0
220
0.0
230
1.0
 70
    11
 71
     3
 72
    20
 73
    16
 74
     0
 42
0.0000000001
 43
0.0000000001
 40
0.0
 40
0.0
 40
0.0
 40
0.0
 40
0.25
 40
0.25
 40
0.25
 40
0.25
 40
0.5
 40
0.5
 40
0.5
 40
0.5
 40
0.75
 40
0.75
 40
0.75
 40
0.75
 40
1.0
 40
1.0
 40
1.0
 40
1.0
 10
0.7405866141732284
 20
2.896397637795276
 30
0.0
 10
0.7405866141732284
 20
2.896397637795276
 30
0.0
 10
1.38134251968504
 20
2.525090551181103
 30
0.0
 10
1.38134251968504
 20
2.525090551181103
 30
0.0
 10
1.38134251968504
 20
2.525090551181103
 30
0.0
 10
1.38134251968504
 20
2.525090551181103
 30
0.0
 10
1.400846456692914
 20
2.543165354330709
 30
0.0
 10
1.400846456692914
 20
2.543165354330709
 30
0.0
 10
1.400846456692914
 20
2.543165354330709
 30
0.0
 10
1.400846456692914
 20
2.543165354330709
 30
0.0
 10
0.7600905511811024
 20
2.914472440944882
 30
0.0
 10
0.7600905511811024
 20
2.914472440944882
 30
0.0
 10
0.7600905511811024
 20
2.914472440944882
 30
0.0
 10
0.7600905511811024
 20
2.914472440944882
 30
0.0
 10
0.7405866141732284
 20
2.896397637795276
 30
0.0
 10
0.7405866141732284
 20
2.896397637795276
 30
0.0
  0
SPLINE
  5
5F
330
1F
100
AcDbEntity
  8
LAYER_1
 62
   253
100
AcDbSpline
210
0.0
220
0.0
230
1.0
 70
    11
 71
     3
 72
    20
 73
    16
 74
     0
 42
0.0000000001
 43
0.0000000001
 40
0.0
 40
0.0
 40
0.0
 40
0.0
 40
0.25
 40
0.25
 40
0.25
 40
0.25
 40
0.5
 40
0.5
 40
0.5
 40
0.5
 40
0.75
 40
0.75
 40
0.75
 40
0.75
 40
1.0
 40
1.0
 40
1.0
 40
1.0
 10
0.7600905511811024
 20
2.914472440944882
 30
0.0
 10
0.7600905511811024
 20
2.914472440944882
 30
0.0
 10
1.400846456692914
 20
2.543165354330709
 30
0.0
 10
1.400846456692914
 20
2.543165354330709
 30
0.0
 10
1.400846456692914
 20
2.543165354330709
 30
0.0
 10
1.400846456692914
 20
2.543165354330709
 30
0.0
 10
1.421523622047244
 20
2.560374015748032
 30
0.0
 10
1.421523622047244
 20
2.560374015748032
 30
0.0
 10
1.421523622047244
 20
2.560374015748032
 30
0.0
 10
1.421523622047244
 20
2.560374015748032
 30
0.0
 10
0.7807677165354331
 20
2.931681102362205
 30
0.0
 10
0.7807677165354331
 20
2.931681102362205
 30
0.0
 10
0.7807677165354331
 20
2.931681102362205
 30
0.0
 10
0.7807677165354331
 20
2.931681102362205
 30
0.0
 10
0.7600905511811024
 20
2.914472440944882
 30
0.0
 10
0.7600905511811024
 20
2.914472440944882
 30
0.0
  0
SPLINE
  5
60
330
1F
100
AcDbEntity
  8
LAYER_1
 62
   253
100
AcDbSpline
210
0.0
220
0.0
230
1.0
 70
    11
 71
     3
 72
    20
 73
    16
 74
     0
 42
0.0000000001
 43
0.0000000001
 40
0.0
 40
0.0
 40
0.0
 40
0.0
 40
0.25
 40
0.25
 40
0.25
 40
0.25
 40
0.5
 40
0.5
 40
0.5
 40
0.5
 40
0.75
 40
0.75
 40
0.75
 40
0.75
 40
1.0
 40
1.0
 40
1.0
 40
1.0
 10
0.7807677165354331
 20
2.931681102362205
 30
0.0
 10
0.7807677165354331
 20
2.931681102362205
 30
0.0
 10
1.421523622047244
 20
2.560374015748032
 30
0.0
 10
1.421523622047244
 20
2.560374015748032
 30
0.0
 10
1.421523622047244
 20
2.560374015748032
 30
0.0
 10
1.421523622047244
 20
2.560374015748032
 30
0.0
 10
1.44340157480315
 20
2.576700787401575
 30
0.0
 10
1.44340157480315
 20
2.576700787401575
 30
0.0
 10
1.44340157480315
 20
2.576700787401575
 30
0.0
 10
1.44340157480315
 20
2.576700787401575
 30
0.0
 10
0.8026456692913386
 20
2.948007874015748
 30
0.0
 10
0.8026456692913386
 20
2.948007874015748
 30
0.0
 10
0.8026456692913386
 20
2.948007874015748
 30
0.0
 10
0.8026456692913386
 20
2.948007874015748
 30
0.0
 10
0.7807677165354331
 20
2.931681102362205
 30
0.0
 10
0.7807677165354331
 20
2.931681102362205
 30
0.0
  0
SPLINE
  5
61
330
1F
100
AcDbEntity
  8
LAYER_1
 62
   253
100
AcDbSpline
210
0.0
220
0.0
230
1.0
 70
    11
 71
     3
 72
    20
 73
    16
 74
     0
 42
0.0000000001
 43
0.0000000001
 40
0.0
 40
0.0
 40
0.0
 40
0.0
 40
0.25
 40
0.25
 40
0.25
 40
0.25
 40
0.5
 40
0.5
 40
0.5
 40
0.5
 40
0.75
 40
0.75
 40
0.75
 40
0.75
 40
1.0
 40
1.0
 40
1.0
 40
1.0
 10
0.8026456692913386
 20
2.948007874015748
 30
0.0
 10
0.8026456692913386
 20
2.948007874015748
 30
0.0
 10
1.44340157480315
 20
2.576700787401575
 30
0.0
 10
1.44340157480315
 20
2.576700787401575
 30
0.0
 10
1.44340157480315
 20
2.576700787401575
 30
0.0
 10
1.44340157480315
 20
2.576700787401575
 30
0.0
 10
1.466523622047244
 20
2.592157480314961
 30
0.0
 10
1.466523622047244
 20
2.592157480314961
 30
0.0
 10
1.466523622047244
 20
2.592157480314961
 30
0.0
 10
1.466523622047244
 20
2.592157480314961
 30
0.0
 10
0.8257677165354331
 20
2.963464566929134
 30
0.0
 10
0.8257677165354331
 20
2.963464566929134
 30
0.0
 10
0.8257677165354331
 20
2.963464566929134
 30
0.0
 10
0.8257677165354331
 20
2.963464566929134
 30
0.0
 10
0.8026456692913386
 20
2.948007874015748
 30
0.0
 10
0.8026456692913386
 20
2.948007874015748
 30
0.0
  0
SPLINE
  5
62
330
1F
100
AcDbEntity
  8
LAYER_1
 62
   253
100
AcDbSpline
210
0.0
220
0.0
230
1.0
 70
    11
 71
     3
 72
    20
 73
    16
 74
     0
 42
0.0000000001
 43
0.0000000001
 40
0.0
 40
0.0
 40
0.0
 40
0.0
 40
0.25
 40
0.25
 40
0.25
 40
0.25
 40
0.5
 40
0.5
 40
0.5
 40
0.5
 40
0.75
 40
0.75
 40
0.75
 40
0.75
 40
1.0
 40
1.0
 40
1.0
 40
1.0
 10
0.8257677165354331
 20
2.963464566929134
 30
0.0
 10
0.8257677165354331
 20
2.963464566929134
 30
0.0
 10
1.466523622047244
 20
2.592157480314961
 30
0.0
 10
1.466523622047244
 20
2.592157480314961
 30
0.0
 10
1.466523622047244
 20
2.592157480314961
 30
0.0
 10
1.466523622047244
 20
2.592157480314961
 30
0.0
 10
1.490913385826772
 20
2.606720472440945
 30
0.0
 10
1.490913385826772
 20
2.606720472440945
 30
0.0
 10
1.490913385826772
 20
2.606720472440945
 30
0.0
 10
1.490913385826772
 20
2.606720472440945
 30
0.0
 10
0.8501574803149606
 20
2.978027559055118
 30
0.0
 10
0.8501574803149606
 20
2.978027559055118
 30
0.0
 10
0.8501574803149606
 20
2.978027559055118
 30
0.0
 10
0.8501574803149606
 20
2.978027559055118
 30
0.0
 10
0.8257677165354331
 20
2.963464566929134
 30
0.0
 10
0.8257677165354331
 20
2.963464566929134
 30
0.0
  0
SPLINE
  5
63
330
1F
100
AcDbEntity
  8
LAYER_1
 62
   253
100
AcDbSpline
210
0.0
220
0.0
230
1.0
 70
    11
 71
     3
 72
    20
 73
    16
 74
     0
 42
0.0000000001
 43
0.0000000001
 40
0.0
 40
0.0
 40
0.0
 40
0.0
 40
0.25
 40
0.25
 40
0.25
 40
0.25
 40
0.5
 40
0.5
 40
0.5
 40
0.5
 40
0.75
 40
0.75
 40
0.75
 40
0.75
 40
1.0
 40
1.0
 40
1.0
 40
1.0
 10
0.8501574803149606
 20
2.978027559055118
 30
0.0
 10
0.8501574803149606
 20
2.978027559055118
 30
0.0
 10
1.490913385826772
 20
2.606720472440945
 30
0.0
 10
1.490913385826772
 20
2.606720472440945
 30
0.0
 10
1.490913385826772
 20
2.606720472440945
 30
0.0
 10
1.490913385826772
 20
2.606720472440945
 30
0.0
 10
1.516614173228347
 20
2.620389763779528
 30
0.0
 10
1.516614173228347
 20
2.620389763779528
 30
0.0
 10
1.516614173228347
 20
2.620389763779528
 30
0.0
 10
1.516614173228347
 20
2.620389763779528
 30
0.0
 10
0.8758582677165355
 20
2.991696850393701
 30
0.0
 10
0.8758582677165355
 20
2.991696850393701
 30
0.0
 10
0.8758582677165355
 20
2.991696850393701
 30
0.0
 10
0.8758582677165355
 20
2.991696850393701
 30
0.0
 10
0.8501574803149606
 20
2.978027559055118
 30
0.0
 10
0.8501574803149606
 20
2.978027559055118
 30
0.0
  0
SPLINE
  5
64
330
1F
100
AcDbEntity
  8
LAYER_1
 62
   253
100
AcDbSpline
210
0.0
220
0.0
230
1.0
 70
    11
 71
     3
 72
    20
 73
    16
 74
     0
 42
0.0000000001
 43
0.0000000001
 40
0.0
 40
0.0
 40
0.0
 40
0.0
 40
0.25
 40
0.25
 40
0.25
 40
0.25
 40
0.5
 40
0.5
 40
0.5
 40
0.5
 40
0.75
 40
0.75
 40
0.75
 40
0.75
 40
1.0
 40
1.0
 40
1.0
 40
1.0
 10
0.8758582677165355
 20
2.991696850393701
 30
0.0
 10
0.8758582677165355
 20
2.991696850393701
 30
0.0
 10
1.516614173228347
 20
2.620389763779528
 30
0.0
 10
1.516614173228347
 20
2.620389763779528
 30
0.0
 10
1.516614173228347
 20
2.620389763779528
 30
0.0
 10
1.516614173228347
 20
2.620389763779528
 30
0.0
 10
1.543649606299213
 20
2.633153543307087
 30
0.0
 10
1.543649606299213
 20
2.633153543307087
 30
0.0
 10
1.543649606299213
 20
2.633153543307087
 30
0.0
 10
1.543649606299213
 20
2.633153543307087
 30
0.0
 10
0.9028937007874016
 20
3.00446062992126
 30
0.0
 10
0.9028937007874016
 20
3.00446062992126
 30
0.0
 10
0.9028937007874016
 20
3.00446062992126
 30
0.0
 10
0.9028937007874016
 20
3.00446062992126
 30
0.0
 10
0.8758582677165355
 20
2.991696850393701
 30
0.0
 10
0.8758582677165355
 20
2.991696850393701
 30
0.0
  0
SPLINE
  5
65
330
1F
100
AcDbEntity
  8
LAYER_1
 62
   253
100
AcDbSpline
210
0.0
220
0.0
230
1.0
 70
    11
 71
     3
 72
    20
 73
    16
 74
     0
 42
0.0000000001
 43
0.0000000001
 40
0.0
 40
0.0
 40
0.0
 40
0.0
 40
0.25
 40
0.25
 40
0.25
 40
0.25
 40
0.5
 40
0.5
 40
0.5
 40
0.5
 40
0.75
 40
0.75
 40
0.75
 40
0.75
 40
1.0
 40
1.0
 40
1.0
 40
1.0
 10
0.9028937007874016
 20
3.00446062992126
 30
0.0
 10
0.9028937007874016
 20
3.00446062992126
 30
0.0
 10
1.543649606299213
 20
2.633153543307087
 30
0.0
 10
1.543649606299213
 20
2.633153543307087
 30
0.0
 10
1.543649606299213
 20
2.633153543307087
 30
0.0
 10
1.543649606299213
 20
2.633153543307087
 30
0.0
 10
1.572062992125984
 20
2.645015748031496
 30
0.0
 10
1.572062992125984
 20
2.645015748031496
 30
0.0
 10
1.572062992125984
 20
2.645015748031496
 30
0.0
 10
1.572062992125984
 20
2.645015748031496
 30
0.0
 10
0.9313070866141733
 20
3.016322834645669
 30
0.0
 10
0.9313070866141733
 20
3.016322834645669
 30
0.0
 10
0.9313070866141733
 20
3.016322834645669
 30
0.0
 10
0.9313070866141733
 20
3.016322834645669
 30
0.0
 10
0.9028937007874016
 20
3.00446062992126
 30
0.0
 10
0.9028937007874016
 20
3.00446062992126
 30
0.0
  0
SPLINE
  5
66
330
1F
100
AcDbEntity
  8
LAYER_1
 62
   253
100
AcDbSpline
210
0.0
220
0.0
230
1.0
 70
    11
 71
     3
 72
    20
 73
    16
 74
     0
 42
0.0000000001
 43
0.0000000001
 40
0.0
 40
0.0
 40
0.0
 40
0.0
 40
0.25
 40
0.25
 40
0.25
 40
0.25
 40
0.5
 40
0.5
 40
0.5
 40
0.5
 40
0.75
 40
0.75
 40
0.75
 40
0.75
 40
1.0
 40
1.0
 40
1.0
 40
1.0
 10
0.9313070866141733
 20
3.016322834645669
 30
0.0
 10
0.9313070866141733
 20
3.016322834645669
 30
0.0
 10
1.572062992125984
 20
2.645015748031496
 30
0.0
 10
1.572062992125984
 20
2.645015748031496
 30
0.0
 10
1.572062992125984
 20
2.645015748031496
 30
0.0
 10
1.572062992125984
 20
2.645015748031496
 30
0.0
 10
1.601874015748032
 20
2.655952755905512
 30
0.0
 10
1.601874015748032
 20
2.655952755905512
 30
0.0
 10
1.601874015748032
 20
2.655952755905512
 30
0.0
 10
1.601874015748032
 20
2.655952755905512
 30
0.0
 10
0.9611181102362205
 20
3.027259842519685
 30
0.0
 10
0.9611181102362205
 20
3.027259842519685
 30
0.0
 10
0.9611181102362205
 20
3.027259842519685
 30
0.0
 10
0.9611181102362205
 20
3.027259842519685
 30
0.0
 10
0.9313070866141733
 20
3.016322834645669
 30
0.0
 10
0.9313070866141733
 20
3.016322834645669
 30
0.0
  0
SPLINE
  5
67
330
1F
100
AcDbEntity
  8
LAYER_1
 62
   253
100
AcDbSpline
210
0.0
220
0.0
230
1.0
 70
    11
 71
     3
 72
    20
 73
    16
 74
     0
 42
0.0000000001
 43
0.0000000001
 40
0.0
 40
0.0
 40
0.0
 40
0.0
 40
0.25
 40
0.25
 40
0.25
 40
0.25
 40
0.5
 40
0.5
 40
0.5
 40
0.5
 40
0.75
 40
0.75
 40
0.75
 40
0.75
 40
1.0
 40
1.0
 40
1.0
 40
1.0
 10
0.9611181102362205
 20
3.027259842519685
 30
0.0
 10
0.9611181102362205
 20
3.027259842519685
 30
0.0
 10
1.601874015748032
 20
2.655952755905512
 30
0.0
 10
1.601874015748032
 20
2.655952755905512
 30
0.0
 10
1.601874015748032
 20
2.655952755905512
 30
0.0
 10
1.601874015748032
 20
2.655952755905512
 30
0.0
 10
1.633129921259843
 20
2.665968503937008
 30
0.0
 10
1.633129921259843
 20
2.665968503937008
 30
0.0
 10
1.633129921259843
 20
2.665968503937008
 30
0.0
 10
1.633129921259843
 20
2.665968503937008
 30
0.0
 10
0.9923740157480315
 20
3.037275590551181
 30
0.0
 10
0.9923740157480315
 20
3.037275590551181
 30
0.0
 10
0.9923740157480315
 20
3.037275590551181
 30
0.0
 10
0.9923740157480315
 20
3.037275590551181
 30
0.0
 10
0.9611181102362205
 20
3.027259842519685
 30
0.0
 10
0.9611181102362205
 20
3.027259842519685
 30
0.0
  0
SPLINE
  5
68
330
1F
100
AcDbEntity
  8
LAYER_1
 62
   253
100
AcDbSpline
210
0.0
220
0.0
230
1.0
 70
    11
 71
     3
 72
    20
 73
    16
 74
     0
 42
0.0000000001
 43
0.0000000001
 40
0.0
 40
0.0
 40
0.0
 40
0.0
 40
0.25
 40
0.25
 40
0.25
 40
0.25
 40
0.5
 40
0.5
 40
0.5
 40
0.5
 40
0.75
 40
0.75
 40
0.75
 40
0.75
 40
1.0
 40
1.0
 40
1.0
 40
1.0
 10
0.9923740157480315
 20
3.037275590551181
 30
0.0
 10
0.9923740157480315
 20
3.037275590551181
 30
0.0
 10
1.633129921259843
 20
2.665968503937008
 30
0.0
 10
1.633129921259843
 20
2.665968503937008
 30
0.0
 10
1.633129921259843
 20
2.665968503937008
 30
0.0
 10
1.633129921259843
 20
2.665968503937008
 30
0.0
 10
1.665866141732284
 20
2.675047244094488
 30
0.0
 10
1.665866141732284
 20
2.675047244094488
 30
0.0
 10
1.665866141732284
 20
2.675047244094488
 30
0.0
 10
1.665866141732284
 20
2.675047244094488
 30
0.0
 10
1.025110236220473
 20
3.046354330708661
 30
0.0
 10
1.025110236220473
 20
3.046354330708661
 30
0.0
 10
1.025110236220473
 20
3.046354330708661
 30
0.0
 10
1.025110236220473
 20
3.046354330708661
 30
0.0
 10
0.9923740157480315
 20
3.037275590551181
 30
0.0
 10
0.9923740157480315
 20
3.037275590551181
 30
0.0
  0
SPLINE
  5
69
330
1F
100
AcDbEntity
  8
LAYER_1
 62
   250
100
AcDbSpline
210
0.0
220
0.0
230
1.0
 70
    11
 71
     3
 72
   268
 73
   264
 74
     0
 42
0.0000000001
 43
0.0000000001
 40
0.0
 40
0.0
 40
0.0
 40
0.0
 40
0.0151515151515152
 40
0.0151515151515152
 40
0.0151515151515152
 40
0.0151515151515152
 40
0.0303030303030303
 40
0.0303030303030303
 40
0.0303030303030303
 40
0.0303030303030303
 40
0.0454545454545455
 40
0.0454545454545455
 40
0.0454545454545455
 40
0.0454545454545455
 40
0.0606060606060606
 40
0.0606060606060606
 40
0.0606060606060606
 40
0.0606060606060606
 40
0.0757575757575758
 40
0.0757575757575758
 40
0.0757575757575758
 40
0.0757575757575758
 40
0.0909090909090909
 40
0.0909090909090909
 40
0.0909090909090909
 40
0.0909090909090909
 40
0.1060606060606061
 40
0.1060606060606061
 40
0.1060606060606061
 40
0.1060606060606061
 40
0.1212121212121212
 40
0.1212121212121212
 40
0.1212121212121212
 40
0.1212121212121212
 40
0.1363636363636364
 40
0.1363636363636364
 40
0.1363636363636364
 40
0.1363636363636364
 40
0.1515151515151515
 40
0.1515151515151515
 40
0.1515151515151515
 40
0.1515151515151515
 40
0.1666666666666666
 40
0.1666666666666666
 40
0.1666666666666666
 40
0.1666666666666666
 40
0.1818181818181818
 40
0.1818181818181818
 40
0.1818181818181818
 40
0.1818181818181818
 40
0.1969696969696969
 40
0.1969696969696969
 40
0.1969696969696969
 40
0.1969696969696969
 40
0.212121212121212
 40
0.212121212121212
 40
0.212121212121212
 40
0.212121212121212
 40
0.2272727272727272
 40
0.2272727272727272
 40
0.2272727272727272
 40
0.2272727272727272
 40
0.2424242424242423
 40
0.2424242424242423
 40
0.2424242424242423
 40
0.2424242424242423
 40
0.2575757575757575
 40
0.2575757575757575
 40
0.2575757575757575
 40
0.2575757575757575
 40
0.2727272727272726
 40
0.2727272727272726
 40
0.2727272727272726
 40
0.2727272727272726
 40
0.2878787878787877
 40
0.2878787878787877
 40
0.2878787878787877
 40
0.2878787878787877
 40
0.3030303030303029
 40
0.3030303030303029
 40
0.3030303030303029
 40
0.3030303030303029
 40
0.318181818181818
 40
0.318181818181818
 40
0.318181818181818
 40
0.318181818181818
 40
0.3333333333333332
 40
0.3333333333333332
 40
0.3333333333333332
 40
0.3333333333333332
 40
0.3484848484848483
 40
0.3484848484848483
 40
0.3484848484848483
 40
0.3484848484848483
 40
0.3636363636363634
 40
0.3636363636363634
 40
0.3636363636363634
 40
0.3636363636363634
 40
0.3787878787878786
 40
0.3787878787878786
 40
0.3787878787878786
 40
0.3787878787878786
 40
0.3939393939393937
 40
0.3939393939393937
 40
0.3939393939393937
 40
0.3939393939393937
 40
0.4090909090909088
 40
0.4090909090909088
 40
0.4090909090909088
 40
0.4090909090909088
 40
0.424242424242424
 40
0.424242424242424
 40
0.424242424242424
 40
0.424242424242424
 40
0.4393939393939391
 40
0.4393939393939391
 40
0.4393939393939391
 40
0.4393939393939391
 40
0.4545454545454543
 40
0.4545454545454543
 40
0.4545454545454543
 40
0.4545454545454543
 40
0.4696969696969694
 40
0.4696969696969694
 40
0.4696969696969694
 40
0.4696969696969694
 40
0.4848484848484845
 40
0.4848484848484845
 40
0.4848484848484845
 40
0.4848484848484845
 40
0.4999999999999997
 40
0.4999999999999997
 40
0.4999999999999997
 40
0.4999999999999997
 40
0.5151515151515148
 40
0.5151515151515148
 40
0.5151515151515148
 40
0.5151515151515148
 40
0.5303030303030299
 40
0.5303030303030299
 40
0.5303030303030299
 40
0.5303030303030299
 40
0.5454545454545451
 40
0.5454545454545451
 40
0.5454545454545451
 40
0.5454545454545451
 40
0.5606060606060602
 40
0.5606060606060602
 40
0.5606060606060602
 40
0.5606060606060602
 40
0.5757575757575754
 40
0.5757575757575754
 40
0.5757575757575754
 40
0.5757575757575754
 40
0.5909090909090905
 40
0.5909090909090905
 40
0.5909090909090905
 40
0.5909090909090905
 40
0.6060606060606056
 40
0.6060606060606056
 40
0.6060606060606056
 40
0.6060606060606056
 40
0.6212121212121208
 40
0.6212121212121208
 40
0.6212121212121208
 40
0.6212121212121208
 40
0.6363636363636359
 40
0.6363636363636359
 40
0.6363636363636359
 40
0.6363636363636359
 40
0.6515151515151511
 40
0.6515151515151511
 40
0.6515151515151511
 40
0.6515151515151511
 40
0.6666666666666662
 40
0.6666666666666662
 40
0.6666666666666662
 40
0.6666666666666662
 40
0.6818181818181813
 40
0.6818181818181813
 40
0.6818181818181813
 40
0.6818181818181813
 40
0.6969696969696965
 40
0.6969696969696965
 40
0.6969696969696965
 40
0.6969696969696965
 40
0.7121212121212116
 40
0.7121212121212116
 40
0.7121212121212116
 40
0.7121212121212116
 40
0.7272727272727267
 40
0.7272727272727267
 40
0.7272727272727267
 40
0.7272727272727267
 40
0.7424242424242419
 40
0.7424242424242419
 40
0.7424242424242419
 40
0.7424242424242419
 40
0.757575757575757
 40
0.757575757575757
 40
0.757575757575757
 40
0.757575757575757
 40
0.7727272727272722
 40
0.7727272727272722
 40
0.7727272727272722
 40
0.7727272727272722
 40
0.7878787878787873
 40
0.7878787878787873
 40
0.7878787878787873
 40
0.7878787878787873
 40
0.8030303030303024
 40
0.8030303030303024
 40
0.8030303030303024
 40
0.8030303030303024
 40
0.8181818181818176
 40
0.8181818181818176
 40
0.8181818181818176
 40
0.8181818181818176
 40
0.8333333333333327
 40
0.8333333333333327
 40
0.8333333333333327
 40
0.8333333333333327
 40
0.8484848484848478
 40
0.8484848484848478
 40
0.8484848484848478
 40
0.8484848484848478
 40
0.863636363636363
 40
0.863636363636363
 40
0.863636363636363
 40
0.863636363636363
 40
0.8787878787878781
 40
0.8787878787878781
 40
0.8787878787878781
 40
0.8787878787878781
 40
0.8939393939393933
 40
0.8939393939393933
 40
0.8939393939393933
 40
0.8939393939393933
 40
0.9090909090909084
 40
0.9090909090909084
 40
0.9090909090909084
 40
0.9090909090909084
 40
0.9242424242424235
 40
0.9242424242424235
 40
0.9242424242424235
 40
0.9242424242424235
 40
0.9393939393939387
 40
0.9393939393939387
 40
0.9393939393939387
 40
0.9393939393939387
 40
0.9545454545454538
 40
0.9545454545454538
 40
0.9545454545454538
 40
0.9545454545454538
 40
0.969696969696969
 40
0.969696969696969
 40
0.969696969696969
 40
0.969696969696969
 40
0.9848484848484841
 40
0.9848484848484841
 40
0.9848484848484841
 40
0.9848484848484841
 40
1.0
 40
1.0
 40
1.0
 40
1.0
 10
0.5419291338582677
 20
2.32946062992126
 30
0.0
 10
0.5419291338582677
 20
2.32946062992126
 30
0.0
 10
1.182685039370079
 20
1.958153543307087
 30
0.0
 10
1.182685039370079
 20
1.958153543307087
 30
0.0
 10
1.182685039370079
 20
1.958153543307087
 30
0.0
 10
1.182685039370079
 20
1.958153543307087
 30
0.0
 10
1.185374015748032
 20
1.992759842519685
 30
0.0
 10
1.185374015748032
 20
1.992759842519685
 30
0.0
 10
1.185374015748032
 20
1.992759842519685
 30
0.0
 10
1.185374015748032
 20
1.992759842519685
 30
0.0
 10
1.18851968503937
 20
2.026649606299213
 30
0.0
 10
1.18851968503937
 20
2.026649606299213
 30
0.0
 10
1.18851968503937
 20
2.026649606299213
 30
0.0
 10
1.18851968503937
 20
2.026649606299213
 30
0.0
 10
1.192169291338583
 20
2.059818897637795
 30
0.0
 10
1.192169291338583
 20
2.059818897637795
 30
0.0
 10
1.192169291338583
 20
2.059818897637795
 30
0.0
 10
1.192169291338583
 20
2.059818897637795
 30
0.0
 10
1.19634251968504
 20
2.092251968503937
 30
0.0
 10
1.19634251968504
 20
2.092251968503937
 30
0.0
 10
1.19634251968504
 20
2.092251968503937
 30
0.0
 10
1.19634251968504
 20
2.092251968503937
 30
0.0
 10
1.201090551181102
 20
2.123956692913386
 30
0.0
 10
1.201090551181102
 20
2.123956692913386
 30
0.0
 10
1.201090551181102
 20
2.123956692913386
 30
0.0
 10
1.201090551181102
 20
2.123956692913386
 30
0.0
 10
1.206429133858268
 20
2.154913385826772
 30
0.0
 10
1.206429133858268
 20
2.154913385826772
 30
0.0
 10
1.206429133858268
 20
2.154913385826772
 30
0.0
 10
1.206429133858268
 20
2.154913385826772
 30
0.0
 10
1.212405511811024
 20
2.185118110236221
 30
0.0
 10
1.212405511811024
 20
2.185118110236221
 30
0.0
 10
1.212405511811024
 20
2.185118110236221
 30
0.0
 10
1.212405511811024
 20
2.185118110236221
 30
0.0
 10
1.219043307086614
 20
2.214559055118111
 30
0.0
 10
1.219043307086614
 20
2.214559055118111
 30
0.0
 10
1.219043307086614
 20
2.214559055118111
 30
0.0
 10
1.219043307086614
 20
2.214559055118111
 30
0.0
 10
1.226389763779528
 20
2.243244094488189
 30
0.0
 10
1.226389763779528
 20
2.243244094488189
 30
0.0
 10
1.226389763779528
 20
2.243244094488189
 30
0.0
 10
1.226389763779528
 20
2.243244094488189
 30
0.0
 10
1.234464566929134
 20
2.271153543307087
 30
0.0
 10
1.234464566929134
 20
2.271153543307087
 30
0.0
 10
1.234464566929134
 20
2.271153543307087
 30
0.0
 10
1.234464566929134
 20
2.271153543307087
 30
0.0
 10
1.243307086614173
 20
2.298283464566929
 30
0.0
 10
1.243307086614173
 20
2.298283464566929
 30
0.0
 10
1.243307086614173
 20
2.298283464566929
 30
0.0
 10
1.243307086614173
 20
2.298283464566929
 30
0.0
 10
1.252944881889764
 20
2.324622047244095
 30
0.0
 10
1.252944881889764
 20
2.324622047244095
 30
0.0
 10
1.252944881889764
 20
2.324622047244095
 30
0.0
 10
1.252944881889764
 20
2.324622047244095
 30
0.0
 10
1.263429133858268
 20
2.350173228346457
 30
0.0
 10
1.263429133858268
 20
2.350173228346457
 30
0.0
 10
1.263429133858268
 20
2.350173228346457
 30
0.0
 10
1.263429133858268
 20
2.350173228346457
 30
0.0
 10
1.274771653543307
 20
2.374917322834646
 30
0.0
 10
1.274771653543307
 20
2.374917322834646
 30
0.0
 10
1.274771653543307
 20
2.374917322834646
 30
0.0
 10
1.274771653543307
 20
2.374917322834646
 30
0.0
 10
1.287023622047244
 20
2.398858267716535
 30
0.0
 10
1.287023622047244
 20
2.398858267716535
 30
0.0
 10
1.287023622047244
 20
2.398858267716535
 30
0.0
 10
1.287023622047244
 20
2.398858267716535
 30
0.0
 10
1.300200787401575
 20
2.421972440944882
 30
0.0
 10
1.300200787401575
 20
2.421972440944882
 30
0.0
 10
1.300200787401575
 20
2.421972440944882
 30
0.0
 10
1.300200787401575
 20
2.421972440944882
 30
0.0
 10
1.314358267716536
 20
2.444275590551181
 30
0.0
 10
1.314358267716536
 20
2.444275590551181
 30
0.0
 10
1.314358267716536
 20
2.444275590551181
 30
0.0
 10
1.314358267716536
 20
2.444275590551181
 30
0.0
 10
1.329515748031496
 20
2.465744094488189
 30
0.0
 10
1.329515748031496
 20
2.465744094488189
 30
0.0
 10
1.329515748031496
 20
2.465744094488189
 30
0.0
 10
1.329515748031496
 20
2.465744094488189
 30
0.0
 10
1.345712598425197
 20
2.486374015748031
 30
0.0
 10
1.345712598425197
 20
2.486374015748031
 30
0.0
 10
1.345712598425197
 20
2.486374015748031
 30
0.0
 10
1.345712598425197
 20
2.486374015748031
 30
0.0
 10
1.362972440944882
 20
2.506157480314961
 30
0.0
 10
1.362972440944882
 20
2.506157480314961
 30
0.0
 10
1.362972440944882
 20
2.506157480314961
 30
0.0
 10
1.362972440944882
 20
2.506157480314961
 30
0.0
 10
1.38134251968504
 20
2.525090551181103
 30
0.0
 10
1.38134251968504
 20
2.525090551181103
 30
0.0
 10
1.38134251968504
 20
2.525090551181103
 30
0.0
 10
1.38134251968504
 20
2.525090551181103
 30
0.0
 10
1.400846456692914
 20
2.543165354330709
 30
0.0
 10
1.400846456692914
 20
2.543165354330709
 30
0.0
 10
1.400846456692914
 20
2.543165354330709
 30
0.0
 10
1.400846456692914
 20
2.543165354330709
 30
0.0
 10
1.421523622047244
 20
2.560374015748032
 30
0.0
 10
1.421523622047244
 20
2.560374015748032
 30
0.0
 10
1.421523622047244
 20
2.560374015748032
 30
0.0
 10
1.421523622047244
 20
2.560374015748032
 30
0.0
 10
1.44340157480315
 20
2.576700787401575
 30
0.0
 10
1.44340157480315
 20
2.576700787401575
 30
0.0
 10
1.44340157480315
 20
2.576700787401575
 30
0.0
 10
1.44340157480315
 20
2.576700787401575
 30
0.0
 10
1.466523622047244
 20
2.592157480314961
 30
0.0
 10
1.466523622047244
 20
2.592157480314961
 30
0.0
 10
1.466523622047244
 20
2.592157480314961
 30
0.0
 10
1.466523622047244
 20
2.592157480314961
 30
0.0
 10
1.490913385826772
 20
2.606720472440945
 30
0.0
 10
1.490913385826772
 20
2.606720472440945
 30
0.0
 10
1.490913385826772
 20
2.606720472440945
 30
0.0
 10
1.490913385826772
 20
2.606720472440945
 30
0.0
 10
1.516614173228347
 20
2.620389763779528
 30
0.0
 10
1.516614173228347
 20
2.620389763779528
 30
0.0
 10
1.516614173228347
 20
2.620389763779528
 30
0.0
 10
1.516614173228347
 20
2.620389763779528
 30
0.0
 10
1.543649606299213
 20
2.633153543307087
 30
0.0
 10
1.543649606299213
 20
2.633153543307087
 30
0.0
 10
1.543649606299213
 20
2.633153543307087
 30
0.0
 10
1.543649606299213
 20
2.633153543307087
 30
0.0
 10
1.572062992125984
 20
2.645015748031496
 30
0.0
 10
1.572062992125984
 20
2.645015748031496
 30
0.0
 10
1.572062992125984
 20
2.645015748031496
 30
0.0
 10
1.572062992125984
 20
2.645015748031496
 30
0.0
 10
1.601874015748032
 20
2.655952755905512
 30
0.0
 10
1.601874015748032
 20
2.655952755905512
 30
0.0
 10
1.601874015748032
 20
2.655952755905512
 30
0.0
 10
1.601874015748032
 20
2.655952755905512
 30
0.0
 10
1.633129921259843
 20
2.665968503937008
 30
0.0
 10
1.633129921259843
 20
2.665968503937008
 30
0.0
 10
1.633129921259843
 20
2.665968503937008
 30
0.0
 10
1.633129921259843
 20
2.665968503937008
 30
0.0
 10
1.665866141732284
 20
2.675047244094488
 30
0.0
 10
1.665866141732284
 20
2.675047244094488
 30
0.0
 10
1.665866141732284
 20
2.675047244094488
 30
0.0
 10
1.665866141732284
 20
2.675047244094488
 30
0.0
 10
1.025110236220473
 20
3.046354330708661
 30
0.0
 10
1.025110236220473
 20
3.046354330708661
 30
0.0
 10
1.025110236220473
 20
3.046354330708661
 30
0.0
 10
1.025110236220473
 20
3.046354330708661
 30
0.0
 10
0.9923740157480315
 20
3.037275590551181
 30
0.0
 10
0.9923740157480315
 20
3.037275590551181
 30
0.0
 10
0.9923740157480315
 20
3.037275590551181
 30
0.0
 10
0.9923740157480315
 20
3.037275590551181
 30
0.0
 10
0.9611181102362205
 20
3.027259842519685
 30
0.0
 10
0.9611181102362205
 20
3.027259842519685
 30
0.0
 10
0.9611181102362205
 20
3.027259842519685
 30
0.0
 10
0.9611181102362205
 20
3.027259842519685
 30
0.0
 10
0.9313070866141733
 20
3.016322834645669
 30
0.0
 10
0.9313070866141733
 20
3.016322834645669
 30
0.0
 10
0.9313070866141733
 20
3.016322834645669
 30
0.0
 10
0.9313070866141733
 20
3.016322834645669
 30
0.0
 10
0.9028937007874016
 20
3.00446062992126
 30
0.0
 10
0.9028937007874016
 20
3.00446062992126
 30
0.0
 10
0.9028937007874016
 20
3.00446062992126
 30
0.0
 10
0.9028937007874016
 20
3.00446062992126
 30
0.0
 10
0.8758582677165355
 20
2.991696850393701
 30
0.0
 10
0.8758582677165355
 20
2.991696850393701
 30
0.0
 10
0.8758582677165355
 20
2.991696850393701
 30
0.0
 10
0.8758582677165355
 20
2.991696850393701
 30
0.0
 10
0.8501574803149606
 20
2.978027559055118
 30
0.0
 10
0.8501574803149606
 20
2.978027559055118
 30
0.0
 10
0.8501574803149606
 20
2.978027559055118
 30
0.0
 10
0.8501574803149606
 20
2.978027559055118
 30
0.0
 10
0.8257677165354331
 20
2.963464566929134
 30
0.0
 10
0.8257677165354331
 20
2.963464566929134
 30
0.0
 10
0.8257677165354331
 20
2.963464566929134
 30
0.0
 10
0.8257677165354331
 20
2.963464566929134
 30
0.0
 10
0.8026456692913386
 20
2.948007874015748
 30
0.0
 10
0.8026456692913386
 20
2.948007874015748
 30
0.0
 10
0.8026456692913386
 20
2.948007874015748
 30
0.0
 10
0.8026456692913386
 20
2.948007874015748
 30
0.0
 10
0.7807677165354331
 20
2.931681102362205
 30
0.0
 10
0.7807677165354331
 20
2.931681102362205
 30
0.0
 10
0.7807677165354331
 20
2.931681102362205
 30
0.0
 10
0.7807677165354331
 20
2.931681102362205
 30
0.0
 10
0.7600905511811024
 20
2.914472440944882
 30
0.0
 10
0.7600905511811024
 20
2.914472440944882
 30
0.0
 10
0.7600905511811024
 20
2.914472440944882
 30
0.0
 10
0.7600905511811024
 20
2.914472440944882
 30
0.0
 10
0.7405866141732284
 20
2.896397637795276
 30
0.0
 10
0.7405866141732284
 20
2.896397637795276
 30
0.0
 10
0.7405866141732284
 20
2.896397637795276
 30
0.0
 10
0.7405866141732284
 20
2.896397637795276
 30
0.0
 10
0.7222165354330709
 20
2.877464566929134
 30
0.0
 10
0.7222165354330709
 20
2.877464566929134
 30
0.0
 10
0.7222165354330709
 20
2.877464566929134
 30
0.0
 10
0.7222165354330709
 20
2.877464566929134
 30
0.0
 10
0.7049566929133858
 20
2.857681102362205
 30
0.0
 10
0.7049566929133858
 20
2.857681102362205
 30
0.0
 10
0.7049566929133858
 20
2.857681102362205
 30
0.0
 10
0.7049566929133858
 20
2.857681102362205
 30
0.0
 10
0.688759842519685
 20
2.837051181102362
 30
0.0
 10
0.688759842519685
 20
2.837051181102362
 30
0.0
 10
0.688759842519685
 20
2.837051181102362
 30
0.0
 10
0.688759842519685
 20
2.837051181102362
 30
0.0
 10
0.6736023622047245
 20
2.815582677165355
 30
0.0
 10
0.6736023622047245
 20
2.815582677165355
 30
0.0
 10
0.6736023622047245
 20
2.815582677165355
 30
0.0
 10
0.6736023622047245
 20
2.815582677165355
 30
0.0
 10
0.6594448818897638
 20
2.793279527559055
 30
0.0
 10
0.6594448818897638
 20
2.793279527559055
 30
0.0
 10
0.6594448818897638
 20
2.793279527559055
 30
0.0
 10
0.6594448818897638
 20
2.793279527559055
 30
0.0
 10
0.6462677165354331
 20
2.770165354330709
 30
0.0
 10
0.6462677165354331
 20
2.770165354330709
 30
0.0
 10
0.6462677165354331
 20
2.770165354330709
 30
0.0
 10
0.6462677165354331
 20
2.770165354330709
 30
0.0
 10
0.6340157480314961
 20
2.746224409448819
 30
0.0
 10
0.6340157480314961
 20
2.746224409448819
 30
0.0
 10
0.6340157480314961
 20
2.746224409448819
 30
0.0
 10
0.6340157480314961
 20
2.746224409448819
 30
0.0
 10
0.6226732283464567
 20
2.72148031496063
 30
0.0
 10
0.6226732283464567
 20
2.72148031496063
 30
0.0
 10
0.6226732283464567
 20
2.72148031496063
 30
0.0
 10
0.6226732283464567
 20
2.72148031496063
 30
0.0
 10
0.6121889763779528
 20
2.695929133858268
 30
0.0
 10
0.6121889763779528
 20
2.695929133858268
 30
0.0
 10
0.6121889763779528
 20
2.695929133858268
 30
0.0
 10
0.6121889763779528
 20
2.695929133858268
 30
0.0
 10
0.6025511811023623
 20
2.669590551181102
 30
0.0
 10
0.6025511811023623
 20
2.669590551181102
 30
0.0
 10
0.6025511811023623
 20
2.669590551181102
 30
0.0
 10
0.6025511811023623
 20
2.669590551181102
 30
0.0
 10
0.5937086614173228
 20
2.64246062992126
 30
0.0
 10
0.5937086614173228
 20
2.64246062992126
 30
0.0
 10
0.5937086614173228
 20
2.64246062992126
 30
0.0
 10
0.5937086614173228
 20
2.64246062992126
 30
0.0
 10
0.5856338582677165
 20
2.614551181102363
 30
0.0
 10
0.5856338582677165
 20
2.614551181102363
 30
0.0
 10
0.5856338582677165
 20
2.614551181102363
 30
0.0
 10
0.5856338582677165
 20
2.614551181102363
 30
0.0
 10
0.5782874015748032
 20
2.585866141732284
 30
0.0
 10
0.5782874015748032
 20
2.585866141732284
 30
0.0
 10
0.5782874015748032
 20
2.585866141732284
 30
0.0
 10
0.5782874015748032
 20
2.585866141732284
 30
0.0
 10
0.5716496062992126
 20
2.556425196850394
 30
0.0
 10
0.5716496062992126
 20
2.556425196850394
 30
0.0
 10
0.5716496062992126
 20
2.556425196850394
 30
0.0
 10
0.5716496062992126
 20
2.556425196850394
 30
0.0
 10
0.5656732283464567
 20
2.526220472440945
 30
0.0
 10
0.5656732283464567
 20
2.526220472440945
 30
0.0
 10
0.5656732283464567
 20
2.526220472440945
 30
0.0
 10
0.5656732283464567
 20
2.526220472440945
 30
0.0
 10
0.5603346456692914
 20
2.495263779527559
 30
0.0
 10
0.5603346456692914
 20
2.495263779527559
 30
0.0
 10
0.5603346456692914
 20
2.495263779527559
 30
0.0
 10
0.5603346456692914
 20
2.495263779527559
 30
0.0
 10
0.5555866141732284
 20
2.46355905511811
 30
0.0
 10
0.5555866141732284
 20
2.46355905511811
 30
0.0
 10
0.5555866141732284
 20
2.46355905511811
 30
0.0
 10
0.5555866141732284
 20
2.46355905511811
 30
0.0
 10
0.5514133858267717
 20
2.431125984251969
 30
0.0
 10
0.5514133858267717
 20
2.431125984251969
 30
0.0
 10
0.5514133858267717
 20
2.431125984251969
 30
0.0
 10
0.5514133858267717
 20
2.431125984251969
 30
0.0
 10
0.5477637795275591
 20
2.397956692913386
 30
0.0
 10
0.5477637795275591
 20
2.397956692913386
 30
0.0
 10
0.5477637795275591
 20
2.397956692913386
 30
0.0
 10
0.5477637795275591
 20
2.397956692913386
 30
0.0
 10
0.5446181102362205
 20
2.364066929133859
 30
0.0
 10
0.5446181102362205
 20
2.364066929133859
 30
0.0
 10
0.5446181102362205
 20
2.364066929133859
 30
0.0
 10
0.5446181102362205
 20
2.364066929133859
 30
0.0
 10
0.5419291338582677
 20
2.32946062992126
 30
0.0
 10
0.5419291338582677
 20
2.32946062992126
 30
0.0
  0
SPLINE
  5
6A
330
1F
100
AcDbEntity
  8
LAYER_1
 62
   253
100
AcDbSpline
210
0.0
220
0.0
230
1.0
 70
    11
 71
     3
 72
    20
 73
    16
 74
     0
 42
0.0000000001
 43
0.0000000001
 40
0.0
 40
0.0
 40
0.0
 40
0.0
 40
0.25
 40
0.25
 40
0.25
 40
0.25
 40
0.5
 40
0.5
 40
0.5
 40
0.5
 40
0.75
 40
0.75
 40
0.75
 40
0.75
 40
1.0
 40
1.0
 40
1.0
 40
1.0
 10
1.025110236220473
 20
3.046354330708661
 30
0.0
 10
1.025110236220473
 20
3.046354330708661
 30
0.0
 10
1.665866141732284
 20
2.675047244094488
 30
0.0
 10
1.665866141732284
 20
2.675047244094488
 30
0.0
 10
1.665866141732284
 20
2.675047244094488
 30
0.0
 10
1.665866141732284
 20
2.675047244094488
 30
0.0
 10
1.665866141732284
 20
3.457685039370079
 30
0.0
 10
1.665866141732284
 20
3.457685039370079
 30
0.0
 10
1.665866141732284
 20
3.457685039370079
 30
0.0
 10
1.665866141732284
 20
3.457685039370079
 30
0.0
 10
1.025110236220473
 20
3.828992125984252
 30
0.0
 10
1.025110236220473
 20
3.828992125984252
 30
0.0
 10
1.025110236220473
 20
3.828992125984252
 30
0.0
 10
1.025110236220473
 20
3.828992125984252
 30
0.0
 10
1.025110236220473
 20
3.046354330708661
 30
0.0
 10
1.025110236220473
 20
3.046354330708661
 30
0.0
  0
SPLINE
  5
6B
330
1F
100
AcDbEntity
  8
LAYER_1
 62
   250
100
AcDbSpline
210
0.0
220
0.0
230
1.0
 70
    11
 71
     3
 72
    20
 73
    16
 74
     0
 42
0.0000000001
 43
0.0000000001
 40
0.0
 40
0.0
 40
0.0
 40
0.0
 40
0.25
 40
0.25
 40
0.25
 40
0.25
 40
0.5
 40
0.5
 40
0.5
 40
0.5
 40
0.75
 40
0.75
 40
0.75
 40
0.75
 40
1.0
 40
1.0
 40
1.0
 40
1.0
 10
1.025110236220473
 20
3.046354330708661
 30
0.0
 10
1.025110236220473
 20
3.046354330708661
 30
0.0
 10
1.665866141732284
 20
2.675047244094488
 30
0.0
 10
1.665866141732284
 20
2.675047244094488
 30
0.0
 10
1.665866141732284
 20
2.675047244094488
 30
0.0
 10
1.665866141732284
 20
2.675047244094488
 30
0.0
 10
1.665866141732284
 20
3.457685039370079
 30
0.0
 10
1.665866141732284
 20
3.457685039370079
 30
0.0
 10
1.665866141732284
 20
3.457685039370079
 30
0.0
 10
1.665866141732284
 20
3.457685039370079
 30
0.0
 10
1.025110236220473
 20
3.828992125984252
 30
0.0
 10
1.025110236220473
 20
3.828992125984252
 30
0.0
 10
1.025110236220473
 20
3.828992125984252
 30
0.0
 10
1.025110236220473
 20
3.828992125984252
 30
0.0
 10
1.025110236220473
 20
3.046354330708661
 30
0.0
 10
1.025110236220473
 20
3.046354330708661
 30
0.0
  0
SPLINE
  5
6C
330
1F
100
AcDbEntity
  8
LAYER_1
 62
   252
100
AcDbSpline
210
0.0
220
0.0
230
1.0
 70
    11
 71
     3
 72
    20
 73
    16
 74
     0
 42
0.0000000001
 43
0.0000000001
 40
0.0
 40
0.0
 40
0.0
 40
0.0
 40
0.25
 40
0.25
 40
0.25
 40
0.25
 40
0.5
 40
0.5
 40
0.5
 40
0.5
 40
0.75
 40
0.75
 40
0.75
 40
0.75
 40
1.0
 40
1.0
 40
1.0
 40
1.0
 10
0.1690393700787402
 20
2.468637795275591
 30
0.0
 10
0.1690393700787402
 20
2.468637795275591
 30
0.0
 10
0.8097952755905512
 20
2.097330708661418
 30
0.0
 10
0.8097952755905512
 20
2.097330708661418
 30
0.0
 10
0.8097952755905512
 20
2.097330708661418
 30
0.0
 10
0.8097952755905512
 20
2.097330708661418
 30
0.0
 10
1.138043307086614
 20
1.958153543307087
 30
0.0
 10
1.138043307086614
 20
1.958153543307087
 30
0.0
 10
1.138043307086614
 20
1.958153543307087
 30
0.0
 10
1.138043307086614
 20
1.958153543307087
 30
0.0
 10
0.4972874015748032
 20
2.32946062992126
 30
0.0
 10
0.4972874015748032
 20
2.32946062992126
 30
0.0
 10
0.4972874015748032
 20
2.32946062992126
 30
0.0
 10
0.4972874015748032
 20
2.32946062992126
 30
0.0
 10
0.1690393700787402
 20
2.468637795275591
 30
0.0
 10
0.1690393700787402
 20
2.468637795275591
 30
0.0
  0
SPLINE
  5
6D
330
1F
100
AcDbEntity
  8
LAYER_1
 62
   250
100
AcDbSpline
210
0.0
220
0.0
230
1.0
 70
    11
 71
     3
 72
    20
 73
    16
 74
     0
 42
0.0000000001
 43
0.0000000001
 40
0.0
 40
0.0
 40
0.0
 40
0.0
 40
0.25
 40
0.25
 40
0.25
 40
0.25
 40
0.5
 40
0.5
 40
0.5
 40
0.5
 40
0.75
 40
0.75
 40
0.75
 40
0.75
 40
1.0
 40
1.0
 40
1.0
 40
1.0
 10
0.1690393700787402
 20
2.468637795275591
 30
0.0
 10
0.1690393700787402
 20
2.468637795275591
 30
0.0
 10
0.8097952755905512
 20
2.097330708661418
 30
0.0
 10
0.8097952755905512
 20
2.097330708661418
 30
0.0
 10
0.8097952755905512
 20
2.097330708661418
 30
0.0
 10
0.8097952755905512
 20
2.097330708661418
 30
0.0
 10
1.138043307086614
 20
1.958153543307087
 30
0.0
 10
1.138043307086614
 20
1.958153543307087
 30
0.0
 10
1.138043307086614
 20
1.958153543307087
 30
0.0
 10
1.138043307086614
 20
1.958153543307087
 30
0.0
 10
0.4972874015748032
 20
2.32946062992126
 30
0.0
 10
0.4972874015748032
 20
2.32946062992126
 30
0.0
 10
0.4972874015748032
 20
2.32946062992126
 30
0.0
 10
0.4972874015748032
 20
2.32946062992126
 30
0.0
 10
0.1690393700787402
 20
2.468637795275591
 30
0.0
 10
0.1690393700787402
 20
2.468637795275591
 30
0.0
  0
SPLINE
  5
6E
330
1F
100
AcDbEntity
  8
LAYER_1
 62
   253
100
AcDbSpline
210
0.0
220
0.0
230
1.0
 70
    11
 71
     3
 72
    20
 73
    16
 74
     0
 42
0.0000000001
 43
0.0000000001
 40
0.0
 40
0.0
 40
0.0
 40
0.0
 40
0.25
 40
0.25
 40
0.25
 40
0.25
 40
0.5
 40
0.5
 40
0.5
 40
0.5
 40
0.75
 40
0.75
 40
0.75
 40
0.75
 40
1.0
 40
1.0
 40
1.0
 40
1.0
 10
0.4972874015748032
 20
2.32946062992126
 30
0.0
 10
0.4972874015748032
 20
2.32946062992126
 30
0.0
 10
1.138043307086614
 20
1.958153543307087
 30
0.0
 10
1.138043307086614
 20
1.958153543307087
 30
0.0
 10
1.138043307086614
 20
1.958153543307087
 30
0.0
 10
1.138043307086614
 20
1.958153543307087
 30
0.0
 10
1.182685039370079
 20
1.958153543307087
 30
0.0
 10
1.182685039370079
 20
1.958153543307087
 30
0.0
 10
1.182685039370079
 20
1.958153543307087
 30
0.0
 10
1.182685039370079
 20
1.958153543307087
 30
0.0
 10
0.5419291338582677
 20
2.32946062992126
 30
0.0
 10
0.5419291338582677
 20
2.32946062992126
 30
0.0
 10
0.5419291338582677
 20
2.32946062992126
 30
0.0
 10
0.5419291338582677
 20
2.32946062992126
 30
0.0
 10
0.4972874015748032
 20
2.32946062992126
 30
0.0
 10
0.4972874015748032
 20
2.32946062992126
 30
0.0
  0
SPLINE
  5
6F
330
1F
100
AcDbEntity
  8
LAYER_1
 62
   250
100
AcDbSpline
210
0.0
220
0.0
230
1.0
 70
    11
 71
     3
 72
    20
 73
    16
 74
     0
 42
0.0000000001
 43
0.0000000001
 40
0.0
 40
0.0
 40
0.0
 40
0.0
 40
0.25
 40
0.25
 40
0.25
 40
0.25
 40
0.5
 40
0.5
 40
0.5
 40
0.5
 40
0.75
 40
0.75
 40
0.75
 40
0.75
 40
1.0
 40
1.0
 40
1.0
 40
1.0
 10
0.4972874015748032
 20
2.32946062992126
 30
0.0
 10
0.4972874015748032
 20
2.32946062992126
 30
0.0
 10
1.138043307086614
 20
1.958153543307087
 30
0.0
 10
1.138043307086614
 20
1.958153543307087
 30
0.0
 10
1.138043307086614
 20
1.958153543307087
 30
0.0
 10
1.138043307086614
 20
1.958153543307087
 30
0.0
 10
1.182685039370079
 20
1.958153543307087
 30
0.0
 10
1.182685039370079
 20
1.958153543307087
 30
0.0
 10
1.182685039370079
 20
1.958153543307087
 30
0.0
 10
1.182685039370079
 20
1.958153543307087
 30
0.0
 10
0.5419291338582677
 20
2.32946062992126
 30
0.0
 10
0.5419291338582677
 20
2.32946062992126
 30
0.0
 10
0.5419291338582677
 20
2.32946062992126
 30
0.0
 10
0.5419291338582677
 20
2.32946062992126
 30
0.0
 10
0.4972874015748032
 20
2.32946062992126
 30
0.0
 10
0.4972874015748032
 20
2.32946062992126
 30
0.0
  0
SPLINE
  5
70
330
1F
100
AcDbEntity
  8
LAYER_1
 62
   253
100
AcDbSpline
210
0.0
220
0.0
230
1.0
 70
    11
 71
     3
 72
    20
 73
    16
 74
     0
 42
0.0000000001
 43
0.0000000001
 40
0.0
 40
0.0
 40
0.0
 40
0.0
 40
0.25
 40
0.25
 40
0.25
 40
0.25
 40
0.5
 40
0.5
 40
0.5
 40
0.5
 40
0.75
 40
0.75
 40
0.75
 40
0.75
 40
1.0
 40
1.0
 40
1.0
 40
1.0
 10
0.5419291338582677
 20
2.32946062992126
 30
0.0
 10
0.5419291338582677
 20
2.32946062992126
 30
0.0
 10
1.182685039370079
 20
1.958153543307087
 30
0.0
 10
1.182685039370079
 20
1.958153543307087
 30
0.0
 10
1.182685039370079
 20
1.958153543307087
 30
0.0
 10
1.182685039370079
 20
1.958153543307087
 30
0.0
 10
1.185374015748032
 20
1.992759842519685
 30
0.0
 10
1.185374015748032
 20
1.992759842519685
 30
0.0
 10
1.185374015748032
 20
1.992759842519685
 30
0.0
 10
1.185374015748032
 20
1.992759842519685
 30
0.0
 10
0.5446181102362205
 20
2.364066929133859
 30
0.0
 10
0.5446181102362205
 20
2.364066929133859
 30
0.0
 10
0.5446181102362205
 20
2.364066929133859
 30
0.0
 10
0.5446181102362205
 20
2.364066929133859
 30
0.0
 10
0.5419291338582677
 20
2.32946062992126
 30
0.0
 10
0.5419291338582677
 20
2.32946062992126
 30
0.0
  0
SPLINE
  5
71
330
1F
100
AcDbEntity
  8
LAYER_1
 62
   253
100
AcDbSpline
210
0.0
220
0.0
230
1.0
 70
    11
 71
     3
 72
    20
 73
    16
 74
     0
 42
0.0000000001
 43
0.0000000001
 40
0.0
 40
0.0
 40
0.0
 40
0.0
 40
0.25
 40
0.25
 40
0.25
 40
0.25
 40
0.5
 40
0.5
 40
0.5
 40
0.5
 40
0.75
 40
0.75
 40
0.75
 40
0.75
 40
1.0
 40
1.0
 40
1.0
 40
1.0
 10
0.5446181102362205
 20
2.364066929133859
 30
0.0
 10
0.5446181102362205
 20
2.364066929133859
 30
0.0
 10
1.185374015748032
 20
1.992759842519685
 30
0.0
 10
1.185374015748032
 20
1.992759842519685
 30
0.0
 10
1.185374015748032
 20
1.992759842519685
 30
0.0
 10
1.185374015748032
 20
1.992759842519685
 30
0.0
 10
1.18851968503937
 20
2.026649606299213
 30
0.0
 10
1.18851968503937
 20
2.026649606299213
 30
0.0
 10
1.18851968503937
 20
2.026649606299213
 30
0.0
 10
1.18851968503937
 20
2.026649606299213
 30
0.0
 10
0.5477637795275591
 20
2.397956692913386
 30
0.0
 10
0.5477637795275591
 20
2.397956692913386
 30
0.0
 10
0.5477637795275591
 20
2.397956692913386
 30
0.0
 10
0.5477637795275591
 20
2.397956692913386
 30
0.0
 10
0.5446181102362205
 20
2.364066929133859
 30
0.0
 10
0.5446181102362205
 20
2.364066929133859
 30
0.0
  0
SPLINE
  5
72
330
1F
100
AcDbEntity
  8
LAYER_1
 62
   253
100
AcDbSpline
210
0.0
220
0.0
230
1.0
 70
    11
 71
     3
 72
    20
 73
    16
 74
     0
 42
0.0000000001
 43
0.0000000001
 40
0.0
 40
0.0
 40
0.0
 40
0.0
 40
0.25
 40
0.25
 40
0.25
 40
0.25
 40
0.5
 40
0.5
 40
0.5
 40
0.5
 40
0.75
 40
0.75
 40
0.75
 40
0.75
 40
1.0
 40
1.0
 40
1.0
 40
1.0
 10
0.5477637795275591
 20
2.397956692913386
 30
0.0
 10
0.5477637795275591
 20
2.397956692913386
 30
0.0
 10
1.18851968503937
 20
2.026649606299213
 30
0.0
 10
1.18851968503937
 20
2.026649606299213
 30
0.0
 10
1.18851968503937
 20
2.026649606299213
 30
0.0
 10
1.18851968503937
 20
2.026649606299213
 30
0.0
 10
1.192169291338583
 20
2.059818897637795
 30
0.0
 10
1.192169291338583
 20
2.059818897637795
 30
0.0
 10
1.192169291338583
 20
2.059818897637795
 30
0.0
 10
1.192169291338583
 20
2.059818897637795
 30
0.0
 10
0.5514133858267717
 20
2.431125984251969
 30
0.0
 10
0.5514133858267717
 20
2.431125984251969
 30
0.0
 10
0.5514133858267717
 20
2.431125984251969
 30
0.0
 10
0.5514133858267717
 20
2.431125984251969
 30
0.0
 10
0.5477637795275591
 20
2.397956692913386
 30
0.0
 10
0.5477637795275591
 20
2.397956692913386
 30
0.0
  0
SPLINE
  5
73
330
1F
100
AcDbEntity
  8
LAYER_1
 62
   253
100
AcDbSpline
210
0.0
220
0.0
230
1.0
 70
    11
 71
     3
 72
    20
 73
    16
 74
     0
 42
0.0000000001
 43
0.0000000001
 40
0.0
 40
0.0
 40
0.0
 40
0.0
 40
0.25
 40
0.25
 40
0.25
 40
0.25
 40
0.5
 40
0.5
 40
0.5
 40
0.5
 40
0.75
 40
0.75
 40
0.75
 40
0.75
 40
1.0
 40
1.0
 40
1.0
 40
1.0
 10
0.5514133858267717
 20
2.431125984251969
 30
0.0
 10
0.5514133858267717
 20
2.431125984251969
 30
0.0
 10
1.192169291338583
 20
2.059818897637795
 30
0.0
 10
1.192169291338583
 20
2.059818897637795
 30
0.0
 10
1.192169291338583
 20
2.059818897637795
 30
0.0
 10
1.192169291338583
 20
2.059818897637795
 30
0.0
 10
1.19634251968504
 20
2.092251968503937
 30
0.0
 10
1.19634251968504
 20
2.092251968503937
 30
0.0
 10
1.19634251968504
 20
2.092251968503937
 30
0.0
 10
1.19634251968504
 20
2.092251968503937
 30
0.0
 10
0.5555866141732284
 20
2.46355905511811
 30
0.0
 10
0.5555866141732284
 20
2.46355905511811
 30
0.0
 10
0.5555866141732284
 20
2.46355905511811
 30
0.0
 10
0.5555866141732284
 20
2.46355905511811
 30
0.0
 10
0.5514133858267717
 20
2.431125984251969
 30
0.0
 10
0.5514133858267717
 20
2.431125984251969
 30
0.0
  0
SPLINE
  5
74
330
1F
100
AcDbEntity
  8
LAYER_1
 62
   253
100
AcDbSpline
210
0.0
220
0.0
230
1.0
 70
    11
 71
     3
 72
    20
 73
    16
 74
     0
 42
0.0000000001
 43
0.0000000001
 40
0.0
 40
0.0
 40
0.0
 40
0.0
 40
0.25
 40
0.25
 40
0.25
 40
0.25
 40
0.5
 40
0.5
 40
0.5
 40
0.5
 40
0.75
 40
0.75
 40
0.75
 40
0.75
 40
1.0
 40
1.0
 40
1.0
 40
1.0
 10
0.5555866141732284
 20
2.46355905511811
 30
0.0
 10
0.5555866141732284
 20
2.46355905511811
 30
0.0
 10
1.19634251968504
 20
2.092251968503937
 30
0.0
 10
1.19634251968504
 20
2.092251968503937
 30
0.0
 10
1.19634251968504
 20
2.092251968503937
 30
0.0
 10
1.19634251968504
 20
2.092251968503937
 30
0.0
 10
1.201090551181102
 20
2.123956692913386
 30
0.0
 10
1.201090551181102
 20
2.123956692913386
 30
0.0
 10
1.201090551181102
 20
2.123956692913386
 30
0.0
 10
1.201090551181102
 20
2.123956692913386
 30
0.0
 10
0.5603346456692914
 20
2.495263779527559
 30
0.0
 10
0.5603346456692914
 20
2.495263779527559
 30
0.0
 10
0.5603346456692914
 20
2.495263779527559
 30
0.0
 10
0.5603346456692914
 20
2.495263779527559
 30
0.0
 10
0.5555866141732284
 20
2.46355905511811
 30
0.0
 10
0.5555866141732284
 20
2.46355905511811
 30
0.0
  0
SPLINE
  5
75
330
1F
100
AcDbEntity
  8
LAYER_1
 62
   253
100
AcDbSpline
210
0.0
220
0.0
230
1.0
 70
    11
 71
     3
 72
    20
 73
    16
 74
     0
 42
0.0000000001
 43
0.0000000001
 40
0.0
 40
0.0
 40
0.0
 40
0.0
 40
0.25
 40
0.25
 40
0.25
 40
0.25
 40
0.5
 40
0.5
 40
0.5
 40
0.5
 40
0.75
 40
0.75
 40
0.75
 40
0.75
 40
1.0
 40
1.0
 40
1.0
 40
1.0
 10
0.5603346456692914
 20
2.495263779527559
 30
0.0
 10
0.5603346456692914
 20
2.495263779527559
 30
0.0
 10
1.201090551181102
 20
2.123956692913386
 30
0.0
 10
1.201090551181102
 20
2.123956692913386
 30
0.0
 10
1.201090551181102
 20
2.123956692913386
 30
0.0
 10
1.201090551181102
 20
2.123956692913386
 30
0.0
 10
1.206429133858268
 20
2.154913385826772
 30
0.0
 10
1.206429133858268
 20
2.154913385826772
 30
0.0
 10
1.206429133858268
 20
2.154913385826772
 30
0.0
 10
1.206429133858268
 20
2.154913385826772
 30
0.0
 10
0.5656732283464567
 20
2.526220472440945
 30
0.0
 10
0.5656732283464567
 20
2.526220472440945
 30
0.0
 10
0.5656732283464567
 20
2.526220472440945
 30
0.0
 10
0.5656732283464567
 20
2.526220472440945
 30
0.0
 10
0.5603346456692914
 20
2.495263779527559
 30
0.0
 10
0.5603346456692914
 20
2.495263779527559
 30
0.0
  0
SPLINE
  5
76
330
1F
100
AcDbEntity
  8
LAYER_1
 62
   253
100
AcDbSpline
210
0.0
220
0.0
230
1.0
 70
    11
 71
     3
 72
    20
 73
    16
 74
     0
 42
0.0000000001
 43
0.0000000001
 40
0.0
 40
0.0
 40
0.0
 40
0.0
 40
0.25
 40
0.25
 40
0.25
 40
0.25
 40
0.5
 40
0.5
 40
0.5
 40
0.5
 40
0.75
 40
0.75
 40
0.75
 40
0.75
 40
1.0
 40
1.0
 40
1.0
 40
1.0
 10
0.5656732283464567
 20
2.526220472440945
 30
0.0
 10
0.5656732283464567
 20
2.526220472440945
 30
0.0
 10
1.206429133858268
 20
2.154913385826772
 30
0.0
 10
1.206429133858268
 20
2.154913385826772
 30
0.0
 10
1.206429133858268
 20
2.154913385826772
 30
0.0
 10
1.206429133858268
 20
2.154913385826772
 30
0.0
 10
1.212405511811024
 20
2.185118110236221
 30
0.0
 10
1.212405511811024
 20
2.185118110236221
 30
0.0
 10
1.212405511811024
 20
2.185118110236221
 30
0.0
 10
1.212405511811024
 20
2.185118110236221
 30
0.0
 10
0.5716496062992126
 20
2.556425196850394
 30
0.0
 10
0.5716496062992126
 20
2.556425196850394
 30
0.0
 10
0.5716496062992126
 20
2.556425196850394
 30
0.0
 10
0.5716496062992126
 20
2.556425196850394
 30
0.0
 10
0.5656732283464567
 20
2.526220472440945
 30
0.0
 10
0.5656732283464567
 20
2.526220472440945
 30
0.0
  0
SPLINE
  5
77
330
1F
100
AcDbEntity
  8
LAYER_1
 62
   253
100
AcDbSpline
210
0.0
220
0.0
230
1.0
 70
    11
 71
     3
 72
    20
 73
    16
 74
     0
 42
0.0000000001
 43
0.0000000001
 40
0.0
 40
0.0
 40
0.0
 40
0.0
 40
0.25
 40
0.25
 40
0.25
 40
0.25
 40
0.5
 40
0.5
 40
0.5
 40
0.5
 40
0.75
 40
0.75
 40
0.75
 40
0.75
 40
1.0
 40
1.0
 40
1.0
 40
1.0
 10
0.5716496062992126
 20
2.556425196850394
 30
0.0
 10
0.5716496062992126
 20
2.556425196850394
 30
0.0
 10
1.212405511811024
 20
2.185118110236221
 30
0.0
 10
1.212405511811024
 20
2.185118110236221
 30
0.0
 10
1.212405511811024
 20
2.185118110236221
 30
0.0
 10
1.212405511811024
 20
2.185118110236221
 30
0.0
 10
1.219043307086614
 20
2.214559055118111
 30
0.0
 10
1.219043307086614
 20
2.214559055118111
 30
0.0
 10
1.219043307086614
 20
2.214559055118111
 30
0.0
 10
1.219043307086614
 20
2.214559055118111
 30
0.0
 10
0.5782874015748032
 20
2.585866141732284
 30
0.0
 10
0.5782874015748032
 20
2.585866141732284
 30
0.0
 10
0.5782874015748032
 20
2.585866141732284
 30
0.0
 10
0.5782874015748032
 20
2.585866141732284
 30
0.0
 10
0.5716496062992126
 20
2.556425196850394
 30
0.0
 10
0.5716496062992126
 20
2.556425196850394
 30
0.0
  0
SPLINE
  5
78
330
1F
100
AcDbEntity
  8
LAYER_1
 62
   253
100
AcDbSpline
210
0.0
220
0.0
230
1.0
 70
    11
 71
     3
 72
    20
 73
    16
 74
     0
 42
0.0000000001
 43
0.0000000001
 40
0.0
 40
0.0
 40
0.0
 40
0.0
 40
0.25
 40
0.25
 40
0.25
 40
0.25
 40
0.5
 40
0.5
 40
0.5
 40
0.5
 40
0.75
 40
0.75
 40
0.75
 40
0.75
 40
1.0
 40
1.0
 40
1.0
 40
1.0
 10
0.5782874015748032
 20
2.585866141732284
 30
0.0
 10
0.5782874015748032
 20
2.585866141732284
 30
0.0
 10
1.219043307086614
 20
2.214559055118111
 30
0.0
 10
1.219043307086614
 20
2.214559055118111
 30
0.0
 10
1.219043307086614
 20
2.214559055118111
 30
0.0
 10
1.219043307086614
 20
2.214559055118111
 30
0.0
 10
1.226389763779528
 20
2.243244094488189
 30
0.0
 10
1.226389763779528
 20
2.243244094488189
 30
0.0
 10
1.226389763779528
 20
2.243244094488189
 30
0.0
 10
1.226389763779528
 20
2.243244094488189
 30
0.0
 10
0.5856338582677165
 20
2.614551181102363
 30
0.0
 10
0.5856338582677165
 20
2.614551181102363
 30
0.0
 10
0.5856338582677165
 20
2.614551181102363
 30
0.0
 10
0.5856338582677165
 20
2.614551181102363
 30
0.0
 10
0.5782874015748032
 20
2.585866141732284
 30
0.0
 10
0.5782874015748032
 20
2.585866141732284
 30
0.0
  0
SPLINE
  5
79
330
1F
100
AcDbEntity
  8
LAYER_1
 62
   253
100
AcDbSpline
210
0.0
220
0.0
230
1.0
 70
    11
 71
     3
 72
    20
 73
    16
 74
     0
 42
0.0000000001
 43
0.0000000001
 40
0.0
 40
0.0
 40
0.0
 40
0.0
 40
0.25
 40
0.25
 40
0.25
 40
0.25
 40
0.5
 40
0.5
 40
0.5
 40
0.5
 40
0.75
 40
0.75
 40
0.75
 40
0.75
 40
1.0
 40
1.0
 40
1.0
 40
1.0
 10
0.5856338582677165
 20
2.614551181102363
 30
0.0
 10
0.5856338582677165
 20
2.614551181102363
 30
0.0
 10
1.226389763779528
 20
2.243244094488189
 30
0.0
 10
1.226389763779528
 20
2.243244094488189
 30
0.0
 10
1.226389763779528
 20
2.243244094488189
 30
0.0
 10
1.226389763779528
 20
2.243244094488189
 30
0.0
 10
1.234464566929134
 20
2.271153543307087
 30
0.0
 10
1.234464566929134
 20
2.271153543307087
 30
0.0
 10
1.234464566929134
 20
2.271153543307087
 30
0.0
 10
1.234464566929134
 20
2.271153543307087
 30
0.0
 10
0.5937086614173228
 20
2.64246062992126
 30
0.0
 10
0.5937086614173228
 20
2.64246062992126
 30
0.0
 10
0.5937086614173228
 20
2.64246062992126
 30
0.0
 10
0.5937086614173228
 20
2.64246062992126
 30
0.0
 10
0.5856338582677165
 20
2.614551181102363
 30
0.0
 10
0.5856338582677165
 20
2.614551181102363
 30
0.0
  0
SPLINE
  5
7A
330
1F
100
AcDbEntity
  8
LAYER_1
 62
   253
100
AcDbSpline
210
0.0
220
0.0
230
1.0
 70
    11
 71
     3
 72
    20
 73
    16
 74
     0
 42
0.0000000001
 43
0.0000000001
 40
0.0
 40
0.0
 40
0.0
 40
0.0
 40
0.25
 40
0.25
 40
0.25
 40
0.25
 40
0.5
 40
0.5
 40
0.5
 40
0.5
 40
0.75
 40
0.75
 40
0.75
 40
0.75
 40
1.0
 40
1.0
 40
1.0
 40
1.0
 10
0.5937086614173228
 20
2.64246062992126
 30
0.0
 10
0.5937086614173228
 20
2.64246062992126
 30
0.0
 10
1.234464566929134
 20
2.271153543307087
 30
0.0
 10
1.234464566929134
 20
2.271153543307087
 30
0.0
 10
1.234464566929134
 20
2.271153543307087
 30
0.0
 10
1.234464566929134
 20
2.271153543307087
 30
0.0
 10
1.243307086614173
 20
2.298283464566929
 30
0.0
 10
1.243307086614173
 20
2.298283464566929
 30
0.0
 10
1.243307086614173
 20
2.298283464566929
 30
0.0
 10
1.243307086614173
 20
2.298283464566929
 30
0.0
 10
0.6025511811023623
 20
2.669590551181102
 30
0.0
 10
0.6025511811023623
 20
2.669590551181102
 30
0.0
 10
0.6025511811023623
 20
2.669590551181102
 30
0.0
 10
0.6025511811023623
 20
2.669590551181102
 30
0.0
 10
0.5937086614173228
 20
2.64246062992126
 30
0.0
 10
0.5937086614173228
 20
2.64246062992126
 30
0.0
  0
SPLINE
  5
7B
330
1F
100
AcDbEntity
  8
LAYER_1
 62
   253
100
AcDbSpline
210
0.0
220
0.0
230
1.0
 70
    11
 71
     3
 72
    20
 73
    16
 74
     0
 42
0.0000000001
 43
0.0000000001
 40
0.0
 40
0.0
 40
0.0
 40
0.0
 40
0.25
 40
0.25
 40
0.25
 40
0.25
 40
0.5
 40
0.5
 40
0.5
 40
0.5
 40
0.75
 40
0.75
 40
0.75
 40
0.75
 40
1.0
 40
1.0
 40
1.0
 40
1.0
 10
0.6025511811023623
 20
2.669590551181102
 30
0.0
 10
0.6025511811023623
 20
2.669590551181102
 30
0.0
 10
1.243307086614173
 20
2.298283464566929
 30
0.0
 10
1.243307086614173
 20
2.298283464566929
 30
0.0
 10
1.243307086614173
 20
2.298283464566929
 30
0.0
 10
1.243307086614173
 20
2.298283464566929
 30
0.0
 10
1.252944881889764
 20
2.324622047244095
 30
0.0
 10
1.252944881889764
 20
2.324622047244095
 30
0.0
 10
1.252944881889764
 20
2.324622047244095
 30
0.0
 10
1.252944881889764
 20
2.324622047244095
 30
0.0
 10
0.6121889763779528
 20
2.695929133858268
 30
0.0
 10
0.6121889763779528
 20
2.695929133858268
 30
0.0
 10
0.6121889763779528
 20
2.695929133858268
 30
0.0
 10
0.6121889763779528
 20
2.695929133858268
 30
0.0
 10
0.6025511811023623
 20
2.669590551181102
 30
0.0
 10
0.6025511811023623
 20
2.669590551181102
 30
0.0
  0
SPLINE
  5
7C
330
1F
100
AcDbEntity
  8
LAYER_1
 62
   253
100
AcDbSpline
210
0.0
220
0.0
230
1.0
 70
    11
 71
     3
 72
    20
 73
    16
 74
     0
 42
0.0000000001
 43
0.0000000001
 40
0.0
 40
0.0
 40
0.0
 40
0.0
 40
0.25
 40
0.25
 40
0.25
 40
0.25
 40
0.5
 40
0.5
 40
0.5
 40
0.5
 40
0.75
 40
0.75
 40
0.75
 40
0.75
 40
1.0
 40
1.0
 40
1.0
 40
1.0
 10
0.6121889763779528
 20
2.695929133858268
 30
0.0
 10
0.6121889763779528
 20
2.695929133858268
 30
0.0
 10
1.252944881889764
 20
2.324622047244095
 30
0.0
 10
1.252944881889764
 20
2.324622047244095
 30
0.0
 10
1.252944881889764
 20
2.324622047244095
 30
0.0
 10
1.252944881889764
 20
2.324622047244095
 30
0.0
 10
1.263429133858268
 20
2.350173228346457
 30
0.0
 10
1.263429133858268
 20
2.350173228346457
 30
0.0
 10
1.263429133858268
 20
2.350173228346457
 30
0.0
 10
1.263429133858268
 20
2.350173228346457
 30
0.0
 10
0.6226732283464567
 20
2.72148031496063
 30
0.0
 10
0.6226732283464567
 20
2.72148031496063
 30
0.0
 10
0.6226732283464567
 20
2.72148031496063
 30
0.0
 10
0.6226732283464567
 20
2.72148031496063
 30
0.0
 10
0.6121889763779528
 20
2.695929133858268
 30
0.0
 10
0.6121889763779528
 20
2.695929133858268
 30
0.0
  0
SPLINE
  5
7D
330
1F
100
AcDbEntity
  8
LAYER_1
 62
   253
100
AcDbSpline
210
0.0
220
0.0
230
1.0
 70
    11
 71
     3
 72
    20
 73
    16
 74
     0
 42
0.0000000001
 43
0.0000000001
 40
0.0
 40
0.0
 40
0.0
 40
0.0
 40
0.25
 40
0.25
 40
0.25
 40
0.25
 40
0.5
 40
0.5
 40
0.5
 40
0.5
 40
0.75
 40
0.75
 40
0.75
 40
0.75
 40
1.0
 40
1.0
 40
1.0
 40
1.0
 10
0.6226732283464567
 20
2.72148031496063
 30
0.0
 10
0.6226732283464567
 20
2.72148031496063
 30
0.0
 10
1.263429133858268
 20
2.350173228346457
 30
0.0
 10
1.263429133858268
 20
2.350173228346457
 30
0.0
 10
1.263429133858268
 20
2.350173228346457
 30
0.0
 10
1.263429133858268
 20
2.350173228346457
 30
0.0
 10
1.274771653543307
 20
2.374917322834646
 30
0.0
 10
1.274771653543307
 20
2.374917322834646
 30
0.0
 10
1.274771653543307
 20
2.374917322834646
 30
0.0
 10
1.274771653543307
 20
2.374917322834646
 30
0.0
 10
0.6340157480314961
 20
2.746224409448819
 30
0.0
 10
0.6340157480314961
 20
2.746224409448819
 30
0.0
 10
0.6340157480314961
 20
2.746224409448819
 30
0.0
 10
0.6340157480314961
 20
2.746224409448819
 30
0.0
 10
0.6226732283464567
 20
2.72148031496063
 30
0.0
 10
0.6226732283464567
 20
2.72148031496063
 30
0.0
  0
SPLINE
  5
7E
330
1F
100
AcDbEntity
  8
LAYER_1
 62
   253
100
AcDbSpline
210
0.0
220
0.0
230
1.0
 70
    11
 71
     3
 72
    20
 73
    16
 74
     0
 42
0.0000000001
 43
0.0000000001
 40
0.0
 40
0.0
 40
0.0
 40
0.0
 40
0.25
 40
0.25
 40
0.25
 40
0.25
 40
0.5
 40
0.5
 40
0.5
 40
0.5
 40
0.75
 40
0.75
 40
0.75
 40
0.75
 40
1.0
 40
1.0
 40
1.0
 40
1.0
 10
0.6340157480314961
 20
2.746224409448819
 30
0.0
 10
0.6340157480314961
 20
2.746224409448819
 30
0.0
 10
1.274771653543307
 20
2.374917322834646
 30
0.0
 10
1.274771653543307
 20
2.374917322834646
 30
0.0
 10
1.274771653543307
 20
2.374917322834646
 30
0.0
 10
1.274771653543307
 20
2.374917322834646
 30
0.0
 10
1.287023622047244
 20
2.398858267716535
 30
0.0
 10
1.287023622047244
 20
2.398858267716535
 30
0.0
 10
1.287023622047244
 20
2.398858267716535
 30
0.0
 10
1.287023622047244
 20
2.398858267716535
 30
0.0
 10
0.6462677165354331
 20
2.770165354330709
 30
0.0
 10
0.6462677165354331
 20
2.770165354330709
 30
0.0
 10
0.6462677165354331
 20
2.770165354330709
 30
0.0
 10
0.6462677165354331
 20
2.770165354330709
 30
0.0
 10
0.6340157480314961
 20
2.746224409448819
 30
0.0
 10
0.6340157480314961
 20
2.746224409448819
 30
0.0
  0
SPLINE
  5
7F
330
1F
100
AcDbEntity
  8
LAYER_1
 62
   253
100
AcDbSpline
210
0.0
220
0.0
230
1.0
 70
    11
 71
     3
 72
    20
 73
    16
 74
     0
 42
0.0000000001
 43
0.0000000001
 40
0.0
 40
0.0
 40
0.0
 40
0.0
 40
0.25
 40
0.25
 40
0.25
 40
0.25
 40
0.5
 40
0.5
 40
0.5
 40
0.5
 40
0.75
 40
0.75
 40
0.75
 40
0.75
 40
1.0
 40
1.0
 40
1.0
 40
1.0
 10
0.6462677165354331
 20
2.770165354330709
 30
0.0
 10
0.6462677165354331
 20
2.770165354330709
 30
0.0
 10
1.287023622047244
 20
2.398858267716535
 30
0.0
 10
1.287023622047244
 20
2.398858267716535
 30
0.0
 10
1.287023622047244
 20
2.398858267716535
 30
0.0
 10
1.287023622047244
 20
2.398858267716535
 30
0.0
 10
1.300200787401575
 20
2.421972440944882
 30
0.0
 10
1.300200787401575
 20
2.421972440944882
 30
0.0
 10
1.300200787401575
 20
2.421972440944882
 30
0.0
 10
1.300200787401575
 20
2.421972440944882
 30
0.0
 10
0.6594448818897638
 20
2.793279527559055
 30
0.0
 10
0.6594448818897638
 20
2.793279527559055
 30
0.0
 10
0.6594448818897638
 20
2.793279527559055
 30
0.0
 10
0.6594448818897638
 20
2.793279527559055
 30
0.0
 10
0.6462677165354331
 20
2.770165354330709
 30
0.0
 10
0.6462677165354331
 20
2.770165354330709
 30
0.0
  0
SPLINE
  5
80
330
1F
100
AcDbEntity
  8
LAYER_1
 62
   253
100
AcDbSpline
210
0.0
220
0.0
230
1.0
 70
    11
 71
     3
 72
    20
 73
    16
 74
     0
 42
0.0000000001
 43
0.0000000001
 40
0.0
 40
0.0
 40
0.0
 40
0.0
 40
0.25
 40
0.25
 40
0.25
 40
0.25
 40
0.5
 40
0.5
 40
0.5
 40
0.5
 40
0.75
 40
0.75
 40
0.75
 40
0.75
 40
1.0
 40
1.0
 40
1.0
 40
1.0
 10
0.6594448818897638
 20
2.793279527559055
 30
0.0
 10
0.6594448818897638
 20
2.793279527559055
 30
0.0
 10
1.300200787401575
 20
2.421972440944882
 30
0.0
 10
1.300200787401575
 20
2.421972440944882
 30
0.0
 10
1.300200787401575
 20
2.421972440944882
 30
0.0
 10
1.300200787401575
 20
2.421972440944882
 30
0.0
 10
1.314358267716536
 20
2.444275590551181
 30
0.0
 10
1.314358267716536
 20
2.444275590551181
 30
0.0
 10
1.314358267716536
 20
2.444275590551181
 30
0.0
 10
1.314358267716536
 20
2.444275590551181
 30
0.0
 10
0.6736023622047245
 20
2.815582677165355
 30
0.0
 10
0.6736023622047245
 20
2.815582677165355
 30
0.0
 10
0.6736023622047245
 20
2.815582677165355
 30
0.0
 10
0.6736023622047245
 20
2.815582677165355
 30
0.0
 10
0.6594448818897638
 20
2.793279527559055
 30
0.0
 10
0.6594448818897638
 20
2.793279527559055
 30
0.0
  0
SPLINE
  5
81
330
1F
100
AcDbEntity
  8
LAYER_1
 62
   253
100
AcDbSpline
210
0.0
220
0.0
230
1.0
 70
    11
 71
     3
 72
    20
 73
    16
 74
     0
 42
0.0000000001
 43
0.0000000001
 40
0.0
 40
0.0
 40
0.0
 40
0.0
 40
0.25
 40
0.25
 40
0.25
 40
0.25
 40
0.5
 40
0.5
 40
0.5
 40
0.5
 40
0.75
 40
0.75
 40
0.75
 40
0.75
 40
1.0
 40
1.0
 40
1.0
 40
1.0
 10
0.6736023622047245
 20
2.815582677165355
 30
0.0
 10
0.6736023622047245
 20
2.815582677165355
 30
0.0
 10
1.314358267716536
 20
2.444275590551181
 30
0.0
 10
1.314358267716536
 20
2.444275590551181
 30
0.0
 10
1.314358267716536
 20
2.444275590551181
 30
0.0
 10
1.314358267716536
 20
2.444275590551181
 30
0.0
 10
1.329515748031496
 20
2.465744094488189
 30
0.0
 10
1.329515748031496
 20
2.465744094488189
 30
0.0
 10
1.329515748031496
 20
2.465744094488189
 30
0.0
 10
1.329515748031496
 20
2.465744094488189
 30
0.0
 10
0.688759842519685
 20
2.837051181102362
 30
0.0
 10
0.688759842519685
 20
2.837051181102362
 30
0.0
 10
0.688759842519685
 20
2.837051181102362
 30
0.0
 10
0.688759842519685
 20
2.837051181102362
 30
0.0
 10
0.6736023622047245
 20
2.815582677165355
 30
0.0
 10
0.6736023622047245
 20
2.815582677165355
 30
0.0
  0
SPLINE
  5
82
330
1F
100
AcDbEntity
  8
LAYER_1
 62
   253
100
AcDbSpline
210
0.0
220
0.0
230
1.0
 70
    11
 71
     3
 72
    20
 73
    16
 74
     0
 42
0.0000000001
 43
0.0000000001
 40
0.0
 40
0.0
 40
0.0
 40
0.0
 40
0.25
 40
0.25
 40
0.25
 40
0.25
 40
0.5
 40
0.5
 40
0.5
 40
0.5
 40
0.75
 40
0.75
 40
0.75
 40
0.75
 40
1.0
 40
1.0
 40
1.0
 40
1.0
 10
0.688759842519685
 20
2.837051181102362
 30
0.0
 10
0.688759842519685
 20
2.837051181102362
 30
0.0
 10
1.329515748031496
 20
2.465744094488189
 30
0.0
 10
1.329515748031496
 20
2.465744094488189
 30
0.0
 10
1.329515748031496
 20
2.465744094488189
 30
0.0
 10
1.329515748031496
 20
2.465744094488189
 30
0.0
 10
1.345712598425197
 20
2.486374015748031
 30
0.0
 10
1.345712598425197
 20
2.486374015748031
 30
0.0
 10
1.345712598425197
 20
2.486374015748031
 30
0.0
 10
1.345712598425197
 20
2.486374015748031
 30
0.0
 10
0.7049566929133858
 20
2.857681102362205
 30
0.0
 10
0.7049566929133858
 20
2.857681102362205
 30
0.0
 10
0.7049566929133858
 20
2.857681102362205
 30
0.0
 10
0.7049566929133858
 20
2.857681102362205
 30
0.0
 10
0.688759842519685
 20
2.837051181102362
 30
0.0
 10
0.688759842519685
 20
2.837051181102362
 30
0.0
  0
SPLINE
  5
83
330
1F
100
AcDbEntity
  8
LAYER_1
 62
   253
100
AcDbSpline
210
0.0
220
0.0
230
1.0
 70
    11
 71
     3
 72
    20
 73
    16
 74
     0
 42
0.0000000001
 43
0.0000000001
 40
0.0
 40
0.0
 40
0.0
 40
0.0
 40
0.25
 40
0.25
 40
0.25
 40
0.25
 40
0.5
 40
0.5
 40
0.5
 40
0.5
 40
0.75
 40
0.75
 40
0.75
 40
0.75
 40
1.0
 40
1.0
 40
1.0
 40
1.0
 10
0.7049566929133858
 20
2.857681102362205
 30
0.0
 10
0.7049566929133858
 20
2.857681102362205
 30
0.0
 10
1.345712598425197
 20
2.486374015748031
 30
0.0
 10
1.345712598425197
 20
2.486374015748031
 30
0.0
 10
1.345712598425197
 20
2.486374015748031
 30
0.0
 10
1.345712598425197
 20
2.486374015748031
 30
0.0
 10
1.362972440944882
 20
2.506157480314961
 30
0.0
 10
1.362972440944882
 20
2.506157480314961
 30
0.0
 10
1.362972440944882
 20
2.506157480314961
 30
0.0
 10
1.362972440944882
 20
2.506157480314961
 30
0.0
 10
0.7222165354330709
 20
2.877464566929134
 30
0.0
 10
0.7222165354330709
 20
2.877464566929134
 30
0.0
 10
0.7222165354330709
 20
2.877464566929134
 30
0.0
 10
0.7222165354330709
 20
2.877464566929134
 30
0.0
 10
0.7049566929133858
 20
2.857681102362205
 30
0.0
 10
0.7049566929133858
 20
2.857681102362205
 30
0.0
  0
SPLINE
  5
84
330
1F
100
AcDbEntity
  8
LAYER_1
 62
   253
100
AcDbSpline
210
0.0
220
0.0
230
1.0
 70
    11
 71
     3
 72
    20
 73
    16
 74
     0
 42
0.0000000001
 43
0.0000000001
 40
0.0
 40
0.0
 40
0.0
 40
0.0
 40
0.25
 40
0.25
 40
0.25
 40
0.25
 40
0.5
 40
0.5
 40
0.5
 40
0.5
 40
0.75
 40
0.75
 40
0.75
 40
0.75
 40
1.0
 40
1.0
 40
1.0
 40
1.0
 10
0.7222165354330709
 20
2.877464566929134
 30
0.0
 10
0.7222165354330709
 20
2.877464566929134
 30
0.0
 10
1.362972440944882
 20
2.506157480314961
 30
0.0
 10
1.362972440944882
 20
2.506157480314961
 30
0.0
 10
1.362972440944882
 20
2.506157480314961
 30
0.0
 10
1.362972440944882
 20
2.506157480314961
 30
0.0
 10
1.38134251968504
 20
2.525090551181103
 30
0.0
 10
1.38134251968504
 20
2.525090551181103
 30
0.0
 10
1.38134251968504
 20
2.525090551181103
 30
0.0
 10
1.38134251968504
 20
2.525090551181103
 30
0.0
 10
0.7405866141732284
 20
2.896397637795276
 30
0.0
 10
0.7405866141732284
 20
2.896397637795276
 30
0.0
 10
0.7405866141732284
 20
2.896397637795276
 30
0.0
 10
0.7405866141732284
 20
2.896397637795276
 30
0.0
 10
0.7222165354330709
 20
2.877464566929134
 30
0.0
 10
0.7222165354330709
 20
2.877464566929134
 30
0.0
  0
SPLINE
  5
85
330
1F
100
AcDbEntity
  8
LAYER_1
 62
   253
100
AcDbSpline
210
0.0
220
0.0
230
1.0
 70
    11
 71
     3
 72
    20
 73
    16
 74
     0
 42
0.0000000001
 43
0.0000000001
 40
0.0
 40
0.0
 40
0.0
 40
0.0
 40
0.25
 40
0.25
 40
0.25
 40
0.25
 40
0.5
 40
0.5
 40
0.5
 40
0.5
 40
0.75
 40
0.75
 40
0.75
 40
0.75
 40
1.0
 40
1.0
 40
1.0
 40
1.0
 10
0.7405866141732284
 20
2.896397637795276
 30
0.0
 10
0.7405866141732284
 20
2.896397637795276
 30
0.0
 10
1.38134251968504
 20
2.525090551181103
 30
0.0
 10
1.38134251968504
 20
2.525090551181103
 30
0.0
 10
1.38134251968504
 20
2.525090551181103
 30
0.0
 10
1.38134251968504
 20
2.525090551181103
 30
0.0
 10
1.400846456692914
 20
2.543165354330709
 30
0.0
 10
1.400846456692914
 20
2.543165354330709
 30
0.0
 10
1.400846456692914
 20
2.543165354330709
 30
0.0
 10
1.400846456692914
 20
2.543165354330709
 30
0.0
 10
0.7600905511811024
 20
2.914472440944882
 30
0.0
 10
0.7600905511811024
 20
2.914472440944882
 30
0.0
 10
0.7600905511811024
 20
2.914472440944882
 30
0.0
 10
0.7600905511811024
 20
2.914472440944882
 30
0.0
 10
0.7405866141732284
 20
2.896397637795276
 30
0.0
 10
0.7405866141732284
 20
2.896397637795276
 30
0.0
  0
SPLINE
  5
86
330
1F
100
AcDbEntity
  8
LAYER_1
 62
   253
100
AcDbSpline
210
0.0
220
0.0
230
1.0
 70
    11
 71
     3
 72
    20
 73
    16
 74
     0
 42
0.0000000001
 43
0.0000000001
 40
0.0
 40
0.0
 40
0.0
 40
0.0
 40
0.25
 40
0.25
 40
0.25
 40
0.25
 40
0.5
 40
0.5
 40
0.5
 40
0.5
 40
0.75
 40
0.75
 40
0.75
 40
0.75
 40
1.0
 40
1.0
 40
1.0
 40
1.0
 10
0.7600905511811024
 20
2.914472440944882
 30
0.0
 10
0.7600905511811024
 20
2.914472440944882
 30
0.0
 10
1.400846456692914
 20
2.543165354330709
 30
0.0
 10
1.400846456692914
 20
2.543165354330709
 30
0.0
 10
1.400846456692914
 20
2.543165354330709
 30
0.0
 10
1.400846456692914
 20
2.543165354330709
 30
0.0
 10
1.421523622047244
 20
2.560374015748032
 30
0.0
 10
1.421523622047244
 20
2.560374015748032
 30
0.0
 10
1.421523622047244
 20
2.560374015748032
 30
0.0
 10
1.421523622047244
 20
2.560374015748032
 30
0.0
 10
0.7807677165354331
 20
2.931681102362205
 30
0.0
 10
0.7807677165354331
 20
2.931681102362205
 30
0.0
 10
0.7807677165354331
 20
2.931681102362205
 30
0.0
 10
0.7807677165354331
 20
2.931681102362205
 30
0.0
 10
0.7600905511811024
 20
2.914472440944882
 30
0.0
 10
0.7600905511811024
 20
2.914472440944882
 30
0.0
  0
SPLINE
  5
87
330
1F
100
AcDbEntity
  8
LAYER_1
 62
   253
100
AcDbSpline
210
0.0
220
0.0
230
1.0
 70
    11
 71
     3
 72
    20
 73
    16
 74
     0
 42
0.0000000001
 43
0.0000000001
 40
0.0
 40
0.0
 40
0.0
 40
0.0
 40
0.25
 40
0.25
 40
0.25
 40
0.25
 40
0.5
 40
0.5
 40
0.5
 40
0.5
 40
0.75
 40
0.75
 40
0.75
 40
0.75
 40
1.0
 40
1.0
 40
1.0
 40
1.0
 10
0.7807677165354331
 20
2.931681102362205
 30
0.0
 10
0.7807677165354331
 20
2.931681102362205
 30
0.0
 10
1.421523622047244
 20
2.560374015748032
 30
0.0
 10
1.421523622047244
 20
2.560374015748032
 30
0.0
 10
1.421523622047244
 20
2.560374015748032
 30
0.0
 10
1.421523622047244
 20
2.560374015748032
 30
0.0
 10
1.44340157480315
 20
2.576700787401575
 30
0.0
 10
1.44340157480315
 20
2.576700787401575
 30
0.0
 10
1.44340157480315
 20
2.576700787401575
 30
0.0
 10
1.44340157480315
 20
2.576700787401575
 30
0.0
 10
0.8026456692913386
 20
2.948007874015748
 30
0.0
 10
0.8026456692913386
 20
2.948007874015748
 30
0.0
 10
0.8026456692913386
 20
2.948007874015748
 30
0.0
 10
0.8026456692913386
 20
2.948007874015748
 30
0.0
 10
0.7807677165354331
 20
2.931681102362205
 30
0.0
 10
0.7807677165354331
 20
2.931681102362205
 30
0.0
  0
SPLINE
  5
88
330
1F
100
AcDbEntity
  8
LAYER_1
 62
   253
100
AcDbSpline
210
0.0
220
0.0
230
1.0
 70
    11
 71
     3
 72
    20
 73
    16
 74
     0
 42
0.0000000001
 43
0.0000000001
 40
0.0
 40
0.0
 40
0.0
 40
0.0
 40
0.25
 40
0.25
 40
0.25
 40
0.25
 40
0.5
 40
0.5
 40
0.5
 40
0.5
 40
0.75
 40
0.75
 40
0.75
 40
0.75
 40
1.0
 40
1.0
 40
1.0
 40
1.0
 10
0.8026456692913386
 20
2.948007874015748
 30
0.0
 10
0.8026456692913386
 20
2.948007874015748
 30
0.0
 10
1.44340157480315
 20
2.576700787401575
 30
0.0
 10
1.44340157480315
 20
2.576700787401575
 30
0.0
 10
1.44340157480315
 20
2.576700787401575
 30
0.0
 10
1.44340157480315
 20
2.576700787401575
 30
0.0
 10
1.466523622047244
 20
2.592157480314961
 30
0.0
 10
1.466523622047244
 20
2.592157480314961
 30
0.0
 10
1.466523622047244
 20
2.592157480314961
 30
0.0
 10
1.466523622047244
 20
2.592157480314961
 30
0.0
 10
0.8257677165354331
 20
2.963464566929134
 30
0.0
 10
0.8257677165354331
 20
2.963464566929134
 30
0.0
 10
0.8257677165354331
 20
2.963464566929134
 30
0.0
 10
0.8257677165354331
 20
2.963464566929134
 30
0.0
 10
0.8026456692913386
 20
2.948007874015748
 30
0.0
 10
0.8026456692913386
 20
2.948007874015748
 30
0.0
  0
SPLINE
  5
89
330
1F
100
AcDbEntity
  8
LAYER_1
 62
   253
100
AcDbSpline
210
0.0
220
0.0
230
1.0
 70
    11
 71
     3
 72
    20
 73
    16
 74
     0
 42
0.0000000001
 43
0.0000000001
 40
0.0
 40
0.0
 40
0.0
 40
0.0
 40
0.25
 40
0.25
 40
0.25
 40
0.25
 40
0.5
 40
0.5
 40
0.5
 40
0.5
 40
0.75
 40
0.75
 40
0.75
 40
0.75
 40
1.0
 40
1.0
 40
1.0
 40
1.0
 10
0.8257677165354331
 20
2.963464566929134
 30
0.0
 10
0.8257677165354331
 20
2.963464566929134
 30
0.0
 10
1.466523622047244
 20
2.592157480314961
 30
0.0
 10
1.466523622047244
 20
2.592157480314961
 30
0.0
 10
1.466523622047244
 20
2.592157480314961
 30
0.0
 10
1.466523622047244
 20
2.592157480314961
 30
0.0
 10
1.490913385826772
 20
2.606720472440945
 30
0.0
 10
1.490913385826772
 20
2.606720472440945
 30
0.0
 10
1.490913385826772
 20
2.606720472440945
 30
0.0
 10
1.490913385826772
 20
2.606720472440945
 30
0.0
 10
0.8501574803149606
 20
2.978027559055118
 30
0.0
 10
0.8501574803149606
 20
2.978027559055118
 30
0.0
 10
0.8501574803149606
 20
2.978027559055118
 30
0.0
 10
0.8501574803149606
 20
2.978027559055118
 30
0.0
 10
0.8257677165354331
 20
2.963464566929134
 30
0.0
 10
0.8257677165354331
 20
2.963464566929134
 30
0.0
  0
SPLINE
  5
8A
330
1F
100
AcDbEntity
  8
LAYER_1
 62
   253
100
AcDbSpline
210
0.0
220
0.0
230
1.0
 70
    11
 71
     3
 72
    20
 73
    16
 74
     0
 42
0.0000000001
 43
0.0000000001
 40
0.0
 40
0.0
 40
0.0
 40
0.0
 40
0.25
 40
0.25
 40
0.25
 40
0.25
 40
0.5
 40
0.5
 40
0.5
 40
0.5
 40
0.75
 40
0.75
 40
0.75
 40
0.75
 40
1.0
 40
1.0
 40
1.0
 40
1.0
 10
0.8501574803149606
 20
2.978027559055118
 30
0.0
 10
0.8501574803149606
 20
2.978027559055118
 30
0.0
 10
1.490913385826772
 20
2.606720472440945
 30
0.0
 10
1.490913385826772
 20
2.606720472440945
 30
0.0
 10
1.490913385826772
 20
2.606720472440945
 30
0.0
 10
1.490913385826772
 20
2.606720472440945
 30
0.0
 10
1.516614173228347
 20
2.620389763779528
 30
0.0
 10
1.516614173228347
 20
2.620389763779528
 30
0.0
 10
1.516614173228347
 20
2.620389763779528
 30
0.0
 10
1.516614173228347
 20
2.620389763779528
 30
0.0
 10
0.8758582677165355
 20
2.991696850393701
 30
0.0
 10
0.8758582677165355
 20
2.991696850393701
 30
0.0
 10
0.8758582677165355
 20
2.991696850393701
 30
0.0
 10
0.8758582677165355
 20
2.991696850393701
 30
0.0
 10
0.8501574803149606
 20
2.978027559055118
 30
0.0
 10
0.8501574803149606
 20
2.978027559055118
 30
0.0
  0
SPLINE
  5
8B
330
1F
100
AcDbEntity
  8
LAYER_1
 62
   253
100
AcDbSpline
210
0.0
220
0.0
230
1.0
 70
    11
 71
     3
 72
    20
 73
    16
 74
     0
 42
0.0000000001
 43
0.0000000001
 40
0.0
 40
0.0
 40
0.0
 40
0.0
 40
0.25
 40
0.25
 40
0.25
 40
0.25
 40
0.5
 40
0.5
 40
0.5
 40
0.5
 40
0.75
 40
0.75
 40
0.75
 40
0.75
 40
1.0
 40
1.0
 40
1.0
 40
1.0
 10
0.8758582677165355
 20
2.991696850393701
 30
0.0
 10
0.8758582677165355
 20
2.991696850393701
 30
0.0
 10
1.516614173228347
 20
2.620389763779528
 30
0.0
 10
1.516614173228347
 20
2.620389763779528
 30
0.0
 10
1.516614173228347
 20
2.620389763779528
 30
0.0
 10
1.516614173228347
 20
2.620389763779528
 30
0.0
 10
1.543649606299213
 20
2.633153543307087
 30
0.0
 10
1.543649606299213
 20
2.633153543307087
 30
0.0
 10
1.543649606299213
 20
2.633153543307087
 30
0.0
 10
1.543649606299213
 20
2.633153543307087
 30
0.0
 10
0.9028937007874016
 20
3.00446062992126
 30
0.0
 10
0.9028937007874016
 20
3.00446062992126
 30
0.0
 10
0.9028937007874016
 20
3.00446062992126
 30
0.0
 10
0.9028937007874016
 20
3.00446062992126
 30
0.0
 10
0.8758582677165355
 20
2.991696850393701
 30
0.0
 10
0.8758582677165355
 20
2.991696850393701
 30
0.0
  0
SPLINE
  5
8C
330
1F
100
AcDbEntity
  8
LAYER_1
 62
   253
100
AcDbSpline
210
0.0
220
0.0
230
1.0
 70
    11
 71
     3
 72
    20
 73
    16
 74
     0
 42
0.0000000001
 43
0.0000000001
 40
0.0
 40
0.0
 40
0.0
 40
0.0
 40
0.25
 40
0.25
 40
0.25
 40
0.25
 40
0.5
 40
0.5
 40
0.5
 40
0.5
 40
0.75
 40
0.75
 40
0.75
 40
0.75
 40
1.0
 40
1.0
 40
1.0
 40
1.0
 10
0.9028937007874016
 20
3.00446062992126
 30
0.0
 10
0.9028937007874016
 20
3.00446062992126
 30
0.0
 10
1.543649606299213
 20
2.633153543307087
 30
0.0
 10
1.543649606299213
 20
2.633153543307087
 30
0.0
 10
1.543649606299213
 20
2.633153543307087
 30
0.0
 10
1.543649606299213
 20
2.633153543307087
 30
0.0
 10
1.572062992125984
 20
2.645015748031496
 30
0.0
 10
1.572062992125984
 20
2.645015748031496
 30
0.0
 10
1.572062992125984
 20
2.645015748031496
 30
0.0
 10
1.572062992125984
 20
2.645015748031496
 30
0.0
 10
0.9313070866141733
 20
3.016322834645669
 30
0.0
 10
0.9313070866141733
 20
3.016322834645669
 30
0.0
 10
0.9313070866141733
 20
3.016322834645669
 30
0.0
 10
0.9313070866141733
 20
3.016322834645669
 30
0.0
 10
0.9028937007874016
 20
3.00446062992126
 30
0.0
 10
0.9028937007874016
 20
3.00446062992126
 30
0.0
  0
SPLINE
  5
8D
330
1F
100
AcDbEntity
  8
LAYER_1
 62
   253
100
AcDbSpline
210
0.0
220
0.0
230
1.0
 70
    11
 71
     3
 72
    20
 73
    16
 74
     0
 42
0.0000000001
 43
0.0000000001
 40
0.0
 40
0.0
 40
0.0
 40
0.0
 40
0.25
 40
0.25
 40
0.25
 40
0.25
 40
0.5
 40
0.5
 40
0.5
 40
0.5
 40
0.75
 40
0.75
 40
0.75
 40
0.75
 40
1.0
 40
1.0
 40
1.0
 40
1.0
 10
0.9313070866141733
 20
3.016322834645669
 30
0.0
 10
0.9313070866141733
 20
3.016322834645669
 30
0.0
 10
1.572062992125984
 20
2.645015748031496
 30
0.0
 10
1.572062992125984
 20
2.645015748031496
 30
0.0
 10
1.572062992125984
 20
2.645015748031496
 30
0.0
 10
1.572062992125984
 20
2.645015748031496
 30
0.0
 10
1.601874015748032
 20
2.655952755905512
 30
0.0
 10
1.601874015748032
 20
2.655952755905512
 30
0.0
 10
1.601874015748032
 20
2.655952755905512
 30
0.0
 10
1.601874015748032
 20
2.655952755905512
 30
0.0
 10
0.9611181102362205
 20
3.027259842519685
 30
0.0
 10
0.9611181102362205
 20
3.027259842519685
 30
0.0
 10
0.9611181102362205
 20
3.027259842519685
 30
0.0
 10
0.9611181102362205
 20
3.027259842519685
 30
0.0
 10
0.9313070866141733
 20
3.016322834645669
 30
0.0
 10
0.9313070866141733
 20
3.016322834645669
 30
0.0
  0
SPLINE
  5
8E
330
1F
100
AcDbEntity
  8
LAYER_1
 62
   253
100
AcDbSpline
210
0.0
220
0.0
230
1.0
 70
    11
 71
     3
 72
    20
 73
    16
 74
     0
 42
0.0000000001
 43
0.0000000001
 40
0.0
 40
0.0
 40
0.0
 40
0.0
 40
0.25
 40
0.25
 40
0.25
 40
0.25
 40
0.5
 40
0.5
 40
0.5
 40
0.5
 40
0.75
 40
0.75
 40
0.75
 40
0.75
 40
1.0
 40
1.0
 40
1.0
 40
1.0
 10
0.9611181102362205
 20
3.027259842519685
 30
0.0
 10
0.9611181102362205
 20
3.027259842519685
 30
0.0
 10
1.601874015748032
 20
2.655952755905512
 30
0.0
 10
1.601874015748032
 20
2.655952755905512
 30
0.0
 10
1.601874015748032
 20
2.655952755905512
 30
0.0
 10
1.601874015748032
 20
2.655952755905512
 30
0.0
 10
1.633129921259843
 20
2.665968503937008
 30
0.0
 10
1.633129921259843
 20
2.665968503937008
 30
0.0
 10
1.633129921259843
 20
2.665968503937008
 30
0.0
 10
1.633129921259843
 20
2.665968503937008
 30
0.0
 10
0.9923740157480315
 20
3.037275590551181
 30
0.0
 10
0.9923740157480315
 20
3.037275590551181
 30
0.0
 10
0.9923740157480315
 20
3.037275590551181
 30
0.0
 10
0.9923740157480315
 20
3.037275590551181
 30
0.0
 10
0.9611181102362205
 20
3.027259842519685
 30
0.0
 10
0.9611181102362205
 20
3.027259842519685
 30
0.0
  0
SPLINE
  5
8F
330
1F
100
AcDbEntity
  8
LAYER_1
 62
   253
100
AcDbSpline
210
0.0
220
0.0
230
1.0
 70
    11
 71
     3
 72
    20
 73
    16
 74
     0
 42
0.0000000001
 43
0.0000000001
 40
0.0
 40
0.0
 40
0.0
 40
0.0
 40
0.25
 40
0.25
 40
0.25
 40
0.25
 40
0.5
 40
0.5
 40
0.5
 40
0.5
 40
0.75
 40
0.75
 40
0.75
 40
0.75
 40
1.0
 40
1.0
 40
1.0
 40
1.0
 10
0.9923740157480315
 20
3.037275590551181
 30
0.0
 10
0.9923740157480315
 20
3.037275590551181
 30
0.0
 10
1.633129921259843
 20
2.665968503937008
 30
0.0
 10
1.633129921259843
 20
2.665968503937008
 30
0.0
 10
1.633129921259843
 20
2.665968503937008
 30
0.0
 10
1.633129921259843
 20
2.665968503937008
 30
0.0
 10
1.665866141732284
 20
2.675047244094488
 30
0.0
 10
1.665866141732284
 20
2.675047244094488
 30
0.0
 10
1.665866141732284
 20
2.675047244094488
 30
0.0
 10
1.665866141732284
 20
2.675047244094488
 30
0.0
 10
1.025110236220473
 20
3.046354330708661
 30
0.0
 10
1.025110236220473
 20
3.046354330708661
 30
0.0
 10
1.025110236220473
 20
3.046354330708661
 30
0.0
 10
1.025110236220473
 20
3.046354330708661
 30
0.0
 10
0.9923740157480315
 20
3.037275590551181
 30
0.0
 10
0.9923740157480315
 20
3.037275590551181
 30
0.0
  0
SPLINE
  5
90
330
1F
100
AcDbEntity
  8
LAYER_1
 62
   250
100
AcDbSpline
210
0.0
220
0.0
230
1.0
 70
    11
 71
     3
 72
   268
 73
   264
 74
     0
 42
0.0000000001
 43
0.0000000001
 40
0.0
 40
0.0
 40
0.0
 40
0.0
 40
0.0151515151515152
 40
0.0151515151515152
 40
0.0151515151515152
 40
0.0151515151515152
 40
0.0303030303030303
 40
0.0303030303030303
 40
0.0303030303030303
 40
0.0303030303030303
 40
0.0454545454545455
 40
0.0454545454545455
 40
0.0454545454545455
 40
0.0454545454545455
 40
0.0606060606060606
 40
0.0606060606060606
 40
0.0606060606060606
 40
0.0606060606060606
 40
0.0757575757575758
 40
0.0757575757575758
 40
0.0757575757575758
 40
0.0757575757575758
 40
0.0909090909090909
 40
0.0909090909090909
 40
0.0909090909090909
 40
0.0909090909090909
 40
0.1060606060606061
 40
0.1060606060606061
 40
0.1060606060606061
 40
0.1060606060606061
 40
0.1212121212121212
 40
0.1212121212121212
 40
0.1212121212121212
 40
0.1212121212121212
 40
0.1363636363636364
 40
0.1363636363636364
 40
0.1363636363636364
 40
0.1363636363636364
 40
0.1515151515151515
 40
0.1515151515151515
 40
0.1515151515151515
 40
0.1515151515151515
 40
0.1666666666666666
 40
0.1666666666666666
 40
0.1666666666666666
 40
0.1666666666666666
 40
0.1818181818181818
 40
0.1818181818181818
 40
0.1818181818181818
 40
0.1818181818181818
 40
0.1969696969696969
 40
0.1969696969696969
 40
0.1969696969696969
 40
0.1969696969696969
 40
0.212121212121212
 40
0.212121212121212
 40
0.212121212121212
 40
0.212121212121212
 40
0.2272727272727272
 40
0.2272727272727272
 40
0.2272727272727272
 40
0.2272727272727272
 40
0.2424242424242423
 40
0.2424242424242423
 40
0.2424242424242423
 40
0.2424242424242423
 40
0.2575757575757575
 40
0.2575757575757575
 40
0.2575757575757575
 40
0.2575757575757575
 40
0.2727272727272726
 40
0.2727272727272726
 40
0.2727272727272726
 40
0.2727272727272726
 40
0.2878787878787877
 40
0.2878787878787877
 40
0.2878787878787877
 40
0.2878787878787877
 40
0.3030303030303029
 40
0.3030303030303029
 40
0.3030303030303029
 40
0.3030303030303029
 40
0.318181818181818
 40
0.318181818181818
 40
0.318181818181818
 40
0.318181818181818
 40
0.3333333333333332
 40
0.3333333333333332
 40
0.3333333333333332
 40
0.3333333333333332
 40
0.3484848484848483
 40
0.3484848484848483
 40
0.3484848484848483
 40
0.3484848484848483
 40
0.3636363636363634
 40
0.3636363636363634
 40
0.3636363636363634
 40
0.3636363636363634
 40
0.3787878787878786
 40
0.3787878787878786
 40
0.3787878787878786
 40
0.3787878787878786
 40
0.3939393939393937
 40
0.3939393939393937
 40
0.3939393939393937
 40
0.3939393939393937
 40
0.4090909090909088
 40
0.4090909090909088
 40
0.4090909090909088
 40
0.4090909090909088
 40
0.424242424242424
 40
0.424242424242424
 40
0.424242424242424
 40
0.424242424242424
 40
0.4393939393939391
 40
0.4393939393939391
 40
0.4393939393939391
 40
0.4393939393939391
 40
0.4545454545454543
 40
0.4545454545454543
 40
0.4545454545454543
 40
0.4545454545454543
 40
0.4696969696969694
 40
0.4696969696969694
 40
0.4696969696969694
 40
0.4696969696969694
 40
0.4848484848484845
 40
0.4848484848484845
 40
0.4848484848484845
 40
0.4848484848484845
 40
0.4999999999999997
 40
0.4999999999999997
 40
0.4999999999999997
 40
0.4999999999999997
 40
0.5151515151515148
 40
0.5151515151515148
 40
0.5151515151515148
 40
0.5151515151515148
 40
0.5303030303030299
 40
0.5303030303030299
 40
0.5303030303030299
 40
0.5303030303030299
 40
0.5454545454545451
 40
0.5454545454545451
 40
0.5454545454545451
 40
0.5454545454545451
 40
0.5606060606060602
 40
0.5606060606060602
 40
0.5606060606060602
 40
0.5606060606060602
 40
0.5757575757575754
 40
0.5757575757575754
 40
0.5757575757575754
 40
0.5757575757575754
 40
0.5909090909090905
 40
0.5909090909090905
 40
0.5909090909090905
 40
0.5909090909090905
 40
0.6060606060606056
 40
0.6060606060606056
 40
0.6060606060606056
 40
0.6060606060606056
 40
0.6212121212121208
 40
0.6212121212121208
 40
0.6212121212121208
 40
0.6212121212121208
 40
0.6363636363636359
 40
0.6363636363636359
 40
0.6363636363636359
 40
0.6363636363636359
 40
0.6515151515151511
 40
0.6515151515151511
 40
0.6515151515151511
 40
0.6515151515151511
 40
0.6666666666666662
 40
0.6666666666666662
 40
0.6666666666666662
 40
0.6666666666666662
 40
0.6818181818181813
 40
0.6818181818181813
 40
0.6818181818181813
 40
0.6818181818181813
 40
0.6969696969696965
 40
0.6969696969696965
 40
0.6969696969696965
 40
0.6969696969696965
 40
0.7121212121212116
 40
0.7121212121212116
 40
0.7121212121212116
 40
0.7121212121212116
 40
0.7272727272727267
 40
0.7272727272727267
 40
0.7272727272727267
 40
0.7272727272727267
 40
0.7424242424242419
 40
0.7424242424242419
 40
0.7424242424242419
 40
0.7424242424242419
 40
0.757575757575757
 40
0.757575757575757
 40
0.757575757575757
 40
0.757575757575757
 40
0.7727272727272722
 40
0.7727272727272722
 40
0.7727272727272722
 40
0.7727272727272722
 40
0.7878787878787873
 40
0.7878787878787873
 40
0.7878787878787873
 40
0.7878787878787873
 40
0.8030303030303024
 40
0.8030303030303024
 40
0.8030303030303024
 40
0.8030303030303024
 40
0.8181818181818176
 40
0.8181818181818176
 40
0.8181818181818176
 40
0.8181818181818176
 40
0.8333333333333327
 40
0.8333333333333327
 40
0.8333333333333327
 40
0.8333333333333327
 40
0.8484848484848478
 40
0.8484848484848478
 40
0.8484848484848478
 40
0.8484848484848478
 40
0.863636363636363
 40
0.863636363636363
 40
0.863636363636363
 40
0.863636363636363
 40
0.8787878787878781
 40
0.8787878787878781
 40
0.8787878787878781
 40
0.8787878787878781
 40
0.8939393939393933
 40
0.8939393939393933
 40
0.8939393939393933
 40
0.8939393939393933
 40
0.9090909090909084
 40
0.9090909090909084
 40
0.9090909090909084
 40
0.9090909090909084
 40
0.9242424242424235
 40
0.9242424242424235
 40
0.9242424242424235
 40
0.9242424242424235
 40
0.9393939393939387
 40
0.9393939393939387
 40
0.9393939393939387
 40
0.9393939393939387
 40
0.9545454545454538
 40
0.9545454545454538
 40
0.9545454545454538
 40
0.9545454545454538
 40
0.969696969696969
 40
0.969696969696969
 40
0.969696969696969
 40
0.969696969696969
 40
0.9848484848484841
 40
0.9848484848484841
 40
0.9848484848484841
 40
0.9848484848484841
 40
1.0
 40
1.0
 40
1.0
 40
1.0
 10
0.5419291338582677
 20
2.32946062992126
 30
0.0
 10
0.5419291338582677
 20
2.32946062992126
 30
0.0
 10
1.182685039370079
 20
1.958153543307087
 30
0.0
 10
1.182685039370079
 20
1.958153543307087
 30
0.0
 10
1.182685039370079
 20
1.958153543307087
 30
0.0
 10
1.182685039370079
 20
1.958153543307087
 30
0.0
 10
1.185374015748032
 20
1.992759842519685
 30
0.0
 10
1.185374015748032
 20
1.992759842519685
 30
0.0
 10
1.185374015748032
 20
1.992759842519685
 30
0.0
 10
1.185374015748032
 20
1.992759842519685
 30
0.0
 10
1.18851968503937
 20
2.026649606299213
 30
0.0
 10
1.18851968503937
 20
2.026649606299213
 30
0.0
 10
1.18851968503937
 20
2.026649606299213
 30
0.0
 10
1.18851968503937
 20
2.026649606299213
 30
0.0
 10
1.192169291338583
 20
2.059818897637795
 30
0.0
 10
1.192169291338583
 20
2.059818897637795
 30
0.0
 10
1.192169291338583
 20
2.059818897637795
 30
0.0
 10
1.192169291338583
 20
2.059818897637795
 30
0.0
 10
1.19634251968504
 20
2.092251968503937
 30
0.0
 10
1.19634251968504
 20
2.092251968503937
 30
0.0
 10
1.19634251968504
 20
2.092251968503937
 30
0.0
 10
1.19634251968504
 20
2.092251968503937
 30
0.0
 10
1.201090551181102
 20
2.123956692913386
 30
0.0
 10
1.201090551181102
 20
2.123956692913386
 30
0.0
 10
1.201090551181102
 20
2.123956692913386
 30
0.0
 10
1.201090551181102
 20
2.123956692913386
 30
0.0
 10
1.206429133858268
 20
2.154913385826772
 30
0.0
 10
1.206429133858268
 20
2.154913385826772
 30
0.0
 10
1.206429133858268
 20
2.154913385826772
 30
0.0
 10
1.206429133858268
 20
2.154913385826772
 30
0.0
 10
1.212405511811024
 20
2.185118110236221
 30
0.0
 10
1.212405511811024
 20
2.185118110236221
 30
0.0
 10
1.212405511811024
 20
2.185118110236221
 30
0.0
 10
1.212405511811024
 20
2.185118110236221
 30
0.0
 10
1.219043307086614
 20
2.214559055118111
 30
0.0
 10
1.219043307086614
 20
2.214559055118111
 30
0.0
 10
1.219043307086614
 20
2.214559055118111
 30
0.0
 10
1.219043307086614
 20
2.214559055118111
 30
0.0
 10
1.226389763779528
 20
2.243244094488189
 30
0.0
 10
1.226389763779528
 20
2.243244094488189
 30
0.0
 10
1.226389763779528
 20
2.243244094488189
 30
0.0
 10
1.226389763779528
 20
2.243244094488189
 30
0.0
 10
1.234464566929134
 20
2.271153543307087
 30
0.0
 10
1.234464566929134
 20
2.271153543307087
 30
0.0
 10
1.234464566929134
 20
2.271153543307087
 30
0.0
 10
1.234464566929134
 20
2.271153543307087
 30
0.0
 10
1.243307086614173
 20
2.298283464566929
 30
0.0
 10
1.243307086614173
 20
2.298283464566929
 30
0.0
 10
1.243307086614173
 20
2.298283464566929
 30
0.0
 10
1.243307086614173
 20
2.298283464566929
 30
0.0
 10
1.252944881889764
 20
2.324622047244095
 30
0.0
 10
1.252944881889764
 20
2.324622047244095
 30
0.0
 10
1.252944881889764
 20
2.324622047244095
 30
0.0
 10
1.252944881889764
 20
2.324622047244095
 30
0.0
 10
1.263429133858268
 20
2.350173228346457
 30
0.0
 10
1.263429133858268
 20
2.350173228346457
 30
0.0
 10
1.263429133858268
 20
2.350173228346457
 30
0.0
 10
1.263429133858268
 20
2.350173228346457
 30
0.0
 10
1.274771653543307
 20
2.374917322834646
 30
0.0
 10
1.274771653543307
 20
2.374917322834646
 30
0.0
 10
1.274771653543307
 20
2.374917322834646
 30
0.0
 10
1.274771653543307
 20
2.374917322834646
 30
0.0
 10
1.287023622047244
 20
2.398858267716535
 30
0.0
 10
1.287023622047244
 20
2.398858267716535
 30
0.0
 10
1.287023622047244
 20
2.398858267716535
 30
0.0
 10
1.287023622047244
 20
2.398858267716535
 30
0.0
 10
1.300200787401575
 20
2.421972440944882
 30
0.0
 10
1.300200787401575
 20
2.421972440944882
 30
0.0
 10
1.300200787401575
 20
2.421972440944882
 30
0.0
 10
1.300200787401575
 20
2.421972440944882
 30
0.0
 10
1.314358267716536
 20
2.444275590551181
 30
0.0
 10
1.314358267716536
 20
2.444275590551181
 30
0.0
 10
1.314358267716536
 20
2.444275590551181
 30
0.0
 10
1.314358267716536
 20
2.444275590551181
 30
0.0
 10
1.329515748031496
 20
2.465744094488189
 30
0.0
 10
1.329515748031496
 20
2.465744094488189
 30
0.0
 10
1.329515748031496
 20
2.465744094488189
 30
0.0
 10
1.329515748031496
 20
2.465744094488189
 30
0.0
 10
1.345712598425197
 20
2.486374015748031
 30
0.0
 10
1.345712598425197
 20
2.486374015748031
 30
0.0
 10
1.345712598425197
 20
2.486374015748031
 30
0.0
 10
1.345712598425197
 20
2.486374015748031
 30
0.0
 10
1.362972440944882
 20
2.506157480314961
 30
0.0
 10
1.362972440944882
 20
2.506157480314961
 30
0.0
 10
1.362972440944882
 20
2.506157480314961
 30
0.0
 10
1.362972440944882
 20
2.506157480314961
 30
0.0
 10
1.38134251968504
 20
2.525090551181103
 30
0.0
 10
1.38134251968504
 20
2.525090551181103
 30
0.0
 10
1.38134251968504
 20
2.525090551181103
 30
0.0
 10
1.38134251968504
 20
2.525090551181103
 30
0.0
 10
1.400846456692914
 20
2.543165354330709
 30
0.0
 10
1.400846456692914
 20
2.543165354330709
 30
0.0
 10
1.400846456692914
 20
2.543165354330709
 30
0.0
 10
1.400846456692914
 20
2.543165354330709
 30
0.0
 10
1.421523622047244
 20
2.560374015748032
 30
0.0
 10
1.421523622047244
 20
2.560374015748032
 30
0.0
 10
1.421523622047244
 20
2.560374015748032
 30
0.0
 10
1.421523622047244
 20
2.560374015748032
 30
0.0
 10
1.44340157480315
 20
2.576700787401575
 30
0.0
 10
1.44340157480315
 20
2.576700787401575
 30
0.0
 10
1.44340157480315
 20
2.576700787401575
 30
0.0
 10
1.44340157480315
 20
2.576700787401575
 30
0.0
 10
1.466523622047244
 20
2.592157480314961
 30
0.0
 10
1.466523622047244
 20
2.592157480314961
 30
0.0
 10
1.466523622047244
 20
2.592157480314961
 30
0.0
 10
1.466523622047244
 20
2.592157480314961
 30
0.0
 10
1.490913385826772
 20
2.606720472440945
 30
0.0
 10
1.490913385826772
 20
2.606720472440945
 30
0.0
 10
1.490913385826772
 20
2.606720472440945
 30
0.0
 10
1.490913385826772
 20
2.606720472440945
 30
0.0
 10
1.516614173228347
 20
2.620389763779528
 30
0.0
 10
1.516614173228347
 20
2.620389763779528
 30
0.0
 10
1.516614173228347
 20
2.620389763779528
 30
0.0
 10
1.516614173228347
 20
2.620389763779528
 30
0.0
 10
1.543649606299213
 20
2.633153543307087
 30
0.0
 10
1.543649606299213
 20
2.633153543307087
 30
0.0
 10
1.543649606299213
 20
2.633153543307087
 30
0.0
 10
1.543649606299213
 20
2.633153543307087
 30
0.0
 10
1.572062992125984
 20
2.645015748031496
 30
0.0
 10
1.572062992125984
 20
2.645015748031496
 30
0.0
 10
1.572062992125984
 20
2.645015748031496
 30
0.0
 10
1.572062992125984
 20
2.645015748031496
 30
0.0
 10
1.601874015748032
 20
2.655952755905512
 30
0.0
 10
1.601874015748032
 20
2.655952755905512
 30
0.0
 10
1.601874015748032
 20
2.655952755905512
 30
0.0
 10
1.601874015748032
 20
2.655952755905512
 30
0.0
 10
1.633129921259843
 20
2.665968503937008
 30
0.0
 10
1.633129921259843
 20
2.665968503937008
 30
0.0
 10
1.633129921259843
 20
2.665968503937008
 30
0.0
 10
1.633129921259843
 20
2.665968503937008
 30
0.0
 10
1.665866141732284
 20
2.675047244094488
 30
0.0
 10
1.665866141732284
 20
2.675047244094488
 30
0.0
 10
1.665866141732284
 20
2.675047244094488
 30
0.0
 10
1.665866141732284
 20
2.675047244094488
 30
0.0
 10
1.025110236220473
 20
3.046354330708661
 30
0.0
 10
1.025110236220473
 20
3.046354330708661
 30
0.0
 10
1.025110236220473
 20
3.046354330708661
 30
0.0
 10
1.025110236220473
 20
3.046354330708661
 30
0.0
 10
0.9923740157480315
 20
3.037275590551181
 30
0.0
 10
0.9923740157480315
 20
3.037275590551181
 30
0.0
 10
0.9923740157480315
 20
3.037275590551181
 30
0.0
 10
0.9923740157480315
 20
3.037275590551181
 30
0.0
 10
0.9611181102362205
 20
3.027259842519685
 30
0.0
 10
0.9611181102362205
 20
3.027259842519685
 30
0.0
 10
0.9611181102362205
 20
3.027259842519685
 30
0.0
 10
0.9611181102362205
 20
3.027259842519685
 30
0.0
 10
0.9313070866141733
 20
3.016322834645669
 30
0.0
 10
0.9313070866141733
 20
3.016322834645669
 30
0.0
 10
0.9313070866141733
 20
3.016322834645669
 30
0.0
 10
0.9313070866141733
 20
3.016322834645669
 30
0.0
 10
0.9028937007874016
 20
3.00446062992126
 30
0.0
 10
0.9028937007874016
 20
3.00446062992126
 30
0.0
 10
0.9028937007874016
 20
3.00446062992126
 30
0.0
 10
0.9028937007874016
 20
3.00446062992126
 30
0.0
 10
0.8758582677165355
 20
2.991696850393701
 30
0.0
 10
0.8758582677165355
 20
2.991696850393701
 30
0.0
 10
0.8758582677165355
 20
2.991696850393701
 30
0.0
 10
0.8758582677165355
 20
2.991696850393701
 30
0.0
 10
0.8501574803149606
 20
2.978027559055118
 30
0.0
 10
0.8501574803149606
 20
2.978027559055118
 30
0.0
 10
0.8501574803149606
 20
2.978027559055118
 30
0.0
 10
0.8501574803149606
 20
2.978027559055118
 30
0.0
 10
0.8257677165354331
 20
2.963464566929134
 30
0.0
 10
0.8257677165354331
 20
2.963464566929134
 30
0.0
 10
0.8257677165354331
 20
2.963464566929134
 30
0.0
 10
0.8257677165354331
 20
2.963464566929134
 30
0.0
 10
0.8026456692913386
 20
2.948007874015748
 30
0.0
 10
0.8026456692913386
 20
2.948007874015748
 30
0.0
 10
0.8026456692913386
 20
2.948007874015748
 30
0.0
 10
0.8026456692913386
 20
2.948007874015748
 30
0.0
 10
0.7807677165354331
 20
2.931681102362205
 30
0.0
 10
0.7807677165354331
 20
2.931681102362205
 30
0.0
 10
0.7807677165354331
 20
2.931681102362205
 30
0.0
 10
0.7807677165354331
 20
2.931681102362205
 30
0.0
 10
0.7600905511811024
 20
2.914472440944882
 30
0.0
 10
0.7600905511811024
 20
2.914472440944882
 30
0.0
 10
0.7600905511811024
 20
2.914472440944882
 30
0.0
 10
0.7600905511811024
 20
2.914472440944882
 30
0.0
 10
0.7405866141732284
 20
2.896397637795276
 30
0.0
 10
0.7405866141732284
 20
2.896397637795276
 30
0.0
 10
0.7405866141732284
 20
2.896397637795276
 30
0.0
 10
0.7405866141732284
 20
2.896397637795276
 30
0.0
 10
0.7222165354330709
 20
2.877464566929134
 30
0.0
 10
0.7222165354330709
 20
2.877464566929134
 30
0.0
 10
0.7222165354330709
 20
2.877464566929134
 30
0.0
 10
0.7222165354330709
 20
2.877464566929134
 30
0.0
 10
0.7049566929133858
 20
2.857681102362205
 30
0.0
 10
0.7049566929133858
 20
2.857681102362205
 30
0.0
 10
0.7049566929133858
 20
2.857681102362205
 30
0.0
 10
0.7049566929133858
 20
2.857681102362205
 30
0.0
 10
0.688759842519685
 20
2.837051181102362
 30
0.0
 10
0.688759842519685
 20
2.837051181102362
 30
0.0
 10
0.688759842519685
 20
2.837051181102362
 30
0.0
 10
0.688759842519685
 20
2.837051181102362
 30
0.0
 10
0.6736023622047245
 20
2.815582677165355
 30
0.0
 10
0.6736023622047245
 20
2.815582677165355
 30
0.0
 10
0.6736023622047245
 20
2.815582677165355
 30
0.0
 10
0.6736023622047245
 20
2.815582677165355
 30
0.0
 10
0.6594448818897638
 20
2.793279527559055
 30
0.0
 10
0.6594448818897638
 20
2.793279527559055
 30
0.0
 10
0.6594448818897638
 20
2.793279527559055
 30
0.0
 10
0.6594448818897638
 20
2.793279527559055
 30
0.0
 10
0.6462677165354331
 20
2.770165354330709
 30
0.0
 10
0.6462677165354331
 20
2.770165354330709
 30
0.0
 10
0.6462677165354331
 20
2.770165354330709
 30
0.0
 10
0.6462677165354331
 20
2.770165354330709
 30
0.0
 10
0.6340157480314961
 20
2.746224409448819
 30
0.0
 10
0.6340157480314961
 20
2.746224409448819
 30
0.0
 10
0.6340157480314961
 20
2.746224409448819
 30
0.0
 10
0.6340157480314961
 20
2.746224409448819
 30
0.0
 10
0.6226732283464567
 20
2.72148031496063
 30
0.0
 10
0.6226732283464567
 20
2.72148031496063
 30
0.0
 10
0.6226732283464567
 20
2.72148031496063
 30
0.0
 10
0.6226732283464567
 20
2.72148031496063
 30
0.0
 10
0.6121889763779528
 20
2.695929133858268
 30
0.0
 10
0.6121889763779528
 20
2.695929133858268
 30
0.0
 10
0.6121889763779528
 20
2.695929133858268
 30
0.0
 10
0.6121889763779528
 20
2.695929133858268
 30
0.0
 10
0.6025511811023623
 20
2.669590551181102
 30
0.0
 10
0.6025511811023623
 20
2.669590551181102
 30
0.0
 10
0.6025511811023623
 20
2.669590551181102
 30
0.0
 10
0.6025511811023623
 20
2.669590551181102
 30
0.0
 10
0.5937086614173228
 20
2.64246062992126
 30
0.0
 10
0.5937086614173228
 20
2.64246062992126
 30
0.0
 10
0.5937086614173228
 20
2.64246062992126
 30
0.0
 10
0.5937086614173228
 20
2.64246062992126
 30
0.0
 10
0.5856338582677165
 20
2.614551181102363
 30
0.0
 10
0.5856338582677165
 20
2.614551181102363
 30
0.0
 10
0.5856338582677165
 20
2.614551181102363
 30
0.0
 10
0.5856338582677165
 20
2.614551181102363
 30
0.0
 10
0.5782874015748032
 20
2.585866141732284
 30
0.0
 10
0.5782874015748032
 20
2.585866141732284
 30
0.0
 10
0.5782874015748032
 20
2.585866141732284
 30
0.0
 10
0.5782874015748032
 20
2.585866141732284
 30
0.0
 10
0.5716496062992126
 20
2.556425196850394
 30
0.0
 10
0.5716496062992126
 20
2.556425196850394
 30
0.0
 10
0.5716496062992126
 20
2.556425196850394
 30
0.0
 10
0.5716496062992126
 20
2.556425196850394
 30
0.0
 10
0.5656732283464567
 20
2.526220472440945
 30
0.0
 10
0.5656732283464567
 20
2.526220472440945
 30
0.0
 10
0.5656732283464567
 20
2.526220472440945
 30
0.0
 10
0.5656732283464567
 20
2.526220472440945
 30
0.0
 10
0.5603346456692914
 20
2.495263779527559
 30
0.0
 10
0.5603346456692914
 20
2.495263779527559
 30
0.0
 10
0.5603346456692914
 20
2.495263779527559
 30
0.0
 10
0.5603346456692914
 20
2.495263779527559
 30
0.0
 10
0.5555866141732284
 20
2.46355905511811
 30
0.0
 10
0.5555866141732284
 20
2.46355905511811
 30
0.0
 10
0.5555866141732284
 20
2.46355905511811
 30
0.0
 10
0.5555866141732284
 20
2.46355905511811
 30
0.0
 10
0.5514133858267717
 20
2.431125984251969
 30
0.0
 10
0.5514133858267717
 20
2.431125984251969
 30
0.0
 10
0.5514133858267717
 20
2.431125984251969
 30
0.0
 10
0.5514133858267717
 20
2.431125984251969
 30
0.0
 10
0.5477637795275591
 20
2.397956692913386
 30
0.0
 10
0.5477637795275591
 20
2.397956692913386
 30
0.0
 10
0.5477637795275591
 20
2.397956692913386
 30
0.0
 10
0.5477637795275591
 20
2.397956692913386
 30
0.0
 10
0.5446181102362205
 20
2.364066929133859
 30
0.0
 10
0.5446181102362205
 20
2.364066929133859
 30
0.0
 10
0.5446181102362205
 20
2.364066929133859
 30
0.0
 10
0.5446181102362205
 20
2.364066929133859
 30
0.0
 10
0.5419291338582677
 20
2.32946062992126
 30
0.0
 10
0.5419291338582677
 20
2.32946062992126
 30
0.0
  0
SPLINE
  5
91
330
1F
100
AcDbEntity
  8
LAYER_1
 62
   253
100
AcDbSpline
210
0.0
220
0.0
230
1.0
 70
    11
 71
     3
 72
    20
 73
    16
 74
     0
 42
0.0000000001
 43
0.0000000001
 40
0.0
 40
0.0
 40
0.0
 40
0.0
 40
0.25
 40
0.25
 40
0.25
 40
0.25
 40
0.5
 40
0.5
 40
0.5
 40
0.5
 40
0.75
 40
0.75
 40
0.75
 40
0.75
 40
1.0
 40
1.0
 40
1.0
 40
1.0
 10
1.025110236220473
 20
3.046354330708661
 30
0.0
 10
1.025110236220473
 20
3.046354330708661
 30
0.0
 10
1.665866141732284
 20
2.675047244094488
 30
0.0
 10
1.665866141732284
 20
2.675047244094488
 30
0.0
 10
1.665866141732284
 20
2.675047244094488
 30
0.0
 10
1.665866141732284
 20
2.675047244094488
 30
0.0
 10
1.665866141732284
 20
3.457685039370079
 30
0.0
 10
1.665866141732284
 20
3.457685039370079
 30
0.0
 10
1.665866141732284
 20
3.457685039370079
 30
0.0
 10
1.665866141732284
 20
3.457685039370079
 30
0.0
 10
1.025110236220473
 20
3.828992125984252
 30
0.0
 10
1.025110236220473
 20
3.828992125984252
 30
0.0
 10
1.025110236220473
 20
3.828992125984252
 30
0.0
 10
1.025110236220473
 20
3.828992125984252
 30
0.0
 10
1.025110236220473
 20
3.046354330708661
 30
0.0
 10
1.025110236220473
 20
3.046354330708661
 30
0.0
  0
SPLINE
  5
92
330
1F
100
AcDbEntity
  8
LAYER_1
 62
   250
100
AcDbSpline
210
0.0
220
0.0
230
1.0
 70
    11
 71
     3
 72
    20
 73
    16
 74
     0
 42
0.0000000001
 43
0.0000000001
 40
0.0
 40
0.0
 40
0.0
 40
0.0
 40
0.25
 40
0.25
 40
0.25
 40
0.25
 40
0.5
 40
0.5
 40
0.5
 40
0.5
 40
0.75
 40
0.75
 40
0.75
 40
0.75
 40
1.0
 40
1.0
 40
1.0
 40
1.0
 10
1.025110236220473
 20
3.046354330708661
 30
0.0
 10
1.025110236220473
 20
3.046354330708661
 30
0.0
 10
1.665866141732284
 20
2.675047244094488
 30
0.0
 10
1.665866141732284
 20
2.675047244094488
 30
0.0
 10
1.665866141732284
 20
2.675047244094488
 30
0.0
 10
1.665866141732284
 20
2.675047244094488
 30
0.0
 10
1.665866141732284
 20
3.457685039370079
 30
0.0
 10
1.665866141732284
 20
3.457685039370079
 30
0.0
 10
1.665866141732284
 20
3.457685039370079
 30
0.0
 10
1.665866141732284
 20
3.457685039370079
 30
0.0
 10
1.025110236220473
 20
3.828992125984252
 30
0.0
 10
1.025110236220473
 20
3.828992125984252
 30
0.0
 10
1.025110236220473
 20
3.828992125984252
 30
0.0
 10
1.025110236220473
 20
3.828992125984252
 30
0.0
 10
1.025110236220473
 20
3.046354330708661
 30
0.0
 10
1.025110236220473
 20
3.046354330708661
 30
0.0
  0
SPLINE
  5
93
330
1F
100
AcDbEntity
  8
LAYER_1
 62
     7
100
AcDbSpline
210
0.0
220
0.0
230
1.0
 70
    11
 71
     3
 72
    28
 73
    24
 74
     0
 42
0.0000000001
 43
0.0000000001
 40
0.0
 40
0.0
 40
0.0
 40
0.0
 40
0.1666666666666667
 40
0.1666666666666667
 40
0.1666666666666667
 40
0.1666666666666667
 40
0.3333333333333333
 40
0.3333333333333333
 40
0.3333333333333333
 40
0.3333333333333333
 40
0.5
 40
0.5
 40
0.5
 40
0.5
 40
0.6666666666666666
 40
0.6666666666666666
 40
0.6666666666666666
 40
0.6666666666666666
 40
0.8333333333333333
 40
0.8333333333333333
 40
0.8333333333333333
 40
0.8333333333333333
 40
1.0
 40
1.0
 40
1.0
 40
1.0
 10
0.1690393700787402
 20
2.468637795275591
 30
0.0
 10
0.1690393700787402
 20
2.468637795275591
 30
0.0
 10
0.4972874015748032
 20
2.32946062992126
 30
0.0
 10
0.4972874015748032
 20
2.32946062992126
 30
0.0
 10
0.4972874015748032
 20
2.32946062992126
 30
0.0
 10
0.4972874015748032
 20
2.32946062992126
 30
0.0
 10
0.5419291338582677
 20
2.32946062992126
 30
0.0
 10
0.5419291338582677
 20
2.32946062992126
 30
0.0
 10
0.5419291338582677
 20
2.32946062992126
 30
0.0
 10
0.5681889763779527
 20
2.702350393700788
 30
0.0
 10
0.6679763779527559
 20
2.954444881889764
 30
0.0
 10
1.025110236220473
 20
3.046354330708661
 30
0.0
 10
1.025110236220473
 20
3.046354330708661
 30
0.0
 10
1.025110236220473
 20
3.046354330708661
 30
0.0
 10
1.025110236220473
 20
3.828992125984252
 30
0.0
 10
1.025110236220473
 20
3.828992125984252
 30
0.0
 10
1.025110236220473
 20
3.828992125984252
 30
0.0
 10
1.025110236220473
 20
3.828992125984252
 30
0.0
 10
0.1690393700787402
 20
3.828992125984252
 30
0.0
 10
0.1690393700787402
 20
3.828992125984252
 30
0.0
 10
0.1690393700787402
 20
3.828992125984252
 30
0.0
 10
0.1690393700787402
 20
3.828992125984252
 30
0.0
 10
0.1690393700787402
 20
2.468637795275591
 30
0.0
 10
0.1690393700787402
 20
2.468637795275591
 30
0.0
  0
SPLINE
  5
94
330
1F
100
AcDbEntity
  8
LAYER_1
 62
   250
100
AcDbSpline
210
0.0
220
0.0
230
1.0
 70
    11
 71
     3
 72
   104
 73
   100
 74
     0
 42
0.0000000001
 43
0.0000000001
 40
0.0
 40
0.0
 40
0.0
 40
0.0
 40
0.04
 40
0.04
 40
0.04
 40
0.04
 40
0.08
 40
0.08
 40
0.08
 40
0.08
 40
0.12
 40
0.12
 40
0.12
 40
0.12
 40
0.16
 40
0.16
 40
0.16
 40
0.16
 40
0.2
 40
0.2
 40
0.2
 40
0.2
 40
0.24
 40
0.24
 40
0.24
 40
0.24
 40
0.28
 40
0.28
 40
0.28
 40
0.28
 40
0.32
 40
0.32
 40
0.32
 40
0.32
 40
0.36
 40
0.36
 40
0.36
 40
0.36
 40
0.4
 40
0.4
 40
0.4
 40
0.4
 40
0.44
 40
0.44
 40
0.44
 40
0.44
 40
0.4799999999999999
 40
0.4799999999999999
 40
0.4799999999999999
 40
0.4799999999999999
 40
0.5199999999999999
 40
0.5199999999999999
 40
0.5199999999999999
 40
0.5199999999999999
 40
0.5599999999999999
 40
0.5599999999999999
 40
0.5599999999999999
 40
0.5599999999999999
 40
0.6
 40
0.6
 40
0.6
 40
0.6
 40
0.64
 40
0.64
 40
0.64
 40
0.64
 40
0.6800000000000001
 40
0.6800000000000001
 40
0.6800000000000001
 40
0.6800000000000001
 40
0.7200000000000001
 40
0.7200000000000001
 40
0.7200000000000001
 40
0.7200000000000001
 40
0.7600000000000001
 40
0.7600000000000001
 40
0.7600000000000001
 40
0.7600000000000001
 40
0.8000000000000002
 40
0.8000000000000002
 40
0.8000000000000002
 40
0.8000000000000002
 40
0.8400000000000002
 40
0.8400000000000002
 40
0.8400000000000002
 40
0.8400000000000002
 40
0.8800000000000002
 40
0.8800000000000002
 40
0.8800000000000002
 40
0.8800000000000002
 40
0.9200000000000003
 40
0.9200000000000003
 40
0.9200000000000003
 40
0.9200000000000003
 40
0.9600000000000003
 40
0.9600000000000003
 40
0.9600000000000003
 40
0.9600000000000003
 40
1.0
 40
1.0
 40
1.0
 40
1.0
 10
1.626799212598425
 20
2.247346456692914
 30
0.0
 10
1.626799212598425
 20
2.247346456692914
 30
0.0
 10
1.680771653543307
 20
2.247346456692914
 30
0.0
 10
1.680771653543307
 20
2.247346456692914
 30
0.0
 10
1.680771653543307
 20
2.247346456692914
 30
0.0
 10
1.69394094488189
 20
2.247346456692914
 30
0.0
 10
1.702968503937008
 20
2.246736220472441
 30
0.0
 10
1.707854330708662
 20
2.24553937007874
 30
0.0
 10
1.707854330708662
 20
2.24553937007874
 30
0.0
 10
1.71507874015748
 20
2.243818897637795
 30
0.0
 10
1.720771653543307
 20
2.240681102362205
 30
0.0
 10
1.724996062992126
 20
2.236122047244094
 30
0.0
 10
1.724996062992126
 20
2.236122047244094
 30
0.0
 10
1.729188976377953
 20
2.231566929133858
 30
0.0
 10
1.731299212598425
 20
2.226066929133858
 30
0.0
 10
1.731299212598425
 20
2.219681102362205
 30
0.0
 10
1.731299212598425
 20
2.219681102362205
 30
0.0
 10
1.731299212598425
 20
2.215066929133859
 30
0.0
 10
1.730188976377953
 20
2.210929133858268
 30
0.0
 10
1.727968503937008
 20
2.207263779527559
 30
0.0
 10
1.727968503937008
 20
2.207263779527559
 30
0.0
 10
1.725744094488189
 20
2.203594488188977
 30
0.0
 10
1.722496062992126
 20
2.200456692913386
 30
0.0
 10
1.718271653543307
 20
2.197874015748031
 30
0.0
 10
1.718271653543307
 20
2.197874015748031
 30
0.0
 10
1.715551181102362
 20
2.196181102362205
 30
0.0
 10
1.71188188976378
 20
2.194736220472441
 30
0.0
 10
1.707216535433071
 20
2.19353937007874
 30
0.0
 10
1.707216535433071
 20
2.19353937007874
 30
0.0
 10
1.713133858267717
 20
2.192456692913386
 30
0.0
 10
1.717633858267717
 20
2.191153543307087
 30
0.0
 10
1.720716535433071
 20
2.189653543307087
 30
0.0
 10
1.720716535433071
 20
2.189653543307087
 30
0.0
 10
1.72538188976378
 20
2.187374015748032
 30
0.0
 10
1.72907874015748
 20
2.184125984251969
 30
0.0
 10
1.731771653543307
 20
2.179874015748032
 30
0.0
 10
1.731771653543307
 20
2.179874015748032
 30
0.0
 10
1.734496062992126
 20
2.175653543307087
 30
0.0
 10
1.735854330708662
 20
2.170874015748032
 30
0.0
 10
1.735854330708662
 20
2.165566929133858
 30
0.0
 10
1.735854330708662
 20
2.165566929133858
 30
0.0
 10
1.735854330708662
 20
2.16040157480315
 30
0.0
 10
1.734523622047244
 20
2.155625984251969
 30
0.0
 10
1.731854330708662
 20
2.151236220472441
 30
0.0
 10
1.731854330708662
 20
2.151236220472441
 30
0.0
 10
1.729216535433071
 20
2.146846456692913
 30
0.0
 10
1.72544094488189
 20
2.143236220472441
 30
0.0
 10
1.720606299212599
 20
2.14040157480315
 30
0.0
 10
1.720606299212599
 20
2.14040157480315
 30
0.0
 10
1.715744094488189
 20
2.13759842519685
 30
0.0
 10
1.71007874015748
 20
2.135791338582677
 30
0.0
 10
1.703633858267717
 20
2.134984251968504
 30
0.0
 10
1.703633858267717
 20
2.134984251968504
 30
0.0
 10
1.697161417322835
 20
2.134208661417323
 30
0.0
 10
1.690523622047244
 20
2.133818897637795
 30
0.0
 10
1.683688976377953
 20
2.133818897637795
 30
0.0
 10
1.683688976377953
 20
2.133818897637795
 30
0.0
 10
1.683688976377953
 20
2.133818897637795
 30
0.0
 10
1.626799212598425
 20
2.133818897637795
 30
0.0
 10
1.626799212598425
 20
2.133818897637795
 30
0.0
 10
1.626799212598425
 20
2.133818897637795
 30
0.0
 10
1.626799212598425
 20
2.133818897637795
 30
0.0
 10
1.626799212598425
 20
2.140653543307087
 30
0.0
 10
1.626799212598425
 20
2.140653543307087
 30
0.0
 10
1.626799212598425
 20
2.140653543307087
 30
0.0
 10
1.626799212598425
 20
2.140653543307087
 30
0.0
 10
1.630633858267717
 20
2.140653543307087
 30
0.0
 10
1.630633858267717
 20
2.140653543307087
 30
0.0
 10
1.630633858267717
 20
2.140653543307087
 30
0.0
 10
1.634330708661417
 20
2.140653543307087
 30
0.0
 10
1.636830708661417
 20
2.141236220472441
 30
0.0
 10
1.638188976377953
 20
2.142374015748032
 30
0.0
 10
1.638188976377953
 20
2.142374015748032
 30
0.0
 10
1.640161417322835
 20
2.143929133858268
 30
0.0
 10
1.641133858267717
 20
2.14653937007874
 30
0.0
 10
1.641133858267717
 20
2.150181102362205
 30
0.0
 10
1.641133858267717
 20
2.150181102362205
 30
0.0
 10
1.641133858267717
 20
2.150181102362205
 30
0.0
 10
1.641133858267717
 20
2.22903937007874
 30
0.0
 10
1.641133858267717
 20
2.22903937007874
 30
0.0
 10
1.641133858267717
 20
2.22903937007874
 30
0.0
 10
1.641133858267717
 20
2.232736220472441
 30
0.0
 10
1.640830708661417
 20
2.235236220472441
 30
0.0
 10
1.640244094488189
 20
2.236594488188977
 30
0.0
 10
1.640244094488189
 20
2.236594488188977
 30
0.0
 10
1.639633858267717
 20
2.237956692913386
 30
0.0
 10
1.638744094488189
 20
2.238929133858268
 30
0.0
 10
1.637551181102362
 20
2.23953937007874
 30
0.0
 10
1.637551181102362
 20
2.23953937007874
 30
0.0
 10
1.636358267716536
 20
2.240122047244094
 30
0.0
 10
1.634051181102362
 20
2.240429133858268
 30
0.0
 10
1.630633858267717
 20
2.240429133858268
 30
0.0
 10
1.630633858267717
 20
2.240429133858268
 30
0.0
 10
1.630633858267717
 20
2.240429133858268
 30
0.0
 10
1.626799212598425
 20
2.240429133858268
 30
0.0
 10
1.626799212598425
 20
2.240429133858268
 30
0.0
 10
1.626799212598425
 20
2.240429133858268
 30
0.0
 10
1.626799212598425
 20
2.240429133858268
 30
0.0
 10
1.626799212598425
 20
2.247346456692914
 30
0.0
 10
1.626799212598425
 20
2.247346456692914
 30
0.0
  0
SPLINE
  5
95
330
1F
100
AcDbEntity
  8
LAYER_1
 62
   250
100
AcDbSpline
210
0.0
220
0.0
230
1.0
 70
    11
 71
     3
 72
    40
 73
    36
 74
     0
 42
0.0000000001
 43
0.0000000001
 40
0.0
 40
0.0
 40
0.0
 40
0.0
 40
0.1111111111111111
 40
0.1111111111111111
 40
0.1111111111111111
 40
0.1111111111111111
 40
0.2222222222222222
 40
0.2222222222222222
 40
0.2222222222222222
 40
0.2222222222222222
 40
0.3333333333333333
 40
0.3333333333333333
 40
0.3333333333333333
 40
0.3333333333333333
 40
0.4444444444444444
 40
0.4444444444444444
 40
0.4444444444444444
 40
0.4444444444444444
 40
0.5555555555555556
 40
0.5555555555555556
 40
0.5555555555555556
 40
0.5555555555555556
 40
0.6666666666666667
 40
0.6666666666666667
 40
0.6666666666666667
 40
0.6666666666666667
 40
0.7777777777777779
 40
0.7777777777777779
 40
0.7777777777777779
 40
0.7777777777777779
 40
0.8888888888888891
 40
0.8888888888888891
 40
0.8888888888888891
 40
0.8888888888888891
 40
1.0
 40
1.0
 40
1.0
 40
1.0
 10
1.656358267716536
 20
2.238318897637795
 30
0.0
 10
1.656358267716536
 20
2.238318897637795
 30
0.0
 10
1.656358267716536
 20
2.196736220472441
 30
0.0
 10
1.656358267716536
 20
2.196736220472441
 30
0.0
 10
1.656358267716536
 20
2.196736220472441
 30
0.0
 10
1.656358267716536
 20
2.196736220472441
 30
0.0
 10
1.677106299212599
 20
2.196736220472441
 30
0.0
 10
1.677106299212599
 20
2.196736220472441
 30
0.0
 10
1.677106299212599
 20
2.196736220472441
 30
0.0
 10
1.686799212598425
 20
2.196736220472441
 30
0.0
 10
1.693468503937008
 20
2.197181102362205
 30
0.0
 10
1.697023622047244
 20
2.198094488188977
 30
0.0
 10
1.697023622047244
 20
2.198094488188977
 30
0.0
 10
1.702633858267717
 20
2.199566929133858
 30
0.0
 10
1.70688188976378
 20
2.202066929133858
 30
0.0
 10
1.709854330708662
 20
2.205594488188976
 30
0.0
 10
1.709854330708662
 20
2.205594488188976
 30
0.0
 10
1.712799212598425
 20
2.209122047244095
 30
0.0
 10
1.714299212598425
 20
2.213653543307087
 30
0.0
 10
1.714299212598425
 20
2.219181102362205
 30
0.0
 10
1.714299212598425
 20
2.219181102362205
 30
0.0
 10
1.714299212598425
 20
2.223846456692913
 30
0.0
 10
1.71294094488189
 20
2.227736220472441
 30
0.0
 10
1.710271653543307
 20
2.230874015748032
 30
0.0
 10
1.710271653543307
 20
2.230874015748032
 30
0.0
 10
1.707578740157481
 20
2.233984251968504
 30
0.0
 10
1.703968503937008
 20
2.236122047244094
 30
0.0
 10
1.699468503937008
 20
2.237263779527559
 30
0.0
 10
1.699468503937008
 20
2.237263779527559
 30
0.0
 10
1.696551181102362
 20
2.237956692913386
 30
0.0
 10
1.690468503937008
 20
2.238318897637795
 30
0.0
 10
1.681244094488189
 20
2.238318897637795
 30
0.0
 10
1.681244094488189
 20
2.238318897637795
 30
0.0
 10
1.681244094488189
 20
2.238318897637795
 30
0.0
 10
1.656358267716536
 20
2.238318897637795
 30
0.0
 10
1.656358267716536
 20
2.238318897637795
 30
0.0
  0
SPLINE
  5
96
330
1F
100
AcDbEntity
  8
LAYER_1
 62
   250
100
AcDbSpline
210
0.0
220
0.0
230
1.0
 70
    11
 71
     3
 72
    52
 73
    48
 74
     0
 42
0.0000000001
 43
0.0000000001
 40
0.0
 40
0.0
 40
0.0
 40
0.0
 40
0.0833333333333333
 40
0.0833333333333333
 40
0.0833333333333333
 40
0.0833333333333333
 40
0.1666666666666667
 40
0.1666666666666667
 40
0.1666666666666667
 40
0.1666666666666667
 40
0.25
 40
0.25
 40
0.25
 40
0.25
 40
0.3333333333333333
 40
0.3333333333333333
 40
0.3333333333333333
 40
0.3333333333333333
 40
0.4166666666666666
 40
0.4166666666666666
 40
0.4166666666666666
 40
0.4166666666666666
 40
0.4999999999999999
 40
0.4999999999999999
 40
0.4999999999999999
 40
0.4999999999999999
 40
0.5833333333333333
 40
0.5833333333333333
 40
0.5833333333333333
 40
0.5833333333333333
 40
0.6666666666666666
 40
0.6666666666666666
 40
0.6666666666666666
 40
0.6666666666666666
 40
0.75
 40
0.75
 40
0.75
 40
0.75
 40
0.8333333333333334
 40
0.8333333333333334
 40
0.8333333333333334
 40
0.8333333333333334
 40
0.9166666666666667
 40
0.9166666666666667
 40
0.9166666666666667
 40
0.9166666666666667
 40
1.0
 40
1.0
 40
1.0
 40
1.0
 10
1.656358267716536
 20
2.18890157480315
 30
0.0
 10
1.656358267716536
 20
2.18890157480315
 30
0.0
 10
1.656358267716536
 20
2.151653543307087
 30
0.0
 10
1.656358267716536
 20
2.151653543307087
 30
0.0
 10
1.656358267716536
 20
2.151653543307087
 30
0.0
 10
1.656358267716536
 20
2.14790157480315
 30
0.0
 10
1.656523622047244
 20
2.145681102362205
 30
0.0
 10
1.656826771653543
 20
2.144956692913386
 30
0.0
 10
1.656826771653543
 20
2.144956692913386
 30
0.0
 10
1.657271653543307
 20
2.143984251968504
 30
0.0
 10
1.658133858267717
 20
2.143318897637796
 30
0.0
 10
1.65944094488189
 20
2.142929133858268
 30
0.0
 10
1.65944094488189
 20
2.142929133858268
 30
0.0
 10
1.660358267716535
 20
2.142653543307087
 30
0.0
 10
1.662968503937008
 20
2.142511811023622
 30
0.0
 10
1.667244094488189
 20
2.142511811023622
 30
0.0
 10
1.667244094488189
 20
2.142511811023622
 30
0.0
 10
1.667244094488189
 20
2.142511811023622
 30
0.0
 10
1.678326771653543
 20
2.142511811023622
 30
0.0
 10
1.678326771653543
 20
2.142511811023622
 30
0.0
 10
1.678326771653543
 20
2.142511811023622
 30
0.0
 10
1.689271653543307
 20
2.142511811023622
 30
0.0
 10
1.697106299212599
 20
2.143125984251969
 30
0.0
 10
1.701799212598425
 20
2.144346456692913
 30
0.0
 10
1.701799212598425
 20
2.144346456692913
 30
0.0
 10
1.706496062992126
 20
2.145566929133858
 30
0.0
 10
1.710496062992126
 20
2.148153543307087
 30
0.0
 10
1.713799212598425
 20
2.152098425196851
 30
0.0
 10
1.713799212598425
 20
2.152098425196851
 30
0.0
 10
1.717106299212599
 20
2.156011811023622
 30
0.0
 10
1.718771653543307
 20
2.160763779527559
 30
0.0
 10
1.718771653543307
 20
2.166291338582677
 30
0.0
 10
1.718771653543307
 20
2.166291338582677
 30
0.0
 10
1.718771653543307
 20
2.170956692913386
 30
0.0
 10
1.717413385826772
 20
2.175094488188976
 30
0.0
 10
1.714744094488189
 20
2.178708661417323
 30
0.0
 10
1.714744094488189
 20
2.178708661417323
 30
0.0
 10
1.712051181102362
 20
2.182318897637795
 30
0.0
 10
1.708326771653543
 20
2.18490157480315
 30
0.0
 10
1.703578740157481
 20
2.186511811023622
 30
0.0
 10
1.703578740157481
 20
2.186511811023622
 30
0.0
 10
1.698826771653544
 20
2.188125984251969
 30
0.0
 10
1.690413385826772
 20
2.18890157480315
 30
0.0
 10
1.678326771653543
 20
2.18890157480315
 30
0.0
 10
1.678326771653543
 20
2.18890157480315
 30
0.0
 10
1.678326771653543
 20
2.18890157480315
 30
0.0
 10
1.656358267716536
 20
2.18890157480315
 30
0.0
 10
1.656358267716536
 20
2.18890157480315
 30
0.0
  0
SPLINE
  5
97
330
1F
100
AcDbEntity
  8
LAYER_1
 62
   250
100
AcDbSpline
210
0.0
220
0.0
230
1.0
 70
    11
 71
     3
 72
   112
 73
   108
 74
     0
 42
0.0000000001
 43
0.0000000001
 40
0.0
 40
0.0
 40
0.0
 40
0.0
 40
0.037037037037037
 40
0.037037037037037
 40
0.037037037037037
 40
0.037037037037037
 40
0.0740740740740741
 40
0.0740740740740741
 40
0.0740740740740741
 40
0.0740740740740741
 40
0.1111111111111111
 40
0.1111111111111111
 40
0.1111111111111111
 40
0.1111111111111111
 40
0.1481481481481481
 40
0.1481481481481481
 40
0.1481481481481481
 40
0.1481481481481481
 40
0.1851851851851852
 40
0.1851851851851852
 40
0.1851851851851852
 40
0.1851851851851852
 40
0.2222222222222222
 40
0.2222222222222222
 40
0.2222222222222222
 40
0.2222222222222222
 40
0.2592592592592592
 40
0.2592592592592592
 40
0.2592592592592592
 40
0.2592592592592592
 40
0.2962962962962963
 40
0.2962962962962963
 40
0.2962962962962963
 40
0.2962962962962963
 40
0.3333333333333333
 40
0.3333333333333333
 40
0.3333333333333333
 40
0.3333333333333333
 40
0.3703703703703704
 40
0.3703703703703704
 40
0.3703703703703704
 40
0.3703703703703704
 40
0.4074074074074074
 40
0.4074074074074074
 40
0.4074074074074074
 40
0.4074074074074074
 40
0.4444444444444444
 40
0.4444444444444444
 40
0.4444444444444444
 40
0.4444444444444444
 40
0.4814814814814815
 40
0.4814814814814815
 40
0.4814814814814815
 40
0.4814814814814815
 40
0.5185185185185185
 40
0.5185185185185185
 40
0.5185185185185185
 40
0.5185185185185185
 40
0.5555555555555556
 40
0.5555555555555556
 40
0.5555555555555556
 40
0.5555555555555556
 40
0.5925925925925926
 40
0.5925925925925926
 40
0.5925925925925926
 40
0.5925925925925926
 40
0.6296296296296295
 40
0.6296296296296295
 40
0.6296296296296295
 40
0.6296296296296295
 40
0.6666666666666665
 40
0.6666666666666665
 40
0.6666666666666665
 40
0.6666666666666665
 40
0.7037037037037035
 40
0.7037037037037035
 40
0.7037037037037035
 40
0.7037037037037035
 40
0.7407407407407405
 40
0.7407407407407405
 40
0.7407407407407405
 40
0.7407407407407405
 40
0.7777777777777775
 40
0.7777777777777775
 40
0.7777777777777775
 40
0.7777777777777775
 40
0.8148148148148144
 40
0.8148148148148144
 40
0.8148148148148144
 40
0.8148148148148144
 40
0.8518518518518514
 40
0.8518518518518514
 40
0.8518518518518514
 40
0.8518518518518514
 40
0.8888888888888884
 40
0.8888888888888884
 40
0.8888888888888884
 40
0.8888888888888884
 40
0.9259259259259254
 40
0.9259259259259254
 40
0.9259259259259254
 40
0.9259259259259254
 40
0.9629629629629624
 40
0.9629629629629624
 40
0.9629629629629624
 40
0.9629629629629624
 40
1.0
 40
1.0
 40
1.0
 40
1.0
 10
1.793464566929134
 20
2.247346456692914
 30
0.0
 10
1.793464566929134
 20
2.247346456692914
 30
0.0
 10
1.80688188976378
 20
2.247346456692914
 30
0.0
 10
1.80688188976378
 20
2.247346456692914
 30
0.0
 10
1.80688188976378
 20
2.247346456692914
 30
0.0
 10
1.80688188976378
 20
2.247346456692914
 30
0.0
 10
1.842129921259843
 20
2.152456692913386
 30
0.0
 10
1.842129921259843
 20
2.152456692913386
 30
0.0
 10
1.842129921259843
 20
2.152456692913386
 30
0.0
 10
1.843854330708661
 20
2.147681102362205
 30
0.0
 10
1.845602362204724
 20
2.144511811023622
 30
0.0
 10
1.84738188976378
 20
2.142984251968504
 30
0.0
 10
1.84738188976378
 20
2.142984251968504
 30
0.0
 10
1.849129921259843
 20
2.141429133858268
 30
0.0
 10
1.85151968503937
 20
2.140653543307087
 30
0.0
 10
1.854492125984252
 20
2.140653543307087
 30
0.0
 10
1.854492125984252
 20
2.140653543307087
 30
0.0
 10
1.854492125984252
 20
2.140653543307087
 30
0.0
 10
1.856271653543307
 20
2.140653543307087
 30
0.0
 10
1.856271653543307
 20
2.140653543307087
 30
0.0
 10
1.856271653543307
 20
2.140653543307087
 30
0.0
 10
1.856271653543307
 20
2.140653543307087
 30
0.0
 10
1.856271653543307
 20
2.133818897637795
 30
0.0
 10
1.856271653543307
 20
2.133818897637795
 30
0.0
 10
1.856271653543307
 20
2.133818897637795
 30
0.0
 10
1.856271653543307
 20
2.133818897637795
 30
0.0
 10
1.815826771653543
 20
2.133818897637795
 30
0.0
 10
1.815826771653543
 20
2.133818897637795
 30
0.0
 10
1.815826771653543
 20
2.133818897637795
 30
0.0
 10
1.815826771653543
 20
2.133818897637795
 30
0.0
 10
1.815826771653543
 20
2.140653543307087
 30
0.0
 10
1.815826771653543
 20
2.140653543307087
 30
0.0
 10
1.815826771653543
 20
2.140653543307087
 30
0.0
 10
1.817129921259843
 20
2.140763779527559
 30
0.0
 10
1.818409448818898
 20
2.140818897637796
 30
0.0
 10
1.819661417322835
 20
2.140818897637796
 30
0.0
 10
1.819661417322835
 20
2.140818897637796
 30
0.0
 10
1.822271653543307
 20
2.140818897637796
 30
0.0
 10
1.823964566929134
 20
2.141098425196851
 30
0.0
 10
1.824799212598425
 20
2.141625984251969
 30
0.0
 10
1.824799212598425
 20
2.141625984251969
 30
0.0
 10
1.826354330708661
 20
2.142653543307087
 30
0.0
 10
1.827157480314961
 20
2.143956692913386
 30
0.0
 10
1.827157480314961
 20
2.14553937007874
 30
0.0
 10
1.827157480314961
 20
2.14553937007874
 30
0.0
 10
1.827157480314961
 20
2.146681102362205
 30
0.0
 10
1.82638188976378
 20
2.149456692913386
 30
0.0
 10
1.82488188976378
 20
2.153929133858268
 30
0.0
 10
1.82488188976378
 20
2.153929133858268
 30
0.0
 10
1.82488188976378
 20
2.153929133858268
 30
0.0
 10
1.81738188976378
 20
2.17590157480315
 30
0.0
 10
1.81738188976378
 20
2.17590157480315
 30
0.0
 10
1.81738188976378
 20
2.17590157480315
 30
0.0
 10
1.81738188976378
 20
2.17590157480315
 30
0.0
 10
1.776216535433071
 20
2.17590157480315
 30
0.0
 10
1.776216535433071
 20
2.17590157480315
 30
0.0
 10
1.776216535433071
 20
2.17590157480315
 30
0.0
 10
1.776216535433071
 20
2.17590157480315
 30
0.0
 10
1.767409448818898
 20
2.151318897637796
 30
0.0
 10
1.767409448818898
 20
2.151318897637796
 30
0.0
 10
1.767409448818898
 20
2.151318897637796
 30
0.0
 10
1.766492125984252
 20
2.148763779527559
 30
0.0
 10
1.76601968503937
 20
2.147011811023622
 30
0.0
 10
1.76601968503937
 20
2.146011811023622
 30
0.0
 10
1.76601968503937
 20
2.146011811023622
 30
0.0
 10
1.76601968503937
 20
2.144929133858268
 30
0.0
 10
1.766326771653543
 20
2.143984251968504
 30
0.0
 10
1.76688188976378
 20
2.143181102362205
 30
0.0
 10
1.76688188976378
 20
2.143181102362205
 30
0.0
 10
1.767464566929134
 20
2.142374015748032
 30
0.0
 10
1.768216535433071
 20
2.141763779527559
 30
0.0
 10
1.769216535433071
 20
2.141346456692914
 30
0.0
 10
1.769216535433071
 20
2.141346456692914
 30
0.0
 10
1.770188976377953
 20
2.140929133858268
 30
0.0
 10
1.771744094488189
 20
2.140736220472441
 30
0.0
 10
1.773937007874016
 20
2.140736220472441
 30
0.0
 10
1.773937007874016
 20
2.140736220472441
 30
0.0
 10
1.77538188976378
 20
2.140736220472441
 30
0.0
 10
1.776574803149607
 20
2.140708661417323
 30
0.0
 10
1.777492125984252
 20
2.140653543307087
 30
0.0
 10
1.777492125984252
 20
2.140653543307087
 30
0.0
 10
1.777492125984252
 20
2.140653543307087
 30
0.0
 10
1.777492125984252
 20
2.133818897637795
 30
0.0
 10
1.777492125984252
 20
2.133818897637795
 30
0.0
 10
1.777492125984252
 20
2.133818897637795
 30
0.0
 10
1.777492125984252
 20
2.133818897637795
 30
0.0
 10
1.743574803149606
 20
2.133818897637795
 30
0.0
 10
1.743574803149606
 20
2.133818897637795
 30
0.0
 10
1.743574803149606
 20
2.133818897637795
 30
0.0
 10
1.743574803149606
 20
2.133818897637795
 30
0.0
 10
1.743574803149606
 20
2.140653543307087
 30
0.0
 10
1.743574803149606
 20
2.140653543307087
 30
0.0
 10
1.743574803149606
 20
2.140653543307087
 30
0.0
 10
1.746716535433071
 20
2.140653543307087
 30
0.0
 10
1.748992125984252
 20
2.140956692913386
 30
0.0
 10
1.750354330708662
 20
2.14159842519685
 30
0.0
 10
1.750354330708662
 20
2.14159842519685
 30
0.0
 10
1.751744094488189
 20
2.142208661417323
 30
0.0
 10
1.752964566929134
 20
2.143208661417323
 30
0.0
 10
1.753992125984252
 20
2.14459842519685
 30
0.0
 10
1.753992125984252
 20
2.14459842519685
 30
0.0
 10
1.75501968503937
 20
2.145984251968504
 30
0.0
 10
1.75638188976378
 20
2.14890157480315
 30
0.0
 10
1.758047244094488
 20
2.153346456692913
 30
0.0
 10
1.758047244094488
 20
2.153346456692913
 30
0.0
 10
1.758047244094488
 20
2.153346456692913
 30
0.0
 10
1.793464566929134
 20
2.247346456692914
 30
0.0
 10
1.793464566929134
 20
2.247346456692914
 30
0.0
  0
SPLINE
  5
98
330
1F
100
AcDbEntity
  8
LAYER_1
 62
   250
100
AcDbSpline
210
0.0
220
0.0
230
1.0
 70
    11
 71
     3
 72
    16
 73
    12
 74
     0
 42
0.0000000001
 43
0.0000000001
 40
0.0
 40
0.0
 40
0.0
 40
0.0
 40
0.3333333333333333
 40
0.3333333333333333
 40
0.3333333333333333
 40
0.3333333333333333
 40
0.6666666666666666
 40
0.6666666666666666
 40
0.6666666666666666
 40
0.6666666666666666
 40
1.0
 40
1.0
 40
1.0
 40
1.0
 10
1.779216535433071
 20
2.183874015748032
 30
0.0
 10
1.779216535433071
 20
2.183874015748032
 30
0.0
 10
1.814299212598425
 20
2.183874015748032
 30
0.0
 10
1.814299212598425
 20
2.183874015748032
 30
0.0
 10
1.814299212598425
 20
2.183874015748032
 30
0.0
 10
1.814299212598425
 20
2.183874015748032
 30
0.0
 10
1.796716535433071
 20
2.232708661417323
 30
0.0
 10
1.796716535433071
 20
2.232708661417323
 30
0.0
 10
1.796716535433071
 20
2.232708661417323
 30
0.0
 10
1.796716535433071
 20
2.232708661417323
 30
0.0
 10
1.779216535433071
 20
2.183874015748032
 30
0.0
 10
1.779216535433071
 20
2.183874015748032
 30
0.0
  0
SPLINE
  5
99
330
1F
100
AcDbEntity
  8
LAYER_1
 62
   250
100
AcDbSpline
210
0.0
220
0.0
230
1.0
 70
    11
 71
     3
 72
    72
 73
    68
 74
     0
 42
0.0000000001
 43
0.0000000001
 40
0.0
 40
0.0
 40
0.0
 40
0.0
 40
0.0588235294117647
 40
0.0588235294117647
 40
0.0588235294117647
 40
0.0588235294117647
 40
0.1176470588235294
 40
0.1176470588235294
 40
0.1176470588235294
 40
0.1176470588235294
 40
0.1764705882352941
 40
0.1764705882352941
 40
0.1764705882352941
 40
0.1764705882352941
 40
0.2352941176470588
 40
0.2352941176470588
 40
0.2352941176470588
 40
0.2352941176470588
 40
0.2941176470588235
 40
0.2941176470588235
 40
0.2941176470588235
 40
0.2941176470588235
 40
0.3529411764705883
 40
0.3529411764705883
 40
0.3529411764705883
 40
0.3529411764705883
 40
0.411764705882353
 40
0.411764705882353
 40
0.411764705882353
 40
0.411764705882353
 40
0.4705882352941177
 40
0.4705882352941177
 40
0.4705882352941177
 40
0.4705882352941177
 40
0.5294117647058824
 40
0.5294117647058824
 40
0.5294117647058824
 40
0.5294117647058824
 40
0.5882352941176471
 40
0.5882352941176471
 40
0.5882352941176471
 40
0.5882352941176471
 40
0.6470588235294118
 40
0.6470588235294118
 40
0.6470588235294118
 40
0.6470588235294118
 40
0.7058823529411765
 40
0.7058823529411765
 40
0.7058823529411765
 40
0.7058823529411765
 40
0.7647058823529412
 40
0.7647058823529412
 40
0.7647058823529412
 40
0.7647058823529412
 40
0.823529411764706
 40
0.823529411764706
 40
0.823529411764706
 40
0.823529411764706
 40
0.8823529411764707
 40
0.8823529411764707
 40
0.8823529411764707
 40
0.8823529411764707
 40
0.9411764705882354
 40
0.9411764705882354
 40
0.9411764705882354
 40
0.9411764705882354
 40
1.0
 40
1.0
 40
1.0
 40
1.0
 10
2.019299212598425
 20
2.247346456692914
 30
0.0
 10
2.019299212598425
 20
2.247346456692914
 30
0.0
 10
2.025381889763779
 20
2.247346456692914
 30
0.0
 10
2.025381889763779
 20
2.247346456692914
 30
0.0
 10
2.025381889763779
 20
2.247346456692914
 30
0.0
 10
2.025381889763779
 20
2.247346456692914
 30
0.0
 10
2.025381889763779
 20
2.153098425196851
 30
0.0
 10
2.025381889763779
 20
2.153098425196851
 30
0.0
 10
2.025381889763779
 20
2.153098425196851
 30
0.0
 10
2.025381889763779
 20
2.148653543307087
 30
0.0
 10
2.025688976377953
 20
2.145791338582678
 30
0.0
 10
2.026244094488189
 20
2.144511811023622
 30
0.0
 10
2.026244094488189
 20
2.144511811023622
 30
0.0
 10
2.026826771653544
 20
2.143236220472441
 30
0.0
 10
2.027744094488189
 20
2.142291338582677
 30
0.0
 10
2.029047244094488
 20
2.141625984251969
 30
0.0
 10
2.029047244094488
 20
2.141625984251969
 30
0.0
 10
2.030354330708661
 20
2.140984251968504
 30
0.0
 10
2.032937007874016
 20
2.140653543307087
 30
0.0
 10
2.036799212598425
 20
2.140653543307087
 30
0.0
 10
2.036799212598425
 20
2.140653543307087
 30
0.0
 10
2.036799212598425
 20
2.140653543307087
 30
0.0
 10
2.044771653543307
 20
2.140653543307087
 30
0.0
 10
2.044771653543307
 20
2.140653543307087
 30
0.0
 10
2.044771653543307
 20
2.140653543307087
 30
0.0
 10
2.044771653543307
 20
2.140653543307087
 30
0.0
 10
2.044771653543307
 20
2.133818897637795
 30
0.0
 10
2.044771653543307
 20
2.133818897637795
 30
0.0
 10
2.044771653543307
 20
2.133818897637795
 30
0.0
 10
2.044771653543307
 20
2.133818897637795
 30
0.0
 10
1.991133858267717
 20
2.133818897637795
 30
0.0
 10
1.991133858267717
 20
2.133818897637795
 30
0.0
 10
1.991133858267717
 20
2.133818897637795
 30
0.0
 10
1.991133858267717
 20
2.133818897637795
 30
0.0
 10
1.991133858267717
 20
2.140653543307087
 30
0.0
 10
1.991133858267717
 20
2.140653543307087
 30
0.0
 10
1.991133858267717
 20
2.140653543307087
 30
0.0
 10
1.991133858267717
 20
2.140653543307087
 30
0.0
 10
1.999992125984252
 20
2.140653543307087
 30
0.0
 10
1.999992125984252
 20
2.140653543307087
 30
0.0
 10
1.999992125984252
 20
2.140653543307087
 30
0.0
 10
2.003854330708661
 20
2.140653543307087
 30
0.0
 10
2.006409448818898
 20
2.140984251968504
 30
0.0
 10
2.007688976377953
 20
2.141681102362205
 30
0.0
 10
2.007688976377953
 20
2.141681102362205
 30
0.0
 10
2.008964566929134
 20
2.142346456692914
 30
0.0
 10
2.009964566929134
 20
2.143429133858268
 30
0.0
 10
2.010661417322835
 20
2.144929133858268
 30
0.0
 10
2.010661417322835
 20
2.144929133858268
 30
0.0
 10
2.011354330708662
 20
2.146429133858268
 30
0.0
 10
2.011716535433071
 20
2.149153543307087
 30
0.0
 10
2.011716535433071
 20
2.153098425196851
 30
0.0
 10
2.011716535433071
 20
2.153098425196851
 30
0.0
 10
2.011716535433071
 20
2.153098425196851
 30
0.0
 10
2.011716535433071
 20
2.230566929133858
 30
0.0
 10
2.011716535433071
 20
2.230566929133858
 30
0.0
 10
2.011716535433071
 20
2.230566929133858
 30
0.0
 10
2.011716535433071
 20
2.230566929133858
 30
0.0
 10
1.991133858267717
 20
2.230566929133858
 30
0.0
 10
1.991133858267717
 20
2.230566929133858
 30
0.0
 10
1.991133858267717
 20
2.230566929133858
 30
0.0
 10
1.991133858267717
 20
2.230566929133858
 30
0.0
 10
1.991133858267717
 20
2.237566929133859
 30
0.0
 10
1.991133858267717
 20
2.237566929133859
 30
0.0
 10
1.991133858267717
 20
2.237566929133859
 30
0.0
 10
2.002354330708661
 20
2.239149606299213
 30
0.0
 10
2.011744094488189
 20
2.24240157480315
 30
0.0
 10
2.019299212598425
 20
2.247346456692914
 30
0.0
  0
SPLINE
  5
9A
330
1F
100
AcDbEntity
  8
LAYER_1
 62
   250
100
AcDbSpline
210
0.0
220
0.0
230
1.0
 70
    11
 71
     3
 72
    80
 73
    76
 74
     0
 42
0.0000000001
 43
0.0000000001
 40
0.0
 40
0.0
 40
0.0
 40
0.0
 40
0.0526315789473684
 40
0.0526315789473684
 40
0.0526315789473684
 40
0.0526315789473684
 40
0.1052631578947368
 40
0.1052631578947368
 40
0.1052631578947368
 40
0.1052631578947368
 40
0.1578947368421053
 40
0.1578947368421053
 40
0.1578947368421053
 40
0.1578947368421053
 40
0.2105263157894737
 40
0.2105263157894737
 40
0.2105263157894737
 40
0.2105263157894737
 40
0.2631578947368421
 40
0.2631578947368421
 40
0.2631578947368421
 40
0.2631578947368421
 40
0.3157894736842105
 40
0.3157894736842105
 40
0.3157894736842105
 40
0.3157894736842105
 40
0.3684210526315789
 40
0.3684210526315789
 40
0.3684210526315789
 40
0.3684210526315789
 40
0.4210526315789474
 40
0.4210526315789474
 40
0.4210526315789474
 40
0.4210526315789474
 40
0.4736842105263158
 40
0.4736842105263158
 40
0.4736842105263158
 40
0.4736842105263158
 40
0.5263157894736842
 40
0.5263157894736842
 40
0.5263157894736842
 40
0.5263157894736842
 40
0.5789473684210527
 40
0.5789473684210527
 40
0.5789473684210527
 40
0.5789473684210527
 40
0.631578947368421
 40
0.631578947368421
 40
0.631578947368421
 40
0.631578947368421
 40
0.6842105263157894
 40
0.6842105263157894
 40
0.6842105263157894
 40
0.6842105263157894
 40
0.7368421052631577
 40
0.7368421052631577
 40
0.7368421052631577
 40
0.7368421052631577
 40
0.7894736842105261
 40
0.7894736842105261
 40
0.7894736842105261
 40
0.7894736842105261
 40
0.8421052631578945
 40
0.8421052631578945
 40
0.8421052631578945
 40
0.8421052631578945
 40
0.8947368421052628
 40
0.8947368421052628
 40
0.8947368421052628
 40
0.8947368421052628
 40
0.9473684210526312
 40
0.9473684210526312
 40
0.9473684210526312
 40
0.9473684210526312
 40
1.0
 40
1.0
 40
1.0
 40
1.0
 10
2.084716535433071
 20
2.251484251968504
 30
0.0
 10
2.084716535433071
 20
2.251484251968504
 30
0.0
 10
2.090106299212599
 20
2.251484251968504
 30
0.0
 10
2.090106299212599
 20
2.251484251968504
 30
0.0
 10
2.090106299212599
 20
2.251484251968504
 30
0.0
 10
2.090106299212599
 20
2.251484251968504
 30
0.0
 10
2.09107874015748
 20
2.247346456692914
 30
0.0
 10
2.09107874015748
 20
2.247346456692914
 30
0.0
 10
2.09107874015748
 20
2.247346456692914
 30
0.0
 10
2.09107874015748
 20
2.247346456692914
 30
0.0
 10
2.162188976377953
 20
2.247346456692914
 30
0.0
 10
2.162188976377953
 20
2.247346456692914
 30
0.0
 10
2.162188976377953
 20
2.247346456692914
 30
0.0
 10
2.162188976377953
 20
2.247346456692914
 30
0.0
 10
2.162188976377953
 20
2.240429133858268
 30
0.0
 10
2.162188976377953
 20
2.240429133858268
 30
0.0
 10
2.162188976377953
 20
2.240429133858268
 30
0.0
 10
2.153688976377953
 20
2.230594488188976
 30
0.0
 10
2.145964566929134
 20
2.219429133858268
 30
0.0
 10
2.139051181102362
 20
2.206846456692913
 30
0.0
 10
2.139051181102362
 20
2.206846456692913
 30
0.0
 10
2.132133858267717
 20
2.194291338582677
 30
0.0
 10
2.126771653543307
 20
2.181511811023622
 30
0.0
 10
2.122964566929134
 20
2.168484251968504
 30
0.0
 10
2.122964566929134
 20
2.168484251968504
 30
0.0
 10
2.120216535433071
 20
2.15909842519685
 30
0.0
 10
2.117968503937008
 20
2.14753937007874
 30
0.0
 10
2.116216535433071
 20
2.133818897637795
 30
0.0
 10
2.116216535433071
 20
2.133818897637795
 30
0.0
 10
2.116216535433071
 20
2.133818897637795
 30
0.0
 10
2.099551181102362
 20
2.133818897637795
 30
0.0
 10
2.099551181102362
 20
2.133818897637795
 30
0.0
 10
2.099551181102362
 20
2.133818897637795
 30
0.0
 10
2.101161417322835
 20
2.145929133858268
 30
0.0
 10
2.103826771653544
 20
2.157236220472441
 30
0.0
 10
2.107551181102362
 20
2.167763779527559
 30
0.0
 10
2.107551181102362
 20
2.167763779527559
 30
0.0
 10
2.111271653543307
 20
2.178291338582677
 30
0.0
 10
2.116633858267717
 20
2.189291338582677
 30
0.0
 10
2.123661417322835
 20
2.200763779527559
 30
0.0
 10
2.123661417322835
 20
2.200763779527559
 30
0.0
 10
2.130688976377953
 20
2.212236220472441
 30
0.0
 10
2.139216535433071
 20
2.223681102362205
 30
0.0
 10
2.149271653543307
 20
2.235122047244095
 30
0.0
 10
2.149271653543307
 20
2.235122047244095
 30
0.0
 10
2.149271653543307
 20
2.235122047244095
 30
0.0
 10
2.098551181102363
 20
2.235122047244095
 30
0.0
 10
2.098551181102363
 20
2.235122047244095
 30
0.0
 10
2.098551181102363
 20
2.235122047244095
 30
0.0
 10
2.09488188976378
 20
2.235122047244095
 30
0.0
 10
2.092354330708662
 20
2.234956692913386
 30
0.0
 10
2.090996062992126
 20
2.234566929133858
 30
0.0
 10
2.090996062992126
 20
2.234566929133858
 30
0.0
 10
2.089633858267717
 20
2.234181102362205
 30
0.0
 10
2.08857874015748
 20
2.233594488188976
 30
0.0
 10
2.087826771653544
 20
2.232791338582677
 30
0.0
 10
2.087826771653544
 20
2.232791338582677
 30
0.0
 10
2.087051181102362
 20
2.231956692913386
 30
0.0
 10
2.086409448818898
 20
2.230511811023622
 30
0.0
 10
2.085854330708662
 20
2.228456692913386
 30
0.0
 10
2.085854330708662
 20
2.228456692913386
 30
0.0
 10
2.085854330708662
 20
2.228456692913386
 30
0.0
 10
2.085468503937008
 20
2.226929133858268
 30
0.0
 10
2.085468503937008
 20
2.226929133858268
 30
0.0
 10
2.085468503937008
 20
2.226929133858268
 30
0.0
 10
2.085468503937008
 20
2.226929133858268
 30
0.0
 10
2.082688976377953
 20
2.217318897637795
 30
0.0
 10
2.082688976377953
 20
2.217318897637795
 30
0.0
 10
2.082688976377953
 20
2.217318897637795
 30
0.0
 10
2.082688976377953
 20
2.217318897637795
 30
0.0
 10
2.075771653543307
 20
2.218791338582677
 30
0.0
 10
2.075771653543307
 20
2.218791338582677
 30
0.0
 10
2.075771653543307
 20
2.218791338582677
 30
0.0
 10
2.075771653543307
 20
2.218791338582677
 30
0.0
 10
2.084716535433071
 20
2.251484251968504
 30
0.0
 10
2.084716535433071
 20
2.251484251968504
 30
0.0
  0
SPLINE
  5
9B
330
1F
100
AcDbEntity
  8
LAYER_1
 62
   250
100
AcDbSpline
210
0.0
220
0.0
230
1.0
 70
    11
 71
     3
 72
   136
 73
   132
 74
     0
 42
0.0000000001
 43
0.0000000001
 40
0.0
 40
0.0
 40
0.0
 40
0.0
 40
0.0303030303030303
 40
0.0303030303030303
 40
0.0303030303030303
 40
0.0303030303030303
 40
0.0606060606060606
 40
0.0606060606060606
 40
0.0606060606060606
 40
0.0606060606060606
 40
0.0909090909090909
 40
0.0909090909090909
 40
0.0909090909090909
 40
0.0909090909090909
 40
0.1212121212121212
 40
0.1212121212121212
 40
0.1212121212121212
 40
0.1212121212121212
 40
0.1515151515151515
 40
0.1515151515151515
 40
0.1515151515151515
 40
0.1515151515151515
 40
0.1818181818181818
 40
0.1818181818181818
 40
0.1818181818181818
 40
0.1818181818181818
 40
0.2121212121212121
 40
0.2121212121212121
 40
0.2121212121212121
 40
0.2121212121212121
 40
0.2424242424242424
 40
0.2424242424242424
 40
0.2424242424242424
 40
0.2424242424242424
 40
0.2727272727272727
 40
0.2727272727272727
 40
0.2727272727272727
 40
0.2727272727272727
 40
0.303030303030303
 40
0.303030303030303
 40
0.303030303030303
 40
0.303030303030303
 40
0.3333333333333333
 40
0.3333333333333333
 40
0.3333333333333333
 40
0.3333333333333333
 40
0.3636363636363635
 40
0.3636363636363635
 40
0.3636363636363635
 40
0.3636363636363635
 40
0.3939393939393938
 40
0.3939393939393938
 40
0.3939393939393938
 40
0.3939393939393938
 40
0.4242424242424241
 40
0.4242424242424241
 40
0.4242424242424241
 40
0.4242424242424241
 40
0.4545454545454544
 40
0.4545454545454544
 40
0.4545454545454544
 40
0.4545454545454544
 40
0.4848484848484846
 40
0.4848484848484846
 40
0.4848484848484846
 40
0.4848484848484846
 40
0.5151515151515149
 40
0.5151515151515149
 40
0.5151515151515149
 40
0.5151515151515149
 40
0.5454545454545452
 40
0.5454545454545452
 40
0.5454545454545452
 40
0.5454545454545452
 40
0.5757575757575755
 40
0.5757575757575755
 40
0.5757575757575755
 40
0.5757575757575755
 40
0.6060606060606057
 40
0.6060606060606057
 40
0.6060606060606057
 40
0.6060606060606057
 40
0.636363636363636
 40
0.636363636363636
 40
0.636363636363636
 40
0.636363636363636
 40
0.6666666666666663
 40
0.6666666666666663
 40
0.6666666666666663
 40
0.6666666666666663
 40
0.6969696969696966
 40
0.6969696969696966
 40
0.6969696969696966
 40
0.6969696969696966
 40
0.7272727272727269
 40
0.7272727272727269
 40
0.7272727272727269
 40
0.7272727272727269
 40
0.7575757575757571
 40
0.7575757575757571
 40
0.7575757575757571
 40
0.7575757575757571
 40
0.7878787878787874
 40
0.7878787878787874
 40
0.7878787878787874
 40
0.7878787878787874
 40
0.8181818181818177
 40
0.8181818181818177
 40
0.8181818181818177
 40
0.8181818181818177
 40
0.848484848484848
 40
0.848484848484848
 40
0.848484848484848
 40
0.848484848484848
 40
0.8787878787878782
 40
0.8787878787878782
 40
0.8787878787878782
 40
0.8787878787878782
 40
0.9090909090909085
 40
0.9090909090909085
 40
0.9090909090909085
 40
0.9090909090909085
 40
0.9393939393939388
 40
0.9393939393939388
 40
0.9393939393939388
 40
0.9393939393939388
 40
0.9696969696969691
 40
0.9696969696969691
 40
0.9696969696969691
 40
0.9696969696969691
 40
1.0
 40
1.0
 40
1.0
 40
1.0
 10
2.188913385826772
 20
2.20453937007874
 30
0.0
 10
2.188913385826772
 20
2.20453937007874
 30
0.0
 10
2.181023622047244
 20
2.203566929133858
 30
0.0
 10
2.181023622047244
 20
2.203566929133858
 30
0.0
 10
2.181023622047244
 20
2.203566929133858
 30
0.0
 10
2.18057874015748
 20
2.20740157480315
 30
0.0
 10
2.180358267716536
 20
2.210566929133858
 30
0.0
 10
2.180358267716536
 20
2.213011811023622
 30
0.0
 10
2.180358267716536
 20
2.213011811023622
 30
0.0
 10
2.180358267716536
 20
2.21940157480315
 30
0.0
 10
2.182106299212598
 20
2.225456692913386
 30
0.0
 10
2.18557874015748
 20
2.231149606299213
 30
0.0
 10
2.18557874015748
 20
2.231149606299213
 30
0.0
 10
2.189051181102362
 20
2.236846456692914
 30
0.0
 10
2.193885826771654
 20
2.241291338582677
 30
0.0
 10
2.200106299212599
 20
2.244484251968504
 30
0.0
 10
2.200106299212599
 20
2.244484251968504
 30
0.0
 10
2.206299212598425
 20
2.247708661417323
 30
0.0
 10
2.21344094488189
 20
2.249291338582677
 30
0.0
 10
2.221468503937008
 20
2.249291338582677
 30
0.0
 10
2.221468503937008
 20
2.249291338582677
 30
0.0
 10
2.229216535433071
 20
2.249291338582677
 30
0.0
 10
2.236023622047244
 20
2.247791338582677
 30
0.0
 10
2.241885826771654
 20
2.244791338582677
 30
0.0
 10
2.241885826771654
 20
2.244791338582677
 30
0.0
 10
2.247744094488189
 20
2.241763779527559
 30
0.0
 10
2.252216535433071
 20
2.237649606299213
 30
0.0
 10
2.255354330708661
 20
2.23240157480315
 30
0.0
 10
2.255354330708661
 20
2.23240157480315
 30
0.0
 10
2.258468503937008
 20
2.227181102362205
 30
0.0
 10
2.260023622047244
 20
2.221208661417323
 30
0.0
 10
2.260023622047244
 20
2.214456692913386
 30
0.0
 10
2.260023622047244
 20
2.214456692913386
 30
0.0
 10
2.260023622047244
 20
2.208763779527559
 30
0.0
 10
2.259023622047244
 20
2.203484251968504
 30
0.0
 10
2.256968503937008
 20
2.198653543307087
 30
0.0
 10
2.256968503937008
 20
2.198653543307087
 30
0.0
 10
2.25494094488189
 20
2.193791338582677
 30
0.0
 10
2.251661417322835
 20
2.188874015748032
 30
0.0
 10
2.247161417322835
 20
2.183956692913386
 30
0.0
 10
2.247161417322835
 20
2.183956692913386
 30
0.0
 10
2.243799212598425
 20
2.180263779527559
 30
0.0
 10
2.236996062992126
 20
2.174625984251969
 30
0.0
 10
2.226744094488189
 20
2.167011811023622
 30
0.0
 10
2.226744094488189
 20
2.167011811023622
 30
0.0
 10
2.213830708661417
 20
2.157374015748032
 30
0.0
 10
2.20394094488189
 20
2.150374015748032
 30
0.0
 10
2.197051181102362
 20
2.146011811023622
 30
0.0
 10
2.197051181102362
 20
2.146011811023622
 30
0.0
 10
2.197051181102362
 20
2.146011811023622
 30
0.0
 10
2.239358267716535
 20
2.146011811023622
 30
0.0
 10
2.239358267716535
 20
2.146011811023622
 30
0.0
 10
2.239358267716535
 20
2.146011811023622
 30
0.0
 10
2.244358267716536
 20
2.146011811023622
 30
0.0
 10
2.247606299212599
 20
2.146484251968504
 30
0.0
 10
2.249133858267717
 20
2.14740157480315
 30
0.0
 10
2.249133858267717
 20
2.14740157480315
 30
0.0
 10
2.251244094488189
 20
2.14859842519685
 30
0.0
 10
2.252688976377953
 20
2.151374015748031
 30
0.0
 10
2.25344094488189
 20
2.155708661417323
 30
0.0
 10
2.25344094488189
 20
2.155708661417323
 30
0.0
 10
2.25344094488189
 20
2.155708661417323
 30
0.0
 10
2.254161417322835
 20
2.160346456692913
 30
0.0
 10
2.254161417322835
 20
2.160346456692913
 30
0.0
 10
2.254161417322835
 20
2.160346456692913
 30
0.0
 10
2.254161417322835
 20
2.160346456692913
 30
0.0
 10
2.261078740157481
 20
2.160346456692913
 30
0.0
 10
2.261078740157481
 20
2.160346456692913
 30
0.0
 10
2.261078740157481
 20
2.160346456692913
 30
0.0
 10
2.261078740157481
 20
2.160346456692913
 30
0.0
 10
2.255551181102362
 20
2.129763779527559
 30
0.0
 10
2.255551181102362
 20
2.129763779527559
 30
0.0
 10
2.255551181102362
 20
2.129763779527559
 30
0.0
 10
2.255551181102362
 20
2.129763779527559
 30
0.0
 10
2.250358267716536
 20
2.129763779527559
 30
0.0
 10
2.250358267716536
 20
2.129763779527559
 30
0.0
 10
2.250358267716536
 20
2.129763779527559
 30
0.0
 10
2.250358267716536
 20
2.129763779527559
 30
0.0
 10
2.24944094488189
 20
2.133818897637795
 30
0.0
 10
2.24944094488189
 20
2.133818897637795
 30
0.0
 10
2.24944094488189
 20
2.133818897637795
 30
0.0
 10
2.24944094488189
 20
2.133818897637795
 30
0.0
 10
2.178330708661417
 20
2.133818897637795
 30
0.0
 10
2.178330708661417
 20
2.133818897637795
 30
0.0
 10
2.178330708661417
 20
2.133818897637795
 30
0.0
 10
2.178330708661417
 20
2.133818897637795
 30
0.0
 10
2.178330708661417
 20
2.140653543307087
 30
0.0
 10
2.178330708661417
 20
2.140653543307087
 30
0.0
 10
2.178330708661417
 20
2.140653543307087
 30
0.0
 10
2.178330708661417
 20
2.140653543307087
 30
0.0
 10
2.191358267716535
 20
2.150511811023622
 30
0.0
 10
2.191358267716535
 20
2.150511811023622
 30
0.0
 10
2.191358267716535
 20
2.150511811023622
 30
0.0
 10
2.201216535433071
 20
2.157818897637795
 30
0.0
 10
2.208468503937008
 20
2.163429133858268
 30
0.0
 10
2.213078740157481
 20
2.167346456692914
 30
0.0
 10
2.213078740157481
 20
2.167346456692914
 30
0.0
 10
2.221799212598425
 20
2.174736220472441
 30
0.0
 10
2.228385826771654
 20
2.18103937007874
 30
0.0
 10
2.232799212598425
 20
2.186263779527559
 30
0.0
 10
2.232799212598425
 20
2.186263779527559
 30
0.0
 10
2.237216535433071
 20
2.191511811023622
 30
0.0
 10
2.240271653543307
 20
2.196236220472441
 30
0.0
 10
2.241913385826772
 20
2.200429133858268
 30
0.0
 10
2.241913385826772
 20
2.200429133858268
 30
0.0
 10
2.243578740157481
 20
2.204622047244095
 30
0.0
 10
2.244413385826772
 20
2.20903937007874
 30
0.0
 10
2.244413385826772
 20
2.213653543307087
 30
0.0
 10
2.244413385826772
 20
2.213653543307087
 30
0.0
 10
2.244413385826772
 20
2.221291338582677
 30
0.0
 10
2.24194094488189
 20
2.227566929133858
 30
0.0
 10
2.237051181102362
 20
2.232456692913386
 30
0.0
 10
2.237051181102362
 20
2.232456692913386
 30
0.0
 10
2.232133858267717
 20
2.237346456692913
 30
0.0
 10
2.225744094488189
 20
2.239763779527559
 30
0.0
 10
2.217885826771654
 20
2.239763779527559
 30
0.0
 10
2.217885826771654
 20
2.239763779527559
 30
0.0
 10
2.212244094488189
 20
2.239763779527559
 30
0.0
 10
2.207188976377953
 20
2.238566929133858
 30
0.0
 10
2.202771653543307
 20
2.236122047244094
 30
0.0
 10
2.202771653543307
 20
2.236122047244094
 30
0.0
 10
2.198358267716535
 20
2.233681102362205
 30
0.0
 10
2.194885826771654
 20
2.230263779527559
 30
0.0
 10
2.192330708661417
 20
2.225846456692914
 30
0.0
 10
2.192330708661417
 20
2.225846456692914
 30
0.0
 10
2.189771653543307
 20
2.221456692913386
 30
0.0
 10
2.188496062992126
 20
2.216708661417323
 30
0.0
 10
2.188496062992126
 20
2.211622047244095
 30
0.0
 10
2.188496062992126
 20
2.211622047244095
 30
0.0
 10
2.188496062992126
 20
2.209708661417323
 30
0.0
 10
2.188633858267717
 20
2.207346456692914
 30
0.0
 10
2.188913385826772
 20
2.20453937007874
 30
0.0
  0
SPLINE
  5
9C
330
1F
100
AcDbEntity
  8
LAYER_1
 62
   250
100
AcDbSpline
210
0.0
220
0.0
230
1.0
 70
    11
 71
     3
 72
    72
 73
    68
 74
     0
 42
0.0000000001
 43
0.0000000001
 40
0.0
 40
0.0
 40
0.0
 40
0.0
 40
0.0588235294117647
 40
0.0588235294117647
 40
0.0588235294117647
 40
0.0588235294117647
 40
0.1176470588235294
 40
0.1176470588235294
 40
0.1176470588235294
 40
0.1176470588235294
 40
0.1764705882352941
 40
0.1764705882352941
 40
0.1764705882352941
 40
0.1764705882352941
 40
0.2352941176470588
 40
0.2352941176470588
 40
0.2352941176470588
 40
0.2352941176470588
 40
0.2941176470588235
 40
0.2941176470588235
 40
0.2941176470588235
 40
0.2941176470588235
 40
0.3529411764705883
 40
0.3529411764705883
 40
0.3529411764705883
 40
0.3529411764705883
 40
0.411764705882353
 40
0.411764705882353
 40
0.411764705882353
 40
0.411764705882353
 40
0.4705882352941177
 40
0.4705882352941177
 40
0.4705882352941177
 40
0.4705882352941177
 40
0.5294117647058824
 40
0.5294117647058824
 40
0.5294117647058824
 40
0.5294117647058824
 40
0.5882352941176471
 40
0.5882352941176471
 40
0.5882352941176471
 40
0.5882352941176471
 40
0.6470588235294118
 40
0.6470588235294118
 40
0.6470588235294118
 40
0.6470588235294118
 40
0.7058823529411765
 40
0.7058823529411765
 40
0.7058823529411765
 40
0.7058823529411765
 40
0.7647058823529412
 40
0.7647058823529412
 40
0.7647058823529412
 40
0.7647058823529412
 40
0.823529411764706
 40
0.823529411764706
 40
0.823529411764706
 40
0.823529411764706
 40
0.8823529411764707
 40
0.8823529411764707
 40
0.8823529411764707
 40
0.8823529411764707
 40
0.9411764705882354
 40
0.9411764705882354
 40
0.9411764705882354
 40
0.9411764705882354
 40
1.0
 40
1.0
 40
1.0
 40
1.0
 10
2.329385826771654
 20
2.247346456692914
 30
0.0
 10
2.329385826771654
 20
2.247346456692914
 30
0.0
 10
2.335468503937008
 20
2.247346456692914
 30
0.0
 10
2.335468503937008
 20
2.247346456692914
 30
0.0
 10
2.335468503937008
 20
2.247346456692914
 30
0.0
 10
2.335468503937008
 20
2.247346456692914
 30
0.0
 10
2.335468503937008
 20
2.153098425196851
 30
0.0
 10
2.335468503937008
 20
2.153098425196851
 30
0.0
 10
2.335468503937008
 20
2.153098425196851
 30
0.0
 10
2.335468503937008
 20
2.148653543307087
 30
0.0
 10
2.335775590551181
 20
2.145791338582678
 30
0.0
 10
2.336330708661417
 20
2.144511811023622
 30
0.0
 10
2.336330708661417
 20
2.144511811023622
 30
0.0
 10
2.336913385826772
 20
2.143236220472441
 30
0.0
 10
2.337830708661417
 20
2.142291338582677
 30
0.0
 10
2.339133858267717
 20
2.141625984251969
 30
0.0
 10
2.339133858267717
 20
2.141625984251969
 30
0.0
 10
2.34044094488189
 20
2.140984251968504
 30
0.0
 10
2.343023622047244
 20
2.140653543307087
 30
0.0
 10
2.346885826771654
 20
2.140653543307087
 30
0.0
 10
2.346885826771654
 20
2.140653543307087
 30
0.0
 10
2.346885826771654
 20
2.140653543307087
 30
0.0
 10
2.354858267716536
 20
2.140653543307087
 30
0.0
 10
2.354858267716536
 20
2.140653543307087
 30
0.0
 10
2.354858267716536
 20
2.140653543307087
 30
0.0
 10
2.354858267716536
 20
2.140653543307087
 30
0.0
 10
2.354858267716536
 20
2.133818897637795
 30
0.0
 10
2.354858267716536
 20
2.133818897637795
 30
0.0
 10
2.354858267716536
 20
2.133818897637795
 30
0.0
 10
2.354858267716536
 20
2.133818897637795
 30
0.0
 10
2.301220472440945
 20
2.133818897637795
 30
0.0
 10
2.301220472440945
 20
2.133818897637795
 30
0.0
 10
2.301220472440945
 20
2.133818897637795
 30
0.0
 10
2.301220472440945
 20
2.133818897637795
 30
0.0
 10
2.301220472440945
 20
2.140653543307087
 30
0.0
 10
2.301220472440945
 20
2.140653543307087
 30
0.0
 10
2.301220472440945
 20
2.140653543307087
 30
0.0
 10
2.301220472440945
 20
2.140653543307087
 30
0.0
 10
2.310078740157481
 20
2.140653543307087
 30
0.0
 10
2.310078740157481
 20
2.140653543307087
 30
0.0
 10
2.310078740157481
 20
2.140653543307087
 30
0.0
 10
2.31394094488189
 20
2.140653543307087
 30
0.0
 10
2.316496062992126
 20
2.140984251968504
 30
0.0
 10
2.317775590551181
 20
2.141681102362205
 30
0.0
 10
2.317775590551181
 20
2.141681102362205
 30
0.0
 10
2.319051181102362
 20
2.142346456692914
 30
0.0
 10
2.320051181102362
 20
2.143429133858268
 30
0.0
 10
2.320748031496063
 20
2.144929133858268
 30
0.0
 10
2.320748031496063
 20
2.144929133858268
 30
0.0
 10
2.32144094488189
 20
2.146429133858268
 30
0.0
 10
2.321803149606299
 20
2.149153543307087
 30
0.0
 10
2.321803149606299
 20
2.153098425196851
 30
0.0
 10
2.321803149606299
 20
2.153098425196851
 30
0.0
 10
2.321803149606299
 20
2.153098425196851
 30
0.0
 10
2.321803149606299
 20
2.230566929133858
 30
0.0
 10
2.321803149606299
 20
2.230566929133858
 30
0.0
 10
2.321803149606299
 20
2.230566929133858
 30
0.0
 10
2.321803149606299
 20
2.230566929133858
 30
0.0
 10
2.301220472440945
 20
2.230566929133858
 30
0.0
 10
2.301220472440945
 20
2.230566929133858
 30
0.0
 10
2.301220472440945
 20
2.230566929133858
 30
0.0
 10
2.301220472440945
 20
2.230566929133858
 30
0.0
 10
2.301220472440945
 20
2.237566929133859
 30
0.0
 10
2.301220472440945
 20
2.237566929133859
 30
0.0
 10
2.301220472440945
 20
2.237566929133859
 30
0.0
 10
2.31244094488189
 20
2.239149606299213
 30
0.0
 10
2.321830708661417
 20
2.24240157480315
 30
0.0
 10
2.329385826771654
 20
2.247346456692914
 30
0.0
  0
SPLINE
  5
9D
330
1F
100
AcDbEntity
  8
LAYER_1
 62
   250
100
AcDbSpline
210
0.0
220
0.0
230
1.0
 70
    11
 71
     3
 72
    80
 73
    76
 74
     0
 42
0.0000000001
 43
0.0000000001
 40
0.0
 40
0.0
 40
0.0
 40
0.0
 40
0.0526315789473684
 40
0.0526315789473684
 40
0.0526315789473684
 40
0.0526315789473684
 40
0.1052631578947368
 40
0.1052631578947368
 40
0.1052631578947368
 40
0.1052631578947368
 40
0.1578947368421053
 40
0.1578947368421053
 40
0.1578947368421053
 40
0.1578947368421053
 40
0.2105263157894737
 40
0.2105263157894737
 40
0.2105263157894737
 40
0.2105263157894737
 40
0.2631578947368421
 40
0.2631578947368421
 40
0.2631578947368421
 40
0.2631578947368421
 40
0.3157894736842105
 40
0.3157894736842105
 40
0.3157894736842105
 40
0.3157894736842105
 40
0.3684210526315789
 40
0.3684210526315789
 40
0.3684210526315789
 40
0.3684210526315789
 40
0.4210526315789474
 40
0.4210526315789474
 40
0.4210526315789474
 40
0.4210526315789474
 40
0.4736842105263158
 40
0.4736842105263158
 40
0.4736842105263158
 40
0.4736842105263158
 40
0.5263157894736842
 40
0.5263157894736842
 40
0.5263157894736842
 40
0.5263157894736842
 40
0.5789473684210527
 40
0.5789473684210527
 40
0.5789473684210527
 40
0.5789473684210527
 40
0.631578947368421
 40
0.631578947368421
 40
0.631578947368421
 40
0.631578947368421
 40
0.6842105263157894
 40
0.6842105263157894
 40
0.6842105263157894
 40
0.6842105263157894
 40
0.7368421052631577
 40
0.7368421052631577
 40
0.7368421052631577
 40
0.7368421052631577
 40
0.7894736842105261
 40
0.7894736842105261
 40
0.7894736842105261
 40
0.7894736842105261
 40
0.8421052631578945
 40
0.8421052631578945
 40
0.8421052631578945
 40
0.8421052631578945
 40
0.8947368421052628
 40
0.8947368421052628
 40
0.8947368421052628
 40
0.8947368421052628
 40
0.9473684210526312
 40
0.9473684210526312
 40
0.9473684210526312
 40
0.9473684210526312
 40
1.0
 40
1.0
 40
1.0
 40
1.0
 10
1.458094488188976
 20
2.063984251968504
 30
0.0
 10
1.458094488188976
 20
2.063984251968504
 30
0.0
 10
1.463484251968504
 20
2.063984251968504
 30
0.0
 10
1.463484251968504
 20
2.063984251968504
 30
0.0
 10
1.463484251968504
 20
2.063984251968504
 30
0.0
 10
1.463484251968504
 20
2.063984251968504
 30
0.0
 10
1.464456692913386
 20
2.059846456692914
 30
0.0
 10
1.464456692913386
 20
2.059846456692914
 30
0.0
 10
1.464456692913386
 20
2.059846456692914
 30
0.0
 10
1.464456692913386
 20
2.059846456692914
 30
0.0
 10
1.535566929133858
 20
2.059846456692914
 30
0.0
 10
1.535566929133858
 20
2.059846456692914
 30
0.0
 10
1.535566929133858
 20
2.059846456692914
 30
0.0
 10
1.535566929133858
 20
2.059846456692914
 30
0.0
 10
1.535566929133858
 20
2.052929133858268
 30
0.0
 10
1.535566929133858
 20
2.052929133858268
 30
0.0
 10
1.535566929133858
 20
2.052929133858268
 30
0.0
 10
1.527066929133858
 20
2.043094488188976
 30
0.0
 10
1.519342519685039
 20
2.031929133858268
 30
0.0
 10
1.512429133858268
 20
2.019346456692913
 30
0.0
 10
1.512429133858268
 20
2.019346456692913
 30
0.0
 10
1.505511811023622
 20
2.006791338582677
 30
0.0
 10
1.500149606299213
 20
1.994011811023622
 30
0.0
 10
1.49634251968504
 20
1.980984251968504
 30
0.0
 10
1.49634251968504
 20
1.980984251968504
 30
0.0
 10
1.493594488188976
 20
1.971598425196851
 30
0.0
 10
1.491346456692914
 20
1.96003937007874
 30
0.0
 10
1.489594488188976
 20
1.946318897637795
 30
0.0
 10
1.489594488188976
 20
1.946318897637795
 30
0.0
 10
1.489594488188976
 20
1.946318897637795
 30
0.0
 10
1.472929133858268
 20
1.946318897637795
 30
0.0
 10
1.472929133858268
 20
1.946318897637795
 30
0.0
 10
1.472929133858268
 20
1.946318897637795
 30
0.0
 10
1.47453937007874
 20
1.958429133858268
 30
0.0
 10
1.477204724409449
 20
1.969736220472441
 30
0.0
 10
1.480929133858268
 20
1.980263779527559
 30
0.0
 10
1.480929133858268
 20
1.980263779527559
 30
0.0
 10
1.484649606299213
 20
1.990791338582677
 30
0.0
 10
1.490011811023622
 20
2.001791338582677
 30
0.0
 10
1.49703937007874
 20
2.013263779527559
 30
0.0
 10
1.49703937007874
 20
2.013263779527559
 30
0.0
 10
1.504066929133858
 20
2.024736220472441
 30
0.0
 10
1.512594488188976
 20
2.036181102362205
 30
0.0
 10
1.522649606299213
 20
2.047622047244095
 30
0.0
 10
1.522649606299213
 20
2.047622047244095
 30
0.0
 10
1.522649606299213
 20
2.047622047244095
 30
0.0
 10
1.471929133858268
 20
2.047622047244095
 30
0.0
 10
1.471929133858268
 20
2.047622047244095
 30
0.0
 10
1.471929133858268
 20
2.047622047244095
 30
0.0
 10
1.468259842519685
 20
2.047622047244095
 30
0.0
 10
1.465732283464567
 20
2.047456692913386
 30
0.0
 10
1.464374015748032
 20
2.047066929133858
 30
0.0
 10
1.464374015748032
 20
2.047066929133858
 30
0.0
 10
1.463011811023622
 20
2.046681102362205
 30
0.0
 10
1.461956692913386
 20
2.046094488188976
 30
0.0
 10
1.461204724409449
 20
2.045291338582677
 30
0.0
 10
1.461204724409449
 20
2.045291338582677
 30
0.0
 10
1.460429133858268
 20
2.044456692913386
 30
0.0
 10
1.459787401574803
 20
2.043011811023622
 30
0.0
 10
1.459232283464567
 20
2.040956692913386
 30
0.0
 10
1.459232283464567
 20
2.040956692913386
 30
0.0
 10
1.459232283464567
 20
2.040956692913386
 30
0.0
 10
1.458846456692913
 20
2.039429133858268
 30
0.0
 10
1.458846456692913
 20
2.039429133858268
 30
0.0
 10
1.458846456692913
 20
2.039429133858268
 30
0.0
 10
1.458846456692913
 20
2.039429133858268
 30
0.0
 10
1.456066929133858
 20
2.029818897637795
 30
0.0
 10
1.456066929133858
 20
2.029818897637795
 30
0.0
 10
1.456066929133858
 20
2.029818897637795
 30
0.0
 10
1.456066929133858
 20
2.029818897637795
 30
0.0
 10
1.449149606299213
 20
2.031291338582677
 30
0.0
 10
1.449149606299213
 20
2.031291338582677
 30
0.0
 10
1.449149606299213
 20
2.031291338582677
 30
0.0
 10
1.449149606299213
 20
2.031291338582677
 30
0.0
 10
1.458094488188976
 20
2.063984251968504
 30
0.0
 10
1.458094488188976
 20
2.063984251968504
 30
0.0
  0
SPLINE
  5
9E
330
1F
100
AcDbEntity
  8
LAYER_1
 62
   250
100
AcDbSpline
210
0.0
220
0.0
230
1.0
 70
    11
 71
     3
 72
    20
 73
    16
 74
     0
 42
0.0000000001
 43
0.0000000001
 40
0.0
 40
0.0
 40
0.0
 40
0.0
 40
0.25
 40
0.25
 40
0.25
 40
0.25
 40
0.5
 40
0.5
 40
0.5
 40
0.5
 40
0.75
 40
0.75
 40
0.75
 40
0.75
 40
1.0
 40
1.0
 40
1.0
 40
1.0
 10
1.624874015748032
 20
2.065708661417323
 30
0.0
 10
1.624874015748032
 20
2.065708661417323
 30
0.0
 10
1.569291338582677
 20
1.910011811023622
 30
0.0
 10
1.569291338582677
 20
1.910011811023622
 30
0.0
 10
1.569291338582677
 20
1.910011811023622
 30
0.0
 10
1.569291338582677
 20
1.910011811023622
 30
0.0
 10
1.557236220472441
 20
1.910011811023622
 30
0.0
 10
1.557236220472441
 20
1.910011811023622
 30
0.0
 10
1.557236220472441
 20
1.910011811023622
 30
0.0
 10
1.557236220472441
 20
1.910011811023622
 30
0.0
 10
1.612484251968504
 20
2.065708661417323
 30
0.0
 10
1.612484251968504
 20
2.065708661417323
 30
0.0
 10
1.612484251968504
 20
2.065708661417323
 30
0.0
 10
1.612484251968504
 20
2.065708661417323
 30
0.0
 10
1.624874015748032
 20
2.065708661417323
 30
0.0
 10
1.624874015748032
 20
2.065708661417323
 30
0.0
  0
SPLINE
  5
9F
330
1F
100
AcDbEntity
  8
LAYER_1
 62
   250
100
AcDbSpline
210
0.0
220
0.0
230
1.0
 70
    11
 71
     3
 72
    76
 73
    72
 74
     0
 42
0.0000000001
 43
0.0000000001
 40
0.0
 40
0.0
 40
0.0
 40
0.0
 40
0.0555555555555556
 40
0.0555555555555556
 40
0.0555555555555556
 40
0.0555555555555556
 40
0.1111111111111111
 40
0.1111111111111111
 40
0.1111111111111111
 40
0.1111111111111111
 40
0.1666666666666667
 40
0.1666666666666667
 40
0.1666666666666667
 40
0.1666666666666667
 40
0.2222222222222222
 40
0.2222222222222222
 40
0.2222222222222222
 40
0.2222222222222222
 40
0.2777777777777778
 40
0.2777777777777778
 40
0.2777777777777778
 40
0.2777777777777778
 40
0.3333333333333334
 40
0.3333333333333334
 40
0.3333333333333334
 40
0.3333333333333334
 40
0.388888888888889
 40
0.388888888888889
 40
0.388888888888889
 40
0.388888888888889
 40
0.4444444444444445
 40
0.4444444444444445
 40
0.4444444444444445
 40
0.4444444444444445
 40
0.5000000000000001
 40
0.5000000000000001
 40
0.5000000000000001
 40
0.5000000000000001
 40
0.5555555555555557
 40
0.5555555555555557
 40
0.5555555555555557
 40
0.5555555555555557
 40
0.6111111111111113
 40
0.6111111111111113
 40
0.6111111111111113
 40
0.6111111111111113
 40
0.6666666666666669
 40
0.6666666666666669
 40
0.6666666666666669
 40
0.6666666666666669
 40
0.7222222222222224
 40
0.7222222222222224
 40
0.7222222222222224
 40
0.7222222222222224
 40
0.777777777777778
 40
0.777777777777778
 40
0.777777777777778
 40
0.777777777777778
 40
0.8333333333333336
 40
0.8333333333333336
 40
0.8333333333333336
 40
0.8333333333333336
 40
0.8888888888888892
 40
0.8888888888888892
 40
0.8888888888888892
 40
0.8888888888888892
 40
0.9444444444444448
 40
0.9444444444444448
 40
0.9444444444444448
 40
0.9444444444444448
 40
1.0
 40
1.0
 40
1.0
 40
1.0
 10
1.707874015748032
 20
2.009318897637795
 30
0.0
 10
1.714291338582677
 20
2.006874015748032
 30
0.0
 10
1.719177165354331
 20
2.004566929133858
 30
0.0
 10
1.72253937007874
 20
2.00240157480315
 30
0.0
 10
1.72253937007874
 20
2.00240157480315
 30
0.0
 10
1.727456692913386
 20
1.999236220472441
 30
0.0
 10
1.731177165354331
 20
1.99553937007874
 30
0.0
 10
1.733677165354331
 20
1.991291338582677
 30
0.0
 10
1.733677165354331
 20
1.991291338582677
 30
0.0
 10
1.736177165354331
 20
1.987011811023622
 30
0.0
 10
1.737429133858268
 20
1.98240157480315
 30
0.0
 10
1.737429133858268
 20
1.97740157480315
 30
0.0
 10
1.737429133858268
 20
1.97740157480315
 30
0.0
 10
1.737429133858268
 20
1.968456692913386
 30
0.0
 10
1.733566929133858
 20
1.960708661417323
 30
0.0
 10
1.725874015748032
 20
1.954181102362205
 30
0.0
 10
1.725874015748032
 20
1.954181102362205
 30
0.0
 10
1.718149606299213
 20
1.947625984251969
 30
0.0
 10
1.707763779527559
 20
1.944374015748032
 30
0.0
 10
1.694704724409449
 20
1.944374015748032
 30
0.0
 10
1.694704724409449
 20
1.944374015748032
 30
0.0
 10
1.680874015748032
 20
1.944374015748032
 30
0.0
 10
1.670011811023622
 20
1.948066929133858
 30
0.0
 10
1.662149606299213
 20
1.955429133858268
 30
0.0
 10
1.662149606299213
 20
1.955429133858268
 30
0.0
 10
1.65590157480315
 20
1.961346456692914
 30
0.0
 10
1.652791338582677
 20
1.96803937007874
 30
0.0
 10
1.652791338582677
 20
1.97553937007874
 30
0.0
 10
1.652791338582677
 20
1.97553937007874
 30
0.0
 10
1.652791338582677
 20
1.981566929133858
 30
0.0
 10
1.65490157480315
 20
1.986956692913386
 30
0.0
 10
1.659122047244095
 20
1.991736220472441
 30
0.0
 10
1.659122047244095
 20
1.991736220472441
 30
0.0
 10
1.664236220472441
 20
1.997429133858268
 30
0.0
 10
1.671511811023622
 20
2.001874015748032
 30
0.0
 10
1.680956692913386
 20
2.005066929133859
 30
0.0
 10
1.680956692913386
 20
2.005066929133859
 30
0.0
 10
1.673566929133858
 20
2.00853937007874
 30
0.0
 10
1.668263779527559
 20
2.012066929133858
 30
0.0
 10
1.664984251968504
 20
2.015653543307087
 30
0.0
 10
1.664984251968504
 20
2.015653543307087
 30
0.0
 10
1.660818897637795
 20
2.020374015748032
 30
0.0
 10
1.658736220472441
 20
2.02603937007874
 30
0.0
 10
1.658736220472441
 20
2.032649606299213
 30
0.0
 10
1.658736220472441
 20
2.032649606299213
 30
0.0
 10
1.658736220472441
 20
2.040846456692913
 30
0.0
 10
1.661818897637795
 20
2.047484251968504
 30
0.0
 10
1.668011811023622
 20
2.052511811023622
 30
0.0
 10
1.668011811023622
 20
2.052511811023622
 30
0.0
 10
1.675594488188976
 20
2.058708661417323
 30
0.0
 10
1.685094488188976
 20
2.061791338582677
 30
0.0
 10
1.696484251968504
 20
2.061791338582677
 30
0.0
 10
1.696484251968504
 20
2.061791338582677
 30
0.0
 10
1.70690157480315
 20
2.061791338582677
 30
0.0
 10
1.715318897637795
 20
2.059122047244095
 30
0.0
 10
1.721763779527559
 20
2.053791338582677
 30
0.0
 10
1.721763779527559
 20
2.053791338582677
 30
0.0
 10
1.728177165354331
 20
2.048429133858268
 30
0.0
 10
1.73140157480315
 20
2.042318897637796
 30
0.0
 10
1.73140157480315
 20
2.035429133858268
 30
0.0
 10
1.73140157480315
 20
2.035429133858268
 30
0.0
 10
1.73140157480315
 20
2.032011811023622
 30
0.0
 10
1.730594488188977
 20
2.028736220472441
 30
0.0
 10
1.729011811023622
 20
2.025622047244095
 30
0.0
 10
1.729011811023622
 20
2.025622047244095
 30
0.0
 10
1.72740157480315
 20
2.022511811023622
 30
0.0
 10
1.724956692913386
 20
2.019594488188977
 30
0.0
 10
1.721622047244095
 20
2.016929133858268
 30
0.0
 10
1.721622047244095
 20
2.016929133858268
 30
0.0
 10
1.718318897637795
 20
2.014236220472441
 30
0.0
 10
1.713732283464567
 20
2.011708661417323
 30
0.0
 10
1.707874015748032
 20
2.009318897637795
 30
0.0
  0
SPLINE
  5
A0
330
1F
100
AcDbEntity
  8
LAYER_1
 62
   250
100
AcDbSpline
210
0.0
220
0.0
230
1.0
 70
    11
 71
     3
 72
    48
 73
    44
 74
     0
 42
0.0000000001
 43
0.0000000001
 40
0.0
 40
0.0
 40
0.0
 40
0.0
 40
0.0909090909090909
 40
0.0909090909090909
 40
0.0909090909090909
 40
0.0909090909090909
 40
0.1818181818181818
 40
0.1818181818181818
 40
0.1818181818181818
 40
0.1818181818181818
 40
0.2727272727272727
 40
0.2727272727272727
 40
0.2727272727272727
 40
0.2727272727272727
 40
0.3636363636363637
 40
0.3636363636363637
 40
0.3636363636363637
 40
0.3636363636363637
 40
0.4545454545454546
 40
0.4545454545454546
 40
0.4545454545454546
 40
0.4545454545454546
 40
0.5454545454545455
 40
0.5454545454545455
 40
0.5454545454545455
 40
0.5454545454545455
 40
0.6363636363636365
 40
0.6363636363636365
 40
0.6363636363636365
 40
0.6363636363636365
 40
0.7272727272727274
 40
0.7272727272727274
 40
0.7272727272727274
 40
0.7272727272727274
 40
0.8181818181818183
 40
0.8181818181818183
 40
0.8181818181818183
 40
0.8181818181818183
 40
0.9090909090909093
 40
0.9090909090909093
 40
0.9090909090909093
 40
0.9090909090909093
 40
1.0
 40
1.0
 40
1.0
 40
1.0
 10
1.700484251968504
 20
2.012318897637795
 30
0.0
 10
1.706649606299213
 20
2.016984251968504
 30
0.0
 10
1.710677165354331
 20
2.020236220472441
 30
0.0
 10
1.712511811023622
 20
2.022094488188976
 30
0.0
 10
1.712511811023622
 20
2.022094488188976
 30
0.0
 10
1.714374015748032
 20
2.023929133858268
 30
0.0
 10
1.715791338582677
 20
2.02603937007874
 30
0.0
 10
1.716791338582677
 20
2.02840157480315
 30
0.0
 10
1.716791338582677
 20
2.02840157480315
 30
0.0
 10
1.717791338582677
 20
2.030763779527559
 30
0.0
 10
1.718291338582677
 20
2.03303937007874
 30
0.0
 10
1.718291338582677
 20
2.035263779527559
 30
0.0
 10
1.718291338582677
 20
2.035263779527559
 30
0.0
 10
1.718291338582677
 20
2.038456692913386
 30
0.0
 10
1.717346456692914
 20
2.041511811023622
 30
0.0
 10
1.715456692913386
 20
2.044429133858268
 30
0.0
 10
1.715456692913386
 20
2.044429133858268
 30
0.0
 10
1.71353937007874
 20
2.047318897637795
 30
0.0
 10
1.710763779527559
 20
2.049681102362205
 30
0.0
 10
1.707094488188977
 20
2.051456692913386
 30
0.0
 10
1.707094488188977
 20
2.051456692913386
 30
0.0
 10
1.703456692913386
 20
2.053263779527559
 30
0.0
 10
1.699346456692914
 20
2.054149606299213
 30
0.0
 10
1.694791338582677
 20
2.054149606299213
 30
0.0
 10
1.694791338582677
 20
2.054149606299213
 30
0.0
 10
1.68803937007874
 20
2.054149606299213
 30
0.0
 10
1.682456692913386
 20
2.052291338582677
 30
0.0
 10
1.678011811023622
 20
2.048566929133858
 30
0.0
 10
1.678011811023622
 20
2.048566929133858
 30
0.0
 10
1.673566929133858
 20
2.044846456692913
 30
0.0
 10
1.671346456692914
 20
2.040566929133858
 30
0.0
 10
1.671346456692914
 20
2.035681102362205
 30
0.0
 10
1.671346456692914
 20
2.035681102362205
 30
0.0
 10
1.671346456692914
 20
2.031763779527559
 30
0.0
 10
1.672736220472441
 20
2.028263779527559
 30
0.0
 10
1.675484251968504
 20
2.025181102362205
 30
0.0
 10
1.675484251968504
 20
2.025181102362205
 30
0.0
 10
1.678263779527559
 20
2.022094488188976
 30
0.0
 10
1.68340157480315
 20
2.01903937007874
 30
0.0
 10
1.690956692913386
 20
2.016066929133858
 30
0.0
 10
1.690956692913386
 20
2.016066929133858
 30
0.0
 10
1.690956692913386
 20
2.016066929133858
 30
0.0
 10
1.700484251968504
 20
2.012318897637795
 30
0.0
 10
1.700484251968504
 20
2.012318897637795
 30
0.0
  0
SPLINE
  5
A1
330
1F
100
AcDbEntity
  8
LAYER_1
 62
   250
100
AcDbSpline
210
0.0
220
0.0
230
1.0
 70
    11
 71
     3
 72
    40
 73
    36
 74
     0
 42
0.0000000001
 43
0.0000000001
 40
0.0
 40
0.0
 40
0.0
 40
0.0
 40
0.1111111111111111
 40
0.1111111111111111
 40
0.1111111111111111
 40
0.1111111111111111
 40
0.2222222222222222
 40
0.2222222222222222
 40
0.2222222222222222
 40
0.2222222222222222
 40
0.3333333333333333
 40
0.3333333333333333
 40
0.3333333333333333
 40
0.3333333333333333
 40
0.4444444444444444
 40
0.4444444444444444
 40
0.4444444444444444
 40
0.4444444444444444
 40
0.5555555555555556
 40
0.5555555555555556
 40
0.5555555555555556
 40
0.5555555555555556
 40
0.6666666666666667
 40
0.6666666666666667
 40
0.6666666666666667
 40
0.6666666666666667
 40
0.7777777777777779
 40
0.7777777777777779
 40
0.7777777777777779
 40
0.7777777777777779
 40
0.8888888888888891
 40
0.8888888888888891
 40
0.8888888888888891
 40
0.8888888888888891
 40
1.0
 40
1.0
 40
1.0
 40
1.0
 10
1.689011811023622
 20
2.00190157480315
 30
0.0
 10
1.681346456692914
 20
1.99853937007874
 30
0.0
 10
1.675291338582677
 20
1.994181102362205
 30
0.0
 10
1.670846456692914
 20
1.988791338582677
 30
0.0
 10
1.670846456692914
 20
1.988791338582677
 30
0.0
 10
1.667374015748032
 20
1.984566929133858
 30
0.0
 10
1.665649606299213
 20
1.980181102362205
 30
0.0
 10
1.665649606299213
 20
1.975625984251969
 30
0.0
 10
1.665649606299213
 20
1.975625984251969
 30
0.0
 10
1.665649606299213
 20
1.969429133858268
 30
0.0
 10
1.668374015748032
 20
1.963929133858268
 30
0.0
 10
1.673874015748032
 20
1.959125984251969
 30
0.0
 10
1.673874015748032
 20
1.959125984251969
 30
0.0
 10
1.679346456692914
 20
1.954346456692913
 30
0.0
 10
1.686429133858268
 20
1.951929133858268
 30
0.0
 10
1.695094488188977
 20
1.951929133858268
 30
0.0
 10
1.695094488188977
 20
1.951929133858268
 30
0.0
 10
1.703956692913386
 20
1.951929133858268
 30
0.0
 10
1.711318897637795
 20
1.954681102362205
 30
0.0
 10
1.717232283464567
 20
1.960153543307087
 30
0.0
 10
1.717232283464567
 20
1.960153543307087
 30
0.0
 10
1.722066929133858
 20
1.964598425196851
 30
0.0
 10
1.724484251968504
 20
1.969374015748032
 30
0.0
 10
1.724484251968504
 20
1.974484251968504
 30
0.0
 10
1.724484251968504
 20
1.974484251968504
 30
0.0
 10
1.724484251968504
 20
1.978484251968504
 30
0.0
 10
1.72290157480315
 20
1.982318897637796
 30
0.0
 10
1.719732283464567
 20
1.985984251968504
 30
0.0
 10
1.719732283464567
 20
1.985984251968504
 30
0.0
 10
1.71653937007874
 20
1.989653543307087
 30
0.0
 10
1.710649606299213
 20
1.993208661417323
 30
0.0
 10
1.702011811023622
 20
1.996681102362205
 30
0.0
 10
1.702011811023622
 20
1.996681102362205
 30
0.0
 10
1.702011811023622
 20
1.996681102362205
 30
0.0
 10
1.689011811023622
 20
2.00190157480315
 30
0.0
 10
1.689011811023622
 20
2.00190157480315
 30
0.0
  0
SPLINE
  5
A2
330
1F
100
AcDbEntity
  8
LAYER_1
 62
   250
100
AcDbSpline
210
0.0
220
0.0
230
1.0
 70
    11
 71
     3
 72
    60
 73
    56
 74
     0
 42
0.0000000001
 43
0.0000000001
 40
0.0
 40
0.0
 40
0.0
 40
0.0
 40
0.0714285714285714
 40
0.0714285714285714
 40
0.0714285714285714
 40
0.0714285714285714
 40
0.1428571428571429
 40
0.1428571428571429
 40
0.1428571428571429
 40
0.1428571428571429
 40
0.2142857142857143
 40
0.2142857142857143
 40
0.2142857142857143
 40
0.2142857142857143
 40
0.2857142857142857
 40
0.2857142857142857
 40
0.2857142857142857
 40
0.2857142857142857
 40
0.3571428571428571
 40
0.3571428571428571
 40
0.3571428571428571
 40
0.3571428571428571
 40
0.4285714285714285
 40
0.4285714285714285
 40
0.4285714285714285
 40
0.4285714285714285
 40
0.4999999999999999
 40
0.4999999999999999
 40
0.4999999999999999
 40
0.4999999999999999
 40
0.5714285714285713
 40
0.5714285714285713
 40
0.5714285714285713
 40
0.5714285714285713
 40
0.6428571428571427
 40
0.6428571428571427
 40
0.6428571428571427
 40
0.6428571428571427
 40
0.7142857142857141
 40
0.7142857142857141
 40
0.7142857142857141
 40
0.7142857142857141
 40
0.7857142857142855
 40
0.7857142857142855
 40
0.7857142857142855
 40
0.7857142857142855
 40
0.8571428571428569
 40
0.8571428571428569
 40
0.8571428571428569
 40
0.8571428571428569
 40
0.9285714285714283
 40
0.9285714285714283
 40
0.9285714285714283
 40
0.9285714285714283
 40
1.0
 40
1.0
 40
1.0
 40
1.0
 10
1.756874015748032
 20
2.017763779527559
 30
0.0
 10
1.756874015748032
 20
2.017763779527559
 30
0.0
 10
1.752484251968504
 20
2.023153543307087
 30
0.0
 10
1.752484251968504
 20
2.023153543307087
 30
0.0
 10
1.752484251968504
 20
2.023153543307087
 30
0.0
 10
1.76359842519685
 20
2.032208661417323
 30
0.0
 10
1.769181102362205
 20
2.039763779527559
 30
0.0
 10
1.769181102362205
 20
2.045846456692913
 30
0.0
 10
1.769181102362205
 20
2.045846456692913
 30
0.0
 10
1.769181102362205
 20
2.04653937007874
 30
0.0
 10
1.769125984251969
 20
2.047429133858268
 30
0.0
 10
1.769011811023622
 20
2.048456692913386
 30
0.0
 10
1.769011811023622
 20
2.048456692913386
 30
0.0
 10
1.768098425196851
 20
2.048066929133858
 30
0.0
 10
1.767181102362205
 20
2.047763779527559
 30
0.0
 10
1.766318897637795
 20
2.047566929133859
 30
0.0
 10
1.766318897637795
 20
2.047566929133859
 30
0.0
 10
1.765456692913386
 20
2.047346456692913
 30
0.0
 10
1.764653543307087
 20
2.047236220472441
 30
0.0
 10
1.763874015748032
 20
2.047236220472441
 30
0.0
 10
1.763874015748032
 20
2.047236220472441
 30
0.0
 10
1.761263779527559
 20
2.047236220472441
 30
0.0
 10
1.759181102362205
 20
2.048066929133858
 30
0.0
 10
1.757625984251969
 20
2.049763779527559
 30
0.0
 10
1.757625984251969
 20
2.049763779527559
 30
0.0
 10
1.75603937007874
 20
2.051429133858268
 30
0.0
 10
1.755263779527559
 20
2.053566929133858
 30
0.0
 10
1.755263779527559
 20
2.056181102362205
 30
0.0
 10
1.755263779527559
 20
2.056181102362205
 30
0.0
 10
1.755263779527559
 20
2.058736220472441
 30
0.0
 10
1.756208661417323
 20
2.060956692913386
 30
0.0
 10
1.758098425196851
 20
2.062846456692914
 30
0.0
 10
1.758098425196851
 20
2.062846456692914
 30
0.0
 10
1.760011811023622
 20
2.064763779527559
 30
0.0
 10
1.762291338582677
 20
2.065708661417323
 30
0.0
 10
1.764929133858268
 20
2.065708661417323
 30
0.0
 10
1.764929133858268
 20
2.065708661417323
 30
0.0
 10
1.768625984251969
 20
2.065708661417323
 30
0.0
 10
1.771791338582677
 20
2.064236220472441
 30
0.0
 10
1.774429133858268
 20
2.061263779527559
 30
0.0
 10
1.774429133858268
 20
2.061263779527559
 30
0.0
 10
1.77703937007874
 20
2.058318897637796
 30
0.0
 10
1.778374015748032
 20
2.054511811023622
 30
0.0
 10
1.778374015748032
 20
2.049846456692913
 30
0.0
 10
1.778374015748032
 20
2.049846456692913
 30
0.0
 10
1.778374015748032
 20
2.046791338582677
 30
0.0
 10
1.777736220472441
 20
2.043594488188977
 30
0.0
 10
1.776484251968504
 20
2.040263779527559
 30
0.0
 10
1.776484251968504
 20
2.040263779527559
 30
0.0
 10
1.775236220472441
 20
2.036929133858268
 30
0.0
 10
1.773429133858268
 20
2.033846456692913
 30
0.0
 10
1.77103937007874
 20
2.030984251968504
 30
0.0
 10
1.77103937007874
 20
2.030984251968504
 30
0.0
 10
1.768653543307087
 20
2.028153543307087
 30
0.0
 10
1.763929133858268
 20
2.023736220472441
 30
0.0
 10
1.756874015748032
 20
2.017763779527559
 30
0.0
  0
SPLINE
  5
A3
330
1F
100
AcDbEntity
  8
LAYER_1
 62
   250
100
AcDbSpline
210
0.0
220
0.0
230
1.0
 70
    11
 71
     3
 72
    60
 73
    56
 74
     0
 42
0.0000000001
 43
0.0000000001
 40
0.0
 40
0.0
 40
0.0
 40
0.0
 40
0.0714285714285714
 40
0.0714285714285714
 40
0.0714285714285714
 40
0.0714285714285714
 40
0.1428571428571429
 40
0.1428571428571429
 40
0.1428571428571429
 40
0.1428571428571429
 40
0.2142857142857143
 40
0.2142857142857143
 40
0.2142857142857143
 40
0.2142857142857143
 40
0.2857142857142857
 40
0.2857142857142857
 40
0.2857142857142857
 40
0.2857142857142857
 40
0.3571428571428571
 40
0.3571428571428571
 40
0.3571428571428571
 40
0.3571428571428571
 40
0.4285714285714285
 40
0.4285714285714285
 40
0.4285714285714285
 40
0.4285714285714285
 40
0.4999999999999999
 40
0.4999999999999999
 40
0.4999999999999999
 40
0.4999999999999999
 40
0.5714285714285713
 40
0.5714285714285713
 40
0.5714285714285713
 40
0.5714285714285713
 40
0.6428571428571427
 40
0.6428571428571427
 40
0.6428571428571427
 40
0.6428571428571427
 40
0.7142857142857141
 40
0.7142857142857141
 40
0.7142857142857141
 40
0.7142857142857141
 40
0.7857142857142855
 40
0.7857142857142855
 40
0.7857142857142855
 40
0.7857142857142855
 40
0.8571428571428569
 40
0.8571428571428569
 40
0.8571428571428569
 40
0.8571428571428569
 40
0.9285714285714283
 40
0.9285714285714283
 40
0.9285714285714283
 40
0.9285714285714283
 40
1.0
 40
1.0
 40
1.0
 40
1.0
 10
1.785929133858268
 20
2.017763779527559
 30
0.0
 10
1.785929133858268
 20
2.017763779527559
 30
0.0
 10
1.78153937007874
 20
2.023153543307087
 30
0.0
 10
1.78153937007874
 20
2.023153543307087
 30
0.0
 10
1.78153937007874
 20
2.023153543307087
 30
0.0
 10
1.792653543307087
 20
2.032208661417323
 30
0.0
 10
1.798236220472441
 20
2.039763779527559
 30
0.0
 10
1.798236220472441
 20
2.045846456692913
 30
0.0
 10
1.798236220472441
 20
2.045846456692913
 30
0.0
 10
1.798236220472441
 20
2.04653937007874
 30
0.0
 10
1.798181102362205
 20
2.047429133858268
 30
0.0
 10
1.798066929133858
 20
2.048456692913386
 30
0.0
 10
1.798066929133858
 20
2.048456692913386
 30
0.0
 10
1.797153543307087
 20
2.048066929133858
 30
0.0
 10
1.796236220472441
 20
2.047763779527559
 30
0.0
 10
1.795374015748032
 20
2.047566929133859
 30
0.0
 10
1.795374015748032
 20
2.047566929133859
 30
0.0
 10
1.794511811023622
 20
2.047346456692913
 30
0.0
 10
1.793681102362205
 20
2.047236220472441
 30
0.0
 10
1.792846456692913
 20
2.047236220472441
 30
0.0
 10
1.792846456692913
 20
2.047236220472441
 30
0.0
 10
1.790291338582677
 20
2.047236220472441
 30
0.0
 10
1.788236220472441
 20
2.048066929133858
 30
0.0
 10
1.786681102362205
 20
2.049763779527559
 30
0.0
 10
1.786681102362205
 20
2.049763779527559
 30
0.0
 10
1.785098425196851
 20
2.051429133858268
 30
0.0
 10
1.784318897637795
 20
2.053566929133858
 30
0.0
 10
1.784318897637795
 20
2.056181102362205
 30
0.0
 10
1.784318897637795
 20
2.056181102362205
 30
0.0
 10
1.784318897637795
 20
2.058736220472441
 30
0.0
 10
1.785263779527559
 20
2.060956692913386
 30
0.0
 10
1.787153543307087
 20
2.062846456692914
 30
0.0
 10
1.787153543307087
 20
2.062846456692914
 30
0.0
 10
1.78903937007874
 20
2.064763779527559
 30
0.0
 10
1.791346456692913
 20
2.065708661417323
 30
0.0
 10
1.793984251968504
 20
2.065708661417323
 30
0.0
 10
1.793984251968504
 20
2.065708661417323
 30
0.0
 10
1.797681102362205
 20
2.065708661417323
 30
0.0
 10
1.800846456692913
 20
2.064236220472441
 30
0.0
 10
1.803484251968504
 20
2.061263779527559
 30
0.0
 10
1.803484251968504
 20
2.061263779527559
 30
0.0
 10
1.806094488188976
 20
2.058318897637796
 30
0.0
 10
1.807429133858268
 20
2.054511811023622
 30
0.0
 10
1.807429133858268
 20
2.049846456692913
 30
0.0
 10
1.807429133858268
 20
2.049846456692913
 30
0.0
 10
1.807429133858268
 20
2.046791338582677
 30
0.0
 10
1.806791338582677
 20
2.043594488188977
 30
0.0
 10
1.80553937007874
 20
2.040263779527559
 30
0.0
 10
1.80553937007874
 20
2.040263779527559
 30
0.0
 10
1.804291338582677
 20
2.036929133858268
 30
0.0
 10
1.802484251968504
 20
2.033846456692913
 30
0.0
 10
1.80009842519685
 20
2.030984251968504
 30
0.0
 10
1.80009842519685
 20
2.030984251968504
 30
0.0
 10
1.797708661417323
 20
2.028153543307087
 30
0.0
 10
1.792984251968504
 20
2.023736220472441
 30
0.0
 10
1.785929133858268
 20
2.017763779527559
 30
0.0
  0
SPLINE
  5
A4
330
1F
100
AcDbEntity
  8
LAYER_1
 62
   250
100
AcDbSpline
210
0.0
220
0.0
230
1.0
 70
    11
 71
     3
 72
   204
 73
   200
 74
     0
 42
0.0000000001
 43
0.0000000001
 40
0.0
 40
0.0
 40
0.0
 40
0.0
 40
0.02
 40
0.02
 40
0.02
 40
0.02
 40
0.04
 40
0.04
 40
0.04
 40
0.04
 40
0.06
 40
0.06
 40
0.06
 40
0.06
 40
0.08
 40
0.08
 40
0.08
 40
0.08
 40
0.1
 40
0.1
 40
0.1
 40
0.1
 40
0.12
 40
0.12
 40
0.12
 40
0.12
 40
0.14
 40
0.14
 40
0.14
 40
0.14
 40
0.16
 40
0.16
 40
0.16
 40
0.16
 40
0.18
 40
0.18
 40
0.18
 40
0.18
 40
0.2
 40
0.2
 40
0.2
 40
0.2
 40
0.22
 40
0.22
 40
0.22
 40
0.22
 40
0.24
 40
0.24
 40
0.24
 40
0.24
 40
0.26
 40
0.26
 40
0.26
 40
0.26
 40
0.28
 40
0.28
 40
0.28
 40
0.28
 40
0.3
 40
0.3
 40
0.3
 40
0.3
 40
0.32
 40
0.32
 40
0.32
 40
0.32
 40
0.34
 40
0.34
 40
0.34
 40
0.34
 40
0.36
 40
0.36
 40
0.36
 40
0.36
 40
0.3800000000000001
 40
0.3800000000000001
 40
0.3800000000000001
 40
0.3800000000000001
 40
0.4000000000000001
 40
0.4000000000000001
 40
0.4000000000000001
 40
0.4000000000000001
 40
0.4200000000000001
 40
0.4200000000000001
 40
0.4200000000000001
 40
0.4200000000000001
 40
0.4400000000000001
 40
0.4400000000000001
 40
0.4400000000000001
 40
0.4400000000000001
 40
0.4600000000000001
 40
0.4600000000000001
 40
0.4600000000000001
 40
0.4600000000000001
 40
0.4800000000000002
 40
0.4800000000000002
 40
0.4800000000000002
 40
0.4800000000000002
 40
0.5000000000000001
 40
0.5000000000000001
 40
0.5000000000000001
 40
0.5000000000000001
 40
0.5200000000000001
 40
0.5200000000000001
 40
0.5200000000000001
 40
0.5200000000000001
 40
0.5400000000000002
 40
0.5400000000000002
 40
0.5400000000000002
 40
0.5400000000000002
 40
0.5600000000000002
 40
0.5600000000000002
 40
0.5600000000000002
 40
0.5600000000000002
 40
0.5800000000000002
 40
0.5800000000000002
 40
0.5800000000000002
 40
0.5800000000000002
 40
0.6000000000000002
 40
0.6000000000000002
 40
0.6000000000000002
 40
0.6000000000000002
 40
0.6200000000000002
 40
0.6200000000000002
 40
0.6200000000000002
 40
0.6200000000000002
 40
0.6400000000000002
 40
0.6400000000000002
 40
0.6400000000000002
 40
0.6400000000000002
 40
0.6600000000000003
 40
0.6600000000000003
 40
0.6600000000000003
 40
0.6600000000000003
 40
0.6800000000000003
 40
0.6800000000000003
 40
0.6800000000000003
 40
0.6800000000000003
 40
0.7000000000000003
 40
0.7000000000000003
 40
0.7000000000000003
 40
0.7000000000000003
 40
0.7200000000000003
 40
0.7200000000000003
 40
0.7200000000000003
 40
0.7200000000000003
 40
0.7400000000000003
 40
0.7400000000000003
 40
0.7400000000000003
 40
0.7400000000000003
 40
0.7600000000000003
 40
0.7600000000000003
 40
0.7600000000000003
 40
0.7600000000000003
 40
0.7800000000000004
 40
0.7800000000000004
 40
0.7800000000000004
 40
0.7800000000000004
 40
0.8000000000000004
 40
0.8000000000000004
 40
0.8000000000000004
 40
0.8000000000000004
 40
0.8200000000000004
 40
0.8200000000000004
 40
0.8200000000000004
 40
0.8200000000000004
 40
0.8400000000000004
 40
0.8400000000000004
 40
0.8400000000000004
 40
0.8400000000000004
 40
0.8600000000000004
 40
0.8600000000000004
 40
0.8600000000000004
 40
0.8600000000000004
 40
0.8800000000000005
 40
0.8800000000000005
 40
0.8800000000000005
 40
0.8800000000000005
 40
0.9000000000000005
 40
0.9000000000000005
 40
0.9000000000000005
 40
0.9000000000000005
 40
0.9200000000000005
 40
0.9200000000000005
 40
0.9200000000000005
 40
0.9200000000000005
 40
0.9400000000000005
 40
0.9400000000000005
 40
0.9400000000000005
 40
0.9400000000000005
 40
0.9600000000000005
 40
0.9600000000000005
 40
0.9600000000000005
 40
0.9600000000000005
 40
0.9800000000000005
 40
0.9800000000000005
 40
0.9800000000000005
 40
0.9800000000000005
 40
1.0
 40
1.0
 40
1.0
 40
1.0
 10
1.869736220472441
 20
2.024846456692913
 30
0.0
 10
1.869736220472441
 20
2.024846456692913
 30
0.0
 10
1.910681102362205
 20
2.024846456692913
 30
0.0
 10
1.910681102362205
 20
2.024846456692913
 30
0.0
 10
1.910681102362205
 20
2.024846456692913
 30
0.0
 10
1.910681102362205
 20
2.024846456692913
 30
0.0
 10
1.910681102362205
 20
2.018011811023622
 30
0.0
 10
1.910681102362205
 20
2.018011811023622
 30
0.0
 10
1.910681102362205
 20
2.018011811023622
 30
0.0
 10
1.910681102362205
 20
2.018011811023622
 30
0.0
 10
1.907846456692913
 20
2.018011811023622
 30
0.0
 10
1.907846456692913
 20
2.018011811023622
 30
0.0
 10
1.907846456692913
 20
2.018011811023622
 30
0.0
 10
1.906208661417323
 20
2.018011811023622
 30
0.0
 10
1.904708661417323
 20
2.017818897637795
 30
0.0
 10
1.903346456692914
 20
2.017456692913386
 30
0.0
 10
1.903346456692914
 20
2.017456692913386
 30
0.0
 10
1.902543307086614
 20
2.017236220472441
 30
0.0
 10
1.901874015748032
 20
2.016818897637795
 30
0.0
 10
1.901374015748032
 20
2.016181102362205
 30
0.0
 10
1.901374015748032
 20
2.016181102362205
 30
0.0
 10
1.900846456692914
 20
2.015566929133859
 30
0.0
 10
1.90059842519685
 20
2.014984251968504
 30
0.0
 10
1.90059842519685
 20
2.014429133858268
 30
0.0
 10
1.90059842519685
 20
2.014429133858268
 30
0.0
 10
1.90059842519685
 20
2.013181102362205
 30
0.0
 10
1.901625984251969
 20
2.011318897637795
 30
0.0
 10
1.903681102362205
 20
2.008818897637795
 30
0.0
 10
1.903681102362205
 20
2.008818897637795
 30
0.0
 10
1.903681102362205
 20
2.008818897637795
 30
0.0
 10
1.915318897637795
 20
1.994181102362205
 30
0.0
 10
1.915318897637795
 20
1.994181102362205
 30
0.0
 10
1.915318897637795
 20
1.994181102362205
 30
0.0
 10
1.915318897637795
 20
1.994181102362205
 30
0.0
 10
1.92890157480315
 20
2.008818897637795
 30
0.0
 10
1.92890157480315
 20
2.008818897637795
 30
0.0
 10
1.92890157480315
 20
2.008818897637795
 30
0.0
 10
1.93140157480315
 20
2.01153937007874
 30
0.0
 10
1.932653543307087
 20
2.013566929133858
 30
0.0
 10
1.932653543307087
 20
2.014929133858268
 30
0.0
 10
1.932653543307087
 20
2.014929133858268
 30
0.0
 10
1.932653543307087
 20
2.01590157480315
 30
0.0
 10
1.932208661417323
 20
2.016653543307087
 30
0.0
 10
1.931346456692914
 20
2.017208661417323
 30
0.0
 10
1.931346456692914
 20
2.017208661417323
 30
0.0
 10
1.930484251968504
 20
2.017736220472441
 30
0.0
 10
1.928625984251969
 20
2.018011811023622
 30
0.0
 10
1.925736220472441
 20
2.018011811023622
 30
0.0
 10
1.925736220472441
 20
2.018011811023622
 30
0.0
 10
1.925736220472441
 20
2.018011811023622
 30
0.0
 10
1.922653543307087
 20
2.018011811023622
 30
0.0
 10
1.922653543307087
 20
2.018011811023622
 30
0.0
 10
1.922653543307087
 20
2.018011811023622
 30
0.0
 10
1.922653543307087
 20
2.018011811023622
 30
0.0
 10
1.922653543307087
 20
2.024846456692913
 30
0.0
 10
1.922653543307087
 20
2.024846456692913
 30
0.0
 10
1.922653543307087
 20
2.024846456692913
 30
0.0
 10
1.922653543307087
 20
2.024846456692913
 30
0.0
 10
1.95740157480315
 20
2.024846456692913
 30
0.0
 10
1.95740157480315
 20
2.024846456692913
 30
0.0
 10
1.95740157480315
 20
2.024846456692913
 30
0.0
 10
1.95740157480315
 20
2.024846456692913
 30
0.0
 10
1.95740157480315
 20
2.018011811023622
 30
0.0
 10
1.95740157480315
 20
2.018011811023622
 30
0.0
 10
1.95740157480315
 20
2.018011811023622
 30
0.0
 10
1.953984251968504
 20
2.017846456692913
 30
0.0
 10
1.95103937007874
 20
2.017153543307087
 30
0.0
 10
1.948570866141732
 20
2.01590157480315
 30
0.0
 10
1.948570866141732
 20
2.01590157480315
 30
0.0
 10
1.946098425196851
 20
2.014653543307087
 30
0.0
 10
1.943181102362205
 20
2.012291338582677
 30
0.0
 10
1.939818897637795
 20
2.008818897637795
 30
0.0
 10
1.939818897637795
 20
2.008818897637795
 30
0.0
 10
1.939818897637795
 20
2.008818897637795
 30
0.0
 10
1.921181102362205
 20
1.989456692913386
 30
0.0
 10
1.921181102362205
 20
1.989456692913386
 30
0.0
 10
1.921181102362205
 20
1.989456692913386
 30
0.0
 10
1.921181102362205
 20
1.989456692913386
 30
0.0
 10
1.944374015748032
 20
1.963011811023622
 30
0.0
 10
1.944374015748032
 20
1.963011811023622
 30
0.0
 10
1.944374015748032
 20
1.963011811023622
 30
0.0
 10
1.944374015748032
 20
1.963011811023622
 30
0.0
 10
1.945263779527559
 20
1.961874015748032
 30
0.0
 10
1.945263779527559
 20
1.961874015748032
 30
0.0
 10
1.945263779527559
 20
1.961874015748032
 30
0.0
 10
1.94753937007874
 20
1.958929133858268
 30
0.0
 10
1.950098425196851
 20
1.956566929133858
 30
0.0
 10
1.952929133858268
 20
1.954791338582677
 30
0.0
 10
1.952929133858268
 20
1.954791338582677
 30
0.0
 10
1.954484251968504
 20
1.953763779527559
 30
0.0
 10
1.956929133858268
 20
1.953208661417323
 30
0.0
 10
1.960236220472441
 20
1.953153543307087
 30
0.0
 10
1.960236220472441
 20
1.953153543307087
 30
0.0
 10
1.960236220472441
 20
1.953153543307087
 30
0.0
 10
1.960236220472441
 20
1.946318897637795
 30
0.0
 10
1.960236220472441
 20
1.946318897637795
 30
0.0
 10
1.960236220472441
 20
1.946318897637795
 30
0.0
 10
1.960236220472441
 20
1.946318897637795
 30
0.0
 10
1.920291338582677
 20
1.946318897637795
 30
0.0
 10
1.920291338582677
 20
1.946318897637795
 30
0.0
 10
1.920291338582677
 20
1.946318897637795
 30
0.0
 10
1.920291338582677
 20
1.946318897637795
 30
0.0
 10
1.920291338582677
 20
1.953153543307087
 30
0.0
 10
1.920291338582677
 20
1.953153543307087
 30
0.0
 10
1.920291338582677
 20
1.953153543307087
 30
0.0
 10
1.920291338582677
 20
1.953153543307087
 30
0.0
 10
1.923708661417323
 20
1.953153543307087
 30
0.0
 10
1.923708661417323
 20
1.953153543307087
 30
0.0
 10
1.923708661417323
 20
1.953153543307087
 30
0.0
 10
1.926318897637795
 20
1.953153543307087
 30
0.0
 10
1.927956692913386
 20
1.953318897637795
 30
0.0
 10
1.928681102362205
 20
1.953653543307087
 30
0.0
 10
1.928681102362205
 20
1.953653543307087
 30
0.0
 10
1.929846456692913
 20
1.954181102362205
 30
0.0
 10
1.930456692913386
 20
1.95509842519685
 30
0.0
 10
1.930456692913386
 20
1.95640157480315
 30
0.0
 10
1.930456692913386
 20
1.95640157480315
 30
0.0
 10
1.930456692913386
 20
1.957598425196851
 30
0.0
 10
1.929153543307087
 20
1.959791338582677
 30
0.0
 10
1.92653937007874
 20
1.963011811023622
 30
0.0
 10
1.92653937007874
 20
1.963011811023622
 30
0.0
 10
1.92653937007874
 20
1.963011811023622
 30
0.0
 10
1.911736220472441
 20
1.981153543307087
 30
0.0
 10
1.911736220472441
 20
1.981153543307087
 30
0.0
 10
1.911736220472441
 20
1.981153543307087
 30
0.0
 10
1.911736220472441
 20
1.981153543307087
 30
0.0
 10
1.895208661417323
 20
1.963011811023622
 30
0.0
 10
1.895208661417323
 20
1.963011811023622
 30
0.0
 10
1.895208661417323
 20
1.963011811023622
 30
0.0
 10
1.895208661417323
 20
1.963011811023622
 30
0.0
 10
1.893598425196851
 20
1.96103937007874
 30
0.0
 10
1.893598425196851
 20
1.96103937007874
 30
0.0
 10
1.893598425196851
 20
1.96103937007874
 30
0.0
 10
1.893598425196851
 20
1.96103937007874
 30
0.0
 10
1.892708661417323
 20
1.960066929133858
 30
0.0
 10
1.892708661417323
 20
1.960066929133858
 30
0.0
 10
1.892708661417323
 20
1.960066929133858
 30
0.0
 10
1.891346456692914
 20
1.958598425196851
 30
0.0
 10
1.890653543307087
 20
1.957318897637795
 30
0.0
 10
1.890653543307087
 20
1.956181102362205
 30
0.0
 10
1.890653543307087
 20
1.956181102362205
 30
0.0
 10
1.890653543307087
 20
1.955125984251969
 30
0.0
 10
1.891070866141732
 20
1.954374015748032
 30
0.0
 10
1.891929133858268
 20
1.953874015748032
 30
0.0
 10
1.891929133858268
 20
1.953874015748032
 30
0.0
 10
1.892763779527559
 20
1.95340157480315
 30
0.0
 10
1.894653543307087
 20
1.953153543307087
 30
0.0
 10
1.897570866141732
 20
1.953153543307087
 30
0.0
 10
1.897570866141732
 20
1.953153543307087
 30
0.0
 10
1.897570866141732
 20
1.953153543307087
 30
0.0
 10
1.900846456692914
 20
1.953153543307087
 30
0.0
 10
1.900846456692914
 20
1.953153543307087
 30
0.0
 10
1.900846456692914
 20
1.953153543307087
 30
0.0
 10
1.900846456692914
 20
1.953153543307087
 30
0.0
 10
1.900846456692914
 20
1.946318897637795
 30
0.0
 10
1.900846456692914
 20
1.946318897637795
 30
0.0
 10
1.900846456692914
 20
1.946318897637795
 30
0.0
 10
1.900846456692914
 20
1.946318897637795
 30
0.0
 10
1.866570866141732
 20
1.946318897637795
 30
0.0
 10
1.866570866141732
 20
1.946318897637795
 30
0.0
 10
1.866570866141732
 20
1.946318897637795
 30
0.0
 10
1.866570866141732
 20
1.946318897637795
 30
0.0
 10
1.866570866141732
 20
1.953153543307087
 30
0.0
 10
1.866570866141732
 20
1.953153543307087
 30
0.0
 10
1.866570866141732
 20
1.953153543307087
 30
0.0
 10
1.869236220472441
 20
1.953208661417323
 30
0.0
 10
1.871318897637795
 20
1.953484251968504
 30
0.0
 10
1.872846456692914
 20
1.954011811023622
 30
0.0
 10
1.872846456692914
 20
1.954011811023622
 30
0.0
 10
1.874346456692914
 20
1.954511811023622
 30
0.0
 10
1.875818897637795
 20
1.955318897637795
 30
0.0
 10
1.877236220472441
 20
1.95640157480315
 30
0.0
 10
1.877236220472441
 20
1.95640157480315
 30
0.0
 10
1.879681102362205
 20
1.958374015748032
 30
0.0
 10
1.881429133858268
 20
1.95990157480315
 30
0.0
 10
1.882515748031496
 20
1.96103937007874
 30
0.0
 10
1.882515748031496
 20
1.96103937007874
 30
0.0
 10
1.882515748031496
 20
1.96103937007874
 30
0.0
 10
1.906374015748032
 20
1.98553937007874
 30
0.0
 10
1.906374015748032
 20
1.98553937007874
 30
0.0
 10
1.906374015748032
 20
1.98553937007874
 30
0.0
 10
1.906374015748032
 20
1.98553937007874
 30
0.0
 10
1.88609842519685
 20
2.008818897637795
 30
0.0
 10
1.88609842519685
 20
2.008818897637795
 30
0.0
 10
1.88609842519685
 20
2.008818897637795
 30
0.0
 10
1.883543307086614
 20
2.011708661417323
 30
0.0
 10
1.881543307086614
 20
2.013708661417323
 30
0.0
 10
1.880043307086614
 20
2.014874015748032
 30
0.0
 10
1.880043307086614
 20
2.014874015748032
 30
0.0
 10
1.878543307086614
 20
2.01603937007874
 30
0.0
 10
1.877098425196851
 20
2.016874015748031
 30
0.0
 10
1.875681102362205
 20
2.017318897637795
 30
0.0
 10
1.875681102362205
 20
2.017318897637795
 30
0.0
 10
1.874263779527559
 20
2.017791338582677
 30
0.0
 10
1.872291338582677
 20
2.018011811023622
 30
0.0
 10
1.869736220472441
 20
2.018011811023622
 30
0.0
 10
1.869736220472441
 20
2.018011811023622
 30
0.0
 10
1.869736220472441
 20
2.018011811023622
 30
0.0
 10
1.869736220472441
 20
2.024846456692913
 30
0.0
 10
1.869736220472441
 20
2.024846456692913
 30
0.0
  0
SPLINE
  5
A5
330
1F
100
AcDbEntity
  8
LAYER_1
 62
   250
100
AcDbSpline
210
0.0
220
0.0
230
1.0
 70
    11
 71
     3
 72
    72
 73
    68
 74
     0
 42
0.0000000001
 43
0.0000000001
 40
0.0
 40
0.0
 40
0.0
 40
0.0
 40
0.0588235294117647
 40
0.0588235294117647
 40
0.0588235294117647
 40
0.0588235294117647
 40
0.1176470588235294
 40
0.1176470588235294
 40
0.1176470588235294
 40
0.1176470588235294
 40
0.1764705882352941
 40
0.1764705882352941
 40
0.1764705882352941
 40
0.1764705882352941
 40
0.2352941176470588
 40
0.2352941176470588
 40
0.2352941176470588
 40
0.2352941176470588
 40
0.2941176470588235
 40
0.2941176470588235
 40
0.2941176470588235
 40
0.2941176470588235
 40
0.3529411764705883
 40
0.3529411764705883
 40
0.3529411764705883
 40
0.3529411764705883
 40
0.411764705882353
 40
0.411764705882353
 40
0.411764705882353
 40
0.411764705882353
 40
0.4705882352941177
 40
0.4705882352941177
 40
0.4705882352941177
 40
0.4705882352941177
 40
0.5294117647058824
 40
0.5294117647058824
 40
0.5294117647058824
 40
0.5294117647058824
 40
0.5882352941176471
 40
0.5882352941176471
 40
0.5882352941176471
 40
0.5882352941176471
 40
0.6470588235294118
 40
0.6470588235294118
 40
0.6470588235294118
 40
0.6470588235294118
 40
0.7058823529411765
 40
0.7058823529411765
 40
0.7058823529411765
 40
0.7058823529411765
 40
0.7647058823529412
 40
0.7647058823529412
 40
0.7647058823529412
 40
0.7647058823529412
 40
0.823529411764706
 40
0.823529411764706
 40
0.823529411764706
 40
0.823529411764706
 40
0.8823529411764707
 40
0.8823529411764707
 40
0.8823529411764707
 40
0.8823529411764707
 40
0.9411764705882354
 40
0.9411764705882354
 40
0.9411764705882354
 40
0.9411764705882354
 40
1.0
 40
1.0
 40
1.0
 40
1.0
 10
2.069374015748032
 20
2.059846456692914
 30
0.0
 10
2.069374015748032
 20
2.059846456692914
 30
0.0
 10
2.075456692913386
 20
2.059846456692914
 30
0.0
 10
2.075456692913386
 20
2.059846456692914
 30
0.0
 10
2.075456692913386
 20
2.059846456692914
 30
0.0
 10
2.075456692913386
 20
2.059846456692914
 30
0.0
 10
2.075456692913386
 20
1.965598425196851
 30
0.0
 10
2.075456692913386
 20
1.965598425196851
 30
0.0
 10
2.075456692913386
 20
1.965598425196851
 30
0.0
 10
2.075456692913386
 20
1.961153543307087
 30
0.0
 10
2.075763779527559
 20
1.958291338582677
 30
0.0
 10
2.076318897637795
 20
1.957011811023622
 30
0.0
 10
2.076318897637795
 20
1.957011811023622
 30
0.0
 10
2.07690157480315
 20
1.955736220472441
 30
0.0
 10
2.077818897637795
 20
1.954791338582677
 30
0.0
 10
2.079122047244095
 20
1.954125984251969
 30
0.0
 10
2.079122047244095
 20
1.954125984251969
 30
0.0
 10
2.080429133858268
 20
1.953484251968504
 30
0.0
 10
2.083011811023622
 20
1.953153543307087
 30
0.0
 10
2.086874015748032
 20
1.953153543307087
 30
0.0
 10
2.086874015748032
 20
1.953153543307087
 30
0.0
 10
2.086874015748032
 20
1.953153543307087
 30
0.0
 10
2.094846456692913
 20
1.953153543307087
 30
0.0
 10
2.094846456692913
 20
1.953153543307087
 30
0.0
 10
2.094846456692913
 20
1.953153543307087
 30
0.0
 10
2.094846456692913
 20
1.953153543307087
 30
0.0
 10
2.094846456692913
 20
1.946318897637795
 30
0.0
 10
2.094846456692913
 20
1.946318897637795
 30
0.0
 10
2.094846456692913
 20
1.946318897637795
 30
0.0
 10
2.094846456692913
 20
1.946318897637795
 30
0.0
 10
2.041208661417323
 20
1.946318897637795
 30
0.0
 10
2.041208661417323
 20
1.946318897637795
 30
0.0
 10
2.041208661417323
 20
1.946318897637795
 30
0.0
 10
2.041208661417323
 20
1.946318897637795
 30
0.0
 10
2.041208661417323
 20
1.953153543307087
 30
0.0
 10
2.041208661417323
 20
1.953153543307087
 30
0.0
 10
2.041208661417323
 20
1.953153543307087
 30
0.0
 10
2.041208661417323
 20
1.953153543307087
 30
0.0
 10
2.050066929133859
 20
1.953153543307087
 30
0.0
 10
2.050066929133859
 20
1.953153543307087
 30
0.0
 10
2.050066929133859
 20
1.953153543307087
 30
0.0
 10
2.053929133858268
 20
1.953153543307087
 30
0.0
 10
2.056484251968504
 20
1.953484251968504
 30
0.0
 10
2.057763779527559
 20
1.954181102362205
 30
0.0
 10
2.057763779527559
 20
1.954181102362205
 30
0.0
 10
2.05903937007874
 20
1.954846456692914
 30
0.0
 10
2.06003937007874
 20
1.955929133858268
 30
0.0
 10
2.060736220472441
 20
1.957429133858268
 30
0.0
 10
2.060736220472441
 20
1.957429133858268
 30
0.0
 10
2.061429133858268
 20
1.958929133858268
 30
0.0
 10
2.061791338582677
 20
1.961653543307087
 30
0.0
 10
2.061791338582677
 20
1.965598425196851
 30
0.0
 10
2.061791338582677
 20
1.965598425196851
 30
0.0
 10
2.061791338582677
 20
1.965598425196851
 30
0.0
 10
2.061791338582677
 20
2.043066929133858
 30
0.0
 10
2.061791338582677
 20
2.043066929133858
 30
0.0
 10
2.061791338582677
 20
2.043066929133858
 30
0.0
 10
2.061791338582677
 20
2.043066929133858
 30
0.0
 10
2.041208661417323
 20
2.043066929133858
 30
0.0
 10
2.041208661417323
 20
2.043066929133858
 30
0.0
 10
2.041208661417323
 20
2.043066929133858
 30
0.0
 10
2.041208661417323
 20
2.043066929133858
 30
0.0
 10
2.041208661417323
 20
2.050066929133859
 30
0.0
 10
2.041208661417323
 20
2.050066929133859
 30
0.0
 10
2.041208661417323
 20
2.050066929133859
 30
0.0
 10
2.052429133858268
 20
2.051649606299213
 30
0.0
 10
2.061818897637795
 20
2.05490157480315
 30
0.0
 10
2.069374015748032
 20
2.059846456692914
 30
0.0
  0
SPLINE
  5
A6
330
1F
100
AcDbEntity
  8
LAYER_1
 62
   250
100
AcDbSpline
210
0.0
220
0.0
230
1.0
 70
    11
 71
     3
 72
    20
 73
    16
 74
     0
 42
0.0000000001
 43
0.0000000001
 40
0.0
 40
0.0
 40
0.0
 40
0.0
 40
0.25
 40
0.25
 40
0.25
 40
0.25
 40
0.5
 40
0.5
 40
0.5
 40
0.5
 40
0.75
 40
0.75
 40
0.75
 40
0.75
 40
1.0
 40
1.0
 40
1.0
 40
1.0
 10
2.125846456692913
 20
1.992791338582677
 30
0.0
 10
2.125846456692913
 20
1.992791338582677
 30
0.0
 10
2.174181102362205
 20
1.992791338582677
 30
0.0
 10
2.174181102362205
 20
1.992791338582677
 30
0.0
 10
2.174181102362205
 20
1.992791338582677
 30
0.0
 10
2.174181102362205
 20
1.992791338582677
 30
0.0
 10
2.174181102362205
 20
1.982708661417323
 30
0.0
 10
2.174181102362205
 20
1.982708661417323
 30
0.0
 10
2.174181102362205
 20
1.982708661417323
 30
0.0
 10
2.174181102362205
 20
1.982708661417323
 30
0.0
 10
2.125846456692913
 20
1.982708661417323
 30
0.0
 10
2.125846456692913
 20
1.982708661417323
 30
0.0
 10
2.125846456692913
 20
1.982708661417323
 30
0.0
 10
2.125846456692913
 20
1.982708661417323
 30
0.0
 10
2.125846456692913
 20
1.992791338582677
 30
0.0
 10
2.125846456692913
 20
1.992791338582677
 30
0.0
  0
SPLINE
  5
A7
330
1F
100
AcDbEntity
  8
LAYER_1
 62
   250
100
AcDbSpline
210
0.0
220
0.0
230
1.0
 70
    11
 71
     3
 72
    72
 73
    68
 74
     0
 42
0.0000000001
 43
0.0000000001
 40
0.0
 40
0.0
 40
0.0
 40
0.0
 40
0.0588235294117647
 40
0.0588235294117647
 40
0.0588235294117647
 40
0.0588235294117647
 40
0.1176470588235294
 40
0.1176470588235294
 40
0.1176470588235294
 40
0.1176470588235294
 40
0.1764705882352941
 40
0.1764705882352941
 40
0.1764705882352941
 40
0.1764705882352941
 40
0.2352941176470588
 40
0.2352941176470588
 40
0.2352941176470588
 40
0.2352941176470588
 40
0.2941176470588235
 40
0.2941176470588235
 40
0.2941176470588235
 40
0.2941176470588235
 40
0.3529411764705883
 40
0.3529411764705883
 40
0.3529411764705883
 40
0.3529411764705883
 40
0.411764705882353
 40
0.411764705882353
 40
0.411764705882353
 40
0.411764705882353
 40
0.4705882352941177
 40
0.4705882352941177
 40
0.4705882352941177
 40
0.4705882352941177
 40
0.5294117647058824
 40
0.5294117647058824
 40
0.5294117647058824
 40
0.5294117647058824
 40
0.5882352941176471
 40
0.5882352941176471
 40
0.5882352941176471
 40
0.5882352941176471
 40
0.6470588235294118
 40
0.6470588235294118
 40
0.6470588235294118
 40
0.6470588235294118
 40
0.7058823529411765
 40
0.7058823529411765
 40
0.7058823529411765
 40
0.7058823529411765
 40
0.7647058823529412
 40
0.7647058823529412
 40
0.7647058823529412
 40
0.7647058823529412
 40
0.823529411764706
 40
0.823529411764706
 40
0.823529411764706
 40
0.823529411764706
 40
0.8823529411764707
 40
0.8823529411764707
 40
0.8823529411764707
 40
0.8823529411764707
 40
0.9411764705882354
 40
0.9411764705882354
 40
0.9411764705882354
 40
0.9411764705882354
 40
1.0
 40
1.0
 40
1.0
 40
1.0
 10
2.239374015748032
 20
2.059846456692914
 30
0.0
 10
2.239374015748032
 20
2.059846456692914
 30
0.0
 10
2.245456692913386
 20
2.059846456692914
 30
0.0
 10
2.245456692913386
 20
2.059846456692914
 30
0.0
 10
2.245456692913386
 20
2.059846456692914
 30
0.0
 10
2.245456692913386
 20
2.059846456692914
 30
0.0
 10
2.245456692913386
 20
1.965598425196851
 30
0.0
 10
2.245456692913386
 20
1.965598425196851
 30
0.0
 10
2.245456692913386
 20
1.965598425196851
 30
0.0
 10
2.245456692913386
 20
1.961153543307087
 30
0.0
 10
2.245763779527559
 20
1.958291338582677
 30
0.0
 10
2.246318897637795
 20
1.957011811023622
 30
0.0
 10
2.246318897637795
 20
1.957011811023622
 30
0.0
 10
2.24690157480315
 20
1.955736220472441
 30
0.0
 10
2.247818897637795
 20
1.954791338582677
 30
0.0
 10
2.249122047244095
 20
1.954125984251969
 30
0.0
 10
2.249122047244095
 20
1.954125984251969
 30
0.0
 10
2.250429133858268
 20
1.953484251968504
 30
0.0
 10
2.253011811023622
 20
1.953153543307087
 30
0.0
 10
2.256874015748032
 20
1.953153543307087
 30
0.0
 10
2.256874015748032
 20
1.953153543307087
 30
0.0
 10
2.256874015748032
 20
1.953153543307087
 30
0.0
 10
2.264846456692914
 20
1.953153543307087
 30
0.0
 10
2.264846456692914
 20
1.953153543307087
 30
0.0
 10
2.264846456692914
 20
1.953153543307087
 30
0.0
 10
2.264846456692914
 20
1.953153543307087
 30
0.0
 10
2.264846456692914
 20
1.946318897637795
 30
0.0
 10
2.264846456692914
 20
1.946318897637795
 30
0.0
 10
2.264846456692914
 20
1.946318897637795
 30
0.0
 10
2.264846456692914
 20
1.946318897637795
 30
0.0
 10
2.211208661417323
 20
1.946318897637795
 30
0.0
 10
2.211208661417323
 20
1.946318897637795
 30
0.0
 10
2.211208661417323
 20
1.946318897637795
 30
0.0
 10
2.211208661417323
 20
1.946318897637795
 30
0.0
 10
2.211208661417323
 20
1.953153543307087
 30
0.0
 10
2.211208661417323
 20
1.953153543307087
 30
0.0
 10
2.211208661417323
 20
1.953153543307087
 30
0.0
 10
2.211208661417323
 20
1.953153543307087
 30
0.0
 10
2.220066929133858
 20
1.953153543307087
 30
0.0
 10
2.220066929133858
 20
1.953153543307087
 30
0.0
 10
2.220066929133858
 20
1.953153543307087
 30
0.0
 10
2.223929133858268
 20
1.953153543307087
 30
0.0
 10
2.226484251968504
 20
1.953484251968504
 30
0.0
 10
2.227763779527559
 20
1.954181102362205
 30
0.0
 10
2.227763779527559
 20
1.954181102362205
 30
0.0
 10
2.22903937007874
 20
1.954846456692914
 30
0.0
 10
2.23003937007874
 20
1.955929133858268
 30
0.0
 10
2.230736220472441
 20
1.957429133858268
 30
0.0
 10
2.230736220472441
 20
1.957429133858268
 30
0.0
 10
2.231429133858268
 20
1.958929133858268
 30
0.0
 10
2.231791338582677
 20
1.961653543307087
 30
0.0
 10
2.231791338582677
 20
1.965598425196851
 30
0.0
 10
2.231791338582677
 20
1.965598425196851
 30
0.0
 10
2.231791338582677
 20
1.965598425196851
 30
0.0
 10
2.231791338582677
 20
2.043066929133858
 30
0.0
 10
2.231791338582677
 20
2.043066929133858
 30
0.0
 10
2.231791338582677
 20
2.043066929133858
 30
0.0
 10
2.231791338582677
 20
2.043066929133858
 30
0.0
 10
2.211208661417323
 20
2.043066929133858
 30
0.0
 10
2.211208661417323
 20
2.043066929133858
 30
0.0
 10
2.211208661417323
 20
2.043066929133858
 30
0.0
 10
2.211208661417323
 20
2.043066929133858
 30
0.0
 10
2.211208661417323
 20
2.050066929133859
 30
0.0
 10
2.211208661417323
 20
2.050066929133859
 30
0.0
 10
2.211208661417323
 20
2.050066929133859
 30
0.0
 10
2.222429133858268
 20
2.051649606299213
 30
0.0
 10
2.231818897637795
 20
2.05490157480315
 30
0.0
 10
2.239374015748032
 20
2.059846456692914
 30
0.0
  0
SPLINE
  5
A8
330
1F
100
AcDbEntity
  8
LAYER_1
 62
   250
100
AcDbSpline
210
0.0
220
0.0
230
1.0
 70
    11
 71
     3
 72
    20
 73
    16
 74
     0
 42
0.0000000001
 43
0.0000000001
 40
0.0
 40
0.0
 40
0.0
 40
0.0
 40
0.25
 40
0.25
 40
0.25
 40
0.25
 40
0.5
 40
0.5
 40
0.5
 40
0.5
 40
0.75
 40
0.75
 40
0.75
 40
0.75
 40
1.0
 40
1.0
 40
1.0
 40
1.0
 10
2.368208661417323
 20
2.065708661417323
 30
0.0
 10
2.368208661417323
 20
2.065708661417323
 30
0.0
 10
2.312625984251969
 20
1.910011811023622
 30
0.0
 10
2.312625984251969
 20
1.910011811023622
 30
0.0
 10
2.312625984251969
 20
1.910011811023622
 30
0.0
 10
2.312625984251969
 20
1.910011811023622
 30
0.0
 10
2.300570866141733
 20
1.910011811023622
 30
0.0
 10
2.300570866141733
 20
1.910011811023622
 30
0.0
 10
2.300570866141733
 20
1.910011811023622
 30
0.0
 10
2.300570866141733
 20
1.910011811023622
 30
0.0
 10
2.355818897637795
 20
2.065708661417323
 30
0.0
 10
2.355818897637795
 20
2.065708661417323
 30
0.0
 10
2.355818897637795
 20
2.065708661417323
 30
0.0
 10
2.355818897637795
 20
2.065708661417323
 30
0.0
 10
2.368208661417323
 20
2.065708661417323
 30
0.0
 10
2.368208661417323
 20
2.065708661417323
 30
0.0
  0
SPLINE
  5
A9
330
1F
100
AcDbEntity
  8
LAYER_1
 62
   250
100
AcDbSpline
210
0.0
220
0.0
230
1.0
 70
    11
 71
     3
 72
   136
 73
   132
 74
     0
 42
0.0000000001
 43
0.0000000001
 40
0.0
 40
0.0
 40
0.0
 40
0.0
 40
0.0303030303030303
 40
0.0303030303030303
 40
0.0303030303030303
 40
0.0303030303030303
 40
0.0606060606060606
 40
0.0606060606060606
 40
0.0606060606060606
 40
0.0606060606060606
 40
0.0909090909090909
 40
0.0909090909090909
 40
0.0909090909090909
 40
0.0909090909090909
 40
0.1212121212121212
 40
0.1212121212121212
 40
0.1212121212121212
 40
0.1212121212121212
 40
0.1515151515151515
 40
0.1515151515151515
 40
0.1515151515151515
 40
0.1515151515151515
 40
0.1818181818181818
 40
0.1818181818181818
 40
0.1818181818181818
 40
0.1818181818181818
 40
0.2121212121212121
 40
0.2121212121212121
 40
0.2121212121212121
 40
0.2121212121212121
 40
0.2424242424242424
 40
0.2424242424242424
 40
0.2424242424242424
 40
0.2424242424242424
 40
0.2727272727272727
 40
0.2727272727272727
 40
0.2727272727272727
 40
0.2727272727272727
 40
0.303030303030303
 40
0.303030303030303
 40
0.303030303030303
 40
0.303030303030303
 40
0.3333333333333333
 40
0.3333333333333333
 40
0.3333333333333333
 40
0.3333333333333333
 40
0.3636363636363635
 40
0.3636363636363635
 40
0.3636363636363635
 40
0.3636363636363635
 40
0.3939393939393938
 40
0.3939393939393938
 40
0.3939393939393938
 40
0.3939393939393938
 40
0.4242424242424241
 40
0.4242424242424241
 40
0.4242424242424241
 40
0.4242424242424241
 40
0.4545454545454544
 40
0.4545454545454544
 40
0.4545454545454544
 40
0.4545454545454544
 40
0.4848484848484846
 40
0.4848484848484846
 40
0.4848484848484846
 40
0.4848484848484846
 40
0.5151515151515149
 40
0.5151515151515149
 40
0.5151515151515149
 40
0.5151515151515149
 40
0.5454545454545452
 40
0.5454545454545452
 40
0.5454545454545452
 40
0.5454545454545452
 40
0.5757575757575755
 40
0.5757575757575755
 40
0.5757575757575755
 40
0.5757575757575755
 40
0.6060606060606057
 40
0.6060606060606057
 40
0.6060606060606057
 40
0.6060606060606057
 40
0.636363636363636
 40
0.636363636363636
 40
0.636363636363636
 40
0.636363636363636
 40
0.6666666666666663
 40
0.6666666666666663
 40
0.6666666666666663
 40
0.6666666666666663
 40
0.6969696969696966
 40
0.6969696969696966
 40
0.6969696969696966
 40
0.6969696969696966
 40
0.7272727272727269
 40
0.7272727272727269
 40
0.7272727272727269
 40
0.7272727272727269
 40
0.7575757575757571
 40
0.7575757575757571
 40
0.7575757575757571
 40
0.7575757575757571
 40
0.7878787878787874
 40
0.7878787878787874
 40
0.7878787878787874
 40
0.7878787878787874
 40
0.8181818181818177
 40
0.8181818181818177
 40
0.8181818181818177
 40
0.8181818181818177
 40
0.848484848484848
 40
0.848484848484848
 40
0.848484848484848
 40
0.848484848484848
 40
0.8787878787878782
 40
0.8787878787878782
 40
0.8787878787878782
 40
0.8787878787878782
 40
0.9090909090909085
 40
0.9090909090909085
 40
0.9090909090909085
 40
0.9090909090909085
 40
0.9393939393939388
 40
0.9393939393939388
 40
0.9393939393939388
 40
0.9393939393939388
 40
0.9696969696969691
 40
0.9696969696969691
 40
0.9696969696969691
 40
0.9696969696969691
 40
1.0
 40
1.0
 40
1.0
 40
1.0
 10
2.405653543307087
 20
2.01703937007874
 30
0.0
 10
2.405653543307087
 20
2.01703937007874
 30
0.0
 10
2.397763779527559
 20
2.016066929133858
 30
0.0
 10
2.397763779527559
 20
2.016066929133858
 30
0.0
 10
2.397763779527559
 20
2.016066929133858
 30
0.0
 10
2.397318897637796
 20
2.01990157480315
 30
0.0
 10
2.39709842519685
 20
2.023066929133858
 30
0.0
 10
2.39709842519685
 20
2.025511811023622
 30
0.0
 10
2.39709842519685
 20
2.025511811023622
 30
0.0
 10
2.39709842519685
 20
2.03190157480315
 30
0.0
 10
2.398846456692914
 20
2.037956692913386
 30
0.0
 10
2.402318897637795
 20
2.043649606299213
 30
0.0
 10
2.402318897637795
 20
2.043649606299213
 30
0.0
 10
2.405791338582677
 20
2.049346456692914
 30
0.0
 10
2.410625984251968
 20
2.053791338582677
 30
0.0
 10
2.416846456692913
 20
2.056984251968504
 30
0.0
 10
2.416846456692913
 20
2.056984251968504
 30
0.0
 10
2.42303937007874
 20
2.060208661417323
 30
0.0
 10
2.430181102362205
 20
2.061791338582677
 30
0.0
 10
2.438208661417323
 20
2.061791338582677
 30
0.0
 10
2.438208661417323
 20
2.061791338582677
 30
0.0
 10
2.445956692913386
 20
2.061791338582677
 30
0.0
 10
2.452763779527559
 20
2.060291338582677
 30
0.0
 10
2.458625984251968
 20
2.057291338582677
 30
0.0
 10
2.458625984251968
 20
2.057291338582677
 30
0.0
 10
2.464484251968504
 20
2.054263779527559
 30
0.0
 10
2.468956692913386
 20
2.050149606299213
 30
0.0
 10
2.472094488188977
 20
2.04490157480315
 30
0.0
 10
2.472094488188977
 20
2.04490157480315
 30
0.0
 10
2.475208661417323
 20
2.039681102362205
 30
0.0
 10
2.476763779527559
 20
2.033708661417323
 30
0.0
 10
2.476763779527559
 20
2.026956692913386
 30
0.0
 10
2.476763779527559
 20
2.026956692913386
 30
0.0
 10
2.476763779527559
 20
2.021263779527559
 30
0.0
 10
2.475763779527559
 20
2.015984251968504
 30
0.0
 10
2.473708661417323
 20
2.011153543307087
 30
0.0
 10
2.473708661417323
 20
2.011153543307087
 30
0.0
 10
2.471681102362205
 20
2.006291338582677
 30
0.0
 10
2.46840157480315
 20
2.001374015748032
 30
0.0
 10
2.46390157480315
 20
1.996456692913386
 30
0.0
 10
2.46390157480315
 20
1.996456692913386
 30
0.0
 10
2.46053937007874
 20
1.992763779527559
 30
0.0
 10
2.453736220472441
 20
1.987125984251969
 30
0.0
 10
2.443484251968504
 20
1.979511811023622
 30
0.0
 10
2.443484251968504
 20
1.979511811023622
 30
0.0
 10
2.430570866141733
 20
1.969874015748032
 30
0.0
 10
2.420681102362205
 20
1.962874015748032
 30
0.0
 10
2.413791338582677
 20
1.958511811023622
 30
0.0
 10
2.413791338582677
 20
1.958511811023622
 30
0.0
 10
2.413791338582677
 20
1.958511811023622
 30
0.0
 10
2.456098425196851
 20
1.958511811023622
 30
0.0
 10
2.456098425196851
 20
1.958511811023622
 30
0.0
 10
2.456098425196851
 20
1.958511811023622
 30
0.0
 10
2.46109842519685
 20
1.958511811023622
 30
0.0
 10
2.464346456692914
 20
1.958984251968504
 30
0.0
 10
2.465874015748032
 20
1.95990157480315
 30
0.0
 10
2.465874015748032
 20
1.95990157480315
 30
0.0
 10
2.467984251968504
 20
1.96109842519685
 30
0.0
 10
2.469429133858268
 20
1.963874015748032
 30
0.0
 10
2.470181102362205
 20
1.968208661417323
 30
0.0
 10
2.470181102362205
 20
1.968208661417323
 30
0.0
 10
2.470181102362205
 20
1.968208661417323
 30
0.0
 10
2.47090157480315
 20
1.972846456692913
 30
0.0
 10
2.47090157480315
 20
1.972846456692913
 30
0.0
 10
2.47090157480315
 20
1.972846456692913
 30
0.0
 10
2.47090157480315
 20
1.972846456692913
 30
0.0
 10
2.477818897637795
 20
1.972846456692913
 30
0.0
 10
2.477818897637795
 20
1.972846456692913
 30
0.0
 10
2.477818897637795
 20
1.972846456692913
 30
0.0
 10
2.477818897637795
 20
1.972846456692913
 30
0.0
 10
2.472291338582677
 20
1.942263779527559
 30
0.0
 10
2.472291338582677
 20
1.942263779527559
 30
0.0
 10
2.472291338582677
 20
1.942263779527559
 30
0.0
 10
2.472291338582677
 20
1.942263779527559
 30
0.0
 10
2.467098425196851
 20
1.942263779527559
 30
0.0
 10
2.467098425196851
 20
1.942263779527559
 30
0.0
 10
2.467098425196851
 20
1.942263779527559
 30
0.0
 10
2.467098425196851
 20
1.942263779527559
 30
0.0
 10
2.466181102362205
 20
1.946318897637795
 30
0.0
 10
2.466181102362205
 20
1.946318897637795
 30
0.0
 10
2.466181102362205
 20
1.946318897637795
 30
0.0
 10
2.466181102362205
 20
1.946318897637795
 30
0.0
 10
2.395070866141733
 20
1.946318897637795
 30
0.0
 10
2.395070866141733
 20
1.946318897637795
 30
0.0
 10
2.395070866141733
 20
1.946318897637795
 30
0.0
 10
2.395070866141733
 20
1.946318897637795
 30
0.0
 10
2.395070866141733
 20
1.953153543307087
 30
0.0
 10
2.395070866141733
 20
1.953153543307087
 30
0.0
 10
2.395070866141733
 20
1.953153543307087
 30
0.0
 10
2.395070866141733
 20
1.953153543307087
 30
0.0
 10
2.408098425196851
 20
1.963011811023622
 30
0.0
 10
2.408098425196851
 20
1.963011811023622
 30
0.0
 10
2.408098425196851
 20
1.963011811023622
 30
0.0
 10
2.417956692913386
 20
1.970318897637795
 30
0.0
 10
2.425208661417323
 20
1.975929133858268
 30
0.0
 10
2.429818897637795
 20
1.979846456692914
 30
0.0
 10
2.429818897637795
 20
1.979846456692914
 30
0.0
 10
2.43853937007874
 20
1.987236220472441
 30
0.0
 10
2.445125984251969
 20
1.99353937007874
 30
0.0
 10
2.44953937007874
 20
1.998763779527559
 30
0.0
 10
2.44953937007874
 20
1.998763779527559
 30
0.0
 10
2.453956692913386
 20
2.004011811023622
 30
0.0
 10
2.457011811023622
 20
2.008736220472441
 30
0.0
 10
2.458653543307087
 20
2.012929133858268
 30
0.0
 10
2.458653543307087
 20
2.012929133858268
 30
0.0
 10
2.460318897637795
 20
2.017122047244095
 30
0.0
 10
2.461153543307087
 20
2.02153937007874
 30
0.0
 10
2.461153543307087
 20
2.026153543307087
 30
0.0
 10
2.461153543307087
 20
2.026153543307087
 30
0.0
 10
2.461153543307087
 20
2.033791338582677
 30
0.0
 10
2.458681102362205
 20
2.040066929133858
 30
0.0
 10
2.453791338582677
 20
2.044956692913386
 30
0.0
 10
2.453791338582677
 20
2.044956692913386
 30
0.0
 10
2.448874015748032
 20
2.049846456692913
 30
0.0
 10
2.442484251968504
 20
2.052263779527559
 30
0.0
 10
2.434625984251968
 20
2.052263779527559
 30
0.0
 10
2.434625984251968
 20
2.052263779527559
 30
0.0
 10
2.428984251968504
 20
2.052263779527559
 30
0.0
 10
2.423929133858268
 20
2.051066929133858
 30
0.0
 10
2.419511811023622
 20
2.048622047244094
 30
0.0
 10
2.419511811023622
 20
2.048622047244094
 30
0.0
 10
2.415098425196851
 20
2.046181102362205
 30
0.0
 10
2.411625984251969
 20
2.042763779527559
 30
0.0
 10
2.409070866141732
 20
2.038346456692914
 30
0.0
 10
2.409070866141732
 20
2.038346456692914
 30
0.0
 10
2.406511811023622
 20
2.033956692913386
 30
0.0
 10
2.405236220472441
 20
2.029208661417323
 30
0.0
 10
2.405236220472441
 20
2.024122047244095
 30
0.0
 10
2.405236220472441
 20
2.024122047244095
 30
0.0
 10
2.405236220472441
 20
2.022208661417323
 30
0.0
 10
2.405374015748031
 20
2.019846456692914
 30
0.0
 10
2.405653543307087
 20
2.01703937007874
 30
0.0
  0
SPLINE
  5
AA
330
1F
100
AcDbEntity
  8
LAYER_1
 62
   250
100
AcDbSpline
210
0.0
220
0.0
230
1.0
 70
    11
 71
     3
 72
    60
 73
    56
 74
     0
 42
0.0000000001
 43
0.0000000001
 40
0.0
 40
0.0
 40
0.0
 40
0.0
 40
0.0714285714285714
 40
0.0714285714285714
 40
0.0714285714285714
 40
0.0714285714285714
 40
0.1428571428571429
 40
0.1428571428571429
 40
0.1428571428571429
 40
0.1428571428571429
 40
0.2142857142857143
 40
0.2142857142857143
 40
0.2142857142857143
 40
0.2142857142857143
 40
0.2857142857142857
 40
0.2857142857142857
 40
0.2857142857142857
 40
0.2857142857142857
 40
0.3571428571428571
 40
0.3571428571428571
 40
0.3571428571428571
 40
0.3571428571428571
 40
0.4285714285714285
 40
0.4285714285714285
 40
0.4285714285714285
 40
0.4285714285714285
 40
0.4999999999999999
 40
0.4999999999999999
 40
0.4999999999999999
 40
0.4999999999999999
 40
0.5714285714285713
 40
0.5714285714285713
 40
0.5714285714285713
 40
0.5714285714285713
 40
0.6428571428571427
 40
0.6428571428571427
 40
0.6428571428571427
 40
0.6428571428571427
 40
0.7142857142857141
 40
0.7142857142857141
 40
0.7142857142857141
 40
0.7142857142857141
 40
0.7857142857142855
 40
0.7857142857142855
 40
0.7857142857142855
 40
0.7857142857142855
 40
0.8571428571428569
 40
0.8571428571428569
 40
0.8571428571428569
 40
0.8571428571428569
 40
0.9285714285714283
 40
0.9285714285714283
 40
0.9285714285714283
 40
0.9285714285714283
 40
1.0
 40
1.0
 40
1.0
 40
1.0
 10
2.500208661417323
 20
2.017763779527559
 30
0.0
 10
2.500208661417323
 20
2.017763779527559
 30
0.0
 10
2.495818897637796
 20
2.023153543307087
 30
0.0
 10
2.495818897637796
 20
2.023153543307087
 30
0.0
 10
2.495818897637796
 20
2.023153543307087
 30
0.0
 10
2.506933070866142
 20
2.032208661417323
 30
0.0
 10
2.512515748031496
 20
2.039763779527559
 30
0.0
 10
2.512515748031496
 20
2.045846456692913
 30
0.0
 10
2.512515748031496
 20
2.045846456692913
 30
0.0
 10
2.512515748031496
 20
2.04653937007874
 30
0.0
 10
2.51246062992126
 20
2.047429133858268
 30
0.0
 10
2.512346456692914
 20
2.048456692913386
 30
0.0
 10
2.512346456692914
 20
2.048456692913386
 30
0.0
 10
2.511433070866142
 20
2.048066929133858
 30
0.0
 10
2.510515748031496
 20
2.047763779527559
 30
0.0
 10
2.509653543307087
 20
2.047566929133859
 30
0.0
 10
2.509653543307087
 20
2.047566929133859
 30
0.0
 10
2.508791338582677
 20
2.047346456692913
 30
0.0
 10
2.507988188976378
 20
2.047236220472441
 30
0.0
 10
2.507208661417323
 20
2.047236220472441
 30
0.0
 10
2.507208661417323
 20
2.047236220472441
 30
0.0
 10
2.50459842519685
 20
2.047236220472441
 30
0.0
 10
2.502515748031496
 20
2.048066929133858
 30
0.0
 10
2.50096062992126
 20
2.049763779527559
 30
0.0
 10
2.50096062992126
 20
2.049763779527559
 30
0.0
 10
2.499374015748032
 20
2.051429133858268
 30
0.0
 10
2.498598425196851
 20
2.053566929133858
 30
0.0
 10
2.498598425196851
 20
2.056181102362205
 30
0.0
 10
2.498598425196851
 20
2.056181102362205
 30
0.0
 10
2.498598425196851
 20
2.058736220472441
 30
0.0
 10
2.499543307086614
 20
2.060956692913386
 30
0.0
 10
2.501433070866142
 20
2.062846456692914
 30
0.0
 10
2.501433070866142
 20
2.062846456692914
 30
0.0
 10
2.503346456692913
 20
2.064763779527559
 30
0.0
 10
2.505625984251969
 20
2.065708661417323
 30
0.0
 10
2.508263779527559
 20
2.065708661417323
 30
0.0
 10
2.508263779527559
 20
2.065708661417323
 30
0.0
 10
2.51196062992126
 20
2.065708661417323
 30
0.0
 10
2.515125984251969
 20
2.064236220472441
 30
0.0
 10
2.517763779527559
 20
2.061263779527559
 30
0.0
 10
2.517763779527559
 20
2.061263779527559
 30
0.0
 10
2.520374015748032
 20
2.058318897637796
 30
0.0
 10
2.521708661417323
 20
2.054511811023622
 30
0.0
 10
2.521708661417323
 20
2.049846456692913
 30
0.0
 10
2.521708661417323
 20
2.049846456692913
 30
0.0
 10
2.521708661417323
 20
2.046791338582677
 30
0.0
 10
2.521070866141733
 20
2.043594488188977
 30
0.0
 10
2.519818897637796
 20
2.040263779527559
 30
0.0
 10
2.519818897637796
 20
2.040263779527559
 30
0.0
 10
2.518570866141733
 20
2.036929133858268
 30
0.0
 10
2.516763779527559
 20
2.033846456692913
 30
0.0
 10
2.514374015748031
 20
2.030984251968504
 30
0.0
 10
2.514374015748031
 20
2.030984251968504
 30
0.0
 10
2.511988188976378
 20
2.028153543307087
 30
0.0
 10
2.507263779527559
 20
2.023736220472441
 30
0.0
 10
2.500208661417323
 20
2.017763779527559
 30
0.0
  0
SPLINE
  5
AB
330
1F
100
AcDbEntity
  8
LAYER_1
 62
   250
100
AcDbSpline
210
0.0
220
0.0
230
1.0
 70
    11
 71
     3
 72
    60
 73
    56
 74
     0
 42
0.0000000001
 43
0.0000000001
 40
0.0
 40
0.0
 40
0.0
 40
0.0
 40
0.0714285714285714
 40
0.0714285714285714
 40
0.0714285714285714
 40
0.0714285714285714
 40
0.1428571428571429
 40
0.1428571428571429
 40
0.1428571428571429
 40
0.1428571428571429
 40
0.2142857142857143
 40
0.2142857142857143
 40
0.2142857142857143
 40
0.2142857142857143
 40
0.2857142857142857
 40
0.2857142857142857
 40
0.2857142857142857
 40
0.2857142857142857
 40
0.3571428571428571
 40
0.3571428571428571
 40
0.3571428571428571
 40
0.3571428571428571
 40
0.4285714285714285
 40
0.4285714285714285
 40
0.4285714285714285
 40
0.4285714285714285
 40
0.4999999999999999
 40
0.4999999999999999
 40
0.4999999999999999
 40
0.4999999999999999
 40
0.5714285714285713
 40
0.5714285714285713
 40
0.5714285714285713
 40
0.5714285714285713
 40
0.6428571428571427
 40
0.6428571428571427
 40
0.6428571428571427
 40
0.6428571428571427
 40
0.7142857142857141
 40
0.7142857142857141
 40
0.7142857142857141
 40
0.7142857142857141
 40
0.7857142857142855
 40
0.7857142857142855
 40
0.7857142857142855
 40
0.7857142857142855
 40
0.8571428571428569
 40
0.8571428571428569
 40
0.8571428571428569
 40
0.8571428571428569
 40
0.9285714285714283
 40
0.9285714285714283
 40
0.9285714285714283
 40
0.9285714285714283
 40
1.0
 40
1.0
 40
1.0
 40
1.0
 10
2.529263779527559
 20
2.017763779527559
 30
0.0
 10
2.529263779527559
 20
2.017763779527559
 30
0.0
 10
2.524874015748031
 20
2.023153543307087
 30
0.0
 10
2.524874015748031
 20
2.023153543307087
 30
0.0
 10
2.524874015748031
 20
2.023153543307087
 30
0.0
 10
2.535988188976378
 20
2.032208661417323
 30
0.0
 10
2.541570866141732
 20
2.039763779527559
 30
0.0
 10
2.541570866141732
 20
2.045846456692913
 30
0.0
 10
2.541570866141732
 20
2.045846456692913
 30
0.0
 10
2.541570866141732
 20
2.04653937007874
 30
0.0
 10
2.541515748031496
 20
2.047429133858268
 30
0.0
 10
2.54140157480315
 20
2.048456692913386
 30
0.0
 10
2.54140157480315
 20
2.048456692913386
 30
0.0
 10
2.540488188976378
 20
2.048066929133858
 30
0.0
 10
2.539570866141732
 20
2.047763779527559
 30
0.0
 10
2.538708661417323
 20
2.047566929133859
 30
0.0
 10
2.538708661417323
 20
2.047566929133859
 30
0.0
 10
2.537846456692913
 20
2.047346456692913
 30
0.0
 10
2.537015748031496
 20
2.047236220472441
 30
0.0
 10
2.536181102362205
 20
2.047236220472441
 30
0.0
 10
2.536181102362205
 20
2.047236220472441
 30
0.0
 10
2.533625984251969
 20
2.047236220472441
 30
0.0
 10
2.531570866141732
 20
2.048066929133858
 30
0.0
 10
2.530015748031496
 20
2.049763779527559
 30
0.0
 10
2.530015748031496
 20
2.049763779527559
 30
0.0
 10
2.528433070866142
 20
2.051429133858268
 30
0.0
 10
2.527653543307087
 20
2.053566929133858
 30
0.0
 10
2.527653543307087
 20
2.056181102362205
 30
0.0
 10
2.527653543307087
 20
2.056181102362205
 30
0.0
 10
2.527653543307087
 20
2.058736220472441
 30
0.0
 10
2.52859842519685
 20
2.060956692913386
 30
0.0
 10
2.530488188976378
 20
2.062846456692914
 30
0.0
 10
2.530488188976378
 20
2.062846456692914
 30
0.0
 10
2.532374015748032
 20
2.064763779527559
 30
0.0
 10
2.534681102362205
 20
2.065708661417323
 30
0.0
 10
2.537318897637795
 20
2.065708661417323
 30
0.0
 10
2.537318897637795
 20
2.065708661417323
 30
0.0
 10
2.541015748031496
 20
2.065708661417323
 30
0.0
 10
2.544181102362205
 20
2.064236220472441
 30
0.0
 10
2.546818897637795
 20
2.061263779527559
 30
0.0
 10
2.546818897637795
 20
2.061263779527559
 30
0.0
 10
2.549429133858268
 20
2.058318897637796
 30
0.0
 10
2.550763779527559
 20
2.054511811023622
 30
0.0
 10
2.550763779527559
 20
2.049846456692913
 30
0.0
 10
2.550763779527559
 20
2.049846456692913
 30
0.0
 10
2.550763779527559
 20
2.046791338582677
 30
0.0
 10
2.550125984251969
 20
2.043594488188977
 30
0.0
 10
2.548874015748031
 20
2.040263779527559
 30
0.0
 10
2.548874015748031
 20
2.040263779527559
 30
0.0
 10
2.547625984251968
 20
2.036929133858268
 30
0.0
 10
2.545818897637795
 20
2.033846456692913
 30
0.0
 10
2.543433070866142
 20
2.030984251968504
 30
0.0
 10
2.543433070866142
 20
2.030984251968504
 30
0.0
 10
2.541043307086614
 20
2.028153543307087
 30
0.0
 10
2.536318897637795
 20
2.023736220472441
 30
0.0
 10
2.529263779527559
 20
2.017763779527559
 30
0.0
  0
ENDSEC
  0
SECTION
  2
OBJECTS
  0
DICTIONARY
  5
C
330
0
100
AcDbDictionary
  3
ACAD_GROUP
350
D
  3
ACAD_LAYOUT
350
1A
  3
ACAD_MLINESTYLE
350
17
  3
ACAD_PLOTSETTINGS
350
19
  3
ACDBHEADERROUNDTRIPXREC
350
AC
  0
DICTIONARY
  5
CC
330
29
100
AcDbDictionary
280
     1
  3
ACAD_XREC_ROUNDTRIP
360
CD
  0
DICTIONARY
  5
D
102
{ACAD_REACTORS
330
C
102
}
330
C
100
AcDbDictionary
  0
DICTIONARY
  5
1A
102
{ACAD_REACTORS
330
C
102
}
330
C
100
AcDbDictionary
  0
DICTIONARY
  5
17
102
{ACAD_REACTORS
330
C
102
}
330
C
100
AcDbDictionary
  3
STANDARD
350
18
  0
DICTIONARY
  5
19
102
{ACAD_REACTORS
330
C
102
}
330
C
100
AcDbDictionary
  0
DICTIONARY
  5
AC
102
{ACAD_REACTORS
330
C
102
}
330
C
100
AcDbDictionary
  3
CEPSNTYPE
350
B5
  3
DIMSTYLEDATA
350
CB
  3
FINGERPRINTGUID
350
B6
  3
HYPERLINKBASE
350
AF
  3
INSUNITS
350
B4
  3
LAYOUTDICT
350
B1
  3
LWETCUNION
350
B3
  3
PLOTSETDICT
350
B2
  3
PSVPSCALE
350
B8
  3
PUCSBASE
350
BB
  3
PUCSORGBACK
350
C1
  3
PUCSORGBOTTOM
350
BD
  3
PUCSORGFRONT
350
C0
  3
PUCSORGLEFT
350
BE
  3
PUCSORGRIGHT
350
BF
  3
PUCSORGTOP
350
BC
  3
PUCSORTHOREF
350
B9
  3
PUCSORTHOVIEW
350
BA
  3
STYLESHEET
350
B0
  3
TSTACKALIGN
350
AD
  3
TSTACKSIZE
350
AE
  3
UCSBASE
350
C4
  3
UCSORGBACK
350
CA
  3
UCSORGBOTTOM
350
C6
  3
UCSORGFRONT
350
C9
  3
UCSORGLEFT
350
C7
  3
UCSORGRIGHT
350
C8
  3
UCSORGTOP
350
C5
  3
UCSORTHOREF
350
C2
  3
UCSORTHOVIEW
350
C3
  3
VERSIONGUID
350
B7
  0
XRECORD
  5
CD
102
{ACAD_REACTORS
330
CC
102
}
330
CC
100
AcDbXrecord
102
UCS
 74
     0
 71
     1
 10
0.0
 20
0.0
 30
0.0
 10
1.0
 20
0.0
 30
0.0
 10
0.0
 20
1.0
 30
0.0
146
0.0
 79
     0
102
VIEW
281
     0
  0
MLINESTYLE
  5
18
102
{ACAD_REACTORS
330
17
102
}
330
17
100
AcDbMlineStyle
  2
Standard
 70
     0
  3

 62
   256
 51
90.0
 52
90.0
 71
     2
 49
0.5
 62
   256
  6
BYLAYER
 49
-0.5
 62
   256
  6
BYLAYER
  0
XRECORD
  5
B5
102
{ACAD_REACTORS
330
AC
102
}
330
AC
100
AcDbXrecord
 90
        0
  0
XRECORD
  5
CB
102
{ACAD_REACTORS
330
AC
102
}
330
AC
100
AcDbXrecord
1000
DSTYLE
1002
{
1070
   340
340
11
1002
}
  0
XRECORD
  5
B6
102
{ACAD_REACTORS
330
AC
102
}
330
AC
100
AcDbXrecord
  1
{FAEB1C30-E019-11D5-929B-00C0DF256EC4}
  0
XRECORD
  5
AF
102
{ACAD_REACTORS
330
AC
102
}
330
AC
100
AcDbXrecord
  1

  0
XRECORD
  5
B4
102
{ACAD_REACTORS
330
AC
102
}
330
AC
100
AcDbXrecord
 90
        1
  0
XRECORD
  5
B1
102
{ACAD_REACTORS
330
AC
102
}
330
AC
100
AcDbXrecord
340
1A
  0
XRECORD
  5
B3
102
{ACAD_REACTORS
330
AC
102
}
330
AC
100
AcDbXrecord
 90
     2560
  0
XRECORD
  5
B2
102
{ACAD_REACTORS
330
AC
102
}
330
AC
100
AcDbXrecord
340
19
  0
XRECORD
  5
B8
102
{ACAD_REACTORS
330
AC
102
}
330
AC
100
AcDbXrecord
 40
0.0
  0
XRECORD
  5
BB
102
{ACAD_REACTORS
330
AC
102
}
330
AC
100
AcDbXrecord
340
0
  0
XRECORD
  5
C1
102
{ACAD_REACTORS
330
AC
102
}
330
AC
100
AcDbXrecord
 10
0.0
 20
0.0
 30
0.0
  0
XRECORD
  5
BD
102
{ACAD_REACTORS
330
AC
102
}
330
AC
100
AcDbXrecord
 10
0.0
 20
0.0
 30
0.0
  0
XRECORD
  5
C0
102
{ACAD_REACTORS
330
AC
102
}
330
AC
100
AcDbXrecord
 10
0.0
 20
0.0
 30
0.0
  0
XRECORD
  5
BE
102
{ACAD_REACTORS
330
AC
102
}
330
AC
100
AcDbXrecord
 10
0.0
 20
0.0
 30
0.0
  0
XRECORD
  5
BF
102
{ACAD_REACTORS
330
AC
102
}
330
AC
100
AcDbXrecord
 10
0.0
 20
0.0
 30
0.0
  0
XRECORD
  5
BC
102
{ACAD_REACTORS
330
AC
102
}
330
AC
100
AcDbXrecord
 10
0.0
 20
0.0
 30
0.0
  0
XRECORD
  5
B9
102
{ACAD_REACTORS
330
AC
102
}
330
AC
100
AcDbXrecord
340
0
  0
XRECORD
  5
BA
102
{ACAD_REACTORS
330
AC
102
}
330
AC
100
AcDbXrecord
 70
     0
  0
XRECORD
  5
B0
102
{ACAD_REACTORS
330
AC
102
}
330
AC
100
AcDbXrecord
  1

  0
XRECORD
  5
AD
102
{ACAD_REACTORS
330
AC
102
}
330
AC
100
AcDbXrecord
 90
        1
  0
XRECORD
  5
AE
102
{ACAD_REACTORS
330
AC
102
}
330
AC
100
AcDbXrecord
 90
       70
  0
XRECORD
  5
C4
102
{ACAD_REACTORS
330
AC
102
}
330
AC
100
AcDbXrecord
340
0
  0
XRECORD
  5
CA
102
{ACAD_REACTORS
330
AC
102
}
330
AC
100
AcDbXrecord
 10
0.0
 20
0.0
 30
0.0
  0
XRECORD
  5
C6
102
{ACAD_REACTORS
330
AC
102
}
330
AC
100
AcDbXrecord
 10
0.0
 20
0.0
 30
0.0
  0
XRECORD
  5
C9
102
{ACAD_REACTORS
330
AC
102
}
330
AC
100
AcDbXrecord
 10
0.0
 20
0.0
 30
0.0
  0
XRECORD
  5
C7
102
{ACAD_REACTORS
330
AC
102
}
330
AC
100
AcDbXrecord
 10
0.0
 20
0.0
 30
0.0
  0
XRECORD
  5
C8
102
{ACAD_REACTORS
330
AC
102
}
330
AC
100
AcDbXrecord
 10
0.0
 20
0.0
 30
0.0
  0
XRECORD
  5
C5
102
{ACAD_REACTORS
330
AC
102
}
330
AC
100
AcDbXrecord
 10
0.0
 20
0.0
 30
0.0
  0
XRECORD
  5
C2
102
{ACAD_REACTORS
330
AC
102
}
330
AC
100
AcDbXrecord
340
0
  0
XRECORD
  5
C3
102
{ACAD_REACTORS
330
AC
102
}
330
AC
100
AcDbXrecord
 70
     0
  0
XRECORD
  5
B7
102
{ACAD_REACTORS
330
AC
102
}
330
AC
100
AcDbXrecord
  1
{FAEB1C32-E019-11D5-929B-00C0DF256EC4}
  0
ENDSEC
  0
EOF
