  0
SECTION
  2
HEADER
  9
$ACADVER
  1
AC1014
  9
$ACADMAINTVER
 70
     9
  9
$DWGCODEPAGE
  3
ANSI_1252
  9
$INSBASE
 10
0.0
 20
0.0
 30
0.0
  9
$EXTMIN
 10
-3.083188976377953
 20
0.9201732283464567
 30
0.0
  9
$EXTMAX
 10
3.085740157480315
 20
3.099696850393701
 30
0.0
  9
$LIMMIN
 10
0.0
 20
0.0
  9
$LIMMAX
 10
12.0
 20
9.0
  9
$ORTHOMODE
 70
     0
  9
$REGENMODE
 70
     1
  9
$FILLMODE
 70
     1
  9
$QTEXTMODE
 70
     0
  9
$MIRRTEXT
 70
     1
  9
$DRAGMODE
 70
     2
  9
$LTSCALE
 40
1.0
  9
$OSMODE
 70
    37
  9
$ATTMODE
 70
     1
  9
$TEXTSIZE
 40
0.2
  9
$TRACEWID
 40
0.05
  9
$TEXTSTYLE
  7
STANDARD
  9
$CLAYER
  8
0
  9
$CELTYPE
  6
BYLAYER
  9
$CECOLOR
 62
   256
  9
$CELTSCALE
 40
1.0
  9
$DELOBJ
 70
     1
  9
$DISPSILH
 70
     0
  9
$DIMSCALE
 40
1.0
  9
$DIMASZ
 40
0.18
  9
$DIMEXO
 40
0.0625
  9
$DIMDLI
 40
0.38
  9
$DIMRND
 40
0.0
  9
$DIMDLE
 40
0.0
  9
$DIMEXE
 40
0.18
  9
$DIMTP
 40
0.0
  9
$DIMTM
 40
0.0
  9
$DIMTXT
 40
0.18
  9
$DIMCEN
 40
0.09
  9
$DIMTSZ
 40
0.0
  9
$DIMTOL
 70
     0
  9
$DIMLIM
 70
     0
  9
$DIMTIH
 70
     1
  9
$DIMTOH
 70
     1
  9
$DIMSE1
 70
     0
  9
$DIMSE2
 70
     0
  9
$DIMTAD
 70
     0
  9
$DIMZIN
 70
     0
  9
$DIMBLK
  1

  9
$DIMASO
 70
     1
  9
$DIMSHO
 70
     1
  9
$DIMPOST
  1

  9
$DIMAPOST
  1

  9
$DIMALT
 70
     0
  9
$DIMALTD
 70
     2
  9
$DIMALTF
 40
25.4
  9
$DIMLFAC
 40
1.0
  9
$DIMTOFL
 70
     0
  9
$DIMTVP
 40
0.0
  9
$DIMTIX
 70
     0
  9
$DIMSOXD
 70
     0
  9
$DIMSAH
 70
     0
  9
$DIMBLK1
  1

  9
$DIMBLK2
  1

  9
$DIMSTYLE
  2
STANDARD
  9
$DIMCLRD
 70
     0
  9
$DIMCLRE
 70
     0
  9
$DIMCLRT
 70
     0
  9
$DIMTFAC
 40
1.0
  9
$DIMGAP
 40
0.09
  9
$DIMJUST
 70
     0
  9
$DIMSD1
 70
     0
  9
$DIMSD2
 70
     0
  9
$DIMTOLJ
 70
     1
  9
$DIMTZIN
 70
     0
  9
$DIMALTZ
 70
     0
  9
$DIMALTTZ
 70
     0
  9
$DIMFIT
 70
     3
  9
$DIMUPT
 70
     0
  9
$DIMUNIT
 70
     2
  9
$DIMDEC
 70
     4
  9
$DIMTDEC
 70
     4
  9
$DIMALTU
 70
     2
  9
$DIMALTTD
 70
     2
  9
$DIMTXSTY
  7
STANDARD
  9
$DIMAUNIT
 70
     0
  9
$LUNITS
 70
     2
  9
$LUPREC
 70
     4
  9
$SKETCHINC
 40
0.1
  9
$FILLETRAD
 40
0.5
  9
$AUNITS
 70
     0
  9
$AUPREC
 70
     0
  9
$MENU
  1
.
  9
$ELEVATION
 40
0.0
  9
$PELEVATION
 40
0.0
  9
$THICKNESS
 40
0.0
  9
$LIMCHECK
 70
     0
  9
$CHAMFERA
 40
0.5
  9
$CHAMFERB
 40
0.5
  9
$CHAMFERC
 40
1.0
  9
$CHAMFERD
 40
0.0
  9
$SKPOLY
 70
     0
  9
$TDCREATE
 40
2454120.448916019
  9
$TDUPDATE
 40
2454120.44891603
  9
$TDINDWG
 40
0.0000000116
  9
$TDUSRTIMER
 40
0.0000000116
  9
$USRTIMER
 70
     1
  9
$ANGBASE
 50
0.0
  9
$ANGDIR
 70
     0
  9
$PDMODE
 70
     0
  9
$PDSIZE
 40
0.0
  9
$PLINEWID
 40
0.0
  9
$COORDS
 70
     1
  9
$SPLFRAME
 70
     0
  9
$SPLINETYPE
 70
     6
  9
$SPLINESEGS
 70
     8
  9
$ATTDIA
 70
     0
  9
$ATTREQ
 70
     1
  9
$HANDLING
 70
     1
  9
$HANDSEED
  5
B4
  9
$SURFTAB1
 70
     6
  9
$SURFTAB2
 70
     6
  9
$SURFTYPE
 70
     6
  9
$SURFU
 70
     6
  9
$SURFV
 70
     6
  9
$UCSNAME
  2

  9
$UCSORG
 10
0.0
 20
0.0
 30
0.0
  9
$UCSXDIR
 10
1.0
 20
0.0
 30
0.0
  9
$UCSYDIR
 10
0.0
 20
1.0
 30
0.0
  9
$PUCSNAME
  2

  9
$PUCSORG
 10
0.0
 20
0.0
 30
0.0
  9
$PUCSXDIR
 10
1.0
 20
0.0
 30
0.0
  9
$PUCSYDIR
 10
0.0
 20
1.0
 30
0.0
  9
$USERI1
 70
     0
  9
$USERI2
 70
     0
  9
$USERI3
 70
     0
  9
$USERI4
 70
     0
  9
$USERI5
 70
     0
  9
$USERR1
 40
0.0
  9
$USERR2
 40
0.0
  9
$USERR3
 40
0.0
  9
$USERR4
 40
0.0
  9
$USERR5
 40
0.0
  9
$WORLDVIEW
 70
     1
  9
$SHADEDGE
 70
     3
  9
$SHADEDIF
 70
    70
  9
$TILEMODE
 70
     1
  9
$MAXACTVP
 70
    64
  9
$PINSBASE
 10
0.0
 20
0.0
 30
0.0
  9
$PLIMCHECK
 70
     0
  9
$PEXTMIN
 10
1.000000000000000E+20
 20
1.000000000000000E+20
 30
1.000000000000000E+20
  9
$PEXTMAX
 10
-1.000000000000000E+20
 20
-1.000000000000000E+20
 30
-1.000000000000000E+20
  9
$PLIMMIN
 10
0.0
 20
0.0
  9
$PLIMMAX
 10
12.0
 20
9.0
  9
$UNITMODE
 70
     0
  9
$VISRETAIN
 70
     1
  9
$PLINEGEN
 70
     0
  9
$PSLTSCALE
 70
     1
  9
$TREEDEPTH
 70
  3020
  9
$PICKSTYLE
 70
     1
  9
$CMLSTYLE
  2
STANDARD
  9
$CMLJUST
 70
     0
  9
$CMLSCALE
 40
1.0
  9
$PROXYGRAPHICS
 70
     1
  9
$MEASUREMENT
 70
     0
  0
ENDSEC
  0
SECTION
  2
CLASSES
  0
CLASS
  1
ACDBDICTIONARYWDFLT
  2
AcDbDictionaryWithDefault
  3
ObjectDBX Classes
 90
        0
280
     0
281
     0
  0
CLASS
  1
XRECORD
  2
AcDbXrecord
  3
AutoCAD 2000
 90
        0
280
     0
281
     0
  0
CLASS
  1
LWPOLYLINE
  2
AcDbPolyline
  3
AutoCAD 2000
 90
        0
280
     0
281
     1
  0
CLASS
  1
HATCH
  2
AcDbHatch
  3
AutoCAD 2000
 90
        0
280
     0
281
     1
  0
CLASS
  1
ACDBPLACEHOLDER
  2
AcDbPlaceHolder
  3
ObjectDBX Classes
 90
        0
280
     0
281
     0
  0
CLASS
  1
LAYOUT
  2
AcDbLayout
  3
ObjectDBX Classes
 90
        0
280
     0
281
     0
  0
ENDSEC
  0
SECTION
  2
TABLES
  0
TABLE
  2
VPORT
  5
8
330
0
100
AcDbSymbolTable
 70
     2
  0
VPORT
  5
29
102
{ACAD_XDICTIONARY
360
B2
102
}
330
8
100
AcDbSymbolTableRecord
100
AcDbViewportTableRecord
  2
*ACTIVE
 70
     0
 10
0.0
 20
0.0
 11
1.0
 21
1.0
 12
10.42990654205607
 22
4.5
 13
0.0
 23
0.0
 14
0.5
 24
0.5
 15
0.5
 25
0.5
 16
0.0
 26
0.0
 36
1.0
 17
0.0
 27
0.0
 37
0.0
 40
9.0
 41
1.972972972850329
 42
50.0
 43
0.0
 44
0.0
 50
0.0
 51
0.0
 71
     0
 72
   100
 73
     1
 74
     3
 75
     0
 76
     0
 77
     0
 78
     0
  0
ENDTAB
  0
TABLE
  2
LTYPE
  5
5
330
0
100
AcDbSymbolTable
 70
     1
  0
LTYPE
  5
14
330
5
100
AcDbSymbolTableRecord
100
AcDbLinetypeTableRecord
  2
BYBLOCK
 70
     0
  3

 72
    65
 73
     0
 40
0.0
  0
LTYPE
  5
15
330
5
100
AcDbSymbolTableRecord
100
AcDbLinetypeTableRecord
  2
BYLAYER
 70
     0
  3

 72
    65
 73
     0
 40
0.0
  0
LTYPE
  5
16
330
5
100
AcDbSymbolTableRecord
100
AcDbLinetypeTableRecord
  2
CONTINUOUS
 70
     0
  3
Solid line
 72
    65
 73
     0
 40
0.0
  0
ENDTAB
  0
TABLE
  2
LAYER
  5
2
330
0
100
AcDbSymbolTable
 70
     2
  0
LAYER
  5
10
330
2
100
AcDbSymbolTableRecord
100
AcDbLayerTableRecord
  2
0
 70
     0
 62
     7
  6
CONTINUOUS
  0
LAYER
  5
2B
330
2
100
AcDbSymbolTableRecord
100
AcDbLayerTableRecord
  2
LAYER_1
 70
     0
 62
     7
  6
CONTINUOUS
  0
ENDTAB
  0
TABLE
  2
STYLE
  5
3
330
0
100
AcDbSymbolTable
 70
     1
  0
STYLE
  5
11
330
3
100
AcDbSymbolTableRecord
100
AcDbTextStyleTableRecord
  2
STANDARD
 70
     0
 40
0.0
 41
1.0
 50
0.0
 71
     0
 42
0.2
  3
txt
  4

  0
ENDTAB
  0
TABLE
  2
VIEW
  5
6
330
0
100
AcDbSymbolTable
 70
     0
  0
ENDTAB
  0
TABLE
  2
UCS
  5
7
330
0
100
AcDbSymbolTable
 70
     0
  0
ENDTAB
  0
TABLE
  2
APPID
  5
9
330
0
100
AcDbSymbolTable
 70
     2
  0
APPID
  5
12
330
9
100
AcDbSymbolTableRecord
100
AcDbRegAppTableRecord
  2
ACAD
 70
     0
  0
APPID
  5
2A
330
9
100
AcDbSymbolTableRecord
100
AcDbRegAppTableRecord
  2
ODA
 70
     0
  0
ENDTAB
  0
TABLE
  2
DIMSTYLE
  5
A
330
0
100
AcDbSymbolTable
 70
     1
  0
DIMSTYLE
105
27
330
A
100
AcDbSymbolTableRecord
100
AcDbDimStyleTableRecord
  2
STANDARD
 70
     0
  3

  4

  5

  6

  7

 40
1.0
 41
0.18
 42
0.0625
 43
0.38
 44
0.18
 45
0.0
 46
0.0
 47
0.0
 48
0.0
140
0.18
141
0.09
142
0.0
143
25.4
144
1.0
145
0.0
146
1.0
147
0.09
 71
     0
 72
     0
 73
     1
 74
     1
 75
     0
 76
     0
 77
     0
 78
     0
170
     0
171
     2
172
     0
173
     0
174
     0
175
     0
176
     0
177
     0
178
     0
270
     2
271
     4
272
     4
273
     2
274
     2
340
11
275
     0
280
     0
281
     0
282
     0
283
     1
284
     0
285
     0
286
     0
287
     3
288
     0
  0
ENDTAB
  0
TABLE
  2
BLOCK_RECORD
  5
1
330
0
100
AcDbSymbolTable
 70
     1
  0
BLOCK_RECORD
  5
1F
330
1
100
AcDbSymbolTableRecord
100
AcDbBlockTableRecord
  2
*MODEL_SPACE
  0
BLOCK_RECORD
  5
1B
330
1
100
AcDbSymbolTableRecord
100
AcDbBlockTableRecord
  2
*PAPER_SPACE
  0
ENDTAB
  0
ENDSEC
  0
SECTION
  2
BLOCKS
  0
BLOCK
  5
20
330
1F
100
AcDbEntity
  8
0
100
AcDbBlockBegin
  2
*MODEL_SPACE
 70
     0
 71
     0
 10
0.0
 20
0.0
 30
0.0
  3
*MODEL_SPACE
  1

  0
ENDBLK
  5
21
330
1F
100
AcDbEntity
  8
0
100
AcDbBlockEnd
  0
BLOCK
  5
1C
330
1B
100
AcDbEntity
 67
     1
  8
0
100
AcDbBlockBegin
  2
*PAPER_SPACE
 70
     0
 71
     0
 10
0.0
 20
0.0
 30
0.0
  3
*PAPER_SPACE
  1

  0
ENDBLK
  5
1D
330
1B
100
AcDbEntity
 67
     1
  8
0
100
AcDbBlockEnd
  0
ENDSEC
  0
SECTION
  2
ENTITIES
  0
SPLINE
  5
2C
330
1F
100
AcDbEntity
  8
LAYER_1
 62
     7
100
AcDbSpline
210
0.0
220
0.0
230
1.0
 70
    11
 71
     3
 72
    36
 73
    32
 74
     0
 42
0.0000000001
 43
0.0000000001
 40
0.0
 40
0.0
 40
0.0
 40
0.0
 40
0.125
 40
0.125
 40
0.125
 40
0.125
 40
0.25
 40
0.25
 40
0.25
 40
0.25
 40
0.375
 40
0.375
 40
0.375
 40
0.375
 40
0.5
 40
0.5
 40
0.5
 40
0.5
 40
0.625
 40
0.625
 40
0.625
 40
0.625
 40
0.75
 40
0.75
 40
0.75
 40
0.75
 40
0.875
 40
0.875
 40
0.875
 40
0.875
 40
1.0
 40
1.0
 40
1.0
 40
1.0
 10
-3.081688976377953
 20
2.286133858267716
 30
0.0
 10
-3.081688976377953
 20
2.286133858267716
 30
0.0
 10
-2.353149606299213
 20
2.286133858267716
 30
0.0
 10
-2.353149606299213
 20
2.286133858267716
 30
0.0
 10
-2.353149606299213
 20
2.286133858267716
 30
0.0
 10
-2.353149606299213
 20
2.286133858267716
 30
0.0
 10
-2.353149606299213
 20
2.117023622047244
 30
0.0
 10
-2.353149606299213
 20
2.117023622047244
 30
0.0
 10
-2.353149606299213
 20
2.117023622047244
 30
0.0
 10
-1.730413385826772
 20
2.01603937007874
 30
0.0
 10
-1.491417322834646
 20
1.787141732283465
 30
0.0
 10
-1.693385826771654
 20
1.622200787401575
 30
0.0
 10
-1.693385826771654
 20
1.622200787401575
 30
0.0
 10
-1.693385826771654
 20
1.622200787401575
 30
0.0
 10
-1.693385826771654
 20
1.599622047244095
 30
0.0
 10
-1.693385826771654
 20
1.599622047244095
 30
0.0
 10
-1.693385826771654
 20
1.599622047244095
 30
0.0
 10
-1.693385826771654
 20
1.599622047244095
 30
0.0
 10
-1.551279527559055
 20
1.599622047244095
 30
0.0
 10
-1.551279527559055
 20
1.599622047244095
 30
0.0
 10
-1.551279527559055
 20
1.599622047244095
 30
0.0
 10
-1.551279527559055
 20
1.599622047244095
 30
0.0
 10
-1.551279527559055
 20
1.371177165354331
 30
0.0
 10
-1.551279527559055
 20
1.371177165354331
 30
0.0
 10
-1.551279527559055
 20
1.371177165354331
 30
0.0
 10
-1.551279527559055
 20
1.371177165354331
 30
0.0
 10
-3.081688976377953
 20
1.371177165354331
 30
0.0
 10
-3.081688976377953
 20
1.371177165354331
 30
0.0
 10
-3.081688976377953
 20
1.371177165354331
 30
0.0
 10
-3.081688976377953
 20
1.371177165354331
 30
0.0
 10
-3.081688976377953
 20
2.286133858267716
 30
0.0
 10
-3.081688976377953
 20
2.286133858267716
 30
0.0
  0
SPLINE
  5
2D
330
1F
100
AcDbEntity
  8
LAYER_1
 62
   250
100
AcDbSpline
210
0.0
220
0.0
230
1.0
 70
    11
 71
     3
 72
   104
 73
   100
 74
     0
 42
0.0000000001
 43
0.0000000001
 40
0.0
 40
0.0
 40
0.0
 40
0.0
 40
0.04
 40
0.04
 40
0.04
 40
0.04
 40
0.08
 40
0.08
 40
0.08
 40
0.08
 40
0.12
 40
0.12
 40
0.12
 40
0.12
 40
0.16
 40
0.16
 40
0.16
 40
0.16
 40
0.2
 40
0.2
 40
0.2
 40
0.2
 40
0.24
 40
0.24
 40
0.24
 40
0.24
 40
0.28
 40
0.28
 40
0.28
 40
0.28
 40
0.32
 40
0.32
 40
0.32
 40
0.32
 40
0.36
 40
0.36
 40
0.36
 40
0.36
 40
0.4
 40
0.4
 40
0.4
 40
0.4
 40
0.44
 40
0.44
 40
0.44
 40
0.44
 40
0.4799999999999999
 40
0.4799999999999999
 40
0.4799999999999999
 40
0.4799999999999999
 40
0.5199999999999999
 40
0.5199999999999999
 40
0.5199999999999999
 40
0.5199999999999999
 40
0.5599999999999999
 40
0.5599999999999999
 40
0.5599999999999999
 40
0.5599999999999999
 40
0.6
 40
0.6
 40
0.6
 40
0.6
 40
0.64
 40
0.64
 40
0.64
 40
0.64
 40
0.6800000000000001
 40
0.6800000000000001
 40
0.6800000000000001
 40
0.6800000000000001
 40
0.7200000000000001
 40
0.7200000000000001
 40
0.7200000000000001
 40
0.7200000000000001
 40
0.7600000000000001
 40
0.7600000000000001
 40
0.7600000000000001
 40
0.7600000000000001
 40
0.8000000000000002
 40
0.8000000000000002
 40
0.8000000000000002
 40
0.8000000000000002
 40
0.8400000000000002
 40
0.8400000000000002
 40
0.8400000000000002
 40
0.8400000000000002
 40
0.8800000000000002
 40
0.8800000000000002
 40
0.8800000000000002
 40
0.8800000000000002
 40
0.9200000000000003
 40
0.9200000000000003
 40
0.9200000000000003
 40
0.9200000000000003
 40
0.9600000000000003
 40
0.9600000000000003
 40
0.9600000000000003
 40
0.9600000000000003
 40
1.0
 40
1.0
 40
1.0
 40
1.0
 10
-2.393527559055118
 20
1.257507874015748
 30
0.0
 10
-2.393527559055118
 20
1.257507874015748
 30
0.0
 10
-2.339555118110236
 20
1.257507874015748
 30
0.0
 10
-2.339555118110236
 20
1.257507874015748
 30
0.0
 10
-2.339555118110236
 20
1.257507874015748
 30
0.0
 10
-2.326385826771654
 20
1.257507874015748
 30
0.0
 10
-2.317358267716536
 20
1.256897637795276
 30
0.0
 10
-2.312472440944882
 20
1.255700787401575
 30
0.0
 10
-2.312472440944882
 20
1.255700787401575
 30
0.0
 10
-2.305248031496063
 20
1.25398031496063
 30
0.0
 10
-2.299555118110237
 20
1.25084251968504
 30
0.0
 10
-2.295330708661417
 20
1.246283464566929
 30
0.0
 10
-2.295330708661417
 20
1.246283464566929
 30
0.0
 10
-2.291137795275591
 20
1.241728346456693
 30
0.0
 10
-2.289027559055118
 20
1.236228346456693
 30
0.0
 10
-2.289027559055118
 20
1.229842519685039
 30
0.0
 10
-2.289027559055118
 20
1.229842519685039
 30
0.0
 10
-2.289027559055118
 20
1.225228346456693
 30
0.0
 10
-2.290137795275591
 20
1.221090551181102
 30
0.0
 10
-2.292358267716536
 20
1.217425196850394
 30
0.0
 10
-2.292358267716536
 20
1.217425196850394
 30
0.0
 10
-2.294582677165355
 20
1.213755905511811
 30
0.0
 10
-2.297830708661417
 20
1.210618110236221
 30
0.0
 10
-2.302055118110236
 20
1.208035433070866
 30
0.0
 10
-2.302055118110236
 20
1.208035433070866
 30
0.0
 10
-2.304775590551181
 20
1.20634251968504
 30
0.0
 10
-2.308444881889764
 20
1.204897637795276
 30
0.0
 10
-2.313110236220473
 20
1.203700787401575
 30
0.0
 10
-2.313110236220473
 20
1.203700787401575
 30
0.0
 10
-2.307192913385827
 20
1.202618110236221
 30
0.0
 10
-2.302692913385827
 20
1.201314960629921
 30
0.0
 10
-2.299610236220472
 20
1.199814960629921
 30
0.0
 10
-2.299610236220472
 20
1.199814960629921
 30
0.0
 10
-2.294944881889764
 20
1.197535433070866
 30
0.0
 10
-2.291248031496063
 20
1.194287401574803
 30
0.0
 10
-2.288555118110236
 20
1.190035433070866
 30
0.0
 10
-2.288555118110236
 20
1.190035433070866
 30
0.0
 10
-2.285830708661417
 20
1.185814960629921
 30
0.0
 10
-2.284472440944882
 20
1.181035433070866
 30
0.0
 10
-2.284472440944882
 20
1.175728346456693
 30
0.0
 10
-2.284472440944882
 20
1.175728346456693
 30
0.0
 10
-2.284472440944882
 20
1.170562992125984
 30
0.0
 10
-2.285803149606299
 20
1.165787401574803
 30
0.0
 10
-2.288472440944882
 20
1.161397637795276
 30
0.0
 10
-2.288472440944882
 20
1.161397637795276
 30
0.0
 10
-2.291110236220473
 20
1.157007874015748
 30
0.0
 10
-2.294885826771654
 20
1.153397637795276
 30
0.0
 10
-2.299720472440945
 20
1.150562992125984
 30
0.0
 10
-2.299720472440945
 20
1.150562992125984
 30
0.0
 10
-2.304582677165354
 20
1.147759842519685
 30
0.0
 10
-2.310248031496063
 20
1.145952755905512
 30
0.0
 10
-2.316692913385827
 20
1.145145669291339
 30
0.0
 10
-2.316692913385827
 20
1.145145669291339
 30
0.0
 10
-2.323165354330709
 20
1.144370078740158
 30
0.0
 10
-2.329803149606299
 20
1.14398031496063
 30
0.0
 10
-2.336637795275591
 20
1.14398031496063
 30
0.0
 10
-2.336637795275591
 20
1.14398031496063
 30
0.0
 10
-2.336637795275591
 20
1.14398031496063
 30
0.0
 10
-2.393527559055118
 20
1.14398031496063
 30
0.0
 10
-2.393527559055118
 20
1.14398031496063
 30
0.0
 10
-2.393527559055118
 20
1.14398031496063
 30
0.0
 10
-2.393527559055118
 20
1.14398031496063
 30
0.0
 10
-2.393527559055118
 20
1.150814960629921
 30
0.0
 10
-2.393527559055118
 20
1.150814960629921
 30
0.0
 10
-2.393527559055118
 20
1.150814960629921
 30
0.0
 10
-2.393527559055118
 20
1.150814960629921
 30
0.0
 10
-2.389692913385827
 20
1.150814960629921
 30
0.0
 10
-2.389692913385827
 20
1.150814960629921
 30
0.0
 10
-2.389692913385827
 20
1.150814960629921
 30
0.0
 10
-2.385996062992126
 20
1.150814960629921
 30
0.0
 10
-2.383496062992126
 20
1.151397637795276
 30
0.0
 10
-2.38213779527559
 20
1.152535433070866
 30
0.0
 10
-2.38213779527559
 20
1.152535433070866
 30
0.0
 10
-2.380165354330709
 20
1.154090551181102
 30
0.0
 10
-2.379192913385827
 20
1.156700787401575
 30
0.0
 10
-2.379192913385827
 20
1.160342519685039
 30
0.0
 10
-2.379192913385827
 20
1.160342519685039
 30
0.0
 10
-2.379192913385827
 20
1.160342519685039
 30
0.0
 10
-2.379192913385827
 20
1.239200787401575
 30
0.0
 10
-2.379192913385827
 20
1.239200787401575
 30
0.0
 10
-2.379192913385827
 20
1.239200787401575
 30
0.0
 10
-2.379192913385827
 20
1.242897637795276
 30
0.0
 10
-2.379496062992126
 20
1.245397637795276
 30
0.0
 10
-2.380082677165354
 20
1.246755905511811
 30
0.0
 10
-2.380082677165354
 20
1.246755905511811
 30
0.0
 10
-2.380692913385827
 20
1.24811811023622
 30
0.0
 10
-2.381582677165354
 20
1.249090551181102
 30
0.0
 10
-2.382775590551181
 20
1.249700787401575
 30
0.0
 10
-2.382775590551181
 20
1.249700787401575
 30
0.0
 10
-2.383968503937008
 20
1.250283464566929
 30
0.0
 10
-2.386275590551181
 20
1.250590551181102
 30
0.0
 10
-2.389692913385827
 20
1.250590551181102
 30
0.0
 10
-2.389692913385827
 20
1.250590551181102
 30
0.0
 10
-2.389692913385827
 20
1.250590551181102
 30
0.0
 10
-2.393527559055118
 20
1.250590551181102
 30
0.0
 10
-2.393527559055118
 20
1.250590551181102
 30
0.0
 10
-2.393527559055118
 20
1.250590551181102
 30
0.0
 10
-2.393527559055118
 20
1.250590551181102
 30
0.0
 10
-2.393527559055118
 20
1.257507874015748
 30
0.0
 10
-2.393527559055118
 20
1.257507874015748
 30
0.0
  0
SPLINE
  5
2E
330
1F
100
AcDbEntity
  8
LAYER_1
 62
   250
100
AcDbSpline
210
0.0
220
0.0
230
1.0
 70
    11
 71
     3
 72
    40
 73
    36
 74
     0
 42
0.0000000001
 43
0.0000000001
 40
0.0
 40
0.0
 40
0.0
 40
0.0
 40
0.1111111111111111
 40
0.1111111111111111
 40
0.1111111111111111
 40
0.1111111111111111
 40
0.2222222222222222
 40
0.2222222222222222
 40
0.2222222222222222
 40
0.2222222222222222
 40
0.3333333333333333
 40
0.3333333333333333
 40
0.3333333333333333
 40
0.3333333333333333
 40
0.4444444444444444
 40
0.4444444444444444
 40
0.4444444444444444
 40
0.4444444444444444
 40
0.5555555555555556
 40
0.5555555555555556
 40
0.5555555555555556
 40
0.5555555555555556
 40
0.6666666666666667
 40
0.6666666666666667
 40
0.6666666666666667
 40
0.6666666666666667
 40
0.7777777777777779
 40
0.7777777777777779
 40
0.7777777777777779
 40
0.7777777777777779
 40
0.8888888888888891
 40
0.8888888888888891
 40
0.8888888888888891
 40
0.8888888888888891
 40
1.0
 40
1.0
 40
1.0
 40
1.0
 10
-2.363968503937008
 20
1.24848031496063
 30
0.0
 10
-2.363968503937008
 20
1.24848031496063
 30
0.0
 10
-2.363968503937008
 20
1.206897637795276
 30
0.0
 10
-2.363968503937008
 20
1.206897637795276
 30
0.0
 10
-2.363968503937008
 20
1.206897637795276
 30
0.0
 10
-2.363968503937008
 20
1.206897637795276
 30
0.0
 10
-2.343220472440945
 20
1.206897637795276
 30
0.0
 10
-2.343220472440945
 20
1.206897637795276
 30
0.0
 10
-2.343220472440945
 20
1.206897637795276
 30
0.0
 10
-2.333527559055118
 20
1.206897637795276
 30
0.0
 10
-2.326858267716536
 20
1.207342519685039
 30
0.0
 10
-2.3233031496063
 20
1.208255905511811
 30
0.0
 10
-2.3233031496063
 20
1.208255905511811
 30
0.0
 10
-2.317692913385827
 20
1.209728346456693
 30
0.0
 10
-2.313444881889764
 20
1.212228346456693
 30
0.0
 10
-2.310472440944882
 20
1.215755905511811
 30
0.0
 10
-2.310472440944882
 20
1.215755905511811
 30
0.0
 10
-2.307527559055118
 20
1.219283464566929
 30
0.0
 10
-2.306027559055118
 20
1.223814960629921
 30
0.0
 10
-2.306027559055118
 20
1.229342519685039
 30
0.0
 10
-2.306027559055118
 20
1.229342519685039
 30
0.0
 10
-2.306027559055118
 20
1.234007874015748
 30
0.0
 10
-2.307385826771654
 20
1.237897637795276
 30
0.0
 10
-2.310055118110236
 20
1.241035433070866
 30
0.0
 10
-2.310055118110236
 20
1.241035433070866
 30
0.0
 10
-2.312748031496063
 20
1.244145669291339
 30
0.0
 10
-2.316358267716535
 20
1.246283464566929
 30
0.0
 10
-2.320858267716536
 20
1.247425196850394
 30
0.0
 10
-2.320858267716536
 20
1.247425196850394
 30
0.0
 10
-2.323775590551181
 20
1.24811811023622
 30
0.0
 10
-2.329858267716535
 20
1.24848031496063
 30
0.0
 10
-2.339082677165354
 20
1.24848031496063
 30
0.0
 10
-2.339082677165354
 20
1.24848031496063
 30
0.0
 10
-2.339082677165354
 20
1.24848031496063
 30
0.0
 10
-2.363968503937008
 20
1.24848031496063
 30
0.0
 10
-2.363968503937008
 20
1.24848031496063
 30
0.0
  0
SPLINE
  5
2F
330
1F
100
AcDbEntity
  8
LAYER_1
 62
   250
100
AcDbSpline
210
0.0
220
0.0
230
1.0
 70
    11
 71
     3
 72
    52
 73
    48
 74
     0
 42
0.0000000001
 43
0.0000000001
 40
0.0
 40
0.0
 40
0.0
 40
0.0
 40
0.0833333333333333
 40
0.0833333333333333
 40
0.0833333333333333
 40
0.0833333333333333
 40
0.1666666666666667
 40
0.1666666666666667
 40
0.1666666666666667
 40
0.1666666666666667
 40
0.25
 40
0.25
 40
0.25
 40
0.25
 40
0.3333333333333333
 40
0.3333333333333333
 40
0.3333333333333333
 40
0.3333333333333333
 40
0.4166666666666666
 40
0.4166666666666666
 40
0.4166666666666666
 40
0.4166666666666666
 40
0.4999999999999999
 40
0.4999999999999999
 40
0.4999999999999999
 40
0.4999999999999999
 40
0.5833333333333333
 40
0.5833333333333333
 40
0.5833333333333333
 40
0.5833333333333333
 40
0.6666666666666666
 40
0.6666666666666666
 40
0.6666666666666666
 40
0.6666666666666666
 40
0.75
 40
0.75
 40
0.75
 40
0.75
 40
0.8333333333333334
 40
0.8333333333333334
 40
0.8333333333333334
 40
0.8333333333333334
 40
0.9166666666666667
 40
0.9166666666666667
 40
0.9166666666666667
 40
0.9166666666666667
 40
1.0
 40
1.0
 40
1.0
 40
1.0
 10
-2.363968503937008
 20
1.199062992125984
 30
0.0
 10
-2.363968503937008
 20
1.199062992125984
 30
0.0
 10
-2.363968503937008
 20
1.161814960629921
 30
0.0
 10
-2.363968503937008
 20
1.161814960629921
 30
0.0
 10
-2.363968503937008
 20
1.161814960629921
 30
0.0
 10
-2.363968503937008
 20
1.158062992125984
 30
0.0
 10
-2.363803149606299
 20
1.15584251968504
 30
0.0
 10
-2.3635
 20
1.155118110236221
 30
0.0
 10
-2.3635
 20
1.155118110236221
 30
0.0
 10
-2.363055118110236
 20
1.154145669291339
 30
0.0
 10
-2.362192913385827
 20
1.15348031496063
 30
0.0
 10
-2.360885826771654
 20
1.153090551181103
 30
0.0
 10
-2.360885826771654
 20
1.153090551181103
 30
0.0
 10
-2.359968503937008
 20
1.152814960629921
 30
0.0
 10
-2.357358267716536
 20
1.152673228346457
 30
0.0
 10
-2.353082677165355
 20
1.152673228346457
 30
0.0
 10
-2.353082677165355
 20
1.152673228346457
 30
0.0
 10
-2.353082677165355
 20
1.152673228346457
 30
0.0
 10
-2.342
 20
1.152673228346457
 30
0.0
 10
-2.342
 20
1.152673228346457
 30
0.0
 10
-2.342
 20
1.152673228346457
 30
0.0
 10
-2.331055118110236
 20
1.152673228346457
 30
0.0
 10
-2.323220472440945
 20
1.153287401574803
 30
0.0
 10
-2.318527559055118
 20
1.154507874015748
 30
0.0
 10
-2.318527559055118
 20
1.154507874015748
 30
0.0
 10
-2.313830708661417
 20
1.155728346456693
 30
0.0
 10
-2.309830708661417
 20
1.158314960629921
 30
0.0
 10
-2.306527559055118
 20
1.162259842519685
 30
0.0
 10
-2.306527559055118
 20
1.162259842519685
 30
0.0
 10
-2.303220472440945
 20
1.166173228346457
 30
0.0
 10
-2.301555118110236
 20
1.170925196850394
 30
0.0
 10
-2.301555118110236
 20
1.176452755905512
 30
0.0
 10
-2.301555118110236
 20
1.176452755905512
 30
0.0
 10
-2.301555118110236
 20
1.181118110236221
 30
0.0
 10
-2.302913385826772
 20
1.185255905511811
 30
0.0
 10
-2.305582677165354
 20
1.188870078740158
 30
0.0
 10
-2.305582677165354
 20
1.188870078740158
 30
0.0
 10
-2.308275590551181
 20
1.19248031496063
 30
0.0
 10
-2.312
 20
1.195062992125984
 30
0.0
 10
-2.316748031496063
 20
1.196673228346457
 30
0.0
 10
-2.316748031496063
 20
1.196673228346457
 30
0.0
 10
-2.3215
 20
1.198287401574803
 30
0.0
 10
-2.329913385826772
 20
1.199062992125984
 30
0.0
 10
-2.342
 20
1.199062992125984
 30
0.0
 10
-2.342
 20
1.199062992125984
 30
0.0
 10
-2.342
 20
1.199062992125984
 30
0.0
 10
-2.363968503937008
 20
1.199062992125984
 30
0.0
 10
-2.363968503937008
 20
1.199062992125984
 30
0.0
  0
SPLINE
  5
30
330
1F
100
AcDbEntity
  8
LAYER_1
 62
   250
100
AcDbSpline
210
0.0
220
0.0
230
1.0
 70
    11
 71
     3
 72
   112
 73
   108
 74
     0
 42
0.0000000001
 43
0.0000000001
 40
0.0
 40
0.0
 40
0.0
 40
0.0
 40
0.037037037037037
 40
0.037037037037037
 40
0.037037037037037
 40
0.037037037037037
 40
0.0740740740740741
 40
0.0740740740740741
 40
0.0740740740740741
 40
0.0740740740740741
 40
0.1111111111111111
 40
0.1111111111111111
 40
0.1111111111111111
 40
0.1111111111111111
 40
0.1481481481481481
 40
0.1481481481481481
 40
0.1481481481481481
 40
0.1481481481481481
 40
0.1851851851851852
 40
0.1851851851851852
 40
0.1851851851851852
 40
0.1851851851851852
 40
0.2222222222222222
 40
0.2222222222222222
 40
0.2222222222222222
 40
0.2222222222222222
 40
0.2592592592592592
 40
0.2592592592592592
 40
0.2592592592592592
 40
0.2592592592592592
 40
0.2962962962962963
 40
0.2962962962962963
 40
0.2962962962962963
 40
0.2962962962962963
 40
0.3333333333333333
 40
0.3333333333333333
 40
0.3333333333333333
 40
0.3333333333333333
 40
0.3703703703703704
 40
0.3703703703703704
 40
0.3703703703703704
 40
0.3703703703703704
 40
0.4074074074074074
 40
0.4074074074074074
 40
0.4074074074074074
 40
0.4074074074074074
 40
0.4444444444444444
 40
0.4444444444444444
 40
0.4444444444444444
 40
0.4444444444444444
 40
0.4814814814814815
 40
0.4814814814814815
 40
0.4814814814814815
 40
0.4814814814814815
 40
0.5185185185185185
 40
0.5185185185185185
 40
0.5185185185185185
 40
0.5185185185185185
 40
0.5555555555555556
 40
0.5555555555555556
 40
0.5555555555555556
 40
0.5555555555555556
 40
0.5925925925925926
 40
0.5925925925925926
 40
0.5925925925925926
 40
0.5925925925925926
 40
0.6296296296296295
 40
0.6296296296296295
 40
0.6296296296296295
 40
0.6296296296296295
 40
0.6666666666666665
 40
0.6666666666666665
 40
0.6666666666666665
 40
0.6666666666666665
 40
0.7037037037037035
 40
0.7037037037037035
 40
0.7037037037037035
 40
0.7037037037037035
 40
0.7407407407407405
 40
0.7407407407407405
 40
0.7407407407407405
 40
0.7407407407407405
 40
0.7777777777777775
 40
0.7777777777777775
 40
0.7777777777777775
 40
0.7777777777777775
 40
0.8148148148148144
 40
0.8148148148148144
 40
0.8148148148148144
 40
0.8148148148148144
 40
0.8518518518518514
 40
0.8518518518518514
 40
0.8518518518518514
 40
0.8518518518518514
 40
0.8888888888888884
 40
0.8888888888888884
 40
0.8888888888888884
 40
0.8888888888888884
 40
0.9259259259259254
 40
0.9259259259259254
 40
0.9259259259259254
 40
0.9259259259259254
 40
0.9629629629629624
 40
0.9629629629629624
 40
0.9629629629629624
 40
0.9629629629629624
 40
1.0
 40
1.0
 40
1.0
 40
1.0
 10
-2.22686220472441
 20
1.257507874015748
 30
0.0
 10
-2.22686220472441
 20
1.257507874015748
 30
0.0
 10
-2.213444881889764
 20
1.257507874015748
 30
0.0
 10
-2.213444881889764
 20
1.257507874015748
 30
0.0
 10
-2.213444881889764
 20
1.257507874015748
 30
0.0
 10
-2.213444881889764
 20
1.257507874015748
 30
0.0
 10
-2.178196850393701
 20
1.162618110236221
 30
0.0
 10
-2.178196850393701
 20
1.162618110236221
 30
0.0
 10
-2.178196850393701
 20
1.162618110236221
 30
0.0
 10
-2.176472440944882
 20
1.15784251968504
 30
0.0
 10
-2.174724409448819
 20
1.154673228346457
 30
0.0
 10
-2.172944881889764
 20
1.153145669291339
 30
0.0
 10
-2.172944881889764
 20
1.153145669291339
 30
0.0
 10
-2.171196850393701
 20
1.151590551181102
 30
0.0
 10
-2.168807086614173
 20
1.150814960629921
 30
0.0
 10
-2.165834645669292
 20
1.150814960629921
 30
0.0
 10
-2.165834645669292
 20
1.150814960629921
 30
0.0
 10
-2.165834645669292
 20
1.150814960629921
 30
0.0
 10
-2.164055118110236
 20
1.150814960629921
 30
0.0
 10
-2.164055118110236
 20
1.150814960629921
 30
0.0
 10
-2.164055118110236
 20
1.150814960629921
 30
0.0
 10
-2.164055118110236
 20
1.150814960629921
 30
0.0
 10
-2.164055118110236
 20
1.14398031496063
 30
0.0
 10
-2.164055118110236
 20
1.14398031496063
 30
0.0
 10
-2.164055118110236
 20
1.14398031496063
 30
0.0
 10
-2.164055118110236
 20
1.14398031496063
 30
0.0
 10
-2.2045
 20
1.14398031496063
 30
0.0
 10
-2.2045
 20
1.14398031496063
 30
0.0
 10
-2.2045
 20
1.14398031496063
 30
0.0
 10
-2.2045
 20
1.14398031496063
 30
0.0
 10
-2.2045
 20
1.150814960629921
 30
0.0
 10
-2.2045
 20
1.150814960629921
 30
0.0
 10
-2.2045
 20
1.150814960629921
 30
0.0
 10
-2.203196850393701
 20
1.150925196850394
 30
0.0
 10
-2.201917322834646
 20
1.15098031496063
 30
0.0
 10
-2.200665354330709
 20
1.15098031496063
 30
0.0
 10
-2.200665354330709
 20
1.15098031496063
 30
0.0
 10
-2.198055118110236
 20
1.15098031496063
 30
0.0
 10
-2.19636220472441
 20
1.151259842519685
 30
0.0
 10
-2.195527559055118
 20
1.151787401574803
 30
0.0
 10
-2.195527559055118
 20
1.151787401574803
 30
0.0
 10
-2.193972440944882
 20
1.152814960629921
 30
0.0
 10
-2.193169291338583
 20
1.154118110236221
 30
0.0
 10
-2.193169291338583
 20
1.155700787401575
 30
0.0
 10
-2.193169291338583
 20
1.155700787401575
 30
0.0
 10
-2.193169291338583
 20
1.156842519685039
 30
0.0
 10
-2.193944881889764
 20
1.15961811023622
 30
0.0
 10
-2.195444881889764
 20
1.164090551181102
 30
0.0
 10
-2.195444881889764
 20
1.164090551181102
 30
0.0
 10
-2.195444881889764
 20
1.164090551181102
 30
0.0
 10
-2.202944881889764
 20
1.186062992125984
 30
0.0
 10
-2.202944881889764
 20
1.186062992125984
 30
0.0
 10
-2.202944881889764
 20
1.186062992125984
 30
0.0
 10
-2.202944881889764
 20
1.186062992125984
 30
0.0
 10
-2.244110236220473
 20
1.186062992125984
 30
0.0
 10
-2.244110236220473
 20
1.186062992125984
 30
0.0
 10
-2.244110236220473
 20
1.186062992125984
 30
0.0
 10
-2.244110236220473
 20
1.186062992125984
 30
0.0
 10
-2.252917322834646
 20
1.16148031496063
 30
0.0
 10
-2.252917322834646
 20
1.16148031496063
 30
0.0
 10
-2.252917322834646
 20
1.16148031496063
 30
0.0
 10
-2.253834645669291
 20
1.158925196850394
 30
0.0
 10
-2.254307086614173
 20
1.157173228346457
 30
0.0
 10
-2.254307086614173
 20
1.156173228346457
 30
0.0
 10
-2.254307086614173
 20
1.156173228346457
 30
0.0
 10
-2.254307086614173
 20
1.155090551181103
 30
0.0
 10
-2.254
 20
1.154145669291339
 30
0.0
 10
-2.253444881889764
 20
1.153342519685039
 30
0.0
 10
-2.253444881889764
 20
1.153342519685039
 30
0.0
 10
-2.252862204724409
 20
1.152535433070866
 30
0.0
 10
-2.252110236220473
 20
1.151925196850394
 30
0.0
 10
-2.251110236220473
 20
1.151507874015748
 30
0.0
 10
-2.251110236220473
 20
1.151507874015748
 30
0.0
 10
-2.250137795275591
 20
1.151090551181103
 30
0.0
 10
-2.248582677165354
 20
1.150897637795276
 30
0.0
 10
-2.246389763779528
 20
1.150897637795276
 30
0.0
 10
-2.246389763779528
 20
1.150897637795276
 30
0.0
 10
-2.244944881889764
 20
1.150897637795276
 30
0.0
 10
-2.243751968503937
 20
1.150870078740158
 30
0.0
 10
-2.242834645669292
 20
1.150814960629921
 30
0.0
 10
-2.242834645669292
 20
1.150814960629921
 30
0.0
 10
-2.242834645669292
 20
1.150814960629921
 30
0.0
 10
-2.242834645669292
 20
1.14398031496063
 30
0.0
 10
-2.242834645669292
 20
1.14398031496063
 30
0.0
 10
-2.242834645669292
 20
1.14398031496063
 30
0.0
 10
-2.242834645669292
 20
1.14398031496063
 30
0.0
 10
-2.276751968503937
 20
1.14398031496063
 30
0.0
 10
-2.276751968503937
 20
1.14398031496063
 30
0.0
 10
-2.276751968503937
 20
1.14398031496063
 30
0.0
 10
-2.276751968503937
 20
1.14398031496063
 30
0.0
 10
-2.276751968503937
 20
1.150814960629921
 30
0.0
 10
-2.276751968503937
 20
1.150814960629921
 30
0.0
 10
-2.276751968503937
 20
1.150814960629921
 30
0.0
 10
-2.273610236220473
 20
1.150814960629921
 30
0.0
 10
-2.271334645669291
 20
1.151118110236221
 30
0.0
 10
-2.269972440944882
 20
1.151759842519685
 30
0.0
 10
-2.269972440944882
 20
1.151759842519685
 30
0.0
 10
-2.268582677165354
 20
1.152370078740158
 30
0.0
 10
-2.26736220472441
 20
1.153370078740158
 30
0.0
 10
-2.266334645669291
 20
1.154759842519685
 30
0.0
 10
-2.266334645669291
 20
1.154759842519685
 30
0.0
 10
-2.265307086614173
 20
1.156145669291339
 30
0.0
 10
-2.263944881889764
 20
1.159062992125984
 30
0.0
 10
-2.262279527559055
 20
1.163507874015748
 30
0.0
 10
-2.262279527559055
 20
1.163507874015748
 30
0.0
 10
-2.262279527559055
 20
1.163507874015748
 30
0.0
 10
-2.22686220472441
 20
1.257507874015748
 30
0.0
 10
-2.22686220472441
 20
1.257507874015748
 30
0.0
  0
SPLINE
  5
31
330
1F
100
AcDbEntity
  8
LAYER_1
 62
   250
100
AcDbSpline
210
0.0
220
0.0
230
1.0
 70
    11
 71
     3
 72
    16
 73
    12
 74
     0
 42
0.0000000001
 43
0.0000000001
 40
0.0
 40
0.0
 40
0.0
 40
0.0
 40
0.3333333333333333
 40
0.3333333333333333
 40
0.3333333333333333
 40
0.3333333333333333
 40
0.6666666666666666
 40
0.6666666666666666
 40
0.6666666666666666
 40
0.6666666666666666
 40
1.0
 40
1.0
 40
1.0
 40
1.0
 10
-2.241110236220473
 20
1.194035433070866
 30
0.0
 10
-2.241110236220473
 20
1.194035433070866
 30
0.0
 10
-2.206027559055118
 20
1.194035433070866
 30
0.0
 10
-2.206027559055118
 20
1.194035433070866
 30
0.0
 10
-2.206027559055118
 20
1.194035433070866
 30
0.0
 10
-2.206027559055118
 20
1.194035433070866
 30
0.0
 10
-2.223610236220472
 20
1.242870078740157
 30
0.0
 10
-2.223610236220472
 20
1.242870078740157
 30
0.0
 10
-2.223610236220472
 20
1.242870078740157
 30
0.0
 10
-2.223610236220472
 20
1.242870078740157
 30
0.0
 10
-2.241110236220473
 20
1.194035433070866
 30
0.0
 10
-2.241110236220473
 20
1.194035433070866
 30
0.0
  0
SPLINE
  5
32
330
1F
100
AcDbEntity
  8
LAYER_1
 62
   250
100
AcDbSpline
210
0.0
220
0.0
230
1.0
 70
    11
 71
     3
 72
    72
 73
    68
 74
     0
 42
0.0000000001
 43
0.0000000001
 40
0.0
 40
0.0
 40
0.0
 40
0.0
 40
0.0588235294117647
 40
0.0588235294117647
 40
0.0588235294117647
 40
0.0588235294117647
 40
0.1176470588235294
 40
0.1176470588235294
 40
0.1176470588235294
 40
0.1176470588235294
 40
0.1764705882352941
 40
0.1764705882352941
 40
0.1764705882352941
 40
0.1764705882352941
 40
0.2352941176470588
 40
0.2352941176470588
 40
0.2352941176470588
 40
0.2352941176470588
 40
0.2941176470588235
 40
0.2941176470588235
 40
0.2941176470588235
 40
0.2941176470588235
 40
0.3529411764705883
 40
0.3529411764705883
 40
0.3529411764705883
 40
0.3529411764705883
 40
0.411764705882353
 40
0.411764705882353
 40
0.411764705882353
 40
0.411764705882353
 40
0.4705882352941177
 40
0.4705882352941177
 40
0.4705882352941177
 40
0.4705882352941177
 40
0.5294117647058824
 40
0.5294117647058824
 40
0.5294117647058824
 40
0.5294117647058824
 40
0.5882352941176471
 40
0.5882352941176471
 40
0.5882352941176471
 40
0.5882352941176471
 40
0.6470588235294118
 40
0.6470588235294118
 40
0.6470588235294118
 40
0.6470588235294118
 40
0.7058823529411765
 40
0.7058823529411765
 40
0.7058823529411765
 40
0.7058823529411765
 40
0.7647058823529412
 40
0.7647058823529412
 40
0.7647058823529412
 40
0.7647058823529412
 40
0.823529411764706
 40
0.823529411764706
 40
0.823529411764706
 40
0.823529411764706
 40
0.8823529411764707
 40
0.8823529411764707
 40
0.8823529411764707
 40
0.8823529411764707
 40
0.9411764705882354
 40
0.9411764705882354
 40
0.9411764705882354
 40
0.9411764705882354
 40
1.0
 40
1.0
 40
1.0
 40
1.0
 10
-2.001027559055118
 20
1.257507874015748
 30
0.0
 10
-2.001027559055118
 20
1.257507874015748
 30
0.0
 10
-1.994944881889764
 20
1.257507874015748
 30
0.0
 10
-1.994944881889764
 20
1.257507874015748
 30
0.0
 10
-1.994944881889764
 20
1.257507874015748
 30
0.0
 10
-1.994944881889764
 20
1.257507874015748
 30
0.0
 10
-1.994944881889764
 20
1.163259842519685
 30
0.0
 10
-1.994944881889764
 20
1.163259842519685
 30
0.0
 10
-1.994944881889764
 20
1.163259842519685
 30
0.0
 10
-1.994944881889764
 20
1.158814960629921
 30
0.0
 10
-1.994637795275591
 20
1.155952755905512
 30
0.0
 10
-1.994082677165354
 20
1.154673228346457
 30
0.0
 10
-1.994082677165354
 20
1.154673228346457
 30
0.0
 10
-1.9935
 20
1.153397637795276
 30
0.0
 10
-1.992582677165354
 20
1.152452755905512
 30
0.0
 10
-1.991279527559055
 20
1.151787401574803
 30
0.0
 10
-1.991279527559055
 20
1.151787401574803
 30
0.0
 10
-1.989972440944882
 20
1.151145669291339
 30
0.0
 10
-1.987389763779528
 20
1.150814960629921
 30
0.0
 10
-1.983527559055118
 20
1.150814960629921
 30
0.0
 10
-1.983527559055118
 20
1.150814960629921
 30
0.0
 10
-1.983527559055118
 20
1.150814960629921
 30
0.0
 10
-1.975555118110236
 20
1.150814960629921
 30
0.0
 10
-1.975555118110236
 20
1.150814960629921
 30
0.0
 10
-1.975555118110236
 20
1.150814960629921
 30
0.0
 10
-1.975555118110236
 20
1.150814960629921
 30
0.0
 10
-1.975555118110236
 20
1.14398031496063
 30
0.0
 10
-1.975555118110236
 20
1.14398031496063
 30
0.0
 10
-1.975555118110236
 20
1.14398031496063
 30
0.0
 10
-1.975555118110236
 20
1.14398031496063
 30
0.0
 10
-2.029192913385827
 20
1.14398031496063
 30
0.0
 10
-2.029192913385827
 20
1.14398031496063
 30
0.0
 10
-2.029192913385827
 20
1.14398031496063
 30
0.0
 10
-2.029192913385827
 20
1.14398031496063
 30
0.0
 10
-2.029192913385827
 20
1.150814960629921
 30
0.0
 10
-2.029192913385827
 20
1.150814960629921
 30
0.0
 10
-2.029192913385827
 20
1.150814960629921
 30
0.0
 10
-2.029192913385827
 20
1.150814960629921
 30
0.0
 10
-2.020334645669291
 20
1.150814960629921
 30
0.0
 10
-2.020334645669291
 20
1.150814960629921
 30
0.0
 10
-2.020334645669291
 20
1.150814960629921
 30
0.0
 10
-2.016472440944882
 20
1.150814960629921
 30
0.0
 10
-2.013917322834646
 20
1.151145669291339
 30
0.0
 10
-2.012637795275591
 20
1.15184251968504
 30
0.0
 10
-2.012637795275591
 20
1.15184251968504
 30
0.0
 10
-2.01136220472441
 20
1.152507874015748
 30
0.0
 10
-2.01036220472441
 20
1.153590551181102
 30
0.0
 10
-2.009665354330709
 20
1.155090551181103
 30
0.0
 10
-2.009665354330709
 20
1.155090551181103
 30
0.0
 10
-2.008972440944882
 20
1.156590551181102
 30
0.0
 10
-2.008610236220473
 20
1.159314960629921
 30
0.0
 10
-2.008610236220473
 20
1.163259842519685
 30
0.0
 10
-2.008610236220473
 20
1.163259842519685
 30
0.0
 10
-2.008610236220473
 20
1.163259842519685
 30
0.0
 10
-2.008610236220473
 20
1.240728346456693
 30
0.0
 10
-2.008610236220473
 20
1.240728346456693
 30
0.0
 10
-2.008610236220473
 20
1.240728346456693
 30
0.0
 10
-2.008610236220473
 20
1.240728346456693
 30
0.0
 10
-2.029192913385827
 20
1.240728346456693
 30
0.0
 10
-2.029192913385827
 20
1.240728346456693
 30
0.0
 10
-2.029192913385827
 20
1.240728346456693
 30
0.0
 10
-2.029192913385827
 20
1.240728346456693
 30
0.0
 10
-2.029192913385827
 20
1.247728346456693
 30
0.0
 10
-2.029192913385827
 20
1.247728346456693
 30
0.0
 10
-2.029192913385827
 20
1.247728346456693
 30
0.0
 10
-2.017972440944882
 20
1.249311023622047
 30
0.0
 10
-2.008582677165355
 20
1.252562992125984
 30
0.0
 10
-2.001027559055118
 20
1.257507874015748
 30
0.0
  0
SPLINE
  5
33
330
1F
100
AcDbEntity
  8
LAYER_1
 62
   250
100
AcDbSpline
210
0.0
220
0.0
230
1.0
 70
    11
 71
     3
 72
    80
 73
    76
 74
     0
 42
0.0000000001
 43
0.0000000001
 40
0.0
 40
0.0
 40
0.0
 40
0.0
 40
0.0526315789473684
 40
0.0526315789473684
 40
0.0526315789473684
 40
0.0526315789473684
 40
0.1052631578947368
 40
0.1052631578947368
 40
0.1052631578947368
 40
0.1052631578947368
 40
0.1578947368421053
 40
0.1578947368421053
 40
0.1578947368421053
 40
0.1578947368421053
 40
0.2105263157894737
 40
0.2105263157894737
 40
0.2105263157894737
 40
0.2105263157894737
 40
0.2631578947368421
 40
0.2631578947368421
 40
0.2631578947368421
 40
0.2631578947368421
 40
0.3157894736842105
 40
0.3157894736842105
 40
0.3157894736842105
 40
0.3157894736842105
 40
0.3684210526315789
 40
0.3684210526315789
 40
0.3684210526315789
 40
0.3684210526315789
 40
0.4210526315789474
 40
0.4210526315789474
 40
0.4210526315789474
 40
0.4210526315789474
 40
0.4736842105263158
 40
0.4736842105263158
 40
0.4736842105263158
 40
0.4736842105263158
 40
0.5263157894736842
 40
0.5263157894736842
 40
0.5263157894736842
 40
0.5263157894736842
 40
0.5789473684210527
 40
0.5789473684210527
 40
0.5789473684210527
 40
0.5789473684210527
 40
0.631578947368421
 40
0.631578947368421
 40
0.631578947368421
 40
0.631578947368421
 40
0.6842105263157894
 40
0.6842105263157894
 40
0.6842105263157894
 40
0.6842105263157894
 40
0.7368421052631577
 40
0.7368421052631577
 40
0.7368421052631577
 40
0.7368421052631577
 40
0.7894736842105261
 40
0.7894736842105261
 40
0.7894736842105261
 40
0.7894736842105261
 40
0.8421052631578945
 40
0.8421052631578945
 40
0.8421052631578945
 40
0.8421052631578945
 40
0.8947368421052628
 40
0.8947368421052628
 40
0.8947368421052628
 40
0.8947368421052628
 40
0.9473684210526312
 40
0.9473684210526312
 40
0.9473684210526312
 40
0.9473684210526312
 40
1.0
 40
1.0
 40
1.0
 40
1.0
 10
-1.935610236220473
 20
1.261645669291339
 30
0.0
 10
-1.935610236220473
 20
1.261645669291339
 30
0.0
 10
-1.930220472440945
 20
1.261645669291339
 30
0.0
 10
-1.930220472440945
 20
1.261645669291339
 30
0.0
 10
-1.930220472440945
 20
1.261645669291339
 30
0.0
 10
-1.930220472440945
 20
1.261645669291339
 30
0.0
 10
-1.929248031496063
 20
1.257507874015748
 30
0.0
 10
-1.929248031496063
 20
1.257507874015748
 30
0.0
 10
-1.929248031496063
 20
1.257507874015748
 30
0.0
 10
-1.929248031496063
 20
1.257507874015748
 30
0.0
 10
-1.858137795275591
 20
1.257507874015748
 30
0.0
 10
-1.858137795275591
 20
1.257507874015748
 30
0.0
 10
-1.858137795275591
 20
1.257507874015748
 30
0.0
 10
-1.858137795275591
 20
1.257507874015748
 30
0.0
 10
-1.858137795275591
 20
1.250590551181102
 30
0.0
 10
-1.858137795275591
 20
1.250590551181102
 30
0.0
 10
-1.858137795275591
 20
1.250590551181102
 30
0.0
 10
-1.866637795275591
 20
1.240755905511811
 30
0.0
 10
-1.87436220472441
 20
1.229590551181103
 30
0.0
 10
-1.881275590551181
 20
1.217007874015748
 30
0.0
 10
-1.881275590551181
 20
1.217007874015748
 30
0.0
 10
-1.888192913385827
 20
1.204452755905512
 30
0.0
 10
-1.893555118110236
 20
1.191673228346457
 30
0.0
 10
-1.897362204724409
 20
1.178645669291339
 30
0.0
 10
-1.897362204724409
 20
1.178645669291339
 30
0.0
 10
-1.900110236220473
 20
1.169259842519685
 30
0.0
 10
-1.902358267716536
 20
1.157700787401575
 30
0.0
 10
-1.904110236220473
 20
1.14398031496063
 30
0.0
 10
-1.904110236220473
 20
1.14398031496063
 30
0.0
 10
-1.904110236220473
 20
1.14398031496063
 30
0.0
 10
-1.920775590551181
 20
1.14398031496063
 30
0.0
 10
-1.920775590551181
 20
1.14398031496063
 30
0.0
 10
-1.920775590551181
 20
1.14398031496063
 30
0.0
 10
-1.919165354330709
 20
1.156090551181102
 30
0.0
 10
-1.9165
 20
1.167397637795276
 30
0.0
 10
-1.912775590551181
 20
1.177925196850394
 30
0.0
 10
-1.912775590551181
 20
1.177925196850394
 30
0.0
 10
-1.909055118110236
 20
1.188452755905512
 30
0.0
 10
-1.903692913385827
 20
1.199452755905512
 30
0.0
 10
-1.896665354330709
 20
1.210925196850394
 30
0.0
 10
-1.896665354330709
 20
1.210925196850394
 30
0.0
 10
-1.889637795275591
 20
1.222397637795276
 30
0.0
 10
-1.881110236220473
 20
1.233842519685039
 30
0.0
 10
-1.871055118110236
 20
1.245283464566929
 30
0.0
 10
-1.871055118110236
 20
1.245283464566929
 30
0.0
 10
-1.871055118110236
 20
1.245283464566929
 30
0.0
 10
-1.921775590551181
 20
1.245283464566929
 30
0.0
 10
-1.921775590551181
 20
1.245283464566929
 30
0.0
 10
-1.921775590551181
 20
1.245283464566929
 30
0.0
 10
-1.925444881889764
 20
1.245283464566929
 30
0.0
 10
-1.927972440944882
 20
1.245118110236221
 30
0.0
 10
-1.929330708661417
 20
1.244728346456693
 30
0.0
 10
-1.929330708661417
 20
1.244728346456693
 30
0.0
 10
-1.930692913385827
 20
1.24434251968504
 30
0.0
 10
-1.931748031496063
 20
1.243755905511811
 30
0.0
 10
-1.9325
 20
1.242952755905512
 30
0.0
 10
-1.9325
 20
1.242952755905512
 30
0.0
 10
-1.933275590551181
 20
1.24211811023622
 30
0.0
 10
-1.933917322834646
 20
1.240673228346457
 30
0.0
 10
-1.934472440944882
 20
1.238618110236221
 30
0.0
 10
-1.934472440944882
 20
1.238618110236221
 30
0.0
 10
-1.934472440944882
 20
1.238618110236221
 30
0.0
 10
-1.934858267716536
 20
1.237090551181102
 30
0.0
 10
-1.934858267716536
 20
1.237090551181102
 30
0.0
 10
-1.934858267716536
 20
1.237090551181102
 30
0.0
 10
-1.934858267716536
 20
1.237090551181102
 30
0.0
 10
-1.937637795275591
 20
1.22748031496063
 30
0.0
 10
-1.937637795275591
 20
1.22748031496063
 30
0.0
 10
-1.937637795275591
 20
1.22748031496063
 30
0.0
 10
-1.937637795275591
 20
1.22748031496063
 30
0.0
 10
-1.944555118110236
 20
1.228952755905512
 30
0.0
 10
-1.944555118110236
 20
1.228952755905512
 30
0.0
 10
-1.944555118110236
 20
1.228952755905512
 30
0.0
 10
-1.944555118110236
 20
1.228952755905512
 30
0.0
 10
-1.935610236220473
 20
1.261645669291339
 30
0.0
 10
-1.935610236220473
 20
1.261645669291339
 30
0.0
  0
SPLINE
  5
34
330
1F
100
AcDbEntity
  8
LAYER_1
 62
   250
100
AcDbSpline
210
0.0
220
0.0
230
1.0
 70
    11
 71
     3
 72
    72
 73
    68
 74
     0
 42
0.0000000001
 43
0.0000000001
 40
0.0
 40
0.0
 40
0.0
 40
0.0
 40
0.0588235294117647
 40
0.0588235294117647
 40
0.0588235294117647
 40
0.0588235294117647
 40
0.1176470588235294
 40
0.1176470588235294
 40
0.1176470588235294
 40
0.1176470588235294
 40
0.1764705882352941
 40
0.1764705882352941
 40
0.1764705882352941
 40
0.1764705882352941
 40
0.2352941176470588
 40
0.2352941176470588
 40
0.2352941176470588
 40
0.2352941176470588
 40
0.2941176470588235
 40
0.2941176470588235
 40
0.2941176470588235
 40
0.2941176470588235
 40
0.3529411764705883
 40
0.3529411764705883
 40
0.3529411764705883
 40
0.3529411764705883
 40
0.411764705882353
 40
0.411764705882353
 40
0.411764705882353
 40
0.411764705882353
 40
0.4705882352941177
 40
0.4705882352941177
 40
0.4705882352941177
 40
0.4705882352941177
 40
0.5294117647058824
 40
0.5294117647058824
 40
0.5294117647058824
 40
0.5294117647058824
 40
0.5882352941176471
 40
0.5882352941176471
 40
0.5882352941176471
 40
0.5882352941176471
 40
0.6470588235294118
 40
0.6470588235294118
 40
0.6470588235294118
 40
0.6470588235294118
 40
0.7058823529411765
 40
0.7058823529411765
 40
0.7058823529411765
 40
0.7058823529411765
 40
0.7647058823529412
 40
0.7647058823529412
 40
0.7647058823529412
 40
0.7647058823529412
 40
0.823529411764706
 40
0.823529411764706
 40
0.823529411764706
 40
0.823529411764706
 40
0.8823529411764707
 40
0.8823529411764707
 40
0.8823529411764707
 40
0.8823529411764707
 40
0.9411764705882354
 40
0.9411764705882354
 40
0.9411764705882354
 40
0.9411764705882354
 40
1.0
 40
1.0
 40
1.0
 40
1.0
 10
-1.794303149606299
 20
1.257507874015748
 30
0.0
 10
-1.794303149606299
 20
1.257507874015748
 30
0.0
 10
-1.788220472440945
 20
1.257507874015748
 30
0.0
 10
-1.788220472440945
 20
1.257507874015748
 30
0.0
 10
-1.788220472440945
 20
1.257507874015748
 30
0.0
 10
-1.788220472440945
 20
1.257507874015748
 30
0.0
 10
-1.788220472440945
 20
1.163259842519685
 30
0.0
 10
-1.788220472440945
 20
1.163259842519685
 30
0.0
 10
-1.788220472440945
 20
1.163259842519685
 30
0.0
 10
-1.788220472440945
 20
1.158814960629921
 30
0.0
 10
-1.787913385826772
 20
1.155952755905512
 30
0.0
 10
-1.787358267716536
 20
1.154673228346457
 30
0.0
 10
-1.787358267716536
 20
1.154673228346457
 30
0.0
 10
-1.786775590551181
 20
1.153397637795276
 30
0.0
 10
-1.785858267716536
 20
1.152452755905512
 30
0.0
 10
-1.784555118110236
 20
1.151787401574803
 30
0.0
 10
-1.784555118110236
 20
1.151787401574803
 30
0.0
 10
-1.783248031496063
 20
1.151145669291339
 30
0.0
 10
-1.780665354330709
 20
1.150814960629921
 30
0.0
 10
-1.776803149606299
 20
1.150814960629921
 30
0.0
 10
-1.776803149606299
 20
1.150814960629921
 30
0.0
 10
-1.776803149606299
 20
1.150814960629921
 30
0.0
 10
-1.768830708661418
 20
1.150814960629921
 30
0.0
 10
-1.768830708661418
 20
1.150814960629921
 30
0.0
 10
-1.768830708661418
 20
1.150814960629921
 30
0.0
 10
-1.768830708661418
 20
1.150814960629921
 30
0.0
 10
-1.768830708661418
 20
1.14398031496063
 30
0.0
 10
-1.768830708661418
 20
1.14398031496063
 30
0.0
 10
-1.768830708661418
 20
1.14398031496063
 30
0.0
 10
-1.768830708661418
 20
1.14398031496063
 30
0.0
 10
-1.822468503937008
 20
1.14398031496063
 30
0.0
 10
-1.822468503937008
 20
1.14398031496063
 30
0.0
 10
-1.822468503937008
 20
1.14398031496063
 30
0.0
 10
-1.822468503937008
 20
1.14398031496063
 30
0.0
 10
-1.822468503937008
 20
1.150814960629921
 30
0.0
 10
-1.822468503937008
 20
1.150814960629921
 30
0.0
 10
-1.822468503937008
 20
1.150814960629921
 30
0.0
 10
-1.822468503937008
 20
1.150814960629921
 30
0.0
 10
-1.813610236220473
 20
1.150814960629921
 30
0.0
 10
-1.813610236220473
 20
1.150814960629921
 30
0.0
 10
-1.813610236220473
 20
1.150814960629921
 30
0.0
 10
-1.809748031496063
 20
1.150814960629921
 30
0.0
 10
-1.807192913385827
 20
1.151145669291339
 30
0.0
 10
-1.805913385826772
 20
1.15184251968504
 30
0.0
 10
-1.805913385826772
 20
1.15184251968504
 30
0.0
 10
-1.804637795275591
 20
1.152507874015748
 30
0.0
 10
-1.803637795275591
 20
1.153590551181102
 30
0.0
 10
-1.80294094488189
 20
1.155090551181103
 30
0.0
 10
-1.80294094488189
 20
1.155090551181103
 30
0.0
 10
-1.802248031496063
 20
1.156590551181102
 30
0.0
 10
-1.801885826771654
 20
1.159314960629921
 30
0.0
 10
-1.801885826771654
 20
1.163259842519685
 30
0.0
 10
-1.801885826771654
 20
1.163259842519685
 30
0.0
 10
-1.801885826771654
 20
1.163259842519685
 30
0.0
 10
-1.801885826771654
 20
1.240728346456693
 30
0.0
 10
-1.801885826771654
 20
1.240728346456693
 30
0.0
 10
-1.801885826771654
 20
1.240728346456693
 30
0.0
 10
-1.801885826771654
 20
1.240728346456693
 30
0.0
 10
-1.822468503937008
 20
1.240728346456693
 30
0.0
 10
-1.822468503937008
 20
1.240728346456693
 30
0.0
 10
-1.822468503937008
 20
1.240728346456693
 30
0.0
 10
-1.822468503937008
 20
1.240728346456693
 30
0.0
 10
-1.822468503937008
 20
1.247728346456693
 30
0.0
 10
-1.822468503937008
 20
1.247728346456693
 30
0.0
 10
-1.822468503937008
 20
1.247728346456693
 30
0.0
 10
-1.811248031496063
 20
1.249311023622047
 30
0.0
 10
-1.801858267716536
 20
1.252562992125984
 30
0.0
 10
-1.794303149606299
 20
1.257507874015748
 30
0.0
  0
SPLINE
  5
35
330
1F
100
AcDbEntity
  8
LAYER_1
 62
   250
100
AcDbSpline
210
0.0
220
0.0
230
1.0
 70
    11
 71
     3
 72
    76
 73
    72
 74
     0
 42
0.0000000001
 43
0.0000000001
 40
0.0
 40
0.0
 40
0.0
 40
0.0
 40
0.0555555555555556
 40
0.0555555555555556
 40
0.0555555555555556
 40
0.0555555555555556
 40
0.1111111111111111
 40
0.1111111111111111
 40
0.1111111111111111
 40
0.1111111111111111
 40
0.1666666666666667
 40
0.1666666666666667
 40
0.1666666666666667
 40
0.1666666666666667
 40
0.2222222222222222
 40
0.2222222222222222
 40
0.2222222222222222
 40
0.2222222222222222
 40
0.2777777777777778
 40
0.2777777777777778
 40
0.2777777777777778
 40
0.2777777777777778
 40
0.3333333333333334
 40
0.3333333333333334
 40
0.3333333333333334
 40
0.3333333333333334
 40
0.388888888888889
 40
0.388888888888889
 40
0.388888888888889
 40
0.388888888888889
 40
0.4444444444444445
 40
0.4444444444444445
 40
0.4444444444444445
 40
0.4444444444444445
 40
0.5000000000000001
 40
0.5000000000000001
 40
0.5000000000000001
 40
0.5000000000000001
 40
0.5555555555555557
 40
0.5555555555555557
 40
0.5555555555555557
 40
0.5555555555555557
 40
0.6111111111111113
 40
0.6111111111111113
 40
0.6111111111111113
 40
0.6111111111111113
 40
0.6666666666666669
 40
0.6666666666666669
 40
0.6666666666666669
 40
0.6666666666666669
 40
0.7222222222222224
 40
0.7222222222222224
 40
0.7222222222222224
 40
0.7222222222222224
 40
0.777777777777778
 40
0.777777777777778
 40
0.777777777777778
 40
0.777777777777778
 40
0.8333333333333336
 40
0.8333333333333336
 40
0.8333333333333336
 40
0.8333333333333336
 40
0.8888888888888892
 40
0.8888888888888892
 40
0.8888888888888892
 40
0.8888888888888892
 40
0.9444444444444448
 40
0.9444444444444448
 40
0.9444444444444448
 40
0.9444444444444448
 40
1.0
 40
1.0
 40
1.0
 40
1.0
 10
-1.682496062992126
 20
1.20698031496063
 30
0.0
 10
-1.67607874015748
 20
1.204535433070866
 30
0.0
 10
-1.671192913385827
 20
1.202228346456693
 30
0.0
 10
-1.667830708661418
 20
1.200062992125984
 30
0.0
 10
-1.667830708661418
 20
1.200062992125984
 30
0.0
 10
-1.662913385826772
 20
1.196897637795276
 30
0.0
 10
-1.659192913385827
 20
1.193200787401575
 30
0.0
 10
-1.656692913385827
 20
1.188952755905512
 30
0.0
 10
-1.656692913385827
 20
1.188952755905512
 30
0.0
 10
-1.654192913385827
 20
1.184673228346457
 30
0.0
 10
-1.65294094488189
 20
1.180062992125984
 30
0.0
 10
-1.65294094488189
 20
1.175062992125984
 30
0.0
 10
-1.65294094488189
 20
1.175062992125984
 30
0.0
 10
-1.65294094488189
 20
1.166118110236221
 30
0.0
 10
-1.656803149606299
 20
1.158370078740158
 30
0.0
 10
-1.664496062992126
 20
1.15184251968504
 30
0.0
 10
-1.664496062992126
 20
1.15184251968504
 30
0.0
 10
-1.672220472440945
 20
1.145287401574803
 30
0.0
 10
-1.682606299212599
 20
1.142035433070866
 30
0.0
 10
-1.695665354330709
 20
1.142035433070866
 30
0.0
 10
-1.695665354330709
 20
1.142035433070866
 30
0.0
 10
-1.709496062992126
 20
1.142035433070866
 30
0.0
 10
-1.720358267716535
 20
1.145728346456693
 30
0.0
 10
-1.728220472440945
 20
1.153090551181103
 30
0.0
 10
-1.728220472440945
 20
1.153090551181103
 30
0.0
 10
-1.734468503937008
 20
1.159007874015748
 30
0.0
 10
-1.737578740157481
 20
1.165700787401575
 30
0.0
 10
-1.737578740157481
 20
1.173200787401575
 30
0.0
 10
-1.737578740157481
 20
1.173200787401575
 30
0.0
 10
-1.737578740157481
 20
1.179228346456693
 30
0.0
 10
-1.735468503937008
 20
1.184618110236221
 30
0.0
 10
-1.731248031496063
 20
1.189397637795276
 30
0.0
 10
-1.731248031496063
 20
1.189397637795276
 30
0.0
 10
-1.726133858267717
 20
1.195090551181102
 30
0.0
 10
-1.718858267716536
 20
1.199535433070866
 30
0.0
 10
-1.709413385826772
 20
1.202728346456693
 30
0.0
 10
-1.709413385826772
 20
1.202728346456693
 30
0.0
 10
-1.716803149606299
 20
1.206200787401575
 30
0.0
 10
-1.722106299212598
 20
1.209728346456693
 30
0.0
 10
-1.725385826771654
 20
1.213314960629921
 30
0.0
 10
-1.725385826771654
 20
1.213314960629921
 30
0.0
 10
-1.729551181102362
 20
1.218035433070866
 30
0.0
 10
-1.731633858267717
 20
1.223700787401575
 30
0.0
 10
-1.731633858267717
 20
1.230311023622047
 30
0.0
 10
-1.731633858267717
 20
1.230311023622047
 30
0.0
 10
-1.731633858267717
 20
1.238507874015748
 30
0.0
 10
-1.728551181102362
 20
1.245145669291339
 30
0.0
 10
-1.722358267716535
 20
1.250173228346457
 30
0.0
 10
-1.722358267716535
 20
1.250173228346457
 30
0.0
 10
-1.714775590551181
 20
1.256370078740158
 30
0.0
 10
-1.705275590551181
 20
1.259452755905512
 30
0.0
 10
-1.693885826771654
 20
1.259452755905512
 30
0.0
 10
-1.693885826771654
 20
1.259452755905512
 30
0.0
 10
-1.683468503937008
 20
1.259452755905512
 30
0.0
 10
-1.675051181102362
 20
1.256783464566929
 30
0.0
 10
-1.668606299212599
 20
1.251452755905512
 30
0.0
 10
-1.668606299212599
 20
1.251452755905512
 30
0.0
 10
-1.662192913385827
 20
1.246090551181103
 30
0.0
 10
-1.658968503937008
 20
1.23998031496063
 30
0.0
 10
-1.658968503937008
 20
1.233090551181102
 30
0.0
 10
-1.658968503937008
 20
1.233090551181102
 30
0.0
 10
-1.658968503937008
 20
1.229673228346457
 30
0.0
 10
-1.659775590551181
 20
1.226397637795276
 30
0.0
 10
-1.661358267716536
 20
1.223283464566929
 30
0.0
 10
-1.661358267716536
 20
1.223283464566929
 30
0.0
 10
-1.662968503937008
 20
1.220173228346457
 30
0.0
 10
-1.665413385826772
 20
1.217255905511811
 30
0.0
 10
-1.668748031496063
 20
1.214590551181102
 30
0.0
 10
-1.668748031496063
 20
1.214590551181102
 30
0.0
 10
-1.672051181102362
 20
1.211897637795276
 30
0.0
 10
-1.676637795275591
 20
1.209370078740158
 30
0.0
 10
-1.682496062992126
 20
1.20698031496063
 30
0.0
  0
SPLINE
  5
36
330
1F
100
AcDbEntity
  8
LAYER_1
 62
   250
100
AcDbSpline
210
0.0
220
0.0
230
1.0
 70
    11
 71
     3
 72
    48
 73
    44
 74
     0
 42
0.0000000001
 43
0.0000000001
 40
0.0
 40
0.0
 40
0.0
 40
0.0
 40
0.0909090909090909
 40
0.0909090909090909
 40
0.0909090909090909
 40
0.0909090909090909
 40
0.1818181818181818
 40
0.1818181818181818
 40
0.1818181818181818
 40
0.1818181818181818
 40
0.2727272727272727
 40
0.2727272727272727
 40
0.2727272727272727
 40
0.2727272727272727
 40
0.3636363636363637
 40
0.3636363636363637
 40
0.3636363636363637
 40
0.3636363636363637
 40
0.4545454545454546
 40
0.4545454545454546
 40
0.4545454545454546
 40
0.4545454545454546
 40
0.5454545454545455
 40
0.5454545454545455
 40
0.5454545454545455
 40
0.5454545454545455
 40
0.6363636363636365
 40
0.6363636363636365
 40
0.6363636363636365
 40
0.6363636363636365
 40
0.7272727272727274
 40
0.7272727272727274
 40
0.7272727272727274
 40
0.7272727272727274
 40
0.8181818181818183
 40
0.8181818181818183
 40
0.8181818181818183
 40
0.8181818181818183
 40
0.9090909090909093
 40
0.9090909090909093
 40
0.9090909090909093
 40
0.9090909090909093
 40
1.0
 40
1.0
 40
1.0
 40
1.0
 10
-1.689885826771654
 20
1.20998031496063
 30
0.0
 10
-1.683720472440945
 20
1.214645669291339
 30
0.0
 10
-1.679692913385827
 20
1.217897637795276
 30
0.0
 10
-1.677858267716536
 20
1.219755905511811
 30
0.0
 10
-1.677858267716536
 20
1.219755905511811
 30
0.0
 10
-1.675996062992126
 20
1.221590551181103
 30
0.0
 10
-1.67457874015748
 20
1.223700787401575
 30
0.0
 10
-1.67357874015748
 20
1.226062992125984
 30
0.0
 10
-1.67357874015748
 20
1.226062992125984
 30
0.0
 10
-1.67257874015748
 20
1.228425196850394
 30
0.0
 10
-1.67207874015748
 20
1.230700787401575
 30
0.0
 10
-1.67207874015748
 20
1.232925196850394
 30
0.0
 10
-1.67207874015748
 20
1.232925196850394
 30
0.0
 10
-1.67207874015748
 20
1.23611811023622
 30
0.0
 10
-1.673023622047244
 20
1.239173228346457
 30
0.0
 10
-1.674913385826772
 20
1.242090551181103
 30
0.0
 10
-1.674913385826772
 20
1.242090551181103
 30
0.0
 10
-1.676830708661417
 20
1.24498031496063
 30
0.0
 10
-1.679606299212598
 20
1.247342519685039
 30
0.0
 10
-1.683275590551181
 20
1.249118110236221
 30
0.0
 10
-1.683275590551181
 20
1.249118110236221
 30
0.0
 10
-1.686913385826772
 20
1.250925196850394
 30
0.0
 10
-1.691023622047244
 20
1.251811023622047
 30
0.0
 10
-1.69557874015748
 20
1.251811023622047
 30
0.0
 10
-1.69557874015748
 20
1.251811023622047
 30
0.0
 10
-1.702330708661417
 20
1.251811023622047
 30
0.0
 10
-1.707913385826772
 20
1.249952755905512
 30
0.0
 10
-1.712358267716535
 20
1.246228346456693
 30
0.0
 10
-1.712358267716535
 20
1.246228346456693
 30
0.0
 10
-1.716803149606299
 20
1.242507874015748
 30
0.0
 10
-1.719023622047244
 20
1.238228346456693
 30
0.0
 10
-1.719023622047244
 20
1.233342519685039
 30
0.0
 10
-1.719023622047244
 20
1.233342519685039
 30
0.0
 10
-1.719023622047244
 20
1.229425196850394
 30
0.0
 10
-1.717633858267717
 20
1.225925196850394
 30
0.0
 10
-1.714885826771654
 20
1.222842519685039
 30
0.0
 10
-1.714885826771654
 20
1.222842519685039
 30
0.0
 10
-1.712106299212598
 20
1.219755905511811
 30
0.0
 10
-1.706968503937008
 20
1.216700787401575
 30
0.0
 10
-1.699413385826772
 20
1.213728346456693
 30
0.0
 10
-1.699413385826772
 20
1.213728346456693
 30
0.0
 10
-1.699413385826772
 20
1.213728346456693
 30
0.0
 10
-1.689885826771654
 20
1.20998031496063
 30
0.0
 10
-1.689885826771654
 20
1.20998031496063
 30
0.0
  0
SPLINE
  5
37
330
1F
100
AcDbEntity
  8
LAYER_1
 62
   250
100
AcDbSpline
210
0.0
220
0.0
230
1.0
 70
    11
 71
     3
 72
    40
 73
    36
 74
     0
 42
0.0000000001
 43
0.0000000001
 40
0.0
 40
0.0
 40
0.0
 40
0.0
 40
0.1111111111111111
 40
0.1111111111111111
 40
0.1111111111111111
 40
0.1111111111111111
 40
0.2222222222222222
 40
0.2222222222222222
 40
0.2222222222222222
 40
0.2222222222222222
 40
0.3333333333333333
 40
0.3333333333333333
 40
0.3333333333333333
 40
0.3333333333333333
 40
0.4444444444444444
 40
0.4444444444444444
 40
0.4444444444444444
 40
0.4444444444444444
 40
0.5555555555555556
 40
0.5555555555555556
 40
0.5555555555555556
 40
0.5555555555555556
 40
0.6666666666666667
 40
0.6666666666666667
 40
0.6666666666666667
 40
0.6666666666666667
 40
0.7777777777777779
 40
0.7777777777777779
 40
0.7777777777777779
 40
0.7777777777777779
 40
0.8888888888888891
 40
0.8888888888888891
 40
0.8888888888888891
 40
0.8888888888888891
 40
1.0
 40
1.0
 40
1.0
 40
1.0
 10
-1.701358267716536
 20
1.199562992125984
 30
0.0
 10
-1.709023622047244
 20
1.196200787401575
 30
0.0
 10
-1.71507874015748
 20
1.19184251968504
 30
0.0
 10
-1.719523622047244
 20
1.186452755905512
 30
0.0
 10
-1.719523622047244
 20
1.186452755905512
 30
0.0
 10
-1.722996062992126
 20
1.182228346456693
 30
0.0
 10
-1.724720472440945
 20
1.17784251968504
 30
0.0
 10
-1.724720472440945
 20
1.173287401574803
 30
0.0
 10
-1.724720472440945
 20
1.173287401574803
 30
0.0
 10
-1.724720472440945
 20
1.167090551181103
 30
0.0
 10
-1.721996062992126
 20
1.161590551181102
 30
0.0
 10
-1.716496062992126
 20
1.156787401574803
 30
0.0
 10
-1.716496062992126
 20
1.156787401574803
 30
0.0
 10
-1.711023622047244
 20
1.152007874015748
 30
0.0
 10
-1.70394094488189
 20
1.149590551181102
 30
0.0
 10
-1.695275590551181
 20
1.149590551181102
 30
0.0
 10
-1.695275590551181
 20
1.149590551181102
 30
0.0
 10
-1.686413385826772
 20
1.149590551181102
 30
0.0
 10
-1.679051181102362
 20
1.152342519685039
 30
0.0
 10
-1.673137795275591
 20
1.157814960629921
 30
0.0
 10
-1.673137795275591
 20
1.157814960629921
 30
0.0
 10
-1.668303149606299
 20
1.162259842519685
 30
0.0
 10
-1.665885826771654
 20
1.167035433070866
 30
0.0
 10
-1.665885826771654
 20
1.172145669291339
 30
0.0
 10
-1.665885826771654
 20
1.172145669291339
 30
0.0
 10
-1.665885826771654
 20
1.176145669291339
 30
0.0
 10
-1.667468503937008
 20
1.17998031496063
 30
0.0
 10
-1.670637795275591
 20
1.183645669291339
 30
0.0
 10
-1.670637795275591
 20
1.183645669291339
 30
0.0
 10
-1.673830708661418
 20
1.187314960629921
 30
0.0
 10
-1.679720472440945
 20
1.190870078740158
 30
0.0
 10
-1.688358267716535
 20
1.19434251968504
 30
0.0
 10
-1.688358267716535
 20
1.19434251968504
 30
0.0
 10
-1.688358267716535
 20
1.19434251968504
 30
0.0
 10
-1.701358267716536
 20
1.199562992125984
 30
0.0
 10
-1.701358267716536
 20
1.199562992125984
 30
0.0
  0
SPLINE
  5
38
330
1F
100
AcDbEntity
  8
LAYER_1
 62
   250
100
AcDbSpline
210
0.0
220
0.0
230
1.0
 70
    11
 71
     3
 72
    72
 73
    68
 74
     0
 42
0.0000000001
 43
0.0000000001
 40
0.0
 40
0.0
 40
0.0
 40
0.0
 40
0.0588235294117647
 40
0.0588235294117647
 40
0.0588235294117647
 40
0.0588235294117647
 40
0.1176470588235294
 40
0.1176470588235294
 40
0.1176470588235294
 40
0.1176470588235294
 40
0.1764705882352941
 40
0.1764705882352941
 40
0.1764705882352941
 40
0.1764705882352941
 40
0.2352941176470588
 40
0.2352941176470588
 40
0.2352941176470588
 40
0.2352941176470588
 40
0.2941176470588235
 40
0.2941176470588235
 40
0.2941176470588235
 40
0.2941176470588235
 40
0.3529411764705883
 40
0.3529411764705883
 40
0.3529411764705883
 40
0.3529411764705883
 40
0.411764705882353
 40
0.411764705882353
 40
0.411764705882353
 40
0.411764705882353
 40
0.4705882352941177
 40
0.4705882352941177
 40
0.4705882352941177
 40
0.4705882352941177
 40
0.5294117647058824
 40
0.5294117647058824
 40
0.5294117647058824
 40
0.5294117647058824
 40
0.5882352941176471
 40
0.5882352941176471
 40
0.5882352941176471
 40
0.5882352941176471
 40
0.6470588235294118
 40
0.6470588235294118
 40
0.6470588235294118
 40
0.6470588235294118
 40
0.7058823529411765
 40
0.7058823529411765
 40
0.7058823529411765
 40
0.7058823529411765
 40
0.7647058823529412
 40
0.7647058823529412
 40
0.7647058823529412
 40
0.7647058823529412
 40
0.823529411764706
 40
0.823529411764706
 40
0.823529411764706
 40
0.823529411764706
 40
0.8823529411764707
 40
0.8823529411764707
 40
0.8823529411764707
 40
0.8823529411764707
 40
0.9411764705882354
 40
0.9411764705882354
 40
0.9411764705882354
 40
0.9411764705882354
 40
1.0
 40
1.0
 40
1.0
 40
1.0
 10
-2.422594488188977
 20
1.070007874015748
 30
0.0
 10
-2.422594488188977
 20
1.070007874015748
 30
0.0
 10
-2.416511811023622
 20
1.070007874015748
 30
0.0
 10
-2.416511811023622
 20
1.070007874015748
 30
0.0
 10
-2.416511811023622
 20
1.070007874015748
 30
0.0
 10
-2.416511811023622
 20
1.070007874015748
 30
0.0
 10
-2.416511811023622
 20
0.9757598425196851
 30
0.0
 10
-2.416511811023622
 20
0.9757598425196851
 30
0.0
 10
-2.416511811023622
 20
0.9757598425196851
 30
0.0
 10
-2.416511811023622
 20
0.9713149606299213
 30
0.0
 10
-2.416204724409449
 20
0.9684527559055118
 30
0.0
 10
-2.415649606299213
 20
0.9671732283464567
 30
0.0
 10
-2.415649606299213
 20
0.9671732283464567
 30
0.0
 10
-2.415066929133858
 20
0.9658976377952756
 30
0.0
 10
-2.414149606299213
 20
0.9649527559055119
 30
0.0
 10
-2.412846456692913
 20
0.9642874015748032
 30
0.0
 10
-2.412846456692913
 20
0.9642874015748032
 30
0.0
 10
-2.41153937007874
 20
0.9636456692913387
 30
0.0
 10
-2.408956692913386
 20
0.9633149606299213
 30
0.0
 10
-2.405094488188976
 20
0.9633149606299213
 30
0.0
 10
-2.405094488188976
 20
0.9633149606299213
 30
0.0
 10
-2.405094488188976
 20
0.9633149606299213
 30
0.0
 10
-2.397122047244094
 20
0.9633149606299213
 30
0.0
 10
-2.397122047244094
 20
0.9633149606299213
 30
0.0
 10
-2.397122047244094
 20
0.9633149606299213
 30
0.0
 10
-2.397122047244094
 20
0.9633149606299213
 30
0.0
 10
-2.397122047244094
 20
0.9564803149606299
 30
0.0
 10
-2.397122047244094
 20
0.9564803149606299
 30
0.0
 10
-2.397122047244094
 20
0.9564803149606299
 30
0.0
 10
-2.397122047244094
 20
0.9564803149606299
 30
0.0
 10
-2.450759842519685
 20
0.9564803149606299
 30
0.0
 10
-2.450759842519685
 20
0.9564803149606299
 30
0.0
 10
-2.450759842519685
 20
0.9564803149606299
 30
0.0
 10
-2.450759842519685
 20
0.9564803149606299
 30
0.0
 10
-2.450759842519685
 20
0.9633149606299213
 30
0.0
 10
-2.450759842519685
 20
0.9633149606299213
 30
0.0
 10
-2.450759842519685
 20
0.9633149606299213
 30
0.0
 10
-2.450759842519685
 20
0.9633149606299213
 30
0.0
 10
-2.44190157480315
 20
0.9633149606299213
 30
0.0
 10
-2.44190157480315
 20
0.9633149606299213
 30
0.0
 10
-2.44190157480315
 20
0.9633149606299213
 30
0.0
 10
-2.43803937007874
 20
0.9633149606299213
 30
0.0
 10
-2.435484251968504
 20
0.9636456692913387
 30
0.0
 10
-2.434204724409449
 20
0.9643425196850394
 30
0.0
 10
-2.434204724409449
 20
0.9643425196850394
 30
0.0
 10
-2.432929133858268
 20
0.9650078740157481
 30
0.0
 10
-2.431929133858268
 20
0.9660905511811024
 30
0.0
 10
-2.431232283464567
 20
0.9675905511811024
 30
0.0
 10
-2.431232283464567
 20
0.9675905511811024
 30
0.0
 10
-2.43053937007874
 20
0.9690905511811024
 30
0.0
 10
-2.430177165354331
 20
0.9718149606299213
 30
0.0
 10
-2.430177165354331
 20
0.9757598425196851
 30
0.0
 10
-2.430177165354331
 20
0.9757598425196851
 30
0.0
 10
-2.430177165354331
 20
0.9757598425196851
 30
0.0
 10
-2.430177165354331
 20
1.053228346456693
 30
0.0
 10
-2.430177165354331
 20
1.053228346456693
 30
0.0
 10
-2.430177165354331
 20
1.053228346456693
 30
0.0
 10
-2.430177165354331
 20
1.053228346456693
 30
0.0
 10
-2.450759842519685
 20
1.053228346456693
 30
0.0
 10
-2.450759842519685
 20
1.053228346456693
 30
0.0
 10
-2.450759842519685
 20
1.053228346456693
 30
0.0
 10
-2.450759842519685
 20
1.053228346456693
 30
0.0
 10
-2.450759842519685
 20
1.060228346456693
 30
0.0
 10
-2.450759842519685
 20
1.060228346456693
 30
0.0
 10
-2.450759842519685
 20
1.060228346456693
 30
0.0
 10
-2.43953937007874
 20
1.061811023622047
 30
0.0
 10
-2.430149606299213
 20
1.065062992125984
 30
0.0
 10
-2.422594488188977
 20
1.070007874015748
 30
0.0
  0
SPLINE
  5
39
330
1F
100
AcDbEntity
  8
LAYER_1
 62
   250
100
AcDbSpline
210
0.0
220
0.0
230
1.0
 70
    11
 71
     3
 72
    60
 73
    56
 74
     0
 42
0.0000000001
 43
0.0000000001
 40
0.0
 40
0.0
 40
0.0
 40
0.0
 40
0.0714285714285714
 40
0.0714285714285714
 40
0.0714285714285714
 40
0.0714285714285714
 40
0.1428571428571429
 40
0.1428571428571429
 40
0.1428571428571429
 40
0.1428571428571429
 40
0.2142857142857143
 40
0.2142857142857143
 40
0.2142857142857143
 40
0.2142857142857143
 40
0.2857142857142857
 40
0.2857142857142857
 40
0.2857142857142857
 40
0.2857142857142857
 40
0.3571428571428571
 40
0.3571428571428571
 40
0.3571428571428571
 40
0.3571428571428571
 40
0.4285714285714285
 40
0.4285714285714285
 40
0.4285714285714285
 40
0.4285714285714285
 40
0.4999999999999999
 40
0.4999999999999999
 40
0.4999999999999999
 40
0.4999999999999999
 40
0.5714285714285713
 40
0.5714285714285713
 40
0.5714285714285713
 40
0.5714285714285713
 40
0.6428571428571427
 40
0.6428571428571427
 40
0.6428571428571427
 40
0.6428571428571427
 40
0.7142857142857141
 40
0.7142857142857141
 40
0.7142857142857141
 40
0.7142857142857141
 40
0.7857142857142855
 40
0.7857142857142855
 40
0.7857142857142855
 40
0.7857142857142855
 40
0.8571428571428569
 40
0.8571428571428569
 40
0.8571428571428569
 40
0.8571428571428569
 40
0.9285714285714283
 40
0.9285714285714283
 40
0.9285714285714283
 40
0.9285714285714283
 40
1.0
 40
1.0
 40
1.0
 40
1.0
 10
-2.365149606299213
 20
1.027925196850394
 30
0.0
 10
-2.365149606299213
 20
1.027925196850394
 30
0.0
 10
-2.36953937007874
 20
1.033314960629921
 30
0.0
 10
-2.36953937007874
 20
1.033314960629921
 30
0.0
 10
-2.36953937007874
 20
1.033314960629921
 30
0.0
 10
-2.358425196850394
 20
1.042370078740158
 30
0.0
 10
-2.352842519685039
 20
1.049925196850394
 30
0.0
 10
-2.352842519685039
 20
1.056007874015748
 30
0.0
 10
-2.352842519685039
 20
1.056007874015748
 30
0.0
 10
-2.352842519685039
 20
1.056700787401575
 30
0.0
 10
-2.352897637795276
 20
1.057590551181102
 30
0.0
 10
-2.353011811023622
 20
1.05861811023622
 30
0.0
 10
-2.353011811023622
 20
1.05861811023622
 30
0.0
 10
-2.353925196850394
 20
1.058228346456693
 30
0.0
 10
-2.35484251968504
 20
1.057925196850394
 30
0.0
 10
-2.355704724409449
 20
1.057728346456693
 30
0.0
 10
-2.355704724409449
 20
1.057728346456693
 30
0.0
 10
-2.356566929133858
 20
1.057507874015748
 30
0.0
 10
-2.357370078740158
 20
1.057397637795276
 30
0.0
 10
-2.358149606299213
 20
1.057397637795276
 30
0.0
 10
-2.358149606299213
 20
1.057397637795276
 30
0.0
 10
-2.360759842519685
 20
1.057397637795276
 30
0.0
 10
-2.36284251968504
 20
1.058228346456693
 30
0.0
 10
-2.364397637795276
 20
1.059925196850394
 30
0.0
 10
-2.364397637795276
 20
1.059925196850394
 30
0.0
 10
-2.365984251968504
 20
1.061590551181102
 30
0.0
 10
-2.366759842519685
 20
1.063728346456693
 30
0.0
 10
-2.366759842519685
 20
1.066342519685039
 30
0.0
 10
-2.366759842519685
 20
1.066342519685039
 30
0.0
 10
-2.366759842519685
 20
1.068897637795276
 30
0.0
 10
-2.365814960629921
 20
1.071118110236221
 30
0.0
 10
-2.363925196850394
 20
1.073007874015748
 30
0.0
 10
-2.363925196850394
 20
1.073007874015748
 30
0.0
 10
-2.362011811023622
 20
1.074925196850394
 30
0.0
 10
-2.359732283464567
 20
1.075870078740158
 30
0.0
 10
-2.357094488188976
 20
1.075870078740158
 30
0.0
 10
-2.357094488188976
 20
1.075870078740158
 30
0.0
 10
-2.353397637795276
 20
1.075870078740158
 30
0.0
 10
-2.350232283464567
 20
1.074397637795276
 30
0.0
 10
-2.347594488188976
 20
1.071425196850394
 30
0.0
 10
-2.347594488188976
 20
1.071425196850394
 30
0.0
 10
-2.344984251968504
 20
1.06848031496063
 30
0.0
 10
-2.343649606299213
 20
1.064673228346457
 30
0.0
 10
-2.343649606299213
 20
1.060007874015748
 30
0.0
 10
-2.343649606299213
 20
1.060007874015748
 30
0.0
 10
-2.343649606299213
 20
1.056952755905512
 30
0.0
 10
-2.344287401574803
 20
1.053755905511811
 30
0.0
 10
-2.34553937007874
 20
1.050425196850394
 30
0.0
 10
-2.34553937007874
 20
1.050425196850394
 30
0.0
 10
-2.346787401574803
 20
1.047090551181102
 30
0.0
 10
-2.348594488188977
 20
1.044007874015748
 30
0.0
 10
-2.350984251968504
 20
1.041145669291339
 30
0.0
 10
-2.350984251968504
 20
1.041145669291339
 30
0.0
 10
-2.353370078740158
 20
1.038314960629921
 30
0.0
 10
-2.358094488188976
 20
1.033897637795276
 30
0.0
 10
-2.365149606299213
 20
1.027925196850394
 30
0.0
  0
SPLINE
  5
3A
330
1F
100
AcDbEntity
  8
LAYER_1
 62
   250
100
AcDbSpline
210
0.0
220
0.0
230
1.0
 70
    11
 71
     3
 72
    60
 73
    56
 74
     0
 42
0.0000000001
 43
0.0000000001
 40
0.0
 40
0.0
 40
0.0
 40
0.0
 40
0.0714285714285714
 40
0.0714285714285714
 40
0.0714285714285714
 40
0.0714285714285714
 40
0.1428571428571429
 40
0.1428571428571429
 40
0.1428571428571429
 40
0.1428571428571429
 40
0.2142857142857143
 40
0.2142857142857143
 40
0.2142857142857143
 40
0.2142857142857143
 40
0.2857142857142857
 40
0.2857142857142857
 40
0.2857142857142857
 40
0.2857142857142857
 40
0.3571428571428571
 40
0.3571428571428571
 40
0.3571428571428571
 40
0.3571428571428571
 40
0.4285714285714285
 40
0.4285714285714285
 40
0.4285714285714285
 40
0.4285714285714285
 40
0.4999999999999999
 40
0.4999999999999999
 40
0.4999999999999999
 40
0.4999999999999999
 40
0.5714285714285713
 40
0.5714285714285713
 40
0.5714285714285713
 40
0.5714285714285713
 40
0.6428571428571427
 40
0.6428571428571427
 40
0.6428571428571427
 40
0.6428571428571427
 40
0.7142857142857141
 40
0.7142857142857141
 40
0.7142857142857141
 40
0.7142857142857141
 40
0.7857142857142855
 40
0.7857142857142855
 40
0.7857142857142855
 40
0.7857142857142855
 40
0.8571428571428569
 40
0.8571428571428569
 40
0.8571428571428569
 40
0.8571428571428569
 40
0.9285714285714283
 40
0.9285714285714283
 40
0.9285714285714283
 40
0.9285714285714283
 40
1.0
 40
1.0
 40
1.0
 40
1.0
 10
-2.336094488188977
 20
1.027925196850394
 30
0.0
 10
-2.336094488188977
 20
1.027925196850394
 30
0.0
 10
-2.340484251968504
 20
1.033314960629921
 30
0.0
 10
-2.340484251968504
 20
1.033314960629921
 30
0.0
 10
-2.340484251968504
 20
1.033314960629921
 30
0.0
 10
-2.329370078740157
 20
1.042370078740158
 30
0.0
 10
-2.323787401574804
 20
1.049925196850394
 30
0.0
 10
-2.323787401574804
 20
1.056007874015748
 30
0.0
 10
-2.323787401574804
 20
1.056007874015748
 30
0.0
 10
-2.323787401574804
 20
1.056700787401575
 30
0.0
 10
-2.323842519685039
 20
1.057590551181102
 30
0.0
 10
-2.323956692913386
 20
1.05861811023622
 30
0.0
 10
-2.323956692913386
 20
1.05861811023622
 30
0.0
 10
-2.324870078740158
 20
1.058228346456693
 30
0.0
 10
-2.325787401574803
 20
1.057925196850394
 30
0.0
 10
-2.326649606299213
 20
1.057728346456693
 30
0.0
 10
-2.326649606299213
 20
1.057728346456693
 30
0.0
 10
-2.327511811023622
 20
1.057507874015748
 30
0.0
 10
-2.32834251968504
 20
1.057397637795276
 30
0.0
 10
-2.329177165354331
 20
1.057397637795276
 30
0.0
 10
-2.329177165354331
 20
1.057397637795276
 30
0.0
 10
-2.331732283464567
 20
1.057397637795276
 30
0.0
 10
-2.333787401574803
 20
1.058228346456693
 30
0.0
 10
-2.335342519685039
 20
1.059925196850394
 30
0.0
 10
-2.335342519685039
 20
1.059925196850394
 30
0.0
 10
-2.336925196850394
 20
1.061590551181102
 30
0.0
 10
-2.337704724409449
 20
1.063728346456693
 30
0.0
 10
-2.337704724409449
 20
1.066342519685039
 30
0.0
 10
-2.337704724409449
 20
1.066342519685039
 30
0.0
 10
-2.337704724409449
 20
1.068897637795276
 30
0.0
 10
-2.336759842519685
 20
1.071118110236221
 30
0.0
 10
-2.334870078740158
 20
1.073007874015748
 30
0.0
 10
-2.334870078740158
 20
1.073007874015748
 30
0.0
 10
-2.332984251968504
 20
1.074925196850394
 30
0.0
 10
-2.330677165354331
 20
1.075870078740158
 30
0.0
 10
-2.32803937007874
 20
1.075870078740158
 30
0.0
 10
-2.32803937007874
 20
1.075870078740158
 30
0.0
 10
-2.32434251968504
 20
1.075870078740158
 30
0.0
 10
-2.321177165354331
 20
1.074397637795276
 30
0.0
 10
-2.31853937007874
 20
1.071425196850394
 30
0.0
 10
-2.31853937007874
 20
1.071425196850394
 30
0.0
 10
-2.315929133858268
 20
1.06848031496063
 30
0.0
 10
-2.314594488188976
 20
1.064673228346457
 30
0.0
 10
-2.314594488188976
 20
1.060007874015748
 30
0.0
 10
-2.314594488188976
 20
1.060007874015748
 30
0.0
 10
-2.314594488188976
 20
1.056952755905512
 30
0.0
 10
-2.315232283464567
 20
1.053755905511811
 30
0.0
 10
-2.316484251968504
 20
1.050425196850394
 30
0.0
 10
-2.316484251968504
 20
1.050425196850394
 30
0.0
 10
-2.317732283464567
 20
1.047090551181102
 30
0.0
 10
-2.31953937007874
 20
1.044007874015748
 30
0.0
 10
-2.321925196850394
 20
1.041145669291339
 30
0.0
 10
-2.321925196850394
 20
1.041145669291339
 30
0.0
 10
-2.324314960629921
 20
1.038314960629921
 30
0.0
 10
-2.32903937007874
 20
1.033897637795276
 30
0.0
 10
-2.336094488188977
 20
1.027925196850394
 30
0.0
  0
SPLINE
  5
3B
330
1F
100
AcDbEntity
  8
LAYER_1
 62
   250
100
AcDbSpline
210
0.0
220
0.0
230
1.0
 70
    11
 71
     3
 72
   204
 73
   200
 74
     0
 42
0.0000000001
 43
0.0000000001
 40
0.0
 40
0.0
 40
0.0
 40
0.0
 40
0.02
 40
0.02
 40
0.02
 40
0.02
 40
0.04
 40
0.04
 40
0.04
 40
0.04
 40
0.06
 40
0.06
 40
0.06
 40
0.06
 40
0.08
 40
0.08
 40
0.08
 40
0.08
 40
0.1
 40
0.1
 40
0.1
 40
0.1
 40
0.12
 40
0.12
 40
0.12
 40
0.12
 40
0.14
 40
0.14
 40
0.14
 40
0.14
 40
0.16
 40
0.16
 40
0.16
 40
0.16
 40
0.18
 40
0.18
 40
0.18
 40
0.18
 40
0.2
 40
0.2
 40
0.2
 40
0.2
 40
0.22
 40
0.22
 40
0.22
 40
0.22
 40
0.24
 40
0.24
 40
0.24
 40
0.24
 40
0.26
 40
0.26
 40
0.26
 40
0.26
 40
0.28
 40
0.28
 40
0.28
 40
0.28
 40
0.3
 40
0.3
 40
0.3
 40
0.3
 40
0.32
 40
0.32
 40
0.32
 40
0.32
 40
0.34
 40
0.34
 40
0.34
 40
0.34
 40
0.36
 40
0.36
 40
0.36
 40
0.36
 40
0.3800000000000001
 40
0.3800000000000001
 40
0.3800000000000001
 40
0.3800000000000001
 40
0.4000000000000001
 40
0.4000000000000001
 40
0.4000000000000001
 40
0.4000000000000001
 40
0.4200000000000001
 40
0.4200000000000001
 40
0.4200000000000001
 40
0.4200000000000001
 40
0.4400000000000001
 40
0.4400000000000001
 40
0.4400000000000001
 40
0.4400000000000001
 40
0.4600000000000001
 40
0.4600000000000001
 40
0.4600000000000001
 40
0.4600000000000001
 40
0.4800000000000002
 40
0.4800000000000002
 40
0.4800000000000002
 40
0.4800000000000002
 40
0.5000000000000001
 40
0.5000000000000001
 40
0.5000000000000001
 40
0.5000000000000001
 40
0.5200000000000001
 40
0.5200000000000001
 40
0.5200000000000001
 40
0.5200000000000001
 40
0.5400000000000002
 40
0.5400000000000002
 40
0.5400000000000002
 40
0.5400000000000002
 40
0.5600000000000002
 40
0.5600000000000002
 40
0.5600000000000002
 40
0.5600000000000002
 40
0.5800000000000002
 40
0.5800000000000002
 40
0.5800000000000002
 40
0.5800000000000002
 40
0.6000000000000002
 40
0.6000000000000002
 40
0.6000000000000002
 40
0.6000000000000002
 40
0.6200000000000002
 40
0.6200000000000002
 40
0.6200000000000002
 40
0.6200000000000002
 40
0.6400000000000002
 40
0.6400000000000002
 40
0.6400000000000002
 40
0.6400000000000002
 40
0.6600000000000003
 40
0.6600000000000003
 40
0.6600000000000003
 40
0.6600000000000003
 40
0.6800000000000003
 40
0.6800000000000003
 40
0.6800000000000003
 40
0.6800000000000003
 40
0.7000000000000003
 40
0.7000000000000003
 40
0.7000000000000003
 40
0.7000000000000003
 40
0.7200000000000003
 40
0.7200000000000003
 40
0.7200000000000003
 40
0.7200000000000003
 40
0.7400000000000003
 40
0.7400000000000003
 40
0.7400000000000003
 40
0.7400000000000003
 40
0.7600000000000003
 40
0.7600000000000003
 40
0.7600000000000003
 40
0.7600000000000003
 40
0.7800000000000004
 40
0.7800000000000004
 40
0.7800000000000004
 40
0.7800000000000004
 40
0.8000000000000004
 40
0.8000000000000004
 40
0.8000000000000004
 40
0.8000000000000004
 40
0.8200000000000004
 40
0.8200000000000004
 40
0.8200000000000004
 40
0.8200000000000004
 40
0.8400000000000004
 40
0.8400000000000004
 40
0.8400000000000004
 40
0.8400000000000004
 40
0.8600000000000004
 40
0.8600000000000004
 40
0.8600000000000004
 40
0.8600000000000004
 40
0.8800000000000005
 40
0.8800000000000005
 40
0.8800000000000005
 40
0.8800000000000005
 40
0.9000000000000005
 40
0.9000000000000005
 40
0.9000000000000005
 40
0.9000000000000005
 40
0.9200000000000005
 40
0.9200000000000005
 40
0.9200000000000005
 40
0.9200000000000005
 40
0.9400000000000005
 40
0.9400000000000005
 40
0.9400000000000005
 40
0.9400000000000005
 40
0.9600000000000005
 40
0.9600000000000005
 40
0.9600000000000005
 40
0.9600000000000005
 40
0.9800000000000005
 40
0.9800000000000005
 40
0.9800000000000005
 40
0.9800000000000005
 40
1.0
 40
1.0
 40
1.0
 40
1.0
 10
-2.252287401574803
 20
1.035007874015748
 30
0.0
 10
-2.252287401574803
 20
1.035007874015748
 30
0.0
 10
-2.21134251968504
 20
1.035007874015748
 30
0.0
 10
-2.21134251968504
 20
1.035007874015748
 30
0.0
 10
-2.21134251968504
 20
1.035007874015748
 30
0.0
 10
-2.21134251968504
 20
1.035007874015748
 30
0.0
 10
-2.21134251968504
 20
1.028173228346457
 30
0.0
 10
-2.21134251968504
 20
1.028173228346457
 30
0.0
 10
-2.21134251968504
 20
1.028173228346457
 30
0.0
 10
-2.21134251968504
 20
1.028173228346457
 30
0.0
 10
-2.214177165354331
 20
1.028173228346457
 30
0.0
 10
-2.214177165354331
 20
1.028173228346457
 30
0.0
 10
-2.214177165354331
 20
1.028173228346457
 30
0.0
 10
-2.215814960629921
 20
1.028173228346457
 30
0.0
 10
-2.217314960629921
 20
1.02798031496063
 30
0.0
 10
-2.218677165354331
 20
1.027618110236221
 30
0.0
 10
-2.218677165354331
 20
1.027618110236221
 30
0.0
 10
-2.21948031496063
 20
1.027397637795276
 30
0.0
 10
-2.220149606299213
 20
1.02698031496063
 30
0.0
 10
-2.220649606299213
 20
1.026342519685039
 30
0.0
 10
-2.220649606299213
 20
1.026342519685039
 30
0.0
 10
-2.221177165354331
 20
1.025728346456693
 30
0.0
 10
-2.221425196850394
 20
1.025145669291339
 30
0.0
 10
-2.221425196850394
 20
1.024590551181102
 30
0.0
 10
-2.221425196850394
 20
1.024590551181102
 30
0.0
 10
-2.221425196850394
 20
1.023342519685039
 30
0.0
 10
-2.220397637795276
 20
1.02148031496063
 30
0.0
 10
-2.218342519685039
 20
1.01898031496063
 30
0.0
 10
-2.218342519685039
 20
1.01898031496063
 30
0.0
 10
-2.218342519685039
 20
1.01898031496063
 30
0.0
 10
-2.206704724409449
 20
1.00434251968504
 30
0.0
 10
-2.206704724409449
 20
1.00434251968504
 30
0.0
 10
-2.206704724409449
 20
1.00434251968504
 30
0.0
 10
-2.206704724409449
 20
1.00434251968504
 30
0.0
 10
-2.193122047244095
 20
1.01898031496063
 30
0.0
 10
-2.193122047244095
 20
1.01898031496063
 30
0.0
 10
-2.193122047244095
 20
1.01898031496063
 30
0.0
 10
-2.190622047244095
 20
1.021700787401575
 30
0.0
 10
-2.189370078740158
 20
1.023728346456693
 30
0.0
 10
-2.189370078740158
 20
1.025090551181102
 30
0.0
 10
-2.189370078740158
 20
1.025090551181102
 30
0.0
 10
-2.189370078740158
 20
1.026062992125984
 30
0.0
 10
-2.189814960629922
 20
1.026814960629921
 30
0.0
 10
-2.190677165354331
 20
1.027370078740158
 30
0.0
 10
-2.190677165354331
 20
1.027370078740158
 30
0.0
 10
-2.19153937007874
 20
1.027897637795276
 30
0.0
 10
-2.193397637795276
 20
1.028173228346457
 30
0.0
 10
-2.196287401574803
 20
1.028173228346457
 30
0.0
 10
-2.196287401574803
 20
1.028173228346457
 30
0.0
 10
-2.196287401574803
 20
1.028173228346457
 30
0.0
 10
-2.199370078740158
 20
1.028173228346457
 30
0.0
 10
-2.199370078740158
 20
1.028173228346457
 30
0.0
 10
-2.199370078740158
 20
1.028173228346457
 30
0.0
 10
-2.199370078740158
 20
1.028173228346457
 30
0.0
 10
-2.199370078740158
 20
1.035007874015748
 30
0.0
 10
-2.199370078740158
 20
1.035007874015748
 30
0.0
 10
-2.199370078740158
 20
1.035007874015748
 30
0.0
 10
-2.199370078740158
 20
1.035007874015748
 30
0.0
 10
-2.164622047244095
 20
1.035007874015748
 30
0.0
 10
-2.164622047244095
 20
1.035007874015748
 30
0.0
 10
-2.164622047244095
 20
1.035007874015748
 30
0.0
 10
-2.164622047244095
 20
1.035007874015748
 30
0.0
 10
-2.164622047244095
 20
1.028173228346457
 30
0.0
 10
-2.164622047244095
 20
1.028173228346457
 30
0.0
 10
-2.164622047244095
 20
1.028173228346457
 30
0.0
 10
-2.16803937007874
 20
1.028007874015748
 30
0.0
 10
-2.170984251968504
 20
1.027314960629921
 30
0.0
 10
-2.173452755905512
 20
1.026062992125984
 30
0.0
 10
-2.173452755905512
 20
1.026062992125984
 30
0.0
 10
-2.175925196850394
 20
1.024814960629921
 30
0.0
 10
-2.178842519685039
 20
1.022452755905512
 30
0.0
 10
-2.182204724409449
 20
1.01898031496063
 30
0.0
 10
-2.182204724409449
 20
1.01898031496063
 30
0.0
 10
-2.182204724409449
 20
1.01898031496063
 30
0.0
 10
-2.20084251968504
 20
0.9996181102362205
 30
0.0
 10
-2.20084251968504
 20
0.9996181102362205
 30
0.0
 10
-2.20084251968504
 20
0.9996181102362205
 30
0.0
 10
-2.20084251968504
 20
0.9996181102362205
 30
0.0
 10
-2.177649606299213
 20
0.9731732283464567
 30
0.0
 10
-2.177649606299213
 20
0.9731732283464567
 30
0.0
 10
-2.177649606299213
 20
0.9731732283464567
 30
0.0
 10
-2.177649606299213
 20
0.9731732283464567
 30
0.0
 10
-2.176759842519685
 20
0.9720354330708662
 30
0.0
 10
-2.176759842519685
 20
0.9720354330708662
 30
0.0
 10
-2.176759842519685
 20
0.9720354330708662
 30
0.0
 10
-2.174484251968504
 20
0.9690905511811024
 30
0.0
 10
-2.171925196850394
 20
0.9667283464566929
 30
0.0
 10
-2.169094488188977
 20
0.9649527559055119
 30
0.0
 10
-2.169094488188977
 20
0.9649527559055119
 30
0.0
 10
-2.16753937007874
 20
0.9639251968503937
 30
0.0
 10
-2.165094488188977
 20
0.9633700787401576
 30
0.0
 10
-2.161787401574803
 20
0.9633149606299213
 30
0.0
 10
-2.161787401574803
 20
0.9633149606299213
 30
0.0
 10
-2.161787401574803
 20
0.9633149606299213
 30
0.0
 10
-2.161787401574803
 20
0.9564803149606299
 30
0.0
 10
-2.161787401574803
 20
0.9564803149606299
 30
0.0
 10
-2.161787401574803
 20
0.9564803149606299
 30
0.0
 10
-2.161787401574803
 20
0.9564803149606299
 30
0.0
 10
-2.201732283464567
 20
0.9564803149606299
 30
0.0
 10
-2.201732283464567
 20
0.9564803149606299
 30
0.0
 10
-2.201732283464567
 20
0.9564803149606299
 30
0.0
 10
-2.201732283464567
 20
0.9564803149606299
 30
0.0
 10
-2.201732283464567
 20
0.9633149606299213
 30
0.0
 10
-2.201732283464567
 20
0.9633149606299213
 30
0.0
 10
-2.201732283464567
 20
0.9633149606299213
 30
0.0
 10
-2.201732283464567
 20
0.9633149606299213
 30
0.0
 10
-2.198314960629921
 20
0.9633149606299213
 30
0.0
 10
-2.198314960629921
 20
0.9633149606299213
 30
0.0
 10
-2.198314960629921
 20
0.9633149606299213
 30
0.0
 10
-2.195704724409449
 20
0.9633149606299213
 30
0.0
 10
-2.194066929133858
 20
0.9634803149606299
 30
0.0
 10
-2.193342519685039
 20
0.9638149606299213
 30
0.0
 10
-2.193342519685039
 20
0.9638149606299213
 30
0.0
 10
-2.192177165354331
 20
0.9643425196850394
 30
0.0
 10
-2.191566929133858
 20
0.9652598425196851
 30
0.0
 10
-2.191566929133858
 20
0.9665629921259843
 30
0.0
 10
-2.191566929133858
 20
0.9665629921259843
 30
0.0
 10
-2.191566929133858
 20
0.9677598425196851
 30
0.0
 10
-2.192870078740158
 20
0.9699527559055119
 30
0.0
 10
-2.195484251968504
 20
0.9731732283464567
 30
0.0
 10
-2.195484251968504
 20
0.9731732283464567
 30
0.0
 10
-2.195484251968504
 20
0.9731732283464567
 30
0.0
 10
-2.210287401574803
 20
0.9913149606299213
 30
0.0
 10
-2.210287401574803
 20
0.9913149606299213
 30
0.0
 10
-2.210287401574803
 20
0.9913149606299213
 30
0.0
 10
-2.210287401574803
 20
0.9913149606299213
 30
0.0
 10
-2.226814960629922
 20
0.9731732283464567
 30
0.0
 10
-2.226814960629922
 20
0.9731732283464567
 30
0.0
 10
-2.226814960629922
 20
0.9731732283464567
 30
0.0
 10
-2.226814960629922
 20
0.9731732283464567
 30
0.0
 10
-2.228425196850394
 20
0.9712007874015749
 30
0.0
 10
-2.228425196850394
 20
0.9712007874015749
 30
0.0
 10
-2.228425196850394
 20
0.9712007874015749
 30
0.0
 10
-2.228425196850394
 20
0.9712007874015749
 30
0.0
 10
-2.229314960629921
 20
0.970228346456693
 30
0.0
 10
-2.229314960629921
 20
0.970228346456693
 30
0.0
 10
-2.229314960629921
 20
0.970228346456693
 30
0.0
 10
-2.230677165354331
 20
0.9687598425196851
 30
0.0
 10
-2.231370078740158
 20
0.9674803149606299
 30
0.0
 10
-2.231370078740158
 20
0.9663425196850394
 30
0.0
 10
-2.231370078740158
 20
0.9663425196850394
 30
0.0
 10
-2.231370078740158
 20
0.9652874015748032
 30
0.0
 10
-2.230952755905512
 20
0.9645354330708662
 30
0.0
 10
-2.230094488188977
 20
0.9640354330708661
 30
0.0
 10
-2.230094488188977
 20
0.9640354330708661
 30
0.0
 10
-2.229259842519685
 20
0.9635629921259843
 30
0.0
 10
-2.227370078740158
 20
0.9633149606299213
 30
0.0
 10
-2.224452755905512
 20
0.9633149606299213
 30
0.0
 10
-2.224452755905512
 20
0.9633149606299213
 30
0.0
 10
-2.224452755905512
 20
0.9633149606299213
 30
0.0
 10
-2.221177165354331
 20
0.9633149606299213
 30
0.0
 10
-2.221177165354331
 20
0.9633149606299213
 30
0.0
 10
-2.221177165354331
 20
0.9633149606299213
 30
0.0
 10
-2.221177165354331
 20
0.9633149606299213
 30
0.0
 10
-2.221177165354331
 20
0.9564803149606299
 30
0.0
 10
-2.221177165354331
 20
0.9564803149606299
 30
0.0
 10
-2.221177165354331
 20
0.9564803149606299
 30
0.0
 10
-2.221177165354331
 20
0.9564803149606299
 30
0.0
 10
-2.255452755905512
 20
0.9564803149606299
 30
0.0
 10
-2.255452755905512
 20
0.9564803149606299
 30
0.0
 10
-2.255452755905512
 20
0.9564803149606299
 30
0.0
 10
-2.255452755905512
 20
0.9564803149606299
 30
0.0
 10
-2.255452755905512
 20
0.9633149606299213
 30
0.0
 10
-2.255452755905512
 20
0.9633149606299213
 30
0.0
 10
-2.255452755905512
 20
0.9633149606299213
 30
0.0
 10
-2.252787401574803
 20
0.9633700787401576
 30
0.0
 10
-2.250704724409449
 20
0.9636456692913387
 30
0.0
 10
-2.249177165354331
 20
0.9641732283464567
 30
0.0
 10
-2.249177165354331
 20
0.9641732283464567
 30
0.0
 10
-2.247677165354331
 20
0.9646732283464568
 30
0.0
 10
-2.246204724409449
 20
0.9654803149606299
 30
0.0
 10
-2.244787401574803
 20
0.9665629921259843
 30
0.0
 10
-2.244787401574803
 20
0.9665629921259843
 30
0.0
 10
-2.242342519685039
 20
0.9685354330708662
 30
0.0
 10
-2.240594488188977
 20
0.9700629921259842
 30
0.0
 10
-2.239507874015748
 20
0.9712007874015749
 30
0.0
 10
-2.239507874015748
 20
0.9712007874015749
 30
0.0
 10
-2.239507874015748
 20
0.9712007874015749
 30
0.0
 10
-2.215649606299213
 20
0.9957007874015749
 30
0.0
 10
-2.215649606299213
 20
0.9957007874015749
 30
0.0
 10
-2.215649606299213
 20
0.9957007874015749
 30
0.0
 10
-2.215649606299213
 20
0.9957007874015749
 30
0.0
 10
-2.235925196850394
 20
1.01898031496063
 30
0.0
 10
-2.235925196850394
 20
1.01898031496063
 30
0.0
 10
-2.235925196850394
 20
1.01898031496063
 30
0.0
 10
-2.23848031496063
 20
1.021870078740158
 30
0.0
 10
-2.24048031496063
 20
1.023870078740158
 30
0.0
 10
-2.24198031496063
 20
1.025035433070866
 30
0.0
 10
-2.24198031496063
 20
1.025035433070866
 30
0.0
 10
-2.24348031496063
 20
1.026200787401575
 30
0.0
 10
-2.244925196850394
 20
1.027035433070866
 30
0.0
 10
-2.246342519685039
 20
1.02748031496063
 30
0.0
 10
-2.246342519685039
 20
1.02748031496063
 30
0.0
 10
-2.247759842519685
 20
1.027952755905512
 30
0.0
 10
-2.249732283464567
 20
1.028173228346457
 30
0.0
 10
-2.252287401574803
 20
1.028173228346457
 30
0.0
 10
-2.252287401574803
 20
1.028173228346457
 30
0.0
 10
-2.252287401574803
 20
1.028173228346457
 30
0.0
 10
-2.252287401574803
 20
1.035007874015748
 30
0.0
 10
-2.252287401574803
 20
1.035007874015748
 30
0.0
  0
SPLINE
  5
3C
330
1F
100
AcDbEntity
  8
LAYER_1
 62
   250
100
AcDbSpline
210
0.0
220
0.0
230
1.0
 70
    11
 71
     3
 72
    72
 73
    68
 74
     0
 42
0.0000000001
 43
0.0000000001
 40
0.0
 40
0.0
 40
0.0
 40
0.0
 40
0.0588235294117647
 40
0.0588235294117647
 40
0.0588235294117647
 40
0.0588235294117647
 40
0.1176470588235294
 40
0.1176470588235294
 40
0.1176470588235294
 40
0.1176470588235294
 40
0.1764705882352941
 40
0.1764705882352941
 40
0.1764705882352941
 40
0.1764705882352941
 40
0.2352941176470588
 40
0.2352941176470588
 40
0.2352941176470588
 40
0.2352941176470588
 40
0.2941176470588235
 40
0.2941176470588235
 40
0.2941176470588235
 40
0.2941176470588235
 40
0.3529411764705883
 40
0.3529411764705883
 40
0.3529411764705883
 40
0.3529411764705883
 40
0.411764705882353
 40
0.411764705882353
 40
0.411764705882353
 40
0.411764705882353
 40
0.4705882352941177
 40
0.4705882352941177
 40
0.4705882352941177
 40
0.4705882352941177
 40
0.5294117647058824
 40
0.5294117647058824
 40
0.5294117647058824
 40
0.5294117647058824
 40
0.5882352941176471
 40
0.5882352941176471
 40
0.5882352941176471
 40
0.5882352941176471
 40
0.6470588235294118
 40
0.6470588235294118
 40
0.6470588235294118
 40
0.6470588235294118
 40
0.7058823529411765
 40
0.7058823529411765
 40
0.7058823529411765
 40
0.7058823529411765
 40
0.7647058823529412
 40
0.7647058823529412
 40
0.7647058823529412
 40
0.7647058823529412
 40
0.823529411764706
 40
0.823529411764706
 40
0.823529411764706
 40
0.823529411764706
 40
0.8823529411764707
 40
0.8823529411764707
 40
0.8823529411764707
 40
0.8823529411764707
 40
0.9411764705882354
 40
0.9411764705882354
 40
0.9411764705882354
 40
0.9411764705882354
 40
1.0
 40
1.0
 40
1.0
 40
1.0
 10
-2.052649606299213
 20
1.070007874015748
 30
0.0
 10
-2.052649606299213
 20
1.070007874015748
 30
0.0
 10
-2.046566929133858
 20
1.070007874015748
 30
0.0
 10
-2.046566929133858
 20
1.070007874015748
 30
0.0
 10
-2.046566929133858
 20
1.070007874015748
 30
0.0
 10
-2.046566929133858
 20
1.070007874015748
 30
0.0
 10
-2.046566929133858
 20
0.9757598425196851
 30
0.0
 10
-2.046566929133858
 20
0.9757598425196851
 30
0.0
 10
-2.046566929133858
 20
0.9757598425196851
 30
0.0
 10
-2.046566929133858
 20
0.9713149606299213
 30
0.0
 10
-2.046259842519685
 20
0.9684527559055118
 30
0.0
 10
-2.045704724409449
 20
0.9671732283464567
 30
0.0
 10
-2.045704724409449
 20
0.9671732283464567
 30
0.0
 10
-2.045122047244095
 20
0.9658976377952756
 30
0.0
 10
-2.044204724409449
 20
0.9649527559055119
 30
0.0
 10
-2.04290157480315
 20
0.9642874015748032
 30
0.0
 10
-2.04290157480315
 20
0.9642874015748032
 30
0.0
 10
-2.041594488188976
 20
0.9636456692913387
 30
0.0
 10
-2.039011811023622
 20
0.9633149606299213
 30
0.0
 10
-2.035149606299213
 20
0.9633149606299213
 30
0.0
 10
-2.035149606299213
 20
0.9633149606299213
 30
0.0
 10
-2.035149606299213
 20
0.9633149606299213
 30
0.0
 10
-2.027177165354331
 20
0.9633149606299213
 30
0.0
 10
-2.027177165354331
 20
0.9633149606299213
 30
0.0
 10
-2.027177165354331
 20
0.9633149606299213
 30
0.0
 10
-2.027177165354331
 20
0.9633149606299213
 30
0.0
 10
-2.027177165354331
 20
0.9564803149606299
 30
0.0
 10
-2.027177165354331
 20
0.9564803149606299
 30
0.0
 10
-2.027177165354331
 20
0.9564803149606299
 30
0.0
 10
-2.027177165354331
 20
0.9564803149606299
 30
0.0
 10
-2.080814960629922
 20
0.9564803149606299
 30
0.0
 10
-2.080814960629922
 20
0.9564803149606299
 30
0.0
 10
-2.080814960629922
 20
0.9564803149606299
 30
0.0
 10
-2.080814960629922
 20
0.9564803149606299
 30
0.0
 10
-2.080814960629922
 20
0.9633149606299213
 30
0.0
 10
-2.080814960629922
 20
0.9633149606299213
 30
0.0
 10
-2.080814960629922
 20
0.9633149606299213
 30
0.0
 10
-2.080814960629922
 20
0.9633149606299213
 30
0.0
 10
-2.071956692913386
 20
0.9633149606299213
 30
0.0
 10
-2.071956692913386
 20
0.9633149606299213
 30
0.0
 10
-2.071956692913386
 20
0.9633149606299213
 30
0.0
 10
-2.068094488188977
 20
0.9633149606299213
 30
0.0
 10
-2.06553937007874
 20
0.9636456692913387
 30
0.0
 10
-2.064259842519685
 20
0.9643425196850394
 30
0.0
 10
-2.064259842519685
 20
0.9643425196850394
 30
0.0
 10
-2.062984251968504
 20
0.9650078740157481
 30
0.0
 10
-2.061984251968504
 20
0.9660905511811024
 30
0.0
 10
-2.061287401574803
 20
0.9675905511811024
 30
0.0
 10
-2.061287401574803
 20
0.9675905511811024
 30
0.0
 10
-2.060594488188976
 20
0.9690905511811024
 30
0.0
 10
-2.060232283464567
 20
0.9718149606299213
 30
0.0
 10
-2.060232283464567
 20
0.9757598425196851
 30
0.0
 10
-2.060232283464567
 20
0.9757598425196851
 30
0.0
 10
-2.060232283464567
 20
0.9757598425196851
 30
0.0
 10
-2.060232283464567
 20
1.053228346456693
 30
0.0
 10
-2.060232283464567
 20
1.053228346456693
 30
0.0
 10
-2.060232283464567
 20
1.053228346456693
 30
0.0
 10
-2.060232283464567
 20
1.053228346456693
 30
0.0
 10
-2.080814960629922
 20
1.053228346456693
 30
0.0
 10
-2.080814960629922
 20
1.053228346456693
 30
0.0
 10
-2.080814960629922
 20
1.053228346456693
 30
0.0
 10
-2.080814960629922
 20
1.053228346456693
 30
0.0
 10
-2.080814960629922
 20
1.060228346456693
 30
0.0
 10
-2.080814960629922
 20
1.060228346456693
 30
0.0
 10
-2.080814960629922
 20
1.060228346456693
 30
0.0
 10
-2.069594488188976
 20
1.061811023622047
 30
0.0
 10
-2.060204724409449
 20
1.065062992125984
 30
0.0
 10
-2.052649606299213
 20
1.070007874015748
 30
0.0
  0
SPLINE
  5
3D
330
1F
100
AcDbEntity
  8
LAYER_1
 62
   250
100
AcDbSpline
210
0.0
220
0.0
230
1.0
 70
    11
 71
     3
 72
    20
 73
    16
 74
     0
 42
0.0000000001
 43
0.0000000001
 40
0.0
 40
0.0
 40
0.0
 40
0.0
 40
0.25
 40
0.25
 40
0.25
 40
0.25
 40
0.5
 40
0.5
 40
0.5
 40
0.5
 40
0.75
 40
0.75
 40
0.75
 40
0.75
 40
1.0
 40
1.0
 40
1.0
 40
1.0
 10
-1.996177165354331
 20
1.002952755905512
 30
0.0
 10
-1.996177165354331
 20
1.002952755905512
 30
0.0
 10
-1.94784251968504
 20
1.002952755905512
 30
0.0
 10
-1.94784251968504
 20
1.002952755905512
 30
0.0
 10
-1.94784251968504
 20
1.002952755905512
 30
0.0
 10
-1.94784251968504
 20
1.002952755905512
 30
0.0
 10
-1.94784251968504
 20
0.9928700787401575
 30
0.0
 10
-1.94784251968504
 20
0.9928700787401575
 30
0.0
 10
-1.94784251968504
 20
0.9928700787401575
 30
0.0
 10
-1.94784251968504
 20
0.9928700787401575
 30
0.0
 10
-1.996177165354331
 20
0.9928700787401575
 30
0.0
 10
-1.996177165354331
 20
0.9928700787401575
 30
0.0
 10
-1.996177165354331
 20
0.9928700787401575
 30
0.0
 10
-1.996177165354331
 20
0.9928700787401575
 30
0.0
 10
-1.996177165354331
 20
1.002952755905512
 30
0.0
 10
-1.996177165354331
 20
1.002952755905512
 30
0.0
  0
SPLINE
  5
3E
330
1F
100
AcDbEntity
  8
LAYER_1
 62
   250
100
AcDbSpline
210
0.0
220
0.0
230
1.0
 70
    11
 71
     3
 72
    72
 73
    68
 74
     0
 42
0.0000000001
 43
0.0000000001
 40
0.0
 40
0.0
 40
0.0
 40
0.0
 40
0.0588235294117647
 40
0.0588235294117647
 40
0.0588235294117647
 40
0.0588235294117647
 40
0.1176470588235294
 40
0.1176470588235294
 40
0.1176470588235294
 40
0.1176470588235294
 40
0.1764705882352941
 40
0.1764705882352941
 40
0.1764705882352941
 40
0.1764705882352941
 40
0.2352941176470588
 40
0.2352941176470588
 40
0.2352941176470588
 40
0.2352941176470588
 40
0.2941176470588235
 40
0.2941176470588235
 40
0.2941176470588235
 40
0.2941176470588235
 40
0.3529411764705883
 40
0.3529411764705883
 40
0.3529411764705883
 40
0.3529411764705883
 40
0.411764705882353
 40
0.411764705882353
 40
0.411764705882353
 40
0.411764705882353
 40
0.4705882352941177
 40
0.4705882352941177
 40
0.4705882352941177
 40
0.4705882352941177
 40
0.5294117647058824
 40
0.5294117647058824
 40
0.5294117647058824
 40
0.5294117647058824
 40
0.5882352941176471
 40
0.5882352941176471
 40
0.5882352941176471
 40
0.5882352941176471
 40
0.6470588235294118
 40
0.6470588235294118
 40
0.6470588235294118
 40
0.6470588235294118
 40
0.7058823529411765
 40
0.7058823529411765
 40
0.7058823529411765
 40
0.7058823529411765
 40
0.7647058823529412
 40
0.7647058823529412
 40
0.7647058823529412
 40
0.7647058823529412
 40
0.823529411764706
 40
0.823529411764706
 40
0.823529411764706
 40
0.823529411764706
 40
0.8823529411764707
 40
0.8823529411764707
 40
0.8823529411764707
 40
0.8823529411764707
 40
0.9411764705882354
 40
0.9411764705882354
 40
0.9411764705882354
 40
0.9411764705882354
 40
1.0
 40
1.0
 40
1.0
 40
1.0
 10
-1.882649606299213
 20
1.070007874015748
 30
0.0
 10
-1.882649606299213
 20
1.070007874015748
 30
0.0
 10
-1.876566929133858
 20
1.070007874015748
 30
0.0
 10
-1.876566929133858
 20
1.070007874015748
 30
0.0
 10
-1.876566929133858
 20
1.070007874015748
 30
0.0
 10
-1.876566929133858
 20
1.070007874015748
 30
0.0
 10
-1.876566929133858
 20
0.9757598425196851
 30
0.0
 10
-1.876566929133858
 20
0.9757598425196851
 30
0.0
 10
-1.876566929133858
 20
0.9757598425196851
 30
0.0
 10
-1.876566929133858
 20
0.9713149606299213
 30
0.0
 10
-1.876259842519685
 20
0.9684527559055118
 30
0.0
 10
-1.875704724409449
 20
0.9671732283464567
 30
0.0
 10
-1.875704724409449
 20
0.9671732283464567
 30
0.0
 10
-1.875122047244095
 20
0.9658976377952756
 30
0.0
 10
-1.874204724409449
 20
0.9649527559055119
 30
0.0
 10
-1.87290157480315
 20
0.9642874015748032
 30
0.0
 10
-1.87290157480315
 20
0.9642874015748032
 30
0.0
 10
-1.871594488188977
 20
0.9636456692913387
 30
0.0
 10
-1.869011811023622
 20
0.9633149606299213
 30
0.0
 10
-1.865149606299213
 20
0.9633149606299213
 30
0.0
 10
-1.865149606299213
 20
0.9633149606299213
 30
0.0
 10
-1.865149606299213
 20
0.9633149606299213
 30
0.0
 10
-1.857177165354331
 20
0.9633149606299213
 30
0.0
 10
-1.857177165354331
 20
0.9633149606299213
 30
0.0
 10
-1.857177165354331
 20
0.9633149606299213
 30
0.0
 10
-1.857177165354331
 20
0.9633149606299213
 30
0.0
 10
-1.857177165354331
 20
0.9564803149606299
 30
0.0
 10
-1.857177165354331
 20
0.9564803149606299
 30
0.0
 10
-1.857177165354331
 20
0.9564803149606299
 30
0.0
 10
-1.857177165354331
 20
0.9564803149606299
 30
0.0
 10
-1.910814960629921
 20
0.9564803149606299
 30
0.0
 10
-1.910814960629921
 20
0.9564803149606299
 30
0.0
 10
-1.910814960629921
 20
0.9564803149606299
 30
0.0
 10
-1.910814960629921
 20
0.9564803149606299
 30
0.0
 10
-1.910814960629921
 20
0.9633149606299213
 30
0.0
 10
-1.910814960629921
 20
0.9633149606299213
 30
0.0
 10
-1.910814960629921
 20
0.9633149606299213
 30
0.0
 10
-1.910814960629921
 20
0.9633149606299213
 30
0.0
 10
-1.901956692913386
 20
0.9633149606299213
 30
0.0
 10
-1.901956692913386
 20
0.9633149606299213
 30
0.0
 10
-1.901956692913386
 20
0.9633149606299213
 30
0.0
 10
-1.898094488188977
 20
0.9633149606299213
 30
0.0
 10
-1.89553937007874
 20
0.9636456692913387
 30
0.0
 10
-1.894259842519685
 20
0.9643425196850394
 30
0.0
 10
-1.894259842519685
 20
0.9643425196850394
 30
0.0
 10
-1.892984251968504
 20
0.9650078740157481
 30
0.0
 10
-1.891984251968504
 20
0.9660905511811024
 30
0.0
 10
-1.891287401574803
 20
0.9675905511811024
 30
0.0
 10
-1.891287401574803
 20
0.9675905511811024
 30
0.0
 10
-1.890594488188977
 20
0.9690905511811024
 30
0.0
 10
-1.890232283464567
 20
0.9718149606299213
 30
0.0
 10
-1.890232283464567
 20
0.9757598425196851
 30
0.0
 10
-1.890232283464567
 20
0.9757598425196851
 30
0.0
 10
-1.890232283464567
 20
0.9757598425196851
 30
0.0
 10
-1.890232283464567
 20
1.053228346456693
 30
0.0
 10
-1.890232283464567
 20
1.053228346456693
 30
0.0
 10
-1.890232283464567
 20
1.053228346456693
 30
0.0
 10
-1.890232283464567
 20
1.053228346456693
 30
0.0
 10
-1.910814960629921
 20
1.053228346456693
 30
0.0
 10
-1.910814960629921
 20
1.053228346456693
 30
0.0
 10
-1.910814960629921
 20
1.053228346456693
 30
0.0
 10
-1.910814960629921
 20
1.053228346456693
 30
0.0
 10
-1.910814960629921
 20
1.060228346456693
 30
0.0
 10
-1.910814960629921
 20
1.060228346456693
 30
0.0
 10
-1.910814960629921
 20
1.060228346456693
 30
0.0
 10
-1.899594488188976
 20
1.061811023622047
 30
0.0
 10
-1.890204724409449
 20
1.065062992125984
 30
0.0
 10
-1.882649606299213
 20
1.070007874015748
 30
0.0
  0
SPLINE
  5
3F
330
1F
100
AcDbEntity
  8
LAYER_1
 62
   250
100
AcDbSpline
210
0.0
220
0.0
230
1.0
 70
    11
 71
     3
 72
    20
 73
    16
 74
     0
 42
0.0000000001
 43
0.0000000001
 40
0.0
 40
0.0
 40
0.0
 40
0.0
 40
0.25
 40
0.25
 40
0.25
 40
0.25
 40
0.5
 40
0.5
 40
0.5
 40
0.5
 40
0.75
 40
0.75
 40
0.75
 40
0.75
 40
1.0
 40
1.0
 40
1.0
 40
1.0
 10
-1.753814960629921
 20
1.075870078740158
 30
0.0
 10
-1.753814960629921
 20
1.075870078740158
 30
0.0
 10
-1.809397637795276
 20
0.9201732283464568
 30
0.0
 10
-1.809397637795276
 20
0.9201732283464568
 30
0.0
 10
-1.809397637795276
 20
0.9201732283464568
 30
0.0
 10
-1.809397637795276
 20
0.9201732283464568
 30
0.0
 10
-1.821452755905512
 20
0.9201732283464568
 30
0.0
 10
-1.821452755905512
 20
0.9201732283464568
 30
0.0
 10
-1.821452755905512
 20
0.9201732283464568
 30
0.0
 10
-1.821452755905512
 20
0.9201732283464568
 30
0.0
 10
-1.766204724409449
 20
1.075870078740158
 30
0.0
 10
-1.766204724409449
 20
1.075870078740158
 30
0.0
 10
-1.766204724409449
 20
1.075870078740158
 30
0.0
 10
-1.766204724409449
 20
1.075870078740158
 30
0.0
 10
-1.753814960629921
 20
1.075870078740158
 30
0.0
 10
-1.753814960629921
 20
1.075870078740158
 30
0.0
  0
SPLINE
  5
40
330
1F
100
AcDbEntity
  8
LAYER_1
 62
   250
100
AcDbSpline
210
0.0
220
0.0
230
1.0
 70
    11
 71
     3
 72
   136
 73
   132
 74
     0
 42
0.0000000001
 43
0.0000000001
 40
0.0
 40
0.0
 40
0.0
 40
0.0
 40
0.0303030303030303
 40
0.0303030303030303
 40
0.0303030303030303
 40
0.0303030303030303
 40
0.0606060606060606
 40
0.0606060606060606
 40
0.0606060606060606
 40
0.0606060606060606
 40
0.0909090909090909
 40
0.0909090909090909
 40
0.0909090909090909
 40
0.0909090909090909
 40
0.1212121212121212
 40
0.1212121212121212
 40
0.1212121212121212
 40
0.1212121212121212
 40
0.1515151515151515
 40
0.1515151515151515
 40
0.1515151515151515
 40
0.1515151515151515
 40
0.1818181818181818
 40
0.1818181818181818
 40
0.1818181818181818
 40
0.1818181818181818
 40
0.2121212121212121
 40
0.2121212121212121
 40
0.2121212121212121
 40
0.2121212121212121
 40
0.2424242424242424
 40
0.2424242424242424
 40
0.2424242424242424
 40
0.2424242424242424
 40
0.2727272727272727
 40
0.2727272727272727
 40
0.2727272727272727
 40
0.2727272727272727
 40
0.303030303030303
 40
0.303030303030303
 40
0.303030303030303
 40
0.303030303030303
 40
0.3333333333333333
 40
0.3333333333333333
 40
0.3333333333333333
 40
0.3333333333333333
 40
0.3636363636363635
 40
0.3636363636363635
 40
0.3636363636363635
 40
0.3636363636363635
 40
0.3939393939393938
 40
0.3939393939393938
 40
0.3939393939393938
 40
0.3939393939393938
 40
0.4242424242424241
 40
0.4242424242424241
 40
0.4242424242424241
 40
0.4242424242424241
 40
0.4545454545454544
 40
0.4545454545454544
 40
0.4545454545454544
 40
0.4545454545454544
 40
0.4848484848484846
 40
0.4848484848484846
 40
0.4848484848484846
 40
0.4848484848484846
 40
0.5151515151515149
 40
0.5151515151515149
 40
0.5151515151515149
 40
0.5151515151515149
 40
0.5454545454545452
 40
0.5454545454545452
 40
0.5454545454545452
 40
0.5454545454545452
 40
0.5757575757575755
 40
0.5757575757575755
 40
0.5757575757575755
 40
0.5757575757575755
 40
0.6060606060606057
 40
0.6060606060606057
 40
0.6060606060606057
 40
0.6060606060606057
 40
0.636363636363636
 40
0.636363636363636
 40
0.636363636363636
 40
0.636363636363636
 40
0.6666666666666663
 40
0.6666666666666663
 40
0.6666666666666663
 40
0.6666666666666663
 40
0.6969696969696966
 40
0.6969696969696966
 40
0.6969696969696966
 40
0.6969696969696966
 40
0.7272727272727269
 40
0.7272727272727269
 40
0.7272727272727269
 40
0.7272727272727269
 40
0.7575757575757571
 40
0.7575757575757571
 40
0.7575757575757571
 40
0.7575757575757571
 40
0.7878787878787874
 40
0.7878787878787874
 40
0.7878787878787874
 40
0.7878787878787874
 40
0.8181818181818177
 40
0.8181818181818177
 40
0.8181818181818177
 40
0.8181818181818177
 40
0.848484848484848
 40
0.848484848484848
 40
0.848484848484848
 40
0.848484848484848
 40
0.8787878787878782
 40
0.8787878787878782
 40
0.8787878787878782
 40
0.8787878787878782
 40
0.9090909090909085
 40
0.9090909090909085
 40
0.9090909090909085
 40
0.9090909090909085
 40
0.9393939393939388
 40
0.9393939393939388
 40
0.9393939393939388
 40
0.9393939393939388
 40
0.9696969696969691
 40
0.9696969696969691
 40
0.9696969696969691
 40
0.9696969696969691
 40
1.0
 40
1.0
 40
1.0
 40
1.0
 10
-1.716370078740158
 20
1.027200787401575
 30
0.0
 10
-1.716370078740158
 20
1.027200787401575
 30
0.0
 10
-1.724259842519685
 20
1.026228346456693
 30
0.0
 10
-1.724259842519685
 20
1.026228346456693
 30
0.0
 10
-1.724259842519685
 20
1.026228346456693
 30
0.0
 10
-1.724704724409449
 20
1.030062992125984
 30
0.0
 10
-1.724925196850394
 20
1.033228346456693
 30
0.0
 10
-1.724925196850394
 20
1.035673228346457
 30
0.0
 10
-1.724925196850394
 20
1.035673228346457
 30
0.0
 10
-1.724925196850394
 20
1.042062992125984
 30
0.0
 10
-1.723177165354331
 20
1.048118110236221
 30
0.0
 10
-1.719704724409449
 20
1.053811023622047
 30
0.0
 10
-1.719704724409449
 20
1.053811023622047
 30
0.0
 10
-1.716232283464567
 20
1.059507874015748
 30
0.0
 10
-1.711397637795276
 20
1.063952755905512
 30
0.0
 10
-1.705177165354331
 20
1.067145669291339
 30
0.0
 10
-1.705177165354331
 20
1.067145669291339
 30
0.0
 10
-1.698984251968504
 20
1.070370078740158
 30
0.0
 10
-1.69184251968504
 20
1.071952755905512
 30
0.0
 10
-1.683814960629921
 20
1.071952755905512
 30
0.0
 10
-1.683814960629921
 20
1.071952755905512
 30
0.0
 10
-1.676066929133858
 20
1.071952755905512
 30
0.0
 10
-1.669259842519685
 20
1.070452755905512
 30
0.0
 10
-1.663397637795276
 20
1.067452755905512
 30
0.0
 10
-1.663397637795276
 20
1.067452755905512
 30
0.0
 10
-1.65753937007874
 20
1.064425196850394
 30
0.0
 10
-1.653066929133858
 20
1.060311023622047
 30
0.0
 10
-1.649929133858268
 20
1.055062992125984
 30
0.0
 10
-1.649929133858268
 20
1.055062992125984
 30
0.0
 10
-1.646814960629921
 20
1.049842519685039
 30
0.0
 10
-1.645259842519685
 20
1.043870078740158
 30
0.0
 10
-1.645259842519685
 20
1.037118110236221
 30
0.0
 10
-1.645259842519685
 20
1.037118110236221
 30
0.0
 10
-1.645259842519685
 20
1.031425196850394
 30
0.0
 10
-1.646259842519685
 20
1.026145669291339
 30
0.0
 10
-1.648314960629921
 20
1.021314960629921
 30
0.0
 10
-1.648314960629921
 20
1.021314960629921
 30
0.0
 10
-1.650342519685039
 20
1.016452755905512
 30
0.0
 10
-1.653622047244095
 20
1.011535433070866
 30
0.0
 10
-1.658122047244095
 20
1.006618110236221
 30
0.0
 10
-1.658122047244095
 20
1.006618110236221
 30
0.0
 10
-1.661484251968504
 20
1.002925196850394
 30
0.0
 10
-1.668287401574803
 20
0.9972874015748032
 30
0.0
 10
-1.67853937007874
 20
0.9896732283464568
 30
0.0
 10
-1.67853937007874
 20
0.9896732283464568
 30
0.0
 10
-1.691452755905512
 20
0.9800354330708662
 30
0.0
 10
-1.701342519685039
 20
0.9730354330708662
 30
0.0
 10
-1.708232283464567
 20
0.9686732283464568
 30
0.0
 10
-1.708232283464567
 20
0.9686732283464568
 30
0.0
 10
-1.708232283464567
 20
0.9686732283464568
 30
0.0
 10
-1.665925196850394
 20
0.9686732283464568
 30
0.0
 10
-1.665925196850394
 20
0.9686732283464568
 30
0.0
 10
-1.665925196850394
 20
0.9686732283464568
 30
0.0
 10
-1.660925196850394
 20
0.9686732283464568
 30
0.0
 10
-1.657677165354331
 20
0.9691456692913386
 30
0.0
 10
-1.656149606299213
 20
0.9700629921259842
 30
0.0
 10
-1.656149606299213
 20
0.9700629921259842
 30
0.0
 10
-1.65403937007874
 20
0.9712598425196851
 30
0.0
 10
-1.652594488188977
 20
0.9740354330708662
 30
0.0
 10
-1.65184251968504
 20
0.9783700787401575
 30
0.0
 10
-1.65184251968504
 20
0.9783700787401575
 30
0.0
 10
-1.65184251968504
 20
0.9783700787401575
 30
0.0
 10
-1.651122047244095
 20
0.9830078740157481
 30
0.0
 10
-1.651122047244095
 20
0.9830078740157481
 30
0.0
 10
-1.651122047244095
 20
0.9830078740157481
 30
0.0
 10
-1.651122047244095
 20
0.9830078740157481
 30
0.0
 10
-1.644204724409449
 20
0.9830078740157481
 30
0.0
 10
-1.644204724409449
 20
0.9830078740157481
 30
0.0
 10
-1.644204724409449
 20
0.9830078740157481
 30
0.0
 10
-1.644204724409449
 20
0.9830078740157481
 30
0.0
 10
-1.649732283464567
 20
0.9524251968503937
 30
0.0
 10
-1.649732283464567
 20
0.9524251968503937
 30
0.0
 10
-1.649732283464567
 20
0.9524251968503937
 30
0.0
 10
-1.649732283464567
 20
0.9524251968503937
 30
0.0
 10
-1.654925196850394
 20
0.9524251968503937
 30
0.0
 10
-1.654925196850394
 20
0.9524251968503937
 30
0.0
 10
-1.654925196850394
 20
0.9524251968503937
 30
0.0
 10
-1.654925196850394
 20
0.9524251968503937
 30
0.0
 10
-1.65584251968504
 20
0.9564803149606299
 30
0.0
 10
-1.65584251968504
 20
0.9564803149606299
 30
0.0
 10
-1.65584251968504
 20
0.9564803149606299
 30
0.0
 10
-1.65584251968504
 20
0.9564803149606299
 30
0.0
 10
-1.726952755905512
 20
0.9564803149606299
 30
0.0
 10
-1.726952755905512
 20
0.9564803149606299
 30
0.0
 10
-1.726952755905512
 20
0.9564803149606299
 30
0.0
 10
-1.726952755905512
 20
0.9564803149606299
 30
0.0
 10
-1.726952755905512
 20
0.9633149606299213
 30
0.0
 10
-1.726952755905512
 20
0.9633149606299213
 30
0.0
 10
-1.726952755905512
 20
0.9633149606299213
 30
0.0
 10
-1.726952755905512
 20
0.9633149606299213
 30
0.0
 10
-1.713925196850394
 20
0.9731732283464567
 30
0.0
 10
-1.713925196850394
 20
0.9731732283464567
 30
0.0
 10
-1.713925196850394
 20
0.9731732283464567
 30
0.0
 10
-1.704066929133858
 20
0.9804803149606299
 30
0.0
 10
-1.696814960629921
 20
0.9860905511811025
 30
0.0
 10
-1.692204724409449
 20
0.9900078740157481
 30
0.0
 10
-1.692204724409449
 20
0.9900078740157481
 30
0.0
 10
-1.683484251968504
 20
0.9973976377952757
 30
0.0
 10
-1.676897637795276
 20
1.003700787401575
 30
0.0
 10
-1.672484251968504
 20
1.008925196850394
 30
0.0
 10
-1.672484251968504
 20
1.008925196850394
 30
0.0
 10
-1.668066929133858
 20
1.014173228346457
 30
0.0
 10
-1.665011811023622
 20
1.018897637795276
 30
0.0
 10
-1.663370078740158
 20
1.023090551181102
 30
0.0
 10
-1.663370078740158
 20
1.023090551181102
 30
0.0
 10
-1.661704724409449
 20
1.027283464566929
 30
0.0
 10
-1.660870078740158
 20
1.031700787401575
 30
0.0
 10
-1.660870078740158
 20
1.036314960629921
 30
0.0
 10
-1.660870078740158
 20
1.036314960629921
 30
0.0
 10
-1.660870078740158
 20
1.043952755905512
 30
0.0
 10
-1.663342519685039
 20
1.050228346456693
 30
0.0
 10
-1.668232283464567
 20
1.055118110236221
 30
0.0
 10
-1.668232283464567
 20
1.055118110236221
 30
0.0
 10
-1.673149606299213
 20
1.060007874015748
 30
0.0
 10
-1.67953937007874
 20
1.062425196850394
 30
0.0
 10
-1.687397637795276
 20
1.062425196850394
 30
0.0
 10
-1.687397637795276
 20
1.062425196850394
 30
0.0
 10
-1.69303937007874
 20
1.062425196850394
 30
0.0
 10
-1.698094488188976
 20
1.061228346456693
 30
0.0
 10
-1.702511811023622
 20
1.058783464566929
 30
0.0
 10
-1.702511811023622
 20
1.058783464566929
 30
0.0
 10
-1.706925196850394
 20
1.056342519685039
 30
0.0
 10
-1.710397637795276
 20
1.052925196850394
 30
0.0
 10
-1.712952755905512
 20
1.048507874015748
 30
0.0
 10
-1.712952755905512
 20
1.048507874015748
 30
0.0
 10
-1.715511811023622
 20
1.044118110236221
 30
0.0
 10
-1.716787401574803
 20
1.039370078740157
 30
0.0
 10
-1.716787401574803
 20
1.034283464566929
 30
0.0
 10
-1.716787401574803
 20
1.034283464566929
 30
0.0
 10
-1.716787401574803
 20
1.032370078740158
 30
0.0
 10
-1.716649606299213
 20
1.030007874015748
 30
0.0
 10
-1.716370078740158
 20
1.027200787401575
 30
0.0
  0
SPLINE
  5
41
330
1F
100
AcDbEntity
  8
LAYER_1
 62
   250
100
AcDbSpline
210
0.0
220
0.0
230
1.0
 70
    11
 71
     3
 72
    60
 73
    56
 74
     0
 42
0.0000000001
 43
0.0000000001
 40
0.0
 40
0.0
 40
0.0
 40
0.0
 40
0.0714285714285714
 40
0.0714285714285714
 40
0.0714285714285714
 40
0.0714285714285714
 40
0.1428571428571429
 40
0.1428571428571429
 40
0.1428571428571429
 40
0.1428571428571429
 40
0.2142857142857143
 40
0.2142857142857143
 40
0.2142857142857143
 40
0.2142857142857143
 40
0.2857142857142857
 40
0.2857142857142857
 40
0.2857142857142857
 40
0.2857142857142857
 40
0.3571428571428571
 40
0.3571428571428571
 40
0.3571428571428571
 40
0.3571428571428571
 40
0.4285714285714285
 40
0.4285714285714285
 40
0.4285714285714285
 40
0.4285714285714285
 40
0.4999999999999999
 40
0.4999999999999999
 40
0.4999999999999999
 40
0.4999999999999999
 40
0.5714285714285713
 40
0.5714285714285713
 40
0.5714285714285713
 40
0.5714285714285713
 40
0.6428571428571427
 40
0.6428571428571427
 40
0.6428571428571427
 40
0.6428571428571427
 40
0.7142857142857141
 40
0.7142857142857141
 40
0.7142857142857141
 40
0.7142857142857141
 40
0.7857142857142855
 40
0.7857142857142855
 40
0.7857142857142855
 40
0.7857142857142855
 40
0.8571428571428569
 40
0.8571428571428569
 40
0.8571428571428569
 40
0.8571428571428569
 40
0.9285714285714283
 40
0.9285714285714283
 40
0.9285714285714283
 40
0.9285714285714283
 40
1.0
 40
1.0
 40
1.0
 40
1.0
 10
-1.621814960629921
 20
1.027925196850394
 30
0.0
 10
-1.621814960629921
 20
1.027925196850394
 30
0.0
 10
-1.626204724409449
 20
1.033314960629921
 30
0.0
 10
-1.626204724409449
 20
1.033314960629921
 30
0.0
 10
-1.626204724409449
 20
1.033314960629921
 30
0.0
 10
-1.615090551181103
 20
1.042370078740158
 30
0.0
 10
-1.609507874015748
 20
1.049925196850394
 30
0.0
 10
-1.609507874015748
 20
1.056007874015748
 30
0.0
 10
-1.609507874015748
 20
1.056007874015748
 30
0.0
 10
-1.609507874015748
 20
1.056700787401575
 30
0.0
 10
-1.609562992125984
 20
1.057590551181102
 30
0.0
 10
-1.609677165354331
 20
1.05861811023622
 30
0.0
 10
-1.609677165354331
 20
1.05861811023622
 30
0.0
 10
-1.610590551181103
 20
1.058228346456693
 30
0.0
 10
-1.611507874015748
 20
1.057925196850394
 30
0.0
 10
-1.612370078740158
 20
1.057728346456693
 30
0.0
 10
-1.612370078740158
 20
1.057728346456693
 30
0.0
 10
-1.613232283464567
 20
1.057507874015748
 30
0.0
 10
-1.614035433070866
 20
1.057397637795276
 30
0.0
 10
-1.614814960629921
 20
1.057397637795276
 30
0.0
 10
-1.614814960629921
 20
1.057397637795276
 30
0.0
 10
-1.617425196850394
 20
1.057397637795276
 30
0.0
 10
-1.619507874015748
 20
1.058228346456693
 30
0.0
 10
-1.621062992125984
 20
1.059925196850394
 30
0.0
 10
-1.621062992125984
 20
1.059925196850394
 30
0.0
 10
-1.622649606299213
 20
1.061590551181102
 30
0.0
 10
-1.623425196850394
 20
1.063728346456693
 30
0.0
 10
-1.623425196850394
 20
1.066342519685039
 30
0.0
 10
-1.623425196850394
 20
1.066342519685039
 30
0.0
 10
-1.623425196850394
 20
1.068897637795276
 30
0.0
 10
-1.62248031496063
 20
1.071118110236221
 30
0.0
 10
-1.620590551181103
 20
1.073007874015748
 30
0.0
 10
-1.620590551181103
 20
1.073007874015748
 30
0.0
 10
-1.618677165354331
 20
1.074925196850394
 30
0.0
 10
-1.616397637795276
 20
1.075870078740158
 30
0.0
 10
-1.613759842519685
 20
1.075870078740158
 30
0.0
 10
-1.613759842519685
 20
1.075870078740158
 30
0.0
 10
-1.610062992125984
 20
1.075870078740158
 30
0.0
 10
-1.606897637795276
 20
1.074397637795276
 30
0.0
 10
-1.604259842519685
 20
1.071425196850394
 30
0.0
 10
-1.604259842519685
 20
1.071425196850394
 30
0.0
 10
-1.601649606299213
 20
1.06848031496063
 30
0.0
 10
-1.600314960629921
 20
1.064673228346457
 30
0.0
 10
-1.600314960629921
 20
1.060007874015748
 30
0.0
 10
-1.600314960629921
 20
1.060007874015748
 30
0.0
 10
-1.600314960629921
 20
1.056952755905512
 30
0.0
 10
-1.600952755905512
 20
1.053755905511811
 30
0.0
 10
-1.602204724409449
 20
1.050425196850394
 30
0.0
 10
-1.602204724409449
 20
1.050425196850394
 30
0.0
 10
-1.603452755905512
 20
1.047090551181102
 30
0.0
 10
-1.605259842519685
 20
1.044007874015748
 30
0.0
 10
-1.607649606299213
 20
1.041145669291339
 30
0.0
 10
-1.607649606299213
 20
1.041145669291339
 30
0.0
 10
-1.610035433070866
 20
1.038314960629921
 30
0.0
 10
-1.614759842519685
 20
1.033897637795276
 30
0.0
 10
-1.621814960629921
 20
1.027925196850394
 30
0.0
  0
SPLINE
  5
42
330
1F
100
AcDbEntity
  8
LAYER_1
 62
   250
100
AcDbSpline
210
0.0
220
0.0
230
1.0
 70
    11
 71
     3
 72
    60
 73
    56
 74
     0
 42
0.0000000001
 43
0.0000000001
 40
0.0
 40
0.0
 40
0.0
 40
0.0
 40
0.0714285714285714
 40
0.0714285714285714
 40
0.0714285714285714
 40
0.0714285714285714
 40
0.1428571428571429
 40
0.1428571428571429
 40
0.1428571428571429
 40
0.1428571428571429
 40
0.2142857142857143
 40
0.2142857142857143
 40
0.2142857142857143
 40
0.2142857142857143
 40
0.2857142857142857
 40
0.2857142857142857
 40
0.2857142857142857
 40
0.2857142857142857
 40
0.3571428571428571
 40
0.3571428571428571
 40
0.3571428571428571
 40
0.3571428571428571
 40
0.4285714285714285
 40
0.4285714285714285
 40
0.4285714285714285
 40
0.4285714285714285
 40
0.4999999999999999
 40
0.4999999999999999
 40
0.4999999999999999
 40
0.4999999999999999
 40
0.5714285714285713
 40
0.5714285714285713
 40
0.5714285714285713
 40
0.5714285714285713
 40
0.6428571428571427
 40
0.6428571428571427
 40
0.6428571428571427
 40
0.6428571428571427
 40
0.7142857142857141
 40
0.7142857142857141
 40
0.7142857142857141
 40
0.7142857142857141
 40
0.7857142857142855
 40
0.7857142857142855
 40
0.7857142857142855
 40
0.7857142857142855
 40
0.8571428571428569
 40
0.8571428571428569
 40
0.8571428571428569
 40
0.8571428571428569
 40
0.9285714285714283
 40
0.9285714285714283
 40
0.9285714285714283
 40
0.9285714285714283
 40
1.0
 40
1.0
 40
1.0
 40
1.0
 10
-1.592759842519685
 20
1.027925196850394
 30
0.0
 10
-1.592759842519685
 20
1.027925196850394
 30
0.0
 10
-1.597149606299213
 20
1.033314960629921
 30
0.0
 10
-1.597149606299213
 20
1.033314960629921
 30
0.0
 10
-1.597149606299213
 20
1.033314960629921
 30
0.0
 10
-1.586035433070866
 20
1.042370078740158
 30
0.0
 10
-1.580452755905512
 20
1.049925196850394
 30
0.0
 10
-1.580452755905512
 20
1.056007874015748
 30
0.0
 10
-1.580452755905512
 20
1.056007874015748
 30
0.0
 10
-1.580452755905512
 20
1.056700787401575
 30
0.0
 10
-1.580507874015748
 20
1.057590551181102
 30
0.0
 10
-1.580622047244095
 20
1.05861811023622
 30
0.0
 10
-1.580622047244095
 20
1.05861811023622
 30
0.0
 10
-1.581535433070866
 20
1.058228346456693
 30
0.0
 10
-1.582452755905512
 20
1.057925196850394
 30
0.0
 10
-1.583314960629921
 20
1.057728346456693
 30
0.0
 10
-1.583314960629921
 20
1.057728346456693
 30
0.0
 10
-1.584177165354331
 20
1.057507874015748
 30
0.0
 10
-1.585007874015748
 20
1.057397637795276
 30
0.0
 10
-1.585842519685039
 20
1.057397637795276
 30
0.0
 10
-1.585842519685039
 20
1.057397637795276
 30
0.0
 10
-1.588397637795276
 20
1.057397637795276
 30
0.0
 10
-1.590452755905512
 20
1.058228346456693
 30
0.0
 10
-1.592007874015748
 20
1.059925196850394
 30
0.0
 10
-1.592007874015748
 20
1.059925196850394
 30
0.0
 10
-1.593590551181102
 20
1.061590551181102
 30
0.0
 10
-1.594370078740158
 20
1.063728346456693
 30
0.0
 10
-1.594370078740158
 20
1.066342519685039
 30
0.0
 10
-1.594370078740158
 20
1.066342519685039
 30
0.0
 10
-1.594370078740158
 20
1.068897637795276
 30
0.0
 10
-1.593425196850394
 20
1.071118110236221
 30
0.0
 10
-1.591535433070866
 20
1.073007874015748
 30
0.0
 10
-1.591535433070866
 20
1.073007874015748
 30
0.0
 10
-1.589649606299213
 20
1.074925196850394
 30
0.0
 10
-1.58734251968504
 20
1.075870078740158
 30
0.0
 10
-1.584704724409449
 20
1.075870078740158
 30
0.0
 10
-1.584704724409449
 20
1.075870078740158
 30
0.0
 10
-1.581007874015748
 20
1.075870078740158
 30
0.0
 10
-1.577842519685039
 20
1.074397637795276
 30
0.0
 10
-1.575204724409449
 20
1.071425196850394
 30
0.0
 10
-1.575204724409449
 20
1.071425196850394
 30
0.0
 10
-1.572594488188976
 20
1.06848031496063
 30
0.0
 10
-1.571259842519685
 20
1.064673228346457
 30
0.0
 10
-1.571259842519685
 20
1.060007874015748
 30
0.0
 10
-1.571259842519685
 20
1.060007874015748
 30
0.0
 10
-1.571259842519685
 20
1.056952755905512
 30
0.0
 10
-1.571897637795276
 20
1.053755905511811
 30
0.0
 10
-1.573149606299213
 20
1.050425196850394
 30
0.0
 10
-1.573149606299213
 20
1.050425196850394
 30
0.0
 10
-1.574397637795276
 20
1.047090551181102
 30
0.0
 10
-1.576204724409449
 20
1.044007874015748
 30
0.0
 10
-1.578590551181103
 20
1.041145669291339
 30
0.0
 10
-1.578590551181103
 20
1.041145669291339
 30
0.0
 10
-1.58098031496063
 20
1.038314960629921
 30
0.0
 10
-1.585704724409449
 20
1.033897637795276
 30
0.0
 10
-1.592759842519685
 20
1.027925196850394
 30
0.0
  0
SPLINE
  5
43
330
1F
100
AcDbEntity
  8
LAYER_1
 62
   252
100
AcDbSpline
210
0.0
220
0.0
230
1.0
 70
    11
 71
     3
 72
    20
 73
    16
 74
     0
 42
0.0000000001
 43
0.0000000001
 40
0.0
 40
0.0
 40
0.0
 40
0.0
 40
0.25
 40
0.25
 40
0.25
 40
0.25
 40
0.5
 40
0.5
 40
0.5
 40
0.5
 40
0.75
 40
0.75
 40
0.75
 40
0.75
 40
1.0
 40
1.0
 40
1.0
 40
1.0
 10
1.552244094488189
 20
2.349814960629921
 30
0.0
 10
1.552244094488189
 20
2.349814960629921
 30
0.0
 10
1.553834645669291
 20
3.098196850393701
 30
0.0
 10
1.553834645669291
 20
3.098196850393701
 30
0.0
 10
1.553834645669291
 20
3.098196850393701
 30
0.0
 10
1.553834645669291
 20
3.098196850393701
 30
0.0
 10
2.282374015748032
 20
3.098196850393701
 30
0.0
 10
2.282374015748032
 20
3.098196850393701
 30
0.0
 10
2.282374015748032
 20
3.098196850393701
 30
0.0
 10
2.282374015748032
 20
3.098196850393701
 30
0.0
 10
2.280783464566929
 20
2.349814960629921
 30
0.0
 10
2.280783464566929
 20
2.349814960629921
 30
0.0
 10
2.280783464566929
 20
2.349814960629921
 30
0.0
 10
2.280783464566929
 20
2.349814960629921
 30
0.0
 10
1.552244094488189
 20
2.349814960629921
 30
0.0
 10
1.552244094488189
 20
2.349814960629921
 30
0.0
  0
SPLINE
  5
44
330
1F
100
AcDbEntity
  8
LAYER_1
 62
   250
100
AcDbSpline
210
0.0
220
0.0
230
1.0
 70
    11
 71
     3
 72
    20
 73
    16
 74
     0
 42
0.0000000001
 43
0.0000000001
 40
0.0
 40
0.0
 40
0.0
 40
0.0
 40
0.25
 40
0.25
 40
0.25
 40
0.25
 40
0.5
 40
0.5
 40
0.5
 40
0.5
 40
0.75
 40
0.75
 40
0.75
 40
0.75
 40
1.0
 40
1.0
 40
1.0
 40
1.0
 10
1.552244094488189
 20
2.349814960629921
 30
0.0
 10
1.552244094488189
 20
2.349814960629921
 30
0.0
 10
1.553834645669291
 20
3.098196850393701
 30
0.0
 10
1.553834645669291
 20
3.098196850393701
 30
0.0
 10
1.553834645669291
 20
3.098196850393701
 30
0.0
 10
1.553834645669291
 20
3.098196850393701
 30
0.0
 10
2.282374015748032
 20
3.098196850393701
 30
0.0
 10
2.282374015748032
 20
3.098196850393701
 30
0.0
 10
2.282374015748032
 20
3.098196850393701
 30
0.0
 10
2.282374015748032
 20
3.098196850393701
 30
0.0
 10
2.280783464566929
 20
2.349814960629921
 30
0.0
 10
2.280783464566929
 20
2.349814960629921
 30
0.0
 10
2.280783464566929
 20
2.349814960629921
 30
0.0
 10
2.280783464566929
 20
2.349814960629921
 30
0.0
 10
1.552244094488189
 20
2.349814960629921
 30
0.0
 10
1.552244094488189
 20
2.349814960629921
 30
0.0
  0
SPLINE
  5
45
330
1F
100
AcDbEntity
  8
LAYER_1
 62
   252
100
AcDbSpline
210
0.0
220
0.0
230
1.0
 70
    11
 71
     3
 72
    20
 73
    16
 74
     0
 42
0.0000000001
 43
0.0000000001
 40
0.0
 40
0.0
 40
0.0
 40
0.0
 40
0.25
 40
0.25
 40
0.25
 40
0.25
 40
0.5
 40
0.5
 40
0.5
 40
0.5
 40
0.75
 40
0.75
 40
0.75
 40
0.75
 40
1.0
 40
1.0
 40
1.0
 40
1.0
 10
2.280783464566929
 20
2.349814960629921
 30
0.0
 10
2.280783464566929
 20
2.349814960629921
 30
0.0
 10
2.282374015748032
 20
3.098196850393701
 30
0.0
 10
2.282374015748032
 20
3.098196850393701
 30
0.0
 10
2.282374015748032
 20
3.098196850393701
 30
0.0
 10
2.282374015748032
 20
3.098196850393701
 30
0.0
 10
2.282374015748032
 20
2.929086614173229
 30
0.0
 10
2.282374015748032
 20
2.929086614173229
 30
0.0
 10
2.282374015748032
 20
2.929086614173229
 30
0.0
 10
2.282374015748032
 20
2.929086614173229
 30
0.0
 10
2.280783464566929
 20
2.180704724409449
 30
0.0
 10
2.280783464566929
 20
2.180704724409449
 30
0.0
 10
2.280783464566929
 20
2.180704724409449
 30
0.0
 10
2.280783464566929
 20
2.180704724409449
 30
0.0
 10
2.280783464566929
 20
2.349814960629921
 30
0.0
 10
2.280783464566929
 20
2.349814960629921
 30
0.0
  0
SPLINE
  5
46
330
1F
100
AcDbEntity
  8
LAYER_1
 62
   250
100
AcDbSpline
210
0.0
220
0.0
230
1.0
 70
    11
 71
     3
 72
    20
 73
    16
 74
     0
 42
0.0000000001
 43
0.0000000001
 40
0.0
 40
0.0
 40
0.0
 40
0.0
 40
0.25
 40
0.25
 40
0.25
 40
0.25
 40
0.5
 40
0.5
 40
0.5
 40
0.5
 40
0.75
 40
0.75
 40
0.75
 40
0.75
 40
1.0
 40
1.0
 40
1.0
 40
1.0
 10
2.280783464566929
 20
2.349814960629921
 30
0.0
 10
2.280783464566929
 20
2.349814960629921
 30
0.0
 10
2.282374015748032
 20
3.098196850393701
 30
0.0
 10
2.282374015748032
 20
3.098196850393701
 30
0.0
 10
2.282374015748032
 20
3.098196850393701
 30
0.0
 10
2.282374015748032
 20
3.098196850393701
 30
0.0
 10
2.282374015748032
 20
2.929086614173229
 30
0.0
 10
2.282374015748032
 20
2.929086614173229
 30
0.0
 10
2.282374015748032
 20
2.929086614173229
 30
0.0
 10
2.282374015748032
 20
2.929086614173229
 30
0.0
 10
2.280783464566929
 20
2.180704724409449
 30
0.0
 10
2.280783464566929
 20
2.180704724409449
 30
0.0
 10
2.280783464566929
 20
2.180704724409449
 30
0.0
 10
2.280783464566929
 20
2.180704724409449
 30
0.0
 10
2.280783464566929
 20
2.349814960629921
 30
0.0
 10
2.280783464566929
 20
2.349814960629921
 30
0.0
  0
SPLINE
  5
47
330
1F
100
AcDbEntity
  8
LAYER_1
 62
   252
100
AcDbSpline
210
0.0
220
0.0
230
1.0
 70
    11
 71
     3
 72
    20
 73
    16
 74
     0
 42
0.0000000001
 43
0.0000000001
 40
0.0
 40
0.0
 40
0.0
 40
0.0
 40
0.25
 40
0.25
 40
0.25
 40
0.25
 40
0.5
 40
0.5
 40
0.5
 40
0.5
 40
0.75
 40
0.75
 40
0.75
 40
0.75
 40
1.0
 40
1.0
 40
1.0
 40
1.0
 10
2.940547244094488
 20
1.663303149606299
 30
0.0
 10
2.940547244094488
 20
1.663303149606299
 30
0.0
 10
2.942137795275591
 20
2.411685039370079
 30
0.0
 10
2.942137795275591
 20
2.411685039370079
 30
0.0
 10
2.942137795275591
 20
2.411685039370079
 30
0.0
 10
2.942137795275591
 20
2.411685039370079
 30
0.0
 10
3.084244094488189
 20
2.411685039370079
 30
0.0
 10
3.084244094488189
 20
2.411685039370079
 30
0.0
 10
3.084244094488189
 20
2.411685039370079
 30
0.0
 10
3.084244094488189
 20
2.411685039370079
 30
0.0
 10
3.082653543307087
 20
1.663303149606299
 30
0.0
 10
3.082653543307087
 20
1.663303149606299
 30
0.0
 10
3.082653543307087
 20
1.663303149606299
 30
0.0
 10
3.082653543307087
 20
1.663303149606299
 30
0.0
 10
2.940547244094488
 20
1.663303149606299
 30
0.0
 10
2.940547244094488
 20
1.663303149606299
 30
0.0
  0
SPLINE
  5
48
330
1F
100
AcDbEntity
  8
LAYER_1
 62
   250
100
AcDbSpline
210
0.0
220
0.0
230
1.0
 70
    11
 71
     3
 72
    20
 73
    16
 74
     0
 42
0.0000000001
 43
0.0000000001
 40
0.0
 40
0.0
 40
0.0
 40
0.0
 40
0.25
 40
0.25
 40
0.25
 40
0.25
 40
0.5
 40
0.5
 40
0.5
 40
0.5
 40
0.75
 40
0.75
 40
0.75
 40
0.75
 40
1.0
 40
1.0
 40
1.0
 40
1.0
 10
2.940547244094488
 20
1.663303149606299
 30
0.0
 10
2.940547244094488
 20
1.663303149606299
 30
0.0
 10
2.942137795275591
 20
2.411685039370079
 30
0.0
 10
2.942137795275591
 20
2.411685039370079
 30
0.0
 10
2.942137795275591
 20
2.411685039370079
 30
0.0
 10
2.942137795275591
 20
2.411685039370079
 30
0.0
 10
3.084244094488189
 20
2.411685039370079
 30
0.0
 10
3.084244094488189
 20
2.411685039370079
 30
0.0
 10
3.084244094488189
 20
2.411685039370079
 30
0.0
 10
3.084244094488189
 20
2.411685039370079
 30
0.0
 10
3.082653543307087
 20
1.663303149606299
 30
0.0
 10
3.082653543307087
 20
1.663303149606299
 30
0.0
 10
3.082653543307087
 20
1.663303149606299
 30
0.0
 10
3.082653543307087
 20
1.663303149606299
 30
0.0
 10
2.940547244094488
 20
1.663303149606299
 30
0.0
 10
2.940547244094488
 20
1.663303149606299
 30
0.0
  0
SPLINE
  5
49
330
1F
100
AcDbEntity
  8
LAYER_1
 62
   252
100
AcDbSpline
210
0.0
220
0.0
230
1.0
 70
    11
 71
     3
 72
    20
 73
    16
 74
     0
 42
0.0000000001
 43
0.0000000001
 40
0.0
 40
0.0
 40
0.0
 40
0.0
 40
0.25
 40
0.25
 40
0.25
 40
0.25
 40
0.5
 40
0.5
 40
0.5
 40
0.5
 40
0.75
 40
0.75
 40
0.75
 40
0.75
 40
1.0
 40
1.0
 40
1.0
 40
1.0
 10
2.280783464566929
 20
2.180704724409449
 30
0.0
 10
2.280783464566929
 20
2.180704724409449
 30
0.0
 10
2.282374015748032
 20
2.929086614173229
 30
0.0
 10
2.282374015748032
 20
2.929086614173229
 30
0.0
 10
2.282374015748032
 20
2.929086614173229
 30
0.0
 10
2.282374015748032
 20
2.929086614173229
 30
0.0
 10
2.339622047244095
 20
2.919255905511811
 30
0.0
 10
2.339622047244095
 20
2.919255905511811
 30
0.0
 10
2.339622047244095
 20
2.919255905511811
 30
0.0
 10
2.339622047244095
 20
2.919255905511811
 30
0.0
 10
2.338031496062992
 20
2.170874015748032
 30
0.0
 10
2.338031496062992
 20
2.170874015748032
 30
0.0
 10
2.338031496062992
 20
2.170874015748032
 30
0.0
 10
2.338031496062992
 20
2.170874015748032
 30
0.0
 10
2.280783464566929
 20
2.180704724409449
 30
0.0
 10
2.280783464566929
 20
2.180704724409449
 30
0.0
  0
SPLINE
  5
4A
330
1F
100
AcDbEntity
  8
LAYER_1
 62
   252
100
AcDbSpline
210
0.0
220
0.0
230
1.0
 70
    11
 71
     3
 72
    20
 73
    16
 74
     0
 42
0.0000000001
 43
0.0000000001
 40
0.0
 40
0.0
 40
0.0
 40
0.0
 40
0.25
 40
0.25
 40
0.25
 40
0.25
 40
0.5
 40
0.5
 40
0.5
 40
0.5
 40
0.75
 40
0.75
 40
0.75
 40
0.75
 40
1.0
 40
1.0
 40
1.0
 40
1.0
 10
2.338031496062992
 20
2.170874015748032
 30
0.0
 10
2.338031496062992
 20
2.170874015748032
 30
0.0
 10
2.339622047244095
 20
2.919255905511811
 30
0.0
 10
2.339622047244095
 20
2.919255905511811
 30
0.0
 10
2.339622047244095
 20
2.919255905511811
 30
0.0
 10
2.339622047244095
 20
2.919255905511811
 30
0.0
 10
2.394618110236221
 20
2.908704724409449
 30
0.0
 10
2.394618110236221
 20
2.908704724409449
 30
0.0
 10
2.394618110236221
 20
2.908704724409449
 30
0.0
 10
2.394618110236221
 20
2.908704724409449
 30
0.0
 10
2.393027559055118
 20
2.160322834645669
 30
0.0
 10
2.393027559055118
 20
2.160322834645669
 30
0.0
 10
2.393027559055118
 20
2.160322834645669
 30
0.0
 10
2.393027559055118
 20
2.160322834645669
 30
0.0
 10
2.338031496062992
 20
2.170874015748032
 30
0.0
 10
2.338031496062992
 20
2.170874015748032
 30
0.0
  0
SPLINE
  5
4B
330
1F
100
AcDbEntity
  8
LAYER_1
 62
   252
100
AcDbSpline
210
0.0
220
0.0
230
1.0
 70
    11
 71
     3
 72
    20
 73
    16
 74
     0
 42
0.0000000001
 43
0.0000000001
 40
0.0
 40
0.0
 40
0.0
 40
0.0
 40
0.25
 40
0.25
 40
0.25
 40
0.25
 40
0.5
 40
0.5
 40
0.5
 40
0.5
 40
0.75
 40
0.75
 40
0.75
 40
0.75
 40
1.0
 40
1.0
 40
1.0
 40
1.0
 10
2.393027559055118
 20
2.160322834645669
 30
0.0
 10
2.393027559055118
 20
2.160322834645669
 30
0.0
 10
2.394618110236221
 20
2.908704724409449
 30
0.0
 10
2.394618110236221
 20
2.908704724409449
 30
0.0
 10
2.394618110236221
 20
2.908704724409449
 30
0.0
 10
2.394618110236221
 20
2.908704724409449
 30
0.0
 10
2.447342519685039
 20
2.89748031496063
 30
0.0
 10
2.447342519685039
 20
2.89748031496063
 30
0.0
 10
2.447342519685039
 20
2.89748031496063
 30
0.0
 10
2.447342519685039
 20
2.89748031496063
 30
0.0
 10
2.445751968503937
 20
2.149098425196851
 30
0.0
 10
2.445751968503937
 20
2.149098425196851
 30
0.0
 10
2.445751968503937
 20
2.149098425196851
 30
0.0
 10
2.445751968503937
 20
2.149098425196851
 30
0.0
 10
2.393027559055118
 20
2.160322834645669
 30
0.0
 10
2.393027559055118
 20
2.160322834645669
 30
0.0
  0
SPLINE
  5
4C
330
1F
100
AcDbEntity
  8
LAYER_1
 62
   252
100
AcDbSpline
210
0.0
220
0.0
230
1.0
 70
    11
 71
     3
 72
    20
 73
    16
 74
     0
 42
0.0000000001
 43
0.0000000001
 40
0.0
 40
0.0
 40
0.0
 40
0.0
 40
0.25
 40
0.25
 40
0.25
 40
0.25
 40
0.5
 40
0.5
 40
0.5
 40
0.5
 40
0.75
 40
0.75
 40
0.75
 40
0.75
 40
1.0
 40
1.0
 40
1.0
 40
1.0
 10
2.445751968503937
 20
2.149098425196851
 30
0.0
 10
2.445751968503937
 20
2.149098425196851
 30
0.0
 10
2.447342519685039
 20
2.89748031496063
 30
0.0
 10
2.447342519685039
 20
2.89748031496063
 30
0.0
 10
2.447342519685039
 20
2.89748031496063
 30
0.0
 10
2.447342519685039
 20
2.89748031496063
 30
0.0
 10
2.497795275590551
 20
2.885602362204724
 30
0.0
 10
2.497795275590551
 20
2.885602362204724
 30
0.0
 10
2.497795275590551
 20
2.885602362204724
 30
0.0
 10
2.497795275590551
 20
2.885602362204724
 30
0.0
 10
2.496204724409449
 20
2.137220472440945
 30
0.0
 10
2.496204724409449
 20
2.137220472440945
 30
0.0
 10
2.496204724409449
 20
2.137220472440945
 30
0.0
 10
2.496204724409449
 20
2.137220472440945
 30
0.0
 10
2.445751968503937
 20
2.149098425196851
 30
0.0
 10
2.445751968503937
 20
2.149098425196851
 30
0.0
  0
SPLINE
  5
4D
330
1F
100
AcDbEntity
  8
LAYER_1
 62
   252
100
AcDbSpline
210
0.0
220
0.0
230
1.0
 70
    11
 71
     3
 72
    20
 73
    16
 74
     0
 42
0.0000000001
 43
0.0000000001
 40
0.0
 40
0.0
 40
0.0
 40
0.0
 40
0.25
 40
0.25
 40
0.25
 40
0.25
 40
0.5
 40
0.5
 40
0.5
 40
0.5
 40
0.75
 40
0.75
 40
0.75
 40
0.75
 40
1.0
 40
1.0
 40
1.0
 40
1.0
 10
2.496204724409449
 20
2.137220472440945
 30
0.0
 10
2.496204724409449
 20
2.137220472440945
 30
0.0
 10
2.497795275590551
 20
2.885602362204724
 30
0.0
 10
2.497795275590551
 20
2.885602362204724
 30
0.0
 10
2.497795275590551
 20
2.885602362204724
 30
0.0
 10
2.497795275590551
 20
2.885602362204724
 30
0.0
 10
2.545948818897638
 20
2.873122047244095
 30
0.0
 10
2.545948818897638
 20
2.873122047244095
 30
0.0
 10
2.545948818897638
 20
2.873122047244095
 30
0.0
 10
2.545948818897638
 20
2.873122047244095
 30
0.0
 10
2.544358267716536
 20
2.124740157480315
 30
0.0
 10
2.544358267716536
 20
2.124740157480315
 30
0.0
 10
2.544358267716536
 20
2.124740157480315
 30
0.0
 10
2.544358267716536
 20
2.124740157480315
 30
0.0
 10
2.496204724409449
 20
2.137220472440945
 30
0.0
 10
2.496204724409449
 20
2.137220472440945
 30
0.0
  0
SPLINE
  5
4E
330
1F
100
AcDbEntity
  8
LAYER_1
 62
   252
100
AcDbSpline
210
0.0
220
0.0
230
1.0
 70
    11
 71
     3
 72
    20
 73
    16
 74
     0
 42
0.0000000001
 43
0.0000000001
 40
0.0
 40
0.0
 40
0.0
 40
0.0
 40
0.25
 40
0.25
 40
0.25
 40
0.25
 40
0.5
 40
0.5
 40
0.5
 40
0.5
 40
0.75
 40
0.75
 40
0.75
 40
0.75
 40
1.0
 40
1.0
 40
1.0
 40
1.0
 10
2.544358267716536
 20
2.124740157480315
 30
0.0
 10
2.544358267716536
 20
2.124740157480315
 30
0.0
 10
2.545948818897638
 20
2.873122047244095
 30
0.0
 10
2.545948818897638
 20
2.873122047244095
 30
0.0
 10
2.545948818897638
 20
2.873122047244095
 30
0.0
 10
2.545948818897638
 20
2.873122047244095
 30
0.0
 10
2.591807086614173
 20
2.860062992125984
 30
0.0
 10
2.591807086614173
 20
2.860062992125984
 30
0.0
 10
2.591807086614173
 20
2.860062992125984
 30
0.0
 10
2.591807086614173
 20
2.860062992125984
 30
0.0
 10
2.590216535433071
 20
2.111681102362205
 30
0.0
 10
2.590216535433071
 20
2.111681102362205
 30
0.0
 10
2.590216535433071
 20
2.111681102362205
 30
0.0
 10
2.590216535433071
 20
2.111681102362205
 30
0.0
 10
2.544358267716536
 20
2.124740157480315
 30
0.0
 10
2.544358267716536
 20
2.124740157480315
 30
0.0
  0
SPLINE
  5
4F
330
1F
100
AcDbEntity
  8
LAYER_1
 62
   252
100
AcDbSpline
210
0.0
220
0.0
230
1.0
 70
    11
 71
     3
 72
    20
 73
    16
 74
     0
 42
0.0000000001
 43
0.0000000001
 40
0.0
 40
0.0
 40
0.0
 40
0.0
 40
0.25
 40
0.25
 40
0.25
 40
0.25
 40
0.5
 40
0.5
 40
0.5
 40
0.5
 40
0.75
 40
0.75
 40
0.75
 40
0.75
 40
1.0
 40
1.0
 40
1.0
 40
1.0
 10
2.590216535433071
 20
2.111681102362205
 30
0.0
 10
2.590216535433071
 20
2.111681102362205
 30
0.0
 10
2.591807086614173
 20
2.860062992125984
 30
0.0
 10
2.591807086614173
 20
2.860062992125984
 30
0.0
 10
2.591807086614173
 20
2.860062992125984
 30
0.0
 10
2.591807086614173
 20
2.860062992125984
 30
0.0
 10
2.635350393700787
 20
2.846468503937008
 30
0.0
 10
2.635350393700787
 20
2.846468503937008
 30
0.0
 10
2.635350393700787
 20
2.846468503937008
 30
0.0
 10
2.635350393700787
 20
2.846468503937008
 30
0.0
 10
2.633759842519685
 20
2.098086614173229
 30
0.0
 10
2.633759842519685
 20
2.098086614173229
 30
0.0
 10
2.633759842519685
 20
2.098086614173229
 30
0.0
 10
2.633759842519685
 20
2.098086614173229
 30
0.0
 10
2.590216535433071
 20
2.111681102362205
 30
0.0
 10
2.590216535433071
 20
2.111681102362205
 30
0.0
  0
SPLINE
  5
50
330
1F
100
AcDbEntity
  8
LAYER_1
 62
   252
100
AcDbSpline
210
0.0
220
0.0
230
1.0
 70
    11
 71
     3
 72
    20
 73
    16
 74
     0
 42
0.0000000001
 43
0.0000000001
 40
0.0
 40
0.0
 40
0.0
 40
0.0
 40
0.25
 40
0.25
 40
0.25
 40
0.25
 40
0.5
 40
0.5
 40
0.5
 40
0.5
 40
0.75
 40
0.75
 40
0.75
 40
0.75
 40
1.0
 40
1.0
 40
1.0
 40
1.0
 10
2.633759842519685
 20
2.098086614173229
 30
0.0
 10
2.633759842519685
 20
2.098086614173229
 30
0.0
 10
2.635350393700787
 20
2.846468503937008
 30
0.0
 10
2.635350393700787
 20
2.846468503937008
 30
0.0
 10
2.635350393700787
 20
2.846468503937008
 30
0.0
 10
2.635350393700787
 20
2.846468503937008
 30
0.0
 10
2.676574803149606
 20
2.832366141732284
 30
0.0
 10
2.676574803149606
 20
2.832366141732284
 30
0.0
 10
2.676574803149606
 20
2.832366141732284
 30
0.0
 10
2.676574803149606
 20
2.832366141732284
 30
0.0
 10
2.674984251968504
 20
2.083984251968504
 30
0.0
 10
2.674984251968504
 20
2.083984251968504
 30
0.0
 10
2.674984251968504
 20
2.083984251968504
 30
0.0
 10
2.674984251968504
 20
2.083984251968504
 30
0.0
 10
2.633759842519685
 20
2.098086614173229
 30
0.0
 10
2.633759842519685
 20
2.098086614173229
 30
0.0
  0
SPLINE
  5
51
330
1F
100
AcDbEntity
  8
LAYER_1
 62
   252
100
AcDbSpline
210
0.0
220
0.0
230
1.0
 70
    11
 71
     3
 72
    20
 73
    16
 74
     0
 42
0.0000000001
 43
0.0000000001
 40
0.0
 40
0.0
 40
0.0
 40
0.0
 40
0.25
 40
0.25
 40
0.25
 40
0.25
 40
0.5
 40
0.5
 40
0.5
 40
0.5
 40
0.75
 40
0.75
 40
0.75
 40
0.75
 40
1.0
 40
1.0
 40
1.0
 40
1.0
 10
2.674984251968504
 20
2.083984251968504
 30
0.0
 10
2.674984251968504
 20
2.083984251968504
 30
0.0
 10
2.676574803149606
 20
2.832366141732284
 30
0.0
 10
2.676574803149606
 20
2.832366141732284
 30
0.0
 10
2.676574803149606
 20
2.832366141732284
 30
0.0
 10
2.676574803149606
 20
2.832366141732284
 30
0.0
 10
2.71546062992126
 20
2.817803149606299
 30
0.0
 10
2.71546062992126
 20
2.817803149606299
 30
0.0
 10
2.71546062992126
 20
2.817803149606299
 30
0.0
 10
2.71546062992126
 20
2.817803149606299
 30
0.0
 10
2.713870078740158
 20
2.06942125984252
 30
0.0
 10
2.713870078740158
 20
2.06942125984252
 30
0.0
 10
2.713870078740158
 20
2.06942125984252
 30
0.0
 10
2.713870078740158
 20
2.06942125984252
 30
0.0
 10
2.674984251968504
 20
2.083984251968504
 30
0.0
 10
2.674984251968504
 20
2.083984251968504
 30
0.0
  0
SPLINE
  5
52
330
1F
100
AcDbEntity
  8
LAYER_1
 62
   252
100
AcDbSpline
210
0.0
220
0.0
230
1.0
 70
    11
 71
     3
 72
    20
 73
    16
 74
     0
 42
0.0000000001
 43
0.0000000001
 40
0.0
 40
0.0
 40
0.0
 40
0.0
 40
0.25
 40
0.25
 40
0.25
 40
0.25
 40
0.5
 40
0.5
 40
0.5
 40
0.5
 40
0.75
 40
0.75
 40
0.75
 40
0.75
 40
1.0
 40
1.0
 40
1.0
 40
1.0
 10
2.713870078740158
 20
2.06942125984252
 30
0.0
 10
2.713870078740158
 20
2.06942125984252
 30
0.0
 10
2.71546062992126
 20
2.817803149606299
 30
0.0
 10
2.71546062992126
 20
2.817803149606299
 30
0.0
 10
2.71546062992126
 20
2.817803149606299
 30
0.0
 10
2.71546062992126
 20
2.817803149606299
 30
0.0
 10
2.752007874015748
 20
2.802803149606299
 30
0.0
 10
2.752007874015748
 20
2.802803149606299
 30
0.0
 10
2.752007874015748
 20
2.802803149606299
 30
0.0
 10
2.752007874015748
 20
2.802803149606299
 30
0.0
 10
2.750417322834646
 20
2.05442125984252
 30
0.0
 10
2.750417322834646
 20
2.05442125984252
 30
0.0
 10
2.750417322834646
 20
2.05442125984252
 30
0.0
 10
2.750417322834646
 20
2.05442125984252
 30
0.0
 10
2.713870078740158
 20
2.06942125984252
 30
0.0
 10
2.713870078740158
 20
2.06942125984252
 30
0.0
  0
SPLINE
  5
53
330
1F
100
AcDbEntity
  8
LAYER_1
 62
   252
100
AcDbSpline
210
0.0
220
0.0
230
1.0
 70
    11
 71
     3
 72
    20
 73
    16
 74
     0
 42
0.0000000001
 43
0.0000000001
 40
0.0
 40
0.0
 40
0.0
 40
0.0
 40
0.25
 40
0.25
 40
0.25
 40
0.25
 40
0.5
 40
0.5
 40
0.5
 40
0.5
 40
0.75
 40
0.75
 40
0.75
 40
0.75
 40
1.0
 40
1.0
 40
1.0
 40
1.0
 10
2.750417322834646
 20
2.05442125984252
 30
0.0
 10
2.750417322834646
 20
2.05442125984252
 30
0.0
 10
2.752007874015748
 20
2.802803149606299
 30
0.0
 10
2.752007874015748
 20
2.802803149606299
 30
0.0
 10
2.752007874015748
 20
2.802803149606299
 30
0.0
 10
2.752007874015748
 20
2.802803149606299
 30
0.0
 10
2.786200787401575
 20
2.787405511811024
 30
0.0
 10
2.786200787401575
 20
2.787405511811024
 30
0.0
 10
2.786200787401575
 20
2.787405511811024
 30
0.0
 10
2.786200787401575
 20
2.787405511811024
 30
0.0
 10
2.784610236220473
 20
2.039023622047244
 30
0.0
 10
2.784610236220473
 20
2.039023622047244
 30
0.0
 10
2.784610236220473
 20
2.039023622047244
 30
0.0
 10
2.784610236220473
 20
2.039023622047244
 30
0.0
 10
2.750417322834646
 20
2.05442125984252
 30
0.0
 10
2.750417322834646
 20
2.05442125984252
 30
0.0
  0
SPLINE
  5
54
330
1F
100
AcDbEntity
  8
LAYER_1
 62
   252
100
AcDbSpline
210
0.0
220
0.0
230
1.0
 70
    11
 71
     3
 72
    20
 73
    16
 74
     0
 42
0.0000000001
 43
0.0000000001
 40
0.0
 40
0.0
 40
0.0
 40
0.0
 40
0.25
 40
0.25
 40
0.25
 40
0.25
 40
0.5
 40
0.5
 40
0.5
 40
0.5
 40
0.75
 40
0.75
 40
0.75
 40
0.75
 40
1.0
 40
1.0
 40
1.0
 40
1.0
 10
2.784610236220473
 20
2.039023622047244
 30
0.0
 10
2.784610236220473
 20
2.039023622047244
 30
0.0
 10
2.786200787401575
 20
2.787405511811024
 30
0.0
 10
2.786200787401575
 20
2.787405511811024
 30
0.0
 10
2.786200787401575
 20
2.787405511811024
 30
0.0
 10
2.786200787401575
 20
2.787405511811024
 30
0.0
 10
2.818035433070866
 20
2.771641732283465
 30
0.0
 10
2.818035433070866
 20
2.771641732283465
 30
0.0
 10
2.818035433070866
 20
2.771641732283465
 30
0.0
 10
2.818035433070866
 20
2.771641732283465
 30
0.0
 10
2.816444881889764
 20
2.023259842519685
 30
0.0
 10
2.816444881889764
 20
2.023259842519685
 30
0.0
 10
2.816444881889764
 20
2.023259842519685
 30
0.0
 10
2.816444881889764
 20
2.023259842519685
 30
0.0
 10
2.784610236220473
 20
2.039023622047244
 30
0.0
 10
2.784610236220473
 20
2.039023622047244
 30
0.0
  0
SPLINE
  5
55
330
1F
100
AcDbEntity
  8
LAYER_1
 62
   252
100
AcDbSpline
210
0.0
220
0.0
230
1.0
 70
    11
 71
     3
 72
    20
 73
    16
 74
     0
 42
0.0000000001
 43
0.0000000001
 40
0.0
 40
0.0
 40
0.0
 40
0.0
 40
0.25
 40
0.25
 40
0.25
 40
0.25
 40
0.5
 40
0.5
 40
0.5
 40
0.5
 40
0.75
 40
0.75
 40
0.75
 40
0.75
 40
1.0
 40
1.0
 40
1.0
 40
1.0
 10
2.816444881889764
 20
2.023259842519685
 30
0.0
 10
2.816444881889764
 20
2.023259842519685
 30
0.0
 10
2.818035433070866
 20
2.771641732283465
 30
0.0
 10
2.818035433070866
 20
2.771641732283465
 30
0.0
 10
2.818035433070866
 20
2.771641732283465
 30
0.0
 10
2.818035433070866
 20
2.771641732283465
 30
0.0
 10
2.847488188976378
 20
2.755555118110237
 30
0.0
 10
2.847488188976378
 20
2.755555118110237
 30
0.0
 10
2.847488188976378
 20
2.755555118110237
 30
0.0
 10
2.847488188976378
 20
2.755555118110237
 30
0.0
 10
2.845897637795276
 20
2.007173228346457
 30
0.0
 10
2.845897637795276
 20
2.007173228346457
 30
0.0
 10
2.845897637795276
 20
2.007173228346457
 30
0.0
 10
2.845897637795276
 20
2.007173228346457
 30
0.0
 10
2.816444881889764
 20
2.023259842519685
 30
0.0
 10
2.816444881889764
 20
2.023259842519685
 30
0.0
  0
SPLINE
  5
56
330
1F
100
AcDbEntity
  8
LAYER_1
 62
   252
100
AcDbSpline
210
0.0
220
0.0
230
1.0
 70
    11
 71
     3
 72
    20
 73
    16
 74
     0
 42
0.0000000001
 43
0.0000000001
 40
0.0
 40
0.0
 40
0.0
 40
0.0
 40
0.25
 40
0.25
 40
0.25
 40
0.25
 40
0.5
 40
0.5
 40
0.5
 40
0.5
 40
0.75
 40
0.75
 40
0.75
 40
0.75
 40
1.0
 40
1.0
 40
1.0
 40
1.0
 10
2.845897637795276
 20
2.007173228346457
 30
0.0
 10
2.845897637795276
 20
2.007173228346457
 30
0.0
 10
2.847488188976378
 20
2.755555118110237
 30
0.0
 10
2.847488188976378
 20
2.755555118110237
 30
0.0
 10
2.847488188976378
 20
2.755555118110237
 30
0.0
 10
2.847488188976378
 20
2.755555118110237
 30
0.0
 10
2.874562992125985
 20
2.739169291338583
 30
0.0
 10
2.874562992125985
 20
2.739169291338583
 30
0.0
 10
2.874562992125985
 20
2.739169291338583
 30
0.0
 10
2.874562992125985
 20
2.739169291338583
 30
0.0
 10
2.872972440944882
 20
1.990787401574803
 30
0.0
 10
2.872972440944882
 20
1.990787401574803
 30
0.0
 10
2.872972440944882
 20
1.990787401574803
 30
0.0
 10
2.872972440944882
 20
1.990787401574803
 30
0.0
 10
2.845897637795276
 20
2.007173228346457
 30
0.0
 10
2.845897637795276
 20
2.007173228346457
 30
0.0
  0
SPLINE
  5
57
330
1F
100
AcDbEntity
  8
LAYER_1
 62
   252
100
AcDbSpline
210
0.0
220
0.0
230
1.0
 70
    11
 71
     3
 72
    20
 73
    16
 74
     0
 42
0.0000000001
 43
0.0000000001
 40
0.0
 40
0.0
 40
0.0
 40
0.0
 40
0.25
 40
0.25
 40
0.25
 40
0.25
 40
0.5
 40
0.5
 40
0.5
 40
0.5
 40
0.75
 40
0.75
 40
0.75
 40
0.75
 40
1.0
 40
1.0
 40
1.0
 40
1.0
 10
2.872972440944882
 20
1.990787401574803
 30
0.0
 10
2.872972440944882
 20
1.990787401574803
 30
0.0
 10
2.874562992125985
 20
2.739169291338583
 30
0.0
 10
2.874562992125985
 20
2.739169291338583
 30
0.0
 10
2.874562992125985
 20
2.739169291338583
 30
0.0
 10
2.874562992125985
 20
2.739169291338583
 30
0.0
 10
2.899240157480315
 20
2.722531496062992
 30
0.0
 10
2.899240157480315
 20
2.722531496062992
 30
0.0
 10
2.899240157480315
 20
2.722531496062992
 30
0.0
 10
2.899240157480315
 20
2.722531496062992
 30
0.0
 10
2.897649606299213
 20
1.974149606299213
 30
0.0
 10
2.897649606299213
 20
1.974149606299213
 30
0.0
 10
2.897649606299213
 20
1.974149606299213
 30
0.0
 10
2.897649606299213
 20
1.974149606299213
 30
0.0
 10
2.872972440944882
 20
1.990787401574803
 30
0.0
 10
2.872972440944882
 20
1.990787401574803
 30
0.0
  0
SPLINE
  5
58
330
1F
100
AcDbEntity
  8
LAYER_1
 62
   252
100
AcDbSpline
210
0.0
220
0.0
230
1.0
 70
    11
 71
     3
 72
    20
 73
    16
 74
     0
 42
0.0000000001
 43
0.0000000001
 40
0.0
 40
0.0
 40
0.0
 40
0.0
 40
0.25
 40
0.25
 40
0.25
 40
0.25
 40
0.5
 40
0.5
 40
0.5
 40
0.5
 40
0.75
 40
0.75
 40
0.75
 40
0.75
 40
1.0
 40
1.0
 40
1.0
 40
1.0
 10
2.897649606299213
 20
1.974149606299213
 30
0.0
 10
2.897649606299213
 20
1.974149606299213
 30
0.0
 10
2.899240157480315
 20
2.722531496062992
 30
0.0
 10
2.899240157480315
 20
2.722531496062992
 30
0.0
 10
2.899240157480315
 20
2.722531496062992
 30
0.0
 10
2.899240157480315
 20
2.722531496062992
 30
0.0
 10
2.921515748031496
 20
2.705661417322835
 30
0.0
 10
2.921515748031496
 20
2.705661417322835
 30
0.0
 10
2.921515748031496
 20
2.705661417322835
 30
0.0
 10
2.921515748031496
 20
2.705661417322835
 30
0.0
 10
2.919925196850394
 20
1.957279527559055
 30
0.0
 10
2.919925196850394
 20
1.957279527559055
 30
0.0
 10
2.919925196850394
 20
1.957279527559055
 30
0.0
 10
2.919925196850394
 20
1.957279527559055
 30
0.0
 10
2.897649606299213
 20
1.974149606299213
 30
0.0
 10
2.897649606299213
 20
1.974149606299213
 30
0.0
  0
SPLINE
  5
59
330
1F
100
AcDbEntity
  8
LAYER_1
 62
   252
100
AcDbSpline
210
0.0
220
0.0
230
1.0
 70
    11
 71
     3
 72
    20
 73
    16
 74
     0
 42
0.0000000001
 43
0.0000000001
 40
0.0
 40
0.0
 40
0.0
 40
0.0
 40
0.25
 40
0.25
 40
0.25
 40
0.25
 40
0.5
 40
0.5
 40
0.5
 40
0.5
 40
0.75
 40
0.75
 40
0.75
 40
0.75
 40
1.0
 40
1.0
 40
1.0
 40
1.0
 10
2.919925196850394
 20
1.957279527559055
 30
0.0
 10
2.919925196850394
 20
1.957279527559055
 30
0.0
 10
2.921515748031496
 20
2.705661417322835
 30
0.0
 10
2.921515748031496
 20
2.705661417322835
 30
0.0
 10
2.921515748031496
 20
2.705661417322835
 30
0.0
 10
2.921515748031496
 20
2.705661417322835
 30
0.0
 10
2.941366141732284
 20
2.688618110236221
 30
0.0
 10
2.941366141732284
 20
2.688618110236221
 30
0.0
 10
2.941366141732284
 20
2.688618110236221
 30
0.0
 10
2.941366141732284
 20
2.688618110236221
 30
0.0
 10
2.939775590551181
 20
1.940236220472441
 30
0.0
 10
2.939775590551181
 20
1.940236220472441
 30
0.0
 10
2.939775590551181
 20
1.940236220472441
 30
0.0
 10
2.939775590551181
 20
1.940236220472441
 30
0.0
 10
2.919925196850394
 20
1.957279527559055
 30
0.0
 10
2.919925196850394
 20
1.957279527559055
 30
0.0
  0
SPLINE
  5
5A
330
1F
100
AcDbEntity
  8
LAYER_1
 62
   252
100
AcDbSpline
210
0.0
220
0.0
230
1.0
 70
    11
 71
     3
 72
    28
 73
    24
 74
     0
 42
0.0000000001
 43
0.0000000001
 40
0.0
 40
0.0
 40
0.0
 40
0.0
 40
0.1666666666666667
 40
0.1666666666666667
 40
0.1666666666666667
 40
0.1666666666666667
 40
0.3333333333333333
 40
0.3333333333333333
 40
0.3333333333333333
 40
0.3333333333333333
 40
0.5
 40
0.5
 40
0.5
 40
0.5
 40
0.6666666666666666
 40
0.6666666666666666
 40
0.6666666666666666
 40
0.6666666666666666
 40
0.8333333333333333
 40
0.8333333333333333
 40
0.8333333333333333
 40
0.8333333333333333
 40
1.0
 40
1.0
 40
1.0
 40
1.0
 10
2.939775590551181
 20
1.940236220472441
 30
0.0
 10
2.939775590551181
 20
1.940236220472441
 30
0.0
 10
2.941366141732284
 20
2.688618110236221
 30
0.0
 10
2.941366141732284
 20
2.688618110236221
 30
0.0
 10
2.941366141732284
 20
2.688618110236221
 30
0.0
 10
2.941366141732284
 20
2.688618110236221
 30
0.0
 10
2.958795275590551
 20
2.671417322834646
 30
0.0
 10
2.958795275590551
 20
2.671417322834646
 30
0.0
 10
2.958795275590551
 20
2.671417322834646
 30
0.0
 10
2.958795275590551
 20
2.671417322834646
 30
0.0
 10
2.973783464566929
 20
2.654098425196851
 30
0.0
 10
2.973783464566929
 20
2.654098425196851
 30
0.0
 10
2.973783464566929
 20
2.654098425196851
 30
0.0
 10
2.973783464566929
 20
2.654098425196851
 30
0.0
 10
2.972192913385827
 20
1.905716535433071
 30
0.0
 10
2.972192913385827
 20
1.905716535433071
 30
0.0
 10
2.972192913385827
 20
1.905716535433071
 30
0.0
 10
2.972192913385827
 20
1.905716535433071
 30
0.0
 10
2.957204724409449
 20
1.923035433070866
 30
0.0
 10
2.957204724409449
 20
1.923035433070866
 30
0.0
 10
2.957204724409449
 20
1.923035433070866
 30
0.0
 10
2.957204724409449
 20
1.923035433070866
 30
0.0
 10
2.939775590551181
 20
1.940236220472441
 30
0.0
 10
2.939775590551181
 20
1.940236220472441
 30
0.0
  0
SPLINE
  5
5B
330
1F
100
AcDbEntity
  8
LAYER_1
 62
   252
100
AcDbSpline
210
0.0
220
0.0
230
1.0
 70
    11
 71
     3
 72
    28
 73
    24
 74
     0
 42
0.0000000001
 43
0.0000000001
 40
0.0
 40
0.0
 40
0.0
 40
0.0
 40
0.1666666666666667
 40
0.1666666666666667
 40
0.1666666666666667
 40
0.1666666666666667
 40
0.3333333333333333
 40
0.3333333333333333
 40
0.3333333333333333
 40
0.3333333333333333
 40
0.5
 40
0.5
 40
0.5
 40
0.5
 40
0.6666666666666666
 40
0.6666666666666666
 40
0.6666666666666666
 40
0.6666666666666666
 40
0.8333333333333333
 40
0.8333333333333333
 40
0.8333333333333333
 40
0.8333333333333333
 40
1.0
 40
1.0
 40
1.0
 40
1.0
 10
2.972192913385827
 20
1.905716535433071
 30
0.0
 10
2.972192913385827
 20
1.905716535433071
 30
0.0
 10
2.973783464566929
 20
2.654098425196851
 30
0.0
 10
2.973783464566929
 20
2.654098425196851
 30
0.0
 10
2.973783464566929
 20
2.654098425196851
 30
0.0
 10
2.973783464566929
 20
2.654098425196851
 30
0.0
 10
2.986330708661417
 20
2.636692913385827
 30
0.0
 10
2.986330708661417
 20
2.636692913385827
 30
0.0
 10
2.986330708661417
 20
2.636692913385827
 30
0.0
 10
2.986330708661417
 20
2.636692913385827
 30
0.0
 10
2.996413385826772
 20
2.619251968503937
 30
0.0
 10
2.996413385826772
 20
2.619251968503937
 30
0.0
 10
2.996413385826772
 20
2.619251968503937
 30
0.0
 10
2.996413385826772
 20
2.619251968503937
 30
0.0
 10
2.99482283464567
 20
1.870870078740158
 30
0.0
 10
2.99482283464567
 20
1.870870078740158
 30
0.0
 10
2.99482283464567
 20
1.870870078740158
 30
0.0
 10
2.99482283464567
 20
1.870870078740158
 30
0.0
 10
2.984740157480315
 20
1.888311023622047
 30
0.0
 10
2.984740157480315
 20
1.888311023622047
 30
0.0
 10
2.984740157480315
 20
1.888311023622047
 30
0.0
 10
2.984740157480315
 20
1.888311023622047
 30
0.0
 10
2.972192913385827
 20
1.905716535433071
 30
0.0
 10
2.972192913385827
 20
1.905716535433071
 30
0.0
  0
SPLINE
  5
5C
330
1F
100
AcDbEntity
  8
LAYER_1
 62
   252
100
AcDbSpline
210
0.0
220
0.0
230
1.0
 70
    11
 71
     3
 72
    28
 73
    24
 74
     0
 42
0.0000000001
 43
0.0000000001
 40
0.0
 40
0.0
 40
0.0
 40
0.0
 40
0.1666666666666667
 40
0.1666666666666667
 40
0.1666666666666667
 40
0.1666666666666667
 40
0.3333333333333333
 40
0.3333333333333333
 40
0.3333333333333333
 40
0.3333333333333333
 40
0.5
 40
0.5
 40
0.5
 40
0.5
 40
0.6666666666666666
 40
0.6666666666666666
 40
0.6666666666666666
 40
0.6666666666666666
 40
0.8333333333333333
 40
0.8333333333333333
 40
0.8333333333333333
 40
0.8333333333333333
 40
1.0
 40
1.0
 40
1.0
 40
1.0
 10
2.99482283464567
 20
1.870870078740158
 30
0.0
 10
2.99482283464567
 20
1.870870078740158
 30
0.0
 10
2.996413385826772
 20
2.619251968503937
 30
0.0
 10
2.996413385826772
 20
2.619251968503937
 30
0.0
 10
2.996413385826772
 20
2.619251968503937
 30
0.0
 10
2.996413385826772
 20
2.619251968503937
 30
0.0
 10
3.004031496062992
 20
2.601787401574803
 30
0.0
 10
3.004031496062992
 20
2.601787401574803
 30
0.0
 10
3.004031496062992
 20
2.601787401574803
 30
0.0
 10
3.004031496062992
 20
2.601787401574803
 30
0.0
 10
3.009169291338583
 20
2.584350393700788
 30
0.0
 10
3.009169291338583
 20
2.584350393700788
 30
0.0
 10
3.009169291338583
 20
2.584350393700788
 30
0.0
 10
3.009169291338583
 20
2.584350393700788
 30
0.0
 10
3.00757874015748
 20
1.835968503937008
 30
0.0
 10
3.00757874015748
 20
1.835968503937008
 30
0.0
 10
3.00757874015748
 20
1.835968503937008
 30
0.0
 10
3.00757874015748
 20
1.835968503937008
 30
0.0
 10
3.00244094488189
 20
1.853405511811024
 30
0.0
 10
3.00244094488189
 20
1.853405511811024
 30
0.0
 10
3.00244094488189
 20
1.853405511811024
 30
0.0
 10
3.00244094488189
 20
1.853405511811024
 30
0.0
 10
2.99482283464567
 20
1.870870078740158
 30
0.0
 10
2.99482283464567
 20
1.870870078740158
 30
0.0
  0
SPLINE
  5
5D
330
1F
100
AcDbEntity
  8
LAYER_1
 62
   252
100
AcDbSpline
210
0.0
220
0.0
230
1.0
 70
    11
 71
     3
 72
    20
 73
    16
 74
     0
 42
0.0000000001
 43
0.0000000001
 40
0.0
 40
0.0
 40
0.0
 40
0.0
 40
0.25
 40
0.25
 40
0.25
 40
0.25
 40
0.5
 40
0.5
 40
0.5
 40
0.5
 40
0.75
 40
0.75
 40
0.75
 40
0.75
 40
1.0
 40
1.0
 40
1.0
 40
1.0
 10
3.00757874015748
 20
1.835968503937008
 30
0.0
 10
3.00757874015748
 20
1.835968503937008
 30
0.0
 10
3.009169291338583
 20
2.584350393700788
 30
0.0
 10
3.009169291338583
 20
2.584350393700788
 30
0.0
 10
3.009169291338583
 20
2.584350393700788
 30
0.0
 10
3.009169291338583
 20
2.584350393700788
 30
0.0
 10
3.01182283464567
 20
2.566968503937008
 30
0.0
 10
3.01182283464567
 20
2.566968503937008
 30
0.0
 10
3.01182283464567
 20
2.566968503937008
 30
0.0
 10
3.01182283464567
 20
2.566968503937008
 30
0.0
 10
3.010232283464567
 20
1.818586614173228
 30
0.0
 10
3.010232283464567
 20
1.818586614173228
 30
0.0
 10
3.010232283464567
 20
1.818586614173228
 30
0.0
 10
3.010232283464567
 20
1.818586614173228
 30
0.0
 10
3.00757874015748
 20
1.835968503937008
 30
0.0
 10
3.00757874015748
 20
1.835968503937008
 30
0.0
  0
SPLINE
  5
5E
330
1F
100
AcDbEntity
  8
LAYER_1
 62
   250
100
AcDbSpline
210
0.0
220
0.0
230
1.0
 70
    11
 71
     3
 72
   204
 73
   200
 74
     0
 42
0.0000000001
 43
0.0000000001
 40
0.0
 40
0.0
 40
0.0
 40
0.0
 40
0.02
 40
0.02
 40
0.02
 40
0.02
 40
0.04
 40
0.04
 40
0.04
 40
0.04
 40
0.06
 40
0.06
 40
0.06
 40
0.06
 40
0.08
 40
0.08
 40
0.08
 40
0.08
 40
0.1
 40
0.1
 40
0.1
 40
0.1
 40
0.12
 40
0.12
 40
0.12
 40
0.12
 40
0.14
 40
0.14
 40
0.14
 40
0.14
 40
0.16
 40
0.16
 40
0.16
 40
0.16
 40
0.18
 40
0.18
 40
0.18
 40
0.18
 40
0.2
 40
0.2
 40
0.2
 40
0.2
 40
0.22
 40
0.22
 40
0.22
 40
0.22
 40
0.24
 40
0.24
 40
0.24
 40
0.24
 40
0.26
 40
0.26
 40
0.26
 40
0.26
 40
0.28
 40
0.28
 40
0.28
 40
0.28
 40
0.3
 40
0.3
 40
0.3
 40
0.3
 40
0.32
 40
0.32
 40
0.32
 40
0.32
 40
0.34
 40
0.34
 40
0.34
 40
0.34
 40
0.36
 40
0.36
 40
0.36
 40
0.36
 40
0.3800000000000001
 40
0.3800000000000001
 40
0.3800000000000001
 40
0.3800000000000001
 40
0.4000000000000001
 40
0.4000000000000001
 40
0.4000000000000001
 40
0.4000000000000001
 40
0.4200000000000001
 40
0.4200000000000001
 40
0.4200000000000001
 40
0.4200000000000001
 40
0.4400000000000001
 40
0.4400000000000001
 40
0.4400000000000001
 40
0.4400000000000001
 40
0.4600000000000001
 40
0.4600000000000001
 40
0.4600000000000001
 40
0.4600000000000001
 40
0.4800000000000002
 40
0.4800000000000002
 40
0.4800000000000002
 40
0.4800000000000002
 40
0.5000000000000001
 40
0.5000000000000001
 40
0.5000000000000001
 40
0.5000000000000001
 40
0.5200000000000001
 40
0.5200000000000001
 40
0.5200000000000001
 40
0.5200000000000001
 40
0.5400000000000002
 40
0.5400000000000002
 40
0.5400000000000002
 40
0.5400000000000002
 40
0.5600000000000002
 40
0.5600000000000002
 40
0.5600000000000002
 40
0.5600000000000002
 40
0.5800000000000002
 40
0.5800000000000002
 40
0.5800000000000002
 40
0.5800000000000002
 40
0.6000000000000002
 40
0.6000000000000002
 40
0.6000000000000002
 40
0.6000000000000002
 40
0.6200000000000002
 40
0.6200000000000002
 40
0.6200000000000002
 40
0.6200000000000002
 40
0.6400000000000002
 40
0.6400000000000002
 40
0.6400000000000002
 40
0.6400000000000002
 40
0.6600000000000003
 40
0.6600000000000003
 40
0.6600000000000003
 40
0.6600000000000003
 40
0.6800000000000003
 40
0.6800000000000003
 40
0.6800000000000003
 40
0.6800000000000003
 40
0.7000000000000003
 40
0.7000000000000003
 40
0.7000000000000003
 40
0.7000000000000003
 40
0.7200000000000003
 40
0.7200000000000003
 40
0.7200000000000003
 40
0.7200000000000003
 40
0.7400000000000003
 40
0.7400000000000003
 40
0.7400000000000003
 40
0.7400000000000003
 40
0.7600000000000003
 40
0.7600000000000003
 40
0.7600000000000003
 40
0.7600000000000003
 40
0.7800000000000004
 40
0.7800000000000004
 40
0.7800000000000004
 40
0.7800000000000004
 40
0.8000000000000004
 40
0.8000000000000004
 40
0.8000000000000004
 40
0.8000000000000004
 40
0.8200000000000004
 40
0.8200000000000004
 40
0.8200000000000004
 40
0.8200000000000004
 40
0.8400000000000004
 40
0.8400000000000004
 40
0.8400000000000004
 40
0.8400000000000004
 40
0.8600000000000004
 40
0.8600000000000004
 40
0.8600000000000004
 40
0.8600000000000004
 40
0.8800000000000005
 40
0.8800000000000005
 40
0.8800000000000005
 40
0.8800000000000005
 40
0.9000000000000005
 40
0.9000000000000005
 40
0.9000000000000005
 40
0.9000000000000005
 40
0.9200000000000005
 40
0.9200000000000005
 40
0.9200000000000005
 40
0.9200000000000005
 40
0.9400000000000005
 40
0.9400000000000005
 40
0.9400000000000005
 40
0.9400000000000005
 40
0.9600000000000005
 40
0.9600000000000005
 40
0.9600000000000005
 40
0.9600000000000005
 40
0.9800000000000005
 40
0.9800000000000005
 40
0.9800000000000005
 40
0.9800000000000005
 40
1.0
 40
1.0
 40
1.0
 40
1.0
 10
2.280783464566929
 20
2.180704724409449
 30
0.0
 10
2.280783464566929
 20
2.180704724409449
 30
0.0
 10
2.282374015748032
 20
2.929086614173229
 30
0.0
 10
2.282374015748032
 20
2.929086614173229
 30
0.0
 10
2.282374015748032
 20
2.929086614173229
 30
0.0
 10
2.282374015748032
 20
2.929086614173229
 30
0.0
 10
2.339622047244095
 20
2.919255905511811
 30
0.0
 10
2.339622047244095
 20
2.919255905511811
 30
0.0
 10
2.339622047244095
 20
2.919255905511811
 30
0.0
 10
2.339622047244095
 20
2.919255905511811
 30
0.0
 10
2.394618110236221
 20
2.908704724409449
 30
0.0
 10
2.394618110236221
 20
2.908704724409449
 30
0.0
 10
2.394618110236221
 20
2.908704724409449
 30
0.0
 10
2.394618110236221
 20
2.908704724409449
 30
0.0
 10
2.447342519685039
 20
2.89748031496063
 30
0.0
 10
2.447342519685039
 20
2.89748031496063
 30
0.0
 10
2.447342519685039
 20
2.89748031496063
 30
0.0
 10
2.447342519685039
 20
2.89748031496063
 30
0.0
 10
2.497795275590551
 20
2.885602362204724
 30
0.0
 10
2.497795275590551
 20
2.885602362204724
 30
0.0
 10
2.497795275590551
 20
2.885602362204724
 30
0.0
 10
2.497795275590551
 20
2.885602362204724
 30
0.0
 10
2.545948818897638
 20
2.873122047244095
 30
0.0
 10
2.545948818897638
 20
2.873122047244095
 30
0.0
 10
2.545948818897638
 20
2.873122047244095
 30
0.0
 10
2.545948818897638
 20
2.873122047244095
 30
0.0
 10
2.591807086614173
 20
2.860062992125984
 30
0.0
 10
2.591807086614173
 20
2.860062992125984
 30
0.0
 10
2.591807086614173
 20
2.860062992125984
 30
0.0
 10
2.591807086614173
 20
2.860062992125984
 30
0.0
 10
2.635350393700787
 20
2.846468503937008
 30
0.0
 10
2.635350393700787
 20
2.846468503937008
 30
0.0
 10
2.635350393700787
 20
2.846468503937008
 30
0.0
 10
2.635350393700787
 20
2.846468503937008
 30
0.0
 10
2.676574803149606
 20
2.832366141732284
 30
0.0
 10
2.676574803149606
 20
2.832366141732284
 30
0.0
 10
2.676574803149606
 20
2.832366141732284
 30
0.0
 10
2.676574803149606
 20
2.832366141732284
 30
0.0
 10
2.71546062992126
 20
2.817803149606299
 30
0.0
 10
2.71546062992126
 20
2.817803149606299
 30
0.0
 10
2.71546062992126
 20
2.817803149606299
 30
0.0
 10
2.71546062992126
 20
2.817803149606299
 30
0.0
 10
2.752007874015748
 20
2.802803149606299
 30
0.0
 10
2.752007874015748
 20
2.802803149606299
 30
0.0
 10
2.752007874015748
 20
2.802803149606299
 30
0.0
 10
2.752007874015748
 20
2.802803149606299
 30
0.0
 10
2.786200787401575
 20
2.787405511811024
 30
0.0
 10
2.786200787401575
 20
2.787405511811024
 30
0.0
 10
2.786200787401575
 20
2.787405511811024
 30
0.0
 10
2.786200787401575
 20
2.787405511811024
 30
0.0
 10
2.818035433070866
 20
2.771641732283465
 30
0.0
 10
2.818035433070866
 20
2.771641732283465
 30
0.0
 10
2.818035433070866
 20
2.771641732283465
 30
0.0
 10
2.818035433070866
 20
2.771641732283465
 30
0.0
 10
2.847488188976378
 20
2.755555118110237
 30
0.0
 10
2.847488188976378
 20
2.755555118110237
 30
0.0
 10
2.847488188976378
 20
2.755555118110237
 30
0.0
 10
2.847488188976378
 20
2.755555118110237
 30
0.0
 10
2.874562992125985
 20
2.739169291338583
 30
0.0
 10
2.874562992125985
 20
2.739169291338583
 30
0.0
 10
2.874562992125985
 20
2.739169291338583
 30
0.0
 10
2.874562992125985
 20
2.739169291338583
 30
0.0
 10
2.899240157480315
 20
2.722531496062992
 30
0.0
 10
2.899240157480315
 20
2.722531496062992
 30
0.0
 10
2.899240157480315
 20
2.722531496062992
 30
0.0
 10
2.899240157480315
 20
2.722531496062992
 30
0.0
 10
2.921515748031496
 20
2.705661417322835
 30
0.0
 10
2.921515748031496
 20
2.705661417322835
 30
0.0
 10
2.921515748031496
 20
2.705661417322835
 30
0.0
 10
2.921515748031496
 20
2.705661417322835
 30
0.0
 10
2.941366141732284
 20
2.688618110236221
 30
0.0
 10
2.941366141732284
 20
2.688618110236221
 30
0.0
 10
2.941366141732284
 20
2.688618110236221
 30
0.0
 10
2.941366141732284
 20
2.688618110236221
 30
0.0
 10
2.958795275590551
 20
2.671417322834646
 30
0.0
 10
2.958795275590551
 20
2.671417322834646
 30
0.0
 10
2.958795275590551
 20
2.671417322834646
 30
0.0
 10
2.958795275590551
 20
2.671417322834646
 30
0.0
 10
2.973783464566929
 20
2.654098425196851
 30
0.0
 10
2.973783464566929
 20
2.654098425196851
 30
0.0
 10
2.973783464566929
 20
2.654098425196851
 30
0.0
 10
2.973783464566929
 20
2.654098425196851
 30
0.0
 10
2.986330708661417
 20
2.636692913385827
 30
0.0
 10
2.986330708661417
 20
2.636692913385827
 30
0.0
 10
2.986330708661417
 20
2.636692913385827
 30
0.0
 10
2.986330708661417
 20
2.636692913385827
 30
0.0
 10
2.996413385826772
 20
2.619251968503937
 30
0.0
 10
2.996413385826772
 20
2.619251968503937
 30
0.0
 10
2.996413385826772
 20
2.619251968503937
 30
0.0
 10
2.996413385826772
 20
2.619251968503937
 30
0.0
 10
3.004031496062992
 20
2.601787401574803
 30
0.0
 10
3.004031496062992
 20
2.601787401574803
 30
0.0
 10
3.004031496062992
 20
2.601787401574803
 30
0.0
 10
3.004031496062992
 20
2.601787401574803
 30
0.0
 10
3.009169291338583
 20
2.584350393700788
 30
0.0
 10
3.009169291338583
 20
2.584350393700788
 30
0.0
 10
3.009169291338583
 20
2.584350393700788
 30
0.0
 10
3.009169291338583
 20
2.584350393700788
 30
0.0
 10
3.01182283464567
 20
2.566968503937008
 30
0.0
 10
3.01182283464567
 20
2.566968503937008
 30
0.0
 10
3.01182283464567
 20
2.566968503937008
 30
0.0
 10
3.01182283464567
 20
2.566968503937008
 30
0.0
 10
3.010232283464567
 20
1.818586614173228
 30
0.0
 10
3.010232283464567
 20
1.818586614173228
 30
0.0
 10
3.010232283464567
 20
1.818586614173228
 30
0.0
 10
3.010232283464567
 20
1.818586614173228
 30
0.0
 10
3.00757874015748
 20
1.835968503937008
 30
0.0
 10
3.00757874015748
 20
1.835968503937008
 30
0.0
 10
3.00757874015748
 20
1.835968503937008
 30
0.0
 10
3.00757874015748
 20
1.835968503937008
 30
0.0
 10
3.00244094488189
 20
1.853405511811024
 30
0.0
 10
3.00244094488189
 20
1.853405511811024
 30
0.0
 10
3.00244094488189
 20
1.853405511811024
 30
0.0
 10
3.00244094488189
 20
1.853405511811024
 30
0.0
 10
2.99482283464567
 20
1.870870078740158
 30
0.0
 10
2.99482283464567
 20
1.870870078740158
 30
0.0
 10
2.99482283464567
 20
1.870870078740158
 30
0.0
 10
2.99482283464567
 20
1.870870078740158
 30
0.0
 10
2.984740157480315
 20
1.888311023622047
 30
0.0
 10
2.984740157480315
 20
1.888311023622047
 30
0.0
 10
2.984740157480315
 20
1.888311023622047
 30
0.0
 10
2.984740157480315
 20
1.888311023622047
 30
0.0
 10
2.972192913385827
 20
1.905716535433071
 30
0.0
 10
2.972192913385827
 20
1.905716535433071
 30
0.0
 10
2.972192913385827
 20
1.905716535433071
 30
0.0
 10
2.972192913385827
 20
1.905716535433071
 30
0.0
 10
2.957204724409449
 20
1.923035433070866
 30
0.0
 10
2.957204724409449
 20
1.923035433070866
 30
0.0
 10
2.957204724409449
 20
1.923035433070866
 30
0.0
 10
2.957204724409449
 20
1.923035433070866
 30
0.0
 10
2.939775590551181
 20
1.940236220472441
 30
0.0
 10
2.939775590551181
 20
1.940236220472441
 30
0.0
 10
2.939775590551181
 20
1.940236220472441
 30
0.0
 10
2.939775590551181
 20
1.940236220472441
 30
0.0
 10
2.919925196850394
 20
1.957279527559055
 30
0.0
 10
2.919925196850394
 20
1.957279527559055
 30
0.0
 10
2.919925196850394
 20
1.957279527559055
 30
0.0
 10
2.919925196850394
 20
1.957279527559055
 30
0.0
 10
2.897649606299213
 20
1.974149606299213
 30
0.0
 10
2.897649606299213
 20
1.974149606299213
 30
0.0
 10
2.897649606299213
 20
1.974149606299213
 30
0.0
 10
2.897649606299213
 20
1.974149606299213
 30
0.0
 10
2.872972440944882
 20
1.990787401574803
 30
0.0
 10
2.872972440944882
 20
1.990787401574803
 30
0.0
 10
2.872972440944882
 20
1.990787401574803
 30
0.0
 10
2.872972440944882
 20
1.990787401574803
 30
0.0
 10
2.845897637795276
 20
2.007173228346457
 30
0.0
 10
2.845897637795276
 20
2.007173228346457
 30
0.0
 10
2.845897637795276
 20
2.007173228346457
 30
0.0
 10
2.845897637795276
 20
2.007173228346457
 30
0.0
 10
2.816444881889764
 20
2.023259842519685
 30
0.0
 10
2.816444881889764
 20
2.023259842519685
 30
0.0
 10
2.816444881889764
 20
2.023259842519685
 30
0.0
 10
2.816444881889764
 20
2.023259842519685
 30
0.0
 10
2.784610236220473
 20
2.039023622047244
 30
0.0
 10
2.784610236220473
 20
2.039023622047244
 30
0.0
 10
2.784610236220473
 20
2.039023622047244
 30
0.0
 10
2.784610236220473
 20
2.039023622047244
 30
0.0
 10
2.750417322834646
 20
2.05442125984252
 30
0.0
 10
2.750417322834646
 20
2.05442125984252
 30
0.0
 10
2.750417322834646
 20
2.05442125984252
 30
0.0
 10
2.750417322834646
 20
2.05442125984252
 30
0.0
 10
2.713870078740158
 20
2.06942125984252
 30
0.0
 10
2.713870078740158
 20
2.06942125984252
 30
0.0
 10
2.713870078740158
 20
2.06942125984252
 30
0.0
 10
2.713870078740158
 20
2.06942125984252
 30
0.0
 10
2.674984251968504
 20
2.083984251968504
 30
0.0
 10
2.674984251968504
 20
2.083984251968504
 30
0.0
 10
2.674984251968504
 20
2.083984251968504
 30
0.0
 10
2.674984251968504
 20
2.083984251968504
 30
0.0
 10
2.633759842519685
 20
2.098086614173229
 30
0.0
 10
2.633759842519685
 20
2.098086614173229
 30
0.0
 10
2.633759842519685
 20
2.098086614173229
 30
0.0
 10
2.633759842519685
 20
2.098086614173229
 30
0.0
 10
2.590216535433071
 20
2.111681102362205
 30
0.0
 10
2.590216535433071
 20
2.111681102362205
 30
0.0
 10
2.590216535433071
 20
2.111681102362205
 30
0.0
 10
2.590216535433071
 20
2.111681102362205
 30
0.0
 10
2.544358267716536
 20
2.124740157480315
 30
0.0
 10
2.544358267716536
 20
2.124740157480315
 30
0.0
 10
2.544358267716536
 20
2.124740157480315
 30
0.0
 10
2.544358267716536
 20
2.124740157480315
 30
0.0
 10
2.496204724409449
 20
2.137220472440945
 30
0.0
 10
2.496204724409449
 20
2.137220472440945
 30
0.0
 10
2.496204724409449
 20
2.137220472440945
 30
0.0
 10
2.496204724409449
 20
2.137220472440945
 30
0.0
 10
2.445751968503937
 20
2.149098425196851
 30
0.0
 10
2.445751968503937
 20
2.149098425196851
 30
0.0
 10
2.445751968503937
 20
2.149098425196851
 30
0.0
 10
2.445751968503937
 20
2.149098425196851
 30
0.0
 10
2.393027559055118
 20
2.160322834645669
 30
0.0
 10
2.393027559055118
 20
2.160322834645669
 30
0.0
 10
2.393027559055118
 20
2.160322834645669
 30
0.0
 10
2.393027559055118
 20
2.160322834645669
 30
0.0
 10
2.338031496062992
 20
2.170874015748032
 30
0.0
 10
2.338031496062992
 20
2.170874015748032
 30
0.0
 10
2.338031496062992
 20
2.170874015748032
 30
0.0
 10
2.338031496062992
 20
2.170874015748032
 30
0.0
 10
2.280783464566929
 20
2.180704724409449
 30
0.0
 10
2.280783464566929
 20
2.180704724409449
 30
0.0
  0
SPLINE
  5
5F
330
1F
100
AcDbEntity
  8
LAYER_1
 62
   252
100
AcDbSpline
210
0.0
220
0.0
230
1.0
 70
    11
 71
     3
 72
    20
 73
    16
 74
     0
 42
0.0000000001
 43
0.0000000001
 40
0.0
 40
0.0
 40
0.0
 40
0.0
 40
0.25
 40
0.25
 40
0.25
 40
0.25
 40
0.5
 40
0.5
 40
0.5
 40
0.5
 40
0.75
 40
0.75
 40
0.75
 40
0.75
 40
1.0
 40
1.0
 40
1.0
 40
1.0
 10
1.552244094488189
 20
2.349814960629921
 30
0.0
 10
1.552244094488189
 20
2.349814960629921
 30
0.0
 10
1.553834645669291
 20
3.098196850393701
 30
0.0
 10
1.553834645669291
 20
3.098196850393701
 30
0.0
 10
1.553834645669291
 20
3.098196850393701
 30
0.0
 10
1.553834645669291
 20
3.098196850393701
 30
0.0
 10
2.282374015748032
 20
3.098196850393701
 30
0.0
 10
2.282374015748032
 20
3.098196850393701
 30
0.0
 10
2.282374015748032
 20
3.098196850393701
 30
0.0
 10
2.282374015748032
 20
3.098196850393701
 30
0.0
 10
2.280783464566929
 20
2.349814960629921
 30
0.0
 10
2.280783464566929
 20
2.349814960629921
 30
0.0
 10
2.280783464566929
 20
2.349814960629921
 30
0.0
 10
2.280783464566929
 20
2.349814960629921
 30
0.0
 10
1.552244094488189
 20
2.349814960629921
 30
0.0
 10
1.552244094488189
 20
2.349814960629921
 30
0.0
  0
SPLINE
  5
60
330
1F
100
AcDbEntity
  8
LAYER_1
 62
   250
100
AcDbSpline
210
0.0
220
0.0
230
1.0
 70
    11
 71
     3
 72
    20
 73
    16
 74
     0
 42
0.0000000001
 43
0.0000000001
 40
0.0
 40
0.0
 40
0.0
 40
0.0
 40
0.25
 40
0.25
 40
0.25
 40
0.25
 40
0.5
 40
0.5
 40
0.5
 40
0.5
 40
0.75
 40
0.75
 40
0.75
 40
0.75
 40
1.0
 40
1.0
 40
1.0
 40
1.0
 10
1.552244094488189
 20
2.349814960629921
 30
0.0
 10
1.552244094488189
 20
2.349814960629921
 30
0.0
 10
1.553834645669291
 20
3.098196850393701
 30
0.0
 10
1.553834645669291
 20
3.098196850393701
 30
0.0
 10
1.553834645669291
 20
3.098196850393701
 30
0.0
 10
1.553834645669291
 20
3.098196850393701
 30
0.0
 10
2.282374015748032
 20
3.098196850393701
 30
0.0
 10
2.282374015748032
 20
3.098196850393701
 30
0.0
 10
2.282374015748032
 20
3.098196850393701
 30
0.0
 10
2.282374015748032
 20
3.098196850393701
 30
0.0
 10
2.280783464566929
 20
2.349814960629921
 30
0.0
 10
2.280783464566929
 20
2.349814960629921
 30
0.0
 10
2.280783464566929
 20
2.349814960629921
 30
0.0
 10
2.280783464566929
 20
2.349814960629921
 30
0.0
 10
1.552244094488189
 20
2.349814960629921
 30
0.0
 10
1.552244094488189
 20
2.349814960629921
 30
0.0
  0
SPLINE
  5
61
330
1F
100
AcDbEntity
  8
LAYER_1
 62
   252
100
AcDbSpline
210
0.0
220
0.0
230
1.0
 70
    11
 71
     3
 72
    20
 73
    16
 74
     0
 42
0.0000000001
 43
0.0000000001
 40
0.0
 40
0.0
 40
0.0
 40
0.0
 40
0.25
 40
0.25
 40
0.25
 40
0.25
 40
0.5
 40
0.5
 40
0.5
 40
0.5
 40
0.75
 40
0.75
 40
0.75
 40
0.75
 40
1.0
 40
1.0
 40
1.0
 40
1.0
 10
2.280783464566929
 20
2.349814960629921
 30
0.0
 10
2.280783464566929
 20
2.349814960629921
 30
0.0
 10
2.282374015748032
 20
3.098196850393701
 30
0.0
 10
2.282374015748032
 20
3.098196850393701
 30
0.0
 10
2.282374015748032
 20
3.098196850393701
 30
0.0
 10
2.282374015748032
 20
3.098196850393701
 30
0.0
 10
2.282374015748032
 20
2.929086614173229
 30
0.0
 10
2.282374015748032
 20
2.929086614173229
 30
0.0
 10
2.282374015748032
 20
2.929086614173229
 30
0.0
 10
2.282374015748032
 20
2.929086614173229
 30
0.0
 10
2.280783464566929
 20
2.180704724409449
 30
0.0
 10
2.280783464566929
 20
2.180704724409449
 30
0.0
 10
2.280783464566929
 20
2.180704724409449
 30
0.0
 10
2.280783464566929
 20
2.180704724409449
 30
0.0
 10
2.280783464566929
 20
2.349814960629921
 30
0.0
 10
2.280783464566929
 20
2.349814960629921
 30
0.0
  0
SPLINE
  5
62
330
1F
100
AcDbEntity
  8
LAYER_1
 62
   250
100
AcDbSpline
210
0.0
220
0.0
230
1.0
 70
    11
 71
     3
 72
    20
 73
    16
 74
     0
 42
0.0000000001
 43
0.0000000001
 40
0.0
 40
0.0
 40
0.0
 40
0.0
 40
0.25
 40
0.25
 40
0.25
 40
0.25
 40
0.5
 40
0.5
 40
0.5
 40
0.5
 40
0.75
 40
0.75
 40
0.75
 40
0.75
 40
1.0
 40
1.0
 40
1.0
 40
1.0
 10
2.280783464566929
 20
2.349814960629921
 30
0.0
 10
2.280783464566929
 20
2.349814960629921
 30
0.0
 10
2.282374015748032
 20
3.098196850393701
 30
0.0
 10
2.282374015748032
 20
3.098196850393701
 30
0.0
 10
2.282374015748032
 20
3.098196850393701
 30
0.0
 10
2.282374015748032
 20
3.098196850393701
 30
0.0
 10
2.282374015748032
 20
2.929086614173229
 30
0.0
 10
2.282374015748032
 20
2.929086614173229
 30
0.0
 10
2.282374015748032
 20
2.929086614173229
 30
0.0
 10
2.282374015748032
 20
2.929086614173229
 30
0.0
 10
2.280783464566929
 20
2.180704724409449
 30
0.0
 10
2.280783464566929
 20
2.180704724409449
 30
0.0
 10
2.280783464566929
 20
2.180704724409449
 30
0.0
 10
2.280783464566929
 20
2.180704724409449
 30
0.0
 10
2.280783464566929
 20
2.349814960629921
 30
0.0
 10
2.280783464566929
 20
2.349814960629921
 30
0.0
  0
SPLINE
  5
63
330
1F
100
AcDbEntity
  8
LAYER_1
 62
   252
100
AcDbSpline
210
0.0
220
0.0
230
1.0
 70
    11
 71
     3
 72
    20
 73
    16
 74
     0
 42
0.0000000001
 43
0.0000000001
 40
0.0
 40
0.0
 40
0.0
 40
0.0
 40
0.25
 40
0.25
 40
0.25
 40
0.25
 40
0.5
 40
0.5
 40
0.5
 40
0.5
 40
0.75
 40
0.75
 40
0.75
 40
0.75
 40
1.0
 40
1.0
 40
1.0
 40
1.0
 10
2.940547244094488
 20
1.663303149606299
 30
0.0
 10
2.940547244094488
 20
1.663303149606299
 30
0.0
 10
2.942137795275591
 20
2.411685039370079
 30
0.0
 10
2.942137795275591
 20
2.411685039370079
 30
0.0
 10
2.942137795275591
 20
2.411685039370079
 30
0.0
 10
2.942137795275591
 20
2.411685039370079
 30
0.0
 10
3.084244094488189
 20
2.411685039370079
 30
0.0
 10
3.084244094488189
 20
2.411685039370079
 30
0.0
 10
3.084244094488189
 20
2.411685039370079
 30
0.0
 10
3.084244094488189
 20
2.411685039370079
 30
0.0
 10
3.082653543307087
 20
1.663303149606299
 30
0.0
 10
3.082653543307087
 20
1.663303149606299
 30
0.0
 10
3.082653543307087
 20
1.663303149606299
 30
0.0
 10
3.082653543307087
 20
1.663303149606299
 30
0.0
 10
2.940547244094488
 20
1.663303149606299
 30
0.0
 10
2.940547244094488
 20
1.663303149606299
 30
0.0
  0
SPLINE
  5
64
330
1F
100
AcDbEntity
  8
LAYER_1
 62
   250
100
AcDbSpline
210
0.0
220
0.0
230
1.0
 70
    11
 71
     3
 72
    20
 73
    16
 74
     0
 42
0.0000000001
 43
0.0000000001
 40
0.0
 40
0.0
 40
0.0
 40
0.0
 40
0.25
 40
0.25
 40
0.25
 40
0.25
 40
0.5
 40
0.5
 40
0.5
 40
0.5
 40
0.75
 40
0.75
 40
0.75
 40
0.75
 40
1.0
 40
1.0
 40
1.0
 40
1.0
 10
2.940547244094488
 20
1.663303149606299
 30
0.0
 10
2.940547244094488
 20
1.663303149606299
 30
0.0
 10
2.942137795275591
 20
2.411685039370079
 30
0.0
 10
2.942137795275591
 20
2.411685039370079
 30
0.0
 10
2.942137795275591
 20
2.411685039370079
 30
0.0
 10
2.942137795275591
 20
2.411685039370079
 30
0.0
 10
3.084244094488189
 20
2.411685039370079
 30
0.0
 10
3.084244094488189
 20
2.411685039370079
 30
0.0
 10
3.084244094488189
 20
2.411685039370079
 30
0.0
 10
3.084244094488189
 20
2.411685039370079
 30
0.0
 10
3.082653543307087
 20
1.663303149606299
 30
0.0
 10
3.082653543307087
 20
1.663303149606299
 30
0.0
 10
3.082653543307087
 20
1.663303149606299
 30
0.0
 10
3.082653543307087
 20
1.663303149606299
 30
0.0
 10
2.940547244094488
 20
1.663303149606299
 30
0.0
 10
2.940547244094488
 20
1.663303149606299
 30
0.0
  0
SPLINE
  5
65
330
1F
100
AcDbEntity
  8
LAYER_1
 62
   252
100
AcDbSpline
210
0.0
220
0.0
230
1.0
 70
    11
 71
     3
 72
    20
 73
    16
 74
     0
 42
0.0000000001
 43
0.0000000001
 40
0.0
 40
0.0
 40
0.0
 40
0.0
 40
0.25
 40
0.25
 40
0.25
 40
0.25
 40
0.5
 40
0.5
 40
0.5
 40
0.5
 40
0.75
 40
0.75
 40
0.75
 40
0.75
 40
1.0
 40
1.0
 40
1.0
 40
1.0
 10
2.280783464566929
 20
2.180704724409449
 30
0.0
 10
2.280783464566929
 20
2.180704724409449
 30
0.0
 10
2.282374015748032
 20
2.929086614173229
 30
0.0
 10
2.282374015748032
 20
2.929086614173229
 30
0.0
 10
2.282374015748032
 20
2.929086614173229
 30
0.0
 10
2.282374015748032
 20
2.929086614173229
 30
0.0
 10
2.339622047244095
 20
2.919255905511811
 30
0.0
 10
2.339622047244095
 20
2.919255905511811
 30
0.0
 10
2.339622047244095
 20
2.919255905511811
 30
0.0
 10
2.339622047244095
 20
2.919255905511811
 30
0.0
 10
2.338031496062992
 20
2.170874015748032
 30
0.0
 10
2.338031496062992
 20
2.170874015748032
 30
0.0
 10
2.338031496062992
 20
2.170874015748032
 30
0.0
 10
2.338031496062992
 20
2.170874015748032
 30
0.0
 10
2.280783464566929
 20
2.180704724409449
 30
0.0
 10
2.280783464566929
 20
2.180704724409449
 30
0.0
  0
SPLINE
  5
66
330
1F
100
AcDbEntity
  8
LAYER_1
 62
   252
100
AcDbSpline
210
0.0
220
0.0
230
1.0
 70
    11
 71
     3
 72
    20
 73
    16
 74
     0
 42
0.0000000001
 43
0.0000000001
 40
0.0
 40
0.0
 40
0.0
 40
0.0
 40
0.25
 40
0.25
 40
0.25
 40
0.25
 40
0.5
 40
0.5
 40
0.5
 40
0.5
 40
0.75
 40
0.75
 40
0.75
 40
0.75
 40
1.0
 40
1.0
 40
1.0
 40
1.0
 10
2.338031496062992
 20
2.170874015748032
 30
0.0
 10
2.338031496062992
 20
2.170874015748032
 30
0.0
 10
2.339622047244095
 20
2.919255905511811
 30
0.0
 10
2.339622047244095
 20
2.919255905511811
 30
0.0
 10
2.339622047244095
 20
2.919255905511811
 30
0.0
 10
2.339622047244095
 20
2.919255905511811
 30
0.0
 10
2.394618110236221
 20
2.908704724409449
 30
0.0
 10
2.394618110236221
 20
2.908704724409449
 30
0.0
 10
2.394618110236221
 20
2.908704724409449
 30
0.0
 10
2.394618110236221
 20
2.908704724409449
 30
0.0
 10
2.393027559055118
 20
2.160322834645669
 30
0.0
 10
2.393027559055118
 20
2.160322834645669
 30
0.0
 10
2.393027559055118
 20
2.160322834645669
 30
0.0
 10
2.393027559055118
 20
2.160322834645669
 30
0.0
 10
2.338031496062992
 20
2.170874015748032
 30
0.0
 10
2.338031496062992
 20
2.170874015748032
 30
0.0
  0
SPLINE
  5
67
330
1F
100
AcDbEntity
  8
LAYER_1
 62
   252
100
AcDbSpline
210
0.0
220
0.0
230
1.0
 70
    11
 71
     3
 72
    20
 73
    16
 74
     0
 42
0.0000000001
 43
0.0000000001
 40
0.0
 40
0.0
 40
0.0
 40
0.0
 40
0.25
 40
0.25
 40
0.25
 40
0.25
 40
0.5
 40
0.5
 40
0.5
 40
0.5
 40
0.75
 40
0.75
 40
0.75
 40
0.75
 40
1.0
 40
1.0
 40
1.0
 40
1.0
 10
2.393027559055118
 20
2.160322834645669
 30
0.0
 10
2.393027559055118
 20
2.160322834645669
 30
0.0
 10
2.394618110236221
 20
2.908704724409449
 30
0.0
 10
2.394618110236221
 20
2.908704724409449
 30
0.0
 10
2.394618110236221
 20
2.908704724409449
 30
0.0
 10
2.394618110236221
 20
2.908704724409449
 30
0.0
 10
2.447342519685039
 20
2.89748031496063
 30
0.0
 10
2.447342519685039
 20
2.89748031496063
 30
0.0
 10
2.447342519685039
 20
2.89748031496063
 30
0.0
 10
2.447342519685039
 20
2.89748031496063
 30
0.0
 10
2.445751968503937
 20
2.149098425196851
 30
0.0
 10
2.445751968503937
 20
2.149098425196851
 30
0.0
 10
2.445751968503937
 20
2.149098425196851
 30
0.0
 10
2.445751968503937
 20
2.149098425196851
 30
0.0
 10
2.393027559055118
 20
2.160322834645669
 30
0.0
 10
2.393027559055118
 20
2.160322834645669
 30
0.0
  0
SPLINE
  5
68
330
1F
100
AcDbEntity
  8
LAYER_1
 62
   252
100
AcDbSpline
210
0.0
220
0.0
230
1.0
 70
    11
 71
     3
 72
    20
 73
    16
 74
     0
 42
0.0000000001
 43
0.0000000001
 40
0.0
 40
0.0
 40
0.0
 40
0.0
 40
0.25
 40
0.25
 40
0.25
 40
0.25
 40
0.5
 40
0.5
 40
0.5
 40
0.5
 40
0.75
 40
0.75
 40
0.75
 40
0.75
 40
1.0
 40
1.0
 40
1.0
 40
1.0
 10
2.445751968503937
 20
2.149098425196851
 30
0.0
 10
2.445751968503937
 20
2.149098425196851
 30
0.0
 10
2.447342519685039
 20
2.89748031496063
 30
0.0
 10
2.447342519685039
 20
2.89748031496063
 30
0.0
 10
2.447342519685039
 20
2.89748031496063
 30
0.0
 10
2.447342519685039
 20
2.89748031496063
 30
0.0
 10
2.497795275590551
 20
2.885602362204724
 30
0.0
 10
2.497795275590551
 20
2.885602362204724
 30
0.0
 10
2.497795275590551
 20
2.885602362204724
 30
0.0
 10
2.497795275590551
 20
2.885602362204724
 30
0.0
 10
2.496204724409449
 20
2.137220472440945
 30
0.0
 10
2.496204724409449
 20
2.137220472440945
 30
0.0
 10
2.496204724409449
 20
2.137220472440945
 30
0.0
 10
2.496204724409449
 20
2.137220472440945
 30
0.0
 10
2.445751968503937
 20
2.149098425196851
 30
0.0
 10
2.445751968503937
 20
2.149098425196851
 30
0.0
  0
SPLINE
  5
69
330
1F
100
AcDbEntity
  8
LAYER_1
 62
   252
100
AcDbSpline
210
0.0
220
0.0
230
1.0
 70
    11
 71
     3
 72
    20
 73
    16
 74
     0
 42
0.0000000001
 43
0.0000000001
 40
0.0
 40
0.0
 40
0.0
 40
0.0
 40
0.25
 40
0.25
 40
0.25
 40
0.25
 40
0.5
 40
0.5
 40
0.5
 40
0.5
 40
0.75
 40
0.75
 40
0.75
 40
0.75
 40
1.0
 40
1.0
 40
1.0
 40
1.0
 10
2.496204724409449
 20
2.137220472440945
 30
0.0
 10
2.496204724409449
 20
2.137220472440945
 30
0.0
 10
2.497795275590551
 20
2.885602362204724
 30
0.0
 10
2.497795275590551
 20
2.885602362204724
 30
0.0
 10
2.497795275590551
 20
2.885602362204724
 30
0.0
 10
2.497795275590551
 20
2.885602362204724
 30
0.0
 10
2.545948818897638
 20
2.873122047244095
 30
0.0
 10
2.545948818897638
 20
2.873122047244095
 30
0.0
 10
2.545948818897638
 20
2.873122047244095
 30
0.0
 10
2.545948818897638
 20
2.873122047244095
 30
0.0
 10
2.544358267716536
 20
2.124740157480315
 30
0.0
 10
2.544358267716536
 20
2.124740157480315
 30
0.0
 10
2.544358267716536
 20
2.124740157480315
 30
0.0
 10
2.544358267716536
 20
2.124740157480315
 30
0.0
 10
2.496204724409449
 20
2.137220472440945
 30
0.0
 10
2.496204724409449
 20
2.137220472440945
 30
0.0
  0
SPLINE
  5
6A
330
1F
100
AcDbEntity
  8
LAYER_1
 62
   252
100
AcDbSpline
210
0.0
220
0.0
230
1.0
 70
    11
 71
     3
 72
    20
 73
    16
 74
     0
 42
0.0000000001
 43
0.0000000001
 40
0.0
 40
0.0
 40
0.0
 40
0.0
 40
0.25
 40
0.25
 40
0.25
 40
0.25
 40
0.5
 40
0.5
 40
0.5
 40
0.5
 40
0.75
 40
0.75
 40
0.75
 40
0.75
 40
1.0
 40
1.0
 40
1.0
 40
1.0
 10
2.544358267716536
 20
2.124740157480315
 30
0.0
 10
2.544358267716536
 20
2.124740157480315
 30
0.0
 10
2.545948818897638
 20
2.873122047244095
 30
0.0
 10
2.545948818897638
 20
2.873122047244095
 30
0.0
 10
2.545948818897638
 20
2.873122047244095
 30
0.0
 10
2.545948818897638
 20
2.873122047244095
 30
0.0
 10
2.591807086614173
 20
2.860062992125984
 30
0.0
 10
2.591807086614173
 20
2.860062992125984
 30
0.0
 10
2.591807086614173
 20
2.860062992125984
 30
0.0
 10
2.591807086614173
 20
2.860062992125984
 30
0.0
 10
2.590216535433071
 20
2.111681102362205
 30
0.0
 10
2.590216535433071
 20
2.111681102362205
 30
0.0
 10
2.590216535433071
 20
2.111681102362205
 30
0.0
 10
2.590216535433071
 20
2.111681102362205
 30
0.0
 10
2.544358267716536
 20
2.124740157480315
 30
0.0
 10
2.544358267716536
 20
2.124740157480315
 30
0.0
  0
SPLINE
  5
6B
330
1F
100
AcDbEntity
  8
LAYER_1
 62
   252
100
AcDbSpline
210
0.0
220
0.0
230
1.0
 70
    11
 71
     3
 72
    20
 73
    16
 74
     0
 42
0.0000000001
 43
0.0000000001
 40
0.0
 40
0.0
 40
0.0
 40
0.0
 40
0.25
 40
0.25
 40
0.25
 40
0.25
 40
0.5
 40
0.5
 40
0.5
 40
0.5
 40
0.75
 40
0.75
 40
0.75
 40
0.75
 40
1.0
 40
1.0
 40
1.0
 40
1.0
 10
2.590216535433071
 20
2.111681102362205
 30
0.0
 10
2.590216535433071
 20
2.111681102362205
 30
0.0
 10
2.591807086614173
 20
2.860062992125984
 30
0.0
 10
2.591807086614173
 20
2.860062992125984
 30
0.0
 10
2.591807086614173
 20
2.860062992125984
 30
0.0
 10
2.591807086614173
 20
2.860062992125984
 30
0.0
 10
2.635350393700787
 20
2.846468503937008
 30
0.0
 10
2.635350393700787
 20
2.846468503937008
 30
0.0
 10
2.635350393700787
 20
2.846468503937008
 30
0.0
 10
2.635350393700787
 20
2.846468503937008
 30
0.0
 10
2.633759842519685
 20
2.098086614173229
 30
0.0
 10
2.633759842519685
 20
2.098086614173229
 30
0.0
 10
2.633759842519685
 20
2.098086614173229
 30
0.0
 10
2.633759842519685
 20
2.098086614173229
 30
0.0
 10
2.590216535433071
 20
2.111681102362205
 30
0.0
 10
2.590216535433071
 20
2.111681102362205
 30
0.0
  0
SPLINE
  5
6C
330
1F
100
AcDbEntity
  8
LAYER_1
 62
   252
100
AcDbSpline
210
0.0
220
0.0
230
1.0
 70
    11
 71
     3
 72
    20
 73
    16
 74
     0
 42
0.0000000001
 43
0.0000000001
 40
0.0
 40
0.0
 40
0.0
 40
0.0
 40
0.25
 40
0.25
 40
0.25
 40
0.25
 40
0.5
 40
0.5
 40
0.5
 40
0.5
 40
0.75
 40
0.75
 40
0.75
 40
0.75
 40
1.0
 40
1.0
 40
1.0
 40
1.0
 10
2.633759842519685
 20
2.098086614173229
 30
0.0
 10
2.633759842519685
 20
2.098086614173229
 30
0.0
 10
2.635350393700787
 20
2.846468503937008
 30
0.0
 10
2.635350393700787
 20
2.846468503937008
 30
0.0
 10
2.635350393700787
 20
2.846468503937008
 30
0.0
 10
2.635350393700787
 20
2.846468503937008
 30
0.0
 10
2.676574803149606
 20
2.832366141732284
 30
0.0
 10
2.676574803149606
 20
2.832366141732284
 30
0.0
 10
2.676574803149606
 20
2.832366141732284
 30
0.0
 10
2.676574803149606
 20
2.832366141732284
 30
0.0
 10
2.674984251968504
 20
2.083984251968504
 30
0.0
 10
2.674984251968504
 20
2.083984251968504
 30
0.0
 10
2.674984251968504
 20
2.083984251968504
 30
0.0
 10
2.674984251968504
 20
2.083984251968504
 30
0.0
 10
2.633759842519685
 20
2.098086614173229
 30
0.0
 10
2.633759842519685
 20
2.098086614173229
 30
0.0
  0
SPLINE
  5
6D
330
1F
100
AcDbEntity
  8
LAYER_1
 62
   252
100
AcDbSpline
210
0.0
220
0.0
230
1.0
 70
    11
 71
     3
 72
    20
 73
    16
 74
     0
 42
0.0000000001
 43
0.0000000001
 40
0.0
 40
0.0
 40
0.0
 40
0.0
 40
0.25
 40
0.25
 40
0.25
 40
0.25
 40
0.5
 40
0.5
 40
0.5
 40
0.5
 40
0.75
 40
0.75
 40
0.75
 40
0.75
 40
1.0
 40
1.0
 40
1.0
 40
1.0
 10
2.674984251968504
 20
2.083984251968504
 30
0.0
 10
2.674984251968504
 20
2.083984251968504
 30
0.0
 10
2.676574803149606
 20
2.832366141732284
 30
0.0
 10
2.676574803149606
 20
2.832366141732284
 30
0.0
 10
2.676574803149606
 20
2.832366141732284
 30
0.0
 10
2.676574803149606
 20
2.832366141732284
 30
0.0
 10
2.71546062992126
 20
2.817803149606299
 30
0.0
 10
2.71546062992126
 20
2.817803149606299
 30
0.0
 10
2.71546062992126
 20
2.817803149606299
 30
0.0
 10
2.71546062992126
 20
2.817803149606299
 30
0.0
 10
2.713870078740158
 20
2.06942125984252
 30
0.0
 10
2.713870078740158
 20
2.06942125984252
 30
0.0
 10
2.713870078740158
 20
2.06942125984252
 30
0.0
 10
2.713870078740158
 20
2.06942125984252
 30
0.0
 10
2.674984251968504
 20
2.083984251968504
 30
0.0
 10
2.674984251968504
 20
2.083984251968504
 30
0.0
  0
SPLINE
  5
6E
330
1F
100
AcDbEntity
  8
LAYER_1
 62
   252
100
AcDbSpline
210
0.0
220
0.0
230
1.0
 70
    11
 71
     3
 72
    20
 73
    16
 74
     0
 42
0.0000000001
 43
0.0000000001
 40
0.0
 40
0.0
 40
0.0
 40
0.0
 40
0.25
 40
0.25
 40
0.25
 40
0.25
 40
0.5
 40
0.5
 40
0.5
 40
0.5
 40
0.75
 40
0.75
 40
0.75
 40
0.75
 40
1.0
 40
1.0
 40
1.0
 40
1.0
 10
2.713870078740158
 20
2.06942125984252
 30
0.0
 10
2.713870078740158
 20
2.06942125984252
 30
0.0
 10
2.71546062992126
 20
2.817803149606299
 30
0.0
 10
2.71546062992126
 20
2.817803149606299
 30
0.0
 10
2.71546062992126
 20
2.817803149606299
 30
0.0
 10
2.71546062992126
 20
2.817803149606299
 30
0.0
 10
2.752007874015748
 20
2.802803149606299
 30
0.0
 10
2.752007874015748
 20
2.802803149606299
 30
0.0
 10
2.752007874015748
 20
2.802803149606299
 30
0.0
 10
2.752007874015748
 20
2.802803149606299
 30
0.0
 10
2.750417322834646
 20
2.05442125984252
 30
0.0
 10
2.750417322834646
 20
2.05442125984252
 30
0.0
 10
2.750417322834646
 20
2.05442125984252
 30
0.0
 10
2.750417322834646
 20
2.05442125984252
 30
0.0
 10
2.713870078740158
 20
2.06942125984252
 30
0.0
 10
2.713870078740158
 20
2.06942125984252
 30
0.0
  0
SPLINE
  5
6F
330
1F
100
AcDbEntity
  8
LAYER_1
 62
   252
100
AcDbSpline
210
0.0
220
0.0
230
1.0
 70
    11
 71
     3
 72
    20
 73
    16
 74
     0
 42
0.0000000001
 43
0.0000000001
 40
0.0
 40
0.0
 40
0.0
 40
0.0
 40
0.25
 40
0.25
 40
0.25
 40
0.25
 40
0.5
 40
0.5
 40
0.5
 40
0.5
 40
0.75
 40
0.75
 40
0.75
 40
0.75
 40
1.0
 40
1.0
 40
1.0
 40
1.0
 10
2.750417322834646
 20
2.05442125984252
 30
0.0
 10
2.750417322834646
 20
2.05442125984252
 30
0.0
 10
2.752007874015748
 20
2.802803149606299
 30
0.0
 10
2.752007874015748
 20
2.802803149606299
 30
0.0
 10
2.752007874015748
 20
2.802803149606299
 30
0.0
 10
2.752007874015748
 20
2.802803149606299
 30
0.0
 10
2.786200787401575
 20
2.787405511811024
 30
0.0
 10
2.786200787401575
 20
2.787405511811024
 30
0.0
 10
2.786200787401575
 20
2.787405511811024
 30
0.0
 10
2.786200787401575
 20
2.787405511811024
 30
0.0
 10
2.784610236220473
 20
2.039023622047244
 30
0.0
 10
2.784610236220473
 20
2.039023622047244
 30
0.0
 10
2.784610236220473
 20
2.039023622047244
 30
0.0
 10
2.784610236220473
 20
2.039023622047244
 30
0.0
 10
2.750417322834646
 20
2.05442125984252
 30
0.0
 10
2.750417322834646
 20
2.05442125984252
 30
0.0
  0
SPLINE
  5
70
330
1F
100
AcDbEntity
  8
LAYER_1
 62
   252
100
AcDbSpline
210
0.0
220
0.0
230
1.0
 70
    11
 71
     3
 72
    20
 73
    16
 74
     0
 42
0.0000000001
 43
0.0000000001
 40
0.0
 40
0.0
 40
0.0
 40
0.0
 40
0.25
 40
0.25
 40
0.25
 40
0.25
 40
0.5
 40
0.5
 40
0.5
 40
0.5
 40
0.75
 40
0.75
 40
0.75
 40
0.75
 40
1.0
 40
1.0
 40
1.0
 40
1.0
 10
2.784610236220473
 20
2.039023622047244
 30
0.0
 10
2.784610236220473
 20
2.039023622047244
 30
0.0
 10
2.786200787401575
 20
2.787405511811024
 30
0.0
 10
2.786200787401575
 20
2.787405511811024
 30
0.0
 10
2.786200787401575
 20
2.787405511811024
 30
0.0
 10
2.786200787401575
 20
2.787405511811024
 30
0.0
 10
2.818035433070866
 20
2.771641732283465
 30
0.0
 10
2.818035433070866
 20
2.771641732283465
 30
0.0
 10
2.818035433070866
 20
2.771641732283465
 30
0.0
 10
2.818035433070866
 20
2.771641732283465
 30
0.0
 10
2.816444881889764
 20
2.023259842519685
 30
0.0
 10
2.816444881889764
 20
2.023259842519685
 30
0.0
 10
2.816444881889764
 20
2.023259842519685
 30
0.0
 10
2.816444881889764
 20
2.023259842519685
 30
0.0
 10
2.784610236220473
 20
2.039023622047244
 30
0.0
 10
2.784610236220473
 20
2.039023622047244
 30
0.0
  0
SPLINE
  5
71
330
1F
100
AcDbEntity
  8
LAYER_1
 62
   252
100
AcDbSpline
210
0.0
220
0.0
230
1.0
 70
    11
 71
     3
 72
    20
 73
    16
 74
     0
 42
0.0000000001
 43
0.0000000001
 40
0.0
 40
0.0
 40
0.0
 40
0.0
 40
0.25
 40
0.25
 40
0.25
 40
0.25
 40
0.5
 40
0.5
 40
0.5
 40
0.5
 40
0.75
 40
0.75
 40
0.75
 40
0.75
 40
1.0
 40
1.0
 40
1.0
 40
1.0
 10
2.816444881889764
 20
2.023259842519685
 30
0.0
 10
2.816444881889764
 20
2.023259842519685
 30
0.0
 10
2.818035433070866
 20
2.771641732283465
 30
0.0
 10
2.818035433070866
 20
2.771641732283465
 30
0.0
 10
2.818035433070866
 20
2.771641732283465
 30
0.0
 10
2.818035433070866
 20
2.771641732283465
 30
0.0
 10
2.847488188976378
 20
2.755555118110237
 30
0.0
 10
2.847488188976378
 20
2.755555118110237
 30
0.0
 10
2.847488188976378
 20
2.755555118110237
 30
0.0
 10
2.847488188976378
 20
2.755555118110237
 30
0.0
 10
2.845897637795276
 20
2.007173228346457
 30
0.0
 10
2.845897637795276
 20
2.007173228346457
 30
0.0
 10
2.845897637795276
 20
2.007173228346457
 30
0.0
 10
2.845897637795276
 20
2.007173228346457
 30
0.0
 10
2.816444881889764
 20
2.023259842519685
 30
0.0
 10
2.816444881889764
 20
2.023259842519685
 30
0.0
  0
SPLINE
  5
72
330
1F
100
AcDbEntity
  8
LAYER_1
 62
   252
100
AcDbSpline
210
0.0
220
0.0
230
1.0
 70
    11
 71
     3
 72
    20
 73
    16
 74
     0
 42
0.0000000001
 43
0.0000000001
 40
0.0
 40
0.0
 40
0.0
 40
0.0
 40
0.25
 40
0.25
 40
0.25
 40
0.25
 40
0.5
 40
0.5
 40
0.5
 40
0.5
 40
0.75
 40
0.75
 40
0.75
 40
0.75
 40
1.0
 40
1.0
 40
1.0
 40
1.0
 10
2.845897637795276
 20
2.007173228346457
 30
0.0
 10
2.845897637795276
 20
2.007173228346457
 30
0.0
 10
2.847488188976378
 20
2.755555118110237
 30
0.0
 10
2.847488188976378
 20
2.755555118110237
 30
0.0
 10
2.847488188976378
 20
2.755555118110237
 30
0.0
 10
2.847488188976378
 20
2.755555118110237
 30
0.0
 10
2.874562992125985
 20
2.739169291338583
 30
0.0
 10
2.874562992125985
 20
2.739169291338583
 30
0.0
 10
2.874562992125985
 20
2.739169291338583
 30
0.0
 10
2.874562992125985
 20
2.739169291338583
 30
0.0
 10
2.872972440944882
 20
1.990787401574803
 30
0.0
 10
2.872972440944882
 20
1.990787401574803
 30
0.0
 10
2.872972440944882
 20
1.990787401574803
 30
0.0
 10
2.872972440944882
 20
1.990787401574803
 30
0.0
 10
2.845897637795276
 20
2.007173228346457
 30
0.0
 10
2.845897637795276
 20
2.007173228346457
 30
0.0
  0
SPLINE
  5
73
330
1F
100
AcDbEntity
  8
LAYER_1
 62
   252
100
AcDbSpline
210
0.0
220
0.0
230
1.0
 70
    11
 71
     3
 72
    20
 73
    16
 74
     0
 42
0.0000000001
 43
0.0000000001
 40
0.0
 40
0.0
 40
0.0
 40
0.0
 40
0.25
 40
0.25
 40
0.25
 40
0.25
 40
0.5
 40
0.5
 40
0.5
 40
0.5
 40
0.75
 40
0.75
 40
0.75
 40
0.75
 40
1.0
 40
1.0
 40
1.0
 40
1.0
 10
2.872972440944882
 20
1.990787401574803
 30
0.0
 10
2.872972440944882
 20
1.990787401574803
 30
0.0
 10
2.874562992125985
 20
2.739169291338583
 30
0.0
 10
2.874562992125985
 20
2.739169291338583
 30
0.0
 10
2.874562992125985
 20
2.739169291338583
 30
0.0
 10
2.874562992125985
 20
2.739169291338583
 30
0.0
 10
2.899240157480315
 20
2.722531496062992
 30
0.0
 10
2.899240157480315
 20
2.722531496062992
 30
0.0
 10
2.899240157480315
 20
2.722531496062992
 30
0.0
 10
2.899240157480315
 20
2.722531496062992
 30
0.0
 10
2.897649606299213
 20
1.974149606299213
 30
0.0
 10
2.897649606299213
 20
1.974149606299213
 30
0.0
 10
2.897649606299213
 20
1.974149606299213
 30
0.0
 10
2.897649606299213
 20
1.974149606299213
 30
0.0
 10
2.872972440944882
 20
1.990787401574803
 30
0.0
 10
2.872972440944882
 20
1.990787401574803
 30
0.0
  0
SPLINE
  5
74
330
1F
100
AcDbEntity
  8
LAYER_1
 62
   252
100
AcDbSpline
210
0.0
220
0.0
230
1.0
 70
    11
 71
     3
 72
    20
 73
    16
 74
     0
 42
0.0000000001
 43
0.0000000001
 40
0.0
 40
0.0
 40
0.0
 40
0.0
 40
0.25
 40
0.25
 40
0.25
 40
0.25
 40
0.5
 40
0.5
 40
0.5
 40
0.5
 40
0.75
 40
0.75
 40
0.75
 40
0.75
 40
1.0
 40
1.0
 40
1.0
 40
1.0
 10
2.897649606299213
 20
1.974149606299213
 30
0.0
 10
2.897649606299213
 20
1.974149606299213
 30
0.0
 10
2.899240157480315
 20
2.722531496062992
 30
0.0
 10
2.899240157480315
 20
2.722531496062992
 30
0.0
 10
2.899240157480315
 20
2.722531496062992
 30
0.0
 10
2.899240157480315
 20
2.722531496062992
 30
0.0
 10
2.921515748031496
 20
2.705661417322835
 30
0.0
 10
2.921515748031496
 20
2.705661417322835
 30
0.0
 10
2.921515748031496
 20
2.705661417322835
 30
0.0
 10
2.921515748031496
 20
2.705661417322835
 30
0.0
 10
2.919925196850394
 20
1.957279527559055
 30
0.0
 10
2.919925196850394
 20
1.957279527559055
 30
0.0
 10
2.919925196850394
 20
1.957279527559055
 30
0.0
 10
2.919925196850394
 20
1.957279527559055
 30
0.0
 10
2.897649606299213
 20
1.974149606299213
 30
0.0
 10
2.897649606299213
 20
1.974149606299213
 30
0.0
  0
SPLINE
  5
75
330
1F
100
AcDbEntity
  8
LAYER_1
 62
   252
100
AcDbSpline
210
0.0
220
0.0
230
1.0
 70
    11
 71
     3
 72
    20
 73
    16
 74
     0
 42
0.0000000001
 43
0.0000000001
 40
0.0
 40
0.0
 40
0.0
 40
0.0
 40
0.25
 40
0.25
 40
0.25
 40
0.25
 40
0.5
 40
0.5
 40
0.5
 40
0.5
 40
0.75
 40
0.75
 40
0.75
 40
0.75
 40
1.0
 40
1.0
 40
1.0
 40
1.0
 10
2.919925196850394
 20
1.957279527559055
 30
0.0
 10
2.919925196850394
 20
1.957279527559055
 30
0.0
 10
2.921515748031496
 20
2.705661417322835
 30
0.0
 10
2.921515748031496
 20
2.705661417322835
 30
0.0
 10
2.921515748031496
 20
2.705661417322835
 30
0.0
 10
2.921515748031496
 20
2.705661417322835
 30
0.0
 10
2.941366141732284
 20
2.688618110236221
 30
0.0
 10
2.941366141732284
 20
2.688618110236221
 30
0.0
 10
2.941366141732284
 20
2.688618110236221
 30
0.0
 10
2.941366141732284
 20
2.688618110236221
 30
0.0
 10
2.939775590551181
 20
1.940236220472441
 30
0.0
 10
2.939775590551181
 20
1.940236220472441
 30
0.0
 10
2.939775590551181
 20
1.940236220472441
 30
0.0
 10
2.939775590551181
 20
1.940236220472441
 30
0.0
 10
2.919925196850394
 20
1.957279527559055
 30
0.0
 10
2.919925196850394
 20
1.957279527559055
 30
0.0
  0
SPLINE
  5
76
330
1F
100
AcDbEntity
  8
LAYER_1
 62
   252
100
AcDbSpline
210
0.0
220
0.0
230
1.0
 70
    11
 71
     3
 72
    28
 73
    24
 74
     0
 42
0.0000000001
 43
0.0000000001
 40
0.0
 40
0.0
 40
0.0
 40
0.0
 40
0.1666666666666667
 40
0.1666666666666667
 40
0.1666666666666667
 40
0.1666666666666667
 40
0.3333333333333333
 40
0.3333333333333333
 40
0.3333333333333333
 40
0.3333333333333333
 40
0.5
 40
0.5
 40
0.5
 40
0.5
 40
0.6666666666666666
 40
0.6666666666666666
 40
0.6666666666666666
 40
0.6666666666666666
 40
0.8333333333333333
 40
0.8333333333333333
 40
0.8333333333333333
 40
0.8333333333333333
 40
1.0
 40
1.0
 40
1.0
 40
1.0
 10
2.939775590551181
 20
1.940236220472441
 30
0.0
 10
2.939775590551181
 20
1.940236220472441
 30
0.0
 10
2.941366141732284
 20
2.688618110236221
 30
0.0
 10
2.941366141732284
 20
2.688618110236221
 30
0.0
 10
2.941366141732284
 20
2.688618110236221
 30
0.0
 10
2.941366141732284
 20
2.688618110236221
 30
0.0
 10
2.958795275590551
 20
2.671417322834646
 30
0.0
 10
2.958795275590551
 20
2.671417322834646
 30
0.0
 10
2.958795275590551
 20
2.671417322834646
 30
0.0
 10
2.958795275590551
 20
2.671417322834646
 30
0.0
 10
2.973783464566929
 20
2.654098425196851
 30
0.0
 10
2.973783464566929
 20
2.654098425196851
 30
0.0
 10
2.973783464566929
 20
2.654098425196851
 30
0.0
 10
2.973783464566929
 20
2.654098425196851
 30
0.0
 10
2.972192913385827
 20
1.905716535433071
 30
0.0
 10
2.972192913385827
 20
1.905716535433071
 30
0.0
 10
2.972192913385827
 20
1.905716535433071
 30
0.0
 10
2.972192913385827
 20
1.905716535433071
 30
0.0
 10
2.957204724409449
 20
1.923035433070866
 30
0.0
 10
2.957204724409449
 20
1.923035433070866
 30
0.0
 10
2.957204724409449
 20
1.923035433070866
 30
0.0
 10
2.957204724409449
 20
1.923035433070866
 30
0.0
 10
2.939775590551181
 20
1.940236220472441
 30
0.0
 10
2.939775590551181
 20
1.940236220472441
 30
0.0
  0
SPLINE
  5
77
330
1F
100
AcDbEntity
  8
LAYER_1
 62
   252
100
AcDbSpline
210
0.0
220
0.0
230
1.0
 70
    11
 71
     3
 72
    28
 73
    24
 74
     0
 42
0.0000000001
 43
0.0000000001
 40
0.0
 40
0.0
 40
0.0
 40
0.0
 40
0.1666666666666667
 40
0.1666666666666667
 40
0.1666666666666667
 40
0.1666666666666667
 40
0.3333333333333333
 40
0.3333333333333333
 40
0.3333333333333333
 40
0.3333333333333333
 40
0.5
 40
0.5
 40
0.5
 40
0.5
 40
0.6666666666666666
 40
0.6666666666666666
 40
0.6666666666666666
 40
0.6666666666666666
 40
0.8333333333333333
 40
0.8333333333333333
 40
0.8333333333333333
 40
0.8333333333333333
 40
1.0
 40
1.0
 40
1.0
 40
1.0
 10
2.972192913385827
 20
1.905716535433071
 30
0.0
 10
2.972192913385827
 20
1.905716535433071
 30
0.0
 10
2.973783464566929
 20
2.654098425196851
 30
0.0
 10
2.973783464566929
 20
2.654098425196851
 30
0.0
 10
2.973783464566929
 20
2.654098425196851
 30
0.0
 10
2.973783464566929
 20
2.654098425196851
 30
0.0
 10
2.986330708661417
 20
2.636692913385827
 30
0.0
 10
2.986330708661417
 20
2.636692913385827
 30
0.0
 10
2.986330708661417
 20
2.636692913385827
 30
0.0
 10
2.986330708661417
 20
2.636692913385827
 30
0.0
 10
2.996413385826772
 20
2.619251968503937
 30
0.0
 10
2.996413385826772
 20
2.619251968503937
 30
0.0
 10
2.996413385826772
 20
2.619251968503937
 30
0.0
 10
2.996413385826772
 20
2.619251968503937
 30
0.0
 10
2.99482283464567
 20
1.870870078740158
 30
0.0
 10
2.99482283464567
 20
1.870870078740158
 30
0.0
 10
2.99482283464567
 20
1.870870078740158
 30
0.0
 10
2.99482283464567
 20
1.870870078740158
 30
0.0
 10
2.984740157480315
 20
1.888311023622047
 30
0.0
 10
2.984740157480315
 20
1.888311023622047
 30
0.0
 10
2.984740157480315
 20
1.888311023622047
 30
0.0
 10
2.984740157480315
 20
1.888311023622047
 30
0.0
 10
2.972192913385827
 20
1.905716535433071
 30
0.0
 10
2.972192913385827
 20
1.905716535433071
 30
0.0
  0
SPLINE
  5
78
330
1F
100
AcDbEntity
  8
LAYER_1
 62
   252
100
AcDbSpline
210
0.0
220
0.0
230
1.0
 70
    11
 71
     3
 72
    28
 73
    24
 74
     0
 42
0.0000000001
 43
0.0000000001
 40
0.0
 40
0.0
 40
0.0
 40
0.0
 40
0.1666666666666667
 40
0.1666666666666667
 40
0.1666666666666667
 40
0.1666666666666667
 40
0.3333333333333333
 40
0.3333333333333333
 40
0.3333333333333333
 40
0.3333333333333333
 40
0.5
 40
0.5
 40
0.5
 40
0.5
 40
0.6666666666666666
 40
0.6666666666666666
 40
0.6666666666666666
 40
0.6666666666666666
 40
0.8333333333333333
 40
0.8333333333333333
 40
0.8333333333333333
 40
0.8333333333333333
 40
1.0
 40
1.0
 40
1.0
 40
1.0
 10
2.99482283464567
 20
1.870870078740158
 30
0.0
 10
2.99482283464567
 20
1.870870078740158
 30
0.0
 10
2.996413385826772
 20
2.619251968503937
 30
0.0
 10
2.996413385826772
 20
2.619251968503937
 30
0.0
 10
2.996413385826772
 20
2.619251968503937
 30
0.0
 10
2.996413385826772
 20
2.619251968503937
 30
0.0
 10
3.004031496062992
 20
2.601787401574803
 30
0.0
 10
3.004031496062992
 20
2.601787401574803
 30
0.0
 10
3.004031496062992
 20
2.601787401574803
 30
0.0
 10
3.004031496062992
 20
2.601787401574803
 30
0.0
 10
3.009169291338583
 20
2.584350393700788
 30
0.0
 10
3.009169291338583
 20
2.584350393700788
 30
0.0
 10
3.009169291338583
 20
2.584350393700788
 30
0.0
 10
3.009169291338583
 20
2.584350393700788
 30
0.0
 10
3.00757874015748
 20
1.835968503937008
 30
0.0
 10
3.00757874015748
 20
1.835968503937008
 30
0.0
 10
3.00757874015748
 20
1.835968503937008
 30
0.0
 10
3.00757874015748
 20
1.835968503937008
 30
0.0
 10
3.00244094488189
 20
1.853405511811024
 30
0.0
 10
3.00244094488189
 20
1.853405511811024
 30
0.0
 10
3.00244094488189
 20
1.853405511811024
 30
0.0
 10
3.00244094488189
 20
1.853405511811024
 30
0.0
 10
2.99482283464567
 20
1.870870078740158
 30
0.0
 10
2.99482283464567
 20
1.870870078740158
 30
0.0
  0
SPLINE
  5
79
330
1F
100
AcDbEntity
  8
LAYER_1
 62
   252
100
AcDbSpline
210
0.0
220
0.0
230
1.0
 70
    11
 71
     3
 72
    20
 73
    16
 74
     0
 42
0.0000000001
 43
0.0000000001
 40
0.0
 40
0.0
 40
0.0
 40
0.0
 40
0.25
 40
0.25
 40
0.25
 40
0.25
 40
0.5
 40
0.5
 40
0.5
 40
0.5
 40
0.75
 40
0.75
 40
0.75
 40
0.75
 40
1.0
 40
1.0
 40
1.0
 40
1.0
 10
3.00757874015748
 20
1.835968503937008
 30
0.0
 10
3.00757874015748
 20
1.835968503937008
 30
0.0
 10
3.009169291338583
 20
2.584350393700788
 30
0.0
 10
3.009169291338583
 20
2.584350393700788
 30
0.0
 10
3.009169291338583
 20
2.584350393700788
 30
0.0
 10
3.009169291338583
 20
2.584350393700788
 30
0.0
 10
3.01182283464567
 20
2.566968503937008
 30
0.0
 10
3.01182283464567
 20
2.566968503937008
 30
0.0
 10
3.01182283464567
 20
2.566968503937008
 30
0.0
 10
3.01182283464567
 20
2.566968503937008
 30
0.0
 10
3.010232283464567
 20
1.818586614173228
 30
0.0
 10
3.010232283464567
 20
1.818586614173228
 30
0.0
 10
3.010232283464567
 20
1.818586614173228
 30
0.0
 10
3.010232283464567
 20
1.818586614173228
 30
0.0
 10
3.00757874015748
 20
1.835968503937008
 30
0.0
 10
3.00757874015748
 20
1.835968503937008
 30
0.0
  0
SPLINE
  5
7A
330
1F
100
AcDbEntity
  8
LAYER_1
 62
   250
100
AcDbSpline
210
0.0
220
0.0
230
1.0
 70
    11
 71
     3
 72
   204
 73
   200
 74
     0
 42
0.0000000001
 43
0.0000000001
 40
0.0
 40
0.0
 40
0.0
 40
0.0
 40
0.02
 40
0.02
 40
0.02
 40
0.02
 40
0.04
 40
0.04
 40
0.04
 40
0.04
 40
0.06
 40
0.06
 40
0.06
 40
0.06
 40
0.08
 40
0.08
 40
0.08
 40
0.08
 40
0.1
 40
0.1
 40
0.1
 40
0.1
 40
0.12
 40
0.12
 40
0.12
 40
0.12
 40
0.14
 40
0.14
 40
0.14
 40
0.14
 40
0.16
 40
0.16
 40
0.16
 40
0.16
 40
0.18
 40
0.18
 40
0.18
 40
0.18
 40
0.2
 40
0.2
 40
0.2
 40
0.2
 40
0.22
 40
0.22
 40
0.22
 40
0.22
 40
0.24
 40
0.24
 40
0.24
 40
0.24
 40
0.26
 40
0.26
 40
0.26
 40
0.26
 40
0.28
 40
0.28
 40
0.28
 40
0.28
 40
0.3
 40
0.3
 40
0.3
 40
0.3
 40
0.32
 40
0.32
 40
0.32
 40
0.32
 40
0.34
 40
0.34
 40
0.34
 40
0.34
 40
0.36
 40
0.36
 40
0.36
 40
0.36
 40
0.3800000000000001
 40
0.3800000000000001
 40
0.3800000000000001
 40
0.3800000000000001
 40
0.4000000000000001
 40
0.4000000000000001
 40
0.4000000000000001
 40
0.4000000000000001
 40
0.4200000000000001
 40
0.4200000000000001
 40
0.4200000000000001
 40
0.4200000000000001
 40
0.4400000000000001
 40
0.4400000000000001
 40
0.4400000000000001
 40
0.4400000000000001
 40
0.4600000000000001
 40
0.4600000000000001
 40
0.4600000000000001
 40
0.4600000000000001
 40
0.4800000000000002
 40
0.4800000000000002
 40
0.4800000000000002
 40
0.4800000000000002
 40
0.5000000000000001
 40
0.5000000000000001
 40
0.5000000000000001
 40
0.5000000000000001
 40
0.5200000000000001
 40
0.5200000000000001
 40
0.5200000000000001
 40
0.5200000000000001
 40
0.5400000000000002
 40
0.5400000000000002
 40
0.5400000000000002
 40
0.5400000000000002
 40
0.5600000000000002
 40
0.5600000000000002
 40
0.5600000000000002
 40
0.5600000000000002
 40
0.5800000000000002
 40
0.5800000000000002
 40
0.5800000000000002
 40
0.5800000000000002
 40
0.6000000000000002
 40
0.6000000000000002
 40
0.6000000000000002
 40
0.6000000000000002
 40
0.6200000000000002
 40
0.6200000000000002
 40
0.6200000000000002
 40
0.6200000000000002
 40
0.6400000000000002
 40
0.6400000000000002
 40
0.6400000000000002
 40
0.6400000000000002
 40
0.6600000000000003
 40
0.6600000000000003
 40
0.6600000000000003
 40
0.6600000000000003
 40
0.6800000000000003
 40
0.6800000000000003
 40
0.6800000000000003
 40
0.6800000000000003
 40
0.7000000000000003
 40
0.7000000000000003
 40
0.7000000000000003
 40
0.7000000000000003
 40
0.7200000000000003
 40
0.7200000000000003
 40
0.7200000000000003
 40
0.7200000000000003
 40
0.7400000000000003
 40
0.7400000000000003
 40
0.7400000000000003
 40
0.7400000000000003
 40
0.7600000000000003
 40
0.7600000000000003
 40
0.7600000000000003
 40
0.7600000000000003
 40
0.7800000000000004
 40
0.7800000000000004
 40
0.7800000000000004
 40
0.7800000000000004
 40
0.8000000000000004
 40
0.8000000000000004
 40
0.8000000000000004
 40
0.8000000000000004
 40
0.8200000000000004
 40
0.8200000000000004
 40
0.8200000000000004
 40
0.8200000000000004
 40
0.8400000000000004
 40
0.8400000000000004
 40
0.8400000000000004
 40
0.8400000000000004
 40
0.8600000000000004
 40
0.8600000000000004
 40
0.8600000000000004
 40
0.8600000000000004
 40
0.8800000000000005
 40
0.8800000000000005
 40
0.8800000000000005
 40
0.8800000000000005
 40
0.9000000000000005
 40
0.9000000000000005
 40
0.9000000000000005
 40
0.9000000000000005
 40
0.9200000000000005
 40
0.9200000000000005
 40
0.9200000000000005
 40
0.9200000000000005
 40
0.9400000000000005
 40
0.9400000000000005
 40
0.9400000000000005
 40
0.9400000000000005
 40
0.9600000000000005
 40
0.9600000000000005
 40
0.9600000000000005
 40
0.9600000000000005
 40
0.9800000000000005
 40
0.9800000000000005
 40
0.9800000000000005
 40
0.9800000000000005
 40
1.0
 40
1.0
 40
1.0
 40
1.0
 10
2.280783464566929
 20
2.180704724409449
 30
0.0
 10
2.280783464566929
 20
2.180704724409449
 30
0.0
 10
2.282374015748032
 20
2.929086614173229
 30
0.0
 10
2.282374015748032
 20
2.929086614173229
 30
0.0
 10
2.282374015748032
 20
2.929086614173229
 30
0.0
 10
2.282374015748032
 20
2.929086614173229
 30
0.0
 10
2.339622047244095
 20
2.919255905511811
 30
0.0
 10
2.339622047244095
 20
2.919255905511811
 30
0.0
 10
2.339622047244095
 20
2.919255905511811
 30
0.0
 10
2.339622047244095
 20
2.919255905511811
 30
0.0
 10
2.394618110236221
 20
2.908704724409449
 30
0.0
 10
2.394618110236221
 20
2.908704724409449
 30
0.0
 10
2.394618110236221
 20
2.908704724409449
 30
0.0
 10
2.394618110236221
 20
2.908704724409449
 30
0.0
 10
2.447342519685039
 20
2.89748031496063
 30
0.0
 10
2.447342519685039
 20
2.89748031496063
 30
0.0
 10
2.447342519685039
 20
2.89748031496063
 30
0.0
 10
2.447342519685039
 20
2.89748031496063
 30
0.0
 10
2.497795275590551
 20
2.885602362204724
 30
0.0
 10
2.497795275590551
 20
2.885602362204724
 30
0.0
 10
2.497795275590551
 20
2.885602362204724
 30
0.0
 10
2.497795275590551
 20
2.885602362204724
 30
0.0
 10
2.545948818897638
 20
2.873122047244095
 30
0.0
 10
2.545948818897638
 20
2.873122047244095
 30
0.0
 10
2.545948818897638
 20
2.873122047244095
 30
0.0
 10
2.545948818897638
 20
2.873122047244095
 30
0.0
 10
2.591807086614173
 20
2.860062992125984
 30
0.0
 10
2.591807086614173
 20
2.860062992125984
 30
0.0
 10
2.591807086614173
 20
2.860062992125984
 30
0.0
 10
2.591807086614173
 20
2.860062992125984
 30
0.0
 10
2.635350393700787
 20
2.846468503937008
 30
0.0
 10
2.635350393700787
 20
2.846468503937008
 30
0.0
 10
2.635350393700787
 20
2.846468503937008
 30
0.0
 10
2.635350393700787
 20
2.846468503937008
 30
0.0
 10
2.676574803149606
 20
2.832366141732284
 30
0.0
 10
2.676574803149606
 20
2.832366141732284
 30
0.0
 10
2.676574803149606
 20
2.832366141732284
 30
0.0
 10
2.676574803149606
 20
2.832366141732284
 30
0.0
 10
2.71546062992126
 20
2.817803149606299
 30
0.0
 10
2.71546062992126
 20
2.817803149606299
 30
0.0
 10
2.71546062992126
 20
2.817803149606299
 30
0.0
 10
2.71546062992126
 20
2.817803149606299
 30
0.0
 10
2.752007874015748
 20
2.802803149606299
 30
0.0
 10
2.752007874015748
 20
2.802803149606299
 30
0.0
 10
2.752007874015748
 20
2.802803149606299
 30
0.0
 10
2.752007874015748
 20
2.802803149606299
 30
0.0
 10
2.786200787401575
 20
2.787405511811024
 30
0.0
 10
2.786200787401575
 20
2.787405511811024
 30
0.0
 10
2.786200787401575
 20
2.787405511811024
 30
0.0
 10
2.786200787401575
 20
2.787405511811024
 30
0.0
 10
2.818035433070866
 20
2.771641732283465
 30
0.0
 10
2.818035433070866
 20
2.771641732283465
 30
0.0
 10
2.818035433070866
 20
2.771641732283465
 30
0.0
 10
2.818035433070866
 20
2.771641732283465
 30
0.0
 10
2.847488188976378
 20
2.755555118110237
 30
0.0
 10
2.847488188976378
 20
2.755555118110237
 30
0.0
 10
2.847488188976378
 20
2.755555118110237
 30
0.0
 10
2.847488188976378
 20
2.755555118110237
 30
0.0
 10
2.874562992125985
 20
2.739169291338583
 30
0.0
 10
2.874562992125985
 20
2.739169291338583
 30
0.0
 10
2.874562992125985
 20
2.739169291338583
 30
0.0
 10
2.874562992125985
 20
2.739169291338583
 30
0.0
 10
2.899240157480315
 20
2.722531496062992
 30
0.0
 10
2.899240157480315
 20
2.722531496062992
 30
0.0
 10
2.899240157480315
 20
2.722531496062992
 30
0.0
 10
2.899240157480315
 20
2.722531496062992
 30
0.0
 10
2.921515748031496
 20
2.705661417322835
 30
0.0
 10
2.921515748031496
 20
2.705661417322835
 30
0.0
 10
2.921515748031496
 20
2.705661417322835
 30
0.0
 10
2.921515748031496
 20
2.705661417322835
 30
0.0
 10
2.941366141732284
 20
2.688618110236221
 30
0.0
 10
2.941366141732284
 20
2.688618110236221
 30
0.0
 10
2.941366141732284
 20
2.688618110236221
 30
0.0
 10
2.941366141732284
 20
2.688618110236221
 30
0.0
 10
2.958795275590551
 20
2.671417322834646
 30
0.0
 10
2.958795275590551
 20
2.671417322834646
 30
0.0
 10
2.958795275590551
 20
2.671417322834646
 30
0.0
 10
2.958795275590551
 20
2.671417322834646
 30
0.0
 10
2.973783464566929
 20
2.654098425196851
 30
0.0
 10
2.973783464566929
 20
2.654098425196851
 30
0.0
 10
2.973783464566929
 20
2.654098425196851
 30
0.0
 10
2.973783464566929
 20
2.654098425196851
 30
0.0
 10
2.986330708661417
 20
2.636692913385827
 30
0.0
 10
2.986330708661417
 20
2.636692913385827
 30
0.0
 10
2.986330708661417
 20
2.636692913385827
 30
0.0
 10
2.986330708661417
 20
2.636692913385827
 30
0.0
 10
2.996413385826772
 20
2.619251968503937
 30
0.0
 10
2.996413385826772
 20
2.619251968503937
 30
0.0
 10
2.996413385826772
 20
2.619251968503937
 30
0.0
 10
2.996413385826772
 20
2.619251968503937
 30
0.0
 10
3.004031496062992
 20
2.601787401574803
 30
0.0
 10
3.004031496062992
 20
2.601787401574803
 30
0.0
 10
3.004031496062992
 20
2.601787401574803
 30
0.0
 10
3.004031496062992
 20
2.601787401574803
 30
0.0
 10
3.009169291338583
 20
2.584350393700788
 30
0.0
 10
3.009169291338583
 20
2.584350393700788
 30
0.0
 10
3.009169291338583
 20
2.584350393700788
 30
0.0
 10
3.009169291338583
 20
2.584350393700788
 30
0.0
 10
3.01182283464567
 20
2.566968503937008
 30
0.0
 10
3.01182283464567
 20
2.566968503937008
 30
0.0
 10
3.01182283464567
 20
2.566968503937008
 30
0.0
 10
3.01182283464567
 20
2.566968503937008
 30
0.0
 10
3.010232283464567
 20
1.818586614173228
 30
0.0
 10
3.010232283464567
 20
1.818586614173228
 30
0.0
 10
3.010232283464567
 20
1.818586614173228
 30
0.0
 10
3.010232283464567
 20
1.818586614173228
 30
0.0
 10
3.00757874015748
 20
1.835968503937008
 30
0.0
 10
3.00757874015748
 20
1.835968503937008
 30
0.0
 10
3.00757874015748
 20
1.835968503937008
 30
0.0
 10
3.00757874015748
 20
1.835968503937008
 30
0.0
 10
3.00244094488189
 20
1.853405511811024
 30
0.0
 10
3.00244094488189
 20
1.853405511811024
 30
0.0
 10
3.00244094488189
 20
1.853405511811024
 30
0.0
 10
3.00244094488189
 20
1.853405511811024
 30
0.0
 10
2.99482283464567
 20
1.870870078740158
 30
0.0
 10
2.99482283464567
 20
1.870870078740158
 30
0.0
 10
2.99482283464567
 20
1.870870078740158
 30
0.0
 10
2.99482283464567
 20
1.870870078740158
 30
0.0
 10
2.984740157480315
 20
1.888311023622047
 30
0.0
 10
2.984740157480315
 20
1.888311023622047
 30
0.0
 10
2.984740157480315
 20
1.888311023622047
 30
0.0
 10
2.984740157480315
 20
1.888311023622047
 30
0.0
 10
2.972192913385827
 20
1.905716535433071
 30
0.0
 10
2.972192913385827
 20
1.905716535433071
 30
0.0
 10
2.972192913385827
 20
1.905716535433071
 30
0.0
 10
2.972192913385827
 20
1.905716535433071
 30
0.0
 10
2.957204724409449
 20
1.923035433070866
 30
0.0
 10
2.957204724409449
 20
1.923035433070866
 30
0.0
 10
2.957204724409449
 20
1.923035433070866
 30
0.0
 10
2.957204724409449
 20
1.923035433070866
 30
0.0
 10
2.939775590551181
 20
1.940236220472441
 30
0.0
 10
2.939775590551181
 20
1.940236220472441
 30
0.0
 10
2.939775590551181
 20
1.940236220472441
 30
0.0
 10
2.939775590551181
 20
1.940236220472441
 30
0.0
 10
2.919925196850394
 20
1.957279527559055
 30
0.0
 10
2.919925196850394
 20
1.957279527559055
 30
0.0
 10
2.919925196850394
 20
1.957279527559055
 30
0.0
 10
2.919925196850394
 20
1.957279527559055
 30
0.0
 10
2.897649606299213
 20
1.974149606299213
 30
0.0
 10
2.897649606299213
 20
1.974149606299213
 30
0.0
 10
2.897649606299213
 20
1.974149606299213
 30
0.0
 10
2.897649606299213
 20
1.974149606299213
 30
0.0
 10
2.872972440944882
 20
1.990787401574803
 30
0.0
 10
2.872972440944882
 20
1.990787401574803
 30
0.0
 10
2.872972440944882
 20
1.990787401574803
 30
0.0
 10
2.872972440944882
 20
1.990787401574803
 30
0.0
 10
2.845897637795276
 20
2.007173228346457
 30
0.0
 10
2.845897637795276
 20
2.007173228346457
 30
0.0
 10
2.845897637795276
 20
2.007173228346457
 30
0.0
 10
2.845897637795276
 20
2.007173228346457
 30
0.0
 10
2.816444881889764
 20
2.023259842519685
 30
0.0
 10
2.816444881889764
 20
2.023259842519685
 30
0.0
 10
2.816444881889764
 20
2.023259842519685
 30
0.0
 10
2.816444881889764
 20
2.023259842519685
 30
0.0
 10
2.784610236220473
 20
2.039023622047244
 30
0.0
 10
2.784610236220473
 20
2.039023622047244
 30
0.0
 10
2.784610236220473
 20
2.039023622047244
 30
0.0
 10
2.784610236220473
 20
2.039023622047244
 30
0.0
 10
2.750417322834646
 20
2.05442125984252
 30
0.0
 10
2.750417322834646
 20
2.05442125984252
 30
0.0
 10
2.750417322834646
 20
2.05442125984252
 30
0.0
 10
2.750417322834646
 20
2.05442125984252
 30
0.0
 10
2.713870078740158
 20
2.06942125984252
 30
0.0
 10
2.713870078740158
 20
2.06942125984252
 30
0.0
 10
2.713870078740158
 20
2.06942125984252
 30
0.0
 10
2.713870078740158
 20
2.06942125984252
 30
0.0
 10
2.674984251968504
 20
2.083984251968504
 30
0.0
 10
2.674984251968504
 20
2.083984251968504
 30
0.0
 10
2.674984251968504
 20
2.083984251968504
 30
0.0
 10
2.674984251968504
 20
2.083984251968504
 30
0.0
 10
2.633759842519685
 20
2.098086614173229
 30
0.0
 10
2.633759842519685
 20
2.098086614173229
 30
0.0
 10
2.633759842519685
 20
2.098086614173229
 30
0.0
 10
2.633759842519685
 20
2.098086614173229
 30
0.0
 10
2.590216535433071
 20
2.111681102362205
 30
0.0
 10
2.590216535433071
 20
2.111681102362205
 30
0.0
 10
2.590216535433071
 20
2.111681102362205
 30
0.0
 10
2.590216535433071
 20
2.111681102362205
 30
0.0
 10
2.544358267716536
 20
2.124740157480315
 30
0.0
 10
2.544358267716536
 20
2.124740157480315
 30
0.0
 10
2.544358267716536
 20
2.124740157480315
 30
0.0
 10
2.544358267716536
 20
2.124740157480315
 30
0.0
 10
2.496204724409449
 20
2.137220472440945
 30
0.0
 10
2.496204724409449
 20
2.137220472440945
 30
0.0
 10
2.496204724409449
 20
2.137220472440945
 30
0.0
 10
2.496204724409449
 20
2.137220472440945
 30
0.0
 10
2.445751968503937
 20
2.149098425196851
 30
0.0
 10
2.445751968503937
 20
2.149098425196851
 30
0.0
 10
2.445751968503937
 20
2.149098425196851
 30
0.0
 10
2.445751968503937
 20
2.149098425196851
 30
0.0
 10
2.393027559055118
 20
2.160322834645669
 30
0.0
 10
2.393027559055118
 20
2.160322834645669
 30
0.0
 10
2.393027559055118
 20
2.160322834645669
 30
0.0
 10
2.393027559055118
 20
2.160322834645669
 30
0.0
 10
2.338031496062992
 20
2.170874015748032
 30
0.0
 10
2.338031496062992
 20
2.170874015748032
 30
0.0
 10
2.338031496062992
 20
2.170874015748032
 30
0.0
 10
2.338031496062992
 20
2.170874015748032
 30
0.0
 10
2.280783464566929
 20
2.180704724409449
 30
0.0
 10
2.280783464566929
 20
2.180704724409449
 30
0.0
  0
SPLINE
  5
7B
330
1F
100
AcDbEntity
  8
LAYER_1
 62
     7
100
AcDbSpline
210
0.0
220
0.0
230
1.0
 70
    11
 71
     3
 72
    36
 73
    32
 74
     0
 42
0.0000000001
 43
0.0000000001
 40
0.0
 40
0.0
 40
0.0
 40
0.0
 40
0.125
 40
0.125
 40
0.125
 40
0.125
 40
0.25
 40
0.25
 40
0.25
 40
0.25
 40
0.375
 40
0.375
 40
0.375
 40
0.375
 40
0.5
 40
0.5
 40
0.5
 40
0.5
 40
0.625
 40
0.625
 40
0.625
 40
0.625
 40
0.75
 40
0.75
 40
0.75
 40
0.75
 40
0.875
 40
0.875
 40
0.875
 40
0.875
 40
1.0
 40
1.0
 40
1.0
 40
1.0
 10
1.552244094488189
 20
2.349814960629921
 30
0.0
 10
1.552244094488189
 20
2.349814960629921
 30
0.0
 10
2.280783464566929
 20
2.349814960629921
 30
0.0
 10
2.280783464566929
 20
2.349814960629921
 30
0.0
 10
2.280783464566929
 20
2.349814960629921
 30
0.0
 10
2.280783464566929
 20
2.349814960629921
 30
0.0
 10
2.280783464566929
 20
2.180704724409449
 30
0.0
 10
2.280783464566929
 20
2.180704724409449
 30
0.0
 10
2.280783464566929
 20
2.180704724409449
 30
0.0
 10
2.90351968503937
 20
2.079720472440945
 30
0.0
 10
3.142515748031496
 20
1.850822834645669
 30
0.0
 10
2.940547244094488
 20
1.68588188976378
 30
0.0
 10
2.940547244094488
 20
1.68588188976378
 30
0.0
 10
2.940547244094488
 20
1.68588188976378
 30
0.0
 10
2.940547244094488
 20
1.663303149606299
 30
0.0
 10
2.940547244094488
 20
1.663303149606299
 30
0.0
 10
2.940547244094488
 20
1.663303149606299
 30
0.0
 10
2.940547244094488
 20
1.663303149606299
 30
0.0
 10
3.082653543307087
 20
1.663303149606299
 30
0.0
 10
3.082653543307087
 20
1.663303149606299
 30
0.0
 10
3.082653543307087
 20
1.663303149606299
 30
0.0
 10
3.082653543307087
 20
1.663303149606299
 30
0.0
 10
3.082653543307087
 20
1.434858267716536
 30
0.0
 10
3.082653543307087
 20
1.434858267716536
 30
0.0
 10
3.082653543307087
 20
1.434858267716536
 30
0.0
 10
3.082653543307087
 20
1.434858267716536
 30
0.0
 10
1.552244094488189
 20
1.434858267716536
 30
0.0
 10
1.552244094488189
 20
1.434858267716536
 30
0.0
 10
1.552244094488189
 20
1.434858267716536
 30
0.0
 10
1.552244094488189
 20
1.434858267716536
 30
0.0
 10
1.552244094488189
 20
2.349814960629921
 30
0.0
 10
1.552244094488189
 20
2.349814960629921
 30
0.0
  0
SPLINE
  5
7C
330
1F
100
AcDbEntity
  8
LAYER_1
 62
   250
100
AcDbSpline
210
0.0
220
0.0
230
1.0
 70
    11
 71
     3
 72
   104
 73
   100
 74
     0
 42
0.0000000001
 43
0.0000000001
 40
0.0
 40
0.0
 40
0.0
 40
0.0
 40
0.04
 40
0.04
 40
0.04
 40
0.04
 40
0.08
 40
0.08
 40
0.08
 40
0.08
 40
0.12
 40
0.12
 40
0.12
 40
0.12
 40
0.16
 40
0.16
 40
0.16
 40
0.16
 40
0.2
 40
0.2
 40
0.2
 40
0.2
 40
0.24
 40
0.24
 40
0.24
 40
0.24
 40
0.28
 40
0.28
 40
0.28
 40
0.28
 40
0.32
 40
0.32
 40
0.32
 40
0.32
 40
0.36
 40
0.36
 40
0.36
 40
0.36
 40
0.4
 40
0.4
 40
0.4
 40
0.4
 40
0.44
 40
0.44
 40
0.44
 40
0.44
 40
0.4799999999999999
 40
0.4799999999999999
 40
0.4799999999999999
 40
0.4799999999999999
 40
0.5199999999999999
 40
0.5199999999999999
 40
0.5199999999999999
 40
0.5199999999999999
 40
0.5599999999999999
 40
0.5599999999999999
 40
0.5599999999999999
 40
0.5599999999999999
 40
0.6
 40
0.6
 40
0.6
 40
0.6
 40
0.64
 40
0.64
 40
0.64
 40
0.64
 40
0.6800000000000001
 40
0.6800000000000001
 40
0.6800000000000001
 40
0.6800000000000001
 40
0.7200000000000001
 40
0.7200000000000001
 40
0.7200000000000001
 40
0.7200000000000001
 40
0.7600000000000001
 40
0.7600000000000001
 40
0.7600000000000001
 40
0.7600000000000001
 40
0.8000000000000002
 40
0.8000000000000002
 40
0.8000000000000002
 40
0.8000000000000002
 40
0.8400000000000002
 40
0.8400000000000002
 40
0.8400000000000002
 40
0.8400000000000002
 40
0.8800000000000002
 40
0.8800000000000002
 40
0.8800000000000002
 40
0.8800000000000002
 40
0.9200000000000003
 40
0.9200000000000003
 40
0.9200000000000003
 40
0.9200000000000003
 40
0.9600000000000003
 40
0.9600000000000003
 40
0.9600000000000003
 40
0.9600000000000003
 40
1.0
 40
1.0
 40
1.0
 40
1.0
 10
1.949645669291339
 20
1.321188976377953
 30
0.0
 10
1.949645669291339
 20
1.321188976377953
 30
0.0
 10
2.003618110236221
 20
1.321188976377953
 30
0.0
 10
2.003618110236221
 20
1.321188976377953
 30
0.0
 10
2.003618110236221
 20
1.321188976377953
 30
0.0
 10
2.016787401574803
 20
1.321188976377953
 30
0.0
 10
2.025814960629921
 20
1.32057874015748
 30
0.0
 10
2.030700787401575
 20
1.31938188976378
 30
0.0
 10
2.030700787401575
 20
1.31938188976378
 30
0.0
 10
2.037925196850394
 20
1.317661417322835
 30
0.0
 10
2.043618110236221
 20
1.314523622047244
 30
0.0
 10
2.04784251968504
 20
1.309964566929134
 30
0.0
 10
2.04784251968504
 20
1.309964566929134
 30
0.0
 10
2.052035433070866
 20
1.305409448818898
 30
0.0
 10
2.054145669291339
 20
1.299909448818898
 30
0.0
 10
2.054145669291339
 20
1.293523622047244
 30
0.0
 10
2.054145669291339
 20
1.293523622047244
 30
0.0
 10
2.054145669291339
 20
1.288909448818898
 30
0.0
 10
2.053035433070866
 20
1.284771653543307
 30
0.0
 10
2.050814960629921
 20
1.281106299212599
 30
0.0
 10
2.050814960629921
 20
1.281106299212599
 30
0.0
 10
2.048590551181102
 20
1.277437007874016
 30
0.0
 10
2.04534251968504
 20
1.274299212598425
 30
0.0
 10
2.041118110236221
 20
1.271716535433071
 30
0.0
 10
2.041118110236221
 20
1.271716535433071
 30
0.0
 10
2.038397637795276
 20
1.270023622047244
 30
0.0
 10
2.034728346456693
 20
1.26857874015748
 30
0.0
 10
2.030062992125985
 20
1.26738188976378
 30
0.0
 10
2.030062992125985
 20
1.26738188976378
 30
0.0
 10
2.03598031496063
 20
1.266299212598425
 30
0.0
 10
2.04048031496063
 20
1.264996062992126
 30
0.0
 10
2.043562992125984
 20
1.263496062992126
 30
0.0
 10
2.043562992125984
 20
1.263496062992126
 30
0.0
 10
2.048228346456693
 20
1.261216535433071
 30
0.0
 10
2.051925196850394
 20
1.257968503937008
 30
0.0
 10
2.054618110236221
 20
1.253716535433071
 30
0.0
 10
2.054618110236221
 20
1.253716535433071
 30
0.0
 10
2.057342519685039
 20
1.249496062992126
 30
0.0
 10
2.058700787401575
 20
1.244716535433071
 30
0.0
 10
2.058700787401575
 20
1.239409448818898
 30
0.0
 10
2.058700787401575
 20
1.239409448818898
 30
0.0
 10
2.058700787401575
 20
1.234244094488189
 30
0.0
 10
2.057370078740158
 20
1.229468503937008
 30
0.0
 10
2.054700787401575
 20
1.22507874015748
 30
0.0
 10
2.054700787401575
 20
1.22507874015748
 30
0.0
 10
2.052062992125984
 20
1.220688976377953
 30
0.0
 10
2.048287401574803
 20
1.21707874015748
 30
0.0
 10
2.043452755905512
 20
1.214244094488189
 30
0.0
 10
2.043452755905512
 20
1.214244094488189
 30
0.0
 10
2.038590551181102
 20
1.21144094488189
 30
0.0
 10
2.032925196850394
 20
1.209633858267717
 30
0.0
 10
2.02648031496063
 20
1.208826771653544
 30
0.0
 10
2.02648031496063
 20
1.208826771653544
 30
0.0
 10
2.020007874015748
 20
1.208051181102362
 30
0.0
 10
2.013370078740158
 20
1.207661417322835
 30
0.0
 10
2.006535433070866
 20
1.207661417322835
 30
0.0
 10
2.006535433070866
 20
1.207661417322835
 30
0.0
 10
2.006535433070866
 20
1.207661417322835
 30
0.0
 10
1.949645669291339
 20
1.207661417322835
 30
0.0
 10
1.949645669291339
 20
1.207661417322835
 30
0.0
 10
1.949645669291339
 20
1.207661417322835
 30
0.0
 10
1.949645669291339
 20
1.207661417322835
 30
0.0
 10
1.949645669291339
 20
1.214496062992126
 30
0.0
 10
1.949645669291339
 20
1.214496062992126
 30
0.0
 10
1.949645669291339
 20
1.214496062992126
 30
0.0
 10
1.949645669291339
 20
1.214496062992126
 30
0.0
 10
1.95348031496063
 20
1.214496062992126
 30
0.0
 10
1.95348031496063
 20
1.214496062992126
 30
0.0
 10
1.95348031496063
 20
1.214496062992126
 30
0.0
 10
1.957177165354331
 20
1.214496062992126
 30
0.0
 10
1.959677165354331
 20
1.21507874015748
 30
0.0
 10
1.961035433070866
 20
1.216216535433071
 30
0.0
 10
1.961035433070866
 20
1.216216535433071
 30
0.0
 10
1.963007874015748
 20
1.217771653543307
 30
0.0
 10
1.96398031496063
 20
1.22038188976378
 30
0.0
 10
1.96398031496063
 20
1.224023622047244
 30
0.0
 10
1.96398031496063
 20
1.224023622047244
 30
0.0
 10
1.96398031496063
 20
1.224023622047244
 30
0.0
 10
1.96398031496063
 20
1.30288188976378
 30
0.0
 10
1.96398031496063
 20
1.30288188976378
 30
0.0
 10
1.96398031496063
 20
1.30288188976378
 30
0.0
 10
1.96398031496063
 20
1.30657874015748
 30
0.0
 10
1.963677165354331
 20
1.30907874015748
 30
0.0
 10
1.963090551181103
 20
1.310437007874016
 30
0.0
 10
1.963090551181103
 20
1.310437007874016
 30
0.0
 10
1.96248031496063
 20
1.311799212598425
 30
0.0
 10
1.961590551181103
 20
1.312771653543307
 30
0.0
 10
1.960397637795276
 20
1.31338188976378
 30
0.0
 10
1.960397637795276
 20
1.31338188976378
 30
0.0
 10
1.959204724409449
 20
1.313964566929134
 30
0.0
 10
1.956897637795276
 20
1.314271653543307
 30
0.0
 10
1.95348031496063
 20
1.314271653543307
 30
0.0
 10
1.95348031496063
 20
1.314271653543307
 30
0.0
 10
1.95348031496063
 20
1.314271653543307
 30
0.0
 10
1.949645669291339
 20
1.314271653543307
 30
0.0
 10
1.949645669291339
 20
1.314271653543307
 30
0.0
 10
1.949645669291339
 20
1.314271653543307
 30
0.0
 10
1.949645669291339
 20
1.314271653543307
 30
0.0
 10
1.949645669291339
 20
1.321188976377953
 30
0.0
 10
1.949645669291339
 20
1.321188976377953
 30
0.0
  0
SPLINE
  5
7D
330
1F
100
AcDbEntity
  8
LAYER_1
 62
   250
100
AcDbSpline
210
0.0
220
0.0
230
1.0
 70
    11
 71
     3
 72
    40
 73
    36
 74
     0
 42
0.0000000001
 43
0.0000000001
 40
0.0
 40
0.0
 40
0.0
 40
0.0
 40
0.1111111111111111
 40
0.1111111111111111
 40
0.1111111111111111
 40
0.1111111111111111
 40
0.2222222222222222
 40
0.2222222222222222
 40
0.2222222222222222
 40
0.2222222222222222
 40
0.3333333333333333
 40
0.3333333333333333
 40
0.3333333333333333
 40
0.3333333333333333
 40
0.4444444444444444
 40
0.4444444444444444
 40
0.4444444444444444
 40
0.4444444444444444
 40
0.5555555555555556
 40
0.5555555555555556
 40
0.5555555555555556
 40
0.5555555555555556
 40
0.6666666666666667
 40
0.6666666666666667
 40
0.6666666666666667
 40
0.6666666666666667
 40
0.7777777777777779
 40
0.7777777777777779
 40
0.7777777777777779
 40
0.7777777777777779
 40
0.8888888888888891
 40
0.8888888888888891
 40
0.8888888888888891
 40
0.8888888888888891
 40
1.0
 40
1.0
 40
1.0
 40
1.0
 10
1.979204724409449
 20
1.312161417322835
 30
0.0
 10
1.979204724409449
 20
1.312161417322835
 30
0.0
 10
1.979204724409449
 20
1.27057874015748
 30
0.0
 10
1.979204724409449
 20
1.27057874015748
 30
0.0
 10
1.979204724409449
 20
1.27057874015748
 30
0.0
 10
1.979204724409449
 20
1.27057874015748
 30
0.0
 10
1.999952755905512
 20
1.27057874015748
 30
0.0
 10
1.999952755905512
 20
1.27057874015748
 30
0.0
 10
1.999952755905512
 20
1.27057874015748
 30
0.0
 10
2.009645669291339
 20
1.27057874015748
 30
0.0
 10
2.016314960629921
 20
1.271023622047244
 30
0.0
 10
2.019870078740158
 20
1.271937007874016
 30
0.0
 10
2.019870078740158
 20
1.271937007874016
 30
0.0
 10
2.02548031496063
 20
1.273409448818898
 30
0.0
 10
2.029728346456693
 20
1.275909448818898
 30
0.0
 10
2.032700787401575
 20
1.279437007874016
 30
0.0
 10
2.032700787401575
 20
1.279437007874016
 30
0.0
 10
2.035645669291339
 20
1.282964566929134
 30
0.0
 10
2.037145669291339
 20
1.287496062992126
 30
0.0
 10
2.037145669291339
 20
1.293023622047244
 30
0.0
 10
2.037145669291339
 20
1.293023622047244
 30
0.0
 10
2.037145669291339
 20
1.297688976377953
 30
0.0
 10
2.035787401574803
 20
1.30157874015748
 30
0.0
 10
2.033118110236221
 20
1.304716535433071
 30
0.0
 10
2.033118110236221
 20
1.304716535433071
 30
0.0
 10
2.030425196850394
 20
1.307826771653543
 30
0.0
 10
2.026814960629921
 20
1.309964566929134
 30
0.0
 10
2.022314960629922
 20
1.311106299212599
 30
0.0
 10
2.022314960629922
 20
1.311106299212599
 30
0.0
 10
2.019397637795276
 20
1.311799212598425
 30
0.0
 10
2.013314960629921
 20
1.312161417322835
 30
0.0
 10
2.004090551181102
 20
1.312161417322835
 30
0.0
 10
2.004090551181102
 20
1.312161417322835
 30
0.0
 10
2.004090551181102
 20
1.312161417322835
 30
0.0
 10
1.979204724409449
 20
1.312161417322835
 30
0.0
 10
1.979204724409449
 20
1.312161417322835
 30
0.0
  0
SPLINE
  5
7E
330
1F
100
AcDbEntity
  8
LAYER_1
 62
   250
100
AcDbSpline
210
0.0
220
0.0
230
1.0
 70
    11
 71
     3
 72
    52
 73
    48
 74
     0
 42
0.0000000001
 43
0.0000000001
 40
0.0
 40
0.0
 40
0.0
 40
0.0
 40
0.0833333333333333
 40
0.0833333333333333
 40
0.0833333333333333
 40
0.0833333333333333
 40
0.1666666666666667
 40
0.1666666666666667
 40
0.1666666666666667
 40
0.1666666666666667
 40
0.25
 40
0.25
 40
0.25
 40
0.25
 40
0.3333333333333333
 40
0.3333333333333333
 40
0.3333333333333333
 40
0.3333333333333333
 40
0.4166666666666666
 40
0.4166666666666666
 40
0.4166666666666666
 40
0.4166666666666666
 40
0.4999999999999999
 40
0.4999999999999999
 40
0.4999999999999999
 40
0.4999999999999999
 40
0.5833333333333333
 40
0.5833333333333333
 40
0.5833333333333333
 40
0.5833333333333333
 40
0.6666666666666666
 40
0.6666666666666666
 40
0.6666666666666666
 40
0.6666666666666666
 40
0.75
 40
0.75
 40
0.75
 40
0.75
 40
0.8333333333333334
 40
0.8333333333333334
 40
0.8333333333333334
 40
0.8333333333333334
 40
0.9166666666666667
 40
0.9166666666666667
 40
0.9166666666666667
 40
0.9166666666666667
 40
1.0
 40
1.0
 40
1.0
 40
1.0
 10
1.979204724409449
 20
1.262744094488189
 30
0.0
 10
1.979204724409449
 20
1.262744094488189
 30
0.0
 10
1.979204724409449
 20
1.225496062992126
 30
0.0
 10
1.979204724409449
 20
1.225496062992126
 30
0.0
 10
1.979204724409449
 20
1.225496062992126
 30
0.0
 10
1.979204724409449
 20
1.221744094488189
 30
0.0
 10
1.979370078740158
 20
1.219523622047244
 30
0.0
 10
1.979673228346457
 20
1.218799212598425
 30
0.0
 10
1.979673228346457
 20
1.218799212598425
 30
0.0
 10
1.980118110236221
 20
1.217826771653543
 30
0.0
 10
1.98098031496063
 20
1.217161417322835
 30
0.0
 10
1.982287401574803
 20
1.216771653543307
 30
0.0
 10
1.982287401574803
 20
1.216771653543307
 30
0.0
 10
1.983204724409449
 20
1.216496062992126
 30
0.0
 10
1.985814960629921
 20
1.216354330708662
 30
0.0
 10
1.990090551181103
 20
1.216354330708662
 30
0.0
 10
1.990090551181103
 20
1.216354330708662
 30
0.0
 10
1.990090551181103
 20
1.216354330708662
 30
0.0
 10
2.001173228346457
 20
1.216354330708662
 30
0.0
 10
2.001173228346457
 20
1.216354330708662
 30
0.0
 10
2.001173228346457
 20
1.216354330708662
 30
0.0
 10
2.012118110236221
 20
1.216354330708662
 30
0.0
 10
2.019952755905512
 20
1.216968503937008
 30
0.0
 10
2.024645669291339
 20
1.218188976377953
 30
0.0
 10
2.024645669291339
 20
1.218188976377953
 30
0.0
 10
2.02934251968504
 20
1.219409448818898
 30
0.0
 10
2.03334251968504
 20
1.221996062992126
 30
0.0
 10
2.036645669291339
 20
1.22594094488189
 30
0.0
 10
2.036645669291339
 20
1.22594094488189
 30
0.0
 10
2.039952755905512
 20
1.229854330708662
 30
0.0
 10
2.041618110236221
 20
1.234606299212599
 30
0.0
 10
2.041618110236221
 20
1.240133858267717
 30
0.0
 10
2.041618110236221
 20
1.240133858267717
 30
0.0
 10
2.041618110236221
 20
1.244799212598425
 30
0.0
 10
2.040259842519685
 20
1.248937007874016
 30
0.0
 10
2.037590551181102
 20
1.252551181102362
 30
0.0
 10
2.037590551181102
 20
1.252551181102362
 30
0.0
 10
2.034897637795276
 20
1.256161417322835
 30
0.0
 10
2.031173228346457
 20
1.258744094488189
 30
0.0
 10
2.026425196850394
 20
1.260354330708662
 30
0.0
 10
2.026425196850394
 20
1.260354330708662
 30
0.0
 10
2.021673228346457
 20
1.261968503937008
 30
0.0
 10
2.013259842519685
 20
1.262744094488189
 30
0.0
 10
2.001173228346457
 20
1.262744094488189
 30
0.0
 10
2.001173228346457
 20
1.262744094488189
 30
0.0
 10
2.001173228346457
 20
1.262744094488189
 30
0.0
 10
1.979204724409449
 20
1.262744094488189
 30
0.0
 10
1.979204724409449
 20
1.262744094488189
 30
0.0
  0
SPLINE
  5
7F
330
1F
100
AcDbEntity
  8
LAYER_1
 62
   250
100
AcDbSpline
210
0.0
220
0.0
230
1.0
 70
    11
 71
     3
 72
   112
 73
   108
 74
     0
 42
0.0000000001
 43
0.0000000001
 40
0.0
 40
0.0
 40
0.0
 40
0.0
 40
0.037037037037037
 40
0.037037037037037
 40
0.037037037037037
 40
0.037037037037037
 40
0.0740740740740741
 40
0.0740740740740741
 40
0.0740740740740741
 40
0.0740740740740741
 40
0.1111111111111111
 40
0.1111111111111111
 40
0.1111111111111111
 40
0.1111111111111111
 40
0.1481481481481481
 40
0.1481481481481481
 40
0.1481481481481481
 40
0.1481481481481481
 40
0.1851851851851852
 40
0.1851851851851852
 40
0.1851851851851852
 40
0.1851851851851852
 40
0.2222222222222222
 40
0.2222222222222222
 40
0.2222222222222222
 40
0.2222222222222222
 40
0.2592592592592592
 40
0.2592592592592592
 40
0.2592592592592592
 40
0.2592592592592592
 40
0.2962962962962963
 40
0.2962962962962963
 40
0.2962962962962963
 40
0.2962962962962963
 40
0.3333333333333333
 40
0.3333333333333333
 40
0.3333333333333333
 40
0.3333333333333333
 40
0.3703703703703704
 40
0.3703703703703704
 40
0.3703703703703704
 40
0.3703703703703704
 40
0.4074074074074074
 40
0.4074074074074074
 40
0.4074074074074074
 40
0.4074074074074074
 40
0.4444444444444444
 40
0.4444444444444444
 40
0.4444444444444444
 40
0.4444444444444444
 40
0.4814814814814815
 40
0.4814814814814815
 40
0.4814814814814815
 40
0.4814814814814815
 40
0.5185185185185185
 40
0.5185185185185185
 40
0.5185185185185185
 40
0.5185185185185185
 40
0.5555555555555556
 40
0.5555555555555556
 40
0.5555555555555556
 40
0.5555555555555556
 40
0.5925925925925926
 40
0.5925925925925926
 40
0.5925925925925926
 40
0.5925925925925926
 40
0.6296296296296295
 40
0.6296296296296295
 40
0.6296296296296295
 40
0.6296296296296295
 40
0.6666666666666665
 40
0.6666666666666665
 40
0.6666666666666665
 40
0.6666666666666665
 40
0.7037037037037035
 40
0.7037037037037035
 40
0.7037037037037035
 40
0.7037037037037035
 40
0.7407407407407405
 40
0.7407407407407405
 40
0.7407407407407405
 40
0.7407407407407405
 40
0.7777777777777775
 40
0.7777777777777775
 40
0.7777777777777775
 40
0.7777777777777775
 40
0.8148148148148144
 40
0.8148148148148144
 40
0.8148148148148144
 40
0.8148148148148144
 40
0.8518518518518514
 40
0.8518518518518514
 40
0.8518518518518514
 40
0.8518518518518514
 40
0.8888888888888884
 40
0.8888888888888884
 40
0.8888888888888884
 40
0.8888888888888884
 40
0.9259259259259254
 40
0.9259259259259254
 40
0.9259259259259254
 40
0.9259259259259254
 40
0.9629629629629624
 40
0.9629629629629624
 40
0.9629629629629624
 40
0.9629629629629624
 40
1.0
 40
1.0
 40
1.0
 40
1.0
 10
2.116311023622048
 20
1.321188976377953
 30
0.0
 10
2.116311023622048
 20
1.321188976377953
 30
0.0
 10
2.129728346456693
 20
1.321188976377953
 30
0.0
 10
2.129728346456693
 20
1.321188976377953
 30
0.0
 10
2.129728346456693
 20
1.321188976377953
 30
0.0
 10
2.129728346456693
 20
1.321188976377953
 30
0.0
 10
2.164976377952756
 20
1.226299212598425
 30
0.0
 10
2.164976377952756
 20
1.226299212598425
 30
0.0
 10
2.164976377952756
 20
1.226299212598425
 30
0.0
 10
2.166700787401575
 20
1.221523622047244
 30
0.0
 10
2.168448818897638
 20
1.218354330708662
 30
0.0
 10
2.170228346456693
 20
1.216826771653543
 30
0.0
 10
2.170228346456693
 20
1.216826771653543
 30
0.0
 10
2.171976377952756
 20
1.215271653543307
 30
0.0
 10
2.174366141732284
 20
1.214496062992126
 30
0.0
 10
2.177338582677165
 20
1.214496062992126
 30
0.0
 10
2.177338582677165
 20
1.214496062992126
 30
0.0
 10
2.177338582677165
 20
1.214496062992126
 30
0.0
 10
2.179118110236221
 20
1.214496062992126
 30
0.0
 10
2.179118110236221
 20
1.214496062992126
 30
0.0
 10
2.179118110236221
 20
1.214496062992126
 30
0.0
 10
2.179118110236221
 20
1.214496062992126
 30
0.0
 10
2.179118110236221
 20
1.207661417322835
 30
0.0
 10
2.179118110236221
 20
1.207661417322835
 30
0.0
 10
2.179118110236221
 20
1.207661417322835
 30
0.0
 10
2.179118110236221
 20
1.207661417322835
 30
0.0
 10
2.138673228346457
 20
1.207661417322835
 30
0.0
 10
2.138673228346457
 20
1.207661417322835
 30
0.0
 10
2.138673228346457
 20
1.207661417322835
 30
0.0
 10
2.138673228346457
 20
1.207661417322835
 30
0.0
 10
2.138673228346457
 20
1.214496062992126
 30
0.0
 10
2.138673228346457
 20
1.214496062992126
 30
0.0
 10
2.138673228346457
 20
1.214496062992126
 30
0.0
 10
2.139976377952756
 20
1.214606299212599
 30
0.0
 10
2.141255905511811
 20
1.214661417322835
 30
0.0
 10
2.142507874015748
 20
1.214661417322835
 30
0.0
 10
2.142507874015748
 20
1.214661417322835
 30
0.0
 10
2.145118110236221
 20
1.214661417322835
 30
0.0
 10
2.146811023622048
 20
1.21494094488189
 30
0.0
 10
2.147645669291339
 20
1.215468503937008
 30
0.0
 10
2.147645669291339
 20
1.215468503937008
 30
0.0
 10
2.149200787401575
 20
1.216496062992126
 30
0.0
 10
2.150003937007874
 20
1.217799212598425
 30
0.0
 10
2.150003937007874
 20
1.21938188976378
 30
0.0
 10
2.150003937007874
 20
1.21938188976378
 30
0.0
 10
2.150003937007874
 20
1.220523622047244
 30
0.0
 10
2.149228346456693
 20
1.223299212598425
 30
0.0
 10
2.147728346456693
 20
1.227771653543307
 30
0.0
 10
2.147728346456693
 20
1.227771653543307
 30
0.0
 10
2.147728346456693
 20
1.227771653543307
 30
0.0
 10
2.140228346456693
 20
1.249744094488189
 30
0.0
 10
2.140228346456693
 20
1.249744094488189
 30
0.0
 10
2.140228346456693
 20
1.249744094488189
 30
0.0
 10
2.140228346456693
 20
1.249744094488189
 30
0.0
 10
2.099062992125985
 20
1.249744094488189
 30
0.0
 10
2.099062992125985
 20
1.249744094488189
 30
0.0
 10
2.099062992125985
 20
1.249744094488189
 30
0.0
 10
2.099062992125985
 20
1.249744094488189
 30
0.0
 10
2.090255905511811
 20
1.225161417322835
 30
0.0
 10
2.090255905511811
 20
1.225161417322835
 30
0.0
 10
2.090255905511811
 20
1.225161417322835
 30
0.0
 10
2.089338582677165
 20
1.222606299212599
 30
0.0
 10
2.088866141732284
 20
1.220854330708662
 30
0.0
 10
2.088866141732284
 20
1.219854330708662
 30
0.0
 10
2.088866141732284
 20
1.219854330708662
 30
0.0
 10
2.088866141732284
 20
1.218771653543307
 30
0.0
 10
2.089173228346457
 20
1.217826771653543
 30
0.0
 10
2.089728346456693
 20
1.217023622047244
 30
0.0
 10
2.089728346456693
 20
1.217023622047244
 30
0.0
 10
2.090311023622047
 20
1.216216535433071
 30
0.0
 10
2.091062992125985
 20
1.215606299212598
 30
0.0
 10
2.092062992125984
 20
1.215188976377953
 30
0.0
 10
2.092062992125984
 20
1.215188976377953
 30
0.0
 10
2.093035433070866
 20
1.214771653543307
 30
0.0
 10
2.094590551181102
 20
1.21457874015748
 30
0.0
 10
2.096783464566929
 20
1.21457874015748
 30
0.0
 10
2.096783464566929
 20
1.21457874015748
 30
0.0
 10
2.098228346456693
 20
1.21457874015748
 30
0.0
 10
2.09942125984252
 20
1.214551181102362
 30
0.0
 10
2.100338582677165
 20
1.214496062992126
 30
0.0
 10
2.100338582677165
 20
1.214496062992126
 30
0.0
 10
2.100338582677165
 20
1.214496062992126
 30
0.0
 10
2.100338582677165
 20
1.207661417322835
 30
0.0
 10
2.100338582677165
 20
1.207661417322835
 30
0.0
 10
2.100338582677165
 20
1.207661417322835
 30
0.0
 10
2.100338582677165
 20
1.207661417322835
 30
0.0
 10
2.06642125984252
 20
1.207661417322835
 30
0.0
 10
2.06642125984252
 20
1.207661417322835
 30
0.0
 10
2.06642125984252
 20
1.207661417322835
 30
0.0
 10
2.06642125984252
 20
1.207661417322835
 30
0.0
 10
2.06642125984252
 20
1.214496062992126
 30
0.0
 10
2.06642125984252
 20
1.214496062992126
 30
0.0
 10
2.06642125984252
 20
1.214496062992126
 30
0.0
 10
2.069562992125984
 20
1.214496062992126
 30
0.0
 10
2.071838582677165
 20
1.214799212598425
 30
0.0
 10
2.073200787401575
 20
1.21544094488189
 30
0.0
 10
2.073200787401575
 20
1.21544094488189
 30
0.0
 10
2.074590551181102
 20
1.216051181102362
 30
0.0
 10
2.075811023622047
 20
1.217051181102362
 30
0.0
 10
2.076838582677166
 20
1.21844094488189
 30
0.0
 10
2.076838582677166
 20
1.21844094488189
 30
0.0
 10
2.077866141732284
 20
1.219826771653543
 30
0.0
 10
2.079228346456693
 20
1.222744094488189
 30
0.0
 10
2.080893700787402
 20
1.227188976377953
 30
0.0
 10
2.080893700787402
 20
1.227188976377953
 30
0.0
 10
2.080893700787402
 20
1.227188976377953
 30
0.0
 10
2.116311023622048
 20
1.321188976377953
 30
0.0
 10
2.116311023622048
 20
1.321188976377953
 30
0.0
  0
SPLINE
  5
80
330
1F
100
AcDbEntity
  8
LAYER_1
 62
   250
100
AcDbSpline
210
0.0
220
0.0
230
1.0
 70
    11
 71
     3
 72
    16
 73
    12
 74
     0
 42
0.0000000001
 43
0.0000000001
 40
0.0
 40
0.0
 40
0.0
 40
0.0
 40
0.3333333333333333
 40
0.3333333333333333
 40
0.3333333333333333
 40
0.3333333333333333
 40
0.6666666666666666
 40
0.6666666666666666
 40
0.6666666666666666
 40
0.6666666666666666
 40
1.0
 40
1.0
 40
1.0
 40
1.0
 10
2.102062992125984
 20
1.257716535433071
 30
0.0
 10
2.102062992125984
 20
1.257716535433071
 30
0.0
 10
2.137145669291339
 20
1.257716535433071
 30
0.0
 10
2.137145669291339
 20
1.257716535433071
 30
0.0
 10
2.137145669291339
 20
1.257716535433071
 30
0.0
 10
2.137145669291339
 20
1.257716535433071
 30
0.0
 10
2.119562992125984
 20
1.306551181102362
 30
0.0
 10
2.119562992125984
 20
1.306551181102362
 30
0.0
 10
2.119562992125984
 20
1.306551181102362
 30
0.0
 10
2.119562992125984
 20
1.306551181102362
 30
0.0
 10
2.102062992125984
 20
1.257716535433071
 30
0.0
 10
2.102062992125984
 20
1.257716535433071
 30
0.0
  0
SPLINE
  5
81
330
1F
100
AcDbEntity
  8
LAYER_1
 62
   250
100
AcDbSpline
210
0.0
220
0.0
230
1.0
 70
    11
 71
     3
 72
    72
 73
    68
 74
     0
 42
0.0000000001
 43
0.0000000001
 40
0.0
 40
0.0
 40
0.0
 40
0.0
 40
0.0588235294117647
 40
0.0588235294117647
 40
0.0588235294117647
 40
0.0588235294117647
 40
0.1176470588235294
 40
0.1176470588235294
 40
0.1176470588235294
 40
0.1176470588235294
 40
0.1764705882352941
 40
0.1764705882352941
 40
0.1764705882352941
 40
0.1764705882352941
 40
0.2352941176470588
 40
0.2352941176470588
 40
0.2352941176470588
 40
0.2352941176470588
 40
0.2941176470588235
 40
0.2941176470588235
 40
0.2941176470588235
 40
0.2941176470588235
 40
0.3529411764705883
 40
0.3529411764705883
 40
0.3529411764705883
 40
0.3529411764705883
 40
0.411764705882353
 40
0.411764705882353
 40
0.411764705882353
 40
0.411764705882353
 40
0.4705882352941177
 40
0.4705882352941177
 40
0.4705882352941177
 40
0.4705882352941177
 40
0.5294117647058824
 40
0.5294117647058824
 40
0.5294117647058824
 40
0.5294117647058824
 40
0.5882352941176471
 40
0.5882352941176471
 40
0.5882352941176471
 40
0.5882352941176471
 40
0.6470588235294118
 40
0.6470588235294118
 40
0.6470588235294118
 40
0.6470588235294118
 40
0.7058823529411765
 40
0.7058823529411765
 40
0.7058823529411765
 40
0.7058823529411765
 40
0.7647058823529412
 40
0.7647058823529412
 40
0.7647058823529412
 40
0.7647058823529412
 40
0.823529411764706
 40
0.823529411764706
 40
0.823529411764706
 40
0.823529411764706
 40
0.8823529411764707
 40
0.8823529411764707
 40
0.8823529411764707
 40
0.8823529411764707
 40
0.9411764705882354
 40
0.9411764705882354
 40
0.9411764705882354
 40
0.9411764705882354
 40
1.0
 40
1.0
 40
1.0
 40
1.0
 10
2.342145669291339
 20
1.321188976377953
 30
0.0
 10
2.342145669291339
 20
1.321188976377953
 30
0.0
 10
2.348228346456693
 20
1.321188976377953
 30
0.0
 10
2.348228346456693
 20
1.321188976377953
 30
0.0
 10
2.348228346456693
 20
1.321188976377953
 30
0.0
 10
2.348228346456693
 20
1.321188976377953
 30
0.0
 10
2.348228346456693
 20
1.22694094488189
 30
0.0
 10
2.348228346456693
 20
1.22694094488189
 30
0.0
 10
2.348228346456693
 20
1.22694094488189
 30
0.0
 10
2.348228346456693
 20
1.222496062992126
 30
0.0
 10
2.348535433070866
 20
1.219633858267717
 30
0.0
 10
2.349090551181102
 20
1.218354330708662
 30
0.0
 10
2.349090551181102
 20
1.218354330708662
 30
0.0
 10
2.349673228346457
 20
1.21707874015748
 30
0.0
 10
2.350590551181103
 20
1.216133858267717
 30
0.0
 10
2.351893700787402
 20
1.215468503937008
 30
0.0
 10
2.351893700787402
 20
1.215468503937008
 30
0.0
 10
2.353200787401575
 20
1.214826771653543
 30
0.0
 10
2.355783464566929
 20
1.214496062992126
 30
0.0
 10
2.359645669291339
 20
1.214496062992126
 30
0.0
 10
2.359645669291339
 20
1.214496062992126
 30
0.0
 10
2.359645669291339
 20
1.214496062992126
 30
0.0
 10
2.36761811023622
 20
1.214496062992126
 30
0.0
 10
2.36761811023622
 20
1.214496062992126
 30
0.0
 10
2.36761811023622
 20
1.214496062992126
 30
0.0
 10
2.36761811023622
 20
1.214496062992126
 30
0.0
 10
2.36761811023622
 20
1.207661417322835
 30
0.0
 10
2.36761811023622
 20
1.207661417322835
 30
0.0
 10
2.36761811023622
 20
1.207661417322835
 30
0.0
 10
2.36761811023622
 20
1.207661417322835
 30
0.0
 10
2.31398031496063
 20
1.207661417322835
 30
0.0
 10
2.31398031496063
 20
1.207661417322835
 30
0.0
 10
2.31398031496063
 20
1.207661417322835
 30
0.0
 10
2.31398031496063
 20
1.207661417322835
 30
0.0
 10
2.31398031496063
 20
1.214496062992126
 30
0.0
 10
2.31398031496063
 20
1.214496062992126
 30
0.0
 10
2.31398031496063
 20
1.214496062992126
 30
0.0
 10
2.31398031496063
 20
1.214496062992126
 30
0.0
 10
2.322838582677166
 20
1.214496062992126
 30
0.0
 10
2.322838582677166
 20
1.214496062992126
 30
0.0
 10
2.322838582677166
 20
1.214496062992126
 30
0.0
 10
2.326700787401575
 20
1.214496062992126
 30
0.0
 10
2.329255905511811
 20
1.214826771653543
 30
0.0
 10
2.330535433070866
 20
1.215523622047244
 30
0.0
 10
2.330535433070866
 20
1.215523622047244
 30
0.0
 10
2.331811023622048
 20
1.216188976377953
 30
0.0
 10
2.332811023622047
 20
1.217271653543307
 30
0.0
 10
2.333507874015748
 20
1.218771653543307
 30
0.0
 10
2.333507874015748
 20
1.218771653543307
 30
0.0
 10
2.334200787401575
 20
1.220271653543307
 30
0.0
 10
2.334562992125985
 20
1.222996062992126
 30
0.0
 10
2.334562992125985
 20
1.22694094488189
 30
0.0
 10
2.334562992125985
 20
1.22694094488189
 30
0.0
 10
2.334562992125985
 20
1.22694094488189
 30
0.0
 10
2.334562992125985
 20
1.304409448818898
 30
0.0
 10
2.334562992125985
 20
1.304409448818898
 30
0.0
 10
2.334562992125985
 20
1.304409448818898
 30
0.0
 10
2.334562992125985
 20
1.304409448818898
 30
0.0
 10
2.31398031496063
 20
1.304409448818898
 30
0.0
 10
2.31398031496063
 20
1.304409448818898
 30
0.0
 10
2.31398031496063
 20
1.304409448818898
 30
0.0
 10
2.31398031496063
 20
1.304409448818898
 30
0.0
 10
2.31398031496063
 20
1.311409448818898
 30
0.0
 10
2.31398031496063
 20
1.311409448818898
 30
0.0
 10
2.31398031496063
 20
1.311409448818898
 30
0.0
 10
2.325200787401575
 20
1.312992125984252
 30
0.0
 10
2.334590551181103
 20
1.316244094488189
 30
0.0
 10
2.342145669291339
 20
1.321188976377953
 30
0.0
  0
SPLINE
  5
82
330
1F
100
AcDbEntity
  8
LAYER_1
 62
   250
100
AcDbSpline
210
0.0
220
0.0
230
1.0
 70
    11
 71
     3
 72
    80
 73
    76
 74
     0
 42
0.0000000001
 43
0.0000000001
 40
0.0
 40
0.0
 40
0.0
 40
0.0
 40
0.0526315789473684
 40
0.0526315789473684
 40
0.0526315789473684
 40
0.0526315789473684
 40
0.1052631578947368
 40
0.1052631578947368
 40
0.1052631578947368
 40
0.1052631578947368
 40
0.1578947368421053
 40
0.1578947368421053
 40
0.1578947368421053
 40
0.1578947368421053
 40
0.2105263157894737
 40
0.2105263157894737
 40
0.2105263157894737
 40
0.2105263157894737
 40
0.2631578947368421
 40
0.2631578947368421
 40
0.2631578947368421
 40
0.2631578947368421
 40
0.3157894736842105
 40
0.3157894736842105
 40
0.3157894736842105
 40
0.3157894736842105
 40
0.3684210526315789
 40
0.3684210526315789
 40
0.3684210526315789
 40
0.3684210526315789
 40
0.4210526315789474
 40
0.4210526315789474
 40
0.4210526315789474
 40
0.4210526315789474
 40
0.4736842105263158
 40
0.4736842105263158
 40
0.4736842105263158
 40
0.4736842105263158
 40
0.5263157894736842
 40
0.5263157894736842
 40
0.5263157894736842
 40
0.5263157894736842
 40
0.5789473684210527
 40
0.5789473684210527
 40
0.5789473684210527
 40
0.5789473684210527
 40
0.631578947368421
 40
0.631578947368421
 40
0.631578947368421
 40
0.631578947368421
 40
0.6842105263157894
 40
0.6842105263157894
 40
0.6842105263157894
 40
0.6842105263157894
 40
0.7368421052631577
 40
0.7368421052631577
 40
0.7368421052631577
 40
0.7368421052631577
 40
0.7894736842105261
 40
0.7894736842105261
 40
0.7894736842105261
 40
0.7894736842105261
 40
0.8421052631578945
 40
0.8421052631578945
 40
0.8421052631578945
 40
0.8421052631578945
 40
0.8947368421052628
 40
0.8947368421052628
 40
0.8947368421052628
 40
0.8947368421052628
 40
0.9473684210526312
 40
0.9473684210526312
 40
0.9473684210526312
 40
0.9473684210526312
 40
1.0
 40
1.0
 40
1.0
 40
1.0
 10
2.407562992125985
 20
1.325326771653543
 30
0.0
 10
2.407562992125985
 20
1.325326771653543
 30
0.0
 10
2.412952755905512
 20
1.325326771653543
 30
0.0
 10
2.412952755905512
 20
1.325326771653543
 30
0.0
 10
2.412952755905512
 20
1.325326771653543
 30
0.0
 10
2.412952755905512
 20
1.325326771653543
 30
0.0
 10
2.413925196850394
 20
1.321188976377953
 30
0.0
 10
2.413925196850394
 20
1.321188976377953
 30
0.0
 10
2.413925196850394
 20
1.321188976377953
 30
0.0
 10
2.413925196850394
 20
1.321188976377953
 30
0.0
 10
2.485035433070866
 20
1.321188976377953
 30
0.0
 10
2.485035433070866
 20
1.321188976377953
 30
0.0
 10
2.485035433070866
 20
1.321188976377953
 30
0.0
 10
2.485035433070866
 20
1.321188976377953
 30
0.0
 10
2.485035433070866
 20
1.314271653543307
 30
0.0
 10
2.485035433070866
 20
1.314271653543307
 30
0.0
 10
2.485035433070866
 20
1.314271653543307
 30
0.0
 10
2.476535433070866
 20
1.304437007874016
 30
0.0
 10
2.468811023622048
 20
1.293271653543307
 30
0.0
 10
2.461897637795276
 20
1.280688976377953
 30
0.0
 10
2.461897637795276
 20
1.280688976377953
 30
0.0
 10
2.45498031496063
 20
1.268133858267717
 30
0.0
 10
2.449618110236221
 20
1.255354330708661
 30
0.0
 10
2.445811023622047
 20
1.242326771653543
 30
0.0
 10
2.445811023622047
 20
1.242326771653543
 30
0.0
 10
2.443062992125984
 20
1.23294094488189
 30
0.0
 10
2.440814960629921
 20
1.22138188976378
 30
0.0
 10
2.439062992125984
 20
1.207661417322835
 30
0.0
 10
2.439062992125984
 20
1.207661417322835
 30
0.0
 10
2.439062992125984
 20
1.207661417322835
 30
0.0
 10
2.422397637795276
 20
1.207661417322835
 30
0.0
 10
2.422397637795276
 20
1.207661417322835
 30
0.0
 10
2.422397637795276
 20
1.207661417322835
 30
0.0
 10
2.424007874015748
 20
1.219771653543307
 30
0.0
 10
2.426673228346457
 20
1.23107874015748
 30
0.0
 10
2.430397637795276
 20
1.241606299212599
 30
0.0
 10
2.430397637795276
 20
1.241606299212599
 30
0.0
 10
2.43411811023622
 20
1.252133858267717
 30
0.0
 10
2.43948031496063
 20
1.263133858267717
 30
0.0
 10
2.446507874015748
 20
1.274606299212598
 30
0.0
 10
2.446507874015748
 20
1.274606299212598
 30
0.0
 10
2.453535433070866
 20
1.286078740157481
 30
0.0
 10
2.462062992125985
 20
1.297523622047244
 30
0.0
 10
2.472118110236221
 20
1.308964566929134
 30
0.0
 10
2.472118110236221
 20
1.308964566929134
 30
0.0
 10
2.472118110236221
 20
1.308964566929134
 30
0.0
 10
2.421397637795276
 20
1.308964566929134
 30
0.0
 10
2.421397637795276
 20
1.308964566929134
 30
0.0
 10
2.421397637795276
 20
1.308964566929134
 30
0.0
 10
2.417728346456693
 20
1.308964566929134
 30
0.0
 10
2.415200787401575
 20
1.308799212598425
 30
0.0
 10
2.413842519685039
 20
1.308409448818898
 30
0.0
 10
2.413842519685039
 20
1.308409448818898
 30
0.0
 10
2.41248031496063
 20
1.308023622047244
 30
0.0
 10
2.411425196850394
 20
1.307437007874016
 30
0.0
 10
2.410673228346457
 20
1.306633858267717
 30
0.0
 10
2.410673228346457
 20
1.306633858267717
 30
0.0
 10
2.409897637795276
 20
1.305799212598425
 30
0.0
 10
2.409255905511811
 20
1.304354330708661
 30
0.0
 10
2.408700787401575
 20
1.302299212598425
 30
0.0
 10
2.408700787401575
 20
1.302299212598425
 30
0.0
 10
2.408700787401575
 20
1.302299212598425
 30
0.0
 10
2.408314960629921
 20
1.300771653543307
 30
0.0
 10
2.408314960629921
 20
1.300771653543307
 30
0.0
 10
2.408314960629921
 20
1.300771653543307
 30
0.0
 10
2.408314960629921
 20
1.300771653543307
 30
0.0
 10
2.405535433070866
 20
1.291161417322835
 30
0.0
 10
2.405535433070866
 20
1.291161417322835
 30
0.0
 10
2.405535433070866
 20
1.291161417322835
 30
0.0
 10
2.405535433070866
 20
1.291161417322835
 30
0.0
 10
2.398618110236221
 20
1.292633858267717
 30
0.0
 10
2.398618110236221
 20
1.292633858267717
 30
0.0
 10
2.398618110236221
 20
1.292633858267717
 30
0.0
 10
2.398618110236221
 20
1.292633858267717
 30
0.0
 10
2.407562992125985
 20
1.325326771653543
 30
0.0
 10
2.407562992125985
 20
1.325326771653543
 30
0.0
  0
SPLINE
  5
83
330
1F
100
AcDbEntity
  8
LAYER_1
 62
   250
100
AcDbSpline
210
0.0
220
0.0
230
1.0
 70
    11
 71
     3
 72
    72
 73
    68
 74
     0
 42
0.0000000001
 43
0.0000000001
 40
0.0
 40
0.0
 40
0.0
 40
0.0
 40
0.0588235294117647
 40
0.0588235294117647
 40
0.0588235294117647
 40
0.0588235294117647
 40
0.1176470588235294
 40
0.1176470588235294
 40
0.1176470588235294
 40
0.1176470588235294
 40
0.1764705882352941
 40
0.1764705882352941
 40
0.1764705882352941
 40
0.1764705882352941
 40
0.2352941176470588
 40
0.2352941176470588
 40
0.2352941176470588
 40
0.2352941176470588
 40
0.2941176470588235
 40
0.2941176470588235
 40
0.2941176470588235
 40
0.2941176470588235
 40
0.3529411764705883
 40
0.3529411764705883
 40
0.3529411764705883
 40
0.3529411764705883
 40
0.411764705882353
 40
0.411764705882353
 40
0.411764705882353
 40
0.411764705882353
 40
0.4705882352941177
 40
0.4705882352941177
 40
0.4705882352941177
 40
0.4705882352941177
 40
0.5294117647058824
 40
0.5294117647058824
 40
0.5294117647058824
 40
0.5294117647058824
 40
0.5882352941176471
 40
0.5882352941176471
 40
0.5882352941176471
 40
0.5882352941176471
 40
0.6470588235294118
 40
0.6470588235294118
 40
0.6470588235294118
 40
0.6470588235294118
 40
0.7058823529411765
 40
0.7058823529411765
 40
0.7058823529411765
 40
0.7058823529411765
 40
0.7647058823529412
 40
0.7647058823529412
 40
0.7647058823529412
 40
0.7647058823529412
 40
0.823529411764706
 40
0.823529411764706
 40
0.823529411764706
 40
0.823529411764706
 40
0.8823529411764707
 40
0.8823529411764707
 40
0.8823529411764707
 40
0.8823529411764707
 40
0.9411764705882354
 40
0.9411764705882354
 40
0.9411764705882354
 40
0.9411764705882354
 40
1.0
 40
1.0
 40
1.0
 40
1.0
 10
2.548870078740158
 20
1.321188976377953
 30
0.0
 10
2.548870078740158
 20
1.321188976377953
 30
0.0
 10
2.554952755905512
 20
1.321188976377953
 30
0.0
 10
2.554952755905512
 20
1.321188976377953
 30
0.0
 10
2.554952755905512
 20
1.321188976377953
 30
0.0
 10
2.554952755905512
 20
1.321188976377953
 30
0.0
 10
2.554952755905512
 20
1.22694094488189
 30
0.0
 10
2.554952755905512
 20
1.22694094488189
 30
0.0
 10
2.554952755905512
 20
1.22694094488189
 30
0.0
 10
2.554952755905512
 20
1.222496062992126
 30
0.0
 10
2.555259842519685
 20
1.219633858267717
 30
0.0
 10
2.555814960629921
 20
1.218354330708662
 30
0.0
 10
2.555814960629921
 20
1.218354330708662
 30
0.0
 10
2.556397637795276
 20
1.21707874015748
 30
0.0
 10
2.557314960629921
 20
1.216133858267717
 30
0.0
 10
2.558618110236221
 20
1.215468503937008
 30
0.0
 10
2.558618110236221
 20
1.215468503937008
 30
0.0
 10
2.559925196850394
 20
1.214826771653543
 30
0.0
 10
2.562507874015748
 20
1.214496062992126
 30
0.0
 10
2.566370078740158
 20
1.214496062992126
 30
0.0
 10
2.566370078740158
 20
1.214496062992126
 30
0.0
 10
2.566370078740158
 20
1.214496062992126
 30
0.0
 10
2.57434251968504
 20
1.214496062992126
 30
0.0
 10
2.57434251968504
 20
1.214496062992126
 30
0.0
 10
2.57434251968504
 20
1.214496062992126
 30
0.0
 10
2.57434251968504
 20
1.214496062992126
 30
0.0
 10
2.57434251968504
 20
1.207661417322835
 30
0.0
 10
2.57434251968504
 20
1.207661417322835
 30
0.0
 10
2.57434251968504
 20
1.207661417322835
 30
0.0
 10
2.57434251968504
 20
1.207661417322835
 30
0.0
 10
2.520704724409449
 20
1.207661417322835
 30
0.0
 10
2.520704724409449
 20
1.207661417322835
 30
0.0
 10
2.520704724409449
 20
1.207661417322835
 30
0.0
 10
2.520704724409449
 20
1.207661417322835
 30
0.0
 10
2.520704724409449
 20
1.214496062992126
 30
0.0
 10
2.520704724409449
 20
1.214496062992126
 30
0.0
 10
2.520704724409449
 20
1.214496062992126
 30
0.0
 10
2.520704724409449
 20
1.214496062992126
 30
0.0
 10
2.529562992125984
 20
1.214496062992126
 30
0.0
 10
2.529562992125984
 20
1.214496062992126
 30
0.0
 10
2.529562992125984
 20
1.214496062992126
 30
0.0
 10
2.533425196850394
 20
1.214496062992126
 30
0.0
 10
2.53598031496063
 20
1.214826771653543
 30
0.0
 10
2.537259842519685
 20
1.215523622047244
 30
0.0
 10
2.537259842519685
 20
1.215523622047244
 30
0.0
 10
2.538535433070866
 20
1.216188976377953
 30
0.0
 10
2.539535433070866
 20
1.217271653543307
 30
0.0
 10
2.540232283464567
 20
1.218771653543307
 30
0.0
 10
2.540232283464567
 20
1.218771653543307
 30
0.0
 10
2.540925196850394
 20
1.220271653543307
 30
0.0
 10
2.541287401574803
 20
1.222996062992126
 30
0.0
 10
2.541287401574803
 20
1.22694094488189
 30
0.0
 10
2.541287401574803
 20
1.22694094488189
 30
0.0
 10
2.541287401574803
 20
1.22694094488189
 30
0.0
 10
2.541287401574803
 20
1.304409448818898
 30
0.0
 10
2.541287401574803
 20
1.304409448818898
 30
0.0
 10
2.541287401574803
 20
1.304409448818898
 30
0.0
 10
2.541287401574803
 20
1.304409448818898
 30
0.0
 10
2.520704724409449
 20
1.304409448818898
 30
0.0
 10
2.520704724409449
 20
1.304409448818898
 30
0.0
 10
2.520704724409449
 20
1.304409448818898
 30
0.0
 10
2.520704724409449
 20
1.304409448818898
 30
0.0
 10
2.520704724409449
 20
1.311409448818898
 30
0.0
 10
2.520704724409449
 20
1.311409448818898
 30
0.0
 10
2.520704724409449
 20
1.311409448818898
 30
0.0
 10
2.531925196850394
 20
1.312992125984252
 30
0.0
 10
2.541314960629921
 20
1.316244094488189
 30
0.0
 10
2.548870078740158
 20
1.321188976377953
 30
0.0
  0
SPLINE
  5
84
330
1F
100
AcDbEntity
  8
LAYER_1
 62
   250
100
AcDbSpline
210
0.0
220
0.0
230
1.0
 70
    11
 71
     3
 72
    76
 73
    72
 74
     0
 42
0.0000000001
 43
0.0000000001
 40
0.0
 40
0.0
 40
0.0
 40
0.0
 40
0.0555555555555556
 40
0.0555555555555556
 40
0.0555555555555556
 40
0.0555555555555556
 40
0.1111111111111111
 40
0.1111111111111111
 40
0.1111111111111111
 40
0.1111111111111111
 40
0.1666666666666667
 40
0.1666666666666667
 40
0.1666666666666667
 40
0.1666666666666667
 40
0.2222222222222222
 40
0.2222222222222222
 40
0.2222222222222222
 40
0.2222222222222222
 40
0.2777777777777778
 40
0.2777777777777778
 40
0.2777777777777778
 40
0.2777777777777778
 40
0.3333333333333334
 40
0.3333333333333334
 40
0.3333333333333334
 40
0.3333333333333334
 40
0.388888888888889
 40
0.388888888888889
 40
0.388888888888889
 40
0.388888888888889
 40
0.4444444444444445
 40
0.4444444444444445
 40
0.4444444444444445
 40
0.4444444444444445
 40
0.5000000000000001
 40
0.5000000000000001
 40
0.5000000000000001
 40
0.5000000000000001
 40
0.5555555555555557
 40
0.5555555555555557
 40
0.5555555555555557
 40
0.5555555555555557
 40
0.6111111111111113
 40
0.6111111111111113
 40
0.6111111111111113
 40
0.6111111111111113
 40
0.6666666666666669
 40
0.6666666666666669
 40
0.6666666666666669
 40
0.6666666666666669
 40
0.7222222222222224
 40
0.7222222222222224
 40
0.7222222222222224
 40
0.7222222222222224
 40
0.777777777777778
 40
0.777777777777778
 40
0.777777777777778
 40
0.777777777777778
 40
0.8333333333333336
 40
0.8333333333333336
 40
0.8333333333333336
 40
0.8333333333333336
 40
0.8888888888888892
 40
0.8888888888888892
 40
0.8888888888888892
 40
0.8888888888888892
 40
0.9444444444444448
 40
0.9444444444444448
 40
0.9444444444444448
 40
0.9444444444444448
 40
1.0
 40
1.0
 40
1.0
 40
1.0
 10
2.660677165354331
 20
1.270661417322835
 30
0.0
 10
2.667094488188976
 20
1.268216535433071
 30
0.0
 10
2.67198031496063
 20
1.265909448818898
 30
0.0
 10
2.67534251968504
 20
1.263744094488189
 30
0.0
 10
2.67534251968504
 20
1.263744094488189
 30
0.0
 10
2.680259842519685
 20
1.26057874015748
 30
0.0
 10
2.68398031496063
 20
1.25688188976378
 30
0.0
 10
2.68648031496063
 20
1.252633858267717
 30
0.0
 10
2.68648031496063
 20
1.252633858267717
 30
0.0
 10
2.68898031496063
 20
1.248354330708662
 30
0.0
 10
2.690232283464567
 20
1.243744094488189
 30
0.0
 10
2.690232283464567
 20
1.238744094488189
 30
0.0
 10
2.690232283464567
 20
1.238744094488189
 30
0.0
 10
2.690232283464567
 20
1.229799212598425
 30
0.0
 10
2.686370078740158
 20
1.222051181102362
 30
0.0
 10
2.678677165354331
 20
1.215523622047244
 30
0.0
 10
2.678677165354331
 20
1.215523622047244
 30
0.0
 10
2.670952755905512
 20
1.208968503937008
 30
0.0
 10
2.660566929133859
 20
1.205716535433071
 30
0.0
 10
2.647507874015748
 20
1.205716535433071
 30
0.0
 10
2.647507874015748
 20
1.205716535433071
 30
0.0
 10
2.633677165354331
 20
1.205716535433071
 30
0.0
 10
2.622814960629921
 20
1.209409448818898
 30
0.0
 10
2.614952755905512
 20
1.216771653543307
 30
0.0
 10
2.614952755905512
 20
1.216771653543307
 30
0.0
 10
2.608704724409449
 20
1.222688976377953
 30
0.0
 10
2.605594488188976
 20
1.22938188976378
 30
0.0
 10
2.605594488188976
 20
1.23688188976378
 30
0.0
 10
2.605594488188976
 20
1.23688188976378
 30
0.0
 10
2.605594488188976
 20
1.242909448818898
 30
0.0
 10
2.607704724409449
 20
1.248299212598425
 30
0.0
 10
2.611925196850394
 20
1.25307874015748
 30
0.0
 10
2.611925196850394
 20
1.25307874015748
 30
0.0
 10
2.61703937007874
 20
1.258771653543307
 30
0.0
 10
2.624314960629921
 20
1.263216535433071
 30
0.0
 10
2.633759842519685
 20
1.266409448818898
 30
0.0
 10
2.633759842519685
 20
1.266409448818898
 30
0.0
 10
2.626370078740158
 20
1.26988188976378
 30
0.0
 10
2.621066929133858
 20
1.273409448818898
 30
0.0
 10
2.617787401574803
 20
1.276996062992126
 30
0.0
 10
2.617787401574803
 20
1.276996062992126
 30
0.0
 10
2.613622047244095
 20
1.281716535433071
 30
0.0
 10
2.61153937007874
 20
1.28738188976378
 30
0.0
 10
2.61153937007874
 20
1.293992125984252
 30
0.0
 10
2.61153937007874
 20
1.293992125984252
 30
0.0
 10
2.61153937007874
 20
1.302188976377953
 30
0.0
 10
2.614622047244095
 20
1.308826771653543
 30
0.0
 10
2.620814960629921
 20
1.313854330708661
 30
0.0
 10
2.620814960629921
 20
1.313854330708661
 30
0.0
 10
2.628397637795276
 20
1.320051181102362
 30
0.0
 10
2.637897637795276
 20
1.323133858267717
 30
0.0
 10
2.649287401574803
 20
1.323133858267717
 30
0.0
 10
2.649287401574803
 20
1.323133858267717
 30
0.0
 10
2.659704724409449
 20
1.323133858267717
 30
0.0
 10
2.668122047244095
 20
1.320464566929134
 30
0.0
 10
2.674566929133858
 20
1.315133858267717
 30
0.0
 10
2.674566929133858
 20
1.315133858267717
 30
0.0
 10
2.68098031496063
 20
1.309771653543307
 30
0.0
 10
2.684204724409449
 20
1.303661417322835
 30
0.0
 10
2.684204724409449
 20
1.296771653543307
 30
0.0
 10
2.684204724409449
 20
1.296771653543307
 30
0.0
 10
2.684204724409449
 20
1.293354330708662
 30
0.0
 10
2.683397637795276
 20
1.290078740157481
 30
0.0
 10
2.681814960629922
 20
1.286964566929134
 30
0.0
 10
2.681814960629922
 20
1.286964566929134
 30
0.0
 10
2.680204724409449
 20
1.283854330708661
 30
0.0
 10
2.677759842519685
 20
1.280937007874016
 30
0.0
 10
2.674425196850394
 20
1.278271653543307
 30
0.0
 10
2.674425196850394
 20
1.278271653543307
 30
0.0
 10
2.671122047244094
 20
1.27557874015748
 30
0.0
 10
2.666535433070866
 20
1.273051181102362
 30
0.0
 10
2.660677165354331
 20
1.270661417322835
 30
0.0
  0
SPLINE
  5
85
330
1F
100
AcDbEntity
  8
LAYER_1
 62
   250
100
AcDbSpline
210
0.0
220
0.0
230
1.0
 70
    11
 71
     3
 72
    48
 73
    44
 74
     0
 42
0.0000000001
 43
0.0000000001
 40
0.0
 40
0.0
 40
0.0
 40
0.0
 40
0.0909090909090909
 40
0.0909090909090909
 40
0.0909090909090909
 40
0.0909090909090909
 40
0.1818181818181818
 40
0.1818181818181818
 40
0.1818181818181818
 40
0.1818181818181818
 40
0.2727272727272727
 40
0.2727272727272727
 40
0.2727272727272727
 40
0.2727272727272727
 40
0.3636363636363637
 40
0.3636363636363637
 40
0.3636363636363637
 40
0.3636363636363637
 40
0.4545454545454546
 40
0.4545454545454546
 40
0.4545454545454546
 40
0.4545454545454546
 40
0.5454545454545455
 40
0.5454545454545455
 40
0.5454545454545455
 40
0.5454545454545455
 40
0.6363636363636365
 40
0.6363636363636365
 40
0.6363636363636365
 40
0.6363636363636365
 40
0.7272727272727274
 40
0.7272727272727274
 40
0.7272727272727274
 40
0.7272727272727274
 40
0.8181818181818183
 40
0.8181818181818183
 40
0.8181818181818183
 40
0.8181818181818183
 40
0.9090909090909093
 40
0.9090909090909093
 40
0.9090909090909093
 40
0.9090909090909093
 40
1.0
 40
1.0
 40
1.0
 40
1.0
 10
2.653287401574803
 20
1.273661417322835
 30
0.0
 10
2.659452755905512
 20
1.278326771653543
 30
0.0
 10
2.66348031496063
 20
1.28157874015748
 30
0.0
 10
2.665314960629921
 20
1.283437007874016
 30
0.0
 10
2.665314960629921
 20
1.283437007874016
 30
0.0
 10
2.667177165354331
 20
1.285271653543307
 30
0.0
 10
2.668594488188977
 20
1.28738188976378
 30
0.0
 10
2.669594488188976
 20
1.289744094488189
 30
0.0
 10
2.669594488188976
 20
1.289744094488189
 30
0.0
 10
2.670594488188976
 20
1.292106299212599
 30
0.0
 10
2.671094488188976
 20
1.29438188976378
 30
0.0
 10
2.671094488188976
 20
1.296606299212598
 30
0.0
 10
2.671094488188976
 20
1.296606299212598
 30
0.0
 10
2.671094488188976
 20
1.299799212598425
 30
0.0
 10
2.670149606299213
 20
1.302854330708662
 30
0.0
 10
2.668259842519685
 20
1.305771653543307
 30
0.0
 10
2.668259842519685
 20
1.305771653543307
 30
0.0
 10
2.66634251968504
 20
1.308661417322835
 30
0.0
 10
2.663566929133858
 20
1.311023622047244
 30
0.0
 10
2.659897637795276
 20
1.312799212598425
 30
0.0
 10
2.659897637795276
 20
1.312799212598425
 30
0.0
 10
2.656259842519685
 20
1.314606299212598
 30
0.0
 10
2.652149606299213
 20
1.315492125984252
 30
0.0
 10
2.647594488188977
 20
1.315492125984252
 30
0.0
 10
2.647594488188977
 20
1.315492125984252
 30
0.0
 10
2.64084251968504
 20
1.315492125984252
 30
0.0
 10
2.635259842519685
 20
1.313633858267717
 30
0.0
 10
2.630814960629921
 20
1.309909448818898
 30
0.0
 10
2.630814960629921
 20
1.309909448818898
 30
0.0
 10
2.626370078740158
 20
1.306188976377953
 30
0.0
 10
2.624149606299213
 20
1.301909448818898
 30
0.0
 10
2.624149606299213
 20
1.297023622047244
 30
0.0
 10
2.624149606299213
 20
1.297023622047244
 30
0.0
 10
2.624149606299213
 20
1.293106299212599
 30
0.0
 10
2.62553937007874
 20
1.289606299212599
 30
0.0
 10
2.628287401574804
 20
1.286523622047244
 30
0.0
 10
2.628287401574804
 20
1.286523622047244
 30
0.0
 10
2.631066929133858
 20
1.283437007874016
 30
0.0
 10
2.636204724409449
 20
1.28038188976378
 30
0.0
 10
2.643759842519685
 20
1.277409448818898
 30
0.0
 10
2.643759842519685
 20
1.277409448818898
 30
0.0
 10
2.643759842519685
 20
1.277409448818898
 30
0.0
 10
2.653287401574803
 20
1.273661417322835
 30
0.0
 10
2.653287401574803
 20
1.273661417322835
 30
0.0
  0
SPLINE
  5
86
330
1F
100
AcDbEntity
  8
LAYER_1
 62
   250
100
AcDbSpline
210
0.0
220
0.0
230
1.0
 70
    11
 71
     3
 72
    40
 73
    36
 74
     0
 42
0.0000000001
 43
0.0000000001
 40
0.0
 40
0.0
 40
0.0
 40
0.0
 40
0.1111111111111111
 40
0.1111111111111111
 40
0.1111111111111111
 40
0.1111111111111111
 40
0.2222222222222222
 40
0.2222222222222222
 40
0.2222222222222222
 40
0.2222222222222222
 40
0.3333333333333333
 40
0.3333333333333333
 40
0.3333333333333333
 40
0.3333333333333333
 40
0.4444444444444444
 40
0.4444444444444444
 40
0.4444444444444444
 40
0.4444444444444444
 40
0.5555555555555556
 40
0.5555555555555556
 40
0.5555555555555556
 40
0.5555555555555556
 40
0.6666666666666667
 40
0.6666666666666667
 40
0.6666666666666667
 40
0.6666666666666667
 40
0.7777777777777779
 40
0.7777777777777779
 40
0.7777777777777779
 40
0.7777777777777779
 40
0.8888888888888891
 40
0.8888888888888891
 40
0.8888888888888891
 40
0.8888888888888891
 40
1.0
 40
1.0
 40
1.0
 40
1.0
 10
2.641814960629922
 20
1.263244094488189
 30
0.0
 10
2.634149606299213
 20
1.25988188976378
 30
0.0
 10
2.628094488188976
 20
1.255523622047244
 30
0.0
 10
2.623649606299213
 20
1.250133858267717
 30
0.0
 10
2.623649606299213
 20
1.250133858267717
 30
0.0
 10
2.620177165354331
 20
1.245909448818898
 30
0.0
 10
2.618452755905512
 20
1.241523622047244
 30
0.0
 10
2.618452755905512
 20
1.236968503937008
 30
0.0
 10
2.618452755905512
 20
1.236968503937008
 30
0.0
 10
2.618452755905512
 20
1.230771653543307
 30
0.0
 10
2.621177165354331
 20
1.225271653543307
 30
0.0
 10
2.626677165354331
 20
1.220468503937008
 30
0.0
 10
2.626677165354331
 20
1.220468503937008
 30
0.0
 10
2.632149606299213
 20
1.215688976377953
 30
0.0
 10
2.639232283464567
 20
1.213271653543307
 30
0.0
 10
2.647897637795276
 20
1.213271653543307
 30
0.0
 10
2.647897637795276
 20
1.213271653543307
 30
0.0
 10
2.656759842519685
 20
1.213271653543307
 30
0.0
 10
2.664122047244095
 20
1.216023622047244
 30
0.0
 10
2.670035433070866
 20
1.221496062992126
 30
0.0
 10
2.670035433070866
 20
1.221496062992126
 30
0.0
 10
2.674870078740157
 20
1.22594094488189
 30
0.0
 10
2.677287401574803
 20
1.230716535433071
 30
0.0
 10
2.677287401574803
 20
1.235826771653543
 30
0.0
 10
2.677287401574803
 20
1.235826771653543
 30
0.0
 10
2.677287401574803
 20
1.239826771653543
 30
0.0
 10
2.675704724409449
 20
1.243661417322835
 30
0.0
 10
2.672535433070866
 20
1.247326771653543
 30
0.0
 10
2.672535433070866
 20
1.247326771653543
 30
0.0
 10
2.669342519685039
 20
1.250996062992126
 30
0.0
 10
2.663452755905512
 20
1.254551181102362
 30
0.0
 10
2.654814960629921
 20
1.258023622047244
 30
0.0
 10
2.654814960629921
 20
1.258023622047244
 30
0.0
 10
2.654814960629921
 20
1.258023622047244
 30
0.0
 10
2.641814960629922
 20
1.263244094488189
 30
0.0
 10
2.641814960629922
 20
1.263244094488189
 30
0.0
  0
SPLINE
  5
87
330
1F
100
AcDbEntity
  8
LAYER_1
 62
   250
100
AcDbSpline
210
0.0
220
0.0
230
1.0
 70
    11
 71
     3
 72
    72
 73
    68
 74
     0
 42
0.0000000001
 43
0.0000000001
 40
0.0
 40
0.0
 40
0.0
 40
0.0
 40
0.0588235294117647
 40
0.0588235294117647
 40
0.0588235294117647
 40
0.0588235294117647
 40
0.1176470588235294
 40
0.1176470588235294
 40
0.1176470588235294
 40
0.1176470588235294
 40
0.1764705882352941
 40
0.1764705882352941
 40
0.1764705882352941
 40
0.1764705882352941
 40
0.2352941176470588
 40
0.2352941176470588
 40
0.2352941176470588
 40
0.2352941176470588
 40
0.2941176470588235
 40
0.2941176470588235
 40
0.2941176470588235
 40
0.2941176470588235
 40
0.3529411764705883
 40
0.3529411764705883
 40
0.3529411764705883
 40
0.3529411764705883
 40
0.411764705882353
 40
0.411764705882353
 40
0.411764705882353
 40
0.411764705882353
 40
0.4705882352941177
 40
0.4705882352941177
 40
0.4705882352941177
 40
0.4705882352941177
 40
0.5294117647058824
 40
0.5294117647058824
 40
0.5294117647058824
 40
0.5294117647058824
 40
0.5882352941176471
 40
0.5882352941176471
 40
0.5882352941176471
 40
0.5882352941176471
 40
0.6470588235294118
 40
0.6470588235294118
 40
0.6470588235294118
 40
0.6470588235294118
 40
0.7058823529411765
 40
0.7058823529411765
 40
0.7058823529411765
 40
0.7058823529411765
 40
0.7647058823529412
 40
0.7647058823529412
 40
0.7647058823529412
 40
0.7647058823529412
 40
0.823529411764706
 40
0.823529411764706
 40
0.823529411764706
 40
0.823529411764706
 40
0.8823529411764707
 40
0.8823529411764707
 40
0.8823529411764707
 40
0.8823529411764707
 40
0.9411764705882354
 40
0.9411764705882354
 40
0.9411764705882354
 40
0.9411764705882354
 40
1.0
 40
1.0
 40
1.0
 40
1.0
 10
1.92057874015748
 20
1.133688976377953
 30
0.0
 10
1.92057874015748
 20
1.133688976377953
 30
0.0
 10
1.926661417322835
 20
1.133688976377953
 30
0.0
 10
1.926661417322835
 20
1.133688976377953
 30
0.0
 10
1.926661417322835
 20
1.133688976377953
 30
0.0
 10
1.926661417322835
 20
1.133688976377953
 30
0.0
 10
1.926661417322835
 20
1.03944094488189
 30
0.0
 10
1.926661417322835
 20
1.03944094488189
 30
0.0
 10
1.926661417322835
 20
1.03944094488189
 30
0.0
 10
1.926661417322835
 20
1.034996062992126
 30
0.0
 10
1.926968503937008
 20
1.032133858267717
 30
0.0
 10
1.927523622047244
 20
1.030854330708662
 30
0.0
 10
1.927523622047244
 20
1.030854330708662
 30
0.0
 10
1.928106299212599
 20
1.02957874015748
 30
0.0
 10
1.929023622047244
 20
1.028633858267717
 30
0.0
 10
1.930326771653543
 20
1.027968503937008
 30
0.0
 10
1.930326771653543
 20
1.027968503937008
 30
0.0
 10
1.931633858267717
 20
1.027326771653543
 30
0.0
 10
1.934216535433071
 20
1.026996062992126
 30
0.0
 10
1.93807874015748
 20
1.026996062992126
 30
0.0
 10
1.93807874015748
 20
1.026996062992126
 30
0.0
 10
1.93807874015748
 20
1.026996062992126
 30
0.0
 10
1.946051181102362
 20
1.026996062992126
 30
0.0
 10
1.946051181102362
 20
1.026996062992126
 30
0.0
 10
1.946051181102362
 20
1.026996062992126
 30
0.0
 10
1.946051181102362
 20
1.026996062992126
 30
0.0
 10
1.946051181102362
 20
1.020161417322835
 30
0.0
 10
1.946051181102362
 20
1.020161417322835
 30
0.0
 10
1.946051181102362
 20
1.020161417322835
 30
0.0
 10
1.946051181102362
 20
1.020161417322835
 30
0.0
 10
1.892413385826772
 20
1.020161417322835
 30
0.0
 10
1.892413385826772
 20
1.020161417322835
 30
0.0
 10
1.892413385826772
 20
1.020161417322835
 30
0.0
 10
1.892413385826772
 20
1.020161417322835
 30
0.0
 10
1.892413385826772
 20
1.026996062992126
 30
0.0
 10
1.892413385826772
 20
1.026996062992126
 30
0.0
 10
1.892413385826772
 20
1.026996062992126
 30
0.0
 10
1.892413385826772
 20
1.026996062992126
 30
0.0
 10
1.901271653543307
 20
1.026996062992126
 30
0.0
 10
1.901271653543307
 20
1.026996062992126
 30
0.0
 10
1.901271653543307
 20
1.026996062992126
 30
0.0
 10
1.905133858267717
 20
1.026996062992126
 30
0.0
 10
1.907688976377953
 20
1.027326771653543
 30
0.0
 10
1.908968503937008
 20
1.028023622047244
 30
0.0
 10
1.908968503937008
 20
1.028023622047244
 30
0.0
 10
1.910244094488189
 20
1.028688976377953
 30
0.0
 10
1.911244094488189
 20
1.029771653543307
 30
0.0
 10
1.91194094488189
 20
1.031271653543307
 30
0.0
 10
1.91194094488189
 20
1.031271653543307
 30
0.0
 10
1.912633858267717
 20
1.032771653543307
 30
0.0
 10
1.912996062992126
 20
1.035496062992126
 30
0.0
 10
1.912996062992126
 20
1.03944094488189
 30
0.0
 10
1.912996062992126
 20
1.03944094488189
 30
0.0
 10
1.912996062992126
 20
1.03944094488189
 30
0.0
 10
1.912996062992126
 20
1.116909448818898
 30
0.0
 10
1.912996062992126
 20
1.116909448818898
 30
0.0
 10
1.912996062992126
 20
1.116909448818898
 30
0.0
 10
1.912996062992126
 20
1.116909448818898
 30
0.0
 10
1.892413385826772
 20
1.116909448818898
 30
0.0
 10
1.892413385826772
 20
1.116909448818898
 30
0.0
 10
1.892413385826772
 20
1.116909448818898
 30
0.0
 10
1.892413385826772
 20
1.116909448818898
 30
0.0
 10
1.892413385826772
 20
1.123909448818898
 30
0.0
 10
1.892413385826772
 20
1.123909448818898
 30
0.0
 10
1.892413385826772
 20
1.123909448818898
 30
0.0
 10
1.903633858267717
 20
1.125492125984252
 30
0.0
 10
1.913023622047244
 20
1.128744094488189
 30
0.0
 10
1.92057874015748
 20
1.133688976377953
 30
0.0
  0
SPLINE
  5
88
330
1F
100
AcDbEntity
  8
LAYER_1
 62
   250
100
AcDbSpline
210
0.0
220
0.0
230
1.0
 70
    11
 71
     3
 72
    60
 73
    56
 74
     0
 42
0.0000000001
 43
0.0000000001
 40
0.0
 40
0.0
 40
0.0
 40
0.0
 40
0.0714285714285714
 40
0.0714285714285714
 40
0.0714285714285714
 40
0.0714285714285714
 40
0.1428571428571429
 40
0.1428571428571429
 40
0.1428571428571429
 40
0.1428571428571429
 40
0.2142857142857143
 40
0.2142857142857143
 40
0.2142857142857143
 40
0.2142857142857143
 40
0.2857142857142857
 40
0.2857142857142857
 40
0.2857142857142857
 40
0.2857142857142857
 40
0.3571428571428571
 40
0.3571428571428571
 40
0.3571428571428571
 40
0.3571428571428571
 40
0.4285714285714285
 40
0.4285714285714285
 40
0.4285714285714285
 40
0.4285714285714285
 40
0.4999999999999999
 40
0.4999999999999999
 40
0.4999999999999999
 40
0.4999999999999999
 40
0.5714285714285713
 40
0.5714285714285713
 40
0.5714285714285713
 40
0.5714285714285713
 40
0.6428571428571427
 40
0.6428571428571427
 40
0.6428571428571427
 40
0.6428571428571427
 40
0.7142857142857141
 40
0.7142857142857141
 40
0.7142857142857141
 40
0.7142857142857141
 40
0.7857142857142855
 40
0.7857142857142855
 40
0.7857142857142855
 40
0.7857142857142855
 40
0.8571428571428569
 40
0.8571428571428569
 40
0.8571428571428569
 40
0.8571428571428569
 40
0.9285714285714283
 40
0.9285714285714283
 40
0.9285714285714283
 40
0.9285714285714283
 40
1.0
 40
1.0
 40
1.0
 40
1.0
 10
1.978023622047244
 20
1.091606299212599
 30
0.0
 10
1.978023622047244
 20
1.091606299212599
 30
0.0
 10
1.973633858267717
 20
1.096996062992126
 30
0.0
 10
1.973633858267717
 20
1.096996062992126
 30
0.0
 10
1.973633858267717
 20
1.096996062992126
 30
0.0
 10
1.984748031496063
 20
1.106051181102362
 30
0.0
 10
1.990330708661418
 20
1.113606299212599
 30
0.0
 10
1.990330708661418
 20
1.119688976377953
 30
0.0
 10
1.990330708661418
 20
1.119688976377953
 30
0.0
 10
1.990330708661418
 20
1.12038188976378
 30
0.0
 10
1.990275590551181
 20
1.121271653543307
 30
0.0
 10
1.990161417322835
 20
1.122299212598425
 30
0.0
 10
1.990161417322835
 20
1.122299212598425
 30
0.0
 10
1.989248031496063
 20
1.121909448818898
 30
0.0
 10
1.988330708661418
 20
1.121606299212598
 30
0.0
 10
1.987468503937008
 20
1.121409448818898
 30
0.0
 10
1.987468503937008
 20
1.121409448818898
 30
0.0
 10
1.986606299212599
 20
1.121188976377953
 30
0.0
 10
1.985803149606299
 20
1.12107874015748
 30
0.0
 10
1.985023622047244
 20
1.12107874015748
 30
0.0
 10
1.985023622047244
 20
1.12107874015748
 30
0.0
 10
1.982413385826772
 20
1.12107874015748
 30
0.0
 10
1.980330708661418
 20
1.121909448818898
 30
0.0
 10
1.978775590551181
 20
1.123606299212598
 30
0.0
 10
1.978775590551181
 20
1.123606299212598
 30
0.0
 10
1.977188976377953
 20
1.125271653543307
 30
0.0
 10
1.976413385826772
 20
1.127409448818898
 30
0.0
 10
1.976413385826772
 20
1.130023622047244
 30
0.0
 10
1.976413385826772
 20
1.130023622047244
 30
0.0
 10
1.976413385826772
 20
1.13257874015748
 30
0.0
 10
1.977358267716536
 20
1.134799212598425
 30
0.0
 10
1.979248031496063
 20
1.136688976377953
 30
0.0
 10
1.979248031496063
 20
1.136688976377953
 30
0.0
 10
1.981161417322835
 20
1.138606299212599
 30
0.0
 10
1.98344094488189
 20
1.139551181102362
 30
0.0
 10
1.98607874015748
 20
1.139551181102362
 30
0.0
 10
1.98607874015748
 20
1.139551181102362
 30
0.0
 10
1.989775590551181
 20
1.139551181102362
 30
0.0
 10
1.99294094488189
 20
1.13807874015748
 30
0.0
 10
1.995578740157481
 20
1.135106299212598
 30
0.0
 10
1.995578740157481
 20
1.135106299212598
 30
0.0
 10
1.998188976377953
 20
1.132161417322835
 30
0.0
 10
1.999523622047244
 20
1.128354330708661
 30
0.0
 10
1.999523622047244
 20
1.123688976377953
 30
0.0
 10
1.999523622047244
 20
1.123688976377953
 30
0.0
 10
1.999523622047244
 20
1.120633858267717
 30
0.0
 10
1.998885826771654
 20
1.117437007874016
 30
0.0
 10
1.997633858267717
 20
1.114106299212599
 30
0.0
 10
1.997633858267717
 20
1.114106299212599
 30
0.0
 10
1.996385826771654
 20
1.110771653543307
 30
0.0
 10
1.99457874015748
 20
1.107688976377953
 30
0.0
 10
1.992188976377953
 20
1.104826771653543
 30
0.0
 10
1.992188976377953
 20
1.104826771653543
 30
0.0
 10
1.989803149606299
 20
1.101996062992126
 30
0.0
 10
1.98507874015748
 20
1.09757874015748
 30
0.0
 10
1.978023622047244
 20
1.091606299212599
 30
0.0
  0
SPLINE
  5
89
330
1F
100
AcDbEntity
  8
LAYER_1
 62
   250
100
AcDbSpline
210
0.0
220
0.0
230
1.0
 70
    11
 71
     3
 72
    60
 73
    56
 74
     0
 42
0.0000000001
 43
0.0000000001
 40
0.0
 40
0.0
 40
0.0
 40
0.0
 40
0.0714285714285714
 40
0.0714285714285714
 40
0.0714285714285714
 40
0.0714285714285714
 40
0.1428571428571429
 40
0.1428571428571429
 40
0.1428571428571429
 40
0.1428571428571429
 40
0.2142857142857143
 40
0.2142857142857143
 40
0.2142857142857143
 40
0.2142857142857143
 40
0.2857142857142857
 40
0.2857142857142857
 40
0.2857142857142857
 40
0.2857142857142857
 40
0.3571428571428571
 40
0.3571428571428571
 40
0.3571428571428571
 40
0.3571428571428571
 40
0.4285714285714285
 40
0.4285714285714285
 40
0.4285714285714285
 40
0.4285714285714285
 40
0.4999999999999999
 40
0.4999999999999999
 40
0.4999999999999999
 40
0.4999999999999999
 40
0.5714285714285713
 40
0.5714285714285713
 40
0.5714285714285713
 40
0.5714285714285713
 40
0.6428571428571427
 40
0.6428571428571427
 40
0.6428571428571427
 40
0.6428571428571427
 40
0.7142857142857141
 40
0.7142857142857141
 40
0.7142857142857141
 40
0.7142857142857141
 40
0.7857142857142855
 40
0.7857142857142855
 40
0.7857142857142855
 40
0.7857142857142855
 40
0.8571428571428569
 40
0.8571428571428569
 40
0.8571428571428569
 40
0.8571428571428569
 40
0.9285714285714283
 40
0.9285714285714283
 40
0.9285714285714283
 40
0.9285714285714283
 40
1.0
 40
1.0
 40
1.0
 40
1.0
 10
2.007078740157481
 20
1.091606299212599
 30
0.0
 10
2.007078740157481
 20
1.091606299212599
 30
0.0
 10
2.002688976377953
 20
1.096996062992126
 30
0.0
 10
2.002688976377953
 20
1.096996062992126
 30
0.0
 10
2.002688976377953
 20
1.096996062992126
 30
0.0
 10
2.013803149606299
 20
1.106051181102362
 30
0.0
 10
2.019385826771654
 20
1.113606299212599
 30
0.0
 10
2.019385826771654
 20
1.119688976377953
 30
0.0
 10
2.019385826771654
 20
1.119688976377953
 30
0.0
 10
2.019385826771654
 20
1.12038188976378
 30
0.0
 10
2.019330708661418
 20
1.121271653543307
 30
0.0
 10
2.019216535433071
 20
1.122299212598425
 30
0.0
 10
2.019216535433071
 20
1.122299212598425
 30
0.0
 10
2.018303149606299
 20
1.121909448818898
 30
0.0
 10
2.017385826771654
 20
1.121606299212598
 30
0.0
 10
2.016523622047244
 20
1.121409448818898
 30
0.0
 10
2.016523622047244
 20
1.121409448818898
 30
0.0
 10
2.015661417322835
 20
1.121188976377953
 30
0.0
 10
2.014830708661417
 20
1.12107874015748
 30
0.0
 10
2.013996062992126
 20
1.12107874015748
 30
0.0
 10
2.013996062992126
 20
1.12107874015748
 30
0.0
 10
2.01144094488189
 20
1.12107874015748
 30
0.0
 10
2.009385826771654
 20
1.121909448818898
 30
0.0
 10
2.007830708661417
 20
1.123606299212598
 30
0.0
 10
2.007830708661417
 20
1.123606299212598
 30
0.0
 10
2.006248031496063
 20
1.125271653543307
 30
0.0
 10
2.005468503937008
 20
1.127409448818898
 30
0.0
 10
2.005468503937008
 20
1.130023622047244
 30
0.0
 10
2.005468503937008
 20
1.130023622047244
 30
0.0
 10
2.005468503937008
 20
1.13257874015748
 30
0.0
 10
2.006413385826772
 20
1.134799212598425
 30
0.0
 10
2.008303149606299
 20
1.136688976377953
 30
0.0
 10
2.008303149606299
 20
1.136688976377953
 30
0.0
 10
2.010188976377953
 20
1.138606299212599
 30
0.0
 10
2.012496062992126
 20
1.139551181102362
 30
0.0
 10
2.015133858267717
 20
1.139551181102362
 30
0.0
 10
2.015133858267717
 20
1.139551181102362
 30
0.0
 10
2.018830708661418
 20
1.139551181102362
 30
0.0
 10
2.021996062992126
 20
1.13807874015748
 30
0.0
 10
2.024633858267717
 20
1.135106299212598
 30
0.0
 10
2.024633858267717
 20
1.135106299212598
 30
0.0
 10
2.027244094488189
 20
1.132161417322835
 30
0.0
 10
2.02857874015748
 20
1.128354330708661
 30
0.0
 10
2.02857874015748
 20
1.123688976377953
 30
0.0
 10
2.02857874015748
 20
1.123688976377953
 30
0.0
 10
2.02857874015748
 20
1.120633858267717
 30
0.0
 10
2.02794094488189
 20
1.117437007874016
 30
0.0
 10
2.026688976377953
 20
1.114106299212599
 30
0.0
 10
2.026688976377953
 20
1.114106299212599
 30
0.0
 10
2.02544094488189
 20
1.110771653543307
 30
0.0
 10
2.023633858267717
 20
1.107688976377953
 30
0.0
 10
2.021248031496063
 20
1.104826771653543
 30
0.0
 10
2.021248031496063
 20
1.104826771653543
 30
0.0
 10
2.018858267716535
 20
1.101996062992126
 30
0.0
 10
2.014133858267717
 20
1.09757874015748
 30
0.0
 10
2.007078740157481
 20
1.091606299212599
 30
0.0
  0
SPLINE
  5
8A
330
1F
100
AcDbEntity
  8
LAYER_1
 62
   250
100
AcDbSpline
210
0.0
220
0.0
230
1.0
 70
    11
 71
     3
 72
   204
 73
   200
 74
     0
 42
0.0000000001
 43
0.0000000001
 40
0.0
 40
0.0
 40
0.0
 40
0.0
 40
0.02
 40
0.02
 40
0.02
 40
0.02
 40
0.04
 40
0.04
 40
0.04
 40
0.04
 40
0.06
 40
0.06
 40
0.06
 40
0.06
 40
0.08
 40
0.08
 40
0.08
 40
0.08
 40
0.1
 40
0.1
 40
0.1
 40
0.1
 40
0.12
 40
0.12
 40
0.12
 40
0.12
 40
0.14
 40
0.14
 40
0.14
 40
0.14
 40
0.16
 40
0.16
 40
0.16
 40
0.16
 40
0.18
 40
0.18
 40
0.18
 40
0.18
 40
0.2
 40
0.2
 40
0.2
 40
0.2
 40
0.22
 40
0.22
 40
0.22
 40
0.22
 40
0.24
 40
0.24
 40
0.24
 40
0.24
 40
0.26
 40
0.26
 40
0.26
 40
0.26
 40
0.28
 40
0.28
 40
0.28
 40
0.28
 40
0.3
 40
0.3
 40
0.3
 40
0.3
 40
0.32
 40
0.32
 40
0.32
 40
0.32
 40
0.34
 40
0.34
 40
0.34
 40
0.34
 40
0.36
 40
0.36
 40
0.36
 40
0.36
 40
0.3800000000000001
 40
0.3800000000000001
 40
0.3800000000000001
 40
0.3800000000000001
 40
0.4000000000000001
 40
0.4000000000000001
 40
0.4000000000000001
 40
0.4000000000000001
 40
0.4200000000000001
 40
0.4200000000000001
 40
0.4200000000000001
 40
0.4200000000000001
 40
0.4400000000000001
 40
0.4400000000000001
 40
0.4400000000000001
 40
0.4400000000000001
 40
0.4600000000000001
 40
0.4600000000000001
 40
0.4600000000000001
 40
0.4600000000000001
 40
0.4800000000000002
 40
0.4800000000000002
 40
0.4800000000000002
 40
0.4800000000000002
 40
0.5000000000000001
 40
0.5000000000000001
 40
0.5000000000000001
 40
0.5000000000000001
 40
0.5200000000000001
 40
0.5200000000000001
 40
0.5200000000000001
 40
0.5200000000000001
 40
0.5400000000000002
 40
0.5400000000000002
 40
0.5400000000000002
 40
0.5400000000000002
 40
0.5600000000000002
 40
0.5600000000000002
 40
0.5600000000000002
 40
0.5600000000000002
 40
0.5800000000000002
 40
0.5800000000000002
 40
0.5800000000000002
 40
0.5800000000000002
 40
0.6000000000000002
 40
0.6000000000000002
 40
0.6000000000000002
 40
0.6000000000000002
 40
0.6200000000000002
 40
0.6200000000000002
 40
0.6200000000000002
 40
0.6200000000000002
 40
0.6400000000000002
 40
0.6400000000000002
 40
0.6400000000000002
 40
0.6400000000000002
 40
0.6600000000000003
 40
0.6600000000000003
 40
0.6600000000000003
 40
0.6600000000000003
 40
0.6800000000000003
 40
0.6800000000000003
 40
0.6800000000000003
 40
0.6800000000000003
 40
0.7000000000000003
 40
0.7000000000000003
 40
0.7000000000000003
 40
0.7000000000000003
 40
0.7200000000000003
 40
0.7200000000000003
 40
0.7200000000000003
 40
0.7200000000000003
 40
0.7400000000000003
 40
0.7400000000000003
 40
0.7400000000000003
 40
0.7400000000000003
 40
0.7600000000000003
 40
0.7600000000000003
 40
0.7600000000000003
 40
0.7600000000000003
 40
0.7800000000000004
 40
0.7800000000000004
 40
0.7800000000000004
 40
0.7800000000000004
 40
0.8000000000000004
 40
0.8000000000000004
 40
0.8000000000000004
 40
0.8000000000000004
 40
0.8200000000000004
 40
0.8200000000000004
 40
0.8200000000000004
 40
0.8200000000000004
 40
0.8400000000000004
 40
0.8400000000000004
 40
0.8400000000000004
 40
0.8400000000000004
 40
0.8600000000000004
 40
0.8600000000000004
 40
0.8600000000000004
 40
0.8600000000000004
 40
0.8800000000000005
 40
0.8800000000000005
 40
0.8800000000000005
 40
0.8800000000000005
 40
0.9000000000000005
 40
0.9000000000000005
 40
0.9000000000000005
 40
0.9000000000000005
 40
0.9200000000000005
 40
0.9200000000000005
 40
0.9200000000000005
 40
0.9200000000000005
 40
0.9400000000000005
 40
0.9400000000000005
 40
0.9400000000000005
 40
0.9400000000000005
 40
0.9600000000000005
 40
0.9600000000000005
 40
0.9600000000000005
 40
0.9600000000000005
 40
0.9800000000000005
 40
0.9800000000000005
 40
0.9800000000000005
 40
0.9800000000000005
 40
1.0
 40
1.0
 40
1.0
 40
1.0
 10
2.090885826771654
 20
1.098688976377953
 30
0.0
 10
2.090885826771654
 20
1.098688976377953
 30
0.0
 10
2.131830708661417
 20
1.098688976377953
 30
0.0
 10
2.131830708661417
 20
1.098688976377953
 30
0.0
 10
2.131830708661417
 20
1.098688976377953
 30
0.0
 10
2.131830708661417
 20
1.098688976377953
 30
0.0
 10
2.131830708661417
 20
1.091854330708661
 30
0.0
 10
2.131830708661417
 20
1.091854330708661
 30
0.0
 10
2.131830708661417
 20
1.091854330708661
 30
0.0
 10
2.131830708661417
 20
1.091854330708661
 30
0.0
 10
2.128996062992126
 20
1.091854330708661
 30
0.0
 10
2.128996062992126
 20
1.091854330708661
 30
0.0
 10
2.128996062992126
 20
1.091854330708661
 30
0.0
 10
2.127358267716536
 20
1.091854330708661
 30
0.0
 10
2.125858267716536
 20
1.091661417322835
 30
0.0
 10
2.124496062992126
 20
1.091299212598425
 30
0.0
 10
2.124496062992126
 20
1.091299212598425
 30
0.0
 10
2.123692913385827
 20
1.09107874015748
 30
0.0
 10
2.123023622047244
 20
1.090661417322835
 30
0.0
 10
2.122523622047244
 20
1.090023622047244
 30
0.0
 10
2.122523622047244
 20
1.090023622047244
 30
0.0
 10
2.121996062992126
 20
1.089409448818898
 30
0.0
 10
2.121748031496063
 20
1.088826771653543
 30
0.0
 10
2.121748031496063
 20
1.088271653543307
 30
0.0
 10
2.121748031496063
 20
1.088271653543307
 30
0.0
 10
2.121748031496063
 20
1.087023622047244
 30
0.0
 10
2.122775590551181
 20
1.085161417322835
 30
0.0
 10
2.124830708661417
 20
1.082661417322835
 30
0.0
 10
2.124830708661417
 20
1.082661417322835
 30
0.0
 10
2.124830708661417
 20
1.082661417322835
 30
0.0
 10
2.136468503937008
 20
1.068023622047244
 30
0.0
 10
2.136468503937008
 20
1.068023622047244
 30
0.0
 10
2.136468503937008
 20
1.068023622047244
 30
0.0
 10
2.136468503937008
 20
1.068023622047244
 30
0.0
 10
2.150051181102362
 20
1.082661417322835
 30
0.0
 10
2.150051181102362
 20
1.082661417322835
 30
0.0
 10
2.150051181102362
 20
1.082661417322835
 30
0.0
 10
2.152551181102362
 20
1.08538188976378
 30
0.0
 10
2.153803149606299
 20
1.087409448818898
 30
0.0
 10
2.153803149606299
 20
1.088771653543307
 30
0.0
 10
2.153803149606299
 20
1.088771653543307
 30
0.0
 10
2.153803149606299
 20
1.089744094488189
 30
0.0
 10
2.153358267716536
 20
1.090496062992126
 30
0.0
 10
2.152496062992126
 20
1.091051181102362
 30
0.0
 10
2.152496062992126
 20
1.091051181102362
 30
0.0
 10
2.151633858267717
 20
1.09157874015748
 30
0.0
 10
2.149775590551181
 20
1.091854330708661
 30
0.0
 10
2.146885826771654
 20
1.091854330708661
 30
0.0
 10
2.146885826771654
 20
1.091854330708661
 30
0.0
 10
2.146885826771654
 20
1.091854330708661
 30
0.0
 10
2.1438031496063
 20
1.091854330708661
 30
0.0
 10
2.1438031496063
 20
1.091854330708661
 30
0.0
 10
2.1438031496063
 20
1.091854330708661
 30
0.0
 10
2.1438031496063
 20
1.091854330708661
 30
0.0
 10
2.1438031496063
 20
1.098688976377953
 30
0.0
 10
2.1438031496063
 20
1.098688976377953
 30
0.0
 10
2.1438031496063
 20
1.098688976377953
 30
0.0
 10
2.1438031496063
 20
1.098688976377953
 30
0.0
 10
2.178551181102362
 20
1.098688976377953
 30
0.0
 10
2.178551181102362
 20
1.098688976377953
 30
0.0
 10
2.178551181102362
 20
1.098688976377953
 30
0.0
 10
2.178551181102362
 20
1.098688976377953
 30
0.0
 10
2.178551181102362
 20
1.091854330708661
 30
0.0
 10
2.178551181102362
 20
1.091854330708661
 30
0.0
 10
2.178551181102362
 20
1.091854330708661
 30
0.0
 10
2.175133858267717
 20
1.091688976377953
 30
0.0
 10
2.172188976377953
 20
1.090996062992126
 30
0.0
 10
2.169720472440945
 20
1.089744094488189
 30
0.0
 10
2.169720472440945
 20
1.089744094488189
 30
0.0
 10
2.167248031496063
 20
1.088496062992126
 30
0.0
 10
2.164330708661417
 20
1.086133858267717
 30
0.0
 10
2.160968503937008
 20
1.082661417322835
 30
0.0
 10
2.160968503937008
 20
1.082661417322835
 30
0.0
 10
2.160968503937008
 20
1.082661417322835
 30
0.0
 10
2.142330708661417
 20
1.063299212598425
 30
0.0
 10
2.142330708661417
 20
1.063299212598425
 30
0.0
 10
2.142330708661417
 20
1.063299212598425
 30
0.0
 10
2.142330708661417
 20
1.063299212598425
 30
0.0
 10
2.165523622047244
 20
1.036854330708662
 30
0.0
 10
2.165523622047244
 20
1.036854330708662
 30
0.0
 10
2.165523622047244
 20
1.036854330708662
 30
0.0
 10
2.165523622047244
 20
1.036854330708662
 30
0.0
 10
2.166413385826772
 20
1.035716535433071
 30
0.0
 10
2.166413385826772
 20
1.035716535433071
 30
0.0
 10
2.166413385826772
 20
1.035716535433071
 30
0.0
 10
2.168688976377953
 20
1.032771653543307
 30
0.0
 10
2.171248031496063
 20
1.030409448818898
 30
0.0
 10
2.17407874015748
 20
1.028633858267717
 30
0.0
 10
2.17407874015748
 20
1.028633858267717
 30
0.0
 10
2.175633858267717
 20
1.027606299212599
 30
0.0
 10
2.17807874015748
 20
1.027051181102362
 30
0.0
 10
2.181385826771654
 20
1.026996062992126
 30
0.0
 10
2.181385826771654
 20
1.026996062992126
 30
0.0
 10
2.181385826771654
 20
1.026996062992126
 30
0.0
 10
2.181385826771654
 20
1.020161417322835
 30
0.0
 10
2.181385826771654
 20
1.020161417322835
 30
0.0
 10
2.181385826771654
 20
1.020161417322835
 30
0.0
 10
2.181385826771654
 20
1.020161417322835
 30
0.0
 10
2.14144094488189
 20
1.020161417322835
 30
0.0
 10
2.14144094488189
 20
1.020161417322835
 30
0.0
 10
2.14144094488189
 20
1.020161417322835
 30
0.0
 10
2.14144094488189
 20
1.020161417322835
 30
0.0
 10
2.14144094488189
 20
1.026996062992126
 30
0.0
 10
2.14144094488189
 20
1.026996062992126
 30
0.0
 10
2.14144094488189
 20
1.026996062992126
 30
0.0
 10
2.14144094488189
 20
1.026996062992126
 30
0.0
 10
2.144858267716535
 20
1.026996062992126
 30
0.0
 10
2.144858267716535
 20
1.026996062992126
 30
0.0
 10
2.144858267716535
 20
1.026996062992126
 30
0.0
 10
2.147468503937008
 20
1.026996062992126
 30
0.0
 10
2.149106299212598
 20
1.027161417322835
 30
0.0
 10
2.149830708661417
 20
1.027496062992126
 30
0.0
 10
2.149830708661417
 20
1.027496062992126
 30
0.0
 10
2.150996062992126
 20
1.028023622047244
 30
0.0
 10
2.151606299212598
 20
1.02894094488189
 30
0.0
 10
2.151606299212598
 20
1.030244094488189
 30
0.0
 10
2.151606299212598
 20
1.030244094488189
 30
0.0
 10
2.151606299212598
 20
1.03144094488189
 30
0.0
 10
2.150303149606299
 20
1.033633858267717
 30
0.0
 10
2.147688976377953
 20
1.036854330708662
 30
0.0
 10
2.147688976377953
 20
1.036854330708662
 30
0.0
 10
2.147688976377953
 20
1.036854330708662
 30
0.0
 10
2.132885826771654
 20
1.054996062992126
 30
0.0
 10
2.132885826771654
 20
1.054996062992126
 30
0.0
 10
2.132885826771654
 20
1.054996062992126
 30
0.0
 10
2.132885826771654
 20
1.054996062992126
 30
0.0
 10
2.116358267716536
 20
1.036854330708662
 30
0.0
 10
2.116358267716536
 20
1.036854330708662
 30
0.0
 10
2.116358267716536
 20
1.036854330708662
 30
0.0
 10
2.116358267716536
 20
1.036854330708662
 30
0.0
 10
2.114748031496063
 20
1.03488188976378
 30
0.0
 10
2.114748031496063
 20
1.03488188976378
 30
0.0
 10
2.114748031496063
 20
1.03488188976378
 30
0.0
 10
2.114748031496063
 20
1.03488188976378
 30
0.0
 10
2.113858267716536
 20
1.033909448818898
 30
0.0
 10
2.113858267716536
 20
1.033909448818898
 30
0.0
 10
2.113858267716536
 20
1.033909448818898
 30
0.0
 10
2.112496062992126
 20
1.03244094488189
 30
0.0
 10
2.111803149606299
 20
1.031161417322835
 30
0.0
 10
2.111803149606299
 20
1.030023622047244
 30
0.0
 10
2.111803149606299
 20
1.030023622047244
 30
0.0
 10
2.111803149606299
 20
1.028968503937008
 30
0.0
 10
2.112220472440945
 20
1.028216535433071
 30
0.0
 10
2.11307874015748
 20
1.027716535433071
 30
0.0
 10
2.11307874015748
 20
1.027716535433071
 30
0.0
 10
2.113913385826772
 20
1.027244094488189
 30
0.0
 10
2.115803149606299
 20
1.026996062992126
 30
0.0
 10
2.118720472440945
 20
1.026996062992126
 30
0.0
 10
2.118720472440945
 20
1.026996062992126
 30
0.0
 10
2.118720472440945
 20
1.026996062992126
 30
0.0
 10
2.121996062992126
 20
1.026996062992126
 30
0.0
 10
2.121996062992126
 20
1.026996062992126
 30
0.0
 10
2.121996062992126
 20
1.026996062992126
 30
0.0
 10
2.121996062992126
 20
1.026996062992126
 30
0.0
 10
2.121996062992126
 20
1.020161417322835
 30
0.0
 10
2.121996062992126
 20
1.020161417322835
 30
0.0
 10
2.121996062992126
 20
1.020161417322835
 30
0.0
 10
2.121996062992126
 20
1.020161417322835
 30
0.0
 10
2.087720472440945
 20
1.020161417322835
 30
0.0
 10
2.087720472440945
 20
1.020161417322835
 30
0.0
 10
2.087720472440945
 20
1.020161417322835
 30
0.0
 10
2.087720472440945
 20
1.020161417322835
 30
0.0
 10
2.087720472440945
 20
1.026996062992126
 30
0.0
 10
2.087720472440945
 20
1.026996062992126
 30
0.0
 10
2.087720472440945
 20
1.026996062992126
 30
0.0
 10
2.090385826771654
 20
1.027051181102362
 30
0.0
 10
2.092468503937008
 20
1.027326771653543
 30
0.0
 10
2.093996062992126
 20
1.027854330708661
 30
0.0
 10
2.093996062992126
 20
1.027854330708661
 30
0.0
 10
2.095496062992126
 20
1.028354330708662
 30
0.0
 10
2.096968503937008
 20
1.029161417322835
 30
0.0
 10
2.098385826771654
 20
1.030244094488189
 30
0.0
 10
2.098385826771654
 20
1.030244094488189
 30
0.0
 10
2.100830708661417
 20
1.032216535433071
 30
0.0
 10
2.102578740157481
 20
1.033744094488189
 30
0.0
 10
2.103665354330709
 20
1.03488188976378
 30
0.0
 10
2.103665354330709
 20
1.03488188976378
 30
0.0
 10
2.103665354330709
 20
1.03488188976378
 30
0.0
 10
2.127523622047244
 20
1.05938188976378
 30
0.0
 10
2.127523622047244
 20
1.05938188976378
 30
0.0
 10
2.127523622047244
 20
1.05938188976378
 30
0.0
 10
2.127523622047244
 20
1.05938188976378
 30
0.0
 10
2.107248031496063
 20
1.082661417322835
 30
0.0
 10
2.107248031496063
 20
1.082661417322835
 30
0.0
 10
2.107248031496063
 20
1.082661417322835
 30
0.0
 10
2.104692913385827
 20
1.085551181102362
 30
0.0
 10
2.102692913385827
 20
1.087551181102362
 30
0.0
 10
2.101192913385827
 20
1.088716535433071
 30
0.0
 10
2.101192913385827
 20
1.088716535433071
 30
0.0
 10
2.099692913385827
 20
1.08988188976378
 30
0.0
 10
2.098248031496063
 20
1.090716535433071
 30
0.0
 10
2.096830708661417
 20
1.091161417322835
 30
0.0
 10
2.096830708661417
 20
1.091161417322835
 30
0.0
 10
2.095413385826772
 20
1.091633858267717
 30
0.0
 10
2.09344094488189
 20
1.091854330708661
 30
0.0
 10
2.090885826771654
 20
1.091854330708661
 30
0.0
 10
2.090885826771654
 20
1.091854330708661
 30
0.0
 10
2.090885826771654
 20
1.091854330708661
 30
0.0
 10
2.090885826771654
 20
1.098688976377953
 30
0.0
 10
2.090885826771654
 20
1.098688976377953
 30
0.0
  0
SPLINE
  5
8B
330
1F
100
AcDbEntity
  8
LAYER_1
 62
   250
100
AcDbSpline
210
0.0
220
0.0
230
1.0
 70
    11
 71
     3
 72
    72
 73
    68
 74
     0
 42
0.0000000001
 43
0.0000000001
 40
0.0
 40
0.0
 40
0.0
 40
0.0
 40
0.0588235294117647
 40
0.0588235294117647
 40
0.0588235294117647
 40
0.0588235294117647
 40
0.1176470588235294
 40
0.1176470588235294
 40
0.1176470588235294
 40
0.1176470588235294
 40
0.1764705882352941
 40
0.1764705882352941
 40
0.1764705882352941
 40
0.1764705882352941
 40
0.2352941176470588
 40
0.2352941176470588
 40
0.2352941176470588
 40
0.2352941176470588
 40
0.2941176470588235
 40
0.2941176470588235
 40
0.2941176470588235
 40
0.2941176470588235
 40
0.3529411764705883
 40
0.3529411764705883
 40
0.3529411764705883
 40
0.3529411764705883
 40
0.411764705882353
 40
0.411764705882353
 40
0.411764705882353
 40
0.411764705882353
 40
0.4705882352941177
 40
0.4705882352941177
 40
0.4705882352941177
 40
0.4705882352941177
 40
0.5294117647058824
 40
0.5294117647058824
 40
0.5294117647058824
 40
0.5294117647058824
 40
0.5882352941176471
 40
0.5882352941176471
 40
0.5882352941176471
 40
0.5882352941176471
 40
0.6470588235294118
 40
0.6470588235294118
 40
0.6470588235294118
 40
0.6470588235294118
 40
0.7058823529411765
 40
0.7058823529411765
 40
0.7058823529411765
 40
0.7058823529411765
 40
0.7647058823529412
 40
0.7647058823529412
 40
0.7647058823529412
 40
0.7647058823529412
 40
0.823529411764706
 40
0.823529411764706
 40
0.823529411764706
 40
0.823529411764706
 40
0.8823529411764707
 40
0.8823529411764707
 40
0.8823529411764707
 40
0.8823529411764707
 40
0.9411764705882354
 40
0.9411764705882354
 40
0.9411764705882354
 40
0.9411764705882354
 40
1.0
 40
1.0
 40
1.0
 40
1.0
 10
2.290523622047244
 20
1.133688976377953
 30
0.0
 10
2.290523622047244
 20
1.133688976377953
 30
0.0
 10
2.296606299212598
 20
1.133688976377953
 30
0.0
 10
2.296606299212598
 20
1.133688976377953
 30
0.0
 10
2.296606299212598
 20
1.133688976377953
 30
0.0
 10
2.296606299212598
 20
1.133688976377953
 30
0.0
 10
2.296606299212598
 20
1.03944094488189
 30
0.0
 10
2.296606299212598
 20
1.03944094488189
 30
0.0
 10
2.296606299212598
 20
1.03944094488189
 30
0.0
 10
2.296606299212598
 20
1.034996062992126
 30
0.0
 10
2.296913385826772
 20
1.032133858267717
 30
0.0
 10
2.297468503937008
 20
1.030854330708662
 30
0.0
 10
2.297468503937008
 20
1.030854330708662
 30
0.0
 10
2.298051181102363
 20
1.02957874015748
 30
0.0
 10
2.298968503937008
 20
1.028633858267717
 30
0.0
 10
2.300271653543307
 20
1.027968503937008
 30
0.0
 10
2.300271653543307
 20
1.027968503937008
 30
0.0
 10
2.30157874015748
 20
1.027326771653543
 30
0.0
 10
2.304161417322835
 20
1.026996062992126
 30
0.0
 10
2.308023622047244
 20
1.026996062992126
 30
0.0
 10
2.308023622047244
 20
1.026996062992126
 30
0.0
 10
2.308023622047244
 20
1.026996062992126
 30
0.0
 10
2.315996062992126
 20
1.026996062992126
 30
0.0
 10
2.315996062992126
 20
1.026996062992126
 30
0.0
 10
2.315996062992126
 20
1.026996062992126
 30
0.0
 10
2.315996062992126
 20
1.026996062992126
 30
0.0
 10
2.315996062992126
 20
1.020161417322835
 30
0.0
 10
2.315996062992126
 20
1.020161417322835
 30
0.0
 10
2.315996062992126
 20
1.020161417322835
 30
0.0
 10
2.315996062992126
 20
1.020161417322835
 30
0.0
 10
2.262358267716536
 20
1.020161417322835
 30
0.0
 10
2.262358267716536
 20
1.020161417322835
 30
0.0
 10
2.262358267716536
 20
1.020161417322835
 30
0.0
 10
2.262358267716536
 20
1.020161417322835
 30
0.0
 10
2.262358267716536
 20
1.026996062992126
 30
0.0
 10
2.262358267716536
 20
1.026996062992126
 30
0.0
 10
2.262358267716536
 20
1.026996062992126
 30
0.0
 10
2.262358267716536
 20
1.026996062992126
 30
0.0
 10
2.271216535433071
 20
1.026996062992126
 30
0.0
 10
2.271216535433071
 20
1.026996062992126
 30
0.0
 10
2.271216535433071
 20
1.026996062992126
 30
0.0
 10
2.27507874015748
 20
1.026996062992126
 30
0.0
 10
2.277633858267717
 20
1.027326771653543
 30
0.0
 10
2.278913385826772
 20
1.028023622047244
 30
0.0
 10
2.278913385826772
 20
1.028023622047244
 30
0.0
 10
2.280188976377953
 20
1.028688976377953
 30
0.0
 10
2.281188976377953
 20
1.029771653543307
 30
0.0
 10
2.281885826771654
 20
1.031271653543307
 30
0.0
 10
2.281885826771654
 20
1.031271653543307
 30
0.0
 10
2.28257874015748
 20
1.032771653543307
 30
0.0
 10
2.28294094488189
 20
1.035496062992126
 30
0.0
 10
2.28294094488189
 20
1.03944094488189
 30
0.0
 10
2.28294094488189
 20
1.03944094488189
 30
0.0
 10
2.28294094488189
 20
1.03944094488189
 30
0.0
 10
2.28294094488189
 20
1.116909448818898
 30
0.0
 10
2.28294094488189
 20
1.116909448818898
 30
0.0
 10
2.28294094488189
 20
1.116909448818898
 30
0.0
 10
2.28294094488189
 20
1.116909448818898
 30
0.0
 10
2.262358267716536
 20
1.116909448818898
 30
0.0
 10
2.262358267716536
 20
1.116909448818898
 30
0.0
 10
2.262358267716536
 20
1.116909448818898
 30
0.0
 10
2.262358267716536
 20
1.116909448818898
 30
0.0
 10
2.262358267716536
 20
1.123909448818898
 30
0.0
 10
2.262358267716536
 20
1.123909448818898
 30
0.0
 10
2.262358267716536
 20
1.123909448818898
 30
0.0
 10
2.27357874015748
 20
1.125492125984252
 30
0.0
 10
2.282968503937008
 20
1.128744094488189
 30
0.0
 10
2.290523622047244
 20
1.133688976377953
 30
0.0
  0
SPLINE
  5
8C
330
1F
100
AcDbEntity
  8
LAYER_1
 62
   250
100
AcDbSpline
210
0.0
220
0.0
230
1.0
 70
    11
 71
     3
 72
    20
 73
    16
 74
     0
 42
0.0000000001
 43
0.0000000001
 40
0.0
 40
0.0
 40
0.0
 40
0.0
 40
0.25
 40
0.25
 40
0.25
 40
0.25
 40
0.5
 40
0.5
 40
0.5
 40
0.5
 40
0.75
 40
0.75
 40
0.75
 40
0.75
 40
1.0
 40
1.0
 40
1.0
 40
1.0
 10
2.346996062992126
 20
1.066633858267717
 30
0.0
 10
2.346996062992126
 20
1.066633858267717
 30
0.0
 10
2.395330708661418
 20
1.066633858267717
 30
0.0
 10
2.395330708661418
 20
1.066633858267717
 30
0.0
 10
2.395330708661418
 20
1.066633858267717
 30
0.0
 10
2.395330708661418
 20
1.066633858267717
 30
0.0
 10
2.395330708661418
 20
1.056551181102362
 30
0.0
 10
2.395330708661418
 20
1.056551181102362
 30
0.0
 10
2.395330708661418
 20
1.056551181102362
 30
0.0
 10
2.395330708661418
 20
1.056551181102362
 30
0.0
 10
2.346996062992126
 20
1.056551181102362
 30
0.0
 10
2.346996062992126
 20
1.056551181102362
 30
0.0
 10
2.346996062992126
 20
1.056551181102362
 30
0.0
 10
2.346996062992126
 20
1.056551181102362
 30
0.0
 10
2.346996062992126
 20
1.066633858267717
 30
0.0
 10
2.346996062992126
 20
1.066633858267717
 30
0.0
  0
SPLINE
  5
8D
330
1F
100
AcDbEntity
  8
LAYER_1
 62
   250
100
AcDbSpline
210
0.0
220
0.0
230
1.0
 70
    11
 71
     3
 72
    72
 73
    68
 74
     0
 42
0.0000000001
 43
0.0000000001
 40
0.0
 40
0.0
 40
0.0
 40
0.0
 40
0.0588235294117647
 40
0.0588235294117647
 40
0.0588235294117647
 40
0.0588235294117647
 40
0.1176470588235294
 40
0.1176470588235294
 40
0.1176470588235294
 40
0.1176470588235294
 40
0.1764705882352941
 40
0.1764705882352941
 40
0.1764705882352941
 40
0.1764705882352941
 40
0.2352941176470588
 40
0.2352941176470588
 40
0.2352941176470588
 40
0.2352941176470588
 40
0.2941176470588235
 40
0.2941176470588235
 40
0.2941176470588235
 40
0.2941176470588235
 40
0.3529411764705883
 40
0.3529411764705883
 40
0.3529411764705883
 40
0.3529411764705883
 40
0.411764705882353
 40
0.411764705882353
 40
0.411764705882353
 40
0.411764705882353
 40
0.4705882352941177
 40
0.4705882352941177
 40
0.4705882352941177
 40
0.4705882352941177
 40
0.5294117647058824
 40
0.5294117647058824
 40
0.5294117647058824
 40
0.5294117647058824
 40
0.5882352941176471
 40
0.5882352941176471
 40
0.5882352941176471
 40
0.5882352941176471
 40
0.6470588235294118
 40
0.6470588235294118
 40
0.6470588235294118
 40
0.6470588235294118
 40
0.7058823529411765
 40
0.7058823529411765
 40
0.7058823529411765
 40
0.7058823529411765
 40
0.7647058823529412
 40
0.7647058823529412
 40
0.7647058823529412
 40
0.7647058823529412
 40
0.823529411764706
 40
0.823529411764706
 40
0.823529411764706
 40
0.823529411764706
 40
0.8823529411764707
 40
0.8823529411764707
 40
0.8823529411764707
 40
0.8823529411764707
 40
0.9411764705882354
 40
0.9411764705882354
 40
0.9411764705882354
 40
0.9411764705882354
 40
1.0
 40
1.0
 40
1.0
 40
1.0
 10
2.460523622047244
 20
1.133688976377953
 30
0.0
 10
2.460523622047244
 20
1.133688976377953
 30
0.0
 10
2.466606299212598
 20
1.133688976377953
 30
0.0
 10
2.466606299212598
 20
1.133688976377953
 30
0.0
 10
2.466606299212598
 20
1.133688976377953
 30
0.0
 10
2.466606299212598
 20
1.133688976377953
 30
0.0
 10
2.466606299212598
 20
1.03944094488189
 30
0.0
 10
2.466606299212598
 20
1.03944094488189
 30
0.0
 10
2.466606299212598
 20
1.03944094488189
 30
0.0
 10
2.466606299212598
 20
1.034996062992126
 30
0.0
 10
2.466913385826772
 20
1.032133858267717
 30
0.0
 10
2.467468503937008
 20
1.030854330708662
 30
0.0
 10
2.467468503937008
 20
1.030854330708662
 30
0.0
 10
2.468051181102362
 20
1.02957874015748
 30
0.0
 10
2.468968503937008
 20
1.028633858267717
 30
0.0
 10
2.470271653543307
 20
1.027968503937008
 30
0.0
 10
2.470271653543307
 20
1.027968503937008
 30
0.0
 10
2.47157874015748
 20
1.027326771653543
 30
0.0
 10
2.474161417322835
 20
1.026996062992126
 30
0.0
 10
2.478023622047244
 20
1.026996062992126
 30
0.0
 10
2.478023622047244
 20
1.026996062992126
 30
0.0
 10
2.478023622047244
 20
1.026996062992126
 30
0.0
 10
2.485996062992126
 20
1.026996062992126
 30
0.0
 10
2.485996062992126
 20
1.026996062992126
 30
0.0
 10
2.485996062992126
 20
1.026996062992126
 30
0.0
 10
2.485996062992126
 20
1.026996062992126
 30
0.0
 10
2.485996062992126
 20
1.020161417322835
 30
0.0
 10
2.485996062992126
 20
1.020161417322835
 30
0.0
 10
2.485996062992126
 20
1.020161417322835
 30
0.0
 10
2.485996062992126
 20
1.020161417322835
 30
0.0
 10
2.432358267716535
 20
1.020161417322835
 30
0.0
 10
2.432358267716535
 20
1.020161417322835
 30
0.0
 10
2.432358267716535
 20
1.020161417322835
 30
0.0
 10
2.432358267716535
 20
1.020161417322835
 30
0.0
 10
2.432358267716535
 20
1.026996062992126
 30
0.0
 10
2.432358267716535
 20
1.026996062992126
 30
0.0
 10
2.432358267716535
 20
1.026996062992126
 30
0.0
 10
2.432358267716535
 20
1.026996062992126
 30
0.0
 10
2.441216535433071
 20
1.026996062992126
 30
0.0
 10
2.441216535433071
 20
1.026996062992126
 30
0.0
 10
2.441216535433071
 20
1.026996062992126
 30
0.0
 10
2.44507874015748
 20
1.026996062992126
 30
0.0
 10
2.447633858267717
 20
1.027326771653543
 30
0.0
 10
2.448913385826772
 20
1.028023622047244
 30
0.0
 10
2.448913385826772
 20
1.028023622047244
 30
0.0
 10
2.450188976377953
 20
1.028688976377953
 30
0.0
 10
2.451188976377953
 20
1.029771653543307
 30
0.0
 10
2.451885826771654
 20
1.031271653543307
 30
0.0
 10
2.451885826771654
 20
1.031271653543307
 30
0.0
 10
2.452578740157481
 20
1.032771653543307
 30
0.0
 10
2.45294094488189
 20
1.035496062992126
 30
0.0
 10
2.45294094488189
 20
1.03944094488189
 30
0.0
 10
2.45294094488189
 20
1.03944094488189
 30
0.0
 10
2.45294094488189
 20
1.03944094488189
 30
0.0
 10
2.45294094488189
 20
1.116909448818898
 30
0.0
 10
2.45294094488189
 20
1.116909448818898
 30
0.0
 10
2.45294094488189
 20
1.116909448818898
 30
0.0
 10
2.45294094488189
 20
1.116909448818898
 30
0.0
 10
2.432358267716535
 20
1.116909448818898
 30
0.0
 10
2.432358267716535
 20
1.116909448818898
 30
0.0
 10
2.432358267716535
 20
1.116909448818898
 30
0.0
 10
2.432358267716535
 20
1.116909448818898
 30
0.0
 10
2.432358267716535
 20
1.123909448818898
 30
0.0
 10
2.432358267716535
 20
1.123909448818898
 30
0.0
 10
2.432358267716535
 20
1.123909448818898
 30
0.0
 10
2.44357874015748
 20
1.125492125984252
 30
0.0
 10
2.452968503937008
 20
1.128744094488189
 30
0.0
 10
2.460523622047244
 20
1.133688976377953
 30
0.0
  0
SPLINE
  5
8E
330
1F
100
AcDbEntity
  8
LAYER_1
 62
   250
100
AcDbSpline
210
0.0
220
0.0
230
1.0
 70
    11
 71
     3
 72
    20
 73
    16
 74
     0
 42
0.0000000001
 43
0.0000000001
 40
0.0
 40
0.0
 40
0.0
 40
0.0
 40
0.25
 40
0.25
 40
0.25
 40
0.25
 40
0.5
 40
0.5
 40
0.5
 40
0.5
 40
0.75
 40
0.75
 40
0.75
 40
0.75
 40
1.0
 40
1.0
 40
1.0
 40
1.0
 10
2.589358267716535
 20
1.139551181102362
 30
0.0
 10
2.589358267716535
 20
1.139551181102362
 30
0.0
 10
2.533775590551181
 20
0.9838543307086615
 30
0.0
 10
2.533775590551181
 20
0.9838543307086615
 30
0.0
 10
2.533775590551181
 20
0.9838543307086615
 30
0.0
 10
2.533775590551181
 20
0.9838543307086615
 30
0.0
 10
2.521720472440945
 20
0.9838543307086615
 30
0.0
 10
2.521720472440945
 20
0.9838543307086615
 30
0.0
 10
2.521720472440945
 20
0.9838543307086615
 30
0.0
 10
2.521720472440945
 20
0.9838543307086615
 30
0.0
 10
2.576968503937008
 20
1.139551181102362
 30
0.0
 10
2.576968503937008
 20
1.139551181102362
 30
0.0
 10
2.576968503937008
 20
1.139551181102362
 30
0.0
 10
2.576968503937008
 20
1.139551181102362
 30
0.0
 10
2.589358267716535
 20
1.139551181102362
 30
0.0
 10
2.589358267716535
 20
1.139551181102362
 30
0.0
  0
SPLINE
  5
8F
330
1F
100
AcDbEntity
  8
LAYER_1
 62
   250
100
AcDbSpline
210
0.0
220
0.0
230
1.0
 70
    11
 71
     3
 72
   136
 73
   132
 74
     0
 42
0.0000000001
 43
0.0000000001
 40
0.0
 40
0.0
 40
0.0
 40
0.0
 40
0.0303030303030303
 40
0.0303030303030303
 40
0.0303030303030303
 40
0.0303030303030303
 40
0.0606060606060606
 40
0.0606060606060606
 40
0.0606060606060606
 40
0.0606060606060606
 40
0.0909090909090909
 40
0.0909090909090909
 40
0.0909090909090909
 40
0.0909090909090909
 40
0.1212121212121212
 40
0.1212121212121212
 40
0.1212121212121212
 40
0.1212121212121212
 40
0.1515151515151515
 40
0.1515151515151515
 40
0.1515151515151515
 40
0.1515151515151515
 40
0.1818181818181818
 40
0.1818181818181818
 40
0.1818181818181818
 40
0.1818181818181818
 40
0.2121212121212121
 40
0.2121212121212121
 40
0.2121212121212121
 40
0.2121212121212121
 40
0.2424242424242424
 40
0.2424242424242424
 40
0.2424242424242424
 40
0.2424242424242424
 40
0.2727272727272727
 40
0.2727272727272727
 40
0.2727272727272727
 40
0.2727272727272727
 40
0.303030303030303
 40
0.303030303030303
 40
0.303030303030303
 40
0.303030303030303
 40
0.3333333333333333
 40
0.3333333333333333
 40
0.3333333333333333
 40
0.3333333333333333
 40
0.3636363636363635
 40
0.3636363636363635
 40
0.3636363636363635
 40
0.3636363636363635
 40
0.3939393939393938
 40
0.3939393939393938
 40
0.3939393939393938
 40
0.3939393939393938
 40
0.4242424242424241
 40
0.4242424242424241
 40
0.4242424242424241
 40
0.4242424242424241
 40
0.4545454545454544
 40
0.4545454545454544
 40
0.4545454545454544
 40
0.4545454545454544
 40
0.4848484848484846
 40
0.4848484848484846
 40
0.4848484848484846
 40
0.4848484848484846
 40
0.5151515151515149
 40
0.5151515151515149
 40
0.5151515151515149
 40
0.5151515151515149
 40
0.5454545454545452
 40
0.5454545454545452
 40
0.5454545454545452
 40
0.5454545454545452
 40
0.5757575757575755
 40
0.5757575757575755
 40
0.5757575757575755
 40
0.5757575757575755
 40
0.6060606060606057
 40
0.6060606060606057
 40
0.6060606060606057
 40
0.6060606060606057
 40
0.636363636363636
 40
0.636363636363636
 40
0.636363636363636
 40
0.636363636363636
 40
0.6666666666666663
 40
0.6666666666666663
 40
0.6666666666666663
 40
0.6666666666666663
 40
0.6969696969696966
 40
0.6969696969696966
 40
0.6969696969696966
 40
0.6969696969696966
 40
0.7272727272727269
 40
0.7272727272727269
 40
0.7272727272727269
 40
0.7272727272727269
 40
0.7575757575757571
 40
0.7575757575757571
 40
0.7575757575757571
 40
0.7575757575757571
 40
0.7878787878787874
 40
0.7878787878787874
 40
0.7878787878787874
 40
0.7878787878787874
 40
0.8181818181818177
 40
0.8181818181818177
 40
0.8181818181818177
 40
0.8181818181818177
 40
0.848484848484848
 40
0.848484848484848
 40
0.848484848484848
 40
0.848484848484848
 40
0.8787878787878782
 40
0.8787878787878782
 40
0.8787878787878782
 40
0.8787878787878782
 40
0.9090909090909085
 40
0.9090909090909085
 40
0.9090909090909085
 40
0.9090909090909085
 40
0.9393939393939388
 40
0.9393939393939388
 40
0.9393939393939388
 40
0.9393939393939388
 40
0.9696969696969691
 40
0.9696969696969691
 40
0.9696969696969691
 40
0.9696969696969691
 40
1.0
 40
1.0
 40
1.0
 40
1.0
 10
2.626803149606299
 20
1.09088188976378
 30
0.0
 10
2.626803149606299
 20
1.09088188976378
 30
0.0
 10
2.618913385826772
 20
1.089909448818898
 30
0.0
 10
2.618913385826772
 20
1.089909448818898
 30
0.0
 10
2.618913385826772
 20
1.089909448818898
 30
0.0
 10
2.618468503937008
 20
1.093744094488189
 30
0.0
 10
2.618248031496063
 20
1.096909448818898
 30
0.0
 10
2.618248031496063
 20
1.099354330708662
 30
0.0
 10
2.618248031496063
 20
1.099354330708662
 30
0.0
 10
2.618248031496063
 20
1.105744094488189
 30
0.0
 10
2.619996062992126
 20
1.111799212598425
 30
0.0
 10
2.623468503937008
 20
1.117492125984252
 30
0.0
 10
2.623468503937008
 20
1.117492125984252
 30
0.0
 10
2.62694094488189
 20
1.123188976377953
 30
0.0
 10
2.631775590551181
 20
1.127633858267717
 30
0.0
 10
2.637996062992126
 20
1.130826771653543
 30
0.0
 10
2.637996062992126
 20
1.130826771653543
 30
0.0
 10
2.644188976377953
 20
1.134051181102362
 30
0.0
 10
2.651330708661417
 20
1.135633858267717
 30
0.0
 10
2.659358267716536
 20
1.135633858267717
 30
0.0
 10
2.659358267716536
 20
1.135633858267717
 30
0.0
 10
2.667106299212599
 20
1.135633858267717
 30
0.0
 10
2.673913385826772
 20
1.134133858267717
 30
0.0
 10
2.679775590551181
 20
1.131133858267717
 30
0.0
 10
2.679775590551181
 20
1.131133858267717
 30
0.0
 10
2.685633858267717
 20
1.128106299212599
 30
0.0
 10
2.690106299212598
 20
1.123992125984252
 30
0.0
 10
2.693244094488189
 20
1.118744094488189
 30
0.0
 10
2.693244094488189
 20
1.118744094488189
 30
0.0
 10
2.696358267716536
 20
1.113523622047244
 30
0.0
 10
2.697913385826772
 20
1.107551181102362
 30
0.0
 10
2.697913385826772
 20
1.100799212598425
 30
0.0
 10
2.697913385826772
 20
1.100799212598425
 30
0.0
 10
2.697913385826772
 20
1.095106299212598
 30
0.0
 10
2.696913385826772
 20
1.089826771653543
 30
0.0
 10
2.694858267716536
 20
1.084996062992126
 30
0.0
 10
2.694858267716536
 20
1.084996062992126
 30
0.0
 10
2.692830708661417
 20
1.080133858267717
 30
0.0
 10
2.689551181102362
 20
1.075216535433071
 30
0.0
 10
2.685051181102363
 20
1.070299212598425
 30
0.0
 10
2.685051181102363
 20
1.070299212598425
 30
0.0
 10
2.681688976377953
 20
1.066606299212598
 30
0.0
 10
2.674885826771654
 20
1.060968503937008
 30
0.0
 10
2.664633858267717
 20
1.053354330708662
 30
0.0
 10
2.664633858267717
 20
1.053354330708662
 30
0.0
 10
2.651720472440945
 20
1.043716535433071
 30
0.0
 10
2.641830708661417
 20
1.036716535433071
 30
0.0
 10
2.63494094488189
 20
1.032354330708662
 30
0.0
 10
2.63494094488189
 20
1.032354330708662
 30
0.0
 10
2.63494094488189
 20
1.032354330708662
 30
0.0
 10
2.677248031496063
 20
1.032354330708662
 30
0.0
 10
2.677248031496063
 20
1.032354330708662
 30
0.0
 10
2.677248031496063
 20
1.032354330708662
 30
0.0
 10
2.682248031496063
 20
1.032354330708662
 30
0.0
 10
2.685496062992126
 20
1.032826771653543
 30
0.0
 10
2.687023622047244
 20
1.033744094488189
 30
0.0
 10
2.687023622047244
 20
1.033744094488189
 30
0.0
 10
2.689133858267716
 20
1.03494094488189
 30
0.0
 10
2.690578740157481
 20
1.037716535433071
 30
0.0
 10
2.691330708661417
 20
1.042051181102362
 30
0.0
 10
2.691330708661417
 20
1.042051181102362
 30
0.0
 10
2.691330708661417
 20
1.042051181102362
 30
0.0
 10
2.692051181102362
 20
1.046688976377953
 30
0.0
 10
2.692051181102362
 20
1.046688976377953
 30
0.0
 10
2.692051181102362
 20
1.046688976377953
 30
0.0
 10
2.692051181102362
 20
1.046688976377953
 30
0.0
 10
2.698968503937008
 20
1.046688976377953
 30
0.0
 10
2.698968503937008
 20
1.046688976377953
 30
0.0
 10
2.698968503937008
 20
1.046688976377953
 30
0.0
 10
2.698968503937008
 20
1.046688976377953
 30
0.0
 10
2.69344094488189
 20
1.016106299212598
 30
0.0
 10
2.69344094488189
 20
1.016106299212598
 30
0.0
 10
2.69344094488189
 20
1.016106299212598
 30
0.0
 10
2.69344094488189
 20
1.016106299212598
 30
0.0
 10
2.688248031496063
 20
1.016106299212598
 30
0.0
 10
2.688248031496063
 20
1.016106299212598
 30
0.0
 10
2.688248031496063
 20
1.016106299212598
 30
0.0
 10
2.688248031496063
 20
1.016106299212598
 30
0.0
 10
2.687330708661417
 20
1.020161417322835
 30
0.0
 10
2.687330708661417
 20
1.020161417322835
 30
0.0
 10
2.687330708661417
 20
1.020161417322835
 30
0.0
 10
2.687330708661417
 20
1.020161417322835
 30
0.0
 10
2.616220472440945
 20
1.020161417322835
 30
0.0
 10
2.616220472440945
 20
1.020161417322835
 30
0.0
 10
2.616220472440945
 20
1.020161417322835
 30
0.0
 10
2.616220472440945
 20
1.020161417322835
 30
0.0
 10
2.616220472440945
 20
1.026996062992126
 30
0.0
 10
2.616220472440945
 20
1.026996062992126
 30
0.0
 10
2.616220472440945
 20
1.026996062992126
 30
0.0
 10
2.616220472440945
 20
1.026996062992126
 30
0.0
 10
2.629248031496063
 20
1.036854330708662
 30
0.0
 10
2.629248031496063
 20
1.036854330708662
 30
0.0
 10
2.629248031496063
 20
1.036854330708662
 30
0.0
 10
2.639106299212599
 20
1.044161417322835
 30
0.0
 10
2.646358267716535
 20
1.049771653543307
 30
0.0
 10
2.650968503937008
 20
1.053688976377953
 30
0.0
 10
2.650968503937008
 20
1.053688976377953
 30
0.0
 10
2.659688976377953
 20
1.06107874015748
 30
0.0
 10
2.666275590551181
 20
1.06738188976378
 30
0.0
 10
2.670688976377953
 20
1.072606299212598
 30
0.0
 10
2.670688976377953
 20
1.072606299212598
 30
0.0
 10
2.675106299212599
 20
1.077854330708661
 30
0.0
 10
2.678161417322835
 20
1.082578740157481
 30
0.0
 10
2.6798031496063
 20
1.086771653543307
 30
0.0
 10
2.6798031496063
 20
1.086771653543307
 30
0.0
 10
2.681468503937008
 20
1.090964566929134
 30
0.0
 10
2.6823031496063
 20
1.09538188976378
 30
0.0
 10
2.6823031496063
 20
1.099996062992126
 30
0.0
 10
2.6823031496063
 20
1.099996062992126
 30
0.0
 10
2.6823031496063
 20
1.107633858267717
 30
0.0
 10
2.679830708661418
 20
1.113909448818898
 30
0.0
 10
2.67494094488189
 20
1.118799212598425
 30
0.0
 10
2.67494094488189
 20
1.118799212598425
 30
0.0
 10
2.670023622047244
 20
1.123688976377953
 30
0.0
 10
2.663633858267717
 20
1.126106299212599
 30
0.0
 10
2.655775590551181
 20
1.126106299212599
 30
0.0
 10
2.655775590551181
 20
1.126106299212599
 30
0.0
 10
2.650133858267717
 20
1.126106299212599
 30
0.0
 10
2.645078740157481
 20
1.124909448818898
 30
0.0
 10
2.640661417322835
 20
1.122464566929134
 30
0.0
 10
2.640661417322835
 20
1.122464566929134
 30
0.0
 10
2.636248031496063
 20
1.120023622047244
 30
0.0
 10
2.632775590551181
 20
1.116606299212599
 30
0.0
 10
2.630220472440945
 20
1.112188976377953
 30
0.0
 10
2.630220472440945
 20
1.112188976377953
 30
0.0
 10
2.627661417322835
 20
1.107799212598425
 30
0.0
 10
2.626385826771654
 20
1.103051181102362
 30
0.0
 10
2.626385826771654
 20
1.097964566929134
 30
0.0
 10
2.626385826771654
 20
1.097964566929134
 30
0.0
 10
2.626385826771654
 20
1.096051181102362
 30
0.0
 10
2.626523622047244
 20
1.093688976377953
 30
0.0
 10
2.626803149606299
 20
1.09088188976378
 30
0.0
  0
SPLINE
  5
90
330
1F
100
AcDbEntity
  8
LAYER_1
 62
   250
100
AcDbSpline
210
0.0
220
0.0
230
1.0
 70
    11
 71
     3
 72
    60
 73
    56
 74
     0
 42
0.0000000001
 43
0.0000000001
 40
0.0
 40
0.0
 40
0.0
 40
0.0
 40
0.0714285714285714
 40
0.0714285714285714
 40
0.0714285714285714
 40
0.0714285714285714
 40
0.1428571428571429
 40
0.1428571428571429
 40
0.1428571428571429
 40
0.1428571428571429
 40
0.2142857142857143
 40
0.2142857142857143
 40
0.2142857142857143
 40
0.2142857142857143
 40
0.2857142857142857
 40
0.2857142857142857
 40
0.2857142857142857
 40
0.2857142857142857
 40
0.3571428571428571
 40
0.3571428571428571
 40
0.3571428571428571
 40
0.3571428571428571
 40
0.4285714285714285
 40
0.4285714285714285
 40
0.4285714285714285
 40
0.4285714285714285
 40
0.4999999999999999
 40
0.4999999999999999
 40
0.4999999999999999
 40
0.4999999999999999
 40
0.5714285714285713
 40
0.5714285714285713
 40
0.5714285714285713
 40
0.5714285714285713
 40
0.6428571428571427
 40
0.6428571428571427
 40
0.6428571428571427
 40
0.6428571428571427
 40
0.7142857142857141
 40
0.7142857142857141
 40
0.7142857142857141
 40
0.7142857142857141
 40
0.7857142857142855
 40
0.7857142857142855
 40
0.7857142857142855
 40
0.7857142857142855
 40
0.8571428571428569
 40
0.8571428571428569
 40
0.8571428571428569
 40
0.8571428571428569
 40
0.9285714285714283
 40
0.9285714285714283
 40
0.9285714285714283
 40
0.9285714285714283
 40
1.0
 40
1.0
 40
1.0
 40
1.0
 10
2.721358267716536
 20
1.091606299212599
 30
0.0
 10
2.721358267716536
 20
1.091606299212599
 30
0.0
 10
2.716968503937008
 20
1.096996062992126
 30
0.0
 10
2.716968503937008
 20
1.096996062992126
 30
0.0
 10
2.716968503937008
 20
1.096996062992126
 30
0.0
 10
2.728082677165355
 20
1.106051181102362
 30
0.0
 10
2.733665354330709
 20
1.113606299212599
 30
0.0
 10
2.733665354330709
 20
1.119688976377953
 30
0.0
 10
2.733665354330709
 20
1.119688976377953
 30
0.0
 10
2.733665354330709
 20
1.12038188976378
 30
0.0
 10
2.733610236220473
 20
1.121271653543307
 30
0.0
 10
2.733496062992126
 20
1.122299212598425
 30
0.0
 10
2.733496062992126
 20
1.122299212598425
 30
0.0
 10
2.732582677165354
 20
1.121909448818898
 30
0.0
 10
2.731665354330709
 20
1.121606299212598
 30
0.0
 10
2.730803149606299
 20
1.121409448818898
 30
0.0
 10
2.730803149606299
 20
1.121409448818898
 30
0.0
 10
2.72994094488189
 20
1.121188976377953
 30
0.0
 10
2.729137795275591
 20
1.12107874015748
 30
0.0
 10
2.728358267716536
 20
1.12107874015748
 30
0.0
 10
2.728358267716536
 20
1.12107874015748
 30
0.0
 10
2.725748031496063
 20
1.12107874015748
 30
0.0
 10
2.723665354330709
 20
1.121909448818898
 30
0.0
 10
2.722110236220472
 20
1.123606299212598
 30
0.0
 10
2.722110236220472
 20
1.123606299212598
 30
0.0
 10
2.720523622047244
 20
1.125271653543307
 30
0.0
 10
2.719748031496063
 20
1.127409448818898
 30
0.0
 10
2.719748031496063
 20
1.130023622047244
 30
0.0
 10
2.719748031496063
 20
1.130023622047244
 30
0.0
 10
2.719748031496063
 20
1.13257874015748
 30
0.0
 10
2.720692913385827
 20
1.134799212598425
 30
0.0
 10
2.722582677165355
 20
1.136688976377953
 30
0.0
 10
2.722582677165355
 20
1.136688976377953
 30
0.0
 10
2.724496062992126
 20
1.138606299212599
 30
0.0
 10
2.726775590551181
 20
1.139551181102362
 30
0.0
 10
2.729413385826772
 20
1.139551181102362
 30
0.0
 10
2.729413385826772
 20
1.139551181102362
 30
0.0
 10
2.733110236220472
 20
1.139551181102362
 30
0.0
 10
2.736275590551181
 20
1.13807874015748
 30
0.0
 10
2.738913385826772
 20
1.135106299212598
 30
0.0
 10
2.738913385826772
 20
1.135106299212598
 30
0.0
 10
2.741523622047244
 20
1.132161417322835
 30
0.0
 10
2.742858267716536
 20
1.128354330708661
 30
0.0
 10
2.742858267716536
 20
1.123688976377953
 30
0.0
 10
2.742858267716536
 20
1.123688976377953
 30
0.0
 10
2.742858267716536
 20
1.120633858267717
 30
0.0
 10
2.742220472440945
 20
1.117437007874016
 30
0.0
 10
2.740968503937008
 20
1.114106299212599
 30
0.0
 10
2.740968503937008
 20
1.114106299212599
 30
0.0
 10
2.739720472440945
 20
1.110771653543307
 30
0.0
 10
2.737913385826772
 20
1.107688976377953
 30
0.0
 10
2.735523622047244
 20
1.104826771653543
 30
0.0
 10
2.735523622047244
 20
1.104826771653543
 30
0.0
 10
2.733137795275591
 20
1.101996062992126
 30
0.0
 10
2.728413385826772
 20
1.09757874015748
 30
0.0
 10
2.721358267716536
 20
1.091606299212599
 30
0.0
  0
SPLINE
  5
91
330
1F
100
AcDbEntity
  8
LAYER_1
 62
   250
100
AcDbSpline
210
0.0
220
0.0
230
1.0
 70
    11
 71
     3
 72
    60
 73
    56
 74
     0
 42
0.0000000001
 43
0.0000000001
 40
0.0
 40
0.0
 40
0.0
 40
0.0
 40
0.0714285714285714
 40
0.0714285714285714
 40
0.0714285714285714
 40
0.0714285714285714
 40
0.1428571428571429
 40
0.1428571428571429
 40
0.1428571428571429
 40
0.1428571428571429
 40
0.2142857142857143
 40
0.2142857142857143
 40
0.2142857142857143
 40
0.2142857142857143
 40
0.2857142857142857
 40
0.2857142857142857
 40
0.2857142857142857
 40
0.2857142857142857
 40
0.3571428571428571
 40
0.3571428571428571
 40
0.3571428571428571
 40
0.3571428571428571
 40
0.4285714285714285
 40
0.4285714285714285
 40
0.4285714285714285
 40
0.4285714285714285
 40
0.4999999999999999
 40
0.4999999999999999
 40
0.4999999999999999
 40
0.4999999999999999
 40
0.5714285714285713
 40
0.5714285714285713
 40
0.5714285714285713
 40
0.5714285714285713
 40
0.6428571428571427
 40
0.6428571428571427
 40
0.6428571428571427
 40
0.6428571428571427
 40
0.7142857142857141
 40
0.7142857142857141
 40
0.7142857142857141
 40
0.7142857142857141
 40
0.7857142857142855
 40
0.7857142857142855
 40
0.7857142857142855
 40
0.7857142857142855
 40
0.8571428571428569
 40
0.8571428571428569
 40
0.8571428571428569
 40
0.8571428571428569
 40
0.9285714285714283
 40
0.9285714285714283
 40
0.9285714285714283
 40
0.9285714285714283
 40
1.0
 40
1.0
 40
1.0
 40
1.0
 10
2.750413385826772
 20
1.091606299212599
 30
0.0
 10
2.750413385826772
 20
1.091606299212599
 30
0.0
 10
2.746023622047244
 20
1.096996062992126
 30
0.0
 10
2.746023622047244
 20
1.096996062992126
 30
0.0
 10
2.746023622047244
 20
1.096996062992126
 30
0.0
 10
2.75713779527559
 20
1.106051181102362
 30
0.0
 10
2.762720472440945
 20
1.113606299212599
 30
0.0
 10
2.762720472440945
 20
1.119688976377953
 30
0.0
 10
2.762720472440945
 20
1.119688976377953
 30
0.0
 10
2.762720472440945
 20
1.12038188976378
 30
0.0
 10
2.762665354330709
 20
1.121271653543307
 30
0.0
 10
2.762551181102362
 20
1.122299212598425
 30
0.0
 10
2.762551181102362
 20
1.122299212598425
 30
0.0
 10
2.761637795275591
 20
1.121909448818898
 30
0.0
 10
2.760720472440945
 20
1.121606299212598
 30
0.0
 10
2.759858267716536
 20
1.121409448818898
 30
0.0
 10
2.759858267716536
 20
1.121409448818898
 30
0.0
 10
2.758996062992126
 20
1.121188976377953
 30
0.0
 10
2.758165354330709
 20
1.12107874015748
 30
0.0
 10
2.757330708661418
 20
1.12107874015748
 30
0.0
 10
2.757330708661418
 20
1.12107874015748
 30
0.0
 10
2.754775590551181
 20
1.12107874015748
 30
0.0
 10
2.752720472440945
 20
1.121909448818898
 30
0.0
 10
2.751165354330709
 20
1.123606299212598
 30
0.0
 10
2.751165354330709
 20
1.123606299212598
 30
0.0
 10
2.749582677165355
 20
1.125271653543307
 30
0.0
 10
2.7488031496063
 20
1.127409448818898
 30
0.0
 10
2.7488031496063
 20
1.130023622047244
 30
0.0
 10
2.7488031496063
 20
1.130023622047244
 30
0.0
 10
2.7488031496063
 20
1.13257874015748
 30
0.0
 10
2.749748031496063
 20
1.134799212598425
 30
0.0
 10
2.751637795275591
 20
1.136688976377953
 30
0.0
 10
2.751637795275591
 20
1.136688976377953
 30
0.0
 10
2.753523622047244
 20
1.138606299212599
 30
0.0
 10
2.755830708661418
 20
1.139551181102362
 30
0.0
 10
2.758468503937008
 20
1.139551181102362
 30
0.0
 10
2.758468503937008
 20
1.139551181102362
 30
0.0
 10
2.762165354330709
 20
1.139551181102362
 30
0.0
 10
2.765330708661418
 20
1.13807874015748
 30
0.0
 10
2.767968503937008
 20
1.135106299212598
 30
0.0
 10
2.767968503937008
 20
1.135106299212598
 30
0.0
 10
2.770578740157481
 20
1.132161417322835
 30
0.0
 10
2.771913385826772
 20
1.128354330708661
 30
0.0
 10
2.771913385826772
 20
1.123688976377953
 30
0.0
 10
2.771913385826772
 20
1.123688976377953
 30
0.0
 10
2.771913385826772
 20
1.120633858267717
 30
0.0
 10
2.771275590551181
 20
1.117437007874016
 30
0.0
 10
2.770023622047244
 20
1.114106299212599
 30
0.0
 10
2.770023622047244
 20
1.114106299212599
 30
0.0
 10
2.768775590551181
 20
1.110771653543307
 30
0.0
 10
2.766968503937008
 20
1.107688976377953
 30
0.0
 10
2.764582677165354
 20
1.104826771653543
 30
0.0
 10
2.764582677165354
 20
1.104826771653543
 30
0.0
 10
2.762192913385827
 20
1.101996062992126
 30
0.0
 10
2.757468503937008
 20
1.09757874015748
 30
0.0
 10
2.750413385826772
 20
1.091606299212599
 30
0.0
  0
ENDSEC
  0
SECTION
  2
OBJECTS
  0
DICTIONARY
  5
C
330
0
100
AcDbDictionary
  3
ACAD_GROUP
350
D
  3
ACAD_LAYOUT
350
1A
  3
ACAD_MLINESTYLE
350
17
  3
ACAD_PLOTSETTINGS
350
19
  3
ACDBHEADERROUNDTRIPXREC
350
92
  0
DICTIONARY
  5
B2
330
29
100
AcDbDictionary
280
     1
  3
ACAD_XREC_ROUNDTRIP
360
B3
  0
DICTIONARY
  5
D
102
{ACAD_REACTORS
330
C
102
}
330
C
100
AcDbDictionary
  0
DICTIONARY
  5
1A
102
{ACAD_REACTORS
330
C
102
}
330
C
100
AcDbDictionary
  0
DICTIONARY
  5
17
102
{ACAD_REACTORS
330
C
102
}
330
C
100
AcDbDictionary
  3
STANDARD
350
18
  0
DICTIONARY
  5
19
102
{ACAD_REACTORS
330
C
102
}
330
C
100
AcDbDictionary
  0
DICTIONARY
  5
92
102
{ACAD_REACTORS
330
C
102
}
330
C
100
AcDbDictionary
  3
CEPSNTYPE
350
9B
  3
DIMSTYLEDATA
350
B1
  3
FINGERPRINTGUID
350
9C
  3
HYPERLINKBASE
350
95
  3
INSUNITS
350
9A
  3
LAYOUTDICT
350
97
  3
LWETCUNION
350
99
  3
PLOTSETDICT
350
98
  3
PSVPSCALE
350
9E
  3
PUCSBASE
350
A1
  3
PUCSORGBACK
350
A7
  3
PUCSORGBOTTOM
350
A3
  3
PUCSORGFRONT
350
A6
  3
PUCSORGLEFT
350
A4
  3
PUCSORGRIGHT
350
A5
  3
PUCSORGTOP
350
A2
  3
PUCSORTHOREF
350
9F
  3
PUCSORTHOVIEW
350
A0
  3
STYLESHEET
350
96
  3
TSTACKALIGN
350
93
  3
TSTACKSIZE
350
94
  3
UCSBASE
350
AA
  3
UCSORGBACK
350
B0
  3
UCSORGBOTTOM
350
AC
  3
UCSORGFRONT
350
AF
  3
UCSORGLEFT
350
AD
  3
UCSORGRIGHT
350
AE
  3
UCSORGTOP
350
AB
  3
UCSORTHOREF
350
A8
  3
UCSORTHOVIEW
350
A9
  3
VERSIONGUID
350
9D
  0
XRECORD
  5
B3
102
{ACAD_REACTORS
330
B2
102
}
330
B2
100
AcDbXrecord
102
UCS
 74
     0
 71
     1
 10
0.0
 20
0.0
 30
0.0
 10
1.0
 20
0.0
 30
0.0
 10
0.0
 20
1.0
 30
0.0
146
0.0
 79
     0
102
VIEW
281
     0
  0
MLINESTYLE
  5
18
102
{ACAD_REACTORS
330
17
102
}
330
17
100
AcDbMlineStyle
  2
Standard
 70
     0
  3

 62
   256
 51
90.0
 52
90.0
 71
     2
 49
0.5
 62
   256
  6
BYLAYER
 49
-0.5
 62
   256
  6
BYLAYER
  0
XRECORD
  5
9B
102
{ACAD_REACTORS
330
92
102
}
330
92
100
AcDbXrecord
 90
        0
  0
XRECORD
  5
B1
102
{ACAD_REACTORS
330
92
102
}
330
92
100
AcDbXrecord
1000
DSTYLE
1002
{
1070
   340
340
11
1002
}
  0
XRECORD
  5
9C
102
{ACAD_REACTORS
330
92
102
}
330
92
100
AcDbXrecord
  1
{FAEB1C30-E019-11D5-929B-00C0DF256EC4}
  0
XRECORD
  5
95
102
{ACAD_REACTORS
330
92
102
}
330
92
100
AcDbXrecord
  1

  0
XRECORD
  5
9A
102
{ACAD_REACTORS
330
92
102
}
330
92
100
AcDbXrecord
 90
        1
  0
XRECORD
  5
97
102
{ACAD_REACTORS
330
92
102
}
330
92
100
AcDbXrecord
340
1A
  0
XRECORD
  5
99
102
{ACAD_REACTORS
330
92
102
}
330
92
100
AcDbXrecord
 90
     2560
  0
XRECORD
  5
98
102
{ACAD_REACTORS
330
92
102
}
330
92
100
AcDbXrecord
340
19
  0
XRECORD
  5
9E
102
{ACAD_REACTORS
330
92
102
}
330
92
100
AcDbXrecord
 40
0.0
  0
XRECORD
  5
A1
102
{ACAD_REACTORS
330
92
102
}
330
92
100
AcDbXrecord
340
0
  0
XRECORD
  5
A7
102
{ACAD_REACTORS
330
92
102
}
330
92
100
AcDbXrecord
 10
0.0
 20
0.0
 30
0.0
  0
XRECORD
  5
A3
102
{ACAD_REACTORS
330
92
102
}
330
92
100
AcDbXrecord
 10
0.0
 20
0.0
 30
0.0
  0
XRECORD
  5
A6
102
{ACAD_REACTORS
330
92
102
}
330
92
100
AcDbXrecord
 10
0.0
 20
0.0
 30
0.0
  0
XRECORD
  5
A4
102
{ACAD_REACTORS
330
92
102
}
330
92
100
AcDbXrecord
 10
0.0
 20
0.0
 30
0.0
  0
XRECORD
  5
A5
102
{ACAD_REACTORS
330
92
102
}
330
92
100
AcDbXrecord
 10
0.0
 20
0.0
 30
0.0
  0
XRECORD
  5
A2
102
{ACAD_REACTORS
330
92
102
}
330
92
100
AcDbXrecord
 10
0.0
 20
0.0
 30
0.0
  0
XRECORD
  5
9F
102
{ACAD_REACTORS
330
92
102
}
330
92
100
AcDbXrecord
340
0
  0
XRECORD
  5
A0
102
{ACAD_REACTORS
330
92
102
}
330
92
100
AcDbXrecord
 70
     0
  0
XRECORD
  5
96
102
{ACAD_REACTORS
330
92
102
}
330
92
100
AcDbXrecord
  1

  0
XRECORD
  5
93
102
{ACAD_REACTORS
330
92
102
}
330
92
100
AcDbXrecord
 90
        1
  0
XRECORD
  5
94
102
{ACAD_REACTORS
330
92
102
}
330
92
100
AcDbXrecord
 90
       70
  0
XRECORD
  5
AA
102
{ACAD_REACTORS
330
92
102
}
330
92
100
AcDbXrecord
340
0
  0
XRECORD
  5
B0
102
{ACAD_REACTORS
330
92
102
}
330
92
100
AcDbXrecord
 10
0.0
 20
0.0
 30
0.0
  0
XRECORD
  5
AC
102
{ACAD_REACTORS
330
92
102
}
330
92
100
AcDbXrecord
 10
0.0
 20
0.0
 30
0.0
  0
XRECORD
  5
AF
102
{ACAD_REACTORS
330
92
102
}
330
92
100
AcDbXrecord
 10
0.0
 20
0.0
 30
0.0
  0
XRECORD
  5
AD
102
{ACAD_REACTORS
330
92
102
}
330
92
100
AcDbXrecord
 10
0.0
 20
0.0
 30
0.0
  0
XRECORD
  5
AE
102
{ACAD_REACTORS
330
92
102
}
330
92
100
AcDbXrecord
 10
0.0
 20
0.0
 30
0.0
  0
XRECORD
  5
AB
102
{ACAD_REACTORS
330
92
102
}
330
92
100
AcDbXrecord
 10
0.0
 20
0.0
 30
0.0
  0
XRECORD
  5
A8
102
{ACAD_REACTORS
330
92
102
}
330
92
100
AcDbXrecord
340
0
  0
XRECORD
  5
A9
102
{ACAD_REACTORS
330
92
102
}
330
92
100
AcDbXrecord
 70
     0
  0
XRECORD
  5
9D
102
{ACAD_REACTORS
330
92
102
}
330
92
100
AcDbXrecord
  1
{FAEB1C32-E019-11D5-929B-00C0DF256EC4}
  0
ENDSEC
  0
EOF
