  0
SECTION
  2
HEADER
  9
$ACADVER
  1
AC1014
  9
$ACADMAINTVER
 70
     9
  9
$DWGCODEPAGE
  3
ANSI_1252
  9
$INSBASE
 10
0.0
 20
0.0
 30
0.0
  9
$EXTMIN
 10
-1.525275590551181
 20
0.6493346456692913
 30
0.0
  9
$EXTMAX
 10
0.8753267716535433
 20
2.408807086614173
 30
0.0
  9
$LIMMIN
 10
0.0
 20
0.0
  9
$LIMMAX
 10
12.0
 20
9.0
  9
$ORTHOMODE
 70
     0
  9
$REGENMODE
 70
     1
  9
$FILLMODE
 70
     1
  9
$QTEXTMODE
 70
     0
  9
$MIRRTEXT
 70
     1
  9
$DRAGMODE
 70
     2
  9
$LTSCALE
 40
1.0
  9
$OSMODE
 70
    37
  9
$ATTMODE
 70
     1
  9
$TEXTSIZE
 40
0.2
  9
$TRACEWID
 40
0.05
  9
$TEXTSTYLE
  7
STANDARD
  9
$CLAYER
  8
0
  9
$CELTYPE
  6
BYLAYER
  9
$CECOLOR
 62
   256
  9
$CELTSCALE
 40
1.0
  9
$DELOBJ
 70
     1
  9
$DISPSILH
 70
     0
  9
$DIMSCALE
 40
1.0
  9
$DIMASZ
 40
0.18
  9
$DIMEXO
 40
0.0625
  9
$DIMDLI
 40
0.38
  9
$DIMRND
 40
0.0
  9
$DIMDLE
 40
0.0
  9
$DIMEXE
 40
0.18
  9
$DIMTP
 40
0.0
  9
$DIMTM
 40
0.0
  9
$DIMTXT
 40
0.18
  9
$DIMCEN
 40
0.09
  9
$DIMTSZ
 40
0.0
  9
$DIMTOL
 70
     0
  9
$DIMLIM
 70
     0
  9
$DIMTIH
 70
     1
  9
$DIMTOH
 70
     1
  9
$DIMSE1
 70
     0
  9
$DIMSE2
 70
     0
  9
$DIMTAD
 70
     0
  9
$DIMZIN
 70
     0
  9
$DIMBLK
  1

  9
$DIMASO
 70
     1
  9
$DIMSHO
 70
     1
  9
$DIMPOST
  1

  9
$DIMAPOST
  1

  9
$DIMALT
 70
     0
  9
$DIMALTD
 70
     2
  9
$DIMALTF
 40
25.4
  9
$DIMLFAC
 40
1.0
  9
$DIMTOFL
 70
     0
  9
$DIMTVP
 40
0.0
  9
$DIMTIX
 70
     0
  9
$DIMSOXD
 70
     0
  9
$DIMSAH
 70
     0
  9
$DIMBLK1
  1

  9
$DIMBLK2
  1

  9
$DIMSTYLE
  2
STANDARD
  9
$DIMCLRD
 70
     0
  9
$DIMCLRE
 70
     0
  9
$DIMCLRT
 70
     0
  9
$DIMTFAC
 40
1.0
  9
$DIMGAP
 40
0.09
  9
$DIMJUST
 70
     0
  9
$DIMSD1
 70
     0
  9
$DIMSD2
 70
     0
  9
$DIMTOLJ
 70
     1
  9
$DIMTZIN
 70
     0
  9
$DIMALTZ
 70
     0
  9
$DIMALTTZ
 70
     0
  9
$DIMFIT
 70
     3
  9
$DIMUPT
 70
     0
  9
$DIMUNIT
 70
     2
  9
$DIMDEC
 70
     4
  9
$DIMTDEC
 70
     4
  9
$DIMALTU
 70
     2
  9
$DIMALTTD
 70
     2
  9
$DIMTXSTY
  7
STANDARD
  9
$DIMAUNIT
 70
     0
  9
$LUNITS
 70
     2
  9
$LUPREC
 70
     4
  9
$SKETCHINC
 40
0.1
  9
$FILLETRAD
 40
0.5
  9
$AUNITS
 70
     0
  9
$AUPREC
 70
     0
  9
$MENU
  1
.
  9
$ELEVATION
 40
0.0
  9
$PELEVATION
 40
0.0
  9
$THICKNESS
 40
0.0
  9
$LIMCHECK
 70
     0
  9
$CHAMFERA
 40
0.5
  9
$CHAMFERB
 40
0.5
  9
$CHAMFERC
 40
1.0
  9
$CHAMFERD
 40
0.0
  9
$SKPOLY
 70
     0
  9
$TDCREATE
 40
2454120.448383797
  9
$TDUPDATE
 40
2454120.448383808
  9
$TDINDWG
 40
0.0000000116
  9
$TDUSRTIMER
 40
0.0000000116
  9
$USRTIMER
 70
     1
  9
$ANGBASE
 50
0.0
  9
$ANGDIR
 70
     0
  9
$PDMODE
 70
     0
  9
$PDSIZE
 40
0.0
  9
$PLINEWID
 40
0.0
  9
$COORDS
 70
     1
  9
$SPLFRAME
 70
     0
  9
$SPLINETYPE
 70
     6
  9
$SPLINESEGS
 70
     8
  9
$ATTDIA
 70
     0
  9
$ATTREQ
 70
     1
  9
$HANDLING
 70
     1
  9
$HANDSEED
  5
98
  9
$SURFTAB1
 70
     6
  9
$SURFTAB2
 70
     6
  9
$SURFTYPE
 70
     6
  9
$SURFU
 70
     6
  9
$SURFV
 70
     6
  9
$UCSNAME
  2

  9
$UCSORG
 10
0.0
 20
0.0
 30
0.0
  9
$UCSXDIR
 10
1.0
 20
0.0
 30
0.0
  9
$UCSYDIR
 10
0.0
 20
1.0
 30
0.0
  9
$PUCSNAME
  2

  9
$PUCSORG
 10
0.0
 20
0.0
 30
0.0
  9
$PUCSXDIR
 10
1.0
 20
0.0
 30
0.0
  9
$PUCSYDIR
 10
0.0
 20
1.0
 30
0.0
  9
$USERI1
 70
     0
  9
$USERI2
 70
     0
  9
$USERI3
 70
     0
  9
$USERI4
 70
     0
  9
$USERI5
 70
     0
  9
$USERR1
 40
0.0
  9
$USERR2
 40
0.0
  9
$USERR3
 40
0.0
  9
$USERR4
 40
0.0
  9
$USERR5
 40
0.0
  9
$WORLDVIEW
 70
     1
  9
$SHADEDGE
 70
     3
  9
$SHADEDIF
 70
    70
  9
$TILEMODE
 70
     1
  9
$MAXACTVP
 70
    64
  9
$PINSBASE
 10
0.0
 20
0.0
 30
0.0
  9
$PLIMCHECK
 70
     0
  9
$PEXTMIN
 10
1.000000000000000E+20
 20
1.000000000000000E+20
 30
1.000000000000000E+20
  9
$PEXTMAX
 10
-1.000000000000000E+20
 20
-1.000000000000000E+20
 30
-1.000000000000000E+20
  9
$PLIMMIN
 10
0.0
 20
0.0
  9
$PLIMMAX
 10
12.0
 20
9.0
  9
$UNITMODE
 70
     0
  9
$VISRETAIN
 70
     1
  9
$PLINEGEN
 70
     0
  9
$PSLTSCALE
 70
     1
  9
$TREEDEPTH
 70
  3020
  9
$PICKSTYLE
 70
     1
  9
$CMLSTYLE
  2
STANDARD
  9
$CMLJUST
 70
     0
  9
$CMLSCALE
 40
1.0
  9
$PROXYGRAPHICS
 70
     1
  9
$MEASUREMENT
 70
     0
  0
ENDSEC
  0
SECTION
  2
CLASSES
  0
CLASS
  1
ACDBDICTIONARYWDFLT
  2
AcDbDictionaryWithDefault
  3
ObjectDBX Classes
 90
        0
280
     0
281
     0
  0
CLASS
  1
XRECORD
  2
AcDbXrecord
  3
AutoCAD 2000
 90
        0
280
     0
281
     0
  0
CLASS
  1
LWPOLYLINE
  2
AcDbPolyline
  3
AutoCAD 2000
 90
        0
280
     0
281
     1
  0
CLASS
  1
HATCH
  2
AcDbHatch
  3
AutoCAD 2000
 90
        0
280
     0
281
     1
  0
CLASS
  1
ACDBPLACEHOLDER
  2
AcDbPlaceHolder
  3
ObjectDBX Classes
 90
        0
280
     0
281
     0
  0
CLASS
  1
LAYOUT
  2
AcDbLayout
  3
ObjectDBX Classes
 90
        0
280
     0
281
     0
  0
ENDSEC
  0
SECTION
  2
TABLES
  0
TABLE
  2
VPORT
  5
8
330
0
100
AcDbSymbolTable
 70
     2
  0
VPORT
  5
29
102
{ACAD_XDICTIONARY
360
96
102
}
330
8
100
AcDbSymbolTableRecord
100
AcDbViewportTableRecord
  2
*ACTIVE
 70
     0
 10
0.0
 20
0.0
 11
1.0
 21
1.0
 12
10.42990654205607
 22
4.5
 13
0.0
 23
0.0
 14
0.5
 24
0.5
 15
0.5
 25
0.5
 16
0.0
 26
0.0
 36
1.0
 17
0.0
 27
0.0
 37
0.0
 40
9.0
 41
1.972972972850329
 42
50.0
 43
0.0
 44
0.0
 50
0.0
 51
0.0
 71
     0
 72
   100
 73
     1
 74
     3
 75
     0
 76
     0
 77
     0
 78
     0
  0
ENDTAB
  0
TABLE
  2
LTYPE
  5
5
330
0
100
AcDbSymbolTable
 70
     1
  0
LTYPE
  5
14
330
5
100
AcDbSymbolTableRecord
100
AcDbLinetypeTableRecord
  2
BYBLOCK
 70
     0
  3

 72
    65
 73
     0
 40
0.0
  0
LTYPE
  5
15
330
5
100
AcDbSymbolTableRecord
100
AcDbLinetypeTableRecord
  2
BYLAYER
 70
     0
  3

 72
    65
 73
     0
 40
0.0
  0
LTYPE
  5
16
330
5
100
AcDbSymbolTableRecord
100
AcDbLinetypeTableRecord
  2
CONTINUOUS
 70
     0
  3
Solid line
 72
    65
 73
     0
 40
0.0
  0
ENDTAB
  0
TABLE
  2
LAYER
  5
2
330
0
100
AcDbSymbolTable
 70
     2
  0
LAYER
  5
10
330
2
100
AcDbSymbolTableRecord
100
AcDbLayerTableRecord
  2
0
 70
     0
 62
     7
  6
CONTINUOUS
  0
LAYER
  5
2B
330
2
100
AcDbSymbolTableRecord
100
AcDbLayerTableRecord
  2
LAYER_1
 70
     0
 62
     7
  6
CONTINUOUS
  0
ENDTAB
  0
TABLE
  2
STYLE
  5
3
330
0
100
AcDbSymbolTable
 70
     1
  0
STYLE
  5
11
330
3
100
AcDbSymbolTableRecord
100
AcDbTextStyleTableRecord
  2
STANDARD
 70
     0
 40
0.0
 41
1.0
 50
0.0
 71
     0
 42
0.2
  3
txt
  4

  0
ENDTAB
  0
TABLE
  2
VIEW
  5
6
330
0
100
AcDbSymbolTable
 70
     0
  0
ENDTAB
  0
TABLE
  2
UCS
  5
7
330
0
100
AcDbSymbolTable
 70
     0
  0
ENDTAB
  0
TABLE
  2
APPID
  5
9
330
0
100
AcDbSymbolTable
 70
     2
  0
APPID
  5
12
330
9
100
AcDbSymbolTableRecord
100
AcDbRegAppTableRecord
  2
ACAD
 70
     0
  0
APPID
  5
2A
330
9
100
AcDbSymbolTableRecord
100
AcDbRegAppTableRecord
  2
ODA
 70
     0
  0
ENDTAB
  0
TABLE
  2
DIMSTYLE
  5
A
330
0
100
AcDbSymbolTable
 70
     1
  0
DIMSTYLE
105
27
330
A
100
AcDbSymbolTableRecord
100
AcDbDimStyleTableRecord
  2
STANDARD
 70
     0
  3

  4

  5

  6

  7

 40
1.0
 41
0.18
 42
0.0625
 43
0.38
 44
0.18
 45
0.0
 46
0.0
 47
0.0
 48
0.0
140
0.18
141
0.09
142
0.0
143
25.4
144
1.0
145
0.0
146
1.0
147
0.09
 71
     0
 72
     0
 73
     1
 74
     1
 75
     0
 76
     0
 77
     0
 78
     0
170
     0
171
     2
172
     0
173
     0
174
     0
175
     0
176
     0
177
     0
178
     0
270
     2
271
     4
272
     4
273
     2
274
     2
340
11
275
     0
280
     0
281
     0
282
     0
283
     1
284
     0
285
     0
286
     0
287
     3
288
     0
  0
ENDTAB
  0
TABLE
  2
BLOCK_RECORD
  5
1
330
0
100
AcDbSymbolTable
 70
     1
  0
BLOCK_RECORD
  5
1F
330
1
100
AcDbSymbolTableRecord
100
AcDbBlockTableRecord
  2
*MODEL_SPACE
  0
BLOCK_RECORD
  5
1B
330
1
100
AcDbSymbolTableRecord
100
AcDbBlockTableRecord
  2
*PAPER_SPACE
  0
ENDTAB
  0
ENDSEC
  0
SECTION
  2
BLOCKS
  0
BLOCK
  5
20
330
1F
100
AcDbEntity
  8
0
100
AcDbBlockBegin
  2
*MODEL_SPACE
 70
     0
 71
     0
 10
0.0
 20
0.0
 30
0.0
  3
*MODEL_SPACE
  1

  0
ENDBLK
  5
21
330
1F
100
AcDbEntity
  8
0
100
AcDbBlockEnd
  0
BLOCK
  5
1C
330
1B
100
AcDbEntity
 67
     1
  8
0
100
AcDbBlockBegin
  2
*PAPER_SPACE
 70
     0
 71
     0
 10
0.0
 20
0.0
 30
0.0
  3
*PAPER_SPACE
  1

  0
ENDBLK
  5
1D
330
1B
100
AcDbEntity
 67
     1
  8
0
100
AcDbBlockEnd
  0
ENDSEC
  0
SECTION
  2
ENTITIES
  0
SPLINE
  5
2C
330
1F
100
AcDbEntity
  8
LAYER_1
 62
     7
100
AcDbSpline
210
0.0
220
0.0
230
1.0
 70
    11
 71
     3
 72
    28
 73
    24
 74
     0
 42
0.0000000001
 43
0.0000000001
 40
0.0
 40
0.0
 40
0.0
 40
0.0
 40
0.1666666666666667
 40
0.1666666666666667
 40
0.1666666666666667
 40
0.1666666666666667
 40
0.3333333333333333
 40
0.3333333333333333
 40
0.3333333333333333
 40
0.3333333333333333
 40
0.5
 40
0.5
 40
0.5
 40
0.5
 40
0.6666666666666666
 40
0.6666666666666666
 40
0.6666666666666666
 40
0.6666666666666666
 40
0.8333333333333333
 40
0.8333333333333333
 40
0.8333333333333333
 40
0.8333333333333333
 40
1.0
 40
1.0
 40
1.0
 40
1.0
 10
-1.523775590551181
 20
1.049917322834646
 30
0.0
 10
-1.523775590551181
 20
1.049917322834646
 30
0.0
 10
-1.523775590551181
 20
1.588094488188977
 30
0.0
 10
-1.523775590551181
 20
1.588094488188977
 30
0.0
 10
-1.523775590551181
 20
1.588094488188977
 30
0.0
 10
-1.523775590551181
 20
1.588094488188977
 30
0.0
 10
-1.148775590551181
 20
1.588094488188977
 30
0.0
 10
-1.148775590551181
 20
1.588094488188977
 30
0.0
 10
-1.148775590551181
 20
1.588094488188977
 30
0.0
 10
-1.148775590551181
 20
1.588094488188977
 30
0.0
 10
-1.148775590551181
 20
1.463094488188977
 30
0.0
 10
-1.148775590551181
 20
1.463094488188977
 30
0.0
 10
-1.148775590551181
 20
1.463094488188977
 30
0.0
 10
-0.8690433070866143
 20
1.526259842519685
 30
0.0
 10
-1.02846062992126
 20
1.234496062992126
 30
0.0
 10
-0.7427125984251969
 20
1.246527559055118
 30
0.0
 10
-0.7427125984251969
 20
1.246527559055118
 30
0.0
 10
-0.7427125984251969
 20
1.246527559055118
 30
0.0
 10
-0.7427125984251969
 20
1.049917322834646
 30
0.0
 10
-0.7427125984251969
 20
1.049917322834646
 30
0.0
 10
-0.7427125984251969
 20
1.049917322834646
 30
0.0
 10
-0.7427125984251969
 20
1.049917322834646
 30
0.0
 10
-1.523775590551181
 20
1.049917322834646
 30
0.0
 10
-1.523775590551181
 20
1.049917322834646
 30
0.0
  0
SPLINE
  5
2D
330
1F
100
AcDbEntity
  8
LAYER_1
 62
   250
100
AcDbSpline
210
0.0
220
0.0
230
1.0
 70
    11
 71
     3
 72
   104
 73
   100
 74
     0
 42
0.0000000001
 43
0.0000000001
 40
0.0
 40
0.0
 40
0.0
 40
0.0
 40
0.04
 40
0.04
 40
0.04
 40
0.04
 40
0.08
 40
0.08
 40
0.08
 40
0.08
 40
0.12
 40
0.12
 40
0.12
 40
0.12
 40
0.16
 40
0.16
 40
0.16
 40
0.16
 40
0.2
 40
0.2
 40
0.2
 40
0.2
 40
0.24
 40
0.24
 40
0.24
 40
0.24
 40
0.28
 40
0.28
 40
0.28
 40
0.28
 40
0.32
 40
0.32
 40
0.32
 40
0.32
 40
0.36
 40
0.36
 40
0.36
 40
0.36
 40
0.4
 40
0.4
 40
0.4
 40
0.4
 40
0.44
 40
0.44
 40
0.44
 40
0.44
 40
0.4799999999999999
 40
0.4799999999999999
 40
0.4799999999999999
 40
0.4799999999999999
 40
0.5199999999999999
 40
0.5199999999999999
 40
0.5199999999999999
 40
0.5199999999999999
 40
0.5599999999999999
 40
0.5599999999999999
 40
0.5599999999999999
 40
0.5599999999999999
 40
0.6
 40
0.6
 40
0.6
 40
0.6
 40
0.64
 40
0.64
 40
0.64
 40
0.64
 40
0.6800000000000001
 40
0.6800000000000001
 40
0.6800000000000001
 40
0.6800000000000001
 40
0.7200000000000001
 40
0.7200000000000001
 40
0.7200000000000001
 40
0.7200000000000001
 40
0.7600000000000001
 40
0.7600000000000001
 40
0.7600000000000001
 40
0.7600000000000001
 40
0.8000000000000002
 40
0.8000000000000002
 40
0.8000000000000002
 40
0.8000000000000002
 40
0.8400000000000002
 40
0.8400000000000002
 40
0.8400000000000002
 40
0.8400000000000002
 40
0.8800000000000002
 40
0.8800000000000002
 40
0.8800000000000002
 40
0.8800000000000002
 40
0.9200000000000003
 40
0.9200000000000003
 40
0.9200000000000003
 40
0.9200000000000003
 40
0.9600000000000003
 40
0.9600000000000003
 40
0.9600000000000003
 40
0.9600000000000003
 40
1.0
 40
1.0
 40
1.0
 40
1.0
 10
-1.321102362204724
 20
0.9866692913385827
 30
0.0
 10
-1.321102362204724
 20
0.9866692913385827
 30
0.0
 10
-1.267129921259843
 20
0.9866692913385827
 30
0.0
 10
-1.267129921259843
 20
0.9866692913385827
 30
0.0
 10
-1.267129921259843
 20
0.9866692913385827
 30
0.0
 10
-1.25396062992126
 20
0.9866692913385827
 30
0.0
 10
-1.244933070866142
 20
0.9860590551181103
 30
0.0
 10
-1.240047244094488
 20
0.9848622047244094
 30
0.0
 10
-1.240047244094488
 20
0.9848622047244094
 30
0.0
 10
-1.232822834645669
 20
0.9831417322834646
 30
0.0
 10
-1.227129921259843
 20
0.980003937007874
 30
0.0
 10
-1.222905511811024
 20
0.9754448818897639
 30
0.0
 10
-1.222905511811024
 20
0.9754448818897639
 30
0.0
 10
-1.218712598425197
 20
0.9708897637795276
 30
0.0
 10
-1.216602362204724
 20
0.9653897637795276
 30
0.0
 10
-1.216602362204724
 20
0.959003937007874
 30
0.0
 10
-1.216602362204724
 20
0.959003937007874
 30
0.0
 10
-1.216602362204724
 20
0.9543897637795276
 30
0.0
 10
-1.217712598425197
 20
0.950251968503937
 30
0.0
 10
-1.219933070866142
 20
0.9465866141732284
 30
0.0
 10
-1.219933070866142
 20
0.9465866141732284
 30
0.0
 10
-1.222157480314961
 20
0.9429173228346457
 30
0.0
 10
-1.225405511811024
 20
0.9397795275590551
 30
0.0
 10
-1.229629921259843
 20
0.9371968503937008
 30
0.0
 10
-1.229629921259843
 20
0.9371968503937008
 30
0.0
 10
-1.232350393700787
 20
0.935503937007874
 30
0.0
 10
-1.23601968503937
 20
0.9340590551181103
 30
0.0
 10
-1.240685039370079
 20
0.9328622047244095
 30
0.0
 10
-1.240685039370079
 20
0.9328622047244095
 30
0.0
 10
-1.234767716535433
 20
0.9317795275590551
 30
0.0
 10
-1.230267716535433
 20
0.930476377952756
 30
0.0
 10
-1.227185039370079
 20
0.9289763779527559
 30
0.0
 10
-1.227185039370079
 20
0.9289763779527559
 30
0.0
 10
-1.22251968503937
 20
0.9266968503937009
 30
0.0
 10
-1.218822834645669
 20
0.9234488188976379
 30
0.0
 10
-1.216129921259843
 20
0.9191968503937008
 30
0.0
 10
-1.216129921259843
 20
0.9191968503937008
 30
0.0
 10
-1.213405511811024
 20
0.914976377952756
 30
0.0
 10
-1.212047244094488
 20
0.9101968503937008
 30
0.0
 10
-1.212047244094488
 20
0.9048897637795276
 30
0.0
 10
-1.212047244094488
 20
0.9048897637795276
 30
0.0
 10
-1.212047244094488
 20
0.8997244094488189
 30
0.0
 10
-1.213377952755906
 20
0.8949488188976378
 30
0.0
 10
-1.216047244094488
 20
0.8905590551181103
 30
0.0
 10
-1.216047244094488
 20
0.8905590551181103
 30
0.0
 10
-1.218685039370079
 20
0.8861692913385827
 30
0.0
 10
-1.22246062992126
 20
0.8825590551181103
 30
0.0
 10
-1.227295275590551
 20
0.8797244094488189
 30
0.0
 10
-1.227295275590551
 20
0.8797244094488189
 30
0.0
 10
-1.232157480314961
 20
0.8769212598425197
 30
0.0
 10
-1.237822834645669
 20
0.8751141732283465
 30
0.0
 10
-1.244267716535433
 20
0.8743070866141732
 30
0.0
 10
-1.244267716535433
 20
0.8743070866141732
 30
0.0
 10
-1.250740157480315
 20
0.8735314960629922
 30
0.0
 10
-1.257377952755906
 20
0.8731417322834646
 30
0.0
 10
-1.264212598425197
 20
0.8731417322834646
 30
0.0
 10
-1.264212598425197
 20
0.8731417322834646
 30
0.0
 10
-1.264212598425197
 20
0.8731417322834646
 30
0.0
 10
-1.321102362204724
 20
0.8731417322834646
 30
0.0
 10
-1.321102362204724
 20
0.8731417322834646
 30
0.0
 10
-1.321102362204724
 20
0.8731417322834646
 30
0.0
 10
-1.321102362204724
 20
0.8731417322834646
 30
0.0
 10
-1.321102362204724
 20
0.879976377952756
 30
0.0
 10
-1.321102362204724
 20
0.879976377952756
 30
0.0
 10
-1.321102362204724
 20
0.879976377952756
 30
0.0
 10
-1.321102362204724
 20
0.879976377952756
 30
0.0
 10
-1.317267716535433
 20
0.879976377952756
 30
0.0
 10
-1.317267716535433
 20
0.879976377952756
 30
0.0
 10
-1.317267716535433
 20
0.879976377952756
 30
0.0
 10
-1.313570866141732
 20
0.879976377952756
 30
0.0
 10
-1.311070866141732
 20
0.8805590551181103
 30
0.0
 10
-1.309712598425197
 20
0.8816968503937008
 30
0.0
 10
-1.309712598425197
 20
0.8816968503937008
 30
0.0
 10
-1.307740157480315
 20
0.8832519685039371
 30
0.0
 10
-1.306767716535433
 20
0.8858622047244095
 30
0.0
 10
-1.306767716535433
 20
0.889503937007874
 30
0.0
 10
-1.306767716535433
 20
0.889503937007874
 30
0.0
 10
-1.306767716535433
 20
0.889503937007874
 30
0.0
 10
-1.306767716535433
 20
0.9683622047244095
 30
0.0
 10
-1.306767716535433
 20
0.9683622047244095
 30
0.0
 10
-1.306767716535433
 20
0.9683622047244095
 30
0.0
 10
-1.306767716535433
 20
0.9720590551181103
 30
0.0
 10
-1.307070866141732
 20
0.9745590551181103
 30
0.0
 10
-1.307657480314961
 20
0.9759173228346457
 30
0.0
 10
-1.307657480314961
 20
0.9759173228346457
 30
0.0
 10
-1.308267716535433
 20
0.9772795275590551
 30
0.0
 10
-1.309157480314961
 20
0.978251968503937
 30
0.0
 10
-1.310350393700787
 20
0.9788622047244094
 30
0.0
 10
-1.310350393700787
 20
0.9788622047244094
 30
0.0
 10
-1.311543307086614
 20
0.9794448818897639
 30
0.0
 10
-1.313850393700788
 20
0.9797519685039371
 30
0.0
 10
-1.317267716535433
 20
0.9797519685039371
 30
0.0
 10
-1.317267716535433
 20
0.9797519685039371
 30
0.0
 10
-1.317267716535433
 20
0.9797519685039371
 30
0.0
 10
-1.321102362204724
 20
0.9797519685039371
 30
0.0
 10
-1.321102362204724
 20
0.9797519685039371
 30
0.0
 10
-1.321102362204724
 20
0.9797519685039371
 30
0.0
 10
-1.321102362204724
 20
0.9797519685039371
 30
0.0
 10
-1.321102362204724
 20
0.9866692913385827
 30
0.0
 10
-1.321102362204724
 20
0.9866692913385827
 30
0.0
  0
SPLINE
  5
2E
330
1F
100
AcDbEntity
  8
LAYER_1
 62
   250
100
AcDbSpline
210
0.0
220
0.0
230
1.0
 70
    11
 71
     3
 72
    40
 73
    36
 74
     0
 42
0.0000000001
 43
0.0000000001
 40
0.0
 40
0.0
 40
0.0
 40
0.0
 40
0.1111111111111111
 40
0.1111111111111111
 40
0.1111111111111111
 40
0.1111111111111111
 40
0.2222222222222222
 40
0.2222222222222222
 40
0.2222222222222222
 40
0.2222222222222222
 40
0.3333333333333333
 40
0.3333333333333333
 40
0.3333333333333333
 40
0.3333333333333333
 40
0.4444444444444444
 40
0.4444444444444444
 40
0.4444444444444444
 40
0.4444444444444444
 40
0.5555555555555556
 40
0.5555555555555556
 40
0.5555555555555556
 40
0.5555555555555556
 40
0.6666666666666667
 40
0.6666666666666667
 40
0.6666666666666667
 40
0.6666666666666667
 40
0.7777777777777779
 40
0.7777777777777779
 40
0.7777777777777779
 40
0.7777777777777779
 40
0.8888888888888891
 40
0.8888888888888891
 40
0.8888888888888891
 40
0.8888888888888891
 40
1.0
 40
1.0
 40
1.0
 40
1.0
 10
-1.291543307086614
 20
0.9776417322834646
 30
0.0
 10
-1.291543307086614
 20
0.9776417322834646
 30
0.0
 10
-1.291543307086614
 20
0.9360590551181103
 30
0.0
 10
-1.291543307086614
 20
0.9360590551181103
 30
0.0
 10
-1.291543307086614
 20
0.9360590551181103
 30
0.0
 10
-1.291543307086614
 20
0.9360590551181103
 30
0.0
 10
-1.270795275590551
 20
0.9360590551181103
 30
0.0
 10
-1.270795275590551
 20
0.9360590551181103
 30
0.0
 10
-1.270795275590551
 20
0.9360590551181103
 30
0.0
 10
-1.261102362204724
 20
0.9360590551181103
 30
0.0
 10
-1.254433070866142
 20
0.936503937007874
 30
0.0
 10
-1.250877952755906
 20
0.9374173228346457
 30
0.0
 10
-1.250877952755906
 20
0.9374173228346457
 30
0.0
 10
-1.245267716535433
 20
0.9388897637795276
 30
0.0
 10
-1.24101968503937
 20
0.9413897637795275
 30
0.0
 10
-1.238047244094488
 20
0.9449173228346457
 30
0.0
 10
-1.238047244094488
 20
0.9449173228346457
 30
0.0
 10
-1.235102362204724
 20
0.9484448818897638
 30
0.0
 10
-1.233602362204725
 20
0.9529763779527559
 30
0.0
 10
-1.233602362204725
 20
0.9585039370078741
 30
0.0
 10
-1.233602362204725
 20
0.9585039370078741
 30
0.0
 10
-1.233602362204725
 20
0.9631692913385828
 30
0.0
 10
-1.23496062992126
 20
0.9670590551181103
 30
0.0
 10
-1.237629921259843
 20
0.9701968503937009
 30
0.0
 10
-1.237629921259843
 20
0.9701968503937009
 30
0.0
 10
-1.240322834645669
 20
0.9733070866141733
 30
0.0
 10
-1.243933070866142
 20
0.9754448818897639
 30
0.0
 10
-1.248433070866142
 20
0.9765866141732283
 30
0.0
 10
-1.248433070866142
 20
0.9765866141732283
 30
0.0
 10
-1.251350393700788
 20
0.9772795275590551
 30
0.0
 10
-1.257433070866142
 20
0.9776417322834646
 30
0.0
 10
-1.266657480314961
 20
0.9776417322834646
 30
0.0
 10
-1.266657480314961
 20
0.9776417322834646
 30
0.0
 10
-1.266657480314961
 20
0.9776417322834646
 30
0.0
 10
-1.291543307086614
 20
0.9776417322834646
 30
0.0
 10
-1.291543307086614
 20
0.9776417322834646
 30
0.0
  0
SPLINE
  5
2F
330
1F
100
AcDbEntity
  8
LAYER_1
 62
   250
100
AcDbSpline
210
0.0
220
0.0
230
1.0
 70
    11
 71
     3
 72
    52
 73
    48
 74
     0
 42
0.0000000001
 43
0.0000000001
 40
0.0
 40
0.0
 40
0.0
 40
0.0
 40
0.0833333333333333
 40
0.0833333333333333
 40
0.0833333333333333
 40
0.0833333333333333
 40
0.1666666666666667
 40
0.1666666666666667
 40
0.1666666666666667
 40
0.1666666666666667
 40
0.25
 40
0.25
 40
0.25
 40
0.25
 40
0.3333333333333333
 40
0.3333333333333333
 40
0.3333333333333333
 40
0.3333333333333333
 40
0.4166666666666666
 40
0.4166666666666666
 40
0.4166666666666666
 40
0.4166666666666666
 40
0.4999999999999999
 40
0.4999999999999999
 40
0.4999999999999999
 40
0.4999999999999999
 40
0.5833333333333333
 40
0.5833333333333333
 40
0.5833333333333333
 40
0.5833333333333333
 40
0.6666666666666666
 40
0.6666666666666666
 40
0.6666666666666666
 40
0.6666666666666666
 40
0.75
 40
0.75
 40
0.75
 40
0.75
 40
0.8333333333333334
 40
0.8333333333333334
 40
0.8333333333333334
 40
0.8333333333333334
 40
0.9166666666666667
 40
0.9166666666666667
 40
0.9166666666666667
 40
0.9166666666666667
 40
1.0
 40
1.0
 40
1.0
 40
1.0
 10
-1.291543307086614
 20
0.9282244094488189
 30
0.0
 10
-1.291543307086614
 20
0.9282244094488189
 30
0.0
 10
-1.291543307086614
 20
0.890976377952756
 30
0.0
 10
-1.291543307086614
 20
0.890976377952756
 30
0.0
 10
-1.291543307086614
 20
0.890976377952756
 30
0.0
 10
-1.291543307086614
 20
0.887224409448819
 30
0.0
 10
-1.291377952755906
 20
0.8850039370078741
 30
0.0
 10
-1.291074803149606
 20
0.8842795275590552
 30
0.0
 10
-1.291074803149606
 20
0.8842795275590552
 30
0.0
 10
-1.290629921259843
 20
0.8833070866141732
 30
0.0
 10
-1.289767716535433
 20
0.8826417322834647
 30
0.0
 10
-1.28846062992126
 20
0.8822519685039371
 30
0.0
 10
-1.28846062992126
 20
0.8822519685039371
 30
0.0
 10
-1.287543307086614
 20
0.881976377952756
 30
0.0
 10
-1.284933070866142
 20
0.8818346456692914
 30
0.0
 10
-1.280657480314961
 20
0.8818346456692914
 30
0.0
 10
-1.280657480314961
 20
0.8818346456692914
 30
0.0
 10
-1.280657480314961
 20
0.8818346456692914
 30
0.0
 10
-1.269574803149606
 20
0.8818346456692914
 30
0.0
 10
-1.269574803149606
 20
0.8818346456692914
 30
0.0
 10
-1.269574803149606
 20
0.8818346456692914
 30
0.0
 10
-1.258629921259843
 20
0.8818346456692914
 30
0.0
 10
-1.250795275590551
 20
0.8824488188976378
 30
0.0
 10
-1.246102362204725
 20
0.8836692913385827
 30
0.0
 10
-1.246102362204725
 20
0.8836692913385827
 30
0.0
 10
-1.241405511811024
 20
0.8848897637795276
 30
0.0
 10
-1.237405511811024
 20
0.8874763779527559
 30
0.0
 10
-1.234102362204725
 20
0.8914212598425197
 30
0.0
 10
-1.234102362204725
 20
0.8914212598425197
 30
0.0
 10
-1.230795275590551
 20
0.8953346456692913
 30
0.0
 10
-1.229129921259843
 20
0.9000866141732283
 30
0.0
 10
-1.229129921259843
 20
0.9056141732283465
 30
0.0
 10
-1.229129921259843
 20
0.9056141732283465
 30
0.0
 10
-1.229129921259843
 20
0.9102795275590552
 30
0.0
 10
-1.230488188976378
 20
0.9144173228346457
 30
0.0
 10
-1.233157480314961
 20
0.9180314960629922
 30
0.0
 10
-1.233157480314961
 20
0.9180314960629922
 30
0.0
 10
-1.235850393700787
 20
0.9216417322834646
 30
0.0
 10
-1.239574803149606
 20
0.9242244094488189
 30
0.0
 10
-1.244322834645669
 20
0.9258346456692914
 30
0.0
 10
-1.244322834645669
 20
0.9258346456692914
 30
0.0
 10
-1.249074803149606
 20
0.9274488188976379
 30
0.0
 10
-1.257488188976378
 20
0.9282244094488189
 30
0.0
 10
-1.269574803149606
 20
0.9282244094488189
 30
0.0
 10
-1.269574803149606
 20
0.9282244094488189
 30
0.0
 10
-1.269574803149606
 20
0.9282244094488189
 30
0.0
 10
-1.291543307086614
 20
0.9282244094488189
 30
0.0
 10
-1.291543307086614
 20
0.9282244094488189
 30
0.0
  0
SPLINE
  5
30
330
1F
100
AcDbEntity
  8
LAYER_1
 62
   250
100
AcDbSpline
210
0.0
220
0.0
230
1.0
 70
    11
 71
     3
 72
   112
 73
   108
 74
     0
 42
0.0000000001
 43
0.0000000001
 40
0.0
 40
0.0
 40
0.0
 40
0.0
 40
0.037037037037037
 40
0.037037037037037
 40
0.037037037037037
 40
0.037037037037037
 40
0.0740740740740741
 40
0.0740740740740741
 40
0.0740740740740741
 40
0.0740740740740741
 40
0.1111111111111111
 40
0.1111111111111111
 40
0.1111111111111111
 40
0.1111111111111111
 40
0.1481481481481481
 40
0.1481481481481481
 40
0.1481481481481481
 40
0.1481481481481481
 40
0.1851851851851852
 40
0.1851851851851852
 40
0.1851851851851852
 40
0.1851851851851852
 40
0.2222222222222222
 40
0.2222222222222222
 40
0.2222222222222222
 40
0.2222222222222222
 40
0.2592592592592592
 40
0.2592592592592592
 40
0.2592592592592592
 40
0.2592592592592592
 40
0.2962962962962963
 40
0.2962962962962963
 40
0.2962962962962963
 40
0.2962962962962963
 40
0.3333333333333333
 40
0.3333333333333333
 40
0.3333333333333333
 40
0.3333333333333333
 40
0.3703703703703704
 40
0.3703703703703704
 40
0.3703703703703704
 40
0.3703703703703704
 40
0.4074074074074074
 40
0.4074074074074074
 40
0.4074074074074074
 40
0.4074074074074074
 40
0.4444444444444444
 40
0.4444444444444444
 40
0.4444444444444444
 40
0.4444444444444444
 40
0.4814814814814815
 40
0.4814814814814815
 40
0.4814814814814815
 40
0.4814814814814815
 40
0.5185185185185185
 40
0.5185185185185185
 40
0.5185185185185185
 40
0.5185185185185185
 40
0.5555555555555556
 40
0.5555555555555556
 40
0.5555555555555556
 40
0.5555555555555556
 40
0.5925925925925926
 40
0.5925925925925926
 40
0.5925925925925926
 40
0.5925925925925926
 40
0.6296296296296295
 40
0.6296296296296295
 40
0.6296296296296295
 40
0.6296296296296295
 40
0.6666666666666665
 40
0.6666666666666665
 40
0.6666666666666665
 40
0.6666666666666665
 40
0.7037037037037035
 40
0.7037037037037035
 40
0.7037037037037035
 40
0.7037037037037035
 40
0.7407407407407405
 40
0.7407407407407405
 40
0.7407407407407405
 40
0.7407407407407405
 40
0.7777777777777775
 40
0.7777777777777775
 40
0.7777777777777775
 40
0.7777777777777775
 40
0.8148148148148144
 40
0.8148148148148144
 40
0.8148148148148144
 40
0.8148148148148144
 40
0.8518518518518514
 40
0.8518518518518514
 40
0.8518518518518514
 40
0.8518518518518514
 40
0.8888888888888884
 40
0.8888888888888884
 40
0.8888888888888884
 40
0.8888888888888884
 40
0.9259259259259254
 40
0.9259259259259254
 40
0.9259259259259254
 40
0.9259259259259254
 40
0.9629629629629624
 40
0.9629629629629624
 40
0.9629629629629624
 40
0.9629629629629624
 40
1.0
 40
1.0
 40
1.0
 40
1.0
 10
-1.154437007874016
 20
0.9866692913385827
 30
0.0
 10
-1.154437007874016
 20
0.9866692913385827
 30
0.0
 10
-1.14101968503937
 20
0.9866692913385827
 30
0.0
 10
-1.14101968503937
 20
0.9866692913385827
 30
0.0
 10
-1.14101968503937
 20
0.9866692913385827
 30
0.0
 10
-1.14101968503937
 20
0.9866692913385827
 30
0.0
 10
-1.105771653543307
 20
0.8917795275590551
 30
0.0
 10
-1.105771653543307
 20
0.8917795275590551
 30
0.0
 10
-1.105771653543307
 20
0.8917795275590551
 30
0.0
 10
-1.104047244094488
 20
0.8870039370078741
 30
0.0
 10
-1.102299212598425
 20
0.8838346456692914
 30
0.0
 10
-1.10051968503937
 20
0.8823070866141732
 30
0.0
 10
-1.10051968503937
 20
0.8823070866141732
 30
0.0
 10
-1.098771653543307
 20
0.880751968503937
 30
0.0
 10
-1.09638188976378
 20
0.879976377952756
 30
0.0
 10
-1.093409448818898
 20
0.879976377952756
 30
0.0
 10
-1.093409448818898
 20
0.879976377952756
 30
0.0
 10
-1.093409448818898
 20
0.879976377952756
 30
0.0
 10
-1.091629921259843
 20
0.879976377952756
 30
0.0
 10
-1.091629921259843
 20
0.879976377952756
 30
0.0
 10
-1.091629921259843
 20
0.879976377952756
 30
0.0
 10
-1.091629921259843
 20
0.879976377952756
 30
0.0
 10
-1.091629921259843
 20
0.8731417322834646
 30
0.0
 10
-1.091629921259843
 20
0.8731417322834646
 30
0.0
 10
-1.091629921259843
 20
0.8731417322834646
 30
0.0
 10
-1.091629921259843
 20
0.8731417322834646
 30
0.0
 10
-1.132074803149606
 20
0.8731417322834646
 30
0.0
 10
-1.132074803149606
 20
0.8731417322834646
 30
0.0
 10
-1.132074803149606
 20
0.8731417322834646
 30
0.0
 10
-1.132074803149606
 20
0.8731417322834646
 30
0.0
 10
-1.132074803149606
 20
0.879976377952756
 30
0.0
 10
-1.132074803149606
 20
0.879976377952756
 30
0.0
 10
-1.132074803149606
 20
0.879976377952756
 30
0.0
 10
-1.130771653543307
 20
0.8800866141732284
 30
0.0
 10
-1.129492125984252
 20
0.8801417322834646
 30
0.0
 10
-1.128240157480315
 20
0.8801417322834646
 30
0.0
 10
-1.128240157480315
 20
0.8801417322834646
 30
0.0
 10
-1.125629921259843
 20
0.8801417322834646
 30
0.0
 10
-1.123937007874016
 20
0.8804212598425197
 30
0.0
 10
-1.123102362204725
 20
0.8809488188976379
 30
0.0
 10
-1.123102362204725
 20
0.8809488188976379
 30
0.0
 10
-1.121547244094488
 20
0.881976377952756
 30
0.0
 10
-1.120744094488189
 20
0.8832795275590551
 30
0.0
 10
-1.120744094488189
 20
0.8848622047244095
 30
0.0
 10
-1.120744094488189
 20
0.8848622047244095
 30
0.0
 10
-1.120744094488189
 20
0.8860039370078741
 30
0.0
 10
-1.12151968503937
 20
0.8887795275590552
 30
0.0
 10
-1.12301968503937
 20
0.8932519685039371
 30
0.0
 10
-1.12301968503937
 20
0.8932519685039371
 30
0.0
 10
-1.12301968503937
 20
0.8932519685039371
 30
0.0
 10
-1.13051968503937
 20
0.9152244094488189
 30
0.0
 10
-1.13051968503937
 20
0.9152244094488189
 30
0.0
 10
-1.13051968503937
 20
0.9152244094488189
 30
0.0
 10
-1.13051968503937
 20
0.9152244094488189
 30
0.0
 10
-1.171685039370079
 20
0.9152244094488189
 30
0.0
 10
-1.171685039370079
 20
0.9152244094488189
 30
0.0
 10
-1.171685039370079
 20
0.9152244094488189
 30
0.0
 10
-1.171685039370079
 20
0.9152244094488189
 30
0.0
 10
-1.180492125984252
 20
0.8906417322834646
 30
0.0
 10
-1.180492125984252
 20
0.8906417322834646
 30
0.0
 10
-1.180492125984252
 20
0.8906417322834646
 30
0.0
 10
-1.181409448818898
 20
0.8880866141732284
 30
0.0
 10
-1.18188188976378
 20
0.8863346456692913
 30
0.0
 10
-1.18188188976378
 20
0.8853346456692913
 30
0.0
 10
-1.18188188976378
 20
0.8853346456692913
 30
0.0
 10
-1.18188188976378
 20
0.8842519685039371
 30
0.0
 10
-1.181574803149606
 20
0.8833070866141732
 30
0.0
 10
-1.18101968503937
 20
0.882503937007874
 30
0.0
 10
-1.18101968503937
 20
0.882503937007874
 30
0.0
 10
-1.180437007874016
 20
0.8816968503937008
 30
0.0
 10
-1.179685039370079
 20
0.8810866141732284
 30
0.0
 10
-1.178685039370079
 20
0.8806692913385827
 30
0.0
 10
-1.178685039370079
 20
0.8806692913385827
 30
0.0
 10
-1.177712598425197
 20
0.8802519685039371
 30
0.0
 10
-1.176157480314961
 20
0.8800590551181102
 30
0.0
 10
-1.173964566929134
 20
0.8800590551181102
 30
0.0
 10
-1.173964566929134
 20
0.8800590551181102
 30
0.0
 10
-1.17251968503937
 20
0.8800590551181102
 30
0.0
 10
-1.171326771653543
 20
0.8800314960629921
 30
0.0
 10
-1.170409448818898
 20
0.879976377952756
 30
0.0
 10
-1.170409448818898
 20
0.879976377952756
 30
0.0
 10
-1.170409448818898
 20
0.879976377952756
 30
0.0
 10
-1.170409448818898
 20
0.8731417322834646
 30
0.0
 10
-1.170409448818898
 20
0.8731417322834646
 30
0.0
 10
-1.170409448818898
 20
0.8731417322834646
 30
0.0
 10
-1.170409448818898
 20
0.8731417322834646
 30
0.0
 10
-1.204326771653543
 20
0.8731417322834646
 30
0.0
 10
-1.204326771653543
 20
0.8731417322834646
 30
0.0
 10
-1.204326771653543
 20
0.8731417322834646
 30
0.0
 10
-1.204326771653543
 20
0.8731417322834646
 30
0.0
 10
-1.204326771653543
 20
0.879976377952756
 30
0.0
 10
-1.204326771653543
 20
0.879976377952756
 30
0.0
 10
-1.204326771653543
 20
0.879976377952756
 30
0.0
 10
-1.201185039370079
 20
0.879976377952756
 30
0.0
 10
-1.198909448818898
 20
0.8802795275590551
 30
0.0
 10
-1.197547244094488
 20
0.8809212598425197
 30
0.0
 10
-1.197547244094488
 20
0.8809212598425197
 30
0.0
 10
-1.196157480314961
 20
0.8815314960629922
 30
0.0
 10
-1.194937007874016
 20
0.8825314960629922
 30
0.0
 10
-1.193909448818898
 20
0.8839212598425197
 30
0.0
 10
-1.193909448818898
 20
0.8839212598425197
 30
0.0
 10
-1.19288188976378
 20
0.8853070866141732
 30
0.0
 10
-1.19151968503937
 20
0.888224409448819
 30
0.0
 10
-1.189854330708662
 20
0.8926692913385828
 30
0.0
 10
-1.189854330708662
 20
0.8926692913385828
 30
0.0
 10
-1.189854330708662
 20
0.8926692913385828
 30
0.0
 10
-1.154437007874016
 20
0.9866692913385827
 30
0.0
 10
-1.154437007874016
 20
0.9866692913385827
 30
0.0
  0
SPLINE
  5
31
330
1F
100
AcDbEntity
  8
LAYER_1
 62
   250
100
AcDbSpline
210
0.0
220
0.0
230
1.0
 70
    11
 71
     3
 72
    16
 73
    12
 74
     0
 42
0.0000000001
 43
0.0000000001
 40
0.0
 40
0.0
 40
0.0
 40
0.0
 40
0.3333333333333333
 40
0.3333333333333333
 40
0.3333333333333333
 40
0.3333333333333333
 40
0.6666666666666666
 40
0.6666666666666666
 40
0.6666666666666666
 40
0.6666666666666666
 40
1.0
 40
1.0
 40
1.0
 40
1.0
 10
-1.168685039370079
 20
0.9231968503937008
 30
0.0
 10
-1.168685039370079
 20
0.9231968503937008
 30
0.0
 10
-1.133602362204724
 20
0.9231968503937008
 30
0.0
 10
-1.133602362204724
 20
0.9231968503937008
 30
0.0
 10
-1.133602362204724
 20
0.9231968503937008
 30
0.0
 10
-1.133602362204724
 20
0.9231968503937008
 30
0.0
 10
-1.151185039370079
 20
0.9720314960629922
 30
0.0
 10
-1.151185039370079
 20
0.9720314960629922
 30
0.0
 10
-1.151185039370079
 20
0.9720314960629922
 30
0.0
 10
-1.151185039370079
 20
0.9720314960629922
 30
0.0
 10
-1.168685039370079
 20
0.9231968503937008
 30
0.0
 10
-1.168685039370079
 20
0.9231968503937008
 30
0.0
  0
SPLINE
  5
32
330
1F
100
AcDbEntity
  8
LAYER_1
 62
   250
100
AcDbSpline
210
0.0
220
0.0
230
1.0
 70
    11
 71
     3
 72
    72
 73
    68
 74
     0
 42
0.0000000001
 43
0.0000000001
 40
0.0
 40
0.0
 40
0.0
 40
0.0
 40
0.0588235294117647
 40
0.0588235294117647
 40
0.0588235294117647
 40
0.0588235294117647
 40
0.1176470588235294
 40
0.1176470588235294
 40
0.1176470588235294
 40
0.1176470588235294
 40
0.1764705882352941
 40
0.1764705882352941
 40
0.1764705882352941
 40
0.1764705882352941
 40
0.2352941176470588
 40
0.2352941176470588
 40
0.2352941176470588
 40
0.2352941176470588
 40
0.2941176470588235
 40
0.2941176470588235
 40
0.2941176470588235
 40
0.2941176470588235
 40
0.3529411764705883
 40
0.3529411764705883
 40
0.3529411764705883
 40
0.3529411764705883
 40
0.411764705882353
 40
0.411764705882353
 40
0.411764705882353
 40
0.411764705882353
 40
0.4705882352941177
 40
0.4705882352941177
 40
0.4705882352941177
 40
0.4705882352941177
 40
0.5294117647058824
 40
0.5294117647058824
 40
0.5294117647058824
 40
0.5294117647058824
 40
0.5882352941176471
 40
0.5882352941176471
 40
0.5882352941176471
 40
0.5882352941176471
 40
0.6470588235294118
 40
0.6470588235294118
 40
0.6470588235294118
 40
0.6470588235294118
 40
0.7058823529411765
 40
0.7058823529411765
 40
0.7058823529411765
 40
0.7058823529411765
 40
0.7647058823529412
 40
0.7647058823529412
 40
0.7647058823529412
 40
0.7647058823529412
 40
0.823529411764706
 40
0.823529411764706
 40
0.823529411764706
 40
0.823529411764706
 40
0.8823529411764707
 40
0.8823529411764707
 40
0.8823529411764707
 40
0.8823529411764707
 40
0.9411764705882354
 40
0.9411764705882354
 40
0.9411764705882354
 40
0.9411764705882354
 40
1.0
 40
1.0
 40
1.0
 40
1.0
 10
-0.9286023622047245
 20
0.9866692913385827
 30
0.0
 10
-0.9286023622047245
 20
0.9866692913385827
 30
0.0
 10
-0.9225196850393701
 20
0.9866692913385827
 30
0.0
 10
-0.9225196850393701
 20
0.9866692913385827
 30
0.0
 10
-0.9225196850393701
 20
0.9866692913385827
 30
0.0
 10
-0.9225196850393701
 20
0.9866692913385827
 30
0.0
 10
-0.9225196850393701
 20
0.8924212598425197
 30
0.0
 10
-0.9225196850393701
 20
0.8924212598425197
 30
0.0
 10
-0.9225196850393701
 20
0.8924212598425197
 30
0.0
 10
-0.9225196850393701
 20
0.887976377952756
 30
0.0
 10
-0.9222125984251969
 20
0.8851141732283465
 30
0.0
 10
-0.9216574803149606
 20
0.8838346456692914
 30
0.0
 10
-0.9216574803149606
 20
0.8838346456692914
 30
0.0
 10
-0.9210748031496063
 20
0.8825590551181103
 30
0.0
 10
-0.9201574803149607
 20
0.8816141732283465
 30
0.0
 10
-0.9188543307086614
 20
0.8809488188976379
 30
0.0
 10
-0.9188543307086614
 20
0.8809488188976379
 30
0.0
 10
-0.9175472440944882
 20
0.8803070866141732
 30
0.0
 10
-0.9149645669291339
 20
0.879976377952756
 30
0.0
 10
-0.9111023622047244
 20
0.879976377952756
 30
0.0
 10
-0.9111023622047244
 20
0.879976377952756
 30
0.0
 10
-0.9111023622047244
 20
0.879976377952756
 30
0.0
 10
-0.9031299212598426
 20
0.879976377952756
 30
0.0
 10
-0.9031299212598426
 20
0.879976377952756
 30
0.0
 10
-0.9031299212598426
 20
0.879976377952756
 30
0.0
 10
-0.9031299212598426
 20
0.879976377952756
 30
0.0
 10
-0.9031299212598426
 20
0.8731417322834646
 30
0.0
 10
-0.9031299212598426
 20
0.8731417322834646
 30
0.0
 10
-0.9031299212598426
 20
0.8731417322834646
 30
0.0
 10
-0.9031299212598426
 20
0.8731417322834646
 30
0.0
 10
-0.9567677165354331
 20
0.8731417322834646
 30
0.0
 10
-0.9567677165354331
 20
0.8731417322834646
 30
0.0
 10
-0.9567677165354331
 20
0.8731417322834646
 30
0.0
 10
-0.9567677165354331
 20
0.8731417322834646
 30
0.0
 10
-0.9567677165354331
 20
0.879976377952756
 30
0.0
 10
-0.9567677165354331
 20
0.879976377952756
 30
0.0
 10
-0.9567677165354331
 20
0.879976377952756
 30
0.0
 10
-0.9567677165354331
 20
0.879976377952756
 30
0.0
 10
-0.9479094488188977
 20
0.879976377952756
 30
0.0
 10
-0.9479094488188977
 20
0.879976377952756
 30
0.0
 10
-0.9479094488188977
 20
0.879976377952756
 30
0.0
 10
-0.9440472440944883
 20
0.879976377952756
 30
0.0
 10
-0.941492125984252
 20
0.8803070866141732
 30
0.0
 10
-0.9402125984251969
 20
0.8810039370078741
 30
0.0
 10
-0.9402125984251969
 20
0.8810039370078741
 30
0.0
 10
-0.9389370078740158
 20
0.8816692913385827
 30
0.0
 10
-0.9379370078740158
 20
0.882751968503937
 30
0.0
 10
-0.937240157480315
 20
0.8842519685039371
 30
0.0
 10
-0.937240157480315
 20
0.8842519685039371
 30
0.0
 10
-0.9365472440944882
 20
0.885751968503937
 30
0.0
 10
-0.9361850393700788
 20
0.8884763779527559
 30
0.0
 10
-0.9361850393700788
 20
0.8924212598425197
 30
0.0
 10
-0.9361850393700788
 20
0.8924212598425197
 30
0.0
 10
-0.9361850393700788
 20
0.8924212598425197
 30
0.0
 10
-0.9361850393700788
 20
0.9698897637795276
 30
0.0
 10
-0.9361850393700788
 20
0.9698897637795276
 30
0.0
 10
-0.9361850393700788
 20
0.9698897637795276
 30
0.0
 10
-0.9361850393700788
 20
0.9698897637795276
 30
0.0
 10
-0.9567677165354331
 20
0.9698897637795276
 30
0.0
 10
-0.9567677165354331
 20
0.9698897637795276
 30
0.0
 10
-0.9567677165354331
 20
0.9698897637795276
 30
0.0
 10
-0.9567677165354331
 20
0.9698897637795276
 30
0.0
 10
-0.9567677165354331
 20
0.9768897637795276
 30
0.0
 10
-0.9567677165354331
 20
0.9768897637795276
 30
0.0
 10
-0.9567677165354331
 20
0.9768897637795276
 30
0.0
 10
-0.9455472440944882
 20
0.978472440944882
 30
0.0
 10
-0.9361574803149607
 20
0.9817244094488189
 30
0.0
 10
-0.9286023622047245
 20
0.9866692913385827
 30
0.0
  0
SPLINE
  5
33
330
1F
100
AcDbEntity
  8
LAYER_1
 62
   250
100
AcDbSpline
210
0.0
220
0.0
230
1.0
 70
    11
 71
     3
 72
    80
 73
    76
 74
     0
 42
0.0000000001
 43
0.0000000001
 40
0.0
 40
0.0
 40
0.0
 40
0.0
 40
0.0526315789473684
 40
0.0526315789473684
 40
0.0526315789473684
 40
0.0526315789473684
 40
0.1052631578947368
 40
0.1052631578947368
 40
0.1052631578947368
 40
0.1052631578947368
 40
0.1578947368421053
 40
0.1578947368421053
 40
0.1578947368421053
 40
0.1578947368421053
 40
0.2105263157894737
 40
0.2105263157894737
 40
0.2105263157894737
 40
0.2105263157894737
 40
0.2631578947368421
 40
0.2631578947368421
 40
0.2631578947368421
 40
0.2631578947368421
 40
0.3157894736842105
 40
0.3157894736842105
 40
0.3157894736842105
 40
0.3157894736842105
 40
0.3684210526315789
 40
0.3684210526315789
 40
0.3684210526315789
 40
0.3684210526315789
 40
0.4210526315789474
 40
0.4210526315789474
 40
0.4210526315789474
 40
0.4210526315789474
 40
0.4736842105263158
 40
0.4736842105263158
 40
0.4736842105263158
 40
0.4736842105263158
 40
0.5263157894736842
 40
0.5263157894736842
 40
0.5263157894736842
 40
0.5263157894736842
 40
0.5789473684210527
 40
0.5789473684210527
 40
0.5789473684210527
 40
0.5789473684210527
 40
0.631578947368421
 40
0.631578947368421
 40
0.631578947368421
 40
0.631578947368421
 40
0.6842105263157894
 40
0.6842105263157894
 40
0.6842105263157894
 40
0.6842105263157894
 40
0.7368421052631577
 40
0.7368421052631577
 40
0.7368421052631577
 40
0.7368421052631577
 40
0.7894736842105261
 40
0.7894736842105261
 40
0.7894736842105261
 40
0.7894736842105261
 40
0.8421052631578945
 40
0.8421052631578945
 40
0.8421052631578945
 40
0.8421052631578945
 40
0.8947368421052628
 40
0.8947368421052628
 40
0.8947368421052628
 40
0.8947368421052628
 40
0.9473684210526312
 40
0.9473684210526312
 40
0.9473684210526312
 40
0.9473684210526312
 40
1.0
 40
1.0
 40
1.0
 40
1.0
 10
-0.8631850393700787
 20
0.9908070866141733
 30
0.0
 10
-0.8631850393700787
 20
0.9908070866141733
 30
0.0
 10
-0.8577952755905512
 20
0.9908070866141733
 30
0.0
 10
-0.8577952755905512
 20
0.9908070866141733
 30
0.0
 10
-0.8577952755905512
 20
0.9908070866141733
 30
0.0
 10
-0.8577952755905512
 20
0.9908070866141733
 30
0.0
 10
-0.8568228346456693
 20
0.9866692913385827
 30
0.0
 10
-0.8568228346456693
 20
0.9866692913385827
 30
0.0
 10
-0.8568228346456693
 20
0.9866692913385827
 30
0.0
 10
-0.8568228346456693
 20
0.9866692913385827
 30
0.0
 10
-0.7857125984251969
 20
0.9866692913385827
 30
0.0
 10
-0.7857125984251969
 20
0.9866692913385827
 30
0.0
 10
-0.7857125984251969
 20
0.9866692913385827
 30
0.0
 10
-0.7857125984251969
 20
0.9866692913385827
 30
0.0
 10
-0.7857125984251969
 20
0.9797519685039371
 30
0.0
 10
-0.7857125984251969
 20
0.9797519685039371
 30
0.0
 10
-0.7857125984251969
 20
0.9797519685039371
 30
0.0
 10
-0.7942125984251969
 20
0.9699173228346457
 30
0.0
 10
-0.8019370078740158
 20
0.9587519685039371
 30
0.0
 10
-0.8088503937007875
 20
0.9461692913385827
 30
0.0
 10
-0.8088503937007875
 20
0.9461692913385827
 30
0.0
 10
-0.8157677165354331
 20
0.9336141732283465
 30
0.0
 10
-0.8211299212598425
 20
0.9208346456692914
 30
0.0
 10
-0.8249370078740158
 20
0.9078070866141733
 30
0.0
 10
-0.8249370078740158
 20
0.9078070866141733
 30
0.0
 10
-0.8276850393700788
 20
0.8984212598425198
 30
0.0
 10
-0.8299330708661418
 20
0.8868622047244095
 30
0.0
 10
-0.8316850393700788
 20
0.8731417322834646
 30
0.0
 10
-0.8316850393700788
 20
0.8731417322834646
 30
0.0
 10
-0.8316850393700788
 20
0.8731417322834646
 30
0.0
 10
-0.8483503937007875
 20
0.8731417322834646
 30
0.0
 10
-0.8483503937007875
 20
0.8731417322834646
 30
0.0
 10
-0.8483503937007875
 20
0.8731417322834646
 30
0.0
 10
-0.846740157480315
 20
0.8852519685039371
 30
0.0
 10
-0.8440748031496064
 20
0.8965590551181103
 30
0.0
 10
-0.8403503937007875
 20
0.9070866141732283
 30
0.0
 10
-0.8403503937007875
 20
0.9070866141732283
 30
0.0
 10
-0.8366299212598426
 20
0.9176141732283465
 30
0.0
 10
-0.8312677165354331
 20
0.9286141732283465
 30
0.0
 10
-0.824240157480315
 20
0.9400866141732284
 30
0.0
 10
-0.824240157480315
 20
0.9400866141732284
 30
0.0
 10
-0.8172125984251969
 20
0.9515590551181102
 30
0.0
 10
-0.8086850393700787
 20
0.963003937007874
 30
0.0
 10
-0.7986299212598426
 20
0.9744448818897639
 30
0.0
 10
-0.7986299212598426
 20
0.9744448818897639
 30
0.0
 10
-0.7986299212598426
 20
0.9744448818897639
 30
0.0
 10
-0.8493503937007875
 20
0.9744448818897639
 30
0.0
 10
-0.8493503937007875
 20
0.9744448818897639
 30
0.0
 10
-0.8493503937007875
 20
0.9744448818897639
 30
0.0
 10
-0.8530196850393701
 20
0.9744448818897639
 30
0.0
 10
-0.8555472440944882
 20
0.9742795275590551
 30
0.0
 10
-0.8569055118110237
 20
0.9738897637795276
 30
0.0
 10
-0.8569055118110237
 20
0.9738897637795276
 30
0.0
 10
-0.8582677165354331
 20
0.9735039370078741
 30
0.0
 10
-0.8593228346456693
 20
0.9729173228346457
 30
0.0
 10
-0.8600748031496064
 20
0.9721141732283465
 30
0.0
 10
-0.8600748031496064
 20
0.9721141732283465
 30
0.0
 10
-0.8608503937007874
 20
0.9712795275590551
 30
0.0
 10
-0.861492125984252
 20
0.9698346456692913
 30
0.0
 10
-0.8620472440944882
 20
0.9677795275590552
 30
0.0
 10
-0.8620472440944882
 20
0.9677795275590552
 30
0.0
 10
-0.8620472440944882
 20
0.9677795275590552
 30
0.0
 10
-0.8624330708661417
 20
0.966251968503937
 30
0.0
 10
-0.8624330708661417
 20
0.966251968503937
 30
0.0
 10
-0.8624330708661417
 20
0.966251968503937
 30
0.0
 10
-0.8624330708661417
 20
0.966251968503937
 30
0.0
 10
-0.8652125984251969
 20
0.9566417322834646
 30
0.0
 10
-0.8652125984251969
 20
0.9566417322834646
 30
0.0
 10
-0.8652125984251969
 20
0.9566417322834646
 30
0.0
 10
-0.8652125984251969
 20
0.9566417322834646
 30
0.0
 10
-0.8721299212598426
 20
0.9581141732283465
 30
0.0
 10
-0.8721299212598426
 20
0.9581141732283465
 30
0.0
 10
-0.8721299212598426
 20
0.9581141732283465
 30
0.0
 10
-0.8721299212598426
 20
0.9581141732283465
 30
0.0
 10
-0.8631850393700787
 20
0.9908070866141733
 30
0.0
 10
-0.8631850393700787
 20
0.9908070866141733
 30
0.0
  0
SPLINE
  5
34
330
1F
100
AcDbEntity
  8
LAYER_1
 62
   250
100
AcDbSpline
210
0.0
220
0.0
230
1.0
 70
    11
 71
     3
 72
    72
 73
    68
 74
     0
 42
0.0000000001
 43
0.0000000001
 40
0.0
 40
0.0
 40
0.0
 40
0.0
 40
0.0588235294117647
 40
0.0588235294117647
 40
0.0588235294117647
 40
0.0588235294117647
 40
0.1176470588235294
 40
0.1176470588235294
 40
0.1176470588235294
 40
0.1176470588235294
 40
0.1764705882352941
 40
0.1764705882352941
 40
0.1764705882352941
 40
0.1764705882352941
 40
0.2352941176470588
 40
0.2352941176470588
 40
0.2352941176470588
 40
0.2352941176470588
 40
0.2941176470588235
 40
0.2941176470588235
 40
0.2941176470588235
 40
0.2941176470588235
 40
0.3529411764705883
 40
0.3529411764705883
 40
0.3529411764705883
 40
0.3529411764705883
 40
0.411764705882353
 40
0.411764705882353
 40
0.411764705882353
 40
0.411764705882353
 40
0.4705882352941177
 40
0.4705882352941177
 40
0.4705882352941177
 40
0.4705882352941177
 40
0.5294117647058824
 40
0.5294117647058824
 40
0.5294117647058824
 40
0.5294117647058824
 40
0.5882352941176471
 40
0.5882352941176471
 40
0.5882352941176471
 40
0.5882352941176471
 40
0.6470588235294118
 40
0.6470588235294118
 40
0.6470588235294118
 40
0.6470588235294118
 40
0.7058823529411765
 40
0.7058823529411765
 40
0.7058823529411765
 40
0.7058823529411765
 40
0.7647058823529412
 40
0.7647058823529412
 40
0.7647058823529412
 40
0.7647058823529412
 40
0.823529411764706
 40
0.823529411764706
 40
0.823529411764706
 40
0.823529411764706
 40
0.8823529411764707
 40
0.8823529411764707
 40
0.8823529411764707
 40
0.8823529411764707
 40
0.9411764705882354
 40
0.9411764705882354
 40
0.9411764705882354
 40
0.9411764705882354
 40
1.0
 40
1.0
 40
1.0
 40
1.0
 10
-0.7218779527559055
 20
0.9866692913385827
 30
0.0
 10
-0.7218779527559055
 20
0.9866692913385827
 30
0.0
 10
-0.7157952755905512
 20
0.9866692913385827
 30
0.0
 10
-0.7157952755905512
 20
0.9866692913385827
 30
0.0
 10
-0.7157952755905512
 20
0.9866692913385827
 30
0.0
 10
-0.7157952755905512
 20
0.9866692913385827
 30
0.0
 10
-0.7157952755905512
 20
0.8924212598425197
 30
0.0
 10
-0.7157952755905512
 20
0.8924212598425197
 30
0.0
 10
-0.7157952755905512
 20
0.8924212598425197
 30
0.0
 10
-0.7157952755905512
 20
0.887976377952756
 30
0.0
 10
-0.715488188976378
 20
0.8851141732283465
 30
0.0
 10
-0.7149330708661418
 20
0.8838346456692914
 30
0.0
 10
-0.7149330708661418
 20
0.8838346456692914
 30
0.0
 10
-0.7143503937007875
 20
0.8825590551181103
 30
0.0
 10
-0.7134330708661417
 20
0.8816141732283465
 30
0.0
 10
-0.7121299212598425
 20
0.8809488188976379
 30
0.0
 10
-0.7121299212598425
 20
0.8809488188976379
 30
0.0
 10
-0.7108228346456693
 20
0.8803070866141732
 30
0.0
 10
-0.708240157480315
 20
0.879976377952756
 30
0.0
 10
-0.7043779527559055
 20
0.879976377952756
 30
0.0
 10
-0.7043779527559055
 20
0.879976377952756
 30
0.0
 10
-0.7043779527559055
 20
0.879976377952756
 30
0.0
 10
-0.6964055118110236
 20
0.879976377952756
 30
0.0
 10
-0.6964055118110236
 20
0.879976377952756
 30
0.0
 10
-0.6964055118110236
 20
0.879976377952756
 30
0.0
 10
-0.6964055118110236
 20
0.879976377952756
 30
0.0
 10
-0.6964055118110236
 20
0.8731417322834646
 30
0.0
 10
-0.6964055118110236
 20
0.8731417322834646
 30
0.0
 10
-0.6964055118110236
 20
0.8731417322834646
 30
0.0
 10
-0.6964055118110236
 20
0.8731417322834646
 30
0.0
 10
-0.7500433070866142
 20
0.8731417322834646
 30
0.0
 10
-0.7500433070866142
 20
0.8731417322834646
 30
0.0
 10
-0.7500433070866142
 20
0.8731417322834646
 30
0.0
 10
-0.7500433070866142
 20
0.8731417322834646
 30
0.0
 10
-0.7500433070866142
 20
0.879976377952756
 30
0.0
 10
-0.7500433070866142
 20
0.879976377952756
 30
0.0
 10
-0.7500433070866142
 20
0.879976377952756
 30
0.0
 10
-0.7500433070866142
 20
0.879976377952756
 30
0.0
 10
-0.7411850393700787
 20
0.879976377952756
 30
0.0
 10
-0.7411850393700787
 20
0.879976377952756
 30
0.0
 10
-0.7411850393700787
 20
0.879976377952756
 30
0.0
 10
-0.7373228346456693
 20
0.879976377952756
 30
0.0
 10
-0.7347677165354331
 20
0.8803070866141732
 30
0.0
 10
-0.733488188976378
 20
0.8810039370078741
 30
0.0
 10
-0.733488188976378
 20
0.8810039370078741
 30
0.0
 10
-0.7322125984251969
 20
0.8816692913385827
 30
0.0
 10
-0.7312125984251969
 20
0.882751968503937
 30
0.0
 10
-0.7305157480314961
 20
0.8842519685039371
 30
0.0
 10
-0.7305157480314961
 20
0.8842519685039371
 30
0.0
 10
-0.7298228346456693
 20
0.885751968503937
 30
0.0
 10
-0.7294606299212598
 20
0.8884763779527559
 30
0.0
 10
-0.7294606299212598
 20
0.8924212598425197
 30
0.0
 10
-0.7294606299212598
 20
0.8924212598425197
 30
0.0
 10
-0.7294606299212598
 20
0.8924212598425197
 30
0.0
 10
-0.7294606299212598
 20
0.9698897637795276
 30
0.0
 10
-0.7294606299212598
 20
0.9698897637795276
 30
0.0
 10
-0.7294606299212598
 20
0.9698897637795276
 30
0.0
 10
-0.7294606299212598
 20
0.9698897637795276
 30
0.0
 10
-0.7500433070866142
 20
0.9698897637795276
 30
0.0
 10
-0.7500433070866142
 20
0.9698897637795276
 30
0.0
 10
-0.7500433070866142
 20
0.9698897637795276
 30
0.0
 10
-0.7500433070866142
 20
0.9698897637795276
 30
0.0
 10
-0.7500433070866142
 20
0.9768897637795276
 30
0.0
 10
-0.7500433070866142
 20
0.9768897637795276
 30
0.0
 10
-0.7500433070866142
 20
0.9768897637795276
 30
0.0
 10
-0.7388228346456693
 20
0.978472440944882
 30
0.0
 10
-0.7294330708661417
 20
0.9817244094488189
 30
0.0
 10
-0.7218779527559055
 20
0.9866692913385827
 30
0.0
  0
SPLINE
  5
35
330
1F
100
AcDbEntity
  8
LAYER_1
 62
   250
100
AcDbSpline
210
0.0
220
0.0
230
1.0
 70
    11
 71
     3
 72
    80
 73
    76
 74
     0
 42
0.0000000001
 43
0.0000000001
 40
0.0
 40
0.0
 40
0.0
 40
0.0
 40
0.0526315789473684
 40
0.0526315789473684
 40
0.0526315789473684
 40
0.0526315789473684
 40
0.1052631578947368
 40
0.1052631578947368
 40
0.1052631578947368
 40
0.1052631578947368
 40
0.1578947368421053
 40
0.1578947368421053
 40
0.1578947368421053
 40
0.1578947368421053
 40
0.2105263157894737
 40
0.2105263157894737
 40
0.2105263157894737
 40
0.2105263157894737
 40
0.2631578947368421
 40
0.2631578947368421
 40
0.2631578947368421
 40
0.2631578947368421
 40
0.3157894736842105
 40
0.3157894736842105
 40
0.3157894736842105
 40
0.3157894736842105
 40
0.3684210526315789
 40
0.3684210526315789
 40
0.3684210526315789
 40
0.3684210526315789
 40
0.4210526315789474
 40
0.4210526315789474
 40
0.4210526315789474
 40
0.4210526315789474
 40
0.4736842105263158
 40
0.4736842105263158
 40
0.4736842105263158
 40
0.4736842105263158
 40
0.5263157894736842
 40
0.5263157894736842
 40
0.5263157894736842
 40
0.5263157894736842
 40
0.5789473684210527
 40
0.5789473684210527
 40
0.5789473684210527
 40
0.5789473684210527
 40
0.631578947368421
 40
0.631578947368421
 40
0.631578947368421
 40
0.631578947368421
 40
0.6842105263157894
 40
0.6842105263157894
 40
0.6842105263157894
 40
0.6842105263157894
 40
0.7368421052631577
 40
0.7368421052631577
 40
0.7368421052631577
 40
0.7368421052631577
 40
0.7894736842105261
 40
0.7894736842105261
 40
0.7894736842105261
 40
0.7894736842105261
 40
0.8421052631578945
 40
0.8421052631578945
 40
0.8421052631578945
 40
0.8421052631578945
 40
0.8947368421052628
 40
0.8947368421052628
 40
0.8947368421052628
 40
0.8947368421052628
 40
0.9473684210526312
 40
0.9473684210526312
 40
0.9473684210526312
 40
0.9473684210526312
 40
1.0
 40
1.0
 40
1.0
 40
1.0
 10
-0.6564606299212599
 20
0.9908070866141733
 30
0.0
 10
-0.6564606299212599
 20
0.9908070866141733
 30
0.0
 10
-0.6510708661417323
 20
0.9908070866141733
 30
0.0
 10
-0.6510708661417323
 20
0.9908070866141733
 30
0.0
 10
-0.6510708661417323
 20
0.9908070866141733
 30
0.0
 10
-0.6510708661417323
 20
0.9908070866141733
 30
0.0
 10
-0.6500984251968505
 20
0.9866692913385827
 30
0.0
 10
-0.6500984251968505
 20
0.9866692913385827
 30
0.0
 10
-0.6500984251968505
 20
0.9866692913385827
 30
0.0
 10
-0.6500984251968505
 20
0.9866692913385827
 30
0.0
 10
-0.5789881889763779
 20
0.9866692913385827
 30
0.0
 10
-0.5789881889763779
 20
0.9866692913385827
 30
0.0
 10
-0.5789881889763779
 20
0.9866692913385827
 30
0.0
 10
-0.5789881889763779
 20
0.9866692913385827
 30
0.0
 10
-0.5789881889763779
 20
0.9797519685039371
 30
0.0
 10
-0.5789881889763779
 20
0.9797519685039371
 30
0.0
 10
-0.5789881889763779
 20
0.9797519685039371
 30
0.0
 10
-0.587488188976378
 20
0.9699173228346457
 30
0.0
 10
-0.5952125984251969
 20
0.9587519685039371
 30
0.0
 10
-0.6021259842519685
 20
0.9461692913385827
 30
0.0
 10
-0.6021259842519685
 20
0.9461692913385827
 30
0.0
 10
-0.6090433070866143
 20
0.9336141732283465
 30
0.0
 10
-0.6144055118110237
 20
0.9208346456692914
 30
0.0
 10
-0.6182125984251968
 20
0.9078070866141733
 30
0.0
 10
-0.6182125984251968
 20
0.9078070866141733
 30
0.0
 10
-0.6209606299212599
 20
0.8984212598425198
 30
0.0
 10
-0.6232086614173229
 20
0.8868622047244095
 30
0.0
 10
-0.6249606299212599
 20
0.8731417322834646
 30
0.0
 10
-0.6249606299212599
 20
0.8731417322834646
 30
0.0
 10
-0.6249606299212599
 20
0.8731417322834646
 30
0.0
 10
-0.6416259842519685
 20
0.8731417322834646
 30
0.0
 10
-0.6416259842519685
 20
0.8731417322834646
 30
0.0
 10
-0.6416259842519685
 20
0.8731417322834646
 30
0.0
 10
-0.6400157480314961
 20
0.8852519685039371
 30
0.0
 10
-0.6373503937007874
 20
0.8965590551181103
 30
0.0
 10
-0.6336259842519685
 20
0.9070866141732283
 30
0.0
 10
-0.6336259842519685
 20
0.9070866141732283
 30
0.0
 10
-0.6299055118110236
 20
0.9176141732283465
 30
0.0
 10
-0.6245433070866142
 20
0.9286141732283465
 30
0.0
 10
-0.6175157480314961
 20
0.9400866141732284
 30
0.0
 10
-0.6175157480314961
 20
0.9400866141732284
 30
0.0
 10
-0.610488188976378
 20
0.9515590551181102
 30
0.0
 10
-0.6019606299212599
 20
0.963003937007874
 30
0.0
 10
-0.5919055118110237
 20
0.9744448818897639
 30
0.0
 10
-0.5919055118110237
 20
0.9744448818897639
 30
0.0
 10
-0.5919055118110237
 20
0.9744448818897639
 30
0.0
 10
-0.6426259842519685
 20
0.9744448818897639
 30
0.0
 10
-0.6426259842519685
 20
0.9744448818897639
 30
0.0
 10
-0.6426259842519685
 20
0.9744448818897639
 30
0.0
 10
-0.6462952755905512
 20
0.9744448818897639
 30
0.0
 10
-0.6488228346456694
 20
0.9742795275590551
 30
0.0
 10
-0.6501811023622047
 20
0.9738897637795276
 30
0.0
 10
-0.6501811023622047
 20
0.9738897637795276
 30
0.0
 10
-0.6515433070866142
 20
0.9735039370078741
 30
0.0
 10
-0.6525984251968504
 20
0.9729173228346457
 30
0.0
 10
-0.6533503937007874
 20
0.9721141732283465
 30
0.0
 10
-0.6533503937007874
 20
0.9721141732283465
 30
0.0
 10
-0.6541259842519686
 20
0.9712795275590551
 30
0.0
 10
-0.6547677165354331
 20
0.9698346456692913
 30
0.0
 10
-0.6553228346456693
 20
0.9677795275590552
 30
0.0
 10
-0.6553228346456693
 20
0.9677795275590552
 30
0.0
 10
-0.6553228346456693
 20
0.9677795275590552
 30
0.0
 10
-0.6557086614173229
 20
0.966251968503937
 30
0.0
 10
-0.6557086614173229
 20
0.966251968503937
 30
0.0
 10
-0.6557086614173229
 20
0.966251968503937
 30
0.0
 10
-0.6557086614173229
 20
0.966251968503937
 30
0.0
 10
-0.658488188976378
 20
0.9566417322834646
 30
0.0
 10
-0.658488188976378
 20
0.9566417322834646
 30
0.0
 10
-0.658488188976378
 20
0.9566417322834646
 30
0.0
 10
-0.658488188976378
 20
0.9566417322834646
 30
0.0
 10
-0.6654055118110237
 20
0.9581141732283465
 30
0.0
 10
-0.6654055118110237
 20
0.9581141732283465
 30
0.0
 10
-0.6654055118110237
 20
0.9581141732283465
 30
0.0
 10
-0.6654055118110237
 20
0.9581141732283465
 30
0.0
 10
-0.6564606299212599
 20
0.9908070866141733
 30
0.0
 10
-0.6564606299212599
 20
0.9908070866141733
 30
0.0
  0
SPLINE
  5
36
330
1F
100
AcDbEntity
  8
LAYER_1
 62
   250
100
AcDbSpline
210
0.0
220
0.0
230
1.0
 70
    11
 71
     3
 72
    76
 73
    72
 74
     0
 42
0.0000000001
 43
0.0000000001
 40
0.0
 40
0.0
 40
0.0
 40
0.0
 40
0.0555555555555556
 40
0.0555555555555556
 40
0.0555555555555556
 40
0.0555555555555556
 40
0.1111111111111111
 40
0.1111111111111111
 40
0.1111111111111111
 40
0.1111111111111111
 40
0.1666666666666667
 40
0.1666666666666667
 40
0.1666666666666667
 40
0.1666666666666667
 40
0.2222222222222222
 40
0.2222222222222222
 40
0.2222222222222222
 40
0.2222222222222222
 40
0.2777777777777778
 40
0.2777777777777778
 40
0.2777777777777778
 40
0.2777777777777778
 40
0.3333333333333334
 40
0.3333333333333334
 40
0.3333333333333334
 40
0.3333333333333334
 40
0.388888888888889
 40
0.388888888888889
 40
0.388888888888889
 40
0.388888888888889
 40
0.4444444444444445
 40
0.4444444444444445
 40
0.4444444444444445
 40
0.4444444444444445
 40
0.5000000000000001
 40
0.5000000000000001
 40
0.5000000000000001
 40
0.5000000000000001
 40
0.5555555555555557
 40
0.5555555555555557
 40
0.5555555555555557
 40
0.5555555555555557
 40
0.6111111111111113
 40
0.6111111111111113
 40
0.6111111111111113
 40
0.6111111111111113
 40
0.6666666666666669
 40
0.6666666666666669
 40
0.6666666666666669
 40
0.6666666666666669
 40
0.7222222222222224
 40
0.7222222222222224
 40
0.7222222222222224
 40
0.7222222222222224
 40
0.777777777777778
 40
0.777777777777778
 40
0.777777777777778
 40
0.777777777777778
 40
0.8333333333333336
 40
0.8333333333333336
 40
0.8333333333333336
 40
0.8333333333333336
 40
0.8888888888888892
 40
0.8888888888888892
 40
0.8888888888888892
 40
0.8888888888888892
 40
0.9444444444444448
 40
0.9444444444444448
 40
0.9444444444444448
 40
0.9444444444444448
 40
1.0
 40
1.0
 40
1.0
 40
1.0
 10
-1.305
 20
0.8000590551181103
 30
0.0
 10
-1.305
 20
0.8000590551181103
 30
0.0
 10
-1.305
 20
0.7513897637795276
 30
0.0
 10
-1.305
 20
0.7513897637795276
 30
0.0
 10
-1.305
 20
0.7513897637795276
 30
0.0
 10
-1.305
 20
0.7486968503937008
 30
0.0
 10
-1.304724409448819
 20
0.7470314960629921
 30
0.0
 10
-1.304137795275591
 20
0.7464763779527559
 30
0.0
 10
-1.304137795275591
 20
0.7464763779527559
 30
0.0
 10
-1.303582677165355
 20
0.7458897637795275
 30
0.0
 10
-1.301972440944882
 20
0.7456141732283464
 30
0.0
 10
-1.299307086614173
 20
0.7456141732283464
 30
0.0
 10
-1.299307086614173
 20
0.7456141732283464
 30
0.0
 10
-1.299307086614173
 20
0.7456141732283464
 30
0.0
 10
-1.293610236220472
 20
0.7456141732283464
 30
0.0
 10
-1.293610236220472
 20
0.7456141732283464
 30
0.0
 10
-1.293610236220472
 20
0.7456141732283464
 30
0.0
 10
-1.293610236220472
 20
0.7456141732283464
 30
0.0
 10
-1.293610236220472
 20
0.7410590551181102
 30
0.0
 10
-1.293610236220472
 20
0.7410590551181102
 30
0.0
 10
-1.293610236220472
 20
0.7410590551181102
 30
0.0
 10
-1.293610236220472
 20
0.7410590551181102
 30
0.0
 10
-1.327220472440945
 20
0.7410590551181102
 30
0.0
 10
-1.327220472440945
 20
0.7410590551181102
 30
0.0
 10
-1.327220472440945
 20
0.7410590551181102
 30
0.0
 10
-1.327220472440945
 20
0.7410590551181102
 30
0.0
 10
-1.327220472440945
 20
0.7456141732283464
 30
0.0
 10
-1.327220472440945
 20
0.7456141732283464
 30
0.0
 10
-1.327220472440945
 20
0.7456141732283464
 30
0.0
 10
-1.327220472440945
 20
0.7456141732283464
 30
0.0
 10
-1.321027559055118
 20
0.7456141732283464
 30
0.0
 10
-1.321027559055118
 20
0.7456141732283464
 30
0.0
 10
-1.321027559055118
 20
0.7456141732283464
 30
0.0
 10
-1.318862204724409
 20
0.7456141732283464
 30
0.0
 10
-1.3175
 20
0.745751968503937
 30
0.0
 10
-1.316917322834646
 20
0.7460314960629921
 30
0.0
 10
-1.316917322834646
 20
0.7460314960629921
 30
0.0
 10
-1.31636220472441
 20
0.7463070866141732
 30
0.0
 10
-1.315917322834646
 20
0.7467795275590552
 30
0.0
 10
-1.315582677165355
 20
0.7475039370078741
 30
0.0
 10
-1.315582677165355
 20
0.7475039370078741
 30
0.0
 10
-1.315251968503937
 20
0.7481968503937008
 30
0.0
 10
-1.315082677165354
 20
0.7495039370078741
 30
0.0
 10
-1.315082677165354
 20
0.7513897637795276
 30
0.0
 10
-1.315082677165354
 20
0.7513897637795276
 30
0.0
 10
-1.315082677165354
 20
0.7513897637795276
 30
0.0
 10
-1.315082677165354
 20
0.7904448818897638
 30
0.0
 10
-1.315082677165354
 20
0.7904448818897638
 30
0.0
 10
-1.315082677165354
 20
0.7904448818897638
 30
0.0
 10
-1.315082677165354
 20
0.7904448818897638
 30
0.0
 10
-1.327220472440945
 20
0.7904448818897638
 30
0.0
 10
-1.327220472440945
 20
0.7904448818897638
 30
0.0
 10
-1.327220472440945
 20
0.7904448818897638
 30
0.0
 10
-1.327220472440945
 20
0.7904448818897638
 30
0.0
 10
-1.327220472440945
 20
0.7950314960629922
 30
0.0
 10
-1.327220472440945
 20
0.7950314960629922
 30
0.0
 10
-1.327220472440945
 20
0.7950314960629922
 30
0.0
 10
-1.324110236220472
 20
0.7953897637795276
 30
0.0
 10
-1.320417322834646
 20
0.7961692913385827
 30
0.0
 10
-1.316055118110236
 20
0.7973070866141733
 30
0.0
 10
-1.316055118110236
 20
0.7973070866141733
 30
0.0
 10
-1.313417322834646
 20
0.798
 30
0.0
 10
-1.311889763779528
 20
0.7986417322834646
 30
0.0
 10
-1.3115
 20
0.7991968503937008
 30
0.0
 10
-1.3115
 20
0.7991968503937008
 30
0.0
 10
-1.311137795275591
 20
0.7997795275590551
 30
0.0
 10
-1.310637795275591
 20
0.8000590551181103
 30
0.0
 10
-1.310055118110236
 20
0.8000590551181103
 30
0.0
 10
-1.310055118110236
 20
0.8000590551181103
 30
0.0
 10
-1.310055118110236
 20
0.8000590551181103
 30
0.0
 10
-1.305
 20
0.8000590551181103
 30
0.0
 10
-1.305
 20
0.8000590551181103
 30
0.0
  0
SPLINE
  5
37
330
1F
100
AcDbEntity
  8
LAYER_1
 62
   250
100
AcDbSpline
210
0.0
220
0.0
230
1.0
 70
    11
 71
     3
 72
    20
 73
    16
 74
     0
 42
0.0000000001
 43
0.0000000001
 40
0.0
 40
0.0
 40
0.0
 40
0.0
 40
0.25
 40
0.25
 40
0.25
 40
0.25
 40
0.5
 40
0.5
 40
0.5
 40
0.5
 40
0.75
 40
0.75
 40
0.75
 40
0.75
 40
1.0
 40
1.0
 40
1.0
 40
1.0
 10
-1.226807086614173
 20
0.8011141732283464
 30
0.0
 10
-1.226807086614173
 20
0.8011141732283464
 30
0.0
 10
-1.3025
 20
0.6836968503937008
 30
0.0
 10
-1.3025
 20
0.6836968503937008
 30
0.0
 10
-1.3025
 20
0.6836968503937008
 30
0.0
 10
-1.3025
 20
0.6836968503937008
 30
0.0
 10
-1.312165354330709
 20
0.6836968503937008
 30
0.0
 10
-1.312165354330709
 20
0.6836968503937008
 30
0.0
 10
-1.312165354330709
 20
0.6836968503937008
 30
0.0
 10
-1.312165354330709
 20
0.6836968503937008
 30
0.0
 10
-1.236637795275591
 20
0.8011141732283464
 30
0.0
 10
-1.236637795275591
 20
0.8011141732283464
 30
0.0
 10
-1.236637795275591
 20
0.8011141732283464
 30
0.0
 10
-1.236637795275591
 20
0.8011141732283464
 30
0.0
 10
-1.226807086614173
 20
0.8011141732283464
 30
0.0
 10
-1.226807086614173
 20
0.8011141732283464
 30
0.0
  0
SPLINE
  5
38
330
1F
100
AcDbEntity
  8
LAYER_1
 62
   250
100
AcDbSpline
210
0.0
220
0.0
230
1.0
 70
    11
 71
     3
 72
   120
 73
   116
 74
     0
 42
0.0000000001
 43
0.0000000001
 40
0.0
 40
0.0
 40
0.0
 40
0.0
 40
0.0344827586206897
 40
0.0344827586206897
 40
0.0344827586206897
 40
0.0344827586206897
 40
0.0689655172413793
 40
0.0689655172413793
 40
0.0689655172413793
 40
0.0689655172413793
 40
0.103448275862069
 40
0.103448275862069
 40
0.103448275862069
 40
0.103448275862069
 40
0.1379310344827586
 40
0.1379310344827586
 40
0.1379310344827586
 40
0.1379310344827586
 40
0.1724137931034483
 40
0.1724137931034483
 40
0.1724137931034483
 40
0.1724137931034483
 40
0.206896551724138
 40
0.206896551724138
 40
0.206896551724138
 40
0.206896551724138
 40
0.2413793103448276
 40
0.2413793103448276
 40
0.2413793103448276
 40
0.2413793103448276
 40
0.2758620689655173
 40
0.2758620689655173
 40
0.2758620689655173
 40
0.2758620689655173
 40
0.310344827586207
 40
0.310344827586207
 40
0.310344827586207
 40
0.310344827586207
 40
0.3448275862068966
 40
0.3448275862068966
 40
0.3448275862068966
 40
0.3448275862068966
 40
0.3793103448275863
 40
0.3793103448275863
 40
0.3793103448275863
 40
0.3793103448275863
 40
0.413793103448276
 40
0.413793103448276
 40
0.413793103448276
 40
0.413793103448276
 40
0.4482758620689656
 40
0.4482758620689656
 40
0.4482758620689656
 40
0.4482758620689656
 40
0.4827586206896553
 40
0.4827586206896553
 40
0.4827586206896553
 40
0.4827586206896553
 40
0.517241379310345
 40
0.517241379310345
 40
0.517241379310345
 40
0.517241379310345
 40
0.5517241379310346
 40
0.5517241379310346
 40
0.5517241379310346
 40
0.5517241379310346
 40
0.5862068965517242
 40
0.5862068965517242
 40
0.5862068965517242
 40
0.5862068965517242
 40
0.6206896551724138
 40
0.6206896551724138
 40
0.6206896551724138
 40
0.6206896551724138
 40
0.6551724137931034
 40
0.6551724137931034
 40
0.6551724137931034
 40
0.6551724137931034
 40
0.689655172413793
 40
0.689655172413793
 40
0.689655172413793
 40
0.689655172413793
 40
0.7241379310344827
 40
0.7241379310344827
 40
0.7241379310344827
 40
0.7241379310344827
 40
0.7586206896551723
 40
0.7586206896551723
 40
0.7586206896551723
 40
0.7586206896551723
 40
0.7931034482758619
 40
0.7931034482758619
 40
0.7931034482758619
 40
0.7931034482758619
 40
0.8275862068965515
 40
0.8275862068965515
 40
0.8275862068965515
 40
0.8275862068965515
 40
0.8620689655172411
 40
0.8620689655172411
 40
0.8620689655172411
 40
0.8620689655172411
 40
0.8965517241379307
 40
0.8965517241379307
 40
0.8965517241379307
 40
0.8965517241379307
 40
0.9310344827586203
 40
0.9310344827586203
 40
0.9310344827586203
 40
0.9310344827586203
 40
0.9655172413793099
 40
0.9655172413793099
 40
0.9655172413793099
 40
0.9655172413793099
 40
1.0
 40
1.0
 40
1.0
 40
1.0
 10
-1.245196850393701
 20
0.7219488188976379
 30
0.0
 10
-1.245196850393701
 20
0.7219488188976379
 30
0.0
 10
-1.251696850393701
 20
0.7211968503937009
 30
0.0
 10
-1.251696850393701
 20
0.7211968503937009
 30
0.0
 10
-1.251696850393701
 20
0.7211968503937009
 30
0.0
 10
-1.252027559055118
 20
0.7235314960629922
 30
0.0
 10
-1.252196850393701
 20
0.7253622047244095
 30
0.0
 10
-1.252196850393701
 20
0.7266692913385827
 30
0.0
 10
-1.252196850393701
 20
0.7266692913385827
 30
0.0
 10
-1.252196850393701
 20
0.7298622047244094
 30
0.0
 10
-1.251196850393701
 20
0.7329488188976379
 30
0.0
 10
-1.249169291338583
 20
0.7359488188976379
 30
0.0
 10
-1.249169291338583
 20
0.7359488188976379
 30
0.0
 10
-1.247169291338583
 20
0.7389173228346457
 30
0.0
 10
-1.244224409448819
 20
0.7413070866141732
 30
0.0
 10
-1.240362204724409
 20
0.7431141732283465
 30
0.0
 10
-1.240362204724409
 20
0.7431141732283465
 30
0.0
 10
-1.236472440944882
 20
0.7448897637795275
 30
0.0
 10
-1.232
 20
0.7457795275590552
 30
0.0
 10
-1.226972440944882
 20
0.7457795275590552
 30
0.0
 10
-1.226972440944882
 20
0.7457795275590552
 30
0.0
 10
-1.219641732283465
 20
0.7457795275590552
 30
0.0
 10
-1.213862204724409
 20
0.7440314960629921
 30
0.0
 10
-1.209641732283465
 20
0.7405314960629922
 30
0.0
 10
-1.209641732283465
 20
0.7405314960629922
 30
0.0
 10
-1.205389763779528
 20
0.7370314960629921
 30
0.0
 10
-1.203279527559055
 20
0.7326968503937008
 30
0.0
 10
-1.203279527559055
 20
0.7274763779527559
 30
0.0
 10
-1.203279527559055
 20
0.7274763779527559
 30
0.0
 10
-1.203279527559055
 20
0.7243346456692914
 30
0.0
 10
-1.204055118110236
 20
0.721251968503937
 30
0.0
 10
-1.205614173228347
 20
0.7182795275590551
 30
0.0
 10
-1.205614173228347
 20
0.7182795275590551
 30
0.0
 10
-1.207141732283465
 20
0.7153070866141733
 30
0.0
 10
-1.209724409448819
 20
0.7124212598425197
 30
0.0
 10
-1.213279527559055
 20
0.7096417322834646
 30
0.0
 10
-1.213279527559055
 20
0.7096417322834646
 30
0.0
 10
-1.21686220472441
 20
0.7068897637795276
 30
0.0
 10
-1.225472440944882
 20
0.7013622047244095
 30
0.0
 10
-1.239082677165355
 20
0.6930590551181103
 30
0.0
 10
-1.239082677165355
 20
0.6930590551181103
 30
0.0
 10
-1.239082677165355
 20
0.6930590551181103
 30
0.0
 10
-1.216472440944882
 20
0.6930590551181103
 30
0.0
 10
-1.216472440944882
 20
0.6930590551181103
 30
0.0
 10
-1.216472440944882
 20
0.6930590551181103
 30
0.0
 10
-1.213862204724409
 20
0.6930590551181103
 30
0.0
 10
-1.212224409448819
 20
0.6931968503937008
 30
0.0
 10
-1.211527559055118
 20
0.6934488188976379
 30
0.0
 10
-1.211527559055118
 20
0.6934488188976379
 30
0.0
 10
-1.21086220472441
 20
0.693724409448819
 30
0.0
 10
-1.210334645669291
 20
0.6941968503937008
 30
0.0
 10
-1.21
 20
0.6948346456692913
 30
0.0
 10
-1.21
 20
0.6948346456692913
 30
0.0
 10
-1.209641732283465
 20
0.6955039370078741
 30
0.0
 10
-1.209169291338583
 20
0.6973070866141733
 30
0.0
 10
-1.208582677165354
 20
0.7003070866141733
 30
0.0
 10
-1.208582677165354
 20
0.7003070866141733
 30
0.0
 10
-1.208582677165354
 20
0.7003070866141733
 30
0.0
 10
-1.202472440944882
 20
0.7003070866141733
 30
0.0
 10
-1.202472440944882
 20
0.7003070866141733
 30
0.0
 10
-1.202472440944882
 20
0.7003070866141733
 30
0.0
 10
-1.202472440944882
 20
0.7003070866141733
 30
0.0
 10
-1.205972440944882
 20
0.6836141732283465
 30
0.0
 10
-1.205972440944882
 20
0.6836141732283465
 30
0.0
 10
-1.205972440944882
 20
0.6836141732283465
 30
0.0
 10
-1.205972440944882
 20
0.6836141732283465
 30
0.0
 10
-1.210779527559055
 20
0.6836141732283465
 30
0.0
 10
-1.210779527559055
 20
0.6836141732283465
 30
0.0
 10
-1.210779527559055
 20
0.6836141732283465
 30
0.0
 10
-1.210779527559055
 20
0.6836141732283465
 30
0.0
 10
-1.211334645669291
 20
0.685724409448819
 30
0.0
 10
-1.211334645669291
 20
0.685724409448819
 30
0.0
 10
-1.211334645669291
 20
0.685724409448819
 30
0.0
 10
-1.211334645669291
 20
0.685724409448819
 30
0.0
 10
-1.253417322834646
 20
0.685724409448819
 30
0.0
 10
-1.253417322834646
 20
0.685724409448819
 30
0.0
 10
-1.253417322834646
 20
0.685724409448819
 30
0.0
 10
-1.253417322834646
 20
0.685724409448819
 30
0.0
 10
-1.253417322834646
 20
0.6898897637795276
 30
0.0
 10
-1.253417322834646
 20
0.6898897637795276
 30
0.0
 10
-1.253417322834646
 20
0.6898897637795276
 30
0.0
 10
-1.253417322834646
 20
0.6898897637795276
 30
0.0
 10
-1.245110236220473
 20
0.6953346456692914
 30
0.0
 10
-1.245110236220473
 20
0.6953346456692914
 30
0.0
 10
-1.245110236220473
 20
0.6953346456692914
 30
0.0
 10
-1.235724409448819
 20
0.7014212598425197
 30
0.0
 10
-1.228944881889764
 20
0.7062244094488189
 30
0.0
 10
-1.224807086614173
 20
0.7098070866141732
 30
0.0
 10
-1.224807086614173
 20
0.7098070866141732
 30
0.0
 10
-1.220669291338583
 20
0.7133897637795276
 30
0.0
 10
-1.217779527559055
 20
0.7166968503937008
 30
0.0
 10
-1.216141732283465
 20
0.7197519685039371
 30
0.0
 10
-1.216141732283465
 20
0.7197519685039371
 30
0.0
 10
-1.215
 20
0.7219173228346457
 30
0.0
 10
-1.214417322834646
 20
0.7242795275590551
 30
0.0
 10
-1.214417322834646
 20
0.7268346456692914
 30
0.0
 10
-1.214417322834646
 20
0.7268346456692914
 30
0.0
 10
-1.214417322834646
 20
0.7306692913385827
 30
0.0
 10
-1.215751968503937
 20
0.7338070866141733
 30
0.0
 10
-1.218389763779528
 20
0.736224409448819
 30
0.0
 10
-1.218389763779528
 20
0.736224409448819
 30
0.0
 10
-1.221
 20
0.7386417322834646
 30
0.0
 10
-1.224582677165354
 20
0.7398346456692914
 30
0.0
 10
-1.229082677165355
 20
0.7398346456692914
 30
0.0
 10
-1.229082677165355
 20
0.7398346456692914
 30
0.0
 10
-1.234027559055118
 20
0.7398346456692914
 30
0.0
 10
-1.237972440944882
 20
0.7385039370078741
 30
0.0
 10
-1.240972440944882
 20
0.7358070866141733
 30
0.0
 10
-1.240972440944882
 20
0.7358070866141733
 30
0.0
 10
-1.243944881889764
 20
0.7331417322834646
 30
0.0
 10
-1.245444881889764
 20
0.7298622047244094
 30
0.0
 10
-1.245444881889764
 20
0.726003937007874
 30
0.0
 10
-1.245444881889764
 20
0.726003937007874
 30
0.0
 10
-1.245444881889764
 20
0.7251968503937009
 30
0.0
 10
-1.24536220472441
 20
0.7238346456692913
 30
0.0
 10
-1.245196850393701
 20
0.7219488188976379
 30
0.0
  0
SPLINE
  5
39
330
1F
100
AcDbEntity
  8
LAYER_1
 62
   250
100
AcDbSpline
210
0.0
220
0.0
230
1.0
 70
    11
 71
     3
 72
    60
 73
    56
 74
     0
 42
0.0000000001
 43
0.0000000001
 40
0.0
 40
0.0
 40
0.0
 40
0.0
 40
0.0714285714285714
 40
0.0714285714285714
 40
0.0714285714285714
 40
0.0714285714285714
 40
0.1428571428571429
 40
0.1428571428571429
 40
0.1428571428571429
 40
0.1428571428571429
 40
0.2142857142857143
 40
0.2142857142857143
 40
0.2142857142857143
 40
0.2142857142857143
 40
0.2857142857142857
 40
0.2857142857142857
 40
0.2857142857142857
 40
0.2857142857142857
 40
0.3571428571428571
 40
0.3571428571428571
 40
0.3571428571428571
 40
0.3571428571428571
 40
0.4285714285714285
 40
0.4285714285714285
 40
0.4285714285714285
 40
0.4285714285714285
 40
0.4999999999999999
 40
0.4999999999999999
 40
0.4999999999999999
 40
0.4999999999999999
 40
0.5714285714285713
 40
0.5714285714285713
 40
0.5714285714285713
 40
0.5714285714285713
 40
0.6428571428571427
 40
0.6428571428571427
 40
0.6428571428571427
 40
0.6428571428571427
 40
0.7142857142857141
 40
0.7142857142857141
 40
0.7142857142857141
 40
0.7142857142857141
 40
0.7857142857142855
 40
0.7857142857142855
 40
0.7857142857142855
 40
0.7857142857142855
 40
0.8571428571428569
 40
0.8571428571428569
 40
0.8571428571428569
 40
0.8571428571428569
 40
0.9285714285714283
 40
0.9285714285714283
 40
0.9285714285714283
 40
0.9285714285714283
 40
1.0
 40
1.0
 40
1.0
 40
1.0
 10
-1.181889763779528
 20
0.7570866141732284
 30
0.0
 10
-1.181889763779528
 20
0.7570866141732284
 30
0.0
 10
-1.186279527559055
 20
0.7624763779527559
 30
0.0
 10
-1.186279527559055
 20
0.7624763779527559
 30
0.0
 10
-1.186279527559055
 20
0.7624763779527559
 30
0.0
 10
-1.175165354330709
 20
0.7715314960629922
 30
0.0
 10
-1.169582677165354
 20
0.7790866141732283
 30
0.0
 10
-1.169582677165354
 20
0.7851692913385827
 30
0.0
 10
-1.169582677165354
 20
0.7851692913385827
 30
0.0
 10
-1.169582677165354
 20
0.7858622047244095
 30
0.0
 10
-1.169637795275591
 20
0.786751968503937
 30
0.0
 10
-1.169751968503937
 20
0.7877795275590551
 30
0.0
 10
-1.169751968503937
 20
0.7877795275590551
 30
0.0
 10
-1.170665354330709
 20
0.7873897637795276
 30
0.0
 10
-1.171582677165354
 20
0.7870866141732283
 30
0.0
 10
-1.172444881889764
 20
0.7868897637795276
 30
0.0
 10
-1.172444881889764
 20
0.7868897637795276
 30
0.0
 10
-1.173307086614173
 20
0.7866692913385827
 30
0.0
 10
-1.174110236220473
 20
0.7865590551181103
 30
0.0
 10
-1.174889763779528
 20
0.7865590551181103
 30
0.0
 10
-1.174889763779528
 20
0.7865590551181103
 30
0.0
 10
-1.1775
 20
0.7865590551181103
 30
0.0
 10
-1.179582677165354
 20
0.7873897637795276
 30
0.0
 10
-1.181137795275591
 20
0.7890866141732283
 30
0.0
 10
-1.181137795275591
 20
0.7890866141732283
 30
0.0
 10
-1.182724409448819
 20
0.790751968503937
 30
0.0
 10
-1.1835
 20
0.7928897637795276
 30
0.0
 10
-1.1835
 20
0.795503937007874
 30
0.0
 10
-1.1835
 20
0.795503937007874
 30
0.0
 10
-1.1835
 20
0.7980590551181103
 30
0.0
 10
-1.182555118110236
 20
0.8002795275590552
 30
0.0
 10
-1.180665354330709
 20
0.8021692913385827
 30
0.0
 10
-1.180665354330709
 20
0.8021692913385827
 30
0.0
 10
-1.178751968503937
 20
0.8040866141732284
 30
0.0
 10
-1.176472440944882
 20
0.8050314960629922
 30
0.0
 10
-1.173834645669291
 20
0.8050314960629922
 30
0.0
 10
-1.173834645669291
 20
0.8050314960629922
 30
0.0
 10
-1.170137795275591
 20
0.8050314960629922
 30
0.0
 10
-1.166972440944882
 20
0.8035590551181103
 30
0.0
 10
-1.164334645669291
 20
0.8005866141732284
 30
0.0
 10
-1.164334645669291
 20
0.8005866141732284
 30
0.0
 10
-1.161724409448819
 20
0.7976417322834646
 30
0.0
 10
-1.160389763779528
 20
0.7938346456692914
 30
0.0
 10
-1.160389763779528
 20
0.7891692913385827
 30
0.0
 10
-1.160389763779528
 20
0.7891692913385827
 30
0.0
 10
-1.160389763779528
 20
0.7861141732283465
 30
0.0
 10
-1.161027559055118
 20
0.7829173228346457
 30
0.0
 10
-1.162279527559055
 20
0.7795866141732284
 30
0.0
 10
-1.162279527559055
 20
0.7795866141732284
 30
0.0
 10
-1.163527559055118
 20
0.7762519685039371
 30
0.0
 10
-1.165334645669292
 20
0.7731692913385827
 30
0.0
 10
-1.167724409448819
 20
0.7703070866141732
 30
0.0
 10
-1.167724409448819
 20
0.7703070866141732
 30
0.0
 10
-1.170110236220473
 20
0.7674763779527559
 30
0.0
 10
-1.174834645669291
 20
0.7630590551181102
 30
0.0
 10
-1.181889763779528
 20
0.7570866141732284
 30
0.0
  0
SPLINE
  5
3A
330
1F
100
AcDbEntity
  8
LAYER_1
 62
   250
100
AcDbSpline
210
0.0
220
0.0
230
1.0
 70
    11
 71
     3
 72
    60
 73
    56
 74
     0
 42
0.0000000001
 43
0.0000000001
 40
0.0
 40
0.0
 40
0.0
 40
0.0
 40
0.0714285714285714
 40
0.0714285714285714
 40
0.0714285714285714
 40
0.0714285714285714
 40
0.1428571428571429
 40
0.1428571428571429
 40
0.1428571428571429
 40
0.1428571428571429
 40
0.2142857142857143
 40
0.2142857142857143
 40
0.2142857142857143
 40
0.2142857142857143
 40
0.2857142857142857
 40
0.2857142857142857
 40
0.2857142857142857
 40
0.2857142857142857
 40
0.3571428571428571
 40
0.3571428571428571
 40
0.3571428571428571
 40
0.3571428571428571
 40
0.4285714285714285
 40
0.4285714285714285
 40
0.4285714285714285
 40
0.4285714285714285
 40
0.4999999999999999
 40
0.4999999999999999
 40
0.4999999999999999
 40
0.4999999999999999
 40
0.5714285714285713
 40
0.5714285714285713
 40
0.5714285714285713
 40
0.5714285714285713
 40
0.6428571428571427
 40
0.6428571428571427
 40
0.6428571428571427
 40
0.6428571428571427
 40
0.7142857142857141
 40
0.7142857142857141
 40
0.7142857142857141
 40
0.7142857142857141
 40
0.7857142857142855
 40
0.7857142857142855
 40
0.7857142857142855
 40
0.7857142857142855
 40
0.8571428571428569
 40
0.8571428571428569
 40
0.8571428571428569
 40
0.8571428571428569
 40
0.9285714285714283
 40
0.9285714285714283
 40
0.9285714285714283
 40
0.9285714285714283
 40
1.0
 40
1.0
 40
1.0
 40
1.0
 10
-1.152834645669291
 20
0.7570866141732284
 30
0.0
 10
-1.152834645669291
 20
0.7570866141732284
 30
0.0
 10
-1.157224409448819
 20
0.7624763779527559
 30
0.0
 10
-1.157224409448819
 20
0.7624763779527559
 30
0.0
 10
-1.157224409448819
 20
0.7624763779527559
 30
0.0
 10
-1.146110236220473
 20
0.7715314960629922
 30
0.0
 10
-1.140527559055118
 20
0.7790866141732283
 30
0.0
 10
-1.140527559055118
 20
0.7851692913385827
 30
0.0
 10
-1.140527559055118
 20
0.7851692913385827
 30
0.0
 10
-1.140527559055118
 20
0.7858622047244095
 30
0.0
 10
-1.140582677165354
 20
0.786751968503937
 30
0.0
 10
-1.140696850393701
 20
0.7877795275590551
 30
0.0
 10
-1.140696850393701
 20
0.7877795275590551
 30
0.0
 10
-1.141610236220473
 20
0.7873897637795276
 30
0.0
 10
-1.142527559055118
 20
0.7870866141732283
 30
0.0
 10
-1.143389763779528
 20
0.7868897637795276
 30
0.0
 10
-1.143389763779528
 20
0.7868897637795276
 30
0.0
 10
-1.144251968503937
 20
0.7866692913385827
 30
0.0
 10
-1.145082677165354
 20
0.7865590551181103
 30
0.0
 10
-1.145917322834646
 20
0.7865590551181103
 30
0.0
 10
-1.145917322834646
 20
0.7865590551181103
 30
0.0
 10
-1.148472440944882
 20
0.7865590551181103
 30
0.0
 10
-1.150527559055118
 20
0.7873897637795276
 30
0.0
 10
-1.152082677165354
 20
0.7890866141732283
 30
0.0
 10
-1.152082677165354
 20
0.7890866141732283
 30
0.0
 10
-1.153665354330709
 20
0.790751968503937
 30
0.0
 10
-1.154444881889764
 20
0.7928897637795276
 30
0.0
 10
-1.154444881889764
 20
0.795503937007874
 30
0.0
 10
-1.154444881889764
 20
0.795503937007874
 30
0.0
 10
-1.154444881889764
 20
0.7980590551181103
 30
0.0
 10
-1.1535
 20
0.8002795275590552
 30
0.0
 10
-1.151610236220473
 20
0.8021692913385827
 30
0.0
 10
-1.151610236220473
 20
0.8021692913385827
 30
0.0
 10
-1.149724409448819
 20
0.8040866141732284
 30
0.0
 10
-1.147417322834646
 20
0.8050314960629922
 30
0.0
 10
-1.144779527559055
 20
0.8050314960629922
 30
0.0
 10
-1.144779527559055
 20
0.8050314960629922
 30
0.0
 10
-1.141082677165354
 20
0.8050314960629922
 30
0.0
 10
-1.137917322834646
 20
0.8035590551181103
 30
0.0
 10
-1.135279527559055
 20
0.8005866141732284
 30
0.0
 10
-1.135279527559055
 20
0.8005866141732284
 30
0.0
 10
-1.132669291338583
 20
0.7976417322834646
 30
0.0
 10
-1.131334645669291
 20
0.7938346456692914
 30
0.0
 10
-1.131334645669291
 20
0.7891692913385827
 30
0.0
 10
-1.131334645669291
 20
0.7891692913385827
 30
0.0
 10
-1.131334645669291
 20
0.7861141732283465
 30
0.0
 10
-1.131972440944882
 20
0.7829173228346457
 30
0.0
 10
-1.133224409448819
 20
0.7795866141732284
 30
0.0
 10
-1.133224409448819
 20
0.7795866141732284
 30
0.0
 10
-1.134472440944882
 20
0.7762519685039371
 30
0.0
 10
-1.136279527559055
 20
0.7731692913385827
 30
0.0
 10
-1.138665354330709
 20
0.7703070866141732
 30
0.0
 10
-1.138665354330709
 20
0.7703070866141732
 30
0.0
 10
-1.141055118110236
 20
0.7674763779527559
 30
0.0
 10
-1.145779527559055
 20
0.7630590551181102
 30
0.0
 10
-1.152834645669291
 20
0.7570866141732284
 30
0.0
  0
SPLINE
  5
3B
330
1F
100
AcDbEntity
  8
LAYER_1
 62
   250
100
AcDbSpline
210
0.0
220
0.0
230
1.0
 70
    11
 71
     3
 72
   204
 73
   200
 74
     0
 42
0.0000000001
 43
0.0000000001
 40
0.0
 40
0.0
 40
0.0
 40
0.0
 40
0.02
 40
0.02
 40
0.02
 40
0.02
 40
0.04
 40
0.04
 40
0.04
 40
0.04
 40
0.06
 40
0.06
 40
0.06
 40
0.06
 40
0.08
 40
0.08
 40
0.08
 40
0.08
 40
0.1
 40
0.1
 40
0.1
 40
0.1
 40
0.12
 40
0.12
 40
0.12
 40
0.12
 40
0.14
 40
0.14
 40
0.14
 40
0.14
 40
0.16
 40
0.16
 40
0.16
 40
0.16
 40
0.18
 40
0.18
 40
0.18
 40
0.18
 40
0.2
 40
0.2
 40
0.2
 40
0.2
 40
0.22
 40
0.22
 40
0.22
 40
0.22
 40
0.24
 40
0.24
 40
0.24
 40
0.24
 40
0.26
 40
0.26
 40
0.26
 40
0.26
 40
0.28
 40
0.28
 40
0.28
 40
0.28
 40
0.3
 40
0.3
 40
0.3
 40
0.3
 40
0.32
 40
0.32
 40
0.32
 40
0.32
 40
0.34
 40
0.34
 40
0.34
 40
0.34
 40
0.36
 40
0.36
 40
0.36
 40
0.36
 40
0.3800000000000001
 40
0.3800000000000001
 40
0.3800000000000001
 40
0.3800000000000001
 40
0.4000000000000001
 40
0.4000000000000001
 40
0.4000000000000001
 40
0.4000000000000001
 40
0.4200000000000001
 40
0.4200000000000001
 40
0.4200000000000001
 40
0.4200000000000001
 40
0.4400000000000001
 40
0.4400000000000001
 40
0.4400000000000001
 40
0.4400000000000001
 40
0.4600000000000001
 40
0.4600000000000001
 40
0.4600000000000001
 40
0.4600000000000001
 40
0.4800000000000002
 40
0.4800000000000002
 40
0.4800000000000002
 40
0.4800000000000002
 40
0.5000000000000001
 40
0.5000000000000001
 40
0.5000000000000001
 40
0.5000000000000001
 40
0.5200000000000001
 40
0.5200000000000001
 40
0.5200000000000001
 40
0.5200000000000001
 40
0.5400000000000002
 40
0.5400000000000002
 40
0.5400000000000002
 40
0.5400000000000002
 40
0.5600000000000002
 40
0.5600000000000002
 40
0.5600000000000002
 40
0.5600000000000002
 40
0.5800000000000002
 40
0.5800000000000002
 40
0.5800000000000002
 40
0.5800000000000002
 40
0.6000000000000002
 40
0.6000000000000002
 40
0.6000000000000002
 40
0.6000000000000002
 40
0.6200000000000002
 40
0.6200000000000002
 40
0.6200000000000002
 40
0.6200000000000002
 40
0.6400000000000002
 40
0.6400000000000002
 40
0.6400000000000002
 40
0.6400000000000002
 40
0.6600000000000003
 40
0.6600000000000003
 40
0.6600000000000003
 40
0.6600000000000003
 40
0.6800000000000003
 40
0.6800000000000003
 40
0.6800000000000003
 40
0.6800000000000003
 40
0.7000000000000003
 40
0.7000000000000003
 40
0.7000000000000003
 40
0.7000000000000003
 40
0.7200000000000003
 40
0.7200000000000003
 40
0.7200000000000003
 40
0.7200000000000003
 40
0.7400000000000003
 40
0.7400000000000003
 40
0.7400000000000003
 40
0.7400000000000003
 40
0.7600000000000003
 40
0.7600000000000003
 40
0.7600000000000003
 40
0.7600000000000003
 40
0.7800000000000004
 40
0.7800000000000004
 40
0.7800000000000004
 40
0.7800000000000004
 40
0.8000000000000004
 40
0.8000000000000004
 40
0.8000000000000004
 40
0.8000000000000004
 40
0.8200000000000004
 40
0.8200000000000004
 40
0.8200000000000004
 40
0.8200000000000004
 40
0.8400000000000004
 40
0.8400000000000004
 40
0.8400000000000004
 40
0.8400000000000004
 40
0.8600000000000004
 40
0.8600000000000004
 40
0.8600000000000004
 40
0.8600000000000004
 40
0.8800000000000005
 40
0.8800000000000005
 40
0.8800000000000005
 40
0.8800000000000005
 40
0.9000000000000005
 40
0.9000000000000005
 40
0.9000000000000005
 40
0.9000000000000005
 40
0.9200000000000005
 40
0.9200000000000005
 40
0.9200000000000005
 40
0.9200000000000005
 40
0.9400000000000005
 40
0.9400000000000005
 40
0.9400000000000005
 40
0.9400000000000005
 40
0.9600000000000005
 40
0.9600000000000005
 40
0.9600000000000005
 40
0.9600000000000005
 40
0.9800000000000005
 40
0.9800000000000005
 40
0.9800000000000005
 40
0.9800000000000005
 40
1.0
 40
1.0
 40
1.0
 40
1.0
 10
-1.069027559055118
 20
0.7641692913385827
 30
0.0
 10
-1.069027559055118
 20
0.7641692913385827
 30
0.0
 10
-1.028082677165354
 20
0.7641692913385827
 30
0.0
 10
-1.028082677165354
 20
0.7641692913385827
 30
0.0
 10
-1.028082677165354
 20
0.7641692913385827
 30
0.0
 10
-1.028082677165354
 20
0.7641692913385827
 30
0.0
 10
-1.028082677165354
 20
0.7573346456692913
 30
0.0
 10
-1.028082677165354
 20
0.7573346456692913
 30
0.0
 10
-1.028082677165354
 20
0.7573346456692913
 30
0.0
 10
-1.028082677165354
 20
0.7573346456692913
 30
0.0
 10
-1.030917322834646
 20
0.7573346456692913
 30
0.0
 10
-1.030917322834646
 20
0.7573346456692913
 30
0.0
 10
-1.030917322834646
 20
0.7573346456692913
 30
0.0
 10
-1.032555118110236
 20
0.7573346456692913
 30
0.0
 10
-1.034055118110236
 20
0.7571417322834646
 30
0.0
 10
-1.035417322834646
 20
0.7567795275590552
 30
0.0
 10
-1.035417322834646
 20
0.7567795275590552
 30
0.0
 10
-1.036220472440945
 20
0.7565590551181103
 30
0.0
 10
-1.036889763779528
 20
0.7561417322834646
 30
0.0
 10
-1.037389763779528
 20
0.755503937007874
 30
0.0
 10
-1.037389763779528
 20
0.755503937007874
 30
0.0
 10
-1.037917322834646
 20
0.7548897637795276
 30
0.0
 10
-1.038165354330709
 20
0.7543070866141732
 30
0.0
 10
-1.038165354330709
 20
0.753751968503937
 30
0.0
 10
-1.038165354330709
 20
0.753751968503937
 30
0.0
 10
-1.038165354330709
 20
0.752503937007874
 30
0.0
 10
-1.037137795275591
 20
0.7506417322834647
 30
0.0
 10
-1.035082677165354
 20
0.7481417322834646
 30
0.0
 10
-1.035082677165354
 20
0.7481417322834646
 30
0.0
 10
-1.035082677165354
 20
0.7481417322834646
 30
0.0
 10
-1.023444881889764
 20
0.7335039370078741
 30
0.0
 10
-1.023444881889764
 20
0.7335039370078741
 30
0.0
 10
-1.023444881889764
 20
0.7335039370078741
 30
0.0
 10
-1.023444881889764
 20
0.7335039370078741
 30
0.0
 10
-1.00986220472441
 20
0.7481417322834646
 30
0.0
 10
-1.00986220472441
 20
0.7481417322834646
 30
0.0
 10
-1.00986220472441
 20
0.7481417322834646
 30
0.0
 10
-1.00736220472441
 20
0.7508622047244095
 30
0.0
 10
-1.006110236220473
 20
0.7528897637795275
 30
0.0
 10
-1.006110236220473
 20
0.7542519685039371
 30
0.0
 10
-1.006110236220473
 20
0.7542519685039371
 30
0.0
 10
-1.006110236220473
 20
0.755224409448819
 30
0.0
 10
-1.006555118110236
 20
0.755976377952756
 30
0.0
 10
-1.007417322834646
 20
0.7565314960629922
 30
0.0
 10
-1.007417322834646
 20
0.7565314960629922
 30
0.0
 10
-1.008279527559055
 20
0.7570590551181102
 30
0.0
 10
-1.010137795275591
 20
0.7573346456692913
 30
0.0
 10
-1.013027559055118
 20
0.7573346456692913
 30
0.0
 10
-1.013027559055118
 20
0.7573346456692913
 30
0.0
 10
-1.013027559055118
 20
0.7573346456692913
 30
0.0
 10
-1.016110236220473
 20
0.7573346456692913
 30
0.0
 10
-1.016110236220473
 20
0.7573346456692913
 30
0.0
 10
-1.016110236220473
 20
0.7573346456692913
 30
0.0
 10
-1.016110236220473
 20
0.7573346456692913
 30
0.0
 10
-1.016110236220473
 20
0.7641692913385827
 30
0.0
 10
-1.016110236220473
 20
0.7641692913385827
 30
0.0
 10
-1.016110236220473
 20
0.7641692913385827
 30
0.0
 10
-1.016110236220473
 20
0.7641692913385827
 30
0.0
 10
-0.9813622047244095
 20
0.7641692913385827
 30
0.0
 10
-0.9813622047244095
 20
0.7641692913385827
 30
0.0
 10
-0.9813622047244095
 20
0.7641692913385827
 30
0.0
 10
-0.9813622047244095
 20
0.7641692913385827
 30
0.0
 10
-0.9813622047244095
 20
0.7573346456692913
 30
0.0
 10
-0.9813622047244095
 20
0.7573346456692913
 30
0.0
 10
-0.9813622047244095
 20
0.7573346456692913
 30
0.0
 10
-0.9847795275590552
 20
0.7571692913385827
 30
0.0
 10
-0.9877244094488189
 20
0.7564763779527559
 30
0.0
 10
-0.9901929133858268
 20
0.755224409448819
 30
0.0
 10
-0.9901929133858268
 20
0.755224409448819
 30
0.0
 10
-0.9926653543307087
 20
0.753976377952756
 30
0.0
 10
-0.9955826771653543
 20
0.7516141732283465
 30
0.0
 10
-0.9989448818897638
 20
0.7481417322834646
 30
0.0
 10
-0.9989448818897638
 20
0.7481417322834646
 30
0.0
 10
-0.9989448818897638
 20
0.7481417322834646
 30
0.0
 10
-1.017582677165354
 20
0.7287795275590552
 30
0.0
 10
-1.017582677165354
 20
0.7287795275590552
 30
0.0
 10
-1.017582677165354
 20
0.7287795275590552
 30
0.0
 10
-1.017582677165354
 20
0.7287795275590552
 30
0.0
 10
-0.9943897637795276
 20
0.7023346456692914
 30
0.0
 10
-0.9943897637795276
 20
0.7023346456692914
 30
0.0
 10
-0.9943897637795276
 20
0.7023346456692914
 30
0.0
 10
-0.9943897637795276
 20
0.7023346456692914
 30
0.0
 10
-0.9935000000000001
 20
0.7011968503937008
 30
0.0
 10
-0.9935000000000001
 20
0.7011968503937008
 30
0.0
 10
-0.9935000000000001
 20
0.7011968503937008
 30
0.0
 10
-0.991224409448819
 20
0.698251968503937
 30
0.0
 10
-0.9886653543307087
 20
0.6958897637795276
 30
0.0
 10
-0.9858346456692914
 20
0.6941141732283465
 30
0.0
 10
-0.9858346456692914
 20
0.6941141732283465
 30
0.0
 10
-0.9842795275590551
 20
0.6930866141732284
 30
0.0
 10
-0.9818346456692914
 20
0.6925314960629921
 30
0.0
 10
-0.9785275590551181
 20
0.692476377952756
 30
0.0
 10
-0.9785275590551181
 20
0.692476377952756
 30
0.0
 10
-0.9785275590551181
 20
0.692476377952756
 30
0.0
 10
-0.9785275590551181
 20
0.6856417322834646
 30
0.0
 10
-0.9785275590551181
 20
0.6856417322834646
 30
0.0
 10
-0.9785275590551181
 20
0.6856417322834646
 30
0.0
 10
-0.9785275590551181
 20
0.6856417322834646
 30
0.0
 10
-1.018472440944882
 20
0.6856417322834646
 30
0.0
 10
-1.018472440944882
 20
0.6856417322834646
 30
0.0
 10
-1.018472440944882
 20
0.6856417322834646
 30
0.0
 10
-1.018472440944882
 20
0.6856417322834646
 30
0.0
 10
-1.018472440944882
 20
0.692476377952756
 30
0.0
 10
-1.018472440944882
 20
0.692476377952756
 30
0.0
 10
-1.018472440944882
 20
0.692476377952756
 30
0.0
 10
-1.018472440944882
 20
0.692476377952756
 30
0.0
 10
-1.015055118110236
 20
0.692476377952756
 30
0.0
 10
-1.015055118110236
 20
0.692476377952756
 30
0.0
 10
-1.015055118110236
 20
0.692476377952756
 30
0.0
 10
-1.012444881889764
 20
0.692476377952756
 30
0.0
 10
-1.010807086614173
 20
0.6926417322834646
 30
0.0
 10
-1.010082677165354
 20
0.6929763779527559
 30
0.0
 10
-1.010082677165354
 20
0.6929763779527559
 30
0.0
 10
-1.008917322834646
 20
0.6935039370078741
 30
0.0
 10
-1.008307086614173
 20
0.6944212598425197
 30
0.0
 10
-1.008307086614173
 20
0.695724409448819
 30
0.0
 10
-1.008307086614173
 20
0.695724409448819
 30
0.0
 10
-1.008307086614173
 20
0.6969212598425197
 30
0.0
 10
-1.009610236220472
 20
0.6991141732283465
 30
0.0
 10
-1.012224409448819
 20
0.7023346456692914
 30
0.0
 10
-1.012224409448819
 20
0.7023346456692914
 30
0.0
 10
-1.012224409448819
 20
0.7023346456692914
 30
0.0
 10
-1.027027559055118
 20
0.720476377952756
 30
0.0
 10
-1.027027559055118
 20
0.720476377952756
 30
0.0
 10
-1.027027559055118
 20
0.720476377952756
 30
0.0
 10
-1.027027559055118
 20
0.720476377952756
 30
0.0
 10
-1.043555118110236
 20
0.7023346456692914
 30
0.0
 10
-1.043555118110236
 20
0.7023346456692914
 30
0.0
 10
-1.043555118110236
 20
0.7023346456692914
 30
0.0
 10
-1.043555118110236
 20
0.7023346456692914
 30
0.0
 10
-1.045165354330709
 20
0.7003622047244095
 30
0.0
 10
-1.045165354330709
 20
0.7003622047244095
 30
0.0
 10
-1.045165354330709
 20
0.7003622047244095
 30
0.0
 10
-1.045165354330709
 20
0.7003622047244095
 30
0.0
 10
-1.046055118110236
 20
0.6993897637795276
 30
0.0
 10
-1.046055118110236
 20
0.6993897637795276
 30
0.0
 10
-1.046055118110236
 20
0.6993897637795276
 30
0.0
 10
-1.047417322834646
 20
0.6979212598425197
 30
0.0
 10
-1.048110236220472
 20
0.6966417322834646
 30
0.0
 10
-1.048110236220472
 20
0.6955039370078741
 30
0.0
 10
-1.048110236220472
 20
0.6955039370078741
 30
0.0
 10
-1.048110236220472
 20
0.6944488188976379
 30
0.0
 10
-1.047692913385827
 20
0.6936968503937008
 30
0.0
 10
-1.046834645669291
 20
0.6931968503937008
 30
0.0
 10
-1.046834645669291
 20
0.6931968503937008
 30
0.0
 10
-1.046
 20
0.692724409448819
 30
0.0
 10
-1.044110236220472
 20
0.692476377952756
 30
0.0
 10
-1.041192913385827
 20
0.692476377952756
 30
0.0
 10
-1.041192913385827
 20
0.692476377952756
 30
0.0
 10
-1.041192913385827
 20
0.692476377952756
 30
0.0
 10
-1.037917322834646
 20
0.692476377952756
 30
0.0
 10
-1.037917322834646
 20
0.692476377952756
 30
0.0
 10
-1.037917322834646
 20
0.692476377952756
 30
0.0
 10
-1.037917322834646
 20
0.692476377952756
 30
0.0
 10
-1.037917322834646
 20
0.6856417322834646
 30
0.0
 10
-1.037917322834646
 20
0.6856417322834646
 30
0.0
 10
-1.037917322834646
 20
0.6856417322834646
 30
0.0
 10
-1.037917322834646
 20
0.6856417322834646
 30
0.0
 10
-1.072192913385827
 20
0.6856417322834646
 30
0.0
 10
-1.072192913385827
 20
0.6856417322834646
 30
0.0
 10
-1.072192913385827
 20
0.6856417322834646
 30
0.0
 10
-1.072192913385827
 20
0.6856417322834646
 30
0.0
 10
-1.072192913385827
 20
0.692476377952756
 30
0.0
 10
-1.072192913385827
 20
0.692476377952756
 30
0.0
 10
-1.072192913385827
 20
0.692476377952756
 30
0.0
 10
-1.069527559055118
 20
0.6925314960629921
 30
0.0
 10
-1.067444881889764
 20
0.6928070866141732
 30
0.0
 10
-1.065917322834646
 20
0.6933346456692914
 30
0.0
 10
-1.065917322834646
 20
0.6933346456692914
 30
0.0
 10
-1.064417322834646
 20
0.6938346456692913
 30
0.0
 10
-1.062944881889764
 20
0.6946417322834646
 30
0.0
 10
-1.061527559055118
 20
0.695724409448819
 30
0.0
 10
-1.061527559055118
 20
0.695724409448819
 30
0.0
 10
-1.059082677165354
 20
0.6976968503937008
 30
0.0
 10
-1.057334645669291
 20
0.6992244094488189
 30
0.0
 10
-1.056248031496063
 20
0.7003622047244095
 30
0.0
 10
-1.056248031496063
 20
0.7003622047244095
 30
0.0
 10
-1.056248031496063
 20
0.7003622047244095
 30
0.0
 10
-1.032389763779528
 20
0.7248622047244094
 30
0.0
 10
-1.032389763779528
 20
0.7248622047244094
 30
0.0
 10
-1.032389763779528
 20
0.7248622047244094
 30
0.0
 10
-1.032389763779528
 20
0.7248622047244094
 30
0.0
 10
-1.052665354330709
 20
0.7481417322834646
 30
0.0
 10
-1.052665354330709
 20
0.7481417322834646
 30
0.0
 10
-1.052665354330709
 20
0.7481417322834646
 30
0.0
 10
-1.055220472440945
 20
0.7510314960629921
 30
0.0
 10
-1.057220472440945
 20
0.7530314960629921
 30
0.0
 10
-1.058720472440945
 20
0.7541968503937008
 30
0.0
 10
-1.058720472440945
 20
0.7541968503937008
 30
0.0
 10
-1.060220472440945
 20
0.7553622047244095
 30
0.0
 10
-1.061665354330709
 20
0.7561968503937008
 30
0.0
 10
-1.063082677165354
 20
0.7566417322834645
 30
0.0
 10
-1.063082677165354
 20
0.7566417322834645
 30
0.0
 10
-1.0645
 20
0.7571141732283465
 30
0.0
 10
-1.066472440944882
 20
0.7573346456692913
 30
0.0
 10
-1.069027559055118
 20
0.7573346456692913
 30
0.0
 10
-1.069027559055118
 20
0.7573346456692913
 30
0.0
 10
-1.069027559055118
 20
0.7573346456692913
 30
0.0
 10
-1.069027559055118
 20
0.7641692913385827
 30
0.0
 10
-1.069027559055118
 20
0.7641692913385827
 30
0.0
  0
SPLINE
  5
3C
330
1F
100
AcDbEntity
  8
LAYER_1
 62
   250
100
AcDbSpline
210
0.0
220
0.0
230
1.0
 70
    11
 71
     3
 72
   172
 73
   168
 74
     0
 42
0.0000000001
 43
0.0000000001
 40
0.0
 40
0.0
 40
0.0
 40
0.0
 40
0.0238095238095238
 40
0.0238095238095238
 40
0.0238095238095238
 40
0.0238095238095238
 40
0.0476190476190476
 40
0.0476190476190476
 40
0.0476190476190476
 40
0.0476190476190476
 40
0.0714285714285714
 40
0.0714285714285714
 40
0.0714285714285714
 40
0.0714285714285714
 40
0.0952380952380952
 40
0.0952380952380952
 40
0.0952380952380952
 40
0.0952380952380952
 40
0.119047619047619
 40
0.119047619047619
 40
0.119047619047619
 40
0.119047619047619
 40
0.1428571428571429
 40
0.1428571428571429
 40
0.1428571428571429
 40
0.1428571428571429
 40
0.1666666666666667
 40
0.1666666666666667
 40
0.1666666666666667
 40
0.1666666666666667
 40
0.1904761904761905
 40
0.1904761904761905
 40
0.1904761904761905
 40
0.1904761904761905
 40
0.2142857142857143
 40
0.2142857142857143
 40
0.2142857142857143
 40
0.2142857142857143
 40
0.2380952380952381
 40
0.2380952380952381
 40
0.2380952380952381
 40
0.2380952380952381
 40
0.2619047619047619
 40
0.2619047619047619
 40
0.2619047619047619
 40
0.2619047619047619
 40
0.2857142857142857
 40
0.2857142857142857
 40
0.2857142857142857
 40
0.2857142857142857
 40
0.3095238095238095
 40
0.3095238095238095
 40
0.3095238095238095
 40
0.3095238095238095
 40
0.3333333333333334
 40
0.3333333333333334
 40
0.3333333333333334
 40
0.3333333333333334
 40
0.3571428571428572
 40
0.3571428571428572
 40
0.3571428571428572
 40
0.3571428571428572
 40
0.380952380952381
 40
0.380952380952381
 40
0.380952380952381
 40
0.380952380952381
 40
0.4047619047619049
 40
0.4047619047619049
 40
0.4047619047619049
 40
0.4047619047619049
 40
0.4285714285714287
 40
0.4285714285714287
 40
0.4285714285714287
 40
0.4285714285714287
 40
0.4523809523809526
 40
0.4523809523809526
 40
0.4523809523809526
 40
0.4523809523809526
 40
0.4761904761904764
 40
0.4761904761904764
 40
0.4761904761904764
 40
0.4761904761904764
 40
0.5000000000000002
 40
0.5000000000000002
 40
0.5000000000000002
 40
0.5000000000000002
 40
0.5238095238095241
 40
0.5238095238095241
 40
0.5238095238095241
 40
0.5238095238095241
 40
0.5476190476190479
 40
0.5476190476190479
 40
0.5476190476190479
 40
0.5476190476190479
 40
0.5714285714285717
 40
0.5714285714285717
 40
0.5714285714285717
 40
0.5714285714285717
 40
0.5952380952380956
 40
0.5952380952380956
 40
0.5952380952380956
 40
0.5952380952380956
 40
0.6190476190476194
 40
0.6190476190476194
 40
0.6190476190476194
 40
0.6190476190476194
 40
0.6428571428571432
 40
0.6428571428571432
 40
0.6428571428571432
 40
0.6428571428571432
 40
0.6666666666666671
 40
0.6666666666666671
 40
0.6666666666666671
 40
0.6666666666666671
 40
0.6904761904761909
 40
0.6904761904761909
 40
0.6904761904761909
 40
0.6904761904761909
 40
0.7142857142857148
 40
0.7142857142857148
 40
0.7142857142857148
 40
0.7142857142857148
 40
0.7380952380952386
 40
0.7380952380952386
 40
0.7380952380952386
 40
0.7380952380952386
 40
0.7619047619047624
 40
0.7619047619047624
 40
0.7619047619047624
 40
0.7619047619047624
 40
0.7857142857142863
 40
0.7857142857142863
 40
0.7857142857142863
 40
0.7857142857142863
 40
0.8095238095238101
 40
0.8095238095238101
 40
0.8095238095238101
 40
0.8095238095238101
 40
0.8333333333333339
 40
0.8333333333333339
 40
0.8333333333333339
 40
0.8333333333333339
 40
0.8571428571428578
 40
0.8571428571428578
 40
0.8571428571428578
 40
0.8571428571428578
 40
0.8809523809523816
 40
0.8809523809523816
 40
0.8809523809523816
 40
0.8809523809523816
 40
0.9047619047619054
 40
0.9047619047619054
 40
0.9047619047619054
 40
0.9047619047619054
 40
0.9285714285714293
 40
0.9285714285714293
 40
0.9285714285714293
 40
0.9285714285714293
 40
0.9523809523809531
 40
0.9523809523809531
 40
0.9523809523809531
 40
0.9523809523809531
 40
0.9761904761904769
 40
0.9761904761904769
 40
0.9761904761904769
 40
0.9761904761904769
 40
1.0
 40
1.0
 40
1.0
 40
1.0
 10
-0.9033346456692913
 20
0.7688070866141733
 30
0.0
 10
-0.9033346456692913
 20
0.7688070866141733
 30
0.0
 10
-0.9111417322834646
 20
0.7700314960629922
 30
0.0
 10
-0.9111417322834646
 20
0.7700314960629922
 30
0.0
 10
-0.9111417322834646
 20
0.7700314960629922
 30
0.0
 10
-0.9104448818897638
 20
0.7758897637795276
 30
0.0
 10
-0.9089173228346457
 20
0.780751968503937
 30
0.0
 10
-0.9065826771653543
 20
0.7846141732283465
 30
0.0
 10
-0.9065826771653543
 20
0.7846141732283465
 30
0.0
 10
-0.9035000000000001
 20
0.7898070866141732
 30
0.0
 10
-0.8991417322834646
 20
0.7938622047244095
 30
0.0
 10
-0.8935000000000001
 20
0.796751968503937
 30
0.0
 10
-0.8935000000000001
 20
0.796751968503937
 30
0.0
 10
-0.8878346456692914
 20
0.7996692913385827
 30
0.0
 10
-0.8813622047244095
 20
0.8011141732283464
 30
0.0
 10
-0.8740275590551182
 20
0.8011141732283464
 30
0.0
 10
-0.8740275590551182
 20
0.8011141732283464
 30
0.0
 10
-0.8668346456692914
 20
0.8011141732283464
 30
0.0
 10
-0.860472440944882
 20
0.7998346456692914
 30
0.0
 10
-0.855
 20
0.7972519685039371
 30
0.0
 10
-0.855
 20
0.7972519685039371
 30
0.0
 10
-0.8495275590551181
 20
0.7946692913385827
 30
0.0
 10
-0.8453897637795276
 20
0.7912519685039371
 30
0.0
 10
-0.8425866141732283
 20
0.7870039370078741
 30
0.0
 10
-0.8425866141732283
 20
0.7870039370078741
 30
0.0
 10
-0.8397795275590552
 20
0.782751968503937
 30
0.0
 10
-0.8383897637795276
 20
0.7781417322834646
 30
0.0
 10
-0.8383897637795276
 20
0.7731968503937008
 30
0.0
 10
-0.8383897637795276
 20
0.7731968503937008
 30
0.0
 10
-0.8383897637795276
 20
0.7688622047244095
 30
0.0
 10
-0.8394448818897639
 20
0.764976377952756
 30
0.0
 10
-0.8415590551181102
 20
0.7615590551181103
 30
0.0
 10
-0.8415590551181102
 20
0.7615590551181103
 30
0.0
 10
-0.8436968503937008
 20
0.7581417322834646
 30
0.0
 10
-0.8468346456692913
 20
0.7550866141732284
 30
0.0
 10
-0.851
 20
0.7523622047244095
 30
0.0
 10
-0.851
 20
0.7523622047244095
 30
0.0
 10
-0.8539448818897638
 20
0.7504763779527559
 30
0.0
 10
-0.8577519685039371
 20
0.7488070866141733
 30
0.0
 10
-0.862472440944882
 20
0.7474173228346457
 30
0.0
 10
-0.862472440944882
 20
0.7474173228346457
 30
0.0
 10
-0.8574448818897639
 20
0.7466968503937008
 30
0.0
 10
-0.8533070866141733
 20
0.7455314960629922
 30
0.0
 10
-0.8501141732283465
 20
0.7439173228346457
 30
0.0
 10
-0.8501141732283465
 20
0.7439173228346457
 30
0.0
 10
-0.8449173228346457
 20
0.741251968503937
 30
0.0
 10
-0.8408070866141733
 20
0.7375866141732284
 30
0.0
 10
-0.8378346456692913
 20
0.7329173228346457
 30
0.0
 10
-0.8378346456692913
 20
0.7329173228346457
 30
0.0
 10
-0.8348346456692913
 20
0.728251968503937
 30
0.0
 10
-0.8333622047244095
 20
0.7231417322834646
 30
0.0
 10
-0.8333622047244095
 20
0.7175314960629922
 30
0.0
 10
-0.8333622047244095
 20
0.7175314960629922
 30
0.0
 10
-0.8333622047244095
 20
0.7085866141732283
 30
0.0
 10
-0.8372795275590551
 20
0.7006968503937008
 30
0.0
 10
-0.8451417322834646
 20
0.6938897637795276
 30
0.0
 10
-0.8451417322834646
 20
0.6938897637795276
 30
0.0
 10
-0.8530275590551182
 20
0.6870866141732284
 30
0.0
 10
-0.8631968503937009
 20
0.6836968503937008
 30
0.0
 10
-0.8756692913385827
 20
0.6836968503937008
 30
0.0
 10
-0.8756692913385827
 20
0.6836968503937008
 30
0.0
 10
-0.8879724409448819
 20
0.6836968503937008
 30
0.0
 10
-0.8983346456692913
 20
0.6869763779527559
 30
0.0
 10
-0.906751968503937
 20
0.6935314960629921
 30
0.0
 10
-0.906751968503937
 20
0.6935314960629921
 30
0.0
 10
-0.9138070866141733
 20
0.6991141732283465
 30
0.0
 10
-0.9173346456692914
 20
0.7047519685039371
 30
0.0
 10
-0.9173346456692914
 20
0.7103897637795276
 30
0.0
 10
-0.9173346456692914
 20
0.7103897637795276
 30
0.0
 10
-0.9173346456692914
 20
0.7126141732283465
 30
0.0
 10
-0.9166102362204724
 20
0.714476377952756
 30
0.0
 10
-0.9151692913385827
 20
0.7159488188976378
 30
0.0
 10
-0.9151692913385827
 20
0.7159488188976378
 30
0.0
 10
-0.913751968503937
 20
0.7174488188976378
 30
0.0
 10
-0.9119448818897639
 20
0.7181968503937009
 30
0.0
 10
-0.909751968503937
 20
0.7181968503937009
 30
0.0
 10
-0.909751968503937
 20
0.7181968503937009
 30
0.0
 10
-0.9073897637795276
 20
0.7181968503937009
 30
0.0
 10
-0.9053346456692913
 20
0.7172795275590551
 30
0.0
 10
-0.9036692913385828
 20
0.7154173228346457
 30
0.0
 10
-0.9036692913385828
 20
0.7154173228346457
 30
0.0
 10
-0.902751968503937
 20
0.7143897637795276
 30
0.0
 10
-0.9016692913385828
 20
0.7119212598425198
 30
0.0
 10
-0.9005000000000001
 20
0.7080314960629922
 30
0.0
 10
-0.9005000000000001
 20
0.7080314960629922
 30
0.0
 10
-0.8988070866141733
 20
0.7025314960629921
 30
0.0
 10
-0.8959448818897638
 20
0.6983622047244095
 30
0.0
 10
-0.8919448818897638
 20
0.6955039370078741
 30
0.0
 10
-0.8919448818897638
 20
0.6955039370078741
 30
0.0
 10
-0.8879173228346458
 20
0.6926141732283465
 30
0.0
 10
-0.8829448818897638
 20
0.6911692913385827
 30
0.0
 10
-0.8769724409448819
 20
0.6911692913385827
 30
0.0
 10
-0.8769724409448819
 20
0.6911692913385827
 30
0.0
 10
-0.8716417322834646
 20
0.6911692913385827
 30
0.0
 10
-0.8668897637795276
 20
0.6923346456692914
 30
0.0
 10
-0.8626968503937008
 20
0.6946692913385827
 30
0.0
 10
-0.8626968503937008
 20
0.6946692913385827
 30
0.0
 10
-0.858472440944882
 20
0.697003937007874
 30
0.0
 10
-0.8551692913385827
 20
0.7003070866141733
 30
0.0
 10
-0.8527244094488189
 20
0.7046141732283465
 30
0.0
 10
-0.8527244094488189
 20
0.7046141732283465
 30
0.0
 10
-0.8502795275590551
 20
0.7088897637795276
 30
0.0
 10
-0.8490551181102363
 20
0.7135866141732283
 30
0.0
 10
-0.8490551181102363
 20
0.7186692913385827
 30
0.0
 10
-0.8490551181102363
 20
0.7186692913385827
 30
0.0
 10
-0.8490551181102363
 20
0.7228070866141733
 30
0.0
 10
-0.8499448818897638
 20
0.7265039370078741
 30
0.0
 10
-0.8516968503937008
 20
0.7297795275590552
 30
0.0
 10
-0.8516968503937008
 20
0.7297795275590552
 30
0.0
 10
-0.853472440944882
 20
0.7330866141732284
 30
0.0
 10
-0.8559724409448819
 20
0.7358622047244094
 30
0.0
 10
-0.859224409448819
 20
0.7381417322834646
 30
0.0
 10
-0.859224409448819
 20
0.7381417322834646
 30
0.0
 10
-0.8617244094488189
 20
0.7399173228346457
 30
0.0
 10
-0.8649173228346457
 20
0.7411692913385827
 30
0.0
 10
-0.8687795275590552
 20
0.7418622047244095
 30
0.0
 10
-0.8687795275590552
 20
0.7418622047244095
 30
0.0
 10
-0.8726692913385827
 20
0.7425866141732284
 30
0.0
 10
-0.8761692913385827
 20
0.7429448818897638
 30
0.0
 10
-0.8792519685039371
 20
0.7429448818897638
 30
0.0
 10
-0.8792519685039371
 20
0.7429448818897638
 30
0.0
 10
-0.8792519685039371
 20
0.7429448818897638
 30
0.0
 10
-0.8868070866141733
 20
0.7429448818897638
 30
0.0
 10
-0.8868070866141733
 20
0.7429448818897638
 30
0.0
 10
-0.8868070866141733
 20
0.7429448818897638
 30
0.0
 10
-0.8868070866141733
 20
0.7429448818897638
 30
0.0
 10
-0.8868070866141733
 20
0.7508346456692914
 30
0.0
 10
-0.8868070866141733
 20
0.7508346456692914
 30
0.0
 10
-0.8868070866141733
 20
0.7508346456692914
 30
0.0
 10
-0.8868070866141733
 20
0.7508346456692914
 30
0.0
 10
-0.882
 20
0.7508346456692914
 30
0.0
 10
-0.882
 20
0.7508346456692914
 30
0.0
 10
-0.882
 20
0.7508346456692914
 30
0.0
 10
-0.8772519685039371
 20
0.7508346456692914
 30
0.0
 10
-0.8726968503937008
 20
0.7513897637795276
 30
0.0
 10
-0.8683346456692914
 20
0.752503937007874
 30
0.0
 10
-0.8683346456692914
 20
0.752503937007874
 30
0.0
 10
-0.864
 20
0.7536141732283465
 30
0.0
 10
-0.8605275590551181
 20
0.7558897637795276
 30
0.0
 10
-0.8579173228346457
 20
0.7593622047244095
 30
0.0
 10
-0.8579173228346457
 20
0.7593622047244095
 30
0.0
 10
-0.8553346456692914
 20
0.7628346456692914
 30
0.0
 10
-0.8540275590551182
 20
0.7667795275590551
 30
0.0
 10
-0.8540275590551182
 20
0.7711692913385827
 30
0.0
 10
-0.8540275590551182
 20
0.7711692913385827
 30
0.0
 10
-0.8540275590551182
 20
0.7749724409448819
 30
0.0
 10
-0.8549173228346457
 20
0.7783897637795276
 30
0.0
 10
-0.8567519685039371
 20
0.7814173228346457
 30
0.0
 10
-0.8567519685039371
 20
0.7814173228346457
 30
0.0
 10
-0.8585551181102362
 20
0.7844724409448819
 30
0.0
 10
-0.861224409448819
 20
0.7868897637795276
 30
0.0
 10
-0.864751968503937
 20
0.7886692913385827
 30
0.0
 10
-0.864751968503937
 20
0.7886692913385827
 30
0.0
 10
-0.8682795275590551
 20
0.7904448818897638
 30
0.0
 10
-0.8723622047244095
 20
0.7913622047244094
 30
0.0
 10
-0.8769724409448819
 20
0.7913622047244094
 30
0.0
 10
-0.8769724409448819
 20
0.7913622047244094
 30
0.0
 10
-0.881472440944882
 20
0.7913622047244094
 30
0.0
 10
-0.8856141732283465
 20
0.7904173228346457
 30
0.0
 10
-0.8893897637795276
 20
0.7885866141732284
 30
0.0
 10
-0.8893897637795276
 20
0.7885866141732284
 30
0.0
 10
-0.8931417322834646
 20
0.786751968503937
 30
0.0
 10
-0.8961692913385827
 20
0.7842795275590552
 30
0.0
 10
-0.8984448818897638
 20
0.7811692913385827
 30
0.0
 10
-0.8984448818897638
 20
0.7811692913385827
 30
0.0
 10
-0.9007244094488189
 20
0.7780866141732283
 30
0.0
 10
-0.9023622047244095
 20
0.7739724409448819
 30
0.0
 10
-0.9033346456692913
 20
0.7688070866141733
 30
0.0
  0
SPLINE
  5
3D
330
1F
100
AcDbEntity
  8
LAYER_1
 62
   250
100
AcDbSpline
210
0.0
220
0.0
230
1.0
 70
    11
 71
     3
 72
    20
 73
    16
 74
     0
 42
0.0000000001
 43
0.0000000001
 40
0.0
 40
0.0
 40
0.0
 40
0.0
 40
0.25
 40
0.25
 40
0.25
 40
0.25
 40
0.5
 40
0.5
 40
0.5
 40
0.5
 40
0.75
 40
0.75
 40
0.75
 40
0.75
 40
1.0
 40
1.0
 40
1.0
 40
1.0
 10
-0.7405551181102362
 20
0.8050314960629922
 30
0.0
 10
-0.7405551181102362
 20
0.8050314960629922
 30
0.0
 10
-0.7961377952755906
 20
0.6493346456692913
 30
0.0
 10
-0.7961377952755906
 20
0.6493346456692913
 30
0.0
 10
-0.7961377952755906
 20
0.6493346456692913
 30
0.0
 10
-0.7961377952755906
 20
0.6493346456692913
 30
0.0
 10
-0.8081929133858268
 20
0.6493346456692913
 30
0.0
 10
-0.8081929133858268
 20
0.6493346456692913
 30
0.0
 10
-0.8081929133858268
 20
0.6493346456692913
 30
0.0
 10
-0.8081929133858268
 20
0.6493346456692913
 30
0.0
 10
-0.7529448818897638
 20
0.8050314960629922
 30
0.0
 10
-0.7529448818897638
 20
0.8050314960629922
 30
0.0
 10
-0.7529448818897638
 20
0.8050314960629922
 30
0.0
 10
-0.7529448818897638
 20
0.8050314960629922
 30
0.0
 10
-0.7405551181102362
 20
0.8050314960629922
 30
0.0
 10
-0.7405551181102362
 20
0.8050314960629922
 30
0.0
  0
SPLINE
  5
3E
330
1F
100
AcDbEntity
  8
LAYER_1
 62
   250
100
AcDbSpline
210
0.0
220
0.0
230
1.0
 70
    11
 71
     3
 72
    48
 73
    44
 74
     0
 42
0.0000000001
 43
0.0000000001
 40
0.0
 40
0.0
 40
0.0
 40
0.0
 40
0.0909090909090909
 40
0.0909090909090909
 40
0.0909090909090909
 40
0.0909090909090909
 40
0.1818181818181818
 40
0.1818181818181818
 40
0.1818181818181818
 40
0.1818181818181818
 40
0.2727272727272727
 40
0.2727272727272727
 40
0.2727272727272727
 40
0.2727272727272727
 40
0.3636363636363637
 40
0.3636363636363637
 40
0.3636363636363637
 40
0.3636363636363637
 40
0.4545454545454546
 40
0.4545454545454546
 40
0.4545454545454546
 40
0.4545454545454546
 40
0.5454545454545455
 40
0.5454545454545455
 40
0.5454545454545455
 40
0.5454545454545455
 40
0.6363636363636365
 40
0.6363636363636365
 40
0.6363636363636365
 40
0.6363636363636365
 40
0.7272727272727274
 40
0.7272727272727274
 40
0.7272727272727274
 40
0.7272727272727274
 40
0.8181818181818183
 40
0.8181818181818183
 40
0.8181818181818183
 40
0.8181818181818183
 40
0.9090909090909093
 40
0.9090909090909093
 40
0.9090909090909093
 40
0.9090909090909093
 40
1.0
 40
1.0
 40
1.0
 40
1.0
 10
-0.6616102362204724
 20
0.7991692913385827
 30
0.0
 10
-0.6616102362204724
 20
0.7991692913385827
 30
0.0
 10
-0.6478622047244095
 20
0.7991692913385827
 30
0.0
 10
-0.6478622047244095
 20
0.7991692913385827
 30
0.0
 10
-0.6478622047244095
 20
0.7991692913385827
 30
0.0
 10
-0.6478622047244095
 20
0.7991692913385827
 30
0.0
 10
-0.6478622047244095
 20
0.7331692913385827
 30
0.0
 10
-0.6478622047244095
 20
0.7331692913385827
 30
0.0
 10
-0.6478622047244095
 20
0.7331692913385827
 30
0.0
 10
-0.6478622047244095
 20
0.7331692913385827
 30
0.0
 10
-0.6265275590551181
 20
0.7331692913385827
 30
0.0
 10
-0.6265275590551181
 20
0.7331692913385827
 30
0.0
 10
-0.6265275590551181
 20
0.7331692913385827
 30
0.0
 10
-0.6265275590551181
 20
0.7331692913385827
 30
0.0
 10
-0.6265275590551181
 20
0.723003937007874
 30
0.0
 10
-0.6265275590551181
 20
0.723003937007874
 30
0.0
 10
-0.6265275590551181
 20
0.723003937007874
 30
0.0
 10
-0.6265275590551181
 20
0.723003937007874
 30
0.0
 10
-0.6478622047244095
 20
0.723003937007874
 30
0.0
 10
-0.6478622047244095
 20
0.723003937007874
 30
0.0
 10
-0.6478622047244095
 20
0.723003937007874
 30
0.0
 10
-0.6478622047244095
 20
0.723003937007874
 30
0.0
 10
-0.6478622047244095
 20
0.6856417322834646
 30
0.0
 10
-0.6478622047244095
 20
0.6856417322834646
 30
0.0
 10
-0.6478622047244095
 20
0.6856417322834646
 30
0.0
 10
-0.6478622047244095
 20
0.6856417322834646
 30
0.0
 10
-0.6616102362204724
 20
0.6856417322834646
 30
0.0
 10
-0.6616102362204724
 20
0.6856417322834646
 30
0.0
 10
-0.6616102362204724
 20
0.6856417322834646
 30
0.0
 10
-0.6616102362204724
 20
0.6856417322834646
 30
0.0
 10
-0.6616102362204724
 20
0.723003937007874
 30
0.0
 10
-0.6616102362204724
 20
0.723003937007874
 30
0.0
 10
-0.6616102362204724
 20
0.723003937007874
 30
0.0
 10
-0.6616102362204724
 20
0.723003937007874
 30
0.0
 10
-0.7150826771653543
 20
0.723003937007874
 30
0.0
 10
-0.7150826771653543
 20
0.723003937007874
 30
0.0
 10
-0.7150826771653543
 20
0.723003937007874
 30
0.0
 10
-0.7150826771653543
 20
0.723003937007874
 30
0.0
 10
-0.7150826771653543
 20
0.7373070866141732
 30
0.0
 10
-0.7150826771653543
 20
0.7373070866141732
 30
0.0
 10
-0.7150826771653543
 20
0.7373070866141732
 30
0.0
 10
-0.7150826771653543
 20
0.7373070866141732
 30
0.0
 10
-0.6616102362204724
 20
0.7991692913385827
 30
0.0
 10
-0.6616102362204724
 20
0.7991692913385827
 30
0.0
  0
SPLINE
  5
3F
330
1F
100
AcDbEntity
  8
LAYER_1
 62
   250
100
AcDbSpline
210
0.0
220
0.0
230
1.0
 70
    11
 71
     3
 72
    16
 73
    12
 74
     0
 42
0.0000000001
 43
0.0000000001
 40
0.0
 40
0.0
 40
0.0
 40
0.0
 40
0.3333333333333333
 40
0.3333333333333333
 40
0.3333333333333333
 40
0.3333333333333333
 40
0.6666666666666666
 40
0.6666666666666666
 40
0.6666666666666666
 40
0.6666666666666666
 40
1.0
 40
1.0
 40
1.0
 40
1.0
 10
-0.6616102362204724
 20
0.7331692913385827
 30
0.0
 10
-0.6616102362204724
 20
0.7331692913385827
 30
0.0
 10
-0.6616102362204724
 20
0.7865590551181103
 30
0.0
 10
-0.6616102362204724
 20
0.7865590551181103
 30
0.0
 10
-0.6616102362204724
 20
0.7865590551181103
 30
0.0
 10
-0.6616102362204724
 20
0.7865590551181103
 30
0.0
 10
-0.7076653543307087
 20
0.7331692913385827
 30
0.0
 10
-0.7076653543307087
 20
0.7331692913385827
 30
0.0
 10
-0.7076653543307087
 20
0.7331692913385827
 30
0.0
 10
-0.7076653543307087
 20
0.7331692913385827
 30
0.0
 10
-0.6616102362204724
 20
0.7331692913385827
 30
0.0
 10
-0.6616102362204724
 20
0.7331692913385827
 30
0.0
  0
SPLINE
  5
40
330
1F
100
AcDbEntity
  8
LAYER_1
 62
   250
100
AcDbSpline
210
0.0
220
0.0
230
1.0
 70
    11
 71
     3
 72
    60
 73
    56
 74
     0
 42
0.0000000001
 43
0.0000000001
 40
0.0
 40
0.0
 40
0.0
 40
0.0
 40
0.0714285714285714
 40
0.0714285714285714
 40
0.0714285714285714
 40
0.0714285714285714
 40
0.1428571428571429
 40
0.1428571428571429
 40
0.1428571428571429
 40
0.1428571428571429
 40
0.2142857142857143
 40
0.2142857142857143
 40
0.2142857142857143
 40
0.2142857142857143
 40
0.2857142857142857
 40
0.2857142857142857
 40
0.2857142857142857
 40
0.2857142857142857
 40
0.3571428571428571
 40
0.3571428571428571
 40
0.3571428571428571
 40
0.3571428571428571
 40
0.4285714285714285
 40
0.4285714285714285
 40
0.4285714285714285
 40
0.4285714285714285
 40
0.4999999999999999
 40
0.4999999999999999
 40
0.4999999999999999
 40
0.4999999999999999
 40
0.5714285714285713
 40
0.5714285714285713
 40
0.5714285714285713
 40
0.5714285714285713
 40
0.6428571428571427
 40
0.6428571428571427
 40
0.6428571428571427
 40
0.6428571428571427
 40
0.7142857142857141
 40
0.7142857142857141
 40
0.7142857142857141
 40
0.7142857142857141
 40
0.7857142857142855
 40
0.7857142857142855
 40
0.7857142857142855
 40
0.7857142857142855
 40
0.8571428571428569
 40
0.8571428571428569
 40
0.8571428571428569
 40
0.8571428571428569
 40
0.9285714285714283
 40
0.9285714285714283
 40
0.9285714285714283
 40
0.9285714285714283
 40
1.0
 40
1.0
 40
1.0
 40
1.0
 10
-0.6085551181102362
 20
0.7570866141732284
 30
0.0
 10
-0.6085551181102362
 20
0.7570866141732284
 30
0.0
 10
-0.6129448818897638
 20
0.7624763779527559
 30
0.0
 10
-0.6129448818897638
 20
0.7624763779527559
 30
0.0
 10
-0.6129448818897638
 20
0.7624763779527559
 30
0.0
 10
-0.6018307086614173
 20
0.7715314960629922
 30
0.0
 10
-0.596248031496063
 20
0.7790866141732283
 30
0.0
 10
-0.596248031496063
 20
0.7851692913385827
 30
0.0
 10
-0.596248031496063
 20
0.7851692913385827
 30
0.0
 10
-0.596248031496063
 20
0.7858622047244095
 30
0.0
 10
-0.5963031496062993
 20
0.786751968503937
 30
0.0
 10
-0.5964173228346457
 20
0.7877795275590551
 30
0.0
 10
-0.5964173228346457
 20
0.7877795275590551
 30
0.0
 10
-0.5973307086614174
 20
0.7873897637795276
 30
0.0
 10
-0.598248031496063
 20
0.7870866141732283
 30
0.0
 10
-0.5991102362204724
 20
0.7868897637795276
 30
0.0
 10
-0.5991102362204724
 20
0.7868897637795276
 30
0.0
 10
-0.5999724409448819
 20
0.7866692913385827
 30
0.0
 10
-0.6007755905511811
 20
0.7865590551181103
 30
0.0
 10
-0.6015551181102362
 20
0.7865590551181103
 30
0.0
 10
-0.6015551181102362
 20
0.7865590551181103
 30
0.0
 10
-0.6041653543307087
 20
0.7865590551181103
 30
0.0
 10
-0.606248031496063
 20
0.7873897637795276
 30
0.0
 10
-0.6078031496062992
 20
0.7890866141732283
 30
0.0
 10
-0.6078031496062992
 20
0.7890866141732283
 30
0.0
 10
-0.6093897637795276
 20
0.790751968503937
 30
0.0
 10
-0.6101653543307087
 20
0.7928897637795276
 30
0.0
 10
-0.6101653543307087
 20
0.795503937007874
 30
0.0
 10
-0.6101653543307087
 20
0.795503937007874
 30
0.0
 10
-0.6101653543307087
 20
0.7980590551181103
 30
0.0
 10
-0.6092204724409449
 20
0.8002795275590552
 30
0.0
 10
-0.6073307086614174
 20
0.8021692913385827
 30
0.0
 10
-0.6073307086614174
 20
0.8021692913385827
 30
0.0
 10
-0.6054173228346457
 20
0.8040866141732284
 30
0.0
 10
-0.6031377952755905
 20
0.8050314960629922
 30
0.0
 10
-0.6005
 20
0.8050314960629922
 30
0.0
 10
-0.6005
 20
0.8050314960629922
 30
0.0
 10
-0.5968031496062992
 20
0.8050314960629922
 30
0.0
 10
-0.5936377952755906
 20
0.8035590551181103
 30
0.0
 10
-0.591
 20
0.8005866141732284
 30
0.0
 10
-0.591
 20
0.8005866141732284
 30
0.0
 10
-0.5883897637795276
 20
0.7976417322834646
 30
0.0
 10
-0.5870551181102363
 20
0.7938346456692914
 30
0.0
 10
-0.5870551181102363
 20
0.7891692913385827
 30
0.0
 10
-0.5870551181102363
 20
0.7891692913385827
 30
0.0
 10
-0.5870551181102363
 20
0.7861141732283465
 30
0.0
 10
-0.5876929133858267
 20
0.7829173228346457
 30
0.0
 10
-0.5889448818897638
 20
0.7795866141732284
 30
0.0
 10
-0.5889448818897638
 20
0.7795866141732284
 30
0.0
 10
-0.5901929133858268
 20
0.7762519685039371
 30
0.0
 10
-0.592
 20
0.7731692913385827
 30
0.0
 10
-0.5943897637795276
 20
0.7703070866141732
 30
0.0
 10
-0.5943897637795276
 20
0.7703070866141732
 30
0.0
 10
-0.5967755905511811
 20
0.7674763779527559
 30
0.0
 10
-0.6015
 20
0.7630590551181102
 30
0.0
 10
-0.6085551181102362
 20
0.7570866141732284
 30
0.0
  0
SPLINE
  5
41
330
1F
100
AcDbEntity
  8
LAYER_1
 62
   250
100
AcDbSpline
210
0.0
220
0.0
230
1.0
 70
    11
 71
     3
 72
    60
 73
    56
 74
     0
 42
0.0000000001
 43
0.0000000001
 40
0.0
 40
0.0
 40
0.0
 40
0.0
 40
0.0714285714285714
 40
0.0714285714285714
 40
0.0714285714285714
 40
0.0714285714285714
 40
0.1428571428571429
 40
0.1428571428571429
 40
0.1428571428571429
 40
0.1428571428571429
 40
0.2142857142857143
 40
0.2142857142857143
 40
0.2142857142857143
 40
0.2142857142857143
 40
0.2857142857142857
 40
0.2857142857142857
 40
0.2857142857142857
 40
0.2857142857142857
 40
0.3571428571428571
 40
0.3571428571428571
 40
0.3571428571428571
 40
0.3571428571428571
 40
0.4285714285714285
 40
0.4285714285714285
 40
0.4285714285714285
 40
0.4285714285714285
 40
0.4999999999999999
 40
0.4999999999999999
 40
0.4999999999999999
 40
0.4999999999999999
 40
0.5714285714285713
 40
0.5714285714285713
 40
0.5714285714285713
 40
0.5714285714285713
 40
0.6428571428571427
 40
0.6428571428571427
 40
0.6428571428571427
 40
0.6428571428571427
 40
0.7142857142857141
 40
0.7142857142857141
 40
0.7142857142857141
 40
0.7142857142857141
 40
0.7857142857142855
 40
0.7857142857142855
 40
0.7857142857142855
 40
0.7857142857142855
 40
0.8571428571428569
 40
0.8571428571428569
 40
0.8571428571428569
 40
0.8571428571428569
 40
0.9285714285714283
 40
0.9285714285714283
 40
0.9285714285714283
 40
0.9285714285714283
 40
1.0
 40
1.0
 40
1.0
 40
1.0
 10
-0.5795
 20
0.7570866141732284
 30
0.0
 10
-0.5795
 20
0.7570866141732284
 30
0.0
 10
-0.5838897637795276
 20
0.7624763779527559
 30
0.0
 10
-0.5838897637795276
 20
0.7624763779527559
 30
0.0
 10
-0.5838897637795276
 20
0.7624763779527559
 30
0.0
 10
-0.5727755905511811
 20
0.7715314960629922
 30
0.0
 10
-0.5671929133858268
 20
0.7790866141732283
 30
0.0
 10
-0.5671929133858268
 20
0.7851692913385827
 30
0.0
 10
-0.5671929133858268
 20
0.7851692913385827
 30
0.0
 10
-0.5671929133858268
 20
0.7858622047244095
 30
0.0
 10
-0.5672480314960631
 20
0.786751968503937
 30
0.0
 10
-0.5673622047244095
 20
0.7877795275590551
 30
0.0
 10
-0.5673622047244095
 20
0.7877795275590551
 30
0.0
 10
-0.5682755905511812
 20
0.7873897637795276
 30
0.0
 10
-0.5691929133858268
 20
0.7870866141732283
 30
0.0
 10
-0.5700551181102362
 20
0.7868897637795276
 30
0.0
 10
-0.5700551181102362
 20
0.7868897637795276
 30
0.0
 10
-0.5709173228346457
 20
0.7866692913385827
 30
0.0
 10
-0.571748031496063
 20
0.7865590551181103
 30
0.0
 10
-0.5725826771653544
 20
0.7865590551181103
 30
0.0
 10
-0.5725826771653544
 20
0.7865590551181103
 30
0.0
 10
-0.5751377952755906
 20
0.7865590551181103
 30
0.0
 10
-0.5771929133858268
 20
0.7873897637795276
 30
0.0
 10
-0.578748031496063
 20
0.7890866141732283
 30
0.0
 10
-0.578748031496063
 20
0.7890866141732283
 30
0.0
 10
-0.5803307086614173
 20
0.790751968503937
 30
0.0
 10
-0.5811102362204724
 20
0.7928897637795276
 30
0.0
 10
-0.5811102362204724
 20
0.795503937007874
 30
0.0
 10
-0.5811102362204724
 20
0.795503937007874
 30
0.0
 10
-0.5811102362204724
 20
0.7980590551181103
 30
0.0
 10
-0.5801653543307087
 20
0.8002795275590552
 30
0.0
 10
-0.5782755905511812
 20
0.8021692913385827
 30
0.0
 10
-0.5782755905511812
 20
0.8021692913385827
 30
0.0
 10
-0.5763897637795276
 20
0.8040866141732284
 30
0.0
 10
-0.5740826771653543
 20
0.8050314960629922
 30
0.0
 10
-0.5714448818897638
 20
0.8050314960629922
 30
0.0
 10
-0.5714448818897638
 20
0.8050314960629922
 30
0.0
 10
-0.567748031496063
 20
0.8050314960629922
 30
0.0
 10
-0.5645826771653544
 20
0.8035590551181103
 30
0.0
 10
-0.5619448818897638
 20
0.8005866141732284
 30
0.0
 10
-0.5619448818897638
 20
0.8005866141732284
 30
0.0
 10
-0.5593346456692914
 20
0.7976417322834646
 30
0.0
 10
-0.5580000000000001
 20
0.7938346456692914
 30
0.0
 10
-0.5580000000000001
 20
0.7891692913385827
 30
0.0
 10
-0.5580000000000001
 20
0.7891692913385827
 30
0.0
 10
-0.5580000000000001
 20
0.7861141732283465
 30
0.0
 10
-0.5586377952755905
 20
0.7829173228346457
 30
0.0
 10
-0.5598897637795276
 20
0.7795866141732284
 30
0.0
 10
-0.5598897637795276
 20
0.7795866141732284
 30
0.0
 10
-0.5611377952755906
 20
0.7762519685039371
 30
0.0
 10
-0.5629448818897638
 20
0.7731692913385827
 30
0.0
 10
-0.5653307086614173
 20
0.7703070866141732
 30
0.0
 10
-0.5653307086614173
 20
0.7703070866141732
 30
0.0
 10
-0.5677204724409449
 20
0.7674763779527559
 30
0.0
 10
-0.5724448818897638
 20
0.7630590551181102
 30
0.0
 10
-0.5795
 20
0.7570866141732284
 30
0.0
  0
SPLINE
  5
42
330
1F
100
AcDbEntity
  8
LAYER_1
 62
   252
100
AcDbSpline
210
0.0
220
0.0
230
1.0
 70
    11
 71
     3
 72
    28
 73
    24
 74
     0
 42
0.0000000001
 43
0.0000000001
 40
0.0
 40
0.0
 40
0.0
 40
0.0
 40
0.1666666666666667
 40
0.1666666666666667
 40
0.1666666666666667
 40
0.1666666666666667
 40
0.3333333333333333
 40
0.3333333333333333
 40
0.3333333333333333
 40
0.3333333333333333
 40
0.5
 40
0.5
 40
0.5
 40
0.5
 40
0.6666666666666666
 40
0.6666666666666666
 40
0.6666666666666666
 40
0.6666666666666666
 40
0.8333333333333333
 40
0.8333333333333333
 40
0.8333333333333333
 40
0.8333333333333333
 40
1.0
 40
1.0
 40
1.0
 40
1.0
 10
0.4677637795275591
 20
1.529755905511811
 30
0.0
 10
0.4677637795275591
 20
1.529755905511811
 30
0.0
 10
0.460740157480315
 20
2.282307086614174
 30
0.0
 10
0.460740157480315
 20
2.282307086614174
 30
0.0
 10
0.460740157480315
 20
2.282307086614174
 30
0.0
 10
0.460740157480315
 20
2.282307086614174
 30
0.0
 10
0.4857125984251969
 20
2.287216535433071
 30
0.0
 10
0.4857125984251969
 20
2.287216535433071
 30
0.0
 10
0.4857125984251969
 20
2.287216535433071
 30
0.0
 10
0.4857125984251969
 20
2.287216535433071
 30
0.0
 10
0.5082677165354331
 20
2.290157480314961
 30
0.0
 10
0.5082677165354331
 20
2.290157480314961
 30
0.0
 10
0.5082677165354331
 20
2.290157480314961
 30
0.0
 10
0.5082677165354331
 20
2.290157480314961
 30
0.0
 10
0.5152913385826772
 20
1.537606299212599
 30
0.0
 10
0.5152913385826772
 20
1.537606299212599
 30
0.0
 10
0.5152913385826772
 20
1.537606299212599
 30
0.0
 10
0.5152913385826772
 20
1.537606299212599
 30
0.0
 10
0.492736220472441
 20
1.534665354330709
 30
0.0
 10
0.492736220472441
 20
1.534665354330709
 30
0.0
 10
0.492736220472441
 20
1.534665354330709
 30
0.0
 10
0.492736220472441
 20
1.534665354330709
 30
0.0
 10
0.4677637795275591
 20
1.529755905511811
 30
0.0
 10
0.4677637795275591
 20
1.529755905511811
 30
0.0
  0
SPLINE
  5
43
330
1F
100
AcDbEntity
  8
LAYER_1
 62
   252
100
AcDbSpline
210
0.0
220
0.0
230
1.0
 70
    11
 71
     3
 72
    28
 73
    24
 74
     0
 42
0.0000000001
 43
0.0000000001
 40
0.0
 40
0.0
 40
0.0
 40
0.0
 40
0.1666666666666667
 40
0.1666666666666667
 40
0.1666666666666667
 40
0.1666666666666667
 40
0.3333333333333333
 40
0.3333333333333333
 40
0.3333333333333333
 40
0.3333333333333333
 40
0.5
 40
0.5
 40
0.5
 40
0.5
 40
0.6666666666666666
 40
0.6666666666666666
 40
0.6666666666666666
 40
0.6666666666666666
 40
0.8333333333333333
 40
0.8333333333333333
 40
0.8333333333333333
 40
0.8333333333333333
 40
1.0
 40
1.0
 40
1.0
 40
1.0
 10
0.5152913385826772
 20
1.537606299212599
 30
0.0
 10
0.5152913385826772
 20
1.537606299212599
 30
0.0
 10
0.5082677165354331
 20
2.290157480314961
 30
0.0
 10
0.5082677165354331
 20
2.290157480314961
 30
0.0
 10
0.5082677165354331
 20
2.290157480314961
 30
0.0
 10
0.5082677165354331
 20
2.290157480314961
 30
0.0
 10
0.5285748031496064
 20
2.291263779527559
 30
0.0
 10
0.5285748031496064
 20
2.291263779527559
 30
0.0
 10
0.5285748031496064
 20
2.291263779527559
 30
0.0
 10
0.5285748031496064
 20
2.291263779527559
 30
0.0
 10
0.5467874015748032
 20
2.290649606299213
 30
0.0
 10
0.5467874015748032
 20
2.290649606299213
 30
0.0
 10
0.5467874015748032
 20
2.290649606299213
 30
0.0
 10
0.5467874015748032
 20
2.290649606299213
 30
0.0
 10
0.5538110236220473
 20
1.53809842519685
 30
0.0
 10
0.5538110236220473
 20
1.53809842519685
 30
0.0
 10
0.5538110236220473
 20
1.53809842519685
 30
0.0
 10
0.5538110236220473
 20
1.53809842519685
 30
0.0
 10
0.5355984251968504
 20
1.538712598425197
 30
0.0
 10
0.5355984251968504
 20
1.538712598425197
 30
0.0
 10
0.5355984251968504
 20
1.538712598425197
 30
0.0
 10
0.5355984251968504
 20
1.538712598425197
 30
0.0
 10
0.5152913385826772
 20
1.537606299212599
 30
0.0
 10
0.5152913385826772
 20
1.537606299212599
 30
0.0
  0
SPLINE
  5
44
330
1F
100
AcDbEntity
  8
LAYER_1
 62
   252
100
AcDbSpline
210
0.0
220
0.0
230
1.0
 70
    11
 71
     3
 72
    36
 73
    32
 74
     0
 42
0.0000000001
 43
0.0000000001
 40
0.0
 40
0.0
 40
0.0
 40
0.0
 40
0.125
 40
0.125
 40
0.125
 40
0.125
 40
0.25
 40
0.25
 40
0.25
 40
0.25
 40
0.375
 40
0.375
 40
0.375
 40
0.375
 40
0.5
 40
0.5
 40
0.5
 40
0.5
 40
0.625
 40
0.625
 40
0.625
 40
0.625
 40
0.75
 40
0.75
 40
0.75
 40
0.75
 40
0.875
 40
0.875
 40
0.875
 40
0.875
 40
1.0
 40
1.0
 40
1.0
 40
1.0
 10
0.5538110236220473
 20
1.53809842519685
 30
0.0
 10
0.5538110236220473
 20
1.53809842519685
 30
0.0
 10
0.5467874015748032
 20
2.290649606299213
 30
0.0
 10
0.5467874015748032
 20
2.290649606299213
 30
0.0
 10
0.5467874015748032
 20
2.290649606299213
 30
0.0
 10
0.5467874015748032
 20
2.290649606299213
 30
0.0
 10
0.5630826771653543
 20
2.288444881889764
 30
0.0
 10
0.5630826771653543
 20
2.288444881889764
 30
0.0
 10
0.5630826771653543
 20
2.288444881889764
 30
0.0
 10
0.5630826771653543
 20
2.288444881889764
 30
0.0
 10
0.5776062992125984
 20
2.284755905511811
 30
0.0
 10
0.5776062992125984
 20
2.284755905511811
 30
0.0
 10
0.5776062992125984
 20
2.284755905511811
 30
0.0
 10
0.5776062992125984
 20
2.284755905511811
 30
0.0
 10
0.5905354330708662
 20
2.279712598425197
 30
0.0
 10
0.5905354330708662
 20
2.279712598425197
 30
0.0
 10
0.5905354330708662
 20
2.279712598425197
 30
0.0
 10
0.5905354330708662
 20
2.279712598425197
 30
0.0
 10
0.5975590551181103
 20
1.527161417322835
 30
0.0
 10
0.5975590551181103
 20
1.527161417322835
 30
0.0
 10
0.5975590551181103
 20
1.527161417322835
 30
0.0
 10
0.5975590551181103
 20
1.527161417322835
 30
0.0
 10
0.5846299212598426
 20
1.532204724409449
 30
0.0
 10
0.5846299212598426
 20
1.532204724409449
 30
0.0
 10
0.5846299212598426
 20
1.532204724409449
 30
0.0
 10
0.5846299212598426
 20
1.532204724409449
 30
0.0
 10
0.5701062992125985
 20
1.535893700787402
 30
0.0
 10
0.5701062992125985
 20
1.535893700787402
 30
0.0
 10
0.5701062992125985
 20
1.535893700787402
 30
0.0
 10
0.5701062992125985
 20
1.535893700787402
 30
0.0
 10
0.5538110236220473
 20
1.53809842519685
 30
0.0
 10
0.5538110236220473
 20
1.53809842519685
 30
0.0
  0
SPLINE
  5
45
330
1F
100
AcDbEntity
  8
LAYER_1
 62
   252
100
AcDbSpline
210
0.0
220
0.0
230
1.0
 70
    11
 71
     3
 72
    36
 73
    32
 74
     0
 42
0.0000000001
 43
0.0000000001
 40
0.0
 40
0.0
 40
0.0
 40
0.0
 40
0.125
 40
0.125
 40
0.125
 40
0.125
 40
0.25
 40
0.25
 40
0.25
 40
0.25
 40
0.375
 40
0.375
 40
0.375
 40
0.375
 40
0.5
 40
0.5
 40
0.5
 40
0.5
 40
0.625
 40
0.625
 40
0.625
 40
0.625
 40
0.75
 40
0.75
 40
0.75
 40
0.75
 40
0.875
 40
0.875
 40
0.875
 40
0.875
 40
1.0
 40
1.0
 40
1.0
 40
1.0
 10
0.5975590551181103
 20
1.527161417322835
 30
0.0
 10
0.5975590551181103
 20
1.527161417322835
 30
0.0
 10
0.5905354330708662
 20
2.279712598425197
 30
0.0
 10
0.5905354330708662
 20
2.279712598425197
 30
0.0
 10
0.5905354330708662
 20
2.279712598425197
 30
0.0
 10
0.5905354330708662
 20
2.279712598425197
 30
0.0
 10
0.6020196850393701
 20
2.273429133858268
 30
0.0
 10
0.6020196850393701
 20
2.273429133858268
 30
0.0
 10
0.6020196850393701
 20
2.273429133858268
 30
0.0
 10
0.6020196850393701
 20
2.273429133858268
 30
0.0
 10
0.6122322834645669
 20
2.266043307086614
 30
0.0
 10
0.6122322834645669
 20
2.266043307086614
 30
0.0
 10
0.6122322834645669
 20
2.266043307086614
 30
0.0
 10
0.6122322834645669
 20
2.266043307086614
 30
0.0
 10
0.6213267716535433
 20
2.257653543307087
 30
0.0
 10
0.6213267716535433
 20
2.257653543307087
 30
0.0
 10
0.6213267716535433
 20
2.257653543307087
 30
0.0
 10
0.6213267716535433
 20
2.257653543307087
 30
0.0
 10
0.6283503937007874
 20
1.505102362204724
 30
0.0
 10
0.6283503937007874
 20
1.505102362204724
 30
0.0
 10
0.6283503937007874
 20
1.505102362204724
 30
0.0
 10
0.6283503937007874
 20
1.505102362204724
 30
0.0
 10
0.6192559055118111
 20
1.513492125984252
 30
0.0
 10
0.6192559055118111
 20
1.513492125984252
 30
0.0
 10
0.6192559055118111
 20
1.513492125984252
 30
0.0
 10
0.6192559055118111
 20
1.513492125984252
 30
0.0
 10
0.6090433070866143
 20
1.520877952755906
 30
0.0
 10
0.6090433070866143
 20
1.520877952755906
 30
0.0
 10
0.6090433070866143
 20
1.520877952755906
 30
0.0
 10
0.6090433070866143
 20
1.520877952755906
 30
0.0
 10
0.5975590551181103
 20
1.527161417322835
 30
0.0
 10
0.5975590551181103
 20
1.527161417322835
 30
0.0
  0
SPLINE
  5
46
330
1F
100
AcDbEntity
  8
LAYER_1
 62
   252
100
AcDbSpline
210
0.0
220
0.0
230
1.0
 70
    11
 71
     3
 72
    36
 73
    32
 74
     0
 42
0.0000000001
 43
0.0000000001
 40
0.0
 40
0.0
 40
0.0
 40
0.0
 40
0.125
 40
0.125
 40
0.125
 40
0.125
 40
0.25
 40
0.25
 40
0.25
 40
0.25
 40
0.375
 40
0.375
 40
0.375
 40
0.375
 40
0.5
 40
0.5
 40
0.5
 40
0.5
 40
0.625
 40
0.625
 40
0.625
 40
0.625
 40
0.75
 40
0.75
 40
0.75
 40
0.75
 40
0.875
 40
0.875
 40
0.875
 40
0.875
 40
1.0
 40
1.0
 40
1.0
 40
1.0
 10
0.6283503937007874
 20
1.505102362204724
 30
0.0
 10
0.6283503937007874
 20
1.505102362204724
 30
0.0
 10
0.6213267716535433
 20
2.257653543307087
 30
0.0
 10
0.6213267716535433
 20
2.257653543307087
 30
0.0
 10
0.6213267716535433
 20
2.257653543307087
 30
0.0
 10
0.6213267716535433
 20
2.257653543307087
 30
0.0
 10
0.6294685039370079
 20
2.248393700787402
 30
0.0
 10
0.6294685039370079
 20
2.248393700787402
 30
0.0
 10
0.6294685039370079
 20
2.248393700787402
 30
0.0
 10
0.6294685039370079
 20
2.248393700787402
 30
0.0
 10
0.6368110236220472
 20
2.238374015748032
 30
0.0
 10
0.6368110236220472
 20
2.238374015748032
 30
0.0
 10
0.6368110236220472
 20
2.238374015748032
 30
0.0
 10
0.6368110236220472
 20
2.238374015748032
 30
0.0
 10
0.6435314960629922
 20
2.227732283464567
 30
0.0
 10
0.6435314960629922
 20
2.227732283464567
 30
0.0
 10
0.6435314960629922
 20
2.227732283464567
 30
0.0
 10
0.6435314960629922
 20
2.227732283464567
 30
0.0
 10
0.6505551181102363
 20
1.475181102362205
 30
0.0
 10
0.6505551181102363
 20
1.475181102362205
 30
0.0
 10
0.6505551181102363
 20
1.475181102362205
 30
0.0
 10
0.6505551181102363
 20
1.475181102362205
 30
0.0
 10
0.6438346456692914
 20
1.485822834645669
 30
0.0
 10
0.6438346456692914
 20
1.485822834645669
 30
0.0
 10
0.6438346456692914
 20
1.485822834645669
 30
0.0
 10
0.6438346456692914
 20
1.485822834645669
 30
0.0
 10
0.636492125984252
 20
1.495842519685039
 30
0.0
 10
0.636492125984252
 20
1.495842519685039
 30
0.0
 10
0.636492125984252
 20
1.495842519685039
 30
0.0
 10
0.636492125984252
 20
1.495842519685039
 30
0.0
 10
0.6283503937007874
 20
1.505102362204724
 30
0.0
 10
0.6283503937007874
 20
1.505102362204724
 30
0.0
  0
SPLINE
  5
47
330
1F
100
AcDbEntity
  8
LAYER_1
 62
   252
100
AcDbSpline
210
0.0
220
0.0
230
1.0
 70
    11
 71
     3
 72
    36
 73
    32
 74
     0
 42
0.0000000001
 43
0.0000000001
 40
0.0
 40
0.0
 40
0.0
 40
0.0
 40
0.125
 40
0.125
 40
0.125
 40
0.125
 40
0.25
 40
0.25
 40
0.25
 40
0.25
 40
0.375
 40
0.375
 40
0.375
 40
0.375
 40
0.5
 40
0.5
 40
0.5
 40
0.5
 40
0.625
 40
0.625
 40
0.625
 40
0.625
 40
0.75
 40
0.75
 40
0.75
 40
0.75
 40
0.875
 40
0.875
 40
0.875
 40
0.875
 40
1.0
 40
1.0
 40
1.0
 40
1.0
 10
0.6505551181102363
 20
1.475181102362205
 30
0.0
 10
0.6505551181102363
 20
1.475181102362205
 30
0.0
 10
0.6435314960629922
 20
2.227732283464567
 30
0.0
 10
0.6435314960629922
 20
2.227732283464567
 30
0.0
 10
0.6435314960629922
 20
2.227732283464567
 30
0.0
 10
0.6435314960629922
 20
2.227732283464567
 30
0.0
 10
0.6497795275590551
 20
2.216570866141733
 30
0.0
 10
0.6497795275590551
 20
2.216570866141733
 30
0.0
 10
0.6497795275590551
 20
2.216570866141733
 30
0.0
 10
0.6497795275590551
 20
2.216570866141733
 30
0.0
 10
0.6557244094488189
 20
2.205023622047244
 30
0.0
 10
0.6557244094488189
 20
2.205023622047244
 30
0.0
 10
0.6557244094488189
 20
2.205023622047244
 30
0.0
 10
0.6557244094488189
 20
2.205023622047244
 30
0.0
 10
0.661515748031496
 20
2.193200787401575
 30
0.0
 10
0.661515748031496
 20
2.193200787401575
 30
0.0
 10
0.661515748031496
 20
2.193200787401575
 30
0.0
 10
0.661515748031496
 20
2.193200787401575
 30
0.0
 10
0.6685393700787402
 20
1.440649606299213
 30
0.0
 10
0.6685393700787402
 20
1.440649606299213
 30
0.0
 10
0.6685393700787402
 20
1.440649606299213
 30
0.0
 10
0.6685393700787402
 20
1.440649606299213
 30
0.0
 10
0.662748031496063
 20
1.452472440944882
 30
0.0
 10
0.662748031496063
 20
1.452472440944882
 30
0.0
 10
0.662748031496063
 20
1.452472440944882
 30
0.0
 10
0.662748031496063
 20
1.452472440944882
 30
0.0
 10
0.6568031496062993
 20
1.46401968503937
 30
0.0
 10
0.6568031496062993
 20
1.46401968503937
 30
0.0
 10
0.6568031496062993
 20
1.46401968503937
 30
0.0
 10
0.6568031496062993
 20
1.46401968503937
 30
0.0
 10
0.6505551181102363
 20
1.475181102362205
 30
0.0
 10
0.6505551181102363
 20
1.475181102362205
 30
0.0
  0
SPLINE
  5
48
330
1F
100
AcDbEntity
  8
LAYER_1
 62
   252
100
AcDbSpline
210
0.0
220
0.0
230
1.0
 70
    11
 71
     3
 72
    36
 73
    32
 74
     0
 42
0.0000000001
 43
0.0000000001
 40
0.0
 40
0.0
 40
0.0
 40
0.0
 40
0.125
 40
0.125
 40
0.125
 40
0.125
 40
0.25
 40
0.25
 40
0.25
 40
0.25
 40
0.375
 40
0.375
 40
0.375
 40
0.375
 40
0.5
 40
0.5
 40
0.5
 40
0.5
 40
0.625
 40
0.625
 40
0.625
 40
0.625
 40
0.75
 40
0.75
 40
0.75
 40
0.75
 40
0.875
 40
0.875
 40
0.875
 40
0.875
 40
1.0
 40
1.0
 40
1.0
 40
1.0
 10
0.6685393700787402
 20
1.440649606299213
 30
0.0
 10
0.6685393700787402
 20
1.440649606299213
 30
0.0
 10
0.661515748031496
 20
2.193200787401575
 30
0.0
 10
0.661515748031496
 20
2.193200787401575
 30
0.0
 10
0.661515748031496
 20
2.193200787401575
 30
0.0
 10
0.661515748031496
 20
2.193200787401575
 30
0.0
 10
0.6673346456692914
 20
2.181236220472441
 30
0.0
 10
0.6673346456692914
 20
2.181236220472441
 30
0.0
 10
0.6673346456692914
 20
2.181236220472441
 30
0.0
 10
0.6673346456692914
 20
2.181236220472441
 30
0.0
 10
0.6733307086614173
 20
2.169236220472441
 30
0.0
 10
0.6733307086614173
 20
2.169236220472441
 30
0.0
 10
0.6733307086614173
 20
2.169236220472441
 30
0.0
 10
0.6733307086614173
 20
2.169236220472441
 30
0.0
 10
0.6796732283464567
 20
2.157334645669292
 30
0.0
 10
0.6796732283464567
 20
2.157334645669292
 30
0.0
 10
0.6796732283464567
 20
2.157334645669292
 30
0.0
 10
0.6796732283464567
 20
2.157334645669292
 30
0.0
 10
0.6866968503937008
 20
1.404783464566929
 30
0.0
 10
0.6866968503937008
 20
1.404783464566929
 30
0.0
 10
0.6866968503937008
 20
1.404783464566929
 30
0.0
 10
0.6866968503937008
 20
1.404783464566929
 30
0.0
 10
0.6803543307086615
 20
1.416685039370079
 30
0.0
 10
0.6803543307086615
 20
1.416685039370079
 30
0.0
 10
0.6803543307086615
 20
1.416685039370079
 30
0.0
 10
0.6803543307086615
 20
1.416685039370079
 30
0.0
 10
0.6743582677165355
 20
1.428685039370079
 30
0.0
 10
0.6743582677165355
 20
1.428685039370079
 30
0.0
 10
0.6743582677165355
 20
1.428685039370079
 30
0.0
 10
0.6743582677165355
 20
1.428685039370079
 30
0.0
 10
0.6685393700787402
 20
1.440649606299213
 30
0.0
 10
0.6685393700787402
 20
1.440649606299213
 30
0.0
  0
SPLINE
  5
49
330
1F
100
AcDbEntity
  8
LAYER_1
 62
   252
100
AcDbSpline
210
0.0
220
0.0
230
1.0
 70
    11
 71
     3
 72
    36
 73
    32
 74
     0
 42
0.0000000001
 43
0.0000000001
 40
0.0
 40
0.0
 40
0.0
 40
0.0
 40
0.125
 40
0.125
 40
0.125
 40
0.125
 40
0.25
 40
0.25
 40
0.25
 40
0.25
 40
0.375
 40
0.375
 40
0.375
 40
0.375
 40
0.5
 40
0.5
 40
0.5
 40
0.5
 40
0.625
 40
0.625
 40
0.625
 40
0.625
 40
0.75
 40
0.75
 40
0.75
 40
0.75
 40
0.875
 40
0.875
 40
0.875
 40
0.875
 40
1.0
 40
1.0
 40
1.0
 40
1.0
 10
0.6866968503937008
 20
1.404783464566929
 30
0.0
 10
0.6866968503937008
 20
1.404783464566929
 30
0.0
 10
0.6796732283464567
 20
2.157334645669292
 30
0.0
 10
0.6796732283464567
 20
2.157334645669292
 30
0.0
 10
0.6796732283464567
 20
2.157334645669292
 30
0.0
 10
0.6796732283464567
 20
2.157334645669292
 30
0.0
 10
0.686511811023622
 20
2.145637795275591
 30
0.0
 10
0.686511811023622
 20
2.145637795275591
 30
0.0
 10
0.686511811023622
 20
2.145637795275591
 30
0.0
 10
0.686511811023622
 20
2.145637795275591
 30
0.0
 10
0.6940236220472441
 20
2.134283464566929
 30
0.0
 10
0.6940236220472441
 20
2.134283464566929
 30
0.0
 10
0.6940236220472441
 20
2.134283464566929
 30
0.0
 10
0.6940236220472441
 20
2.134283464566929
 30
0.0
 10
0.7023543307086615
 20
2.123370078740158
 30
0.0
 10
0.7023543307086615
 20
2.123370078740158
 30
0.0
 10
0.7023543307086615
 20
2.123370078740158
 30
0.0
 10
0.7023543307086615
 20
2.123370078740158
 30
0.0
 10
0.7093779527559055
 20
1.370818897637795
 30
0.0
 10
0.7093779527559055
 20
1.370818897637795
 30
0.0
 10
0.7093779527559055
 20
1.370818897637795
 30
0.0
 10
0.7093779527559055
 20
1.370818897637795
 30
0.0
 10
0.7010472440944883
 20
1.381732283464567
 30
0.0
 10
0.7010472440944883
 20
1.381732283464567
 30
0.0
 10
0.7010472440944883
 20
1.381732283464567
 30
0.0
 10
0.7010472440944883
 20
1.381732283464567
 30
0.0
 10
0.6935354330708662
 20
1.393086614173228
 30
0.0
 10
0.6935354330708662
 20
1.393086614173228
 30
0.0
 10
0.6935354330708662
 20
1.393086614173228
 30
0.0
 10
0.6935354330708662
 20
1.393086614173228
 30
0.0
 10
0.6866968503937008
 20
1.404783464566929
 30
0.0
 10
0.6866968503937008
 20
1.404783464566929
 30
0.0
  0
SPLINE
  5
4A
330
1F
100
AcDbEntity
  8
LAYER_1
 62
   252
100
AcDbSpline
210
0.0
220
0.0
230
1.0
 70
    11
 71
     3
 72
    36
 73
    32
 74
     0
 42
0.0000000001
 43
0.0000000001
 40
0.0
 40
0.0
 40
0.0
 40
0.0
 40
0.125
 40
0.125
 40
0.125
 40
0.125
 40
0.25
 40
0.25
 40
0.25
 40
0.25
 40
0.375
 40
0.375
 40
0.375
 40
0.375
 40
0.5
 40
0.5
 40
0.5
 40
0.5
 40
0.625
 40
0.625
 40
0.625
 40
0.625
 40
0.75
 40
0.75
 40
0.75
 40
0.75
 40
0.875
 40
0.875
 40
0.875
 40
0.875
 40
1.0
 40
1.0
 40
1.0
 40
1.0
 10
0.7093779527559055
 20
1.370818897637795
 30
0.0
 10
0.7093779527559055
 20
1.370818897637795
 30
0.0
 10
0.7023543307086615
 20
2.123370078740158
 30
0.0
 10
0.7023543307086615
 20
2.123370078740158
 30
0.0
 10
0.7023543307086615
 20
2.123370078740158
 30
0.0
 10
0.7023543307086615
 20
2.123370078740158
 30
0.0
 10
0.7116771653543308
 20
2.113035433070866
 30
0.0
 10
0.7116771653543308
 20
2.113035433070866
 30
0.0
 10
0.7116771653543308
 20
2.113035433070866
 30
0.0
 10
0.7116771653543308
 20
2.113035433070866
 30
0.0
 10
0.7221456692913386
 20
2.103389763779528
 30
0.0
 10
0.7221456692913386
 20
2.103389763779528
 30
0.0
 10
0.7221456692913386
 20
2.103389763779528
 30
0.0
 10
0.7221456692913386
 20
2.103389763779528
 30
0.0
 10
0.7339370078740157
 20
2.094566929133858
 30
0.0
 10
0.7339370078740157
 20
2.094566929133858
 30
0.0
 10
0.7339370078740157
 20
2.094566929133858
 30
0.0
 10
0.7339370078740157
 20
2.094566929133858
 30
0.0
 10
0.7409606299212599
 20
1.342015748031496
 30
0.0
 10
0.7409606299212599
 20
1.342015748031496
 30
0.0
 10
0.7409606299212599
 20
1.342015748031496
 30
0.0
 10
0.7409606299212599
 20
1.342015748031496
 30
0.0
 10
0.7291692913385827
 20
1.350838582677165
 30
0.0
 10
0.7291692913385827
 20
1.350838582677165
 30
0.0
 10
0.7291692913385827
 20
1.350838582677165
 30
0.0
 10
0.7291692913385827
 20
1.350838582677165
 30
0.0
 10
0.7187007874015748
 20
1.360484251968504
 30
0.0
 10
0.7187007874015748
 20
1.360484251968504
 30
0.0
 10
0.7187007874015748
 20
1.360484251968504
 30
0.0
 10
0.7187007874015748
 20
1.360484251968504
 30
0.0
 10
0.7093779527559055
 20
1.370818897637795
 30
0.0
 10
0.7093779527559055
 20
1.370818897637795
 30
0.0
  0
SPLINE
  5
4B
330
1F
100
AcDbEntity
  8
LAYER_1
 62
   252
100
AcDbSpline
210
0.0
220
0.0
230
1.0
 70
    11
 71
     3
 72
    36
 73
    32
 74
     0
 42
0.0000000001
 43
0.0000000001
 40
0.0
 40
0.0
 40
0.0
 40
0.0
 40
0.125
 40
0.125
 40
0.125
 40
0.125
 40
0.25
 40
0.25
 40
0.25
 40
0.25
 40
0.375
 40
0.375
 40
0.375
 40
0.375
 40
0.5
 40
0.5
 40
0.5
 40
0.5
 40
0.625
 40
0.625
 40
0.625
 40
0.625
 40
0.75
 40
0.75
 40
0.75
 40
0.75
 40
0.875
 40
0.875
 40
0.875
 40
0.875
 40
1.0
 40
1.0
 40
1.0
 40
1.0
 10
0.7409606299212599
 20
1.342015748031496
 30
0.0
 10
0.7409606299212599
 20
1.342015748031496
 30
0.0
 10
0.7339370078740157
 20
2.094566929133858
 30
0.0
 10
0.7339370078740157
 20
2.094566929133858
 30
0.0
 10
0.7339370078740157
 20
2.094566929133858
 30
0.0
 10
0.7339370078740157
 20
2.094566929133858
 30
0.0
 10
0.7471968503937008
 20
2.086677165354331
 30
0.0
 10
0.7471968503937008
 20
2.086677165354331
 30
0.0
 10
0.7471968503937008
 20
2.086677165354331
 30
0.0
 10
0.7471968503937008
 20
2.086677165354331
 30
0.0
 10
0.7620984251968505
 20
2.079846456692914
 30
0.0
 10
0.7620984251968505
 20
2.079846456692914
 30
0.0
 10
0.7620984251968505
 20
2.079846456692914
 30
0.0
 10
0.7620984251968505
 20
2.079846456692914
 30
0.0
 10
0.7787913385826772
 20
2.074185039370079
 30
0.0
 10
0.7787913385826772
 20
2.074185039370079
 30
0.0
 10
0.7787913385826772
 20
2.074185039370079
 30
0.0
 10
0.7787913385826772
 20
2.074185039370079
 30
0.0
 10
0.7858149606299213
 20
1.321633858267717
 30
0.0
 10
0.7858149606299213
 20
1.321633858267717
 30
0.0
 10
0.7858149606299213
 20
1.321633858267717
 30
0.0
 10
0.7858149606299213
 20
1.321633858267717
 30
0.0
 10
0.7691220472440945
 20
1.327295275590551
 30
0.0
 10
0.7691220472440945
 20
1.327295275590551
 30
0.0
 10
0.7691220472440945
 20
1.327295275590551
 30
0.0
 10
0.7691220472440945
 20
1.327295275590551
 30
0.0
 10
0.7542204724409449
 20
1.334125984251969
 30
0.0
 10
0.7542204724409449
 20
1.334125984251969
 30
0.0
 10
0.7542204724409449
 20
1.334125984251969
 30
0.0
 10
0.7542204724409449
 20
1.334125984251969
 30
0.0
 10
0.7409606299212599
 20
1.342015748031496
 30
0.0
 10
0.7409606299212599
 20
1.342015748031496
 30
0.0
  0
SPLINE
  5
4C
330
1F
100
AcDbEntity
  8
LAYER_1
 62
   252
100
AcDbSpline
210
0.0
220
0.0
230
1.0
 70
    11
 71
     3
 72
    28
 73
    24
 74
     0
 42
0.0000000001
 43
0.0000000001
 40
0.0
 40
0.0
 40
0.0
 40
0.0
 40
0.1666666666666667
 40
0.1666666666666667
 40
0.1666666666666667
 40
0.1666666666666667
 40
0.3333333333333333
 40
0.3333333333333333
 40
0.3333333333333333
 40
0.3333333333333333
 40
0.5
 40
0.5
 40
0.5
 40
0.5
 40
0.6666666666666666
 40
0.6666666666666666
 40
0.6666666666666666
 40
0.6666666666666666
 40
0.8333333333333333
 40
0.8333333333333333
 40
0.8333333333333333
 40
0.8333333333333333
 40
1.0
 40
1.0
 40
1.0
 40
1.0
 10
0.7858149606299213
 20
1.321633858267717
 30
0.0
 10
0.7858149606299213
 20
1.321633858267717
 30
0.0
 10
0.7787913385826772
 20
2.074185039370079
 30
0.0
 10
0.7787913385826772
 20
2.074185039370079
 30
0.0
 10
0.7787913385826772
 20
2.074185039370079
 30
0.0
 10
0.7787913385826772
 20
2.074185039370079
 30
0.0
 10
0.7974527559055118
 20
2.069830708661418
 30
0.0
 10
0.7974527559055118
 20
2.069830708661418
 30
0.0
 10
0.7974527559055118
 20
2.069830708661418
 30
0.0
 10
0.7974527559055118
 20
2.069830708661418
 30
0.0
 10
0.818232283464567
 20
2.066885826771653
 30
0.0
 10
0.818232283464567
 20
2.066885826771653
 30
0.0
 10
0.818232283464567
 20
2.066885826771653
 30
0.0
 10
0.818232283464567
 20
2.066885826771653
 30
0.0
 10
0.8252559055118111
 20
1.314334645669292
 30
0.0
 10
0.8252559055118111
 20
1.314334645669292
 30
0.0
 10
0.8252559055118111
 20
1.314334645669292
 30
0.0
 10
0.8252559055118111
 20
1.314334645669292
 30
0.0
 10
0.804476377952756
 20
1.317279527559055
 30
0.0
 10
0.804476377952756
 20
1.317279527559055
 30
0.0
 10
0.804476377952756
 20
1.317279527559055
 30
0.0
 10
0.804476377952756
 20
1.317279527559055
 30
0.0
 10
0.7858149606299213
 20
1.321633858267717
 30
0.0
 10
0.7858149606299213
 20
1.321633858267717
 30
0.0
  0
SPLINE
  5
4D
330
1F
100
AcDbEntity
  8
LAYER_1
 62
   252
100
AcDbSpline
210
0.0
220
0.0
230
1.0
 70
    11
 71
     3
 72
    28
 73
    24
 74
     0
 42
0.0000000001
 43
0.0000000001
 40
0.0
 40
0.0
 40
0.0
 40
0.0
 40
0.1666666666666667
 40
0.1666666666666667
 40
0.1666666666666667
 40
0.1666666666666667
 40
0.3333333333333333
 40
0.3333333333333333
 40
0.3333333333333333
 40
0.3333333333333333
 40
0.5
 40
0.5
 40
0.5
 40
0.5
 40
0.6666666666666666
 40
0.6666666666666666
 40
0.6666666666666666
 40
0.6666666666666666
 40
0.8333333333333333
 40
0.8333333333333333
 40
0.8333333333333333
 40
0.8333333333333333
 40
1.0
 40
1.0
 40
1.0
 40
1.0
 10
0.8252559055118111
 20
1.314334645669292
 30
0.0
 10
0.8252559055118111
 20
1.314334645669292
 30
0.0
 10
0.818232283464567
 20
2.066885826771653
 30
0.0
 10
0.818232283464567
 20
2.066885826771653
 30
0.0
 10
0.818232283464567
 20
2.066885826771653
 30
0.0
 10
0.818232283464567
 20
2.066885826771653
 30
0.0
 10
0.8412952755905512
 20
2.065488188976378
 30
0.0
 10
0.8412952755905512
 20
2.065488188976378
 30
0.0
 10
0.8412952755905512
 20
2.065488188976378
 30
0.0
 10
0.8412952755905512
 20
2.065488188976378
 30
0.0
 10
0.8668031496062992
 20
2.065740157480315
 30
0.0
 10
0.8668031496062992
 20
2.065740157480315
 30
0.0
 10
0.8668031496062992
 20
2.065740157480315
 30
0.0
 10
0.8668031496062992
 20
2.065740157480315
 30
0.0
 10
0.8738267716535434
 20
1.313188976377953
 30
0.0
 10
0.8738267716535434
 20
1.313188976377953
 30
0.0
 10
0.8738267716535434
 20
1.313188976377953
 30
0.0
 10
0.8738267716535434
 20
1.313188976377953
 30
0.0
 10
0.8483188976377953
 20
1.312937007874016
 30
0.0
 10
0.8483188976377953
 20
1.312937007874016
 30
0.0
 10
0.8483188976377953
 20
1.312937007874016
 30
0.0
 10
0.8483188976377953
 20
1.312937007874016
 30
0.0
 10
0.8252559055118111
 20
1.314334645669292
 30
0.0
 10
0.8252559055118111
 20
1.314334645669292
 30
0.0
  0
SPLINE
  5
4E
330
1F
100
AcDbEntity
  8
LAYER_1
 62
   250
100
AcDbSpline
210
0.0
220
0.0
230
1.0
 70
    11
 71
     3
 72
   268
 73
   264
 74
     0
 42
0.0000000001
 43
0.0000000001
 40
0.0
 40
0.0
 40
0.0
 40
0.0
 40
0.0151515151515152
 40
0.0151515151515152
 40
0.0151515151515152
 40
0.0151515151515152
 40
0.0303030303030303
 40
0.0303030303030303
 40
0.0303030303030303
 40
0.0303030303030303
 40
0.0454545454545455
 40
0.0454545454545455
 40
0.0454545454545455
 40
0.0454545454545455
 40
0.0606060606060606
 40
0.0606060606060606
 40
0.0606060606060606
 40
0.0606060606060606
 40
0.0757575757575758
 40
0.0757575757575758
 40
0.0757575757575758
 40
0.0757575757575758
 40
0.0909090909090909
 40
0.0909090909090909
 40
0.0909090909090909
 40
0.0909090909090909
 40
0.1060606060606061
 40
0.1060606060606061
 40
0.1060606060606061
 40
0.1060606060606061
 40
0.1212121212121212
 40
0.1212121212121212
 40
0.1212121212121212
 40
0.1212121212121212
 40
0.1363636363636364
 40
0.1363636363636364
 40
0.1363636363636364
 40
0.1363636363636364
 40
0.1515151515151515
 40
0.1515151515151515
 40
0.1515151515151515
 40
0.1515151515151515
 40
0.1666666666666666
 40
0.1666666666666666
 40
0.1666666666666666
 40
0.1666666666666666
 40
0.1818181818181818
 40
0.1818181818181818
 40
0.1818181818181818
 40
0.1818181818181818
 40
0.1969696969696969
 40
0.1969696969696969
 40
0.1969696969696969
 40
0.1969696969696969
 40
0.212121212121212
 40
0.212121212121212
 40
0.212121212121212
 40
0.212121212121212
 40
0.2272727272727272
 40
0.2272727272727272
 40
0.2272727272727272
 40
0.2272727272727272
 40
0.2424242424242423
 40
0.2424242424242423
 40
0.2424242424242423
 40
0.2424242424242423
 40
0.2575757575757575
 40
0.2575757575757575
 40
0.2575757575757575
 40
0.2575757575757575
 40
0.2727272727272726
 40
0.2727272727272726
 40
0.2727272727272726
 40
0.2727272727272726
 40
0.2878787878787877
 40
0.2878787878787877
 40
0.2878787878787877
 40
0.2878787878787877
 40
0.3030303030303029
 40
0.3030303030303029
 40
0.3030303030303029
 40
0.3030303030303029
 40
0.318181818181818
 40
0.318181818181818
 40
0.318181818181818
 40
0.318181818181818
 40
0.3333333333333332
 40
0.3333333333333332
 40
0.3333333333333332
 40
0.3333333333333332
 40
0.3484848484848483
 40
0.3484848484848483
 40
0.3484848484848483
 40
0.3484848484848483
 40
0.3636363636363634
 40
0.3636363636363634
 40
0.3636363636363634
 40
0.3636363636363634
 40
0.3787878787878786
 40
0.3787878787878786
 40
0.3787878787878786
 40
0.3787878787878786
 40
0.3939393939393937
 40
0.3939393939393937
 40
0.3939393939393937
 40
0.3939393939393937
 40
0.4090909090909088
 40
0.4090909090909088
 40
0.4090909090909088
 40
0.4090909090909088
 40
0.424242424242424
 40
0.424242424242424
 40
0.424242424242424
 40
0.424242424242424
 40
0.4393939393939391
 40
0.4393939393939391
 40
0.4393939393939391
 40
0.4393939393939391
 40
0.4545454545454543
 40
0.4545454545454543
 40
0.4545454545454543
 40
0.4545454545454543
 40
0.4696969696969694
 40
0.4696969696969694
 40
0.4696969696969694
 40
0.4696969696969694
 40
0.4848484848484845
 40
0.4848484848484845
 40
0.4848484848484845
 40
0.4848484848484845
 40
0.4999999999999997
 40
0.4999999999999997
 40
0.4999999999999997
 40
0.4999999999999997
 40
0.5151515151515148
 40
0.5151515151515148
 40
0.5151515151515148
 40
0.5151515151515148
 40
0.5303030303030299
 40
0.5303030303030299
 40
0.5303030303030299
 40
0.5303030303030299
 40
0.5454545454545451
 40
0.5454545454545451
 40
0.5454545454545451
 40
0.5454545454545451
 40
0.5606060606060602
 40
0.5606060606060602
 40
0.5606060606060602
 40
0.5606060606060602
 40
0.5757575757575754
 40
0.5757575757575754
 40
0.5757575757575754
 40
0.5757575757575754
 40
0.5909090909090905
 40
0.5909090909090905
 40
0.5909090909090905
 40
0.5909090909090905
 40
0.6060606060606056
 40
0.6060606060606056
 40
0.6060606060606056
 40
0.6060606060606056
 40
0.6212121212121208
 40
0.6212121212121208
 40
0.6212121212121208
 40
0.6212121212121208
 40
0.6363636363636359
 40
0.6363636363636359
 40
0.6363636363636359
 40
0.6363636363636359
 40
0.6515151515151511
 40
0.6515151515151511
 40
0.6515151515151511
 40
0.6515151515151511
 40
0.6666666666666662
 40
0.6666666666666662
 40
0.6666666666666662
 40
0.6666666666666662
 40
0.6818181818181813
 40
0.6818181818181813
 40
0.6818181818181813
 40
0.6818181818181813
 40
0.6969696969696965
 40
0.6969696969696965
 40
0.6969696969696965
 40
0.6969696969696965
 40
0.7121212121212116
 40
0.7121212121212116
 40
0.7121212121212116
 40
0.7121212121212116
 40
0.7272727272727267
 40
0.7272727272727267
 40
0.7272727272727267
 40
0.7272727272727267
 40
0.7424242424242419
 40
0.7424242424242419
 40
0.7424242424242419
 40
0.7424242424242419
 40
0.757575757575757
 40
0.757575757575757
 40
0.757575757575757
 40
0.757575757575757
 40
0.7727272727272722
 40
0.7727272727272722
 40
0.7727272727272722
 40
0.7727272727272722
 40
0.7878787878787873
 40
0.7878787878787873
 40
0.7878787878787873
 40
0.7878787878787873
 40
0.8030303030303024
 40
0.8030303030303024
 40
0.8030303030303024
 40
0.8030303030303024
 40
0.8181818181818176
 40
0.8181818181818176
 40
0.8181818181818176
 40
0.8181818181818176
 40
0.8333333333333327
 40
0.8333333333333327
 40
0.8333333333333327
 40
0.8333333333333327
 40
0.8484848484848478
 40
0.8484848484848478
 40
0.8484848484848478
 40
0.8484848484848478
 40
0.863636363636363
 40
0.863636363636363
 40
0.863636363636363
 40
0.863636363636363
 40
0.8787878787878781
 40
0.8787878787878781
 40
0.8787878787878781
 40
0.8787878787878781
 40
0.8939393939393933
 40
0.8939393939393933
 40
0.8939393939393933
 40
0.8939393939393933
 40
0.9090909090909084
 40
0.9090909090909084
 40
0.9090909090909084
 40
0.9090909090909084
 40
0.9242424242424235
 40
0.9242424242424235
 40
0.9242424242424235
 40
0.9242424242424235
 40
0.9393939393939387
 40
0.9393939393939387
 40
0.9393939393939387
 40
0.9393939393939387
 40
0.9545454545454538
 40
0.9545454545454538
 40
0.9545454545454538
 40
0.9545454545454538
 40
0.969696969696969
 40
0.969696969696969
 40
0.969696969696969
 40
0.969696969696969
 40
0.9848484848484841
 40
0.9848484848484841
 40
0.9848484848484841
 40
0.9848484848484841
 40
1.0
 40
1.0
 40
1.0
 40
1.0
 10
0.4677637795275591
 20
1.529755905511811
 30
0.0
 10
0.4677637795275591
 20
1.529755905511811
 30
0.0
 10
0.460740157480315
 20
2.282307086614174
 30
0.0
 10
0.460740157480315
 20
2.282307086614174
 30
0.0
 10
0.460740157480315
 20
2.282307086614174
 30
0.0
 10
0.460740157480315
 20
2.282307086614174
 30
0.0
 10
0.4857125984251969
 20
2.287216535433071
 30
0.0
 10
0.4857125984251969
 20
2.287216535433071
 30
0.0
 10
0.4857125984251969
 20
2.287216535433071
 30
0.0
 10
0.4857125984251969
 20
2.287216535433071
 30
0.0
 10
0.5082677165354331
 20
2.290157480314961
 30
0.0
 10
0.5082677165354331
 20
2.290157480314961
 30
0.0
 10
0.5082677165354331
 20
2.290157480314961
 30
0.0
 10
0.5082677165354331
 20
2.290157480314961
 30
0.0
 10
0.5285748031496064
 20
2.291263779527559
 30
0.0
 10
0.5285748031496064
 20
2.291263779527559
 30
0.0
 10
0.5285748031496064
 20
2.291263779527559
 30
0.0
 10
0.5285748031496064
 20
2.291263779527559
 30
0.0
 10
0.5467874015748032
 20
2.290649606299213
 30
0.0
 10
0.5467874015748032
 20
2.290649606299213
 30
0.0
 10
0.5467874015748032
 20
2.290649606299213
 30
0.0
 10
0.5467874015748032
 20
2.290649606299213
 30
0.0
 10
0.5630826771653543
 20
2.288444881889764
 30
0.0
 10
0.5630826771653543
 20
2.288444881889764
 30
0.0
 10
0.5630826771653543
 20
2.288444881889764
 30
0.0
 10
0.5630826771653543
 20
2.288444881889764
 30
0.0
 10
0.5776062992125984
 20
2.284755905511811
 30
0.0
 10
0.5776062992125984
 20
2.284755905511811
 30
0.0
 10
0.5776062992125984
 20
2.284755905511811
 30
0.0
 10
0.5776062992125984
 20
2.284755905511811
 30
0.0
 10
0.5905354330708662
 20
2.279712598425197
 30
0.0
 10
0.5905354330708662
 20
2.279712598425197
 30
0.0
 10
0.5905354330708662
 20
2.279712598425197
 30
0.0
 10
0.5905354330708662
 20
2.279712598425197
 30
0.0
 10
0.6020196850393701
 20
2.273429133858268
 30
0.0
 10
0.6020196850393701
 20
2.273429133858268
 30
0.0
 10
0.6020196850393701
 20
2.273429133858268
 30
0.0
 10
0.6020196850393701
 20
2.273429133858268
 30
0.0
 10
0.6122322834645669
 20
2.266043307086614
 30
0.0
 10
0.6122322834645669
 20
2.266043307086614
 30
0.0
 10
0.6122322834645669
 20
2.266043307086614
 30
0.0
 10
0.6122322834645669
 20
2.266043307086614
 30
0.0
 10
0.6213267716535433
 20
2.257653543307087
 30
0.0
 10
0.6213267716535433
 20
2.257653543307087
 30
0.0
 10
0.6213267716535433
 20
2.257653543307087
 30
0.0
 10
0.6213267716535433
 20
2.257653543307087
 30
0.0
 10
0.6294685039370079
 20
2.248393700787402
 30
0.0
 10
0.6294685039370079
 20
2.248393700787402
 30
0.0
 10
0.6294685039370079
 20
2.248393700787402
 30
0.0
 10
0.6294685039370079
 20
2.248393700787402
 30
0.0
 10
0.6368110236220472
 20
2.238374015748032
 30
0.0
 10
0.6368110236220472
 20
2.238374015748032
 30
0.0
 10
0.6368110236220472
 20
2.238374015748032
 30
0.0
 10
0.6368110236220472
 20
2.238374015748032
 30
0.0
 10
0.6435314960629922
 20
2.227732283464567
 30
0.0
 10
0.6435314960629922
 20
2.227732283464567
 30
0.0
 10
0.6435314960629922
 20
2.227732283464567
 30
0.0
 10
0.6435314960629922
 20
2.227732283464567
 30
0.0
 10
0.6497795275590551
 20
2.216570866141733
 30
0.0
 10
0.6497795275590551
 20
2.216570866141733
 30
0.0
 10
0.6497795275590551
 20
2.216570866141733
 30
0.0
 10
0.6497795275590551
 20
2.216570866141733
 30
0.0
 10
0.6557244094488189
 20
2.205023622047244
 30
0.0
 10
0.6557244094488189
 20
2.205023622047244
 30
0.0
 10
0.6557244094488189
 20
2.205023622047244
 30
0.0
 10
0.6557244094488189
 20
2.205023622047244
 30
0.0
 10
0.661515748031496
 20
2.193200787401575
 30
0.0
 10
0.661515748031496
 20
2.193200787401575
 30
0.0
 10
0.661515748031496
 20
2.193200787401575
 30
0.0
 10
0.661515748031496
 20
2.193200787401575
 30
0.0
 10
0.6673346456692914
 20
2.181236220472441
 30
0.0
 10
0.6673346456692914
 20
2.181236220472441
 30
0.0
 10
0.6673346456692914
 20
2.181236220472441
 30
0.0
 10
0.6673346456692914
 20
2.181236220472441
 30
0.0
 10
0.6733307086614173
 20
2.169236220472441
 30
0.0
 10
0.6733307086614173
 20
2.169236220472441
 30
0.0
 10
0.6733307086614173
 20
2.169236220472441
 30
0.0
 10
0.6733307086614173
 20
2.169236220472441
 30
0.0
 10
0.6796732283464567
 20
2.157334645669292
 30
0.0
 10
0.6796732283464567
 20
2.157334645669292
 30
0.0
 10
0.6796732283464567
 20
2.157334645669292
 30
0.0
 10
0.6796732283464567
 20
2.157334645669292
 30
0.0
 10
0.686511811023622
 20
2.145637795275591
 30
0.0
 10
0.686511811023622
 20
2.145637795275591
 30
0.0
 10
0.686511811023622
 20
2.145637795275591
 30
0.0
 10
0.686511811023622
 20
2.145637795275591
 30
0.0
 10
0.6940236220472441
 20
2.134283464566929
 30
0.0
 10
0.6940236220472441
 20
2.134283464566929
 30
0.0
 10
0.6940236220472441
 20
2.134283464566929
 30
0.0
 10
0.6940236220472441
 20
2.134283464566929
 30
0.0
 10
0.7023543307086615
 20
2.123370078740158
 30
0.0
 10
0.7023543307086615
 20
2.123370078740158
 30
0.0
 10
0.7023543307086615
 20
2.123370078740158
 30
0.0
 10
0.7023543307086615
 20
2.123370078740158
 30
0.0
 10
0.7116771653543308
 20
2.113035433070866
 30
0.0
 10
0.7116771653543308
 20
2.113035433070866
 30
0.0
 10
0.7116771653543308
 20
2.113035433070866
 30
0.0
 10
0.7116771653543308
 20
2.113035433070866
 30
0.0
 10
0.7221456692913386
 20
2.103389763779528
 30
0.0
 10
0.7221456692913386
 20
2.103389763779528
 30
0.0
 10
0.7221456692913386
 20
2.103389763779528
 30
0.0
 10
0.7221456692913386
 20
2.103389763779528
 30
0.0
 10
0.7339370078740157
 20
2.094566929133858
 30
0.0
 10
0.7339370078740157
 20
2.094566929133858
 30
0.0
 10
0.7339370078740157
 20
2.094566929133858
 30
0.0
 10
0.7339370078740157
 20
2.094566929133858
 30
0.0
 10
0.7471968503937008
 20
2.086677165354331
 30
0.0
 10
0.7471968503937008
 20
2.086677165354331
 30
0.0
 10
0.7471968503937008
 20
2.086677165354331
 30
0.0
 10
0.7471968503937008
 20
2.086677165354331
 30
0.0
 10
0.7620984251968505
 20
2.079846456692914
 30
0.0
 10
0.7620984251968505
 20
2.079846456692914
 30
0.0
 10
0.7620984251968505
 20
2.079846456692914
 30
0.0
 10
0.7620984251968505
 20
2.079846456692914
 30
0.0
 10
0.7787913385826772
 20
2.074185039370079
 30
0.0
 10
0.7787913385826772
 20
2.074185039370079
 30
0.0
 10
0.7787913385826772
 20
2.074185039370079
 30
0.0
 10
0.7787913385826772
 20
2.074185039370079
 30
0.0
 10
0.7974527559055118
 20
2.069830708661418
 30
0.0
 10
0.7974527559055118
 20
2.069830708661418
 30
0.0
 10
0.7974527559055118
 20
2.069830708661418
 30
0.0
 10
0.7974527559055118
 20
2.069830708661418
 30
0.0
 10
0.818232283464567
 20
2.066885826771653
 30
0.0
 10
0.818232283464567
 20
2.066885826771653
 30
0.0
 10
0.818232283464567
 20
2.066885826771653
 30
0.0
 10
0.818232283464567
 20
2.066885826771653
 30
0.0
 10
0.8412952755905512
 20
2.065488188976378
 30
0.0
 10
0.8412952755905512
 20
2.065488188976378
 30
0.0
 10
0.8412952755905512
 20
2.065488188976378
 30
0.0
 10
0.8412952755905512
 20
2.065488188976378
 30
0.0
 10
0.8668031496062992
 20
2.065740157480315
 30
0.0
 10
0.8668031496062992
 20
2.065740157480315
 30
0.0
 10
0.8668031496062992
 20
2.065740157480315
 30
0.0
 10
0.8668031496062992
 20
2.065740157480315
 30
0.0
 10
0.8738267716535434
 20
1.313188976377953
 30
0.0
 10
0.8738267716535434
 20
1.313188976377953
 30
0.0
 10
0.8738267716535434
 20
1.313188976377953
 30
0.0
 10
0.8738267716535434
 20
1.313188976377953
 30
0.0
 10
0.8483188976377953
 20
1.312937007874016
 30
0.0
 10
0.8483188976377953
 20
1.312937007874016
 30
0.0
 10
0.8483188976377953
 20
1.312937007874016
 30
0.0
 10
0.8483188976377953
 20
1.312937007874016
 30
0.0
 10
0.8252559055118111
 20
1.314334645669292
 30
0.0
 10
0.8252559055118111
 20
1.314334645669292
 30
0.0
 10
0.8252559055118111
 20
1.314334645669292
 30
0.0
 10
0.8252559055118111
 20
1.314334645669292
 30
0.0
 10
0.804476377952756
 20
1.317279527559055
 30
0.0
 10
0.804476377952756
 20
1.317279527559055
 30
0.0
 10
0.804476377952756
 20
1.317279527559055
 30
0.0
 10
0.804476377952756
 20
1.317279527559055
 30
0.0
 10
0.7858149606299213
 20
1.321633858267717
 30
0.0
 10
0.7858149606299213
 20
1.321633858267717
 30
0.0
 10
0.7858149606299213
 20
1.321633858267717
 30
0.0
 10
0.7858149606299213
 20
1.321633858267717
 30
0.0
 10
0.7691220472440945
 20
1.327295275590551
 30
0.0
 10
0.7691220472440945
 20
1.327295275590551
 30
0.0
 10
0.7691220472440945
 20
1.327295275590551
 30
0.0
 10
0.7691220472440945
 20
1.327295275590551
 30
0.0
 10
0.7542204724409449
 20
1.334125984251969
 30
0.0
 10
0.7542204724409449
 20
1.334125984251969
 30
0.0
 10
0.7542204724409449
 20
1.334125984251969
 30
0.0
 10
0.7542204724409449
 20
1.334125984251969
 30
0.0
 10
0.7409606299212599
 20
1.342015748031496
 30
0.0
 10
0.7409606299212599
 20
1.342015748031496
 30
0.0
 10
0.7409606299212599
 20
1.342015748031496
 30
0.0
 10
0.7409606299212599
 20
1.342015748031496
 30
0.0
 10
0.7291692913385827
 20
1.350838582677165
 30
0.0
 10
0.7291692913385827
 20
1.350838582677165
 30
0.0
 10
0.7291692913385827
 20
1.350838582677165
 30
0.0
 10
0.7291692913385827
 20
1.350838582677165
 30
0.0
 10
0.7187007874015748
 20
1.360484251968504
 30
0.0
 10
0.7187007874015748
 20
1.360484251968504
 30
0.0
 10
0.7187007874015748
 20
1.360484251968504
 30
0.0
 10
0.7187007874015748
 20
1.360484251968504
 30
0.0
 10
0.7093779527559055
 20
1.370818897637795
 30
0.0
 10
0.7093779527559055
 20
1.370818897637795
 30
0.0
 10
0.7093779527559055
 20
1.370818897637795
 30
0.0
 10
0.7093779527559055
 20
1.370818897637795
 30
0.0
 10
0.7010472440944883
 20
1.381732283464567
 30
0.0
 10
0.7010472440944883
 20
1.381732283464567
 30
0.0
 10
0.7010472440944883
 20
1.381732283464567
 30
0.0
 10
0.7010472440944883
 20
1.381732283464567
 30
0.0
 10
0.6935354330708662
 20
1.393086614173228
 30
0.0
 10
0.6935354330708662
 20
1.393086614173228
 30
0.0
 10
0.6935354330708662
 20
1.393086614173228
 30
0.0
 10
0.6935354330708662
 20
1.393086614173228
 30
0.0
 10
0.6866968503937008
 20
1.404783464566929
 30
0.0
 10
0.6866968503937008
 20
1.404783464566929
 30
0.0
 10
0.6866968503937008
 20
1.404783464566929
 30
0.0
 10
0.6866968503937008
 20
1.404783464566929
 30
0.0
 10
0.6803543307086615
 20
1.416685039370079
 30
0.0
 10
0.6803543307086615
 20
1.416685039370079
 30
0.0
 10
0.6803543307086615
 20
1.416685039370079
 30
0.0
 10
0.6803543307086615
 20
1.416685039370079
 30
0.0
 10
0.6743582677165355
 20
1.428685039370079
 30
0.0
 10
0.6743582677165355
 20
1.428685039370079
 30
0.0
 10
0.6743582677165355
 20
1.428685039370079
 30
0.0
 10
0.6743582677165355
 20
1.428685039370079
 30
0.0
 10
0.6685393700787402
 20
1.440649606299213
 30
0.0
 10
0.6685393700787402
 20
1.440649606299213
 30
0.0
 10
0.6685393700787402
 20
1.440649606299213
 30
0.0
 10
0.6685393700787402
 20
1.440649606299213
 30
0.0
 10
0.662748031496063
 20
1.452472440944882
 30
0.0
 10
0.662748031496063
 20
1.452472440944882
 30
0.0
 10
0.662748031496063
 20
1.452472440944882
 30
0.0
 10
0.662748031496063
 20
1.452472440944882
 30
0.0
 10
0.6568031496062993
 20
1.46401968503937
 30
0.0
 10
0.6568031496062993
 20
1.46401968503937
 30
0.0
 10
0.6568031496062993
 20
1.46401968503937
 30
0.0
 10
0.6568031496062993
 20
1.46401968503937
 30
0.0
 10
0.6505551181102363
 20
1.475181102362205
 30
0.0
 10
0.6505551181102363
 20
1.475181102362205
 30
0.0
 10
0.6505551181102363
 20
1.475181102362205
 30
0.0
 10
0.6505551181102363
 20
1.475181102362205
 30
0.0
 10
0.6438346456692914
 20
1.485822834645669
 30
0.0
 10
0.6438346456692914
 20
1.485822834645669
 30
0.0
 10
0.6438346456692914
 20
1.485822834645669
 30
0.0
 10
0.6438346456692914
 20
1.485822834645669
 30
0.0
 10
0.636492125984252
 20
1.495842519685039
 30
0.0
 10
0.636492125984252
 20
1.495842519685039
 30
0.0
 10
0.636492125984252
 20
1.495842519685039
 30
0.0
 10
0.636492125984252
 20
1.495842519685039
 30
0.0
 10
0.6283503937007874
 20
1.505102362204724
 30
0.0
 10
0.6283503937007874
 20
1.505102362204724
 30
0.0
 10
0.6283503937007874
 20
1.505102362204724
 30
0.0
 10
0.6283503937007874
 20
1.505102362204724
 30
0.0
 10
0.6192559055118111
 20
1.513492125984252
 30
0.0
 10
0.6192559055118111
 20
1.513492125984252
 30
0.0
 10
0.6192559055118111
 20
1.513492125984252
 30
0.0
 10
0.6192559055118111
 20
1.513492125984252
 30
0.0
 10
0.6090433070866143
 20
1.520877952755906
 30
0.0
 10
0.6090433070866143
 20
1.520877952755906
 30
0.0
 10
0.6090433070866143
 20
1.520877952755906
 30
0.0
 10
0.6090433070866143
 20
1.520877952755906
 30
0.0
 10
0.5975590551181103
 20
1.527161417322835
 30
0.0
 10
0.5975590551181103
 20
1.527161417322835
 30
0.0
 10
0.5975590551181103
 20
1.527161417322835
 30
0.0
 10
0.5975590551181103
 20
1.527161417322835
 30
0.0
 10
0.5846299212598426
 20
1.532204724409449
 30
0.0
 10
0.5846299212598426
 20
1.532204724409449
 30
0.0
 10
0.5846299212598426
 20
1.532204724409449
 30
0.0
 10
0.5846299212598426
 20
1.532204724409449
 30
0.0
 10
0.5701062992125985
 20
1.535893700787402
 30
0.0
 10
0.5701062992125985
 20
1.535893700787402
 30
0.0
 10
0.5701062992125985
 20
1.535893700787402
 30
0.0
 10
0.5701062992125985
 20
1.535893700787402
 30
0.0
 10
0.5538110236220473
 20
1.53809842519685
 30
0.0
 10
0.5538110236220473
 20
1.53809842519685
 30
0.0
 10
0.5538110236220473
 20
1.53809842519685
 30
0.0
 10
0.5538110236220473
 20
1.53809842519685
 30
0.0
 10
0.5355984251968504
 20
1.538712598425197
 30
0.0
 10
0.5355984251968504
 20
1.538712598425197
 30
0.0
 10
0.5355984251968504
 20
1.538712598425197
 30
0.0
 10
0.5355984251968504
 20
1.538712598425197
 30
0.0
 10
0.5152913385826772
 20
1.537606299212599
 30
0.0
 10
0.5152913385826772
 20
1.537606299212599
 30
0.0
 10
0.5152913385826772
 20
1.537606299212599
 30
0.0
 10
0.5152913385826772
 20
1.537606299212599
 30
0.0
 10
0.492736220472441
 20
1.534665354330709
 30
0.0
 10
0.492736220472441
 20
1.534665354330709
 30
0.0
 10
0.492736220472441
 20
1.534665354330709
 30
0.0
 10
0.492736220472441
 20
1.534665354330709
 30
0.0
 10
0.4677637795275591
 20
1.529755905511811
 30
0.0
 10
0.4677637795275591
 20
1.529755905511811
 30
0.0
  0
SPLINE
  5
4F
330
1F
100
AcDbEntity
  8
LAYER_1
 62
   252
100
AcDbSpline
210
0.0
220
0.0
230
1.0
 70
    11
 71
     3
 72
    20
 73
    16
 74
     0
 42
0.0000000001
 43
0.0000000001
 40
0.0
 40
0.0
 40
0.0
 40
0.0
 40
0.25
 40
0.25
 40
0.25
 40
0.25
 40
0.5
 40
0.5
 40
0.5
 40
0.5
 40
0.75
 40
0.75
 40
0.75
 40
0.75
 40
1.0
 40
1.0
 40
1.0
 40
1.0
 10
0.0927637795275591
 20
1.654755905511811
 30
0.0
 10
0.0927637795275591
 20
1.654755905511811
 30
0.0
 10
0.085740157480315
 20
2.407307086614174
 30
0.0
 10
0.085740157480315
 20
2.407307086614174
 30
0.0
 10
0.085740157480315
 20
2.407307086614174
 30
0.0
 10
0.085740157480315
 20
2.407307086614174
 30
0.0
 10
0.460740157480315
 20
2.407307086614174
 30
0.0
 10
0.460740157480315
 20
2.407307086614174
 30
0.0
 10
0.460740157480315
 20
2.407307086614174
 30
0.0
 10
0.460740157480315
 20
2.407307086614174
 30
0.0
 10
0.4677637795275591
 20
1.654755905511811
 30
0.0
 10
0.4677637795275591
 20
1.654755905511811
 30
0.0
 10
0.4677637795275591
 20
1.654755905511811
 30
0.0
 10
0.4677637795275591
 20
1.654755905511811
 30
0.0
 10
0.0927637795275591
 20
1.654755905511811
 30
0.0
 10
0.0927637795275591
 20
1.654755905511811
 30
0.0
  0
SPLINE
  5
50
330
1F
100
AcDbEntity
  8
LAYER_1
 62
   250
100
AcDbSpline
210
0.0
220
0.0
230
1.0
 70
    11
 71
     3
 72
    20
 73
    16
 74
     0
 42
0.0000000001
 43
0.0000000001
 40
0.0
 40
0.0
 40
0.0
 40
0.0
 40
0.25
 40
0.25
 40
0.25
 40
0.25
 40
0.5
 40
0.5
 40
0.5
 40
0.5
 40
0.75
 40
0.75
 40
0.75
 40
0.75
 40
1.0
 40
1.0
 40
1.0
 40
1.0
 10
0.0927637795275591
 20
1.654755905511811
 30
0.0
 10
0.0927637795275591
 20
1.654755905511811
 30
0.0
 10
0.085740157480315
 20
2.407307086614174
 30
0.0
 10
0.085740157480315
 20
2.407307086614174
 30
0.0
 10
0.085740157480315
 20
2.407307086614174
 30
0.0
 10
0.085740157480315
 20
2.407307086614174
 30
0.0
 10
0.460740157480315
 20
2.407307086614174
 30
0.0
 10
0.460740157480315
 20
2.407307086614174
 30
0.0
 10
0.460740157480315
 20
2.407307086614174
 30
0.0
 10
0.460740157480315
 20
2.407307086614174
 30
0.0
 10
0.4677637795275591
 20
1.654755905511811
 30
0.0
 10
0.4677637795275591
 20
1.654755905511811
 30
0.0
 10
0.4677637795275591
 20
1.654755905511811
 30
0.0
 10
0.4677637795275591
 20
1.654755905511811
 30
0.0
 10
0.0927637795275591
 20
1.654755905511811
 30
0.0
 10
0.0927637795275591
 20
1.654755905511811
 30
0.0
  0
SPLINE
  5
51
330
1F
100
AcDbEntity
  8
LAYER_1
 62
   252
100
AcDbSpline
210
0.0
220
0.0
230
1.0
 70
    11
 71
     3
 72
    28
 73
    24
 74
     0
 42
0.0000000001
 43
0.0000000001
 40
0.0
 40
0.0
 40
0.0
 40
0.0
 40
0.1666666666666667
 40
0.1666666666666667
 40
0.1666666666666667
 40
0.1666666666666667
 40
0.3333333333333333
 40
0.3333333333333333
 40
0.3333333333333333
 40
0.3333333333333333
 40
0.5
 40
0.5
 40
0.5
 40
0.5
 40
0.6666666666666666
 40
0.6666666666666666
 40
0.6666666666666666
 40
0.6666666666666666
 40
0.8333333333333333
 40
0.8333333333333333
 40
0.8333333333333333
 40
0.8333333333333333
 40
1.0
 40
1.0
 40
1.0
 40
1.0
 10
0.4677637795275591
 20
1.529755905511811
 30
0.0
 10
0.4677637795275591
 20
1.529755905511811
 30
0.0
 10
0.460740157480315
 20
2.282307086614174
 30
0.0
 10
0.460740157480315
 20
2.282307086614174
 30
0.0
 10
0.460740157480315
 20
2.282307086614174
 30
0.0
 10
0.460740157480315
 20
2.282307086614174
 30
0.0
 10
0.4857125984251969
 20
2.287216535433071
 30
0.0
 10
0.4857125984251969
 20
2.287216535433071
 30
0.0
 10
0.4857125984251969
 20
2.287216535433071
 30
0.0
 10
0.4857125984251969
 20
2.287216535433071
 30
0.0
 10
0.5082677165354331
 20
2.290157480314961
 30
0.0
 10
0.5082677165354331
 20
2.290157480314961
 30
0.0
 10
0.5082677165354331
 20
2.290157480314961
 30
0.0
 10
0.5082677165354331
 20
2.290157480314961
 30
0.0
 10
0.5152913385826772
 20
1.537606299212599
 30
0.0
 10
0.5152913385826772
 20
1.537606299212599
 30
0.0
 10
0.5152913385826772
 20
1.537606299212599
 30
0.0
 10
0.5152913385826772
 20
1.537606299212599
 30
0.0
 10
0.492736220472441
 20
1.534665354330709
 30
0.0
 10
0.492736220472441
 20
1.534665354330709
 30
0.0
 10
0.492736220472441
 20
1.534665354330709
 30
0.0
 10
0.492736220472441
 20
1.534665354330709
 30
0.0
 10
0.4677637795275591
 20
1.529755905511811
 30
0.0
 10
0.4677637795275591
 20
1.529755905511811
 30
0.0
  0
SPLINE
  5
52
330
1F
100
AcDbEntity
  8
LAYER_1
 62
   252
100
AcDbSpline
210
0.0
220
0.0
230
1.0
 70
    11
 71
     3
 72
    28
 73
    24
 74
     0
 42
0.0000000001
 43
0.0000000001
 40
0.0
 40
0.0
 40
0.0
 40
0.0
 40
0.1666666666666667
 40
0.1666666666666667
 40
0.1666666666666667
 40
0.1666666666666667
 40
0.3333333333333333
 40
0.3333333333333333
 40
0.3333333333333333
 40
0.3333333333333333
 40
0.5
 40
0.5
 40
0.5
 40
0.5
 40
0.6666666666666666
 40
0.6666666666666666
 40
0.6666666666666666
 40
0.6666666666666666
 40
0.8333333333333333
 40
0.8333333333333333
 40
0.8333333333333333
 40
0.8333333333333333
 40
1.0
 40
1.0
 40
1.0
 40
1.0
 10
0.5152913385826772
 20
1.537606299212599
 30
0.0
 10
0.5152913385826772
 20
1.537606299212599
 30
0.0
 10
0.5082677165354331
 20
2.290157480314961
 30
0.0
 10
0.5082677165354331
 20
2.290157480314961
 30
0.0
 10
0.5082677165354331
 20
2.290157480314961
 30
0.0
 10
0.5082677165354331
 20
2.290157480314961
 30
0.0
 10
0.5285748031496064
 20
2.291263779527559
 30
0.0
 10
0.5285748031496064
 20
2.291263779527559
 30
0.0
 10
0.5285748031496064
 20
2.291263779527559
 30
0.0
 10
0.5285748031496064
 20
2.291263779527559
 30
0.0
 10
0.5467874015748032
 20
2.290649606299213
 30
0.0
 10
0.5467874015748032
 20
2.290649606299213
 30
0.0
 10
0.5467874015748032
 20
2.290649606299213
 30
0.0
 10
0.5467874015748032
 20
2.290649606299213
 30
0.0
 10
0.5538110236220473
 20
1.53809842519685
 30
0.0
 10
0.5538110236220473
 20
1.53809842519685
 30
0.0
 10
0.5538110236220473
 20
1.53809842519685
 30
0.0
 10
0.5538110236220473
 20
1.53809842519685
 30
0.0
 10
0.5355984251968504
 20
1.538712598425197
 30
0.0
 10
0.5355984251968504
 20
1.538712598425197
 30
0.0
 10
0.5355984251968504
 20
1.538712598425197
 30
0.0
 10
0.5355984251968504
 20
1.538712598425197
 30
0.0
 10
0.5152913385826772
 20
1.537606299212599
 30
0.0
 10
0.5152913385826772
 20
1.537606299212599
 30
0.0
  0
SPLINE
  5
53
330
1F
100
AcDbEntity
  8
LAYER_1
 62
   252
100
AcDbSpline
210
0.0
220
0.0
230
1.0
 70
    11
 71
     3
 72
    36
 73
    32
 74
     0
 42
0.0000000001
 43
0.0000000001
 40
0.0
 40
0.0
 40
0.0
 40
0.0
 40
0.125
 40
0.125
 40
0.125
 40
0.125
 40
0.25
 40
0.25
 40
0.25
 40
0.25
 40
0.375
 40
0.375
 40
0.375
 40
0.375
 40
0.5
 40
0.5
 40
0.5
 40
0.5
 40
0.625
 40
0.625
 40
0.625
 40
0.625
 40
0.75
 40
0.75
 40
0.75
 40
0.75
 40
0.875
 40
0.875
 40
0.875
 40
0.875
 40
1.0
 40
1.0
 40
1.0
 40
1.0
 10
0.5538110236220473
 20
1.53809842519685
 30
0.0
 10
0.5538110236220473
 20
1.53809842519685
 30
0.0
 10
0.5467874015748032
 20
2.290649606299213
 30
0.0
 10
0.5467874015748032
 20
2.290649606299213
 30
0.0
 10
0.5467874015748032
 20
2.290649606299213
 30
0.0
 10
0.5467874015748032
 20
2.290649606299213
 30
0.0
 10
0.5630826771653543
 20
2.288444881889764
 30
0.0
 10
0.5630826771653543
 20
2.288444881889764
 30
0.0
 10
0.5630826771653543
 20
2.288444881889764
 30
0.0
 10
0.5630826771653543
 20
2.288444881889764
 30
0.0
 10
0.5776062992125984
 20
2.284755905511811
 30
0.0
 10
0.5776062992125984
 20
2.284755905511811
 30
0.0
 10
0.5776062992125984
 20
2.284755905511811
 30
0.0
 10
0.5776062992125984
 20
2.284755905511811
 30
0.0
 10
0.5905354330708662
 20
2.279712598425197
 30
0.0
 10
0.5905354330708662
 20
2.279712598425197
 30
0.0
 10
0.5905354330708662
 20
2.279712598425197
 30
0.0
 10
0.5905354330708662
 20
2.279712598425197
 30
0.0
 10
0.5975590551181103
 20
1.527161417322835
 30
0.0
 10
0.5975590551181103
 20
1.527161417322835
 30
0.0
 10
0.5975590551181103
 20
1.527161417322835
 30
0.0
 10
0.5975590551181103
 20
1.527161417322835
 30
0.0
 10
0.5846299212598426
 20
1.532204724409449
 30
0.0
 10
0.5846299212598426
 20
1.532204724409449
 30
0.0
 10
0.5846299212598426
 20
1.532204724409449
 30
0.0
 10
0.5846299212598426
 20
1.532204724409449
 30
0.0
 10
0.5701062992125985
 20
1.535893700787402
 30
0.0
 10
0.5701062992125985
 20
1.535893700787402
 30
0.0
 10
0.5701062992125985
 20
1.535893700787402
 30
0.0
 10
0.5701062992125985
 20
1.535893700787402
 30
0.0
 10
0.5538110236220473
 20
1.53809842519685
 30
0.0
 10
0.5538110236220473
 20
1.53809842519685
 30
0.0
  0
SPLINE
  5
54
330
1F
100
AcDbEntity
  8
LAYER_1
 62
   252
100
AcDbSpline
210
0.0
220
0.0
230
1.0
 70
    11
 71
     3
 72
    36
 73
    32
 74
     0
 42
0.0000000001
 43
0.0000000001
 40
0.0
 40
0.0
 40
0.0
 40
0.0
 40
0.125
 40
0.125
 40
0.125
 40
0.125
 40
0.25
 40
0.25
 40
0.25
 40
0.25
 40
0.375
 40
0.375
 40
0.375
 40
0.375
 40
0.5
 40
0.5
 40
0.5
 40
0.5
 40
0.625
 40
0.625
 40
0.625
 40
0.625
 40
0.75
 40
0.75
 40
0.75
 40
0.75
 40
0.875
 40
0.875
 40
0.875
 40
0.875
 40
1.0
 40
1.0
 40
1.0
 40
1.0
 10
0.5975590551181103
 20
1.527161417322835
 30
0.0
 10
0.5975590551181103
 20
1.527161417322835
 30
0.0
 10
0.5905354330708662
 20
2.279712598425197
 30
0.0
 10
0.5905354330708662
 20
2.279712598425197
 30
0.0
 10
0.5905354330708662
 20
2.279712598425197
 30
0.0
 10
0.5905354330708662
 20
2.279712598425197
 30
0.0
 10
0.6020196850393701
 20
2.273429133858268
 30
0.0
 10
0.6020196850393701
 20
2.273429133858268
 30
0.0
 10
0.6020196850393701
 20
2.273429133858268
 30
0.0
 10
0.6020196850393701
 20
2.273429133858268
 30
0.0
 10
0.6122322834645669
 20
2.266043307086614
 30
0.0
 10
0.6122322834645669
 20
2.266043307086614
 30
0.0
 10
0.6122322834645669
 20
2.266043307086614
 30
0.0
 10
0.6122322834645669
 20
2.266043307086614
 30
0.0
 10
0.6213267716535433
 20
2.257653543307087
 30
0.0
 10
0.6213267716535433
 20
2.257653543307087
 30
0.0
 10
0.6213267716535433
 20
2.257653543307087
 30
0.0
 10
0.6213267716535433
 20
2.257653543307087
 30
0.0
 10
0.6283503937007874
 20
1.505102362204724
 30
0.0
 10
0.6283503937007874
 20
1.505102362204724
 30
0.0
 10
0.6283503937007874
 20
1.505102362204724
 30
0.0
 10
0.6283503937007874
 20
1.505102362204724
 30
0.0
 10
0.6192559055118111
 20
1.513492125984252
 30
0.0
 10
0.6192559055118111
 20
1.513492125984252
 30
0.0
 10
0.6192559055118111
 20
1.513492125984252
 30
0.0
 10
0.6192559055118111
 20
1.513492125984252
 30
0.0
 10
0.6090433070866143
 20
1.520877952755906
 30
0.0
 10
0.6090433070866143
 20
1.520877952755906
 30
0.0
 10
0.6090433070866143
 20
1.520877952755906
 30
0.0
 10
0.6090433070866143
 20
1.520877952755906
 30
0.0
 10
0.5975590551181103
 20
1.527161417322835
 30
0.0
 10
0.5975590551181103
 20
1.527161417322835
 30
0.0
  0
SPLINE
  5
55
330
1F
100
AcDbEntity
  8
LAYER_1
 62
   252
100
AcDbSpline
210
0.0
220
0.0
230
1.0
 70
    11
 71
     3
 72
    36
 73
    32
 74
     0
 42
0.0000000001
 43
0.0000000001
 40
0.0
 40
0.0
 40
0.0
 40
0.0
 40
0.125
 40
0.125
 40
0.125
 40
0.125
 40
0.25
 40
0.25
 40
0.25
 40
0.25
 40
0.375
 40
0.375
 40
0.375
 40
0.375
 40
0.5
 40
0.5
 40
0.5
 40
0.5
 40
0.625
 40
0.625
 40
0.625
 40
0.625
 40
0.75
 40
0.75
 40
0.75
 40
0.75
 40
0.875
 40
0.875
 40
0.875
 40
0.875
 40
1.0
 40
1.0
 40
1.0
 40
1.0
 10
0.6283503937007874
 20
1.505102362204724
 30
0.0
 10
0.6283503937007874
 20
1.505102362204724
 30
0.0
 10
0.6213267716535433
 20
2.257653543307087
 30
0.0
 10
0.6213267716535433
 20
2.257653543307087
 30
0.0
 10
0.6213267716535433
 20
2.257653543307087
 30
0.0
 10
0.6213267716535433
 20
2.257653543307087
 30
0.0
 10
0.6294685039370079
 20
2.248393700787402
 30
0.0
 10
0.6294685039370079
 20
2.248393700787402
 30
0.0
 10
0.6294685039370079
 20
2.248393700787402
 30
0.0
 10
0.6294685039370079
 20
2.248393700787402
 30
0.0
 10
0.6368110236220472
 20
2.238374015748032
 30
0.0
 10
0.6368110236220472
 20
2.238374015748032
 30
0.0
 10
0.6368110236220472
 20
2.238374015748032
 30
0.0
 10
0.6368110236220472
 20
2.238374015748032
 30
0.0
 10
0.6435314960629922
 20
2.227732283464567
 30
0.0
 10
0.6435314960629922
 20
2.227732283464567
 30
0.0
 10
0.6435314960629922
 20
2.227732283464567
 30
0.0
 10
0.6435314960629922
 20
2.227732283464567
 30
0.0
 10
0.6505551181102363
 20
1.475181102362205
 30
0.0
 10
0.6505551181102363
 20
1.475181102362205
 30
0.0
 10
0.6505551181102363
 20
1.475181102362205
 30
0.0
 10
0.6505551181102363
 20
1.475181102362205
 30
0.0
 10
0.6438346456692914
 20
1.485822834645669
 30
0.0
 10
0.6438346456692914
 20
1.485822834645669
 30
0.0
 10
0.6438346456692914
 20
1.485822834645669
 30
0.0
 10
0.6438346456692914
 20
1.485822834645669
 30
0.0
 10
0.636492125984252
 20
1.495842519685039
 30
0.0
 10
0.636492125984252
 20
1.495842519685039
 30
0.0
 10
0.636492125984252
 20
1.495842519685039
 30
0.0
 10
0.636492125984252
 20
1.495842519685039
 30
0.0
 10
0.6283503937007874
 20
1.505102362204724
 30
0.0
 10
0.6283503937007874
 20
1.505102362204724
 30
0.0
  0
SPLINE
  5
56
330
1F
100
AcDbEntity
  8
LAYER_1
 62
   252
100
AcDbSpline
210
0.0
220
0.0
230
1.0
 70
    11
 71
     3
 72
    36
 73
    32
 74
     0
 42
0.0000000001
 43
0.0000000001
 40
0.0
 40
0.0
 40
0.0
 40
0.0
 40
0.125
 40
0.125
 40
0.125
 40
0.125
 40
0.25
 40
0.25
 40
0.25
 40
0.25
 40
0.375
 40
0.375
 40
0.375
 40
0.375
 40
0.5
 40
0.5
 40
0.5
 40
0.5
 40
0.625
 40
0.625
 40
0.625
 40
0.625
 40
0.75
 40
0.75
 40
0.75
 40
0.75
 40
0.875
 40
0.875
 40
0.875
 40
0.875
 40
1.0
 40
1.0
 40
1.0
 40
1.0
 10
0.6505551181102363
 20
1.475181102362205
 30
0.0
 10
0.6505551181102363
 20
1.475181102362205
 30
0.0
 10
0.6435314960629922
 20
2.227732283464567
 30
0.0
 10
0.6435314960629922
 20
2.227732283464567
 30
0.0
 10
0.6435314960629922
 20
2.227732283464567
 30
0.0
 10
0.6435314960629922
 20
2.227732283464567
 30
0.0
 10
0.6497795275590551
 20
2.216570866141733
 30
0.0
 10
0.6497795275590551
 20
2.216570866141733
 30
0.0
 10
0.6497795275590551
 20
2.216570866141733
 30
0.0
 10
0.6497795275590551
 20
2.216570866141733
 30
0.0
 10
0.6557244094488189
 20
2.205023622047244
 30
0.0
 10
0.6557244094488189
 20
2.205023622047244
 30
0.0
 10
0.6557244094488189
 20
2.205023622047244
 30
0.0
 10
0.6557244094488189
 20
2.205023622047244
 30
0.0
 10
0.661515748031496
 20
2.193200787401575
 30
0.0
 10
0.661515748031496
 20
2.193200787401575
 30
0.0
 10
0.661515748031496
 20
2.193200787401575
 30
0.0
 10
0.661515748031496
 20
2.193200787401575
 30
0.0
 10
0.6685393700787402
 20
1.440649606299213
 30
0.0
 10
0.6685393700787402
 20
1.440649606299213
 30
0.0
 10
0.6685393700787402
 20
1.440649606299213
 30
0.0
 10
0.6685393700787402
 20
1.440649606299213
 30
0.0
 10
0.662748031496063
 20
1.452472440944882
 30
0.0
 10
0.662748031496063
 20
1.452472440944882
 30
0.0
 10
0.662748031496063
 20
1.452472440944882
 30
0.0
 10
0.662748031496063
 20
1.452472440944882
 30
0.0
 10
0.6568031496062993
 20
1.46401968503937
 30
0.0
 10
0.6568031496062993
 20
1.46401968503937
 30
0.0
 10
0.6568031496062993
 20
1.46401968503937
 30
0.0
 10
0.6568031496062993
 20
1.46401968503937
 30
0.0
 10
0.6505551181102363
 20
1.475181102362205
 30
0.0
 10
0.6505551181102363
 20
1.475181102362205
 30
0.0
  0
SPLINE
  5
57
330
1F
100
AcDbEntity
  8
LAYER_1
 62
   252
100
AcDbSpline
210
0.0
220
0.0
230
1.0
 70
    11
 71
     3
 72
    36
 73
    32
 74
     0
 42
0.0000000001
 43
0.0000000001
 40
0.0
 40
0.0
 40
0.0
 40
0.0
 40
0.125
 40
0.125
 40
0.125
 40
0.125
 40
0.25
 40
0.25
 40
0.25
 40
0.25
 40
0.375
 40
0.375
 40
0.375
 40
0.375
 40
0.5
 40
0.5
 40
0.5
 40
0.5
 40
0.625
 40
0.625
 40
0.625
 40
0.625
 40
0.75
 40
0.75
 40
0.75
 40
0.75
 40
0.875
 40
0.875
 40
0.875
 40
0.875
 40
1.0
 40
1.0
 40
1.0
 40
1.0
 10
0.6685393700787402
 20
1.440649606299213
 30
0.0
 10
0.6685393700787402
 20
1.440649606299213
 30
0.0
 10
0.661515748031496
 20
2.193200787401575
 30
0.0
 10
0.661515748031496
 20
2.193200787401575
 30
0.0
 10
0.661515748031496
 20
2.193200787401575
 30
0.0
 10
0.661515748031496
 20
2.193200787401575
 30
0.0
 10
0.6673346456692914
 20
2.181236220472441
 30
0.0
 10
0.6673346456692914
 20
2.181236220472441
 30
0.0
 10
0.6673346456692914
 20
2.181236220472441
 30
0.0
 10
0.6673346456692914
 20
2.181236220472441
 30
0.0
 10
0.6733307086614173
 20
2.169236220472441
 30
0.0
 10
0.6733307086614173
 20
2.169236220472441
 30
0.0
 10
0.6733307086614173
 20
2.169236220472441
 30
0.0
 10
0.6733307086614173
 20
2.169236220472441
 30
0.0
 10
0.6796732283464567
 20
2.157334645669292
 30
0.0
 10
0.6796732283464567
 20
2.157334645669292
 30
0.0
 10
0.6796732283464567
 20
2.157334645669292
 30
0.0
 10
0.6796732283464567
 20
2.157334645669292
 30
0.0
 10
0.6866968503937008
 20
1.404783464566929
 30
0.0
 10
0.6866968503937008
 20
1.404783464566929
 30
0.0
 10
0.6866968503937008
 20
1.404783464566929
 30
0.0
 10
0.6866968503937008
 20
1.404783464566929
 30
0.0
 10
0.6803543307086615
 20
1.416685039370079
 30
0.0
 10
0.6803543307086615
 20
1.416685039370079
 30
0.0
 10
0.6803543307086615
 20
1.416685039370079
 30
0.0
 10
0.6803543307086615
 20
1.416685039370079
 30
0.0
 10
0.6743582677165355
 20
1.428685039370079
 30
0.0
 10
0.6743582677165355
 20
1.428685039370079
 30
0.0
 10
0.6743582677165355
 20
1.428685039370079
 30
0.0
 10
0.6743582677165355
 20
1.428685039370079
 30
0.0
 10
0.6685393700787402
 20
1.440649606299213
 30
0.0
 10
0.6685393700787402
 20
1.440649606299213
 30
0.0
  0
SPLINE
  5
58
330
1F
100
AcDbEntity
  8
LAYER_1
 62
   252
100
AcDbSpline
210
0.0
220
0.0
230
1.0
 70
    11
 71
     3
 72
    36
 73
    32
 74
     0
 42
0.0000000001
 43
0.0000000001
 40
0.0
 40
0.0
 40
0.0
 40
0.0
 40
0.125
 40
0.125
 40
0.125
 40
0.125
 40
0.25
 40
0.25
 40
0.25
 40
0.25
 40
0.375
 40
0.375
 40
0.375
 40
0.375
 40
0.5
 40
0.5
 40
0.5
 40
0.5
 40
0.625
 40
0.625
 40
0.625
 40
0.625
 40
0.75
 40
0.75
 40
0.75
 40
0.75
 40
0.875
 40
0.875
 40
0.875
 40
0.875
 40
1.0
 40
1.0
 40
1.0
 40
1.0
 10
0.6866968503937008
 20
1.404783464566929
 30
0.0
 10
0.6866968503937008
 20
1.404783464566929
 30
0.0
 10
0.6796732283464567
 20
2.157334645669292
 30
0.0
 10
0.6796732283464567
 20
2.157334645669292
 30
0.0
 10
0.6796732283464567
 20
2.157334645669292
 30
0.0
 10
0.6796732283464567
 20
2.157334645669292
 30
0.0
 10
0.686511811023622
 20
2.145637795275591
 30
0.0
 10
0.686511811023622
 20
2.145637795275591
 30
0.0
 10
0.686511811023622
 20
2.145637795275591
 30
0.0
 10
0.686511811023622
 20
2.145637795275591
 30
0.0
 10
0.6940236220472441
 20
2.134283464566929
 30
0.0
 10
0.6940236220472441
 20
2.134283464566929
 30
0.0
 10
0.6940236220472441
 20
2.134283464566929
 30
0.0
 10
0.6940236220472441
 20
2.134283464566929
 30
0.0
 10
0.7023543307086615
 20
2.123370078740158
 30
0.0
 10
0.7023543307086615
 20
2.123370078740158
 30
0.0
 10
0.7023543307086615
 20
2.123370078740158
 30
0.0
 10
0.7023543307086615
 20
2.123370078740158
 30
0.0
 10
0.7093779527559055
 20
1.370818897637795
 30
0.0
 10
0.7093779527559055
 20
1.370818897637795
 30
0.0
 10
0.7093779527559055
 20
1.370818897637795
 30
0.0
 10
0.7093779527559055
 20
1.370818897637795
 30
0.0
 10
0.7010472440944883
 20
1.381732283464567
 30
0.0
 10
0.7010472440944883
 20
1.381732283464567
 30
0.0
 10
0.7010472440944883
 20
1.381732283464567
 30
0.0
 10
0.7010472440944883
 20
1.381732283464567
 30
0.0
 10
0.6935354330708662
 20
1.393086614173228
 30
0.0
 10
0.6935354330708662
 20
1.393086614173228
 30
0.0
 10
0.6935354330708662
 20
1.393086614173228
 30
0.0
 10
0.6935354330708662
 20
1.393086614173228
 30
0.0
 10
0.6866968503937008
 20
1.404783464566929
 30
0.0
 10
0.6866968503937008
 20
1.404783464566929
 30
0.0
  0
SPLINE
  5
59
330
1F
100
AcDbEntity
  8
LAYER_1
 62
   252
100
AcDbSpline
210
0.0
220
0.0
230
1.0
 70
    11
 71
     3
 72
    36
 73
    32
 74
     0
 42
0.0000000001
 43
0.0000000001
 40
0.0
 40
0.0
 40
0.0
 40
0.0
 40
0.125
 40
0.125
 40
0.125
 40
0.125
 40
0.25
 40
0.25
 40
0.25
 40
0.25
 40
0.375
 40
0.375
 40
0.375
 40
0.375
 40
0.5
 40
0.5
 40
0.5
 40
0.5
 40
0.625
 40
0.625
 40
0.625
 40
0.625
 40
0.75
 40
0.75
 40
0.75
 40
0.75
 40
0.875
 40
0.875
 40
0.875
 40
0.875
 40
1.0
 40
1.0
 40
1.0
 40
1.0
 10
0.7093779527559055
 20
1.370818897637795
 30
0.0
 10
0.7093779527559055
 20
1.370818897637795
 30
0.0
 10
0.7023543307086615
 20
2.123370078740158
 30
0.0
 10
0.7023543307086615
 20
2.123370078740158
 30
0.0
 10
0.7023543307086615
 20
2.123370078740158
 30
0.0
 10
0.7023543307086615
 20
2.123370078740158
 30
0.0
 10
0.7116771653543308
 20
2.113035433070866
 30
0.0
 10
0.7116771653543308
 20
2.113035433070866
 30
0.0
 10
0.7116771653543308
 20
2.113035433070866
 30
0.0
 10
0.7116771653543308
 20
2.113035433070866
 30
0.0
 10
0.7221456692913386
 20
2.103389763779528
 30
0.0
 10
0.7221456692913386
 20
2.103389763779528
 30
0.0
 10
0.7221456692913386
 20
2.103389763779528
 30
0.0
 10
0.7221456692913386
 20
2.103389763779528
 30
0.0
 10
0.7339370078740157
 20
2.094566929133858
 30
0.0
 10
0.7339370078740157
 20
2.094566929133858
 30
0.0
 10
0.7339370078740157
 20
2.094566929133858
 30
0.0
 10
0.7339370078740157
 20
2.094566929133858
 30
0.0
 10
0.7409606299212599
 20
1.342015748031496
 30
0.0
 10
0.7409606299212599
 20
1.342015748031496
 30
0.0
 10
0.7409606299212599
 20
1.342015748031496
 30
0.0
 10
0.7409606299212599
 20
1.342015748031496
 30
0.0
 10
0.7291692913385827
 20
1.350838582677165
 30
0.0
 10
0.7291692913385827
 20
1.350838582677165
 30
0.0
 10
0.7291692913385827
 20
1.350838582677165
 30
0.0
 10
0.7291692913385827
 20
1.350838582677165
 30
0.0
 10
0.7187007874015748
 20
1.360484251968504
 30
0.0
 10
0.7187007874015748
 20
1.360484251968504
 30
0.0
 10
0.7187007874015748
 20
1.360484251968504
 30
0.0
 10
0.7187007874015748
 20
1.360484251968504
 30
0.0
 10
0.7093779527559055
 20
1.370818897637795
 30
0.0
 10
0.7093779527559055
 20
1.370818897637795
 30
0.0
  0
SPLINE
  5
5A
330
1F
100
AcDbEntity
  8
LAYER_1
 62
   252
100
AcDbSpline
210
0.0
220
0.0
230
1.0
 70
    11
 71
     3
 72
    36
 73
    32
 74
     0
 42
0.0000000001
 43
0.0000000001
 40
0.0
 40
0.0
 40
0.0
 40
0.0
 40
0.125
 40
0.125
 40
0.125
 40
0.125
 40
0.25
 40
0.25
 40
0.25
 40
0.25
 40
0.375
 40
0.375
 40
0.375
 40
0.375
 40
0.5
 40
0.5
 40
0.5
 40
0.5
 40
0.625
 40
0.625
 40
0.625
 40
0.625
 40
0.75
 40
0.75
 40
0.75
 40
0.75
 40
0.875
 40
0.875
 40
0.875
 40
0.875
 40
1.0
 40
1.0
 40
1.0
 40
1.0
 10
0.7409606299212599
 20
1.342015748031496
 30
0.0
 10
0.7409606299212599
 20
1.342015748031496
 30
0.0
 10
0.7339370078740157
 20
2.094566929133858
 30
0.0
 10
0.7339370078740157
 20
2.094566929133858
 30
0.0
 10
0.7339370078740157
 20
2.094566929133858
 30
0.0
 10
0.7339370078740157
 20
2.094566929133858
 30
0.0
 10
0.7471968503937008
 20
2.086677165354331
 30
0.0
 10
0.7471968503937008
 20
2.086677165354331
 30
0.0
 10
0.7471968503937008
 20
2.086677165354331
 30
0.0
 10
0.7471968503937008
 20
2.086677165354331
 30
0.0
 10
0.7620984251968505
 20
2.079846456692914
 30
0.0
 10
0.7620984251968505
 20
2.079846456692914
 30
0.0
 10
0.7620984251968505
 20
2.079846456692914
 30
0.0
 10
0.7620984251968505
 20
2.079846456692914
 30
0.0
 10
0.7787913385826772
 20
2.074185039370079
 30
0.0
 10
0.7787913385826772
 20
2.074185039370079
 30
0.0
 10
0.7787913385826772
 20
2.074185039370079
 30
0.0
 10
0.7787913385826772
 20
2.074185039370079
 30
0.0
 10
0.7858149606299213
 20
1.321633858267717
 30
0.0
 10
0.7858149606299213
 20
1.321633858267717
 30
0.0
 10
0.7858149606299213
 20
1.321633858267717
 30
0.0
 10
0.7858149606299213
 20
1.321633858267717
 30
0.0
 10
0.7691220472440945
 20
1.327295275590551
 30
0.0
 10
0.7691220472440945
 20
1.327295275590551
 30
0.0
 10
0.7691220472440945
 20
1.327295275590551
 30
0.0
 10
0.7691220472440945
 20
1.327295275590551
 30
0.0
 10
0.7542204724409449
 20
1.334125984251969
 30
0.0
 10
0.7542204724409449
 20
1.334125984251969
 30
0.0
 10
0.7542204724409449
 20
1.334125984251969
 30
0.0
 10
0.7542204724409449
 20
1.334125984251969
 30
0.0
 10
0.7409606299212599
 20
1.342015748031496
 30
0.0
 10
0.7409606299212599
 20
1.342015748031496
 30
0.0
  0
SPLINE
  5
5B
330
1F
100
AcDbEntity
  8
LAYER_1
 62
   252
100
AcDbSpline
210
0.0
220
0.0
230
1.0
 70
    11
 71
     3
 72
    28
 73
    24
 74
     0
 42
0.0000000001
 43
0.0000000001
 40
0.0
 40
0.0
 40
0.0
 40
0.0
 40
0.1666666666666667
 40
0.1666666666666667
 40
0.1666666666666667
 40
0.1666666666666667
 40
0.3333333333333333
 40
0.3333333333333333
 40
0.3333333333333333
 40
0.3333333333333333
 40
0.5
 40
0.5
 40
0.5
 40
0.5
 40
0.6666666666666666
 40
0.6666666666666666
 40
0.6666666666666666
 40
0.6666666666666666
 40
0.8333333333333333
 40
0.8333333333333333
 40
0.8333333333333333
 40
0.8333333333333333
 40
1.0
 40
1.0
 40
1.0
 40
1.0
 10
0.7858149606299213
 20
1.321633858267717
 30
0.0
 10
0.7858149606299213
 20
1.321633858267717
 30
0.0
 10
0.7787913385826772
 20
2.074185039370079
 30
0.0
 10
0.7787913385826772
 20
2.074185039370079
 30
0.0
 10
0.7787913385826772
 20
2.074185039370079
 30
0.0
 10
0.7787913385826772
 20
2.074185039370079
 30
0.0
 10
0.7974527559055118
 20
2.069830708661418
 30
0.0
 10
0.7974527559055118
 20
2.069830708661418
 30
0.0
 10
0.7974527559055118
 20
2.069830708661418
 30
0.0
 10
0.7974527559055118
 20
2.069830708661418
 30
0.0
 10
0.818232283464567
 20
2.066885826771653
 30
0.0
 10
0.818232283464567
 20
2.066885826771653
 30
0.0
 10
0.818232283464567
 20
2.066885826771653
 30
0.0
 10
0.818232283464567
 20
2.066885826771653
 30
0.0
 10
0.8252559055118111
 20
1.314334645669292
 30
0.0
 10
0.8252559055118111
 20
1.314334645669292
 30
0.0
 10
0.8252559055118111
 20
1.314334645669292
 30
0.0
 10
0.8252559055118111
 20
1.314334645669292
 30
0.0
 10
0.804476377952756
 20
1.317279527559055
 30
0.0
 10
0.804476377952756
 20
1.317279527559055
 30
0.0
 10
0.804476377952756
 20
1.317279527559055
 30
0.0
 10
0.804476377952756
 20
1.317279527559055
 30
0.0
 10
0.7858149606299213
 20
1.321633858267717
 30
0.0
 10
0.7858149606299213
 20
1.321633858267717
 30
0.0
  0
SPLINE
  5
5C
330
1F
100
AcDbEntity
  8
LAYER_1
 62
   252
100
AcDbSpline
210
0.0
220
0.0
230
1.0
 70
    11
 71
     3
 72
    28
 73
    24
 74
     0
 42
0.0000000001
 43
0.0000000001
 40
0.0
 40
0.0
 40
0.0
 40
0.0
 40
0.1666666666666667
 40
0.1666666666666667
 40
0.1666666666666667
 40
0.1666666666666667
 40
0.3333333333333333
 40
0.3333333333333333
 40
0.3333333333333333
 40
0.3333333333333333
 40
0.5
 40
0.5
 40
0.5
 40
0.5
 40
0.6666666666666666
 40
0.6666666666666666
 40
0.6666666666666666
 40
0.6666666666666666
 40
0.8333333333333333
 40
0.8333333333333333
 40
0.8333333333333333
 40
0.8333333333333333
 40
1.0
 40
1.0
 40
1.0
 40
1.0
 10
0.8252559055118111
 20
1.314334645669292
 30
0.0
 10
0.8252559055118111
 20
1.314334645669292
 30
0.0
 10
0.818232283464567
 20
2.066885826771653
 30
0.0
 10
0.818232283464567
 20
2.066885826771653
 30
0.0
 10
0.818232283464567
 20
2.066885826771653
 30
0.0
 10
0.818232283464567
 20
2.066885826771653
 30
0.0
 10
0.8412952755905512
 20
2.065488188976378
 30
0.0
 10
0.8412952755905512
 20
2.065488188976378
 30
0.0
 10
0.8412952755905512
 20
2.065488188976378
 30
0.0
 10
0.8412952755905512
 20
2.065488188976378
 30
0.0
 10
0.8668031496062992
 20
2.065740157480315
 30
0.0
 10
0.8668031496062992
 20
2.065740157480315
 30
0.0
 10
0.8668031496062992
 20
2.065740157480315
 30
0.0
 10
0.8668031496062992
 20
2.065740157480315
 30
0.0
 10
0.8738267716535434
 20
1.313188976377953
 30
0.0
 10
0.8738267716535434
 20
1.313188976377953
 30
0.0
 10
0.8738267716535434
 20
1.313188976377953
 30
0.0
 10
0.8738267716535434
 20
1.313188976377953
 30
0.0
 10
0.8483188976377953
 20
1.312937007874016
 30
0.0
 10
0.8483188976377953
 20
1.312937007874016
 30
0.0
 10
0.8483188976377953
 20
1.312937007874016
 30
0.0
 10
0.8483188976377953
 20
1.312937007874016
 30
0.0
 10
0.8252559055118111
 20
1.314334645669292
 30
0.0
 10
0.8252559055118111
 20
1.314334645669292
 30
0.0
  0
SPLINE
  5
5D
330
1F
100
AcDbEntity
  8
LAYER_1
 62
   250
100
AcDbSpline
210
0.0
220
0.0
230
1.0
 70
    11
 71
     3
 72
   268
 73
   264
 74
     0
 42
0.0000000001
 43
0.0000000001
 40
0.0
 40
0.0
 40
0.0
 40
0.0
 40
0.0151515151515152
 40
0.0151515151515152
 40
0.0151515151515152
 40
0.0151515151515152
 40
0.0303030303030303
 40
0.0303030303030303
 40
0.0303030303030303
 40
0.0303030303030303
 40
0.0454545454545455
 40
0.0454545454545455
 40
0.0454545454545455
 40
0.0454545454545455
 40
0.0606060606060606
 40
0.0606060606060606
 40
0.0606060606060606
 40
0.0606060606060606
 40
0.0757575757575758
 40
0.0757575757575758
 40
0.0757575757575758
 40
0.0757575757575758
 40
0.0909090909090909
 40
0.0909090909090909
 40
0.0909090909090909
 40
0.0909090909090909
 40
0.1060606060606061
 40
0.1060606060606061
 40
0.1060606060606061
 40
0.1060606060606061
 40
0.1212121212121212
 40
0.1212121212121212
 40
0.1212121212121212
 40
0.1212121212121212
 40
0.1363636363636364
 40
0.1363636363636364
 40
0.1363636363636364
 40
0.1363636363636364
 40
0.1515151515151515
 40
0.1515151515151515
 40
0.1515151515151515
 40
0.1515151515151515
 40
0.1666666666666666
 40
0.1666666666666666
 40
0.1666666666666666
 40
0.1666666666666666
 40
0.1818181818181818
 40
0.1818181818181818
 40
0.1818181818181818
 40
0.1818181818181818
 40
0.1969696969696969
 40
0.1969696969696969
 40
0.1969696969696969
 40
0.1969696969696969
 40
0.212121212121212
 40
0.212121212121212
 40
0.212121212121212
 40
0.212121212121212
 40
0.2272727272727272
 40
0.2272727272727272
 40
0.2272727272727272
 40
0.2272727272727272
 40
0.2424242424242423
 40
0.2424242424242423
 40
0.2424242424242423
 40
0.2424242424242423
 40
0.2575757575757575
 40
0.2575757575757575
 40
0.2575757575757575
 40
0.2575757575757575
 40
0.2727272727272726
 40
0.2727272727272726
 40
0.2727272727272726
 40
0.2727272727272726
 40
0.2878787878787877
 40
0.2878787878787877
 40
0.2878787878787877
 40
0.2878787878787877
 40
0.3030303030303029
 40
0.3030303030303029
 40
0.3030303030303029
 40
0.3030303030303029
 40
0.318181818181818
 40
0.318181818181818
 40
0.318181818181818
 40
0.318181818181818
 40
0.3333333333333332
 40
0.3333333333333332
 40
0.3333333333333332
 40
0.3333333333333332
 40
0.3484848484848483
 40
0.3484848484848483
 40
0.3484848484848483
 40
0.3484848484848483
 40
0.3636363636363634
 40
0.3636363636363634
 40
0.3636363636363634
 40
0.3636363636363634
 40
0.3787878787878786
 40
0.3787878787878786
 40
0.3787878787878786
 40
0.3787878787878786
 40
0.3939393939393937
 40
0.3939393939393937
 40
0.3939393939393937
 40
0.3939393939393937
 40
0.4090909090909088
 40
0.4090909090909088
 40
0.4090909090909088
 40
0.4090909090909088
 40
0.424242424242424
 40
0.424242424242424
 40
0.424242424242424
 40
0.424242424242424
 40
0.4393939393939391
 40
0.4393939393939391
 40
0.4393939393939391
 40
0.4393939393939391
 40
0.4545454545454543
 40
0.4545454545454543
 40
0.4545454545454543
 40
0.4545454545454543
 40
0.4696969696969694
 40
0.4696969696969694
 40
0.4696969696969694
 40
0.4696969696969694
 40
0.4848484848484845
 40
0.4848484848484845
 40
0.4848484848484845
 40
0.4848484848484845
 40
0.4999999999999997
 40
0.4999999999999997
 40
0.4999999999999997
 40
0.4999999999999997
 40
0.5151515151515148
 40
0.5151515151515148
 40
0.5151515151515148
 40
0.5151515151515148
 40
0.5303030303030299
 40
0.5303030303030299
 40
0.5303030303030299
 40
0.5303030303030299
 40
0.5454545454545451
 40
0.5454545454545451
 40
0.5454545454545451
 40
0.5454545454545451
 40
0.5606060606060602
 40
0.5606060606060602
 40
0.5606060606060602
 40
0.5606060606060602
 40
0.5757575757575754
 40
0.5757575757575754
 40
0.5757575757575754
 40
0.5757575757575754
 40
0.5909090909090905
 40
0.5909090909090905
 40
0.5909090909090905
 40
0.5909090909090905
 40
0.6060606060606056
 40
0.6060606060606056
 40
0.6060606060606056
 40
0.6060606060606056
 40
0.6212121212121208
 40
0.6212121212121208
 40
0.6212121212121208
 40
0.6212121212121208
 40
0.6363636363636359
 40
0.6363636363636359
 40
0.6363636363636359
 40
0.6363636363636359
 40
0.6515151515151511
 40
0.6515151515151511
 40
0.6515151515151511
 40
0.6515151515151511
 40
0.6666666666666662
 40
0.6666666666666662
 40
0.6666666666666662
 40
0.6666666666666662
 40
0.6818181818181813
 40
0.6818181818181813
 40
0.6818181818181813
 40
0.6818181818181813
 40
0.6969696969696965
 40
0.6969696969696965
 40
0.6969696969696965
 40
0.6969696969696965
 40
0.7121212121212116
 40
0.7121212121212116
 40
0.7121212121212116
 40
0.7121212121212116
 40
0.7272727272727267
 40
0.7272727272727267
 40
0.7272727272727267
 40
0.7272727272727267
 40
0.7424242424242419
 40
0.7424242424242419
 40
0.7424242424242419
 40
0.7424242424242419
 40
0.757575757575757
 40
0.757575757575757
 40
0.757575757575757
 40
0.757575757575757
 40
0.7727272727272722
 40
0.7727272727272722
 40
0.7727272727272722
 40
0.7727272727272722
 40
0.7878787878787873
 40
0.7878787878787873
 40
0.7878787878787873
 40
0.7878787878787873
 40
0.8030303030303024
 40
0.8030303030303024
 40
0.8030303030303024
 40
0.8030303030303024
 40
0.8181818181818176
 40
0.8181818181818176
 40
0.8181818181818176
 40
0.8181818181818176
 40
0.8333333333333327
 40
0.8333333333333327
 40
0.8333333333333327
 40
0.8333333333333327
 40
0.8484848484848478
 40
0.8484848484848478
 40
0.8484848484848478
 40
0.8484848484848478
 40
0.863636363636363
 40
0.863636363636363
 40
0.863636363636363
 40
0.863636363636363
 40
0.8787878787878781
 40
0.8787878787878781
 40
0.8787878787878781
 40
0.8787878787878781
 40
0.8939393939393933
 40
0.8939393939393933
 40
0.8939393939393933
 40
0.8939393939393933
 40
0.9090909090909084
 40
0.9090909090909084
 40
0.9090909090909084
 40
0.9090909090909084
 40
0.9242424242424235
 40
0.9242424242424235
 40
0.9242424242424235
 40
0.9242424242424235
 40
0.9393939393939387
 40
0.9393939393939387
 40
0.9393939393939387
 40
0.9393939393939387
 40
0.9545454545454538
 40
0.9545454545454538
 40
0.9545454545454538
 40
0.9545454545454538
 40
0.969696969696969
 40
0.969696969696969
 40
0.969696969696969
 40
0.969696969696969
 40
0.9848484848484841
 40
0.9848484848484841
 40
0.9848484848484841
 40
0.9848484848484841
 40
1.0
 40
1.0
 40
1.0
 40
1.0
 10
0.4677637795275591
 20
1.529755905511811
 30
0.0
 10
0.4677637795275591
 20
1.529755905511811
 30
0.0
 10
0.460740157480315
 20
2.282307086614174
 30
0.0
 10
0.460740157480315
 20
2.282307086614174
 30
0.0
 10
0.460740157480315
 20
2.282307086614174
 30
0.0
 10
0.460740157480315
 20
2.282307086614174
 30
0.0
 10
0.4857125984251969
 20
2.287216535433071
 30
0.0
 10
0.4857125984251969
 20
2.287216535433071
 30
0.0
 10
0.4857125984251969
 20
2.287216535433071
 30
0.0
 10
0.4857125984251969
 20
2.287216535433071
 30
0.0
 10
0.5082677165354331
 20
2.290157480314961
 30
0.0
 10
0.5082677165354331
 20
2.290157480314961
 30
0.0
 10
0.5082677165354331
 20
2.290157480314961
 30
0.0
 10
0.5082677165354331
 20
2.290157480314961
 30
0.0
 10
0.5285748031496064
 20
2.291263779527559
 30
0.0
 10
0.5285748031496064
 20
2.291263779527559
 30
0.0
 10
0.5285748031496064
 20
2.291263779527559
 30
0.0
 10
0.5285748031496064
 20
2.291263779527559
 30
0.0
 10
0.5467874015748032
 20
2.290649606299213
 30
0.0
 10
0.5467874015748032
 20
2.290649606299213
 30
0.0
 10
0.5467874015748032
 20
2.290649606299213
 30
0.0
 10
0.5467874015748032
 20
2.290649606299213
 30
0.0
 10
0.5630826771653543
 20
2.288444881889764
 30
0.0
 10
0.5630826771653543
 20
2.288444881889764
 30
0.0
 10
0.5630826771653543
 20
2.288444881889764
 30
0.0
 10
0.5630826771653543
 20
2.288444881889764
 30
0.0
 10
0.5776062992125984
 20
2.284755905511811
 30
0.0
 10
0.5776062992125984
 20
2.284755905511811
 30
0.0
 10
0.5776062992125984
 20
2.284755905511811
 30
0.0
 10
0.5776062992125984
 20
2.284755905511811
 30
0.0
 10
0.5905354330708662
 20
2.279712598425197
 30
0.0
 10
0.5905354330708662
 20
2.279712598425197
 30
0.0
 10
0.5905354330708662
 20
2.279712598425197
 30
0.0
 10
0.5905354330708662
 20
2.279712598425197
 30
0.0
 10
0.6020196850393701
 20
2.273429133858268
 30
0.0
 10
0.6020196850393701
 20
2.273429133858268
 30
0.0
 10
0.6020196850393701
 20
2.273429133858268
 30
0.0
 10
0.6020196850393701
 20
2.273429133858268
 30
0.0
 10
0.6122322834645669
 20
2.266043307086614
 30
0.0
 10
0.6122322834645669
 20
2.266043307086614
 30
0.0
 10
0.6122322834645669
 20
2.266043307086614
 30
0.0
 10
0.6122322834645669
 20
2.266043307086614
 30
0.0
 10
0.6213267716535433
 20
2.257653543307087
 30
0.0
 10
0.6213267716535433
 20
2.257653543307087
 30
0.0
 10
0.6213267716535433
 20
2.257653543307087
 30
0.0
 10
0.6213267716535433
 20
2.257653543307087
 30
0.0
 10
0.6294685039370079
 20
2.248393700787402
 30
0.0
 10
0.6294685039370079
 20
2.248393700787402
 30
0.0
 10
0.6294685039370079
 20
2.248393700787402
 30
0.0
 10
0.6294685039370079
 20
2.248393700787402
 30
0.0
 10
0.6368110236220472
 20
2.238374015748032
 30
0.0
 10
0.6368110236220472
 20
2.238374015748032
 30
0.0
 10
0.6368110236220472
 20
2.238374015748032
 30
0.0
 10
0.6368110236220472
 20
2.238374015748032
 30
0.0
 10
0.6435314960629922
 20
2.227732283464567
 30
0.0
 10
0.6435314960629922
 20
2.227732283464567
 30
0.0
 10
0.6435314960629922
 20
2.227732283464567
 30
0.0
 10
0.6435314960629922
 20
2.227732283464567
 30
0.0
 10
0.6497795275590551
 20
2.216570866141733
 30
0.0
 10
0.6497795275590551
 20
2.216570866141733
 30
0.0
 10
0.6497795275590551
 20
2.216570866141733
 30
0.0
 10
0.6497795275590551
 20
2.216570866141733
 30
0.0
 10
0.6557244094488189
 20
2.205023622047244
 30
0.0
 10
0.6557244094488189
 20
2.205023622047244
 30
0.0
 10
0.6557244094488189
 20
2.205023622047244
 30
0.0
 10
0.6557244094488189
 20
2.205023622047244
 30
0.0
 10
0.661515748031496
 20
2.193200787401575
 30
0.0
 10
0.661515748031496
 20
2.193200787401575
 30
0.0
 10
0.661515748031496
 20
2.193200787401575
 30
0.0
 10
0.661515748031496
 20
2.193200787401575
 30
0.0
 10
0.6673346456692914
 20
2.181236220472441
 30
0.0
 10
0.6673346456692914
 20
2.181236220472441
 30
0.0
 10
0.6673346456692914
 20
2.181236220472441
 30
0.0
 10
0.6673346456692914
 20
2.181236220472441
 30
0.0
 10
0.6733307086614173
 20
2.169236220472441
 30
0.0
 10
0.6733307086614173
 20
2.169236220472441
 30
0.0
 10
0.6733307086614173
 20
2.169236220472441
 30
0.0
 10
0.6733307086614173
 20
2.169236220472441
 30
0.0
 10
0.6796732283464567
 20
2.157334645669292
 30
0.0
 10
0.6796732283464567
 20
2.157334645669292
 30
0.0
 10
0.6796732283464567
 20
2.157334645669292
 30
0.0
 10
0.6796732283464567
 20
2.157334645669292
 30
0.0
 10
0.686511811023622
 20
2.145637795275591
 30
0.0
 10
0.686511811023622
 20
2.145637795275591
 30
0.0
 10
0.686511811023622
 20
2.145637795275591
 30
0.0
 10
0.686511811023622
 20
2.145637795275591
 30
0.0
 10
0.6940236220472441
 20
2.134283464566929
 30
0.0
 10
0.6940236220472441
 20
2.134283464566929
 30
0.0
 10
0.6940236220472441
 20
2.134283464566929
 30
0.0
 10
0.6940236220472441
 20
2.134283464566929
 30
0.0
 10
0.7023543307086615
 20
2.123370078740158
 30
0.0
 10
0.7023543307086615
 20
2.123370078740158
 30
0.0
 10
0.7023543307086615
 20
2.123370078740158
 30
0.0
 10
0.7023543307086615
 20
2.123370078740158
 30
0.0
 10
0.7116771653543308
 20
2.113035433070866
 30
0.0
 10
0.7116771653543308
 20
2.113035433070866
 30
0.0
 10
0.7116771653543308
 20
2.113035433070866
 30
0.0
 10
0.7116771653543308
 20
2.113035433070866
 30
0.0
 10
0.7221456692913386
 20
2.103389763779528
 30
0.0
 10
0.7221456692913386
 20
2.103389763779528
 30
0.0
 10
0.7221456692913386
 20
2.103389763779528
 30
0.0
 10
0.7221456692913386
 20
2.103389763779528
 30
0.0
 10
0.7339370078740157
 20
2.094566929133858
 30
0.0
 10
0.7339370078740157
 20
2.094566929133858
 30
0.0
 10
0.7339370078740157
 20
2.094566929133858
 30
0.0
 10
0.7339370078740157
 20
2.094566929133858
 30
0.0
 10
0.7471968503937008
 20
2.086677165354331
 30
0.0
 10
0.7471968503937008
 20
2.086677165354331
 30
0.0
 10
0.7471968503937008
 20
2.086677165354331
 30
0.0
 10
0.7471968503937008
 20
2.086677165354331
 30
0.0
 10
0.7620984251968505
 20
2.079846456692914
 30
0.0
 10
0.7620984251968505
 20
2.079846456692914
 30
0.0
 10
0.7620984251968505
 20
2.079846456692914
 30
0.0
 10
0.7620984251968505
 20
2.079846456692914
 30
0.0
 10
0.7787913385826772
 20
2.074185039370079
 30
0.0
 10
0.7787913385826772
 20
2.074185039370079
 30
0.0
 10
0.7787913385826772
 20
2.074185039370079
 30
0.0
 10
0.7787913385826772
 20
2.074185039370079
 30
0.0
 10
0.7974527559055118
 20
2.069830708661418
 30
0.0
 10
0.7974527559055118
 20
2.069830708661418
 30
0.0
 10
0.7974527559055118
 20
2.069830708661418
 30
0.0
 10
0.7974527559055118
 20
2.069830708661418
 30
0.0
 10
0.818232283464567
 20
2.066885826771653
 30
0.0
 10
0.818232283464567
 20
2.066885826771653
 30
0.0
 10
0.818232283464567
 20
2.066885826771653
 30
0.0
 10
0.818232283464567
 20
2.066885826771653
 30
0.0
 10
0.8412952755905512
 20
2.065488188976378
 30
0.0
 10
0.8412952755905512
 20
2.065488188976378
 30
0.0
 10
0.8412952755905512
 20
2.065488188976378
 30
0.0
 10
0.8412952755905512
 20
2.065488188976378
 30
0.0
 10
0.8668031496062992
 20
2.065740157480315
 30
0.0
 10
0.8668031496062992
 20
2.065740157480315
 30
0.0
 10
0.8668031496062992
 20
2.065740157480315
 30
0.0
 10
0.8668031496062992
 20
2.065740157480315
 30
0.0
 10
0.8738267716535434
 20
1.313188976377953
 30
0.0
 10
0.8738267716535434
 20
1.313188976377953
 30
0.0
 10
0.8738267716535434
 20
1.313188976377953
 30
0.0
 10
0.8738267716535434
 20
1.313188976377953
 30
0.0
 10
0.8483188976377953
 20
1.312937007874016
 30
0.0
 10
0.8483188976377953
 20
1.312937007874016
 30
0.0
 10
0.8483188976377953
 20
1.312937007874016
 30
0.0
 10
0.8483188976377953
 20
1.312937007874016
 30
0.0
 10
0.8252559055118111
 20
1.314334645669292
 30
0.0
 10
0.8252559055118111
 20
1.314334645669292
 30
0.0
 10
0.8252559055118111
 20
1.314334645669292
 30
0.0
 10
0.8252559055118111
 20
1.314334645669292
 30
0.0
 10
0.804476377952756
 20
1.317279527559055
 30
0.0
 10
0.804476377952756
 20
1.317279527559055
 30
0.0
 10
0.804476377952756
 20
1.317279527559055
 30
0.0
 10
0.804476377952756
 20
1.317279527559055
 30
0.0
 10
0.7858149606299213
 20
1.321633858267717
 30
0.0
 10
0.7858149606299213
 20
1.321633858267717
 30
0.0
 10
0.7858149606299213
 20
1.321633858267717
 30
0.0
 10
0.7858149606299213
 20
1.321633858267717
 30
0.0
 10
0.7691220472440945
 20
1.327295275590551
 30
0.0
 10
0.7691220472440945
 20
1.327295275590551
 30
0.0
 10
0.7691220472440945
 20
1.327295275590551
 30
0.0
 10
0.7691220472440945
 20
1.327295275590551
 30
0.0
 10
0.7542204724409449
 20
1.334125984251969
 30
0.0
 10
0.7542204724409449
 20
1.334125984251969
 30
0.0
 10
0.7542204724409449
 20
1.334125984251969
 30
0.0
 10
0.7542204724409449
 20
1.334125984251969
 30
0.0
 10
0.7409606299212599
 20
1.342015748031496
 30
0.0
 10
0.7409606299212599
 20
1.342015748031496
 30
0.0
 10
0.7409606299212599
 20
1.342015748031496
 30
0.0
 10
0.7409606299212599
 20
1.342015748031496
 30
0.0
 10
0.7291692913385827
 20
1.350838582677165
 30
0.0
 10
0.7291692913385827
 20
1.350838582677165
 30
0.0
 10
0.7291692913385827
 20
1.350838582677165
 30
0.0
 10
0.7291692913385827
 20
1.350838582677165
 30
0.0
 10
0.7187007874015748
 20
1.360484251968504
 30
0.0
 10
0.7187007874015748
 20
1.360484251968504
 30
0.0
 10
0.7187007874015748
 20
1.360484251968504
 30
0.0
 10
0.7187007874015748
 20
1.360484251968504
 30
0.0
 10
0.7093779527559055
 20
1.370818897637795
 30
0.0
 10
0.7093779527559055
 20
1.370818897637795
 30
0.0
 10
0.7093779527559055
 20
1.370818897637795
 30
0.0
 10
0.7093779527559055
 20
1.370818897637795
 30
0.0
 10
0.7010472440944883
 20
1.381732283464567
 30
0.0
 10
0.7010472440944883
 20
1.381732283464567
 30
0.0
 10
0.7010472440944883
 20
1.381732283464567
 30
0.0
 10
0.7010472440944883
 20
1.381732283464567
 30
0.0
 10
0.6935354330708662
 20
1.393086614173228
 30
0.0
 10
0.6935354330708662
 20
1.393086614173228
 30
0.0
 10
0.6935354330708662
 20
1.393086614173228
 30
0.0
 10
0.6935354330708662
 20
1.393086614173228
 30
0.0
 10
0.6866968503937008
 20
1.404783464566929
 30
0.0
 10
0.6866968503937008
 20
1.404783464566929
 30
0.0
 10
0.6866968503937008
 20
1.404783464566929
 30
0.0
 10
0.6866968503937008
 20
1.404783464566929
 30
0.0
 10
0.6803543307086615
 20
1.416685039370079
 30
0.0
 10
0.6803543307086615
 20
1.416685039370079
 30
0.0
 10
0.6803543307086615
 20
1.416685039370079
 30
0.0
 10
0.6803543307086615
 20
1.416685039370079
 30
0.0
 10
0.6743582677165355
 20
1.428685039370079
 30
0.0
 10
0.6743582677165355
 20
1.428685039370079
 30
0.0
 10
0.6743582677165355
 20
1.428685039370079
 30
0.0
 10
0.6743582677165355
 20
1.428685039370079
 30
0.0
 10
0.6685393700787402
 20
1.440649606299213
 30
0.0
 10
0.6685393700787402
 20
1.440649606299213
 30
0.0
 10
0.6685393700787402
 20
1.440649606299213
 30
0.0
 10
0.6685393700787402
 20
1.440649606299213
 30
0.0
 10
0.662748031496063
 20
1.452472440944882
 30
0.0
 10
0.662748031496063
 20
1.452472440944882
 30
0.0
 10
0.662748031496063
 20
1.452472440944882
 30
0.0
 10
0.662748031496063
 20
1.452472440944882
 30
0.0
 10
0.6568031496062993
 20
1.46401968503937
 30
0.0
 10
0.6568031496062993
 20
1.46401968503937
 30
0.0
 10
0.6568031496062993
 20
1.46401968503937
 30
0.0
 10
0.6568031496062993
 20
1.46401968503937
 30
0.0
 10
0.6505551181102363
 20
1.475181102362205
 30
0.0
 10
0.6505551181102363
 20
1.475181102362205
 30
0.0
 10
0.6505551181102363
 20
1.475181102362205
 30
0.0
 10
0.6505551181102363
 20
1.475181102362205
 30
0.0
 10
0.6438346456692914
 20
1.485822834645669
 30
0.0
 10
0.6438346456692914
 20
1.485822834645669
 30
0.0
 10
0.6438346456692914
 20
1.485822834645669
 30
0.0
 10
0.6438346456692914
 20
1.485822834645669
 30
0.0
 10
0.636492125984252
 20
1.495842519685039
 30
0.0
 10
0.636492125984252
 20
1.495842519685039
 30
0.0
 10
0.636492125984252
 20
1.495842519685039
 30
0.0
 10
0.636492125984252
 20
1.495842519685039
 30
0.0
 10
0.6283503937007874
 20
1.505102362204724
 30
0.0
 10
0.6283503937007874
 20
1.505102362204724
 30
0.0
 10
0.6283503937007874
 20
1.505102362204724
 30
0.0
 10
0.6283503937007874
 20
1.505102362204724
 30
0.0
 10
0.6192559055118111
 20
1.513492125984252
 30
0.0
 10
0.6192559055118111
 20
1.513492125984252
 30
0.0
 10
0.6192559055118111
 20
1.513492125984252
 30
0.0
 10
0.6192559055118111
 20
1.513492125984252
 30
0.0
 10
0.6090433070866143
 20
1.520877952755906
 30
0.0
 10
0.6090433070866143
 20
1.520877952755906
 30
0.0
 10
0.6090433070866143
 20
1.520877952755906
 30
0.0
 10
0.6090433070866143
 20
1.520877952755906
 30
0.0
 10
0.5975590551181103
 20
1.527161417322835
 30
0.0
 10
0.5975590551181103
 20
1.527161417322835
 30
0.0
 10
0.5975590551181103
 20
1.527161417322835
 30
0.0
 10
0.5975590551181103
 20
1.527161417322835
 30
0.0
 10
0.5846299212598426
 20
1.532204724409449
 30
0.0
 10
0.5846299212598426
 20
1.532204724409449
 30
0.0
 10
0.5846299212598426
 20
1.532204724409449
 30
0.0
 10
0.5846299212598426
 20
1.532204724409449
 30
0.0
 10
0.5701062992125985
 20
1.535893700787402
 30
0.0
 10
0.5701062992125985
 20
1.535893700787402
 30
0.0
 10
0.5701062992125985
 20
1.535893700787402
 30
0.0
 10
0.5701062992125985
 20
1.535893700787402
 30
0.0
 10
0.5538110236220473
 20
1.53809842519685
 30
0.0
 10
0.5538110236220473
 20
1.53809842519685
 30
0.0
 10
0.5538110236220473
 20
1.53809842519685
 30
0.0
 10
0.5538110236220473
 20
1.53809842519685
 30
0.0
 10
0.5355984251968504
 20
1.538712598425197
 30
0.0
 10
0.5355984251968504
 20
1.538712598425197
 30
0.0
 10
0.5355984251968504
 20
1.538712598425197
 30
0.0
 10
0.5355984251968504
 20
1.538712598425197
 30
0.0
 10
0.5152913385826772
 20
1.537606299212599
 30
0.0
 10
0.5152913385826772
 20
1.537606299212599
 30
0.0
 10
0.5152913385826772
 20
1.537606299212599
 30
0.0
 10
0.5152913385826772
 20
1.537606299212599
 30
0.0
 10
0.492736220472441
 20
1.534665354330709
 30
0.0
 10
0.492736220472441
 20
1.534665354330709
 30
0.0
 10
0.492736220472441
 20
1.534665354330709
 30
0.0
 10
0.492736220472441
 20
1.534665354330709
 30
0.0
 10
0.4677637795275591
 20
1.529755905511811
 30
0.0
 10
0.4677637795275591
 20
1.529755905511811
 30
0.0
  0
SPLINE
  5
5E
330
1F
100
AcDbEntity
  8
LAYER_1
 62
   252
100
AcDbSpline
210
0.0
220
0.0
230
1.0
 70
    11
 71
     3
 72
    20
 73
    16
 74
     0
 42
0.0000000001
 43
0.0000000001
 40
0.0
 40
0.0
 40
0.0
 40
0.0
 40
0.25
 40
0.25
 40
0.25
 40
0.25
 40
0.5
 40
0.5
 40
0.5
 40
0.5
 40
0.75
 40
0.75
 40
0.75
 40
0.75
 40
1.0
 40
1.0
 40
1.0
 40
1.0
 10
0.0927637795275591
 20
1.654755905511811
 30
0.0
 10
0.0927637795275591
 20
1.654755905511811
 30
0.0
 10
0.085740157480315
 20
2.407307086614174
 30
0.0
 10
0.085740157480315
 20
2.407307086614174
 30
0.0
 10
0.085740157480315
 20
2.407307086614174
 30
0.0
 10
0.085740157480315
 20
2.407307086614174
 30
0.0
 10
0.460740157480315
 20
2.407307086614174
 30
0.0
 10
0.460740157480315
 20
2.407307086614174
 30
0.0
 10
0.460740157480315
 20
2.407307086614174
 30
0.0
 10
0.460740157480315
 20
2.407307086614174
 30
0.0
 10
0.4677637795275591
 20
1.654755905511811
 30
0.0
 10
0.4677637795275591
 20
1.654755905511811
 30
0.0
 10
0.4677637795275591
 20
1.654755905511811
 30
0.0
 10
0.4677637795275591
 20
1.654755905511811
 30
0.0
 10
0.0927637795275591
 20
1.654755905511811
 30
0.0
 10
0.0927637795275591
 20
1.654755905511811
 30
0.0
  0
SPLINE
  5
5F
330
1F
100
AcDbEntity
  8
LAYER_1
 62
   250
100
AcDbSpline
210
0.0
220
0.0
230
1.0
 70
    11
 71
     3
 72
    20
 73
    16
 74
     0
 42
0.0000000001
 43
0.0000000001
 40
0.0
 40
0.0
 40
0.0
 40
0.0
 40
0.25
 40
0.25
 40
0.25
 40
0.25
 40
0.5
 40
0.5
 40
0.5
 40
0.5
 40
0.75
 40
0.75
 40
0.75
 40
0.75
 40
1.0
 40
1.0
 40
1.0
 40
1.0
 10
0.0927637795275591
 20
1.654755905511811
 30
0.0
 10
0.0927637795275591
 20
1.654755905511811
 30
0.0
 10
0.085740157480315
 20
2.407307086614174
 30
0.0
 10
0.085740157480315
 20
2.407307086614174
 30
0.0
 10
0.085740157480315
 20
2.407307086614174
 30
0.0
 10
0.085740157480315
 20
2.407307086614174
 30
0.0
 10
0.460740157480315
 20
2.407307086614174
 30
0.0
 10
0.460740157480315
 20
2.407307086614174
 30
0.0
 10
0.460740157480315
 20
2.407307086614174
 30
0.0
 10
0.460740157480315
 20
2.407307086614174
 30
0.0
 10
0.4677637795275591
 20
1.654755905511811
 30
0.0
 10
0.4677637795275591
 20
1.654755905511811
 30
0.0
 10
0.4677637795275591
 20
1.654755905511811
 30
0.0
 10
0.4677637795275591
 20
1.654755905511811
 30
0.0
 10
0.0927637795275591
 20
1.654755905511811
 30
0.0
 10
0.0927637795275591
 20
1.654755905511811
 30
0.0
  0
SPLINE
  5
60
330
1F
100
AcDbEntity
  8
LAYER_1
 62
     7
100
AcDbSpline
210
0.0
220
0.0
230
1.0
 70
    11
 71
     3
 72
    28
 73
    24
 74
     0
 42
0.0000000001
 43
0.0000000001
 40
0.0
 40
0.0
 40
0.0
 40
0.0
 40
0.1666666666666667
 40
0.1666666666666667
 40
0.1666666666666667
 40
0.1666666666666667
 40
0.3333333333333333
 40
0.3333333333333333
 40
0.3333333333333333
 40
0.3333333333333333
 40
0.5
 40
0.5
 40
0.5
 40
0.5
 40
0.6666666666666666
 40
0.6666666666666666
 40
0.6666666666666666
 40
0.6666666666666666
 40
0.8333333333333333
 40
0.8333333333333333
 40
0.8333333333333333
 40
0.8333333333333333
 40
1.0
 40
1.0
 40
1.0
 40
1.0
 10
0.0927637795275591
 20
1.11657874015748
 30
0.0
 10
0.0927637795275591
 20
1.11657874015748
 30
0.0
 10
0.0927637795275591
 20
1.654755905511811
 30
0.0
 10
0.0927637795275591
 20
1.654755905511811
 30
0.0
 10
0.0927637795275591
 20
1.654755905511811
 30
0.0
 10
0.0927637795275591
 20
1.654755905511811
 30
0.0
 10
0.4677637795275591
 20
1.654755905511811
 30
0.0
 10
0.4677637795275591
 20
1.654755905511811
 30
0.0
 10
0.4677637795275591
 20
1.654755905511811
 30
0.0
 10
0.4677637795275591
 20
1.654755905511811
 30
0.0
 10
0.4677637795275591
 20
1.529755905511811
 30
0.0
 10
0.4677637795275591
 20
1.529755905511811
 30
0.0
 10
0.4677637795275591
 20
1.529755905511811
 30
0.0
 10
0.747496062992126
 20
1.59292125984252
 30
0.0
 10
0.5880787401574803
 20
1.301157480314961
 30
0.0
 10
0.8738267716535434
 20
1.313188976377953
 30
0.0
 10
0.8738267716535434
 20
1.313188976377953
 30
0.0
 10
0.8738267716535434
 20
1.313188976377953
 30
0.0
 10
0.8738267716535434
 20
1.11657874015748
 30
0.0
 10
0.8738267716535434
 20
1.11657874015748
 30
0.0
 10
0.8738267716535434
 20
1.11657874015748
 30
0.0
 10
0.8738267716535434
 20
1.11657874015748
 30
0.0
 10
0.0927637795275591
 20
1.11657874015748
 30
0.0
 10
0.0927637795275591
 20
1.11657874015748
 30
0.0
  0
SPLINE
  5
61
330
1F
100
AcDbEntity
  8
LAYER_1
 62
   250
100
AcDbSpline
210
0.0
220
0.0
230
1.0
 70
    11
 71
     3
 72
   104
 73
   100
 74
     0
 42
0.0000000001
 43
0.0000000001
 40
0.0
 40
0.0
 40
0.0
 40
0.0
 40
0.04
 40
0.04
 40
0.04
 40
0.04
 40
0.08
 40
0.08
 40
0.08
 40
0.08
 40
0.12
 40
0.12
 40
0.12
 40
0.12
 40
0.16
 40
0.16
 40
0.16
 40
0.16
 40
0.2
 40
0.2
 40
0.2
 40
0.2
 40
0.24
 40
0.24
 40
0.24
 40
0.24
 40
0.28
 40
0.28
 40
0.28
 40
0.28
 40
0.32
 40
0.32
 40
0.32
 40
0.32
 40
0.36
 40
0.36
 40
0.36
 40
0.36
 40
0.4
 40
0.4
 40
0.4
 40
0.4
 40
0.44
 40
0.44
 40
0.44
 40
0.44
 40
0.4799999999999999
 40
0.4799999999999999
 40
0.4799999999999999
 40
0.4799999999999999
 40
0.5199999999999999
 40
0.5199999999999999
 40
0.5199999999999999
 40
0.5199999999999999
 40
0.5599999999999999
 40
0.5599999999999999
 40
0.5599999999999999
 40
0.5599999999999999
 40
0.6
 40
0.6
 40
0.6
 40
0.6
 40
0.64
 40
0.64
 40
0.64
 40
0.64
 40
0.6800000000000001
 40
0.6800000000000001
 40
0.6800000000000001
 40
0.6800000000000001
 40
0.7200000000000001
 40
0.7200000000000001
 40
0.7200000000000001
 40
0.7200000000000001
 40
0.7600000000000001
 40
0.7600000000000001
 40
0.7600000000000001
 40
0.7600000000000001
 40
0.8000000000000002
 40
0.8000000000000002
 40
0.8000000000000002
 40
0.8000000000000002
 40
0.8400000000000002
 40
0.8400000000000002
 40
0.8400000000000002
 40
0.8400000000000002
 40
0.8800000000000002
 40
0.8800000000000002
 40
0.8800000000000002
 40
0.8800000000000002
 40
0.9200000000000003
 40
0.9200000000000003
 40
0.9200000000000003
 40
0.9200000000000003
 40
0.9600000000000003
 40
0.9600000000000003
 40
0.9600000000000003
 40
0.9600000000000003
 40
1.0
 40
1.0
 40
1.0
 40
1.0
 10
0.1111811023622047
 20
1.053330708661417
 30
0.0
 10
0.1111811023622047
 20
1.053330708661417
 30
0.0
 10
0.1651535433070866
 20
1.053330708661417
 30
0.0
 10
0.1651535433070866
 20
1.053330708661417
 30
0.0
 10
0.1651535433070866
 20
1.053330708661417
 30
0.0
 10
0.1783228346456693
 20
1.053330708661417
 30
0.0
 10
0.1873503937007874
 20
1.052720472440945
 30
0.0
 10
0.192236220472441
 20
1.051523622047244
 30
0.0
 10
0.192236220472441
 20
1.051523622047244
 30
0.0
 10
0.1994606299212599
 20
1.049803149606299
 30
0.0
 10
0.2051535433070866
 20
1.046665354330709
 30
0.0
 10
0.2093779527559055
 20
1.042106299212599
 30
0.0
 10
0.2093779527559055
 20
1.042106299212599
 30
0.0
 10
0.2135708661417323
 20
1.037551181102362
 30
0.0
 10
0.2156811023622047
 20
1.032051181102362
 30
0.0
 10
0.2156811023622047
 20
1.025665354330709
 30
0.0
 10
0.2156811023622047
 20
1.025665354330709
 30
0.0
 10
0.2156811023622047
 20
1.021051181102362
 30
0.0
 10
0.2145708661417323
 20
1.016913385826772
 30
0.0
 10
0.2123503937007874
 20
1.013248031496063
 30
0.0
 10
0.2123503937007874
 20
1.013248031496063
 30
0.0
 10
0.2101259842519685
 20
1.00957874015748
 30
0.0
 10
0.2068779527559055
 20
1.00644094488189
 30
0.0
 10
0.2026535433070866
 20
1.003858267716536
 30
0.0
 10
0.2026535433070866
 20
1.003858267716536
 30
0.0
 10
0.1999330708661417
 20
1.002165354330709
 30
0.0
 10
0.1962637795275591
 20
1.000720472440945
 30
0.0
 10
0.1915984251968504
 20
0.9995236220472441
 30
0.0
 10
0.1915984251968504
 20
0.9995236220472441
 30
0.0
 10
0.1975157480314961
 20
0.9984409448818898
 30
0.0
 10
0.2020157480314961
 20
0.9971377952755905
 30
0.0
 10
0.2050984251968504
 20
0.9956377952755906
 30
0.0
 10
0.2050984251968504
 20
0.9956377952755906
 30
0.0
 10
0.2097637795275591
 20
0.9933582677165355
 30
0.0
 10
0.2134606299212599
 20
0.9901102362204725
 30
0.0
 10
0.2161535433070866
 20
0.9858582677165355
 30
0.0
 10
0.2161535433070866
 20
0.9858582677165355
 30
0.0
 10
0.2188779527559055
 20
0.9816377952755906
 30
0.0
 10
0.220236220472441
 20
0.9768582677165355
 30
0.0
 10
0.220236220472441
 20
0.9715511811023623
 30
0.0
 10
0.220236220472441
 20
0.9715511811023623
 30
0.0
 10
0.220236220472441
 20
0.9663858267716536
 30
0.0
 10
0.2189055118110236
 20
0.9616102362204725
 30
0.0
 10
0.216236220472441
 20
0.9572204724409449
 30
0.0
 10
0.216236220472441
 20
0.9572204724409449
 30
0.0
 10
0.2135984251968504
 20
0.9528307086614174
 30
0.0
 10
0.2098228346456693
 20
0.9492204724409449
 30
0.0
 10
0.204988188976378
 20
0.9463858267716536
 30
0.0
 10
0.204988188976378
 20
0.9463858267716536
 30
0.0
 10
0.2001259842519685
 20
0.9435826771653544
 30
0.0
 10
0.1944606299212598
 20
0.9417755905511811
 30
0.0
 10
0.1880157480314961
 20
0.9409685039370079
 30
0.0
 10
0.1880157480314961
 20
0.9409685039370079
 30
0.0
 10
0.1815433070866142
 20
0.9401929133858268
 30
0.0
 10
0.1749055118110236
 20
0.9398031496062993
 30
0.0
 10
0.1680708661417323
 20
0.9398031496062993
 30
0.0
 10
0.1680708661417323
 20
0.9398031496062993
 30
0.0
 10
0.1680708661417323
 20
0.9398031496062993
 30
0.0
 10
0.1111811023622047
 20
0.9398031496062993
 30
0.0
 10
0.1111811023622047
 20
0.9398031496062993
 30
0.0
 10
0.1111811023622047
 20
0.9398031496062993
 30
0.0
 10
0.1111811023622047
 20
0.9398031496062993
 30
0.0
 10
0.1111811023622047
 20
0.9466377952755906
 30
0.0
 10
0.1111811023622047
 20
0.9466377952755906
 30
0.0
 10
0.1111811023622047
 20
0.9466377952755906
 30
0.0
 10
0.1111811023622047
 20
0.9466377952755906
 30
0.0
 10
0.1150157480314961
 20
0.9466377952755906
 30
0.0
 10
0.1150157480314961
 20
0.9466377952755906
 30
0.0
 10
0.1150157480314961
 20
0.9466377952755906
 30
0.0
 10
0.1187125984251969
 20
0.9466377952755906
 30
0.0
 10
0.1212125984251969
 20
0.9472204724409449
 30
0.0
 10
0.1225708661417323
 20
0.9483582677165354
 30
0.0
 10
0.1225708661417323
 20
0.9483582677165354
 30
0.0
 10
0.1245433070866142
 20
0.9499133858267717
 30
0.0
 10
0.1255157480314961
 20
0.9525236220472442
 30
0.0
 10
0.1255157480314961
 20
0.9561653543307087
 30
0.0
 10
0.1255157480314961
 20
0.9561653543307087
 30
0.0
 10
0.1255157480314961
 20
0.9561653543307087
 30
0.0
 10
0.1255157480314961
 20
1.035023622047244
 30
0.0
 10
0.1255157480314961
 20
1.035023622047244
 30
0.0
 10
0.1255157480314961
 20
1.035023622047244
 30
0.0
 10
0.1255157480314961
 20
1.038720472440945
 30
0.0
 10
0.1252125984251969
 20
1.041220472440945
 30
0.0
 10
0.1246259842519685
 20
1.04257874015748
 30
0.0
 10
0.1246259842519685
 20
1.04257874015748
 30
0.0
 10
0.1240157480314961
 20
1.04394094488189
 30
0.0
 10
0.1231259842519685
 20
1.044913385826772
 30
0.0
 10
0.1219330708661417
 20
1.045523622047244
 30
0.0
 10
0.1219330708661417
 20
1.045523622047244
 30
0.0
 10
0.120740157480315
 20
1.046106299212599
 30
0.0
 10
0.1184330708661417
 20
1.046413385826772
 30
0.0
 10
0.1150157480314961
 20
1.046413385826772
 30
0.0
 10
0.1150157480314961
 20
1.046413385826772
 30
0.0
 10
0.1150157480314961
 20
1.046413385826772
 30
0.0
 10
0.1111811023622047
 20
1.046413385826772
 30
0.0
 10
0.1111811023622047
 20
1.046413385826772
 30
0.0
 10
0.1111811023622047
 20
1.046413385826772
 30
0.0
 10
0.1111811023622047
 20
1.046413385826772
 30
0.0
 10
0.1111811023622047
 20
1.053330708661417
 30
0.0
 10
0.1111811023622047
 20
1.053330708661417
 30
0.0
  0
SPLINE
  5
62
330
1F
100
AcDbEntity
  8
LAYER_1
 62
   250
100
AcDbSpline
210
0.0
220
0.0
230
1.0
 70
    11
 71
     3
 72
    40
 73
    36
 74
     0
 42
0.0000000001
 43
0.0000000001
 40
0.0
 40
0.0
 40
0.0
 40
0.0
 40
0.1111111111111111
 40
0.1111111111111111
 40
0.1111111111111111
 40
0.1111111111111111
 40
0.2222222222222222
 40
0.2222222222222222
 40
0.2222222222222222
 40
0.2222222222222222
 40
0.3333333333333333
 40
0.3333333333333333
 40
0.3333333333333333
 40
0.3333333333333333
 40
0.4444444444444444
 40
0.4444444444444444
 40
0.4444444444444444
 40
0.4444444444444444
 40
0.5555555555555556
 40
0.5555555555555556
 40
0.5555555555555556
 40
0.5555555555555556
 40
0.6666666666666667
 40
0.6666666666666667
 40
0.6666666666666667
 40
0.6666666666666667
 40
0.7777777777777779
 40
0.7777777777777779
 40
0.7777777777777779
 40
0.7777777777777779
 40
0.8888888888888891
 40
0.8888888888888891
 40
0.8888888888888891
 40
0.8888888888888891
 40
1.0
 40
1.0
 40
1.0
 40
1.0
 10
0.140740157480315
 20
1.044303149606299
 30
0.0
 10
0.140740157480315
 20
1.044303149606299
 30
0.0
 10
0.140740157480315
 20
1.002720472440945
 30
0.0
 10
0.140740157480315
 20
1.002720472440945
 30
0.0
 10
0.140740157480315
 20
1.002720472440945
 30
0.0
 10
0.140740157480315
 20
1.002720472440945
 30
0.0
 10
0.161488188976378
 20
1.002720472440945
 30
0.0
 10
0.161488188976378
 20
1.002720472440945
 30
0.0
 10
0.161488188976378
 20
1.002720472440945
 30
0.0
 10
0.1711811023622047
 20
1.002720472440945
 30
0.0
 10
0.1778503937007874
 20
1.003165354330709
 30
0.0
 10
0.1814055118110236
 20
1.00407874015748
 30
0.0
 10
0.1814055118110236
 20
1.00407874015748
 30
0.0
 10
0.1870157480314961
 20
1.005551181102362
 30
0.0
 10
0.1912637795275591
 20
1.008051181102362
 30
0.0
 10
0.194236220472441
 20
1.01157874015748
 30
0.0
 10
0.194236220472441
 20
1.01157874015748
 30
0.0
 10
0.1971811023622047
 20
1.015106299212599
 30
0.0
 10
0.1986811023622047
 20
1.019637795275591
 30
0.0
 10
0.1986811023622047
 20
1.025165354330709
 30
0.0
 10
0.1986811023622047
 20
1.025165354330709
 30
0.0
 10
0.1986811023622047
 20
1.029830708661417
 30
0.0
 10
0.1973228346456693
 20
1.033720472440945
 30
0.0
 10
0.1946535433070866
 20
1.036858267716535
 30
0.0
 10
0.1946535433070866
 20
1.036858267716535
 30
0.0
 10
0.1919606299212598
 20
1.039968503937008
 30
0.0
 10
0.1883503937007874
 20
1.042106299212599
 30
0.0
 10
0.1838503937007874
 20
1.043248031496063
 30
0.0
 10
0.1838503937007874
 20
1.043248031496063
 30
0.0
 10
0.1809330708661417
 20
1.04394094488189
 30
0.0
 10
0.1748503937007874
 20
1.044303149606299
 30
0.0
 10
0.1656259842519685
 20
1.044303149606299
 30
0.0
 10
0.1656259842519685
 20
1.044303149606299
 30
0.0
 10
0.1656259842519685
 20
1.044303149606299
 30
0.0
 10
0.140740157480315
 20
1.044303149606299
 30
0.0
 10
0.140740157480315
 20
1.044303149606299
 30
0.0
  0
SPLINE
  5
63
330
1F
100
AcDbEntity
  8
LAYER_1
 62
   250
100
AcDbSpline
210
0.0
220
0.0
230
1.0
 70
    11
 71
     3
 72
    52
 73
    48
 74
     0
 42
0.0000000001
 43
0.0000000001
 40
0.0
 40
0.0
 40
0.0
 40
0.0
 40
0.0833333333333333
 40
0.0833333333333333
 40
0.0833333333333333
 40
0.0833333333333333
 40
0.1666666666666667
 40
0.1666666666666667
 40
0.1666666666666667
 40
0.1666666666666667
 40
0.25
 40
0.25
 40
0.25
 40
0.25
 40
0.3333333333333333
 40
0.3333333333333333
 40
0.3333333333333333
 40
0.3333333333333333
 40
0.4166666666666666
 40
0.4166666666666666
 40
0.4166666666666666
 40
0.4166666666666666
 40
0.4999999999999999
 40
0.4999999999999999
 40
0.4999999999999999
 40
0.4999999999999999
 40
0.5833333333333333
 40
0.5833333333333333
 40
0.5833333333333333
 40
0.5833333333333333
 40
0.6666666666666666
 40
0.6666666666666666
 40
0.6666666666666666
 40
0.6666666666666666
 40
0.75
 40
0.75
 40
0.75
 40
0.75
 40
0.8333333333333334
 40
0.8333333333333334
 40
0.8333333333333334
 40
0.8333333333333334
 40
0.9166666666666667
 40
0.9166666666666667
 40
0.9166666666666667
 40
0.9166666666666667
 40
1.0
 40
1.0
 40
1.0
 40
1.0
 10
0.140740157480315
 20
0.9948858267716536
 30
0.0
 10
0.140740157480315
 20
0.9948858267716536
 30
0.0
 10
0.140740157480315
 20
0.9576377952755906
 30
0.0
 10
0.140740157480315
 20
0.9576377952755906
 30
0.0
 10
0.140740157480315
 20
0.9576377952755906
 30
0.0
 10
0.140740157480315
 20
0.9538858267716536
 30
0.0
 10
0.1409055118110236
 20
0.9516653543307087
 30
0.0
 10
0.1412086614173228
 20
0.9509409448818899
 30
0.0
 10
0.1412086614173228
 20
0.9509409448818899
 30
0.0
 10
0.1416535433070866
 20
0.9499685039370079
 30
0.0
 10
0.1425157480314961
 20
0.9493031496062993
 30
0.0
 10
0.1438228346456693
 20
0.9489133858267717
 30
0.0
 10
0.1438228346456693
 20
0.9489133858267717
 30
0.0
 10
0.144740157480315
 20
0.9486377952755906
 30
0.0
 10
0.1473503937007874
 20
0.948496062992126
 30
0.0
 10
0.1516259842519685
 20
0.948496062992126
 30
0.0
 10
0.1516259842519685
 20
0.948496062992126
 30
0.0
 10
0.1516259842519685
 20
0.948496062992126
 30
0.0
 10
0.1627086614173229
 20
0.948496062992126
 30
0.0
 10
0.1627086614173229
 20
0.948496062992126
 30
0.0
 10
0.1627086614173229
 20
0.948496062992126
 30
0.0
 10
0.1736535433070866
 20
0.948496062992126
 30
0.0
 10
0.181488188976378
 20
0.9491102362204725
 30
0.0
 10
0.1861811023622047
 20
0.9503307086614173
 30
0.0
 10
0.1861811023622047
 20
0.9503307086614173
 30
0.0
 10
0.1908779527559055
 20
0.9515511811023623
 30
0.0
 10
0.1948779527559055
 20
0.9541377952755906
 30
0.0
 10
0.1981811023622047
 20
0.9580826771653543
 30
0.0
 10
0.1981811023622047
 20
0.9580826771653543
 30
0.0
 10
0.201488188976378
 20
0.961996062992126
 30
0.0
 10
0.2031535433070866
 20
0.966748031496063
 30
0.0
 10
0.2031535433070866
 20
0.9722755905511812
 30
0.0
 10
0.2031535433070866
 20
0.9722755905511812
 30
0.0
 10
0.2031535433070866
 20
0.9769409448818898
 30
0.0
 10
0.2017952755905512
 20
0.9810787401574803
 30
0.0
 10
0.1991259842519685
 20
0.9846929133858268
 30
0.0
 10
0.1991259842519685
 20
0.9846929133858268
 30
0.0
 10
0.1964330708661417
 20
0.9883031496062993
 30
0.0
 10
0.1927086614173229
 20
0.9908858267716536
 30
0.0
 10
0.1879606299212598
 20
0.992496062992126
 30
0.0
 10
0.1879606299212598
 20
0.992496062992126
 30
0.0
 10
0.1832086614173228
 20
0.9941102362204725
 30
0.0
 10
0.1747952755905512
 20
0.9948858267716536
 30
0.0
 10
0.1627086614173229
 20
0.9948858267716536
 30
0.0
 10
0.1627086614173229
 20
0.9948858267716536
 30
0.0
 10
0.1627086614173229
 20
0.9948858267716536
 30
0.0
 10
0.140740157480315
 20
0.9948858267716536
 30
0.0
 10
0.140740157480315
 20
0.9948858267716536
 30
0.0
  0
SPLINE
  5
64
330
1F
100
AcDbEntity
  8
LAYER_1
 62
   250
100
AcDbSpline
210
0.0
220
0.0
230
1.0
 70
    11
 71
     3
 72
   112
 73
   108
 74
     0
 42
0.0000000001
 43
0.0000000001
 40
0.0
 40
0.0
 40
0.0
 40
0.0
 40
0.037037037037037
 40
0.037037037037037
 40
0.037037037037037
 40
0.037037037037037
 40
0.0740740740740741
 40
0.0740740740740741
 40
0.0740740740740741
 40
0.0740740740740741
 40
0.1111111111111111
 40
0.1111111111111111
 40
0.1111111111111111
 40
0.1111111111111111
 40
0.1481481481481481
 40
0.1481481481481481
 40
0.1481481481481481
 40
0.1481481481481481
 40
0.1851851851851852
 40
0.1851851851851852
 40
0.1851851851851852
 40
0.1851851851851852
 40
0.2222222222222222
 40
0.2222222222222222
 40
0.2222222222222222
 40
0.2222222222222222
 40
0.2592592592592592
 40
0.2592592592592592
 40
0.2592592592592592
 40
0.2592592592592592
 40
0.2962962962962963
 40
0.2962962962962963
 40
0.2962962962962963
 40
0.2962962962962963
 40
0.3333333333333333
 40
0.3333333333333333
 40
0.3333333333333333
 40
0.3333333333333333
 40
0.3703703703703704
 40
0.3703703703703704
 40
0.3703703703703704
 40
0.3703703703703704
 40
0.4074074074074074
 40
0.4074074074074074
 40
0.4074074074074074
 40
0.4074074074074074
 40
0.4444444444444444
 40
0.4444444444444444
 40
0.4444444444444444
 40
0.4444444444444444
 40
0.4814814814814815
 40
0.4814814814814815
 40
0.4814814814814815
 40
0.4814814814814815
 40
0.5185185185185185
 40
0.5185185185185185
 40
0.5185185185185185
 40
0.5185185185185185
 40
0.5555555555555556
 40
0.5555555555555556
 40
0.5555555555555556
 40
0.5555555555555556
 40
0.5925925925925926
 40
0.5925925925925926
 40
0.5925925925925926
 40
0.5925925925925926
 40
0.6296296296296295
 40
0.6296296296296295
 40
0.6296296296296295
 40
0.6296296296296295
 40
0.6666666666666665
 40
0.6666666666666665
 40
0.6666666666666665
 40
0.6666666666666665
 40
0.7037037037037035
 40
0.7037037037037035
 40
0.7037037037037035
 40
0.7037037037037035
 40
0.7407407407407405
 40
0.7407407407407405
 40
0.7407407407407405
 40
0.7407407407407405
 40
0.7777777777777775
 40
0.7777777777777775
 40
0.7777777777777775
 40
0.7777777777777775
 40
0.8148148148148144
 40
0.8148148148148144
 40
0.8148148148148144
 40
0.8148148148148144
 40
0.8518518518518514
 40
0.8518518518518514
 40
0.8518518518518514
 40
0.8518518518518514
 40
0.8888888888888884
 40
0.8888888888888884
 40
0.8888888888888884
 40
0.8888888888888884
 40
0.9259259259259254
 40
0.9259259259259254
 40
0.9259259259259254
 40
0.9259259259259254
 40
0.9629629629629624
 40
0.9629629629629624
 40
0.9629629629629624
 40
0.9629629629629624
 40
1.0
 40
1.0
 40
1.0
 40
1.0
 10
0.2778464566929134
 20
1.053330708661417
 30
0.0
 10
0.2778464566929134
 20
1.053330708661417
 30
0.0
 10
0.2912637795275591
 20
1.053330708661417
 30
0.0
 10
0.2912637795275591
 20
1.053330708661417
 30
0.0
 10
0.2912637795275591
 20
1.053330708661417
 30
0.0
 10
0.2912637795275591
 20
1.053330708661417
 30
0.0
 10
0.326511811023622
 20
0.9584409448818898
 30
0.0
 10
0.326511811023622
 20
0.9584409448818898
 30
0.0
 10
0.326511811023622
 20
0.9584409448818898
 30
0.0
 10
0.3282362204724409
 20
0.9536653543307087
 30
0.0
 10
0.329984251968504
 20
0.950496062992126
 30
0.0
 10
0.3317637795275591
 20
0.9489685039370079
 30
0.0
 10
0.3317637795275591
 20
0.9489685039370079
 30
0.0
 10
0.333511811023622
 20
0.9474133858267717
 30
0.0
 10
0.3359015748031496
 20
0.9466377952755906
 30
0.0
 10
0.3388740157480315
 20
0.9466377952755906
 30
0.0
 10
0.3388740157480315
 20
0.9466377952755906
 30
0.0
 10
0.3388740157480315
 20
0.9466377952755906
 30
0.0
 10
0.3406535433070866
 20
0.9466377952755906
 30
0.0
 10
0.3406535433070866
 20
0.9466377952755906
 30
0.0
 10
0.3406535433070866
 20
0.9466377952755906
 30
0.0
 10
0.3406535433070866
 20
0.9466377952755906
 30
0.0
 10
0.3406535433070866
 20
0.9398031496062993
 30
0.0
 10
0.3406535433070866
 20
0.9398031496062993
 30
0.0
 10
0.3406535433070866
 20
0.9398031496062993
 30
0.0
 10
0.3406535433070866
 20
0.9398031496062993
 30
0.0
 10
0.3002086614173228
 20
0.9398031496062993
 30
0.0
 10
0.3002086614173228
 20
0.9398031496062993
 30
0.0
 10
0.3002086614173228
 20
0.9398031496062993
 30
0.0
 10
0.3002086614173228
 20
0.9398031496062993
 30
0.0
 10
0.3002086614173228
 20
0.9466377952755906
 30
0.0
 10
0.3002086614173228
 20
0.9466377952755906
 30
0.0
 10
0.3002086614173228
 20
0.9466377952755906
 30
0.0
 10
0.3015118110236221
 20
0.946748031496063
 30
0.0
 10
0.3027913385826772
 20
0.9468031496062993
 30
0.0
 10
0.3040433070866142
 20
0.9468031496062993
 30
0.0
 10
0.3040433070866142
 20
0.9468031496062993
 30
0.0
 10
0.3066535433070866
 20
0.9468031496062993
 30
0.0
 10
0.3083464566929134
 20
0.9470826771653543
 30
0.0
 10
0.3091811023622048
 20
0.9476102362204725
 30
0.0
 10
0.3091811023622048
 20
0.9476102362204725
 30
0.0
 10
0.310736220472441
 20
0.9486377952755906
 30
0.0
 10
0.3115393700787402
 20
0.9499409448818899
 30
0.0
 10
0.3115393700787402
 20
0.9515236220472442
 30
0.0
 10
0.3115393700787402
 20
0.9515236220472442
 30
0.0
 10
0.3115393700787402
 20
0.9526653543307087
 30
0.0
 10
0.3107637795275591
 20
0.9554409448818898
 30
0.0
 10
0.3092637795275591
 20
0.9599133858267717
 30
0.0
 10
0.3092637795275591
 20
0.9599133858267717
 30
0.0
 10
0.3092637795275591
 20
0.9599133858267717
 30
0.0
 10
0.3017637795275591
 20
0.9818858267716536
 30
0.0
 10
0.3017637795275591
 20
0.9818858267716536
 30
0.0
 10
0.3017637795275591
 20
0.9818858267716536
 30
0.0
 10
0.3017637795275591
 20
0.9818858267716536
 30
0.0
 10
0.2605984251968504
 20
0.9818858267716536
 30
0.0
 10
0.2605984251968504
 20
0.9818858267716536
 30
0.0
 10
0.2605984251968504
 20
0.9818858267716536
 30
0.0
 10
0.2605984251968504
 20
0.9818858267716536
 30
0.0
 10
0.2517913385826772
 20
0.9573031496062993
 30
0.0
 10
0.2517913385826772
 20
0.9573031496062993
 30
0.0
 10
0.2517913385826772
 20
0.9573031496062993
 30
0.0
 10
0.2508740157480315
 20
0.954748031496063
 30
0.0
 10
0.2504015748031496
 20
0.952996062992126
 30
0.0
 10
0.2504015748031496
 20
0.951996062992126
 30
0.0
 10
0.2504015748031496
 20
0.951996062992126
 30
0.0
 10
0.2504015748031496
 20
0.9509133858267717
 30
0.0
 10
0.2507086614173228
 20
0.9499685039370079
 30
0.0
 10
0.2512637795275591
 20
0.9491653543307087
 30
0.0
 10
0.2512637795275591
 20
0.9491653543307087
 30
0.0
 10
0.2518464566929134
 20
0.9483582677165354
 30
0.0
 10
0.2525984251968504
 20
0.947748031496063
 30
0.0
 10
0.2535984251968504
 20
0.9473307086614173
 30
0.0
 10
0.2535984251968504
 20
0.9473307086614173
 30
0.0
 10
0.2545708661417323
 20
0.9469133858267717
 30
0.0
 10
0.2561259842519685
 20
0.9467204724409449
 30
0.0
 10
0.2583188976377953
 20
0.9467204724409449
 30
0.0
 10
0.2583188976377953
 20
0.9467204724409449
 30
0.0
 10
0.2597637795275591
 20
0.9467204724409449
 30
0.0
 10
0.2609566929133859
 20
0.9466929133858268
 30
0.0
 10
0.2618740157480315
 20
0.9466377952755906
 30
0.0
 10
0.2618740157480315
 20
0.9466377952755906
 30
0.0
 10
0.2618740157480315
 20
0.9466377952755906
 30
0.0
 10
0.2618740157480315
 20
0.9398031496062993
 30
0.0
 10
0.2618740157480315
 20
0.9398031496062993
 30
0.0
 10
0.2618740157480315
 20
0.9398031496062993
 30
0.0
 10
0.2618740157480315
 20
0.9398031496062993
 30
0.0
 10
0.2279566929133858
 20
0.9398031496062993
 30
0.0
 10
0.2279566929133858
 20
0.9398031496062993
 30
0.0
 10
0.2279566929133858
 20
0.9398031496062993
 30
0.0
 10
0.2279566929133858
 20
0.9398031496062993
 30
0.0
 10
0.2279566929133858
 20
0.9466377952755906
 30
0.0
 10
0.2279566929133858
 20
0.9466377952755906
 30
0.0
 10
0.2279566929133858
 20
0.9466377952755906
 30
0.0
 10
0.2310984251968504
 20
0.9466377952755906
 30
0.0
 10
0.2333740157480315
 20
0.9469409448818899
 30
0.0
 10
0.2347362204724409
 20
0.9475826771653544
 30
0.0
 10
0.2347362204724409
 20
0.9475826771653544
 30
0.0
 10
0.2361259842519685
 20
0.9481929133858268
 30
0.0
 10
0.2373464566929134
 20
0.9491929133858268
 30
0.0
 10
0.2383740157480315
 20
0.9505826771653544
 30
0.0
 10
0.2383740157480315
 20
0.9505826771653544
 30
0.0
 10
0.2394015748031496
 20
0.9519685039370079
 30
0.0
 10
0.2407637795275591
 20
0.9548858267716536
 30
0.0
 10
0.2424291338582677
 20
0.9593307086614173
 30
0.0
 10
0.2424291338582677
 20
0.9593307086614173
 30
0.0
 10
0.2424291338582677
 20
0.9593307086614173
 30
0.0
 10
0.2778464566929134
 20
1.053330708661417
 30
0.0
 10
0.2778464566929134
 20
1.053330708661417
 30
0.0
  0
SPLINE
  5
65
330
1F
100
AcDbEntity
  8
LAYER_1
 62
   250
100
AcDbSpline
210
0.0
220
0.0
230
1.0
 70
    11
 71
     3
 72
    16
 73
    12
 74
     0
 42
0.0000000001
 43
0.0000000001
 40
0.0
 40
0.0
 40
0.0
 40
0.0
 40
0.3333333333333333
 40
0.3333333333333333
 40
0.3333333333333333
 40
0.3333333333333333
 40
0.6666666666666666
 40
0.6666666666666666
 40
0.6666666666666666
 40
0.6666666666666666
 40
1.0
 40
1.0
 40
1.0
 40
1.0
 10
0.2635984251968504
 20
0.9898582677165355
 30
0.0
 10
0.2635984251968504
 20
0.9898582677165355
 30
0.0
 10
0.2986811023622047
 20
0.9898582677165355
 30
0.0
 10
0.2986811023622047
 20
0.9898582677165355
 30
0.0
 10
0.2986811023622047
 20
0.9898582677165355
 30
0.0
 10
0.2986811023622047
 20
0.9898582677165355
 30
0.0
 10
0.2810984251968504
 20
1.038692913385827
 30
0.0
 10
0.2810984251968504
 20
1.038692913385827
 30
0.0
 10
0.2810984251968504
 20
1.038692913385827
 30
0.0
 10
0.2810984251968504
 20
1.038692913385827
 30
0.0
 10
0.2635984251968504
 20
0.9898582677165355
 30
0.0
 10
0.2635984251968504
 20
0.9898582677165355
 30
0.0
  0
SPLINE
  5
66
330
1F
100
AcDbEntity
  8
LAYER_1
 62
   250
100
AcDbSpline
210
0.0
220
0.0
230
1.0
 70
    11
 71
     3
 72
    72
 73
    68
 74
     0
 42
0.0000000001
 43
0.0000000001
 40
0.0
 40
0.0
 40
0.0
 40
0.0
 40
0.0588235294117647
 40
0.0588235294117647
 40
0.0588235294117647
 40
0.0588235294117647
 40
0.1176470588235294
 40
0.1176470588235294
 40
0.1176470588235294
 40
0.1176470588235294
 40
0.1764705882352941
 40
0.1764705882352941
 40
0.1764705882352941
 40
0.1764705882352941
 40
0.2352941176470588
 40
0.2352941176470588
 40
0.2352941176470588
 40
0.2352941176470588
 40
0.2941176470588235
 40
0.2941176470588235
 40
0.2941176470588235
 40
0.2941176470588235
 40
0.3529411764705883
 40
0.3529411764705883
 40
0.3529411764705883
 40
0.3529411764705883
 40
0.411764705882353
 40
0.411764705882353
 40
0.411764705882353
 40
0.411764705882353
 40
0.4705882352941177
 40
0.4705882352941177
 40
0.4705882352941177
 40
0.4705882352941177
 40
0.5294117647058824
 40
0.5294117647058824
 40
0.5294117647058824
 40
0.5294117647058824
 40
0.5882352941176471
 40
0.5882352941176471
 40
0.5882352941176471
 40
0.5882352941176471
 40
0.6470588235294118
 40
0.6470588235294118
 40
0.6470588235294118
 40
0.6470588235294118
 40
0.7058823529411765
 40
0.7058823529411765
 40
0.7058823529411765
 40
0.7058823529411765
 40
0.7647058823529412
 40
0.7647058823529412
 40
0.7647058823529412
 40
0.7647058823529412
 40
0.823529411764706
 40
0.823529411764706
 40
0.823529411764706
 40
0.823529411764706
 40
0.8823529411764707
 40
0.8823529411764707
 40
0.8823529411764707
 40
0.8823529411764707
 40
0.9411764705882354
 40
0.9411764705882354
 40
0.9411764705882354
 40
0.9411764705882354
 40
1.0
 40
1.0
 40
1.0
 40
1.0
 10
0.5036811023622048
 20
1.053330708661417
 30
0.0
 10
0.5036811023622048
 20
1.053330708661417
 30
0.0
 10
0.509763779527559
 20
1.053330708661417
 30
0.0
 10
0.509763779527559
 20
1.053330708661417
 30
0.0
 10
0.509763779527559
 20
1.053330708661417
 30
0.0
 10
0.509763779527559
 20
1.053330708661417
 30
0.0
 10
0.509763779527559
 20
0.9590826771653543
 30
0.0
 10
0.509763779527559
 20
0.9590826771653543
 30
0.0
 10
0.509763779527559
 20
0.9590826771653543
 30
0.0
 10
0.509763779527559
 20
0.9546377952755906
 30
0.0
 10
0.5100708661417323
 20
0.9517755905511811
 30
0.0
 10
0.5106259842519685
 20
0.950496062992126
 30
0.0
 10
0.5106259842519685
 20
0.950496062992126
 30
0.0
 10
0.5112086614173229
 20
0.9492204724409449
 30
0.0
 10
0.5121259842519685
 20
0.9482755905511812
 30
0.0
 10
0.5134291338582677
 20
0.9476102362204725
 30
0.0
 10
0.5134291338582677
 20
0.9476102362204725
 30
0.0
 10
0.5147362204724409
 20
0.9469685039370079
 30
0.0
 10
0.5173188976377953
 20
0.9466377952755906
 30
0.0
 10
0.5211811023622047
 20
0.9466377952755906
 30
0.0
 10
0.5211811023622047
 20
0.9466377952755906
 30
0.0
 10
0.5211811023622047
 20
0.9466377952755906
 30
0.0
 10
0.5291535433070866
 20
0.9466377952755906
 30
0.0
 10
0.5291535433070866
 20
0.9466377952755906
 30
0.0
 10
0.5291535433070866
 20
0.9466377952755906
 30
0.0
 10
0.5291535433070866
 20
0.9466377952755906
 30
0.0
 10
0.5291535433070866
 20
0.9398031496062993
 30
0.0
 10
0.5291535433070866
 20
0.9398031496062993
 30
0.0
 10
0.5291535433070866
 20
0.9398031496062993
 30
0.0
 10
0.5291535433070866
 20
0.9398031496062993
 30
0.0
 10
0.4755157480314961
 20
0.9398031496062993
 30
0.0
 10
0.4755157480314961
 20
0.9398031496062993
 30
0.0
 10
0.4755157480314961
 20
0.9398031496062993
 30
0.0
 10
0.4755157480314961
 20
0.9398031496062993
 30
0.0
 10
0.4755157480314961
 20
0.9466377952755906
 30
0.0
 10
0.4755157480314961
 20
0.9466377952755906
 30
0.0
 10
0.4755157480314961
 20
0.9466377952755906
 30
0.0
 10
0.4755157480314961
 20
0.9466377952755906
 30
0.0
 10
0.4843740157480315
 20
0.9466377952755906
 30
0.0
 10
0.4843740157480315
 20
0.9466377952755906
 30
0.0
 10
0.4843740157480315
 20
0.9466377952755906
 30
0.0
 10
0.488236220472441
 20
0.9466377952755906
 30
0.0
 10
0.4907913385826772
 20
0.9469685039370079
 30
0.0
 10
0.4920708661417323
 20
0.9476653543307086
 30
0.0
 10
0.4920708661417323
 20
0.9476653543307086
 30
0.0
 10
0.4933464566929134
 20
0.9483307086614173
 30
0.0
 10
0.4943464566929134
 20
0.9494133858267717
 30
0.0
 10
0.4950433070866142
 20
0.9509133858267717
 30
0.0
 10
0.4950433070866142
 20
0.9509133858267717
 30
0.0
 10
0.495736220472441
 20
0.9524133858267717
 30
0.0
 10
0.4960984251968504
 20
0.9551377952755906
 30
0.0
 10
0.4960984251968504
 20
0.9590826771653543
 30
0.0
 10
0.4960984251968504
 20
0.9590826771653543
 30
0.0
 10
0.4960984251968504
 20
0.9590826771653543
 30
0.0
 10
0.4960984251968504
 20
1.036551181102362
 30
0.0
 10
0.4960984251968504
 20
1.036551181102362
 30
0.0
 10
0.4960984251968504
 20
1.036551181102362
 30
0.0
 10
0.4960984251968504
 20
1.036551181102362
 30
0.0
 10
0.4755157480314961
 20
1.036551181102362
 30
0.0
 10
0.4755157480314961
 20
1.036551181102362
 30
0.0
 10
0.4755157480314961
 20
1.036551181102362
 30
0.0
 10
0.4755157480314961
 20
1.036551181102362
 30
0.0
 10
0.4755157480314961
 20
1.043551181102362
 30
0.0
 10
0.4755157480314961
 20
1.043551181102362
 30
0.0
 10
0.4755157480314961
 20
1.043551181102362
 30
0.0
 10
0.486736220472441
 20
1.045133858267717
 30
0.0
 10
0.4961259842519685
 20
1.048385826771654
 30
0.0
 10
0.5036811023622048
 20
1.053330708661417
 30
0.0
  0
SPLINE
  5
67
330
1F
100
AcDbEntity
  8
LAYER_1
 62
   250
100
AcDbSpline
210
0.0
220
0.0
230
1.0
 70
    11
 71
     3
 72
    80
 73
    76
 74
     0
 42
0.0000000001
 43
0.0000000001
 40
0.0
 40
0.0
 40
0.0
 40
0.0
 40
0.0526315789473684
 40
0.0526315789473684
 40
0.0526315789473684
 40
0.0526315789473684
 40
0.1052631578947368
 40
0.1052631578947368
 40
0.1052631578947368
 40
0.1052631578947368
 40
0.1578947368421053
 40
0.1578947368421053
 40
0.1578947368421053
 40
0.1578947368421053
 40
0.2105263157894737
 40
0.2105263157894737
 40
0.2105263157894737
 40
0.2105263157894737
 40
0.2631578947368421
 40
0.2631578947368421
 40
0.2631578947368421
 40
0.2631578947368421
 40
0.3157894736842105
 40
0.3157894736842105
 40
0.3157894736842105
 40
0.3157894736842105
 40
0.3684210526315789
 40
0.3684210526315789
 40
0.3684210526315789
 40
0.3684210526315789
 40
0.4210526315789474
 40
0.4210526315789474
 40
0.4210526315789474
 40
0.4210526315789474
 40
0.4736842105263158
 40
0.4736842105263158
 40
0.4736842105263158
 40
0.4736842105263158
 40
0.5263157894736842
 40
0.5263157894736842
 40
0.5263157894736842
 40
0.5263157894736842
 40
0.5789473684210527
 40
0.5789473684210527
 40
0.5789473684210527
 40
0.5789473684210527
 40
0.631578947368421
 40
0.631578947368421
 40
0.631578947368421
 40
0.631578947368421
 40
0.6842105263157894
 40
0.6842105263157894
 40
0.6842105263157894
 40
0.6842105263157894
 40
0.7368421052631577
 40
0.7368421052631577
 40
0.7368421052631577
 40
0.7368421052631577
 40
0.7894736842105261
 40
0.7894736842105261
 40
0.7894736842105261
 40
0.7894736842105261
 40
0.8421052631578945
 40
0.8421052631578945
 40
0.8421052631578945
 40
0.8421052631578945
 40
0.8947368421052628
 40
0.8947368421052628
 40
0.8947368421052628
 40
0.8947368421052628
 40
0.9473684210526312
 40
0.9473684210526312
 40
0.9473684210526312
 40
0.9473684210526312
 40
1.0
 40
1.0
 40
1.0
 40
1.0
 10
0.5690984251968504
 20
1.057468503937008
 30
0.0
 10
0.5690984251968504
 20
1.057468503937008
 30
0.0
 10
0.574488188976378
 20
1.057468503937008
 30
0.0
 10
0.574488188976378
 20
1.057468503937008
 30
0.0
 10
0.574488188976378
 20
1.057468503937008
 30
0.0
 10
0.574488188976378
 20
1.057468503937008
 30
0.0
 10
0.5754606299212599
 20
1.053330708661417
 30
0.0
 10
0.5754606299212599
 20
1.053330708661417
 30
0.0
 10
0.5754606299212599
 20
1.053330708661417
 30
0.0
 10
0.5754606299212599
 20
1.053330708661417
 30
0.0
 10
0.6465708661417323
 20
1.053330708661417
 30
0.0
 10
0.6465708661417323
 20
1.053330708661417
 30
0.0
 10
0.6465708661417323
 20
1.053330708661417
 30
0.0
 10
0.6465708661417323
 20
1.053330708661417
 30
0.0
 10
0.6465708661417323
 20
1.046413385826772
 30
0.0
 10
0.6465708661417323
 20
1.046413385826772
 30
0.0
 10
0.6465708661417323
 20
1.046413385826772
 30
0.0
 10
0.6380708661417324
 20
1.03657874015748
 30
0.0
 10
0.6303464566929135
 20
1.025413385826772
 30
0.0
 10
0.6234330708661418
 20
1.012830708661417
 30
0.0
 10
0.6234330708661418
 20
1.012830708661417
 30
0.0
 10
0.6165157480314961
 20
1.000275590551181
 30
0.0
 10
0.6111535433070866
 20
0.987496062992126
 30
0.0
 10
0.6073464566929134
 20
0.9744685039370079
 30
0.0
 10
0.6073464566929134
 20
0.9744685039370079
 30
0.0
 10
0.6045984251968504
 20
0.9650826771653543
 30
0.0
 10
0.6023503937007875
 20
0.9535236220472442
 30
0.0
 10
0.6005984251968505
 20
0.9398031496062993
 30
0.0
 10
0.6005984251968505
 20
0.9398031496062993
 30
0.0
 10
0.6005984251968505
 20
0.9398031496062993
 30
0.0
 10
0.5839330708661418
 20
0.9398031496062993
 30
0.0
 10
0.5839330708661418
 20
0.9398031496062993
 30
0.0
 10
0.5839330708661418
 20
0.9398031496062993
 30
0.0
 10
0.5855433070866142
 20
0.9519133858267717
 30
0.0
 10
0.5882086614173229
 20
0.9632204724409449
 30
0.0
 10
0.5919330708661418
 20
0.973748031496063
 30
0.0
 10
0.5919330708661418
 20
0.973748031496063
 30
0.0
 10
0.5956535433070866
 20
0.9842755905511812
 30
0.0
 10
0.601015748031496
 20
0.9952755905511811
 30
0.0
 10
0.6080433070866143
 20
1.006748031496063
 30
0.0
 10
0.6080433070866143
 20
1.006748031496063
 30
0.0
 10
0.6150708661417323
 20
1.018220472440945
 30
0.0
 10
0.6235984251968504
 20
1.029665354330709
 30
0.0
 10
0.6336535433070867
 20
1.041106299212599
 30
0.0
 10
0.6336535433070867
 20
1.041106299212599
 30
0.0
 10
0.6336535433070867
 20
1.041106299212599
 30
0.0
 10
0.5829330708661418
 20
1.041106299212599
 30
0.0
 10
0.5829330708661418
 20
1.041106299212599
 30
0.0
 10
0.5829330708661418
 20
1.041106299212599
 30
0.0
 10
0.579263779527559
 20
1.041106299212599
 30
0.0
 10
0.576736220472441
 20
1.04094094488189
 30
0.0
 10
0.5753779527559055
 20
1.040551181102362
 30
0.0
 10
0.5753779527559055
 20
1.040551181102362
 30
0.0
 10
0.5740157480314961
 20
1.040165354330709
 30
0.0
 10
0.5729606299212599
 20
1.03957874015748
 30
0.0
 10
0.5722086614173229
 20
1.038775590551181
 30
0.0
 10
0.5722086614173229
 20
1.038775590551181
 30
0.0
 10
0.5714330708661417
 20
1.03794094488189
 30
0.0
 10
0.5707913385826772
 20
1.036496062992126
 30
0.0
 10
0.5702362204724409
 20
1.03444094488189
 30
0.0
 10
0.5702362204724409
 20
1.03444094488189
 30
0.0
 10
0.5702362204724409
 20
1.03444094488189
 30
0.0
 10
0.5698503937007874
 20
1.032913385826772
 30
0.0
 10
0.5698503937007874
 20
1.032913385826772
 30
0.0
 10
0.5698503937007874
 20
1.032913385826772
 30
0.0
 10
0.5698503937007874
 20
1.032913385826772
 30
0.0
 10
0.5670708661417323
 20
1.023303149606299
 30
0.0
 10
0.5670708661417323
 20
1.023303149606299
 30
0.0
 10
0.5670708661417323
 20
1.023303149606299
 30
0.0
 10
0.5670708661417323
 20
1.023303149606299
 30
0.0
 10
0.5601535433070867
 20
1.024775590551181
 30
0.0
 10
0.5601535433070867
 20
1.024775590551181
 30
0.0
 10
0.5601535433070867
 20
1.024775590551181
 30
0.0
 10
0.5601535433070867
 20
1.024775590551181
 30
0.0
 10
0.5690984251968504
 20
1.057468503937008
 30
0.0
 10
0.5690984251968504
 20
1.057468503937008
 30
0.0
  0
SPLINE
  5
68
330
1F
100
AcDbEntity
  8
LAYER_1
 62
   250
100
AcDbSpline
210
0.0
220
0.0
230
1.0
 70
    11
 71
     3
 72
    72
 73
    68
 74
     0
 42
0.0000000001
 43
0.0000000001
 40
0.0
 40
0.0
 40
0.0
 40
0.0
 40
0.0588235294117647
 40
0.0588235294117647
 40
0.0588235294117647
 40
0.0588235294117647
 40
0.1176470588235294
 40
0.1176470588235294
 40
0.1176470588235294
 40
0.1176470588235294
 40
0.1764705882352941
 40
0.1764705882352941
 40
0.1764705882352941
 40
0.1764705882352941
 40
0.2352941176470588
 40
0.2352941176470588
 40
0.2352941176470588
 40
0.2352941176470588
 40
0.2941176470588235
 40
0.2941176470588235
 40
0.2941176470588235
 40
0.2941176470588235
 40
0.3529411764705883
 40
0.3529411764705883
 40
0.3529411764705883
 40
0.3529411764705883
 40
0.411764705882353
 40
0.411764705882353
 40
0.411764705882353
 40
0.411764705882353
 40
0.4705882352941177
 40
0.4705882352941177
 40
0.4705882352941177
 40
0.4705882352941177
 40
0.5294117647058824
 40
0.5294117647058824
 40
0.5294117647058824
 40
0.5294117647058824
 40
0.5882352941176471
 40
0.5882352941176471
 40
0.5882352941176471
 40
0.5882352941176471
 40
0.6470588235294118
 40
0.6470588235294118
 40
0.6470588235294118
 40
0.6470588235294118
 40
0.7058823529411765
 40
0.7058823529411765
 40
0.7058823529411765
 40
0.7058823529411765
 40
0.7647058823529412
 40
0.7647058823529412
 40
0.7647058823529412
 40
0.7647058823529412
 40
0.823529411764706
 40
0.823529411764706
 40
0.823529411764706
 40
0.823529411764706
 40
0.8823529411764707
 40
0.8823529411764707
 40
0.8823529411764707
 40
0.8823529411764707
 40
0.9411764705882354
 40
0.9411764705882354
 40
0.9411764705882354
 40
0.9411764705882354
 40
1.0
 40
1.0
 40
1.0
 40
1.0
 10
0.7104055118110236
 20
1.053330708661417
 30
0.0
 10
0.7104055118110236
 20
1.053330708661417
 30
0.0
 10
0.716488188976378
 20
1.053330708661417
 30
0.0
 10
0.716488188976378
 20
1.053330708661417
 30
0.0
 10
0.716488188976378
 20
1.053330708661417
 30
0.0
 10
0.716488188976378
 20
1.053330708661417
 30
0.0
 10
0.716488188976378
 20
0.9590826771653543
 30
0.0
 10
0.716488188976378
 20
0.9590826771653543
 30
0.0
 10
0.716488188976378
 20
0.9590826771653543
 30
0.0
 10
0.716488188976378
 20
0.9546377952755906
 30
0.0
 10
0.7167952755905512
 20
0.9517755905511811
 30
0.0
 10
0.7173503937007875
 20
0.950496062992126
 30
0.0
 10
0.7173503937007875
 20
0.950496062992126
 30
0.0
 10
0.7179330708661418
 20
0.9492204724409449
 30
0.0
 10
0.7188503937007874
 20
0.9482755905511812
 30
0.0
 10
0.7201535433070867
 20
0.9476102362204725
 30
0.0
 10
0.7201535433070867
 20
0.9476102362204725
 30
0.0
 10
0.7214606299212599
 20
0.9469685039370079
 30
0.0
 10
0.7240433070866142
 20
0.9466377952755906
 30
0.0
 10
0.7279055118110237
 20
0.9466377952755906
 30
0.0
 10
0.7279055118110237
 20
0.9466377952755906
 30
0.0
 10
0.7279055118110237
 20
0.9466377952755906
 30
0.0
 10
0.7358779527559055
 20
0.9466377952755906
 30
0.0
 10
0.7358779527559055
 20
0.9466377952755906
 30
0.0
 10
0.7358779527559055
 20
0.9466377952755906
 30
0.0
 10
0.7358779527559055
 20
0.9466377952755906
 30
0.0
 10
0.7358779527559055
 20
0.9398031496062993
 30
0.0
 10
0.7358779527559055
 20
0.9398031496062993
 30
0.0
 10
0.7358779527559055
 20
0.9398031496062993
 30
0.0
 10
0.7358779527559055
 20
0.9398031496062993
 30
0.0
 10
0.682240157480315
 20
0.9398031496062993
 30
0.0
 10
0.682240157480315
 20
0.9398031496062993
 30
0.0
 10
0.682240157480315
 20
0.9398031496062993
 30
0.0
 10
0.682240157480315
 20
0.9398031496062993
 30
0.0
 10
0.682240157480315
 20
0.9466377952755906
 30
0.0
 10
0.682240157480315
 20
0.9466377952755906
 30
0.0
 10
0.682240157480315
 20
0.9466377952755906
 30
0.0
 10
0.682240157480315
 20
0.9466377952755906
 30
0.0
 10
0.6910984251968504
 20
0.9466377952755906
 30
0.0
 10
0.6910984251968504
 20
0.9466377952755906
 30
0.0
 10
0.6910984251968504
 20
0.9466377952755906
 30
0.0
 10
0.6949606299212598
 20
0.9466377952755906
 30
0.0
 10
0.6975157480314961
 20
0.9469685039370079
 30
0.0
 10
0.6987952755905512
 20
0.9476653543307086
 30
0.0
 10
0.6987952755905512
 20
0.9476653543307086
 30
0.0
 10
0.7000708661417323
 20
0.9483307086614173
 30
0.0
 10
0.7010708661417323
 20
0.9494133858267717
 30
0.0
 10
0.7017677165354331
 20
0.9509133858267717
 30
0.0
 10
0.7017677165354331
 20
0.9509133858267717
 30
0.0
 10
0.7024606299212599
 20
0.9524133858267717
 30
0.0
 10
0.7028228346456693
 20
0.9551377952755906
 30
0.0
 10
0.7028228346456693
 20
0.9590826771653543
 30
0.0
 10
0.7028228346456693
 20
0.9590826771653543
 30
0.0
 10
0.7028228346456693
 20
0.9590826771653543
 30
0.0
 10
0.7028228346456693
 20
1.036551181102362
 30
0.0
 10
0.7028228346456693
 20
1.036551181102362
 30
0.0
 10
0.7028228346456693
 20
1.036551181102362
 30
0.0
 10
0.7028228346456693
 20
1.036551181102362
 30
0.0
 10
0.682240157480315
 20
1.036551181102362
 30
0.0
 10
0.682240157480315
 20
1.036551181102362
 30
0.0
 10
0.682240157480315
 20
1.036551181102362
 30
0.0
 10
0.682240157480315
 20
1.036551181102362
 30
0.0
 10
0.682240157480315
 20
1.043551181102362
 30
0.0
 10
0.682240157480315
 20
1.043551181102362
 30
0.0
 10
0.682240157480315
 20
1.043551181102362
 30
0.0
 10
0.6934606299212599
 20
1.045133858267717
 30
0.0
 10
0.7028503937007874
 20
1.048385826771654
 30
0.0
 10
0.7104055118110236
 20
1.053330708661417
 30
0.0
  0
SPLINE
  5
69
330
1F
100
AcDbEntity
  8
LAYER_1
 62
   250
100
AcDbSpline
210
0.0
220
0.0
230
1.0
 70
    11
 71
     3
 72
    80
 73
    76
 74
     0
 42
0.0000000001
 43
0.0000000001
 40
0.0
 40
0.0
 40
0.0
 40
0.0
 40
0.0526315789473684
 40
0.0526315789473684
 40
0.0526315789473684
 40
0.0526315789473684
 40
0.1052631578947368
 40
0.1052631578947368
 40
0.1052631578947368
 40
0.1052631578947368
 40
0.1578947368421053
 40
0.1578947368421053
 40
0.1578947368421053
 40
0.1578947368421053
 40
0.2105263157894737
 40
0.2105263157894737
 40
0.2105263157894737
 40
0.2105263157894737
 40
0.2631578947368421
 40
0.2631578947368421
 40
0.2631578947368421
 40
0.2631578947368421
 40
0.3157894736842105
 40
0.3157894736842105
 40
0.3157894736842105
 40
0.3157894736842105
 40
0.3684210526315789
 40
0.3684210526315789
 40
0.3684210526315789
 40
0.3684210526315789
 40
0.4210526315789474
 40
0.4210526315789474
 40
0.4210526315789474
 40
0.4210526315789474
 40
0.4736842105263158
 40
0.4736842105263158
 40
0.4736842105263158
 40
0.4736842105263158
 40
0.5263157894736842
 40
0.5263157894736842
 40
0.5263157894736842
 40
0.5263157894736842
 40
0.5789473684210527
 40
0.5789473684210527
 40
0.5789473684210527
 40
0.5789473684210527
 40
0.631578947368421
 40
0.631578947368421
 40
0.631578947368421
 40
0.631578947368421
 40
0.6842105263157894
 40
0.6842105263157894
 40
0.6842105263157894
 40
0.6842105263157894
 40
0.7368421052631577
 40
0.7368421052631577
 40
0.7368421052631577
 40
0.7368421052631577
 40
0.7894736842105261
 40
0.7894736842105261
 40
0.7894736842105261
 40
0.7894736842105261
 40
0.8421052631578945
 40
0.8421052631578945
 40
0.8421052631578945
 40
0.8421052631578945
 40
0.8947368421052628
 40
0.8947368421052628
 40
0.8947368421052628
 40
0.8947368421052628
 40
0.9473684210526312
 40
0.9473684210526312
 40
0.9473684210526312
 40
0.9473684210526312
 40
1.0
 40
1.0
 40
1.0
 40
1.0
 10
0.7758228346456694
 20
1.057468503937008
 30
0.0
 10
0.7758228346456694
 20
1.057468503937008
 30
0.0
 10
0.7812125984251969
 20
1.057468503937008
 30
0.0
 10
0.7812125984251969
 20
1.057468503937008
 30
0.0
 10
0.7812125984251969
 20
1.057468503937008
 30
0.0
 10
0.7812125984251969
 20
1.057468503937008
 30
0.0
 10
0.7821850393700788
 20
1.053330708661417
 30
0.0
 10
0.7821850393700788
 20
1.053330708661417
 30
0.0
 10
0.7821850393700788
 20
1.053330708661417
 30
0.0
 10
0.7821850393700788
 20
1.053330708661417
 30
0.0
 10
0.8532952755905512
 20
1.053330708661417
 30
0.0
 10
0.8532952755905512
 20
1.053330708661417
 30
0.0
 10
0.8532952755905512
 20
1.053330708661417
 30
0.0
 10
0.8532952755905512
 20
1.053330708661417
 30
0.0
 10
0.8532952755905512
 20
1.046413385826772
 30
0.0
 10
0.8532952755905512
 20
1.046413385826772
 30
0.0
 10
0.8532952755905512
 20
1.046413385826772
 30
0.0
 10
0.8447952755905512
 20
1.03657874015748
 30
0.0
 10
0.8370708661417323
 20
1.025413385826772
 30
0.0
 10
0.8301574803149606
 20
1.012830708661417
 30
0.0
 10
0.8301574803149606
 20
1.012830708661417
 30
0.0
 10
0.823240157480315
 20
1.000275590551181
 30
0.0
 10
0.8178779527559056
 20
0.987496062992126
 30
0.0
 10
0.8140708661417323
 20
0.9744685039370079
 30
0.0
 10
0.8140708661417323
 20
0.9744685039370079
 30
0.0
 10
0.8113228346456693
 20
0.9650826771653543
 30
0.0
 10
0.8090748031496063
 20
0.9535236220472442
 30
0.0
 10
0.8073228346456693
 20
0.9398031496062993
 30
0.0
 10
0.8073228346456693
 20
0.9398031496062993
 30
0.0
 10
0.8073228346456693
 20
0.9398031496062993
 30
0.0
 10
0.7906574803149606
 20
0.9398031496062993
 30
0.0
 10
0.7906574803149606
 20
0.9398031496062993
 30
0.0
 10
0.7906574803149606
 20
0.9398031496062993
 30
0.0
 10
0.7922677165354332
 20
0.9519133858267717
 30
0.0
 10
0.7949330708661417
 20
0.9632204724409449
 30
0.0
 10
0.7986574803149606
 20
0.973748031496063
 30
0.0
 10
0.7986574803149606
 20
0.973748031496063
 30
0.0
 10
0.8023779527559055
 20
0.9842755905511812
 30
0.0
 10
0.807740157480315
 20
0.9952755905511811
 30
0.0
 10
0.8147677165354331
 20
1.006748031496063
 30
0.0
 10
0.8147677165354331
 20
1.006748031496063
 30
0.0
 10
0.8217952755905512
 20
1.018220472440945
 30
0.0
 10
0.8303228346456694
 20
1.029665354330709
 30
0.0
 10
0.8403779527559055
 20
1.041106299212599
 30
0.0
 10
0.8403779527559055
 20
1.041106299212599
 30
0.0
 10
0.8403779527559055
 20
1.041106299212599
 30
0.0
 10
0.7896574803149606
 20
1.041106299212599
 30
0.0
 10
0.7896574803149606
 20
1.041106299212599
 30
0.0
 10
0.7896574803149606
 20
1.041106299212599
 30
0.0
 10
0.785988188976378
 20
1.041106299212599
 30
0.0
 10
0.7834606299212599
 20
1.04094094488189
 30
0.0
 10
0.7821023622047244
 20
1.040551181102362
 30
0.0
 10
0.7821023622047244
 20
1.040551181102362
 30
0.0
 10
0.780740157480315
 20
1.040165354330709
 30
0.0
 10
0.7796850393700788
 20
1.03957874015748
 30
0.0
 10
0.7789330708661417
 20
1.038775590551181
 30
0.0
 10
0.7789330708661417
 20
1.038775590551181
 30
0.0
 10
0.7781574803149607
 20
1.03794094488189
 30
0.0
 10
0.7775157480314962
 20
1.036496062992126
 30
0.0
 10
0.7769606299212599
 20
1.03444094488189
 30
0.0
 10
0.7769606299212599
 20
1.03444094488189
 30
0.0
 10
0.7769606299212599
 20
1.03444094488189
 30
0.0
 10
0.7765748031496064
 20
1.032913385826772
 30
0.0
 10
0.7765748031496064
 20
1.032913385826772
 30
0.0
 10
0.7765748031496064
 20
1.032913385826772
 30
0.0
 10
0.7765748031496064
 20
1.032913385826772
 30
0.0
 10
0.7737952755905512
 20
1.023303149606299
 30
0.0
 10
0.7737952755905512
 20
1.023303149606299
 30
0.0
 10
0.7737952755905512
 20
1.023303149606299
 30
0.0
 10
0.7737952755905512
 20
1.023303149606299
 30
0.0
 10
0.7668779527559055
 20
1.024775590551181
 30
0.0
 10
0.7668779527559055
 20
1.024775590551181
 30
0.0
 10
0.7668779527559055
 20
1.024775590551181
 30
0.0
 10
0.7668779527559055
 20
1.024775590551181
 30
0.0
 10
0.7758228346456694
 20
1.057468503937008
 30
0.0
 10
0.7758228346456694
 20
1.057468503937008
 30
0.0
  0
SPLINE
  5
6A
330
1F
100
AcDbEntity
  8
LAYER_1
 62
   250
100
AcDbSpline
210
0.0
220
0.0
230
1.0
 70
    11
 71
     3
 72
    76
 73
    72
 74
     0
 42
0.0000000001
 43
0.0000000001
 40
0.0
 40
0.0
 40
0.0
 40
0.0
 40
0.0555555555555556
 40
0.0555555555555556
 40
0.0555555555555556
 40
0.0555555555555556
 40
0.1111111111111111
 40
0.1111111111111111
 40
0.1111111111111111
 40
0.1111111111111111
 40
0.1666666666666667
 40
0.1666666666666667
 40
0.1666666666666667
 40
0.1666666666666667
 40
0.2222222222222222
 40
0.2222222222222222
 40
0.2222222222222222
 40
0.2222222222222222
 40
0.2777777777777778
 40
0.2777777777777778
 40
0.2777777777777778
 40
0.2777777777777778
 40
0.3333333333333334
 40
0.3333333333333334
 40
0.3333333333333334
 40
0.3333333333333334
 40
0.388888888888889
 40
0.388888888888889
 40
0.388888888888889
 40
0.388888888888889
 40
0.4444444444444445
 40
0.4444444444444445
 40
0.4444444444444445
 40
0.4444444444444445
 40
0.5000000000000001
 40
0.5000000000000001
 40
0.5000000000000001
 40
0.5000000000000001
 40
0.5555555555555557
 40
0.5555555555555557
 40
0.5555555555555557
 40
0.5555555555555557
 40
0.6111111111111113
 40
0.6111111111111113
 40
0.6111111111111113
 40
0.6111111111111113
 40
0.6666666666666669
 40
0.6666666666666669
 40
0.6666666666666669
 40
0.6666666666666669
 40
0.7222222222222224
 40
0.7222222222222224
 40
0.7222222222222224
 40
0.7222222222222224
 40
0.777777777777778
 40
0.777777777777778
 40
0.777777777777778
 40
0.777777777777778
 40
0.8333333333333336
 40
0.8333333333333336
 40
0.8333333333333336
 40
0.8333333333333336
 40
0.8888888888888892
 40
0.8888888888888892
 40
0.8888888888888892
 40
0.8888888888888892
 40
0.9444444444444448
 40
0.9444444444444448
 40
0.9444444444444448
 40
0.9444444444444448
 40
1.0
 40
1.0
 40
1.0
 40
1.0
 10
0.1272834645669291
 20
0.866720472440945
 30
0.0
 10
0.1272834645669291
 20
0.866720472440945
 30
0.0
 10
0.1272834645669291
 20
0.8180511811023622
 30
0.0
 10
0.1272834645669291
 20
0.8180511811023622
 30
0.0
 10
0.1272834645669291
 20
0.8180511811023622
 30
0.0
 10
0.1272834645669291
 20
0.8153582677165354
 30
0.0
 10
0.1275590551181103
 20
0.8136929133858268
 30
0.0
 10
0.1281456692913386
 20
0.8131377952755906
 30
0.0
 10
0.1281456692913386
 20
0.8131377952755906
 30
0.0
 10
0.1287007874015748
 20
0.8125511811023622
 30
0.0
 10
0.1303110236220473
 20
0.8122755905511812
 30
0.0
 10
0.1329763779527559
 20
0.8122755905511812
 30
0.0
 10
0.1329763779527559
 20
0.8122755905511812
 30
0.0
 10
0.1329763779527559
 20
0.8122755905511812
 30
0.0
 10
0.1386732283464567
 20
0.8122755905511812
 30
0.0
 10
0.1386732283464567
 20
0.8122755905511812
 30
0.0
 10
0.1386732283464567
 20
0.8122755905511812
 30
0.0
 10
0.1386732283464567
 20
0.8122755905511812
 30
0.0
 10
0.1386732283464567
 20
0.8077204724409449
 30
0.0
 10
0.1386732283464567
 20
0.8077204724409449
 30
0.0
 10
0.1386732283464567
 20
0.8077204724409449
 30
0.0
 10
0.1386732283464567
 20
0.8077204724409449
 30
0.0
 10
0.1050629921259843
 20
0.8077204724409449
 30
0.0
 10
0.1050629921259843
 20
0.8077204724409449
 30
0.0
 10
0.1050629921259843
 20
0.8077204724409449
 30
0.0
 10
0.1050629921259843
 20
0.8077204724409449
 30
0.0
 10
0.1050629921259843
 20
0.8122755905511812
 30
0.0
 10
0.1050629921259843
 20
0.8122755905511812
 30
0.0
 10
0.1050629921259843
 20
0.8122755905511812
 30
0.0
 10
0.1050629921259843
 20
0.8122755905511812
 30
0.0
 10
0.111255905511811
 20
0.8122755905511812
 30
0.0
 10
0.111255905511811
 20
0.8122755905511812
 30
0.0
 10
0.111255905511811
 20
0.8122755905511812
 30
0.0
 10
0.1134212598425197
 20
0.8122755905511812
 30
0.0
 10
0.1147834645669291
 20
0.8124133858267717
 30
0.0
 10
0.1153661417322835
 20
0.8126929133858268
 30
0.0
 10
0.1153661417322835
 20
0.8126929133858268
 30
0.0
 10
0.1159212598425197
 20
0.8129685039370079
 30
0.0
 10
0.1163661417322835
 20
0.8134409448818898
 30
0.0
 10
0.1167007874015748
 20
0.8141653543307087
 30
0.0
 10
0.1167007874015748
 20
0.8141653543307087
 30
0.0
 10
0.1170314960629921
 20
0.8148582677165355
 30
0.0
 10
0.1172007874015748
 20
0.8161653543307087
 30
0.0
 10
0.1172007874015748
 20
0.8180511811023622
 30
0.0
 10
0.1172007874015748
 20
0.8180511811023622
 30
0.0
 10
0.1172007874015748
 20
0.8180511811023622
 30
0.0
 10
0.1172007874015748
 20
0.8571062992125985
 30
0.0
 10
0.1172007874015748
 20
0.8571062992125985
 30
0.0
 10
0.1172007874015748
 20
0.8571062992125985
 30
0.0
 10
0.1172007874015748
 20
0.8571062992125985
 30
0.0
 10
0.1050629921259843
 20
0.8571062992125985
 30
0.0
 10
0.1050629921259843
 20
0.8571062992125985
 30
0.0
 10
0.1050629921259843
 20
0.8571062992125985
 30
0.0
 10
0.1050629921259843
 20
0.8571062992125985
 30
0.0
 10
0.1050629921259843
 20
0.8616929133858268
 30
0.0
 10
0.1050629921259843
 20
0.8616929133858268
 30
0.0
 10
0.1050629921259843
 20
0.8616929133858268
 30
0.0
 10
0.1081732283464567
 20
0.8620511811023622
 30
0.0
 10
0.1118661417322835
 20
0.8628307086614173
 30
0.0
 10
0.1162283464566929
 20
0.8639685039370079
 30
0.0
 10
0.1162283464566929
 20
0.8639685039370079
 30
0.0
 10
0.1188661417322835
 20
0.8646614173228346
 30
0.0
 10
0.1203937007874016
 20
0.8653031496062993
 30
0.0
 10
0.1207834645669291
 20
0.8658582677165355
 30
0.0
 10
0.1207834645669291
 20
0.8658582677165355
 30
0.0
 10
0.1211456692913386
 20
0.8664409448818898
 30
0.0
 10
0.1216456692913386
 20
0.866720472440945
 30
0.0
 10
0.1222283464566929
 20
0.866720472440945
 30
0.0
 10
0.1222283464566929
 20
0.866720472440945
 30
0.0
 10
0.1222283464566929
 20
0.866720472440945
 30
0.0
 10
0.1272834645669291
 20
0.866720472440945
 30
0.0
 10
0.1272834645669291
 20
0.866720472440945
 30
0.0
  0
SPLINE
  5
6B
330
1F
100
AcDbEntity
  8
LAYER_1
 62
   250
100
AcDbSpline
210
0.0
220
0.0
230
1.0
 70
    11
 71
     3
 72
    20
 73
    16
 74
     0
 42
0.0000000001
 43
0.0000000001
 40
0.0
 40
0.0
 40
0.0
 40
0.0
 40
0.25
 40
0.25
 40
0.25
 40
0.25
 40
0.5
 40
0.5
 40
0.5
 40
0.5
 40
0.75
 40
0.75
 40
0.75
 40
0.75
 40
1.0
 40
1.0
 40
1.0
 40
1.0
 10
0.2054763779527559
 20
0.8677755905511811
 30
0.0
 10
0.2054763779527559
 20
0.8677755905511811
 30
0.0
 10
0.1297834645669291
 20
0.7503582677165355
 30
0.0
 10
0.1297834645669291
 20
0.7503582677165355
 30
0.0
 10
0.1297834645669291
 20
0.7503582677165355
 30
0.0
 10
0.1297834645669291
 20
0.7503582677165355
 30
0.0
 10
0.1201181102362205
 20
0.7503582677165355
 30
0.0
 10
0.1201181102362205
 20
0.7503582677165355
 30
0.0
 10
0.1201181102362205
 20
0.7503582677165355
 30
0.0
 10
0.1201181102362205
 20
0.7503582677165355
 30
0.0
 10
0.1956456692913386
 20
0.8677755905511811
 30
0.0
 10
0.1956456692913386
 20
0.8677755905511811
 30
0.0
 10
0.1956456692913386
 20
0.8677755905511811
 30
0.0
 10
0.1956456692913386
 20
0.8677755905511811
 30
0.0
 10
0.2054763779527559
 20
0.8677755905511811
 30
0.0
 10
0.2054763779527559
 20
0.8677755905511811
 30
0.0
  0
SPLINE
  5
6C
330
1F
100
AcDbEntity
  8
LAYER_1
 62
   250
100
AcDbSpline
210
0.0
220
0.0
230
1.0
 70
    11
 71
     3
 72
   120
 73
   116
 74
     0
 42
0.0000000001
 43
0.0000000001
 40
0.0
 40
0.0
 40
0.0
 40
0.0
 40
0.0344827586206897
 40
0.0344827586206897
 40
0.0344827586206897
 40
0.0344827586206897
 40
0.0689655172413793
 40
0.0689655172413793
 40
0.0689655172413793
 40
0.0689655172413793
 40
0.103448275862069
 40
0.103448275862069
 40
0.103448275862069
 40
0.103448275862069
 40
0.1379310344827586
 40
0.1379310344827586
 40
0.1379310344827586
 40
0.1379310344827586
 40
0.1724137931034483
 40
0.1724137931034483
 40
0.1724137931034483
 40
0.1724137931034483
 40
0.206896551724138
 40
0.206896551724138
 40
0.206896551724138
 40
0.206896551724138
 40
0.2413793103448276
 40
0.2413793103448276
 40
0.2413793103448276
 40
0.2413793103448276
 40
0.2758620689655173
 40
0.2758620689655173
 40
0.2758620689655173
 40
0.2758620689655173
 40
0.310344827586207
 40
0.310344827586207
 40
0.310344827586207
 40
0.310344827586207
 40
0.3448275862068966
 40
0.3448275862068966
 40
0.3448275862068966
 40
0.3448275862068966
 40
0.3793103448275863
 40
0.3793103448275863
 40
0.3793103448275863
 40
0.3793103448275863
 40
0.413793103448276
 40
0.413793103448276
 40
0.413793103448276
 40
0.413793103448276
 40
0.4482758620689656
 40
0.4482758620689656
 40
0.4482758620689656
 40
0.4482758620689656
 40
0.4827586206896553
 40
0.4827586206896553
 40
0.4827586206896553
 40
0.4827586206896553
 40
0.517241379310345
 40
0.517241379310345
 40
0.517241379310345
 40
0.517241379310345
 40
0.5517241379310346
 40
0.5517241379310346
 40
0.5517241379310346
 40
0.5517241379310346
 40
0.5862068965517242
 40
0.5862068965517242
 40
0.5862068965517242
 40
0.5862068965517242
 40
0.6206896551724138
 40
0.6206896551724138
 40
0.6206896551724138
 40
0.6206896551724138
 40
0.6551724137931034
 40
0.6551724137931034
 40
0.6551724137931034
 40
0.6551724137931034
 40
0.689655172413793
 40
0.689655172413793
 40
0.689655172413793
 40
0.689655172413793
 40
0.7241379310344827
 40
0.7241379310344827
 40
0.7241379310344827
 40
0.7241379310344827
 40
0.7586206896551723
 40
0.7586206896551723
 40
0.7586206896551723
 40
0.7586206896551723
 40
0.7931034482758619
 40
0.7931034482758619
 40
0.7931034482758619
 40
0.7931034482758619
 40
0.8275862068965515
 40
0.8275862068965515
 40
0.8275862068965515
 40
0.8275862068965515
 40
0.8620689655172411
 40
0.8620689655172411
 40
0.8620689655172411
 40
0.8620689655172411
 40
0.8965517241379307
 40
0.8965517241379307
 40
0.8965517241379307
 40
0.8965517241379307
 40
0.9310344827586203
 40
0.9310344827586203
 40
0.9310344827586203
 40
0.9310344827586203
 40
0.9655172413793099
 40
0.9655172413793099
 40
0.9655172413793099
 40
0.9655172413793099
 40
1.0
 40
1.0
 40
1.0
 40
1.0
 10
0.1870866141732284
 20
0.7886102362204724
 30
0.0
 10
0.1870866141732284
 20
0.7886102362204724
 30
0.0
 10
0.1805866141732284
 20
0.7878582677165354
 30
0.0
 10
0.1805866141732284
 20
0.7878582677165354
 30
0.0
 10
0.1805866141732284
 20
0.7878582677165354
 30
0.0
 10
0.180255905511811
 20
0.7901929133858268
 30
0.0
 10
0.1800866141732284
 20
0.7920236220472441
 30
0.0
 10
0.1800866141732284
 20
0.7933307086614173
 30
0.0
 10
0.1800866141732284
 20
0.7933307086614173
 30
0.0
 10
0.1800866141732284
 20
0.7965236220472441
 30
0.0
 10
0.1810866141732284
 20
0.7996102362204725
 30
0.0
 10
0.1831141732283465
 20
0.8026102362204725
 30
0.0
 10
0.1831141732283465
 20
0.8026102362204725
 30
0.0
 10
0.1851141732283465
 20
0.8055787401574803
 30
0.0
 10
0.1880590551181103
 20
0.8079685039370079
 30
0.0
 10
0.1919212598425197
 20
0.8097755905511811
 30
0.0
 10
0.1919212598425197
 20
0.8097755905511811
 30
0.0
 10
0.1958110236220473
 20
0.8115511811023622
 30
0.0
 10
0.2002834645669291
 20
0.8124409448818898
 30
0.0
 10
0.2053110236220473
 20
0.8124409448818898
 30
0.0
 10
0.2053110236220473
 20
0.8124409448818898
 30
0.0
 10
0.2126417322834646
 20
0.8124409448818898
 30
0.0
 10
0.2184212598425197
 20
0.8106929133858268
 30
0.0
 10
0.2226417322834646
 20
0.8071929133858268
 30
0.0
 10
0.2226417322834646
 20
0.8071929133858268
 30
0.0
 10
0.2268937007874016
 20
0.8036929133858268
 30
0.0
 10
0.229003937007874
 20
0.7993582677165355
 30
0.0
 10
0.229003937007874
 20
0.7941377952755906
 30
0.0
 10
0.229003937007874
 20
0.7941377952755906
 30
0.0
 10
0.229003937007874
 20
0.790996062992126
 30
0.0
 10
0.2282283464566929
 20
0.7879133858267717
 30
0.0
 10
0.2266692913385827
 20
0.7849409448818898
 30
0.0
 10
0.2266692913385827
 20
0.7849409448818898
 30
0.0
 10
0.2251417322834646
 20
0.7819685039370079
 30
0.0
 10
0.2225590551181103
 20
0.7790826771653544
 30
0.0
 10
0.219003937007874
 20
0.7763031496062992
 30
0.0
 10
0.219003937007874
 20
0.7763031496062992
 30
0.0
 10
0.2154212598425197
 20
0.7735511811023622
 30
0.0
 10
0.2068110236220473
 20
0.7680236220472442
 30
0.0
 10
0.1932007874015748
 20
0.7597204724409449
 30
0.0
 10
0.1932007874015748
 20
0.7597204724409449
 30
0.0
 10
0.1932007874015748
 20
0.7597204724409449
 30
0.0
 10
0.2158110236220473
 20
0.7597204724409449
 30
0.0
 10
0.2158110236220473
 20
0.7597204724409449
 30
0.0
 10
0.2158110236220473
 20
0.7597204724409449
 30
0.0
 10
0.2184212598425197
 20
0.7597204724409449
 30
0.0
 10
0.2200590551181103
 20
0.7598582677165354
 30
0.0
 10
0.220755905511811
 20
0.7601102362204725
 30
0.0
 10
0.220755905511811
 20
0.7601102362204725
 30
0.0
 10
0.2214212598425197
 20
0.7603858267716536
 30
0.0
 10
0.2219488188976378
 20
0.7608582677165354
 30
0.0
 10
0.2222834645669291
 20
0.761496062992126
 30
0.0
 10
0.2222834645669291
 20
0.761496062992126
 30
0.0
 10
0.2226417322834646
 20
0.7621653543307086
 30
0.0
 10
0.2231141732283465
 20
0.7639685039370079
 30
0.0
 10
0.2237007874015748
 20
0.7669685039370079
 30
0.0
 10
0.2237007874015748
 20
0.7669685039370079
 30
0.0
 10
0.2237007874015748
 20
0.7669685039370079
 30
0.0
 10
0.2298110236220473
 20
0.7669685039370079
 30
0.0
 10
0.2298110236220473
 20
0.7669685039370079
 30
0.0
 10
0.2298110236220473
 20
0.7669685039370079
 30
0.0
 10
0.2298110236220473
 20
0.7669685039370079
 30
0.0
 10
0.2263110236220473
 20
0.7502755905511811
 30
0.0
 10
0.2263110236220473
 20
0.7502755905511811
 30
0.0
 10
0.2263110236220473
 20
0.7502755905511811
 30
0.0
 10
0.2263110236220473
 20
0.7502755905511811
 30
0.0
 10
0.221503937007874
 20
0.7502755905511811
 30
0.0
 10
0.221503937007874
 20
0.7502755905511811
 30
0.0
 10
0.221503937007874
 20
0.7502755905511811
 30
0.0
 10
0.221503937007874
 20
0.7502755905511811
 30
0.0
 10
0.2209488188976378
 20
0.7523858267716536
 30
0.0
 10
0.2209488188976378
 20
0.7523858267716536
 30
0.0
 10
0.2209488188976378
 20
0.7523858267716536
 30
0.0
 10
0.2209488188976378
 20
0.7523858267716536
 30
0.0
 10
0.1788661417322835
 20
0.7523858267716536
 30
0.0
 10
0.1788661417322835
 20
0.7523858267716536
 30
0.0
 10
0.1788661417322835
 20
0.7523858267716536
 30
0.0
 10
0.1788661417322835
 20
0.7523858267716536
 30
0.0
 10
0.1788661417322835
 20
0.7565511811023622
 30
0.0
 10
0.1788661417322835
 20
0.7565511811023622
 30
0.0
 10
0.1788661417322835
 20
0.7565511811023622
 30
0.0
 10
0.1788661417322835
 20
0.7565511811023622
 30
0.0
 10
0.1871732283464567
 20
0.761996062992126
 30
0.0
 10
0.1871732283464567
 20
0.761996062992126
 30
0.0
 10
0.1871732283464567
 20
0.761996062992126
 30
0.0
 10
0.1965590551181103
 20
0.7680826771653544
 30
0.0
 10
0.2033385826771654
 20
0.7728858267716536
 30
0.0
 10
0.2074763779527559
 20
0.776468503937008
 30
0.0
 10
0.2074763779527559
 20
0.776468503937008
 30
0.0
 10
0.2116141732283465
 20
0.7800511811023623
 30
0.0
 10
0.214503937007874
 20
0.7833582677165355
 30
0.0
 10
0.2161417322834646
 20
0.7864133858267717
 30
0.0
 10
0.2161417322834646
 20
0.7864133858267717
 30
0.0
 10
0.2172834645669292
 20
0.7885787401574803
 30
0.0
 10
0.2178661417322835
 20
0.7909409448818898
 30
0.0
 10
0.2178661417322835
 20
0.7934960629921261
 30
0.0
 10
0.2178661417322835
 20
0.7934960629921261
 30
0.0
 10
0.2178661417322835
 20
0.7973307086614173
 30
0.0
 10
0.2165314960629921
 20
0.8004685039370079
 30
0.0
 10
0.2138937007874016
 20
0.8028858267716535
 30
0.0
 10
0.2138937007874016
 20
0.8028858267716535
 30
0.0
 10
0.2112834645669292
 20
0.8053031496062992
 30
0.0
 10
0.2077007874015748
 20
0.8064960629921261
 30
0.0
 10
0.2032007874015748
 20
0.8064960629921261
 30
0.0
 10
0.2032007874015748
 20
0.8064960629921261
 30
0.0
 10
0.198255905511811
 20
0.8064960629921261
 30
0.0
 10
0.1943110236220473
 20
0.8051653543307087
 30
0.0
 10
0.1913110236220472
 20
0.8024685039370079
 30
0.0
 10
0.1913110236220472
 20
0.8024685039370079
 30
0.0
 10
0.1883385826771654
 20
0.7998031496062993
 30
0.0
 10
0.1868385826771654
 20
0.7965236220472441
 30
0.0
 10
0.1868385826771654
 20
0.7926653543307087
 30
0.0
 10
0.1868385826771654
 20
0.7926653543307087
 30
0.0
 10
0.1868385826771654
 20
0.7918582677165355
 30
0.0
 10
0.1869212598425197
 20
0.7904960629921261
 30
0.0
 10
0.1870866141732284
 20
0.7886102362204724
 30
0.0
  0
SPLINE
  5
6D
330
1F
100
AcDbEntity
  8
LAYER_1
 62
   250
100
AcDbSpline
210
0.0
220
0.0
230
1.0
 70
    11
 71
     3
 72
    60
 73
    56
 74
     0
 42
0.0000000001
 43
0.0000000001
 40
0.0
 40
0.0
 40
0.0
 40
0.0
 40
0.0714285714285714
 40
0.0714285714285714
 40
0.0714285714285714
 40
0.0714285714285714
 40
0.1428571428571429
 40
0.1428571428571429
 40
0.1428571428571429
 40
0.1428571428571429
 40
0.2142857142857143
 40
0.2142857142857143
 40
0.2142857142857143
 40
0.2142857142857143
 40
0.2857142857142857
 40
0.2857142857142857
 40
0.2857142857142857
 40
0.2857142857142857
 40
0.3571428571428571
 40
0.3571428571428571
 40
0.3571428571428571
 40
0.3571428571428571
 40
0.4285714285714285
 40
0.4285714285714285
 40
0.4285714285714285
 40
0.4285714285714285
 40
0.4999999999999999
 40
0.4999999999999999
 40
0.4999999999999999
 40
0.4999999999999999
 40
0.5714285714285713
 40
0.5714285714285713
 40
0.5714285714285713
 40
0.5714285714285713
 40
0.6428571428571427
 40
0.6428571428571427
 40
0.6428571428571427
 40
0.6428571428571427
 40
0.7142857142857141
 40
0.7142857142857141
 40
0.7142857142857141
 40
0.7142857142857141
 40
0.7857142857142855
 40
0.7857142857142855
 40
0.7857142857142855
 40
0.7857142857142855
 40
0.8571428571428569
 40
0.8571428571428569
 40
0.8571428571428569
 40
0.8571428571428569
 40
0.9285714285714283
 40
0.9285714285714283
 40
0.9285714285714283
 40
0.9285714285714283
 40
1.0
 40
1.0
 40
1.0
 40
1.0
 10
0.2503937007874016
 20
0.823748031496063
 30
0.0
 10
0.2503937007874016
 20
0.823748031496063
 30
0.0
 10
0.246003937007874
 20
0.8291377952755906
 30
0.0
 10
0.246003937007874
 20
0.8291377952755906
 30
0.0
 10
0.246003937007874
 20
0.8291377952755906
 30
0.0
 10
0.2571181102362205
 20
0.8381929133858268
 30
0.0
 10
0.2627007874015748
 20
0.845748031496063
 30
0.0
 10
0.2627007874015748
 20
0.8518307086614173
 30
0.0
 10
0.2627007874015748
 20
0.8518307086614173
 30
0.0
 10
0.2627007874015748
 20
0.8525236220472441
 30
0.0
 10
0.2626456692913386
 20
0.8534133858267717
 30
0.0
 10
0.2625314960629921
 20
0.8544409448818898
 30
0.0
 10
0.2625314960629921
 20
0.8544409448818898
 30
0.0
 10
0.2616181102362205
 20
0.8540511811023622
 30
0.0
 10
0.2607007874015748
 20
0.853748031496063
 30
0.0
 10
0.2598385826771654
 20
0.8535511811023623
 30
0.0
 10
0.2598385826771654
 20
0.8535511811023623
 30
0.0
 10
0.2589763779527559
 20
0.8533307086614174
 30
0.0
 10
0.2581732283464567
 20
0.8532204724409449
 30
0.0
 10
0.2573937007874016
 20
0.8532204724409449
 30
0.0
 10
0.2573937007874016
 20
0.8532204724409449
 30
0.0
 10
0.2547834645669291
 20
0.8532204724409449
 30
0.0
 10
0.2527007874015748
 20
0.8540511811023622
 30
0.0
 10
0.2511456692913386
 20
0.855748031496063
 30
0.0
 10
0.2511456692913386
 20
0.855748031496063
 30
0.0
 10
0.2495590551181103
 20
0.8574133858267717
 30
0.0
 10
0.2487834645669292
 20
0.8595511811023623
 30
0.0
 10
0.2487834645669292
 20
0.8621653543307087
 30
0.0
 10
0.2487834645669292
 20
0.8621653543307087
 30
0.0
 10
0.2487834645669292
 20
0.864720472440945
 30
0.0
 10
0.2497283464566929
 20
0.8669409448818898
 30
0.0
 10
0.2516181102362205
 20
0.8688307086614173
 30
0.0
 10
0.2516181102362205
 20
0.8688307086614173
 30
0.0
 10
0.2535314960629921
 20
0.8707480314960631
 30
0.0
 10
0.2558110236220473
 20
0.8716929133858268
 30
0.0
 10
0.2584488188976378
 20
0.8716929133858268
 30
0.0
 10
0.2584488188976378
 20
0.8716929133858268
 30
0.0
 10
0.2621456692913386
 20
0.8716929133858268
 30
0.0
 10
0.2653110236220473
 20
0.8702204724409449
 30
0.0
 10
0.2679488188976378
 20
0.867248031496063
 30
0.0
 10
0.2679488188976378
 20
0.867248031496063
 30
0.0
 10
0.2705590551181102
 20
0.8643031496062993
 30
0.0
 10
0.2718937007874016
 20
0.860496062992126
 30
0.0
 10
0.2718937007874016
 20
0.8558307086614173
 30
0.0
 10
0.2718937007874016
 20
0.8558307086614173
 30
0.0
 10
0.2718937007874016
 20
0.8527755905511811
 30
0.0
 10
0.2712559055118111
 20
0.8495787401574804
 30
0.0
 10
0.270003937007874
 20
0.846248031496063
 30
0.0
 10
0.270003937007874
 20
0.846248031496063
 30
0.0
 10
0.2687559055118111
 20
0.8429133858267717
 30
0.0
 10
0.2669488188976378
 20
0.8398307086614174
 30
0.0
 10
0.2645590551181102
 20
0.836968503937008
 30
0.0
 10
0.2645590551181102
 20
0.836968503937008
 30
0.0
 10
0.2621732283464567
 20
0.8341377952755906
 30
0.0
 10
0.2574488188976378
 20
0.8297204724409449
 30
0.0
 10
0.2503937007874016
 20
0.823748031496063
 30
0.0
  0
SPLINE
  5
6E
330
1F
100
AcDbEntity
  8
LAYER_1
 62
   250
100
AcDbSpline
210
0.0
220
0.0
230
1.0
 70
    11
 71
     3
 72
    60
 73
    56
 74
     0
 42
0.0000000001
 43
0.0000000001
 40
0.0
 40
0.0
 40
0.0
 40
0.0
 40
0.0714285714285714
 40
0.0714285714285714
 40
0.0714285714285714
 40
0.0714285714285714
 40
0.1428571428571429
 40
0.1428571428571429
 40
0.1428571428571429
 40
0.1428571428571429
 40
0.2142857142857143
 40
0.2142857142857143
 40
0.2142857142857143
 40
0.2142857142857143
 40
0.2857142857142857
 40
0.2857142857142857
 40
0.2857142857142857
 40
0.2857142857142857
 40
0.3571428571428571
 40
0.3571428571428571
 40
0.3571428571428571
 40
0.3571428571428571
 40
0.4285714285714285
 40
0.4285714285714285
 40
0.4285714285714285
 40
0.4285714285714285
 40
0.4999999999999999
 40
0.4999999999999999
 40
0.4999999999999999
 40
0.4999999999999999
 40
0.5714285714285713
 40
0.5714285714285713
 40
0.5714285714285713
 40
0.5714285714285713
 40
0.6428571428571427
 40
0.6428571428571427
 40
0.6428571428571427
 40
0.6428571428571427
 40
0.7142857142857141
 40
0.7142857142857141
 40
0.7142857142857141
 40
0.7142857142857141
 40
0.7857142857142855
 40
0.7857142857142855
 40
0.7857142857142855
 40
0.7857142857142855
 40
0.8571428571428569
 40
0.8571428571428569
 40
0.8571428571428569
 40
0.8571428571428569
 40
0.9285714285714283
 40
0.9285714285714283
 40
0.9285714285714283
 40
0.9285714285714283
 40
1.0
 40
1.0
 40
1.0
 40
1.0
 10
0.2794488188976378
 20
0.823748031496063
 30
0.0
 10
0.2794488188976378
 20
0.823748031496063
 30
0.0
 10
0.2750590551181102
 20
0.8291377952755906
 30
0.0
 10
0.2750590551181102
 20
0.8291377952755906
 30
0.0
 10
0.2750590551181102
 20
0.8291377952755906
 30
0.0
 10
0.2861732283464567
 20
0.8381929133858268
 30
0.0
 10
0.291755905511811
 20
0.845748031496063
 30
0.0
 10
0.291755905511811
 20
0.8518307086614173
 30
0.0
 10
0.291755905511811
 20
0.8518307086614173
 30
0.0
 10
0.291755905511811
 20
0.8525236220472441
 30
0.0
 10
0.2917007874015748
 20
0.8534133858267717
 30
0.0
 10
0.2915866141732283
 20
0.8544409448818898
 30
0.0
 10
0.2915866141732283
 20
0.8544409448818898
 30
0.0
 10
0.2906732283464567
 20
0.8540511811023622
 30
0.0
 10
0.289755905511811
 20
0.853748031496063
 30
0.0
 10
0.2888937007874016
 20
0.8535511811023623
 30
0.0
 10
0.2888937007874016
 20
0.8535511811023623
 30
0.0
 10
0.2880314960629921
 20
0.8533307086614174
 30
0.0
 10
0.2872007874015748
 20
0.8532204724409449
 30
0.0
 10
0.2863661417322835
 20
0.8532204724409449
 30
0.0
 10
0.2863661417322835
 20
0.8532204724409449
 30
0.0
 10
0.2838110236220472
 20
0.8532204724409449
 30
0.0
 10
0.281755905511811
 20
0.8540511811023622
 30
0.0
 10
0.2802007874015748
 20
0.855748031496063
 30
0.0
 10
0.2802007874015748
 20
0.855748031496063
 30
0.0
 10
0.2786181102362205
 20
0.8574133858267717
 30
0.0
 10
0.2778385826771654
 20
0.8595511811023623
 30
0.0
 10
0.2778385826771654
 20
0.8621653543307087
 30
0.0
 10
0.2778385826771654
 20
0.8621653543307087
 30
0.0
 10
0.2778385826771654
 20
0.864720472440945
 30
0.0
 10
0.2787834645669292
 20
0.8669409448818898
 30
0.0
 10
0.2806732283464567
 20
0.8688307086614173
 30
0.0
 10
0.2806732283464567
 20
0.8688307086614173
 30
0.0
 10
0.2825590551181103
 20
0.8707480314960631
 30
0.0
 10
0.2848661417322835
 20
0.8716929133858268
 30
0.0
 10
0.287503937007874
 20
0.8716929133858268
 30
0.0
 10
0.287503937007874
 20
0.8716929133858268
 30
0.0
 10
0.2912007874015748
 20
0.8716929133858268
 30
0.0
 10
0.2943661417322835
 20
0.8702204724409449
 30
0.0
 10
0.297003937007874
 20
0.867248031496063
 30
0.0
 10
0.297003937007874
 20
0.867248031496063
 30
0.0
 10
0.2996141732283465
 20
0.8643031496062993
 30
0.0
 10
0.3009488188976378
 20
0.860496062992126
 30
0.0
 10
0.3009488188976378
 20
0.8558307086614173
 30
0.0
 10
0.3009488188976378
 20
0.8558307086614173
 30
0.0
 10
0.3009488188976378
 20
0.8527755905511811
 30
0.0
 10
0.3003110236220473
 20
0.8495787401574804
 30
0.0
 10
0.2990590551181103
 20
0.846248031496063
 30
0.0
 10
0.2990590551181103
 20
0.846248031496063
 30
0.0
 10
0.2978110236220473
 20
0.8429133858267717
 30
0.0
 10
0.296003937007874
 20
0.8398307086614174
 30
0.0
 10
0.2936181102362205
 20
0.836968503937008
 30
0.0
 10
0.2936181102362205
 20
0.836968503937008
 30
0.0
 10
0.2912283464566929
 20
0.8341377952755906
 30
0.0
 10
0.286503937007874
 20
0.8297204724409449
 30
0.0
 10
0.2794488188976378
 20
0.823748031496063
 30
0.0
  0
SPLINE
  5
6F
330
1F
100
AcDbEntity
  8
LAYER_1
 62
   250
100
AcDbSpline
210
0.0
220
0.0
230
1.0
 70
    11
 71
     3
 72
   204
 73
   200
 74
     0
 42
0.0000000001
 43
0.0000000001
 40
0.0
 40
0.0
 40
0.0
 40
0.0
 40
0.02
 40
0.02
 40
0.02
 40
0.02
 40
0.04
 40
0.04
 40
0.04
 40
0.04
 40
0.06
 40
0.06
 40
0.06
 40
0.06
 40
0.08
 40
0.08
 40
0.08
 40
0.08
 40
0.1
 40
0.1
 40
0.1
 40
0.1
 40
0.12
 40
0.12
 40
0.12
 40
0.12
 40
0.14
 40
0.14
 40
0.14
 40
0.14
 40
0.16
 40
0.16
 40
0.16
 40
0.16
 40
0.18
 40
0.18
 40
0.18
 40
0.18
 40
0.2
 40
0.2
 40
0.2
 40
0.2
 40
0.22
 40
0.22
 40
0.22
 40
0.22
 40
0.24
 40
0.24
 40
0.24
 40
0.24
 40
0.26
 40
0.26
 40
0.26
 40
0.26
 40
0.28
 40
0.28
 40
0.28
 40
0.28
 40
0.3
 40
0.3
 40
0.3
 40
0.3
 40
0.32
 40
0.32
 40
0.32
 40
0.32
 40
0.34
 40
0.34
 40
0.34
 40
0.34
 40
0.36
 40
0.36
 40
0.36
 40
0.36
 40
0.3800000000000001
 40
0.3800000000000001
 40
0.3800000000000001
 40
0.3800000000000001
 40
0.4000000000000001
 40
0.4000000000000001
 40
0.4000000000000001
 40
0.4000000000000001
 40
0.4200000000000001
 40
0.4200000000000001
 40
0.4200000000000001
 40
0.4200000000000001
 40
0.4400000000000001
 40
0.4400000000000001
 40
0.4400000000000001
 40
0.4400000000000001
 40
0.4600000000000001
 40
0.4600000000000001
 40
0.4600000000000001
 40
0.4600000000000001
 40
0.4800000000000002
 40
0.4800000000000002
 40
0.4800000000000002
 40
0.4800000000000002
 40
0.5000000000000001
 40
0.5000000000000001
 40
0.5000000000000001
 40
0.5000000000000001
 40
0.5200000000000001
 40
0.5200000000000001
 40
0.5200000000000001
 40
0.5200000000000001
 40
0.5400000000000002
 40
0.5400000000000002
 40
0.5400000000000002
 40
0.5400000000000002
 40
0.5600000000000002
 40
0.5600000000000002
 40
0.5600000000000002
 40
0.5600000000000002
 40
0.5800000000000002
 40
0.5800000000000002
 40
0.5800000000000002
 40
0.5800000000000002
 40
0.6000000000000002
 40
0.6000000000000002
 40
0.6000000000000002
 40
0.6000000000000002
 40
0.6200000000000002
 40
0.6200000000000002
 40
0.6200000000000002
 40
0.6200000000000002
 40
0.6400000000000002
 40
0.6400000000000002
 40
0.6400000000000002
 40
0.6400000000000002
 40
0.6600000000000003
 40
0.6600000000000003
 40
0.6600000000000003
 40
0.6600000000000003
 40
0.6800000000000003
 40
0.6800000000000003
 40
0.6800000000000003
 40
0.6800000000000003
 40
0.7000000000000003
 40
0.7000000000000003
 40
0.7000000000000003
 40
0.7000000000000003
 40
0.7200000000000003
 40
0.7200000000000003
 40
0.7200000000000003
 40
0.7200000000000003
 40
0.7400000000000003
 40
0.7400000000000003
 40
0.7400000000000003
 40
0.7400000000000003
 40
0.7600000000000003
 40
0.7600000000000003
 40
0.7600000000000003
 40
0.7600000000000003
 40
0.7800000000000004
 40
0.7800000000000004
 40
0.7800000000000004
 40
0.7800000000000004
 40
0.8000000000000004
 40
0.8000000000000004
 40
0.8000000000000004
 40
0.8000000000000004
 40
0.8200000000000004
 40
0.8200000000000004
 40
0.8200000000000004
 40
0.8200000000000004
 40
0.8400000000000004
 40
0.8400000000000004
 40
0.8400000000000004
 40
0.8400000000000004
 40
0.8600000000000004
 40
0.8600000000000004
 40
0.8600000000000004
 40
0.8600000000000004
 40
0.8800000000000005
 40
0.8800000000000005
 40
0.8800000000000005
 40
0.8800000000000005
 40
0.9000000000000005
 40
0.9000000000000005
 40
0.9000000000000005
 40
0.9000000000000005
 40
0.9200000000000005
 40
0.9200000000000005
 40
0.9200000000000005
 40
0.9200000000000005
 40
0.9400000000000005
 40
0.9400000000000005
 40
0.9400000000000005
 40
0.9400000000000005
 40
0.9600000000000005
 40
0.9600000000000005
 40
0.9600000000000005
 40
0.9600000000000005
 40
0.9800000000000005
 40
0.9800000000000005
 40
0.9800000000000005
 40
0.9800000000000005
 40
1.0
 40
1.0
 40
1.0
 40
1.0
 10
0.363255905511811
 20
0.8308307086614174
 30
0.0
 10
0.363255905511811
 20
0.8308307086614174
 30
0.0
 10
0.4042007874015748
 20
0.8308307086614174
 30
0.0
 10
0.4042007874015748
 20
0.8308307086614174
 30
0.0
 10
0.4042007874015748
 20
0.8308307086614174
 30
0.0
 10
0.4042007874015748
 20
0.8308307086614174
 30
0.0
 10
0.4042007874015748
 20
0.823996062992126
 30
0.0
 10
0.4042007874015748
 20
0.823996062992126
 30
0.0
 10
0.4042007874015748
 20
0.823996062992126
 30
0.0
 10
0.4042007874015748
 20
0.823996062992126
 30
0.0
 10
0.4013661417322835
 20
0.823996062992126
 30
0.0
 10
0.4013661417322835
 20
0.823996062992126
 30
0.0
 10
0.4013661417322835
 20
0.823996062992126
 30
0.0
 10
0.3997283464566929
 20
0.823996062992126
 30
0.0
 10
0.3982283464566929
 20
0.8238031496062992
 30
0.0
 10
0.3968661417322835
 20
0.8234409448818898
 30
0.0
 10
0.3968661417322835
 20
0.8234409448818898
 30
0.0
 10
0.3960629921259843
 20
0.8232204724409449
 30
0.0
 10
0.3953937007874016
 20
0.8228031496062992
 30
0.0
 10
0.3948937007874016
 20
0.8221653543307087
 30
0.0
 10
0.3948937007874016
 20
0.8221653543307087
 30
0.0
 10
0.3943661417322835
 20
0.8215511811023623
 30
0.0
 10
0.3941181102362205
 20
0.8209685039370079
 30
0.0
 10
0.3941181102362205
 20
0.8204133858267717
 30
0.0
 10
0.3941181102362205
 20
0.8204133858267717
 30
0.0
 10
0.3941181102362205
 20
0.8191653543307087
 30
0.0
 10
0.3951456692913386
 20
0.8173031496062992
 30
0.0
 10
0.3972007874015748
 20
0.8148031496062993
 30
0.0
 10
0.3972007874015748
 20
0.8148031496062993
 30
0.0
 10
0.3972007874015748
 20
0.8148031496062993
 30
0.0
 10
0.4088385826771654
 20
0.8001653543307087
 30
0.0
 10
0.4088385826771654
 20
0.8001653543307087
 30
0.0
 10
0.4088385826771654
 20
0.8001653543307087
 30
0.0
 10
0.4088385826771654
 20
0.8001653543307087
 30
0.0
 10
0.4224212598425197
 20
0.8148031496062993
 30
0.0
 10
0.4224212598425197
 20
0.8148031496062993
 30
0.0
 10
0.4224212598425197
 20
0.8148031496062993
 30
0.0
 10
0.4249212598425197
 20
0.8175236220472442
 30
0.0
 10
0.4261732283464567
 20
0.8195511811023623
 30
0.0
 10
0.4261732283464567
 20
0.8209133858267717
 30
0.0
 10
0.4261732283464567
 20
0.8209133858267717
 30
0.0
 10
0.4261732283464567
 20
0.8218858267716536
 30
0.0
 10
0.4257283464566929
 20
0.8226377952755906
 30
0.0
 10
0.4248661417322835
 20
0.8231929133858268
 30
0.0
 10
0.4248661417322835
 20
0.8231929133858268
 30
0.0
 10
0.424003937007874
 20
0.8237204724409449
 30
0.0
 10
0.4221456692913386
 20
0.823996062992126
 30
0.0
 10
0.419255905511811
 20
0.823996062992126
 30
0.0
 10
0.419255905511811
 20
0.823996062992126
 30
0.0
 10
0.419255905511811
 20
0.823996062992126
 30
0.0
 10
0.4161732283464567
 20
0.823996062992126
 30
0.0
 10
0.4161732283464567
 20
0.823996062992126
 30
0.0
 10
0.4161732283464567
 20
0.823996062992126
 30
0.0
 10
0.4161732283464567
 20
0.823996062992126
 30
0.0
 10
0.4161732283464567
 20
0.8308307086614174
 30
0.0
 10
0.4161732283464567
 20
0.8308307086614174
 30
0.0
 10
0.4161732283464567
 20
0.8308307086614174
 30
0.0
 10
0.4161732283464567
 20
0.8308307086614174
 30
0.0
 10
0.4509212598425197
 20
0.8308307086614174
 30
0.0
 10
0.4509212598425197
 20
0.8308307086614174
 30
0.0
 10
0.4509212598425197
 20
0.8308307086614174
 30
0.0
 10
0.4509212598425197
 20
0.8308307086614174
 30
0.0
 10
0.4509212598425197
 20
0.823996062992126
 30
0.0
 10
0.4509212598425197
 20
0.823996062992126
 30
0.0
 10
0.4509212598425197
 20
0.823996062992126
 30
0.0
 10
0.4475039370078741
 20
0.8238307086614174
 30
0.0
 10
0.4445590551181103
 20
0.8231377952755906
 30
0.0
 10
0.4420905511811024
 20
0.8218858267716536
 30
0.0
 10
0.4420905511811024
 20
0.8218858267716536
 30
0.0
 10
0.4396181102362205
 20
0.8206377952755906
 30
0.0
 10
0.4367007874015748
 20
0.8182755905511812
 30
0.0
 10
0.4333385826771654
 20
0.8148031496062993
 30
0.0
 10
0.4333385826771654
 20
0.8148031496062993
 30
0.0
 10
0.4333385826771654
 20
0.8148031496062993
 30
0.0
 10
0.4147007874015748
 20
0.7954409448818898
 30
0.0
 10
0.4147007874015748
 20
0.7954409448818898
 30
0.0
 10
0.4147007874015748
 20
0.7954409448818898
 30
0.0
 10
0.4147007874015748
 20
0.7954409448818898
 30
0.0
 10
0.4378937007874016
 20
0.768996062992126
 30
0.0
 10
0.4378937007874016
 20
0.768996062992126
 30
0.0
 10
0.4378937007874016
 20
0.768996062992126
 30
0.0
 10
0.4378937007874016
 20
0.768996062992126
 30
0.0
 10
0.4387834645669291
 20
0.7678582677165354
 30
0.0
 10
0.4387834645669291
 20
0.7678582677165354
 30
0.0
 10
0.4387834645669291
 20
0.7678582677165354
 30
0.0
 10
0.4410590551181103
 20
0.7649133858267717
 30
0.0
 10
0.4436181102362205
 20
0.7625511811023622
 30
0.0
 10
0.4464488188976378
 20
0.7607755905511812
 30
0.0
 10
0.4464488188976378
 20
0.7607755905511812
 30
0.0
 10
0.4480039370078741
 20
0.7597480314960631
 30
0.0
 10
0.4504488188976378
 20
0.7591929133858268
 30
0.0
 10
0.4537559055118111
 20
0.7591377952755906
 30
0.0
 10
0.4537559055118111
 20
0.7591377952755906
 30
0.0
 10
0.4537559055118111
 20
0.7591377952755906
 30
0.0
 10
0.4537559055118111
 20
0.7523031496062993
 30
0.0
 10
0.4537559055118111
 20
0.7523031496062993
 30
0.0
 10
0.4537559055118111
 20
0.7523031496062993
 30
0.0
 10
0.4537559055118111
 20
0.7523031496062993
 30
0.0
 10
0.4138110236220473
 20
0.7523031496062993
 30
0.0
 10
0.4138110236220473
 20
0.7523031496062993
 30
0.0
 10
0.4138110236220473
 20
0.7523031496062993
 30
0.0
 10
0.4138110236220473
 20
0.7523031496062993
 30
0.0
 10
0.4138110236220473
 20
0.7591377952755906
 30
0.0
 10
0.4138110236220473
 20
0.7591377952755906
 30
0.0
 10
0.4138110236220473
 20
0.7591377952755906
 30
0.0
 10
0.4138110236220473
 20
0.7591377952755906
 30
0.0
 10
0.4172283464566929
 20
0.7591377952755906
 30
0.0
 10
0.4172283464566929
 20
0.7591377952755906
 30
0.0
 10
0.4172283464566929
 20
0.7591377952755906
 30
0.0
 10
0.4198385826771654
 20
0.7591377952755906
 30
0.0
 10
0.4214763779527559
 20
0.7593031496062992
 30
0.0
 10
0.4222007874015748
 20
0.7596377952755906
 30
0.0
 10
0.4222007874015748
 20
0.7596377952755906
 30
0.0
 10
0.4233661417322835
 20
0.7601653543307086
 30
0.0
 10
0.423976377952756
 20
0.7610826771653544
 30
0.0
 10
0.423976377952756
 20
0.7623858267716536
 30
0.0
 10
0.423976377952756
 20
0.7623858267716536
 30
0.0
 10
0.423976377952756
 20
0.7635826771653543
 30
0.0
 10
0.4226732283464567
 20
0.7657755905511812
 30
0.0
 10
0.4200590551181103
 20
0.768996062992126
 30
0.0
 10
0.4200590551181103
 20
0.768996062992126
 30
0.0
 10
0.4200590551181103
 20
0.768996062992126
 30
0.0
 10
0.4052559055118111
 20
0.7871377952755906
 30
0.0
 10
0.4052559055118111
 20
0.7871377952755906
 30
0.0
 10
0.4052559055118111
 20
0.7871377952755906
 30
0.0
 10
0.4052559055118111
 20
0.7871377952755906
 30
0.0
 10
0.3887283464566929
 20
0.768996062992126
 30
0.0
 10
0.3887283464566929
 20
0.768996062992126
 30
0.0
 10
0.3887283464566929
 20
0.768996062992126
 30
0.0
 10
0.3887283464566929
 20
0.768996062992126
 30
0.0
 10
0.3871181102362205
 20
0.7670236220472442
 30
0.0
 10
0.3871181102362205
 20
0.7670236220472442
 30
0.0
 10
0.3871181102362205
 20
0.7670236220472442
 30
0.0
 10
0.3871181102362205
 20
0.7670236220472442
 30
0.0
 10
0.3862283464566929
 20
0.7660511811023623
 30
0.0
 10
0.3862283464566929
 20
0.7660511811023623
 30
0.0
 10
0.3862283464566929
 20
0.7660511811023623
 30
0.0
 10
0.3848661417322835
 20
0.7645826771653543
 30
0.0
 10
0.3841732283464567
 20
0.7633031496062992
 30
0.0
 10
0.3841732283464567
 20
0.7621653543307086
 30
0.0
 10
0.3841732283464567
 20
0.7621653543307086
 30
0.0
 10
0.3841732283464567
 20
0.7611102362204725
 30
0.0
 10
0.3845905511811024
 20
0.7603582677165355
 30
0.0
 10
0.3854488188976378
 20
0.7598582677165354
 30
0.0
 10
0.3854488188976378
 20
0.7598582677165354
 30
0.0
 10
0.3862834645669291
 20
0.7593858267716536
 30
0.0
 10
0.3881732283464567
 20
0.7591377952755906
 30
0.0
 10
0.3910905511811024
 20
0.7591377952755906
 30
0.0
 10
0.3910905511811024
 20
0.7591377952755906
 30
0.0
 10
0.3910905511811024
 20
0.7591377952755906
 30
0.0
 10
0.3943661417322835
 20
0.7591377952755906
 30
0.0
 10
0.3943661417322835
 20
0.7591377952755906
 30
0.0
 10
0.3943661417322835
 20
0.7591377952755906
 30
0.0
 10
0.3943661417322835
 20
0.7591377952755906
 30
0.0
 10
0.3943661417322835
 20
0.7523031496062993
 30
0.0
 10
0.3943661417322835
 20
0.7523031496062993
 30
0.0
 10
0.3943661417322835
 20
0.7523031496062993
 30
0.0
 10
0.3943661417322835
 20
0.7523031496062993
 30
0.0
 10
0.3600905511811024
 20
0.7523031496062993
 30
0.0
 10
0.3600905511811024
 20
0.7523031496062993
 30
0.0
 10
0.3600905511811024
 20
0.7523031496062993
 30
0.0
 10
0.3600905511811024
 20
0.7523031496062993
 30
0.0
 10
0.3600905511811024
 20
0.7591377952755906
 30
0.0
 10
0.3600905511811024
 20
0.7591377952755906
 30
0.0
 10
0.3600905511811024
 20
0.7591377952755906
 30
0.0
 10
0.362755905511811
 20
0.7591929133858268
 30
0.0
 10
0.3648385826771654
 20
0.7594685039370079
 30
0.0
 10
0.3663661417322835
 20
0.759996062992126
 30
0.0
 10
0.3663661417322835
 20
0.759996062992126
 30
0.0
 10
0.3678661417322835
 20
0.760496062992126
 30
0.0
 10
0.3693385826771654
 20
0.7613031496062992
 30
0.0
 10
0.370755905511811
 20
0.7623858267716536
 30
0.0
 10
0.370755905511811
 20
0.7623858267716536
 30
0.0
 10
0.3732007874015748
 20
0.7643582677165355
 30
0.0
 10
0.3749488188976378
 20
0.7658858267716536
 30
0.0
 10
0.3760354330708662
 20
0.7670236220472442
 30
0.0
 10
0.3760354330708662
 20
0.7670236220472442
 30
0.0
 10
0.3760354330708662
 20
0.7670236220472442
 30
0.0
 10
0.3998937007874016
 20
0.7915236220472441
 30
0.0
 10
0.3998937007874016
 20
0.7915236220472441
 30
0.0
 10
0.3998937007874016
 20
0.7915236220472441
 30
0.0
 10
0.3998937007874016
 20
0.7915236220472441
 30
0.0
 10
0.3796181102362205
 20
0.8148031496062993
 30
0.0
 10
0.3796181102362205
 20
0.8148031496062993
 30
0.0
 10
0.3796181102362205
 20
0.8148031496062993
 30
0.0
 10
0.3770629921259843
 20
0.8176929133858268
 30
0.0
 10
0.3750629921259843
 20
0.8196929133858268
 30
0.0
 10
0.3735629921259843
 20
0.8208582677165355
 30
0.0
 10
0.3735629921259843
 20
0.8208582677165355
 30
0.0
 10
0.3720629921259843
 20
0.8220236220472441
 30
0.0
 10
0.3706181102362205
 20
0.8228582677165355
 30
0.0
 10
0.3692007874015748
 20
0.8233031496062992
 30
0.0
 10
0.3692007874015748
 20
0.8233031496062992
 30
0.0
 10
0.3677834645669292
 20
0.8237755905511811
 30
0.0
 10
0.3658110236220473
 20
0.823996062992126
 30
0.0
 10
0.363255905511811
 20
0.823996062992126
 30
0.0
 10
0.363255905511811
 20
0.823996062992126
 30
0.0
 10
0.363255905511811
 20
0.823996062992126
 30
0.0
 10
0.363255905511811
 20
0.8308307086614174
 30
0.0
 10
0.363255905511811
 20
0.8308307086614174
 30
0.0
  0
SPLINE
  5
70
330
1F
100
AcDbEntity
  8
LAYER_1
 62
   250
100
AcDbSpline
210
0.0
220
0.0
230
1.0
 70
    11
 71
     3
 72
   172
 73
   168
 74
     0
 42
0.0000000001
 43
0.0000000001
 40
0.0
 40
0.0
 40
0.0
 40
0.0
 40
0.0238095238095238
 40
0.0238095238095238
 40
0.0238095238095238
 40
0.0238095238095238
 40
0.0476190476190476
 40
0.0476190476190476
 40
0.0476190476190476
 40
0.0476190476190476
 40
0.0714285714285714
 40
0.0714285714285714
 40
0.0714285714285714
 40
0.0714285714285714
 40
0.0952380952380952
 40
0.0952380952380952
 40
0.0952380952380952
 40
0.0952380952380952
 40
0.119047619047619
 40
0.119047619047619
 40
0.119047619047619
 40
0.119047619047619
 40
0.1428571428571429
 40
0.1428571428571429
 40
0.1428571428571429
 40
0.1428571428571429
 40
0.1666666666666667
 40
0.1666666666666667
 40
0.1666666666666667
 40
0.1666666666666667
 40
0.1904761904761905
 40
0.1904761904761905
 40
0.1904761904761905
 40
0.1904761904761905
 40
0.2142857142857143
 40
0.2142857142857143
 40
0.2142857142857143
 40
0.2142857142857143
 40
0.2380952380952381
 40
0.2380952380952381
 40
0.2380952380952381
 40
0.2380952380952381
 40
0.2619047619047619
 40
0.2619047619047619
 40
0.2619047619047619
 40
0.2619047619047619
 40
0.2857142857142857
 40
0.2857142857142857
 40
0.2857142857142857
 40
0.2857142857142857
 40
0.3095238095238095
 40
0.3095238095238095
 40
0.3095238095238095
 40
0.3095238095238095
 40
0.3333333333333334
 40
0.3333333333333334
 40
0.3333333333333334
 40
0.3333333333333334
 40
0.3571428571428572
 40
0.3571428571428572
 40
0.3571428571428572
 40
0.3571428571428572
 40
0.380952380952381
 40
0.380952380952381
 40
0.380952380952381
 40
0.380952380952381
 40
0.4047619047619049
 40
0.4047619047619049
 40
0.4047619047619049
 40
0.4047619047619049
 40
0.4285714285714287
 40
0.4285714285714287
 40
0.4285714285714287
 40
0.4285714285714287
 40
0.4523809523809526
 40
0.4523809523809526
 40
0.4523809523809526
 40
0.4523809523809526
 40
0.4761904761904764
 40
0.4761904761904764
 40
0.4761904761904764
 40
0.4761904761904764
 40
0.5000000000000002
 40
0.5000000000000002
 40
0.5000000000000002
 40
0.5000000000000002
 40
0.5238095238095241
 40
0.5238095238095241
 40
0.5238095238095241
 40
0.5238095238095241
 40
0.5476190476190479
 40
0.5476190476190479
 40
0.5476190476190479
 40
0.5476190476190479
 40
0.5714285714285717
 40
0.5714285714285717
 40
0.5714285714285717
 40
0.5714285714285717
 40
0.5952380952380956
 40
0.5952380952380956
 40
0.5952380952380956
 40
0.5952380952380956
 40
0.6190476190476194
 40
0.6190476190476194
 40
0.6190476190476194
 40
0.6190476190476194
 40
0.6428571428571432
 40
0.6428571428571432
 40
0.6428571428571432
 40
0.6428571428571432
 40
0.6666666666666671
 40
0.6666666666666671
 40
0.6666666666666671
 40
0.6666666666666671
 40
0.6904761904761909
 40
0.6904761904761909
 40
0.6904761904761909
 40
0.6904761904761909
 40
0.7142857142857148
 40
0.7142857142857148
 40
0.7142857142857148
 40
0.7142857142857148
 40
0.7380952380952386
 40
0.7380952380952386
 40
0.7380952380952386
 40
0.7380952380952386
 40
0.7619047619047624
 40
0.7619047619047624
 40
0.7619047619047624
 40
0.7619047619047624
 40
0.7857142857142863
 40
0.7857142857142863
 40
0.7857142857142863
 40
0.7857142857142863
 40
0.8095238095238101
 40
0.8095238095238101
 40
0.8095238095238101
 40
0.8095238095238101
 40
0.8333333333333339
 40
0.8333333333333339
 40
0.8333333333333339
 40
0.8333333333333339
 40
0.8571428571428578
 40
0.8571428571428578
 40
0.8571428571428578
 40
0.8571428571428578
 40
0.8809523809523816
 40
0.8809523809523816
 40
0.8809523809523816
 40
0.8809523809523816
 40
0.9047619047619054
 40
0.9047619047619054
 40
0.9047619047619054
 40
0.9047619047619054
 40
0.9285714285714293
 40
0.9285714285714293
 40
0.9285714285714293
 40
0.9285714285714293
 40
0.9523809523809531
 40
0.9523809523809531
 40
0.9523809523809531
 40
0.9523809523809531
 40
0.9761904761904769
 40
0.9761904761904769
 40
0.9761904761904769
 40
0.9761904761904769
 40
1.0
 40
1.0
 40
1.0
 40
1.0
 10
0.5289488188976378
 20
0.8354685039370079
 30
0.0
 10
0.5289488188976378
 20
0.8354685039370079
 30
0.0
 10
0.5211417322834646
 20
0.8366929133858269
 30
0.0
 10
0.5211417322834646
 20
0.8366929133858269
 30
0.0
 10
0.5211417322834646
 20
0.8366929133858269
 30
0.0
 10
0.5218385826771653
 20
0.8425511811023623
 30
0.0
 10
0.5233661417322835
 20
0.8474133858267717
 30
0.0
 10
0.5257007874015748
 20
0.8512755905511812
 30
0.0
 10
0.5257007874015748
 20
0.8512755905511812
 30
0.0
 10
0.5287834645669292
 20
0.8564685039370079
 30
0.0
 10
0.5331417322834646
 20
0.8605236220472441
 30
0.0
 10
0.5387834645669292
 20
0.8634133858267717
 30
0.0
 10
0.5387834645669292
 20
0.8634133858267717
 30
0.0
 10
0.5444488188976379
 20
0.8663307086614174
 30
0.0
 10
0.5509212598425197
 20
0.8677755905511811
 30
0.0
 10
0.558255905511811
 20
0.8677755905511811
 30
0.0
 10
0.558255905511811
 20
0.8677755905511811
 30
0.0
 10
0.5654488188976378
 20
0.8677755905511811
 30
0.0
 10
0.5718110236220473
 20
0.866496062992126
 30
0.0
 10
0.5772834645669291
 20
0.8639133858267717
 30
0.0
 10
0.5772834645669291
 20
0.8639133858267717
 30
0.0
 10
0.582755905511811
 20
0.8613307086614174
 30
0.0
 10
0.5868937007874016
 20
0.8579133858267717
 30
0.0
 10
0.5896968503937008
 20
0.8536653543307087
 30
0.0
 10
0.5896968503937008
 20
0.8536653543307087
 30
0.0
 10
0.5925039370078741
 20
0.8494133858267717
 30
0.0
 10
0.5938937007874016
 20
0.8448031496062992
 30
0.0
 10
0.5938937007874016
 20
0.8398582677165355
 30
0.0
 10
0.5938937007874016
 20
0.8398582677165355
 30
0.0
 10
0.5938937007874016
 20
0.8355236220472442
 30
0.0
 10
0.5928385826771654
 20
0.8316377952755906
 30
0.0
 10
0.5907244094488189
 20
0.8282204724409449
 30
0.0
 10
0.5907244094488189
 20
0.8282204724409449
 30
0.0
 10
0.5885866141732283
 20
0.8248031496062992
 30
0.0
 10
0.5854488188976378
 20
0.821748031496063
 30
0.0
 10
0.5812834645669291
 20
0.8190236220472441
 30
0.0
 10
0.5812834645669291
 20
0.8190236220472441
 30
0.0
 10
0.5783385826771654
 20
0.8171377952755906
 30
0.0
 10
0.5745314960629921
 20
0.8154685039370079
 30
0.0
 10
0.5698110236220473
 20
0.8140787401574804
 30
0.0
 10
0.5698110236220473
 20
0.8140787401574804
 30
0.0
 10
0.5748385826771654
 20
0.8133582677165354
 30
0.0
 10
0.5789763779527559
 20
0.8121929133858268
 30
0.0
 10
0.5821692913385828
 20
0.8105787401574803
 30
0.0
 10
0.5821692913385828
 20
0.8105787401574803
 30
0.0
 10
0.5873661417322835
 20
0.8079133858267716
 30
0.0
 10
0.591476377952756
 20
0.8042480314960631
 30
0.0
 10
0.5944488188976378
 20
0.7995787401574803
 30
0.0
 10
0.5944488188976378
 20
0.7995787401574803
 30
0.0
 10
0.5974488188976378
 20
0.7949133858267717
 30
0.0
 10
0.5989212598425198
 20
0.7898031496062993
 30
0.0
 10
0.5989212598425198
 20
0.7841929133858268
 30
0.0
 10
0.5989212598425198
 20
0.7841929133858268
 30
0.0
 10
0.5989212598425198
 20
0.775248031496063
 30
0.0
 10
0.595003937007874
 20
0.7673582677165355
 30
0.0
 10
0.5871417322834646
 20
0.7605511811023622
 30
0.0
 10
0.5871417322834646
 20
0.7605511811023622
 30
0.0
 10
0.5792559055118111
 20
0.7537480314960631
 30
0.0
 10
0.5690866141732284
 20
0.7503582677165355
 30
0.0
 10
0.5566141732283465
 20
0.7503582677165355
 30
0.0
 10
0.5566141732283465
 20
0.7503582677165355
 30
0.0
 10
0.5443110236220473
 20
0.7503582677165355
 30
0.0
 10
0.5339488188976378
 20
0.7536377952755906
 30
0.0
 10
0.5255314960629921
 20
0.7601929133858268
 30
0.0
 10
0.5255314960629921
 20
0.7601929133858268
 30
0.0
 10
0.5184763779527559
 20
0.7657755905511812
 30
0.0
 10
0.5149488188976378
 20
0.7714133858267717
 30
0.0
 10
0.5149488188976378
 20
0.7770511811023623
 30
0.0
 10
0.5149488188976378
 20
0.7770511811023623
 30
0.0
 10
0.5149488188976378
 20
0.7792755905511811
 30
0.0
 10
0.5156732283464567
 20
0.7811377952755906
 30
0.0
 10
0.5171141732283465
 20
0.7826102362204724
 30
0.0
 10
0.5171141732283465
 20
0.7826102362204724
 30
0.0
 10
0.5185314960629921
 20
0.7841102362204725
 30
0.0
 10
0.5203385826771654
 20
0.7848582677165354
 30
0.0
 10
0.5225314960629921
 20
0.7848582677165354
 30
0.0
 10
0.5225314960629921
 20
0.7848582677165354
 30
0.0
 10
0.5248937007874016
 20
0.7848582677165354
 30
0.0
 10
0.5269488188976378
 20
0.7839409448818898
 30
0.0
 10
0.5286141732283465
 20
0.7820787401574804
 30
0.0
 10
0.5286141732283465
 20
0.7820787401574804
 30
0.0
 10
0.5295314960629921
 20
0.7810511811023623
 30
0.0
 10
0.5306141732283465
 20
0.7785826771653543
 30
0.0
 10
0.5317834645669292
 20
0.7746929133858268
 30
0.0
 10
0.5317834645669292
 20
0.7746929133858268
 30
0.0
 10
0.5334763779527559
 20
0.7691929133858269
 30
0.0
 10
0.5363385826771654
 20
0.7650236220472442
 30
0.0
 10
0.5403385826771654
 20
0.7621653543307086
 30
0.0
 10
0.5403385826771654
 20
0.7621653543307086
 30
0.0
 10
0.5443661417322835
 20
0.7592755905511811
 30
0.0
 10
0.5493385826771654
 20
0.7578307086614173
 30
0.0
 10
0.5553110236220473
 20
0.7578307086614173
 30
0.0
 10
0.5553110236220473
 20
0.7578307086614173
 30
0.0
 10
0.5606417322834646
 20
0.7578307086614173
 30
0.0
 10
0.5653937007874016
 20
0.758996062992126
 30
0.0
 10
0.5695866141732284
 20
0.7613307086614174
 30
0.0
 10
0.5695866141732284
 20
0.7613307086614174
 30
0.0
 10
0.5738110236220473
 20
0.7636653543307087
 30
0.0
 10
0.5771141732283465
 20
0.7669685039370079
 30
0.0
 10
0.5795590551181102
 20
0.7712755905511811
 30
0.0
 10
0.5795590551181102
 20
0.7712755905511811
 30
0.0
 10
0.582003937007874
 20
0.7755511811023622
 30
0.0
 10
0.583228346456693
 20
0.780248031496063
 30
0.0
 10
0.583228346456693
 20
0.7853307086614173
 30
0.0
 10
0.583228346456693
 20
0.7853307086614173
 30
0.0
 10
0.583228346456693
 20
0.7894685039370079
 30
0.0
 10
0.5823385826771654
 20
0.7931653543307087
 30
0.0
 10
0.5805866141732283
 20
0.7964409448818898
 30
0.0
 10
0.5805866141732283
 20
0.7964409448818898
 30
0.0
 10
0.5788110236220473
 20
0.799748031496063
 30
0.0
 10
0.5763110236220472
 20
0.8025236220472442
 30
0.0
 10
0.5730590551181103
 20
0.8048031496062993
 30
0.0
 10
0.5730590551181103
 20
0.8048031496062993
 30
0.0
 10
0.5705590551181102
 20
0.8065787401574803
 30
0.0
 10
0.5673661417322835
 20
0.8078307086614174
 30
0.0
 10
0.5635039370078741
 20
0.8085236220472442
 30
0.0
 10
0.5635039370078741
 20
0.8085236220472442
 30
0.0
 10
0.5596141732283465
 20
0.8092480314960631
 30
0.0
 10
0.5561141732283464
 20
0.8096062992125984
 30
0.0
 10
0.5530314960629922
 20
0.8096062992125984
 30
0.0
 10
0.5530314960629922
 20
0.8096062992125984
 30
0.0
 10
0.5530314960629922
 20
0.8096062992125984
 30
0.0
 10
0.5454763779527559
 20
0.8096062992125984
 30
0.0
 10
0.5454763779527559
 20
0.8096062992125984
 30
0.0
 10
0.5454763779527559
 20
0.8096062992125984
 30
0.0
 10
0.5454763779527559
 20
0.8096062992125984
 30
0.0
 10
0.5454763779527559
 20
0.817496062992126
 30
0.0
 10
0.5454763779527559
 20
0.817496062992126
 30
0.0
 10
0.5454763779527559
 20
0.817496062992126
 30
0.0
 10
0.5454763779527559
 20
0.817496062992126
 30
0.0
 10
0.5502834645669291
 20
0.817496062992126
 30
0.0
 10
0.5502834645669291
 20
0.817496062992126
 30
0.0
 10
0.5502834645669291
 20
0.817496062992126
 30
0.0
 10
0.5550314960629922
 20
0.817496062992126
 30
0.0
 10
0.5595866141732284
 20
0.8180511811023622
 30
0.0
 10
0.5639488188976378
 20
0.8191653543307087
 30
0.0
 10
0.5639488188976378
 20
0.8191653543307087
 30
0.0
 10
0.5682834645669291
 20
0.8202755905511812
 30
0.0
 10
0.571755905511811
 20
0.8225511811023623
 30
0.0
 10
0.5743661417322835
 20
0.8260236220472441
 30
0.0
 10
0.5743661417322835
 20
0.8260236220472441
 30
0.0
 10
0.5769488188976378
 20
0.829496062992126
 30
0.0
 10
0.5782559055118111
 20
0.8334409448818898
 30
0.0
 10
0.5782559055118111
 20
0.8378307086614174
 30
0.0
 10
0.5782559055118111
 20
0.8378307086614174
 30
0.0
 10
0.5782559055118111
 20
0.8416338582677165
 30
0.0
 10
0.5773661417322835
 20
0.8450511811023622
 30
0.0
 10
0.5755314960629921
 20
0.8480787401574803
 30
0.0
 10
0.5755314960629921
 20
0.8480787401574803
 30
0.0
 10
0.5737283464566929
 20
0.8511338582677166
 30
0.0
 10
0.5710590551181103
 20
0.8535511811023623
 30
0.0
 10
0.5675314960629921
 20
0.8553307086614174
 30
0.0
 10
0.5675314960629921
 20
0.8553307086614174
 30
0.0
 10
0.564003937007874
 20
0.8571062992125985
 30
0.0
 10
0.5599212598425197
 20
0.8580236220472441
 30
0.0
 10
0.5553110236220473
 20
0.8580236220472441
 30
0.0
 10
0.5553110236220473
 20
0.8580236220472441
 30
0.0
 10
0.5508110236220473
 20
0.8580236220472441
 30
0.0
 10
0.5466692913385827
 20
0.8570787401574803
 30
0.0
 10
0.5428937007874016
 20
0.855248031496063
 30
0.0
 10
0.5428937007874016
 20
0.855248031496063
 30
0.0
 10
0.5391417322834646
 20
0.8534133858267717
 30
0.0
 10
0.5361141732283464
 20
0.8509409448818898
 30
0.0
 10
0.5338385826771653
 20
0.8478307086614174
 30
0.0
 10
0.5338385826771653
 20
0.8478307086614174
 30
0.0
 10
0.5315590551181103
 20
0.844748031496063
 30
0.0
 10
0.5299212598425197
 20
0.8406338582677165
 30
0.0
 10
0.5289488188976378
 20
0.8354685039370079
 30
0.0
  0
SPLINE
  5
71
330
1F
100
AcDbEntity
  8
LAYER_1
 62
   250
100
AcDbSpline
210
0.0
220
0.0
230
1.0
 70
    11
 71
     3
 72
    20
 73
    16
 74
     0
 42
0.0000000001
 43
0.0000000001
 40
0.0
 40
0.0
 40
0.0
 40
0.0
 40
0.25
 40
0.25
 40
0.25
 40
0.25
 40
0.5
 40
0.5
 40
0.5
 40
0.5
 40
0.75
 40
0.75
 40
0.75
 40
0.75
 40
1.0
 40
1.0
 40
1.0
 40
1.0
 10
0.6917283464566929
 20
0.8716929133858268
 30
0.0
 10
0.6917283464566929
 20
0.8716929133858268
 30
0.0
 10
0.6361456692913386
 20
0.715996062992126
 30
0.0
 10
0.6361456692913386
 20
0.715996062992126
 30
0.0
 10
0.6361456692913386
 20
0.715996062992126
 30
0.0
 10
0.6361456692913386
 20
0.715996062992126
 30
0.0
 10
0.6240905511811024
 20
0.715996062992126
 30
0.0
 10
0.6240905511811024
 20
0.715996062992126
 30
0.0
 10
0.6240905511811024
 20
0.715996062992126
 30
0.0
 10
0.6240905511811024
 20
0.715996062992126
 30
0.0
 10
0.6793385826771654
 20
0.8716929133858268
 30
0.0
 10
0.6793385826771654
 20
0.8716929133858268
 30
0.0
 10
0.6793385826771654
 20
0.8716929133858268
 30
0.0
 10
0.6793385826771654
 20
0.8716929133858268
 30
0.0
 10
0.6917283464566929
 20
0.8716929133858268
 30
0.0
 10
0.6917283464566929
 20
0.8716929133858268
 30
0.0
  0
SPLINE
  5
72
330
1F
100
AcDbEntity
  8
LAYER_1
 62
   250
100
AcDbSpline
210
0.0
220
0.0
230
1.0
 70
    11
 71
     3
 72
    48
 73
    44
 74
     0
 42
0.0000000001
 43
0.0000000001
 40
0.0
 40
0.0
 40
0.0
 40
0.0
 40
0.0909090909090909
 40
0.0909090909090909
 40
0.0909090909090909
 40
0.0909090909090909
 40
0.1818181818181818
 40
0.1818181818181818
 40
0.1818181818181818
 40
0.1818181818181818
 40
0.2727272727272727
 40
0.2727272727272727
 40
0.2727272727272727
 40
0.2727272727272727
 40
0.3636363636363637
 40
0.3636363636363637
 40
0.3636363636363637
 40
0.3636363636363637
 40
0.4545454545454546
 40
0.4545454545454546
 40
0.4545454545454546
 40
0.4545454545454546
 40
0.5454545454545455
 40
0.5454545454545455
 40
0.5454545454545455
 40
0.5454545454545455
 40
0.6363636363636365
 40
0.6363636363636365
 40
0.6363636363636365
 40
0.6363636363636365
 40
0.7272727272727274
 40
0.7272727272727274
 40
0.7272727272727274
 40
0.7272727272727274
 40
0.8181818181818183
 40
0.8181818181818183
 40
0.8181818181818183
 40
0.8181818181818183
 40
0.9090909090909093
 40
0.9090909090909093
 40
0.9090909090909093
 40
0.9090909090909093
 40
1.0
 40
1.0
 40
1.0
 40
1.0
 10
0.7706732283464567
 20
0.8658307086614173
 30
0.0
 10
0.7706732283464567
 20
0.8658307086614173
 30
0.0
 10
0.7844212598425198
 20
0.8658307086614173
 30
0.0
 10
0.7844212598425198
 20
0.8658307086614173
 30
0.0
 10
0.7844212598425198
 20
0.8658307086614173
 30
0.0
 10
0.7844212598425198
 20
0.8658307086614173
 30
0.0
 10
0.7844212598425198
 20
0.7998307086614174
 30
0.0
 10
0.7844212598425198
 20
0.7998307086614174
 30
0.0
 10
0.7844212598425198
 20
0.7998307086614174
 30
0.0
 10
0.7844212598425198
 20
0.7998307086614174
 30
0.0
 10
0.8057559055118111
 20
0.7998307086614174
 30
0.0
 10
0.8057559055118111
 20
0.7998307086614174
 30
0.0
 10
0.8057559055118111
 20
0.7998307086614174
 30
0.0
 10
0.8057559055118111
 20
0.7998307086614174
 30
0.0
 10
0.8057559055118111
 20
0.7896653543307087
 30
0.0
 10
0.8057559055118111
 20
0.7896653543307087
 30
0.0
 10
0.8057559055118111
 20
0.7896653543307087
 30
0.0
 10
0.8057559055118111
 20
0.7896653543307087
 30
0.0
 10
0.7844212598425198
 20
0.7896653543307087
 30
0.0
 10
0.7844212598425198
 20
0.7896653543307087
 30
0.0
 10
0.7844212598425198
 20
0.7896653543307087
 30
0.0
 10
0.7844212598425198
 20
0.7896653543307087
 30
0.0
 10
0.7844212598425198
 20
0.7523031496062993
 30
0.0
 10
0.7844212598425198
 20
0.7523031496062993
 30
0.0
 10
0.7844212598425198
 20
0.7523031496062993
 30
0.0
 10
0.7844212598425198
 20
0.7523031496062993
 30
0.0
 10
0.7706732283464567
 20
0.7523031496062993
 30
0.0
 10
0.7706732283464567
 20
0.7523031496062993
 30
0.0
 10
0.7706732283464567
 20
0.7523031496062993
 30
0.0
 10
0.7706732283464567
 20
0.7523031496062993
 30
0.0
 10
0.7706732283464567
 20
0.7896653543307087
 30
0.0
 10
0.7706732283464567
 20
0.7896653543307087
 30
0.0
 10
0.7706732283464567
 20
0.7896653543307087
 30
0.0
 10
0.7706732283464567
 20
0.7896653543307087
 30
0.0
 10
0.7172007874015748
 20
0.7896653543307087
 30
0.0
 10
0.7172007874015748
 20
0.7896653543307087
 30
0.0
 10
0.7172007874015748
 20
0.7896653543307087
 30
0.0
 10
0.7172007874015748
 20
0.7896653543307087
 30
0.0
 10
0.7172007874015748
 20
0.8039685039370079
 30
0.0
 10
0.7172007874015748
 20
0.8039685039370079
 30
0.0
 10
0.7172007874015748
 20
0.8039685039370079
 30
0.0
 10
0.7172007874015748
 20
0.8039685039370079
 30
0.0
 10
0.7706732283464567
 20
0.8658307086614173
 30
0.0
 10
0.7706732283464567
 20
0.8658307086614173
 30
0.0
  0
SPLINE
  5
73
330
1F
100
AcDbEntity
  8
LAYER_1
 62
   250
100
AcDbSpline
210
0.0
220
0.0
230
1.0
 70
    11
 71
     3
 72
    16
 73
    12
 74
     0
 42
0.0000000001
 43
0.0000000001
 40
0.0
 40
0.0
 40
0.0
 40
0.0
 40
0.3333333333333333
 40
0.3333333333333333
 40
0.3333333333333333
 40
0.3333333333333333
 40
0.6666666666666666
 40
0.6666666666666666
 40
0.6666666666666666
 40
0.6666666666666666
 40
1.0
 40
1.0
 40
1.0
 40
1.0
 10
0.7706732283464567
 20
0.7998307086614174
 30
0.0
 10
0.7706732283464567
 20
0.7998307086614174
 30
0.0
 10
0.7706732283464567
 20
0.8532204724409449
 30
0.0
 10
0.7706732283464567
 20
0.8532204724409449
 30
0.0
 10
0.7706732283464567
 20
0.8532204724409449
 30
0.0
 10
0.7706732283464567
 20
0.8532204724409449
 30
0.0
 10
0.7246181102362205
 20
0.7998307086614174
 30
0.0
 10
0.7246181102362205
 20
0.7998307086614174
 30
0.0
 10
0.7246181102362205
 20
0.7998307086614174
 30
0.0
 10
0.7246181102362205
 20
0.7998307086614174
 30
0.0
 10
0.7706732283464567
 20
0.7998307086614174
 30
0.0
 10
0.7706732283464567
 20
0.7998307086614174
 30
0.0
  0
SPLINE
  5
74
330
1F
100
AcDbEntity
  8
LAYER_1
 62
   250
100
AcDbSpline
210
0.0
220
0.0
230
1.0
 70
    11
 71
     3
 72
    60
 73
    56
 74
     0
 42
0.0000000001
 43
0.0000000001
 40
0.0
 40
0.0
 40
0.0
 40
0.0
 40
0.0714285714285714
 40
0.0714285714285714
 40
0.0714285714285714
 40
0.0714285714285714
 40
0.1428571428571429
 40
0.1428571428571429
 40
0.1428571428571429
 40
0.1428571428571429
 40
0.2142857142857143
 40
0.2142857142857143
 40
0.2142857142857143
 40
0.2142857142857143
 40
0.2857142857142857
 40
0.2857142857142857
 40
0.2857142857142857
 40
0.2857142857142857
 40
0.3571428571428571
 40
0.3571428571428571
 40
0.3571428571428571
 40
0.3571428571428571
 40
0.4285714285714285
 40
0.4285714285714285
 40
0.4285714285714285
 40
0.4285714285714285
 40
0.4999999999999999
 40
0.4999999999999999
 40
0.4999999999999999
 40
0.4999999999999999
 40
0.5714285714285713
 40
0.5714285714285713
 40
0.5714285714285713
 40
0.5714285714285713
 40
0.6428571428571427
 40
0.6428571428571427
 40
0.6428571428571427
 40
0.6428571428571427
 40
0.7142857142857141
 40
0.7142857142857141
 40
0.7142857142857141
 40
0.7142857142857141
 40
0.7857142857142855
 40
0.7857142857142855
 40
0.7857142857142855
 40
0.7857142857142855
 40
0.8571428571428569
 40
0.8571428571428569
 40
0.8571428571428569
 40
0.8571428571428569
 40
0.9285714285714283
 40
0.9285714285714283
 40
0.9285714285714283
 40
0.9285714285714283
 40
1.0
 40
1.0
 40
1.0
 40
1.0
 10
0.8237283464566929
 20
0.823748031496063
 30
0.0
 10
0.8237283464566929
 20
0.823748031496063
 30
0.0
 10
0.8193385826771654
 20
0.8291377952755906
 30
0.0
 10
0.8193385826771654
 20
0.8291377952755906
 30
0.0
 10
0.8193385826771654
 20
0.8291377952755906
 30
0.0
 10
0.8304527559055118
 20
0.8381929133858268
 30
0.0
 10
0.8360354330708661
 20
0.845748031496063
 30
0.0
 10
0.8360354330708661
 20
0.8518307086614173
 30
0.0
 10
0.8360354330708661
 20
0.8518307086614173
 30
0.0
 10
0.8360354330708661
 20
0.8525236220472441
 30
0.0
 10
0.83598031496063
 20
0.8534133858267717
 30
0.0
 10
0.8358661417322835
 20
0.8544409448818898
 30
0.0
 10
0.8358661417322835
 20
0.8544409448818898
 30
0.0
 10
0.8349527559055119
 20
0.8540511811023622
 30
0.0
 10
0.8340354330708661
 20
0.853748031496063
 30
0.0
 10
0.8331732283464567
 20
0.8535511811023623
 30
0.0
 10
0.8331732283464567
 20
0.8535511811023623
 30
0.0
 10
0.8323110236220472
 20
0.8533307086614174
 30
0.0
 10
0.8315078740157481
 20
0.8532204724409449
 30
0.0
 10
0.8307283464566929
 20
0.8532204724409449
 30
0.0
 10
0.8307283464566929
 20
0.8532204724409449
 30
0.0
 10
0.8281181102362205
 20
0.8532204724409449
 30
0.0
 10
0.8260354330708661
 20
0.8540511811023622
 30
0.0
 10
0.8244803149606299
 20
0.855748031496063
 30
0.0
 10
0.8244803149606299
 20
0.855748031496063
 30
0.0
 10
0.8228937007874017
 20
0.8574133858267717
 30
0.0
 10
0.8221181102362205
 20
0.8595511811023623
 30
0.0
 10
0.8221181102362205
 20
0.8621653543307087
 30
0.0
 10
0.8221181102362205
 20
0.8621653543307087
 30
0.0
 10
0.8221181102362205
 20
0.864720472440945
 30
0.0
 10
0.8230629921259843
 20
0.8669409448818898
 30
0.0
 10
0.8249527559055119
 20
0.8688307086614173
 30
0.0
 10
0.8249527559055119
 20
0.8688307086614173
 30
0.0
 10
0.8268661417322835
 20
0.8707480314960631
 30
0.0
 10
0.8291456692913386
 20
0.8716929133858268
 30
0.0
 10
0.8317834645669292
 20
0.8716929133858268
 30
0.0
 10
0.8317834645669292
 20
0.8716929133858268
 30
0.0
 10
0.8354803149606299
 20
0.8716929133858268
 30
0.0
 10
0.8386456692913387
 20
0.8702204724409449
 30
0.0
 10
0.8412834645669292
 20
0.867248031496063
 30
0.0
 10
0.8412834645669292
 20
0.867248031496063
 30
0.0
 10
0.8438937007874016
 20
0.8643031496062993
 30
0.0
 10
0.845228346456693
 20
0.860496062992126
 30
0.0
 10
0.845228346456693
 20
0.8558307086614173
 30
0.0
 10
0.845228346456693
 20
0.8558307086614173
 30
0.0
 10
0.845228346456693
 20
0.8527755905511811
 30
0.0
 10
0.8445905511811024
 20
0.8495787401574804
 30
0.0
 10
0.8433385826771654
 20
0.846248031496063
 30
0.0
 10
0.8433385826771654
 20
0.846248031496063
 30
0.0
 10
0.8420905511811024
 20
0.8429133858267717
 30
0.0
 10
0.8402834645669292
 20
0.8398307086614174
 30
0.0
 10
0.8378937007874016
 20
0.836968503937008
 30
0.0
 10
0.8378937007874016
 20
0.836968503937008
 30
0.0
 10
0.8355078740157481
 20
0.8341377952755906
 30
0.0
 10
0.8307834645669292
 20
0.8297204724409449
 30
0.0
 10
0.8237283464566929
 20
0.823748031496063
 30
0.0
  0
SPLINE
  5
75
330
1F
100
AcDbEntity
  8
LAYER_1
 62
   250
100
AcDbSpline
210
0.0
220
0.0
230
1.0
 70
    11
 71
     3
 72
    60
 73
    56
 74
     0
 42
0.0000000001
 43
0.0000000001
 40
0.0
 40
0.0
 40
0.0
 40
0.0
 40
0.0714285714285714
 40
0.0714285714285714
 40
0.0714285714285714
 40
0.0714285714285714
 40
0.1428571428571429
 40
0.1428571428571429
 40
0.1428571428571429
 40
0.1428571428571429
 40
0.2142857142857143
 40
0.2142857142857143
 40
0.2142857142857143
 40
0.2142857142857143
 40
0.2857142857142857
 40
0.2857142857142857
 40
0.2857142857142857
 40
0.2857142857142857
 40
0.3571428571428571
 40
0.3571428571428571
 40
0.3571428571428571
 40
0.3571428571428571
 40
0.4285714285714285
 40
0.4285714285714285
 40
0.4285714285714285
 40
0.4285714285714285
 40
0.4999999999999999
 40
0.4999999999999999
 40
0.4999999999999999
 40
0.4999999999999999
 40
0.5714285714285713
 40
0.5714285714285713
 40
0.5714285714285713
 40
0.5714285714285713
 40
0.6428571428571427
 40
0.6428571428571427
 40
0.6428571428571427
 40
0.6428571428571427
 40
0.7142857142857141
 40
0.7142857142857141
 40
0.7142857142857141
 40
0.7142857142857141
 40
0.7857142857142855
 40
0.7857142857142855
 40
0.7857142857142855
 40
0.7857142857142855
 40
0.8571428571428569
 40
0.8571428571428569
 40
0.8571428571428569
 40
0.8571428571428569
 40
0.9285714285714283
 40
0.9285714285714283
 40
0.9285714285714283
 40
0.9285714285714283
 40
1.0
 40
1.0
 40
1.0
 40
1.0
 10
0.8527834645669292
 20
0.823748031496063
 30
0.0
 10
0.8527834645669292
 20
0.823748031496063
 30
0.0
 10
0.8483937007874016
 20
0.8291377952755906
 30
0.0
 10
0.8483937007874016
 20
0.8291377952755906
 30
0.0
 10
0.8483937007874016
 20
0.8291377952755906
 30
0.0
 10
0.859507874015748
 20
0.8381929133858268
 30
0.0
 10
0.8650905511811023
 20
0.845748031496063
 30
0.0
 10
0.8650905511811023
 20
0.8518307086614173
 30
0.0
 10
0.8650905511811023
 20
0.8518307086614173
 30
0.0
 10
0.8650905511811023
 20
0.8525236220472441
 30
0.0
 10
0.8650354330708662
 20
0.8534133858267717
 30
0.0
 10
0.8649212598425197
 20
0.8544409448818898
 30
0.0
 10
0.8649212598425197
 20
0.8544409448818898
 30
0.0
 10
0.8640078740157481
 20
0.8540511811023622
 30
0.0
 10
0.8630905511811025
 20
0.853748031496063
 30
0.0
 10
0.862228346456693
 20
0.8535511811023623
 30
0.0
 10
0.862228346456693
 20
0.8535511811023623
 30
0.0
 10
0.8613661417322835
 20
0.8533307086614174
 30
0.0
 10
0.8605354330708662
 20
0.8532204724409449
 30
0.0
 10
0.8597007874015749
 20
0.8532204724409449
 30
0.0
 10
0.8597007874015749
 20
0.8532204724409449
 30
0.0
 10
0.8571456692913386
 20
0.8532204724409449
 30
0.0
 10
0.8550905511811024
 20
0.8540511811023622
 30
0.0
 10
0.8535354330708662
 20
0.855748031496063
 30
0.0
 10
0.8535354330708662
 20
0.855748031496063
 30
0.0
 10
0.8519527559055119
 20
0.8574133858267717
 30
0.0
 10
0.8511732283464567
 20
0.8595511811023623
 30
0.0
 10
0.8511732283464567
 20
0.8621653543307087
 30
0.0
 10
0.8511732283464567
 20
0.8621653543307087
 30
0.0
 10
0.8511732283464567
 20
0.864720472440945
 30
0.0
 10
0.8521181102362205
 20
0.8669409448818898
 30
0.0
 10
0.8540078740157481
 20
0.8688307086614173
 30
0.0
 10
0.8540078740157481
 20
0.8688307086614173
 30
0.0
 10
0.8558937007874016
 20
0.8707480314960631
 30
0.0
 10
0.8582007874015748
 20
0.8716929133858268
 30
0.0
 10
0.8608385826771654
 20
0.8716929133858268
 30
0.0
 10
0.8608385826771654
 20
0.8716929133858268
 30
0.0
 10
0.8645354330708662
 20
0.8716929133858268
 30
0.0
 10
0.8677007874015749
 20
0.8702204724409449
 30
0.0
 10
0.8703385826771654
 20
0.867248031496063
 30
0.0
 10
0.8703385826771654
 20
0.867248031496063
 30
0.0
 10
0.8729488188976379
 20
0.8643031496062993
 30
0.0
 10
0.8742834645669292
 20
0.860496062992126
 30
0.0
 10
0.8742834645669292
 20
0.8558307086614173
 30
0.0
 10
0.8742834645669292
 20
0.8558307086614173
 30
0.0
 10
0.8742834645669292
 20
0.8527755905511811
 30
0.0
 10
0.8736456692913386
 20
0.8495787401574804
 30
0.0
 10
0.8723937007874016
 20
0.846248031496063
 30
0.0
 10
0.8723937007874016
 20
0.846248031496063
 30
0.0
 10
0.8711456692913386
 20
0.8429133858267717
 30
0.0
 10
0.8693385826771654
 20
0.8398307086614174
 30
0.0
 10
0.8669527559055118
 20
0.836968503937008
 30
0.0
 10
0.8669527559055118
 20
0.836968503937008
 30
0.0
 10
0.8645629921259843
 20
0.8341377952755906
 30
0.0
 10
0.8598385826771654
 20
0.8297204724409449
 30
0.0
 10
0.8527834645669292
 20
0.823748031496063
 30
0.0
  0
ENDSEC
  0
SECTION
  2
OBJECTS
  0
DICTIONARY
  5
C
330
0
100
AcDbDictionary
  3
ACAD_GROUP
350
D
  3
ACAD_LAYOUT
350
1A
  3
ACAD_MLINESTYLE
350
17
  3
ACAD_PLOTSETTINGS
350
19
  3
ACDBHEADERROUNDTRIPXREC
350
76
  0
DICTIONARY
  5
96
330
29
100
AcDbDictionary
280
     1
  3
ACAD_XREC_ROUNDTRIP
360
97
  0
DICTIONARY
  5
D
102
{ACAD_REACTORS
330
C
102
}
330
C
100
AcDbDictionary
  0
DICTIONARY
  5
1A
102
{ACAD_REACTORS
330
C
102
}
330
C
100
AcDbDictionary
  0
DICTIONARY
  5
17
102
{ACAD_REACTORS
330
C
102
}
330
C
100
AcDbDictionary
  3
STANDARD
350
18
  0
DICTIONARY
  5
19
102
{ACAD_REACTORS
330
C
102
}
330
C
100
AcDbDictionary
  0
DICTIONARY
  5
76
102
{ACAD_REACTORS
330
C
102
}
330
C
100
AcDbDictionary
  3
CEPSNTYPE
350
7F
  3
DIMSTYLEDATA
350
95
  3
FINGERPRINTGUID
350
80
  3
HYPERLINKBASE
350
79
  3
INSUNITS
350
7E
  3
LAYOUTDICT
350
7B
  3
LWETCUNION
350
7D
  3
PLOTSETDICT
350
7C
  3
PSVPSCALE
350
82
  3
PUCSBASE
350
85
  3
PUCSORGBACK
350
8B
  3
PUCSORGBOTTOM
350
87
  3
PUCSORGFRONT
350
8A
  3
PUCSORGLEFT
350
88
  3
PUCSORGRIGHT
350
89
  3
PUCSORGTOP
350
86
  3
PUCSORTHOREF
350
83
  3
PUCSORTHOVIEW
350
84
  3
STYLESHEET
350
7A
  3
TSTACKALIGN
350
77
  3
TSTACKSIZE
350
78
  3
UCSBASE
350
8E
  3
UCSORGBACK
350
94
  3
UCSORGBOTTOM
350
90
  3
UCSORGFRONT
350
93
  3
UCSORGLEFT
350
91
  3
UCSORGRIGHT
350
92
  3
UCSORGTOP
350
8F
  3
UCSORTHOREF
350
8C
  3
UCSORTHOVIEW
350
8D
  3
VERSIONGUID
350
81
  0
XRECORD
  5
97
102
{ACAD_REACTORS
330
96
102
}
330
96
100
AcDbXrecord
102
UCS
 74
     0
 71
     1
 10
0.0
 20
0.0
 30
0.0
 10
1.0
 20
0.0
 30
0.0
 10
0.0
 20
1.0
 30
0.0
146
0.0
 79
     0
102
VIEW
281
     0
  0
MLINESTYLE
  5
18
102
{ACAD_REACTORS
330
17
102
}
330
17
100
AcDbMlineStyle
  2
Standard
 70
     0
  3

 62
   256
 51
90.0
 52
90.0
 71
     2
 49
0.5
 62
   256
  6
BYLAYER
 49
-0.5
 62
   256
  6
BYLAYER
  0
XRECORD
  5
7F
102
{ACAD_REACTORS
330
76
102
}
330
76
100
AcDbXrecord
 90
        0
  0
XRECORD
  5
95
102
{ACAD_REACTORS
330
76
102
}
330
76
100
AcDbXrecord
1000
DSTYLE
1002
{
1070
   340
340
11
1002
}
  0
XRECORD
  5
80
102
{ACAD_REACTORS
330
76
102
}
330
76
100
AcDbXrecord
  1
{FAEB1C30-E019-11D5-929B-00C0DF256EC4}
  0
XRECORD
  5
79
102
{ACAD_REACTORS
330
76
102
}
330
76
100
AcDbXrecord
  1

  0
XRECORD
  5
7E
102
{ACAD_REACTORS
330
76
102
}
330
76
100
AcDbXrecord
 90
        1
  0
XRECORD
  5
7B
102
{ACAD_REACTORS
330
76
102
}
330
76
100
AcDbXrecord
340
1A
  0
XRECORD
  5
7D
102
{ACAD_REACTORS
330
76
102
}
330
76
100
AcDbXrecord
 90
     2560
  0
XRECORD
  5
7C
102
{ACAD_REACTORS
330
76
102
}
330
76
100
AcDbXrecord
340
19
  0
XRECORD
  5
82
102
{ACAD_REACTORS
330
76
102
}
330
76
100
AcDbXrecord
 40
0.0
  0
XRECORD
  5
85
102
{ACAD_REACTORS
330
76
102
}
330
76
100
AcDbXrecord
340
0
  0
XRECORD
  5
8B
102
{ACAD_REACTORS
330
76
102
}
330
76
100
AcDbXrecord
 10
0.0
 20
0.0
 30
0.0
  0
XRECORD
  5
87
102
{ACAD_REACTORS
330
76
102
}
330
76
100
AcDbXrecord
 10
0.0
 20
0.0
 30
0.0
  0
XRECORD
  5
8A
102
{ACAD_REACTORS
330
76
102
}
330
76
100
AcDbXrecord
 10
0.0
 20
0.0
 30
0.0
  0
XRECORD
  5
88
102
{ACAD_REACTORS
330
76
102
}
330
76
100
AcDbXrecord
 10
0.0
 20
0.0
 30
0.0
  0
XRECORD
  5
89
102
{ACAD_REACTORS
330
76
102
}
330
76
100
AcDbXrecord
 10
0.0
 20
0.0
 30
0.0
  0
XRECORD
  5
86
102
{ACAD_REACTORS
330
76
102
}
330
76
100
AcDbXrecord
 10
0.0
 20
0.0
 30
0.0
  0
XRECORD
  5
83
102
{ACAD_REACTORS
330
76
102
}
330
76
100
AcDbXrecord
340
0
  0
XRECORD
  5
84
102
{ACAD_REACTORS
330
76
102
}
330
76
100
AcDbXrecord
 70
     0
  0
XRECORD
  5
7A
102
{ACAD_REACTORS
330
76
102
}
330
76
100
AcDbXrecord
  1

  0
XRECORD
  5
77
102
{ACAD_REACTORS
330
76
102
}
330
76
100
AcDbXrecord
 90
        1
  0
XRECORD
  5
78
102
{ACAD_REACTORS
330
76
102
}
330
76
100
AcDbXrecord
 90
       70
  0
XRECORD
  5
8E
102
{ACAD_REACTORS
330
76
102
}
330
76
100
AcDbXrecord
340
0
  0
XRECORD
  5
94
102
{ACAD_REACTORS
330
76
102
}
330
76
100
AcDbXrecord
 10
0.0
 20
0.0
 30
0.0
  0
XRECORD
  5
90
102
{ACAD_REACTORS
330
76
102
}
330
76
100
AcDbXrecord
 10
0.0
 20
0.0
 30
0.0
  0
XRECORD
  5
93
102
{ACAD_REACTORS
330
76
102
}
330
76
100
AcDbXrecord
 10
0.0
 20
0.0
 30
0.0
  0
XRECORD
  5
91
102
{ACAD_REACTORS
330
76
102
}
330
76
100
AcDbXrecord
 10
0.0
 20
0.0
 30
0.0
  0
XRECORD
  5
92
102
{ACAD_REACTORS
330
76
102
}
330
76
100
AcDbXrecord
 10
0.0
 20
0.0
 30
0.0
  0
XRECORD
  5
8F
102
{ACAD_REACTORS
330
76
102
}
330
76
100
AcDbXrecord
 10
0.0
 20
0.0
 30
0.0
  0
XRECORD
  5
8C
102
{ACAD_REACTORS
330
76
102
}
330
76
100
AcDbXrecord
340
0
  0
XRECORD
  5
8D
102
{ACAD_REACTORS
330
76
102
}
330
76
100
AcDbXrecord
 70
     0
  0
XRECORD
  5
81
102
{ACAD_REACTORS
330
76
102
}
330
76
100
AcDbXrecord
  1
{FAEB1C32-E019-11D5-929B-00C0DF256EC4}
  0
ENDSEC
  0
EOF
