  0
SECTION
  2
HEADER
  9
$ACADVER
  1
AC1014
  9
$ACADMAINTVER
 70
     9
  9
$DWGCODEPAGE
  3
ANSI_1252
  9
$INSBASE
 10
0.0
 20
0.0
 30
0.0
  9
$EXTMIN
 10
-1.397350393700787
 20
0.7315551181102362
 30
0.0
  9
$EXTMAX
 10
0.9400472440944881
 20
2.566129921259843
 30
0.0
  9
$LIMMIN
 10
0.0
 20
0.0
  9
$LIMMAX
 10
12.0
 20
9.0
  9
$ORTHOMODE
 70
     0
  9
$REGENMODE
 70
     1
  9
$FILLMODE
 70
     1
  9
$QTEXTMODE
 70
     0
  9
$MIRRTEXT
 70
     1
  9
$DRAGMODE
 70
     2
  9
$LTSCALE
 40
1.0
  9
$OSMODE
 70
    37
  9
$ATTMODE
 70
     1
  9
$TEXTSIZE
 40
0.2
  9
$TRACEWID
 40
0.05
  9
$TEXTSTYLE
  7
STANDARD
  9
$CLAYER
  8
0
  9
$CELTYPE
  6
BYLAYER
  9
$CECOLOR
 62
   256
  9
$CELTSCALE
 40
1.0
  9
$DELOBJ
 70
     1
  9
$DISPSILH
 70
     0
  9
$DIMSCALE
 40
1.0
  9
$DIMASZ
 40
0.18
  9
$DIMEXO
 40
0.0625
  9
$DIMDLI
 40
0.38
  9
$DIMRND
 40
0.0
  9
$DIMDLE
 40
0.0
  9
$DIMEXE
 40
0.18
  9
$DIMTP
 40
0.0
  9
$DIMTM
 40
0.0
  9
$DIMTXT
 40
0.18
  9
$DIMCEN
 40
0.09
  9
$DIMTSZ
 40
0.0
  9
$DIMTOL
 70
     0
  9
$DIMLIM
 70
     0
  9
$DIMTIH
 70
     1
  9
$DIMTOH
 70
     1
  9
$DIMSE1
 70
     0
  9
$DIMSE2
 70
     0
  9
$DIMTAD
 70
     0
  9
$DIMZIN
 70
     0
  9
$DIMBLK
  1

  9
$DIMASO
 70
     1
  9
$DIMSHO
 70
     1
  9
$DIMPOST
  1

  9
$DIMAPOST
  1

  9
$DIMALT
 70
     0
  9
$DIMALTD
 70
     2
  9
$DIMALTF
 40
25.4
  9
$DIMLFAC
 40
1.0
  9
$DIMTOFL
 70
     0
  9
$DIMTVP
 40
0.0
  9
$DIMTIX
 70
     0
  9
$DIMSOXD
 70
     0
  9
$DIMSAH
 70
     0
  9
$DIMBLK1
  1

  9
$DIMBLK2
  1

  9
$DIMSTYLE
  2
STANDARD
  9
$DIMCLRD
 70
     0
  9
$DIMCLRE
 70
     0
  9
$DIMCLRT
 70
     0
  9
$DIMTFAC
 40
1.0
  9
$DIMGAP
 40
0.09
  9
$DIMJUST
 70
     0
  9
$DIMSD1
 70
     0
  9
$DIMSD2
 70
     0
  9
$DIMTOLJ
 70
     1
  9
$DIMTZIN
 70
     0
  9
$DIMALTZ
 70
     0
  9
$DIMALTTZ
 70
     0
  9
$DIMFIT
 70
     3
  9
$DIMUPT
 70
     0
  9
$DIMUNIT
 70
     2
  9
$DIMDEC
 70
     4
  9
$DIMTDEC
 70
     4
  9
$DIMALTU
 70
     2
  9
$DIMALTTD
 70
     2
  9
$DIMTXSTY
  7
STANDARD
  9
$DIMAUNIT
 70
     0
  9
$LUNITS
 70
     2
  9
$LUPREC
 70
     4
  9
$SKETCHINC
 40
0.1
  9
$FILLETRAD
 40
0.5
  9
$AUNITS
 70
     0
  9
$AUPREC
 70
     0
  9
$MENU
  1
.
  9
$ELEVATION
 40
0.0
  9
$PELEVATION
 40
0.0
  9
$THICKNESS
 40
0.0
  9
$LIMCHECK
 70
     0
  9
$CHAMFERA
 40
0.5
  9
$CHAMFERB
 40
0.5
  9
$CHAMFERC
 40
1.0
  9
$CHAMFERD
 40
0.0
  9
$SKPOLY
 70
     0
  9
$TDCREATE
 40
2454120.447696586
  9
$TDUPDATE
 40
2454120.447696597
  9
$TDINDWG
 40
0.0000000116
  9
$TDUSRTIMER
 40
0.0000000116
  9
$USRTIMER
 70
     1
  9
$ANGBASE
 50
0.0
  9
$ANGDIR
 70
     0
  9
$PDMODE
 70
     0
  9
$PDSIZE
 40
0.0
  9
$PLINEWID
 40
0.0
  9
$COORDS
 70
     1
  9
$SPLFRAME
 70
     0
  9
$SPLINETYPE
 70
     6
  9
$SPLINESEGS
 70
     8
  9
$ATTDIA
 70
     0
  9
$ATTREQ
 70
     1
  9
$HANDLING
 70
     1
  9
$HANDSEED
  5
9C
  9
$SURFTAB1
 70
     6
  9
$SURFTAB2
 70
     6
  9
$SURFTYPE
 70
     6
  9
$SURFU
 70
     6
  9
$SURFV
 70
     6
  9
$UCSNAME
  2

  9
$UCSORG
 10
0.0
 20
0.0
 30
0.0
  9
$UCSXDIR
 10
1.0
 20
0.0
 30
0.0
  9
$UCSYDIR
 10
0.0
 20
1.0
 30
0.0
  9
$PUCSNAME
  2

  9
$PUCSORG
 10
0.0
 20
0.0
 30
0.0
  9
$PUCSXDIR
 10
1.0
 20
0.0
 30
0.0
  9
$PUCSYDIR
 10
0.0
 20
1.0
 30
0.0
  9
$USERI1
 70
     0
  9
$USERI2
 70
     0
  9
$USERI3
 70
     0
  9
$USERI4
 70
     0
  9
$USERI5
 70
     0
  9
$USERR1
 40
0.0
  9
$USERR2
 40
0.0
  9
$USERR3
 40
0.0
  9
$USERR4
 40
0.0
  9
$USERR5
 40
0.0
  9
$WORLDVIEW
 70
     1
  9
$SHADEDGE
 70
     3
  9
$SHADEDIF
 70
    70
  9
$TILEMODE
 70
     1
  9
$MAXACTVP
 70
    64
  9
$PINSBASE
 10
0.0
 20
0.0
 30
0.0
  9
$PLIMCHECK
 70
     0
  9
$PEXTMIN
 10
1.000000000000000E+20
 20
1.000000000000000E+20
 30
1.000000000000000E+20
  9
$PEXTMAX
 10
-1.000000000000000E+20
 20
-1.000000000000000E+20
 30
-1.000000000000000E+20
  9
$PLIMMIN
 10
0.0
 20
0.0
  9
$PLIMMAX
 10
12.0
 20
9.0
  9
$UNITMODE
 70
     0
  9
$VISRETAIN
 70
     1
  9
$PLINEGEN
 70
     0
  9
$PSLTSCALE
 70
     1
  9
$TREEDEPTH
 70
  3020
  9
$PICKSTYLE
 70
     1
  9
$CMLSTYLE
  2
STANDARD
  9
$CMLJUST
 70
     0
  9
$CMLSCALE
 40
1.0
  9
$PROXYGRAPHICS
 70
     1
  9
$MEASUREMENT
 70
     0
  0
ENDSEC
  0
SECTION
  2
CLASSES
  0
CLASS
  1
ACDBDICTIONARYWDFLT
  2
AcDbDictionaryWithDefault
  3
ObjectDBX Classes
 90
        0
280
     0
281
     0
  0
CLASS
  1
XRECORD
  2
AcDbXrecord
  3
AutoCAD 2000
 90
        0
280
     0
281
     0
  0
CLASS
  1
LWPOLYLINE
  2
AcDbPolyline
  3
AutoCAD 2000
 90
        0
280
     0
281
     1
  0
CLASS
  1
HATCH
  2
AcDbHatch
  3
AutoCAD 2000
 90
        0
280
     0
281
     1
  0
CLASS
  1
ACDBPLACEHOLDER
  2
AcDbPlaceHolder
  3
ObjectDBX Classes
 90
        0
280
     0
281
     0
  0
CLASS
  1
LAYOUT
  2
AcDbLayout
  3
ObjectDBX Classes
 90
        0
280
     0
281
     0
  0
ENDSEC
  0
SECTION
  2
TABLES
  0
TABLE
  2
VPORT
  5
8
330
0
100
AcDbSymbolTable
 70
     2
  0
VPORT
  5
29
102
{ACAD_XDICTIONARY
360
9A
102
}
330
8
100
AcDbSymbolTableRecord
100
AcDbViewportTableRecord
  2
*ACTIVE
 70
     0
 10
0.0
 20
0.0
 11
1.0
 21
1.0
 12
10.42990654205607
 22
4.5
 13
0.0
 23
0.0
 14
0.5
 24
0.5
 15
0.5
 25
0.5
 16
0.0
 26
0.0
 36
1.0
 17
0.0
 27
0.0
 37
0.0
 40
9.0
 41
1.972972972850329
 42
50.0
 43
0.0
 44
0.0
 50
0.0
 51
0.0
 71
     0
 72
   100
 73
     1
 74
     3
 75
     0
 76
     0
 77
     0
 78
     0
  0
ENDTAB
  0
TABLE
  2
LTYPE
  5
5
330
0
100
AcDbSymbolTable
 70
     1
  0
LTYPE
  5
14
330
5
100
AcDbSymbolTableRecord
100
AcDbLinetypeTableRecord
  2
BYBLOCK
 70
     0
  3

 72
    65
 73
     0
 40
0.0
  0
LTYPE
  5
15
330
5
100
AcDbSymbolTableRecord
100
AcDbLinetypeTableRecord
  2
BYLAYER
 70
     0
  3

 72
    65
 73
     0
 40
0.0
  0
LTYPE
  5
16
330
5
100
AcDbSymbolTableRecord
100
AcDbLinetypeTableRecord
  2
CONTINUOUS
 70
     0
  3
Solid line
 72
    65
 73
     0
 40
0.0
  0
ENDTAB
  0
TABLE
  2
LAYER
  5
2
330
0
100
AcDbSymbolTable
 70
     2
  0
LAYER
  5
10
330
2
100
AcDbSymbolTableRecord
100
AcDbLayerTableRecord
  2
0
 70
     0
 62
     7
  6
CONTINUOUS
  0
LAYER
  5
2B
330
2
100
AcDbSymbolTableRecord
100
AcDbLayerTableRecord
  2
LAYER_1
 70
     0
 62
     7
  6
CONTINUOUS
  0
ENDTAB
  0
TABLE
  2
STYLE
  5
3
330
0
100
AcDbSymbolTable
 70
     1
  0
STYLE
  5
11
330
3
100
AcDbSymbolTableRecord
100
AcDbTextStyleTableRecord
  2
STANDARD
 70
     0
 40
0.0
 41
1.0
 50
0.0
 71
     0
 42
0.2
  3
txt
  4

  0
ENDTAB
  0
TABLE
  2
VIEW
  5
6
330
0
100
AcDbSymbolTable
 70
     0
  0
ENDTAB
  0
TABLE
  2
UCS
  5
7
330
0
100
AcDbSymbolTable
 70
     0
  0
ENDTAB
  0
TABLE
  2
APPID
  5
9
330
0
100
AcDbSymbolTable
 70
     2
  0
APPID
  5
12
330
9
100
AcDbSymbolTableRecord
100
AcDbRegAppTableRecord
  2
ACAD
 70
     0
  0
APPID
  5
2A
330
9
100
AcDbSymbolTableRecord
100
AcDbRegAppTableRecord
  2
ODA
 70
     0
  0
ENDTAB
  0
TABLE
  2
DIMSTYLE
  5
A
330
0
100
AcDbSymbolTable
 70
     1
  0
DIMSTYLE
105
27
330
A
100
AcDbSymbolTableRecord
100
AcDbDimStyleTableRecord
  2
STANDARD
 70
     0
  3

  4

  5

  6

  7

 40
1.0
 41
0.18
 42
0.0625
 43
0.38
 44
0.18
 45
0.0
 46
0.0
 47
0.0
 48
0.0
140
0.18
141
0.09
142
0.0
143
25.4
144
1.0
145
0.0
146
1.0
147
0.09
 71
     0
 72
     0
 73
     1
 74
     1
 75
     0
 76
     0
 77
     0
 78
     0
170
     0
171
     2
172
     0
173
     0
174
     0
175
     0
176
     0
177
     0
178
     0
270
     2
271
     4
272
     4
273
     2
274
     2
340
11
275
     0
280
     0
281
     0
282
     0
283
     1
284
     0
285
     0
286
     0
287
     3
288
     0
  0
ENDTAB
  0
TABLE
  2
BLOCK_RECORD
  5
1
330
0
100
AcDbSymbolTable
 70
     1
  0
BLOCK_RECORD
  5
1F
330
1
100
AcDbSymbolTableRecord
100
AcDbBlockTableRecord
  2
*MODEL_SPACE
  0
BLOCK_RECORD
  5
1B
330
1
100
AcDbSymbolTableRecord
100
AcDbBlockTableRecord
  2
*PAPER_SPACE
  0
ENDTAB
  0
ENDSEC
  0
SECTION
  2
BLOCKS
  0
BLOCK
  5
20
330
1F
100
AcDbEntity
  8
0
100
AcDbBlockBegin
  2
*MODEL_SPACE
 70
     0
 71
     0
 10
0.0
 20
0.0
 30
0.0
  3
*MODEL_SPACE
  1

  0
ENDBLK
  5
21
330
1F
100
AcDbEntity
  8
0
100
AcDbBlockEnd
  0
BLOCK
  5
1C
330
1B
100
AcDbEntity
 67
     1
  8
0
100
AcDbBlockBegin
  2
*PAPER_SPACE
 70
     0
 71
     0
 10
0.0
 20
0.0
 30
0.0
  3
*PAPER_SPACE
  1

  0
ENDBLK
  5
1D
330
1B
100
AcDbEntity
 67
     1
  8
0
100
AcDbBlockEnd
  0
ENDSEC
  0
SECTION
  2
ENTITIES
  0
SPLINE
  5
2C
330
1F
100
AcDbEntity
  8
LAYER_1
 62
     7
100
AcDbSpline
210
0.0
220
0.0
230
1.0
 70
    11
 71
     3
 72
    24
 73
    20
 74
     0
 42
0.0000000001
 43
0.0000000001
 40
0.0
 40
0.0
 40
0.0
 40
0.0
 40
0.2
 40
0.2
 40
0.2
 40
0.2
 40
0.4
 40
0.4
 40
0.4
 40
0.4
 40
0.6000000000000001
 40
0.6000000000000001
 40
0.6000000000000001
 40
0.6000000000000001
 40
0.8
 40
0.8
 40
0.8
 40
0.8
 40
1.0
 40
1.0
 40
1.0
 40
1.0
 10
-1.395850393700788
 20
1.799889763779528
 30
0.0
 10
-1.395850393700788
 20
1.799889763779528
 30
0.0
 10
-1.269023622047244
 20
1.799889763779528
 30
0.0
 10
-1.269023622047244
 20
1.799889763779528
 30
0.0
 10
-1.269023622047244
 20
1.799889763779528
 30
0.0
 10
-1.280405511811024
 20
1.695826771653543
 30
0.0
 10
-1.225318897637795
 20
1.598177165354331
 30
0.0
 10
-1.098295275590551
 20
1.569003937007874
 30
0.0
 10
-1.098295275590551
 20
1.569003937007874
 30
0.0
 10
-0.8411535433070867
 20
1.509948818897638
 30
0.0
 10
-0.8804133858267716
 20
1.268192913385827
 30
0.0
 10
-0.9665905511811024
 20
1.266566929133858
 30
0.0
 10
-0.9665905511811024
 20
1.266566929133858
 30
0.0
 10
-0.9665905511811024
 20
1.266566929133858
 30
0.0
 10
-1.395850393700788
 20
1.266566929133858
 30
0.0
 10
-1.395850393700788
 20
1.266566929133858
 30
0.0
 10
-1.395850393700788
 20
1.266566929133858
 30
0.0
 10
-1.395850393700788
 20
1.266566929133858
 30
0.0
 10
-1.395850393700788
 20
1.799889763779528
 30
0.0
 10
-1.395850393700788
 20
1.799889763779528
 30
0.0
  0
SPLINE
  5
2D
330
1F
100
AcDbEntity
  8
LAYER_1
 62
   252
100
AcDbSpline
210
0.0
220
0.0
230
1.0
 70
    11
 71
     3
 72
    52
 73
    48
 74
     0
 42
0.0000000001
 43
0.0000000001
 40
0.0
 40
0.0
 40
0.0
 40
0.0
 40
0.0833333333333333
 40
0.0833333333333333
 40
0.0833333333333333
 40
0.0833333333333333
 40
0.1666666666666667
 40
0.1666666666666667
 40
0.1666666666666667
 40
0.1666666666666667
 40
0.25
 40
0.25
 40
0.25
 40
0.25
 40
0.3333333333333333
 40
0.3333333333333333
 40
0.3333333333333333
 40
0.3333333333333333
 40
0.4166666666666666
 40
0.4166666666666666
 40
0.4166666666666666
 40
0.4166666666666666
 40
0.4999999999999999
 40
0.4999999999999999
 40
0.4999999999999999
 40
0.4999999999999999
 40
0.5833333333333333
 40
0.5833333333333333
 40
0.5833333333333333
 40
0.5833333333333333
 40
0.6666666666666666
 40
0.6666666666666666
 40
0.6666666666666666
 40
0.6666666666666666
 40
0.75
 40
0.75
 40
0.75
 40
0.75
 40
0.8333333333333334
 40
0.8333333333333334
 40
0.8333333333333334
 40
0.8333333333333334
 40
0.9166666666666667
 40
0.9166666666666667
 40
0.9166666666666667
 40
0.9166666666666667
 40
1.0
 40
1.0
 40
1.0
 40
1.0
 10
0.4234763779527559
 20
1.781677165354331
 30
0.0
 10
0.4234763779527559
 20
1.781677165354331
 30
0.0
 10
0.4238582677165355
 20
2.535574803149606
 30
0.0
 10
0.4238582677165355
 20
2.535574803149606
 30
0.0
 10
0.4238582677165355
 20
2.535574803149606
 30
0.0
 10
0.4238582677165355
 20
2.535574803149606
 30
0.0
 10
0.4241614173228347
 20
2.526023622047244
 30
0.0
 10
0.4241614173228347
 20
2.526023622047244
 30
0.0
 10
0.4241614173228347
 20
2.526023622047244
 30
0.0
 10
0.4241614173228347
 20
2.526023622047244
 30
0.0
 10
0.4248622047244094
 20
2.516551181102362
 30
0.0
 10
0.4248622047244094
 20
2.516551181102362
 30
0.0
 10
0.4248622047244094
 20
2.516551181102362
 30
0.0
 10
0.4248622047244094
 20
2.516551181102362
 30
0.0
 10
0.4259488188976378
 20
2.507173228346457
 30
0.0
 10
0.4259488188976378
 20
2.507173228346457
 30
0.0
 10
0.4259488188976378
 20
2.507173228346457
 30
0.0
 10
0.4259488188976378
 20
2.507173228346457
 30
0.0
 10
0.4274330708661417
 20
2.49790157480315
 30
0.0
 10
0.4274330708661417
 20
2.49790157480315
 30
0.0
 10
0.4274330708661417
 20
2.49790157480315
 30
0.0
 10
0.4274330708661417
 20
2.49790157480315
 30
0.0
 10
0.4293110236220473
 20
2.488751968503937
 30
0.0
 10
0.4293110236220473
 20
2.488751968503937
 30
0.0
 10
0.4293110236220473
 20
2.488751968503937
 30
0.0
 10
0.4293110236220473
 20
2.488751968503937
 30
0.0
 10
0.4289291338582678
 20
1.734854330708662
 30
0.0
 10
0.4289291338582678
 20
1.734854330708662
 30
0.0
 10
0.4289291338582678
 20
1.734854330708662
 30
0.0
 10
0.4289291338582678
 20
1.734854330708662
 30
0.0
 10
0.4270511811023622
 20
1.744003937007874
 30
0.0
 10
0.4270511811023622
 20
1.744003937007874
 30
0.0
 10
0.4270511811023622
 20
1.744003937007874
 30
0.0
 10
0.4270511811023622
 20
1.744003937007874
 30
0.0
 10
0.4255669291338583
 20
1.753275590551181
 30
0.0
 10
0.4255669291338583
 20
1.753275590551181
 30
0.0
 10
0.4255669291338583
 20
1.753275590551181
 30
0.0
 10
0.4255669291338583
 20
1.753275590551181
 30
0.0
 10
0.4244803149606299
 20
1.762653543307087
 30
0.0
 10
0.4244803149606299
 20
1.762653543307087
 30
0.0
 10
0.4244803149606299
 20
1.762653543307087
 30
0.0
 10
0.4244803149606299
 20
1.762653543307087
 30
0.0
 10
0.4237795275590551
 20
1.772125984251969
 30
0.0
 10
0.4237795275590551
 20
1.772125984251969
 30
0.0
 10
0.4237795275590551
 20
1.772125984251969
 30
0.0
 10
0.4237795275590551
 20
1.772125984251969
 30
0.0
 10
0.4234763779527559
 20
1.781677165354331
 30
0.0
 10
0.4234763779527559
 20
1.781677165354331
 30
0.0
  0
SPLINE
  5
2E
330
1F
100
AcDbEntity
  8
LAYER_1
 62
   252
100
AcDbSpline
210
0.0
220
0.0
230
1.0
 70
    11
 71
     3
 72
    52
 73
    48
 74
     0
 42
0.0000000001
 43
0.0000000001
 40
0.0
 40
0.0
 40
0.0
 40
0.0
 40
0.0833333333333333
 40
0.0833333333333333
 40
0.0833333333333333
 40
0.0833333333333333
 40
0.1666666666666667
 40
0.1666666666666667
 40
0.1666666666666667
 40
0.1666666666666667
 40
0.25
 40
0.25
 40
0.25
 40
0.25
 40
0.3333333333333333
 40
0.3333333333333333
 40
0.3333333333333333
 40
0.3333333333333333
 40
0.4166666666666666
 40
0.4166666666666666
 40
0.4166666666666666
 40
0.4166666666666666
 40
0.4999999999999999
 40
0.4999999999999999
 40
0.4999999999999999
 40
0.4999999999999999
 40
0.5833333333333333
 40
0.5833333333333333
 40
0.5833333333333333
 40
0.5833333333333333
 40
0.6666666666666666
 40
0.6666666666666666
 40
0.6666666666666666
 40
0.6666666666666666
 40
0.75
 40
0.75
 40
0.75
 40
0.75
 40
0.8333333333333334
 40
0.8333333333333334
 40
0.8333333333333334
 40
0.8333333333333334
 40
0.9166666666666667
 40
0.9166666666666667
 40
0.9166666666666667
 40
0.9166666666666667
 40
1.0
 40
1.0
 40
1.0
 40
1.0
 10
0.4289291338582678
 20
1.734854330708662
 30
0.0
 10
0.4289291338582678
 20
1.734854330708662
 30
0.0
 10
0.4293110236220473
 20
2.488751968503937
 30
0.0
 10
0.4293110236220473
 20
2.488751968503937
 30
0.0
 10
0.4293110236220473
 20
2.488751968503937
 30
0.0
 10
0.4293110236220473
 20
2.488751968503937
 30
0.0
 10
0.4315944881889764
 20
2.479720472440945
 30
0.0
 10
0.4315944881889764
 20
2.479720472440945
 30
0.0
 10
0.4315944881889764
 20
2.479720472440945
 30
0.0
 10
0.4315944881889764
 20
2.479720472440945
 30
0.0
 10
0.4342716535433071
 20
2.470838582677165
 30
0.0
 10
0.4342716535433071
 20
2.470838582677165
 30
0.0
 10
0.4342716535433071
 20
2.470838582677165
 30
0.0
 10
0.4342716535433071
 20
2.470838582677165
 30
0.0
 10
0.4373543307086614
 20
2.462102362204725
 30
0.0
 10
0.4373543307086614
 20
2.462102362204725
 30
0.0
 10
0.4373543307086614
 20
2.462102362204725
 30
0.0
 10
0.4373543307086614
 20
2.462102362204725
 30
0.0
 10
0.4408267716535433
 20
2.453531496062992
 30
0.0
 10
0.4408267716535433
 20
2.453531496062992
 30
0.0
 10
0.4408267716535433
 20
2.453531496062992
 30
0.0
 10
0.4408267716535433
 20
2.453531496062992
 30
0.0
 10
0.4447125984251969
 20
2.445129921259843
 30
0.0
 10
0.4447125984251969
 20
2.445129921259843
 30
0.0
 10
0.4447125984251969
 20
2.445129921259843
 30
0.0
 10
0.4447125984251969
 20
2.445129921259843
 30
0.0
 10
0.4443307086614173
 20
1.691232283464567
 30
0.0
 10
0.4443307086614173
 20
1.691232283464567
 30
0.0
 10
0.4443307086614173
 20
1.691232283464567
 30
0.0
 10
0.4443307086614173
 20
1.691232283464567
 30
0.0
 10
0.4404448818897638
 20
1.699633858267717
 30
0.0
 10
0.4404448818897638
 20
1.699633858267717
 30
0.0
 10
0.4404448818897638
 20
1.699633858267717
 30
0.0
 10
0.4404448818897638
 20
1.699633858267717
 30
0.0
 10
0.4369724409448819
 20
1.708204724409449
 30
0.0
 10
0.4369724409448819
 20
1.708204724409449
 30
0.0
 10
0.4369724409448819
 20
1.708204724409449
 30
0.0
 10
0.4369724409448819
 20
1.708204724409449
 30
0.0
 10
0.4338897637795276
 20
1.71694094488189
 30
0.0
 10
0.4338897637795276
 20
1.71694094488189
 30
0.0
 10
0.4338897637795276
 20
1.71694094488189
 30
0.0
 10
0.4338897637795276
 20
1.71694094488189
 30
0.0
 10
0.4312125984251969
 20
1.725822834645669
 30
0.0
 10
0.4312125984251969
 20
1.725822834645669
 30
0.0
 10
0.4312125984251969
 20
1.725822834645669
 30
0.0
 10
0.4312125984251969
 20
1.725822834645669
 30
0.0
 10
0.4289291338582678
 20
1.734854330708662
 30
0.0
 10
0.4289291338582678
 20
1.734854330708662
 30
0.0
  0
SPLINE
  5
2F
330
1F
100
AcDbEntity
  8
LAYER_1
 62
   252
100
AcDbSpline
210
0.0
220
0.0
230
1.0
 70
    11
 71
     3
 72
    52
 73
    48
 74
     0
 42
0.0000000001
 43
0.0000000001
 40
0.0
 40
0.0
 40
0.0
 40
0.0
 40
0.0833333333333333
 40
0.0833333333333333
 40
0.0833333333333333
 40
0.0833333333333333
 40
0.1666666666666667
 40
0.1666666666666667
 40
0.1666666666666667
 40
0.1666666666666667
 40
0.25
 40
0.25
 40
0.25
 40
0.25
 40
0.3333333333333333
 40
0.3333333333333333
 40
0.3333333333333333
 40
0.3333333333333333
 40
0.4166666666666666
 40
0.4166666666666666
 40
0.4166666666666666
 40
0.4166666666666666
 40
0.4999999999999999
 40
0.4999999999999999
 40
0.4999999999999999
 40
0.4999999999999999
 40
0.5833333333333333
 40
0.5833333333333333
 40
0.5833333333333333
 40
0.5833333333333333
 40
0.6666666666666666
 40
0.6666666666666666
 40
0.6666666666666666
 40
0.6666666666666666
 40
0.75
 40
0.75
 40
0.75
 40
0.75
 40
0.8333333333333334
 40
0.8333333333333334
 40
0.8333333333333334
 40
0.8333333333333334
 40
0.9166666666666667
 40
0.9166666666666667
 40
0.9166666666666667
 40
0.9166666666666667
 40
1.0
 40
1.0
 40
1.0
 40
1.0
 10
0.4443307086614173
 20
1.691232283464567
 30
0.0
 10
0.4443307086614173
 20
1.691232283464567
 30
0.0
 10
0.4447125984251969
 20
2.445129921259843
 30
0.0
 10
0.4447125984251969
 20
2.445129921259843
 30
0.0
 10
0.4447125984251969
 20
2.445129921259843
 30
0.0
 10
0.4447125984251969
 20
2.445129921259843
 30
0.0
 10
0.448988188976378
 20
2.43692125984252
 30
0.0
 10
0.448988188976378
 20
2.43692125984252
 30
0.0
 10
0.448988188976378
 20
2.43692125984252
 30
0.0
 10
0.448988188976378
 20
2.43692125984252
 30
0.0
 10
0.4536771653543307
 20
2.428905511811024
 30
0.0
 10
0.4536771653543307
 20
2.428905511811024
 30
0.0
 10
0.4536771653543307
 20
2.428905511811024
 30
0.0
 10
0.4536771653543307
 20
2.428905511811024
 30
0.0
 10
0.4587598425196851
 20
2.421102362204724
 30
0.0
 10
0.4587598425196851
 20
2.421102362204724
 30
0.0
 10
0.4587598425196851
 20
2.421102362204724
 30
0.0
 10
0.4587598425196851
 20
2.421102362204724
 30
0.0
 10
0.4642637795275591
 20
2.413511811023622
 30
0.0
 10
0.4642637795275591
 20
2.413511811023622
 30
0.0
 10
0.4642637795275591
 20
2.413511811023622
 30
0.0
 10
0.4642637795275591
 20
2.413511811023622
 30
0.0
 10
0.4701614173228347
 20
2.406153543307087
 30
0.0
 10
0.4701614173228347
 20
2.406153543307087
 30
0.0
 10
0.4701614173228347
 20
2.406153543307087
 30
0.0
 10
0.4701614173228347
 20
2.406153543307087
 30
0.0
 10
0.4697795275590551
 20
1.652255905511811
 30
0.0
 10
0.4697795275590551
 20
1.652255905511811
 30
0.0
 10
0.4697795275590551
 20
1.652255905511811
 30
0.0
 10
0.4697795275590551
 20
1.652255905511811
 30
0.0
 10
0.4638818897637795
 20
1.659614173228347
 30
0.0
 10
0.4638818897637795
 20
1.659614173228347
 30
0.0
 10
0.4638818897637795
 20
1.659614173228347
 30
0.0
 10
0.4638818897637795
 20
1.659614173228347
 30
0.0
 10
0.4583779527559055
 20
1.667204724409449
 30
0.0
 10
0.4583779527559055
 20
1.667204724409449
 30
0.0
 10
0.4583779527559055
 20
1.667204724409449
 30
0.0
 10
0.4583779527559055
 20
1.667204724409449
 30
0.0
 10
0.4532952755905512
 20
1.675007874015748
 30
0.0
 10
0.4532952755905512
 20
1.675007874015748
 30
0.0
 10
0.4532952755905512
 20
1.675007874015748
 30
0.0
 10
0.4532952755905512
 20
1.675007874015748
 30
0.0
 10
0.4486062992125984
 20
1.683023622047244
 30
0.0
 10
0.4486062992125984
 20
1.683023622047244
 30
0.0
 10
0.4486062992125984
 20
1.683023622047244
 30
0.0
 10
0.4486062992125984
 20
1.683023622047244
 30
0.0
 10
0.4443307086614173
 20
1.691232283464567
 30
0.0
 10
0.4443307086614173
 20
1.691232283464567
 30
0.0
  0
SPLINE
  5
30
330
1F
100
AcDbEntity
  8
LAYER_1
 62
   252
100
AcDbSpline
210
0.0
220
0.0
230
1.0
 70
    11
 71
     3
 72
    52
 73
    48
 74
     0
 42
0.0000000001
 43
0.0000000001
 40
0.0
 40
0.0
 40
0.0
 40
0.0
 40
0.0833333333333333
 40
0.0833333333333333
 40
0.0833333333333333
 40
0.0833333333333333
 40
0.1666666666666667
 40
0.1666666666666667
 40
0.1666666666666667
 40
0.1666666666666667
 40
0.25
 40
0.25
 40
0.25
 40
0.25
 40
0.3333333333333333
 40
0.3333333333333333
 40
0.3333333333333333
 40
0.3333333333333333
 40
0.4166666666666666
 40
0.4166666666666666
 40
0.4166666666666666
 40
0.4166666666666666
 40
0.4999999999999999
 40
0.4999999999999999
 40
0.4999999999999999
 40
0.4999999999999999
 40
0.5833333333333333
 40
0.5833333333333333
 40
0.5833333333333333
 40
0.5833333333333333
 40
0.6666666666666666
 40
0.6666666666666666
 40
0.6666666666666666
 40
0.6666666666666666
 40
0.75
 40
0.75
 40
0.75
 40
0.75
 40
0.8333333333333334
 40
0.8333333333333334
 40
0.8333333333333334
 40
0.8333333333333334
 40
0.9166666666666667
 40
0.9166666666666667
 40
0.9166666666666667
 40
0.9166666666666667
 40
1.0
 40
1.0
 40
1.0
 40
1.0
 10
0.4697795275590551
 20
1.652255905511811
 30
0.0
 10
0.4697795275590551
 20
1.652255905511811
 30
0.0
 10
0.4701614173228347
 20
2.406153543307087
 30
0.0
 10
0.4701614173228347
 20
2.406153543307087
 30
0.0
 10
0.4701614173228347
 20
2.406153543307087
 30
0.0
 10
0.4701614173228347
 20
2.406153543307087
 30
0.0
 10
0.4764763779527559
 20
2.399035433070866
 30
0.0
 10
0.4764763779527559
 20
2.399035433070866
 30
0.0
 10
0.4764763779527559
 20
2.399035433070866
 30
0.0
 10
0.4764763779527559
 20
2.399035433070866
 30
0.0
 10
0.4831889763779528
 20
2.392173228346457
 30
0.0
 10
0.4831889763779528
 20
2.392173228346457
 30
0.0
 10
0.4831889763779528
 20
2.392173228346457
 30
0.0
 10
0.4831889763779528
 20
2.392173228346457
 30
0.0
 10
0.4903188976377953
 20
2.385570866141733
 30
0.0
 10
0.4903188976377953
 20
2.385570866141733
 30
0.0
 10
0.4903188976377953
 20
2.385570866141733
 30
0.0
 10
0.4903188976377953
 20
2.385570866141733
 30
0.0
 10
0.4978543307086614
 20
2.379251968503937
 30
0.0
 10
0.4978543307086614
 20
2.379251968503937
 30
0.0
 10
0.4978543307086614
 20
2.379251968503937
 30
0.0
 10
0.4978543307086614
 20
2.379251968503937
 30
0.0
 10
0.5058031496062992
 20
2.373216535433071
 30
0.0
 10
0.5058031496062992
 20
2.373216535433071
 30
0.0
 10
0.5058031496062992
 20
2.373216535433071
 30
0.0
 10
0.5058031496062992
 20
2.373216535433071
 30
0.0
 10
0.5054212598425197
 20
1.619318897637795
 30
0.0
 10
0.5054212598425197
 20
1.619318897637795
 30
0.0
 10
0.5054212598425197
 20
1.619318897637795
 30
0.0
 10
0.5054212598425197
 20
1.619318897637795
 30
0.0
 10
0.4974724409448819
 20
1.625354330708662
 30
0.0
 10
0.4974724409448819
 20
1.625354330708662
 30
0.0
 10
0.4974724409448819
 20
1.625354330708662
 30
0.0
 10
0.4974724409448819
 20
1.625354330708662
 30
0.0
 10
0.4899370078740158
 20
1.631673228346457
 30
0.0
 10
0.4899370078740158
 20
1.631673228346457
 30
0.0
 10
0.4899370078740158
 20
1.631673228346457
 30
0.0
 10
0.4899370078740158
 20
1.631673228346457
 30
0.0
 10
0.4828070866141733
 20
1.638275590551181
 30
0.0
 10
0.4828070866141733
 20
1.638275590551181
 30
0.0
 10
0.4828070866141733
 20
1.638275590551181
 30
0.0
 10
0.4828070866141733
 20
1.638275590551181
 30
0.0
 10
0.4760944881889764
 20
1.645137795275591
 30
0.0
 10
0.4760944881889764
 20
1.645137795275591
 30
0.0
 10
0.4760944881889764
 20
1.645137795275591
 30
0.0
 10
0.4760944881889764
 20
1.645137795275591
 30
0.0
 10
0.4697795275590551
 20
1.652255905511811
 30
0.0
 10
0.4697795275590551
 20
1.652255905511811
 30
0.0
  0
SPLINE
  5
31
330
1F
100
AcDbEntity
  8
LAYER_1
 62
   252
100
AcDbSpline
210
0.0
220
0.0
230
1.0
 70
    11
 71
     3
 72
    44
 73
    40
 74
     0
 42
0.0000000001
 43
0.0000000001
 40
0.0
 40
0.0
 40
0.0
 40
0.0
 40
0.1
 40
0.1
 40
0.1
 40
0.1
 40
0.2
 40
0.2
 40
0.2
 40
0.2
 40
0.3
 40
0.3
 40
0.3
 40
0.3
 40
0.4
 40
0.4
 40
0.4
 40
0.4
 40
0.5
 40
0.5
 40
0.5
 40
0.5
 40
0.6
 40
0.6
 40
0.6
 40
0.6
 40
0.7
 40
0.7
 40
0.7
 40
0.7
 40
0.7999999999999999
 40
0.7999999999999999
 40
0.7999999999999999
 40
0.7999999999999999
 40
0.8999999999999999
 40
0.8999999999999999
 40
0.8999999999999999
 40
0.8999999999999999
 40
1.0
 40
1.0
 40
1.0
 40
1.0
 10
0.5054212598425197
 20
1.619318897637795
 30
0.0
 10
0.5054212598425197
 20
1.619318897637795
 30
0.0
 10
0.5058031496062992
 20
2.373216535433071
 30
0.0
 10
0.5058031496062992
 20
2.373216535433071
 30
0.0
 10
0.5058031496062992
 20
2.373216535433071
 30
0.0
 10
0.5058031496062992
 20
2.373216535433071
 30
0.0
 10
0.5141614173228347
 20
2.367488188976378
 30
0.0
 10
0.5141614173228347
 20
2.367488188976378
 30
0.0
 10
0.5141614173228347
 20
2.367488188976378
 30
0.0
 10
0.5141614173228347
 20
2.367488188976378
 30
0.0
 10
0.5229409448818898
 20
2.36205905511811
 30
0.0
 10
0.5229409448818898
 20
2.36205905511811
 30
0.0
 10
0.5229409448818898
 20
2.36205905511811
 30
0.0
 10
0.5229409448818898
 20
2.36205905511811
 30
0.0
 10
0.5321299212598425
 20
2.35696062992126
 30
0.0
 10
0.5321299212598425
 20
2.35696062992126
 30
0.0
 10
0.5321299212598425
 20
2.35696062992126
 30
0.0
 10
0.5321299212598425
 20
2.35696062992126
 30
0.0
 10
0.541736220472441
 20
2.352188976377953
 30
0.0
 10
0.541736220472441
 20
2.352188976377953
 30
0.0
 10
0.541736220472441
 20
2.352188976377953
 30
0.0
 10
0.541736220472441
 20
2.352188976377953
 30
0.0
 10
0.5413543307086615
 20
1.598291338582677
 30
0.0
 10
0.5413543307086615
 20
1.598291338582677
 30
0.0
 10
0.5413543307086615
 20
1.598291338582677
 30
0.0
 10
0.5413543307086615
 20
1.598291338582677
 30
0.0
 10
0.531748031496063
 20
1.603062992125984
 30
0.0
 10
0.531748031496063
 20
1.603062992125984
 30
0.0
 10
0.531748031496063
 20
1.603062992125984
 30
0.0
 10
0.531748031496063
 20
1.603062992125984
 30
0.0
 10
0.5225590551181103
 20
1.608161417322835
 30
0.0
 10
0.5225590551181103
 20
1.608161417322835
 30
0.0
 10
0.5225590551181103
 20
1.608161417322835
 30
0.0
 10
0.5225590551181103
 20
1.608161417322835
 30
0.0
 10
0.5137795275590551
 20
1.613590551181102
 30
0.0
 10
0.5137795275590551
 20
1.613590551181102
 30
0.0
 10
0.5137795275590551
 20
1.613590551181102
 30
0.0
 10
0.5137795275590551
 20
1.613590551181102
 30
0.0
 10
0.5054212598425197
 20
1.619318897637795
 30
0.0
 10
0.5054212598425197
 20
1.619318897637795
 30
0.0
  0
SPLINE
  5
32
330
1F
100
AcDbEntity
  8
LAYER_1
 62
   252
100
AcDbSpline
210
0.0
220
0.0
230
1.0
 70
    11
 71
     3
 72
    44
 73
    40
 74
     0
 42
0.0000000001
 43
0.0000000001
 40
0.0
 40
0.0
 40
0.0
 40
0.0
 40
0.1
 40
0.1
 40
0.1
 40
0.1
 40
0.2
 40
0.2
 40
0.2
 40
0.2
 40
0.3
 40
0.3
 40
0.3
 40
0.3
 40
0.4
 40
0.4
 40
0.4
 40
0.4
 40
0.5
 40
0.5
 40
0.5
 40
0.5
 40
0.6
 40
0.6
 40
0.6
 40
0.6
 40
0.7
 40
0.7
 40
0.7
 40
0.7
 40
0.7999999999999999
 40
0.7999999999999999
 40
0.7999999999999999
 40
0.7999999999999999
 40
0.8999999999999999
 40
0.8999999999999999
 40
0.8999999999999999
 40
0.8999999999999999
 40
1.0
 40
1.0
 40
1.0
 40
1.0
 10
0.5413543307086615
 20
1.598291338582677
 30
0.0
 10
0.5413543307086615
 20
1.598291338582677
 30
0.0
 10
0.541736220472441
 20
2.352188976377953
 30
0.0
 10
0.541736220472441
 20
2.352188976377953
 30
0.0
 10
0.541736220472441
 20
2.352188976377953
 30
0.0
 10
0.541736220472441
 20
2.352188976377953
 30
0.0
 10
0.5517559055118111
 20
2.347767716535433
 30
0.0
 10
0.5517559055118111
 20
2.347767716535433
 30
0.0
 10
0.5517559055118111
 20
2.347767716535433
 30
0.0
 10
0.5517559055118111
 20
2.347767716535433
 30
0.0
 10
0.5621968503937008
 20
2.343692913385827
 30
0.0
 10
0.5621968503937008
 20
2.343692913385827
 30
0.0
 10
0.5621968503937008
 20
2.343692913385827
 30
0.0
 10
0.5621968503937008
 20
2.343692913385827
 30
0.0
 10
0.5730511811023622
 20
2.339996062992126
 30
0.0
 10
0.5730511811023622
 20
2.339996062992126
 30
0.0
 10
0.5730511811023622
 20
2.339996062992126
 30
0.0
 10
0.5730511811023622
 20
2.339996062992126
 30
0.0
 10
0.5843307086614173
 20
2.336673228346457
 30
0.0
 10
0.5843307086614173
 20
2.336673228346457
 30
0.0
 10
0.5843307086614173
 20
2.336673228346457
 30
0.0
 10
0.5843307086614173
 20
2.336673228346457
 30
0.0
 10
0.5839488188976378
 20
1.582775590551181
 30
0.0
 10
0.5839488188976378
 20
1.582775590551181
 30
0.0
 10
0.5839488188976378
 20
1.582775590551181
 30
0.0
 10
0.5839488188976378
 20
1.582775590551181
 30
0.0
 10
0.5726692913385827
 20
1.58609842519685
 30
0.0
 10
0.5726692913385827
 20
1.58609842519685
 30
0.0
 10
0.5726692913385827
 20
1.58609842519685
 30
0.0
 10
0.5726692913385827
 20
1.58609842519685
 30
0.0
 10
0.5618149606299213
 20
1.589795275590551
 30
0.0
 10
0.5618149606299213
 20
1.589795275590551
 30
0.0
 10
0.5618149606299213
 20
1.589795275590551
 30
0.0
 10
0.5618149606299213
 20
1.589795275590551
 30
0.0
 10
0.5513740157480315
 20
1.593870078740158
 30
0.0
 10
0.5513740157480315
 20
1.593870078740158
 30
0.0
 10
0.5513740157480315
 20
1.593870078740158
 30
0.0
 10
0.5513740157480315
 20
1.593870078740158
 30
0.0
 10
0.5413543307086615
 20
1.598291338582677
 30
0.0
 10
0.5413543307086615
 20
1.598291338582677
 30
0.0
  0
SPLINE
  5
33
330
1F
100
AcDbEntity
  8
LAYER_1
 62
   252
100
AcDbSpline
210
0.0
220
0.0
230
1.0
 70
    11
 71
     3
 72
    28
 73
    24
 74
     0
 42
0.0000000001
 43
0.0000000001
 40
0.0
 40
0.0
 40
0.0
 40
0.0
 40
0.1666666666666667
 40
0.1666666666666667
 40
0.1666666666666667
 40
0.1666666666666667
 40
0.3333333333333333
 40
0.3333333333333333
 40
0.3333333333333333
 40
0.3333333333333333
 40
0.5
 40
0.5
 40
0.5
 40
0.5
 40
0.6666666666666666
 40
0.6666666666666666
 40
0.6666666666666666
 40
0.6666666666666666
 40
0.8333333333333333
 40
0.8333333333333333
 40
0.8333333333333333
 40
0.8333333333333333
 40
1.0
 40
1.0
 40
1.0
 40
1.0
 10
0.5839488188976378
 20
1.582775590551181
 30
0.0
 10
0.5839488188976378
 20
1.582775590551181
 30
0.0
 10
0.5843307086614173
 20
2.336673228346457
 30
0.0
 10
0.5843307086614173
 20
2.336673228346457
 30
0.0
 10
0.5843307086614173
 20
2.336673228346457
 30
0.0
 10
0.5843307086614173
 20
2.336673228346457
 30
0.0
 10
0.5960236220472441
 20
2.333744094488189
 30
0.0
 10
0.5960236220472441
 20
2.333744094488189
 30
0.0
 10
0.5960236220472441
 20
2.333744094488189
 30
0.0
 10
0.5960236220472441
 20
2.333744094488189
 30
0.0
 10
0.6192755905511811
 20
2.327681102362205
 30
0.0
 10
0.6192755905511811
 20
2.327681102362205
 30
0.0
 10
0.6192755905511811
 20
2.327681102362205
 30
0.0
 10
0.6192755905511811
 20
2.327681102362205
 30
0.0
 10
0.6188937007874016
 20
1.573783464566929
 30
0.0
 10
0.6188937007874016
 20
1.573783464566929
 30
0.0
 10
0.6188937007874016
 20
1.573783464566929
 30
0.0
 10
0.6188937007874016
 20
1.573783464566929
 30
0.0
 10
0.5956417322834646
 20
1.579846456692913
 30
0.0
 10
0.5956417322834646
 20
1.579846456692913
 30
0.0
 10
0.5956417322834646
 20
1.579846456692913
 30
0.0
 10
0.5956417322834646
 20
1.579846456692913
 30
0.0
 10
0.5839488188976378
 20
1.582775590551181
 30
0.0
 10
0.5839488188976378
 20
1.582775590551181
 30
0.0
  0
SPLINE
  5
34
330
1F
100
AcDbEntity
  8
LAYER_1
 62
   252
100
AcDbSpline
210
0.0
220
0.0
230
1.0
 70
    11
 71
     3
 72
    28
 73
    24
 74
     0
 42
0.0000000001
 43
0.0000000001
 40
0.0
 40
0.0
 40
0.0
 40
0.0
 40
0.1666666666666667
 40
0.1666666666666667
 40
0.1666666666666667
 40
0.1666666666666667
 40
0.3333333333333333
 40
0.3333333333333333
 40
0.3333333333333333
 40
0.3333333333333333
 40
0.5
 40
0.5
 40
0.5
 40
0.5
 40
0.6666666666666666
 40
0.6666666666666666
 40
0.6666666666666666
 40
0.6666666666666666
 40
0.8333333333333333
 40
0.8333333333333333
 40
0.8333333333333333
 40
0.8333333333333333
 40
1.0
 40
1.0
 40
1.0
 40
1.0
 10
0.6188937007874016
 20
1.573783464566929
 30
0.0
 10
0.6188937007874016
 20
1.573783464566929
 30
0.0
 10
0.6192755905511811
 20
2.327681102362205
 30
0.0
 10
0.6192755905511811
 20
2.327681102362205
 30
0.0
 10
0.6192755905511811
 20
2.327681102362205
 30
0.0
 10
0.6192755905511811
 20
2.327681102362205
 30
0.0
 10
0.6408307086614173
 20
2.320629921259843
 30
0.0
 10
0.6408307086614173
 20
2.320629921259843
 30
0.0
 10
0.6408307086614173
 20
2.320629921259843
 30
0.0
 10
0.6408307086614173
 20
2.320629921259843
 30
0.0
 10
0.6607440944881891
 20
2.312657480314961
 30
0.0
 10
0.6607440944881891
 20
2.312657480314961
 30
0.0
 10
0.6607440944881891
 20
2.312657480314961
 30
0.0
 10
0.6607440944881891
 20
2.312657480314961
 30
0.0
 10
0.6603622047244094
 20
1.558759842519685
 30
0.0
 10
0.6603622047244094
 20
1.558759842519685
 30
0.0
 10
0.6603622047244094
 20
1.558759842519685
 30
0.0
 10
0.6603622047244094
 20
1.558759842519685
 30
0.0
 10
0.6404488188976378
 20
1.566732283464567
 30
0.0
 10
0.6404488188976378
 20
1.566732283464567
 30
0.0
 10
0.6404488188976378
 20
1.566732283464567
 30
0.0
 10
0.6404488188976378
 20
1.566732283464567
 30
0.0
 10
0.6188937007874016
 20
1.573783464566929
 30
0.0
 10
0.6188937007874016
 20
1.573783464566929
 30
0.0
  0
SPLINE
  5
35
330
1F
100
AcDbEntity
  8
LAYER_1
 62
   252
100
AcDbSpline
210
0.0
220
0.0
230
1.0
 70
    11
 71
     3
 72
    28
 73
    24
 74
     0
 42
0.0000000001
 43
0.0000000001
 40
0.0
 40
0.0
 40
0.0
 40
0.0
 40
0.1666666666666667
 40
0.1666666666666667
 40
0.1666666666666667
 40
0.1666666666666667
 40
0.3333333333333333
 40
0.3333333333333333
 40
0.3333333333333333
 40
0.3333333333333333
 40
0.5
 40
0.5
 40
0.5
 40
0.5
 40
0.6666666666666666
 40
0.6666666666666666
 40
0.6666666666666666
 40
0.6666666666666666
 40
0.8333333333333333
 40
0.8333333333333333
 40
0.8333333333333333
 40
0.8333333333333333
 40
1.0
 40
1.0
 40
1.0
 40
1.0
 10
0.6603622047244094
 20
1.558759842519685
 30
0.0
 10
0.6603622047244094
 20
1.558759842519685
 30
0.0
 10
0.6607440944881891
 20
2.312657480314961
 30
0.0
 10
0.6607440944881891
 20
2.312657480314961
 30
0.0
 10
0.6607440944881891
 20
2.312657480314961
 30
0.0
 10
0.6607440944881891
 20
2.312657480314961
 30
0.0
 10
0.6790511811023622
 20
2.303854330708662
 30
0.0
 10
0.6790511811023622
 20
2.303854330708662
 30
0.0
 10
0.6790511811023622
 20
2.303854330708662
 30
0.0
 10
0.6790511811023622
 20
2.303854330708662
 30
0.0
 10
0.6958110236220473
 20
2.294283464566929
 30
0.0
 10
0.6958110236220473
 20
2.294283464566929
 30
0.0
 10
0.6958110236220473
 20
2.294283464566929
 30
0.0
 10
0.6958110236220473
 20
2.294283464566929
 30
0.0
 10
0.6954291338582678
 20
1.540385826771654
 30
0.0
 10
0.6954291338582678
 20
1.540385826771654
 30
0.0
 10
0.6954291338582678
 20
1.540385826771654
 30
0.0
 10
0.6954291338582678
 20
1.540385826771654
 30
0.0
 10
0.6786692913385827
 20
1.549956692913386
 30
0.0
 10
0.6786692913385827
 20
1.549956692913386
 30
0.0
 10
0.6786692913385827
 20
1.549956692913386
 30
0.0
 10
0.6786692913385827
 20
1.549956692913386
 30
0.0
 10
0.6603622047244094
 20
1.558759842519685
 30
0.0
 10
0.6603622047244094
 20
1.558759842519685
 30
0.0
  0
SPLINE
  5
36
330
1F
100
AcDbEntity
  8
LAYER_1
 62
   252
100
AcDbSpline
210
0.0
220
0.0
230
1.0
 70
    11
 71
     3
 72
    28
 73
    24
 74
     0
 42
0.0000000001
 43
0.0000000001
 40
0.0
 40
0.0
 40
0.0
 40
0.0
 40
0.1666666666666667
 40
0.1666666666666667
 40
0.1666666666666667
 40
0.1666666666666667
 40
0.3333333333333333
 40
0.3333333333333333
 40
0.3333333333333333
 40
0.3333333333333333
 40
0.5
 40
0.5
 40
0.5
 40
0.5
 40
0.6666666666666666
 40
0.6666666666666666
 40
0.6666666666666666
 40
0.6666666666666666
 40
0.8333333333333333
 40
0.8333333333333333
 40
0.8333333333333333
 40
0.8333333333333333
 40
1.0
 40
1.0
 40
1.0
 40
1.0
 10
0.6954291338582678
 20
1.540385826771654
 30
0.0
 10
0.6954291338582678
 20
1.540385826771654
 30
0.0
 10
0.6958110236220473
 20
2.294283464566929
 30
0.0
 10
0.6958110236220473
 20
2.294283464566929
 30
0.0
 10
0.6958110236220473
 20
2.294283464566929
 30
0.0
 10
0.6958110236220473
 20
2.294283464566929
 30
0.0
 10
0.7110551181102363
 20
2.284035433070866
 30
0.0
 10
0.7110551181102363
 20
2.284035433070866
 30
0.0
 10
0.7110551181102363
 20
2.284035433070866
 30
0.0
 10
0.7110551181102363
 20
2.284035433070866
 30
0.0
 10
0.7248425196850394
 20
2.273177165354331
 30
0.0
 10
0.7248425196850394
 20
2.273177165354331
 30
0.0
 10
0.7248425196850394
 20
2.273177165354331
 30
0.0
 10
0.7248425196850394
 20
2.273177165354331
 30
0.0
 10
0.7244606299212599
 20
1.519279527559055
 30
0.0
 10
0.7244606299212599
 20
1.519279527559055
 30
0.0
 10
0.7244606299212599
 20
1.519279527559055
 30
0.0
 10
0.7244606299212599
 20
1.519279527559055
 30
0.0
 10
0.7106732283464567
 20
1.530137795275591
 30
0.0
 10
0.7106732283464567
 20
1.530137795275591
 30
0.0
 10
0.7106732283464567
 20
1.530137795275591
 30
0.0
 10
0.7106732283464567
 20
1.530137795275591
 30
0.0
 10
0.6954291338582678
 20
1.540385826771654
 30
0.0
 10
0.6954291338582678
 20
1.540385826771654
 30
0.0
  0
SPLINE
  5
37
330
1F
100
AcDbEntity
  8
LAYER_1
 62
   252
100
AcDbSpline
210
0.0
220
0.0
230
1.0
 70
    11
 71
     3
 72
    36
 73
    32
 74
     0
 42
0.0000000001
 43
0.0000000001
 40
0.0
 40
0.0
 40
0.0
 40
0.0
 40
0.125
 40
0.125
 40
0.125
 40
0.125
 40
0.25
 40
0.25
 40
0.25
 40
0.25
 40
0.375
 40
0.375
 40
0.375
 40
0.375
 40
0.5
 40
0.5
 40
0.5
 40
0.5
 40
0.625
 40
0.625
 40
0.625
 40
0.625
 40
0.75
 40
0.75
 40
0.75
 40
0.75
 40
0.875
 40
0.875
 40
0.875
 40
0.875
 40
1.0
 40
1.0
 40
1.0
 40
1.0
 10
0.7244606299212599
 20
1.519279527559055
 30
0.0
 10
0.7244606299212599
 20
1.519279527559055
 30
0.0
 10
0.7248425196850394
 20
2.273177165354331
 30
0.0
 10
0.7248425196850394
 20
2.273177165354331
 30
0.0
 10
0.7248425196850394
 20
2.273177165354331
 30
0.0
 10
0.7248425196850394
 20
2.273177165354331
 30
0.0
 10
0.7372047244094488
 20
2.261799212598425
 30
0.0
 10
0.7372047244094488
 20
2.261799212598425
 30
0.0
 10
0.7372047244094488
 20
2.261799212598425
 30
0.0
 10
0.7372047244094488
 20
2.261799212598425
 30
0.0
 10
0.7482086614173229
 20
2.24996062992126
 30
0.0
 10
0.7482086614173229
 20
2.24996062992126
 30
0.0
 10
0.7482086614173229
 20
2.24996062992126
 30
0.0
 10
0.7482086614173229
 20
2.24996062992126
 30
0.0
 10
0.7578779527559055
 20
2.237751968503937
 30
0.0
 10
0.7578779527559055
 20
2.237751968503937
 30
0.0
 10
0.7578779527559055
 20
2.237751968503937
 30
0.0
 10
0.7578779527559055
 20
2.237751968503937
 30
0.0
 10
0.757496062992126
 20
1.483854330708662
 30
0.0
 10
0.757496062992126
 20
1.483854330708662
 30
0.0
 10
0.757496062992126
 20
1.483854330708662
 30
0.0
 10
0.757496062992126
 20
1.483854330708662
 30
0.0
 10
0.7478267716535434
 20
1.496062992125984
 30
0.0
 10
0.7478267716535434
 20
1.496062992125984
 30
0.0
 10
0.7478267716535434
 20
1.496062992125984
 30
0.0
 10
0.7478267716535434
 20
1.496062992125984
 30
0.0
 10
0.7368228346456693
 20
1.50790157480315
 30
0.0
 10
0.7368228346456693
 20
1.50790157480315
 30
0.0
 10
0.7368228346456693
 20
1.50790157480315
 30
0.0
 10
0.7368228346456693
 20
1.50790157480315
 30
0.0
 10
0.7244606299212599
 20
1.519279527559055
 30
0.0
 10
0.7244606299212599
 20
1.519279527559055
 30
0.0
  0
SPLINE
  5
38
330
1F
100
AcDbEntity
  8
LAYER_1
 62
   252
100
AcDbSpline
210
0.0
220
0.0
230
1.0
 70
    11
 71
     3
 72
    36
 73
    32
 74
     0
 42
0.0000000001
 43
0.0000000001
 40
0.0
 40
0.0
 40
0.0
 40
0.0
 40
0.125
 40
0.125
 40
0.125
 40
0.125
 40
0.25
 40
0.25
 40
0.25
 40
0.25
 40
0.375
 40
0.375
 40
0.375
 40
0.375
 40
0.5
 40
0.5
 40
0.5
 40
0.5
 40
0.625
 40
0.625
 40
0.625
 40
0.625
 40
0.75
 40
0.75
 40
0.75
 40
0.75
 40
0.875
 40
0.875
 40
0.875
 40
0.875
 40
1.0
 40
1.0
 40
1.0
 40
1.0
 10
0.757496062992126
 20
1.483854330708662
 30
0.0
 10
0.757496062992126
 20
1.483854330708662
 30
0.0
 10
0.7578779527559055
 20
2.237751968503937
 30
0.0
 10
0.7578779527559055
 20
2.237751968503937
 30
0.0
 10
0.7578779527559055
 20
2.237751968503937
 30
0.0
 10
0.7578779527559055
 20
2.237751968503937
 30
0.0
 10
0.7662716535433071
 20
2.225244094488189
 30
0.0
 10
0.7662716535433071
 20
2.225244094488189
 30
0.0
 10
0.7662716535433071
 20
2.225244094488189
 30
0.0
 10
0.7662716535433071
 20
2.225244094488189
 30
0.0
 10
0.7734251968503937
 20
2.212523622047244
 30
0.0
 10
0.7734251968503937
 20
2.212523622047244
 30
0.0
 10
0.7734251968503937
 20
2.212523622047244
 30
0.0
 10
0.7734251968503937
 20
2.212523622047244
 30
0.0
 10
0.7793976377952756
 20
2.199653543307087
 30
0.0
 10
0.7793976377952756
 20
2.199653543307087
 30
0.0
 10
0.7793976377952756
 20
2.199653543307087
 30
0.0
 10
0.7793976377952756
 20
2.199653543307087
 30
0.0
 10
0.7790157480314961
 20
1.445755905511811
 30
0.0
 10
0.7790157480314961
 20
1.445755905511811
 30
0.0
 10
0.7790157480314961
 20
1.445755905511811
 30
0.0
 10
0.7790157480314961
 20
1.445755905511811
 30
0.0
 10
0.7730433070866142
 20
1.458625984251969
 30
0.0
 10
0.7730433070866142
 20
1.458625984251969
 30
0.0
 10
0.7730433070866142
 20
1.458625984251969
 30
0.0
 10
0.7730433070866142
 20
1.458625984251969
 30
0.0
 10
0.7658897637795276
 20
1.471346456692914
 30
0.0
 10
0.7658897637795276
 20
1.471346456692914
 30
0.0
 10
0.7658897637795276
 20
1.471346456692914
 30
0.0
 10
0.7658897637795276
 20
1.471346456692914
 30
0.0
 10
0.757496062992126
 20
1.483854330708662
 30
0.0
 10
0.757496062992126
 20
1.483854330708662
 30
0.0
  0
SPLINE
  5
39
330
1F
100
AcDbEntity
  8
LAYER_1
 62
   252
100
AcDbSpline
210
0.0
220
0.0
230
1.0
 70
    11
 71
     3
 72
    36
 73
    32
 74
     0
 42
0.0000000001
 43
0.0000000001
 40
0.0
 40
0.0
 40
0.0
 40
0.0
 40
0.125
 40
0.125
 40
0.125
 40
0.125
 40
0.25
 40
0.25
 40
0.25
 40
0.25
 40
0.375
 40
0.375
 40
0.375
 40
0.375
 40
0.5
 40
0.5
 40
0.5
 40
0.5
 40
0.625
 40
0.625
 40
0.625
 40
0.625
 40
0.75
 40
0.75
 40
0.75
 40
0.75
 40
0.875
 40
0.875
 40
0.875
 40
0.875
 40
1.0
 40
1.0
 40
1.0
 40
1.0
 10
0.7790157480314961
 20
1.445755905511811
 30
0.0
 10
0.7790157480314961
 20
1.445755905511811
 30
0.0
 10
0.7793976377952756
 20
2.199653543307087
 30
0.0
 10
0.7793976377952756
 20
2.199653543307087
 30
0.0
 10
0.7793976377952756
 20
2.199653543307087
 30
0.0
 10
0.7793976377952756
 20
2.199653543307087
 30
0.0
 10
0.784220472440945
 20
2.186724409448819
 30
0.0
 10
0.784220472440945
 20
2.186724409448819
 30
0.0
 10
0.784220472440945
 20
2.186724409448819
 30
0.0
 10
0.784220472440945
 20
2.186724409448819
 30
0.0
 10
0.7879527559055118
 20
2.173807086614173
 30
0.0
 10
0.7879527559055118
 20
2.173807086614173
 30
0.0
 10
0.7879527559055118
 20
2.173807086614173
 30
0.0
 10
0.7879527559055118
 20
2.173807086614173
 30
0.0
 10
0.7906220472440946
 20
2.160988188976378
 30
0.0
 10
0.7906220472440946
 20
2.160988188976378
 30
0.0
 10
0.7906220472440946
 20
2.160988188976378
 30
0.0
 10
0.7906220472440946
 20
2.160988188976378
 30
0.0
 10
0.790240157480315
 20
1.407090551181103
 30
0.0
 10
0.790240157480315
 20
1.407090551181103
 30
0.0
 10
0.790240157480315
 20
1.407090551181103
 30
0.0
 10
0.790240157480315
 20
1.407090551181103
 30
0.0
 10
0.7875708661417323
 20
1.419909448818898
 30
0.0
 10
0.7875708661417323
 20
1.419909448818898
 30
0.0
 10
0.7875708661417323
 20
1.419909448818898
 30
0.0
 10
0.7875708661417323
 20
1.419909448818898
 30
0.0
 10
0.7838385826771653
 20
1.432826771653543
 30
0.0
 10
0.7838385826771653
 20
1.432826771653543
 30
0.0
 10
0.7838385826771653
 20
1.432826771653543
 30
0.0
 10
0.7838385826771653
 20
1.432826771653543
 30
0.0
 10
0.7790157480314961
 20
1.445755905511811
 30
0.0
 10
0.7790157480314961
 20
1.445755905511811
 30
0.0
  0
SPLINE
  5
3A
330
1F
100
AcDbEntity
  8
LAYER_1
 62
   252
100
AcDbSpline
210
0.0
220
0.0
230
1.0
 70
    11
 71
     3
 72
    28
 73
    24
 74
     0
 42
0.0000000001
 43
0.0000000001
 40
0.0
 40
0.0
 40
0.0
 40
0.0
 40
0.1666666666666667
 40
0.1666666666666667
 40
0.1666666666666667
 40
0.1666666666666667
 40
0.3333333333333333
 40
0.3333333333333333
 40
0.3333333333333333
 40
0.3333333333333333
 40
0.5
 40
0.5
 40
0.5
 40
0.5
 40
0.6666666666666666
 40
0.6666666666666666
 40
0.6666666666666666
 40
0.6666666666666666
 40
0.8333333333333333
 40
0.8333333333333333
 40
0.8333333333333333
 40
0.8333333333333333
 40
1.0
 40
1.0
 40
1.0
 40
1.0
 10
0.790240157480315
 20
1.407090551181103
 30
0.0
 10
0.790240157480315
 20
1.407090551181103
 30
0.0
 10
0.7906220472440946
 20
2.160988188976378
 30
0.0
 10
0.7906220472440946
 20
2.160988188976378
 30
0.0
 10
0.7906220472440946
 20
2.160988188976378
 30
0.0
 10
0.7906220472440946
 20
2.160988188976378
 30
0.0
 10
0.7922992125984252
 20
2.148326771653543
 30
0.0
 10
0.7922992125984252
 20
2.148326771653543
 30
0.0
 10
0.7922992125984252
 20
2.148326771653543
 30
0.0
 10
0.7922992125984252
 20
2.148326771653543
 30
0.0
 10
0.793007874015748
 20
2.135913385826772
 30
0.0
 10
0.793007874015748
 20
2.135913385826772
 30
0.0
 10
0.793007874015748
 20
2.135913385826772
 30
0.0
 10
0.793007874015748
 20
2.135913385826772
 30
0.0
 10
0.7926259842519685
 20
1.382015748031496
 30
0.0
 10
0.7926259842519685
 20
1.382015748031496
 30
0.0
 10
0.7926259842519685
 20
1.382015748031496
 30
0.0
 10
0.7926259842519685
 20
1.382015748031496
 30
0.0
 10
0.7919173228346457
 20
1.394429133858268
 30
0.0
 10
0.7919173228346457
 20
1.394429133858268
 30
0.0
 10
0.7919173228346457
 20
1.394429133858268
 30
0.0
 10
0.7919173228346457
 20
1.394429133858268
 30
0.0
 10
0.790240157480315
 20
1.407090551181103
 30
0.0
 10
0.790240157480315
 20
1.407090551181103
 30
0.0
  0
SPLINE
  5
3B
330
1F
100
AcDbEntity
  8
LAYER_1
 62
   250
100
AcDbSpline
210
0.0
220
0.0
230
1.0
 70
    11
 71
     3
 72
   388
 73
   384
 74
     0
 42
0.0000000001
 43
0.0000000001
 40
0.0
 40
0.0
 40
0.0
 40
0.0
 40
0.0104166666666667
 40
0.0104166666666667
 40
0.0104166666666667
 40
0.0104166666666667
 40
0.0208333333333333
 40
0.0208333333333333
 40
0.0208333333333333
 40
0.0208333333333333
 40
0.03125
 40
0.03125
 40
0.03125
 40
0.03125
 40
0.0416666666666667
 40
0.0416666666666667
 40
0.0416666666666667
 40
0.0416666666666667
 40
0.0520833333333333
 40
0.0520833333333333
 40
0.0520833333333333
 40
0.0520833333333333
 40
0.0625
 40
0.0625
 40
0.0625
 40
0.0625
 40
0.0729166666666667
 40
0.0729166666666667
 40
0.0729166666666667
 40
0.0729166666666667
 40
0.0833333333333333
 40
0.0833333333333333
 40
0.0833333333333333
 40
0.0833333333333333
 40
0.09375
 40
0.09375
 40
0.09375
 40
0.09375
 40
0.1041666666666667
 40
0.1041666666666667
 40
0.1041666666666667
 40
0.1041666666666667
 40
0.1145833333333333
 40
0.1145833333333333
 40
0.1145833333333333
 40
0.1145833333333333
 40
0.125
 40
0.125
 40
0.125
 40
0.125
 40
0.1354166666666667
 40
0.1354166666666667
 40
0.1354166666666667
 40
0.1354166666666667
 40
0.1458333333333333
 40
0.1458333333333333
 40
0.1458333333333333
 40
0.1458333333333333
 40
0.15625
 40
0.15625
 40
0.15625
 40
0.15625
 40
0.1666666666666666
 40
0.1666666666666666
 40
0.1666666666666666
 40
0.1666666666666666
 40
0.1770833333333333
 40
0.1770833333333333
 40
0.1770833333333333
 40
0.1770833333333333
 40
0.1874999999999999
 40
0.1874999999999999
 40
0.1874999999999999
 40
0.1874999999999999
 40
0.1979166666666666
 40
0.1979166666666666
 40
0.1979166666666666
 40
0.1979166666666666
 40
0.2083333333333333
 40
0.2083333333333333
 40
0.2083333333333333
 40
0.2083333333333333
 40
0.2187499999999999
 40
0.2187499999999999
 40
0.2187499999999999
 40
0.2187499999999999
 40
0.2291666666666666
 40
0.2291666666666666
 40
0.2291666666666666
 40
0.2291666666666666
 40
0.2395833333333332
 40
0.2395833333333332
 40
0.2395833333333332
 40
0.2395833333333332
 40
0.2499999999999999
 40
0.2499999999999999
 40
0.2499999999999999
 40
0.2499999999999999
 40
0.2604166666666666
 40
0.2604166666666666
 40
0.2604166666666666
 40
0.2604166666666666
 40
0.2708333333333333
 40
0.2708333333333333
 40
0.2708333333333333
 40
0.2708333333333333
 40
0.2812499999999999
 40
0.2812499999999999
 40
0.2812499999999999
 40
0.2812499999999999
 40
0.2916666666666666
 40
0.2916666666666666
 40
0.2916666666666666
 40
0.2916666666666666
 40
0.3020833333333333
 40
0.3020833333333333
 40
0.3020833333333333
 40
0.3020833333333333
 40
0.3125
 40
0.3125
 40
0.3125
 40
0.3125
 40
0.3229166666666667
 40
0.3229166666666667
 40
0.3229166666666667
 40
0.3229166666666667
 40
0.3333333333333334
 40
0.3333333333333334
 40
0.3333333333333334
 40
0.3333333333333334
 40
0.3437500000000001
 40
0.3437500000000001
 40
0.3437500000000001
 40
0.3437500000000001
 40
0.3541666666666667
 40
0.3541666666666667
 40
0.3541666666666667
 40
0.3541666666666667
 40
0.3645833333333334
 40
0.3645833333333334
 40
0.3645833333333334
 40
0.3645833333333334
 40
0.3750000000000001
 40
0.3750000000000001
 40
0.3750000000000001
 40
0.3750000000000001
 40
0.3854166666666668
 40
0.3854166666666668
 40
0.3854166666666668
 40
0.3854166666666668
 40
0.3958333333333335
 40
0.3958333333333335
 40
0.3958333333333335
 40
0.3958333333333335
 40
0.4062500000000002
 40
0.4062500000000002
 40
0.4062500000000002
 40
0.4062500000000002
 40
0.4166666666666669
 40
0.4166666666666669
 40
0.4166666666666669
 40
0.4166666666666669
 40
0.4270833333333335
 40
0.4270833333333335
 40
0.4270833333333335
 40
0.4270833333333335
 40
0.4375000000000002
 40
0.4375000000000002
 40
0.4375000000000002
 40
0.4375000000000002
 40
0.4479166666666669
 40
0.4479166666666669
 40
0.4479166666666669
 40
0.4479166666666669
 40
0.4583333333333336
 40
0.4583333333333336
 40
0.4583333333333336
 40
0.4583333333333336
 40
0.4687500000000003
 40
0.4687500000000003
 40
0.4687500000000003
 40
0.4687500000000003
 40
0.479166666666667
 40
0.479166666666667
 40
0.479166666666667
 40
0.479166666666667
 40
0.4895833333333337
 40
0.4895833333333337
 40
0.4895833333333337
 40
0.4895833333333337
 40
0.5000000000000003
 40
0.5000000000000003
 40
0.5000000000000003
 40
0.5000000000000003
 40
0.510416666666667
 40
0.510416666666667
 40
0.510416666666667
 40
0.510416666666667
 40
0.5208333333333336
 40
0.5208333333333336
 40
0.5208333333333336
 40
0.5208333333333336
 40
0.5312500000000002
 40
0.5312500000000002
 40
0.5312500000000002
 40
0.5312500000000002
 40
0.5416666666666669
 40
0.5416666666666669
 40
0.5416666666666669
 40
0.5416666666666669
 40
0.5520833333333335
 40
0.5520833333333335
 40
0.5520833333333335
 40
0.5520833333333335
 40
0.5625000000000001
 40
0.5625000000000001
 40
0.5625000000000001
 40
0.5625000000000001
 40
0.5729166666666667
 40
0.5729166666666667
 40
0.5729166666666667
 40
0.5729166666666667
 40
0.5833333333333334
 40
0.5833333333333334
 40
0.5833333333333334
 40
0.5833333333333334
 40
0.59375
 40
0.59375
 40
0.59375
 40
0.59375
 40
0.6041666666666666
 40
0.6041666666666666
 40
0.6041666666666666
 40
0.6041666666666666
 40
0.6145833333333333
 40
0.6145833333333333
 40
0.6145833333333333
 40
0.6145833333333333
 40
0.6249999999999999
 40
0.6249999999999999
 40
0.6249999999999999
 40
0.6249999999999999
 40
0.6354166666666665
 40
0.6354166666666665
 40
0.6354166666666665
 40
0.6354166666666665
 40
0.6458333333333332
 40
0.6458333333333332
 40
0.6458333333333332
 40
0.6458333333333332
 40
0.6562499999999998
 40
0.6562499999999998
 40
0.6562499999999998
 40
0.6562499999999998
 40
0.6666666666666664
 40
0.6666666666666664
 40
0.6666666666666664
 40
0.6666666666666664
 40
0.677083333333333
 40
0.677083333333333
 40
0.677083333333333
 40
0.677083333333333
 40
0.6874999999999997
 40
0.6874999999999997
 40
0.6874999999999997
 40
0.6874999999999997
 40
0.6979166666666663
 40
0.6979166666666663
 40
0.6979166666666663
 40
0.6979166666666663
 40
0.7083333333333329
 40
0.7083333333333329
 40
0.7083333333333329
 40
0.7083333333333329
 40
0.7187499999999996
 40
0.7187499999999996
 40
0.7187499999999996
 40
0.7187499999999996
 40
0.7291666666666662
 40
0.7291666666666662
 40
0.7291666666666662
 40
0.7291666666666662
 40
0.7395833333333328
 40
0.7395833333333328
 40
0.7395833333333328
 40
0.7395833333333328
 40
0.7499999999999994
 40
0.7499999999999994
 40
0.7499999999999994
 40
0.7499999999999994
 40
0.7604166666666661
 40
0.7604166666666661
 40
0.7604166666666661
 40
0.7604166666666661
 40
0.7708333333333327
 40
0.7708333333333327
 40
0.7708333333333327
 40
0.7708333333333327
 40
0.7812499999999993
 40
0.7812499999999993
 40
0.7812499999999993
 40
0.7812499999999993
 40
0.791666666666666
 40
0.791666666666666
 40
0.791666666666666
 40
0.791666666666666
 40
0.8020833333333326
 40
0.8020833333333326
 40
0.8020833333333326
 40
0.8020833333333326
 40
0.8124999999999992
 40
0.8124999999999992
 40
0.8124999999999992
 40
0.8124999999999992
 40
0.8229166666666659
 40
0.8229166666666659
 40
0.8229166666666659
 40
0.8229166666666659
 40
0.8333333333333325
 40
0.8333333333333325
 40
0.8333333333333325
 40
0.8333333333333325
 40
0.8437499999999991
 40
0.8437499999999991
 40
0.8437499999999991
 40
0.8437499999999991
 40
0.8541666666666657
 40
0.8541666666666657
 40
0.8541666666666657
 40
0.8541666666666657
 40
0.8645833333333324
 40
0.8645833333333324
 40
0.8645833333333324
 40
0.8645833333333324
 40
0.874999999999999
 40
0.874999999999999
 40
0.874999999999999
 40
0.874999999999999
 40
0.8854166666666656
 40
0.8854166666666656
 40
0.8854166666666656
 40
0.8854166666666656
 40
0.8958333333333323
 40
0.8958333333333323
 40
0.8958333333333323
 40
0.8958333333333323
 40
0.9062499999999989
 40
0.9062499999999989
 40
0.9062499999999989
 40
0.9062499999999989
 40
0.9166666666666655
 40
0.9166666666666655
 40
0.9166666666666655
 40
0.9166666666666655
 40
0.9270833333333322
 40
0.9270833333333322
 40
0.9270833333333322
 40
0.9270833333333322
 40
0.9374999999999988
 40
0.9374999999999988
 40
0.9374999999999988
 40
0.9374999999999988
 40
0.9479166666666654
 40
0.9479166666666654
 40
0.9479166666666654
 40
0.9479166666666654
 40
0.958333333333332
 40
0.958333333333332
 40
0.958333333333332
 40
0.958333333333332
 40
0.9687499999999987
 40
0.9687499999999987
 40
0.9687499999999987
 40
0.9687499999999987
 40
0.9791666666666653
 40
0.9791666666666653
 40
0.9791666666666653
 40
0.9791666666666653
 40
0.9895833333333319
 40
0.9895833333333319
 40
0.9895833333333319
 40
0.9895833333333319
 40
1.0
 40
1.0
 40
1.0
 40
1.0
 10
0.4234763779527559
 20
1.781677165354331
 30
0.0
 10
0.4234763779527559
 20
1.781677165354331
 30
0.0
 10
0.4238582677165355
 20
2.535574803149606
 30
0.0
 10
0.4238582677165355
 20
2.535574803149606
 30
0.0
 10
0.4238582677165355
 20
2.535574803149606
 30
0.0
 10
0.4238582677165355
 20
2.535574803149606
 30
0.0
 10
0.4241614173228347
 20
2.526023622047244
 30
0.0
 10
0.4241614173228347
 20
2.526023622047244
 30
0.0
 10
0.4241614173228347
 20
2.526023622047244
 30
0.0
 10
0.4241614173228347
 20
2.526023622047244
 30
0.0
 10
0.4248622047244094
 20
2.516551181102362
 30
0.0
 10
0.4248622047244094
 20
2.516551181102362
 30
0.0
 10
0.4248622047244094
 20
2.516551181102362
 30
0.0
 10
0.4248622047244094
 20
2.516551181102362
 30
0.0
 10
0.4259488188976378
 20
2.507173228346457
 30
0.0
 10
0.4259488188976378
 20
2.507173228346457
 30
0.0
 10
0.4259488188976378
 20
2.507173228346457
 30
0.0
 10
0.4259488188976378
 20
2.507173228346457
 30
0.0
 10
0.4274330708661417
 20
2.49790157480315
 30
0.0
 10
0.4274330708661417
 20
2.49790157480315
 30
0.0
 10
0.4274330708661417
 20
2.49790157480315
 30
0.0
 10
0.4274330708661417
 20
2.49790157480315
 30
0.0
 10
0.4293110236220473
 20
2.488751968503937
 30
0.0
 10
0.4293110236220473
 20
2.488751968503937
 30
0.0
 10
0.4293110236220473
 20
2.488751968503937
 30
0.0
 10
0.4293110236220473
 20
2.488751968503937
 30
0.0
 10
0.4315944881889764
 20
2.479720472440945
 30
0.0
 10
0.4315944881889764
 20
2.479720472440945
 30
0.0
 10
0.4315944881889764
 20
2.479720472440945
 30
0.0
 10
0.4315944881889764
 20
2.479720472440945
 30
0.0
 10
0.4342716535433071
 20
2.470838582677165
 30
0.0
 10
0.4342716535433071
 20
2.470838582677165
 30
0.0
 10
0.4342716535433071
 20
2.470838582677165
 30
0.0
 10
0.4342716535433071
 20
2.470838582677165
 30
0.0
 10
0.4373543307086614
 20
2.462102362204725
 30
0.0
 10
0.4373543307086614
 20
2.462102362204725
 30
0.0
 10
0.4373543307086614
 20
2.462102362204725
 30
0.0
 10
0.4373543307086614
 20
2.462102362204725
 30
0.0
 10
0.4408267716535433
 20
2.453531496062992
 30
0.0
 10
0.4408267716535433
 20
2.453531496062992
 30
0.0
 10
0.4408267716535433
 20
2.453531496062992
 30
0.0
 10
0.4408267716535433
 20
2.453531496062992
 30
0.0
 10
0.4447125984251969
 20
2.445129921259843
 30
0.0
 10
0.4447125984251969
 20
2.445129921259843
 30
0.0
 10
0.4447125984251969
 20
2.445129921259843
 30
0.0
 10
0.4447125984251969
 20
2.445129921259843
 30
0.0
 10
0.448988188976378
 20
2.43692125984252
 30
0.0
 10
0.448988188976378
 20
2.43692125984252
 30
0.0
 10
0.448988188976378
 20
2.43692125984252
 30
0.0
 10
0.448988188976378
 20
2.43692125984252
 30
0.0
 10
0.4536771653543307
 20
2.428905511811024
 30
0.0
 10
0.4536771653543307
 20
2.428905511811024
 30
0.0
 10
0.4536771653543307
 20
2.428905511811024
 30
0.0
 10
0.4536771653543307
 20
2.428905511811024
 30
0.0
 10
0.4587598425196851
 20
2.421102362204724
 30
0.0
 10
0.4587598425196851
 20
2.421102362204724
 30
0.0
 10
0.4587598425196851
 20
2.421102362204724
 30
0.0
 10
0.4587598425196851
 20
2.421102362204724
 30
0.0
 10
0.4642637795275591
 20
2.413511811023622
 30
0.0
 10
0.4642637795275591
 20
2.413511811023622
 30
0.0
 10
0.4642637795275591
 20
2.413511811023622
 30
0.0
 10
0.4642637795275591
 20
2.413511811023622
 30
0.0
 10
0.4701614173228347
 20
2.406153543307087
 30
0.0
 10
0.4701614173228347
 20
2.406153543307087
 30
0.0
 10
0.4701614173228347
 20
2.406153543307087
 30
0.0
 10
0.4701614173228347
 20
2.406153543307087
 30
0.0
 10
0.4764763779527559
 20
2.399035433070866
 30
0.0
 10
0.4764763779527559
 20
2.399035433070866
 30
0.0
 10
0.4764763779527559
 20
2.399035433070866
 30
0.0
 10
0.4764763779527559
 20
2.399035433070866
 30
0.0
 10
0.4831889763779528
 20
2.392173228346457
 30
0.0
 10
0.4831889763779528
 20
2.392173228346457
 30
0.0
 10
0.4831889763779528
 20
2.392173228346457
 30
0.0
 10
0.4831889763779528
 20
2.392173228346457
 30
0.0
 10
0.4903188976377953
 20
2.385570866141733
 30
0.0
 10
0.4903188976377953
 20
2.385570866141733
 30
0.0
 10
0.4903188976377953
 20
2.385570866141733
 30
0.0
 10
0.4903188976377953
 20
2.385570866141733
 30
0.0
 10
0.4978543307086614
 20
2.379251968503937
 30
0.0
 10
0.4978543307086614
 20
2.379251968503937
 30
0.0
 10
0.4978543307086614
 20
2.379251968503937
 30
0.0
 10
0.4978543307086614
 20
2.379251968503937
 30
0.0
 10
0.5058031496062992
 20
2.373216535433071
 30
0.0
 10
0.5058031496062992
 20
2.373216535433071
 30
0.0
 10
0.5058031496062992
 20
2.373216535433071
 30
0.0
 10
0.5058031496062992
 20
2.373216535433071
 30
0.0
 10
0.5141614173228347
 20
2.367488188976378
 30
0.0
 10
0.5141614173228347
 20
2.367488188976378
 30
0.0
 10
0.5141614173228347
 20
2.367488188976378
 30
0.0
 10
0.5141614173228347
 20
2.367488188976378
 30
0.0
 10
0.5229409448818898
 20
2.36205905511811
 30
0.0
 10
0.5229409448818898
 20
2.36205905511811
 30
0.0
 10
0.5229409448818898
 20
2.36205905511811
 30
0.0
 10
0.5229409448818898
 20
2.36205905511811
 30
0.0
 10
0.5321299212598425
 20
2.35696062992126
 30
0.0
 10
0.5321299212598425
 20
2.35696062992126
 30
0.0
 10
0.5321299212598425
 20
2.35696062992126
 30
0.0
 10
0.5321299212598425
 20
2.35696062992126
 30
0.0
 10
0.541736220472441
 20
2.352188976377953
 30
0.0
 10
0.541736220472441
 20
2.352188976377953
 30
0.0
 10
0.541736220472441
 20
2.352188976377953
 30
0.0
 10
0.541736220472441
 20
2.352188976377953
 30
0.0
 10
0.5517559055118111
 20
2.347767716535433
 30
0.0
 10
0.5517559055118111
 20
2.347767716535433
 30
0.0
 10
0.5517559055118111
 20
2.347767716535433
 30
0.0
 10
0.5517559055118111
 20
2.347767716535433
 30
0.0
 10
0.5621968503937008
 20
2.343692913385827
 30
0.0
 10
0.5621968503937008
 20
2.343692913385827
 30
0.0
 10
0.5621968503937008
 20
2.343692913385827
 30
0.0
 10
0.5621968503937008
 20
2.343692913385827
 30
0.0
 10
0.5730511811023622
 20
2.339996062992126
 30
0.0
 10
0.5730511811023622
 20
2.339996062992126
 30
0.0
 10
0.5730511811023622
 20
2.339996062992126
 30
0.0
 10
0.5730511811023622
 20
2.339996062992126
 30
0.0
 10
0.5843307086614173
 20
2.336673228346457
 30
0.0
 10
0.5843307086614173
 20
2.336673228346457
 30
0.0
 10
0.5843307086614173
 20
2.336673228346457
 30
0.0
 10
0.5843307086614173
 20
2.336673228346457
 30
0.0
 10
0.5960236220472441
 20
2.333744094488189
 30
0.0
 10
0.5960236220472441
 20
2.333744094488189
 30
0.0
 10
0.5960236220472441
 20
2.333744094488189
 30
0.0
 10
0.5960236220472441
 20
2.333744094488189
 30
0.0
 10
0.6192755905511811
 20
2.327681102362205
 30
0.0
 10
0.6192755905511811
 20
2.327681102362205
 30
0.0
 10
0.6192755905511811
 20
2.327681102362205
 30
0.0
 10
0.6192755905511811
 20
2.327681102362205
 30
0.0
 10
0.6408307086614173
 20
2.320629921259843
 30
0.0
 10
0.6408307086614173
 20
2.320629921259843
 30
0.0
 10
0.6408307086614173
 20
2.320629921259843
 30
0.0
 10
0.6408307086614173
 20
2.320629921259843
 30
0.0
 10
0.6607440944881891
 20
2.312657480314961
 30
0.0
 10
0.6607440944881891
 20
2.312657480314961
 30
0.0
 10
0.6607440944881891
 20
2.312657480314961
 30
0.0
 10
0.6607440944881891
 20
2.312657480314961
 30
0.0
 10
0.6790511811023622
 20
2.303854330708662
 30
0.0
 10
0.6790511811023622
 20
2.303854330708662
 30
0.0
 10
0.6790511811023622
 20
2.303854330708662
 30
0.0
 10
0.6790511811023622
 20
2.303854330708662
 30
0.0
 10
0.6958110236220473
 20
2.294283464566929
 30
0.0
 10
0.6958110236220473
 20
2.294283464566929
 30
0.0
 10
0.6958110236220473
 20
2.294283464566929
 30
0.0
 10
0.6958110236220473
 20
2.294283464566929
 30
0.0
 10
0.7110551181102363
 20
2.284035433070866
 30
0.0
 10
0.7110551181102363
 20
2.284035433070866
 30
0.0
 10
0.7110551181102363
 20
2.284035433070866
 30
0.0
 10
0.7110551181102363
 20
2.284035433070866
 30
0.0
 10
0.7248425196850394
 20
2.273177165354331
 30
0.0
 10
0.7248425196850394
 20
2.273177165354331
 30
0.0
 10
0.7248425196850394
 20
2.273177165354331
 30
0.0
 10
0.7248425196850394
 20
2.273177165354331
 30
0.0
 10
0.7372047244094488
 20
2.261799212598425
 30
0.0
 10
0.7372047244094488
 20
2.261799212598425
 30
0.0
 10
0.7372047244094488
 20
2.261799212598425
 30
0.0
 10
0.7372047244094488
 20
2.261799212598425
 30
0.0
 10
0.7482086614173229
 20
2.24996062992126
 30
0.0
 10
0.7482086614173229
 20
2.24996062992126
 30
0.0
 10
0.7482086614173229
 20
2.24996062992126
 30
0.0
 10
0.7482086614173229
 20
2.24996062992126
 30
0.0
 10
0.7578779527559055
 20
2.237751968503937
 30
0.0
 10
0.7578779527559055
 20
2.237751968503937
 30
0.0
 10
0.7578779527559055
 20
2.237751968503937
 30
0.0
 10
0.7578779527559055
 20
2.237751968503937
 30
0.0
 10
0.7662716535433071
 20
2.225244094488189
 30
0.0
 10
0.7662716535433071
 20
2.225244094488189
 30
0.0
 10
0.7662716535433071
 20
2.225244094488189
 30
0.0
 10
0.7662716535433071
 20
2.225244094488189
 30
0.0
 10
0.7734251968503937
 20
2.212523622047244
 30
0.0
 10
0.7734251968503937
 20
2.212523622047244
 30
0.0
 10
0.7734251968503937
 20
2.212523622047244
 30
0.0
 10
0.7734251968503937
 20
2.212523622047244
 30
0.0
 10
0.7793976377952756
 20
2.199653543307087
 30
0.0
 10
0.7793976377952756
 20
2.199653543307087
 30
0.0
 10
0.7793976377952756
 20
2.199653543307087
 30
0.0
 10
0.7793976377952756
 20
2.199653543307087
 30
0.0
 10
0.784220472440945
 20
2.186724409448819
 30
0.0
 10
0.784220472440945
 20
2.186724409448819
 30
0.0
 10
0.784220472440945
 20
2.186724409448819
 30
0.0
 10
0.784220472440945
 20
2.186724409448819
 30
0.0
 10
0.7879527559055118
 20
2.173807086614173
 30
0.0
 10
0.7879527559055118
 20
2.173807086614173
 30
0.0
 10
0.7879527559055118
 20
2.173807086614173
 30
0.0
 10
0.7879527559055118
 20
2.173807086614173
 30
0.0
 10
0.7906220472440946
 20
2.160988188976378
 30
0.0
 10
0.7906220472440946
 20
2.160988188976378
 30
0.0
 10
0.7906220472440946
 20
2.160988188976378
 30
0.0
 10
0.7906220472440946
 20
2.160988188976378
 30
0.0
 10
0.7922992125984252
 20
2.148326771653543
 30
0.0
 10
0.7922992125984252
 20
2.148326771653543
 30
0.0
 10
0.7922992125984252
 20
2.148326771653543
 30
0.0
 10
0.7922992125984252
 20
2.148326771653543
 30
0.0
 10
0.793007874015748
 20
2.135913385826772
 30
0.0
 10
0.793007874015748
 20
2.135913385826772
 30
0.0
 10
0.793007874015748
 20
2.135913385826772
 30
0.0
 10
0.793007874015748
 20
2.135913385826772
 30
0.0
 10
0.7926259842519685
 20
1.382015748031496
 30
0.0
 10
0.7926259842519685
 20
1.382015748031496
 30
0.0
 10
0.7926259842519685
 20
1.382015748031496
 30
0.0
 10
0.7926259842519685
 20
1.382015748031496
 30
0.0
 10
0.7919173228346457
 20
1.394429133858268
 30
0.0
 10
0.7919173228346457
 20
1.394429133858268
 30
0.0
 10
0.7919173228346457
 20
1.394429133858268
 30
0.0
 10
0.7919173228346457
 20
1.394429133858268
 30
0.0
 10
0.790240157480315
 20
1.407090551181103
 30
0.0
 10
0.790240157480315
 20
1.407090551181103
 30
0.0
 10
0.790240157480315
 20
1.407090551181103
 30
0.0
 10
0.790240157480315
 20
1.407090551181103
 30
0.0
 10
0.7875708661417323
 20
1.419909448818898
 30
0.0
 10
0.7875708661417323
 20
1.419909448818898
 30
0.0
 10
0.7875708661417323
 20
1.419909448818898
 30
0.0
 10
0.7875708661417323
 20
1.419909448818898
 30
0.0
 10
0.7838385826771653
 20
1.432826771653543
 30
0.0
 10
0.7838385826771653
 20
1.432826771653543
 30
0.0
 10
0.7838385826771653
 20
1.432826771653543
 30
0.0
 10
0.7838385826771653
 20
1.432826771653543
 30
0.0
 10
0.7790157480314961
 20
1.445755905511811
 30
0.0
 10
0.7790157480314961
 20
1.445755905511811
 30
0.0
 10
0.7790157480314961
 20
1.445755905511811
 30
0.0
 10
0.7790157480314961
 20
1.445755905511811
 30
0.0
 10
0.7730433070866142
 20
1.458625984251969
 30
0.0
 10
0.7730433070866142
 20
1.458625984251969
 30
0.0
 10
0.7730433070866142
 20
1.458625984251969
 30
0.0
 10
0.7730433070866142
 20
1.458625984251969
 30
0.0
 10
0.7658897637795276
 20
1.471346456692914
 30
0.0
 10
0.7658897637795276
 20
1.471346456692914
 30
0.0
 10
0.7658897637795276
 20
1.471346456692914
 30
0.0
 10
0.7658897637795276
 20
1.471346456692914
 30
0.0
 10
0.757496062992126
 20
1.483854330708662
 30
0.0
 10
0.757496062992126
 20
1.483854330708662
 30
0.0
 10
0.757496062992126
 20
1.483854330708662
 30
0.0
 10
0.757496062992126
 20
1.483854330708662
 30
0.0
 10
0.7478267716535434
 20
1.496062992125984
 30
0.0
 10
0.7478267716535434
 20
1.496062992125984
 30
0.0
 10
0.7478267716535434
 20
1.496062992125984
 30
0.0
 10
0.7478267716535434
 20
1.496062992125984
 30
0.0
 10
0.7368228346456693
 20
1.50790157480315
 30
0.0
 10
0.7368228346456693
 20
1.50790157480315
 30
0.0
 10
0.7368228346456693
 20
1.50790157480315
 30
0.0
 10
0.7368228346456693
 20
1.50790157480315
 30
0.0
 10
0.7244606299212599
 20
1.519279527559055
 30
0.0
 10
0.7244606299212599
 20
1.519279527559055
 30
0.0
 10
0.7244606299212599
 20
1.519279527559055
 30
0.0
 10
0.7244606299212599
 20
1.519279527559055
 30
0.0
 10
0.7106732283464567
 20
1.530137795275591
 30
0.0
 10
0.7106732283464567
 20
1.530137795275591
 30
0.0
 10
0.7106732283464567
 20
1.530137795275591
 30
0.0
 10
0.7106732283464567
 20
1.530137795275591
 30
0.0
 10
0.6954291338582678
 20
1.540385826771654
 30
0.0
 10
0.6954291338582678
 20
1.540385826771654
 30
0.0
 10
0.6954291338582678
 20
1.540385826771654
 30
0.0
 10
0.6954291338582678
 20
1.540385826771654
 30
0.0
 10
0.6786692913385827
 20
1.549956692913386
 30
0.0
 10
0.6786692913385827
 20
1.549956692913386
 30
0.0
 10
0.6786692913385827
 20
1.549956692913386
 30
0.0
 10
0.6786692913385827
 20
1.549956692913386
 30
0.0
 10
0.6603622047244094
 20
1.558759842519685
 30
0.0
 10
0.6603622047244094
 20
1.558759842519685
 30
0.0
 10
0.6603622047244094
 20
1.558759842519685
 30
0.0
 10
0.6603622047244094
 20
1.558759842519685
 30
0.0
 10
0.6404488188976378
 20
1.566732283464567
 30
0.0
 10
0.6404488188976378
 20
1.566732283464567
 30
0.0
 10
0.6404488188976378
 20
1.566732283464567
 30
0.0
 10
0.6404488188976378
 20
1.566732283464567
 30
0.0
 10
0.6188937007874016
 20
1.573783464566929
 30
0.0
 10
0.6188937007874016
 20
1.573783464566929
 30
0.0
 10
0.6188937007874016
 20
1.573783464566929
 30
0.0
 10
0.6188937007874016
 20
1.573783464566929
 30
0.0
 10
0.5956417322834646
 20
1.579846456692913
 30
0.0
 10
0.5956417322834646
 20
1.579846456692913
 30
0.0
 10
0.5956417322834646
 20
1.579846456692913
 30
0.0
 10
0.5956417322834646
 20
1.579846456692913
 30
0.0
 10
0.5839488188976378
 20
1.582775590551181
 30
0.0
 10
0.5839488188976378
 20
1.582775590551181
 30
0.0
 10
0.5839488188976378
 20
1.582775590551181
 30
0.0
 10
0.5839488188976378
 20
1.582775590551181
 30
0.0
 10
0.5726692913385827
 20
1.58609842519685
 30
0.0
 10
0.5726692913385827
 20
1.58609842519685
 30
0.0
 10
0.5726692913385827
 20
1.58609842519685
 30
0.0
 10
0.5726692913385827
 20
1.58609842519685
 30
0.0
 10
0.5618149606299213
 20
1.589795275590551
 30
0.0
 10
0.5618149606299213
 20
1.589795275590551
 30
0.0
 10
0.5618149606299213
 20
1.589795275590551
 30
0.0
 10
0.5618149606299213
 20
1.589795275590551
 30
0.0
 10
0.5513740157480315
 20
1.593870078740158
 30
0.0
 10
0.5513740157480315
 20
1.593870078740158
 30
0.0
 10
0.5513740157480315
 20
1.593870078740158
 30
0.0
 10
0.5513740157480315
 20
1.593870078740158
 30
0.0
 10
0.5413543307086615
 20
1.598291338582677
 30
0.0
 10
0.5413543307086615
 20
1.598291338582677
 30
0.0
 10
0.5413543307086615
 20
1.598291338582677
 30
0.0
 10
0.5413543307086615
 20
1.598291338582677
 30
0.0
 10
0.531748031496063
 20
1.603062992125984
 30
0.0
 10
0.531748031496063
 20
1.603062992125984
 30
0.0
 10
0.531748031496063
 20
1.603062992125984
 30
0.0
 10
0.531748031496063
 20
1.603062992125984
 30
0.0
 10
0.5225590551181103
 20
1.608161417322835
 30
0.0
 10
0.5225590551181103
 20
1.608161417322835
 30
0.0
 10
0.5225590551181103
 20
1.608161417322835
 30
0.0
 10
0.5225590551181103
 20
1.608161417322835
 30
0.0
 10
0.5137795275590551
 20
1.613590551181102
 30
0.0
 10
0.5137795275590551
 20
1.613590551181102
 30
0.0
 10
0.5137795275590551
 20
1.613590551181102
 30
0.0
 10
0.5137795275590551
 20
1.613590551181102
 30
0.0
 10
0.5054212598425197
 20
1.619318897637795
 30
0.0
 10
0.5054212598425197
 20
1.619318897637795
 30
0.0
 10
0.5054212598425197
 20
1.619318897637795
 30
0.0
 10
0.5054212598425197
 20
1.619318897637795
 30
0.0
 10
0.4974724409448819
 20
1.625354330708662
 30
0.0
 10
0.4974724409448819
 20
1.625354330708662
 30
0.0
 10
0.4974724409448819
 20
1.625354330708662
 30
0.0
 10
0.4974724409448819
 20
1.625354330708662
 30
0.0
 10
0.4899370078740158
 20
1.631673228346457
 30
0.0
 10
0.4899370078740158
 20
1.631673228346457
 30
0.0
 10
0.4899370078740158
 20
1.631673228346457
 30
0.0
 10
0.4899370078740158
 20
1.631673228346457
 30
0.0
 10
0.4828070866141733
 20
1.638275590551181
 30
0.0
 10
0.4828070866141733
 20
1.638275590551181
 30
0.0
 10
0.4828070866141733
 20
1.638275590551181
 30
0.0
 10
0.4828070866141733
 20
1.638275590551181
 30
0.0
 10
0.4760944881889764
 20
1.645137795275591
 30
0.0
 10
0.4760944881889764
 20
1.645137795275591
 30
0.0
 10
0.4760944881889764
 20
1.645137795275591
 30
0.0
 10
0.4760944881889764
 20
1.645137795275591
 30
0.0
 10
0.4697795275590551
 20
1.652255905511811
 30
0.0
 10
0.4697795275590551
 20
1.652255905511811
 30
0.0
 10
0.4697795275590551
 20
1.652255905511811
 30
0.0
 10
0.4697795275590551
 20
1.652255905511811
 30
0.0
 10
0.4638818897637795
 20
1.659614173228347
 30
0.0
 10
0.4638818897637795
 20
1.659614173228347
 30
0.0
 10
0.4638818897637795
 20
1.659614173228347
 30
0.0
 10
0.4638818897637795
 20
1.659614173228347
 30
0.0
 10
0.4583779527559055
 20
1.667204724409449
 30
0.0
 10
0.4583779527559055
 20
1.667204724409449
 30
0.0
 10
0.4583779527559055
 20
1.667204724409449
 30
0.0
 10
0.4583779527559055
 20
1.667204724409449
 30
0.0
 10
0.4532952755905512
 20
1.675007874015748
 30
0.0
 10
0.4532952755905512
 20
1.675007874015748
 30
0.0
 10
0.4532952755905512
 20
1.675007874015748
 30
0.0
 10
0.4532952755905512
 20
1.675007874015748
 30
0.0
 10
0.4486062992125984
 20
1.683023622047244
 30
0.0
 10
0.4486062992125984
 20
1.683023622047244
 30
0.0
 10
0.4486062992125984
 20
1.683023622047244
 30
0.0
 10
0.4486062992125984
 20
1.683023622047244
 30
0.0
 10
0.4443307086614173
 20
1.691232283464567
 30
0.0
 10
0.4443307086614173
 20
1.691232283464567
 30
0.0
 10
0.4443307086614173
 20
1.691232283464567
 30
0.0
 10
0.4443307086614173
 20
1.691232283464567
 30
0.0
 10
0.4404448818897638
 20
1.699633858267717
 30
0.0
 10
0.4404448818897638
 20
1.699633858267717
 30
0.0
 10
0.4404448818897638
 20
1.699633858267717
 30
0.0
 10
0.4404448818897638
 20
1.699633858267717
 30
0.0
 10
0.4369724409448819
 20
1.708204724409449
 30
0.0
 10
0.4369724409448819
 20
1.708204724409449
 30
0.0
 10
0.4369724409448819
 20
1.708204724409449
 30
0.0
 10
0.4369724409448819
 20
1.708204724409449
 30
0.0
 10
0.4338897637795276
 20
1.71694094488189
 30
0.0
 10
0.4338897637795276
 20
1.71694094488189
 30
0.0
 10
0.4338897637795276
 20
1.71694094488189
 30
0.0
 10
0.4338897637795276
 20
1.71694094488189
 30
0.0
 10
0.4312125984251969
 20
1.725822834645669
 30
0.0
 10
0.4312125984251969
 20
1.725822834645669
 30
0.0
 10
0.4312125984251969
 20
1.725822834645669
 30
0.0
 10
0.4312125984251969
 20
1.725822834645669
 30
0.0
 10
0.4289291338582678
 20
1.734854330708662
 30
0.0
 10
0.4289291338582678
 20
1.734854330708662
 30
0.0
 10
0.4289291338582678
 20
1.734854330708662
 30
0.0
 10
0.4289291338582678
 20
1.734854330708662
 30
0.0
 10
0.4270511811023622
 20
1.744003937007874
 30
0.0
 10
0.4270511811023622
 20
1.744003937007874
 30
0.0
 10
0.4270511811023622
 20
1.744003937007874
 30
0.0
 10
0.4270511811023622
 20
1.744003937007874
 30
0.0
 10
0.4255669291338583
 20
1.753275590551181
 30
0.0
 10
0.4255669291338583
 20
1.753275590551181
 30
0.0
 10
0.4255669291338583
 20
1.753275590551181
 30
0.0
 10
0.4255669291338583
 20
1.753275590551181
 30
0.0
 10
0.4244803149606299
 20
1.762653543307087
 30
0.0
 10
0.4244803149606299
 20
1.762653543307087
 30
0.0
 10
0.4244803149606299
 20
1.762653543307087
 30
0.0
 10
0.4244803149606299
 20
1.762653543307087
 30
0.0
 10
0.4237795275590551
 20
1.772125984251969
 30
0.0
 10
0.4237795275590551
 20
1.772125984251969
 30
0.0
 10
0.4237795275590551
 20
1.772125984251969
 30
0.0
 10
0.4237795275590551
 20
1.772125984251969
 30
0.0
 10
0.4234763779527559
 20
1.781677165354331
 30
0.0
 10
0.4234763779527559
 20
1.781677165354331
 30
0.0
  0
SPLINE
  5
3C
330
1F
100
AcDbEntity
  8
LAYER_1
 62
   252
100
AcDbSpline
210
0.0
220
0.0
230
1.0
 70
    11
 71
     3
 72
    20
 73
    16
 74
     0
 42
0.0000000001
 43
0.0000000001
 40
0.0
 40
0.0
 40
0.0
 40
0.0
 40
0.25
 40
0.25
 40
0.25
 40
0.25
 40
0.5
 40
0.5
 40
0.5
 40
0.5
 40
0.75
 40
0.75
 40
0.75
 40
0.75
 40
1.0
 40
1.0
 40
1.0
 40
1.0
 10
0.2980866141732284
 20
1.810732283464567
 30
0.0
 10
0.2980866141732284
 20
1.810732283464567
 30
0.0
 10
0.2984685039370079
 20
2.564629921259843
 30
0.0
 10
0.2984685039370079
 20
2.564629921259843
 30
0.0
 10
0.2984685039370079
 20
2.564629921259843
 30
0.0
 10
0.2984685039370079
 20
2.564629921259843
 30
0.0
 10
0.4252952755905512
 20
2.564629921259843
 30
0.0
 10
0.4252952755905512
 20
2.564629921259843
 30
0.0
 10
0.4252952755905512
 20
2.564629921259843
 30
0.0
 10
0.4252952755905512
 20
2.564629921259843
 30
0.0
 10
0.4249133858267717
 20
1.810732283464567
 30
0.0
 10
0.4249133858267717
 20
1.810732283464567
 30
0.0
 10
0.4249133858267717
 20
1.810732283464567
 30
0.0
 10
0.4249133858267717
 20
1.810732283464567
 30
0.0
 10
0.2980866141732284
 20
1.810732283464567
 30
0.0
 10
0.2980866141732284
 20
1.810732283464567
 30
0.0
  0
SPLINE
  5
3D
330
1F
100
AcDbEntity
  8
LAYER_1
 62
   250
100
AcDbSpline
210
0.0
220
0.0
230
1.0
 70
    11
 71
     3
 72
    20
 73
    16
 74
     0
 42
0.0000000001
 43
0.0000000001
 40
0.0
 40
0.0
 40
0.0
 40
0.0
 40
0.25
 40
0.25
 40
0.25
 40
0.25
 40
0.5
 40
0.5
 40
0.5
 40
0.5
 40
0.75
 40
0.75
 40
0.75
 40
0.75
 40
1.0
 40
1.0
 40
1.0
 40
1.0
 10
0.2980866141732284
 20
1.810732283464567
 30
0.0
 10
0.2980866141732284
 20
1.810732283464567
 30
0.0
 10
0.2984685039370079
 20
2.564629921259843
 30
0.0
 10
0.2984685039370079
 20
2.564629921259843
 30
0.0
 10
0.2984685039370079
 20
2.564629921259843
 30
0.0
 10
0.2984685039370079
 20
2.564629921259843
 30
0.0
 10
0.4252952755905512
 20
2.564629921259843
 30
0.0
 10
0.4252952755905512
 20
2.564629921259843
 30
0.0
 10
0.4252952755905512
 20
2.564629921259843
 30
0.0
 10
0.4252952755905512
 20
2.564629921259843
 30
0.0
 10
0.4249133858267717
 20
1.810732283464567
 30
0.0
 10
0.4249133858267717
 20
1.810732283464567
 30
0.0
 10
0.4249133858267717
 20
1.810732283464567
 30
0.0
 10
0.4249133858267717
 20
1.810732283464567
 30
0.0
 10
0.2980866141732284
 20
1.810732283464567
 30
0.0
 10
0.2980866141732284
 20
1.810732283464567
 30
0.0
  0
SPLINE
  5
3E
330
1F
100
AcDbEntity
  8
LAYER_1
 62
   252
100
AcDbSpline
210
0.0
220
0.0
230
1.0
 70
    11
 71
     3
 72
    52
 73
    48
 74
     0
 42
0.0000000001
 43
0.0000000001
 40
0.0
 40
0.0
 40
0.0
 40
0.0
 40
0.0833333333333333
 40
0.0833333333333333
 40
0.0833333333333333
 40
0.0833333333333333
 40
0.1666666666666667
 40
0.1666666666666667
 40
0.1666666666666667
 40
0.1666666666666667
 40
0.25
 40
0.25
 40
0.25
 40
0.25
 40
0.3333333333333333
 40
0.3333333333333333
 40
0.3333333333333333
 40
0.3333333333333333
 40
0.4166666666666666
 40
0.4166666666666666
 40
0.4166666666666666
 40
0.4166666666666666
 40
0.4999999999999999
 40
0.4999999999999999
 40
0.4999999999999999
 40
0.4999999999999999
 40
0.5833333333333333
 40
0.5833333333333333
 40
0.5833333333333333
 40
0.5833333333333333
 40
0.6666666666666666
 40
0.6666666666666666
 40
0.6666666666666666
 40
0.6666666666666666
 40
0.75
 40
0.75
 40
0.75
 40
0.75
 40
0.8333333333333334
 40
0.8333333333333334
 40
0.8333333333333334
 40
0.8333333333333334
 40
0.9166666666666667
 40
0.9166666666666667
 40
0.9166666666666667
 40
0.9166666666666667
 40
1.0
 40
1.0
 40
1.0
 40
1.0
 10
0.4234763779527559
 20
1.781677165354331
 30
0.0
 10
0.4234763779527559
 20
1.781677165354331
 30
0.0
 10
0.4238582677165355
 20
2.535574803149606
 30
0.0
 10
0.4238582677165355
 20
2.535574803149606
 30
0.0
 10
0.4238582677165355
 20
2.535574803149606
 30
0.0
 10
0.4238582677165355
 20
2.535574803149606
 30
0.0
 10
0.4241614173228347
 20
2.526023622047244
 30
0.0
 10
0.4241614173228347
 20
2.526023622047244
 30
0.0
 10
0.4241614173228347
 20
2.526023622047244
 30
0.0
 10
0.4241614173228347
 20
2.526023622047244
 30
0.0
 10
0.4248622047244094
 20
2.516551181102362
 30
0.0
 10
0.4248622047244094
 20
2.516551181102362
 30
0.0
 10
0.4248622047244094
 20
2.516551181102362
 30
0.0
 10
0.4248622047244094
 20
2.516551181102362
 30
0.0
 10
0.4259488188976378
 20
2.507173228346457
 30
0.0
 10
0.4259488188976378
 20
2.507173228346457
 30
0.0
 10
0.4259488188976378
 20
2.507173228346457
 30
0.0
 10
0.4259488188976378
 20
2.507173228346457
 30
0.0
 10
0.4274330708661417
 20
2.49790157480315
 30
0.0
 10
0.4274330708661417
 20
2.49790157480315
 30
0.0
 10
0.4274330708661417
 20
2.49790157480315
 30
0.0
 10
0.4274330708661417
 20
2.49790157480315
 30
0.0
 10
0.4293110236220473
 20
2.488751968503937
 30
0.0
 10
0.4293110236220473
 20
2.488751968503937
 30
0.0
 10
0.4293110236220473
 20
2.488751968503937
 30
0.0
 10
0.4293110236220473
 20
2.488751968503937
 30
0.0
 10
0.4289291338582678
 20
1.734854330708662
 30
0.0
 10
0.4289291338582678
 20
1.734854330708662
 30
0.0
 10
0.4289291338582678
 20
1.734854330708662
 30
0.0
 10
0.4289291338582678
 20
1.734854330708662
 30
0.0
 10
0.4270511811023622
 20
1.744003937007874
 30
0.0
 10
0.4270511811023622
 20
1.744003937007874
 30
0.0
 10
0.4270511811023622
 20
1.744003937007874
 30
0.0
 10
0.4270511811023622
 20
1.744003937007874
 30
0.0
 10
0.4255669291338583
 20
1.753275590551181
 30
0.0
 10
0.4255669291338583
 20
1.753275590551181
 30
0.0
 10
0.4255669291338583
 20
1.753275590551181
 30
0.0
 10
0.4255669291338583
 20
1.753275590551181
 30
0.0
 10
0.4244803149606299
 20
1.762653543307087
 30
0.0
 10
0.4244803149606299
 20
1.762653543307087
 30
0.0
 10
0.4244803149606299
 20
1.762653543307087
 30
0.0
 10
0.4244803149606299
 20
1.762653543307087
 30
0.0
 10
0.4237795275590551
 20
1.772125984251969
 30
0.0
 10
0.4237795275590551
 20
1.772125984251969
 30
0.0
 10
0.4237795275590551
 20
1.772125984251969
 30
0.0
 10
0.4237795275590551
 20
1.772125984251969
 30
0.0
 10
0.4234763779527559
 20
1.781677165354331
 30
0.0
 10
0.4234763779527559
 20
1.781677165354331
 30
0.0
  0
SPLINE
  5
3F
330
1F
100
AcDbEntity
  8
LAYER_1
 62
   252
100
AcDbSpline
210
0.0
220
0.0
230
1.0
 70
    11
 71
     3
 72
    52
 73
    48
 74
     0
 42
0.0000000001
 43
0.0000000001
 40
0.0
 40
0.0
 40
0.0
 40
0.0
 40
0.0833333333333333
 40
0.0833333333333333
 40
0.0833333333333333
 40
0.0833333333333333
 40
0.1666666666666667
 40
0.1666666666666667
 40
0.1666666666666667
 40
0.1666666666666667
 40
0.25
 40
0.25
 40
0.25
 40
0.25
 40
0.3333333333333333
 40
0.3333333333333333
 40
0.3333333333333333
 40
0.3333333333333333
 40
0.4166666666666666
 40
0.4166666666666666
 40
0.4166666666666666
 40
0.4166666666666666
 40
0.4999999999999999
 40
0.4999999999999999
 40
0.4999999999999999
 40
0.4999999999999999
 40
0.5833333333333333
 40
0.5833333333333333
 40
0.5833333333333333
 40
0.5833333333333333
 40
0.6666666666666666
 40
0.6666666666666666
 40
0.6666666666666666
 40
0.6666666666666666
 40
0.75
 40
0.75
 40
0.75
 40
0.75
 40
0.8333333333333334
 40
0.8333333333333334
 40
0.8333333333333334
 40
0.8333333333333334
 40
0.9166666666666667
 40
0.9166666666666667
 40
0.9166666666666667
 40
0.9166666666666667
 40
1.0
 40
1.0
 40
1.0
 40
1.0
 10
0.4289291338582678
 20
1.734854330708662
 30
0.0
 10
0.4289291338582678
 20
1.734854330708662
 30
0.0
 10
0.4293110236220473
 20
2.488751968503937
 30
0.0
 10
0.4293110236220473
 20
2.488751968503937
 30
0.0
 10
0.4293110236220473
 20
2.488751968503937
 30
0.0
 10
0.4293110236220473
 20
2.488751968503937
 30
0.0
 10
0.4315944881889764
 20
2.479720472440945
 30
0.0
 10
0.4315944881889764
 20
2.479720472440945
 30
0.0
 10
0.4315944881889764
 20
2.479720472440945
 30
0.0
 10
0.4315944881889764
 20
2.479720472440945
 30
0.0
 10
0.4342716535433071
 20
2.470838582677165
 30
0.0
 10
0.4342716535433071
 20
2.470838582677165
 30
0.0
 10
0.4342716535433071
 20
2.470838582677165
 30
0.0
 10
0.4342716535433071
 20
2.470838582677165
 30
0.0
 10
0.4373543307086614
 20
2.462102362204725
 30
0.0
 10
0.4373543307086614
 20
2.462102362204725
 30
0.0
 10
0.4373543307086614
 20
2.462102362204725
 30
0.0
 10
0.4373543307086614
 20
2.462102362204725
 30
0.0
 10
0.4408267716535433
 20
2.453531496062992
 30
0.0
 10
0.4408267716535433
 20
2.453531496062992
 30
0.0
 10
0.4408267716535433
 20
2.453531496062992
 30
0.0
 10
0.4408267716535433
 20
2.453531496062992
 30
0.0
 10
0.4447125984251969
 20
2.445129921259843
 30
0.0
 10
0.4447125984251969
 20
2.445129921259843
 30
0.0
 10
0.4447125984251969
 20
2.445129921259843
 30
0.0
 10
0.4447125984251969
 20
2.445129921259843
 30
0.0
 10
0.4443307086614173
 20
1.691232283464567
 30
0.0
 10
0.4443307086614173
 20
1.691232283464567
 30
0.0
 10
0.4443307086614173
 20
1.691232283464567
 30
0.0
 10
0.4443307086614173
 20
1.691232283464567
 30
0.0
 10
0.4404448818897638
 20
1.699633858267717
 30
0.0
 10
0.4404448818897638
 20
1.699633858267717
 30
0.0
 10
0.4404448818897638
 20
1.699633858267717
 30
0.0
 10
0.4404448818897638
 20
1.699633858267717
 30
0.0
 10
0.4369724409448819
 20
1.708204724409449
 30
0.0
 10
0.4369724409448819
 20
1.708204724409449
 30
0.0
 10
0.4369724409448819
 20
1.708204724409449
 30
0.0
 10
0.4369724409448819
 20
1.708204724409449
 30
0.0
 10
0.4338897637795276
 20
1.71694094488189
 30
0.0
 10
0.4338897637795276
 20
1.71694094488189
 30
0.0
 10
0.4338897637795276
 20
1.71694094488189
 30
0.0
 10
0.4338897637795276
 20
1.71694094488189
 30
0.0
 10
0.4312125984251969
 20
1.725822834645669
 30
0.0
 10
0.4312125984251969
 20
1.725822834645669
 30
0.0
 10
0.4312125984251969
 20
1.725822834645669
 30
0.0
 10
0.4312125984251969
 20
1.725822834645669
 30
0.0
 10
0.4289291338582678
 20
1.734854330708662
 30
0.0
 10
0.4289291338582678
 20
1.734854330708662
 30
0.0
  0
SPLINE
  5
40
330
1F
100
AcDbEntity
  8
LAYER_1
 62
   252
100
AcDbSpline
210
0.0
220
0.0
230
1.0
 70
    11
 71
     3
 72
    52
 73
    48
 74
     0
 42
0.0000000001
 43
0.0000000001
 40
0.0
 40
0.0
 40
0.0
 40
0.0
 40
0.0833333333333333
 40
0.0833333333333333
 40
0.0833333333333333
 40
0.0833333333333333
 40
0.1666666666666667
 40
0.1666666666666667
 40
0.1666666666666667
 40
0.1666666666666667
 40
0.25
 40
0.25
 40
0.25
 40
0.25
 40
0.3333333333333333
 40
0.3333333333333333
 40
0.3333333333333333
 40
0.3333333333333333
 40
0.4166666666666666
 40
0.4166666666666666
 40
0.4166666666666666
 40
0.4166666666666666
 40
0.4999999999999999
 40
0.4999999999999999
 40
0.4999999999999999
 40
0.4999999999999999
 40
0.5833333333333333
 40
0.5833333333333333
 40
0.5833333333333333
 40
0.5833333333333333
 40
0.6666666666666666
 40
0.6666666666666666
 40
0.6666666666666666
 40
0.6666666666666666
 40
0.75
 40
0.75
 40
0.75
 40
0.75
 40
0.8333333333333334
 40
0.8333333333333334
 40
0.8333333333333334
 40
0.8333333333333334
 40
0.9166666666666667
 40
0.9166666666666667
 40
0.9166666666666667
 40
0.9166666666666667
 40
1.0
 40
1.0
 40
1.0
 40
1.0
 10
0.4443307086614173
 20
1.691232283464567
 30
0.0
 10
0.4443307086614173
 20
1.691232283464567
 30
0.0
 10
0.4447125984251969
 20
2.445129921259843
 30
0.0
 10
0.4447125984251969
 20
2.445129921259843
 30
0.0
 10
0.4447125984251969
 20
2.445129921259843
 30
0.0
 10
0.4447125984251969
 20
2.445129921259843
 30
0.0
 10
0.448988188976378
 20
2.43692125984252
 30
0.0
 10
0.448988188976378
 20
2.43692125984252
 30
0.0
 10
0.448988188976378
 20
2.43692125984252
 30
0.0
 10
0.448988188976378
 20
2.43692125984252
 30
0.0
 10
0.4536771653543307
 20
2.428905511811024
 30
0.0
 10
0.4536771653543307
 20
2.428905511811024
 30
0.0
 10
0.4536771653543307
 20
2.428905511811024
 30
0.0
 10
0.4536771653543307
 20
2.428905511811024
 30
0.0
 10
0.4587598425196851
 20
2.421102362204724
 30
0.0
 10
0.4587598425196851
 20
2.421102362204724
 30
0.0
 10
0.4587598425196851
 20
2.421102362204724
 30
0.0
 10
0.4587598425196851
 20
2.421102362204724
 30
0.0
 10
0.4642637795275591
 20
2.413511811023622
 30
0.0
 10
0.4642637795275591
 20
2.413511811023622
 30
0.0
 10
0.4642637795275591
 20
2.413511811023622
 30
0.0
 10
0.4642637795275591
 20
2.413511811023622
 30
0.0
 10
0.4701614173228347
 20
2.406153543307087
 30
0.0
 10
0.4701614173228347
 20
2.406153543307087
 30
0.0
 10
0.4701614173228347
 20
2.406153543307087
 30
0.0
 10
0.4701614173228347
 20
2.406153543307087
 30
0.0
 10
0.4697795275590551
 20
1.652255905511811
 30
0.0
 10
0.4697795275590551
 20
1.652255905511811
 30
0.0
 10
0.4697795275590551
 20
1.652255905511811
 30
0.0
 10
0.4697795275590551
 20
1.652255905511811
 30
0.0
 10
0.4638818897637795
 20
1.659614173228347
 30
0.0
 10
0.4638818897637795
 20
1.659614173228347
 30
0.0
 10
0.4638818897637795
 20
1.659614173228347
 30
0.0
 10
0.4638818897637795
 20
1.659614173228347
 30
0.0
 10
0.4583779527559055
 20
1.667204724409449
 30
0.0
 10
0.4583779527559055
 20
1.667204724409449
 30
0.0
 10
0.4583779527559055
 20
1.667204724409449
 30
0.0
 10
0.4583779527559055
 20
1.667204724409449
 30
0.0
 10
0.4532952755905512
 20
1.675007874015748
 30
0.0
 10
0.4532952755905512
 20
1.675007874015748
 30
0.0
 10
0.4532952755905512
 20
1.675007874015748
 30
0.0
 10
0.4532952755905512
 20
1.675007874015748
 30
0.0
 10
0.4486062992125984
 20
1.683023622047244
 30
0.0
 10
0.4486062992125984
 20
1.683023622047244
 30
0.0
 10
0.4486062992125984
 20
1.683023622047244
 30
0.0
 10
0.4486062992125984
 20
1.683023622047244
 30
0.0
 10
0.4443307086614173
 20
1.691232283464567
 30
0.0
 10
0.4443307086614173
 20
1.691232283464567
 30
0.0
  0
SPLINE
  5
41
330
1F
100
AcDbEntity
  8
LAYER_1
 62
   252
100
AcDbSpline
210
0.0
220
0.0
230
1.0
 70
    11
 71
     3
 72
    52
 73
    48
 74
     0
 42
0.0000000001
 43
0.0000000001
 40
0.0
 40
0.0
 40
0.0
 40
0.0
 40
0.0833333333333333
 40
0.0833333333333333
 40
0.0833333333333333
 40
0.0833333333333333
 40
0.1666666666666667
 40
0.1666666666666667
 40
0.1666666666666667
 40
0.1666666666666667
 40
0.25
 40
0.25
 40
0.25
 40
0.25
 40
0.3333333333333333
 40
0.3333333333333333
 40
0.3333333333333333
 40
0.3333333333333333
 40
0.4166666666666666
 40
0.4166666666666666
 40
0.4166666666666666
 40
0.4166666666666666
 40
0.4999999999999999
 40
0.4999999999999999
 40
0.4999999999999999
 40
0.4999999999999999
 40
0.5833333333333333
 40
0.5833333333333333
 40
0.5833333333333333
 40
0.5833333333333333
 40
0.6666666666666666
 40
0.6666666666666666
 40
0.6666666666666666
 40
0.6666666666666666
 40
0.75
 40
0.75
 40
0.75
 40
0.75
 40
0.8333333333333334
 40
0.8333333333333334
 40
0.8333333333333334
 40
0.8333333333333334
 40
0.9166666666666667
 40
0.9166666666666667
 40
0.9166666666666667
 40
0.9166666666666667
 40
1.0
 40
1.0
 40
1.0
 40
1.0
 10
0.4697795275590551
 20
1.652255905511811
 30
0.0
 10
0.4697795275590551
 20
1.652255905511811
 30
0.0
 10
0.4701614173228347
 20
2.406153543307087
 30
0.0
 10
0.4701614173228347
 20
2.406153543307087
 30
0.0
 10
0.4701614173228347
 20
2.406153543307087
 30
0.0
 10
0.4701614173228347
 20
2.406153543307087
 30
0.0
 10
0.4764763779527559
 20
2.399035433070866
 30
0.0
 10
0.4764763779527559
 20
2.399035433070866
 30
0.0
 10
0.4764763779527559
 20
2.399035433070866
 30
0.0
 10
0.4764763779527559
 20
2.399035433070866
 30
0.0
 10
0.4831889763779528
 20
2.392173228346457
 30
0.0
 10
0.4831889763779528
 20
2.392173228346457
 30
0.0
 10
0.4831889763779528
 20
2.392173228346457
 30
0.0
 10
0.4831889763779528
 20
2.392173228346457
 30
0.0
 10
0.4903188976377953
 20
2.385570866141733
 30
0.0
 10
0.4903188976377953
 20
2.385570866141733
 30
0.0
 10
0.4903188976377953
 20
2.385570866141733
 30
0.0
 10
0.4903188976377953
 20
2.385570866141733
 30
0.0
 10
0.4978543307086614
 20
2.379251968503937
 30
0.0
 10
0.4978543307086614
 20
2.379251968503937
 30
0.0
 10
0.4978543307086614
 20
2.379251968503937
 30
0.0
 10
0.4978543307086614
 20
2.379251968503937
 30
0.0
 10
0.5058031496062992
 20
2.373216535433071
 30
0.0
 10
0.5058031496062992
 20
2.373216535433071
 30
0.0
 10
0.5058031496062992
 20
2.373216535433071
 30
0.0
 10
0.5058031496062992
 20
2.373216535433071
 30
0.0
 10
0.5054212598425197
 20
1.619318897637795
 30
0.0
 10
0.5054212598425197
 20
1.619318897637795
 30
0.0
 10
0.5054212598425197
 20
1.619318897637795
 30
0.0
 10
0.5054212598425197
 20
1.619318897637795
 30
0.0
 10
0.4974724409448819
 20
1.625354330708662
 30
0.0
 10
0.4974724409448819
 20
1.625354330708662
 30
0.0
 10
0.4974724409448819
 20
1.625354330708662
 30
0.0
 10
0.4974724409448819
 20
1.625354330708662
 30
0.0
 10
0.4899370078740158
 20
1.631673228346457
 30
0.0
 10
0.4899370078740158
 20
1.631673228346457
 30
0.0
 10
0.4899370078740158
 20
1.631673228346457
 30
0.0
 10
0.4899370078740158
 20
1.631673228346457
 30
0.0
 10
0.4828070866141733
 20
1.638275590551181
 30
0.0
 10
0.4828070866141733
 20
1.638275590551181
 30
0.0
 10
0.4828070866141733
 20
1.638275590551181
 30
0.0
 10
0.4828070866141733
 20
1.638275590551181
 30
0.0
 10
0.4760944881889764
 20
1.645137795275591
 30
0.0
 10
0.4760944881889764
 20
1.645137795275591
 30
0.0
 10
0.4760944881889764
 20
1.645137795275591
 30
0.0
 10
0.4760944881889764
 20
1.645137795275591
 30
0.0
 10
0.4697795275590551
 20
1.652255905511811
 30
0.0
 10
0.4697795275590551
 20
1.652255905511811
 30
0.0
  0
SPLINE
  5
42
330
1F
100
AcDbEntity
  8
LAYER_1
 62
   252
100
AcDbSpline
210
0.0
220
0.0
230
1.0
 70
    11
 71
     3
 72
    44
 73
    40
 74
     0
 42
0.0000000001
 43
0.0000000001
 40
0.0
 40
0.0
 40
0.0
 40
0.0
 40
0.1
 40
0.1
 40
0.1
 40
0.1
 40
0.2
 40
0.2
 40
0.2
 40
0.2
 40
0.3
 40
0.3
 40
0.3
 40
0.3
 40
0.4
 40
0.4
 40
0.4
 40
0.4
 40
0.5
 40
0.5
 40
0.5
 40
0.5
 40
0.6
 40
0.6
 40
0.6
 40
0.6
 40
0.7
 40
0.7
 40
0.7
 40
0.7
 40
0.7999999999999999
 40
0.7999999999999999
 40
0.7999999999999999
 40
0.7999999999999999
 40
0.8999999999999999
 40
0.8999999999999999
 40
0.8999999999999999
 40
0.8999999999999999
 40
1.0
 40
1.0
 40
1.0
 40
1.0
 10
0.5054212598425197
 20
1.619318897637795
 30
0.0
 10
0.5054212598425197
 20
1.619318897637795
 30
0.0
 10
0.5058031496062992
 20
2.373216535433071
 30
0.0
 10
0.5058031496062992
 20
2.373216535433071
 30
0.0
 10
0.5058031496062992
 20
2.373216535433071
 30
0.0
 10
0.5058031496062992
 20
2.373216535433071
 30
0.0
 10
0.5141614173228347
 20
2.367488188976378
 30
0.0
 10
0.5141614173228347
 20
2.367488188976378
 30
0.0
 10
0.5141614173228347
 20
2.367488188976378
 30
0.0
 10
0.5141614173228347
 20
2.367488188976378
 30
0.0
 10
0.5229409448818898
 20
2.36205905511811
 30
0.0
 10
0.5229409448818898
 20
2.36205905511811
 30
0.0
 10
0.5229409448818898
 20
2.36205905511811
 30
0.0
 10
0.5229409448818898
 20
2.36205905511811
 30
0.0
 10
0.5321299212598425
 20
2.35696062992126
 30
0.0
 10
0.5321299212598425
 20
2.35696062992126
 30
0.0
 10
0.5321299212598425
 20
2.35696062992126
 30
0.0
 10
0.5321299212598425
 20
2.35696062992126
 30
0.0
 10
0.541736220472441
 20
2.352188976377953
 30
0.0
 10
0.541736220472441
 20
2.352188976377953
 30
0.0
 10
0.541736220472441
 20
2.352188976377953
 30
0.0
 10
0.541736220472441
 20
2.352188976377953
 30
0.0
 10
0.5413543307086615
 20
1.598291338582677
 30
0.0
 10
0.5413543307086615
 20
1.598291338582677
 30
0.0
 10
0.5413543307086615
 20
1.598291338582677
 30
0.0
 10
0.5413543307086615
 20
1.598291338582677
 30
0.0
 10
0.531748031496063
 20
1.603062992125984
 30
0.0
 10
0.531748031496063
 20
1.603062992125984
 30
0.0
 10
0.531748031496063
 20
1.603062992125984
 30
0.0
 10
0.531748031496063
 20
1.603062992125984
 30
0.0
 10
0.5225590551181103
 20
1.608161417322835
 30
0.0
 10
0.5225590551181103
 20
1.608161417322835
 30
0.0
 10
0.5225590551181103
 20
1.608161417322835
 30
0.0
 10
0.5225590551181103
 20
1.608161417322835
 30
0.0
 10
0.5137795275590551
 20
1.613590551181102
 30
0.0
 10
0.5137795275590551
 20
1.613590551181102
 30
0.0
 10
0.5137795275590551
 20
1.613590551181102
 30
0.0
 10
0.5137795275590551
 20
1.613590551181102
 30
0.0
 10
0.5054212598425197
 20
1.619318897637795
 30
0.0
 10
0.5054212598425197
 20
1.619318897637795
 30
0.0
  0
SPLINE
  5
43
330
1F
100
AcDbEntity
  8
LAYER_1
 62
   252
100
AcDbSpline
210
0.0
220
0.0
230
1.0
 70
    11
 71
     3
 72
    44
 73
    40
 74
     0
 42
0.0000000001
 43
0.0000000001
 40
0.0
 40
0.0
 40
0.0
 40
0.0
 40
0.1
 40
0.1
 40
0.1
 40
0.1
 40
0.2
 40
0.2
 40
0.2
 40
0.2
 40
0.3
 40
0.3
 40
0.3
 40
0.3
 40
0.4
 40
0.4
 40
0.4
 40
0.4
 40
0.5
 40
0.5
 40
0.5
 40
0.5
 40
0.6
 40
0.6
 40
0.6
 40
0.6
 40
0.7
 40
0.7
 40
0.7
 40
0.7
 40
0.7999999999999999
 40
0.7999999999999999
 40
0.7999999999999999
 40
0.7999999999999999
 40
0.8999999999999999
 40
0.8999999999999999
 40
0.8999999999999999
 40
0.8999999999999999
 40
1.0
 40
1.0
 40
1.0
 40
1.0
 10
0.5413543307086615
 20
1.598291338582677
 30
0.0
 10
0.5413543307086615
 20
1.598291338582677
 30
0.0
 10
0.541736220472441
 20
2.352188976377953
 30
0.0
 10
0.541736220472441
 20
2.352188976377953
 30
0.0
 10
0.541736220472441
 20
2.352188976377953
 30
0.0
 10
0.541736220472441
 20
2.352188976377953
 30
0.0
 10
0.5517559055118111
 20
2.347767716535433
 30
0.0
 10
0.5517559055118111
 20
2.347767716535433
 30
0.0
 10
0.5517559055118111
 20
2.347767716535433
 30
0.0
 10
0.5517559055118111
 20
2.347767716535433
 30
0.0
 10
0.5621968503937008
 20
2.343692913385827
 30
0.0
 10
0.5621968503937008
 20
2.343692913385827
 30
0.0
 10
0.5621968503937008
 20
2.343692913385827
 30
0.0
 10
0.5621968503937008
 20
2.343692913385827
 30
0.0
 10
0.5730511811023622
 20
2.339996062992126
 30
0.0
 10
0.5730511811023622
 20
2.339996062992126
 30
0.0
 10
0.5730511811023622
 20
2.339996062992126
 30
0.0
 10
0.5730511811023622
 20
2.339996062992126
 30
0.0
 10
0.5843307086614173
 20
2.336673228346457
 30
0.0
 10
0.5843307086614173
 20
2.336673228346457
 30
0.0
 10
0.5843307086614173
 20
2.336673228346457
 30
0.0
 10
0.5843307086614173
 20
2.336673228346457
 30
0.0
 10
0.5839488188976378
 20
1.582775590551181
 30
0.0
 10
0.5839488188976378
 20
1.582775590551181
 30
0.0
 10
0.5839488188976378
 20
1.582775590551181
 30
0.0
 10
0.5839488188976378
 20
1.582775590551181
 30
0.0
 10
0.5726692913385827
 20
1.58609842519685
 30
0.0
 10
0.5726692913385827
 20
1.58609842519685
 30
0.0
 10
0.5726692913385827
 20
1.58609842519685
 30
0.0
 10
0.5726692913385827
 20
1.58609842519685
 30
0.0
 10
0.5618149606299213
 20
1.589795275590551
 30
0.0
 10
0.5618149606299213
 20
1.589795275590551
 30
0.0
 10
0.5618149606299213
 20
1.589795275590551
 30
0.0
 10
0.5618149606299213
 20
1.589795275590551
 30
0.0
 10
0.5513740157480315
 20
1.593870078740158
 30
0.0
 10
0.5513740157480315
 20
1.593870078740158
 30
0.0
 10
0.5513740157480315
 20
1.593870078740158
 30
0.0
 10
0.5513740157480315
 20
1.593870078740158
 30
0.0
 10
0.5413543307086615
 20
1.598291338582677
 30
0.0
 10
0.5413543307086615
 20
1.598291338582677
 30
0.0
  0
SPLINE
  5
44
330
1F
100
AcDbEntity
  8
LAYER_1
 62
   252
100
AcDbSpline
210
0.0
220
0.0
230
1.0
 70
    11
 71
     3
 72
    28
 73
    24
 74
     0
 42
0.0000000001
 43
0.0000000001
 40
0.0
 40
0.0
 40
0.0
 40
0.0
 40
0.1666666666666667
 40
0.1666666666666667
 40
0.1666666666666667
 40
0.1666666666666667
 40
0.3333333333333333
 40
0.3333333333333333
 40
0.3333333333333333
 40
0.3333333333333333
 40
0.5
 40
0.5
 40
0.5
 40
0.5
 40
0.6666666666666666
 40
0.6666666666666666
 40
0.6666666666666666
 40
0.6666666666666666
 40
0.8333333333333333
 40
0.8333333333333333
 40
0.8333333333333333
 40
0.8333333333333333
 40
1.0
 40
1.0
 40
1.0
 40
1.0
 10
0.5839488188976378
 20
1.582775590551181
 30
0.0
 10
0.5839488188976378
 20
1.582775590551181
 30
0.0
 10
0.5843307086614173
 20
2.336673228346457
 30
0.0
 10
0.5843307086614173
 20
2.336673228346457
 30
0.0
 10
0.5843307086614173
 20
2.336673228346457
 30
0.0
 10
0.5843307086614173
 20
2.336673228346457
 30
0.0
 10
0.5960236220472441
 20
2.333744094488189
 30
0.0
 10
0.5960236220472441
 20
2.333744094488189
 30
0.0
 10
0.5960236220472441
 20
2.333744094488189
 30
0.0
 10
0.5960236220472441
 20
2.333744094488189
 30
0.0
 10
0.6192755905511811
 20
2.327681102362205
 30
0.0
 10
0.6192755905511811
 20
2.327681102362205
 30
0.0
 10
0.6192755905511811
 20
2.327681102362205
 30
0.0
 10
0.6192755905511811
 20
2.327681102362205
 30
0.0
 10
0.6188937007874016
 20
1.573783464566929
 30
0.0
 10
0.6188937007874016
 20
1.573783464566929
 30
0.0
 10
0.6188937007874016
 20
1.573783464566929
 30
0.0
 10
0.6188937007874016
 20
1.573783464566929
 30
0.0
 10
0.5956417322834646
 20
1.579846456692913
 30
0.0
 10
0.5956417322834646
 20
1.579846456692913
 30
0.0
 10
0.5956417322834646
 20
1.579846456692913
 30
0.0
 10
0.5956417322834646
 20
1.579846456692913
 30
0.0
 10
0.5839488188976378
 20
1.582775590551181
 30
0.0
 10
0.5839488188976378
 20
1.582775590551181
 30
0.0
  0
SPLINE
  5
45
330
1F
100
AcDbEntity
  8
LAYER_1
 62
   252
100
AcDbSpline
210
0.0
220
0.0
230
1.0
 70
    11
 71
     3
 72
    28
 73
    24
 74
     0
 42
0.0000000001
 43
0.0000000001
 40
0.0
 40
0.0
 40
0.0
 40
0.0
 40
0.1666666666666667
 40
0.1666666666666667
 40
0.1666666666666667
 40
0.1666666666666667
 40
0.3333333333333333
 40
0.3333333333333333
 40
0.3333333333333333
 40
0.3333333333333333
 40
0.5
 40
0.5
 40
0.5
 40
0.5
 40
0.6666666666666666
 40
0.6666666666666666
 40
0.6666666666666666
 40
0.6666666666666666
 40
0.8333333333333333
 40
0.8333333333333333
 40
0.8333333333333333
 40
0.8333333333333333
 40
1.0
 40
1.0
 40
1.0
 40
1.0
 10
0.6188937007874016
 20
1.573783464566929
 30
0.0
 10
0.6188937007874016
 20
1.573783464566929
 30
0.0
 10
0.6192755905511811
 20
2.327681102362205
 30
0.0
 10
0.6192755905511811
 20
2.327681102362205
 30
0.0
 10
0.6192755905511811
 20
2.327681102362205
 30
0.0
 10
0.6192755905511811
 20
2.327681102362205
 30
0.0
 10
0.6408307086614173
 20
2.320629921259843
 30
0.0
 10
0.6408307086614173
 20
2.320629921259843
 30
0.0
 10
0.6408307086614173
 20
2.320629921259843
 30
0.0
 10
0.6408307086614173
 20
2.320629921259843
 30
0.0
 10
0.6607440944881891
 20
2.312657480314961
 30
0.0
 10
0.6607440944881891
 20
2.312657480314961
 30
0.0
 10
0.6607440944881891
 20
2.312657480314961
 30
0.0
 10
0.6607440944881891
 20
2.312657480314961
 30
0.0
 10
0.6603622047244094
 20
1.558759842519685
 30
0.0
 10
0.6603622047244094
 20
1.558759842519685
 30
0.0
 10
0.6603622047244094
 20
1.558759842519685
 30
0.0
 10
0.6603622047244094
 20
1.558759842519685
 30
0.0
 10
0.6404488188976378
 20
1.566732283464567
 30
0.0
 10
0.6404488188976378
 20
1.566732283464567
 30
0.0
 10
0.6404488188976378
 20
1.566732283464567
 30
0.0
 10
0.6404488188976378
 20
1.566732283464567
 30
0.0
 10
0.6188937007874016
 20
1.573783464566929
 30
0.0
 10
0.6188937007874016
 20
1.573783464566929
 30
0.0
  0
SPLINE
  5
46
330
1F
100
AcDbEntity
  8
LAYER_1
 62
   252
100
AcDbSpline
210
0.0
220
0.0
230
1.0
 70
    11
 71
     3
 72
    28
 73
    24
 74
     0
 42
0.0000000001
 43
0.0000000001
 40
0.0
 40
0.0
 40
0.0
 40
0.0
 40
0.1666666666666667
 40
0.1666666666666667
 40
0.1666666666666667
 40
0.1666666666666667
 40
0.3333333333333333
 40
0.3333333333333333
 40
0.3333333333333333
 40
0.3333333333333333
 40
0.5
 40
0.5
 40
0.5
 40
0.5
 40
0.6666666666666666
 40
0.6666666666666666
 40
0.6666666666666666
 40
0.6666666666666666
 40
0.8333333333333333
 40
0.8333333333333333
 40
0.8333333333333333
 40
0.8333333333333333
 40
1.0
 40
1.0
 40
1.0
 40
1.0
 10
0.6603622047244094
 20
1.558759842519685
 30
0.0
 10
0.6603622047244094
 20
1.558759842519685
 30
0.0
 10
0.6607440944881891
 20
2.312657480314961
 30
0.0
 10
0.6607440944881891
 20
2.312657480314961
 30
0.0
 10
0.6607440944881891
 20
2.312657480314961
 30
0.0
 10
0.6607440944881891
 20
2.312657480314961
 30
0.0
 10
0.6790511811023622
 20
2.303854330708662
 30
0.0
 10
0.6790511811023622
 20
2.303854330708662
 30
0.0
 10
0.6790511811023622
 20
2.303854330708662
 30
0.0
 10
0.6790511811023622
 20
2.303854330708662
 30
0.0
 10
0.6958110236220473
 20
2.294283464566929
 30
0.0
 10
0.6958110236220473
 20
2.294283464566929
 30
0.0
 10
0.6958110236220473
 20
2.294283464566929
 30
0.0
 10
0.6958110236220473
 20
2.294283464566929
 30
0.0
 10
0.6954291338582678
 20
1.540385826771654
 30
0.0
 10
0.6954291338582678
 20
1.540385826771654
 30
0.0
 10
0.6954291338582678
 20
1.540385826771654
 30
0.0
 10
0.6954291338582678
 20
1.540385826771654
 30
0.0
 10
0.6786692913385827
 20
1.549956692913386
 30
0.0
 10
0.6786692913385827
 20
1.549956692913386
 30
0.0
 10
0.6786692913385827
 20
1.549956692913386
 30
0.0
 10
0.6786692913385827
 20
1.549956692913386
 30
0.0
 10
0.6603622047244094
 20
1.558759842519685
 30
0.0
 10
0.6603622047244094
 20
1.558759842519685
 30
0.0
  0
SPLINE
  5
47
330
1F
100
AcDbEntity
  8
LAYER_1
 62
   252
100
AcDbSpline
210
0.0
220
0.0
230
1.0
 70
    11
 71
     3
 72
    28
 73
    24
 74
     0
 42
0.0000000001
 43
0.0000000001
 40
0.0
 40
0.0
 40
0.0
 40
0.0
 40
0.1666666666666667
 40
0.1666666666666667
 40
0.1666666666666667
 40
0.1666666666666667
 40
0.3333333333333333
 40
0.3333333333333333
 40
0.3333333333333333
 40
0.3333333333333333
 40
0.5
 40
0.5
 40
0.5
 40
0.5
 40
0.6666666666666666
 40
0.6666666666666666
 40
0.6666666666666666
 40
0.6666666666666666
 40
0.8333333333333333
 40
0.8333333333333333
 40
0.8333333333333333
 40
0.8333333333333333
 40
1.0
 40
1.0
 40
1.0
 40
1.0
 10
0.6954291338582678
 20
1.540385826771654
 30
0.0
 10
0.6954291338582678
 20
1.540385826771654
 30
0.0
 10
0.6958110236220473
 20
2.294283464566929
 30
0.0
 10
0.6958110236220473
 20
2.294283464566929
 30
0.0
 10
0.6958110236220473
 20
2.294283464566929
 30
0.0
 10
0.6958110236220473
 20
2.294283464566929
 30
0.0
 10
0.7110551181102363
 20
2.284035433070866
 30
0.0
 10
0.7110551181102363
 20
2.284035433070866
 30
0.0
 10
0.7110551181102363
 20
2.284035433070866
 30
0.0
 10
0.7110551181102363
 20
2.284035433070866
 30
0.0
 10
0.7248425196850394
 20
2.273177165354331
 30
0.0
 10
0.7248425196850394
 20
2.273177165354331
 30
0.0
 10
0.7248425196850394
 20
2.273177165354331
 30
0.0
 10
0.7248425196850394
 20
2.273177165354331
 30
0.0
 10
0.7244606299212599
 20
1.519279527559055
 30
0.0
 10
0.7244606299212599
 20
1.519279527559055
 30
0.0
 10
0.7244606299212599
 20
1.519279527559055
 30
0.0
 10
0.7244606299212599
 20
1.519279527559055
 30
0.0
 10
0.7106732283464567
 20
1.530137795275591
 30
0.0
 10
0.7106732283464567
 20
1.530137795275591
 30
0.0
 10
0.7106732283464567
 20
1.530137795275591
 30
0.0
 10
0.7106732283464567
 20
1.530137795275591
 30
0.0
 10
0.6954291338582678
 20
1.540385826771654
 30
0.0
 10
0.6954291338582678
 20
1.540385826771654
 30
0.0
  0
SPLINE
  5
48
330
1F
100
AcDbEntity
  8
LAYER_1
 62
   252
100
AcDbSpline
210
0.0
220
0.0
230
1.0
 70
    11
 71
     3
 72
    36
 73
    32
 74
     0
 42
0.0000000001
 43
0.0000000001
 40
0.0
 40
0.0
 40
0.0
 40
0.0
 40
0.125
 40
0.125
 40
0.125
 40
0.125
 40
0.25
 40
0.25
 40
0.25
 40
0.25
 40
0.375
 40
0.375
 40
0.375
 40
0.375
 40
0.5
 40
0.5
 40
0.5
 40
0.5
 40
0.625
 40
0.625
 40
0.625
 40
0.625
 40
0.75
 40
0.75
 40
0.75
 40
0.75
 40
0.875
 40
0.875
 40
0.875
 40
0.875
 40
1.0
 40
1.0
 40
1.0
 40
1.0
 10
0.7244606299212599
 20
1.519279527559055
 30
0.0
 10
0.7244606299212599
 20
1.519279527559055
 30
0.0
 10
0.7248425196850394
 20
2.273177165354331
 30
0.0
 10
0.7248425196850394
 20
2.273177165354331
 30
0.0
 10
0.7248425196850394
 20
2.273177165354331
 30
0.0
 10
0.7248425196850394
 20
2.273177165354331
 30
0.0
 10
0.7372047244094488
 20
2.261799212598425
 30
0.0
 10
0.7372047244094488
 20
2.261799212598425
 30
0.0
 10
0.7372047244094488
 20
2.261799212598425
 30
0.0
 10
0.7372047244094488
 20
2.261799212598425
 30
0.0
 10
0.7482086614173229
 20
2.24996062992126
 30
0.0
 10
0.7482086614173229
 20
2.24996062992126
 30
0.0
 10
0.7482086614173229
 20
2.24996062992126
 30
0.0
 10
0.7482086614173229
 20
2.24996062992126
 30
0.0
 10
0.7578779527559055
 20
2.237751968503937
 30
0.0
 10
0.7578779527559055
 20
2.237751968503937
 30
0.0
 10
0.7578779527559055
 20
2.237751968503937
 30
0.0
 10
0.7578779527559055
 20
2.237751968503937
 30
0.0
 10
0.757496062992126
 20
1.483854330708662
 30
0.0
 10
0.757496062992126
 20
1.483854330708662
 30
0.0
 10
0.757496062992126
 20
1.483854330708662
 30
0.0
 10
0.757496062992126
 20
1.483854330708662
 30
0.0
 10
0.7478267716535434
 20
1.496062992125984
 30
0.0
 10
0.7478267716535434
 20
1.496062992125984
 30
0.0
 10
0.7478267716535434
 20
1.496062992125984
 30
0.0
 10
0.7478267716535434
 20
1.496062992125984
 30
0.0
 10
0.7368228346456693
 20
1.50790157480315
 30
0.0
 10
0.7368228346456693
 20
1.50790157480315
 30
0.0
 10
0.7368228346456693
 20
1.50790157480315
 30
0.0
 10
0.7368228346456693
 20
1.50790157480315
 30
0.0
 10
0.7244606299212599
 20
1.519279527559055
 30
0.0
 10
0.7244606299212599
 20
1.519279527559055
 30
0.0
  0
SPLINE
  5
49
330
1F
100
AcDbEntity
  8
LAYER_1
 62
   252
100
AcDbSpline
210
0.0
220
0.0
230
1.0
 70
    11
 71
     3
 72
    36
 73
    32
 74
     0
 42
0.0000000001
 43
0.0000000001
 40
0.0
 40
0.0
 40
0.0
 40
0.0
 40
0.125
 40
0.125
 40
0.125
 40
0.125
 40
0.25
 40
0.25
 40
0.25
 40
0.25
 40
0.375
 40
0.375
 40
0.375
 40
0.375
 40
0.5
 40
0.5
 40
0.5
 40
0.5
 40
0.625
 40
0.625
 40
0.625
 40
0.625
 40
0.75
 40
0.75
 40
0.75
 40
0.75
 40
0.875
 40
0.875
 40
0.875
 40
0.875
 40
1.0
 40
1.0
 40
1.0
 40
1.0
 10
0.757496062992126
 20
1.483854330708662
 30
0.0
 10
0.757496062992126
 20
1.483854330708662
 30
0.0
 10
0.7578779527559055
 20
2.237751968503937
 30
0.0
 10
0.7578779527559055
 20
2.237751968503937
 30
0.0
 10
0.7578779527559055
 20
2.237751968503937
 30
0.0
 10
0.7578779527559055
 20
2.237751968503937
 30
0.0
 10
0.7662716535433071
 20
2.225244094488189
 30
0.0
 10
0.7662716535433071
 20
2.225244094488189
 30
0.0
 10
0.7662716535433071
 20
2.225244094488189
 30
0.0
 10
0.7662716535433071
 20
2.225244094488189
 30
0.0
 10
0.7734251968503937
 20
2.212523622047244
 30
0.0
 10
0.7734251968503937
 20
2.212523622047244
 30
0.0
 10
0.7734251968503937
 20
2.212523622047244
 30
0.0
 10
0.7734251968503937
 20
2.212523622047244
 30
0.0
 10
0.7793976377952756
 20
2.199653543307087
 30
0.0
 10
0.7793976377952756
 20
2.199653543307087
 30
0.0
 10
0.7793976377952756
 20
2.199653543307087
 30
0.0
 10
0.7793976377952756
 20
2.199653543307087
 30
0.0
 10
0.7790157480314961
 20
1.445755905511811
 30
0.0
 10
0.7790157480314961
 20
1.445755905511811
 30
0.0
 10
0.7790157480314961
 20
1.445755905511811
 30
0.0
 10
0.7790157480314961
 20
1.445755905511811
 30
0.0
 10
0.7730433070866142
 20
1.458625984251969
 30
0.0
 10
0.7730433070866142
 20
1.458625984251969
 30
0.0
 10
0.7730433070866142
 20
1.458625984251969
 30
0.0
 10
0.7730433070866142
 20
1.458625984251969
 30
0.0
 10
0.7658897637795276
 20
1.471346456692914
 30
0.0
 10
0.7658897637795276
 20
1.471346456692914
 30
0.0
 10
0.7658897637795276
 20
1.471346456692914
 30
0.0
 10
0.7658897637795276
 20
1.471346456692914
 30
0.0
 10
0.757496062992126
 20
1.483854330708662
 30
0.0
 10
0.757496062992126
 20
1.483854330708662
 30
0.0
  0
SPLINE
  5
4A
330
1F
100
AcDbEntity
  8
LAYER_1
 62
   252
100
AcDbSpline
210
0.0
220
0.0
230
1.0
 70
    11
 71
     3
 72
    36
 73
    32
 74
     0
 42
0.0000000001
 43
0.0000000001
 40
0.0
 40
0.0
 40
0.0
 40
0.0
 40
0.125
 40
0.125
 40
0.125
 40
0.125
 40
0.25
 40
0.25
 40
0.25
 40
0.25
 40
0.375
 40
0.375
 40
0.375
 40
0.375
 40
0.5
 40
0.5
 40
0.5
 40
0.5
 40
0.625
 40
0.625
 40
0.625
 40
0.625
 40
0.75
 40
0.75
 40
0.75
 40
0.75
 40
0.875
 40
0.875
 40
0.875
 40
0.875
 40
1.0
 40
1.0
 40
1.0
 40
1.0
 10
0.7790157480314961
 20
1.445755905511811
 30
0.0
 10
0.7790157480314961
 20
1.445755905511811
 30
0.0
 10
0.7793976377952756
 20
2.199653543307087
 30
0.0
 10
0.7793976377952756
 20
2.199653543307087
 30
0.0
 10
0.7793976377952756
 20
2.199653543307087
 30
0.0
 10
0.7793976377952756
 20
2.199653543307087
 30
0.0
 10
0.784220472440945
 20
2.186724409448819
 30
0.0
 10
0.784220472440945
 20
2.186724409448819
 30
0.0
 10
0.784220472440945
 20
2.186724409448819
 30
0.0
 10
0.784220472440945
 20
2.186724409448819
 30
0.0
 10
0.7879527559055118
 20
2.173807086614173
 30
0.0
 10
0.7879527559055118
 20
2.173807086614173
 30
0.0
 10
0.7879527559055118
 20
2.173807086614173
 30
0.0
 10
0.7879527559055118
 20
2.173807086614173
 30
0.0
 10
0.7906220472440946
 20
2.160988188976378
 30
0.0
 10
0.7906220472440946
 20
2.160988188976378
 30
0.0
 10
0.7906220472440946
 20
2.160988188976378
 30
0.0
 10
0.7906220472440946
 20
2.160988188976378
 30
0.0
 10
0.790240157480315
 20
1.407090551181103
 30
0.0
 10
0.790240157480315
 20
1.407090551181103
 30
0.0
 10
0.790240157480315
 20
1.407090551181103
 30
0.0
 10
0.790240157480315
 20
1.407090551181103
 30
0.0
 10
0.7875708661417323
 20
1.419909448818898
 30
0.0
 10
0.7875708661417323
 20
1.419909448818898
 30
0.0
 10
0.7875708661417323
 20
1.419909448818898
 30
0.0
 10
0.7875708661417323
 20
1.419909448818898
 30
0.0
 10
0.7838385826771653
 20
1.432826771653543
 30
0.0
 10
0.7838385826771653
 20
1.432826771653543
 30
0.0
 10
0.7838385826771653
 20
1.432826771653543
 30
0.0
 10
0.7838385826771653
 20
1.432826771653543
 30
0.0
 10
0.7790157480314961
 20
1.445755905511811
 30
0.0
 10
0.7790157480314961
 20
1.445755905511811
 30
0.0
  0
SPLINE
  5
4B
330
1F
100
AcDbEntity
  8
LAYER_1
 62
   252
100
AcDbSpline
210
0.0
220
0.0
230
1.0
 70
    11
 71
     3
 72
    28
 73
    24
 74
     0
 42
0.0000000001
 43
0.0000000001
 40
0.0
 40
0.0
 40
0.0
 40
0.0
 40
0.1666666666666667
 40
0.1666666666666667
 40
0.1666666666666667
 40
0.1666666666666667
 40
0.3333333333333333
 40
0.3333333333333333
 40
0.3333333333333333
 40
0.3333333333333333
 40
0.5
 40
0.5
 40
0.5
 40
0.5
 40
0.6666666666666666
 40
0.6666666666666666
 40
0.6666666666666666
 40
0.6666666666666666
 40
0.8333333333333333
 40
0.8333333333333333
 40
0.8333333333333333
 40
0.8333333333333333
 40
1.0
 40
1.0
 40
1.0
 40
1.0
 10
0.790240157480315
 20
1.407090551181103
 30
0.0
 10
0.790240157480315
 20
1.407090551181103
 30
0.0
 10
0.7906220472440946
 20
2.160988188976378
 30
0.0
 10
0.7906220472440946
 20
2.160988188976378
 30
0.0
 10
0.7906220472440946
 20
2.160988188976378
 30
0.0
 10
0.7906220472440946
 20
2.160988188976378
 30
0.0
 10
0.7922992125984252
 20
2.148326771653543
 30
0.0
 10
0.7922992125984252
 20
2.148326771653543
 30
0.0
 10
0.7922992125984252
 20
2.148326771653543
 30
0.0
 10
0.7922992125984252
 20
2.148326771653543
 30
0.0
 10
0.793007874015748
 20
2.135913385826772
 30
0.0
 10
0.793007874015748
 20
2.135913385826772
 30
0.0
 10
0.793007874015748
 20
2.135913385826772
 30
0.0
 10
0.793007874015748
 20
2.135913385826772
 30
0.0
 10
0.7926259842519685
 20
1.382015748031496
 30
0.0
 10
0.7926259842519685
 20
1.382015748031496
 30
0.0
 10
0.7926259842519685
 20
1.382015748031496
 30
0.0
 10
0.7926259842519685
 20
1.382015748031496
 30
0.0
 10
0.7919173228346457
 20
1.394429133858268
 30
0.0
 10
0.7919173228346457
 20
1.394429133858268
 30
0.0
 10
0.7919173228346457
 20
1.394429133858268
 30
0.0
 10
0.7919173228346457
 20
1.394429133858268
 30
0.0
 10
0.790240157480315
 20
1.407090551181103
 30
0.0
 10
0.790240157480315
 20
1.407090551181103
 30
0.0
  0
SPLINE
  5
4C
330
1F
100
AcDbEntity
  8
LAYER_1
 62
   250
100
AcDbSpline
210
0.0
220
0.0
230
1.0
 70
    11
 71
     3
 72
   388
 73
   384
 74
     0
 42
0.0000000001
 43
0.0000000001
 40
0.0
 40
0.0
 40
0.0
 40
0.0
 40
0.0104166666666667
 40
0.0104166666666667
 40
0.0104166666666667
 40
0.0104166666666667
 40
0.0208333333333333
 40
0.0208333333333333
 40
0.0208333333333333
 40
0.0208333333333333
 40
0.03125
 40
0.03125
 40
0.03125
 40
0.03125
 40
0.0416666666666667
 40
0.0416666666666667
 40
0.0416666666666667
 40
0.0416666666666667
 40
0.0520833333333333
 40
0.0520833333333333
 40
0.0520833333333333
 40
0.0520833333333333
 40
0.0625
 40
0.0625
 40
0.0625
 40
0.0625
 40
0.0729166666666667
 40
0.0729166666666667
 40
0.0729166666666667
 40
0.0729166666666667
 40
0.0833333333333333
 40
0.0833333333333333
 40
0.0833333333333333
 40
0.0833333333333333
 40
0.09375
 40
0.09375
 40
0.09375
 40
0.09375
 40
0.1041666666666667
 40
0.1041666666666667
 40
0.1041666666666667
 40
0.1041666666666667
 40
0.1145833333333333
 40
0.1145833333333333
 40
0.1145833333333333
 40
0.1145833333333333
 40
0.125
 40
0.125
 40
0.125
 40
0.125
 40
0.1354166666666667
 40
0.1354166666666667
 40
0.1354166666666667
 40
0.1354166666666667
 40
0.1458333333333333
 40
0.1458333333333333
 40
0.1458333333333333
 40
0.1458333333333333
 40
0.15625
 40
0.15625
 40
0.15625
 40
0.15625
 40
0.1666666666666666
 40
0.1666666666666666
 40
0.1666666666666666
 40
0.1666666666666666
 40
0.1770833333333333
 40
0.1770833333333333
 40
0.1770833333333333
 40
0.1770833333333333
 40
0.1874999999999999
 40
0.1874999999999999
 40
0.1874999999999999
 40
0.1874999999999999
 40
0.1979166666666666
 40
0.1979166666666666
 40
0.1979166666666666
 40
0.1979166666666666
 40
0.2083333333333333
 40
0.2083333333333333
 40
0.2083333333333333
 40
0.2083333333333333
 40
0.2187499999999999
 40
0.2187499999999999
 40
0.2187499999999999
 40
0.2187499999999999
 40
0.2291666666666666
 40
0.2291666666666666
 40
0.2291666666666666
 40
0.2291666666666666
 40
0.2395833333333332
 40
0.2395833333333332
 40
0.2395833333333332
 40
0.2395833333333332
 40
0.2499999999999999
 40
0.2499999999999999
 40
0.2499999999999999
 40
0.2499999999999999
 40
0.2604166666666666
 40
0.2604166666666666
 40
0.2604166666666666
 40
0.2604166666666666
 40
0.2708333333333333
 40
0.2708333333333333
 40
0.2708333333333333
 40
0.2708333333333333
 40
0.2812499999999999
 40
0.2812499999999999
 40
0.2812499999999999
 40
0.2812499999999999
 40
0.2916666666666666
 40
0.2916666666666666
 40
0.2916666666666666
 40
0.2916666666666666
 40
0.3020833333333333
 40
0.3020833333333333
 40
0.3020833333333333
 40
0.3020833333333333
 40
0.3125
 40
0.3125
 40
0.3125
 40
0.3125
 40
0.3229166666666667
 40
0.3229166666666667
 40
0.3229166666666667
 40
0.3229166666666667
 40
0.3333333333333334
 40
0.3333333333333334
 40
0.3333333333333334
 40
0.3333333333333334
 40
0.3437500000000001
 40
0.3437500000000001
 40
0.3437500000000001
 40
0.3437500000000001
 40
0.3541666666666667
 40
0.3541666666666667
 40
0.3541666666666667
 40
0.3541666666666667
 40
0.3645833333333334
 40
0.3645833333333334
 40
0.3645833333333334
 40
0.3645833333333334
 40
0.3750000000000001
 40
0.3750000000000001
 40
0.3750000000000001
 40
0.3750000000000001
 40
0.3854166666666668
 40
0.3854166666666668
 40
0.3854166666666668
 40
0.3854166666666668
 40
0.3958333333333335
 40
0.3958333333333335
 40
0.3958333333333335
 40
0.3958333333333335
 40
0.4062500000000002
 40
0.4062500000000002
 40
0.4062500000000002
 40
0.4062500000000002
 40
0.4166666666666669
 40
0.4166666666666669
 40
0.4166666666666669
 40
0.4166666666666669
 40
0.4270833333333335
 40
0.4270833333333335
 40
0.4270833333333335
 40
0.4270833333333335
 40
0.4375000000000002
 40
0.4375000000000002
 40
0.4375000000000002
 40
0.4375000000000002
 40
0.4479166666666669
 40
0.4479166666666669
 40
0.4479166666666669
 40
0.4479166666666669
 40
0.4583333333333336
 40
0.4583333333333336
 40
0.4583333333333336
 40
0.4583333333333336
 40
0.4687500000000003
 40
0.4687500000000003
 40
0.4687500000000003
 40
0.4687500000000003
 40
0.479166666666667
 40
0.479166666666667
 40
0.479166666666667
 40
0.479166666666667
 40
0.4895833333333337
 40
0.4895833333333337
 40
0.4895833333333337
 40
0.4895833333333337
 40
0.5000000000000003
 40
0.5000000000000003
 40
0.5000000000000003
 40
0.5000000000000003
 40
0.510416666666667
 40
0.510416666666667
 40
0.510416666666667
 40
0.510416666666667
 40
0.5208333333333336
 40
0.5208333333333336
 40
0.5208333333333336
 40
0.5208333333333336
 40
0.5312500000000002
 40
0.5312500000000002
 40
0.5312500000000002
 40
0.5312500000000002
 40
0.5416666666666669
 40
0.5416666666666669
 40
0.5416666666666669
 40
0.5416666666666669
 40
0.5520833333333335
 40
0.5520833333333335
 40
0.5520833333333335
 40
0.5520833333333335
 40
0.5625000000000001
 40
0.5625000000000001
 40
0.5625000000000001
 40
0.5625000000000001
 40
0.5729166666666667
 40
0.5729166666666667
 40
0.5729166666666667
 40
0.5729166666666667
 40
0.5833333333333334
 40
0.5833333333333334
 40
0.5833333333333334
 40
0.5833333333333334
 40
0.59375
 40
0.59375
 40
0.59375
 40
0.59375
 40
0.6041666666666666
 40
0.6041666666666666
 40
0.6041666666666666
 40
0.6041666666666666
 40
0.6145833333333333
 40
0.6145833333333333
 40
0.6145833333333333
 40
0.6145833333333333
 40
0.6249999999999999
 40
0.6249999999999999
 40
0.6249999999999999
 40
0.6249999999999999
 40
0.6354166666666665
 40
0.6354166666666665
 40
0.6354166666666665
 40
0.6354166666666665
 40
0.6458333333333332
 40
0.6458333333333332
 40
0.6458333333333332
 40
0.6458333333333332
 40
0.6562499999999998
 40
0.6562499999999998
 40
0.6562499999999998
 40
0.6562499999999998
 40
0.6666666666666664
 40
0.6666666666666664
 40
0.6666666666666664
 40
0.6666666666666664
 40
0.677083333333333
 40
0.677083333333333
 40
0.677083333333333
 40
0.677083333333333
 40
0.6874999999999997
 40
0.6874999999999997
 40
0.6874999999999997
 40
0.6874999999999997
 40
0.6979166666666663
 40
0.6979166666666663
 40
0.6979166666666663
 40
0.6979166666666663
 40
0.7083333333333329
 40
0.7083333333333329
 40
0.7083333333333329
 40
0.7083333333333329
 40
0.7187499999999996
 40
0.7187499999999996
 40
0.7187499999999996
 40
0.7187499999999996
 40
0.7291666666666662
 40
0.7291666666666662
 40
0.7291666666666662
 40
0.7291666666666662
 40
0.7395833333333328
 40
0.7395833333333328
 40
0.7395833333333328
 40
0.7395833333333328
 40
0.7499999999999994
 40
0.7499999999999994
 40
0.7499999999999994
 40
0.7499999999999994
 40
0.7604166666666661
 40
0.7604166666666661
 40
0.7604166666666661
 40
0.7604166666666661
 40
0.7708333333333327
 40
0.7708333333333327
 40
0.7708333333333327
 40
0.7708333333333327
 40
0.7812499999999993
 40
0.7812499999999993
 40
0.7812499999999993
 40
0.7812499999999993
 40
0.791666666666666
 40
0.791666666666666
 40
0.791666666666666
 40
0.791666666666666
 40
0.8020833333333326
 40
0.8020833333333326
 40
0.8020833333333326
 40
0.8020833333333326
 40
0.8124999999999992
 40
0.8124999999999992
 40
0.8124999999999992
 40
0.8124999999999992
 40
0.8229166666666659
 40
0.8229166666666659
 40
0.8229166666666659
 40
0.8229166666666659
 40
0.8333333333333325
 40
0.8333333333333325
 40
0.8333333333333325
 40
0.8333333333333325
 40
0.8437499999999991
 40
0.8437499999999991
 40
0.8437499999999991
 40
0.8437499999999991
 40
0.8541666666666657
 40
0.8541666666666657
 40
0.8541666666666657
 40
0.8541666666666657
 40
0.8645833333333324
 40
0.8645833333333324
 40
0.8645833333333324
 40
0.8645833333333324
 40
0.874999999999999
 40
0.874999999999999
 40
0.874999999999999
 40
0.874999999999999
 40
0.8854166666666656
 40
0.8854166666666656
 40
0.8854166666666656
 40
0.8854166666666656
 40
0.8958333333333323
 40
0.8958333333333323
 40
0.8958333333333323
 40
0.8958333333333323
 40
0.9062499999999989
 40
0.9062499999999989
 40
0.9062499999999989
 40
0.9062499999999989
 40
0.9166666666666655
 40
0.9166666666666655
 40
0.9166666666666655
 40
0.9166666666666655
 40
0.9270833333333322
 40
0.9270833333333322
 40
0.9270833333333322
 40
0.9270833333333322
 40
0.9374999999999988
 40
0.9374999999999988
 40
0.9374999999999988
 40
0.9374999999999988
 40
0.9479166666666654
 40
0.9479166666666654
 40
0.9479166666666654
 40
0.9479166666666654
 40
0.958333333333332
 40
0.958333333333332
 40
0.958333333333332
 40
0.958333333333332
 40
0.9687499999999987
 40
0.9687499999999987
 40
0.9687499999999987
 40
0.9687499999999987
 40
0.9791666666666653
 40
0.9791666666666653
 40
0.9791666666666653
 40
0.9791666666666653
 40
0.9895833333333319
 40
0.9895833333333319
 40
0.9895833333333319
 40
0.9895833333333319
 40
1.0
 40
1.0
 40
1.0
 40
1.0
 10
0.4234763779527559
 20
1.781677165354331
 30
0.0
 10
0.4234763779527559
 20
1.781677165354331
 30
0.0
 10
0.4238582677165355
 20
2.535574803149606
 30
0.0
 10
0.4238582677165355
 20
2.535574803149606
 30
0.0
 10
0.4238582677165355
 20
2.535574803149606
 30
0.0
 10
0.4238582677165355
 20
2.535574803149606
 30
0.0
 10
0.4241614173228347
 20
2.526023622047244
 30
0.0
 10
0.4241614173228347
 20
2.526023622047244
 30
0.0
 10
0.4241614173228347
 20
2.526023622047244
 30
0.0
 10
0.4241614173228347
 20
2.526023622047244
 30
0.0
 10
0.4248622047244094
 20
2.516551181102362
 30
0.0
 10
0.4248622047244094
 20
2.516551181102362
 30
0.0
 10
0.4248622047244094
 20
2.516551181102362
 30
0.0
 10
0.4248622047244094
 20
2.516551181102362
 30
0.0
 10
0.4259488188976378
 20
2.507173228346457
 30
0.0
 10
0.4259488188976378
 20
2.507173228346457
 30
0.0
 10
0.4259488188976378
 20
2.507173228346457
 30
0.0
 10
0.4259488188976378
 20
2.507173228346457
 30
0.0
 10
0.4274330708661417
 20
2.49790157480315
 30
0.0
 10
0.4274330708661417
 20
2.49790157480315
 30
0.0
 10
0.4274330708661417
 20
2.49790157480315
 30
0.0
 10
0.4274330708661417
 20
2.49790157480315
 30
0.0
 10
0.4293110236220473
 20
2.488751968503937
 30
0.0
 10
0.4293110236220473
 20
2.488751968503937
 30
0.0
 10
0.4293110236220473
 20
2.488751968503937
 30
0.0
 10
0.4293110236220473
 20
2.488751968503937
 30
0.0
 10
0.4315944881889764
 20
2.479720472440945
 30
0.0
 10
0.4315944881889764
 20
2.479720472440945
 30
0.0
 10
0.4315944881889764
 20
2.479720472440945
 30
0.0
 10
0.4315944881889764
 20
2.479720472440945
 30
0.0
 10
0.4342716535433071
 20
2.470838582677165
 30
0.0
 10
0.4342716535433071
 20
2.470838582677165
 30
0.0
 10
0.4342716535433071
 20
2.470838582677165
 30
0.0
 10
0.4342716535433071
 20
2.470838582677165
 30
0.0
 10
0.4373543307086614
 20
2.462102362204725
 30
0.0
 10
0.4373543307086614
 20
2.462102362204725
 30
0.0
 10
0.4373543307086614
 20
2.462102362204725
 30
0.0
 10
0.4373543307086614
 20
2.462102362204725
 30
0.0
 10
0.4408267716535433
 20
2.453531496062992
 30
0.0
 10
0.4408267716535433
 20
2.453531496062992
 30
0.0
 10
0.4408267716535433
 20
2.453531496062992
 30
0.0
 10
0.4408267716535433
 20
2.453531496062992
 30
0.0
 10
0.4447125984251969
 20
2.445129921259843
 30
0.0
 10
0.4447125984251969
 20
2.445129921259843
 30
0.0
 10
0.4447125984251969
 20
2.445129921259843
 30
0.0
 10
0.4447125984251969
 20
2.445129921259843
 30
0.0
 10
0.448988188976378
 20
2.43692125984252
 30
0.0
 10
0.448988188976378
 20
2.43692125984252
 30
0.0
 10
0.448988188976378
 20
2.43692125984252
 30
0.0
 10
0.448988188976378
 20
2.43692125984252
 30
0.0
 10
0.4536771653543307
 20
2.428905511811024
 30
0.0
 10
0.4536771653543307
 20
2.428905511811024
 30
0.0
 10
0.4536771653543307
 20
2.428905511811024
 30
0.0
 10
0.4536771653543307
 20
2.428905511811024
 30
0.0
 10
0.4587598425196851
 20
2.421102362204724
 30
0.0
 10
0.4587598425196851
 20
2.421102362204724
 30
0.0
 10
0.4587598425196851
 20
2.421102362204724
 30
0.0
 10
0.4587598425196851
 20
2.421102362204724
 30
0.0
 10
0.4642637795275591
 20
2.413511811023622
 30
0.0
 10
0.4642637795275591
 20
2.413511811023622
 30
0.0
 10
0.4642637795275591
 20
2.413511811023622
 30
0.0
 10
0.4642637795275591
 20
2.413511811023622
 30
0.0
 10
0.4701614173228347
 20
2.406153543307087
 30
0.0
 10
0.4701614173228347
 20
2.406153543307087
 30
0.0
 10
0.4701614173228347
 20
2.406153543307087
 30
0.0
 10
0.4701614173228347
 20
2.406153543307087
 30
0.0
 10
0.4764763779527559
 20
2.399035433070866
 30
0.0
 10
0.4764763779527559
 20
2.399035433070866
 30
0.0
 10
0.4764763779527559
 20
2.399035433070866
 30
0.0
 10
0.4764763779527559
 20
2.399035433070866
 30
0.0
 10
0.4831889763779528
 20
2.392173228346457
 30
0.0
 10
0.4831889763779528
 20
2.392173228346457
 30
0.0
 10
0.4831889763779528
 20
2.392173228346457
 30
0.0
 10
0.4831889763779528
 20
2.392173228346457
 30
0.0
 10
0.4903188976377953
 20
2.385570866141733
 30
0.0
 10
0.4903188976377953
 20
2.385570866141733
 30
0.0
 10
0.4903188976377953
 20
2.385570866141733
 30
0.0
 10
0.4903188976377953
 20
2.385570866141733
 30
0.0
 10
0.4978543307086614
 20
2.379251968503937
 30
0.0
 10
0.4978543307086614
 20
2.379251968503937
 30
0.0
 10
0.4978543307086614
 20
2.379251968503937
 30
0.0
 10
0.4978543307086614
 20
2.379251968503937
 30
0.0
 10
0.5058031496062992
 20
2.373216535433071
 30
0.0
 10
0.5058031496062992
 20
2.373216535433071
 30
0.0
 10
0.5058031496062992
 20
2.373216535433071
 30
0.0
 10
0.5058031496062992
 20
2.373216535433071
 30
0.0
 10
0.5141614173228347
 20
2.367488188976378
 30
0.0
 10
0.5141614173228347
 20
2.367488188976378
 30
0.0
 10
0.5141614173228347
 20
2.367488188976378
 30
0.0
 10
0.5141614173228347
 20
2.367488188976378
 30
0.0
 10
0.5229409448818898
 20
2.36205905511811
 30
0.0
 10
0.5229409448818898
 20
2.36205905511811
 30
0.0
 10
0.5229409448818898
 20
2.36205905511811
 30
0.0
 10
0.5229409448818898
 20
2.36205905511811
 30
0.0
 10
0.5321299212598425
 20
2.35696062992126
 30
0.0
 10
0.5321299212598425
 20
2.35696062992126
 30
0.0
 10
0.5321299212598425
 20
2.35696062992126
 30
0.0
 10
0.5321299212598425
 20
2.35696062992126
 30
0.0
 10
0.541736220472441
 20
2.352188976377953
 30
0.0
 10
0.541736220472441
 20
2.352188976377953
 30
0.0
 10
0.541736220472441
 20
2.352188976377953
 30
0.0
 10
0.541736220472441
 20
2.352188976377953
 30
0.0
 10
0.5517559055118111
 20
2.347767716535433
 30
0.0
 10
0.5517559055118111
 20
2.347767716535433
 30
0.0
 10
0.5517559055118111
 20
2.347767716535433
 30
0.0
 10
0.5517559055118111
 20
2.347767716535433
 30
0.0
 10
0.5621968503937008
 20
2.343692913385827
 30
0.0
 10
0.5621968503937008
 20
2.343692913385827
 30
0.0
 10
0.5621968503937008
 20
2.343692913385827
 30
0.0
 10
0.5621968503937008
 20
2.343692913385827
 30
0.0
 10
0.5730511811023622
 20
2.339996062992126
 30
0.0
 10
0.5730511811023622
 20
2.339996062992126
 30
0.0
 10
0.5730511811023622
 20
2.339996062992126
 30
0.0
 10
0.5730511811023622
 20
2.339996062992126
 30
0.0
 10
0.5843307086614173
 20
2.336673228346457
 30
0.0
 10
0.5843307086614173
 20
2.336673228346457
 30
0.0
 10
0.5843307086614173
 20
2.336673228346457
 30
0.0
 10
0.5843307086614173
 20
2.336673228346457
 30
0.0
 10
0.5960236220472441
 20
2.333744094488189
 30
0.0
 10
0.5960236220472441
 20
2.333744094488189
 30
0.0
 10
0.5960236220472441
 20
2.333744094488189
 30
0.0
 10
0.5960236220472441
 20
2.333744094488189
 30
0.0
 10
0.6192755905511811
 20
2.327681102362205
 30
0.0
 10
0.6192755905511811
 20
2.327681102362205
 30
0.0
 10
0.6192755905511811
 20
2.327681102362205
 30
0.0
 10
0.6192755905511811
 20
2.327681102362205
 30
0.0
 10
0.6408307086614173
 20
2.320629921259843
 30
0.0
 10
0.6408307086614173
 20
2.320629921259843
 30
0.0
 10
0.6408307086614173
 20
2.320629921259843
 30
0.0
 10
0.6408307086614173
 20
2.320629921259843
 30
0.0
 10
0.6607440944881891
 20
2.312657480314961
 30
0.0
 10
0.6607440944881891
 20
2.312657480314961
 30
0.0
 10
0.6607440944881891
 20
2.312657480314961
 30
0.0
 10
0.6607440944881891
 20
2.312657480314961
 30
0.0
 10
0.6790511811023622
 20
2.303854330708662
 30
0.0
 10
0.6790511811023622
 20
2.303854330708662
 30
0.0
 10
0.6790511811023622
 20
2.303854330708662
 30
0.0
 10
0.6790511811023622
 20
2.303854330708662
 30
0.0
 10
0.6958110236220473
 20
2.294283464566929
 30
0.0
 10
0.6958110236220473
 20
2.294283464566929
 30
0.0
 10
0.6958110236220473
 20
2.294283464566929
 30
0.0
 10
0.6958110236220473
 20
2.294283464566929
 30
0.0
 10
0.7110551181102363
 20
2.284035433070866
 30
0.0
 10
0.7110551181102363
 20
2.284035433070866
 30
0.0
 10
0.7110551181102363
 20
2.284035433070866
 30
0.0
 10
0.7110551181102363
 20
2.284035433070866
 30
0.0
 10
0.7248425196850394
 20
2.273177165354331
 30
0.0
 10
0.7248425196850394
 20
2.273177165354331
 30
0.0
 10
0.7248425196850394
 20
2.273177165354331
 30
0.0
 10
0.7248425196850394
 20
2.273177165354331
 30
0.0
 10
0.7372047244094488
 20
2.261799212598425
 30
0.0
 10
0.7372047244094488
 20
2.261799212598425
 30
0.0
 10
0.7372047244094488
 20
2.261799212598425
 30
0.0
 10
0.7372047244094488
 20
2.261799212598425
 30
0.0
 10
0.7482086614173229
 20
2.24996062992126
 30
0.0
 10
0.7482086614173229
 20
2.24996062992126
 30
0.0
 10
0.7482086614173229
 20
2.24996062992126
 30
0.0
 10
0.7482086614173229
 20
2.24996062992126
 30
0.0
 10
0.7578779527559055
 20
2.237751968503937
 30
0.0
 10
0.7578779527559055
 20
2.237751968503937
 30
0.0
 10
0.7578779527559055
 20
2.237751968503937
 30
0.0
 10
0.7578779527559055
 20
2.237751968503937
 30
0.0
 10
0.7662716535433071
 20
2.225244094488189
 30
0.0
 10
0.7662716535433071
 20
2.225244094488189
 30
0.0
 10
0.7662716535433071
 20
2.225244094488189
 30
0.0
 10
0.7662716535433071
 20
2.225244094488189
 30
0.0
 10
0.7734251968503937
 20
2.212523622047244
 30
0.0
 10
0.7734251968503937
 20
2.212523622047244
 30
0.0
 10
0.7734251968503937
 20
2.212523622047244
 30
0.0
 10
0.7734251968503937
 20
2.212523622047244
 30
0.0
 10
0.7793976377952756
 20
2.199653543307087
 30
0.0
 10
0.7793976377952756
 20
2.199653543307087
 30
0.0
 10
0.7793976377952756
 20
2.199653543307087
 30
0.0
 10
0.7793976377952756
 20
2.199653543307087
 30
0.0
 10
0.784220472440945
 20
2.186724409448819
 30
0.0
 10
0.784220472440945
 20
2.186724409448819
 30
0.0
 10
0.784220472440945
 20
2.186724409448819
 30
0.0
 10
0.784220472440945
 20
2.186724409448819
 30
0.0
 10
0.7879527559055118
 20
2.173807086614173
 30
0.0
 10
0.7879527559055118
 20
2.173807086614173
 30
0.0
 10
0.7879527559055118
 20
2.173807086614173
 30
0.0
 10
0.7879527559055118
 20
2.173807086614173
 30
0.0
 10
0.7906220472440946
 20
2.160988188976378
 30
0.0
 10
0.7906220472440946
 20
2.160988188976378
 30
0.0
 10
0.7906220472440946
 20
2.160988188976378
 30
0.0
 10
0.7906220472440946
 20
2.160988188976378
 30
0.0
 10
0.7922992125984252
 20
2.148326771653543
 30
0.0
 10
0.7922992125984252
 20
2.148326771653543
 30
0.0
 10
0.7922992125984252
 20
2.148326771653543
 30
0.0
 10
0.7922992125984252
 20
2.148326771653543
 30
0.0
 10
0.793007874015748
 20
2.135913385826772
 30
0.0
 10
0.793007874015748
 20
2.135913385826772
 30
0.0
 10
0.793007874015748
 20
2.135913385826772
 30
0.0
 10
0.793007874015748
 20
2.135913385826772
 30
0.0
 10
0.7926259842519685
 20
1.382015748031496
 30
0.0
 10
0.7926259842519685
 20
1.382015748031496
 30
0.0
 10
0.7926259842519685
 20
1.382015748031496
 30
0.0
 10
0.7926259842519685
 20
1.382015748031496
 30
0.0
 10
0.7919173228346457
 20
1.394429133858268
 30
0.0
 10
0.7919173228346457
 20
1.394429133858268
 30
0.0
 10
0.7919173228346457
 20
1.394429133858268
 30
0.0
 10
0.7919173228346457
 20
1.394429133858268
 30
0.0
 10
0.790240157480315
 20
1.407090551181103
 30
0.0
 10
0.790240157480315
 20
1.407090551181103
 30
0.0
 10
0.790240157480315
 20
1.407090551181103
 30
0.0
 10
0.790240157480315
 20
1.407090551181103
 30
0.0
 10
0.7875708661417323
 20
1.419909448818898
 30
0.0
 10
0.7875708661417323
 20
1.419909448818898
 30
0.0
 10
0.7875708661417323
 20
1.419909448818898
 30
0.0
 10
0.7875708661417323
 20
1.419909448818898
 30
0.0
 10
0.7838385826771653
 20
1.432826771653543
 30
0.0
 10
0.7838385826771653
 20
1.432826771653543
 30
0.0
 10
0.7838385826771653
 20
1.432826771653543
 30
0.0
 10
0.7838385826771653
 20
1.432826771653543
 30
0.0
 10
0.7790157480314961
 20
1.445755905511811
 30
0.0
 10
0.7790157480314961
 20
1.445755905511811
 30
0.0
 10
0.7790157480314961
 20
1.445755905511811
 30
0.0
 10
0.7790157480314961
 20
1.445755905511811
 30
0.0
 10
0.7730433070866142
 20
1.458625984251969
 30
0.0
 10
0.7730433070866142
 20
1.458625984251969
 30
0.0
 10
0.7730433070866142
 20
1.458625984251969
 30
0.0
 10
0.7730433070866142
 20
1.458625984251969
 30
0.0
 10
0.7658897637795276
 20
1.471346456692914
 30
0.0
 10
0.7658897637795276
 20
1.471346456692914
 30
0.0
 10
0.7658897637795276
 20
1.471346456692914
 30
0.0
 10
0.7658897637795276
 20
1.471346456692914
 30
0.0
 10
0.757496062992126
 20
1.483854330708662
 30
0.0
 10
0.757496062992126
 20
1.483854330708662
 30
0.0
 10
0.757496062992126
 20
1.483854330708662
 30
0.0
 10
0.757496062992126
 20
1.483854330708662
 30
0.0
 10
0.7478267716535434
 20
1.496062992125984
 30
0.0
 10
0.7478267716535434
 20
1.496062992125984
 30
0.0
 10
0.7478267716535434
 20
1.496062992125984
 30
0.0
 10
0.7478267716535434
 20
1.496062992125984
 30
0.0
 10
0.7368228346456693
 20
1.50790157480315
 30
0.0
 10
0.7368228346456693
 20
1.50790157480315
 30
0.0
 10
0.7368228346456693
 20
1.50790157480315
 30
0.0
 10
0.7368228346456693
 20
1.50790157480315
 30
0.0
 10
0.7244606299212599
 20
1.519279527559055
 30
0.0
 10
0.7244606299212599
 20
1.519279527559055
 30
0.0
 10
0.7244606299212599
 20
1.519279527559055
 30
0.0
 10
0.7244606299212599
 20
1.519279527559055
 30
0.0
 10
0.7106732283464567
 20
1.530137795275591
 30
0.0
 10
0.7106732283464567
 20
1.530137795275591
 30
0.0
 10
0.7106732283464567
 20
1.530137795275591
 30
0.0
 10
0.7106732283464567
 20
1.530137795275591
 30
0.0
 10
0.6954291338582678
 20
1.540385826771654
 30
0.0
 10
0.6954291338582678
 20
1.540385826771654
 30
0.0
 10
0.6954291338582678
 20
1.540385826771654
 30
0.0
 10
0.6954291338582678
 20
1.540385826771654
 30
0.0
 10
0.6786692913385827
 20
1.549956692913386
 30
0.0
 10
0.6786692913385827
 20
1.549956692913386
 30
0.0
 10
0.6786692913385827
 20
1.549956692913386
 30
0.0
 10
0.6786692913385827
 20
1.549956692913386
 30
0.0
 10
0.6603622047244094
 20
1.558759842519685
 30
0.0
 10
0.6603622047244094
 20
1.558759842519685
 30
0.0
 10
0.6603622047244094
 20
1.558759842519685
 30
0.0
 10
0.6603622047244094
 20
1.558759842519685
 30
0.0
 10
0.6404488188976378
 20
1.566732283464567
 30
0.0
 10
0.6404488188976378
 20
1.566732283464567
 30
0.0
 10
0.6404488188976378
 20
1.566732283464567
 30
0.0
 10
0.6404488188976378
 20
1.566732283464567
 30
0.0
 10
0.6188937007874016
 20
1.573783464566929
 30
0.0
 10
0.6188937007874016
 20
1.573783464566929
 30
0.0
 10
0.6188937007874016
 20
1.573783464566929
 30
0.0
 10
0.6188937007874016
 20
1.573783464566929
 30
0.0
 10
0.5956417322834646
 20
1.579846456692913
 30
0.0
 10
0.5956417322834646
 20
1.579846456692913
 30
0.0
 10
0.5956417322834646
 20
1.579846456692913
 30
0.0
 10
0.5956417322834646
 20
1.579846456692913
 30
0.0
 10
0.5839488188976378
 20
1.582775590551181
 30
0.0
 10
0.5839488188976378
 20
1.582775590551181
 30
0.0
 10
0.5839488188976378
 20
1.582775590551181
 30
0.0
 10
0.5839488188976378
 20
1.582775590551181
 30
0.0
 10
0.5726692913385827
 20
1.58609842519685
 30
0.0
 10
0.5726692913385827
 20
1.58609842519685
 30
0.0
 10
0.5726692913385827
 20
1.58609842519685
 30
0.0
 10
0.5726692913385827
 20
1.58609842519685
 30
0.0
 10
0.5618149606299213
 20
1.589795275590551
 30
0.0
 10
0.5618149606299213
 20
1.589795275590551
 30
0.0
 10
0.5618149606299213
 20
1.589795275590551
 30
0.0
 10
0.5618149606299213
 20
1.589795275590551
 30
0.0
 10
0.5513740157480315
 20
1.593870078740158
 30
0.0
 10
0.5513740157480315
 20
1.593870078740158
 30
0.0
 10
0.5513740157480315
 20
1.593870078740158
 30
0.0
 10
0.5513740157480315
 20
1.593870078740158
 30
0.0
 10
0.5413543307086615
 20
1.598291338582677
 30
0.0
 10
0.5413543307086615
 20
1.598291338582677
 30
0.0
 10
0.5413543307086615
 20
1.598291338582677
 30
0.0
 10
0.5413543307086615
 20
1.598291338582677
 30
0.0
 10
0.531748031496063
 20
1.603062992125984
 30
0.0
 10
0.531748031496063
 20
1.603062992125984
 30
0.0
 10
0.531748031496063
 20
1.603062992125984
 30
0.0
 10
0.531748031496063
 20
1.603062992125984
 30
0.0
 10
0.5225590551181103
 20
1.608161417322835
 30
0.0
 10
0.5225590551181103
 20
1.608161417322835
 30
0.0
 10
0.5225590551181103
 20
1.608161417322835
 30
0.0
 10
0.5225590551181103
 20
1.608161417322835
 30
0.0
 10
0.5137795275590551
 20
1.613590551181102
 30
0.0
 10
0.5137795275590551
 20
1.613590551181102
 30
0.0
 10
0.5137795275590551
 20
1.613590551181102
 30
0.0
 10
0.5137795275590551
 20
1.613590551181102
 30
0.0
 10
0.5054212598425197
 20
1.619318897637795
 30
0.0
 10
0.5054212598425197
 20
1.619318897637795
 30
0.0
 10
0.5054212598425197
 20
1.619318897637795
 30
0.0
 10
0.5054212598425197
 20
1.619318897637795
 30
0.0
 10
0.4974724409448819
 20
1.625354330708662
 30
0.0
 10
0.4974724409448819
 20
1.625354330708662
 30
0.0
 10
0.4974724409448819
 20
1.625354330708662
 30
0.0
 10
0.4974724409448819
 20
1.625354330708662
 30
0.0
 10
0.4899370078740158
 20
1.631673228346457
 30
0.0
 10
0.4899370078740158
 20
1.631673228346457
 30
0.0
 10
0.4899370078740158
 20
1.631673228346457
 30
0.0
 10
0.4899370078740158
 20
1.631673228346457
 30
0.0
 10
0.4828070866141733
 20
1.638275590551181
 30
0.0
 10
0.4828070866141733
 20
1.638275590551181
 30
0.0
 10
0.4828070866141733
 20
1.638275590551181
 30
0.0
 10
0.4828070866141733
 20
1.638275590551181
 30
0.0
 10
0.4760944881889764
 20
1.645137795275591
 30
0.0
 10
0.4760944881889764
 20
1.645137795275591
 30
0.0
 10
0.4760944881889764
 20
1.645137795275591
 30
0.0
 10
0.4760944881889764
 20
1.645137795275591
 30
0.0
 10
0.4697795275590551
 20
1.652255905511811
 30
0.0
 10
0.4697795275590551
 20
1.652255905511811
 30
0.0
 10
0.4697795275590551
 20
1.652255905511811
 30
0.0
 10
0.4697795275590551
 20
1.652255905511811
 30
0.0
 10
0.4638818897637795
 20
1.659614173228347
 30
0.0
 10
0.4638818897637795
 20
1.659614173228347
 30
0.0
 10
0.4638818897637795
 20
1.659614173228347
 30
0.0
 10
0.4638818897637795
 20
1.659614173228347
 30
0.0
 10
0.4583779527559055
 20
1.667204724409449
 30
0.0
 10
0.4583779527559055
 20
1.667204724409449
 30
0.0
 10
0.4583779527559055
 20
1.667204724409449
 30
0.0
 10
0.4583779527559055
 20
1.667204724409449
 30
0.0
 10
0.4532952755905512
 20
1.675007874015748
 30
0.0
 10
0.4532952755905512
 20
1.675007874015748
 30
0.0
 10
0.4532952755905512
 20
1.675007874015748
 30
0.0
 10
0.4532952755905512
 20
1.675007874015748
 30
0.0
 10
0.4486062992125984
 20
1.683023622047244
 30
0.0
 10
0.4486062992125984
 20
1.683023622047244
 30
0.0
 10
0.4486062992125984
 20
1.683023622047244
 30
0.0
 10
0.4486062992125984
 20
1.683023622047244
 30
0.0
 10
0.4443307086614173
 20
1.691232283464567
 30
0.0
 10
0.4443307086614173
 20
1.691232283464567
 30
0.0
 10
0.4443307086614173
 20
1.691232283464567
 30
0.0
 10
0.4443307086614173
 20
1.691232283464567
 30
0.0
 10
0.4404448818897638
 20
1.699633858267717
 30
0.0
 10
0.4404448818897638
 20
1.699633858267717
 30
0.0
 10
0.4404448818897638
 20
1.699633858267717
 30
0.0
 10
0.4404448818897638
 20
1.699633858267717
 30
0.0
 10
0.4369724409448819
 20
1.708204724409449
 30
0.0
 10
0.4369724409448819
 20
1.708204724409449
 30
0.0
 10
0.4369724409448819
 20
1.708204724409449
 30
0.0
 10
0.4369724409448819
 20
1.708204724409449
 30
0.0
 10
0.4338897637795276
 20
1.71694094488189
 30
0.0
 10
0.4338897637795276
 20
1.71694094488189
 30
0.0
 10
0.4338897637795276
 20
1.71694094488189
 30
0.0
 10
0.4338897637795276
 20
1.71694094488189
 30
0.0
 10
0.4312125984251969
 20
1.725822834645669
 30
0.0
 10
0.4312125984251969
 20
1.725822834645669
 30
0.0
 10
0.4312125984251969
 20
1.725822834645669
 30
0.0
 10
0.4312125984251969
 20
1.725822834645669
 30
0.0
 10
0.4289291338582678
 20
1.734854330708662
 30
0.0
 10
0.4289291338582678
 20
1.734854330708662
 30
0.0
 10
0.4289291338582678
 20
1.734854330708662
 30
0.0
 10
0.4289291338582678
 20
1.734854330708662
 30
0.0
 10
0.4270511811023622
 20
1.744003937007874
 30
0.0
 10
0.4270511811023622
 20
1.744003937007874
 30
0.0
 10
0.4270511811023622
 20
1.744003937007874
 30
0.0
 10
0.4270511811023622
 20
1.744003937007874
 30
0.0
 10
0.4255669291338583
 20
1.753275590551181
 30
0.0
 10
0.4255669291338583
 20
1.753275590551181
 30
0.0
 10
0.4255669291338583
 20
1.753275590551181
 30
0.0
 10
0.4255669291338583
 20
1.753275590551181
 30
0.0
 10
0.4244803149606299
 20
1.762653543307087
 30
0.0
 10
0.4244803149606299
 20
1.762653543307087
 30
0.0
 10
0.4244803149606299
 20
1.762653543307087
 30
0.0
 10
0.4244803149606299
 20
1.762653543307087
 30
0.0
 10
0.4237795275590551
 20
1.772125984251969
 30
0.0
 10
0.4237795275590551
 20
1.772125984251969
 30
0.0
 10
0.4237795275590551
 20
1.772125984251969
 30
0.0
 10
0.4237795275590551
 20
1.772125984251969
 30
0.0
 10
0.4234763779527559
 20
1.781677165354331
 30
0.0
 10
0.4234763779527559
 20
1.781677165354331
 30
0.0
  0
SPLINE
  5
4D
330
1F
100
AcDbEntity
  8
LAYER_1
 62
   252
100
AcDbSpline
210
0.0
220
0.0
230
1.0
 70
    11
 71
     3
 72
    20
 73
    16
 74
     0
 42
0.0000000001
 43
0.0000000001
 40
0.0
 40
0.0
 40
0.0
 40
0.0
 40
0.25
 40
0.25
 40
0.25
 40
0.25
 40
0.5
 40
0.5
 40
0.5
 40
0.5
 40
0.75
 40
0.75
 40
0.75
 40
0.75
 40
1.0
 40
1.0
 40
1.0
 40
1.0
 10
0.2980866141732284
 20
1.810732283464567
 30
0.0
 10
0.2980866141732284
 20
1.810732283464567
 30
0.0
 10
0.2984685039370079
 20
2.564629921259843
 30
0.0
 10
0.2984685039370079
 20
2.564629921259843
 30
0.0
 10
0.2984685039370079
 20
2.564629921259843
 30
0.0
 10
0.2984685039370079
 20
2.564629921259843
 30
0.0
 10
0.4252952755905512
 20
2.564629921259843
 30
0.0
 10
0.4252952755905512
 20
2.564629921259843
 30
0.0
 10
0.4252952755905512
 20
2.564629921259843
 30
0.0
 10
0.4252952755905512
 20
2.564629921259843
 30
0.0
 10
0.4249133858267717
 20
1.810732283464567
 30
0.0
 10
0.4249133858267717
 20
1.810732283464567
 30
0.0
 10
0.4249133858267717
 20
1.810732283464567
 30
0.0
 10
0.4249133858267717
 20
1.810732283464567
 30
0.0
 10
0.2980866141732284
 20
1.810732283464567
 30
0.0
 10
0.2980866141732284
 20
1.810732283464567
 30
0.0
  0
SPLINE
  5
4E
330
1F
100
AcDbEntity
  8
LAYER_1
 62
   250
100
AcDbSpline
210
0.0
220
0.0
230
1.0
 70
    11
 71
     3
 72
    20
 73
    16
 74
     0
 42
0.0000000001
 43
0.0000000001
 40
0.0
 40
0.0
 40
0.0
 40
0.0
 40
0.25
 40
0.25
 40
0.25
 40
0.25
 40
0.5
 40
0.5
 40
0.5
 40
0.5
 40
0.75
 40
0.75
 40
0.75
 40
0.75
 40
1.0
 40
1.0
 40
1.0
 40
1.0
 10
0.2980866141732284
 20
1.810732283464567
 30
0.0
 10
0.2980866141732284
 20
1.810732283464567
 30
0.0
 10
0.2984685039370079
 20
2.564629921259843
 30
0.0
 10
0.2984685039370079
 20
2.564629921259843
 30
0.0
 10
0.2984685039370079
 20
2.564629921259843
 30
0.0
 10
0.2984685039370079
 20
2.564629921259843
 30
0.0
 10
0.4252952755905512
 20
2.564629921259843
 30
0.0
 10
0.4252952755905512
 20
2.564629921259843
 30
0.0
 10
0.4252952755905512
 20
2.564629921259843
 30
0.0
 10
0.4252952755905512
 20
2.564629921259843
 30
0.0
 10
0.4249133858267717
 20
1.810732283464567
 30
0.0
 10
0.4249133858267717
 20
1.810732283464567
 30
0.0
 10
0.4249133858267717
 20
1.810732283464567
 30
0.0
 10
0.4249133858267717
 20
1.810732283464567
 30
0.0
 10
0.2980866141732284
 20
1.810732283464567
 30
0.0
 10
0.2980866141732284
 20
1.810732283464567
 30
0.0
  0
SPLINE
  5
4F
330
1F
100
AcDbEntity
  8
LAYER_1
 62
     7
100
AcDbSpline
210
0.0
220
0.0
230
1.0
 70
    11
 71
     3
 72
    24
 73
    20
 74
     0
 42
0.0000000001
 43
0.0000000001
 40
0.0
 40
0.0
 40
0.0
 40
0.0
 40
0.2
 40
0.2
 40
0.2
 40
0.2
 40
0.4
 40
0.4
 40
0.4
 40
0.4
 40
0.6000000000000001
 40
0.6000000000000001
 40
0.6000000000000001
 40
0.6000000000000001
 40
0.8
 40
0.8
 40
0.8
 40
0.8
 40
1.0
 40
1.0
 40
1.0
 40
1.0
 10
0.2980866141732284
 20
1.810732283464567
 30
0.0
 10
0.2980866141732284
 20
1.810732283464567
 30
0.0
 10
0.4249133858267717
 20
1.810732283464567
 30
0.0
 10
0.4249133858267717
 20
1.810732283464567
 30
0.0
 10
0.4249133858267717
 20
1.810732283464567
 30
0.0
 10
0.4135314960629922
 20
1.706669291338583
 30
0.0
 10
0.4686181102362205
 20
1.60901968503937
 30
0.0
 10
0.5956417322834646
 20
1.579846456692913
 30
0.0
 10
0.5956417322834646
 20
1.579846456692913
 30
0.0
 10
0.8527834645669292
 20
1.520791338582677
 30
0.0
 10
0.8135236220472442
 20
1.279035433070866
 30
0.0
 10
0.7273464566929134
 20
1.277409448818898
 30
0.0
 10
0.7273464566929134
 20
1.277409448818898
 30
0.0
 10
0.7273464566929134
 20
1.277409448818898
 30
0.0
 10
0.2980866141732284
 20
1.277409448818898
 30
0.0
 10
0.2980866141732284
 20
1.277409448818898
 30
0.0
 10
0.2980866141732284
 20
1.277409448818898
 30
0.0
 10
0.2980866141732284
 20
1.277409448818898
 30
0.0
 10
0.2980866141732284
 20
1.810732283464567
 30
0.0
 10
0.2980866141732284
 20
1.810732283464567
 30
0.0
  0
SPLINE
  5
50
330
1F
100
AcDbEntity
  8
LAYER_1
 62
   250
100
AcDbSpline
210
0.0
220
0.0
230
1.0
 70
    11
 71
     3
 72
   104
 73
   100
 74
     0
 42
0.0000000001
 43
0.0000000001
 40
0.0
 40
0.0
 40
0.0
 40
0.0
 40
0.04
 40
0.04
 40
0.04
 40
0.04
 40
0.08
 40
0.08
 40
0.08
 40
0.08
 40
0.12
 40
0.12
 40
0.12
 40
0.12
 40
0.16
 40
0.16
 40
0.16
 40
0.16
 40
0.2
 40
0.2
 40
0.2
 40
0.2
 40
0.24
 40
0.24
 40
0.24
 40
0.24
 40
0.28
 40
0.28
 40
0.28
 40
0.28
 40
0.32
 40
0.32
 40
0.32
 40
0.32
 40
0.36
 40
0.36
 40
0.36
 40
0.36
 40
0.4
 40
0.4
 40
0.4
 40
0.4
 40
0.44
 40
0.44
 40
0.44
 40
0.44
 40
0.4799999999999999
 40
0.4799999999999999
 40
0.4799999999999999
 40
0.4799999999999999
 40
0.5199999999999999
 40
0.5199999999999999
 40
0.5199999999999999
 40
0.5199999999999999
 40
0.5599999999999999
 40
0.5599999999999999
 40
0.5599999999999999
 40
0.5599999999999999
 40
0.6
 40
0.6
 40
0.6
 40
0.6
 40
0.64
 40
0.64
 40
0.64
 40
0.64
 40
0.6800000000000001
 40
0.6800000000000001
 40
0.6800000000000001
 40
0.6800000000000001
 40
0.7200000000000001
 40
0.7200000000000001
 40
0.7200000000000001
 40
0.7200000000000001
 40
0.7600000000000001
 40
0.7600000000000001
 40
0.7600000000000001
 40
0.7600000000000001
 40
0.8000000000000002
 40
0.8000000000000002
 40
0.8000000000000002
 40
0.8000000000000002
 40
0.8400000000000002
 40
0.8400000000000002
 40
0.8400000000000002
 40
0.8400000000000002
 40
0.8800000000000002
 40
0.8800000000000002
 40
0.8800000000000002
 40
0.8800000000000002
 40
0.9200000000000003
 40
0.9200000000000003
 40
0.9200000000000003
 40
0.9200000000000003
 40
0.9600000000000003
 40
0.9600000000000003
 40
0.9600000000000003
 40
0.9600000000000003
 40
1.0
 40
1.0
 40
1.0
 40
1.0
 10
0.1577952755905512
 20
1.2025
 30
0.0
 10
0.1577952755905512
 20
1.2025
 30
0.0
 10
0.2117677165354331
 20
1.2025
 30
0.0
 10
0.2117677165354331
 20
1.2025
 30
0.0
 10
0.2117677165354331
 20
1.2025
 30
0.0
 10
0.2249370078740157
 20
1.2025
 30
0.0
 10
0.2339645669291339
 20
1.201889763779528
 30
0.0
 10
0.2388503937007874
 20
1.200692913385827
 30
0.0
 10
0.2388503937007874
 20
1.200692913385827
 30
0.0
 10
0.2460748031496063
 20
1.198972440944882
 30
0.0
 10
0.2517677165354331
 20
1.195834645669291
 30
0.0
 10
0.255992125984252
 20
1.191275590551181
 30
0.0
 10
0.255992125984252
 20
1.191275590551181
 30
0.0
 10
0.2601850393700788
 20
1.186720472440945
 30
0.0
 10
0.2622952755905512
 20
1.181220472440945
 30
0.0
 10
0.2622952755905512
 20
1.174834645669291
 30
0.0
 10
0.2622952755905512
 20
1.174834645669291
 30
0.0
 10
0.2622952755905512
 20
1.170220472440945
 30
0.0
 10
0.2611850393700788
 20
1.166082677165354
 30
0.0
 10
0.2589645669291339
 20
1.162417322834646
 30
0.0
 10
0.2589645669291339
 20
1.162417322834646
 30
0.0
 10
0.256740157480315
 20
1.158748031496063
 30
0.0
 10
0.253492125984252
 20
1.155610236220473
 30
0.0
 10
0.2492677165354331
 20
1.153027559055118
 30
0.0
 10
0.2492677165354331
 20
1.153027559055118
 30
0.0
 10
0.2465472440944882
 20
1.151334645669291
 30
0.0
 10
0.2428779527559055
 20
1.149889763779528
 30
0.0
 10
0.2382125984251969
 20
1.148692913385827
 30
0.0
 10
0.2382125984251969
 20
1.148692913385827
 30
0.0
 10
0.2441299212598425
 20
1.147610236220473
 30
0.0
 10
0.2486299212598425
 20
1.146307086614173
 30
0.0
 10
0.2517125984251969
 20
1.144807086614173
 30
0.0
 10
0.2517125984251969
 20
1.144807086614173
 30
0.0
 10
0.2563779527559055
 20
1.142527559055118
 30
0.0
 10
0.2600748031496063
 20
1.139279527559055
 30
0.0
 10
0.2627677165354331
 20
1.135027559055118
 30
0.0
 10
0.2627677165354331
 20
1.135027559055118
 30
0.0
 10
0.265492125984252
 20
1.130807086614173
 30
0.0
 10
0.2668503937007874
 20
1.126027559055118
 30
0.0
 10
0.2668503937007874
 20
1.120720472440945
 30
0.0
 10
0.2668503937007874
 20
1.120720472440945
 30
0.0
 10
0.2668503937007874
 20
1.115555118110236
 30
0.0
 10
0.2655196850393701
 20
1.110779527559055
 30
0.0
 10
0.2628503937007874
 20
1.106389763779528
 30
0.0
 10
0.2628503937007874
 20
1.106389763779528
 30
0.0
 10
0.2602125984251968
 20
1.102
 30
0.0
 10
0.2564370078740157
 20
1.098389763779528
 30
0.0
 10
0.2516023622047244
 20
1.095555118110236
 30
0.0
 10
0.2516023622047244
 20
1.095555118110236
 30
0.0
 10
0.246740157480315
 20
1.092751968503937
 30
0.0
 10
0.2410748031496063
 20
1.090944881889764
 30
0.0
 10
0.2346299212598425
 20
1.090137795275591
 30
0.0
 10
0.2346299212598425
 20
1.090137795275591
 30
0.0
 10
0.2281574803149606
 20
1.08936220472441
 30
0.0
 10
0.2215196850393701
 20
1.088972440944882
 30
0.0
 10
0.2146850393700787
 20
1.088972440944882
 30
0.0
 10
0.2146850393700787
 20
1.088972440944882
 30
0.0
 10
0.2146850393700787
 20
1.088972440944882
 30
0.0
 10
0.1577952755905512
 20
1.088972440944882
 30
0.0
 10
0.1577952755905512
 20
1.088972440944882
 30
0.0
 10
0.1577952755905512
 20
1.088972440944882
 30
0.0
 10
0.1577952755905512
 20
1.088972440944882
 30
0.0
 10
0.1577952755905512
 20
1.095807086614173
 30
0.0
 10
0.1577952755905512
 20
1.095807086614173
 30
0.0
 10
0.1577952755905512
 20
1.095807086614173
 30
0.0
 10
0.1577952755905512
 20
1.095807086614173
 30
0.0
 10
0.1616299212598425
 20
1.095807086614173
 30
0.0
 10
0.1616299212598425
 20
1.095807086614173
 30
0.0
 10
0.1616299212598425
 20
1.095807086614173
 30
0.0
 10
0.1653267716535433
 20
1.095807086614173
 30
0.0
 10
0.1678267716535433
 20
1.096389763779528
 30
0.0
 10
0.1691850393700788
 20
1.097527559055118
 30
0.0
 10
0.1691850393700788
 20
1.097527559055118
 30
0.0
 10
0.1711574803149606
 20
1.099082677165354
 30
0.0
 10
0.1721299212598425
 20
1.101692913385827
 30
0.0
 10
0.1721299212598425
 20
1.105334645669291
 30
0.0
 10
0.1721299212598425
 20
1.105334645669291
 30
0.0
 10
0.1721299212598425
 20
1.105334645669291
 30
0.0
 10
0.1721299212598425
 20
1.184192913385827
 30
0.0
 10
0.1721299212598425
 20
1.184192913385827
 30
0.0
 10
0.1721299212598425
 20
1.184192913385827
 30
0.0
 10
0.1721299212598425
 20
1.187889763779528
 30
0.0
 10
0.1718267716535433
 20
1.190389763779528
 30
0.0
 10
0.171240157480315
 20
1.191748031496063
 30
0.0
 10
0.171240157480315
 20
1.191748031496063
 30
0.0
 10
0.1706299212598425
 20
1.193110236220472
 30
0.0
 10
0.169740157480315
 20
1.194082677165354
 30
0.0
 10
0.1685472440944882
 20
1.194692913385827
 30
0.0
 10
0.1685472440944882
 20
1.194692913385827
 30
0.0
 10
0.1673543307086614
 20
1.195275590551181
 30
0.0
 10
0.1650472440944882
 20
1.195582677165354
 30
0.0
 10
0.1616299212598425
 20
1.195582677165354
 30
0.0
 10
0.1616299212598425
 20
1.195582677165354
 30
0.0
 10
0.1616299212598425
 20
1.195582677165354
 30
0.0
 10
0.1577952755905512
 20
1.195582677165354
 30
0.0
 10
0.1577952755905512
 20
1.195582677165354
 30
0.0
 10
0.1577952755905512
 20
1.195582677165354
 30
0.0
 10
0.1577952755905512
 20
1.195582677165354
 30
0.0
 10
0.1577952755905512
 20
1.2025
 30
0.0
 10
0.1577952755905512
 20
1.2025
 30
0.0
  0
SPLINE
  5
51
330
1F
100
AcDbEntity
  8
LAYER_1
 62
   250
100
AcDbSpline
210
0.0
220
0.0
230
1.0
 70
    11
 71
     3
 72
    40
 73
    36
 74
     0
 42
0.0000000001
 43
0.0000000001
 40
0.0
 40
0.0
 40
0.0
 40
0.0
 40
0.1111111111111111
 40
0.1111111111111111
 40
0.1111111111111111
 40
0.1111111111111111
 40
0.2222222222222222
 40
0.2222222222222222
 40
0.2222222222222222
 40
0.2222222222222222
 40
0.3333333333333333
 40
0.3333333333333333
 40
0.3333333333333333
 40
0.3333333333333333
 40
0.4444444444444444
 40
0.4444444444444444
 40
0.4444444444444444
 40
0.4444444444444444
 40
0.5555555555555556
 40
0.5555555555555556
 40
0.5555555555555556
 40
0.5555555555555556
 40
0.6666666666666667
 40
0.6666666666666667
 40
0.6666666666666667
 40
0.6666666666666667
 40
0.7777777777777779
 40
0.7777777777777779
 40
0.7777777777777779
 40
0.7777777777777779
 40
0.8888888888888891
 40
0.8888888888888891
 40
0.8888888888888891
 40
0.8888888888888891
 40
1.0
 40
1.0
 40
1.0
 40
1.0
 10
0.1873543307086614
 20
1.193472440944882
 30
0.0
 10
0.1873543307086614
 20
1.193472440944882
 30
0.0
 10
0.1873543307086614
 20
1.151889763779528
 30
0.0
 10
0.1873543307086614
 20
1.151889763779528
 30
0.0
 10
0.1873543307086614
 20
1.151889763779528
 30
0.0
 10
0.1873543307086614
 20
1.151889763779528
 30
0.0
 10
0.2081023622047244
 20
1.151889763779528
 30
0.0
 10
0.2081023622047244
 20
1.151889763779528
 30
0.0
 10
0.2081023622047244
 20
1.151889763779528
 30
0.0
 10
0.2177952755905512
 20
1.151889763779528
 30
0.0
 10
0.2244645669291339
 20
1.152334645669291
 30
0.0
 10
0.2280196850393701
 20
1.153248031496063
 30
0.0
 10
0.2280196850393701
 20
1.153248031496063
 30
0.0
 10
0.2336299212598425
 20
1.154720472440945
 30
0.0
 10
0.2378779527559055
 20
1.157220472440945
 30
0.0
 10
0.2408503937007874
 20
1.160748031496063
 30
0.0
 10
0.2408503937007874
 20
1.160748031496063
 30
0.0
 10
0.2437952755905512
 20
1.164275590551181
 30
0.0
 10
0.2452952755905512
 20
1.168807086614173
 30
0.0
 10
0.2452952755905512
 20
1.174334645669291
 30
0.0
 10
0.2452952755905512
 20
1.174334645669291
 30
0.0
 10
0.2452952755905512
 20
1.179
 30
0.0
 10
0.2439370078740158
 20
1.182889763779528
 30
0.0
 10
0.2412677165354331
 20
1.186027559055118
 30
0.0
 10
0.2412677165354331
 20
1.186027559055118
 30
0.0
 10
0.2385748031496063
 20
1.189137795275591
 30
0.0
 10
0.2349645669291339
 20
1.191275590551181
 30
0.0
 10
0.2304645669291339
 20
1.192417322834646
 30
0.0
 10
0.2304645669291339
 20
1.192417322834646
 30
0.0
 10
0.2275472440944882
 20
1.193110236220472
 30
0.0
 10
0.2214645669291339
 20
1.193472440944882
 30
0.0
 10
0.212240157480315
 20
1.193472440944882
 30
0.0
 10
0.212240157480315
 20
1.193472440944882
 30
0.0
 10
0.212240157480315
 20
1.193472440944882
 30
0.0
 10
0.1873543307086614
 20
1.193472440944882
 30
0.0
 10
0.1873543307086614
 20
1.193472440944882
 30
0.0
  0
SPLINE
  5
52
330
1F
100
AcDbEntity
  8
LAYER_1
 62
   250
100
AcDbSpline
210
0.0
220
0.0
230
1.0
 70
    11
 71
     3
 72
    52
 73
    48
 74
     0
 42
0.0000000001
 43
0.0000000001
 40
0.0
 40
0.0
 40
0.0
 40
0.0
 40
0.0833333333333333
 40
0.0833333333333333
 40
0.0833333333333333
 40
0.0833333333333333
 40
0.1666666666666667
 40
0.1666666666666667
 40
0.1666666666666667
 40
0.1666666666666667
 40
0.25
 40
0.25
 40
0.25
 40
0.25
 40
0.3333333333333333
 40
0.3333333333333333
 40
0.3333333333333333
 40
0.3333333333333333
 40
0.4166666666666666
 40
0.4166666666666666
 40
0.4166666666666666
 40
0.4166666666666666
 40
0.4999999999999999
 40
0.4999999999999999
 40
0.4999999999999999
 40
0.4999999999999999
 40
0.5833333333333333
 40
0.5833333333333333
 40
0.5833333333333333
 40
0.5833333333333333
 40
0.6666666666666666
 40
0.6666666666666666
 40
0.6666666666666666
 40
0.6666666666666666
 40
0.75
 40
0.75
 40
0.75
 40
0.75
 40
0.8333333333333334
 40
0.8333333333333334
 40
0.8333333333333334
 40
0.8333333333333334
 40
0.9166666666666667
 40
0.9166666666666667
 40
0.9166666666666667
 40
0.9166666666666667
 40
1.0
 40
1.0
 40
1.0
 40
1.0
 10
0.1873543307086614
 20
1.144055118110236
 30
0.0
 10
0.1873543307086614
 20
1.144055118110236
 30
0.0
 10
0.1873543307086614
 20
1.106807086614173
 30
0.0
 10
0.1873543307086614
 20
1.106807086614173
 30
0.0
 10
0.1873543307086614
 20
1.106807086614173
 30
0.0
 10
0.1873543307086614
 20
1.103055118110236
 30
0.0
 10
0.1875196850393701
 20
1.100834645669292
 30
0.0
 10
0.1878228346456693
 20
1.100110236220472
 30
0.0
 10
0.1878228346456693
 20
1.100110236220472
 30
0.0
 10
0.1882677165354331
 20
1.099137795275591
 30
0.0
 10
0.1891299212598425
 20
1.098472440944882
 30
0.0
 10
0.1904370078740158
 20
1.098082677165355
 30
0.0
 10
0.1904370078740158
 20
1.098082677165355
 30
0.0
 10
0.1913543307086614
 20
1.097807086614173
 30
0.0
 10
0.1939645669291339
 20
1.097665354330709
 30
0.0
 10
0.198240157480315
 20
1.097665354330709
 30
0.0
 10
0.198240157480315
 20
1.097665354330709
 30
0.0
 10
0.198240157480315
 20
1.097665354330709
 30
0.0
 10
0.2093228346456693
 20
1.097665354330709
 30
0.0
 10
0.2093228346456693
 20
1.097665354330709
 30
0.0
 10
0.2093228346456693
 20
1.097665354330709
 30
0.0
 10
0.2202677165354331
 20
1.097665354330709
 30
0.0
 10
0.2281023622047244
 20
1.098279527559055
 30
0.0
 10
0.2327952755905512
 20
1.0995
 30
0.0
 10
0.2327952755905512
 20
1.0995
 30
0.0
 10
0.237492125984252
 20
1.100720472440945
 30
0.0
 10
0.241492125984252
 20
1.103307086614173
 30
0.0
 10
0.2447952755905512
 20
1.107251968503937
 30
0.0
 10
0.2447952755905512
 20
1.107251968503937
 30
0.0
 10
0.2481023622047244
 20
1.111165354330709
 30
0.0
 10
0.2497677165354331
 20
1.115917322834646
 30
0.0
 10
0.2497677165354331
 20
1.121444881889764
 30
0.0
 10
0.2497677165354331
 20
1.121444881889764
 30
0.0
 10
0.2497677165354331
 20
1.126110236220473
 30
0.0
 10
0.2484094488188977
 20
1.130248031496063
 30
0.0
 10
0.245740157480315
 20
1.13386220472441
 30
0.0
 10
0.245740157480315
 20
1.13386220472441
 30
0.0
 10
0.2430472440944882
 20
1.137472440944882
 30
0.0
 10
0.2393228346456693
 20
1.140055118110236
 30
0.0
 10
0.2345748031496063
 20
1.141665354330709
 30
0.0
 10
0.2345748031496063
 20
1.141665354330709
 30
0.0
 10
0.2298228346456693
 20
1.143279527559055
 30
0.0
 10
0.2214094488188977
 20
1.144055118110236
 30
0.0
 10
0.2093228346456693
 20
1.144055118110236
 30
0.0
 10
0.2093228346456693
 20
1.144055118110236
 30
0.0
 10
0.2093228346456693
 20
1.144055118110236
 30
0.0
 10
0.1873543307086614
 20
1.144055118110236
 30
0.0
 10
0.1873543307086614
 20
1.144055118110236
 30
0.0
  0
SPLINE
  5
53
330
1F
100
AcDbEntity
  8
LAYER_1
 62
   250
100
AcDbSpline
210
0.0
220
0.0
230
1.0
 70
    11
 71
     3
 72
   112
 73
   108
 74
     0
 42
0.0000000001
 43
0.0000000001
 40
0.0
 40
0.0
 40
0.0
 40
0.0
 40
0.037037037037037
 40
0.037037037037037
 40
0.037037037037037
 40
0.037037037037037
 40
0.0740740740740741
 40
0.0740740740740741
 40
0.0740740740740741
 40
0.0740740740740741
 40
0.1111111111111111
 40
0.1111111111111111
 40
0.1111111111111111
 40
0.1111111111111111
 40
0.1481481481481481
 40
0.1481481481481481
 40
0.1481481481481481
 40
0.1481481481481481
 40
0.1851851851851852
 40
0.1851851851851852
 40
0.1851851851851852
 40
0.1851851851851852
 40
0.2222222222222222
 40
0.2222222222222222
 40
0.2222222222222222
 40
0.2222222222222222
 40
0.2592592592592592
 40
0.2592592592592592
 40
0.2592592592592592
 40
0.2592592592592592
 40
0.2962962962962963
 40
0.2962962962962963
 40
0.2962962962962963
 40
0.2962962962962963
 40
0.3333333333333333
 40
0.3333333333333333
 40
0.3333333333333333
 40
0.3333333333333333
 40
0.3703703703703704
 40
0.3703703703703704
 40
0.3703703703703704
 40
0.3703703703703704
 40
0.4074074074074074
 40
0.4074074074074074
 40
0.4074074074074074
 40
0.4074074074074074
 40
0.4444444444444444
 40
0.4444444444444444
 40
0.4444444444444444
 40
0.4444444444444444
 40
0.4814814814814815
 40
0.4814814814814815
 40
0.4814814814814815
 40
0.4814814814814815
 40
0.5185185185185185
 40
0.5185185185185185
 40
0.5185185185185185
 40
0.5185185185185185
 40
0.5555555555555556
 40
0.5555555555555556
 40
0.5555555555555556
 40
0.5555555555555556
 40
0.5925925925925926
 40
0.5925925925925926
 40
0.5925925925925926
 40
0.5925925925925926
 40
0.6296296296296295
 40
0.6296296296296295
 40
0.6296296296296295
 40
0.6296296296296295
 40
0.6666666666666665
 40
0.6666666666666665
 40
0.6666666666666665
 40
0.6666666666666665
 40
0.7037037037037035
 40
0.7037037037037035
 40
0.7037037037037035
 40
0.7037037037037035
 40
0.7407407407407405
 40
0.7407407407407405
 40
0.7407407407407405
 40
0.7407407407407405
 40
0.7777777777777775
 40
0.7777777777777775
 40
0.7777777777777775
 40
0.7777777777777775
 40
0.8148148148148144
 40
0.8148148148148144
 40
0.8148148148148144
 40
0.8148148148148144
 40
0.8518518518518514
 40
0.8518518518518514
 40
0.8518518518518514
 40
0.8518518518518514
 40
0.8888888888888884
 40
0.8888888888888884
 40
0.8888888888888884
 40
0.8888888888888884
 40
0.9259259259259254
 40
0.9259259259259254
 40
0.9259259259259254
 40
0.9259259259259254
 40
0.9629629629629624
 40
0.9629629629629624
 40
0.9629629629629624
 40
0.9629629629629624
 40
1.0
 40
1.0
 40
1.0
 40
1.0
 10
0.3244606299212599
 20
1.2025
 30
0.0
 10
0.3244606299212599
 20
1.2025
 30
0.0
 10
0.3378779527559055
 20
1.2025
 30
0.0
 10
0.3378779527559055
 20
1.2025
 30
0.0
 10
0.3378779527559055
 20
1.2025
 30
0.0
 10
0.3378779527559055
 20
1.2025
 30
0.0
 10
0.3731259842519685
 20
1.107610236220473
 30
0.0
 10
0.3731259842519685
 20
1.107610236220473
 30
0.0
 10
0.3731259842519685
 20
1.107610236220473
 30
0.0
 10
0.3748503937007874
 20
1.102834645669292
 30
0.0
 10
0.3765984251968504
 20
1.099665354330709
 30
0.0
 10
0.3783779527559055
 20
1.098137795275591
 30
0.0
 10
0.3783779527559055
 20
1.098137795275591
 30
0.0
 10
0.3801259842519685
 20
1.096582677165354
 30
0.0
 10
0.3825157480314961
 20
1.095807086614173
 30
0.0
 10
0.385488188976378
 20
1.095807086614173
 30
0.0
 10
0.385488188976378
 20
1.095807086614173
 30
0.0
 10
0.385488188976378
 20
1.095807086614173
 30
0.0
 10
0.3872677165354331
 20
1.095807086614173
 30
0.0
 10
0.3872677165354331
 20
1.095807086614173
 30
0.0
 10
0.3872677165354331
 20
1.095807086614173
 30
0.0
 10
0.3872677165354331
 20
1.095807086614173
 30
0.0
 10
0.3872677165354331
 20
1.088972440944882
 30
0.0
 10
0.3872677165354331
 20
1.088972440944882
 30
0.0
 10
0.3872677165354331
 20
1.088972440944882
 30
0.0
 10
0.3872677165354331
 20
1.088972440944882
 30
0.0
 10
0.3468228346456693
 20
1.088972440944882
 30
0.0
 10
0.3468228346456693
 20
1.088972440944882
 30
0.0
 10
0.3468228346456693
 20
1.088972440944882
 30
0.0
 10
0.3468228346456693
 20
1.088972440944882
 30
0.0
 10
0.3468228346456693
 20
1.095807086614173
 30
0.0
 10
0.3468228346456693
 20
1.095807086614173
 30
0.0
 10
0.3468228346456693
 20
1.095807086614173
 30
0.0
 10
0.3481259842519685
 20
1.095917322834646
 30
0.0
 10
0.3494055118110236
 20
1.095972440944882
 30
0.0
 10
0.3506574803149606
 20
1.095972440944882
 30
0.0
 10
0.3506574803149606
 20
1.095972440944882
 30
0.0
 10
0.3532677165354331
 20
1.095972440944882
 30
0.0
 10
0.3549606299212599
 20
1.096251968503937
 30
0.0
 10
0.3557952755905512
 20
1.096779527559055
 30
0.0
 10
0.3557952755905512
 20
1.096779527559055
 30
0.0
 10
0.3573503937007874
 20
1.097807086614173
 30
0.0
 10
0.3581535433070867
 20
1.099110236220473
 30
0.0
 10
0.3581535433070867
 20
1.100692913385827
 30
0.0
 10
0.3581535433070867
 20
1.100692913385827
 30
0.0
 10
0.3581535433070867
 20
1.101834645669291
 30
0.0
 10
0.3573779527559055
 20
1.104610236220472
 30
0.0
 10
0.3558779527559055
 20
1.109082677165354
 30
0.0
 10
0.3558779527559055
 20
1.109082677165354
 30
0.0
 10
0.3558779527559055
 20
1.109082677165354
 30
0.0
 10
0.3483779527559056
 20
1.131055118110236
 30
0.0
 10
0.3483779527559056
 20
1.131055118110236
 30
0.0
 10
0.3483779527559056
 20
1.131055118110236
 30
0.0
 10
0.3483779527559056
 20
1.131055118110236
 30
0.0
 10
0.3072125984251969
 20
1.131055118110236
 30
0.0
 10
0.3072125984251969
 20
1.131055118110236
 30
0.0
 10
0.3072125984251969
 20
1.131055118110236
 30
0.0
 10
0.3072125984251969
 20
1.131055118110236
 30
0.0
 10
0.2984055118110237
 20
1.106472440944882
 30
0.0
 10
0.2984055118110237
 20
1.106472440944882
 30
0.0
 10
0.2984055118110237
 20
1.106472440944882
 30
0.0
 10
0.297488188976378
 20
1.103917322834646
 30
0.0
 10
0.2970157480314961
 20
1.102165354330709
 30
0.0
 10
0.2970157480314961
 20
1.101165354330709
 30
0.0
 10
0.2970157480314961
 20
1.101165354330709
 30
0.0
 10
0.2970157480314961
 20
1.100082677165355
 30
0.0
 10
0.2973228346456693
 20
1.099137795275591
 30
0.0
 10
0.2978779527559055
 20
1.098334645669291
 30
0.0
 10
0.2978779527559055
 20
1.098334645669291
 30
0.0
 10
0.2984606299212599
 20
1.097527559055118
 30
0.0
 10
0.2992125984251969
 20
1.096917322834646
 30
0.0
 10
0.3002125984251969
 20
1.0965
 30
0.0
 10
0.3002125984251969
 20
1.0965
 30
0.0
 10
0.3011850393700787
 20
1.096082677165355
 30
0.0
 10
0.302740157480315
 20
1.095889763779528
 30
0.0
 10
0.3049330708661417
 20
1.095889763779528
 30
0.0
 10
0.3049330708661417
 20
1.095889763779528
 30
0.0
 10
0.3063779527559055
 20
1.095889763779528
 30
0.0
 10
0.3075708661417323
 20
1.09586220472441
 30
0.0
 10
0.308488188976378
 20
1.095807086614173
 30
0.0
 10
0.308488188976378
 20
1.095807086614173
 30
0.0
 10
0.308488188976378
 20
1.095807086614173
 30
0.0
 10
0.308488188976378
 20
1.088972440944882
 30
0.0
 10
0.308488188976378
 20
1.088972440944882
 30
0.0
 10
0.308488188976378
 20
1.088972440944882
 30
0.0
 10
0.308488188976378
 20
1.088972440944882
 30
0.0
 10
0.2745708661417323
 20
1.088972440944882
 30
0.0
 10
0.2745708661417323
 20
1.088972440944882
 30
0.0
 10
0.2745708661417323
 20
1.088972440944882
 30
0.0
 10
0.2745708661417323
 20
1.088972440944882
 30
0.0
 10
0.2745708661417323
 20
1.095807086614173
 30
0.0
 10
0.2745708661417323
 20
1.095807086614173
 30
0.0
 10
0.2745708661417323
 20
1.095807086614173
 30
0.0
 10
0.2777125984251969
 20
1.095807086614173
 30
0.0
 10
0.279988188976378
 20
1.096110236220472
 30
0.0
 10
0.2813503937007874
 20
1.096751968503937
 30
0.0
 10
0.2813503937007874
 20
1.096751968503937
 30
0.0
 10
0.282740157480315
 20
1.09736220472441
 30
0.0
 10
0.2839606299212599
 20
1.09836220472441
 30
0.0
 10
0.284988188976378
 20
1.099751968503937
 30
0.0
 10
0.284988188976378
 20
1.099751968503937
 30
0.0
 10
0.2860157480314961
 20
1.101137795275591
 30
0.0
 10
0.2873779527559055
 20
1.104055118110236
 30
0.0
 10
0.2890433070866142
 20
1.1085
 30
0.0
 10
0.2890433070866142
 20
1.1085
 30
0.0
 10
0.2890433070866142
 20
1.1085
 30
0.0
 10
0.3244606299212599
 20
1.2025
 30
0.0
 10
0.3244606299212599
 20
1.2025
 30
0.0
  0
SPLINE
  5
54
330
1F
100
AcDbEntity
  8
LAYER_1
 62
   250
100
AcDbSpline
210
0.0
220
0.0
230
1.0
 70
    11
 71
     3
 72
    16
 73
    12
 74
     0
 42
0.0000000001
 43
0.0000000001
 40
0.0
 40
0.0
 40
0.0
 40
0.0
 40
0.3333333333333333
 40
0.3333333333333333
 40
0.3333333333333333
 40
0.3333333333333333
 40
0.6666666666666666
 40
0.6666666666666666
 40
0.6666666666666666
 40
0.6666666666666666
 40
1.0
 40
1.0
 40
1.0
 40
1.0
 10
0.3102125984251969
 20
1.139027559055118
 30
0.0
 10
0.3102125984251969
 20
1.139027559055118
 30
0.0
 10
0.3452952755905512
 20
1.139027559055118
 30
0.0
 10
0.3452952755905512
 20
1.139027559055118
 30
0.0
 10
0.3452952755905512
 20
1.139027559055118
 30
0.0
 10
0.3452952755905512
 20
1.139027559055118
 30
0.0
 10
0.3277125984251968
 20
1.187862204724409
 30
0.0
 10
0.3277125984251968
 20
1.187862204724409
 30
0.0
 10
0.3277125984251968
 20
1.187862204724409
 30
0.0
 10
0.3277125984251968
 20
1.187862204724409
 30
0.0
 10
0.3102125984251969
 20
1.139027559055118
 30
0.0
 10
0.3102125984251969
 20
1.139027559055118
 30
0.0
  0
SPLINE
  5
55
330
1F
100
AcDbEntity
  8
LAYER_1
 62
   250
100
AcDbSpline
210
0.0
220
0.0
230
1.0
 70
    11
 71
     3
 72
    72
 73
    68
 74
     0
 42
0.0000000001
 43
0.0000000001
 40
0.0
 40
0.0
 40
0.0
 40
0.0
 40
0.0588235294117647
 40
0.0588235294117647
 40
0.0588235294117647
 40
0.0588235294117647
 40
0.1176470588235294
 40
0.1176470588235294
 40
0.1176470588235294
 40
0.1176470588235294
 40
0.1764705882352941
 40
0.1764705882352941
 40
0.1764705882352941
 40
0.1764705882352941
 40
0.2352941176470588
 40
0.2352941176470588
 40
0.2352941176470588
 40
0.2352941176470588
 40
0.2941176470588235
 40
0.2941176470588235
 40
0.2941176470588235
 40
0.2941176470588235
 40
0.3529411764705883
 40
0.3529411764705883
 40
0.3529411764705883
 40
0.3529411764705883
 40
0.411764705882353
 40
0.411764705882353
 40
0.411764705882353
 40
0.411764705882353
 40
0.4705882352941177
 40
0.4705882352941177
 40
0.4705882352941177
 40
0.4705882352941177
 40
0.5294117647058824
 40
0.5294117647058824
 40
0.5294117647058824
 40
0.5294117647058824
 40
0.5882352941176471
 40
0.5882352941176471
 40
0.5882352941176471
 40
0.5882352941176471
 40
0.6470588235294118
 40
0.6470588235294118
 40
0.6470588235294118
 40
0.6470588235294118
 40
0.7058823529411765
 40
0.7058823529411765
 40
0.7058823529411765
 40
0.7058823529411765
 40
0.7647058823529412
 40
0.7647058823529412
 40
0.7647058823529412
 40
0.7647058823529412
 40
0.823529411764706
 40
0.823529411764706
 40
0.823529411764706
 40
0.823529411764706
 40
0.8823529411764707
 40
0.8823529411764707
 40
0.8823529411764707
 40
0.8823529411764707
 40
0.9411764705882354
 40
0.9411764705882354
 40
0.9411764705882354
 40
0.9411764705882354
 40
1.0
 40
1.0
 40
1.0
 40
1.0
 10
0.5502952755905513
 20
1.2025
 30
0.0
 10
0.5502952755905513
 20
1.2025
 30
0.0
 10
0.5563779527559055
 20
1.2025
 30
0.0
 10
0.5563779527559055
 20
1.2025
 30
0.0
 10
0.5563779527559055
 20
1.2025
 30
0.0
 10
0.5563779527559055
 20
1.2025
 30
0.0
 10
0.5563779527559055
 20
1.108251968503937
 30
0.0
 10
0.5563779527559055
 20
1.108251968503937
 30
0.0
 10
0.5563779527559055
 20
1.108251968503937
 30
0.0
 10
0.5563779527559055
 20
1.103807086614173
 30
0.0
 10
0.5566850393700787
 20
1.100944881889764
 30
0.0
 10
0.557240157480315
 20
1.099665354330709
 30
0.0
 10
0.557240157480315
 20
1.099665354330709
 30
0.0
 10
0.5578228346456693
 20
1.098389763779528
 30
0.0
 10
0.558740157480315
 20
1.097444881889764
 30
0.0
 10
0.5600433070866142
 20
1.096779527559055
 30
0.0
 10
0.5600433070866142
 20
1.096779527559055
 30
0.0
 10
0.5613503937007874
 20
1.096137795275591
 30
0.0
 10
0.5639330708661418
 20
1.095807086614173
 30
0.0
 10
0.5677952755905512
 20
1.095807086614173
 30
0.0
 10
0.5677952755905512
 20
1.095807086614173
 30
0.0
 10
0.5677952755905512
 20
1.095807086614173
 30
0.0
 10
0.5757677165354331
 20
1.095807086614173
 30
0.0
 10
0.5757677165354331
 20
1.095807086614173
 30
0.0
 10
0.5757677165354331
 20
1.095807086614173
 30
0.0
 10
0.5757677165354331
 20
1.095807086614173
 30
0.0
 10
0.5757677165354331
 20
1.088972440944882
 30
0.0
 10
0.5757677165354331
 20
1.088972440944882
 30
0.0
 10
0.5757677165354331
 20
1.088972440944882
 30
0.0
 10
0.5757677165354331
 20
1.088972440944882
 30
0.0
 10
0.5221299212598426
 20
1.088972440944882
 30
0.0
 10
0.5221299212598426
 20
1.088972440944882
 30
0.0
 10
0.5221299212598426
 20
1.088972440944882
 30
0.0
 10
0.5221299212598426
 20
1.088972440944882
 30
0.0
 10
0.5221299212598426
 20
1.095807086614173
 30
0.0
 10
0.5221299212598426
 20
1.095807086614173
 30
0.0
 10
0.5221299212598426
 20
1.095807086614173
 30
0.0
 10
0.5221299212598426
 20
1.095807086614173
 30
0.0
 10
0.530988188976378
 20
1.095807086614173
 30
0.0
 10
0.530988188976378
 20
1.095807086614173
 30
0.0
 10
0.530988188976378
 20
1.095807086614173
 30
0.0
 10
0.5348503937007875
 20
1.095807086614173
 30
0.0
 10
0.5374055118110237
 20
1.096137795275591
 30
0.0
 10
0.5386850393700787
 20
1.096834645669292
 30
0.0
 10
0.5386850393700787
 20
1.096834645669292
 30
0.0
 10
0.5399606299212598
 20
1.0975
 30
0.0
 10
0.5409606299212598
 20
1.098582677165354
 30
0.0
 10
0.5416574803149606
 20
1.100082677165355
 30
0.0
 10
0.5416574803149606
 20
1.100082677165355
 30
0.0
 10
0.5423503937007874
 20
1.101582677165354
 30
0.0
 10
0.5427125984251969
 20
1.104307086614173
 30
0.0
 10
0.5427125984251969
 20
1.108251968503937
 30
0.0
 10
0.5427125984251969
 20
1.108251968503937
 30
0.0
 10
0.5427125984251969
 20
1.108251968503937
 30
0.0
 10
0.5427125984251969
 20
1.185720472440945
 30
0.0
 10
0.5427125984251969
 20
1.185720472440945
 30
0.0
 10
0.5427125984251969
 20
1.185720472440945
 30
0.0
 10
0.5427125984251969
 20
1.185720472440945
 30
0.0
 10
0.5221299212598426
 20
1.185720472440945
 30
0.0
 10
0.5221299212598426
 20
1.185720472440945
 30
0.0
 10
0.5221299212598426
 20
1.185720472440945
 30
0.0
 10
0.5221299212598426
 20
1.185720472440945
 30
0.0
 10
0.5221299212598426
 20
1.192720472440945
 30
0.0
 10
0.5221299212598426
 20
1.192720472440945
 30
0.0
 10
0.5221299212598426
 20
1.192720472440945
 30
0.0
 10
0.5333503937007874
 20
1.194303149606299
 30
0.0
 10
0.542740157480315
 20
1.197555118110236
 30
0.0
 10
0.5502952755905513
 20
1.2025
 30
0.0
  0
SPLINE
  5
56
330
1F
100
AcDbEntity
  8
LAYER_1
 62
   250
100
AcDbSpline
210
0.0
220
0.0
230
1.0
 70
    11
 71
     3
 72
    80
 73
    76
 74
     0
 42
0.0000000001
 43
0.0000000001
 40
0.0
 40
0.0
 40
0.0
 40
0.0
 40
0.0526315789473684
 40
0.0526315789473684
 40
0.0526315789473684
 40
0.0526315789473684
 40
0.1052631578947368
 40
0.1052631578947368
 40
0.1052631578947368
 40
0.1052631578947368
 40
0.1578947368421053
 40
0.1578947368421053
 40
0.1578947368421053
 40
0.1578947368421053
 40
0.2105263157894737
 40
0.2105263157894737
 40
0.2105263157894737
 40
0.2105263157894737
 40
0.2631578947368421
 40
0.2631578947368421
 40
0.2631578947368421
 40
0.2631578947368421
 40
0.3157894736842105
 40
0.3157894736842105
 40
0.3157894736842105
 40
0.3157894736842105
 40
0.3684210526315789
 40
0.3684210526315789
 40
0.3684210526315789
 40
0.3684210526315789
 40
0.4210526315789474
 40
0.4210526315789474
 40
0.4210526315789474
 40
0.4210526315789474
 40
0.4736842105263158
 40
0.4736842105263158
 40
0.4736842105263158
 40
0.4736842105263158
 40
0.5263157894736842
 40
0.5263157894736842
 40
0.5263157894736842
 40
0.5263157894736842
 40
0.5789473684210527
 40
0.5789473684210527
 40
0.5789473684210527
 40
0.5789473684210527
 40
0.631578947368421
 40
0.631578947368421
 40
0.631578947368421
 40
0.631578947368421
 40
0.6842105263157894
 40
0.6842105263157894
 40
0.6842105263157894
 40
0.6842105263157894
 40
0.7368421052631577
 40
0.7368421052631577
 40
0.7368421052631577
 40
0.7368421052631577
 40
0.7894736842105261
 40
0.7894736842105261
 40
0.7894736842105261
 40
0.7894736842105261
 40
0.8421052631578945
 40
0.8421052631578945
 40
0.8421052631578945
 40
0.8421052631578945
 40
0.8947368421052628
 40
0.8947368421052628
 40
0.8947368421052628
 40
0.8947368421052628
 40
0.9473684210526312
 40
0.9473684210526312
 40
0.9473684210526312
 40
0.9473684210526312
 40
1.0
 40
1.0
 40
1.0
 40
1.0
 10
0.6157125984251969
 20
1.206637795275591
 30
0.0
 10
0.6157125984251969
 20
1.206637795275591
 30
0.0
 10
0.6211023622047245
 20
1.206637795275591
 30
0.0
 10
0.6211023622047245
 20
1.206637795275591
 30
0.0
 10
0.6211023622047245
 20
1.206637795275591
 30
0.0
 10
0.6211023622047245
 20
1.206637795275591
 30
0.0
 10
0.6220748031496063
 20
1.2025
 30
0.0
 10
0.6220748031496063
 20
1.2025
 30
0.0
 10
0.6220748031496063
 20
1.2025
 30
0.0
 10
0.6220748031496063
 20
1.2025
 30
0.0
 10
0.6931850393700788
 20
1.2025
 30
0.0
 10
0.6931850393700788
 20
1.2025
 30
0.0
 10
0.6931850393700788
 20
1.2025
 30
0.0
 10
0.6931850393700788
 20
1.2025
 30
0.0
 10
0.6931850393700788
 20
1.195582677165354
 30
0.0
 10
0.6931850393700788
 20
1.195582677165354
 30
0.0
 10
0.6931850393700788
 20
1.195582677165354
 30
0.0
 10
0.6846850393700787
 20
1.185748031496063
 30
0.0
 10
0.6769606299212598
 20
1.174582677165355
 30
0.0
 10
0.6700472440944882
 20
1.162
 30
0.0
 10
0.6700472440944882
 20
1.162
 30
0.0
 10
0.6631299212598425
 20
1.149444881889764
 30
0.0
 10
0.6577677165354331
 20
1.136665354330709
 30
0.0
 10
0.6539606299212599
 20
1.123637795275591
 30
0.0
 10
0.6539606299212599
 20
1.123637795275591
 30
0.0
 10
0.6512125984251969
 20
1.114251968503937
 30
0.0
 10
0.6489645669291339
 20
1.102692913385827
 30
0.0
 10
0.6472125984251969
 20
1.088972440944882
 30
0.0
 10
0.6472125984251969
 20
1.088972440944882
 30
0.0
 10
0.6472125984251969
 20
1.088972440944882
 30
0.0
 10
0.6305472440944883
 20
1.088972440944882
 30
0.0
 10
0.6305472440944883
 20
1.088972440944882
 30
0.0
 10
0.6305472440944883
 20
1.088972440944882
 30
0.0
 10
0.6321574803149607
 20
1.101082677165354
 30
0.0
 10
0.6348228346456694
 20
1.112389763779528
 30
0.0
 10
0.6385472440944883
 20
1.122917322834646
 30
0.0
 10
0.6385472440944883
 20
1.122917322834646
 30
0.0
 10
0.6422677165354331
 20
1.133444881889764
 30
0.0
 10
0.6476299212598425
 20
1.144444881889764
 30
0.0
 10
0.6546574803149606
 20
1.155917322834646
 30
0.0
 10
0.6546574803149606
 20
1.155917322834646
 30
0.0
 10
0.6616850393700787
 20
1.167389763779528
 30
0.0
 10
0.6702125984251969
 20
1.178834645669291
 30
0.0
 10
0.6802677165354331
 20
1.190275590551181
 30
0.0
 10
0.6802677165354331
 20
1.190275590551181
 30
0.0
 10
0.6802677165354331
 20
1.190275590551181
 30
0.0
 10
0.6295472440944883
 20
1.190275590551181
 30
0.0
 10
0.6295472440944883
 20
1.190275590551181
 30
0.0
 10
0.6295472440944883
 20
1.190275590551181
 30
0.0
 10
0.6258779527559055
 20
1.190275590551181
 30
0.0
 10
0.6233503937007874
 20
1.190110236220473
 30
0.0
 10
0.621992125984252
 20
1.189720472440945
 30
0.0
 10
0.621992125984252
 20
1.189720472440945
 30
0.0
 10
0.6206299212598425
 20
1.189334645669292
 30
0.0
 10
0.6195748031496063
 20
1.188748031496063
 30
0.0
 10
0.6188228346456693
 20
1.187944881889764
 30
0.0
 10
0.6188228346456693
 20
1.187944881889764
 30
0.0
 10
0.6180472440944882
 20
1.187110236220472
 30
0.0
 10
0.6174055118110237
 20
1.185665354330709
 30
0.0
 10
0.6168503937007874
 20
1.183610236220473
 30
0.0
 10
0.6168503937007874
 20
1.183610236220473
 30
0.0
 10
0.6168503937007874
 20
1.183610236220473
 30
0.0
 10
0.6164645669291339
 20
1.182082677165354
 30
0.0
 10
0.6164645669291339
 20
1.182082677165354
 30
0.0
 10
0.6164645669291339
 20
1.182082677165354
 30
0.0
 10
0.6164645669291339
 20
1.182082677165354
 30
0.0
 10
0.6136850393700788
 20
1.172472440944882
 30
0.0
 10
0.6136850393700788
 20
1.172472440944882
 30
0.0
 10
0.6136850393700788
 20
1.172472440944882
 30
0.0
 10
0.6136850393700788
 20
1.172472440944882
 30
0.0
 10
0.606767716535433
 20
1.173944881889764
 30
0.0
 10
0.606767716535433
 20
1.173944881889764
 30
0.0
 10
0.606767716535433
 20
1.173944881889764
 30
0.0
 10
0.606767716535433
 20
1.173944881889764
 30
0.0
 10
0.6157125984251969
 20
1.206637795275591
 30
0.0
 10
0.6157125984251969
 20
1.206637795275591
 30
0.0
  0
SPLINE
  5
57
330
1F
100
AcDbEntity
  8
LAYER_1
 62
   250
100
AcDbSpline
210
0.0
220
0.0
230
1.0
 70
    11
 71
     3
 72
    72
 73
    68
 74
     0
 42
0.0000000001
 43
0.0000000001
 40
0.0
 40
0.0
 40
0.0
 40
0.0
 40
0.0588235294117647
 40
0.0588235294117647
 40
0.0588235294117647
 40
0.0588235294117647
 40
0.1176470588235294
 40
0.1176470588235294
 40
0.1176470588235294
 40
0.1176470588235294
 40
0.1764705882352941
 40
0.1764705882352941
 40
0.1764705882352941
 40
0.1764705882352941
 40
0.2352941176470588
 40
0.2352941176470588
 40
0.2352941176470588
 40
0.2352941176470588
 40
0.2941176470588235
 40
0.2941176470588235
 40
0.2941176470588235
 40
0.2941176470588235
 40
0.3529411764705883
 40
0.3529411764705883
 40
0.3529411764705883
 40
0.3529411764705883
 40
0.411764705882353
 40
0.411764705882353
 40
0.411764705882353
 40
0.411764705882353
 40
0.4705882352941177
 40
0.4705882352941177
 40
0.4705882352941177
 40
0.4705882352941177
 40
0.5294117647058824
 40
0.5294117647058824
 40
0.5294117647058824
 40
0.5294117647058824
 40
0.5882352941176471
 40
0.5882352941176471
 40
0.5882352941176471
 40
0.5882352941176471
 40
0.6470588235294118
 40
0.6470588235294118
 40
0.6470588235294118
 40
0.6470588235294118
 40
0.7058823529411765
 40
0.7058823529411765
 40
0.7058823529411765
 40
0.7058823529411765
 40
0.7647058823529412
 40
0.7647058823529412
 40
0.7647058823529412
 40
0.7647058823529412
 40
0.823529411764706
 40
0.823529411764706
 40
0.823529411764706
 40
0.823529411764706
 40
0.8823529411764707
 40
0.8823529411764707
 40
0.8823529411764707
 40
0.8823529411764707
 40
0.9411764705882354
 40
0.9411764705882354
 40
0.9411764705882354
 40
0.9411764705882354
 40
1.0
 40
1.0
 40
1.0
 40
1.0
 10
0.7570196850393701
 20
1.2025
 30
0.0
 10
0.7570196850393701
 20
1.2025
 30
0.0
 10
0.7631023622047245
 20
1.2025
 30
0.0
 10
0.7631023622047245
 20
1.2025
 30
0.0
 10
0.7631023622047245
 20
1.2025
 30
0.0
 10
0.7631023622047245
 20
1.2025
 30
0.0
 10
0.7631023622047245
 20
1.108251968503937
 30
0.0
 10
0.7631023622047245
 20
1.108251968503937
 30
0.0
 10
0.7631023622047245
 20
1.108251968503937
 30
0.0
 10
0.7631023622047245
 20
1.103807086614173
 30
0.0
 10
0.7634094488188977
 20
1.100944881889764
 30
0.0
 10
0.7639645669291338
 20
1.099665354330709
 30
0.0
 10
0.7639645669291338
 20
1.099665354330709
 30
0.0
 10
0.7645472440944883
 20
1.098389763779528
 30
0.0
 10
0.7654645669291339
 20
1.097444881889764
 30
0.0
 10
0.7667677165354331
 20
1.096779527559055
 30
0.0
 10
0.7667677165354331
 20
1.096779527559055
 30
0.0
 10
0.7680748031496063
 20
1.096137795275591
 30
0.0
 10
0.7706574803149606
 20
1.095807086614173
 30
0.0
 10
0.7745196850393701
 20
1.095807086614173
 30
0.0
 10
0.7745196850393701
 20
1.095807086614173
 30
0.0
 10
0.7745196850393701
 20
1.095807086614173
 30
0.0
 10
0.782492125984252
 20
1.095807086614173
 30
0.0
 10
0.782492125984252
 20
1.095807086614173
 30
0.0
 10
0.782492125984252
 20
1.095807086614173
 30
0.0
 10
0.782492125984252
 20
1.095807086614173
 30
0.0
 10
0.782492125984252
 20
1.088972440944882
 30
0.0
 10
0.782492125984252
 20
1.088972440944882
 30
0.0
 10
0.782492125984252
 20
1.088972440944882
 30
0.0
 10
0.782492125984252
 20
1.088972440944882
 30
0.0
 10
0.7288543307086615
 20
1.088972440944882
 30
0.0
 10
0.7288543307086615
 20
1.088972440944882
 30
0.0
 10
0.7288543307086615
 20
1.088972440944882
 30
0.0
 10
0.7288543307086615
 20
1.088972440944882
 30
0.0
 10
0.7288543307086615
 20
1.095807086614173
 30
0.0
 10
0.7288543307086615
 20
1.095807086614173
 30
0.0
 10
0.7288543307086615
 20
1.095807086614173
 30
0.0
 10
0.7288543307086615
 20
1.095807086614173
 30
0.0
 10
0.7377125984251969
 20
1.095807086614173
 30
0.0
 10
0.7377125984251969
 20
1.095807086614173
 30
0.0
 10
0.7377125984251969
 20
1.095807086614173
 30
0.0
 10
0.7415748031496063
 20
1.095807086614173
 30
0.0
 10
0.7441299212598426
 20
1.096137795275591
 30
0.0
 10
0.7454094488188977
 20
1.096834645669292
 30
0.0
 10
0.7454094488188977
 20
1.096834645669292
 30
0.0
 10
0.7466850393700788
 20
1.0975
 30
0.0
 10
0.7476850393700788
 20
1.098582677165354
 30
0.0
 10
0.7483818897637795
 20
1.100082677165355
 30
0.0
 10
0.7483818897637795
 20
1.100082677165355
 30
0.0
 10
0.7490748031496063
 20
1.101582677165354
 30
0.0
 10
0.7494370078740158
 20
1.104307086614173
 30
0.0
 10
0.7494370078740158
 20
1.108251968503937
 30
0.0
 10
0.7494370078740158
 20
1.108251968503937
 30
0.0
 10
0.7494370078740158
 20
1.108251968503937
 30
0.0
 10
0.7494370078740158
 20
1.185720472440945
 30
0.0
 10
0.7494370078740158
 20
1.185720472440945
 30
0.0
 10
0.7494370078740158
 20
1.185720472440945
 30
0.0
 10
0.7494370078740158
 20
1.185720472440945
 30
0.0
 10
0.7288543307086615
 20
1.185720472440945
 30
0.0
 10
0.7288543307086615
 20
1.185720472440945
 30
0.0
 10
0.7288543307086615
 20
1.185720472440945
 30
0.0
 10
0.7288543307086615
 20
1.185720472440945
 30
0.0
 10
0.7288543307086615
 20
1.192720472440945
 30
0.0
 10
0.7288543307086615
 20
1.192720472440945
 30
0.0
 10
0.7288543307086615
 20
1.192720472440945
 30
0.0
 10
0.7400748031496063
 20
1.194303149606299
 30
0.0
 10
0.7494645669291339
 20
1.197555118110236
 30
0.0
 10
0.7570196850393701
 20
1.2025
 30
0.0
  0
SPLINE
  5
58
330
1F
100
AcDbEntity
  8
LAYER_1
 62
   250
100
AcDbSpline
210
0.0
220
0.0
230
1.0
 70
    11
 71
     3
 72
    84
 73
    80
 74
     0
 42
0.0000000001
 43
0.0000000001
 40
0.0
 40
0.0
 40
0.0
 40
0.0
 40
0.05
 40
0.05
 40
0.05
 40
0.05
 40
0.1
 40
0.1
 40
0.1
 40
0.1
 40
0.15
 40
0.15
 40
0.15
 40
0.15
 40
0.2
 40
0.2
 40
0.2
 40
0.2
 40
0.25
 40
0.25
 40
0.25
 40
0.25
 40
0.3
 40
0.3
 40
0.3
 40
0.3
 40
0.35
 40
0.35
 40
0.35
 40
0.35
 40
0.4
 40
0.4
 40
0.4
 40
0.4
 40
0.45
 40
0.45
 40
0.45
 40
0.45
 40
0.4999999999999999
 40
0.4999999999999999
 40
0.4999999999999999
 40
0.4999999999999999
 40
0.5499999999999999
 40
0.5499999999999999
 40
0.5499999999999999
 40
0.5499999999999999
 40
0.6
 40
0.6
 40
0.6
 40
0.6
 40
0.65
 40
0.65
 40
0.65
 40
0.65
 40
0.7000000000000001
 40
0.7000000000000001
 40
0.7000000000000001
 40
0.7000000000000001
 40
0.7500000000000001
 40
0.7500000000000001
 40
0.7500000000000001
 40
0.7500000000000001
 40
0.8000000000000002
 40
0.8000000000000002
 40
0.8000000000000002
 40
0.8000000000000002
 40
0.8500000000000002
 40
0.8500000000000002
 40
0.8500000000000002
 40
0.8500000000000002
 40
0.9000000000000002
 40
0.9000000000000002
 40
0.9000000000000002
 40
0.9000000000000002
 40
0.9500000000000003
 40
0.9500000000000003
 40
0.9500000000000003
 40
0.9500000000000003
 40
1.0
 40
1.0
 40
1.0
 40
1.0
 10
0.8886850393700788
 20
1.204610236220473
 30
0.0
 10
0.8886850393700788
 20
1.204610236220473
 30
0.0
 10
0.8886850393700788
 20
1.197192913385827
 30
0.0
 10
0.8886850393700788
 20
1.197192913385827
 30
0.0
 10
0.8886850393700788
 20
1.197192913385827
 30
0.0
 10
0.8752992125984253
 20
1.197055118110236
 30
0.0
 10
0.8644645669291339
 20
1.195082677165354
 30
0.0
 10
0.8561889763779528
 20
1.19136220472441
 30
0.0
 10
0.8561889763779528
 20
1.19136220472441
 30
0.0
 10
0.8479094488188976
 20
1.187610236220473
 30
0.0
 10
0.8418267716535434
 20
1.182
 30
0.0
 10
0.8379094488188976
 20
1.174555118110236
 30
0.0
 10
0.8379094488188976
 20
1.174555118110236
 30
0.0
 10
0.833992125984252
 20
1.167082677165354
 30
0.0
 10
0.8317992125984253
 20
1.157889763779528
 30
0.0
 10
0.8313267716535433
 20
1.147
 30
0.0
 10
0.8313267716535433
 20
1.147
 30
0.0
 10
0.8340748031496064
 20
1.151220472440945
 30
0.0
 10
0.8369094488188976
 20
1.154527559055118
 30
0.0
 10
0.8398267716535434
 20
1.156889763779528
 30
0.0
 10
0.8398267716535434
 20
1.156889763779528
 30
0.0
 10
0.8427165354330709
 20
1.159248031496063
 30
0.0
 10
0.8461023622047245
 20
1.161055118110236
 30
0.0
 10
0.849992125984252
 20
1.162334645669291
 30
0.0
 10
0.849992125984252
 20
1.162334645669291
 30
0.0
 10
0.8538818897637795
 20
1.163610236220473
 30
0.0
 10
0.8581299212598426
 20
1.164248031496063
 30
0.0
 10
0.862744094488189
 20
1.164248031496063
 30
0.0
 10
0.862744094488189
 20
1.164248031496063
 30
0.0
 10
0.8701023622047245
 20
1.164248031496063
 30
0.0
 10
0.8766850393700788
 20
1.162610236220472
 30
0.0
 10
0.8824370078740158
 20
1.159362204724409
 30
0.0
 10
0.8824370078740158
 20
1.159362204724409
 30
0.0
 10
0.8881850393700788
 20
1.156110236220473
 30
0.0
 10
0.8926574803149606
 20
1.151692913385827
 30
0.0
 10
0.8958543307086615
 20
1.146137795275591
 30
0.0
 10
0.8958543307086615
 20
1.146137795275591
 30
0.0
 10
0.8990472440944882
 20
1.140582677165354
 30
0.0
 10
0.9006574803149606
 20
1.134027559055118
 30
0.0
 10
0.9006574803149606
 20
1.1265
 30
0.0
 10
0.9006574803149606
 20
1.1265
 30
0.0
 10
0.9006574803149606
 20
1.1145
 30
0.0
 10
0.8970472440944882
 20
1.105082677165354
 30
0.0
 10
0.8898267716535433
 20
1.098251968503937
 30
0.0
 10
0.8898267716535433
 20
1.098251968503937
 30
0.0
 10
0.8818543307086615
 20
1.090751968503937
 30
0.0
 10
0.8715196850393702
 20
1.087027559055118
 30
0.0
 10
0.8588267716535434
 20
1.087027559055118
 30
0.0
 10
0.8588267716535434
 20
1.087027559055118
 30
0.0
 10
0.8496574803149607
 20
1.087027559055118
 30
0.0
 10
0.8419370078740158
 20
1.088917322834646
 30
0.0
 10
0.8356299212598426
 20
1.092720472440945
 30
0.0
 10
0.8356299212598426
 20
1.092720472440945
 30
0.0
 10
0.8293267716535433
 20
1.0965
 30
0.0
 10
0.8243267716535433
 20
1.102307086614173
 30
0.0
 10
0.8206023622047245
 20
1.110137795275591
 30
0.0
 10
0.8206023622047245
 20
1.110137795275591
 30
0.0
 10
0.8169094488188977
 20
1.117944881889764
 30
0.0
 10
0.8150472440944883
 20
1.127610236220473
 30
0.0
 10
0.8150472440944883
 20
1.139110236220473
 30
0.0
 10
0.8150472440944883
 20
1.139110236220473
 30
0.0
 10
0.8150472440944883
 20
1.150665354330709
 30
0.0
 10
0.8170196850393701
 20
1.160917322834646
 30
0.0
 10
0.8209370078740158
 20
1.169862204724409
 30
0.0
 10
0.8209370078740158
 20
1.169862204724409
 30
0.0
 10
0.8248818897637795
 20
1.178803149606299
 30
0.0
 10
0.8303267716535433
 20
1.186
 30
0.0
 10
0.8372716535433071
 20
1.191417322834646
 30
0.0
 10
0.8372716535433071
 20
1.191417322834646
 30
0.0
 10
0.8442165354330709
 20
1.19686220472441
 30
0.0
 10
0.8518267716535434
 20
1.200417322834646
 30
0.0
 10
0.8600748031496064
 20
1.202082677165354
 30
0.0
 10
0.8600748031496064
 20
1.202082677165354
 30
0.0
 10
0.8683543307086614
 20
1.203775590551181
 30
0.0
 10
0.8757716535433071
 20
1.204610236220473
 30
0.0
 10
0.8823543307086614
 20
1.204610236220473
 30
0.0
 10
0.8823543307086614
 20
1.204610236220473
 30
0.0
 10
0.8823543307086614
 20
1.204610236220473
 30
0.0
 10
0.8886850393700788
 20
1.204610236220473
 30
0.0
 10
0.8886850393700788
 20
1.204610236220473
 30
0.0
  0
SPLINE
  5
59
330
1F
100
AcDbEntity
  8
LAYER_1
 62
   250
100
AcDbSpline
210
0.0
220
0.0
230
1.0
 70
    11
 71
     3
 72
    40
 73
    36
 74
     0
 42
0.0000000001
 43
0.0000000001
 40
0.0
 40
0.0
 40
0.0
 40
0.0
 40
0.1111111111111111
 40
0.1111111111111111
 40
0.1111111111111111
 40
0.1111111111111111
 40
0.2222222222222222
 40
0.2222222222222222
 40
0.2222222222222222
 40
0.2222222222222222
 40
0.3333333333333333
 40
0.3333333333333333
 40
0.3333333333333333
 40
0.3333333333333333
 40
0.4444444444444444
 40
0.4444444444444444
 40
0.4444444444444444
 40
0.4444444444444444
 40
0.5555555555555556
 40
0.5555555555555556
 40
0.5555555555555556
 40
0.5555555555555556
 40
0.6666666666666667
 40
0.6666666666666667
 40
0.6666666666666667
 40
0.6666666666666667
 40
0.7777777777777779
 40
0.7777777777777779
 40
0.7777777777777779
 40
0.7777777777777779
 40
0.8888888888888891
 40
0.8888888888888891
 40
0.8888888888888891
 40
0.8888888888888891
 40
1.0
 40
1.0
 40
1.0
 40
1.0
 10
0.858992125984252
 20
1.155610236220473
 30
0.0
 10
0.8511889763779528
 20
1.155610236220473
 30
0.0
 10
0.8447716535433071
 20
1.152665354330709
 30
0.0
 10
0.839744094488189
 20
1.146748031496063
 30
0.0
 10
0.839744094488189
 20
1.146748031496063
 30
0.0
 10
0.8347165354330709
 20
1.140834645669292
 30
0.0
 10
0.832216535433071
 20
1.133720472440945
 30
0.0
 10
0.832216535433071
 20
1.125444881889764
 30
0.0
 10
0.832216535433071
 20
1.125444881889764
 30
0.0
 10
0.832216535433071
 20
1.119582677165354
 30
0.0
 10
0.8334370078740158
 20
1.114165354330709
 30
0.0
 10
0.8358818897637795
 20
1.109192913385827
 30
0.0
 10
0.8358818897637795
 20
1.109192913385827
 30
0.0
 10
0.8383267716535433
 20
1.104220472440945
 30
0.0
 10
0.8414645669291339
 20
1.100555118110236
 30
0.0
 10
0.8453267716535433
 20
1.098137795275591
 30
0.0
 10
0.8453267716535433
 20
1.098137795275591
 30
0.0
 10
0.8491574803149606
 20
1.095720472440945
 30
0.0
 10
0.8535196850393702
 20
1.0945
 30
0.0
 10
0.8583267716535433
 20
1.0945
 30
0.0
 10
0.8583267716535433
 20
1.0945
 30
0.0
 10
0.8658267716535434
 20
1.0945
 30
0.0
 10
0.8720472440944882
 20
1.097334645669291
 30
0.0
 10
0.8770196850393701
 20
1.103
 30
0.0
 10
0.8770196850393701
 20
1.103
 30
0.0
 10
0.8819645669291339
 20
1.108665354330709
 30
0.0
 10
0.8844645669291339
 20
1.116279527559055
 30
0.0
 10
0.8844645669291339
 20
1.125834645669291
 30
0.0
 10
0.8844645669291339
 20
1.125834645669291
 30
0.0
 10
0.8844645669291339
 20
1.134944881889764
 30
0.0
 10
0.8820472440944882
 20
1.142192913385827
 30
0.0
 10
0.8772165354330709
 20
1.147555118110236
 30
0.0
 10
0.8772165354330709
 20
1.147555118110236
 30
0.0
 10
0.8723818897637795
 20
1.152944881889764
 30
0.0
 10
0.8662992125984252
 20
1.155610236220473
 30
0.0
 10
0.858992125984252
 20
1.155610236220473
 30
0.0
  0
SPLINE
  5
5A
330
1F
100
AcDbEntity
  8
LAYER_1
 62
   250
100
AcDbSpline
210
0.0
220
0.0
230
1.0
 70
    11
 71
     3
 72
    76
 73
    72
 74
     0
 42
0.0000000001
 43
0.0000000001
 40
0.0
 40
0.0
 40
0.0
 40
0.0
 40
0.0555555555555556
 40
0.0555555555555556
 40
0.0555555555555556
 40
0.0555555555555556
 40
0.1111111111111111
 40
0.1111111111111111
 40
0.1111111111111111
 40
0.1111111111111111
 40
0.1666666666666667
 40
0.1666666666666667
 40
0.1666666666666667
 40
0.1666666666666667
 40
0.2222222222222222
 40
0.2222222222222222
 40
0.2222222222222222
 40
0.2222222222222222
 40
0.2777777777777778
 40
0.2777777777777778
 40
0.2777777777777778
 40
0.2777777777777778
 40
0.3333333333333334
 40
0.3333333333333334
 40
0.3333333333333334
 40
0.3333333333333334
 40
0.388888888888889
 40
0.388888888888889
 40
0.388888888888889
 40
0.388888888888889
 40
0.4444444444444445
 40
0.4444444444444445
 40
0.4444444444444445
 40
0.4444444444444445
 40
0.5000000000000001
 40
0.5000000000000001
 40
0.5000000000000001
 40
0.5000000000000001
 40
0.5555555555555557
 40
0.5555555555555557
 40
0.5555555555555557
 40
0.5555555555555557
 40
0.6111111111111113
 40
0.6111111111111113
 40
0.6111111111111113
 40
0.6111111111111113
 40
0.6666666666666669
 40
0.6666666666666669
 40
0.6666666666666669
 40
0.6666666666666669
 40
0.7222222222222224
 40
0.7222222222222224
 40
0.7222222222222224
 40
0.7222222222222224
 40
0.777777777777778
 40
0.777777777777778
 40
0.777777777777778
 40
0.777777777777778
 40
0.8333333333333336
 40
0.8333333333333336
 40
0.8333333333333336
 40
0.8333333333333336
 40
0.8888888888888892
 40
0.8888888888888892
 40
0.8888888888888892
 40
0.8888888888888892
 40
0.9444444444444448
 40
0.9444444444444448
 40
0.9444444444444448
 40
0.9444444444444448
 40
1.0
 40
1.0
 40
1.0
 40
1.0
 10
0.1930472440944882
 20
1.015889763779528
 30
0.0
 10
0.1930472440944882
 20
1.015889763779528
 30
0.0
 10
0.1930472440944882
 20
0.9672204724409449
 30
0.0
 10
0.1930472440944882
 20
0.9672204724409449
 30
0.0
 10
0.1930472440944882
 20
0.9672204724409449
 30
0.0
 10
0.1930472440944882
 20
0.9645275590551181
 30
0.0
 10
0.1933228346456693
 20
0.9628622047244095
 30
0.0
 10
0.1939094488188977
 20
0.9623070866141733
 30
0.0
 10
0.1939094488188977
 20
0.9623070866141733
 30
0.0
 10
0.1944645669291339
 20
0.9617204724409449
 30
0.0
 10
0.1960748031496063
 20
0.9614448818897639
 30
0.0
 10
0.198740157480315
 20
0.9614448818897639
 30
0.0
 10
0.198740157480315
 20
0.9614448818897639
 30
0.0
 10
0.198740157480315
 20
0.9614448818897639
 30
0.0
 10
0.2044370078740158
 20
0.9614448818897639
 30
0.0
 10
0.2044370078740158
 20
0.9614448818897639
 30
0.0
 10
0.2044370078740158
 20
0.9614448818897639
 30
0.0
 10
0.2044370078740158
 20
0.9614448818897639
 30
0.0
 10
0.2044370078740158
 20
0.9568897637795276
 30
0.0
 10
0.2044370078740158
 20
0.9568897637795276
 30
0.0
 10
0.2044370078740158
 20
0.9568897637795276
 30
0.0
 10
0.2044370078740158
 20
0.9568897637795276
 30
0.0
 10
0.1708267716535433
 20
0.9568897637795276
 30
0.0
 10
0.1708267716535433
 20
0.9568897637795276
 30
0.0
 10
0.1708267716535433
 20
0.9568897637795276
 30
0.0
 10
0.1708267716535433
 20
0.9568897637795276
 30
0.0
 10
0.1708267716535433
 20
0.9614448818897639
 30
0.0
 10
0.1708267716535433
 20
0.9614448818897639
 30
0.0
 10
0.1708267716535433
 20
0.9614448818897639
 30
0.0
 10
0.1708267716535433
 20
0.9614448818897639
 30
0.0
 10
0.1770196850393701
 20
0.9614448818897639
 30
0.0
 10
0.1770196850393701
 20
0.9614448818897639
 30
0.0
 10
0.1770196850393701
 20
0.9614448818897639
 30
0.0
 10
0.1791850393700787
 20
0.9614448818897639
 30
0.0
 10
0.1805472440944882
 20
0.9615826771653544
 30
0.0
 10
0.1811299212598425
 20
0.9618622047244095
 30
0.0
 10
0.1811299212598425
 20
0.9618622047244095
 30
0.0
 10
0.1816850393700787
 20
0.9621377952755906
 30
0.0
 10
0.1821299212598425
 20
0.9626102362204725
 30
0.0
 10
0.1824645669291339
 20
0.9633346456692914
 30
0.0
 10
0.1824645669291339
 20
0.9633346456692914
 30
0.0
 10
0.1827952755905512
 20
0.9640275590551182
 30
0.0
 10
0.1829645669291339
 20
0.9653346456692914
 30
0.0
 10
0.1829645669291339
 20
0.9672204724409449
 30
0.0
 10
0.1829645669291339
 20
0.9672204724409449
 30
0.0
 10
0.1829645669291339
 20
0.9672204724409449
 30
0.0
 10
0.1829645669291339
 20
1.006275590551181
 30
0.0
 10
0.1829645669291339
 20
1.006275590551181
 30
0.0
 10
0.1829645669291339
 20
1.006275590551181
 30
0.0
 10
0.1829645669291339
 20
1.006275590551181
 30
0.0
 10
0.1708267716535433
 20
1.006275590551181
 30
0.0
 10
0.1708267716535433
 20
1.006275590551181
 30
0.0
 10
0.1708267716535433
 20
1.006275590551181
 30
0.0
 10
0.1708267716535433
 20
1.006275590551181
 30
0.0
 10
0.1708267716535433
 20
1.01086220472441
 30
0.0
 10
0.1708267716535433
 20
1.01086220472441
 30
0.0
 10
0.1708267716535433
 20
1.01086220472441
 30
0.0
 10
0.1739370078740158
 20
1.011220472440945
 30
0.0
 10
0.1776299212598425
 20
1.012
 30
0.0
 10
0.181992125984252
 20
1.013137795275591
 30
0.0
 10
0.181992125984252
 20
1.013137795275591
 30
0.0
 10
0.1846299212598425
 20
1.013830708661417
 30
0.0
 10
0.1861574803149606
 20
1.014472440944882
 30
0.0
 10
0.1865472440944882
 20
1.015027559055118
 30
0.0
 10
0.1865472440944882
 20
1.015027559055118
 30
0.0
 10
0.1869094488188977
 20
1.015610236220472
 30
0.0
 10
0.1874094488188977
 20
1.015889763779528
 30
0.0
 10
0.187992125984252
 20
1.015889763779528
 30
0.0
 10
0.187992125984252
 20
1.015889763779528
 30
0.0
 10
0.187992125984252
 20
1.015889763779528
 30
0.0
 10
0.1930472440944882
 20
1.015889763779528
 30
0.0
 10
0.1930472440944882
 20
1.015889763779528
 30
0.0
  0
SPLINE
  5
5B
330
1F
100
AcDbEntity
  8
LAYER_1
 62
   250
100
AcDbSpline
210
0.0
220
0.0
230
1.0
 70
    11
 71
     3
 72
    20
 73
    16
 74
     0
 42
0.0000000001
 43
0.0000000001
 40
0.0
 40
0.0
 40
0.0
 40
0.0
 40
0.25
 40
0.25
 40
0.25
 40
0.25
 40
0.5
 40
0.5
 40
0.5
 40
0.5
 40
0.75
 40
0.75
 40
0.75
 40
0.75
 40
1.0
 40
1.0
 40
1.0
 40
1.0
 10
0.271240157480315
 20
1.016944881889764
 30
0.0
 10
0.271240157480315
 20
1.016944881889764
 30
0.0
 10
0.1955472440944882
 20
0.8995275590551182
 30
0.0
 10
0.1955472440944882
 20
0.8995275590551182
 30
0.0
 10
0.1955472440944882
 20
0.8995275590551182
 30
0.0
 10
0.1955472440944882
 20
0.8995275590551182
 30
0.0
 10
0.1858818897637795
 20
0.8995275590551182
 30
0.0
 10
0.1858818897637795
 20
0.8995275590551182
 30
0.0
 10
0.1858818897637795
 20
0.8995275590551182
 30
0.0
 10
0.1858818897637795
 20
0.8995275590551182
 30
0.0
 10
0.2614094488188977
 20
1.016944881889764
 30
0.0
 10
0.2614094488188977
 20
1.016944881889764
 30
0.0
 10
0.2614094488188977
 20
1.016944881889764
 30
0.0
 10
0.2614094488188977
 20
1.016944881889764
 30
0.0
 10
0.271240157480315
 20
1.016944881889764
 30
0.0
 10
0.271240157480315
 20
1.016944881889764
 30
0.0
  0
SPLINE
  5
5C
330
1F
100
AcDbEntity
  8
LAYER_1
 62
   250
100
AcDbSpline
210
0.0
220
0.0
230
1.0
 70
    11
 71
     3
 72
   120
 73
   116
 74
     0
 42
0.0000000001
 43
0.0000000001
 40
0.0
 40
0.0
 40
0.0
 40
0.0
 40
0.0344827586206897
 40
0.0344827586206897
 40
0.0344827586206897
 40
0.0344827586206897
 40
0.0689655172413793
 40
0.0689655172413793
 40
0.0689655172413793
 40
0.0689655172413793
 40
0.103448275862069
 40
0.103448275862069
 40
0.103448275862069
 40
0.103448275862069
 40
0.1379310344827586
 40
0.1379310344827586
 40
0.1379310344827586
 40
0.1379310344827586
 40
0.1724137931034483
 40
0.1724137931034483
 40
0.1724137931034483
 40
0.1724137931034483
 40
0.206896551724138
 40
0.206896551724138
 40
0.206896551724138
 40
0.206896551724138
 40
0.2413793103448276
 40
0.2413793103448276
 40
0.2413793103448276
 40
0.2413793103448276
 40
0.2758620689655173
 40
0.2758620689655173
 40
0.2758620689655173
 40
0.2758620689655173
 40
0.310344827586207
 40
0.310344827586207
 40
0.310344827586207
 40
0.310344827586207
 40
0.3448275862068966
 40
0.3448275862068966
 40
0.3448275862068966
 40
0.3448275862068966
 40
0.3793103448275863
 40
0.3793103448275863
 40
0.3793103448275863
 40
0.3793103448275863
 40
0.413793103448276
 40
0.413793103448276
 40
0.413793103448276
 40
0.413793103448276
 40
0.4482758620689656
 40
0.4482758620689656
 40
0.4482758620689656
 40
0.4482758620689656
 40
0.4827586206896553
 40
0.4827586206896553
 40
0.4827586206896553
 40
0.4827586206896553
 40
0.517241379310345
 40
0.517241379310345
 40
0.517241379310345
 40
0.517241379310345
 40
0.5517241379310346
 40
0.5517241379310346
 40
0.5517241379310346
 40
0.5517241379310346
 40
0.5862068965517242
 40
0.5862068965517242
 40
0.5862068965517242
 40
0.5862068965517242
 40
0.6206896551724138
 40
0.6206896551724138
 40
0.6206896551724138
 40
0.6206896551724138
 40
0.6551724137931034
 40
0.6551724137931034
 40
0.6551724137931034
 40
0.6551724137931034
 40
0.689655172413793
 40
0.689655172413793
 40
0.689655172413793
 40
0.689655172413793
 40
0.7241379310344827
 40
0.7241379310344827
 40
0.7241379310344827
 40
0.7241379310344827
 40
0.7586206896551723
 40
0.7586206896551723
 40
0.7586206896551723
 40
0.7586206896551723
 40
0.7931034482758619
 40
0.7931034482758619
 40
0.7931034482758619
 40
0.7931034482758619
 40
0.8275862068965515
 40
0.8275862068965515
 40
0.8275862068965515
 40
0.8275862068965515
 40
0.8620689655172411
 40
0.8620689655172411
 40
0.8620689655172411
 40
0.8620689655172411
 40
0.8965517241379307
 40
0.8965517241379307
 40
0.8965517241379307
 40
0.8965517241379307
 40
0.9310344827586203
 40
0.9310344827586203
 40
0.9310344827586203
 40
0.9310344827586203
 40
0.9655172413793099
 40
0.9655172413793099
 40
0.9655172413793099
 40
0.9655172413793099
 40
1.0
 40
1.0
 40
1.0
 40
1.0
 10
0.2528503937007874
 20
0.9377795275590551
 30
0.0
 10
0.2528503937007874
 20
0.9377795275590551
 30
0.0
 10
0.2463503937007874
 20
0.9370275590551181
 30
0.0
 10
0.2463503937007874
 20
0.9370275590551181
 30
0.0
 10
0.2463503937007874
 20
0.9370275590551181
 30
0.0
 10
0.2460196850393701
 20
0.9393622047244095
 30
0.0
 10
0.2458503937007874
 20
0.9411929133858268
 30
0.0
 10
0.2458503937007874
 20
0.9425
 30
0.0
 10
0.2458503937007874
 20
0.9425
 30
0.0
 10
0.2458503937007874
 20
0.9456929133858268
 30
0.0
 10
0.2468503937007874
 20
0.9487795275590552
 30
0.0
 10
0.2488779527559055
 20
0.9517795275590552
 30
0.0
 10
0.2488779527559055
 20
0.9517795275590552
 30
0.0
 10
0.2508779527559055
 20
0.954748031496063
 30
0.0
 10
0.2538228346456693
 20
0.9571377952755906
 30
0.0
 10
0.2576850393700788
 20
0.9589448818897638
 30
0.0
 10
0.2576850393700788
 20
0.9589448818897638
 30
0.0
 10
0.2615748031496063
 20
0.9607204724409449
 30
0.0
 10
0.2660472440944882
 20
0.9616102362204725
 30
0.0
 10
0.2710748031496063
 20
0.9616102362204725
 30
0.0
 10
0.2710748031496063
 20
0.9616102362204725
 30
0.0
 10
0.2784055118110236
 20
0.9616102362204725
 30
0.0
 10
0.2841850393700788
 20
0.9598622047244095
 30
0.0
 10
0.2884055118110236
 20
0.9563622047244095
 30
0.0
 10
0.2884055118110236
 20
0.9563622047244095
 30
0.0
 10
0.2926574803149606
 20
0.9528622047244095
 30
0.0
 10
0.2947677165354331
 20
0.9485275590551181
 30
0.0
 10
0.2947677165354331
 20
0.9433070866141733
 30
0.0
 10
0.2947677165354331
 20
0.9433070866141733
 30
0.0
 10
0.2947677165354331
 20
0.9401653543307087
 30
0.0
 10
0.293992125984252
 20
0.9370826771653543
 30
0.0
 10
0.2924330708661417
 20
0.9341102362204725
 30
0.0
 10
0.2924330708661417
 20
0.9341102362204725
 30
0.0
 10
0.2909055118110236
 20
0.9311377952755906
 30
0.0
 10
0.2883228346456693
 20
0.9282519685039371
 30
0.0
 10
0.2847677165354331
 20
0.9254724409448819
 30
0.0
 10
0.2847677165354331
 20
0.9254724409448819
 30
0.0
 10
0.2811850393700788
 20
0.9227204724409449
 30
0.0
 10
0.2725748031496063
 20
0.9171929133858268
 30
0.0
 10
0.2589645669291339
 20
0.9088897637795276
 30
0.0
 10
0.2589645669291339
 20
0.9088897637795276
 30
0.0
 10
0.2589645669291339
 20
0.9088897637795276
 30
0.0
 10
0.2815748031496063
 20
0.9088897637795276
 30
0.0
 10
0.2815748031496063
 20
0.9088897637795276
 30
0.0
 10
0.2815748031496063
 20
0.9088897637795276
 30
0.0
 10
0.2841850393700788
 20
0.9088897637795276
 30
0.0
 10
0.2858228346456693
 20
0.9090275590551181
 30
0.0
 10
0.2865196850393701
 20
0.9092795275590552
 30
0.0
 10
0.2865196850393701
 20
0.9092795275590552
 30
0.0
 10
0.2871850393700788
 20
0.9095551181102363
 30
0.0
 10
0.2877125984251969
 20
0.9100275590551181
 30
0.0
 10
0.2880472440944882
 20
0.9106653543307087
 30
0.0
 10
0.2880472440944882
 20
0.9106653543307087
 30
0.0
 10
0.2884055118110236
 20
0.9113346456692913
 30
0.0
 10
0.2888779527559055
 20
0.9131377952755906
 30
0.0
 10
0.2894645669291339
 20
0.9161377952755906
 30
0.0
 10
0.2894645669291339
 20
0.9161377952755906
 30
0.0
 10
0.2894645669291339
 20
0.9161377952755906
 30
0.0
 10
0.2955748031496063
 20
0.9161377952755906
 30
0.0
 10
0.2955748031496063
 20
0.9161377952755906
 30
0.0
 10
0.2955748031496063
 20
0.9161377952755906
 30
0.0
 10
0.2955748031496063
 20
0.9161377952755906
 30
0.0
 10
0.2920748031496063
 20
0.8994448818897638
 30
0.0
 10
0.2920748031496063
 20
0.8994448818897638
 30
0.0
 10
0.2920748031496063
 20
0.8994448818897638
 30
0.0
 10
0.2920748031496063
 20
0.8994448818897638
 30
0.0
 10
0.2872677165354331
 20
0.8994448818897638
 30
0.0
 10
0.2872677165354331
 20
0.8994448818897638
 30
0.0
 10
0.2872677165354331
 20
0.8994448818897638
 30
0.0
 10
0.2872677165354331
 20
0.8994448818897638
 30
0.0
 10
0.2867125984251969
 20
0.9015551181102363
 30
0.0
 10
0.2867125984251969
 20
0.9015551181102363
 30
0.0
 10
0.2867125984251969
 20
0.9015551181102363
 30
0.0
 10
0.2867125984251969
 20
0.9015551181102363
 30
0.0
 10
0.2446299212598425
 20
0.9015551181102363
 30
0.0
 10
0.2446299212598425
 20
0.9015551181102363
 30
0.0
 10
0.2446299212598425
 20
0.9015551181102363
 30
0.0
 10
0.2446299212598425
 20
0.9015551181102363
 30
0.0
 10
0.2446299212598425
 20
0.9057204724409449
 30
0.0
 10
0.2446299212598425
 20
0.9057204724409449
 30
0.0
 10
0.2446299212598425
 20
0.9057204724409449
 30
0.0
 10
0.2446299212598425
 20
0.9057204724409449
 30
0.0
 10
0.2529370078740157
 20
0.9111653543307087
 30
0.0
 10
0.2529370078740157
 20
0.9111653543307087
 30
0.0
 10
0.2529370078740157
 20
0.9111653543307087
 30
0.0
 10
0.2623228346456693
 20
0.9172519685039371
 30
0.0
 10
0.2691023622047244
 20
0.9220551181102362
 30
0.0
 10
0.273240157480315
 20
0.9256377952755905
 30
0.0
 10
0.273240157480315
 20
0.9256377952755905
 30
0.0
 10
0.2773779527559055
 20
0.929220472440945
 30
0.0
 10
0.2802677165354331
 20
0.9325275590551182
 30
0.0
 10
0.2819055118110236
 20
0.9355826771653544
 30
0.0
 10
0.2819055118110236
 20
0.9355826771653544
 30
0.0
 10
0.2830472440944882
 20
0.937748031496063
 30
0.0
 10
0.2836299212598425
 20
0.9401102362204725
 30
0.0
 10
0.2836299212598425
 20
0.9426653543307088
 30
0.0
 10
0.2836299212598425
 20
0.9426653543307088
 30
0.0
 10
0.2836299212598425
 20
0.9465
 30
0.0
 10
0.2822952755905512
 20
0.9496377952755906
 30
0.0
 10
0.2796574803149606
 20
0.9520551181102362
 30
0.0
 10
0.2796574803149606
 20
0.9520551181102362
 30
0.0
 10
0.2770472440944882
 20
0.9544724409448819
 30
0.0
 10
0.2734645669291339
 20
0.9556653543307087
 30
0.0
 10
0.2689645669291338
 20
0.9556653543307087
 30
0.0
 10
0.2689645669291338
 20
0.9556653543307087
 30
0.0
 10
0.2640196850393701
 20
0.9556653543307087
 30
0.0
 10
0.2600748031496063
 20
0.9543346456692914
 30
0.0
 10
0.2570748031496063
 20
0.9516377952755906
 30
0.0
 10
0.2570748031496063
 20
0.9516377952755906
 30
0.0
 10
0.2541023622047244
 20
0.948972440944882
 30
0.0
 10
0.2526023622047244
 20
0.9456929133858268
 30
0.0
 10
0.2526023622047244
 20
0.9418346456692914
 30
0.0
 10
0.2526023622047244
 20
0.9418346456692914
 30
0.0
 10
0.2526023622047244
 20
0.9410275590551182
 30
0.0
 10
0.2526850393700788
 20
0.9396653543307088
 30
0.0
 10
0.2528503937007874
 20
0.9377795275590551
 30
0.0
  0
SPLINE
  5
5D
330
1F
100
AcDbEntity
  8
LAYER_1
 62
   250
100
AcDbSpline
210
0.0
220
0.0
230
1.0
 70
    11
 71
     3
 72
    60
 73
    56
 74
     0
 42
0.0000000001
 43
0.0000000001
 40
0.0
 40
0.0
 40
0.0
 40
0.0
 40
0.0714285714285714
 40
0.0714285714285714
 40
0.0714285714285714
 40
0.0714285714285714
 40
0.1428571428571429
 40
0.1428571428571429
 40
0.1428571428571429
 40
0.1428571428571429
 40
0.2142857142857143
 40
0.2142857142857143
 40
0.2142857142857143
 40
0.2142857142857143
 40
0.2857142857142857
 40
0.2857142857142857
 40
0.2857142857142857
 40
0.2857142857142857
 40
0.3571428571428571
 40
0.3571428571428571
 40
0.3571428571428571
 40
0.3571428571428571
 40
0.4285714285714285
 40
0.4285714285714285
 40
0.4285714285714285
 40
0.4285714285714285
 40
0.4999999999999999
 40
0.4999999999999999
 40
0.4999999999999999
 40
0.4999999999999999
 40
0.5714285714285713
 40
0.5714285714285713
 40
0.5714285714285713
 40
0.5714285714285713
 40
0.6428571428571427
 40
0.6428571428571427
 40
0.6428571428571427
 40
0.6428571428571427
 40
0.7142857142857141
 40
0.7142857142857141
 40
0.7142857142857141
 40
0.7142857142857141
 40
0.7857142857142855
 40
0.7857142857142855
 40
0.7857142857142855
 40
0.7857142857142855
 40
0.8571428571428569
 40
0.8571428571428569
 40
0.8571428571428569
 40
0.8571428571428569
 40
0.9285714285714283
 40
0.9285714285714283
 40
0.9285714285714283
 40
0.9285714285714283
 40
1.0
 40
1.0
 40
1.0
 40
1.0
 10
0.3161574803149607
 20
0.9729173228346457
 30
0.0
 10
0.3161574803149607
 20
0.9729173228346457
 30
0.0
 10
0.3117677165354331
 20
0.9783070866141733
 30
0.0
 10
0.3117677165354331
 20
0.9783070866141733
 30
0.0
 10
0.3117677165354331
 20
0.9783070866141733
 30
0.0
 10
0.3228818897637795
 20
0.9873622047244095
 30
0.0
 10
0.3284645669291339
 20
0.9949173228346457
 30
0.0
 10
0.3284645669291339
 20
1.001
 30
0.0
 10
0.3284645669291339
 20
1.001
 30
0.0
 10
0.3284645669291339
 20
1.001692913385827
 30
0.0
 10
0.3284094488188977
 20
1.002582677165354
 30
0.0
 10
0.3282952755905512
 20
1.003610236220472
 30
0.0
 10
0.3282952755905512
 20
1.003610236220472
 30
0.0
 10
0.3273818897637795
 20
1.003220472440945
 30
0.0
 10
0.3264645669291339
 20
1.002917322834646
 30
0.0
 10
0.3256023622047244
 20
1.002720472440945
 30
0.0
 10
0.3256023622047244
 20
1.002720472440945
 30
0.0
 10
0.324740157480315
 20
1.0025
 30
0.0
 10
0.3239370078740158
 20
1.002389763779528
 30
0.0
 10
0.3231574803149607
 20
1.002389763779528
 30
0.0
 10
0.3231574803149607
 20
1.002389763779528
 30
0.0
 10
0.3205472440944882
 20
1.002389763779528
 30
0.0
 10
0.3184645669291339
 20
1.003220472440945
 30
0.0
 10
0.3169094488188977
 20
1.004917322834646
 30
0.0
 10
0.3169094488188977
 20
1.004917322834646
 30
0.0
 10
0.3153228346456693
 20
1.006582677165354
 30
0.0
 10
0.3145472440944882
 20
1.008720472440945
 30
0.0
 10
0.3145472440944882
 20
1.011334645669291
 30
0.0
 10
0.3145472440944882
 20
1.011334645669291
 30
0.0
 10
0.3145472440944882
 20
1.013889763779528
 30
0.0
 10
0.315492125984252
 20
1.016110236220473
 30
0.0
 10
0.3173818897637795
 20
1.018
 30
0.0
 10
0.3173818897637795
 20
1.018
 30
0.0
 10
0.3192952755905512
 20
1.019917322834646
 30
0.0
 10
0.3215748031496063
 20
1.02086220472441
 30
0.0
 10
0.3242125984251968
 20
1.02086220472441
 30
0.0
 10
0.3242125984251968
 20
1.02086220472441
 30
0.0
 10
0.3279094488188977
 20
1.02086220472441
 30
0.0
 10
0.3310748031496063
 20
1.019389763779528
 30
0.0
 10
0.3337125984251969
 20
1.016417322834646
 30
0.0
 10
0.3337125984251969
 20
1.016417322834646
 30
0.0
 10
0.3363228346456693
 20
1.013472440944882
 30
0.0
 10
0.3376574803149606
 20
1.009665354330709
 30
0.0
 10
0.3376574803149606
 20
1.005
 30
0.0
 10
0.3376574803149606
 20
1.005
 30
0.0
 10
0.3376574803149606
 20
1.001944881889764
 30
0.0
 10
0.3370196850393701
 20
0.9987480314960631
 30
0.0
 10
0.3357677165354331
 20
0.9954173228346457
 30
0.0
 10
0.3357677165354331
 20
0.9954173228346457
 30
0.0
 10
0.3345196850393701
 20
0.9920826771653544
 30
0.0
 10
0.3327125984251969
 20
0.989
 30
0.0
 10
0.3303228346456693
 20
0.9861377952755905
 30
0.0
 10
0.3303228346456693
 20
0.9861377952755905
 30
0.0
 10
0.3279370078740158
 20
0.9833070866141733
 30
0.0
 10
0.3232125984251968
 20
0.9788897637795276
 30
0.0
 10
0.3161574803149607
 20
0.9729173228346457
 30
0.0
  0
SPLINE
  5
5E
330
1F
100
AcDbEntity
  8
LAYER_1
 62
   250
100
AcDbSpline
210
0.0
220
0.0
230
1.0
 70
    11
 71
     3
 72
    60
 73
    56
 74
     0
 42
0.0000000001
 43
0.0000000001
 40
0.0
 40
0.0
 40
0.0
 40
0.0
 40
0.0714285714285714
 40
0.0714285714285714
 40
0.0714285714285714
 40
0.0714285714285714
 40
0.1428571428571429
 40
0.1428571428571429
 40
0.1428571428571429
 40
0.1428571428571429
 40
0.2142857142857143
 40
0.2142857142857143
 40
0.2142857142857143
 40
0.2142857142857143
 40
0.2857142857142857
 40
0.2857142857142857
 40
0.2857142857142857
 40
0.2857142857142857
 40
0.3571428571428571
 40
0.3571428571428571
 40
0.3571428571428571
 40
0.3571428571428571
 40
0.4285714285714285
 40
0.4285714285714285
 40
0.4285714285714285
 40
0.4285714285714285
 40
0.4999999999999999
 40
0.4999999999999999
 40
0.4999999999999999
 40
0.4999999999999999
 40
0.5714285714285713
 40
0.5714285714285713
 40
0.5714285714285713
 40
0.5714285714285713
 40
0.6428571428571427
 40
0.6428571428571427
 40
0.6428571428571427
 40
0.6428571428571427
 40
0.7142857142857141
 40
0.7142857142857141
 40
0.7142857142857141
 40
0.7142857142857141
 40
0.7857142857142855
 40
0.7857142857142855
 40
0.7857142857142855
 40
0.7857142857142855
 40
0.8571428571428569
 40
0.8571428571428569
 40
0.8571428571428569
 40
0.8571428571428569
 40
0.9285714285714283
 40
0.9285714285714283
 40
0.9285714285714283
 40
0.9285714285714283
 40
1.0
 40
1.0
 40
1.0
 40
1.0
 10
0.3452125984251969
 20
0.9729173228346457
 30
0.0
 10
0.3452125984251969
 20
0.9729173228346457
 30
0.0
 10
0.3408228346456693
 20
0.9783070866141733
 30
0.0
 10
0.3408228346456693
 20
0.9783070866141733
 30
0.0
 10
0.3408228346456693
 20
0.9783070866141733
 30
0.0
 10
0.3519370078740158
 20
0.9873622047244095
 30
0.0
 10
0.3575196850393701
 20
0.9949173228346457
 30
0.0
 10
0.3575196850393701
 20
1.001
 30
0.0
 10
0.3575196850393701
 20
1.001
 30
0.0
 10
0.3575196850393701
 20
1.001692913385827
 30
0.0
 10
0.3574645669291339
 20
1.002582677165354
 30
0.0
 10
0.3573503937007874
 20
1.003610236220472
 30
0.0
 10
0.3573503937007874
 20
1.003610236220472
 30
0.0
 10
0.3564370078740158
 20
1.003220472440945
 30
0.0
 10
0.3555196850393701
 20
1.002917322834646
 30
0.0
 10
0.3546574803149606
 20
1.002720472440945
 30
0.0
 10
0.3546574803149606
 20
1.002720472440945
 30
0.0
 10
0.3537952755905512
 20
1.0025
 30
0.0
 10
0.3529645669291339
 20
1.002389763779528
 30
0.0
 10
0.3521299212598426
 20
1.002389763779528
 30
0.0
 10
0.3521299212598426
 20
1.002389763779528
 30
0.0
 10
0.3495748031496063
 20
1.002389763779528
 30
0.0
 10
0.3475196850393701
 20
1.003220472440945
 30
0.0
 10
0.3459645669291339
 20
1.004917322834646
 30
0.0
 10
0.3459645669291339
 20
1.004917322834646
 30
0.0
 10
0.3443818897637795
 20
1.006582677165354
 30
0.0
 10
0.3436023622047244
 20
1.008720472440945
 30
0.0
 10
0.3436023622047244
 20
1.011334645669291
 30
0.0
 10
0.3436023622047244
 20
1.011334645669291
 30
0.0
 10
0.3436023622047244
 20
1.013889763779528
 30
0.0
 10
0.3445472440944882
 20
1.016110236220473
 30
0.0
 10
0.3464370078740158
 20
1.018
 30
0.0
 10
0.3464370078740158
 20
1.018
 30
0.0
 10
0.3483228346456693
 20
1.019917322834646
 30
0.0
 10
0.3506299212598426
 20
1.02086220472441
 30
0.0
 10
0.3532677165354331
 20
1.02086220472441
 30
0.0
 10
0.3532677165354331
 20
1.02086220472441
 30
0.0
 10
0.3569645669291339
 20
1.02086220472441
 30
0.0
 10
0.3601299212598426
 20
1.019389763779528
 30
0.0
 10
0.3627677165354331
 20
1.016417322834646
 30
0.0
 10
0.3627677165354331
 20
1.016417322834646
 30
0.0
 10
0.3653779527559055
 20
1.013472440944882
 30
0.0
 10
0.3667125984251969
 20
1.009665354330709
 30
0.0
 10
0.3667125984251969
 20
1.005
 30
0.0
 10
0.3667125984251969
 20
1.005
 30
0.0
 10
0.3667125984251969
 20
1.001944881889764
 30
0.0
 10
0.3660748031496063
 20
0.9987480314960631
 30
0.0
 10
0.3648228346456693
 20
0.9954173228346457
 30
0.0
 10
0.3648228346456693
 20
0.9954173228346457
 30
0.0
 10
0.3635748031496063
 20
0.9920826771653544
 30
0.0
 10
0.3617677165354331
 20
0.989
 30
0.0
 10
0.3593818897637796
 20
0.9861377952755905
 30
0.0
 10
0.3593818897637796
 20
0.9861377952755905
 30
0.0
 10
0.356992125984252
 20
0.9833070866141733
 30
0.0
 10
0.3522677165354331
 20
0.9788897637795276
 30
0.0
 10
0.3452125984251969
 20
0.9729173228346457
 30
0.0
  0
SPLINE
  5
5F
330
1F
100
AcDbEntity
  8
LAYER_1
 62
   250
100
AcDbSpline
210
0.0
220
0.0
230
1.0
 70
    11
 71
     3
 72
   204
 73
   200
 74
     0
 42
0.0000000001
 43
0.0000000001
 40
0.0
 40
0.0
 40
0.0
 40
0.0
 40
0.02
 40
0.02
 40
0.02
 40
0.02
 40
0.04
 40
0.04
 40
0.04
 40
0.04
 40
0.06
 40
0.06
 40
0.06
 40
0.06
 40
0.08
 40
0.08
 40
0.08
 40
0.08
 40
0.1
 40
0.1
 40
0.1
 40
0.1
 40
0.12
 40
0.12
 40
0.12
 40
0.12
 40
0.14
 40
0.14
 40
0.14
 40
0.14
 40
0.16
 40
0.16
 40
0.16
 40
0.16
 40
0.18
 40
0.18
 40
0.18
 40
0.18
 40
0.2
 40
0.2
 40
0.2
 40
0.2
 40
0.22
 40
0.22
 40
0.22
 40
0.22
 40
0.24
 40
0.24
 40
0.24
 40
0.24
 40
0.26
 40
0.26
 40
0.26
 40
0.26
 40
0.28
 40
0.28
 40
0.28
 40
0.28
 40
0.3
 40
0.3
 40
0.3
 40
0.3
 40
0.32
 40
0.32
 40
0.32
 40
0.32
 40
0.34
 40
0.34
 40
0.34
 40
0.34
 40
0.36
 40
0.36
 40
0.36
 40
0.36
 40
0.3800000000000001
 40
0.3800000000000001
 40
0.3800000000000001
 40
0.3800000000000001
 40
0.4000000000000001
 40
0.4000000000000001
 40
0.4000000000000001
 40
0.4000000000000001
 40
0.4200000000000001
 40
0.4200000000000001
 40
0.4200000000000001
 40
0.4200000000000001
 40
0.4400000000000001
 40
0.4400000000000001
 40
0.4400000000000001
 40
0.4400000000000001
 40
0.4600000000000001
 40
0.4600000000000001
 40
0.4600000000000001
 40
0.4600000000000001
 40
0.4800000000000002
 40
0.4800000000000002
 40
0.4800000000000002
 40
0.4800000000000002
 40
0.5000000000000001
 40
0.5000000000000001
 40
0.5000000000000001
 40
0.5000000000000001
 40
0.5200000000000001
 40
0.5200000000000001
 40
0.5200000000000001
 40
0.5200000000000001
 40
0.5400000000000002
 40
0.5400000000000002
 40
0.5400000000000002
 40
0.5400000000000002
 40
0.5600000000000002
 40
0.5600000000000002
 40
0.5600000000000002
 40
0.5600000000000002
 40
0.5800000000000002
 40
0.5800000000000002
 40
0.5800000000000002
 40
0.5800000000000002
 40
0.6000000000000002
 40
0.6000000000000002
 40
0.6000000000000002
 40
0.6000000000000002
 40
0.6200000000000002
 40
0.6200000000000002
 40
0.6200000000000002
 40
0.6200000000000002
 40
0.6400000000000002
 40
0.6400000000000002
 40
0.6400000000000002
 40
0.6400000000000002
 40
0.6600000000000003
 40
0.6600000000000003
 40
0.6600000000000003
 40
0.6600000000000003
 40
0.6800000000000003
 40
0.6800000000000003
 40
0.6800000000000003
 40
0.6800000000000003
 40
0.7000000000000003
 40
0.7000000000000003
 40
0.7000000000000003
 40
0.7000000000000003
 40
0.7200000000000003
 40
0.7200000000000003
 40
0.7200000000000003
 40
0.7200000000000003
 40
0.7400000000000003
 40
0.7400000000000003
 40
0.7400000000000003
 40
0.7400000000000003
 40
0.7600000000000003
 40
0.7600000000000003
 40
0.7600000000000003
 40
0.7600000000000003
 40
0.7800000000000004
 40
0.7800000000000004
 40
0.7800000000000004
 40
0.7800000000000004
 40
0.8000000000000004
 40
0.8000000000000004
 40
0.8000000000000004
 40
0.8000000000000004
 40
0.8200000000000004
 40
0.8200000000000004
 40
0.8200000000000004
 40
0.8200000000000004
 40
0.8400000000000004
 40
0.8400000000000004
 40
0.8400000000000004
 40
0.8400000000000004
 40
0.8600000000000004
 40
0.8600000000000004
 40
0.8600000000000004
 40
0.8600000000000004
 40
0.8800000000000005
 40
0.8800000000000005
 40
0.8800000000000005
 40
0.8800000000000005
 40
0.9000000000000005
 40
0.9000000000000005
 40
0.9000000000000005
 40
0.9000000000000005
 40
0.9200000000000005
 40
0.9200000000000005
 40
0.9200000000000005
 40
0.9200000000000005
 40
0.9400000000000005
 40
0.9400000000000005
 40
0.9400000000000005
 40
0.9400000000000005
 40
0.9600000000000005
 40
0.9600000000000005
 40
0.9600000000000005
 40
0.9600000000000005
 40
0.9800000000000005
 40
0.9800000000000005
 40
0.9800000000000005
 40
0.9800000000000005
 40
1.0
 40
1.0
 40
1.0
 40
1.0
 10
0.4290196850393701
 20
0.98
 30
0.0
 10
0.4290196850393701
 20
0.98
 30
0.0
 10
0.4699645669291339
 20
0.98
 30
0.0
 10
0.4699645669291339
 20
0.98
 30
0.0
 10
0.4699645669291339
 20
0.98
 30
0.0
 10
0.4699645669291339
 20
0.98
 30
0.0
 10
0.4699645669291339
 20
0.9731653543307087
 30
0.0
 10
0.4699645669291339
 20
0.9731653543307087
 30
0.0
 10
0.4699645669291339
 20
0.9731653543307087
 30
0.0
 10
0.4699645669291339
 20
0.9731653543307087
 30
0.0
 10
0.4671299212598425
 20
0.9731653543307087
 30
0.0
 10
0.4671299212598425
 20
0.9731653543307087
 30
0.0
 10
0.4671299212598425
 20
0.9731653543307087
 30
0.0
 10
0.465492125984252
 20
0.9731653543307087
 30
0.0
 10
0.463992125984252
 20
0.9729724409448819
 30
0.0
 10
0.4626299212598425
 20
0.9726102362204725
 30
0.0
 10
0.4626299212598425
 20
0.9726102362204725
 30
0.0
 10
0.4618267716535433
 20
0.9723897637795276
 30
0.0
 10
0.4611574803149606
 20
0.9719724409448819
 30
0.0
 10
0.4606574803149606
 20
0.9713346456692914
 30
0.0
 10
0.4606574803149606
 20
0.9713346456692914
 30
0.0
 10
0.4601299212598425
 20
0.970720472440945
 30
0.0
 10
0.4598818897637795
 20
0.9701377952755906
 30
0.0
 10
0.4598818897637795
 20
0.9695826771653544
 30
0.0
 10
0.4598818897637795
 20
0.9695826771653544
 30
0.0
 10
0.4598818897637795
 20
0.9683346456692914
 30
0.0
 10
0.4609094488188977
 20
0.9664724409448819
 30
0.0
 10
0.4629645669291339
 20
0.9639724409448819
 30
0.0
 10
0.4629645669291339
 20
0.9639724409448819
 30
0.0
 10
0.4629645669291339
 20
0.9639724409448819
 30
0.0
 10
0.4746023622047244
 20
0.9493346456692914
 30
0.0
 10
0.4746023622047244
 20
0.9493346456692914
 30
0.0
 10
0.4746023622047244
 20
0.9493346456692914
 30
0.0
 10
0.4746023622047244
 20
0.9493346456692914
 30
0.0
 10
0.4881850393700787
 20
0.9639724409448819
 30
0.0
 10
0.4881850393700787
 20
0.9639724409448819
 30
0.0
 10
0.4881850393700787
 20
0.9639724409448819
 30
0.0
 10
0.4906850393700787
 20
0.9666929133858269
 30
0.0
 10
0.4919370078740158
 20
0.968720472440945
 30
0.0
 10
0.4919370078740158
 20
0.9700826771653544
 30
0.0
 10
0.4919370078740158
 20
0.9700826771653544
 30
0.0
 10
0.4919370078740158
 20
0.9710551181102363
 30
0.0
 10
0.491492125984252
 20
0.9718070866141733
 30
0.0
 10
0.4906299212598426
 20
0.9723622047244095
 30
0.0
 10
0.4906299212598426
 20
0.9723622047244095
 30
0.0
 10
0.4897677165354331
 20
0.9728897637795276
 30
0.0
 10
0.4879094488188976
 20
0.9731653543307087
 30
0.0
 10
0.4850196850393701
 20
0.9731653543307087
 30
0.0
 10
0.4850196850393701
 20
0.9731653543307087
 30
0.0
 10
0.4850196850393701
 20
0.9731653543307087
 30
0.0
 10
0.4819370078740158
 20
0.9731653543307087
 30
0.0
 10
0.4819370078740158
 20
0.9731653543307087
 30
0.0
 10
0.4819370078740158
 20
0.9731653543307087
 30
0.0
 10
0.4819370078740158
 20
0.9731653543307087
 30
0.0
 10
0.4819370078740158
 20
0.98
 30
0.0
 10
0.4819370078740158
 20
0.98
 30
0.0
 10
0.4819370078740158
 20
0.98
 30
0.0
 10
0.4819370078740158
 20
0.98
 30
0.0
 10
0.5166850393700788
 20
0.98
 30
0.0
 10
0.5166850393700788
 20
0.98
 30
0.0
 10
0.5166850393700788
 20
0.98
 30
0.0
 10
0.5166850393700788
 20
0.98
 30
0.0
 10
0.5166850393700788
 20
0.9731653543307087
 30
0.0
 10
0.5166850393700788
 20
0.9731653543307087
 30
0.0
 10
0.5166850393700788
 20
0.9731653543307087
 30
0.0
 10
0.5132677165354331
 20
0.9730000000000001
 30
0.0
 10
0.5103228346456693
 20
0.9723070866141733
 30
0.0
 10
0.5078543307086615
 20
0.9710551181102363
 30
0.0
 10
0.5078543307086615
 20
0.9710551181102363
 30
0.0
 10
0.5053818897637795
 20
0.9698070866141733
 30
0.0
 10
0.5024645669291339
 20
0.9674448818897639
 30
0.0
 10
0.4991023622047244
 20
0.9639724409448819
 30
0.0
 10
0.4991023622047244
 20
0.9639724409448819
 30
0.0
 10
0.4991023622047244
 20
0.9639724409448819
 30
0.0
 10
0.4804645669291339
 20
0.9446102362204725
 30
0.0
 10
0.4804645669291339
 20
0.9446102362204725
 30
0.0
 10
0.4804645669291339
 20
0.9446102362204725
 30
0.0
 10
0.4804645669291339
 20
0.9446102362204725
 30
0.0
 10
0.5036574803149606
 20
0.9181653543307087
 30
0.0
 10
0.5036574803149606
 20
0.9181653543307087
 30
0.0
 10
0.5036574803149606
 20
0.9181653543307087
 30
0.0
 10
0.5036574803149606
 20
0.9181653543307087
 30
0.0
 10
0.5045472440944883
 20
0.9170275590551181
 30
0.0
 10
0.5045472440944883
 20
0.9170275590551181
 30
0.0
 10
0.5045472440944883
 20
0.9170275590551181
 30
0.0
 10
0.5068228346456694
 20
0.9140826771653544
 30
0.0
 10
0.5093818897637795
 20
0.9117204724409449
 30
0.0
 10
0.5122125984251968
 20
0.9099448818897639
 30
0.0
 10
0.5122125984251968
 20
0.9099448818897639
 30
0.0
 10
0.5137677165354331
 20
0.9089173228346457
 30
0.0
 10
0.5162125984251968
 20
0.9083622047244094
 30
0.0
 10
0.5195196850393701
 20
0.9083070866141733
 30
0.0
 10
0.5195196850393701
 20
0.9083070866141733
 30
0.0
 10
0.5195196850393701
 20
0.9083070866141733
 30
0.0
 10
0.5195196850393701
 20
0.9014724409448819
 30
0.0
 10
0.5195196850393701
 20
0.9014724409448819
 30
0.0
 10
0.5195196850393701
 20
0.9014724409448819
 30
0.0
 10
0.5195196850393701
 20
0.9014724409448819
 30
0.0
 10
0.4795748031496063
 20
0.9014724409448819
 30
0.0
 10
0.4795748031496063
 20
0.9014724409448819
 30
0.0
 10
0.4795748031496063
 20
0.9014724409448819
 30
0.0
 10
0.4795748031496063
 20
0.9014724409448819
 30
0.0
 10
0.4795748031496063
 20
0.9083070866141733
 30
0.0
 10
0.4795748031496063
 20
0.9083070866141733
 30
0.0
 10
0.4795748031496063
 20
0.9083070866141733
 30
0.0
 10
0.4795748031496063
 20
0.9083070866141733
 30
0.0
 10
0.482992125984252
 20
0.9083070866141733
 30
0.0
 10
0.482992125984252
 20
0.9083070866141733
 30
0.0
 10
0.482992125984252
 20
0.9083070866141733
 30
0.0
 10
0.4856023622047244
 20
0.9083070866141733
 30
0.0
 10
0.487240157480315
 20
0.9084724409448819
 30
0.0
 10
0.4879645669291339
 20
0.9088070866141733
 30
0.0
 10
0.4879645669291339
 20
0.9088070866141733
 30
0.0
 10
0.4891299212598426
 20
0.9093346456692913
 30
0.0
 10
0.489740157480315
 20
0.9102519685039371
 30
0.0
 10
0.489740157480315
 20
0.9115551181102363
 30
0.0
 10
0.489740157480315
 20
0.9115551181102363
 30
0.0
 10
0.489740157480315
 20
0.912751968503937
 30
0.0
 10
0.4884370078740158
 20
0.9149448818897639
 30
0.0
 10
0.4858228346456693
 20
0.9181653543307087
 30
0.0
 10
0.4858228346456693
 20
0.9181653543307087
 30
0.0
 10
0.4858228346456693
 20
0.9181653543307087
 30
0.0
 10
0.4710196850393701
 20
0.9363070866141733
 30
0.0
 10
0.4710196850393701
 20
0.9363070866141733
 30
0.0
 10
0.4710196850393701
 20
0.9363070866141733
 30
0.0
 10
0.4710196850393701
 20
0.9363070866141733
 30
0.0
 10
0.454492125984252
 20
0.9181653543307087
 30
0.0
 10
0.454492125984252
 20
0.9181653543307087
 30
0.0
 10
0.454492125984252
 20
0.9181653543307087
 30
0.0
 10
0.454492125984252
 20
0.9181653543307087
 30
0.0
 10
0.4528818897637795
 20
0.9161929133858268
 30
0.0
 10
0.4528818897637795
 20
0.9161929133858268
 30
0.0
 10
0.4528818897637795
 20
0.9161929133858268
 30
0.0
 10
0.4528818897637795
 20
0.9161929133858268
 30
0.0
 10
0.451992125984252
 20
0.915220472440945
 30
0.0
 10
0.451992125984252
 20
0.915220472440945
 30
0.0
 10
0.451992125984252
 20
0.915220472440945
 30
0.0
 10
0.4506299212598425
 20
0.913751968503937
 30
0.0
 10
0.4499370078740158
 20
0.9124724409448819
 30
0.0
 10
0.4499370078740158
 20
0.9113346456692913
 30
0.0
 10
0.4499370078740158
 20
0.9113346456692913
 30
0.0
 10
0.4499370078740158
 20
0.9102795275590552
 30
0.0
 10
0.4503543307086614
 20
0.9095275590551182
 30
0.0
 10
0.4512125984251968
 20
0.9090275590551181
 30
0.0
 10
0.4512125984251968
 20
0.9090275590551181
 30
0.0
 10
0.4520472440944882
 20
0.9085551181102363
 30
0.0
 10
0.4539370078740158
 20
0.9083070866141733
 30
0.0
 10
0.4568543307086614
 20
0.9083070866141733
 30
0.0
 10
0.4568543307086614
 20
0.9083070866141733
 30
0.0
 10
0.4568543307086614
 20
0.9083070866141733
 30
0.0
 10
0.4601299212598425
 20
0.9083070866141733
 30
0.0
 10
0.4601299212598425
 20
0.9083070866141733
 30
0.0
 10
0.4601299212598425
 20
0.9083070866141733
 30
0.0
 10
0.4601299212598425
 20
0.9083070866141733
 30
0.0
 10
0.4601299212598425
 20
0.9014724409448819
 30
0.0
 10
0.4601299212598425
 20
0.9014724409448819
 30
0.0
 10
0.4601299212598425
 20
0.9014724409448819
 30
0.0
 10
0.4601299212598425
 20
0.9014724409448819
 30
0.0
 10
0.4258543307086614
 20
0.9014724409448819
 30
0.0
 10
0.4258543307086614
 20
0.9014724409448819
 30
0.0
 10
0.4258543307086614
 20
0.9014724409448819
 30
0.0
 10
0.4258543307086614
 20
0.9014724409448819
 30
0.0
 10
0.4258543307086614
 20
0.9083070866141733
 30
0.0
 10
0.4258543307086614
 20
0.9083070866141733
 30
0.0
 10
0.4258543307086614
 20
0.9083070866141733
 30
0.0
 10
0.4285196850393701
 20
0.9083622047244094
 30
0.0
 10
0.4306023622047244
 20
0.9086377952755906
 30
0.0
 10
0.4321299212598425
 20
0.9091653543307087
 30
0.0
 10
0.4321299212598425
 20
0.9091653543307087
 30
0.0
 10
0.4336299212598425
 20
0.9096653543307087
 30
0.0
 10
0.4351023622047244
 20
0.9104724409448819
 30
0.0
 10
0.4365196850393701
 20
0.9115551181102363
 30
0.0
 10
0.4365196850393701
 20
0.9115551181102363
 30
0.0
 10
0.4389645669291339
 20
0.9135275590551182
 30
0.0
 10
0.4407125984251969
 20
0.9150551181102362
 30
0.0
 10
0.4417992125984252
 20
0.9161929133858268
 30
0.0
 10
0.4417992125984252
 20
0.9161929133858268
 30
0.0
 10
0.4417992125984252
 20
0.9161929133858268
 30
0.0
 10
0.4656574803149606
 20
0.9406929133858268
 30
0.0
 10
0.4656574803149606
 20
0.9406929133858268
 30
0.0
 10
0.4656574803149606
 20
0.9406929133858268
 30
0.0
 10
0.4656574803149606
 20
0.9406929133858268
 30
0.0
 10
0.4453818897637796
 20
0.9639724409448819
 30
0.0
 10
0.4453818897637796
 20
0.9639724409448819
 30
0.0
 10
0.4453818897637796
 20
0.9639724409448819
 30
0.0
 10
0.4428267716535433
 20
0.9668622047244095
 30
0.0
 10
0.4408267716535433
 20
0.9688622047244095
 30
0.0
 10
0.4393267716535433
 20
0.9700275590551182
 30
0.0
 10
0.4393267716535433
 20
0.9700275590551182
 30
0.0
 10
0.4378267716535433
 20
0.9711929133858268
 30
0.0
 10
0.4363818897637796
 20
0.9720275590551182
 30
0.0
 10
0.4349645669291339
 20
0.9724724409448819
 30
0.0
 10
0.4349645669291339
 20
0.9724724409448819
 30
0.0
 10
0.4335472440944882
 20
0.9729448818897638
 30
0.0
 10
0.4315748031496063
 20
0.9731653543307087
 30
0.0
 10
0.4290196850393701
 20
0.9731653543307087
 30
0.0
 10
0.4290196850393701
 20
0.9731653543307087
 30
0.0
 10
0.4290196850393701
 20
0.9731653543307087
 30
0.0
 10
0.4290196850393701
 20
0.98
 30
0.0
 10
0.4290196850393701
 20
0.98
 30
0.0
  0
SPLINE
  5
60
330
1F
100
AcDbEntity
  8
LAYER_1
 62
   250
100
AcDbSpline
210
0.0
220
0.0
230
1.0
 70
    11
 71
     3
 72
    72
 73
    68
 74
     0
 42
0.0000000001
 43
0.0000000001
 40
0.0
 40
0.0
 40
0.0
 40
0.0
 40
0.0588235294117647
 40
0.0588235294117647
 40
0.0588235294117647
 40
0.0588235294117647
 40
0.1176470588235294
 40
0.1176470588235294
 40
0.1176470588235294
 40
0.1176470588235294
 40
0.1764705882352941
 40
0.1764705882352941
 40
0.1764705882352941
 40
0.1764705882352941
 40
0.2352941176470588
 40
0.2352941176470588
 40
0.2352941176470588
 40
0.2352941176470588
 40
0.2941176470588235
 40
0.2941176470588235
 40
0.2941176470588235
 40
0.2941176470588235
 40
0.3529411764705883
 40
0.3529411764705883
 40
0.3529411764705883
 40
0.3529411764705883
 40
0.411764705882353
 40
0.411764705882353
 40
0.411764705882353
 40
0.411764705882353
 40
0.4705882352941177
 40
0.4705882352941177
 40
0.4705882352941177
 40
0.4705882352941177
 40
0.5294117647058824
 40
0.5294117647058824
 40
0.5294117647058824
 40
0.5294117647058824
 40
0.5882352941176471
 40
0.5882352941176471
 40
0.5882352941176471
 40
0.5882352941176471
 40
0.6470588235294118
 40
0.6470588235294118
 40
0.6470588235294118
 40
0.6470588235294118
 40
0.7058823529411765
 40
0.7058823529411765
 40
0.7058823529411765
 40
0.7058823529411765
 40
0.7647058823529412
 40
0.7647058823529412
 40
0.7647058823529412
 40
0.7647058823529412
 40
0.823529411764706
 40
0.823529411764706
 40
0.823529411764706
 40
0.823529411764706
 40
0.8823529411764707
 40
0.8823529411764707
 40
0.8823529411764707
 40
0.8823529411764707
 40
0.9411764705882354
 40
0.9411764705882354
 40
0.9411764705882354
 40
0.9411764705882354
 40
1.0
 40
1.0
 40
1.0
 40
1.0
 10
0.6286574803149606
 20
1.015
 30
0.0
 10
0.6286574803149606
 20
1.015
 30
0.0
 10
0.634740157480315
 20
1.015
 30
0.0
 10
0.634740157480315
 20
1.015
 30
0.0
 10
0.634740157480315
 20
1.015
 30
0.0
 10
0.634740157480315
 20
1.015
 30
0.0
 10
0.634740157480315
 20
0.920751968503937
 30
0.0
 10
0.634740157480315
 20
0.920751968503937
 30
0.0
 10
0.634740157480315
 20
0.920751968503937
 30
0.0
 10
0.634740157480315
 20
0.9163070866141733
 30
0.0
 10
0.6350472440944882
 20
0.9134448818897638
 30
0.0
 10
0.6356023622047244
 20
0.9121653543307087
 30
0.0
 10
0.6356023622047244
 20
0.9121653543307087
 30
0.0
 10
0.6361850393700788
 20
0.9108897637795276
 30
0.0
 10
0.6371023622047244
 20
0.9099448818897639
 30
0.0
 10
0.6384055118110237
 20
0.9092795275590552
 30
0.0
 10
0.6384055118110237
 20
0.9092795275590552
 30
0.0
 10
0.6397125984251969
 20
0.9086377952755906
 30
0.0
 10
0.6422952755905512
 20
0.9083070866141733
 30
0.0
 10
0.6461574803149607
 20
0.9083070866141733
 30
0.0
 10
0.6461574803149607
 20
0.9083070866141733
 30
0.0
 10
0.6461574803149607
 20
0.9083070866141733
 30
0.0
 10
0.6541299212598426
 20
0.9083070866141733
 30
0.0
 10
0.6541299212598426
 20
0.9083070866141733
 30
0.0
 10
0.6541299212598426
 20
0.9083070866141733
 30
0.0
 10
0.6541299212598426
 20
0.9083070866141733
 30
0.0
 10
0.6541299212598426
 20
0.9014724409448819
 30
0.0
 10
0.6541299212598426
 20
0.9014724409448819
 30
0.0
 10
0.6541299212598426
 20
0.9014724409448819
 30
0.0
 10
0.6541299212598426
 20
0.9014724409448819
 30
0.0
 10
0.600492125984252
 20
0.9014724409448819
 30
0.0
 10
0.600492125984252
 20
0.9014724409448819
 30
0.0
 10
0.600492125984252
 20
0.9014724409448819
 30
0.0
 10
0.600492125984252
 20
0.9014724409448819
 30
0.0
 10
0.600492125984252
 20
0.9083070866141733
 30
0.0
 10
0.600492125984252
 20
0.9083070866141733
 30
0.0
 10
0.600492125984252
 20
0.9083070866141733
 30
0.0
 10
0.600492125984252
 20
0.9083070866141733
 30
0.0
 10
0.6093503937007875
 20
0.9083070866141733
 30
0.0
 10
0.6093503937007875
 20
0.9083070866141733
 30
0.0
 10
0.6093503937007875
 20
0.9083070866141733
 30
0.0
 10
0.6132125984251968
 20
0.9083070866141733
 30
0.0
 10
0.6157677165354331
 20
0.9086377952755906
 30
0.0
 10
0.6170472440944882
 20
0.9093346456692913
 30
0.0
 10
0.6170472440944882
 20
0.9093346456692913
 30
0.0
 10
0.6183228346456693
 20
0.91
 30
0.0
 10
0.6193228346456693
 20
0.9110826771653544
 30
0.0
 10
0.6200196850393701
 20
0.9125826771653544
 30
0.0
 10
0.6200196850393701
 20
0.9125826771653544
 30
0.0
 10
0.6207125984251969
 20
0.9140826771653544
 30
0.0
 10
0.6210748031496063
 20
0.9168070866141733
 30
0.0
 10
0.6210748031496063
 20
0.920751968503937
 30
0.0
 10
0.6210748031496063
 20
0.920751968503937
 30
0.0
 10
0.6210748031496063
 20
0.920751968503937
 30
0.0
 10
0.6210748031496063
 20
0.9982204724409449
 30
0.0
 10
0.6210748031496063
 20
0.9982204724409449
 30
0.0
 10
0.6210748031496063
 20
0.9982204724409449
 30
0.0
 10
0.6210748031496063
 20
0.9982204724409449
 30
0.0
 10
0.600492125984252
 20
0.9982204724409449
 30
0.0
 10
0.600492125984252
 20
0.9982204724409449
 30
0.0
 10
0.600492125984252
 20
0.9982204724409449
 30
0.0
 10
0.600492125984252
 20
0.9982204724409449
 30
0.0
 10
0.600492125984252
 20
1.005220472440945
 30
0.0
 10
0.600492125984252
 20
1.005220472440945
 30
0.0
 10
0.600492125984252
 20
1.005220472440945
 30
0.0
 10
0.6117125984251969
 20
1.006803149606299
 30
0.0
 10
0.6211023622047245
 20
1.010055118110236
 30
0.0
 10
0.6286574803149606
 20
1.015
 30
0.0
  0
SPLINE
  5
61
330
1F
100
AcDbEntity
  8
LAYER_1
 62
   250
100
AcDbSpline
210
0.0
220
0.0
230
1.0
 70
    11
 71
     3
 72
    20
 73
    16
 74
     0
 42
0.0000000001
 43
0.0000000001
 40
0.0
 40
0.0
 40
0.0
 40
0.0
 40
0.25
 40
0.25
 40
0.25
 40
0.25
 40
0.5
 40
0.5
 40
0.5
 40
0.5
 40
0.75
 40
0.75
 40
0.75
 40
0.75
 40
1.0
 40
1.0
 40
1.0
 40
1.0
 10
0.757492125984252
 20
1.02086220472441
 30
0.0
 10
0.757492125984252
 20
1.02086220472441
 30
0.0
 10
0.7019094488188977
 20
0.8651653543307087
 30
0.0
 10
0.7019094488188977
 20
0.8651653543307087
 30
0.0
 10
0.7019094488188977
 20
0.8651653543307087
 30
0.0
 10
0.7019094488188977
 20
0.8651653543307087
 30
0.0
 10
0.6898543307086614
 20
0.8651653543307087
 30
0.0
 10
0.6898543307086614
 20
0.8651653543307087
 30
0.0
 10
0.6898543307086614
 20
0.8651653543307087
 30
0.0
 10
0.6898543307086614
 20
0.8651653543307087
 30
0.0
 10
0.7451023622047245
 20
1.02086220472441
 30
0.0
 10
0.7451023622047245
 20
1.02086220472441
 30
0.0
 10
0.7451023622047245
 20
1.02086220472441
 30
0.0
 10
0.7451023622047245
 20
1.02086220472441
 30
0.0
 10
0.757492125984252
 20
1.02086220472441
 30
0.0
 10
0.757492125984252
 20
1.02086220472441
 30
0.0
  0
SPLINE
  5
62
330
1F
100
AcDbEntity
  8
LAYER_1
 62
   250
100
AcDbSpline
210
0.0
220
0.0
230
1.0
 70
    11
 71
     3
 72
   136
 73
   132
 74
     0
 42
0.0000000001
 43
0.0000000001
 40
0.0
 40
0.0
 40
0.0
 40
0.0
 40
0.0303030303030303
 40
0.0303030303030303
 40
0.0303030303030303
 40
0.0303030303030303
 40
0.0606060606060606
 40
0.0606060606060606
 40
0.0606060606060606
 40
0.0606060606060606
 40
0.0909090909090909
 40
0.0909090909090909
 40
0.0909090909090909
 40
0.0909090909090909
 40
0.1212121212121212
 40
0.1212121212121212
 40
0.1212121212121212
 40
0.1212121212121212
 40
0.1515151515151515
 40
0.1515151515151515
 40
0.1515151515151515
 40
0.1515151515151515
 40
0.1818181818181818
 40
0.1818181818181818
 40
0.1818181818181818
 40
0.1818181818181818
 40
0.2121212121212121
 40
0.2121212121212121
 40
0.2121212121212121
 40
0.2121212121212121
 40
0.2424242424242424
 40
0.2424242424242424
 40
0.2424242424242424
 40
0.2424242424242424
 40
0.2727272727272727
 40
0.2727272727272727
 40
0.2727272727272727
 40
0.2727272727272727
 40
0.303030303030303
 40
0.303030303030303
 40
0.303030303030303
 40
0.303030303030303
 40
0.3333333333333333
 40
0.3333333333333333
 40
0.3333333333333333
 40
0.3333333333333333
 40
0.3636363636363635
 40
0.3636363636363635
 40
0.3636363636363635
 40
0.3636363636363635
 40
0.3939393939393938
 40
0.3939393939393938
 40
0.3939393939393938
 40
0.3939393939393938
 40
0.4242424242424241
 40
0.4242424242424241
 40
0.4242424242424241
 40
0.4242424242424241
 40
0.4545454545454544
 40
0.4545454545454544
 40
0.4545454545454544
 40
0.4545454545454544
 40
0.4848484848484846
 40
0.4848484848484846
 40
0.4848484848484846
 40
0.4848484848484846
 40
0.5151515151515149
 40
0.5151515151515149
 40
0.5151515151515149
 40
0.5151515151515149
 40
0.5454545454545452
 40
0.5454545454545452
 40
0.5454545454545452
 40
0.5454545454545452
 40
0.5757575757575755
 40
0.5757575757575755
 40
0.5757575757575755
 40
0.5757575757575755
 40
0.6060606060606057
 40
0.6060606060606057
 40
0.6060606060606057
 40
0.6060606060606057
 40
0.636363636363636
 40
0.636363636363636
 40
0.636363636363636
 40
0.636363636363636
 40
0.6666666666666663
 40
0.6666666666666663
 40
0.6666666666666663
 40
0.6666666666666663
 40
0.6969696969696966
 40
0.6969696969696966
 40
0.6969696969696966
 40
0.6969696969696966
 40
0.7272727272727269
 40
0.7272727272727269
 40
0.7272727272727269
 40
0.7272727272727269
 40
0.7575757575757571
 40
0.7575757575757571
 40
0.7575757575757571
 40
0.7575757575757571
 40
0.7878787878787874
 40
0.7878787878787874
 40
0.7878787878787874
 40
0.7878787878787874
 40
0.8181818181818177
 40
0.8181818181818177
 40
0.8181818181818177
 40
0.8181818181818177
 40
0.848484848484848
 40
0.848484848484848
 40
0.848484848484848
 40
0.848484848484848
 40
0.8787878787878782
 40
0.8787878787878782
 40
0.8787878787878782
 40
0.8787878787878782
 40
0.9090909090909085
 40
0.9090909090909085
 40
0.9090909090909085
 40
0.9090909090909085
 40
0.9393939393939388
 40
0.9393939393939388
 40
0.9393939393939388
 40
0.9393939393939388
 40
0.9696969696969691
 40
0.9696969696969691
 40
0.9696969696969691
 40
0.9696969696969691
 40
1.0
 40
1.0
 40
1.0
 40
1.0
 10
0.7949370078740158
 20
0.9721929133858268
 30
0.0
 10
0.7949370078740158
 20
0.9721929133858268
 30
0.0
 10
0.7870472440944882
 20
0.9712204724409449
 30
0.0
 10
0.7870472440944882
 20
0.9712204724409449
 30
0.0
 10
0.7870472440944882
 20
0.9712204724409449
 30
0.0
 10
0.7866023622047245
 20
0.9750551181102363
 30
0.0
 10
0.7863818897637795
 20
0.9782204724409449
 30
0.0
 10
0.7863818897637795
 20
0.9806653543307087
 30
0.0
 10
0.7863818897637795
 20
0.9806653543307087
 30
0.0
 10
0.7863818897637795
 20
0.9870551181102363
 30
0.0
 10
0.7881299212598426
 20
0.9931102362204725
 30
0.0
 10
0.7916023622047245
 20
0.9988031496062992
 30
0.0
 10
0.7916023622047245
 20
0.9988031496062992
 30
0.0
 10
0.7950748031496063
 20
1.0045
 30
0.0
 10
0.7999094488188977
 20
1.008944881889764
 30
0.0
 10
0.8061299212598425
 20
1.012137795275591
 30
0.0
 10
0.8061299212598425
 20
1.012137795275591
 30
0.0
 10
0.8123228346456693
 20
1.01536220472441
 30
0.0
 10
0.8194645669291339
 20
1.016944881889764
 30
0.0
 10
0.827492125984252
 20
1.016944881889764
 30
0.0
 10
0.827492125984252
 20
1.016944881889764
 30
0.0
 10
0.835240157480315
 20
1.016944881889764
 30
0.0
 10
0.8420472440944882
 20
1.015444881889764
 30
0.0
 10
0.8479094488188976
 20
1.012444881889764
 30
0.0
 10
0.8479094488188976
 20
1.012444881889764
 30
0.0
 10
0.8537677165354332
 20
1.009417322834646
 30
0.0
 10
0.858240157480315
 20
1.005303149606299
 30
0.0
 10
0.8613779527559056
 20
1.000055118110236
 30
0.0
 10
0.8613779527559056
 20
1.000055118110236
 30
0.0
 10
0.864492125984252
 20
0.9948346456692914
 30
0.0
 10
0.8660472440944882
 20
0.9888622047244094
 30
0.0
 10
0.8660472440944882
 20
0.9821102362204724
 30
0.0
 10
0.8660472440944882
 20
0.9821102362204724
 30
0.0
 10
0.8660472440944882
 20
0.9764173228346457
 30
0.0
 10
0.8650472440944882
 20
0.9711377952755906
 30
0.0
 10
0.862992125984252
 20
0.9663070866141733
 30
0.0
 10
0.862992125984252
 20
0.9663070866141733
 30
0.0
 10
0.8609645669291339
 20
0.9614448818897639
 30
0.0
 10
0.8576850393700788
 20
0.9565275590551181
 30
0.0
 10
0.8531850393700787
 20
0.9516102362204725
 30
0.0
 10
0.8531850393700787
 20
0.9516102362204725
 30
0.0
 10
0.8498228346456693
 20
0.9479173228346457
 30
0.0
 10
0.8430196850393701
 20
0.9422795275590552
 30
0.0
 10
0.8327677165354331
 20
0.9346653543307087
 30
0.0
 10
0.8327677165354331
 20
0.9346653543307087
 30
0.0
 10
0.8198543307086614
 20
0.9250275590551181
 30
0.0
 10
0.8099645669291339
 20
0.9180275590551181
 30
0.0
 10
0.8030748031496063
 20
0.9136653543307087
 30
0.0
 10
0.8030748031496063
 20
0.9136653543307087
 30
0.0
 10
0.8030748031496063
 20
0.9136653543307087
 30
0.0
 10
0.8453818897637796
 20
0.9136653543307087
 30
0.0
 10
0.8453818897637796
 20
0.9136653543307087
 30
0.0
 10
0.8453818897637796
 20
0.9136653543307087
 30
0.0
 10
0.8503818897637796
 20
0.9136653543307087
 30
0.0
 10
0.8536299212598426
 20
0.9141377952755906
 30
0.0
 10
0.8551574803149606
 20
0.9150551181102362
 30
0.0
 10
0.8551574803149606
 20
0.9150551181102362
 30
0.0
 10
0.8572677165354331
 20
0.9162519685039371
 30
0.0
 10
0.8587125984251969
 20
0.9190275590551181
 30
0.0
 10
0.8594645669291339
 20
0.9233622047244094
 30
0.0
 10
0.8594645669291339
 20
0.9233622047244094
 30
0.0
 10
0.8594645669291339
 20
0.9233622047244094
 30
0.0
 10
0.8601850393700787
 20
0.9280000000000001
 30
0.0
 10
0.8601850393700787
 20
0.9280000000000001
 30
0.0
 10
0.8601850393700787
 20
0.9280000000000001
 30
0.0
 10
0.8601850393700787
 20
0.9280000000000001
 30
0.0
 10
0.8671023622047245
 20
0.9280000000000001
 30
0.0
 10
0.8671023622047245
 20
0.9280000000000001
 30
0.0
 10
0.8671023622047245
 20
0.9280000000000001
 30
0.0
 10
0.8671023622047245
 20
0.9280000000000001
 30
0.0
 10
0.8615748031496063
 20
0.8974173228346457
 30
0.0
 10
0.8615748031496063
 20
0.8974173228346457
 30
0.0
 10
0.8615748031496063
 20
0.8974173228346457
 30
0.0
 10
0.8615748031496063
 20
0.8974173228346457
 30
0.0
 10
0.8563818897637796
 20
0.8974173228346457
 30
0.0
 10
0.8563818897637796
 20
0.8974173228346457
 30
0.0
 10
0.8563818897637796
 20
0.8974173228346457
 30
0.0
 10
0.8563818897637796
 20
0.8974173228346457
 30
0.0
 10
0.8554645669291339
 20
0.9014724409448819
 30
0.0
 10
0.8554645669291339
 20
0.9014724409448819
 30
0.0
 10
0.8554645669291339
 20
0.9014724409448819
 30
0.0
 10
0.8554645669291339
 20
0.9014724409448819
 30
0.0
 10
0.7843543307086615
 20
0.9014724409448819
 30
0.0
 10
0.7843543307086615
 20
0.9014724409448819
 30
0.0
 10
0.7843543307086615
 20
0.9014724409448819
 30
0.0
 10
0.7843543307086615
 20
0.9014724409448819
 30
0.0
 10
0.7843543307086615
 20
0.9083070866141733
 30
0.0
 10
0.7843543307086615
 20
0.9083070866141733
 30
0.0
 10
0.7843543307086615
 20
0.9083070866141733
 30
0.0
 10
0.7843543307086615
 20
0.9083070866141733
 30
0.0
 10
0.7973818897637796
 20
0.9181653543307087
 30
0.0
 10
0.7973818897637796
 20
0.9181653543307087
 30
0.0
 10
0.7973818897637796
 20
0.9181653543307087
 30
0.0
 10
0.807240157480315
 20
0.9254724409448819
 30
0.0
 10
0.814492125984252
 20
0.9310826771653543
 30
0.0
 10
0.8191023622047244
 20
0.9350000000000001
 30
0.0
 10
0.8191023622047244
 20
0.9350000000000001
 30
0.0
 10
0.8278228346456693
 20
0.9423897637795276
 30
0.0
 10
0.8344094488188977
 20
0.9486929133858268
 30
0.0
 10
0.8388228346456693
 20
0.9539173228346457
 30
0.0
 10
0.8388228346456693
 20
0.9539173228346457
 30
0.0
 10
0.843240157480315
 20
0.9591653543307087
 30
0.0
 10
0.8462952755905512
 20
0.9638897637795276
 30
0.0
 10
0.8479370078740158
 20
0.9680826771653543
 30
0.0
 10
0.8479370078740158
 20
0.9680826771653543
 30
0.0
 10
0.8496023622047244
 20
0.9722755905511812
 30
0.0
 10
0.8504370078740158
 20
0.9766929133858268
 30
0.0
 10
0.8504370078740158
 20
0.9813070866141733
 30
0.0
 10
0.8504370078740158
 20
0.9813070866141733
 30
0.0
 10
0.8504370078740158
 20
0.9889448818897638
 30
0.0
 10
0.8479645669291339
 20
0.9952204724409449
 30
0.0
 10
0.8430748031496064
 20
1.000110236220473
 30
0.0
 10
0.8430748031496064
 20
1.000110236220473
 30
0.0
 10
0.8381574803149606
 20
1.005
 30
0.0
 10
0.8317677165354331
 20
1.007417322834646
 30
0.0
 10
0.8239094488188977
 20
1.007417322834646
 30
0.0
 10
0.8239094488188977
 20
1.007417322834646
 30
0.0
 10
0.8182677165354331
 20
1.007417322834646
 30
0.0
 10
0.8132125984251969
 20
1.006220472440945
 30
0.0
 10
0.8087952755905512
 20
1.003775590551181
 30
0.0
 10
0.8087952755905512
 20
1.003775590551181
 30
0.0
 10
0.8043818897637796
 20
1.001334645669291
 30
0.0
 10
0.8009094488188977
 20
0.9979173228346457
 30
0.0
 10
0.7983543307086615
 20
0.9935000000000001
 30
0.0
 10
0.7983543307086615
 20
0.9935000000000001
 30
0.0
 10
0.7957952755905512
 20
0.9891102362204725
 30
0.0
 10
0.7945196850393701
 20
0.9843622047244095
 30
0.0
 10
0.7945196850393701
 20
0.9792755905511812
 30
0.0
 10
0.7945196850393701
 20
0.9792755905511812
 30
0.0
 10
0.7945196850393701
 20
0.9773622047244095
 30
0.0
 10
0.7946574803149606
 20
0.9750000000000001
 30
0.0
 10
0.7949370078740158
 20
0.9721929133858268
 30
0.0
  0
SPLINE
  5
63
330
1F
100
AcDbEntity
  8
LAYER_1
 62
   250
100
AcDbSpline
210
0.0
220
0.0
230
1.0
 70
    11
 71
     3
 72
    60
 73
    56
 74
     0
 42
0.0000000001
 43
0.0000000001
 40
0.0
 40
0.0
 40
0.0
 40
0.0
 40
0.0714285714285714
 40
0.0714285714285714
 40
0.0714285714285714
 40
0.0714285714285714
 40
0.1428571428571429
 40
0.1428571428571429
 40
0.1428571428571429
 40
0.1428571428571429
 40
0.2142857142857143
 40
0.2142857142857143
 40
0.2142857142857143
 40
0.2142857142857143
 40
0.2857142857142857
 40
0.2857142857142857
 40
0.2857142857142857
 40
0.2857142857142857
 40
0.3571428571428571
 40
0.3571428571428571
 40
0.3571428571428571
 40
0.3571428571428571
 40
0.4285714285714285
 40
0.4285714285714285
 40
0.4285714285714285
 40
0.4285714285714285
 40
0.4999999999999999
 40
0.4999999999999999
 40
0.4999999999999999
 40
0.4999999999999999
 40
0.5714285714285713
 40
0.5714285714285713
 40
0.5714285714285713
 40
0.5714285714285713
 40
0.6428571428571427
 40
0.6428571428571427
 40
0.6428571428571427
 40
0.6428571428571427
 40
0.7142857142857141
 40
0.7142857142857141
 40
0.7142857142857141
 40
0.7142857142857141
 40
0.7857142857142855
 40
0.7857142857142855
 40
0.7857142857142855
 40
0.7857142857142855
 40
0.8571428571428569
 40
0.8571428571428569
 40
0.8571428571428569
 40
0.8571428571428569
 40
0.9285714285714283
 40
0.9285714285714283
 40
0.9285714285714283
 40
0.9285714285714283
 40
1.0
 40
1.0
 40
1.0
 40
1.0
 10
0.889492125984252
 20
0.9729173228346457
 30
0.0
 10
0.889492125984252
 20
0.9729173228346457
 30
0.0
 10
0.8851023622047245
 20
0.9783070866141733
 30
0.0
 10
0.8851023622047245
 20
0.9783070866141733
 30
0.0
 10
0.8851023622047245
 20
0.9783070866141733
 30
0.0
 10
0.8962165354330709
 20
0.9873622047244095
 30
0.0
 10
0.9017992125984252
 20
0.9949173228346457
 30
0.0
 10
0.9017992125984252
 20
1.001
 30
0.0
 10
0.9017992125984252
 20
1.001
 30
0.0
 10
0.9017992125984252
 20
1.001692913385827
 30
0.0
 10
0.901744094488189
 20
1.002582677165354
 30
0.0
 10
0.9016299212598425
 20
1.003610236220472
 30
0.0
 10
0.9016299212598425
 20
1.003610236220472
 30
0.0
 10
0.900716535433071
 20
1.003220472440945
 30
0.0
 10
0.8997992125984252
 20
1.002917322834646
 30
0.0
 10
0.8989370078740158
 20
1.002720472440945
 30
0.0
 10
0.8989370078740158
 20
1.002720472440945
 30
0.0
 10
0.8980748031496063
 20
1.0025
 30
0.0
 10
0.8972716535433071
 20
1.002389763779528
 30
0.0
 10
0.896492125984252
 20
1.002389763779528
 30
0.0
 10
0.896492125984252
 20
1.002389763779528
 30
0.0
 10
0.8938818897637796
 20
1.002389763779528
 30
0.0
 10
0.8917992125984252
 20
1.003220472440945
 30
0.0
 10
0.890244094488189
 20
1.004917322834646
 30
0.0
 10
0.890244094488189
 20
1.004917322834646
 30
0.0
 10
0.8886574803149606
 20
1.006582677165354
 30
0.0
 10
0.8878818897637796
 20
1.008720472440945
 30
0.0
 10
0.8878818897637796
 20
1.011334645669291
 30
0.0
 10
0.8878818897637796
 20
1.011334645669291
 30
0.0
 10
0.8878818897637796
 20
1.013889763779528
 30
0.0
 10
0.8888267716535433
 20
1.016110236220473
 30
0.0
 10
0.8907165354330709
 20
1.018
 30
0.0
 10
0.8907165354330709
 20
1.018
 30
0.0
 10
0.8926299212598425
 20
1.019917322834646
 30
0.0
 10
0.8949094488188977
 20
1.02086220472441
 30
0.0
 10
0.8975472440944883
 20
1.02086220472441
 30
0.0
 10
0.8975472440944883
 20
1.02086220472441
 30
0.0
 10
0.901244094488189
 20
1.02086220472441
 30
0.0
 10
0.9044094488188976
 20
1.019389763779528
 30
0.0
 10
0.9070472440944882
 20
1.016417322834646
 30
0.0
 10
0.9070472440944882
 20
1.016417322834646
 30
0.0
 10
0.9096574803149606
 20
1.013472440944882
 30
0.0
 10
0.9109921259842521
 20
1.009665354330709
 30
0.0
 10
0.9109921259842521
 20
1.005
 30
0.0
 10
0.9109921259842521
 20
1.005
 30
0.0
 10
0.9109921259842521
 20
1.001944881889764
 30
0.0
 10
0.9103543307086615
 20
0.9987480314960631
 30
0.0
 10
0.9091023622047244
 20
0.9954173228346457
 30
0.0
 10
0.9091023622047244
 20
0.9954173228346457
 30
0.0
 10
0.9078543307086615
 20
0.9920826771653544
 30
0.0
 10
0.9060472440944882
 20
0.989
 30
0.0
 10
0.9036574803149606
 20
0.9861377952755905
 30
0.0
 10
0.9036574803149606
 20
0.9861377952755905
 30
0.0
 10
0.9012716535433071
 20
0.9833070866141733
 30
0.0
 10
0.8965472440944883
 20
0.9788897637795276
 30
0.0
 10
0.889492125984252
 20
0.9729173228346457
 30
0.0
  0
SPLINE
  5
64
330
1F
100
AcDbEntity
  8
LAYER_1
 62
   250
100
AcDbSpline
210
0.0
220
0.0
230
1.0
 70
    11
 71
     3
 72
    60
 73
    56
 74
     0
 42
0.0000000001
 43
0.0000000001
 40
0.0
 40
0.0
 40
0.0
 40
0.0
 40
0.0714285714285714
 40
0.0714285714285714
 40
0.0714285714285714
 40
0.0714285714285714
 40
0.1428571428571429
 40
0.1428571428571429
 40
0.1428571428571429
 40
0.1428571428571429
 40
0.2142857142857143
 40
0.2142857142857143
 40
0.2142857142857143
 40
0.2142857142857143
 40
0.2857142857142857
 40
0.2857142857142857
 40
0.2857142857142857
 40
0.2857142857142857
 40
0.3571428571428571
 40
0.3571428571428571
 40
0.3571428571428571
 40
0.3571428571428571
 40
0.4285714285714285
 40
0.4285714285714285
 40
0.4285714285714285
 40
0.4285714285714285
 40
0.4999999999999999
 40
0.4999999999999999
 40
0.4999999999999999
 40
0.4999999999999999
 40
0.5714285714285713
 40
0.5714285714285713
 40
0.5714285714285713
 40
0.5714285714285713
 40
0.6428571428571427
 40
0.6428571428571427
 40
0.6428571428571427
 40
0.6428571428571427
 40
0.7142857142857141
 40
0.7142857142857141
 40
0.7142857142857141
 40
0.7142857142857141
 40
0.7857142857142855
 40
0.7857142857142855
 40
0.7857142857142855
 40
0.7857142857142855
 40
0.8571428571428569
 40
0.8571428571428569
 40
0.8571428571428569
 40
0.8571428571428569
 40
0.9285714285714283
 40
0.9285714285714283
 40
0.9285714285714283
 40
0.9285714285714283
 40
1.0
 40
1.0
 40
1.0
 40
1.0
 10
0.9185472440944882
 20
0.9729173228346457
 30
0.0
 10
0.9185472440944882
 20
0.9729173228346457
 30
0.0
 10
0.9141574803149607
 20
0.9783070866141733
 30
0.0
 10
0.9141574803149607
 20
0.9783070866141733
 30
0.0
 10
0.9141574803149607
 20
0.9783070866141733
 30
0.0
 10
0.9252716535433071
 20
0.9873622047244095
 30
0.0
 10
0.9308543307086614
 20
0.9949173228346457
 30
0.0
 10
0.9308543307086614
 20
1.001
 30
0.0
 10
0.9308543307086614
 20
1.001
 30
0.0
 10
0.9308543307086614
 20
1.001692913385827
 30
0.0
 10
0.9307992125984252
 20
1.002582677165354
 30
0.0
 10
0.9306850393700787
 20
1.003610236220472
 30
0.0
 10
0.9306850393700787
 20
1.003610236220472
 30
0.0
 10
0.9297716535433072
 20
1.003220472440945
 30
0.0
 10
0.9288543307086614
 20
1.002917322834646
 30
0.0
 10
0.927992125984252
 20
1.002720472440945
 30
0.0
 10
0.927992125984252
 20
1.002720472440945
 30
0.0
 10
0.9271299212598425
 20
1.0025
 30
0.0
 10
0.9262992125984252
 20
1.002389763779528
 30
0.0
 10
0.9254645669291339
 20
1.002389763779528
 30
0.0
 10
0.9254645669291339
 20
1.002389763779528
 30
0.0
 10
0.9229094488188977
 20
1.002389763779528
 30
0.0
 10
0.9208543307086614
 20
1.003220472440945
 30
0.0
 10
0.9192992125984253
 20
1.004917322834646
 30
0.0
 10
0.9192992125984253
 20
1.004917322834646
 30
0.0
 10
0.9177165354330709
 20
1.006582677165354
 30
0.0
 10
0.9169370078740158
 20
1.008720472440945
 30
0.0
 10
0.9169370078740158
 20
1.011334645669291
 30
0.0
 10
0.9169370078740158
 20
1.011334645669291
 30
0.0
 10
0.9169370078740158
 20
1.013889763779528
 30
0.0
 10
0.9178818897637796
 20
1.016110236220473
 30
0.0
 10
0.9197716535433071
 20
1.018
 30
0.0
 10
0.9197716535433071
 20
1.018
 30
0.0
 10
0.9216574803149606
 20
1.019917322834646
 30
0.0
 10
0.9239645669291339
 20
1.02086220472441
 30
0.0
 10
0.9266023622047245
 20
1.02086220472441
 30
0.0
 10
0.9266023622047245
 20
1.02086220472441
 30
0.0
 10
0.9302992125984252
 20
1.02086220472441
 30
0.0
 10
0.9334645669291339
 20
1.019389763779528
 30
0.0
 10
0.9361023622047244
 20
1.016417322834646
 30
0.0
 10
0.9361023622047244
 20
1.016417322834646
 30
0.0
 10
0.9387125984251968
 20
1.013472440944882
 30
0.0
 10
0.9400472440944883
 20
1.009665354330709
 30
0.0
 10
0.9400472440944883
 20
1.005
 30
0.0
 10
0.9400472440944883
 20
1.005
 30
0.0
 10
0.9400472440944883
 20
1.001944881889764
 30
0.0
 10
0.9394094488188977
 20
0.9987480314960631
 30
0.0
 10
0.9381574803149607
 20
0.9954173228346457
 30
0.0
 10
0.9381574803149607
 20
0.9954173228346457
 30
0.0
 10
0.9369094488188977
 20
0.9920826771653544
 30
0.0
 10
0.9351023622047244
 20
0.989
 30
0.0
 10
0.9327165354330709
 20
0.9861377952755905
 30
0.0
 10
0.9327165354330709
 20
0.9861377952755905
 30
0.0
 10
0.9303267716535434
 20
0.9833070866141733
 30
0.0
 10
0.9256023622047245
 20
0.9788897637795276
 30
0.0
 10
0.9185472440944882
 20
0.9729173228346457
 30
0.0
  0
SPLINE
  5
65
330
1F
100
AcDbEntity
  8
LAYER_1
 62
   250
100
AcDbSpline
210
0.0
220
0.0
230
1.0
 70
    11
 71
     3
 72
   104
 73
   100
 74
     0
 42
0.0000000001
 43
0.0000000001
 40
0.0
 40
0.0
 40
0.0
 40
0.0
 40
0.04
 40
0.04
 40
0.04
 40
0.04
 40
0.08
 40
0.08
 40
0.08
 40
0.08
 40
0.12
 40
0.12
 40
0.12
 40
0.12
 40
0.16
 40
0.16
 40
0.16
 40
0.16
 40
0.2
 40
0.2
 40
0.2
 40
0.2
 40
0.24
 40
0.24
 40
0.24
 40
0.24
 40
0.28
 40
0.28
 40
0.28
 40
0.28
 40
0.32
 40
0.32
 40
0.32
 40
0.32
 40
0.36
 40
0.36
 40
0.36
 40
0.36
 40
0.4
 40
0.4
 40
0.4
 40
0.4
 40
0.44
 40
0.44
 40
0.44
 40
0.44
 40
0.4799999999999999
 40
0.4799999999999999
 40
0.4799999999999999
 40
0.4799999999999999
 40
0.5199999999999999
 40
0.5199999999999999
 40
0.5199999999999999
 40
0.5199999999999999
 40
0.5599999999999999
 40
0.5599999999999999
 40
0.5599999999999999
 40
0.5599999999999999
 40
0.6
 40
0.6
 40
0.6
 40
0.6
 40
0.64
 40
0.64
 40
0.64
 40
0.64
 40
0.6800000000000001
 40
0.6800000000000001
 40
0.6800000000000001
 40
0.6800000000000001
 40
0.7200000000000001
 40
0.7200000000000001
 40
0.7200000000000001
 40
0.7200000000000001
 40
0.7600000000000001
 40
0.7600000000000001
 40
0.7600000000000001
 40
0.7600000000000001
 40
0.8000000000000002
 40
0.8000000000000002
 40
0.8000000000000002
 40
0.8000000000000002
 40
0.8400000000000002
 40
0.8400000000000002
 40
0.8400000000000002
 40
0.8400000000000002
 40
0.8800000000000002
 40
0.8800000000000002
 40
0.8800000000000002
 40
0.8800000000000002
 40
0.9200000000000003
 40
0.9200000000000003
 40
0.9200000000000003
 40
0.9200000000000003
 40
0.9600000000000003
 40
0.9600000000000003
 40
0.9600000000000003
 40
0.9600000000000003
 40
1.0
 40
1.0
 40
1.0
 40
1.0
 10
-1.236271653543307
 20
1.068889763779528
 30
0.0
 10
-1.236271653543307
 20
1.068889763779528
 30
0.0
 10
-1.182299212598425
 20
1.068889763779528
 30
0.0
 10
-1.182299212598425
 20
1.068889763779528
 30
0.0
 10
-1.182299212598425
 20
1.068889763779528
 30
0.0
 10
-1.169129921259843
 20
1.068889763779528
 30
0.0
 10
-1.160102362204724
 20
1.068279527559055
 30
0.0
 10
-1.155216535433071
 20
1.067082677165354
 30
0.0
 10
-1.155216535433071
 20
1.067082677165354
 30
0.0
 10
-1.147992125984252
 20
1.06536220472441
 30
0.0
 10
-1.142299212598425
 20
1.062224409448819
 30
0.0
 10
-1.138074803149606
 20
1.057665354330709
 30
0.0
 10
-1.138074803149606
 20
1.057665354330709
 30
0.0
 10
-1.13388188976378
 20
1.053110236220473
 30
0.0
 10
-1.131771653543307
 20
1.047610236220472
 30
0.0
 10
-1.131771653543307
 20
1.041224409448819
 30
0.0
 10
-1.131771653543307
 20
1.041224409448819
 30
0.0
 10
-1.131771653543307
 20
1.036610236220473
 30
0.0
 10
-1.13288188976378
 20
1.032472440944882
 30
0.0
 10
-1.135102362204725
 20
1.028807086614173
 30
0.0
 10
-1.135102362204725
 20
1.028807086614173
 30
0.0
 10
-1.137326771653543
 20
1.025137795275591
 30
0.0
 10
-1.140574803149606
 20
1.022
 30
0.0
 10
-1.144799212598425
 20
1.019417322834646
 30
0.0
 10
-1.144799212598425
 20
1.019417322834646
 30
0.0
 10
-1.14751968503937
 20
1.017724409448819
 30
0.0
 10
-1.151188976377953
 20
1.016279527559055
 30
0.0
 10
-1.155854330708662
 20
1.015082677165354
 30
0.0
 10
-1.155854330708662
 20
1.015082677165354
 30
0.0
 10
-1.149937007874016
 20
1.014
 30
0.0
 10
-1.145437007874016
 20
1.012696850393701
 30
0.0
 10
-1.142354330708661
 20
1.011196850393701
 30
0.0
 10
-1.142354330708661
 20
1.011196850393701
 30
0.0
 10
-1.137688976377953
 20
1.008917322834646
 30
0.0
 10
-1.133992125984252
 20
1.005669291338583
 30
0.0
 10
-1.131299212598425
 20
1.001417322834646
 30
0.0
 10
-1.131299212598425
 20
1.001417322834646
 30
0.0
 10
-1.128574803149606
 20
0.9971968503937009
 30
0.0
 10
-1.127216535433071
 20
0.9924173228346457
 30
0.0
 10
-1.127216535433071
 20
0.9871102362204725
 30
0.0
 10
-1.127216535433071
 20
0.9871102362204725
 30
0.0
 10
-1.127216535433071
 20
0.9819448818897638
 30
0.0
 10
-1.128547244094488
 20
0.9771692913385828
 30
0.0
 10
-1.131216535433071
 20
0.9727795275590552
 30
0.0
 10
-1.131216535433071
 20
0.9727795275590552
 30
0.0
 10
-1.133854330708662
 20
0.9683897637795276
 30
0.0
 10
-1.137629921259843
 20
0.9647795275590552
 30
0.0
 10
-1.142464566929134
 20
0.9619448818897638
 30
0.0
 10
-1.142464566929134
 20
0.9619448818897638
 30
0.0
 10
-1.147326771653543
 20
0.9591417322834646
 30
0.0
 10
-1.152992125984252
 20
0.9573346456692914
 30
0.0
 10
-1.159437007874016
 20
0.9565275590551181
 30
0.0
 10
-1.159437007874016
 20
0.9565275590551181
 30
0.0
 10
-1.165909448818898
 20
0.9557519685039371
 30
0.0
 10
-1.172547244094488
 20
0.9553622047244095
 30
0.0
 10
-1.17938188976378
 20
0.9553622047244095
 30
0.0
 10
-1.17938188976378
 20
0.9553622047244095
 30
0.0
 10
-1.17938188976378
 20
0.9553622047244095
 30
0.0
 10
-1.236271653543307
 20
0.9553622047244095
 30
0.0
 10
-1.236271653543307
 20
0.9553622047244095
 30
0.0
 10
-1.236271653543307
 20
0.9553622047244095
 30
0.0
 10
-1.236271653543307
 20
0.9553622047244095
 30
0.0
 10
-1.236271653543307
 20
0.9621968503937008
 30
0.0
 10
-1.236271653543307
 20
0.9621968503937008
 30
0.0
 10
-1.236271653543307
 20
0.9621968503937008
 30
0.0
 10
-1.236271653543307
 20
0.9621968503937008
 30
0.0
 10
-1.232437007874016
 20
0.9621968503937008
 30
0.0
 10
-1.232437007874016
 20
0.9621968503937008
 30
0.0
 10
-1.232437007874016
 20
0.9621968503937008
 30
0.0
 10
-1.228740157480315
 20
0.9621968503937008
 30
0.0
 10
-1.226240157480315
 20
0.9627795275590552
 30
0.0
 10
-1.22488188976378
 20
0.9639173228346457
 30
0.0
 10
-1.22488188976378
 20
0.9639173228346457
 30
0.0
 10
-1.222909448818898
 20
0.9654724409448819
 30
0.0
 10
-1.221937007874016
 20
0.9680826771653543
 30
0.0
 10
-1.221937007874016
 20
0.9717244094488189
 30
0.0
 10
-1.221937007874016
 20
0.9717244094488189
 30
0.0
 10
-1.221937007874016
 20
0.9717244094488189
 30
0.0
 10
-1.221937007874016
 20
1.050582677165354
 30
0.0
 10
-1.221937007874016
 20
1.050582677165354
 30
0.0
 10
-1.221937007874016
 20
1.050582677165354
 30
0.0
 10
-1.221937007874016
 20
1.054279527559055
 30
0.0
 10
-1.222240157480315
 20
1.056779527559055
 30
0.0
 10
-1.222826771653543
 20
1.058137795275591
 30
0.0
 10
-1.222826771653543
 20
1.058137795275591
 30
0.0
 10
-1.223437007874016
 20
1.0595
 30
0.0
 10
-1.224326771653543
 20
1.060472440944882
 30
0.0
 10
-1.22551968503937
 20
1.061082677165354
 30
0.0
 10
-1.22551968503937
 20
1.061082677165354
 30
0.0
 10
-1.226712598425197
 20
1.061665354330709
 30
0.0
 10
-1.22901968503937
 20
1.061972440944882
 30
0.0
 10
-1.232437007874016
 20
1.061972440944882
 30
0.0
 10
-1.232437007874016
 20
1.061972440944882
 30
0.0
 10
-1.232437007874016
 20
1.061972440944882
 30
0.0
 10
-1.236271653543307
 20
1.061972440944882
 30
0.0
 10
-1.236271653543307
 20
1.061972440944882
 30
0.0
 10
-1.236271653543307
 20
1.061972440944882
 30
0.0
 10
-1.236271653543307
 20
1.061972440944882
 30
0.0
 10
-1.236271653543307
 20
1.068889763779528
 30
0.0
 10
-1.236271653543307
 20
1.068889763779528
 30
0.0
  0
SPLINE
  5
66
330
1F
100
AcDbEntity
  8
LAYER_1
 62
   250
100
AcDbSpline
210
0.0
220
0.0
230
1.0
 70
    11
 71
     3
 72
    40
 73
    36
 74
     0
 42
0.0000000001
 43
0.0000000001
 40
0.0
 40
0.0
 40
0.0
 40
0.0
 40
0.1111111111111111
 40
0.1111111111111111
 40
0.1111111111111111
 40
0.1111111111111111
 40
0.2222222222222222
 40
0.2222222222222222
 40
0.2222222222222222
 40
0.2222222222222222
 40
0.3333333333333333
 40
0.3333333333333333
 40
0.3333333333333333
 40
0.3333333333333333
 40
0.4444444444444444
 40
0.4444444444444444
 40
0.4444444444444444
 40
0.4444444444444444
 40
0.5555555555555556
 40
0.5555555555555556
 40
0.5555555555555556
 40
0.5555555555555556
 40
0.6666666666666667
 40
0.6666666666666667
 40
0.6666666666666667
 40
0.6666666666666667
 40
0.7777777777777779
 40
0.7777777777777779
 40
0.7777777777777779
 40
0.7777777777777779
 40
0.8888888888888891
 40
0.8888888888888891
 40
0.8888888888888891
 40
0.8888888888888891
 40
1.0
 40
1.0
 40
1.0
 40
1.0
 10
-1.206712598425197
 20
1.05986220472441
 30
0.0
 10
-1.206712598425197
 20
1.05986220472441
 30
0.0
 10
-1.206712598425197
 20
1.018279527559055
 30
0.0
 10
-1.206712598425197
 20
1.018279527559055
 30
0.0
 10
-1.206712598425197
 20
1.018279527559055
 30
0.0
 10
-1.206712598425197
 20
1.018279527559055
 30
0.0
 10
-1.185964566929134
 20
1.018279527559055
 30
0.0
 10
-1.185964566929134
 20
1.018279527559055
 30
0.0
 10
-1.185964566929134
 20
1.018279527559055
 30
0.0
 10
-1.176271653543307
 20
1.018279527559055
 30
0.0
 10
-1.169602362204725
 20
1.018724409448819
 30
0.0
 10
-1.166047244094488
 20
1.019637795275591
 30
0.0
 10
-1.166047244094488
 20
1.019637795275591
 30
0.0
 10
-1.160437007874016
 20
1.021110236220473
 30
0.0
 10
-1.156188976377953
 20
1.023610236220472
 30
0.0
 10
-1.153216535433071
 20
1.027137795275591
 30
0.0
 10
-1.153216535433071
 20
1.027137795275591
 30
0.0
 10
-1.150271653543307
 20
1.030665354330709
 30
0.0
 10
-1.148771653543307
 20
1.035196850393701
 30
0.0
 10
-1.148771653543307
 20
1.040724409448819
 30
0.0
 10
-1.148771653543307
 20
1.040724409448819
 30
0.0
 10
-1.148771653543307
 20
1.045389763779528
 30
0.0
 10
-1.150129921259843
 20
1.049279527559055
 30
0.0
 10
-1.152799212598425
 20
1.052417322834646
 30
0.0
 10
-1.152799212598425
 20
1.052417322834646
 30
0.0
 10
-1.155492125984252
 20
1.055527559055118
 30
0.0
 10
-1.159102362204725
 20
1.057665354330709
 30
0.0
 10
-1.163602362204725
 20
1.058807086614173
 30
0.0
 10
-1.163602362204725
 20
1.058807086614173
 30
0.0
 10
-1.16651968503937
 20
1.0595
 30
0.0
 10
-1.172602362204724
 20
1.05986220472441
 30
0.0
 10
-1.181826771653543
 20
1.05986220472441
 30
0.0
 10
-1.181826771653543
 20
1.05986220472441
 30
0.0
 10
-1.181826771653543
 20
1.05986220472441
 30
0.0
 10
-1.206712598425197
 20
1.05986220472441
 30
0.0
 10
-1.206712598425197
 20
1.05986220472441
 30
0.0
  0
SPLINE
  5
67
330
1F
100
AcDbEntity
  8
LAYER_1
 62
   250
100
AcDbSpline
210
0.0
220
0.0
230
1.0
 70
    11
 71
     3
 72
    52
 73
    48
 74
     0
 42
0.0000000001
 43
0.0000000001
 40
0.0
 40
0.0
 40
0.0
 40
0.0
 40
0.0833333333333333
 40
0.0833333333333333
 40
0.0833333333333333
 40
0.0833333333333333
 40
0.1666666666666667
 40
0.1666666666666667
 40
0.1666666666666667
 40
0.1666666666666667
 40
0.25
 40
0.25
 40
0.25
 40
0.25
 40
0.3333333333333333
 40
0.3333333333333333
 40
0.3333333333333333
 40
0.3333333333333333
 40
0.4166666666666666
 40
0.4166666666666666
 40
0.4166666666666666
 40
0.4166666666666666
 40
0.4999999999999999
 40
0.4999999999999999
 40
0.4999999999999999
 40
0.4999999999999999
 40
0.5833333333333333
 40
0.5833333333333333
 40
0.5833333333333333
 40
0.5833333333333333
 40
0.6666666666666666
 40
0.6666666666666666
 40
0.6666666666666666
 40
0.6666666666666666
 40
0.75
 40
0.75
 40
0.75
 40
0.75
 40
0.8333333333333334
 40
0.8333333333333334
 40
0.8333333333333334
 40
0.8333333333333334
 40
0.9166666666666667
 40
0.9166666666666667
 40
0.9166666666666667
 40
0.9166666666666667
 40
1.0
 40
1.0
 40
1.0
 40
1.0
 10
-1.206712598425197
 20
1.010444881889764
 30
0.0
 10
-1.206712598425197
 20
1.010444881889764
 30
0.0
 10
-1.206712598425197
 20
0.9731968503937009
 30
0.0
 10
-1.206712598425197
 20
0.9731968503937009
 30
0.0
 10
-1.206712598425197
 20
0.9731968503937009
 30
0.0
 10
-1.206712598425197
 20
0.9694448818897639
 30
0.0
 10
-1.206547244094488
 20
0.9672244094488189
 30
0.0
 10
-1.206244094488189
 20
0.9665
 30
0.0
 10
-1.206244094488189
 20
0.9665
 30
0.0
 10
-1.205799212598425
 20
0.9655275590551181
 30
0.0
 10
-1.204937007874016
 20
0.9648622047244095
 30
0.0
 10
-1.203629921259843
 20
0.9644724409448819
 30
0.0
 10
-1.203629921259843
 20
0.9644724409448819
 30
0.0
 10
-1.202712598425197
 20
0.9641968503937008
 30
0.0
 10
-1.200102362204724
 20
0.9640551181102363
 30
0.0
 10
-1.195826771653543
 20
0.9640551181102363
 30
0.0
 10
-1.195826771653543
 20
0.9640551181102363
 30
0.0
 10
-1.195826771653543
 20
0.9640551181102363
 30
0.0
 10
-1.184744094488189
 20
0.9640551181102363
 30
0.0
 10
-1.184744094488189
 20
0.9640551181102363
 30
0.0
 10
-1.184744094488189
 20
0.9640551181102363
 30
0.0
 10
-1.173799212598425
 20
0.9640551181102363
 30
0.0
 10
-1.165964566929134
 20
0.9646692913385827
 30
0.0
 10
-1.161271653543307
 20
0.9658897637795276
 30
0.0
 10
-1.161271653543307
 20
0.9658897637795276
 30
0.0
 10
-1.156574803149606
 20
0.9671102362204724
 30
0.0
 10
-1.152574803149606
 20
0.9696968503937008
 30
0.0
 10
-1.149271653543307
 20
0.9736417322834646
 30
0.0
 10
-1.149271653543307
 20
0.9736417322834646
 30
0.0
 10
-1.145964566929134
 20
0.9775551181102362
 30
0.0
 10
-1.144299212598425
 20
0.9823070866141733
 30
0.0
 10
-1.144299212598425
 20
0.9878346456692914
 30
0.0
 10
-1.144299212598425
 20
0.9878346456692914
 30
0.0
 10
-1.144299212598425
 20
0.9925000000000001
 30
0.0
 10
-1.145657480314961
 20
0.9966377952755906
 30
0.0
 10
-1.148326771653543
 20
1.000251968503937
 30
0.0
 10
-1.148326771653543
 20
1.000251968503937
 30
0.0
 10
-1.15101968503937
 20
1.00386220472441
 30
0.0
 10
-1.154744094488189
 20
1.006444881889764
 30
0.0
 10
-1.159492125984252
 20
1.008055118110236
 30
0.0
 10
-1.159492125984252
 20
1.008055118110236
 30
0.0
 10
-1.164244094488189
 20
1.009669291338583
 30
0.0
 10
-1.172657480314961
 20
1.010444881889764
 30
0.0
 10
-1.184744094488189
 20
1.010444881889764
 30
0.0
 10
-1.184744094488189
 20
1.010444881889764
 30
0.0
 10
-1.184744094488189
 20
1.010444881889764
 30
0.0
 10
-1.206712598425197
 20
1.010444881889764
 30
0.0
 10
-1.206712598425197
 20
1.010444881889764
 30
0.0
  0
SPLINE
  5
68
330
1F
100
AcDbEntity
  8
LAYER_1
 62
   250
100
AcDbSpline
210
0.0
220
0.0
230
1.0
 70
    11
 71
     3
 72
   112
 73
   108
 74
     0
 42
0.0000000001
 43
0.0000000001
 40
0.0
 40
0.0
 40
0.0
 40
0.0
 40
0.037037037037037
 40
0.037037037037037
 40
0.037037037037037
 40
0.037037037037037
 40
0.0740740740740741
 40
0.0740740740740741
 40
0.0740740740740741
 40
0.0740740740740741
 40
0.1111111111111111
 40
0.1111111111111111
 40
0.1111111111111111
 40
0.1111111111111111
 40
0.1481481481481481
 40
0.1481481481481481
 40
0.1481481481481481
 40
0.1481481481481481
 40
0.1851851851851852
 40
0.1851851851851852
 40
0.1851851851851852
 40
0.1851851851851852
 40
0.2222222222222222
 40
0.2222222222222222
 40
0.2222222222222222
 40
0.2222222222222222
 40
0.2592592592592592
 40
0.2592592592592592
 40
0.2592592592592592
 40
0.2592592592592592
 40
0.2962962962962963
 40
0.2962962962962963
 40
0.2962962962962963
 40
0.2962962962962963
 40
0.3333333333333333
 40
0.3333333333333333
 40
0.3333333333333333
 40
0.3333333333333333
 40
0.3703703703703704
 40
0.3703703703703704
 40
0.3703703703703704
 40
0.3703703703703704
 40
0.4074074074074074
 40
0.4074074074074074
 40
0.4074074074074074
 40
0.4074074074074074
 40
0.4444444444444444
 40
0.4444444444444444
 40
0.4444444444444444
 40
0.4444444444444444
 40
0.4814814814814815
 40
0.4814814814814815
 40
0.4814814814814815
 40
0.4814814814814815
 40
0.5185185185185185
 40
0.5185185185185185
 40
0.5185185185185185
 40
0.5185185185185185
 40
0.5555555555555556
 40
0.5555555555555556
 40
0.5555555555555556
 40
0.5555555555555556
 40
0.5925925925925926
 40
0.5925925925925926
 40
0.5925925925925926
 40
0.5925925925925926
 40
0.6296296296296295
 40
0.6296296296296295
 40
0.6296296296296295
 40
0.6296296296296295
 40
0.6666666666666665
 40
0.6666666666666665
 40
0.6666666666666665
 40
0.6666666666666665
 40
0.7037037037037035
 40
0.7037037037037035
 40
0.7037037037037035
 40
0.7037037037037035
 40
0.7407407407407405
 40
0.7407407407407405
 40
0.7407407407407405
 40
0.7407407407407405
 40
0.7777777777777775
 40
0.7777777777777775
 40
0.7777777777777775
 40
0.7777777777777775
 40
0.8148148148148144
 40
0.8148148148148144
 40
0.8148148148148144
 40
0.8148148148148144
 40
0.8518518518518514
 40
0.8518518518518514
 40
0.8518518518518514
 40
0.8518518518518514
 40
0.8888888888888884
 40
0.8888888888888884
 40
0.8888888888888884
 40
0.8888888888888884
 40
0.9259259259259254
 40
0.9259259259259254
 40
0.9259259259259254
 40
0.9259259259259254
 40
0.9629629629629624
 40
0.9629629629629624
 40
0.9629629629629624
 40
0.9629629629629624
 40
1.0
 40
1.0
 40
1.0
 40
1.0
 10
-1.069606299212599
 20
1.068889763779528
 30
0.0
 10
-1.069606299212599
 20
1.068889763779528
 30
0.0
 10
-1.056188976377953
 20
1.068889763779528
 30
0.0
 10
-1.056188976377953
 20
1.068889763779528
 30
0.0
 10
-1.056188976377953
 20
1.068889763779528
 30
0.0
 10
-1.056188976377953
 20
1.068889763779528
 30
0.0
 10
-1.02094094488189
 20
0.9740000000000001
 30
0.0
 10
-1.02094094488189
 20
0.9740000000000001
 30
0.0
 10
-1.02094094488189
 20
0.9740000000000001
 30
0.0
 10
-1.019216535433071
 20
0.9692244094488189
 30
0.0
 10
-1.017468503937008
 20
0.9660551181102363
 30
0.0
 10
-1.015688976377953
 20
0.9645275590551181
 30
0.0
 10
-1.015688976377953
 20
0.9645275590551181
 30
0.0
 10
-1.01394094488189
 20
0.9629724409448819
 30
0.0
 10
-1.011551181102362
 20
0.9621968503937008
 30
0.0
 10
-1.00857874015748
 20
0.9621968503937008
 30
0.0
 10
-1.00857874015748
 20
0.9621968503937008
 30
0.0
 10
-1.00857874015748
 20
0.9621968503937008
 30
0.0
 10
-1.006799212598425
 20
0.9621968503937008
 30
0.0
 10
-1.006799212598425
 20
0.9621968503937008
 30
0.0
 10
-1.006799212598425
 20
0.9621968503937008
 30
0.0
 10
-1.006799212598425
 20
0.9621968503937008
 30
0.0
 10
-1.006799212598425
 20
0.9553622047244095
 30
0.0
 10
-1.006799212598425
 20
0.9553622047244095
 30
0.0
 10
-1.006799212598425
 20
0.9553622047244095
 30
0.0
 10
-1.006799212598425
 20
0.9553622047244095
 30
0.0
 10
-1.047244094488189
 20
0.9553622047244095
 30
0.0
 10
-1.047244094488189
 20
0.9553622047244095
 30
0.0
 10
-1.047244094488189
 20
0.9553622047244095
 30
0.0
 10
-1.047244094488189
 20
0.9553622047244095
 30
0.0
 10
-1.047244094488189
 20
0.9621968503937008
 30
0.0
 10
-1.047244094488189
 20
0.9621968503937008
 30
0.0
 10
-1.047244094488189
 20
0.9621968503937008
 30
0.0
 10
-1.04594094488189
 20
0.9623070866141733
 30
0.0
 10
-1.044661417322835
 20
0.9623622047244095
 30
0.0
 10
-1.043409448818898
 20
0.9623622047244095
 30
0.0
 10
-1.043409448818898
 20
0.9623622047244095
 30
0.0
 10
-1.040799212598425
 20
0.9623622047244095
 30
0.0
 10
-1.039106299212599
 20
0.9626417322834646
 30
0.0
 10
-1.038271653543307
 20
0.9631692913385828
 30
0.0
 10
-1.038271653543307
 20
0.9631692913385828
 30
0.0
 10
-1.036716535433071
 20
0.9641968503937008
 30
0.0
 10
-1.035913385826772
 20
0.9655
 30
0.0
 10
-1.035913385826772
 20
0.9670826771653543
 30
0.0
 10
-1.035913385826772
 20
0.9670826771653543
 30
0.0
 10
-1.035913385826772
 20
0.9682244094488189
 30
0.0
 10
-1.036688976377953
 20
0.9710000000000001
 30
0.0
 10
-1.038188976377953
 20
0.975472440944882
 30
0.0
 10
-1.038188976377953
 20
0.975472440944882
 30
0.0
 10
-1.038188976377953
 20
0.975472440944882
 30
0.0
 10
-1.045688976377953
 20
0.9974448818897638
 30
0.0
 10
-1.045688976377953
 20
0.9974448818897638
 30
0.0
 10
-1.045688976377953
 20
0.9974448818897638
 30
0.0
 10
-1.045688976377953
 20
0.9974448818897638
 30
0.0
 10
-1.086854330708662
 20
0.9974448818897638
 30
0.0
 10
-1.086854330708662
 20
0.9974448818897638
 30
0.0
 10
-1.086854330708662
 20
0.9974448818897638
 30
0.0
 10
-1.086854330708662
 20
0.9974448818897638
 30
0.0
 10
-1.095661417322835
 20
0.9728622047244095
 30
0.0
 10
-1.095661417322835
 20
0.9728622047244095
 30
0.0
 10
-1.095661417322835
 20
0.9728622047244095
 30
0.0
 10
-1.09657874015748
 20
0.9703070866141733
 30
0.0
 10
-1.097051181102362
 20
0.9685551181102362
 30
0.0
 10
-1.097051181102362
 20
0.9675551181102363
 30
0.0
 10
-1.097051181102362
 20
0.9675551181102363
 30
0.0
 10
-1.097051181102362
 20
0.9664724409448819
 30
0.0
 10
-1.096744094488189
 20
0.9655275590551181
 30
0.0
 10
-1.096188976377953
 20
0.964724409448819
 30
0.0
 10
-1.096188976377953
 20
0.964724409448819
 30
0.0
 10
-1.095606299212599
 20
0.9639173228346457
 30
0.0
 10
-1.094854330708662
 20
0.9633070866141733
 30
0.0
 10
-1.093854330708661
 20
0.9628897637795276
 30
0.0
 10
-1.093854330708661
 20
0.9628897637795276
 30
0.0
 10
-1.09288188976378
 20
0.9624724409448819
 30
0.0
 10
-1.091326771653543
 20
0.9622795275590551
 30
0.0
 10
-1.089133858267717
 20
0.9622795275590551
 30
0.0
 10
-1.089133858267717
 20
0.9622795275590551
 30
0.0
 10
-1.087688976377953
 20
0.9622795275590551
 30
0.0
 10
-1.086496062992126
 20
0.962251968503937
 30
0.0
 10
-1.08557874015748
 20
0.9621968503937008
 30
0.0
 10
-1.08557874015748
 20
0.9621968503937008
 30
0.0
 10
-1.08557874015748
 20
0.9621968503937008
 30
0.0
 10
-1.08557874015748
 20
0.9553622047244095
 30
0.0
 10
-1.08557874015748
 20
0.9553622047244095
 30
0.0
 10
-1.08557874015748
 20
0.9553622047244095
 30
0.0
 10
-1.08557874015748
 20
0.9553622047244095
 30
0.0
 10
-1.119496062992126
 20
0.9553622047244095
 30
0.0
 10
-1.119496062992126
 20
0.9553622047244095
 30
0.0
 10
-1.119496062992126
 20
0.9553622047244095
 30
0.0
 10
-1.119496062992126
 20
0.9553622047244095
 30
0.0
 10
-1.119496062992126
 20
0.9621968503937008
 30
0.0
 10
-1.119496062992126
 20
0.9621968503937008
 30
0.0
 10
-1.119496062992126
 20
0.9621968503937008
 30
0.0
 10
-1.116354330708661
 20
0.9621968503937008
 30
0.0
 10
-1.11407874015748
 20
0.9625
 30
0.0
 10
-1.112716535433071
 20
0.9631417322834646
 30
0.0
 10
-1.112716535433071
 20
0.9631417322834646
 30
0.0
 10
-1.111326771653543
 20
0.9637519685039371
 30
0.0
 10
-1.110106299212599
 20
0.9647519685039371
 30
0.0
 10
-1.10907874015748
 20
0.9661417322834646
 30
0.0
 10
-1.10907874015748
 20
0.9661417322834646
 30
0.0
 10
-1.108051181102362
 20
0.9675275590551181
 30
0.0
 10
-1.106688976377953
 20
0.9704448818897639
 30
0.0
 10
-1.105023622047244
 20
0.9748897637795276
 30
0.0
 10
-1.105023622047244
 20
0.9748897637795276
 30
0.0
 10
-1.105023622047244
 20
0.9748897637795276
 30
0.0
 10
-1.069606299212599
 20
1.068889763779528
 30
0.0
 10
-1.069606299212599
 20
1.068889763779528
 30
0.0
  0
SPLINE
  5
69
330
1F
100
AcDbEntity
  8
LAYER_1
 62
   250
100
AcDbSpline
210
0.0
220
0.0
230
1.0
 70
    11
 71
     3
 72
    16
 73
    12
 74
     0
 42
0.0000000001
 43
0.0000000001
 40
0.0
 40
0.0
 40
0.0
 40
0.0
 40
0.3333333333333333
 40
0.3333333333333333
 40
0.3333333333333333
 40
0.3333333333333333
 40
0.6666666666666666
 40
0.6666666666666666
 40
0.6666666666666666
 40
0.6666666666666666
 40
1.0
 40
1.0
 40
1.0
 40
1.0
 10
-1.083854330708661
 20
1.005417322834646
 30
0.0
 10
-1.083854330708661
 20
1.005417322834646
 30
0.0
 10
-1.048771653543307
 20
1.005417322834646
 30
0.0
 10
-1.048771653543307
 20
1.005417322834646
 30
0.0
 10
-1.048771653543307
 20
1.005417322834646
 30
0.0
 10
-1.048771653543307
 20
1.005417322834646
 30
0.0
 10
-1.066354330708661
 20
1.054251968503937
 30
0.0
 10
-1.066354330708661
 20
1.054251968503937
 30
0.0
 10
-1.066354330708661
 20
1.054251968503937
 30
0.0
 10
-1.066354330708661
 20
1.054251968503937
 30
0.0
 10
-1.083854330708661
 20
1.005417322834646
 30
0.0
 10
-1.083854330708661
 20
1.005417322834646
 30
0.0
  0
SPLINE
  5
6A
330
1F
100
AcDbEntity
  8
LAYER_1
 62
   250
100
AcDbSpline
210
0.0
220
0.0
230
1.0
 70
    11
 71
     3
 72
    72
 73
    68
 74
     0
 42
0.0000000001
 43
0.0000000001
 40
0.0
 40
0.0
 40
0.0
 40
0.0
 40
0.0588235294117647
 40
0.0588235294117647
 40
0.0588235294117647
 40
0.0588235294117647
 40
0.1176470588235294
 40
0.1176470588235294
 40
0.1176470588235294
 40
0.1176470588235294
 40
0.1764705882352941
 40
0.1764705882352941
 40
0.1764705882352941
 40
0.1764705882352941
 40
0.2352941176470588
 40
0.2352941176470588
 40
0.2352941176470588
 40
0.2352941176470588
 40
0.2941176470588235
 40
0.2941176470588235
 40
0.2941176470588235
 40
0.2941176470588235
 40
0.3529411764705883
 40
0.3529411764705883
 40
0.3529411764705883
 40
0.3529411764705883
 40
0.411764705882353
 40
0.411764705882353
 40
0.411764705882353
 40
0.411764705882353
 40
0.4705882352941177
 40
0.4705882352941177
 40
0.4705882352941177
 40
0.4705882352941177
 40
0.5294117647058824
 40
0.5294117647058824
 40
0.5294117647058824
 40
0.5294117647058824
 40
0.5882352941176471
 40
0.5882352941176471
 40
0.5882352941176471
 40
0.5882352941176471
 40
0.6470588235294118
 40
0.6470588235294118
 40
0.6470588235294118
 40
0.6470588235294118
 40
0.7058823529411765
 40
0.7058823529411765
 40
0.7058823529411765
 40
0.7058823529411765
 40
0.7647058823529412
 40
0.7647058823529412
 40
0.7647058823529412
 40
0.7647058823529412
 40
0.823529411764706
 40
0.823529411764706
 40
0.823529411764706
 40
0.823529411764706
 40
0.8823529411764707
 40
0.8823529411764707
 40
0.8823529411764707
 40
0.8823529411764707
 40
0.9411764705882354
 40
0.9411764705882354
 40
0.9411764705882354
 40
0.9411764705882354
 40
1.0
 40
1.0
 40
1.0
 40
1.0
 10
-0.8437716535433071
 20
1.068889763779528
 30
0.0
 10
-0.8437716535433071
 20
1.068889763779528
 30
0.0
 10
-0.8376889763779528
 20
1.068889763779528
 30
0.0
 10
-0.8376889763779528
 20
1.068889763779528
 30
0.0
 10
-0.8376889763779528
 20
1.068889763779528
 30
0.0
 10
-0.8376889763779528
 20
1.068889763779528
 30
0.0
 10
-0.8376889763779528
 20
0.9746417322834646
 30
0.0
 10
-0.8376889763779528
 20
0.9746417322834646
 30
0.0
 10
-0.8376889763779528
 20
0.9746417322834646
 30
0.0
 10
-0.8376889763779528
 20
0.9701968503937009
 30
0.0
 10
-0.8373818897637796
 20
0.9673346456692914
 30
0.0
 10
-0.8368267716535434
 20
0.9660551181102363
 30
0.0
 10
-0.8368267716535434
 20
0.9660551181102363
 30
0.0
 10
-0.836244094488189
 20
0.9647795275590552
 30
0.0
 10
-0.8353267716535433
 20
0.9638346456692913
 30
0.0
 10
-0.8340236220472441
 20
0.9631692913385828
 30
0.0
 10
-0.8340236220472441
 20
0.9631692913385828
 30
0.0
 10
-0.8327165354330709
 20
0.9625275590551181
 30
0.0
 10
-0.8301338582677166
 20
0.9621968503937008
 30
0.0
 10
-0.8262716535433071
 20
0.9621968503937008
 30
0.0
 10
-0.8262716535433071
 20
0.9621968503937008
 30
0.0
 10
-0.8262716535433071
 20
0.9621968503937008
 30
0.0
 10
-0.8182992125984252
 20
0.9621968503937008
 30
0.0
 10
-0.8182992125984252
 20
0.9621968503937008
 30
0.0
 10
-0.8182992125984252
 20
0.9621968503937008
 30
0.0
 10
-0.8182992125984252
 20
0.9621968503937008
 30
0.0
 10
-0.8182992125984252
 20
0.9553622047244095
 30
0.0
 10
-0.8182992125984252
 20
0.9553622047244095
 30
0.0
 10
-0.8182992125984252
 20
0.9553622047244095
 30
0.0
 10
-0.8182992125984252
 20
0.9553622047244095
 30
0.0
 10
-0.8719370078740157
 20
0.9553622047244095
 30
0.0
 10
-0.8719370078740157
 20
0.9553622047244095
 30
0.0
 10
-0.8719370078740157
 20
0.9553622047244095
 30
0.0
 10
-0.8719370078740157
 20
0.9553622047244095
 30
0.0
 10
-0.8719370078740157
 20
0.9621968503937008
 30
0.0
 10
-0.8719370078740157
 20
0.9621968503937008
 30
0.0
 10
-0.8719370078740157
 20
0.9621968503937008
 30
0.0
 10
-0.8719370078740157
 20
0.9621968503937008
 30
0.0
 10
-0.8630787401574803
 20
0.9621968503937008
 30
0.0
 10
-0.8630787401574803
 20
0.9621968503937008
 30
0.0
 10
-0.8630787401574803
 20
0.9621968503937008
 30
0.0
 10
-0.8592165354330709
 20
0.9621968503937008
 30
0.0
 10
-0.8566614173228346
 20
0.9625275590551181
 30
0.0
 10
-0.8553818897637796
 20
0.9632244094488189
 30
0.0
 10
-0.8553818897637796
 20
0.9632244094488189
 30
0.0
 10
-0.8541062992125985
 20
0.9638897637795276
 30
0.0
 10
-0.8531062992125985
 20
0.9649724409448819
 30
0.0
 10
-0.8524094488188977
 20
0.9664724409448819
 30
0.0
 10
-0.8524094488188977
 20
0.9664724409448819
 30
0.0
 10
-0.8517165354330709
 20
0.9679724409448819
 30
0.0
 10
-0.8513543307086614
 20
0.9706968503937008
 30
0.0
 10
-0.8513543307086614
 20
0.9746417322834646
 30
0.0
 10
-0.8513543307086614
 20
0.9746417322834646
 30
0.0
 10
-0.8513543307086614
 20
0.9746417322834646
 30
0.0
 10
-0.8513543307086614
 20
1.052110236220472
 30
0.0
 10
-0.8513543307086614
 20
1.052110236220472
 30
0.0
 10
-0.8513543307086614
 20
1.052110236220472
 30
0.0
 10
-0.8513543307086614
 20
1.052110236220472
 30
0.0
 10
-0.8719370078740157
 20
1.052110236220472
 30
0.0
 10
-0.8719370078740157
 20
1.052110236220472
 30
0.0
 10
-0.8719370078740157
 20
1.052110236220472
 30
0.0
 10
-0.8719370078740157
 20
1.052110236220472
 30
0.0
 10
-0.8719370078740157
 20
1.059110236220473
 30
0.0
 10
-0.8719370078740157
 20
1.059110236220473
 30
0.0
 10
-0.8719370078740157
 20
1.059110236220473
 30
0.0
 10
-0.8607165354330709
 20
1.060692913385827
 30
0.0
 10
-0.8513267716535433
 20
1.063944881889764
 30
0.0
 10
-0.8437716535433071
 20
1.068889763779528
 30
0.0
  0
SPLINE
  5
6B
330
1F
100
AcDbEntity
  8
LAYER_1
 62
   250
100
AcDbSpline
210
0.0
220
0.0
230
1.0
 70
    11
 71
     3
 72
    80
 73
    76
 74
     0
 42
0.0000000001
 43
0.0000000001
 40
0.0
 40
0.0
 40
0.0
 40
0.0
 40
0.0526315789473684
 40
0.0526315789473684
 40
0.0526315789473684
 40
0.0526315789473684
 40
0.1052631578947368
 40
0.1052631578947368
 40
0.1052631578947368
 40
0.1052631578947368
 40
0.1578947368421053
 40
0.1578947368421053
 40
0.1578947368421053
 40
0.1578947368421053
 40
0.2105263157894737
 40
0.2105263157894737
 40
0.2105263157894737
 40
0.2105263157894737
 40
0.2631578947368421
 40
0.2631578947368421
 40
0.2631578947368421
 40
0.2631578947368421
 40
0.3157894736842105
 40
0.3157894736842105
 40
0.3157894736842105
 40
0.3157894736842105
 40
0.3684210526315789
 40
0.3684210526315789
 40
0.3684210526315789
 40
0.3684210526315789
 40
0.4210526315789474
 40
0.4210526315789474
 40
0.4210526315789474
 40
0.4210526315789474
 40
0.4736842105263158
 40
0.4736842105263158
 40
0.4736842105263158
 40
0.4736842105263158
 40
0.5263157894736842
 40
0.5263157894736842
 40
0.5263157894736842
 40
0.5263157894736842
 40
0.5789473684210527
 40
0.5789473684210527
 40
0.5789473684210527
 40
0.5789473684210527
 40
0.631578947368421
 40
0.631578947368421
 40
0.631578947368421
 40
0.631578947368421
 40
0.6842105263157894
 40
0.6842105263157894
 40
0.6842105263157894
 40
0.6842105263157894
 40
0.7368421052631577
 40
0.7368421052631577
 40
0.7368421052631577
 40
0.7368421052631577
 40
0.7894736842105261
 40
0.7894736842105261
 40
0.7894736842105261
 40
0.7894736842105261
 40
0.8421052631578945
 40
0.8421052631578945
 40
0.8421052631578945
 40
0.8421052631578945
 40
0.8947368421052628
 40
0.8947368421052628
 40
0.8947368421052628
 40
0.8947368421052628
 40
0.9473684210526312
 40
0.9473684210526312
 40
0.9473684210526312
 40
0.9473684210526312
 40
1.0
 40
1.0
 40
1.0
 40
1.0
 10
-0.7783543307086615
 20
1.073027559055118
 30
0.0
 10
-0.7783543307086615
 20
1.073027559055118
 30
0.0
 10
-0.7729645669291339
 20
1.073027559055118
 30
0.0
 10
-0.7729645669291339
 20
1.073027559055118
 30
0.0
 10
-0.7729645669291339
 20
1.073027559055118
 30
0.0
 10
-0.7729645669291339
 20
1.073027559055118
 30
0.0
 10
-0.771992125984252
 20
1.068889763779528
 30
0.0
 10
-0.771992125984252
 20
1.068889763779528
 30
0.0
 10
-0.771992125984252
 20
1.068889763779528
 30
0.0
 10
-0.771992125984252
 20
1.068889763779528
 30
0.0
 10
-0.7008818897637795
 20
1.068889763779528
 30
0.0
 10
-0.7008818897637795
 20
1.068889763779528
 30
0.0
 10
-0.7008818897637795
 20
1.068889763779528
 30
0.0
 10
-0.7008818897637795
 20
1.068889763779528
 30
0.0
 10
-0.7008818897637795
 20
1.061972440944882
 30
0.0
 10
-0.7008818897637795
 20
1.061972440944882
 30
0.0
 10
-0.7008818897637795
 20
1.061972440944882
 30
0.0
 10
-0.7093818897637796
 20
1.052137795275591
 30
0.0
 10
-0.7171062992125985
 20
1.040972440944882
 30
0.0
 10
-0.7240196850393701
 20
1.028389763779528
 30
0.0
 10
-0.7240196850393701
 20
1.028389763779528
 30
0.0
 10
-0.7309370078740157
 20
1.015834645669291
 30
0.0
 10
-0.7362992125984252
 20
1.003055118110236
 30
0.0
 10
-0.7401062992125984
 20
0.9900275590551182
 30
0.0
 10
-0.7401062992125984
 20
0.9900275590551182
 30
0.0
 10
-0.7428543307086615
 20
0.9806417322834646
 30
0.0
 10
-0.7451023622047245
 20
0.9690826771653543
 30
0.0
 10
-0.7468543307086615
 20
0.9553622047244095
 30
0.0
 10
-0.7468543307086615
 20
0.9553622047244095
 30
0.0
 10
-0.7468543307086615
 20
0.9553622047244095
 30
0.0
 10
-0.7635196850393701
 20
0.9553622047244095
 30
0.0
 10
-0.7635196850393701
 20
0.9553622047244095
 30
0.0
 10
-0.7635196850393701
 20
0.9553622047244095
 30
0.0
 10
-0.7619094488188977
 20
0.9674724409448819
 30
0.0
 10
-0.759244094488189
 20
0.9787795275590552
 30
0.0
 10
-0.7555196850393701
 20
0.9893070866141732
 30
0.0
 10
-0.7555196850393701
 20
0.9893070866141732
 30
0.0
 10
-0.7517992125984252
 20
0.9998346456692914
 30
0.0
 10
-0.7464370078740158
 20
1.010834645669291
 30
0.0
 10
-0.7394094488188977
 20
1.022307086614173
 30
0.0
 10
-0.7394094488188977
 20
1.022307086614173
 30
0.0
 10
-0.7323818897637796
 20
1.033779527559055
 30
0.0
 10
-0.7238543307086615
 20
1.045224409448819
 30
0.0
 10
-0.7137992125984253
 20
1.056665354330709
 30
0.0
 10
-0.7137992125984253
 20
1.056665354330709
 30
0.0
 10
-0.7137992125984253
 20
1.056665354330709
 30
0.0
 10
-0.7645196850393701
 20
1.056665354330709
 30
0.0
 10
-0.7645196850393701
 20
1.056665354330709
 30
0.0
 10
-0.7645196850393701
 20
1.056665354330709
 30
0.0
 10
-0.7681889763779528
 20
1.056665354330709
 30
0.0
 10
-0.770716535433071
 20
1.0565
 30
0.0
 10
-0.7720748031496063
 20
1.056110236220472
 30
0.0
 10
-0.7720748031496063
 20
1.056110236220472
 30
0.0
 10
-0.7734370078740158
 20
1.055724409448819
 30
0.0
 10
-0.774492125984252
 20
1.055137795275591
 30
0.0
 10
-0.775244094488189
 20
1.054334645669292
 30
0.0
 10
-0.775244094488189
 20
1.054334645669292
 30
0.0
 10
-0.7760196850393701
 20
1.0535
 30
0.0
 10
-0.7766614173228347
 20
1.052055118110236
 30
0.0
 10
-0.7772165354330709
 20
1.05
 30
0.0
 10
-0.7772165354330709
 20
1.05
 30
0.0
 10
-0.7772165354330709
 20
1.05
 30
0.0
 10
-0.7776023622047245
 20
1.048472440944882
 30
0.0
 10
-0.7776023622047245
 20
1.048472440944882
 30
0.0
 10
-0.7776023622047245
 20
1.048472440944882
 30
0.0
 10
-0.7776023622047245
 20
1.048472440944882
 30
0.0
 10
-0.7803818897637795
 20
1.038862204724409
 30
0.0
 10
-0.7803818897637795
 20
1.038862204724409
 30
0.0
 10
-0.7803818897637795
 20
1.038862204724409
 30
0.0
 10
-0.7803818897637795
 20
1.038862204724409
 30
0.0
 10
-0.7872992125984253
 20
1.040334645669292
 30
0.0
 10
-0.7872992125984253
 20
1.040334645669292
 30
0.0
 10
-0.7872992125984253
 20
1.040334645669292
 30
0.0
 10
-0.7872992125984253
 20
1.040334645669292
 30
0.0
 10
-0.7783543307086615
 20
1.073027559055118
 30
0.0
 10
-0.7783543307086615
 20
1.073027559055118
 30
0.0
  0
SPLINE
  5
6C
330
1F
100
AcDbEntity
  8
LAYER_1
 62
   250
100
AcDbSpline
210
0.0
220
0.0
230
1.0
 70
    11
 71
     3
 72
    72
 73
    68
 74
     0
 42
0.0000000001
 43
0.0000000001
 40
0.0
 40
0.0
 40
0.0
 40
0.0
 40
0.0588235294117647
 40
0.0588235294117647
 40
0.0588235294117647
 40
0.0588235294117647
 40
0.1176470588235294
 40
0.1176470588235294
 40
0.1176470588235294
 40
0.1176470588235294
 40
0.1764705882352941
 40
0.1764705882352941
 40
0.1764705882352941
 40
0.1764705882352941
 40
0.2352941176470588
 40
0.2352941176470588
 40
0.2352941176470588
 40
0.2352941176470588
 40
0.2941176470588235
 40
0.2941176470588235
 40
0.2941176470588235
 40
0.2941176470588235
 40
0.3529411764705883
 40
0.3529411764705883
 40
0.3529411764705883
 40
0.3529411764705883
 40
0.411764705882353
 40
0.411764705882353
 40
0.411764705882353
 40
0.411764705882353
 40
0.4705882352941177
 40
0.4705882352941177
 40
0.4705882352941177
 40
0.4705882352941177
 40
0.5294117647058824
 40
0.5294117647058824
 40
0.5294117647058824
 40
0.5294117647058824
 40
0.5882352941176471
 40
0.5882352941176471
 40
0.5882352941176471
 40
0.5882352941176471
 40
0.6470588235294118
 40
0.6470588235294118
 40
0.6470588235294118
 40
0.6470588235294118
 40
0.7058823529411765
 40
0.7058823529411765
 40
0.7058823529411765
 40
0.7058823529411765
 40
0.7647058823529412
 40
0.7647058823529412
 40
0.7647058823529412
 40
0.7647058823529412
 40
0.823529411764706
 40
0.823529411764706
 40
0.823529411764706
 40
0.823529411764706
 40
0.8823529411764707
 40
0.8823529411764707
 40
0.8823529411764707
 40
0.8823529411764707
 40
0.9411764705882354
 40
0.9411764705882354
 40
0.9411764705882354
 40
0.9411764705882354
 40
1.0
 40
1.0
 40
1.0
 40
1.0
 10
-0.6370472440944882
 20
1.068889763779528
 30
0.0
 10
-0.6370472440944882
 20
1.068889763779528
 30
0.0
 10
-0.6309645669291338
 20
1.068889763779528
 30
0.0
 10
-0.6309645669291338
 20
1.068889763779528
 30
0.0
 10
-0.6309645669291338
 20
1.068889763779528
 30
0.0
 10
-0.6309645669291338
 20
1.068889763779528
 30
0.0
 10
-0.6309645669291338
 20
0.9746417322834646
 30
0.0
 10
-0.6309645669291338
 20
0.9746417322834646
 30
0.0
 10
-0.6309645669291338
 20
0.9746417322834646
 30
0.0
 10
-0.6309645669291338
 20
0.9701968503937009
 30
0.0
 10
-0.6306574803149606
 20
0.9673346456692914
 30
0.0
 10
-0.6301023622047245
 20
0.9660551181102363
 30
0.0
 10
-0.6301023622047245
 20
0.9660551181102363
 30
0.0
 10
-0.6295196850393701
 20
0.9647795275590552
 30
0.0
 10
-0.6286023622047244
 20
0.9638346456692913
 30
0.0
 10
-0.6272992125984253
 20
0.9631692913385828
 30
0.0
 10
-0.6272992125984253
 20
0.9631692913385828
 30
0.0
 10
-0.625992125984252
 20
0.9625275590551181
 30
0.0
 10
-0.6234094488188977
 20
0.9621968503937008
 30
0.0
 10
-0.6195472440944883
 20
0.9621968503937008
 30
0.0
 10
-0.6195472440944883
 20
0.9621968503937008
 30
0.0
 10
-0.6195472440944883
 20
0.9621968503937008
 30
0.0
 10
-0.6115748031496063
 20
0.9621968503937008
 30
0.0
 10
-0.6115748031496063
 20
0.9621968503937008
 30
0.0
 10
-0.6115748031496063
 20
0.9621968503937008
 30
0.0
 10
-0.6115748031496063
 20
0.9621968503937008
 30
0.0
 10
-0.6115748031496063
 20
0.9553622047244095
 30
0.0
 10
-0.6115748031496063
 20
0.9553622047244095
 30
0.0
 10
-0.6115748031496063
 20
0.9553622047244095
 30
0.0
 10
-0.6115748031496063
 20
0.9553622047244095
 30
0.0
 10
-0.6652125984251969
 20
0.9553622047244095
 30
0.0
 10
-0.6652125984251969
 20
0.9553622047244095
 30
0.0
 10
-0.6652125984251969
 20
0.9553622047244095
 30
0.0
 10
-0.6652125984251969
 20
0.9553622047244095
 30
0.0
 10
-0.6652125984251969
 20
0.9621968503937008
 30
0.0
 10
-0.6652125984251969
 20
0.9621968503937008
 30
0.0
 10
-0.6652125984251969
 20
0.9621968503937008
 30
0.0
 10
-0.6652125984251969
 20
0.9621968503937008
 30
0.0
 10
-0.6563543307086615
 20
0.9621968503937008
 30
0.0
 10
-0.6563543307086615
 20
0.9621968503937008
 30
0.0
 10
-0.6563543307086615
 20
0.9621968503937008
 30
0.0
 10
-0.652492125984252
 20
0.9621968503937008
 30
0.0
 10
-0.6499370078740158
 20
0.9625275590551181
 30
0.0
 10
-0.6486574803149606
 20
0.9632244094488189
 30
0.0
 10
-0.6486574803149606
 20
0.9632244094488189
 30
0.0
 10
-0.6473818897637795
 20
0.9638897637795276
 30
0.0
 10
-0.6463818897637795
 20
0.9649724409448819
 30
0.0
 10
-0.6456850393700788
 20
0.9664724409448819
 30
0.0
 10
-0.6456850393700788
 20
0.9664724409448819
 30
0.0
 10
-0.644992125984252
 20
0.9679724409448819
 30
0.0
 10
-0.6446299212598425
 20
0.9706968503937008
 30
0.0
 10
-0.6446299212598425
 20
0.9746417322834646
 30
0.0
 10
-0.6446299212598425
 20
0.9746417322834646
 30
0.0
 10
-0.6446299212598425
 20
0.9746417322834646
 30
0.0
 10
-0.6446299212598425
 20
1.052110236220472
 30
0.0
 10
-0.6446299212598425
 20
1.052110236220472
 30
0.0
 10
-0.6446299212598425
 20
1.052110236220472
 30
0.0
 10
-0.6446299212598425
 20
1.052110236220472
 30
0.0
 10
-0.6652125984251969
 20
1.052110236220472
 30
0.0
 10
-0.6652125984251969
 20
1.052110236220472
 30
0.0
 10
-0.6652125984251969
 20
1.052110236220472
 30
0.0
 10
-0.6652125984251969
 20
1.052110236220472
 30
0.0
 10
-0.6652125984251969
 20
1.059110236220473
 30
0.0
 10
-0.6652125984251969
 20
1.059110236220473
 30
0.0
 10
-0.6652125984251969
 20
1.059110236220473
 30
0.0
 10
-0.6539921259842521
 20
1.060692913385827
 30
0.0
 10
-0.6446023622047244
 20
1.063944881889764
 30
0.0
 10
-0.6370472440944882
 20
1.068889763779528
 30
0.0
  0
SPLINE
  5
6D
330
1F
100
AcDbEntity
  8
LAYER_1
 62
   250
100
AcDbSpline
210
0.0
220
0.0
230
1.0
 70
    11
 71
     3
 72
    84
 73
    80
 74
     0
 42
0.0000000001
 43
0.0000000001
 40
0.0
 40
0.0
 40
0.0
 40
0.0
 40
0.05
 40
0.05
 40
0.05
 40
0.05
 40
0.1
 40
0.1
 40
0.1
 40
0.1
 40
0.15
 40
0.15
 40
0.15
 40
0.15
 40
0.2
 40
0.2
 40
0.2
 40
0.2
 40
0.25
 40
0.25
 40
0.25
 40
0.25
 40
0.3
 40
0.3
 40
0.3
 40
0.3
 40
0.35
 40
0.35
 40
0.35
 40
0.35
 40
0.4
 40
0.4
 40
0.4
 40
0.4
 40
0.45
 40
0.45
 40
0.45
 40
0.45
 40
0.4999999999999999
 40
0.4999999999999999
 40
0.4999999999999999
 40
0.4999999999999999
 40
0.5499999999999999
 40
0.5499999999999999
 40
0.5499999999999999
 40
0.5499999999999999
 40
0.6
 40
0.6
 40
0.6
 40
0.6
 40
0.65
 40
0.65
 40
0.65
 40
0.65
 40
0.7000000000000001
 40
0.7000000000000001
 40
0.7000000000000001
 40
0.7000000000000001
 40
0.7500000000000001
 40
0.7500000000000001
 40
0.7500000000000001
 40
0.7500000000000001
 40
0.8000000000000002
 40
0.8000000000000002
 40
0.8000000000000002
 40
0.8000000000000002
 40
0.8500000000000002
 40
0.8500000000000002
 40
0.8500000000000002
 40
0.8500000000000002
 40
0.9000000000000002
 40
0.9000000000000002
 40
0.9000000000000002
 40
0.9000000000000002
 40
0.9500000000000003
 40
0.9500000000000003
 40
0.9500000000000003
 40
0.9500000000000003
 40
1.0
 40
1.0
 40
1.0
 40
1.0
 10
-0.5053818897637795
 20
1.071
 30
0.0
 10
-0.5053818897637795
 20
1.071
 30
0.0
 10
-0.5053818897637795
 20
1.063582677165354
 30
0.0
 10
-0.5053818897637795
 20
1.063582677165354
 30
0.0
 10
-0.5053818897637795
 20
1.063582677165354
 30
0.0
 10
-0.5187677165354331
 20
1.063444881889764
 30
0.0
 10
-0.5296023622047245
 20
1.061472440944882
 30
0.0
 10
-0.5378779527559056
 20
1.057751968503937
 30
0.0
 10
-0.5378779527559056
 20
1.057751968503937
 30
0.0
 10
-0.5461574803149607
 20
1.054
 30
0.0
 10
-0.552240157480315
 20
1.048389763779528
 30
0.0
 10
-0.5561574803149607
 20
1.040944881889764
 30
0.0
 10
-0.5561574803149607
 20
1.040944881889764
 30
0.0
 10
-0.5600748031496063
 20
1.033472440944882
 30
0.0
 10
-0.5622677165354331
 20
1.024279527559055
 30
0.0
 10
-0.562740157480315
 20
1.013389763779528
 30
0.0
 10
-0.562740157480315
 20
1.013389763779528
 30
0.0
 10
-0.559992125984252
 20
1.017610236220472
 30
0.0
 10
-0.5571574803149606
 20
1.020917322834646
 30
0.0
 10
-0.554240157480315
 20
1.023279527559055
 30
0.0
 10
-0.554240157480315
 20
1.023279527559055
 30
0.0
 10
-0.5513503937007874
 20
1.025637795275591
 30
0.0
 10
-0.5479645669291339
 20
1.027444881889764
 30
0.0
 10
-0.5440748031496063
 20
1.028724409448819
 30
0.0
 10
-0.5440748031496063
 20
1.028724409448819
 30
0.0
 10
-0.5401850393700788
 20
1.03
 30
0.0
 10
-0.5359370078740158
 20
1.030637795275591
 30
0.0
 10
-0.5313228346456693
 20
1.030637795275591
 30
0.0
 10
-0.5313228346456693
 20
1.030637795275591
 30
0.0
 10
-0.5239645669291339
 20
1.030637795275591
 30
0.0
 10
-0.5173818897637795
 20
1.029
 30
0.0
 10
-0.5116299212598425
 20
1.025751968503937
 30
0.0
 10
-0.5116299212598425
 20
1.025751968503937
 30
0.0
 10
-0.5058818897637796
 20
1.0225
 30
0.0
 10
-0.5014094488188977
 20
1.018082677165354
 30
0.0
 10
-0.4982125984251969
 20
1.012527559055118
 30
0.0
 10
-0.4982125984251969
 20
1.012527559055118
 30
0.0
 10
-0.4950196850393701
 20
1.006972440944882
 30
0.0
 10
-0.4934094488188976
 20
1.000417322834646
 30
0.0
 10
-0.4934094488188976
 20
0.9928897637795277
 30
0.0
 10
-0.4934094488188976
 20
0.9928897637795277
 30
0.0
 10
-0.4934094488188976
 20
0.9808897637795276
 30
0.0
 10
-0.4970196850393701
 20
0.9714724409448819
 30
0.0
 10
-0.504240157480315
 20
0.9646417322834646
 30
0.0
 10
-0.504240157480315
 20
0.9646417322834646
 30
0.0
 10
-0.5122125984251968
 20
0.9571417322834646
 30
0.0
 10
-0.5225472440944882
 20
0.9534173228346458
 30
0.0
 10
-0.535240157480315
 20
0.9534173228346458
 30
0.0
 10
-0.535240157480315
 20
0.9534173228346458
 30
0.0
 10
-0.5444094488188976
 20
0.9534173228346458
 30
0.0
 10
-0.5521299212598425
 20
0.9553070866141733
 30
0.0
 10
-0.5584370078740157
 20
0.9591102362204724
 30
0.0
 10
-0.5584370078740157
 20
0.9591102362204724
 30
0.0
 10
-0.564740157480315
 20
0.9628897637795276
 30
0.0
 10
-0.569740157480315
 20
0.9686968503937008
 30
0.0
 10
-0.5734645669291338
 20
0.9765275590551181
 30
0.0
 10
-0.5734645669291338
 20
0.9765275590551181
 30
0.0
 10
-0.5771574803149606
 20
0.9843346456692914
 30
0.0
 10
-0.5790196850393701
 20
0.994
 30
0.0
 10
-0.5790196850393701
 20
1.0055
 30
0.0
 10
-0.5790196850393701
 20
1.0055
 30
0.0
 10
-0.5790196850393701
 20
1.017055118110236
 30
0.0
 10
-0.5770472440944883
 20
1.027307086614173
 30
0.0
 10
-0.5731299212598425
 20
1.036251968503937
 30
0.0
 10
-0.5731299212598425
 20
1.036251968503937
 30
0.0
 10
-0.5691850393700788
 20
1.045192913385827
 30
0.0
 10
-0.563740157480315
 20
1.052389763779528
 30
0.0
 10
-0.5567952755905512
 20
1.057807086614173
 30
0.0
 10
-0.5567952755905512
 20
1.057807086614173
 30
0.0
 10
-0.5498503937007875
 20
1.063251968503937
 30
0.0
 10
-0.542240157480315
 20
1.066807086614173
 30
0.0
 10
-0.5339921259842519
 20
1.068472440944882
 30
0.0
 10
-0.5339921259842519
 20
1.068472440944882
 30
0.0
 10
-0.5257125984251969
 20
1.070165354330709
 30
0.0
 10
-0.5182952755905512
 20
1.071
 30
0.0
 10
-0.5117125984251969
 20
1.071
 30
0.0
 10
-0.5117125984251969
 20
1.071
 30
0.0
 10
-0.5117125984251969
 20
1.071
 30
0.0
 10
-0.5053818897637795
 20
1.071
 30
0.0
 10
-0.5053818897637795
 20
1.071
 30
0.0
  0
SPLINE
  5
6E
330
1F
100
AcDbEntity
  8
LAYER_1
 62
   250
100
AcDbSpline
210
0.0
220
0.0
230
1.0
 70
    11
 71
     3
 72
    40
 73
    36
 74
     0
 42
0.0000000001
 43
0.0000000001
 40
0.0
 40
0.0
 40
0.0
 40
0.0
 40
0.1111111111111111
 40
0.1111111111111111
 40
0.1111111111111111
 40
0.1111111111111111
 40
0.2222222222222222
 40
0.2222222222222222
 40
0.2222222222222222
 40
0.2222222222222222
 40
0.3333333333333333
 40
0.3333333333333333
 40
0.3333333333333333
 40
0.3333333333333333
 40
0.4444444444444444
 40
0.4444444444444444
 40
0.4444444444444444
 40
0.4444444444444444
 40
0.5555555555555556
 40
0.5555555555555556
 40
0.5555555555555556
 40
0.5555555555555556
 40
0.6666666666666667
 40
0.6666666666666667
 40
0.6666666666666667
 40
0.6666666666666667
 40
0.7777777777777779
 40
0.7777777777777779
 40
0.7777777777777779
 40
0.7777777777777779
 40
0.8888888888888891
 40
0.8888888888888891
 40
0.8888888888888891
 40
0.8888888888888891
 40
1.0
 40
1.0
 40
1.0
 40
1.0
 10
-0.5350748031496063
 20
1.022
 30
0.0
 10
-0.5428779527559056
 20
1.022
 30
0.0
 10
-0.5492952755905513
 20
1.019055118110236
 30
0.0
 10
-0.5543228346456693
 20
1.013137795275591
 30
0.0
 10
-0.5543228346456693
 20
1.013137795275591
 30
0.0
 10
-0.5593503937007874
 20
1.007224409448819
 30
0.0
 10
-0.5618503937007874
 20
1.000110236220473
 30
0.0
 10
-0.5618503937007874
 20
0.9918346456692914
 30
0.0
 10
-0.5618503937007874
 20
0.9918346456692914
 30
0.0
 10
-0.5618503937007874
 20
0.9859724409448819
 30
0.0
 10
-0.5606299212598426
 20
0.9805551181102362
 30
0.0
 10
-0.5581850393700788
 20
0.9755826771653544
 30
0.0
 10
-0.5581850393700788
 20
0.9755826771653544
 30
0.0
 10
-0.555740157480315
 20
0.9706102362204725
 30
0.0
 10
-0.5526023622047245
 20
0.9669448818897638
 30
0.0
 10
-0.548740157480315
 20
0.9645275590551181
 30
0.0
 10
-0.548740157480315
 20
0.9645275590551181
 30
0.0
 10
-0.5449094488188977
 20
0.9621102362204724
 30
0.0
 10
-0.5405472440944882
 20
0.9608897637795276
 30
0.0
 10
-0.535740157480315
 20
0.9608897637795276
 30
0.0
 10
-0.535740157480315
 20
0.9608897637795276
 30
0.0
 10
-0.5282401574803149
 20
0.9608897637795276
 30
0.0
 10
-0.5220196850393701
 20
0.963724409448819
 30
0.0
 10
-0.5170472440944882
 20
0.9693897637795276
 30
0.0
 10
-0.5170472440944882
 20
0.9693897637795276
 30
0.0
 10
-0.5121023622047244
 20
0.9750551181102363
 30
0.0
 10
-0.5096023622047244
 20
0.9826692913385827
 30
0.0
 10
-0.5096023622047244
 20
0.992224409448819
 30
0.0
 10
-0.5096023622047244
 20
0.992224409448819
 30
0.0
 10
-0.5096023622047244
 20
1.001334645669291
 30
0.0
 10
-0.5120196850393701
 20
1.008582677165354
 30
0.0
 10
-0.5168503937007875
 20
1.013944881889764
 30
0.0
 10
-0.5168503937007875
 20
1.013944881889764
 30
0.0
 10
-0.5216850393700787
 20
1.019334645669291
 30
0.0
 10
-0.5277677165354331
 20
1.022
 30
0.0
 10
-0.5350748031496063
 20
1.022
 30
0.0
  0
SPLINE
  5
6F
330
1F
100
AcDbEntity
  8
LAYER_1
 62
   250
100
AcDbSpline
210
0.0
220
0.0
230
1.0
 70
    11
 71
     3
 72
    76
 73
    72
 74
     0
 42
0.0000000001
 43
0.0000000001
 40
0.0
 40
0.0
 40
0.0
 40
0.0
 40
0.0555555555555556
 40
0.0555555555555556
 40
0.0555555555555556
 40
0.0555555555555556
 40
0.1111111111111111
 40
0.1111111111111111
 40
0.1111111111111111
 40
0.1111111111111111
 40
0.1666666666666667
 40
0.1666666666666667
 40
0.1666666666666667
 40
0.1666666666666667
 40
0.2222222222222222
 40
0.2222222222222222
 40
0.2222222222222222
 40
0.2222222222222222
 40
0.2777777777777778
 40
0.2777777777777778
 40
0.2777777777777778
 40
0.2777777777777778
 40
0.3333333333333334
 40
0.3333333333333334
 40
0.3333333333333334
 40
0.3333333333333334
 40
0.388888888888889
 40
0.388888888888889
 40
0.388888888888889
 40
0.388888888888889
 40
0.4444444444444445
 40
0.4444444444444445
 40
0.4444444444444445
 40
0.4444444444444445
 40
0.5000000000000001
 40
0.5000000000000001
 40
0.5000000000000001
 40
0.5000000000000001
 40
0.5555555555555557
 40
0.5555555555555557
 40
0.5555555555555557
 40
0.5555555555555557
 40
0.6111111111111113
 40
0.6111111111111113
 40
0.6111111111111113
 40
0.6111111111111113
 40
0.6666666666666669
 40
0.6666666666666669
 40
0.6666666666666669
 40
0.6666666666666669
 40
0.7222222222222224
 40
0.7222222222222224
 40
0.7222222222222224
 40
0.7222222222222224
 40
0.777777777777778
 40
0.777777777777778
 40
0.777777777777778
 40
0.777777777777778
 40
0.8333333333333336
 40
0.8333333333333336
 40
0.8333333333333336
 40
0.8333333333333336
 40
0.8888888888888892
 40
0.8888888888888892
 40
0.8888888888888892
 40
0.8888888888888892
 40
0.9444444444444448
 40
0.9444444444444448
 40
0.9444444444444448
 40
0.9444444444444448
 40
1.0
 40
1.0
 40
1.0
 40
1.0
 10
-1.20101968503937
 20
0.8822795275590551
 30
0.0
 10
-1.20101968503937
 20
0.8822795275590551
 30
0.0
 10
-1.20101968503937
 20
0.8336102362204725
 30
0.0
 10
-1.20101968503937
 20
0.8336102362204725
 30
0.0
 10
-1.20101968503937
 20
0.8336102362204725
 30
0.0
 10
-1.20101968503937
 20
0.8309173228346457
 30
0.0
 10
-1.200744094488189
 20
0.829251968503937
 30
0.0
 10
-1.200157480314961
 20
0.8286968503937008
 30
0.0
 10
-1.200157480314961
 20
0.8286968503937008
 30
0.0
 10
-1.199602362204725
 20
0.8281102362204724
 30
0.0
 10
-1.197992125984252
 20
0.8278346456692913
 30
0.0
 10
-1.195326771653543
 20
0.8278346456692913
 30
0.0
 10
-1.195326771653543
 20
0.8278346456692913
 30
0.0
 10
-1.195326771653543
 20
0.8278346456692913
 30
0.0
 10
-1.189629921259843
 20
0.8278346456692913
 30
0.0
 10
-1.189629921259843
 20
0.8278346456692913
 30
0.0
 10
-1.189629921259843
 20
0.8278346456692913
 30
0.0
 10
-1.189629921259843
 20
0.8278346456692913
 30
0.0
 10
-1.189629921259843
 20
0.8232795275590552
 30
0.0
 10
-1.189629921259843
 20
0.8232795275590552
 30
0.0
 10
-1.189629921259843
 20
0.8232795275590552
 30
0.0
 10
-1.189629921259843
 20
0.8232795275590552
 30
0.0
 10
-1.223240157480315
 20
0.8232795275590552
 30
0.0
 10
-1.223240157480315
 20
0.8232795275590552
 30
0.0
 10
-1.223240157480315
 20
0.8232795275590552
 30
0.0
 10
-1.223240157480315
 20
0.8232795275590552
 30
0.0
 10
-1.223240157480315
 20
0.8278346456692913
 30
0.0
 10
-1.223240157480315
 20
0.8278346456692913
 30
0.0
 10
-1.223240157480315
 20
0.8278346456692913
 30
0.0
 10
-1.223240157480315
 20
0.8278346456692913
 30
0.0
 10
-1.217047244094488
 20
0.8278346456692913
 30
0.0
 10
-1.217047244094488
 20
0.8278346456692913
 30
0.0
 10
-1.217047244094488
 20
0.8278346456692913
 30
0.0
 10
-1.21488188976378
 20
0.8278346456692913
 30
0.0
 10
-1.21351968503937
 20
0.8279724409448819
 30
0.0
 10
-1.212937007874016
 20
0.828251968503937
 30
0.0
 10
-1.212937007874016
 20
0.828251968503937
 30
0.0
 10
-1.21238188976378
 20
0.8285275590551181
 30
0.0
 10
-1.211937007874016
 20
0.8290000000000001
 30
0.0
 10
-1.211602362204725
 20
0.829724409448819
 30
0.0
 10
-1.211602362204725
 20
0.829724409448819
 30
0.0
 10
-1.211271653543307
 20
0.8304173228346458
 30
0.0
 10
-1.211102362204725
 20
0.831724409448819
 30
0.0
 10
-1.211102362204725
 20
0.8336102362204725
 30
0.0
 10
-1.211102362204725
 20
0.8336102362204725
 30
0.0
 10
-1.211102362204725
 20
0.8336102362204725
 30
0.0
 10
-1.211102362204725
 20
0.8726653543307087
 30
0.0
 10
-1.211102362204725
 20
0.8726653543307087
 30
0.0
 10
-1.211102362204725
 20
0.8726653543307087
 30
0.0
 10
-1.211102362204725
 20
0.8726653543307087
 30
0.0
 10
-1.223240157480315
 20
0.8726653543307087
 30
0.0
 10
-1.223240157480315
 20
0.8726653543307087
 30
0.0
 10
-1.223240157480315
 20
0.8726653543307087
 30
0.0
 10
-1.223240157480315
 20
0.8726653543307087
 30
0.0
 10
-1.223240157480315
 20
0.8772519685039371
 30
0.0
 10
-1.223240157480315
 20
0.8772519685039371
 30
0.0
 10
-1.223240157480315
 20
0.8772519685039371
 30
0.0
 10
-1.220129921259843
 20
0.8776102362204725
 30
0.0
 10
-1.216437007874016
 20
0.8783897637795276
 30
0.0
 10
-1.212074803149606
 20
0.8795275590551182
 30
0.0
 10
-1.212074803149606
 20
0.8795275590551182
 30
0.0
 10
-1.209437007874016
 20
0.8802204724409449
 30
0.0
 10
-1.207909448818898
 20
0.8808622047244095
 30
0.0
 10
-1.20751968503937
 20
0.8814173228346457
 30
0.0
 10
-1.20751968503937
 20
0.8814173228346457
 30
0.0
 10
-1.207157480314961
 20
0.882
 30
0.0
 10
-1.206657480314961
 20
0.8822795275590551
 30
0.0
 10
-1.206074803149606
 20
0.8822795275590551
 30
0.0
 10
-1.206074803149606
 20
0.8822795275590551
 30
0.0
 10
-1.206074803149606
 20
0.8822795275590551
 30
0.0
 10
-1.20101968503937
 20
0.8822795275590551
 30
0.0
 10
-1.20101968503937
 20
0.8822795275590551
 30
0.0
  0
SPLINE
  5
70
330
1F
100
AcDbEntity
  8
LAYER_1
 62
   250
100
AcDbSpline
210
0.0
220
0.0
230
1.0
 70
    11
 71
     3
 72
    20
 73
    16
 74
     0
 42
0.0000000001
 43
0.0000000001
 40
0.0
 40
0.0
 40
0.0
 40
0.0
 40
0.25
 40
0.25
 40
0.25
 40
0.25
 40
0.5
 40
0.5
 40
0.5
 40
0.5
 40
0.75
 40
0.75
 40
0.75
 40
0.75
 40
1.0
 40
1.0
 40
1.0
 40
1.0
 10
-1.122826771653543
 20
0.8833346456692913
 30
0.0
 10
-1.122826771653543
 20
0.8833346456692913
 30
0.0
 10
-1.19851968503937
 20
0.7659173228346458
 30
0.0
 10
-1.19851968503937
 20
0.7659173228346458
 30
0.0
 10
-1.19851968503937
 20
0.7659173228346458
 30
0.0
 10
-1.19851968503937
 20
0.7659173228346458
 30
0.0
 10
-1.208185039370079
 20
0.7659173228346458
 30
0.0
 10
-1.208185039370079
 20
0.7659173228346458
 30
0.0
 10
-1.208185039370079
 20
0.7659173228346458
 30
0.0
 10
-1.208185039370079
 20
0.7659173228346458
 30
0.0
 10
-1.132657480314961
 20
0.8833346456692913
 30
0.0
 10
-1.132657480314961
 20
0.8833346456692913
 30
0.0
 10
-1.132657480314961
 20
0.8833346456692913
 30
0.0
 10
-1.132657480314961
 20
0.8833346456692913
 30
0.0
 10
-1.122826771653543
 20
0.8833346456692913
 30
0.0
 10
-1.122826771653543
 20
0.8833346456692913
 30
0.0
  0
SPLINE
  5
71
330
1F
100
AcDbEntity
  8
LAYER_1
 62
   250
100
AcDbSpline
210
0.0
220
0.0
230
1.0
 70
    11
 71
     3
 72
   120
 73
   116
 74
     0
 42
0.0000000001
 43
0.0000000001
 40
0.0
 40
0.0
 40
0.0
 40
0.0
 40
0.0344827586206897
 40
0.0344827586206897
 40
0.0344827586206897
 40
0.0344827586206897
 40
0.0689655172413793
 40
0.0689655172413793
 40
0.0689655172413793
 40
0.0689655172413793
 40
0.103448275862069
 40
0.103448275862069
 40
0.103448275862069
 40
0.103448275862069
 40
0.1379310344827586
 40
0.1379310344827586
 40
0.1379310344827586
 40
0.1379310344827586
 40
0.1724137931034483
 40
0.1724137931034483
 40
0.1724137931034483
 40
0.1724137931034483
 40
0.206896551724138
 40
0.206896551724138
 40
0.206896551724138
 40
0.206896551724138
 40
0.2413793103448276
 40
0.2413793103448276
 40
0.2413793103448276
 40
0.2413793103448276
 40
0.2758620689655173
 40
0.2758620689655173
 40
0.2758620689655173
 40
0.2758620689655173
 40
0.310344827586207
 40
0.310344827586207
 40
0.310344827586207
 40
0.310344827586207
 40
0.3448275862068966
 40
0.3448275862068966
 40
0.3448275862068966
 40
0.3448275862068966
 40
0.3793103448275863
 40
0.3793103448275863
 40
0.3793103448275863
 40
0.3793103448275863
 40
0.413793103448276
 40
0.413793103448276
 40
0.413793103448276
 40
0.413793103448276
 40
0.4482758620689656
 40
0.4482758620689656
 40
0.4482758620689656
 40
0.4482758620689656
 40
0.4827586206896553
 40
0.4827586206896553
 40
0.4827586206896553
 40
0.4827586206896553
 40
0.517241379310345
 40
0.517241379310345
 40
0.517241379310345
 40
0.517241379310345
 40
0.5517241379310346
 40
0.5517241379310346
 40
0.5517241379310346
 40
0.5517241379310346
 40
0.5862068965517242
 40
0.5862068965517242
 40
0.5862068965517242
 40
0.5862068965517242
 40
0.6206896551724138
 40
0.6206896551724138
 40
0.6206896551724138
 40
0.6206896551724138
 40
0.6551724137931034
 40
0.6551724137931034
 40
0.6551724137931034
 40
0.6551724137931034
 40
0.689655172413793
 40
0.689655172413793
 40
0.689655172413793
 40
0.689655172413793
 40
0.7241379310344827
 40
0.7241379310344827
 40
0.7241379310344827
 40
0.7241379310344827
 40
0.7586206896551723
 40
0.7586206896551723
 40
0.7586206896551723
 40
0.7586206896551723
 40
0.7931034482758619
 40
0.7931034482758619
 40
0.7931034482758619
 40
0.7931034482758619
 40
0.8275862068965515
 40
0.8275862068965515
 40
0.8275862068965515
 40
0.8275862068965515
 40
0.8620689655172411
 40
0.8620689655172411
 40
0.8620689655172411
 40
0.8620689655172411
 40
0.8965517241379307
 40
0.8965517241379307
 40
0.8965517241379307
 40
0.8965517241379307
 40
0.9310344827586203
 40
0.9310344827586203
 40
0.9310344827586203
 40
0.9310344827586203
 40
0.9655172413793099
 40
0.9655172413793099
 40
0.9655172413793099
 40
0.9655172413793099
 40
1.0
 40
1.0
 40
1.0
 40
1.0
 10
-1.141216535433071
 20
0.8041692913385827
 30
0.0
 10
-1.141216535433071
 20
0.8041692913385827
 30
0.0
 10
-1.147716535433071
 20
0.8034173228346457
 30
0.0
 10
-1.147716535433071
 20
0.8034173228346457
 30
0.0
 10
-1.147716535433071
 20
0.8034173228346457
 30
0.0
 10
-1.148047244094488
 20
0.805751968503937
 30
0.0
 10
-1.148216535433071
 20
0.8075826771653544
 30
0.0
 10
-1.148216535433071
 20
0.8088897637795276
 30
0.0
 10
-1.148216535433071
 20
0.8088897637795276
 30
0.0
 10
-1.148216535433071
 20
0.8120826771653543
 30
0.0
 10
-1.147216535433071
 20
0.8151692913385827
 30
0.0
 10
-1.145188976377953
 20
0.8181692913385827
 30
0.0
 10
-1.145188976377953
 20
0.8181692913385827
 30
0.0
 10
-1.143188976377953
 20
0.8211377952755906
 30
0.0
 10
-1.140244094488189
 20
0.8235275590551181
 30
0.0
 10
-1.13638188976378
 20
0.8253346456692914
 30
0.0
 10
-1.13638188976378
 20
0.8253346456692914
 30
0.0
 10
-1.132492125984252
 20
0.8271102362204724
 30
0.0
 10
-1.12801968503937
 20
0.8280000000000001
 30
0.0
 10
-1.122992125984252
 20
0.8280000000000001
 30
0.0
 10
-1.122992125984252
 20
0.8280000000000001
 30
0.0
 10
-1.115661417322835
 20
0.8280000000000001
 30
0.0
 10
-1.10988188976378
 20
0.826251968503937
 30
0.0
 10
-1.105661417322835
 20
0.8227519685039371
 30
0.0
 10
-1.105661417322835
 20
0.8227519685039371
 30
0.0
 10
-1.101409448818898
 20
0.819251968503937
 30
0.0
 10
-1.099299212598425
 20
0.8149173228346457
 30
0.0
 10
-1.099299212598425
 20
0.8096968503937009
 30
0.0
 10
-1.099299212598425
 20
0.8096968503937009
 30
0.0
 10
-1.099299212598425
 20
0.8065551181102363
 30
0.0
 10
-1.100074803149606
 20
0.8034724409448819
 30
0.0
 10
-1.101633858267717
 20
0.8005
 30
0.0
 10
-1.101633858267717
 20
0.8005
 30
0.0
 10
-1.103161417322835
 20
0.7975275590551182
 30
0.0
 10
-1.105744094488189
 20
0.7946417322834646
 30
0.0
 10
-1.109299212598425
 20
0.7918622047244095
 30
0.0
 10
-1.109299212598425
 20
0.7918622047244095
 30
0.0
 10
-1.11288188976378
 20
0.7891102362204725
 30
0.0
 10
-1.121492125984252
 20
0.7835826771653544
 30
0.0
 10
-1.135102362204725
 20
0.7752795275590552
 30
0.0
 10
-1.135102362204725
 20
0.7752795275590552
 30
0.0
 10
-1.135102362204725
 20
0.7752795275590552
 30
0.0
 10
-1.112492125984252
 20
0.7752795275590552
 30
0.0
 10
-1.112492125984252
 20
0.7752795275590552
 30
0.0
 10
-1.112492125984252
 20
0.7752795275590552
 30
0.0
 10
-1.10988188976378
 20
0.7752795275590552
 30
0.0
 10
-1.108244094488189
 20
0.7754173228346457
 30
0.0
 10
-1.107547244094488
 20
0.7756692913385828
 30
0.0
 10
-1.107547244094488
 20
0.7756692913385828
 30
0.0
 10
-1.10688188976378
 20
0.7759448818897639
 30
0.0
 10
-1.106354330708661
 20
0.7764173228346457
 30
0.0
 10
-1.10601968503937
 20
0.7770551181102362
 30
0.0
 10
-1.10601968503937
 20
0.7770551181102362
 30
0.0
 10
-1.105661417322835
 20
0.7777244094488189
 30
0.0
 10
-1.105188976377953
 20
0.7795275590551182
 30
0.0
 10
-1.104602362204725
 20
0.7825275590551182
 30
0.0
 10
-1.104602362204725
 20
0.7825275590551182
 30
0.0
 10
-1.104602362204725
 20
0.7825275590551182
 30
0.0
 10
-1.098492125984252
 20
0.7825275590551182
 30
0.0
 10
-1.098492125984252
 20
0.7825275590551182
 30
0.0
 10
-1.098492125984252
 20
0.7825275590551182
 30
0.0
 10
-1.098492125984252
 20
0.7825275590551182
 30
0.0
 10
-1.101992125984252
 20
0.7658346456692914
 30
0.0
 10
-1.101992125984252
 20
0.7658346456692914
 30
0.0
 10
-1.101992125984252
 20
0.7658346456692914
 30
0.0
 10
-1.101992125984252
 20
0.7658346456692914
 30
0.0
 10
-1.106799212598425
 20
0.7658346456692914
 30
0.0
 10
-1.106799212598425
 20
0.7658346456692914
 30
0.0
 10
-1.106799212598425
 20
0.7658346456692914
 30
0.0
 10
-1.106799212598425
 20
0.7658346456692914
 30
0.0
 10
-1.107354330708662
 20
0.7679448818897638
 30
0.0
 10
-1.107354330708662
 20
0.7679448818897638
 30
0.0
 10
-1.107354330708662
 20
0.7679448818897638
 30
0.0
 10
-1.107354330708662
 20
0.7679448818897638
 30
0.0
 10
-1.149437007874016
 20
0.7679448818897638
 30
0.0
 10
-1.149437007874016
 20
0.7679448818897638
 30
0.0
 10
-1.149437007874016
 20
0.7679448818897638
 30
0.0
 10
-1.149437007874016
 20
0.7679448818897638
 30
0.0
 10
-1.149437007874016
 20
0.7721102362204725
 30
0.0
 10
-1.149437007874016
 20
0.7721102362204725
 30
0.0
 10
-1.149437007874016
 20
0.7721102362204725
 30
0.0
 10
-1.149437007874016
 20
0.7721102362204725
 30
0.0
 10
-1.141129921259843
 20
0.7775551181102363
 30
0.0
 10
-1.141129921259843
 20
0.7775551181102363
 30
0.0
 10
-1.141129921259843
 20
0.7775551181102363
 30
0.0
 10
-1.131744094488189
 20
0.7836417322834646
 30
0.0
 10
-1.124964566929134
 20
0.7884448818897638
 30
0.0
 10
-1.120826771653543
 20
0.7920275590551181
 30
0.0
 10
-1.120826771653543
 20
0.7920275590551181
 30
0.0
 10
-1.116688976377953
 20
0.7956102362204724
 30
0.0
 10
-1.113799212598425
 20
0.7989173228346457
 30
0.0
 10
-1.112161417322835
 20
0.801972440944882
 30
0.0
 10
-1.112161417322835
 20
0.801972440944882
 30
0.0
 10
-1.11101968503937
 20
0.8041377952755906
 30
0.0
 10
-1.110437007874016
 20
0.8065
 30
0.0
 10
-1.110437007874016
 20
0.8090551181102362
 30
0.0
 10
-1.110437007874016
 20
0.8090551181102362
 30
0.0
 10
-1.110437007874016
 20
0.8128897637795276
 30
0.0
 10
-1.111771653543307
 20
0.8160275590551182
 30
0.0
 10
-1.114409448818898
 20
0.8184448818897638
 30
0.0
 10
-1.114409448818898
 20
0.8184448818897638
 30
0.0
 10
-1.11701968503937
 20
0.8208622047244095
 30
0.0
 10
-1.120602362204725
 20
0.8220551181102362
 30
0.0
 10
-1.125102362204725
 20
0.8220551181102362
 30
0.0
 10
-1.125102362204725
 20
0.8220551181102362
 30
0.0
 10
-1.130047244094488
 20
0.8220551181102362
 30
0.0
 10
-1.133992125984252
 20
0.820724409448819
 30
0.0
 10
-1.136992125984252
 20
0.8180275590551182
 30
0.0
 10
-1.136992125984252
 20
0.8180275590551182
 30
0.0
 10
-1.139964566929134
 20
0.8153622047244095
 30
0.0
 10
-1.141464566929134
 20
0.8120826771653543
 30
0.0
 10
-1.141464566929134
 20
0.8082244094488189
 30
0.0
 10
-1.141464566929134
 20
0.8082244094488189
 30
0.0
 10
-1.141464566929134
 20
0.8074173228346457
 30
0.0
 10
-1.14138188976378
 20
0.8060551181102362
 30
0.0
 10
-1.141216535433071
 20
0.8041692913385827
 30
0.0
  0
SPLINE
  5
72
330
1F
100
AcDbEntity
  8
LAYER_1
 62
   250
100
AcDbSpline
210
0.0
220
0.0
230
1.0
 70
    11
 71
     3
 72
    60
 73
    56
 74
     0
 42
0.0000000001
 43
0.0000000001
 40
0.0
 40
0.0
 40
0.0
 40
0.0
 40
0.0714285714285714
 40
0.0714285714285714
 40
0.0714285714285714
 40
0.0714285714285714
 40
0.1428571428571429
 40
0.1428571428571429
 40
0.1428571428571429
 40
0.1428571428571429
 40
0.2142857142857143
 40
0.2142857142857143
 40
0.2142857142857143
 40
0.2142857142857143
 40
0.2857142857142857
 40
0.2857142857142857
 40
0.2857142857142857
 40
0.2857142857142857
 40
0.3571428571428571
 40
0.3571428571428571
 40
0.3571428571428571
 40
0.3571428571428571
 40
0.4285714285714285
 40
0.4285714285714285
 40
0.4285714285714285
 40
0.4285714285714285
 40
0.4999999999999999
 40
0.4999999999999999
 40
0.4999999999999999
 40
0.4999999999999999
 40
0.5714285714285713
 40
0.5714285714285713
 40
0.5714285714285713
 40
0.5714285714285713
 40
0.6428571428571427
 40
0.6428571428571427
 40
0.6428571428571427
 40
0.6428571428571427
 40
0.7142857142857141
 40
0.7142857142857141
 40
0.7142857142857141
 40
0.7142857142857141
 40
0.7857142857142855
 40
0.7857142857142855
 40
0.7857142857142855
 40
0.7857142857142855
 40
0.8571428571428569
 40
0.8571428571428569
 40
0.8571428571428569
 40
0.8571428571428569
 40
0.9285714285714283
 40
0.9285714285714283
 40
0.9285714285714283
 40
0.9285714285714283
 40
1.0
 40
1.0
 40
1.0
 40
1.0
 10
-1.077909448818898
 20
0.8393070866141733
 30
0.0
 10
-1.077909448818898
 20
0.8393070866141733
 30
0.0
 10
-1.082299212598425
 20
0.8446968503937008
 30
0.0
 10
-1.082299212598425
 20
0.8446968503937008
 30
0.0
 10
-1.082299212598425
 20
0.8446968503937008
 30
0.0
 10
-1.071185039370079
 20
0.8537519685039371
 30
0.0
 10
-1.065602362204724
 20
0.8613070866141732
 30
0.0
 10
-1.065602362204724
 20
0.8673897637795276
 30
0.0
 10
-1.065602362204724
 20
0.8673897637795276
 30
0.0
 10
-1.065602362204724
 20
0.8680826771653544
 30
0.0
 10
-1.065657480314961
 20
0.8689724409448819
 30
0.0
 10
-1.065771653543307
 20
0.87
 30
0.0
 10
-1.065771653543307
 20
0.87
 30
0.0
 10
-1.066685039370079
 20
0.8696102362204725
 30
0.0
 10
-1.067602362204724
 20
0.8693070866141732
 30
0.0
 10
-1.068464566929134
 20
0.8691102362204725
 30
0.0
 10
-1.068464566929134
 20
0.8691102362204725
 30
0.0
 10
-1.069326771653543
 20
0.8688897637795277
 30
0.0
 10
-1.070129921259843
 20
0.8687795275590552
 30
0.0
 10
-1.070909448818898
 20
0.8687795275590552
 30
0.0
 10
-1.070909448818898
 20
0.8687795275590552
 30
0.0
 10
-1.07351968503937
 20
0.8687795275590552
 30
0.0
 10
-1.075602362204724
 20
0.8696102362204725
 30
0.0
 10
-1.077157480314961
 20
0.8713070866141732
 30
0.0
 10
-1.077157480314961
 20
0.8713070866141732
 30
0.0
 10
-1.078744094488189
 20
0.8729724409448819
 30
0.0
 10
-1.07951968503937
 20
0.8751102362204725
 30
0.0
 10
-1.07951968503937
 20
0.8777244094488189
 30
0.0
 10
-1.07951968503937
 20
0.8777244094488189
 30
0.0
 10
-1.07951968503937
 20
0.8802795275590551
 30
0.0
 10
-1.078574803149606
 20
0.8825000000000001
 30
0.0
 10
-1.076685039370079
 20
0.8843897637795276
 30
0.0
 10
-1.076685039370079
 20
0.8843897637795276
 30
0.0
 10
-1.074771653543307
 20
0.8863070866141732
 30
0.0
 10
-1.072492125984252
 20
0.8872519685039371
 30
0.0
 10
-1.069854330708661
 20
0.8872519685039371
 30
0.0
 10
-1.069854330708661
 20
0.8872519685039371
 30
0.0
 10
-1.066157480314961
 20
0.8872519685039371
 30
0.0
 10
-1.062992125984252
 20
0.8857795275590552
 30
0.0
 10
-1.060354330708661
 20
0.8828070866141733
 30
0.0
 10
-1.060354330708661
 20
0.8828070866141733
 30
0.0
 10
-1.057744094488189
 20
0.8798622047244095
 30
0.0
 10
-1.056409448818898
 20
0.8760551181102363
 30
0.0
 10
-1.056409448818898
 20
0.8713897637795276
 30
0.0
 10
-1.056409448818898
 20
0.8713897637795276
 30
0.0
 10
-1.056409448818898
 20
0.8683346456692914
 30
0.0
 10
-1.057047244094488
 20
0.8651377952755905
 30
0.0
 10
-1.058299212598425
 20
0.8618070866141733
 30
0.0
 10
-1.058299212598425
 20
0.8618070866141733
 30
0.0
 10
-1.059547244094488
 20
0.858472440944882
 30
0.0
 10
-1.061354330708662
 20
0.8553897637795276
 30
0.0
 10
-1.063744094488189
 20
0.8525275590551181
 30
0.0
 10
-1.063744094488189
 20
0.8525275590551181
 30
0.0
 10
-1.066129921259843
 20
0.8496968503937008
 30
0.0
 10
-1.070854330708662
 20
0.8452795275590551
 30
0.0
 10
-1.077909448818898
 20
0.8393070866141733
 30
0.0
  0
SPLINE
  5
73
330
1F
100
AcDbEntity
  8
LAYER_1
 62
   250
100
AcDbSpline
210
0.0
220
0.0
230
1.0
 70
    11
 71
     3
 72
    60
 73
    56
 74
     0
 42
0.0000000001
 43
0.0000000001
 40
0.0
 40
0.0
 40
0.0
 40
0.0
 40
0.0714285714285714
 40
0.0714285714285714
 40
0.0714285714285714
 40
0.0714285714285714
 40
0.1428571428571429
 40
0.1428571428571429
 40
0.1428571428571429
 40
0.1428571428571429
 40
0.2142857142857143
 40
0.2142857142857143
 40
0.2142857142857143
 40
0.2142857142857143
 40
0.2857142857142857
 40
0.2857142857142857
 40
0.2857142857142857
 40
0.2857142857142857
 40
0.3571428571428571
 40
0.3571428571428571
 40
0.3571428571428571
 40
0.3571428571428571
 40
0.4285714285714285
 40
0.4285714285714285
 40
0.4285714285714285
 40
0.4285714285714285
 40
0.4999999999999999
 40
0.4999999999999999
 40
0.4999999999999999
 40
0.4999999999999999
 40
0.5714285714285713
 40
0.5714285714285713
 40
0.5714285714285713
 40
0.5714285714285713
 40
0.6428571428571427
 40
0.6428571428571427
 40
0.6428571428571427
 40
0.6428571428571427
 40
0.7142857142857141
 40
0.7142857142857141
 40
0.7142857142857141
 40
0.7142857142857141
 40
0.7857142857142855
 40
0.7857142857142855
 40
0.7857142857142855
 40
0.7857142857142855
 40
0.8571428571428569
 40
0.8571428571428569
 40
0.8571428571428569
 40
0.8571428571428569
 40
0.9285714285714283
 40
0.9285714285714283
 40
0.9285714285714283
 40
0.9285714285714283
 40
1.0
 40
1.0
 40
1.0
 40
1.0
 10
-1.048854330708662
 20
0.8393070866141733
 30
0.0
 10
-1.048854330708662
 20
0.8393070866141733
 30
0.0
 10
-1.053244094488189
 20
0.8446968503937008
 30
0.0
 10
-1.053244094488189
 20
0.8446968503937008
 30
0.0
 10
-1.053244094488189
 20
0.8446968503937008
 30
0.0
 10
-1.042129921259843
 20
0.8537519685039371
 30
0.0
 10
-1.036547244094488
 20
0.8613070866141732
 30
0.0
 10
-1.036547244094488
 20
0.8673897637795276
 30
0.0
 10
-1.036547244094488
 20
0.8673897637795276
 30
0.0
 10
-1.036547244094488
 20
0.8680826771653544
 30
0.0
 10
-1.036602362204725
 20
0.8689724409448819
 30
0.0
 10
-1.036716535433071
 20
0.87
 30
0.0
 10
-1.036716535433071
 20
0.87
 30
0.0
 10
-1.037629921259843
 20
0.8696102362204725
 30
0.0
 10
-1.038547244094488
 20
0.8693070866141732
 30
0.0
 10
-1.039409448818898
 20
0.8691102362204725
 30
0.0
 10
-1.039409448818898
 20
0.8691102362204725
 30
0.0
 10
-1.040271653543307
 20
0.8688897637795277
 30
0.0
 10
-1.041102362204724
 20
0.8687795275590552
 30
0.0
 10
-1.041937007874016
 20
0.8687795275590552
 30
0.0
 10
-1.041937007874016
 20
0.8687795275590552
 30
0.0
 10
-1.044492125984252
 20
0.8687795275590552
 30
0.0
 10
-1.046547244094488
 20
0.8696102362204725
 30
0.0
 10
-1.048102362204725
 20
0.8713070866141732
 30
0.0
 10
-1.048102362204725
 20
0.8713070866141732
 30
0.0
 10
-1.049685039370079
 20
0.8729724409448819
 30
0.0
 10
-1.050464566929134
 20
0.8751102362204725
 30
0.0
 10
-1.050464566929134
 20
0.8777244094488189
 30
0.0
 10
-1.050464566929134
 20
0.8777244094488189
 30
0.0
 10
-1.050464566929134
 20
0.8802795275590551
 30
0.0
 10
-1.04951968503937
 20
0.8825000000000001
 30
0.0
 10
-1.047629921259843
 20
0.8843897637795276
 30
0.0
 10
-1.047629921259843
 20
0.8843897637795276
 30
0.0
 10
-1.045744094488189
 20
0.8863070866141732
 30
0.0
 10
-1.043437007874016
 20
0.8872519685039371
 30
0.0
 10
-1.040799212598425
 20
0.8872519685039371
 30
0.0
 10
-1.040799212598425
 20
0.8872519685039371
 30
0.0
 10
-1.037102362204724
 20
0.8872519685039371
 30
0.0
 10
-1.033937007874016
 20
0.8857795275590552
 30
0.0
 10
-1.031299212598425
 20
0.8828070866141733
 30
0.0
 10
-1.031299212598425
 20
0.8828070866141733
 30
0.0
 10
-1.028688976377953
 20
0.8798622047244095
 30
0.0
 10
-1.027354330708661
 20
0.8760551181102363
 30
0.0
 10
-1.027354330708661
 20
0.8713897637795276
 30
0.0
 10
-1.027354330708661
 20
0.8713897637795276
 30
0.0
 10
-1.027354330708661
 20
0.8683346456692914
 30
0.0
 10
-1.027992125984252
 20
0.8651377952755905
 30
0.0
 10
-1.029244094488189
 20
0.8618070866141733
 30
0.0
 10
-1.029244094488189
 20
0.8618070866141733
 30
0.0
 10
-1.030492125984252
 20
0.858472440944882
 30
0.0
 10
-1.032299212598425
 20
0.8553897637795276
 30
0.0
 10
-1.034685039370079
 20
0.8525275590551181
 30
0.0
 10
-1.034685039370079
 20
0.8525275590551181
 30
0.0
 10
-1.037074803149606
 20
0.8496968503937008
 30
0.0
 10
-1.041799212598425
 20
0.8452795275590551
 30
0.0
 10
-1.048854330708662
 20
0.8393070866141733
 30
0.0
  0
SPLINE
  5
74
330
1F
100
AcDbEntity
  8
LAYER_1
 62
   250
100
AcDbSpline
210
0.0
220
0.0
230
1.0
 70
    11
 71
     3
 72
   204
 73
   200
 74
     0
 42
0.0000000001
 43
0.0000000001
 40
0.0
 40
0.0
 40
0.0
 40
0.0
 40
0.02
 40
0.02
 40
0.02
 40
0.02
 40
0.04
 40
0.04
 40
0.04
 40
0.04
 40
0.06
 40
0.06
 40
0.06
 40
0.06
 40
0.08
 40
0.08
 40
0.08
 40
0.08
 40
0.1
 40
0.1
 40
0.1
 40
0.1
 40
0.12
 40
0.12
 40
0.12
 40
0.12
 40
0.14
 40
0.14
 40
0.14
 40
0.14
 40
0.16
 40
0.16
 40
0.16
 40
0.16
 40
0.18
 40
0.18
 40
0.18
 40
0.18
 40
0.2
 40
0.2
 40
0.2
 40
0.2
 40
0.22
 40
0.22
 40
0.22
 40
0.22
 40
0.24
 40
0.24
 40
0.24
 40
0.24
 40
0.26
 40
0.26
 40
0.26
 40
0.26
 40
0.28
 40
0.28
 40
0.28
 40
0.28
 40
0.3
 40
0.3
 40
0.3
 40
0.3
 40
0.32
 40
0.32
 40
0.32
 40
0.32
 40
0.34
 40
0.34
 40
0.34
 40
0.34
 40
0.36
 40
0.36
 40
0.36
 40
0.36
 40
0.3800000000000001
 40
0.3800000000000001
 40
0.3800000000000001
 40
0.3800000000000001
 40
0.4000000000000001
 40
0.4000000000000001
 40
0.4000000000000001
 40
0.4000000000000001
 40
0.4200000000000001
 40
0.4200000000000001
 40
0.4200000000000001
 40
0.4200000000000001
 40
0.4400000000000001
 40
0.4400000000000001
 40
0.4400000000000001
 40
0.4400000000000001
 40
0.4600000000000001
 40
0.4600000000000001
 40
0.4600000000000001
 40
0.4600000000000001
 40
0.4800000000000002
 40
0.4800000000000002
 40
0.4800000000000002
 40
0.4800000000000002
 40
0.5000000000000001
 40
0.5000000000000001
 40
0.5000000000000001
 40
0.5000000000000001
 40
0.5200000000000001
 40
0.5200000000000001
 40
0.5200000000000001
 40
0.5200000000000001
 40
0.5400000000000002
 40
0.5400000000000002
 40
0.5400000000000002
 40
0.5400000000000002
 40
0.5600000000000002
 40
0.5600000000000002
 40
0.5600000000000002
 40
0.5600000000000002
 40
0.5800000000000002
 40
0.5800000000000002
 40
0.5800000000000002
 40
0.5800000000000002
 40
0.6000000000000002
 40
0.6000000000000002
 40
0.6000000000000002
 40
0.6000000000000002
 40
0.6200000000000002
 40
0.6200000000000002
 40
0.6200000000000002
 40
0.6200000000000002
 40
0.6400000000000002
 40
0.6400000000000002
 40
0.6400000000000002
 40
0.6400000000000002
 40
0.6600000000000003
 40
0.6600000000000003
 40
0.6600000000000003
 40
0.6600000000000003
 40
0.6800000000000003
 40
0.6800000000000003
 40
0.6800000000000003
 40
0.6800000000000003
 40
0.7000000000000003
 40
0.7000000000000003
 40
0.7000000000000003
 40
0.7000000000000003
 40
0.7200000000000003
 40
0.7200000000000003
 40
0.7200000000000003
 40
0.7200000000000003
 40
0.7400000000000003
 40
0.7400000000000003
 40
0.7400000000000003
 40
0.7400000000000003
 40
0.7600000000000003
 40
0.7600000000000003
 40
0.7600000000000003
 40
0.7600000000000003
 40
0.7800000000000004
 40
0.7800000000000004
 40
0.7800000000000004
 40
0.7800000000000004
 40
0.8000000000000004
 40
0.8000000000000004
 40
0.8000000000000004
 40
0.8000000000000004
 40
0.8200000000000004
 40
0.8200000000000004
 40
0.8200000000000004
 40
0.8200000000000004
 40
0.8400000000000004
 40
0.8400000000000004
 40
0.8400000000000004
 40
0.8400000000000004
 40
0.8600000000000004
 40
0.8600000000000004
 40
0.8600000000000004
 40
0.8600000000000004
 40
0.8800000000000005
 40
0.8800000000000005
 40
0.8800000000000005
 40
0.8800000000000005
 40
0.9000000000000005
 40
0.9000000000000005
 40
0.9000000000000005
 40
0.9000000000000005
 40
0.9200000000000005
 40
0.9200000000000005
 40
0.9200000000000005
 40
0.9200000000000005
 40
0.9400000000000005
 40
0.9400000000000005
 40
0.9400000000000005
 40
0.9400000000000005
 40
0.9600000000000005
 40
0.9600000000000005
 40
0.9600000000000005
 40
0.9600000000000005
 40
0.9800000000000005
 40
0.9800000000000005
 40
0.9800000000000005
 40
0.9800000000000005
 40
1.0
 40
1.0
 40
1.0
 40
1.0
 10
-0.9650472440944883
 20
0.8463897637795276
 30
0.0
 10
-0.9650472440944883
 20
0.8463897637795276
 30
0.0
 10
-0.9241023622047244
 20
0.8463897637795276
 30
0.0
 10
-0.9241023622047244
 20
0.8463897637795276
 30
0.0
 10
-0.9241023622047244
 20
0.8463897637795276
 30
0.0
 10
-0.9241023622047244
 20
0.8463897637795276
 30
0.0
 10
-0.9241023622047244
 20
0.8395551181102362
 30
0.0
 10
-0.9241023622047244
 20
0.8395551181102362
 30
0.0
 10
-0.9241023622047244
 20
0.8395551181102362
 30
0.0
 10
-0.9241023622047244
 20
0.8395551181102362
 30
0.0
 10
-0.9269370078740158
 20
0.8395551181102362
 30
0.0
 10
-0.9269370078740158
 20
0.8395551181102362
 30
0.0
 10
-0.9269370078740158
 20
0.8395551181102362
 30
0.0
 10
-0.9285748031496064
 20
0.8395551181102362
 30
0.0
 10
-0.9300748031496063
 20
0.8393622047244095
 30
0.0
 10
-0.9314370078740157
 20
0.8390000000000001
 30
0.0
 10
-0.9314370078740157
 20
0.8390000000000001
 30
0.0
 10
-0.932240157480315
 20
0.8387795275590552
 30
0.0
 10
-0.9329094488188977
 20
0.8383622047244095
 30
0.0
 10
-0.9334094488188977
 20
0.8377244094488189
 30
0.0
 10
-0.9334094488188977
 20
0.8377244094488189
 30
0.0
 10
-0.9339370078740158
 20
0.8371102362204724
 30
0.0
 10
-0.9341850393700788
 20
0.8365275590551181
 30
0.0
 10
-0.9341850393700788
 20
0.8359724409448819
 30
0.0
 10
-0.9341850393700788
 20
0.8359724409448819
 30
0.0
 10
-0.9341850393700788
 20
0.834724409448819
 30
0.0
 10
-0.9331574803149607
 20
0.8328622047244095
 30
0.0
 10
-0.9311023622047244
 20
0.8303622047244095
 30
0.0
 10
-0.9311023622047244
 20
0.8303622047244095
 30
0.0
 10
-0.9311023622047244
 20
0.8303622047244095
 30
0.0
 10
-0.9194645669291339
 20
0.815724409448819
 30
0.0
 10
-0.9194645669291339
 20
0.815724409448819
 30
0.0
 10
-0.9194645669291339
 20
0.815724409448819
 30
0.0
 10
-0.9194645669291339
 20
0.815724409448819
 30
0.0
 10
-0.9058818897637796
 20
0.8303622047244095
 30
0.0
 10
-0.9058818897637796
 20
0.8303622047244095
 30
0.0
 10
-0.9058818897637796
 20
0.8303622047244095
 30
0.0
 10
-0.9033818897637795
 20
0.8330826771653543
 30
0.0
 10
-0.9021299212598426
 20
0.8351102362204724
 30
0.0
 10
-0.9021299212598426
 20
0.8364724409448819
 30
0.0
 10
-0.9021299212598426
 20
0.8364724409448819
 30
0.0
 10
-0.9021299212598426
 20
0.8374448818897639
 30
0.0
 10
-0.9025748031496064
 20
0.8381968503937008
 30
0.0
 10
-0.9034370078740158
 20
0.8387519685039371
 30
0.0
 10
-0.9034370078740158
 20
0.8387519685039371
 30
0.0
 10
-0.9042992125984253
 20
0.8392795275590551
 30
0.0
 10
-0.9061574803149607
 20
0.8395551181102362
 30
0.0
 10
-0.9090472440944882
 20
0.8395551181102362
 30
0.0
 10
-0.9090472440944882
 20
0.8395551181102362
 30
0.0
 10
-0.9090472440944882
 20
0.8395551181102362
 30
0.0
 10
-0.9121299212598426
 20
0.8395551181102362
 30
0.0
 10
-0.9121299212598426
 20
0.8395551181102362
 30
0.0
 10
-0.9121299212598426
 20
0.8395551181102362
 30
0.0
 10
-0.9121299212598426
 20
0.8395551181102362
 30
0.0
 10
-0.9121299212598426
 20
0.8463897637795276
 30
0.0
 10
-0.9121299212598426
 20
0.8463897637795276
 30
0.0
 10
-0.9121299212598426
 20
0.8463897637795276
 30
0.0
 10
-0.9121299212598426
 20
0.8463897637795276
 30
0.0
 10
-0.8773818897637795
 20
0.8463897637795276
 30
0.0
 10
-0.8773818897637795
 20
0.8463897637795276
 30
0.0
 10
-0.8773818897637795
 20
0.8463897637795276
 30
0.0
 10
-0.8773818897637795
 20
0.8463897637795276
 30
0.0
 10
-0.8773818897637795
 20
0.8395551181102362
 30
0.0
 10
-0.8773818897637795
 20
0.8395551181102362
 30
0.0
 10
-0.8773818897637795
 20
0.8395551181102362
 30
0.0
 10
-0.8807992125984252
 20
0.8393897637795276
 30
0.0
 10
-0.883744094488189
 20
0.8386968503937008
 30
0.0
 10
-0.8862125984251968
 20
0.8374448818897639
 30
0.0
 10
-0.8862125984251968
 20
0.8374448818897639
 30
0.0
 10
-0.8886850393700788
 20
0.8361968503937008
 30
0.0
 10
-0.8916023622047244
 20
0.8338346456692913
 30
0.0
 10
-0.8949645669291338
 20
0.8303622047244095
 30
0.0
 10
-0.8949645669291338
 20
0.8303622047244095
 30
0.0
 10
-0.8949645669291338
 20
0.8303622047244095
 30
0.0
 10
-0.9136023622047245
 20
0.8110000000000001
 30
0.0
 10
-0.9136023622047245
 20
0.8110000000000001
 30
0.0
 10
-0.9136023622047245
 20
0.8110000000000001
 30
0.0
 10
-0.9136023622047245
 20
0.8110000000000001
 30
0.0
 10
-0.8904094488188977
 20
0.7845551181102363
 30
0.0
 10
-0.8904094488188977
 20
0.7845551181102363
 30
0.0
 10
-0.8904094488188977
 20
0.7845551181102363
 30
0.0
 10
-0.8904094488188977
 20
0.7845551181102363
 30
0.0
 10
-0.8895196850393701
 20
0.7834173228346457
 30
0.0
 10
-0.8895196850393701
 20
0.7834173228346457
 30
0.0
 10
-0.8895196850393701
 20
0.7834173228346457
 30
0.0
 10
-0.887244094488189
 20
0.7804724409448819
 30
0.0
 10
-0.8846850393700788
 20
0.7781102362204725
 30
0.0
 10
-0.8818543307086615
 20
0.7763346456692913
 30
0.0
 10
-0.8818543307086615
 20
0.7763346456692913
 30
0.0
 10
-0.8802992125984253
 20
0.7753070866141733
 30
0.0
 10
-0.8778543307086615
 20
0.774751968503937
 30
0.0
 10
-0.8745472440944883
 20
0.7746968503937008
 30
0.0
 10
-0.8745472440944883
 20
0.7746968503937008
 30
0.0
 10
-0.8745472440944883
 20
0.7746968503937008
 30
0.0
 10
-0.8745472440944883
 20
0.7678622047244095
 30
0.0
 10
-0.8745472440944883
 20
0.7678622047244095
 30
0.0
 10
-0.8745472440944883
 20
0.7678622047244095
 30
0.0
 10
-0.8745472440944883
 20
0.7678622047244095
 30
0.0
 10
-0.914492125984252
 20
0.7678622047244095
 30
0.0
 10
-0.914492125984252
 20
0.7678622047244095
 30
0.0
 10
-0.914492125984252
 20
0.7678622047244095
 30
0.0
 10
-0.914492125984252
 20
0.7678622047244095
 30
0.0
 10
-0.914492125984252
 20
0.7746968503937008
 30
0.0
 10
-0.914492125984252
 20
0.7746968503937008
 30
0.0
 10
-0.914492125984252
 20
0.7746968503937008
 30
0.0
 10
-0.914492125984252
 20
0.7746968503937008
 30
0.0
 10
-0.9110748031496063
 20
0.7746968503937008
 30
0.0
 10
-0.9110748031496063
 20
0.7746968503937008
 30
0.0
 10
-0.9110748031496063
 20
0.7746968503937008
 30
0.0
 10
-0.9084645669291339
 20
0.7746968503937008
 30
0.0
 10
-0.9068267716535433
 20
0.7748622047244095
 30
0.0
 10
-0.9061023622047244
 20
0.7751968503937008
 30
0.0
 10
-0.9061023622047244
 20
0.7751968503937008
 30
0.0
 10
-0.9049370078740158
 20
0.7757244094488189
 30
0.0
 10
-0.9043267716535434
 20
0.7766417322834646
 30
0.0
 10
-0.9043267716535434
 20
0.7779448818897639
 30
0.0
 10
-0.9043267716535434
 20
0.7779448818897639
 30
0.0
 10
-0.9043267716535434
 20
0.7791417322834646
 30
0.0
 10
-0.9056299212598425
 20
0.7813346456692913
 30
0.0
 10
-0.908244094488189
 20
0.7845551181102363
 30
0.0
 10
-0.908244094488189
 20
0.7845551181102363
 30
0.0
 10
-0.908244094488189
 20
0.7845551181102363
 30
0.0
 10
-0.9230472440944882
 20
0.8026968503937009
 30
0.0
 10
-0.9230472440944882
 20
0.8026968503937009
 30
0.0
 10
-0.9230472440944882
 20
0.8026968503937009
 30
0.0
 10
-0.9230472440944882
 20
0.8026968503937009
 30
0.0
 10
-0.9395748031496063
 20
0.7845551181102363
 30
0.0
 10
-0.9395748031496063
 20
0.7845551181102363
 30
0.0
 10
-0.9395748031496063
 20
0.7845551181102363
 30
0.0
 10
-0.9395748031496063
 20
0.7845551181102363
 30
0.0
 10
-0.9411850393700788
 20
0.7825826771653544
 30
0.0
 10
-0.9411850393700788
 20
0.7825826771653544
 30
0.0
 10
-0.9411850393700788
 20
0.7825826771653544
 30
0.0
 10
-0.9411850393700788
 20
0.7825826771653544
 30
0.0
 10
-0.9420748031496063
 20
0.7816102362204724
 30
0.0
 10
-0.9420748031496063
 20
0.7816102362204724
 30
0.0
 10
-0.9420748031496063
 20
0.7816102362204724
 30
0.0
 10
-0.9434370078740157
 20
0.7801417322834646
 30
0.0
 10
-0.9441299212598425
 20
0.7788622047244095
 30
0.0
 10
-0.9441299212598425
 20
0.7777244094488189
 30
0.0
 10
-0.9441299212598425
 20
0.7777244094488189
 30
0.0
 10
-0.9441299212598425
 20
0.7766692913385828
 30
0.0
 10
-0.9437125984251968
 20
0.7759173228346457
 30
0.0
 10
-0.9428543307086614
 20
0.7754173228346457
 30
0.0
 10
-0.9428543307086614
 20
0.7754173228346457
 30
0.0
 10
-0.9420196850393702
 20
0.7749448818897639
 30
0.0
 10
-0.9401299212598425
 20
0.7746968503937008
 30
0.0
 10
-0.9372125984251969
 20
0.7746968503937008
 30
0.0
 10
-0.9372125984251969
 20
0.7746968503937008
 30
0.0
 10
-0.9372125984251969
 20
0.7746968503937008
 30
0.0
 10
-0.9339370078740158
 20
0.7746968503937008
 30
0.0
 10
-0.9339370078740158
 20
0.7746968503937008
 30
0.0
 10
-0.9339370078740158
 20
0.7746968503937008
 30
0.0
 10
-0.9339370078740158
 20
0.7746968503937008
 30
0.0
 10
-0.9339370078740158
 20
0.7678622047244095
 30
0.0
 10
-0.9339370078740158
 20
0.7678622047244095
 30
0.0
 10
-0.9339370078740158
 20
0.7678622047244095
 30
0.0
 10
-0.9339370078740158
 20
0.7678622047244095
 30
0.0
 10
-0.9682125984251969
 20
0.7678622047244095
 30
0.0
 10
-0.9682125984251969
 20
0.7678622047244095
 30
0.0
 10
-0.9682125984251969
 20
0.7678622047244095
 30
0.0
 10
-0.9682125984251969
 20
0.7678622047244095
 30
0.0
 10
-0.9682125984251969
 20
0.7746968503937008
 30
0.0
 10
-0.9682125984251969
 20
0.7746968503937008
 30
0.0
 10
-0.9682125984251969
 20
0.7746968503937008
 30
0.0
 10
-0.9655472440944882
 20
0.774751968503937
 30
0.0
 10
-0.9634645669291339
 20
0.7750275590551181
 30
0.0
 10
-0.9619370078740158
 20
0.7755551181102363
 30
0.0
 10
-0.9619370078740158
 20
0.7755551181102363
 30
0.0
 10
-0.9604370078740158
 20
0.7760551181102362
 30
0.0
 10
-0.9589645669291339
 20
0.7768622047244095
 30
0.0
 10
-0.9575472440944882
 20
0.7779448818897639
 30
0.0
 10
-0.9575472440944882
 20
0.7779448818897639
 30
0.0
 10
-0.9551023622047244
 20
0.7799173228346457
 30
0.0
 10
-0.9533543307086615
 20
0.7814448818897638
 30
0.0
 10
-0.9522677165354331
 20
0.7825826771653544
 30
0.0
 10
-0.9522677165354331
 20
0.7825826771653544
 30
0.0
 10
-0.9522677165354331
 20
0.7825826771653544
 30
0.0
 10
-0.9284094488188976
 20
0.8070826771653543
 30
0.0
 10
-0.9284094488188976
 20
0.8070826771653543
 30
0.0
 10
-0.9284094488188976
 20
0.8070826771653543
 30
0.0
 10
-0.9284094488188976
 20
0.8070826771653543
 30
0.0
 10
-0.9486850393700788
 20
0.8303622047244095
 30
0.0
 10
-0.9486850393700788
 20
0.8303622047244095
 30
0.0
 10
-0.9486850393700788
 20
0.8303622047244095
 30
0.0
 10
-0.951240157480315
 20
0.833251968503937
 30
0.0
 10
-0.953240157480315
 20
0.835251968503937
 30
0.0
 10
-0.954740157480315
 20
0.8364173228346457
 30
0.0
 10
-0.954740157480315
 20
0.8364173228346457
 30
0.0
 10
-0.956240157480315
 20
0.8375826771653544
 30
0.0
 10
-0.9576850393700788
 20
0.8384173228346457
 30
0.0
 10
-0.9591023622047245
 20
0.8388622047244095
 30
0.0
 10
-0.9591023622047245
 20
0.8388622047244095
 30
0.0
 10
-0.9605196850393701
 20
0.8393346456692914
 30
0.0
 10
-0.962492125984252
 20
0.8395551181102362
 30
0.0
 10
-0.9650472440944883
 20
0.8395551181102362
 30
0.0
 10
-0.9650472440944883
 20
0.8395551181102362
 30
0.0
 10
-0.9650472440944883
 20
0.8395551181102362
 30
0.0
 10
-0.9650472440944883
 20
0.8463897637795276
 30
0.0
 10
-0.9650472440944883
 20
0.8463897637795276
 30
0.0
  0
SPLINE
  5
75
330
1F
100
AcDbEntity
  8
LAYER_1
 62
   250
100
AcDbSpline
210
0.0
220
0.0
230
1.0
 70
    11
 71
     3
 72
    72
 73
    68
 74
     0
 42
0.0000000001
 43
0.0000000001
 40
0.0
 40
0.0
 40
0.0
 40
0.0
 40
0.0588235294117647
 40
0.0588235294117647
 40
0.0588235294117647
 40
0.0588235294117647
 40
0.1176470588235294
 40
0.1176470588235294
 40
0.1176470588235294
 40
0.1176470588235294
 40
0.1764705882352941
 40
0.1764705882352941
 40
0.1764705882352941
 40
0.1764705882352941
 40
0.2352941176470588
 40
0.2352941176470588
 40
0.2352941176470588
 40
0.2352941176470588
 40
0.2941176470588235
 40
0.2941176470588235
 40
0.2941176470588235
 40
0.2941176470588235
 40
0.3529411764705883
 40
0.3529411764705883
 40
0.3529411764705883
 40
0.3529411764705883
 40
0.411764705882353
 40
0.411764705882353
 40
0.411764705882353
 40
0.411764705882353
 40
0.4705882352941177
 40
0.4705882352941177
 40
0.4705882352941177
 40
0.4705882352941177
 40
0.5294117647058824
 40
0.5294117647058824
 40
0.5294117647058824
 40
0.5294117647058824
 40
0.5882352941176471
 40
0.5882352941176471
 40
0.5882352941176471
 40
0.5882352941176471
 40
0.6470588235294118
 40
0.6470588235294118
 40
0.6470588235294118
 40
0.6470588235294118
 40
0.7058823529411765
 40
0.7058823529411765
 40
0.7058823529411765
 40
0.7058823529411765
 40
0.7647058823529412
 40
0.7647058823529412
 40
0.7647058823529412
 40
0.7647058823529412
 40
0.823529411764706
 40
0.823529411764706
 40
0.823529411764706
 40
0.823529411764706
 40
0.8823529411764707
 40
0.8823529411764707
 40
0.8823529411764707
 40
0.8823529411764707
 40
0.9411764705882354
 40
0.9411764705882354
 40
0.9411764705882354
 40
0.9411764705882354
 40
1.0
 40
1.0
 40
1.0
 40
1.0
 10
-0.7654094488188977
 20
0.8813897637795276
 30
0.0
 10
-0.7654094488188977
 20
0.8813897637795276
 30
0.0
 10
-0.7593267716535433
 20
0.8813897637795276
 30
0.0
 10
-0.7593267716535433
 20
0.8813897637795276
 30
0.0
 10
-0.7593267716535433
 20
0.8813897637795276
 30
0.0
 10
-0.7593267716535433
 20
0.8813897637795276
 30
0.0
 10
-0.7593267716535433
 20
0.7871417322834646
 30
0.0
 10
-0.7593267716535433
 20
0.7871417322834646
 30
0.0
 10
-0.7593267716535433
 20
0.7871417322834646
 30
0.0
 10
-0.7593267716535433
 20
0.7826968503937009
 30
0.0
 10
-0.7590196850393701
 20
0.7798346456692914
 30
0.0
 10
-0.7584645669291339
 20
0.7785551181102363
 30
0.0
 10
-0.7584645669291339
 20
0.7785551181102363
 30
0.0
 10
-0.7578818897637796
 20
0.7772795275590552
 30
0.0
 10
-0.7569645669291339
 20
0.7763346456692913
 30
0.0
 10
-0.7556614173228347
 20
0.7756692913385828
 30
0.0
 10
-0.7556614173228347
 20
0.7756692913385828
 30
0.0
 10
-0.7543543307086614
 20
0.7750275590551181
 30
0.0
 10
-0.7517716535433071
 20
0.7746968503937008
 30
0.0
 10
-0.7479094488188977
 20
0.7746968503937008
 30
0.0
 10
-0.7479094488188977
 20
0.7746968503937008
 30
0.0
 10
-0.7479094488188977
 20
0.7746968503937008
 30
0.0
 10
-0.7399370078740157
 20
0.7746968503937008
 30
0.0
 10
-0.7399370078740157
 20
0.7746968503937008
 30
0.0
 10
-0.7399370078740157
 20
0.7746968503937008
 30
0.0
 10
-0.7399370078740157
 20
0.7746968503937008
 30
0.0
 10
-0.7399370078740157
 20
0.7678622047244095
 30
0.0
 10
-0.7399370078740157
 20
0.7678622047244095
 30
0.0
 10
-0.7399370078740157
 20
0.7678622047244095
 30
0.0
 10
-0.7399370078740157
 20
0.7678622047244095
 30
0.0
 10
-0.7935748031496064
 20
0.7678622047244095
 30
0.0
 10
-0.7935748031496064
 20
0.7678622047244095
 30
0.0
 10
-0.7935748031496064
 20
0.7678622047244095
 30
0.0
 10
-0.7935748031496064
 20
0.7678622047244095
 30
0.0
 10
-0.7935748031496064
 20
0.7746968503937008
 30
0.0
 10
-0.7935748031496064
 20
0.7746968503937008
 30
0.0
 10
-0.7935748031496064
 20
0.7746968503937008
 30
0.0
 10
-0.7935748031496064
 20
0.7746968503937008
 30
0.0
 10
-0.7847165354330709
 20
0.7746968503937008
 30
0.0
 10
-0.7847165354330709
 20
0.7746968503937008
 30
0.0
 10
-0.7847165354330709
 20
0.7746968503937008
 30
0.0
 10
-0.7808543307086614
 20
0.7746968503937008
 30
0.0
 10
-0.7782992125984253
 20
0.7750275590551181
 30
0.0
 10
-0.7770196850393701
 20
0.7757244094488189
 30
0.0
 10
-0.7770196850393701
 20
0.7757244094488189
 30
0.0
 10
-0.775744094488189
 20
0.7763897637795276
 30
0.0
 10
-0.774744094488189
 20
0.7774724409448819
 30
0.0
 10
-0.7740472440944882
 20
0.7789724409448819
 30
0.0
 10
-0.7740472440944882
 20
0.7789724409448819
 30
0.0
 10
-0.7733543307086614
 20
0.7804724409448819
 30
0.0
 10
-0.772992125984252
 20
0.7831968503937008
 30
0.0
 10
-0.772992125984252
 20
0.7871417322834646
 30
0.0
 10
-0.772992125984252
 20
0.7871417322834646
 30
0.0
 10
-0.772992125984252
 20
0.7871417322834646
 30
0.0
 10
-0.772992125984252
 20
0.8646102362204725
 30
0.0
 10
-0.772992125984252
 20
0.8646102362204725
 30
0.0
 10
-0.772992125984252
 20
0.8646102362204725
 30
0.0
 10
-0.772992125984252
 20
0.8646102362204725
 30
0.0
 10
-0.7935748031496064
 20
0.8646102362204725
 30
0.0
 10
-0.7935748031496064
 20
0.8646102362204725
 30
0.0
 10
-0.7935748031496064
 20
0.8646102362204725
 30
0.0
 10
-0.7935748031496064
 20
0.8646102362204725
 30
0.0
 10
-0.7935748031496064
 20
0.8716102362204725
 30
0.0
 10
-0.7935748031496064
 20
0.8716102362204725
 30
0.0
 10
-0.7935748031496064
 20
0.8716102362204725
 30
0.0
 10
-0.7823543307086615
 20
0.8731929133858268
 30
0.0
 10
-0.7729645669291339
 20
0.8764448818897638
 30
0.0
 10
-0.7654094488188977
 20
0.8813897637795276
 30
0.0
  0
SPLINE
  5
76
330
1F
100
AcDbEntity
  8
LAYER_1
 62
   250
100
AcDbSpline
210
0.0
220
0.0
230
1.0
 70
    11
 71
     3
 72
    20
 73
    16
 74
     0
 42
0.0000000001
 43
0.0000000001
 40
0.0
 40
0.0
 40
0.0
 40
0.0
 40
0.25
 40
0.25
 40
0.25
 40
0.25
 40
0.5
 40
0.5
 40
0.5
 40
0.5
 40
0.75
 40
0.75
 40
0.75
 40
0.75
 40
1.0
 40
1.0
 40
1.0
 40
1.0
 10
-0.6365748031496064
 20
0.8872519685039371
 30
0.0
 10
-0.6365748031496064
 20
0.8872519685039371
 30
0.0
 10
-0.6921574803149606
 20
0.7315551181102362
 30
0.0
 10
-0.6921574803149606
 20
0.7315551181102362
 30
0.0
 10
-0.6921574803149606
 20
0.7315551181102362
 30
0.0
 10
-0.6921574803149606
 20
0.7315551181102362
 30
0.0
 10
-0.7042125984251969
 20
0.7315551181102362
 30
0.0
 10
-0.7042125984251969
 20
0.7315551181102362
 30
0.0
 10
-0.7042125984251969
 20
0.7315551181102362
 30
0.0
 10
-0.7042125984251969
 20
0.7315551181102362
 30
0.0
 10
-0.6489645669291339
 20
0.8872519685039371
 30
0.0
 10
-0.6489645669291339
 20
0.8872519685039371
 30
0.0
 10
-0.6489645669291339
 20
0.8872519685039371
 30
0.0
 10
-0.6489645669291339
 20
0.8872519685039371
 30
0.0
 10
-0.6365748031496064
 20
0.8872519685039371
 30
0.0
 10
-0.6365748031496064
 20
0.8872519685039371
 30
0.0
  0
SPLINE
  5
77
330
1F
100
AcDbEntity
  8
LAYER_1
 62
   250
100
AcDbSpline
210
0.0
220
0.0
230
1.0
 70
    11
 71
     3
 72
   136
 73
   132
 74
     0
 42
0.0000000001
 43
0.0000000001
 40
0.0
 40
0.0
 40
0.0
 40
0.0
 40
0.0303030303030303
 40
0.0303030303030303
 40
0.0303030303030303
 40
0.0303030303030303
 40
0.0606060606060606
 40
0.0606060606060606
 40
0.0606060606060606
 40
0.0606060606060606
 40
0.0909090909090909
 40
0.0909090909090909
 40
0.0909090909090909
 40
0.0909090909090909
 40
0.1212121212121212
 40
0.1212121212121212
 40
0.1212121212121212
 40
0.1212121212121212
 40
0.1515151515151515
 40
0.1515151515151515
 40
0.1515151515151515
 40
0.1515151515151515
 40
0.1818181818181818
 40
0.1818181818181818
 40
0.1818181818181818
 40
0.1818181818181818
 40
0.2121212121212121
 40
0.2121212121212121
 40
0.2121212121212121
 40
0.2121212121212121
 40
0.2424242424242424
 40
0.2424242424242424
 40
0.2424242424242424
 40
0.2424242424242424
 40
0.2727272727272727
 40
0.2727272727272727
 40
0.2727272727272727
 40
0.2727272727272727
 40
0.303030303030303
 40
0.303030303030303
 40
0.303030303030303
 40
0.303030303030303
 40
0.3333333333333333
 40
0.3333333333333333
 40
0.3333333333333333
 40
0.3333333333333333
 40
0.3636363636363635
 40
0.3636363636363635
 40
0.3636363636363635
 40
0.3636363636363635
 40
0.3939393939393938
 40
0.3939393939393938
 40
0.3939393939393938
 40
0.3939393939393938
 40
0.4242424242424241
 40
0.4242424242424241
 40
0.4242424242424241
 40
0.4242424242424241
 40
0.4545454545454544
 40
0.4545454545454544
 40
0.4545454545454544
 40
0.4545454545454544
 40
0.4848484848484846
 40
0.4848484848484846
 40
0.4848484848484846
 40
0.4848484848484846
 40
0.5151515151515149
 40
0.5151515151515149
 40
0.5151515151515149
 40
0.5151515151515149
 40
0.5454545454545452
 40
0.5454545454545452
 40
0.5454545454545452
 40
0.5454545454545452
 40
0.5757575757575755
 40
0.5757575757575755
 40
0.5757575757575755
 40
0.5757575757575755
 40
0.6060606060606057
 40
0.6060606060606057
 40
0.6060606060606057
 40
0.6060606060606057
 40
0.636363636363636
 40
0.636363636363636
 40
0.636363636363636
 40
0.636363636363636
 40
0.6666666666666663
 40
0.6666666666666663
 40
0.6666666666666663
 40
0.6666666666666663
 40
0.6969696969696966
 40
0.6969696969696966
 40
0.6969696969696966
 40
0.6969696969696966
 40
0.7272727272727269
 40
0.7272727272727269
 40
0.7272727272727269
 40
0.7272727272727269
 40
0.7575757575757571
 40
0.7575757575757571
 40
0.7575757575757571
 40
0.7575757575757571
 40
0.7878787878787874
 40
0.7878787878787874
 40
0.7878787878787874
 40
0.7878787878787874
 40
0.8181818181818177
 40
0.8181818181818177
 40
0.8181818181818177
 40
0.8181818181818177
 40
0.848484848484848
 40
0.848484848484848
 40
0.848484848484848
 40
0.848484848484848
 40
0.8787878787878782
 40
0.8787878787878782
 40
0.8787878787878782
 40
0.8787878787878782
 40
0.9090909090909085
 40
0.9090909090909085
 40
0.9090909090909085
 40
0.9090909090909085
 40
0.9393939393939388
 40
0.9393939393939388
 40
0.9393939393939388
 40
0.9393939393939388
 40
0.9696969696969691
 40
0.9696969696969691
 40
0.9696969696969691
 40
0.9696969696969691
 40
1.0
 40
1.0
 40
1.0
 40
1.0
 10
-0.5991299212598426
 20
0.8385826771653544
 30
0.0
 10
-0.5991299212598426
 20
0.8385826771653544
 30
0.0
 10
-0.6070196850393701
 20
0.8376102362204725
 30
0.0
 10
-0.6070196850393701
 20
0.8376102362204725
 30
0.0
 10
-0.6070196850393701
 20
0.8376102362204725
 30
0.0
 10
-0.6074645669291339
 20
0.8414448818897639
 30
0.0
 10
-0.6076850393700788
 20
0.8446102362204725
 30
0.0
 10
-0.6076850393700788
 20
0.8470551181102363
 30
0.0
 10
-0.6076850393700788
 20
0.8470551181102363
 30
0.0
 10
-0.6076850393700788
 20
0.8534448818897639
 30
0.0
 10
-0.6059370078740157
 20
0.8595
 30
0.0
 10
-0.6024645669291339
 20
0.8651929133858268
 30
0.0
 10
-0.6024645669291339
 20
0.8651929133858268
 30
0.0
 10
-0.598992125984252
 20
0.8708897637795275
 30
0.0
 10
-0.5941574803149606
 20
0.8753346456692914
 30
0.0
 10
-0.5879370078740158
 20
0.8785275590551182
 30
0.0
 10
-0.5879370078740158
 20
0.8785275590551182
 30
0.0
 10
-0.581744094488189
 20
0.881751968503937
 30
0.0
 10
-0.5746023622047244
 20
0.8833346456692913
 30
0.0
 10
-0.5665748031496063
 20
0.8833346456692913
 30
0.0
 10
-0.5665748031496063
 20
0.8833346456692913
 30
0.0
 10
-0.5588267716535433
 20
0.8833346456692913
 30
0.0
 10
-0.55201968503937
 20
0.8818346456692914
 30
0.0
 10
-0.5461574803149607
 20
0.8788346456692914
 30
0.0
 10
-0.5461574803149607
 20
0.8788346456692914
 30
0.0
 10
-0.5402992125984252
 20
0.8758070866141733
 30
0.0
 10
-0.5358267716535433
 20
0.8716929133858268
 30
0.0
 10
-0.5326889763779528
 20
0.8664448818897638
 30
0.0
 10
-0.5326889763779528
 20
0.8664448818897638
 30
0.0
 10
-0.5295748031496064
 20
0.861224409448819
 30
0.0
 10
-0.5280196850393701
 20
0.855251968503937
 30
0.0
 10
-0.5280196850393701
 20
0.8485
 30
0.0
 10
-0.5280196850393701
 20
0.8485
 30
0.0
 10
-0.5280196850393701
 20
0.8428070866141733
 30
0.0
 10
-0.5290196850393701
 20
0.8375275590551181
 30
0.0
 10
-0.5310748031496063
 20
0.8326968503937008
 30
0.0
 10
-0.5310748031496063
 20
0.8326968503937008
 30
0.0
 10
-0.5331023622047244
 20
0.8278346456692913
 30
0.0
 10
-0.5363818897637795
 20
0.8229173228346457
 30
0.0
 10
-0.5408818897637796
 20
0.8180000000000001
 30
0.0
 10
-0.5408818897637796
 20
0.8180000000000001
 30
0.0
 10
-0.544244094488189
 20
0.8143070866141733
 30
0.0
 10
-0.5510472440944882
 20
0.8086692913385827
 30
0.0
 10
-0.5612992125984252
 20
0.8010551181102362
 30
0.0
 10
-0.5612992125984252
 20
0.8010551181102362
 30
0.0
 10
-0.5742125984251969
 20
0.7914173228346457
 30
0.0
 10
-0.5841023622047245
 20
0.7844173228346457
 30
0.0
 10
-0.590992125984252
 20
0.7800551181102362
 30
0.0
 10
-0.590992125984252
 20
0.7800551181102362
 30
0.0
 10
-0.590992125984252
 20
0.7800551181102362
 30
0.0
 10
-0.5486850393700787
 20
0.7800551181102362
 30
0.0
 10
-0.5486850393700787
 20
0.7800551181102362
 30
0.0
 10
-0.5486850393700787
 20
0.7800551181102362
 30
0.0
 10
-0.5436850393700787
 20
0.7800551181102362
 30
0.0
 10
-0.5404370078740157
 20
0.7805275590551182
 30
0.0
 10
-0.5389094488188977
 20
0.7814448818897638
 30
0.0
 10
-0.5389094488188977
 20
0.7814448818897638
 30
0.0
 10
-0.5367992125984252
 20
0.7826417322834646
 30
0.0
 10
-0.5353543307086615
 20
0.7854173228346457
 30
0.0
 10
-0.5346023622047245
 20
0.789751968503937
 30
0.0
 10
-0.5346023622047245
 20
0.789751968503937
 30
0.0
 10
-0.5346023622047245
 20
0.789751968503937
 30
0.0
 10
-0.5338818897637796
 20
0.7943897637795276
 30
0.0
 10
-0.5338818897637796
 20
0.7943897637795276
 30
0.0
 10
-0.5338818897637796
 20
0.7943897637795276
 30
0.0
 10
-0.5338818897637796
 20
0.7943897637795276
 30
0.0
 10
-0.5269645669291339
 20
0.7943897637795276
 30
0.0
 10
-0.5269645669291339
 20
0.7943897637795276
 30
0.0
 10
-0.5269645669291339
 20
0.7943897637795276
 30
0.0
 10
-0.5269645669291339
 20
0.7943897637795276
 30
0.0
 10
-0.532492125984252
 20
0.7638070866141733
 30
0.0
 10
-0.532492125984252
 20
0.7638070866141733
 30
0.0
 10
-0.532492125984252
 20
0.7638070866141733
 30
0.0
 10
-0.532492125984252
 20
0.7638070866141733
 30
0.0
 10
-0.5376850393700787
 20
0.7638070866141733
 30
0.0
 10
-0.5376850393700787
 20
0.7638070866141733
 30
0.0
 10
-0.5376850393700787
 20
0.7638070866141733
 30
0.0
 10
-0.5376850393700787
 20
0.7638070866141733
 30
0.0
 10
-0.5386023622047245
 20
0.7678622047244095
 30
0.0
 10
-0.5386023622047245
 20
0.7678622047244095
 30
0.0
 10
-0.5386023622047245
 20
0.7678622047244095
 30
0.0
 10
-0.5386023622047245
 20
0.7678622047244095
 30
0.0
 10
-0.6097125984251969
 20
0.7678622047244095
 30
0.0
 10
-0.6097125984251969
 20
0.7678622047244095
 30
0.0
 10
-0.6097125984251969
 20
0.7678622047244095
 30
0.0
 10
-0.6097125984251969
 20
0.7678622047244095
 30
0.0
 10
-0.6097125984251969
 20
0.7746968503937008
 30
0.0
 10
-0.6097125984251969
 20
0.7746968503937008
 30
0.0
 10
-0.6097125984251969
 20
0.7746968503937008
 30
0.0
 10
-0.6097125984251969
 20
0.7746968503937008
 30
0.0
 10
-0.5966850393700788
 20
0.7845551181102363
 30
0.0
 10
-0.5966850393700788
 20
0.7845551181102363
 30
0.0
 10
-0.5966850393700788
 20
0.7845551181102363
 30
0.0
 10
-0.5868267716535434
 20
0.7918622047244095
 30
0.0
 10
-0.5795748031496063
 20
0.7974724409448819
 30
0.0
 10
-0.5749645669291339
 20
0.8013897637795276
 30
0.0
 10
-0.5749645669291339
 20
0.8013897637795276
 30
0.0
 10
-0.566244094488189
 20
0.8087795275590551
 30
0.0
 10
-0.5596574803149607
 20
0.8150826771653543
 30
0.0
 10
-0.555244094488189
 20
0.8203070866141733
 30
0.0
 10
-0.555244094488189
 20
0.8203070866141733
 30
0.0
 10
-0.5508267716535433
 20
0.8255551181102363
 30
0.0
 10
-0.5477716535433072
 20
0.8302795275590551
 30
0.0
 10
-0.5461299212598425
 20
0.8344724409448819
 30
0.0
 10
-0.5461299212598425
 20
0.8344724409448819
 30
0.0
 10
-0.5444645669291339
 20
0.8386653543307087
 30
0.0
 10
-0.5436299212598426
 20
0.8430826771653543
 30
0.0
 10
-0.5436299212598426
 20
0.8476968503937008
 30
0.0
 10
-0.5436299212598426
 20
0.8476968503937008
 30
0.0
 10
-0.5436299212598426
 20
0.8553346456692914
 30
0.0
 10
-0.5461023622047244
 20
0.8616102362204725
 30
0.0
 10
-0.550992125984252
 20
0.8665000000000001
 30
0.0
 10
-0.550992125984252
 20
0.8665000000000001
 30
0.0
 10
-0.5559094488188977
 20
0.8713897637795276
 30
0.0
 10
-0.5622992125984252
 20
0.8738070866141733
 30
0.0
 10
-0.5701574803149606
 20
0.8738070866141733
 30
0.0
 10
-0.5701574803149606
 20
0.8738070866141733
 30
0.0
 10
-0.5757992125984253
 20
0.8738070866141733
 30
0.0
 10
-0.5808543307086614
 20
0.8726102362204725
 30
0.0
 10
-0.5852716535433071
 20
0.8701653543307087
 30
0.0
 10
-0.5852716535433071
 20
0.8701653543307087
 30
0.0
 10
-0.5896850393700788
 20
0.8677244094488189
 30
0.0
 10
-0.5931574803149606
 20
0.8643070866141732
 30
0.0
 10
-0.5957125984251969
 20
0.8598897637795276
 30
0.0
 10
-0.5957125984251969
 20
0.8598897637795276
 30
0.0
 10
-0.5982716535433071
 20
0.8555
 30
0.0
 10
-0.5995472440944882
 20
0.8507519685039371
 30
0.0
 10
-0.5995472440944882
 20
0.8456653543307087
 30
0.0
 10
-0.5995472440944882
 20
0.8456653543307087
 30
0.0
 10
-0.5995472440944882
 20
0.8437519685039371
 30
0.0
 10
-0.5994094488188977
 20
0.8413897637795276
 30
0.0
 10
-0.5991299212598426
 20
0.8385826771653544
 30
0.0
  0
SPLINE
  5
78
330
1F
100
AcDbEntity
  8
LAYER_1
 62
   250
100
AcDbSpline
210
0.0
220
0.0
230
1.0
 70
    11
 71
     3
 72
    60
 73
    56
 74
     0
 42
0.0000000001
 43
0.0000000001
 40
0.0
 40
0.0
 40
0.0
 40
0.0
 40
0.0714285714285714
 40
0.0714285714285714
 40
0.0714285714285714
 40
0.0714285714285714
 40
0.1428571428571429
 40
0.1428571428571429
 40
0.1428571428571429
 40
0.1428571428571429
 40
0.2142857142857143
 40
0.2142857142857143
 40
0.2142857142857143
 40
0.2142857142857143
 40
0.2857142857142857
 40
0.2857142857142857
 40
0.2857142857142857
 40
0.2857142857142857
 40
0.3571428571428571
 40
0.3571428571428571
 40
0.3571428571428571
 40
0.3571428571428571
 40
0.4285714285714285
 40
0.4285714285714285
 40
0.4285714285714285
 40
0.4285714285714285
 40
0.4999999999999999
 40
0.4999999999999999
 40
0.4999999999999999
 40
0.4999999999999999
 40
0.5714285714285713
 40
0.5714285714285713
 40
0.5714285714285713
 40
0.5714285714285713
 40
0.6428571428571427
 40
0.6428571428571427
 40
0.6428571428571427
 40
0.6428571428571427
 40
0.7142857142857141
 40
0.7142857142857141
 40
0.7142857142857141
 40
0.7142857142857141
 40
0.7857142857142855
 40
0.7857142857142855
 40
0.7857142857142855
 40
0.7857142857142855
 40
0.8571428571428569
 40
0.8571428571428569
 40
0.8571428571428569
 40
0.8571428571428569
 40
0.9285714285714283
 40
0.9285714285714283
 40
0.9285714285714283
 40
0.9285714285714283
 40
1.0
 40
1.0
 40
1.0
 40
1.0
 10
-0.5045748031496063
 20
0.8393070866141733
 30
0.0
 10
-0.5045748031496063
 20
0.8393070866141733
 30
0.0
 10
-0.5089645669291338
 20
0.8446968503937008
 30
0.0
 10
-0.5089645669291338
 20
0.8446968503937008
 30
0.0
 10
-0.5089645669291338
 20
0.8446968503937008
 30
0.0
 10
-0.4978503937007874
 20
0.8537519685039371
 30
0.0
 10
-0.4922677165354331
 20
0.8613070866141732
 30
0.0
 10
-0.4922677165354331
 20
0.8673897637795276
 30
0.0
 10
-0.4922677165354331
 20
0.8673897637795276
 30
0.0
 10
-0.4922677165354331
 20
0.8680826771653544
 30
0.0
 10
-0.4923228346456693
 20
0.8689724409448819
 30
0.0
 10
-0.4924370078740158
 20
0.87
 30
0.0
 10
-0.4924370078740158
 20
0.87
 30
0.0
 10
-0.4933503937007874
 20
0.8696102362204725
 30
0.0
 10
-0.4942677165354331
 20
0.8693070866141732
 30
0.0
 10
-0.4951299212598426
 20
0.8691102362204725
 30
0.0
 10
-0.4951299212598426
 20
0.8691102362204725
 30
0.0
 10
-0.495992125984252
 20
0.8688897637795277
 30
0.0
 10
-0.4967952755905512
 20
0.8687795275590552
 30
0.0
 10
-0.4975748031496063
 20
0.8687795275590552
 30
0.0
 10
-0.4975748031496063
 20
0.8687795275590552
 30
0.0
 10
-0.5001850393700787
 20
0.8687795275590552
 30
0.0
 10
-0.5022677165354331
 20
0.8696102362204725
 30
0.0
 10
-0.5038228346456694
 20
0.8713070866141732
 30
0.0
 10
-0.5038228346456694
 20
0.8713070866141732
 30
0.0
 10
-0.5054094488188977
 20
0.8729724409448819
 30
0.0
 10
-0.5061850393700788
 20
0.8751102362204725
 30
0.0
 10
-0.5061850393700788
 20
0.8777244094488189
 30
0.0
 10
-0.5061850393700788
 20
0.8777244094488189
 30
0.0
 10
-0.5061850393700788
 20
0.8802795275590551
 30
0.0
 10
-0.505240157480315
 20
0.8825000000000001
 30
0.0
 10
-0.5033503937007874
 20
0.8843897637795276
 30
0.0
 10
-0.5033503937007874
 20
0.8843897637795276
 30
0.0
 10
-0.5014370078740158
 20
0.8863070866141732
 30
0.0
 10
-0.4991574803149607
 20
0.8872519685039371
 30
0.0
 10
-0.4965196850393701
 20
0.8872519685039371
 30
0.0
 10
-0.4965196850393701
 20
0.8872519685039371
 30
0.0
 10
-0.4928228346456693
 20
0.8872519685039371
 30
0.0
 10
-0.4896574803149607
 20
0.8857795275590552
 30
0.0
 10
-0.4870196850393701
 20
0.8828070866141733
 30
0.0
 10
-0.4870196850393701
 20
0.8828070866141733
 30
0.0
 10
-0.4844094488188976
 20
0.8798622047244095
 30
0.0
 10
-0.4830748031496063
 20
0.8760551181102363
 30
0.0
 10
-0.4830748031496063
 20
0.8713897637795276
 30
0.0
 10
-0.4830748031496063
 20
0.8713897637795276
 30
0.0
 10
-0.4830748031496063
 20
0.8683346456692914
 30
0.0
 10
-0.4837125984251969
 20
0.8651377952755905
 30
0.0
 10
-0.4849645669291339
 20
0.8618070866141733
 30
0.0
 10
-0.4849645669291339
 20
0.8618070866141733
 30
0.0
 10
-0.4862125984251969
 20
0.858472440944882
 30
0.0
 10
-0.4880196850393701
 20
0.8553897637795276
 30
0.0
 10
-0.4904094488188976
 20
0.8525275590551181
 30
0.0
 10
-0.4904094488188976
 20
0.8525275590551181
 30
0.0
 10
-0.4927952755905512
 20
0.8496968503937008
 30
0.0
 10
-0.4975196850393701
 20
0.8452795275590551
 30
0.0
 10
-0.5045748031496063
 20
0.8393070866141733
 30
0.0
  0
SPLINE
  5
79
330
1F
100
AcDbEntity
  8
LAYER_1
 62
   250
100
AcDbSpline
210
0.0
220
0.0
230
1.0
 70
    11
 71
     3
 72
    60
 73
    56
 74
     0
 42
0.0000000001
 43
0.0000000001
 40
0.0
 40
0.0
 40
0.0
 40
0.0
 40
0.0714285714285714
 40
0.0714285714285714
 40
0.0714285714285714
 40
0.0714285714285714
 40
0.1428571428571429
 40
0.1428571428571429
 40
0.1428571428571429
 40
0.1428571428571429
 40
0.2142857142857143
 40
0.2142857142857143
 40
0.2142857142857143
 40
0.2142857142857143
 40
0.2857142857142857
 40
0.2857142857142857
 40
0.2857142857142857
 40
0.2857142857142857
 40
0.3571428571428571
 40
0.3571428571428571
 40
0.3571428571428571
 40
0.3571428571428571
 40
0.4285714285714285
 40
0.4285714285714285
 40
0.4285714285714285
 40
0.4285714285714285
 40
0.4999999999999999
 40
0.4999999999999999
 40
0.4999999999999999
 40
0.4999999999999999
 40
0.5714285714285713
 40
0.5714285714285713
 40
0.5714285714285713
 40
0.5714285714285713
 40
0.6428571428571427
 40
0.6428571428571427
 40
0.6428571428571427
 40
0.6428571428571427
 40
0.7142857142857141
 40
0.7142857142857141
 40
0.7142857142857141
 40
0.7142857142857141
 40
0.7857142857142855
 40
0.7857142857142855
 40
0.7857142857142855
 40
0.7857142857142855
 40
0.8571428571428569
 40
0.8571428571428569
 40
0.8571428571428569
 40
0.8571428571428569
 40
0.9285714285714283
 40
0.9285714285714283
 40
0.9285714285714283
 40
0.9285714285714283
 40
1.0
 40
1.0
 40
1.0
 40
1.0
 10
-0.4755196850393701
 20
0.8393070866141733
 30
0.0
 10
-0.4755196850393701
 20
0.8393070866141733
 30
0.0
 10
-0.4799094488188976
 20
0.8446968503937008
 30
0.0
 10
-0.4799094488188976
 20
0.8446968503937008
 30
0.0
 10
-0.4799094488188976
 20
0.8446968503937008
 30
0.0
 10
-0.4687952755905512
 20
0.8537519685039371
 30
0.0
 10
-0.4632125984251969
 20
0.8613070866141732
 30
0.0
 10
-0.4632125984251969
 20
0.8673897637795276
 30
0.0
 10
-0.4632125984251969
 20
0.8673897637795276
 30
0.0
 10
-0.4632125984251969
 20
0.8680826771653544
 30
0.0
 10
-0.4632677165354331
 20
0.8689724409448819
 30
0.0
 10
-0.4633818897637795
 20
0.87
 30
0.0
 10
-0.4633818897637795
 20
0.87
 30
0.0
 10
-0.4642952755905512
 20
0.8696102362204725
 30
0.0
 10
-0.4652125984251969
 20
0.8693070866141732
 30
0.0
 10
-0.4660748031496063
 20
0.8691102362204725
 30
0.0
 10
-0.4660748031496063
 20
0.8691102362204725
 30
0.0
 10
-0.4669370078740158
 20
0.8688897637795277
 30
0.0
 10
-0.4677677165354331
 20
0.8687795275590552
 30
0.0
 10
-0.4686023622047245
 20
0.8687795275590552
 30
0.0
 10
-0.4686023622047245
 20
0.8687795275590552
 30
0.0
 10
-0.4711574803149606
 20
0.8687795275590552
 30
0.0
 10
-0.4732125984251969
 20
0.8696102362204725
 30
0.0
 10
-0.4747677165354331
 20
0.8713070866141732
 30
0.0
 10
-0.4747677165354331
 20
0.8713070866141732
 30
0.0
 10
-0.4763503937007874
 20
0.8729724409448819
 30
0.0
 10
-0.4771299212598426
 20
0.8751102362204725
 30
0.0
 10
-0.4771299212598426
 20
0.8777244094488189
 30
0.0
 10
-0.4771299212598426
 20
0.8777244094488189
 30
0.0
 10
-0.4771299212598426
 20
0.8802795275590551
 30
0.0
 10
-0.4761850393700788
 20
0.8825000000000001
 30
0.0
 10
-0.4742952755905512
 20
0.8843897637795276
 30
0.0
 10
-0.4742952755905512
 20
0.8843897637795276
 30
0.0
 10
-0.4724094488188977
 20
0.8863070866141732
 30
0.0
 10
-0.4701023622047244
 20
0.8872519685039371
 30
0.0
 10
-0.4674645669291339
 20
0.8872519685039371
 30
0.0
 10
-0.4674645669291339
 20
0.8872519685039371
 30
0.0
 10
-0.4637677165354331
 20
0.8872519685039371
 30
0.0
 10
-0.4606023622047245
 20
0.8857795275590552
 30
0.0
 10
-0.4579645669291339
 20
0.8828070866141733
 30
0.0
 10
-0.4579645669291339
 20
0.8828070866141733
 30
0.0
 10
-0.4553543307086614
 20
0.8798622047244095
 30
0.0
 10
-0.4540196850393701
 20
0.8760551181102363
 30
0.0
 10
-0.4540196850393701
 20
0.8713897637795276
 30
0.0
 10
-0.4540196850393701
 20
0.8713897637795276
 30
0.0
 10
-0.4540196850393701
 20
0.8683346456692914
 30
0.0
 10
-0.4546574803149607
 20
0.8651377952755905
 30
0.0
 10
-0.4559094488188977
 20
0.8618070866141733
 30
0.0
 10
-0.4559094488188977
 20
0.8618070866141733
 30
0.0
 10
-0.4571574803149607
 20
0.858472440944882
 30
0.0
 10
-0.4589645669291339
 20
0.8553897637795276
 30
0.0
 10
-0.4613503937007874
 20
0.8525275590551181
 30
0.0
 10
-0.4613503937007874
 20
0.8525275590551181
 30
0.0
 10
-0.463740157480315
 20
0.8496968503937008
 30
0.0
 10
-0.4684645669291339
 20
0.8452795275590551
 30
0.0
 10
-0.4755196850393701
 20
0.8393070866141733
 30
0.0
  0
ENDSEC
  0
SECTION
  2
OBJECTS
  0
DICTIONARY
  5
C
330
0
100
AcDbDictionary
  3
ACAD_GROUP
350
D
  3
ACAD_LAYOUT
350
1A
  3
ACAD_MLINESTYLE
350
17
  3
ACAD_PLOTSETTINGS
350
19
  3
ACDBHEADERROUNDTRIPXREC
350
7A
  0
DICTIONARY
  5
9A
330
29
100
AcDbDictionary
280
     1
  3
ACAD_XREC_ROUNDTRIP
360
9B
  0
DICTIONARY
  5
D
102
{ACAD_REACTORS
330
C
102
}
330
C
100
AcDbDictionary
  0
DICTIONARY
  5
1A
102
{ACAD_REACTORS
330
C
102
}
330
C
100
AcDbDictionary
  0
DICTIONARY
  5
17
102
{ACAD_REACTORS
330
C
102
}
330
C
100
AcDbDictionary
  3
STANDARD
350
18
  0
DICTIONARY
  5
19
102
{ACAD_REACTORS
330
C
102
}
330
C
100
AcDbDictionary
  0
DICTIONARY
  5
7A
102
{ACAD_REACTORS
330
C
102
}
330
C
100
AcDbDictionary
  3
CEPSNTYPE
350
83
  3
DIMSTYLEDATA
350
99
  3
FINGERPRINTGUID
350
84
  3
HYPERLINKBASE
350
7D
  3
INSUNITS
350
82
  3
LAYOUTDICT
350
7F
  3
LWETCUNION
350
81
  3
PLOTSETDICT
350
80
  3
PSVPSCALE
350
86
  3
PUCSBASE
350
89
  3
PUCSORGBACK
350
8F
  3
PUCSORGBOTTOM
350
8B
  3
PUCSORGFRONT
350
8E
  3
PUCSORGLEFT
350
8C
  3
PUCSORGRIGHT
350
8D
  3
PUCSORGTOP
350
8A
  3
PUCSORTHOREF
350
87
  3
PUCSORTHOVIEW
350
88
  3
STYLESHEET
350
7E
  3
TSTACKALIGN
350
7B
  3
TSTACKSIZE
350
7C
  3
UCSBASE
350
92
  3
UCSORGBACK
350
98
  3
UCSORGBOTTOM
350
94
  3
UCSORGFRONT
350
97
  3
UCSORGLEFT
350
95
  3
UCSORGRIGHT
350
96
  3
UCSORGTOP
350
93
  3
UCSORTHOREF
350
90
  3
UCSORTHOVIEW
350
91
  3
VERSIONGUID
350
85
  0
XRECORD
  5
9B
102
{ACAD_REACTORS
330
9A
102
}
330
9A
100
AcDbXrecord
102
UCS
 74
     0
 71
     1
 10
0.0
 20
0.0
 30
0.0
 10
1.0
 20
0.0
 30
0.0
 10
0.0
 20
1.0
 30
0.0
146
0.0
 79
     0
102
VIEW
281
     0
  0
MLINESTYLE
  5
18
102
{ACAD_REACTORS
330
17
102
}
330
17
100
AcDbMlineStyle
  2
Standard
 70
     0
  3

 62
   256
 51
90.0
 52
90.0
 71
     2
 49
0.5
 62
   256
  6
BYLAYER
 49
-0.5
 62
   256
  6
BYLAYER
  0
XRECORD
  5
83
102
{ACAD_REACTORS
330
7A
102
}
330
7A
100
AcDbXrecord
 90
        0
  0
XRECORD
  5
99
102
{ACAD_REACTORS
330
7A
102
}
330
7A
100
AcDbXrecord
1000
DSTYLE
1002
{
1070
   340
340
11
1002
}
  0
XRECORD
  5
84
102
{ACAD_REACTORS
330
7A
102
}
330
7A
100
AcDbXrecord
  1
{FAEB1C30-E019-11D5-929B-00C0DF256EC4}
  0
XRECORD
  5
7D
102
{ACAD_REACTORS
330
7A
102
}
330
7A
100
AcDbXrecord
  1

  0
XRECORD
  5
82
102
{ACAD_REACTORS
330
7A
102
}
330
7A
100
AcDbXrecord
 90
        1
  0
XRECORD
  5
7F
102
{ACAD_REACTORS
330
7A
102
}
330
7A
100
AcDbXrecord
340
1A
  0
XRECORD
  5
81
102
{ACAD_REACTORS
330
7A
102
}
330
7A
100
AcDbXrecord
 90
     2560
  0
XRECORD
  5
80
102
{ACAD_REACTORS
330
7A
102
}
330
7A
100
AcDbXrecord
340
19
  0
XRECORD
  5
86
102
{ACAD_REACTORS
330
7A
102
}
330
7A
100
AcDbXrecord
 40
0.0
  0
XRECORD
  5
89
102
{ACAD_REACTORS
330
7A
102
}
330
7A
100
AcDbXrecord
340
0
  0
XRECORD
  5
8F
102
{ACAD_REACTORS
330
7A
102
}
330
7A
100
AcDbXrecord
 10
0.0
 20
0.0
 30
0.0
  0
XRECORD
  5
8B
102
{ACAD_REACTORS
330
7A
102
}
330
7A
100
AcDbXrecord
 10
0.0
 20
0.0
 30
0.0
  0
XRECORD
  5
8E
102
{ACAD_REACTORS
330
7A
102
}
330
7A
100
AcDbXrecord
 10
0.0
 20
0.0
 30
0.0
  0
XRECORD
  5
8C
102
{ACAD_REACTORS
330
7A
102
}
330
7A
100
AcDbXrecord
 10
0.0
 20
0.0
 30
0.0
  0
XRECORD
  5
8D
102
{ACAD_REACTORS
330
7A
102
}
330
7A
100
AcDbXrecord
 10
0.0
 20
0.0
 30
0.0
  0
XRECORD
  5
8A
102
{ACAD_REACTORS
330
7A
102
}
330
7A
100
AcDbXrecord
 10
0.0
 20
0.0
 30
0.0
  0
XRECORD
  5
87
102
{ACAD_REACTORS
330
7A
102
}
330
7A
100
AcDbXrecord
340
0
  0
XRECORD
  5
88
102
{ACAD_REACTORS
330
7A
102
}
330
7A
100
AcDbXrecord
 70
     0
  0
XRECORD
  5
7E
102
{ACAD_REACTORS
330
7A
102
}
330
7A
100
AcDbXrecord
  1

  0
XRECORD
  5
7B
102
{ACAD_REACTORS
330
7A
102
}
330
7A
100
AcDbXrecord
 90
        1
  0
XRECORD
  5
7C
102
{ACAD_REACTORS
330
7A
102
}
330
7A
100
AcDbXrecord
 90
       70
  0
XRECORD
  5
92
102
{ACAD_REACTORS
330
7A
102
}
330
7A
100
AcDbXrecord
340
0
  0
XRECORD
  5
98
102
{ACAD_REACTORS
330
7A
102
}
330
7A
100
AcDbXrecord
 10
0.0
 20
0.0
 30
0.0
  0
XRECORD
  5
94
102
{ACAD_REACTORS
330
7A
102
}
330
7A
100
AcDbXrecord
 10
0.0
 20
0.0
 30
0.0
  0
XRECORD
  5
97
102
{ACAD_REACTORS
330
7A
102
}
330
7A
100
AcDbXrecord
 10
0.0
 20
0.0
 30
0.0
  0
XRECORD
  5
95
102
{ACAD_REACTORS
330
7A
102
}
330
7A
100
AcDbXrecord
 10
0.0
 20
0.0
 30
0.0
  0
XRECORD
  5
96
102
{ACAD_REACTORS
330
7A
102
}
330
7A
100
AcDbXrecord
 10
0.0
 20
0.0
 30
0.0
  0
XRECORD
  5
93
102
{ACAD_REACTORS
330
7A
102
}
330
7A
100
AcDbXrecord
 10
0.0
 20
0.0
 30
0.0
  0
XRECORD
  5
90
102
{ACAD_REACTORS
330
7A
102
}
330
7A
100
AcDbXrecord
340
0
  0
XRECORD
  5
91
102
{ACAD_REACTORS
330
7A
102
}
330
7A
100
AcDbXrecord
 70
     0
  0
XRECORD
  5
85
102
{ACAD_REACTORS
330
7A
102
}
330
7A
100
AcDbXrecord
  1
{FAEB1C32-E019-11D5-929B-00C0DF256EC4}
  0
ENDSEC
  0
EOF
