  0
SECTION
  2
HEADER
  9
$ACADVER
  1
AC1014
  9
$ACADMAINTVER
 70
     9
  9
$DWGCODEPAGE
  3
ANSI_1252
  9
$INSBASE
 10
0.0
 20
0.0
 30
0.0
  9
$EXTMIN
 10
-1.767543307086614
 20
0.4992362204724409
 30
0.0
  9
$EXTMAX
 10
1.354704724409449
 20
2.145244094488189
 30
0.0
  9
$LIMMIN
 10
0.0
 20
0.0
  9
$LIMMAX
 10
12.0
 20
9.0
  9
$ORTHOMODE
 70
     0
  9
$REGENMODE
 70
     1
  9
$FILLMODE
 70
     1
  9
$QTEXTMODE
 70
     0
  9
$MIRRTEXT
 70
     1
  9
$DRAGMODE
 70
     2
  9
$LTSCALE
 40
1.0
  9
$OSMODE
 70
    37
  9
$ATTMODE
 70
     1
  9
$TEXTSIZE
 40
0.2
  9
$TRACEWID
 40
0.05
  9
$TEXTSTYLE
  7
STANDARD
  9
$CLAYER
  8
0
  9
$CELTYPE
  6
BYLAYER
  9
$CECOLOR
 62
   256
  9
$CELTSCALE
 40
1.0
  9
$DELOBJ
 70
     1
  9
$DISPSILH
 70
     0
  9
$DIMSCALE
 40
1.0
  9
$DIMASZ
 40
0.18
  9
$DIMEXO
 40
0.0625
  9
$DIMDLI
 40
0.38
  9
$DIMRND
 40
0.0
  9
$DIMDLE
 40
0.0
  9
$DIMEXE
 40
0.18
  9
$DIMTP
 40
0.0
  9
$DIMTM
 40
0.0
  9
$DIMTXT
 40
0.18
  9
$DIMCEN
 40
0.09
  9
$DIMTSZ
 40
0.0
  9
$DIMTOL
 70
     0
  9
$DIMLIM
 70
     0
  9
$DIMTIH
 70
     1
  9
$DIMTOH
 70
     1
  9
$DIMSE1
 70
     0
  9
$DIMSE2
 70
     0
  9
$DIMTAD
 70
     0
  9
$DIMZIN
 70
     0
  9
$DIMBLK
  1

  9
$DIMASO
 70
     1
  9
$DIMSHO
 70
     1
  9
$DIMPOST
  1

  9
$DIMAPOST
  1

  9
$DIMALT
 70
     0
  9
$DIMALTD
 70
     2
  9
$DIMALTF
 40
25.4
  9
$DIMLFAC
 40
1.0
  9
$DIMTOFL
 70
     0
  9
$DIMTVP
 40
0.0
  9
$DIMTIX
 70
     0
  9
$DIMSOXD
 70
     0
  9
$DIMSAH
 70
     0
  9
$DIMBLK1
  1

  9
$DIMBLK2
  1

  9
$DIMSTYLE
  2
STANDARD
  9
$DIMCLRD
 70
     0
  9
$DIMCLRE
 70
     0
  9
$DIMCLRT
 70
     0
  9
$DIMTFAC
 40
1.0
  9
$DIMGAP
 40
0.09
  9
$DIMJUST
 70
     0
  9
$DIMSD1
 70
     0
  9
$DIMSD2
 70
     0
  9
$DIMTOLJ
 70
     1
  9
$DIMTZIN
 70
     0
  9
$DIMALTZ
 70
     0
  9
$DIMALTTZ
 70
     0
  9
$DIMFIT
 70
     3
  9
$DIMUPT
 70
     0
  9
$DIMUNIT
 70
     2
  9
$DIMDEC
 70
     4
  9
$DIMTDEC
 70
     4
  9
$DIMALTU
 70
     2
  9
$DIMALTTD
 70
     2
  9
$DIMTXSTY
  7
STANDARD
  9
$DIMAUNIT
 70
     0
  9
$LUNITS
 70
     2
  9
$LUPREC
 70
     4
  9
$SKETCHINC
 40
0.1
  9
$FILLETRAD
 40
0.5
  9
$AUNITS
 70
     0
  9
$AUPREC
 70
     0
  9
$MENU
  1
.
  9
$ELEVATION
 40
0.0
  9
$PELEVATION
 40
0.0
  9
$THICKNESS
 40
0.0
  9
$LIMCHECK
 70
     0
  9
$CHAMFERA
 40
0.5
  9
$CHAMFERB
 40
0.5
  9
$CHAMFERC
 40
1.0
  9
$CHAMFERD
 40
0.0
  9
$SKPOLY
 70
     0
  9
$TDCREATE
 40
2454120.447078102
  9
$TDUPDATE
 40
2454120.447078113
  9
$TDINDWG
 40
0.0000000116
  9
$TDUSRTIMER
 40
0.0000000116
  9
$USRTIMER
 70
     1
  9
$ANGBASE
 50
0.0
  9
$ANGDIR
 70
     0
  9
$PDMODE
 70
     0
  9
$PDSIZE
 40
0.0
  9
$PLINEWID
 40
0.0
  9
$COORDS
 70
     1
  9
$SPLFRAME
 70
     0
  9
$SPLINETYPE
 70
     6
  9
$SPLINESEGS
 70
     8
  9
$ATTDIA
 70
     0
  9
$ATTREQ
 70
     1
  9
$HANDLING
 70
     1
  9
$HANDSEED
  5
8C
  9
$SURFTAB1
 70
     6
  9
$SURFTAB2
 70
     6
  9
$SURFTYPE
 70
     6
  9
$SURFU
 70
     6
  9
$SURFV
 70
     6
  9
$UCSNAME
  2

  9
$UCSORG
 10
0.0
 20
0.0
 30
0.0
  9
$UCSXDIR
 10
1.0
 20
0.0
 30
0.0
  9
$UCSYDIR
 10
0.0
 20
1.0
 30
0.0
  9
$PUCSNAME
  2

  9
$PUCSORG
 10
0.0
 20
0.0
 30
0.0
  9
$PUCSXDIR
 10
1.0
 20
0.0
 30
0.0
  9
$PUCSYDIR
 10
0.0
 20
1.0
 30
0.0
  9
$USERI1
 70
     0
  9
$USERI2
 70
     0
  9
$USERI3
 70
     0
  9
$USERI4
 70
     0
  9
$USERI5
 70
     0
  9
$USERR1
 40
0.0
  9
$USERR2
 40
0.0
  9
$USERR3
 40
0.0
  9
$USERR4
 40
0.0
  9
$USERR5
 40
0.0
  9
$WORLDVIEW
 70
     1
  9
$SHADEDGE
 70
     3
  9
$SHADEDIF
 70
    70
  9
$TILEMODE
 70
     1
  9
$MAXACTVP
 70
    64
  9
$PINSBASE
 10
0.0
 20
0.0
 30
0.0
  9
$PLIMCHECK
 70
     0
  9
$PEXTMIN
 10
1.000000000000000E+20
 20
1.000000000000000E+20
 30
1.000000000000000E+20
  9
$PEXTMAX
 10
-1.000000000000000E+20
 20
-1.000000000000000E+20
 30
-1.000000000000000E+20
  9
$PLIMMIN
 10
0.0
 20
0.0
  9
$PLIMMAX
 10
12.0
 20
9.0
  9
$UNITMODE
 70
     0
  9
$VISRETAIN
 70
     1
  9
$PLINEGEN
 70
     0
  9
$PSLTSCALE
 70
     1
  9
$TREEDEPTH
 70
  3020
  9
$PICKSTYLE
 70
     1
  9
$CMLSTYLE
  2
STANDARD
  9
$CMLJUST
 70
     0
  9
$CMLSCALE
 40
1.0
  9
$PROXYGRAPHICS
 70
     1
  9
$MEASUREMENT
 70
     0
  0
ENDSEC
  0
SECTION
  2
CLASSES
  0
CLASS
  1
ACDBDICTIONARYWDFLT
  2
AcDbDictionaryWithDefault
  3
ObjectDBX Classes
 90
        0
280
     0
281
     0
  0
CLASS
  1
XRECORD
  2
AcDbXrecord
  3
AutoCAD 2000
 90
        0
280
     0
281
     0
  0
CLASS
  1
LWPOLYLINE
  2
AcDbPolyline
  3
AutoCAD 2000
 90
        0
280
     0
281
     1
  0
CLASS
  1
HATCH
  2
AcDbHatch
  3
AutoCAD 2000
 90
        0
280
     0
281
     1
  0
CLASS
  1
ACDBPLACEHOLDER
  2
AcDbPlaceHolder
  3
ObjectDBX Classes
 90
        0
280
     0
281
     0
  0
CLASS
  1
LAYOUT
  2
AcDbLayout
  3
ObjectDBX Classes
 90
        0
280
     0
281
     0
  0
ENDSEC
  0
SECTION
  2
TABLES
  0
TABLE
  2
VPORT
  5
8
330
0
100
AcDbSymbolTable
 70
     2
  0
VPORT
  5
29
102
{ACAD_XDICTIONARY
360
8A
102
}
330
8
100
AcDbSymbolTableRecord
100
AcDbViewportTableRecord
  2
*ACTIVE
 70
     0
 10
0.0
 20
0.0
 11
1.0
 21
1.0
 12
10.42990654205607
 22
4.5
 13
0.0
 23
0.0
 14
0.5
 24
0.5
 15
0.5
 25
0.5
 16
0.0
 26
0.0
 36
1.0
 17
0.0
 27
0.0
 37
0.0
 40
9.0
 41
1.972972972850329
 42
50.0
 43
0.0
 44
0.0
 50
0.0
 51
0.0
 71
     0
 72
   100
 73
     1
 74
     3
 75
     0
 76
     0
 77
     0
 78
     0
  0
ENDTAB
  0
TABLE
  2
LTYPE
  5
5
330
0
100
AcDbSymbolTable
 70
     1
  0
LTYPE
  5
14
330
5
100
AcDbSymbolTableRecord
100
AcDbLinetypeTableRecord
  2
BYBLOCK
 70
     0
  3

 72
    65
 73
     0
 40
0.0
  0
LTYPE
  5
15
330
5
100
AcDbSymbolTableRecord
100
AcDbLinetypeTableRecord
  2
BYLAYER
 70
     0
  3

 72
    65
 73
     0
 40
0.0
  0
LTYPE
  5
16
330
5
100
AcDbSymbolTableRecord
100
AcDbLinetypeTableRecord
  2
CONTINUOUS
 70
     0
  3
Solid line
 72
    65
 73
     0
 40
0.0
  0
ENDTAB
  0
TABLE
  2
LAYER
  5
2
330
0
100
AcDbSymbolTable
 70
     2
  0
LAYER
  5
10
330
2
100
AcDbSymbolTableRecord
100
AcDbLayerTableRecord
  2
0
 70
     0
 62
     7
  6
CONTINUOUS
  0
LAYER
  5
2B
330
2
100
AcDbSymbolTableRecord
100
AcDbLayerTableRecord
  2
LAYER_1
 70
     0
 62
     7
  6
CONTINUOUS
  0
ENDTAB
  0
TABLE
  2
STYLE
  5
3
330
0
100
AcDbSymbolTable
 70
     1
  0
STYLE
  5
11
330
3
100
AcDbSymbolTableRecord
100
AcDbTextStyleTableRecord
  2
STANDARD
 70
     0
 40
0.0
 41
1.0
 50
0.0
 71
     0
 42
0.2
  3
txt
  4

  0
ENDTAB
  0
TABLE
  2
VIEW
  5
6
330
0
100
AcDbSymbolTable
 70
     0
  0
ENDTAB
  0
TABLE
  2
UCS
  5
7
330
0
100
AcDbSymbolTable
 70
     0
  0
ENDTAB
  0
TABLE
  2
APPID
  5
9
330
0
100
AcDbSymbolTable
 70
     2
  0
APPID
  5
12
330
9
100
AcDbSymbolTableRecord
100
AcDbRegAppTableRecord
  2
ACAD
 70
     0
  0
APPID
  5
2A
330
9
100
AcDbSymbolTableRecord
100
AcDbRegAppTableRecord
  2
ODA
 70
     0
  0
ENDTAB
  0
TABLE
  2
DIMSTYLE
  5
A
330
0
100
AcDbSymbolTable
 70
     1
  0
DIMSTYLE
105
27
330
A
100
AcDbSymbolTableRecord
100
AcDbDimStyleTableRecord
  2
STANDARD
 70
     0
  3

  4

  5

  6

  7

 40
1.0
 41
0.18
 42
0.0625
 43
0.38
 44
0.18
 45
0.0
 46
0.0
 47
0.0
 48
0.0
140
0.18
141
0.09
142
0.0
143
25.4
144
1.0
145
0.0
146
1.0
147
0.09
 71
     0
 72
     0
 73
     1
 74
     1
 75
     0
 76
     0
 77
     0
 78
     0
170
     0
171
     2
172
     0
173
     0
174
     0
175
     0
176
     0
177
     0
178
     0
270
     2
271
     4
272
     4
273
     2
274
     2
340
11
275
     0
280
     0
281
     0
282
     0
283
     1
284
     0
285
     0
286
     0
287
     3
288
     0
  0
ENDTAB
  0
TABLE
  2
BLOCK_RECORD
  5
1
330
0
100
AcDbSymbolTable
 70
     1
  0
BLOCK_RECORD
  5
1F
330
1
100
AcDbSymbolTableRecord
100
AcDbBlockTableRecord
  2
*MODEL_SPACE
  0
BLOCK_RECORD
  5
1B
330
1
100
AcDbSymbolTableRecord
100
AcDbBlockTableRecord
  2
*PAPER_SPACE
  0
ENDTAB
  0
ENDSEC
  0
SECTION
  2
BLOCKS
  0
BLOCK
  5
20
330
1F
100
AcDbEntity
  8
0
100
AcDbBlockBegin
  2
*MODEL_SPACE
 70
     0
 71
     0
 10
0.0
 20
0.0
 30
0.0
  3
*MODEL_SPACE
  1

  0
ENDBLK
  5
21
330
1F
100
AcDbEntity
  8
0
100
AcDbBlockEnd
  0
BLOCK
  5
1C
330
1B
100
AcDbEntity
 67
     1
  8
0
100
AcDbBlockBegin
  2
*PAPER_SPACE
 70
     0
 71
     0
 10
0.0
 20
0.0
 30
0.0
  3
*PAPER_SPACE
  1

  0
ENDBLK
  5
1D
330
1B
100
AcDbEntity
 67
     1
  8
0
100
AcDbBlockEnd
  0
ENDSEC
  0
SECTION
  2
ENTITIES
  0
SPLINE
  5
2C
330
1F
100
AcDbEntity
  8
LAYER_1
 62
     7
100
AcDbSpline
210
0.0
220
0.0
230
1.0
 70
    11
 71
     3
 72
    28
 73
    24
 74
     0
 42
0.0000000001
 43
0.0000000001
 40
0.0
 40
0.0
 40
0.0
 40
0.0
 40
0.1666666666666667
 40
0.1666666666666667
 40
0.1666666666666667
 40
0.1666666666666667
 40
0.3333333333333333
 40
0.3333333333333333
 40
0.3333333333333333
 40
0.3333333333333333
 40
0.5
 40
0.5
 40
0.5
 40
0.5
 40
0.6666666666666666
 40
0.6666666666666666
 40
0.6666666666666666
 40
0.6666666666666666
 40
0.8333333333333333
 40
0.8333333333333333
 40
0.8333333333333333
 40
0.8333333333333333
 40
1.0
 40
1.0
 40
1.0
 40
1.0
 10
-1.673531496062992
 20
0.9459173228346457
 30
0.0
 10
-1.673531496062992
 20
0.9459173228346457
 30
0.0
 10
-1.673531496062992
 20
1.40184251968504
 30
0.0
 10
-1.673531496062992
 20
1.40184251968504
 30
0.0
 10
-1.673531496062992
 20
1.40184251968504
 30
0.0
 10
-1.673531496062992
 20
1.40184251968504
 30
0.0
 10
-1.447507874015748
 20
1.40184251968504
 30
0.0
 10
-1.447507874015748
 20
1.40184251968504
 30
0.0
 10
-1.447507874015748
 20
1.40184251968504
 30
0.0
 10
-1.447507874015748
 20
1.40184251968504
 30
0.0
 10
-1.164814960629921
 20
1.128287401574803
 30
0.0
 10
-1.164814960629921
 20
1.128287401574803
 30
0.0
 10
-1.164814960629921
 20
1.128287401574803
 30
0.0
 10
-1.164814960629921
 20
1.128287401574803
 30
0.0
 10
-0.9869842519685039
 20
1.128287401574803
 30
0.0
 10
-0.9869842519685039
 20
1.128287401574803
 30
0.0
 10
-0.9869842519685039
 20
1.128287401574803
 30
0.0
 10
-0.9869842519685039
 20
1.128287401574803
 30
0.0
 10
-0.9869842519685039
 20
0.9459173228346457
 30
0.0
 10
-0.9869842519685039
 20
0.9459173228346457
 30
0.0
 10
-0.9869842519685039
 20
0.9459173228346457
 30
0.0
 10
-0.9869842519685039
 20
0.9459173228346457
 30
0.0
 10
-1.673531496062992
 20
0.9459173228346457
 30
0.0
 10
-1.673531496062992
 20
0.9459173228346457
 30
0.0
  0
SPLINE
  5
2D
330
1F
100
AcDbEntity
  8
LAYER_1
 62
   250
100
AcDbSpline
210
0.0
220
0.0
230
1.0
 70
    11
 71
     3
 72
   104
 73
   100
 74
     0
 42
0.0000000001
 43
0.0000000001
 40
0.0
 40
0.0
 40
0.0
 40
0.0
 40
0.04
 40
0.04
 40
0.04
 40
0.04
 40
0.08
 40
0.08
 40
0.08
 40
0.08
 40
0.12
 40
0.12
 40
0.12
 40
0.12
 40
0.16
 40
0.16
 40
0.16
 40
0.16
 40
0.2
 40
0.2
 40
0.2
 40
0.2
 40
0.24
 40
0.24
 40
0.24
 40
0.24
 40
0.28
 40
0.28
 40
0.28
 40
0.28
 40
0.32
 40
0.32
 40
0.32
 40
0.32
 40
0.36
 40
0.36
 40
0.36
 40
0.36
 40
0.4
 40
0.4
 40
0.4
 40
0.4
 40
0.44
 40
0.44
 40
0.44
 40
0.44
 40
0.4799999999999999
 40
0.4799999999999999
 40
0.4799999999999999
 40
0.4799999999999999
 40
0.5199999999999999
 40
0.5199999999999999
 40
0.5199999999999999
 40
0.5199999999999999
 40
0.5599999999999999
 40
0.5599999999999999
 40
0.5599999999999999
 40
0.5599999999999999
 40
0.6
 40
0.6
 40
0.6
 40
0.6
 40
0.64
 40
0.64
 40
0.64
 40
0.64
 40
0.6800000000000001
 40
0.6800000000000001
 40
0.6800000000000001
 40
0.6800000000000001
 40
0.7200000000000001
 40
0.7200000000000001
 40
0.7200000000000001
 40
0.7200000000000001
 40
0.7600000000000001
 40
0.7600000000000001
 40
0.7600000000000001
 40
0.7600000000000001
 40
0.8000000000000002
 40
0.8000000000000002
 40
0.8000000000000002
 40
0.8000000000000002
 40
0.8400000000000002
 40
0.8400000000000002
 40
0.8400000000000002
 40
0.8400000000000002
 40
0.8800000000000002
 40
0.8800000000000002
 40
0.8800000000000002
 40
0.8800000000000002
 40
0.9200000000000003
 40
0.9200000000000003
 40
0.9200000000000003
 40
0.9200000000000003
 40
0.9600000000000003
 40
0.9600000000000003
 40
0.9600000000000003
 40
0.9600000000000003
 40
1.0
 40
1.0
 40
1.0
 40
1.0
 10
-1.614102362204724
 20
0.848251968503937
 30
0.0
 10
-1.614102362204724
 20
0.848251968503937
 30
0.0
 10
-1.560129921259843
 20
0.848251968503937
 30
0.0
 10
-1.560129921259843
 20
0.848251968503937
 30
0.0
 10
-1.560129921259843
 20
0.848251968503937
 30
0.0
 10
-1.54696062992126
 20
0.848251968503937
 30
0.0
 10
-1.537933070866142
 20
0.8476417322834646
 30
0.0
 10
-1.533047244094488
 20
0.8464448818897639
 30
0.0
 10
-1.533047244094488
 20
0.8464448818897639
 30
0.0
 10
-1.525822834645669
 20
0.8447244094488189
 30
0.0
 10
-1.520129921259843
 20
0.8415866141732283
 30
0.0
 10
-1.515905511811024
 20
0.8370275590551182
 30
0.0
 10
-1.515905511811024
 20
0.8370275590551182
 30
0.0
 10
-1.511712598425197
 20
0.8324724409448819
 30
0.0
 10
-1.509602362204725
 20
0.8269724409448819
 30
0.0
 10
-1.509602362204725
 20
0.8205866141732284
 30
0.0
 10
-1.509602362204725
 20
0.8205866141732284
 30
0.0
 10
-1.509602362204725
 20
0.815972440944882
 30
0.0
 10
-1.510712598425197
 20
0.8118346456692914
 30
0.0
 10
-1.512933070866142
 20
0.8081692913385827
 30
0.0
 10
-1.512933070866142
 20
0.8081692913385827
 30
0.0
 10
-1.515157480314961
 20
0.8045
 30
0.0
 10
-1.518405511811024
 20
0.8013622047244094
 30
0.0
 10
-1.522629921259843
 20
0.7987795275590551
 30
0.0
 10
-1.522629921259843
 20
0.7987795275590551
 30
0.0
 10
-1.525350393700788
 20
0.7970866141732284
 30
0.0
 10
-1.52901968503937
 20
0.7956417322834646
 30
0.0
 10
-1.533685039370079
 20
0.7944448818897638
 30
0.0
 10
-1.533685039370079
 20
0.7944448818897638
 30
0.0
 10
-1.527767716535433
 20
0.7933622047244094
 30
0.0
 10
-1.523267716535433
 20
0.7920590551181103
 30
0.0
 10
-1.520185039370079
 20
0.7905590551181103
 30
0.0
 10
-1.520185039370079
 20
0.7905590551181103
 30
0.0
 10
-1.51551968503937
 20
0.7882795275590552
 30
0.0
 10
-1.511822834645669
 20
0.7850314960629922
 30
0.0
 10
-1.509129921259843
 20
0.7807795275590551
 30
0.0
 10
-1.509129921259843
 20
0.7807795275590551
 30
0.0
 10
-1.506405511811024
 20
0.7765590551181103
 30
0.0
 10
-1.505047244094488
 20
0.7717795275590551
 30
0.0
 10
-1.505047244094488
 20
0.7664724409448819
 30
0.0
 10
-1.505047244094488
 20
0.7664724409448819
 30
0.0
 10
-1.505047244094488
 20
0.7613070866141732
 30
0.0
 10
-1.506377952755906
 20
0.7565314960629922
 30
0.0
 10
-1.509047244094488
 20
0.7521417322834646
 30
0.0
 10
-1.509047244094488
 20
0.7521417322834646
 30
0.0
 10
-1.511685039370079
 20
0.747751968503937
 30
0.0
 10
-1.51546062992126
 20
0.7441417322834646
 30
0.0
 10
-1.520295275590551
 20
0.7413070866141732
 30
0.0
 10
-1.520295275590551
 20
0.7413070866141732
 30
0.0
 10
-1.525157480314961
 20
0.7385039370078741
 30
0.0
 10
-1.530822834645669
 20
0.7366968503937008
 30
0.0
 10
-1.537267716535433
 20
0.7358897637795276
 30
0.0
 10
-1.537267716535433
 20
0.7358897637795276
 30
0.0
 10
-1.543740157480315
 20
0.7351141732283465
 30
0.0
 10
-1.550377952755906
 20
0.7347244094488189
 30
0.0
 10
-1.557212598425197
 20
0.7347244094488189
 30
0.0
 10
-1.557212598425197
 20
0.7347244094488189
 30
0.0
 10
-1.557212598425197
 20
0.7347244094488189
 30
0.0
 10
-1.614102362204724
 20
0.7347244094488189
 30
0.0
 10
-1.614102362204724
 20
0.7347244094488189
 30
0.0
 10
-1.614102362204724
 20
0.7347244094488189
 30
0.0
 10
-1.614102362204724
 20
0.7347244094488189
 30
0.0
 10
-1.614102362204724
 20
0.7415590551181103
 30
0.0
 10
-1.614102362204724
 20
0.7415590551181103
 30
0.0
 10
-1.614102362204724
 20
0.7415590551181103
 30
0.0
 10
-1.614102362204724
 20
0.7415590551181103
 30
0.0
 10
-1.610267716535433
 20
0.7415590551181103
 30
0.0
 10
-1.610267716535433
 20
0.7415590551181103
 30
0.0
 10
-1.610267716535433
 20
0.7415590551181103
 30
0.0
 10
-1.606570866141732
 20
0.7415590551181103
 30
0.0
 10
-1.604070866141732
 20
0.7421417322834646
 30
0.0
 10
-1.602712598425197
 20
0.7432795275590551
 30
0.0
 10
-1.602712598425197
 20
0.7432795275590551
 30
0.0
 10
-1.600740157480315
 20
0.7448346456692914
 30
0.0
 10
-1.599767716535433
 20
0.7474448818897638
 30
0.0
 10
-1.599767716535433
 20
0.7510866141732284
 30
0.0
 10
-1.599767716535433
 20
0.7510866141732284
 30
0.0
 10
-1.599767716535433
 20
0.7510866141732284
 30
0.0
 10
-1.599767716535433
 20
0.8299448818897638
 30
0.0
 10
-1.599767716535433
 20
0.8299448818897638
 30
0.0
 10
-1.599767716535433
 20
0.8299448818897638
 30
0.0
 10
-1.599767716535433
 20
0.8336417322834646
 30
0.0
 10
-1.600070866141732
 20
0.8361417322834646
 30
0.0
 10
-1.600657480314961
 20
0.8375
 30
0.0
 10
-1.600657480314961
 20
0.8375
 30
0.0
 10
-1.601267716535433
 20
0.8388622047244095
 30
0.0
 10
-1.602157480314961
 20
0.8398346456692913
 30
0.0
 10
-1.603350393700787
 20
0.8404448818897639
 30
0.0
 10
-1.603350393700787
 20
0.8404448818897639
 30
0.0
 10
-1.604543307086614
 20
0.8410275590551182
 30
0.0
 10
-1.606850393700787
 20
0.8413346456692914
 30
0.0
 10
-1.610267716535433
 20
0.8413346456692914
 30
0.0
 10
-1.610267716535433
 20
0.8413346456692914
 30
0.0
 10
-1.610267716535433
 20
0.8413346456692914
 30
0.0
 10
-1.614102362204724
 20
0.8413346456692914
 30
0.0
 10
-1.614102362204724
 20
0.8413346456692914
 30
0.0
 10
-1.614102362204724
 20
0.8413346456692914
 30
0.0
 10
-1.614102362204724
 20
0.8413346456692914
 30
0.0
 10
-1.614102362204724
 20
0.848251968503937
 30
0.0
 10
-1.614102362204724
 20
0.848251968503937
 30
0.0
  0
SPLINE
  5
2E
330
1F
100
AcDbEntity
  8
LAYER_1
 62
   250
100
AcDbSpline
210
0.0
220
0.0
230
1.0
 70
    11
 71
     3
 72
    40
 73
    36
 74
     0
 42
0.0000000001
 43
0.0000000001
 40
0.0
 40
0.0
 40
0.0
 40
0.0
 40
0.1111111111111111
 40
0.1111111111111111
 40
0.1111111111111111
 40
0.1111111111111111
 40
0.2222222222222222
 40
0.2222222222222222
 40
0.2222222222222222
 40
0.2222222222222222
 40
0.3333333333333333
 40
0.3333333333333333
 40
0.3333333333333333
 40
0.3333333333333333
 40
0.4444444444444444
 40
0.4444444444444444
 40
0.4444444444444444
 40
0.4444444444444444
 40
0.5555555555555556
 40
0.5555555555555556
 40
0.5555555555555556
 40
0.5555555555555556
 40
0.6666666666666667
 40
0.6666666666666667
 40
0.6666666666666667
 40
0.6666666666666667
 40
0.7777777777777779
 40
0.7777777777777779
 40
0.7777777777777779
 40
0.7777777777777779
 40
0.8888888888888891
 40
0.8888888888888891
 40
0.8888888888888891
 40
0.8888888888888891
 40
1.0
 40
1.0
 40
1.0
 40
1.0
 10
-1.584543307086614
 20
0.8392244094488189
 30
0.0
 10
-1.584543307086614
 20
0.8392244094488189
 30
0.0
 10
-1.584543307086614
 20
0.7976417322834646
 30
0.0
 10
-1.584543307086614
 20
0.7976417322834646
 30
0.0
 10
-1.584543307086614
 20
0.7976417322834646
 30
0.0
 10
-1.584543307086614
 20
0.7976417322834646
 30
0.0
 10
-1.563795275590551
 20
0.7976417322834646
 30
0.0
 10
-1.563795275590551
 20
0.7976417322834646
 30
0.0
 10
-1.563795275590551
 20
0.7976417322834646
 30
0.0
 10
-1.554102362204725
 20
0.7976417322834646
 30
0.0
 10
-1.547433070866142
 20
0.7980866141732284
 30
0.0
 10
-1.543877952755906
 20
0.799
 30
0.0
 10
-1.543877952755906
 20
0.799
 30
0.0
 10
-1.538267716535433
 20
0.8004724409448819
 30
0.0
 10
-1.53401968503937
 20
0.802972440944882
 30
0.0
 10
-1.531047244094488
 20
0.8065
 30
0.0
 10
-1.531047244094488
 20
0.8065
 30
0.0
 10
-1.528102362204725
 20
0.8100275590551181
 30
0.0
 10
-1.526602362204725
 20
0.8145590551181102
 30
0.0
 10
-1.526602362204725
 20
0.8200866141732284
 30
0.0
 10
-1.526602362204725
 20
0.8200866141732284
 30
0.0
 10
-1.526602362204725
 20
0.8247519685039371
 30
0.0
 10
-1.52796062992126
 20
0.8286417322834646
 30
0.0
 10
-1.530629921259843
 20
0.8317795275590552
 30
0.0
 10
-1.530629921259843
 20
0.8317795275590552
 30
0.0
 10
-1.533322834645669
 20
0.8348897637795276
 30
0.0
 10
-1.536933070866142
 20
0.8370275590551182
 30
0.0
 10
-1.541433070866142
 20
0.8381692913385828
 30
0.0
 10
-1.541433070866142
 20
0.8381692913385828
 30
0.0
 10
-1.544350393700787
 20
0.8388622047244095
 30
0.0
 10
-1.550433070866142
 20
0.8392244094488189
 30
0.0
 10
-1.559657480314961
 20
0.8392244094488189
 30
0.0
 10
-1.559657480314961
 20
0.8392244094488189
 30
0.0
 10
-1.559657480314961
 20
0.8392244094488189
 30
0.0
 10
-1.584543307086614
 20
0.8392244094488189
 30
0.0
 10
-1.584543307086614
 20
0.8392244094488189
 30
0.0
  0
SPLINE
  5
2F
330
1F
100
AcDbEntity
  8
LAYER_1
 62
   250
100
AcDbSpline
210
0.0
220
0.0
230
1.0
 70
    11
 71
     3
 72
    52
 73
    48
 74
     0
 42
0.0000000001
 43
0.0000000001
 40
0.0
 40
0.0
 40
0.0
 40
0.0
 40
0.0833333333333333
 40
0.0833333333333333
 40
0.0833333333333333
 40
0.0833333333333333
 40
0.1666666666666667
 40
0.1666666666666667
 40
0.1666666666666667
 40
0.1666666666666667
 40
0.25
 40
0.25
 40
0.25
 40
0.25
 40
0.3333333333333333
 40
0.3333333333333333
 40
0.3333333333333333
 40
0.3333333333333333
 40
0.4166666666666666
 40
0.4166666666666666
 40
0.4166666666666666
 40
0.4166666666666666
 40
0.4999999999999999
 40
0.4999999999999999
 40
0.4999999999999999
 40
0.4999999999999999
 40
0.5833333333333333
 40
0.5833333333333333
 40
0.5833333333333333
 40
0.5833333333333333
 40
0.6666666666666666
 40
0.6666666666666666
 40
0.6666666666666666
 40
0.6666666666666666
 40
0.75
 40
0.75
 40
0.75
 40
0.75
 40
0.8333333333333334
 40
0.8333333333333334
 40
0.8333333333333334
 40
0.8333333333333334
 40
0.9166666666666667
 40
0.9166666666666667
 40
0.9166666666666667
 40
0.9166666666666667
 40
1.0
 40
1.0
 40
1.0
 40
1.0
 10
-1.584543307086614
 20
0.7898070866141732
 30
0.0
 10
-1.584543307086614
 20
0.7898070866141732
 30
0.0
 10
-1.584543307086614
 20
0.7525590551181103
 30
0.0
 10
-1.584543307086614
 20
0.7525590551181103
 30
0.0
 10
-1.584543307086614
 20
0.7525590551181103
 30
0.0
 10
-1.584543307086614
 20
0.7488070866141733
 30
0.0
 10
-1.584377952755906
 20
0.7465866141732284
 30
0.0
 10
-1.584074803149606
 20
0.7458622047244095
 30
0.0
 10
-1.584074803149606
 20
0.7458622047244095
 30
0.0
 10
-1.583629921259843
 20
0.7448897637795275
 30
0.0
 10
-1.582767716535433
 20
0.744224409448819
 30
0.0
 10
-1.58146062992126
 20
0.7438346456692914
 30
0.0
 10
-1.58146062992126
 20
0.7438346456692914
 30
0.0
 10
-1.580543307086614
 20
0.7435590551181103
 30
0.0
 10
-1.577933070866142
 20
0.7434173228346457
 30
0.0
 10
-1.573657480314961
 20
0.7434173228346457
 30
0.0
 10
-1.573657480314961
 20
0.7434173228346457
 30
0.0
 10
-1.573657480314961
 20
0.7434173228346457
 30
0.0
 10
-1.562574803149606
 20
0.7434173228346457
 30
0.0
 10
-1.562574803149606
 20
0.7434173228346457
 30
0.0
 10
-1.562574803149606
 20
0.7434173228346457
 30
0.0
 10
-1.551629921259843
 20
0.7434173228346457
 30
0.0
 10
-1.543795275590551
 20
0.7440314960629921
 30
0.0
 10
-1.539102362204724
 20
0.7452519685039371
 30
0.0
 10
-1.539102362204724
 20
0.7452519685039371
 30
0.0
 10
-1.534405511811024
 20
0.746472440944882
 30
0.0
 10
-1.530405511811024
 20
0.7490590551181102
 30
0.0
 10
-1.527102362204724
 20
0.7530039370078741
 30
0.0
 10
-1.527102362204724
 20
0.7530039370078741
 30
0.0
 10
-1.523795275590551
 20
0.7569173228346457
 30
0.0
 10
-1.522129921259843
 20
0.7616692913385827
 30
0.0
 10
-1.522129921259843
 20
0.7671968503937008
 30
0.0
 10
-1.522129921259843
 20
0.7671968503937008
 30
0.0
 10
-1.522129921259843
 20
0.7718622047244095
 30
0.0
 10
-1.523488188976378
 20
0.776
 30
0.0
 10
-1.526157480314961
 20
0.7796141732283465
 30
0.0
 10
-1.526157480314961
 20
0.7796141732283465
 30
0.0
 10
-1.528850393700788
 20
0.7832244094488189
 30
0.0
 10
-1.532574803149606
 20
0.7858070866141733
 30
0.0
 10
-1.537322834645669
 20
0.7874173228346457
 30
0.0
 10
-1.537322834645669
 20
0.7874173228346457
 30
0.0
 10
-1.542074803149606
 20
0.7890314960629922
 30
0.0
 10
-1.550488188976378
 20
0.7898070866141732
 30
0.0
 10
-1.562574803149606
 20
0.7898070866141732
 30
0.0
 10
-1.562574803149606
 20
0.7898070866141732
 30
0.0
 10
-1.562574803149606
 20
0.7898070866141732
 30
0.0
 10
-1.584543307086614
 20
0.7898070866141732
 30
0.0
 10
-1.584543307086614
 20
0.7898070866141732
 30
0.0
  0
SPLINE
  5
30
330
1F
100
AcDbEntity
  8
LAYER_1
 62
   250
100
AcDbSpline
210
0.0
220
0.0
230
1.0
 70
    11
 71
     3
 72
   112
 73
   108
 74
     0
 42
0.0000000001
 43
0.0000000001
 40
0.0
 40
0.0
 40
0.0
 40
0.0
 40
0.037037037037037
 40
0.037037037037037
 40
0.037037037037037
 40
0.037037037037037
 40
0.0740740740740741
 40
0.0740740740740741
 40
0.0740740740740741
 40
0.0740740740740741
 40
0.1111111111111111
 40
0.1111111111111111
 40
0.1111111111111111
 40
0.1111111111111111
 40
0.1481481481481481
 40
0.1481481481481481
 40
0.1481481481481481
 40
0.1481481481481481
 40
0.1851851851851852
 40
0.1851851851851852
 40
0.1851851851851852
 40
0.1851851851851852
 40
0.2222222222222222
 40
0.2222222222222222
 40
0.2222222222222222
 40
0.2222222222222222
 40
0.2592592592592592
 40
0.2592592592592592
 40
0.2592592592592592
 40
0.2592592592592592
 40
0.2962962962962963
 40
0.2962962962962963
 40
0.2962962962962963
 40
0.2962962962962963
 40
0.3333333333333333
 40
0.3333333333333333
 40
0.3333333333333333
 40
0.3333333333333333
 40
0.3703703703703704
 40
0.3703703703703704
 40
0.3703703703703704
 40
0.3703703703703704
 40
0.4074074074074074
 40
0.4074074074074074
 40
0.4074074074074074
 40
0.4074074074074074
 40
0.4444444444444444
 40
0.4444444444444444
 40
0.4444444444444444
 40
0.4444444444444444
 40
0.4814814814814815
 40
0.4814814814814815
 40
0.4814814814814815
 40
0.4814814814814815
 40
0.5185185185185185
 40
0.5185185185185185
 40
0.5185185185185185
 40
0.5185185185185185
 40
0.5555555555555556
 40
0.5555555555555556
 40
0.5555555555555556
 40
0.5555555555555556
 40
0.5925925925925926
 40
0.5925925925925926
 40
0.5925925925925926
 40
0.5925925925925926
 40
0.6296296296296295
 40
0.6296296296296295
 40
0.6296296296296295
 40
0.6296296296296295
 40
0.6666666666666665
 40
0.6666666666666665
 40
0.6666666666666665
 40
0.6666666666666665
 40
0.7037037037037035
 40
0.7037037037037035
 40
0.7037037037037035
 40
0.7037037037037035
 40
0.7407407407407405
 40
0.7407407407407405
 40
0.7407407407407405
 40
0.7407407407407405
 40
0.7777777777777775
 40
0.7777777777777775
 40
0.7777777777777775
 40
0.7777777777777775
 40
0.8148148148148144
 40
0.8148148148148144
 40
0.8148148148148144
 40
0.8148148148148144
 40
0.8518518518518514
 40
0.8518518518518514
 40
0.8518518518518514
 40
0.8518518518518514
 40
0.8888888888888884
 40
0.8888888888888884
 40
0.8888888888888884
 40
0.8888888888888884
 40
0.9259259259259254
 40
0.9259259259259254
 40
0.9259259259259254
 40
0.9259259259259254
 40
0.9629629629629624
 40
0.9629629629629624
 40
0.9629629629629624
 40
0.9629629629629624
 40
1.0
 40
1.0
 40
1.0
 40
1.0
 10
-1.447437007874016
 20
0.848251968503937
 30
0.0
 10
-1.447437007874016
 20
0.848251968503937
 30
0.0
 10
-1.43401968503937
 20
0.848251968503937
 30
0.0
 10
-1.43401968503937
 20
0.848251968503937
 30
0.0
 10
-1.43401968503937
 20
0.848251968503937
 30
0.0
 10
-1.43401968503937
 20
0.848251968503937
 30
0.0
 10
-1.398771653543307
 20
0.7533622047244095
 30
0.0
 10
-1.398771653543307
 20
0.7533622047244095
 30
0.0
 10
-1.398771653543307
 20
0.7533622047244095
 30
0.0
 10
-1.397047244094488
 20
0.7485866141732284
 30
0.0
 10
-1.395299212598425
 20
0.7454173228346457
 30
0.0
 10
-1.39351968503937
 20
0.7438897637795275
 30
0.0
 10
-1.39351968503937
 20
0.7438897637795275
 30
0.0
 10
-1.391771653543307
 20
0.7423346456692914
 30
0.0
 10
-1.38938188976378
 20
0.7415590551181103
 30
0.0
 10
-1.386409448818898
 20
0.7415590551181103
 30
0.0
 10
-1.386409448818898
 20
0.7415590551181103
 30
0.0
 10
-1.386409448818898
 20
0.7415590551181103
 30
0.0
 10
-1.384629921259843
 20
0.7415590551181103
 30
0.0
 10
-1.384629921259843
 20
0.7415590551181103
 30
0.0
 10
-1.384629921259843
 20
0.7415590551181103
 30
0.0
 10
-1.384629921259843
 20
0.7415590551181103
 30
0.0
 10
-1.384629921259843
 20
0.7347244094488189
 30
0.0
 10
-1.384629921259843
 20
0.7347244094488189
 30
0.0
 10
-1.384629921259843
 20
0.7347244094488189
 30
0.0
 10
-1.384629921259843
 20
0.7347244094488189
 30
0.0
 10
-1.425074803149606
 20
0.7347244094488189
 30
0.0
 10
-1.425074803149606
 20
0.7347244094488189
 30
0.0
 10
-1.425074803149606
 20
0.7347244094488189
 30
0.0
 10
-1.425074803149606
 20
0.7347244094488189
 30
0.0
 10
-1.425074803149606
 20
0.7415590551181103
 30
0.0
 10
-1.425074803149606
 20
0.7415590551181103
 30
0.0
 10
-1.425074803149606
 20
0.7415590551181103
 30
0.0
 10
-1.423771653543307
 20
0.7416692913385827
 30
0.0
 10
-1.422492125984252
 20
0.7417244094488189
 30
0.0
 10
-1.421240157480315
 20
0.7417244094488189
 30
0.0
 10
-1.421240157480315
 20
0.7417244094488189
 30
0.0
 10
-1.418629921259843
 20
0.7417244094488189
 30
0.0
 10
-1.416937007874016
 20
0.742003937007874
 30
0.0
 10
-1.416102362204724
 20
0.7425314960629922
 30
0.0
 10
-1.416102362204724
 20
0.7425314960629922
 30
0.0
 10
-1.414547244094488
 20
0.7435590551181103
 30
0.0
 10
-1.413744094488189
 20
0.7448622047244095
 30
0.0
 10
-1.413744094488189
 20
0.7464448818897638
 30
0.0
 10
-1.413744094488189
 20
0.7464448818897638
 30
0.0
 10
-1.413744094488189
 20
0.7475866141732284
 30
0.0
 10
-1.41451968503937
 20
0.7503622047244095
 30
0.0
 10
-1.41601968503937
 20
0.7548346456692914
 30
0.0
 10
-1.41601968503937
 20
0.7548346456692914
 30
0.0
 10
-1.41601968503937
 20
0.7548346456692914
 30
0.0
 10
-1.42351968503937
 20
0.7768070866141733
 30
0.0
 10
-1.42351968503937
 20
0.7768070866141733
 30
0.0
 10
-1.42351968503937
 20
0.7768070866141733
 30
0.0
 10
-1.42351968503937
 20
0.7768070866141733
 30
0.0
 10
-1.464685039370079
 20
0.7768070866141733
 30
0.0
 10
-1.464685039370079
 20
0.7768070866141733
 30
0.0
 10
-1.464685039370079
 20
0.7768070866141733
 30
0.0
 10
-1.464685039370079
 20
0.7768070866141733
 30
0.0
 10
-1.473492125984252
 20
0.752224409448819
 30
0.0
 10
-1.473492125984252
 20
0.752224409448819
 30
0.0
 10
-1.473492125984252
 20
0.752224409448819
 30
0.0
 10
-1.474409448818898
 20
0.7496692913385827
 30
0.0
 10
-1.47488188976378
 20
0.7479173228346457
 30
0.0
 10
-1.47488188976378
 20
0.7469173228346457
 30
0.0
 10
-1.47488188976378
 20
0.7469173228346457
 30
0.0
 10
-1.47488188976378
 20
0.7458346456692914
 30
0.0
 10
-1.474574803149606
 20
0.7448897637795275
 30
0.0
 10
-1.47401968503937
 20
0.7440866141732284
 30
0.0
 10
-1.47401968503937
 20
0.7440866141732284
 30
0.0
 10
-1.473437007874016
 20
0.7432795275590551
 30
0.0
 10
-1.472685039370079
 20
0.7426692913385827
 30
0.0
 10
-1.471685039370079
 20
0.742251968503937
 30
0.0
 10
-1.471685039370079
 20
0.742251968503937
 30
0.0
 10
-1.470712598425197
 20
0.7418346456692914
 30
0.0
 10
-1.469157480314961
 20
0.7416417322834646
 30
0.0
 10
-1.466964566929134
 20
0.7416417322834646
 30
0.0
 10
-1.466964566929134
 20
0.7416417322834646
 30
0.0
 10
-1.46551968503937
 20
0.7416417322834646
 30
0.0
 10
-1.464326771653543
 20
0.7416141732283464
 30
0.0
 10
-1.463409448818898
 20
0.7415590551181103
 30
0.0
 10
-1.463409448818898
 20
0.7415590551181103
 30
0.0
 10
-1.463409448818898
 20
0.7415590551181103
 30
0.0
 10
-1.463409448818898
 20
0.7347244094488189
 30
0.0
 10
-1.463409448818898
 20
0.7347244094488189
 30
0.0
 10
-1.463409448818898
 20
0.7347244094488189
 30
0.0
 10
-1.463409448818898
 20
0.7347244094488189
 30
0.0
 10
-1.497326771653543
 20
0.7347244094488189
 30
0.0
 10
-1.497326771653543
 20
0.7347244094488189
 30
0.0
 10
-1.497326771653543
 20
0.7347244094488189
 30
0.0
 10
-1.497326771653543
 20
0.7347244094488189
 30
0.0
 10
-1.497326771653543
 20
0.7415590551181103
 30
0.0
 10
-1.497326771653543
 20
0.7415590551181103
 30
0.0
 10
-1.497326771653543
 20
0.7415590551181103
 30
0.0
 10
-1.494185039370079
 20
0.7415590551181103
 30
0.0
 10
-1.491909448818898
 20
0.7418622047244095
 30
0.0
 10
-1.490547244094488
 20
0.7425039370078741
 30
0.0
 10
-1.490547244094488
 20
0.7425039370078741
 30
0.0
 10
-1.489157480314961
 20
0.7431141732283465
 30
0.0
 10
-1.487937007874016
 20
0.7441141732283465
 30
0.0
 10
-1.486909448818898
 20
0.7455039370078741
 30
0.0
 10
-1.486909448818898
 20
0.7455039370078741
 30
0.0
 10
-1.48588188976378
 20
0.7468897637795275
 30
0.0
 10
-1.48451968503937
 20
0.7498070866141733
 30
0.0
 10
-1.482854330708662
 20
0.7542519685039371
 30
0.0
 10
-1.482854330708662
 20
0.7542519685039371
 30
0.0
 10
-1.482854330708662
 20
0.7542519685039371
 30
0.0
 10
-1.447437007874016
 20
0.848251968503937
 30
0.0
 10
-1.447437007874016
 20
0.848251968503937
 30
0.0
  0
SPLINE
  5
31
330
1F
100
AcDbEntity
  8
LAYER_1
 62
   250
100
AcDbSpline
210
0.0
220
0.0
230
1.0
 70
    11
 71
     3
 72
    16
 73
    12
 74
     0
 42
0.0000000001
 43
0.0000000001
 40
0.0
 40
0.0
 40
0.0
 40
0.0
 40
0.3333333333333333
 40
0.3333333333333333
 40
0.3333333333333333
 40
0.3333333333333333
 40
0.6666666666666666
 40
0.6666666666666666
 40
0.6666666666666666
 40
0.6666666666666666
 40
1.0
 40
1.0
 40
1.0
 40
1.0
 10
-1.461685039370079
 20
0.7847795275590551
 30
0.0
 10
-1.461685039370079
 20
0.7847795275590551
 30
0.0
 10
-1.426602362204724
 20
0.7847795275590551
 30
0.0
 10
-1.426602362204724
 20
0.7847795275590551
 30
0.0
 10
-1.426602362204724
 20
0.7847795275590551
 30
0.0
 10
-1.426602362204724
 20
0.7847795275590551
 30
0.0
 10
-1.444185039370079
 20
0.8336141732283465
 30
0.0
 10
-1.444185039370079
 20
0.8336141732283465
 30
0.0
 10
-1.444185039370079
 20
0.8336141732283465
 30
0.0
 10
-1.444185039370079
 20
0.8336141732283465
 30
0.0
 10
-1.461685039370079
 20
0.7847795275590551
 30
0.0
 10
-1.461685039370079
 20
0.7847795275590551
 30
0.0
  0
SPLINE
  5
32
330
1F
100
AcDbEntity
  8
LAYER_1
 62
   250
100
AcDbSpline
210
0.0
220
0.0
230
1.0
 70
    11
 71
     3
 72
    72
 73
    68
 74
     0
 42
0.0000000001
 43
0.0000000001
 40
0.0
 40
0.0
 40
0.0
 40
0.0
 40
0.0588235294117647
 40
0.0588235294117647
 40
0.0588235294117647
 40
0.0588235294117647
 40
0.1176470588235294
 40
0.1176470588235294
 40
0.1176470588235294
 40
0.1176470588235294
 40
0.1764705882352941
 40
0.1764705882352941
 40
0.1764705882352941
 40
0.1764705882352941
 40
0.2352941176470588
 40
0.2352941176470588
 40
0.2352941176470588
 40
0.2352941176470588
 40
0.2941176470588235
 40
0.2941176470588235
 40
0.2941176470588235
 40
0.2941176470588235
 40
0.3529411764705883
 40
0.3529411764705883
 40
0.3529411764705883
 40
0.3529411764705883
 40
0.411764705882353
 40
0.411764705882353
 40
0.411764705882353
 40
0.411764705882353
 40
0.4705882352941177
 40
0.4705882352941177
 40
0.4705882352941177
 40
0.4705882352941177
 40
0.5294117647058824
 40
0.5294117647058824
 40
0.5294117647058824
 40
0.5294117647058824
 40
0.5882352941176471
 40
0.5882352941176471
 40
0.5882352941176471
 40
0.5882352941176471
 40
0.6470588235294118
 40
0.6470588235294118
 40
0.6470588235294118
 40
0.6470588235294118
 40
0.7058823529411765
 40
0.7058823529411765
 40
0.7058823529411765
 40
0.7058823529411765
 40
0.7647058823529412
 40
0.7647058823529412
 40
0.7647058823529412
 40
0.7647058823529412
 40
0.823529411764706
 40
0.823529411764706
 40
0.823529411764706
 40
0.823529411764706
 40
0.8823529411764707
 40
0.8823529411764707
 40
0.8823529411764707
 40
0.8823529411764707
 40
0.9411764705882354
 40
0.9411764705882354
 40
0.9411764705882354
 40
0.9411764705882354
 40
1.0
 40
1.0
 40
1.0
 40
1.0
 10
-1.221602362204725
 20
0.848251968503937
 30
0.0
 10
-1.221602362204725
 20
0.848251968503937
 30
0.0
 10
-1.21551968503937
 20
0.848251968503937
 30
0.0
 10
-1.21551968503937
 20
0.848251968503937
 30
0.0
 10
-1.21551968503937
 20
0.848251968503937
 30
0.0
 10
-1.21551968503937
 20
0.848251968503937
 30
0.0
 10
-1.21551968503937
 20
0.7540039370078741
 30
0.0
 10
-1.21551968503937
 20
0.7540039370078741
 30
0.0
 10
-1.21551968503937
 20
0.7540039370078741
 30
0.0
 10
-1.21551968503937
 20
0.7495590551181103
 30
0.0
 10
-1.215212598425197
 20
0.7466968503937008
 30
0.0
 10
-1.214657480314961
 20
0.7454173228346457
 30
0.0
 10
-1.214657480314961
 20
0.7454173228346457
 30
0.0
 10
-1.214074803149606
 20
0.7441417322834646
 30
0.0
 10
-1.213157480314961
 20
0.7431968503937009
 30
0.0
 10
-1.211854330708662
 20
0.7425314960629922
 30
0.0
 10
-1.211854330708662
 20
0.7425314960629922
 30
0.0
 10
-1.210547244094488
 20
0.7418897637795275
 30
0.0
 10
-1.207964566929134
 20
0.7415590551181103
 30
0.0
 10
-1.204102362204724
 20
0.7415590551181103
 30
0.0
 10
-1.204102362204724
 20
0.7415590551181103
 30
0.0
 10
-1.204102362204724
 20
0.7415590551181103
 30
0.0
 10
-1.196129921259843
 20
0.7415590551181103
 30
0.0
 10
-1.196129921259843
 20
0.7415590551181103
 30
0.0
 10
-1.196129921259843
 20
0.7415590551181103
 30
0.0
 10
-1.196129921259843
 20
0.7415590551181103
 30
0.0
 10
-1.196129921259843
 20
0.7347244094488189
 30
0.0
 10
-1.196129921259843
 20
0.7347244094488189
 30
0.0
 10
-1.196129921259843
 20
0.7347244094488189
 30
0.0
 10
-1.196129921259843
 20
0.7347244094488189
 30
0.0
 10
-1.249767716535433
 20
0.7347244094488189
 30
0.0
 10
-1.249767716535433
 20
0.7347244094488189
 30
0.0
 10
-1.249767716535433
 20
0.7347244094488189
 30
0.0
 10
-1.249767716535433
 20
0.7347244094488189
 30
0.0
 10
-1.249767716535433
 20
0.7415590551181103
 30
0.0
 10
-1.249767716535433
 20
0.7415590551181103
 30
0.0
 10
-1.249767716535433
 20
0.7415590551181103
 30
0.0
 10
-1.249767716535433
 20
0.7415590551181103
 30
0.0
 10
-1.240909448818898
 20
0.7415590551181103
 30
0.0
 10
-1.240909448818898
 20
0.7415590551181103
 30
0.0
 10
-1.240909448818898
 20
0.7415590551181103
 30
0.0
 10
-1.237047244094488
 20
0.7415590551181103
 30
0.0
 10
-1.234492125984252
 20
0.7418897637795275
 30
0.0
 10
-1.233212598425197
 20
0.7425866141732284
 30
0.0
 10
-1.233212598425197
 20
0.7425866141732284
 30
0.0
 10
-1.231937007874016
 20
0.743251968503937
 30
0.0
 10
-1.230937007874016
 20
0.7443346456692914
 30
0.0
 10
-1.230240157480315
 20
0.7458346456692914
 30
0.0
 10
-1.230240157480315
 20
0.7458346456692914
 30
0.0
 10
-1.229547244094488
 20
0.7473346456692914
 30
0.0
 10
-1.229185039370079
 20
0.7500590551181102
 30
0.0
 10
-1.229185039370079
 20
0.7540039370078741
 30
0.0
 10
-1.229185039370079
 20
0.7540039370078741
 30
0.0
 10
-1.229185039370079
 20
0.7540039370078741
 30
0.0
 10
-1.229185039370079
 20
0.8314724409448819
 30
0.0
 10
-1.229185039370079
 20
0.8314724409448819
 30
0.0
 10
-1.229185039370079
 20
0.8314724409448819
 30
0.0
 10
-1.229185039370079
 20
0.8314724409448819
 30
0.0
 10
-1.249767716535433
 20
0.8314724409448819
 30
0.0
 10
-1.249767716535433
 20
0.8314724409448819
 30
0.0
 10
-1.249767716535433
 20
0.8314724409448819
 30
0.0
 10
-1.249767716535433
 20
0.8314724409448819
 30
0.0
 10
-1.249767716535433
 20
0.8384724409448819
 30
0.0
 10
-1.249767716535433
 20
0.8384724409448819
 30
0.0
 10
-1.249767716535433
 20
0.8384724409448819
 30
0.0
 10
-1.238547244094488
 20
0.8400551181102363
 30
0.0
 10
-1.229157480314961
 20
0.8433070866141733
 30
0.0
 10
-1.221602362204725
 20
0.848251968503937
 30
0.0
  0
SPLINE
  5
33
330
1F
100
AcDbEntity
  8
LAYER_1
 62
   250
100
AcDbSpline
210
0.0
220
0.0
230
1.0
 70
    11
 71
     3
 72
    80
 73
    76
 74
     0
 42
0.0000000001
 43
0.0000000001
 40
0.0
 40
0.0
 40
0.0
 40
0.0
 40
0.0526315789473684
 40
0.0526315789473684
 40
0.0526315789473684
 40
0.0526315789473684
 40
0.1052631578947368
 40
0.1052631578947368
 40
0.1052631578947368
 40
0.1052631578947368
 40
0.1578947368421053
 40
0.1578947368421053
 40
0.1578947368421053
 40
0.1578947368421053
 40
0.2105263157894737
 40
0.2105263157894737
 40
0.2105263157894737
 40
0.2105263157894737
 40
0.2631578947368421
 40
0.2631578947368421
 40
0.2631578947368421
 40
0.2631578947368421
 40
0.3157894736842105
 40
0.3157894736842105
 40
0.3157894736842105
 40
0.3157894736842105
 40
0.3684210526315789
 40
0.3684210526315789
 40
0.3684210526315789
 40
0.3684210526315789
 40
0.4210526315789474
 40
0.4210526315789474
 40
0.4210526315789474
 40
0.4210526315789474
 40
0.4736842105263158
 40
0.4736842105263158
 40
0.4736842105263158
 40
0.4736842105263158
 40
0.5263157894736842
 40
0.5263157894736842
 40
0.5263157894736842
 40
0.5263157894736842
 40
0.5789473684210527
 40
0.5789473684210527
 40
0.5789473684210527
 40
0.5789473684210527
 40
0.631578947368421
 40
0.631578947368421
 40
0.631578947368421
 40
0.631578947368421
 40
0.6842105263157894
 40
0.6842105263157894
 40
0.6842105263157894
 40
0.6842105263157894
 40
0.7368421052631577
 40
0.7368421052631577
 40
0.7368421052631577
 40
0.7368421052631577
 40
0.7894736842105261
 40
0.7894736842105261
 40
0.7894736842105261
 40
0.7894736842105261
 40
0.8421052631578945
 40
0.8421052631578945
 40
0.8421052631578945
 40
0.8421052631578945
 40
0.8947368421052628
 40
0.8947368421052628
 40
0.8947368421052628
 40
0.8947368421052628
 40
0.9473684210526312
 40
0.9473684210526312
 40
0.9473684210526312
 40
0.9473684210526312
 40
1.0
 40
1.0
 40
1.0
 40
1.0
 10
-1.156185039370079
 20
0.8523897637795276
 30
0.0
 10
-1.156185039370079
 20
0.8523897637795276
 30
0.0
 10
-1.150795275590551
 20
0.8523897637795276
 30
0.0
 10
-1.150795275590551
 20
0.8523897637795276
 30
0.0
 10
-1.150795275590551
 20
0.8523897637795276
 30
0.0
 10
-1.150795275590551
 20
0.8523897637795276
 30
0.0
 10
-1.149822834645669
 20
0.848251968503937
 30
0.0
 10
-1.149822834645669
 20
0.848251968503937
 30
0.0
 10
-1.149822834645669
 20
0.848251968503937
 30
0.0
 10
-1.149822834645669
 20
0.848251968503937
 30
0.0
 10
-1.078712598425197
 20
0.848251968503937
 30
0.0
 10
-1.078712598425197
 20
0.848251968503937
 30
0.0
 10
-1.078712598425197
 20
0.848251968503937
 30
0.0
 10
-1.078712598425197
 20
0.848251968503937
 30
0.0
 10
-1.078712598425197
 20
0.8413346456692914
 30
0.0
 10
-1.078712598425197
 20
0.8413346456692914
 30
0.0
 10
-1.078712598425197
 20
0.8413346456692914
 30
0.0
 10
-1.087212598425197
 20
0.8315
 30
0.0
 10
-1.094937007874016
 20
0.8203346456692914
 30
0.0
 10
-1.101850393700788
 20
0.8077519685039371
 30
0.0
 10
-1.101850393700788
 20
0.8077519685039371
 30
0.0
 10
-1.108767716535433
 20
0.7951968503937008
 30
0.0
 10
-1.114129921259843
 20
0.7824173228346457
 30
0.0
 10
-1.117937007874016
 20
0.7693897637795276
 30
0.0
 10
-1.117937007874016
 20
0.7693897637795276
 30
0.0
 10
-1.120685039370079
 20
0.7600039370078741
 30
0.0
 10
-1.122933070866142
 20
0.7484448818897638
 30
0.0
 10
-1.124685039370079
 20
0.7347244094488189
 30
0.0
 10
-1.124685039370079
 20
0.7347244094488189
 30
0.0
 10
-1.124685039370079
 20
0.7347244094488189
 30
0.0
 10
-1.141350393700787
 20
0.7347244094488189
 30
0.0
 10
-1.141350393700787
 20
0.7347244094488189
 30
0.0
 10
-1.141350393700787
 20
0.7347244094488189
 30
0.0
 10
-1.139740157480315
 20
0.7468346456692914
 30
0.0
 10
-1.137074803149606
 20
0.7581417322834646
 30
0.0
 10
-1.133350393700787
 20
0.7686692913385828
 30
0.0
 10
-1.133350393700787
 20
0.7686692913385828
 30
0.0
 10
-1.129629921259843
 20
0.7791968503937008
 30
0.0
 10
-1.124267716535433
 20
0.7901968503937008
 30
0.0
 10
-1.117240157480315
 20
0.8016692913385827
 30
0.0
 10
-1.117240157480315
 20
0.8016692913385827
 30
0.0
 10
-1.110212598425197
 20
0.8131417322834647
 30
0.0
 10
-1.101685039370079
 20
0.8245866141732284
 30
0.0
 10
-1.091629921259843
 20
0.8360275590551182
 30
0.0
 10
-1.091629921259843
 20
0.8360275590551182
 30
0.0
 10
-1.091629921259843
 20
0.8360275590551182
 30
0.0
 10
-1.142350393700788
 20
0.8360275590551182
 30
0.0
 10
-1.142350393700788
 20
0.8360275590551182
 30
0.0
 10
-1.142350393700788
 20
0.8360275590551182
 30
0.0
 10
-1.14601968503937
 20
0.8360275590551182
 30
0.0
 10
-1.148547244094488
 20
0.8358622047244095
 30
0.0
 10
-1.149905511811024
 20
0.8354724409448819
 30
0.0
 10
-1.149905511811024
 20
0.8354724409448819
 30
0.0
 10
-1.151267716535433
 20
0.8350866141732284
 30
0.0
 10
-1.152322834645669
 20
0.8345
 30
0.0
 10
-1.153074803149606
 20
0.8336968503937008
 30
0.0
 10
-1.153074803149606
 20
0.8336968503937008
 30
0.0
 10
-1.153850393700787
 20
0.8328622047244095
 30
0.0
 10
-1.154492125984252
 20
0.8314173228346458
 30
0.0
 10
-1.155047244094488
 20
0.8293622047244095
 30
0.0
 10
-1.155047244094488
 20
0.8293622047244095
 30
0.0
 10
-1.155047244094488
 20
0.8293622047244095
 30
0.0
 10
-1.155433070866142
 20
0.8278346456692913
 30
0.0
 10
-1.155433070866142
 20
0.8278346456692913
 30
0.0
 10
-1.155433070866142
 20
0.8278346456692913
 30
0.0
 10
-1.155433070866142
 20
0.8278346456692913
 30
0.0
 10
-1.158212598425197
 20
0.8182244094488189
 30
0.0
 10
-1.158212598425197
 20
0.8182244094488189
 30
0.0
 10
-1.158212598425197
 20
0.8182244094488189
 30
0.0
 10
-1.158212598425197
 20
0.8182244094488189
 30
0.0
 10
-1.165129921259843
 20
0.8196968503937008
 30
0.0
 10
-1.165129921259843
 20
0.8196968503937008
 30
0.0
 10
-1.165129921259843
 20
0.8196968503937008
 30
0.0
 10
-1.165129921259843
 20
0.8196968503937008
 30
0.0
 10
-1.156185039370079
 20
0.8523897637795276
 30
0.0
 10
-1.156185039370079
 20
0.8523897637795276
 30
0.0
  0
SPLINE
  5
34
330
1F
100
AcDbEntity
  8
LAYER_1
 62
   250
100
AcDbSpline
210
0.0
220
0.0
230
1.0
 70
    11
 71
     3
 72
    72
 73
    68
 74
     0
 42
0.0000000001
 43
0.0000000001
 40
0.0
 40
0.0
 40
0.0
 40
0.0
 40
0.0588235294117647
 40
0.0588235294117647
 40
0.0588235294117647
 40
0.0588235294117647
 40
0.1176470588235294
 40
0.1176470588235294
 40
0.1176470588235294
 40
0.1176470588235294
 40
0.1764705882352941
 40
0.1764705882352941
 40
0.1764705882352941
 40
0.1764705882352941
 40
0.2352941176470588
 40
0.2352941176470588
 40
0.2352941176470588
 40
0.2352941176470588
 40
0.2941176470588235
 40
0.2941176470588235
 40
0.2941176470588235
 40
0.2941176470588235
 40
0.3529411764705883
 40
0.3529411764705883
 40
0.3529411764705883
 40
0.3529411764705883
 40
0.411764705882353
 40
0.411764705882353
 40
0.411764705882353
 40
0.411764705882353
 40
0.4705882352941177
 40
0.4705882352941177
 40
0.4705882352941177
 40
0.4705882352941177
 40
0.5294117647058824
 40
0.5294117647058824
 40
0.5294117647058824
 40
0.5294117647058824
 40
0.5882352941176471
 40
0.5882352941176471
 40
0.5882352941176471
 40
0.5882352941176471
 40
0.6470588235294118
 40
0.6470588235294118
 40
0.6470588235294118
 40
0.6470588235294118
 40
0.7058823529411765
 40
0.7058823529411765
 40
0.7058823529411765
 40
0.7058823529411765
 40
0.7647058823529412
 40
0.7647058823529412
 40
0.7647058823529412
 40
0.7647058823529412
 40
0.823529411764706
 40
0.823529411764706
 40
0.823529411764706
 40
0.823529411764706
 40
0.8823529411764707
 40
0.8823529411764707
 40
0.8823529411764707
 40
0.8823529411764707
 40
0.9411764705882354
 40
0.9411764705882354
 40
0.9411764705882354
 40
0.9411764705882354
 40
1.0
 40
1.0
 40
1.0
 40
1.0
 10
-1.014877952755906
 20
0.848251968503937
 30
0.0
 10
-1.014877952755906
 20
0.848251968503937
 30
0.0
 10
-1.008795275590551
 20
0.848251968503937
 30
0.0
 10
-1.008795275590551
 20
0.848251968503937
 30
0.0
 10
-1.008795275590551
 20
0.848251968503937
 30
0.0
 10
-1.008795275590551
 20
0.848251968503937
 30
0.0
 10
-1.008795275590551
 20
0.7540039370078741
 30
0.0
 10
-1.008795275590551
 20
0.7540039370078741
 30
0.0
 10
-1.008795275590551
 20
0.7540039370078741
 30
0.0
 10
-1.008795275590551
 20
0.7495590551181103
 30
0.0
 10
-1.008488188976378
 20
0.7466968503937008
 30
0.0
 10
-1.007933070866142
 20
0.7454173228346457
 30
0.0
 10
-1.007933070866142
 20
0.7454173228346457
 30
0.0
 10
-1.007350393700788
 20
0.7441417322834646
 30
0.0
 10
-1.006433070866142
 20
0.7431968503937009
 30
0.0
 10
-1.005129921259843
 20
0.7425314960629922
 30
0.0
 10
-1.005129921259843
 20
0.7425314960629922
 30
0.0
 10
-1.003822834645669
 20
0.7418897637795275
 30
0.0
 10
-1.001240157480315
 20
0.7415590551181103
 30
0.0
 10
-0.9973779527559056
 20
0.7415590551181103
 30
0.0
 10
-0.9973779527559056
 20
0.7415590551181103
 30
0.0
 10
-0.9973779527559056
 20
0.7415590551181103
 30
0.0
 10
-0.9894055118110237
 20
0.7415590551181103
 30
0.0
 10
-0.9894055118110237
 20
0.7415590551181103
 30
0.0
 10
-0.9894055118110237
 20
0.7415590551181103
 30
0.0
 10
-0.9894055118110237
 20
0.7415590551181103
 30
0.0
 10
-0.9894055118110237
 20
0.7347244094488189
 30
0.0
 10
-0.9894055118110237
 20
0.7347244094488189
 30
0.0
 10
-0.9894055118110237
 20
0.7347244094488189
 30
0.0
 10
-0.9894055118110237
 20
0.7347244094488189
 30
0.0
 10
-1.043043307086614
 20
0.7347244094488189
 30
0.0
 10
-1.043043307086614
 20
0.7347244094488189
 30
0.0
 10
-1.043043307086614
 20
0.7347244094488189
 30
0.0
 10
-1.043043307086614
 20
0.7347244094488189
 30
0.0
 10
-1.043043307086614
 20
0.7415590551181103
 30
0.0
 10
-1.043043307086614
 20
0.7415590551181103
 30
0.0
 10
-1.043043307086614
 20
0.7415590551181103
 30
0.0
 10
-1.043043307086614
 20
0.7415590551181103
 30
0.0
 10
-1.034185039370079
 20
0.7415590551181103
 30
0.0
 10
-1.034185039370079
 20
0.7415590551181103
 30
0.0
 10
-1.034185039370079
 20
0.7415590551181103
 30
0.0
 10
-1.030322834645669
 20
0.7415590551181103
 30
0.0
 10
-1.027767716535433
 20
0.7418897637795275
 30
0.0
 10
-1.026488188976378
 20
0.7425866141732284
 30
0.0
 10
-1.026488188976378
 20
0.7425866141732284
 30
0.0
 10
-1.025212598425197
 20
0.743251968503937
 30
0.0
 10
-1.024212598425197
 20
0.7443346456692914
 30
0.0
 10
-1.023515748031496
 20
0.7458346456692914
 30
0.0
 10
-1.023515748031496
 20
0.7458346456692914
 30
0.0
 10
-1.022822834645669
 20
0.7473346456692914
 30
0.0
 10
-1.02246062992126
 20
0.7500590551181102
 30
0.0
 10
-1.02246062992126
 20
0.7540039370078741
 30
0.0
 10
-1.02246062992126
 20
0.7540039370078741
 30
0.0
 10
-1.02246062992126
 20
0.7540039370078741
 30
0.0
 10
-1.02246062992126
 20
0.8314724409448819
 30
0.0
 10
-1.02246062992126
 20
0.8314724409448819
 30
0.0
 10
-1.02246062992126
 20
0.8314724409448819
 30
0.0
 10
-1.02246062992126
 20
0.8314724409448819
 30
0.0
 10
-1.043043307086614
 20
0.8314724409448819
 30
0.0
 10
-1.043043307086614
 20
0.8314724409448819
 30
0.0
 10
-1.043043307086614
 20
0.8314724409448819
 30
0.0
 10
-1.043043307086614
 20
0.8314724409448819
 30
0.0
 10
-1.043043307086614
 20
0.8384724409448819
 30
0.0
 10
-1.043043307086614
 20
0.8384724409448819
 30
0.0
 10
-1.043043307086614
 20
0.8384724409448819
 30
0.0
 10
-1.031822834645669
 20
0.8400551181102363
 30
0.0
 10
-1.022433070866142
 20
0.8433070866141733
 30
0.0
 10
-1.014877952755906
 20
0.848251968503937
 30
0.0
  0
SPLINE
  5
35
330
1F
100
AcDbEntity
  8
LAYER_1
 62
   250
100
AcDbSpline
210
0.0
220
0.0
230
1.0
 70
    11
 71
     3
 72
   132
 73
   128
 74
     0
 42
0.0000000001
 43
0.0000000001
 40
0.0
 40
0.0
 40
0.0
 40
0.0
 40
0.03125
 40
0.03125
 40
0.03125
 40
0.03125
 40
0.0625
 40
0.0625
 40
0.0625
 40
0.0625
 40
0.09375
 40
0.09375
 40
0.09375
 40
0.09375
 40
0.125
 40
0.125
 40
0.125
 40
0.125
 40
0.15625
 40
0.15625
 40
0.15625
 40
0.15625
 40
0.1875
 40
0.1875
 40
0.1875
 40
0.1875
 40
0.21875
 40
0.21875
 40
0.21875
 40
0.21875
 40
0.25
 40
0.25
 40
0.25
 40
0.25
 40
0.28125
 40
0.28125
 40
0.28125
 40
0.28125
 40
0.3125
 40
0.3125
 40
0.3125
 40
0.3125
 40
0.34375
 40
0.34375
 40
0.34375
 40
0.34375
 40
0.375
 40
0.375
 40
0.375
 40
0.375
 40
0.40625
 40
0.40625
 40
0.40625
 40
0.40625
 40
0.4375
 40
0.4375
 40
0.4375
 40
0.4375
 40
0.46875
 40
0.46875
 40
0.46875
 40
0.46875
 40
0.5
 40
0.5
 40
0.5
 40
0.5
 40
0.53125
 40
0.53125
 40
0.53125
 40
0.53125
 40
0.5625
 40
0.5625
 40
0.5625
 40
0.5625
 40
0.59375
 40
0.59375
 40
0.59375
 40
0.59375
 40
0.625
 40
0.625
 40
0.625
 40
0.625
 40
0.65625
 40
0.65625
 40
0.65625
 40
0.65625
 40
0.6875
 40
0.6875
 40
0.6875
 40
0.6875
 40
0.71875
 40
0.71875
 40
0.71875
 40
0.71875
 40
0.75
 40
0.75
 40
0.75
 40
0.75
 40
0.78125
 40
0.78125
 40
0.78125
 40
0.78125
 40
0.8125
 40
0.8125
 40
0.8125
 40
0.8125
 40
0.84375
 40
0.84375
 40
0.84375
 40
0.84375
 40
0.875
 40
0.875
 40
0.875
 40
0.875
 40
0.90625
 40
0.90625
 40
0.90625
 40
0.90625
 40
0.9375
 40
0.9375
 40
0.9375
 40
0.9375
 40
0.96875
 40
0.96875
 40
0.96875
 40
0.96875
 40
1.0
 40
1.0
 40
1.0
 40
1.0
 10
-0.9451259842519686
 20
0.848251968503937
 30
0.0
 10
-0.9451259842519686
 20
0.848251968503937
 30
0.0
 10
-0.8945157480314961
 20
0.848251968503937
 30
0.0
 10
-0.8945157480314961
 20
0.848251968503937
 30
0.0
 10
-0.8945157480314961
 20
0.848251968503937
 30
0.0
 10
-0.8914330708661418
 20
0.848251968503937
 30
0.0
 10
-0.8895433070866142
 20
0.8484173228346457
 30
0.0
 10
-0.8889055118110236
 20
0.8487519685039371
 30
0.0
 10
-0.8889055118110236
 20
0.8487519685039371
 30
0.0
 10
-0.887988188976378
 20
0.8492795275590551
 30
0.0
 10
-0.8874330708661418
 20
0.8504448818897639
 30
0.0
 10
-0.8872677165354331
 20
0.8522244094488189
 30
0.0
 10
-0.8872677165354331
 20
0.8522244094488189
 30
0.0
 10
-0.8872677165354331
 20
0.8522244094488189
 30
0.0
 10
-0.8813228346456693
 20
0.8522244094488189
 30
0.0
 10
-0.8813228346456693
 20
0.8522244094488189
 30
0.0
 10
-0.8813228346456693
 20
0.8522244094488189
 30
0.0
 10
-0.8813228346456693
 20
0.8522244094488189
 30
0.0
 10
-0.8813228346456693
 20
0.8350551181102363
 30
0.0
 10
-0.8813228346456693
 20
0.8350551181102363
 30
0.0
 10
-0.8813228346456693
 20
0.8350551181102363
 30
0.0
 10
-0.8813228346456693
 20
0.8350551181102363
 30
0.0
 10
-0.9375708661417324
 20
0.8350551181102363
 30
0.0
 10
-0.9375708661417324
 20
0.8350551181102363
 30
0.0
 10
-0.9375708661417324
 20
0.8350551181102363
 30
0.0
 10
-0.9375708661417324
 20
0.8350551181102363
 30
0.0
 10
-0.9389606299212598
 20
0.8064173228346457
 30
0.0
 10
-0.9389606299212598
 20
0.8064173228346457
 30
0.0
 10
-0.9389606299212598
 20
0.8064173228346457
 30
0.0
 10
-0.9366259842519685
 20
0.8070866141732284
 30
0.0
 10
-0.9336535433070866
 20
0.8076141732283465
 30
0.0
 10
-0.9300708661417323
 20
0.8080590551181103
 30
0.0
 10
-0.9300708661417323
 20
0.8080590551181103
 30
0.0
 10
-0.9254606299212599
 20
0.8085866141732284
 30
0.0
 10
-0.9213503937007874
 20
0.8088622047244095
 30
0.0
 10
-0.9177086614173229
 20
0.8088622047244095
 30
0.0
 10
-0.9177086614173229
 20
0.8088622047244095
 30
0.0
 10
-0.9086535433070867
 20
0.8088622047244095
 30
0.0
 10
-0.9007677165354331
 20
0.8072244094488189
 30
0.0
 10
-0.8940157480314961
 20
0.803972440944882
 30
0.0
 10
-0.8940157480314961
 20
0.803972440944882
 30
0.0
 10
-0.8872952755905512
 20
0.800724409448819
 30
0.0
 10
-0.8821850393700788
 20
0.7962519685039371
 30
0.0
 10
-0.8786850393700788
 20
0.7905866141732284
 30
0.0
 10
-0.8786850393700788
 20
0.7905866141732284
 30
0.0
 10
-0.8751850393700787
 20
0.7849173228346457
 30
0.0
 10
-0.8734330708661418
 20
0.7785866141732284
 30
0.0
 10
-0.8734330708661418
 20
0.7715866141732284
 30
0.0
 10
-0.8734330708661418
 20
0.7715866141732284
 30
0.0
 10
-0.8734330708661418
 20
0.760751968503937
 30
0.0
 10
-0.8775157480314961
 20
0.7515590551181103
 30
0.0
 10
-0.8856535433070867
 20
0.7440314960629921
 30
0.0
 10
-0.8856535433070867
 20
0.7440314960629921
 30
0.0
 10
-0.8937952755905512
 20
0.7365314960629922
 30
0.0
 10
-0.9041535433070866
 20
0.7327795275590552
 30
0.0
 10
-0.916740157480315
 20
0.7327795275590552
 30
0.0
 10
-0.916740157480315
 20
0.7327795275590552
 30
0.0
 10
-0.9240157480314961
 20
0.7327795275590552
 30
0.0
 10
-0.9305708661417323
 20
0.7340866141732284
 30
0.0
 10
-0.9364606299212599
 20
0.7366692913385827
 30
0.0
 10
-0.9364606299212599
 20
0.7366692913385827
 30
0.0
 10
-0.9423503937007874
 20
0.7392795275590551
 30
0.0
 10
-0.9469606299212598
 20
0.7427244094488189
 30
0.0
 10
-0.9502677165354331
 20
0.7469724409448819
 30
0.0
 10
-0.9502677165354331
 20
0.7469724409448819
 30
0.0
 10
-0.9535708661417324
 20
0.751224409448819
 30
0.0
 10
-0.9552362204724409
 20
0.7549724409448819
 30
0.0
 10
-0.9552362204724409
 20
0.7581692913385827
 30
0.0
 10
-0.9552362204724409
 20
0.7581692913385827
 30
0.0
 10
-0.9552362204724409
 20
0.7602795275590552
 30
0.0
 10
-0.9545157480314961
 20
0.7621141732283465
 30
0.0
 10
-0.9530984251968504
 20
0.7636692913385828
 30
0.0
 10
-0.9530984251968504
 20
0.7636692913385828
 30
0.0
 10
-0.9517086614173229
 20
0.7651968503937008
 30
0.0
 10
-0.9498779527559056
 20
0.7659724409448819
 30
0.0
 10
-0.9476535433070866
 20
0.7659724409448819
 30
0.0
 10
-0.9476535433070866
 20
0.7659724409448819
 30
0.0
 10
-0.9453779527559055
 20
0.7659724409448819
 30
0.0
 10
-0.9433779527559055
 20
0.7650314960629921
 30
0.0
 10
-0.9416259842519685
 20
0.7631141732283465
 30
0.0
 10
-0.9416259842519685
 20
0.7631141732283465
 30
0.0
 10
-0.9406535433070866
 20
0.7621417322834646
 30
0.0
 10
-0.939488188976378
 20
0.759751968503937
 30
0.0
 10
-0.9381259842519686
 20
0.7559724409448819
 30
0.0
 10
-0.9381259842519686
 20
0.7559724409448819
 30
0.0
 10
-0.9362952755905513
 20
0.7506417322834647
 30
0.0
 10
-0.9335433070866143
 20
0.746751968503937
 30
0.0
 10
-0.9299055118110237
 20
0.744251968503937
 30
0.0
 10
-0.9299055118110237
 20
0.744251968503937
 30
0.0
 10
-0.9263503937007874
 20
0.7416968503937008
 30
0.0
 10
-0.9218228346456693
 20
0.7404173228346457
 30
0.0
 10
-0.9164055118110237
 20
0.7404173228346457
 30
0.0
 10
-0.9164055118110237
 20
0.7404173228346457
 30
0.0
 10
-0.910988188976378
 20
0.7404173228346457
 30
0.0
 10
-0.9061535433070866
 20
0.7416141732283464
 30
0.0
 10
-0.9019330708661417
 20
0.7439724409448819
 30
0.0
 10
-0.9019330708661417
 20
0.7439724409448819
 30
0.0
 10
-0.8976811023622048
 20
0.7463070866141732
 30
0.0
 10
-0.8943503937007874
 20
0.7497244094488189
 30
0.0
 10
-0.8919055118110236
 20
0.7541417322834646
 30
0.0
 10
-0.8919055118110236
 20
0.7541417322834646
 30
0.0
 10
-0.8894606299212599
 20
0.7585590551181103
 30
0.0
 10
-0.888240157480315
 20
0.7634724409448819
 30
0.0
 10
-0.888240157480315
 20
0.7688897637795276
 30
0.0
 10
-0.888240157480315
 20
0.7688897637795276
 30
0.0
 10
-0.888240157480315
 20
0.7746141732283465
 30
0.0
 10
-0.8895708661417323
 20
0.7796692913385828
 30
0.0
 10
-0.8922125984251969
 20
0.7841141732283465
 30
0.0
 10
-0.8922125984251969
 20
0.7841141732283465
 30
0.0
 10
-0.8948228346456694
 20
0.7885590551181103
 30
0.0
 10
-0.8985984251968504
 20
0.7920275590551181
 30
0.0
 10
-0.9035157480314962
 20
0.7944448818897638
 30
0.0
 10
-0.9035157480314962
 20
0.7944448818897638
 30
0.0
 10
-0.9084330708661418
 20
0.7968897637795276
 30
0.0
 10
-0.9144055118110237
 20
0.7981141732283464
 30
0.0
 10
-0.9214606299212599
 20
0.7981141732283464
 30
0.0
 10
-0.9214606299212599
 20
0.7981141732283464
 30
0.0
 10
-0.925740157480315
 20
0.7981141732283464
 30
0.0
 10
-0.9303503937007874
 20
0.7976692913385827
 30
0.0
 10
-0.935240157480315
 20
0.796724409448819
 30
0.0
 10
-0.935240157480315
 20
0.796724409448819
 30
0.0
 10
-0.9401535433070867
 20
0.7958070866141732
 30
0.0
 10
-0.9443779527559055
 20
0.7946417322834646
 30
0.0
 10
-0.9479055118110237
 20
0.7932244094488189
 30
0.0
 10
-0.9479055118110237
 20
0.7932244094488189
 30
0.0
 10
-0.9479055118110237
 20
0.7932244094488189
 30
0.0
 10
-0.9451259842519686
 20
0.848251968503937
 30
0.0
 10
-0.9451259842519686
 20
0.848251968503937
 30
0.0
  0
SPLINE
  5
36
330
1F
100
AcDbEntity
  8
LAYER_1
 62
   250
100
AcDbSpline
210
0.0
220
0.0
230
1.0
 70
    11
 71
     3
 72
    80
 73
    76
 74
     0
 42
0.0000000001
 43
0.0000000001
 40
0.0
 40
0.0
 40
0.0
 40
0.0
 40
0.0526315789473684
 40
0.0526315789473684
 40
0.0526315789473684
 40
0.0526315789473684
 40
0.1052631578947368
 40
0.1052631578947368
 40
0.1052631578947368
 40
0.1052631578947368
 40
0.1578947368421053
 40
0.1578947368421053
 40
0.1578947368421053
 40
0.1578947368421053
 40
0.2105263157894737
 40
0.2105263157894737
 40
0.2105263157894737
 40
0.2105263157894737
 40
0.2631578947368421
 40
0.2631578947368421
 40
0.2631578947368421
 40
0.2631578947368421
 40
0.3157894736842105
 40
0.3157894736842105
 40
0.3157894736842105
 40
0.3157894736842105
 40
0.3684210526315789
 40
0.3684210526315789
 40
0.3684210526315789
 40
0.3684210526315789
 40
0.4210526315789474
 40
0.4210526315789474
 40
0.4210526315789474
 40
0.4210526315789474
 40
0.4736842105263158
 40
0.4736842105263158
 40
0.4736842105263158
 40
0.4736842105263158
 40
0.5263157894736842
 40
0.5263157894736842
 40
0.5263157894736842
 40
0.5263157894736842
 40
0.5789473684210527
 40
0.5789473684210527
 40
0.5789473684210527
 40
0.5789473684210527
 40
0.631578947368421
 40
0.631578947368421
 40
0.631578947368421
 40
0.631578947368421
 40
0.6842105263157894
 40
0.6842105263157894
 40
0.6842105263157894
 40
0.6842105263157894
 40
0.7368421052631577
 40
0.7368421052631577
 40
0.7368421052631577
 40
0.7368421052631577
 40
0.7894736842105261
 40
0.7894736842105261
 40
0.7894736842105261
 40
0.7894736842105261
 40
0.8421052631578945
 40
0.8421052631578945
 40
0.8421052631578945
 40
0.8421052631578945
 40
0.8947368421052628
 40
0.8947368421052628
 40
0.8947368421052628
 40
0.8947368421052628
 40
0.9473684210526312
 40
0.9473684210526312
 40
0.9473684210526312
 40
0.9473684210526312
 40
1.0
 40
1.0
 40
1.0
 40
1.0
 10
-1.749488188976378
 20
0.6648897637795276
 30
0.0
 10
-1.749488188976378
 20
0.6648897637795276
 30
0.0
 10
-1.744098425196851
 20
0.6648897637795276
 30
0.0
 10
-1.744098425196851
 20
0.6648897637795276
 30
0.0
 10
-1.744098425196851
 20
0.6648897637795276
 30
0.0
 10
-1.744098425196851
 20
0.6648897637795276
 30
0.0
 10
-1.743125984251969
 20
0.660751968503937
 30
0.0
 10
-1.743125984251969
 20
0.660751968503937
 30
0.0
 10
-1.743125984251969
 20
0.660751968503937
 30
0.0
 10
-1.743125984251969
 20
0.660751968503937
 30
0.0
 10
-1.672015748031496
 20
0.660751968503937
 30
0.0
 10
-1.672015748031496
 20
0.660751968503937
 30
0.0
 10
-1.672015748031496
 20
0.660751968503937
 30
0.0
 10
-1.672015748031496
 20
0.660751968503937
 30
0.0
 10
-1.672015748031496
 20
0.6538346456692914
 30
0.0
 10
-1.672015748031496
 20
0.6538346456692914
 30
0.0
 10
-1.672015748031496
 20
0.6538346456692914
 30
0.0
 10
-1.680515748031496
 20
0.644
 30
0.0
 10
-1.688240157480315
 20
0.6328346456692914
 30
0.0
 10
-1.695153543307087
 20
0.6202519685039371
 30
0.0
 10
-1.695153543307087
 20
0.6202519685039371
 30
0.0
 10
-1.702070866141732
 20
0.6076968503937008
 30
0.0
 10
-1.707433070866142
 20
0.5949173228346457
 30
0.0
 10
-1.711240157480315
 20
0.5818897637795276
 30
0.0
 10
-1.711240157480315
 20
0.5818897637795276
 30
0.0
 10
-1.713988188976378
 20
0.5725039370078741
 30
0.0
 10
-1.716236220472441
 20
0.5609448818897638
 30
0.0
 10
-1.717988188976378
 20
0.5472244094488189
 30
0.0
 10
-1.717988188976378
 20
0.5472244094488189
 30
0.0
 10
-1.717988188976378
 20
0.5472244094488189
 30
0.0
 10
-1.734653543307087
 20
0.5472244094488189
 30
0.0
 10
-1.734653543307087
 20
0.5472244094488189
 30
0.0
 10
-1.734653543307087
 20
0.5472244094488189
 30
0.0
 10
-1.733043307086614
 20
0.5593346456692914
 30
0.0
 10
-1.730377952755906
 20
0.5706417322834646
 30
0.0
 10
-1.726653543307087
 20
0.5811692913385828
 30
0.0
 10
-1.726653543307087
 20
0.5811692913385828
 30
0.0
 10
-1.722933070866142
 20
0.5916968503937008
 30
0.0
 10
-1.717570866141732
 20
0.6026968503937008
 30
0.0
 10
-1.710543307086614
 20
0.6141692913385827
 30
0.0
 10
-1.710543307086614
 20
0.6141692913385827
 30
0.0
 10
-1.703515748031496
 20
0.6256417322834645
 30
0.0
 10
-1.694988188976378
 20
0.6370866141732283
 30
0.0
 10
-1.684933070866142
 20
0.6485275590551182
 30
0.0
 10
-1.684933070866142
 20
0.6485275590551182
 30
0.0
 10
-1.684933070866142
 20
0.6485275590551182
 30
0.0
 10
-1.735653543307087
 20
0.6485275590551182
 30
0.0
 10
-1.735653543307087
 20
0.6485275590551182
 30
0.0
 10
-1.735653543307087
 20
0.6485275590551182
 30
0.0
 10
-1.739322834645669
 20
0.6485275590551182
 30
0.0
 10
-1.741850393700787
 20
0.6483622047244094
 30
0.0
 10
-1.743208661417323
 20
0.6479724409448819
 30
0.0
 10
-1.743208661417323
 20
0.6479724409448819
 30
0.0
 10
-1.744570866141732
 20
0.6475866141732284
 30
0.0
 10
-1.745625984251969
 20
0.647
 30
0.0
 10
-1.746377952755906
 20
0.6461968503937008
 30
0.0
 10
-1.746377952755906
 20
0.6461968503937008
 30
0.0
 10
-1.747153543307087
 20
0.6453622047244095
 30
0.0
 10
-1.747795275590551
 20
0.6439173228346456
 30
0.0
 10
-1.748350393700787
 20
0.6418622047244095
 30
0.0
 10
-1.748350393700787
 20
0.6418622047244095
 30
0.0
 10
-1.748350393700787
 20
0.6418622047244095
 30
0.0
 10
-1.748736220472441
 20
0.6403346456692913
 30
0.0
 10
-1.748736220472441
 20
0.6403346456692913
 30
0.0
 10
-1.748736220472441
 20
0.6403346456692913
 30
0.0
 10
-1.748736220472441
 20
0.6403346456692913
 30
0.0
 10
-1.751515748031496
 20
0.6307244094488189
 30
0.0
 10
-1.751515748031496
 20
0.6307244094488189
 30
0.0
 10
-1.751515748031496
 20
0.6307244094488189
 30
0.0
 10
-1.751515748031496
 20
0.6307244094488189
 30
0.0
 10
-1.758433070866142
 20
0.6321968503937008
 30
0.0
 10
-1.758433070866142
 20
0.6321968503937008
 30
0.0
 10
-1.758433070866142
 20
0.6321968503937008
 30
0.0
 10
-1.758433070866142
 20
0.6321968503937008
 30
0.0
 10
-1.749488188976378
 20
0.6648897637795276
 30
0.0
 10
-1.749488188976378
 20
0.6648897637795276
 30
0.0
  0
SPLINE
  5
37
330
1F
100
AcDbEntity
  8
LAYER_1
 62
   250
100
AcDbSpline
210
0.0
220
0.0
230
1.0
 70
    11
 71
     3
 72
    20
 73
    16
 74
     0
 42
0.0000000001
 43
0.0000000001
 40
0.0
 40
0.0
 40
0.0
 40
0.0
 40
0.25
 40
0.25
 40
0.25
 40
0.25
 40
0.5
 40
0.5
 40
0.5
 40
0.5
 40
0.75
 40
0.75
 40
0.75
 40
0.75
 40
1.0
 40
1.0
 40
1.0
 40
1.0
 10
-1.582708661417323
 20
0.6666141732283465
 30
0.0
 10
-1.582708661417323
 20
0.6666141732283465
 30
0.0
 10
-1.638291338582677
 20
0.5109173228346456
 30
0.0
 10
-1.638291338582677
 20
0.5109173228346456
 30
0.0
 10
-1.638291338582677
 20
0.5109173228346456
 30
0.0
 10
-1.638291338582677
 20
0.5109173228346456
 30
0.0
 10
-1.650346456692913
 20
0.5109173228346456
 30
0.0
 10
-1.650346456692913
 20
0.5109173228346456
 30
0.0
 10
-1.650346456692913
 20
0.5109173228346456
 30
0.0
 10
-1.650346456692913
 20
0.5109173228346456
 30
0.0
 10
-1.595098425196851
 20
0.6666141732283465
 30
0.0
 10
-1.595098425196851
 20
0.6666141732283465
 30
0.0
 10
-1.595098425196851
 20
0.6666141732283465
 30
0.0
 10
-1.595098425196851
 20
0.6666141732283465
 30
0.0
 10
-1.582708661417323
 20
0.6666141732283465
 30
0.0
 10
-1.582708661417323
 20
0.6666141732283465
 30
0.0
  0
SPLINE
  5
38
330
1F
100
AcDbEntity
  8
LAYER_1
 62
   250
100
AcDbSpline
210
0.0
220
0.0
230
1.0
 70
    11
 71
     3
 72
    72
 73
    68
 74
     0
 42
0.0000000001
 43
0.0000000001
 40
0.0
 40
0.0
 40
0.0
 40
0.0
 40
0.0588235294117647
 40
0.0588235294117647
 40
0.0588235294117647
 40
0.0588235294117647
 40
0.1176470588235294
 40
0.1176470588235294
 40
0.1176470588235294
 40
0.1176470588235294
 40
0.1764705882352941
 40
0.1764705882352941
 40
0.1764705882352941
 40
0.1764705882352941
 40
0.2352941176470588
 40
0.2352941176470588
 40
0.2352941176470588
 40
0.2352941176470588
 40
0.2941176470588235
 40
0.2941176470588235
 40
0.2941176470588235
 40
0.2941176470588235
 40
0.3529411764705883
 40
0.3529411764705883
 40
0.3529411764705883
 40
0.3529411764705883
 40
0.411764705882353
 40
0.411764705882353
 40
0.411764705882353
 40
0.411764705882353
 40
0.4705882352941177
 40
0.4705882352941177
 40
0.4705882352941177
 40
0.4705882352941177
 40
0.5294117647058824
 40
0.5294117647058824
 40
0.5294117647058824
 40
0.5294117647058824
 40
0.5882352941176471
 40
0.5882352941176471
 40
0.5882352941176471
 40
0.5882352941176471
 40
0.6470588235294118
 40
0.6470588235294118
 40
0.6470588235294118
 40
0.6470588235294118
 40
0.7058823529411765
 40
0.7058823529411765
 40
0.7058823529411765
 40
0.7058823529411765
 40
0.7647058823529412
 40
0.7647058823529412
 40
0.7647058823529412
 40
0.7647058823529412
 40
0.823529411764706
 40
0.823529411764706
 40
0.823529411764706
 40
0.823529411764706
 40
0.8823529411764707
 40
0.8823529411764707
 40
0.8823529411764707
 40
0.8823529411764707
 40
0.9411764705882354
 40
0.9411764705882354
 40
0.9411764705882354
 40
0.9411764705882354
 40
1.0
 40
1.0
 40
1.0
 40
1.0
 10
-1.508153543307087
 20
0.660751968503937
 30
0.0
 10
-1.508153543307087
 20
0.660751968503937
 30
0.0
 10
-1.502070866141732
 20
0.660751968503937
 30
0.0
 10
-1.502070866141732
 20
0.660751968503937
 30
0.0
 10
-1.502070866141732
 20
0.660751968503937
 30
0.0
 10
-1.502070866141732
 20
0.660751968503937
 30
0.0
 10
-1.502070866141732
 20
0.5665039370078741
 30
0.0
 10
-1.502070866141732
 20
0.5665039370078741
 30
0.0
 10
-1.502070866141732
 20
0.5665039370078741
 30
0.0
 10
-1.502070866141732
 20
0.5620590551181103
 30
0.0
 10
-1.501763779527559
 20
0.5591968503937008
 30
0.0
 10
-1.501208661417323
 20
0.5579173228346457
 30
0.0
 10
-1.501208661417323
 20
0.5579173228346457
 30
0.0
 10
-1.500625984251969
 20
0.5566417322834646
 30
0.0
 10
-1.499708661417323
 20
0.5556968503937008
 30
0.0
 10
-1.498405511811024
 20
0.5550314960629922
 30
0.0
 10
-1.498405511811024
 20
0.5550314960629922
 30
0.0
 10
-1.49709842519685
 20
0.5543897637795275
 30
0.0
 10
-1.494515748031496
 20
0.5540590551181103
 30
0.0
 10
-1.490653543307087
 20
0.5540590551181103
 30
0.0
 10
-1.490653543307087
 20
0.5540590551181103
 30
0.0
 10
-1.490653543307087
 20
0.5540590551181103
 30
0.0
 10
-1.482681102362205
 20
0.5540590551181103
 30
0.0
 10
-1.482681102362205
 20
0.5540590551181103
 30
0.0
 10
-1.482681102362205
 20
0.5540590551181103
 30
0.0
 10
-1.482681102362205
 20
0.5540590551181103
 30
0.0
 10
-1.482681102362205
 20
0.5472244094488189
 30
0.0
 10
-1.482681102362205
 20
0.5472244094488189
 30
0.0
 10
-1.482681102362205
 20
0.5472244094488189
 30
0.0
 10
-1.482681102362205
 20
0.5472244094488189
 30
0.0
 10
-1.536318897637795
 20
0.5472244094488189
 30
0.0
 10
-1.536318897637795
 20
0.5472244094488189
 30
0.0
 10
-1.536318897637795
 20
0.5472244094488189
 30
0.0
 10
-1.536318897637795
 20
0.5472244094488189
 30
0.0
 10
-1.536318897637795
 20
0.5540590551181103
 30
0.0
 10
-1.536318897637795
 20
0.5540590551181103
 30
0.0
 10
-1.536318897637795
 20
0.5540590551181103
 30
0.0
 10
-1.536318897637795
 20
0.5540590551181103
 30
0.0
 10
-1.52746062992126
 20
0.5540590551181103
 30
0.0
 10
-1.52746062992126
 20
0.5540590551181103
 30
0.0
 10
-1.52746062992126
 20
0.5540590551181103
 30
0.0
 10
-1.52359842519685
 20
0.5540590551181103
 30
0.0
 10
-1.521043307086614
 20
0.5543897637795275
 30
0.0
 10
-1.519763779527559
 20
0.5550866141732284
 30
0.0
 10
-1.519763779527559
 20
0.5550866141732284
 30
0.0
 10
-1.518488188976378
 20
0.555751968503937
 30
0.0
 10
-1.517488188976378
 20
0.5568346456692913
 30
0.0
 10
-1.516791338582677
 20
0.5583346456692914
 30
0.0
 10
-1.516791338582677
 20
0.5583346456692914
 30
0.0
 10
-1.51609842519685
 20
0.5598346456692913
 30
0.0
 10
-1.515736220472441
 20
0.5625590551181102
 30
0.0
 10
-1.515736220472441
 20
0.5665039370078741
 30
0.0
 10
-1.515736220472441
 20
0.5665039370078741
 30
0.0
 10
-1.515736220472441
 20
0.5665039370078741
 30
0.0
 10
-1.515736220472441
 20
0.6439724409448819
 30
0.0
 10
-1.515736220472441
 20
0.6439724409448819
 30
0.0
 10
-1.515736220472441
 20
0.6439724409448819
 30
0.0
 10
-1.515736220472441
 20
0.6439724409448819
 30
0.0
 10
-1.536318897637795
 20
0.6439724409448819
 30
0.0
 10
-1.536318897637795
 20
0.6439724409448819
 30
0.0
 10
-1.536318897637795
 20
0.6439724409448819
 30
0.0
 10
-1.536318897637795
 20
0.6439724409448819
 30
0.0
 10
-1.536318897637795
 20
0.6509724409448819
 30
0.0
 10
-1.536318897637795
 20
0.6509724409448819
 30
0.0
 10
-1.536318897637795
 20
0.6509724409448819
 30
0.0
 10
-1.525098425196851
 20
0.6525551181102363
 30
0.0
 10
-1.515708661417323
 20
0.6558070866141733
 30
0.0
 10
-1.508153543307087
 20
0.660751968503937
 30
0.0
  0
SPLINE
  5
39
330
1F
100
AcDbEntity
  8
LAYER_1
 62
   250
100
AcDbSpline
210
0.0
220
0.0
230
1.0
 70
    11
 71
     3
 72
    84
 73
    80
 74
     0
 42
0.0000000001
 43
0.0000000001
 40
0.0
 40
0.0
 40
0.0
 40
0.0
 40
0.05
 40
0.05
 40
0.05
 40
0.05
 40
0.1
 40
0.1
 40
0.1
 40
0.1
 40
0.15
 40
0.15
 40
0.15
 40
0.15
 40
0.2
 40
0.2
 40
0.2
 40
0.2
 40
0.25
 40
0.25
 40
0.25
 40
0.25
 40
0.3
 40
0.3
 40
0.3
 40
0.3
 40
0.35
 40
0.35
 40
0.35
 40
0.35
 40
0.4
 40
0.4
 40
0.4
 40
0.4
 40
0.45
 40
0.45
 40
0.45
 40
0.45
 40
0.4999999999999999
 40
0.4999999999999999
 40
0.4999999999999999
 40
0.4999999999999999
 40
0.5499999999999999
 40
0.5499999999999999
 40
0.5499999999999999
 40
0.5499999999999999
 40
0.6
 40
0.6
 40
0.6
 40
0.6
 40
0.65
 40
0.65
 40
0.65
 40
0.65
 40
0.7000000000000001
 40
0.7000000000000001
 40
0.7000000000000001
 40
0.7000000000000001
 40
0.7500000000000001
 40
0.7500000000000001
 40
0.7500000000000001
 40
0.7500000000000001
 40
0.8000000000000002
 40
0.8000000000000002
 40
0.8000000000000002
 40
0.8000000000000002
 40
0.8500000000000002
 40
0.8500000000000002
 40
0.8500000000000002
 40
0.8500000000000002
 40
0.9000000000000002
 40
0.9000000000000002
 40
0.9000000000000002
 40
0.9000000000000002
 40
0.9500000000000003
 40
0.9500000000000003
 40
0.9500000000000003
 40
0.9500000000000003
 40
1.0
 40
1.0
 40
1.0
 40
1.0
 10
-1.376488188976378
 20
0.6628622047244095
 30
0.0
 10
-1.376488188976378
 20
0.6628622047244095
 30
0.0
 10
-1.376488188976378
 20
0.6554448818897638
 30
0.0
 10
-1.376488188976378
 20
0.6554448818897638
 30
0.0
 10
-1.376488188976378
 20
0.6554448818897638
 30
0.0
 10
-1.389874015748032
 20
0.6553070866141733
 30
0.0
 10
-1.400708661417323
 20
0.6533346456692913
 30
0.0
 10
-1.408984251968504
 20
0.6496141732283465
 30
0.0
 10
-1.408984251968504
 20
0.6496141732283465
 30
0.0
 10
-1.417263779527559
 20
0.6458622047244095
 30
0.0
 10
-1.423346456692914
 20
0.6402519685039371
 30
0.0
 10
-1.427263779527559
 20
0.6328070866141733
 30
0.0
 10
-1.427263779527559
 20
0.6328070866141733
 30
0.0
 10
-1.431181102362205
 20
0.6253346456692913
 30
0.0
 10
-1.433374015748032
 20
0.6161417322834646
 30
0.0
 10
-1.433846456692913
 20
0.605251968503937
 30
0.0
 10
-1.433846456692913
 20
0.605251968503937
 30
0.0
 10
-1.43109842519685
 20
0.609472440944882
 30
0.0
 10
-1.428263779527559
 20
0.6127795275590552
 30
0.0
 10
-1.425346456692914
 20
0.6151417322834646
 30
0.0
 10
-1.425346456692914
 20
0.6151417322834646
 30
0.0
 10
-1.422456692913386
 20
0.6175000000000001
 30
0.0
 10
-1.419070866141732
 20
0.6193070866141732
 30
0.0
 10
-1.415181102362205
 20
0.6205866141732284
 30
0.0
 10
-1.415181102362205
 20
0.6205866141732284
 30
0.0
 10
-1.411291338582677
 20
0.6218622047244095
 30
0.0
 10
-1.407043307086614
 20
0.6225000000000001
 30
0.0
 10
-1.402429133858268
 20
0.6225000000000001
 30
0.0
 10
-1.402429133858268
 20
0.6225000000000001
 30
0.0
 10
-1.395070866141732
 20
0.6225000000000001
 30
0.0
 10
-1.388488188976378
 20
0.6208622047244095
 30
0.0
 10
-1.382736220472441
 20
0.6176141732283464
 30
0.0
 10
-1.382736220472441
 20
0.6176141732283464
 30
0.0
 10
-1.376988188976378
 20
0.6143622047244095
 30
0.0
 10
-1.372515748031496
 20
0.6099448818897638
 30
0.0
 10
-1.369318897637795
 20
0.6043897637795276
 30
0.0
 10
-1.369318897637795
 20
0.6043897637795276
 30
0.0
 10
-1.366125984251969
 20
0.5988346456692913
 30
0.0
 10
-1.364515748031496
 20
0.5922795275590551
 30
0.0
 10
-1.364515748031496
 20
0.5847519685039371
 30
0.0
 10
-1.364515748031496
 20
0.5847519685039371
 30
0.0
 10
-1.364515748031496
 20
0.5727519685039371
 30
0.0
 10
-1.368125984251969
 20
0.5633346456692914
 30
0.0
 10
-1.375346456692913
 20
0.556503937007874
 30
0.0
 10
-1.375346456692913
 20
0.556503937007874
 30
0.0
 10
-1.383318897637795
 20
0.5490039370078741
 30
0.0
 10
-1.393653543307087
 20
0.5452795275590552
 30
0.0
 10
-1.406346456692913
 20
0.5452795275590552
 30
0.0
 10
-1.406346456692913
 20
0.5452795275590552
 30
0.0
 10
-1.415515748031496
 20
0.5452795275590552
 30
0.0
 10
-1.423236220472441
 20
0.5471692913385827
 30
0.0
 10
-1.429543307086614
 20
0.550972440944882
 30
0.0
 10
-1.429543307086614
 20
0.550972440944882
 30
0.0
 10
-1.435846456692913
 20
0.554751968503937
 30
0.0
 10
-1.440846456692913
 20
0.5605590551181102
 30
0.0
 10
-1.444570866141732
 20
0.5683897637795276
 30
0.0
 10
-1.444570866141732
 20
0.5683897637795276
 30
0.0
 10
-1.448263779527559
 20
0.5761968503937008
 30
0.0
 10
-1.450125984251969
 20
0.5858622047244094
 30
0.0
 10
-1.450125984251969
 20
0.5973622047244095
 30
0.0
 10
-1.450125984251969
 20
0.5973622047244095
 30
0.0
 10
-1.450125984251969
 20
0.6089173228346457
 30
0.0
 10
-1.448153543307087
 20
0.6191692913385827
 30
0.0
 10
-1.444236220472441
 20
0.6281141732283465
 30
0.0
 10
-1.444236220472441
 20
0.6281141732283465
 30
0.0
 10
-1.440291338582677
 20
0.6370551181102363
 30
0.0
 10
-1.434846456692913
 20
0.6442519685039371
 30
0.0
 10
-1.42790157480315
 20
0.6496692913385828
 30
0.0
 10
-1.42790157480315
 20
0.6496692913385828
 30
0.0
 10
-1.420956692913386
 20
0.6551141732283465
 30
0.0
 10
-1.413346456692914
 20
0.6586692913385827
 30
0.0
 10
-1.40509842519685
 20
0.6603346456692913
 30
0.0
 10
-1.40509842519685
 20
0.6603346456692913
 30
0.0
 10
-1.396818897637795
 20
0.6620275590551181
 30
0.0
 10
-1.38940157480315
 20
0.6628622047244095
 30
0.0
 10
-1.382818897637795
 20
0.6628622047244095
 30
0.0
 10
-1.382818897637795
 20
0.6628622047244095
 30
0.0
 10
-1.382818897637795
 20
0.6628622047244095
 30
0.0
 10
-1.376488188976378
 20
0.6628622047244095
 30
0.0
 10
-1.376488188976378
 20
0.6628622047244095
 30
0.0
  0
SPLINE
  5
3A
330
1F
100
AcDbEntity
  8
LAYER_1
 62
   250
100
AcDbSpline
210
0.0
220
0.0
230
1.0
 70
    11
 71
     3
 72
    40
 73
    36
 74
     0
 42
0.0000000001
 43
0.0000000001
 40
0.0
 40
0.0
 40
0.0
 40
0.0
 40
0.1111111111111111
 40
0.1111111111111111
 40
0.1111111111111111
 40
0.1111111111111111
 40
0.2222222222222222
 40
0.2222222222222222
 40
0.2222222222222222
 40
0.2222222222222222
 40
0.3333333333333333
 40
0.3333333333333333
 40
0.3333333333333333
 40
0.3333333333333333
 40
0.4444444444444444
 40
0.4444444444444444
 40
0.4444444444444444
 40
0.4444444444444444
 40
0.5555555555555556
 40
0.5555555555555556
 40
0.5555555555555556
 40
0.5555555555555556
 40
0.6666666666666667
 40
0.6666666666666667
 40
0.6666666666666667
 40
0.6666666666666667
 40
0.7777777777777779
 40
0.7777777777777779
 40
0.7777777777777779
 40
0.7777777777777779
 40
0.8888888888888891
 40
0.8888888888888891
 40
0.8888888888888891
 40
0.8888888888888891
 40
1.0
 40
1.0
 40
1.0
 40
1.0
 10
-1.406181102362205
 20
0.6138622047244094
 30
0.0
 10
-1.413984251968504
 20
0.6138622047244094
 30
0.0
 10
-1.42040157480315
 20
0.6109173228346457
 30
0.0
 10
-1.425429133858268
 20
0.605
 30
0.0
 10
-1.425429133858268
 20
0.605
 30
0.0
 10
-1.430456692913386
 20
0.5990866141732284
 30
0.0
 10
-1.432956692913386
 20
0.5919724409448819
 30
0.0
 10
-1.432956692913386
 20
0.5836968503937008
 30
0.0
 10
-1.432956692913386
 20
0.5836968503937008
 30
0.0
 10
-1.432956692913386
 20
0.5778346456692913
 30
0.0
 10
-1.431736220472441
 20
0.5724173228346456
 30
0.0
 10
-1.429291338582677
 20
0.5674448818897638
 30
0.0
 10
-1.429291338582677
 20
0.5674448818897638
 30
0.0
 10
-1.426846456692914
 20
0.5624724409448819
 30
0.0
 10
-1.423708661417323
 20
0.5588070866141732
 30
0.0
 10
-1.419846456692913
 20
0.5563897637795275
 30
0.0
 10
-1.419846456692913
 20
0.5563897637795275
 30
0.0
 10
-1.416015748031496
 20
0.553972440944882
 30
0.0
 10
-1.411653543307087
 20
0.552751968503937
 30
0.0
 10
-1.406846456692914
 20
0.552751968503937
 30
0.0
 10
-1.406846456692914
 20
0.552751968503937
 30
0.0
 10
-1.399346456692914
 20
0.552751968503937
 30
0.0
 10
-1.393125984251969
 20
0.5555866141732284
 30
0.0
 10
-1.388153543307087
 20
0.561251968503937
 30
0.0
 10
-1.388153543307087
 20
0.561251968503937
 30
0.0
 10
-1.383208661417323
 20
0.5669173228346457
 30
0.0
 10
-1.380708661417323
 20
0.5745314960629921
 30
0.0
 10
-1.380708661417323
 20
0.5840866141732284
 30
0.0
 10
-1.380708661417323
 20
0.5840866141732284
 30
0.0
 10
-1.380708661417323
 20
0.5931968503937009
 30
0.0
 10
-1.383125984251969
 20
0.6004448818897638
 30
0.0
 10
-1.387956692913386
 20
0.6058070866141733
 30
0.0
 10
-1.387956692913386
 20
0.6058070866141733
 30
0.0
 10
-1.392791338582677
 20
0.6111968503937009
 30
0.0
 10
-1.398874015748032
 20
0.6138622047244094
 30
0.0
 10
-1.406181102362205
 20
0.6138622047244094
 30
0.0
  0
SPLINE
  5
3B
330
1F
100
AcDbEntity
  8
LAYER_1
 62
   250
100
AcDbSpline
210
0.0
220
0.0
230
1.0
 70
    11
 71
     3
 72
    60
 73
    56
 74
     0
 42
0.0000000001
 43
0.0000000001
 40
0.0
 40
0.0
 40
0.0
 40
0.0
 40
0.0714285714285714
 40
0.0714285714285714
 40
0.0714285714285714
 40
0.0714285714285714
 40
0.1428571428571429
 40
0.1428571428571429
 40
0.1428571428571429
 40
0.1428571428571429
 40
0.2142857142857143
 40
0.2142857142857143
 40
0.2142857142857143
 40
0.2142857142857143
 40
0.2857142857142857
 40
0.2857142857142857
 40
0.2857142857142857
 40
0.2857142857142857
 40
0.3571428571428571
 40
0.3571428571428571
 40
0.3571428571428571
 40
0.3571428571428571
 40
0.4285714285714285
 40
0.4285714285714285
 40
0.4285714285714285
 40
0.4285714285714285
 40
0.4999999999999999
 40
0.4999999999999999
 40
0.4999999999999999
 40
0.4999999999999999
 40
0.5714285714285713
 40
0.5714285714285713
 40
0.5714285714285713
 40
0.5714285714285713
 40
0.6428571428571427
 40
0.6428571428571427
 40
0.6428571428571427
 40
0.6428571428571427
 40
0.7142857142857141
 40
0.7142857142857141
 40
0.7142857142857141
 40
0.7142857142857141
 40
0.7857142857142855
 40
0.7857142857142855
 40
0.7857142857142855
 40
0.7857142857142855
 40
0.8571428571428569
 40
0.8571428571428569
 40
0.8571428571428569
 40
0.8571428571428569
 40
0.9285714285714283
 40
0.9285714285714283
 40
0.9285714285714283
 40
0.9285714285714283
 40
1.0
 40
1.0
 40
1.0
 40
1.0
 10
-1.347346456692913
 20
0.6186692913385827
 30
0.0
 10
-1.347346456692913
 20
0.6186692913385827
 30
0.0
 10
-1.351736220472441
 20
0.6240590551181102
 30
0.0
 10
-1.351736220472441
 20
0.6240590551181102
 30
0.0
 10
-1.351736220472441
 20
0.6240590551181102
 30
0.0
 10
-1.340622047244095
 20
0.6331141732283465
 30
0.0
 10
-1.33503937007874
 20
0.6406692913385828
 30
0.0
 10
-1.33503937007874
 20
0.646751968503937
 30
0.0
 10
-1.33503937007874
 20
0.646751968503937
 30
0.0
 10
-1.33503937007874
 20
0.6474448818897638
 30
0.0
 10
-1.335094488188976
 20
0.6483346456692913
 30
0.0
 10
-1.335208661417323
 20
0.6493622047244094
 30
0.0
 10
-1.335208661417323
 20
0.6493622047244094
 30
0.0
 10
-1.336122047244094
 20
0.6489724409448819
 30
0.0
 10
-1.33703937007874
 20
0.6486692913385828
 30
0.0
 10
-1.33790157480315
 20
0.6484724409448819
 30
0.0
 10
-1.33790157480315
 20
0.6484724409448819
 30
0.0
 10
-1.338763779527559
 20
0.6482519685039371
 30
0.0
 10
-1.339566929133858
 20
0.6481417322834646
 30
0.0
 10
-1.340346456692914
 20
0.6481417322834646
 30
0.0
 10
-1.340346456692914
 20
0.6481417322834646
 30
0.0
 10
-1.342956692913386
 20
0.6481417322834646
 30
0.0
 10
-1.34503937007874
 20
0.6489724409448819
 30
0.0
 10
-1.346594488188976
 20
0.6506692913385828
 30
0.0
 10
-1.346594488188976
 20
0.6506692913385828
 30
0.0
 10
-1.348181102362205
 20
0.6523346456692913
 30
0.0
 10
-1.348956692913386
 20
0.6544724409448819
 30
0.0
 10
-1.348956692913386
 20
0.6570866141732283
 30
0.0
 10
-1.348956692913386
 20
0.6570866141732283
 30
0.0
 10
-1.348956692913386
 20
0.6596417322834646
 30
0.0
 10
-1.348011811023622
 20
0.6618622047244095
 30
0.0
 10
-1.346122047244095
 20
0.663751968503937
 30
0.0
 10
-1.346122047244095
 20
0.663751968503937
 30
0.0
 10
-1.344208661417323
 20
0.6656692913385827
 30
0.0
 10
-1.341929133858268
 20
0.6666141732283465
 30
0.0
 10
-1.339291338582677
 20
0.6666141732283465
 30
0.0
 10
-1.339291338582677
 20
0.6666141732283465
 30
0.0
 10
-1.335594488188977
 20
0.6666141732283465
 30
0.0
 10
-1.332429133858268
 20
0.6651417322834646
 30
0.0
 10
-1.329791338582677
 20
0.6621692913385827
 30
0.0
 10
-1.329791338582677
 20
0.6621692913385827
 30
0.0
 10
-1.327181102362205
 20
0.6592244094488189
 30
0.0
 10
-1.325846456692913
 20
0.6554173228346457
 30
0.0
 10
-1.325846456692913
 20
0.650751968503937
 30
0.0
 10
-1.325846456692913
 20
0.650751968503937
 30
0.0
 10
-1.325846456692913
 20
0.6476968503937008
 30
0.0
 10
-1.326484251968504
 20
0.6445000000000001
 30
0.0
 10
-1.327736220472441
 20
0.6411692913385827
 30
0.0
 10
-1.327736220472441
 20
0.6411692913385827
 30
0.0
 10
-1.328984251968504
 20
0.6378346456692914
 30
0.0
 10
-1.330791338582677
 20
0.634751968503937
 30
0.0
 10
-1.333181102362205
 20
0.6318897637795276
 30
0.0
 10
-1.333181102362205
 20
0.6318897637795276
 30
0.0
 10
-1.335566929133858
 20
0.6290590551181102
 30
0.0
 10
-1.340291338582677
 20
0.6246417322834647
 30
0.0
 10
-1.347346456692913
 20
0.6186692913385827
 30
0.0
  0
SPLINE
  5
3C
330
1F
100
AcDbEntity
  8
LAYER_1
 62
   250
100
AcDbSpline
210
0.0
220
0.0
230
1.0
 70
    11
 71
     3
 72
    60
 73
    56
 74
     0
 42
0.0000000001
 43
0.0000000001
 40
0.0
 40
0.0
 40
0.0
 40
0.0
 40
0.0714285714285714
 40
0.0714285714285714
 40
0.0714285714285714
 40
0.0714285714285714
 40
0.1428571428571429
 40
0.1428571428571429
 40
0.1428571428571429
 40
0.1428571428571429
 40
0.2142857142857143
 40
0.2142857142857143
 40
0.2142857142857143
 40
0.2142857142857143
 40
0.2857142857142857
 40
0.2857142857142857
 40
0.2857142857142857
 40
0.2857142857142857
 40
0.3571428571428571
 40
0.3571428571428571
 40
0.3571428571428571
 40
0.3571428571428571
 40
0.4285714285714285
 40
0.4285714285714285
 40
0.4285714285714285
 40
0.4285714285714285
 40
0.4999999999999999
 40
0.4999999999999999
 40
0.4999999999999999
 40
0.4999999999999999
 40
0.5714285714285713
 40
0.5714285714285713
 40
0.5714285714285713
 40
0.5714285714285713
 40
0.6428571428571427
 40
0.6428571428571427
 40
0.6428571428571427
 40
0.6428571428571427
 40
0.7142857142857141
 40
0.7142857142857141
 40
0.7142857142857141
 40
0.7142857142857141
 40
0.7857142857142855
 40
0.7857142857142855
 40
0.7857142857142855
 40
0.7857142857142855
 40
0.8571428571428569
 40
0.8571428571428569
 40
0.8571428571428569
 40
0.8571428571428569
 40
0.9285714285714283
 40
0.9285714285714283
 40
0.9285714285714283
 40
0.9285714285714283
 40
1.0
 40
1.0
 40
1.0
 40
1.0
 10
-1.318291338582677
 20
0.6186692913385827
 30
0.0
 10
-1.318291338582677
 20
0.6186692913385827
 30
0.0
 10
-1.322681102362205
 20
0.6240590551181102
 30
0.0
 10
-1.322681102362205
 20
0.6240590551181102
 30
0.0
 10
-1.322681102362205
 20
0.6240590551181102
 30
0.0
 10
-1.311566929133858
 20
0.6331141732283465
 30
0.0
 10
-1.305984251968504
 20
0.6406692913385828
 30
0.0
 10
-1.305984251968504
 20
0.646751968503937
 30
0.0
 10
-1.305984251968504
 20
0.646751968503937
 30
0.0
 10
-1.305984251968504
 20
0.6474448818897638
 30
0.0
 10
-1.30603937007874
 20
0.6483346456692913
 30
0.0
 10
-1.306153543307087
 20
0.6493622047244094
 30
0.0
 10
-1.306153543307087
 20
0.6493622047244094
 30
0.0
 10
-1.307066929133858
 20
0.6489724409448819
 30
0.0
 10
-1.307984251968504
 20
0.6486692913385828
 30
0.0
 10
-1.308846456692913
 20
0.6484724409448819
 30
0.0
 10
-1.308846456692913
 20
0.6484724409448819
 30
0.0
 10
-1.309708661417323
 20
0.6482519685039371
 30
0.0
 10
-1.31053937007874
 20
0.6481417322834646
 30
0.0
 10
-1.311374015748032
 20
0.6481417322834646
 30
0.0
 10
-1.311374015748032
 20
0.6481417322834646
 30
0.0
 10
-1.313929133858268
 20
0.6481417322834646
 30
0.0
 10
-1.315984251968504
 20
0.6489724409448819
 30
0.0
 10
-1.31753937007874
 20
0.6506692913385828
 30
0.0
 10
-1.31753937007874
 20
0.6506692913385828
 30
0.0
 10
-1.319122047244095
 20
0.6523346456692913
 30
0.0
 10
-1.31990157480315
 20
0.6544724409448819
 30
0.0
 10
-1.31990157480315
 20
0.6570866141732283
 30
0.0
 10
-1.31990157480315
 20
0.6570866141732283
 30
0.0
 10
-1.31990157480315
 20
0.6596417322834646
 30
0.0
 10
-1.318956692913386
 20
0.6618622047244095
 30
0.0
 10
-1.317066929133858
 20
0.663751968503937
 30
0.0
 10
-1.317066929133858
 20
0.663751968503937
 30
0.0
 10
-1.315181102362205
 20
0.6656692913385827
 30
0.0
 10
-1.312874015748032
 20
0.6666141732283465
 30
0.0
 10
-1.310236220472441
 20
0.6666141732283465
 30
0.0
 10
-1.310236220472441
 20
0.6666141732283465
 30
0.0
 10
-1.30653937007874
 20
0.6666141732283465
 30
0.0
 10
-1.303374015748032
 20
0.6651417322834646
 30
0.0
 10
-1.300736220472441
 20
0.6621692913385827
 30
0.0
 10
-1.300736220472441
 20
0.6621692913385827
 30
0.0
 10
-1.298125984251969
 20
0.6592244094488189
 30
0.0
 10
-1.296791338582677
 20
0.6554173228346457
 30
0.0
 10
-1.296791338582677
 20
0.650751968503937
 30
0.0
 10
-1.296791338582677
 20
0.650751968503937
 30
0.0
 10
-1.296791338582677
 20
0.6476968503937008
 30
0.0
 10
-1.297429133858268
 20
0.6445000000000001
 30
0.0
 10
-1.298681102362205
 20
0.6411692913385827
 30
0.0
 10
-1.298681102362205
 20
0.6411692913385827
 30
0.0
 10
-1.299929133858268
 20
0.6378346456692914
 30
0.0
 10
-1.301736220472441
 20
0.634751968503937
 30
0.0
 10
-1.304122047244095
 20
0.6318897637795276
 30
0.0
 10
-1.304122047244095
 20
0.6318897637795276
 30
0.0
 10
-1.306511811023622
 20
0.6290590551181102
 30
0.0
 10
-1.311236220472441
 20
0.6246417322834647
 30
0.0
 10
-1.318291338582677
 20
0.6186692913385827
 30
0.0
  0
SPLINE
  5
3D
330
1F
100
AcDbEntity
  8
LAYER_1
 62
   250
100
AcDbSpline
210
0.0
220
0.0
230
1.0
 70
    11
 71
     3
 72
   204
 73
   200
 74
     0
 42
0.0000000001
 43
0.0000000001
 40
0.0
 40
0.0
 40
0.0
 40
0.0
 40
0.02
 40
0.02
 40
0.02
 40
0.02
 40
0.04
 40
0.04
 40
0.04
 40
0.04
 40
0.06
 40
0.06
 40
0.06
 40
0.06
 40
0.08
 40
0.08
 40
0.08
 40
0.08
 40
0.1
 40
0.1
 40
0.1
 40
0.1
 40
0.12
 40
0.12
 40
0.12
 40
0.12
 40
0.14
 40
0.14
 40
0.14
 40
0.14
 40
0.16
 40
0.16
 40
0.16
 40
0.16
 40
0.18
 40
0.18
 40
0.18
 40
0.18
 40
0.2
 40
0.2
 40
0.2
 40
0.2
 40
0.22
 40
0.22
 40
0.22
 40
0.22
 40
0.24
 40
0.24
 40
0.24
 40
0.24
 40
0.26
 40
0.26
 40
0.26
 40
0.26
 40
0.28
 40
0.28
 40
0.28
 40
0.28
 40
0.3
 40
0.3
 40
0.3
 40
0.3
 40
0.32
 40
0.32
 40
0.32
 40
0.32
 40
0.34
 40
0.34
 40
0.34
 40
0.34
 40
0.36
 40
0.36
 40
0.36
 40
0.36
 40
0.3800000000000001
 40
0.3800000000000001
 40
0.3800000000000001
 40
0.3800000000000001
 40
0.4000000000000001
 40
0.4000000000000001
 40
0.4000000000000001
 40
0.4000000000000001
 40
0.4200000000000001
 40
0.4200000000000001
 40
0.4200000000000001
 40
0.4200000000000001
 40
0.4400000000000001
 40
0.4400000000000001
 40
0.4400000000000001
 40
0.4400000000000001
 40
0.4600000000000001
 40
0.4600000000000001
 40
0.4600000000000001
 40
0.4600000000000001
 40
0.4800000000000002
 40
0.4800000000000002
 40
0.4800000000000002
 40
0.4800000000000002
 40
0.5000000000000001
 40
0.5000000000000001
 40
0.5000000000000001
 40
0.5000000000000001
 40
0.5200000000000001
 40
0.5200000000000001
 40
0.5200000000000001
 40
0.5200000000000001
 40
0.5400000000000002
 40
0.5400000000000002
 40
0.5400000000000002
 40
0.5400000000000002
 40
0.5600000000000002
 40
0.5600000000000002
 40
0.5600000000000002
 40
0.5600000000000002
 40
0.5800000000000002
 40
0.5800000000000002
 40
0.5800000000000002
 40
0.5800000000000002
 40
0.6000000000000002
 40
0.6000000000000002
 40
0.6000000000000002
 40
0.6000000000000002
 40
0.6200000000000002
 40
0.6200000000000002
 40
0.6200000000000002
 40
0.6200000000000002
 40
0.6400000000000002
 40
0.6400000000000002
 40
0.6400000000000002
 40
0.6400000000000002
 40
0.6600000000000003
 40
0.6600000000000003
 40
0.6600000000000003
 40
0.6600000000000003
 40
0.6800000000000003
 40
0.6800000000000003
 40
0.6800000000000003
 40
0.6800000000000003
 40
0.7000000000000003
 40
0.7000000000000003
 40
0.7000000000000003
 40
0.7000000000000003
 40
0.7200000000000003
 40
0.7200000000000003
 40
0.7200000000000003
 40
0.7200000000000003
 40
0.7400000000000003
 40
0.7400000000000003
 40
0.7400000000000003
 40
0.7400000000000003
 40
0.7600000000000003
 40
0.7600000000000003
 40
0.7600000000000003
 40
0.7600000000000003
 40
0.7800000000000004
 40
0.7800000000000004
 40
0.7800000000000004
 40
0.7800000000000004
 40
0.8000000000000004
 40
0.8000000000000004
 40
0.8000000000000004
 40
0.8000000000000004
 40
0.8200000000000004
 40
0.8200000000000004
 40
0.8200000000000004
 40
0.8200000000000004
 40
0.8400000000000004
 40
0.8400000000000004
 40
0.8400000000000004
 40
0.8400000000000004
 40
0.8600000000000004
 40
0.8600000000000004
 40
0.8600000000000004
 40
0.8600000000000004
 40
0.8800000000000005
 40
0.8800000000000005
 40
0.8800000000000005
 40
0.8800000000000005
 40
0.9000000000000005
 40
0.9000000000000005
 40
0.9000000000000005
 40
0.9000000000000005
 40
0.9200000000000005
 40
0.9200000000000005
 40
0.9200000000000005
 40
0.9200000000000005
 40
0.9400000000000005
 40
0.9400000000000005
 40
0.9400000000000005
 40
0.9400000000000005
 40
0.9600000000000005
 40
0.9600000000000005
 40
0.9600000000000005
 40
0.9600000000000005
 40
0.9800000000000005
 40
0.9800000000000005
 40
0.9800000000000005
 40
0.9800000000000005
 40
1.0
 40
1.0
 40
1.0
 40
1.0
 10
-1.234484251968504
 20
0.625751968503937
 30
0.0
 10
-1.234484251968504
 20
0.625751968503937
 30
0.0
 10
-1.19353937007874
 20
0.625751968503937
 30
0.0
 10
-1.19353937007874
 20
0.625751968503937
 30
0.0
 10
-1.19353937007874
 20
0.625751968503937
 30
0.0
 10
-1.19353937007874
 20
0.625751968503937
 30
0.0
 10
-1.19353937007874
 20
0.6189173228346457
 30
0.0
 10
-1.19353937007874
 20
0.6189173228346457
 30
0.0
 10
-1.19353937007874
 20
0.6189173228346457
 30
0.0
 10
-1.19353937007874
 20
0.6189173228346457
 30
0.0
 10
-1.196374015748032
 20
0.6189173228346457
 30
0.0
 10
-1.196374015748032
 20
0.6189173228346457
 30
0.0
 10
-1.196374015748032
 20
0.6189173228346457
 30
0.0
 10
-1.198011811023622
 20
0.6189173228346457
 30
0.0
 10
-1.199511811023622
 20
0.6187244094488189
 30
0.0
 10
-1.200874015748032
 20
0.6183622047244095
 30
0.0
 10
-1.200874015748032
 20
0.6183622047244095
 30
0.0
 10
-1.201677165354331
 20
0.6181417322834646
 30
0.0
 10
-1.202346456692913
 20
0.6177244094488189
 30
0.0
 10
-1.202846456692913
 20
0.6170866141732284
 30
0.0
 10
-1.202846456692913
 20
0.6170866141732284
 30
0.0
 10
-1.203374015748032
 20
0.616472440944882
 30
0.0
 10
-1.203622047244095
 20
0.6158897637795275
 30
0.0
 10
-1.203622047244095
 20
0.6153346456692914
 30
0.0
 10
-1.203622047244095
 20
0.6153346456692914
 30
0.0
 10
-1.203622047244095
 20
0.6140866141732284
 30
0.0
 10
-1.202594488188977
 20
0.612224409448819
 30
0.0
 10
-1.20053937007874
 20
0.6097244094488189
 30
0.0
 10
-1.20053937007874
 20
0.6097244094488189
 30
0.0
 10
-1.20053937007874
 20
0.6097244094488189
 30
0.0
 10
-1.18890157480315
 20
0.5950866141732284
 30
0.0
 10
-1.18890157480315
 20
0.5950866141732284
 30
0.0
 10
-1.18890157480315
 20
0.5950866141732284
 30
0.0
 10
-1.18890157480315
 20
0.5950866141732284
 30
0.0
 10
-1.175318897637795
 20
0.6097244094488189
 30
0.0
 10
-1.175318897637795
 20
0.6097244094488189
 30
0.0
 10
-1.175318897637795
 20
0.6097244094488189
 30
0.0
 10
-1.172818897637795
 20
0.6124448818897638
 30
0.0
 10
-1.171566929133858
 20
0.614472440944882
 30
0.0
 10
-1.171566929133858
 20
0.6158346456692914
 30
0.0
 10
-1.171566929133858
 20
0.6158346456692914
 30
0.0
 10
-1.171566929133858
 20
0.6168070866141733
 30
0.0
 10
-1.172011811023622
 20
0.6175590551181103
 30
0.0
 10
-1.172874015748032
 20
0.6181141732283465
 30
0.0
 10
-1.172874015748032
 20
0.6181141732283465
 30
0.0
 10
-1.173736220472441
 20
0.6186417322834646
 30
0.0
 10
-1.175594488188976
 20
0.6189173228346457
 30
0.0
 10
-1.178484251968504
 20
0.6189173228346457
 30
0.0
 10
-1.178484251968504
 20
0.6189173228346457
 30
0.0
 10
-1.178484251968504
 20
0.6189173228346457
 30
0.0
 10
-1.181566929133858
 20
0.6189173228346457
 30
0.0
 10
-1.181566929133858
 20
0.6189173228346457
 30
0.0
 10
-1.181566929133858
 20
0.6189173228346457
 30
0.0
 10
-1.181566929133858
 20
0.6189173228346457
 30
0.0
 10
-1.181566929133858
 20
0.625751968503937
 30
0.0
 10
-1.181566929133858
 20
0.625751968503937
 30
0.0
 10
-1.181566929133858
 20
0.625751968503937
 30
0.0
 10
-1.181566929133858
 20
0.625751968503937
 30
0.0
 10
-1.146818897637795
 20
0.625751968503937
 30
0.0
 10
-1.146818897637795
 20
0.625751968503937
 30
0.0
 10
-1.146818897637795
 20
0.625751968503937
 30
0.0
 10
-1.146818897637795
 20
0.625751968503937
 30
0.0
 10
-1.146818897637795
 20
0.6189173228346457
 30
0.0
 10
-1.146818897637795
 20
0.6189173228346457
 30
0.0
 10
-1.146818897637795
 20
0.6189173228346457
 30
0.0
 10
-1.150236220472441
 20
0.618751968503937
 30
0.0
 10
-1.153181102362205
 20
0.6180590551181102
 30
0.0
 10
-1.155649606299213
 20
0.6168070866141733
 30
0.0
 10
-1.155649606299213
 20
0.6168070866141733
 30
0.0
 10
-1.158122047244095
 20
0.6155590551181103
 30
0.0
 10
-1.16103937007874
 20
0.6131968503937009
 30
0.0
 10
-1.16440157480315
 20
0.6097244094488189
 30
0.0
 10
-1.16440157480315
 20
0.6097244094488189
 30
0.0
 10
-1.16440157480315
 20
0.6097244094488189
 30
0.0
 10
-1.18303937007874
 20
0.5903622047244095
 30
0.0
 10
-1.18303937007874
 20
0.5903622047244095
 30
0.0
 10
-1.18303937007874
 20
0.5903622047244095
 30
0.0
 10
-1.18303937007874
 20
0.5903622047244095
 30
0.0
 10
-1.159846456692913
 20
0.5639173228346457
 30
0.0
 10
-1.159846456692913
 20
0.5639173228346457
 30
0.0
 10
-1.159846456692913
 20
0.5639173228346457
 30
0.0
 10
-1.159846456692913
 20
0.5639173228346457
 30
0.0
 10
-1.158956692913386
 20
0.5627795275590551
 30
0.0
 10
-1.158956692913386
 20
0.5627795275590551
 30
0.0
 10
-1.158956692913386
 20
0.5627795275590551
 30
0.0
 10
-1.156681102362205
 20
0.5598346456692913
 30
0.0
 10
-1.154122047244095
 20
0.5574724409448819
 30
0.0
 10
-1.151291338582677
 20
0.5556968503937008
 30
0.0
 10
-1.151291338582677
 20
0.5556968503937008
 30
0.0
 10
-1.149736220472441
 20
0.5546692913385827
 30
0.0
 10
-1.147291338582677
 20
0.5541141732283464
 30
0.0
 10
-1.143984251968504
 20
0.5540590551181103
 30
0.0
 10
-1.143984251968504
 20
0.5540590551181103
 30
0.0
 10
-1.143984251968504
 20
0.5540590551181103
 30
0.0
 10
-1.143984251968504
 20
0.5472244094488189
 30
0.0
 10
-1.143984251968504
 20
0.5472244094488189
 30
0.0
 10
-1.143984251968504
 20
0.5472244094488189
 30
0.0
 10
-1.143984251968504
 20
0.5472244094488189
 30
0.0
 10
-1.183929133858268
 20
0.5472244094488189
 30
0.0
 10
-1.183929133858268
 20
0.5472244094488189
 30
0.0
 10
-1.183929133858268
 20
0.5472244094488189
 30
0.0
 10
-1.183929133858268
 20
0.5472244094488189
 30
0.0
 10
-1.183929133858268
 20
0.5540590551181103
 30
0.0
 10
-1.183929133858268
 20
0.5540590551181103
 30
0.0
 10
-1.183929133858268
 20
0.5540590551181103
 30
0.0
 10
-1.183929133858268
 20
0.5540590551181103
 30
0.0
 10
-1.180511811023622
 20
0.5540590551181103
 30
0.0
 10
-1.180511811023622
 20
0.5540590551181103
 30
0.0
 10
-1.180511811023622
 20
0.5540590551181103
 30
0.0
 10
-1.17790157480315
 20
0.5540590551181103
 30
0.0
 10
-1.176263779527559
 20
0.5542244094488189
 30
0.0
 10
-1.17553937007874
 20
0.5545590551181102
 30
0.0
 10
-1.17553937007874
 20
0.5545590551181102
 30
0.0
 10
-1.174374015748032
 20
0.5550866141732284
 30
0.0
 10
-1.173763779527559
 20
0.556003937007874
 30
0.0
 10
-1.173763779527559
 20
0.5573070866141733
 30
0.0
 10
-1.173763779527559
 20
0.5573070866141733
 30
0.0
 10
-1.173763779527559
 20
0.558503937007874
 30
0.0
 10
-1.175066929133858
 20
0.5606968503937008
 30
0.0
 10
-1.177681102362205
 20
0.5639173228346457
 30
0.0
 10
-1.177681102362205
 20
0.5639173228346457
 30
0.0
 10
-1.177681102362205
 20
0.5639173228346457
 30
0.0
 10
-1.192484251968504
 20
0.5820590551181103
 30
0.0
 10
-1.192484251968504
 20
0.5820590551181103
 30
0.0
 10
-1.192484251968504
 20
0.5820590551181103
 30
0.0
 10
-1.192484251968504
 20
0.5820590551181103
 30
0.0
 10
-1.209011811023622
 20
0.5639173228346457
 30
0.0
 10
-1.209011811023622
 20
0.5639173228346457
 30
0.0
 10
-1.209011811023622
 20
0.5639173228346457
 30
0.0
 10
-1.209011811023622
 20
0.5639173228346457
 30
0.0
 10
-1.210622047244095
 20
0.5619448818897638
 30
0.0
 10
-1.210622047244095
 20
0.5619448818897638
 30
0.0
 10
-1.210622047244095
 20
0.5619448818897638
 30
0.0
 10
-1.210622047244095
 20
0.5619448818897638
 30
0.0
 10
-1.211511811023622
 20
0.5609724409448819
 30
0.0
 10
-1.211511811023622
 20
0.5609724409448819
 30
0.0
 10
-1.211511811023622
 20
0.5609724409448819
 30
0.0
 10
-1.212874015748032
 20
0.559503937007874
 30
0.0
 10
-1.213566929133858
 20
0.5582244094488189
 30
0.0
 10
-1.213566929133858
 20
0.5570866141732284
 30
0.0
 10
-1.213566929133858
 20
0.5570866141732284
 30
0.0
 10
-1.213566929133858
 20
0.5560314960629922
 30
0.0
 10
-1.213149606299213
 20
0.5552795275590552
 30
0.0
 10
-1.212291338582677
 20
0.5547795275590551
 30
0.0
 10
-1.212291338582677
 20
0.5547795275590551
 30
0.0
 10
-1.211456692913386
 20
0.5543070866141733
 30
0.0
 10
-1.209566929133858
 20
0.5540590551181103
 30
0.0
 10
-1.206649606299213
 20
0.5540590551181103
 30
0.0
 10
-1.206649606299213
 20
0.5540590551181103
 30
0.0
 10
-1.206649606299213
 20
0.5540590551181103
 30
0.0
 10
-1.203374015748032
 20
0.5540590551181103
 30
0.0
 10
-1.203374015748032
 20
0.5540590551181103
 30
0.0
 10
-1.203374015748032
 20
0.5540590551181103
 30
0.0
 10
-1.203374015748032
 20
0.5540590551181103
 30
0.0
 10
-1.203374015748032
 20
0.5472244094488189
 30
0.0
 10
-1.203374015748032
 20
0.5472244094488189
 30
0.0
 10
-1.203374015748032
 20
0.5472244094488189
 30
0.0
 10
-1.203374015748032
 20
0.5472244094488189
 30
0.0
 10
-1.237649606299213
 20
0.5472244094488189
 30
0.0
 10
-1.237649606299213
 20
0.5472244094488189
 30
0.0
 10
-1.237649606299213
 20
0.5472244094488189
 30
0.0
 10
-1.237649606299213
 20
0.5472244094488189
 30
0.0
 10
-1.237649606299213
 20
0.5540590551181103
 30
0.0
 10
-1.237649606299213
 20
0.5540590551181103
 30
0.0
 10
-1.237649606299213
 20
0.5540590551181103
 30
0.0
 10
-1.234984251968504
 20
0.5541141732283464
 30
0.0
 10
-1.23290157480315
 20
0.5543897637795275
 30
0.0
 10
-1.231374015748032
 20
0.5549173228346457
 30
0.0
 10
-1.231374015748032
 20
0.5549173228346457
 30
0.0
 10
-1.229874015748032
 20
0.5554173228346457
 30
0.0
 10
-1.22840157480315
 20
0.5562244094488189
 30
0.0
 10
-1.226984251968504
 20
0.5573070866141733
 30
0.0
 10
-1.226984251968504
 20
0.5573070866141733
 30
0.0
 10
-1.22453937007874
 20
0.5592795275590552
 30
0.0
 10
-1.222791338582677
 20
0.5608070866141732
 30
0.0
 10
-1.221704724409449
 20
0.5619448818897638
 30
0.0
 10
-1.221704724409449
 20
0.5619448818897638
 30
0.0
 10
-1.221704724409449
 20
0.5619448818897638
 30
0.0
 10
-1.197846456692914
 20
0.5864448818897639
 30
0.0
 10
-1.197846456692914
 20
0.5864448818897639
 30
0.0
 10
-1.197846456692914
 20
0.5864448818897639
 30
0.0
 10
-1.197846456692914
 20
0.5864448818897639
 30
0.0
 10
-1.218122047244095
 20
0.6097244094488189
 30
0.0
 10
-1.218122047244095
 20
0.6097244094488189
 30
0.0
 10
-1.218122047244095
 20
0.6097244094488189
 30
0.0
 10
-1.220677165354331
 20
0.6126141732283464
 30
0.0
 10
-1.222677165354331
 20
0.6146141732283464
 30
0.0
 10
-1.224177165354331
 20
0.6157795275590552
 30
0.0
 10
-1.224177165354331
 20
0.6157795275590552
 30
0.0
 10
-1.225677165354331
 20
0.6169448818897638
 30
0.0
 10
-1.227122047244095
 20
0.6177795275590552
 30
0.0
 10
-1.22853937007874
 20
0.618224409448819
 30
0.0
 10
-1.22853937007874
 20
0.618224409448819
 30
0.0
 10
-1.229956692913386
 20
0.6186968503937008
 30
0.0
 10
-1.231929133858268
 20
0.6189173228346457
 30
0.0
 10
-1.234484251968504
 20
0.6189173228346457
 30
0.0
 10
-1.234484251968504
 20
0.6189173228346457
 30
0.0
 10
-1.234484251968504
 20
0.6189173228346457
 30
0.0
 10
-1.234484251968504
 20
0.625751968503937
 30
0.0
 10
-1.234484251968504
 20
0.625751968503937
 30
0.0
  0
SPLINE
  5
3E
330
1F
100
AcDbEntity
  8
LAYER_1
 62
   250
100
AcDbSpline
210
0.0
220
0.0
230
1.0
 70
    11
 71
     3
 72
   132
 73
   128
 74
     0
 42
0.0000000001
 43
0.0000000001
 40
0.0
 40
0.0
 40
0.0
 40
0.0
 40
0.03125
 40
0.03125
 40
0.03125
 40
0.03125
 40
0.0625
 40
0.0625
 40
0.0625
 40
0.0625
 40
0.09375
 40
0.09375
 40
0.09375
 40
0.09375
 40
0.125
 40
0.125
 40
0.125
 40
0.125
 40
0.15625
 40
0.15625
 40
0.15625
 40
0.15625
 40
0.1875
 40
0.1875
 40
0.1875
 40
0.1875
 40
0.21875
 40
0.21875
 40
0.21875
 40
0.21875
 40
0.25
 40
0.25
 40
0.25
 40
0.25
 40
0.28125
 40
0.28125
 40
0.28125
 40
0.28125
 40
0.3125
 40
0.3125
 40
0.3125
 40
0.3125
 40
0.34375
 40
0.34375
 40
0.34375
 40
0.34375
 40
0.375
 40
0.375
 40
0.375
 40
0.375
 40
0.40625
 40
0.40625
 40
0.40625
 40
0.40625
 40
0.4375
 40
0.4375
 40
0.4375
 40
0.4375
 40
0.46875
 40
0.46875
 40
0.46875
 40
0.46875
 40
0.5
 40
0.5
 40
0.5
 40
0.5
 40
0.53125
 40
0.53125
 40
0.53125
 40
0.53125
 40
0.5625
 40
0.5625
 40
0.5625
 40
0.5625
 40
0.59375
 40
0.59375
 40
0.59375
 40
0.59375
 40
0.625
 40
0.625
 40
0.625
 40
0.625
 40
0.65625
 40
0.65625
 40
0.65625
 40
0.65625
 40
0.6875
 40
0.6875
 40
0.6875
 40
0.6875
 40
0.71875
 40
0.71875
 40
0.71875
 40
0.71875
 40
0.75
 40
0.75
 40
0.75
 40
0.75
 40
0.78125
 40
0.78125
 40
0.78125
 40
0.78125
 40
0.8125
 40
0.8125
 40
0.8125
 40
0.8125
 40
0.84375
 40
0.84375
 40
0.84375
 40
0.84375
 40
0.875
 40
0.875
 40
0.875
 40
0.875
 40
0.90625
 40
0.90625
 40
0.90625
 40
0.90625
 40
0.9375
 40
0.9375
 40
0.9375
 40
0.9375
 40
0.96875
 40
0.96875
 40
0.96875
 40
0.96875
 40
1.0
 40
1.0
 40
1.0
 40
1.0
 10
-1.068456692913386
 20
0.660751968503937
 30
0.0
 10
-1.068456692913386
 20
0.660751968503937
 30
0.0
 10
-1.017846456692914
 20
0.660751968503937
 30
0.0
 10
-1.017846456692914
 20
0.660751968503937
 30
0.0
 10
-1.017846456692914
 20
0.660751968503937
 30
0.0
 10
-1.014763779527559
 20
0.660751968503937
 30
0.0
 10
-1.012874015748032
 20
0.6609173228346457
 30
0.0
 10
-1.012236220472441
 20
0.6612519685039371
 30
0.0
 10
-1.012236220472441
 20
0.6612519685039371
 30
0.0
 10
-1.011318897637795
 20
0.6617795275590551
 30
0.0
 10
-1.010763779527559
 20
0.6629448818897639
 30
0.0
 10
-1.010598425196851
 20
0.6647244094488189
 30
0.0
 10
-1.010598425196851
 20
0.6647244094488189
 30
0.0
 10
-1.010598425196851
 20
0.6647244094488189
 30
0.0
 10
-1.004653543307087
 20
0.6647244094488189
 30
0.0
 10
-1.004653543307087
 20
0.6647244094488189
 30
0.0
 10
-1.004653543307087
 20
0.6647244094488189
 30
0.0
 10
-1.004653543307087
 20
0.6647244094488189
 30
0.0
 10
-1.004653543307087
 20
0.6475551181102363
 30
0.0
 10
-1.004653543307087
 20
0.6475551181102363
 30
0.0
 10
-1.004653543307087
 20
0.6475551181102363
 30
0.0
 10
-1.004653543307087
 20
0.6475551181102363
 30
0.0
 10
-1.06090157480315
 20
0.6475551181102363
 30
0.0
 10
-1.06090157480315
 20
0.6475551181102363
 30
0.0
 10
-1.06090157480315
 20
0.6475551181102363
 30
0.0
 10
-1.06090157480315
 20
0.6475551181102363
 30
0.0
 10
-1.062291338582677
 20
0.6189173228346457
 30
0.0
 10
-1.062291338582677
 20
0.6189173228346457
 30
0.0
 10
-1.062291338582677
 20
0.6189173228346457
 30
0.0
 10
-1.059956692913386
 20
0.6195866141732284
 30
0.0
 10
-1.056984251968504
 20
0.6201141732283465
 30
0.0
 10
-1.05340157480315
 20
0.6205590551181103
 30
0.0
 10
-1.05340157480315
 20
0.6205590551181103
 30
0.0
 10
-1.048791338582677
 20
0.6210866141732284
 30
0.0
 10
-1.044681102362205
 20
0.6213622047244095
 30
0.0
 10
-1.04103937007874
 20
0.6213622047244095
 30
0.0
 10
-1.04103937007874
 20
0.6213622047244095
 30
0.0
 10
-1.031984251968504
 20
0.6213622047244095
 30
0.0
 10
-1.02409842519685
 20
0.6197244094488189
 30
0.0
 10
-1.017346456692913
 20
0.616472440944882
 30
0.0
 10
-1.017346456692913
 20
0.616472440944882
 30
0.0
 10
-1.010625984251969
 20
0.613224409448819
 30
0.0
 10
-1.005515748031496
 20
0.608751968503937
 30
0.0
 10
-1.002015748031496
 20
0.6030866141732284
 30
0.0
 10
-1.002015748031496
 20
0.6030866141732284
 30
0.0
 10
-0.9985157480314961
 20
0.5974173228346457
 30
0.0
 10
-0.9967637795275591
 20
0.5910866141732284
 30
0.0
 10
-0.9967637795275591
 20
0.5840866141732284
 30
0.0
 10
-0.9967637795275591
 20
0.5840866141732284
 30
0.0
 10
-0.9967637795275591
 20
0.573251968503937
 30
0.0
 10
-1.000846456692913
 20
0.5640590551181103
 30
0.0
 10
-1.008984251968504
 20
0.5565314960629921
 30
0.0
 10
-1.008984251968504
 20
0.5565314960629921
 30
0.0
 10
-1.017125984251969
 20
0.5490314960629922
 30
0.0
 10
-1.027484251968504
 20
0.5452795275590552
 30
0.0
 10
-1.040070866141732
 20
0.5452795275590552
 30
0.0
 10
-1.040070866141732
 20
0.5452795275590552
 30
0.0
 10
-1.047346456692913
 20
0.5452795275590552
 30
0.0
 10
-1.05390157480315
 20
0.5465866141732284
 30
0.0
 10
-1.059791338582677
 20
0.5491692913385827
 30
0.0
 10
-1.059791338582677
 20
0.5491692913385827
 30
0.0
 10
-1.065681102362205
 20
0.5517795275590551
 30
0.0
 10
-1.070291338582677
 20
0.5552244094488189
 30
0.0
 10
-1.07359842519685
 20
0.5594724409448819
 30
0.0
 10
-1.07359842519685
 20
0.5594724409448819
 30
0.0
 10
-1.07690157480315
 20
0.563724409448819
 30
0.0
 10
-1.078566929133858
 20
0.5674724409448819
 30
0.0
 10
-1.078566929133858
 20
0.5706692913385827
 30
0.0
 10
-1.078566929133858
 20
0.5706692913385827
 30
0.0
 10
-1.078566929133858
 20
0.5727795275590552
 30
0.0
 10
-1.077846456692913
 20
0.5746141732283465
 30
0.0
 10
-1.076429133858268
 20
0.5761692913385828
 30
0.0
 10
-1.076429133858268
 20
0.5761692913385828
 30
0.0
 10
-1.07503937007874
 20
0.5776968503937008
 30
0.0
 10
-1.073208661417323
 20
0.5784724409448819
 30
0.0
 10
-1.070984251968504
 20
0.5784724409448819
 30
0.0
 10
-1.070984251968504
 20
0.5784724409448819
 30
0.0
 10
-1.068708661417323
 20
0.5784724409448819
 30
0.0
 10
-1.066708661417323
 20
0.5775314960629921
 30
0.0
 10
-1.064956692913386
 20
0.5756141732283465
 30
0.0
 10
-1.064956692913386
 20
0.5756141732283465
 30
0.0
 10
-1.063984251968504
 20
0.5746417322834646
 30
0.0
 10
-1.062818897637795
 20
0.572251968503937
 30
0.0
 10
-1.061456692913386
 20
0.5684724409448819
 30
0.0
 10
-1.061456692913386
 20
0.5684724409448819
 30
0.0
 10
-1.059625984251969
 20
0.5631417322834645
 30
0.0
 10
-1.056874015748032
 20
0.559251968503937
 30
0.0
 10
-1.053236220472441
 20
0.556751968503937
 30
0.0
 10
-1.053236220472441
 20
0.556751968503937
 30
0.0
 10
-1.049681102362205
 20
0.5541968503937008
 30
0.0
 10
-1.045153543307087
 20
0.5529173228346457
 30
0.0
 10
-1.039736220472441
 20
0.5529173228346457
 30
0.0
 10
-1.039736220472441
 20
0.5529173228346457
 30
0.0
 10
-1.034318897637795
 20
0.5529173228346457
 30
0.0
 10
-1.029484251968504
 20
0.5541141732283464
 30
0.0
 10
-1.025263779527559
 20
0.5564724409448819
 30
0.0
 10
-1.025263779527559
 20
0.5564724409448819
 30
0.0
 10
-1.021011811023622
 20
0.5588070866141732
 30
0.0
 10
-1.017681102362205
 20
0.5622244094488189
 30
0.0
 10
-1.015236220472441
 20
0.5666417322834646
 30
0.0
 10
-1.015236220472441
 20
0.5666417322834646
 30
0.0
 10
-1.012791338582677
 20
0.5710590551181103
 30
0.0
 10
-1.011570866141732
 20
0.5759724409448819
 30
0.0
 10
-1.011570866141732
 20
0.5813897637795276
 30
0.0
 10
-1.011570866141732
 20
0.5813897637795276
 30
0.0
 10
-1.011570866141732
 20
0.5871141732283465
 30
0.0
 10
-1.01290157480315
 20
0.5921692913385827
 30
0.0
 10
-1.015543307086614
 20
0.5966141732283465
 30
0.0
 10
-1.015543307086614
 20
0.5966141732283465
 30
0.0
 10
-1.018153543307087
 20
0.6010590551181103
 30
0.0
 10
-1.021929133858268
 20
0.6045275590551181
 30
0.0
 10
-1.026846456692913
 20
0.6069448818897638
 30
0.0
 10
-1.026846456692913
 20
0.6069448818897638
 30
0.0
 10
-1.031763779527559
 20
0.6093897637795276
 30
0.0
 10
-1.037736220472441
 20
0.6106141732283464
 30
0.0
 10
-1.044791338582677
 20
0.6106141732283464
 30
0.0
 10
-1.044791338582677
 20
0.6106141732283464
 30
0.0
 10
-1.049070866141732
 20
0.6106141732283464
 30
0.0
 10
-1.053681102362205
 20
0.6101692913385827
 30
0.0
 10
-1.058570866141732
 20
0.609224409448819
 30
0.0
 10
-1.058570866141732
 20
0.609224409448819
 30
0.0
 10
-1.063484251968504
 20
0.6083070866141732
 30
0.0
 10
-1.067708661417323
 20
0.6071417322834646
 30
0.0
 10
-1.071236220472441
 20
0.6057244094488189
 30
0.0
 10
-1.071236220472441
 20
0.6057244094488189
 30
0.0
 10
-1.071236220472441
 20
0.6057244094488189
 30
0.0
 10
-1.068456692913386
 20
0.660751968503937
 30
0.0
 10
-1.068456692913386
 20
0.660751968503937
 30
0.0
  0
SPLINE
  5
3F
330
1F
100
AcDbEntity
  8
LAYER_1
 62
   250
100
AcDbSpline
210
0.0
220
0.0
230
1.0
 70
    11
 71
     3
 72
    20
 73
    16
 74
     0
 42
0.0000000001
 43
0.0000000001
 40
0.0
 40
0.0
 40
0.0
 40
0.0
 40
0.25
 40
0.25
 40
0.25
 40
0.25
 40
0.5
 40
0.5
 40
0.5
 40
0.5
 40
0.75
 40
0.75
 40
0.75
 40
0.75
 40
1.0
 40
1.0
 40
1.0
 40
1.0
 10
-0.9060118110236221
 20
0.6666141732283465
 30
0.0
 10
-0.9060118110236221
 20
0.6666141732283465
 30
0.0
 10
-0.9615944881889764
 20
0.5109173228346456
 30
0.0
 10
-0.9615944881889764
 20
0.5109173228346456
 30
0.0
 10
-0.9615944881889764
 20
0.5109173228346456
 30
0.0
 10
-0.9615944881889764
 20
0.5109173228346456
 30
0.0
 10
-0.9736496062992126
 20
0.5109173228346456
 30
0.0
 10
-0.9736496062992126
 20
0.5109173228346456
 30
0.0
 10
-0.9736496062992126
 20
0.5109173228346456
 30
0.0
 10
-0.9736496062992126
 20
0.5109173228346456
 30
0.0
 10
-0.9184015748031497
 20
0.6666141732283465
 30
0.0
 10
-0.9184015748031497
 20
0.6666141732283465
 30
0.0
 10
-0.9184015748031497
 20
0.6666141732283465
 30
0.0
 10
-0.9184015748031497
 20
0.6666141732283465
 30
0.0
 10
-0.9060118110236221
 20
0.6666141732283465
 30
0.0
 10
-0.9060118110236221
 20
0.6666141732283465
 30
0.0
  0
SPLINE
  5
40
330
1F
100
AcDbEntity
  8
LAYER_1
 62
   250
100
AcDbSpline
210
0.0
220
0.0
230
1.0
 70
    11
 71
     3
 72
    76
 73
    72
 74
     0
 42
0.0000000001
 43
0.0000000001
 40
0.0
 40
0.0
 40
0.0
 40
0.0
 40
0.0555555555555556
 40
0.0555555555555556
 40
0.0555555555555556
 40
0.0555555555555556
 40
0.1111111111111111
 40
0.1111111111111111
 40
0.1111111111111111
 40
0.1111111111111111
 40
0.1666666666666667
 40
0.1666666666666667
 40
0.1666666666666667
 40
0.1666666666666667
 40
0.2222222222222222
 40
0.2222222222222222
 40
0.2222222222222222
 40
0.2222222222222222
 40
0.2777777777777778
 40
0.2777777777777778
 40
0.2777777777777778
 40
0.2777777777777778
 40
0.3333333333333334
 40
0.3333333333333334
 40
0.3333333333333334
 40
0.3333333333333334
 40
0.388888888888889
 40
0.388888888888889
 40
0.388888888888889
 40
0.388888888888889
 40
0.4444444444444445
 40
0.4444444444444445
 40
0.4444444444444445
 40
0.4444444444444445
 40
0.5000000000000001
 40
0.5000000000000001
 40
0.5000000000000001
 40
0.5000000000000001
 40
0.5555555555555557
 40
0.5555555555555557
 40
0.5555555555555557
 40
0.5555555555555557
 40
0.6111111111111113
 40
0.6111111111111113
 40
0.6111111111111113
 40
0.6111111111111113
 40
0.6666666666666669
 40
0.6666666666666669
 40
0.6666666666666669
 40
0.6666666666666669
 40
0.7222222222222224
 40
0.7222222222222224
 40
0.7222222222222224
 40
0.7222222222222224
 40
0.777777777777778
 40
0.777777777777778
 40
0.777777777777778
 40
0.777777777777778
 40
0.8333333333333336
 40
0.8333333333333336
 40
0.8333333333333336
 40
0.8333333333333336
 40
0.8888888888888892
 40
0.8888888888888892
 40
0.8888888888888892
 40
0.8888888888888892
 40
0.9444444444444448
 40
0.9444444444444448
 40
0.9444444444444448
 40
0.9444444444444448
 40
1.0
 40
1.0
 40
1.0
 40
1.0
 10
-0.8230118110236221
 20
0.610224409448819
 30
0.0
 10
-0.8165944881889764
 20
0.6077795275590552
 30
0.0
 10
-0.8117086614173229
 20
0.605472440944882
 30
0.0
 10
-0.8083464566929134
 20
0.6033070866141732
 30
0.0
 10
-0.8083464566929134
 20
0.6033070866141732
 30
0.0
 10
-0.8034291338582678
 20
0.6001417322834646
 30
0.0
 10
-0.7997086614173229
 20
0.5964448818897639
 30
0.0
 10
-0.7972086614173228
 20
0.5921968503937009
 30
0.0
 10
-0.7972086614173228
 20
0.5921968503937009
 30
0.0
 10
-0.7947086614173229
 20
0.5879173228346457
 30
0.0
 10
-0.7934566929133858
 20
0.5833070866141733
 30
0.0
 10
-0.7934566929133858
 20
0.5783070866141733
 30
0.0
 10
-0.7934566929133858
 20
0.5783070866141733
 30
0.0
 10
-0.7934566929133858
 20
0.5693622047244095
 30
0.0
 10
-0.7973188976377953
 20
0.5616141732283465
 30
0.0
 10
-0.8050118110236221
 20
0.5550866141732284
 30
0.0
 10
-0.8050118110236221
 20
0.5550866141732284
 30
0.0
 10
-0.812736220472441
 20
0.5485314960629921
 30
0.0
 10
-0.8231220472440946
 20
0.5452795275590552
 30
0.0
 10
-0.8361811023622048
 20
0.5452795275590552
 30
0.0
 10
-0.8361811023622048
 20
0.5452795275590552
 30
0.0
 10
-0.8500118110236221
 20
0.5452795275590552
 30
0.0
 10
-0.8608740157480316
 20
0.548972440944882
 30
0.0
 10
-0.8687362204724409
 20
0.5563346456692914
 30
0.0
 10
-0.8687362204724409
 20
0.5563346456692914
 30
0.0
 10
-0.8749842519685039
 20
0.562251968503937
 30
0.0
 10
-0.8780944881889764
 20
0.5689448818897638
 30
0.0
 10
-0.8780944881889764
 20
0.5764448818897638
 30
0.0
 10
-0.8780944881889764
 20
0.5764448818897638
 30
0.0
 10
-0.8780944881889764
 20
0.5824724409448819
 30
0.0
 10
-0.8759842519685039
 20
0.5878622047244094
 30
0.0
 10
-0.8717637795275591
 20
0.5926417322834646
 30
0.0
 10
-0.8717637795275591
 20
0.5926417322834646
 30
0.0
 10
-0.8666496062992126
 20
0.5983346456692914
 30
0.0
 10
-0.8593740157480315
 20
0.6027795275590552
 30
0.0
 10
-0.8499291338582677
 20
0.6059724409448819
 30
0.0
 10
-0.8499291338582677
 20
0.6059724409448819
 30
0.0
 10
-0.8573188976377953
 20
0.6094448818897638
 30
0.0
 10
-0.8626220472440945
 20
0.6129724409448819
 30
0.0
 10
-0.8659015748031497
 20
0.6165590551181103
 30
0.0
 10
-0.8659015748031497
 20
0.6165590551181103
 30
0.0
 10
-0.8700669291338583
 20
0.6212795275590551
 30
0.0
 10
-0.8721496062992127
 20
0.6269448818897638
 30
0.0
 10
-0.8721496062992127
 20
0.6335551181102362
 30
0.0
 10
-0.8721496062992127
 20
0.6335551181102362
 30
0.0
 10
-0.8721496062992127
 20
0.641751968503937
 30
0.0
 10
-0.8690669291338583
 20
0.6483897637795276
 30
0.0
 10
-0.8628740157480316
 20
0.6534173228346457
 30
0.0
 10
-0.8628740157480316
 20
0.6534173228346457
 30
0.0
 10
-0.8552913385826773
 20
0.6596141732283465
 30
0.0
 10
-0.8457913385826772
 20
0.6626968503937009
 30
0.0
 10
-0.8344015748031497
 20
0.6626968503937009
 30
0.0
 10
-0.8344015748031497
 20
0.6626968503937009
 30
0.0
 10
-0.823984251968504
 20
0.6626968503937009
 30
0.0
 10
-0.8155669291338583
 20
0.6600275590551181
 30
0.0
 10
-0.8091220472440945
 20
0.6546968503937009
 30
0.0
 10
-0.8091220472440945
 20
0.6546968503937009
 30
0.0
 10
-0.8027086614173229
 20
0.6493346456692913
 30
0.0
 10
-0.7994842519685039
 20
0.6432244094488189
 30
0.0
 10
-0.7994842519685039
 20
0.6363346456692913
 30
0.0
 10
-0.7994842519685039
 20
0.6363346456692913
 30
0.0
 10
-0.7994842519685039
 20
0.6329173228346458
 30
0.0
 10
-0.8002913385826772
 20
0.6296417322834645
 30
0.0
 10
-0.8018740157480315
 20
0.6265275590551181
 30
0.0
 10
-0.8018740157480315
 20
0.6265275590551181
 30
0.0
 10
-0.8034842519685039
 20
0.6234173228346457
 30
0.0
 10
-0.8059291338582677
 20
0.6205000000000001
 30
0.0
 10
-0.8092637795275591
 20
0.6178346456692914
 30
0.0
 10
-0.8092637795275591
 20
0.6178346456692914
 30
0.0
 10
-0.8125669291338583
 20
0.6151417322834646
 30
0.0
 10
-0.8171535433070867
 20
0.6126141732283464
 30
0.0
 10
-0.8230118110236221
 20
0.610224409448819
 30
0.0
  0
SPLINE
  5
41
330
1F
100
AcDbEntity
  8
LAYER_1
 62
   250
100
AcDbSpline
210
0.0
220
0.0
230
1.0
 70
    11
 71
     3
 72
    48
 73
    44
 74
     0
 42
0.0000000001
 43
0.0000000001
 40
0.0
 40
0.0
 40
0.0
 40
0.0
 40
0.0909090909090909
 40
0.0909090909090909
 40
0.0909090909090909
 40
0.0909090909090909
 40
0.1818181818181818
 40
0.1818181818181818
 40
0.1818181818181818
 40
0.1818181818181818
 40
0.2727272727272727
 40
0.2727272727272727
 40
0.2727272727272727
 40
0.2727272727272727
 40
0.3636363636363637
 40
0.3636363636363637
 40
0.3636363636363637
 40
0.3636363636363637
 40
0.4545454545454546
 40
0.4545454545454546
 40
0.4545454545454546
 40
0.4545454545454546
 40
0.5454545454545455
 40
0.5454545454545455
 40
0.5454545454545455
 40
0.5454545454545455
 40
0.6363636363636365
 40
0.6363636363636365
 40
0.6363636363636365
 40
0.6363636363636365
 40
0.7272727272727274
 40
0.7272727272727274
 40
0.7272727272727274
 40
0.7272727272727274
 40
0.8181818181818183
 40
0.8181818181818183
 40
0.8181818181818183
 40
0.8181818181818183
 40
0.9090909090909093
 40
0.9090909090909093
 40
0.9090909090909093
 40
0.9090909090909093
 40
1.0
 40
1.0
 40
1.0
 40
1.0
 10
-0.8304015748031497
 20
0.613224409448819
 30
0.0
 10
-0.8242362204724409
 20
0.6178897637795275
 30
0.0
 10
-0.8202086614173229
 20
0.6211417322834646
 30
0.0
 10
-0.8183740157480315
 20
0.623
 30
0.0
 10
-0.8183740157480315
 20
0.623
 30
0.0
 10
-0.816511811023622
 20
0.6248346456692914
 30
0.0
 10
-0.8150944881889765
 20
0.6269448818897638
 30
0.0
 10
-0.8140944881889765
 20
0.6293070866141732
 30
0.0
 10
-0.8140944881889765
 20
0.6293070866141732
 30
0.0
 10
-0.8130944881889765
 20
0.6316692913385827
 30
0.0
 10
-0.8125944881889764
 20
0.6339448818897638
 30
0.0
 10
-0.8125944881889764
 20
0.6361692913385827
 30
0.0
 10
-0.8125944881889764
 20
0.6361692913385827
 30
0.0
 10
-0.8125944881889764
 20
0.6393622047244095
 30
0.0
 10
-0.8135393700787402
 20
0.6424173228346457
 30
0.0
 10
-0.8154291338582678
 20
0.6453346456692913
 30
0.0
 10
-0.8154291338582678
 20
0.6453346456692913
 30
0.0
 10
-0.8173464566929134
 20
0.6482244094488189
 30
0.0
 10
-0.8201220472440945
 20
0.6505866141732284
 30
0.0
 10
-0.8237913385826772
 20
0.6523622047244094
 30
0.0
 10
-0.8237913385826772
 20
0.6523622047244094
 30
0.0
 10
-0.8274291338582678
 20
0.6541692913385827
 30
0.0
 10
-0.8315393700787402
 20
0.6550551181102362
 30
0.0
 10
-0.8360944881889764
 20
0.6550551181102362
 30
0.0
 10
-0.8360944881889764
 20
0.6550551181102362
 30
0.0
 10
-0.8428464566929135
 20
0.6550551181102362
 30
0.0
 10
-0.8484291338582678
 20
0.6531968503937008
 30
0.0
 10
-0.8528740157480316
 20
0.6494724409448819
 30
0.0
 10
-0.8528740157480316
 20
0.6494724409448819
 30
0.0
 10
-0.8573188976377953
 20
0.645751968503937
 30
0.0
 10
-0.8595393700787402
 20
0.6414724409448819
 30
0.0
 10
-0.8595393700787402
 20
0.6365866141732284
 30
0.0
 10
-0.8595393700787402
 20
0.6365866141732284
 30
0.0
 10
-0.8595393700787402
 20
0.6326692913385827
 30
0.0
 10
-0.8581496062992127
 20
0.6291692913385827
 30
0.0
 10
-0.8554015748031496
 20
0.6260866141732284
 30
0.0
 10
-0.8554015748031496
 20
0.6260866141732284
 30
0.0
 10
-0.8526220472440945
 20
0.623
 30
0.0
 10
-0.847484251968504
 20
0.6199448818897638
 30
0.0
 10
-0.8399291338582677
 20
0.6169724409448819
 30
0.0
 10
-0.8399291338582677
 20
0.6169724409448819
 30
0.0
 10
-0.8399291338582677
 20
0.6169724409448819
 30
0.0
 10
-0.8304015748031497
 20
0.613224409448819
 30
0.0
 10
-0.8304015748031497
 20
0.613224409448819
 30
0.0
  0
SPLINE
  5
42
330
1F
100
AcDbEntity
  8
LAYER_1
 62
   250
100
AcDbSpline
210
0.0
220
0.0
230
1.0
 70
    11
 71
     3
 72
    40
 73
    36
 74
     0
 42
0.0000000001
 43
0.0000000001
 40
0.0
 40
0.0
 40
0.0
 40
0.0
 40
0.1111111111111111
 40
0.1111111111111111
 40
0.1111111111111111
 40
0.1111111111111111
 40
0.2222222222222222
 40
0.2222222222222222
 40
0.2222222222222222
 40
0.2222222222222222
 40
0.3333333333333333
 40
0.3333333333333333
 40
0.3333333333333333
 40
0.3333333333333333
 40
0.4444444444444444
 40
0.4444444444444444
 40
0.4444444444444444
 40
0.4444444444444444
 40
0.5555555555555556
 40
0.5555555555555556
 40
0.5555555555555556
 40
0.5555555555555556
 40
0.6666666666666667
 40
0.6666666666666667
 40
0.6666666666666667
 40
0.6666666666666667
 40
0.7777777777777779
 40
0.7777777777777779
 40
0.7777777777777779
 40
0.7777777777777779
 40
0.8888888888888891
 40
0.8888888888888891
 40
0.8888888888888891
 40
0.8888888888888891
 40
1.0
 40
1.0
 40
1.0
 40
1.0
 10
-0.8418740157480316
 20
0.6028070866141733
 30
0.0
 10
-0.8495393700787401
 20
0.5994448818897638
 30
0.0
 10
-0.8555944881889764
 20
0.5950866141732284
 30
0.0
 10
-0.8600393700787402
 20
0.5896968503937008
 30
0.0
 10
-0.8600393700787402
 20
0.5896968503937008
 30
0.0
 10
-0.8635118110236221
 20
0.5854724409448819
 30
0.0
 10
-0.865236220472441
 20
0.5810866141732284
 30
0.0
 10
-0.865236220472441
 20
0.5765314960629921
 30
0.0
 10
-0.865236220472441
 20
0.5765314960629921
 30
0.0
 10
-0.865236220472441
 20
0.5703346456692914
 30
0.0
 10
-0.8625118110236221
 20
0.5648346456692913
 30
0.0
 10
-0.8570118110236221
 20
0.5600314960629922
 30
0.0
 10
-0.8570118110236221
 20
0.5600314960629922
 30
0.0
 10
-0.8515393700787401
 20
0.555251968503937
 30
0.0
 10
-0.8444566929133859
 20
0.5528346456692914
 30
0.0
 10
-0.8357913385826772
 20
0.5528346456692914
 30
0.0
 10
-0.8357913385826772
 20
0.5528346456692914
 30
0.0
 10
-0.8269291338582677
 20
0.5528346456692914
 30
0.0
 10
-0.8195669291338583
 20
0.5555866141732284
 30
0.0
 10
-0.8136535433070866
 20
0.5610590551181103
 30
0.0
 10
-0.8136535433070866
 20
0.5610590551181103
 30
0.0
 10
-0.8088188976377954
 20
0.5655039370078741
 30
0.0
 10
-0.8064015748031497
 20
0.5702795275590551
 30
0.0
 10
-0.8064015748031497
 20
0.5753897637795276
 30
0.0
 10
-0.8064015748031497
 20
0.5753897637795276
 30
0.0
 10
-0.8064015748031497
 20
0.5793897637795276
 30
0.0
 10
-0.807984251968504
 20
0.5832244094488189
 30
0.0
 10
-0.8111535433070867
 20
0.5868897637795276
 30
0.0
 10
-0.8111535433070867
 20
0.5868897637795276
 30
0.0
 10
-0.8143464566929134
 20
0.5905590551181102
 30
0.0
 10
-0.8202362204724409
 20
0.5941141732283465
 30
0.0
 10
-0.8288740157480316
 20
0.5975866141732283
 30
0.0
 10
-0.8288740157480316
 20
0.5975866141732283
 30
0.0
 10
-0.8288740157480316
 20
0.5975866141732283
 30
0.0
 10
-0.8418740157480316
 20
0.6028070866141733
 30
0.0
 10
-0.8418740157480316
 20
0.6028070866141733
 30
0.0
  0
SPLINE
  5
43
330
1F
100
AcDbEntity
  8
LAYER_1
 62
   250
100
AcDbSpline
210
0.0
220
0.0
230
1.0
 70
    11
 71
     3
 72
    60
 73
    56
 74
     0
 42
0.0000000001
 43
0.0000000001
 40
0.0
 40
0.0
 40
0.0
 40
0.0
 40
0.0714285714285714
 40
0.0714285714285714
 40
0.0714285714285714
 40
0.0714285714285714
 40
0.1428571428571429
 40
0.1428571428571429
 40
0.1428571428571429
 40
0.1428571428571429
 40
0.2142857142857143
 40
0.2142857142857143
 40
0.2142857142857143
 40
0.2142857142857143
 40
0.2857142857142857
 40
0.2857142857142857
 40
0.2857142857142857
 40
0.2857142857142857
 40
0.3571428571428571
 40
0.3571428571428571
 40
0.3571428571428571
 40
0.3571428571428571
 40
0.4285714285714285
 40
0.4285714285714285
 40
0.4285714285714285
 40
0.4285714285714285
 40
0.4999999999999999
 40
0.4999999999999999
 40
0.4999999999999999
 40
0.4999999999999999
 40
0.5714285714285713
 40
0.5714285714285713
 40
0.5714285714285713
 40
0.5714285714285713
 40
0.6428571428571427
 40
0.6428571428571427
 40
0.6428571428571427
 40
0.6428571428571427
 40
0.7142857142857141
 40
0.7142857142857141
 40
0.7142857142857141
 40
0.7142857142857141
 40
0.7857142857142855
 40
0.7857142857142855
 40
0.7857142857142855
 40
0.7857142857142855
 40
0.8571428571428569
 40
0.8571428571428569
 40
0.8571428571428569
 40
0.8571428571428569
 40
0.9285714285714283
 40
0.9285714285714283
 40
0.9285714285714283
 40
0.9285714285714283
 40
1.0
 40
1.0
 40
1.0
 40
1.0
 10
-0.774011811023622
 20
0.6186692913385827
 30
0.0
 10
-0.774011811023622
 20
0.6186692913385827
 30
0.0
 10
-0.7784015748031496
 20
0.6240590551181102
 30
0.0
 10
-0.7784015748031496
 20
0.6240590551181102
 30
0.0
 10
-0.7784015748031496
 20
0.6240590551181102
 30
0.0
 10
-0.7672874015748031
 20
0.6331141732283465
 30
0.0
 10
-0.7617047244094488
 20
0.6406692913385828
 30
0.0
 10
-0.7617047244094488
 20
0.646751968503937
 30
0.0
 10
-0.7617047244094488
 20
0.646751968503937
 30
0.0
 10
-0.7617047244094488
 20
0.6474448818897638
 30
0.0
 10
-0.7617598425196851
 20
0.6483346456692913
 30
0.0
 10
-0.7618740157480315
 20
0.6493622047244094
 30
0.0
 10
-0.7618740157480315
 20
0.6493622047244094
 30
0.0
 10
-0.7627874015748032
 20
0.6489724409448819
 30
0.0
 10
-0.7637047244094488
 20
0.6486692913385828
 30
0.0
 10
-0.7645669291338583
 20
0.6484724409448819
 30
0.0
 10
-0.7645669291338583
 20
0.6484724409448819
 30
0.0
 10
-0.7654291338582677
 20
0.6482519685039371
 30
0.0
 10
-0.766232283464567
 20
0.6481417322834646
 30
0.0
 10
-0.767011811023622
 20
0.6481417322834646
 30
0.0
 10
-0.767011811023622
 20
0.6481417322834646
 30
0.0
 10
-0.7696220472440946
 20
0.6481417322834646
 30
0.0
 10
-0.7717047244094488
 20
0.6489724409448819
 30
0.0
 10
-0.7732598425196851
 20
0.6506692913385828
 30
0.0
 10
-0.7732598425196851
 20
0.6506692913385828
 30
0.0
 10
-0.7748464566929134
 20
0.6523346456692913
 30
0.0
 10
-0.7756220472440946
 20
0.6544724409448819
 30
0.0
 10
-0.7756220472440946
 20
0.6570866141732283
 30
0.0
 10
-0.7756220472440946
 20
0.6570866141732283
 30
0.0
 10
-0.7756220472440946
 20
0.6596417322834646
 30
0.0
 10
-0.7746771653543307
 20
0.6618622047244095
 30
0.0
 10
-0.7727874015748032
 20
0.663751968503937
 30
0.0
 10
-0.7727874015748032
 20
0.663751968503937
 30
0.0
 10
-0.7708740157480315
 20
0.6656692913385827
 30
0.0
 10
-0.7685944881889764
 20
0.6666141732283465
 30
0.0
 10
-0.7659566929133859
 20
0.6666141732283465
 30
0.0
 10
-0.7659566929133859
 20
0.6666141732283465
 30
0.0
 10
-0.762259842519685
 20
0.6666141732283465
 30
0.0
 10
-0.7590944881889764
 20
0.6651417322834646
 30
0.0
 10
-0.7564566929133859
 20
0.6621692913385827
 30
0.0
 10
-0.7564566929133859
 20
0.6621692913385827
 30
0.0
 10
-0.7538464566929134
 20
0.6592244094488189
 30
0.0
 10
-0.7525118110236221
 20
0.6554173228346457
 30
0.0
 10
-0.7525118110236221
 20
0.650751968503937
 30
0.0
 10
-0.7525118110236221
 20
0.650751968503937
 30
0.0
 10
-0.7525118110236221
 20
0.6476968503937008
 30
0.0
 10
-0.7531496062992127
 20
0.6445000000000001
 30
0.0
 10
-0.7544015748031496
 20
0.6411692913385827
 30
0.0
 10
-0.7544015748031496
 20
0.6411692913385827
 30
0.0
 10
-0.7556496062992126
 20
0.6378346456692914
 30
0.0
 10
-0.7574566929133859
 20
0.634751968503937
 30
0.0
 10
-0.7598464566929134
 20
0.6318897637795276
 30
0.0
 10
-0.7598464566929134
 20
0.6318897637795276
 30
0.0
 10
-0.762232283464567
 20
0.6290590551181102
 30
0.0
 10
-0.7669566929133859
 20
0.6246417322834647
 30
0.0
 10
-0.774011811023622
 20
0.6186692913385827
 30
0.0
  0
SPLINE
  5
44
330
1F
100
AcDbEntity
  8
LAYER_1
 62
   250
100
AcDbSpline
210
0.0
220
0.0
230
1.0
 70
    11
 71
     3
 72
    60
 73
    56
 74
     0
 42
0.0000000001
 43
0.0000000001
 40
0.0
 40
0.0
 40
0.0
 40
0.0
 40
0.0714285714285714
 40
0.0714285714285714
 40
0.0714285714285714
 40
0.0714285714285714
 40
0.1428571428571429
 40
0.1428571428571429
 40
0.1428571428571429
 40
0.1428571428571429
 40
0.2142857142857143
 40
0.2142857142857143
 40
0.2142857142857143
 40
0.2142857142857143
 40
0.2857142857142857
 40
0.2857142857142857
 40
0.2857142857142857
 40
0.2857142857142857
 40
0.3571428571428571
 40
0.3571428571428571
 40
0.3571428571428571
 40
0.3571428571428571
 40
0.4285714285714285
 40
0.4285714285714285
 40
0.4285714285714285
 40
0.4285714285714285
 40
0.4999999999999999
 40
0.4999999999999999
 40
0.4999999999999999
 40
0.4999999999999999
 40
0.5714285714285713
 40
0.5714285714285713
 40
0.5714285714285713
 40
0.5714285714285713
 40
0.6428571428571427
 40
0.6428571428571427
 40
0.6428571428571427
 40
0.6428571428571427
 40
0.7142857142857141
 40
0.7142857142857141
 40
0.7142857142857141
 40
0.7142857142857141
 40
0.7857142857142855
 40
0.7857142857142855
 40
0.7857142857142855
 40
0.7857142857142855
 40
0.8571428571428569
 40
0.8571428571428569
 40
0.8571428571428569
 40
0.8571428571428569
 40
0.9285714285714283
 40
0.9285714285714283
 40
0.9285714285714283
 40
0.9285714285714283
 40
1.0
 40
1.0
 40
1.0
 40
1.0
 10
-0.7449566929133858
 20
0.6186692913385827
 30
0.0
 10
-0.7449566929133858
 20
0.6186692913385827
 30
0.0
 10
-0.7493464566929134
 20
0.6240590551181102
 30
0.0
 10
-0.7493464566929134
 20
0.6240590551181102
 30
0.0
 10
-0.7493464566929134
 20
0.6240590551181102
 30
0.0
 10
-0.7382322834645669
 20
0.6331141732283465
 30
0.0
 10
-0.7326496062992126
 20
0.6406692913385828
 30
0.0
 10
-0.7326496062992126
 20
0.646751968503937
 30
0.0
 10
-0.7326496062992126
 20
0.646751968503937
 30
0.0
 10
-0.7326496062992126
 20
0.6474448818897638
 30
0.0
 10
-0.7327047244094489
 20
0.6483346456692913
 30
0.0
 10
-0.7328188976377953
 20
0.6493622047244094
 30
0.0
 10
-0.7328188976377953
 20
0.6493622047244094
 30
0.0
 10
-0.733732283464567
 20
0.6489724409448819
 30
0.0
 10
-0.7346496062992126
 20
0.6486692913385828
 30
0.0
 10
-0.7355118110236221
 20
0.6484724409448819
 30
0.0
 10
-0.7355118110236221
 20
0.6484724409448819
 30
0.0
 10
-0.7363740157480315
 20
0.6482519685039371
 30
0.0
 10
-0.7372047244094488
 20
0.6481417322834646
 30
0.0
 10
-0.7380393700787402
 20
0.6481417322834646
 30
0.0
 10
-0.7380393700787402
 20
0.6481417322834646
 30
0.0
 10
-0.7405944881889764
 20
0.6481417322834646
 30
0.0
 10
-0.7426496062992126
 20
0.6489724409448819
 30
0.0
 10
-0.7442047244094489
 20
0.6506692913385828
 30
0.0
 10
-0.7442047244094489
 20
0.6506692913385828
 30
0.0
 10
-0.7457874015748032
 20
0.6523346456692913
 30
0.0
 10
-0.7465669291338583
 20
0.6544724409448819
 30
0.0
 10
-0.7465669291338583
 20
0.6570866141732283
 30
0.0
 10
-0.7465669291338583
 20
0.6570866141732283
 30
0.0
 10
-0.7465669291338583
 20
0.6596417322834646
 30
0.0
 10
-0.7456220472440945
 20
0.6618622047244095
 30
0.0
 10
-0.743732283464567
 20
0.663751968503937
 30
0.0
 10
-0.743732283464567
 20
0.663751968503937
 30
0.0
 10
-0.7418464566929134
 20
0.6656692913385827
 30
0.0
 10
-0.7395393700787402
 20
0.6666141732283465
 30
0.0
 10
-0.7369015748031497
 20
0.6666141732283465
 30
0.0
 10
-0.7369015748031497
 20
0.6666141732283465
 30
0.0
 10
-0.7332047244094488
 20
0.6666141732283465
 30
0.0
 10
-0.7300393700787402
 20
0.6651417322834646
 30
0.0
 10
-0.7274015748031496
 20
0.6621692913385827
 30
0.0
 10
-0.7274015748031496
 20
0.6621692913385827
 30
0.0
 10
-0.7247913385826772
 20
0.6592244094488189
 30
0.0
 10
-0.7234566929133859
 20
0.6554173228346457
 30
0.0
 10
-0.7234566929133859
 20
0.650751968503937
 30
0.0
 10
-0.7234566929133859
 20
0.650751968503937
 30
0.0
 10
-0.7234566929133859
 20
0.6476968503937008
 30
0.0
 10
-0.7240944881889764
 20
0.6445000000000001
 30
0.0
 10
-0.7253464566929134
 20
0.6411692913385827
 30
0.0
 10
-0.7253464566929134
 20
0.6411692913385827
 30
0.0
 10
-0.7265944881889764
 20
0.6378346456692914
 30
0.0
 10
-0.7284015748031496
 20
0.634751968503937
 30
0.0
 10
-0.7307874015748032
 20
0.6318897637795276
 30
0.0
 10
-0.7307874015748032
 20
0.6318897637795276
 30
0.0
 10
-0.7331771653543308
 20
0.6290590551181102
 30
0.0
 10
-0.7379015748031497
 20
0.6246417322834647
 30
0.0
 10
-0.7449566929133858
 20
0.6186692913385827
 30
0.0
  0
SPLINE
  5
45
330
1F
100
AcDbEntity
  8
LAYER_1
 62
   252
100
AcDbSpline
210
0.0
220
0.0
230
1.0
 70
    11
 71
     3
 72
    20
 73
    16
 74
     0
 42
0.0000000001
 43
0.0000000001
 40
0.0
 40
0.0
 40
0.0
 40
0.0
 40
0.25
 40
0.25
 40
0.25
 40
0.25
 40
0.5
 40
0.5
 40
0.5
 40
0.5
 40
0.75
 40
0.75
 40
0.75
 40
0.75
 40
1.0
 40
1.0
 40
1.0
 40
1.0
 10
0.4911811023622048
 20
1.390161417322835
 30
0.0
 10
0.4911811023622048
 20
1.390161417322835
 30
0.0
 10
0.4875984251968504
 20
2.143744094488189
 30
0.0
 10
0.4875984251968504
 20
2.143744094488189
 30
0.0
 10
0.4875984251968504
 20
2.143744094488189
 30
0.0
 10
0.4875984251968504
 20
2.143744094488189
 30
0.0
 10
0.7136220472440945
 20
2.143744094488189
 30
0.0
 10
0.7136220472440945
 20
2.143744094488189
 30
0.0
 10
0.7136220472440945
 20
2.143744094488189
 30
0.0
 10
0.7136220472440945
 20
2.143744094488189
 30
0.0
 10
0.7172047244094488
 20
1.390161417322835
 30
0.0
 10
0.7172047244094488
 20
1.390161417322835
 30
0.0
 10
0.7172047244094488
 20
1.390161417322835
 30
0.0
 10
0.7172047244094488
 20
1.390161417322835
 30
0.0
 10
0.4911811023622048
 20
1.390161417322835
 30
0.0
 10
0.4911811023622048
 20
1.390161417322835
 30
0.0
  0
SPLINE
  5
46
330
1F
100
AcDbEntity
  8
LAYER_1
 62
   250
100
AcDbSpline
210
0.0
220
0.0
230
1.0
 70
    11
 71
     3
 72
    20
 73
    16
 74
     0
 42
0.0000000001
 43
0.0000000001
 40
0.0
 40
0.0
 40
0.0
 40
0.0
 40
0.25
 40
0.25
 40
0.25
 40
0.25
 40
0.5
 40
0.5
 40
0.5
 40
0.5
 40
0.75
 40
0.75
 40
0.75
 40
0.75
 40
1.0
 40
1.0
 40
1.0
 40
1.0
 10
0.4911811023622048
 20
1.390161417322835
 30
0.0
 10
0.4911811023622048
 20
1.390161417322835
 30
0.0
 10
0.4875984251968504
 20
2.143744094488189
 30
0.0
 10
0.4875984251968504
 20
2.143744094488189
 30
0.0
 10
0.4875984251968504
 20
2.143744094488189
 30
0.0
 10
0.4875984251968504
 20
2.143744094488189
 30
0.0
 10
0.7136220472440945
 20
2.143744094488189
 30
0.0
 10
0.7136220472440945
 20
2.143744094488189
 30
0.0
 10
0.7136220472440945
 20
2.143744094488189
 30
0.0
 10
0.7136220472440945
 20
2.143744094488189
 30
0.0
 10
0.7172047244094488
 20
1.390161417322835
 30
0.0
 10
0.7172047244094488
 20
1.390161417322835
 30
0.0
 10
0.7172047244094488
 20
1.390161417322835
 30
0.0
 10
0.7172047244094488
 20
1.390161417322835
 30
0.0
 10
0.4911811023622048
 20
1.390161417322835
 30
0.0
 10
0.4911811023622048
 20
1.390161417322835
 30
0.0
  0
SPLINE
  5
47
330
1F
100
AcDbEntity
  8
LAYER_1
 62
   252
100
AcDbSpline
210
0.0
220
0.0
230
1.0
 70
    11
 71
     3
 72
    20
 73
    16
 74
     0
 42
0.0000000001
 43
0.0000000001
 40
0.0
 40
0.0
 40
0.0
 40
0.0
 40
0.25
 40
0.25
 40
0.25
 40
0.25
 40
0.5
 40
0.5
 40
0.5
 40
0.5
 40
0.75
 40
0.75
 40
0.75
 40
0.75
 40
1.0
 40
1.0
 40
1.0
 40
1.0
 10
0.7172047244094488
 20
1.390161417322835
 30
0.0
 10
0.7172047244094488
 20
1.390161417322835
 30
0.0
 10
0.7136220472440945
 20
2.143744094488189
 30
0.0
 10
0.7136220472440945
 20
2.143744094488189
 30
0.0
 10
0.7136220472440945
 20
2.143744094488189
 30
0.0
 10
0.7136220472440945
 20
2.143744094488189
 30
0.0
 10
0.9963149606299213
 20
1.870188976377953
 30
0.0
 10
0.9963149606299213
 20
1.870188976377953
 30
0.0
 10
0.9963149606299213
 20
1.870188976377953
 30
0.0
 10
0.9963149606299213
 20
1.870188976377953
 30
0.0
 10
0.9998976377952756
 20
1.116606299212599
 30
0.0
 10
0.9998976377952756
 20
1.116606299212599
 30
0.0
 10
0.9998976377952756
 20
1.116606299212599
 30
0.0
 10
0.9998976377952756
 20
1.116606299212599
 30
0.0
 10
0.7172047244094488
 20
1.390161417322835
 30
0.0
 10
0.7172047244094488
 20
1.390161417322835
 30
0.0
  0
SPLINE
  5
48
330
1F
100
AcDbEntity
  8
LAYER_1
 62
   250
100
AcDbSpline
210
0.0
220
0.0
230
1.0
 70
    11
 71
     3
 72
    20
 73
    16
 74
     0
 42
0.0000000001
 43
0.0000000001
 40
0.0
 40
0.0
 40
0.0
 40
0.0
 40
0.25
 40
0.25
 40
0.25
 40
0.25
 40
0.5
 40
0.5
 40
0.5
 40
0.5
 40
0.75
 40
0.75
 40
0.75
 40
0.75
 40
1.0
 40
1.0
 40
1.0
 40
1.0
 10
0.7172047244094488
 20
1.390161417322835
 30
0.0
 10
0.7172047244094488
 20
1.390161417322835
 30
0.0
 10
0.7136220472440945
 20
2.143744094488189
 30
0.0
 10
0.7136220472440945
 20
2.143744094488189
 30
0.0
 10
0.7136220472440945
 20
2.143744094488189
 30
0.0
 10
0.7136220472440945
 20
2.143744094488189
 30
0.0
 10
0.9963149606299213
 20
1.870188976377953
 30
0.0
 10
0.9963149606299213
 20
1.870188976377953
 30
0.0
 10
0.9963149606299213
 20
1.870188976377953
 30
0.0
 10
0.9963149606299213
 20
1.870188976377953
 30
0.0
 10
0.9998976377952756
 20
1.116606299212599
 30
0.0
 10
0.9998976377952756
 20
1.116606299212599
 30
0.0
 10
0.9998976377952756
 20
1.116606299212599
 30
0.0
 10
0.9998976377952756
 20
1.116606299212599
 30
0.0
 10
0.7172047244094488
 20
1.390161417322835
 30
0.0
 10
0.7172047244094488
 20
1.390161417322835
 30
0.0
  0
SPLINE
  5
49
330
1F
100
AcDbEntity
  8
LAYER_1
 62
   252
100
AcDbSpline
210
0.0
220
0.0
230
1.0
 70
    11
 71
     3
 72
    20
 73
    16
 74
     0
 42
0.0000000001
 43
0.0000000001
 40
0.0
 40
0.0
 40
0.0
 40
0.0
 40
0.25
 40
0.25
 40
0.25
 40
0.25
 40
0.5
 40
0.5
 40
0.5
 40
0.5
 40
0.75
 40
0.75
 40
0.75
 40
0.75
 40
1.0
 40
1.0
 40
1.0
 40
1.0
 10
0.9998976377952756
 20
1.116606299212599
 30
0.0
 10
0.9998976377952756
 20
1.116606299212599
 30
0.0
 10
0.9963149606299213
 20
1.870188976377953
 30
0.0
 10
0.9963149606299213
 20
1.870188976377953
 30
0.0
 10
0.9963149606299213
 20
1.870188976377953
 30
0.0
 10
0.9963149606299213
 20
1.870188976377953
 30
0.0
 10
1.174145669291339
 20
1.870188976377953
 30
0.0
 10
1.174145669291339
 20
1.870188976377953
 30
0.0
 10
1.174145669291339
 20
1.870188976377953
 30
0.0
 10
1.174145669291339
 20
1.870188976377953
 30
0.0
 10
1.177728346456693
 20
1.116606299212599
 30
0.0
 10
1.177728346456693
 20
1.116606299212599
 30
0.0
 10
1.177728346456693
 20
1.116606299212599
 30
0.0
 10
1.177728346456693
 20
1.116606299212599
 30
0.0
 10
0.9998976377952756
 20
1.116606299212599
 30
0.0
 10
0.9998976377952756
 20
1.116606299212599
 30
0.0
  0
SPLINE
  5
4A
330
1F
100
AcDbEntity
  8
LAYER_1
 62
   250
100
AcDbSpline
210
0.0
220
0.0
230
1.0
 70
    11
 71
     3
 72
    20
 73
    16
 74
     0
 42
0.0000000001
 43
0.0000000001
 40
0.0
 40
0.0
 40
0.0
 40
0.0
 40
0.25
 40
0.25
 40
0.25
 40
0.25
 40
0.5
 40
0.5
 40
0.5
 40
0.5
 40
0.75
 40
0.75
 40
0.75
 40
0.75
 40
1.0
 40
1.0
 40
1.0
 40
1.0
 10
0.9998976377952756
 20
1.116606299212599
 30
0.0
 10
0.9998976377952756
 20
1.116606299212599
 30
0.0
 10
0.9963149606299213
 20
1.870188976377953
 30
0.0
 10
0.9963149606299213
 20
1.870188976377953
 30
0.0
 10
0.9963149606299213
 20
1.870188976377953
 30
0.0
 10
0.9963149606299213
 20
1.870188976377953
 30
0.0
 10
1.174145669291339
 20
1.870188976377953
 30
0.0
 10
1.174145669291339
 20
1.870188976377953
 30
0.0
 10
1.174145669291339
 20
1.870188976377953
 30
0.0
 10
1.174145669291339
 20
1.870188976377953
 30
0.0
 10
1.177728346456693
 20
1.116606299212599
 30
0.0
 10
1.177728346456693
 20
1.116606299212599
 30
0.0
 10
1.177728346456693
 20
1.116606299212599
 30
0.0
 10
1.177728346456693
 20
1.116606299212599
 30
0.0
 10
0.9998976377952756
 20
1.116606299212599
 30
0.0
 10
0.9998976377952756
 20
1.116606299212599
 30
0.0
  0
SPLINE
  5
4B
330
1F
100
AcDbEntity
  8
LAYER_1
 62
   252
100
AcDbSpline
210
0.0
220
0.0
230
1.0
 70
    11
 71
     3
 72
    20
 73
    16
 74
     0
 42
0.0000000001
 43
0.0000000001
 40
0.0
 40
0.0
 40
0.0
 40
0.0
 40
0.25
 40
0.25
 40
0.25
 40
0.25
 40
0.5
 40
0.5
 40
0.5
 40
0.5
 40
0.75
 40
0.75
 40
0.75
 40
0.75
 40
1.0
 40
1.0
 40
1.0
 40
1.0
 10
0.4911811023622048
 20
1.390161417322835
 30
0.0
 10
0.4911811023622048
 20
1.390161417322835
 30
0.0
 10
0.4875984251968504
 20
2.143744094488189
 30
0.0
 10
0.4875984251968504
 20
2.143744094488189
 30
0.0
 10
0.4875984251968504
 20
2.143744094488189
 30
0.0
 10
0.4875984251968504
 20
2.143744094488189
 30
0.0
 10
0.7136220472440945
 20
2.143744094488189
 30
0.0
 10
0.7136220472440945
 20
2.143744094488189
 30
0.0
 10
0.7136220472440945
 20
2.143744094488189
 30
0.0
 10
0.7136220472440945
 20
2.143744094488189
 30
0.0
 10
0.7172047244094488
 20
1.390161417322835
 30
0.0
 10
0.7172047244094488
 20
1.390161417322835
 30
0.0
 10
0.7172047244094488
 20
1.390161417322835
 30
0.0
 10
0.7172047244094488
 20
1.390161417322835
 30
0.0
 10
0.4911811023622048
 20
1.390161417322835
 30
0.0
 10
0.4911811023622048
 20
1.390161417322835
 30
0.0
  0
SPLINE
  5
4C
330
1F
100
AcDbEntity
  8
LAYER_1
 62
   250
100
AcDbSpline
210
0.0
220
0.0
230
1.0
 70
    11
 71
     3
 72
    20
 73
    16
 74
     0
 42
0.0000000001
 43
0.0000000001
 40
0.0
 40
0.0
 40
0.0
 40
0.0
 40
0.25
 40
0.25
 40
0.25
 40
0.25
 40
0.5
 40
0.5
 40
0.5
 40
0.5
 40
0.75
 40
0.75
 40
0.75
 40
0.75
 40
1.0
 40
1.0
 40
1.0
 40
1.0
 10
0.4911811023622048
 20
1.390161417322835
 30
0.0
 10
0.4911811023622048
 20
1.390161417322835
 30
0.0
 10
0.4875984251968504
 20
2.143744094488189
 30
0.0
 10
0.4875984251968504
 20
2.143744094488189
 30
0.0
 10
0.4875984251968504
 20
2.143744094488189
 30
0.0
 10
0.4875984251968504
 20
2.143744094488189
 30
0.0
 10
0.7136220472440945
 20
2.143744094488189
 30
0.0
 10
0.7136220472440945
 20
2.143744094488189
 30
0.0
 10
0.7136220472440945
 20
2.143744094488189
 30
0.0
 10
0.7136220472440945
 20
2.143744094488189
 30
0.0
 10
0.7172047244094488
 20
1.390161417322835
 30
0.0
 10
0.7172047244094488
 20
1.390161417322835
 30
0.0
 10
0.7172047244094488
 20
1.390161417322835
 30
0.0
 10
0.7172047244094488
 20
1.390161417322835
 30
0.0
 10
0.4911811023622048
 20
1.390161417322835
 30
0.0
 10
0.4911811023622048
 20
1.390161417322835
 30
0.0
  0
SPLINE
  5
4D
330
1F
100
AcDbEntity
  8
LAYER_1
 62
   252
100
AcDbSpline
210
0.0
220
0.0
230
1.0
 70
    11
 71
     3
 72
    20
 73
    16
 74
     0
 42
0.0000000001
 43
0.0000000001
 40
0.0
 40
0.0
 40
0.0
 40
0.0
 40
0.25
 40
0.25
 40
0.25
 40
0.25
 40
0.5
 40
0.5
 40
0.5
 40
0.5
 40
0.75
 40
0.75
 40
0.75
 40
0.75
 40
1.0
 40
1.0
 40
1.0
 40
1.0
 10
0.7172047244094488
 20
1.390161417322835
 30
0.0
 10
0.7172047244094488
 20
1.390161417322835
 30
0.0
 10
0.7136220472440945
 20
2.143744094488189
 30
0.0
 10
0.7136220472440945
 20
2.143744094488189
 30
0.0
 10
0.7136220472440945
 20
2.143744094488189
 30
0.0
 10
0.7136220472440945
 20
2.143744094488189
 30
0.0
 10
0.9963149606299213
 20
1.870188976377953
 30
0.0
 10
0.9963149606299213
 20
1.870188976377953
 30
0.0
 10
0.9963149606299213
 20
1.870188976377953
 30
0.0
 10
0.9963149606299213
 20
1.870188976377953
 30
0.0
 10
0.9998976377952756
 20
1.116606299212599
 30
0.0
 10
0.9998976377952756
 20
1.116606299212599
 30
0.0
 10
0.9998976377952756
 20
1.116606299212599
 30
0.0
 10
0.9998976377952756
 20
1.116606299212599
 30
0.0
 10
0.7172047244094488
 20
1.390161417322835
 30
0.0
 10
0.7172047244094488
 20
1.390161417322835
 30
0.0
  0
SPLINE
  5
4E
330
1F
100
AcDbEntity
  8
LAYER_1
 62
   250
100
AcDbSpline
210
0.0
220
0.0
230
1.0
 70
    11
 71
     3
 72
    20
 73
    16
 74
     0
 42
0.0000000001
 43
0.0000000001
 40
0.0
 40
0.0
 40
0.0
 40
0.0
 40
0.25
 40
0.25
 40
0.25
 40
0.25
 40
0.5
 40
0.5
 40
0.5
 40
0.5
 40
0.75
 40
0.75
 40
0.75
 40
0.75
 40
1.0
 40
1.0
 40
1.0
 40
1.0
 10
0.7172047244094488
 20
1.390161417322835
 30
0.0
 10
0.7172047244094488
 20
1.390161417322835
 30
0.0
 10
0.7136220472440945
 20
2.143744094488189
 30
0.0
 10
0.7136220472440945
 20
2.143744094488189
 30
0.0
 10
0.7136220472440945
 20
2.143744094488189
 30
0.0
 10
0.7136220472440945
 20
2.143744094488189
 30
0.0
 10
0.9963149606299213
 20
1.870188976377953
 30
0.0
 10
0.9963149606299213
 20
1.870188976377953
 30
0.0
 10
0.9963149606299213
 20
1.870188976377953
 30
0.0
 10
0.9963149606299213
 20
1.870188976377953
 30
0.0
 10
0.9998976377952756
 20
1.116606299212599
 30
0.0
 10
0.9998976377952756
 20
1.116606299212599
 30
0.0
 10
0.9998976377952756
 20
1.116606299212599
 30
0.0
 10
0.9998976377952756
 20
1.116606299212599
 30
0.0
 10
0.7172047244094488
 20
1.390161417322835
 30
0.0
 10
0.7172047244094488
 20
1.390161417322835
 30
0.0
  0
SPLINE
  5
4F
330
1F
100
AcDbEntity
  8
LAYER_1
 62
   252
100
AcDbSpline
210
0.0
220
0.0
230
1.0
 70
    11
 71
     3
 72
    20
 73
    16
 74
     0
 42
0.0000000001
 43
0.0000000001
 40
0.0
 40
0.0
 40
0.0
 40
0.0
 40
0.25
 40
0.25
 40
0.25
 40
0.25
 40
0.5
 40
0.5
 40
0.5
 40
0.5
 40
0.75
 40
0.75
 40
0.75
 40
0.75
 40
1.0
 40
1.0
 40
1.0
 40
1.0
 10
0.9998976377952756
 20
1.116606299212599
 30
0.0
 10
0.9998976377952756
 20
1.116606299212599
 30
0.0
 10
0.9963149606299213
 20
1.870188976377953
 30
0.0
 10
0.9963149606299213
 20
1.870188976377953
 30
0.0
 10
0.9963149606299213
 20
1.870188976377953
 30
0.0
 10
0.9963149606299213
 20
1.870188976377953
 30
0.0
 10
1.174145669291339
 20
1.870188976377953
 30
0.0
 10
1.174145669291339
 20
1.870188976377953
 30
0.0
 10
1.174145669291339
 20
1.870188976377953
 30
0.0
 10
1.174145669291339
 20
1.870188976377953
 30
0.0
 10
1.177728346456693
 20
1.116606299212599
 30
0.0
 10
1.177728346456693
 20
1.116606299212599
 30
0.0
 10
1.177728346456693
 20
1.116606299212599
 30
0.0
 10
1.177728346456693
 20
1.116606299212599
 30
0.0
 10
0.9998976377952756
 20
1.116606299212599
 30
0.0
 10
0.9998976377952756
 20
1.116606299212599
 30
0.0
  0
SPLINE
  5
50
330
1F
100
AcDbEntity
  8
LAYER_1
 62
   250
100
AcDbSpline
210
0.0
220
0.0
230
1.0
 70
    11
 71
     3
 72
    20
 73
    16
 74
     0
 42
0.0000000001
 43
0.0000000001
 40
0.0
 40
0.0
 40
0.0
 40
0.0
 40
0.25
 40
0.25
 40
0.25
 40
0.25
 40
0.5
 40
0.5
 40
0.5
 40
0.5
 40
0.75
 40
0.75
 40
0.75
 40
0.75
 40
1.0
 40
1.0
 40
1.0
 40
1.0
 10
0.9998976377952756
 20
1.116606299212599
 30
0.0
 10
0.9998976377952756
 20
1.116606299212599
 30
0.0
 10
0.9963149606299213
 20
1.870188976377953
 30
0.0
 10
0.9963149606299213
 20
1.870188976377953
 30
0.0
 10
0.9963149606299213
 20
1.870188976377953
 30
0.0
 10
0.9963149606299213
 20
1.870188976377953
 30
0.0
 10
1.174145669291339
 20
1.870188976377953
 30
0.0
 10
1.174145669291339
 20
1.870188976377953
 30
0.0
 10
1.174145669291339
 20
1.870188976377953
 30
0.0
 10
1.174145669291339
 20
1.870188976377953
 30
0.0
 10
1.177728346456693
 20
1.116606299212599
 30
0.0
 10
1.177728346456693
 20
1.116606299212599
 30
0.0
 10
1.177728346456693
 20
1.116606299212599
 30
0.0
 10
1.177728346456693
 20
1.116606299212599
 30
0.0
 10
0.9998976377952756
 20
1.116606299212599
 30
0.0
 10
0.9998976377952756
 20
1.116606299212599
 30
0.0
  0
SPLINE
  5
51
330
1F
100
AcDbEntity
  8
LAYER_1
 62
     7
100
AcDbSpline
210
0.0
220
0.0
230
1.0
 70
    11
 71
     3
 72
    28
 73
    24
 74
     0
 42
0.0000000001
 43
0.0000000001
 40
0.0
 40
0.0
 40
0.0
 40
0.0
 40
0.1666666666666667
 40
0.1666666666666667
 40
0.1666666666666667
 40
0.1666666666666667
 40
0.3333333333333333
 40
0.3333333333333333
 40
0.3333333333333333
 40
0.3333333333333333
 40
0.5
 40
0.5
 40
0.5
 40
0.5
 40
0.6666666666666666
 40
0.6666666666666666
 40
0.6666666666666666
 40
0.6666666666666666
 40
0.8333333333333333
 40
0.8333333333333333
 40
0.8333333333333333
 40
0.8333333333333333
 40
1.0
 40
1.0
 40
1.0
 40
1.0
 10
0.4911811023622048
 20
0.9342362204724409
 30
0.0
 10
0.4911811023622048
 20
0.9342362204724409
 30
0.0
 10
0.4911811023622048
 20
1.390161417322835
 30
0.0
 10
0.4911811023622048
 20
1.390161417322835
 30
0.0
 10
0.4911811023622048
 20
1.390161417322835
 30
0.0
 10
0.4911811023622048
 20
1.390161417322835
 30
0.0
 10
0.7172047244094488
 20
1.390161417322835
 30
0.0
 10
0.7172047244094488
 20
1.390161417322835
 30
0.0
 10
0.7172047244094488
 20
1.390161417322835
 30
0.0
 10
0.7172047244094488
 20
1.390161417322835
 30
0.0
 10
0.9998976377952756
 20
1.116606299212599
 30
0.0
 10
0.9998976377952756
 20
1.116606299212599
 30
0.0
 10
0.9998976377952756
 20
1.116606299212599
 30
0.0
 10
0.9998976377952756
 20
1.116606299212599
 30
0.0
 10
1.177728346456693
 20
1.116606299212599
 30
0.0
 10
1.177728346456693
 20
1.116606299212599
 30
0.0
 10
1.177728346456693
 20
1.116606299212599
 30
0.0
 10
1.177728346456693
 20
1.116606299212599
 30
0.0
 10
1.177728346456693
 20
0.9342362204724409
 30
0.0
 10
1.177728346456693
 20
0.9342362204724409
 30
0.0
 10
1.177728346456693
 20
0.9342362204724409
 30
0.0
 10
1.177728346456693
 20
0.9342362204724409
 30
0.0
 10
0.4911811023622048
 20
0.9342362204724409
 30
0.0
 10
0.4911811023622048
 20
0.9342362204724409
 30
0.0
  0
SPLINE
  5
52
330
1F
100
AcDbEntity
  8
LAYER_1
 62
   250
100
AcDbSpline
210
0.0
220
0.0
230
1.0
 70
    11
 71
     3
 72
   104
 73
   100
 74
     0
 42
0.0000000001
 43
0.0000000001
 40
0.0
 40
0.0
 40
0.0
 40
0.0
 40
0.04
 40
0.04
 40
0.04
 40
0.04
 40
0.08
 40
0.08
 40
0.08
 40
0.08
 40
0.12
 40
0.12
 40
0.12
 40
0.12
 40
0.16
 40
0.16
 40
0.16
 40
0.16
 40
0.2
 40
0.2
 40
0.2
 40
0.2
 40
0.24
 40
0.24
 40
0.24
 40
0.24
 40
0.28
 40
0.28
 40
0.28
 40
0.28
 40
0.32
 40
0.32
 40
0.32
 40
0.32
 40
0.36
 40
0.36
 40
0.36
 40
0.36
 40
0.4
 40
0.4
 40
0.4
 40
0.4
 40
0.44
 40
0.44
 40
0.44
 40
0.44
 40
0.4799999999999999
 40
0.4799999999999999
 40
0.4799999999999999
 40
0.4799999999999999
 40
0.5199999999999999
 40
0.5199999999999999
 40
0.5199999999999999
 40
0.5199999999999999
 40
0.5599999999999999
 40
0.5599999999999999
 40
0.5599999999999999
 40
0.5599999999999999
 40
0.6
 40
0.6
 40
0.6
 40
0.6
 40
0.64
 40
0.64
 40
0.64
 40
0.64
 40
0.6800000000000001
 40
0.6800000000000001
 40
0.6800000000000001
 40
0.6800000000000001
 40
0.7200000000000001
 40
0.7200000000000001
 40
0.7200000000000001
 40
0.7200000000000001
 40
0.7600000000000001
 40
0.7600000000000001
 40
0.7600000000000001
 40
0.7600000000000001
 40
0.8000000000000002
 40
0.8000000000000002
 40
0.8000000000000002
 40
0.8000000000000002
 40
0.8400000000000002
 40
0.8400000000000002
 40
0.8400000000000002
 40
0.8400000000000002
 40
0.8800000000000002
 40
0.8800000000000002
 40
0.8800000000000002
 40
0.8800000000000002
 40
0.9200000000000003
 40
0.9200000000000003
 40
0.9200000000000003
 40
0.9200000000000003
 40
0.9600000000000003
 40
0.9600000000000003
 40
0.9600000000000003
 40
0.9600000000000003
 40
1.0
 40
1.0
 40
1.0
 40
1.0
 10
0.4640590551181102
 20
0.8365708661417323
 30
0.0
 10
0.4640590551181102
 20
0.8365708661417323
 30
0.0
 10
0.5180314960629922
 20
0.8365708661417323
 30
0.0
 10
0.5180314960629922
 20
0.8365708661417323
 30
0.0
 10
0.5180314960629922
 20
0.8365708661417323
 30
0.0
 10
0.5312007874015748
 20
0.8365708661417323
 30
0.0
 10
0.5402283464566929
 20
0.8359606299212599
 30
0.0
 10
0.5451141732283464
 20
0.8347637795275591
 30
0.0
 10
0.5451141732283464
 20
0.8347637795275591
 30
0.0
 10
0.5523385826771654
 20
0.8330433070866142
 30
0.0
 10
0.5580314960629922
 20
0.8299055118110237
 30
0.0
 10
0.562255905511811
 20
0.8253464566929134
 30
0.0
 10
0.562255905511811
 20
0.8253464566929134
 30
0.0
 10
0.5664488188976378
 20
0.8207913385826772
 30
0.0
 10
0.5685590551181102
 20
0.8152913385826772
 30
0.0
 10
0.5685590551181102
 20
0.8089055118110237
 30
0.0
 10
0.5685590551181102
 20
0.8089055118110237
 30
0.0
 10
0.5685590551181102
 20
0.8042913385826772
 30
0.0
 10
0.5674488188976378
 20
0.8001535433070867
 30
0.0
 10
0.565228346456693
 20
0.796488188976378
 30
0.0
 10
0.565228346456693
 20
0.796488188976378
 30
0.0
 10
0.563003937007874
 20
0.7928188976377953
 30
0.0
 10
0.5597559055118111
 20
0.7896811023622048
 30
0.0
 10
0.5555314960629921
 20
0.7870984251968505
 30
0.0
 10
0.5555314960629921
 20
0.7870984251968505
 30
0.0
 10
0.5528110236220473
 20
0.7854055118110237
 30
0.0
 10
0.5491417322834646
 20
0.7839606299212599
 30
0.0
 10
0.5444763779527559
 20
0.782763779527559
 30
0.0
 10
0.5444763779527559
 20
0.782763779527559
 30
0.0
 10
0.5503937007874016
 20
0.7816811023622048
 30
0.0
 10
0.5548937007874016
 20
0.7803779527559055
 30
0.0
 10
0.5579763779527559
 20
0.7788779527559055
 30
0.0
 10
0.5579763779527559
 20
0.7788779527559055
 30
0.0
 10
0.5626417322834646
 20
0.7765984251968504
 30
0.0
 10
0.5663385826771654
 20
0.7733503937007874
 30
0.0
 10
0.5690314960629922
 20
0.7690984251968505
 30
0.0
 10
0.5690314960629922
 20
0.7690984251968505
 30
0.0
 10
0.571755905511811
 20
0.7648779527559055
 30
0.0
 10
0.5731141732283465
 20
0.7600984251968505
 30
0.0
 10
0.5731141732283465
 20
0.7547913385826772
 30
0.0
 10
0.5731141732283465
 20
0.7547913385826772
 30
0.0
 10
0.5731141732283465
 20
0.7496259842519686
 30
0.0
 10
0.5717834645669292
 20
0.7448503937007874
 30
0.0
 10
0.5691141732283465
 20
0.7404606299212598
 30
0.0
 10
0.5691141732283465
 20
0.7404606299212598
 30
0.0
 10
0.566476377952756
 20
0.7360708661417323
 30
0.0
 10
0.5627007874015748
 20
0.7324606299212598
 30
0.0
 10
0.5578661417322834
 20
0.7296259842519686
 30
0.0
 10
0.5578661417322834
 20
0.7296259842519686
 30
0.0
 10
0.5530039370078741
 20
0.7268228346456693
 30
0.0
 10
0.5473385826771654
 20
0.725015748031496
 30
0.0
 10
0.5408937007874016
 20
0.7242086614173229
 30
0.0
 10
0.5408937007874016
 20
0.7242086614173229
 30
0.0
 10
0.5344212598425198
 20
0.7234330708661417
 30
0.0
 10
0.5277834645669292
 20
0.7230433070866142
 30
0.0
 10
0.5209488188976378
 20
0.7230433070866142
 30
0.0
 10
0.5209488188976378
 20
0.7230433070866142
 30
0.0
 10
0.5209488188976378
 20
0.7230433070866142
 30
0.0
 10
0.4640590551181102
 20
0.7230433070866142
 30
0.0
 10
0.4640590551181102
 20
0.7230433070866142
 30
0.0
 10
0.4640590551181102
 20
0.7230433070866142
 30
0.0
 10
0.4640590551181102
 20
0.7230433070866142
 30
0.0
 10
0.4640590551181102
 20
0.7298779527559055
 30
0.0
 10
0.4640590551181102
 20
0.7298779527559055
 30
0.0
 10
0.4640590551181102
 20
0.7298779527559055
 30
0.0
 10
0.4640590551181102
 20
0.7298779527559055
 30
0.0
 10
0.4678937007874016
 20
0.7298779527559055
 30
0.0
 10
0.4678937007874016
 20
0.7298779527559055
 30
0.0
 10
0.4678937007874016
 20
0.7298779527559055
 30
0.0
 10
0.4715905511811024
 20
0.7298779527559055
 30
0.0
 10
0.4740905511811024
 20
0.7304606299212598
 30
0.0
 10
0.4754488188976378
 20
0.7315984251968504
 30
0.0
 10
0.4754488188976378
 20
0.7315984251968504
 30
0.0
 10
0.4774212598425197
 20
0.7331535433070866
 30
0.0
 10
0.4783937007874016
 20
0.7357637795275591
 30
0.0
 10
0.4783937007874016
 20
0.7394055118110237
 30
0.0
 10
0.4783937007874016
 20
0.7394055118110237
 30
0.0
 10
0.4783937007874016
 20
0.7394055118110237
 30
0.0
 10
0.4783937007874016
 20
0.8182637795275591
 30
0.0
 10
0.4783937007874016
 20
0.8182637795275591
 30
0.0
 10
0.4783937007874016
 20
0.8182637795275591
 30
0.0
 10
0.4783937007874016
 20
0.8219606299212598
 30
0.0
 10
0.4780905511811024
 20
0.8244606299212599
 30
0.0
 10
0.477503937007874
 20
0.8258188976377953
 30
0.0
 10
0.477503937007874
 20
0.8258188976377953
 30
0.0
 10
0.4768937007874016
 20
0.8271811023622048
 30
0.0
 10
0.476003937007874
 20
0.8281535433070867
 30
0.0
 10
0.4748110236220473
 20
0.8287637795275591
 30
0.0
 10
0.4748110236220473
 20
0.8287637795275591
 30
0.0
 10
0.4736181102362205
 20
0.8293464566929134
 30
0.0
 10
0.4713110236220472
 20
0.8296535433070866
 30
0.0
 10
0.4678937007874016
 20
0.8296535433070866
 30
0.0
 10
0.4678937007874016
 20
0.8296535433070866
 30
0.0
 10
0.4678937007874016
 20
0.8296535433070866
 30
0.0
 10
0.4640590551181102
 20
0.8296535433070866
 30
0.0
 10
0.4640590551181102
 20
0.8296535433070866
 30
0.0
 10
0.4640590551181102
 20
0.8296535433070866
 30
0.0
 10
0.4640590551181102
 20
0.8296535433070866
 30
0.0
 10
0.4640590551181102
 20
0.8365708661417323
 30
0.0
 10
0.4640590551181102
 20
0.8365708661417323
 30
0.0
  0
SPLINE
  5
53
330
1F
100
AcDbEntity
  8
LAYER_1
 62
   250
100
AcDbSpline
210
0.0
220
0.0
230
1.0
 70
    11
 71
     3
 72
    40
 73
    36
 74
     0
 42
0.0000000001
 43
0.0000000001
 40
0.0
 40
0.0
 40
0.0
 40
0.0
 40
0.1111111111111111
 40
0.1111111111111111
 40
0.1111111111111111
 40
0.1111111111111111
 40
0.2222222222222222
 40
0.2222222222222222
 40
0.2222222222222222
 40
0.2222222222222222
 40
0.3333333333333333
 40
0.3333333333333333
 40
0.3333333333333333
 40
0.3333333333333333
 40
0.4444444444444444
 40
0.4444444444444444
 40
0.4444444444444444
 40
0.4444444444444444
 40
0.5555555555555556
 40
0.5555555555555556
 40
0.5555555555555556
 40
0.5555555555555556
 40
0.6666666666666667
 40
0.6666666666666667
 40
0.6666666666666667
 40
0.6666666666666667
 40
0.7777777777777779
 40
0.7777777777777779
 40
0.7777777777777779
 40
0.7777777777777779
 40
0.8888888888888891
 40
0.8888888888888891
 40
0.8888888888888891
 40
0.8888888888888891
 40
1.0
 40
1.0
 40
1.0
 40
1.0
 10
0.4936181102362205
 20
0.8275433070866142
 30
0.0
 10
0.4936181102362205
 20
0.8275433070866142
 30
0.0
 10
0.4936181102362205
 20
0.7859606299212599
 30
0.0
 10
0.4936181102362205
 20
0.7859606299212599
 30
0.0
 10
0.4936181102362205
 20
0.7859606299212599
 30
0.0
 10
0.4936181102362205
 20
0.7859606299212599
 30
0.0
 10
0.5143661417322835
 20
0.7859606299212599
 30
0.0
 10
0.5143661417322835
 20
0.7859606299212599
 30
0.0
 10
0.5143661417322835
 20
0.7859606299212599
 30
0.0
 10
0.5240590551181102
 20
0.7859606299212599
 30
0.0
 10
0.530728346456693
 20
0.7864055118110237
 30
0.0
 10
0.5342834645669291
 20
0.7873188976377953
 30
0.0
 10
0.5342834645669291
 20
0.7873188976377953
 30
0.0
 10
0.5398937007874016
 20
0.7887913385826773
 30
0.0
 10
0.5441417322834646
 20
0.7912913385826772
 30
0.0
 10
0.5471141732283464
 20
0.7948188976377953
 30
0.0
 10
0.5471141732283464
 20
0.7948188976377953
 30
0.0
 10
0.5500590551181103
 20
0.7983464566929134
 30
0.0
 10
0.5515590551181102
 20
0.8028779527559056
 30
0.0
 10
0.5515590551181102
 20
0.8084055118110236
 30
0.0
 10
0.5515590551181102
 20
0.8084055118110236
 30
0.0
 10
0.5515590551181102
 20
0.8130708661417323
 30
0.0
 10
0.5502007874015749
 20
0.8169606299212598
 30
0.0
 10
0.5475314960629921
 20
0.8200984251968504
 30
0.0
 10
0.5475314960629921
 20
0.8200984251968504
 30
0.0
 10
0.5448385826771653
 20
0.8232086614173229
 30
0.0
 10
0.5412283464566929
 20
0.8253464566929134
 30
0.0
 10
0.536728346456693
 20
0.826488188976378
 30
0.0
 10
0.536728346456693
 20
0.826488188976378
 30
0.0
 10
0.5338110236220472
 20
0.8271811023622048
 30
0.0
 10
0.527728346456693
 20
0.8275433070866142
 30
0.0
 10
0.518503937007874
 20
0.8275433070866142
 30
0.0
 10
0.518503937007874
 20
0.8275433070866142
 30
0.0
 10
0.518503937007874
 20
0.8275433070866142
 30
0.0
 10
0.4936181102362205
 20
0.8275433070866142
 30
0.0
 10
0.4936181102362205
 20
0.8275433070866142
 30
0.0
  0
SPLINE
  5
54
330
1F
100
AcDbEntity
  8
LAYER_1
 62
   250
100
AcDbSpline
210
0.0
220
0.0
230
1.0
 70
    11
 71
     3
 72
    52
 73
    48
 74
     0
 42
0.0000000001
 43
0.0000000001
 40
0.0
 40
0.0
 40
0.0
 40
0.0
 40
0.0833333333333333
 40
0.0833333333333333
 40
0.0833333333333333
 40
0.0833333333333333
 40
0.1666666666666667
 40
0.1666666666666667
 40
0.1666666666666667
 40
0.1666666666666667
 40
0.25
 40
0.25
 40
0.25
 40
0.25
 40
0.3333333333333333
 40
0.3333333333333333
 40
0.3333333333333333
 40
0.3333333333333333
 40
0.4166666666666666
 40
0.4166666666666666
 40
0.4166666666666666
 40
0.4166666666666666
 40
0.4999999999999999
 40
0.4999999999999999
 40
0.4999999999999999
 40
0.4999999999999999
 40
0.5833333333333333
 40
0.5833333333333333
 40
0.5833333333333333
 40
0.5833333333333333
 40
0.6666666666666666
 40
0.6666666666666666
 40
0.6666666666666666
 40
0.6666666666666666
 40
0.75
 40
0.75
 40
0.75
 40
0.75
 40
0.8333333333333334
 40
0.8333333333333334
 40
0.8333333333333334
 40
0.8333333333333334
 40
0.9166666666666667
 40
0.9166666666666667
 40
0.9166666666666667
 40
0.9166666666666667
 40
1.0
 40
1.0
 40
1.0
 40
1.0
 10
0.4936181102362205
 20
0.7781259842519686
 30
0.0
 10
0.4936181102362205
 20
0.7781259842519686
 30
0.0
 10
0.4936181102362205
 20
0.7408779527559055
 30
0.0
 10
0.4936181102362205
 20
0.7408779527559055
 30
0.0
 10
0.4936181102362205
 20
0.7408779527559055
 30
0.0
 10
0.4936181102362205
 20
0.7371259842519685
 30
0.0
 10
0.4937834645669292
 20
0.7349055118110237
 30
0.0
 10
0.4940866141732284
 20
0.7341811023622048
 30
0.0
 10
0.4940866141732284
 20
0.7341811023622048
 30
0.0
 10
0.4945314960629921
 20
0.7332086614173229
 30
0.0
 10
0.4953937007874016
 20
0.7325433070866142
 30
0.0
 10
0.4967007874015748
 20
0.7321535433070866
 30
0.0
 10
0.4967007874015748
 20
0.7321535433070866
 30
0.0
 10
0.4976181102362205
 20
0.7318779527559055
 30
0.0
 10
0.5002283464566929
 20
0.731736220472441
 30
0.0
 10
0.504503937007874
 20
0.731736220472441
 30
0.0
 10
0.504503937007874
 20
0.731736220472441
 30
0.0
 10
0.504503937007874
 20
0.731736220472441
 30
0.0
 10
0.5155866141732284
 20
0.731736220472441
 30
0.0
 10
0.5155866141732284
 20
0.731736220472441
 30
0.0
 10
0.5155866141732284
 20
0.731736220472441
 30
0.0
 10
0.5265314960629921
 20
0.731736220472441
 30
0.0
 10
0.5343661417322835
 20
0.7323503937007875
 30
0.0
 10
0.5390590551181103
 20
0.7335708661417323
 30
0.0
 10
0.5390590551181103
 20
0.7335708661417323
 30
0.0
 10
0.5437559055118111
 20
0.7347913385826772
 30
0.0
 10
0.5477559055118111
 20
0.7373779527559056
 30
0.0
 10
0.5510590551181103
 20
0.7413228346456693
 30
0.0
 10
0.5510590551181103
 20
0.7413228346456693
 30
0.0
 10
0.5543661417322835
 20
0.745236220472441
 30
0.0
 10
0.5560314960629922
 20
0.749988188976378
 30
0.0
 10
0.5560314960629922
 20
0.7555157480314961
 30
0.0
 10
0.5560314960629922
 20
0.7555157480314961
 30
0.0
 10
0.5560314960629922
 20
0.7601811023622047
 30
0.0
 10
0.5546732283464567
 20
0.7643188976377953
 30
0.0
 10
0.5520039370078741
 20
0.7679330708661417
 30
0.0
 10
0.5520039370078741
 20
0.7679330708661417
 30
0.0
 10
0.5493110236220473
 20
0.7715433070866142
 30
0.0
 10
0.5455866141732284
 20
0.7741259842519686
 30
0.0
 10
0.5408385826771653
 20
0.775736220472441
 30
0.0
 10
0.5408385826771653
 20
0.775736220472441
 30
0.0
 10
0.5360866141732283
 20
0.7773503937007874
 30
0.0
 10
0.5276732283464567
 20
0.7781259842519686
 30
0.0
 10
0.5155866141732284
 20
0.7781259842519686
 30
0.0
 10
0.5155866141732284
 20
0.7781259842519686
 30
0.0
 10
0.5155866141732284
 20
0.7781259842519686
 30
0.0
 10
0.4936181102362205
 20
0.7781259842519686
 30
0.0
 10
0.4936181102362205
 20
0.7781259842519686
 30
0.0
  0
SPLINE
  5
55
330
1F
100
AcDbEntity
  8
LAYER_1
 62
   250
100
AcDbSpline
210
0.0
220
0.0
230
1.0
 70
    11
 71
     3
 72
   112
 73
   108
 74
     0
 42
0.0000000001
 43
0.0000000001
 40
0.0
 40
0.0
 40
0.0
 40
0.0
 40
0.037037037037037
 40
0.037037037037037
 40
0.037037037037037
 40
0.037037037037037
 40
0.0740740740740741
 40
0.0740740740740741
 40
0.0740740740740741
 40
0.0740740740740741
 40
0.1111111111111111
 40
0.1111111111111111
 40
0.1111111111111111
 40
0.1111111111111111
 40
0.1481481481481481
 40
0.1481481481481481
 40
0.1481481481481481
 40
0.1481481481481481
 40
0.1851851851851852
 40
0.1851851851851852
 40
0.1851851851851852
 40
0.1851851851851852
 40
0.2222222222222222
 40
0.2222222222222222
 40
0.2222222222222222
 40
0.2222222222222222
 40
0.2592592592592592
 40
0.2592592592592592
 40
0.2592592592592592
 40
0.2592592592592592
 40
0.2962962962962963
 40
0.2962962962962963
 40
0.2962962962962963
 40
0.2962962962962963
 40
0.3333333333333333
 40
0.3333333333333333
 40
0.3333333333333333
 40
0.3333333333333333
 40
0.3703703703703704
 40
0.3703703703703704
 40
0.3703703703703704
 40
0.3703703703703704
 40
0.4074074074074074
 40
0.4074074074074074
 40
0.4074074074074074
 40
0.4074074074074074
 40
0.4444444444444444
 40
0.4444444444444444
 40
0.4444444444444444
 40
0.4444444444444444
 40
0.4814814814814815
 40
0.4814814814814815
 40
0.4814814814814815
 40
0.4814814814814815
 40
0.5185185185185185
 40
0.5185185185185185
 40
0.5185185185185185
 40
0.5185185185185185
 40
0.5555555555555556
 40
0.5555555555555556
 40
0.5555555555555556
 40
0.5555555555555556
 40
0.5925925925925926
 40
0.5925925925925926
 40
0.5925925925925926
 40
0.5925925925925926
 40
0.6296296296296295
 40
0.6296296296296295
 40
0.6296296296296295
 40
0.6296296296296295
 40
0.6666666666666665
 40
0.6666666666666665
 40
0.6666666666666665
 40
0.6666666666666665
 40
0.7037037037037035
 40
0.7037037037037035
 40
0.7037037037037035
 40
0.7037037037037035
 40
0.7407407407407405
 40
0.7407407407407405
 40
0.7407407407407405
 40
0.7407407407407405
 40
0.7777777777777775
 40
0.7777777777777775
 40
0.7777777777777775
 40
0.7777777777777775
 40
0.8148148148148144
 40
0.8148148148148144
 40
0.8148148148148144
 40
0.8148148148148144
 40
0.8518518518518514
 40
0.8518518518518514
 40
0.8518518518518514
 40
0.8518518518518514
 40
0.8888888888888884
 40
0.8888888888888884
 40
0.8888888888888884
 40
0.8888888888888884
 40
0.9259259259259254
 40
0.9259259259259254
 40
0.9259259259259254
 40
0.9259259259259254
 40
0.9629629629629624
 40
0.9629629629629624
 40
0.9629629629629624
 40
0.9629629629629624
 40
1.0
 40
1.0
 40
1.0
 40
1.0
 10
0.6307244094488189
 20
0.8365708661417323
 30
0.0
 10
0.6307244094488189
 20
0.8365708661417323
 30
0.0
 10
0.6441417322834646
 20
0.8365708661417323
 30
0.0
 10
0.6441417322834646
 20
0.8365708661417323
 30
0.0
 10
0.6441417322834646
 20
0.8365708661417323
 30
0.0
 10
0.6441417322834646
 20
0.8365708661417323
 30
0.0
 10
0.6793897637795275
 20
0.7416811023622048
 30
0.0
 10
0.6793897637795275
 20
0.7416811023622048
 30
0.0
 10
0.6793897637795275
 20
0.7416811023622048
 30
0.0
 10
0.6811141732283464
 20
0.7369055118110236
 30
0.0
 10
0.6828622047244095
 20
0.733736220472441
 30
0.0
 10
0.6846417322834646
 20
0.7322086614173229
 30
0.0
 10
0.6846417322834646
 20
0.7322086614173229
 30
0.0
 10
0.6863897637795275
 20
0.7306535433070867
 30
0.0
 10
0.6887795275590551
 20
0.7298779527559055
 30
0.0
 10
0.6917519685039371
 20
0.7298779527559055
 30
0.0
 10
0.6917519685039371
 20
0.7298779527559055
 30
0.0
 10
0.6917519685039371
 20
0.7298779527559055
 30
0.0
 10
0.6935314960629921
 20
0.7298779527559055
 30
0.0
 10
0.6935314960629921
 20
0.7298779527559055
 30
0.0
 10
0.6935314960629921
 20
0.7298779527559055
 30
0.0
 10
0.6935314960629921
 20
0.7298779527559055
 30
0.0
 10
0.6935314960629921
 20
0.7230433070866142
 30
0.0
 10
0.6935314960629921
 20
0.7230433070866142
 30
0.0
 10
0.6935314960629921
 20
0.7230433070866142
 30
0.0
 10
0.6935314960629921
 20
0.7230433070866142
 30
0.0
 10
0.6530866141732283
 20
0.7230433070866142
 30
0.0
 10
0.6530866141732283
 20
0.7230433070866142
 30
0.0
 10
0.6530866141732283
 20
0.7230433070866142
 30
0.0
 10
0.6530866141732283
 20
0.7230433070866142
 30
0.0
 10
0.6530866141732283
 20
0.7298779527559055
 30
0.0
 10
0.6530866141732283
 20
0.7298779527559055
 30
0.0
 10
0.6530866141732283
 20
0.7298779527559055
 30
0.0
 10
0.6543897637795276
 20
0.729988188976378
 30
0.0
 10
0.6556692913385827
 20
0.7300433070866143
 30
0.0
 10
0.6569212598425197
 20
0.7300433070866143
 30
0.0
 10
0.6569212598425197
 20
0.7300433070866143
 30
0.0
 10
0.6595314960629921
 20
0.7300433070866143
 30
0.0
 10
0.6612244094488189
 20
0.7303228346456693
 30
0.0
 10
0.6620590551181103
 20
0.7308503937007874
 30
0.0
 10
0.6620590551181103
 20
0.7308503937007874
 30
0.0
 10
0.6636141732283465
 20
0.7318779527559055
 30
0.0
 10
0.6644173228346457
 20
0.7331811023622048
 30
0.0
 10
0.6644173228346457
 20
0.7347637795275591
 30
0.0
 10
0.6644173228346457
 20
0.7347637795275591
 30
0.0
 10
0.6644173228346457
 20
0.7359055118110237
 30
0.0
 10
0.6636417322834646
 20
0.7386811023622047
 30
0.0
 10
0.6621417322834646
 20
0.7431535433070866
 30
0.0
 10
0.6621417322834646
 20
0.7431535433070866
 30
0.0
 10
0.6621417322834646
 20
0.7431535433070866
 30
0.0
 10
0.6546417322834646
 20
0.7651259842519685
 30
0.0
 10
0.6546417322834646
 20
0.7651259842519685
 30
0.0
 10
0.6546417322834646
 20
0.7651259842519685
 30
0.0
 10
0.6546417322834646
 20
0.7651259842519685
 30
0.0
 10
0.6134763779527559
 20
0.7651259842519685
 30
0.0
 10
0.6134763779527559
 20
0.7651259842519685
 30
0.0
 10
0.6134763779527559
 20
0.7651259842519685
 30
0.0
 10
0.6134763779527559
 20
0.7651259842519685
 30
0.0
 10
0.6046692913385827
 20
0.7405433070866142
 30
0.0
 10
0.6046692913385827
 20
0.7405433070866142
 30
0.0
 10
0.6046692913385827
 20
0.7405433070866142
 30
0.0
 10
0.603751968503937
 20
0.737988188976378
 30
0.0
 10
0.6032795275590551
 20
0.736236220472441
 30
0.0
 10
0.6032795275590551
 20
0.735236220472441
 30
0.0
 10
0.6032795275590551
 20
0.735236220472441
 30
0.0
 10
0.6032795275590551
 20
0.7341535433070866
 30
0.0
 10
0.6035866141732283
 20
0.7332086614173229
 30
0.0
 10
0.6041417322834646
 20
0.7324055118110237
 30
0.0
 10
0.6041417322834646
 20
0.7324055118110237
 30
0.0
 10
0.6047244094488189
 20
0.7315984251968504
 30
0.0
 10
0.6054763779527559
 20
0.730988188976378
 30
0.0
 10
0.6064763779527559
 20
0.7305708661417323
 30
0.0
 10
0.6064763779527559
 20
0.7305708661417323
 30
0.0
 10
0.6074488188976378
 20
0.7301535433070866
 30
0.0
 10
0.609003937007874
 20
0.7299606299212599
 30
0.0
 10
0.6111968503937009
 20
0.7299606299212599
 30
0.0
 10
0.6111968503937009
 20
0.7299606299212599
 30
0.0
 10
0.6126417322834646
 20
0.7299606299212599
 30
0.0
 10
0.6138346456692914
 20
0.7299330708661418
 30
0.0
 10
0.614751968503937
 20
0.7298779527559055
 30
0.0
 10
0.614751968503937
 20
0.7298779527559055
 30
0.0
 10
0.614751968503937
 20
0.7298779527559055
 30
0.0
 10
0.614751968503937
 20
0.7230433070866142
 30
0.0
 10
0.614751968503937
 20
0.7230433070866142
 30
0.0
 10
0.614751968503937
 20
0.7230433070866142
 30
0.0
 10
0.614751968503937
 20
0.7230433070866142
 30
0.0
 10
0.5808346456692913
 20
0.7230433070866142
 30
0.0
 10
0.5808346456692913
 20
0.7230433070866142
 30
0.0
 10
0.5808346456692913
 20
0.7230433070866142
 30
0.0
 10
0.5808346456692913
 20
0.7230433070866142
 30
0.0
 10
0.5808346456692913
 20
0.7298779527559055
 30
0.0
 10
0.5808346456692913
 20
0.7298779527559055
 30
0.0
 10
0.5808346456692913
 20
0.7298779527559055
 30
0.0
 10
0.5839763779527559
 20
0.7298779527559055
 30
0.0
 10
0.586251968503937
 20
0.7301811023622048
 30
0.0
 10
0.5876141732283465
 20
0.7308228346456693
 30
0.0
 10
0.5876141732283465
 20
0.7308228346456693
 30
0.0
 10
0.589003937007874
 20
0.7314330708661417
 30
0.0
 10
0.5902244094488189
 20
0.7324330708661417
 30
0.0
 10
0.591251968503937
 20
0.7338228346456693
 30
0.0
 10
0.591251968503937
 20
0.7338228346456693
 30
0.0
 10
0.5922795275590551
 20
0.7352086614173229
 30
0.0
 10
0.5936417322834646
 20
0.7381259842519685
 30
0.0
 10
0.5953070866141732
 20
0.7425708661417323
 30
0.0
 10
0.5953070866141732
 20
0.7425708661417323
 30
0.0
 10
0.5953070866141732
 20
0.7425708661417323
 30
0.0
 10
0.6307244094488189
 20
0.8365708661417323
 30
0.0
 10
0.6307244094488189
 20
0.8365708661417323
 30
0.0
  0
SPLINE
  5
56
330
1F
100
AcDbEntity
  8
LAYER_1
 62
   250
100
AcDbSpline
210
0.0
220
0.0
230
1.0
 70
    11
 71
     3
 72
    16
 73
    12
 74
     0
 42
0.0000000001
 43
0.0000000001
 40
0.0
 40
0.0
 40
0.0
 40
0.0
 40
0.3333333333333333
 40
0.3333333333333333
 40
0.3333333333333333
 40
0.3333333333333333
 40
0.6666666666666666
 40
0.6666666666666666
 40
0.6666666666666666
 40
0.6666666666666666
 40
1.0
 40
1.0
 40
1.0
 40
1.0
 10
0.6164763779527559
 20
0.7730984251968505
 30
0.0
 10
0.6164763779527559
 20
0.7730984251968505
 30
0.0
 10
0.6515590551181103
 20
0.7730984251968505
 30
0.0
 10
0.6515590551181103
 20
0.7730984251968505
 30
0.0
 10
0.6515590551181103
 20
0.7730984251968505
 30
0.0
 10
0.6515590551181103
 20
0.7730984251968505
 30
0.0
 10
0.633976377952756
 20
0.8219330708661418
 30
0.0
 10
0.633976377952756
 20
0.8219330708661418
 30
0.0
 10
0.633976377952756
 20
0.8219330708661418
 30
0.0
 10
0.633976377952756
 20
0.8219330708661418
 30
0.0
 10
0.6164763779527559
 20
0.7730984251968505
 30
0.0
 10
0.6164763779527559
 20
0.7730984251968505
 30
0.0
  0
SPLINE
  5
57
330
1F
100
AcDbEntity
  8
LAYER_1
 62
   250
100
AcDbSpline
210
0.0
220
0.0
230
1.0
 70
    11
 71
     3
 72
    72
 73
    68
 74
     0
 42
0.0000000001
 43
0.0000000001
 40
0.0
 40
0.0
 40
0.0
 40
0.0
 40
0.0588235294117647
 40
0.0588235294117647
 40
0.0588235294117647
 40
0.0588235294117647
 40
0.1176470588235294
 40
0.1176470588235294
 40
0.1176470588235294
 40
0.1176470588235294
 40
0.1764705882352941
 40
0.1764705882352941
 40
0.1764705882352941
 40
0.1764705882352941
 40
0.2352941176470588
 40
0.2352941176470588
 40
0.2352941176470588
 40
0.2352941176470588
 40
0.2941176470588235
 40
0.2941176470588235
 40
0.2941176470588235
 40
0.2941176470588235
 40
0.3529411764705883
 40
0.3529411764705883
 40
0.3529411764705883
 40
0.3529411764705883
 40
0.411764705882353
 40
0.411764705882353
 40
0.411764705882353
 40
0.411764705882353
 40
0.4705882352941177
 40
0.4705882352941177
 40
0.4705882352941177
 40
0.4705882352941177
 40
0.5294117647058824
 40
0.5294117647058824
 40
0.5294117647058824
 40
0.5294117647058824
 40
0.5882352941176471
 40
0.5882352941176471
 40
0.5882352941176471
 40
0.5882352941176471
 40
0.6470588235294118
 40
0.6470588235294118
 40
0.6470588235294118
 40
0.6470588235294118
 40
0.7058823529411765
 40
0.7058823529411765
 40
0.7058823529411765
 40
0.7058823529411765
 40
0.7647058823529412
 40
0.7647058823529412
 40
0.7647058823529412
 40
0.7647058823529412
 40
0.823529411764706
 40
0.823529411764706
 40
0.823529411764706
 40
0.823529411764706
 40
0.8823529411764707
 40
0.8823529411764707
 40
0.8823529411764707
 40
0.8823529411764707
 40
0.9411764705882354
 40
0.9411764705882354
 40
0.9411764705882354
 40
0.9411764705882354
 40
1.0
 40
1.0
 40
1.0
 40
1.0
 10
0.8565590551181103
 20
0.8365708661417323
 30
0.0
 10
0.8565590551181103
 20
0.8365708661417323
 30
0.0
 10
0.8626417322834646
 20
0.8365708661417323
 30
0.0
 10
0.8626417322834646
 20
0.8365708661417323
 30
0.0
 10
0.8626417322834646
 20
0.8365708661417323
 30
0.0
 10
0.8626417322834646
 20
0.8365708661417323
 30
0.0
 10
0.8626417322834646
 20
0.7423228346456693
 30
0.0
 10
0.8626417322834646
 20
0.7423228346456693
 30
0.0
 10
0.8626417322834646
 20
0.7423228346456693
 30
0.0
 10
0.8626417322834646
 20
0.7378779527559055
 30
0.0
 10
0.8629488188976379
 20
0.7350157480314961
 30
0.0
 10
0.8635039370078741
 20
0.733736220472441
 30
0.0
 10
0.8635039370078741
 20
0.733736220472441
 30
0.0
 10
0.8640866141732284
 20
0.7324606299212598
 30
0.0
 10
0.865003937007874
 20
0.7315157480314961
 30
0.0
 10
0.8663070866141732
 20
0.7308503937007874
 30
0.0
 10
0.8663070866141732
 20
0.7308503937007874
 30
0.0
 10
0.8676141732283464
 20
0.7302086614173229
 30
0.0
 10
0.8701968503937009
 20
0.7298779527559055
 30
0.0
 10
0.8740590551181102
 20
0.7298779527559055
 30
0.0
 10
0.8740590551181102
 20
0.7298779527559055
 30
0.0
 10
0.8740590551181102
 20
0.7298779527559055
 30
0.0
 10
0.8820314960629921
 20
0.7298779527559055
 30
0.0
 10
0.8820314960629921
 20
0.7298779527559055
 30
0.0
 10
0.8820314960629921
 20
0.7298779527559055
 30
0.0
 10
0.8820314960629921
 20
0.7298779527559055
 30
0.0
 10
0.8820314960629921
 20
0.7230433070866142
 30
0.0
 10
0.8820314960629921
 20
0.7230433070866142
 30
0.0
 10
0.8820314960629921
 20
0.7230433070866142
 30
0.0
 10
0.8820314960629921
 20
0.7230433070866142
 30
0.0
 10
0.8283937007874016
 20
0.7230433070866142
 30
0.0
 10
0.8283937007874016
 20
0.7230433070866142
 30
0.0
 10
0.8283937007874016
 20
0.7230433070866142
 30
0.0
 10
0.8283937007874016
 20
0.7230433070866142
 30
0.0
 10
0.8283937007874016
 20
0.7298779527559055
 30
0.0
 10
0.8283937007874016
 20
0.7298779527559055
 30
0.0
 10
0.8283937007874016
 20
0.7298779527559055
 30
0.0
 10
0.8283937007874016
 20
0.7298779527559055
 30
0.0
 10
0.837251968503937
 20
0.7298779527559055
 30
0.0
 10
0.837251968503937
 20
0.7298779527559055
 30
0.0
 10
0.837251968503937
 20
0.7298779527559055
 30
0.0
 10
0.8411141732283465
 20
0.7298779527559055
 30
0.0
 10
0.8436692913385827
 20
0.7302086614173229
 30
0.0
 10
0.8449488188976378
 20
0.7309055118110237
 30
0.0
 10
0.8449488188976378
 20
0.7309055118110237
 30
0.0
 10
0.8462244094488189
 20
0.7315708661417323
 30
0.0
 10
0.8472244094488189
 20
0.7326535433070867
 30
0.0
 10
0.8479212598425198
 20
0.7341535433070866
 30
0.0
 10
0.8479212598425198
 20
0.7341535433070866
 30
0.0
 10
0.8486141732283465
 20
0.7356535433070867
 30
0.0
 10
0.8489763779527559
 20
0.7383779527559056
 30
0.0
 10
0.8489763779527559
 20
0.7423228346456693
 30
0.0
 10
0.8489763779527559
 20
0.7423228346456693
 30
0.0
 10
0.8489763779527559
 20
0.7423228346456693
 30
0.0
 10
0.8489763779527559
 20
0.8197913385826772
 30
0.0
 10
0.8489763779527559
 20
0.8197913385826772
 30
0.0
 10
0.8489763779527559
 20
0.8197913385826772
 30
0.0
 10
0.8489763779527559
 20
0.8197913385826772
 30
0.0
 10
0.8283937007874016
 20
0.8197913385826772
 30
0.0
 10
0.8283937007874016
 20
0.8197913385826772
 30
0.0
 10
0.8283937007874016
 20
0.8197913385826772
 30
0.0
 10
0.8283937007874016
 20
0.8197913385826772
 30
0.0
 10
0.8283937007874016
 20
0.8267913385826772
 30
0.0
 10
0.8283937007874016
 20
0.8267913385826772
 30
0.0
 10
0.8283937007874016
 20
0.8267913385826772
 30
0.0
 10
0.8396141732283465
 20
0.8283740157480315
 30
0.0
 10
0.849003937007874
 20
0.8316259842519685
 30
0.0
 10
0.8565590551181103
 20
0.8365708661417323
 30
0.0
  0
SPLINE
  5
58
330
1F
100
AcDbEntity
  8
LAYER_1
 62
   250
100
AcDbSpline
210
0.0
220
0.0
230
1.0
 70
    11
 71
     3
 72
    80
 73
    76
 74
     0
 42
0.0000000001
 43
0.0000000001
 40
0.0
 40
0.0
 40
0.0
 40
0.0
 40
0.0526315789473684
 40
0.0526315789473684
 40
0.0526315789473684
 40
0.0526315789473684
 40
0.1052631578947368
 40
0.1052631578947368
 40
0.1052631578947368
 40
0.1052631578947368
 40
0.1578947368421053
 40
0.1578947368421053
 40
0.1578947368421053
 40
0.1578947368421053
 40
0.2105263157894737
 40
0.2105263157894737
 40
0.2105263157894737
 40
0.2105263157894737
 40
0.2631578947368421
 40
0.2631578947368421
 40
0.2631578947368421
 40
0.2631578947368421
 40
0.3157894736842105
 40
0.3157894736842105
 40
0.3157894736842105
 40
0.3157894736842105
 40
0.3684210526315789
 40
0.3684210526315789
 40
0.3684210526315789
 40
0.3684210526315789
 40
0.4210526315789474
 40
0.4210526315789474
 40
0.4210526315789474
 40
0.4210526315789474
 40
0.4736842105263158
 40
0.4736842105263158
 40
0.4736842105263158
 40
0.4736842105263158
 40
0.5263157894736842
 40
0.5263157894736842
 40
0.5263157894736842
 40
0.5263157894736842
 40
0.5789473684210527
 40
0.5789473684210527
 40
0.5789473684210527
 40
0.5789473684210527
 40
0.631578947368421
 40
0.631578947368421
 40
0.631578947368421
 40
0.631578947368421
 40
0.6842105263157894
 40
0.6842105263157894
 40
0.6842105263157894
 40
0.6842105263157894
 40
0.7368421052631577
 40
0.7368421052631577
 40
0.7368421052631577
 40
0.7368421052631577
 40
0.7894736842105261
 40
0.7894736842105261
 40
0.7894736842105261
 40
0.7894736842105261
 40
0.8421052631578945
 40
0.8421052631578945
 40
0.8421052631578945
 40
0.8421052631578945
 40
0.8947368421052628
 40
0.8947368421052628
 40
0.8947368421052628
 40
0.8947368421052628
 40
0.9473684210526312
 40
0.9473684210526312
 40
0.9473684210526312
 40
0.9473684210526312
 40
1.0
 40
1.0
 40
1.0
 40
1.0
 10
0.9219763779527559
 20
0.8407086614173228
 30
0.0
 10
0.9219763779527559
 20
0.8407086614173228
 30
0.0
 10
0.9273661417322835
 20
0.8407086614173228
 30
0.0
 10
0.9273661417322835
 20
0.8407086614173228
 30
0.0
 10
0.9273661417322835
 20
0.8407086614173228
 30
0.0
 10
0.9273661417322835
 20
0.8407086614173228
 30
0.0
 10
0.9283385826771654
 20
0.8365708661417323
 30
0.0
 10
0.9283385826771654
 20
0.8365708661417323
 30
0.0
 10
0.9283385826771654
 20
0.8365708661417323
 30
0.0
 10
0.9283385826771654
 20
0.8365708661417323
 30
0.0
 10
0.9994488188976378
 20
0.8365708661417323
 30
0.0
 10
0.9994488188976378
 20
0.8365708661417323
 30
0.0
 10
0.9994488188976378
 20
0.8365708661417323
 30
0.0
 10
0.9994488188976378
 20
0.8365708661417323
 30
0.0
 10
0.9994488188976378
 20
0.8296535433070866
 30
0.0
 10
0.9994488188976378
 20
0.8296535433070866
 30
0.0
 10
0.9994488188976378
 20
0.8296535433070866
 30
0.0
 10
0.9909488188976379
 20
0.8198188976377953
 30
0.0
 10
0.983224409448819
 20
0.8086535433070866
 30
0.0
 10
0.9763110236220473
 20
0.7960708661417323
 30
0.0
 10
0.9763110236220473
 20
0.7960708661417323
 30
0.0
 10
0.9693937007874016
 20
0.783515748031496
 30
0.0
 10
0.9640314960629922
 20
0.770736220472441
 30
0.0
 10
0.9602244094488189
 20
0.7577086614173229
 30
0.0
 10
0.9602244094488189
 20
0.7577086614173229
 30
0.0
 10
0.957476377952756
 20
0.7483228346456693
 30
0.0
 10
0.955228346456693
 20
0.7367637795275591
 30
0.0
 10
0.953476377952756
 20
0.7230433070866142
 30
0.0
 10
0.953476377952756
 20
0.7230433070866142
 30
0.0
 10
0.953476377952756
 20
0.7230433070866142
 30
0.0
 10
0.9368110236220473
 20
0.7230433070866142
 30
0.0
 10
0.9368110236220473
 20
0.7230433070866142
 30
0.0
 10
0.9368110236220473
 20
0.7230433070866142
 30
0.0
 10
0.9384212598425197
 20
0.7351535433070866
 30
0.0
 10
0.9410866141732284
 20
0.7464606299212598
 30
0.0
 10
0.9448110236220473
 20
0.756988188976378
 30
0.0
 10
0.9448110236220473
 20
0.756988188976378
 30
0.0
 10
0.9485314960629921
 20
0.7675157480314961
 30
0.0
 10
0.9538937007874017
 20
0.7785157480314962
 30
0.0
 10
0.9609212598425198
 20
0.789988188976378
 30
0.0
 10
0.9609212598425198
 20
0.789988188976378
 30
0.0
 10
0.9679488188976378
 20
0.8014606299212599
 30
0.0
 10
0.976476377952756
 20
0.8129055118110237
 30
0.0
 10
0.9865314960629922
 20
0.8243464566929134
 30
0.0
 10
0.9865314960629922
 20
0.8243464566929134
 30
0.0
 10
0.9865314960629922
 20
0.8243464566929134
 30
0.0
 10
0.9358110236220473
 20
0.8243464566929134
 30
0.0
 10
0.9358110236220473
 20
0.8243464566929134
 30
0.0
 10
0.9358110236220473
 20
0.8243464566929134
 30
0.0
 10
0.9321417322834646
 20
0.8243464566929134
 30
0.0
 10
0.9296141732283465
 20
0.8241811023622048
 30
0.0
 10
0.928255905511811
 20
0.8237913385826772
 30
0.0
 10
0.928255905511811
 20
0.8237913385826772
 30
0.0
 10
0.9268937007874016
 20
0.8234055118110236
 30
0.0
 10
0.9258385826771653
 20
0.8228188976377953
 30
0.0
 10
0.9250866141732284
 20
0.8220157480314961
 30
0.0
 10
0.9250866141732284
 20
0.8220157480314961
 30
0.0
 10
0.9243110236220473
 20
0.8211811023622048
 30
0.0
 10
0.9236692913385827
 20
0.819736220472441
 30
0.0
 10
0.9231141732283466
 20
0.8176811023622047
 30
0.0
 10
0.9231141732283466
 20
0.8176811023622047
 30
0.0
 10
0.9231141732283466
 20
0.8176811023622047
 30
0.0
 10
0.922728346456693
 20
0.8161535433070867
 30
0.0
 10
0.922728346456693
 20
0.8161535433070867
 30
0.0
 10
0.922728346456693
 20
0.8161535433070867
 30
0.0
 10
0.922728346456693
 20
0.8161535433070867
 30
0.0
 10
0.9199488188976378
 20
0.8065433070866143
 30
0.0
 10
0.9199488188976378
 20
0.8065433070866143
 30
0.0
 10
0.9199488188976378
 20
0.8065433070866143
 30
0.0
 10
0.9199488188976378
 20
0.8065433070866143
 30
0.0
 10
0.9130314960629922
 20
0.8080157480314961
 30
0.0
 10
0.9130314960629922
 20
0.8080157480314961
 30
0.0
 10
0.9130314960629922
 20
0.8080157480314961
 30
0.0
 10
0.9130314960629922
 20
0.8080157480314961
 30
0.0
 10
0.9219763779527559
 20
0.8407086614173228
 30
0.0
 10
0.9219763779527559
 20
0.8407086614173228
 30
0.0
  0
SPLINE
  5
59
330
1F
100
AcDbEntity
  8
LAYER_1
 62
   250
100
AcDbSpline
210
0.0
220
0.0
230
1.0
 70
    11
 71
     3
 72
    72
 73
    68
 74
     0
 42
0.0000000001
 43
0.0000000001
 40
0.0
 40
0.0
 40
0.0
 40
0.0
 40
0.0588235294117647
 40
0.0588235294117647
 40
0.0588235294117647
 40
0.0588235294117647
 40
0.1176470588235294
 40
0.1176470588235294
 40
0.1176470588235294
 40
0.1176470588235294
 40
0.1764705882352941
 40
0.1764705882352941
 40
0.1764705882352941
 40
0.1764705882352941
 40
0.2352941176470588
 40
0.2352941176470588
 40
0.2352941176470588
 40
0.2352941176470588
 40
0.2941176470588235
 40
0.2941176470588235
 40
0.2941176470588235
 40
0.2941176470588235
 40
0.3529411764705883
 40
0.3529411764705883
 40
0.3529411764705883
 40
0.3529411764705883
 40
0.411764705882353
 40
0.411764705882353
 40
0.411764705882353
 40
0.411764705882353
 40
0.4705882352941177
 40
0.4705882352941177
 40
0.4705882352941177
 40
0.4705882352941177
 40
0.5294117647058824
 40
0.5294117647058824
 40
0.5294117647058824
 40
0.5294117647058824
 40
0.5882352941176471
 40
0.5882352941176471
 40
0.5882352941176471
 40
0.5882352941176471
 40
0.6470588235294118
 40
0.6470588235294118
 40
0.6470588235294118
 40
0.6470588235294118
 40
0.7058823529411765
 40
0.7058823529411765
 40
0.7058823529411765
 40
0.7058823529411765
 40
0.7647058823529412
 40
0.7647058823529412
 40
0.7647058823529412
 40
0.7647058823529412
 40
0.823529411764706
 40
0.823529411764706
 40
0.823529411764706
 40
0.823529411764706
 40
0.8823529411764707
 40
0.8823529411764707
 40
0.8823529411764707
 40
0.8823529411764707
 40
0.9411764705882354
 40
0.9411764705882354
 40
0.9411764705882354
 40
0.9411764705882354
 40
1.0
 40
1.0
 40
1.0
 40
1.0
 10
1.063283464566929
 20
0.8365708661417323
 30
0.0
 10
1.063283464566929
 20
0.8365708661417323
 30
0.0
 10
1.069366141732284
 20
0.8365708661417323
 30
0.0
 10
1.069366141732284
 20
0.8365708661417323
 30
0.0
 10
1.069366141732284
 20
0.8365708661417323
 30
0.0
 10
1.069366141732284
 20
0.8365708661417323
 30
0.0
 10
1.069366141732284
 20
0.7423228346456693
 30
0.0
 10
1.069366141732284
 20
0.7423228346456693
 30
0.0
 10
1.069366141732284
 20
0.7423228346456693
 30
0.0
 10
1.069366141732284
 20
0.7378779527559055
 30
0.0
 10
1.069673228346457
 20
0.7350157480314961
 30
0.0
 10
1.070228346456693
 20
0.733736220472441
 30
0.0
 10
1.070228346456693
 20
0.733736220472441
 30
0.0
 10
1.070811023622047
 20
0.7324606299212598
 30
0.0
 10
1.071728346456693
 20
0.7315157480314961
 30
0.0
 10
1.073031496062992
 20
0.7308503937007874
 30
0.0
 10
1.073031496062992
 20
0.7308503937007874
 30
0.0
 10
1.074338582677165
 20
0.7302086614173229
 30
0.0
 10
1.07692125984252
 20
0.7298779527559055
 30
0.0
 10
1.080783464566929
 20
0.7298779527559055
 30
0.0
 10
1.080783464566929
 20
0.7298779527559055
 30
0.0
 10
1.080783464566929
 20
0.7298779527559055
 30
0.0
 10
1.088755905511811
 20
0.7298779527559055
 30
0.0
 10
1.088755905511811
 20
0.7298779527559055
 30
0.0
 10
1.088755905511811
 20
0.7298779527559055
 30
0.0
 10
1.088755905511811
 20
0.7298779527559055
 30
0.0
 10
1.088755905511811
 20
0.7230433070866142
 30
0.0
 10
1.088755905511811
 20
0.7230433070866142
 30
0.0
 10
1.088755905511811
 20
0.7230433070866142
 30
0.0
 10
1.088755905511811
 20
0.7230433070866142
 30
0.0
 10
1.035118110236221
 20
0.7230433070866142
 30
0.0
 10
1.035118110236221
 20
0.7230433070866142
 30
0.0
 10
1.035118110236221
 20
0.7230433070866142
 30
0.0
 10
1.035118110236221
 20
0.7230433070866142
 30
0.0
 10
1.035118110236221
 20
0.7298779527559055
 30
0.0
 10
1.035118110236221
 20
0.7298779527559055
 30
0.0
 10
1.035118110236221
 20
0.7298779527559055
 30
0.0
 10
1.035118110236221
 20
0.7298779527559055
 30
0.0
 10
1.043976377952756
 20
0.7298779527559055
 30
0.0
 10
1.043976377952756
 20
0.7298779527559055
 30
0.0
 10
1.043976377952756
 20
0.7298779527559055
 30
0.0
 10
1.047838582677166
 20
0.7298779527559055
 30
0.0
 10
1.050393700787402
 20
0.7302086614173229
 30
0.0
 10
1.051673228346457
 20
0.7309055118110237
 30
0.0
 10
1.051673228346457
 20
0.7309055118110237
 30
0.0
 10
1.052948818897638
 20
0.7315708661417323
 30
0.0
 10
1.053948818897638
 20
0.7326535433070867
 30
0.0
 10
1.054645669291339
 20
0.7341535433070866
 30
0.0
 10
1.054645669291339
 20
0.7341535433070866
 30
0.0
 10
1.055338582677165
 20
0.7356535433070867
 30
0.0
 10
1.055700787401575
 20
0.7383779527559056
 30
0.0
 10
1.055700787401575
 20
0.7423228346456693
 30
0.0
 10
1.055700787401575
 20
0.7423228346456693
 30
0.0
 10
1.055700787401575
 20
0.7423228346456693
 30
0.0
 10
1.055700787401575
 20
0.8197913385826772
 30
0.0
 10
1.055700787401575
 20
0.8197913385826772
 30
0.0
 10
1.055700787401575
 20
0.8197913385826772
 30
0.0
 10
1.055700787401575
 20
0.8197913385826772
 30
0.0
 10
1.035118110236221
 20
0.8197913385826772
 30
0.0
 10
1.035118110236221
 20
0.8197913385826772
 30
0.0
 10
1.035118110236221
 20
0.8197913385826772
 30
0.0
 10
1.035118110236221
 20
0.8197913385826772
 30
0.0
 10
1.035118110236221
 20
0.8267913385826772
 30
0.0
 10
1.035118110236221
 20
0.8267913385826772
 30
0.0
 10
1.035118110236221
 20
0.8267913385826772
 30
0.0
 10
1.046338582677165
 20
0.8283740157480315
 30
0.0
 10
1.055728346456693
 20
0.8316259842519685
 30
0.0
 10
1.063283464566929
 20
0.8365708661417323
 30
0.0
  0
SPLINE
  5
5A
330
1F
100
AcDbEntity
  8
LAYER_1
 62
   250
100
AcDbSpline
210
0.0
220
0.0
230
1.0
 70
    11
 71
     3
 72
   132
 73
   128
 74
     0
 42
0.0000000001
 43
0.0000000001
 40
0.0
 40
0.0
 40
0.0
 40
0.0
 40
0.03125
 40
0.03125
 40
0.03125
 40
0.03125
 40
0.0625
 40
0.0625
 40
0.0625
 40
0.0625
 40
0.09375
 40
0.09375
 40
0.09375
 40
0.09375
 40
0.125
 40
0.125
 40
0.125
 40
0.125
 40
0.15625
 40
0.15625
 40
0.15625
 40
0.15625
 40
0.1875
 40
0.1875
 40
0.1875
 40
0.1875
 40
0.21875
 40
0.21875
 40
0.21875
 40
0.21875
 40
0.25
 40
0.25
 40
0.25
 40
0.25
 40
0.28125
 40
0.28125
 40
0.28125
 40
0.28125
 40
0.3125
 40
0.3125
 40
0.3125
 40
0.3125
 40
0.34375
 40
0.34375
 40
0.34375
 40
0.34375
 40
0.375
 40
0.375
 40
0.375
 40
0.375
 40
0.40625
 40
0.40625
 40
0.40625
 40
0.40625
 40
0.4375
 40
0.4375
 40
0.4375
 40
0.4375
 40
0.46875
 40
0.46875
 40
0.46875
 40
0.46875
 40
0.5
 40
0.5
 40
0.5
 40
0.5
 40
0.53125
 40
0.53125
 40
0.53125
 40
0.53125
 40
0.5625
 40
0.5625
 40
0.5625
 40
0.5625
 40
0.59375
 40
0.59375
 40
0.59375
 40
0.59375
 40
0.625
 40
0.625
 40
0.625
 40
0.625
 40
0.65625
 40
0.65625
 40
0.65625
 40
0.65625
 40
0.6875
 40
0.6875
 40
0.6875
 40
0.6875
 40
0.71875
 40
0.71875
 40
0.71875
 40
0.71875
 40
0.75
 40
0.75
 40
0.75
 40
0.75
 40
0.78125
 40
0.78125
 40
0.78125
 40
0.78125
 40
0.8125
 40
0.8125
 40
0.8125
 40
0.8125
 40
0.84375
 40
0.84375
 40
0.84375
 40
0.84375
 40
0.875
 40
0.875
 40
0.875
 40
0.875
 40
0.90625
 40
0.90625
 40
0.90625
 40
0.90625
 40
0.9375
 40
0.9375
 40
0.9375
 40
0.9375
 40
0.96875
 40
0.96875
 40
0.96875
 40
0.96875
 40
1.0
 40
1.0
 40
1.0
 40
1.0
 10
1.133035433070866
 20
0.8365708661417323
 30
0.0
 10
1.133035433070866
 20
0.8365708661417323
 30
0.0
 10
1.183645669291339
 20
0.8365708661417323
 30
0.0
 10
1.183645669291339
 20
0.8365708661417323
 30
0.0
 10
1.183645669291339
 20
0.8365708661417323
 30
0.0
 10
1.186728346456693
 20
0.8365708661417323
 30
0.0
 10
1.188618110236221
 20
0.836736220472441
 30
0.0
 10
1.189255905511811
 20
0.8370708661417323
 30
0.0
 10
1.189255905511811
 20
0.8370708661417323
 30
0.0
 10
1.190173228346457
 20
0.8375984251968505
 30
0.0
 10
1.190728346456693
 20
0.8387637795275591
 30
0.0
 10
1.190893700787402
 20
0.8405433070866142
 30
0.0
 10
1.190893700787402
 20
0.8405433070866142
 30
0.0
 10
1.190893700787402
 20
0.8405433070866142
 30
0.0
 10
1.196838582677166
 20
0.8405433070866142
 30
0.0
 10
1.196838582677166
 20
0.8405433070866142
 30
0.0
 10
1.196838582677166
 20
0.8405433070866142
 30
0.0
 10
1.196838582677166
 20
0.8405433070866142
 30
0.0
 10
1.196838582677166
 20
0.8233740157480315
 30
0.0
 10
1.196838582677166
 20
0.8233740157480315
 30
0.0
 10
1.196838582677166
 20
0.8233740157480315
 30
0.0
 10
1.196838582677166
 20
0.8233740157480315
 30
0.0
 10
1.140590551181102
 20
0.8233740157480315
 30
0.0
 10
1.140590551181102
 20
0.8233740157480315
 30
0.0
 10
1.140590551181102
 20
0.8233740157480315
 30
0.0
 10
1.140590551181102
 20
0.8233740157480315
 30
0.0
 10
1.139200787401575
 20
0.794736220472441
 30
0.0
 10
1.139200787401575
 20
0.794736220472441
 30
0.0
 10
1.139200787401575
 20
0.794736220472441
 30
0.0
 10
1.141535433070866
 20
0.7954055118110237
 30
0.0
 10
1.144507874015748
 20
0.7959330708661417
 30
0.0
 10
1.148090551181102
 20
0.7963779527559055
 30
0.0
 10
1.148090551181102
 20
0.7963779527559055
 30
0.0
 10
1.152700787401575
 20
0.7969055118110237
 30
0.0
 10
1.156811023622047
 20
0.7971811023622047
 30
0.0
 10
1.160452755905512
 20
0.7971811023622047
 30
0.0
 10
1.160452755905512
 20
0.7971811023622047
 30
0.0
 10
1.169507874015748
 20
0.7971811023622047
 30
0.0
 10
1.177393700787402
 20
0.7955433070866143
 30
0.0
 10
1.184145669291339
 20
0.7922913385826772
 30
0.0
 10
1.184145669291339
 20
0.7922913385826772
 30
0.0
 10
1.190866141732283
 20
0.7890433070866142
 30
0.0
 10
1.195976377952756
 20
0.7845708661417323
 30
0.0
 10
1.199476377952756
 20
0.7789055118110236
 30
0.0
 10
1.199476377952756
 20
0.7789055118110236
 30
0.0
 10
1.202976377952756
 20
0.773236220472441
 30
0.0
 10
1.204728346456693
 20
0.7669055118110236
 30
0.0
 10
1.204728346456693
 20
0.7599055118110236
 30
0.0
 10
1.204728346456693
 20
0.7599055118110236
 30
0.0
 10
1.204728346456693
 20
0.7490708661417324
 30
0.0
 10
1.200645669291339
 20
0.7398779527559055
 30
0.0
 10
1.192507874015748
 20
0.7323503937007875
 30
0.0
 10
1.192507874015748
 20
0.7323503937007875
 30
0.0
 10
1.184366141732284
 20
0.7248503937007874
 30
0.0
 10
1.174007874015748
 20
0.7210984251968504
 30
0.0
 10
1.16142125984252
 20
0.7210984251968504
 30
0.0
 10
1.16142125984252
 20
0.7210984251968504
 30
0.0
 10
1.154145669291339
 20
0.7210984251968504
 30
0.0
 10
1.147590551181102
 20
0.7224055118110236
 30
0.0
 10
1.141700787401575
 20
0.724988188976378
 30
0.0
 10
1.141700787401575
 20
0.724988188976378
 30
0.0
 10
1.135811023622047
 20
0.7275984251968505
 30
0.0
 10
1.131200787401575
 20
0.7310433070866143
 30
0.0
 10
1.127893700787402
 20
0.7352913385826772
 30
0.0
 10
1.127893700787402
 20
0.7352913385826772
 30
0.0
 10
1.124590551181102
 20
0.7395433070866142
 30
0.0
 10
1.122925196850394
 20
0.7432913385826772
 30
0.0
 10
1.122925196850394
 20
0.746488188976378
 30
0.0
 10
1.122925196850394
 20
0.746488188976378
 30
0.0
 10
1.122925196850394
 20
0.7485984251968504
 30
0.0
 10
1.123645669291339
 20
0.7504330708661418
 30
0.0
 10
1.125062992125984
 20
0.751988188976378
 30
0.0
 10
1.125062992125984
 20
0.751988188976378
 30
0.0
 10
1.126452755905512
 20
0.7535157480314961
 30
0.0
 10
1.128283464566929
 20
0.7542913385826772
 30
0.0
 10
1.130507874015748
 20
0.7542913385826772
 30
0.0
 10
1.130507874015748
 20
0.7542913385826772
 30
0.0
 10
1.132783464566929
 20
0.7542913385826772
 30
0.0
 10
1.134783464566929
 20
0.7533503937007874
 30
0.0
 10
1.136535433070866
 20
0.7514330708661418
 30
0.0
 10
1.136535433070866
 20
0.7514330708661418
 30
0.0
 10
1.137507874015748
 20
0.7504606299212598
 30
0.0
 10
1.138673228346457
 20
0.7480708661417324
 30
0.0
 10
1.140035433070866
 20
0.7442913385826772
 30
0.0
 10
1.140035433070866
 20
0.7442913385826772
 30
0.0
 10
1.141866141732284
 20
0.7389606299212599
 30
0.0
 10
1.144618110236221
 20
0.7350708661417323
 30
0.0
 10
1.148255905511811
 20
0.7325708661417323
 30
0.0
 10
1.148255905511811
 20
0.7325708661417323
 30
0.0
 10
1.151811023622047
 20
0.7300157480314961
 30
0.0
 10
1.156338582677166
 20
0.728736220472441
 30
0.0
 10
1.161755905511811
 20
0.728736220472441
 30
0.0
 10
1.161755905511811
 20
0.728736220472441
 30
0.0
 10
1.167173228346457
 20
0.728736220472441
 30
0.0
 10
1.172007874015748
 20
0.7299330708661418
 30
0.0
 10
1.176228346456693
 20
0.7322913385826771
 30
0.0
 10
1.176228346456693
 20
0.7322913385826771
 30
0.0
 10
1.18048031496063
 20
0.7346259842519686
 30
0.0
 10
1.183811023622047
 20
0.7380433070866143
 30
0.0
 10
1.186255905511811
 20
0.7424606299212598
 30
0.0
 10
1.186255905511811
 20
0.7424606299212598
 30
0.0
 10
1.188700787401575
 20
0.7468779527559055
 30
0.0
 10
1.18992125984252
 20
0.7517913385826772
 30
0.0
 10
1.18992125984252
 20
0.7572086614173229
 30
0.0
 10
1.18992125984252
 20
0.7572086614173229
 30
0.0
 10
1.18992125984252
 20
0.7629330708661418
 30
0.0
 10
1.188590551181102
 20
0.767988188976378
 30
0.0
 10
1.185948818897638
 20
0.7724330708661418
 30
0.0
 10
1.185948818897638
 20
0.7724330708661418
 30
0.0
 10
1.183338582677165
 20
0.7768779527559055
 30
0.0
 10
1.179562992125984
 20
0.7803464566929135
 30
0.0
 10
1.174645669291339
 20
0.782763779527559
 30
0.0
 10
1.174645669291339
 20
0.782763779527559
 30
0.0
 10
1.169728346456693
 20
0.7852086614173228
 30
0.0
 10
1.163755905511811
 20
0.7864330708661418
 30
0.0
 10
1.156700787401575
 20
0.7864330708661418
 30
0.0
 10
1.156700787401575
 20
0.7864330708661418
 30
0.0
 10
1.15242125984252
 20
0.7864330708661418
 30
0.0
 10
1.147811023622047
 20
0.785988188976378
 30
0.0
 10
1.14292125984252
 20
0.7850433070866142
 30
0.0
 10
1.14292125984252
 20
0.7850433070866142
 30
0.0
 10
1.138007874015748
 20
0.7841259842519686
 30
0.0
 10
1.133783464566929
 20
0.7829606299212599
 30
0.0
 10
1.130255905511811
 20
0.7815433070866142
 30
0.0
 10
1.130255905511811
 20
0.7815433070866142
 30
0.0
 10
1.130255905511811
 20
0.7815433070866142
 30
0.0
 10
1.133035433070866
 20
0.8365708661417323
 30
0.0
 10
1.133035433070866
 20
0.8365708661417323
 30
0.0
  0
SPLINE
  5
5B
330
1F
100
AcDbEntity
  8
LAYER_1
 62
   250
100
AcDbSpline
210
0.0
220
0.0
230
1.0
 70
    11
 71
     3
 72
    80
 73
    76
 74
     0
 42
0.0000000001
 43
0.0000000001
 40
0.0
 40
0.0
 40
0.0
 40
0.0
 40
0.0526315789473684
 40
0.0526315789473684
 40
0.0526315789473684
 40
0.0526315789473684
 40
0.1052631578947368
 40
0.1052631578947368
 40
0.1052631578947368
 40
0.1052631578947368
 40
0.1578947368421053
 40
0.1578947368421053
 40
0.1578947368421053
 40
0.1578947368421053
 40
0.2105263157894737
 40
0.2105263157894737
 40
0.2105263157894737
 40
0.2105263157894737
 40
0.2631578947368421
 40
0.2631578947368421
 40
0.2631578947368421
 40
0.2631578947368421
 40
0.3157894736842105
 40
0.3157894736842105
 40
0.3157894736842105
 40
0.3157894736842105
 40
0.3684210526315789
 40
0.3684210526315789
 40
0.3684210526315789
 40
0.3684210526315789
 40
0.4210526315789474
 40
0.4210526315789474
 40
0.4210526315789474
 40
0.4210526315789474
 40
0.4736842105263158
 40
0.4736842105263158
 40
0.4736842105263158
 40
0.4736842105263158
 40
0.5263157894736842
 40
0.5263157894736842
 40
0.5263157894736842
 40
0.5263157894736842
 40
0.5789473684210527
 40
0.5789473684210527
 40
0.5789473684210527
 40
0.5789473684210527
 40
0.631578947368421
 40
0.631578947368421
 40
0.631578947368421
 40
0.631578947368421
 40
0.6842105263157894
 40
0.6842105263157894
 40
0.6842105263157894
 40
0.6842105263157894
 40
0.7368421052631577
 40
0.7368421052631577
 40
0.7368421052631577
 40
0.7368421052631577
 40
0.7894736842105261
 40
0.7894736842105261
 40
0.7894736842105261
 40
0.7894736842105261
 40
0.8421052631578945
 40
0.8421052631578945
 40
0.8421052631578945
 40
0.8421052631578945
 40
0.8947368421052628
 40
0.8947368421052628
 40
0.8947368421052628
 40
0.8947368421052628
 40
0.9473684210526312
 40
0.9473684210526312
 40
0.9473684210526312
 40
0.9473684210526312
 40
1.0
 40
1.0
 40
1.0
 40
1.0
 10
0.3286732283464567
 20
0.6532086614173228
 30
0.0
 10
0.3286732283464567
 20
0.6532086614173228
 30
0.0
 10
0.3340629921259843
 20
0.6532086614173228
 30
0.0
 10
0.3340629921259843
 20
0.6532086614173228
 30
0.0
 10
0.3340629921259843
 20
0.6532086614173228
 30
0.0
 10
0.3340629921259843
 20
0.6532086614173228
 30
0.0
 10
0.3350354330708661
 20
0.6490708661417323
 30
0.0
 10
0.3350354330708661
 20
0.6490708661417323
 30
0.0
 10
0.3350354330708661
 20
0.6490708661417323
 30
0.0
 10
0.3350354330708661
 20
0.6490708661417323
 30
0.0
 10
0.4061456692913386
 20
0.6490708661417323
 30
0.0
 10
0.4061456692913386
 20
0.6490708661417323
 30
0.0
 10
0.4061456692913386
 20
0.6490708661417323
 30
0.0
 10
0.4061456692913386
 20
0.6490708661417323
 30
0.0
 10
0.4061456692913386
 20
0.6421535433070866
 30
0.0
 10
0.4061456692913386
 20
0.6421535433070866
 30
0.0
 10
0.4061456692913386
 20
0.6421535433070866
 30
0.0
 10
0.3976456692913386
 20
0.6323188976377953
 30
0.0
 10
0.3899212598425197
 20
0.6211535433070866
 30
0.0
 10
0.383007874015748
 20
0.6085708661417323
 30
0.0
 10
0.383007874015748
 20
0.6085708661417323
 30
0.0
 10
0.3760905511811024
 20
0.596015748031496
 30
0.0
 10
0.370728346456693
 20
0.583236220472441
 30
0.0
 10
0.3669212598425197
 20
0.5702086614173229
 30
0.0
 10
0.3669212598425197
 20
0.5702086614173229
 30
0.0
 10
0.3641732283464567
 20
0.5608228346456693
 30
0.0
 10
0.3619251968503937
 20
0.5492637795275591
 30
0.0
 10
0.3601732283464567
 20
0.5355433070866142
 30
0.0
 10
0.3601732283464567
 20
0.5355433070866142
 30
0.0
 10
0.3601732283464567
 20
0.5355433070866142
 30
0.0
 10
0.3435078740157481
 20
0.5355433070866142
 30
0.0
 10
0.3435078740157481
 20
0.5355433070866142
 30
0.0
 10
0.3435078740157481
 20
0.5355433070866142
 30
0.0
 10
0.3451181102362205
 20
0.5476535433070866
 30
0.0
 10
0.3477834645669292
 20
0.5589606299212598
 30
0.0
 10
0.3515078740157481
 20
0.569488188976378
 30
0.0
 10
0.3515078740157481
 20
0.569488188976378
 30
0.0
 10
0.3552283464566929
 20
0.5800157480314961
 30
0.0
 10
0.3605905511811024
 20
0.591015748031496
 30
0.0
 10
0.3676181102362205
 20
0.602488188976378
 30
0.0
 10
0.3676181102362205
 20
0.602488188976378
 30
0.0
 10
0.3746456692913386
 20
0.6139606299212599
 30
0.0
 10
0.3831732283464567
 20
0.6254055118110237
 30
0.0
 10
0.3932283464566929
 20
0.6368464566929134
 30
0.0
 10
0.3932283464566929
 20
0.6368464566929134
 30
0.0
 10
0.3932283464566929
 20
0.6368464566929134
 30
0.0
 10
0.3425078740157481
 20
0.6368464566929134
 30
0.0
 10
0.3425078740157481
 20
0.6368464566929134
 30
0.0
 10
0.3425078740157481
 20
0.6368464566929134
 30
0.0
 10
0.3388385826771654
 20
0.6368464566929134
 30
0.0
 10
0.3363110236220472
 20
0.6366811023622048
 30
0.0
 10
0.3349527559055118
 20
0.6362913385826772
 30
0.0
 10
0.3349527559055118
 20
0.6362913385826772
 30
0.0
 10
0.3335905511811024
 20
0.6359055118110236
 30
0.0
 10
0.3325354330708661
 20
0.6353188976377953
 30
0.0
 10
0.3317834645669291
 20
0.6345157480314961
 30
0.0
 10
0.3317834645669291
 20
0.6345157480314961
 30
0.0
 10
0.3310078740157481
 20
0.6336811023622048
 30
0.0
 10
0.3303661417322835
 20
0.632236220472441
 30
0.0
 10
0.3298110236220473
 20
0.6301811023622047
 30
0.0
 10
0.3298110236220473
 20
0.6301811023622047
 30
0.0
 10
0.3298110236220473
 20
0.6301811023622047
 30
0.0
 10
0.3294251968503937
 20
0.6286535433070867
 30
0.0
 10
0.3294251968503937
 20
0.6286535433070867
 30
0.0
 10
0.3294251968503937
 20
0.6286535433070867
 30
0.0
 10
0.3294251968503937
 20
0.6286535433070867
 30
0.0
 10
0.3266456692913386
 20
0.6190433070866142
 30
0.0
 10
0.3266456692913386
 20
0.6190433070866142
 30
0.0
 10
0.3266456692913386
 20
0.6190433070866142
 30
0.0
 10
0.3266456692913386
 20
0.6190433070866142
 30
0.0
 10
0.3197283464566929
 20
0.6205157480314961
 30
0.0
 10
0.3197283464566929
 20
0.6205157480314961
 30
0.0
 10
0.3197283464566929
 20
0.6205157480314961
 30
0.0
 10
0.3197283464566929
 20
0.6205157480314961
 30
0.0
 10
0.3286732283464567
 20
0.6532086614173228
 30
0.0
 10
0.3286732283464567
 20
0.6532086614173228
 30
0.0
  0
SPLINE
  5
5C
330
1F
100
AcDbEntity
  8
LAYER_1
 62
   250
100
AcDbSpline
210
0.0
220
0.0
230
1.0
 70
    11
 71
     3
 72
    20
 73
    16
 74
     0
 42
0.0000000001
 43
0.0000000001
 40
0.0
 40
0.0
 40
0.0
 40
0.0
 40
0.25
 40
0.25
 40
0.25
 40
0.25
 40
0.5
 40
0.5
 40
0.5
 40
0.5
 40
0.75
 40
0.75
 40
0.75
 40
0.75
 40
1.0
 40
1.0
 40
1.0
 40
1.0
 10
0.4954527559055119
 20
0.6549330708661417
 30
0.0
 10
0.4954527559055119
 20
0.6549330708661417
 30
0.0
 10
0.4398700787401575
 20
0.499236220472441
 30
0.0
 10
0.4398700787401575
 20
0.499236220472441
 30
0.0
 10
0.4398700787401575
 20
0.499236220472441
 30
0.0
 10
0.4398700787401575
 20
0.499236220472441
 30
0.0
 10
0.4278149606299213
 20
0.499236220472441
 30
0.0
 10
0.4278149606299213
 20
0.499236220472441
 30
0.0
 10
0.4278149606299213
 20
0.499236220472441
 30
0.0
 10
0.4278149606299213
 20
0.499236220472441
 30
0.0
 10
0.4830629921259843
 20
0.6549330708661417
 30
0.0
 10
0.4830629921259843
 20
0.6549330708661417
 30
0.0
 10
0.4830629921259843
 20
0.6549330708661417
 30
0.0
 10
0.4830629921259843
 20
0.6549330708661417
 30
0.0
 10
0.4954527559055119
 20
0.6549330708661417
 30
0.0
 10
0.4954527559055119
 20
0.6549330708661417
 30
0.0
  0
SPLINE
  5
5D
330
1F
100
AcDbEntity
  8
LAYER_1
 62
   250
100
AcDbSpline
210
0.0
220
0.0
230
1.0
 70
    11
 71
     3
 72
    72
 73
    68
 74
     0
 42
0.0000000001
 43
0.0000000001
 40
0.0
 40
0.0
 40
0.0
 40
0.0
 40
0.0588235294117647
 40
0.0588235294117647
 40
0.0588235294117647
 40
0.0588235294117647
 40
0.1176470588235294
 40
0.1176470588235294
 40
0.1176470588235294
 40
0.1176470588235294
 40
0.1764705882352941
 40
0.1764705882352941
 40
0.1764705882352941
 40
0.1764705882352941
 40
0.2352941176470588
 40
0.2352941176470588
 40
0.2352941176470588
 40
0.2352941176470588
 40
0.2941176470588235
 40
0.2941176470588235
 40
0.2941176470588235
 40
0.2941176470588235
 40
0.3529411764705883
 40
0.3529411764705883
 40
0.3529411764705883
 40
0.3529411764705883
 40
0.411764705882353
 40
0.411764705882353
 40
0.411764705882353
 40
0.411764705882353
 40
0.4705882352941177
 40
0.4705882352941177
 40
0.4705882352941177
 40
0.4705882352941177
 40
0.5294117647058824
 40
0.5294117647058824
 40
0.5294117647058824
 40
0.5294117647058824
 40
0.5882352941176471
 40
0.5882352941176471
 40
0.5882352941176471
 40
0.5882352941176471
 40
0.6470588235294118
 40
0.6470588235294118
 40
0.6470588235294118
 40
0.6470588235294118
 40
0.7058823529411765
 40
0.7058823529411765
 40
0.7058823529411765
 40
0.7058823529411765
 40
0.7647058823529412
 40
0.7647058823529412
 40
0.7647058823529412
 40
0.7647058823529412
 40
0.823529411764706
 40
0.823529411764706
 40
0.823529411764706
 40
0.823529411764706
 40
0.8823529411764707
 40
0.8823529411764707
 40
0.8823529411764707
 40
0.8823529411764707
 40
0.9411764705882354
 40
0.9411764705882354
 40
0.9411764705882354
 40
0.9411764705882354
 40
1.0
 40
1.0
 40
1.0
 40
1.0
 10
0.570007874015748
 20
0.6490708661417323
 30
0.0
 10
0.570007874015748
 20
0.6490708661417323
 30
0.0
 10
0.5760905511811024
 20
0.6490708661417323
 30
0.0
 10
0.5760905511811024
 20
0.6490708661417323
 30
0.0
 10
0.5760905511811024
 20
0.6490708661417323
 30
0.0
 10
0.5760905511811024
 20
0.6490708661417323
 30
0.0
 10
0.5760905511811024
 20
0.5548228346456693
 30
0.0
 10
0.5760905511811024
 20
0.5548228346456693
 30
0.0
 10
0.5760905511811024
 20
0.5548228346456693
 30
0.0
 10
0.5760905511811024
 20
0.5503779527559055
 30
0.0
 10
0.5763976377952756
 20
0.5475157480314961
 30
0.0
 10
0.5769527559055119
 20
0.5462362204724409
 30
0.0
 10
0.5769527559055119
 20
0.5462362204724409
 30
0.0
 10
0.5775354330708662
 20
0.5449606299212598
 30
0.0
 10
0.5784527559055118
 20
0.5440157480314961
 30
0.0
 10
0.579755905511811
 20
0.5433503937007874
 30
0.0
 10
0.579755905511811
 20
0.5433503937007874
 30
0.0
 10
0.5810629921259842
 20
0.5427086614173229
 30
0.0
 10
0.5836456692913387
 20
0.5423779527559055
 30
0.0
 10
0.587507874015748
 20
0.5423779527559055
 30
0.0
 10
0.587507874015748
 20
0.5423779527559055
 30
0.0
 10
0.587507874015748
 20
0.5423779527559055
 30
0.0
 10
0.5954803149606299
 20
0.5423779527559055
 30
0.0
 10
0.5954803149606299
 20
0.5423779527559055
 30
0.0
 10
0.5954803149606299
 20
0.5423779527559055
 30
0.0
 10
0.5954803149606299
 20
0.5423779527559055
 30
0.0
 10
0.5954803149606299
 20
0.5355433070866142
 30
0.0
 10
0.5954803149606299
 20
0.5355433070866142
 30
0.0
 10
0.5954803149606299
 20
0.5355433070866142
 30
0.0
 10
0.5954803149606299
 20
0.5355433070866142
 30
0.0
 10
0.5418425196850394
 20
0.5355433070866142
 30
0.0
 10
0.5418425196850394
 20
0.5355433070866142
 30
0.0
 10
0.5418425196850394
 20
0.5355433070866142
 30
0.0
 10
0.5418425196850394
 20
0.5355433070866142
 30
0.0
 10
0.5418425196850394
 20
0.5423779527559055
 30
0.0
 10
0.5418425196850394
 20
0.5423779527559055
 30
0.0
 10
0.5418425196850394
 20
0.5423779527559055
 30
0.0
 10
0.5418425196850394
 20
0.5423779527559055
 30
0.0
 10
0.5507007874015748
 20
0.5423779527559055
 30
0.0
 10
0.5507007874015748
 20
0.5423779527559055
 30
0.0
 10
0.5507007874015748
 20
0.5423779527559055
 30
0.0
 10
0.5545629921259843
 20
0.5423779527559055
 30
0.0
 10
0.5571181102362205
 20
0.5427086614173229
 30
0.0
 10
0.5583976377952756
 20
0.5434055118110236
 30
0.0
 10
0.5583976377952756
 20
0.5434055118110236
 30
0.0
 10
0.5596732283464567
 20
0.5440708661417323
 30
0.0
 10
0.5606732283464567
 20
0.5451535433070867
 30
0.0
 10
0.5613700787401575
 20
0.5466535433070866
 30
0.0
 10
0.5613700787401575
 20
0.5466535433070866
 30
0.0
 10
0.5620629921259843
 20
0.5481535433070867
 30
0.0
 10
0.5624251968503937
 20
0.5508779527559056
 30
0.0
 10
0.5624251968503937
 20
0.5548228346456693
 30
0.0
 10
0.5624251968503937
 20
0.5548228346456693
 30
0.0
 10
0.5624251968503937
 20
0.5548228346456693
 30
0.0
 10
0.5624251968503937
 20
0.6322913385826772
 30
0.0
 10
0.5624251968503937
 20
0.6322913385826772
 30
0.0
 10
0.5624251968503937
 20
0.6322913385826772
 30
0.0
 10
0.5624251968503937
 20
0.6322913385826772
 30
0.0
 10
0.5418425196850394
 20
0.6322913385826772
 30
0.0
 10
0.5418425196850394
 20
0.6322913385826772
 30
0.0
 10
0.5418425196850394
 20
0.6322913385826772
 30
0.0
 10
0.5418425196850394
 20
0.6322913385826772
 30
0.0
 10
0.5418425196850394
 20
0.6392913385826772
 30
0.0
 10
0.5418425196850394
 20
0.6392913385826772
 30
0.0
 10
0.5418425196850394
 20
0.6392913385826772
 30
0.0
 10
0.5530629921259843
 20
0.6408740157480315
 30
0.0
 10
0.5624527559055118
 20
0.6441259842519685
 30
0.0
 10
0.570007874015748
 20
0.6490708661417323
 30
0.0
  0
SPLINE
  5
5E
330
1F
100
AcDbEntity
  8
LAYER_1
 62
   250
100
AcDbSpline
210
0.0
220
0.0
230
1.0
 70
    11
 71
     3
 72
    84
 73
    80
 74
     0
 42
0.0000000001
 43
0.0000000001
 40
0.0
 40
0.0
 40
0.0
 40
0.0
 40
0.05
 40
0.05
 40
0.05
 40
0.05
 40
0.1
 40
0.1
 40
0.1
 40
0.1
 40
0.15
 40
0.15
 40
0.15
 40
0.15
 40
0.2
 40
0.2
 40
0.2
 40
0.2
 40
0.25
 40
0.25
 40
0.25
 40
0.25
 40
0.3
 40
0.3
 40
0.3
 40
0.3
 40
0.35
 40
0.35
 40
0.35
 40
0.35
 40
0.4
 40
0.4
 40
0.4
 40
0.4
 40
0.45
 40
0.45
 40
0.45
 40
0.45
 40
0.4999999999999999
 40
0.4999999999999999
 40
0.4999999999999999
 40
0.4999999999999999
 40
0.5499999999999999
 40
0.5499999999999999
 40
0.5499999999999999
 40
0.5499999999999999
 40
0.6
 40
0.6
 40
0.6
 40
0.6
 40
0.65
 40
0.65
 40
0.65
 40
0.65
 40
0.7000000000000001
 40
0.7000000000000001
 40
0.7000000000000001
 40
0.7000000000000001
 40
0.7500000000000001
 40
0.7500000000000001
 40
0.7500000000000001
 40
0.7500000000000001
 40
0.8000000000000002
 40
0.8000000000000002
 40
0.8000000000000002
 40
0.8000000000000002
 40
0.8500000000000002
 40
0.8500000000000002
 40
0.8500000000000002
 40
0.8500000000000002
 40
0.9000000000000002
 40
0.9000000000000002
 40
0.9000000000000002
 40
0.9000000000000002
 40
0.9500000000000003
 40
0.9500000000000003
 40
0.9500000000000003
 40
0.9500000000000003
 40
1.0
 40
1.0
 40
1.0
 40
1.0
 10
0.7016732283464567
 20
0.6511811023622047
 30
0.0
 10
0.7016732283464567
 20
0.6511811023622047
 30
0.0
 10
0.7016732283464567
 20
0.643763779527559
 30
0.0
 10
0.7016732283464567
 20
0.643763779527559
 30
0.0
 10
0.7016732283464567
 20
0.643763779527559
 30
0.0
 10
0.6882874015748032
 20
0.6436259842519685
 30
0.0
 10
0.6774527559055118
 20
0.6416535433070867
 30
0.0
 10
0.6691771653543307
 20
0.6379330708661417
 30
0.0
 10
0.6691771653543307
 20
0.6379330708661417
 30
0.0
 10
0.6608976377952757
 20
0.6341811023622047
 30
0.0
 10
0.6548149606299213
 20
0.6285708661417323
 30
0.0
 10
0.6508976377952757
 20
0.6211259842519685
 30
0.0
 10
0.6508976377952757
 20
0.6211259842519685
 30
0.0
 10
0.6469803149606299
 20
0.6136535433070867
 30
0.0
 10
0.6447874015748032
 20
0.6044606299212598
 30
0.0
 10
0.6443149606299213
 20
0.5935708661417323
 30
0.0
 10
0.6443149606299213
 20
0.5935708661417323
 30
0.0
 10
0.6470629921259843
 20
0.5977913385826772
 30
0.0
 10
0.6498976377952757
 20
0.6010984251968504
 30
0.0
 10
0.6528149606299213
 20
0.6034606299212598
 30
0.0
 10
0.6528149606299213
 20
0.6034606299212598
 30
0.0
 10
0.6557047244094488
 20
0.6058188976377953
 30
0.0
 10
0.6590905511811024
 20
0.6076259842519686
 30
0.0
 10
0.6629803149606299
 20
0.6089055118110236
 30
0.0
 10
0.6629803149606299
 20
0.6089055118110236
 30
0.0
 10
0.6668700787401575
 20
0.6101811023622048
 30
0.0
 10
0.6711181102362205
 20
0.6108188976377953
 30
0.0
 10
0.6757322834645669
 20
0.6108188976377953
 30
0.0
 10
0.6757322834645669
 20
0.6108188976377953
 30
0.0
 10
0.6830905511811024
 20
0.6108188976377953
 30
0.0
 10
0.6896732283464567
 20
0.6091811023622048
 30
0.0
 10
0.6954251968503937
 20
0.6059330708661418
 30
0.0
 10
0.6954251968503937
 20
0.6059330708661418
 30
0.0
 10
0.7011732283464567
 20
0.6026811023622047
 30
0.0
 10
0.7056456692913387
 20
0.5982637795275591
 30
0.0
 10
0.7088425196850394
 20
0.5927086614173228
 30
0.0
 10
0.7088425196850394
 20
0.5927086614173228
 30
0.0
 10
0.7120354330708661
 20
0.5871535433070867
 30
0.0
 10
0.7136456692913387
 20
0.5805984251968505
 30
0.0
 10
0.7136456692913387
 20
0.5730708661417323
 30
0.0
 10
0.7136456692913387
 20
0.5730708661417323
 30
0.0
 10
0.7136456692913387
 20
0.5610708661417323
 30
0.0
 10
0.7100354330708661
 20
0.5516535433070866
 30
0.0
 10
0.7028149606299213
 20
0.5448228346456693
 30
0.0
 10
0.7028149606299213
 20
0.5448228346456693
 30
0.0
 10
0.6948425196850394
 20
0.5373228346456693
 30
0.0
 10
0.6845078740157481
 20
0.5335984251968504
 30
0.0
 10
0.6718149606299213
 20
0.5335984251968504
 30
0.0
 10
0.6718149606299213
 20
0.5335984251968504
 30
0.0
 10
0.6626456692913386
 20
0.5335984251968504
 30
0.0
 10
0.6549251968503937
 20
0.535488188976378
 30
0.0
 10
0.6486181102362205
 20
0.5392913385826772
 30
0.0
 10
0.6486181102362205
 20
0.5392913385826772
 30
0.0
 10
0.6423149606299213
 20
0.5430708661417323
 30
0.0
 10
0.6373149606299213
 20
0.5488779527559056
 30
0.0
 10
0.6335905511811024
 20
0.5567086614173229
 30
0.0
 10
0.6335905511811024
 20
0.5567086614173229
 30
0.0
 10
0.6298976377952756
 20
0.5645157480314961
 30
0.0
 10
0.6280354330708662
 20
0.5741811023622048
 30
0.0
 10
0.6280354330708662
 20
0.5856811023622047
 30
0.0
 10
0.6280354330708662
 20
0.5856811023622047
 30
0.0
 10
0.6280354330708662
 20
0.597236220472441
 30
0.0
 10
0.6300078740157481
 20
0.607488188976378
 30
0.0
 10
0.6339251968503937
 20
0.6164330708661417
 30
0.0
 10
0.6339251968503937
 20
0.6164330708661417
 30
0.0
 10
0.6378700787401576
 20
0.6253740157480315
 30
0.0
 10
0.6433149606299213
 20
0.6325708661417323
 30
0.0
 10
0.6502598425196851
 20
0.637988188976378
 30
0.0
 10
0.6502598425196851
 20
0.637988188976378
 30
0.0
 10
0.6572047244094489
 20
0.6434330708661418
 30
0.0
 10
0.6648149606299213
 20
0.646988188976378
 30
0.0
 10
0.6730629921259843
 20
0.6486535433070867
 30
0.0
 10
0.6730629921259843
 20
0.6486535433070867
 30
0.0
 10
0.6813425196850395
 20
0.6503464566929134
 30
0.0
 10
0.688759842519685
 20
0.6511811023622047
 30
0.0
 10
0.6953425196850394
 20
0.6511811023622047
 30
0.0
 10
0.6953425196850394
 20
0.6511811023622047
 30
0.0
 10
0.6953425196850394
 20
0.6511811023622047
 30
0.0
 10
0.7016732283464567
 20
0.6511811023622047
 30
0.0
 10
0.7016732283464567
 20
0.6511811023622047
 30
0.0
  0
SPLINE
  5
5F
330
1F
100
AcDbEntity
  8
LAYER_1
 62
   250
100
AcDbSpline
210
0.0
220
0.0
230
1.0
 70
    11
 71
     3
 72
    40
 73
    36
 74
     0
 42
0.0000000001
 43
0.0000000001
 40
0.0
 40
0.0
 40
0.0
 40
0.0
 40
0.1111111111111111
 40
0.1111111111111111
 40
0.1111111111111111
 40
0.1111111111111111
 40
0.2222222222222222
 40
0.2222222222222222
 40
0.2222222222222222
 40
0.2222222222222222
 40
0.3333333333333333
 40
0.3333333333333333
 40
0.3333333333333333
 40
0.3333333333333333
 40
0.4444444444444444
 40
0.4444444444444444
 40
0.4444444444444444
 40
0.4444444444444444
 40
0.5555555555555556
 40
0.5555555555555556
 40
0.5555555555555556
 40
0.5555555555555556
 40
0.6666666666666667
 40
0.6666666666666667
 40
0.6666666666666667
 40
0.6666666666666667
 40
0.7777777777777779
 40
0.7777777777777779
 40
0.7777777777777779
 40
0.7777777777777779
 40
0.8888888888888891
 40
0.8888888888888891
 40
0.8888888888888891
 40
0.8888888888888891
 40
1.0
 40
1.0
 40
1.0
 40
1.0
 10
0.6719803149606299
 20
0.6021811023622048
 30
0.0
 10
0.6641771653543307
 20
0.6021811023622048
 30
0.0
 10
0.6577598425196851
 20
0.599236220472441
 30
0.0
 10
0.6527322834645669
 20
0.5933188976377953
 30
0.0
 10
0.6527322834645669
 20
0.5933188976377953
 30
0.0
 10
0.6477047244094488
 20
0.5874055118110236
 30
0.0
 10
0.6452047244094489
 20
0.5802913385826772
 30
0.0
 10
0.6452047244094489
 20
0.5720157480314961
 30
0.0
 10
0.6452047244094489
 20
0.5720157480314961
 30
0.0
 10
0.6452047244094489
 20
0.5661535433070867
 30
0.0
 10
0.6464251968503937
 20
0.560736220472441
 30
0.0
 10
0.6488700787401575
 20
0.5557637795275591
 30
0.0
 10
0.6488700787401575
 20
0.5557637795275591
 30
0.0
 10
0.6513149606299213
 20
0.5507913385826772
 30
0.0
 10
0.6544527559055119
 20
0.5471259842519686
 30
0.0
 10
0.6583149606299212
 20
0.5447086614173229
 30
0.0
 10
0.6583149606299212
 20
0.5447086614173229
 30
0.0
 10
0.6621456692913386
 20
0.5422913385826772
 30
0.0
 10
0.6665078740157481
 20
0.5410708661417323
 30
0.0
 10
0.6713149606299212
 20
0.5410708661417323
 30
0.0
 10
0.6713149606299212
 20
0.5410708661417323
 30
0.0
 10
0.6788149606299213
 20
0.5410708661417323
 30
0.0
 10
0.6850354330708661
 20
0.5439055118110237
 30
0.0
 10
0.690007874015748
 20
0.5495708661417323
 30
0.0
 10
0.690007874015748
 20
0.5495708661417323
 30
0.0
 10
0.6949527559055119
 20
0.5552362204724409
 30
0.0
 10
0.6974527559055118
 20
0.5628503937007874
 30
0.0
 10
0.6974527559055118
 20
0.5724055118110236
 30
0.0
 10
0.6974527559055118
 20
0.5724055118110236
 30
0.0
 10
0.6974527559055118
 20
0.5815157480314961
 30
0.0
 10
0.6950354330708661
 20
0.5887637795275591
 30
0.0
 10
0.6902047244094488
 20
0.5941259842519685
 30
0.0
 10
0.6902047244094488
 20
0.5941259842519685
 30
0.0
 10
0.6853700787401575
 20
0.5995157480314961
 30
0.0
 10
0.6792874015748032
 20
0.6021811023622048
 30
0.0
 10
0.6719803149606299
 20
0.6021811023622048
 30
0.0
  0
SPLINE
  5
60
330
1F
100
AcDbEntity
  8
LAYER_1
 62
   250
100
AcDbSpline
210
0.0
220
0.0
230
1.0
 70
    11
 71
     3
 72
    60
 73
    56
 74
     0
 42
0.0000000001
 43
0.0000000001
 40
0.0
 40
0.0
 40
0.0
 40
0.0
 40
0.0714285714285714
 40
0.0714285714285714
 40
0.0714285714285714
 40
0.0714285714285714
 40
0.1428571428571429
 40
0.1428571428571429
 40
0.1428571428571429
 40
0.1428571428571429
 40
0.2142857142857143
 40
0.2142857142857143
 40
0.2142857142857143
 40
0.2142857142857143
 40
0.2857142857142857
 40
0.2857142857142857
 40
0.2857142857142857
 40
0.2857142857142857
 40
0.3571428571428571
 40
0.3571428571428571
 40
0.3571428571428571
 40
0.3571428571428571
 40
0.4285714285714285
 40
0.4285714285714285
 40
0.4285714285714285
 40
0.4285714285714285
 40
0.4999999999999999
 40
0.4999999999999999
 40
0.4999999999999999
 40
0.4999999999999999
 40
0.5714285714285713
 40
0.5714285714285713
 40
0.5714285714285713
 40
0.5714285714285713
 40
0.6428571428571427
 40
0.6428571428571427
 40
0.6428571428571427
 40
0.6428571428571427
 40
0.7142857142857141
 40
0.7142857142857141
 40
0.7142857142857141
 40
0.7142857142857141
 40
0.7857142857142855
 40
0.7857142857142855
 40
0.7857142857142855
 40
0.7857142857142855
 40
0.8571428571428569
 40
0.8571428571428569
 40
0.8571428571428569
 40
0.8571428571428569
 40
0.9285714285714283
 40
0.9285714285714283
 40
0.9285714285714283
 40
0.9285714285714283
 40
1.0
 40
1.0
 40
1.0
 40
1.0
 10
0.7308149606299212
 20
0.606988188976378
 30
0.0
 10
0.7308149606299212
 20
0.606988188976378
 30
0.0
 10
0.7264251968503938
 20
0.6123779527559056
 30
0.0
 10
0.7264251968503938
 20
0.6123779527559056
 30
0.0
 10
0.7264251968503938
 20
0.6123779527559056
 30
0.0
 10
0.7375393700787402
 20
0.6214330708661418
 30
0.0
 10
0.7431220472440945
 20
0.628988188976378
 30
0.0
 10
0.7431220472440945
 20
0.6350708661417324
 30
0.0
 10
0.7431220472440945
 20
0.6350708661417324
 30
0.0
 10
0.7431220472440945
 20
0.635763779527559
 30
0.0
 10
0.7430669291338583
 20
0.6366535433070867
 30
0.0
 10
0.7429527559055118
 20
0.6376811023622048
 30
0.0
 10
0.7429527559055118
 20
0.6376811023622048
 30
0.0
 10
0.7420393700787402
 20
0.6372913385826772
 30
0.0
 10
0.7411220472440945
 20
0.636988188976378
 30
0.0
 10
0.740259842519685
 20
0.6367913385826772
 30
0.0
 10
0.740259842519685
 20
0.6367913385826772
 30
0.0
 10
0.7393976377952756
 20
0.6365708661417323
 30
0.0
 10
0.7385944881889764
 20
0.6364606299212599
 30
0.0
 10
0.7378149606299213
 20
0.6364606299212599
 30
0.0
 10
0.7378149606299213
 20
0.6364606299212599
 30
0.0
 10
0.7352047244094488
 20
0.6364606299212599
 30
0.0
 10
0.7331220472440945
 20
0.6372913385826772
 30
0.0
 10
0.7315669291338584
 20
0.638988188976378
 30
0.0
 10
0.7315669291338584
 20
0.638988188976378
 30
0.0
 10
0.72998031496063
 20
0.6406535433070867
 30
0.0
 10
0.7292047244094488
 20
0.6427913385826772
 30
0.0
 10
0.7292047244094488
 20
0.6454055118110237
 30
0.0
 10
0.7292047244094488
 20
0.6454055118110237
 30
0.0
 10
0.7292047244094488
 20
0.6479606299212599
 30
0.0
 10
0.7301496062992127
 20
0.6501811023622047
 30
0.0
 10
0.7320393700787402
 20
0.6520708661417323
 30
0.0
 10
0.7320393700787402
 20
0.6520708661417323
 30
0.0
 10
0.7339527559055118
 20
0.653988188976378
 30
0.0
 10
0.7362322834645669
 20
0.6549330708661417
 30
0.0
 10
0.7388700787401575
 20
0.6549330708661417
 30
0.0
 10
0.7388700787401575
 20
0.6549330708661417
 30
0.0
 10
0.7425669291338582
 20
0.6549330708661417
 30
0.0
 10
0.745732283464567
 20
0.6534606299212599
 30
0.0
 10
0.7483700787401575
 20
0.650488188976378
 30
0.0
 10
0.7483700787401575
 20
0.650488188976378
 30
0.0
 10
0.75098031496063
 20
0.6475433070866142
 30
0.0
 10
0.7523149606299213
 20
0.643736220472441
 30
0.0
 10
0.7523149606299213
 20
0.6390708661417323
 30
0.0
 10
0.7523149606299213
 20
0.6390708661417323
 30
0.0
 10
0.7523149606299213
 20
0.6360157480314961
 30
0.0
 10
0.7516771653543307
 20
0.6328188976377953
 30
0.0
 10
0.7504251968503938
 20
0.6294881889763779
 30
0.0
 10
0.7504251968503938
 20
0.6294881889763779
 30
0.0
 10
0.7491771653543308
 20
0.6261535433070866
 30
0.0
 10
0.7473700787401575
 20
0.6230708661417324
 30
0.0
 10
0.74498031496063
 20
0.6202086614173229
 30
0.0
 10
0.74498031496063
 20
0.6202086614173229
 30
0.0
 10
0.7425944881889764
 20
0.6173779527559056
 30
0.0
 10
0.7378700787401575
 20
0.6129606299212599
 30
0.0
 10
0.7308149606299212
 20
0.606988188976378
 30
0.0
  0
SPLINE
  5
61
330
1F
100
AcDbEntity
  8
LAYER_1
 62
   250
100
AcDbSpline
210
0.0
220
0.0
230
1.0
 70
    11
 71
     3
 72
    60
 73
    56
 74
     0
 42
0.0000000001
 43
0.0000000001
 40
0.0
 40
0.0
 40
0.0
 40
0.0
 40
0.0714285714285714
 40
0.0714285714285714
 40
0.0714285714285714
 40
0.0714285714285714
 40
0.1428571428571429
 40
0.1428571428571429
 40
0.1428571428571429
 40
0.1428571428571429
 40
0.2142857142857143
 40
0.2142857142857143
 40
0.2142857142857143
 40
0.2142857142857143
 40
0.2857142857142857
 40
0.2857142857142857
 40
0.2857142857142857
 40
0.2857142857142857
 40
0.3571428571428571
 40
0.3571428571428571
 40
0.3571428571428571
 40
0.3571428571428571
 40
0.4285714285714285
 40
0.4285714285714285
 40
0.4285714285714285
 40
0.4285714285714285
 40
0.4999999999999999
 40
0.4999999999999999
 40
0.4999999999999999
 40
0.4999999999999999
 40
0.5714285714285713
 40
0.5714285714285713
 40
0.5714285714285713
 40
0.5714285714285713
 40
0.6428571428571427
 40
0.6428571428571427
 40
0.6428571428571427
 40
0.6428571428571427
 40
0.7142857142857141
 40
0.7142857142857141
 40
0.7142857142857141
 40
0.7142857142857141
 40
0.7857142857142855
 40
0.7857142857142855
 40
0.7857142857142855
 40
0.7857142857142855
 40
0.8571428571428569
 40
0.8571428571428569
 40
0.8571428571428569
 40
0.8571428571428569
 40
0.9285714285714283
 40
0.9285714285714283
 40
0.9285714285714283
 40
0.9285714285714283
 40
1.0
 40
1.0
 40
1.0
 40
1.0
 10
0.7598700787401576
 20
0.606988188976378
 30
0.0
 10
0.7598700787401576
 20
0.606988188976378
 30
0.0
 10
0.75548031496063
 20
0.6123779527559056
 30
0.0
 10
0.75548031496063
 20
0.6123779527559056
 30
0.0
 10
0.75548031496063
 20
0.6123779527559056
 30
0.0
 10
0.7665944881889764
 20
0.6214330708661418
 30
0.0
 10
0.7721771653543308
 20
0.628988188976378
 30
0.0
 10
0.7721771653543308
 20
0.6350708661417324
 30
0.0
 10
0.7721771653543308
 20
0.6350708661417324
 30
0.0
 10
0.7721771653543308
 20
0.635763779527559
 30
0.0
 10
0.7721220472440945
 20
0.6366535433070867
 30
0.0
 10
0.7720078740157481
 20
0.6376811023622048
 30
0.0
 10
0.7720078740157481
 20
0.6376811023622048
 30
0.0
 10
0.7710944881889764
 20
0.6372913385826772
 30
0.0
 10
0.7701771653543308
 20
0.636988188976378
 30
0.0
 10
0.7693149606299213
 20
0.6367913385826772
 30
0.0
 10
0.7693149606299213
 20
0.6367913385826772
 30
0.0
 10
0.7684527559055119
 20
0.6365708661417323
 30
0.0
 10
0.7676220472440946
 20
0.6364606299212599
 30
0.0
 10
0.7667874015748032
 20
0.6364606299212599
 30
0.0
 10
0.7667874015748032
 20
0.6364606299212599
 30
0.0
 10
0.764232283464567
 20
0.6364606299212599
 30
0.0
 10
0.7621771653543308
 20
0.6372913385826772
 30
0.0
 10
0.7606220472440946
 20
0.638988188976378
 30
0.0
 10
0.7606220472440946
 20
0.638988188976378
 30
0.0
 10
0.7590393700787402
 20
0.6406535433070867
 30
0.0
 10
0.758259842519685
 20
0.6427913385826772
 30
0.0
 10
0.758259842519685
 20
0.6454055118110237
 30
0.0
 10
0.758259842519685
 20
0.6454055118110237
 30
0.0
 10
0.758259842519685
 20
0.6479606299212599
 30
0.0
 10
0.7592047244094489
 20
0.6501811023622047
 30
0.0
 10
0.7610944881889764
 20
0.6520708661417323
 30
0.0
 10
0.7610944881889764
 20
0.6520708661417323
 30
0.0
 10
0.7629803149606299
 20
0.653988188976378
 30
0.0
 10
0.7652874015748031
 20
0.6549330708661417
 30
0.0
 10
0.7679251968503937
 20
0.6549330708661417
 30
0.0
 10
0.7679251968503937
 20
0.6549330708661417
 30
0.0
 10
0.7716220472440946
 20
0.6549330708661417
 30
0.0
 10
0.7747874015748032
 20
0.6534606299212599
 30
0.0
 10
0.7774251968503937
 20
0.650488188976378
 30
0.0
 10
0.7774251968503937
 20
0.650488188976378
 30
0.0
 10
0.7800354330708662
 20
0.6475433070866142
 30
0.0
 10
0.7813700787401575
 20
0.643736220472441
 30
0.0
 10
0.7813700787401575
 20
0.6390708661417323
 30
0.0
 10
0.7813700787401575
 20
0.6390708661417323
 30
0.0
 10
0.7813700787401575
 20
0.6360157480314961
 30
0.0
 10
0.7807322834645669
 20
0.6328188976377953
 30
0.0
 10
0.77948031496063
 20
0.6294881889763779
 30
0.0
 10
0.77948031496063
 20
0.6294881889763779
 30
0.0
 10
0.778232283464567
 20
0.6261535433070866
 30
0.0
 10
0.7764251968503937
 20
0.6230708661417324
 30
0.0
 10
0.7740393700787402
 20
0.6202086614173229
 30
0.0
 10
0.7740393700787402
 20
0.6202086614173229
 30
0.0
 10
0.7716496062992126
 20
0.6173779527559056
 30
0.0
 10
0.7669251968503937
 20
0.6129606299212599
 30
0.0
 10
0.7598700787401576
 20
0.606988188976378
 30
0.0
  0
SPLINE
  5
62
330
1F
100
AcDbEntity
  8
LAYER_1
 62
   250
100
AcDbSpline
210
0.0
220
0.0
230
1.0
 70
    11
 71
     3
 72
   204
 73
   200
 74
     0
 42
0.0000000001
 43
0.0000000001
 40
0.0
 40
0.0
 40
0.0
 40
0.0
 40
0.02
 40
0.02
 40
0.02
 40
0.02
 40
0.04
 40
0.04
 40
0.04
 40
0.04
 40
0.06
 40
0.06
 40
0.06
 40
0.06
 40
0.08
 40
0.08
 40
0.08
 40
0.08
 40
0.1
 40
0.1
 40
0.1
 40
0.1
 40
0.12
 40
0.12
 40
0.12
 40
0.12
 40
0.14
 40
0.14
 40
0.14
 40
0.14
 40
0.16
 40
0.16
 40
0.16
 40
0.16
 40
0.18
 40
0.18
 40
0.18
 40
0.18
 40
0.2
 40
0.2
 40
0.2
 40
0.2
 40
0.22
 40
0.22
 40
0.22
 40
0.22
 40
0.24
 40
0.24
 40
0.24
 40
0.24
 40
0.26
 40
0.26
 40
0.26
 40
0.26
 40
0.28
 40
0.28
 40
0.28
 40
0.28
 40
0.3
 40
0.3
 40
0.3
 40
0.3
 40
0.32
 40
0.32
 40
0.32
 40
0.32
 40
0.34
 40
0.34
 40
0.34
 40
0.34
 40
0.36
 40
0.36
 40
0.36
 40
0.36
 40
0.3800000000000001
 40
0.3800000000000001
 40
0.3800000000000001
 40
0.3800000000000001
 40
0.4000000000000001
 40
0.4000000000000001
 40
0.4000000000000001
 40
0.4000000000000001
 40
0.4200000000000001
 40
0.4200000000000001
 40
0.4200000000000001
 40
0.4200000000000001
 40
0.4400000000000001
 40
0.4400000000000001
 40
0.4400000000000001
 40
0.4400000000000001
 40
0.4600000000000001
 40
0.4600000000000001
 40
0.4600000000000001
 40
0.4600000000000001
 40
0.4800000000000002
 40
0.4800000000000002
 40
0.4800000000000002
 40
0.4800000000000002
 40
0.5000000000000001
 40
0.5000000000000001
 40
0.5000000000000001
 40
0.5000000000000001
 40
0.5200000000000001
 40
0.5200000000000001
 40
0.5200000000000001
 40
0.5200000000000001
 40
0.5400000000000002
 40
0.5400000000000002
 40
0.5400000000000002
 40
0.5400000000000002
 40
0.5600000000000002
 40
0.5600000000000002
 40
0.5600000000000002
 40
0.5600000000000002
 40
0.5800000000000002
 40
0.5800000000000002
 40
0.5800000000000002
 40
0.5800000000000002
 40
0.6000000000000002
 40
0.6000000000000002
 40
0.6000000000000002
 40
0.6000000000000002
 40
0.6200000000000002
 40
0.6200000000000002
 40
0.6200000000000002
 40
0.6200000000000002
 40
0.6400000000000002
 40
0.6400000000000002
 40
0.6400000000000002
 40
0.6400000000000002
 40
0.6600000000000003
 40
0.6600000000000003
 40
0.6600000000000003
 40
0.6600000000000003
 40
0.6800000000000003
 40
0.6800000000000003
 40
0.6800000000000003
 40
0.6800000000000003
 40
0.7000000000000003
 40
0.7000000000000003
 40
0.7000000000000003
 40
0.7000000000000003
 40
0.7200000000000003
 40
0.7200000000000003
 40
0.7200000000000003
 40
0.7200000000000003
 40
0.7400000000000003
 40
0.7400000000000003
 40
0.7400000000000003
 40
0.7400000000000003
 40
0.7600000000000003
 40
0.7600000000000003
 40
0.7600000000000003
 40
0.7600000000000003
 40
0.7800000000000004
 40
0.7800000000000004
 40
0.7800000000000004
 40
0.7800000000000004
 40
0.8000000000000004
 40
0.8000000000000004
 40
0.8000000000000004
 40
0.8000000000000004
 40
0.8200000000000004
 40
0.8200000000000004
 40
0.8200000000000004
 40
0.8200000000000004
 40
0.8400000000000004
 40
0.8400000000000004
 40
0.8400000000000004
 40
0.8400000000000004
 40
0.8600000000000004
 40
0.8600000000000004
 40
0.8600000000000004
 40
0.8600000000000004
 40
0.8800000000000005
 40
0.8800000000000005
 40
0.8800000000000005
 40
0.8800000000000005
 40
0.9000000000000005
 40
0.9000000000000005
 40
0.9000000000000005
 40
0.9000000000000005
 40
0.9200000000000005
 40
0.9200000000000005
 40
0.9200000000000005
 40
0.9200000000000005
 40
0.9400000000000005
 40
0.9400000000000005
 40
0.9400000000000005
 40
0.9400000000000005
 40
0.9600000000000005
 40
0.9600000000000005
 40
0.9600000000000005
 40
0.9600000000000005
 40
0.9800000000000005
 40
0.9800000000000005
 40
0.9800000000000005
 40
0.9800000000000005
 40
1.0
 40
1.0
 40
1.0
 40
1.0
 10
0.8436771653543308
 20
0.6140708661417323
 30
0.0
 10
0.8436771653543308
 20
0.6140708661417323
 30
0.0
 10
0.8846220472440945
 20
0.6140708661417323
 30
0.0
 10
0.8846220472440945
 20
0.6140708661417323
 30
0.0
 10
0.8846220472440945
 20
0.6140708661417323
 30
0.0
 10
0.8846220472440945
 20
0.6140708661417323
 30
0.0
 10
0.8846220472440945
 20
0.607236220472441
 30
0.0
 10
0.8846220472440945
 20
0.607236220472441
 30
0.0
 10
0.8846220472440945
 20
0.607236220472441
 30
0.0
 10
0.8846220472440945
 20
0.607236220472441
 30
0.0
 10
0.8817874015748032
 20
0.607236220472441
 30
0.0
 10
0.8817874015748032
 20
0.607236220472441
 30
0.0
 10
0.8817874015748032
 20
0.607236220472441
 30
0.0
 10
0.8801496062992127
 20
0.607236220472441
 30
0.0
 10
0.8786496062992126
 20
0.6070433070866143
 30
0.0
 10
0.8772874015748032
 20
0.6066811023622047
 30
0.0
 10
0.8772874015748032
 20
0.6066811023622047
 30
0.0
 10
0.876484251968504
 20
0.6064606299212598
 30
0.0
 10
0.8758149606299213
 20
0.6060433070866143
 30
0.0
 10
0.8753149606299213
 20
0.6054055118110236
 30
0.0
 10
0.8753149606299213
 20
0.6054055118110236
 30
0.0
 10
0.8747874015748032
 20
0.6047913385826772
 30
0.0
 10
0.8745393700787402
 20
0.6042086614173229
 30
0.0
 10
0.8745393700787402
 20
0.6036535433070867
 30
0.0
 10
0.8745393700787402
 20
0.6036535433070867
 30
0.0
 10
0.8745393700787402
 20
0.6024055118110236
 30
0.0
 10
0.8755669291338583
 20
0.6005433070866142
 30
0.0
 10
0.8776220472440945
 20
0.5980433070866142
 30
0.0
 10
0.8776220472440945
 20
0.5980433070866142
 30
0.0
 10
0.8776220472440945
 20
0.5980433070866142
 30
0.0
 10
0.889259842519685
 20
0.5834055118110236
 30
0.0
 10
0.889259842519685
 20
0.5834055118110236
 30
0.0
 10
0.889259842519685
 20
0.5834055118110236
 30
0.0
 10
0.889259842519685
 20
0.5834055118110236
 30
0.0
 10
0.9028425196850394
 20
0.5980433070866142
 30
0.0
 10
0.9028425196850394
 20
0.5980433070866142
 30
0.0
 10
0.9028425196850394
 20
0.5980433070866142
 30
0.0
 10
0.9053425196850394
 20
0.6007637795275591
 30
0.0
 10
0.9065944881889764
 20
0.6027913385826772
 30
0.0
 10
0.9065944881889764
 20
0.6041535433070866
 30
0.0
 10
0.9065944881889764
 20
0.6041535433070866
 30
0.0
 10
0.9065944881889764
 20
0.6051259842519685
 30
0.0
 10
0.9061496062992126
 20
0.6058779527559055
 30
0.0
 10
0.9052874015748031
 20
0.6064330708661417
 30
0.0
 10
0.9052874015748031
 20
0.6064330708661417
 30
0.0
 10
0.9044251968503937
 20
0.6069606299212599
 30
0.0
 10
0.9025669291338583
 20
0.607236220472441
 30
0.0
 10
0.8996771653543307
 20
0.607236220472441
 30
0.0
 10
0.8996771653543307
 20
0.607236220472441
 30
0.0
 10
0.8996771653543307
 20
0.607236220472441
 30
0.0
 10
0.8965944881889764
 20
0.607236220472441
 30
0.0
 10
0.8965944881889764
 20
0.607236220472441
 30
0.0
 10
0.8965944881889764
 20
0.607236220472441
 30
0.0
 10
0.8965944881889764
 20
0.607236220472441
 30
0.0
 10
0.8965944881889764
 20
0.6140708661417323
 30
0.0
 10
0.8965944881889764
 20
0.6140708661417323
 30
0.0
 10
0.8965944881889764
 20
0.6140708661417323
 30
0.0
 10
0.8965944881889764
 20
0.6140708661417323
 30
0.0
 10
0.9313425196850395
 20
0.6140708661417323
 30
0.0
 10
0.9313425196850395
 20
0.6140708661417323
 30
0.0
 10
0.9313425196850395
 20
0.6140708661417323
 30
0.0
 10
0.9313425196850395
 20
0.6140708661417323
 30
0.0
 10
0.9313425196850395
 20
0.607236220472441
 30
0.0
 10
0.9313425196850395
 20
0.607236220472441
 30
0.0
 10
0.9313425196850395
 20
0.607236220472441
 30
0.0
 10
0.9279251968503938
 20
0.6070708661417323
 30
0.0
 10
0.9249803149606299
 20
0.6063779527559056
 30
0.0
 10
0.9225118110236221
 20
0.6051259842519685
 30
0.0
 10
0.9225118110236221
 20
0.6051259842519685
 30
0.0
 10
0.9200393700787402
 20
0.6038779527559055
 30
0.0
 10
0.9171220472440945
 20
0.6015157480314961
 30
0.0
 10
0.9137598425196851
 20
0.5980433070866142
 30
0.0
 10
0.9137598425196851
 20
0.5980433070866142
 30
0.0
 10
0.9137598425196851
 20
0.5980433070866142
 30
0.0
 10
0.8951220472440945
 20
0.5786811023622047
 30
0.0
 10
0.8951220472440945
 20
0.5786811023622047
 30
0.0
 10
0.8951220472440945
 20
0.5786811023622047
 30
0.0
 10
0.8951220472440945
 20
0.5786811023622047
 30
0.0
 10
0.9183149606299212
 20
0.5522362204724409
 30
0.0
 10
0.9183149606299212
 20
0.5522362204724409
 30
0.0
 10
0.9183149606299212
 20
0.5522362204724409
 30
0.0
 10
0.9183149606299212
 20
0.5522362204724409
 30
0.0
 10
0.9192047244094489
 20
0.5510984251968504
 30
0.0
 10
0.9192047244094489
 20
0.5510984251968504
 30
0.0
 10
0.9192047244094489
 20
0.5510984251968504
 30
0.0
 10
0.92148031496063
 20
0.5481535433070867
 30
0.0
 10
0.9240393700787402
 20
0.5457913385826771
 30
0.0
 10
0.9268700787401575
 20
0.5440157480314961
 30
0.0
 10
0.9268700787401575
 20
0.5440157480314961
 30
0.0
 10
0.9284251968503937
 20
0.542988188976378
 30
0.0
 10
0.9308700787401575
 20
0.5424330708661418
 30
0.0
 10
0.9341771653543307
 20
0.5423779527559055
 30
0.0
 10
0.9341771653543307
 20
0.5423779527559055
 30
0.0
 10
0.9341771653543307
 20
0.5423779527559055
 30
0.0
 10
0.9341771653543307
 20
0.5355433070866142
 30
0.0
 10
0.9341771653543307
 20
0.5355433070866142
 30
0.0
 10
0.9341771653543307
 20
0.5355433070866142
 30
0.0
 10
0.9341771653543307
 20
0.5355433070866142
 30
0.0
 10
0.894232283464567
 20
0.5355433070866142
 30
0.0
 10
0.894232283464567
 20
0.5355433070866142
 30
0.0
 10
0.894232283464567
 20
0.5355433070866142
 30
0.0
 10
0.894232283464567
 20
0.5355433070866142
 30
0.0
 10
0.894232283464567
 20
0.5423779527559055
 30
0.0
 10
0.894232283464567
 20
0.5423779527559055
 30
0.0
 10
0.894232283464567
 20
0.5423779527559055
 30
0.0
 10
0.894232283464567
 20
0.5423779527559055
 30
0.0
 10
0.8976496062992126
 20
0.5423779527559055
 30
0.0
 10
0.8976496062992126
 20
0.5423779527559055
 30
0.0
 10
0.8976496062992126
 20
0.5423779527559055
 30
0.0
 10
0.9002598425196851
 20
0.5423779527559055
 30
0.0
 10
0.9018976377952757
 20
0.5425433070866143
 30
0.0
 10
0.9026220472440946
 20
0.5428779527559056
 30
0.0
 10
0.9026220472440946
 20
0.5428779527559056
 30
0.0
 10
0.9037874015748032
 20
0.5434055118110236
 30
0.0
 10
0.9043976377952756
 20
0.5443228346456693
 30
0.0
 10
0.9043976377952756
 20
0.5456259842519685
 30
0.0
 10
0.9043976377952756
 20
0.5456259842519685
 30
0.0
 10
0.9043976377952756
 20
0.5468228346456693
 30
0.0
 10
0.9030944881889764
 20
0.5490157480314961
 30
0.0
 10
0.90048031496063
 20
0.5522362204724409
 30
0.0
 10
0.90048031496063
 20
0.5522362204724409
 30
0.0
 10
0.90048031496063
 20
0.5522362204724409
 30
0.0
 10
0.8856771653543307
 20
0.5703779527559055
 30
0.0
 10
0.8856771653543307
 20
0.5703779527559055
 30
0.0
 10
0.8856771653543307
 20
0.5703779527559055
 30
0.0
 10
0.8856771653543307
 20
0.5703779527559055
 30
0.0
 10
0.8691496062992127
 20
0.5522362204724409
 30
0.0
 10
0.8691496062992127
 20
0.5522362204724409
 30
0.0
 10
0.8691496062992127
 20
0.5522362204724409
 30
0.0
 10
0.8691496062992127
 20
0.5522362204724409
 30
0.0
 10
0.8675393700787402
 20
0.5502637795275591
 30
0.0
 10
0.8675393700787402
 20
0.5502637795275591
 30
0.0
 10
0.8675393700787402
 20
0.5502637795275591
 30
0.0
 10
0.8675393700787402
 20
0.5502637795275591
 30
0.0
 10
0.8666496062992126
 20
0.5492913385826772
 30
0.0
 10
0.8666496062992126
 20
0.5492913385826772
 30
0.0
 10
0.8666496062992126
 20
0.5492913385826772
 30
0.0
 10
0.8652874015748032
 20
0.5478228346456693
 30
0.0
 10
0.8645944881889764
 20
0.5465433070866141
 30
0.0
 10
0.8645944881889764
 20
0.5454055118110236
 30
0.0
 10
0.8645944881889764
 20
0.5454055118110236
 30
0.0
 10
0.8645944881889764
 20
0.5443503937007874
 30
0.0
 10
0.8650118110236221
 20
0.5435984251968504
 30
0.0
 10
0.8658700787401575
 20
0.5430984251968504
 30
0.0
 10
0.8658700787401575
 20
0.5430984251968504
 30
0.0
 10
0.8667047244094489
 20
0.5426259842519685
 30
0.0
 10
0.8685944881889764
 20
0.5423779527559055
 30
0.0
 10
0.8715118110236221
 20
0.5423779527559055
 30
0.0
 10
0.8715118110236221
 20
0.5423779527559055
 30
0.0
 10
0.8715118110236221
 20
0.5423779527559055
 30
0.0
 10
0.8747874015748032
 20
0.5423779527559055
 30
0.0
 10
0.8747874015748032
 20
0.5423779527559055
 30
0.0
 10
0.8747874015748032
 20
0.5423779527559055
 30
0.0
 10
0.8747874015748032
 20
0.5423779527559055
 30
0.0
 10
0.8747874015748032
 20
0.5355433070866142
 30
0.0
 10
0.8747874015748032
 20
0.5355433070866142
 30
0.0
 10
0.8747874015748032
 20
0.5355433070866142
 30
0.0
 10
0.8747874015748032
 20
0.5355433070866142
 30
0.0
 10
0.8405118110236221
 20
0.5355433070866142
 30
0.0
 10
0.8405118110236221
 20
0.5355433070866142
 30
0.0
 10
0.8405118110236221
 20
0.5355433070866142
 30
0.0
 10
0.8405118110236221
 20
0.5355433070866142
 30
0.0
 10
0.8405118110236221
 20
0.5423779527559055
 30
0.0
 10
0.8405118110236221
 20
0.5423779527559055
 30
0.0
 10
0.8405118110236221
 20
0.5423779527559055
 30
0.0
 10
0.8431771653543307
 20
0.5424330708661418
 30
0.0
 10
0.8452598425196851
 20
0.5427086614173229
 30
0.0
 10
0.8467874015748031
 20
0.5432362204724409
 30
0.0
 10
0.8467874015748031
 20
0.5432362204724409
 30
0.0
 10
0.8482874015748032
 20
0.543736220472441
 30
0.0
 10
0.8497598425196851
 20
0.5445433070866143
 30
0.0
 10
0.8511771653543307
 20
0.5456259842519685
 30
0.0
 10
0.8511771653543307
 20
0.5456259842519685
 30
0.0
 10
0.8536220472440945
 20
0.5475984251968504
 30
0.0
 10
0.8553700787401575
 20
0.5491259842519686
 30
0.0
 10
0.8564566929133859
 20
0.5502637795275591
 30
0.0
 10
0.8564566929133859
 20
0.5502637795275591
 30
0.0
 10
0.8564566929133859
 20
0.5502637795275591
 30
0.0
 10
0.8803149606299213
 20
0.5747637795275591
 30
0.0
 10
0.8803149606299213
 20
0.5747637795275591
 30
0.0
 10
0.8803149606299213
 20
0.5747637795275591
 30
0.0
 10
0.8803149606299213
 20
0.5747637795275591
 30
0.0
 10
0.8600393700787402
 20
0.5980433070866142
 30
0.0
 10
0.8600393700787402
 20
0.5980433070866142
 30
0.0
 10
0.8600393700787402
 20
0.5980433070866142
 30
0.0
 10
0.857484251968504
 20
0.6009330708661418
 30
0.0
 10
0.855484251968504
 20
0.6029330708661418
 30
0.0
 10
0.8539842519685039
 20
0.6040984251968504
 30
0.0
 10
0.8539842519685039
 20
0.6040984251968504
 30
0.0
 10
0.852484251968504
 20
0.6052637795275591
 30
0.0
 10
0.8510393700787402
 20
0.6060984251968504
 30
0.0
 10
0.8496220472440945
 20
0.6065433070866142
 30
0.0
 10
0.8496220472440945
 20
0.6065433070866142
 30
0.0
 10
0.8482047244094488
 20
0.6070157480314961
 30
0.0
 10
0.8462322834645669
 20
0.607236220472441
 30
0.0
 10
0.8436771653543308
 20
0.607236220472441
 30
0.0
 10
0.8436771653543308
 20
0.607236220472441
 30
0.0
 10
0.8436771653543308
 20
0.607236220472441
 30
0.0
 10
0.8436771653543308
 20
0.6140708661417323
 30
0.0
 10
0.8436771653543308
 20
0.6140708661417323
 30
0.0
  0
SPLINE
  5
63
330
1F
100
AcDbEntity
  8
LAYER_1
 62
   250
100
AcDbSpline
210
0.0
220
0.0
230
1.0
 70
    11
 71
     3
 72
   132
 73
   128
 74
     0
 42
0.0000000001
 43
0.0000000001
 40
0.0
 40
0.0
 40
0.0
 40
0.0
 40
0.03125
 40
0.03125
 40
0.03125
 40
0.03125
 40
0.0625
 40
0.0625
 40
0.0625
 40
0.0625
 40
0.09375
 40
0.09375
 40
0.09375
 40
0.09375
 40
0.125
 40
0.125
 40
0.125
 40
0.125
 40
0.15625
 40
0.15625
 40
0.15625
 40
0.15625
 40
0.1875
 40
0.1875
 40
0.1875
 40
0.1875
 40
0.21875
 40
0.21875
 40
0.21875
 40
0.21875
 40
0.25
 40
0.25
 40
0.25
 40
0.25
 40
0.28125
 40
0.28125
 40
0.28125
 40
0.28125
 40
0.3125
 40
0.3125
 40
0.3125
 40
0.3125
 40
0.34375
 40
0.34375
 40
0.34375
 40
0.34375
 40
0.375
 40
0.375
 40
0.375
 40
0.375
 40
0.40625
 40
0.40625
 40
0.40625
 40
0.40625
 40
0.4375
 40
0.4375
 40
0.4375
 40
0.4375
 40
0.46875
 40
0.46875
 40
0.46875
 40
0.46875
 40
0.5
 40
0.5
 40
0.5
 40
0.5
 40
0.53125
 40
0.53125
 40
0.53125
 40
0.53125
 40
0.5625
 40
0.5625
 40
0.5625
 40
0.5625
 40
0.59375
 40
0.59375
 40
0.59375
 40
0.59375
 40
0.625
 40
0.625
 40
0.625
 40
0.625
 40
0.65625
 40
0.65625
 40
0.65625
 40
0.65625
 40
0.6875
 40
0.6875
 40
0.6875
 40
0.6875
 40
0.71875
 40
0.71875
 40
0.71875
 40
0.71875
 40
0.75
 40
0.75
 40
0.75
 40
0.75
 40
0.78125
 40
0.78125
 40
0.78125
 40
0.78125
 40
0.8125
 40
0.8125
 40
0.8125
 40
0.8125
 40
0.84375
 40
0.84375
 40
0.84375
 40
0.84375
 40
0.875
 40
0.875
 40
0.875
 40
0.875
 40
0.90625
 40
0.90625
 40
0.90625
 40
0.90625
 40
0.9375
 40
0.9375
 40
0.9375
 40
0.9375
 40
0.96875
 40
0.96875
 40
0.96875
 40
0.96875
 40
1.0
 40
1.0
 40
1.0
 40
1.0
 10
1.009704724409449
 20
0.6490708661417323
 30
0.0
 10
1.009704724409449
 20
0.6490708661417323
 30
0.0
 10
1.060314960629921
 20
0.6490708661417323
 30
0.0
 10
1.060314960629921
 20
0.6490708661417323
 30
0.0
 10
1.060314960629921
 20
0.6490708661417323
 30
0.0
 10
1.063397637795276
 20
0.6490708661417323
 30
0.0
 10
1.065287401574803
 20
0.649236220472441
 30
0.0
 10
1.065925196850394
 20
0.6495708661417323
 30
0.0
 10
1.065925196850394
 20
0.6495708661417323
 30
0.0
 10
1.06684251968504
 20
0.6500984251968505
 30
0.0
 10
1.067397637795276
 20
0.6512637795275591
 30
0.0
 10
1.067562992125984
 20
0.6530433070866142
 30
0.0
 10
1.067562992125984
 20
0.6530433070866142
 30
0.0
 10
1.067562992125984
 20
0.6530433070866142
 30
0.0
 10
1.073507874015748
 20
0.6530433070866142
 30
0.0
 10
1.073507874015748
 20
0.6530433070866142
 30
0.0
 10
1.073507874015748
 20
0.6530433070866142
 30
0.0
 10
1.073507874015748
 20
0.6530433070866142
 30
0.0
 10
1.073507874015748
 20
0.6358740157480315
 30
0.0
 10
1.073507874015748
 20
0.6358740157480315
 30
0.0
 10
1.073507874015748
 20
0.6358740157480315
 30
0.0
 10
1.073507874015748
 20
0.6358740157480315
 30
0.0
 10
1.017259842519685
 20
0.6358740157480315
 30
0.0
 10
1.017259842519685
 20
0.6358740157480315
 30
0.0
 10
1.017259842519685
 20
0.6358740157480315
 30
0.0
 10
1.017259842519685
 20
0.6358740157480315
 30
0.0
 10
1.015870078740158
 20
0.607236220472441
 30
0.0
 10
1.015870078740158
 20
0.607236220472441
 30
0.0
 10
1.015870078740158
 20
0.607236220472441
 30
0.0
 10
1.018204724409449
 20
0.6079055118110236
 30
0.0
 10
1.021177165354331
 20
0.6084330708661417
 30
0.0
 10
1.024759842519685
 20
0.6088779527559055
 30
0.0
 10
1.024759842519685
 20
0.6088779527559055
 30
0.0
 10
1.029370078740158
 20
0.6094055118110237
 30
0.0
 10
1.03348031496063
 20
0.6096811023622047
 30
0.0
 10
1.037122047244095
 20
0.6096811023622047
 30
0.0
 10
1.037122047244095
 20
0.6096811023622047
 30
0.0
 10
1.046177165354331
 20
0.6096811023622047
 30
0.0
 10
1.054062992125984
 20
0.6080433070866143
 30
0.0
 10
1.060814960629921
 20
0.6047913385826772
 30
0.0
 10
1.060814960629921
 20
0.6047913385826772
 30
0.0
 10
1.067535433070866
 20
0.6015433070866142
 30
0.0
 10
1.072645669291339
 20
0.5970708661417323
 30
0.0
 10
1.076145669291339
 20
0.5914055118110236
 30
0.0
 10
1.076145669291339
 20
0.5914055118110236
 30
0.0
 10
1.079645669291339
 20
0.585736220472441
 30
0.0
 10
1.081397637795276
 20
0.5794055118110236
 30
0.0
 10
1.081397637795276
 20
0.5724055118110236
 30
0.0
 10
1.081397637795276
 20
0.5724055118110236
 30
0.0
 10
1.081397637795276
 20
0.5615708661417324
 30
0.0
 10
1.077314960629921
 20
0.5523779527559055
 30
0.0
 10
1.069177165354331
 20
0.5448503937007875
 30
0.0
 10
1.069177165354331
 20
0.5448503937007875
 30
0.0
 10
1.061035433070866
 20
0.5373503937007874
 30
0.0
 10
1.050677165354331
 20
0.5335984251968504
 30
0.0
 10
1.038090551181103
 20
0.5335984251968504
 30
0.0
 10
1.038090551181103
 20
0.5335984251968504
 30
0.0
 10
1.030814960629921
 20
0.5335984251968504
 30
0.0
 10
1.024259842519685
 20
0.5349055118110236
 30
0.0
 10
1.018370078740158
 20
0.537488188976378
 30
0.0
 10
1.018370078740158
 20
0.537488188976378
 30
0.0
 10
1.01248031496063
 20
0.5400984251968504
 30
0.0
 10
1.007870078740158
 20
0.5435433070866143
 30
0.0
 10
1.004562992125984
 20
0.5477913385826772
 30
0.0
 10
1.004562992125984
 20
0.5477913385826772
 30
0.0
 10
1.001259842519685
 20
0.5520433070866142
 30
0.0
 10
0.9995944881889765
 20
0.5557913385826772
 30
0.0
 10
0.9995944881889765
 20
0.5589881889763779
 30
0.0
 10
0.9995944881889765
 20
0.5589881889763779
 30
0.0
 10
0.9995944881889765
 20
0.5610984251968504
 30
0.0
 10
1.000314960629921
 20
0.5629330708661418
 30
0.0
 10
1.001732283464567
 20
0.564488188976378
 30
0.0
 10
1.001732283464567
 20
0.564488188976378
 30
0.0
 10
1.003122047244095
 20
0.5660157480314961
 30
0.0
 10
1.004952755905512
 20
0.5667913385826772
 30
0.0
 10
1.007177165354331
 20
0.5667913385826772
 30
0.0
 10
1.007177165354331
 20
0.5667913385826772
 30
0.0
 10
1.009452755905512
 20
0.5667913385826772
 30
0.0
 10
1.011452755905512
 20
0.5658503937007874
 30
0.0
 10
1.013204724409449
 20
0.5639330708661418
 30
0.0
 10
1.013204724409449
 20
0.5639330708661418
 30
0.0
 10
1.014177165354331
 20
0.5629606299212598
 30
0.0
 10
1.015342519685039
 20
0.5605708661417324
 30
0.0
 10
1.016704724409449
 20
0.5567913385826772
 30
0.0
 10
1.016704724409449
 20
0.5567913385826772
 30
0.0
 10
1.018535433070866
 20
0.5514606299212599
 30
0.0
 10
1.021287401574803
 20
0.5475708661417323
 30
0.0
 10
1.024925196850394
 20
0.5450708661417323
 30
0.0
 10
1.024925196850394
 20
0.5450708661417323
 30
0.0
 10
1.02848031496063
 20
0.5425157480314961
 30
0.0
 10
1.033007874015748
 20
0.5412362204724409
 30
0.0
 10
1.038425196850394
 20
0.5412362204724409
 30
0.0
 10
1.038425196850394
 20
0.5412362204724409
 30
0.0
 10
1.043842519685039
 20
0.5412362204724409
 30
0.0
 10
1.048677165354331
 20
0.5424330708661418
 30
0.0
 10
1.052897637795276
 20
0.5447913385826771
 30
0.0
 10
1.052897637795276
 20
0.5447913385826771
 30
0.0
 10
1.057149606299213
 20
0.5471259842519686
 30
0.0
 10
1.06048031496063
 20
0.5505433070866141
 30
0.0
 10
1.062925196850394
 20
0.5549606299212598
 30
0.0
 10
1.062925196850394
 20
0.5549606299212598
 30
0.0
 10
1.065370078740157
 20
0.5593779527559055
 30
0.0
 10
1.066590551181103
 20
0.5642913385826772
 30
0.0
 10
1.066590551181103
 20
0.5697086614173229
 30
0.0
 10
1.066590551181103
 20
0.5697086614173229
 30
0.0
 10
1.066590551181103
 20
0.5754330708661417
 30
0.0
 10
1.065259842519685
 20
0.580488188976378
 30
0.0
 10
1.06261811023622
 20
0.5849330708661418
 30
0.0
 10
1.06261811023622
 20
0.5849330708661418
 30
0.0
 10
1.060007874015748
 20
0.5893779527559055
 30
0.0
 10
1.056232283464567
 20
0.5928464566929134
 30
0.0
 10
1.051314960629921
 20
0.595263779527559
 30
0.0
 10
1.051314960629921
 20
0.595263779527559
 30
0.0
 10
1.046397637795276
 20
0.5977086614173228
 30
0.0
 10
1.040425196850394
 20
0.5989330708661418
 30
0.0
 10
1.033370078740158
 20
0.5989330708661418
 30
0.0
 10
1.033370078740158
 20
0.5989330708661418
 30
0.0
 10
1.029090551181102
 20
0.5989330708661418
 30
0.0
 10
1.02448031496063
 20
0.598488188976378
 30
0.0
 10
1.019590551181102
 20
0.5975433070866142
 30
0.0
 10
1.019590551181102
 20
0.5975433070866142
 30
0.0
 10
1.014677165354331
 20
0.5966259842519686
 30
0.0
 10
1.010452755905512
 20
0.5954606299212598
 30
0.0
 10
1.006925196850394
 20
0.5940433070866142
 30
0.0
 10
1.006925196850394
 20
0.5940433070866142
 30
0.0
 10
1.006925196850394
 20
0.5940433070866142
 30
0.0
 10
1.009704724409449
 20
0.6490708661417323
 30
0.0
 10
1.009704724409449
 20
0.6490708661417323
 30
0.0
  0
SPLINE
  5
64
330
1F
100
AcDbEntity
  8
LAYER_1
 62
   250
100
AcDbSpline
210
0.0
220
0.0
230
1.0
 70
    11
 71
     3
 72
    20
 73
    16
 74
     0
 42
0.0000000001
 43
0.0000000001
 40
0.0
 40
0.0
 40
0.0
 40
0.0
 40
0.25
 40
0.25
 40
0.25
 40
0.25
 40
0.5
 40
0.5
 40
0.5
 40
0.5
 40
0.75
 40
0.75
 40
0.75
 40
0.75
 40
1.0
 40
1.0
 40
1.0
 40
1.0
 10
1.172149606299213
 20
0.6549330708661417
 30
0.0
 10
1.172149606299213
 20
0.6549330708661417
 30
0.0
 10
1.116566929133858
 20
0.499236220472441
 30
0.0
 10
1.116566929133858
 20
0.499236220472441
 30
0.0
 10
1.116566929133858
 20
0.499236220472441
 30
0.0
 10
1.116566929133858
 20
0.499236220472441
 30
0.0
 10
1.104511811023622
 20
0.499236220472441
 30
0.0
 10
1.104511811023622
 20
0.499236220472441
 30
0.0
 10
1.104511811023622
 20
0.499236220472441
 30
0.0
 10
1.104511811023622
 20
0.499236220472441
 30
0.0
 10
1.159759842519685
 20
0.6549330708661417
 30
0.0
 10
1.159759842519685
 20
0.6549330708661417
 30
0.0
 10
1.159759842519685
 20
0.6549330708661417
 30
0.0
 10
1.159759842519685
 20
0.6549330708661417
 30
0.0
 10
1.172149606299213
 20
0.6549330708661417
 30
0.0
 10
1.172149606299213
 20
0.6549330708661417
 30
0.0
  0
SPLINE
  5
65
330
1F
100
AcDbEntity
  8
LAYER_1
 62
   250
100
AcDbSpline
210
0.0
220
0.0
230
1.0
 70
    11
 71
     3
 72
    76
 73
    72
 74
     0
 42
0.0000000001
 43
0.0000000001
 40
0.0
 40
0.0
 40
0.0
 40
0.0
 40
0.0555555555555556
 40
0.0555555555555556
 40
0.0555555555555556
 40
0.0555555555555556
 40
0.1111111111111111
 40
0.1111111111111111
 40
0.1111111111111111
 40
0.1111111111111111
 40
0.1666666666666667
 40
0.1666666666666667
 40
0.1666666666666667
 40
0.1666666666666667
 40
0.2222222222222222
 40
0.2222222222222222
 40
0.2222222222222222
 40
0.2222222222222222
 40
0.2777777777777778
 40
0.2777777777777778
 40
0.2777777777777778
 40
0.2777777777777778
 40
0.3333333333333334
 40
0.3333333333333334
 40
0.3333333333333334
 40
0.3333333333333334
 40
0.388888888888889
 40
0.388888888888889
 40
0.388888888888889
 40
0.388888888888889
 40
0.4444444444444445
 40
0.4444444444444445
 40
0.4444444444444445
 40
0.4444444444444445
 40
0.5000000000000001
 40
0.5000000000000001
 40
0.5000000000000001
 40
0.5000000000000001
 40
0.5555555555555557
 40
0.5555555555555557
 40
0.5555555555555557
 40
0.5555555555555557
 40
0.6111111111111113
 40
0.6111111111111113
 40
0.6111111111111113
 40
0.6111111111111113
 40
0.6666666666666669
 40
0.6666666666666669
 40
0.6666666666666669
 40
0.6666666666666669
 40
0.7222222222222224
 40
0.7222222222222224
 40
0.7222222222222224
 40
0.7222222222222224
 40
0.777777777777778
 40
0.777777777777778
 40
0.777777777777778
 40
0.777777777777778
 40
0.8333333333333336
 40
0.8333333333333336
 40
0.8333333333333336
 40
0.8333333333333336
 40
0.8888888888888892
 40
0.8888888888888892
 40
0.8888888888888892
 40
0.8888888888888892
 40
0.9444444444444448
 40
0.9444444444444448
 40
0.9444444444444448
 40
0.9444444444444448
 40
1.0
 40
1.0
 40
1.0
 40
1.0
 10
1.255149606299213
 20
0.5985433070866142
 30
0.0
 10
1.261566929133858
 20
0.5960984251968504
 30
0.0
 10
1.266452755905512
 20
0.5937913385826772
 30
0.0
 10
1.269814960629921
 20
0.5916259842519686
 30
0.0
 10
1.269814960629921
 20
0.5916259842519686
 30
0.0
 10
1.274732283464567
 20
0.5884606299212599
 30
0.0
 10
1.278452755905512
 20
0.5847637795275591
 30
0.0
 10
1.280952755905512
 20
0.5805157480314961
 30
0.0
 10
1.280952755905512
 20
0.5805157480314961
 30
0.0
 10
1.283452755905512
 20
0.5762362204724409
 30
0.0
 10
1.284704724409449
 20
0.5716259842519685
 30
0.0
 10
1.284704724409449
 20
0.5666259842519685
 30
0.0
 10
1.284704724409449
 20
0.5666259842519685
 30
0.0
 10
1.284704724409449
 20
0.5576811023622047
 30
0.0
 10
1.28084251968504
 20
0.5499330708661417
 30
0.0
 10
1.273149606299213
 20
0.5434055118110236
 30
0.0
 10
1.273149606299213
 20
0.5434055118110236
 30
0.0
 10
1.265425196850394
 20
0.5368503937007875
 30
0.0
 10
1.25503937007874
 20
0.5335984251968504
 30
0.0
 10
1.24198031496063
 20
0.5335984251968504
 30
0.0
 10
1.24198031496063
 20
0.5335984251968504
 30
0.0
 10
1.228149606299213
 20
0.5335984251968504
 30
0.0
 10
1.217287401574803
 20
0.5372913385826772
 30
0.0
 10
1.209425196850394
 20
0.5446535433070866
 30
0.0
 10
1.209425196850394
 20
0.5446535433070866
 30
0.0
 10
1.203177165354331
 20
0.5505708661417323
 30
0.0
 10
1.200066929133858
 20
0.5572637795275591
 30
0.0
 10
1.200066929133858
 20
0.5647637795275591
 30
0.0
 10
1.200066929133858
 20
0.5647637795275591
 30
0.0
 10
1.200066929133858
 20
0.5707913385826772
 30
0.0
 10
1.202177165354331
 20
0.5761811023622048
 30
0.0
 10
1.206397637795276
 20
0.5809606299212599
 30
0.0
 10
1.206397637795276
 20
0.5809606299212599
 30
0.0
 10
1.211511811023622
 20
0.5866535433070866
 30
0.0
 10
1.218787401574803
 20
0.5910984251968504
 30
0.0
 10
1.228232283464567
 20
0.5942913385826772
 30
0.0
 10
1.228232283464567
 20
0.5942913385826772
 30
0.0
 10
1.220842519685039
 20
0.5977637795275591
 30
0.0
 10
1.21553937007874
 20
0.6012913385826771
 30
0.0
 10
1.212259842519685
 20
0.6048779527559055
 30
0.0
 10
1.212259842519685
 20
0.6048779527559055
 30
0.0
 10
1.208094488188976
 20
0.6095984251968504
 30
0.0
 10
1.206011811023622
 20
0.6152637795275591
 30
0.0
 10
1.206011811023622
 20
0.6218740157480315
 30
0.0
 10
1.206011811023622
 20
0.6218740157480315
 30
0.0
 10
1.206011811023622
 20
0.6300708661417324
 30
0.0
 10
1.209094488188977
 20
0.6367086614173229
 30
0.0
 10
1.215287401574803
 20
0.6417362204724409
 30
0.0
 10
1.215287401574803
 20
0.6417362204724409
 30
0.0
 10
1.222870078740158
 20
0.6479330708661417
 30
0.0
 10
1.232370078740158
 20
0.6510157480314961
 30
0.0
 10
1.243759842519685
 20
0.6510157480314961
 30
0.0
 10
1.243759842519685
 20
0.6510157480314961
 30
0.0
 10
1.254177165354331
 20
0.6510157480314961
 30
0.0
 10
1.262594488188976
 20
0.6483464566929135
 30
0.0
 10
1.26903937007874
 20
0.6430157480314961
 30
0.0
 10
1.26903937007874
 20
0.6430157480314961
 30
0.0
 10
1.275452755905512
 20
0.6376535433070867
 30
0.0
 10
1.278677165354331
 20
0.6315433070866142
 30
0.0
 10
1.278677165354331
 20
0.6246535433070867
 30
0.0
 10
1.278677165354331
 20
0.6246535433070867
 30
0.0
 10
1.278677165354331
 20
0.621236220472441
 30
0.0
 10
1.277870078740158
 20
0.6179606299212599
 30
0.0
 10
1.276287401574803
 20
0.6148464566929134
 30
0.0
 10
1.276287401574803
 20
0.6148464566929134
 30
0.0
 10
1.274677165354331
 20
0.6117362204724409
 30
0.0
 10
1.272232283464567
 20
0.6088188976377953
 30
0.0
 10
1.268897637795276
 20
0.6061535433070866
 30
0.0
 10
1.268897637795276
 20
0.6061535433070866
 30
0.0
 10
1.265594488188977
 20
0.6034606299212598
 30
0.0
 10
1.261007874015748
 20
0.6009330708661418
 30
0.0
 10
1.255149606299213
 20
0.5985433070866142
 30
0.0
  0
SPLINE
  5
66
330
1F
100
AcDbEntity
  8
LAYER_1
 62
   250
100
AcDbSpline
210
0.0
220
0.0
230
1.0
 70
    11
 71
     3
 72
    48
 73
    44
 74
     0
 42
0.0000000001
 43
0.0000000001
 40
0.0
 40
0.0
 40
0.0
 40
0.0
 40
0.0909090909090909
 40
0.0909090909090909
 40
0.0909090909090909
 40
0.0909090909090909
 40
0.1818181818181818
 40
0.1818181818181818
 40
0.1818181818181818
 40
0.1818181818181818
 40
0.2727272727272727
 40
0.2727272727272727
 40
0.2727272727272727
 40
0.2727272727272727
 40
0.3636363636363637
 40
0.3636363636363637
 40
0.3636363636363637
 40
0.3636363636363637
 40
0.4545454545454546
 40
0.4545454545454546
 40
0.4545454545454546
 40
0.4545454545454546
 40
0.5454545454545455
 40
0.5454545454545455
 40
0.5454545454545455
 40
0.5454545454545455
 40
0.6363636363636365
 40
0.6363636363636365
 40
0.6363636363636365
 40
0.6363636363636365
 40
0.7272727272727274
 40
0.7272727272727274
 40
0.7272727272727274
 40
0.7272727272727274
 40
0.8181818181818183
 40
0.8181818181818183
 40
0.8181818181818183
 40
0.8181818181818183
 40
0.9090909090909093
 40
0.9090909090909093
 40
0.9090909090909093
 40
0.9090909090909093
 40
1.0
 40
1.0
 40
1.0
 40
1.0
 10
1.247759842519685
 20
0.6015433070866142
 30
0.0
 10
1.253925196850394
 20
0.6062086614173229
 30
0.0
 10
1.257952755905512
 20
0.6094606299212598
 30
0.0
 10
1.259787401574803
 20
0.6113188976377953
 30
0.0
 10
1.259787401574803
 20
0.6113188976377953
 30
0.0
 10
1.261649606299213
 20
0.6131535433070866
 30
0.0
 10
1.263066929133858
 20
0.6152637795275591
 30
0.0
 10
1.264066929133858
 20
0.6176259842519686
 30
0.0
 10
1.264066929133858
 20
0.6176259842519686
 30
0.0
 10
1.265066929133858
 20
0.619988188976378
 30
0.0
 10
1.265566929133858
 20
0.6222637795275591
 30
0.0
 10
1.265566929133858
 20
0.6244881889763779
 30
0.0
 10
1.265566929133858
 20
0.6244881889763779
 30
0.0
 10
1.265566929133858
 20
0.6276811023622048
 30
0.0
 10
1.264622047244095
 20
0.6307362204724409
 30
0.0
 10
1.262732283464567
 20
0.6336535433070867
 30
0.0
 10
1.262732283464567
 20
0.6336535433070867
 30
0.0
 10
1.260814960629921
 20
0.6365433070866142
 30
0.0
 10
1.25803937007874
 20
0.6389055118110236
 30
0.0
 10
1.254370078740158
 20
0.6406811023622048
 30
0.0
 10
1.254370078740158
 20
0.6406811023622048
 30
0.0
 10
1.250732283464567
 20
0.6424881889763779
 30
0.0
 10
1.246622047244095
 20
0.6433740157480316
 30
0.0
 10
1.242066929133858
 20
0.6433740157480316
 30
0.0
 10
1.242066929133858
 20
0.6433740157480316
 30
0.0
 10
1.235314960629921
 20
0.6433740157480316
 30
0.0
 10
1.229732283464567
 20
0.6415157480314961
 30
0.0
 10
1.225287401574803
 20
0.6377913385826772
 30
0.0
 10
1.225287401574803
 20
0.6377913385826772
 30
0.0
 10
1.220842519685039
 20
0.6340708661417324
 30
0.0
 10
1.218622047244095
 20
0.6297913385826772
 30
0.0
 10
1.218622047244095
 20
0.6249055118110236
 30
0.0
 10
1.218622047244095
 20
0.6249055118110236
 30
0.0
 10
1.218622047244095
 20
0.620988188976378
 30
0.0
 10
1.220011811023622
 20
0.617488188976378
 30
0.0
 10
1.222759842519685
 20
0.6144055118110237
 30
0.0
 10
1.222759842519685
 20
0.6144055118110237
 30
0.0
 10
1.22553937007874
 20
0.6113188976377953
 30
0.0
 10
1.230677165354331
 20
0.6082637795275591
 30
0.0
 10
1.238232283464567
 20
0.6052913385826771
 30
0.0
 10
1.238232283464567
 20
0.6052913385826771
 30
0.0
 10
1.238232283464567
 20
0.6052913385826771
 30
0.0
 10
1.247759842519685
 20
0.6015433070866142
 30
0.0
 10
1.247759842519685
 20
0.6015433070866142
 30
0.0
  0
SPLINE
  5
67
330
1F
100
AcDbEntity
  8
LAYER_1
 62
   250
100
AcDbSpline
210
0.0
220
0.0
230
1.0
 70
    11
 71
     3
 72
    40
 73
    36
 74
     0
 42
0.0000000001
 43
0.0000000001
 40
0.0
 40
0.0
 40
0.0
 40
0.0
 40
0.1111111111111111
 40
0.1111111111111111
 40
0.1111111111111111
 40
0.1111111111111111
 40
0.2222222222222222
 40
0.2222222222222222
 40
0.2222222222222222
 40
0.2222222222222222
 40
0.3333333333333333
 40
0.3333333333333333
 40
0.3333333333333333
 40
0.3333333333333333
 40
0.4444444444444444
 40
0.4444444444444444
 40
0.4444444444444444
 40
0.4444444444444444
 40
0.5555555555555556
 40
0.5555555555555556
 40
0.5555555555555556
 40
0.5555555555555556
 40
0.6666666666666667
 40
0.6666666666666667
 40
0.6666666666666667
 40
0.6666666666666667
 40
0.7777777777777779
 40
0.7777777777777779
 40
0.7777777777777779
 40
0.7777777777777779
 40
0.8888888888888891
 40
0.8888888888888891
 40
0.8888888888888891
 40
0.8888888888888891
 40
1.0
 40
1.0
 40
1.0
 40
1.0
 10
1.236287401574803
 20
0.5911259842519685
 30
0.0
 10
1.228622047244095
 20
0.5877637795275591
 30
0.0
 10
1.222566929133858
 20
0.5834055118110236
 30
0.0
 10
1.218122047244095
 20
0.5780157480314961
 30
0.0
 10
1.218122047244095
 20
0.5780157480314961
 30
0.0
 10
1.214649606299213
 20
0.5737913385826772
 30
0.0
 10
1.212925196850394
 20
0.5694055118110236
 30
0.0
 10
1.212925196850394
 20
0.5648503937007874
 30
0.0
 10
1.212925196850394
 20
0.5648503937007874
 30
0.0
 10
1.212925196850394
 20
0.5586535433070866
 30
0.0
 10
1.215649606299213
 20
0.5531535433070867
 30
0.0
 10
1.221149606299213
 20
0.5483503937007874
 30
0.0
 10
1.221149606299213
 20
0.5483503937007874
 30
0.0
 10
1.226622047244095
 20
0.5435708661417323
 30
0.0
 10
1.233704724409449
 20
0.5411535433070867
 30
0.0
 10
1.242370078740158
 20
0.5411535433070867
 30
0.0
 10
1.242370078740158
 20
0.5411535433070867
 30
0.0
 10
1.251232283464567
 20
0.5411535433070867
 30
0.0
 10
1.258594488188976
 20
0.5439055118110237
 30
0.0
 10
1.264507874015748
 20
0.5493779527559055
 30
0.0
 10
1.264507874015748
 20
0.5493779527559055
 30
0.0
 10
1.269342519685039
 20
0.5538228346456693
 30
0.0
 10
1.271759842519685
 20
0.5585984251968504
 30
0.0
 10
1.271759842519685
 20
0.5637086614173229
 30
0.0
 10
1.271759842519685
 20
0.5637086614173229
 30
0.0
 10
1.271759842519685
 20
0.5677086614173229
 30
0.0
 10
1.270177165354331
 20
0.5715433070866142
 30
0.0
 10
1.267007874015748
 20
0.5752086614173229
 30
0.0
 10
1.267007874015748
 20
0.5752086614173229
 30
0.0
 10
1.263814960629921
 20
0.5788779527559055
 30
0.0
 10
1.257925196850394
 20
0.5824330708661417
 30
0.0
 10
1.249287401574803
 20
0.5859055118110237
 30
0.0
 10
1.249287401574803
 20
0.5859055118110237
 30
0.0
 10
1.249287401574803
 20
0.5859055118110237
 30
0.0
 10
1.236287401574803
 20
0.5911259842519685
 30
0.0
 10
1.236287401574803
 20
0.5911259842519685
 30
0.0
  0
SPLINE
  5
68
330
1F
100
AcDbEntity
  8
LAYER_1
 62
   250
100
AcDbSpline
210
0.0
220
0.0
230
1.0
 70
    11
 71
     3
 72
    60
 73
    56
 74
     0
 42
0.0000000001
 43
0.0000000001
 40
0.0
 40
0.0
 40
0.0
 40
0.0
 40
0.0714285714285714
 40
0.0714285714285714
 40
0.0714285714285714
 40
0.0714285714285714
 40
0.1428571428571429
 40
0.1428571428571429
 40
0.1428571428571429
 40
0.1428571428571429
 40
0.2142857142857143
 40
0.2142857142857143
 40
0.2142857142857143
 40
0.2142857142857143
 40
0.2857142857142857
 40
0.2857142857142857
 40
0.2857142857142857
 40
0.2857142857142857
 40
0.3571428571428571
 40
0.3571428571428571
 40
0.3571428571428571
 40
0.3571428571428571
 40
0.4285714285714285
 40
0.4285714285714285
 40
0.4285714285714285
 40
0.4285714285714285
 40
0.4999999999999999
 40
0.4999999999999999
 40
0.4999999999999999
 40
0.4999999999999999
 40
0.5714285714285713
 40
0.5714285714285713
 40
0.5714285714285713
 40
0.5714285714285713
 40
0.6428571428571427
 40
0.6428571428571427
 40
0.6428571428571427
 40
0.6428571428571427
 40
0.7142857142857141
 40
0.7142857142857141
 40
0.7142857142857141
 40
0.7142857142857141
 40
0.7857142857142855
 40
0.7857142857142855
 40
0.7857142857142855
 40
0.7857142857142855
 40
0.8571428571428569
 40
0.8571428571428569
 40
0.8571428571428569
 40
0.8571428571428569
 40
0.9285714285714283
 40
0.9285714285714283
 40
0.9285714285714283
 40
0.9285714285714283
 40
1.0
 40
1.0
 40
1.0
 40
1.0
 10
1.304149606299213
 20
0.606988188976378
 30
0.0
 10
1.304149606299213
 20
0.606988188976378
 30
0.0
 10
1.299759842519685
 20
0.6123779527559056
 30
0.0
 10
1.299759842519685
 20
0.6123779527559056
 30
0.0
 10
1.299759842519685
 20
0.6123779527559056
 30
0.0
 10
1.310874015748032
 20
0.6214330708661418
 30
0.0
 10
1.316456692913386
 20
0.628988188976378
 30
0.0
 10
1.316456692913386
 20
0.6350708661417324
 30
0.0
 10
1.316456692913386
 20
0.6350708661417324
 30
0.0
 10
1.316456692913386
 20
0.635763779527559
 30
0.0
 10
1.31640157480315
 20
0.6366535433070867
 30
0.0
 10
1.316287401574803
 20
0.6376811023622048
 30
0.0
 10
1.316287401574803
 20
0.6376811023622048
 30
0.0
 10
1.315374015748032
 20
0.6372913385826772
 30
0.0
 10
1.314456692913386
 20
0.636988188976378
 30
0.0
 10
1.313594488188977
 20
0.6367913385826772
 30
0.0
 10
1.313594488188977
 20
0.6367913385826772
 30
0.0
 10
1.312732283464567
 20
0.6365708661417323
 30
0.0
 10
1.311929133858268
 20
0.6364606299212599
 30
0.0
 10
1.311149606299213
 20
0.6364606299212599
 30
0.0
 10
1.311149606299213
 20
0.6364606299212599
 30
0.0
 10
1.30853937007874
 20
0.6364606299212599
 30
0.0
 10
1.306456692913386
 20
0.6372913385826772
 30
0.0
 10
1.30490157480315
 20
0.638988188976378
 30
0.0
 10
1.30490157480315
 20
0.638988188976378
 30
0.0
 10
1.303314960629921
 20
0.6406535433070867
 30
0.0
 10
1.30253937007874
 20
0.6427913385826772
 30
0.0
 10
1.30253937007874
 20
0.6454055118110237
 30
0.0
 10
1.30253937007874
 20
0.6454055118110237
 30
0.0
 10
1.30253937007874
 20
0.6479606299212599
 30
0.0
 10
1.303484251968504
 20
0.6501811023622047
 30
0.0
 10
1.305374015748032
 20
0.6520708661417323
 30
0.0
 10
1.305374015748032
 20
0.6520708661417323
 30
0.0
 10
1.307287401574803
 20
0.653988188976378
 30
0.0
 10
1.309566929133858
 20
0.6549330708661417
 30
0.0
 10
1.312204724409449
 20
0.6549330708661417
 30
0.0
 10
1.312204724409449
 20
0.6549330708661417
 30
0.0
 10
1.31590157480315
 20
0.6549330708661417
 30
0.0
 10
1.319066929133858
 20
0.6534606299212599
 30
0.0
 10
1.321704724409449
 20
0.650488188976378
 30
0.0
 10
1.321704724409449
 20
0.650488188976378
 30
0.0
 10
1.324314960629921
 20
0.6475433070866142
 30
0.0
 10
1.325649606299213
 20
0.643736220472441
 30
0.0
 10
1.325649606299213
 20
0.6390708661417323
 30
0.0
 10
1.325649606299213
 20
0.6390708661417323
 30
0.0
 10
1.325649606299213
 20
0.6360157480314961
 30
0.0
 10
1.325011811023622
 20
0.6328188976377953
 30
0.0
 10
1.323759842519685
 20
0.6294881889763779
 30
0.0
 10
1.323759842519685
 20
0.6294881889763779
 30
0.0
 10
1.322511811023622
 20
0.6261535433070866
 30
0.0
 10
1.320704724409449
 20
0.6230708661417324
 30
0.0
 10
1.318314960629921
 20
0.6202086614173229
 30
0.0
 10
1.318314960629921
 20
0.6202086614173229
 30
0.0
 10
1.315929133858268
 20
0.6173779527559056
 30
0.0
 10
1.311204724409449
 20
0.6129606299212599
 30
0.0
 10
1.304149606299213
 20
0.606988188976378
 30
0.0
  0
SPLINE
  5
69
330
1F
100
AcDbEntity
  8
LAYER_1
 62
   250
100
AcDbSpline
210
0.0
220
0.0
230
1.0
 70
    11
 71
     3
 72
    60
 73
    56
 74
     0
 42
0.0000000001
 43
0.0000000001
 40
0.0
 40
0.0
 40
0.0
 40
0.0
 40
0.0714285714285714
 40
0.0714285714285714
 40
0.0714285714285714
 40
0.0714285714285714
 40
0.1428571428571429
 40
0.1428571428571429
 40
0.1428571428571429
 40
0.1428571428571429
 40
0.2142857142857143
 40
0.2142857142857143
 40
0.2142857142857143
 40
0.2142857142857143
 40
0.2857142857142857
 40
0.2857142857142857
 40
0.2857142857142857
 40
0.2857142857142857
 40
0.3571428571428571
 40
0.3571428571428571
 40
0.3571428571428571
 40
0.3571428571428571
 40
0.4285714285714285
 40
0.4285714285714285
 40
0.4285714285714285
 40
0.4285714285714285
 40
0.4999999999999999
 40
0.4999999999999999
 40
0.4999999999999999
 40
0.4999999999999999
 40
0.5714285714285713
 40
0.5714285714285713
 40
0.5714285714285713
 40
0.5714285714285713
 40
0.6428571428571427
 40
0.6428571428571427
 40
0.6428571428571427
 40
0.6428571428571427
 40
0.7142857142857141
 40
0.7142857142857141
 40
0.7142857142857141
 40
0.7142857142857141
 40
0.7857142857142855
 40
0.7857142857142855
 40
0.7857142857142855
 40
0.7857142857142855
 40
0.8571428571428569
 40
0.8571428571428569
 40
0.8571428571428569
 40
0.8571428571428569
 40
0.9285714285714283
 40
0.9285714285714283
 40
0.9285714285714283
 40
0.9285714285714283
 40
1.0
 40
1.0
 40
1.0
 40
1.0
 10
1.333204724409449
 20
0.606988188976378
 30
0.0
 10
1.333204724409449
 20
0.606988188976378
 30
0.0
 10
1.328814960629921
 20
0.6123779527559056
 30
0.0
 10
1.328814960629921
 20
0.6123779527559056
 30
0.0
 10
1.328814960629921
 20
0.6123779527559056
 30
0.0
 10
1.339929133858268
 20
0.6214330708661418
 30
0.0
 10
1.345511811023622
 20
0.628988188976378
 30
0.0
 10
1.345511811023622
 20
0.6350708661417324
 30
0.0
 10
1.345511811023622
 20
0.6350708661417324
 30
0.0
 10
1.345511811023622
 20
0.635763779527559
 30
0.0
 10
1.345456692913386
 20
0.6366535433070867
 30
0.0
 10
1.34534251968504
 20
0.6376811023622048
 30
0.0
 10
1.34534251968504
 20
0.6376811023622048
 30
0.0
 10
1.344429133858268
 20
0.6372913385826772
 30
0.0
 10
1.343511811023622
 20
0.636988188976378
 30
0.0
 10
1.342649606299213
 20
0.6367913385826772
 30
0.0
 10
1.342649606299213
 20
0.6367913385826772
 30
0.0
 10
1.341787401574803
 20
0.6365708661417323
 30
0.0
 10
1.340956692913386
 20
0.6364606299212599
 30
0.0
 10
1.340122047244094
 20
0.6364606299212599
 30
0.0
 10
1.340122047244094
 20
0.6364606299212599
 30
0.0
 10
1.337566929133858
 20
0.6364606299212599
 30
0.0
 10
1.335511811023622
 20
0.6372913385826772
 30
0.0
 10
1.333956692913386
 20
0.638988188976378
 30
0.0
 10
1.333956692913386
 20
0.638988188976378
 30
0.0
 10
1.332374015748032
 20
0.6406535433070867
 30
0.0
 10
1.331594488188977
 20
0.6427913385826772
 30
0.0
 10
1.331594488188977
 20
0.6454055118110237
 30
0.0
 10
1.331594488188977
 20
0.6454055118110237
 30
0.0
 10
1.331594488188977
 20
0.6479606299212599
 30
0.0
 10
1.33253937007874
 20
0.6501811023622047
 30
0.0
 10
1.334429133858268
 20
0.6520708661417323
 30
0.0
 10
1.334429133858268
 20
0.6520708661417323
 30
0.0
 10
1.336314960629921
 20
0.653988188976378
 30
0.0
 10
1.338622047244095
 20
0.6549330708661417
 30
0.0
 10
1.341259842519685
 20
0.6549330708661417
 30
0.0
 10
1.341259842519685
 20
0.6549330708661417
 30
0.0
 10
1.344956692913386
 20
0.6549330708661417
 30
0.0
 10
1.348122047244095
 20
0.6534606299212599
 30
0.0
 10
1.350759842519685
 20
0.650488188976378
 30
0.0
 10
1.350759842519685
 20
0.650488188976378
 30
0.0
 10
1.353370078740158
 20
0.6475433070866142
 30
0.0
 10
1.354704724409449
 20
0.643736220472441
 30
0.0
 10
1.354704724409449
 20
0.6390708661417323
 30
0.0
 10
1.354704724409449
 20
0.6390708661417323
 30
0.0
 10
1.354704724409449
 20
0.6360157480314961
 30
0.0
 10
1.354066929133858
 20
0.6328188976377953
 30
0.0
 10
1.352814960629921
 20
0.6294881889763779
 30
0.0
 10
1.352814960629921
 20
0.6294881889763779
 30
0.0
 10
1.351566929133858
 20
0.6261535433070866
 30
0.0
 10
1.349759842519685
 20
0.6230708661417324
 30
0.0
 10
1.347374015748032
 20
0.6202086614173229
 30
0.0
 10
1.347374015748032
 20
0.6202086614173229
 30
0.0
 10
1.344984251968504
 20
0.6173779527559056
 30
0.0
 10
1.340259842519685
 20
0.6129606299212599
 30
0.0
 10
1.333204724409449
 20
0.606988188976378
 30
0.0
  0
ENDSEC
  0
SECTION
  2
OBJECTS
  0
DICTIONARY
  5
C
330
0
100
AcDbDictionary
  3
ACAD_GROUP
350
D
  3
ACAD_LAYOUT
350
1A
  3
ACAD_MLINESTYLE
350
17
  3
ACAD_PLOTSETTINGS
350
19
  3
ACDBHEADERROUNDTRIPXREC
350
6A
  0
DICTIONARY
  5
8A
330
29
100
AcDbDictionary
280
     1
  3
ACAD_XREC_ROUNDTRIP
360
8B
  0
DICTIONARY
  5
D
102
{ACAD_REACTORS
330
C
102
}
330
C
100
AcDbDictionary
  0
DICTIONARY
  5
1A
102
{ACAD_REACTORS
330
C
102
}
330
C
100
AcDbDictionary
  0
DICTIONARY
  5
17
102
{ACAD_REACTORS
330
C
102
}
330
C
100
AcDbDictionary
  3
STANDARD
350
18
  0
DICTIONARY
  5
19
102
{ACAD_REACTORS
330
C
102
}
330
C
100
AcDbDictionary
  0
DICTIONARY
  5
6A
102
{ACAD_REACTORS
330
C
102
}
330
C
100
AcDbDictionary
  3
CEPSNTYPE
350
73
  3
DIMSTYLEDATA
350
89
  3
FINGERPRINTGUID
350
74
  3
HYPERLINKBASE
350
6D
  3
INSUNITS
350
72
  3
LAYOUTDICT
350
6F
  3
LWETCUNION
350
71
  3
PLOTSETDICT
350
70
  3
PSVPSCALE
350
76
  3
PUCSBASE
350
79
  3
PUCSORGBACK
350
7F
  3
PUCSORGBOTTOM
350
7B
  3
PUCSORGFRONT
350
7E
  3
PUCSORGLEFT
350
7C
  3
PUCSORGRIGHT
350
7D
  3
PUCSORGTOP
350
7A
  3
PUCSORTHOREF
350
77
  3
PUCSORTHOVIEW
350
78
  3
STYLESHEET
350
6E
  3
TSTACKALIGN
350
6B
  3
TSTACKSIZE
350
6C
  3
UCSBASE
350
82
  3
UCSORGBACK
350
88
  3
UCSORGBOTTOM
350
84
  3
UCSORGFRONT
350
87
  3
UCSORGLEFT
350
85
  3
UCSORGRIGHT
350
86
  3
UCSORGTOP
350
83
  3
UCSORTHOREF
350
80
  3
UCSORTHOVIEW
350
81
  3
VERSIONGUID
350
75
  0
XRECORD
  5
8B
102
{ACAD_REACTORS
330
8A
102
}
330
8A
100
AcDbXrecord
102
UCS
 74
     0
 71
     1
 10
0.0
 20
0.0
 30
0.0
 10
1.0
 20
0.0
 30
0.0
 10
0.0
 20
1.0
 30
0.0
146
0.0
 79
     0
102
VIEW
281
     0
  0
MLINESTYLE
  5
18
102
{ACAD_REACTORS
330
17
102
}
330
17
100
AcDbMlineStyle
  2
Standard
 70
     0
  3

 62
   256
 51
90.0
 52
90.0
 71
     2
 49
0.5
 62
   256
  6
BYLAYER
 49
-0.5
 62
   256
  6
BYLAYER
  0
XRECORD
  5
73
102
{ACAD_REACTORS
330
6A
102
}
330
6A
100
AcDbXrecord
 90
        0
  0
XRECORD
  5
89
102
{ACAD_REACTORS
330
6A
102
}
330
6A
100
AcDbXrecord
1000
DSTYLE
1002
{
1070
   340
340
11
1002
}
  0
XRECORD
  5
74
102
{ACAD_REACTORS
330
6A
102
}
330
6A
100
AcDbXrecord
  1
{FAEB1C30-E019-11D5-929B-00C0DF256EC4}
  0
XRECORD
  5
6D
102
{ACAD_REACTORS
330
6A
102
}
330
6A
100
AcDbXrecord
  1

  0
XRECORD
  5
72
102
{ACAD_REACTORS
330
6A
102
}
330
6A
100
AcDbXrecord
 90
        1
  0
XRECORD
  5
6F
102
{ACAD_REACTORS
330
6A
102
}
330
6A
100
AcDbXrecord
340
1A
  0
XRECORD
  5
71
102
{ACAD_REACTORS
330
6A
102
}
330
6A
100
AcDbXrecord
 90
     2560
  0
XRECORD
  5
70
102
{ACAD_REACTORS
330
6A
102
}
330
6A
100
AcDbXrecord
340
19
  0
XRECORD
  5
76
102
{ACAD_REACTORS
330
6A
102
}
330
6A
100
AcDbXrecord
 40
0.0
  0
XRECORD
  5
79
102
{ACAD_REACTORS
330
6A
102
}
330
6A
100
AcDbXrecord
340
0
  0
XRECORD
  5
7F
102
{ACAD_REACTORS
330
6A
102
}
330
6A
100
AcDbXrecord
 10
0.0
 20
0.0
 30
0.0
  0
XRECORD
  5
7B
102
{ACAD_REACTORS
330
6A
102
}
330
6A
100
AcDbXrecord
 10
0.0
 20
0.0
 30
0.0
  0
XRECORD
  5
7E
102
{ACAD_REACTORS
330
6A
102
}
330
6A
100
AcDbXrecord
 10
0.0
 20
0.0
 30
0.0
  0
XRECORD
  5
7C
102
{ACAD_REACTORS
330
6A
102
}
330
6A
100
AcDbXrecord
 10
0.0
 20
0.0
 30
0.0
  0
XRECORD
  5
7D
102
{ACAD_REACTORS
330
6A
102
}
330
6A
100
AcDbXrecord
 10
0.0
 20
0.0
 30
0.0
  0
XRECORD
  5
7A
102
{ACAD_REACTORS
330
6A
102
}
330
6A
100
AcDbXrecord
 10
0.0
 20
0.0
 30
0.0
  0
XRECORD
  5
77
102
{ACAD_REACTORS
330
6A
102
}
330
6A
100
AcDbXrecord
340
0
  0
XRECORD
  5
78
102
{ACAD_REACTORS
330
6A
102
}
330
6A
100
AcDbXrecord
 70
     0
  0
XRECORD
  5
6E
102
{ACAD_REACTORS
330
6A
102
}
330
6A
100
AcDbXrecord
  1

  0
XRECORD
  5
6B
102
{ACAD_REACTORS
330
6A
102
}
330
6A
100
AcDbXrecord
 90
        1
  0
XRECORD
  5
6C
102
{ACAD_REACTORS
330
6A
102
}
330
6A
100
AcDbXrecord
 90
       70
  0
XRECORD
  5
82
102
{ACAD_REACTORS
330
6A
102
}
330
6A
100
AcDbXrecord
340
0
  0
XRECORD
  5
88
102
{ACAD_REACTORS
330
6A
102
}
330
6A
100
AcDbXrecord
 10
0.0
 20
0.0
 30
0.0
  0
XRECORD
  5
84
102
{ACAD_REACTORS
330
6A
102
}
330
6A
100
AcDbXrecord
 10
0.0
 20
0.0
 30
0.0
  0
XRECORD
  5
87
102
{ACAD_REACTORS
330
6A
102
}
330
6A
100
AcDbXrecord
 10
0.0
 20
0.0
 30
0.0
  0
XRECORD
  5
85
102
{ACAD_REACTORS
330
6A
102
}
330
6A
100
AcDbXrecord
 10
0.0
 20
0.0
 30
0.0
  0
XRECORD
  5
86
102
{ACAD_REACTORS
330
6A
102
}
330
6A
100
AcDbXrecord
 10
0.0
 20
0.0
 30
0.0
  0
XRECORD
  5
83
102
{ACAD_REACTORS
330
6A
102
}
330
6A
100
AcDbXrecord
 10
0.0
 20
0.0
 30
0.0
  0
XRECORD
  5
80
102
{ACAD_REACTORS
330
6A
102
}
330
6A
100
AcDbXrecord
340
0
  0
XRECORD
  5
81
102
{ACAD_REACTORS
330
6A
102
}
330
6A
100
AcDbXrecord
 70
     0
  0
XRECORD
  5
75
102
{ACAD_REACTORS
330
6A
102
}
330
6A
100
AcDbXrecord
  1
{FAEB1C32-E019-11D5-929B-00C0DF256EC4}
  0
ENDSEC
  0
EOF
