  0
SECTION
  2
HEADER
  9
$ACADVER
  1
AC1014
  9
$ACADMAINTVER
 70
     9
  9
$DWGCODEPAGE
  3
ANSI_1252
  9
$INSBASE
 10
0.0
 20
0.0
 30
0.0
  9
$EXTMIN
 10
-1.754346456692913
 20
0.2611850393700788
 30
0.0
  9
$EXTMAX
 10
1.918244094488189
 20
1.978830708661417
 30
0.0
  9
$LIMMIN
 10
0.0
 20
0.0
  9
$LIMMAX
 10
12.0
 20
9.0
  9
$ORTHOMODE
 70
     0
  9
$REGENMODE
 70
     1
  9
$FILLMODE
 70
     1
  9
$QTEXTMODE
 70
     0
  9
$MIRRTEXT
 70
     1
  9
$DRAGMODE
 70
     2
  9
$LTSCALE
 40
1.0
  9
$OSMODE
 70
    37
  9
$ATTMODE
 70
     1
  9
$TEXTSIZE
 40
0.2
  9
$TRACEWID
 40
0.05
  9
$TEXTSTYLE
  7
STANDARD
  9
$CLAYER
  8
0
  9
$CELTYPE
  6
BYLAYER
  9
$CECOLOR
 62
   256
  9
$CELTSCALE
 40
1.0
  9
$DELOBJ
 70
     1
  9
$DISPSILH
 70
     0
  9
$DIMSCALE
 40
1.0
  9
$DIMASZ
 40
0.18
  9
$DIMEXO
 40
0.0625
  9
$DIMDLI
 40
0.38
  9
$DIMRND
 40
0.0
  9
$DIMDLE
 40
0.0
  9
$DIMEXE
 40
0.18
  9
$DIMTP
 40
0.0
  9
$DIMTM
 40
0.0
  9
$DIMTXT
 40
0.18
  9
$DIMCEN
 40
0.09
  9
$DIMTSZ
 40
0.0
  9
$DIMTOL
 70
     0
  9
$DIMLIM
 70
     0
  9
$DIMTIH
 70
     1
  9
$DIMTOH
 70
     1
  9
$DIMSE1
 70
     0
  9
$DIMSE2
 70
     0
  9
$DIMTAD
 70
     0
  9
$DIMZIN
 70
     0
  9
$DIMBLK
  1

  9
$DIMASO
 70
     1
  9
$DIMSHO
 70
     1
  9
$DIMPOST
  1

  9
$DIMAPOST
  1

  9
$DIMALT
 70
     0
  9
$DIMALTD
 70
     2
  9
$DIMALTF
 40
25.4
  9
$DIMLFAC
 40
1.0
  9
$DIMTOFL
 70
     0
  9
$DIMTVP
 40
0.0
  9
$DIMTIX
 70
     0
  9
$DIMSOXD
 70
     0
  9
$DIMSAH
 70
     0
  9
$DIMBLK1
  1

  9
$DIMBLK2
  1

  9
$DIMSTYLE
  2
STANDARD
  9
$DIMCLRD
 70
     0
  9
$DIMCLRE
 70
     0
  9
$DIMCLRT
 70
     0
  9
$DIMTFAC
 40
1.0
  9
$DIMGAP
 40
0.09
  9
$DIMJUST
 70
     0
  9
$DIMSD1
 70
     0
  9
$DIMSD2
 70
     0
  9
$DIMTOLJ
 70
     1
  9
$DIMTZIN
 70
     0
  9
$DIMALTZ
 70
     0
  9
$DIMALTTZ
 70
     0
  9
$DIMFIT
 70
     3
  9
$DIMUPT
 70
     0
  9
$DIMUNIT
 70
     2
  9
$DIMDEC
 70
     4
  9
$DIMTDEC
 70
     4
  9
$DIMALTU
 70
     2
  9
$DIMALTTD
 70
     2
  9
$DIMTXSTY
  7
STANDARD
  9
$DIMAUNIT
 70
     0
  9
$LUNITS
 70
     2
  9
$LUPREC
 70
     4
  9
$SKETCHINC
 40
0.1
  9
$FILLETRAD
 40
0.5
  9
$AUNITS
 70
     0
  9
$AUPREC
 70
     0
  9
$MENU
  1
.
  9
$ELEVATION
 40
0.0
  9
$PELEVATION
 40
0.0
  9
$THICKNESS
 40
0.0
  9
$LIMCHECK
 70
     0
  9
$CHAMFERA
 40
0.5
  9
$CHAMFERB
 40
0.5
  9
$CHAMFERC
 40
1.0
  9
$CHAMFERD
 40
0.0
  9
$SKPOLY
 70
     0
  9
$TDCREATE
 40
2454120.347236701
  9
$TDUPDATE
 40
2454120.347236713
  9
$TDINDWG
 40
0.0000000116
  9
$TDUSRTIMER
 40
0.0000000116
  9
$USRTIMER
 70
     1
  9
$ANGBASE
 50
0.0
  9
$ANGDIR
 70
     0
  9
$PDMODE
 70
     0
  9
$PDSIZE
 40
0.0
  9
$PLINEWID
 40
0.0
  9
$COORDS
 70
     1
  9
$SPLFRAME
 70
     0
  9
$SPLINETYPE
 70
     6
  9
$SPLINESEGS
 70
     8
  9
$ATTDIA
 70
     0
  9
$ATTREQ
 70
     1
  9
$HANDLING
 70
     1
  9
$HANDSEED
  5
92
  9
$SURFTAB1
 70
     6
  9
$SURFTAB2
 70
     6
  9
$SURFTYPE
 70
     6
  9
$SURFU
 70
     6
  9
$SURFV
 70
     6
  9
$UCSNAME
  2

  9
$UCSORG
 10
0.0
 20
0.0
 30
0.0
  9
$UCSXDIR
 10
1.0
 20
0.0
 30
0.0
  9
$UCSYDIR
 10
0.0
 20
1.0
 30
0.0
  9
$PUCSNAME
  2

  9
$PUCSORG
 10
0.0
 20
0.0
 30
0.0
  9
$PUCSXDIR
 10
1.0
 20
0.0
 30
0.0
  9
$PUCSYDIR
 10
0.0
 20
1.0
 30
0.0
  9
$USERI1
 70
     0
  9
$USERI2
 70
     0
  9
$USERI3
 70
     0
  9
$USERI4
 70
     0
  9
$USERI5
 70
     0
  9
$USERR1
 40
0.0
  9
$USERR2
 40
0.0
  9
$USERR3
 40
0.0
  9
$USERR4
 40
0.0
  9
$USERR5
 40
0.0
  9
$WORLDVIEW
 70
     1
  9
$SHADEDGE
 70
     3
  9
$SHADEDIF
 70
    70
  9
$TILEMODE
 70
     1
  9
$MAXACTVP
 70
    64
  9
$PINSBASE
 10
0.0
 20
0.0
 30
0.0
  9
$PLIMCHECK
 70
     0
  9
$PEXTMIN
 10
1.000000000000000E+20
 20
1.000000000000000E+20
 30
1.000000000000000E+20
  9
$PEXTMAX
 10
-1.000000000000000E+20
 20
-1.000000000000000E+20
 30
-1.000000000000000E+20
  9
$PLIMMIN
 10
0.0
 20
0.0
  9
$PLIMMAX
 10
12.0
 20
9.0
  9
$UNITMODE
 70
     0
  9
$VISRETAIN
 70
     1
  9
$PLINEGEN
 70
     0
  9
$PSLTSCALE
 70
     1
  9
$TREEDEPTH
 70
  3020
  9
$PICKSTYLE
 70
     1
  9
$CMLSTYLE
  2
STANDARD
  9
$CMLJUST
 70
     0
  9
$CMLSCALE
 40
1.0
  9
$PROXYGRAPHICS
 70
     1
  9
$MEASUREMENT
 70
     0
  0
ENDSEC
  0
SECTION
  2
CLASSES
  0
CLASS
  1
ACDBDICTIONARYWDFLT
  2
AcDbDictionaryWithDefault
  3
ObjectDBX Classes
 90
        0
280
     0
281
     0
  0
CLASS
  1
XRECORD
  2
AcDbXrecord
  3
AutoCAD 2000
 90
        0
280
     0
281
     0
  0
CLASS
  1
LWPOLYLINE
  2
AcDbPolyline
  3
AutoCAD 2000
 90
        0
280
     0
281
     1
  0
CLASS
  1
HATCH
  2
AcDbHatch
  3
AutoCAD 2000
 90
        0
280
     0
281
     1
  0
CLASS
  1
ACDBPLACEHOLDER
  2
AcDbPlaceHolder
  3
ObjectDBX Classes
 90
        0
280
     0
281
     0
  0
CLASS
  1
LAYOUT
  2
AcDbLayout
  3
ObjectDBX Classes
 90
        0
280
     0
281
     0
  0
ENDSEC
  0
SECTION
  2
TABLES
  0
TABLE
  2
VPORT
  5
8
330
0
100
AcDbSymbolTable
 70
     2
  0
VPORT
  5
29
102
{ACAD_XDICTIONARY
360
90
102
}
330
8
100
AcDbSymbolTableRecord
100
AcDbViewportTableRecord
  2
*ACTIVE
 70
     0
 10
0.0
 20
0.0
 11
1.0
 21
1.0
 12
10.42990654205607
 22
4.5
 13
0.0
 23
0.0
 14
0.5
 24
0.5
 15
0.5
 25
0.5
 16
0.0
 26
0.0
 36
1.0
 17
0.0
 27
0.0
 37
0.0
 40
9.0
 41
1.972972972850329
 42
50.0
 43
0.0
 44
0.0
 50
0.0
 51
0.0
 71
     0
 72
   100
 73
     1
 74
     3
 75
     0
 76
     0
 77
     0
 78
     0
  0
ENDTAB
  0
TABLE
  2
LTYPE
  5
5
330
0
100
AcDbSymbolTable
 70
     1
  0
LTYPE
  5
14
330
5
100
AcDbSymbolTableRecord
100
AcDbLinetypeTableRecord
  2
BYBLOCK
 70
     0
  3

 72
    65
 73
     0
 40
0.0
  0
LTYPE
  5
15
330
5
100
AcDbSymbolTableRecord
100
AcDbLinetypeTableRecord
  2
BYLAYER
 70
     0
  3

 72
    65
 73
     0
 40
0.0
  0
LTYPE
  5
16
330
5
100
AcDbSymbolTableRecord
100
AcDbLinetypeTableRecord
  2
CONTINUOUS
 70
     0
  3
Solid line
 72
    65
 73
     0
 40
0.0
  0
ENDTAB
  0
TABLE
  2
LAYER
  5
2
330
0
100
AcDbSymbolTable
 70
     2
  0
LAYER
  5
10
330
2
100
AcDbSymbolTableRecord
100
AcDbLayerTableRecord
  2
0
 70
     0
 62
     7
  6
CONTINUOUS
  0
LAYER
  5
2B
330
2
100
AcDbSymbolTableRecord
100
AcDbLayerTableRecord
  2
LAYER_1
 70
     0
 62
     7
  6
CONTINUOUS
  0
ENDTAB
  0
TABLE
  2
STYLE
  5
3
330
0
100
AcDbSymbolTable
 70
     1
  0
STYLE
  5
11
330
3
100
AcDbSymbolTableRecord
100
AcDbTextStyleTableRecord
  2
STANDARD
 70
     0
 40
0.0
 41
1.0
 50
0.0
 71
     0
 42
0.2
  3
txt
  4

  0
ENDTAB
  0
TABLE
  2
VIEW
  5
6
330
0
100
AcDbSymbolTable
 70
     0
  0
ENDTAB
  0
TABLE
  2
UCS
  5
7
330
0
100
AcDbSymbolTable
 70
     0
  0
ENDTAB
  0
TABLE
  2
APPID
  5
9
330
0
100
AcDbSymbolTable
 70
     2
  0
APPID
  5
12
330
9
100
AcDbSymbolTableRecord
100
AcDbRegAppTableRecord
  2
ACAD
 70
     0
  0
APPID
  5
2A
330
9
100
AcDbSymbolTableRecord
100
AcDbRegAppTableRecord
  2
ODA
 70
     0
  0
ENDTAB
  0
TABLE
  2
DIMSTYLE
  5
A
330
0
100
AcDbSymbolTable
 70
     1
  0
DIMSTYLE
105
27
330
A
100
AcDbSymbolTableRecord
100
AcDbDimStyleTableRecord
  2
STANDARD
 70
     0
  3

  4

  5

  6

  7

 40
1.0
 41
0.18
 42
0.0625
 43
0.38
 44
0.18
 45
0.0
 46
0.0
 47
0.0
 48
0.0
140
0.18
141
0.09
142
0.0
143
25.4
144
1.0
145
0.0
146
1.0
147
0.09
 71
     0
 72
     0
 73
     1
 74
     1
 75
     0
 76
     0
 77
     0
 78
     0
170
     0
171
     2
172
     0
173
     0
174
     0
175
     0
176
     0
177
     0
178
     0
270
     2
271
     4
272
     4
273
     2
274
     2
340
11
275
     0
280
     0
281
     0
282
     0
283
     1
284
     0
285
     0
286
     0
287
     3
288
     0
  0
ENDTAB
  0
TABLE
  2
BLOCK_RECORD
  5
1
330
0
100
AcDbSymbolTable
 70
     1
  0
BLOCK_RECORD
  5
1F
330
1
100
AcDbSymbolTableRecord
100
AcDbBlockTableRecord
  2
*MODEL_SPACE
  0
BLOCK_RECORD
  5
1B
330
1
100
AcDbSymbolTableRecord
100
AcDbBlockTableRecord
  2
*PAPER_SPACE
  0
ENDTAB
  0
ENDSEC
  0
SECTION
  2
BLOCKS
  0
BLOCK
  5
20
330
1F
100
AcDbEntity
  8
0
100
AcDbBlockBegin
  2
*MODEL_SPACE
 70
     0
 71
     0
 10
0.0
 20
0.0
 30
0.0
  3
*MODEL_SPACE
  1

  0
ENDBLK
  5
21
330
1F
100
AcDbEntity
  8
0
100
AcDbBlockEnd
  0
BLOCK
  5
1C
330
1B
100
AcDbEntity
 67
     1
  8
0
100
AcDbBlockBegin
  2
*PAPER_SPACE
 70
     0
 71
     0
 10
0.0
 20
0.0
 30
0.0
  3
*PAPER_SPACE
  1

  0
ENDBLK
  5
1D
330
1B
100
AcDbEntity
 67
     1
  8
0
100
AcDbBlockEnd
  0
ENDSEC
  0
SECTION
  2
ENTITIES
  0
SPLINE
  5
2C
330
1F
100
AcDbEntity
  8
LAYER_1
 62
   250
100
AcDbSpline
210
0.0
220
0.0
230
1.0
 70
    11
 71
     3
 72
    28
 73
    24
 74
     0
 42
0.0000000001
 43
0.0000000001
 40
0.0
 40
0.0
 40
0.0
 40
0.0
 40
0.1666666666666667
 40
0.1666666666666667
 40
0.1666666666666667
 40
0.1666666666666667
 40
0.3333333333333333
 40
0.3333333333333333
 40
0.3333333333333333
 40
0.3333333333333333
 40
0.5
 40
0.5
 40
0.5
 40
0.5
 40
0.6666666666666666
 40
0.6666666666666666
 40
0.6666666666666666
 40
0.6666666666666666
 40
0.8333333333333333
 40
0.8333333333333333
 40
0.8333333333333333
 40
0.8333333333333333
 40
1.0
 40
1.0
 40
1.0
 40
1.0
 10
-1.307248031496063
 20
1.195547244094488
 30
0.0
 10
-1.307248031496063
 20
1.195547244094488
 30
0.0
 10
-0.6295551181102362
 20
0.9572716535433071
 30
0.0
 10
-0.6295551181102362
 20
0.9572716535433071
 30
0.0
 10
-0.6295551181102362
 20
0.9572716535433071
 30
0.0
 10
-0.6295551181102362
 20
0.9572716535433071
 30
0.0
 10
-0.44698031496063
 20
0.9572716535433071
 30
0.0
 10
-0.44698031496063
 20
0.9572716535433071
 30
0.0
 10
-0.44698031496063
 20
0.9572716535433071
 30
0.0
 10
-0.44698031496063
 20
0.9572716535433071
 30
0.0
 10
-0.44698031496063
 20
0.7499409448818898
 30
0.0
 10
-0.44698031496063
 20
0.7499409448818898
 30
0.0
 10
-0.44698031496063
 20
0.7499409448818898
 30
0.0
 10
-0.44698031496063
 20
0.7499409448818898
 30
0.0
 10
-1.752850393700788
 20
0.7499409448818898
 30
0.0
 10
-1.752850393700788
 20
0.7499409448818898
 30
0.0
 10
-1.752850393700788
 20
0.7499409448818898
 30
0.0
 10
-1.752850393700788
 20
0.7499409448818898
 30
0.0
 10
-1.752850393700788
 20
1.195547244094488
 30
0.0
 10
-1.752850393700788
 20
1.195547244094488
 30
0.0
 10
-1.752850393700788
 20
1.195547244094488
 30
0.0
 10
-1.752850393700788
 20
1.195547244094488
 30
0.0
 10
-1.307248031496063
 20
1.195547244094488
 30
0.0
 10
-1.307248031496063
 20
1.195547244094488
 30
0.0
  0
SPLINE
  5
2D
330
1F
100
AcDbEntity
  8
LAYER_1
 62
   250
100
AcDbSpline
210
0.0
220
0.0
230
1.0
 70
    11
 71
     3
 72
   104
 73
   100
 74
     0
 42
0.0000000001
 43
0.0000000001
 40
0.0
 40
0.0
 40
0.0
 40
0.0
 40
0.04
 40
0.04
 40
0.04
 40
0.04
 40
0.08
 40
0.08
 40
0.08
 40
0.08
 40
0.12
 40
0.12
 40
0.12
 40
0.12
 40
0.16
 40
0.16
 40
0.16
 40
0.16
 40
0.2
 40
0.2
 40
0.2
 40
0.2
 40
0.24
 40
0.24
 40
0.24
 40
0.24
 40
0.28
 40
0.28
 40
0.28
 40
0.28
 40
0.32
 40
0.32
 40
0.32
 40
0.32
 40
0.36
 40
0.36
 40
0.36
 40
0.36
 40
0.4
 40
0.4
 40
0.4
 40
0.4
 40
0.44
 40
0.44
 40
0.44
 40
0.44
 40
0.4799999999999999
 40
0.4799999999999999
 40
0.4799999999999999
 40
0.4799999999999999
 40
0.5199999999999999
 40
0.5199999999999999
 40
0.5199999999999999
 40
0.5199999999999999
 40
0.5599999999999999
 40
0.5599999999999999
 40
0.5599999999999999
 40
0.5599999999999999
 40
0.6
 40
0.6
 40
0.6
 40
0.6
 40
0.64
 40
0.64
 40
0.64
 40
0.64
 40
0.6800000000000001
 40
0.6800000000000001
 40
0.6800000000000001
 40
0.6800000000000001
 40
0.7200000000000001
 40
0.7200000000000001
 40
0.7200000000000001
 40
0.7200000000000001
 40
0.7600000000000001
 40
0.7600000000000001
 40
0.7600000000000001
 40
0.7600000000000001
 40
0.8000000000000002
 40
0.8000000000000002
 40
0.8000000000000002
 40
0.8000000000000002
 40
0.8400000000000002
 40
0.8400000000000002
 40
0.8400000000000002
 40
0.8400000000000002
 40
0.8800000000000002
 40
0.8800000000000002
 40
0.8800000000000002
 40
0.8800000000000002
 40
0.9200000000000003
 40
0.9200000000000003
 40
0.9200000000000003
 40
0.9200000000000003
 40
0.9600000000000003
 40
0.9600000000000003
 40
0.9600000000000003
 40
0.9600000000000003
 40
1.0
 40
1.0
 40
1.0
 40
1.0
 10
-1.394543307086614
 20
0.5985196850393701
 30
0.0
 10
-1.394543307086614
 20
0.5985196850393701
 30
0.0
 10
-1.340570866141732
 20
0.5985196850393701
 30
0.0
 10
-1.340570866141732
 20
0.5985196850393701
 30
0.0
 10
-1.340570866141732
 20
0.5985196850393701
 30
0.0
 10
-1.32740157480315
 20
0.5985196850393701
 30
0.0
 10
-1.318374015748032
 20
0.5979094488188976
 30
0.0
 10
-1.313488188976378
 20
0.5967125984251969
 30
0.0
 10
-1.313488188976378
 20
0.5967125984251969
 30
0.0
 10
-1.306263779527559
 20
0.594992125984252
 30
0.0
 10
-1.300570866141732
 20
0.5918543307086615
 30
0.0
 10
-1.296346456692914
 20
0.5872952755905512
 30
0.0
 10
-1.296346456692914
 20
0.5872952755905512
 30
0.0
 10
-1.292153543307087
 20
0.5827401574803149
 30
0.0
 10
-1.290043307086614
 20
0.577240157480315
 30
0.0
 10
-1.290043307086614
 20
0.5708543307086614
 30
0.0
 10
-1.290043307086614
 20
0.5708543307086614
 30
0.0
 10
-1.290043307086614
 20
0.566240157480315
 30
0.0
 10
-1.291153543307087
 20
0.5621023622047244
 30
0.0
 10
-1.293374015748032
 20
0.5584370078740157
 30
0.0
 10
-1.293374015748032
 20
0.5584370078740157
 30
0.0
 10
-1.29559842519685
 20
0.5547677165354331
 30
0.0
 10
-1.298846456692913
 20
0.5516299212598426
 30
0.0
 10
-1.303070866141732
 20
0.5490472440944882
 30
0.0
 10
-1.303070866141732
 20
0.5490472440944882
 30
0.0
 10
-1.305791338582677
 20
0.5473543307086615
 30
0.0
 10
-1.30946062992126
 20
0.5459094488188977
 30
0.0
 10
-1.314125984251969
 20
0.5447125984251969
 30
0.0
 10
-1.314125984251969
 20
0.5447125984251969
 30
0.0
 10
-1.308208661417323
 20
0.5436299212598426
 30
0.0
 10
-1.303708661417323
 20
0.5423267716535434
 30
0.0
 10
-1.300625984251969
 20
0.5408267716535433
 30
0.0
 10
-1.300625984251969
 20
0.5408267716535433
 30
0.0
 10
-1.29596062992126
 20
0.5385472440944882
 30
0.0
 10
-1.292263779527559
 20
0.5352992125984252
 30
0.0
 10
-1.289570866141732
 20
0.5310472440944882
 30
0.0
 10
-1.289570866141732
 20
0.5310472440944882
 30
0.0
 10
-1.286846456692913
 20
0.5268267716535433
 30
0.0
 10
-1.285488188976378
 20
0.5220472440944882
 30
0.0
 10
-1.285488188976378
 20
0.516740157480315
 30
0.0
 10
-1.285488188976378
 20
0.516740157480315
 30
0.0
 10
-1.285488188976378
 20
0.5115748031496064
 30
0.0
 10
-1.286818897637795
 20
0.5067992125984252
 30
0.0
 10
-1.289488188976378
 20
0.5024094488188977
 30
0.0
 10
-1.289488188976378
 20
0.5024094488188977
 30
0.0
 10
-1.292125984251969
 20
0.4980196850393701
 30
0.0
 10
-1.29590157480315
 20
0.4944094488188977
 30
0.0
 10
-1.300736220472441
 20
0.4915748031496063
 30
0.0
 10
-1.300736220472441
 20
0.4915748031496063
 30
0.0
 10
-1.30559842519685
 20
0.4887716535433071
 30
0.0
 10
-1.311263779527559
 20
0.4869645669291339
 30
0.0
 10
-1.317708661417323
 20
0.4861574803149606
 30
0.0
 10
-1.317708661417323
 20
0.4861574803149606
 30
0.0
 10
-1.324181102362205
 20
0.4853818897637796
 30
0.0
 10
-1.330818897637795
 20
0.484992125984252
 30
0.0
 10
-1.337653543307087
 20
0.484992125984252
 30
0.0
 10
-1.337653543307087
 20
0.484992125984252
 30
0.0
 10
-1.337653543307087
 20
0.484992125984252
 30
0.0
 10
-1.394543307086614
 20
0.484992125984252
 30
0.0
 10
-1.394543307086614
 20
0.484992125984252
 30
0.0
 10
-1.394543307086614
 20
0.484992125984252
 30
0.0
 10
-1.394543307086614
 20
0.484992125984252
 30
0.0
 10
-1.394543307086614
 20
0.4918267716535433
 30
0.0
 10
-1.394543307086614
 20
0.4918267716535433
 30
0.0
 10
-1.394543307086614
 20
0.4918267716535433
 30
0.0
 10
-1.394543307086614
 20
0.4918267716535433
 30
0.0
 10
-1.390708661417323
 20
0.4918267716535433
 30
0.0
 10
-1.390708661417323
 20
0.4918267716535433
 30
0.0
 10
-1.390708661417323
 20
0.4918267716535433
 30
0.0
 10
-1.387011811023622
 20
0.4918267716535433
 30
0.0
 10
-1.384511811023622
 20
0.4924094488188976
 30
0.0
 10
-1.383153543307087
 20
0.4935472440944882
 30
0.0
 10
-1.383153543307087
 20
0.4935472440944882
 30
0.0
 10
-1.381181102362205
 20
0.4951023622047244
 30
0.0
 10
-1.380208661417323
 20
0.4977125984251969
 30
0.0
 10
-1.380208661417323
 20
0.5013543307086614
 30
0.0
 10
-1.380208661417323
 20
0.5013543307086614
 30
0.0
 10
-1.380208661417323
 20
0.5013543307086614
 30
0.0
 10
-1.380208661417323
 20
0.5802125984251969
 30
0.0
 10
-1.380208661417323
 20
0.5802125984251969
 30
0.0
 10
-1.380208661417323
 20
0.5802125984251969
 30
0.0
 10
-1.380208661417323
 20
0.5839094488188976
 30
0.0
 10
-1.380511811023622
 20
0.5864094488188977
 30
0.0
 10
-1.381098425196851
 20
0.5877677165354331
 30
0.0
 10
-1.381098425196851
 20
0.5877677165354331
 30
0.0
 10
-1.381708661417323
 20
0.5891299212598425
 30
0.0
 10
-1.38259842519685
 20
0.5901023622047245
 30
0.0
 10
-1.383791338582677
 20
0.5907125984251969
 30
0.0
 10
-1.383791338582677
 20
0.5907125984251969
 30
0.0
 10
-1.384984251968504
 20
0.5912952755905512
 30
0.0
 10
-1.387291338582677
 20
0.5916023622047244
 30
0.0
 10
-1.390708661417323
 20
0.5916023622047244
 30
0.0
 10
-1.390708661417323
 20
0.5916023622047244
 30
0.0
 10
-1.390708661417323
 20
0.5916023622047244
 30
0.0
 10
-1.394543307086614
 20
0.5916023622047244
 30
0.0
 10
-1.394543307086614
 20
0.5916023622047244
 30
0.0
 10
-1.394543307086614
 20
0.5916023622047244
 30
0.0
 10
-1.394543307086614
 20
0.5916023622047244
 30
0.0
 10
-1.394543307086614
 20
0.5985196850393701
 30
0.0
 10
-1.394543307086614
 20
0.5985196850393701
 30
0.0
  0
SPLINE
  5
2E
330
1F
100
AcDbEntity
  8
LAYER_1
 62
   250
100
AcDbSpline
210
0.0
220
0.0
230
1.0
 70
    11
 71
     3
 72
    40
 73
    36
 74
     0
 42
0.0000000001
 43
0.0000000001
 40
0.0
 40
0.0
 40
0.0
 40
0.0
 40
0.1111111111111111
 40
0.1111111111111111
 40
0.1111111111111111
 40
0.1111111111111111
 40
0.2222222222222222
 40
0.2222222222222222
 40
0.2222222222222222
 40
0.2222222222222222
 40
0.3333333333333333
 40
0.3333333333333333
 40
0.3333333333333333
 40
0.3333333333333333
 40
0.4444444444444444
 40
0.4444444444444444
 40
0.4444444444444444
 40
0.4444444444444444
 40
0.5555555555555556
 40
0.5555555555555556
 40
0.5555555555555556
 40
0.5555555555555556
 40
0.6666666666666667
 40
0.6666666666666667
 40
0.6666666666666667
 40
0.6666666666666667
 40
0.7777777777777779
 40
0.7777777777777779
 40
0.7777777777777779
 40
0.7777777777777779
 40
0.8888888888888891
 40
0.8888888888888891
 40
0.8888888888888891
 40
0.8888888888888891
 40
1.0
 40
1.0
 40
1.0
 40
1.0
 10
-1.364984251968504
 20
0.5894921259842519
 30
0.0
 10
-1.364984251968504
 20
0.5894921259842519
 30
0.0
 10
-1.364984251968504
 20
0.5479094488188977
 30
0.0
 10
-1.364984251968504
 20
0.5479094488188977
 30
0.0
 10
-1.364984251968504
 20
0.5479094488188977
 30
0.0
 10
-1.364984251968504
 20
0.5479094488188977
 30
0.0
 10
-1.344236220472441
 20
0.5479094488188977
 30
0.0
 10
-1.344236220472441
 20
0.5479094488188977
 30
0.0
 10
-1.344236220472441
 20
0.5479094488188977
 30
0.0
 10
-1.334543307086614
 20
0.5479094488188977
 30
0.0
 10
-1.327874015748032
 20
0.5483543307086615
 30
0.0
 10
-1.324318897637795
 20
0.5492677165354331
 30
0.0
 10
-1.324318897637795
 20
0.5492677165354331
 30
0.0
 10
-1.318708661417323
 20
0.550740157480315
 30
0.0
 10
-1.31446062992126
 20
0.553240157480315
 30
0.0
 10
-1.311488188976378
 20
0.5567677165354331
 30
0.0
 10
-1.311488188976378
 20
0.5567677165354331
 30
0.0
 10
-1.308543307086614
 20
0.5602952755905513
 30
0.0
 10
-1.307043307086614
 20
0.5648267716535433
 30
0.0
 10
-1.307043307086614
 20
0.5703543307086615
 30
0.0
 10
-1.307043307086614
 20
0.5703543307086615
 30
0.0
 10
-1.307043307086614
 20
0.5750196850393701
 30
0.0
 10
-1.30840157480315
 20
0.5789094488188976
 30
0.0
 10
-1.311070866141732
 20
0.5820472440944882
 30
0.0
 10
-1.311070866141732
 20
0.5820472440944882
 30
0.0
 10
-1.313763779527559
 20
0.5851574803149606
 30
0.0
 10
-1.317374015748032
 20
0.5872952755905512
 30
0.0
 10
-1.321874015748032
 20
0.5884370078740158
 30
0.0
 10
-1.321874015748032
 20
0.5884370078740158
 30
0.0
 10
-1.324791338582677
 20
0.5891299212598425
 30
0.0
 10
-1.330874015748031
 20
0.5894921259842519
 30
0.0
 10
-1.34009842519685
 20
0.5894921259842519
 30
0.0
 10
-1.34009842519685
 20
0.5894921259842519
 30
0.0
 10
-1.34009842519685
 20
0.5894921259842519
 30
0.0
 10
-1.364984251968504
 20
0.5894921259842519
 30
0.0
 10
-1.364984251968504
 20
0.5894921259842519
 30
0.0
  0
SPLINE
  5
2F
330
1F
100
AcDbEntity
  8
LAYER_1
 62
   250
100
AcDbSpline
210
0.0
220
0.0
230
1.0
 70
    11
 71
     3
 72
    52
 73
    48
 74
     0
 42
0.0000000001
 43
0.0000000001
 40
0.0
 40
0.0
 40
0.0
 40
0.0
 40
0.0833333333333333
 40
0.0833333333333333
 40
0.0833333333333333
 40
0.0833333333333333
 40
0.1666666666666667
 40
0.1666666666666667
 40
0.1666666666666667
 40
0.1666666666666667
 40
0.25
 40
0.25
 40
0.25
 40
0.25
 40
0.3333333333333333
 40
0.3333333333333333
 40
0.3333333333333333
 40
0.3333333333333333
 40
0.4166666666666666
 40
0.4166666666666666
 40
0.4166666666666666
 40
0.4166666666666666
 40
0.4999999999999999
 40
0.4999999999999999
 40
0.4999999999999999
 40
0.4999999999999999
 40
0.5833333333333333
 40
0.5833333333333333
 40
0.5833333333333333
 40
0.5833333333333333
 40
0.6666666666666666
 40
0.6666666666666666
 40
0.6666666666666666
 40
0.6666666666666666
 40
0.75
 40
0.75
 40
0.75
 40
0.75
 40
0.8333333333333334
 40
0.8333333333333334
 40
0.8333333333333334
 40
0.8333333333333334
 40
0.9166666666666667
 40
0.9166666666666667
 40
0.9166666666666667
 40
0.9166666666666667
 40
1.0
 40
1.0
 40
1.0
 40
1.0
 10
-1.364984251968504
 20
0.5400748031496063
 30
0.0
 10
-1.364984251968504
 20
0.5400748031496063
 30
0.0
 10
-1.364984251968504
 20
0.5028267716535433
 30
0.0
 10
-1.364984251968504
 20
0.5028267716535433
 30
0.0
 10
-1.364984251968504
 20
0.5028267716535433
 30
0.0
 10
-1.364984251968504
 20
0.4990748031496063
 30
0.0
 10
-1.364818897637795
 20
0.4968543307086614
 30
0.0
 10
-1.364515748031496
 20
0.4961299212598426
 30
0.0
 10
-1.364515748031496
 20
0.4961299212598426
 30
0.0
 10
-1.364070866141732
 20
0.4951574803149607
 30
0.0
 10
-1.363208661417323
 20
0.494492125984252
 30
0.0
 10
-1.36190157480315
 20
0.4941023622047244
 30
0.0
 10
-1.36190157480315
 20
0.4941023622047244
 30
0.0
 10
-1.360984251968504
 20
0.4938267716535433
 30
0.0
 10
-1.358374015748032
 20
0.4936850393700787
 30
0.0
 10
-1.35409842519685
 20
0.4936850393700787
 30
0.0
 10
-1.35409842519685
 20
0.4936850393700787
 30
0.0
 10
-1.35409842519685
 20
0.4936850393700787
 30
0.0
 10
-1.343015748031496
 20
0.4936850393700787
 30
0.0
 10
-1.343015748031496
 20
0.4936850393700787
 30
0.0
 10
-1.343015748031496
 20
0.4936850393700787
 30
0.0
 10
-1.332070866141732
 20
0.4936850393700787
 30
0.0
 10
-1.324236220472441
 20
0.4942992125984252
 30
0.0
 10
-1.319543307086614
 20
0.4955196850393701
 30
0.0
 10
-1.319543307086614
 20
0.4955196850393701
 30
0.0
 10
-1.314846456692913
 20
0.496740157480315
 30
0.0
 10
-1.310846456692913
 20
0.4993267716535433
 30
0.0
 10
-1.307543307086614
 20
0.5032716535433071
 30
0.0
 10
-1.307543307086614
 20
0.5032716535433071
 30
0.0
 10
-1.304236220472441
 20
0.5071850393700788
 30
0.0
 10
-1.302570866141732
 20
0.5119370078740158
 30
0.0
 10
-1.302570866141732
 20
0.5174645669291339
 30
0.0
 10
-1.302570866141732
 20
0.5174645669291339
 30
0.0
 10
-1.302570866141732
 20
0.5221299212598426
 30
0.0
 10
-1.303929133858268
 20
0.5262677165354331
 30
0.0
 10
-1.306598425196851
 20
0.5298818897637796
 30
0.0
 10
-1.306598425196851
 20
0.5298818897637796
 30
0.0
 10
-1.309291338582677
 20
0.533492125984252
 30
0.0
 10
-1.313015748031496
 20
0.5360748031496063
 30
0.0
 10
-1.317763779527559
 20
0.5376850393700787
 30
0.0
 10
-1.317763779527559
 20
0.5376850393700787
 30
0.0
 10
-1.322515748031496
 20
0.5392992125984252
 30
0.0
 10
-1.330929133858268
 20
0.5400748031496063
 30
0.0
 10
-1.343015748031496
 20
0.5400748031496063
 30
0.0
 10
-1.343015748031496
 20
0.5400748031496063
 30
0.0
 10
-1.343015748031496
 20
0.5400748031496063
 30
0.0
 10
-1.364984251968504
 20
0.5400748031496063
 30
0.0
 10
-1.364984251968504
 20
0.5400748031496063
 30
0.0
  0
SPLINE
  5
30
330
1F
100
AcDbEntity
  8
LAYER_1
 62
   250
100
AcDbSpline
210
0.0
220
0.0
230
1.0
 70
    11
 71
     3
 72
   112
 73
   108
 74
     0
 42
0.0000000001
 43
0.0000000001
 40
0.0
 40
0.0
 40
0.0
 40
0.0
 40
0.037037037037037
 40
0.037037037037037
 40
0.037037037037037
 40
0.037037037037037
 40
0.0740740740740741
 40
0.0740740740740741
 40
0.0740740740740741
 40
0.0740740740740741
 40
0.1111111111111111
 40
0.1111111111111111
 40
0.1111111111111111
 40
0.1111111111111111
 40
0.1481481481481481
 40
0.1481481481481481
 40
0.1481481481481481
 40
0.1481481481481481
 40
0.1851851851851852
 40
0.1851851851851852
 40
0.1851851851851852
 40
0.1851851851851852
 40
0.2222222222222222
 40
0.2222222222222222
 40
0.2222222222222222
 40
0.2222222222222222
 40
0.2592592592592592
 40
0.2592592592592592
 40
0.2592592592592592
 40
0.2592592592592592
 40
0.2962962962962963
 40
0.2962962962962963
 40
0.2962962962962963
 40
0.2962962962962963
 40
0.3333333333333333
 40
0.3333333333333333
 40
0.3333333333333333
 40
0.3333333333333333
 40
0.3703703703703704
 40
0.3703703703703704
 40
0.3703703703703704
 40
0.3703703703703704
 40
0.4074074074074074
 40
0.4074074074074074
 40
0.4074074074074074
 40
0.4074074074074074
 40
0.4444444444444444
 40
0.4444444444444444
 40
0.4444444444444444
 40
0.4444444444444444
 40
0.4814814814814815
 40
0.4814814814814815
 40
0.4814814814814815
 40
0.4814814814814815
 40
0.5185185185185185
 40
0.5185185185185185
 40
0.5185185185185185
 40
0.5185185185185185
 40
0.5555555555555556
 40
0.5555555555555556
 40
0.5555555555555556
 40
0.5555555555555556
 40
0.5925925925925926
 40
0.5925925925925926
 40
0.5925925925925926
 40
0.5925925925925926
 40
0.6296296296296295
 40
0.6296296296296295
 40
0.6296296296296295
 40
0.6296296296296295
 40
0.6666666666666665
 40
0.6666666666666665
 40
0.6666666666666665
 40
0.6666666666666665
 40
0.7037037037037035
 40
0.7037037037037035
 40
0.7037037037037035
 40
0.7037037037037035
 40
0.7407407407407405
 40
0.7407407407407405
 40
0.7407407407407405
 40
0.7407407407407405
 40
0.7777777777777775
 40
0.7777777777777775
 40
0.7777777777777775
 40
0.7777777777777775
 40
0.8148148148148144
 40
0.8148148148148144
 40
0.8148148148148144
 40
0.8148148148148144
 40
0.8518518518518514
 40
0.8518518518518514
 40
0.8518518518518514
 40
0.8518518518518514
 40
0.8888888888888884
 40
0.8888888888888884
 40
0.8888888888888884
 40
0.8888888888888884
 40
0.9259259259259254
 40
0.9259259259259254
 40
0.9259259259259254
 40
0.9259259259259254
 40
0.9629629629629624
 40
0.9629629629629624
 40
0.9629629629629624
 40
0.9629629629629624
 40
1.0
 40
1.0
 40
1.0
 40
1.0
 10
-1.227877952755906
 20
0.5985196850393701
 30
0.0
 10
-1.227877952755906
 20
0.5985196850393701
 30
0.0
 10
-1.21446062992126
 20
0.5985196850393701
 30
0.0
 10
-1.21446062992126
 20
0.5985196850393701
 30
0.0
 10
-1.21446062992126
 20
0.5985196850393701
 30
0.0
 10
-1.21446062992126
 20
0.5985196850393701
 30
0.0
 10
-1.179212598425197
 20
0.5036299212598425
 30
0.0
 10
-1.179212598425197
 20
0.5036299212598425
 30
0.0
 10
-1.179212598425197
 20
0.5036299212598425
 30
0.0
 10
-1.177488188976378
 20
0.4988543307086614
 30
0.0
 10
-1.175740157480315
 20
0.4956850393700787
 30
0.0
 10
-1.17396062992126
 20
0.4941574803149607
 30
0.0
 10
-1.17396062992126
 20
0.4941574803149607
 30
0.0
 10
-1.172212598425197
 20
0.4926023622047244
 30
0.0
 10
-1.169822834645669
 20
0.4918267716535433
 30
0.0
 10
-1.166850393700788
 20
0.4918267716535433
 30
0.0
 10
-1.166850393700788
 20
0.4918267716535433
 30
0.0
 10
-1.166850393700788
 20
0.4918267716535433
 30
0.0
 10
-1.165070866141732
 20
0.4918267716535433
 30
0.0
 10
-1.165070866141732
 20
0.4918267716535433
 30
0.0
 10
-1.165070866141732
 20
0.4918267716535433
 30
0.0
 10
-1.165070866141732
 20
0.4918267716535433
 30
0.0
 10
-1.165070866141732
 20
0.484992125984252
 30
0.0
 10
-1.165070866141732
 20
0.484992125984252
 30
0.0
 10
-1.165070866141732
 20
0.484992125984252
 30
0.0
 10
-1.165070866141732
 20
0.484992125984252
 30
0.0
 10
-1.205515748031496
 20
0.484992125984252
 30
0.0
 10
-1.205515748031496
 20
0.484992125984252
 30
0.0
 10
-1.205515748031496
 20
0.484992125984252
 30
0.0
 10
-1.205515748031496
 20
0.484992125984252
 30
0.0
 10
-1.205515748031496
 20
0.4918267716535433
 30
0.0
 10
-1.205515748031496
 20
0.4918267716535433
 30
0.0
 10
-1.205515748031496
 20
0.4918267716535433
 30
0.0
 10
-1.204212598425197
 20
0.4919370078740158
 30
0.0
 10
-1.202933070866142
 20
0.491992125984252
 30
0.0
 10
-1.201681102362205
 20
0.491992125984252
 30
0.0
 10
-1.201681102362205
 20
0.491992125984252
 30
0.0
 10
-1.199070866141732
 20
0.491992125984252
 30
0.0
 10
-1.197377952755906
 20
0.4922716535433071
 30
0.0
 10
-1.196543307086614
 20
0.4927992125984252
 30
0.0
 10
-1.196543307086614
 20
0.4927992125984252
 30
0.0
 10
-1.194988188976378
 20
0.4938267716535433
 30
0.0
 10
-1.194185039370079
 20
0.4951299212598426
 30
0.0
 10
-1.194185039370079
 20
0.4967125984251969
 30
0.0
 10
-1.194185039370079
 20
0.4967125984251969
 30
0.0
 10
-1.194185039370079
 20
0.4978543307086614
 30
0.0
 10
-1.19496062992126
 20
0.5006299212598425
 30
0.0
 10
-1.19646062992126
 20
0.5051023622047244
 30
0.0
 10
-1.19646062992126
 20
0.5051023622047244
 30
0.0
 10
-1.19646062992126
 20
0.5051023622047244
 30
0.0
 10
-1.20396062992126
 20
0.5270748031496063
 30
0.0
 10
-1.20396062992126
 20
0.5270748031496063
 30
0.0
 10
-1.20396062992126
 20
0.5270748031496063
 30
0.0
 10
-1.20396062992126
 20
0.5270748031496063
 30
0.0
 10
-1.245125984251969
 20
0.5270748031496063
 30
0.0
 10
-1.245125984251969
 20
0.5270748031496063
 30
0.0
 10
-1.245125984251969
 20
0.5270748031496063
 30
0.0
 10
-1.245125984251969
 20
0.5270748031496063
 30
0.0
 10
-1.253933070866142
 20
0.502492125984252
 30
0.0
 10
-1.253933070866142
 20
0.502492125984252
 30
0.0
 10
-1.253933070866142
 20
0.502492125984252
 30
0.0
 10
-1.254850393700788
 20
0.4999370078740158
 30
0.0
 10
-1.255322834645669
 20
0.4981850393700787
 30
0.0
 10
-1.255322834645669
 20
0.4971850393700787
 30
0.0
 10
-1.255322834645669
 20
0.4971850393700787
 30
0.0
 10
-1.255322834645669
 20
0.4961023622047244
 30
0.0
 10
-1.255015748031496
 20
0.4951574803149607
 30
0.0
 10
-1.25446062992126
 20
0.4943543307086614
 30
0.0
 10
-1.25446062992126
 20
0.4943543307086614
 30
0.0
 10
-1.253877952755906
 20
0.4935472440944882
 30
0.0
 10
-1.253125984251969
 20
0.4929370078740158
 30
0.0
 10
-1.252125984251969
 20
0.4925196850393701
 30
0.0
 10
-1.252125984251969
 20
0.4925196850393701
 30
0.0
 10
-1.251153543307087
 20
0.4921023622047244
 30
0.0
 10
-1.24959842519685
 20
0.4919094488188976
 30
0.0
 10
-1.247405511811024
 20
0.4919094488188976
 30
0.0
 10
-1.247405511811024
 20
0.4919094488188976
 30
0.0
 10
-1.24596062992126
 20
0.4919094488188976
 30
0.0
 10
-1.244767716535433
 20
0.4918818897637796
 30
0.0
 10
-1.243850393700787
 20
0.4918267716535433
 30
0.0
 10
-1.243850393700787
 20
0.4918267716535433
 30
0.0
 10
-1.243850393700787
 20
0.4918267716535433
 30
0.0
 10
-1.243850393700787
 20
0.484992125984252
 30
0.0
 10
-1.243850393700787
 20
0.484992125984252
 30
0.0
 10
-1.243850393700787
 20
0.484992125984252
 30
0.0
 10
-1.243850393700787
 20
0.484992125984252
 30
0.0
 10
-1.277767716535433
 20
0.484992125984252
 30
0.0
 10
-1.277767716535433
 20
0.484992125984252
 30
0.0
 10
-1.277767716535433
 20
0.484992125984252
 30
0.0
 10
-1.277767716535433
 20
0.484992125984252
 30
0.0
 10
-1.277767716535433
 20
0.4918267716535433
 30
0.0
 10
-1.277767716535433
 20
0.4918267716535433
 30
0.0
 10
-1.277767716535433
 20
0.4918267716535433
 30
0.0
 10
-1.274625984251969
 20
0.4918267716535433
 30
0.0
 10
-1.272350393700787
 20
0.4921299212598426
 30
0.0
 10
-1.270988188976378
 20
0.4927716535433071
 30
0.0
 10
-1.270988188976378
 20
0.4927716535433071
 30
0.0
 10
-1.26959842519685
 20
0.4933818897637796
 30
0.0
 10
-1.268377952755906
 20
0.4943818897637796
 30
0.0
 10
-1.267350393700788
 20
0.4957716535433071
 30
0.0
 10
-1.267350393700788
 20
0.4957716535433071
 30
0.0
 10
-1.266322834645669
 20
0.4971574803149607
 30
0.0
 10
-1.26496062992126
 20
0.5000748031496063
 30
0.0
 10
-1.263295275590551
 20
0.5045196850393701
 30
0.0
 10
-1.263295275590551
 20
0.5045196850393701
 30
0.0
 10
-1.263295275590551
 20
0.5045196850393701
 30
0.0
 10
-1.227877952755906
 20
0.5985196850393701
 30
0.0
 10
-1.227877952755906
 20
0.5985196850393701
 30
0.0
  0
SPLINE
  5
31
330
1F
100
AcDbEntity
  8
LAYER_1
 62
   250
100
AcDbSpline
210
0.0
220
0.0
230
1.0
 70
    11
 71
     3
 72
    16
 73
    12
 74
     0
 42
0.0000000001
 43
0.0000000001
 40
0.0
 40
0.0
 40
0.0
 40
0.0
 40
0.3333333333333333
 40
0.3333333333333333
 40
0.3333333333333333
 40
0.3333333333333333
 40
0.6666666666666666
 40
0.6666666666666666
 40
0.6666666666666666
 40
0.6666666666666666
 40
1.0
 40
1.0
 40
1.0
 40
1.0
 10
-1.242125984251969
 20
0.5350472440944882
 30
0.0
 10
-1.242125984251969
 20
0.5350472440944882
 30
0.0
 10
-1.207043307086614
 20
0.5350472440944882
 30
0.0
 10
-1.207043307086614
 20
0.5350472440944882
 30
0.0
 10
-1.207043307086614
 20
0.5350472440944882
 30
0.0
 10
-1.207043307086614
 20
0.5350472440944882
 30
0.0
 10
-1.224625984251968
 20
0.5838818897637795
 30
0.0
 10
-1.224625984251968
 20
0.5838818897637795
 30
0.0
 10
-1.224625984251968
 20
0.5838818897637795
 30
0.0
 10
-1.224625984251968
 20
0.5838818897637795
 30
0.0
 10
-1.242125984251969
 20
0.5350472440944882
 30
0.0
 10
-1.242125984251969
 20
0.5350472440944882
 30
0.0
  0
SPLINE
  5
32
330
1F
100
AcDbEntity
  8
LAYER_1
 62
   250
100
AcDbSpline
210
0.0
220
0.0
230
1.0
 70
    11
 71
     3
 72
    72
 73
    68
 74
     0
 42
0.0000000001
 43
0.0000000001
 40
0.0
 40
0.0
 40
0.0
 40
0.0
 40
0.0588235294117647
 40
0.0588235294117647
 40
0.0588235294117647
 40
0.0588235294117647
 40
0.1176470588235294
 40
0.1176470588235294
 40
0.1176470588235294
 40
0.1176470588235294
 40
0.1764705882352941
 40
0.1764705882352941
 40
0.1764705882352941
 40
0.1764705882352941
 40
0.2352941176470588
 40
0.2352941176470588
 40
0.2352941176470588
 40
0.2352941176470588
 40
0.2941176470588235
 40
0.2941176470588235
 40
0.2941176470588235
 40
0.2941176470588235
 40
0.3529411764705883
 40
0.3529411764705883
 40
0.3529411764705883
 40
0.3529411764705883
 40
0.411764705882353
 40
0.411764705882353
 40
0.411764705882353
 40
0.411764705882353
 40
0.4705882352941177
 40
0.4705882352941177
 40
0.4705882352941177
 40
0.4705882352941177
 40
0.5294117647058824
 40
0.5294117647058824
 40
0.5294117647058824
 40
0.5294117647058824
 40
0.5882352941176471
 40
0.5882352941176471
 40
0.5882352941176471
 40
0.5882352941176471
 40
0.6470588235294118
 40
0.6470588235294118
 40
0.6470588235294118
 40
0.6470588235294118
 40
0.7058823529411765
 40
0.7058823529411765
 40
0.7058823529411765
 40
0.7058823529411765
 40
0.7647058823529412
 40
0.7647058823529412
 40
0.7647058823529412
 40
0.7647058823529412
 40
0.823529411764706
 40
0.823529411764706
 40
0.823529411764706
 40
0.823529411764706
 40
0.8823529411764707
 40
0.8823529411764707
 40
0.8823529411764707
 40
0.8823529411764707
 40
0.9411764705882354
 40
0.9411764705882354
 40
0.9411764705882354
 40
0.9411764705882354
 40
1.0
 40
1.0
 40
1.0
 40
1.0
 10
-1.002043307086614
 20
0.5985196850393701
 30
0.0
 10
-1.002043307086614
 20
0.5985196850393701
 30
0.0
 10
-0.9959606299212599
 20
0.5985196850393701
 30
0.0
 10
-0.9959606299212599
 20
0.5985196850393701
 30
0.0
 10
-0.9959606299212599
 20
0.5985196850393701
 30
0.0
 10
-0.9959606299212599
 20
0.5985196850393701
 30
0.0
 10
-0.9959606299212599
 20
0.5042716535433071
 30
0.0
 10
-0.9959606299212599
 20
0.5042716535433071
 30
0.0
 10
-0.9959606299212599
 20
0.5042716535433071
 30
0.0
 10
-0.9959606299212599
 20
0.4998267716535433
 30
0.0
 10
-0.9956535433070867
 20
0.4969645669291339
 30
0.0
 10
-0.9950984251968504
 20
0.4956850393700787
 30
0.0
 10
-0.9950984251968504
 20
0.4956850393700787
 30
0.0
 10
-0.9945157480314961
 20
0.4944094488188977
 30
0.0
 10
-0.9935984251968504
 20
0.4934645669291339
 30
0.0
 10
-0.9922952755905512
 20
0.4927992125984252
 30
0.0
 10
-0.9922952755905512
 20
0.4927992125984252
 30
0.0
 10
-0.990988188976378
 20
0.4921574803149607
 30
0.0
 10
-0.9884055118110237
 20
0.4918267716535433
 30
0.0
 10
-0.9845433070866142
 20
0.4918267716535433
 30
0.0
 10
-0.9845433070866142
 20
0.4918267716535433
 30
0.0
 10
-0.9845433070866142
 20
0.4918267716535433
 30
0.0
 10
-0.9765708661417323
 20
0.4918267716535433
 30
0.0
 10
-0.9765708661417323
 20
0.4918267716535433
 30
0.0
 10
-0.9765708661417323
 20
0.4918267716535433
 30
0.0
 10
-0.9765708661417323
 20
0.4918267716535433
 30
0.0
 10
-0.9765708661417323
 20
0.484992125984252
 30
0.0
 10
-0.9765708661417323
 20
0.484992125984252
 30
0.0
 10
-0.9765708661417323
 20
0.484992125984252
 30
0.0
 10
-0.9765708661417323
 20
0.484992125984252
 30
0.0
 10
-1.030208661417323
 20
0.484992125984252
 30
0.0
 10
-1.030208661417323
 20
0.484992125984252
 30
0.0
 10
-1.030208661417323
 20
0.484992125984252
 30
0.0
 10
-1.030208661417323
 20
0.484992125984252
 30
0.0
 10
-1.030208661417323
 20
0.4918267716535433
 30
0.0
 10
-1.030208661417323
 20
0.4918267716535433
 30
0.0
 10
-1.030208661417323
 20
0.4918267716535433
 30
0.0
 10
-1.030208661417323
 20
0.4918267716535433
 30
0.0
 10
-1.021350393700788
 20
0.4918267716535433
 30
0.0
 10
-1.021350393700788
 20
0.4918267716535433
 30
0.0
 10
-1.021350393700788
 20
0.4918267716535433
 30
0.0
 10
-1.017488188976378
 20
0.4918267716535433
 30
0.0
 10
-1.014933070866142
 20
0.4921574803149607
 30
0.0
 10
-1.013653543307087
 20
0.4928543307086614
 30
0.0
 10
-1.013653543307087
 20
0.4928543307086614
 30
0.0
 10
-1.012377952755906
 20
0.4935196850393701
 30
0.0
 10
-1.011377952755906
 20
0.4946023622047244
 30
0.0
 10
-1.010681102362205
 20
0.4961023622047244
 30
0.0
 10
-1.010681102362205
 20
0.4961023622047244
 30
0.0
 10
-1.009988188976378
 20
0.4976023622047244
 30
0.0
 10
-1.009625984251969
 20
0.5003267716535433
 30
0.0
 10
-1.009625984251969
 20
0.5042716535433071
 30
0.0
 10
-1.009625984251969
 20
0.5042716535433071
 30
0.0
 10
-1.009625984251969
 20
0.5042716535433071
 30
0.0
 10
-1.009625984251969
 20
0.5817401574803149
 30
0.0
 10
-1.009625984251969
 20
0.5817401574803149
 30
0.0
 10
-1.009625984251969
 20
0.5817401574803149
 30
0.0
 10
-1.009625984251969
 20
0.5817401574803149
 30
0.0
 10
-1.030208661417323
 20
0.5817401574803149
 30
0.0
 10
-1.030208661417323
 20
0.5817401574803149
 30
0.0
 10
-1.030208661417323
 20
0.5817401574803149
 30
0.0
 10
-1.030208661417323
 20
0.5817401574803149
 30
0.0
 10
-1.030208661417323
 20
0.5887401574803149
 30
0.0
 10
-1.030208661417323
 20
0.5887401574803149
 30
0.0
 10
-1.030208661417323
 20
0.5887401574803149
 30
0.0
 10
-1.018988188976378
 20
0.5903228346456693
 30
0.0
 10
-1.00959842519685
 20
0.5935748031496063
 30
0.0
 10
-1.002043307086614
 20
0.5985196850393701
 30
0.0
  0
SPLINE
  5
33
330
1F
100
AcDbEntity
  8
LAYER_1
 62
   250
100
AcDbSpline
210
0.0
220
0.0
230
1.0
 70
    11
 71
     3
 72
    80
 73
    76
 74
     0
 42
0.0000000001
 43
0.0000000001
 40
0.0
 40
0.0
 40
0.0
 40
0.0
 40
0.0526315789473684
 40
0.0526315789473684
 40
0.0526315789473684
 40
0.0526315789473684
 40
0.1052631578947368
 40
0.1052631578947368
 40
0.1052631578947368
 40
0.1052631578947368
 40
0.1578947368421053
 40
0.1578947368421053
 40
0.1578947368421053
 40
0.1578947368421053
 40
0.2105263157894737
 40
0.2105263157894737
 40
0.2105263157894737
 40
0.2105263157894737
 40
0.2631578947368421
 40
0.2631578947368421
 40
0.2631578947368421
 40
0.2631578947368421
 40
0.3157894736842105
 40
0.3157894736842105
 40
0.3157894736842105
 40
0.3157894736842105
 40
0.3684210526315789
 40
0.3684210526315789
 40
0.3684210526315789
 40
0.3684210526315789
 40
0.4210526315789474
 40
0.4210526315789474
 40
0.4210526315789474
 40
0.4210526315789474
 40
0.4736842105263158
 40
0.4736842105263158
 40
0.4736842105263158
 40
0.4736842105263158
 40
0.5263157894736842
 40
0.5263157894736842
 40
0.5263157894736842
 40
0.5263157894736842
 40
0.5789473684210527
 40
0.5789473684210527
 40
0.5789473684210527
 40
0.5789473684210527
 40
0.631578947368421
 40
0.631578947368421
 40
0.631578947368421
 40
0.631578947368421
 40
0.6842105263157894
 40
0.6842105263157894
 40
0.6842105263157894
 40
0.6842105263157894
 40
0.7368421052631577
 40
0.7368421052631577
 40
0.7368421052631577
 40
0.7368421052631577
 40
0.7894736842105261
 40
0.7894736842105261
 40
0.7894736842105261
 40
0.7894736842105261
 40
0.8421052631578945
 40
0.8421052631578945
 40
0.8421052631578945
 40
0.8421052631578945
 40
0.8947368421052628
 40
0.8947368421052628
 40
0.8947368421052628
 40
0.8947368421052628
 40
0.9473684210526312
 40
0.9473684210526312
 40
0.9473684210526312
 40
0.9473684210526312
 40
1.0
 40
1.0
 40
1.0
 40
1.0
 10
-0.9366259842519685
 20
0.6026574803149607
 30
0.0
 10
-0.9366259842519685
 20
0.6026574803149607
 30
0.0
 10
-0.931236220472441
 20
0.6026574803149607
 30
0.0
 10
-0.931236220472441
 20
0.6026574803149607
 30
0.0
 10
-0.931236220472441
 20
0.6026574803149607
 30
0.0
 10
-0.931236220472441
 20
0.6026574803149607
 30
0.0
 10
-0.9302637795275591
 20
0.5985196850393701
 30
0.0
 10
-0.9302637795275591
 20
0.5985196850393701
 30
0.0
 10
-0.9302637795275591
 20
0.5985196850393701
 30
0.0
 10
-0.9302637795275591
 20
0.5985196850393701
 30
0.0
 10
-0.8591535433070866
 20
0.5985196850393701
 30
0.0
 10
-0.8591535433070866
 20
0.5985196850393701
 30
0.0
 10
-0.8591535433070866
 20
0.5985196850393701
 30
0.0
 10
-0.8591535433070866
 20
0.5985196850393701
 30
0.0
 10
-0.8591535433070866
 20
0.5916023622047244
 30
0.0
 10
-0.8591535433070866
 20
0.5916023622047244
 30
0.0
 10
-0.8591535433070866
 20
0.5916023622047244
 30
0.0
 10
-0.8676535433070867
 20
0.5817677165354331
 30
0.0
 10
-0.8753779527559056
 20
0.5706023622047244
 30
0.0
 10
-0.8822913385826772
 20
0.5580196850393701
 30
0.0
 10
-0.8822913385826772
 20
0.5580196850393701
 30
0.0
 10
-0.8892086614173229
 20
0.5454645669291339
 30
0.0
 10
-0.8945708661417323
 20
0.5326850393700787
 30
0.0
 10
-0.8983779527559056
 20
0.5196574803149606
 30
0.0
 10
-0.8983779527559056
 20
0.5196574803149606
 30
0.0
 10
-0.9011259842519686
 20
0.5102716535433071
 30
0.0
 10
-0.9033740157480316
 20
0.4987125984251969
 30
0.0
 10
-0.9051259842519686
 20
0.484992125984252
 30
0.0
 10
-0.9051259842519686
 20
0.484992125984252
 30
0.0
 10
-0.9051259842519686
 20
0.484992125984252
 30
0.0
 10
-0.9217913385826773
 20
0.484992125984252
 30
0.0
 10
-0.9217913385826773
 20
0.484992125984252
 30
0.0
 10
-0.9217913385826773
 20
0.484992125984252
 30
0.0
 10
-0.9201811023622047
 20
0.4971023622047244
 30
0.0
 10
-0.9175157480314961
 20
0.5084094488188976
 30
0.0
 10
-0.9137913385826773
 20
0.5189370078740158
 30
0.0
 10
-0.9137913385826773
 20
0.5189370078740158
 30
0.0
 10
-0.9100708661417323
 20
0.5294645669291339
 30
0.0
 10
-0.9047086614173229
 20
0.5404645669291339
 30
0.0
 10
-0.8976811023622048
 20
0.5519370078740158
 30
0.0
 10
-0.8976811023622048
 20
0.5519370078740158
 30
0.0
 10
-0.8906535433070867
 20
0.5634094488188977
 30
0.0
 10
-0.8821259842519685
 20
0.5748543307086614
 30
0.0
 10
-0.8720708661417324
 20
0.5862952755905512
 30
0.0
 10
-0.8720708661417324
 20
0.5862952755905512
 30
0.0
 10
-0.8720708661417324
 20
0.5862952755905512
 30
0.0
 10
-0.9227913385826772
 20
0.5862952755905512
 30
0.0
 10
-0.9227913385826772
 20
0.5862952755905512
 30
0.0
 10
-0.9227913385826772
 20
0.5862952755905512
 30
0.0
 10
-0.9264606299212599
 20
0.5862952755905512
 30
0.0
 10
-0.928988188976378
 20
0.5861299212598425
 30
0.0
 10
-0.9303464566929134
 20
0.5857401574803149
 30
0.0
 10
-0.9303464566929134
 20
0.5857401574803149
 30
0.0
 10
-0.9317086614173229
 20
0.5853543307086614
 30
0.0
 10
-0.9327637795275591
 20
0.5847677165354331
 30
0.0
 10
-0.9335157480314961
 20
0.5839645669291339
 30
0.0
 10
-0.9335157480314961
 20
0.5839645669291339
 30
0.0
 10
-0.9342913385826772
 20
0.5831299212598425
 30
0.0
 10
-0.9349330708661418
 20
0.5816850393700788
 30
0.0
 10
-0.935488188976378
 20
0.5796299212598426
 30
0.0
 10
-0.935488188976378
 20
0.5796299212598426
 30
0.0
 10
-0.935488188976378
 20
0.5796299212598426
 30
0.0
 10
-0.9358740157480315
 20
0.5781023622047244
 30
0.0
 10
-0.9358740157480315
 20
0.5781023622047244
 30
0.0
 10
-0.9358740157480315
 20
0.5781023622047244
 30
0.0
 10
-0.9358740157480315
 20
0.5781023622047244
 30
0.0
 10
-0.9386535433070866
 20
0.568492125984252
 30
0.0
 10
-0.9386535433070866
 20
0.568492125984252
 30
0.0
 10
-0.9386535433070866
 20
0.568492125984252
 30
0.0
 10
-0.9386535433070866
 20
0.568492125984252
 30
0.0
 10
-0.9455708661417324
 20
0.5699645669291339
 30
0.0
 10
-0.9455708661417324
 20
0.5699645669291339
 30
0.0
 10
-0.9455708661417324
 20
0.5699645669291339
 30
0.0
 10
-0.9455708661417324
 20
0.5699645669291339
 30
0.0
 10
-0.9366259842519685
 20
0.6026574803149607
 30
0.0
 10
-0.9366259842519685
 20
0.6026574803149607
 30
0.0
  0
SPLINE
  5
34
330
1F
100
AcDbEntity
  8
LAYER_1
 62
   250
100
AcDbSpline
210
0.0
220
0.0
230
1.0
 70
    11
 71
     3
 72
    48
 73
    44
 74
     0
 42
0.0000000001
 43
0.0000000001
 40
0.0
 40
0.0
 40
0.0
 40
0.0
 40
0.0909090909090909
 40
0.0909090909090909
 40
0.0909090909090909
 40
0.0909090909090909
 40
0.1818181818181818
 40
0.1818181818181818
 40
0.1818181818181818
 40
0.1818181818181818
 40
0.2727272727272727
 40
0.2727272727272727
 40
0.2727272727272727
 40
0.2727272727272727
 40
0.3636363636363637
 40
0.3636363636363637
 40
0.3636363636363637
 40
0.3636363636363637
 40
0.4545454545454546
 40
0.4545454545454546
 40
0.4545454545454546
 40
0.4545454545454546
 40
0.5454545454545455
 40
0.5454545454545455
 40
0.5454545454545455
 40
0.5454545454545455
 40
0.6363636363636365
 40
0.6363636363636365
 40
0.6363636363636365
 40
0.6363636363636365
 40
0.7272727272727274
 40
0.7272727272727274
 40
0.7272727272727274
 40
0.7272727272727274
 40
0.8181818181818183
 40
0.8181818181818183
 40
0.8181818181818183
 40
0.8181818181818183
 40
0.9090909090909093
 40
0.9090909090909093
 40
0.9090909090909093
 40
0.9090909090909093
 40
1.0
 40
1.0
 40
1.0
 40
1.0
 10
-0.7994015748031497
 20
0.6004645669291339
 30
0.0
 10
-0.7910433070866142
 20
0.6004645669291339
 30
0.0
 10
-0.783736220472441
 20
0.5983503937007875
 30
0.0
 10
-0.7775157480314962
 20
0.5940748031496064
 30
0.0
 10
-0.7775157480314962
 20
0.5940748031496064
 30
0.0
 10
-0.7712637795275591
 20
0.5898228346456693
 30
0.0
 10
-0.7662086614173229
 20
0.5831299212598425
 30
0.0
 10
-0.7622913385826772
 20
0.5740196850393701
 30
0.0
 10
-0.7622913385826772
 20
0.5740196850393701
 30
0.0
 10
-0.7583740157480315
 20
0.5649094488188977
 30
0.0
 10
-0.7564291338582677
 20
0.5538543307086614
 30
0.0
 10
-0.7564291338582677
 20
0.5409094488188977
 30
0.0
 10
-0.7564291338582677
 20
0.5409094488188977
 30
0.0
 10
-0.7564291338582677
 20
0.5216850393700787
 30
0.0
 10
-0.761236220472441
 20
0.506740157480315
 30
0.0
 10
-0.7708464566929134
 20
0.4960472440944882
 30
0.0
 10
-0.7708464566929134
 20
0.4960472440944882
 30
0.0
 10
-0.7786535433070867
 20
0.4873818897637796
 30
0.0
 10
-0.788515748031496
 20
0.4830472440944882
 30
0.0
 10
-0.8004566929133858
 20
0.4830472440944882
 30
0.0
 10
-0.8004566929133858
 20
0.4830472440944882
 30
0.0
 10
-0.8085433070866142
 20
0.4830472440944882
 30
0.0
 10
-0.8157086614173229
 20
0.4851850393700788
 30
0.0
 10
-0.8219291338582677
 20
0.4895196850393701
 30
0.0
 10
-0.8219291338582677
 20
0.4895196850393701
 30
0.0
 10
-0.8281811023622048
 20
0.4938267716535433
 30
0.0
 10
-0.833236220472441
 20
0.5002992125984253
 30
0.0
 10
-0.8370708661417323
 20
0.5089094488188977
 30
0.0
 10
-0.8370708661417323
 20
0.5089094488188977
 30
0.0
 10
-0.8409291338582677
 20
0.5175472440944882
 30
0.0
 10
-0.8428464566929135
 20
0.528492125984252
 30
0.0
 10
-0.8428464566929135
 20
0.5417952755905512
 30
0.0
 10
-0.8428464566929135
 20
0.5417952755905512
 30
0.0
 10
-0.8428464566929135
 20
0.5551850393700788
 30
0.0
 10
-0.8409566929133858
 20
0.5661299212598425
 30
0.0
 10
-0.8372086614173229
 20
0.5746023622047244
 30
0.0
 10
-0.8372086614173229
 20
0.5746023622047244
 30
0.0
 10
-0.8334291338582678
 20
0.5830472440944882
 30
0.0
 10
-0.8282913385826772
 20
0.5894921259842519
 30
0.0
 10
-0.8217913385826772
 20
0.5938818897637795
 30
0.0
 10
-0.8217913385826772
 20
0.5938818897637795
 30
0.0
 10
-0.8152637795275591
 20
0.5982677165354331
 30
0.0
 10
-0.8078188976377954
 20
0.6004645669291339
 30
0.0
 10
-0.7994015748031497
 20
0.6004645669291339
 30
0.0
  0
SPLINE
  5
35
330
1F
100
AcDbEntity
  8
LAYER_1
 62
   250
100
AcDbSpline
210
0.0
220
0.0
230
1.0
 70
    11
 71
     3
 72
    56
 73
    52
 74
     0
 42
0.0000000001
 43
0.0000000001
 40
0.0
 40
0.0
 40
0.0
 40
0.0
 40
0.0769230769230769
 40
0.0769230769230769
 40
0.0769230769230769
 40
0.0769230769230769
 40
0.1538461538461539
 40
0.1538461538461539
 40
0.1538461538461539
 40
0.1538461538461539
 40
0.2307692307692308
 40
0.2307692307692308
 40
0.2307692307692308
 40
0.2307692307692308
 40
0.3076923076923077
 40
0.3076923076923077
 40
0.3076923076923077
 40
0.3076923076923077
 40
0.3846153846153846
 40
0.3846153846153846
 40
0.3846153846153846
 40
0.3846153846153846
 40
0.4615384615384616
 40
0.4615384615384616
 40
0.4615384615384616
 40
0.4615384615384616
 40
0.5384615384615386
 40
0.5384615384615386
 40
0.5384615384615386
 40
0.5384615384615386
 40
0.6153846153846154
 40
0.6153846153846154
 40
0.6153846153846154
 40
0.6153846153846154
 40
0.6923076923076923
 40
0.6923076923076923
 40
0.6923076923076923
 40
0.6923076923076923
 40
0.7692307692307692
 40
0.7692307692307692
 40
0.7692307692307692
 40
0.7692307692307692
 40
0.846153846153846
 40
0.846153846153846
 40
0.846153846153846
 40
0.846153846153846
 40
0.9230769230769229
 40
0.9230769230769229
 40
0.9230769230769229
 40
0.9230769230769229
 40
1.0
 40
1.0
 40
1.0
 40
1.0
 10
-0.7997913385826772
 20
0.5924094488188977
 30
0.0
 10
-0.8054566929133858
 20
0.5924094488188977
 30
0.0
 10
-0.8104015748031497
 20
0.5903543307086614
 30
0.0
 10
-0.8147086614173229
 20
0.586240157480315
 30
0.0
 10
-0.8147086614173229
 20
0.586240157480315
 30
0.0
 10
-0.8184291338582678
 20
0.5826574803149607
 30
0.0
 10
-0.8214015748031497
 20
0.5770196850393701
 30
0.0
 10
-0.8235708661417324
 20
0.5692952755905512
 30
0.0
 10
-0.8235708661417324
 20
0.5692952755905512
 30
0.0
 10
-0.8260708661417323
 20
0.5605196850393701
 30
0.0
 10
-0.8273188976377953
 20
0.5507952755905512
 30
0.0
 10
-0.8273188976377953
 20
0.5401574803149607
 30
0.0
 10
-0.8273188976377953
 20
0.5401574803149607
 30
0.0
 10
-0.8273188976377953
 20
0.5319094488188977
 30
0.0
 10
-0.8265393700787402
 20
0.5244370078740158
 30
0.0
 10
-0.824984251968504
 20
0.517740157480315
 30
0.0
 10
-0.824984251968504
 20
0.517740157480315
 30
0.0
 10
-0.8234566929133859
 20
0.5110472440944882
 30
0.0
 10
-0.8214015748031497
 20
0.5058267716535433
 30
0.0
 10
-0.8188464566929135
 20
0.5021299212598426
 30
0.0
 10
-0.8188464566929135
 20
0.5021299212598426
 30
0.0
 10
-0.8162913385826772
 20
0.4984094488188977
 30
0.0
 10
-0.8134015748031497
 20
0.4956574803149607
 30
0.0
 10
-0.8101811023622048
 20
0.4938543307086614
 30
0.0
 10
-0.8101811023622048
 20
0.4938543307086614
 30
0.0
 10
-0.8069566929133859
 20
0.4920748031496063
 30
0.0
 10
-0.8035433070866143
 20
0.4911850393700787
 30
0.0
 10
-0.7999566929133859
 20
0.4911850393700787
 30
0.0
 10
-0.7999566929133859
 20
0.4911850393700787
 30
0.0
 10
-0.7945984251968504
 20
0.4911850393700787
 30
0.0
 10
-0.7895708661417323
 20
0.4932716535433071
 30
0.0
 10
-0.7849015748031496
 20
0.4974370078740158
 30
0.0
 10
-0.7849015748031496
 20
0.4974370078740158
 30
0.0
 10
-0.7811811023622047
 20
0.5008543307086615
 30
0.0
 10
-0.7782086614173228
 20
0.5059645669291338
 30
0.0
 10
-0.7760433070866142
 20
0.512740157480315
 30
0.0
 10
-0.7760433070866142
 20
0.512740157480315
 30
0.0
 10
-0.7734291338582677
 20
0.520992125984252
 30
0.0
 10
-0.7721259842519685
 20
0.5306850393700787
 30
0.0
 10
-0.7721259842519685
 20
0.5417952755905512
 30
0.0
 10
-0.7721259842519685
 20
0.5417952755905512
 30
0.0
 10
-0.7721259842519685
 20
0.5532952755905513
 30
0.0
 10
-0.7734566929133858
 20
0.5630748031496063
 30
0.0
 10
-0.7761259842519686
 20
0.5711023622047244
 30
0.0
 10
-0.7761259842519686
 20
0.5711023622047244
 30
0.0
 10
-0.7787913385826772
 20
0.5791299212598425
 30
0.0
 10
-0.7820433070866142
 20
0.5846850393700788
 30
0.0
 10
-0.7859291338582678
 20
0.5877677165354331
 30
0.0
 10
-0.7859291338582678
 20
0.5877677165354331
 30
0.0
 10
-0.7898188976377953
 20
0.5908818897637795
 30
0.0
 10
-0.7944291338582677
 20
0.5924094488188977
 30
0.0
 10
-0.7997913385826772
 20
0.5924094488188977
 30
0.0
  0
SPLINE
  5
36
330
1F
100
AcDbEntity
  8
LAYER_1
 62
   250
100
AcDbSpline
210
0.0
220
0.0
230
1.0
 70
    11
 71
     3
 72
   132
 73
   128
 74
     0
 42
0.0000000001
 43
0.0000000001
 40
0.0
 40
0.0
 40
0.0
 40
0.0
 40
0.03125
 40
0.03125
 40
0.03125
 40
0.03125
 40
0.0625
 40
0.0625
 40
0.0625
 40
0.0625
 40
0.09375
 40
0.09375
 40
0.09375
 40
0.09375
 40
0.125
 40
0.125
 40
0.125
 40
0.125
 40
0.15625
 40
0.15625
 40
0.15625
 40
0.15625
 40
0.1875
 40
0.1875
 40
0.1875
 40
0.1875
 40
0.21875
 40
0.21875
 40
0.21875
 40
0.21875
 40
0.25
 40
0.25
 40
0.25
 40
0.25
 40
0.28125
 40
0.28125
 40
0.28125
 40
0.28125
 40
0.3125
 40
0.3125
 40
0.3125
 40
0.3125
 40
0.34375
 40
0.34375
 40
0.34375
 40
0.34375
 40
0.375
 40
0.375
 40
0.375
 40
0.375
 40
0.40625
 40
0.40625
 40
0.40625
 40
0.40625
 40
0.4375
 40
0.4375
 40
0.4375
 40
0.4375
 40
0.46875
 40
0.46875
 40
0.46875
 40
0.46875
 40
0.5
 40
0.5
 40
0.5
 40
0.5
 40
0.53125
 40
0.53125
 40
0.53125
 40
0.53125
 40
0.5625
 40
0.5625
 40
0.5625
 40
0.5625
 40
0.59375
 40
0.59375
 40
0.59375
 40
0.59375
 40
0.625
 40
0.625
 40
0.625
 40
0.625
 40
0.65625
 40
0.65625
 40
0.65625
 40
0.65625
 40
0.6875
 40
0.6875
 40
0.6875
 40
0.6875
 40
0.71875
 40
0.71875
 40
0.71875
 40
0.71875
 40
0.75
 40
0.75
 40
0.75
 40
0.75
 40
0.78125
 40
0.78125
 40
0.78125
 40
0.78125
 40
0.8125
 40
0.8125
 40
0.8125
 40
0.8125
 40
0.84375
 40
0.84375
 40
0.84375
 40
0.84375
 40
0.875
 40
0.875
 40
0.875
 40
0.875
 40
0.90625
 40
0.90625
 40
0.90625
 40
0.90625
 40
0.9375
 40
0.9375
 40
0.9375
 40
0.9375
 40
0.96875
 40
0.96875
 40
0.96875
 40
0.96875
 40
1.0
 40
1.0
 40
1.0
 40
1.0
 10
-0.7255669291338583
 20
0.5985196850393701
 30
0.0
 10
-0.7255669291338583
 20
0.5985196850393701
 30
0.0
 10
-0.6749566929133859
 20
0.5985196850393701
 30
0.0
 10
-0.6749566929133859
 20
0.5985196850393701
 30
0.0
 10
-0.6749566929133859
 20
0.5985196850393701
 30
0.0
 10
-0.6718740157480315
 20
0.5985196850393701
 30
0.0
 10
-0.669984251968504
 20
0.5986850393700788
 30
0.0
 10
-0.6693464566929134
 20
0.5990196850393701
 30
0.0
 10
-0.6693464566929134
 20
0.5990196850393701
 30
0.0
 10
-0.6684291338582677
 20
0.5995472440944882
 30
0.0
 10
-0.6678740157480315
 20
0.6007125984251969
 30
0.0
 10
-0.6677086614173229
 20
0.602492125984252
 30
0.0
 10
-0.6677086614173229
 20
0.602492125984252
 30
0.0
 10
-0.6677086614173229
 20
0.602492125984252
 30
0.0
 10
-0.6617637795275591
 20
0.602492125984252
 30
0.0
 10
-0.6617637795275591
 20
0.602492125984252
 30
0.0
 10
-0.6617637795275591
 20
0.602492125984252
 30
0.0
 10
-0.6617637795275591
 20
0.602492125984252
 30
0.0
 10
-0.6617637795275591
 20
0.5853228346456694
 30
0.0
 10
-0.6617637795275591
 20
0.5853228346456694
 30
0.0
 10
-0.6617637795275591
 20
0.5853228346456694
 30
0.0
 10
-0.6617637795275591
 20
0.5853228346456694
 30
0.0
 10
-0.7180118110236221
 20
0.5853228346456694
 30
0.0
 10
-0.7180118110236221
 20
0.5853228346456694
 30
0.0
 10
-0.7180118110236221
 20
0.5853228346456694
 30
0.0
 10
-0.7180118110236221
 20
0.5853228346456694
 30
0.0
 10
-0.7194015748031496
 20
0.5566850393700787
 30
0.0
 10
-0.7194015748031496
 20
0.5566850393700787
 30
0.0
 10
-0.7194015748031496
 20
0.5566850393700787
 30
0.0
 10
-0.7170669291338583
 20
0.5573543307086615
 30
0.0
 10
-0.7140944881889764
 20
0.5578818897637795
 30
0.0
 10
-0.710511811023622
 20
0.5583267716535433
 30
0.0
 10
-0.710511811023622
 20
0.5583267716535433
 30
0.0
 10
-0.7059015748031496
 20
0.5588543307086614
 30
0.0
 10
-0.7017913385826772
 20
0.5591299212598425
 30
0.0
 10
-0.6981496062992126
 20
0.5591299212598425
 30
0.0
 10
-0.6981496062992126
 20
0.5591299212598425
 30
0.0
 10
-0.6890944881889765
 20
0.5591299212598425
 30
0.0
 10
-0.6812086614173228
 20
0.557492125984252
 30
0.0
 10
-0.6744566929133858
 20
0.554240157480315
 30
0.0
 10
-0.6744566929133858
 20
0.554240157480315
 30
0.0
 10
-0.667736220472441
 20
0.550992125984252
 30
0.0
 10
-0.6626259842519685
 20
0.5465196850393701
 30
0.0
 10
-0.6591259842519686
 20
0.5408543307086614
 30
0.0
 10
-0.6591259842519686
 20
0.5408543307086614
 30
0.0
 10
-0.6556259842519685
 20
0.5351850393700788
 30
0.0
 10
-0.6538740157480315
 20
0.5288543307086614
 30
0.0
 10
-0.6538740157480315
 20
0.5218543307086614
 30
0.0
 10
-0.6538740157480315
 20
0.5218543307086614
 30
0.0
 10
-0.6538740157480315
 20
0.5110196850393701
 30
0.0
 10
-0.6579566929133859
 20
0.5018267716535433
 30
0.0
 10
-0.6660944881889764
 20
0.4942992125984252
 30
0.0
 10
-0.6660944881889764
 20
0.4942992125984252
 30
0.0
 10
-0.6742362204724409
 20
0.4867992125984252
 30
0.0
 10
-0.6845944881889764
 20
0.4830472440944882
 30
0.0
 10
-0.6971811023622048
 20
0.4830472440944882
 30
0.0
 10
-0.6971811023622048
 20
0.4830472440944882
 30
0.0
 10
-0.7044566929133859
 20
0.4830472440944882
 30
0.0
 10
-0.7110118110236221
 20
0.4843543307086615
 30
0.0
 10
-0.7169015748031496
 20
0.4869370078740158
 30
0.0
 10
-0.7169015748031496
 20
0.4869370078740158
 30
0.0
 10
-0.7227913385826772
 20
0.4895472440944882
 30
0.0
 10
-0.7274015748031496
 20
0.492992125984252
 30
0.0
 10
-0.7307086614173228
 20
0.497240157480315
 30
0.0
 10
-0.7307086614173228
 20
0.497240157480315
 30
0.0
 10
-0.7340118110236221
 20
0.501492125984252
 30
0.0
 10
-0.7356771653543307
 20
0.505240157480315
 30
0.0
 10
-0.7356771653543307
 20
0.5084370078740158
 30
0.0
 10
-0.7356771653543307
 20
0.5084370078740158
 30
0.0
 10
-0.7356771653543307
 20
0.5105472440944883
 30
0.0
 10
-0.7349566929133858
 20
0.5123818897637795
 30
0.0
 10
-0.7335393700787402
 20
0.5139370078740158
 30
0.0
 10
-0.7335393700787402
 20
0.5139370078740158
 30
0.0
 10
-0.7321496062992127
 20
0.5154645669291339
 30
0.0
 10
-0.7303188976377953
 20
0.5162401574803149
 30
0.0
 10
-0.7280944881889764
 20
0.5162401574803149
 30
0.0
 10
-0.7280944881889764
 20
0.5162401574803149
 30
0.0
 10
-0.7258188976377953
 20
0.5162401574803149
 30
0.0
 10
-0.7238188976377953
 20
0.5152992125984253
 30
0.0
 10
-0.7220669291338583
 20
0.5133818897637795
 30
0.0
 10
-0.7220669291338583
 20
0.5133818897637795
 30
0.0
 10
-0.7210944881889764
 20
0.5124094488188976
 30
0.0
 10
-0.7199291338582677
 20
0.5100196850393701
 30
0.0
 10
-0.7185669291338583
 20
0.506240157480315
 30
0.0
 10
-0.7185669291338583
 20
0.506240157480315
 30
0.0
 10
-0.716736220472441
 20
0.5009094488188977
 30
0.0
 10
-0.713984251968504
 20
0.4970196850393701
 30
0.0
 10
-0.7103464566929134
 20
0.4945196850393701
 30
0.0
 10
-0.7103464566929134
 20
0.4945196850393701
 30
0.0
 10
-0.7067913385826772
 20
0.4919645669291339
 30
0.0
 10
-0.702263779527559
 20
0.4906850393700787
 30
0.0
 10
-0.6968464566929135
 20
0.4906850393700787
 30
0.0
 10
-0.6968464566929135
 20
0.4906850393700787
 30
0.0
 10
-0.6914291338582678
 20
0.4906850393700787
 30
0.0
 10
-0.6865944881889764
 20
0.4918818897637796
 30
0.0
 10
-0.6823740157480315
 20
0.494240157480315
 30
0.0
 10
-0.6823740157480315
 20
0.494240157480315
 30
0.0
 10
-0.6781220472440945
 20
0.4965748031496063
 30
0.0
 10
-0.6747913385826772
 20
0.499992125984252
 30
0.0
 10
-0.6723464566929134
 20
0.5044094488188977
 30
0.0
 10
-0.6723464566929134
 20
0.5044094488188977
 30
0.0
 10
-0.6699015748031496
 20
0.5088267716535433
 30
0.0
 10
-0.6686811023622048
 20
0.513740157480315
 30
0.0
 10
-0.6686811023622048
 20
0.5191574803149607
 30
0.0
 10
-0.6686811023622048
 20
0.5191574803149607
 30
0.0
 10
-0.6686811023622048
 20
0.5248818897637796
 30
0.0
 10
-0.6700118110236221
 20
0.5299370078740158
 30
0.0
 10
-0.6726535433070866
 20
0.5343818897637795
 30
0.0
 10
-0.6726535433070866
 20
0.5343818897637795
 30
0.0
 10
-0.6752637795275591
 20
0.5388267716535433
 30
0.0
 10
-0.6790393700787402
 20
0.5422952755905512
 30
0.0
 10
-0.6839566929133859
 20
0.5447125984251969
 30
0.0
 10
-0.6839566929133859
 20
0.5447125984251969
 30
0.0
 10
-0.6888740157480315
 20
0.5471574803149607
 30
0.0
 10
-0.6948464566929135
 20
0.5483818897637796
 30
0.0
 10
-0.7019015748031496
 20
0.5483818897637796
 30
0.0
 10
-0.7019015748031496
 20
0.5483818897637796
 30
0.0
 10
-0.7061811023622048
 20
0.5483818897637796
 30
0.0
 10
-0.7107913385826772
 20
0.5479370078740158
 30
0.0
 10
-0.7156811023622047
 20
0.546992125984252
 30
0.0
 10
-0.7156811023622047
 20
0.546992125984252
 30
0.0
 10
-0.7205944881889764
 20
0.5460748031496063
 30
0.0
 10
-0.7248188976377953
 20
0.5449094488188977
 30
0.0
 10
-0.7283464566929134
 20
0.543492125984252
 30
0.0
 10
-0.7283464566929134
 20
0.543492125984252
 30
0.0
 10
-0.7283464566929134
 20
0.543492125984252
 30
0.0
 10
-0.7255669291338583
 20
0.5985196850393701
 30
0.0
 10
-0.7255669291338583
 20
0.5985196850393701
 30
0.0
  0
SPLINE
  5
37
330
1F
100
AcDbEntity
  8
LAYER_1
 62
   250
100
AcDbSpline
210
0.0
220
0.0
230
1.0
 70
    11
 71
     3
 72
    80
 73
    76
 74
     0
 42
0.0000000001
 43
0.0000000001
 40
0.0
 40
0.0
 40
0.0
 40
0.0
 40
0.0526315789473684
 40
0.0526315789473684
 40
0.0526315789473684
 40
0.0526315789473684
 40
0.1052631578947368
 40
0.1052631578947368
 40
0.1052631578947368
 40
0.1052631578947368
 40
0.1578947368421053
 40
0.1578947368421053
 40
0.1578947368421053
 40
0.1578947368421053
 40
0.2105263157894737
 40
0.2105263157894737
 40
0.2105263157894737
 40
0.2105263157894737
 40
0.2631578947368421
 40
0.2631578947368421
 40
0.2631578947368421
 40
0.2631578947368421
 40
0.3157894736842105
 40
0.3157894736842105
 40
0.3157894736842105
 40
0.3157894736842105
 40
0.3684210526315789
 40
0.3684210526315789
 40
0.3684210526315789
 40
0.3684210526315789
 40
0.4210526315789474
 40
0.4210526315789474
 40
0.4210526315789474
 40
0.4210526315789474
 40
0.4736842105263158
 40
0.4736842105263158
 40
0.4736842105263158
 40
0.4736842105263158
 40
0.5263157894736842
 40
0.5263157894736842
 40
0.5263157894736842
 40
0.5263157894736842
 40
0.5789473684210527
 40
0.5789473684210527
 40
0.5789473684210527
 40
0.5789473684210527
 40
0.631578947368421
 40
0.631578947368421
 40
0.631578947368421
 40
0.631578947368421
 40
0.6842105263157894
 40
0.6842105263157894
 40
0.6842105263157894
 40
0.6842105263157894
 40
0.7368421052631577
 40
0.7368421052631577
 40
0.7368421052631577
 40
0.7368421052631577
 40
0.7894736842105261
 40
0.7894736842105261
 40
0.7894736842105261
 40
0.7894736842105261
 40
0.8421052631578945
 40
0.8421052631578945
 40
0.8421052631578945
 40
0.8421052631578945
 40
0.8947368421052628
 40
0.8947368421052628
 40
0.8947368421052628
 40
0.8947368421052628
 40
0.9473684210526312
 40
0.9473684210526312
 40
0.9473684210526312
 40
0.9473684210526312
 40
1.0
 40
1.0
 40
1.0
 40
1.0
 10
-1.666610236220472
 20
0.4151574803149606
 30
0.0
 10
-1.666610236220472
 20
0.4151574803149606
 30
0.0
 10
-1.661220472440945
 20
0.4151574803149606
 30
0.0
 10
-1.661220472440945
 20
0.4151574803149606
 30
0.0
 10
-1.661220472440945
 20
0.4151574803149606
 30
0.0
 10
-1.661220472440945
 20
0.4151574803149606
 30
0.0
 10
-1.660248031496063
 20
0.4110196850393701
 30
0.0
 10
-1.660248031496063
 20
0.4110196850393701
 30
0.0
 10
-1.660248031496063
 20
0.4110196850393701
 30
0.0
 10
-1.660248031496063
 20
0.4110196850393701
 30
0.0
 10
-1.589137795275591
 20
0.4110196850393701
 30
0.0
 10
-1.589137795275591
 20
0.4110196850393701
 30
0.0
 10
-1.589137795275591
 20
0.4110196850393701
 30
0.0
 10
-1.589137795275591
 20
0.4110196850393701
 30
0.0
 10
-1.589137795275591
 20
0.4041023622047245
 30
0.0
 10
-1.589137795275591
 20
0.4041023622047245
 30
0.0
 10
-1.589137795275591
 20
0.4041023622047245
 30
0.0
 10
-1.597637795275591
 20
0.3942677165354331
 30
0.0
 10
-1.60536220472441
 20
0.3831023622047244
 30
0.0
 10
-1.612275590551181
 20
0.3705196850393701
 30
0.0
 10
-1.612275590551181
 20
0.3705196850393701
 30
0.0
 10
-1.619192913385827
 20
0.3579645669291339
 30
0.0
 10
-1.624555118110236
 20
0.3451850393700788
 30
0.0
 10
-1.62836220472441
 20
0.3321574803149606
 30
0.0
 10
-1.62836220472441
 20
0.3321574803149606
 30
0.0
 10
-1.631110236220473
 20
0.3227716535433071
 30
0.0
 10
-1.633358267716536
 20
0.3112125984251969
 30
0.0
 10
-1.635110236220473
 20
0.297492125984252
 30
0.0
 10
-1.635110236220473
 20
0.297492125984252
 30
0.0
 10
-1.635110236220473
 20
0.297492125984252
 30
0.0
 10
-1.651775590551181
 20
0.297492125984252
 30
0.0
 10
-1.651775590551181
 20
0.297492125984252
 30
0.0
 10
-1.651775590551181
 20
0.297492125984252
 30
0.0
 10
-1.650165354330709
 20
0.3096023622047244
 30
0.0
 10
-1.6475
 20
0.3209094488188977
 30
0.0
 10
-1.643775590551181
 20
0.3314370078740158
 30
0.0
 10
-1.643775590551181
 20
0.3314370078740158
 30
0.0
 10
-1.640055118110236
 20
0.3419645669291339
 30
0.0
 10
-1.634692913385827
 20
0.3529645669291339
 30
0.0
 10
-1.627665354330709
 20
0.3644370078740158
 30
0.0
 10
-1.627665354330709
 20
0.3644370078740158
 30
0.0
 10
-1.620637795275591
 20
0.3759094488188977
 30
0.0
 10
-1.612110236220472
 20
0.3873543307086614
 30
0.0
 10
-1.602055118110236
 20
0.3987952755905512
 30
0.0
 10
-1.602055118110236
 20
0.3987952755905512
 30
0.0
 10
-1.602055118110236
 20
0.3987952755905512
 30
0.0
 10
-1.652775590551181
 20
0.3987952755905512
 30
0.0
 10
-1.652775590551181
 20
0.3987952755905512
 30
0.0
 10
-1.652775590551181
 20
0.3987952755905512
 30
0.0
 10
-1.656444881889764
 20
0.3987952755905512
 30
0.0
 10
-1.658972440944882
 20
0.3986299212598425
 30
0.0
 10
-1.660330708661417
 20
0.398240157480315
 30
0.0
 10
-1.660330708661417
 20
0.398240157480315
 30
0.0
 10
-1.661692913385827
 20
0.3978543307086614
 30
0.0
 10
-1.662748031496063
 20
0.3972677165354331
 30
0.0
 10
-1.6635
 20
0.3964645669291339
 30
0.0
 10
-1.6635
 20
0.3964645669291339
 30
0.0
 10
-1.664275590551181
 20
0.3956299212598425
 30
0.0
 10
-1.664917322834646
 20
0.3941850393700788
 30
0.0
 10
-1.665472440944882
 20
0.3921299212598425
 30
0.0
 10
-1.665472440944882
 20
0.3921299212598425
 30
0.0
 10
-1.665472440944882
 20
0.3921299212598425
 30
0.0
 10
-1.665858267716535
 20
0.3906023622047244
 30
0.0
 10
-1.665858267716535
 20
0.3906023622047244
 30
0.0
 10
-1.665858267716535
 20
0.3906023622047244
 30
0.0
 10
-1.665858267716535
 20
0.3906023622047244
 30
0.0
 10
-1.668637795275591
 20
0.380992125984252
 30
0.0
 10
-1.668637795275591
 20
0.380992125984252
 30
0.0
 10
-1.668637795275591
 20
0.380992125984252
 30
0.0
 10
-1.668637795275591
 20
0.380992125984252
 30
0.0
 10
-1.675555118110236
 20
0.3824645669291339
 30
0.0
 10
-1.675555118110236
 20
0.3824645669291339
 30
0.0
 10
-1.675555118110236
 20
0.3824645669291339
 30
0.0
 10
-1.675555118110236
 20
0.3824645669291339
 30
0.0
 10
-1.666610236220472
 20
0.4151574803149606
 30
0.0
 10
-1.666610236220472
 20
0.4151574803149606
 30
0.0
  0
SPLINE
  5
38
330
1F
100
AcDbEntity
  8
LAYER_1
 62
   250
100
AcDbSpline
210
0.0
220
0.0
230
1.0
 70
    11
 71
     3
 72
    20
 73
    16
 74
     0
 42
0.0000000001
 43
0.0000000001
 40
0.0
 40
0.0
 40
0.0
 40
0.0
 40
0.25
 40
0.25
 40
0.25
 40
0.25
 40
0.5
 40
0.5
 40
0.5
 40
0.5
 40
0.75
 40
0.75
 40
0.75
 40
0.75
 40
1.0
 40
1.0
 40
1.0
 40
1.0
 10
-1.499830708661417
 20
0.4168818897637796
 30
0.0
 10
-1.499830708661417
 20
0.4168818897637796
 30
0.0
 10
-1.555413385826772
 20
0.2611850393700788
 30
0.0
 10
-1.555413385826772
 20
0.2611850393700788
 30
0.0
 10
-1.555413385826772
 20
0.2611850393700788
 30
0.0
 10
-1.555413385826772
 20
0.2611850393700788
 30
0.0
 10
-1.567468503937008
 20
0.2611850393700788
 30
0.0
 10
-1.567468503937008
 20
0.2611850393700788
 30
0.0
 10
-1.567468503937008
 20
0.2611850393700788
 30
0.0
 10
-1.567468503937008
 20
0.2611850393700788
 30
0.0
 10
-1.512220472440945
 20
0.4168818897637796
 30
0.0
 10
-1.512220472440945
 20
0.4168818897637796
 30
0.0
 10
-1.512220472440945
 20
0.4168818897637796
 30
0.0
 10
-1.512220472440945
 20
0.4168818897637796
 30
0.0
 10
-1.499830708661417
 20
0.4168818897637796
 30
0.0
 10
-1.499830708661417
 20
0.4168818897637796
 30
0.0
  0
SPLINE
  5
39
330
1F
100
AcDbEntity
  8
LAYER_1
 62
   250
100
AcDbSpline
210
0.0
220
0.0
230
1.0
 70
    11
 71
     3
 72
    72
 73
    68
 74
     0
 42
0.0000000001
 43
0.0000000001
 40
0.0
 40
0.0
 40
0.0
 40
0.0
 40
0.0588235294117647
 40
0.0588235294117647
 40
0.0588235294117647
 40
0.0588235294117647
 40
0.1176470588235294
 40
0.1176470588235294
 40
0.1176470588235294
 40
0.1176470588235294
 40
0.1764705882352941
 40
0.1764705882352941
 40
0.1764705882352941
 40
0.1764705882352941
 40
0.2352941176470588
 40
0.2352941176470588
 40
0.2352941176470588
 40
0.2352941176470588
 40
0.2941176470588235
 40
0.2941176470588235
 40
0.2941176470588235
 40
0.2941176470588235
 40
0.3529411764705883
 40
0.3529411764705883
 40
0.3529411764705883
 40
0.3529411764705883
 40
0.411764705882353
 40
0.411764705882353
 40
0.411764705882353
 40
0.411764705882353
 40
0.4705882352941177
 40
0.4705882352941177
 40
0.4705882352941177
 40
0.4705882352941177
 40
0.5294117647058824
 40
0.5294117647058824
 40
0.5294117647058824
 40
0.5294117647058824
 40
0.5882352941176471
 40
0.5882352941176471
 40
0.5882352941176471
 40
0.5882352941176471
 40
0.6470588235294118
 40
0.6470588235294118
 40
0.6470588235294118
 40
0.6470588235294118
 40
0.7058823529411765
 40
0.7058823529411765
 40
0.7058823529411765
 40
0.7058823529411765
 40
0.7647058823529412
 40
0.7647058823529412
 40
0.7647058823529412
 40
0.7647058823529412
 40
0.823529411764706
 40
0.823529411764706
 40
0.823529411764706
 40
0.823529411764706
 40
0.8823529411764707
 40
0.8823529411764707
 40
0.8823529411764707
 40
0.8823529411764707
 40
0.9411764705882354
 40
0.9411764705882354
 40
0.9411764705882354
 40
0.9411764705882354
 40
1.0
 40
1.0
 40
1.0
 40
1.0
 10
-1.425275590551181
 20
0.4110196850393701
 30
0.0
 10
-1.425275590551181
 20
0.4110196850393701
 30
0.0
 10
-1.419192913385827
 20
0.4110196850393701
 30
0.0
 10
-1.419192913385827
 20
0.4110196850393701
 30
0.0
 10
-1.419192913385827
 20
0.4110196850393701
 30
0.0
 10
-1.419192913385827
 20
0.4110196850393701
 30
0.0
 10
-1.419192913385827
 20
0.3167716535433071
 30
0.0
 10
-1.419192913385827
 20
0.3167716535433071
 30
0.0
 10
-1.419192913385827
 20
0.3167716535433071
 30
0.0
 10
-1.419192913385827
 20
0.3123267716535433
 30
0.0
 10
-1.418885826771654
 20
0.3094645669291339
 30
0.0
 10
-1.418330708661417
 20
0.3081850393700787
 30
0.0
 10
-1.418330708661417
 20
0.3081850393700787
 30
0.0
 10
-1.417748031496063
 20
0.3069094488188977
 30
0.0
 10
-1.416830708661417
 20
0.3059645669291339
 30
0.0
 10
-1.415527559055118
 20
0.3052992125984252
 30
0.0
 10
-1.415527559055118
 20
0.3052992125984252
 30
0.0
 10
-1.414220472440945
 20
0.3046574803149607
 30
0.0
 10
-1.411637795275591
 20
0.3043267716535433
 30
0.0
 10
-1.407775590551181
 20
0.3043267716535433
 30
0.0
 10
-1.407775590551181
 20
0.3043267716535433
 30
0.0
 10
-1.407775590551181
 20
0.3043267716535433
 30
0.0
 10
-1.399803149606299
 20
0.3043267716535433
 30
0.0
 10
-1.399803149606299
 20
0.3043267716535433
 30
0.0
 10
-1.399803149606299
 20
0.3043267716535433
 30
0.0
 10
-1.399803149606299
 20
0.3043267716535433
 30
0.0
 10
-1.399803149606299
 20
0.297492125984252
 30
0.0
 10
-1.399803149606299
 20
0.297492125984252
 30
0.0
 10
-1.399803149606299
 20
0.297492125984252
 30
0.0
 10
-1.399803149606299
 20
0.297492125984252
 30
0.0
 10
-1.45344094488189
 20
0.297492125984252
 30
0.0
 10
-1.45344094488189
 20
0.297492125984252
 30
0.0
 10
-1.45344094488189
 20
0.297492125984252
 30
0.0
 10
-1.45344094488189
 20
0.297492125984252
 30
0.0
 10
-1.45344094488189
 20
0.3043267716535433
 30
0.0
 10
-1.45344094488189
 20
0.3043267716535433
 30
0.0
 10
-1.45344094488189
 20
0.3043267716535433
 30
0.0
 10
-1.45344094488189
 20
0.3043267716535433
 30
0.0
 10
-1.444582677165355
 20
0.3043267716535433
 30
0.0
 10
-1.444582677165355
 20
0.3043267716535433
 30
0.0
 10
-1.444582677165355
 20
0.3043267716535433
 30
0.0
 10
-1.440720472440945
 20
0.3043267716535433
 30
0.0
 10
-1.438165354330709
 20
0.3046574803149607
 30
0.0
 10
-1.436885826771654
 20
0.3053543307086614
 30
0.0
 10
-1.436885826771654
 20
0.3053543307086614
 30
0.0
 10
-1.435610236220473
 20
0.3060196850393701
 30
0.0
 10
-1.434610236220473
 20
0.3071023622047244
 30
0.0
 10
-1.433913385826772
 20
0.3086023622047244
 30
0.0
 10
-1.433913385826772
 20
0.3086023622047244
 30
0.0
 10
-1.433220472440945
 20
0.3101023622047244
 30
0.0
 10
-1.432858267716536
 20
0.3128267716535433
 30
0.0
 10
-1.432858267716536
 20
0.3167716535433071
 30
0.0
 10
-1.432858267716536
 20
0.3167716535433071
 30
0.0
 10
-1.432858267716536
 20
0.3167716535433071
 30
0.0
 10
-1.432858267716536
 20
0.394240157480315
 30
0.0
 10
-1.432858267716536
 20
0.394240157480315
 30
0.0
 10
-1.432858267716536
 20
0.394240157480315
 30
0.0
 10
-1.432858267716536
 20
0.394240157480315
 30
0.0
 10
-1.45344094488189
 20
0.394240157480315
 30
0.0
 10
-1.45344094488189
 20
0.394240157480315
 30
0.0
 10
-1.45344094488189
 20
0.394240157480315
 30
0.0
 10
-1.45344094488189
 20
0.394240157480315
 30
0.0
 10
-1.45344094488189
 20
0.401240157480315
 30
0.0
 10
-1.45344094488189
 20
0.401240157480315
 30
0.0
 10
-1.45344094488189
 20
0.401240157480315
 30
0.0
 10
-1.442220472440945
 20
0.4028228346456693
 30
0.0
 10
-1.432830708661417
 20
0.4060748031496063
 30
0.0
 10
-1.425275590551181
 20
0.4110196850393701
 30
0.0
  0
SPLINE
  5
3A
330
1F
100
AcDbEntity
  8
LAYER_1
 62
   250
100
AcDbSpline
210
0.0
220
0.0
230
1.0
 70
    11
 71
     3
 72
    84
 73
    80
 74
     0
 42
0.0000000001
 43
0.0000000001
 40
0.0
 40
0.0
 40
0.0
 40
0.0
 40
0.05
 40
0.05
 40
0.05
 40
0.05
 40
0.1
 40
0.1
 40
0.1
 40
0.1
 40
0.15
 40
0.15
 40
0.15
 40
0.15
 40
0.2
 40
0.2
 40
0.2
 40
0.2
 40
0.25
 40
0.25
 40
0.25
 40
0.25
 40
0.3
 40
0.3
 40
0.3
 40
0.3
 40
0.35
 40
0.35
 40
0.35
 40
0.35
 40
0.4
 40
0.4
 40
0.4
 40
0.4
 40
0.45
 40
0.45
 40
0.45
 40
0.45
 40
0.4999999999999999
 40
0.4999999999999999
 40
0.4999999999999999
 40
0.4999999999999999
 40
0.5499999999999999
 40
0.5499999999999999
 40
0.5499999999999999
 40
0.5499999999999999
 40
0.6
 40
0.6
 40
0.6
 40
0.6
 40
0.65
 40
0.65
 40
0.65
 40
0.65
 40
0.7000000000000001
 40
0.7000000000000001
 40
0.7000000000000001
 40
0.7000000000000001
 40
0.7500000000000001
 40
0.7500000000000001
 40
0.7500000000000001
 40
0.7500000000000001
 40
0.8000000000000002
 40
0.8000000000000002
 40
0.8000000000000002
 40
0.8000000000000002
 40
0.8500000000000002
 40
0.8500000000000002
 40
0.8500000000000002
 40
0.8500000000000002
 40
0.9000000000000002
 40
0.9000000000000002
 40
0.9000000000000002
 40
0.9000000000000002
 40
0.9500000000000003
 40
0.9500000000000003
 40
0.9500000000000003
 40
0.9500000000000003
 40
1.0
 40
1.0
 40
1.0
 40
1.0
 10
-1.293610236220472
 20
0.4131299212598426
 30
0.0
 10
-1.293610236220472
 20
0.4131299212598426
 30
0.0
 10
-1.293610236220472
 20
0.4057125984251969
 30
0.0
 10
-1.293610236220472
 20
0.4057125984251969
 30
0.0
 10
-1.293610236220472
 20
0.4057125984251969
 30
0.0
 10
-1.306996062992126
 20
0.4055748031496063
 30
0.0
 10
-1.317830708661417
 20
0.4036023622047245
 30
0.0
 10
-1.326106299212599
 20
0.3998818897637795
 30
0.0
 10
-1.326106299212599
 20
0.3998818897637795
 30
0.0
 10
-1.334385826771654
 20
0.3961299212598425
 30
0.0
 10
-1.340468503937008
 20
0.3905196850393701
 30
0.0
 10
-1.344385826771654
 20
0.3830748031496063
 30
0.0
 10
-1.344385826771654
 20
0.3830748031496063
 30
0.0
 10
-1.348303149606299
 20
0.3756023622047244
 30
0.0
 10
-1.350496062992126
 20
0.3664094488188976
 30
0.0
 10
-1.350968503937008
 20
0.3555196850393701
 30
0.0
 10
-1.350968503937008
 20
0.3555196850393701
 30
0.0
 10
-1.348220472440945
 20
0.359740157480315
 30
0.0
 10
-1.345385826771654
 20
0.3630472440944882
 30
0.0
 10
-1.342468503937008
 20
0.3654094488188976
 30
0.0
 10
-1.342468503937008
 20
0.3654094488188976
 30
0.0
 10
-1.33957874015748
 20
0.3677677165354331
 30
0.0
 10
-1.336192913385827
 20
0.3695748031496063
 30
0.0
 10
-1.332303149606299
 20
0.3708543307086614
 30
0.0
 10
-1.332303149606299
 20
0.3708543307086614
 30
0.0
 10
-1.328413385826772
 20
0.3721299212598425
 30
0.0
 10
-1.324165354330709
 20
0.3727677165354331
 30
0.0
 10
-1.319551181102362
 20
0.3727677165354331
 30
0.0
 10
-1.319551181102362
 20
0.3727677165354331
 30
0.0
 10
-1.312192913385827
 20
0.3727677165354331
 30
0.0
 10
-1.305610236220473
 20
0.3711299212598425
 30
0.0
 10
-1.299858267716536
 20
0.3678818897637796
 30
0.0
 10
-1.299858267716536
 20
0.3678818897637796
 30
0.0
 10
-1.294110236220472
 20
0.3646299212598426
 30
0.0
 10
-1.289637795275591
 20
0.3602125984251969
 30
0.0
 10
-1.28644094488189
 20
0.3546574803149606
 30
0.0
 10
-1.28644094488189
 20
0.3546574803149606
 30
0.0
 10
-1.283248031496063
 20
0.3491023622047244
 30
0.0
 10
-1.281637795275591
 20
0.3425472440944882
 30
0.0
 10
-1.281637795275591
 20
0.3350196850393701
 30
0.0
 10
-1.281637795275591
 20
0.3350196850393701
 30
0.0
 10
-1.281637795275591
 20
0.3230196850393701
 30
0.0
 10
-1.285248031496063
 20
0.3136023622047244
 30
0.0
 10
-1.292468503937008
 20
0.3067716535433071
 30
0.0
 10
-1.292468503937008
 20
0.3067716535433071
 30
0.0
 10
-1.30044094488189
 20
0.2992716535433071
 30
0.0
 10
-1.310775590551181
 20
0.2955472440944882
 30
0.0
 10
-1.323468503937008
 20
0.2955472440944882
 30
0.0
 10
-1.323468503937008
 20
0.2955472440944882
 30
0.0
 10
-1.332637795275591
 20
0.2955472440944882
 30
0.0
 10
-1.340358267716536
 20
0.2974370078740158
 30
0.0
 10
-1.346665354330709
 20
0.301240157480315
 30
0.0
 10
-1.346665354330709
 20
0.301240157480315
 30
0.0
 10
-1.352968503937008
 20
0.3050196850393701
 30
0.0
 10
-1.357968503937008
 20
0.3108267716535433
 30
0.0
 10
-1.361692913385827
 20
0.3186574803149607
 30
0.0
 10
-1.361692913385827
 20
0.3186574803149607
 30
0.0
 10
-1.365385826771654
 20
0.3264645669291339
 30
0.0
 10
-1.367248031496063
 20
0.3361299212598425
 30
0.0
 10
-1.367248031496063
 20
0.3476299212598425
 30
0.0
 10
-1.367248031496063
 20
0.3476299212598425
 30
0.0
 10
-1.367248031496063
 20
0.3591850393700787
 30
0.0
 10
-1.365275590551181
 20
0.3694370078740158
 30
0.0
 10
-1.361358267716536
 20
0.3783818897637796
 30
0.0
 10
-1.361358267716536
 20
0.3783818897637796
 30
0.0
 10
-1.357413385826772
 20
0.3873228346456693
 30
0.0
 10
-1.351968503937008
 20
0.3945196850393701
 30
0.0
 10
-1.345023622047244
 20
0.3999370078740158
 30
0.0
 10
-1.345023622047244
 20
0.3999370078740158
 30
0.0
 10
-1.33807874015748
 20
0.4053818897637795
 30
0.0
 10
-1.330468503937008
 20
0.4089370078740158
 30
0.0
 10
-1.322220472440945
 20
0.4106023622047244
 30
0.0
 10
-1.322220472440945
 20
0.4106023622047244
 30
0.0
 10
-1.31394094488189
 20
0.4122952755905512
 30
0.0
 10
-1.306523622047244
 20
0.4131299212598426
 30
0.0
 10
-1.29994094488189
 20
0.4131299212598426
 30
0.0
 10
-1.29994094488189
 20
0.4131299212598426
 30
0.0
 10
-1.29994094488189
 20
0.4131299212598426
 30
0.0
 10
-1.293610236220472
 20
0.4131299212598426
 30
0.0
 10
-1.293610236220472
 20
0.4131299212598426
 30
0.0
  0
SPLINE
  5
3B
330
1F
100
AcDbEntity
  8
LAYER_1
 62
   250
100
AcDbSpline
210
0.0
220
0.0
230
1.0
 70
    11
 71
     3
 72
    40
 73
    36
 74
     0
 42
0.0000000001
 43
0.0000000001
 40
0.0
 40
0.0
 40
0.0
 40
0.0
 40
0.1111111111111111
 40
0.1111111111111111
 40
0.1111111111111111
 40
0.1111111111111111
 40
0.2222222222222222
 40
0.2222222222222222
 40
0.2222222222222222
 40
0.2222222222222222
 40
0.3333333333333333
 40
0.3333333333333333
 40
0.3333333333333333
 40
0.3333333333333333
 40
0.4444444444444444
 40
0.4444444444444444
 40
0.4444444444444444
 40
0.4444444444444444
 40
0.5555555555555556
 40
0.5555555555555556
 40
0.5555555555555556
 40
0.5555555555555556
 40
0.6666666666666667
 40
0.6666666666666667
 40
0.6666666666666667
 40
0.6666666666666667
 40
0.7777777777777779
 40
0.7777777777777779
 40
0.7777777777777779
 40
0.7777777777777779
 40
0.8888888888888891
 40
0.8888888888888891
 40
0.8888888888888891
 40
0.8888888888888891
 40
1.0
 40
1.0
 40
1.0
 40
1.0
 10
-1.323303149606299
 20
0.3641299212598426
 30
0.0
 10
-1.331106299212598
 20
0.3641299212598426
 30
0.0
 10
-1.337523622047244
 20
0.3611850393700787
 30
0.0
 10
-1.342551181102362
 20
0.3552677165354331
 30
0.0
 10
-1.342551181102362
 20
0.3552677165354331
 30
0.0
 10
-1.34757874015748
 20
0.3493543307086615
 30
0.0
 10
-1.35007874015748
 20
0.342240157480315
 30
0.0
 10
-1.35007874015748
 20
0.3339645669291338
 30
0.0
 10
-1.35007874015748
 20
0.3339645669291338
 30
0.0
 10
-1.35007874015748
 20
0.3281023622047244
 30
0.0
 10
-1.348858267716536
 20
0.3226850393700788
 30
0.0
 10
-1.346413385826772
 20
0.3177125984251968
 30
0.0
 10
-1.346413385826772
 20
0.3177125984251968
 30
0.0
 10
-1.343968503937008
 20
0.312740157480315
 30
0.0
 10
-1.340830708661417
 20
0.3090748031496063
 30
0.0
 10
-1.336968503937008
 20
0.3066574803149607
 30
0.0
 10
-1.336968503937008
 20
0.3066574803149607
 30
0.0
 10
-1.333137795275591
 20
0.304240157480315
 30
0.0
 10
-1.328775590551181
 20
0.3030196850393701
 30
0.0
 10
-1.323968503937008
 20
0.3030196850393701
 30
0.0
 10
-1.323968503937008
 20
0.3030196850393701
 30
0.0
 10
-1.316468503937008
 20
0.3030196850393701
 30
0.0
 10
-1.310248031496063
 20
0.3058543307086614
 30
0.0
 10
-1.305275590551181
 20
0.3115196850393701
 30
0.0
 10
-1.305275590551181
 20
0.3115196850393701
 30
0.0
 10
-1.300330708661417
 20
0.3171850393700788
 30
0.0
 10
-1.297830708661417
 20
0.3247992125984252
 30
0.0
 10
-1.297830708661417
 20
0.3343543307086614
 30
0.0
 10
-1.297830708661417
 20
0.3343543307086614
 30
0.0
 10
-1.297830708661417
 20
0.3434645669291339
 30
0.0
 10
-1.300248031496063
 20
0.3507125984251969
 30
0.0
 10
-1.30507874015748
 20
0.3560748031496063
 30
0.0
 10
-1.30507874015748
 20
0.3560748031496063
 30
0.0
 10
-1.309913385826772
 20
0.3614645669291339
 30
0.0
 10
-1.315996062992126
 20
0.3641299212598426
 30
0.0
 10
-1.323303149606299
 20
0.3641299212598426
 30
0.0
  0
SPLINE
  5
3C
330
1F
100
AcDbEntity
  8
LAYER_1
 62
   250
100
AcDbSpline
210
0.0
220
0.0
230
1.0
 70
    11
 71
     3
 72
    60
 73
    56
 74
     0
 42
0.0000000001
 43
0.0000000001
 40
0.0
 40
0.0
 40
0.0
 40
0.0
 40
0.0714285714285714
 40
0.0714285714285714
 40
0.0714285714285714
 40
0.0714285714285714
 40
0.1428571428571429
 40
0.1428571428571429
 40
0.1428571428571429
 40
0.1428571428571429
 40
0.2142857142857143
 40
0.2142857142857143
 40
0.2142857142857143
 40
0.2142857142857143
 40
0.2857142857142857
 40
0.2857142857142857
 40
0.2857142857142857
 40
0.2857142857142857
 40
0.3571428571428571
 40
0.3571428571428571
 40
0.3571428571428571
 40
0.3571428571428571
 40
0.4285714285714285
 40
0.4285714285714285
 40
0.4285714285714285
 40
0.4285714285714285
 40
0.4999999999999999
 40
0.4999999999999999
 40
0.4999999999999999
 40
0.4999999999999999
 40
0.5714285714285713
 40
0.5714285714285713
 40
0.5714285714285713
 40
0.5714285714285713
 40
0.6428571428571427
 40
0.6428571428571427
 40
0.6428571428571427
 40
0.6428571428571427
 40
0.7142857142857141
 40
0.7142857142857141
 40
0.7142857142857141
 40
0.7142857142857141
 40
0.7857142857142855
 40
0.7857142857142855
 40
0.7857142857142855
 40
0.7857142857142855
 40
0.8571428571428569
 40
0.8571428571428569
 40
0.8571428571428569
 40
0.8571428571428569
 40
0.9285714285714283
 40
0.9285714285714283
 40
0.9285714285714283
 40
0.9285714285714283
 40
1.0
 40
1.0
 40
1.0
 40
1.0
 10
-1.264468503937008
 20
0.3689370078740158
 30
0.0
 10
-1.264468503937008
 20
0.3689370078740158
 30
0.0
 10
-1.268858267716535
 20
0.3743267716535433
 30
0.0
 10
-1.268858267716535
 20
0.3743267716535433
 30
0.0
 10
-1.268858267716535
 20
0.3743267716535433
 30
0.0
 10
-1.257744094488189
 20
0.3833818897637795
 30
0.0
 10
-1.252161417322835
 20
0.3909370078740158
 30
0.0
 10
-1.252161417322835
 20
0.3970196850393701
 30
0.0
 10
-1.252161417322835
 20
0.3970196850393701
 30
0.0
 10
-1.252161417322835
 20
0.3977125984251969
 30
0.0
 10
-1.252216535433071
 20
0.3986023622047245
 30
0.0
 10
-1.252330708661417
 20
0.3996299212598425
 30
0.0
 10
-1.252330708661417
 20
0.3996299212598425
 30
0.0
 10
-1.253244094488189
 20
0.399240157480315
 30
0.0
 10
-1.254161417322835
 20
0.3989370078740158
 30
0.0
 10
-1.255023622047244
 20
0.398740157480315
 30
0.0
 10
-1.255023622047244
 20
0.398740157480315
 30
0.0
 10
-1.255885826771654
 20
0.3985196850393701
 30
0.0
 10
-1.256688976377953
 20
0.3984094488188977
 30
0.0
 10
-1.257468503937008
 20
0.3984094488188977
 30
0.0
 10
-1.257468503937008
 20
0.3984094488188977
 30
0.0
 10
-1.26007874015748
 20
0.3984094488188977
 30
0.0
 10
-1.262161417322835
 20
0.399240157480315
 30
0.0
 10
-1.263716535433071
 20
0.4009370078740158
 30
0.0
 10
-1.263716535433071
 20
0.4009370078740158
 30
0.0
 10
-1.265303149606299
 20
0.4026023622047245
 30
0.0
 10
-1.266078740157481
 20
0.404740157480315
 30
0.0
 10
-1.266078740157481
 20
0.4073543307086615
 30
0.0
 10
-1.266078740157481
 20
0.4073543307086615
 30
0.0
 10
-1.266078740157481
 20
0.4099094488188976
 30
0.0
 10
-1.265133858267717
 20
0.4121299212598426
 30
0.0
 10
-1.263244094488189
 20
0.4140196850393701
 30
0.0
 10
-1.263244094488189
 20
0.4140196850393701
 30
0.0
 10
-1.261330708661417
 20
0.4159370078740158
 30
0.0
 10
-1.259051181102362
 20
0.4168818897637796
 30
0.0
 10
-1.256413385826772
 20
0.4168818897637796
 30
0.0
 10
-1.256413385826772
 20
0.4168818897637796
 30
0.0
 10
-1.252716535433071
 20
0.4168818897637796
 30
0.0
 10
-1.249551181102362
 20
0.4154094488188976
 30
0.0
 10
-1.246913385826772
 20
0.4124370078740158
 30
0.0
 10
-1.246913385826772
 20
0.4124370078740158
 30
0.0
 10
-1.244303149606299
 20
0.409492125984252
 30
0.0
 10
-1.242968503937008
 20
0.4056850393700788
 30
0.0
 10
-1.242968503937008
 20
0.4010196850393701
 30
0.0
 10
-1.242968503937008
 20
0.4010196850393701
 30
0.0
 10
-1.242968503937008
 20
0.3979645669291339
 30
0.0
 10
-1.243606299212599
 20
0.3947677165354331
 30
0.0
 10
-1.244858267716535
 20
0.3914370078740158
 30
0.0
 10
-1.244858267716535
 20
0.3914370078740158
 30
0.0
 10
-1.246106299212598
 20
0.3881023622047244
 30
0.0
 10
-1.247913385826772
 20
0.3850196850393701
 30
0.0
 10
-1.250303149606299
 20
0.3821574803149607
 30
0.0
 10
-1.250303149606299
 20
0.3821574803149607
 30
0.0
 10
-1.252688976377953
 20
0.3793267716535433
 30
0.0
 10
-1.257413385826772
 20
0.3749094488188977
 30
0.0
 10
-1.264468503937008
 20
0.3689370078740158
 30
0.0
  0
SPLINE
  5
3D
330
1F
100
AcDbEntity
  8
LAYER_1
 62
   250
100
AcDbSpline
210
0.0
220
0.0
230
1.0
 70
    11
 71
     3
 72
    60
 73
    56
 74
     0
 42
0.0000000001
 43
0.0000000001
 40
0.0
 40
0.0
 40
0.0
 40
0.0
 40
0.0714285714285714
 40
0.0714285714285714
 40
0.0714285714285714
 40
0.0714285714285714
 40
0.1428571428571429
 40
0.1428571428571429
 40
0.1428571428571429
 40
0.1428571428571429
 40
0.2142857142857143
 40
0.2142857142857143
 40
0.2142857142857143
 40
0.2142857142857143
 40
0.2857142857142857
 40
0.2857142857142857
 40
0.2857142857142857
 40
0.2857142857142857
 40
0.3571428571428571
 40
0.3571428571428571
 40
0.3571428571428571
 40
0.3571428571428571
 40
0.4285714285714285
 40
0.4285714285714285
 40
0.4285714285714285
 40
0.4285714285714285
 40
0.4999999999999999
 40
0.4999999999999999
 40
0.4999999999999999
 40
0.4999999999999999
 40
0.5714285714285713
 40
0.5714285714285713
 40
0.5714285714285713
 40
0.5714285714285713
 40
0.6428571428571427
 40
0.6428571428571427
 40
0.6428571428571427
 40
0.6428571428571427
 40
0.7142857142857141
 40
0.7142857142857141
 40
0.7142857142857141
 40
0.7142857142857141
 40
0.7857142857142855
 40
0.7857142857142855
 40
0.7857142857142855
 40
0.7857142857142855
 40
0.8571428571428569
 40
0.8571428571428569
 40
0.8571428571428569
 40
0.8571428571428569
 40
0.9285714285714283
 40
0.9285714285714283
 40
0.9285714285714283
 40
0.9285714285714283
 40
1.0
 40
1.0
 40
1.0
 40
1.0
 10
-1.235413385826772
 20
0.3689370078740158
 30
0.0
 10
-1.235413385826772
 20
0.3689370078740158
 30
0.0
 10
-1.239803149606299
 20
0.3743267716535433
 30
0.0
 10
-1.239803149606299
 20
0.3743267716535433
 30
0.0
 10
-1.239803149606299
 20
0.3743267716535433
 30
0.0
 10
-1.228688976377953
 20
0.3833818897637795
 30
0.0
 10
-1.223106299212599
 20
0.3909370078740158
 30
0.0
 10
-1.223106299212599
 20
0.3970196850393701
 30
0.0
 10
-1.223106299212599
 20
0.3970196850393701
 30
0.0
 10
-1.223106299212599
 20
0.3977125984251969
 30
0.0
 10
-1.223161417322835
 20
0.3986023622047245
 30
0.0
 10
-1.223275590551181
 20
0.3996299212598425
 30
0.0
 10
-1.223275590551181
 20
0.3996299212598425
 30
0.0
 10
-1.224188976377953
 20
0.399240157480315
 30
0.0
 10
-1.225106299212599
 20
0.3989370078740158
 30
0.0
 10
-1.225968503937008
 20
0.398740157480315
 30
0.0
 10
-1.225968503937008
 20
0.398740157480315
 30
0.0
 10
-1.226830708661417
 20
0.3985196850393701
 30
0.0
 10
-1.227661417322835
 20
0.3984094488188977
 30
0.0
 10
-1.228496062992126
 20
0.3984094488188977
 30
0.0
 10
-1.228496062992126
 20
0.3984094488188977
 30
0.0
 10
-1.231051181102362
 20
0.3984094488188977
 30
0.0
 10
-1.233106299212599
 20
0.399240157480315
 30
0.0
 10
-1.234661417322835
 20
0.4009370078740158
 30
0.0
 10
-1.234661417322835
 20
0.4009370078740158
 30
0.0
 10
-1.236244094488189
 20
0.4026023622047245
 30
0.0
 10
-1.237023622047244
 20
0.404740157480315
 30
0.0
 10
-1.237023622047244
 20
0.4073543307086615
 30
0.0
 10
-1.237023622047244
 20
0.4073543307086615
 30
0.0
 10
-1.237023622047244
 20
0.4099094488188976
 30
0.0
 10
-1.23607874015748
 20
0.4121299212598426
 30
0.0
 10
-1.234188976377953
 20
0.4140196850393701
 30
0.0
 10
-1.234188976377953
 20
0.4140196850393701
 30
0.0
 10
-1.232303149606299
 20
0.4159370078740158
 30
0.0
 10
-1.229996062992126
 20
0.4168818897637796
 30
0.0
 10
-1.227358267716536
 20
0.4168818897637796
 30
0.0
 10
-1.227358267716536
 20
0.4168818897637796
 30
0.0
 10
-1.223661417322835
 20
0.4168818897637796
 30
0.0
 10
-1.220496062992126
 20
0.4154094488188976
 30
0.0
 10
-1.217858267716536
 20
0.4124370078740158
 30
0.0
 10
-1.217858267716536
 20
0.4124370078740158
 30
0.0
 10
-1.215248031496063
 20
0.409492125984252
 30
0.0
 10
-1.213913385826772
 20
0.4056850393700788
 30
0.0
 10
-1.213913385826772
 20
0.4010196850393701
 30
0.0
 10
-1.213913385826772
 20
0.4010196850393701
 30
0.0
 10
-1.213913385826772
 20
0.3979645669291339
 30
0.0
 10
-1.214551181102362
 20
0.3947677165354331
 30
0.0
 10
-1.215803149606299
 20
0.3914370078740158
 30
0.0
 10
-1.215803149606299
 20
0.3914370078740158
 30
0.0
 10
-1.217051181102362
 20
0.3881023622047244
 30
0.0
 10
-1.218858267716535
 20
0.3850196850393701
 30
0.0
 10
-1.221244094488189
 20
0.3821574803149607
 30
0.0
 10
-1.221244094488189
 20
0.3821574803149607
 30
0.0
 10
-1.223633858267717
 20
0.3793267716535433
 30
0.0
 10
-1.228358267716535
 20
0.3749094488188977
 30
0.0
 10
-1.235413385826772
 20
0.3689370078740158
 30
0.0
  0
SPLINE
  5
3E
330
1F
100
AcDbEntity
  8
LAYER_1
 62
   250
100
AcDbSpline
210
0.0
220
0.0
230
1.0
 70
    11
 71
     3
 72
   204
 73
   200
 74
     0
 42
0.0000000001
 43
0.0000000001
 40
0.0
 40
0.0
 40
0.0
 40
0.0
 40
0.02
 40
0.02
 40
0.02
 40
0.02
 40
0.04
 40
0.04
 40
0.04
 40
0.04
 40
0.06
 40
0.06
 40
0.06
 40
0.06
 40
0.08
 40
0.08
 40
0.08
 40
0.08
 40
0.1
 40
0.1
 40
0.1
 40
0.1
 40
0.12
 40
0.12
 40
0.12
 40
0.12
 40
0.14
 40
0.14
 40
0.14
 40
0.14
 40
0.16
 40
0.16
 40
0.16
 40
0.16
 40
0.18
 40
0.18
 40
0.18
 40
0.18
 40
0.2
 40
0.2
 40
0.2
 40
0.2
 40
0.22
 40
0.22
 40
0.22
 40
0.22
 40
0.24
 40
0.24
 40
0.24
 40
0.24
 40
0.26
 40
0.26
 40
0.26
 40
0.26
 40
0.28
 40
0.28
 40
0.28
 40
0.28
 40
0.3
 40
0.3
 40
0.3
 40
0.3
 40
0.32
 40
0.32
 40
0.32
 40
0.32
 40
0.34
 40
0.34
 40
0.34
 40
0.34
 40
0.36
 40
0.36
 40
0.36
 40
0.36
 40
0.3800000000000001
 40
0.3800000000000001
 40
0.3800000000000001
 40
0.3800000000000001
 40
0.4000000000000001
 40
0.4000000000000001
 40
0.4000000000000001
 40
0.4000000000000001
 40
0.4200000000000001
 40
0.4200000000000001
 40
0.4200000000000001
 40
0.4200000000000001
 40
0.4400000000000001
 40
0.4400000000000001
 40
0.4400000000000001
 40
0.4400000000000001
 40
0.4600000000000001
 40
0.4600000000000001
 40
0.4600000000000001
 40
0.4600000000000001
 40
0.4800000000000002
 40
0.4800000000000002
 40
0.4800000000000002
 40
0.4800000000000002
 40
0.5000000000000001
 40
0.5000000000000001
 40
0.5000000000000001
 40
0.5000000000000001
 40
0.5200000000000001
 40
0.5200000000000001
 40
0.5200000000000001
 40
0.5200000000000001
 40
0.5400000000000002
 40
0.5400000000000002
 40
0.5400000000000002
 40
0.5400000000000002
 40
0.5600000000000002
 40
0.5600000000000002
 40
0.5600000000000002
 40
0.5600000000000002
 40
0.5800000000000002
 40
0.5800000000000002
 40
0.5800000000000002
 40
0.5800000000000002
 40
0.6000000000000002
 40
0.6000000000000002
 40
0.6000000000000002
 40
0.6000000000000002
 40
0.6200000000000002
 40
0.6200000000000002
 40
0.6200000000000002
 40
0.6200000000000002
 40
0.6400000000000002
 40
0.6400000000000002
 40
0.6400000000000002
 40
0.6400000000000002
 40
0.6600000000000003
 40
0.6600000000000003
 40
0.6600000000000003
 40
0.6600000000000003
 40
0.6800000000000003
 40
0.6800000000000003
 40
0.6800000000000003
 40
0.6800000000000003
 40
0.7000000000000003
 40
0.7000000000000003
 40
0.7000000000000003
 40
0.7000000000000003
 40
0.7200000000000003
 40
0.7200000000000003
 40
0.7200000000000003
 40
0.7200000000000003
 40
0.7400000000000003
 40
0.7400000000000003
 40
0.7400000000000003
 40
0.7400000000000003
 40
0.7600000000000003
 40
0.7600000000000003
 40
0.7600000000000003
 40
0.7600000000000003
 40
0.7800000000000004
 40
0.7800000000000004
 40
0.7800000000000004
 40
0.7800000000000004
 40
0.8000000000000004
 40
0.8000000000000004
 40
0.8000000000000004
 40
0.8000000000000004
 40
0.8200000000000004
 40
0.8200000000000004
 40
0.8200000000000004
 40
0.8200000000000004
 40
0.8400000000000004
 40
0.8400000000000004
 40
0.8400000000000004
 40
0.8400000000000004
 40
0.8600000000000004
 40
0.8600000000000004
 40
0.8600000000000004
 40
0.8600000000000004
 40
0.8800000000000005
 40
0.8800000000000005
 40
0.8800000000000005
 40
0.8800000000000005
 40
0.9000000000000005
 40
0.9000000000000005
 40
0.9000000000000005
 40
0.9000000000000005
 40
0.9200000000000005
 40
0.9200000000000005
 40
0.9200000000000005
 40
0.9200000000000005
 40
0.9400000000000005
 40
0.9400000000000005
 40
0.9400000000000005
 40
0.9400000000000005
 40
0.9600000000000005
 40
0.9600000000000005
 40
0.9600000000000005
 40
0.9600000000000005
 40
0.9800000000000005
 40
0.9800000000000005
 40
0.9800000000000005
 40
0.9800000000000005
 40
1.0
 40
1.0
 40
1.0
 40
1.0
 10
-1.151606299212598
 20
0.3760196850393701
 30
0.0
 10
-1.151606299212598
 20
0.3760196850393701
 30
0.0
 10
-1.110661417322835
 20
0.3760196850393701
 30
0.0
 10
-1.110661417322835
 20
0.3760196850393701
 30
0.0
 10
-1.110661417322835
 20
0.3760196850393701
 30
0.0
 10
-1.110661417322835
 20
0.3760196850393701
 30
0.0
 10
-1.110661417322835
 20
0.3691850393700787
 30
0.0
 10
-1.110661417322835
 20
0.3691850393700787
 30
0.0
 10
-1.110661417322835
 20
0.3691850393700787
 30
0.0
 10
-1.110661417322835
 20
0.3691850393700787
 30
0.0
 10
-1.113496062992126
 20
0.3691850393700787
 30
0.0
 10
-1.113496062992126
 20
0.3691850393700787
 30
0.0
 10
-1.113496062992126
 20
0.3691850393700787
 30
0.0
 10
-1.115133858267717
 20
0.3691850393700787
 30
0.0
 10
-1.116633858267717
 20
0.368992125984252
 30
0.0
 10
-1.117996062992126
 20
0.3686299212598425
 30
0.0
 10
-1.117996062992126
 20
0.3686299212598425
 30
0.0
 10
-1.118799212598425
 20
0.3684094488188976
 30
0.0
 10
-1.119468503937008
 20
0.367992125984252
 30
0.0
 10
-1.119968503937008
 20
0.3673543307086614
 30
0.0
 10
-1.119968503937008
 20
0.3673543307086614
 30
0.0
 10
-1.120496062992126
 20
0.366740157480315
 30
0.0
 10
-1.120744094488189
 20
0.3661574803149607
 30
0.0
 10
-1.120744094488189
 20
0.3656023622047244
 30
0.0
 10
-1.120744094488189
 20
0.3656023622047244
 30
0.0
 10
-1.120744094488189
 20
0.3643543307086614
 30
0.0
 10
-1.119716535433071
 20
0.362492125984252
 30
0.0
 10
-1.117661417322835
 20
0.359992125984252
 30
0.0
 10
-1.117661417322835
 20
0.359992125984252
 30
0.0
 10
-1.117661417322835
 20
0.359992125984252
 30
0.0
 10
-1.106023622047244
 20
0.3453543307086615
 30
0.0
 10
-1.106023622047244
 20
0.3453543307086615
 30
0.0
 10
-1.106023622047244
 20
0.3453543307086615
 30
0.0
 10
-1.106023622047244
 20
0.3453543307086615
 30
0.0
 10
-1.09244094488189
 20
0.359992125984252
 30
0.0
 10
-1.09244094488189
 20
0.359992125984252
 30
0.0
 10
-1.09244094488189
 20
0.359992125984252
 30
0.0
 10
-1.08994094488189
 20
0.3627125984251969
 30
0.0
 10
-1.088688976377953
 20
0.364740157480315
 30
0.0
 10
-1.088688976377953
 20
0.3661023622047244
 30
0.0
 10
-1.088688976377953
 20
0.3661023622047244
 30
0.0
 10
-1.088688976377953
 20
0.3670748031496063
 30
0.0
 10
-1.089133858267717
 20
0.3678267716535433
 30
0.0
 10
-1.089996062992126
 20
0.3683818897637796
 30
0.0
 10
-1.089996062992126
 20
0.3683818897637796
 30
0.0
 10
-1.090858267716536
 20
0.3689094488188977
 30
0.0
 10
-1.092716535433071
 20
0.3691850393700787
 30
0.0
 10
-1.095606299212599
 20
0.3691850393700787
 30
0.0
 10
-1.095606299212599
 20
0.3691850393700787
 30
0.0
 10
-1.095606299212599
 20
0.3691850393700787
 30
0.0
 10
-1.098688976377953
 20
0.3691850393700787
 30
0.0
 10
-1.098688976377953
 20
0.3691850393700787
 30
0.0
 10
-1.098688976377953
 20
0.3691850393700787
 30
0.0
 10
-1.098688976377953
 20
0.3691850393700787
 30
0.0
 10
-1.098688976377953
 20
0.3760196850393701
 30
0.0
 10
-1.098688976377953
 20
0.3760196850393701
 30
0.0
 10
-1.098688976377953
 20
0.3760196850393701
 30
0.0
 10
-1.098688976377953
 20
0.3760196850393701
 30
0.0
 10
-1.06394094488189
 20
0.3760196850393701
 30
0.0
 10
-1.06394094488189
 20
0.3760196850393701
 30
0.0
 10
-1.06394094488189
 20
0.3760196850393701
 30
0.0
 10
-1.06394094488189
 20
0.3760196850393701
 30
0.0
 10
-1.06394094488189
 20
0.3691850393700787
 30
0.0
 10
-1.06394094488189
 20
0.3691850393700787
 30
0.0
 10
-1.06394094488189
 20
0.3691850393700787
 30
0.0
 10
-1.067358267716535
 20
0.3690196850393701
 30
0.0
 10
-1.070303149606299
 20
0.3683267716535433
 30
0.0
 10
-1.072771653543307
 20
0.3670748031496063
 30
0.0
 10
-1.072771653543307
 20
0.3670748031496063
 30
0.0
 10
-1.075244094488189
 20
0.3658267716535433
 30
0.0
 10
-1.078161417322835
 20
0.3634645669291339
 30
0.0
 10
-1.081523622047244
 20
0.359992125984252
 30
0.0
 10
-1.081523622047244
 20
0.359992125984252
 30
0.0
 10
-1.081523622047244
 20
0.359992125984252
 30
0.0
 10
-1.100161417322835
 20
0.3406299212598425
 30
0.0
 10
-1.100161417322835
 20
0.3406299212598425
 30
0.0
 10
-1.100161417322835
 20
0.3406299212598425
 30
0.0
 10
-1.100161417322835
 20
0.3406299212598425
 30
0.0
 10
-1.076968503937008
 20
0.3141850393700787
 30
0.0
 10
-1.076968503937008
 20
0.3141850393700787
 30
0.0
 10
-1.076968503937008
 20
0.3141850393700787
 30
0.0
 10
-1.076968503937008
 20
0.3141850393700787
 30
0.0
 10
-1.07607874015748
 20
0.3130472440944882
 30
0.0
 10
-1.07607874015748
 20
0.3130472440944882
 30
0.0
 10
-1.07607874015748
 20
0.3130472440944882
 30
0.0
 10
-1.073803149606299
 20
0.3101023622047244
 30
0.0
 10
-1.071244094488189
 20
0.307740157480315
 30
0.0
 10
-1.068413385826772
 20
0.3059645669291339
 30
0.0
 10
-1.068413385826772
 20
0.3059645669291339
 30
0.0
 10
-1.066858267716536
 20
0.3049370078740158
 30
0.0
 10
-1.064413385826772
 20
0.3043818897637796
 30
0.0
 10
-1.061106299212598
 20
0.3043267716535433
 30
0.0
 10
-1.061106299212598
 20
0.3043267716535433
 30
0.0
 10
-1.061106299212598
 20
0.3043267716535433
 30
0.0
 10
-1.061106299212598
 20
0.297492125984252
 30
0.0
 10
-1.061106299212598
 20
0.297492125984252
 30
0.0
 10
-1.061106299212598
 20
0.297492125984252
 30
0.0
 10
-1.061106299212598
 20
0.297492125984252
 30
0.0
 10
-1.101051181102362
 20
0.297492125984252
 30
0.0
 10
-1.101051181102362
 20
0.297492125984252
 30
0.0
 10
-1.101051181102362
 20
0.297492125984252
 30
0.0
 10
-1.101051181102362
 20
0.297492125984252
 30
0.0
 10
-1.101051181102362
 20
0.3043267716535433
 30
0.0
 10
-1.101051181102362
 20
0.3043267716535433
 30
0.0
 10
-1.101051181102362
 20
0.3043267716535433
 30
0.0
 10
-1.101051181102362
 20
0.3043267716535433
 30
0.0
 10
-1.097633858267717
 20
0.3043267716535433
 30
0.0
 10
-1.097633858267717
 20
0.3043267716535433
 30
0.0
 10
-1.097633858267717
 20
0.3043267716535433
 30
0.0
 10
-1.095023622047244
 20
0.3043267716535433
 30
0.0
 10
-1.093385826771654
 20
0.304492125984252
 30
0.0
 10
-1.092661417322835
 20
0.3048267716535433
 30
0.0
 10
-1.092661417322835
 20
0.3048267716535433
 30
0.0
 10
-1.091496062992126
 20
0.3053543307086614
 30
0.0
 10
-1.090885826771654
 20
0.3062716535433071
 30
0.0
 10
-1.090885826771654
 20
0.3075748031496063
 30
0.0
 10
-1.090885826771654
 20
0.3075748031496063
 30
0.0
 10
-1.090885826771654
 20
0.3087716535433071
 30
0.0
 10
-1.092188976377953
 20
0.3109645669291339
 30
0.0
 10
-1.094803149606299
 20
0.3141850393700787
 30
0.0
 10
-1.094803149606299
 20
0.3141850393700787
 30
0.0
 10
-1.094803149606299
 20
0.3141850393700787
 30
0.0
 10
-1.109606299212599
 20
0.3323267716535433
 30
0.0
 10
-1.109606299212599
 20
0.3323267716535433
 30
0.0
 10
-1.109606299212599
 20
0.3323267716535433
 30
0.0
 10
-1.109606299212599
 20
0.3323267716535433
 30
0.0
 10
-1.126133858267717
 20
0.3141850393700787
 30
0.0
 10
-1.126133858267717
 20
0.3141850393700787
 30
0.0
 10
-1.126133858267717
 20
0.3141850393700787
 30
0.0
 10
-1.126133858267717
 20
0.3141850393700787
 30
0.0
 10
-1.127744094488189
 20
0.3122125984251969
 30
0.0
 10
-1.127744094488189
 20
0.3122125984251969
 30
0.0
 10
-1.127744094488189
 20
0.3122125984251969
 30
0.0
 10
-1.127744094488189
 20
0.3122125984251969
 30
0.0
 10
-1.128633858267717
 20
0.311240157480315
 30
0.0
 10
-1.128633858267717
 20
0.311240157480315
 30
0.0
 10
-1.128633858267717
 20
0.311240157480315
 30
0.0
 10
-1.129996062992126
 20
0.3097716535433071
 30
0.0
 10
-1.130688976377953
 20
0.308492125984252
 30
0.0
 10
-1.130688976377953
 20
0.3073543307086614
 30
0.0
 10
-1.130688976377953
 20
0.3073543307086614
 30
0.0
 10
-1.130688976377953
 20
0.3062992125984252
 30
0.0
 10
-1.130271653543307
 20
0.3055472440944882
 30
0.0
 10
-1.129413385826772
 20
0.3050472440944882
 30
0.0
 10
-1.129413385826772
 20
0.3050472440944882
 30
0.0
 10
-1.12857874015748
 20
0.3045748031496063
 30
0.0
 10
-1.126688976377953
 20
0.3043267716535433
 30
0.0
 10
-1.123771653543307
 20
0.3043267716535433
 30
0.0
 10
-1.123771653543307
 20
0.3043267716535433
 30
0.0
 10
-1.123771653543307
 20
0.3043267716535433
 30
0.0
 10
-1.120496062992126
 20
0.3043267716535433
 30
0.0
 10
-1.120496062992126
 20
0.3043267716535433
 30
0.0
 10
-1.120496062992126
 20
0.3043267716535433
 30
0.0
 10
-1.120496062992126
 20
0.3043267716535433
 30
0.0
 10
-1.120496062992126
 20
0.297492125984252
 30
0.0
 10
-1.120496062992126
 20
0.297492125984252
 30
0.0
 10
-1.120496062992126
 20
0.297492125984252
 30
0.0
 10
-1.120496062992126
 20
0.297492125984252
 30
0.0
 10
-1.154771653543307
 20
0.297492125984252
 30
0.0
 10
-1.154771653543307
 20
0.297492125984252
 30
0.0
 10
-1.154771653543307
 20
0.297492125984252
 30
0.0
 10
-1.154771653543307
 20
0.297492125984252
 30
0.0
 10
-1.154771653543307
 20
0.3043267716535433
 30
0.0
 10
-1.154771653543307
 20
0.3043267716535433
 30
0.0
 10
-1.154771653543307
 20
0.3043267716535433
 30
0.0
 10
-1.152106299212599
 20
0.3043818897637796
 30
0.0
 10
-1.150023622047244
 20
0.3046574803149607
 30
0.0
 10
-1.148496062992126
 20
0.3051850393700787
 30
0.0
 10
-1.148496062992126
 20
0.3051850393700787
 30
0.0
 10
-1.146996062992126
 20
0.3056850393700787
 30
0.0
 10
-1.145523622047244
 20
0.306492125984252
 30
0.0
 10
-1.144106299212599
 20
0.3075748031496063
 30
0.0
 10
-1.144106299212599
 20
0.3075748031496063
 30
0.0
 10
-1.141661417322835
 20
0.3095472440944882
 30
0.0
 10
-1.139913385826772
 20
0.3110748031496063
 30
0.0
 10
-1.138826771653543
 20
0.3122125984251969
 30
0.0
 10
-1.138826771653543
 20
0.3122125984251969
 30
0.0
 10
-1.138826771653543
 20
0.3122125984251969
 30
0.0
 10
-1.114968503937008
 20
0.3367125984251969
 30
0.0
 10
-1.114968503937008
 20
0.3367125984251969
 30
0.0
 10
-1.114968503937008
 20
0.3367125984251969
 30
0.0
 10
-1.114968503937008
 20
0.3367125984251969
 30
0.0
 10
-1.135244094488189
 20
0.359992125984252
 30
0.0
 10
-1.135244094488189
 20
0.359992125984252
 30
0.0
 10
-1.135244094488189
 20
0.359992125984252
 30
0.0
 10
-1.137799212598425
 20
0.3628818897637796
 30
0.0
 10
-1.139799212598425
 20
0.3648818897637796
 30
0.0
 10
-1.141299212598425
 20
0.3660472440944882
 30
0.0
 10
-1.141299212598425
 20
0.3660472440944882
 30
0.0
 10
-1.142799212598425
 20
0.3672125984251969
 30
0.0
 10
-1.144244094488189
 20
0.3680472440944882
 30
0.0
 10
-1.145661417322835
 20
0.368492125984252
 30
0.0
 10
-1.145661417322835
 20
0.368492125984252
 30
0.0
 10
-1.147078740157481
 20
0.3689645669291339
 30
0.0
 10
-1.149051181102362
 20
0.3691850393700787
 30
0.0
 10
-1.151606299212598
 20
0.3691850393700787
 30
0.0
 10
-1.151606299212598
 20
0.3691850393700787
 30
0.0
 10
-1.151606299212598
 20
0.3691850393700787
 30
0.0
 10
-1.151606299212598
 20
0.3760196850393701
 30
0.0
 10
-1.151606299212598
 20
0.3760196850393701
 30
0.0
  0
SPLINE
  5
3F
330
1F
100
AcDbEntity
  8
LAYER_1
 62
   250
100
AcDbSpline
210
0.0
220
0.0
230
1.0
 70
    11
 71
     3
 72
    72
 73
    68
 74
     0
 42
0.0000000001
 43
0.0000000001
 40
0.0
 40
0.0
 40
0.0
 40
0.0
 40
0.0588235294117647
 40
0.0588235294117647
 40
0.0588235294117647
 40
0.0588235294117647
 40
0.1176470588235294
 40
0.1176470588235294
 40
0.1176470588235294
 40
0.1176470588235294
 40
0.1764705882352941
 40
0.1764705882352941
 40
0.1764705882352941
 40
0.1764705882352941
 40
0.2352941176470588
 40
0.2352941176470588
 40
0.2352941176470588
 40
0.2352941176470588
 40
0.2941176470588235
 40
0.2941176470588235
 40
0.2941176470588235
 40
0.2941176470588235
 40
0.3529411764705883
 40
0.3529411764705883
 40
0.3529411764705883
 40
0.3529411764705883
 40
0.411764705882353
 40
0.411764705882353
 40
0.411764705882353
 40
0.411764705882353
 40
0.4705882352941177
 40
0.4705882352941177
 40
0.4705882352941177
 40
0.4705882352941177
 40
0.5294117647058824
 40
0.5294117647058824
 40
0.5294117647058824
 40
0.5294117647058824
 40
0.5882352941176471
 40
0.5882352941176471
 40
0.5882352941176471
 40
0.5882352941176471
 40
0.6470588235294118
 40
0.6470588235294118
 40
0.6470588235294118
 40
0.6470588235294118
 40
0.7058823529411765
 40
0.7058823529411765
 40
0.7058823529411765
 40
0.7058823529411765
 40
0.7647058823529412
 40
0.7647058823529412
 40
0.7647058823529412
 40
0.7647058823529412
 40
0.823529411764706
 40
0.823529411764706
 40
0.823529411764706
 40
0.823529411764706
 40
0.8823529411764707
 40
0.8823529411764707
 40
0.8823529411764707
 40
0.8823529411764707
 40
0.9411764705882354
 40
0.9411764705882354
 40
0.9411764705882354
 40
0.9411764705882354
 40
1.0
 40
1.0
 40
1.0
 40
1.0
 10
-0.9519685039370079
 20
0.4110196850393701
 30
0.0
 10
-0.9519685039370079
 20
0.4110196850393701
 30
0.0
 10
-0.9458858267716536
 20
0.4110196850393701
 30
0.0
 10
-0.9458858267716536
 20
0.4110196850393701
 30
0.0
 10
-0.9458858267716536
 20
0.4110196850393701
 30
0.0
 10
-0.9458858267716536
 20
0.4110196850393701
 30
0.0
 10
-0.9458858267716536
 20
0.3167716535433071
 30
0.0
 10
-0.9458858267716536
 20
0.3167716535433071
 30
0.0
 10
-0.9458858267716536
 20
0.3167716535433071
 30
0.0
 10
-0.9458858267716536
 20
0.3123267716535433
 30
0.0
 10
-0.9455787401574803
 20
0.3094645669291339
 30
0.0
 10
-0.9450236220472441
 20
0.3081850393700787
 30
0.0
 10
-0.9450236220472441
 20
0.3081850393700787
 30
0.0
 10
-0.9444409448818898
 20
0.3069094488188977
 30
0.0
 10
-0.9435236220472442
 20
0.3059645669291339
 30
0.0
 10
-0.9422204724409449
 20
0.3052992125984252
 30
0.0
 10
-0.9422204724409449
 20
0.3052992125984252
 30
0.0
 10
-0.9409133858267716
 20
0.3046574803149607
 30
0.0
 10
-0.9383307086614173
 20
0.3043267716535433
 30
0.0
 10
-0.9344685039370079
 20
0.3043267716535433
 30
0.0
 10
-0.9344685039370079
 20
0.3043267716535433
 30
0.0
 10
-0.9344685039370079
 20
0.3043267716535433
 30
0.0
 10
-0.9264960629921261
 20
0.3043267716535433
 30
0.0
 10
-0.9264960629921261
 20
0.3043267716535433
 30
0.0
 10
-0.9264960629921261
 20
0.3043267716535433
 30
0.0
 10
-0.9264960629921261
 20
0.3043267716535433
 30
0.0
 10
-0.9264960629921261
 20
0.297492125984252
 30
0.0
 10
-0.9264960629921261
 20
0.297492125984252
 30
0.0
 10
-0.9264960629921261
 20
0.297492125984252
 30
0.0
 10
-0.9264960629921261
 20
0.297492125984252
 30
0.0
 10
-0.9801338582677166
 20
0.297492125984252
 30
0.0
 10
-0.9801338582677166
 20
0.297492125984252
 30
0.0
 10
-0.9801338582677166
 20
0.297492125984252
 30
0.0
 10
-0.9801338582677166
 20
0.297492125984252
 30
0.0
 10
-0.9801338582677166
 20
0.3043267716535433
 30
0.0
 10
-0.9801338582677166
 20
0.3043267716535433
 30
0.0
 10
-0.9801338582677166
 20
0.3043267716535433
 30
0.0
 10
-0.9801338582677166
 20
0.3043267716535433
 30
0.0
 10
-0.9712755905511812
 20
0.3043267716535433
 30
0.0
 10
-0.9712755905511812
 20
0.3043267716535433
 30
0.0
 10
-0.9712755905511812
 20
0.3043267716535433
 30
0.0
 10
-0.9674133858267717
 20
0.3043267716535433
 30
0.0
 10
-0.9648582677165355
 20
0.3046574803149607
 30
0.0
 10
-0.9635787401574804
 20
0.3053543307086614
 30
0.0
 10
-0.9635787401574804
 20
0.3053543307086614
 30
0.0
 10
-0.9623031496062993
 20
0.3060196850393701
 30
0.0
 10
-0.9613031496062993
 20
0.3071023622047244
 30
0.0
 10
-0.9606062992125984
 20
0.3086023622047244
 30
0.0
 10
-0.9606062992125984
 20
0.3086023622047244
 30
0.0
 10
-0.9599133858267717
 20
0.3101023622047244
 30
0.0
 10
-0.9595511811023623
 20
0.3128267716535433
 30
0.0
 10
-0.9595511811023623
 20
0.3167716535433071
 30
0.0
 10
-0.9595511811023623
 20
0.3167716535433071
 30
0.0
 10
-0.9595511811023623
 20
0.3167716535433071
 30
0.0
 10
-0.9595511811023623
 20
0.394240157480315
 30
0.0
 10
-0.9595511811023623
 20
0.394240157480315
 30
0.0
 10
-0.9595511811023623
 20
0.394240157480315
 30
0.0
 10
-0.9595511811023623
 20
0.394240157480315
 30
0.0
 10
-0.9801338582677166
 20
0.394240157480315
 30
0.0
 10
-0.9801338582677166
 20
0.394240157480315
 30
0.0
 10
-0.9801338582677166
 20
0.394240157480315
 30
0.0
 10
-0.9801338582677166
 20
0.394240157480315
 30
0.0
 10
-0.9801338582677166
 20
0.401240157480315
 30
0.0
 10
-0.9801338582677166
 20
0.401240157480315
 30
0.0
 10
-0.9801338582677166
 20
0.401240157480315
 30
0.0
 10
-0.9689133858267717
 20
0.4028228346456693
 30
0.0
 10
-0.9595236220472442
 20
0.4060748031496063
 30
0.0
 10
-0.9519685039370079
 20
0.4110196850393701
 30
0.0
  0
SPLINE
  5
40
330
1F
100
AcDbEntity
  8
LAYER_1
 62
   250
100
AcDbSpline
210
0.0
220
0.0
230
1.0
 70
    11
 71
     3
 72
    20
 73
    16
 74
     0
 42
0.0000000001
 43
0.0000000001
 40
0.0
 40
0.0
 40
0.0
 40
0.0
 40
0.25
 40
0.25
 40
0.25
 40
0.25
 40
0.5
 40
0.5
 40
0.5
 40
0.5
 40
0.75
 40
0.75
 40
0.75
 40
0.75
 40
1.0
 40
1.0
 40
1.0
 40
1.0
 10
-0.895496062992126
 20
0.3439645669291339
 30
0.0
 10
-0.895496062992126
 20
0.3439645669291339
 30
0.0
 10
-0.8471614173228347
 20
0.3439645669291339
 30
0.0
 10
-0.8471614173228347
 20
0.3439645669291339
 30
0.0
 10
-0.8471614173228347
 20
0.3439645669291339
 30
0.0
 10
-0.8471614173228347
 20
0.3439645669291339
 30
0.0
 10
-0.8471614173228347
 20
0.3338818897637795
 30
0.0
 10
-0.8471614173228347
 20
0.3338818897637795
 30
0.0
 10
-0.8471614173228347
 20
0.3338818897637795
 30
0.0
 10
-0.8471614173228347
 20
0.3338818897637795
 30
0.0
 10
-0.895496062992126
 20
0.3338818897637795
 30
0.0
 10
-0.895496062992126
 20
0.3338818897637795
 30
0.0
 10
-0.895496062992126
 20
0.3338818897637795
 30
0.0
 10
-0.895496062992126
 20
0.3338818897637795
 30
0.0
 10
-0.895496062992126
 20
0.3439645669291339
 30
0.0
 10
-0.895496062992126
 20
0.3439645669291339
 30
0.0
  0
SPLINE
  5
41
330
1F
100
AcDbEntity
  8
LAYER_1
 62
   250
100
AcDbSpline
210
0.0
220
0.0
230
1.0
 70
    11
 71
     3
 72
   132
 73
   128
 74
     0
 42
0.0000000001
 43
0.0000000001
 40
0.0
 40
0.0
 40
0.0
 40
0.0
 40
0.03125
 40
0.03125
 40
0.03125
 40
0.03125
 40
0.0625
 40
0.0625
 40
0.0625
 40
0.0625
 40
0.09375
 40
0.09375
 40
0.09375
 40
0.09375
 40
0.125
 40
0.125
 40
0.125
 40
0.125
 40
0.15625
 40
0.15625
 40
0.15625
 40
0.15625
 40
0.1875
 40
0.1875
 40
0.1875
 40
0.1875
 40
0.21875
 40
0.21875
 40
0.21875
 40
0.21875
 40
0.25
 40
0.25
 40
0.25
 40
0.25
 40
0.28125
 40
0.28125
 40
0.28125
 40
0.28125
 40
0.3125
 40
0.3125
 40
0.3125
 40
0.3125
 40
0.34375
 40
0.34375
 40
0.34375
 40
0.34375
 40
0.375
 40
0.375
 40
0.375
 40
0.375
 40
0.40625
 40
0.40625
 40
0.40625
 40
0.40625
 40
0.4375
 40
0.4375
 40
0.4375
 40
0.4375
 40
0.46875
 40
0.46875
 40
0.46875
 40
0.46875
 40
0.5
 40
0.5
 40
0.5
 40
0.5
 40
0.53125
 40
0.53125
 40
0.53125
 40
0.53125
 40
0.5625
 40
0.5625
 40
0.5625
 40
0.5625
 40
0.59375
 40
0.59375
 40
0.59375
 40
0.59375
 40
0.625
 40
0.625
 40
0.625
 40
0.625
 40
0.65625
 40
0.65625
 40
0.65625
 40
0.65625
 40
0.6875
 40
0.6875
 40
0.6875
 40
0.6875
 40
0.71875
 40
0.71875
 40
0.71875
 40
0.71875
 40
0.75
 40
0.75
 40
0.75
 40
0.75
 40
0.78125
 40
0.78125
 40
0.78125
 40
0.78125
 40
0.8125
 40
0.8125
 40
0.8125
 40
0.8125
 40
0.84375
 40
0.84375
 40
0.84375
 40
0.84375
 40
0.875
 40
0.875
 40
0.875
 40
0.875
 40
0.90625
 40
0.90625
 40
0.90625
 40
0.90625
 40
0.9375
 40
0.9375
 40
0.9375
 40
0.9375
 40
0.96875
 40
0.96875
 40
0.96875
 40
0.96875
 40
1.0
 40
1.0
 40
1.0
 40
1.0
 10
-0.8155787401574803
 20
0.4110196850393701
 30
0.0
 10
-0.8155787401574803
 20
0.4110196850393701
 30
0.0
 10
-0.7649685039370079
 20
0.4110196850393701
 30
0.0
 10
-0.7649685039370079
 20
0.4110196850393701
 30
0.0
 10
-0.7649685039370079
 20
0.4110196850393701
 30
0.0
 10
-0.7618858267716536
 20
0.4110196850393701
 30
0.0
 10
-0.759996062992126
 20
0.4111850393700788
 30
0.0
 10
-0.7593582677165355
 20
0.4115196850393701
 30
0.0
 10
-0.7593582677165355
 20
0.4115196850393701
 30
0.0
 10
-0.7584409448818898
 20
0.4120472440944882
 30
0.0
 10
-0.7578858267716536
 20
0.4132125984251969
 30
0.0
 10
-0.7577204724409449
 20
0.414992125984252
 30
0.0
 10
-0.7577204724409449
 20
0.414992125984252
 30
0.0
 10
-0.7577204724409449
 20
0.414992125984252
 30
0.0
 10
-0.7517755905511812
 20
0.414992125984252
 30
0.0
 10
-0.7517755905511812
 20
0.414992125984252
 30
0.0
 10
-0.7517755905511812
 20
0.414992125984252
 30
0.0
 10
-0.7517755905511812
 20
0.414992125984252
 30
0.0
 10
-0.7517755905511812
 20
0.3978228346456693
 30
0.0
 10
-0.7517755905511812
 20
0.3978228346456693
 30
0.0
 10
-0.7517755905511812
 20
0.3978228346456693
 30
0.0
 10
-0.7517755905511812
 20
0.3978228346456693
 30
0.0
 10
-0.8080236220472441
 20
0.3978228346456693
 30
0.0
 10
-0.8080236220472441
 20
0.3978228346456693
 30
0.0
 10
-0.8080236220472441
 20
0.3978228346456693
 30
0.0
 10
-0.8080236220472441
 20
0.3978228346456693
 30
0.0
 10
-0.8094133858267717
 20
0.3691850393700787
 30
0.0
 10
-0.8094133858267717
 20
0.3691850393700787
 30
0.0
 10
-0.8094133858267717
 20
0.3691850393700787
 30
0.0
 10
-0.8070787401574804
 20
0.3698543307086614
 30
0.0
 10
-0.8041062992125985
 20
0.3703818897637796
 30
0.0
 10
-0.8005236220472441
 20
0.3708267716535433
 30
0.0
 10
-0.8005236220472441
 20
0.3708267716535433
 30
0.0
 10
-0.7959133858267717
 20
0.3713543307086614
 30
0.0
 10
-0.7918031496062993
 20
0.3716299212598425
 30
0.0
 10
-0.7881614173228346
 20
0.3716299212598425
 30
0.0
 10
-0.7881614173228346
 20
0.3716299212598425
 30
0.0
 10
-0.7791062992125984
 20
0.3716299212598425
 30
0.0
 10
-0.7712204724409449
 20
0.369992125984252
 30
0.0
 10
-0.7644685039370079
 20
0.366740157480315
 30
0.0
 10
-0.7644685039370079
 20
0.366740157480315
 30
0.0
 10
-0.7577480314960631
 20
0.363492125984252
 30
0.0
 10
-0.7526377952755906
 20
0.3590196850393701
 30
0.0
 10
-0.7491377952755906
 20
0.3533543307086615
 30
0.0
 10
-0.7491377952755906
 20
0.3533543307086615
 30
0.0
 10
-0.7456377952755906
 20
0.3476850393700788
 30
0.0
 10
-0.7438858267716536
 20
0.3413543307086615
 30
0.0
 10
-0.7438858267716536
 20
0.3343543307086614
 30
0.0
 10
-0.7438858267716536
 20
0.3343543307086614
 30
0.0
 10
-0.7438858267716536
 20
0.3235196850393701
 30
0.0
 10
-0.7479685039370079
 20
0.3143267716535433
 30
0.0
 10
-0.7561062992125984
 20
0.3067992125984252
 30
0.0
 10
-0.7561062992125984
 20
0.3067992125984252
 30
0.0
 10
-0.764248031496063
 20
0.2992992125984252
 30
0.0
 10
-0.7746062992125985
 20
0.2955472440944882
 30
0.0
 10
-0.7871929133858268
 20
0.2955472440944882
 30
0.0
 10
-0.7871929133858268
 20
0.2955472440944882
 30
0.0
 10
-0.7944685039370079
 20
0.2955472440944882
 30
0.0
 10
-0.8010236220472441
 20
0.2968543307086614
 30
0.0
 10
-0.8069133858267716
 20
0.2994370078740158
 30
0.0
 10
-0.8069133858267716
 20
0.2994370078740158
 30
0.0
 10
-0.8128031496062993
 20
0.3020472440944882
 30
0.0
 10
-0.8174133858267717
 20
0.305492125984252
 30
0.0
 10
-0.8207204724409449
 20
0.309740157480315
 30
0.0
 10
-0.8207204724409449
 20
0.309740157480315
 30
0.0
 10
-0.8240236220472441
 20
0.313992125984252
 30
0.0
 10
-0.8256889763779528
 20
0.317740157480315
 30
0.0
 10
-0.8256889763779528
 20
0.3209370078740158
 30
0.0
 10
-0.8256889763779528
 20
0.3209370078740158
 30
0.0
 10
-0.8256889763779528
 20
0.3230472440944882
 30
0.0
 10
-0.8249685039370079
 20
0.3248818897637795
 30
0.0
 10
-0.8235511811023623
 20
0.3264370078740158
 30
0.0
 10
-0.8235511811023623
 20
0.3264370078740158
 30
0.0
 10
-0.8221614173228347
 20
0.3279645669291339
 30
0.0
 10
-0.8203307086614173
 20
0.328740157480315
 30
0.0
 10
-0.8181062992125985
 20
0.328740157480315
 30
0.0
 10
-0.8181062992125985
 20
0.328740157480315
 30
0.0
 10
-0.8158307086614174
 20
0.328740157480315
 30
0.0
 10
-0.8138307086614174
 20
0.3277992125984252
 30
0.0
 10
-0.8120787401574804
 20
0.3258818897637795
 30
0.0
 10
-0.8120787401574804
 20
0.3258818897637795
 30
0.0
 10
-0.8111062992125985
 20
0.3249094488188977
 30
0.0
 10
-0.8099409448818898
 20
0.3225196850393701
 30
0.0
 10
-0.8085787401574803
 20
0.318740157480315
 30
0.0
 10
-0.8085787401574803
 20
0.318740157480315
 30
0.0
 10
-0.806748031496063
 20
0.3134094488188977
 30
0.0
 10
-0.803996062992126
 20
0.3095196850393701
 30
0.0
 10
-0.8003582677165355
 20
0.3070196850393701
 30
0.0
 10
-0.8003582677165355
 20
0.3070196850393701
 30
0.0
 10
-0.7968031496062993
 20
0.3044645669291339
 30
0.0
 10
-0.7922755905511811
 20
0.3031850393700787
 30
0.0
 10
-0.7868582677165354
 20
0.3031850393700787
 30
0.0
 10
-0.7868582677165354
 20
0.3031850393700787
 30
0.0
 10
-0.7814409448818898
 20
0.3031850393700787
 30
0.0
 10
-0.7766062992125985
 20
0.3043818897637796
 30
0.0
 10
-0.7723858267716536
 20
0.306740157480315
 30
0.0
 10
-0.7723858267716536
 20
0.306740157480315
 30
0.0
 10
-0.7681338582677165
 20
0.3090748031496063
 30
0.0
 10
-0.7648031496062993
 20
0.312492125984252
 30
0.0
 10
-0.7623582677165355
 20
0.3169094488188977
 30
0.0
 10
-0.7623582677165355
 20
0.3169094488188977
 30
0.0
 10
-0.7599133858267717
 20
0.3213267716535433
 30
0.0
 10
-0.7586929133858268
 20
0.326240157480315
 30
0.0
 10
-0.7586929133858268
 20
0.3316574803149606
 30
0.0
 10
-0.7586929133858268
 20
0.3316574803149606
 30
0.0
 10
-0.7586929133858268
 20
0.3373818897637795
 30
0.0
 10
-0.7600236220472442
 20
0.3424370078740158
 30
0.0
 10
-0.7626653543307087
 20
0.3468818897637795
 30
0.0
 10
-0.7626653543307087
 20
0.3468818897637795
 30
0.0
 10
-0.7652755905511811
 20
0.3513267716535433
 30
0.0
 10
-0.7690511811023623
 20
0.3547952755905512
 30
0.0
 10
-0.7739685039370079
 20
0.3572125984251969
 30
0.0
 10
-0.7739685039370079
 20
0.3572125984251969
 30
0.0
 10
-0.7788858267716535
 20
0.3596574803149606
 30
0.0
 10
-0.7848582677165354
 20
0.3608818897637796
 30
0.0
 10
-0.7919133858267717
 20
0.3608818897637796
 30
0.0
 10
-0.7919133858267717
 20
0.3608818897637796
 30
0.0
 10
-0.7961929133858268
 20
0.3608818897637796
 30
0.0
 10
-0.8008031496062993
 20
0.3604370078740158
 30
0.0
 10
-0.8056929133858268
 20
0.359492125984252
 30
0.0
 10
-0.8056929133858268
 20
0.359492125984252
 30
0.0
 10
-0.8106062992125984
 20
0.3585748031496063
 30
0.0
 10
-0.8148307086614174
 20
0.3574094488188976
 30
0.0
 10
-0.8183582677165354
 20
0.355992125984252
 30
0.0
 10
-0.8183582677165354
 20
0.355992125984252
 30
0.0
 10
-0.8183582677165354
 20
0.355992125984252
 30
0.0
 10
-0.8155787401574803
 20
0.4110196850393701
 30
0.0
 10
-0.8155787401574803
 20
0.4110196850393701
 30
0.0
  0
SPLINE
  5
42
330
1F
100
AcDbEntity
  8
LAYER_1
 62
   250
100
AcDbSpline
210
0.0
220
0.0
230
1.0
 70
    11
 71
     3
 72
    20
 73
    16
 74
     0
 42
0.0000000001
 43
0.0000000001
 40
0.0
 40
0.0
 40
0.0
 40
0.0
 40
0.25
 40
0.25
 40
0.25
 40
0.25
 40
0.5
 40
0.5
 40
0.5
 40
0.5
 40
0.75
 40
0.75
 40
0.75
 40
0.75
 40
1.0
 40
1.0
 40
1.0
 40
1.0
 10
-0.6531338582677165
 20
0.4168818897637796
 30
0.0
 10
-0.6531338582677165
 20
0.4168818897637796
 30
0.0
 10
-0.7087165354330709
 20
0.2611850393700788
 30
0.0
 10
-0.7087165354330709
 20
0.2611850393700788
 30
0.0
 10
-0.7087165354330709
 20
0.2611850393700788
 30
0.0
 10
-0.7087165354330709
 20
0.2611850393700788
 30
0.0
 10
-0.7207716535433071
 20
0.2611850393700788
 30
0.0
 10
-0.7207716535433071
 20
0.2611850393700788
 30
0.0
 10
-0.7207716535433071
 20
0.2611850393700788
 30
0.0
 10
-0.7207716535433071
 20
0.2611850393700788
 30
0.0
 10
-0.6655236220472441
 20
0.4168818897637796
 30
0.0
 10
-0.6655236220472441
 20
0.4168818897637796
 30
0.0
 10
-0.6655236220472441
 20
0.4168818897637796
 30
0.0
 10
-0.6655236220472441
 20
0.4168818897637796
 30
0.0
 10
-0.6531338582677165
 20
0.4168818897637796
 30
0.0
 10
-0.6531338582677165
 20
0.4168818897637796
 30
0.0
  0
SPLINE
  5
43
330
1F
100
AcDbEntity
  8
LAYER_1
 62
   250
100
AcDbSpline
210
0.0
220
0.0
230
1.0
 70
    11
 71
     3
 72
    72
 73
    68
 74
     0
 42
0.0000000001
 43
0.0000000001
 40
0.0
 40
0.0
 40
0.0
 40
0.0
 40
0.0588235294117647
 40
0.0588235294117647
 40
0.0588235294117647
 40
0.0588235294117647
 40
0.1176470588235294
 40
0.1176470588235294
 40
0.1176470588235294
 40
0.1176470588235294
 40
0.1764705882352941
 40
0.1764705882352941
 40
0.1764705882352941
 40
0.1764705882352941
 40
0.2352941176470588
 40
0.2352941176470588
 40
0.2352941176470588
 40
0.2352941176470588
 40
0.2941176470588235
 40
0.2941176470588235
 40
0.2941176470588235
 40
0.2941176470588235
 40
0.3529411764705883
 40
0.3529411764705883
 40
0.3529411764705883
 40
0.3529411764705883
 40
0.411764705882353
 40
0.411764705882353
 40
0.411764705882353
 40
0.411764705882353
 40
0.4705882352941177
 40
0.4705882352941177
 40
0.4705882352941177
 40
0.4705882352941177
 40
0.5294117647058824
 40
0.5294117647058824
 40
0.5294117647058824
 40
0.5294117647058824
 40
0.5882352941176471
 40
0.5882352941176471
 40
0.5882352941176471
 40
0.5882352941176471
 40
0.6470588235294118
 40
0.6470588235294118
 40
0.6470588235294118
 40
0.6470588235294118
 40
0.7058823529411765
 40
0.7058823529411765
 40
0.7058823529411765
 40
0.7058823529411765
 40
0.7647058823529412
 40
0.7647058823529412
 40
0.7647058823529412
 40
0.7647058823529412
 40
0.823529411764706
 40
0.823529411764706
 40
0.823529411764706
 40
0.823529411764706
 40
0.8823529411764707
 40
0.8823529411764707
 40
0.8823529411764707
 40
0.8823529411764707
 40
0.9411764705882354
 40
0.9411764705882354
 40
0.9411764705882354
 40
0.9411764705882354
 40
1.0
 40
1.0
 40
1.0
 40
1.0
 10
-0.5785787401574803
 20
0.4110196850393701
 30
0.0
 10
-0.5785787401574803
 20
0.4110196850393701
 30
0.0
 10
-0.572496062992126
 20
0.4110196850393701
 30
0.0
 10
-0.572496062992126
 20
0.4110196850393701
 30
0.0
 10
-0.572496062992126
 20
0.4110196850393701
 30
0.0
 10
-0.572496062992126
 20
0.4110196850393701
 30
0.0
 10
-0.572496062992126
 20
0.3167716535433071
 30
0.0
 10
-0.572496062992126
 20
0.3167716535433071
 30
0.0
 10
-0.572496062992126
 20
0.3167716535433071
 30
0.0
 10
-0.572496062992126
 20
0.3123267716535433
 30
0.0
 10
-0.5721889763779527
 20
0.3094645669291339
 30
0.0
 10
-0.5716338582677165
 20
0.3081850393700787
 30
0.0
 10
-0.5716338582677165
 20
0.3081850393700787
 30
0.0
 10
-0.5710511811023622
 20
0.3069094488188977
 30
0.0
 10
-0.5701338582677166
 20
0.3059645669291339
 30
0.0
 10
-0.5688307086614174
 20
0.3052992125984252
 30
0.0
 10
-0.5688307086614174
 20
0.3052992125984252
 30
0.0
 10
-0.5675236220472442
 20
0.3046574803149607
 30
0.0
 10
-0.5649409448818898
 20
0.3043267716535433
 30
0.0
 10
-0.5610787401574804
 20
0.3043267716535433
 30
0.0
 10
-0.5610787401574804
 20
0.3043267716535433
 30
0.0
 10
-0.5610787401574804
 20
0.3043267716535433
 30
0.0
 10
-0.5531062992125985
 20
0.3043267716535433
 30
0.0
 10
-0.5531062992125985
 20
0.3043267716535433
 30
0.0
 10
-0.5531062992125985
 20
0.3043267716535433
 30
0.0
 10
-0.5531062992125985
 20
0.3043267716535433
 30
0.0
 10
-0.5531062992125985
 20
0.297492125984252
 30
0.0
 10
-0.5531062992125985
 20
0.297492125984252
 30
0.0
 10
-0.5531062992125985
 20
0.297492125984252
 30
0.0
 10
-0.5531062992125985
 20
0.297492125984252
 30
0.0
 10
-0.606744094488189
 20
0.297492125984252
 30
0.0
 10
-0.606744094488189
 20
0.297492125984252
 30
0.0
 10
-0.606744094488189
 20
0.297492125984252
 30
0.0
 10
-0.606744094488189
 20
0.297492125984252
 30
0.0
 10
-0.606744094488189
 20
0.3043267716535433
 30
0.0
 10
-0.606744094488189
 20
0.3043267716535433
 30
0.0
 10
-0.606744094488189
 20
0.3043267716535433
 30
0.0
 10
-0.606744094488189
 20
0.3043267716535433
 30
0.0
 10
-0.5978858267716536
 20
0.3043267716535433
 30
0.0
 10
-0.5978858267716536
 20
0.3043267716535433
 30
0.0
 10
-0.5978858267716536
 20
0.3043267716535433
 30
0.0
 10
-0.5940236220472441
 20
0.3043267716535433
 30
0.0
 10
-0.5914685039370079
 20
0.3046574803149607
 30
0.0
 10
-0.5901889763779528
 20
0.3053543307086614
 30
0.0
 10
-0.5901889763779528
 20
0.3053543307086614
 30
0.0
 10
-0.5889133858267717
 20
0.3060196850393701
 30
0.0
 10
-0.5879133858267717
 20
0.3071023622047244
 30
0.0
 10
-0.5872165354330708
 20
0.3086023622047244
 30
0.0
 10
-0.5872165354330708
 20
0.3086023622047244
 30
0.0
 10
-0.5865236220472441
 20
0.3101023622047244
 30
0.0
 10
-0.5861614173228347
 20
0.3128267716535433
 30
0.0
 10
-0.5861614173228347
 20
0.3167716535433071
 30
0.0
 10
-0.5861614173228347
 20
0.3167716535433071
 30
0.0
 10
-0.5861614173228347
 20
0.3167716535433071
 30
0.0
 10
-0.5861614173228347
 20
0.394240157480315
 30
0.0
 10
-0.5861614173228347
 20
0.394240157480315
 30
0.0
 10
-0.5861614173228347
 20
0.394240157480315
 30
0.0
 10
-0.5861614173228347
 20
0.394240157480315
 30
0.0
 10
-0.606744094488189
 20
0.394240157480315
 30
0.0
 10
-0.606744094488189
 20
0.394240157480315
 30
0.0
 10
-0.606744094488189
 20
0.394240157480315
 30
0.0
 10
-0.606744094488189
 20
0.394240157480315
 30
0.0
 10
-0.606744094488189
 20
0.401240157480315
 30
0.0
 10
-0.606744094488189
 20
0.401240157480315
 30
0.0
 10
-0.606744094488189
 20
0.401240157480315
 30
0.0
 10
-0.5955236220472441
 20
0.4028228346456693
 30
0.0
 10
-0.5861338582677166
 20
0.4060748031496063
 30
0.0
 10
-0.5785787401574803
 20
0.4110196850393701
 30
0.0
  0
SPLINE
  5
44
330
1F
100
AcDbEntity
  8
LAYER_1
 62
   250
100
AcDbSpline
210
0.0
220
0.0
230
1.0
 70
    11
 71
     3
 72
    84
 73
    80
 74
     0
 42
0.0000000001
 43
0.0000000001
 40
0.0
 40
0.0
 40
0.0
 40
0.0
 40
0.05
 40
0.05
 40
0.05
 40
0.05
 40
0.1
 40
0.1
 40
0.1
 40
0.1
 40
0.15
 40
0.15
 40
0.15
 40
0.15
 40
0.2
 40
0.2
 40
0.2
 40
0.2
 40
0.25
 40
0.25
 40
0.25
 40
0.25
 40
0.3
 40
0.3
 40
0.3
 40
0.3
 40
0.35
 40
0.35
 40
0.35
 40
0.35
 40
0.4
 40
0.4
 40
0.4
 40
0.4
 40
0.45
 40
0.45
 40
0.45
 40
0.45
 40
0.4999999999999999
 40
0.4999999999999999
 40
0.4999999999999999
 40
0.4999999999999999
 40
0.5499999999999999
 40
0.5499999999999999
 40
0.5499999999999999
 40
0.5499999999999999
 40
0.6
 40
0.6
 40
0.6
 40
0.6
 40
0.65
 40
0.65
 40
0.65
 40
0.65
 40
0.7000000000000001
 40
0.7000000000000001
 40
0.7000000000000001
 40
0.7000000000000001
 40
0.7500000000000001
 40
0.7500000000000001
 40
0.7500000000000001
 40
0.7500000000000001
 40
0.8000000000000002
 40
0.8000000000000002
 40
0.8000000000000002
 40
0.8000000000000002
 40
0.8500000000000002
 40
0.8500000000000002
 40
0.8500000000000002
 40
0.8500000000000002
 40
0.9000000000000002
 40
0.9000000000000002
 40
0.9000000000000002
 40
0.9000000000000002
 40
0.9500000000000003
 40
0.9500000000000003
 40
0.9500000000000003
 40
0.9500000000000003
 40
1.0
 40
1.0
 40
1.0
 40
1.0
 10
-0.4469133858267717
 20
0.4131299212598426
 30
0.0
 10
-0.4469133858267717
 20
0.4131299212598426
 30
0.0
 10
-0.4469133858267717
 20
0.4057125984251969
 30
0.0
 10
-0.4469133858267717
 20
0.4057125984251969
 30
0.0
 10
-0.4469133858267717
 20
0.4057125984251969
 30
0.0
 10
-0.4602992125984252
 20
0.4055748031496063
 30
0.0
 10
-0.4711338582677165
 20
0.4036023622047245
 30
0.0
 10
-0.4794094488188976
 20
0.3998818897637795
 30
0.0
 10
-0.4794094488188976
 20
0.3998818897637795
 30
0.0
 10
-0.4876889763779528
 20
0.3961299212598425
 30
0.0
 10
-0.4937716535433071
 20
0.3905196850393701
 30
0.0
 10
-0.4976889763779528
 20
0.3830748031496063
 30
0.0
 10
-0.4976889763779528
 20
0.3830748031496063
 30
0.0
 10
-0.5016062992125985
 20
0.3756023622047244
 30
0.0
 10
-0.5037992125984252
 20
0.3664094488188976
 30
0.0
 10
-0.5042716535433071
 20
0.3555196850393701
 30
0.0
 10
-0.5042716535433071
 20
0.3555196850393701
 30
0.0
 10
-0.5015236220472441
 20
0.359740157480315
 30
0.0
 10
-0.4986889763779528
 20
0.3630472440944882
 30
0.0
 10
-0.4957716535433071
 20
0.3654094488188976
 30
0.0
 10
-0.4957716535433071
 20
0.3654094488188976
 30
0.0
 10
-0.4928818897637796
 20
0.3677677165354331
 30
0.0
 10
-0.489496062992126
 20
0.3695748031496063
 30
0.0
 10
-0.4856062992125985
 20
0.3708543307086614
 30
0.0
 10
-0.4856062992125985
 20
0.3708543307086614
 30
0.0
 10
-0.4817165354330709
 20
0.3721299212598425
 30
0.0
 10
-0.4774685039370079
 20
0.3727677165354331
 30
0.0
 10
-0.4728543307086615
 20
0.3727677165354331
 30
0.0
 10
-0.4728543307086615
 20
0.3727677165354331
 30
0.0
 10
-0.465496062992126
 20
0.3727677165354331
 30
0.0
 10
-0.4589133858267717
 20
0.3711299212598425
 30
0.0
 10
-0.4531614173228347
 20
0.3678818897637796
 30
0.0
 10
-0.4531614173228347
 20
0.3678818897637796
 30
0.0
 10
-0.4474133858267717
 20
0.3646299212598426
 30
0.0
 10
-0.4429409448818898
 20
0.3602125984251969
 30
0.0
 10
-0.439744094488189
 20
0.3546574803149606
 30
0.0
 10
-0.439744094488189
 20
0.3546574803149606
 30
0.0
 10
-0.4365511811023622
 20
0.3491023622047244
 30
0.0
 10
-0.4349409448818898
 20
0.3425472440944882
 30
0.0
 10
-0.4349409448818898
 20
0.3350196850393701
 30
0.0
 10
-0.4349409448818898
 20
0.3350196850393701
 30
0.0
 10
-0.4349409448818898
 20
0.3230196850393701
 30
0.0
 10
-0.4385511811023622
 20
0.3136023622047244
 30
0.0
 10
-0.4457716535433071
 20
0.3067716535433071
 30
0.0
 10
-0.4457716535433071
 20
0.3067716535433071
 30
0.0
 10
-0.453744094488189
 20
0.2992716535433071
 30
0.0
 10
-0.4640787401574804
 20
0.2955472440944882
 30
0.0
 10
-0.4767716535433071
 20
0.2955472440944882
 30
0.0
 10
-0.4767716535433071
 20
0.2955472440944882
 30
0.0
 10
-0.4859409448818898
 20
0.2955472440944882
 30
0.0
 10
-0.4936614173228346
 20
0.2974370078740158
 30
0.0
 10
-0.4999685039370079
 20
0.301240157480315
 30
0.0
 10
-0.4999685039370079
 20
0.301240157480315
 30
0.0
 10
-0.5062716535433071
 20
0.3050196850393701
 30
0.0
 10
-0.5112716535433071
 20
0.3108267716535433
 30
0.0
 10
-0.514996062992126
 20
0.3186574803149607
 30
0.0
 10
-0.514996062992126
 20
0.3186574803149607
 30
0.0
 10
-0.5186889763779528
 20
0.3264645669291339
 30
0.0
 10
-0.5205511811023622
 20
0.3361299212598425
 30
0.0
 10
-0.5205511811023622
 20
0.3476299212598425
 30
0.0
 10
-0.5205511811023622
 20
0.3476299212598425
 30
0.0
 10
-0.5205511811023622
 20
0.3591850393700787
 30
0.0
 10
-0.5185787401574803
 20
0.3694370078740158
 30
0.0
 10
-0.5146614173228347
 20
0.3783818897637796
 30
0.0
 10
-0.5146614173228347
 20
0.3783818897637796
 30
0.0
 10
-0.5107165354330709
 20
0.3873228346456693
 30
0.0
 10
-0.5052716535433071
 20
0.3945196850393701
 30
0.0
 10
-0.4983267716535433
 20
0.3999370078740158
 30
0.0
 10
-0.4983267716535433
 20
0.3999370078740158
 30
0.0
 10
-0.4913818897637796
 20
0.4053818897637795
 30
0.0
 10
-0.4837716535433071
 20
0.4089370078740158
 30
0.0
 10
-0.4755236220472441
 20
0.4106023622047244
 30
0.0
 10
-0.4755236220472441
 20
0.4106023622047244
 30
0.0
 10
-0.467244094488189
 20
0.4122952755905512
 30
0.0
 10
-0.4598267716535433
 20
0.4131299212598426
 30
0.0
 10
-0.453244094488189
 20
0.4131299212598426
 30
0.0
 10
-0.453244094488189
 20
0.4131299212598426
 30
0.0
 10
-0.453244094488189
 20
0.4131299212598426
 30
0.0
 10
-0.4469133858267717
 20
0.4131299212598426
 30
0.0
 10
-0.4469133858267717
 20
0.4131299212598426
 30
0.0
  0
SPLINE
  5
45
330
1F
100
AcDbEntity
  8
LAYER_1
 62
   250
100
AcDbSpline
210
0.0
220
0.0
230
1.0
 70
    11
 71
     3
 72
    40
 73
    36
 74
     0
 42
0.0000000001
 43
0.0000000001
 40
0.0
 40
0.0
 40
0.0
 40
0.0
 40
0.1111111111111111
 40
0.1111111111111111
 40
0.1111111111111111
 40
0.1111111111111111
 40
0.2222222222222222
 40
0.2222222222222222
 40
0.2222222222222222
 40
0.2222222222222222
 40
0.3333333333333333
 40
0.3333333333333333
 40
0.3333333333333333
 40
0.3333333333333333
 40
0.4444444444444444
 40
0.4444444444444444
 40
0.4444444444444444
 40
0.4444444444444444
 40
0.5555555555555556
 40
0.5555555555555556
 40
0.5555555555555556
 40
0.5555555555555556
 40
0.6666666666666667
 40
0.6666666666666667
 40
0.6666666666666667
 40
0.6666666666666667
 40
0.7777777777777779
 40
0.7777777777777779
 40
0.7777777777777779
 40
0.7777777777777779
 40
0.8888888888888891
 40
0.8888888888888891
 40
0.8888888888888891
 40
0.8888888888888891
 40
1.0
 40
1.0
 40
1.0
 40
1.0
 10
-0.4766062992125985
 20
0.3641299212598426
 30
0.0
 10
-0.4844094488188976
 20
0.3641299212598426
 30
0.0
 10
-0.4908267716535433
 20
0.3611850393700787
 30
0.0
 10
-0.4958543307086614
 20
0.3552677165354331
 30
0.0
 10
-0.4958543307086614
 20
0.3552677165354331
 30
0.0
 10
-0.5008818897637796
 20
0.3493543307086615
 30
0.0
 10
-0.5033818897637795
 20
0.342240157480315
 30
0.0
 10
-0.5033818897637795
 20
0.3339645669291338
 30
0.0
 10
-0.5033818897637795
 20
0.3339645669291338
 30
0.0
 10
-0.5033818897637795
 20
0.3281023622047244
 30
0.0
 10
-0.5021614173228347
 20
0.3226850393700788
 30
0.0
 10
-0.4997165354330709
 20
0.3177125984251968
 30
0.0
 10
-0.4997165354330709
 20
0.3177125984251968
 30
0.0
 10
-0.4972716535433071
 20
0.312740157480315
 30
0.0
 10
-0.4941338582677166
 20
0.3090748031496063
 30
0.0
 10
-0.4902716535433071
 20
0.3066574803149607
 30
0.0
 10
-0.4902716535433071
 20
0.3066574803149607
 30
0.0
 10
-0.4864409448818898
 20
0.304240157480315
 30
0.0
 10
-0.4820787401574803
 20
0.3030196850393701
 30
0.0
 10
-0.4772716535433071
 20
0.3030196850393701
 30
0.0
 10
-0.4772716535433071
 20
0.3030196850393701
 30
0.0
 10
-0.4697716535433071
 20
0.3030196850393701
 30
0.0
 10
-0.4635511811023622
 20
0.3058543307086614
 30
0.0
 10
-0.4585787401574804
 20
0.3115196850393701
 30
0.0
 10
-0.4585787401574804
 20
0.3115196850393701
 30
0.0
 10
-0.4536338582677166
 20
0.3171850393700788
 30
0.0
 10
-0.4511338582677166
 20
0.3247992125984252
 30
0.0
 10
-0.4511338582677166
 20
0.3343543307086614
 30
0.0
 10
-0.4511338582677166
 20
0.3343543307086614
 30
0.0
 10
-0.4511338582677166
 20
0.3434645669291339
 30
0.0
 10
-0.4535511811023622
 20
0.3507125984251969
 30
0.0
 10
-0.4583818897637795
 20
0.3560748031496063
 30
0.0
 10
-0.4583818897637795
 20
0.3560748031496063
 30
0.0
 10
-0.4632165354330709
 20
0.3614645669291339
 30
0.0
 10
-0.4692992125984252
 20
0.3641299212598426
 30
0.0
 10
-0.4766062992125985
 20
0.3641299212598426
 30
0.0
  0
SPLINE
  5
46
330
1F
100
AcDbEntity
  8
LAYER_1
 62
   250
100
AcDbSpline
210
0.0
220
0.0
230
1.0
 70
    11
 71
     3
 72
    60
 73
    56
 74
     0
 42
0.0000000001
 43
0.0000000001
 40
0.0
 40
0.0
 40
0.0
 40
0.0
 40
0.0714285714285714
 40
0.0714285714285714
 40
0.0714285714285714
 40
0.0714285714285714
 40
0.1428571428571429
 40
0.1428571428571429
 40
0.1428571428571429
 40
0.1428571428571429
 40
0.2142857142857143
 40
0.2142857142857143
 40
0.2142857142857143
 40
0.2142857142857143
 40
0.2857142857142857
 40
0.2857142857142857
 40
0.2857142857142857
 40
0.2857142857142857
 40
0.3571428571428571
 40
0.3571428571428571
 40
0.3571428571428571
 40
0.3571428571428571
 40
0.4285714285714285
 40
0.4285714285714285
 40
0.4285714285714285
 40
0.4285714285714285
 40
0.4999999999999999
 40
0.4999999999999999
 40
0.4999999999999999
 40
0.4999999999999999
 40
0.5714285714285713
 40
0.5714285714285713
 40
0.5714285714285713
 40
0.5714285714285713
 40
0.6428571428571427
 40
0.6428571428571427
 40
0.6428571428571427
 40
0.6428571428571427
 40
0.7142857142857141
 40
0.7142857142857141
 40
0.7142857142857141
 40
0.7142857142857141
 40
0.7857142857142855
 40
0.7857142857142855
 40
0.7857142857142855
 40
0.7857142857142855
 40
0.8571428571428569
 40
0.8571428571428569
 40
0.8571428571428569
 40
0.8571428571428569
 40
0.9285714285714283
 40
0.9285714285714283
 40
0.9285714285714283
 40
0.9285714285714283
 40
1.0
 40
1.0
 40
1.0
 40
1.0
 10
-0.4177716535433071
 20
0.3689370078740158
 30
0.0
 10
-0.4177716535433071
 20
0.3689370078740158
 30
0.0
 10
-0.4221614173228347
 20
0.3743267716535433
 30
0.0
 10
-0.4221614173228347
 20
0.3743267716535433
 30
0.0
 10
-0.4221614173228347
 20
0.3743267716535433
 30
0.0
 10
-0.4110472440944882
 20
0.3833818897637795
 30
0.0
 10
-0.4054645669291339
 20
0.3909370078740158
 30
0.0
 10
-0.4054645669291339
 20
0.3970196850393701
 30
0.0
 10
-0.4054645669291339
 20
0.3970196850393701
 30
0.0
 10
-0.4054645669291339
 20
0.3977125984251969
 30
0.0
 10
-0.4055196850393701
 20
0.3986023622047245
 30
0.0
 10
-0.4056338582677165
 20
0.3996299212598425
 30
0.0
 10
-0.4056338582677165
 20
0.3996299212598425
 30
0.0
 10
-0.4065472440944882
 20
0.399240157480315
 30
0.0
 10
-0.4074645669291339
 20
0.3989370078740158
 30
0.0
 10
-0.4083267716535433
 20
0.398740157480315
 30
0.0
 10
-0.4083267716535433
 20
0.398740157480315
 30
0.0
 10
-0.4091889763779528
 20
0.3985196850393701
 30
0.0
 10
-0.409992125984252
 20
0.3984094488188977
 30
0.0
 10
-0.4107716535433071
 20
0.3984094488188977
 30
0.0
 10
-0.4107716535433071
 20
0.3984094488188977
 30
0.0
 10
-0.4133818897637795
 20
0.3984094488188977
 30
0.0
 10
-0.4154645669291339
 20
0.399240157480315
 30
0.0
 10
-0.4170196850393701
 20
0.4009370078740158
 30
0.0
 10
-0.4170196850393701
 20
0.4009370078740158
 30
0.0
 10
-0.4186062992125985
 20
0.4026023622047245
 30
0.0
 10
-0.4193818897637796
 20
0.404740157480315
 30
0.0
 10
-0.4193818897637796
 20
0.4073543307086615
 30
0.0
 10
-0.4193818897637796
 20
0.4073543307086615
 30
0.0
 10
-0.4193818897637796
 20
0.4099094488188976
 30
0.0
 10
-0.4184370078740158
 20
0.4121299212598426
 30
0.0
 10
-0.4165472440944882
 20
0.4140196850393701
 30
0.0
 10
-0.4165472440944882
 20
0.4140196850393701
 30
0.0
 10
-0.4146338582677165
 20
0.4159370078740158
 30
0.0
 10
-0.4123543307086615
 20
0.4168818897637796
 30
0.0
 10
-0.4097165354330709
 20
0.4168818897637796
 30
0.0
 10
-0.4097165354330709
 20
0.4168818897637796
 30
0.0
 10
-0.4060196850393701
 20
0.4168818897637796
 30
0.0
 10
-0.4028543307086615
 20
0.4154094488188976
 30
0.0
 10
-0.4002165354330709
 20
0.4124370078740158
 30
0.0
 10
-0.4002165354330709
 20
0.4124370078740158
 30
0.0
 10
-0.3976062992125984
 20
0.409492125984252
 30
0.0
 10
-0.3962716535433071
 20
0.4056850393700788
 30
0.0
 10
-0.3962716535433071
 20
0.4010196850393701
 30
0.0
 10
-0.3962716535433071
 20
0.4010196850393701
 30
0.0
 10
-0.3962716535433071
 20
0.3979645669291339
 30
0.0
 10
-0.3969094488188977
 20
0.3947677165354331
 30
0.0
 10
-0.3981614173228347
 20
0.3914370078740158
 30
0.0
 10
-0.3981614173228347
 20
0.3914370078740158
 30
0.0
 10
-0.3994094488188977
 20
0.3881023622047244
 30
0.0
 10
-0.4012165354330709
 20
0.3850196850393701
 30
0.0
 10
-0.4036062992125984
 20
0.3821574803149607
 30
0.0
 10
-0.4036062992125984
 20
0.3821574803149607
 30
0.0
 10
-0.405992125984252
 20
0.3793267716535433
 30
0.0
 10
-0.4107165354330709
 20
0.3749094488188977
 30
0.0
 10
-0.4177716535433071
 20
0.3689370078740158
 30
0.0
  0
SPLINE
  5
47
330
1F
100
AcDbEntity
  8
LAYER_1
 62
   250
100
AcDbSpline
210
0.0
220
0.0
230
1.0
 70
    11
 71
     3
 72
    60
 73
    56
 74
     0
 42
0.0000000001
 43
0.0000000001
 40
0.0
 40
0.0
 40
0.0
 40
0.0
 40
0.0714285714285714
 40
0.0714285714285714
 40
0.0714285714285714
 40
0.0714285714285714
 40
0.1428571428571429
 40
0.1428571428571429
 40
0.1428571428571429
 40
0.1428571428571429
 40
0.2142857142857143
 40
0.2142857142857143
 40
0.2142857142857143
 40
0.2142857142857143
 40
0.2857142857142857
 40
0.2857142857142857
 40
0.2857142857142857
 40
0.2857142857142857
 40
0.3571428571428571
 40
0.3571428571428571
 40
0.3571428571428571
 40
0.3571428571428571
 40
0.4285714285714285
 40
0.4285714285714285
 40
0.4285714285714285
 40
0.4285714285714285
 40
0.4999999999999999
 40
0.4999999999999999
 40
0.4999999999999999
 40
0.4999999999999999
 40
0.5714285714285713
 40
0.5714285714285713
 40
0.5714285714285713
 40
0.5714285714285713
 40
0.6428571428571427
 40
0.6428571428571427
 40
0.6428571428571427
 40
0.6428571428571427
 40
0.7142857142857141
 40
0.7142857142857141
 40
0.7142857142857141
 40
0.7142857142857141
 40
0.7857142857142855
 40
0.7857142857142855
 40
0.7857142857142855
 40
0.7857142857142855
 40
0.8571428571428569
 40
0.8571428571428569
 40
0.8571428571428569
 40
0.8571428571428569
 40
0.9285714285714283
 40
0.9285714285714283
 40
0.9285714285714283
 40
0.9285714285714283
 40
1.0
 40
1.0
 40
1.0
 40
1.0
 10
-0.3887165354330709
 20
0.3689370078740158
 30
0.0
 10
-0.3887165354330709
 20
0.3689370078740158
 30
0.0
 10
-0.3931062992125984
 20
0.3743267716535433
 30
0.0
 10
-0.3931062992125984
 20
0.3743267716535433
 30
0.0
 10
-0.3931062992125984
 20
0.3743267716535433
 30
0.0
 10
-0.381992125984252
 20
0.3833818897637795
 30
0.0
 10
-0.3764094488188977
 20
0.3909370078740158
 30
0.0
 10
-0.3764094488188977
 20
0.3970196850393701
 30
0.0
 10
-0.3764094488188977
 20
0.3970196850393701
 30
0.0
 10
-0.3764094488188977
 20
0.3977125984251969
 30
0.0
 10
-0.3764645669291339
 20
0.3986023622047245
 30
0.0
 10
-0.3765787401574803
 20
0.3996299212598425
 30
0.0
 10
-0.3765787401574803
 20
0.3996299212598425
 30
0.0
 10
-0.377492125984252
 20
0.399240157480315
 30
0.0
 10
-0.3784094488188977
 20
0.3989370078740158
 30
0.0
 10
-0.3792716535433071
 20
0.398740157480315
 30
0.0
 10
-0.3792716535433071
 20
0.398740157480315
 30
0.0
 10
-0.3801338582677166
 20
0.3985196850393701
 30
0.0
 10
-0.3809645669291339
 20
0.3984094488188977
 30
0.0
 10
-0.3817992125984252
 20
0.3984094488188977
 30
0.0
 10
-0.3817992125984252
 20
0.3984094488188977
 30
0.0
 10
-0.3843543307086614
 20
0.3984094488188977
 30
0.0
 10
-0.3864094488188977
 20
0.399240157480315
 30
0.0
 10
-0.3879645669291339
 20
0.4009370078740158
 30
0.0
 10
-0.3879645669291339
 20
0.4009370078740158
 30
0.0
 10
-0.3895472440944882
 20
0.4026023622047245
 30
0.0
 10
-0.3903267716535434
 20
0.404740157480315
 30
0.0
 10
-0.3903267716535434
 20
0.4073543307086615
 30
0.0
 10
-0.3903267716535434
 20
0.4073543307086615
 30
0.0
 10
-0.3903267716535434
 20
0.4099094488188976
 30
0.0
 10
-0.3893818897637795
 20
0.4121299212598426
 30
0.0
 10
-0.387492125984252
 20
0.4140196850393701
 30
0.0
 10
-0.387492125984252
 20
0.4140196850393701
 30
0.0
 10
-0.3856062992125984
 20
0.4159370078740158
 30
0.0
 10
-0.3832992125984252
 20
0.4168818897637796
 30
0.0
 10
-0.3806614173228347
 20
0.4168818897637796
 30
0.0
 10
-0.3806614173228347
 20
0.4168818897637796
 30
0.0
 10
-0.3769645669291339
 20
0.4168818897637796
 30
0.0
 10
-0.3737992125984252
 20
0.4154094488188976
 30
0.0
 10
-0.3711614173228346
 20
0.4124370078740158
 30
0.0
 10
-0.3711614173228346
 20
0.4124370078740158
 30
0.0
 10
-0.3685511811023622
 20
0.409492125984252
 30
0.0
 10
-0.3672165354330709
 20
0.4056850393700788
 30
0.0
 10
-0.3672165354330709
 20
0.4010196850393701
 30
0.0
 10
-0.3672165354330709
 20
0.4010196850393701
 30
0.0
 10
-0.3672165354330709
 20
0.3979645669291339
 30
0.0
 10
-0.3678543307086614
 20
0.3947677165354331
 30
0.0
 10
-0.3691062992125985
 20
0.3914370078740158
 30
0.0
 10
-0.3691062992125985
 20
0.3914370078740158
 30
0.0
 10
-0.3703543307086614
 20
0.3881023622047244
 30
0.0
 10
-0.3721614173228346
 20
0.3850196850393701
 30
0.0
 10
-0.3745472440944882
 20
0.3821574803149607
 30
0.0
 10
-0.3745472440944882
 20
0.3821574803149607
 30
0.0
 10
-0.3769370078740157
 20
0.3793267716535433
 30
0.0
 10
-0.3816614173228347
 20
0.3749094488188977
 30
0.0
 10
-0.3887165354330709
 20
0.3689370078740158
 30
0.0
  0
SPLINE
  5
48
330
1F
100
AcDbEntity
  8
LAYER_1
 62
   252
100
AcDbSpline
210
0.0
220
0.0
230
1.0
 70
    11
 71
     3
 72
    20
 73
    16
 74
     0
 42
0.0000000001
 43
0.0000000001
 40
0.0
 40
0.0
 40
0.0
 40
0.0
 40
0.25
 40
0.25
 40
0.25
 40
0.25
 40
0.5
 40
0.5
 40
0.5
 40
0.5
 40
0.75
 40
0.75
 40
0.75
 40
0.75
 40
1.0
 40
1.0
 40
1.0
 40
1.0
 10
1.05255905511811
 20
1.228877952755906
 30
0.0
 10
1.05255905511811
 20
1.228877952755906
 30
0.0
 10
1.051818897637795
 20
1.977330708661417
 30
0.0
 10
1.051818897637795
 20
1.977330708661417
 30
0.0
 10
1.051818897637795
 20
1.977330708661417
 30
0.0
 10
1.051818897637795
 20
1.977330708661417
 30
0.0
 10
1.729511811023622
 20
1.739055118110236
 30
0.0
 10
1.729511811023622
 20
1.739055118110236
 30
0.0
 10
1.729511811023622
 20
1.739055118110236
 30
0.0
 10
1.729511811023622
 20
1.739055118110236
 30
0.0
 10
1.730251968503937
 20
0.9906023622047244
 30
0.0
 10
1.730251968503937
 20
0.9906023622047244
 30
0.0
 10
1.730251968503937
 20
0.9906023622047244
 30
0.0
 10
1.730251968503937
 20
0.9906023622047244
 30
0.0
 10
1.05255905511811
 20
1.228877952755906
 30
0.0
 10
1.05255905511811
 20
1.228877952755906
 30
0.0
  0
SPLINE
  5
49
330
1F
100
AcDbEntity
  8
LAYER_1
 62
   250
100
AcDbSpline
210
0.0
220
0.0
230
1.0
 70
    11
 71
     3
 72
    20
 73
    16
 74
     0
 42
0.0000000001
 43
0.0000000001
 40
0.0
 40
0.0
 40
0.0
 40
0.0
 40
0.25
 40
0.25
 40
0.25
 40
0.25
 40
0.5
 40
0.5
 40
0.5
 40
0.5
 40
0.75
 40
0.75
 40
0.75
 40
0.75
 40
1.0
 40
1.0
 40
1.0
 40
1.0
 10
1.05255905511811
 20
1.228877952755906
 30
0.0
 10
1.05255905511811
 20
1.228877952755906
 30
0.0
 10
1.051818897637795
 20
1.977330708661417
 30
0.0
 10
1.051818897637795
 20
1.977330708661417
 30
0.0
 10
1.051818897637795
 20
1.977330708661417
 30
0.0
 10
1.051818897637795
 20
1.977330708661417
 30
0.0
 10
1.729511811023622
 20
1.739055118110236
 30
0.0
 10
1.729511811023622
 20
1.739055118110236
 30
0.0
 10
1.729511811023622
 20
1.739055118110236
 30
0.0
 10
1.729511811023622
 20
1.739055118110236
 30
0.0
 10
1.730251968503937
 20
0.9906023622047244
 30
0.0
 10
1.730251968503937
 20
0.9906023622047244
 30
0.0
 10
1.730251968503937
 20
0.9906023622047244
 30
0.0
 10
1.730251968503937
 20
0.9906023622047244
 30
0.0
 10
1.05255905511811
 20
1.228877952755906
 30
0.0
 10
1.05255905511811
 20
1.228877952755906
 30
0.0
  0
SPLINE
  5
4A
330
1F
100
AcDbEntity
  8
LAYER_1
 62
   252
100
AcDbSpline
210
0.0
220
0.0
230
1.0
 70
    11
 71
     3
 72
    20
 73
    16
 74
     0
 42
0.0000000001
 43
0.0000000001
 40
0.0
 40
0.0
 40
0.0
 40
0.0
 40
0.25
 40
0.25
 40
0.25
 40
0.25
 40
0.5
 40
0.5
 40
0.5
 40
0.5
 40
0.75
 40
0.75
 40
0.75
 40
0.75
 40
1.0
 40
1.0
 40
1.0
 40
1.0
 10
1.730251968503937
 20
0.9906023622047244
 30
0.0
 10
1.730251968503937
 20
0.9906023622047244
 30
0.0
 10
1.729511811023622
 20
1.739055118110236
 30
0.0
 10
1.729511811023622
 20
1.739055118110236
 30
0.0
 10
1.729511811023622
 20
1.739055118110236
 30
0.0
 10
1.729511811023622
 20
1.739055118110236
 30
0.0
 10
1.912086614173228
 20
1.739055118110236
 30
0.0
 10
1.912086614173228
 20
1.739055118110236
 30
0.0
 10
1.912086614173228
 20
1.739055118110236
 30
0.0
 10
1.912086614173228
 20
1.739055118110236
 30
0.0
 10
1.912826771653543
 20
0.9906023622047244
 30
0.0
 10
1.912826771653543
 20
0.9906023622047244
 30
0.0
 10
1.912826771653543
 20
0.9906023622047244
 30
0.0
 10
1.912826771653543
 20
0.9906023622047244
 30
0.0
 10
1.730251968503937
 20
0.9906023622047244
 30
0.0
 10
1.730251968503937
 20
0.9906023622047244
 30
0.0
  0
SPLINE
  5
4B
330
1F
100
AcDbEntity
  8
LAYER_1
 62
   250
100
AcDbSpline
210
0.0
220
0.0
230
1.0
 70
    11
 71
     3
 72
    20
 73
    16
 74
     0
 42
0.0000000001
 43
0.0000000001
 40
0.0
 40
0.0
 40
0.0
 40
0.0
 40
0.25
 40
0.25
 40
0.25
 40
0.25
 40
0.5
 40
0.5
 40
0.5
 40
0.5
 40
0.75
 40
0.75
 40
0.75
 40
0.75
 40
1.0
 40
1.0
 40
1.0
 40
1.0
 10
1.730251968503937
 20
0.9906023622047244
 30
0.0
 10
1.730251968503937
 20
0.9906023622047244
 30
0.0
 10
1.729511811023622
 20
1.739055118110236
 30
0.0
 10
1.729511811023622
 20
1.739055118110236
 30
0.0
 10
1.729511811023622
 20
1.739055118110236
 30
0.0
 10
1.729511811023622
 20
1.739055118110236
 30
0.0
 10
1.912086614173228
 20
1.739055118110236
 30
0.0
 10
1.912086614173228
 20
1.739055118110236
 30
0.0
 10
1.912086614173228
 20
1.739055118110236
 30
0.0
 10
1.912086614173228
 20
1.739055118110236
 30
0.0
 10
1.912826771653543
 20
0.9906023622047244
 30
0.0
 10
1.912826771653543
 20
0.9906023622047244
 30
0.0
 10
1.912826771653543
 20
0.9906023622047244
 30
0.0
 10
1.912826771653543
 20
0.9906023622047244
 30
0.0
 10
1.730251968503937
 20
0.9906023622047244
 30
0.0
 10
1.730251968503937
 20
0.9906023622047244
 30
0.0
  0
SPLINE
  5
4C
330
1F
100
AcDbEntity
  8
LAYER_1
 62
   252
100
AcDbSpline
210
0.0
220
0.0
230
1.0
 70
    11
 71
     3
 72
    20
 73
    16
 74
     0
 42
0.0000000001
 43
0.0000000001
 40
0.0
 40
0.0
 40
0.0
 40
0.0
 40
0.25
 40
0.25
 40
0.25
 40
0.25
 40
0.5
 40
0.5
 40
0.5
 40
0.5
 40
0.75
 40
0.75
 40
0.75
 40
0.75
 40
1.0
 40
1.0
 40
1.0
 40
1.0
 10
0.6069566929133858
 20
1.228877952755906
 30
0.0
 10
0.6069566929133858
 20
1.228877952755906
 30
0.0
 10
0.6062165354330709
 20
1.977330708661417
 30
0.0
 10
0.6062165354330709
 20
1.977330708661417
 30
0.0
 10
0.6062165354330709
 20
1.977330708661417
 30
0.0
 10
0.6062165354330709
 20
1.977330708661417
 30
0.0
 10
1.051818897637795
 20
1.977330708661417
 30
0.0
 10
1.051818897637795
 20
1.977330708661417
 30
0.0
 10
1.051818897637795
 20
1.977330708661417
 30
0.0
 10
1.051818897637795
 20
1.977330708661417
 30
0.0
 10
1.05255905511811
 20
1.228877952755906
 30
0.0
 10
1.05255905511811
 20
1.228877952755906
 30
0.0
 10
1.05255905511811
 20
1.228877952755906
 30
0.0
 10
1.05255905511811
 20
1.228877952755906
 30
0.0
 10
0.6069566929133858
 20
1.228877952755906
 30
0.0
 10
0.6069566929133858
 20
1.228877952755906
 30
0.0
  0
SPLINE
  5
4D
330
1F
100
AcDbEntity
  8
LAYER_1
 62
   250
100
AcDbSpline
210
0.0
220
0.0
230
1.0
 70
    11
 71
     3
 72
    20
 73
    16
 74
     0
 42
0.0000000001
 43
0.0000000001
 40
0.0
 40
0.0
 40
0.0
 40
0.0
 40
0.25
 40
0.25
 40
0.25
 40
0.25
 40
0.5
 40
0.5
 40
0.5
 40
0.5
 40
0.75
 40
0.75
 40
0.75
 40
0.75
 40
1.0
 40
1.0
 40
1.0
 40
1.0
 10
0.6069566929133858
 20
1.228877952755906
 30
0.0
 10
0.6069566929133858
 20
1.228877952755906
 30
0.0
 10
0.6062165354330709
 20
1.977330708661417
 30
0.0
 10
0.6062165354330709
 20
1.977330708661417
 30
0.0
 10
0.6062165354330709
 20
1.977330708661417
 30
0.0
 10
0.6062165354330709
 20
1.977330708661417
 30
0.0
 10
1.051818897637795
 20
1.977330708661417
 30
0.0
 10
1.051818897637795
 20
1.977330708661417
 30
0.0
 10
1.051818897637795
 20
1.977330708661417
 30
0.0
 10
1.051818897637795
 20
1.977330708661417
 30
0.0
 10
1.05255905511811
 20
1.228877952755906
 30
0.0
 10
1.05255905511811
 20
1.228877952755906
 30
0.0
 10
1.05255905511811
 20
1.228877952755906
 30
0.0
 10
1.05255905511811
 20
1.228877952755906
 30
0.0
 10
0.6069566929133858
 20
1.228877952755906
 30
0.0
 10
0.6069566929133858
 20
1.228877952755906
 30
0.0
  0
SPLINE
  5
4E
330
1F
100
AcDbEntity
  8
LAYER_1
 62
   252
100
AcDbSpline
210
0.0
220
0.0
230
1.0
 70
    11
 71
     3
 72
    20
 73
    16
 74
     0
 42
0.0000000001
 43
0.0000000001
 40
0.0
 40
0.0
 40
0.0
 40
0.0
 40
0.25
 40
0.25
 40
0.25
 40
0.25
 40
0.5
 40
0.5
 40
0.5
 40
0.5
 40
0.75
 40
0.75
 40
0.75
 40
0.75
 40
1.0
 40
1.0
 40
1.0
 40
1.0
 10
1.05255905511811
 20
1.228877952755906
 30
0.0
 10
1.05255905511811
 20
1.228877952755906
 30
0.0
 10
1.051818897637795
 20
1.977330708661417
 30
0.0
 10
1.051818897637795
 20
1.977330708661417
 30
0.0
 10
1.051818897637795
 20
1.977330708661417
 30
0.0
 10
1.051818897637795
 20
1.977330708661417
 30
0.0
 10
1.729511811023622
 20
1.739055118110236
 30
0.0
 10
1.729511811023622
 20
1.739055118110236
 30
0.0
 10
1.729511811023622
 20
1.739055118110236
 30
0.0
 10
1.729511811023622
 20
1.739055118110236
 30
0.0
 10
1.730251968503937
 20
0.9906023622047244
 30
0.0
 10
1.730251968503937
 20
0.9906023622047244
 30
0.0
 10
1.730251968503937
 20
0.9906023622047244
 30
0.0
 10
1.730251968503937
 20
0.9906023622047244
 30
0.0
 10
1.05255905511811
 20
1.228877952755906
 30
0.0
 10
1.05255905511811
 20
1.228877952755906
 30
0.0
  0
SPLINE
  5
4F
330
1F
100
AcDbEntity
  8
LAYER_1
 62
   250
100
AcDbSpline
210
0.0
220
0.0
230
1.0
 70
    11
 71
     3
 72
    20
 73
    16
 74
     0
 42
0.0000000001
 43
0.0000000001
 40
0.0
 40
0.0
 40
0.0
 40
0.0
 40
0.25
 40
0.25
 40
0.25
 40
0.25
 40
0.5
 40
0.5
 40
0.5
 40
0.5
 40
0.75
 40
0.75
 40
0.75
 40
0.75
 40
1.0
 40
1.0
 40
1.0
 40
1.0
 10
1.05255905511811
 20
1.228877952755906
 30
0.0
 10
1.05255905511811
 20
1.228877952755906
 30
0.0
 10
1.051818897637795
 20
1.977330708661417
 30
0.0
 10
1.051818897637795
 20
1.977330708661417
 30
0.0
 10
1.051818897637795
 20
1.977330708661417
 30
0.0
 10
1.051818897637795
 20
1.977330708661417
 30
0.0
 10
1.729511811023622
 20
1.739055118110236
 30
0.0
 10
1.729511811023622
 20
1.739055118110236
 30
0.0
 10
1.729511811023622
 20
1.739055118110236
 30
0.0
 10
1.729511811023622
 20
1.739055118110236
 30
0.0
 10
1.730251968503937
 20
0.9906023622047244
 30
0.0
 10
1.730251968503937
 20
0.9906023622047244
 30
0.0
 10
1.730251968503937
 20
0.9906023622047244
 30
0.0
 10
1.730251968503937
 20
0.9906023622047244
 30
0.0
 10
1.05255905511811
 20
1.228877952755906
 30
0.0
 10
1.05255905511811
 20
1.228877952755906
 30
0.0
  0
SPLINE
  5
50
330
1F
100
AcDbEntity
  8
LAYER_1
 62
   252
100
AcDbSpline
210
0.0
220
0.0
230
1.0
 70
    11
 71
     3
 72
    20
 73
    16
 74
     0
 42
0.0000000001
 43
0.0000000001
 40
0.0
 40
0.0
 40
0.0
 40
0.0
 40
0.25
 40
0.25
 40
0.25
 40
0.25
 40
0.5
 40
0.5
 40
0.5
 40
0.5
 40
0.75
 40
0.75
 40
0.75
 40
0.75
 40
1.0
 40
1.0
 40
1.0
 40
1.0
 10
1.730251968503937
 20
0.9906023622047244
 30
0.0
 10
1.730251968503937
 20
0.9906023622047244
 30
0.0
 10
1.729511811023622
 20
1.739055118110236
 30
0.0
 10
1.729511811023622
 20
1.739055118110236
 30
0.0
 10
1.729511811023622
 20
1.739055118110236
 30
0.0
 10
1.729511811023622
 20
1.739055118110236
 30
0.0
 10
1.912086614173228
 20
1.739055118110236
 30
0.0
 10
1.912086614173228
 20
1.739055118110236
 30
0.0
 10
1.912086614173228
 20
1.739055118110236
 30
0.0
 10
1.912086614173228
 20
1.739055118110236
 30
0.0
 10
1.912826771653543
 20
0.9906023622047244
 30
0.0
 10
1.912826771653543
 20
0.9906023622047244
 30
0.0
 10
1.912826771653543
 20
0.9906023622047244
 30
0.0
 10
1.912826771653543
 20
0.9906023622047244
 30
0.0
 10
1.730251968503937
 20
0.9906023622047244
 30
0.0
 10
1.730251968503937
 20
0.9906023622047244
 30
0.0
  0
SPLINE
  5
51
330
1F
100
AcDbEntity
  8
LAYER_1
 62
   250
100
AcDbSpline
210
0.0
220
0.0
230
1.0
 70
    11
 71
     3
 72
    20
 73
    16
 74
     0
 42
0.0000000001
 43
0.0000000001
 40
0.0
 40
0.0
 40
0.0
 40
0.0
 40
0.25
 40
0.25
 40
0.25
 40
0.25
 40
0.5
 40
0.5
 40
0.5
 40
0.5
 40
0.75
 40
0.75
 40
0.75
 40
0.75
 40
1.0
 40
1.0
 40
1.0
 40
1.0
 10
1.730251968503937
 20
0.9906023622047244
 30
0.0
 10
1.730251968503937
 20
0.9906023622047244
 30
0.0
 10
1.729511811023622
 20
1.739055118110236
 30
0.0
 10
1.729511811023622
 20
1.739055118110236
 30
0.0
 10
1.729511811023622
 20
1.739055118110236
 30
0.0
 10
1.729511811023622
 20
1.739055118110236
 30
0.0
 10
1.912086614173228
 20
1.739055118110236
 30
0.0
 10
1.912086614173228
 20
1.739055118110236
 30
0.0
 10
1.912086614173228
 20
1.739055118110236
 30
0.0
 10
1.912086614173228
 20
1.739055118110236
 30
0.0
 10
1.912826771653543
 20
0.9906023622047244
 30
0.0
 10
1.912826771653543
 20
0.9906023622047244
 30
0.0
 10
1.912826771653543
 20
0.9906023622047244
 30
0.0
 10
1.912826771653543
 20
0.9906023622047244
 30
0.0
 10
1.730251968503937
 20
0.9906023622047244
 30
0.0
 10
1.730251968503937
 20
0.9906023622047244
 30
0.0
  0
SPLINE
  5
52
330
1F
100
AcDbEntity
  8
LAYER_1
 62
   252
100
AcDbSpline
210
0.0
220
0.0
230
1.0
 70
    11
 71
     3
 72
    20
 73
    16
 74
     0
 42
0.0000000001
 43
0.0000000001
 40
0.0
 40
0.0
 40
0.0
 40
0.0
 40
0.25
 40
0.25
 40
0.25
 40
0.25
 40
0.5
 40
0.5
 40
0.5
 40
0.5
 40
0.75
 40
0.75
 40
0.75
 40
0.75
 40
1.0
 40
1.0
 40
1.0
 40
1.0
 10
0.6069566929133858
 20
1.228877952755906
 30
0.0
 10
0.6069566929133858
 20
1.228877952755906
 30
0.0
 10
0.6062165354330709
 20
1.977330708661417
 30
0.0
 10
0.6062165354330709
 20
1.977330708661417
 30
0.0
 10
0.6062165354330709
 20
1.977330708661417
 30
0.0
 10
0.6062165354330709
 20
1.977330708661417
 30
0.0
 10
1.051818897637795
 20
1.977330708661417
 30
0.0
 10
1.051818897637795
 20
1.977330708661417
 30
0.0
 10
1.051818897637795
 20
1.977330708661417
 30
0.0
 10
1.051818897637795
 20
1.977330708661417
 30
0.0
 10
1.05255905511811
 20
1.228877952755906
 30
0.0
 10
1.05255905511811
 20
1.228877952755906
 30
0.0
 10
1.05255905511811
 20
1.228877952755906
 30
0.0
 10
1.05255905511811
 20
1.228877952755906
 30
0.0
 10
0.6069566929133858
 20
1.228877952755906
 30
0.0
 10
0.6069566929133858
 20
1.228877952755906
 30
0.0
  0
SPLINE
  5
53
330
1F
100
AcDbEntity
  8
LAYER_1
 62
   250
100
AcDbSpline
210
0.0
220
0.0
230
1.0
 70
    11
 71
     3
 72
    20
 73
    16
 74
     0
 42
0.0000000001
 43
0.0000000001
 40
0.0
 40
0.0
 40
0.0
 40
0.0
 40
0.25
 40
0.25
 40
0.25
 40
0.25
 40
0.5
 40
0.5
 40
0.5
 40
0.5
 40
0.75
 40
0.75
 40
0.75
 40
0.75
 40
1.0
 40
1.0
 40
1.0
 40
1.0
 10
0.6069566929133858
 20
1.228877952755906
 30
0.0
 10
0.6069566929133858
 20
1.228877952755906
 30
0.0
 10
0.6062165354330709
 20
1.977330708661417
 30
0.0
 10
0.6062165354330709
 20
1.977330708661417
 30
0.0
 10
0.6062165354330709
 20
1.977330708661417
 30
0.0
 10
0.6062165354330709
 20
1.977330708661417
 30
0.0
 10
1.051818897637795
 20
1.977330708661417
 30
0.0
 10
1.051818897637795
 20
1.977330708661417
 30
0.0
 10
1.051818897637795
 20
1.977330708661417
 30
0.0
 10
1.051818897637795
 20
1.977330708661417
 30
0.0
 10
1.05255905511811
 20
1.228877952755906
 30
0.0
 10
1.05255905511811
 20
1.228877952755906
 30
0.0
 10
1.05255905511811
 20
1.228877952755906
 30
0.0
 10
1.05255905511811
 20
1.228877952755906
 30
0.0
 10
0.6069566929133858
 20
1.228877952755906
 30
0.0
 10
0.6069566929133858
 20
1.228877952755906
 30
0.0
  0
SPLINE
  5
54
330
1F
100
AcDbEntity
  8
LAYER_1
 62
     7
100
AcDbSpline
210
0.0
220
0.0
230
1.0
 70
    11
 71
     3
 72
    28
 73
    24
 74
     0
 42
0.0000000001
 43
0.0000000001
 40
0.0
 40
0.0
 40
0.0
 40
0.0
 40
0.1666666666666667
 40
0.1666666666666667
 40
0.1666666666666667
 40
0.1666666666666667
 40
0.3333333333333333
 40
0.3333333333333333
 40
0.3333333333333333
 40
0.3333333333333333
 40
0.5
 40
0.5
 40
0.5
 40
0.5
 40
0.6666666666666666
 40
0.6666666666666666
 40
0.6666666666666666
 40
0.6666666666666666
 40
0.8333333333333333
 40
0.8333333333333333
 40
0.8333333333333333
 40
0.8333333333333333
 40
1.0
 40
1.0
 40
1.0
 40
1.0
 10
1.05255905511811
 20
1.228877952755906
 30
0.0
 10
1.05255905511811
 20
1.228877952755906
 30
0.0
 10
1.730251968503937
 20
0.9906023622047244
 30
0.0
 10
1.730251968503937
 20
0.9906023622047244
 30
0.0
 10
1.730251968503937
 20
0.9906023622047244
 30
0.0
 10
1.730251968503937
 20
0.9906023622047244
 30
0.0
 10
1.912826771653543
 20
0.9906023622047244
 30
0.0
 10
1.912826771653543
 20
0.9906023622047244
 30
0.0
 10
1.912826771653543
 20
0.9906023622047244
 30
0.0
 10
1.912826771653543
 20
0.9906023622047244
 30
0.0
 10
1.912826771653543
 20
0.7832716535433071
 30
0.0
 10
1.912826771653543
 20
0.7832716535433071
 30
0.0
 10
1.912826771653543
 20
0.7832716535433071
 30
0.0
 10
1.912826771653543
 20
0.7832716535433071
 30
0.0
 10
0.6069566929133858
 20
0.7832716535433071
 30
0.0
 10
0.6069566929133858
 20
0.7832716535433071
 30
0.0
 10
0.6069566929133858
 20
0.7832716535433071
 30
0.0
 10
0.6069566929133858
 20
0.7832716535433071
 30
0.0
 10
0.6069566929133858
 20
1.228877952755906
 30
0.0
 10
0.6069566929133858
 20
1.228877952755906
 30
0.0
 10
0.6069566929133858
 20
1.228877952755906
 30
0.0
 10
0.6069566929133858
 20
1.228877952755906
 30
0.0
 10
1.05255905511811
 20
1.228877952755906
 30
0.0
 10
1.05255905511811
 20
1.228877952755906
 30
0.0
  0
SPLINE
  5
55
330
1F
100
AcDbEntity
  8
LAYER_1
 62
   250
100
AcDbSpline
210
0.0
220
0.0
230
1.0
 70
    11
 71
     3
 72
   104
 73
   100
 74
     0
 42
0.0000000001
 43
0.0000000001
 40
0.0
 40
0.0
 40
0.0
 40
0.0
 40
0.04
 40
0.04
 40
0.04
 40
0.04
 40
0.08
 40
0.08
 40
0.08
 40
0.08
 40
0.12
 40
0.12
 40
0.12
 40
0.12
 40
0.16
 40
0.16
 40
0.16
 40
0.16
 40
0.2
 40
0.2
 40
0.2
 40
0.2
 40
0.24
 40
0.24
 40
0.24
 40
0.24
 40
0.28
 40
0.28
 40
0.28
 40
0.28
 40
0.32
 40
0.32
 40
0.32
 40
0.32
 40
0.36
 40
0.36
 40
0.36
 40
0.36
 40
0.4
 40
0.4
 40
0.4
 40
0.4
 40
0.44
 40
0.44
 40
0.44
 40
0.44
 40
0.4799999999999999
 40
0.4799999999999999
 40
0.4799999999999999
 40
0.4799999999999999
 40
0.5199999999999999
 40
0.5199999999999999
 40
0.5199999999999999
 40
0.5199999999999999
 40
0.5599999999999999
 40
0.5599999999999999
 40
0.5599999999999999
 40
0.5599999999999999
 40
0.6
 40
0.6
 40
0.6
 40
0.6
 40
0.64
 40
0.64
 40
0.64
 40
0.64
 40
0.6800000000000001
 40
0.6800000000000001
 40
0.6800000000000001
 40
0.6800000000000001
 40
0.7200000000000001
 40
0.7200000000000001
 40
0.7200000000000001
 40
0.7200000000000001
 40
0.7600000000000001
 40
0.7600000000000001
 40
0.7600000000000001
 40
0.7600000000000001
 40
0.8000000000000002
 40
0.8000000000000002
 40
0.8000000000000002
 40
0.8000000000000002
 40
0.8400000000000002
 40
0.8400000000000002
 40
0.8400000000000002
 40
0.8400000000000002
 40
0.8800000000000002
 40
0.8800000000000002
 40
0.8800000000000002
 40
0.8800000000000002
 40
0.9200000000000003
 40
0.9200000000000003
 40
0.9200000000000003
 40
0.9200000000000003
 40
0.9600000000000003
 40
0.9600000000000003
 40
0.9600000000000003
 40
0.9600000000000003
 40
1.0
 40
1.0
 40
1.0
 40
1.0
 10
0.8909173228346458
 20
0.6318503937007874
 30
0.0
 10
0.8909173228346458
 20
0.6318503937007874
 30
0.0
 10
0.9448897637795276
 20
0.6318503937007874
 30
0.0
 10
0.9448897637795276
 20
0.6318503937007874
 30
0.0
 10
0.9448897637795276
 20
0.6318503937007874
 30
0.0
 10
0.9580590551181103
 20
0.6318503937007874
 30
0.0
 10
0.9670866141732284
 20
0.631240157480315
 30
0.0
 10
0.9719724409448819
 20
0.6300433070866142
 30
0.0
 10
0.9719724409448819
 20
0.6300433070866142
 30
0.0
 10
0.9791968503937009
 20
0.6283228346456693
 30
0.0
 10
0.9848897637795276
 20
0.6251850393700787
 30
0.0
 10
0.9891141732283465
 20
0.6206259842519686
 30
0.0
 10
0.9891141732283465
 20
0.6206259842519686
 30
0.0
 10
0.9933070866141732
 20
0.6160708661417323
 30
0.0
 10
0.9954173228346457
 20
0.6105708661417323
 30
0.0
 10
0.9954173228346457
 20
0.6041850393700787
 30
0.0
 10
0.9954173228346457
 20
0.6041850393700787
 30
0.0
 10
0.9954173228346457
 20
0.5995708661417323
 30
0.0
 10
0.9943070866141732
 20
0.5954330708661417
 30
0.0
 10
0.9920866141732284
 20
0.5917677165354331
 30
0.0
 10
0.9920866141732284
 20
0.5917677165354331
 30
0.0
 10
0.9898622047244094
 20
0.5880984251968504
 30
0.0
 10
0.9866141732283466
 20
0.5849606299212599
 30
0.0
 10
0.9823897637795276
 20
0.5823779527559055
 30
0.0
 10
0.9823897637795276
 20
0.5823779527559055
 30
0.0
 10
0.9796692913385827
 20
0.5806850393700788
 30
0.0
 10
0.9760000000000001
 20
0.579240157480315
 30
0.0
 10
0.9713346456692914
 20
0.5780433070866142
 30
0.0
 10
0.9713346456692914
 20
0.5780433070866142
 30
0.0
 10
0.977251968503937
 20
0.5769606299212599
 30
0.0
 10
0.9817519685039371
 20
0.5756574803149607
 30
0.0
 10
0.9848346456692914
 20
0.5741574803149606
 30
0.0
 10
0.9848346456692914
 20
0.5741574803149606
 30
0.0
 10
0.9895000000000001
 20
0.5718779527559056
 30
0.0
 10
0.9931968503937009
 20
0.5686299212598426
 30
0.0
 10
0.9958897637795277
 20
0.5643779527559055
 30
0.0
 10
0.9958897637795277
 20
0.5643779527559055
 30
0.0
 10
0.9986141732283465
 20
0.5601574803149606
 30
0.0
 10
0.9999724409448819
 20
0.5553779527559055
 30
0.0
 10
0.9999724409448819
 20
0.5500708661417323
 30
0.0
 10
0.9999724409448819
 20
0.5500708661417323
 30
0.0
 10
0.9999724409448819
 20
0.5449055118110237
 30
0.0
 10
0.9986417322834646
 20
0.5401299212598425
 30
0.0
 10
0.9959724409448819
 20
0.535740157480315
 30
0.0
 10
0.9959724409448819
 20
0.535740157480315
 30
0.0
 10
0.9933346456692914
 20
0.5313503937007874
 30
0.0
 10
0.9895590551181103
 20
0.527740157480315
 30
0.0
 10
0.9847244094488189
 20
0.5249055118110236
 30
0.0
 10
0.9847244094488189
 20
0.5249055118110236
 30
0.0
 10
0.9798622047244094
 20
0.5221023622047244
 30
0.0
 10
0.9741968503937009
 20
0.5202952755905512
 30
0.0
 10
0.9677519685039371
 20
0.5194881889763779
 30
0.0
 10
0.9677519685039371
 20
0.5194881889763779
 30
0.0
 10
0.9612795275590551
 20
0.5187125984251969
 30
0.0
 10
0.9546417322834646
 20
0.5183228346456693
 30
0.0
 10
0.9478070866141732
 20
0.5183228346456693
 30
0.0
 10
0.9478070866141732
 20
0.5183228346456693
 30
0.0
 10
0.9478070866141732
 20
0.5183228346456693
 30
0.0
 10
0.8909173228346458
 20
0.5183228346456693
 30
0.0
 10
0.8909173228346458
 20
0.5183228346456693
 30
0.0
 10
0.8909173228346458
 20
0.5183228346456693
 30
0.0
 10
0.8909173228346458
 20
0.5183228346456693
 30
0.0
 10
0.8909173228346458
 20
0.5251574803149607
 30
0.0
 10
0.8909173228346458
 20
0.5251574803149607
 30
0.0
 10
0.8909173228346458
 20
0.5251574803149607
 30
0.0
 10
0.8909173228346458
 20
0.5251574803149607
 30
0.0
 10
0.894751968503937
 20
0.5251574803149607
 30
0.0
 10
0.894751968503937
 20
0.5251574803149607
 30
0.0
 10
0.894751968503937
 20
0.5251574803149607
 30
0.0
 10
0.8984488188976378
 20
0.5251574803149607
 30
0.0
 10
0.9009488188976378
 20
0.525740157480315
 30
0.0
 10
0.9023070866141733
 20
0.5268779527559055
 30
0.0
 10
0.9023070866141733
 20
0.5268779527559055
 30
0.0
 10
0.9042795275590552
 20
0.5284330708661418
 30
0.0
 10
0.9052519685039371
 20
0.5310433070866142
 30
0.0
 10
0.9052519685039371
 20
0.5346850393700787
 30
0.0
 10
0.9052519685039371
 20
0.5346850393700787
 30
0.0
 10
0.9052519685039371
 20
0.5346850393700787
 30
0.0
 10
0.9052519685039371
 20
0.6135433070866142
 30
0.0
 10
0.9052519685039371
 20
0.6135433070866142
 30
0.0
 10
0.9052519685039371
 20
0.6135433070866142
 30
0.0
 10
0.9052519685039371
 20
0.617240157480315
 30
0.0
 10
0.9049488188976378
 20
0.619740157480315
 30
0.0
 10
0.9043622047244095
 20
0.6210984251968504
 30
0.0
 10
0.9043622047244095
 20
0.6210984251968504
 30
0.0
 10
0.903751968503937
 20
0.6224606299212598
 30
0.0
 10
0.9028622047244095
 20
0.6234330708661418
 30
0.0
 10
0.9016692913385828
 20
0.6240433070866142
 30
0.0
 10
0.9016692913385828
 20
0.6240433070866142
 30
0.0
 10
0.9004763779527559
 20
0.6246259842519686
 30
0.0
 10
0.8981692913385827
 20
0.6249330708661418
 30
0.0
 10
0.894751968503937
 20
0.6249330708661418
 30
0.0
 10
0.894751968503937
 20
0.6249330708661418
 30
0.0
 10
0.894751968503937
 20
0.6249330708661418
 30
0.0
 10
0.8909173228346458
 20
0.6249330708661418
 30
0.0
 10
0.8909173228346458
 20
0.6249330708661418
 30
0.0
 10
0.8909173228346458
 20
0.6249330708661418
 30
0.0
 10
0.8909173228346458
 20
0.6249330708661418
 30
0.0
 10
0.8909173228346458
 20
0.6318503937007874
 30
0.0
 10
0.8909173228346458
 20
0.6318503937007874
 30
0.0
  0
SPLINE
  5
56
330
1F
100
AcDbEntity
  8
LAYER_1
 62
   250
100
AcDbSpline
210
0.0
220
0.0
230
1.0
 70
    11
 71
     3
 72
    40
 73
    36
 74
     0
 42
0.0000000001
 43
0.0000000001
 40
0.0
 40
0.0
 40
0.0
 40
0.0
 40
0.1111111111111111
 40
0.1111111111111111
 40
0.1111111111111111
 40
0.1111111111111111
 40
0.2222222222222222
 40
0.2222222222222222
 40
0.2222222222222222
 40
0.2222222222222222
 40
0.3333333333333333
 40
0.3333333333333333
 40
0.3333333333333333
 40
0.3333333333333333
 40
0.4444444444444444
 40
0.4444444444444444
 40
0.4444444444444444
 40
0.4444444444444444
 40
0.5555555555555556
 40
0.5555555555555556
 40
0.5555555555555556
 40
0.5555555555555556
 40
0.6666666666666667
 40
0.6666666666666667
 40
0.6666666666666667
 40
0.6666666666666667
 40
0.7777777777777779
 40
0.7777777777777779
 40
0.7777777777777779
 40
0.7777777777777779
 40
0.8888888888888891
 40
0.8888888888888891
 40
0.8888888888888891
 40
0.8888888888888891
 40
1.0
 40
1.0
 40
1.0
 40
1.0
 10
0.9204763779527559
 20
0.6228228346456693
 30
0.0
 10
0.9204763779527559
 20
0.6228228346456693
 30
0.0
 10
0.9204763779527559
 20
0.581240157480315
 30
0.0
 10
0.9204763779527559
 20
0.581240157480315
 30
0.0
 10
0.9204763779527559
 20
0.581240157480315
 30
0.0
 10
0.9204763779527559
 20
0.581240157480315
 30
0.0
 10
0.9412244094488189
 20
0.581240157480315
 30
0.0
 10
0.9412244094488189
 20
0.581240157480315
 30
0.0
 10
0.9412244094488189
 20
0.581240157480315
 30
0.0
 10
0.9509173228346457
 20
0.581240157480315
 30
0.0
 10
0.9575866141732284
 20
0.5816850393700788
 30
0.0
 10
0.9611417322834646
 20
0.5825984251968505
 30
0.0
 10
0.9611417322834646
 20
0.5825984251968505
 30
0.0
 10
0.9667519685039371
 20
0.5840708661417323
 30
0.0
 10
0.9710000000000001
 20
0.5865708661417323
 30
0.0
 10
0.9739724409448819
 20
0.5900984251968504
 30
0.0
 10
0.9739724409448819
 20
0.5900984251968504
 30
0.0
 10
0.9769173228346457
 20
0.5936259842519686
 30
0.0
 10
0.9784173228346457
 20
0.5981574803149606
 30
0.0
 10
0.9784173228346457
 20
0.6036850393700788
 30
0.0
 10
0.9784173228346457
 20
0.6036850393700788
 30
0.0
 10
0.9784173228346457
 20
0.6083503937007875
 30
0.0
 10
0.9770590551181103
 20
0.612240157480315
 30
0.0
 10
0.9743897637795276
 20
0.6153779527559056
 30
0.0
 10
0.9743897637795276
 20
0.6153779527559056
 30
0.0
 10
0.9716968503937008
 20
0.618488188976378
 30
0.0
 10
0.9680866141732284
 20
0.6206259842519686
 30
0.0
 10
0.9635866141732283
 20
0.6217677165354331
 30
0.0
 10
0.9635866141732283
 20
0.6217677165354331
 30
0.0
 10
0.9606692913385827
 20
0.6224606299212598
 30
0.0
 10
0.9545866141732284
 20
0.6228228346456693
 30
0.0
 10
0.9453622047244095
 20
0.6228228346456693
 30
0.0
 10
0.9453622047244095
 20
0.6228228346456693
 30
0.0
 10
0.9453622047244095
 20
0.6228228346456693
 30
0.0
 10
0.9204763779527559
 20
0.6228228346456693
 30
0.0
 10
0.9204763779527559
 20
0.6228228346456693
 30
0.0
  0
SPLINE
  5
57
330
1F
100
AcDbEntity
  8
LAYER_1
 62
   250
100
AcDbSpline
210
0.0
220
0.0
230
1.0
 70
    11
 71
     3
 72
    52
 73
    48
 74
     0
 42
0.0000000001
 43
0.0000000001
 40
0.0
 40
0.0
 40
0.0
 40
0.0
 40
0.0833333333333333
 40
0.0833333333333333
 40
0.0833333333333333
 40
0.0833333333333333
 40
0.1666666666666667
 40
0.1666666666666667
 40
0.1666666666666667
 40
0.1666666666666667
 40
0.25
 40
0.25
 40
0.25
 40
0.25
 40
0.3333333333333333
 40
0.3333333333333333
 40
0.3333333333333333
 40
0.3333333333333333
 40
0.4166666666666666
 40
0.4166666666666666
 40
0.4166666666666666
 40
0.4166666666666666
 40
0.4999999999999999
 40
0.4999999999999999
 40
0.4999999999999999
 40
0.4999999999999999
 40
0.5833333333333333
 40
0.5833333333333333
 40
0.5833333333333333
 40
0.5833333333333333
 40
0.6666666666666666
 40
0.6666666666666666
 40
0.6666666666666666
 40
0.6666666666666666
 40
0.75
 40
0.75
 40
0.75
 40
0.75
 40
0.8333333333333334
 40
0.8333333333333334
 40
0.8333333333333334
 40
0.8333333333333334
 40
0.9166666666666667
 40
0.9166666666666667
 40
0.9166666666666667
 40
0.9166666666666667
 40
1.0
 40
1.0
 40
1.0
 40
1.0
 10
0.9204763779527559
 20
0.5734055118110236
 30
0.0
 10
0.9204763779527559
 20
0.5734055118110236
 30
0.0
 10
0.9204763779527559
 20
0.5361574803149607
 30
0.0
 10
0.9204763779527559
 20
0.5361574803149607
 30
0.0
 10
0.9204763779527559
 20
0.5361574803149607
 30
0.0
 10
0.9204763779527559
 20
0.5324055118110237
 30
0.0
 10
0.9206417322834646
 20
0.5301850393700788
 30
0.0
 10
0.9209448818897639
 20
0.5294606299212599
 30
0.0
 10
0.9209448818897639
 20
0.5294606299212599
 30
0.0
 10
0.9213897637795276
 20
0.528488188976378
 30
0.0
 10
0.9222519685039371
 20
0.5278228346456693
 30
0.0
 10
0.9235590551181103
 20
0.5274330708661418
 30
0.0
 10
0.9235590551181103
 20
0.5274330708661418
 30
0.0
 10
0.924476377952756
 20
0.5271574803149607
 30
0.0
 10
0.9270866141732284
 20
0.5270157480314961
 30
0.0
 10
0.9313622047244095
 20
0.5270157480314961
 30
0.0
 10
0.9313622047244095
 20
0.5270157480314961
 30
0.0
 10
0.9313622047244095
 20
0.5270157480314961
 30
0.0
 10
0.9424448818897638
 20
0.5270157480314961
 30
0.0
 10
0.9424448818897638
 20
0.5270157480314961
 30
0.0
 10
0.9424448818897638
 20
0.5270157480314961
 30
0.0
 10
0.9533897637795276
 20
0.5270157480314961
 30
0.0
 10
0.9612244094488189
 20
0.5276299212598425
 30
0.0
 10
0.9659173228346457
 20
0.5288503937007875
 30
0.0
 10
0.9659173228346457
 20
0.5288503937007875
 30
0.0
 10
0.9706141732283465
 20
0.5300708661417323
 30
0.0
 10
0.9746141732283465
 20
0.5326574803149606
 30
0.0
 10
0.9779173228346457
 20
0.5366023622047245
 30
0.0
 10
0.9779173228346457
 20
0.5366023622047245
 30
0.0
 10
0.981224409448819
 20
0.5405157480314961
 30
0.0
 10
0.9828897637795276
 20
0.545267716535433
 30
0.0
 10
0.9828897637795276
 20
0.5507952755905512
 30
0.0
 10
0.9828897637795276
 20
0.5507952755905512
 30
0.0
 10
0.9828897637795276
 20
0.5554606299212599
 30
0.0
 10
0.9815314960629922
 20
0.5595984251968504
 30
0.0
 10
0.9788622047244094
 20
0.5632125984251969
 30
0.0
 10
0.9788622047244094
 20
0.5632125984251969
 30
0.0
 10
0.9761692913385828
 20
0.5668228346456693
 30
0.0
 10
0.9724448818897639
 20
0.5694055118110236
 30
0.0
 10
0.9676968503937008
 20
0.5710157480314961
 30
0.0
 10
0.9676968503937008
 20
0.5710157480314961
 30
0.0
 10
0.9629448818897638
 20
0.5726299212598426
 30
0.0
 10
0.9545314960629922
 20
0.5734055118110236
 30
0.0
 10
0.9424448818897638
 20
0.5734055118110236
 30
0.0
 10
0.9424448818897638
 20
0.5734055118110236
 30
0.0
 10
0.9424448818897638
 20
0.5734055118110236
 30
0.0
 10
0.9204763779527559
 20
0.5734055118110236
 30
0.0
 10
0.9204763779527559
 20
0.5734055118110236
 30
0.0
  0
SPLINE
  5
58
330
1F
100
AcDbEntity
  8
LAYER_1
 62
   250
100
AcDbSpline
210
0.0
220
0.0
230
1.0
 70
    11
 71
     3
 72
   112
 73
   108
 74
     0
 42
0.0000000001
 43
0.0000000001
 40
0.0
 40
0.0
 40
0.0
 40
0.0
 40
0.037037037037037
 40
0.037037037037037
 40
0.037037037037037
 40
0.037037037037037
 40
0.0740740740740741
 40
0.0740740740740741
 40
0.0740740740740741
 40
0.0740740740740741
 40
0.1111111111111111
 40
0.1111111111111111
 40
0.1111111111111111
 40
0.1111111111111111
 40
0.1481481481481481
 40
0.1481481481481481
 40
0.1481481481481481
 40
0.1481481481481481
 40
0.1851851851851852
 40
0.1851851851851852
 40
0.1851851851851852
 40
0.1851851851851852
 40
0.2222222222222222
 40
0.2222222222222222
 40
0.2222222222222222
 40
0.2222222222222222
 40
0.2592592592592592
 40
0.2592592592592592
 40
0.2592592592592592
 40
0.2592592592592592
 40
0.2962962962962963
 40
0.2962962962962963
 40
0.2962962962962963
 40
0.2962962962962963
 40
0.3333333333333333
 40
0.3333333333333333
 40
0.3333333333333333
 40
0.3333333333333333
 40
0.3703703703703704
 40
0.3703703703703704
 40
0.3703703703703704
 40
0.3703703703703704
 40
0.4074074074074074
 40
0.4074074074074074
 40
0.4074074074074074
 40
0.4074074074074074
 40
0.4444444444444444
 40
0.4444444444444444
 40
0.4444444444444444
 40
0.4444444444444444
 40
0.4814814814814815
 40
0.4814814814814815
 40
0.4814814814814815
 40
0.4814814814814815
 40
0.5185185185185185
 40
0.5185185185185185
 40
0.5185185185185185
 40
0.5185185185185185
 40
0.5555555555555556
 40
0.5555555555555556
 40
0.5555555555555556
 40
0.5555555555555556
 40
0.5925925925925926
 40
0.5925925925925926
 40
0.5925925925925926
 40
0.5925925925925926
 40
0.6296296296296295
 40
0.6296296296296295
 40
0.6296296296296295
 40
0.6296296296296295
 40
0.6666666666666665
 40
0.6666666666666665
 40
0.6666666666666665
 40
0.6666666666666665
 40
0.7037037037037035
 40
0.7037037037037035
 40
0.7037037037037035
 40
0.7037037037037035
 40
0.7407407407407405
 40
0.7407407407407405
 40
0.7407407407407405
 40
0.7407407407407405
 40
0.7777777777777775
 40
0.7777777777777775
 40
0.7777777777777775
 40
0.7777777777777775
 40
0.8148148148148144
 40
0.8148148148148144
 40
0.8148148148148144
 40
0.8148148148148144
 40
0.8518518518518514
 40
0.8518518518518514
 40
0.8518518518518514
 40
0.8518518518518514
 40
0.8888888888888884
 40
0.8888888888888884
 40
0.8888888888888884
 40
0.8888888888888884
 40
0.9259259259259254
 40
0.9259259259259254
 40
0.9259259259259254
 40
0.9259259259259254
 40
0.9629629629629624
 40
0.9629629629629624
 40
0.9629629629629624
 40
0.9629629629629624
 40
1.0
 40
1.0
 40
1.0
 40
1.0
 10
1.057582677165355
 20
0.6318503937007874
 30
0.0
 10
1.057582677165355
 20
0.6318503937007874
 30
0.0
 10
1.071
 20
0.6318503937007874
 30
0.0
 10
1.071
 20
0.6318503937007874
 30
0.0
 10
1.071
 20
0.6318503937007874
 30
0.0
 10
1.071
 20
0.6318503937007874
 30
0.0
 10
1.106248031496063
 20
0.5369606299212598
 30
0.0
 10
1.106248031496063
 20
0.5369606299212598
 30
0.0
 10
1.106248031496063
 20
0.5369606299212598
 30
0.0
 10
1.107972440944882
 20
0.5321850393700788
 30
0.0
 10
1.109720472440945
 20
0.5290157480314961
 30
0.0
 10
1.1115
 20
0.527488188976378
 30
0.0
 10
1.1115
 20
0.527488188976378
 30
0.0
 10
1.113248031496063
 20
0.5259330708661417
 30
0.0
 10
1.115637795275591
 20
0.5251574803149607
 30
0.0
 10
1.118610236220472
 20
0.5251574803149607
 30
0.0
 10
1.118610236220472
 20
0.5251574803149607
 30
0.0
 10
1.118610236220472
 20
0.5251574803149607
 30
0.0
 10
1.120389763779528
 20
0.5251574803149607
 30
0.0
 10
1.120389763779528
 20
0.5251574803149607
 30
0.0
 10
1.120389763779528
 20
0.5251574803149607
 30
0.0
 10
1.120389763779528
 20
0.5251574803149607
 30
0.0
 10
1.120389763779528
 20
0.5183228346456693
 30
0.0
 10
1.120389763779528
 20
0.5183228346456693
 30
0.0
 10
1.120389763779528
 20
0.5183228346456693
 30
0.0
 10
1.120389763779528
 20
0.5183228346456693
 30
0.0
 10
1.079944881889764
 20
0.5183228346456693
 30
0.0
 10
1.079944881889764
 20
0.5183228346456693
 30
0.0
 10
1.079944881889764
 20
0.5183228346456693
 30
0.0
 10
1.079944881889764
 20
0.5183228346456693
 30
0.0
 10
1.079944881889764
 20
0.5251574803149607
 30
0.0
 10
1.079944881889764
 20
0.5251574803149607
 30
0.0
 10
1.079944881889764
 20
0.5251574803149607
 30
0.0
 10
1.081248031496063
 20
0.5252677165354331
 30
0.0
 10
1.082527559055118
 20
0.5253228346456693
 30
0.0
 10
1.083779527559055
 20
0.5253228346456693
 30
0.0
 10
1.083779527559055
 20
0.5253228346456693
 30
0.0
 10
1.086389763779528
 20
0.5253228346456693
 30
0.0
 10
1.088082677165355
 20
0.5256023622047245
 30
0.0
 10
1.088917322834646
 20
0.5261299212598426
 30
0.0
 10
1.088917322834646
 20
0.5261299212598426
 30
0.0
 10
1.090472440944882
 20
0.5271574803149607
 30
0.0
 10
1.091275590551181
 20
0.5284606299212599
 30
0.0
 10
1.091275590551181
 20
0.5300433070866142
 30
0.0
 10
1.091275590551181
 20
0.5300433070866142
 30
0.0
 10
1.091275590551181
 20
0.5311850393700788
 30
0.0
 10
1.0905
 20
0.5339606299212598
 30
0.0
 10
1.089
 20
0.5384330708661418
 30
0.0
 10
1.089
 20
0.5384330708661418
 30
0.0
 10
1.089
 20
0.5384330708661418
 30
0.0
 10
1.0815
 20
0.5604055118110236
 30
0.0
 10
1.0815
 20
0.5604055118110236
 30
0.0
 10
1.0815
 20
0.5604055118110236
 30
0.0
 10
1.0815
 20
0.5604055118110236
 30
0.0
 10
1.040334645669292
 20
0.5604055118110236
 30
0.0
 10
1.040334645669292
 20
0.5604055118110236
 30
0.0
 10
1.040334645669292
 20
0.5604055118110236
 30
0.0
 10
1.040334645669292
 20
0.5604055118110236
 30
0.0
 10
1.031527559055118
 20
0.5358228346456693
 30
0.0
 10
1.031527559055118
 20
0.5358228346456693
 30
0.0
 10
1.031527559055118
 20
0.5358228346456693
 30
0.0
 10
1.030610236220473
 20
0.5332677165354331
 30
0.0
 10
1.030137795275591
 20
0.531515748031496
 30
0.0
 10
1.030137795275591
 20
0.530515748031496
 30
0.0
 10
1.030137795275591
 20
0.530515748031496
 30
0.0
 10
1.030137795275591
 20
0.5294330708661418
 30
0.0
 10
1.030444881889764
 20
0.528488188976378
 30
0.0
 10
1.031
 20
0.5276850393700787
 30
0.0
 10
1.031
 20
0.5276850393700787
 30
0.0
 10
1.031582677165355
 20
0.5268779527559055
 30
0.0
 10
1.032334645669292
 20
0.5262677165354331
 30
0.0
 10
1.033334645669291
 20
0.5258503937007875
 30
0.0
 10
1.033334645669291
 20
0.5258503937007875
 30
0.0
 10
1.034307086614173
 20
0.5254330708661418
 30
0.0
 10
1.03586220472441
 20
0.5252401574803149
 30
0.0
 10
1.038055118110236
 20
0.5252401574803149
 30
0.0
 10
1.038055118110236
 20
0.5252401574803149
 30
0.0
 10
1.0395
 20
0.5252401574803149
 30
0.0
 10
1.040692913385827
 20
0.5252125984251969
 30
0.0
 10
1.041610236220472
 20
0.5251574803149607
 30
0.0
 10
1.041610236220472
 20
0.5251574803149607
 30
0.0
 10
1.041610236220472
 20
0.5251574803149607
 30
0.0
 10
1.041610236220472
 20
0.5183228346456693
 30
0.0
 10
1.041610236220472
 20
0.5183228346456693
 30
0.0
 10
1.041610236220472
 20
0.5183228346456693
 30
0.0
 10
1.041610236220472
 20
0.5183228346456693
 30
0.0
 10
1.007692913385827
 20
0.5183228346456693
 30
0.0
 10
1.007692913385827
 20
0.5183228346456693
 30
0.0
 10
1.007692913385827
 20
0.5183228346456693
 30
0.0
 10
1.007692913385827
 20
0.5183228346456693
 30
0.0
 10
1.007692913385827
 20
0.5251574803149607
 30
0.0
 10
1.007692913385827
 20
0.5251574803149607
 30
0.0
 10
1.007692913385827
 20
0.5251574803149607
 30
0.0
 10
1.010834645669291
 20
0.5251574803149607
 30
0.0
 10
1.013110236220473
 20
0.5254606299212599
 30
0.0
 10
1.014472440944882
 20
0.5261023622047244
 30
0.0
 10
1.014472440944882
 20
0.5261023622047244
 30
0.0
 10
1.01586220472441
 20
0.5267125984251969
 30
0.0
 10
1.017082677165354
 20
0.5277125984251969
 30
0.0
 10
1.018110236220473
 20
0.5291023622047244
 30
0.0
 10
1.018110236220473
 20
0.5291023622047244
 30
0.0
 10
1.019137795275591
 20
0.530488188976378
 30
0.0
 10
1.0205
 20
0.5334055118110237
 30
0.0
 10
1.022165354330709
 20
0.5378503937007875
 30
0.0
 10
1.022165354330709
 20
0.5378503937007875
 30
0.0
 10
1.022165354330709
 20
0.5378503937007875
 30
0.0
 10
1.057582677165355
 20
0.6318503937007874
 30
0.0
 10
1.057582677165355
 20
0.6318503937007874
 30
0.0
  0
SPLINE
  5
59
330
1F
100
AcDbEntity
  8
LAYER_1
 62
   250
100
AcDbSpline
210
0.0
220
0.0
230
1.0
 70
    11
 71
     3
 72
    16
 73
    12
 74
     0
 42
0.0000000001
 43
0.0000000001
 40
0.0
 40
0.0
 40
0.0
 40
0.0
 40
0.3333333333333333
 40
0.3333333333333333
 40
0.3333333333333333
 40
0.3333333333333333
 40
0.6666666666666666
 40
0.6666666666666666
 40
0.6666666666666666
 40
0.6666666666666666
 40
1.0
 40
1.0
 40
1.0
 40
1.0
 10
1.043334645669291
 20
0.5683779527559055
 30
0.0
 10
1.043334645669291
 20
0.5683779527559055
 30
0.0
 10
1.078417322834646
 20
0.5683779527559055
 30
0.0
 10
1.078417322834646
 20
0.5683779527559055
 30
0.0
 10
1.078417322834646
 20
0.5683779527559055
 30
0.0
 10
1.078417322834646
 20
0.5683779527559055
 30
0.0
 10
1.060834645669291
 20
0.6172125984251968
 30
0.0
 10
1.060834645669291
 20
0.6172125984251968
 30
0.0
 10
1.060834645669291
 20
0.6172125984251968
 30
0.0
 10
1.060834645669291
 20
0.6172125984251968
 30
0.0
 10
1.043334645669291
 20
0.5683779527559055
 30
0.0
 10
1.043334645669291
 20
0.5683779527559055
 30
0.0
  0
SPLINE
  5
5A
330
1F
100
AcDbEntity
  8
LAYER_1
 62
   250
100
AcDbSpline
210
0.0
220
0.0
230
1.0
 70
    11
 71
     3
 72
    72
 73
    68
 74
     0
 42
0.0000000001
 43
0.0000000001
 40
0.0
 40
0.0
 40
0.0
 40
0.0
 40
0.0588235294117647
 40
0.0588235294117647
 40
0.0588235294117647
 40
0.0588235294117647
 40
0.1176470588235294
 40
0.1176470588235294
 40
0.1176470588235294
 40
0.1176470588235294
 40
0.1764705882352941
 40
0.1764705882352941
 40
0.1764705882352941
 40
0.1764705882352941
 40
0.2352941176470588
 40
0.2352941176470588
 40
0.2352941176470588
 40
0.2352941176470588
 40
0.2941176470588235
 40
0.2941176470588235
 40
0.2941176470588235
 40
0.2941176470588235
 40
0.3529411764705883
 40
0.3529411764705883
 40
0.3529411764705883
 40
0.3529411764705883
 40
0.411764705882353
 40
0.411764705882353
 40
0.411764705882353
 40
0.411764705882353
 40
0.4705882352941177
 40
0.4705882352941177
 40
0.4705882352941177
 40
0.4705882352941177
 40
0.5294117647058824
 40
0.5294117647058824
 40
0.5294117647058824
 40
0.5294117647058824
 40
0.5882352941176471
 40
0.5882352941176471
 40
0.5882352941176471
 40
0.5882352941176471
 40
0.6470588235294118
 40
0.6470588235294118
 40
0.6470588235294118
 40
0.6470588235294118
 40
0.7058823529411765
 40
0.7058823529411765
 40
0.7058823529411765
 40
0.7058823529411765
 40
0.7647058823529412
 40
0.7647058823529412
 40
0.7647058823529412
 40
0.7647058823529412
 40
0.823529411764706
 40
0.823529411764706
 40
0.823529411764706
 40
0.823529411764706
 40
0.8823529411764707
 40
0.8823529411764707
 40
0.8823529411764707
 40
0.8823529411764707
 40
0.9411764705882354
 40
0.9411764705882354
 40
0.9411764705882354
 40
0.9411764705882354
 40
1.0
 40
1.0
 40
1.0
 40
1.0
 10
1.283417322834646
 20
0.6318503937007874
 30
0.0
 10
1.283417322834646
 20
0.6318503937007874
 30
0.0
 10
1.2895
 20
0.6318503937007874
 30
0.0
 10
1.2895
 20
0.6318503937007874
 30
0.0
 10
1.2895
 20
0.6318503937007874
 30
0.0
 10
1.2895
 20
0.6318503937007874
 30
0.0
 10
1.2895
 20
0.5376023622047245
 30
0.0
 10
1.2895
 20
0.5376023622047245
 30
0.0
 10
1.2895
 20
0.5376023622047245
 30
0.0
 10
1.2895
 20
0.5331574803149607
 30
0.0
 10
1.289807086614173
 20
0.5302952755905512
 30
0.0
 10
1.290362204724409
 20
0.5290157480314961
 30
0.0
 10
1.290362204724409
 20
0.5290157480314961
 30
0.0
 10
1.290944881889764
 20
0.527740157480315
 30
0.0
 10
1.29186220472441
 20
0.5267952755905512
 30
0.0
 10
1.293165354330709
 20
0.5261299212598426
 30
0.0
 10
1.293165354330709
 20
0.5261299212598426
 30
0.0
 10
1.294472440944882
 20
0.525488188976378
 30
0.0
 10
1.297055118110236
 20
0.5251574803149607
 30
0.0
 10
1.300917322834646
 20
0.5251574803149607
 30
0.0
 10
1.300917322834646
 20
0.5251574803149607
 30
0.0
 10
1.300917322834646
 20
0.5251574803149607
 30
0.0
 10
1.308889763779528
 20
0.5251574803149607
 30
0.0
 10
1.308889763779528
 20
0.5251574803149607
 30
0.0
 10
1.308889763779528
 20
0.5251574803149607
 30
0.0
 10
1.308889763779528
 20
0.5251574803149607
 30
0.0
 10
1.308889763779528
 20
0.5183228346456693
 30
0.0
 10
1.308889763779528
 20
0.5183228346456693
 30
0.0
 10
1.308889763779528
 20
0.5183228346456693
 30
0.0
 10
1.308889763779528
 20
0.5183228346456693
 30
0.0
 10
1.255251968503937
 20
0.5183228346456693
 30
0.0
 10
1.255251968503937
 20
0.5183228346456693
 30
0.0
 10
1.255251968503937
 20
0.5183228346456693
 30
0.0
 10
1.255251968503937
 20
0.5183228346456693
 30
0.0
 10
1.255251968503937
 20
0.5251574803149607
 30
0.0
 10
1.255251968503937
 20
0.5251574803149607
 30
0.0
 10
1.255251968503937
 20
0.5251574803149607
 30
0.0
 10
1.255251968503937
 20
0.5251574803149607
 30
0.0
 10
1.264110236220473
 20
0.5251574803149607
 30
0.0
 10
1.264110236220473
 20
0.5251574803149607
 30
0.0
 10
1.264110236220473
 20
0.5251574803149607
 30
0.0
 10
1.267972440944882
 20
0.5251574803149607
 30
0.0
 10
1.270527559055118
 20
0.525488188976378
 30
0.0
 10
1.271807086614173
 20
0.5261850393700788
 30
0.0
 10
1.271807086614173
 20
0.5261850393700788
 30
0.0
 10
1.273082677165354
 20
0.5268503937007875
 30
0.0
 10
1.274082677165354
 20
0.5279330708661417
 30
0.0
 10
1.274779527559055
 20
0.5294330708661418
 30
0.0
 10
1.274779527559055
 20
0.5294330708661418
 30
0.0
 10
1.275472440944882
 20
0.5309330708661417
 30
0.0
 10
1.275834645669291
 20
0.5336574803149606
 30
0.0
 10
1.275834645669291
 20
0.5376023622047245
 30
0.0
 10
1.275834645669291
 20
0.5376023622047245
 30
0.0
 10
1.275834645669291
 20
0.5376023622047245
 30
0.0
 10
1.275834645669291
 20
0.6150708661417323
 30
0.0
 10
1.275834645669291
 20
0.6150708661417323
 30
0.0
 10
1.275834645669291
 20
0.6150708661417323
 30
0.0
 10
1.275834645669291
 20
0.6150708661417323
 30
0.0
 10
1.255251968503937
 20
0.6150708661417323
 30
0.0
 10
1.255251968503937
 20
0.6150708661417323
 30
0.0
 10
1.255251968503937
 20
0.6150708661417323
 30
0.0
 10
1.255251968503937
 20
0.6150708661417323
 30
0.0
 10
1.255251968503937
 20
0.6220708661417324
 30
0.0
 10
1.255251968503937
 20
0.6220708661417324
 30
0.0
 10
1.255251968503937
 20
0.6220708661417324
 30
0.0
 10
1.266472440944882
 20
0.6236535433070867
 30
0.0
 10
1.27586220472441
 20
0.6269055118110236
 30
0.0
 10
1.283417322834646
 20
0.6318503937007874
 30
0.0
  0
SPLINE
  5
5B
330
1F
100
AcDbEntity
  8
LAYER_1
 62
   250
100
AcDbSpline
210
0.0
220
0.0
230
1.0
 70
    11
 71
     3
 72
    80
 73
    76
 74
     0
 42
0.0000000001
 43
0.0000000001
 40
0.0
 40
0.0
 40
0.0
 40
0.0
 40
0.0526315789473684
 40
0.0526315789473684
 40
0.0526315789473684
 40
0.0526315789473684
 40
0.1052631578947368
 40
0.1052631578947368
 40
0.1052631578947368
 40
0.1052631578947368
 40
0.1578947368421053
 40
0.1578947368421053
 40
0.1578947368421053
 40
0.1578947368421053
 40
0.2105263157894737
 40
0.2105263157894737
 40
0.2105263157894737
 40
0.2105263157894737
 40
0.2631578947368421
 40
0.2631578947368421
 40
0.2631578947368421
 40
0.2631578947368421
 40
0.3157894736842105
 40
0.3157894736842105
 40
0.3157894736842105
 40
0.3157894736842105
 40
0.3684210526315789
 40
0.3684210526315789
 40
0.3684210526315789
 40
0.3684210526315789
 40
0.4210526315789474
 40
0.4210526315789474
 40
0.4210526315789474
 40
0.4210526315789474
 40
0.4736842105263158
 40
0.4736842105263158
 40
0.4736842105263158
 40
0.4736842105263158
 40
0.5263157894736842
 40
0.5263157894736842
 40
0.5263157894736842
 40
0.5263157894736842
 40
0.5789473684210527
 40
0.5789473684210527
 40
0.5789473684210527
 40
0.5789473684210527
 40
0.631578947368421
 40
0.631578947368421
 40
0.631578947368421
 40
0.631578947368421
 40
0.6842105263157894
 40
0.6842105263157894
 40
0.6842105263157894
 40
0.6842105263157894
 40
0.7368421052631577
 40
0.7368421052631577
 40
0.7368421052631577
 40
0.7368421052631577
 40
0.7894736842105261
 40
0.7894736842105261
 40
0.7894736842105261
 40
0.7894736842105261
 40
0.8421052631578945
 40
0.8421052631578945
 40
0.8421052631578945
 40
0.8421052631578945
 40
0.8947368421052628
 40
0.8947368421052628
 40
0.8947368421052628
 40
0.8947368421052628
 40
0.9473684210526312
 40
0.9473684210526312
 40
0.9473684210526312
 40
0.9473684210526312
 40
1.0
 40
1.0
 40
1.0
 40
1.0
 10
1.348834645669292
 20
0.635988188976378
 30
0.0
 10
1.348834645669292
 20
0.635988188976378
 30
0.0
 10
1.354224409448819
 20
0.635988188976378
 30
0.0
 10
1.354224409448819
 20
0.635988188976378
 30
0.0
 10
1.354224409448819
 20
0.635988188976378
 30
0.0
 10
1.354224409448819
 20
0.635988188976378
 30
0.0
 10
1.355196850393701
 20
0.6318503937007874
 30
0.0
 10
1.355196850393701
 20
0.6318503937007874
 30
0.0
 10
1.355196850393701
 20
0.6318503937007874
 30
0.0
 10
1.355196850393701
 20
0.6318503937007874
 30
0.0
 10
1.426307086614173
 20
0.6318503937007874
 30
0.0
 10
1.426307086614173
 20
0.6318503937007874
 30
0.0
 10
1.426307086614173
 20
0.6318503937007874
 30
0.0
 10
1.426307086614173
 20
0.6318503937007874
 30
0.0
 10
1.426307086614173
 20
0.6249330708661418
 30
0.0
 10
1.426307086614173
 20
0.6249330708661418
 30
0.0
 10
1.426307086614173
 20
0.6249330708661418
 30
0.0
 10
1.417807086614173
 20
0.6150984251968504
 30
0.0
 10
1.410082677165354
 20
0.6039330708661418
 30
0.0
 10
1.403169291338583
 20
0.5913503937007875
 30
0.0
 10
1.403169291338583
 20
0.5913503937007875
 30
0.0
 10
1.396251968503937
 20
0.5787952755905512
 30
0.0
 10
1.390889763779528
 20
0.5660157480314961
 30
0.0
 10
1.387082677165354
 20
0.552988188976378
 30
0.0
 10
1.387082677165354
 20
0.552988188976378
 30
0.0
 10
1.384334645669291
 20
0.5436023622047245
 30
0.0
 10
1.382086614173228
 20
0.5320433070866142
 30
0.0
 10
1.380334645669291
 20
0.5183228346456693
 30
0.0
 10
1.380334645669291
 20
0.5183228346456693
 30
0.0
 10
1.380334645669291
 20
0.5183228346456693
 30
0.0
 10
1.363669291338583
 20
0.5183228346456693
 30
0.0
 10
1.363669291338583
 20
0.5183228346456693
 30
0.0
 10
1.363669291338583
 20
0.5183228346456693
 30
0.0
 10
1.365279527559055
 20
0.5304330708661418
 30
0.0
 10
1.367944881889764
 20
0.541740157480315
 30
0.0
 10
1.371669291338583
 20
0.5522677165354331
 30
0.0
 10
1.371669291338583
 20
0.5522677165354331
 30
0.0
 10
1.375389763779528
 20
0.5627952755905512
 30
0.0
 10
1.380751968503937
 20
0.5737952755905512
 30
0.0
 10
1.387779527559055
 20
0.5852677165354331
 30
0.0
 10
1.387779527559055
 20
0.5852677165354331
 30
0.0
 10
1.394807086614173
 20
0.596740157480315
 30
0.0
 10
1.403334645669291
 20
0.6081850393700787
 30
0.0
 10
1.413389763779528
 20
0.6196259842519686
 30
0.0
 10
1.413389763779528
 20
0.6196259842519686
 30
0.0
 10
1.413389763779528
 20
0.6196259842519686
 30
0.0
 10
1.362669291338583
 20
0.6196259842519686
 30
0.0
 10
1.362669291338583
 20
0.6196259842519686
 30
0.0
 10
1.362669291338583
 20
0.6196259842519686
 30
0.0
 10
1.359
 20
0.6196259842519686
 30
0.0
 10
1.356472440944882
 20
0.6194606299212598
 30
0.0
 10
1.355114173228347
 20
0.6190708661417324
 30
0.0
 10
1.355114173228347
 20
0.6190708661417324
 30
0.0
 10
1.353751968503937
 20
0.6186850393700788
 30
0.0
 10
1.352696850393701
 20
0.6180984251968504
 30
0.0
 10
1.351944881889764
 20
0.6172952755905512
 30
0.0
 10
1.351944881889764
 20
0.6172952755905512
 30
0.0
 10
1.351169291338583
 20
0.6164606299212598
 30
0.0
 10
1.350527559055118
 20
0.6150157480314961
 30
0.0
 10
1.349972440944882
 20
0.6129606299212599
 30
0.0
 10
1.349972440944882
 20
0.6129606299212599
 30
0.0
 10
1.349972440944882
 20
0.6129606299212599
 30
0.0
 10
1.349586614173228
 20
0.6114330708661417
 30
0.0
 10
1.349586614173228
 20
0.6114330708661417
 30
0.0
 10
1.349586614173228
 20
0.6114330708661417
 30
0.0
 10
1.349586614173228
 20
0.6114330708661417
 30
0.0
 10
1.346807086614173
 20
0.6018228346456693
 30
0.0
 10
1.346807086614173
 20
0.6018228346456693
 30
0.0
 10
1.346807086614173
 20
0.6018228346456693
 30
0.0
 10
1.346807086614173
 20
0.6018228346456693
 30
0.0
 10
1.339889763779528
 20
0.6032952755905512
 30
0.0
 10
1.339889763779528
 20
0.6032952755905512
 30
0.0
 10
1.339889763779528
 20
0.6032952755905512
 30
0.0
 10
1.339889763779528
 20
0.6032952755905512
 30
0.0
 10
1.348834645669292
 20
0.635988188976378
 30
0.0
 10
1.348834645669292
 20
0.635988188976378
 30
0.0
  0
SPLINE
  5
5C
330
1F
100
AcDbEntity
  8
LAYER_1
 62
   250
100
AcDbSpline
210
0.0
220
0.0
230
1.0
 70
    11
 71
     3
 72
    48
 73
    44
 74
     0
 42
0.0000000001
 43
0.0000000001
 40
0.0
 40
0.0
 40
0.0
 40
0.0
 40
0.0909090909090909
 40
0.0909090909090909
 40
0.0909090909090909
 40
0.0909090909090909
 40
0.1818181818181818
 40
0.1818181818181818
 40
0.1818181818181818
 40
0.1818181818181818
 40
0.2727272727272727
 40
0.2727272727272727
 40
0.2727272727272727
 40
0.2727272727272727
 40
0.3636363636363637
 40
0.3636363636363637
 40
0.3636363636363637
 40
0.3636363636363637
 40
0.4545454545454546
 40
0.4545454545454546
 40
0.4545454545454546
 40
0.4545454545454546
 40
0.5454545454545455
 40
0.5454545454545455
 40
0.5454545454545455
 40
0.5454545454545455
 40
0.6363636363636365
 40
0.6363636363636365
 40
0.6363636363636365
 40
0.6363636363636365
 40
0.7272727272727274
 40
0.7272727272727274
 40
0.7272727272727274
 40
0.7272727272727274
 40
0.8181818181818183
 40
0.8181818181818183
 40
0.8181818181818183
 40
0.8181818181818183
 40
0.9090909090909093
 40
0.9090909090909093
 40
0.9090909090909093
 40
0.9090909090909093
 40
1.0
 40
1.0
 40
1.0
 40
1.0
 10
1.48605905511811
 20
0.6337952755905512
 30
0.0
 10
1.494417322834646
 20
0.6337952755905512
 30
0.0
 10
1.501724409448819
 20
0.6316811023622048
 30
0.0
 10
1.507944881889764
 20
0.6274055118110237
 30
0.0
 10
1.507944881889764
 20
0.6274055118110237
 30
0.0
 10
1.514196850393701
 20
0.6231535433070866
 30
0.0
 10
1.519251968503937
 20
0.6164606299212598
 30
0.0
 10
1.523169291338583
 20
0.6073503937007875
 30
0.0
 10
1.523169291338583
 20
0.6073503937007875
 30
0.0
 10
1.527086614173228
 20
0.598240157480315
 30
0.0
 10
1.529031496062992
 20
0.5871850393700787
 30
0.0
 10
1.529031496062992
 20
0.574240157480315
 30
0.0
 10
1.529031496062992
 20
0.574240157480315
 30
0.0
 10
1.529031496062992
 20
0.5550157480314961
 30
0.0
 10
1.524224409448819
 20
0.5400708661417323
 30
0.0
 10
1.514614173228347
 20
0.5293779527559055
 30
0.0
 10
1.514614173228347
 20
0.5293779527559055
 30
0.0
 10
1.506807086614173
 20
0.5207125984251969
 30
0.0
 10
1.496944881889764
 20
0.5163779527559055
 30
0.0
 10
1.485003937007874
 20
0.5163779527559055
 30
0.0
 10
1.485003937007874
 20
0.5163779527559055
 30
0.0
 10
1.476917322834646
 20
0.5163779527559055
 30
0.0
 10
1.469751968503937
 20
0.5185157480314961
 30
0.0
 10
1.463531496062992
 20
0.5228503937007875
 30
0.0
 10
1.463531496062992
 20
0.5228503937007875
 30
0.0
 10
1.457279527559055
 20
0.5271574803149607
 30
0.0
 10
1.452224409448819
 20
0.5336299212598425
 30
0.0
 10
1.448389763779528
 20
0.542240157480315
 30
0.0
 10
1.448389763779528
 20
0.542240157480315
 30
0.0
 10
1.444531496062992
 20
0.5508779527559056
 30
0.0
 10
1.442614173228347
 20
0.5618228346456693
 30
0.0
 10
1.442614173228347
 20
0.5751259842519685
 30
0.0
 10
1.442614173228347
 20
0.5751259842519685
 30
0.0
 10
1.442614173228347
 20
0.5885157480314961
 30
0.0
 10
1.444503937007874
 20
0.5994606299212598
 30
0.0
 10
1.448251968503937
 20
0.6079330708661418
 30
0.0
 10
1.448251968503937
 20
0.6079330708661418
 30
0.0
 10
1.452031496062992
 20
0.6163779527559056
 30
0.0
 10
1.457169291338583
 20
0.6228228346456693
 30
0.0
 10
1.463669291338583
 20
0.6272125984251968
 30
0.0
 10
1.463669291338583
 20
0.6272125984251968
 30
0.0
 10
1.470196850393701
 20
0.6315984251968504
 30
0.0
 10
1.477641732283465
 20
0.6337952755905512
 30
0.0
 10
1.48605905511811
 20
0.6337952755905512
 30
0.0
  0
SPLINE
  5
5D
330
1F
100
AcDbEntity
  8
LAYER_1
 62
   250
100
AcDbSpline
210
0.0
220
0.0
230
1.0
 70
    11
 71
     3
 72
    56
 73
    52
 74
     0
 42
0.0000000001
 43
0.0000000001
 40
0.0
 40
0.0
 40
0.0
 40
0.0
 40
0.0769230769230769
 40
0.0769230769230769
 40
0.0769230769230769
 40
0.0769230769230769
 40
0.1538461538461539
 40
0.1538461538461539
 40
0.1538461538461539
 40
0.1538461538461539
 40
0.2307692307692308
 40
0.2307692307692308
 40
0.2307692307692308
 40
0.2307692307692308
 40
0.3076923076923077
 40
0.3076923076923077
 40
0.3076923076923077
 40
0.3076923076923077
 40
0.3846153846153846
 40
0.3846153846153846
 40
0.3846153846153846
 40
0.3846153846153846
 40
0.4615384615384616
 40
0.4615384615384616
 40
0.4615384615384616
 40
0.4615384615384616
 40
0.5384615384615386
 40
0.5384615384615386
 40
0.5384615384615386
 40
0.5384615384615386
 40
0.6153846153846154
 40
0.6153846153846154
 40
0.6153846153846154
 40
0.6153846153846154
 40
0.6923076923076923
 40
0.6923076923076923
 40
0.6923076923076923
 40
0.6923076923076923
 40
0.7692307692307692
 40
0.7692307692307692
 40
0.7692307692307692
 40
0.7692307692307692
 40
0.846153846153846
 40
0.846153846153846
 40
0.846153846153846
 40
0.846153846153846
 40
0.9230769230769229
 40
0.9230769230769229
 40
0.9230769230769229
 40
0.9230769230769229
 40
1.0
 40
1.0
 40
1.0
 40
1.0
 10
1.485669291338583
 20
0.625740157480315
 30
0.0
 10
1.480003937007874
 20
0.625740157480315
 30
0.0
 10
1.47505905511811
 20
0.6236850393700788
 30
0.0
 10
1.470751968503937
 20
0.6195708661417323
 30
0.0
 10
1.470751968503937
 20
0.6195708661417323
 30
0.0
 10
1.467031496062992
 20
0.615988188976378
 30
0.0
 10
1.46405905511811
 20
0.6103503937007875
 30
0.0
 10
1.461889763779528
 20
0.6026259842519686
 30
0.0
 10
1.461889763779528
 20
0.6026259842519686
 30
0.0
 10
1.459389763779528
 20
0.5938503937007874
 30
0.0
 10
1.458141732283465
 20
0.5841259842519685
 30
0.0
 10
1.458141732283465
 20
0.573488188976378
 30
0.0
 10
1.458141732283465
 20
0.573488188976378
 30
0.0
 10
1.458141732283465
 20
0.565240157480315
 30
0.0
 10
1.45892125984252
 20
0.5577677165354331
 30
0.0
 10
1.460476377952756
 20
0.5510708661417323
 30
0.0
 10
1.460476377952756
 20
0.5510708661417323
 30
0.0
 10
1.462003937007874
 20
0.5443779527559055
 30
0.0
 10
1.46405905511811
 20
0.5391574803149607
 30
0.0
 10
1.466614173228346
 20
0.5354606299212599
 30
0.0
 10
1.466614173228346
 20
0.5354606299212599
 30
0.0
 10
1.469169291338583
 20
0.531740157480315
 30
0.0
 10
1.47205905511811
 20
0.528988188976378
 30
0.0
 10
1.475279527559055
 20
0.5271850393700788
 30
0.0
 10
1.475279527559055
 20
0.5271850393700788
 30
0.0
 10
1.478503937007874
 20
0.5254055118110237
 30
0.0
 10
1.481917322834646
 20
0.524515748031496
 30
0.0
 10
1.485503937007874
 20
0.524515748031496
 30
0.0
 10
1.485503937007874
 20
0.524515748031496
 30
0.0
 10
1.49086220472441
 20
0.524515748031496
 30
0.0
 10
1.495889763779528
 20
0.5266023622047245
 30
0.0
 10
1.50055905511811
 20
0.5307677165354331
 30
0.0
 10
1.50055905511811
 20
0.5307677165354331
 30
0.0
 10
1.504279527559055
 20
0.5341850393700788
 30
0.0
 10
1.507251968503937
 20
0.5392952755905512
 30
0.0
 10
1.509417322834646
 20
0.5460708661417323
 30
0.0
 10
1.509417322834646
 20
0.5460708661417323
 30
0.0
 10
1.512031496062992
 20
0.5543228346456693
 30
0.0
 10
1.513334645669291
 20
0.5640157480314961
 30
0.0
 10
1.513334645669291
 20
0.5751259842519685
 30
0.0
 10
1.513334645669291
 20
0.5751259842519685
 30
0.0
 10
1.513334645669291
 20
0.5866259842519686
 30
0.0
 10
1.512003937007874
 20
0.5964055118110236
 30
0.0
 10
1.509334645669291
 20
0.6044330708661417
 30
0.0
 10
1.509334645669291
 20
0.6044330708661417
 30
0.0
 10
1.506669291338583
 20
0.6124606299212598
 30
0.0
 10
1.503417322834646
 20
0.6180157480314961
 30
0.0
 10
1.499531496062992
 20
0.6210984251968504
 30
0.0
 10
1.499531496062992
 20
0.6210984251968504
 30
0.0
 10
1.495641732283465
 20
0.6242125984251968
 30
0.0
 10
1.491031496062992
 20
0.625740157480315
 30
0.0
 10
1.485669291338583
 20
0.625740157480315
 30
0.0
  0
SPLINE
  5
5E
330
1F
100
AcDbEntity
  8
LAYER_1
 62
   250
100
AcDbSpline
210
0.0
220
0.0
230
1.0
 70
    11
 71
     3
 72
   132
 73
   128
 74
     0
 42
0.0000000001
 43
0.0000000001
 40
0.0
 40
0.0
 40
0.0
 40
0.0
 40
0.03125
 40
0.03125
 40
0.03125
 40
0.03125
 40
0.0625
 40
0.0625
 40
0.0625
 40
0.0625
 40
0.09375
 40
0.09375
 40
0.09375
 40
0.09375
 40
0.125
 40
0.125
 40
0.125
 40
0.125
 40
0.15625
 40
0.15625
 40
0.15625
 40
0.15625
 40
0.1875
 40
0.1875
 40
0.1875
 40
0.1875
 40
0.21875
 40
0.21875
 40
0.21875
 40
0.21875
 40
0.25
 40
0.25
 40
0.25
 40
0.25
 40
0.28125
 40
0.28125
 40
0.28125
 40
0.28125
 40
0.3125
 40
0.3125
 40
0.3125
 40
0.3125
 40
0.34375
 40
0.34375
 40
0.34375
 40
0.34375
 40
0.375
 40
0.375
 40
0.375
 40
0.375
 40
0.40625
 40
0.40625
 40
0.40625
 40
0.40625
 40
0.4375
 40
0.4375
 40
0.4375
 40
0.4375
 40
0.46875
 40
0.46875
 40
0.46875
 40
0.46875
 40
0.5
 40
0.5
 40
0.5
 40
0.5
 40
0.53125
 40
0.53125
 40
0.53125
 40
0.53125
 40
0.5625
 40
0.5625
 40
0.5625
 40
0.5625
 40
0.59375
 40
0.59375
 40
0.59375
 40
0.59375
 40
0.625
 40
0.625
 40
0.625
 40
0.625
 40
0.65625
 40
0.65625
 40
0.65625
 40
0.65625
 40
0.6875
 40
0.6875
 40
0.6875
 40
0.6875
 40
0.71875
 40
0.71875
 40
0.71875
 40
0.71875
 40
0.75
 40
0.75
 40
0.75
 40
0.75
 40
0.78125
 40
0.78125
 40
0.78125
 40
0.78125
 40
0.8125
 40
0.8125
 40
0.8125
 40
0.8125
 40
0.84375
 40
0.84375
 40
0.84375
 40
0.84375
 40
0.875
 40
0.875
 40
0.875
 40
0.875
 40
0.90625
 40
0.90625
 40
0.90625
 40
0.90625
 40
0.9375
 40
0.9375
 40
0.9375
 40
0.9375
 40
0.96875
 40
0.96875
 40
0.96875
 40
0.96875
 40
1.0
 40
1.0
 40
1.0
 40
1.0
 10
1.559893700787402
 20
0.6318503937007874
 30
0.0
 10
1.559893700787402
 20
0.6318503937007874
 30
0.0
 10
1.610503937007874
 20
0.6318503937007874
 30
0.0
 10
1.610503937007874
 20
0.6318503937007874
 30
0.0
 10
1.610503937007874
 20
0.6318503937007874
 30
0.0
 10
1.613586614173229
 20
0.6318503937007874
 30
0.0
 10
1.615476377952756
 20
0.6320157480314961
 30
0.0
 10
1.616114173228347
 20
0.6323503937007874
 30
0.0
 10
1.616114173228347
 20
0.6323503937007874
 30
0.0
 10
1.617031496062992
 20
0.6328779527559055
 30
0.0
 10
1.617586614173229
 20
0.6340433070866142
 30
0.0
 10
1.617751968503937
 20
0.6358228346456694
 30
0.0
 10
1.617751968503937
 20
0.6358228346456694
 30
0.0
 10
1.617751968503937
 20
0.6358228346456694
 30
0.0
 10
1.623696850393701
 20
0.6358228346456694
 30
0.0
 10
1.623696850393701
 20
0.6358228346456694
 30
0.0
 10
1.623696850393701
 20
0.6358228346456694
 30
0.0
 10
1.623696850393701
 20
0.6358228346456694
 30
0.0
 10
1.623696850393701
 20
0.6186535433070867
 30
0.0
 10
1.623696850393701
 20
0.6186535433070867
 30
0.0
 10
1.623696850393701
 20
0.6186535433070867
 30
0.0
 10
1.623696850393701
 20
0.6186535433070867
 30
0.0
 10
1.567448818897638
 20
0.6186535433070867
 30
0.0
 10
1.567448818897638
 20
0.6186535433070867
 30
0.0
 10
1.567448818897638
 20
0.6186535433070867
 30
0.0
 10
1.567448818897638
 20
0.6186535433070867
 30
0.0
 10
1.56605905511811
 20
0.590015748031496
 30
0.0
 10
1.56605905511811
 20
0.590015748031496
 30
0.0
 10
1.56605905511811
 20
0.590015748031496
 30
0.0
 10
1.568393700787402
 20
0.5906850393700788
 30
0.0
 10
1.571366141732284
 20
0.5912125984251969
 30
0.0
 10
1.574948818897638
 20
0.5916574803149607
 30
0.0
 10
1.574948818897638
 20
0.5916574803149607
 30
0.0
 10
1.57955905511811
 20
0.5921850393700787
 30
0.0
 10
1.583669291338583
 20
0.5924606299212599
 30
0.0
 10
1.587311023622047
 20
0.5924606299212599
 30
0.0
 10
1.587311023622047
 20
0.5924606299212599
 30
0.0
 10
1.596366141732283
 20
0.5924606299212599
 30
0.0
 10
1.604251968503937
 20
0.5908228346456693
 30
0.0
 10
1.611003937007874
 20
0.5875708661417323
 30
0.0
 10
1.611003937007874
 20
0.5875708661417323
 30
0.0
 10
1.617724409448819
 20
0.5843228346456694
 30
0.0
 10
1.622834645669292
 20
0.5798503937007874
 30
0.0
 10
1.626334645669291
 20
0.5741850393700788
 30
0.0
 10
1.626334645669291
 20
0.5741850393700788
 30
0.0
 10
1.629834645669291
 20
0.5685157480314961
 30
0.0
 10
1.631586614173229
 20
0.5621850393700788
 30
0.0
 10
1.631586614173229
 20
0.5551850393700788
 30
0.0
 10
1.631586614173229
 20
0.5551850393700788
 30
0.0
 10
1.631586614173229
 20
0.5443503937007874
 30
0.0
 10
1.627503937007874
 20
0.5351574803149607
 30
0.0
 10
1.619366141732284
 20
0.5276299212598425
 30
0.0
 10
1.619366141732284
 20
0.5276299212598425
 30
0.0
 10
1.611224409448819
 20
0.5201299212598426
 30
0.0
 10
1.600866141732284
 20
0.5163779527559055
 30
0.0
 10
1.588279527559055
 20
0.5163779527559055
 30
0.0
 10
1.588279527559055
 20
0.5163779527559055
 30
0.0
 10
1.581003937007874
 20
0.5163779527559055
 30
0.0
 10
1.574448818897638
 20
0.5176850393700788
 30
0.0
 10
1.56855905511811
 20
0.5202677165354331
 30
0.0
 10
1.56855905511811
 20
0.5202677165354331
 30
0.0
 10
1.562669291338583
 20
0.5228779527559055
 30
0.0
 10
1.55805905511811
 20
0.5263228346456693
 30
0.0
 10
1.554751968503937
 20
0.5305708661417323
 30
0.0
 10
1.554751968503937
 20
0.5305708661417323
 30
0.0
 10
1.551448818897638
 20
0.5348228346456693
 30
0.0
 10
1.549783464566929
 20
0.5385708661417323
 30
0.0
 10
1.549783464566929
 20
0.5417677165354331
 30
0.0
 10
1.549783464566929
 20
0.5417677165354331
 30
0.0
 10
1.549783464566929
 20
0.5438779527559056
 30
0.0
 10
1.550503937007874
 20
0.5457125984251969
 30
0.0
 10
1.55192125984252
 20
0.5472677165354331
 30
0.0
 10
1.55192125984252
 20
0.5472677165354331
 30
0.0
 10
1.553311023622047
 20
0.5487952755905512
 30
0.0
 10
1.555141732283465
 20
0.5495708661417323
 30
0.0
 10
1.557366141732284
 20
0.5495708661417323
 30
0.0
 10
1.557366141732284
 20
0.5495708661417323
 30
0.0
 10
1.559641732283465
 20
0.5495708661417323
 30
0.0
 10
1.561641732283465
 20
0.5486299212598426
 30
0.0
 10
1.563393700787402
 20
0.5467125984251968
 30
0.0
 10
1.563393700787402
 20
0.5467125984251968
 30
0.0
 10
1.564366141732284
 20
0.545740157480315
 30
0.0
 10
1.565531496062992
 20
0.5433503937007874
 30
0.0
 10
1.566893700787402
 20
0.5395708661417323
 30
0.0
 10
1.566893700787402
 20
0.5395708661417323
 30
0.0
 10
1.568724409448819
 20
0.534240157480315
 30
0.0
 10
1.571476377952756
 20
0.5303503937007874
 30
0.0
 10
1.575114173228347
 20
0.5278503937007875
 30
0.0
 10
1.575114173228347
 20
0.5278503937007875
 30
0.0
 10
1.578669291338583
 20
0.5252952755905512
 30
0.0
 10
1.583196850393701
 20
0.5240157480314961
 30
0.0
 10
1.588614173228347
 20
0.5240157480314961
 30
0.0
 10
1.588614173228347
 20
0.5240157480314961
 30
0.0
 10
1.594031496062992
 20
0.5240157480314961
 30
0.0
 10
1.598866141732284
 20
0.5252125984251969
 30
0.0
 10
1.603086614173229
 20
0.5275708661417323
 30
0.0
 10
1.603086614173229
 20
0.5275708661417323
 30
0.0
 10
1.607338582677165
 20
0.5299055118110236
 30
0.0
 10
1.610669291338583
 20
0.5333228346456693
 30
0.0
 10
1.613114173228347
 20
0.537740157480315
 30
0.0
 10
1.613114173228347
 20
0.537740157480315
 30
0.0
 10
1.61555905511811
 20
0.5421574803149607
 30
0.0
 10
1.616779527559055
 20
0.5470708661417323
 30
0.0
 10
1.616779527559055
 20
0.552488188976378
 30
0.0
 10
1.616779527559055
 20
0.552488188976378
 30
0.0
 10
1.616779527559055
 20
0.5582125984251969
 30
0.0
 10
1.615448818897638
 20
0.5632677165354331
 30
0.0
 10
1.612807086614173
 20
0.5677125984251968
 30
0.0
 10
1.612807086614173
 20
0.5677125984251968
 30
0.0
 10
1.610196850393701
 20
0.5721574803149606
 30
0.0
 10
1.60642125984252
 20
0.5756259842519685
 30
0.0
 10
1.601503937007874
 20
0.5780433070866142
 30
0.0
 10
1.601503937007874
 20
0.5780433070866142
 30
0.0
 10
1.596586614173228
 20
0.580488188976378
 30
0.0
 10
1.590614173228347
 20
0.5817125984251969
 30
0.0
 10
1.58355905511811
 20
0.5817125984251969
 30
0.0
 10
1.58355905511811
 20
0.5817125984251969
 30
0.0
 10
1.579279527559055
 20
0.5817125984251969
 30
0.0
 10
1.574669291338583
 20
0.5812677165354331
 30
0.0
 10
1.569779527559055
 20
0.5803228346456694
 30
0.0
 10
1.569779527559055
 20
0.5803228346456694
 30
0.0
 10
1.564866141732284
 20
0.5794055118110236
 30
0.0
 10
1.560641732283465
 20
0.578240157480315
 30
0.0
 10
1.557114173228346
 20
0.5768228346456693
 30
0.0
 10
1.557114173228346
 20
0.5768228346456693
 30
0.0
 10
1.557114173228346
 20
0.5768228346456693
 30
0.0
 10
1.559893700787402
 20
0.6318503937007874
 30
0.0
 10
1.559893700787402
 20
0.6318503937007874
 30
0.0
  0
SPLINE
  5
5F
330
1F
100
AcDbEntity
  8
LAYER_1
 62
   250
100
AcDbSpline
210
0.0
220
0.0
230
1.0
 70
    11
 71
     3
 72
    80
 73
    76
 74
     0
 42
0.0000000001
 43
0.0000000001
 40
0.0
 40
0.0
 40
0.0
 40
0.0
 40
0.0526315789473684
 40
0.0526315789473684
 40
0.0526315789473684
 40
0.0526315789473684
 40
0.1052631578947368
 40
0.1052631578947368
 40
0.1052631578947368
 40
0.1052631578947368
 40
0.1578947368421053
 40
0.1578947368421053
 40
0.1578947368421053
 40
0.1578947368421053
 40
0.2105263157894737
 40
0.2105263157894737
 40
0.2105263157894737
 40
0.2105263157894737
 40
0.2631578947368421
 40
0.2631578947368421
 40
0.2631578947368421
 40
0.2631578947368421
 40
0.3157894736842105
 40
0.3157894736842105
 40
0.3157894736842105
 40
0.3157894736842105
 40
0.3684210526315789
 40
0.3684210526315789
 40
0.3684210526315789
 40
0.3684210526315789
 40
0.4210526315789474
 40
0.4210526315789474
 40
0.4210526315789474
 40
0.4210526315789474
 40
0.4736842105263158
 40
0.4736842105263158
 40
0.4736842105263158
 40
0.4736842105263158
 40
0.5263157894736842
 40
0.5263157894736842
 40
0.5263157894736842
 40
0.5263157894736842
 40
0.5789473684210527
 40
0.5789473684210527
 40
0.5789473684210527
 40
0.5789473684210527
 40
0.631578947368421
 40
0.631578947368421
 40
0.631578947368421
 40
0.631578947368421
 40
0.6842105263157894
 40
0.6842105263157894
 40
0.6842105263157894
 40
0.6842105263157894
 40
0.7368421052631577
 40
0.7368421052631577
 40
0.7368421052631577
 40
0.7368421052631577
 40
0.7894736842105261
 40
0.7894736842105261
 40
0.7894736842105261
 40
0.7894736842105261
 40
0.8421052631578945
 40
0.8421052631578945
 40
0.8421052631578945
 40
0.8421052631578945
 40
0.8947368421052628
 40
0.8947368421052628
 40
0.8947368421052628
 40
0.8947368421052628
 40
0.9473684210526312
 40
0.9473684210526312
 40
0.9473684210526312
 40
0.9473684210526312
 40
1.0
 40
1.0
 40
1.0
 40
1.0
 10
0.6188503937007874
 20
0.448488188976378
 30
0.0
 10
0.6188503937007874
 20
0.448488188976378
 30
0.0
 10
0.624240157480315
 20
0.448488188976378
 30
0.0
 10
0.624240157480315
 20
0.448488188976378
 30
0.0
 10
0.624240157480315
 20
0.448488188976378
 30
0.0
 10
0.624240157480315
 20
0.448488188976378
 30
0.0
 10
0.6252125984251968
 20
0.4443503937007874
 30
0.0
 10
0.6252125984251968
 20
0.4443503937007874
 30
0.0
 10
0.6252125984251968
 20
0.4443503937007874
 30
0.0
 10
0.6252125984251968
 20
0.4443503937007874
 30
0.0
 10
0.6963228346456694
 20
0.4443503937007874
 30
0.0
 10
0.6963228346456694
 20
0.4443503937007874
 30
0.0
 10
0.6963228346456694
 20
0.4443503937007874
 30
0.0
 10
0.6963228346456694
 20
0.4443503937007874
 30
0.0
 10
0.6963228346456694
 20
0.4374330708661418
 30
0.0
 10
0.6963228346456694
 20
0.4374330708661418
 30
0.0
 10
0.6963228346456694
 20
0.4374330708661418
 30
0.0
 10
0.6878228346456693
 20
0.4275984251968504
 30
0.0
 10
0.6800984251968504
 20
0.4164330708661417
 30
0.0
 10
0.6731850393700788
 20
0.4038503937007874
 30
0.0
 10
0.6731850393700788
 20
0.4038503937007874
 30
0.0
 10
0.666267716535433
 20
0.3912952755905512
 30
0.0
 10
0.6609055118110236
 20
0.3785157480314961
 30
0.0
 10
0.6570984251968505
 20
0.365488188976378
 30
0.0
 10
0.6570984251968505
 20
0.365488188976378
 30
0.0
 10
0.6543503937007874
 20
0.3561023622047244
 30
0.0
 10
0.6521023622047244
 20
0.3445433070866142
 30
0.0
 10
0.6503503937007874
 20
0.3308228346456693
 30
0.0
 10
0.6503503937007874
 20
0.3308228346456693
 30
0.0
 10
0.6503503937007874
 20
0.3308228346456693
 30
0.0
 10
0.6336850393700788
 20
0.3308228346456693
 30
0.0
 10
0.6336850393700788
 20
0.3308228346456693
 30
0.0
 10
0.6336850393700788
 20
0.3308228346456693
 30
0.0
 10
0.6352952755905512
 20
0.3429330708661417
 30
0.0
 10
0.6379606299212599
 20
0.354240157480315
 30
0.0
 10
0.6416850393700788
 20
0.3647677165354331
 30
0.0
 10
0.6416850393700788
 20
0.3647677165354331
 30
0.0
 10
0.6454055118110237
 20
0.3752952755905512
 30
0.0
 10
0.6507677165354331
 20
0.3862952755905512
 30
0.0
 10
0.6577952755905512
 20
0.3977677165354331
 30
0.0
 10
0.6577952755905512
 20
0.3977677165354331
 30
0.0
 10
0.6648228346456693
 20
0.409240157480315
 30
0.0
 10
0.6733503937007874
 20
0.4206850393700788
 30
0.0
 10
0.6834055118110236
 20
0.4321259842519685
 30
0.0
 10
0.6834055118110236
 20
0.4321259842519685
 30
0.0
 10
0.6834055118110236
 20
0.4321259842519685
 30
0.0
 10
0.6326850393700788
 20
0.4321259842519685
 30
0.0
 10
0.6326850393700788
 20
0.4321259842519685
 30
0.0
 10
0.6326850393700788
 20
0.4321259842519685
 30
0.0
 10
0.6290157480314961
 20
0.4321259842519685
 30
0.0
 10
0.6264881889763779
 20
0.4319606299212599
 30
0.0
 10
0.6251299212598426
 20
0.4315708661417323
 30
0.0
 10
0.6251299212598426
 20
0.4315708661417323
 30
0.0
 10
0.6237677165354331
 20
0.4311850393700787
 30
0.0
 10
0.6227125984251969
 20
0.4305984251968504
 30
0.0
 10
0.6219606299212599
 20
0.4297952755905512
 30
0.0
 10
0.6219606299212599
 20
0.4297952755905512
 30
0.0
 10
0.6211850393700787
 20
0.4289606299212599
 30
0.0
 10
0.6205433070866142
 20
0.4275157480314961
 30
0.0
 10
0.619988188976378
 20
0.4254606299212599
 30
0.0
 10
0.619988188976378
 20
0.4254606299212599
 30
0.0
 10
0.619988188976378
 20
0.4254606299212599
 30
0.0
 10
0.6196023622047244
 20
0.4239330708661417
 30
0.0
 10
0.6196023622047244
 20
0.4239330708661417
 30
0.0
 10
0.6196023622047244
 20
0.4239330708661417
 30
0.0
 10
0.6196023622047244
 20
0.4239330708661417
 30
0.0
 10
0.6168228346456693
 20
0.4143228346456693
 30
0.0
 10
0.6168228346456693
 20
0.4143228346456693
 30
0.0
 10
0.6168228346456693
 20
0.4143228346456693
 30
0.0
 10
0.6168228346456693
 20
0.4143228346456693
 30
0.0
 10
0.6099055118110236
 20
0.4157952755905512
 30
0.0
 10
0.6099055118110236
 20
0.4157952755905512
 30
0.0
 10
0.6099055118110236
 20
0.4157952755905512
 30
0.0
 10
0.6099055118110236
 20
0.4157952755905512
 30
0.0
 10
0.6188503937007874
 20
0.448488188976378
 30
0.0
 10
0.6188503937007874
 20
0.448488188976378
 30
0.0
  0
SPLINE
  5
60
330
1F
100
AcDbEntity
  8
LAYER_1
 62
   250
100
AcDbSpline
210
0.0
220
0.0
230
1.0
 70
    11
 71
     3
 72
    20
 73
    16
 74
     0
 42
0.0000000001
 43
0.0000000001
 40
0.0
 40
0.0
 40
0.0
 40
0.0
 40
0.25
 40
0.25
 40
0.25
 40
0.25
 40
0.5
 40
0.5
 40
0.5
 40
0.5
 40
0.75
 40
0.75
 40
0.75
 40
0.75
 40
1.0
 40
1.0
 40
1.0
 40
1.0
 10
0.7856299212598426
 20
0.4502125984251968
 30
0.0
 10
0.7856299212598426
 20
0.4502125984251968
 30
0.0
 10
0.7300472440944882
 20
0.2945157480314961
 30
0.0
 10
0.7300472440944882
 20
0.2945157480314961
 30
0.0
 10
0.7300472440944882
 20
0.2945157480314961
 30
0.0
 10
0.7300472440944882
 20
0.2945157480314961
 30
0.0
 10
0.717992125984252
 20
0.2945157480314961
 30
0.0
 10
0.717992125984252
 20
0.2945157480314961
 30
0.0
 10
0.717992125984252
 20
0.2945157480314961
 30
0.0
 10
0.717992125984252
 20
0.2945157480314961
 30
0.0
 10
0.7732401574803149
 20
0.4502125984251968
 30
0.0
 10
0.7732401574803149
 20
0.4502125984251968
 30
0.0
 10
0.7732401574803149
 20
0.4502125984251968
 30
0.0
 10
0.7732401574803149
 20
0.4502125984251968
 30
0.0
 10
0.7856299212598426
 20
0.4502125984251968
 30
0.0
 10
0.7856299212598426
 20
0.4502125984251968
 30
0.0
  0
SPLINE
  5
61
330
1F
100
AcDbEntity
  8
LAYER_1
 62
   250
100
AcDbSpline
210
0.0
220
0.0
230
1.0
 70
    11
 71
     3
 72
    72
 73
    68
 74
     0
 42
0.0000000001
 43
0.0000000001
 40
0.0
 40
0.0
 40
0.0
 40
0.0
 40
0.0588235294117647
 40
0.0588235294117647
 40
0.0588235294117647
 40
0.0588235294117647
 40
0.1176470588235294
 40
0.1176470588235294
 40
0.1176470588235294
 40
0.1176470588235294
 40
0.1764705882352941
 40
0.1764705882352941
 40
0.1764705882352941
 40
0.1764705882352941
 40
0.2352941176470588
 40
0.2352941176470588
 40
0.2352941176470588
 40
0.2352941176470588
 40
0.2941176470588235
 40
0.2941176470588235
 40
0.2941176470588235
 40
0.2941176470588235
 40
0.3529411764705883
 40
0.3529411764705883
 40
0.3529411764705883
 40
0.3529411764705883
 40
0.411764705882353
 40
0.411764705882353
 40
0.411764705882353
 40
0.411764705882353
 40
0.4705882352941177
 40
0.4705882352941177
 40
0.4705882352941177
 40
0.4705882352941177
 40
0.5294117647058824
 40
0.5294117647058824
 40
0.5294117647058824
 40
0.5294117647058824
 40
0.5882352941176471
 40
0.5882352941176471
 40
0.5882352941176471
 40
0.5882352941176471
 40
0.6470588235294118
 40
0.6470588235294118
 40
0.6470588235294118
 40
0.6470588235294118
 40
0.7058823529411765
 40
0.7058823529411765
 40
0.7058823529411765
 40
0.7058823529411765
 40
0.7647058823529412
 40
0.7647058823529412
 40
0.7647058823529412
 40
0.7647058823529412
 40
0.823529411764706
 40
0.823529411764706
 40
0.823529411764706
 40
0.823529411764706
 40
0.8823529411764707
 40
0.8823529411764707
 40
0.8823529411764707
 40
0.8823529411764707
 40
0.9411764705882354
 40
0.9411764705882354
 40
0.9411764705882354
 40
0.9411764705882354
 40
1.0
 40
1.0
 40
1.0
 40
1.0
 10
0.8601850393700787
 20
0.4443503937007874
 30
0.0
 10
0.8601850393700787
 20
0.4443503937007874
 30
0.0
 10
0.8662677165354331
 20
0.4443503937007874
 30
0.0
 10
0.8662677165354331
 20
0.4443503937007874
 30
0.0
 10
0.8662677165354331
 20
0.4443503937007874
 30
0.0
 10
0.8662677165354331
 20
0.4443503937007874
 30
0.0
 10
0.8662677165354331
 20
0.3501023622047244
 30
0.0
 10
0.8662677165354331
 20
0.3501023622047244
 30
0.0
 10
0.8662677165354331
 20
0.3501023622047244
 30
0.0
 10
0.8662677165354331
 20
0.3456574803149606
 30
0.0
 10
0.8665748031496063
 20
0.3427952755905512
 30
0.0
 10
0.8671299212598426
 20
0.3415157480314961
 30
0.0
 10
0.8671299212598426
 20
0.3415157480314961
 30
0.0
 10
0.8677125984251969
 20
0.340240157480315
 30
0.0
 10
0.8686299212598425
 20
0.3392952755905512
 30
0.0
 10
0.8699330708661418
 20
0.3386299212598425
 30
0.0
 10
0.8699330708661418
 20
0.3386299212598425
 30
0.0
 10
0.871240157480315
 20
0.337988188976378
 30
0.0
 10
0.8738228346456693
 20
0.3376574803149606
 30
0.0
 10
0.8776850393700788
 20
0.3376574803149606
 30
0.0
 10
0.8776850393700788
 20
0.3376574803149606
 30
0.0
 10
0.8776850393700788
 20
0.3376574803149606
 30
0.0
 10
0.8856574803149606
 20
0.3376574803149606
 30
0.0
 10
0.8856574803149606
 20
0.3376574803149606
 30
0.0
 10
0.8856574803149606
 20
0.3376574803149606
 30
0.0
 10
0.8856574803149606
 20
0.3376574803149606
 30
0.0
 10
0.8856574803149606
 20
0.3308228346456693
 30
0.0
 10
0.8856574803149606
 20
0.3308228346456693
 30
0.0
 10
0.8856574803149606
 20
0.3308228346456693
 30
0.0
 10
0.8856574803149606
 20
0.3308228346456693
 30
0.0
 10
0.8320196850393701
 20
0.3308228346456693
 30
0.0
 10
0.8320196850393701
 20
0.3308228346456693
 30
0.0
 10
0.8320196850393701
 20
0.3308228346456693
 30
0.0
 10
0.8320196850393701
 20
0.3308228346456693
 30
0.0
 10
0.8320196850393701
 20
0.3376574803149606
 30
0.0
 10
0.8320196850393701
 20
0.3376574803149606
 30
0.0
 10
0.8320196850393701
 20
0.3376574803149606
 30
0.0
 10
0.8320196850393701
 20
0.3376574803149606
 30
0.0
 10
0.8408779527559055
 20
0.3376574803149606
 30
0.0
 10
0.8408779527559055
 20
0.3376574803149606
 30
0.0
 10
0.8408779527559055
 20
0.3376574803149606
 30
0.0
 10
0.844740157480315
 20
0.3376574803149606
 30
0.0
 10
0.8472952755905512
 20
0.337988188976378
 30
0.0
 10
0.8485748031496063
 20
0.3386850393700788
 30
0.0
 10
0.8485748031496063
 20
0.3386850393700788
 30
0.0
 10
0.8498503937007874
 20
0.3393503937007874
 30
0.0
 10
0.8508503937007874
 20
0.3404330708661417
 30
0.0
 10
0.8515472440944882
 20
0.3419330708661417
 30
0.0
 10
0.8515472440944882
 20
0.3419330708661417
 30
0.0
 10
0.852240157480315
 20
0.3434330708661417
 30
0.0
 10
0.8526023622047244
 20
0.3461574803149606
 30
0.0
 10
0.8526023622047244
 20
0.3501023622047244
 30
0.0
 10
0.8526023622047244
 20
0.3501023622047244
 30
0.0
 10
0.8526023622047244
 20
0.3501023622047244
 30
0.0
 10
0.8526023622047244
 20
0.4275708661417323
 30
0.0
 10
0.8526023622047244
 20
0.4275708661417323
 30
0.0
 10
0.8526023622047244
 20
0.4275708661417323
 30
0.0
 10
0.8526023622047244
 20
0.4275708661417323
 30
0.0
 10
0.8320196850393701
 20
0.4275708661417323
 30
0.0
 10
0.8320196850393701
 20
0.4275708661417323
 30
0.0
 10
0.8320196850393701
 20
0.4275708661417323
 30
0.0
 10
0.8320196850393701
 20
0.4275708661417323
 30
0.0
 10
0.8320196850393701
 20
0.4345708661417323
 30
0.0
 10
0.8320196850393701
 20
0.4345708661417323
 30
0.0
 10
0.8320196850393701
 20
0.4345708661417323
 30
0.0
 10
0.843240157480315
 20
0.4361535433070866
 30
0.0
 10
0.8526299212598426
 20
0.4394055118110237
 30
0.0
 10
0.8601850393700787
 20
0.4443503937007874
 30
0.0
  0
SPLINE
  5
62
330
1F
100
AcDbEntity
  8
LAYER_1
 62
   250
100
AcDbSpline
210
0.0
220
0.0
230
1.0
 70
    11
 71
     3
 72
    84
 73
    80
 74
     0
 42
0.0000000001
 43
0.0000000001
 40
0.0
 40
0.0
 40
0.0
 40
0.0
 40
0.05
 40
0.05
 40
0.05
 40
0.05
 40
0.1
 40
0.1
 40
0.1
 40
0.1
 40
0.15
 40
0.15
 40
0.15
 40
0.15
 40
0.2
 40
0.2
 40
0.2
 40
0.2
 40
0.25
 40
0.25
 40
0.25
 40
0.25
 40
0.3
 40
0.3
 40
0.3
 40
0.3
 40
0.35
 40
0.35
 40
0.35
 40
0.35
 40
0.4
 40
0.4
 40
0.4
 40
0.4
 40
0.45
 40
0.45
 40
0.45
 40
0.45
 40
0.4999999999999999
 40
0.4999999999999999
 40
0.4999999999999999
 40
0.4999999999999999
 40
0.5499999999999999
 40
0.5499999999999999
 40
0.5499999999999999
 40
0.5499999999999999
 40
0.6
 40
0.6
 40
0.6
 40
0.6
 40
0.65
 40
0.65
 40
0.65
 40
0.65
 40
0.7000000000000001
 40
0.7000000000000001
 40
0.7000000000000001
 40
0.7000000000000001
 40
0.7500000000000001
 40
0.7500000000000001
 40
0.7500000000000001
 40
0.7500000000000001
 40
0.8000000000000002
 40
0.8000000000000002
 40
0.8000000000000002
 40
0.8000000000000002
 40
0.8500000000000002
 40
0.8500000000000002
 40
0.8500000000000002
 40
0.8500000000000002
 40
0.9000000000000002
 40
0.9000000000000002
 40
0.9000000000000002
 40
0.9000000000000002
 40
0.9500000000000003
 40
0.9500000000000003
 40
0.9500000000000003
 40
0.9500000000000003
 40
1.0
 40
1.0
 40
1.0
 40
1.0
 10
0.9918503937007874
 20
0.4464606299212598
 30
0.0
 10
0.9918503937007874
 20
0.4464606299212598
 30
0.0
 10
0.9918503937007874
 20
0.4390433070866142
 30
0.0
 10
0.9918503937007874
 20
0.4390433070866142
 30
0.0
 10
0.9918503937007874
 20
0.4390433070866142
 30
0.0
 10
0.9784645669291339
 20
0.4389055118110237
 30
0.0
 10
0.9676299212598426
 20
0.4369330708661418
 30
0.0
 10
0.9593543307086615
 20
0.4332125984251969
 30
0.0
 10
0.9593543307086615
 20
0.4332125984251969
 30
0.0
 10
0.9510748031496064
 20
0.4294606299212599
 30
0.0
 10
0.944992125984252
 20
0.4238503937007874
 30
0.0
 10
0.9410748031496063
 20
0.4164055118110236
 30
0.0
 10
0.9410748031496063
 20
0.4164055118110236
 30
0.0
 10
0.9371574803149607
 20
0.4089330708661417
 30
0.0
 10
0.9349645669291339
 20
0.399740157480315
 30
0.0
 10
0.934492125984252
 20
0.3888503937007874
 30
0.0
 10
0.934492125984252
 20
0.3888503937007874
 30
0.0
 10
0.937240157480315
 20
0.3930708661417323
 30
0.0
 10
0.9400748031496063
 20
0.3963779527559055
 30
0.0
 10
0.942992125984252
 20
0.398740157480315
 30
0.0
 10
0.942992125984252
 20
0.398740157480315
 30
0.0
 10
0.9458818897637795
 20
0.4010984251968504
 30
0.0
 10
0.9492677165354331
 20
0.4029055118110236
 30
0.0
 10
0.9531574803149606
 20
0.4041850393700788
 30
0.0
 10
0.9531574803149606
 20
0.4041850393700788
 30
0.0
 10
0.9570472440944883
 20
0.4054606299212599
 30
0.0
 10
0.9612952755905512
 20
0.4060984251968504
 30
0.0
 10
0.9659094488188976
 20
0.4060984251968504
 30
0.0
 10
0.9659094488188976
 20
0.4060984251968504
 30
0.0
 10
0.9732677165354331
 20
0.4060984251968504
 30
0.0
 10
0.9798503937007874
 20
0.4044606299212599
 30
0.0
 10
0.9856023622047244
 20
0.4012125984251969
 30
0.0
 10
0.9856023622047244
 20
0.4012125984251969
 30
0.0
 10
0.9913503937007875
 20
0.3979606299212599
 30
0.0
 10
0.9958228346456693
 20
0.3935433070866142
 30
0.0
 10
0.9990196850393701
 20
0.387988188976378
 30
0.0
 10
0.9990196850393701
 20
0.387988188976378
 30
0.0
 10
1.002212598425197
 20
0.3824330708661418
 30
0.0
 10
1.003822834645669
 20
0.3758779527559055
 30
0.0
 10
1.003822834645669
 20
0.3683503937007874
 30
0.0
 10
1.003822834645669
 20
0.3683503937007874
 30
0.0
 10
1.003822834645669
 20
0.3563503937007874
 30
0.0
 10
1.000212598425197
 20
0.3469330708661417
 30
0.0
 10
0.992992125984252
 20
0.3401023622047244
 30
0.0
 10
0.992992125984252
 20
0.3401023622047244
 30
0.0
 10
0.9850196850393701
 20
0.3326023622047244
 30
0.0
 10
0.9746850393700788
 20
0.3288779527559055
 30
0.0
 10
0.961992125984252
 20
0.3288779527559055
 30
0.0
 10
0.961992125984252
 20
0.3288779527559055
 30
0.0
 10
0.9528228346456693
 20
0.3288779527559055
 30
0.0
 10
0.9451023622047244
 20
0.3307677165354331
 30
0.0
 10
0.9387952755905512
 20
0.3345708661417323
 30
0.0
 10
0.9387952755905512
 20
0.3345708661417323
 30
0.0
 10
0.932492125984252
 20
0.3383503937007874
 30
0.0
 10
0.927492125984252
 20
0.3441574803149606
 30
0.0
 10
0.9237677165354331
 20
0.351988188976378
 30
0.0
 10
0.9237677165354331
 20
0.351988188976378
 30
0.0
 10
0.9200748031496063
 20
0.3597952755905512
 30
0.0
 10
0.9182125984251969
 20
0.3694606299212598
 30
0.0
 10
0.9182125984251969
 20
0.3809606299212598
 30
0.0
 10
0.9182125984251969
 20
0.3809606299212598
 30
0.0
 10
0.9182125984251969
 20
0.3925157480314961
 30
0.0
 10
0.9201850393700788
 20
0.4027677165354331
 30
0.0
 10
0.9241023622047244
 20
0.4117125984251969
 30
0.0
 10
0.9241023622047244
 20
0.4117125984251969
 30
0.0
 10
0.9280472440944882
 20
0.4206535433070867
 30
0.0
 10
0.933492125984252
 20
0.4278503937007874
 30
0.0
 10
0.9404370078740157
 20
0.4332677165354331
 30
0.0
 10
0.9404370078740157
 20
0.4332677165354331
 30
0.0
 10
0.9473818897637796
 20
0.4387125984251969
 30
0.0
 10
0.954992125984252
 20
0.4422677165354331
 30
0.0
 10
0.963240157480315
 20
0.4439330708661418
 30
0.0
 10
0.963240157480315
 20
0.4439330708661418
 30
0.0
 10
0.9715196850393701
 20
0.4456259842519685
 30
0.0
 10
0.9789370078740158
 20
0.4464606299212598
 30
0.0
 10
0.9855196850393702
 20
0.4464606299212598
 30
0.0
 10
0.9855196850393702
 20
0.4464606299212598
 30
0.0
 10
0.9855196850393702
 20
0.4464606299212598
 30
0.0
 10
0.9918503937007874
 20
0.4464606299212598
 30
0.0
 10
0.9918503937007874
 20
0.4464606299212598
 30
0.0
  0
SPLINE
  5
63
330
1F
100
AcDbEntity
  8
LAYER_1
 62
   250
100
AcDbSpline
210
0.0
220
0.0
230
1.0
 70
    11
 71
     3
 72
    40
 73
    36
 74
     0
 42
0.0000000001
 43
0.0000000001
 40
0.0
 40
0.0
 40
0.0
 40
0.0
 40
0.1111111111111111
 40
0.1111111111111111
 40
0.1111111111111111
 40
0.1111111111111111
 40
0.2222222222222222
 40
0.2222222222222222
 40
0.2222222222222222
 40
0.2222222222222222
 40
0.3333333333333333
 40
0.3333333333333333
 40
0.3333333333333333
 40
0.3333333333333333
 40
0.4444444444444444
 40
0.4444444444444444
 40
0.4444444444444444
 40
0.4444444444444444
 40
0.5555555555555556
 40
0.5555555555555556
 40
0.5555555555555556
 40
0.5555555555555556
 40
0.6666666666666667
 40
0.6666666666666667
 40
0.6666666666666667
 40
0.6666666666666667
 40
0.7777777777777779
 40
0.7777777777777779
 40
0.7777777777777779
 40
0.7777777777777779
 40
0.8888888888888891
 40
0.8888888888888891
 40
0.8888888888888891
 40
0.8888888888888891
 40
1.0
 40
1.0
 40
1.0
 40
1.0
 10
0.9621574803149606
 20
0.3974606299212599
 30
0.0
 10
0.9543543307086615
 20
0.3974606299212599
 30
0.0
 10
0.9479370078740158
 20
0.3945157480314961
 30
0.0
 10
0.9429094488188977
 20
0.3885984251968504
 30
0.0
 10
0.9429094488188977
 20
0.3885984251968504
 30
0.0
 10
0.9378818897637795
 20
0.3826850393700788
 30
0.0
 10
0.9353818897637796
 20
0.3755708661417323
 30
0.0
 10
0.9353818897637796
 20
0.3672952755905512
 30
0.0
 10
0.9353818897637796
 20
0.3672952755905512
 30
0.0
 10
0.9353818897637796
 20
0.3614330708661417
 30
0.0
 10
0.9366023622047245
 20
0.3560157480314961
 30
0.0
 10
0.9390472440944883
 20
0.3510433070866142
 30
0.0
 10
0.9390472440944883
 20
0.3510433070866142
 30
0.0
 10
0.941492125984252
 20
0.3460708661417323
 30
0.0
 10
0.9446299212598426
 20
0.3424055118110236
 30
0.0
 10
0.948492125984252
 20
0.339988188976378
 30
0.0
 10
0.948492125984252
 20
0.339988188976378
 30
0.0
 10
0.9523228346456694
 20
0.3375708661417323
 30
0.0
 10
0.9566850393700788
 20
0.3363503937007874
 30
0.0
 10
0.961492125984252
 20
0.3363503937007874
 30
0.0
 10
0.961492125984252
 20
0.3363503937007874
 30
0.0
 10
0.968992125984252
 20
0.3363503937007874
 30
0.0
 10
0.9752125984251969
 20
0.3391850393700788
 30
0.0
 10
0.9801850393700787
 20
0.3448503937007874
 30
0.0
 10
0.9801850393700787
 20
0.3448503937007874
 30
0.0
 10
0.9851299212598426
 20
0.3505157480314961
 30
0.0
 10
0.9876299212598425
 20
0.3581299212598426
 30
0.0
 10
0.9876299212598425
 20
0.3676850393700787
 30
0.0
 10
0.9876299212598425
 20
0.3676850393700787
 30
0.0
 10
0.9876299212598425
 20
0.3767952755905512
 30
0.0
 10
0.9852125984251969
 20
0.3840433070866142
 30
0.0
 10
0.9803818897637796
 20
0.3894055118110236
 30
0.0
 10
0.9803818897637796
 20
0.3894055118110236
 30
0.0
 10
0.9755472440944882
 20
0.3947952755905512
 30
0.0
 10
0.9694645669291339
 20
0.3974606299212599
 30
0.0
 10
0.9621574803149606
 20
0.3974606299212599
 30
0.0
  0
SPLINE
  5
64
330
1F
100
AcDbEntity
  8
LAYER_1
 62
   250
100
AcDbSpline
210
0.0
220
0.0
230
1.0
 70
    11
 71
     3
 72
    60
 73
    56
 74
     0
 42
0.0000000001
 43
0.0000000001
 40
0.0
 40
0.0
 40
0.0
 40
0.0
 40
0.0714285714285714
 40
0.0714285714285714
 40
0.0714285714285714
 40
0.0714285714285714
 40
0.1428571428571429
 40
0.1428571428571429
 40
0.1428571428571429
 40
0.1428571428571429
 40
0.2142857142857143
 40
0.2142857142857143
 40
0.2142857142857143
 40
0.2142857142857143
 40
0.2857142857142857
 40
0.2857142857142857
 40
0.2857142857142857
 40
0.2857142857142857
 40
0.3571428571428571
 40
0.3571428571428571
 40
0.3571428571428571
 40
0.3571428571428571
 40
0.4285714285714285
 40
0.4285714285714285
 40
0.4285714285714285
 40
0.4285714285714285
 40
0.4999999999999999
 40
0.4999999999999999
 40
0.4999999999999999
 40
0.4999999999999999
 40
0.5714285714285713
 40
0.5714285714285713
 40
0.5714285714285713
 40
0.5714285714285713
 40
0.6428571428571427
 40
0.6428571428571427
 40
0.6428571428571427
 40
0.6428571428571427
 40
0.7142857142857141
 40
0.7142857142857141
 40
0.7142857142857141
 40
0.7142857142857141
 40
0.7857142857142855
 40
0.7857142857142855
 40
0.7857142857142855
 40
0.7857142857142855
 40
0.8571428571428569
 40
0.8571428571428569
 40
0.8571428571428569
 40
0.8571428571428569
 40
0.9285714285714283
 40
0.9285714285714283
 40
0.9285714285714283
 40
0.9285714285714283
 40
1.0
 40
1.0
 40
1.0
 40
1.0
 10
1.020992125984252
 20
0.4022677165354331
 30
0.0
 10
1.020992125984252
 20
0.4022677165354331
 30
0.0
 10
1.016602362204724
 20
0.4076574803149606
 30
0.0
 10
1.016602362204724
 20
0.4076574803149606
 30
0.0
 10
1.016602362204724
 20
0.4076574803149606
 30
0.0
 10
1.027716535433071
 20
0.4167125984251969
 30
0.0
 10
1.033299212598425
 20
0.4242677165354331
 30
0.0
 10
1.033299212598425
 20
0.4303503937007874
 30
0.0
 10
1.033299212598425
 20
0.4303503937007874
 30
0.0
 10
1.033299212598425
 20
0.4310433070866142
 30
0.0
 10
1.033244094488189
 20
0.4319330708661417
 30
0.0
 10
1.033129921259843
 20
0.4329606299212598
 30
0.0
 10
1.033129921259843
 20
0.4329606299212598
 30
0.0
 10
1.032216535433071
 20
0.4325708661417323
 30
0.0
 10
1.031299212598425
 20
0.4322677165354331
 30
0.0
 10
1.030437007874016
 20
0.4320708661417323
 30
0.0
 10
1.030437007874016
 20
0.4320708661417323
 30
0.0
 10
1.029574803149606
 20
0.4318503937007874
 30
0.0
 10
1.028771653543307
 20
0.431740157480315
 30
0.0
 10
1.027992125984252
 20
0.431740157480315
 30
0.0
 10
1.027992125984252
 20
0.431740157480315
 30
0.0
 10
1.02538188976378
 20
0.431740157480315
 30
0.0
 10
1.023299212598425
 20
0.4325708661417323
 30
0.0
 10
1.021744094488189
 20
0.4342677165354331
 30
0.0
 10
1.021744094488189
 20
0.4342677165354331
 30
0.0
 10
1.020157480314961
 20
0.4359330708661418
 30
0.0
 10
1.01938188976378
 20
0.4380708661417323
 30
0.0
 10
1.01938188976378
 20
0.4406850393700788
 30
0.0
 10
1.01938188976378
 20
0.4406850393700788
 30
0.0
 10
1.01938188976378
 20
0.443240157480315
 30
0.0
 10
1.020326771653543
 20
0.4454606299212598
 30
0.0
 10
1.022216535433071
 20
0.4473503937007874
 30
0.0
 10
1.022216535433071
 20
0.4473503937007874
 30
0.0
 10
1.024129921259843
 20
0.4492677165354331
 30
0.0
 10
1.026409448818898
 20
0.4502125984251968
 30
0.0
 10
1.029047244094488
 20
0.4502125984251968
 30
0.0
 10
1.029047244094488
 20
0.4502125984251968
 30
0.0
 10
1.032744094488189
 20
0.4502125984251968
 30
0.0
 10
1.035909448818898
 20
0.448740157480315
 30
0.0
 10
1.038547244094488
 20
0.4457677165354331
 30
0.0
 10
1.038547244094488
 20
0.4457677165354331
 30
0.0
 10
1.041157480314961
 20
0.4428228346456693
 30
0.0
 10
1.042492125984252
 20
0.4390157480314961
 30
0.0
 10
1.042492125984252
 20
0.4343503937007874
 30
0.0
 10
1.042492125984252
 20
0.4343503937007874
 30
0.0
 10
1.042492125984252
 20
0.4312952755905512
 30
0.0
 10
1.041854330708661
 20
0.4280984251968504
 30
0.0
 10
1.040602362204725
 20
0.4247677165354331
 30
0.0
 10
1.040602362204725
 20
0.4247677165354331
 30
0.0
 10
1.039354330708662
 20
0.4214330708661417
 30
0.0
 10
1.037547244094488
 20
0.4183503937007874
 30
0.0
 10
1.035157480314961
 20
0.415488188976378
 30
0.0
 10
1.035157480314961
 20
0.415488188976378
 30
0.0
 10
1.032771653543307
 20
0.4126574803149606
 30
0.0
 10
1.028047244094488
 20
0.408240157480315
 30
0.0
 10
1.020992125984252
 20
0.4022677165354331
 30
0.0
  0
SPLINE
  5
65
330
1F
100
AcDbEntity
  8
LAYER_1
 62
   250
100
AcDbSpline
210
0.0
220
0.0
230
1.0
 70
    11
 71
     3
 72
    60
 73
    56
 74
     0
 42
0.0000000001
 43
0.0000000001
 40
0.0
 40
0.0
 40
0.0
 40
0.0
 40
0.0714285714285714
 40
0.0714285714285714
 40
0.0714285714285714
 40
0.0714285714285714
 40
0.1428571428571429
 40
0.1428571428571429
 40
0.1428571428571429
 40
0.1428571428571429
 40
0.2142857142857143
 40
0.2142857142857143
 40
0.2142857142857143
 40
0.2142857142857143
 40
0.2857142857142857
 40
0.2857142857142857
 40
0.2857142857142857
 40
0.2857142857142857
 40
0.3571428571428571
 40
0.3571428571428571
 40
0.3571428571428571
 40
0.3571428571428571
 40
0.4285714285714285
 40
0.4285714285714285
 40
0.4285714285714285
 40
0.4285714285714285
 40
0.4999999999999999
 40
0.4999999999999999
 40
0.4999999999999999
 40
0.4999999999999999
 40
0.5714285714285713
 40
0.5714285714285713
 40
0.5714285714285713
 40
0.5714285714285713
 40
0.6428571428571427
 40
0.6428571428571427
 40
0.6428571428571427
 40
0.6428571428571427
 40
0.7142857142857141
 40
0.7142857142857141
 40
0.7142857142857141
 40
0.7142857142857141
 40
0.7857142857142855
 40
0.7857142857142855
 40
0.7857142857142855
 40
0.7857142857142855
 40
0.8571428571428569
 40
0.8571428571428569
 40
0.8571428571428569
 40
0.8571428571428569
 40
0.9285714285714283
 40
0.9285714285714283
 40
0.9285714285714283
 40
0.9285714285714283
 40
1.0
 40
1.0
 40
1.0
 40
1.0
 10
1.050047244094488
 20
0.4022677165354331
 30
0.0
 10
1.050047244094488
 20
0.4022677165354331
 30
0.0
 10
1.045657480314961
 20
0.4076574803149606
 30
0.0
 10
1.045657480314961
 20
0.4076574803149606
 30
0.0
 10
1.045657480314961
 20
0.4076574803149606
 30
0.0
 10
1.056771653543307
 20
0.4167125984251969
 30
0.0
 10
1.062354330708661
 20
0.4242677165354331
 30
0.0
 10
1.062354330708661
 20
0.4303503937007874
 30
0.0
 10
1.062354330708661
 20
0.4303503937007874
 30
0.0
 10
1.062354330708661
 20
0.4310433070866142
 30
0.0
 10
1.062299212598425
 20
0.4319330708661417
 30
0.0
 10
1.062185039370079
 20
0.4329606299212598
 30
0.0
 10
1.062185039370079
 20
0.4329606299212598
 30
0.0
 10
1.061271653543307
 20
0.4325708661417323
 30
0.0
 10
1.060354330708661
 20
0.4322677165354331
 30
0.0
 10
1.059492125984252
 20
0.4320708661417323
 30
0.0
 10
1.059492125984252
 20
0.4320708661417323
 30
0.0
 10
1.058629921259843
 20
0.4318503937007874
 30
0.0
 10
1.057799212598425
 20
0.431740157480315
 30
0.0
 10
1.056964566929134
 20
0.431740157480315
 30
0.0
 10
1.056964566929134
 20
0.431740157480315
 30
0.0
 10
1.054409448818898
 20
0.431740157480315
 30
0.0
 10
1.052354330708661
 20
0.4325708661417323
 30
0.0
 10
1.050799212598425
 20
0.4342677165354331
 30
0.0
 10
1.050799212598425
 20
0.4342677165354331
 30
0.0
 10
1.049216535433071
 20
0.4359330708661418
 30
0.0
 10
1.048437007874016
 20
0.4380708661417323
 30
0.0
 10
1.048437007874016
 20
0.4406850393700788
 30
0.0
 10
1.048437007874016
 20
0.4406850393700788
 30
0.0
 10
1.048437007874016
 20
0.443240157480315
 30
0.0
 10
1.04938188976378
 20
0.4454606299212598
 30
0.0
 10
1.051271653543307
 20
0.4473503937007874
 30
0.0
 10
1.051271653543307
 20
0.4473503937007874
 30
0.0
 10
1.053157480314961
 20
0.4492677165354331
 30
0.0
 10
1.055464566929134
 20
0.4502125984251968
 30
0.0
 10
1.058102362204725
 20
0.4502125984251968
 30
0.0
 10
1.058102362204725
 20
0.4502125984251968
 30
0.0
 10
1.061799212598425
 20
0.4502125984251968
 30
0.0
 10
1.064964566929134
 20
0.448740157480315
 30
0.0
 10
1.067602362204724
 20
0.4457677165354331
 30
0.0
 10
1.067602362204724
 20
0.4457677165354331
 30
0.0
 10
1.070212598425197
 20
0.4428228346456693
 30
0.0
 10
1.071547244094488
 20
0.4390157480314961
 30
0.0
 10
1.071547244094488
 20
0.4343503937007874
 30
0.0
 10
1.071547244094488
 20
0.4343503937007874
 30
0.0
 10
1.071547244094488
 20
0.4312952755905512
 30
0.0
 10
1.070909448818898
 20
0.4280984251968504
 30
0.0
 10
1.069657480314961
 20
0.4247677165354331
 30
0.0
 10
1.069657480314961
 20
0.4247677165354331
 30
0.0
 10
1.068409448818898
 20
0.4214330708661417
 30
0.0
 10
1.066602362204725
 20
0.4183503937007874
 30
0.0
 10
1.064216535433071
 20
0.415488188976378
 30
0.0
 10
1.064216535433071
 20
0.415488188976378
 30
0.0
 10
1.061826771653543
 20
0.4126574803149606
 30
0.0
 10
1.057102362204724
 20
0.408240157480315
 30
0.0
 10
1.050047244094488
 20
0.4022677165354331
 30
0.0
  0
SPLINE
  5
66
330
1F
100
AcDbEntity
  8
LAYER_1
 62
   250
100
AcDbSpline
210
0.0
220
0.0
230
1.0
 70
    11
 71
     3
 72
   204
 73
   200
 74
     0
 42
0.0000000001
 43
0.0000000001
 40
0.0
 40
0.0
 40
0.0
 40
0.0
 40
0.02
 40
0.02
 40
0.02
 40
0.02
 40
0.04
 40
0.04
 40
0.04
 40
0.04
 40
0.06
 40
0.06
 40
0.06
 40
0.06
 40
0.08
 40
0.08
 40
0.08
 40
0.08
 40
0.1
 40
0.1
 40
0.1
 40
0.1
 40
0.12
 40
0.12
 40
0.12
 40
0.12
 40
0.14
 40
0.14
 40
0.14
 40
0.14
 40
0.16
 40
0.16
 40
0.16
 40
0.16
 40
0.18
 40
0.18
 40
0.18
 40
0.18
 40
0.2
 40
0.2
 40
0.2
 40
0.2
 40
0.22
 40
0.22
 40
0.22
 40
0.22
 40
0.24
 40
0.24
 40
0.24
 40
0.24
 40
0.26
 40
0.26
 40
0.26
 40
0.26
 40
0.28
 40
0.28
 40
0.28
 40
0.28
 40
0.3
 40
0.3
 40
0.3
 40
0.3
 40
0.32
 40
0.32
 40
0.32
 40
0.32
 40
0.34
 40
0.34
 40
0.34
 40
0.34
 40
0.36
 40
0.36
 40
0.36
 40
0.36
 40
0.3800000000000001
 40
0.3800000000000001
 40
0.3800000000000001
 40
0.3800000000000001
 40
0.4000000000000001
 40
0.4000000000000001
 40
0.4000000000000001
 40
0.4000000000000001
 40
0.4200000000000001
 40
0.4200000000000001
 40
0.4200000000000001
 40
0.4200000000000001
 40
0.4400000000000001
 40
0.4400000000000001
 40
0.4400000000000001
 40
0.4400000000000001
 40
0.4600000000000001
 40
0.4600000000000001
 40
0.4600000000000001
 40
0.4600000000000001
 40
0.4800000000000002
 40
0.4800000000000002
 40
0.4800000000000002
 40
0.4800000000000002
 40
0.5000000000000001
 40
0.5000000000000001
 40
0.5000000000000001
 40
0.5000000000000001
 40
0.5200000000000001
 40
0.5200000000000001
 40
0.5200000000000001
 40
0.5200000000000001
 40
0.5400000000000002
 40
0.5400000000000002
 40
0.5400000000000002
 40
0.5400000000000002
 40
0.5600000000000002
 40
0.5600000000000002
 40
0.5600000000000002
 40
0.5600000000000002
 40
0.5800000000000002
 40
0.5800000000000002
 40
0.5800000000000002
 40
0.5800000000000002
 40
0.6000000000000002
 40
0.6000000000000002
 40
0.6000000000000002
 40
0.6000000000000002
 40
0.6200000000000002
 40
0.6200000000000002
 40
0.6200000000000002
 40
0.6200000000000002
 40
0.6400000000000002
 40
0.6400000000000002
 40
0.6400000000000002
 40
0.6400000000000002
 40
0.6600000000000003
 40
0.6600000000000003
 40
0.6600000000000003
 40
0.6600000000000003
 40
0.6800000000000003
 40
0.6800000000000003
 40
0.6800000000000003
 40
0.6800000000000003
 40
0.7000000000000003
 40
0.7000000000000003
 40
0.7000000000000003
 40
0.7000000000000003
 40
0.7200000000000003
 40
0.7200000000000003
 40
0.7200000000000003
 40
0.7200000000000003
 40
0.7400000000000003
 40
0.7400000000000003
 40
0.7400000000000003
 40
0.7400000000000003
 40
0.7600000000000003
 40
0.7600000000000003
 40
0.7600000000000003
 40
0.7600000000000003
 40
0.7800000000000004
 40
0.7800000000000004
 40
0.7800000000000004
 40
0.7800000000000004
 40
0.8000000000000004
 40
0.8000000000000004
 40
0.8000000000000004
 40
0.8000000000000004
 40
0.8200000000000004
 40
0.8200000000000004
 40
0.8200000000000004
 40
0.8200000000000004
 40
0.8400000000000004
 40
0.8400000000000004
 40
0.8400000000000004
 40
0.8400000000000004
 40
0.8600000000000004
 40
0.8600000000000004
 40
0.8600000000000004
 40
0.8600000000000004
 40
0.8800000000000005
 40
0.8800000000000005
 40
0.8800000000000005
 40
0.8800000000000005
 40
0.9000000000000005
 40
0.9000000000000005
 40
0.9000000000000005
 40
0.9000000000000005
 40
0.9200000000000005
 40
0.9200000000000005
 40
0.9200000000000005
 40
0.9200000000000005
 40
0.9400000000000005
 40
0.9400000000000005
 40
0.9400000000000005
 40
0.9400000000000005
 40
0.9600000000000005
 40
0.9600000000000005
 40
0.9600000000000005
 40
0.9600000000000005
 40
0.9800000000000005
 40
0.9800000000000005
 40
0.9800000000000005
 40
0.9800000000000005
 40
1.0
 40
1.0
 40
1.0
 40
1.0
 10
1.133854330708662
 20
0.4093503937007874
 30
0.0
 10
1.133854330708662
 20
0.4093503937007874
 30
0.0
 10
1.174799212598425
 20
0.4093503937007874
 30
0.0
 10
1.174799212598425
 20
0.4093503937007874
 30
0.0
 10
1.174799212598425
 20
0.4093503937007874
 30
0.0
 10
1.174799212598425
 20
0.4093503937007874
 30
0.0
 10
1.174799212598425
 20
0.4025157480314961
 30
0.0
 10
1.174799212598425
 20
0.4025157480314961
 30
0.0
 10
1.174799212598425
 20
0.4025157480314961
 30
0.0
 10
1.174799212598425
 20
0.4025157480314961
 30
0.0
 10
1.171964566929134
 20
0.4025157480314961
 30
0.0
 10
1.171964566929134
 20
0.4025157480314961
 30
0.0
 10
1.171964566929134
 20
0.4025157480314961
 30
0.0
 10
1.170326771653543
 20
0.4025157480314961
 30
0.0
 10
1.168826771653543
 20
0.4023228346456693
 30
0.0
 10
1.167464566929134
 20
0.4019606299212599
 30
0.0
 10
1.167464566929134
 20
0.4019606299212599
 30
0.0
 10
1.166661417322835
 20
0.401740157480315
 30
0.0
 10
1.165992125984252
 20
0.4013228346456693
 30
0.0
 10
1.165492125984252
 20
0.4006850393700788
 30
0.0
 10
1.165492125984252
 20
0.4006850393700788
 30
0.0
 10
1.164964566929134
 20
0.4000708661417323
 30
0.0
 10
1.164716535433071
 20
0.3994881889763779
 30
0.0
 10
1.164716535433071
 20
0.3989330708661418
 30
0.0
 10
1.164716535433071
 20
0.3989330708661418
 30
0.0
 10
1.164716535433071
 20
0.3976850393700788
 30
0.0
 10
1.165744094488189
 20
0.3958228346456693
 30
0.0
 10
1.167799212598425
 20
0.3933228346456693
 30
0.0
 10
1.167799212598425
 20
0.3933228346456693
 30
0.0
 10
1.167799212598425
 20
0.3933228346456693
 30
0.0
 10
1.179437007874016
 20
0.3786850393700788
 30
0.0
 10
1.179437007874016
 20
0.3786850393700788
 30
0.0
 10
1.179437007874016
 20
0.3786850393700788
 30
0.0
 10
1.179437007874016
 20
0.3786850393700788
 30
0.0
 10
1.19301968503937
 20
0.3933228346456693
 30
0.0
 10
1.19301968503937
 20
0.3933228346456693
 30
0.0
 10
1.19301968503937
 20
0.3933228346456693
 30
0.0
 10
1.19551968503937
 20
0.3960433070866142
 30
0.0
 10
1.196771653543307
 20
0.3980708661417323
 30
0.0
 10
1.196771653543307
 20
0.3994330708661418
 30
0.0
 10
1.196771653543307
 20
0.3994330708661418
 30
0.0
 10
1.196771653543307
 20
0.4004055118110236
 30
0.0
 10
1.196326771653543
 20
0.4011574803149606
 30
0.0
 10
1.195464566929134
 20
0.4017125984251969
 30
0.0
 10
1.195464566929134
 20
0.4017125984251969
 30
0.0
 10
1.194602362204724
 20
0.402240157480315
 30
0.0
 10
1.192744094488189
 20
0.4025157480314961
 30
0.0
 10
1.189854330708662
 20
0.4025157480314961
 30
0.0
 10
1.189854330708662
 20
0.4025157480314961
 30
0.0
 10
1.189854330708662
 20
0.4025157480314961
 30
0.0
 10
1.186771653543307
 20
0.4025157480314961
 30
0.0
 10
1.186771653543307
 20
0.4025157480314961
 30
0.0
 10
1.186771653543307
 20
0.4025157480314961
 30
0.0
 10
1.186771653543307
 20
0.4025157480314961
 30
0.0
 10
1.186771653543307
 20
0.4093503937007874
 30
0.0
 10
1.186771653543307
 20
0.4093503937007874
 30
0.0
 10
1.186771653543307
 20
0.4093503937007874
 30
0.0
 10
1.186771653543307
 20
0.4093503937007874
 30
0.0
 10
1.22151968503937
 20
0.4093503937007874
 30
0.0
 10
1.22151968503937
 20
0.4093503937007874
 30
0.0
 10
1.22151968503937
 20
0.4093503937007874
 30
0.0
 10
1.22151968503937
 20
0.4093503937007874
 30
0.0
 10
1.22151968503937
 20
0.4025157480314961
 30
0.0
 10
1.22151968503937
 20
0.4025157480314961
 30
0.0
 10
1.22151968503937
 20
0.4025157480314961
 30
0.0
 10
1.218102362204725
 20
0.4023503937007874
 30
0.0
 10
1.215157480314961
 20
0.4016574803149606
 30
0.0
 10
1.212688976377953
 20
0.4004055118110236
 30
0.0
 10
1.212688976377953
 20
0.4004055118110236
 30
0.0
 10
1.210216535433071
 20
0.3991574803149606
 30
0.0
 10
1.207299212598425
 20
0.3967952755905512
 30
0.0
 10
1.203937007874016
 20
0.3933228346456693
 30
0.0
 10
1.203937007874016
 20
0.3933228346456693
 30
0.0
 10
1.203937007874016
 20
0.3933228346456693
 30
0.0
 10
1.185299212598425
 20
0.3739606299212598
 30
0.0
 10
1.185299212598425
 20
0.3739606299212598
 30
0.0
 10
1.185299212598425
 20
0.3739606299212598
 30
0.0
 10
1.185299212598425
 20
0.3739606299212598
 30
0.0
 10
1.208492125984252
 20
0.3475157480314961
 30
0.0
 10
1.208492125984252
 20
0.3475157480314961
 30
0.0
 10
1.208492125984252
 20
0.3475157480314961
 30
0.0
 10
1.208492125984252
 20
0.3475157480314961
 30
0.0
 10
1.20938188976378
 20
0.3463779527559056
 30
0.0
 10
1.20938188976378
 20
0.3463779527559056
 30
0.0
 10
1.20938188976378
 20
0.3463779527559056
 30
0.0
 10
1.211657480314961
 20
0.3434330708661417
 30
0.0
 10
1.214216535433071
 20
0.3410708661417323
 30
0.0
 10
1.217047244094488
 20
0.3392952755905512
 30
0.0
 10
1.217047244094488
 20
0.3392952755905512
 30
0.0
 10
1.218602362204724
 20
0.3382677165354331
 30
0.0
 10
1.221047244094488
 20
0.3377125984251969
 30
0.0
 10
1.224354330708662
 20
0.3376574803149606
 30
0.0
 10
1.224354330708662
 20
0.3376574803149606
 30
0.0
 10
1.224354330708662
 20
0.3376574803149606
 30
0.0
 10
1.224354330708662
 20
0.3308228346456693
 30
0.0
 10
1.224354330708662
 20
0.3308228346456693
 30
0.0
 10
1.224354330708662
 20
0.3308228346456693
 30
0.0
 10
1.224354330708662
 20
0.3308228346456693
 30
0.0
 10
1.184409448818898
 20
0.3308228346456693
 30
0.0
 10
1.184409448818898
 20
0.3308228346456693
 30
0.0
 10
1.184409448818898
 20
0.3308228346456693
 30
0.0
 10
1.184409448818898
 20
0.3308228346456693
 30
0.0
 10
1.184409448818898
 20
0.3376574803149606
 30
0.0
 10
1.184409448818898
 20
0.3376574803149606
 30
0.0
 10
1.184409448818898
 20
0.3376574803149606
 30
0.0
 10
1.184409448818898
 20
0.3376574803149606
 30
0.0
 10
1.187826771653543
 20
0.3376574803149606
 30
0.0
 10
1.187826771653543
 20
0.3376574803149606
 30
0.0
 10
1.187826771653543
 20
0.3376574803149606
 30
0.0
 10
1.190437007874016
 20
0.3376574803149606
 30
0.0
 10
1.192074803149607
 20
0.3378228346456693
 30
0.0
 10
1.192799212598425
 20
0.3381574803149606
 30
0.0
 10
1.192799212598425
 20
0.3381574803149606
 30
0.0
 10
1.193964566929134
 20
0.3386850393700788
 30
0.0
 10
1.194574803149606
 20
0.3396023622047244
 30
0.0
 10
1.194574803149606
 20
0.3409055118110236
 30
0.0
 10
1.194574803149606
 20
0.3409055118110236
 30
0.0
 10
1.194574803149606
 20
0.3421023622047244
 30
0.0
 10
1.193271653543307
 20
0.3442952755905512
 30
0.0
 10
1.190657480314961
 20
0.3475157480314961
 30
0.0
 10
1.190657480314961
 20
0.3475157480314961
 30
0.0
 10
1.190657480314961
 20
0.3475157480314961
 30
0.0
 10
1.175854330708662
 20
0.3656574803149607
 30
0.0
 10
1.175854330708662
 20
0.3656574803149607
 30
0.0
 10
1.175854330708662
 20
0.3656574803149607
 30
0.0
 10
1.175854330708662
 20
0.3656574803149607
 30
0.0
 10
1.159326771653543
 20
0.3475157480314961
 30
0.0
 10
1.159326771653543
 20
0.3475157480314961
 30
0.0
 10
1.159326771653543
 20
0.3475157480314961
 30
0.0
 10
1.159326771653543
 20
0.3475157480314961
 30
0.0
 10
1.157716535433071
 20
0.3455433070866142
 30
0.0
 10
1.157716535433071
 20
0.3455433070866142
 30
0.0
 10
1.157716535433071
 20
0.3455433070866142
 30
0.0
 10
1.157716535433071
 20
0.3455433070866142
 30
0.0
 10
1.156826771653543
 20
0.3445708661417323
 30
0.0
 10
1.156826771653543
 20
0.3445708661417323
 30
0.0
 10
1.156826771653543
 20
0.3445708661417323
 30
0.0
 10
1.155464566929134
 20
0.3431023622047244
 30
0.0
 10
1.154771653543307
 20
0.3418228346456693
 30
0.0
 10
1.154771653543307
 20
0.3406850393700788
 30
0.0
 10
1.154771653543307
 20
0.3406850393700788
 30
0.0
 10
1.154771653543307
 20
0.3396299212598425
 30
0.0
 10
1.155188976377953
 20
0.3388779527559055
 30
0.0
 10
1.156047244094488
 20
0.3383779527559055
 30
0.0
 10
1.156047244094488
 20
0.3383779527559055
 30
0.0
 10
1.15688188976378
 20
0.3379055118110236
 30
0.0
 10
1.158771653543307
 20
0.3376574803149606
 30
0.0
 10
1.161688976377953
 20
0.3376574803149606
 30
0.0
 10
1.161688976377953
 20
0.3376574803149606
 30
0.0
 10
1.161688976377953
 20
0.3376574803149606
 30
0.0
 10
1.164964566929134
 20
0.3376574803149606
 30
0.0
 10
1.164964566929134
 20
0.3376574803149606
 30
0.0
 10
1.164964566929134
 20
0.3376574803149606
 30
0.0
 10
1.164964566929134
 20
0.3376574803149606
 30
0.0
 10
1.164964566929134
 20
0.3308228346456693
 30
0.0
 10
1.164964566929134
 20
0.3308228346456693
 30
0.0
 10
1.164964566929134
 20
0.3308228346456693
 30
0.0
 10
1.164964566929134
 20
0.3308228346456693
 30
0.0
 10
1.130688976377953
 20
0.3308228346456693
 30
0.0
 10
1.130688976377953
 20
0.3308228346456693
 30
0.0
 10
1.130688976377953
 20
0.3308228346456693
 30
0.0
 10
1.130688976377953
 20
0.3308228346456693
 30
0.0
 10
1.130688976377953
 20
0.3376574803149606
 30
0.0
 10
1.130688976377953
 20
0.3376574803149606
 30
0.0
 10
1.130688976377953
 20
0.3376574803149606
 30
0.0
 10
1.133354330708662
 20
0.3377125984251969
 30
0.0
 10
1.135437007874016
 20
0.337988188976378
 30
0.0
 10
1.136964566929134
 20
0.3385157480314961
 30
0.0
 10
1.136964566929134
 20
0.3385157480314961
 30
0.0
 10
1.138464566929134
 20
0.3390157480314961
 30
0.0
 10
1.139937007874016
 20
0.3398228346456693
 30
0.0
 10
1.141354330708662
 20
0.3409055118110236
 30
0.0
 10
1.141354330708662
 20
0.3409055118110236
 30
0.0
 10
1.143799212598425
 20
0.3428779527559056
 30
0.0
 10
1.145547244094488
 20
0.3444055118110236
 30
0.0
 10
1.146633858267717
 20
0.3455433070866142
 30
0.0
 10
1.146633858267717
 20
0.3455433070866142
 30
0.0
 10
1.146633858267717
 20
0.3455433070866142
 30
0.0
 10
1.170492125984252
 20
0.3700433070866142
 30
0.0
 10
1.170492125984252
 20
0.3700433070866142
 30
0.0
 10
1.170492125984252
 20
0.3700433070866142
 30
0.0
 10
1.170492125984252
 20
0.3700433070866142
 30
0.0
 10
1.150216535433071
 20
0.3933228346456693
 30
0.0
 10
1.150216535433071
 20
0.3933228346456693
 30
0.0
 10
1.150216535433071
 20
0.3933228346456693
 30
0.0
 10
1.147661417322835
 20
0.3962125984251969
 30
0.0
 10
1.145661417322835
 20
0.3982125984251969
 30
0.0
 10
1.144161417322835
 20
0.3993779527559055
 30
0.0
 10
1.144161417322835
 20
0.3993779527559055
 30
0.0
 10
1.142661417322835
 20
0.4005433070866142
 30
0.0
 10
1.141216535433071
 20
0.4013779527559055
 30
0.0
 10
1.139799212598425
 20
0.4018228346456693
 30
0.0
 10
1.139799212598425
 20
0.4018228346456693
 30
0.0
 10
1.13838188976378
 20
0.4022952755905512
 30
0.0
 10
1.136409448818898
 20
0.4025157480314961
 30
0.0
 10
1.133854330708662
 20
0.4025157480314961
 30
0.0
 10
1.133854330708662
 20
0.4025157480314961
 30
0.0
 10
1.133854330708662
 20
0.4025157480314961
 30
0.0
 10
1.133854330708662
 20
0.4093503937007874
 30
0.0
 10
1.133854330708662
 20
0.4093503937007874
 30
0.0
  0
SPLINE
  5
67
330
1F
100
AcDbEntity
  8
LAYER_1
 62
   250
100
AcDbSpline
210
0.0
220
0.0
230
1.0
 70
    11
 71
     3
 72
    72
 73
    68
 74
     0
 42
0.0000000001
 43
0.0000000001
 40
0.0
 40
0.0
 40
0.0
 40
0.0
 40
0.0588235294117647
 40
0.0588235294117647
 40
0.0588235294117647
 40
0.0588235294117647
 40
0.1176470588235294
 40
0.1176470588235294
 40
0.1176470588235294
 40
0.1176470588235294
 40
0.1764705882352941
 40
0.1764705882352941
 40
0.1764705882352941
 40
0.1764705882352941
 40
0.2352941176470588
 40
0.2352941176470588
 40
0.2352941176470588
 40
0.2352941176470588
 40
0.2941176470588235
 40
0.2941176470588235
 40
0.2941176470588235
 40
0.2941176470588235
 40
0.3529411764705883
 40
0.3529411764705883
 40
0.3529411764705883
 40
0.3529411764705883
 40
0.411764705882353
 40
0.411764705882353
 40
0.411764705882353
 40
0.411764705882353
 40
0.4705882352941177
 40
0.4705882352941177
 40
0.4705882352941177
 40
0.4705882352941177
 40
0.5294117647058824
 40
0.5294117647058824
 40
0.5294117647058824
 40
0.5294117647058824
 40
0.5882352941176471
 40
0.5882352941176471
 40
0.5882352941176471
 40
0.5882352941176471
 40
0.6470588235294118
 40
0.6470588235294118
 40
0.6470588235294118
 40
0.6470588235294118
 40
0.7058823529411765
 40
0.7058823529411765
 40
0.7058823529411765
 40
0.7058823529411765
 40
0.7647058823529412
 40
0.7647058823529412
 40
0.7647058823529412
 40
0.7647058823529412
 40
0.823529411764706
 40
0.823529411764706
 40
0.823529411764706
 40
0.823529411764706
 40
0.8823529411764707
 40
0.8823529411764707
 40
0.8823529411764707
 40
0.8823529411764707
 40
0.9411764705882354
 40
0.9411764705882354
 40
0.9411764705882354
 40
0.9411764705882354
 40
1.0
 40
1.0
 40
1.0
 40
1.0
 10
1.333492125984252
 20
0.4443503937007874
 30
0.0
 10
1.333492125984252
 20
0.4443503937007874
 30
0.0
 10
1.339574803149606
 20
0.4443503937007874
 30
0.0
 10
1.339574803149606
 20
0.4443503937007874
 30
0.0
 10
1.339574803149606
 20
0.4443503937007874
 30
0.0
 10
1.339574803149606
 20
0.4443503937007874
 30
0.0
 10
1.339574803149606
 20
0.3501023622047244
 30
0.0
 10
1.339574803149606
 20
0.3501023622047244
 30
0.0
 10
1.339574803149606
 20
0.3501023622047244
 30
0.0
 10
1.339574803149606
 20
0.3456574803149606
 30
0.0
 10
1.33988188976378
 20
0.3427952755905512
 30
0.0
 10
1.340437007874016
 20
0.3415157480314961
 30
0.0
 10
1.340437007874016
 20
0.3415157480314961
 30
0.0
 10
1.34101968503937
 20
0.340240157480315
 30
0.0
 10
1.341937007874016
 20
0.3392952755905512
 30
0.0
 10
1.343240157480315
 20
0.3386299212598425
 30
0.0
 10
1.343240157480315
 20
0.3386299212598425
 30
0.0
 10
1.344547244094488
 20
0.337988188976378
 30
0.0
 10
1.347129921259843
 20
0.3376574803149606
 30
0.0
 10
1.350992125984252
 20
0.3376574803149606
 30
0.0
 10
1.350992125984252
 20
0.3376574803149606
 30
0.0
 10
1.350992125984252
 20
0.3376574803149606
 30
0.0
 10
1.358964566929134
 20
0.3376574803149606
 30
0.0
 10
1.358964566929134
 20
0.3376574803149606
 30
0.0
 10
1.358964566929134
 20
0.3376574803149606
 30
0.0
 10
1.358964566929134
 20
0.3376574803149606
 30
0.0
 10
1.358964566929134
 20
0.3308228346456693
 30
0.0
 10
1.358964566929134
 20
0.3308228346456693
 30
0.0
 10
1.358964566929134
 20
0.3308228346456693
 30
0.0
 10
1.358964566929134
 20
0.3308228346456693
 30
0.0
 10
1.305326771653543
 20
0.3308228346456693
 30
0.0
 10
1.305326771653543
 20
0.3308228346456693
 30
0.0
 10
1.305326771653543
 20
0.3308228346456693
 30
0.0
 10
1.305326771653543
 20
0.3308228346456693
 30
0.0
 10
1.305326771653543
 20
0.3376574803149606
 30
0.0
 10
1.305326771653543
 20
0.3376574803149606
 30
0.0
 10
1.305326771653543
 20
0.3376574803149606
 30
0.0
 10
1.305326771653543
 20
0.3376574803149606
 30
0.0
 10
1.314185039370079
 20
0.3376574803149606
 30
0.0
 10
1.314185039370079
 20
0.3376574803149606
 30
0.0
 10
1.314185039370079
 20
0.3376574803149606
 30
0.0
 10
1.318047244094488
 20
0.3376574803149606
 30
0.0
 10
1.320602362204725
 20
0.337988188976378
 30
0.0
 10
1.32188188976378
 20
0.3386850393700788
 30
0.0
 10
1.32188188976378
 20
0.3386850393700788
 30
0.0
 10
1.323157480314961
 20
0.3393503937007874
 30
0.0
 10
1.324157480314961
 20
0.3404330708661417
 30
0.0
 10
1.324854330708662
 20
0.3419330708661417
 30
0.0
 10
1.324854330708662
 20
0.3419330708661417
 30
0.0
 10
1.325547244094488
 20
0.3434330708661417
 30
0.0
 10
1.325909448818898
 20
0.3461574803149606
 30
0.0
 10
1.325909448818898
 20
0.3501023622047244
 30
0.0
 10
1.325909448818898
 20
0.3501023622047244
 30
0.0
 10
1.325909448818898
 20
0.3501023622047244
 30
0.0
 10
1.325909448818898
 20
0.4275708661417323
 30
0.0
 10
1.325909448818898
 20
0.4275708661417323
 30
0.0
 10
1.325909448818898
 20
0.4275708661417323
 30
0.0
 10
1.325909448818898
 20
0.4275708661417323
 30
0.0
 10
1.305326771653543
 20
0.4275708661417323
 30
0.0
 10
1.305326771653543
 20
0.4275708661417323
 30
0.0
 10
1.305326771653543
 20
0.4275708661417323
 30
0.0
 10
1.305326771653543
 20
0.4275708661417323
 30
0.0
 10
1.305326771653543
 20
0.4345708661417323
 30
0.0
 10
1.305326771653543
 20
0.4345708661417323
 30
0.0
 10
1.305326771653543
 20
0.4345708661417323
 30
0.0
 10
1.316547244094488
 20
0.4361535433070866
 30
0.0
 10
1.325937007874016
 20
0.4394055118110237
 30
0.0
 10
1.333492125984252
 20
0.4443503937007874
 30
0.0
  0
SPLINE
  5
68
330
1F
100
AcDbEntity
  8
LAYER_1
 62
   250
100
AcDbSpline
210
0.0
220
0.0
230
1.0
 70
    11
 71
     3
 72
    20
 73
    16
 74
     0
 42
0.0000000001
 43
0.0000000001
 40
0.0
 40
0.0
 40
0.0
 40
0.0
 40
0.25
 40
0.25
 40
0.25
 40
0.25
 40
0.5
 40
0.5
 40
0.5
 40
0.5
 40
0.75
 40
0.75
 40
0.75
 40
0.75
 40
1.0
 40
1.0
 40
1.0
 40
1.0
 10
1.389964566929134
 20
0.3772952755905512
 30
0.0
 10
1.389964566929134
 20
0.3772952755905512
 30
0.0
 10
1.438299212598425
 20
0.3772952755905512
 30
0.0
 10
1.438299212598425
 20
0.3772952755905512
 30
0.0
 10
1.438299212598425
 20
0.3772952755905512
 30
0.0
 10
1.438299212598425
 20
0.3772952755905512
 30
0.0
 10
1.438299212598425
 20
0.3672125984251969
 30
0.0
 10
1.438299212598425
 20
0.3672125984251969
 30
0.0
 10
1.438299212598425
 20
0.3672125984251969
 30
0.0
 10
1.438299212598425
 20
0.3672125984251969
 30
0.0
 10
1.389964566929134
 20
0.3672125984251969
 30
0.0
 10
1.389964566929134
 20
0.3672125984251969
 30
0.0
 10
1.389964566929134
 20
0.3672125984251969
 30
0.0
 10
1.389964566929134
 20
0.3672125984251969
 30
0.0
 10
1.389964566929134
 20
0.3772952755905512
 30
0.0
 10
1.389964566929134
 20
0.3772952755905512
 30
0.0
  0
SPLINE
  5
69
330
1F
100
AcDbEntity
  8
LAYER_1
 62
   250
100
AcDbSpline
210
0.0
220
0.0
230
1.0
 70
    11
 71
     3
 72
   132
 73
   128
 74
     0
 42
0.0000000001
 43
0.0000000001
 40
0.0
 40
0.0
 40
0.0
 40
0.0
 40
0.03125
 40
0.03125
 40
0.03125
 40
0.03125
 40
0.0625
 40
0.0625
 40
0.0625
 40
0.0625
 40
0.09375
 40
0.09375
 40
0.09375
 40
0.09375
 40
0.125
 40
0.125
 40
0.125
 40
0.125
 40
0.15625
 40
0.15625
 40
0.15625
 40
0.15625
 40
0.1875
 40
0.1875
 40
0.1875
 40
0.1875
 40
0.21875
 40
0.21875
 40
0.21875
 40
0.21875
 40
0.25
 40
0.25
 40
0.25
 40
0.25
 40
0.28125
 40
0.28125
 40
0.28125
 40
0.28125
 40
0.3125
 40
0.3125
 40
0.3125
 40
0.3125
 40
0.34375
 40
0.34375
 40
0.34375
 40
0.34375
 40
0.375
 40
0.375
 40
0.375
 40
0.375
 40
0.40625
 40
0.40625
 40
0.40625
 40
0.40625
 40
0.4375
 40
0.4375
 40
0.4375
 40
0.4375
 40
0.46875
 40
0.46875
 40
0.46875
 40
0.46875
 40
0.5
 40
0.5
 40
0.5
 40
0.5
 40
0.53125
 40
0.53125
 40
0.53125
 40
0.53125
 40
0.5625
 40
0.5625
 40
0.5625
 40
0.5625
 40
0.59375
 40
0.59375
 40
0.59375
 40
0.59375
 40
0.625
 40
0.625
 40
0.625
 40
0.625
 40
0.65625
 40
0.65625
 40
0.65625
 40
0.65625
 40
0.6875
 40
0.6875
 40
0.6875
 40
0.6875
 40
0.71875
 40
0.71875
 40
0.71875
 40
0.71875
 40
0.75
 40
0.75
 40
0.75
 40
0.75
 40
0.78125
 40
0.78125
 40
0.78125
 40
0.78125
 40
0.8125
 40
0.8125
 40
0.8125
 40
0.8125
 40
0.84375
 40
0.84375
 40
0.84375
 40
0.84375
 40
0.875
 40
0.875
 40
0.875
 40
0.875
 40
0.90625
 40
0.90625
 40
0.90625
 40
0.90625
 40
0.9375
 40
0.9375
 40
0.9375
 40
0.9375
 40
0.96875
 40
0.96875
 40
0.96875
 40
0.96875
 40
1.0
 40
1.0
 40
1.0
 40
1.0
 10
1.46988188976378
 20
0.4443503937007874
 30
0.0
 10
1.46988188976378
 20
0.4443503937007874
 30
0.0
 10
1.520492125984252
 20
0.4443503937007874
 30
0.0
 10
1.520492125984252
 20
0.4443503937007874
 30
0.0
 10
1.520492125984252
 20
0.4443503937007874
 30
0.0
 10
1.523574803149606
 20
0.4443503937007874
 30
0.0
 10
1.525464566929134
 20
0.4445157480314961
 30
0.0
 10
1.526102362204725
 20
0.4448503937007874
 30
0.0
 10
1.526102362204725
 20
0.4448503937007874
 30
0.0
 10
1.52701968503937
 20
0.4453779527559055
 30
0.0
 10
1.527574803149606
 20
0.4465433070866142
 30
0.0
 10
1.527740157480315
 20
0.4483228346456693
 30
0.0
 10
1.527740157480315
 20
0.4483228346456693
 30
0.0
 10
1.527740157480315
 20
0.4483228346456693
 30
0.0
 10
1.533685039370079
 20
0.4483228346456693
 30
0.0
 10
1.533685039370079
 20
0.4483228346456693
 30
0.0
 10
1.533685039370079
 20
0.4483228346456693
 30
0.0
 10
1.533685039370079
 20
0.4483228346456693
 30
0.0
 10
1.533685039370079
 20
0.4311535433070866
 30
0.0
 10
1.533685039370079
 20
0.4311535433070866
 30
0.0
 10
1.533685039370079
 20
0.4311535433070866
 30
0.0
 10
1.533685039370079
 20
0.4311535433070866
 30
0.0
 10
1.477437007874016
 20
0.4311535433070866
 30
0.0
 10
1.477437007874016
 20
0.4311535433070866
 30
0.0
 10
1.477437007874016
 20
0.4311535433070866
 30
0.0
 10
1.477437007874016
 20
0.4311535433070866
 30
0.0
 10
1.476047244094488
 20
0.4025157480314961
 30
0.0
 10
1.476047244094488
 20
0.4025157480314961
 30
0.0
 10
1.476047244094488
 20
0.4025157480314961
 30
0.0
 10
1.47838188976378
 20
0.4031850393700788
 30
0.0
 10
1.481354330708661
 20
0.4037125984251969
 30
0.0
 10
1.484937007874016
 20
0.4041574803149606
 30
0.0
 10
1.484937007874016
 20
0.4041574803149606
 30
0.0
 10
1.489547244094488
 20
0.4046850393700788
 30
0.0
 10
1.493657480314961
 20
0.4049606299212599
 30
0.0
 10
1.497299212598425
 20
0.4049606299212599
 30
0.0
 10
1.497299212598425
 20
0.4049606299212599
 30
0.0
 10
1.506354330708662
 20
0.4049606299212599
 30
0.0
 10
1.514240157480315
 20
0.4033228346456693
 30
0.0
 10
1.520992125984252
 20
0.4000708661417323
 30
0.0
 10
1.520992125984252
 20
0.4000708661417323
 30
0.0
 10
1.527712598425197
 20
0.3968228346456693
 30
0.0
 10
1.532822834645669
 20
0.3923503937007874
 30
0.0
 10
1.536322834645669
 20
0.3866850393700788
 30
0.0
 10
1.536322834645669
 20
0.3866850393700788
 30
0.0
 10
1.539822834645669
 20
0.3810157480314961
 30
0.0
 10
1.541574803149606
 20
0.3746850393700787
 30
0.0
 10
1.541574803149606
 20
0.3676850393700787
 30
0.0
 10
1.541574803149606
 20
0.3676850393700787
 30
0.0
 10
1.541574803149606
 20
0.3568503937007874
 30
0.0
 10
1.537492125984252
 20
0.3476574803149606
 30
0.0
 10
1.529354330708661
 20
0.3401299212598425
 30
0.0
 10
1.529354330708661
 20
0.3401299212598425
 30
0.0
 10
1.521212598425197
 20
0.3326299212598425
 30
0.0
 10
1.510854330708662
 20
0.3288779527559055
 30
0.0
 10
1.498267716535433
 20
0.3288779527559055
 30
0.0
 10
1.498267716535433
 20
0.3288779527559055
 30
0.0
 10
1.490992125984252
 20
0.3288779527559055
 30
0.0
 10
1.484437007874016
 20
0.3301850393700788
 30
0.0
 10
1.478547244094488
 20
0.3327677165354331
 30
0.0
 10
1.478547244094488
 20
0.3327677165354331
 30
0.0
 10
1.472657480314961
 20
0.3353779527559055
 30
0.0
 10
1.468047244094488
 20
0.3388228346456693
 30
0.0
 10
1.464740157480315
 20
0.3430708661417323
 30
0.0
 10
1.464740157480315
 20
0.3430708661417323
 30
0.0
 10
1.461437007874016
 20
0.3473228346456693
 30
0.0
 10
1.459771653543307
 20
0.3510708661417323
 30
0.0
 10
1.459771653543307
 20
0.3542677165354331
 30
0.0
 10
1.459771653543307
 20
0.3542677165354331
 30
0.0
 10
1.459771653543307
 20
0.3563779527559055
 30
0.0
 10
1.460492125984252
 20
0.3582125984251969
 30
0.0
 10
1.461909448818898
 20
0.3597677165354331
 30
0.0
 10
1.461909448818898
 20
0.3597677165354331
 30
0.0
 10
1.463299212598425
 20
0.3612952755905512
 30
0.0
 10
1.465129921259843
 20
0.3620708661417323
 30
0.0
 10
1.467354330708661
 20
0.3620708661417323
 30
0.0
 10
1.467354330708661
 20
0.3620708661417323
 30
0.0
 10
1.469629921259843
 20
0.3620708661417323
 30
0.0
 10
1.471629921259843
 20
0.3611299212598426
 30
0.0
 10
1.47338188976378
 20
0.3592125984251969
 30
0.0
 10
1.47338188976378
 20
0.3592125984251969
 30
0.0
 10
1.474354330708662
 20
0.358240157480315
 30
0.0
 10
1.47551968503937
 20
0.3558503937007874
 30
0.0
 10
1.47688188976378
 20
0.3520708661417323
 30
0.0
 10
1.47688188976378
 20
0.3520708661417323
 30
0.0
 10
1.478712598425197
 20
0.346740157480315
 30
0.0
 10
1.481464566929134
 20
0.3428503937007874
 30
0.0
 10
1.485102362204724
 20
0.3403503937007874
 30
0.0
 10
1.485102362204724
 20
0.3403503937007874
 30
0.0
 10
1.488657480314961
 20
0.3377952755905512
 30
0.0
 10
1.493185039370079
 20
0.3365157480314961
 30
0.0
 10
1.498602362204724
 20
0.3365157480314961
 30
0.0
 10
1.498602362204724
 20
0.3365157480314961
 30
0.0
 10
1.50401968503937
 20
0.3365157480314961
 30
0.0
 10
1.508854330708662
 20
0.3377125984251969
 30
0.0
 10
1.513074803149606
 20
0.3400708661417323
 30
0.0
 10
1.513074803149606
 20
0.3400708661417323
 30
0.0
 10
1.517326771653544
 20
0.3424055118110236
 30
0.0
 10
1.520657480314961
 20
0.3458228346456693
 30
0.0
 10
1.523102362204724
 20
0.350240157480315
 30
0.0
 10
1.523102362204724
 20
0.350240157480315
 30
0.0
 10
1.525547244094488
 20
0.3546574803149606
 30
0.0
 10
1.526767716535433
 20
0.3595708661417323
 30
0.0
 10
1.526767716535433
 20
0.364988188976378
 30
0.0
 10
1.526767716535433
 20
0.364988188976378
 30
0.0
 10
1.526767716535433
 20
0.3707125984251969
 30
0.0
 10
1.525437007874016
 20
0.3757677165354331
 30
0.0
 10
1.522795275590551
 20
0.3802125984251969
 30
0.0
 10
1.522795275590551
 20
0.3802125984251969
 30
0.0
 10
1.520185039370079
 20
0.3846574803149607
 30
0.0
 10
1.516409448818898
 20
0.3881259842519685
 30
0.0
 10
1.511492125984252
 20
0.3905433070866142
 30
0.0
 10
1.511492125984252
 20
0.3905433070866142
 30
0.0
 10
1.506574803149607
 20
0.392988188976378
 30
0.0
 10
1.500602362204724
 20
0.3942125984251969
 30
0.0
 10
1.493547244094488
 20
0.3942125984251969
 30
0.0
 10
1.493547244094488
 20
0.3942125984251969
 30
0.0
 10
1.489267716535433
 20
0.3942125984251969
 30
0.0
 10
1.484657480314961
 20
0.3937677165354331
 30
0.0
 10
1.479767716535433
 20
0.3928228346456693
 30
0.0
 10
1.479767716535433
 20
0.3928228346456693
 30
0.0
 10
1.474854330708662
 20
0.3919055118110236
 30
0.0
 10
1.470629921259843
 20
0.390740157480315
 30
0.0
 10
1.467102362204725
 20
0.3893228346456693
 30
0.0
 10
1.467102362204725
 20
0.3893228346456693
 30
0.0
 10
1.467102362204725
 20
0.3893228346456693
 30
0.0
 10
1.46988188976378
 20
0.4443503937007874
 30
0.0
 10
1.46988188976378
 20
0.4443503937007874
 30
0.0
  0
SPLINE
  5
6A
330
1F
100
AcDbEntity
  8
LAYER_1
 62
   250
100
AcDbSpline
210
0.0
220
0.0
230
1.0
 70
    11
 71
     3
 72
    20
 73
    16
 74
     0
 42
0.0000000001
 43
0.0000000001
 40
0.0
 40
0.0
 40
0.0
 40
0.0
 40
0.25
 40
0.25
 40
0.25
 40
0.25
 40
0.5
 40
0.5
 40
0.5
 40
0.5
 40
0.75
 40
0.75
 40
0.75
 40
0.75
 40
1.0
 40
1.0
 40
1.0
 40
1.0
 10
1.632326771653544
 20
0.4502125984251968
 30
0.0
 10
1.632326771653544
 20
0.4502125984251968
 30
0.0
 10
1.576744094488189
 20
0.2945157480314961
 30
0.0
 10
1.576744094488189
 20
0.2945157480314961
 30
0.0
 10
1.576744094488189
 20
0.2945157480314961
 30
0.0
 10
1.576744094488189
 20
0.2945157480314961
 30
0.0
 10
1.564688976377953
 20
0.2945157480314961
 30
0.0
 10
1.564688976377953
 20
0.2945157480314961
 30
0.0
 10
1.564688976377953
 20
0.2945157480314961
 30
0.0
 10
1.564688976377953
 20
0.2945157480314961
 30
0.0
 10
1.619937007874016
 20
0.4502125984251968
 30
0.0
 10
1.619937007874016
 20
0.4502125984251968
 30
0.0
 10
1.619937007874016
 20
0.4502125984251968
 30
0.0
 10
1.619937007874016
 20
0.4502125984251968
 30
0.0
 10
1.632326771653544
 20
0.4502125984251968
 30
0.0
 10
1.632326771653544
 20
0.4502125984251968
 30
0.0
  0
SPLINE
  5
6B
330
1F
100
AcDbEntity
  8
LAYER_1
 62
   250
100
AcDbSpline
210
0.0
220
0.0
230
1.0
 70
    11
 71
     3
 72
    72
 73
    68
 74
     0
 42
0.0000000001
 43
0.0000000001
 40
0.0
 40
0.0
 40
0.0
 40
0.0
 40
0.0588235294117647
 40
0.0588235294117647
 40
0.0588235294117647
 40
0.0588235294117647
 40
0.1176470588235294
 40
0.1176470588235294
 40
0.1176470588235294
 40
0.1176470588235294
 40
0.1764705882352941
 40
0.1764705882352941
 40
0.1764705882352941
 40
0.1764705882352941
 40
0.2352941176470588
 40
0.2352941176470588
 40
0.2352941176470588
 40
0.2352941176470588
 40
0.2941176470588235
 40
0.2941176470588235
 40
0.2941176470588235
 40
0.2941176470588235
 40
0.3529411764705883
 40
0.3529411764705883
 40
0.3529411764705883
 40
0.3529411764705883
 40
0.411764705882353
 40
0.411764705882353
 40
0.411764705882353
 40
0.411764705882353
 40
0.4705882352941177
 40
0.4705882352941177
 40
0.4705882352941177
 40
0.4705882352941177
 40
0.5294117647058824
 40
0.5294117647058824
 40
0.5294117647058824
 40
0.5294117647058824
 40
0.5882352941176471
 40
0.5882352941176471
 40
0.5882352941176471
 40
0.5882352941176471
 40
0.6470588235294118
 40
0.6470588235294118
 40
0.6470588235294118
 40
0.6470588235294118
 40
0.7058823529411765
 40
0.7058823529411765
 40
0.7058823529411765
 40
0.7058823529411765
 40
0.7647058823529412
 40
0.7647058823529412
 40
0.7647058823529412
 40
0.7647058823529412
 40
0.823529411764706
 40
0.823529411764706
 40
0.823529411764706
 40
0.823529411764706
 40
0.8823529411764707
 40
0.8823529411764707
 40
0.8823529411764707
 40
0.8823529411764707
 40
0.9411764705882354
 40
0.9411764705882354
 40
0.9411764705882354
 40
0.9411764705882354
 40
1.0
 40
1.0
 40
1.0
 40
1.0
 10
1.70688188976378
 20
0.4443503937007874
 30
0.0
 10
1.70688188976378
 20
0.4443503937007874
 30
0.0
 10
1.712964566929134
 20
0.4443503937007874
 30
0.0
 10
1.712964566929134
 20
0.4443503937007874
 30
0.0
 10
1.712964566929134
 20
0.4443503937007874
 30
0.0
 10
1.712964566929134
 20
0.4443503937007874
 30
0.0
 10
1.712964566929134
 20
0.3501023622047244
 30
0.0
 10
1.712964566929134
 20
0.3501023622047244
 30
0.0
 10
1.712964566929134
 20
0.3501023622047244
 30
0.0
 10
1.712964566929134
 20
0.3456574803149606
 30
0.0
 10
1.713271653543307
 20
0.3427952755905512
 30
0.0
 10
1.713826771653543
 20
0.3415157480314961
 30
0.0
 10
1.713826771653543
 20
0.3415157480314961
 30
0.0
 10
1.714409448818898
 20
0.340240157480315
 30
0.0
 10
1.715326771653543
 20
0.3392952755905512
 30
0.0
 10
1.716629921259843
 20
0.3386299212598425
 30
0.0
 10
1.716629921259843
 20
0.3386299212598425
 30
0.0
 10
1.717937007874016
 20
0.337988188976378
 30
0.0
 10
1.72051968503937
 20
0.3376574803149606
 30
0.0
 10
1.72438188976378
 20
0.3376574803149606
 30
0.0
 10
1.72438188976378
 20
0.3376574803149606
 30
0.0
 10
1.72438188976378
 20
0.3376574803149606
 30
0.0
 10
1.732354330708662
 20
0.3376574803149606
 30
0.0
 10
1.732354330708662
 20
0.3376574803149606
 30
0.0
 10
1.732354330708662
 20
0.3376574803149606
 30
0.0
 10
1.732354330708662
 20
0.3376574803149606
 30
0.0
 10
1.732354330708662
 20
0.3308228346456693
 30
0.0
 10
1.732354330708662
 20
0.3308228346456693
 30
0.0
 10
1.732354330708662
 20
0.3308228346456693
 30
0.0
 10
1.732354330708662
 20
0.3308228346456693
 30
0.0
 10
1.678716535433071
 20
0.3308228346456693
 30
0.0
 10
1.678716535433071
 20
0.3308228346456693
 30
0.0
 10
1.678716535433071
 20
0.3308228346456693
 30
0.0
 10
1.678716535433071
 20
0.3308228346456693
 30
0.0
 10
1.678716535433071
 20
0.3376574803149606
 30
0.0
 10
1.678716535433071
 20
0.3376574803149606
 30
0.0
 10
1.678716535433071
 20
0.3376574803149606
 30
0.0
 10
1.678716535433071
 20
0.3376574803149606
 30
0.0
 10
1.687574803149606
 20
0.3376574803149606
 30
0.0
 10
1.687574803149606
 20
0.3376574803149606
 30
0.0
 10
1.687574803149606
 20
0.3376574803149606
 30
0.0
 10
1.691437007874016
 20
0.3376574803149606
 30
0.0
 10
1.693992125984252
 20
0.337988188976378
 30
0.0
 10
1.695271653543307
 20
0.3386850393700788
 30
0.0
 10
1.695271653543307
 20
0.3386850393700788
 30
0.0
 10
1.696547244094488
 20
0.3393503937007874
 30
0.0
 10
1.697547244094488
 20
0.3404330708661417
 30
0.0
 10
1.698244094488189
 20
0.3419330708661417
 30
0.0
 10
1.698244094488189
 20
0.3419330708661417
 30
0.0
 10
1.698937007874016
 20
0.3434330708661417
 30
0.0
 10
1.699299212598425
 20
0.3461574803149606
 30
0.0
 10
1.699299212598425
 20
0.3501023622047244
 30
0.0
 10
1.699299212598425
 20
0.3501023622047244
 30
0.0
 10
1.699299212598425
 20
0.3501023622047244
 30
0.0
 10
1.699299212598425
 20
0.4275708661417323
 30
0.0
 10
1.699299212598425
 20
0.4275708661417323
 30
0.0
 10
1.699299212598425
 20
0.4275708661417323
 30
0.0
 10
1.699299212598425
 20
0.4275708661417323
 30
0.0
 10
1.678716535433071
 20
0.4275708661417323
 30
0.0
 10
1.678716535433071
 20
0.4275708661417323
 30
0.0
 10
1.678716535433071
 20
0.4275708661417323
 30
0.0
 10
1.678716535433071
 20
0.4275708661417323
 30
0.0
 10
1.678716535433071
 20
0.4345708661417323
 30
0.0
 10
1.678716535433071
 20
0.4345708661417323
 30
0.0
 10
1.678716535433071
 20
0.4345708661417323
 30
0.0
 10
1.689937007874016
 20
0.4361535433070866
 30
0.0
 10
1.699326771653543
 20
0.4394055118110237
 30
0.0
 10
1.70688188976378
 20
0.4443503937007874
 30
0.0
  0
SPLINE
  5
6C
330
1F
100
AcDbEntity
  8
LAYER_1
 62
   250
100
AcDbSpline
210
0.0
220
0.0
230
1.0
 70
    11
 71
     3
 72
    84
 73
    80
 74
     0
 42
0.0000000001
 43
0.0000000001
 40
0.0
 40
0.0
 40
0.0
 40
0.0
 40
0.05
 40
0.05
 40
0.05
 40
0.05
 40
0.1
 40
0.1
 40
0.1
 40
0.1
 40
0.15
 40
0.15
 40
0.15
 40
0.15
 40
0.2
 40
0.2
 40
0.2
 40
0.2
 40
0.25
 40
0.25
 40
0.25
 40
0.25
 40
0.3
 40
0.3
 40
0.3
 40
0.3
 40
0.35
 40
0.35
 40
0.35
 40
0.35
 40
0.4
 40
0.4
 40
0.4
 40
0.4
 40
0.45
 40
0.45
 40
0.45
 40
0.45
 40
0.4999999999999999
 40
0.4999999999999999
 40
0.4999999999999999
 40
0.4999999999999999
 40
0.5499999999999999
 40
0.5499999999999999
 40
0.5499999999999999
 40
0.5499999999999999
 40
0.6
 40
0.6
 40
0.6
 40
0.6
 40
0.65
 40
0.65
 40
0.65
 40
0.65
 40
0.7000000000000001
 40
0.7000000000000001
 40
0.7000000000000001
 40
0.7000000000000001
 40
0.7500000000000001
 40
0.7500000000000001
 40
0.7500000000000001
 40
0.7500000000000001
 40
0.8000000000000002
 40
0.8000000000000002
 40
0.8000000000000002
 40
0.8000000000000002
 40
0.8500000000000002
 40
0.8500000000000002
 40
0.8500000000000002
 40
0.8500000000000002
 40
0.9000000000000002
 40
0.9000000000000002
 40
0.9000000000000002
 40
0.9000000000000002
 40
0.9500000000000003
 40
0.9500000000000003
 40
0.9500000000000003
 40
0.9500000000000003
 40
1.0
 40
1.0
 40
1.0
 40
1.0
 10
1.838547244094488
 20
0.4464606299212598
 30
0.0
 10
1.838547244094488
 20
0.4464606299212598
 30
0.0
 10
1.838547244094488
 20
0.4390433070866142
 30
0.0
 10
1.838547244094488
 20
0.4390433070866142
 30
0.0
 10
1.838547244094488
 20
0.4390433070866142
 30
0.0
 10
1.825161417322835
 20
0.4389055118110237
 30
0.0
 10
1.814326771653543
 20
0.4369330708661418
 30
0.0
 10
1.806051181102362
 20
0.4332125984251969
 30
0.0
 10
1.806051181102362
 20
0.4332125984251969
 30
0.0
 10
1.797771653543307
 20
0.4294606299212599
 30
0.0
 10
1.791688976377953
 20
0.4238503937007874
 30
0.0
 10
1.787771653543307
 20
0.4164055118110236
 30
0.0
 10
1.787771653543307
 20
0.4164055118110236
 30
0.0
 10
1.783854330708661
 20
0.4089330708661417
 30
0.0
 10
1.781661417322835
 20
0.399740157480315
 30
0.0
 10
1.781188976377953
 20
0.3888503937007874
 30
0.0
 10
1.781188976377953
 20
0.3888503937007874
 30
0.0
 10
1.783937007874016
 20
0.3930708661417323
 30
0.0
 10
1.786771653543307
 20
0.3963779527559055
 30
0.0
 10
1.789688976377953
 20
0.398740157480315
 30
0.0
 10
1.789688976377953
 20
0.398740157480315
 30
0.0
 10
1.79257874015748
 20
0.4010984251968504
 30
0.0
 10
1.795964566929134
 20
0.4029055118110236
 30
0.0
 10
1.799854330708661
 20
0.4041850393700788
 30
0.0
 10
1.799854330708661
 20
0.4041850393700788
 30
0.0
 10
1.803744094488189
 20
0.4054606299212599
 30
0.0
 10
1.807992125984252
 20
0.4060984251968504
 30
0.0
 10
1.812606299212598
 20
0.4060984251968504
 30
0.0
 10
1.812606299212598
 20
0.4060984251968504
 30
0.0
 10
1.819964566929134
 20
0.4060984251968504
 30
0.0
 10
1.826547244094488
 20
0.4044606299212599
 30
0.0
 10
1.832299212598425
 20
0.4012125984251969
 30
0.0
 10
1.832299212598425
 20
0.4012125984251969
 30
0.0
 10
1.838047244094488
 20
0.3979606299212599
 30
0.0
 10
1.84251968503937
 20
0.3935433070866142
 30
0.0
 10
1.845716535433071
 20
0.387988188976378
 30
0.0
 10
1.845716535433071
 20
0.387988188976378
 30
0.0
 10
1.848909448818898
 20
0.3824330708661418
 30
0.0
 10
1.85051968503937
 20
0.3758779527559055
 30
0.0
 10
1.85051968503937
 20
0.3683503937007874
 30
0.0
 10
1.85051968503937
 20
0.3683503937007874
 30
0.0
 10
1.85051968503937
 20
0.3563503937007874
 30
0.0
 10
1.846909448818898
 20
0.3469330708661417
 30
0.0
 10
1.839688976377953
 20
0.3401023622047244
 30
0.0
 10
1.839688976377953
 20
0.3401023622047244
 30
0.0
 10
1.831716535433071
 20
0.3326023622047244
 30
0.0
 10
1.82138188976378
 20
0.3288779527559055
 30
0.0
 10
1.808688976377953
 20
0.3288779527559055
 30
0.0
 10
1.808688976377953
 20
0.3288779527559055
 30
0.0
 10
1.79951968503937
 20
0.3288779527559055
 30
0.0
 10
1.791799212598425
 20
0.3307677165354331
 30
0.0
 10
1.785492125984252
 20
0.3345708661417323
 30
0.0
 10
1.785492125984252
 20
0.3345708661417323
 30
0.0
 10
1.779188976377953
 20
0.3383503937007874
 30
0.0
 10
1.774188976377953
 20
0.3441574803149606
 30
0.0
 10
1.770464566929134
 20
0.351988188976378
 30
0.0
 10
1.770464566929134
 20
0.351988188976378
 30
0.0
 10
1.766771653543307
 20
0.3597952755905512
 30
0.0
 10
1.764909448818898
 20
0.3694606299212598
 30
0.0
 10
1.764909448818898
 20
0.3809606299212598
 30
0.0
 10
1.764909448818898
 20
0.3809606299212598
 30
0.0
 10
1.764909448818898
 20
0.3925157480314961
 30
0.0
 10
1.76688188976378
 20
0.4027677165354331
 30
0.0
 10
1.770799212598425
 20
0.4117125984251969
 30
0.0
 10
1.770799212598425
 20
0.4117125984251969
 30
0.0
 10
1.774744094488189
 20
0.4206535433070867
 30
0.0
 10
1.780188976377953
 20
0.4278503937007874
 30
0.0
 10
1.787133858267717
 20
0.4332677165354331
 30
0.0
 10
1.787133858267717
 20
0.4332677165354331
 30
0.0
 10
1.794078740157481
 20
0.4387125984251969
 30
0.0
 10
1.801688976377953
 20
0.4422677165354331
 30
0.0
 10
1.809937007874016
 20
0.4439330708661418
 30
0.0
 10
1.809937007874016
 20
0.4439330708661418
 30
0.0
 10
1.818216535433071
 20
0.4456259842519685
 30
0.0
 10
1.825633858267717
 20
0.4464606299212598
 30
0.0
 10
1.832216535433071
 20
0.4464606299212598
 30
0.0
 10
1.832216535433071
 20
0.4464606299212598
 30
0.0
 10
1.832216535433071
 20
0.4464606299212598
 30
0.0
 10
1.838547244094488
 20
0.4464606299212598
 30
0.0
 10
1.838547244094488
 20
0.4464606299212598
 30
0.0
  0
SPLINE
  5
6D
330
1F
100
AcDbEntity
  8
LAYER_1
 62
   250
100
AcDbSpline
210
0.0
220
0.0
230
1.0
 70
    11
 71
     3
 72
    40
 73
    36
 74
     0
 42
0.0000000001
 43
0.0000000001
 40
0.0
 40
0.0
 40
0.0
 40
0.0
 40
0.1111111111111111
 40
0.1111111111111111
 40
0.1111111111111111
 40
0.1111111111111111
 40
0.2222222222222222
 40
0.2222222222222222
 40
0.2222222222222222
 40
0.2222222222222222
 40
0.3333333333333333
 40
0.3333333333333333
 40
0.3333333333333333
 40
0.3333333333333333
 40
0.4444444444444444
 40
0.4444444444444444
 40
0.4444444444444444
 40
0.4444444444444444
 40
0.5555555555555556
 40
0.5555555555555556
 40
0.5555555555555556
 40
0.5555555555555556
 40
0.6666666666666667
 40
0.6666666666666667
 40
0.6666666666666667
 40
0.6666666666666667
 40
0.7777777777777779
 40
0.7777777777777779
 40
0.7777777777777779
 40
0.7777777777777779
 40
0.8888888888888891
 40
0.8888888888888891
 40
0.8888888888888891
 40
0.8888888888888891
 40
1.0
 40
1.0
 40
1.0
 40
1.0
 10
1.808854330708662
 20
0.3974606299212599
 30
0.0
 10
1.801051181102362
 20
0.3974606299212599
 30
0.0
 10
1.794633858267717
 20
0.3945157480314961
 30
0.0
 10
1.789606299212599
 20
0.3885984251968504
 30
0.0
 10
1.789606299212599
 20
0.3885984251968504
 30
0.0
 10
1.78457874015748
 20
0.3826850393700788
 30
0.0
 10
1.782078740157481
 20
0.3755708661417323
 30
0.0
 10
1.782078740157481
 20
0.3672952755905512
 30
0.0
 10
1.782078740157481
 20
0.3672952755905512
 30
0.0
 10
1.782078740157481
 20
0.3614330708661417
 30
0.0
 10
1.783299212598425
 20
0.3560157480314961
 30
0.0
 10
1.785744094488189
 20
0.3510433070866142
 30
0.0
 10
1.785744094488189
 20
0.3510433070866142
 30
0.0
 10
1.788188976377953
 20
0.3460708661417323
 30
0.0
 10
1.791326771653544
 20
0.3424055118110236
 30
0.0
 10
1.795188976377953
 20
0.339988188976378
 30
0.0
 10
1.795188976377953
 20
0.339988188976378
 30
0.0
 10
1.79901968503937
 20
0.3375708661417323
 30
0.0
 10
1.80338188976378
 20
0.3363503937007874
 30
0.0
 10
1.808188976377953
 20
0.3363503937007874
 30
0.0
 10
1.808188976377953
 20
0.3363503937007874
 30
0.0
 10
1.815688976377953
 20
0.3363503937007874
 30
0.0
 10
1.821909448818898
 20
0.3391850393700788
 30
0.0
 10
1.82688188976378
 20
0.3448503937007874
 30
0.0
 10
1.82688188976378
 20
0.3448503937007874
 30
0.0
 10
1.831826771653544
 20
0.3505157480314961
 30
0.0
 10
1.834326771653543
 20
0.3581299212598426
 30
0.0
 10
1.834326771653543
 20
0.3676850393700787
 30
0.0
 10
1.834326771653543
 20
0.3676850393700787
 30
0.0
 10
1.834326771653543
 20
0.3767952755905512
 30
0.0
 10
1.831909448818898
 20
0.3840433070866142
 30
0.0
 10
1.82707874015748
 20
0.3894055118110236
 30
0.0
 10
1.82707874015748
 20
0.3894055118110236
 30
0.0
 10
1.822244094488189
 20
0.3947952755905512
 30
0.0
 10
1.816161417322835
 20
0.3974606299212599
 30
0.0
 10
1.808854330708662
 20
0.3974606299212599
 30
0.0
  0
SPLINE
  5
6E
330
1F
100
AcDbEntity
  8
LAYER_1
 62
   250
100
AcDbSpline
210
0.0
220
0.0
230
1.0
 70
    11
 71
     3
 72
    60
 73
    56
 74
     0
 42
0.0000000001
 43
0.0000000001
 40
0.0
 40
0.0
 40
0.0
 40
0.0
 40
0.0714285714285714
 40
0.0714285714285714
 40
0.0714285714285714
 40
0.0714285714285714
 40
0.1428571428571429
 40
0.1428571428571429
 40
0.1428571428571429
 40
0.1428571428571429
 40
0.2142857142857143
 40
0.2142857142857143
 40
0.2142857142857143
 40
0.2142857142857143
 40
0.2857142857142857
 40
0.2857142857142857
 40
0.2857142857142857
 40
0.2857142857142857
 40
0.3571428571428571
 40
0.3571428571428571
 40
0.3571428571428571
 40
0.3571428571428571
 40
0.4285714285714285
 40
0.4285714285714285
 40
0.4285714285714285
 40
0.4285714285714285
 40
0.4999999999999999
 40
0.4999999999999999
 40
0.4999999999999999
 40
0.4999999999999999
 40
0.5714285714285713
 40
0.5714285714285713
 40
0.5714285714285713
 40
0.5714285714285713
 40
0.6428571428571427
 40
0.6428571428571427
 40
0.6428571428571427
 40
0.6428571428571427
 40
0.7142857142857141
 40
0.7142857142857141
 40
0.7142857142857141
 40
0.7142857142857141
 40
0.7857142857142855
 40
0.7857142857142855
 40
0.7857142857142855
 40
0.7857142857142855
 40
0.8571428571428569
 40
0.8571428571428569
 40
0.8571428571428569
 40
0.8571428571428569
 40
0.9285714285714283
 40
0.9285714285714283
 40
0.9285714285714283
 40
0.9285714285714283
 40
1.0
 40
1.0
 40
1.0
 40
1.0
 10
1.867688976377953
 20
0.4022677165354331
 30
0.0
 10
1.867688976377953
 20
0.4022677165354331
 30
0.0
 10
1.863299212598425
 20
0.4076574803149606
 30
0.0
 10
1.863299212598425
 20
0.4076574803149606
 30
0.0
 10
1.863299212598425
 20
0.4076574803149606
 30
0.0
 10
1.874413385826772
 20
0.4167125984251969
 30
0.0
 10
1.879996062992126
 20
0.4242677165354331
 30
0.0
 10
1.879996062992126
 20
0.4303503937007874
 30
0.0
 10
1.879996062992126
 20
0.4303503937007874
 30
0.0
 10
1.879996062992126
 20
0.4310433070866142
 30
0.0
 10
1.87994094488189
 20
0.4319330708661417
 30
0.0
 10
1.879826771653543
 20
0.4329606299212598
 30
0.0
 10
1.879826771653543
 20
0.4329606299212598
 30
0.0
 10
1.878913385826772
 20
0.4325708661417323
 30
0.0
 10
1.877996062992126
 20
0.4322677165354331
 30
0.0
 10
1.877133858267717
 20
0.4320708661417323
 30
0.0
 10
1.877133858267717
 20
0.4320708661417323
 30
0.0
 10
1.876271653543307
 20
0.4318503937007874
 30
0.0
 10
1.875468503937008
 20
0.431740157480315
 30
0.0
 10
1.874688976377953
 20
0.431740157480315
 30
0.0
 10
1.874688976377953
 20
0.431740157480315
 30
0.0
 10
1.87207874015748
 20
0.431740157480315
 30
0.0
 10
1.869996062992126
 20
0.4325708661417323
 30
0.0
 10
1.86844094488189
 20
0.4342677165354331
 30
0.0
 10
1.86844094488189
 20
0.4342677165354331
 30
0.0
 10
1.866854330708662
 20
0.4359330708661418
 30
0.0
 10
1.86607874015748
 20
0.4380708661417323
 30
0.0
 10
1.86607874015748
 20
0.4406850393700788
 30
0.0
 10
1.86607874015748
 20
0.4406850393700788
 30
0.0
 10
1.86607874015748
 20
0.443240157480315
 30
0.0
 10
1.867023622047244
 20
0.4454606299212598
 30
0.0
 10
1.868913385826772
 20
0.4473503937007874
 30
0.0
 10
1.868913385826772
 20
0.4473503937007874
 30
0.0
 10
1.870826771653543
 20
0.4492677165354331
 30
0.0
 10
1.873106299212598
 20
0.4502125984251968
 30
0.0
 10
1.875744094488189
 20
0.4502125984251968
 30
0.0
 10
1.875744094488189
 20
0.4502125984251968
 30
0.0
 10
1.87944094488189
 20
0.4502125984251968
 30
0.0
 10
1.882606299212599
 20
0.448740157480315
 30
0.0
 10
1.885244094488189
 20
0.4457677165354331
 30
0.0
 10
1.885244094488189
 20
0.4457677165354331
 30
0.0
 10
1.887854330708662
 20
0.4428228346456693
 30
0.0
 10
1.889188976377953
 20
0.4390157480314961
 30
0.0
 10
1.889188976377953
 20
0.4343503937007874
 30
0.0
 10
1.889188976377953
 20
0.4343503937007874
 30
0.0
 10
1.889188976377953
 20
0.4312952755905512
 30
0.0
 10
1.888551181102362
 20
0.4280984251968504
 30
0.0
 10
1.887299212598425
 20
0.4247677165354331
 30
0.0
 10
1.887299212598425
 20
0.4247677165354331
 30
0.0
 10
1.886051181102362
 20
0.4214330708661417
 30
0.0
 10
1.884244094488189
 20
0.4183503937007874
 30
0.0
 10
1.881854330708662
 20
0.415488188976378
 30
0.0
 10
1.881854330708662
 20
0.415488188976378
 30
0.0
 10
1.879468503937008
 20
0.4126574803149606
 30
0.0
 10
1.874744094488189
 20
0.408240157480315
 30
0.0
 10
1.867688976377953
 20
0.4022677165354331
 30
0.0
  0
SPLINE
  5
6F
330
1F
100
AcDbEntity
  8
LAYER_1
 62
   250
100
AcDbSpline
210
0.0
220
0.0
230
1.0
 70
    11
 71
     3
 72
    60
 73
    56
 74
     0
 42
0.0000000001
 43
0.0000000001
 40
0.0
 40
0.0
 40
0.0
 40
0.0
 40
0.0714285714285714
 40
0.0714285714285714
 40
0.0714285714285714
 40
0.0714285714285714
 40
0.1428571428571429
 40
0.1428571428571429
 40
0.1428571428571429
 40
0.1428571428571429
 40
0.2142857142857143
 40
0.2142857142857143
 40
0.2142857142857143
 40
0.2142857142857143
 40
0.2857142857142857
 40
0.2857142857142857
 40
0.2857142857142857
 40
0.2857142857142857
 40
0.3571428571428571
 40
0.3571428571428571
 40
0.3571428571428571
 40
0.3571428571428571
 40
0.4285714285714285
 40
0.4285714285714285
 40
0.4285714285714285
 40
0.4285714285714285
 40
0.4999999999999999
 40
0.4999999999999999
 40
0.4999999999999999
 40
0.4999999999999999
 40
0.5714285714285713
 40
0.5714285714285713
 40
0.5714285714285713
 40
0.5714285714285713
 40
0.6428571428571427
 40
0.6428571428571427
 40
0.6428571428571427
 40
0.6428571428571427
 40
0.7142857142857141
 40
0.7142857142857141
 40
0.7142857142857141
 40
0.7142857142857141
 40
0.7857142857142855
 40
0.7857142857142855
 40
0.7857142857142855
 40
0.7857142857142855
 40
0.8571428571428569
 40
0.8571428571428569
 40
0.8571428571428569
 40
0.8571428571428569
 40
0.9285714285714283
 40
0.9285714285714283
 40
0.9285714285714283
 40
0.9285714285714283
 40
1.0
 40
1.0
 40
1.0
 40
1.0
 10
1.896744094488189
 20
0.4022677165354331
 30
0.0
 10
1.896744094488189
 20
0.4022677165354331
 30
0.0
 10
1.892354330708661
 20
0.4076574803149606
 30
0.0
 10
1.892354330708661
 20
0.4076574803149606
 30
0.0
 10
1.892354330708661
 20
0.4076574803149606
 30
0.0
 10
1.903468503937008
 20
0.4167125984251969
 30
0.0
 10
1.909051181102362
 20
0.4242677165354331
 30
0.0
 10
1.909051181102362
 20
0.4303503937007874
 30
0.0
 10
1.909051181102362
 20
0.4303503937007874
 30
0.0
 10
1.909051181102362
 20
0.4310433070866142
 30
0.0
 10
1.908996062992126
 20
0.4319330708661417
 30
0.0
 10
1.90888188976378
 20
0.4329606299212598
 30
0.0
 10
1.90888188976378
 20
0.4329606299212598
 30
0.0
 10
1.907968503937008
 20
0.4325708661417323
 30
0.0
 10
1.907051181102362
 20
0.4322677165354331
 30
0.0
 10
1.906188976377953
 20
0.4320708661417323
 30
0.0
 10
1.906188976377953
 20
0.4320708661417323
 30
0.0
 10
1.905326771653543
 20
0.4318503937007874
 30
0.0
 10
1.904496062992126
 20
0.431740157480315
 30
0.0
 10
1.903661417322835
 20
0.431740157480315
 30
0.0
 10
1.903661417322835
 20
0.431740157480315
 30
0.0
 10
1.901106299212598
 20
0.431740157480315
 30
0.0
 10
1.899051181102362
 20
0.4325708661417323
 30
0.0
 10
1.897496062992126
 20
0.4342677165354331
 30
0.0
 10
1.897496062992126
 20
0.4342677165354331
 30
0.0
 10
1.895913385826772
 20
0.4359330708661418
 30
0.0
 10
1.895133858267717
 20
0.4380708661417323
 30
0.0
 10
1.895133858267717
 20
0.4406850393700788
 30
0.0
 10
1.895133858267717
 20
0.4406850393700788
 30
0.0
 10
1.895133858267717
 20
0.443240157480315
 30
0.0
 10
1.89607874015748
 20
0.4454606299212598
 30
0.0
 10
1.897968503937008
 20
0.4473503937007874
 30
0.0
 10
1.897968503937008
 20
0.4473503937007874
 30
0.0
 10
1.899854330708662
 20
0.4492677165354331
 30
0.0
 10
1.902161417322835
 20
0.4502125984251968
 30
0.0
 10
1.904799212598425
 20
0.4502125984251968
 30
0.0
 10
1.904799212598425
 20
0.4502125984251968
 30
0.0
 10
1.908496062992126
 20
0.4502125984251968
 30
0.0
 10
1.911661417322835
 20
0.448740157480315
 30
0.0
 10
1.914299212598425
 20
0.4457677165354331
 30
0.0
 10
1.914299212598425
 20
0.4457677165354331
 30
0.0
 10
1.916909448818898
 20
0.4428228346456693
 30
0.0
 10
1.918244094488189
 20
0.4390157480314961
 30
0.0
 10
1.918244094488189
 20
0.4343503937007874
 30
0.0
 10
1.918244094488189
 20
0.4343503937007874
 30
0.0
 10
1.918244094488189
 20
0.4312952755905512
 30
0.0
 10
1.917606299212598
 20
0.4280984251968504
 30
0.0
 10
1.916354330708662
 20
0.4247677165354331
 30
0.0
 10
1.916354330708662
 20
0.4247677165354331
 30
0.0
 10
1.915106299212599
 20
0.4214330708661417
 30
0.0
 10
1.913299212598425
 20
0.4183503937007874
 30
0.0
 10
1.910913385826772
 20
0.415488188976378
 30
0.0
 10
1.910913385826772
 20
0.415488188976378
 30
0.0
 10
1.908523622047244
 20
0.4126574803149606
 30
0.0
 10
1.903799212598425
 20
0.408240157480315
 30
0.0
 10
1.896744094488189
 20
0.4022677165354331
 30
0.0
  0
ENDSEC
  0
SECTION
  2
OBJECTS
  0
DICTIONARY
  5
C
330
0
100
AcDbDictionary
  3
ACAD_GROUP
350
D
  3
ACAD_LAYOUT
350
1A
  3
ACAD_MLINESTYLE
350
17
  3
ACAD_PLOTSETTINGS
350
19
  3
ACDBHEADERROUNDTRIPXREC
350
70
  0
DICTIONARY
  5
90
330
29
100
AcDbDictionary
280
     1
  3
ACAD_XREC_ROUNDTRIP
360
91
  0
DICTIONARY
  5
D
102
{ACAD_REACTORS
330
C
102
}
330
C
100
AcDbDictionary
  0
DICTIONARY
  5
1A
102
{ACAD_REACTORS
330
C
102
}
330
C
100
AcDbDictionary
  0
DICTIONARY
  5
17
102
{ACAD_REACTORS
330
C
102
}
330
C
100
AcDbDictionary
  3
STANDARD
350
18
  0
DICTIONARY
  5
19
102
{ACAD_REACTORS
330
C
102
}
330
C
100
AcDbDictionary
  0
DICTIONARY
  5
70
102
{ACAD_REACTORS
330
C
102
}
330
C
100
AcDbDictionary
  3
CEPSNTYPE
350
79
  3
DIMSTYLEDATA
350
8F
  3
FINGERPRINTGUID
350
7A
  3
HYPERLINKBASE
350
73
  3
INSUNITS
350
78
  3
LAYOUTDICT
350
75
  3
LWETCUNION
350
77
  3
PLOTSETDICT
350
76
  3
PSVPSCALE
350
7C
  3
PUCSBASE
350
7F
  3
PUCSORGBACK
350
85
  3
PUCSORGBOTTOM
350
81
  3
PUCSORGFRONT
350
84
  3
PUCSORGLEFT
350
82
  3
PUCSORGRIGHT
350
83
  3
PUCSORGTOP
350
80
  3
PUCSORTHOREF
350
7D
  3
PUCSORTHOVIEW
350
7E
  3
STYLESHEET
350
74
  3
TSTACKALIGN
350
71
  3
TSTACKSIZE
350
72
  3
UCSBASE
350
88
  3
UCSORGBACK
350
8E
  3
UCSORGBOTTOM
350
8A
  3
UCSORGFRONT
350
8D
  3
UCSORGLEFT
350
8B
  3
UCSORGRIGHT
350
8C
  3
UCSORGTOP
350
89
  3
UCSORTHOREF
350
86
  3
UCSORTHOVIEW
350
87
  3
VERSIONGUID
350
7B
  0
XRECORD
  5
91
102
{ACAD_REACTORS
330
90
102
}
330
90
100
AcDbXrecord
102
UCS
 74
     0
 71
     1
 10
0.0
 20
0.0
 30
0.0
 10
1.0
 20
0.0
 30
0.0
 10
0.0
 20
1.0
 30
0.0
146
0.0
 79
     0
102
VIEW
281
     0
  0
MLINESTYLE
  5
18
102
{ACAD_REACTORS
330
17
102
}
330
17
100
AcDbMlineStyle
  2
Standard
 70
     0
  3

 62
   256
 51
90.0
 52
90.0
 71
     2
 49
0.5
 62
   256
  6
BYLAYER
 49
-0.5
 62
   256
  6
BYLAYER
  0
XRECORD
  5
79
102
{ACAD_REACTORS
330
70
102
}
330
70
100
AcDbXrecord
 90
        0
  0
XRECORD
  5
8F
102
{ACAD_REACTORS
330
70
102
}
330
70
100
AcDbXrecord
1000
DSTYLE
1002
{
1070
   340
340
11
1002
}
  0
XRECORD
  5
7A
102
{ACAD_REACTORS
330
70
102
}
330
70
100
AcDbXrecord
  1
{FAEB1C30-E019-11D5-929B-00C0DF256EC4}
  0
XRECORD
  5
73
102
{ACAD_REACTORS
330
70
102
}
330
70
100
AcDbXrecord
  1

  0
XRECORD
  5
78
102
{ACAD_REACTORS
330
70
102
}
330
70
100
AcDbXrecord
 90
        1
  0
XRECORD
  5
75
102
{ACAD_REACTORS
330
70
102
}
330
70
100
AcDbXrecord
340
1A
  0
XRECORD
  5
77
102
{ACAD_REACTORS
330
70
102
}
330
70
100
AcDbXrecord
 90
     2560
  0
XRECORD
  5
76
102
{ACAD_REACTORS
330
70
102
}
330
70
100
AcDbXrecord
340
19
  0
XRECORD
  5
7C
102
{ACAD_REACTORS
330
70
102
}
330
70
100
AcDbXrecord
 40
0.0
  0
XRECORD
  5
7F
102
{ACAD_REACTORS
330
70
102
}
330
70
100
AcDbXrecord
340
0
  0
XRECORD
  5
85
102
{ACAD_REACTORS
330
70
102
}
330
70
100
AcDbXrecord
 10
0.0
 20
0.0
 30
0.0
  0
XRECORD
  5
81
102
{ACAD_REACTORS
330
70
102
}
330
70
100
AcDbXrecord
 10
0.0
 20
0.0
 30
0.0
  0
XRECORD
  5
84
102
{ACAD_REACTORS
330
70
102
}
330
70
100
AcDbXrecord
 10
0.0
 20
0.0
 30
0.0
  0
XRECORD
  5
82
102
{ACAD_REACTORS
330
70
102
}
330
70
100
AcDbXrecord
 10
0.0
 20
0.0
 30
0.0
  0
XRECORD
  5
83
102
{ACAD_REACTORS
330
70
102
}
330
70
100
AcDbXrecord
 10
0.0
 20
0.0
 30
0.0
  0
XRECORD
  5
80
102
{ACAD_REACTORS
330
70
102
}
330
70
100
AcDbXrecord
 10
0.0
 20
0.0
 30
0.0
  0
XRECORD
  5
7D
102
{ACAD_REACTORS
330
70
102
}
330
70
100
AcDbXrecord
340
0
  0
XRECORD
  5
7E
102
{ACAD_REACTORS
330
70
102
}
330
70
100
AcDbXrecord
 70
     0
  0
XRECORD
  5
74
102
{ACAD_REACTORS
330
70
102
}
330
70
100
AcDbXrecord
  1

  0
XRECORD
  5
71
102
{ACAD_REACTORS
330
70
102
}
330
70
100
AcDbXrecord
 90
        1
  0
XRECORD
  5
72
102
{ACAD_REACTORS
330
70
102
}
330
70
100
AcDbXrecord
 90
       70
  0
XRECORD
  5
88
102
{ACAD_REACTORS
330
70
102
}
330
70
100
AcDbXrecord
340
0
  0
XRECORD
  5
8E
102
{ACAD_REACTORS
330
70
102
}
330
70
100
AcDbXrecord
 10
0.0
 20
0.0
 30
0.0
  0
XRECORD
  5
8A
102
{ACAD_REACTORS
330
70
102
}
330
70
100
AcDbXrecord
 10
0.0
 20
0.0
 30
0.0
  0
XRECORD
  5
8D
102
{ACAD_REACTORS
330
70
102
}
330
70
100
AcDbXrecord
 10
0.0
 20
0.0
 30
0.0
  0
XRECORD
  5
8B
102
{ACAD_REACTORS
330
70
102
}
330
70
100
AcDbXrecord
 10
0.0
 20
0.0
 30
0.0
  0
XRECORD
  5
8C
102
{ACAD_REACTORS
330
70
102
}
330
70
100
AcDbXrecord
 10
0.0
 20
0.0
 30
0.0
  0
XRECORD
  5
89
102
{ACAD_REACTORS
330
70
102
}
330
70
100
AcDbXrecord
 10
0.0
 20
0.0
 30
0.0
  0
XRECORD
  5
86
102
{ACAD_REACTORS
330
70
102
}
330
70
100
AcDbXrecord
340
0
  0
XRECORD
  5
87
102
{ACAD_REACTORS
330
70
102
}
330
70
100
AcDbXrecord
 70
     0
  0
XRECORD
  5
7B
102
{ACAD_REACTORS
330
70
102
}
330
70
100
AcDbXrecord
  1
{FAEB1C32-E019-11D5-929B-00C0DF256EC4}
  0
ENDSEC
  0
EOF
