  0
SECTION
  2
HEADER
  9
$ACADVER
  1
AC1014
  9
$ACADMAINTVER
 70
     9
  9
$DWGCODEPAGE
  3
ANSI_1252
  9
$INSBASE
 10
0.0
 20
0.0
 30
0.0
  9
$EXTMIN
 10
-0.9691614173228347
 20
2.225496062992126
 30
0.0
  9
$EXTMAX
 10
1.303342519685039
 20
3.894566929133858
 30
0.0
  9
$LIMMIN
 10
0.0
 20
0.0
  9
$LIMMAX
 10
12.0
 20
9.0
  9
$ORTHOMODE
 70
     0
  9
$REGENMODE
 70
     1
  9
$FILLMODE
 70
     1
  9
$QTEXTMODE
 70
     0
  9
$MIRRTEXT
 70
     1
  9
$DRAGMODE
 70
     2
  9
$LTSCALE
 40
1.0
  9
$OSMODE
 70
    37
  9
$ATTMODE
 70
     1
  9
$TEXTSIZE
 40
0.2
  9
$TRACEWID
 40
0.05
  9
$TEXTSTYLE
  7
STANDARD
  9
$CLAYER
  8
0
  9
$CELTYPE
  6
BYLAYER
  9
$CECOLOR
 62
   256
  9
$CELTSCALE
 40
1.0
  9
$DELOBJ
 70
     1
  9
$DISPSILH
 70
     0
  9
$DIMSCALE
 40
1.0
  9
$DIMASZ
 40
0.18
  9
$DIMEXO
 40
0.0625
  9
$DIMDLI
 40
0.38
  9
$DIMRND
 40
0.0
  9
$DIMDLE
 40
0.0
  9
$DIMEXE
 40
0.18
  9
$DIMTP
 40
0.0
  9
$DIMTM
 40
0.0
  9
$DIMTXT
 40
0.18
  9
$DIMCEN
 40
0.09
  9
$DIMTSZ
 40
0.0
  9
$DIMTOL
 70
     0
  9
$DIMLIM
 70
     0
  9
$DIMTIH
 70
     1
  9
$DIMTOH
 70
     1
  9
$DIMSE1
 70
     0
  9
$DIMSE2
 70
     0
  9
$DIMTAD
 70
     0
  9
$DIMZIN
 70
     0
  9
$DIMBLK
  1

  9
$DIMASO
 70
     1
  9
$DIMSHO
 70
     1
  9
$DIMPOST
  1

  9
$DIMAPOST
  1

  9
$DIMALT
 70
     0
  9
$DIMALTD
 70
     2
  9
$DIMALTF
 40
25.4
  9
$DIMLFAC
 40
1.0
  9
$DIMTOFL
 70
     0
  9
$DIMTVP
 40
0.0
  9
$DIMTIX
 70
     0
  9
$DIMSOXD
 70
     0
  9
$DIMSAH
 70
     0
  9
$DIMBLK1
  1

  9
$DIMBLK2
  1

  9
$DIMSTYLE
  2
STANDARD
  9
$DIMCLRD
 70
     0
  9
$DIMCLRE
 70
     0
  9
$DIMCLRT
 70
     0
  9
$DIMTFAC
 40
1.0
  9
$DIMGAP
 40
0.09
  9
$DIMJUST
 70
     0
  9
$DIMSD1
 70
     0
  9
$DIMSD2
 70
     0
  9
$DIMTOLJ
 70
     1
  9
$DIMTZIN
 70
     0
  9
$DIMALTZ
 70
     0
  9
$DIMALTTZ
 70
     0
  9
$DIMFIT
 70
     3
  9
$DIMUPT
 70
     0
  9
$DIMUNIT
 70
     2
  9
$DIMDEC
 70
     4
  9
$DIMTDEC
 70
     4
  9
$DIMALTU
 70
     2
  9
$DIMALTTD
 70
     2
  9
$DIMTXSTY
  7
STANDARD
  9
$DIMAUNIT
 70
     0
  9
$LUNITS
 70
     2
  9
$LUPREC
 70
     4
  9
$SKETCHINC
 40
0.1
  9
$FILLETRAD
 40
0.5
  9
$AUNITS
 70
     0
  9
$AUPREC
 70
     0
  9
$MENU
  1
.
  9
$ELEVATION
 40
0.0
  9
$PELEVATION
 40
0.0
  9
$THICKNESS
 40
0.0
  9
$LIMCHECK
 70
     0
  9
$CHAMFERA
 40
0.5
  9
$CHAMFERB
 40
0.5
  9
$CHAMFERC
 40
1.0
  9
$CHAMFERD
 40
0.0
  9
$SKPOLY
 70
     0
  9
$TDCREATE
 40
2454120.346688923
  9
$TDUPDATE
 40
2454120.346688935
  9
$TDINDWG
 40
0.0000000116
  9
$TDUSRTIMER
 40
0.0000000116
  9
$USRTIMER
 70
     1
  9
$ANGBASE
 50
0.0
  9
$ANGDIR
 70
     0
  9
$PDMODE
 70
     0
  9
$PDSIZE
 40
0.0
  9
$PLINEWID
 40
0.0
  9
$COORDS
 70
     1
  9
$SPLFRAME
 70
     0
  9
$SPLINETYPE
 70
     6
  9
$SPLINESEGS
 70
     8
  9
$ATTDIA
 70
     0
  9
$ATTREQ
 70
     1
  9
$HANDLING
 70
     1
  9
$HANDSEED
  5
8C
  9
$SURFTAB1
 70
     6
  9
$SURFTAB2
 70
     6
  9
$SURFTYPE
 70
     6
  9
$SURFU
 70
     6
  9
$SURFV
 70
     6
  9
$UCSNAME
  2

  9
$UCSORG
 10
0.0
 20
0.0
 30
0.0
  9
$UCSXDIR
 10
1.0
 20
0.0
 30
0.0
  9
$UCSYDIR
 10
0.0
 20
1.0
 30
0.0
  9
$PUCSNAME
  2

  9
$PUCSORG
 10
0.0
 20
0.0
 30
0.0
  9
$PUCSXDIR
 10
1.0
 20
0.0
 30
0.0
  9
$PUCSYDIR
 10
0.0
 20
1.0
 30
0.0
  9
$USERI1
 70
     0
  9
$USERI2
 70
     0
  9
$USERI3
 70
     0
  9
$USERI4
 70
     0
  9
$USERI5
 70
     0
  9
$USERR1
 40
0.0
  9
$USERR2
 40
0.0
  9
$USERR3
 40
0.0
  9
$USERR4
 40
0.0
  9
$USERR5
 40
0.0
  9
$WORLDVIEW
 70
     1
  9
$SHADEDGE
 70
     3
  9
$SHADEDIF
 70
    70
  9
$TILEMODE
 70
     1
  9
$MAXACTVP
 70
    64
  9
$PINSBASE
 10
0.0
 20
0.0
 30
0.0
  9
$PLIMCHECK
 70
     0
  9
$PEXTMIN
 10
1.000000000000000E+20
 20
1.000000000000000E+20
 30
1.000000000000000E+20
  9
$PEXTMAX
 10
-1.000000000000000E+20
 20
-1.000000000000000E+20
 30
-1.000000000000000E+20
  9
$PLIMMIN
 10
0.0
 20
0.0
  9
$PLIMMAX
 10
12.0
 20
9.0
  9
$UNITMODE
 70
     0
  9
$VISRETAIN
 70
     1
  9
$PLINEGEN
 70
     0
  9
$PSLTSCALE
 70
     1
  9
$TREEDEPTH
 70
  3020
  9
$PICKSTYLE
 70
     1
  9
$CMLSTYLE
  2
STANDARD
  9
$CMLJUST
 70
     0
  9
$CMLSCALE
 40
1.0
  9
$PROXYGRAPHICS
 70
     1
  9
$MEASUREMENT
 70
     0
  0
ENDSEC
  0
SECTION
  2
CLASSES
  0
CLASS
  1
ACDBDICTIONARYWDFLT
  2
AcDbDictionaryWithDefault
  3
ObjectDBX Classes
 90
        0
280
     0
281
     0
  0
CLASS
  1
XRECORD
  2
AcDbXrecord
  3
AutoCAD 2000
 90
        0
280
     0
281
     0
  0
CLASS
  1
LWPOLYLINE
  2
AcDbPolyline
  3
AutoCAD 2000
 90
        0
280
     0
281
     1
  0
CLASS
  1
HATCH
  2
AcDbHatch
  3
AutoCAD 2000
 90
        0
280
     0
281
     1
  0
CLASS
  1
ACDBPLACEHOLDER
  2
AcDbPlaceHolder
  3
ObjectDBX Classes
 90
        0
280
     0
281
     0
  0
CLASS
  1
LAYOUT
  2
AcDbLayout
  3
ObjectDBX Classes
 90
        0
280
     0
281
     0
  0
ENDSEC
  0
SECTION
  2
TABLES
  0
TABLE
  2
VPORT
  5
8
330
0
100
AcDbSymbolTable
 70
     2
  0
VPORT
  5
29
102
{ACAD_XDICTIONARY
360
8A
102
}
330
8
100
AcDbSymbolTableRecord
100
AcDbViewportTableRecord
  2
*ACTIVE
 70
     0
 10
0.0
 20
0.0
 11
1.0
 21
1.0
 12
10.42990654205607
 22
4.5
 13
0.0
 23
0.0
 14
0.5
 24
0.5
 15
0.5
 25
0.5
 16
0.0
 26
0.0
 36
1.0
 17
0.0
 27
0.0
 37
0.0
 40
9.0
 41
1.972972972850329
 42
50.0
 43
0.0
 44
0.0
 50
0.0
 51
0.0
 71
     0
 72
   100
 73
     1
 74
     3
 75
     0
 76
     0
 77
     0
 78
     0
  0
ENDTAB
  0
TABLE
  2
LTYPE
  5
5
330
0
100
AcDbSymbolTable
 70
     1
  0
LTYPE
  5
14
330
5
100
AcDbSymbolTableRecord
100
AcDbLinetypeTableRecord
  2
BYBLOCK
 70
     0
  3

 72
    65
 73
     0
 40
0.0
  0
LTYPE
  5
15
330
5
100
AcDbSymbolTableRecord
100
AcDbLinetypeTableRecord
  2
BYLAYER
 70
     0
  3

 72
    65
 73
     0
 40
0.0
  0
LTYPE
  5
16
330
5
100
AcDbSymbolTableRecord
100
AcDbLinetypeTableRecord
  2
CONTINUOUS
 70
     0
  3
Solid line
 72
    65
 73
     0
 40
0.0
  0
ENDTAB
  0
TABLE
  2
LAYER
  5
2
330
0
100
AcDbSymbolTable
 70
     2
  0
LAYER
  5
10
330
2
100
AcDbSymbolTableRecord
100
AcDbLayerTableRecord
  2
0
 70
     0
 62
     7
  6
CONTINUOUS
  0
LAYER
  5
2B
330
2
100
AcDbSymbolTableRecord
100
AcDbLayerTableRecord
  2
LAYER_1
 70
     0
 62
     7
  6
CONTINUOUS
  0
ENDTAB
  0
TABLE
  2
STYLE
  5
3
330
0
100
AcDbSymbolTable
 70
     1
  0
STYLE
  5
11
330
3
100
AcDbSymbolTableRecord
100
AcDbTextStyleTableRecord
  2
STANDARD
 70
     0
 40
0.0
 41
1.0
 50
0.0
 71
     0
 42
0.2
  3
txt
  4

  0
ENDTAB
  0
TABLE
  2
VIEW
  5
6
330
0
100
AcDbSymbolTable
 70
     0
  0
ENDTAB
  0
TABLE
  2
UCS
  5
7
330
0
100
AcDbSymbolTable
 70
     0
  0
ENDTAB
  0
TABLE
  2
APPID
  5
9
330
0
100
AcDbSymbolTable
 70
     2
  0
APPID
  5
12
330
9
100
AcDbSymbolTableRecord
100
AcDbRegAppTableRecord
  2
ACAD
 70
     0
  0
APPID
  5
2A
330
9
100
AcDbSymbolTableRecord
100
AcDbRegAppTableRecord
  2
ODA
 70
     0
  0
ENDTAB
  0
TABLE
  2
DIMSTYLE
  5
A
330
0
100
AcDbSymbolTable
 70
     1
  0
DIMSTYLE
105
27
330
A
100
AcDbSymbolTableRecord
100
AcDbDimStyleTableRecord
  2
STANDARD
 70
     0
  3

  4

  5

  6

  7

 40
1.0
 41
0.18
 42
0.0625
 43
0.38
 44
0.18
 45
0.0
 46
0.0
 47
0.0
 48
0.0
140
0.18
141
0.09
142
0.0
143
25.4
144
1.0
145
0.0
146
1.0
147
0.09
 71
     0
 72
     0
 73
     1
 74
     1
 75
     0
 76
     0
 77
     0
 78
     0
170
     0
171
     2
172
     0
173
     0
174
     0
175
     0
176
     0
177
     0
178
     0
270
     2
271
     4
272
     4
273
     2
274
     2
340
11
275
     0
280
     0
281
     0
282
     0
283
     1
284
     0
285
     0
286
     0
287
     3
288
     0
  0
ENDTAB
  0
TABLE
  2
BLOCK_RECORD
  5
1
330
0
100
AcDbSymbolTable
 70
     1
  0
BLOCK_RECORD
  5
1F
330
1
100
AcDbSymbolTableRecord
100
AcDbBlockTableRecord
  2
*MODEL_SPACE
  0
BLOCK_RECORD
  5
1B
330
1
100
AcDbSymbolTableRecord
100
AcDbBlockTableRecord
  2
*PAPER_SPACE
  0
ENDTAB
  0
ENDSEC
  0
SECTION
  2
BLOCKS
  0
BLOCK
  5
20
330
1F
100
AcDbEntity
  8
0
100
AcDbBlockBegin
  2
*MODEL_SPACE
 70
     0
 71
     0
 10
0.0
 20
0.0
 30
0.0
  3
*MODEL_SPACE
  1

  0
ENDBLK
  5
21
330
1F
100
AcDbEntity
  8
0
100
AcDbBlockEnd
  0
BLOCK
  5
1C
330
1B
100
AcDbEntity
 67
     1
  8
0
100
AcDbBlockBegin
  2
*PAPER_SPACE
 70
     0
 71
     0
 10
0.0
 20
0.0
 30
0.0
  3
*PAPER_SPACE
  1

  0
ENDBLK
  5
1D
330
1B
100
AcDbEntity
 67
     1
  8
0
100
AcDbBlockEnd
  0
ENDSEC
  0
SECTION
  2
ENTITIES
  0
SPLINE
  5
2C
330
1F
100
AcDbEntity
  8
LAYER_1
 62
   250
100
AcDbSpline
210
0.0
220
0.0
230
1.0
 70
    11
 71
     3
 72
    28
 73
    24
 74
     0
 42
0.0000000001
 43
0.0000000001
 40
0.0
 40
0.0
 40
0.0
 40
0.0
 40
0.1666666666666667
 40
0.1666666666666667
 40
0.1666666666666667
 40
0.1666666666666667
 40
0.3333333333333333
 40
0.3333333333333333
 40
0.3333333333333333
 40
0.3333333333333333
 40
0.5
 40
0.5
 40
0.5
 40
0.5
 40
0.6666666666666666
 40
0.6666666666666666
 40
0.6666666666666666
 40
0.6666666666666666
 40
0.8333333333333333
 40
0.8333333333333333
 40
0.8333333333333333
 40
0.8333333333333333
 40
1.0
 40
1.0
 40
1.0
 40
1.0
 10
-0.1928976377952756
 20
2.943543307086614
 30
0.0
 10
-0.1928976377952756
 20
2.943543307086614
 30
0.0
 10
-0.1928976377952756
 20
2.733118110236221
 30
0.0
 10
-0.1928976377952756
 20
2.733118110236221
 30
0.0
 10
-0.1928976377952756
 20
2.733118110236221
 30
0.0
 10
-0.1928976377952756
 20
2.733118110236221
 30
0.0
 10
-0.8736850393700788
 20
2.733118110236221
 30
0.0
 10
-0.8736850393700788
 20
2.733118110236221
 30
0.0
 10
-0.8736850393700788
 20
2.733118110236221
 30
0.0
 10
-0.8736850393700788
 20
2.733118110236221
 30
0.0
 10
-0.8736850393700788
 20
3.197291338582677
 30
0.0
 10
-0.8736850393700788
 20
3.197291338582677
 30
0.0
 10
-0.8736850393700788
 20
3.197291338582677
 30
0.0
 10
-0.8736850393700788
 20
3.197291338582677
 30
0.0
 10
-0.6601653543307087
 20
3.197291338582677
 30
0.0
 10
-0.6601653543307087
 20
3.197291338582677
 30
0.0
 10
-0.6601653543307087
 20
3.197291338582677
 30
0.0
 10
-0.6601653543307087
 20
3.197291338582677
 30
0.0
 10
-0.3785669291338583
 20
2.943543307086614
 30
0.0
 10
-0.3785669291338583
 20
2.943543307086614
 30
0.0
 10
-0.3785669291338583
 20
2.943543307086614
 30
0.0
 10
-0.3785669291338583
 20
2.943543307086614
 30
0.0
 10
-0.1928976377952756
 20
2.943543307086614
 30
0.0
 10
-0.1928976377952756
 20
2.943543307086614
 30
0.0
  0
SPLINE
  5
2D
330
1F
100
AcDbEntity
  8
LAYER_1
 62
   250
100
AcDbSpline
210
0.0
220
0.0
230
1.0
 70
    11
 71
     3
 72
   104
 73
   100
 74
     0
 42
0.0000000001
 43
0.0000000001
 40
0.0
 40
0.0
 40
0.0
 40
0.0
 40
0.04
 40
0.04
 40
0.04
 40
0.04
 40
0.08
 40
0.08
 40
0.08
 40
0.08
 40
0.12
 40
0.12
 40
0.12
 40
0.12
 40
0.16
 40
0.16
 40
0.16
 40
0.16
 40
0.2
 40
0.2
 40
0.2
 40
0.2
 40
0.24
 40
0.24
 40
0.24
 40
0.24
 40
0.28
 40
0.28
 40
0.28
 40
0.28
 40
0.32
 40
0.32
 40
0.32
 40
0.32
 40
0.36
 40
0.36
 40
0.36
 40
0.36
 40
0.4
 40
0.4
 40
0.4
 40
0.4
 40
0.44
 40
0.44
 40
0.44
 40
0.44
 40
0.4799999999999999
 40
0.4799999999999999
 40
0.4799999999999999
 40
0.4799999999999999
 40
0.5199999999999999
 40
0.5199999999999999
 40
0.5199999999999999
 40
0.5199999999999999
 40
0.5599999999999999
 40
0.5599999999999999
 40
0.5599999999999999
 40
0.5599999999999999
 40
0.6
 40
0.6
 40
0.6
 40
0.6
 40
0.64
 40
0.64
 40
0.64
 40
0.64
 40
0.6800000000000001
 40
0.6800000000000001
 40
0.6800000000000001
 40
0.6800000000000001
 40
0.7200000000000001
 40
0.7200000000000001
 40
0.7200000000000001
 40
0.7200000000000001
 40
0.7600000000000001
 40
0.7600000000000001
 40
0.7600000000000001
 40
0.7600000000000001
 40
0.8000000000000002
 40
0.8000000000000002
 40
0.8000000000000002
 40
0.8000000000000002
 40
0.8400000000000002
 40
0.8400000000000002
 40
0.8400000000000002
 40
0.8400000000000002
 40
0.8800000000000002
 40
0.8800000000000002
 40
0.8800000000000002
 40
0.8800000000000002
 40
0.9200000000000003
 40
0.9200000000000003
 40
0.9200000000000003
 40
0.9200000000000003
 40
0.9600000000000003
 40
0.9600000000000003
 40
0.9600000000000003
 40
0.9600000000000003
 40
1.0
 40
1.0
 40
1.0
 40
1.0
 10
-0.8665551181102362
 20
2.612826771653543
 30
0.0
 10
-0.8665551181102362
 20
2.612826771653543
 30
0.0
 10
-0.8125826771653544
 20
2.612826771653543
 30
0.0
 10
-0.8125826771653544
 20
2.612826771653543
 30
0.0
 10
-0.8125826771653544
 20
2.612826771653543
 30
0.0
 10
-0.7994133858267717
 20
2.612826771653543
 30
0.0
 10
-0.7903858267716536
 20
2.612216535433071
 30
0.0
 10
-0.7855
 20
2.61101968503937
 30
0.0
 10
-0.7855
 20
2.61101968503937
 30
0.0
 10
-0.7782755905511811
 20
2.609299212598425
 30
0.0
 10
-0.7725826771653543
 20
2.606161417322835
 30
0.0
 10
-0.7683582677165355
 20
2.601602362204725
 30
0.0
 10
-0.7683582677165355
 20
2.601602362204725
 30
0.0
 10
-0.7641653543307087
 20
2.597047244094489
 30
0.0
 10
-0.7620551181102363
 20
2.591547244094488
 30
0.0
 10
-0.7620551181102363
 20
2.585161417322835
 30
0.0
 10
-0.7620551181102363
 20
2.585161417322835
 30
0.0
 10
-0.7620551181102363
 20
2.580547244094488
 30
0.0
 10
-0.7631653543307087
 20
2.576409448818898
 30
0.0
 10
-0.7653858267716536
 20
2.572744094488189
 30
0.0
 10
-0.7653858267716536
 20
2.572744094488189
 30
0.0
 10
-0.7676102362204724
 20
2.569074803149607
 30
0.0
 10
-0.7708582677165354
 20
2.565937007874016
 30
0.0
 10
-0.7750826771653544
 20
2.563354330708662
 30
0.0
 10
-0.7750826771653544
 20
2.563354330708662
 30
0.0
 10
-0.7778031496062993
 20
2.561661417322835
 30
0.0
 10
-0.7814724409448819
 20
2.560216535433071
 30
0.0
 10
-0.7861377952755906
 20
2.55901968503937
 30
0.0
 10
-0.7861377952755906
 20
2.55901968503937
 30
0.0
 10
-0.780220472440945
 20
2.557937007874016
 30
0.0
 10
-0.7757204724409449
 20
2.556633858267717
 30
0.0
 10
-0.7726377952755906
 20
2.555133858267717
 30
0.0
 10
-0.7726377952755906
 20
2.555133858267717
 30
0.0
 10
-0.7679724409448819
 20
2.552854330708661
 30
0.0
 10
-0.7642755905511811
 20
2.549606299212599
 30
0.0
 10
-0.7615826771653543
 20
2.545354330708662
 30
0.0
 10
-0.7615826771653543
 20
2.545354330708662
 30
0.0
 10
-0.7588582677165354
 20
2.541133858267717
 30
0.0
 10
-0.7575000000000001
 20
2.536354330708662
 30
0.0
 10
-0.7575000000000001
 20
2.531047244094488
 30
0.0
 10
-0.7575000000000001
 20
2.531047244094488
 30
0.0
 10
-0.7575000000000001
 20
2.52588188976378
 30
0.0
 10
-0.7588307086614173
 20
2.521106299212598
 30
0.0
 10
-0.7615000000000001
 20
2.516716535433071
 30
0.0
 10
-0.7615000000000001
 20
2.516716535433071
 30
0.0
 10
-0.7641377952755906
 20
2.512326771653544
 30
0.0
 10
-0.7679133858267717
 20
2.508716535433071
 30
0.0
 10
-0.772748031496063
 20
2.50588188976378
 30
0.0
 10
-0.772748031496063
 20
2.50588188976378
 30
0.0
 10
-0.7776102362204724
 20
2.503078740157481
 30
0.0
 10
-0.7832755905511811
 20
2.501271653543307
 30
0.0
 10
-0.7897204724409449
 20
2.500464566929134
 30
0.0
 10
-0.7897204724409449
 20
2.500464566929134
 30
0.0
 10
-0.7961929133858268
 20
2.499688976377953
 30
0.0
 10
-0.8028307086614174
 20
2.499299212598425
 30
0.0
 10
-0.8096653543307087
 20
2.499299212598425
 30
0.0
 10
-0.8096653543307087
 20
2.499299212598425
 30
0.0
 10
-0.8096653543307087
 20
2.499299212598425
 30
0.0
 10
-0.8665551181102362
 20
2.499299212598425
 30
0.0
 10
-0.8665551181102362
 20
2.499299212598425
 30
0.0
 10
-0.8665551181102362
 20
2.499299212598425
 30
0.0
 10
-0.8665551181102362
 20
2.499299212598425
 30
0.0
 10
-0.8665551181102362
 20
2.506133858267717
 30
0.0
 10
-0.8665551181102362
 20
2.506133858267717
 30
0.0
 10
-0.8665551181102362
 20
2.506133858267717
 30
0.0
 10
-0.8665551181102362
 20
2.506133858267717
 30
0.0
 10
-0.862720472440945
 20
2.506133858267717
 30
0.0
 10
-0.862720472440945
 20
2.506133858267717
 30
0.0
 10
-0.862720472440945
 20
2.506133858267717
 30
0.0
 10
-0.8590236220472441
 20
2.506133858267717
 30
0.0
 10
-0.8565236220472441
 20
2.506716535433071
 30
0.0
 10
-0.8551653543307087
 20
2.507854330708661
 30
0.0
 10
-0.8551653543307087
 20
2.507854330708661
 30
0.0
 10
-0.8531929133858268
 20
2.509409448818898
 30
0.0
 10
-0.8522204724409449
 20
2.51201968503937
 30
0.0
 10
-0.8522204724409449
 20
2.515661417322835
 30
0.0
 10
-0.8522204724409449
 20
2.515661417322835
 30
0.0
 10
-0.8522204724409449
 20
2.515661417322835
 30
0.0
 10
-0.8522204724409449
 20
2.59451968503937
 30
0.0
 10
-0.8522204724409449
 20
2.59451968503937
 30
0.0
 10
-0.8522204724409449
 20
2.59451968503937
 30
0.0
 10
-0.8522204724409449
 20
2.598216535433071
 30
0.0
 10
-0.8525236220472441
 20
2.600716535433071
 30
0.0
 10
-0.8531102362204724
 20
2.602074803149606
 30
0.0
 10
-0.8531102362204724
 20
2.602074803149606
 30
0.0
 10
-0.853720472440945
 20
2.603437007874016
 30
0.0
 10
-0.8546102362204725
 20
2.604409448818898
 30
0.0
 10
-0.8558031496062992
 20
2.60501968503937
 30
0.0
 10
-0.8558031496062992
 20
2.60501968503937
 30
0.0
 10
-0.8569960629921261
 20
2.605602362204725
 30
0.0
 10
-0.8593031496062993
 20
2.605909448818898
 30
0.0
 10
-0.862720472440945
 20
2.605909448818898
 30
0.0
 10
-0.862720472440945
 20
2.605909448818898
 30
0.0
 10
-0.862720472440945
 20
2.605909448818898
 30
0.0
 10
-0.8665551181102362
 20
2.605909448818898
 30
0.0
 10
-0.8665551181102362
 20
2.605909448818898
 30
0.0
 10
-0.8665551181102362
 20
2.605909448818898
 30
0.0
 10
-0.8665551181102362
 20
2.605909448818898
 30
0.0
 10
-0.8665551181102362
 20
2.612826771653543
 30
0.0
 10
-0.8665551181102362
 20
2.612826771653543
 30
0.0
  0
SPLINE
  5
2E
330
1F
100
AcDbEntity
  8
LAYER_1
 62
   250
100
AcDbSpline
210
0.0
220
0.0
230
1.0
 70
    11
 71
     3
 72
    40
 73
    36
 74
     0
 42
0.0000000001
 43
0.0000000001
 40
0.0
 40
0.0
 40
0.0
 40
0.0
 40
0.1111111111111111
 40
0.1111111111111111
 40
0.1111111111111111
 40
0.1111111111111111
 40
0.2222222222222222
 40
0.2222222222222222
 40
0.2222222222222222
 40
0.2222222222222222
 40
0.3333333333333333
 40
0.3333333333333333
 40
0.3333333333333333
 40
0.3333333333333333
 40
0.4444444444444444
 40
0.4444444444444444
 40
0.4444444444444444
 40
0.4444444444444444
 40
0.5555555555555556
 40
0.5555555555555556
 40
0.5555555555555556
 40
0.5555555555555556
 40
0.6666666666666667
 40
0.6666666666666667
 40
0.6666666666666667
 40
0.6666666666666667
 40
0.7777777777777779
 40
0.7777777777777779
 40
0.7777777777777779
 40
0.7777777777777779
 40
0.8888888888888891
 40
0.8888888888888891
 40
0.8888888888888891
 40
0.8888888888888891
 40
1.0
 40
1.0
 40
1.0
 40
1.0
 10
-0.836996062992126
 20
2.603799212598426
 30
0.0
 10
-0.836996062992126
 20
2.603799212598426
 30
0.0
 10
-0.836996062992126
 20
2.562216535433071
 30
0.0
 10
-0.836996062992126
 20
2.562216535433071
 30
0.0
 10
-0.836996062992126
 20
2.562216535433071
 30
0.0
 10
-0.836996062992126
 20
2.562216535433071
 30
0.0
 10
-0.8162480314960631
 20
2.562216535433071
 30
0.0
 10
-0.8162480314960631
 20
2.562216535433071
 30
0.0
 10
-0.8162480314960631
 20
2.562216535433071
 30
0.0
 10
-0.8065551181102363
 20
2.562216535433071
 30
0.0
 10
-0.7998858267716535
 20
2.562661417322835
 30
0.0
 10
-0.7963307086614173
 20
2.563574803149606
 30
0.0
 10
-0.7963307086614173
 20
2.563574803149606
 30
0.0
 10
-0.7907204724409449
 20
2.565047244094489
 30
0.0
 10
-0.7864724409448819
 20
2.567547244094488
 30
0.0
 10
-0.7835
 20
2.571074803149606
 30
0.0
 10
-0.7835
 20
2.571074803149606
 30
0.0
 10
-0.7805551181102363
 20
2.574602362204725
 30
0.0
 10
-0.7790551181102362
 20
2.579133858267717
 30
0.0
 10
-0.7790551181102362
 20
2.584661417322835
 30
0.0
 10
-0.7790551181102362
 20
2.584661417322835
 30
0.0
 10
-0.7790551181102362
 20
2.589326771653544
 30
0.0
 10
-0.7804133858267717
 20
2.593216535433071
 30
0.0
 10
-0.7830826771653544
 20
2.596354330708662
 30
0.0
 10
-0.7830826771653544
 20
2.596354330708662
 30
0.0
 10
-0.7857755905511812
 20
2.599464566929134
 30
0.0
 10
-0.7893858267716536
 20
2.601602362204725
 30
0.0
 10
-0.7938858267716535
 20
2.602744094488189
 30
0.0
 10
-0.7938858267716535
 20
2.602744094488189
 30
0.0
 10
-0.7968031496062993
 20
2.603437007874016
 30
0.0
 10
-0.8028858267716535
 20
2.603799212598426
 30
0.0
 10
-0.8121102362204725
 20
2.603799212598426
 30
0.0
 10
-0.8121102362204725
 20
2.603799212598426
 30
0.0
 10
-0.8121102362204725
 20
2.603799212598426
 30
0.0
 10
-0.836996062992126
 20
2.603799212598426
 30
0.0
 10
-0.836996062992126
 20
2.603799212598426
 30
0.0
  0
SPLINE
  5
2F
330
1F
100
AcDbEntity
  8
LAYER_1
 62
   250
100
AcDbSpline
210
0.0
220
0.0
230
1.0
 70
    11
 71
     3
 72
    52
 73
    48
 74
     0
 42
0.0000000001
 43
0.0000000001
 40
0.0
 40
0.0
 40
0.0
 40
0.0
 40
0.0833333333333333
 40
0.0833333333333333
 40
0.0833333333333333
 40
0.0833333333333333
 40
0.1666666666666667
 40
0.1666666666666667
 40
0.1666666666666667
 40
0.1666666666666667
 40
0.25
 40
0.25
 40
0.25
 40
0.25
 40
0.3333333333333333
 40
0.3333333333333333
 40
0.3333333333333333
 40
0.3333333333333333
 40
0.4166666666666666
 40
0.4166666666666666
 40
0.4166666666666666
 40
0.4166666666666666
 40
0.4999999999999999
 40
0.4999999999999999
 40
0.4999999999999999
 40
0.4999999999999999
 40
0.5833333333333333
 40
0.5833333333333333
 40
0.5833333333333333
 40
0.5833333333333333
 40
0.6666666666666666
 40
0.6666666666666666
 40
0.6666666666666666
 40
0.6666666666666666
 40
0.75
 40
0.75
 40
0.75
 40
0.75
 40
0.8333333333333334
 40
0.8333333333333334
 40
0.8333333333333334
 40
0.8333333333333334
 40
0.9166666666666667
 40
0.9166666666666667
 40
0.9166666666666667
 40
0.9166666666666667
 40
1.0
 40
1.0
 40
1.0
 40
1.0
 10
-0.836996062992126
 20
2.55438188976378
 30
0.0
 10
-0.836996062992126
 20
2.55438188976378
 30
0.0
 10
-0.836996062992126
 20
2.517133858267717
 30
0.0
 10
-0.836996062992126
 20
2.517133858267717
 30
0.0
 10
-0.836996062992126
 20
2.517133858267717
 30
0.0
 10
-0.836996062992126
 20
2.513381889763779
 30
0.0
 10
-0.8368307086614174
 20
2.511161417322835
 30
0.0
 10
-0.8365275590551181
 20
2.510437007874016
 30
0.0
 10
-0.8365275590551181
 20
2.510437007874016
 30
0.0
 10
-0.8360826771653543
 20
2.509464566929134
 30
0.0
 10
-0.8352204724409449
 20
2.508799212598425
 30
0.0
 10
-0.8339133858267717
 20
2.508409448818898
 30
0.0
 10
-0.8339133858267717
 20
2.508409448818898
 30
0.0
 10
-0.832996062992126
 20
2.508133858267717
 30
0.0
 10
-0.8303858267716536
 20
2.507992125984252
 30
0.0
 10
-0.8261102362204725
 20
2.507992125984252
 30
0.0
 10
-0.8261102362204725
 20
2.507992125984252
 30
0.0
 10
-0.8261102362204725
 20
2.507992125984252
 30
0.0
 10
-0.8150275590551181
 20
2.507992125984252
 30
0.0
 10
-0.8150275590551181
 20
2.507992125984252
 30
0.0
 10
-0.8150275590551181
 20
2.507992125984252
 30
0.0
 10
-0.8040826771653543
 20
2.507992125984252
 30
0.0
 10
-0.7962480314960631
 20
2.508606299212599
 30
0.0
 10
-0.7915551181102363
 20
2.509826771653544
 30
0.0
 10
-0.7915551181102363
 20
2.509826771653544
 30
0.0
 10
-0.7868582677165354
 20
2.511047244094488
 30
0.0
 10
-0.7828582677165354
 20
2.513633858267717
 30
0.0
 10
-0.7795551181102363
 20
2.517578740157481
 30
0.0
 10
-0.7795551181102363
 20
2.517578740157481
 30
0.0
 10
-0.776248031496063
 20
2.521492125984252
 30
0.0
 10
-0.7745826771653543
 20
2.526244094488189
 30
0.0
 10
-0.7745826771653543
 20
2.531771653543307
 30
0.0
 10
-0.7745826771653543
 20
2.531771653543307
 30
0.0
 10
-0.7745826771653543
 20
2.536437007874016
 30
0.0
 10
-0.7759409448818898
 20
2.540574803149606
 30
0.0
 10
-0.7786102362204724
 20
2.544188976377953
 30
0.0
 10
-0.7786102362204724
 20
2.544188976377953
 30
0.0
 10
-0.7813031496062992
 20
2.547799212598426
 30
0.0
 10
-0.7850275590551181
 20
2.55038188976378
 30
0.0
 10
-0.7897755905511812
 20
2.551992125984252
 30
0.0
 10
-0.7897755905511812
 20
2.551992125984252
 30
0.0
 10
-0.7945275590551182
 20
2.553606299212599
 30
0.0
 10
-0.8029409448818898
 20
2.55438188976378
 30
0.0
 10
-0.8150275590551181
 20
2.55438188976378
 30
0.0
 10
-0.8150275590551181
 20
2.55438188976378
 30
0.0
 10
-0.8150275590551181
 20
2.55438188976378
 30
0.0
 10
-0.836996062992126
 20
2.55438188976378
 30
0.0
 10
-0.836996062992126
 20
2.55438188976378
 30
0.0
  0
SPLINE
  5
30
330
1F
100
AcDbEntity
  8
LAYER_1
 62
   250
100
AcDbSpline
210
0.0
220
0.0
230
1.0
 70
    11
 71
     3
 72
   112
 73
   108
 74
     0
 42
0.0000000001
 43
0.0000000001
 40
0.0
 40
0.0
 40
0.0
 40
0.0
 40
0.037037037037037
 40
0.037037037037037
 40
0.037037037037037
 40
0.037037037037037
 40
0.0740740740740741
 40
0.0740740740740741
 40
0.0740740740740741
 40
0.0740740740740741
 40
0.1111111111111111
 40
0.1111111111111111
 40
0.1111111111111111
 40
0.1111111111111111
 40
0.1481481481481481
 40
0.1481481481481481
 40
0.1481481481481481
 40
0.1481481481481481
 40
0.1851851851851852
 40
0.1851851851851852
 40
0.1851851851851852
 40
0.1851851851851852
 40
0.2222222222222222
 40
0.2222222222222222
 40
0.2222222222222222
 40
0.2222222222222222
 40
0.2592592592592592
 40
0.2592592592592592
 40
0.2592592592592592
 40
0.2592592592592592
 40
0.2962962962962963
 40
0.2962962962962963
 40
0.2962962962962963
 40
0.2962962962962963
 40
0.3333333333333333
 40
0.3333333333333333
 40
0.3333333333333333
 40
0.3333333333333333
 40
0.3703703703703704
 40
0.3703703703703704
 40
0.3703703703703704
 40
0.3703703703703704
 40
0.4074074074074074
 40
0.4074074074074074
 40
0.4074074074074074
 40
0.4074074074074074
 40
0.4444444444444444
 40
0.4444444444444444
 40
0.4444444444444444
 40
0.4444444444444444
 40
0.4814814814814815
 40
0.4814814814814815
 40
0.4814814814814815
 40
0.4814814814814815
 40
0.5185185185185185
 40
0.5185185185185185
 40
0.5185185185185185
 40
0.5185185185185185
 40
0.5555555555555556
 40
0.5555555555555556
 40
0.5555555555555556
 40
0.5555555555555556
 40
0.5925925925925926
 40
0.5925925925925926
 40
0.5925925925925926
 40
0.5925925925925926
 40
0.6296296296296295
 40
0.6296296296296295
 40
0.6296296296296295
 40
0.6296296296296295
 40
0.6666666666666665
 40
0.6666666666666665
 40
0.6666666666666665
 40
0.6666666666666665
 40
0.7037037037037035
 40
0.7037037037037035
 40
0.7037037037037035
 40
0.7037037037037035
 40
0.7407407407407405
 40
0.7407407407407405
 40
0.7407407407407405
 40
0.7407407407407405
 40
0.7777777777777775
 40
0.7777777777777775
 40
0.7777777777777775
 40
0.7777777777777775
 40
0.8148148148148144
 40
0.8148148148148144
 40
0.8148148148148144
 40
0.8148148148148144
 40
0.8518518518518514
 40
0.8518518518518514
 40
0.8518518518518514
 40
0.8518518518518514
 40
0.8888888888888884
 40
0.8888888888888884
 40
0.8888888888888884
 40
0.8888888888888884
 40
0.9259259259259254
 40
0.9259259259259254
 40
0.9259259259259254
 40
0.9259259259259254
 40
0.9629629629629624
 40
0.9629629629629624
 40
0.9629629629629624
 40
0.9629629629629624
 40
1.0
 40
1.0
 40
1.0
 40
1.0
 10
-0.6998897637795276
 20
2.612826771653543
 30
0.0
 10
-0.6998897637795276
 20
2.612826771653543
 30
0.0
 10
-0.6864724409448819
 20
2.612826771653543
 30
0.0
 10
-0.6864724409448819
 20
2.612826771653543
 30
0.0
 10
-0.6864724409448819
 20
2.612826771653543
 30
0.0
 10
-0.6864724409448819
 20
2.612826771653543
 30
0.0
 10
-0.6512244094488189
 20
2.517937007874016
 30
0.0
 10
-0.6512244094488189
 20
2.517937007874016
 30
0.0
 10
-0.6512244094488189
 20
2.517937007874016
 30
0.0
 10
-0.6495000000000001
 20
2.513161417322835
 30
0.0
 10
-0.647751968503937
 20
2.509992125984252
 30
0.0
 10
-0.6459724409448819
 20
2.508464566929134
 30
0.0
 10
-0.6459724409448819
 20
2.508464566929134
 30
0.0
 10
-0.6442244094488189
 20
2.506909448818898
 30
0.0
 10
-0.6418346456692914
 20
2.506133858267717
 30
0.0
 10
-0.6388622047244095
 20
2.506133858267717
 30
0.0
 10
-0.6388622047244095
 20
2.506133858267717
 30
0.0
 10
-0.6388622047244095
 20
2.506133858267717
 30
0.0
 10
-0.6370826771653544
 20
2.506133858267717
 30
0.0
 10
-0.6370826771653544
 20
2.506133858267717
 30
0.0
 10
-0.6370826771653544
 20
2.506133858267717
 30
0.0
 10
-0.6370826771653544
 20
2.506133858267717
 30
0.0
 10
-0.6370826771653544
 20
2.499299212598425
 30
0.0
 10
-0.6370826771653544
 20
2.499299212598425
 30
0.0
 10
-0.6370826771653544
 20
2.499299212598425
 30
0.0
 10
-0.6370826771653544
 20
2.499299212598425
 30
0.0
 10
-0.6775275590551182
 20
2.499299212598425
 30
0.0
 10
-0.6775275590551182
 20
2.499299212598425
 30
0.0
 10
-0.6775275590551182
 20
2.499299212598425
 30
0.0
 10
-0.6775275590551182
 20
2.499299212598425
 30
0.0
 10
-0.6775275590551182
 20
2.506133858267717
 30
0.0
 10
-0.6775275590551182
 20
2.506133858267717
 30
0.0
 10
-0.6775275590551182
 20
2.506133858267717
 30
0.0
 10
-0.6762244094488189
 20
2.506244094488189
 30
0.0
 10
-0.6749448818897638
 20
2.506299212598425
 30
0.0
 10
-0.6736929133858268
 20
2.506299212598425
 30
0.0
 10
-0.6736929133858268
 20
2.506299212598425
 30
0.0
 10
-0.6710826771653543
 20
2.506299212598425
 30
0.0
 10
-0.6693897637795276
 20
2.50657874015748
 30
0.0
 10
-0.6685551181102363
 20
2.507106299212599
 30
0.0
 10
-0.6685551181102363
 20
2.507106299212599
 30
0.0
 10
-0.667
 20
2.508133858267717
 30
0.0
 10
-0.6661968503937008
 20
2.509437007874016
 30
0.0
 10
-0.6661968503937008
 20
2.51101968503937
 30
0.0
 10
-0.6661968503937008
 20
2.51101968503937
 30
0.0
 10
-0.6661968503937008
 20
2.512161417322835
 30
0.0
 10
-0.666972440944882
 20
2.514937007874016
 30
0.0
 10
-0.6684724409448819
 20
2.519409448818898
 30
0.0
 10
-0.6684724409448819
 20
2.519409448818898
 30
0.0
 10
-0.6684724409448819
 20
2.519409448818898
 30
0.0
 10
-0.675972440944882
 20
2.541381889763779
 30
0.0
 10
-0.675972440944882
 20
2.541381889763779
 30
0.0
 10
-0.675972440944882
 20
2.541381889763779
 30
0.0
 10
-0.675972440944882
 20
2.541381889763779
 30
0.0
 10
-0.7171377952755906
 20
2.541381889763779
 30
0.0
 10
-0.7171377952755906
 20
2.541381889763779
 30
0.0
 10
-0.7171377952755906
 20
2.541381889763779
 30
0.0
 10
-0.7171377952755906
 20
2.541381889763779
 30
0.0
 10
-0.7259448818897638
 20
2.516799212598425
 30
0.0
 10
-0.7259448818897638
 20
2.516799212598425
 30
0.0
 10
-0.7259448818897638
 20
2.516799212598425
 30
0.0
 10
-0.7268622047244094
 20
2.514244094488189
 30
0.0
 10
-0.7273346456692914
 20
2.512492125984252
 30
0.0
 10
-0.7273346456692914
 20
2.511492125984252
 30
0.0
 10
-0.7273346456692914
 20
2.511492125984252
 30
0.0
 10
-0.7273346456692914
 20
2.510409448818898
 30
0.0
 10
-0.7270275590551182
 20
2.509464566929134
 30
0.0
 10
-0.726472440944882
 20
2.508661417322835
 30
0.0
 10
-0.726472440944882
 20
2.508661417322835
 30
0.0
 10
-0.7258897637795276
 20
2.507854330708661
 30
0.0
 10
-0.7251377952755905
 20
2.507244094488189
 30
0.0
 10
-0.7241377952755905
 20
2.506826771653544
 30
0.0
 10
-0.7241377952755905
 20
2.506826771653544
 30
0.0
 10
-0.7231653543307087
 20
2.506409448818898
 30
0.0
 10
-0.7216102362204725
 20
2.506216535433071
 30
0.0
 10
-0.7194173228346457
 20
2.506216535433071
 30
0.0
 10
-0.7194173228346457
 20
2.506216535433071
 30
0.0
 10
-0.7179724409448819
 20
2.506216535433071
 30
0.0
 10
-0.7167795275590552
 20
2.506188976377953
 30
0.0
 10
-0.7158622047244094
 20
2.506133858267717
 30
0.0
 10
-0.7158622047244094
 20
2.506133858267717
 30
0.0
 10
-0.7158622047244094
 20
2.506133858267717
 30
0.0
 10
-0.7158622047244094
 20
2.499299212598425
 30
0.0
 10
-0.7158622047244094
 20
2.499299212598425
 30
0.0
 10
-0.7158622047244094
 20
2.499299212598425
 30
0.0
 10
-0.7158622047244094
 20
2.499299212598425
 30
0.0
 10
-0.7497795275590552
 20
2.499299212598425
 30
0.0
 10
-0.7497795275590552
 20
2.499299212598425
 30
0.0
 10
-0.7497795275590552
 20
2.499299212598425
 30
0.0
 10
-0.7497795275590552
 20
2.499299212598425
 30
0.0
 10
-0.7497795275590552
 20
2.506133858267717
 30
0.0
 10
-0.7497795275590552
 20
2.506133858267717
 30
0.0
 10
-0.7497795275590552
 20
2.506133858267717
 30
0.0
 10
-0.7466377952755906
 20
2.506133858267717
 30
0.0
 10
-0.7443622047244095
 20
2.506437007874016
 30
0.0
 10
-0.743
 20
2.507078740157481
 30
0.0
 10
-0.743
 20
2.507078740157481
 30
0.0
 10
-0.7416102362204725
 20
2.507688976377953
 30
0.0
 10
-0.7403897637795276
 20
2.508688976377953
 30
0.0
 10
-0.7393622047244095
 20
2.51007874015748
 30
0.0
 10
-0.7393622047244095
 20
2.51007874015748
 30
0.0
 10
-0.7383346456692914
 20
2.511464566929134
 30
0.0
 10
-0.7369724409448819
 20
2.51438188976378
 30
0.0
 10
-0.7353070866141732
 20
2.518826771653544
 30
0.0
 10
-0.7353070866141732
 20
2.518826771653544
 30
0.0
 10
-0.7353070866141732
 20
2.518826771653544
 30
0.0
 10
-0.6998897637795276
 20
2.612826771653543
 30
0.0
 10
-0.6998897637795276
 20
2.612826771653543
 30
0.0
  0
SPLINE
  5
31
330
1F
100
AcDbEntity
  8
LAYER_1
 62
   250
100
AcDbSpline
210
0.0
220
0.0
230
1.0
 70
    11
 71
     3
 72
    16
 73
    12
 74
     0
 42
0.0000000001
 43
0.0000000001
 40
0.0
 40
0.0
 40
0.0
 40
0.0
 40
0.3333333333333333
 40
0.3333333333333333
 40
0.3333333333333333
 40
0.3333333333333333
 40
0.6666666666666666
 40
0.6666666666666666
 40
0.6666666666666666
 40
0.6666666666666666
 40
1.0
 40
1.0
 40
1.0
 40
1.0
 10
-0.7141377952755906
 20
2.549354330708662
 30
0.0
 10
-0.7141377952755906
 20
2.549354330708662
 30
0.0
 10
-0.6790551181102362
 20
2.549354330708662
 30
0.0
 10
-0.6790551181102362
 20
2.549354330708662
 30
0.0
 10
-0.6790551181102362
 20
2.549354330708662
 30
0.0
 10
-0.6790551181102362
 20
2.549354330708662
 30
0.0
 10
-0.6966377952755906
 20
2.598188976377953
 30
0.0
 10
-0.6966377952755906
 20
2.598188976377953
 30
0.0
 10
-0.6966377952755906
 20
2.598188976377953
 30
0.0
 10
-0.6966377952755906
 20
2.598188976377953
 30
0.0
 10
-0.7141377952755906
 20
2.549354330708662
 30
0.0
 10
-0.7141377952755906
 20
2.549354330708662
 30
0.0
  0
SPLINE
  5
32
330
1F
100
AcDbEntity
  8
LAYER_1
 62
   250
100
AcDbSpline
210
0.0
220
0.0
230
1.0
 70
    11
 71
     3
 72
    72
 73
    68
 74
     0
 42
0.0000000001
 43
0.0000000001
 40
0.0
 40
0.0
 40
0.0
 40
0.0
 40
0.0588235294117647
 40
0.0588235294117647
 40
0.0588235294117647
 40
0.0588235294117647
 40
0.1176470588235294
 40
0.1176470588235294
 40
0.1176470588235294
 40
0.1176470588235294
 40
0.1764705882352941
 40
0.1764705882352941
 40
0.1764705882352941
 40
0.1764705882352941
 40
0.2352941176470588
 40
0.2352941176470588
 40
0.2352941176470588
 40
0.2352941176470588
 40
0.2941176470588235
 40
0.2941176470588235
 40
0.2941176470588235
 40
0.2941176470588235
 40
0.3529411764705883
 40
0.3529411764705883
 40
0.3529411764705883
 40
0.3529411764705883
 40
0.411764705882353
 40
0.411764705882353
 40
0.411764705882353
 40
0.411764705882353
 40
0.4705882352941177
 40
0.4705882352941177
 40
0.4705882352941177
 40
0.4705882352941177
 40
0.5294117647058824
 40
0.5294117647058824
 40
0.5294117647058824
 40
0.5294117647058824
 40
0.5882352941176471
 40
0.5882352941176471
 40
0.5882352941176471
 40
0.5882352941176471
 40
0.6470588235294118
 40
0.6470588235294118
 40
0.6470588235294118
 40
0.6470588235294118
 40
0.7058823529411765
 40
0.7058823529411765
 40
0.7058823529411765
 40
0.7058823529411765
 40
0.7647058823529412
 40
0.7647058823529412
 40
0.7647058823529412
 40
0.7647058823529412
 40
0.823529411764706
 40
0.823529411764706
 40
0.823529411764706
 40
0.823529411764706
 40
0.8823529411764707
 40
0.8823529411764707
 40
0.8823529411764707
 40
0.8823529411764707
 40
0.9411764705882354
 40
0.9411764705882354
 40
0.9411764705882354
 40
0.9411764705882354
 40
1.0
 40
1.0
 40
1.0
 40
1.0
 10
-0.4740551181102363
 20
2.612826771653543
 30
0.0
 10
-0.4740551181102363
 20
2.612826771653543
 30
0.0
 10
-0.4679724409448819
 20
2.612826771653543
 30
0.0
 10
-0.4679724409448819
 20
2.612826771653543
 30
0.0
 10
-0.4679724409448819
 20
2.612826771653543
 30
0.0
 10
-0.4679724409448819
 20
2.612826771653543
 30
0.0
 10
-0.4679724409448819
 20
2.51857874015748
 30
0.0
 10
-0.4679724409448819
 20
2.51857874015748
 30
0.0
 10
-0.4679724409448819
 20
2.51857874015748
 30
0.0
 10
-0.4679724409448819
 20
2.514133858267717
 30
0.0
 10
-0.4676653543307087
 20
2.511271653543307
 30
0.0
 10
-0.4671102362204725
 20
2.509992125984252
 30
0.0
 10
-0.4671102362204725
 20
2.509992125984252
 30
0.0
 10
-0.4665275590551181
 20
2.508716535433071
 30
0.0
 10
-0.4656102362204725
 20
2.507771653543307
 30
0.0
 10
-0.4643070866141733
 20
2.507106299212599
 30
0.0
 10
-0.4643070866141733
 20
2.507106299212599
 30
0.0
 10
-0.463
 20
2.506464566929134
 30
0.0
 10
-0.4604173228346457
 20
2.506133858267717
 30
0.0
 10
-0.4565551181102363
 20
2.506133858267717
 30
0.0
 10
-0.4565551181102363
 20
2.506133858267717
 30
0.0
 10
-0.4565551181102363
 20
2.506133858267717
 30
0.0
 10
-0.4485826771653543
 20
2.506133858267717
 30
0.0
 10
-0.4485826771653543
 20
2.506133858267717
 30
0.0
 10
-0.4485826771653543
 20
2.506133858267717
 30
0.0
 10
-0.4485826771653543
 20
2.506133858267717
 30
0.0
 10
-0.4485826771653543
 20
2.499299212598425
 30
0.0
 10
-0.4485826771653543
 20
2.499299212598425
 30
0.0
 10
-0.4485826771653543
 20
2.499299212598425
 30
0.0
 10
-0.4485826771653543
 20
2.499299212598425
 30
0.0
 10
-0.5022204724409449
 20
2.499299212598425
 30
0.0
 10
-0.5022204724409449
 20
2.499299212598425
 30
0.0
 10
-0.5022204724409449
 20
2.499299212598425
 30
0.0
 10
-0.5022204724409449
 20
2.499299212598425
 30
0.0
 10
-0.5022204724409449
 20
2.506133858267717
 30
0.0
 10
-0.5022204724409449
 20
2.506133858267717
 30
0.0
 10
-0.5022204724409449
 20
2.506133858267717
 30
0.0
 10
-0.5022204724409449
 20
2.506133858267717
 30
0.0
 10
-0.4933622047244095
 20
2.506133858267717
 30
0.0
 10
-0.4933622047244095
 20
2.506133858267717
 30
0.0
 10
-0.4933622047244095
 20
2.506133858267717
 30
0.0
 10
-0.4895000000000001
 20
2.506133858267717
 30
0.0
 10
-0.4869448818897638
 20
2.506464566929134
 30
0.0
 10
-0.4856653543307087
 20
2.507161417322835
 30
0.0
 10
-0.4856653543307087
 20
2.507161417322835
 30
0.0
 10
-0.4843897637795276
 20
2.507826771653543
 30
0.0
 10
-0.4833897637795276
 20
2.508909448818898
 30
0.0
 10
-0.4826929133858268
 20
2.510409448818898
 30
0.0
 10
-0.4826929133858268
 20
2.510409448818898
 30
0.0
 10
-0.482
 20
2.511909448818898
 30
0.0
 10
-0.4816377952755906
 20
2.514633858267717
 30
0.0
 10
-0.4816377952755906
 20
2.51857874015748
 30
0.0
 10
-0.4816377952755906
 20
2.51857874015748
 30
0.0
 10
-0.4816377952755906
 20
2.51857874015748
 30
0.0
 10
-0.4816377952755906
 20
2.596047244094488
 30
0.0
 10
-0.4816377952755906
 20
2.596047244094488
 30
0.0
 10
-0.4816377952755906
 20
2.596047244094488
 30
0.0
 10
-0.4816377952755906
 20
2.596047244094488
 30
0.0
 10
-0.5022204724409449
 20
2.596047244094488
 30
0.0
 10
-0.5022204724409449
 20
2.596047244094488
 30
0.0
 10
-0.5022204724409449
 20
2.596047244094488
 30
0.0
 10
-0.5022204724409449
 20
2.596047244094488
 30
0.0
 10
-0.5022204724409449
 20
2.603047244094488
 30
0.0
 10
-0.5022204724409449
 20
2.603047244094488
 30
0.0
 10
-0.5022204724409449
 20
2.603047244094488
 30
0.0
 10
-0.491
 20
2.604629921259843
 30
0.0
 10
-0.4816102362204724
 20
2.607881889763779
 30
0.0
 10
-0.4740551181102363
 20
2.612826771653543
 30
0.0
  0
SPLINE
  5
33
330
1F
100
AcDbEntity
  8
LAYER_1
 62
   250
100
AcDbSpline
210
0.0
220
0.0
230
1.0
 70
    11
 71
     3
 72
    80
 73
    76
 74
     0
 42
0.0000000001
 43
0.0000000001
 40
0.0
 40
0.0
 40
0.0
 40
0.0
 40
0.0526315789473684
 40
0.0526315789473684
 40
0.0526315789473684
 40
0.0526315789473684
 40
0.1052631578947368
 40
0.1052631578947368
 40
0.1052631578947368
 40
0.1052631578947368
 40
0.1578947368421053
 40
0.1578947368421053
 40
0.1578947368421053
 40
0.1578947368421053
 40
0.2105263157894737
 40
0.2105263157894737
 40
0.2105263157894737
 40
0.2105263157894737
 40
0.2631578947368421
 40
0.2631578947368421
 40
0.2631578947368421
 40
0.2631578947368421
 40
0.3157894736842105
 40
0.3157894736842105
 40
0.3157894736842105
 40
0.3157894736842105
 40
0.3684210526315789
 40
0.3684210526315789
 40
0.3684210526315789
 40
0.3684210526315789
 40
0.4210526315789474
 40
0.4210526315789474
 40
0.4210526315789474
 40
0.4210526315789474
 40
0.4736842105263158
 40
0.4736842105263158
 40
0.4736842105263158
 40
0.4736842105263158
 40
0.5263157894736842
 40
0.5263157894736842
 40
0.5263157894736842
 40
0.5263157894736842
 40
0.5789473684210527
 40
0.5789473684210527
 40
0.5789473684210527
 40
0.5789473684210527
 40
0.631578947368421
 40
0.631578947368421
 40
0.631578947368421
 40
0.631578947368421
 40
0.6842105263157894
 40
0.6842105263157894
 40
0.6842105263157894
 40
0.6842105263157894
 40
0.7368421052631577
 40
0.7368421052631577
 40
0.7368421052631577
 40
0.7368421052631577
 40
0.7894736842105261
 40
0.7894736842105261
 40
0.7894736842105261
 40
0.7894736842105261
 40
0.8421052631578945
 40
0.8421052631578945
 40
0.8421052631578945
 40
0.8421052631578945
 40
0.8947368421052628
 40
0.8947368421052628
 40
0.8947368421052628
 40
0.8947368421052628
 40
0.9473684210526312
 40
0.9473684210526312
 40
0.9473684210526312
 40
0.9473684210526312
 40
1.0
 40
1.0
 40
1.0
 40
1.0
 10
-0.4086377952755906
 20
2.616964566929134
 30
0.0
 10
-0.4086377952755906
 20
2.616964566929134
 30
0.0
 10
-0.403248031496063
 20
2.616964566929134
 30
0.0
 10
-0.403248031496063
 20
2.616964566929134
 30
0.0
 10
-0.403248031496063
 20
2.616964566929134
 30
0.0
 10
-0.403248031496063
 20
2.616964566929134
 30
0.0
 10
-0.4022755905511811
 20
2.612826771653543
 30
0.0
 10
-0.4022755905511811
 20
2.612826771653543
 30
0.0
 10
-0.4022755905511811
 20
2.612826771653543
 30
0.0
 10
-0.4022755905511811
 20
2.612826771653543
 30
0.0
 10
-0.3311653543307087
 20
2.612826771653543
 30
0.0
 10
-0.3311653543307087
 20
2.612826771653543
 30
0.0
 10
-0.3311653543307087
 20
2.612826771653543
 30
0.0
 10
-0.3311653543307087
 20
2.612826771653543
 30
0.0
 10
-0.3311653543307087
 20
2.605909448818898
 30
0.0
 10
-0.3311653543307087
 20
2.605909448818898
 30
0.0
 10
-0.3311653543307087
 20
2.605909448818898
 30
0.0
 10
-0.3396653543307087
 20
2.596074803149607
 30
0.0
 10
-0.3473897637795276
 20
2.584909448818898
 30
0.0
 10
-0.3543031496062992
 20
2.572326771653544
 30
0.0
 10
-0.3543031496062992
 20
2.572326771653544
 30
0.0
 10
-0.3612204724409449
 20
2.559771653543307
 30
0.0
 10
-0.3665826771653544
 20
2.546992125984252
 30
0.0
 10
-0.3703897637795276
 20
2.533964566929134
 30
0.0
 10
-0.3703897637795276
 20
2.533964566929134
 30
0.0
 10
-0.3731377952755905
 20
2.524578740157481
 30
0.0
 10
-0.3753858267716536
 20
2.51301968503937
 30
0.0
 10
-0.3771377952755906
 20
2.499299212598425
 30
0.0
 10
-0.3771377952755906
 20
2.499299212598425
 30
0.0
 10
-0.3771377952755906
 20
2.499299212598425
 30
0.0
 10
-0.3938031496062993
 20
2.499299212598425
 30
0.0
 10
-0.3938031496062993
 20
2.499299212598425
 30
0.0
 10
-0.3938031496062993
 20
2.499299212598425
 30
0.0
 10
-0.3921929133858268
 20
2.511409448818898
 30
0.0
 10
-0.3895275590551181
 20
2.522716535433071
 30
0.0
 10
-0.3858031496062992
 20
2.533244094488189
 30
0.0
 10
-0.3858031496062992
 20
2.533244094488189
 30
0.0
 10
-0.3820826771653543
 20
2.543771653543307
 30
0.0
 10
-0.3767204724409449
 20
2.554771653543307
 30
0.0
 10
-0.3696929133858268
 20
2.566244094488189
 30
0.0
 10
-0.3696929133858268
 20
2.566244094488189
 30
0.0
 10
-0.3626653543307087
 20
2.577716535433071
 30
0.0
 10
-0.3541377952755906
 20
2.589161417322835
 30
0.0
 10
-0.3440826771653543
 20
2.600602362204724
 30
0.0
 10
-0.3440826771653543
 20
2.600602362204724
 30
0.0
 10
-0.3440826771653543
 20
2.600602362204724
 30
0.0
 10
-0.3948031496062993
 20
2.600602362204724
 30
0.0
 10
-0.3948031496062993
 20
2.600602362204724
 30
0.0
 10
-0.3948031496062993
 20
2.600602362204724
 30
0.0
 10
-0.3984724409448819
 20
2.600602362204724
 30
0.0
 10
-0.401
 20
2.600437007874016
 30
0.0
 10
-0.4023582677165354
 20
2.600047244094488
 30
0.0
 10
-0.4023582677165354
 20
2.600047244094488
 30
0.0
 10
-0.4037204724409449
 20
2.599661417322835
 30
0.0
 10
-0.4047755905511811
 20
2.599074803149606
 30
0.0
 10
-0.4055275590551181
 20
2.598271653543307
 30
0.0
 10
-0.4055275590551181
 20
2.598271653543307
 30
0.0
 10
-0.4063031496062992
 20
2.597437007874016
 30
0.0
 10
-0.4069448818897638
 20
2.595992125984252
 30
0.0
 10
-0.4075
 20
2.593937007874016
 30
0.0
 10
-0.4075
 20
2.593937007874016
 30
0.0
 10
-0.4075
 20
2.593937007874016
 30
0.0
 10
-0.4078858267716536
 20
2.592409448818898
 30
0.0
 10
-0.4078858267716536
 20
2.592409448818898
 30
0.0
 10
-0.4078858267716536
 20
2.592409448818898
 30
0.0
 10
-0.4078858267716536
 20
2.592409448818898
 30
0.0
 10
-0.4106653543307087
 20
2.582799212598425
 30
0.0
 10
-0.4106653543307087
 20
2.582799212598425
 30
0.0
 10
-0.4106653543307087
 20
2.582799212598425
 30
0.0
 10
-0.4106653543307087
 20
2.582799212598425
 30
0.0
 10
-0.4175826771653544
 20
2.584271653543307
 30
0.0
 10
-0.4175826771653544
 20
2.584271653543307
 30
0.0
 10
-0.4175826771653544
 20
2.584271653543307
 30
0.0
 10
-0.4175826771653544
 20
2.584271653543307
 30
0.0
 10
-0.4086377952755906
 20
2.616964566929134
 30
0.0
 10
-0.4086377952755906
 20
2.616964566929134
 30
0.0
  0
SPLINE
  5
34
330
1F
100
AcDbEntity
  8
LAYER_1
 62
   250
100
AcDbSpline
210
0.0
220
0.0
230
1.0
 70
    11
 71
     3
 72
    48
 73
    44
 74
     0
 42
0.0000000001
 43
0.0000000001
 40
0.0
 40
0.0
 40
0.0
 40
0.0
 40
0.0909090909090909
 40
0.0909090909090909
 40
0.0909090909090909
 40
0.0909090909090909
 40
0.1818181818181818
 40
0.1818181818181818
 40
0.1818181818181818
 40
0.1818181818181818
 40
0.2727272727272727
 40
0.2727272727272727
 40
0.2727272727272727
 40
0.2727272727272727
 40
0.3636363636363637
 40
0.3636363636363637
 40
0.3636363636363637
 40
0.3636363636363637
 40
0.4545454545454546
 40
0.4545454545454546
 40
0.4545454545454546
 40
0.4545454545454546
 40
0.5454545454545455
 40
0.5454545454545455
 40
0.5454545454545455
 40
0.5454545454545455
 40
0.6363636363636365
 40
0.6363636363636365
 40
0.6363636363636365
 40
0.6363636363636365
 40
0.7272727272727274
 40
0.7272727272727274
 40
0.7272727272727274
 40
0.7272727272727274
 40
0.8181818181818183
 40
0.8181818181818183
 40
0.8181818181818183
 40
0.8181818181818183
 40
0.9090909090909093
 40
0.9090909090909093
 40
0.9090909090909093
 40
0.9090909090909093
 40
1.0
 40
1.0
 40
1.0
 40
1.0
 10
-0.2714133858267717
 20
2.614771653543307
 30
0.0
 10
-0.2630551181102362
 20
2.614771653543307
 30
0.0
 10
-0.255748031496063
 20
2.612657480314961
 30
0.0
 10
-0.2495275590551181
 20
2.60838188976378
 30
0.0
 10
-0.2495275590551181
 20
2.60838188976378
 30
0.0
 10
-0.2432755905511811
 20
2.604129921259843
 30
0.0
 10
-0.2382204724409449
 20
2.597437007874016
 30
0.0
 10
-0.2343031496062992
 20
2.588326771653543
 30
0.0
 10
-0.2343031496062992
 20
2.588326771653543
 30
0.0
 10
-0.2303858267716536
 20
2.579216535433071
 30
0.0
 10
-0.2284409448818898
 20
2.568161417322835
 30
0.0
 10
-0.2284409448818898
 20
2.555216535433071
 30
0.0
 10
-0.2284409448818898
 20
2.555216535433071
 30
0.0
 10
-0.2284409448818898
 20
2.535992125984252
 30
0.0
 10
-0.233248031496063
 20
2.521047244094488
 30
0.0
 10
-0.2428582677165354
 20
2.510354330708661
 30
0.0
 10
-0.2428582677165354
 20
2.510354330708661
 30
0.0
 10
-0.2506653543307087
 20
2.501688976377953
 30
0.0
 10
-0.2605275590551181
 20
2.497354330708661
 30
0.0
 10
-0.2724685039370079
 20
2.497354330708661
 30
0.0
 10
-0.2724685039370079
 20
2.497354330708661
 30
0.0
 10
-0.2805551181102363
 20
2.497354330708661
 30
0.0
 10
-0.2877204724409449
 20
2.499492125984252
 30
0.0
 10
-0.2939409448818898
 20
2.503826771653543
 30
0.0
 10
-0.2939409448818898
 20
2.503826771653543
 30
0.0
 10
-0.3001929133858268
 20
2.508133858267717
 30
0.0
 10
-0.305248031496063
 20
2.514606299212598
 30
0.0
 10
-0.3090826771653544
 20
2.523216535433071
 30
0.0
 10
-0.3090826771653544
 20
2.523216535433071
 30
0.0
 10
-0.3129409448818898
 20
2.531854330708661
 30
0.0
 10
-0.3148582677165355
 20
2.542799212598425
 30
0.0
 10
-0.3148582677165355
 20
2.556102362204725
 30
0.0
 10
-0.3148582677165355
 20
2.556102362204725
 30
0.0
 10
-0.3148582677165355
 20
2.569492125984252
 30
0.0
 10
-0.3129685039370079
 20
2.580437007874016
 30
0.0
 10
-0.3092204724409449
 20
2.588909448818898
 30
0.0
 10
-0.3092204724409449
 20
2.588909448818898
 30
0.0
 10
-0.3054409448818898
 20
2.597354330708662
 30
0.0
 10
-0.3003031496062992
 20
2.603799212598426
 30
0.0
 10
-0.2938031496062992
 20
2.608188976377953
 30
0.0
 10
-0.2938031496062992
 20
2.608188976377953
 30
0.0
 10
-0.2872755905511811
 20
2.612574803149606
 30
0.0
 10
-0.2798307086614174
 20
2.614771653543307
 30
0.0
 10
-0.2714133858267717
 20
2.614771653543307
 30
0.0
  0
SPLINE
  5
35
330
1F
100
AcDbEntity
  8
LAYER_1
 62
   250
100
AcDbSpline
210
0.0
220
0.0
230
1.0
 70
    11
 71
     3
 72
    56
 73
    52
 74
     0
 42
0.0000000001
 43
0.0000000001
 40
0.0
 40
0.0
 40
0.0
 40
0.0
 40
0.0769230769230769
 40
0.0769230769230769
 40
0.0769230769230769
 40
0.0769230769230769
 40
0.1538461538461539
 40
0.1538461538461539
 40
0.1538461538461539
 40
0.1538461538461539
 40
0.2307692307692308
 40
0.2307692307692308
 40
0.2307692307692308
 40
0.2307692307692308
 40
0.3076923076923077
 40
0.3076923076923077
 40
0.3076923076923077
 40
0.3076923076923077
 40
0.3846153846153846
 40
0.3846153846153846
 40
0.3846153846153846
 40
0.3846153846153846
 40
0.4615384615384616
 40
0.4615384615384616
 40
0.4615384615384616
 40
0.4615384615384616
 40
0.5384615384615386
 40
0.5384615384615386
 40
0.5384615384615386
 40
0.5384615384615386
 40
0.6153846153846154
 40
0.6153846153846154
 40
0.6153846153846154
 40
0.6153846153846154
 40
0.6923076923076923
 40
0.6923076923076923
 40
0.6923076923076923
 40
0.6923076923076923
 40
0.7692307692307692
 40
0.7692307692307692
 40
0.7692307692307692
 40
0.7692307692307692
 40
0.846153846153846
 40
0.846153846153846
 40
0.846153846153846
 40
0.846153846153846
 40
0.9230769230769229
 40
0.9230769230769229
 40
0.9230769230769229
 40
0.9230769230769229
 40
1.0
 40
1.0
 40
1.0
 40
1.0
 10
-0.2718031496062992
 20
2.606716535433071
 30
0.0
 10
-0.2774685039370079
 20
2.606716535433071
 30
0.0
 10
-0.2824133858267717
 20
2.604661417322835
 30
0.0
 10
-0.2867204724409449
 20
2.600547244094488
 30
0.0
 10
-0.2867204724409449
 20
2.600547244094488
 30
0.0
 10
-0.2904409448818898
 20
2.596964566929134
 30
0.0
 10
-0.2934133858267717
 20
2.591326771653543
 30
0.0
 10
-0.2955826771653544
 20
2.583602362204724
 30
0.0
 10
-0.2955826771653544
 20
2.583602362204724
 30
0.0
 10
-0.2980826771653544
 20
2.574826771653544
 30
0.0
 10
-0.2993307086614173
 20
2.565102362204724
 30
0.0
 10
-0.2993307086614173
 20
2.554464566929134
 30
0.0
 10
-0.2993307086614173
 20
2.554464566929134
 30
0.0
 10
-0.2993307086614173
 20
2.546216535433071
 30
0.0
 10
-0.2985511811023622
 20
2.538744094488189
 30
0.0
 10
-0.296996062992126
 20
2.532047244094488
 30
0.0
 10
-0.296996062992126
 20
2.532047244094488
 30
0.0
 10
-0.2954685039370079
 20
2.525354330708661
 30
0.0
 10
-0.2934133858267717
 20
2.520133858267716
 30
0.0
 10
-0.2908582677165355
 20
2.516437007874016
 30
0.0
 10
-0.2908582677165355
 20
2.516437007874016
 30
0.0
 10
-0.2883031496062992
 20
2.512716535433071
 30
0.0
 10
-0.2854133858267717
 20
2.509964566929134
 30
0.0
 10
-0.2821929133858268
 20
2.508161417322835
 30
0.0
 10
-0.2821929133858268
 20
2.508161417322835
 30
0.0
 10
-0.2789685039370079
 20
2.50638188976378
 30
0.0
 10
-0.2755551181102363
 20
2.505492125984252
 30
0.0
 10
-0.2719685039370079
 20
2.505492125984252
 30
0.0
 10
-0.2719685039370079
 20
2.505492125984252
 30
0.0
 10
-0.2666102362204725
 20
2.505492125984252
 30
0.0
 10
-0.2615826771653543
 20
2.50757874015748
 30
0.0
 10
-0.2569133858267717
 20
2.511744094488189
 30
0.0
 10
-0.2569133858267717
 20
2.511744094488189
 30
0.0
 10
-0.2531929133858268
 20
2.515161417322835
 30
0.0
 10
-0.2502204724409449
 20
2.520271653543307
 30
0.0
 10
-0.2480551181102362
 20
2.527047244094488
 30
0.0
 10
-0.2480551181102362
 20
2.527047244094488
 30
0.0
 10
-0.2454409448818898
 20
2.535299212598425
 30
0.0
 10
-0.2441377952755906
 20
2.544992125984252
 30
0.0
 10
-0.2441377952755906
 20
2.556102362204725
 30
0.0
 10
-0.2441377952755906
 20
2.556102362204725
 30
0.0
 10
-0.2441377952755906
 20
2.567602362204724
 30
0.0
 10
-0.2454685039370079
 20
2.57738188976378
 30
0.0
 10
-0.2481377952755906
 20
2.585409448818898
 30
0.0
 10
-0.2481377952755906
 20
2.585409448818898
 30
0.0
 10
-0.2508031496062992
 20
2.593437007874016
 30
0.0
 10
-0.2540551181102362
 20
2.598992125984252
 30
0.0
 10
-0.2579409448818898
 20
2.602074803149606
 30
0.0
 10
-0.2579409448818898
 20
2.602074803149606
 30
0.0
 10
-0.2618307086614173
 20
2.605188976377953
 30
0.0
 10
-0.2664409448818898
 20
2.606716535433071
 30
0.0
 10
-0.2718031496062992
 20
2.606716535433071
 30
0.0
  0
SPLINE
  5
36
330
1F
100
AcDbEntity
  8
LAYER_1
 62
   250
100
AcDbSpline
210
0.0
220
0.0
230
1.0
 70
    11
 71
     3
 72
   172
 73
   168
 74
     0
 42
0.0000000001
 43
0.0000000001
 40
0.0
 40
0.0
 40
0.0
 40
0.0
 40
0.0238095238095238
 40
0.0238095238095238
 40
0.0238095238095238
 40
0.0238095238095238
 40
0.0476190476190476
 40
0.0476190476190476
 40
0.0476190476190476
 40
0.0476190476190476
 40
0.0714285714285714
 40
0.0714285714285714
 40
0.0714285714285714
 40
0.0714285714285714
 40
0.0952380952380952
 40
0.0952380952380952
 40
0.0952380952380952
 40
0.0952380952380952
 40
0.119047619047619
 40
0.119047619047619
 40
0.119047619047619
 40
0.119047619047619
 40
0.1428571428571429
 40
0.1428571428571429
 40
0.1428571428571429
 40
0.1428571428571429
 40
0.1666666666666667
 40
0.1666666666666667
 40
0.1666666666666667
 40
0.1666666666666667
 40
0.1904761904761905
 40
0.1904761904761905
 40
0.1904761904761905
 40
0.1904761904761905
 40
0.2142857142857143
 40
0.2142857142857143
 40
0.2142857142857143
 40
0.2142857142857143
 40
0.2380952380952381
 40
0.2380952380952381
 40
0.2380952380952381
 40
0.2380952380952381
 40
0.2619047619047619
 40
0.2619047619047619
 40
0.2619047619047619
 40
0.2619047619047619
 40
0.2857142857142857
 40
0.2857142857142857
 40
0.2857142857142857
 40
0.2857142857142857
 40
0.3095238095238095
 40
0.3095238095238095
 40
0.3095238095238095
 40
0.3095238095238095
 40
0.3333333333333334
 40
0.3333333333333334
 40
0.3333333333333334
 40
0.3333333333333334
 40
0.3571428571428572
 40
0.3571428571428572
 40
0.3571428571428572
 40
0.3571428571428572
 40
0.380952380952381
 40
0.380952380952381
 40
0.380952380952381
 40
0.380952380952381
 40
0.4047619047619049
 40
0.4047619047619049
 40
0.4047619047619049
 40
0.4047619047619049
 40
0.4285714285714287
 40
0.4285714285714287
 40
0.4285714285714287
 40
0.4285714285714287
 40
0.4523809523809526
 40
0.4523809523809526
 40
0.4523809523809526
 40
0.4523809523809526
 40
0.4761904761904764
 40
0.4761904761904764
 40
0.4761904761904764
 40
0.4761904761904764
 40
0.5000000000000002
 40
0.5000000000000002
 40
0.5000000000000002
 40
0.5000000000000002
 40
0.5238095238095241
 40
0.5238095238095241
 40
0.5238095238095241
 40
0.5238095238095241
 40
0.5476190476190479
 40
0.5476190476190479
 40
0.5476190476190479
 40
0.5476190476190479
 40
0.5714285714285717
 40
0.5714285714285717
 40
0.5714285714285717
 40
0.5714285714285717
 40
0.5952380952380956
 40
0.5952380952380956
 40
0.5952380952380956
 40
0.5952380952380956
 40
0.6190476190476194
 40
0.6190476190476194
 40
0.6190476190476194
 40
0.6190476190476194
 40
0.6428571428571432
 40
0.6428571428571432
 40
0.6428571428571432
 40
0.6428571428571432
 40
0.6666666666666671
 40
0.6666666666666671
 40
0.6666666666666671
 40
0.6666666666666671
 40
0.6904761904761909
 40
0.6904761904761909
 40
0.6904761904761909
 40
0.6904761904761909
 40
0.7142857142857148
 40
0.7142857142857148
 40
0.7142857142857148
 40
0.7142857142857148
 40
0.7380952380952386
 40
0.7380952380952386
 40
0.7380952380952386
 40
0.7380952380952386
 40
0.7619047619047624
 40
0.7619047619047624
 40
0.7619047619047624
 40
0.7619047619047624
 40
0.7857142857142863
 40
0.7857142857142863
 40
0.7857142857142863
 40
0.7857142857142863
 40
0.8095238095238101
 40
0.8095238095238101
 40
0.8095238095238101
 40
0.8095238095238101
 40
0.8333333333333339
 40
0.8333333333333339
 40
0.8333333333333339
 40
0.8333333333333339
 40
0.8571428571428578
 40
0.8571428571428578
 40
0.8571428571428578
 40
0.8571428571428578
 40
0.8809523809523816
 40
0.8809523809523816
 40
0.8809523809523816
 40
0.8809523809523816
 40
0.9047619047619054
 40
0.9047619047619054
 40
0.9047619047619054
 40
0.9047619047619054
 40
0.9285714285714293
 40
0.9285714285714293
 40
0.9285714285714293
 40
0.9285714285714293
 40
0.9523809523809531
 40
0.9523809523809531
 40
0.9523809523809531
 40
0.9523809523809531
 40
0.9761904761904769
 40
0.9761904761904769
 40
0.9761904761904769
 40
0.9761904761904769
 40
1.0
 40
1.0
 40
1.0
 40
1.0
 10
-0.1979133858267717
 20
2.582464566929134
 30
0.0
 10
-0.1979133858267717
 20
2.582464566929134
 30
0.0
 10
-0.2057204724409449
 20
2.583688976377953
 30
0.0
 10
-0.2057204724409449
 20
2.583688976377953
 30
0.0
 10
-0.2057204724409449
 20
2.583688976377953
 30
0.0
 10
-0.2050236220472441
 20
2.589547244094488
 30
0.0
 10
-0.203496062992126
 20
2.594409448818898
 30
0.0
 10
-0.2011614173228347
 20
2.598271653543307
 30
0.0
 10
-0.2011614173228347
 20
2.598271653543307
 30
0.0
 10
-0.1980787401574803
 20
2.603464566929134
 30
0.0
 10
-0.1937204724409449
 20
2.60751968503937
 30
0.0
 10
-0.1880787401574803
 20
2.610409448818898
 30
0.0
 10
-0.1880787401574803
 20
2.610409448818898
 30
0.0
 10
-0.1824133858267717
 20
2.613326771653544
 30
0.0
 10
-0.1759409448818898
 20
2.614771653543307
 30
0.0
 10
-0.1686062992125984
 20
2.614771653543307
 30
0.0
 10
-0.1686062992125984
 20
2.614771653543307
 30
0.0
 10
-0.1614133858267717
 20
2.614771653543307
 30
0.0
 10
-0.1550511811023622
 20
2.613492125984252
 30
0.0
 10
-0.1495787401574803
 20
2.610909448818898
 30
0.0
 10
-0.1495787401574803
 20
2.610909448818898
 30
0.0
 10
-0.1441062992125984
 20
2.608326771653543
 30
0.0
 10
-0.1399685039370079
 20
2.604909448818898
 30
0.0
 10
-0.1371653543307087
 20
2.600661417322835
 30
0.0
 10
-0.1371653543307087
 20
2.600661417322835
 30
0.0
 10
-0.1343582677165355
 20
2.596409448818898
 30
0.0
 10
-0.1329685039370079
 20
2.591799212598426
 30
0.0
 10
-0.1329685039370079
 20
2.586854330708662
 30
0.0
 10
-0.1329685039370079
 20
2.586854330708662
 30
0.0
 10
-0.1329685039370079
 20
2.58251968503937
 30
0.0
 10
-0.1340236220472441
 20
2.578633858267717
 30
0.0
 10
-0.1361377952755906
 20
2.575216535433071
 30
0.0
 10
-0.1361377952755906
 20
2.575216535433071
 30
0.0
 10
-0.1382755905511811
 20
2.571799212598426
 30
0.0
 10
-0.1414133858267717
 20
2.568744094488189
 30
0.0
 10
-0.1455787401574803
 20
2.56601968503937
 30
0.0
 10
-0.1455787401574803
 20
2.56601968503937
 30
0.0
 10
-0.1485236220472441
 20
2.564133858267716
 30
0.0
 10
-0.1523307086614173
 20
2.562464566929134
 30
0.0
 10
-0.1570511811023622
 20
2.561074803149606
 30
0.0
 10
-0.1570511811023622
 20
2.561074803149606
 30
0.0
 10
-0.1520236220472441
 20
2.560354330708662
 30
0.0
 10
-0.1478858267716535
 20
2.559188976377953
 30
0.0
 10
-0.1446929133858268
 20
2.557574803149607
 30
0.0
 10
-0.1446929133858268
 20
2.557574803149607
 30
0.0
 10
-0.139496062992126
 20
2.554909448818898
 30
0.0
 10
-0.1353858267716536
 20
2.551244094488189
 30
0.0
 10
-0.1324133858267717
 20
2.546574803149607
 30
0.0
 10
-0.1324133858267717
 20
2.546574803149607
 30
0.0
 10
-0.1294133858267717
 20
2.541909448818898
 30
0.0
 10
-0.1279409448818898
 20
2.536799212598425
 30
0.0
 10
-0.1279409448818898
 20
2.531188976377953
 30
0.0
 10
-0.1279409448818898
 20
2.531188976377953
 30
0.0
 10
-0.1279409448818898
 20
2.522244094488189
 30
0.0
 10
-0.1318582677165354
 20
2.514354330708661
 30
0.0
 10
-0.1397204724409449
 20
2.507547244094488
 30
0.0
 10
-0.1397204724409449
 20
2.507547244094488
 30
0.0
 10
-0.1476062992125984
 20
2.500744094488189
 30
0.0
 10
-0.1577755905511811
 20
2.497354330708661
 30
0.0
 10
-0.170248031496063
 20
2.497354330708661
 30
0.0
 10
-0.170248031496063
 20
2.497354330708661
 30
0.0
 10
-0.1825511811023622
 20
2.497354330708661
 30
0.0
 10
-0.1929133858267717
 20
2.500633858267717
 30
0.0
 10
-0.2013307086614173
 20
2.507188976377953
 30
0.0
 10
-0.2013307086614173
 20
2.507188976377953
 30
0.0
 10
-0.2083858267716535
 20
2.512771653543307
 30
0.0
 10
-0.2119133858267717
 20
2.518409448818898
 30
0.0
 10
-0.2119133858267717
 20
2.524047244094488
 30
0.0
 10
-0.2119133858267717
 20
2.524047244094488
 30
0.0
 10
-0.2119133858267717
 20
2.526271653543307
 30
0.0
 10
-0.2111889763779528
 20
2.528133858267716
 30
0.0
 10
-0.209748031496063
 20
2.529606299212599
 30
0.0
 10
-0.209748031496063
 20
2.529606299212599
 30
0.0
 10
-0.2083307086614173
 20
2.531106299212599
 30
0.0
 10
-0.2065236220472441
 20
2.531854330708661
 30
0.0
 10
-0.2043307086614173
 20
2.531854330708661
 30
0.0
 10
-0.2043307086614173
 20
2.531854330708661
 30
0.0
 10
-0.2019685039370079
 20
2.531854330708661
 30
0.0
 10
-0.1999133858267717
 20
2.530937007874016
 30
0.0
 10
-0.198248031496063
 20
2.529074803149606
 30
0.0
 10
-0.198248031496063
 20
2.529074803149606
 30
0.0
 10
-0.1973307086614173
 20
2.528047244094488
 30
0.0
 10
-0.196248031496063
 20
2.525578740157481
 30
0.0
 10
-0.1950787401574803
 20
2.521688976377953
 30
0.0
 10
-0.1950787401574803
 20
2.521688976377953
 30
0.0
 10
-0.1933858267716536
 20
2.516188976377953
 30
0.0
 10
-0.1905236220472441
 20
2.51201968503937
 30
0.0
 10
-0.1865236220472441
 20
2.509161417322835
 30
0.0
 10
-0.1865236220472441
 20
2.509161417322835
 30
0.0
 10
-0.182496062992126
 20
2.506271653543307
 30
0.0
 10
-0.1775236220472441
 20
2.504826771653543
 30
0.0
 10
-0.1715511811023622
 20
2.504826771653543
 30
0.0
 10
-0.1715511811023622
 20
2.504826771653543
 30
0.0
 10
-0.1662204724409449
 20
2.504826771653543
 30
0.0
 10
-0.1614685039370079
 20
2.505992125984252
 30
0.0
 10
-0.1572755905511811
 20
2.508326771653544
 30
0.0
 10
-0.1572755905511811
 20
2.508326771653544
 30
0.0
 10
-0.1530511811023622
 20
2.510661417322835
 30
0.0
 10
-0.149748031496063
 20
2.513964566929134
 30
0.0
 10
-0.1473031496062992
 20
2.518271653543307
 30
0.0
 10
-0.1473031496062992
 20
2.518271653543307
 30
0.0
 10
-0.1448582677165354
 20
2.522547244094489
 30
0.0
 10
-0.1436338582677166
 20
2.527244094488189
 30
0.0
 10
-0.1436338582677166
 20
2.532326771653544
 30
0.0
 10
-0.1436338582677166
 20
2.532326771653544
 30
0.0
 10
-0.1436338582677166
 20
2.536464566929134
 30
0.0
 10
-0.1445236220472441
 20
2.540161417322835
 30
0.0
 10
-0.1462755905511811
 20
2.543437007874016
 30
0.0
 10
-0.1462755905511811
 20
2.543437007874016
 30
0.0
 10
-0.1480511811023622
 20
2.546744094488189
 30
0.0
 10
-0.1505511811023622
 20
2.54951968503937
 30
0.0
 10
-0.1538031496062992
 20
2.551799212598426
 30
0.0
 10
-0.1538031496062992
 20
2.551799212598426
 30
0.0
 10
-0.1563031496062992
 20
2.553574803149607
 30
0.0
 10
-0.159496062992126
 20
2.554826771653544
 30
0.0
 10
-0.1633582677165354
 20
2.55551968503937
 30
0.0
 10
-0.1633582677165354
 20
2.55551968503937
 30
0.0
 10
-0.167248031496063
 20
2.556244094488189
 30
0.0
 10
-0.170748031496063
 20
2.556602362204725
 30
0.0
 10
-0.1738307086614173
 20
2.556602362204725
 30
0.0
 10
-0.1738307086614173
 20
2.556602362204725
 30
0.0
 10
-0.1738307086614173
 20
2.556602362204725
 30
0.0
 10
-0.1813858267716536
 20
2.556602362204725
 30
0.0
 10
-0.1813858267716536
 20
2.556602362204725
 30
0.0
 10
-0.1813858267716536
 20
2.556602362204725
 30
0.0
 10
-0.1813858267716536
 20
2.556602362204725
 30
0.0
 10
-0.1813858267716536
 20
2.564492125984252
 30
0.0
 10
-0.1813858267716536
 20
2.564492125984252
 30
0.0
 10
-0.1813858267716536
 20
2.564492125984252
 30
0.0
 10
-0.1813858267716536
 20
2.564492125984252
 30
0.0
 10
-0.1765787401574803
 20
2.564492125984252
 30
0.0
 10
-0.1765787401574803
 20
2.564492125984252
 30
0.0
 10
-0.1765787401574803
 20
2.564492125984252
 30
0.0
 10
-0.1718307086614173
 20
2.564492125984252
 30
0.0
 10
-0.1672755905511811
 20
2.565047244094489
 30
0.0
 10
-0.1629133858267717
 20
2.566161417322835
 30
0.0
 10
-0.1629133858267717
 20
2.566161417322835
 30
0.0
 10
-0.1585787401574803
 20
2.567271653543307
 30
0.0
 10
-0.1551062992125984
 20
2.569547244094488
 30
0.0
 10
-0.152496062992126
 20
2.57301968503937
 30
0.0
 10
-0.152496062992126
 20
2.57301968503937
 30
0.0
 10
-0.1499133858267717
 20
2.576492125984252
 30
0.0
 10
-0.1486062992125984
 20
2.580437007874016
 30
0.0
 10
-0.1486062992125984
 20
2.584826771653543
 30
0.0
 10
-0.1486062992125984
 20
2.584826771653543
 30
0.0
 10
-0.1486062992125984
 20
2.588629921259843
 30
0.0
 10
-0.149496062992126
 20
2.592047244094488
 30
0.0
 10
-0.1513307086614173
 20
2.595074803149606
 30
0.0
 10
-0.1513307086614173
 20
2.595074803149606
 30
0.0
 10
-0.1531338582677166
 20
2.598129921259843
 30
0.0
 10
-0.1558031496062992
 20
2.600547244094488
 30
0.0
 10
-0.1593307086614173
 20
2.602326771653543
 30
0.0
 10
-0.1593307086614173
 20
2.602326771653543
 30
0.0
 10
-0.1628582677165354
 20
2.604102362204725
 30
0.0
 10
-0.1669409448818898
 20
2.60501968503937
 30
0.0
 10
-0.1715511811023622
 20
2.60501968503937
 30
0.0
 10
-0.1715511811023622
 20
2.60501968503937
 30
0.0
 10
-0.1760511811023622
 20
2.60501968503937
 30
0.0
 10
-0.1801929133858268
 20
2.604074803149607
 30
0.0
 10
-0.1839685039370079
 20
2.602244094488189
 30
0.0
 10
-0.1839685039370079
 20
2.602244094488189
 30
0.0
 10
-0.1877204724409449
 20
2.600409448818898
 30
0.0
 10
-0.190748031496063
 20
2.597937007874016
 30
0.0
 10
-0.1930236220472441
 20
2.594826771653544
 30
0.0
 10
-0.1930236220472441
 20
2.594826771653544
 30
0.0
 10
-0.1953031496062992
 20
2.591744094488189
 30
0.0
 10
-0.1969409448818898
 20
2.587629921259843
 30
0.0
 10
-0.1979133858267717
 20
2.582464566929134
 30
0.0
  0
SPLINE
  5
37
330
1F
100
AcDbEntity
  8
LAYER_1
 62
   250
100
AcDbSpline
210
0.0
220
0.0
230
1.0
 70
    11
 71
     3
 72
    76
 73
    72
 74
     0
 42
0.0000000001
 43
0.0000000001
 40
0.0
 40
0.0
 40
0.0
 40
0.0
 40
0.0555555555555556
 40
0.0555555555555556
 40
0.0555555555555556
 40
0.0555555555555556
 40
0.1111111111111111
 40
0.1111111111111111
 40
0.1111111111111111
 40
0.1111111111111111
 40
0.1666666666666667
 40
0.1666666666666667
 40
0.1666666666666667
 40
0.1666666666666667
 40
0.2222222222222222
 40
0.2222222222222222
 40
0.2222222222222222
 40
0.2222222222222222
 40
0.2777777777777778
 40
0.2777777777777778
 40
0.2777777777777778
 40
0.2777777777777778
 40
0.3333333333333334
 40
0.3333333333333334
 40
0.3333333333333334
 40
0.3333333333333334
 40
0.388888888888889
 40
0.388888888888889
 40
0.388888888888889
 40
0.388888888888889
 40
0.4444444444444445
 40
0.4444444444444445
 40
0.4444444444444445
 40
0.4444444444444445
 40
0.5000000000000001
 40
0.5000000000000001
 40
0.5000000000000001
 40
0.5000000000000001
 40
0.5555555555555557
 40
0.5555555555555557
 40
0.5555555555555557
 40
0.5555555555555557
 40
0.6111111111111113
 40
0.6111111111111113
 40
0.6111111111111113
 40
0.6111111111111113
 40
0.6666666666666669
 40
0.6666666666666669
 40
0.6666666666666669
 40
0.6666666666666669
 40
0.7222222222222224
 40
0.7222222222222224
 40
0.7222222222222224
 40
0.7222222222222224
 40
0.777777777777778
 40
0.777777777777778
 40
0.777777777777778
 40
0.777777777777778
 40
0.8333333333333336
 40
0.8333333333333336
 40
0.8333333333333336
 40
0.8333333333333336
 40
0.8888888888888892
 40
0.8888888888888892
 40
0.8888888888888892
 40
0.8888888888888892
 40
0.9444444444444448
 40
0.9444444444444448
 40
0.9444444444444448
 40
0.9444444444444448
 40
1.0
 40
1.0
 40
1.0
 40
1.0
 10
-0.9271614173228346
 20
2.426216535433071
 30
0.0
 10
-0.9271614173228346
 20
2.426216535433071
 30
0.0
 10
-0.9271614173228346
 20
2.377547244094489
 30
0.0
 10
-0.9271614173228346
 20
2.377547244094489
 30
0.0
 10
-0.9271614173228346
 20
2.377547244094489
 30
0.0
 10
-0.9271614173228346
 20
2.374854330708661
 30
0.0
 10
-0.9268858267716535
 20
2.373188976377953
 30
0.0
 10
-0.9262992125984252
 20
2.372633858267716
 30
0.0
 10
-0.9262992125984252
 20
2.372633858267716
 30
0.0
 10
-0.9257440944881891
 20
2.372047244094488
 30
0.0
 10
-0.9241338582677166
 20
2.371771653543307
 30
0.0
 10
-0.9214685039370079
 20
2.371771653543307
 30
0.0
 10
-0.9214685039370079
 20
2.371771653543307
 30
0.0
 10
-0.9214685039370079
 20
2.371771653543307
 30
0.0
 10
-0.9157716535433071
 20
2.371771653543307
 30
0.0
 10
-0.9157716535433071
 20
2.371771653543307
 30
0.0
 10
-0.9157716535433071
 20
2.371771653543307
 30
0.0
 10
-0.9157716535433071
 20
2.371771653543307
 30
0.0
 10
-0.9157716535433071
 20
2.367216535433071
 30
0.0
 10
-0.9157716535433071
 20
2.367216535433071
 30
0.0
 10
-0.9157716535433071
 20
2.367216535433071
 30
0.0
 10
-0.9157716535433071
 20
2.367216535433071
 30
0.0
 10
-0.9493818897637796
 20
2.367216535433071
 30
0.0
 10
-0.9493818897637796
 20
2.367216535433071
 30
0.0
 10
-0.9493818897637796
 20
2.367216535433071
 30
0.0
 10
-0.9493818897637796
 20
2.367216535433071
 30
0.0
 10
-0.9493818897637796
 20
2.371771653543307
 30
0.0
 10
-0.9493818897637796
 20
2.371771653543307
 30
0.0
 10
-0.9493818897637796
 20
2.371771653543307
 30
0.0
 10
-0.9493818897637796
 20
2.371771653543307
 30
0.0
 10
-0.9431889763779527
 20
2.371771653543307
 30
0.0
 10
-0.9431889763779527
 20
2.371771653543307
 30
0.0
 10
-0.9431889763779527
 20
2.371771653543307
 30
0.0
 10
-0.9410236220472441
 20
2.371771653543307
 30
0.0
 10
-0.9396614173228347
 20
2.371909448818898
 30
0.0
 10
-0.9390787401574804
 20
2.372188976377953
 30
0.0
 10
-0.9390787401574804
 20
2.372188976377953
 30
0.0
 10
-0.9385236220472442
 20
2.372464566929134
 30
0.0
 10
-0.9380787401574804
 20
2.372937007874016
 30
0.0
 10
-0.937744094488189
 20
2.373661417322835
 30
0.0
 10
-0.937744094488189
 20
2.373661417322835
 30
0.0
 10
-0.9374133858267717
 20
2.374354330708662
 30
0.0
 10
-0.937244094488189
 20
2.375661417322835
 30
0.0
 10
-0.937244094488189
 20
2.377547244094489
 30
0.0
 10
-0.937244094488189
 20
2.377547244094489
 30
0.0
 10
-0.937244094488189
 20
2.377547244094489
 30
0.0
 10
-0.937244094488189
 20
2.416602362204725
 30
0.0
 10
-0.937244094488189
 20
2.416602362204725
 30
0.0
 10
-0.937244094488189
 20
2.416602362204725
 30
0.0
 10
-0.937244094488189
 20
2.416602362204725
 30
0.0
 10
-0.9493818897637796
 20
2.416602362204725
 30
0.0
 10
-0.9493818897637796
 20
2.416602362204725
 30
0.0
 10
-0.9493818897637796
 20
2.416602362204725
 30
0.0
 10
-0.9493818897637796
 20
2.416602362204725
 30
0.0
 10
-0.9493818897637796
 20
2.421188976377953
 30
0.0
 10
-0.9493818897637796
 20
2.421188976377953
 30
0.0
 10
-0.9493818897637796
 20
2.421188976377953
 30
0.0
 10
-0.9462716535433071
 20
2.421547244094488
 30
0.0
 10
-0.9425787401574803
 20
2.422326771653543
 30
0.0
 10
-0.9382165354330709
 20
2.423464566929134
 30
0.0
 10
-0.9382165354330709
 20
2.423464566929134
 30
0.0
 10
-0.9355787401574803
 20
2.424157480314961
 30
0.0
 10
-0.9340511811023623
 20
2.424799212598425
 30
0.0
 10
-0.9336614173228347
 20
2.425354330708661
 30
0.0
 10
-0.9336614173228347
 20
2.425354330708661
 30
0.0
 10
-0.9332992125984252
 20
2.425937007874016
 30
0.0
 10
-0.9327992125984252
 20
2.426216535433071
 30
0.0
 10
-0.9322165354330709
 20
2.426216535433071
 30
0.0
 10
-0.9322165354330709
 20
2.426216535433071
 30
0.0
 10
-0.9322165354330709
 20
2.426216535433071
 30
0.0
 10
-0.9271614173228346
 20
2.426216535433071
 30
0.0
 10
-0.9271614173228346
 20
2.426216535433071
 30
0.0
  0
SPLINE
  5
38
330
1F
100
AcDbEntity
  8
LAYER_1
 62
   250
100
AcDbSpline
210
0.0
220
0.0
230
1.0
 70
    11
 71
     3
 72
    20
 73
    16
 74
     0
 42
0.0000000001
 43
0.0000000001
 40
0.0
 40
0.0
 40
0.0
 40
0.0
 40
0.25
 40
0.25
 40
0.25
 40
0.25
 40
0.5
 40
0.5
 40
0.5
 40
0.5
 40
0.75
 40
0.75
 40
0.75
 40
0.75
 40
1.0
 40
1.0
 40
1.0
 40
1.0
 10
-0.848968503937008
 20
2.427271653543307
 30
0.0
 10
-0.848968503937008
 20
2.427271653543307
 30
0.0
 10
-0.9246614173228347
 20
2.309854330708661
 30
0.0
 10
-0.9246614173228347
 20
2.309854330708661
 30
0.0
 10
-0.9246614173228347
 20
2.309854330708661
 30
0.0
 10
-0.9246614173228347
 20
2.309854330708661
 30
0.0
 10
-0.9343267716535434
 20
2.309854330708661
 30
0.0
 10
-0.9343267716535434
 20
2.309854330708661
 30
0.0
 10
-0.9343267716535434
 20
2.309854330708661
 30
0.0
 10
-0.9343267716535434
 20
2.309854330708661
 30
0.0
 10
-0.8587992125984252
 20
2.427271653543307
 30
0.0
 10
-0.8587992125984252
 20
2.427271653543307
 30
0.0
 10
-0.8587992125984252
 20
2.427271653543307
 30
0.0
 10
-0.8587992125984252
 20
2.427271653543307
 30
0.0
 10
-0.848968503937008
 20
2.427271653543307
 30
0.0
 10
-0.848968503937008
 20
2.427271653543307
 30
0.0
  0
SPLINE
  5
39
330
1F
100
AcDbEntity
  8
LAYER_1
 62
   250
100
AcDbSpline
210
0.0
220
0.0
230
1.0
 70
    11
 71
     3
 72
   120
 73
   116
 74
     0
 42
0.0000000001
 43
0.0000000001
 40
0.0
 40
0.0
 40
0.0
 40
0.0
 40
0.0344827586206897
 40
0.0344827586206897
 40
0.0344827586206897
 40
0.0344827586206897
 40
0.0689655172413793
 40
0.0689655172413793
 40
0.0689655172413793
 40
0.0689655172413793
 40
0.103448275862069
 40
0.103448275862069
 40
0.103448275862069
 40
0.103448275862069
 40
0.1379310344827586
 40
0.1379310344827586
 40
0.1379310344827586
 40
0.1379310344827586
 40
0.1724137931034483
 40
0.1724137931034483
 40
0.1724137931034483
 40
0.1724137931034483
 40
0.206896551724138
 40
0.206896551724138
 40
0.206896551724138
 40
0.206896551724138
 40
0.2413793103448276
 40
0.2413793103448276
 40
0.2413793103448276
 40
0.2413793103448276
 40
0.2758620689655173
 40
0.2758620689655173
 40
0.2758620689655173
 40
0.2758620689655173
 40
0.310344827586207
 40
0.310344827586207
 40
0.310344827586207
 40
0.310344827586207
 40
0.3448275862068966
 40
0.3448275862068966
 40
0.3448275862068966
 40
0.3448275862068966
 40
0.3793103448275863
 40
0.3793103448275863
 40
0.3793103448275863
 40
0.3793103448275863
 40
0.413793103448276
 40
0.413793103448276
 40
0.413793103448276
 40
0.413793103448276
 40
0.4482758620689656
 40
0.4482758620689656
 40
0.4482758620689656
 40
0.4482758620689656
 40
0.4827586206896553
 40
0.4827586206896553
 40
0.4827586206896553
 40
0.4827586206896553
 40
0.517241379310345
 40
0.517241379310345
 40
0.517241379310345
 40
0.517241379310345
 40
0.5517241379310346
 40
0.5517241379310346
 40
0.5517241379310346
 40
0.5517241379310346
 40
0.5862068965517242
 40
0.5862068965517242
 40
0.5862068965517242
 40
0.5862068965517242
 40
0.6206896551724138
 40
0.6206896551724138
 40
0.6206896551724138
 40
0.6206896551724138
 40
0.6551724137931034
 40
0.6551724137931034
 40
0.6551724137931034
 40
0.6551724137931034
 40
0.689655172413793
 40
0.689655172413793
 40
0.689655172413793
 40
0.689655172413793
 40
0.7241379310344827
 40
0.7241379310344827
 40
0.7241379310344827
 40
0.7241379310344827
 40
0.7586206896551723
 40
0.7586206896551723
 40
0.7586206896551723
 40
0.7586206896551723
 40
0.7931034482758619
 40
0.7931034482758619
 40
0.7931034482758619
 40
0.7931034482758619
 40
0.8275862068965515
 40
0.8275862068965515
 40
0.8275862068965515
 40
0.8275862068965515
 40
0.8620689655172411
 40
0.8620689655172411
 40
0.8620689655172411
 40
0.8620689655172411
 40
0.8965517241379307
 40
0.8965517241379307
 40
0.8965517241379307
 40
0.8965517241379307
 40
0.9310344827586203
 40
0.9310344827586203
 40
0.9310344827586203
 40
0.9310344827586203
 40
0.9655172413793099
 40
0.9655172413793099
 40
0.9655172413793099
 40
0.9655172413793099
 40
1.0
 40
1.0
 40
1.0
 40
1.0
 10
-0.8673582677165355
 20
2.348106299212599
 30
0.0
 10
-0.8673582677165355
 20
2.348106299212599
 30
0.0
 10
-0.8738582677165355
 20
2.347354330708662
 30
0.0
 10
-0.8738582677165355
 20
2.347354330708662
 30
0.0
 10
-0.8738582677165355
 20
2.347354330708662
 30
0.0
 10
-0.8741889763779528
 20
2.349688976377953
 30
0.0
 10
-0.8743582677165355
 20
2.35151968503937
 30
0.0
 10
-0.8743582677165355
 20
2.352826771653544
 30
0.0
 10
-0.8743582677165355
 20
2.352826771653544
 30
0.0
 10
-0.8743582677165355
 20
2.35601968503937
 30
0.0
 10
-0.8733582677165355
 20
2.359106299212598
 30
0.0
 10
-0.8713307086614174
 20
2.362106299212599
 30
0.0
 10
-0.8713307086614174
 20
2.362106299212599
 30
0.0
 10
-0.8693307086614174
 20
2.365074803149606
 30
0.0
 10
-0.8663858267716535
 20
2.367464566929134
 30
0.0
 10
-0.8625236220472441
 20
2.369271653543307
 30
0.0
 10
-0.8625236220472441
 20
2.369271653543307
 30
0.0
 10
-0.8586338582677165
 20
2.371047244094488
 30
0.0
 10
-0.8541614173228347
 20
2.371937007874016
 30
0.0
 10
-0.8491338582677166
 20
2.371937007874016
 30
0.0
 10
-0.8491338582677166
 20
2.371937007874016
 30
0.0
 10
-0.8418031496062992
 20
2.371937007874016
 30
0.0
 10
-0.8360236220472441
 20
2.370188976377953
 30
0.0
 10
-0.8318031496062992
 20
2.366688976377953
 30
0.0
 10
-0.8318031496062992
 20
2.366688976377953
 30
0.0
 10
-0.8275511811023623
 20
2.363188976377953
 30
0.0
 10
-0.8254409448818898
 20
2.358854330708661
 30
0.0
 10
-0.8254409448818898
 20
2.353633858267717
 30
0.0
 10
-0.8254409448818898
 20
2.353633858267717
 30
0.0
 10
-0.8254409448818898
 20
2.350492125984252
 30
0.0
 10
-0.8262165354330709
 20
2.347409448818898
 30
0.0
 10
-0.8277755905511811
 20
2.344437007874016
 30
0.0
 10
-0.8277755905511811
 20
2.344437007874016
 30
0.0
 10
-0.8293031496062993
 20
2.341464566929134
 30
0.0
 10
-0.8318858267716536
 20
2.33857874015748
 30
0.0
 10
-0.8354409448818898
 20
2.335799212598425
 30
0.0
 10
-0.8354409448818898
 20
2.335799212598425
 30
0.0
 10
-0.8390236220472441
 20
2.333047244094488
 30
0.0
 10
-0.8476338582677165
 20
2.32751968503937
 30
0.0
 10
-0.8612440944881891
 20
2.319216535433071
 30
0.0
 10
-0.8612440944881891
 20
2.319216535433071
 30
0.0
 10
-0.8612440944881891
 20
2.319216535433071
 30
0.0
 10
-0.8386338582677165
 20
2.319216535433071
 30
0.0
 10
-0.8386338582677165
 20
2.319216535433071
 30
0.0
 10
-0.8386338582677165
 20
2.319216535433071
 30
0.0
 10
-0.8360236220472441
 20
2.319216535433071
 30
0.0
 10
-0.8343858267716536
 20
2.319354330708662
 30
0.0
 10
-0.8336889763779528
 20
2.319606299212599
 30
0.0
 10
-0.8336889763779528
 20
2.319606299212599
 30
0.0
 10
-0.8330236220472441
 20
2.31988188976378
 30
0.0
 10
-0.832496062992126
 20
2.320354330708661
 30
0.0
 10
-0.8321614173228347
 20
2.320992125984252
 30
0.0
 10
-0.8321614173228347
 20
2.320992125984252
 30
0.0
 10
-0.8318031496062992
 20
2.321661417322835
 30
0.0
 10
-0.8313307086614173
 20
2.323464566929134
 30
0.0
 10
-0.830744094488189
 20
2.326464566929134
 30
0.0
 10
-0.830744094488189
 20
2.326464566929134
 30
0.0
 10
-0.830744094488189
 20
2.326464566929134
 30
0.0
 10
-0.8246338582677165
 20
2.326464566929134
 30
0.0
 10
-0.8246338582677165
 20
2.326464566929134
 30
0.0
 10
-0.8246338582677165
 20
2.326464566929134
 30
0.0
 10
-0.8246338582677165
 20
2.326464566929134
 30
0.0
 10
-0.8281338582677166
 20
2.309771653543307
 30
0.0
 10
-0.8281338582677166
 20
2.309771653543307
 30
0.0
 10
-0.8281338582677166
 20
2.309771653543307
 30
0.0
 10
-0.8281338582677166
 20
2.309771653543307
 30
0.0
 10
-0.8329409448818897
 20
2.309771653543307
 30
0.0
 10
-0.8329409448818897
 20
2.309771653543307
 30
0.0
 10
-0.8329409448818897
 20
2.309771653543307
 30
0.0
 10
-0.8329409448818897
 20
2.309771653543307
 30
0.0
 10
-0.833496062992126
 20
2.31188188976378
 30
0.0
 10
-0.833496062992126
 20
2.31188188976378
 30
0.0
 10
-0.833496062992126
 20
2.31188188976378
 30
0.0
 10
-0.833496062992126
 20
2.31188188976378
 30
0.0
 10
-0.8755787401574804
 20
2.31188188976378
 30
0.0
 10
-0.8755787401574804
 20
2.31188188976378
 30
0.0
 10
-0.8755787401574804
 20
2.31188188976378
 30
0.0
 10
-0.8755787401574804
 20
2.31188188976378
 30
0.0
 10
-0.8755787401574804
 20
2.316047244094488
 30
0.0
 10
-0.8755787401574804
 20
2.316047244094488
 30
0.0
 10
-0.8755787401574804
 20
2.316047244094488
 30
0.0
 10
-0.8755787401574804
 20
2.316047244094488
 30
0.0
 10
-0.8672716535433072
 20
2.321492125984252
 30
0.0
 10
-0.8672716535433072
 20
2.321492125984252
 30
0.0
 10
-0.8672716535433072
 20
2.321492125984252
 30
0.0
 10
-0.8578858267716536
 20
2.327578740157481
 30
0.0
 10
-0.8511062992125985
 20
2.33238188976378
 30
0.0
 10
-0.846968503937008
 20
2.335964566929134
 30
0.0
 10
-0.846968503937008
 20
2.335964566929134
 30
0.0
 10
-0.8428307086614174
 20
2.339547244094488
 30
0.0
 10
-0.8399409448818898
 20
2.342854330708661
 30
0.0
 10
-0.8383031496062993
 20
2.345909448818898
 30
0.0
 10
-0.8383031496062993
 20
2.345909448818898
 30
0.0
 10
-0.8371614173228347
 20
2.348074803149606
 30
0.0
 10
-0.8365787401574804
 20
2.350437007874016
 30
0.0
 10
-0.8365787401574804
 20
2.352992125984252
 30
0.0
 10
-0.8365787401574804
 20
2.352992125984252
 30
0.0
 10
-0.8365787401574804
 20
2.356826771653544
 30
0.0
 10
-0.8379133858267717
 20
2.359964566929134
 30
0.0
 10
-0.8405511811023623
 20
2.36238188976378
 30
0.0
 10
-0.8405511811023623
 20
2.36238188976378
 30
0.0
 10
-0.8431614173228347
 20
2.364799212598425
 30
0.0
 10
-0.846744094488189
 20
2.365992125984252
 30
0.0
 10
-0.8512440944881891
 20
2.365992125984252
 30
0.0
 10
-0.8512440944881891
 20
2.365992125984252
 30
0.0
 10
-0.8561889763779528
 20
2.365992125984252
 30
0.0
 10
-0.8601338582677166
 20
2.364661417322835
 30
0.0
 10
-0.8631338582677166
 20
2.361964566929134
 30
0.0
 10
-0.8631338582677166
 20
2.361964566929134
 30
0.0
 10
-0.8661062992125984
 20
2.359299212598425
 30
0.0
 10
-0.8676062992125985
 20
2.35601968503937
 30
0.0
 10
-0.8676062992125985
 20
2.352161417322835
 30
0.0
 10
-0.8676062992125985
 20
2.352161417322835
 30
0.0
 10
-0.8676062992125985
 20
2.351354330708662
 30
0.0
 10
-0.8675236220472441
 20
2.349992125984252
 30
0.0
 10
-0.8673582677165355
 20
2.348106299212599
 30
0.0
  0
SPLINE
  5
3A
330
1F
100
AcDbEntity
  8
LAYER_1
 62
   250
100
AcDbSpline
210
0.0
220
0.0
230
1.0
 70
    11
 71
     3
 72
    60
 73
    56
 74
     0
 42
0.0000000001
 43
0.0000000001
 40
0.0
 40
0.0
 40
0.0
 40
0.0
 40
0.0714285714285714
 40
0.0714285714285714
 40
0.0714285714285714
 40
0.0714285714285714
 40
0.1428571428571429
 40
0.1428571428571429
 40
0.1428571428571429
 40
0.1428571428571429
 40
0.2142857142857143
 40
0.2142857142857143
 40
0.2142857142857143
 40
0.2142857142857143
 40
0.2857142857142857
 40
0.2857142857142857
 40
0.2857142857142857
 40
0.2857142857142857
 40
0.3571428571428571
 40
0.3571428571428571
 40
0.3571428571428571
 40
0.3571428571428571
 40
0.4285714285714285
 40
0.4285714285714285
 40
0.4285714285714285
 40
0.4285714285714285
 40
0.4999999999999999
 40
0.4999999999999999
 40
0.4999999999999999
 40
0.4999999999999999
 40
0.5714285714285713
 40
0.5714285714285713
 40
0.5714285714285713
 40
0.5714285714285713
 40
0.6428571428571427
 40
0.6428571428571427
 40
0.6428571428571427
 40
0.6428571428571427
 40
0.7142857142857141
 40
0.7142857142857141
 40
0.7142857142857141
 40
0.7142857142857141
 40
0.7857142857142855
 40
0.7857142857142855
 40
0.7857142857142855
 40
0.7857142857142855
 40
0.8571428571428569
 40
0.8571428571428569
 40
0.8571428571428569
 40
0.8571428571428569
 40
0.9285714285714283
 40
0.9285714285714283
 40
0.9285714285714283
 40
0.9285714285714283
 40
1.0
 40
1.0
 40
1.0
 40
1.0
 10
-0.8040511811023623
 20
2.383244094488189
 30
0.0
 10
-0.8040511811023623
 20
2.383244094488189
 30
0.0
 10
-0.8084409448818898
 20
2.388633858267717
 30
0.0
 10
-0.8084409448818898
 20
2.388633858267717
 30
0.0
 10
-0.8084409448818898
 20
2.388633858267717
 30
0.0
 10
-0.7973267716535434
 20
2.397688976377953
 30
0.0
 10
-0.7917440944881891
 20
2.405244094488189
 30
0.0
 10
-0.7917440944881891
 20
2.411326771653544
 30
0.0
 10
-0.7917440944881891
 20
2.411326771653544
 30
0.0
 10
-0.7917440944881891
 20
2.41201968503937
 30
0.0
 10
-0.7917992125984252
 20
2.412909448818898
 30
0.0
 10
-0.7919133858267717
 20
2.413937007874016
 30
0.0
 10
-0.7919133858267717
 20
2.413937007874016
 30
0.0
 10
-0.7928267716535433
 20
2.413547244094488
 30
0.0
 10
-0.7937440944881891
 20
2.413244094488189
 30
0.0
 10
-0.7946062992125985
 20
2.413047244094488
 30
0.0
 10
-0.7946062992125985
 20
2.413047244094488
 30
0.0
 10
-0.7954685039370079
 20
2.412826771653543
 30
0.0
 10
-0.7962716535433071
 20
2.412716535433071
 30
0.0
 10
-0.7970511811023623
 20
2.412716535433071
 30
0.0
 10
-0.7970511811023623
 20
2.412716535433071
 30
0.0
 10
-0.7996614173228347
 20
2.412716535433071
 30
0.0
 10
-0.801744094488189
 20
2.413547244094488
 30
0.0
 10
-0.8032992125984252
 20
2.415244094488189
 30
0.0
 10
-0.8032992125984252
 20
2.415244094488189
 30
0.0
 10
-0.8048858267716536
 20
2.416909448818898
 30
0.0
 10
-0.8056614173228347
 20
2.419047244094488
 30
0.0
 10
-0.8056614173228347
 20
2.421661417322835
 30
0.0
 10
-0.8056614173228347
 20
2.421661417322835
 30
0.0
 10
-0.8056614173228347
 20
2.424216535433071
 30
0.0
 10
-0.8047165354330709
 20
2.426437007874016
 30
0.0
 10
-0.8028267716535433
 20
2.428326771653544
 30
0.0
 10
-0.8028267716535433
 20
2.428326771653544
 30
0.0
 10
-0.8009133858267716
 20
2.430244094488189
 30
0.0
 10
-0.7986338582677166
 20
2.431188976377953
 30
0.0
 10
-0.795996062992126
 20
2.431188976377953
 30
0.0
 10
-0.795996062992126
 20
2.431188976377953
 30
0.0
 10
-0.7922992125984252
 20
2.431188976377953
 30
0.0
 10
-0.7891338582677165
 20
2.429716535433071
 30
0.0
 10
-0.786496062992126
 20
2.426744094488189
 30
0.0
 10
-0.786496062992126
 20
2.426744094488189
 30
0.0
 10
-0.7838858267716535
 20
2.423799212598425
 30
0.0
 10
-0.7825511811023622
 20
2.419992125984252
 30
0.0
 10
-0.7825511811023622
 20
2.415326771653544
 30
0.0
 10
-0.7825511811023622
 20
2.415326771653544
 30
0.0
 10
-0.7825511811023622
 20
2.412271653543307
 30
0.0
 10
-0.7831889763779528
 20
2.409074803149606
 30
0.0
 10
-0.7844409448818898
 20
2.405744094488189
 30
0.0
 10
-0.7844409448818898
 20
2.405744094488189
 30
0.0
 10
-0.7856889763779528
 20
2.402409448818898
 30
0.0
 10
-0.787496062992126
 20
2.399326771653544
 30
0.0
 10
-0.7898858267716535
 20
2.396464566929134
 30
0.0
 10
-0.7898858267716535
 20
2.396464566929134
 30
0.0
 10
-0.7922716535433071
 20
2.393633858267717
 30
0.0
 10
-0.796996062992126
 20
2.389216535433071
 30
0.0
 10
-0.8040511811023623
 20
2.383244094488189
 30
0.0
  0
SPLINE
  5
3B
330
1F
100
AcDbEntity
  8
LAYER_1
 62
   250
100
AcDbSpline
210
0.0
220
0.0
230
1.0
 70
    11
 71
     3
 72
    60
 73
    56
 74
     0
 42
0.0000000001
 43
0.0000000001
 40
0.0
 40
0.0
 40
0.0
 40
0.0
 40
0.0714285714285714
 40
0.0714285714285714
 40
0.0714285714285714
 40
0.0714285714285714
 40
0.1428571428571429
 40
0.1428571428571429
 40
0.1428571428571429
 40
0.1428571428571429
 40
0.2142857142857143
 40
0.2142857142857143
 40
0.2142857142857143
 40
0.2142857142857143
 40
0.2857142857142857
 40
0.2857142857142857
 40
0.2857142857142857
 40
0.2857142857142857
 40
0.3571428571428571
 40
0.3571428571428571
 40
0.3571428571428571
 40
0.3571428571428571
 40
0.4285714285714285
 40
0.4285714285714285
 40
0.4285714285714285
 40
0.4285714285714285
 40
0.4999999999999999
 40
0.4999999999999999
 40
0.4999999999999999
 40
0.4999999999999999
 40
0.5714285714285713
 40
0.5714285714285713
 40
0.5714285714285713
 40
0.5714285714285713
 40
0.6428571428571427
 40
0.6428571428571427
 40
0.6428571428571427
 40
0.6428571428571427
 40
0.7142857142857141
 40
0.7142857142857141
 40
0.7142857142857141
 40
0.7142857142857141
 40
0.7857142857142855
 40
0.7857142857142855
 40
0.7857142857142855
 40
0.7857142857142855
 40
0.8571428571428569
 40
0.8571428571428569
 40
0.8571428571428569
 40
0.8571428571428569
 40
0.9285714285714283
 40
0.9285714285714283
 40
0.9285714285714283
 40
0.9285714285714283
 40
1.0
 40
1.0
 40
1.0
 40
1.0
 10
-0.774996062992126
 20
2.383244094488189
 30
0.0
 10
-0.774996062992126
 20
2.383244094488189
 30
0.0
 10
-0.7793858267716536
 20
2.388633858267717
 30
0.0
 10
-0.7793858267716536
 20
2.388633858267717
 30
0.0
 10
-0.7793858267716536
 20
2.388633858267717
 30
0.0
 10
-0.7682716535433071
 20
2.397688976377953
 30
0.0
 10
-0.7626889763779527
 20
2.405244094488189
 30
0.0
 10
-0.7626889763779527
 20
2.411326771653544
 30
0.0
 10
-0.7626889763779527
 20
2.411326771653544
 30
0.0
 10
-0.7626889763779527
 20
2.41201968503937
 30
0.0
 10
-0.762744094488189
 20
2.412909448818898
 30
0.0
 10
-0.7628582677165354
 20
2.413937007874016
 30
0.0
 10
-0.7628582677165354
 20
2.413937007874016
 30
0.0
 10
-0.7637716535433071
 20
2.413547244094488
 30
0.0
 10
-0.7646889763779527
 20
2.413244094488189
 30
0.0
 10
-0.7655511811023622
 20
2.413047244094488
 30
0.0
 10
-0.7655511811023622
 20
2.413047244094488
 30
0.0
 10
-0.7664133858267717
 20
2.412826771653543
 30
0.0
 10
-0.767244094488189
 20
2.412716535433071
 30
0.0
 10
-0.7680787401574803
 20
2.412716535433071
 30
0.0
 10
-0.7680787401574803
 20
2.412716535433071
 30
0.0
 10
-0.7706338582677166
 20
2.412716535433071
 30
0.0
 10
-0.7726889763779528
 20
2.413547244094488
 30
0.0
 10
-0.774244094488189
 20
2.415244094488189
 30
0.0
 10
-0.774244094488189
 20
2.415244094488189
 30
0.0
 10
-0.7758267716535433
 20
2.416909448818898
 30
0.0
 10
-0.7766062992125985
 20
2.419047244094488
 30
0.0
 10
-0.7766062992125985
 20
2.421661417322835
 30
0.0
 10
-0.7766062992125985
 20
2.421661417322835
 30
0.0
 10
-0.7766062992125985
 20
2.424216535433071
 30
0.0
 10
-0.7756614173228347
 20
2.426437007874016
 30
0.0
 10
-0.7737716535433071
 20
2.428326771653544
 30
0.0
 10
-0.7737716535433071
 20
2.428326771653544
 30
0.0
 10
-0.7718858267716536
 20
2.430244094488189
 30
0.0
 10
-0.7695787401574803
 20
2.431188976377953
 30
0.0
 10
-0.7669409448818898
 20
2.431188976377953
 30
0.0
 10
-0.7669409448818898
 20
2.431188976377953
 30
0.0
 10
-0.763244094488189
 20
2.431188976377953
 30
0.0
 10
-0.7600787401574803
 20
2.429716535433071
 30
0.0
 10
-0.7574409448818898
 20
2.426744094488189
 30
0.0
 10
-0.7574409448818898
 20
2.426744094488189
 30
0.0
 10
-0.7548307086614173
 20
2.423799212598425
 30
0.0
 10
-0.753496062992126
 20
2.419992125984252
 30
0.0
 10
-0.753496062992126
 20
2.415326771653544
 30
0.0
 10
-0.753496062992126
 20
2.415326771653544
 30
0.0
 10
-0.753496062992126
 20
2.412271653543307
 30
0.0
 10
-0.7541338582677166
 20
2.409074803149606
 30
0.0
 10
-0.7553858267716536
 20
2.405744094488189
 30
0.0
 10
-0.7553858267716536
 20
2.405744094488189
 30
0.0
 10
-0.7566338582677166
 20
2.402409448818898
 30
0.0
 10
-0.7584409448818898
 20
2.399326771653544
 30
0.0
 10
-0.7608267716535433
 20
2.396464566929134
 30
0.0
 10
-0.7608267716535433
 20
2.396464566929134
 30
0.0
 10
-0.7632165354330709
 20
2.393633858267717
 30
0.0
 10
-0.7679409448818898
 20
2.389216535433071
 30
0.0
 10
-0.774996062992126
 20
2.383244094488189
 30
0.0
  0
SPLINE
  5
3C
330
1F
100
AcDbEntity
  8
LAYER_1
 62
   250
100
AcDbSpline
210
0.0
220
0.0
230
1.0
 70
    11
 71
     3
 72
   204
 73
   200
 74
     0
 42
0.0000000001
 43
0.0000000001
 40
0.0
 40
0.0
 40
0.0
 40
0.0
 40
0.02
 40
0.02
 40
0.02
 40
0.02
 40
0.04
 40
0.04
 40
0.04
 40
0.04
 40
0.06
 40
0.06
 40
0.06
 40
0.06
 40
0.08
 40
0.08
 40
0.08
 40
0.08
 40
0.1
 40
0.1
 40
0.1
 40
0.1
 40
0.12
 40
0.12
 40
0.12
 40
0.12
 40
0.14
 40
0.14
 40
0.14
 40
0.14
 40
0.16
 40
0.16
 40
0.16
 40
0.16
 40
0.18
 40
0.18
 40
0.18
 40
0.18
 40
0.2
 40
0.2
 40
0.2
 40
0.2
 40
0.22
 40
0.22
 40
0.22
 40
0.22
 40
0.24
 40
0.24
 40
0.24
 40
0.24
 40
0.26
 40
0.26
 40
0.26
 40
0.26
 40
0.28
 40
0.28
 40
0.28
 40
0.28
 40
0.3
 40
0.3
 40
0.3
 40
0.3
 40
0.32
 40
0.32
 40
0.32
 40
0.32
 40
0.34
 40
0.34
 40
0.34
 40
0.34
 40
0.36
 40
0.36
 40
0.36
 40
0.36
 40
0.3800000000000001
 40
0.3800000000000001
 40
0.3800000000000001
 40
0.3800000000000001
 40
0.4000000000000001
 40
0.4000000000000001
 40
0.4000000000000001
 40
0.4000000000000001
 40
0.4200000000000001
 40
0.4200000000000001
 40
0.4200000000000001
 40
0.4200000000000001
 40
0.4400000000000001
 40
0.4400000000000001
 40
0.4400000000000001
 40
0.4400000000000001
 40
0.4600000000000001
 40
0.4600000000000001
 40
0.4600000000000001
 40
0.4600000000000001
 40
0.4800000000000002
 40
0.4800000000000002
 40
0.4800000000000002
 40
0.4800000000000002
 40
0.5000000000000001
 40
0.5000000000000001
 40
0.5000000000000001
 40
0.5000000000000001
 40
0.5200000000000001
 40
0.5200000000000001
 40
0.5200000000000001
 40
0.5200000000000001
 40
0.5400000000000002
 40
0.5400000000000002
 40
0.5400000000000002
 40
0.5400000000000002
 40
0.5600000000000002
 40
0.5600000000000002
 40
0.5600000000000002
 40
0.5600000000000002
 40
0.5800000000000002
 40
0.5800000000000002
 40
0.5800000000000002
 40
0.5800000000000002
 40
0.6000000000000002
 40
0.6000000000000002
 40
0.6000000000000002
 40
0.6000000000000002
 40
0.6200000000000002
 40
0.6200000000000002
 40
0.6200000000000002
 40
0.6200000000000002
 40
0.6400000000000002
 40
0.6400000000000002
 40
0.6400000000000002
 40
0.6400000000000002
 40
0.6600000000000003
 40
0.6600000000000003
 40
0.6600000000000003
 40
0.6600000000000003
 40
0.6800000000000003
 40
0.6800000000000003
 40
0.6800000000000003
 40
0.6800000000000003
 40
0.7000000000000003
 40
0.7000000000000003
 40
0.7000000000000003
 40
0.7000000000000003
 40
0.7200000000000003
 40
0.7200000000000003
 40
0.7200000000000003
 40
0.7200000000000003
 40
0.7400000000000003
 40
0.7400000000000003
 40
0.7400000000000003
 40
0.7400000000000003
 40
0.7600000000000003
 40
0.7600000000000003
 40
0.7600000000000003
 40
0.7600000000000003
 40
0.7800000000000004
 40
0.7800000000000004
 40
0.7800000000000004
 40
0.7800000000000004
 40
0.8000000000000004
 40
0.8000000000000004
 40
0.8000000000000004
 40
0.8000000000000004
 40
0.8200000000000004
 40
0.8200000000000004
 40
0.8200000000000004
 40
0.8200000000000004
 40
0.8400000000000004
 40
0.8400000000000004
 40
0.8400000000000004
 40
0.8400000000000004
 40
0.8600000000000004
 40
0.8600000000000004
 40
0.8600000000000004
 40
0.8600000000000004
 40
0.8800000000000005
 40
0.8800000000000005
 40
0.8800000000000005
 40
0.8800000000000005
 40
0.9000000000000005
 40
0.9000000000000005
 40
0.9000000000000005
 40
0.9000000000000005
 40
0.9200000000000005
 40
0.9200000000000005
 40
0.9200000000000005
 40
0.9200000000000005
 40
0.9400000000000005
 40
0.9400000000000005
 40
0.9400000000000005
 40
0.9400000000000005
 40
0.9600000000000005
 40
0.9600000000000005
 40
0.9600000000000005
 40
0.9600000000000005
 40
0.9800000000000005
 40
0.9800000000000005
 40
0.9800000000000005
 40
0.9800000000000005
 40
1.0
 40
1.0
 40
1.0
 40
1.0
 10
-0.744496062992126
 20
2.390326771653543
 30
0.0
 10
-0.744496062992126
 20
2.390326771653543
 30
0.0
 10
-0.7035511811023623
 20
2.390326771653543
 30
0.0
 10
-0.7035511811023623
 20
2.390326771653543
 30
0.0
 10
-0.7035511811023623
 20
2.390326771653543
 30
0.0
 10
-0.7035511811023623
 20
2.390326771653543
 30
0.0
 10
-0.7035511811023623
 20
2.383492125984252
 30
0.0
 10
-0.7035511811023623
 20
2.383492125984252
 30
0.0
 10
-0.7035511811023623
 20
2.383492125984252
 30
0.0
 10
-0.7035511811023623
 20
2.383492125984252
 30
0.0
 10
-0.7063858267716536
 20
2.383492125984252
 30
0.0
 10
-0.7063858267716536
 20
2.383492125984252
 30
0.0
 10
-0.7063858267716536
 20
2.383492125984252
 30
0.0
 10
-0.7080236220472441
 20
2.383492125984252
 30
0.0
 10
-0.7095236220472442
 20
2.383299212598425
 30
0.0
 10
-0.7108858267716536
 20
2.382937007874016
 30
0.0
 10
-0.7108858267716536
 20
2.382937007874016
 30
0.0
 10
-0.7116889763779528
 20
2.382716535433071
 30
0.0
 10
-0.7123582677165354
 20
2.382299212598425
 30
0.0
 10
-0.7128582677165355
 20
2.381661417322835
 30
0.0
 10
-0.7128582677165355
 20
2.381661417322835
 30
0.0
 10
-0.7133858267716535
 20
2.381047244094488
 30
0.0
 10
-0.7136338582677165
 20
2.380464566929134
 30
0.0
 10
-0.7136338582677165
 20
2.379909448818898
 30
0.0
 10
-0.7136338582677165
 20
2.379909448818898
 30
0.0
 10
-0.7136338582677165
 20
2.378661417322835
 30
0.0
 10
-0.7126062992125984
 20
2.376799212598425
 30
0.0
 10
-0.7105511811023623
 20
2.374299212598425
 30
0.0
 10
-0.7105511811023623
 20
2.374299212598425
 30
0.0
 10
-0.7105511811023623
 20
2.374299212598425
 30
0.0
 10
-0.6989133858267717
 20
2.359661417322835
 30
0.0
 10
-0.6989133858267717
 20
2.359661417322835
 30
0.0
 10
-0.6989133858267717
 20
2.359661417322835
 30
0.0
 10
-0.6989133858267717
 20
2.359661417322835
 30
0.0
 10
-0.6853307086614173
 20
2.374299212598425
 30
0.0
 10
-0.6853307086614173
 20
2.374299212598425
 30
0.0
 10
-0.6853307086614173
 20
2.374299212598425
 30
0.0
 10
-0.6828307086614174
 20
2.37701968503937
 30
0.0
 10
-0.6815787401574803
 20
2.379047244094488
 30
0.0
 10
-0.6815787401574803
 20
2.380409448818898
 30
0.0
 10
-0.6815787401574803
 20
2.380409448818898
 30
0.0
 10
-0.6815787401574803
 20
2.38138188976378
 30
0.0
 10
-0.6820236220472441
 20
2.382133858267717
 30
0.0
 10
-0.6828858267716536
 20
2.382688976377953
 30
0.0
 10
-0.6828858267716536
 20
2.382688976377953
 30
0.0
 10
-0.683748031496063
 20
2.383216535433071
 30
0.0
 10
-0.6856062992125984
 20
2.383492125984252
 30
0.0
 10
-0.688496062992126
 20
2.383492125984252
 30
0.0
 10
-0.688496062992126
 20
2.383492125984252
 30
0.0
 10
-0.688496062992126
 20
2.383492125984252
 30
0.0
 10
-0.6915787401574803
 20
2.383492125984252
 30
0.0
 10
-0.6915787401574803
 20
2.383492125984252
 30
0.0
 10
-0.6915787401574803
 20
2.383492125984252
 30
0.0
 10
-0.6915787401574803
 20
2.383492125984252
 30
0.0
 10
-0.6915787401574803
 20
2.390326771653543
 30
0.0
 10
-0.6915787401574803
 20
2.390326771653543
 30
0.0
 10
-0.6915787401574803
 20
2.390326771653543
 30
0.0
 10
-0.6915787401574803
 20
2.390326771653543
 30
0.0
 10
-0.6568307086614174
 20
2.390326771653543
 30
0.0
 10
-0.6568307086614174
 20
2.390326771653543
 30
0.0
 10
-0.6568307086614174
 20
2.390326771653543
 30
0.0
 10
-0.6568307086614174
 20
2.390326771653543
 30
0.0
 10
-0.6568307086614174
 20
2.383492125984252
 30
0.0
 10
-0.6568307086614174
 20
2.383492125984252
 30
0.0
 10
-0.6568307086614174
 20
2.383492125984252
 30
0.0
 10
-0.660248031496063
 20
2.383326771653544
 30
0.0
 10
-0.6631929133858268
 20
2.382633858267717
 30
0.0
 10
-0.6656614173228347
 20
2.38138188976378
 30
0.0
 10
-0.6656614173228347
 20
2.38138188976378
 30
0.0
 10
-0.6681338582677165
 20
2.380133858267717
 30
0.0
 10
-0.6710511811023623
 20
2.377771653543307
 30
0.0
 10
-0.6744133858267717
 20
2.374299212598425
 30
0.0
 10
-0.6744133858267717
 20
2.374299212598425
 30
0.0
 10
-0.6744133858267717
 20
2.374299212598425
 30
0.0
 10
-0.6930511811023622
 20
2.354937007874016
 30
0.0
 10
-0.6930511811023622
 20
2.354937007874016
 30
0.0
 10
-0.6930511811023622
 20
2.354937007874016
 30
0.0
 10
-0.6930511811023622
 20
2.354937007874016
 30
0.0
 10
-0.6698582677165355
 20
2.328492125984252
 30
0.0
 10
-0.6698582677165355
 20
2.328492125984252
 30
0.0
 10
-0.6698582677165355
 20
2.328492125984252
 30
0.0
 10
-0.6698582677165355
 20
2.328492125984252
 30
0.0
 10
-0.6689685039370079
 20
2.327354330708662
 30
0.0
 10
-0.6689685039370079
 20
2.327354330708662
 30
0.0
 10
-0.6689685039370079
 20
2.327354330708662
 30
0.0
 10
-0.6666929133858268
 20
2.324409448818898
 30
0.0
 10
-0.6641338582677165
 20
2.322047244094488
 30
0.0
 10
-0.6613031496062992
 20
2.320271653543307
 30
0.0
 10
-0.6613031496062992
 20
2.320271653543307
 30
0.0
 10
-0.659748031496063
 20
2.319244094488189
 30
0.0
 10
-0.6573031496062992
 20
2.318688976377953
 30
0.0
 10
-0.653996062992126
 20
2.318633858267717
 30
0.0
 10
-0.653996062992126
 20
2.318633858267717
 30
0.0
 10
-0.653996062992126
 20
2.318633858267717
 30
0.0
 10
-0.653996062992126
 20
2.311799212598425
 30
0.0
 10
-0.653996062992126
 20
2.311799212598425
 30
0.0
 10
-0.653996062992126
 20
2.311799212598425
 30
0.0
 10
-0.653996062992126
 20
2.311799212598425
 30
0.0
 10
-0.6939409448818898
 20
2.311799212598425
 30
0.0
 10
-0.6939409448818898
 20
2.311799212598425
 30
0.0
 10
-0.6939409448818898
 20
2.311799212598425
 30
0.0
 10
-0.6939409448818898
 20
2.311799212598425
 30
0.0
 10
-0.6939409448818898
 20
2.318633858267717
 30
0.0
 10
-0.6939409448818898
 20
2.318633858267717
 30
0.0
 10
-0.6939409448818898
 20
2.318633858267717
 30
0.0
 10
-0.6939409448818898
 20
2.318633858267717
 30
0.0
 10
-0.6905236220472442
 20
2.318633858267717
 30
0.0
 10
-0.6905236220472442
 20
2.318633858267717
 30
0.0
 10
-0.6905236220472442
 20
2.318633858267717
 30
0.0
 10
-0.6879133858267716
 20
2.318633858267717
 30
0.0
 10
-0.6862755905511812
 20
2.318799212598425
 30
0.0
 10
-0.6855511811023622
 20
2.319133858267717
 30
0.0
 10
-0.6855511811023622
 20
2.319133858267717
 30
0.0
 10
-0.6843858267716536
 20
2.319661417322835
 30
0.0
 10
-0.6837755905511811
 20
2.32057874015748
 30
0.0
 10
-0.6837755905511811
 20
2.321881889763779
 30
0.0
 10
-0.6837755905511811
 20
2.321881889763779
 30
0.0
 10
-0.6837755905511811
 20
2.32307874015748
 30
0.0
 10
-0.6850787401574804
 20
2.325271653543307
 30
0.0
 10
-0.6876929133858268
 20
2.328492125984252
 30
0.0
 10
-0.6876929133858268
 20
2.328492125984252
 30
0.0
 10
-0.6876929133858268
 20
2.328492125984252
 30
0.0
 10
-0.702496062992126
 20
2.346633858267717
 30
0.0
 10
-0.702496062992126
 20
2.346633858267717
 30
0.0
 10
-0.702496062992126
 20
2.346633858267717
 30
0.0
 10
-0.702496062992126
 20
2.346633858267717
 30
0.0
 10
-0.7190236220472441
 20
2.328492125984252
 30
0.0
 10
-0.7190236220472441
 20
2.328492125984252
 30
0.0
 10
-0.7190236220472441
 20
2.328492125984252
 30
0.0
 10
-0.7190236220472441
 20
2.328492125984252
 30
0.0
 10
-0.7206338582677165
 20
2.32651968503937
 30
0.0
 10
-0.7206338582677165
 20
2.32651968503937
 30
0.0
 10
-0.7206338582677165
 20
2.32651968503937
 30
0.0
 10
-0.7206338582677165
 20
2.32651968503937
 30
0.0
 10
-0.7215236220472441
 20
2.325547244094488
 30
0.0
 10
-0.7215236220472441
 20
2.325547244094488
 30
0.0
 10
-0.7215236220472441
 20
2.325547244094488
 30
0.0
 10
-0.7228858267716536
 20
2.32407874015748
 30
0.0
 10
-0.7235787401574804
 20
2.322799212598425
 30
0.0
 10
-0.7235787401574804
 20
2.321661417322835
 30
0.0
 10
-0.7235787401574804
 20
2.321661417322835
 30
0.0
 10
-0.7235787401574804
 20
2.320606299212598
 30
0.0
 10
-0.7231614173228347
 20
2.319854330708662
 30
0.0
 10
-0.7223031496062993
 20
2.319354330708662
 30
0.0
 10
-0.7223031496062993
 20
2.319354330708662
 30
0.0
 10
-0.7214685039370079
 20
2.31888188976378
 30
0.0
 10
-0.7195787401574804
 20
2.318633858267717
 30
0.0
 10
-0.7166614173228347
 20
2.318633858267717
 30
0.0
 10
-0.7166614173228347
 20
2.318633858267717
 30
0.0
 10
-0.7166614173228347
 20
2.318633858267717
 30
0.0
 10
-0.7133858267716535
 20
2.318633858267717
 30
0.0
 10
-0.7133858267716535
 20
2.318633858267717
 30
0.0
 10
-0.7133858267716535
 20
2.318633858267717
 30
0.0
 10
-0.7133858267716535
 20
2.318633858267717
 30
0.0
 10
-0.7133858267716535
 20
2.311799212598425
 30
0.0
 10
-0.7133858267716535
 20
2.311799212598425
 30
0.0
 10
-0.7133858267716535
 20
2.311799212598425
 30
0.0
 10
-0.7133858267716535
 20
2.311799212598425
 30
0.0
 10
-0.7476614173228346
 20
2.311799212598425
 30
0.0
 10
-0.7476614173228346
 20
2.311799212598425
 30
0.0
 10
-0.7476614173228346
 20
2.311799212598425
 30
0.0
 10
-0.7476614173228346
 20
2.311799212598425
 30
0.0
 10
-0.7476614173228346
 20
2.318633858267717
 30
0.0
 10
-0.7476614173228346
 20
2.318633858267717
 30
0.0
 10
-0.7476614173228346
 20
2.318633858267717
 30
0.0
 10
-0.7449960629921261
 20
2.318688976377953
 30
0.0
 10
-0.7429133858267717
 20
2.318964566929134
 30
0.0
 10
-0.7413858267716535
 20
2.319492125984252
 30
0.0
 10
-0.7413858267716535
 20
2.319492125984252
 30
0.0
 10
-0.7398858267716536
 20
2.319992125984252
 30
0.0
 10
-0.7384133858267716
 20
2.320799212598425
 30
0.0
 10
-0.7369960629921261
 20
2.321881889763779
 30
0.0
 10
-0.7369960629921261
 20
2.321881889763779
 30
0.0
 10
-0.7345511811023623
 20
2.323854330708662
 30
0.0
 10
-0.7328031496062992
 20
2.32538188976378
 30
0.0
 10
-0.7317165354330709
 20
2.32651968503937
 30
0.0
 10
-0.7317165354330709
 20
2.32651968503937
 30
0.0
 10
-0.7317165354330709
 20
2.32651968503937
 30
0.0
 10
-0.7078582677165355
 20
2.35101968503937
 30
0.0
 10
-0.7078582677165355
 20
2.35101968503937
 30
0.0
 10
-0.7078582677165355
 20
2.35101968503937
 30
0.0
 10
-0.7078582677165355
 20
2.35101968503937
 30
0.0
 10
-0.7281338582677166
 20
2.374299212598425
 30
0.0
 10
-0.7281338582677166
 20
2.374299212598425
 30
0.0
 10
-0.7281338582677166
 20
2.374299212598425
 30
0.0
 10
-0.7306889763779528
 20
2.377188976377953
 30
0.0
 10
-0.7326889763779528
 20
2.379188976377953
 30
0.0
 10
-0.7341889763779528
 20
2.380354330708661
 30
0.0
 10
-0.7341889763779528
 20
2.380354330708661
 30
0.0
 10
-0.7356889763779528
 20
2.38151968503937
 30
0.0
 10
-0.7371338582677166
 20
2.382354330708662
 30
0.0
 10
-0.7385511811023623
 20
2.382799212598425
 30
0.0
 10
-0.7385511811023623
 20
2.382799212598425
 30
0.0
 10
-0.7399685039370079
 20
2.383271653543307
 30
0.0
 10
-0.7419409448818898
 20
2.383492125984252
 30
0.0
 10
-0.744496062992126
 20
2.383492125984252
 30
0.0
 10
-0.744496062992126
 20
2.383492125984252
 30
0.0
 10
-0.744496062992126
 20
2.383492125984252
 30
0.0
 10
-0.744496062992126
 20
2.390326771653543
 30
0.0
 10
-0.744496062992126
 20
2.390326771653543
 30
0.0
  0
SPLINE
  5
3D
330
1F
100
AcDbEntity
  8
LAYER_1
 62
   250
100
AcDbSpline
210
0.0
220
0.0
230
1.0
 70
    11
 71
     3
 72
    72
 73
    68
 74
     0
 42
0.0000000001
 43
0.0000000001
 40
0.0
 40
0.0
 40
0.0
 40
0.0
 40
0.0588235294117647
 40
0.0588235294117647
 40
0.0588235294117647
 40
0.0588235294117647
 40
0.1176470588235294
 40
0.1176470588235294
 40
0.1176470588235294
 40
0.1176470588235294
 40
0.1764705882352941
 40
0.1764705882352941
 40
0.1764705882352941
 40
0.1764705882352941
 40
0.2352941176470588
 40
0.2352941176470588
 40
0.2352941176470588
 40
0.2352941176470588
 40
0.2941176470588235
 40
0.2941176470588235
 40
0.2941176470588235
 40
0.2941176470588235
 40
0.3529411764705883
 40
0.3529411764705883
 40
0.3529411764705883
 40
0.3529411764705883
 40
0.411764705882353
 40
0.411764705882353
 40
0.411764705882353
 40
0.411764705882353
 40
0.4705882352941177
 40
0.4705882352941177
 40
0.4705882352941177
 40
0.4705882352941177
 40
0.5294117647058824
 40
0.5294117647058824
 40
0.5294117647058824
 40
0.5294117647058824
 40
0.5882352941176471
 40
0.5882352941176471
 40
0.5882352941176471
 40
0.5882352941176471
 40
0.6470588235294118
 40
0.6470588235294118
 40
0.6470588235294118
 40
0.6470588235294118
 40
0.7058823529411765
 40
0.7058823529411765
 40
0.7058823529411765
 40
0.7058823529411765
 40
0.7647058823529412
 40
0.7647058823529412
 40
0.7647058823529412
 40
0.7647058823529412
 40
0.823529411764706
 40
0.823529411764706
 40
0.823529411764706
 40
0.823529411764706
 40
0.8823529411764707
 40
0.8823529411764707
 40
0.8823529411764707
 40
0.8823529411764707
 40
0.9411764705882354
 40
0.9411764705882354
 40
0.9411764705882354
 40
0.9411764705882354
 40
1.0
 40
1.0
 40
1.0
 40
1.0
 10
-0.5448582677165355
 20
2.425326771653543
 30
0.0
 10
-0.5448582677165355
 20
2.425326771653543
 30
0.0
 10
-0.5387755905511811
 20
2.425326771653543
 30
0.0
 10
-0.5387755905511811
 20
2.425326771653543
 30
0.0
 10
-0.5387755905511811
 20
2.425326771653543
 30
0.0
 10
-0.5387755905511811
 20
2.425326771653543
 30
0.0
 10
-0.5387755905511811
 20
2.33107874015748
 30
0.0
 10
-0.5387755905511811
 20
2.33107874015748
 30
0.0
 10
-0.5387755905511811
 20
2.33107874015748
 30
0.0
 10
-0.5387755905511811
 20
2.326633858267717
 30
0.0
 10
-0.5384685039370079
 20
2.323771653543307
 30
0.0
 10
-0.5379133858267717
 20
2.322492125984252
 30
0.0
 10
-0.5379133858267717
 20
2.322492125984252
 30
0.0
 10
-0.5373307086614173
 20
2.321216535433071
 30
0.0
 10
-0.5364133858267717
 20
2.320271653543307
 30
0.0
 10
-0.5351102362204725
 20
2.319606299212599
 30
0.0
 10
-0.5351102362204725
 20
2.319606299212599
 30
0.0
 10
-0.5338031496062993
 20
2.318964566929134
 30
0.0
 10
-0.531220472440945
 20
2.318633858267717
 30
0.0
 10
-0.5273582677165355
 20
2.318633858267717
 30
0.0
 10
-0.5273582677165355
 20
2.318633858267717
 30
0.0
 10
-0.5273582677165355
 20
2.318633858267717
 30
0.0
 10
-0.5193858267716536
 20
2.318633858267717
 30
0.0
 10
-0.5193858267716536
 20
2.318633858267717
 30
0.0
 10
-0.5193858267716536
 20
2.318633858267717
 30
0.0
 10
-0.5193858267716536
 20
2.318633858267717
 30
0.0
 10
-0.5193858267716536
 20
2.311799212598425
 30
0.0
 10
-0.5193858267716536
 20
2.311799212598425
 30
0.0
 10
-0.5193858267716536
 20
2.311799212598425
 30
0.0
 10
-0.5193858267716536
 20
2.311799212598425
 30
0.0
 10
-0.5730236220472441
 20
2.311799212598425
 30
0.0
 10
-0.5730236220472441
 20
2.311799212598425
 30
0.0
 10
-0.5730236220472441
 20
2.311799212598425
 30
0.0
 10
-0.5730236220472441
 20
2.311799212598425
 30
0.0
 10
-0.5730236220472441
 20
2.318633858267717
 30
0.0
 10
-0.5730236220472441
 20
2.318633858267717
 30
0.0
 10
-0.5730236220472441
 20
2.318633858267717
 30
0.0
 10
-0.5730236220472441
 20
2.318633858267717
 30
0.0
 10
-0.5641653543307087
 20
2.318633858267717
 30
0.0
 10
-0.5641653543307087
 20
2.318633858267717
 30
0.0
 10
-0.5641653543307087
 20
2.318633858267717
 30
0.0
 10
-0.5603031496062992
 20
2.318633858267717
 30
0.0
 10
-0.557748031496063
 20
2.318964566929134
 30
0.0
 10
-0.5564685039370079
 20
2.319661417322835
 30
0.0
 10
-0.5564685039370079
 20
2.319661417322835
 30
0.0
 10
-0.5551929133858268
 20
2.320326771653543
 30
0.0
 10
-0.5541929133858268
 20
2.321409448818898
 30
0.0
 10
-0.5534960629921261
 20
2.322909448818898
 30
0.0
 10
-0.5534960629921261
 20
2.322909448818898
 30
0.0
 10
-0.5528031496062993
 20
2.324409448818898
 30
0.0
 10
-0.5524409448818898
 20
2.327133858267717
 30
0.0
 10
-0.5524409448818898
 20
2.33107874015748
 30
0.0
 10
-0.5524409448818898
 20
2.33107874015748
 30
0.0
 10
-0.5524409448818898
 20
2.33107874015748
 30
0.0
 10
-0.5524409448818898
 20
2.408547244094488
 30
0.0
 10
-0.5524409448818898
 20
2.408547244094488
 30
0.0
 10
-0.5524409448818898
 20
2.408547244094488
 30
0.0
 10
-0.5524409448818898
 20
2.408547244094488
 30
0.0
 10
-0.5730236220472441
 20
2.408547244094488
 30
0.0
 10
-0.5730236220472441
 20
2.408547244094488
 30
0.0
 10
-0.5730236220472441
 20
2.408547244094488
 30
0.0
 10
-0.5730236220472441
 20
2.408547244094488
 30
0.0
 10
-0.5730236220472441
 20
2.415547244094488
 30
0.0
 10
-0.5730236220472441
 20
2.415547244094488
 30
0.0
 10
-0.5730236220472441
 20
2.415547244094488
 30
0.0
 10
-0.5618031496062992
 20
2.417129921259843
 30
0.0
 10
-0.5524133858267717
 20
2.420381889763779
 30
0.0
 10
-0.5448582677165355
 20
2.425326771653543
 30
0.0
  0
SPLINE
  5
3E
330
1F
100
AcDbEntity
  8
LAYER_1
 62
   250
100
AcDbSpline
210
0.0
220
0.0
230
1.0
 70
    11
 71
     3
 72
    72
 73
    68
 74
     0
 42
0.0000000001
 43
0.0000000001
 40
0.0
 40
0.0
 40
0.0
 40
0.0
 40
0.0588235294117647
 40
0.0588235294117647
 40
0.0588235294117647
 40
0.0588235294117647
 40
0.1176470588235294
 40
0.1176470588235294
 40
0.1176470588235294
 40
0.1176470588235294
 40
0.1764705882352941
 40
0.1764705882352941
 40
0.1764705882352941
 40
0.1764705882352941
 40
0.2352941176470588
 40
0.2352941176470588
 40
0.2352941176470588
 40
0.2352941176470588
 40
0.2941176470588235
 40
0.2941176470588235
 40
0.2941176470588235
 40
0.2941176470588235
 40
0.3529411764705883
 40
0.3529411764705883
 40
0.3529411764705883
 40
0.3529411764705883
 40
0.411764705882353
 40
0.411764705882353
 40
0.411764705882353
 40
0.411764705882353
 40
0.4705882352941177
 40
0.4705882352941177
 40
0.4705882352941177
 40
0.4705882352941177
 40
0.5294117647058824
 40
0.5294117647058824
 40
0.5294117647058824
 40
0.5294117647058824
 40
0.5882352941176471
 40
0.5882352941176471
 40
0.5882352941176471
 40
0.5882352941176471
 40
0.6470588235294118
 40
0.6470588235294118
 40
0.6470588235294118
 40
0.6470588235294118
 40
0.7058823529411765
 40
0.7058823529411765
 40
0.7058823529411765
 40
0.7058823529411765
 40
0.7647058823529412
 40
0.7647058823529412
 40
0.7647058823529412
 40
0.7647058823529412
 40
0.823529411764706
 40
0.823529411764706
 40
0.823529411764706
 40
0.823529411764706
 40
0.8823529411764707
 40
0.8823529411764707
 40
0.8823529411764707
 40
0.8823529411764707
 40
0.9411764705882354
 40
0.9411764705882354
 40
0.9411764705882354
 40
0.9411764705882354
 40
1.0
 40
1.0
 40
1.0
 40
1.0
 10
-0.441496062992126
 20
2.425326771653543
 30
0.0
 10
-0.441496062992126
 20
2.425326771653543
 30
0.0
 10
-0.4354133858267717
 20
2.425326771653543
 30
0.0
 10
-0.4354133858267717
 20
2.425326771653543
 30
0.0
 10
-0.4354133858267717
 20
2.425326771653543
 30
0.0
 10
-0.4354133858267717
 20
2.425326771653543
 30
0.0
 10
-0.4354133858267717
 20
2.33107874015748
 30
0.0
 10
-0.4354133858267717
 20
2.33107874015748
 30
0.0
 10
-0.4354133858267717
 20
2.33107874015748
 30
0.0
 10
-0.4354133858267717
 20
2.326633858267717
 30
0.0
 10
-0.4351062992125985
 20
2.323771653543307
 30
0.0
 10
-0.4345511811023622
 20
2.322492125984252
 30
0.0
 10
-0.4345511811023622
 20
2.322492125984252
 30
0.0
 10
-0.4339685039370079
 20
2.321216535433071
 30
0.0
 10
-0.4330511811023622
 20
2.320271653543307
 30
0.0
 10
-0.431748031496063
 20
2.319606299212599
 30
0.0
 10
-0.431748031496063
 20
2.319606299212599
 30
0.0
 10
-0.4304409448818898
 20
2.318964566929134
 30
0.0
 10
-0.4278582677165355
 20
2.318633858267717
 30
0.0
 10
-0.423996062992126
 20
2.318633858267717
 30
0.0
 10
-0.423996062992126
 20
2.318633858267717
 30
0.0
 10
-0.423996062992126
 20
2.318633858267717
 30
0.0
 10
-0.4160236220472441
 20
2.318633858267717
 30
0.0
 10
-0.4160236220472441
 20
2.318633858267717
 30
0.0
 10
-0.4160236220472441
 20
2.318633858267717
 30
0.0
 10
-0.4160236220472441
 20
2.318633858267717
 30
0.0
 10
-0.4160236220472441
 20
2.311799212598425
 30
0.0
 10
-0.4160236220472441
 20
2.311799212598425
 30
0.0
 10
-0.4160236220472441
 20
2.311799212598425
 30
0.0
 10
-0.4160236220472441
 20
2.311799212598425
 30
0.0
 10
-0.4696614173228347
 20
2.311799212598425
 30
0.0
 10
-0.4696614173228347
 20
2.311799212598425
 30
0.0
 10
-0.4696614173228347
 20
2.311799212598425
 30
0.0
 10
-0.4696614173228347
 20
2.311799212598425
 30
0.0
 10
-0.4696614173228347
 20
2.318633858267717
 30
0.0
 10
-0.4696614173228347
 20
2.318633858267717
 30
0.0
 10
-0.4696614173228347
 20
2.318633858267717
 30
0.0
 10
-0.4696614173228347
 20
2.318633858267717
 30
0.0
 10
-0.4608031496062993
 20
2.318633858267717
 30
0.0
 10
-0.4608031496062993
 20
2.318633858267717
 30
0.0
 10
-0.4608031496062993
 20
2.318633858267717
 30
0.0
 10
-0.4569409448818898
 20
2.318633858267717
 30
0.0
 10
-0.4543858267716536
 20
2.318964566929134
 30
0.0
 10
-0.4531062992125984
 20
2.319661417322835
 30
0.0
 10
-0.4531062992125984
 20
2.319661417322835
 30
0.0
 10
-0.4518307086614173
 20
2.320326771653543
 30
0.0
 10
-0.4508307086614173
 20
2.321409448818898
 30
0.0
 10
-0.4501338582677166
 20
2.322909448818898
 30
0.0
 10
-0.4501338582677166
 20
2.322909448818898
 30
0.0
 10
-0.4494409448818898
 20
2.324409448818898
 30
0.0
 10
-0.4490787401574803
 20
2.327133858267717
 30
0.0
 10
-0.4490787401574803
 20
2.33107874015748
 30
0.0
 10
-0.4490787401574803
 20
2.33107874015748
 30
0.0
 10
-0.4490787401574803
 20
2.33107874015748
 30
0.0
 10
-0.4490787401574803
 20
2.408547244094488
 30
0.0
 10
-0.4490787401574803
 20
2.408547244094488
 30
0.0
 10
-0.4490787401574803
 20
2.408547244094488
 30
0.0
 10
-0.4490787401574803
 20
2.408547244094488
 30
0.0
 10
-0.4696614173228347
 20
2.408547244094488
 30
0.0
 10
-0.4696614173228347
 20
2.408547244094488
 30
0.0
 10
-0.4696614173228347
 20
2.408547244094488
 30
0.0
 10
-0.4696614173228347
 20
2.408547244094488
 30
0.0
 10
-0.4696614173228347
 20
2.415547244094488
 30
0.0
 10
-0.4696614173228347
 20
2.415547244094488
 30
0.0
 10
-0.4696614173228347
 20
2.415547244094488
 30
0.0
 10
-0.4584409448818898
 20
2.417129921259843
 30
0.0
 10
-0.4490511811023622
 20
2.420381889763779
 30
0.0
 10
-0.441496062992126
 20
2.425326771653543
 30
0.0
  0
SPLINE
  5
3F
330
1F
100
AcDbEntity
  8
LAYER_1
 62
   250
100
AcDbSpline
210
0.0
220
0.0
230
1.0
 70
    11
 71
     3
 72
    20
 73
    16
 74
     0
 42
0.0000000001
 43
0.0000000001
 40
0.0
 40
0.0
 40
0.0
 40
0.0
 40
0.25
 40
0.25
 40
0.25
 40
0.25
 40
0.5
 40
0.5
 40
0.5
 40
0.5
 40
0.75
 40
0.75
 40
0.75
 40
0.75
 40
1.0
 40
1.0
 40
1.0
 40
1.0
 10
-0.3126614173228346
 20
2.431188976377953
 30
0.0
 10
-0.3126614173228346
 20
2.431188976377953
 30
0.0
 10
-0.368244094488189
 20
2.275492125984252
 30
0.0
 10
-0.368244094488189
 20
2.275492125984252
 30
0.0
 10
-0.368244094488189
 20
2.275492125984252
 30
0.0
 10
-0.368244094488189
 20
2.275492125984252
 30
0.0
 10
-0.3802992125984252
 20
2.275492125984252
 30
0.0
 10
-0.3802992125984252
 20
2.275492125984252
 30
0.0
 10
-0.3802992125984252
 20
2.275492125984252
 30
0.0
 10
-0.3802992125984252
 20
2.275492125984252
 30
0.0
 10
-0.3250511811023622
 20
2.431188976377953
 30
0.0
 10
-0.3250511811023622
 20
2.431188976377953
 30
0.0
 10
-0.3250511811023622
 20
2.431188976377953
 30
0.0
 10
-0.3250511811023622
 20
2.431188976377953
 30
0.0
 10
-0.3126614173228346
 20
2.431188976377953
 30
0.0
 10
-0.3126614173228346
 20
2.431188976377953
 30
0.0
  0
SPLINE
  5
40
330
1F
100
AcDbEntity
  8
LAYER_1
 62
   250
100
AcDbSpline
210
0.0
220
0.0
230
1.0
 70
    11
 71
     3
 72
    72
 73
    68
 74
     0
 42
0.0000000001
 43
0.0000000001
 40
0.0
 40
0.0
 40
0.0
 40
0.0
 40
0.0588235294117647
 40
0.0588235294117647
 40
0.0588235294117647
 40
0.0588235294117647
 40
0.1176470588235294
 40
0.1176470588235294
 40
0.1176470588235294
 40
0.1176470588235294
 40
0.1764705882352941
 40
0.1764705882352941
 40
0.1764705882352941
 40
0.1764705882352941
 40
0.2352941176470588
 40
0.2352941176470588
 40
0.2352941176470588
 40
0.2352941176470588
 40
0.2941176470588235
 40
0.2941176470588235
 40
0.2941176470588235
 40
0.2941176470588235
 40
0.3529411764705883
 40
0.3529411764705883
 40
0.3529411764705883
 40
0.3529411764705883
 40
0.411764705882353
 40
0.411764705882353
 40
0.411764705882353
 40
0.411764705882353
 40
0.4705882352941177
 40
0.4705882352941177
 40
0.4705882352941177
 40
0.4705882352941177
 40
0.5294117647058824
 40
0.5294117647058824
 40
0.5294117647058824
 40
0.5294117647058824
 40
0.5882352941176471
 40
0.5882352941176471
 40
0.5882352941176471
 40
0.5882352941176471
 40
0.6470588235294118
 40
0.6470588235294118
 40
0.6470588235294118
 40
0.6470588235294118
 40
0.7058823529411765
 40
0.7058823529411765
 40
0.7058823529411765
 40
0.7058823529411765
 40
0.7647058823529412
 40
0.7647058823529412
 40
0.7647058823529412
 40
0.7647058823529412
 40
0.823529411764706
 40
0.823529411764706
 40
0.823529411764706
 40
0.823529411764706
 40
0.8823529411764707
 40
0.8823529411764707
 40
0.8823529411764707
 40
0.8823529411764707
 40
0.9411764705882354
 40
0.9411764705882354
 40
0.9411764705882354
 40
0.9411764705882354
 40
1.0
 40
1.0
 40
1.0
 40
1.0
 10
-0.2381062992125984
 20
2.425326771653543
 30
0.0
 10
-0.2381062992125984
 20
2.425326771653543
 30
0.0
 10
-0.2320236220472441
 20
2.425326771653543
 30
0.0
 10
-0.2320236220472441
 20
2.425326771653543
 30
0.0
 10
-0.2320236220472441
 20
2.425326771653543
 30
0.0
 10
-0.2320236220472441
 20
2.425326771653543
 30
0.0
 10
-0.2320236220472441
 20
2.33107874015748
 30
0.0
 10
-0.2320236220472441
 20
2.33107874015748
 30
0.0
 10
-0.2320236220472441
 20
2.33107874015748
 30
0.0
 10
-0.2320236220472441
 20
2.326633858267717
 30
0.0
 10
-0.2317165354330709
 20
2.323771653543307
 30
0.0
 10
-0.2311614173228347
 20
2.322492125984252
 30
0.0
 10
-0.2311614173228347
 20
2.322492125984252
 30
0.0
 10
-0.2305787401574803
 20
2.321216535433071
 30
0.0
 10
-0.2296614173228347
 20
2.320271653543307
 30
0.0
 10
-0.2283582677165355
 20
2.319606299212599
 30
0.0
 10
-0.2283582677165355
 20
2.319606299212599
 30
0.0
 10
-0.2270511811023622
 20
2.318964566929134
 30
0.0
 10
-0.2244685039370079
 20
2.318633858267717
 30
0.0
 10
-0.2206062992125984
 20
2.318633858267717
 30
0.0
 10
-0.2206062992125984
 20
2.318633858267717
 30
0.0
 10
-0.2206062992125984
 20
2.318633858267717
 30
0.0
 10
-0.2126338582677166
 20
2.318633858267717
 30
0.0
 10
-0.2126338582677166
 20
2.318633858267717
 30
0.0
 10
-0.2126338582677166
 20
2.318633858267717
 30
0.0
 10
-0.2126338582677166
 20
2.318633858267717
 30
0.0
 10
-0.2126338582677166
 20
2.311799212598425
 30
0.0
 10
-0.2126338582677166
 20
2.311799212598425
 30
0.0
 10
-0.2126338582677166
 20
2.311799212598425
 30
0.0
 10
-0.2126338582677166
 20
2.311799212598425
 30
0.0
 10
-0.2662716535433071
 20
2.311799212598425
 30
0.0
 10
-0.2662716535433071
 20
2.311799212598425
 30
0.0
 10
-0.2662716535433071
 20
2.311799212598425
 30
0.0
 10
-0.2662716535433071
 20
2.311799212598425
 30
0.0
 10
-0.2662716535433071
 20
2.318633858267717
 30
0.0
 10
-0.2662716535433071
 20
2.318633858267717
 30
0.0
 10
-0.2662716535433071
 20
2.318633858267717
 30
0.0
 10
-0.2662716535433071
 20
2.318633858267717
 30
0.0
 10
-0.2574133858267717
 20
2.318633858267717
 30
0.0
 10
-0.2574133858267717
 20
2.318633858267717
 30
0.0
 10
-0.2574133858267717
 20
2.318633858267717
 30
0.0
 10
-0.2535511811023622
 20
2.318633858267717
 30
0.0
 10
-0.250996062992126
 20
2.318964566929134
 30
0.0
 10
-0.2497165354330709
 20
2.319661417322835
 30
0.0
 10
-0.2497165354330709
 20
2.319661417322835
 30
0.0
 10
-0.2484409448818898
 20
2.320326771653543
 30
0.0
 10
-0.2474409448818898
 20
2.321409448818898
 30
0.0
 10
-0.246744094488189
 20
2.322909448818898
 30
0.0
 10
-0.246744094488189
 20
2.322909448818898
 30
0.0
 10
-0.2460511811023622
 20
2.324409448818898
 30
0.0
 10
-0.2456889763779528
 20
2.327133858267717
 30
0.0
 10
-0.2456889763779528
 20
2.33107874015748
 30
0.0
 10
-0.2456889763779528
 20
2.33107874015748
 30
0.0
 10
-0.2456889763779528
 20
2.33107874015748
 30
0.0
 10
-0.2456889763779528
 20
2.408547244094488
 30
0.0
 10
-0.2456889763779528
 20
2.408547244094488
 30
0.0
 10
-0.2456889763779528
 20
2.408547244094488
 30
0.0
 10
-0.2456889763779528
 20
2.408547244094488
 30
0.0
 10
-0.2662716535433071
 20
2.408547244094488
 30
0.0
 10
-0.2662716535433071
 20
2.408547244094488
 30
0.0
 10
-0.2662716535433071
 20
2.408547244094488
 30
0.0
 10
-0.2662716535433071
 20
2.408547244094488
 30
0.0
 10
-0.2662716535433071
 20
2.415547244094488
 30
0.0
 10
-0.2662716535433071
 20
2.415547244094488
 30
0.0
 10
-0.2662716535433071
 20
2.415547244094488
 30
0.0
 10
-0.2550511811023622
 20
2.417129921259843
 30
0.0
 10
-0.2456614173228347
 20
2.420381889763779
 30
0.0
 10
-0.2381062992125984
 20
2.425326771653543
 30
0.0
  0
SPLINE
  5
41
330
1F
100
AcDbEntity
  8
LAYER_1
 62
   250
100
AcDbSpline
210
0.0
220
0.0
230
1.0
 70
    11
 71
     3
 72
    84
 73
    80
 74
     0
 42
0.0000000001
 43
0.0000000001
 40
0.0
 40
0.0
 40
0.0
 40
0.0
 40
0.05
 40
0.05
 40
0.05
 40
0.05
 40
0.1
 40
0.1
 40
0.1
 40
0.1
 40
0.15
 40
0.15
 40
0.15
 40
0.15
 40
0.2
 40
0.2
 40
0.2
 40
0.2
 40
0.25
 40
0.25
 40
0.25
 40
0.25
 40
0.3
 40
0.3
 40
0.3
 40
0.3
 40
0.35
 40
0.35
 40
0.35
 40
0.35
 40
0.4
 40
0.4
 40
0.4
 40
0.4
 40
0.45
 40
0.45
 40
0.45
 40
0.45
 40
0.4999999999999999
 40
0.4999999999999999
 40
0.4999999999999999
 40
0.4999999999999999
 40
0.5499999999999999
 40
0.5499999999999999
 40
0.5499999999999999
 40
0.5499999999999999
 40
0.6
 40
0.6
 40
0.6
 40
0.6
 40
0.65
 40
0.65
 40
0.65
 40
0.65
 40
0.7000000000000001
 40
0.7000000000000001
 40
0.7000000000000001
 40
0.7000000000000001
 40
0.7500000000000001
 40
0.7500000000000001
 40
0.7500000000000001
 40
0.7500000000000001
 40
0.8000000000000002
 40
0.8000000000000002
 40
0.8000000000000002
 40
0.8000000000000002
 40
0.8500000000000002
 40
0.8500000000000002
 40
0.8500000000000002
 40
0.8500000000000002
 40
0.9000000000000002
 40
0.9000000000000002
 40
0.9000000000000002
 40
0.9000000000000002
 40
0.9500000000000003
 40
0.9500000000000003
 40
0.9500000000000003
 40
0.9500000000000003
 40
1.0
 40
1.0
 40
1.0
 40
1.0
 10
-0.1064409448818898
 20
2.427437007874016
 30
0.0
 10
-0.1064409448818898
 20
2.427437007874016
 30
0.0
 10
-0.1064409448818898
 20
2.42001968503937
 30
0.0
 10
-0.1064409448818898
 20
2.42001968503937
 30
0.0
 10
-0.1064409448818898
 20
2.42001968503937
 30
0.0
 10
-0.1198267716535433
 20
2.41988188976378
 30
0.0
 10
-0.1306614173228347
 20
2.417909448818898
 30
0.0
 10
-0.1389370078740158
 20
2.414188976377953
 30
0.0
 10
-0.1389370078740158
 20
2.414188976377953
 30
0.0
 10
-0.1472165354330709
 20
2.410437007874016
 30
0.0
 10
-0.1532992125984252
 20
2.404826771653543
 30
0.0
 10
-0.1572165354330709
 20
2.39738188976378
 30
0.0
 10
-0.1572165354330709
 20
2.39738188976378
 30
0.0
 10
-0.1611338582677165
 20
2.389909448818898
 30
0.0
 10
-0.1633267716535433
 20
2.380716535433071
 30
0.0
 10
-0.1637992125984252
 20
2.369826771653544
 30
0.0
 10
-0.1637992125984252
 20
2.369826771653544
 30
0.0
 10
-0.1610511811023622
 20
2.374047244094488
 30
0.0
 10
-0.1582165354330709
 20
2.377354330708661
 30
0.0
 10
-0.1552992125984252
 20
2.379716535433071
 30
0.0
 10
-0.1552992125984252
 20
2.379716535433071
 30
0.0
 10
-0.1524094488188977
 20
2.382074803149606
 30
0.0
 10
-0.1490236220472441
 20
2.38388188976378
 30
0.0
 10
-0.1451338582677166
 20
2.385161417322835
 30
0.0
 10
-0.1451338582677166
 20
2.385161417322835
 30
0.0
 10
-0.141244094488189
 20
2.386437007874016
 30
0.0
 10
-0.136996062992126
 20
2.387074803149607
 30
0.0
 10
-0.1323818897637795
 20
2.387074803149607
 30
0.0
 10
-0.1323818897637795
 20
2.387074803149607
 30
0.0
 10
-0.1250236220472441
 20
2.387074803149607
 30
0.0
 10
-0.1184409448818898
 20
2.385437007874016
 30
0.0
 10
-0.1126889763779528
 20
2.382188976377953
 30
0.0
 10
-0.1126889763779528
 20
2.382188976377953
 30
0.0
 10
-0.1069409448818898
 20
2.378937007874016
 30
0.0
 10
-0.1024685039370079
 20
2.37451968503937
 30
0.0
 10
-0.0992716535433071
 20
2.368964566929134
 30
0.0
 10
-0.0992716535433071
 20
2.368964566929134
 30
0.0
 10
-0.0960787401574803
 20
2.363409448818898
 30
0.0
 10
-0.0944685039370079
 20
2.356854330708662
 30
0.0
 10
-0.0944685039370079
 20
2.349326771653543
 30
0.0
 10
-0.0944685039370079
 20
2.349326771653543
 30
0.0
 10
-0.0944685039370079
 20
2.337326771653543
 30
0.0
 10
-0.0980787401574803
 20
2.327909448818898
 30
0.0
 10
-0.1052992125984252
 20
2.321078740157481
 30
0.0
 10
-0.1052992125984252
 20
2.321078740157481
 30
0.0
 10
-0.1132716535433071
 20
2.31357874015748
 30
0.0
 10
-0.1236062992125984
 20
2.309854330708661
 30
0.0
 10
-0.1362992125984252
 20
2.309854330708661
 30
0.0
 10
-0.1362992125984252
 20
2.309854330708661
 30
0.0
 10
-0.1454685039370079
 20
2.309854330708661
 30
0.0
 10
-0.1531889763779528
 20
2.311744094488189
 30
0.0
 10
-0.159496062992126
 20
2.315547244094488
 30
0.0
 10
-0.159496062992126
 20
2.315547244094488
 30
0.0
 10
-0.1657992125984252
 20
2.319326771653544
 30
0.0
 10
-0.1707992125984252
 20
2.325133858267717
 30
0.0
 10
-0.1745236220472441
 20
2.332964566929134
 30
0.0
 10
-0.1745236220472441
 20
2.332964566929134
 30
0.0
 10
-0.1782165354330709
 20
2.340771653543307
 30
0.0
 10
-0.1800787401574803
 20
2.350437007874016
 30
0.0
 10
-0.1800787401574803
 20
2.361937007874016
 30
0.0
 10
-0.1800787401574803
 20
2.361937007874016
 30
0.0
 10
-0.1800787401574803
 20
2.373492125984252
 30
0.0
 10
-0.1781062992125984
 20
2.383744094488189
 30
0.0
 10
-0.1741889763779528
 20
2.392688976377953
 30
0.0
 10
-0.1741889763779528
 20
2.392688976377953
 30
0.0
 10
-0.170244094488189
 20
2.401629921259842
 30
0.0
 10
-0.1647992125984252
 20
2.408826771653543
 30
0.0
 10
-0.1578543307086614
 20
2.414244094488189
 30
0.0
 10
-0.1578543307086614
 20
2.414244094488189
 30
0.0
 10
-0.1509094488188977
 20
2.419688976377953
 30
0.0
 10
-0.1432992125984252
 20
2.423244094488189
 30
0.0
 10
-0.1350511811023622
 20
2.424909448818898
 30
0.0
 10
-0.1350511811023622
 20
2.424909448818898
 30
0.0
 10
-0.1267716535433071
 20
2.426602362204724
 30
0.0
 10
-0.1193543307086614
 20
2.427437007874016
 30
0.0
 10
-0.1127716535433071
 20
2.427437007874016
 30
0.0
 10
-0.1127716535433071
 20
2.427437007874016
 30
0.0
 10
-0.1127716535433071
 20
2.427437007874016
 30
0.0
 10
-0.1064409448818898
 20
2.427437007874016
 30
0.0
 10
-0.1064409448818898
 20
2.427437007874016
 30
0.0
  0
SPLINE
  5
42
330
1F
100
AcDbEntity
  8
LAYER_1
 62
   250
100
AcDbSpline
210
0.0
220
0.0
230
1.0
 70
    11
 71
     3
 72
    40
 73
    36
 74
     0
 42
0.0000000001
 43
0.0000000001
 40
0.0
 40
0.0
 40
0.0
 40
0.0
 40
0.1111111111111111
 40
0.1111111111111111
 40
0.1111111111111111
 40
0.1111111111111111
 40
0.2222222222222222
 40
0.2222222222222222
 40
0.2222222222222222
 40
0.2222222222222222
 40
0.3333333333333333
 40
0.3333333333333333
 40
0.3333333333333333
 40
0.3333333333333333
 40
0.4444444444444444
 40
0.4444444444444444
 40
0.4444444444444444
 40
0.4444444444444444
 40
0.5555555555555556
 40
0.5555555555555556
 40
0.5555555555555556
 40
0.5555555555555556
 40
0.6666666666666667
 40
0.6666666666666667
 40
0.6666666666666667
 40
0.6666666666666667
 40
0.7777777777777779
 40
0.7777777777777779
 40
0.7777777777777779
 40
0.7777777777777779
 40
0.8888888888888891
 40
0.8888888888888891
 40
0.8888888888888891
 40
0.8888888888888891
 40
1.0
 40
1.0
 40
1.0
 40
1.0
 10
-0.1361338582677165
 20
2.378437007874016
 30
0.0
 10
-0.1439370078740158
 20
2.378437007874016
 30
0.0
 10
-0.1503543307086614
 20
2.375492125984252
 30
0.0
 10
-0.1553818897637795
 20
2.369574803149606
 30
0.0
 10
-0.1553818897637795
 20
2.369574803149606
 30
0.0
 10
-0.1604094488188977
 20
2.363661417322835
 30
0.0
 10
-0.1629094488188977
 20
2.356547244094488
 30
0.0
 10
-0.1629094488188977
 20
2.348271653543307
 30
0.0
 10
-0.1629094488188977
 20
2.348271653543307
 30
0.0
 10
-0.1629094488188977
 20
2.342409448818898
 30
0.0
 10
-0.1616889763779528
 20
2.336992125984252
 30
0.0
 10
-0.159244094488189
 20
2.33201968503937
 30
0.0
 10
-0.159244094488189
 20
2.33201968503937
 30
0.0
 10
-0.1567992125984252
 20
2.327047244094489
 30
0.0
 10
-0.1536614173228346
 20
2.32338188976378
 30
0.0
 10
-0.1497992125984252
 20
2.320964566929134
 30
0.0
 10
-0.1497992125984252
 20
2.320964566929134
 30
0.0
 10
-0.1459685039370079
 20
2.318547244094488
 30
0.0
 10
-0.1416062992125984
 20
2.317326771653543
 30
0.0
 10
-0.1367992125984252
 20
2.317326771653543
 30
0.0
 10
-0.1367992125984252
 20
2.317326771653543
 30
0.0
 10
-0.1292992125984252
 20
2.317326771653543
 30
0.0
 10
-0.1230787401574803
 20
2.320161417322835
 30
0.0
 10
-0.1181062992125984
 20
2.325826771653544
 30
0.0
 10
-0.1181062992125984
 20
2.325826771653544
 30
0.0
 10
-0.1131614173228347
 20
2.331492125984252
 30
0.0
 10
-0.1106614173228347
 20
2.339106299212598
 30
0.0
 10
-0.1106614173228347
 20
2.348661417322835
 30
0.0
 10
-0.1106614173228347
 20
2.348661417322835
 30
0.0
 10
-0.1106614173228347
 20
2.357771653543307
 30
0.0
 10
-0.1130787401574803
 20
2.36501968503937
 30
0.0
 10
-0.1179094488188976
 20
2.37038188976378
 30
0.0
 10
-0.1179094488188976
 20
2.37038188976378
 30
0.0
 10
-0.122744094488189
 20
2.375771653543307
 30
0.0
 10
-0.1288267716535433
 20
2.378437007874016
 30
0.0
 10
-0.1361338582677165
 20
2.378437007874016
 30
0.0
  0
SPLINE
  5
43
330
1F
100
AcDbEntity
  8
LAYER_1
 62
   250
100
AcDbSpline
210
0.0
220
0.0
230
1.0
 70
    11
 71
     3
 72
    60
 73
    56
 74
     0
 42
0.0000000001
 43
0.0000000001
 40
0.0
 40
0.0
 40
0.0
 40
0.0
 40
0.0714285714285714
 40
0.0714285714285714
 40
0.0714285714285714
 40
0.0714285714285714
 40
0.1428571428571429
 40
0.1428571428571429
 40
0.1428571428571429
 40
0.1428571428571429
 40
0.2142857142857143
 40
0.2142857142857143
 40
0.2142857142857143
 40
0.2142857142857143
 40
0.2857142857142857
 40
0.2857142857142857
 40
0.2857142857142857
 40
0.2857142857142857
 40
0.3571428571428571
 40
0.3571428571428571
 40
0.3571428571428571
 40
0.3571428571428571
 40
0.4285714285714285
 40
0.4285714285714285
 40
0.4285714285714285
 40
0.4285714285714285
 40
0.4999999999999999
 40
0.4999999999999999
 40
0.4999999999999999
 40
0.4999999999999999
 40
0.5714285714285713
 40
0.5714285714285713
 40
0.5714285714285713
 40
0.5714285714285713
 40
0.6428571428571427
 40
0.6428571428571427
 40
0.6428571428571427
 40
0.6428571428571427
 40
0.7142857142857141
 40
0.7142857142857141
 40
0.7142857142857141
 40
0.7142857142857141
 40
0.7857142857142855
 40
0.7857142857142855
 40
0.7857142857142855
 40
0.7857142857142855
 40
0.8571428571428569
 40
0.8571428571428569
 40
0.8571428571428569
 40
0.8571428571428569
 40
0.9285714285714283
 40
0.9285714285714283
 40
0.9285714285714283
 40
0.9285714285714283
 40
1.0
 40
1.0
 40
1.0
 40
1.0
 10
-0.0772992125984252
 20
2.383244094488189
 30
0.0
 10
-0.0772992125984252
 20
2.383244094488189
 30
0.0
 10
-0.0816889763779528
 20
2.388633858267717
 30
0.0
 10
-0.0816889763779528
 20
2.388633858267717
 30
0.0
 10
-0.0816889763779528
 20
2.388633858267717
 30
0.0
 10
-0.0705748031496063
 20
2.397688976377953
 30
0.0
 10
-0.064992125984252
 20
2.405244094488189
 30
0.0
 10
-0.064992125984252
 20
2.411326771653544
 30
0.0
 10
-0.064992125984252
 20
2.411326771653544
 30
0.0
 10
-0.064992125984252
 20
2.41201968503937
 30
0.0
 10
-0.0650472440944882
 20
2.412909448818898
 30
0.0
 10
-0.0651614173228346
 20
2.413937007874016
 30
0.0
 10
-0.0651614173228346
 20
2.413937007874016
 30
0.0
 10
-0.0660748031496063
 20
2.413547244094488
 30
0.0
 10
-0.066992125984252
 20
2.413244094488189
 30
0.0
 10
-0.0678543307086614
 20
2.413047244094488
 30
0.0
 10
-0.0678543307086614
 20
2.413047244094488
 30
0.0
 10
-0.0687165354330709
 20
2.412826771653543
 30
0.0
 10
-0.0695196850393701
 20
2.412716535433071
 30
0.0
 10
-0.0702992125984252
 20
2.412716535433071
 30
0.0
 10
-0.0702992125984252
 20
2.412716535433071
 30
0.0
 10
-0.0729094488188976
 20
2.412716535433071
 30
0.0
 10
-0.074992125984252
 20
2.413547244094488
 30
0.0
 10
-0.0765472440944882
 20
2.415244094488189
 30
0.0
 10
-0.0765472440944882
 20
2.415244094488189
 30
0.0
 10
-0.0781338582677165
 20
2.416909448818898
 30
0.0
 10
-0.0789094488188976
 20
2.419047244094488
 30
0.0
 10
-0.0789094488188976
 20
2.421661417322835
 30
0.0
 10
-0.0789094488188976
 20
2.421661417322835
 30
0.0
 10
-0.0789094488188976
 20
2.424216535433071
 30
0.0
 10
-0.0779645669291339
 20
2.426437007874016
 30
0.0
 10
-0.0760748031496063
 20
2.428326771653544
 30
0.0
 10
-0.0760748031496063
 20
2.428326771653544
 30
0.0
 10
-0.0741614173228347
 20
2.430244094488189
 30
0.0
 10
-0.0718818897637795
 20
2.431188976377953
 30
0.0
 10
-0.069244094488189
 20
2.431188976377953
 30
0.0
 10
-0.069244094488189
 20
2.431188976377953
 30
0.0
 10
-0.0655472440944882
 20
2.431188976377953
 30
0.0
 10
-0.0623818897637795
 20
2.429716535433071
 30
0.0
 10
-0.059744094488189
 20
2.426744094488189
 30
0.0
 10
-0.059744094488189
 20
2.426744094488189
 30
0.0
 10
-0.0571338582677165
 20
2.423799212598425
 30
0.0
 10
-0.0557992125984252
 20
2.419992125984252
 30
0.0
 10
-0.0557992125984252
 20
2.415326771653544
 30
0.0
 10
-0.0557992125984252
 20
2.415326771653544
 30
0.0
 10
-0.0557992125984252
 20
2.412271653543307
 30
0.0
 10
-0.0564370078740158
 20
2.409074803149606
 30
0.0
 10
-0.0576889763779528
 20
2.405744094488189
 30
0.0
 10
-0.0576889763779528
 20
2.405744094488189
 30
0.0
 10
-0.0589370078740157
 20
2.402409448818898
 30
0.0
 10
-0.060744094488189
 20
2.399326771653544
 30
0.0
 10
-0.0631338582677165
 20
2.396464566929134
 30
0.0
 10
-0.0631338582677165
 20
2.396464566929134
 30
0.0
 10
-0.0655196850393701
 20
2.393633858267717
 30
0.0
 10
-0.070244094488189
 20
2.389216535433071
 30
0.0
 10
-0.0772992125984252
 20
2.383244094488189
 30
0.0
  0
SPLINE
  5
44
330
1F
100
AcDbEntity
  8
LAYER_1
 62
   250
100
AcDbSpline
210
0.0
220
0.0
230
1.0
 70
    11
 71
     3
 72
    60
 73
    56
 74
     0
 42
0.0000000001
 43
0.0000000001
 40
0.0
 40
0.0
 40
0.0
 40
0.0
 40
0.0714285714285714
 40
0.0714285714285714
 40
0.0714285714285714
 40
0.0714285714285714
 40
0.1428571428571429
 40
0.1428571428571429
 40
0.1428571428571429
 40
0.1428571428571429
 40
0.2142857142857143
 40
0.2142857142857143
 40
0.2142857142857143
 40
0.2142857142857143
 40
0.2857142857142857
 40
0.2857142857142857
 40
0.2857142857142857
 40
0.2857142857142857
 40
0.3571428571428571
 40
0.3571428571428571
 40
0.3571428571428571
 40
0.3571428571428571
 40
0.4285714285714285
 40
0.4285714285714285
 40
0.4285714285714285
 40
0.4285714285714285
 40
0.4999999999999999
 40
0.4999999999999999
 40
0.4999999999999999
 40
0.4999999999999999
 40
0.5714285714285713
 40
0.5714285714285713
 40
0.5714285714285713
 40
0.5714285714285713
 40
0.6428571428571427
 40
0.6428571428571427
 40
0.6428571428571427
 40
0.6428571428571427
 40
0.7142857142857141
 40
0.7142857142857141
 40
0.7142857142857141
 40
0.7142857142857141
 40
0.7857142857142855
 40
0.7857142857142855
 40
0.7857142857142855
 40
0.7857142857142855
 40
0.8571428571428569
 40
0.8571428571428569
 40
0.8571428571428569
 40
0.8571428571428569
 40
0.9285714285714283
 40
0.9285714285714283
 40
0.9285714285714283
 40
0.9285714285714283
 40
1.0
 40
1.0
 40
1.0
 40
1.0
 10
-0.048244094488189
 20
2.383244094488189
 30
0.0
 10
-0.048244094488189
 20
2.383244094488189
 30
0.0
 10
-0.0526338582677165
 20
2.388633858267717
 30
0.0
 10
-0.0526338582677165
 20
2.388633858267717
 30
0.0
 10
-0.0526338582677165
 20
2.388633858267717
 30
0.0
 10
-0.0415196850393701
 20
2.397688976377953
 30
0.0
 10
-0.0359370078740157
 20
2.405244094488189
 30
0.0
 10
-0.0359370078740157
 20
2.411326771653544
 30
0.0
 10
-0.0359370078740157
 20
2.411326771653544
 30
0.0
 10
-0.0359370078740157
 20
2.41201968503937
 30
0.0
 10
-0.035992125984252
 20
2.412909448818898
 30
0.0
 10
-0.0361062992125984
 20
2.413937007874016
 30
0.0
 10
-0.0361062992125984
 20
2.413937007874016
 30
0.0
 10
-0.0370196850393701
 20
2.413547244094488
 30
0.0
 10
-0.0379370078740158
 20
2.413244094488189
 30
0.0
 10
-0.0387992125984252
 20
2.413047244094488
 30
0.0
 10
-0.0387992125984252
 20
2.413047244094488
 30
0.0
 10
-0.0396614173228346
 20
2.412826771653543
 30
0.0
 10
-0.040492125984252
 20
2.412716535433071
 30
0.0
 10
-0.0413267716535433
 20
2.412716535433071
 30
0.0
 10
-0.0413267716535433
 20
2.412716535433071
 30
0.0
 10
-0.0438818897637795
 20
2.412716535433071
 30
0.0
 10
-0.0459370078740158
 20
2.413547244094488
 30
0.0
 10
-0.047492125984252
 20
2.415244094488189
 30
0.0
 10
-0.047492125984252
 20
2.415244094488189
 30
0.0
 10
-0.0490748031496063
 20
2.416909448818898
 30
0.0
 10
-0.0498543307086614
 20
2.419047244094488
 30
0.0
 10
-0.0498543307086614
 20
2.421661417322835
 30
0.0
 10
-0.0498543307086614
 20
2.421661417322835
 30
0.0
 10
-0.0498543307086614
 20
2.424216535433071
 30
0.0
 10
-0.0489094488188976
 20
2.426437007874016
 30
0.0
 10
-0.0470196850393701
 20
2.428326771653544
 30
0.0
 10
-0.0470196850393701
 20
2.428326771653544
 30
0.0
 10
-0.0451338582677165
 20
2.430244094488189
 30
0.0
 10
-0.0428267716535433
 20
2.431188976377953
 30
0.0
 10
-0.0401889763779528
 20
2.431188976377953
 30
0.0
 10
-0.0401889763779528
 20
2.431188976377953
 30
0.0
 10
-0.036492125984252
 20
2.431188976377953
 30
0.0
 10
-0.0333267716535433
 20
2.429716535433071
 30
0.0
 10
-0.0306889763779528
 20
2.426744094488189
 30
0.0
 10
-0.0306889763779528
 20
2.426744094488189
 30
0.0
 10
-0.0280787401574803
 20
2.423799212598425
 30
0.0
 10
-0.026744094488189
 20
2.419992125984252
 30
0.0
 10
-0.026744094488189
 20
2.415326771653544
 30
0.0
 10
-0.026744094488189
 20
2.415326771653544
 30
0.0
 10
-0.026744094488189
 20
2.412271653543307
 30
0.0
 10
-0.0273818897637795
 20
2.409074803149606
 30
0.0
 10
-0.0286338582677165
 20
2.405744094488189
 30
0.0
 10
-0.0286338582677165
 20
2.405744094488189
 30
0.0
 10
-0.0298818897637795
 20
2.402409448818898
 30
0.0
 10
-0.0316889763779528
 20
2.399326771653544
 30
0.0
 10
-0.0340748031496063
 20
2.396464566929134
 30
0.0
 10
-0.0340748031496063
 20
2.396464566929134
 30
0.0
 10
-0.0364645669291339
 20
2.393633858267717
 30
0.0
 10
-0.0411889763779528
 20
2.389216535433071
 30
0.0
 10
-0.048244094488189
 20
2.383244094488189
 30
0.0
  0
SPLINE
  5
45
330
1F
100
AcDbEntity
  8
LAYER_1
 62
   252
100
AcDbSpline
210
0.0
220
0.0
230
1.0
 70
    11
 71
     3
 72
    20
 73
    16
 74
     0
 42
0.0000000001
 43
0.0000000001
 40
0.0
 40
0.0
 40
0.0
 40
0.0
 40
0.25
 40
0.25
 40
0.25
 40
0.25
 40
0.5
 40
0.5
 40
0.5
 40
0.5
 40
0.75
 40
0.75
 40
0.75
 40
0.75
 40
1.0
 40
1.0
 40
1.0
 40
1.0
 10
0.4928740157480315
 20
3.147295275590551
 30
0.0
 10
0.4928740157480315
 20
3.147295275590551
 30
0.0
 10
0.4906062992125985
 20
3.893066929133858
 30
0.0
 10
0.4906062992125985
 20
3.893066929133858
 30
0.0
 10
0.4906062992125985
 20
3.893066929133858
 30
0.0
 10
0.4906062992125985
 20
3.893066929133858
 30
0.0
 10
0.7041259842519685
 20
3.893066929133858
 30
0.0
 10
0.7041259842519685
 20
3.893066929133858
 30
0.0
 10
0.7041259842519685
 20
3.893066929133858
 30
0.0
 10
0.7041259842519685
 20
3.893066929133858
 30
0.0
 10
0.7063937007874016
 20
3.147295275590551
 30
0.0
 10
0.7063937007874016
 20
3.147295275590551
 30
0.0
 10
0.7063937007874016
 20
3.147295275590551
 30
0.0
 10
0.7063937007874016
 20
3.147295275590551
 30
0.0
 10
0.4928740157480315
 20
3.147295275590551
 30
0.0
 10
0.4928740157480315
 20
3.147295275590551
 30
0.0
  0
SPLINE
  5
46
330
1F
100
AcDbEntity
  8
LAYER_1
 62
   250
100
AcDbSpline
210
0.0
220
0.0
230
1.0
 70
    11
 71
     3
 72
    20
 73
    16
 74
     0
 42
0.0000000001
 43
0.0000000001
 40
0.0
 40
0.0
 40
0.0
 40
0.0
 40
0.25
 40
0.25
 40
0.25
 40
0.25
 40
0.5
 40
0.5
 40
0.5
 40
0.5
 40
0.75
 40
0.75
 40
0.75
 40
0.75
 40
1.0
 40
1.0
 40
1.0
 40
1.0
 10
0.4928740157480315
 20
3.147295275590551
 30
0.0
 10
0.4928740157480315
 20
3.147295275590551
 30
0.0
 10
0.4906062992125985
 20
3.893066929133858
 30
0.0
 10
0.4906062992125985
 20
3.893066929133858
 30
0.0
 10
0.4906062992125985
 20
3.893066929133858
 30
0.0
 10
0.4906062992125985
 20
3.893066929133858
 30
0.0
 10
0.7041259842519685
 20
3.893066929133858
 30
0.0
 10
0.7041259842519685
 20
3.893066929133858
 30
0.0
 10
0.7041259842519685
 20
3.893066929133858
 30
0.0
 10
0.7041259842519685
 20
3.893066929133858
 30
0.0
 10
0.7063937007874016
 20
3.147295275590551
 30
0.0
 10
0.7063937007874016
 20
3.147295275590551
 30
0.0
 10
0.7063937007874016
 20
3.147295275590551
 30
0.0
 10
0.7063937007874016
 20
3.147295275590551
 30
0.0
 10
0.4928740157480315
 20
3.147295275590551
 30
0.0
 10
0.4928740157480315
 20
3.147295275590551
 30
0.0
  0
SPLINE
  5
47
330
1F
100
AcDbEntity
  8
LAYER_1
 62
   252
100
AcDbSpline
210
0.0
220
0.0
230
1.0
 70
    11
 71
     3
 72
    20
 73
    16
 74
     0
 42
0.0000000001
 43
0.0000000001
 40
0.0
 40
0.0
 40
0.0
 40
0.0
 40
0.25
 40
0.25
 40
0.25
 40
0.25
 40
0.5
 40
0.5
 40
0.5
 40
0.5
 40
0.75
 40
0.75
 40
0.75
 40
0.75
 40
1.0
 40
1.0
 40
1.0
 40
1.0
 10
0.7063937007874016
 20
3.147295275590551
 30
0.0
 10
0.7063937007874016
 20
3.147295275590551
 30
0.0
 10
0.7041259842519685
 20
3.893066929133858
 30
0.0
 10
0.7041259842519685
 20
3.893066929133858
 30
0.0
 10
0.7041259842519685
 20
3.893066929133858
 30
0.0
 10
0.7041259842519685
 20
3.893066929133858
 30
0.0
 10
0.9857244094488189
 20
3.639318897637796
 30
0.0
 10
0.9857244094488189
 20
3.639318897637796
 30
0.0
 10
0.9857244094488189
 20
3.639318897637796
 30
0.0
 10
0.9857244094488189
 20
3.639318897637796
 30
0.0
 10
0.987992125984252
 20
2.893547244094489
 30
0.0
 10
0.987992125984252
 20
2.893547244094489
 30
0.0
 10
0.987992125984252
 20
2.893547244094489
 30
0.0
 10
0.987992125984252
 20
2.893547244094489
 30
0.0
 10
0.7063937007874016
 20
3.147295275590551
 30
0.0
 10
0.7063937007874016
 20
3.147295275590551
 30
0.0
  0
SPLINE
  5
48
330
1F
100
AcDbEntity
  8
LAYER_1
 62
   250
100
AcDbSpline
210
0.0
220
0.0
230
1.0
 70
    11
 71
     3
 72
    20
 73
    16
 74
     0
 42
0.0000000001
 43
0.0000000001
 40
0.0
 40
0.0
 40
0.0
 40
0.0
 40
0.25
 40
0.25
 40
0.25
 40
0.25
 40
0.5
 40
0.5
 40
0.5
 40
0.5
 40
0.75
 40
0.75
 40
0.75
 40
0.75
 40
1.0
 40
1.0
 40
1.0
 40
1.0
 10
0.7063937007874016
 20
3.147295275590551
 30
0.0
 10
0.7063937007874016
 20
3.147295275590551
 30
0.0
 10
0.7041259842519685
 20
3.893066929133858
 30
0.0
 10
0.7041259842519685
 20
3.893066929133858
 30
0.0
 10
0.7041259842519685
 20
3.893066929133858
 30
0.0
 10
0.7041259842519685
 20
3.893066929133858
 30
0.0
 10
0.9857244094488189
 20
3.639318897637796
 30
0.0
 10
0.9857244094488189
 20
3.639318897637796
 30
0.0
 10
0.9857244094488189
 20
3.639318897637796
 30
0.0
 10
0.9857244094488189
 20
3.639318897637796
 30
0.0
 10
0.987992125984252
 20
2.893547244094489
 30
0.0
 10
0.987992125984252
 20
2.893547244094489
 30
0.0
 10
0.987992125984252
 20
2.893547244094489
 30
0.0
 10
0.987992125984252
 20
2.893547244094489
 30
0.0
 10
0.7063937007874016
 20
3.147295275590551
 30
0.0
 10
0.7063937007874016
 20
3.147295275590551
 30
0.0
  0
SPLINE
  5
49
330
1F
100
AcDbEntity
  8
LAYER_1
 62
   252
100
AcDbSpline
210
0.0
220
0.0
230
1.0
 70
    11
 71
     3
 72
    20
 73
    16
 74
     0
 42
0.0000000001
 43
0.0000000001
 40
0.0
 40
0.0
 40
0.0
 40
0.0
 40
0.25
 40
0.25
 40
0.25
 40
0.25
 40
0.5
 40
0.5
 40
0.5
 40
0.5
 40
0.75
 40
0.75
 40
0.75
 40
0.75
 40
1.0
 40
1.0
 40
1.0
 40
1.0
 10
0.987992125984252
 20
2.893547244094489
 30
0.0
 10
0.987992125984252
 20
2.893547244094489
 30
0.0
 10
0.9857244094488189
 20
3.639318897637796
 30
0.0
 10
0.9857244094488189
 20
3.639318897637796
 30
0.0
 10
0.9857244094488189
 20
3.639318897637796
 30
0.0
 10
0.9857244094488189
 20
3.639318897637796
 30
0.0
 10
1.171393700787402
 20
3.639318897637796
 30
0.0
 10
1.171393700787402
 20
3.639318897637796
 30
0.0
 10
1.171393700787402
 20
3.639318897637796
 30
0.0
 10
1.171393700787402
 20
3.639318897637796
 30
0.0
 10
1.173661417322835
 20
2.893547244094489
 30
0.0
 10
1.173661417322835
 20
2.893547244094489
 30
0.0
 10
1.173661417322835
 20
2.893547244094489
 30
0.0
 10
1.173661417322835
 20
2.893547244094489
 30
0.0
 10
0.987992125984252
 20
2.893547244094489
 30
0.0
 10
0.987992125984252
 20
2.893547244094489
 30
0.0
  0
SPLINE
  5
4A
330
1F
100
AcDbEntity
  8
LAYER_1
 62
   250
100
AcDbSpline
210
0.0
220
0.0
230
1.0
 70
    11
 71
     3
 72
    20
 73
    16
 74
     0
 42
0.0000000001
 43
0.0000000001
 40
0.0
 40
0.0
 40
0.0
 40
0.0
 40
0.25
 40
0.25
 40
0.25
 40
0.25
 40
0.5
 40
0.5
 40
0.5
 40
0.5
 40
0.75
 40
0.75
 40
0.75
 40
0.75
 40
1.0
 40
1.0
 40
1.0
 40
1.0
 10
0.987992125984252
 20
2.893547244094489
 30
0.0
 10
0.987992125984252
 20
2.893547244094489
 30
0.0
 10
0.9857244094488189
 20
3.639318897637796
 30
0.0
 10
0.9857244094488189
 20
3.639318897637796
 30
0.0
 10
0.9857244094488189
 20
3.639318897637796
 30
0.0
 10
0.9857244094488189
 20
3.639318897637796
 30
0.0
 10
1.171393700787402
 20
3.639318897637796
 30
0.0
 10
1.171393700787402
 20
3.639318897637796
 30
0.0
 10
1.171393700787402
 20
3.639318897637796
 30
0.0
 10
1.171393700787402
 20
3.639318897637796
 30
0.0
 10
1.173661417322835
 20
2.893547244094489
 30
0.0
 10
1.173661417322835
 20
2.893547244094489
 30
0.0
 10
1.173661417322835
 20
2.893547244094489
 30
0.0
 10
1.173661417322835
 20
2.893547244094489
 30
0.0
 10
0.987992125984252
 20
2.893547244094489
 30
0.0
 10
0.987992125984252
 20
2.893547244094489
 30
0.0
  0
SPLINE
  5
4B
330
1F
100
AcDbEntity
  8
LAYER_1
 62
   252
100
AcDbSpline
210
0.0
220
0.0
230
1.0
 70
    11
 71
     3
 72
    20
 73
    16
 74
     0
 42
0.0000000001
 43
0.0000000001
 40
0.0
 40
0.0
 40
0.0
 40
0.0
 40
0.25
 40
0.25
 40
0.25
 40
0.25
 40
0.5
 40
0.5
 40
0.5
 40
0.5
 40
0.75
 40
0.75
 40
0.75
 40
0.75
 40
1.0
 40
1.0
 40
1.0
 40
1.0
 10
0.4928740157480315
 20
3.147295275590551
 30
0.0
 10
0.4928740157480315
 20
3.147295275590551
 30
0.0
 10
0.4906062992125985
 20
3.893066929133858
 30
0.0
 10
0.4906062992125985
 20
3.893066929133858
 30
0.0
 10
0.4906062992125985
 20
3.893066929133858
 30
0.0
 10
0.4906062992125985
 20
3.893066929133858
 30
0.0
 10
0.7041259842519685
 20
3.893066929133858
 30
0.0
 10
0.7041259842519685
 20
3.893066929133858
 30
0.0
 10
0.7041259842519685
 20
3.893066929133858
 30
0.0
 10
0.7041259842519685
 20
3.893066929133858
 30
0.0
 10
0.7063937007874016
 20
3.147295275590551
 30
0.0
 10
0.7063937007874016
 20
3.147295275590551
 30
0.0
 10
0.7063937007874016
 20
3.147295275590551
 30
0.0
 10
0.7063937007874016
 20
3.147295275590551
 30
0.0
 10
0.4928740157480315
 20
3.147295275590551
 30
0.0
 10
0.4928740157480315
 20
3.147295275590551
 30
0.0
  0
SPLINE
  5
4C
330
1F
100
AcDbEntity
  8
LAYER_1
 62
   250
100
AcDbSpline
210
0.0
220
0.0
230
1.0
 70
    11
 71
     3
 72
    20
 73
    16
 74
     0
 42
0.0000000001
 43
0.0000000001
 40
0.0
 40
0.0
 40
0.0
 40
0.0
 40
0.25
 40
0.25
 40
0.25
 40
0.25
 40
0.5
 40
0.5
 40
0.5
 40
0.5
 40
0.75
 40
0.75
 40
0.75
 40
0.75
 40
1.0
 40
1.0
 40
1.0
 40
1.0
 10
0.4928740157480315
 20
3.147295275590551
 30
0.0
 10
0.4928740157480315
 20
3.147295275590551
 30
0.0
 10
0.4906062992125985
 20
3.893066929133858
 30
0.0
 10
0.4906062992125985
 20
3.893066929133858
 30
0.0
 10
0.4906062992125985
 20
3.893066929133858
 30
0.0
 10
0.4906062992125985
 20
3.893066929133858
 30
0.0
 10
0.7041259842519685
 20
3.893066929133858
 30
0.0
 10
0.7041259842519685
 20
3.893066929133858
 30
0.0
 10
0.7041259842519685
 20
3.893066929133858
 30
0.0
 10
0.7041259842519685
 20
3.893066929133858
 30
0.0
 10
0.7063937007874016
 20
3.147295275590551
 30
0.0
 10
0.7063937007874016
 20
3.147295275590551
 30
0.0
 10
0.7063937007874016
 20
3.147295275590551
 30
0.0
 10
0.7063937007874016
 20
3.147295275590551
 30
0.0
 10
0.4928740157480315
 20
3.147295275590551
 30
0.0
 10
0.4928740157480315
 20
3.147295275590551
 30
0.0
  0
SPLINE
  5
4D
330
1F
100
AcDbEntity
  8
LAYER_1
 62
   252
100
AcDbSpline
210
0.0
220
0.0
230
1.0
 70
    11
 71
     3
 72
    20
 73
    16
 74
     0
 42
0.0000000001
 43
0.0000000001
 40
0.0
 40
0.0
 40
0.0
 40
0.0
 40
0.25
 40
0.25
 40
0.25
 40
0.25
 40
0.5
 40
0.5
 40
0.5
 40
0.5
 40
0.75
 40
0.75
 40
0.75
 40
0.75
 40
1.0
 40
1.0
 40
1.0
 40
1.0
 10
0.7063937007874016
 20
3.147295275590551
 30
0.0
 10
0.7063937007874016
 20
3.147295275590551
 30
0.0
 10
0.7041259842519685
 20
3.893066929133858
 30
0.0
 10
0.7041259842519685
 20
3.893066929133858
 30
0.0
 10
0.7041259842519685
 20
3.893066929133858
 30
0.0
 10
0.7041259842519685
 20
3.893066929133858
 30
0.0
 10
0.9857244094488189
 20
3.639318897637796
 30
0.0
 10
0.9857244094488189
 20
3.639318897637796
 30
0.0
 10
0.9857244094488189
 20
3.639318897637796
 30
0.0
 10
0.9857244094488189
 20
3.639318897637796
 30
0.0
 10
0.987992125984252
 20
2.893547244094489
 30
0.0
 10
0.987992125984252
 20
2.893547244094489
 30
0.0
 10
0.987992125984252
 20
2.893547244094489
 30
0.0
 10
0.987992125984252
 20
2.893547244094489
 30
0.0
 10
0.7063937007874016
 20
3.147295275590551
 30
0.0
 10
0.7063937007874016
 20
3.147295275590551
 30
0.0
  0
SPLINE
  5
4E
330
1F
100
AcDbEntity
  8
LAYER_1
 62
   250
100
AcDbSpline
210
0.0
220
0.0
230
1.0
 70
    11
 71
     3
 72
    20
 73
    16
 74
     0
 42
0.0000000001
 43
0.0000000001
 40
0.0
 40
0.0
 40
0.0
 40
0.0
 40
0.25
 40
0.25
 40
0.25
 40
0.25
 40
0.5
 40
0.5
 40
0.5
 40
0.5
 40
0.75
 40
0.75
 40
0.75
 40
0.75
 40
1.0
 40
1.0
 40
1.0
 40
1.0
 10
0.7063937007874016
 20
3.147295275590551
 30
0.0
 10
0.7063937007874016
 20
3.147295275590551
 30
0.0
 10
0.7041259842519685
 20
3.893066929133858
 30
0.0
 10
0.7041259842519685
 20
3.893066929133858
 30
0.0
 10
0.7041259842519685
 20
3.893066929133858
 30
0.0
 10
0.7041259842519685
 20
3.893066929133858
 30
0.0
 10
0.9857244094488189
 20
3.639318897637796
 30
0.0
 10
0.9857244094488189
 20
3.639318897637796
 30
0.0
 10
0.9857244094488189
 20
3.639318897637796
 30
0.0
 10
0.9857244094488189
 20
3.639318897637796
 30
0.0
 10
0.987992125984252
 20
2.893547244094489
 30
0.0
 10
0.987992125984252
 20
2.893547244094489
 30
0.0
 10
0.987992125984252
 20
2.893547244094489
 30
0.0
 10
0.987992125984252
 20
2.893547244094489
 30
0.0
 10
0.7063937007874016
 20
3.147295275590551
 30
0.0
 10
0.7063937007874016
 20
3.147295275590551
 30
0.0
  0
SPLINE
  5
4F
330
1F
100
AcDbEntity
  8
LAYER_1
 62
   252
100
AcDbSpline
210
0.0
220
0.0
230
1.0
 70
    11
 71
     3
 72
    20
 73
    16
 74
     0
 42
0.0000000001
 43
0.0000000001
 40
0.0
 40
0.0
 40
0.0
 40
0.0
 40
0.25
 40
0.25
 40
0.25
 40
0.25
 40
0.5
 40
0.5
 40
0.5
 40
0.5
 40
0.75
 40
0.75
 40
0.75
 40
0.75
 40
1.0
 40
1.0
 40
1.0
 40
1.0
 10
0.987992125984252
 20
2.893547244094489
 30
0.0
 10
0.987992125984252
 20
2.893547244094489
 30
0.0
 10
0.9857244094488189
 20
3.639318897637796
 30
0.0
 10
0.9857244094488189
 20
3.639318897637796
 30
0.0
 10
0.9857244094488189
 20
3.639318897637796
 30
0.0
 10
0.9857244094488189
 20
3.639318897637796
 30
0.0
 10
1.171393700787402
 20
3.639318897637796
 30
0.0
 10
1.171393700787402
 20
3.639318897637796
 30
0.0
 10
1.171393700787402
 20
3.639318897637796
 30
0.0
 10
1.171393700787402
 20
3.639318897637796
 30
0.0
 10
1.173661417322835
 20
2.893547244094489
 30
0.0
 10
1.173661417322835
 20
2.893547244094489
 30
0.0
 10
1.173661417322835
 20
2.893547244094489
 30
0.0
 10
1.173661417322835
 20
2.893547244094489
 30
0.0
 10
0.987992125984252
 20
2.893547244094489
 30
0.0
 10
0.987992125984252
 20
2.893547244094489
 30
0.0
  0
SPLINE
  5
50
330
1F
100
AcDbEntity
  8
LAYER_1
 62
   250
100
AcDbSpline
210
0.0
220
0.0
230
1.0
 70
    11
 71
     3
 72
    20
 73
    16
 74
     0
 42
0.0000000001
 43
0.0000000001
 40
0.0
 40
0.0
 40
0.0
 40
0.0
 40
0.25
 40
0.25
 40
0.25
 40
0.25
 40
0.5
 40
0.5
 40
0.5
 40
0.5
 40
0.75
 40
0.75
 40
0.75
 40
0.75
 40
1.0
 40
1.0
 40
1.0
 40
1.0
 10
0.987992125984252
 20
2.893547244094489
 30
0.0
 10
0.987992125984252
 20
2.893547244094489
 30
0.0
 10
0.9857244094488189
 20
3.639318897637796
 30
0.0
 10
0.9857244094488189
 20
3.639318897637796
 30
0.0
 10
0.9857244094488189
 20
3.639318897637796
 30
0.0
 10
0.9857244094488189
 20
3.639318897637796
 30
0.0
 10
1.171393700787402
 20
3.639318897637796
 30
0.0
 10
1.171393700787402
 20
3.639318897637796
 30
0.0
 10
1.171393700787402
 20
3.639318897637796
 30
0.0
 10
1.171393700787402
 20
3.639318897637796
 30
0.0
 10
1.173661417322835
 20
2.893547244094489
 30
0.0
 10
1.173661417322835
 20
2.893547244094489
 30
0.0
 10
1.173661417322835
 20
2.893547244094489
 30
0.0
 10
1.173661417322835
 20
2.893547244094489
 30
0.0
 10
0.987992125984252
 20
2.893547244094489
 30
0.0
 10
0.987992125984252
 20
2.893547244094489
 30
0.0
  0
SPLINE
  5
51
330
1F
100
AcDbEntity
  8
LAYER_1
 62
     7
100
AcDbSpline
210
0.0
220
0.0
230
1.0
 70
    11
 71
     3
 72
    28
 73
    24
 74
     0
 42
0.0000000001
 43
0.0000000001
 40
0.0
 40
0.0
 40
0.0
 40
0.0
 40
0.1666666666666667
 40
0.1666666666666667
 40
0.1666666666666667
 40
0.1666666666666667
 40
0.3333333333333333
 40
0.3333333333333333
 40
0.3333333333333333
 40
0.3333333333333333
 40
0.5
 40
0.5
 40
0.5
 40
0.5
 40
0.6666666666666666
 40
0.6666666666666666
 40
0.6666666666666666
 40
0.6666666666666666
 40
0.8333333333333333
 40
0.8333333333333333
 40
0.8333333333333333
 40
0.8333333333333333
 40
1.0
 40
1.0
 40
1.0
 40
1.0
 10
1.173661417322835
 20
2.893547244094489
 30
0.0
 10
1.173661417322835
 20
2.893547244094489
 30
0.0
 10
1.173661417322835
 20
2.683122047244094
 30
0.0
 10
1.173661417322835
 20
2.683122047244094
 30
0.0
 10
1.173661417322835
 20
2.683122047244094
 30
0.0
 10
1.173661417322835
 20
2.683122047244094
 30
0.0
 10
0.4928740157480315
 20
2.683122047244094
 30
0.0
 10
0.4928740157480315
 20
2.683122047244094
 30
0.0
 10
0.4928740157480315
 20
2.683122047244094
 30
0.0
 10
0.4928740157480315
 20
2.683122047244094
 30
0.0
 10
0.4928740157480315
 20
3.147295275590551
 30
0.0
 10
0.4928740157480315
 20
3.147295275590551
 30
0.0
 10
0.4928740157480315
 20
3.147295275590551
 30
0.0
 10
0.4928740157480315
 20
3.147295275590551
 30
0.0
 10
0.7063937007874016
 20
3.147295275590551
 30
0.0
 10
0.7063937007874016
 20
3.147295275590551
 30
0.0
 10
0.7063937007874016
 20
3.147295275590551
 30
0.0
 10
0.7063937007874016
 20
3.147295275590551
 30
0.0
 10
0.987992125984252
 20
2.893547244094489
 30
0.0
 10
0.987992125984252
 20
2.893547244094489
 30
0.0
 10
0.987992125984252
 20
2.893547244094489
 30
0.0
 10
0.987992125984252
 20
2.893547244094489
 30
0.0
 10
1.173661417322835
 20
2.893547244094489
 30
0.0
 10
1.173661417322835
 20
2.893547244094489
 30
0.0
  0
SPLINE
  5
52
330
1F
100
AcDbEntity
  8
LAYER_1
 62
   250
100
AcDbSpline
210
0.0
220
0.0
230
1.0
 70
    11
 71
     3
 72
   104
 73
   100
 74
     0
 42
0.0000000001
 43
0.0000000001
 40
0.0
 40
0.0
 40
0.0
 40
0.0
 40
0.04
 40
0.04
 40
0.04
 40
0.04
 40
0.08
 40
0.08
 40
0.08
 40
0.08
 40
0.12
 40
0.12
 40
0.12
 40
0.12
 40
0.16
 40
0.16
 40
0.16
 40
0.16
 40
0.2
 40
0.2
 40
0.2
 40
0.2
 40
0.24
 40
0.24
 40
0.24
 40
0.24
 40
0.28
 40
0.28
 40
0.28
 40
0.28
 40
0.32
 40
0.32
 40
0.32
 40
0.32
 40
0.36
 40
0.36
 40
0.36
 40
0.36
 40
0.4
 40
0.4
 40
0.4
 40
0.4
 40
0.44
 40
0.44
 40
0.44
 40
0.44
 40
0.4799999999999999
 40
0.4799999999999999
 40
0.4799999999999999
 40
0.4799999999999999
 40
0.5199999999999999
 40
0.5199999999999999
 40
0.5199999999999999
 40
0.5199999999999999
 40
0.5599999999999999
 40
0.5599999999999999
 40
0.5599999999999999
 40
0.5599999999999999
 40
0.6
 40
0.6
 40
0.6
 40
0.6
 40
0.64
 40
0.64
 40
0.64
 40
0.64
 40
0.6800000000000001
 40
0.6800000000000001
 40
0.6800000000000001
 40
0.6800000000000001
 40
0.7200000000000001
 40
0.7200000000000001
 40
0.7200000000000001
 40
0.7200000000000001
 40
0.7600000000000001
 40
0.7600000000000001
 40
0.7600000000000001
 40
0.7600000000000001
 40
0.8000000000000002
 40
0.8000000000000002
 40
0.8000000000000002
 40
0.8000000000000002
 40
0.8400000000000002
 40
0.8400000000000002
 40
0.8400000000000002
 40
0.8400000000000002
 40
0.8800000000000002
 40
0.8800000000000002
 40
0.8800000000000002
 40
0.8800000000000002
 40
0.9200000000000003
 40
0.9200000000000003
 40
0.9200000000000003
 40
0.9200000000000003
 40
0.9600000000000003
 40
0.9600000000000003
 40
0.9600000000000003
 40
0.9600000000000003
 40
1.0
 40
1.0
 40
1.0
 40
1.0
 10
0.4635314960629922
 20
2.562830708661418
 30
0.0
 10
0.4635314960629922
 20
2.562830708661418
 30
0.0
 10
0.517503937007874
 20
2.562830708661418
 30
0.0
 10
0.517503937007874
 20
2.562830708661418
 30
0.0
 10
0.517503937007874
 20
2.562830708661418
 30
0.0
 10
0.5306732283464567
 20
2.562830708661418
 30
0.0
 10
0.5397007874015748
 20
2.562220472440945
 30
0.0
 10
0.5445866141732284
 20
2.561023622047244
 30
0.0
 10
0.5445866141732284
 20
2.561023622047244
 30
0.0
 10
0.5518110236220473
 20
2.559303149606299
 30
0.0
 10
0.557503937007874
 20
2.556165354330709
 30
0.0
 10
0.5617283464566929
 20
2.551606299212599
 30
0.0
 10
0.5617283464566929
 20
2.551606299212599
 30
0.0
 10
0.5659212598425197
 20
2.547051181102362
 30
0.0
 10
0.5680314960629922
 20
2.541551181102362
 30
0.0
 10
0.5680314960629922
 20
2.535165354330709
 30
0.0
 10
0.5680314960629922
 20
2.535165354330709
 30
0.0
 10
0.5680314960629922
 20
2.530551181102362
 30
0.0
 10
0.5669212598425197
 20
2.526413385826772
 30
0.0
 10
0.5647007874015748
 20
2.522748031496063
 30
0.0
 10
0.5647007874015748
 20
2.522748031496063
 30
0.0
 10
0.562476377952756
 20
2.519078740157481
 30
0.0
 10
0.559228346456693
 20
2.51594094488189
 30
0.0
 10
0.555003937007874
 20
2.513358267716535
 30
0.0
 10
0.555003937007874
 20
2.513358267716535
 30
0.0
 10
0.5522834645669291
 20
2.511665354330709
 30
0.0
 10
0.5486141732283465
 20
2.510220472440945
 30
0.0
 10
0.5439488188976378
 20
2.509023622047244
 30
0.0
 10
0.5439488188976378
 20
2.509023622047244
 30
0.0
 10
0.5498661417322834
 20
2.50794094488189
 30
0.0
 10
0.5543661417322835
 20
2.506637795275591
 30
0.0
 10
0.5574488188976379
 20
2.505137795275591
 30
0.0
 10
0.5574488188976379
 20
2.505137795275591
 30
0.0
 10
0.5621141732283465
 20
2.502858267716535
 30
0.0
 10
0.5658110236220473
 20
2.499610236220473
 30
0.0
 10
0.5685039370078741
 20
2.495358267716536
 30
0.0
 10
0.5685039370078741
 20
2.495358267716536
 30
0.0
 10
0.571228346456693
 20
2.49113779527559
 30
0.0
 10
0.5725866141732283
 20
2.486358267716536
 30
0.0
 10
0.5725866141732283
 20
2.481051181102362
 30
0.0
 10
0.5725866141732283
 20
2.481051181102362
 30
0.0
 10
0.5725866141732283
 20
2.475885826771654
 30
0.0
 10
0.5712559055118111
 20
2.471110236220472
 30
0.0
 10
0.5685866141732284
 20
2.466720472440945
 30
0.0
 10
0.5685866141732284
 20
2.466720472440945
 30
0.0
 10
0.5659488188976378
 20
2.462330708661417
 30
0.0
 10
0.5621732283464567
 20
2.458720472440945
 30
0.0
 10
0.5573385826771654
 20
2.455885826771654
 30
0.0
 10
0.5573385826771654
 20
2.455885826771654
 30
0.0
 10
0.552476377952756
 20
2.453082677165354
 30
0.0
 10
0.5468110236220473
 20
2.451275590551181
 30
0.0
 10
0.5403661417322835
 20
2.450468503937008
 30
0.0
 10
0.5403661417322835
 20
2.450468503937008
 30
0.0
 10
0.5338937007874016
 20
2.449692913385827
 30
0.0
 10
0.527255905511811
 20
2.449303149606299
 30
0.0
 10
0.5204212598425198
 20
2.449303149606299
 30
0.0
 10
0.5204212598425198
 20
2.449303149606299
 30
0.0
 10
0.5204212598425198
 20
2.449303149606299
 30
0.0
 10
0.4635314960629922
 20
2.449303149606299
 30
0.0
 10
0.4635314960629922
 20
2.449303149606299
 30
0.0
 10
0.4635314960629922
 20
2.449303149606299
 30
0.0
 10
0.4635314960629922
 20
2.449303149606299
 30
0.0
 10
0.4635314960629922
 20
2.456137795275591
 30
0.0
 10
0.4635314960629922
 20
2.456137795275591
 30
0.0
 10
0.4635314960629922
 20
2.456137795275591
 30
0.0
 10
0.4635314960629922
 20
2.456137795275591
 30
0.0
 10
0.4673661417322835
 20
2.456137795275591
 30
0.0
 10
0.4673661417322835
 20
2.456137795275591
 30
0.0
 10
0.4673661417322835
 20
2.456137795275591
 30
0.0
 10
0.4710629921259843
 20
2.456137795275591
 30
0.0
 10
0.4735629921259843
 20
2.456720472440945
 30
0.0
 10
0.4749212598425197
 20
2.457858267716536
 30
0.0
 10
0.4749212598425197
 20
2.457858267716536
 30
0.0
 10
0.4768937007874016
 20
2.459413385826772
 30
0.0
 10
0.4778661417322835
 20
2.462023622047244
 30
0.0
 10
0.4778661417322835
 20
2.465665354330709
 30
0.0
 10
0.4778661417322835
 20
2.465665354330709
 30
0.0
 10
0.4778661417322835
 20
2.465665354330709
 30
0.0
 10
0.4778661417322835
 20
2.544523622047244
 30
0.0
 10
0.4778661417322835
 20
2.544523622047244
 30
0.0
 10
0.4778661417322835
 20
2.544523622047244
 30
0.0
 10
0.4778661417322835
 20
2.548220472440945
 30
0.0
 10
0.4775629921259842
 20
2.550720472440945
 30
0.0
 10
0.4769763779527559
 20
2.552078740157481
 30
0.0
 10
0.4769763779527559
 20
2.552078740157481
 30
0.0
 10
0.4763661417322835
 20
2.55344094488189
 30
0.0
 10
0.4754763779527559
 20
2.554413385826772
 30
0.0
 10
0.4742834645669292
 20
2.555023622047244
 30
0.0
 10
0.4742834645669292
 20
2.555023622047244
 30
0.0
 10
0.4730905511811024
 20
2.555606299212599
 30
0.0
 10
0.4707834645669292
 20
2.555913385826772
 30
0.0
 10
0.4673661417322835
 20
2.555913385826772
 30
0.0
 10
0.4673661417322835
 20
2.555913385826772
 30
0.0
 10
0.4673661417322835
 20
2.555913385826772
 30
0.0
 10
0.4635314960629922
 20
2.555913385826772
 30
0.0
 10
0.4635314960629922
 20
2.555913385826772
 30
0.0
 10
0.4635314960629922
 20
2.555913385826772
 30
0.0
 10
0.4635314960629922
 20
2.555913385826772
 30
0.0
 10
0.4635314960629922
 20
2.562830708661418
 30
0.0
 10
0.4635314960629922
 20
2.562830708661418
 30
0.0
  0
SPLINE
  5
53
330
1F
100
AcDbEntity
  8
LAYER_1
 62
   250
100
AcDbSpline
210
0.0
220
0.0
230
1.0
 70
    11
 71
     3
 72
    40
 73
    36
 74
     0
 42
0.0000000001
 43
0.0000000001
 40
0.0
 40
0.0
 40
0.0
 40
0.0
 40
0.1111111111111111
 40
0.1111111111111111
 40
0.1111111111111111
 40
0.1111111111111111
 40
0.2222222222222222
 40
0.2222222222222222
 40
0.2222222222222222
 40
0.2222222222222222
 40
0.3333333333333333
 40
0.3333333333333333
 40
0.3333333333333333
 40
0.3333333333333333
 40
0.4444444444444444
 40
0.4444444444444444
 40
0.4444444444444444
 40
0.4444444444444444
 40
0.5555555555555556
 40
0.5555555555555556
 40
0.5555555555555556
 40
0.5555555555555556
 40
0.6666666666666667
 40
0.6666666666666667
 40
0.6666666666666667
 40
0.6666666666666667
 40
0.7777777777777779
 40
0.7777777777777779
 40
0.7777777777777779
 40
0.7777777777777779
 40
0.8888888888888891
 40
0.8888888888888891
 40
0.8888888888888891
 40
0.8888888888888891
 40
1.0
 40
1.0
 40
1.0
 40
1.0
 10
0.4930905511811024
 20
2.553803149606299
 30
0.0
 10
0.4930905511811024
 20
2.553803149606299
 30
0.0
 10
0.4930905511811024
 20
2.512220472440945
 30
0.0
 10
0.4930905511811024
 20
2.512220472440945
 30
0.0
 10
0.4930905511811024
 20
2.512220472440945
 30
0.0
 10
0.4930905511811024
 20
2.512220472440945
 30
0.0
 10
0.5138385826771654
 20
2.512220472440945
 30
0.0
 10
0.5138385826771654
 20
2.512220472440945
 30
0.0
 10
0.5138385826771654
 20
2.512220472440945
 30
0.0
 10
0.5235314960629921
 20
2.512220472440945
 30
0.0
 10
0.5302007874015748
 20
2.512665354330709
 30
0.0
 10
0.5337559055118111
 20
2.513578740157481
 30
0.0
 10
0.5337559055118111
 20
2.513578740157481
 30
0.0
 10
0.5393661417322835
 20
2.515051181102362
 30
0.0
 10
0.5436141732283465
 20
2.517551181102362
 30
0.0
 10
0.5465866141732284
 20
2.52107874015748
 30
0.0
 10
0.5465866141732284
 20
2.52107874015748
 30
0.0
 10
0.5495314960629921
 20
2.524606299212599
 30
0.0
 10
0.5510314960629922
 20
2.529137795275591
 30
0.0
 10
0.5510314960629922
 20
2.534665354330709
 30
0.0
 10
0.5510314960629922
 20
2.534665354330709
 30
0.0
 10
0.5510314960629922
 20
2.539330708661418
 30
0.0
 10
0.5496732283464567
 20
2.543220472440945
 30
0.0
 10
0.5470039370078741
 20
2.546358267716536
 30
0.0
 10
0.5470039370078741
 20
2.546358267716536
 30
0.0
 10
0.5443110236220473
 20
2.549468503937008
 30
0.0
 10
0.5407007874015748
 20
2.551606299212599
 30
0.0
 10
0.5362007874015748
 20
2.552748031496063
 30
0.0
 10
0.5362007874015748
 20
2.552748031496063
 30
0.0
 10
0.5332834645669291
 20
2.55344094488189
 30
0.0
 10
0.5272007874015748
 20
2.553803149606299
 30
0.0
 10
0.517976377952756
 20
2.553803149606299
 30
0.0
 10
0.517976377952756
 20
2.553803149606299
 30
0.0
 10
0.517976377952756
 20
2.553803149606299
 30
0.0
 10
0.4930905511811024
 20
2.553803149606299
 30
0.0
 10
0.4930905511811024
 20
2.553803149606299
 30
0.0
  0
SPLINE
  5
54
330
1F
100
AcDbEntity
  8
LAYER_1
 62
   250
100
AcDbSpline
210
0.0
220
0.0
230
1.0
 70
    11
 71
     3
 72
    52
 73
    48
 74
     0
 42
0.0000000001
 43
0.0000000001
 40
0.0
 40
0.0
 40
0.0
 40
0.0
 40
0.0833333333333333
 40
0.0833333333333333
 40
0.0833333333333333
 40
0.0833333333333333
 40
0.1666666666666667
 40
0.1666666666666667
 40
0.1666666666666667
 40
0.1666666666666667
 40
0.25
 40
0.25
 40
0.25
 40
0.25
 40
0.3333333333333333
 40
0.3333333333333333
 40
0.3333333333333333
 40
0.3333333333333333
 40
0.4166666666666666
 40
0.4166666666666666
 40
0.4166666666666666
 40
0.4166666666666666
 40
0.4999999999999999
 40
0.4999999999999999
 40
0.4999999999999999
 40
0.4999999999999999
 40
0.5833333333333333
 40
0.5833333333333333
 40
0.5833333333333333
 40
0.5833333333333333
 40
0.6666666666666666
 40
0.6666666666666666
 40
0.6666666666666666
 40
0.6666666666666666
 40
0.75
 40
0.75
 40
0.75
 40
0.75
 40
0.8333333333333334
 40
0.8333333333333334
 40
0.8333333333333334
 40
0.8333333333333334
 40
0.9166666666666667
 40
0.9166666666666667
 40
0.9166666666666667
 40
0.9166666666666667
 40
1.0
 40
1.0
 40
1.0
 40
1.0
 10
0.4930905511811024
 20
2.504385826771653
 30
0.0
 10
0.4930905511811024
 20
2.504385826771653
 30
0.0
 10
0.4930905511811024
 20
2.467137795275591
 30
0.0
 10
0.4930905511811024
 20
2.467137795275591
 30
0.0
 10
0.4930905511811024
 20
2.467137795275591
 30
0.0
 10
0.4930905511811024
 20
2.463385826771654
 30
0.0
 10
0.493255905511811
 20
2.461165354330709
 30
0.0
 10
0.4935590551181103
 20
2.46044094488189
 30
0.0
 10
0.4935590551181103
 20
2.46044094488189
 30
0.0
 10
0.494003937007874
 20
2.459468503937008
 30
0.0
 10
0.4948661417322835
 20
2.458803149606299
 30
0.0
 10
0.4961732283464567
 20
2.458413385826772
 30
0.0
 10
0.4961732283464567
 20
2.458413385826772
 30
0.0
 10
0.4970905511811024
 20
2.458137795275591
 30
0.0
 10
0.4997007874015748
 20
2.457996062992126
 30
0.0
 10
0.503976377952756
 20
2.457996062992126
 30
0.0
 10
0.503976377952756
 20
2.457996062992126
 30
0.0
 10
0.503976377952756
 20
2.457996062992126
 30
0.0
 10
0.5150590551181102
 20
2.457996062992126
 30
0.0
 10
0.5150590551181102
 20
2.457996062992126
 30
0.0
 10
0.5150590551181102
 20
2.457996062992126
 30
0.0
 10
0.5260039370078741
 20
2.457996062992126
 30
0.0
 10
0.5338385826771653
 20
2.458610236220473
 30
0.0
 10
0.5385314960629921
 20
2.459830708661417
 30
0.0
 10
0.5385314960629921
 20
2.459830708661417
 30
0.0
 10
0.5432283464566929
 20
2.461051181102362
 30
0.0
 10
0.5472283464566929
 20
2.463637795275591
 30
0.0
 10
0.5505314960629921
 20
2.467582677165355
 30
0.0
 10
0.5505314960629921
 20
2.467582677165355
 30
0.0
 10
0.5538385826771654
 20
2.471496062992126
 30
0.0
 10
0.555503937007874
 20
2.476248031496063
 30
0.0
 10
0.555503937007874
 20
2.481775590551181
 30
0.0
 10
0.555503937007874
 20
2.481775590551181
 30
0.0
 10
0.555503937007874
 20
2.48644094488189
 30
0.0
 10
0.5541456692913386
 20
2.49057874015748
 30
0.0
 10
0.551476377952756
 20
2.494192913385827
 30
0.0
 10
0.551476377952756
 20
2.494192913385827
 30
0.0
 10
0.5487834645669292
 20
2.497803149606299
 30
0.0
 10
0.5450590551181103
 20
2.500385826771653
 30
0.0
 10
0.5403110236220473
 20
2.501996062992126
 30
0.0
 10
0.5403110236220473
 20
2.501996062992126
 30
0.0
 10
0.5355590551181103
 20
2.503610236220473
 30
0.0
 10
0.5271456692913386
 20
2.504385826771653
 30
0.0
 10
0.5150590551181102
 20
2.504385826771653
 30
0.0
 10
0.5150590551181102
 20
2.504385826771653
 30
0.0
 10
0.5150590551181102
 20
2.504385826771653
 30
0.0
 10
0.4930905511811024
 20
2.504385826771653
 30
0.0
 10
0.4930905511811024
 20
2.504385826771653
 30
0.0
  0
SPLINE
  5
55
330
1F
100
AcDbEntity
  8
LAYER_1
 62
   250
100
AcDbSpline
210
0.0
220
0.0
230
1.0
 70
    11
 71
     3
 72
   112
 73
   108
 74
     0
 42
0.0000000001
 43
0.0000000001
 40
0.0
 40
0.0
 40
0.0
 40
0.0
 40
0.037037037037037
 40
0.037037037037037
 40
0.037037037037037
 40
0.037037037037037
 40
0.0740740740740741
 40
0.0740740740740741
 40
0.0740740740740741
 40
0.0740740740740741
 40
0.1111111111111111
 40
0.1111111111111111
 40
0.1111111111111111
 40
0.1111111111111111
 40
0.1481481481481481
 40
0.1481481481481481
 40
0.1481481481481481
 40
0.1481481481481481
 40
0.1851851851851852
 40
0.1851851851851852
 40
0.1851851851851852
 40
0.1851851851851852
 40
0.2222222222222222
 40
0.2222222222222222
 40
0.2222222222222222
 40
0.2222222222222222
 40
0.2592592592592592
 40
0.2592592592592592
 40
0.2592592592592592
 40
0.2592592592592592
 40
0.2962962962962963
 40
0.2962962962962963
 40
0.2962962962962963
 40
0.2962962962962963
 40
0.3333333333333333
 40
0.3333333333333333
 40
0.3333333333333333
 40
0.3333333333333333
 40
0.3703703703703704
 40
0.3703703703703704
 40
0.3703703703703704
 40
0.3703703703703704
 40
0.4074074074074074
 40
0.4074074074074074
 40
0.4074074074074074
 40
0.4074074074074074
 40
0.4444444444444444
 40
0.4444444444444444
 40
0.4444444444444444
 40
0.4444444444444444
 40
0.4814814814814815
 40
0.4814814814814815
 40
0.4814814814814815
 40
0.4814814814814815
 40
0.5185185185185185
 40
0.5185185185185185
 40
0.5185185185185185
 40
0.5185185185185185
 40
0.5555555555555556
 40
0.5555555555555556
 40
0.5555555555555556
 40
0.5555555555555556
 40
0.5925925925925926
 40
0.5925925925925926
 40
0.5925925925925926
 40
0.5925925925925926
 40
0.6296296296296295
 40
0.6296296296296295
 40
0.6296296296296295
 40
0.6296296296296295
 40
0.6666666666666665
 40
0.6666666666666665
 40
0.6666666666666665
 40
0.6666666666666665
 40
0.7037037037037035
 40
0.7037037037037035
 40
0.7037037037037035
 40
0.7037037037037035
 40
0.7407407407407405
 40
0.7407407407407405
 40
0.7407407407407405
 40
0.7407407407407405
 40
0.7777777777777775
 40
0.7777777777777775
 40
0.7777777777777775
 40
0.7777777777777775
 40
0.8148148148148144
 40
0.8148148148148144
 40
0.8148148148148144
 40
0.8148148148148144
 40
0.8518518518518514
 40
0.8518518518518514
 40
0.8518518518518514
 40
0.8518518518518514
 40
0.8888888888888884
 40
0.8888888888888884
 40
0.8888888888888884
 40
0.8888888888888884
 40
0.9259259259259254
 40
0.9259259259259254
 40
0.9259259259259254
 40
0.9259259259259254
 40
0.9629629629629624
 40
0.9629629629629624
 40
0.9629629629629624
 40
0.9629629629629624
 40
1.0
 40
1.0
 40
1.0
 40
1.0
 10
0.6301968503937008
 20
2.562830708661418
 30
0.0
 10
0.6301968503937008
 20
2.562830708661418
 30
0.0
 10
0.6436141732283465
 20
2.562830708661418
 30
0.0
 10
0.6436141732283465
 20
2.562830708661418
 30
0.0
 10
0.6436141732283465
 20
2.562830708661418
 30
0.0
 10
0.6436141732283465
 20
2.562830708661418
 30
0.0
 10
0.6788622047244095
 20
2.46794094488189
 30
0.0
 10
0.6788622047244095
 20
2.46794094488189
 30
0.0
 10
0.6788622047244095
 20
2.46794094488189
 30
0.0
 10
0.6805866141732284
 20
2.463165354330709
 30
0.0
 10
0.6823346456692914
 20
2.459996062992126
 30
0.0
 10
0.6841141732283464
 20
2.458468503937008
 30
0.0
 10
0.6841141732283464
 20
2.458468503937008
 30
0.0
 10
0.6858622047244095
 20
2.456913385826772
 30
0.0
 10
0.688251968503937
 20
2.456137795275591
 30
0.0
 10
0.6912244094488189
 20
2.456137795275591
 30
0.0
 10
0.6912244094488189
 20
2.456137795275591
 30
0.0
 10
0.6912244094488189
 20
2.456137795275591
 30
0.0
 10
0.693003937007874
 20
2.456137795275591
 30
0.0
 10
0.693003937007874
 20
2.456137795275591
 30
0.0
 10
0.693003937007874
 20
2.456137795275591
 30
0.0
 10
0.693003937007874
 20
2.456137795275591
 30
0.0
 10
0.693003937007874
 20
2.449303149606299
 30
0.0
 10
0.693003937007874
 20
2.449303149606299
 30
0.0
 10
0.693003937007874
 20
2.449303149606299
 30
0.0
 10
0.693003937007874
 20
2.449303149606299
 30
0.0
 10
0.6525590551181103
 20
2.449303149606299
 30
0.0
 10
0.6525590551181103
 20
2.449303149606299
 30
0.0
 10
0.6525590551181103
 20
2.449303149606299
 30
0.0
 10
0.6525590551181103
 20
2.449303149606299
 30
0.0
 10
0.6525590551181103
 20
2.456137795275591
 30
0.0
 10
0.6525590551181103
 20
2.456137795275591
 30
0.0
 10
0.6525590551181103
 20
2.456137795275591
 30
0.0
 10
0.6538622047244095
 20
2.456248031496063
 30
0.0
 10
0.6551417322834646
 20
2.4563031496063
 30
0.0
 10
0.6563937007874016
 20
2.4563031496063
 30
0.0
 10
0.6563937007874016
 20
2.4563031496063
 30
0.0
 10
0.6590039370078741
 20
2.4563031496063
 30
0.0
 10
0.6606968503937009
 20
2.456582677165355
 30
0.0
 10
0.6615314960629921
 20
2.457110236220473
 30
0.0
 10
0.6615314960629921
 20
2.457110236220473
 30
0.0
 10
0.6630866141732283
 20
2.458137795275591
 30
0.0
 10
0.6638897637795276
 20
2.45944094488189
 30
0.0
 10
0.6638897637795276
 20
2.461023622047244
 30
0.0
 10
0.6638897637795276
 20
2.461023622047244
 30
0.0
 10
0.6638897637795276
 20
2.462165354330709
 30
0.0
 10
0.6631141732283464
 20
2.46494094488189
 30
0.0
 10
0.6616141732283465
 20
2.469413385826772
 30
0.0
 10
0.6616141732283465
 20
2.469413385826772
 30
0.0
 10
0.6616141732283465
 20
2.469413385826772
 30
0.0
 10
0.6541141732283465
 20
2.491385826771654
 30
0.0
 10
0.6541141732283465
 20
2.491385826771654
 30
0.0
 10
0.6541141732283465
 20
2.491385826771654
 30
0.0
 10
0.6541141732283465
 20
2.491385826771654
 30
0.0
 10
0.6129488188976379
 20
2.491385826771654
 30
0.0
 10
0.6129488188976379
 20
2.491385826771654
 30
0.0
 10
0.6129488188976379
 20
2.491385826771654
 30
0.0
 10
0.6129488188976379
 20
2.491385826771654
 30
0.0
 10
0.6041417322834646
 20
2.466803149606299
 30
0.0
 10
0.6041417322834646
 20
2.466803149606299
 30
0.0
 10
0.6041417322834646
 20
2.466803149606299
 30
0.0
 10
0.6032244094488189
 20
2.464248031496063
 30
0.0
 10
0.6027519685039371
 20
2.462496062992126
 30
0.0
 10
0.6027519685039371
 20
2.461496062992126
 30
0.0
 10
0.6027519685039371
 20
2.461496062992126
 30
0.0
 10
0.6027519685039371
 20
2.460413385826772
 30
0.0
 10
0.6030590551181103
 20
2.459468503937008
 30
0.0
 10
0.6036141732283464
 20
2.458665354330709
 30
0.0
 10
0.6036141732283464
 20
2.458665354330709
 30
0.0
 10
0.6041968503937009
 20
2.457858267716536
 30
0.0
 10
0.6049488188976379
 20
2.457248031496063
 30
0.0
 10
0.6059488188976379
 20
2.456830708661418
 30
0.0
 10
0.6059488188976379
 20
2.456830708661418
 30
0.0
 10
0.6069212598425197
 20
2.456413385826772
 30
0.0
 10
0.6084763779527559
 20
2.456220472440945
 30
0.0
 10
0.6106692913385827
 20
2.456220472440945
 30
0.0
 10
0.6106692913385827
 20
2.456220472440945
 30
0.0
 10
0.6121141732283465
 20
2.456220472440945
 30
0.0
 10
0.6133070866141732
 20
2.456192913385827
 30
0.0
 10
0.614224409448819
 20
2.456137795275591
 30
0.0
 10
0.614224409448819
 20
2.456137795275591
 30
0.0
 10
0.614224409448819
 20
2.456137795275591
 30
0.0
 10
0.614224409448819
 20
2.449303149606299
 30
0.0
 10
0.614224409448819
 20
2.449303149606299
 30
0.0
 10
0.614224409448819
 20
2.449303149606299
 30
0.0
 10
0.614224409448819
 20
2.449303149606299
 30
0.0
 10
0.5803070866141733
 20
2.449303149606299
 30
0.0
 10
0.5803070866141733
 20
2.449303149606299
 30
0.0
 10
0.5803070866141733
 20
2.449303149606299
 30
0.0
 10
0.5803070866141733
 20
2.449303149606299
 30
0.0
 10
0.5803070866141733
 20
2.456137795275591
 30
0.0
 10
0.5803070866141733
 20
2.456137795275591
 30
0.0
 10
0.5803070866141733
 20
2.456137795275591
 30
0.0
 10
0.5834488188976378
 20
2.456137795275591
 30
0.0
 10
0.5857244094488189
 20
2.45644094488189
 30
0.0
 10
0.5870866141732284
 20
2.457082677165354
 30
0.0
 10
0.5870866141732284
 20
2.457082677165354
 30
0.0
 10
0.588476377952756
 20
2.457692913385827
 30
0.0
 10
0.5896968503937008
 20
2.458692913385827
 30
0.0
 10
0.5907244094488189
 20
2.460082677165354
 30
0.0
 10
0.5907244094488189
 20
2.460082677165354
 30
0.0
 10
0.5917519685039371
 20
2.461468503937008
 30
0.0
 10
0.5931141732283465
 20
2.464385826771654
 30
0.0
 10
0.5947795275590552
 20
2.468830708661418
 30
0.0
 10
0.5947795275590552
 20
2.468830708661418
 30
0.0
 10
0.5947795275590552
 20
2.468830708661418
 30
0.0
 10
0.6301968503937008
 20
2.562830708661418
 30
0.0
 10
0.6301968503937008
 20
2.562830708661418
 30
0.0
  0
SPLINE
  5
56
330
1F
100
AcDbEntity
  8
LAYER_1
 62
   250
100
AcDbSpline
210
0.0
220
0.0
230
1.0
 70
    11
 71
     3
 72
    16
 73
    12
 74
     0
 42
0.0000000001
 43
0.0000000001
 40
0.0
 40
0.0
 40
0.0
 40
0.0
 40
0.3333333333333333
 40
0.3333333333333333
 40
0.3333333333333333
 40
0.3333333333333333
 40
0.6666666666666666
 40
0.6666666666666666
 40
0.6666666666666666
 40
0.6666666666666666
 40
1.0
 40
1.0
 40
1.0
 40
1.0
 10
0.6159488188976379
 20
2.499358267716536
 30
0.0
 10
0.6159488188976379
 20
2.499358267716536
 30
0.0
 10
0.6510314960629922
 20
2.499358267716536
 30
0.0
 10
0.6510314960629922
 20
2.499358267716536
 30
0.0
 10
0.6510314960629922
 20
2.499358267716536
 30
0.0
 10
0.6510314960629922
 20
2.499358267716536
 30
0.0
 10
0.6334488188976378
 20
2.548192913385827
 30
0.0
 10
0.6334488188976378
 20
2.548192913385827
 30
0.0
 10
0.6334488188976378
 20
2.548192913385827
 30
0.0
 10
0.6334488188976378
 20
2.548192913385827
 30
0.0
 10
0.6159488188976379
 20
2.499358267716536
 30
0.0
 10
0.6159488188976379
 20
2.499358267716536
 30
0.0
  0
SPLINE
  5
57
330
1F
100
AcDbEntity
  8
LAYER_1
 62
   250
100
AcDbSpline
210
0.0
220
0.0
230
1.0
 70
    11
 71
     3
 72
    72
 73
    68
 74
     0
 42
0.0000000001
 43
0.0000000001
 40
0.0
 40
0.0
 40
0.0
 40
0.0
 40
0.0588235294117647
 40
0.0588235294117647
 40
0.0588235294117647
 40
0.0588235294117647
 40
0.1176470588235294
 40
0.1176470588235294
 40
0.1176470588235294
 40
0.1176470588235294
 40
0.1764705882352941
 40
0.1764705882352941
 40
0.1764705882352941
 40
0.1764705882352941
 40
0.2352941176470588
 40
0.2352941176470588
 40
0.2352941176470588
 40
0.2352941176470588
 40
0.2941176470588235
 40
0.2941176470588235
 40
0.2941176470588235
 40
0.2941176470588235
 40
0.3529411764705883
 40
0.3529411764705883
 40
0.3529411764705883
 40
0.3529411764705883
 40
0.411764705882353
 40
0.411764705882353
 40
0.411764705882353
 40
0.411764705882353
 40
0.4705882352941177
 40
0.4705882352941177
 40
0.4705882352941177
 40
0.4705882352941177
 40
0.5294117647058824
 40
0.5294117647058824
 40
0.5294117647058824
 40
0.5294117647058824
 40
0.5882352941176471
 40
0.5882352941176471
 40
0.5882352941176471
 40
0.5882352941176471
 40
0.6470588235294118
 40
0.6470588235294118
 40
0.6470588235294118
 40
0.6470588235294118
 40
0.7058823529411765
 40
0.7058823529411765
 40
0.7058823529411765
 40
0.7058823529411765
 40
0.7647058823529412
 40
0.7647058823529412
 40
0.7647058823529412
 40
0.7647058823529412
 40
0.823529411764706
 40
0.823529411764706
 40
0.823529411764706
 40
0.823529411764706
 40
0.8823529411764707
 40
0.8823529411764707
 40
0.8823529411764707
 40
0.8823529411764707
 40
0.9411764705882354
 40
0.9411764705882354
 40
0.9411764705882354
 40
0.9411764705882354
 40
1.0
 40
1.0
 40
1.0
 40
1.0
 10
0.8560314960629921
 20
2.562830708661418
 30
0.0
 10
0.8560314960629921
 20
2.562830708661418
 30
0.0
 10
0.8621141732283465
 20
2.562830708661418
 30
0.0
 10
0.8621141732283465
 20
2.562830708661418
 30
0.0
 10
0.8621141732283465
 20
2.562830708661418
 30
0.0
 10
0.8621141732283465
 20
2.562830708661418
 30
0.0
 10
0.8621141732283465
 20
2.468582677165355
 30
0.0
 10
0.8621141732283465
 20
2.468582677165355
 30
0.0
 10
0.8621141732283465
 20
2.468582677165355
 30
0.0
 10
0.8621141732283465
 20
2.464137795275591
 30
0.0
 10
0.8624212598425197
 20
2.461275590551181
 30
0.0
 10
0.862976377952756
 20
2.459996062992126
 30
0.0
 10
0.862976377952756
 20
2.459996062992126
 30
0.0
 10
0.8635590551181103
 20
2.458720472440945
 30
0.0
 10
0.8644763779527559
 20
2.457775590551181
 30
0.0
 10
0.8657795275590552
 20
2.457110236220473
 30
0.0
 10
0.8657795275590552
 20
2.457110236220473
 30
0.0
 10
0.8670866141732284
 20
2.456468503937008
 30
0.0
 10
0.8696692913385827
 20
2.456137795275591
 30
0.0
 10
0.8735314960629922
 20
2.456137795275591
 30
0.0
 10
0.8735314960629922
 20
2.456137795275591
 30
0.0
 10
0.8735314960629922
 20
2.456137795275591
 30
0.0
 10
0.881503937007874
 20
2.456137795275591
 30
0.0
 10
0.881503937007874
 20
2.456137795275591
 30
0.0
 10
0.881503937007874
 20
2.456137795275591
 30
0.0
 10
0.881503937007874
 20
2.456137795275591
 30
0.0
 10
0.881503937007874
 20
2.449303149606299
 30
0.0
 10
0.881503937007874
 20
2.449303149606299
 30
0.0
 10
0.881503937007874
 20
2.449303149606299
 30
0.0
 10
0.881503937007874
 20
2.449303149606299
 30
0.0
 10
0.8278661417322835
 20
2.449303149606299
 30
0.0
 10
0.8278661417322835
 20
2.449303149606299
 30
0.0
 10
0.8278661417322835
 20
2.449303149606299
 30
0.0
 10
0.8278661417322835
 20
2.449303149606299
 30
0.0
 10
0.8278661417322835
 20
2.456137795275591
 30
0.0
 10
0.8278661417322835
 20
2.456137795275591
 30
0.0
 10
0.8278661417322835
 20
2.456137795275591
 30
0.0
 10
0.8278661417322835
 20
2.456137795275591
 30
0.0
 10
0.836724409448819
 20
2.456137795275591
 30
0.0
 10
0.836724409448819
 20
2.456137795275591
 30
0.0
 10
0.836724409448819
 20
2.456137795275591
 30
0.0
 10
0.8405866141732283
 20
2.456137795275591
 30
0.0
 10
0.8431417322834646
 20
2.456468503937008
 30
0.0
 10
0.8444212598425197
 20
2.457165354330709
 30
0.0
 10
0.8444212598425197
 20
2.457165354330709
 30
0.0
 10
0.8456968503937008
 20
2.457830708661418
 30
0.0
 10
0.8466968503937008
 20
2.458913385826772
 30
0.0
 10
0.8473937007874016
 20
2.460413385826772
 30
0.0
 10
0.8473937007874016
 20
2.460413385826772
 30
0.0
 10
0.8480866141732284
 20
2.461913385826772
 30
0.0
 10
0.8484488188976378
 20
2.464637795275591
 30
0.0
 10
0.8484488188976378
 20
2.468582677165355
 30
0.0
 10
0.8484488188976378
 20
2.468582677165355
 30
0.0
 10
0.8484488188976378
 20
2.468582677165355
 30
0.0
 10
0.8484488188976378
 20
2.546051181102362
 30
0.0
 10
0.8484488188976378
 20
2.546051181102362
 30
0.0
 10
0.8484488188976378
 20
2.546051181102362
 30
0.0
 10
0.8484488188976378
 20
2.546051181102362
 30
0.0
 10
0.8278661417322835
 20
2.546051181102362
 30
0.0
 10
0.8278661417322835
 20
2.546051181102362
 30
0.0
 10
0.8278661417322835
 20
2.546051181102362
 30
0.0
 10
0.8278661417322835
 20
2.546051181102362
 30
0.0
 10
0.8278661417322835
 20
2.553051181102362
 30
0.0
 10
0.8278661417322835
 20
2.553051181102362
 30
0.0
 10
0.8278661417322835
 20
2.553051181102362
 30
0.0
 10
0.8390866141732284
 20
2.554633858267717
 30
0.0
 10
0.848476377952756
 20
2.557885826771654
 30
0.0
 10
0.8560314960629921
 20
2.562830708661418
 30
0.0
  0
SPLINE
  5
58
330
1F
100
AcDbEntity
  8
LAYER_1
 62
   250
100
AcDbSpline
210
0.0
220
0.0
230
1.0
 70
    11
 71
     3
 72
    80
 73
    76
 74
     0
 42
0.0000000001
 43
0.0000000001
 40
0.0
 40
0.0
 40
0.0
 40
0.0
 40
0.0526315789473684
 40
0.0526315789473684
 40
0.0526315789473684
 40
0.0526315789473684
 40
0.1052631578947368
 40
0.1052631578947368
 40
0.1052631578947368
 40
0.1052631578947368
 40
0.1578947368421053
 40
0.1578947368421053
 40
0.1578947368421053
 40
0.1578947368421053
 40
0.2105263157894737
 40
0.2105263157894737
 40
0.2105263157894737
 40
0.2105263157894737
 40
0.2631578947368421
 40
0.2631578947368421
 40
0.2631578947368421
 40
0.2631578947368421
 40
0.3157894736842105
 40
0.3157894736842105
 40
0.3157894736842105
 40
0.3157894736842105
 40
0.3684210526315789
 40
0.3684210526315789
 40
0.3684210526315789
 40
0.3684210526315789
 40
0.4210526315789474
 40
0.4210526315789474
 40
0.4210526315789474
 40
0.4210526315789474
 40
0.4736842105263158
 40
0.4736842105263158
 40
0.4736842105263158
 40
0.4736842105263158
 40
0.5263157894736842
 40
0.5263157894736842
 40
0.5263157894736842
 40
0.5263157894736842
 40
0.5789473684210527
 40
0.5789473684210527
 40
0.5789473684210527
 40
0.5789473684210527
 40
0.631578947368421
 40
0.631578947368421
 40
0.631578947368421
 40
0.631578947368421
 40
0.6842105263157894
 40
0.6842105263157894
 40
0.6842105263157894
 40
0.6842105263157894
 40
0.7368421052631577
 40
0.7368421052631577
 40
0.7368421052631577
 40
0.7368421052631577
 40
0.7894736842105261
 40
0.7894736842105261
 40
0.7894736842105261
 40
0.7894736842105261
 40
0.8421052631578945
 40
0.8421052631578945
 40
0.8421052631578945
 40
0.8421052631578945
 40
0.8947368421052628
 40
0.8947368421052628
 40
0.8947368421052628
 40
0.8947368421052628
 40
0.9473684210526312
 40
0.9473684210526312
 40
0.9473684210526312
 40
0.9473684210526312
 40
1.0
 40
1.0
 40
1.0
 40
1.0
 10
0.9214488188976379
 20
2.566968503937008
 30
0.0
 10
0.9214488188976379
 20
2.566968503937008
 30
0.0
 10
0.9268385826771654
 20
2.566968503937008
 30
0.0
 10
0.9268385826771654
 20
2.566968503937008
 30
0.0
 10
0.9268385826771654
 20
2.566968503937008
 30
0.0
 10
0.9268385826771654
 20
2.566968503937008
 30
0.0
 10
0.9278110236220473
 20
2.562830708661418
 30
0.0
 10
0.9278110236220473
 20
2.562830708661418
 30
0.0
 10
0.9278110236220473
 20
2.562830708661418
 30
0.0
 10
0.9278110236220473
 20
2.562830708661418
 30
0.0
 10
0.9989212598425197
 20
2.562830708661418
 30
0.0
 10
0.9989212598425197
 20
2.562830708661418
 30
0.0
 10
0.9989212598425197
 20
2.562830708661418
 30
0.0
 10
0.9989212598425197
 20
2.562830708661418
 30
0.0
 10
0.9989212598425197
 20
2.555913385826772
 30
0.0
 10
0.9989212598425197
 20
2.555913385826772
 30
0.0
 10
0.9989212598425197
 20
2.555913385826772
 30
0.0
 10
0.9904212598425197
 20
2.54607874015748
 30
0.0
 10
0.9826968503937008
 20
2.534913385826772
 30
0.0
 10
0.9757834645669292
 20
2.522330708661417
 30
0.0
 10
0.9757834645669292
 20
2.522330708661417
 30
0.0
 10
0.9688661417322835
 20
2.509775590551181
 30
0.0
 10
0.9635039370078741
 20
2.496996062992126
 30
0.0
 10
0.9596968503937008
 20
2.483968503937008
 30
0.0
 10
0.9596968503937008
 20
2.483968503937008
 30
0.0
 10
0.9569488188976378
 20
2.474582677165354
 30
0.0
 10
0.9547007874015748
 20
2.463023622047244
 30
0.0
 10
0.9529488188976378
 20
2.449303149606299
 30
0.0
 10
0.9529488188976378
 20
2.449303149606299
 30
0.0
 10
0.9529488188976378
 20
2.449303149606299
 30
0.0
 10
0.9362834645669291
 20
2.449303149606299
 30
0.0
 10
0.9362834645669291
 20
2.449303149606299
 30
0.0
 10
0.9362834645669291
 20
2.449303149606299
 30
0.0
 10
0.9378937007874016
 20
2.461413385826772
 30
0.0
 10
0.9405590551181102
 20
2.472720472440945
 30
0.0
 10
0.9442834645669291
 20
2.483248031496063
 30
0.0
 10
0.9442834645669291
 20
2.483248031496063
 30
0.0
 10
0.948003937007874
 20
2.493775590551181
 30
0.0
 10
0.9533661417322835
 20
2.504775590551181
 30
0.0
 10
0.9603937007874016
 20
2.516248031496063
 30
0.0
 10
0.9603937007874016
 20
2.516248031496063
 30
0.0
 10
0.9674212598425197
 20
2.527720472440945
 30
0.0
 10
0.9759488188976379
 20
2.539165354330709
 30
0.0
 10
0.986003937007874
 20
2.550606299212598
 30
0.0
 10
0.986003937007874
 20
2.550606299212598
 30
0.0
 10
0.986003937007874
 20
2.550606299212598
 30
0.0
 10
0.9352834645669291
 20
2.550606299212598
 30
0.0
 10
0.9352834645669291
 20
2.550606299212598
 30
0.0
 10
0.9352834645669291
 20
2.550606299212598
 30
0.0
 10
0.9316141732283465
 20
2.550606299212598
 30
0.0
 10
0.9290866141732284
 20
2.55044094488189
 30
0.0
 10
0.927728346456693
 20
2.550051181102362
 30
0.0
 10
0.927728346456693
 20
2.550051181102362
 30
0.0
 10
0.9263661417322835
 20
2.549665354330709
 30
0.0
 10
0.9253110236220473
 20
2.54907874015748
 30
0.0
 10
0.9245590551181103
 20
2.548275590551181
 30
0.0
 10
0.9245590551181103
 20
2.548275590551181
 30
0.0
 10
0.9237834645669292
 20
2.54744094488189
 30
0.0
 10
0.9231417322834646
 20
2.545996062992126
 30
0.0
 10
0.9225866141732284
 20
2.54394094488189
 30
0.0
 10
0.9225866141732284
 20
2.54394094488189
 30
0.0
 10
0.9225866141732284
 20
2.54394094488189
 30
0.0
 10
0.9222007874015749
 20
2.542413385826772
 30
0.0
 10
0.9222007874015749
 20
2.542413385826772
 30
0.0
 10
0.9222007874015749
 20
2.542413385826772
 30
0.0
 10
0.9222007874015749
 20
2.542413385826772
 30
0.0
 10
0.9194212598425198
 20
2.532803149606299
 30
0.0
 10
0.9194212598425198
 20
2.532803149606299
 30
0.0
 10
0.9194212598425198
 20
2.532803149606299
 30
0.0
 10
0.9194212598425198
 20
2.532803149606299
 30
0.0
 10
0.912503937007874
 20
2.534275590551181
 30
0.0
 10
0.912503937007874
 20
2.534275590551181
 30
0.0
 10
0.912503937007874
 20
2.534275590551181
 30
0.0
 10
0.912503937007874
 20
2.534275590551181
 30
0.0
 10
0.9214488188976379
 20
2.566968503937008
 30
0.0
 10
0.9214488188976379
 20
2.566968503937008
 30
0.0
  0
SPLINE
  5
59
330
1F
100
AcDbEntity
  8
LAYER_1
 62
   250
100
AcDbSpline
210
0.0
220
0.0
230
1.0
 70
    11
 71
     3
 72
    48
 73
    44
 74
     0
 42
0.0000000001
 43
0.0000000001
 40
0.0
 40
0.0
 40
0.0
 40
0.0
 40
0.0909090909090909
 40
0.0909090909090909
 40
0.0909090909090909
 40
0.0909090909090909
 40
0.1818181818181818
 40
0.1818181818181818
 40
0.1818181818181818
 40
0.1818181818181818
 40
0.2727272727272727
 40
0.2727272727272727
 40
0.2727272727272727
 40
0.2727272727272727
 40
0.3636363636363637
 40
0.3636363636363637
 40
0.3636363636363637
 40
0.3636363636363637
 40
0.4545454545454546
 40
0.4545454545454546
 40
0.4545454545454546
 40
0.4545454545454546
 40
0.5454545454545455
 40
0.5454545454545455
 40
0.5454545454545455
 40
0.5454545454545455
 40
0.6363636363636365
 40
0.6363636363636365
 40
0.6363636363636365
 40
0.6363636363636365
 40
0.7272727272727274
 40
0.7272727272727274
 40
0.7272727272727274
 40
0.7272727272727274
 40
0.8181818181818183
 40
0.8181818181818183
 40
0.8181818181818183
 40
0.8181818181818183
 40
0.9090909090909093
 40
0.9090909090909093
 40
0.9090909090909093
 40
0.9090909090909093
 40
1.0
 40
1.0
 40
1.0
 40
1.0
 10
1.058673228346457
 20
2.564775590551181
 30
0.0
 10
1.067031496062992
 20
2.564775590551181
 30
0.0
 10
1.074338582677165
 20
2.562661417322835
 30
0.0
 10
1.08055905511811
 20
2.558385826771654
 30
0.0
 10
1.08055905511811
 20
2.558385826771654
 30
0.0
 10
1.086811023622047
 20
2.554133858267717
 30
0.0
 10
1.091866141732284
 20
2.54744094488189
 30
0.0
 10
1.095783464566929
 20
2.538330708661417
 30
0.0
 10
1.095783464566929
 20
2.538330708661417
 30
0.0
 10
1.099700787401575
 20
2.529220472440945
 30
0.0
 10
1.101645669291339
 20
2.518165354330709
 30
0.0
 10
1.101645669291339
 20
2.505220472440945
 30
0.0
 10
1.101645669291339
 20
2.505220472440945
 30
0.0
 10
1.101645669291339
 20
2.485996062992126
 30
0.0
 10
1.096838582677165
 20
2.471051181102362
 30
0.0
 10
1.087228346456693
 20
2.460358267716535
 30
0.0
 10
1.087228346456693
 20
2.460358267716535
 30
0.0
 10
1.07942125984252
 20
2.451692913385827
 30
0.0
 10
1.06955905511811
 20
2.447358267716536
 30
0.0
 10
1.057618110236221
 20
2.447358267716536
 30
0.0
 10
1.057618110236221
 20
2.447358267716536
 30
0.0
 10
1.049531496062992
 20
2.447358267716536
 30
0.0
 10
1.042366141732284
 20
2.449496062992126
 30
0.0
 10
1.036145669291339
 20
2.453830708661418
 30
0.0
 10
1.036145669291339
 20
2.453830708661418
 30
0.0
 10
1.029893700787402
 20
2.458137795275591
 30
0.0
 10
1.024838582677165
 20
2.464610236220473
 30
0.0
 10
1.021003937007874
 20
2.473220472440945
 30
0.0
 10
1.021003937007874
 20
2.473220472440945
 30
0.0
 10
1.017145669291339
 20
2.481858267716536
 30
0.0
 10
1.015228346456693
 20
2.492803149606299
 30
0.0
 10
1.015228346456693
 20
2.506106299212599
 30
0.0
 10
1.015228346456693
 20
2.506106299212599
 30
0.0
 10
1.015228346456693
 20
2.519496062992126
 30
0.0
 10
1.017118110236221
 20
2.53044094488189
 30
0.0
 10
1.020866141732284
 20
2.538913385826772
 30
0.0
 10
1.020866141732284
 20
2.538913385826772
 30
0.0
 10
1.024645669291339
 20
2.547358267716536
 30
0.0
 10
1.029783464566929
 20
2.553803149606299
 30
0.0
 10
1.036283464566929
 20
2.558192913385827
 30
0.0
 10
1.036283464566929
 20
2.558192913385827
 30
0.0
 10
1.042811023622047
 20
2.56257874015748
 30
0.0
 10
1.050255905511811
 20
2.564775590551181
 30
0.0
 10
1.058673228346457
 20
2.564775590551181
 30
0.0
  0
SPLINE
  5
5A
330
1F
100
AcDbEntity
  8
LAYER_1
 62
   250
100
AcDbSpline
210
0.0
220
0.0
230
1.0
 70
    11
 71
     3
 72
    56
 73
    52
 74
     0
 42
0.0000000001
 43
0.0000000001
 40
0.0
 40
0.0
 40
0.0
 40
0.0
 40
0.0769230769230769
 40
0.0769230769230769
 40
0.0769230769230769
 40
0.0769230769230769
 40
0.1538461538461539
 40
0.1538461538461539
 40
0.1538461538461539
 40
0.1538461538461539
 40
0.2307692307692308
 40
0.2307692307692308
 40
0.2307692307692308
 40
0.2307692307692308
 40
0.3076923076923077
 40
0.3076923076923077
 40
0.3076923076923077
 40
0.3076923076923077
 40
0.3846153846153846
 40
0.3846153846153846
 40
0.3846153846153846
 40
0.3846153846153846
 40
0.4615384615384616
 40
0.4615384615384616
 40
0.4615384615384616
 40
0.4615384615384616
 40
0.5384615384615386
 40
0.5384615384615386
 40
0.5384615384615386
 40
0.5384615384615386
 40
0.6153846153846154
 40
0.6153846153846154
 40
0.6153846153846154
 40
0.6153846153846154
 40
0.6923076923076923
 40
0.6923076923076923
 40
0.6923076923076923
 40
0.6923076923076923
 40
0.7692307692307692
 40
0.7692307692307692
 40
0.7692307692307692
 40
0.7692307692307692
 40
0.846153846153846
 40
0.846153846153846
 40
0.846153846153846
 40
0.846153846153846
 40
0.9230769230769229
 40
0.9230769230769229
 40
0.9230769230769229
 40
0.9230769230769229
 40
1.0
 40
1.0
 40
1.0
 40
1.0
 10
1.058283464566929
 20
2.556720472440945
 30
0.0
 10
1.05261811023622
 20
2.556720472440945
 30
0.0
 10
1.047673228346457
 20
2.554665354330709
 30
0.0
 10
1.043366141732284
 20
2.550551181102363
 30
0.0
 10
1.043366141732284
 20
2.550551181102363
 30
0.0
 10
1.039645669291339
 20
2.546968503937008
 30
0.0
 10
1.036673228346457
 20
2.541330708661417
 30
0.0
 10
1.034503937007874
 20
2.533606299212599
 30
0.0
 10
1.034503937007874
 20
2.533606299212599
 30
0.0
 10
1.032003937007874
 20
2.524830708661417
 30
0.0
 10
1.030755905511811
 20
2.515106299212599
 30
0.0
 10
1.030755905511811
 20
2.504468503937008
 30
0.0
 10
1.030755905511811
 20
2.504468503937008
 30
0.0
 10
1.030755905511811
 20
2.496220472440945
 30
0.0
 10
1.031535433070866
 20
2.488748031496063
 30
0.0
 10
1.033090551181102
 20
2.482051181102362
 30
0.0
 10
1.033090551181102
 20
2.482051181102362
 30
0.0
 10
1.03461811023622
 20
2.475358267716536
 30
0.0
 10
1.036673228346457
 20
2.470137795275591
 30
0.0
 10
1.039228346456693
 20
2.46644094488189
 30
0.0
 10
1.039228346456693
 20
2.46644094488189
 30
0.0
 10
1.041783464566929
 20
2.462720472440945
 30
0.0
 10
1.044673228346457
 20
2.459968503937008
 30
0.0
 10
1.047893700787402
 20
2.458165354330709
 30
0.0
 10
1.047893700787402
 20
2.458165354330709
 30
0.0
 10
1.051118110236221
 20
2.456385826771654
 30
0.0
 10
1.054531496062992
 20
2.455496062992126
 30
0.0
 10
1.058118110236221
 20
2.455496062992126
 30
0.0
 10
1.058118110236221
 20
2.455496062992126
 30
0.0
 10
1.063476377952756
 20
2.455496062992126
 30
0.0
 10
1.068503937007874
 20
2.457582677165354
 30
0.0
 10
1.073173228346457
 20
2.461748031496063
 30
0.0
 10
1.073173228346457
 20
2.461748031496063
 30
0.0
 10
1.076893700787402
 20
2.465165354330709
 30
0.0
 10
1.079866141732284
 20
2.470275590551181
 30
0.0
 10
1.082031496062992
 20
2.477051181102362
 30
0.0
 10
1.082031496062992
 20
2.477051181102362
 30
0.0
 10
1.084645669291339
 20
2.485303149606299
 30
0.0
 10
1.085948818897638
 20
2.494996062992126
 30
0.0
 10
1.085948818897638
 20
2.506106299212599
 30
0.0
 10
1.085948818897638
 20
2.506106299212599
 30
0.0
 10
1.085948818897638
 20
2.517606299212599
 30
0.0
 10
1.084618110236221
 20
2.527385826771654
 30
0.0
 10
1.081948818897638
 20
2.535413385826772
 30
0.0
 10
1.081948818897638
 20
2.535413385826772
 30
0.0
 10
1.079283464566929
 20
2.54344094488189
 30
0.0
 10
1.076031496062992
 20
2.548996062992126
 30
0.0
 10
1.072145669291339
 20
2.552078740157481
 30
0.0
 10
1.072145669291339
 20
2.552078740157481
 30
0.0
 10
1.068255905511811
 20
2.555192913385827
 30
0.0
 10
1.063645669291339
 20
2.556720472440945
 30
0.0
 10
1.058283464566929
 20
2.556720472440945
 30
0.0
  0
SPLINE
  5
5B
330
1F
100
AcDbEntity
  8
LAYER_1
 62
   250
100
AcDbSpline
210
0.0
220
0.0
230
1.0
 70
    11
 71
     3
 72
   172
 73
   168
 74
     0
 42
0.0000000001
 43
0.0000000001
 40
0.0
 40
0.0
 40
0.0
 40
0.0
 40
0.0238095238095238
 40
0.0238095238095238
 40
0.0238095238095238
 40
0.0238095238095238
 40
0.0476190476190476
 40
0.0476190476190476
 40
0.0476190476190476
 40
0.0476190476190476
 40
0.0714285714285714
 40
0.0714285714285714
 40
0.0714285714285714
 40
0.0714285714285714
 40
0.0952380952380952
 40
0.0952380952380952
 40
0.0952380952380952
 40
0.0952380952380952
 40
0.119047619047619
 40
0.119047619047619
 40
0.119047619047619
 40
0.119047619047619
 40
0.1428571428571429
 40
0.1428571428571429
 40
0.1428571428571429
 40
0.1428571428571429
 40
0.1666666666666667
 40
0.1666666666666667
 40
0.1666666666666667
 40
0.1666666666666667
 40
0.1904761904761905
 40
0.1904761904761905
 40
0.1904761904761905
 40
0.1904761904761905
 40
0.2142857142857143
 40
0.2142857142857143
 40
0.2142857142857143
 40
0.2142857142857143
 40
0.2380952380952381
 40
0.2380952380952381
 40
0.2380952380952381
 40
0.2380952380952381
 40
0.2619047619047619
 40
0.2619047619047619
 40
0.2619047619047619
 40
0.2619047619047619
 40
0.2857142857142857
 40
0.2857142857142857
 40
0.2857142857142857
 40
0.2857142857142857
 40
0.3095238095238095
 40
0.3095238095238095
 40
0.3095238095238095
 40
0.3095238095238095
 40
0.3333333333333334
 40
0.3333333333333334
 40
0.3333333333333334
 40
0.3333333333333334
 40
0.3571428571428572
 40
0.3571428571428572
 40
0.3571428571428572
 40
0.3571428571428572
 40
0.380952380952381
 40
0.380952380952381
 40
0.380952380952381
 40
0.380952380952381
 40
0.4047619047619049
 40
0.4047619047619049
 40
0.4047619047619049
 40
0.4047619047619049
 40
0.4285714285714287
 40
0.4285714285714287
 40
0.4285714285714287
 40
0.4285714285714287
 40
0.4523809523809526
 40
0.4523809523809526
 40
0.4523809523809526
 40
0.4523809523809526
 40
0.4761904761904764
 40
0.4761904761904764
 40
0.4761904761904764
 40
0.4761904761904764
 40
0.5000000000000002
 40
0.5000000000000002
 40
0.5000000000000002
 40
0.5000000000000002
 40
0.5238095238095241
 40
0.5238095238095241
 40
0.5238095238095241
 40
0.5238095238095241
 40
0.5476190476190479
 40
0.5476190476190479
 40
0.5476190476190479
 40
0.5476190476190479
 40
0.5714285714285717
 40
0.5714285714285717
 40
0.5714285714285717
 40
0.5714285714285717
 40
0.5952380952380956
 40
0.5952380952380956
 40
0.5952380952380956
 40
0.5952380952380956
 40
0.6190476190476194
 40
0.6190476190476194
 40
0.6190476190476194
 40
0.6190476190476194
 40
0.6428571428571432
 40
0.6428571428571432
 40
0.6428571428571432
 40
0.6428571428571432
 40
0.6666666666666671
 40
0.6666666666666671
 40
0.6666666666666671
 40
0.6666666666666671
 40
0.6904761904761909
 40
0.6904761904761909
 40
0.6904761904761909
 40
0.6904761904761909
 40
0.7142857142857148
 40
0.7142857142857148
 40
0.7142857142857148
 40
0.7142857142857148
 40
0.7380952380952386
 40
0.7380952380952386
 40
0.7380952380952386
 40
0.7380952380952386
 40
0.7619047619047624
 40
0.7619047619047624
 40
0.7619047619047624
 40
0.7619047619047624
 40
0.7857142857142863
 40
0.7857142857142863
 40
0.7857142857142863
 40
0.7857142857142863
 40
0.8095238095238101
 40
0.8095238095238101
 40
0.8095238095238101
 40
0.8095238095238101
 40
0.8333333333333339
 40
0.8333333333333339
 40
0.8333333333333339
 40
0.8333333333333339
 40
0.8571428571428578
 40
0.8571428571428578
 40
0.8571428571428578
 40
0.8571428571428578
 40
0.8809523809523816
 40
0.8809523809523816
 40
0.8809523809523816
 40
0.8809523809523816
 40
0.9047619047619054
 40
0.9047619047619054
 40
0.9047619047619054
 40
0.9047619047619054
 40
0.9285714285714293
 40
0.9285714285714293
 40
0.9285714285714293
 40
0.9285714285714293
 40
0.9523809523809531
 40
0.9523809523809531
 40
0.9523809523809531
 40
0.9523809523809531
 40
0.9761904761904769
 40
0.9761904761904769
 40
0.9761904761904769
 40
0.9761904761904769
 40
1.0
 40
1.0
 40
1.0
 40
1.0
 10
1.132173228346457
 20
2.532468503937008
 30
0.0
 10
1.132173228346457
 20
2.532468503937008
 30
0.0
 10
1.124366141732283
 20
2.533692913385827
 30
0.0
 10
1.124366141732283
 20
2.533692913385827
 30
0.0
 10
1.124366141732283
 20
2.533692913385827
 30
0.0
 10
1.125062992125984
 20
2.539551181102362
 30
0.0
 10
1.126590551181102
 20
2.544413385826772
 30
0.0
 10
1.128925196850394
 20
2.548275590551181
 30
0.0
 10
1.128925196850394
 20
2.548275590551181
 30
0.0
 10
1.132007874015748
 20
2.553468503937008
 30
0.0
 10
1.136366141732284
 20
2.557523622047244
 30
0.0
 10
1.142007874015748
 20
2.560413385826772
 30
0.0
 10
1.142007874015748
 20
2.560413385826772
 30
0.0
 10
1.147673228346457
 20
2.563330708661417
 30
0.0
 10
1.154145669291339
 20
2.564775590551181
 30
0.0
 10
1.16148031496063
 20
2.564775590551181
 30
0.0
 10
1.16148031496063
 20
2.564775590551181
 30
0.0
 10
1.168673228346457
 20
2.564775590551181
 30
0.0
 10
1.175035433070866
 20
2.563496062992126
 30
0.0
 10
1.180507874015748
 20
2.560913385826772
 30
0.0
 10
1.180507874015748
 20
2.560913385826772
 30
0.0
 10
1.18598031496063
 20
2.558330708661417
 30
0.0
 10
1.190118110236221
 20
2.554913385826772
 30
0.0
 10
1.19292125984252
 20
2.550665354330709
 30
0.0
 10
1.19292125984252
 20
2.550665354330709
 30
0.0
 10
1.195728346456693
 20
2.546413385826772
 30
0.0
 10
1.197118110236221
 20
2.541803149606299
 30
0.0
 10
1.197118110236221
 20
2.536858267716536
 30
0.0
 10
1.197118110236221
 20
2.536858267716536
 30
0.0
 10
1.197118110236221
 20
2.532523622047244
 30
0.0
 10
1.196062992125984
 20
2.528637795275591
 30
0.0
 10
1.193948818897638
 20
2.525220472440945
 30
0.0
 10
1.193948818897638
 20
2.525220472440945
 30
0.0
 10
1.191811023622047
 20
2.521803149606299
 30
0.0
 10
1.188673228346457
 20
2.518748031496063
 30
0.0
 10
1.184507874015748
 20
2.516023622047244
 30
0.0
 10
1.184507874015748
 20
2.516023622047244
 30
0.0
 10
1.181562992125984
 20
2.514137795275591
 30
0.0
 10
1.177755905511811
 20
2.512468503937008
 30
0.0
 10
1.173035433070866
 20
2.511078740157481
 30
0.0
 10
1.173035433070866
 20
2.511078740157481
 30
0.0
 10
1.178062992125984
 20
2.510358267716536
 30
0.0
 10
1.182200787401575
 20
2.509192913385827
 30
0.0
 10
1.185393700787402
 20
2.50757874015748
 30
0.0
 10
1.185393700787402
 20
2.50757874015748
 30
0.0
 10
1.190590551181102
 20
2.504913385826772
 30
0.0
 10
1.194700787401575
 20
2.501248031496063
 30
0.0
 10
1.197673228346457
 20
2.496578740157481
 30
0.0
 10
1.197673228346457
 20
2.496578740157481
 30
0.0
 10
1.200673228346457
 20
2.491913385826772
 30
0.0
 10
1.202145669291339
 20
2.486803149606299
 30
0.0
 10
1.202145669291339
 20
2.481192913385827
 30
0.0
 10
1.202145669291339
 20
2.481192913385827
 30
0.0
 10
1.202145669291339
 20
2.472248031496063
 30
0.0
 10
1.198228346456693
 20
2.464358267716535
 30
0.0
 10
1.190366141732284
 20
2.457551181102363
 30
0.0
 10
1.190366141732284
 20
2.457551181102363
 30
0.0
 10
1.18248031496063
 20
2.450748031496063
 30
0.0
 10
1.172311023622047
 20
2.447358267716536
 30
0.0
 10
1.159838582677165
 20
2.447358267716536
 30
0.0
 10
1.159838582677165
 20
2.447358267716536
 30
0.0
 10
1.147535433070866
 20
2.447358267716536
 30
0.0
 10
1.137173228346457
 20
2.450637795275591
 30
0.0
 10
1.128755905511811
 20
2.457192913385827
 30
0.0
 10
1.128755905511811
 20
2.457192913385827
 30
0.0
 10
1.121700787401575
 20
2.462775590551181
 30
0.0
 10
1.118173228346457
 20
2.468413385826772
 30
0.0
 10
1.118173228346457
 20
2.474051181102362
 30
0.0
 10
1.118173228346457
 20
2.474051181102362
 30
0.0
 10
1.118173228346457
 20
2.476275590551181
 30
0.0
 10
1.118897637795276
 20
2.478137795275591
 30
0.0
 10
1.120338582677166
 20
2.479610236220473
 30
0.0
 10
1.120338582677166
 20
2.479610236220473
 30
0.0
 10
1.121755905511811
 20
2.481110236220473
 30
0.0
 10
1.123562992125984
 20
2.481858267716536
 30
0.0
 10
1.125755905511811
 20
2.481858267716536
 30
0.0
 10
1.125755905511811
 20
2.481858267716536
 30
0.0
 10
1.128118110236221
 20
2.481858267716536
 30
0.0
 10
1.130173228346457
 20
2.48094094488189
 30
0.0
 10
1.131838582677165
 20
2.479078740157481
 30
0.0
 10
1.131838582677165
 20
2.479078740157481
 30
0.0
 10
1.132755905511811
 20
2.478051181102362
 30
0.0
 10
1.133838582677165
 20
2.475582677165355
 30
0.0
 10
1.135007874015748
 20
2.471692913385827
 30
0.0
 10
1.135007874015748
 20
2.471692913385827
 30
0.0
 10
1.136700787401575
 20
2.466192913385827
 30
0.0
 10
1.139562992125984
 20
2.462023622047244
 30
0.0
 10
1.143562992125984
 20
2.459165354330709
 30
0.0
 10
1.143562992125984
 20
2.459165354330709
 30
0.0
 10
1.147590551181102
 20
2.456275590551181
 30
0.0
 10
1.152562992125984
 20
2.454830708661417
 30
0.0
 10
1.158535433070866
 20
2.454830708661417
 30
0.0
 10
1.158535433070866
 20
2.454830708661417
 30
0.0
 10
1.163866141732284
 20
2.454830708661417
 30
0.0
 10
1.168618110236221
 20
2.455996062992126
 30
0.0
 10
1.172811023622047
 20
2.458330708661417
 30
0.0
 10
1.172811023622047
 20
2.458330708661417
 30
0.0
 10
1.177035433070866
 20
2.460665354330709
 30
0.0
 10
1.180338582677165
 20
2.463968503937008
 30
0.0
 10
1.182783464566929
 20
2.468275590551181
 30
0.0
 10
1.182783464566929
 20
2.468275590551181
 30
0.0
 10
1.185228346456693
 20
2.472551181102362
 30
0.0
 10
1.186452755905512
 20
2.477248031496063
 30
0.0
 10
1.186452755905512
 20
2.482330708661417
 30
0.0
 10
1.186452755905512
 20
2.482330708661417
 30
0.0
 10
1.186452755905512
 20
2.486468503937008
 30
0.0
 10
1.185562992125984
 20
2.490165354330709
 30
0.0
 10
1.183811023622047
 20
2.49344094488189
 30
0.0
 10
1.183811023622047
 20
2.49344094488189
 30
0.0
 10
1.182035433070866
 20
2.496748031496063
 30
0.0
 10
1.179535433070866
 20
2.499523622047244
 30
0.0
 10
1.176283464566929
 20
2.501803149606299
 30
0.0
 10
1.176283464566929
 20
2.501803149606299
 30
0.0
 10
1.173783464566929
 20
2.50357874015748
 30
0.0
 10
1.170590551181102
 20
2.504830708661417
 30
0.0
 10
1.166728346456693
 20
2.505523622047244
 30
0.0
 10
1.166728346456693
 20
2.505523622047244
 30
0.0
 10
1.162838582677165
 20
2.506248031496063
 30
0.0
 10
1.159338582677165
 20
2.506606299212598
 30
0.0
 10
1.156255905511811
 20
2.506606299212598
 30
0.0
 10
1.156255905511811
 20
2.506606299212598
 30
0.0
 10
1.156255905511811
 20
2.506606299212598
 30
0.0
 10
1.148700787401575
 20
2.506606299212598
 30
0.0
 10
1.148700787401575
 20
2.506606299212598
 30
0.0
 10
1.148700787401575
 20
2.506606299212598
 30
0.0
 10
1.148700787401575
 20
2.506606299212598
 30
0.0
 10
1.148700787401575
 20
2.514496062992126
 30
0.0
 10
1.148700787401575
 20
2.514496062992126
 30
0.0
 10
1.148700787401575
 20
2.514496062992126
 30
0.0
 10
1.148700787401575
 20
2.514496062992126
 30
0.0
 10
1.153507874015748
 20
2.514496062992126
 30
0.0
 10
1.153507874015748
 20
2.514496062992126
 30
0.0
 10
1.153507874015748
 20
2.514496062992126
 30
0.0
 10
1.158255905511811
 20
2.514496062992126
 30
0.0
 10
1.162811023622047
 20
2.515051181102362
 30
0.0
 10
1.167173228346457
 20
2.516165354330709
 30
0.0
 10
1.167173228346457
 20
2.516165354330709
 30
0.0
 10
1.171507874015748
 20
2.517275590551181
 30
0.0
 10
1.17498031496063
 20
2.519551181102362
 30
0.0
 10
1.177590551181103
 20
2.523023622047244
 30
0.0
 10
1.177590551181103
 20
2.523023622047244
 30
0.0
 10
1.180173228346457
 20
2.526496062992126
 30
0.0
 10
1.18148031496063
 20
2.53044094488189
 30
0.0
 10
1.18148031496063
 20
2.534830708661418
 30
0.0
 10
1.18148031496063
 20
2.534830708661418
 30
0.0
 10
1.18148031496063
 20
2.538633858267717
 30
0.0
 10
1.180590551181102
 20
2.542051181102362
 30
0.0
 10
1.178755905511811
 20
2.54507874015748
 30
0.0
 10
1.178755905511811
 20
2.54507874015748
 30
0.0
 10
1.176952755905512
 20
2.548133858267716
 30
0.0
 10
1.174283464566929
 20
2.550551181102363
 30
0.0
 10
1.170755905511811
 20
2.552330708661418
 30
0.0
 10
1.170755905511811
 20
2.552330708661418
 30
0.0
 10
1.167228346456693
 20
2.554106299212599
 30
0.0
 10
1.163145669291339
 20
2.555023622047244
 30
0.0
 10
1.158535433070866
 20
2.555023622047244
 30
0.0
 10
1.158535433070866
 20
2.555023622047244
 30
0.0
 10
1.154035433070866
 20
2.555023622047244
 30
0.0
 10
1.149893700787402
 20
2.55407874015748
 30
0.0
 10
1.146118110236221
 20
2.552248031496063
 30
0.0
 10
1.146118110236221
 20
2.552248031496063
 30
0.0
 10
1.142366141732284
 20
2.550413385826772
 30
0.0
 10
1.139338582677165
 20
2.54794094488189
 30
0.0
 10
1.137062992125984
 20
2.544830708661417
 30
0.0
 10
1.137062992125984
 20
2.544830708661417
 30
0.0
 10
1.134783464566929
 20
2.541748031496063
 30
0.0
 10
1.133145669291339
 20
2.537633858267717
 30
0.0
 10
1.132173228346457
 20
2.532468503937008
 30
0.0
  0
SPLINE
  5
5C
330
1F
100
AcDbEntity
  8
LAYER_1
 62
   250
100
AcDbSpline
210
0.0
220
0.0
230
1.0
 70
    11
 71
     3
 72
    76
 73
    72
 74
     0
 42
0.0000000001
 43
0.0000000001
 40
0.0
 40
0.0
 40
0.0
 40
0.0
 40
0.0555555555555556
 40
0.0555555555555556
 40
0.0555555555555556
 40
0.0555555555555556
 40
0.1111111111111111
 40
0.1111111111111111
 40
0.1111111111111111
 40
0.1111111111111111
 40
0.1666666666666667
 40
0.1666666666666667
 40
0.1666666666666667
 40
0.1666666666666667
 40
0.2222222222222222
 40
0.2222222222222222
 40
0.2222222222222222
 40
0.2222222222222222
 40
0.2777777777777778
 40
0.2777777777777778
 40
0.2777777777777778
 40
0.2777777777777778
 40
0.3333333333333334
 40
0.3333333333333334
 40
0.3333333333333334
 40
0.3333333333333334
 40
0.388888888888889
 40
0.388888888888889
 40
0.388888888888889
 40
0.388888888888889
 40
0.4444444444444445
 40
0.4444444444444445
 40
0.4444444444444445
 40
0.4444444444444445
 40
0.5000000000000001
 40
0.5000000000000001
 40
0.5000000000000001
 40
0.5000000000000001
 40
0.5555555555555557
 40
0.5555555555555557
 40
0.5555555555555557
 40
0.5555555555555557
 40
0.6111111111111113
 40
0.6111111111111113
 40
0.6111111111111113
 40
0.6111111111111113
 40
0.6666666666666669
 40
0.6666666666666669
 40
0.6666666666666669
 40
0.6666666666666669
 40
0.7222222222222224
 40
0.7222222222222224
 40
0.7222222222222224
 40
0.7222222222222224
 40
0.777777777777778
 40
0.777777777777778
 40
0.777777777777778
 40
0.777777777777778
 40
0.8333333333333336
 40
0.8333333333333336
 40
0.8333333333333336
 40
0.8333333333333336
 40
0.8888888888888892
 40
0.8888888888888892
 40
0.8888888888888892
 40
0.8888888888888892
 40
0.9444444444444448
 40
0.9444444444444448
 40
0.9444444444444448
 40
0.9444444444444448
 40
1.0
 40
1.0
 40
1.0
 40
1.0
 10
0.4029251968503937
 20
2.376220472440945
 30
0.0
 10
0.4029251968503937
 20
2.376220472440945
 30
0.0
 10
0.4029251968503937
 20
2.327551181102362
 30
0.0
 10
0.4029251968503937
 20
2.327551181102362
 30
0.0
 10
0.4029251968503937
 20
2.327551181102362
 30
0.0
 10
0.4029251968503937
 20
2.324858267716536
 30
0.0
 10
0.4032007874015748
 20
2.323192913385827
 30
0.0
 10
0.4037874015748031
 20
2.322637795275591
 30
0.0
 10
0.4037874015748031
 20
2.322637795275591
 30
0.0
 10
0.4043425196850394
 20
2.322051181102362
 30
0.0
 10
0.4059527559055118
 20
2.321775590551181
 30
0.0
 10
0.4086181102362205
 20
2.321775590551181
 30
0.0
 10
0.4086181102362205
 20
2.321775590551181
 30
0.0
 10
0.4086181102362205
 20
2.321775590551181
 30
0.0
 10
0.4143149606299213
 20
2.321775590551181
 30
0.0
 10
0.4143149606299213
 20
2.321775590551181
 30
0.0
 10
0.4143149606299213
 20
2.321775590551181
 30
0.0
 10
0.4143149606299213
 20
2.321775590551181
 30
0.0
 10
0.4143149606299213
 20
2.317220472440945
 30
0.0
 10
0.4143149606299213
 20
2.317220472440945
 30
0.0
 10
0.4143149606299213
 20
2.317220472440945
 30
0.0
 10
0.4143149606299213
 20
2.317220472440945
 30
0.0
 10
0.3807047244094489
 20
2.317220472440945
 30
0.0
 10
0.3807047244094489
 20
2.317220472440945
 30
0.0
 10
0.3807047244094489
 20
2.317220472440945
 30
0.0
 10
0.3807047244094489
 20
2.317220472440945
 30
0.0
 10
0.3807047244094489
 20
2.321775590551181
 30
0.0
 10
0.3807047244094489
 20
2.321775590551181
 30
0.0
 10
0.3807047244094489
 20
2.321775590551181
 30
0.0
 10
0.3807047244094489
 20
2.321775590551181
 30
0.0
 10
0.3868976377952756
 20
2.321775590551181
 30
0.0
 10
0.3868976377952756
 20
2.321775590551181
 30
0.0
 10
0.3868976377952756
 20
2.321775590551181
 30
0.0
 10
0.3890629921259843
 20
2.321775590551181
 30
0.0
 10
0.3904251968503937
 20
2.321913385826772
 30
0.0
 10
0.3910078740157481
 20
2.322192913385827
 30
0.0
 10
0.3910078740157481
 20
2.322192913385827
 30
0.0
 10
0.3915629921259843
 20
2.322468503937008
 30
0.0
 10
0.3920078740157481
 20
2.32294094488189
 30
0.0
 10
0.3923425196850394
 20
2.323665354330709
 30
0.0
 10
0.3923425196850394
 20
2.323665354330709
 30
0.0
 10
0.3926732283464567
 20
2.324358267716535
 30
0.0
 10
0.3928425196850394
 20
2.325665354330709
 30
0.0
 10
0.3928425196850394
 20
2.327551181102362
 30
0.0
 10
0.3928425196850394
 20
2.327551181102362
 30
0.0
 10
0.3928425196850394
 20
2.327551181102362
 30
0.0
 10
0.3928425196850394
 20
2.366606299212599
 30
0.0
 10
0.3928425196850394
 20
2.366606299212599
 30
0.0
 10
0.3928425196850394
 20
2.366606299212599
 30
0.0
 10
0.3928425196850394
 20
2.366606299212599
 30
0.0
 10
0.3807047244094489
 20
2.366606299212599
 30
0.0
 10
0.3807047244094489
 20
2.366606299212599
 30
0.0
 10
0.3807047244094489
 20
2.366606299212599
 30
0.0
 10
0.3807047244094489
 20
2.366606299212599
 30
0.0
 10
0.3807047244094489
 20
2.371192913385827
 30
0.0
 10
0.3807047244094489
 20
2.371192913385827
 30
0.0
 10
0.3807047244094489
 20
2.371192913385827
 30
0.0
 10
0.3838149606299213
 20
2.371551181102362
 30
0.0
 10
0.387507874015748
 20
2.372330708661417
 30
0.0
 10
0.3918700787401575
 20
2.373468503937008
 30
0.0
 10
0.3918700787401575
 20
2.373468503937008
 30
0.0
 10
0.3945078740157481
 20
2.374161417322835
 30
0.0
 10
0.3960354330708661
 20
2.374803149606299
 30
0.0
 10
0.3964251968503937
 20
2.375358267716536
 30
0.0
 10
0.3964251968503937
 20
2.375358267716536
 30
0.0
 10
0.3967874015748032
 20
2.37594094488189
 30
0.0
 10
0.3972874015748032
 20
2.376220472440945
 30
0.0
 10
0.3978700787401575
 20
2.376220472440945
 30
0.0
 10
0.3978700787401575
 20
2.376220472440945
 30
0.0
 10
0.3978700787401575
 20
2.376220472440945
 30
0.0
 10
0.4029251968503937
 20
2.376220472440945
 30
0.0
 10
0.4029251968503937
 20
2.376220472440945
 30
0.0
  0
SPLINE
  5
5D
330
1F
100
AcDbEntity
  8
LAYER_1
 62
   250
100
AcDbSpline
210
0.0
220
0.0
230
1.0
 70
    11
 71
     3
 72
    20
 73
    16
 74
     0
 42
0.0000000001
 43
0.0000000001
 40
0.0
 40
0.0
 40
0.0
 40
0.0
 40
0.25
 40
0.25
 40
0.25
 40
0.25
 40
0.5
 40
0.5
 40
0.5
 40
0.5
 40
0.75
 40
0.75
 40
0.75
 40
0.75
 40
1.0
 40
1.0
 40
1.0
 40
1.0
 10
0.4811181102362205
 20
2.377275590551181
 30
0.0
 10
0.4811181102362205
 20
2.377275590551181
 30
0.0
 10
0.4054251968503937
 20
2.259858267716536
 30
0.0
 10
0.4054251968503937
 20
2.259858267716536
 30
0.0
 10
0.4054251968503937
 20
2.259858267716536
 30
0.0
 10
0.4054251968503937
 20
2.259858267716536
 30
0.0
 10
0.3957598425196851
 20
2.259858267716536
 30
0.0
 10
0.3957598425196851
 20
2.259858267716536
 30
0.0
 10
0.3957598425196851
 20
2.259858267716536
 30
0.0
 10
0.3957598425196851
 20
2.259858267716536
 30
0.0
 10
0.4712874015748031
 20
2.377275590551181
 30
0.0
 10
0.4712874015748031
 20
2.377275590551181
 30
0.0
 10
0.4712874015748031
 20
2.377275590551181
 30
0.0
 10
0.4712874015748031
 20
2.377275590551181
 30
0.0
 10
0.4811181102362205
 20
2.377275590551181
 30
0.0
 10
0.4811181102362205
 20
2.377275590551181
 30
0.0
  0
SPLINE
  5
5E
330
1F
100
AcDbEntity
  8
LAYER_1
 62
   250
100
AcDbSpline
210
0.0
220
0.0
230
1.0
 70
    11
 71
     3
 72
   120
 73
   116
 74
     0
 42
0.0000000001
 43
0.0000000001
 40
0.0
 40
0.0
 40
0.0
 40
0.0
 40
0.0344827586206897
 40
0.0344827586206897
 40
0.0344827586206897
 40
0.0344827586206897
 40
0.0689655172413793
 40
0.0689655172413793
 40
0.0689655172413793
 40
0.0689655172413793
 40
0.103448275862069
 40
0.103448275862069
 40
0.103448275862069
 40
0.103448275862069
 40
0.1379310344827586
 40
0.1379310344827586
 40
0.1379310344827586
 40
0.1379310344827586
 40
0.1724137931034483
 40
0.1724137931034483
 40
0.1724137931034483
 40
0.1724137931034483
 40
0.206896551724138
 40
0.206896551724138
 40
0.206896551724138
 40
0.206896551724138
 40
0.2413793103448276
 40
0.2413793103448276
 40
0.2413793103448276
 40
0.2413793103448276
 40
0.2758620689655173
 40
0.2758620689655173
 40
0.2758620689655173
 40
0.2758620689655173
 40
0.310344827586207
 40
0.310344827586207
 40
0.310344827586207
 40
0.310344827586207
 40
0.3448275862068966
 40
0.3448275862068966
 40
0.3448275862068966
 40
0.3448275862068966
 40
0.3793103448275863
 40
0.3793103448275863
 40
0.3793103448275863
 40
0.3793103448275863
 40
0.413793103448276
 40
0.413793103448276
 40
0.413793103448276
 40
0.413793103448276
 40
0.4482758620689656
 40
0.4482758620689656
 40
0.4482758620689656
 40
0.4482758620689656
 40
0.4827586206896553
 40
0.4827586206896553
 40
0.4827586206896553
 40
0.4827586206896553
 40
0.517241379310345
 40
0.517241379310345
 40
0.517241379310345
 40
0.517241379310345
 40
0.5517241379310346
 40
0.5517241379310346
 40
0.5517241379310346
 40
0.5517241379310346
 40
0.5862068965517242
 40
0.5862068965517242
 40
0.5862068965517242
 40
0.5862068965517242
 40
0.6206896551724138
 40
0.6206896551724138
 40
0.6206896551724138
 40
0.6206896551724138
 40
0.6551724137931034
 40
0.6551724137931034
 40
0.6551724137931034
 40
0.6551724137931034
 40
0.689655172413793
 40
0.689655172413793
 40
0.689655172413793
 40
0.689655172413793
 40
0.7241379310344827
 40
0.7241379310344827
 40
0.7241379310344827
 40
0.7241379310344827
 40
0.7586206896551723
 40
0.7586206896551723
 40
0.7586206896551723
 40
0.7586206896551723
 40
0.7931034482758619
 40
0.7931034482758619
 40
0.7931034482758619
 40
0.7931034482758619
 40
0.8275862068965515
 40
0.8275862068965515
 40
0.8275862068965515
 40
0.8275862068965515
 40
0.8620689655172411
 40
0.8620689655172411
 40
0.8620689655172411
 40
0.8620689655172411
 40
0.8965517241379307
 40
0.8965517241379307
 40
0.8965517241379307
 40
0.8965517241379307
 40
0.9310344827586203
 40
0.9310344827586203
 40
0.9310344827586203
 40
0.9310344827586203
 40
0.9655172413793099
 40
0.9655172413793099
 40
0.9655172413793099
 40
0.9655172413793099
 40
1.0
 40
1.0
 40
1.0
 40
1.0
 10
0.4627283464566929
 20
2.298110236220472
 30
0.0
 10
0.4627283464566929
 20
2.298110236220472
 30
0.0
 10
0.4562283464566929
 20
2.297358267716536
 30
0.0
 10
0.4562283464566929
 20
2.297358267716536
 30
0.0
 10
0.4562283464566929
 20
2.297358267716536
 30
0.0
 10
0.4558976377952756
 20
2.299692913385827
 30
0.0
 10
0.4557283464566929
 20
2.301523622047244
 30
0.0
 10
0.4557283464566929
 20
2.302830708661417
 30
0.0
 10
0.4557283464566929
 20
2.302830708661417
 30
0.0
 10
0.4557283464566929
 20
2.306023622047244
 30
0.0
 10
0.4567283464566929
 20
2.309110236220473
 30
0.0
 10
0.4587559055118111
 20
2.312110236220473
 30
0.0
 10
0.4587559055118111
 20
2.312110236220473
 30
0.0
 10
0.4607559055118111
 20
2.31507874015748
 30
0.0
 10
0.4637007874015748
 20
2.317468503937008
 30
0.0
 10
0.4675629921259843
 20
2.319275590551181
 30
0.0
 10
0.4675629921259843
 20
2.319275590551181
 30
0.0
 10
0.4714527559055118
 20
2.321051181102362
 30
0.0
 10
0.4759251968503937
 20
2.32194094488189
 30
0.0
 10
0.4809527559055118
 20
2.32194094488189
 30
0.0
 10
0.4809527559055118
 20
2.32194094488189
 30
0.0
 10
0.4882834645669292
 20
2.32194094488189
 30
0.0
 10
0.4940629921259843
 20
2.320192913385827
 30
0.0
 10
0.4982834645669292
 20
2.316692913385827
 30
0.0
 10
0.4982834645669292
 20
2.316692913385827
 30
0.0
 10
0.5025354330708661
 20
2.313192913385827
 30
0.0
 10
0.5046456692913386
 20
2.308858267716536
 30
0.0
 10
0.5046456692913386
 20
2.30363779527559
 30
0.0
 10
0.5046456692913386
 20
2.30363779527559
 30
0.0
 10
0.5046456692913386
 20
2.300496062992126
 30
0.0
 10
0.5038700787401576
 20
2.297413385826772
 30
0.0
 10
0.5023110236220473
 20
2.29444094488189
 30
0.0
 10
0.5023110236220473
 20
2.29444094488189
 30
0.0
 10
0.5007834645669291
 20
2.291468503937008
 30
0.0
 10
0.4982007874015748
 20
2.288582677165354
 30
0.0
 10
0.4946456692913386
 20
2.285803149606299
 30
0.0
 10
0.4946456692913386
 20
2.285803149606299
 30
0.0
 10
0.4910629921259843
 20
2.283051181102362
 30
0.0
 10
0.4824527559055118
 20
2.277523622047244
 30
0.0
 10
0.4688425196850394
 20
2.269220472440945
 30
0.0
 10
0.4688425196850394
 20
2.269220472440945
 30
0.0
 10
0.4688425196850394
 20
2.269220472440945
 30
0.0
 10
0.4914527559055119
 20
2.269220472440945
 30
0.0
 10
0.4914527559055119
 20
2.269220472440945
 30
0.0
 10
0.4914527559055119
 20
2.269220472440945
 30
0.0
 10
0.4940629921259843
 20
2.269220472440945
 30
0.0
 10
0.4957007874015748
 20
2.269358267716536
 30
0.0
 10
0.4963976377952756
 20
2.269610236220473
 30
0.0
 10
0.4963976377952756
 20
2.269610236220473
 30
0.0
 10
0.4970629921259843
 20
2.269885826771654
 30
0.0
 10
0.4975905511811024
 20
2.270358267716536
 30
0.0
 10
0.4979251968503937
 20
2.270996062992126
 30
0.0
 10
0.4979251968503937
 20
2.270996062992126
 30
0.0
 10
0.4982834645669292
 20
2.271665354330709
 30
0.0
 10
0.498755905511811
 20
2.273468503937008
 30
0.0
 10
0.4993425196850394
 20
2.276468503937008
 30
0.0
 10
0.4993425196850394
 20
2.276468503937008
 30
0.0
 10
0.4993425196850394
 20
2.276468503937008
 30
0.0
 10
0.5054527559055119
 20
2.276468503937008
 30
0.0
 10
0.5054527559055119
 20
2.276468503937008
 30
0.0
 10
0.5054527559055119
 20
2.276468503937008
 30
0.0
 10
0.5054527559055119
 20
2.276468503937008
 30
0.0
 10
0.5019527559055118
 20
2.259775590551181
 30
0.0
 10
0.5019527559055118
 20
2.259775590551181
 30
0.0
 10
0.5019527559055118
 20
2.259775590551181
 30
0.0
 10
0.5019527559055118
 20
2.259775590551181
 30
0.0
 10
0.4971456692913386
 20
2.259775590551181
 30
0.0
 10
0.4971456692913386
 20
2.259775590551181
 30
0.0
 10
0.4971456692913386
 20
2.259775590551181
 30
0.0
 10
0.4971456692913386
 20
2.259775590551181
 30
0.0
 10
0.4965905511811024
 20
2.261885826771654
 30
0.0
 10
0.4965905511811024
 20
2.261885826771654
 30
0.0
 10
0.4965905511811024
 20
2.261885826771654
 30
0.0
 10
0.4965905511811024
 20
2.261885826771654
 30
0.0
 10
0.4545078740157481
 20
2.261885826771654
 30
0.0
 10
0.4545078740157481
 20
2.261885826771654
 30
0.0
 10
0.4545078740157481
 20
2.261885826771654
 30
0.0
 10
0.4545078740157481
 20
2.261885826771654
 30
0.0
 10
0.4545078740157481
 20
2.266051181102363
 30
0.0
 10
0.4545078740157481
 20
2.266051181102363
 30
0.0
 10
0.4545078740157481
 20
2.266051181102363
 30
0.0
 10
0.4545078740157481
 20
2.266051181102363
 30
0.0
 10
0.4628149606299213
 20
2.271496062992126
 30
0.0
 10
0.4628149606299213
 20
2.271496062992126
 30
0.0
 10
0.4628149606299213
 20
2.271496062992126
 30
0.0
 10
0.4722007874015748
 20
2.277582677165354
 30
0.0
 10
0.4789803149606299
 20
2.282385826771654
 30
0.0
 10
0.4831181102362205
 20
2.285968503937008
 30
0.0
 10
0.4831181102362205
 20
2.285968503937008
 30
0.0
 10
0.487255905511811
 20
2.289551181102362
 30
0.0
 10
0.4901456692913386
 20
2.292858267716535
 30
0.0
 10
0.4917834645669292
 20
2.295913385826772
 30
0.0
 10
0.4917834645669292
 20
2.295913385826772
 30
0.0
 10
0.4929251968503937
 20
2.298078740157481
 30
0.0
 10
0.493507874015748
 20
2.30044094488189
 30
0.0
 10
0.493507874015748
 20
2.302996062992126
 30
0.0
 10
0.493507874015748
 20
2.302996062992126
 30
0.0
 10
0.493507874015748
 20
2.306830708661417
 30
0.0
 10
0.4921732283464567
 20
2.309968503937008
 30
0.0
 10
0.4895354330708662
 20
2.312385826771654
 30
0.0
 10
0.4895354330708662
 20
2.312385826771654
 30
0.0
 10
0.4869251968503937
 20
2.314803149606299
 30
0.0
 10
0.4833425196850394
 20
2.315996062992126
 30
0.0
 10
0.4788425196850394
 20
2.315996062992126
 30
0.0
 10
0.4788425196850394
 20
2.315996062992126
 30
0.0
 10
0.4738976377952756
 20
2.315996062992126
 30
0.0
 10
0.4699527559055118
 20
2.314665354330709
 30
0.0
 10
0.4669527559055118
 20
2.311968503937008
 30
0.0
 10
0.4669527559055118
 20
2.311968503937008
 30
0.0
 10
0.4639803149606299
 20
2.309303149606299
 30
0.0
 10
0.4624803149606299
 20
2.306023622047244
 30
0.0
 10
0.4624803149606299
 20
2.302165354330709
 30
0.0
 10
0.4624803149606299
 20
2.302165354330709
 30
0.0
 10
0.4624803149606299
 20
2.301358267716536
 30
0.0
 10
0.4625629921259843
 20
2.299996062992126
 30
0.0
 10
0.4627283464566929
 20
2.298110236220472
 30
0.0
  0
SPLINE
  5
5F
330
1F
100
AcDbEntity
  8
LAYER_1
 62
   250
100
AcDbSpline
210
0.0
220
0.0
230
1.0
 70
    11
 71
     3
 72
    60
 73
    56
 74
     0
 42
0.0000000001
 43
0.0000000001
 40
0.0
 40
0.0
 40
0.0
 40
0.0
 40
0.0714285714285714
 40
0.0714285714285714
 40
0.0714285714285714
 40
0.0714285714285714
 40
0.1428571428571429
 40
0.1428571428571429
 40
0.1428571428571429
 40
0.1428571428571429
 40
0.2142857142857143
 40
0.2142857142857143
 40
0.2142857142857143
 40
0.2142857142857143
 40
0.2857142857142857
 40
0.2857142857142857
 40
0.2857142857142857
 40
0.2857142857142857
 40
0.3571428571428571
 40
0.3571428571428571
 40
0.3571428571428571
 40
0.3571428571428571
 40
0.4285714285714285
 40
0.4285714285714285
 40
0.4285714285714285
 40
0.4285714285714285
 40
0.4999999999999999
 40
0.4999999999999999
 40
0.4999999999999999
 40
0.4999999999999999
 40
0.5714285714285713
 40
0.5714285714285713
 40
0.5714285714285713
 40
0.5714285714285713
 40
0.6428571428571427
 40
0.6428571428571427
 40
0.6428571428571427
 40
0.6428571428571427
 40
0.7142857142857141
 40
0.7142857142857141
 40
0.7142857142857141
 40
0.7142857142857141
 40
0.7857142857142855
 40
0.7857142857142855
 40
0.7857142857142855
 40
0.7857142857142855
 40
0.8571428571428569
 40
0.8571428571428569
 40
0.8571428571428569
 40
0.8571428571428569
 40
0.9285714285714283
 40
0.9285714285714283
 40
0.9285714285714283
 40
0.9285714285714283
 40
1.0
 40
1.0
 40
1.0
 40
1.0
 10
0.5260354330708662
 20
2.333248031496063
 30
0.0
 10
0.5260354330708662
 20
2.333248031496063
 30
0.0
 10
0.5216456692913386
 20
2.338637795275591
 30
0.0
 10
0.5216456692913386
 20
2.338637795275591
 30
0.0
 10
0.5216456692913386
 20
2.338637795275591
 30
0.0
 10
0.5327598425196851
 20
2.347692913385827
 30
0.0
 10
0.5383425196850394
 20
2.355248031496063
 30
0.0
 10
0.5383425196850394
 20
2.361330708661417
 30
0.0
 10
0.5383425196850394
 20
2.361330708661417
 30
0.0
 10
0.5383425196850394
 20
2.362023622047244
 30
0.0
 10
0.5382874015748032
 20
2.362913385826772
 30
0.0
 10
0.5381732283464568
 20
2.36394094488189
 30
0.0
 10
0.5381732283464568
 20
2.36394094488189
 30
0.0
 10
0.5372598425196851
 20
2.363551181102362
 30
0.0
 10
0.5363425196850394
 20
2.363248031496063
 30
0.0
 10
0.53548031496063
 20
2.363051181102363
 30
0.0
 10
0.53548031496063
 20
2.363051181102363
 30
0.0
 10
0.5346181102362205
 20
2.362830708661417
 30
0.0
 10
0.5338149606299213
 20
2.362720472440945
 30
0.0
 10
0.5330354330708662
 20
2.362720472440945
 30
0.0
 10
0.5330354330708662
 20
2.362720472440945
 30
0.0
 10
0.5304251968503937
 20
2.362720472440945
 30
0.0
 10
0.5283425196850394
 20
2.363551181102362
 30
0.0
 10
0.5267874015748032
 20
2.365248031496063
 30
0.0
 10
0.5267874015748032
 20
2.365248031496063
 30
0.0
 10
0.5252007874015748
 20
2.366913385826772
 30
0.0
 10
0.5244251968503937
 20
2.369051181102362
 30
0.0
 10
0.5244251968503937
 20
2.371665354330709
 30
0.0
 10
0.5244251968503937
 20
2.371665354330709
 30
0.0
 10
0.5244251968503937
 20
2.374220472440945
 30
0.0
 10
0.5253700787401575
 20
2.37644094488189
 30
0.0
 10
0.5272598425196851
 20
2.378330708661418
 30
0.0
 10
0.5272598425196851
 20
2.378330708661418
 30
0.0
 10
0.5291732283464568
 20
2.380248031496063
 30
0.0
 10
0.5314527559055118
 20
2.381192913385827
 30
0.0
 10
0.5340905511811024
 20
2.381192913385827
 30
0.0
 10
0.5340905511811024
 20
2.381192913385827
 30
0.0
 10
0.5377874015748032
 20
2.381192913385827
 30
0.0
 10
0.5409527559055118
 20
2.379720472440945
 30
0.0
 10
0.5435905511811023
 20
2.376748031496063
 30
0.0
 10
0.5435905511811023
 20
2.376748031496063
 30
0.0
 10
0.5462007874015749
 20
2.3738031496063
 30
0.0
 10
0.5475354330708662
 20
2.369996062992126
 30
0.0
 10
0.5475354330708662
 20
2.365330708661417
 30
0.0
 10
0.5475354330708662
 20
2.365330708661417
 30
0.0
 10
0.5475354330708662
 20
2.362275590551181
 30
0.0
 10
0.5468976377952756
 20
2.35907874015748
 30
0.0
 10
0.5456456692913386
 20
2.355748031496063
 30
0.0
 10
0.5456456692913386
 20
2.355748031496063
 30
0.0
 10
0.5443976377952756
 20
2.352413385826772
 30
0.0
 10
0.5425905511811023
 20
2.349330708661417
 30
0.0
 10
0.5402007874015748
 20
2.346468503937008
 30
0.0
 10
0.5402007874015748
 20
2.346468503937008
 30
0.0
 10
0.5378149606299213
 20
2.343637795275591
 30
0.0
 10
0.5330905511811024
 20
2.339220472440945
 30
0.0
 10
0.5260354330708662
 20
2.333248031496063
 30
0.0
  0
SPLINE
  5
60
330
1F
100
AcDbEntity
  8
LAYER_1
 62
   250
100
AcDbSpline
210
0.0
220
0.0
230
1.0
 70
    11
 71
     3
 72
    60
 73
    56
 74
     0
 42
0.0000000001
 43
0.0000000001
 40
0.0
 40
0.0
 40
0.0
 40
0.0
 40
0.0714285714285714
 40
0.0714285714285714
 40
0.0714285714285714
 40
0.0714285714285714
 40
0.1428571428571429
 40
0.1428571428571429
 40
0.1428571428571429
 40
0.1428571428571429
 40
0.2142857142857143
 40
0.2142857142857143
 40
0.2142857142857143
 40
0.2142857142857143
 40
0.2857142857142857
 40
0.2857142857142857
 40
0.2857142857142857
 40
0.2857142857142857
 40
0.3571428571428571
 40
0.3571428571428571
 40
0.3571428571428571
 40
0.3571428571428571
 40
0.4285714285714285
 40
0.4285714285714285
 40
0.4285714285714285
 40
0.4285714285714285
 40
0.4999999999999999
 40
0.4999999999999999
 40
0.4999999999999999
 40
0.4999999999999999
 40
0.5714285714285713
 40
0.5714285714285713
 40
0.5714285714285713
 40
0.5714285714285713
 40
0.6428571428571427
 40
0.6428571428571427
 40
0.6428571428571427
 40
0.6428571428571427
 40
0.7142857142857141
 40
0.7142857142857141
 40
0.7142857142857141
 40
0.7142857142857141
 40
0.7857142857142855
 40
0.7857142857142855
 40
0.7857142857142855
 40
0.7857142857142855
 40
0.8571428571428569
 40
0.8571428571428569
 40
0.8571428571428569
 40
0.8571428571428569
 40
0.9285714285714283
 40
0.9285714285714283
 40
0.9285714285714283
 40
0.9285714285714283
 40
1.0
 40
1.0
 40
1.0
 40
1.0
 10
0.5550905511811024
 20
2.333248031496063
 30
0.0
 10
0.5550905511811024
 20
2.333248031496063
 30
0.0
 10
0.5507007874015748
 20
2.338637795275591
 30
0.0
 10
0.5507007874015748
 20
2.338637795275591
 30
0.0
 10
0.5507007874015748
 20
2.338637795275591
 30
0.0
 10
0.5618149606299213
 20
2.347692913385827
 30
0.0
 10
0.5673976377952756
 20
2.355248031496063
 30
0.0
 10
0.5673976377952756
 20
2.361330708661417
 30
0.0
 10
0.5673976377952756
 20
2.361330708661417
 30
0.0
 10
0.5673976377952756
 20
2.362023622047244
 30
0.0
 10
0.5673425196850394
 20
2.362913385826772
 30
0.0
 10
0.567228346456693
 20
2.36394094488189
 30
0.0
 10
0.567228346456693
 20
2.36394094488189
 30
0.0
 10
0.5663149606299213
 20
2.363551181102362
 30
0.0
 10
0.5653976377952756
 20
2.363248031496063
 30
0.0
 10
0.5645354330708662
 20
2.363051181102363
 30
0.0
 10
0.5645354330708662
 20
2.363051181102363
 30
0.0
 10
0.5636732283464567
 20
2.362830708661417
 30
0.0
 10
0.5628425196850394
 20
2.362720472440945
 30
0.0
 10
0.562007874015748
 20
2.362720472440945
 30
0.0
 10
0.562007874015748
 20
2.362720472440945
 30
0.0
 10
0.5594527559055118
 20
2.362720472440945
 30
0.0
 10
0.5573976377952756
 20
2.363551181102362
 30
0.0
 10
0.5558425196850394
 20
2.365248031496063
 30
0.0
 10
0.5558425196850394
 20
2.365248031496063
 30
0.0
 10
0.5542598425196851
 20
2.366913385826772
 30
0.0
 10
0.55348031496063
 20
2.369051181102362
 30
0.0
 10
0.55348031496063
 20
2.371665354330709
 30
0.0
 10
0.55348031496063
 20
2.371665354330709
 30
0.0
 10
0.55348031496063
 20
2.374220472440945
 30
0.0
 10
0.5544251968503937
 20
2.37644094488189
 30
0.0
 10
0.5563149606299213
 20
2.378330708661418
 30
0.0
 10
0.5563149606299213
 20
2.378330708661418
 30
0.0
 10
0.5582007874015749
 20
2.380248031496063
 30
0.0
 10
0.5605078740157481
 20
2.381192913385827
 30
0.0
 10
0.5631456692913386
 20
2.381192913385827
 30
0.0
 10
0.5631456692913386
 20
2.381192913385827
 30
0.0
 10
0.5668425196850394
 20
2.381192913385827
 30
0.0
 10
0.570007874015748
 20
2.379720472440945
 30
0.0
 10
0.5726456692913386
 20
2.376748031496063
 30
0.0
 10
0.5726456692913386
 20
2.376748031496063
 30
0.0
 10
0.5752559055118111
 20
2.3738031496063
 30
0.0
 10
0.5765905511811024
 20
2.369996062992126
 30
0.0
 10
0.5765905511811024
 20
2.365330708661417
 30
0.0
 10
0.5765905511811024
 20
2.365330708661417
 30
0.0
 10
0.5765905511811024
 20
2.362275590551181
 30
0.0
 10
0.5759527559055119
 20
2.35907874015748
 30
0.0
 10
0.5747007874015748
 20
2.355748031496063
 30
0.0
 10
0.5747007874015748
 20
2.355748031496063
 30
0.0
 10
0.5734527559055118
 20
2.352413385826772
 30
0.0
 10
0.5716456692913386
 20
2.349330708661417
 30
0.0
 10
0.5692598425196851
 20
2.346468503937008
 30
0.0
 10
0.5692598425196851
 20
2.346468503937008
 30
0.0
 10
0.5668700787401575
 20
2.343637795275591
 30
0.0
 10
0.5621456692913386
 20
2.339220472440945
 30
0.0
 10
0.5550905511811024
 20
2.333248031496063
 30
0.0
  0
SPLINE
  5
61
330
1F
100
AcDbEntity
  8
LAYER_1
 62
   250
100
AcDbSpline
210
0.0
220
0.0
230
1.0
 70
    11
 71
     3
 72
   204
 73
   200
 74
     0
 42
0.0000000001
 43
0.0000000001
 40
0.0
 40
0.0
 40
0.0
 40
0.0
 40
0.02
 40
0.02
 40
0.02
 40
0.02
 40
0.04
 40
0.04
 40
0.04
 40
0.04
 40
0.06
 40
0.06
 40
0.06
 40
0.06
 40
0.08
 40
0.08
 40
0.08
 40
0.08
 40
0.1
 40
0.1
 40
0.1
 40
0.1
 40
0.12
 40
0.12
 40
0.12
 40
0.12
 40
0.14
 40
0.14
 40
0.14
 40
0.14
 40
0.16
 40
0.16
 40
0.16
 40
0.16
 40
0.18
 40
0.18
 40
0.18
 40
0.18
 40
0.2
 40
0.2
 40
0.2
 40
0.2
 40
0.22
 40
0.22
 40
0.22
 40
0.22
 40
0.24
 40
0.24
 40
0.24
 40
0.24
 40
0.26
 40
0.26
 40
0.26
 40
0.26
 40
0.28
 40
0.28
 40
0.28
 40
0.28
 40
0.3
 40
0.3
 40
0.3
 40
0.3
 40
0.32
 40
0.32
 40
0.32
 40
0.32
 40
0.34
 40
0.34
 40
0.34
 40
0.34
 40
0.36
 40
0.36
 40
0.36
 40
0.36
 40
0.3800000000000001
 40
0.3800000000000001
 40
0.3800000000000001
 40
0.3800000000000001
 40
0.4000000000000001
 40
0.4000000000000001
 40
0.4000000000000001
 40
0.4000000000000001
 40
0.4200000000000001
 40
0.4200000000000001
 40
0.4200000000000001
 40
0.4200000000000001
 40
0.4400000000000001
 40
0.4400000000000001
 40
0.4400000000000001
 40
0.4400000000000001
 40
0.4600000000000001
 40
0.4600000000000001
 40
0.4600000000000001
 40
0.4600000000000001
 40
0.4800000000000002
 40
0.4800000000000002
 40
0.4800000000000002
 40
0.4800000000000002
 40
0.5000000000000001
 40
0.5000000000000001
 40
0.5000000000000001
 40
0.5000000000000001
 40
0.5200000000000001
 40
0.5200000000000001
 40
0.5200000000000001
 40
0.5200000000000001
 40
0.5400000000000002
 40
0.5400000000000002
 40
0.5400000000000002
 40
0.5400000000000002
 40
0.5600000000000002
 40
0.5600000000000002
 40
0.5600000000000002
 40
0.5600000000000002
 40
0.5800000000000002
 40
0.5800000000000002
 40
0.5800000000000002
 40
0.5800000000000002
 40
0.6000000000000002
 40
0.6000000000000002
 40
0.6000000000000002
 40
0.6000000000000002
 40
0.6200000000000002
 40
0.6200000000000002
 40
0.6200000000000002
 40
0.6200000000000002
 40
0.6400000000000002
 40
0.6400000000000002
 40
0.6400000000000002
 40
0.6400000000000002
 40
0.6600000000000003
 40
0.6600000000000003
 40
0.6600000000000003
 40
0.6600000000000003
 40
0.6800000000000003
 40
0.6800000000000003
 40
0.6800000000000003
 40
0.6800000000000003
 40
0.7000000000000003
 40
0.7000000000000003
 40
0.7000000000000003
 40
0.7000000000000003
 40
0.7200000000000003
 40
0.7200000000000003
 40
0.7200000000000003
 40
0.7200000000000003
 40
0.7400000000000003
 40
0.7400000000000003
 40
0.7400000000000003
 40
0.7400000000000003
 40
0.7600000000000003
 40
0.7600000000000003
 40
0.7600000000000003
 40
0.7600000000000003
 40
0.7800000000000004
 40
0.7800000000000004
 40
0.7800000000000004
 40
0.7800000000000004
 40
0.8000000000000004
 40
0.8000000000000004
 40
0.8000000000000004
 40
0.8000000000000004
 40
0.8200000000000004
 40
0.8200000000000004
 40
0.8200000000000004
 40
0.8200000000000004
 40
0.8400000000000004
 40
0.8400000000000004
 40
0.8400000000000004
 40
0.8400000000000004
 40
0.8600000000000004
 40
0.8600000000000004
 40
0.8600000000000004
 40
0.8600000000000004
 40
0.8800000000000005
 40
0.8800000000000005
 40
0.8800000000000005
 40
0.8800000000000005
 40
0.9000000000000005
 40
0.9000000000000005
 40
0.9000000000000005
 40
0.9000000000000005
 40
0.9200000000000005
 40
0.9200000000000005
 40
0.9200000000000005
 40
0.9200000000000005
 40
0.9400000000000005
 40
0.9400000000000005
 40
0.9400000000000005
 40
0.9400000000000005
 40
0.9600000000000005
 40
0.9600000000000005
 40
0.9600000000000005
 40
0.9600000000000005
 40
0.9800000000000005
 40
0.9800000000000005
 40
0.9800000000000005
 40
0.9800000000000005
 40
1.0
 40
1.0
 40
1.0
 40
1.0
 10
0.5855905511811024
 20
2.340330708661417
 30
0.0
 10
0.5855905511811024
 20
2.340330708661417
 30
0.0
 10
0.6265354330708661
 20
2.340330708661417
 30
0.0
 10
0.6265354330708661
 20
2.340330708661417
 30
0.0
 10
0.6265354330708661
 20
2.340330708661417
 30
0.0
 10
0.6265354330708661
 20
2.340330708661417
 30
0.0
 10
0.6265354330708661
 20
2.333496062992126
 30
0.0
 10
0.6265354330708661
 20
2.333496062992126
 30
0.0
 10
0.6265354330708661
 20
2.333496062992126
 30
0.0
 10
0.6265354330708661
 20
2.333496062992126
 30
0.0
 10
0.6237007874015749
 20
2.333496062992126
 30
0.0
 10
0.6237007874015749
 20
2.333496062992126
 30
0.0
 10
0.6237007874015749
 20
2.333496062992126
 30
0.0
 10
0.6220629921259843
 20
2.333496062992126
 30
0.0
 10
0.6205629921259843
 20
2.333303149606299
 30
0.0
 10
0.6192007874015748
 20
2.33294094488189
 30
0.0
 10
0.6192007874015748
 20
2.33294094488189
 30
0.0
 10
0.6183976377952756
 20
2.332720472440945
 30
0.0
 10
0.6177283464566929
 20
2.332303149606299
 30
0.0
 10
0.6172283464566929
 20
2.331665354330709
 30
0.0
 10
0.6172283464566929
 20
2.331665354330709
 30
0.0
 10
0.6167007874015749
 20
2.331051181102362
 30
0.0
 10
0.6164527559055119
 20
2.330468503937008
 30
0.0
 10
0.6164527559055119
 20
2.329913385826772
 30
0.0
 10
0.6164527559055119
 20
2.329913385826772
 30
0.0
 10
0.6164527559055119
 20
2.328665354330709
 30
0.0
 10
0.6174803149606299
 20
2.326803149606299
 30
0.0
 10
0.6195354330708661
 20
2.324303149606299
 30
0.0
 10
0.6195354330708661
 20
2.324303149606299
 30
0.0
 10
0.6195354330708661
 20
2.324303149606299
 30
0.0
 10
0.6311732283464567
 20
2.309665354330709
 30
0.0
 10
0.6311732283464567
 20
2.309665354330709
 30
0.0
 10
0.6311732283464567
 20
2.309665354330709
 30
0.0
 10
0.6311732283464567
 20
2.309665354330709
 30
0.0
 10
0.6447559055118111
 20
2.324303149606299
 30
0.0
 10
0.6447559055118111
 20
2.324303149606299
 30
0.0
 10
0.6447559055118111
 20
2.324303149606299
 30
0.0
 10
0.647255905511811
 20
2.327023622047244
 30
0.0
 10
0.6485078740157481
 20
2.329051181102362
 30
0.0
 10
0.6485078740157481
 20
2.330413385826772
 30
0.0
 10
0.6485078740157481
 20
2.330413385826772
 30
0.0
 10
0.6485078740157481
 20
2.331385826771654
 30
0.0
 10
0.6480629921259843
 20
2.332137795275591
 30
0.0
 10
0.6472007874015748
 20
2.332692913385827
 30
0.0
 10
0.6472007874015748
 20
2.332692913385827
 30
0.0
 10
0.6463385826771654
 20
2.333220472440945
 30
0.0
 10
0.64448031496063
 20
2.333496062992126
 30
0.0
 10
0.6415905511811024
 20
2.333496062992126
 30
0.0
 10
0.6415905511811024
 20
2.333496062992126
 30
0.0
 10
0.6415905511811024
 20
2.333496062992126
 30
0.0
 10
0.638507874015748
 20
2.333496062992126
 30
0.0
 10
0.638507874015748
 20
2.333496062992126
 30
0.0
 10
0.638507874015748
 20
2.333496062992126
 30
0.0
 10
0.638507874015748
 20
2.333496062992126
 30
0.0
 10
0.638507874015748
 20
2.340330708661417
 30
0.0
 10
0.638507874015748
 20
2.340330708661417
 30
0.0
 10
0.638507874015748
 20
2.340330708661417
 30
0.0
 10
0.638507874015748
 20
2.340330708661417
 30
0.0
 10
0.673255905511811
 20
2.340330708661417
 30
0.0
 10
0.673255905511811
 20
2.340330708661417
 30
0.0
 10
0.673255905511811
 20
2.340330708661417
 30
0.0
 10
0.673255905511811
 20
2.340330708661417
 30
0.0
 10
0.673255905511811
 20
2.333496062992126
 30
0.0
 10
0.673255905511811
 20
2.333496062992126
 30
0.0
 10
0.673255905511811
 20
2.333496062992126
 30
0.0
 10
0.6698385826771653
 20
2.333330708661417
 30
0.0
 10
0.6668937007874016
 20
2.332637795275591
 30
0.0
 10
0.6644251968503937
 20
2.331385826771654
 30
0.0
 10
0.6644251968503937
 20
2.331385826771654
 30
0.0
 10
0.6619527559055118
 20
2.330137795275591
 30
0.0
 10
0.6590354330708662
 20
2.327775590551181
 30
0.0
 10
0.6556732283464567
 20
2.324303149606299
 30
0.0
 10
0.6556732283464567
 20
2.324303149606299
 30
0.0
 10
0.6556732283464567
 20
2.324303149606299
 30
0.0
 10
0.6370354330708662
 20
2.30494094488189
 30
0.0
 10
0.6370354330708662
 20
2.30494094488189
 30
0.0
 10
0.6370354330708662
 20
2.30494094488189
 30
0.0
 10
0.6370354330708662
 20
2.30494094488189
 30
0.0
 10
0.6602283464566929
 20
2.278496062992126
 30
0.0
 10
0.6602283464566929
 20
2.278496062992126
 30
0.0
 10
0.6602283464566929
 20
2.278496062992126
 30
0.0
 10
0.6602283464566929
 20
2.278496062992126
 30
0.0
 10
0.6611181102362205
 20
2.277358267716536
 30
0.0
 10
0.6611181102362205
 20
2.277358267716536
 30
0.0
 10
0.6611181102362205
 20
2.277358267716536
 30
0.0
 10
0.6633937007874016
 20
2.274413385826772
 30
0.0
 10
0.6659527559055118
 20
2.272051181102362
 30
0.0
 10
0.6687834645669292
 20
2.270275590551181
 30
0.0
 10
0.6687834645669292
 20
2.270275590551181
 30
0.0
 10
0.6703385826771654
 20
2.269248031496063
 30
0.0
 10
0.6727834645669292
 20
2.268692913385827
 30
0.0
 10
0.6760905511811024
 20
2.268637795275591
 30
0.0
 10
0.6760905511811024
 20
2.268637795275591
 30
0.0
 10
0.6760905511811024
 20
2.268637795275591
 30
0.0
 10
0.6760905511811024
 20
2.261803149606299
 30
0.0
 10
0.6760905511811024
 20
2.261803149606299
 30
0.0
 10
0.6760905511811024
 20
2.261803149606299
 30
0.0
 10
0.6760905511811024
 20
2.261803149606299
 30
0.0
 10
0.6361456692913386
 20
2.261803149606299
 30
0.0
 10
0.6361456692913386
 20
2.261803149606299
 30
0.0
 10
0.6361456692913386
 20
2.261803149606299
 30
0.0
 10
0.6361456692913386
 20
2.261803149606299
 30
0.0
 10
0.6361456692913386
 20
2.268637795275591
 30
0.0
 10
0.6361456692913386
 20
2.268637795275591
 30
0.0
 10
0.6361456692913386
 20
2.268637795275591
 30
0.0
 10
0.6361456692913386
 20
2.268637795275591
 30
0.0
 10
0.6395629921259843
 20
2.268637795275591
 30
0.0
 10
0.6395629921259843
 20
2.268637795275591
 30
0.0
 10
0.6395629921259843
 20
2.268637795275591
 30
0.0
 10
0.6421732283464567
 20
2.268637795275591
 30
0.0
 10
0.6438110236220472
 20
2.2688031496063
 30
0.0
 10
0.6445354330708661
 20
2.269137795275591
 30
0.0
 10
0.6445354330708661
 20
2.269137795275591
 30
0.0
 10
0.6457007874015749
 20
2.269665354330709
 30
0.0
 10
0.6463110236220473
 20
2.270582677165355
 30
0.0
 10
0.6463110236220473
 20
2.271885826771654
 30
0.0
 10
0.6463110236220473
 20
2.271885826771654
 30
0.0
 10
0.6463110236220473
 20
2.273082677165355
 30
0.0
 10
0.6450078740157481
 20
2.275275590551181
 30
0.0
 10
0.6423937007874015
 20
2.278496062992126
 30
0.0
 10
0.6423937007874015
 20
2.278496062992126
 30
0.0
 10
0.6423937007874015
 20
2.278496062992126
 30
0.0
 10
0.6275905511811024
 20
2.296637795275591
 30
0.0
 10
0.6275905511811024
 20
2.296637795275591
 30
0.0
 10
0.6275905511811024
 20
2.296637795275591
 30
0.0
 10
0.6275905511811024
 20
2.296637795275591
 30
0.0
 10
0.6110629921259843
 20
2.278496062992126
 30
0.0
 10
0.6110629921259843
 20
2.278496062992126
 30
0.0
 10
0.6110629921259843
 20
2.278496062992126
 30
0.0
 10
0.6110629921259843
 20
2.278496062992126
 30
0.0
 10
0.6094527559055118
 20
2.276523622047244
 30
0.0
 10
0.6094527559055118
 20
2.276523622047244
 30
0.0
 10
0.6094527559055118
 20
2.276523622047244
 30
0.0
 10
0.6094527559055118
 20
2.276523622047244
 30
0.0
 10
0.6085629921259843
 20
2.275551181102362
 30
0.0
 10
0.6085629921259843
 20
2.275551181102362
 30
0.0
 10
0.6085629921259843
 20
2.275551181102362
 30
0.0
 10
0.6072007874015748
 20
2.274082677165354
 30
0.0
 10
0.606507874015748
 20
2.2728031496063
 30
0.0
 10
0.606507874015748
 20
2.271665354330709
 30
0.0
 10
0.606507874015748
 20
2.271665354330709
 30
0.0
 10
0.606507874015748
 20
2.270610236220473
 30
0.0
 10
0.6069251968503937
 20
2.269858267716535
 30
0.0
 10
0.6077834645669291
 20
2.269358267716536
 30
0.0
 10
0.6077834645669291
 20
2.269358267716536
 30
0.0
 10
0.6086181102362205
 20
2.268885826771654
 30
0.0
 10
0.610507874015748
 20
2.268637795275591
 30
0.0
 10
0.6134251968503938
 20
2.268637795275591
 30
0.0
 10
0.6134251968503938
 20
2.268637795275591
 30
0.0
 10
0.6134251968503938
 20
2.268637795275591
 30
0.0
 10
0.6167007874015749
 20
2.268637795275591
 30
0.0
 10
0.6167007874015749
 20
2.268637795275591
 30
0.0
 10
0.6167007874015749
 20
2.268637795275591
 30
0.0
 10
0.6167007874015749
 20
2.268637795275591
 30
0.0
 10
0.6167007874015749
 20
2.261803149606299
 30
0.0
 10
0.6167007874015749
 20
2.261803149606299
 30
0.0
 10
0.6167007874015749
 20
2.261803149606299
 30
0.0
 10
0.6167007874015749
 20
2.261803149606299
 30
0.0
 10
0.5824251968503937
 20
2.261803149606299
 30
0.0
 10
0.5824251968503937
 20
2.261803149606299
 30
0.0
 10
0.5824251968503937
 20
2.261803149606299
 30
0.0
 10
0.5824251968503937
 20
2.261803149606299
 30
0.0
 10
0.5824251968503937
 20
2.268637795275591
 30
0.0
 10
0.5824251968503937
 20
2.268637795275591
 30
0.0
 10
0.5824251968503937
 20
2.268637795275591
 30
0.0
 10
0.5850905511811024
 20
2.268692913385827
 30
0.0
 10
0.5871732283464567
 20
2.268968503937008
 30
0.0
 10
0.5887007874015748
 20
2.269496062992126
 30
0.0
 10
0.5887007874015748
 20
2.269496062992126
 30
0.0
 10
0.5902007874015748
 20
2.269996062992126
 30
0.0
 10
0.5916732283464568
 20
2.270803149606299
 30
0.0
 10
0.5930905511811024
 20
2.271885826771654
 30
0.0
 10
0.5930905511811024
 20
2.271885826771654
 30
0.0
 10
0.5955354330708662
 20
2.273858267716535
 30
0.0
 10
0.5972834645669292
 20
2.275385826771654
 30
0.0
 10
0.5983700787401575
 20
2.276523622047244
 30
0.0
 10
0.5983700787401575
 20
2.276523622047244
 30
0.0
 10
0.5983700787401575
 20
2.276523622047244
 30
0.0
 10
0.6222283464566929
 20
2.301023622047244
 30
0.0
 10
0.6222283464566929
 20
2.301023622047244
 30
0.0
 10
0.6222283464566929
 20
2.301023622047244
 30
0.0
 10
0.6222283464566929
 20
2.301023622047244
 30
0.0
 10
0.6019527559055118
 20
2.324303149606299
 30
0.0
 10
0.6019527559055118
 20
2.324303149606299
 30
0.0
 10
0.6019527559055118
 20
2.324303149606299
 30
0.0
 10
0.5993976377952757
 20
2.327192913385827
 30
0.0
 10
0.5973976377952757
 20
2.329192913385827
 30
0.0
 10
0.5958976377952756
 20
2.330358267716536
 30
0.0
 10
0.5958976377952756
 20
2.330358267716536
 30
0.0
 10
0.5943976377952757
 20
2.331523622047244
 30
0.0
 10
0.5929527559055119
 20
2.332358267716535
 30
0.0
 10
0.5915354330708662
 20
2.332803149606299
 30
0.0
 10
0.5915354330708662
 20
2.332803149606299
 30
0.0
 10
0.5901181102362205
 20
2.333275590551181
 30
0.0
 10
0.5881456692913386
 20
2.333496062992126
 30
0.0
 10
0.5855905511811024
 20
2.333496062992126
 30
0.0
 10
0.5855905511811024
 20
2.333496062992126
 30
0.0
 10
0.5855905511811024
 20
2.333496062992126
 30
0.0
 10
0.5855905511811024
 20
2.340330708661417
 30
0.0
 10
0.5855905511811024
 20
2.340330708661417
 30
0.0
  0
SPLINE
  5
62
330
1F
100
AcDbEntity
  8
LAYER_1
 62
   250
100
AcDbSpline
210
0.0
220
0.0
230
1.0
 70
    11
 71
     3
 72
    72
 73
    68
 74
     0
 42
0.0000000001
 43
0.0000000001
 40
0.0
 40
0.0
 40
0.0
 40
0.0
 40
0.0588235294117647
 40
0.0588235294117647
 40
0.0588235294117647
 40
0.0588235294117647
 40
0.1176470588235294
 40
0.1176470588235294
 40
0.1176470588235294
 40
0.1176470588235294
 40
0.1764705882352941
 40
0.1764705882352941
 40
0.1764705882352941
 40
0.1764705882352941
 40
0.2352941176470588
 40
0.2352941176470588
 40
0.2352941176470588
 40
0.2352941176470588
 40
0.2941176470588235
 40
0.2941176470588235
 40
0.2941176470588235
 40
0.2941176470588235
 40
0.3529411764705883
 40
0.3529411764705883
 40
0.3529411764705883
 40
0.3529411764705883
 40
0.411764705882353
 40
0.411764705882353
 40
0.411764705882353
 40
0.411764705882353
 40
0.4705882352941177
 40
0.4705882352941177
 40
0.4705882352941177
 40
0.4705882352941177
 40
0.5294117647058824
 40
0.5294117647058824
 40
0.5294117647058824
 40
0.5294117647058824
 40
0.5882352941176471
 40
0.5882352941176471
 40
0.5882352941176471
 40
0.5882352941176471
 40
0.6470588235294118
 40
0.6470588235294118
 40
0.6470588235294118
 40
0.6470588235294118
 40
0.7058823529411765
 40
0.7058823529411765
 40
0.7058823529411765
 40
0.7058823529411765
 40
0.7647058823529412
 40
0.7647058823529412
 40
0.7647058823529412
 40
0.7647058823529412
 40
0.823529411764706
 40
0.823529411764706
 40
0.823529411764706
 40
0.823529411764706
 40
0.8823529411764707
 40
0.8823529411764707
 40
0.8823529411764707
 40
0.8823529411764707
 40
0.9411764705882354
 40
0.9411764705882354
 40
0.9411764705882354
 40
0.9411764705882354
 40
1.0
 40
1.0
 40
1.0
 40
1.0
 10
0.7852283464566929
 20
2.375330708661418
 30
0.0
 10
0.7852283464566929
 20
2.375330708661418
 30
0.0
 10
0.7913110236220473
 20
2.375330708661418
 30
0.0
 10
0.7913110236220473
 20
2.375330708661418
 30
0.0
 10
0.7913110236220473
 20
2.375330708661418
 30
0.0
 10
0.7913110236220473
 20
2.375330708661418
 30
0.0
 10
0.7913110236220473
 20
2.281082677165355
 30
0.0
 10
0.7913110236220473
 20
2.281082677165355
 30
0.0
 10
0.7913110236220473
 20
2.281082677165355
 30
0.0
 10
0.7913110236220473
 20
2.276637795275591
 30
0.0
 10
0.7916181102362205
 20
2.273775590551181
 30
0.0
 10
0.7921732283464568
 20
2.272496062992126
 30
0.0
 10
0.7921732283464568
 20
2.272496062992126
 30
0.0
 10
0.7927559055118111
 20
2.271220472440945
 30
0.0
 10
0.7936732283464567
 20
2.270275590551181
 30
0.0
 10
0.7949763779527559
 20
2.269610236220473
 30
0.0
 10
0.7949763779527559
 20
2.269610236220473
 30
0.0
 10
0.7962834645669291
 20
2.268968503937008
 30
0.0
 10
0.7988661417322835
 20
2.268637795275591
 30
0.0
 10
0.802728346456693
 20
2.268637795275591
 30
0.0
 10
0.802728346456693
 20
2.268637795275591
 30
0.0
 10
0.802728346456693
 20
2.268637795275591
 30
0.0
 10
0.8107007874015748
 20
2.268637795275591
 30
0.0
 10
0.8107007874015748
 20
2.268637795275591
 30
0.0
 10
0.8107007874015748
 20
2.268637795275591
 30
0.0
 10
0.8107007874015748
 20
2.268637795275591
 30
0.0
 10
0.8107007874015748
 20
2.261803149606299
 30
0.0
 10
0.8107007874015748
 20
2.261803149606299
 30
0.0
 10
0.8107007874015748
 20
2.261803149606299
 30
0.0
 10
0.8107007874015748
 20
2.261803149606299
 30
0.0
 10
0.7570629921259843
 20
2.261803149606299
 30
0.0
 10
0.7570629921259843
 20
2.261803149606299
 30
0.0
 10
0.7570629921259843
 20
2.261803149606299
 30
0.0
 10
0.7570629921259843
 20
2.261803149606299
 30
0.0
 10
0.7570629921259843
 20
2.268637795275591
 30
0.0
 10
0.7570629921259843
 20
2.268637795275591
 30
0.0
 10
0.7570629921259843
 20
2.268637795275591
 30
0.0
 10
0.7570629921259843
 20
2.268637795275591
 30
0.0
 10
0.7659212598425197
 20
2.268637795275591
 30
0.0
 10
0.7659212598425197
 20
2.268637795275591
 30
0.0
 10
0.7659212598425197
 20
2.268637795275591
 30
0.0
 10
0.7697834645669291
 20
2.268637795275591
 30
0.0
 10
0.7723385826771654
 20
2.268968503937008
 30
0.0
 10
0.7736181102362205
 20
2.269665354330709
 30
0.0
 10
0.7736181102362205
 20
2.269665354330709
 30
0.0
 10
0.7748937007874016
 20
2.270330708661418
 30
0.0
 10
0.7758937007874016
 20
2.271413385826772
 30
0.0
 10
0.7765905511811024
 20
2.272913385826772
 30
0.0
 10
0.7765905511811024
 20
2.272913385826772
 30
0.0
 10
0.7772834645669292
 20
2.274413385826772
 30
0.0
 10
0.7776456692913386
 20
2.277137795275591
 30
0.0
 10
0.7776456692913386
 20
2.281082677165355
 30
0.0
 10
0.7776456692913386
 20
2.281082677165355
 30
0.0
 10
0.7776456692913386
 20
2.281082677165355
 30
0.0
 10
0.7776456692913386
 20
2.358551181102362
 30
0.0
 10
0.7776456692913386
 20
2.358551181102362
 30
0.0
 10
0.7776456692913386
 20
2.358551181102362
 30
0.0
 10
0.7776456692913386
 20
2.358551181102362
 30
0.0
 10
0.7570629921259843
 20
2.358551181102362
 30
0.0
 10
0.7570629921259843
 20
2.358551181102362
 30
0.0
 10
0.7570629921259843
 20
2.358551181102362
 30
0.0
 10
0.7570629921259843
 20
2.358551181102362
 30
0.0
 10
0.7570629921259843
 20
2.365551181102362
 30
0.0
 10
0.7570629921259843
 20
2.365551181102362
 30
0.0
 10
0.7570629921259843
 20
2.365551181102362
 30
0.0
 10
0.7682834645669292
 20
2.367133858267717
 30
0.0
 10
0.7776732283464567
 20
2.370385826771654
 30
0.0
 10
0.7852283464566929
 20
2.375330708661418
 30
0.0
  0
SPLINE
  5
63
330
1F
100
AcDbEntity
  8
LAYER_1
 62
   250
100
AcDbSpline
210
0.0
220
0.0
230
1.0
 70
    11
 71
     3
 72
    72
 73
    68
 74
     0
 42
0.0000000001
 43
0.0000000001
 40
0.0
 40
0.0
 40
0.0
 40
0.0
 40
0.0588235294117647
 40
0.0588235294117647
 40
0.0588235294117647
 40
0.0588235294117647
 40
0.1176470588235294
 40
0.1176470588235294
 40
0.1176470588235294
 40
0.1176470588235294
 40
0.1764705882352941
 40
0.1764705882352941
 40
0.1764705882352941
 40
0.1764705882352941
 40
0.2352941176470588
 40
0.2352941176470588
 40
0.2352941176470588
 40
0.2352941176470588
 40
0.2941176470588235
 40
0.2941176470588235
 40
0.2941176470588235
 40
0.2941176470588235
 40
0.3529411764705883
 40
0.3529411764705883
 40
0.3529411764705883
 40
0.3529411764705883
 40
0.411764705882353
 40
0.411764705882353
 40
0.411764705882353
 40
0.411764705882353
 40
0.4705882352941177
 40
0.4705882352941177
 40
0.4705882352941177
 40
0.4705882352941177
 40
0.5294117647058824
 40
0.5294117647058824
 40
0.5294117647058824
 40
0.5294117647058824
 40
0.5882352941176471
 40
0.5882352941176471
 40
0.5882352941176471
 40
0.5882352941176471
 40
0.6470588235294118
 40
0.6470588235294118
 40
0.6470588235294118
 40
0.6470588235294118
 40
0.7058823529411765
 40
0.7058823529411765
 40
0.7058823529411765
 40
0.7058823529411765
 40
0.7647058823529412
 40
0.7647058823529412
 40
0.7647058823529412
 40
0.7647058823529412
 40
0.823529411764706
 40
0.823529411764706
 40
0.823529411764706
 40
0.823529411764706
 40
0.8823529411764707
 40
0.8823529411764707
 40
0.8823529411764707
 40
0.8823529411764707
 40
0.9411764705882354
 40
0.9411764705882354
 40
0.9411764705882354
 40
0.9411764705882354
 40
1.0
 40
1.0
 40
1.0
 40
1.0
 10
0.8885905511811024
 20
2.375330708661418
 30
0.0
 10
0.8885905511811024
 20
2.375330708661418
 30
0.0
 10
0.8946732283464567
 20
2.375330708661418
 30
0.0
 10
0.8946732283464567
 20
2.375330708661418
 30
0.0
 10
0.8946732283464567
 20
2.375330708661418
 30
0.0
 10
0.8946732283464567
 20
2.375330708661418
 30
0.0
 10
0.8946732283464567
 20
2.281082677165355
 30
0.0
 10
0.8946732283464567
 20
2.281082677165355
 30
0.0
 10
0.8946732283464567
 20
2.281082677165355
 30
0.0
 10
0.8946732283464567
 20
2.276637795275591
 30
0.0
 10
0.8949803149606299
 20
2.273775590551181
 30
0.0
 10
0.8955354330708661
 20
2.272496062992126
 30
0.0
 10
0.8955354330708661
 20
2.272496062992126
 30
0.0
 10
0.8961181102362205
 20
2.271220472440945
 30
0.0
 10
0.8970354330708662
 20
2.270275590551181
 30
0.0
 10
0.8983385826771654
 20
2.269610236220473
 30
0.0
 10
0.8983385826771654
 20
2.269610236220473
 30
0.0
 10
0.8996456692913386
 20
2.268968503937008
 30
0.0
 10
0.9022283464566929
 20
2.268637795275591
 30
0.0
 10
0.9060905511811024
 20
2.268637795275591
 30
0.0
 10
0.9060905511811024
 20
2.268637795275591
 30
0.0
 10
0.9060905511811024
 20
2.268637795275591
 30
0.0
 10
0.9140629921259843
 20
2.268637795275591
 30
0.0
 10
0.9140629921259843
 20
2.268637795275591
 30
0.0
 10
0.9140629921259843
 20
2.268637795275591
 30
0.0
 10
0.9140629921259843
 20
2.268637795275591
 30
0.0
 10
0.9140629921259843
 20
2.261803149606299
 30
0.0
 10
0.9140629921259843
 20
2.261803149606299
 30
0.0
 10
0.9140629921259843
 20
2.261803149606299
 30
0.0
 10
0.9140629921259843
 20
2.261803149606299
 30
0.0
 10
0.8604251968503938
 20
2.261803149606299
 30
0.0
 10
0.8604251968503938
 20
2.261803149606299
 30
0.0
 10
0.8604251968503938
 20
2.261803149606299
 30
0.0
 10
0.8604251968503938
 20
2.261803149606299
 30
0.0
 10
0.8604251968503938
 20
2.268637795275591
 30
0.0
 10
0.8604251968503938
 20
2.268637795275591
 30
0.0
 10
0.8604251968503938
 20
2.268637795275591
 30
0.0
 10
0.8604251968503938
 20
2.268637795275591
 30
0.0
 10
0.8692834645669292
 20
2.268637795275591
 30
0.0
 10
0.8692834645669292
 20
2.268637795275591
 30
0.0
 10
0.8692834645669292
 20
2.268637795275591
 30
0.0
 10
0.8731456692913386
 20
2.268637795275591
 30
0.0
 10
0.8757007874015749
 20
2.268968503937008
 30
0.0
 10
0.87698031496063
 20
2.269665354330709
 30
0.0
 10
0.87698031496063
 20
2.269665354330709
 30
0.0
 10
0.8782559055118111
 20
2.270330708661418
 30
0.0
 10
0.8792559055118111
 20
2.271413385826772
 30
0.0
 10
0.8799527559055118
 20
2.272913385826772
 30
0.0
 10
0.8799527559055118
 20
2.272913385826772
 30
0.0
 10
0.8806456692913386
 20
2.274413385826772
 30
0.0
 10
0.8810078740157481
 20
2.277137795275591
 30
0.0
 10
0.8810078740157481
 20
2.281082677165355
 30
0.0
 10
0.8810078740157481
 20
2.281082677165355
 30
0.0
 10
0.8810078740157481
 20
2.281082677165355
 30
0.0
 10
0.8810078740157481
 20
2.358551181102362
 30
0.0
 10
0.8810078740157481
 20
2.358551181102362
 30
0.0
 10
0.8810078740157481
 20
2.358551181102362
 30
0.0
 10
0.8810078740157481
 20
2.358551181102362
 30
0.0
 10
0.8604251968503938
 20
2.358551181102362
 30
0.0
 10
0.8604251968503938
 20
2.358551181102362
 30
0.0
 10
0.8604251968503938
 20
2.358551181102362
 30
0.0
 10
0.8604251968503938
 20
2.358551181102362
 30
0.0
 10
0.8604251968503938
 20
2.365551181102362
 30
0.0
 10
0.8604251968503938
 20
2.365551181102362
 30
0.0
 10
0.8604251968503938
 20
2.365551181102362
 30
0.0
 10
0.8716456692913386
 20
2.367133858267717
 30
0.0
 10
0.8810354330708662
 20
2.370385826771654
 30
0.0
 10
0.8885905511811024
 20
2.375330708661418
 30
0.0
  0
SPLINE
  5
64
330
1F
100
AcDbEntity
  8
LAYER_1
 62
   250
100
AcDbSpline
210
0.0
220
0.0
230
1.0
 70
    11
 71
     3
 72
    20
 73
    16
 74
     0
 42
0.0000000001
 43
0.0000000001
 40
0.0
 40
0.0
 40
0.0
 40
0.0
 40
0.25
 40
0.25
 40
0.25
 40
0.25
 40
0.5
 40
0.5
 40
0.5
 40
0.5
 40
0.75
 40
0.75
 40
0.75
 40
0.75
 40
1.0
 40
1.0
 40
1.0
 40
1.0
 10
1.017425196850394
 20
2.381192913385827
 30
0.0
 10
1.017425196850394
 20
2.381192913385827
 30
0.0
 10
0.9618425196850394
 20
2.225496062992126
 30
0.0
 10
0.9618425196850394
 20
2.225496062992126
 30
0.0
 10
0.9618425196850394
 20
2.225496062992126
 30
0.0
 10
0.9618425196850394
 20
2.225496062992126
 30
0.0
 10
0.9497874015748032
 20
2.225496062992126
 30
0.0
 10
0.9497874015748032
 20
2.225496062992126
 30
0.0
 10
0.9497874015748032
 20
2.225496062992126
 30
0.0
 10
0.9497874015748032
 20
2.225496062992126
 30
0.0
 10
1.005035433070866
 20
2.381192913385827
 30
0.0
 10
1.005035433070866
 20
2.381192913385827
 30
0.0
 10
1.005035433070866
 20
2.381192913385827
 30
0.0
 10
1.005035433070866
 20
2.381192913385827
 30
0.0
 10
1.017425196850394
 20
2.381192913385827
 30
0.0
 10
1.017425196850394
 20
2.381192913385827
 30
0.0
  0
SPLINE
  5
65
330
1F
100
AcDbEntity
  8
LAYER_1
 62
   250
100
AcDbSpline
210
0.0
220
0.0
230
1.0
 70
    11
 71
     3
 72
    72
 73
    68
 74
     0
 42
0.0000000001
 43
0.0000000001
 40
0.0
 40
0.0
 40
0.0
 40
0.0
 40
0.0588235294117647
 40
0.0588235294117647
 40
0.0588235294117647
 40
0.0588235294117647
 40
0.1176470588235294
 40
0.1176470588235294
 40
0.1176470588235294
 40
0.1176470588235294
 40
0.1764705882352941
 40
0.1764705882352941
 40
0.1764705882352941
 40
0.1764705882352941
 40
0.2352941176470588
 40
0.2352941176470588
 40
0.2352941176470588
 40
0.2352941176470588
 40
0.2941176470588235
 40
0.2941176470588235
 40
0.2941176470588235
 40
0.2941176470588235
 40
0.3529411764705883
 40
0.3529411764705883
 40
0.3529411764705883
 40
0.3529411764705883
 40
0.411764705882353
 40
0.411764705882353
 40
0.411764705882353
 40
0.411764705882353
 40
0.4705882352941177
 40
0.4705882352941177
 40
0.4705882352941177
 40
0.4705882352941177
 40
0.5294117647058824
 40
0.5294117647058824
 40
0.5294117647058824
 40
0.5294117647058824
 40
0.5882352941176471
 40
0.5882352941176471
 40
0.5882352941176471
 40
0.5882352941176471
 40
0.6470588235294118
 40
0.6470588235294118
 40
0.6470588235294118
 40
0.6470588235294118
 40
0.7058823529411765
 40
0.7058823529411765
 40
0.7058823529411765
 40
0.7058823529411765
 40
0.7647058823529412
 40
0.7647058823529412
 40
0.7647058823529412
 40
0.7647058823529412
 40
0.823529411764706
 40
0.823529411764706
 40
0.823529411764706
 40
0.823529411764706
 40
0.8823529411764707
 40
0.8823529411764707
 40
0.8823529411764707
 40
0.8823529411764707
 40
0.9411764705882354
 40
0.9411764705882354
 40
0.9411764705882354
 40
0.9411764705882354
 40
1.0
 40
1.0
 40
1.0
 40
1.0
 10
1.09198031496063
 20
2.375330708661418
 30
0.0
 10
1.09198031496063
 20
2.375330708661418
 30
0.0
 10
1.098062992125984
 20
2.375330708661418
 30
0.0
 10
1.098062992125984
 20
2.375330708661418
 30
0.0
 10
1.098062992125984
 20
2.375330708661418
 30
0.0
 10
1.098062992125984
 20
2.375330708661418
 30
0.0
 10
1.098062992125984
 20
2.281082677165355
 30
0.0
 10
1.098062992125984
 20
2.281082677165355
 30
0.0
 10
1.098062992125984
 20
2.281082677165355
 30
0.0
 10
1.098062992125984
 20
2.276637795275591
 30
0.0
 10
1.098370078740158
 20
2.273775590551181
 30
0.0
 10
1.098925196850394
 20
2.272496062992126
 30
0.0
 10
1.098925196850394
 20
2.272496062992126
 30
0.0
 10
1.099507874015748
 20
2.271220472440945
 30
0.0
 10
1.100425196850394
 20
2.270275590551181
 30
0.0
 10
1.101728346456693
 20
2.269610236220473
 30
0.0
 10
1.101728346456693
 20
2.269610236220473
 30
0.0
 10
1.103035433070866
 20
2.268968503937008
 30
0.0
 10
1.105618110236221
 20
2.268637795275591
 30
0.0
 10
1.10948031496063
 20
2.268637795275591
 30
0.0
 10
1.10948031496063
 20
2.268637795275591
 30
0.0
 10
1.10948031496063
 20
2.268637795275591
 30
0.0
 10
1.117452755905512
 20
2.268637795275591
 30
0.0
 10
1.117452755905512
 20
2.268637795275591
 30
0.0
 10
1.117452755905512
 20
2.268637795275591
 30
0.0
 10
1.117452755905512
 20
2.268637795275591
 30
0.0
 10
1.117452755905512
 20
2.261803149606299
 30
0.0
 10
1.117452755905512
 20
2.261803149606299
 30
0.0
 10
1.117452755905512
 20
2.261803149606299
 30
0.0
 10
1.117452755905512
 20
2.261803149606299
 30
0.0
 10
1.063814960629921
 20
2.261803149606299
 30
0.0
 10
1.063814960629921
 20
2.261803149606299
 30
0.0
 10
1.063814960629921
 20
2.261803149606299
 30
0.0
 10
1.063814960629921
 20
2.261803149606299
 30
0.0
 10
1.063814960629921
 20
2.268637795275591
 30
0.0
 10
1.063814960629921
 20
2.268637795275591
 30
0.0
 10
1.063814960629921
 20
2.268637795275591
 30
0.0
 10
1.063814960629921
 20
2.268637795275591
 30
0.0
 10
1.072673228346457
 20
2.268637795275591
 30
0.0
 10
1.072673228346457
 20
2.268637795275591
 30
0.0
 10
1.072673228346457
 20
2.268637795275591
 30
0.0
 10
1.076535433070866
 20
2.268637795275591
 30
0.0
 10
1.079090551181102
 20
2.268968503937008
 30
0.0
 10
1.080370078740158
 20
2.269665354330709
 30
0.0
 10
1.080370078740158
 20
2.269665354330709
 30
0.0
 10
1.081645669291339
 20
2.270330708661418
 30
0.0
 10
1.082645669291339
 20
2.271413385826772
 30
0.0
 10
1.08334251968504
 20
2.272913385826772
 30
0.0
 10
1.08334251968504
 20
2.272913385826772
 30
0.0
 10
1.084035433070866
 20
2.274413385826772
 30
0.0
 10
1.084397637795276
 20
2.277137795275591
 30
0.0
 10
1.084397637795276
 20
2.281082677165355
 30
0.0
 10
1.084397637795276
 20
2.281082677165355
 30
0.0
 10
1.084397637795276
 20
2.281082677165355
 30
0.0
 10
1.084397637795276
 20
2.358551181102362
 30
0.0
 10
1.084397637795276
 20
2.358551181102362
 30
0.0
 10
1.084397637795276
 20
2.358551181102362
 30
0.0
 10
1.084397637795276
 20
2.358551181102362
 30
0.0
 10
1.063814960629921
 20
2.358551181102362
 30
0.0
 10
1.063814960629921
 20
2.358551181102362
 30
0.0
 10
1.063814960629921
 20
2.358551181102362
 30
0.0
 10
1.063814960629921
 20
2.358551181102362
 30
0.0
 10
1.063814960629921
 20
2.365551181102362
 30
0.0
 10
1.063814960629921
 20
2.365551181102362
 30
0.0
 10
1.063814960629921
 20
2.365551181102362
 30
0.0
 10
1.075035433070866
 20
2.367133858267717
 30
0.0
 10
1.084425196850394
 20
2.370385826771654
 30
0.0
 10
1.09198031496063
 20
2.375330708661418
 30
0.0
  0
SPLINE
  5
66
330
1F
100
AcDbEntity
  8
LAYER_1
 62
   250
100
AcDbSpline
210
0.0
220
0.0
230
1.0
 70
    11
 71
     3
 72
    84
 73
    80
 74
     0
 42
0.0000000001
 43
0.0000000001
 40
0.0
 40
0.0
 40
0.0
 40
0.0
 40
0.05
 40
0.05
 40
0.05
 40
0.05
 40
0.1
 40
0.1
 40
0.1
 40
0.1
 40
0.15
 40
0.15
 40
0.15
 40
0.15
 40
0.2
 40
0.2
 40
0.2
 40
0.2
 40
0.25
 40
0.25
 40
0.25
 40
0.25
 40
0.3
 40
0.3
 40
0.3
 40
0.3
 40
0.35
 40
0.35
 40
0.35
 40
0.35
 40
0.4
 40
0.4
 40
0.4
 40
0.4
 40
0.45
 40
0.45
 40
0.45
 40
0.45
 40
0.4999999999999999
 40
0.4999999999999999
 40
0.4999999999999999
 40
0.4999999999999999
 40
0.5499999999999999
 40
0.5499999999999999
 40
0.5499999999999999
 40
0.5499999999999999
 40
0.6
 40
0.6
 40
0.6
 40
0.6
 40
0.65
 40
0.65
 40
0.65
 40
0.65
 40
0.7000000000000001
 40
0.7000000000000001
 40
0.7000000000000001
 40
0.7000000000000001
 40
0.7500000000000001
 40
0.7500000000000001
 40
0.7500000000000001
 40
0.7500000000000001
 40
0.8000000000000002
 40
0.8000000000000002
 40
0.8000000000000002
 40
0.8000000000000002
 40
0.8500000000000002
 40
0.8500000000000002
 40
0.8500000000000002
 40
0.8500000000000002
 40
0.9000000000000002
 40
0.9000000000000002
 40
0.9000000000000002
 40
0.9000000000000002
 40
0.9500000000000003
 40
0.9500000000000003
 40
0.9500000000000003
 40
0.9500000000000003
 40
1.0
 40
1.0
 40
1.0
 40
1.0
 10
1.223645669291339
 20
2.37744094488189
 30
0.0
 10
1.223645669291339
 20
2.37744094488189
 30
0.0
 10
1.223645669291339
 20
2.370023622047244
 30
0.0
 10
1.223645669291339
 20
2.370023622047244
 30
0.0
 10
1.223645669291339
 20
2.370023622047244
 30
0.0
 10
1.210259842519685
 20
2.369885826771654
 30
0.0
 10
1.199425196850394
 20
2.367913385826772
 30
0.0
 10
1.191149606299213
 20
2.364192913385827
 30
0.0
 10
1.191149606299213
 20
2.364192913385827
 30
0.0
 10
1.182870078740158
 20
2.36044094488189
 30
0.0
 10
1.176787401574803
 20
2.354830708661417
 30
0.0
 10
1.172870078740158
 20
2.347385826771653
 30
0.0
 10
1.172870078740158
 20
2.347385826771653
 30
0.0
 10
1.168952755905512
 20
2.339913385826772
 30
0.0
 10
1.166759842519685
 20
2.330720472440945
 30
0.0
 10
1.166287401574803
 20
2.319830708661418
 30
0.0
 10
1.166287401574803
 20
2.319830708661418
 30
0.0
 10
1.169035433070866
 20
2.324051181102362
 30
0.0
 10
1.171870078740158
 20
2.327358267716535
 30
0.0
 10
1.174787401574803
 20
2.329720472440945
 30
0.0
 10
1.174787401574803
 20
2.329720472440945
 30
0.0
 10
1.177677165354331
 20
2.33207874015748
 30
0.0
 10
1.181062992125984
 20
2.333885826771654
 30
0.0
 10
1.184952755905512
 20
2.335165354330709
 30
0.0
 10
1.184952755905512
 20
2.335165354330709
 30
0.0
 10
1.188842519685039
 20
2.33644094488189
 30
0.0
 10
1.193090551181102
 20
2.33707874015748
 30
0.0
 10
1.197704724409449
 20
2.33707874015748
 30
0.0
 10
1.197704724409449
 20
2.33707874015748
 30
0.0
 10
1.205062992125984
 20
2.33707874015748
 30
0.0
 10
1.211645669291339
 20
2.33544094488189
 30
0.0
 10
1.217397637795276
 20
2.332192913385827
 30
0.0
 10
1.217397637795276
 20
2.332192913385827
 30
0.0
 10
1.223145669291339
 20
2.32894094488189
 30
0.0
 10
1.227618110236221
 20
2.324523622047244
 30
0.0
 10
1.230814960629921
 20
2.318968503937008
 30
0.0
 10
1.230814960629921
 20
2.318968503937008
 30
0.0
 10
1.234007874015748
 20
2.313413385826772
 30
0.0
 10
1.235618110236221
 20
2.306858267716536
 30
0.0
 10
1.235618110236221
 20
2.299330708661417
 30
0.0
 10
1.235618110236221
 20
2.299330708661417
 30
0.0
 10
1.235618110236221
 20
2.287330708661417
 30
0.0
 10
1.232007874015748
 20
2.277913385826772
 30
0.0
 10
1.224787401574803
 20
2.271082677165354
 30
0.0
 10
1.224787401574803
 20
2.271082677165354
 30
0.0
 10
1.216814960629921
 20
2.263582677165354
 30
0.0
 10
1.20648031496063
 20
2.259858267716536
 30
0.0
 10
1.193787401574803
 20
2.259858267716536
 30
0.0
 10
1.193787401574803
 20
2.259858267716536
 30
0.0
 10
1.184618110236221
 20
2.259858267716536
 30
0.0
 10
1.176897637795276
 20
2.261748031496063
 30
0.0
 10
1.170590551181102
 20
2.265551181102362
 30
0.0
 10
1.170590551181102
 20
2.265551181102362
 30
0.0
 10
1.164287401574803
 20
2.269330708661418
 30
0.0
 10
1.159287401574803
 20
2.275137795275591
 30
0.0
 10
1.155562992125984
 20
2.282968503937008
 30
0.0
 10
1.155562992125984
 20
2.282968503937008
 30
0.0
 10
1.151870078740158
 20
2.290775590551181
 30
0.0
 10
1.150007874015748
 20
2.30044094488189
 30
0.0
 10
1.150007874015748
 20
2.31194094488189
 30
0.0
 10
1.150007874015748
 20
2.31194094488189
 30
0.0
 10
1.150007874015748
 20
2.323496062992126
 30
0.0
 10
1.15198031496063
 20
2.333748031496063
 30
0.0
 10
1.155897637795276
 20
2.342692913385827
 30
0.0
 10
1.155897637795276
 20
2.342692913385827
 30
0.0
 10
1.15984251968504
 20
2.351633858267717
 30
0.0
 10
1.165287401574803
 20
2.358830708661417
 30
0.0
 10
1.172232283464567
 20
2.364248031496063
 30
0.0
 10
1.172232283464567
 20
2.364248031496063
 30
0.0
 10
1.179177165354331
 20
2.369692913385827
 30
0.0
 10
1.186787401574803
 20
2.373248031496063
 30
0.0
 10
1.195035433070866
 20
2.374913385826772
 30
0.0
 10
1.195035433070866
 20
2.374913385826772
 30
0.0
 10
1.203314960629921
 20
2.376606299212599
 30
0.0
 10
1.210732283464567
 20
2.37744094488189
 30
0.0
 10
1.217314960629921
 20
2.37744094488189
 30
0.0
 10
1.217314960629921
 20
2.37744094488189
 30
0.0
 10
1.217314960629921
 20
2.37744094488189
 30
0.0
 10
1.223645669291339
 20
2.37744094488189
 30
0.0
 10
1.223645669291339
 20
2.37744094488189
 30
0.0
  0
SPLINE
  5
67
330
1F
100
AcDbEntity
  8
LAYER_1
 62
   250
100
AcDbSpline
210
0.0
220
0.0
230
1.0
 70
    11
 71
     3
 72
    40
 73
    36
 74
     0
 42
0.0000000001
 43
0.0000000001
 40
0.0
 40
0.0
 40
0.0
 40
0.0
 40
0.1111111111111111
 40
0.1111111111111111
 40
0.1111111111111111
 40
0.1111111111111111
 40
0.2222222222222222
 40
0.2222222222222222
 40
0.2222222222222222
 40
0.2222222222222222
 40
0.3333333333333333
 40
0.3333333333333333
 40
0.3333333333333333
 40
0.3333333333333333
 40
0.4444444444444444
 40
0.4444444444444444
 40
0.4444444444444444
 40
0.4444444444444444
 40
0.5555555555555556
 40
0.5555555555555556
 40
0.5555555555555556
 40
0.5555555555555556
 40
0.6666666666666667
 40
0.6666666666666667
 40
0.6666666666666667
 40
0.6666666666666667
 40
0.7777777777777779
 40
0.7777777777777779
 40
0.7777777777777779
 40
0.7777777777777779
 40
0.8888888888888891
 40
0.8888888888888891
 40
0.8888888888888891
 40
0.8888888888888891
 40
1.0
 40
1.0
 40
1.0
 40
1.0
 10
1.193952755905512
 20
2.32844094488189
 30
0.0
 10
1.186149606299213
 20
2.32844094488189
 30
0.0
 10
1.179732283464567
 20
2.325496062992126
 30
0.0
 10
1.174704724409449
 20
2.319578740157481
 30
0.0
 10
1.174704724409449
 20
2.319578740157481
 30
0.0
 10
1.169677165354331
 20
2.313665354330709
 30
0.0
 10
1.167177165354331
 20
2.306551181102362
 30
0.0
 10
1.167177165354331
 20
2.298275590551181
 30
0.0
 10
1.167177165354331
 20
2.298275590551181
 30
0.0
 10
1.167177165354331
 20
2.292413385826772
 30
0.0
 10
1.168397637795276
 20
2.286996062992126
 30
0.0
 10
1.170842519685039
 20
2.282023622047244
 30
0.0
 10
1.170842519685039
 20
2.282023622047244
 30
0.0
 10
1.173287401574803
 20
2.277051181102362
 30
0.0
 10
1.176425196850394
 20
2.273385826771654
 30
0.0
 10
1.180287401574803
 20
2.270968503937008
 30
0.0
 10
1.180287401574803
 20
2.270968503937008
 30
0.0
 10
1.184118110236221
 20
2.268551181102362
 30
0.0
 10
1.18848031496063
 20
2.267330708661417
 30
0.0
 10
1.193287401574803
 20
2.267330708661417
 30
0.0
 10
1.193287401574803
 20
2.267330708661417
 30
0.0
 10
1.200787401574803
 20
2.267330708661417
 30
0.0
 10
1.207007874015748
 20
2.270165354330709
 30
0.0
 10
1.21198031496063
 20
2.275830708661418
 30
0.0
 10
1.21198031496063
 20
2.275830708661418
 30
0.0
 10
1.216925196850394
 20
2.281496062992126
 30
0.0
 10
1.219425196850394
 20
2.289110236220473
 30
0.0
 10
1.219425196850394
 20
2.298665354330709
 30
0.0
 10
1.219425196850394
 20
2.298665354330709
 30
0.0
 10
1.219425196850394
 20
2.307775590551181
 30
0.0
 10
1.217007874015748
 20
2.315023622047244
 30
0.0
 10
1.212177165354331
 20
2.320385826771654
 30
0.0
 10
1.212177165354331
 20
2.320385826771654
 30
0.0
 10
1.207342519685039
 20
2.325775590551181
 30
0.0
 10
1.201259842519685
 20
2.32844094488189
 30
0.0
 10
1.193952755905512
 20
2.32844094488189
 30
0.0
  0
SPLINE
  5
68
330
1F
100
AcDbEntity
  8
LAYER_1
 62
   250
100
AcDbSpline
210
0.0
220
0.0
230
1.0
 70
    11
 71
     3
 72
    60
 73
    56
 74
     0
 42
0.0000000001
 43
0.0000000001
 40
0.0
 40
0.0
 40
0.0
 40
0.0
 40
0.0714285714285714
 40
0.0714285714285714
 40
0.0714285714285714
 40
0.0714285714285714
 40
0.1428571428571429
 40
0.1428571428571429
 40
0.1428571428571429
 40
0.1428571428571429
 40
0.2142857142857143
 40
0.2142857142857143
 40
0.2142857142857143
 40
0.2142857142857143
 40
0.2857142857142857
 40
0.2857142857142857
 40
0.2857142857142857
 40
0.2857142857142857
 40
0.3571428571428571
 40
0.3571428571428571
 40
0.3571428571428571
 40
0.3571428571428571
 40
0.4285714285714285
 40
0.4285714285714285
 40
0.4285714285714285
 40
0.4285714285714285
 40
0.4999999999999999
 40
0.4999999999999999
 40
0.4999999999999999
 40
0.4999999999999999
 40
0.5714285714285713
 40
0.5714285714285713
 40
0.5714285714285713
 40
0.5714285714285713
 40
0.6428571428571427
 40
0.6428571428571427
 40
0.6428571428571427
 40
0.6428571428571427
 40
0.7142857142857141
 40
0.7142857142857141
 40
0.7142857142857141
 40
0.7142857142857141
 40
0.7857142857142855
 40
0.7857142857142855
 40
0.7857142857142855
 40
0.7857142857142855
 40
0.8571428571428569
 40
0.8571428571428569
 40
0.8571428571428569
 40
0.8571428571428569
 40
0.9285714285714283
 40
0.9285714285714283
 40
0.9285714285714283
 40
0.9285714285714283
 40
1.0
 40
1.0
 40
1.0
 40
1.0
 10
1.252787401574803
 20
2.333248031496063
 30
0.0
 10
1.252787401574803
 20
2.333248031496063
 30
0.0
 10
1.248397637795276
 20
2.338637795275591
 30
0.0
 10
1.248397637795276
 20
2.338637795275591
 30
0.0
 10
1.248397637795276
 20
2.338637795275591
 30
0.0
 10
1.259511811023622
 20
2.347692913385827
 30
0.0
 10
1.265094488188977
 20
2.355248031496063
 30
0.0
 10
1.265094488188977
 20
2.361330708661417
 30
0.0
 10
1.265094488188977
 20
2.361330708661417
 30
0.0
 10
1.265094488188977
 20
2.362023622047244
 30
0.0
 10
1.26503937007874
 20
2.362913385826772
 30
0.0
 10
1.264925196850394
 20
2.36394094488189
 30
0.0
 10
1.264925196850394
 20
2.36394094488189
 30
0.0
 10
1.264011811023622
 20
2.363551181102362
 30
0.0
 10
1.263094488188977
 20
2.363248031496063
 30
0.0
 10
1.262232283464567
 20
2.363051181102363
 30
0.0
 10
1.262232283464567
 20
2.363051181102363
 30
0.0
 10
1.261370078740158
 20
2.362830708661417
 30
0.0
 10
1.260566929133858
 20
2.362720472440945
 30
0.0
 10
1.259787401574803
 20
2.362720472440945
 30
0.0
 10
1.259787401574803
 20
2.362720472440945
 30
0.0
 10
1.257177165354331
 20
2.362720472440945
 30
0.0
 10
1.255094488188977
 20
2.363551181102362
 30
0.0
 10
1.25353937007874
 20
2.365248031496063
 30
0.0
 10
1.25353937007874
 20
2.365248031496063
 30
0.0
 10
1.251952755905512
 20
2.366913385826772
 30
0.0
 10
1.251177165354331
 20
2.369051181102362
 30
0.0
 10
1.251177165354331
 20
2.371665354330709
 30
0.0
 10
1.251177165354331
 20
2.371665354330709
 30
0.0
 10
1.251177165354331
 20
2.374220472440945
 30
0.0
 10
1.252122047244095
 20
2.37644094488189
 30
0.0
 10
1.254011811023622
 20
2.378330708661418
 30
0.0
 10
1.254011811023622
 20
2.378330708661418
 30
0.0
 10
1.255925196850394
 20
2.380248031496063
 30
0.0
 10
1.258204724409449
 20
2.381192913385827
 30
0.0
 10
1.26084251968504
 20
2.381192913385827
 30
0.0
 10
1.26084251968504
 20
2.381192913385827
 30
0.0
 10
1.26453937007874
 20
2.381192913385827
 30
0.0
 10
1.267704724409449
 20
2.379720472440945
 30
0.0
 10
1.27034251968504
 20
2.376748031496063
 30
0.0
 10
1.27034251968504
 20
2.376748031496063
 30
0.0
 10
1.272952755905512
 20
2.3738031496063
 30
0.0
 10
1.274287401574803
 20
2.369996062992126
 30
0.0
 10
1.274287401574803
 20
2.365330708661417
 30
0.0
 10
1.274287401574803
 20
2.365330708661417
 30
0.0
 10
1.274287401574803
 20
2.362275590551181
 30
0.0
 10
1.273649606299213
 20
2.35907874015748
 30
0.0
 10
1.272397637795276
 20
2.355748031496063
 30
0.0
 10
1.272397637795276
 20
2.355748031496063
 30
0.0
 10
1.271149606299213
 20
2.352413385826772
 30
0.0
 10
1.269342519685039
 20
2.349330708661417
 30
0.0
 10
1.266952755905512
 20
2.346468503937008
 30
0.0
 10
1.266952755905512
 20
2.346468503937008
 30
0.0
 10
1.264566929133858
 20
2.343637795275591
 30
0.0
 10
1.259842519685039
 20
2.339220472440945
 30
0.0
 10
1.252787401574803
 20
2.333248031496063
 30
0.0
  0
SPLINE
  5
69
330
1F
100
AcDbEntity
  8
LAYER_1
 62
   250
100
AcDbSpline
210
0.0
220
0.0
230
1.0
 70
    11
 71
     3
 72
    60
 73
    56
 74
     0
 42
0.0000000001
 43
0.0000000001
 40
0.0
 40
0.0
 40
0.0
 40
0.0
 40
0.0714285714285714
 40
0.0714285714285714
 40
0.0714285714285714
 40
0.0714285714285714
 40
0.1428571428571429
 40
0.1428571428571429
 40
0.1428571428571429
 40
0.1428571428571429
 40
0.2142857142857143
 40
0.2142857142857143
 40
0.2142857142857143
 40
0.2142857142857143
 40
0.2857142857142857
 40
0.2857142857142857
 40
0.2857142857142857
 40
0.2857142857142857
 40
0.3571428571428571
 40
0.3571428571428571
 40
0.3571428571428571
 40
0.3571428571428571
 40
0.4285714285714285
 40
0.4285714285714285
 40
0.4285714285714285
 40
0.4285714285714285
 40
0.4999999999999999
 40
0.4999999999999999
 40
0.4999999999999999
 40
0.4999999999999999
 40
0.5714285714285713
 40
0.5714285714285713
 40
0.5714285714285713
 40
0.5714285714285713
 40
0.6428571428571427
 40
0.6428571428571427
 40
0.6428571428571427
 40
0.6428571428571427
 40
0.7142857142857141
 40
0.7142857142857141
 40
0.7142857142857141
 40
0.7142857142857141
 40
0.7857142857142855
 40
0.7857142857142855
 40
0.7857142857142855
 40
0.7857142857142855
 40
0.8571428571428569
 40
0.8571428571428569
 40
0.8571428571428569
 40
0.8571428571428569
 40
0.9285714285714283
 40
0.9285714285714283
 40
0.9285714285714283
 40
0.9285714285714283
 40
1.0
 40
1.0
 40
1.0
 40
1.0
 10
1.281842519685039
 20
2.333248031496063
 30
0.0
 10
1.281842519685039
 20
2.333248031496063
 30
0.0
 10
1.277452755905512
 20
2.338637795275591
 30
0.0
 10
1.277452755905512
 20
2.338637795275591
 30
0.0
 10
1.277452755905512
 20
2.338637795275591
 30
0.0
 10
1.288566929133858
 20
2.347692913385827
 30
0.0
 10
1.294149606299213
 20
2.355248031496063
 30
0.0
 10
1.294149606299213
 20
2.361330708661417
 30
0.0
 10
1.294149606299213
 20
2.361330708661417
 30
0.0
 10
1.294149606299213
 20
2.362023622047244
 30
0.0
 10
1.294094488188976
 20
2.362913385826772
 30
0.0
 10
1.29398031496063
 20
2.36394094488189
 30
0.0
 10
1.29398031496063
 20
2.36394094488189
 30
0.0
 10
1.293066929133858
 20
2.363551181102362
 30
0.0
 10
1.292149606299213
 20
2.363248031496063
 30
0.0
 10
1.291287401574803
 20
2.363051181102363
 30
0.0
 10
1.291287401574803
 20
2.363051181102363
 30
0.0
 10
1.290425196850394
 20
2.362830708661417
 30
0.0
 10
1.289594488188977
 20
2.362720472440945
 30
0.0
 10
1.288759842519685
 20
2.362720472440945
 30
0.0
 10
1.288759842519685
 20
2.362720472440945
 30
0.0
 10
1.286204724409449
 20
2.362720472440945
 30
0.0
 10
1.284149606299213
 20
2.363551181102362
 30
0.0
 10
1.282594488188976
 20
2.365248031496063
 30
0.0
 10
1.282594488188976
 20
2.365248031496063
 30
0.0
 10
1.281011811023622
 20
2.366913385826772
 30
0.0
 10
1.280232283464567
 20
2.369051181102362
 30
0.0
 10
1.280232283464567
 20
2.371665354330709
 30
0.0
 10
1.280232283464567
 20
2.371665354330709
 30
0.0
 10
1.280232283464567
 20
2.374220472440945
 30
0.0
 10
1.281177165354331
 20
2.37644094488189
 30
0.0
 10
1.283066929133858
 20
2.378330708661418
 30
0.0
 10
1.283066929133858
 20
2.378330708661418
 30
0.0
 10
1.284952755905512
 20
2.380248031496063
 30
0.0
 10
1.287259842519685
 20
2.381192913385827
 30
0.0
 10
1.289897637795276
 20
2.381192913385827
 30
0.0
 10
1.289897637795276
 20
2.381192913385827
 30
0.0
 10
1.293594488188977
 20
2.381192913385827
 30
0.0
 10
1.296759842519685
 20
2.379720472440945
 30
0.0
 10
1.299397637795276
 20
2.376748031496063
 30
0.0
 10
1.299397637795276
 20
2.376748031496063
 30
0.0
 10
1.302007874015748
 20
2.3738031496063
 30
0.0
 10
1.303342519685039
 20
2.369996062992126
 30
0.0
 10
1.303342519685039
 20
2.365330708661417
 30
0.0
 10
1.303342519685039
 20
2.365330708661417
 30
0.0
 10
1.303342519685039
 20
2.362275590551181
 30
0.0
 10
1.302704724409449
 20
2.35907874015748
 30
0.0
 10
1.301452755905512
 20
2.355748031496063
 30
0.0
 10
1.301452755905512
 20
2.355748031496063
 30
0.0
 10
1.300204724409449
 20
2.352413385826772
 30
0.0
 10
1.298397637795276
 20
2.349330708661417
 30
0.0
 10
1.296011811023622
 20
2.346468503937008
 30
0.0
 10
1.296011811023622
 20
2.346468503937008
 30
0.0
 10
1.293622047244095
 20
2.343637795275591
 30
0.0
 10
1.288897637795276
 20
2.339220472440945
 30
0.0
 10
1.281842519685039
 20
2.333248031496063
 30
0.0
  0
ENDSEC
  0
SECTION
  2
OBJECTS
  0
DICTIONARY
  5
C
330
0
100
AcDbDictionary
  3
ACAD_GROUP
350
D
  3
ACAD_LAYOUT
350
1A
  3
ACAD_MLINESTYLE
350
17
  3
ACAD_PLOTSETTINGS
350
19
  3
ACDBHEADERROUNDTRIPXREC
350
6A
  0
DICTIONARY
  5
8A
330
29
100
AcDbDictionary
280
     1
  3
ACAD_XREC_ROUNDTRIP
360
8B
  0
DICTIONARY
  5
D
102
{ACAD_REACTORS
330
C
102
}
330
C
100
AcDbDictionary
  0
DICTIONARY
  5
1A
102
{ACAD_REACTORS
330
C
102
}
330
C
100
AcDbDictionary
  0
DICTIONARY
  5
17
102
{ACAD_REACTORS
330
C
102
}
330
C
100
AcDbDictionary
  3
STANDARD
350
18
  0
DICTIONARY
  5
19
102
{ACAD_REACTORS
330
C
102
}
330
C
100
AcDbDictionary
  0
DICTIONARY
  5
6A
102
{ACAD_REACTORS
330
C
102
}
330
C
100
AcDbDictionary
  3
CEPSNTYPE
350
73
  3
DIMSTYLEDATA
350
89
  3
FINGERPRINTGUID
350
74
  3
HYPERLINKBASE
350
6D
  3
INSUNITS
350
72
  3
LAYOUTDICT
350
6F
  3
LWETCUNION
350
71
  3
PLOTSETDICT
350
70
  3
PSVPSCALE
350
76
  3
PUCSBASE
350
79
  3
PUCSORGBACK
350
7F
  3
PUCSORGBOTTOM
350
7B
  3
PUCSORGFRONT
350
7E
  3
PUCSORGLEFT
350
7C
  3
PUCSORGRIGHT
350
7D
  3
PUCSORGTOP
350
7A
  3
PUCSORTHOREF
350
77
  3
PUCSORTHOVIEW
350
78
  3
STYLESHEET
350
6E
  3
TSTACKALIGN
350
6B
  3
TSTACKSIZE
350
6C
  3
UCSBASE
350
82
  3
UCSORGBACK
350
88
  3
UCSORGBOTTOM
350
84
  3
UCSORGFRONT
350
87
  3
UCSORGLEFT
350
85
  3
UCSORGRIGHT
350
86
  3
UCSORGTOP
350
83
  3
UCSORTHOREF
350
80
  3
UCSORTHOVIEW
350
81
  3
VERSIONGUID
350
75
  0
XRECORD
  5
8B
102
{ACAD_REACTORS
330
8A
102
}
330
8A
100
AcDbXrecord
102
UCS
 74
     0
 71
     1
 10
0.0
 20
0.0
 30
0.0
 10
1.0
 20
0.0
 30
0.0
 10
0.0
 20
1.0
 30
0.0
146
0.0
 79
     0
102
VIEW
281
     0
  0
MLINESTYLE
  5
18
102
{ACAD_REACTORS
330
17
102
}
330
17
100
AcDbMlineStyle
  2
Standard
 70
     0
  3

 62
   256
 51
90.0
 52
90.0
 71
     2
 49
0.5
 62
   256
  6
BYLAYER
 49
-0.5
 62
   256
  6
BYLAYER
  0
XRECORD
  5
73
102
{ACAD_REACTORS
330
6A
102
}
330
6A
100
AcDbXrecord
 90
        0
  0
XRECORD
  5
89
102
{ACAD_REACTORS
330
6A
102
}
330
6A
100
AcDbXrecord
1000
DSTYLE
1002
{
1070
   340
340
11
1002
}
  0
XRECORD
  5
74
102
{ACAD_REACTORS
330
6A
102
}
330
6A
100
AcDbXrecord
  1
{FAEB1C30-E019-11D5-929B-00C0DF256EC4}
  0
XRECORD
  5
6D
102
{ACAD_REACTORS
330
6A
102
}
330
6A
100
AcDbXrecord
  1

  0
XRECORD
  5
72
102
{ACAD_REACTORS
330
6A
102
}
330
6A
100
AcDbXrecord
 90
        1
  0
XRECORD
  5
6F
102
{ACAD_REACTORS
330
6A
102
}
330
6A
100
AcDbXrecord
340
1A
  0
XRECORD
  5
71
102
{ACAD_REACTORS
330
6A
102
}
330
6A
100
AcDbXrecord
 90
     2560
  0
XRECORD
  5
70
102
{ACAD_REACTORS
330
6A
102
}
330
6A
100
AcDbXrecord
340
19
  0
XRECORD
  5
76
102
{ACAD_REACTORS
330
6A
102
}
330
6A
100
AcDbXrecord
 40
0.0
  0
XRECORD
  5
79
102
{ACAD_REACTORS
330
6A
102
}
330
6A
100
AcDbXrecord
340
0
  0
XRECORD
  5
7F
102
{ACAD_REACTORS
330
6A
102
}
330
6A
100
AcDbXrecord
 10
0.0
 20
0.0
 30
0.0
  0
XRECORD
  5
7B
102
{ACAD_REACTORS
330
6A
102
}
330
6A
100
AcDbXrecord
 10
0.0
 20
0.0
 30
0.0
  0
XRECORD
  5
7E
102
{ACAD_REACTORS
330
6A
102
}
330
6A
100
AcDbXrecord
 10
0.0
 20
0.0
 30
0.0
  0
XRECORD
  5
7C
102
{ACAD_REACTORS
330
6A
102
}
330
6A
100
AcDbXrecord
 10
0.0
 20
0.0
 30
0.0
  0
XRECORD
  5
7D
102
{ACAD_REACTORS
330
6A
102
}
330
6A
100
AcDbXrecord
 10
0.0
 20
0.0
 30
0.0
  0
XRECORD
  5
7A
102
{ACAD_REACTORS
330
6A
102
}
330
6A
100
AcDbXrecord
 10
0.0
 20
0.0
 30
0.0
  0
XRECORD
  5
77
102
{ACAD_REACTORS
330
6A
102
}
330
6A
100
AcDbXrecord
340
0
  0
XRECORD
  5
78
102
{ACAD_REACTORS
330
6A
102
}
330
6A
100
AcDbXrecord
 70
     0
  0
XRECORD
  5
6E
102
{ACAD_REACTORS
330
6A
102
}
330
6A
100
AcDbXrecord
  1

  0
XRECORD
  5
6B
102
{ACAD_REACTORS
330
6A
102
}
330
6A
100
AcDbXrecord
 90
        1
  0
XRECORD
  5
6C
102
{ACAD_REACTORS
330
6A
102
}
330
6A
100
AcDbXrecord
 90
       70
  0
XRECORD
  5
82
102
{ACAD_REACTORS
330
6A
102
}
330
6A
100
AcDbXrecord
340
0
  0
XRECORD
  5
88
102
{ACAD_REACTORS
330
6A
102
}
330
6A
100
AcDbXrecord
 10
0.0
 20
0.0
 30
0.0
  0
XRECORD
  5
84
102
{ACAD_REACTORS
330
6A
102
}
330
6A
100
AcDbXrecord
 10
0.0
 20
0.0
 30
0.0
  0
XRECORD
  5
87
102
{ACAD_REACTORS
330
6A
102
}
330
6A
100
AcDbXrecord
 10
0.0
 20
0.0
 30
0.0
  0
XRECORD
  5
85
102
{ACAD_REACTORS
330
6A
102
}
330
6A
100
AcDbXrecord
 10
0.0
 20
0.0
 30
0.0
  0
XRECORD
  5
86
102
{ACAD_REACTORS
330
6A
102
}
330
6A
100
AcDbXrecord
 10
0.0
 20
0.0
 30
0.0
  0
XRECORD
  5
83
102
{ACAD_REACTORS
330
6A
102
}
330
6A
100
AcDbXrecord
 10
0.0
 20
0.0
 30
0.0
  0
XRECORD
  5
80
102
{ACAD_REACTORS
330
6A
102
}
330
6A
100
AcDbXrecord
340
0
  0
XRECORD
  5
81
102
{ACAD_REACTORS
330
6A
102
}
330
6A
100
AcDbXrecord
 70
     0
  0
XRECORD
  5
75
102
{ACAD_REACTORS
330
6A
102
}
330
6A
100
AcDbXrecord
  1
{FAEB1C32-E019-11D5-929B-00C0DF256EC4}
  0
ENDSEC
  0
EOF
