  0
SECTION
  2
HEADER
  9
$ACADVER
  1
AC1018
  9
$ACADMAINTVER
 70
     0
  9
$DWGCODEPAGE
  3
ANSI_1252
  9
$INSBASE
 10
0.0
 20
0.0
 30
0.0
  9
$EXTMIN
 10
-2.293106299212599
 20
0.2911614173228346
 30
0.0
  9
$EXTMAX
 10
2.258283464566929
 20
1.756787401574803
 30
0.0
  9
$LIMMIN
 10
0.0
 20
0.0
  9
$LIMMAX
 10
12.0
 20
9.0
  9
$ORTHOMODE
 70
     0
  9
$REGENMODE
 70
     1
  9
$FILLMODE
 70
     1
  9
$QTEXTMODE
 70
     0
  9
$MIRRTEXT
 70
     1
  9
$LTSCALE
 40
1.0
  9
$ATTMODE
 70
     1
  9
$TEXTSIZE
 40
0.2
  9
$TRACEWID
 40
0.05
  9
$TEXTSTYLE
  7
Standard
  9
$CLAYER
  8
0
  9
$CELTYPE
  6
ByLayer
  9
$CECOLOR
 62
   256
  9
$CELTSCALE
 40
1.0
  9
$DISPSILH
 70
     0
  9
$DIMSCALE
 40
1.0
  9
$DIMASZ
 40
0.18
  9
$DIMEXO
 40
0.0625
  9
$DIMDLI
 40
0.38
  9
$DIMRND
 40
0.0
  9
$DIMDLE
 40
0.0
  9
$DIMEXE
 40
0.18
  9
$DIMTP
 40
0.0
  9
$DIMTM
 40
0.0
  9
$DIMTXT
 40
0.18
  9
$DIMCEN
 40
0.09
  9
$DIMTSZ
 40
0.0
  9
$DIMTOL
 70
     0
  9
$DIMLIM
 70
     0
  9
$DIMTIH
 70
     1
  9
$DIMTOH
 70
     1
  9
$DIMSE1
 70
     0
  9
$DIMSE2
 70
     0
  9
$DIMTAD
 70
     0
  9
$DIMZIN
 70
     0
  9
$DIMBLK
  1

  9
$DIMASO
 70
     1
  9
$DIMSHO
 70
     1
  9
$DIMPOST
  1

  9
$DIMAPOST
  1

  9
$DIMALT
 70
     0
  9
$DIMALTD
 70
     2
  9
$DIMALTF
 40
25.4
  9
$DIMLFAC
 40
1.0
  9
$DIMTOFL
 70
     0
  9
$DIMTVP
 40
0.0
  9
$DIMTIX
 70
     0
  9
$DIMSOXD
 70
     0
  9
$DIMSAH
 70
     0
  9
$DIMBLK1
  1

  9
$DIMBLK2
  1

  9
$DIMSTYLE
  2
Standard
  9
$DIMCLRD
 70
     0
  9
$DIMCLRE
 70
     0
  9
$DIMCLRT
 70
     0
  9
$DIMTFAC
 40
1.0
  9
$DIMGAP
 40
0.09
  9
$DIMJUST
 70
     0
  9
$DIMSD1
 70
     0
  9
$DIMSD2
 70
     0
  9
$DIMTOLJ
 70
     1
  9
$DIMTZIN
 70
     0
  9
$DIMALTZ
 70
     0
  9
$DIMALTTZ
 70
     0
  9
$DIMUPT
 70
     0
  9
$DIMDEC
 70
     4
  9
$DIMTDEC
 70
     4
  9
$DIMALTU
 70
     2
  9
$DIMALTTD
 70
     2
  9
$DIMTXSTY
  7
Standard
  9
$DIMAUNIT
 70
     0
  9
$DIMADEC
 70
     0
  9
$DIMALTRND
 40
0.0
  9
$DIMAZIN
 70
     0
  9
$DIMDSEP
 70
    46
  9
$DIMATFIT
 70
     3
  9
$DIMFRAC
 70
     0
  9
$DIMLDRBLK
  1

  9
$DIMLUNIT
 70
     2
  9
$DIMLWD
 70
    -2
  9
$DIMLWE
 70
    -2
  9
$DIMTMOVE
 70
     0
  9
$LUNITS
 70
     2
  9
$LUPREC
 70
     4
  9
$SKETCHINC
 40
0.1
  9
$FILLETRAD
 40
0.5
  9
$AUNITS
 70
     0
  9
$AUPREC
 70
     0
  9
$MENU
  1
.
  9
$ELEVATION
 40
0.0
  9
$PELEVATION
 40
0.0
  9
$THICKNESS
 40
0.0
  9
$LIMCHECK
 70
     0
  9
$CHAMFERA
 40
0.5
  9
$CHAMFERB
 40
0.5
  9
$CHAMFERC
 40
1.0
  9
$CHAMFERD
 40
0.0
  9
$SKPOLY
 70
     0
  9
$TDCREATE
 40
2453769.646019965
  9
$TDUCREATE
 40
2453769.854353298
  9
$TDUPDATE
 40
2453769.646019977
  9
$TDUUPDATE
 40
2453769.85435331
  9
$TDINDWG
 40
0.0000000116
  9
$TDUSRTIMER
 40
0.0000000116
  9
$USRTIMER
 70
     1
  9
$ANGBASE
 50
0.0
  9
$ANGDIR
 70
     0
  9
$PDMODE
 70
     0
  9
$PDSIZE
 40
0.0
  9
$PLINEWID
 40
0.0
  9
$SPLFRAME
 70
     0
  9
$SPLINETYPE
 70
     6
  9
$SPLINESEGS
 70
     8
  9
$HANDSEED
  5
59
  9
$SURFTAB1
 70
     6
  9
$SURFTAB2
 70
     6
  9
$SURFTYPE
 70
     6
  9
$SURFU
 70
     6
  9
$SURFV
 70
     6
  9
$UCSBASE
  2

  9
$UCSNAME
  2

  9
$UCSORG
 10
0.0
 20
0.0
 30
0.0
  9
$UCSXDIR
 10
1.0
 20
0.0
 30
0.0
  9
$UCSYDIR
 10
0.0
 20
1.0
 30
0.0
  9
$UCSORTHOREF
  2

  9
$UCSORTHOVIEW
 70
     0
  9
$UCSORGTOP
 10
0.0
 20
0.0
 30
0.0
  9
$UCSORGBOTTOM
 10
0.0
 20
0.0
 30
0.0
  9
$UCSORGLEFT
 10
0.0
 20
0.0
 30
0.0
  9
$UCSORGRIGHT
 10
0.0
 20
0.0
 30
0.0
  9
$UCSORGFRONT
 10
0.0
 20
0.0
 30
0.0
  9
$UCSORGBACK
 10
0.0
 20
0.0
 30
0.0
  9
$PUCSBASE
  2

  9
$PUCSNAME
  2

  9
$PUCSORG
 10
0.0
 20
0.0
 30
0.0
  9
$PUCSXDIR
 10
1.0
 20
0.0
 30
0.0
  9
$PUCSYDIR
 10
0.0
 20
1.0
 30
0.0
  9
$PUCSORTHOREF
  2

  9
$PUCSORTHOVIEW
 70
     0
  9
$PUCSORGTOP
 10
0.0
 20
0.0
 30
0.0
  9
$PUCSORGBOTTOM
 10
0.0
 20
0.0
 30
0.0
  9
$PUCSORGLEFT
 10
0.0
 20
0.0
 30
0.0
  9
$PUCSORGRIGHT
 10
0.0
 20
0.0
 30
0.0
  9
$PUCSORGFRONT
 10
0.0
 20
0.0
 30
0.0
  9
$PUCSORGBACK
 10
0.0
 20
0.0
 30
0.0
  9
$USERI1
 70
     0
  9
$USERI2
 70
     0
  9
$USERI3
 70
     0
  9
$USERI4
 70
     0
  9
$USERI5
 70
     0
  9
$USERR1
 40
0.0
  9
$USERR2
 40
0.0
  9
$USERR3
 40
0.0
  9
$USERR4
 40
0.0
  9
$USERR5
 40
0.0
  9
$WORLDVIEW
 70
     1
  9
$SHADEDGE
 70
     3
  9
$SHADEDIF
 70
    70
  9
$TILEMODE
 70
     1
  9
$MAXACTVP
 70
    64
  9
$PINSBASE
 10
0.0
 20
0.0
 30
0.0
  9
$PLIMCHECK
 70
     0
  9
$PEXTMIN
 10
1.000000000000000E+20
 20
1.000000000000000E+20
 30
1.000000000000000E+20
  9
$PEXTMAX
 10
-1.000000000000000E+20
 20
-1.000000000000000E+20
 30
-1.000000000000000E+20
  9
$PLIMMIN
 10
0.0
 20
0.0
  9
$PLIMMAX
 10
12.0
 20
9.0
  9
$UNITMODE
 70
     0
  9
$VISRETAIN
 70
     1
  9
$PLINEGEN
 70
     0
  9
$PSLTSCALE
 70
     1
  9
$TREEDEPTH
 70
  3020
  9
$CMLSTYLE
  2
Standard
  9
$CMLJUST
 70
     0
  9
$CMLSCALE
 40
1.0
  9
$PROXYGRAPHICS
 70
     1
  9
$MEASUREMENT
 70
     0
  9
$CELWEIGHT
370
    -1
  9
$ENDCAPS
280
     0
  9
$JOINSTYLE
280
     0
  9
$LWDISPLAY
290
     0
  9
$INSUNITS
 70
     1
  9
$HYPERLINKBASE
  1

  9
$STYLESHEET
  1

  9
$XEDIT
290
     1
  9
$CEPSNTYPE
380
     0
  9
$PSTYLEMODE
290
     0
  9
$FINGERPRINTGUID
  2
{FAEB1C30-E019-11D5-929B-00C0DF256EC4}
  9
$VERSIONGUID
  2
{FAEB1C32-E019-11D5-929B-00C0DF256EC4}
  9
$EXTNAMES
290
     1
  9
$PSVPSCALE
 40
0.0
  9
$OLESTARTUP
290
     0
  9
$SORTENTS
280
   127
  9
$INDEXCTL
280
     0
  9
$HIDETEXT
280
     1
  9
$XCLIPFRAME
290
     0
  9
$HALOGAP
280
     0
  9
$OBSCOLOR
 70
   257
  9
$OBSLTYPE
280
     0
  9
$INTERSECTIONDISPLAY
280
     0
  9
$INTERSECTIONCOLOR
 70
   257
  9
$DIMASSOC
280
     2
  9
$PROJECTNAME
  1

  0
ENDSEC
  0
SECTION
  2
CLASSES
  0
CLASS
  1
ACDBDICTIONARYWDFLT
  2
AcDbDictionaryWithDefault
  3
ObjectDBX Classes
 90
        0
 91
        1
280
     0
281
     0
  0
ENDSEC
  0
SECTION
  2
TABLES
  0
TABLE
  2
VPORT
  5
8
330
0
100
AcDbSymbolTable
 70
     2
  0
VPORT
  5
29
330
8
100
AcDbSymbolTableRecord
100
AcDbViewportTableRecord
  2
*Active
 70
     0
 10
0.0
 20
0.0
 11
1.0
 21
1.0
 12
10.42990654205607
 22
4.5
 13
0.0
 23
0.0
 14
0.5
 24
0.5
 15
0.5
 25
0.5
 16
0.0
 26
0.0
 36
1.0
 17
0.0
 27
0.0
 37
0.0
 40
9.0
 41
1.972972972850329
 42
50.0
 43
0.0
 44
0.0
 50
0.0
 51
0.0
 71
     0
 72
   100
 73
     1
 74
     3
 75
     0
 76
     0
 77
     0
 78
     0
281
     0
 65
     1
110
0.0
120
0.0
130
0.0
111
1.0
121
0.0
131
0.0
112
0.0
122
1.0
132
0.0
 79
     0
146
0.0
  0
ENDTAB
  0
TABLE
  2
LTYPE
  5
5
330
0
100
AcDbSymbolTable
 70
     1
  0
LTYPE
  5
14
330
5
100
AcDbSymbolTableRecord
100
AcDbLinetypeTableRecord
  2
ByBlock
 70
     0
  3

 72
    65
 73
     0
 40
0.0
  0
LTYPE
  5
15
330
5
100
AcDbSymbolTableRecord
100
AcDbLinetypeTableRecord
  2
ByLayer
 70
     0
  3

 72
    65
 73
     0
 40
0.0
  0
LTYPE
  5
16
330
5
100
AcDbSymbolTableRecord
100
AcDbLinetypeTableRecord
  2
Continuous
 70
     0
  3
Solid line
 72
    65
 73
     0
 40
0.0
  0
ENDTAB
  0
TABLE
  2
LAYER
  5
2
330
0
100
AcDbSymbolTable
 70
     2
  0
LAYER
  5
10
330
2
100
AcDbSymbolTableRecord
100
AcDbLayerTableRecord
  2
0
 70
     0
 62
     7
  6
Continuous
370
    -3
390
F
  0
LAYER
  5
2B
330
2
100
AcDbSymbolTableRecord
100
AcDbLayerTableRecord
  2
P1-Layer 1
 70
     0
 62
     7
  6
Continuous
370
    -3
390
F
  0
ENDTAB
  0
TABLE
  2
STYLE
  5
3
330
0
100
AcDbSymbolTable
 70
     1
  0
STYLE
  5
11
330
3
100
AcDbSymbolTableRecord
100
AcDbTextStyleTableRecord
  2
Standard
 70
     0
 40
0.0
 41
1.0
 50
0.0
 71
     0
 42
0.2
  3
txt
  4

  0
ENDTAB
  0
TABLE
  2
VIEW
  5
6
330
0
100
AcDbSymbolTable
 70
     0
  0
ENDTAB
  0
TABLE
  2
UCS
  5
7
330
0
100
AcDbSymbolTable
 70
     0
  0
ENDTAB
  0
TABLE
  2
APPID
  5
9
330
0
100
AcDbSymbolTable
 70
     2
  0
APPID
  5
12
330
9
100
AcDbSymbolTableRecord
100
AcDbRegAppTableRecord
  2
ACAD
 70
     0
  0
APPID
  5
2A
330
9
100
AcDbSymbolTableRecord
100
AcDbRegAppTableRecord
  2
ODA
 70
     0
  0
ENDTAB
  0
TABLE
  2
DIMSTYLE
  5
A
330
0
100
AcDbSymbolTable
 70
     1
100
AcDbDimStyleTable
  0
DIMSTYLE
105
27
330
A
100
AcDbSymbolTableRecord
100
AcDbDimStyleTableRecord
  2
Standard
 70
     0
340
11
  0
ENDTAB
  0
TABLE
  2
BLOCK_RECORD
  5
1
330
0
100
AcDbSymbolTable
 70
     1
  0
BLOCK_RECORD
  5
1F
330
1
100
AcDbSymbolTableRecord
100
AcDbBlockTableRecord
  2
*Model_Space
340
22
  0
BLOCK_RECORD
  5
1B
330
1
100
AcDbSymbolTableRecord
100
AcDbBlockTableRecord
  2
*Paper_Space
340
1E
  0
BLOCK_RECORD
  5
23
330
1
100
AcDbSymbolTableRecord
100
AcDbBlockTableRecord
  2
*Paper_Space0
340
26
  0
ENDTAB
  0
ENDSEC
  0
SECTION
  2
BLOCKS
  0
BLOCK
  5
20
330
1F
100
AcDbEntity
  8
0
100
AcDbBlockBegin
  2
*Model_Space
 70
     0
 71
     0
 10
0.0
 20
0.0
 30
0.0
  3
*Model_Space
  1

  0
ENDBLK
  5
21
330
1F
100
AcDbEntity
  8
0
100
AcDbBlockEnd
  0
BLOCK
  5
1C
330
1B
100
AcDbEntity
 67
     1
  8
0
100
AcDbBlockBegin
  2
*Paper_Space
 70
     0
 71
     0
 10
0.0
 20
0.0
 30
0.0
  3
*Paper_Space
  1

  0
ENDBLK
  5
1D
330
1B
100
AcDbEntity
 67
     1
  8
0
100
AcDbBlockEnd
  0
BLOCK
  5
24
330
23
100
AcDbEntity
  8
0
100
AcDbBlockBegin
  2
*Paper_Space0
 70
     0
 71
     0
 10
0.0
 20
0.0
 30
0.0
  3
*Paper_Space0
  1

  0
ENDBLK
  5
25
330
23
100
AcDbEntity
  8
0
100
AcDbBlockEnd
  0
ENDSEC
  0
SECTION
  2
ENTITIES
  0
SPLINE
  5
2C
330
1F
100
AcDbEntity
  8
P1-Layer 1
 62
   250
100
AcDbSpline
210
0.0
220
0.0
230
1.0
 70
    11
 71
     3
 72
   104
 73
   100
 74
     0
 42
0.0000000001
 43
0.0000000001
 40
0.0
 40
0.0
 40
0.0
 40
0.0
 40
0.04
 40
0.04
 40
0.04
 40
0.04
 40
0.08
 40
0.08
 40
0.08
 40
0.08
 40
0.12
 40
0.12
 40
0.12
 40
0.12
 40
0.16
 40
0.16
 40
0.16
 40
0.16
 40
0.2
 40
0.2
 40
0.2
 40
0.2
 40
0.24
 40
0.24
 40
0.24
 40
0.24
 40
0.28
 40
0.28
 40
0.28
 40
0.28
 40
0.32
 40
0.32
 40
0.32
 40
0.32
 40
0.36
 40
0.36
 40
0.36
 40
0.36
 40
0.4
 40
0.4
 40
0.4
 40
0.4
 40
0.44
 40
0.44
 40
0.44
 40
0.44
 40
0.4799999999999999
 40
0.4799999999999999
 40
0.4799999999999999
 40
0.4799999999999999
 40
0.5199999999999999
 40
0.5199999999999999
 40
0.5199999999999999
 40
0.5199999999999999
 40
0.5599999999999999
 40
0.5599999999999999
 40
0.5599999999999999
 40
0.5599999999999999
 40
0.6
 40
0.6
 40
0.6
 40
0.6
 40
0.64
 40
0.64
 40
0.64
 40
0.64
 40
0.6800000000000001
 40
0.6800000000000001
 40
0.6800000000000001
 40
0.6800000000000001
 40
0.7200000000000001
 40
0.7200000000000001
 40
0.7200000000000001
 40
0.7200000000000001
 40
0.7600000000000001
 40
0.7600000000000001
 40
0.7600000000000001
 40
0.7600000000000001
 40
0.8000000000000002
 40
0.8000000000000002
 40
0.8000000000000002
 40
0.8000000000000002
 40
0.8400000000000002
 40
0.8400000000000002
 40
0.8400000000000002
 40
0.8400000000000002
 40
0.8800000000000002
 40
0.8800000000000002
 40
0.8800000000000002
 40
0.8800000000000002
 40
0.9200000000000003
 40
0.9200000000000003
 40
0.9200000000000003
 40
0.9200000000000003
 40
0.9600000000000003
 40
0.9600000000000003
 40
0.9600000000000003
 40
0.9600000000000003
 40
1.0
 40
1.0
 40
1.0
 40
1.0
 10
-0.5577125984251968
 20
0.628496062992126
 30
0.0
 10
-0.5577125984251968
 20
0.628496062992126
 30
0.0
 10
-0.503740157480315
 20
0.628496062992126
 30
0.0
 10
-0.503740157480315
 20
0.628496062992126
 30
0.0
 10
-0.503740157480315
 20
0.628496062992126
 30
0.0
 10
-0.4905708661417323
 20
0.628496062992126
 30
0.0
 10
-0.4815433070866142
 20
0.6278858267716536
 30
0.0
 10
-0.4766574803149606
 20
0.6266889763779527
 30
0.0
 10
-0.4766574803149606
 20
0.6266889763779527
 30
0.0
 10
-0.4694330708661418
 20
0.6249685039370079
 30
0.0
 10
-0.463740157480315
 20
0.6218307086614173
 30
0.0
 10
-0.4595157480314961
 20
0.6172716535433072
 30
0.0
 10
-0.4595157480314961
 20
0.6172716535433072
 30
0.0
 10
-0.4553228346456693
 20
0.6127165354330709
 30
0.0
 10
-0.4532125984251968
 20
0.6072165354330709
 30
0.0
 10
-0.4532125984251968
 20
0.6008307086614173
 30
0.0
 10
-0.4532125984251968
 20
0.6008307086614173
 30
0.0
 10
-0.4532125984251968
 20
0.5962165354330709
 30
0.0
 10
-0.4543228346456693
 20
0.5920787401574803
 30
0.0
 10
-0.4565433070866142
 20
0.5884133858267717
 30
0.0
 10
-0.4565433070866142
 20
0.5884133858267717
 30
0.0
 10
-0.4587677165354331
 20
0.584744094488189
 30
0.0
 10
-0.4620157480314961
 20
0.5816062992125984
 30
0.0
 10
-0.466240157480315
 20
0.5790236220472441
 30
0.0
 10
-0.466240157480315
 20
0.5790236220472441
 30
0.0
 10
-0.4689606299212599
 20
0.5773307086614173
 30
0.0
 10
-0.4726299212598425
 20
0.5758858267716536
 30
0.0
 10
-0.4772952755905512
 20
0.5746889763779528
 30
0.0
 10
-0.4772952755905512
 20
0.5746889763779528
 30
0.0
 10
-0.4713779527559056
 20
0.5736062992125984
 30
0.0
 10
-0.4668779527559056
 20
0.5723031496062992
 30
0.0
 10
-0.4637952755905512
 20
0.5708031496062992
 30
0.0
 10
-0.4637952755905512
 20
0.5708031496062992
 30
0.0
 10
-0.4591299212598425
 20
0.5685236220472442
 30
0.0
 10
-0.4554330708661418
 20
0.5652755905511812
 30
0.0
 10
-0.452740157480315
 20
0.5610236220472441
 30
0.0
 10
-0.452740157480315
 20
0.5610236220472441
 30
0.0
 10
-0.4500157480314961
 20
0.5568031496062993
 30
0.0
 10
-0.4486574803149607
 20
0.5520236220472441
 30
0.0
 10
-0.4486574803149607
 20
0.5467165354330709
 30
0.0
 10
-0.4486574803149607
 20
0.5467165354330709
 30
0.0
 10
-0.4486574803149607
 20
0.5415511811023622
 30
0.0
 10
-0.449988188976378
 20
0.5367755905511811
 30
0.0
 10
-0.4526574803149607
 20
0.5323858267716536
 30
0.0
 10
-0.4526574803149607
 20
0.5323858267716536
 30
0.0
 10
-0.4552952755905512
 20
0.527996062992126
 30
0.0
 10
-0.4590708661417323
 20
0.5243858267716536
 30
0.0
 10
-0.4639055118110236
 20
0.5215511811023622
 30
0.0
 10
-0.4639055118110236
 20
0.5215511811023622
 30
0.0
 10
-0.4687677165354331
 20
0.518748031496063
 30
0.0
 10
-0.4744330708661417
 20
0.5169409448818898
 30
0.0
 10
-0.4808779527559055
 20
0.5161338582677165
 30
0.0
 10
-0.4808779527559055
 20
0.5161338582677165
 30
0.0
 10
-0.4873503937007874
 20
0.5153582677165355
 30
0.0
 10
-0.493988188976378
 20
0.5149685039370079
 30
0.0
 10
-0.5008228346456694
 20
0.5149685039370079
 30
0.0
 10
-0.5008228346456694
 20
0.5149685039370079
 30
0.0
 10
-0.5008228346456694
 20
0.5149685039370079
 30
0.0
 10
-0.5577125984251968
 20
0.5149685039370079
 30
0.0
 10
-0.5577125984251968
 20
0.5149685039370079
 30
0.0
 10
-0.5577125984251968
 20
0.5149685039370079
 30
0.0
 10
-0.5577125984251968
 20
0.5149685039370079
 30
0.0
 10
-0.5577125984251968
 20
0.5218031496062993
 30
0.0
 10
-0.5577125984251968
 20
0.5218031496062993
 30
0.0
 10
-0.5577125984251968
 20
0.5218031496062993
 30
0.0
 10
-0.5577125984251968
 20
0.5218031496062993
 30
0.0
 10
-0.5538779527559056
 20
0.5218031496062993
 30
0.0
 10
-0.5538779527559056
 20
0.5218031496062993
 30
0.0
 10
-0.5538779527559056
 20
0.5218031496062993
 30
0.0
 10
-0.5501811023622047
 20
0.5218031496062993
 30
0.0
 10
-0.5476811023622048
 20
0.5223858267716536
 30
0.0
 10
-0.5463228346456693
 20
0.5235236220472441
 30
0.0
 10
-0.5463228346456693
 20
0.5235236220472441
 30
0.0
 10
-0.5443503937007874
 20
0.5250787401574804
 30
0.0
 10
-0.5433779527559055
 20
0.5276889763779528
 30
0.0
 10
-0.5433779527559055
 20
0.5313307086614173
 30
0.0
 10
-0.5433779527559055
 20
0.5313307086614173
 30
0.0
 10
-0.5433779527559055
 20
0.5313307086614173
 30
0.0
 10
-0.5433779527559055
 20
0.6101889763779528
 30
0.0
 10
-0.5433779527559055
 20
0.6101889763779528
 30
0.0
 10
-0.5433779527559055
 20
0.6101889763779528
 30
0.0
 10
-0.5433779527559055
 20
0.6138858267716536
 30
0.0
 10
-0.5436811023622048
 20
0.6163858267716535
 30
0.0
 10
-0.544267716535433
 20
0.617744094488189
 30
0.0
 10
-0.544267716535433
 20
0.617744094488189
 30
0.0
 10
-0.5448779527559056
 20
0.6191062992125984
 30
0.0
 10
-0.5457677165354331
 20
0.6200787401574803
 30
0.0
 10
-0.5469606299212598
 20
0.6206889763779527
 30
0.0
 10
-0.5469606299212598
 20
0.6206889763779527
 30
0.0
 10
-0.5481535433070867
 20
0.6212716535433072
 30
0.0
 10
-0.5504606299212599
 20
0.6215787401574804
 30
0.0
 10
-0.5538779527559056
 20
0.6215787401574804
 30
0.0
 10
-0.5538779527559056
 20
0.6215787401574804
 30
0.0
 10
-0.5538779527559056
 20
0.6215787401574804
 30
0.0
 10
-0.5577125984251968
 20
0.6215787401574804
 30
0.0
 10
-0.5577125984251968
 20
0.6215787401574804
 30
0.0
 10
-0.5577125984251968
 20
0.6215787401574804
 30
0.0
 10
-0.5577125984251968
 20
0.6215787401574804
 30
0.0
 10
-0.5577125984251968
 20
0.628496062992126
 30
0.0
 10
-0.5577125984251968
 20
0.628496062992126
 30
0.0
  0
SPLINE
  5
2D
330
1F
100
AcDbEntity
  8
P1-Layer 1
 62
   250
100
AcDbSpline
210
0.0
220
0.0
230
1.0
 70
    11
 71
     3
 72
    40
 73
    36
 74
     0
 42
0.0000000001
 43
0.0000000001
 40
0.0
 40
0.0
 40
0.0
 40
0.0
 40
0.1111111111111111
 40
0.1111111111111111
 40
0.1111111111111111
 40
0.1111111111111111
 40
0.2222222222222222
 40
0.2222222222222222
 40
0.2222222222222222
 40
0.2222222222222222
 40
0.3333333333333333
 40
0.3333333333333333
 40
0.3333333333333333
 40
0.3333333333333333
 40
0.4444444444444444
 40
0.4444444444444444
 40
0.4444444444444444
 40
0.4444444444444444
 40
0.5555555555555556
 40
0.5555555555555556
 40
0.5555555555555556
 40
0.5555555555555556
 40
0.6666666666666667
 40
0.6666666666666667
 40
0.6666666666666667
 40
0.6666666666666667
 40
0.7777777777777779
 40
0.7777777777777779
 40
0.7777777777777779
 40
0.7777777777777779
 40
0.8888888888888891
 40
0.8888888888888891
 40
0.8888888888888891
 40
0.8888888888888891
 40
1.0
 40
1.0
 40
1.0
 40
1.0
 10
-0.5281535433070866
 20
0.6194685039370079
 30
0.0
 10
-0.5281535433070866
 20
0.6194685039370079
 30
0.0
 10
-0.5281535433070866
 20
0.5778858267716536
 30
0.0
 10
-0.5281535433070866
 20
0.5778858267716536
 30
0.0
 10
-0.5281535433070866
 20
0.5778858267716536
 30
0.0
 10
-0.5281535433070866
 20
0.5778858267716536
 30
0.0
 10
-0.5074055118110237
 20
0.5778858267716536
 30
0.0
 10
-0.5074055118110237
 20
0.5778858267716536
 30
0.0
 10
-0.5074055118110237
 20
0.5778858267716536
 30
0.0
 10
-0.4977125984251969
 20
0.5778858267716536
 30
0.0
 10
-0.4910433070866142
 20
0.5783307086614173
 30
0.0
 10
-0.487488188976378
 20
0.579244094488189
 30
0.0
 10
-0.487488188976378
 20
0.579244094488189
 30
0.0
 10
-0.4818779527559055
 20
0.5807165354330709
 30
0.0
 10
-0.4776299212598426
 20
0.5832165354330708
 30
0.0
 10
-0.4746574803149606
 20
0.586744094488189
 30
0.0
 10
-0.4746574803149606
 20
0.586744094488189
 30
0.0
 10
-0.4717125984251969
 20
0.5902716535433071
 30
0.0
 10
-0.4702125984251969
 20
0.5948031496062992
 30
0.0
 10
-0.4702125984251969
 20
0.6003307086614174
 30
0.0
 10
-0.4702125984251969
 20
0.6003307086614174
 30
0.0
 10
-0.4702125984251969
 20
0.6049960629921261
 30
0.0
 10
-0.4715708661417323
 20
0.6088858267716536
 30
0.0
 10
-0.474240157480315
 20
0.6120236220472441
 30
0.0
 10
-0.474240157480315
 20
0.6120236220472441
 30
0.0
 10
-0.4769330708661417
 20
0.6151338582677166
 30
0.0
 10
-0.4805433070866142
 20
0.6172716535433072
 30
0.0
 10
-0.4850433070866142
 20
0.6184133858267716
 30
0.0
 10
-0.4850433070866142
 20
0.6184133858267716
 30
0.0
 10
-0.4879606299212599
 20
0.6191062992125984
 30
0.0
 10
-0.4940433070866142
 20
0.6194685039370079
 30
0.0
 10
-0.5032677165354331
 20
0.6194685039370079
 30
0.0
 10
-0.5032677165354331
 20
0.6194685039370079
 30
0.0
 10
-0.5032677165354331
 20
0.6194685039370079
 30
0.0
 10
-0.5281535433070866
 20
0.6194685039370079
 30
0.0
 10
-0.5281535433070866
 20
0.6194685039370079
 30
0.0
  0
SPLINE
  5
2E
330
1F
100
AcDbEntity
  8
P1-Layer 1
 62
   250
100
AcDbSpline
210
0.0
220
0.0
230
1.0
 70
    11
 71
     3
 72
    52
 73
    48
 74
     0
 42
0.0000000001
 43
0.0000000001
 40
0.0
 40
0.0
 40
0.0
 40
0.0
 40
0.0833333333333333
 40
0.0833333333333333
 40
0.0833333333333333
 40
0.0833333333333333
 40
0.1666666666666667
 40
0.1666666666666667
 40
0.1666666666666667
 40
0.1666666666666667
 40
0.25
 40
0.25
 40
0.25
 40
0.25
 40
0.3333333333333333
 40
0.3333333333333333
 40
0.3333333333333333
 40
0.3333333333333333
 40
0.4166666666666666
 40
0.4166666666666666
 40
0.4166666666666666
 40
0.4166666666666666
 40
0.4999999999999999
 40
0.4999999999999999
 40
0.4999999999999999
 40
0.4999999999999999
 40
0.5833333333333333
 40
0.5833333333333333
 40
0.5833333333333333
 40
0.5833333333333333
 40
0.6666666666666666
 40
0.6666666666666666
 40
0.6666666666666666
 40
0.6666666666666666
 40
0.75
 40
0.75
 40
0.75
 40
0.75
 40
0.8333333333333334
 40
0.8333333333333334
 40
0.8333333333333334
 40
0.8333333333333334
 40
0.9166666666666667
 40
0.9166666666666667
 40
0.9166666666666667
 40
0.9166666666666667
 40
1.0
 40
1.0
 40
1.0
 40
1.0
 10
-0.5281535433070866
 20
0.5700511811023622
 30
0.0
 10
-0.5281535433070866
 20
0.5700511811023622
 30
0.0
 10
-0.5281535433070866
 20
0.5328031496062993
 30
0.0
 10
-0.5281535433070866
 20
0.5328031496062993
 30
0.0
 10
-0.5281535433070866
 20
0.5328031496062993
 30
0.0
 10
-0.5281535433070866
 20
0.5290511811023623
 30
0.0
 10
-0.527988188976378
 20
0.5268307086614174
 30
0.0
 10
-0.5276850393700787
 20
0.5261062992125984
 30
0.0
 10
-0.5276850393700787
 20
0.5261062992125984
 30
0.0
 10
-0.5272401574803149
 20
0.5251338582677165
 30
0.0
 10
-0.5263779527559055
 20
0.524468503937008
 30
0.0
 10
-0.5250708661417323
 20
0.5240787401574804
 30
0.0
 10
-0.5250708661417323
 20
0.5240787401574804
 30
0.0
 10
-0.5241535433070866
 20
0.5238031496062993
 30
0.0
 10
-0.5215433070866142
 20
0.5236614173228347
 30
0.0
 10
-0.5172677165354331
 20
0.5236614173228347
 30
0.0
 10
-0.5172677165354331
 20
0.5236614173228347
 30
0.0
 10
-0.5172677165354331
 20
0.5236614173228347
 30
0.0
 10
-0.5061850393700788
 20
0.5236614173228347
 30
0.0
 10
-0.5061850393700788
 20
0.5236614173228347
 30
0.0
 10
-0.5061850393700788
 20
0.5236614173228347
 30
0.0
 10
-0.495240157480315
 20
0.5236614173228347
 30
0.0
 10
-0.4874055118110237
 20
0.5242755905511811
 30
0.0
 10
-0.4827125984251969
 20
0.525496062992126
 30
0.0
 10
-0.4827125984251969
 20
0.525496062992126
 30
0.0
 10
-0.4780157480314961
 20
0.5267165354330708
 30
0.0
 10
-0.4740157480314961
 20
0.5293031496062992
 30
0.0
 10
-0.4707125984251969
 20
0.533248031496063
 30
0.0
 10
-0.4707125984251969
 20
0.533248031496063
 30
0.0
 10
-0.4674055118110236
 20
0.5371614173228346
 30
0.0
 10
-0.465740157480315
 20
0.5419133858267716
 30
0.0
 10
-0.465740157480315
 20
0.5474409448818898
 30
0.0
 10
-0.465740157480315
 20
0.5474409448818898
 30
0.0
 10
-0.465740157480315
 20
0.5521062992125985
 30
0.0
 10
-0.4670984251968504
 20
0.556244094488189
 30
0.0
 10
-0.4697677165354331
 20
0.5598582677165355
 30
0.0
 10
-0.4697677165354331
 20
0.5598582677165355
 30
0.0
 10
-0.4724606299212599
 20
0.5634685039370079
 30
0.0
 10
-0.4761850393700788
 20
0.5660511811023622
 30
0.0
 10
-0.4809330708661417
 20
0.5676614173228347
 30
0.0
 10
-0.4809330708661417
 20
0.5676614173228347
 30
0.0
 10
-0.4856850393700788
 20
0.5692755905511812
 30
0.0
 10
-0.4940984251968504
 20
0.5700511811023622
 30
0.0
 10
-0.5061850393700788
 20
0.5700511811023622
 30
0.0
 10
-0.5061850393700788
 20
0.5700511811023622
 30
0.0
 10
-0.5061850393700788
 20
0.5700511811023622
 30
0.0
 10
-0.5281535433070866
 20
0.5700511811023622
 30
0.0
 10
-0.5281535433070866
 20
0.5700511811023622
 30
0.0
  0
SPLINE
  5
2F
330
1F
100
AcDbEntity
  8
P1-Layer 1
 62
   250
100
AcDbSpline
210
0.0
220
0.0
230
1.0
 70
    11
 71
     3
 72
   112
 73
   108
 74
     0
 42
0.0000000001
 43
0.0000000001
 40
0.0
 40
0.0
 40
0.0
 40
0.0
 40
0.037037037037037
 40
0.037037037037037
 40
0.037037037037037
 40
0.037037037037037
 40
0.0740740740740741
 40
0.0740740740740741
 40
0.0740740740740741
 40
0.0740740740740741
 40
0.1111111111111111
 40
0.1111111111111111
 40
0.1111111111111111
 40
0.1111111111111111
 40
0.1481481481481481
 40
0.1481481481481481
 40
0.1481481481481481
 40
0.1481481481481481
 40
0.1851851851851852
 40
0.1851851851851852
 40
0.1851851851851852
 40
0.1851851851851852
 40
0.2222222222222222
 40
0.2222222222222222
 40
0.2222222222222222
 40
0.2222222222222222
 40
0.2592592592592592
 40
0.2592592592592592
 40
0.2592592592592592
 40
0.2592592592592592
 40
0.2962962962962963
 40
0.2962962962962963
 40
0.2962962962962963
 40
0.2962962962962963
 40
0.3333333333333333
 40
0.3333333333333333
 40
0.3333333333333333
 40
0.3333333333333333
 40
0.3703703703703704
 40
0.3703703703703704
 40
0.3703703703703704
 40
0.3703703703703704
 40
0.4074074074074074
 40
0.4074074074074074
 40
0.4074074074074074
 40
0.4074074074074074
 40
0.4444444444444444
 40
0.4444444444444444
 40
0.4444444444444444
 40
0.4444444444444444
 40
0.4814814814814815
 40
0.4814814814814815
 40
0.4814814814814815
 40
0.4814814814814815
 40
0.5185185185185185
 40
0.5185185185185185
 40
0.5185185185185185
 40
0.5185185185185185
 40
0.5555555555555556
 40
0.5555555555555556
 40
0.5555555555555556
 40
0.5555555555555556
 40
0.5925925925925926
 40
0.5925925925925926
 40
0.5925925925925926
 40
0.5925925925925926
 40
0.6296296296296295
 40
0.6296296296296295
 40
0.6296296296296295
 40
0.6296296296296295
 40
0.6666666666666665
 40
0.6666666666666665
 40
0.6666666666666665
 40
0.6666666666666665
 40
0.7037037037037035
 40
0.7037037037037035
 40
0.7037037037037035
 40
0.7037037037037035
 40
0.7407407407407405
 40
0.7407407407407405
 40
0.7407407407407405
 40
0.7407407407407405
 40
0.7777777777777775
 40
0.7777777777777775
 40
0.7777777777777775
 40
0.7777777777777775
 40
0.8148148148148144
 40
0.8148148148148144
 40
0.8148148148148144
 40
0.8148148148148144
 40
0.8518518518518514
 40
0.8518518518518514
 40
0.8518518518518514
 40
0.8518518518518514
 40
0.8888888888888884
 40
0.8888888888888884
 40
0.8888888888888884
 40
0.8888888888888884
 40
0.9259259259259254
 40
0.9259259259259254
 40
0.9259259259259254
 40
0.9259259259259254
 40
0.9629629629629624
 40
0.9629629629629624
 40
0.9629629629629624
 40
0.9629629629629624
 40
1.0
 40
1.0
 40
1.0
 40
1.0
 10
-0.3910472440944882
 20
0.628496062992126
 30
0.0
 10
-0.3910472440944882
 20
0.628496062992126
 30
0.0
 10
-0.3776299212598425
 20
0.628496062992126
 30
0.0
 10
-0.3776299212598425
 20
0.628496062992126
 30
0.0
 10
-0.3776299212598425
 20
0.628496062992126
 30
0.0
 10
-0.3776299212598425
 20
0.628496062992126
 30
0.0
 10
-0.3423818897637795
 20
0.5336062992125985
 30
0.0
 10
-0.3423818897637795
 20
0.5336062992125985
 30
0.0
 10
-0.3423818897637795
 20
0.5336062992125985
 30
0.0
 10
-0.3406574803149606
 20
0.5288307086614174
 30
0.0
 10
-0.3389094488188977
 20
0.5256614173228347
 30
0.0
 10
-0.3371299212598425
 20
0.5241338582677165
 30
0.0
 10
-0.3371299212598425
 20
0.5241338582677165
 30
0.0
 10
-0.3353818897637795
 20
0.5225787401574803
 30
0.0
 10
-0.332992125984252
 20
0.5218031496062993
 30
0.0
 10
-0.3300196850393701
 20
0.5218031496062993
 30
0.0
 10
-0.3300196850393701
 20
0.5218031496062993
 30
0.0
 10
-0.3300196850393701
 20
0.5218031496062993
 30
0.0
 10
-0.328240157480315
 20
0.5218031496062993
 30
0.0
 10
-0.328240157480315
 20
0.5218031496062993
 30
0.0
 10
-0.328240157480315
 20
0.5218031496062993
 30
0.0
 10
-0.328240157480315
 20
0.5218031496062993
 30
0.0
 10
-0.328240157480315
 20
0.5149685039370079
 30
0.0
 10
-0.328240157480315
 20
0.5149685039370079
 30
0.0
 10
-0.328240157480315
 20
0.5149685039370079
 30
0.0
 10
-0.328240157480315
 20
0.5149685039370079
 30
0.0
 10
-0.3686850393700787
 20
0.5149685039370079
 30
0.0
 10
-0.3686850393700787
 20
0.5149685039370079
 30
0.0
 10
-0.3686850393700787
 20
0.5149685039370079
 30
0.0
 10
-0.3686850393700787
 20
0.5149685039370079
 30
0.0
 10
-0.3686850393700787
 20
0.5218031496062993
 30
0.0
 10
-0.3686850393700787
 20
0.5218031496062993
 30
0.0
 10
-0.3686850393700787
 20
0.5218031496062993
 30
0.0
 10
-0.3673818897637796
 20
0.5219133858267717
 30
0.0
 10
-0.3661023622047244
 20
0.5219685039370079
 30
0.0
 10
-0.3648503937007874
 20
0.5219685039370079
 30
0.0
 10
-0.3648503937007874
 20
0.5219685039370079
 30
0.0
 10
-0.362240157480315
 20
0.5219685039370079
 30
0.0
 10
-0.3605472440944882
 20
0.522248031496063
 30
0.0
 10
-0.3597125984251969
 20
0.5227755905511812
 30
0.0
 10
-0.3597125984251969
 20
0.5227755905511812
 30
0.0
 10
-0.3581574803149606
 20
0.5238031496062993
 30
0.0
 10
-0.3573543307086614
 20
0.5251062992125984
 30
0.0
 10
-0.3573543307086614
 20
0.5266889763779528
 30
0.0
 10
-0.3573543307086614
 20
0.5266889763779528
 30
0.0
 10
-0.3573543307086614
 20
0.5278307086614174
 30
0.0
 10
-0.3581299212598426
 20
0.5306062992125985
 30
0.0
 10
-0.3596299212598426
 20
0.5350787401574804
 30
0.0
 10
-0.3596299212598426
 20
0.5350787401574804
 30
0.0
 10
-0.3596299212598426
 20
0.5350787401574804
 30
0.0
 10
-0.3671299212598425
 20
0.5570511811023622
 30
0.0
 10
-0.3671299212598425
 20
0.5570511811023622
 30
0.0
 10
-0.3671299212598425
 20
0.5570511811023622
 30
0.0
 10
-0.3671299212598425
 20
0.5570511811023622
 30
0.0
 10
-0.4082952755905512
 20
0.5570511811023622
 30
0.0
 10
-0.4082952755905512
 20
0.5570511811023622
 30
0.0
 10
-0.4082952755905512
 20
0.5570511811023622
 30
0.0
 10
-0.4082952755905512
 20
0.5570511811023622
 30
0.0
 10
-0.4171023622047244
 20
0.5324685039370078
 30
0.0
 10
-0.4171023622047244
 20
0.5324685039370078
 30
0.0
 10
-0.4171023622047244
 20
0.5324685039370078
 30
0.0
 10
-0.4180196850393701
 20
0.5299133858267717
 30
0.0
 10
-0.418492125984252
 20
0.5281614173228346
 30
0.0
 10
-0.418492125984252
 20
0.5271614173228346
 30
0.0
 10
-0.418492125984252
 20
0.5271614173228346
 30
0.0
 10
-0.418492125984252
 20
0.5260787401574804
 30
0.0
 10
-0.4181850393700788
 20
0.5251338582677165
 30
0.0
 10
-0.4176299212598426
 20
0.5243307086614173
 30
0.0
 10
-0.4176299212598426
 20
0.5243307086614173
 30
0.0
 10
-0.4170472440944882
 20
0.5235236220472441
 30
0.0
 10
-0.4162952755905512
 20
0.5229133858267717
 30
0.0
 10
-0.4152952755905512
 20
0.522496062992126
 30
0.0
 10
-0.4152952755905512
 20
0.522496062992126
 30
0.0
 10
-0.4143228346456693
 20
0.5220787401574804
 30
0.0
 10
-0.4127677165354331
 20
0.5218858267716535
 30
0.0
 10
-0.4105748031496063
 20
0.5218858267716535
 30
0.0
 10
-0.4105748031496063
 20
0.5218858267716535
 30
0.0
 10
-0.4091299212598425
 20
0.5218858267716535
 30
0.0
 10
-0.4079370078740158
 20
0.5218582677165354
 30
0.0
 10
-0.4070196850393701
 20
0.5218031496062993
 30
0.0
 10
-0.4070196850393701
 20
0.5218031496062993
 30
0.0
 10
-0.4070196850393701
 20
0.5218031496062993
 30
0.0
 10
-0.4070196850393701
 20
0.5149685039370079
 30
0.0
 10
-0.4070196850393701
 20
0.5149685039370079
 30
0.0
 10
-0.4070196850393701
 20
0.5149685039370079
 30
0.0
 10
-0.4070196850393701
 20
0.5149685039370079
 30
0.0
 10
-0.4409370078740157
 20
0.5149685039370079
 30
0.0
 10
-0.4409370078740157
 20
0.5149685039370079
 30
0.0
 10
-0.4409370078740157
 20
0.5149685039370079
 30
0.0
 10
-0.4409370078740157
 20
0.5149685039370079
 30
0.0
 10
-0.4409370078740157
 20
0.5218031496062993
 30
0.0
 10
-0.4409370078740157
 20
0.5218031496062993
 30
0.0
 10
-0.4409370078740157
 20
0.5218031496062993
 30
0.0
 10
-0.4377952755905512
 20
0.5218031496062993
 30
0.0
 10
-0.4355196850393701
 20
0.5221062992125984
 30
0.0
 10
-0.4341574803149607
 20
0.522748031496063
 30
0.0
 10
-0.4341574803149607
 20
0.522748031496063
 30
0.0
 10
-0.4327677165354331
 20
0.5233582677165355
 30
0.0
 10
-0.4315472440944882
 20
0.5243582677165355
 30
0.0
 10
-0.4305196850393701
 20
0.525748031496063
 30
0.0
 10
-0.4305196850393701
 20
0.525748031496063
 30
0.0
 10
-0.429492125984252
 20
0.5271338582677165
 30
0.0
 10
-0.4281299212598426
 20
0.5300511811023623
 30
0.0
 10
-0.4264645669291339
 20
0.534496062992126
 30
0.0
 10
-0.4264645669291339
 20
0.534496062992126
 30
0.0
 10
-0.4264645669291339
 20
0.534496062992126
 30
0.0
 10
-0.3910472440944882
 20
0.628496062992126
 30
0.0
 10
-0.3910472440944882
 20
0.628496062992126
 30
0.0
  0
SPLINE
  5
30
330
1F
100
AcDbEntity
  8
P1-Layer 1
 62
   250
100
AcDbSpline
210
0.0
220
0.0
230
1.0
 70
    11
 71
     3
 72
    16
 73
    12
 74
     0
 42
0.0000000001
 43
0.0000000001
 40
0.0
 40
0.0
 40
0.0
 40
0.0
 40
0.3333333333333333
 40
0.3333333333333333
 40
0.3333333333333333
 40
0.3333333333333333
 40
0.6666666666666666
 40
0.6666666666666666
 40
0.6666666666666666
 40
0.6666666666666666
 40
1.0
 40
1.0
 40
1.0
 40
1.0
 10
-0.4052952755905512
 20
0.5650236220472441
 30
0.0
 10
-0.4052952755905512
 20
0.5650236220472441
 30
0.0
 10
-0.3702125984251969
 20
0.5650236220472441
 30
0.0
 10
-0.3702125984251969
 20
0.5650236220472441
 30
0.0
 10
-0.3702125984251969
 20
0.5650236220472441
 30
0.0
 10
-0.3702125984251969
 20
0.5650236220472441
 30
0.0
 10
-0.3877952755905512
 20
0.6138582677165355
 30
0.0
 10
-0.3877952755905512
 20
0.6138582677165355
 30
0.0
 10
-0.3877952755905512
 20
0.6138582677165355
 30
0.0
 10
-0.3877952755905512
 20
0.6138582677165355
 30
0.0
 10
-0.4052952755905512
 20
0.5650236220472441
 30
0.0
 10
-0.4052952755905512
 20
0.5650236220472441
 30
0.0
  0
SPLINE
  5
31
330
1F
100
AcDbEntity
  8
P1-Layer 1
 62
   250
100
AcDbSpline
210
0.0
220
0.0
230
1.0
 70
    11
 71
     3
 72
    72
 73
    68
 74
     0
 42
0.0000000001
 43
0.0000000001
 40
0.0
 40
0.0
 40
0.0
 40
0.0
 40
0.0588235294117647
 40
0.0588235294117647
 40
0.0588235294117647
 40
0.0588235294117647
 40
0.1176470588235294
 40
0.1176470588235294
 40
0.1176470588235294
 40
0.1176470588235294
 40
0.1764705882352941
 40
0.1764705882352941
 40
0.1764705882352941
 40
0.1764705882352941
 40
0.2352941176470588
 40
0.2352941176470588
 40
0.2352941176470588
 40
0.2352941176470588
 40
0.2941176470588235
 40
0.2941176470588235
 40
0.2941176470588235
 40
0.2941176470588235
 40
0.3529411764705883
 40
0.3529411764705883
 40
0.3529411764705883
 40
0.3529411764705883
 40
0.411764705882353
 40
0.411764705882353
 40
0.411764705882353
 40
0.411764705882353
 40
0.4705882352941177
 40
0.4705882352941177
 40
0.4705882352941177
 40
0.4705882352941177
 40
0.5294117647058824
 40
0.5294117647058824
 40
0.5294117647058824
 40
0.5294117647058824
 40
0.5882352941176471
 40
0.5882352941176471
 40
0.5882352941176471
 40
0.5882352941176471
 40
0.6470588235294118
 40
0.6470588235294118
 40
0.6470588235294118
 40
0.6470588235294118
 40
0.7058823529411765
 40
0.7058823529411765
 40
0.7058823529411765
 40
0.7058823529411765
 40
0.7647058823529412
 40
0.7647058823529412
 40
0.7647058823529412
 40
0.7647058823529412
 40
0.823529411764706
 40
0.823529411764706
 40
0.823529411764706
 40
0.823529411764706
 40
0.8823529411764707
 40
0.8823529411764707
 40
0.8823529411764707
 40
0.8823529411764707
 40
0.9411764705882354
 40
0.9411764705882354
 40
0.9411764705882354
 40
0.9411764705882354
 40
1.0
 40
1.0
 40
1.0
 40
1.0
 10
-0.1652125984251969
 20
0.628496062992126
 30
0.0
 10
-0.1652125984251969
 20
0.628496062992126
 30
0.0
 10
-0.1591299212598425
 20
0.628496062992126
 30
0.0
 10
-0.1591299212598425
 20
0.628496062992126
 30
0.0
 10
-0.1591299212598425
 20
0.628496062992126
 30
0.0
 10
-0.1591299212598425
 20
0.628496062992126
 30
0.0
 10
-0.1591299212598425
 20
0.534248031496063
 30
0.0
 10
-0.1591299212598425
 20
0.534248031496063
 30
0.0
 10
-0.1591299212598425
 20
0.534248031496063
 30
0.0
 10
-0.1591299212598425
 20
0.5298031496062993
 30
0.0
 10
-0.1588228346456693
 20
0.5269409448818898
 30
0.0
 10
-0.1582677165354331
 20
0.5256614173228347
 30
0.0
 10
-0.1582677165354331
 20
0.5256614173228347
 30
0.0
 10
-0.1576850393700787
 20
0.5243858267716536
 30
0.0
 10
-0.1567677165354331
 20
0.5234409448818898
 30
0.0
 10
-0.1554645669291339
 20
0.5227755905511812
 30
0.0
 10
-0.1554645669291339
 20
0.5227755905511812
 30
0.0
 10
-0.1541574803149606
 20
0.5221338582677165
 30
0.0
 10
-0.1515748031496063
 20
0.5218031496062993
 30
0.0
 10
-0.1477125984251969
 20
0.5218031496062993
 30
0.0
 10
-0.1477125984251969
 20
0.5218031496062993
 30
0.0
 10
-0.1477125984251969
 20
0.5218031496062993
 30
0.0
 10
-0.139740157480315
 20
0.5218031496062993
 30
0.0
 10
-0.139740157480315
 20
0.5218031496062993
 30
0.0
 10
-0.139740157480315
 20
0.5218031496062993
 30
0.0
 10
-0.139740157480315
 20
0.5218031496062993
 30
0.0
 10
-0.139740157480315
 20
0.5149685039370079
 30
0.0
 10
-0.139740157480315
 20
0.5149685039370079
 30
0.0
 10
-0.139740157480315
 20
0.5149685039370079
 30
0.0
 10
-0.139740157480315
 20
0.5149685039370079
 30
0.0
 10
-0.1933779527559055
 20
0.5149685039370079
 30
0.0
 10
-0.1933779527559055
 20
0.5149685039370079
 30
0.0
 10
-0.1933779527559055
 20
0.5149685039370079
 30
0.0
 10
-0.1933779527559055
 20
0.5149685039370079
 30
0.0
 10
-0.1933779527559055
 20
0.5218031496062993
 30
0.0
 10
-0.1933779527559055
 20
0.5218031496062993
 30
0.0
 10
-0.1933779527559055
 20
0.5218031496062993
 30
0.0
 10
-0.1933779527559055
 20
0.5218031496062993
 30
0.0
 10
-0.1845196850393701
 20
0.5218031496062993
 30
0.0
 10
-0.1845196850393701
 20
0.5218031496062993
 30
0.0
 10
-0.1845196850393701
 20
0.5218031496062993
 30
0.0
 10
-0.1806574803149607
 20
0.5218031496062993
 30
0.0
 10
-0.1781023622047244
 20
0.5221338582677165
 30
0.0
 10
-0.1768228346456693
 20
0.5228307086614173
 30
0.0
 10
-0.1768228346456693
 20
0.5228307086614173
 30
0.0
 10
-0.1755472440944882
 20
0.523496062992126
 30
0.0
 10
-0.1745472440944882
 20
0.5245787401574803
 30
0.0
 10
-0.1738503937007874
 20
0.5260787401574804
 30
0.0
 10
-0.1738503937007874
 20
0.5260787401574804
 30
0.0
 10
-0.1731574803149606
 20
0.5275787401574803
 30
0.0
 10
-0.1727952755905512
 20
0.5303031496062992
 30
0.0
 10
-0.1727952755905512
 20
0.534248031496063
 30
0.0
 10
-0.1727952755905512
 20
0.534248031496063
 30
0.0
 10
-0.1727952755905512
 20
0.534248031496063
 30
0.0
 10
-0.1727952755905512
 20
0.6117165354330709
 30
0.0
 10
-0.1727952755905512
 20
0.6117165354330709
 30
0.0
 10
-0.1727952755905512
 20
0.6117165354330709
 30
0.0
 10
-0.1727952755905512
 20
0.6117165354330709
 30
0.0
 10
-0.1933779527559055
 20
0.6117165354330709
 30
0.0
 10
-0.1933779527559055
 20
0.6117165354330709
 30
0.0
 10
-0.1933779527559055
 20
0.6117165354330709
 30
0.0
 10
-0.1933779527559055
 20
0.6117165354330709
 30
0.0
 10
-0.1933779527559055
 20
0.6187165354330709
 30
0.0
 10
-0.1933779527559055
 20
0.6187165354330709
 30
0.0
 10
-0.1933779527559055
 20
0.6187165354330709
 30
0.0
 10
-0.1821574803149606
 20
0.6202992125984252
 30
0.0
 10
-0.1727677165354331
 20
0.6235511811023622
 30
0.0
 10
-0.1652125984251969
 20
0.628496062992126
 30
0.0
  0
SPLINE
  5
32
330
1F
100
AcDbEntity
  8
P1-Layer 1
 62
   250
100
AcDbSpline
210
0.0
220
0.0
230
1.0
 70
    11
 71
     3
 72
    84
 73
    80
 74
     0
 42
0.0000000001
 43
0.0000000001
 40
0.0
 40
0.0
 40
0.0
 40
0.0
 40
0.05
 40
0.05
 40
0.05
 40
0.05
 40
0.1
 40
0.1
 40
0.1
 40
0.1
 40
0.15
 40
0.15
 40
0.15
 40
0.15
 40
0.2
 40
0.2
 40
0.2
 40
0.2
 40
0.25
 40
0.25
 40
0.25
 40
0.25
 40
0.3
 40
0.3
 40
0.3
 40
0.3
 40
0.35
 40
0.35
 40
0.35
 40
0.35
 40
0.4
 40
0.4
 40
0.4
 40
0.4
 40
0.45
 40
0.45
 40
0.45
 40
0.45
 40
0.4999999999999999
 40
0.4999999999999999
 40
0.4999999999999999
 40
0.4999999999999999
 40
0.5499999999999999
 40
0.5499999999999999
 40
0.5499999999999999
 40
0.5499999999999999
 40
0.6
 40
0.6
 40
0.6
 40
0.6
 40
0.65
 40
0.65
 40
0.65
 40
0.65
 40
0.7000000000000001
 40
0.7000000000000001
 40
0.7000000000000001
 40
0.7000000000000001
 40
0.7500000000000001
 40
0.7500000000000001
 40
0.7500000000000001
 40
0.7500000000000001
 40
0.8000000000000002
 40
0.8000000000000002
 40
0.8000000000000002
 40
0.8000000000000002
 40
0.8500000000000002
 40
0.8500000000000002
 40
0.8500000000000002
 40
0.8500000000000002
 40
0.9000000000000002
 40
0.9000000000000002
 40
0.9000000000000002
 40
0.9000000000000002
 40
0.9500000000000003
 40
0.9500000000000003
 40
0.9500000000000003
 40
0.9500000000000003
 40
1.0
 40
1.0
 40
1.0
 40
1.0
 10
-0.0335472440944882
 20
0.6306062992125985
 30
0.0
 10
-0.0335472440944882
 20
0.6306062992125985
 30
0.0
 10
-0.0335472440944882
 20
0.6231889763779528
 30
0.0
 10
-0.0335472440944882
 20
0.6231889763779528
 30
0.0
 10
-0.0335472440944882
 20
0.6231889763779528
 30
0.0
 10
-0.0469330708661417
 20
0.6230511811023622
 30
0.0
 10
-0.0577677165354331
 20
0.6210787401574803
 30
0.0
 10
-0.0660433070866142
 20
0.6173582677165355
 30
0.0
 10
-0.0660433070866142
 20
0.6173582677165355
 30
0.0
 10
-0.0743228346456693
 20
0.6136062992125985
 30
0.0
 10
-0.0804055118110236
 20
0.6079960629921261
 30
0.0
 10
-0.0843228346456693
 20
0.6005511811023623
 30
0.0
 10
-0.0843228346456693
 20
0.6005511811023623
 30
0.0
 10
-0.088240157480315
 20
0.5930787401574803
 30
0.0
 10
-0.0904330708661417
 20
0.5838858267716536
 30
0.0
 10
-0.0909055118110236
 20
0.572996062992126
 30
0.0
 10
-0.0909055118110236
 20
0.572996062992126
 30
0.0
 10
-0.0881574803149606
 20
0.5772165354330709
 30
0.0
 10
-0.0853228346456693
 20
0.5805236220472442
 30
0.0
 10
-0.0824055118110236
 20
0.5828858267716536
 30
0.0
 10
-0.0824055118110236
 20
0.5828858267716536
 30
0.0
 10
-0.0795157480314961
 20
0.585244094488189
 30
0.0
 10
-0.0761299212598425
 20
0.5870511811023622
 30
0.0
 10
-0.072240157480315
 20
0.5883307086614174
 30
0.0
 10
-0.072240157480315
 20
0.5883307086614174
 30
0.0
 10
-0.0683503937007874
 20
0.5896062992125984
 30
0.0
 10
-0.0641023622047244
 20
0.590244094488189
 30
0.0
 10
-0.059488188976378
 20
0.590244094488189
 30
0.0
 10
-0.059488188976378
 20
0.590244094488189
 30
0.0
 10
-0.0521299212598425
 20
0.590244094488189
 30
0.0
 10
-0.0455472440944882
 20
0.5886062992125984
 30
0.0
 10
-0.0397952755905512
 20
0.5853582677165354
 30
0.0
 10
-0.0397952755905512
 20
0.5853582677165354
 30
0.0
 10
-0.0340472440944882
 20
0.5821062992125985
 30
0.0
 10
-0.0295748031496063
 20
0.5776889763779528
 30
0.0
 10
-0.0263779527559055
 20
0.5721338582677166
 30
0.0
 10
-0.0263779527559055
 20
0.5721338582677166
 30
0.0
 10
-0.0231850393700787
 20
0.5665787401574803
 30
0.0
 10
-0.0215748031496063
 20
0.5600236220472441
 30
0.0
 10
-0.0215748031496063
 20
0.5524960629921261
 30
0.0
 10
-0.0215748031496063
 20
0.5524960629921261
 30
0.0
 10
-0.0215748031496063
 20
0.5404960629921261
 30
0.0
 10
-0.0251850393700787
 20
0.5310787401574804
 30
0.0
 10
-0.0324055118110236
 20
0.524248031496063
 30
0.0
 10
-0.0324055118110236
 20
0.524248031496063
 30
0.0
 10
-0.0403779527559055
 20
0.516748031496063
 30
0.0
 10
-0.0507125984251969
 20
0.5130236220472442
 30
0.0
 10
-0.0634055118110236
 20
0.5130236220472442
 30
0.0
 10
-0.0634055118110236
 20
0.5130236220472442
 30
0.0
 10
-0.0725748031496063
 20
0.5130236220472442
 30
0.0
 10
-0.0802952755905512
 20
0.5149133858267717
 30
0.0
 10
-0.0866023622047244
 20
0.5187165354330708
 30
0.0
 10
-0.0866023622047244
 20
0.5187165354330708
 30
0.0
 10
-0.0929055118110236
 20
0.522496062992126
 30
0.0
 10
-0.0979055118110236
 20
0.5283031496062992
 30
0.0
 10
-0.1016299212598425
 20
0.5361338582677165
 30
0.0
 10
-0.1016299212598425
 20
0.5361338582677165
 30
0.0
 10
-0.1053228346456693
 20
0.5439409448818898
 30
0.0
 10
-0.1071850393700787
 20
0.5536062992125984
 30
0.0
 10
-0.1071850393700787
 20
0.5651062992125985
 30
0.0
 10
-0.1071850393700787
 20
0.5651062992125985
 30
0.0
 10
-0.1071850393700787
 20
0.5766614173228347
 30
0.0
 10
-0.1052125984251969
 20
0.5869133858267717
 30
0.0
 10
-0.1012952755905512
 20
0.5958582677165355
 30
0.0
 10
-0.1012952755905512
 20
0.5958582677165355
 30
0.0
 10
-0.0973503937007874
 20
0.6047992125984252
 30
0.0
 10
-0.0919055118110236
 20
0.6119960629921261
 30
0.0
 10
-0.0849606299212598
 20
0.6174133858267716
 30
0.0
 10
-0.0849606299212598
 20
0.6174133858267716
 30
0.0
 10
-0.0780157480314961
 20
0.6228582677165354
 30
0.0
 10
-0.0704055118110236
 20
0.6264133858267716
 30
0.0
 10
-0.0621574803149606
 20
0.6280787401574803
 30
0.0
 10
-0.0621574803149606
 20
0.6280787401574803
 30
0.0
 10
-0.0538779527559055
 20
0.6297716535433071
 30
0.0
 10
-0.0464606299212598
 20
0.6306062992125985
 30
0.0
 10
-0.0398779527559055
 20
0.6306062992125985
 30
0.0
 10
-0.0398779527559055
 20
0.6306062992125985
 30
0.0
 10
-0.0398779527559055
 20
0.6306062992125985
 30
0.0
 10
-0.0335472440944882
 20
0.6306062992125985
 30
0.0
 10
-0.0335472440944882
 20
0.6306062992125985
 30
0.0
  0
SPLINE
  5
33
330
1F
100
AcDbEntity
  8
P1-Layer 1
 62
   250
100
AcDbSpline
210
0.0
220
0.0
230
1.0
 70
    11
 71
     3
 72
    40
 73
    36
 74
     0
 42
0.0000000001
 43
0.0000000001
 40
0.0
 40
0.0
 40
0.0
 40
0.0
 40
0.1111111111111111
 40
0.1111111111111111
 40
0.1111111111111111
 40
0.1111111111111111
 40
0.2222222222222222
 40
0.2222222222222222
 40
0.2222222222222222
 40
0.2222222222222222
 40
0.3333333333333333
 40
0.3333333333333333
 40
0.3333333333333333
 40
0.3333333333333333
 40
0.4444444444444444
 40
0.4444444444444444
 40
0.4444444444444444
 40
0.4444444444444444
 40
0.5555555555555556
 40
0.5555555555555556
 40
0.5555555555555556
 40
0.5555555555555556
 40
0.6666666666666667
 40
0.6666666666666667
 40
0.6666666666666667
 40
0.6666666666666667
 40
0.7777777777777779
 40
0.7777777777777779
 40
0.7777777777777779
 40
0.7777777777777779
 40
0.8888888888888891
 40
0.8888888888888891
 40
0.8888888888888891
 40
0.8888888888888891
 40
1.0
 40
1.0
 40
1.0
 40
1.0
 10
-0.063240157480315
 20
0.5816062992125984
 30
0.0
 10
-0.0710433070866142
 20
0.5816062992125984
 30
0.0
 10
-0.0774606299212598
 20
0.5786614173228347
 30
0.0
 10
-0.082488188976378
 20
0.572744094488189
 30
0.0
 10
-0.082488188976378
 20
0.572744094488189
 30
0.0
 10
-0.0875157480314961
 20
0.5668307086614174
 30
0.0
 10
-0.0900157480314961
 20
0.5597165354330709
 30
0.0
 10
-0.0900157480314961
 20
0.5514409448818898
 30
0.0
 10
-0.0900157480314961
 20
0.5514409448818898
 30
0.0
 10
-0.0900157480314961
 20
0.5455787401574803
 30
0.0
 10
-0.0887952755905512
 20
0.5401614173228346
 30
0.0
 10
-0.0863503937007874
 20
0.5351889763779528
 30
0.0
 10
-0.0863503937007874
 20
0.5351889763779528
 30
0.0
 10
-0.0839055118110236
 20
0.5302165354330709
 30
0.0
 10
-0.0807677165354331
 20
0.5265511811023622
 30
0.0
 10
-0.0769055118110236
 20
0.5241338582677165
 30
0.0
 10
-0.0769055118110236
 20
0.5241338582677165
 30
0.0
 10
-0.0730748031496063
 20
0.5217165354330708
 30
0.0
 10
-0.0687125984251969
 20
0.520496062992126
 30
0.0
 10
-0.0639055118110236
 20
0.520496062992126
 30
0.0
 10
-0.0639055118110236
 20
0.520496062992126
 30
0.0
 10
-0.0564055118110236
 20
0.520496062992126
 30
0.0
 10
-0.0501850393700787
 20
0.5233307086614173
 30
0.0
 10
-0.0452125984251969
 20
0.528996062992126
 30
0.0
 10
-0.0452125984251969
 20
0.528996062992126
 30
0.0
 10
-0.0402677165354331
 20
0.5346614173228347
 30
0.0
 10
-0.0377677165354331
 20
0.5422755905511811
 30
0.0
 10
-0.0377677165354331
 20
0.5518307086614174
 30
0.0
 10
-0.0377677165354331
 20
0.5518307086614174
 30
0.0
 10
-0.0377677165354331
 20
0.5609409448818898
 30
0.0
 10
-0.0401850393700787
 20
0.5681889763779527
 30
0.0
 10
-0.0450157480314961
 20
0.5735511811023623
 30
0.0
 10
-0.0450157480314961
 20
0.5735511811023623
 30
0.0
 10
-0.0498503937007874
 20
0.5789409448818897
 30
0.0
 10
-0.0559330708661417
 20
0.5816062992125984
 30
0.0
 10
-0.063240157480315
 20
0.5816062992125984
 30
0.0
  0
SPLINE
  5
34
330
1F
100
AcDbEntity
  8
P1-Layer 1
 62
   250
100
AcDbSpline
210
0.0
220
0.0
230
1.0
 70
    11
 71
     3
 72
    80
 73
    76
 74
     0
 42
0.0000000001
 43
0.0000000001
 40
0.0
 40
0.0
 40
0.0
 40
0.0
 40
0.0526315789473684
 40
0.0526315789473684
 40
0.0526315789473684
 40
0.0526315789473684
 40
0.1052631578947368
 40
0.1052631578947368
 40
0.1052631578947368
 40
0.1052631578947368
 40
0.1578947368421053
 40
0.1578947368421053
 40
0.1578947368421053
 40
0.1578947368421053
 40
0.2105263157894737
 40
0.2105263157894737
 40
0.2105263157894737
 40
0.2105263157894737
 40
0.2631578947368421
 40
0.2631578947368421
 40
0.2631578947368421
 40
0.2631578947368421
 40
0.3157894736842105
 40
0.3157894736842105
 40
0.3157894736842105
 40
0.3157894736842105
 40
0.3684210526315789
 40
0.3684210526315789
 40
0.3684210526315789
 40
0.3684210526315789
 40
0.4210526315789474
 40
0.4210526315789474
 40
0.4210526315789474
 40
0.4210526315789474
 40
0.4736842105263158
 40
0.4736842105263158
 40
0.4736842105263158
 40
0.4736842105263158
 40
0.5263157894736842
 40
0.5263157894736842
 40
0.5263157894736842
 40
0.5263157894736842
 40
0.5789473684210527
 40
0.5789473684210527
 40
0.5789473684210527
 40
0.5789473684210527
 40
0.631578947368421
 40
0.631578947368421
 40
0.631578947368421
 40
0.631578947368421
 40
0.6842105263157894
 40
0.6842105263157894
 40
0.6842105263157894
 40
0.6842105263157894
 40
0.7368421052631577
 40
0.7368421052631577
 40
0.7368421052631577
 40
0.7368421052631577
 40
0.7894736842105261
 40
0.7894736842105261
 40
0.7894736842105261
 40
0.7894736842105261
 40
0.8421052631578945
 40
0.8421052631578945
 40
0.8421052631578945
 40
0.8421052631578945
 40
0.8947368421052628
 40
0.8947368421052628
 40
0.8947368421052628
 40
0.8947368421052628
 40
0.9473684210526312
 40
0.9473684210526312
 40
0.9473684210526312
 40
0.9473684210526312
 40
1.0
 40
1.0
 40
1.0
 40
1.0
 10
0.0035669291338583
 20
0.6326338582677166
 30
0.0
 10
0.0035669291338583
 20
0.6326338582677166
 30
0.0
 10
0.0089566929133858
 20
0.6326338582677166
 30
0.0
 10
0.0089566929133858
 20
0.6326338582677166
 30
0.0
 10
0.0089566929133858
 20
0.6326338582677166
 30
0.0
 10
0.0089566929133858
 20
0.6326338582677166
 30
0.0
 10
0.0099291338582677
 20
0.628496062992126
 30
0.0
 10
0.0099291338582677
 20
0.628496062992126
 30
0.0
 10
0.0099291338582677
 20
0.628496062992126
 30
0.0
 10
0.0099291338582677
 20
0.628496062992126
 30
0.0
 10
0.0810393700787402
 20
0.628496062992126
 30
0.0
 10
0.0810393700787402
 20
0.628496062992126
 30
0.0
 10
0.0810393700787402
 20
0.628496062992126
 30
0.0
 10
0.0810393700787402
 20
0.628496062992126
 30
0.0
 10
0.0810393700787402
 20
0.6215787401574804
 30
0.0
 10
0.0810393700787402
 20
0.6215787401574804
 30
0.0
 10
0.0810393700787402
 20
0.6215787401574804
 30
0.0
 10
0.0725393700787402
 20
0.611744094488189
 30
0.0
 10
0.0648149606299213
 20
0.6005787401574804
 30
0.0
 10
0.0579015748031496
 20
0.587996062992126
 30
0.0
 10
0.0579015748031496
 20
0.587996062992126
 30
0.0
 10
0.0509842519685039
 20
0.5754409448818898
 30
0.0
 10
0.0456220472440945
 20
0.5626614173228347
 30
0.0
 10
0.0418149606299213
 20
0.5496338582677166
 30
0.0
 10
0.0418149606299213
 20
0.5496338582677166
 30
0.0
 10
0.0390669291338583
 20
0.540248031496063
 30
0.0
 10
0.0368188976377953
 20
0.5286889763779528
 30
0.0
 10
0.0350669291338583
 20
0.5149685039370079
 30
0.0
 10
0.0350669291338583
 20
0.5149685039370079
 30
0.0
 10
0.0350669291338583
 20
0.5149685039370079
 30
0.0
 10
0.0184015748031496
 20
0.5149685039370079
 30
0.0
 10
0.0184015748031496
 20
0.5149685039370079
 30
0.0
 10
0.0184015748031496
 20
0.5149685039370079
 30
0.0
 10
0.0200118110236221
 20
0.5270787401574804
 30
0.0
 10
0.0226771653543307
 20
0.5383858267716536
 30
0.0
 10
0.0264015748031496
 20
0.5489133858267716
 30
0.0
 10
0.0264015748031496
 20
0.5489133858267716
 30
0.0
 10
0.0301220472440945
 20
0.5594409448818898
 30
0.0
 10
0.0354842519685039
 20
0.5704409448818898
 30
0.0
 10
0.0425118110236221
 20
0.5819133858267717
 30
0.0
 10
0.0425118110236221
 20
0.5819133858267717
 30
0.0
 10
0.0495393700787402
 20
0.5933858267716535
 30
0.0
 10
0.0580669291338583
 20
0.6048307086614173
 30
0.0
 10
0.0681220472440945
 20
0.6162716535433072
 30
0.0
 10
0.0681220472440945
 20
0.6162716535433072
 30
0.0
 10
0.0681220472440945
 20
0.6162716535433072
 30
0.0
 10
0.0174015748031496
 20
0.6162716535433072
 30
0.0
 10
0.0174015748031496
 20
0.6162716535433072
 30
0.0
 10
0.0174015748031496
 20
0.6162716535433072
 30
0.0
 10
0.0137322834645669
 20
0.6162716535433072
 30
0.0
 10
0.0112047244094488
 20
0.6161062992125984
 30
0.0
 10
0.0098464566929134
 20
0.6157165354330709
 30
0.0
 10
0.0098464566929134
 20
0.6157165354330709
 30
0.0
 10
0.0084842519685039
 20
0.6153307086614174
 30
0.0
 10
0.0074291338582677
 20
0.614744094488189
 30
0.0
 10
0.0066771653543307
 20
0.6139409448818898
 30
0.0
 10
0.0066771653543307
 20
0.6139409448818898
 30
0.0
 10
0.0059015748031496
 20
0.6131062992125984
 30
0.0
 10
0.005259842519685
 20
0.6116614173228346
 30
0.0
 10
0.0047047244094488
 20
0.6096062992125985
 30
0.0
 10
0.0047047244094488
 20
0.6096062992125985
 30
0.0
 10
0.0047047244094488
 20
0.6096062992125985
 30
0.0
 10
0.0043188976377953
 20
0.6080787401574803
 30
0.0
 10
0.0043188976377953
 20
0.6080787401574803
 30
0.0
 10
0.0043188976377953
 20
0.6080787401574803
 30
0.0
 10
0.0043188976377953
 20
0.6080787401574803
 30
0.0
 10
0.0015393700787402
 20
0.5984685039370079
 30
0.0
 10
0.0015393700787402
 20
0.5984685039370079
 30
0.0
 10
0.0015393700787402
 20
0.5984685039370079
 30
0.0
 10
0.0015393700787402
 20
0.5984685039370079
 30
0.0
 10
-0.0053779527559055
 20
0.5999409448818898
 30
0.0
 10
-0.0053779527559055
 20
0.5999409448818898
 30
0.0
 10
-0.0053779527559055
 20
0.5999409448818898
 30
0.0
 10
-0.0053779527559055
 20
0.5999409448818898
 30
0.0
 10
0.0035669291338583
 20
0.6326338582677166
 30
0.0
 10
0.0035669291338583
 20
0.6326338582677166
 30
0.0
  0
SPLINE
  5
35
330
1F
100
AcDbEntity
  8
P1-Layer 1
 62
   250
100
AcDbSpline
210
0.0
220
0.0
230
1.0
 70
    11
 71
     3
 72
    84
 73
    80
 74
     0
 42
0.0000000001
 43
0.0000000001
 40
0.0
 40
0.0
 40
0.0
 40
0.0
 40
0.05
 40
0.05
 40
0.05
 40
0.05
 40
0.1
 40
0.1
 40
0.1
 40
0.1
 40
0.15
 40
0.15
 40
0.15
 40
0.15
 40
0.2
 40
0.2
 40
0.2
 40
0.2
 40
0.25
 40
0.25
 40
0.25
 40
0.25
 40
0.3
 40
0.3
 40
0.3
 40
0.3
 40
0.35
 40
0.35
 40
0.35
 40
0.35
 40
0.4
 40
0.4
 40
0.4
 40
0.4
 40
0.45
 40
0.45
 40
0.45
 40
0.45
 40
0.4999999999999999
 40
0.4999999999999999
 40
0.4999999999999999
 40
0.4999999999999999
 40
0.5499999999999999
 40
0.5499999999999999
 40
0.5499999999999999
 40
0.5499999999999999
 40
0.6
 40
0.6
 40
0.6
 40
0.6
 40
0.65
 40
0.65
 40
0.65
 40
0.65
 40
0.7000000000000001
 40
0.7000000000000001
 40
0.7000000000000001
 40
0.7000000000000001
 40
0.7500000000000001
 40
0.7500000000000001
 40
0.7500000000000001
 40
0.7500000000000001
 40
0.8000000000000002
 40
0.8000000000000002
 40
0.8000000000000002
 40
0.8000000000000002
 40
0.8500000000000002
 40
0.8500000000000002
 40
0.8500000000000002
 40
0.8500000000000002
 40
0.9000000000000002
 40
0.9000000000000002
 40
0.9000000000000002
 40
0.9000000000000002
 40
0.9500000000000003
 40
0.9500000000000003
 40
0.9500000000000003
 40
0.9500000000000003
 40
1.0
 40
1.0
 40
1.0
 40
1.0
 10
0.1731771653543307
 20
0.6306062992125985
 30
0.0
 10
0.1731771653543307
 20
0.6306062992125985
 30
0.0
 10
0.1731771653543307
 20
0.6231889763779528
 30
0.0
 10
0.1731771653543307
 20
0.6231889763779528
 30
0.0
 10
0.1731771653543307
 20
0.6231889763779528
 30
0.0
 10
0.1597913385826772
 20
0.6230511811023622
 30
0.0
 10
0.1489566929133858
 20
0.6210787401574803
 30
0.0
 10
0.1406811023622047
 20
0.6173582677165355
 30
0.0
 10
0.1406811023622047
 20
0.6173582677165355
 30
0.0
 10
0.1324015748031496
 20
0.6136062992125985
 30
0.0
 10
0.1263188976377953
 20
0.6079960629921261
 30
0.0
 10
0.1224015748031496
 20
0.6005511811023623
 30
0.0
 10
0.1224015748031496
 20
0.6005511811023623
 30
0.0
 10
0.1184842519685039
 20
0.5930787401574803
 30
0.0
 10
0.1162913385826772
 20
0.5838858267716536
 30
0.0
 10
0.1158188976377953
 20
0.572996062992126
 30
0.0
 10
0.1158188976377953
 20
0.572996062992126
 30
0.0
 10
0.1185669291338583
 20
0.5772165354330709
 30
0.0
 10
0.1214015748031496
 20
0.5805236220472442
 30
0.0
 10
0.1243188976377953
 20
0.5828858267716536
 30
0.0
 10
0.1243188976377953
 20
0.5828858267716536
 30
0.0
 10
0.1272086614173228
 20
0.585244094488189
 30
0.0
 10
0.1305944881889764
 20
0.5870511811023622
 30
0.0
 10
0.1344842519685039
 20
0.5883307086614174
 30
0.0
 10
0.1344842519685039
 20
0.5883307086614174
 30
0.0
 10
0.1383740157480315
 20
0.5896062992125984
 30
0.0
 10
0.1426220472440945
 20
0.590244094488189
 30
0.0
 10
0.147236220472441
 20
0.590244094488189
 30
0.0
 10
0.147236220472441
 20
0.590244094488189
 30
0.0
 10
0.1545944881889764
 20
0.590244094488189
 30
0.0
 10
0.1611771653543307
 20
0.5886062992125984
 30
0.0
 10
0.1669291338582677
 20
0.5853582677165354
 30
0.0
 10
0.1669291338582677
 20
0.5853582677165354
 30
0.0
 10
0.1726771653543307
 20
0.5821062992125985
 30
0.0
 10
0.1771496062992126
 20
0.5776889763779528
 30
0.0
 10
0.1803464566929134
 20
0.5721338582677166
 30
0.0
 10
0.1803464566929134
 20
0.5721338582677166
 30
0.0
 10
0.1835393700787402
 20
0.5665787401574803
 30
0.0
 10
0.1851496062992126
 20
0.5600236220472441
 30
0.0
 10
0.1851496062992126
 20
0.5524960629921261
 30
0.0
 10
0.1851496062992126
 20
0.5524960629921261
 30
0.0
 10
0.1851496062992126
 20
0.5404960629921261
 30
0.0
 10
0.1815393700787402
 20
0.5310787401574804
 30
0.0
 10
0.1743188976377953
 20
0.524248031496063
 30
0.0
 10
0.1743188976377953
 20
0.524248031496063
 30
0.0
 10
0.1663464566929134
 20
0.516748031496063
 30
0.0
 10
0.1560118110236221
 20
0.5130236220472442
 30
0.0
 10
0.1433188976377953
 20
0.5130236220472442
 30
0.0
 10
0.1433188976377953
 20
0.5130236220472442
 30
0.0
 10
0.1341496062992126
 20
0.5130236220472442
 30
0.0
 10
0.1264291338582677
 20
0.5149133858267717
 30
0.0
 10
0.1201220472440945
 20
0.5187165354330708
 30
0.0
 10
0.1201220472440945
 20
0.5187165354330708
 30
0.0
 10
0.1138188976377953
 20
0.522496062992126
 30
0.0
 10
0.1088188976377953
 20
0.5283031496062992
 30
0.0
 10
0.1050944881889764
 20
0.5361338582677165
 30
0.0
 10
0.1050944881889764
 20
0.5361338582677165
 30
0.0
 10
0.1014015748031496
 20
0.5439409448818898
 30
0.0
 10
0.0995393700787402
 20
0.5536062992125984
 30
0.0
 10
0.0995393700787402
 20
0.5651062992125985
 30
0.0
 10
0.0995393700787402
 20
0.5651062992125985
 30
0.0
 10
0.0995393700787402
 20
0.5766614173228347
 30
0.0
 10
0.1015118110236221
 20
0.5869133858267717
 30
0.0
 10
0.1054291338582677
 20
0.5958582677165355
 30
0.0
 10
0.1054291338582677
 20
0.5958582677165355
 30
0.0
 10
0.1093740157480315
 20
0.6047992125984252
 30
0.0
 10
0.1148188976377953
 20
0.6119960629921261
 30
0.0
 10
0.1217637795275591
 20
0.6174133858267716
 30
0.0
 10
0.1217637795275591
 20
0.6174133858267716
 30
0.0
 10
0.1287086614173228
 20
0.6228582677165354
 30
0.0
 10
0.1363188976377953
 20
0.6264133858267716
 30
0.0
 10
0.1445669291338583
 20
0.6280787401574803
 30
0.0
 10
0.1445669291338583
 20
0.6280787401574803
 30
0.0
 10
0.1528464566929134
 20
0.6297716535433071
 30
0.0
 10
0.1602637795275591
 20
0.6306062992125985
 30
0.0
 10
0.1668464566929134
 20
0.6306062992125985
 30
0.0
 10
0.1668464566929134
 20
0.6306062992125985
 30
0.0
 10
0.1668464566929134
 20
0.6306062992125985
 30
0.0
 10
0.1731771653543307
 20
0.6306062992125985
 30
0.0
 10
0.1731771653543307
 20
0.6306062992125985
 30
0.0
  0
SPLINE
  5
36
330
1F
100
AcDbEntity
  8
P1-Layer 1
 62
   250
100
AcDbSpline
210
0.0
220
0.0
230
1.0
 70
    11
 71
     3
 72
    40
 73
    36
 74
     0
 42
0.0000000001
 43
0.0000000001
 40
0.0
 40
0.0
 40
0.0
 40
0.0
 40
0.1111111111111111
 40
0.1111111111111111
 40
0.1111111111111111
 40
0.1111111111111111
 40
0.2222222222222222
 40
0.2222222222222222
 40
0.2222222222222222
 40
0.2222222222222222
 40
0.3333333333333333
 40
0.3333333333333333
 40
0.3333333333333333
 40
0.3333333333333333
 40
0.4444444444444444
 40
0.4444444444444444
 40
0.4444444444444444
 40
0.4444444444444444
 40
0.5555555555555556
 40
0.5555555555555556
 40
0.5555555555555556
 40
0.5555555555555556
 40
0.6666666666666667
 40
0.6666666666666667
 40
0.6666666666666667
 40
0.6666666666666667
 40
0.7777777777777779
 40
0.7777777777777779
 40
0.7777777777777779
 40
0.7777777777777779
 40
0.8888888888888891
 40
0.8888888888888891
 40
0.8888888888888891
 40
0.8888888888888891
 40
1.0
 40
1.0
 40
1.0
 40
1.0
 10
0.143484251968504
 20
0.5816062992125984
 30
0.0
 10
0.1356811023622047
 20
0.5816062992125984
 30
0.0
 10
0.1292637795275591
 20
0.5786614173228347
 30
0.0
 10
0.124236220472441
 20
0.572744094488189
 30
0.0
 10
0.124236220472441
 20
0.572744094488189
 30
0.0
 10
0.1192086614173228
 20
0.5668307086614174
 30
0.0
 10
0.1167086614173228
 20
0.5597165354330709
 30
0.0
 10
0.1167086614173228
 20
0.5514409448818898
 30
0.0
 10
0.1167086614173228
 20
0.5514409448818898
 30
0.0
 10
0.1167086614173228
 20
0.5455787401574803
 30
0.0
 10
0.1179291338582677
 20
0.5401614173228346
 30
0.0
 10
0.1203740157480315
 20
0.5351889763779528
 30
0.0
 10
0.1203740157480315
 20
0.5351889763779528
 30
0.0
 10
0.1228188976377953
 20
0.5302165354330709
 30
0.0
 10
0.1259566929133858
 20
0.5265511811023622
 30
0.0
 10
0.1298188976377953
 20
0.5241338582677165
 30
0.0
 10
0.1298188976377953
 20
0.5241338582677165
 30
0.0
 10
0.1336496062992126
 20
0.5217165354330708
 30
0.0
 10
0.1380118110236221
 20
0.520496062992126
 30
0.0
 10
0.1428188976377953
 20
0.520496062992126
 30
0.0
 10
0.1428188976377953
 20
0.520496062992126
 30
0.0
 10
0.1503188976377953
 20
0.520496062992126
 30
0.0
 10
0.1565393700787402
 20
0.5233307086614173
 30
0.0
 10
0.1615118110236221
 20
0.528996062992126
 30
0.0
 10
0.1615118110236221
 20
0.528996062992126
 30
0.0
 10
0.1664566929133858
 20
0.5346614173228347
 30
0.0
 10
0.1689566929133858
 20
0.5422755905511811
 30
0.0
 10
0.1689566929133858
 20
0.5518307086614174
 30
0.0
 10
0.1689566929133858
 20
0.5518307086614174
 30
0.0
 10
0.1689566929133858
 20
0.5609409448818898
 30
0.0
 10
0.1665393700787402
 20
0.5681889763779527
 30
0.0
 10
0.1617086614173229
 20
0.5735511811023623
 30
0.0
 10
0.1617086614173229
 20
0.5735511811023623
 30
0.0
 10
0.1568740157480315
 20
0.5789409448818897
 30
0.0
 10
0.1507913385826772
 20
0.5816062992125984
 30
0.0
 10
0.143484251968504
 20
0.5816062992125984
 30
0.0
  0
SPLINE
  5
37
330
1F
100
AcDbEntity
  8
P1-Layer 1
 62
   250
100
AcDbSpline
210
0.0
220
0.0
230
1.0
 70
    11
 71
     3
 72
   144
 73
   140
 74
     0
 42
0.0000000001
 43
0.0000000001
 40
0.0
 40
0.0
 40
0.0
 40
0.0
 40
0.0285714285714286
 40
0.0285714285714286
 40
0.0285714285714286
 40
0.0285714285714286
 40
0.0571428571428571
 40
0.0571428571428571
 40
0.0571428571428571
 40
0.0571428571428571
 40
0.0857142857142857
 40
0.0857142857142857
 40
0.0857142857142857
 40
0.0857142857142857
 40
0.1142857142857143
 40
0.1142857142857143
 40
0.1142857142857143
 40
0.1142857142857143
 40
0.1428571428571429
 40
0.1428571428571429
 40
0.1428571428571429
 40
0.1428571428571429
 40
0.1714285714285714
 40
0.1714285714285714
 40
0.1714285714285714
 40
0.1714285714285714
 40
0.2
 40
0.2
 40
0.2
 40
0.2
 40
0.2285714285714286
 40
0.2285714285714286
 40
0.2285714285714286
 40
0.2285714285714286
 40
0.2571428571428572
 40
0.2571428571428572
 40
0.2571428571428572
 40
0.2571428571428572
 40
0.2857142857142858
 40
0.2857142857142858
 40
0.2857142857142858
 40
0.2857142857142858
 40
0.3142857142857143
 40
0.3142857142857143
 40
0.3142857142857143
 40
0.3142857142857143
 40
0.3428571428571429
 40
0.3428571428571429
 40
0.3428571428571429
 40
0.3428571428571429
 40
0.3714285714285715
 40
0.3714285714285715
 40
0.3714285714285715
 40
0.3714285714285715
 40
0.4000000000000001
 40
0.4000000000000001
 40
0.4000000000000001
 40
0.4000000000000001
 40
0.4285714285714287
 40
0.4285714285714287
 40
0.4285714285714287
 40
0.4285714285714287
 40
0.4571428571428572
 40
0.4571428571428572
 40
0.4571428571428572
 40
0.4571428571428572
 40
0.4857142857142858
 40
0.4857142857142858
 40
0.4857142857142858
 40
0.4857142857142858
 40
0.5142857142857144
 40
0.5142857142857144
 40
0.5142857142857144
 40
0.5142857142857144
 40
0.5428571428571429
 40
0.5428571428571429
 40
0.5428571428571429
 40
0.5428571428571429
 40
0.5714285714285715
 40
0.5714285714285715
 40
0.5714285714285715
 40
0.5714285714285715
 40
0.6000000000000001
 40
0.6000000000000001
 40
0.6000000000000001
 40
0.6000000000000001
 40
0.6285714285714287
 40
0.6285714285714287
 40
0.6285714285714287
 40
0.6285714285714287
 40
0.6571428571428573
 40
0.6571428571428573
 40
0.6571428571428573
 40
0.6571428571428573
 40
0.6857142857142858
 40
0.6857142857142858
 40
0.6857142857142858
 40
0.6857142857142858
 40
0.7142857142857144
 40
0.7142857142857144
 40
0.7142857142857144
 40
0.7142857142857144
 40
0.742857142857143
 40
0.742857142857143
 40
0.742857142857143
 40
0.742857142857143
 40
0.7714285714285716
 40
0.7714285714285716
 40
0.7714285714285716
 40
0.7714285714285716
 40
0.8000000000000002
 40
0.8000000000000002
 40
0.8000000000000002
 40
0.8000000000000002
 40
0.8285714285714287
 40
0.8285714285714287
 40
0.8285714285714287
 40
0.8285714285714287
 40
0.8571428571428573
 40
0.8571428571428573
 40
0.8571428571428573
 40
0.8571428571428573
 40
0.8857142857142859
 40
0.8857142857142859
 40
0.8857142857142859
 40
0.8857142857142859
 40
0.9142857142857145
 40
0.9142857142857145
 40
0.9142857142857145
 40
0.9142857142857145
 40
0.9428571428571431
 40
0.9428571428571431
 40
0.9428571428571431
 40
0.9428571428571431
 40
0.9714285714285716
 40
0.9714285714285716
 40
0.9714285714285716
 40
0.9714285714285716
 40
1.0
 40
1.0
 40
1.0
 40
1.0
 10
0.2002913385826772
 20
0.628496062992126
 30
0.0
 10
0.2002913385826772
 20
0.628496062992126
 30
0.0
 10
0.2588740157480315
 20
0.628496062992126
 30
0.0
 10
0.2588740157480315
 20
0.628496062992126
 30
0.0
 10
0.2588740157480315
 20
0.628496062992126
 30
0.0
 10
0.270011811023622
 20
0.628496062992126
 30
0.0
 10
0.2784291338582677
 20
0.6273267716535433
 30
0.0
 10
0.2841259842519685
 20
0.6250236220472442
 30
0.0
 10
0.2841259842519685
 20
0.6250236220472442
 30
0.0
 10
0.2898188976377953
 20
0.6227165354330709
 30
0.0
 10
0.2941811023622047
 20
0.6193858267716536
 30
0.0
 10
0.2972637795275591
 20
0.6150236220472442
 30
0.0
 10
0.2972637795275591
 20
0.6150236220472442
 30
0.0
 10
0.3003188976377953
 20
0.6106614173228346
 30
0.0
 10
0.3018464566929134
 20
0.6056062992125985
 30
0.0
 10
0.3018464566929134
 20
0.5998582677165355
 30
0.0
 10
0.3018464566929134
 20
0.5998582677165355
 30
0.0
 10
0.3018464566929134
 20
0.5939409448818898
 30
0.0
 10
0.3003740157480315
 20
0.5886889763779528
 30
0.0
 10
0.2973740157480315
 20
0.5841062992125985
 30
0.0
 10
0.2973740157480315
 20
0.5841062992125985
 30
0.0
 10
0.2944015748031496
 20
0.5795236220472442
 30
0.0
 10
0.2900984251968504
 20
0.5759133858267717
 30
0.0
 10
0.284484251968504
 20
0.5732716535433071
 30
0.0
 10
0.284484251968504
 20
0.5732716535433071
 30
0.0
 10
0.2788740157480315
 20
0.5706338582677165
 30
0.0
 10
0.2714291338582677
 20
0.5692755905511812
 30
0.0
 10
0.2621535433070866
 20
0.5691614173228347
 30
0.0
 10
0.2621535433070866
 20
0.5691614173228347
 30
0.0
 10
0.2621535433070866
 20
0.5691614173228347
 30
0.0
 10
0.2920984251968504
 20
0.5325511811023622
 30
0.0
 10
0.2920984251968504
 20
0.5325511811023622
 30
0.0
 10
0.2920984251968504
 20
0.5325511811023622
 30
0.0
 10
0.2945393700787402
 20
0.529496062992126
 30
0.0
 10
0.2961259842519685
 20
0.5276338582677166
 30
0.0
 10
0.2969015748031496
 20
0.5269409448818898
 30
0.0
 10
0.2969015748031496
 20
0.5269409448818898
 30
0.0
 10
0.2987913385826772
 20
0.525248031496063
 30
0.0
 10
0.3007913385826772
 20
0.5239685039370079
 30
0.0
 10
0.3028740157480315
 20
0.5231062992125984
 30
0.0
 10
0.3028740157480315
 20
0.5231062992125984
 30
0.0
 10
0.3049566929133858
 20
0.522248031496063
 30
0.0
 10
0.3073188976377953
 20
0.5218031496062993
 30
0.0
 10
0.3099015748031496
 20
0.5218031496062993
 30
0.0
 10
0.3099015748031496
 20
0.5218031496062993
 30
0.0
 10
0.3099015748031496
 20
0.5218031496062993
 30
0.0
 10
0.3119566929133859
 20
0.5218031496062993
 30
0.0
 10
0.3119566929133859
 20
0.5218031496062993
 30
0.0
 10
0.3119566929133859
 20
0.5218031496062993
 30
0.0
 10
0.3119566929133859
 20
0.5218031496062993
 30
0.0
 10
0.3119566929133859
 20
0.5149685039370079
 30
0.0
 10
0.3119566929133859
 20
0.5149685039370079
 30
0.0
 10
0.3119566929133859
 20
0.5149685039370079
 30
0.0
 10
0.3119566929133859
 20
0.5149685039370079
 30
0.0
 10
0.2860669291338583
 20
0.5149685039370079
 30
0.0
 10
0.2860669291338583
 20
0.5149685039370079
 30
0.0
 10
0.2860669291338583
 20
0.5149685039370079
 30
0.0
 10
0.2860669291338583
 20
0.5149685039370079
 30
0.0
 10
0.2444015748031496
 20
0.5691614173228347
 30
0.0
 10
0.2444015748031496
 20
0.5691614173228347
 30
0.0
 10
0.2444015748031496
 20
0.5691614173228347
 30
0.0
 10
0.2444015748031496
 20
0.5691614173228347
 30
0.0
 10
0.2298464566929134
 20
0.5691614173228347
 30
0.0
 10
0.2298464566929134
 20
0.5691614173228347
 30
0.0
 10
0.2298464566929134
 20
0.5691614173228347
 30
0.0
 10
0.2298464566929134
 20
0.5691614173228347
 30
0.0
 10
0.2298464566929134
 20
0.5341614173228346
 30
0.0
 10
0.2298464566929134
 20
0.5341614173228346
 30
0.0
 10
0.2298464566929134
 20
0.5341614173228346
 30
0.0
 10
0.2298464566929134
 20
0.5302755905511811
 30
0.0
 10
0.2299566929133858
 20
0.5278307086614174
 30
0.0
 10
0.230236220472441
 20
0.5268582677165354
 30
0.0
 10
0.230236220472441
 20
0.5268582677165354
 30
0.0
 10
0.2308464566929134
 20
0.524996062992126
 30
0.0
 10
0.2317913385826772
 20
0.5236889763779528
 30
0.0
 10
0.2331259842519685
 20
0.5229409448818898
 30
0.0
 10
0.2331259842519685
 20
0.5229409448818898
 30
0.0
 10
0.2344566929133858
 20
0.5221889763779528
 30
0.0
 10
0.2370433070866142
 20
0.5218031496062993
 30
0.0
 10
0.2409015748031496
 20
0.5218031496062993
 30
0.0
 10
0.2409015748031496
 20
0.5218031496062993
 30
0.0
 10
0.2409015748031496
 20
0.5218031496062993
 30
0.0
 10
0.2438188976377953
 20
0.5218031496062993
 30
0.0
 10
0.2438188976377953
 20
0.5218031496062993
 30
0.0
 10
0.2438188976377953
 20
0.5218031496062993
 30
0.0
 10
0.2438188976377953
 20
0.5218031496062993
 30
0.0
 10
0.2438188976377953
 20
0.5149685039370079
 30
0.0
 10
0.2438188976377953
 20
0.5149685039370079
 30
0.0
 10
0.2438188976377953
 20
0.5149685039370079
 30
0.0
 10
0.2438188976377953
 20
0.5149685039370079
 30
0.0
 10
0.2002913385826772
 20
0.5149685039370079
 30
0.0
 10
0.2002913385826772
 20
0.5149685039370079
 30
0.0
 10
0.2002913385826772
 20
0.5149685039370079
 30
0.0
 10
0.2002913385826772
 20
0.5149685039370079
 30
0.0
 10
0.2002913385826772
 20
0.5218031496062993
 30
0.0
 10
0.2002913385826772
 20
0.5218031496062993
 30
0.0
 10
0.2002913385826772
 20
0.5218031496062993
 30
0.0
 10
0.2002913385826772
 20
0.5218031496062993
 30
0.0
 10
0.2042086614173228
 20
0.5218031496062993
 30
0.0
 10
0.2042086614173228
 20
0.5218031496062993
 30
0.0
 10
0.2042086614173228
 20
0.5218031496062993
 30
0.0
 10
0.2071259842519685
 20
0.5218031496062993
 30
0.0
 10
0.2090984251968504
 20
0.521996062992126
 30
0.0
 10
0.2100984251968504
 20
0.5223858267716536
 30
0.0
 10
0.2100984251968504
 20
0.5223858267716536
 30
0.0
 10
0.2110984251968504
 20
0.522748031496063
 30
0.0
 10
0.211984251968504
 20
0.5234133858267717
 30
0.0
 10
0.2127913385826772
 20
0.5243582677165355
 30
0.0
 10
0.2127913385826772
 20
0.5243582677165355
 30
0.0
 10
0.2135708661417323
 20
0.5253307086614173
 30
0.0
 10
0.2141259842519685
 20
0.5265236220472441
 30
0.0
 10
0.2144566929133858
 20
0.527996062992126
 30
0.0
 10
0.2144566929133858
 20
0.527996062992126
 30
0.0
 10
0.2145708661417323
 20
0.5285787401574803
 30
0.0
 10
0.2146535433070866
 20
0.5313307086614173
 30
0.0
 10
0.2147086614173228
 20
0.5362165354330709
 30
0.0
 10
0.2147086614173228
 20
0.5362165354330709
 30
0.0
 10
0.2147086614173228
 20
0.5362165354330709
 30
0.0
 10
0.2147086614173228
 20
0.6105787401574804
 30
0.0
 10
0.2147086614173228
 20
0.6105787401574804
 30
0.0
 10
0.2147086614173228
 20
0.6105787401574804
 30
0.0
 10
0.2147086614173228
 20
0.6138582677165355
 30
0.0
 10
0.2143740157480315
 20
0.6161889763779528
 30
0.0
 10
0.2137086614173228
 20
0.6175787401574804
 30
0.0
 10
0.2137086614173228
 20
0.6175787401574804
 30
0.0
 10
0.2130708661417323
 20
0.6189960629921261
 30
0.0
 10
0.2121535433070866
 20
0.6200236220472442
 30
0.0
 10
0.210984251968504
 20
0.6206338582677166
 30
0.0
 10
0.210984251968504
 20
0.6206338582677166
 30
0.0
 10
0.2098188976377953
 20
0.6212716535433072
 30
0.0
 10
0.2078188976377953
 20
0.6215787401574804
 30
0.0
 10
0.2049291338582677
 20
0.6215787401574804
 30
0.0
 10
0.2049291338582677
 20
0.6215787401574804
 30
0.0
 10
0.2049291338582677
 20
0.6215787401574804
 30
0.0
 10
0.2002913385826772
 20
0.6215787401574804
 30
0.0
 10
0.2002913385826772
 20
0.6215787401574804
 30
0.0
 10
0.2002913385826772
 20
0.6215787401574804
 30
0.0
 10
0.2002913385826772
 20
0.6215787401574804
 30
0.0
 10
0.2002913385826772
 20
0.628496062992126
 30
0.0
 10
0.2002913385826772
 20
0.628496062992126
 30
0.0
  0
SPLINE
  5
38
330
1F
100
AcDbEntity
  8
P1-Layer 1
 62
   250
100
AcDbSpline
210
0.0
220
0.0
230
1.0
 70
    11
 71
     3
 72
    40
 73
    36
 74
     0
 42
0.0000000001
 43
0.0000000001
 40
0.0
 40
0.0
 40
0.0
 40
0.0
 40
0.1111111111111111
 40
0.1111111111111111
 40
0.1111111111111111
 40
0.1111111111111111
 40
0.2222222222222222
 40
0.2222222222222222
 40
0.2222222222222222
 40
0.2222222222222222
 40
0.3333333333333333
 40
0.3333333333333333
 40
0.3333333333333333
 40
0.3333333333333333
 40
0.4444444444444444
 40
0.4444444444444444
 40
0.4444444444444444
 40
0.4444444444444444
 40
0.5555555555555556
 40
0.5555555555555556
 40
0.5555555555555556
 40
0.5555555555555556
 40
0.6666666666666667
 40
0.6666666666666667
 40
0.6666666666666667
 40
0.6666666666666667
 40
0.7777777777777779
 40
0.7777777777777779
 40
0.7777777777777779
 40
0.7777777777777779
 40
0.8888888888888891
 40
0.8888888888888891
 40
0.8888888888888891
 40
0.8888888888888891
 40
1.0
 40
1.0
 40
1.0
 40
1.0
 10
0.2298464566929134
 20
0.6196338582677166
 30
0.0
 10
0.2298464566929134
 20
0.6196338582677166
 30
0.0
 10
0.2298464566929134
 20
0.5769133858267717
 30
0.0
 10
0.2298464566929134
 20
0.5769133858267717
 30
0.0
 10
0.2298464566929134
 20
0.5769133858267717
 30
0.0
 10
0.2298464566929134
 20
0.5769133858267717
 30
0.0
 10
0.2531811023622048
 20
0.5769133858267717
 30
0.0
 10
0.2531811023622048
 20
0.5769133858267717
 30
0.0
 10
0.2531811023622048
 20
0.5769133858267717
 30
0.0
 10
0.2611259842519685
 20
0.5769133858267717
 30
0.0
 10
0.2666811023622047
 20
0.5773858267716535
 30
0.0
 10
0.2698740157480315
 20
0.5783582677165354
 30
0.0
 10
0.2698740157480315
 20
0.5783582677165354
 30
0.0
 10
0.2744291338582677
 20
0.5796614173228347
 30
0.0
 10
0.2780118110236221
 20
0.5820511811023622
 30
0.0
 10
0.2806535433070866
 20
0.5855236220472441
 30
0.0
 10
0.2806535433070866
 20
0.5855236220472441
 30
0.0
 10
0.2832913385826772
 20
0.588996062992126
 30
0.0
 10
0.2845984251968504
 20
0.5934133858267717
 30
0.0
 10
0.2845984251968504
 20
0.5987992125984252
 30
0.0
 10
0.2845984251968504
 20
0.5987992125984252
 30
0.0
 10
0.2845984251968504
 20
0.6033582677165355
 30
0.0
 10
0.2836535433070866
 20
0.6071889763779528
 30
0.0
 10
0.281763779527559
 20
0.6102992125984252
 30
0.0
 10
0.281763779527559
 20
0.6102992125984252
 30
0.0
 10
0.2798464566929134
 20
0.6134133858267716
 30
0.0
 10
0.277263779527559
 20
0.615744094488189
 30
0.0
 10
0.273984251968504
 20
0.6172992125984252
 30
0.0
 10
0.273984251968504
 20
0.6172992125984252
 30
0.0
 10
0.2707086614173229
 20
0.6188582677165354
 30
0.0
 10
0.2657913385826772
 20
0.6196338582677166
 30
0.0
 10
0.2592913385826772
 20
0.6196338582677166
 30
0.0
 10
0.2592913385826772
 20
0.6196338582677166
 30
0.0
 10
0.2592913385826772
 20
0.6196338582677166
 30
0.0
 10
0.2298464566929134
 20
0.6196338582677166
 30
0.0
 10
0.2298464566929134
 20
0.6196338582677166
 30
0.0
  0
SPLINE
  5
39
330
1F
100
AcDbEntity
  8
P1-Layer 1
 62
   250
100
AcDbSpline
210
0.0
220
0.0
230
1.0
 70
    11
 71
     3
 72
    72
 73
    68
 74
     0
 42
0.0000000001
 43
0.0000000001
 40
0.0
 40
0.0
 40
0.0
 40
0.0
 40
0.0588235294117647
 40
0.0588235294117647
 40
0.0588235294117647
 40
0.0588235294117647
 40
0.1176470588235294
 40
0.1176470588235294
 40
0.1176470588235294
 40
0.1176470588235294
 40
0.1764705882352941
 40
0.1764705882352941
 40
0.1764705882352941
 40
0.1764705882352941
 40
0.2352941176470588
 40
0.2352941176470588
 40
0.2352941176470588
 40
0.2352941176470588
 40
0.2941176470588235
 40
0.2941176470588235
 40
0.2941176470588235
 40
0.2941176470588235
 40
0.3529411764705883
 40
0.3529411764705883
 40
0.3529411764705883
 40
0.3529411764705883
 40
0.411764705882353
 40
0.411764705882353
 40
0.411764705882353
 40
0.411764705882353
 40
0.4705882352941177
 40
0.4705882352941177
 40
0.4705882352941177
 40
0.4705882352941177
 40
0.5294117647058824
 40
0.5294117647058824
 40
0.5294117647058824
 40
0.5294117647058824
 40
0.5882352941176471
 40
0.5882352941176471
 40
0.5882352941176471
 40
0.5882352941176471
 40
0.6470588235294118
 40
0.6470588235294118
 40
0.6470588235294118
 40
0.6470588235294118
 40
0.7058823529411765
 40
0.7058823529411765
 40
0.7058823529411765
 40
0.7058823529411765
 40
0.7647058823529412
 40
0.7647058823529412
 40
0.7647058823529412
 40
0.7647058823529412
 40
0.823529411764706
 40
0.823529411764706
 40
0.823529411764706
 40
0.823529411764706
 40
0.8823529411764707
 40
0.8823529411764707
 40
0.8823529411764707
 40
0.8823529411764707
 40
0.9411764705882354
 40
0.9411764705882354
 40
0.9411764705882354
 40
0.9411764705882354
 40
1.0
 40
1.0
 40
1.0
 40
1.0
 10
-0.5267677165354331
 20
0.440996062992126
 30
0.0
 10
-0.5267677165354331
 20
0.440996062992126
 30
0.0
 10
-0.5206850393700787
 20
0.440996062992126
 30
0.0
 10
-0.5206850393700787
 20
0.440996062992126
 30
0.0
 10
-0.5206850393700787
 20
0.440996062992126
 30
0.0
 10
-0.5206850393700787
 20
0.440996062992126
 30
0.0
 10
-0.5206850393700787
 20
0.346748031496063
 30
0.0
 10
-0.5206850393700787
 20
0.346748031496063
 30
0.0
 10
-0.5206850393700787
 20
0.346748031496063
 30
0.0
 10
-0.5206850393700787
 20
0.3423031496062992
 30
0.0
 10
-0.5203779527559055
 20
0.3394409448818898
 30
0.0
 10
-0.5198228346456694
 20
0.3381614173228347
 30
0.0
 10
-0.5198228346456694
 20
0.3381614173228347
 30
0.0
 10
-0.5192401574803149
 20
0.3368858267716536
 30
0.0
 10
-0.5183228346456693
 20
0.3359409448818898
 30
0.0
 10
-0.5170196850393701
 20
0.3352755905511811
 30
0.0
 10
-0.5170196850393701
 20
0.3352755905511811
 30
0.0
 10
-0.5157125984251969
 20
0.3346338582677165
 30
0.0
 10
-0.5131299212598426
 20
0.3343031496062992
 30
0.0
 10
-0.5092677165354331
 20
0.3343031496062992
 30
0.0
 10
-0.5092677165354331
 20
0.3343031496062992
 30
0.0
 10
-0.5092677165354331
 20
0.3343031496062992
 30
0.0
 10
-0.5012952755905512
 20
0.3343031496062992
 30
0.0
 10
-0.5012952755905512
 20
0.3343031496062992
 30
0.0
 10
-0.5012952755905512
 20
0.3343031496062992
 30
0.0
 10
-0.5012952755905512
 20
0.3343031496062992
 30
0.0
 10
-0.5012952755905512
 20
0.3274685039370079
 30
0.0
 10
-0.5012952755905512
 20
0.3274685039370079
 30
0.0
 10
-0.5012952755905512
 20
0.3274685039370079
 30
0.0
 10
-0.5012952755905512
 20
0.3274685039370079
 30
0.0
 10
-0.5549330708661417
 20
0.3274685039370079
 30
0.0
 10
-0.5549330708661417
 20
0.3274685039370079
 30
0.0
 10
-0.5549330708661417
 20
0.3274685039370079
 30
0.0
 10
-0.5549330708661417
 20
0.3274685039370079
 30
0.0
 10
-0.5549330708661417
 20
0.3343031496062992
 30
0.0
 10
-0.5549330708661417
 20
0.3343031496062992
 30
0.0
 10
-0.5549330708661417
 20
0.3343031496062992
 30
0.0
 10
-0.5549330708661417
 20
0.3343031496062992
 30
0.0
 10
-0.5460748031496063
 20
0.3343031496062992
 30
0.0
 10
-0.5460748031496063
 20
0.3343031496062992
 30
0.0
 10
-0.5460748031496063
 20
0.3343031496062992
 30
0.0
 10
-0.5422125984251969
 20
0.3343031496062992
 30
0.0
 10
-0.5396574803149606
 20
0.3346338582677165
 30
0.0
 10
-0.5383779527559055
 20
0.3353307086614173
 30
0.0
 10
-0.5383779527559055
 20
0.3353307086614173
 30
0.0
 10
-0.5371023622047244
 20
0.335996062992126
 30
0.0
 10
-0.5361023622047244
 20
0.3370787401574804
 30
0.0
 10
-0.5354055118110237
 20
0.3385787401574804
 30
0.0
 10
-0.5354055118110237
 20
0.3385787401574804
 30
0.0
 10
-0.5347125984251969
 20
0.3400787401574804
 30
0.0
 10
-0.5343503937007874
 20
0.3428031496062992
 30
0.0
 10
-0.5343503937007874
 20
0.346748031496063
 30
0.0
 10
-0.5343503937007874
 20
0.346748031496063
 30
0.0
 10
-0.5343503937007874
 20
0.346748031496063
 30
0.0
 10
-0.5343503937007874
 20
0.4242165354330709
 30
0.0
 10
-0.5343503937007874
 20
0.4242165354330709
 30
0.0
 10
-0.5343503937007874
 20
0.4242165354330709
 30
0.0
 10
-0.5343503937007874
 20
0.4242165354330709
 30
0.0
 10
-0.5549330708661417
 20
0.4242165354330709
 30
0.0
 10
-0.5549330708661417
 20
0.4242165354330709
 30
0.0
 10
-0.5549330708661417
 20
0.4242165354330709
 30
0.0
 10
-0.5549330708661417
 20
0.4242165354330709
 30
0.0
 10
-0.5549330708661417
 20
0.4312165354330709
 30
0.0
 10
-0.5549330708661417
 20
0.4312165354330709
 30
0.0
 10
-0.5549330708661417
 20
0.4312165354330709
 30
0.0
 10
-0.5437125984251969
 20
0.4327992125984252
 30
0.0
 10
-0.5343228346456693
 20
0.4360511811023622
 30
0.0
 10
-0.5267677165354331
 20
0.440996062992126
 30
0.0
  0
SPLINE
  5
3A
330
1F
100
AcDbEntity
  8
P1-Layer 1
 62
   250
100
AcDbSpline
210
0.0
220
0.0
230
1.0
 70
    11
 71
     3
 72
    60
 73
    56
 74
     0
 42
0.0000000001
 43
0.0000000001
 40
0.0
 40
0.0
 40
0.0
 40
0.0
 40
0.0714285714285714
 40
0.0714285714285714
 40
0.0714285714285714
 40
0.0714285714285714
 40
0.1428571428571429
 40
0.1428571428571429
 40
0.1428571428571429
 40
0.1428571428571429
 40
0.2142857142857143
 40
0.2142857142857143
 40
0.2142857142857143
 40
0.2142857142857143
 40
0.2857142857142857
 40
0.2857142857142857
 40
0.2857142857142857
 40
0.2857142857142857
 40
0.3571428571428571
 40
0.3571428571428571
 40
0.3571428571428571
 40
0.3571428571428571
 40
0.4285714285714285
 40
0.4285714285714285
 40
0.4285714285714285
 40
0.4285714285714285
 40
0.4999999999999999
 40
0.4999999999999999
 40
0.4999999999999999
 40
0.4999999999999999
 40
0.5714285714285713
 40
0.5714285714285713
 40
0.5714285714285713
 40
0.5714285714285713
 40
0.6428571428571427
 40
0.6428571428571427
 40
0.6428571428571427
 40
0.6428571428571427
 40
0.7142857142857141
 40
0.7142857142857141
 40
0.7142857142857141
 40
0.7142857142857141
 40
0.7857142857142855
 40
0.7857142857142855
 40
0.7857142857142855
 40
0.7857142857142855
 40
0.8571428571428569
 40
0.8571428571428569
 40
0.8571428571428569
 40
0.8571428571428569
 40
0.9285714285714283
 40
0.9285714285714283
 40
0.9285714285714283
 40
0.9285714285714283
 40
1.0
 40
1.0
 40
1.0
 40
1.0
 10
-0.4693228346456693
 20
0.3989133858267717
 30
0.0
 10
-0.4693228346456693
 20
0.3989133858267717
 30
0.0
 10
-0.4737125984251969
 20
0.4043031496062992
 30
0.0
 10
-0.4737125984251969
 20
0.4043031496062992
 30
0.0
 10
-0.4737125984251969
 20
0.4043031496062992
 30
0.0
 10
-0.4625984251968504
 20
0.4133582677165354
 30
0.0
 10
-0.4570157480314961
 20
0.4209133858267717
 30
0.0
 10
-0.4570157480314961
 20
0.426996062992126
 30
0.0
 10
-0.4570157480314961
 20
0.426996062992126
 30
0.0
 10
-0.4570157480314961
 20
0.4276889763779528
 30
0.0
 10
-0.4570708661417323
 20
0.4285787401574803
 30
0.0
 10
-0.4571850393700788
 20
0.4296062992125985
 30
0.0
 10
-0.4571850393700788
 20
0.4296062992125985
 30
0.0
 10
-0.4580984251968504
 20
0.4292165354330709
 30
0.0
 10
-0.4590157480314961
 20
0.4289133858267717
 30
0.0
 10
-0.4598779527559055
 20
0.4287165354330709
 30
0.0
 10
-0.4598779527559055
 20
0.4287165354330709
 30
0.0
 10
-0.460740157480315
 20
0.428496062992126
 30
0.0
 10
-0.4615433070866142
 20
0.4283858267716535
 30
0.0
 10
-0.4623228346456693
 20
0.4283858267716535
 30
0.0
 10
-0.4623228346456693
 20
0.4283858267716535
 30
0.0
 10
-0.4649330708661418
 20
0.4283858267716535
 30
0.0
 10
-0.4670157480314961
 20
0.4292165354330709
 30
0.0
 10
-0.4685708661417323
 20
0.4309133858267717
 30
0.0
 10
-0.4685708661417323
 20
0.4309133858267717
 30
0.0
 10
-0.4701574803149606
 20
0.4325787401574803
 30
0.0
 10
-0.4709330708661417
 20
0.4347165354330709
 30
0.0
 10
-0.4709330708661417
 20
0.4373307086614173
 30
0.0
 10
-0.4709330708661417
 20
0.4373307086614173
 30
0.0
 10
-0.4709330708661417
 20
0.4398858267716536
 30
0.0
 10
-0.469988188976378
 20
0.4421062992125984
 30
0.0
 10
-0.4680984251968504
 20
0.443996062992126
 30
0.0
 10
-0.4680984251968504
 20
0.443996062992126
 30
0.0
 10
-0.4661850393700788
 20
0.4459133858267717
 30
0.0
 10
-0.4639055118110236
 20
0.4468582677165355
 30
0.0
 10
-0.4612677165354331
 20
0.4468582677165355
 30
0.0
 10
-0.4612677165354331
 20
0.4468582677165355
 30
0.0
 10
-0.4575708661417323
 20
0.4468582677165355
 30
0.0
 10
-0.4544055118110236
 20
0.4453858267716536
 30
0.0
 10
-0.4517677165354331
 20
0.4424133858267716
 30
0.0
 10
-0.4517677165354331
 20
0.4424133858267716
 30
0.0
 10
-0.4491574803149607
 20
0.4394685039370079
 30
0.0
 10
-0.4478228346456693
 20
0.4356614173228346
 30
0.0
 10
-0.4478228346456693
 20
0.430996062992126
 30
0.0
 10
-0.4478228346456693
 20
0.430996062992126
 30
0.0
 10
-0.4478228346456693
 20
0.4279409448818898
 30
0.0
 10
-0.4484606299212599
 20
0.424744094488189
 30
0.0
 10
-0.4497125984251968
 20
0.4214133858267717
 30
0.0
 10
-0.4497125984251968
 20
0.4214133858267717
 30
0.0
 10
-0.4509606299212599
 20
0.4180787401574803
 30
0.0
 10
-0.4527677165354331
 20
0.414996062992126
 30
0.0
 10
-0.4551574803149607
 20
0.4121338582677165
 30
0.0
 10
-0.4551574803149607
 20
0.4121338582677165
 30
0.0
 10
-0.4575433070866142
 20
0.4093031496062992
 30
0.0
 10
-0.4622677165354331
 20
0.4048858267716536
 30
0.0
 10
-0.4693228346456693
 20
0.3989133858267717
 30
0.0
  0
SPLINE
  5
3B
330
1F
100
AcDbEntity
  8
P1-Layer 1
 62
   250
100
AcDbSpline
210
0.0
220
0.0
230
1.0
 70
    11
 71
     3
 72
    60
 73
    56
 74
     0
 42
0.0000000001
 43
0.0000000001
 40
0.0
 40
0.0
 40
0.0
 40
0.0
 40
0.0714285714285714
 40
0.0714285714285714
 40
0.0714285714285714
 40
0.0714285714285714
 40
0.1428571428571429
 40
0.1428571428571429
 40
0.1428571428571429
 40
0.1428571428571429
 40
0.2142857142857143
 40
0.2142857142857143
 40
0.2142857142857143
 40
0.2142857142857143
 40
0.2857142857142857
 40
0.2857142857142857
 40
0.2857142857142857
 40
0.2857142857142857
 40
0.3571428571428571
 40
0.3571428571428571
 40
0.3571428571428571
 40
0.3571428571428571
 40
0.4285714285714285
 40
0.4285714285714285
 40
0.4285714285714285
 40
0.4285714285714285
 40
0.4999999999999999
 40
0.4999999999999999
 40
0.4999999999999999
 40
0.4999999999999999
 40
0.5714285714285713
 40
0.5714285714285713
 40
0.5714285714285713
 40
0.5714285714285713
 40
0.6428571428571427
 40
0.6428571428571427
 40
0.6428571428571427
 40
0.6428571428571427
 40
0.7142857142857141
 40
0.7142857142857141
 40
0.7142857142857141
 40
0.7142857142857141
 40
0.7857142857142855
 40
0.7857142857142855
 40
0.7857142857142855
 40
0.7857142857142855
 40
0.8571428571428569
 40
0.8571428571428569
 40
0.8571428571428569
 40
0.8571428571428569
 40
0.9285714285714283
 40
0.9285714285714283
 40
0.9285714285714283
 40
0.9285714285714283
 40
1.0
 40
1.0
 40
1.0
 40
1.0
 10
-0.4402677165354331
 20
0.3989133858267717
 30
0.0
 10
-0.4402677165354331
 20
0.3989133858267717
 30
0.0
 10
-0.4446574803149607
 20
0.4043031496062992
 30
0.0
 10
-0.4446574803149607
 20
0.4043031496062992
 30
0.0
 10
-0.4446574803149607
 20
0.4043031496062992
 30
0.0
 10
-0.4335433070866142
 20
0.4133582677165354
 30
0.0
 10
-0.4279606299212599
 20
0.4209133858267717
 30
0.0
 10
-0.4279606299212599
 20
0.426996062992126
 30
0.0
 10
-0.4279606299212599
 20
0.426996062992126
 30
0.0
 10
-0.4279606299212599
 20
0.4276889763779528
 30
0.0
 10
-0.4280157480314961
 20
0.4285787401574803
 30
0.0
 10
-0.4281299212598426
 20
0.4296062992125985
 30
0.0
 10
-0.4281299212598426
 20
0.4296062992125985
 30
0.0
 10
-0.4290433070866142
 20
0.4292165354330709
 30
0.0
 10
-0.4299606299212599
 20
0.4289133858267717
 30
0.0
 10
-0.4308228346456693
 20
0.4287165354330709
 30
0.0
 10
-0.4308228346456693
 20
0.4287165354330709
 30
0.0
 10
-0.4316850393700787
 20
0.428496062992126
 30
0.0
 10
-0.4325157480314961
 20
0.4283858267716535
 30
0.0
 10
-0.4333503937007874
 20
0.4283858267716535
 30
0.0
 10
-0.4333503937007874
 20
0.4283858267716535
 30
0.0
 10
-0.4359055118110237
 20
0.4283858267716535
 30
0.0
 10
-0.4379606299212598
 20
0.4292165354330709
 30
0.0
 10
-0.4395157480314961
 20
0.4309133858267717
 30
0.0
 10
-0.4395157480314961
 20
0.4309133858267717
 30
0.0
 10
-0.4410984251968504
 20
0.4325787401574803
 30
0.0
 10
-0.4418779527559055
 20
0.4347165354330709
 30
0.0
 10
-0.4418779527559055
 20
0.4373307086614173
 30
0.0
 10
-0.4418779527559055
 20
0.4373307086614173
 30
0.0
 10
-0.4418779527559055
 20
0.4398858267716536
 30
0.0
 10
-0.4409330708661418
 20
0.4421062992125984
 30
0.0
 10
-0.4390433070866142
 20
0.443996062992126
 30
0.0
 10
-0.4390433070866142
 20
0.443996062992126
 30
0.0
 10
-0.4371574803149607
 20
0.4459133858267717
 30
0.0
 10
-0.4348503937007874
 20
0.4468582677165355
 30
0.0
 10
-0.4322125984251969
 20
0.4468582677165355
 30
0.0
 10
-0.4322125984251969
 20
0.4468582677165355
 30
0.0
 10
-0.4285157480314961
 20
0.4468582677165355
 30
0.0
 10
-0.4253503937007874
 20
0.4453858267716536
 30
0.0
 10
-0.4227125984251969
 20
0.4424133858267716
 30
0.0
 10
-0.4227125984251969
 20
0.4424133858267716
 30
0.0
 10
-0.4201023622047244
 20
0.4394685039370079
 30
0.0
 10
-0.4187677165354331
 20
0.4356614173228346
 30
0.0
 10
-0.4187677165354331
 20
0.430996062992126
 30
0.0
 10
-0.4187677165354331
 20
0.430996062992126
 30
0.0
 10
-0.4187677165354331
 20
0.4279409448818898
 30
0.0
 10
-0.4194055118110237
 20
0.424744094488189
 30
0.0
 10
-0.4206574803149606
 20
0.4214133858267717
 30
0.0
 10
-0.4206574803149606
 20
0.4214133858267717
 30
0.0
 10
-0.4219055118110237
 20
0.4180787401574803
 30
0.0
 10
-0.4237125984251969
 20
0.414996062992126
 30
0.0
 10
-0.4260984251968504
 20
0.4121338582677165
 30
0.0
 10
-0.4260984251968504
 20
0.4121338582677165
 30
0.0
 10
-0.428488188976378
 20
0.4093031496062992
 30
0.0
 10
-0.4332125984251969
 20
0.4048858267716536
 30
0.0
 10
-0.4402677165354331
 20
0.3989133858267717
 30
0.0
  0
SPLINE
  5
3C
330
1F
100
AcDbEntity
  8
P1-Layer 1
 62
   250
100
AcDbSpline
210
0.0
220
0.0
230
1.0
 70
    11
 71
     3
 72
   204
 73
   200
 74
     0
 42
0.0000000001
 43
0.0000000001
 40
0.0
 40
0.0
 40
0.0
 40
0.0
 40
0.02
 40
0.02
 40
0.02
 40
0.02
 40
0.04
 40
0.04
 40
0.04
 40
0.04
 40
0.06
 40
0.06
 40
0.06
 40
0.06
 40
0.08
 40
0.08
 40
0.08
 40
0.08
 40
0.1
 40
0.1
 40
0.1
 40
0.1
 40
0.12
 40
0.12
 40
0.12
 40
0.12
 40
0.14
 40
0.14
 40
0.14
 40
0.14
 40
0.16
 40
0.16
 40
0.16
 40
0.16
 40
0.18
 40
0.18
 40
0.18
 40
0.18
 40
0.2
 40
0.2
 40
0.2
 40
0.2
 40
0.22
 40
0.22
 40
0.22
 40
0.22
 40
0.24
 40
0.24
 40
0.24
 40
0.24
 40
0.26
 40
0.26
 40
0.26
 40
0.26
 40
0.28
 40
0.28
 40
0.28
 40
0.28
 40
0.3
 40
0.3
 40
0.3
 40
0.3
 40
0.32
 40
0.32
 40
0.32
 40
0.32
 40
0.34
 40
0.34
 40
0.34
 40
0.34
 40
0.36
 40
0.36
 40
0.36
 40
0.36
 40
0.3800000000000001
 40
0.3800000000000001
 40
0.3800000000000001
 40
0.3800000000000001
 40
0.4000000000000001
 40
0.4000000000000001
 40
0.4000000000000001
 40
0.4000000000000001
 40
0.4200000000000001
 40
0.4200000000000001
 40
0.4200000000000001
 40
0.4200000000000001
 40
0.4400000000000001
 40
0.4400000000000001
 40
0.4400000000000001
 40
0.4400000000000001
 40
0.4600000000000001
 40
0.4600000000000001
 40
0.4600000000000001
 40
0.4600000000000001
 40
0.4800000000000002
 40
0.4800000000000002
 40
0.4800000000000002
 40
0.4800000000000002
 40
0.5000000000000001
 40
0.5000000000000001
 40
0.5000000000000001
 40
0.5000000000000001
 40
0.5200000000000001
 40
0.5200000000000001
 40
0.5200000000000001
 40
0.5200000000000001
 40
0.5400000000000002
 40
0.5400000000000002
 40
0.5400000000000002
 40
0.5400000000000002
 40
0.5600000000000002
 40
0.5600000000000002
 40
0.5600000000000002
 40
0.5600000000000002
 40
0.5800000000000002
 40
0.5800000000000002
 40
0.5800000000000002
 40
0.5800000000000002
 40
0.6000000000000002
 40
0.6000000000000002
 40
0.6000000000000002
 40
0.6000000000000002
 40
0.6200000000000002
 40
0.6200000000000002
 40
0.6200000000000002
 40
0.6200000000000002
 40
0.6400000000000002
 40
0.6400000000000002
 40
0.6400000000000002
 40
0.6400000000000002
 40
0.6600000000000003
 40
0.6600000000000003
 40
0.6600000000000003
 40
0.6600000000000003
 40
0.6800000000000003
 40
0.6800000000000003
 40
0.6800000000000003
 40
0.6800000000000003
 40
0.7000000000000003
 40
0.7000000000000003
 40
0.7000000000000003
 40
0.7000000000000003
 40
0.7200000000000003
 40
0.7200000000000003
 40
0.7200000000000003
 40
0.7200000000000003
 40
0.7400000000000003
 40
0.7400000000000003
 40
0.7400000000000003
 40
0.7400000000000003
 40
0.7600000000000003
 40
0.7600000000000003
 40
0.7600000000000003
 40
0.7600000000000003
 40
0.7800000000000004
 40
0.7800000000000004
 40
0.7800000000000004
 40
0.7800000000000004
 40
0.8000000000000004
 40
0.8000000000000004
 40
0.8000000000000004
 40
0.8000000000000004
 40
0.8200000000000004
 40
0.8200000000000004
 40
0.8200000000000004
 40
0.8200000000000004
 40
0.8400000000000004
 40
0.8400000000000004
 40
0.8400000000000004
 40
0.8400000000000004
 40
0.8600000000000004
 40
0.8600000000000004
 40
0.8600000000000004
 40
0.8600000000000004
 40
0.8800000000000005
 40
0.8800000000000005
 40
0.8800000000000005
 40
0.8800000000000005
 40
0.9000000000000005
 40
0.9000000000000005
 40
0.9000000000000005
 40
0.9000000000000005
 40
0.9200000000000005
 40
0.9200000000000005
 40
0.9200000000000005
 40
0.9200000000000005
 40
0.9400000000000005
 40
0.9400000000000005
 40
0.9400000000000005
 40
0.9400000000000005
 40
0.9600000000000005
 40
0.9600000000000005
 40
0.9600000000000005
 40
0.9600000000000005
 40
0.9800000000000005
 40
0.9800000000000005
 40
0.9800000000000005
 40
0.9800000000000005
 40
1.0
 40
1.0
 40
1.0
 40
1.0
 10
-0.3564606299212599
 20
0.405996062992126
 30
0.0
 10
-0.3564606299212599
 20
0.405996062992126
 30
0.0
 10
-0.3155157480314961
 20
0.405996062992126
 30
0.0
 10
-0.3155157480314961
 20
0.405996062992126
 30
0.0
 10
-0.3155157480314961
 20
0.405996062992126
 30
0.0
 10
-0.3155157480314961
 20
0.405996062992126
 30
0.0
 10
-0.3155157480314961
 20
0.3991614173228347
 30
0.0
 10
-0.3155157480314961
 20
0.3991614173228347
 30
0.0
 10
-0.3155157480314961
 20
0.3991614173228347
 30
0.0
 10
-0.3155157480314961
 20
0.3991614173228347
 30
0.0
 10
-0.3183503937007874
 20
0.3991614173228347
 30
0.0
 10
-0.3183503937007874
 20
0.3991614173228347
 30
0.0
 10
-0.3183503937007874
 20
0.3991614173228347
 30
0.0
 10
-0.319988188976378
 20
0.3991614173228347
 30
0.0
 10
-0.321488188976378
 20
0.3989685039370079
 30
0.0
 10
-0.3228503937007874
 20
0.3986062992125984
 30
0.0
 10
-0.3228503937007874
 20
0.3986062992125984
 30
0.0
 10
-0.3236535433070866
 20
0.3983858267716536
 30
0.0
 10
-0.3243228346456693
 20
0.3979685039370079
 30
0.0
 10
-0.3248228346456693
 20
0.3973307086614173
 30
0.0
 10
-0.3248228346456693
 20
0.3973307086614173
 30
0.0
 10
-0.3253503937007874
 20
0.3967165354330709
 30
0.0
 10
-0.3255984251968504
 20
0.3961338582677166
 30
0.0
 10
-0.3255984251968504
 20
0.3955787401574804
 30
0.0
 10
-0.3255984251968504
 20
0.3955787401574804
 30
0.0
 10
-0.3255984251968504
 20
0.3943307086614173
 30
0.0
 10
-0.3245708661417323
 20
0.3924685039370079
 30
0.0
 10
-0.3225157480314961
 20
0.3899685039370079
 30
0.0
 10
-0.3225157480314961
 20
0.3899685039370079
 30
0.0
 10
-0.3225157480314961
 20
0.3899685039370079
 30
0.0
 10
-0.3108779527559055
 20
0.3753307086614173
 30
0.0
 10
-0.3108779527559055
 20
0.3753307086614173
 30
0.0
 10
-0.3108779527559055
 20
0.3753307086614173
 30
0.0
 10
-0.3108779527559055
 20
0.3753307086614173
 30
0.0
 10
-0.2972952755905512
 20
0.3899685039370079
 30
0.0
 10
-0.2972952755905512
 20
0.3899685039370079
 30
0.0
 10
-0.2972952755905512
 20
0.3899685039370079
 30
0.0
 10
-0.2947952755905512
 20
0.3926889763779528
 30
0.0
 10
-0.2935433070866142
 20
0.3947165354330709
 30
0.0
 10
-0.2935433070866142
 20
0.3960787401574804
 30
0.0
 10
-0.2935433070866142
 20
0.3960787401574804
 30
0.0
 10
-0.2935433070866142
 20
0.3970511811023622
 30
0.0
 10
-0.293988188976378
 20
0.3978031496062992
 30
0.0
 10
-0.2948503937007874
 20
0.3983582677165354
 30
0.0
 10
-0.2948503937007874
 20
0.3983582677165354
 30
0.0
 10
-0.2957125984251969
 20
0.3988858267716536
 30
0.0
 10
-0.2975708661417323
 20
0.3991614173228347
 30
0.0
 10
-0.3004606299212599
 20
0.3991614173228347
 30
0.0
 10
-0.3004606299212599
 20
0.3991614173228347
 30
0.0
 10
-0.3004606299212599
 20
0.3991614173228347
 30
0.0
 10
-0.3035433070866142
 20
0.3991614173228347
 30
0.0
 10
-0.3035433070866142
 20
0.3991614173228347
 30
0.0
 10
-0.3035433070866142
 20
0.3991614173228347
 30
0.0
 10
-0.3035433070866142
 20
0.3991614173228347
 30
0.0
 10
-0.3035433070866142
 20
0.405996062992126
 30
0.0
 10
-0.3035433070866142
 20
0.405996062992126
 30
0.0
 10
-0.3035433070866142
 20
0.405996062992126
 30
0.0
 10
-0.3035433070866142
 20
0.405996062992126
 30
0.0
 10
-0.2687952755905512
 20
0.405996062992126
 30
0.0
 10
-0.2687952755905512
 20
0.405996062992126
 30
0.0
 10
-0.2687952755905512
 20
0.405996062992126
 30
0.0
 10
-0.2687952755905512
 20
0.405996062992126
 30
0.0
 10
-0.2687952755905512
 20
0.3991614173228347
 30
0.0
 10
-0.2687952755905512
 20
0.3991614173228347
 30
0.0
 10
-0.2687952755905512
 20
0.3991614173228347
 30
0.0
 10
-0.2722125984251969
 20
0.398996062992126
 30
0.0
 10
-0.2751574803149606
 20
0.3983031496062992
 30
0.0
 10
-0.2776259842519685
 20
0.3970511811023622
 30
0.0
 10
-0.2776259842519685
 20
0.3970511811023622
 30
0.0
 10
-0.2800984251968504
 20
0.3958031496062993
 30
0.0
 10
-0.2830157480314961
 20
0.3934409448818898
 30
0.0
 10
-0.2863779527559055
 20
0.3899685039370079
 30
0.0
 10
-0.2863779527559055
 20
0.3899685039370079
 30
0.0
 10
-0.2863779527559055
 20
0.3899685039370079
 30
0.0
 10
-0.3050157480314961
 20
0.3706062992125985
 30
0.0
 10
-0.3050157480314961
 20
0.3706062992125985
 30
0.0
 10
-0.3050157480314961
 20
0.3706062992125985
 30
0.0
 10
-0.3050157480314961
 20
0.3706062992125985
 30
0.0
 10
-0.2818228346456693
 20
0.3441614173228347
 30
0.0
 10
-0.2818228346456693
 20
0.3441614173228347
 30
0.0
 10
-0.2818228346456693
 20
0.3441614173228347
 30
0.0
 10
-0.2818228346456693
 20
0.3441614173228347
 30
0.0
 10
-0.2809330708661417
 20
0.3430236220472441
 30
0.0
 10
-0.2809330708661417
 20
0.3430236220472441
 30
0.0
 10
-0.2809330708661417
 20
0.3430236220472441
 30
0.0
 10
-0.2786574803149606
 20
0.3400787401574804
 30
0.0
 10
-0.2760984251968504
 20
0.3377165354330709
 30
0.0
 10
-0.2732677165354331
 20
0.3359409448818898
 30
0.0
 10
-0.2732677165354331
 20
0.3359409448818898
 30
0.0
 10
-0.2717125984251969
 20
0.3349133858267717
 30
0.0
 10
-0.2692677165354331
 20
0.3343582677165354
 30
0.0
 10
-0.2659606299212599
 20
0.3343031496062992
 30
0.0
 10
-0.2659606299212599
 20
0.3343031496062992
 30
0.0
 10
-0.2659606299212599
 20
0.3343031496062992
 30
0.0
 10
-0.2659606299212599
 20
0.3274685039370079
 30
0.0
 10
-0.2659606299212599
 20
0.3274685039370079
 30
0.0
 10
-0.2659606299212599
 20
0.3274685039370079
 30
0.0
 10
-0.2659606299212599
 20
0.3274685039370079
 30
0.0
 10
-0.3059055118110237
 20
0.3274685039370079
 30
0.0
 10
-0.3059055118110237
 20
0.3274685039370079
 30
0.0
 10
-0.3059055118110237
 20
0.3274685039370079
 30
0.0
 10
-0.3059055118110237
 20
0.3274685039370079
 30
0.0
 10
-0.3059055118110237
 20
0.3343031496062992
 30
0.0
 10
-0.3059055118110237
 20
0.3343031496062992
 30
0.0
 10
-0.3059055118110237
 20
0.3343031496062992
 30
0.0
 10
-0.3059055118110237
 20
0.3343031496062992
 30
0.0
 10
-0.302488188976378
 20
0.3343031496062992
 30
0.0
 10
-0.302488188976378
 20
0.3343031496062992
 30
0.0
 10
-0.302488188976378
 20
0.3343031496062992
 30
0.0
 10
-0.2998779527559055
 20
0.3343031496062992
 30
0.0
 10
-0.298240157480315
 20
0.3344685039370079
 30
0.0
 10
-0.2975157480314961
 20
0.3348031496062992
 30
0.0
 10
-0.2975157480314961
 20
0.3348031496062992
 30
0.0
 10
-0.2963503937007874
 20
0.3353307086614173
 30
0.0
 10
-0.295740157480315
 20
0.336248031496063
 30
0.0
 10
-0.295740157480315
 20
0.3375511811023622
 30
0.0
 10
-0.295740157480315
 20
0.3375511811023622
 30
0.0
 10
-0.295740157480315
 20
0.338748031496063
 30
0.0
 10
-0.2970433070866142
 20
0.3409409448818898
 30
0.0
 10
-0.2996574803149606
 20
0.3441614173228347
 30
0.0
 10
-0.2996574803149606
 20
0.3441614173228347
 30
0.0
 10
-0.2996574803149606
 20
0.3441614173228347
 30
0.0
 10
-0.3144606299212598
 20
0.3623031496062992
 30
0.0
 10
-0.3144606299212598
 20
0.3623031496062992
 30
0.0
 10
-0.3144606299212598
 20
0.3623031496062992
 30
0.0
 10
-0.3144606299212598
 20
0.3623031496062992
 30
0.0
 10
-0.3309881889763779
 20
0.3441614173228347
 30
0.0
 10
-0.3309881889763779
 20
0.3441614173228347
 30
0.0
 10
-0.3309881889763779
 20
0.3441614173228347
 30
0.0
 10
-0.3309881889763779
 20
0.3441614173228347
 30
0.0
 10
-0.3325984251968504
 20
0.3421889763779528
 30
0.0
 10
-0.3325984251968504
 20
0.3421889763779528
 30
0.0
 10
-0.3325984251968504
 20
0.3421889763779528
 30
0.0
 10
-0.3325984251968504
 20
0.3421889763779528
 30
0.0
 10
-0.3334881889763779
 20
0.3412165354330709
 30
0.0
 10
-0.3334881889763779
 20
0.3412165354330709
 30
0.0
 10
-0.3334881889763779
 20
0.3412165354330709
 30
0.0
 10
-0.3348503937007874
 20
0.339748031496063
 30
0.0
 10
-0.3355433070866142
 20
0.3384685039370079
 30
0.0
 10
-0.3355433070866142
 20
0.3373307086614173
 30
0.0
 10
-0.3355433070866142
 20
0.3373307086614173
 30
0.0
 10
-0.3355433070866142
 20
0.3362755905511811
 30
0.0
 10
-0.3351259842519685
 20
0.3355236220472441
 30
0.0
 10
-0.3342677165354331
 20
0.3350236220472441
 30
0.0
 10
-0.3342677165354331
 20
0.3350236220472441
 30
0.0
 10
-0.3334330708661418
 20
0.3345511811023622
 30
0.0
 10
-0.3315433070866142
 20
0.3343031496062992
 30
0.0
 10
-0.3286259842519685
 20
0.3343031496062992
 30
0.0
 10
-0.3286259842519685
 20
0.3343031496062992
 30
0.0
 10
-0.3286259842519685
 20
0.3343031496062992
 30
0.0
 10
-0.3253503937007874
 20
0.3343031496062992
 30
0.0
 10
-0.3253503937007874
 20
0.3343031496062992
 30
0.0
 10
-0.3253503937007874
 20
0.3343031496062992
 30
0.0
 10
-0.3253503937007874
 20
0.3343031496062992
 30
0.0
 10
-0.3253503937007874
 20
0.3274685039370079
 30
0.0
 10
-0.3253503937007874
 20
0.3274685039370079
 30
0.0
 10
-0.3253503937007874
 20
0.3274685039370079
 30
0.0
 10
-0.3253503937007874
 20
0.3274685039370079
 30
0.0
 10
-0.3596259842519685
 20
0.3274685039370079
 30
0.0
 10
-0.3596259842519685
 20
0.3274685039370079
 30
0.0
 10
-0.3596259842519685
 20
0.3274685039370079
 30
0.0
 10
-0.3596259842519685
 20
0.3274685039370079
 30
0.0
 10
-0.3596259842519685
 20
0.3343031496062992
 30
0.0
 10
-0.3596259842519685
 20
0.3343031496062992
 30
0.0
 10
-0.3596259842519685
 20
0.3343031496062992
 30
0.0
 10
-0.3569606299212599
 20
0.3343582677165354
 30
0.0
 10
-0.3548779527559055
 20
0.3346338582677165
 30
0.0
 10
-0.3533503937007874
 20
0.3351614173228347
 30
0.0
 10
-0.3533503937007874
 20
0.3351614173228347
 30
0.0
 10
-0.3518503937007874
 20
0.3356614173228347
 30
0.0
 10
-0.3503779527559055
 20
0.3364685039370079
 30
0.0
 10
-0.3489606299212599
 20
0.3375511811023622
 30
0.0
 10
-0.3489606299212599
 20
0.3375511811023622
 30
0.0
 10
-0.3465157480314961
 20
0.3395236220472441
 30
0.0
 10
-0.3447677165354331
 20
0.3410511811023622
 30
0.0
 10
-0.3436811023622047
 20
0.3421889763779528
 30
0.0
 10
-0.3436811023622047
 20
0.3421889763779528
 30
0.0
 10
-0.3436811023622047
 20
0.3421889763779528
 30
0.0
 10
-0.3198228346456693
 20
0.3666889763779528
 30
0.0
 10
-0.3198228346456693
 20
0.3666889763779528
 30
0.0
 10
-0.3198228346456693
 20
0.3666889763779528
 30
0.0
 10
-0.3198228346456693
 20
0.3666889763779528
 30
0.0
 10
-0.3400984251968504
 20
0.3899685039370079
 30
0.0
 10
-0.3400984251968504
 20
0.3899685039370079
 30
0.0
 10
-0.3400984251968504
 20
0.3899685039370079
 30
0.0
 10
-0.3426535433070866
 20
0.3928582677165354
 30
0.0
 10
-0.3446535433070866
 20
0.3948582677165354
 30
0.0
 10
-0.3461535433070866
 20
0.3960236220472441
 30
0.0
 10
-0.3461535433070866
 20
0.3960236220472441
 30
0.0
 10
-0.3476535433070866
 20
0.3971889763779528
 30
0.0
 10
-0.3490984251968504
 20
0.3980236220472441
 30
0.0
 10
-0.3505157480314961
 20
0.3984685039370079
 30
0.0
 10
-0.3505157480314961
 20
0.3984685039370079
 30
0.0
 10
-0.3519330708661417
 20
0.3989409448818898
 30
0.0
 10
-0.3539055118110236
 20
0.3991614173228347
 30
0.0
 10
-0.3564606299212599
 20
0.3991614173228347
 30
0.0
 10
-0.3564606299212599
 20
0.3991614173228347
 30
0.0
 10
-0.3564606299212599
 20
0.3991614173228347
 30
0.0
 10
-0.3564606299212599
 20
0.405996062992126
 30
0.0
 10
-0.3564606299212599
 20
0.405996062992126
 30
0.0
  0
SPLINE
  5
3D
330
1F
100
AcDbEntity
  8
P1-Layer 1
 62
   250
100
AcDbSpline
210
0.0
220
0.0
230
1.0
 70
    11
 71
     3
 72
    48
 73
    44
 74
     0
 42
0.0000000001
 43
0.0000000001
 40
0.0
 40
0.0
 40
0.0
 40
0.0
 40
0.0909090909090909
 40
0.0909090909090909
 40
0.0909090909090909
 40
0.0909090909090909
 40
0.1818181818181818
 40
0.1818181818181818
 40
0.1818181818181818
 40
0.1818181818181818
 40
0.2727272727272727
 40
0.2727272727272727
 40
0.2727272727272727
 40
0.2727272727272727
 40
0.3636363636363637
 40
0.3636363636363637
 40
0.3636363636363637
 40
0.3636363636363637
 40
0.4545454545454546
 40
0.4545454545454546
 40
0.4545454545454546
 40
0.4545454545454546
 40
0.5454545454545455
 40
0.5454545454545455
 40
0.5454545454545455
 40
0.5454545454545455
 40
0.6363636363636365
 40
0.6363636363636365
 40
0.6363636363636365
 40
0.6363636363636365
 40
0.7272727272727274
 40
0.7272727272727274
 40
0.7272727272727274
 40
0.7272727272727274
 40
0.8181818181818183
 40
0.8181818181818183
 40
0.8181818181818183
 40
0.8181818181818183
 40
0.9090909090909093
 40
0.9090909090909093
 40
0.9090909090909093
 40
0.9090909090909093
 40
1.0
 40
1.0
 40
1.0
 40
1.0
 10
-0.1524330708661418
 20
0.440996062992126
 30
0.0
 10
-0.1524330708661418
 20
0.440996062992126
 30
0.0
 10
-0.1386850393700788
 20
0.440996062992126
 30
0.0
 10
-0.1386850393700788
 20
0.440996062992126
 30
0.0
 10
-0.1386850393700788
 20
0.440996062992126
 30
0.0
 10
-0.1386850393700788
 20
0.440996062992126
 30
0.0
 10
-0.1386850393700788
 20
0.374996062992126
 30
0.0
 10
-0.1386850393700788
 20
0.374996062992126
 30
0.0
 10
-0.1386850393700788
 20
0.374996062992126
 30
0.0
 10
-0.1386850393700788
 20
0.374996062992126
 30
0.0
 10
-0.1173503937007874
 20
0.374996062992126
 30
0.0
 10
-0.1173503937007874
 20
0.374996062992126
 30
0.0
 10
-0.1173503937007874
 20
0.374996062992126
 30
0.0
 10
-0.1173503937007874
 20
0.374996062992126
 30
0.0
 10
-0.1173503937007874
 20
0.3648307086614173
 30
0.0
 10
-0.1173503937007874
 20
0.3648307086614173
 30
0.0
 10
-0.1173503937007874
 20
0.3648307086614173
 30
0.0
 10
-0.1173503937007874
 20
0.3648307086614173
 30
0.0
 10
-0.1386850393700788
 20
0.3648307086614173
 30
0.0
 10
-0.1386850393700788
 20
0.3648307086614173
 30
0.0
 10
-0.1386850393700788
 20
0.3648307086614173
 30
0.0
 10
-0.1386850393700788
 20
0.3648307086614173
 30
0.0
 10
-0.1386850393700788
 20
0.3274685039370079
 30
0.0
 10
-0.1386850393700788
 20
0.3274685039370079
 30
0.0
 10
-0.1386850393700788
 20
0.3274685039370079
 30
0.0
 10
-0.1386850393700788
 20
0.3274685039370079
 30
0.0
 10
-0.1524330708661418
 20
0.3274685039370079
 30
0.0
 10
-0.1524330708661418
 20
0.3274685039370079
 30
0.0
 10
-0.1524330708661418
 20
0.3274685039370079
 30
0.0
 10
-0.1524330708661418
 20
0.3274685039370079
 30
0.0
 10
-0.1524330708661418
 20
0.3648307086614173
 30
0.0
 10
-0.1524330708661418
 20
0.3648307086614173
 30
0.0
 10
-0.1524330708661418
 20
0.3648307086614173
 30
0.0
 10
-0.1524330708661418
 20
0.3648307086614173
 30
0.0
 10
-0.2059055118110236
 20
0.3648307086614173
 30
0.0
 10
-0.2059055118110236
 20
0.3648307086614173
 30
0.0
 10
-0.2059055118110236
 20
0.3648307086614173
 30
0.0
 10
-0.2059055118110236
 20
0.3648307086614173
 30
0.0
 10
-0.2059055118110236
 20
0.3791338582677166
 30
0.0
 10
-0.2059055118110236
 20
0.3791338582677166
 30
0.0
 10
-0.2059055118110236
 20
0.3791338582677166
 30
0.0
 10
-0.2059055118110236
 20
0.3791338582677166
 30
0.0
 10
-0.1524330708661418
 20
0.440996062992126
 30
0.0
 10
-0.1524330708661418
 20
0.440996062992126
 30
0.0
  0
SPLINE
  5
3E
330
1F
100
AcDbEntity
  8
P1-Layer 1
 62
   250
100
AcDbSpline
210
0.0
220
0.0
230
1.0
 70
    11
 71
     3
 72
    16
 73
    12
 74
     0
 42
0.0000000001
 43
0.0000000001
 40
0.0
 40
0.0
 40
0.0
 40
0.0
 40
0.3333333333333333
 40
0.3333333333333333
 40
0.3333333333333333
 40
0.3333333333333333
 40
0.6666666666666666
 40
0.6666666666666666
 40
0.6666666666666666
 40
0.6666666666666666
 40
1.0
 40
1.0
 40
1.0
 40
1.0
 10
-0.1524330708661418
 20
0.374996062992126
 30
0.0
 10
-0.1524330708661418
 20
0.374996062992126
 30
0.0
 10
-0.1524330708661418
 20
0.4283858267716535
 30
0.0
 10
-0.1524330708661418
 20
0.4283858267716535
 30
0.0
 10
-0.1524330708661418
 20
0.4283858267716535
 30
0.0
 10
-0.1524330708661418
 20
0.4283858267716535
 30
0.0
 10
-0.198488188976378
 20
0.374996062992126
 30
0.0
 10
-0.198488188976378
 20
0.374996062992126
 30
0.0
 10
-0.198488188976378
 20
0.374996062992126
 30
0.0
 10
-0.198488188976378
 20
0.374996062992126
 30
0.0
 10
-0.1524330708661418
 20
0.374996062992126
 30
0.0
 10
-0.1524330708661418
 20
0.374996062992126
 30
0.0
  0
SPLINE
  5
3F
330
1F
100
AcDbEntity
  8
P1-Layer 1
 62
   250
100
AcDbSpline
210
0.0
220
0.0
230
1.0
 70
    11
 71
     3
 72
    20
 73
    16
 74
     0
 42
0.0000000001
 43
0.0000000001
 40
0.0
 40
0.0
 40
0.0
 40
0.0
 40
0.25
 40
0.25
 40
0.25
 40
0.25
 40
0.5
 40
0.5
 40
0.5
 40
0.5
 40
0.75
 40
0.75
 40
0.75
 40
0.75
 40
1.0
 40
1.0
 40
1.0
 40
1.0
 10
-0.1003503937007874
 20
0.3739409448818898
 30
0.0
 10
-0.1003503937007874
 20
0.3739409448818898
 30
0.0
 10
-0.0520157480314961
 20
0.3739409448818898
 30
0.0
 10
-0.0520157480314961
 20
0.3739409448818898
 30
0.0
 10
-0.0520157480314961
 20
0.3739409448818898
 30
0.0
 10
-0.0520157480314961
 20
0.3739409448818898
 30
0.0
 10
-0.0520157480314961
 20
0.3638582677165355
 30
0.0
 10
-0.0520157480314961
 20
0.3638582677165355
 30
0.0
 10
-0.0520157480314961
 20
0.3638582677165355
 30
0.0
 10
-0.0520157480314961
 20
0.3638582677165355
 30
0.0
 10
-0.1003503937007874
 20
0.3638582677165355
 30
0.0
 10
-0.1003503937007874
 20
0.3638582677165355
 30
0.0
 10
-0.1003503937007874
 20
0.3638582677165355
 30
0.0
 10
-0.1003503937007874
 20
0.3638582677165355
 30
0.0
 10
-0.1003503937007874
 20
0.3739409448818898
 30
0.0
 10
-0.1003503937007874
 20
0.3739409448818898
 30
0.0
  0
SPLINE
  5
40
330
1F
100
AcDbEntity
  8
P1-Layer 1
 62
   250
100
AcDbSpline
210
0.0
220
0.0
230
1.0
 70
    11
 71
     3
 72
    72
 73
    68
 74
     0
 42
0.0000000001
 43
0.0000000001
 40
0.0
 40
0.0
 40
0.0
 40
0.0
 40
0.0588235294117647
 40
0.0588235294117647
 40
0.0588235294117647
 40
0.0588235294117647
 40
0.1176470588235294
 40
0.1176470588235294
 40
0.1176470588235294
 40
0.1176470588235294
 40
0.1764705882352941
 40
0.1764705882352941
 40
0.1764705882352941
 40
0.1764705882352941
 40
0.2352941176470588
 40
0.2352941176470588
 40
0.2352941176470588
 40
0.2352941176470588
 40
0.2941176470588235
 40
0.2941176470588235
 40
0.2941176470588235
 40
0.2941176470588235
 40
0.3529411764705883
 40
0.3529411764705883
 40
0.3529411764705883
 40
0.3529411764705883
 40
0.411764705882353
 40
0.411764705882353
 40
0.411764705882353
 40
0.411764705882353
 40
0.4705882352941177
 40
0.4705882352941177
 40
0.4705882352941177
 40
0.4705882352941177
 40
0.5294117647058824
 40
0.5294117647058824
 40
0.5294117647058824
 40
0.5294117647058824
 40
0.5882352941176471
 40
0.5882352941176471
 40
0.5882352941176471
 40
0.5882352941176471
 40
0.6470588235294118
 40
0.6470588235294118
 40
0.6470588235294118
 40
0.6470588235294118
 40
0.7058823529411765
 40
0.7058823529411765
 40
0.7058823529411765
 40
0.7058823529411765
 40
0.7647058823529412
 40
0.7647058823529412
 40
0.7647058823529412
 40
0.7647058823529412
 40
0.823529411764706
 40
0.823529411764706
 40
0.823529411764706
 40
0.823529411764706
 40
0.8823529411764707
 40
0.8823529411764707
 40
0.8823529411764707
 40
0.8823529411764707
 40
0.9411764705882354
 40
0.9411764705882354
 40
0.9411764705882354
 40
0.9411764705882354
 40
1.0
 40
1.0
 40
1.0
 40
1.0
 10
0.0131771653543307
 20
0.440996062992126
 30
0.0
 10
0.0131771653543307
 20
0.440996062992126
 30
0.0
 10
0.019259842519685
 20
0.440996062992126
 30
0.0
 10
0.019259842519685
 20
0.440996062992126
 30
0.0
 10
0.019259842519685
 20
0.440996062992126
 30
0.0
 10
0.019259842519685
 20
0.440996062992126
 30
0.0
 10
0.019259842519685
 20
0.346748031496063
 30
0.0
 10
0.019259842519685
 20
0.346748031496063
 30
0.0
 10
0.019259842519685
 20
0.346748031496063
 30
0.0
 10
0.019259842519685
 20
0.3423031496062992
 30
0.0
 10
0.0195669291338583
 20
0.3394409448818898
 30
0.0
 10
0.0201220472440945
 20
0.3381614173228347
 30
0.0
 10
0.0201220472440945
 20
0.3381614173228347
 30
0.0
 10
0.0207047244094488
 20
0.3368858267716536
 30
0.0
 10
0.0216220472440945
 20
0.3359409448818898
 30
0.0
 10
0.0229251968503937
 20
0.3352755905511811
 30
0.0
 10
0.0229251968503937
 20
0.3352755905511811
 30
0.0
 10
0.0242322834645669
 20
0.3346338582677165
 30
0.0
 10
0.0268149606299213
 20
0.3343031496062992
 30
0.0
 10
0.0306771653543307
 20
0.3343031496062992
 30
0.0
 10
0.0306771653543307
 20
0.3343031496062992
 30
0.0
 10
0.0306771653543307
 20
0.3343031496062992
 30
0.0
 10
0.0386496062992126
 20
0.3343031496062992
 30
0.0
 10
0.0386496062992126
 20
0.3343031496062992
 30
0.0
 10
0.0386496062992126
 20
0.3343031496062992
 30
0.0
 10
0.0386496062992126
 20
0.3343031496062992
 30
0.0
 10
0.0386496062992126
 20
0.3274685039370079
 30
0.0
 10
0.0386496062992126
 20
0.3274685039370079
 30
0.0
 10
0.0386496062992126
 20
0.3274685039370079
 30
0.0
 10
0.0386496062992126
 20
0.3274685039370079
 30
0.0
 10
-0.014988188976378
 20
0.3274685039370079
 30
0.0
 10
-0.014988188976378
 20
0.3274685039370079
 30
0.0
 10
-0.014988188976378
 20
0.3274685039370079
 30
0.0
 10
-0.014988188976378
 20
0.3274685039370079
 30
0.0
 10
-0.014988188976378
 20
0.3343031496062992
 30
0.0
 10
-0.014988188976378
 20
0.3343031496062992
 30
0.0
 10
-0.014988188976378
 20
0.3343031496062992
 30
0.0
 10
-0.014988188976378
 20
0.3343031496062992
 30
0.0
 10
-0.0061299212598425
 20
0.3343031496062992
 30
0.0
 10
-0.0061299212598425
 20
0.3343031496062992
 30
0.0
 10
-0.0061299212598425
 20
0.3343031496062992
 30
0.0
 10
-0.0022677165354331
 20
0.3343031496062992
 30
0.0
 10
0.0002874015748031
 20
0.3346338582677165
 30
0.0
 10
0.0015669291338583
 20
0.3353307086614173
 30
0.0
 10
0.0015669291338583
 20
0.3353307086614173
 30
0.0
 10
0.0028425196850394
 20
0.335996062992126
 30
0.0
 10
0.0038425196850394
 20
0.3370787401574804
 30
0.0
 10
0.0045393700787402
 20
0.3385787401574804
 30
0.0
 10
0.0045393700787402
 20
0.3385787401574804
 30
0.0
 10
0.0052322834645669
 20
0.3400787401574804
 30
0.0
 10
0.0055944881889764
 20
0.3428031496062992
 30
0.0
 10
0.0055944881889764
 20
0.346748031496063
 30
0.0
 10
0.0055944881889764
 20
0.346748031496063
 30
0.0
 10
0.0055944881889764
 20
0.346748031496063
 30
0.0
 10
0.0055944881889764
 20
0.4242165354330709
 30
0.0
 10
0.0055944881889764
 20
0.4242165354330709
 30
0.0
 10
0.0055944881889764
 20
0.4242165354330709
 30
0.0
 10
0.0055944881889764
 20
0.4242165354330709
 30
0.0
 10
-0.014988188976378
 20
0.4242165354330709
 30
0.0
 10
-0.014988188976378
 20
0.4242165354330709
 30
0.0
 10
-0.014988188976378
 20
0.4242165354330709
 30
0.0
 10
-0.014988188976378
 20
0.4242165354330709
 30
0.0
 10
-0.014988188976378
 20
0.4312165354330709
 30
0.0
 10
-0.014988188976378
 20
0.4312165354330709
 30
0.0
 10
-0.014988188976378
 20
0.4312165354330709
 30
0.0
 10
-0.0037677165354331
 20
0.4327992125984252
 30
0.0
 10
0.0056220472440945
 20
0.4360511811023622
 30
0.0
 10
0.0131771653543307
 20
0.440996062992126
 30
0.0
  0
SPLINE
  5
41
330
1F
100
AcDbEntity
  8
P1-Layer 1
 62
   250
100
AcDbSpline
210
0.0
220
0.0
230
1.0
 70
    11
 71
     3
 72
    20
 73
    16
 74
     0
 42
0.0000000001
 43
0.0000000001
 40
0.0
 40
0.0
 40
0.0
 40
0.0
 40
0.25
 40
0.25
 40
0.25
 40
0.25
 40
0.5
 40
0.5
 40
0.5
 40
0.5
 40
0.75
 40
0.75
 40
0.75
 40
0.75
 40
1.0
 40
1.0
 40
1.0
 40
1.0
 10
0.1420118110236221
 20
0.4468582677165355
 30
0.0
 10
0.1420118110236221
 20
0.4468582677165355
 30
0.0
 10
0.0864291338582677
 20
0.2911614173228347
 30
0.0
 10
0.0864291338582677
 20
0.2911614173228347
 30
0.0
 10
0.0864291338582677
 20
0.2911614173228347
 30
0.0
 10
0.0864291338582677
 20
0.2911614173228347
 30
0.0
 10
0.0743740157480315
 20
0.2911614173228347
 30
0.0
 10
0.0743740157480315
 20
0.2911614173228347
 30
0.0
 10
0.0743740157480315
 20
0.2911614173228347
 30
0.0
 10
0.0743740157480315
 20
0.2911614173228347
 30
0.0
 10
0.1296220472440945
 20
0.4468582677165355
 30
0.0
 10
0.1296220472440945
 20
0.4468582677165355
 30
0.0
 10
0.1296220472440945
 20
0.4468582677165355
 30
0.0
 10
0.1296220472440945
 20
0.4468582677165355
 30
0.0
 10
0.1420118110236221
 20
0.4468582677165355
 30
0.0
 10
0.1420118110236221
 20
0.4468582677165355
 30
0.0
  0
SPLINE
  5
42
330
1F
100
AcDbEntity
  8
P1-Layer 1
 62
   250
100
AcDbSpline
210
0.0
220
0.0
230
1.0
 70
    11
 71
     3
 72
   136
 73
   132
 74
     0
 42
0.0000000001
 43
0.0000000001
 40
0.0
 40
0.0
 40
0.0
 40
0.0
 40
0.0303030303030303
 40
0.0303030303030303
 40
0.0303030303030303
 40
0.0303030303030303
 40
0.0606060606060606
 40
0.0606060606060606
 40
0.0606060606060606
 40
0.0606060606060606
 40
0.0909090909090909
 40
0.0909090909090909
 40
0.0909090909090909
 40
0.0909090909090909
 40
0.1212121212121212
 40
0.1212121212121212
 40
0.1212121212121212
 40
0.1212121212121212
 40
0.1515151515151515
 40
0.1515151515151515
 40
0.1515151515151515
 40
0.1515151515151515
 40
0.1818181818181818
 40
0.1818181818181818
 40
0.1818181818181818
 40
0.1818181818181818
 40
0.2121212121212121
 40
0.2121212121212121
 40
0.2121212121212121
 40
0.2121212121212121
 40
0.2424242424242424
 40
0.2424242424242424
 40
0.2424242424242424
 40
0.2424242424242424
 40
0.2727272727272727
 40
0.2727272727272727
 40
0.2727272727272727
 40
0.2727272727272727
 40
0.303030303030303
 40
0.303030303030303
 40
0.303030303030303
 40
0.303030303030303
 40
0.3333333333333333
 40
0.3333333333333333
 40
0.3333333333333333
 40
0.3333333333333333
 40
0.3636363636363635
 40
0.3636363636363635
 40
0.3636363636363635
 40
0.3636363636363635
 40
0.3939393939393938
 40
0.3939393939393938
 40
0.3939393939393938
 40
0.3939393939393938
 40
0.4242424242424241
 40
0.4242424242424241
 40
0.4242424242424241
 40
0.4242424242424241
 40
0.4545454545454544
 40
0.4545454545454544
 40
0.4545454545454544
 40
0.4545454545454544
 40
0.4848484848484846
 40
0.4848484848484846
 40
0.4848484848484846
 40
0.4848484848484846
 40
0.5151515151515149
 40
0.5151515151515149
 40
0.5151515151515149
 40
0.5151515151515149
 40
0.5454545454545452
 40
0.5454545454545452
 40
0.5454545454545452
 40
0.5454545454545452
 40
0.5757575757575755
 40
0.5757575757575755
 40
0.5757575757575755
 40
0.5757575757575755
 40
0.6060606060606057
 40
0.6060606060606057
 40
0.6060606060606057
 40
0.6060606060606057
 40
0.636363636363636
 40
0.636363636363636
 40
0.636363636363636
 40
0.636363636363636
 40
0.6666666666666663
 40
0.6666666666666663
 40
0.6666666666666663
 40
0.6666666666666663
 40
0.6969696969696966
 40
0.6969696969696966
 40
0.6969696969696966
 40
0.6969696969696966
 40
0.7272727272727269
 40
0.7272727272727269
 40
0.7272727272727269
 40
0.7272727272727269
 40
0.7575757575757571
 40
0.7575757575757571
 40
0.7575757575757571
 40
0.7575757575757571
 40
0.7878787878787874
 40
0.7878787878787874
 40
0.7878787878787874
 40
0.7878787878787874
 40
0.8181818181818177
 40
0.8181818181818177
 40
0.8181818181818177
 40
0.8181818181818177
 40
0.848484848484848
 40
0.848484848484848
 40
0.848484848484848
 40
0.848484848484848
 40
0.8787878787878782
 40
0.8787878787878782
 40
0.8787878787878782
 40
0.8787878787878782
 40
0.9090909090909085
 40
0.9090909090909085
 40
0.9090909090909085
 40
0.9090909090909085
 40
0.9393939393939388
 40
0.9393939393939388
 40
0.9393939393939388
 40
0.9393939393939388
 40
0.9696969696969691
 40
0.9696969696969691
 40
0.9696969696969691
 40
0.9696969696969691
 40
1.0
 40
1.0
 40
1.0
 40
1.0
 10
0.1794566929133858
 20
0.3981889763779528
 30
0.0
 10
0.1794566929133858
 20
0.3981889763779528
 30
0.0
 10
0.1715669291338583
 20
0.3972165354330709
 30
0.0
 10
0.1715669291338583
 20
0.3972165354330709
 30
0.0
 10
0.1715669291338583
 20
0.3972165354330709
 30
0.0
 10
0.1711220472440945
 20
0.4010511811023622
 30
0.0
 10
0.1709015748031496
 20
0.4042165354330709
 30
0.0
 10
0.1709015748031496
 20
0.4066614173228347
 30
0.0
 10
0.1709015748031496
 20
0.4066614173228347
 30
0.0
 10
0.1709015748031496
 20
0.4130511811023622
 30
0.0
 10
0.1726496062992126
 20
0.4191062992125985
 30
0.0
 10
0.1761220472440945
 20
0.4247992125984252
 30
0.0
 10
0.1761220472440945
 20
0.4247992125984252
 30
0.0
 10
0.1795944881889764
 20
0.430496062992126
 30
0.0
 10
0.1844291338582677
 20
0.4349409448818898
 30
0.0
 10
0.1906496062992126
 20
0.4381338582677166
 30
0.0
 10
0.1906496062992126
 20
0.4381338582677166
 30
0.0
 10
0.1968425196850394
 20
0.4413582677165355
 30
0.0
 10
0.203984251968504
 20
0.4429409448818898
 30
0.0
 10
0.212011811023622
 20
0.4429409448818898
 30
0.0
 10
0.212011811023622
 20
0.4429409448818898
 30
0.0
 10
0.2197598425196851
 20
0.4429409448818898
 30
0.0
 10
0.2265669291338583
 20
0.4414409448818898
 30
0.0
 10
0.2324291338582677
 20
0.4384409448818898
 30
0.0
 10
0.2324291338582677
 20
0.4384409448818898
 30
0.0
 10
0.2382874015748032
 20
0.4354133858267717
 30
0.0
 10
0.2427598425196851
 20
0.4312992125984252
 30
0.0
 10
0.2458976377952756
 20
0.4260511811023622
 30
0.0
 10
0.2458976377952756
 20
0.4260511811023622
 30
0.0
 10
0.2490118110236221
 20
0.4208307086614174
 30
0.0
 10
0.2505669291338583
 20
0.4148582677165354
 30
0.0
 10
0.2505669291338583
 20
0.4081062992125984
 30
0.0
 10
0.2505669291338583
 20
0.4081062992125984
 30
0.0
 10
0.2505669291338583
 20
0.4024133858267717
 30
0.0
 10
0.2495669291338583
 20
0.3971338582677166
 30
0.0
 10
0.2475118110236221
 20
0.3923031496062993
 30
0.0
 10
0.2475118110236221
 20
0.3923031496062993
 30
0.0
 10
0.245484251968504
 20
0.3874409448818898
 30
0.0
 10
0.2422047244094488
 20
0.3825236220472441
 30
0.0
 10
0.2377047244094488
 20
0.3776062992125984
 30
0.0
 10
0.2377047244094488
 20
0.3776062992125984
 30
0.0
 10
0.2343425196850394
 20
0.3739133858267717
 30
0.0
 10
0.2275393700787402
 20
0.3682755905511811
 30
0.0
 10
0.2172874015748032
 20
0.3606614173228346
 30
0.0
 10
0.2172874015748032
 20
0.3606614173228346
 30
0.0
 10
0.2043740157480315
 20
0.3510236220472441
 30
0.0
 10
0.1944842519685039
 20
0.3440236220472441
 30
0.0
 10
0.1875944881889764
 20
0.3396614173228347
 30
0.0
 10
0.1875944881889764
 20
0.3396614173228347
 30
0.0
 10
0.1875944881889764
 20
0.3396614173228347
 30
0.0
 10
0.2299015748031496
 20
0.3396614173228347
 30
0.0
 10
0.2299015748031496
 20
0.3396614173228347
 30
0.0
 10
0.2299015748031496
 20
0.3396614173228347
 30
0.0
 10
0.2349015748031496
 20
0.3396614173228347
 30
0.0
 10
0.2381496062992126
 20
0.3401338582677165
 30
0.0
 10
0.2396771653543307
 20
0.3410511811023622
 30
0.0
 10
0.2396771653543307
 20
0.3410511811023622
 30
0.0
 10
0.2417874015748032
 20
0.342248031496063
 30
0.0
 10
0.2432322834645669
 20
0.3450236220472441
 30
0.0
 10
0.243984251968504
 20
0.3493582677165354
 30
0.0
 10
0.243984251968504
 20
0.3493582677165354
 30
0.0
 10
0.243984251968504
 20
0.3493582677165354
 30
0.0
 10
0.2447047244094488
 20
0.353996062992126
 30
0.0
 10
0.2447047244094488
 20
0.353996062992126
 30
0.0
 10
0.2447047244094488
 20
0.353996062992126
 30
0.0
 10
0.2447047244094488
 20
0.353996062992126
 30
0.0
 10
0.2516220472440945
 20
0.353996062992126
 30
0.0
 10
0.2516220472440945
 20
0.353996062992126
 30
0.0
 10
0.2516220472440945
 20
0.353996062992126
 30
0.0
 10
0.2516220472440945
 20
0.353996062992126
 30
0.0
 10
0.2460944881889764
 20
0.3234133858267717
 30
0.0
 10
0.2460944881889764
 20
0.3234133858267717
 30
0.0
 10
0.2460944881889764
 20
0.3234133858267717
 30
0.0
 10
0.2460944881889764
 20
0.3234133858267717
 30
0.0
 10
0.2409015748031496
 20
0.3234133858267717
 30
0.0
 10
0.2409015748031496
 20
0.3234133858267717
 30
0.0
 10
0.2409015748031496
 20
0.3234133858267717
 30
0.0
 10
0.2409015748031496
 20
0.3234133858267717
 30
0.0
 10
0.239984251968504
 20
0.3274685039370079
 30
0.0
 10
0.239984251968504
 20
0.3274685039370079
 30
0.0
 10
0.239984251968504
 20
0.3274685039370079
 30
0.0
 10
0.239984251968504
 20
0.3274685039370079
 30
0.0
 10
0.1688740157480315
 20
0.3274685039370079
 30
0.0
 10
0.1688740157480315
 20
0.3274685039370079
 30
0.0
 10
0.1688740157480315
 20
0.3274685039370079
 30
0.0
 10
0.1688740157480315
 20
0.3274685039370079
 30
0.0
 10
0.1688740157480315
 20
0.3343031496062992
 30
0.0
 10
0.1688740157480315
 20
0.3343031496062992
 30
0.0
 10
0.1688740157480315
 20
0.3343031496062992
 30
0.0
 10
0.1688740157480315
 20
0.3343031496062992
 30
0.0
 10
0.1819015748031496
 20
0.3441614173228347
 30
0.0
 10
0.1819015748031496
 20
0.3441614173228347
 30
0.0
 10
0.1819015748031496
 20
0.3441614173228347
 30
0.0
 10
0.1917598425196851
 20
0.3514685039370079
 30
0.0
 10
0.1990118110236221
 20
0.3570787401574803
 30
0.0
 10
0.2036220472440945
 20
0.360996062992126
 30
0.0
 10
0.2036220472440945
 20
0.360996062992126
 30
0.0
 10
0.2123425196850394
 20
0.3683858267716536
 30
0.0
 10
0.2189291338582677
 20
0.3746889763779528
 30
0.0
 10
0.2233425196850394
 20
0.3799133858267716
 30
0.0
 10
0.2233425196850394
 20
0.3799133858267716
 30
0.0
 10
0.227759842519685
 20
0.3851614173228347
 30
0.0
 10
0.2308149606299213
 20
0.3898858267716536
 30
0.0
 10
0.2324566929133858
 20
0.3940787401574804
 30
0.0
 10
0.2324566929133858
 20
0.3940787401574804
 30
0.0
 10
0.2341220472440945
 20
0.3982716535433071
 30
0.0
 10
0.2349566929133858
 20
0.4026889763779528
 30
0.0
 10
0.2349566929133858
 20
0.4073031496062992
 30
0.0
 10
0.2349566929133858
 20
0.4073031496062992
 30
0.0
 10
0.2349566929133858
 20
0.4149409448818898
 30
0.0
 10
0.232484251968504
 20
0.4212165354330709
 30
0.0
 10
0.2275944881889764
 20
0.4261062992125985
 30
0.0
 10
0.2275944881889764
 20
0.4261062992125985
 30
0.0
 10
0.2226771653543307
 20
0.430996062992126
 30
0.0
 10
0.2162874015748032
 20
0.4334133858267717
 30
0.0
 10
0.2084291338582677
 20
0.4334133858267717
 30
0.0
 10
0.2084291338582677
 20
0.4334133858267717
 30
0.0
 10
0.2027874015748032
 20
0.4334133858267717
 30
0.0
 10
0.197732283464567
 20
0.4322165354330709
 30
0.0
 10
0.1933149606299213
 20
0.4297716535433071
 30
0.0
 10
0.1933149606299213
 20
0.4297716535433071
 30
0.0
 10
0.1889015748031496
 20
0.4273307086614173
 30
0.0
 10
0.1854291338582677
 20
0.4239133858267717
 30
0.0
 10
0.1828740157480315
 20
0.419496062992126
 30
0.0
 10
0.1828740157480315
 20
0.419496062992126
 30
0.0
 10
0.1803149606299213
 20
0.4151062992125985
 30
0.0
 10
0.1790393700787402
 20
0.4103582677165354
 30
0.0
 10
0.1790393700787402
 20
0.4052716535433071
 30
0.0
 10
0.1790393700787402
 20
0.4052716535433071
 30
0.0
 10
0.1790393700787402
 20
0.4033582677165354
 30
0.0
 10
0.1791771653543307
 20
0.400996062992126
 30
0.0
 10
0.1794566929133858
 20
0.3981889763779528
 30
0.0
  0
SPLINE
  5
43
330
1F
100
AcDbEntity
  8
P1-Layer 1
 62
   250
100
AcDbSpline
210
0.0
220
0.0
230
1.0
 70
    11
 71
     3
 72
    60
 73
    56
 74
     0
 42
0.0000000001
 43
0.0000000001
 40
0.0
 40
0.0
 40
0.0
 40
0.0
 40
0.0714285714285714
 40
0.0714285714285714
 40
0.0714285714285714
 40
0.0714285714285714
 40
0.1428571428571429
 40
0.1428571428571429
 40
0.1428571428571429
 40
0.1428571428571429
 40
0.2142857142857143
 40
0.2142857142857143
 40
0.2142857142857143
 40
0.2142857142857143
 40
0.2857142857142857
 40
0.2857142857142857
 40
0.2857142857142857
 40
0.2857142857142857
 40
0.3571428571428571
 40
0.3571428571428571
 40
0.3571428571428571
 40
0.3571428571428571
 40
0.4285714285714285
 40
0.4285714285714285
 40
0.4285714285714285
 40
0.4285714285714285
 40
0.4999999999999999
 40
0.4999999999999999
 40
0.4999999999999999
 40
0.4999999999999999
 40
0.5714285714285713
 40
0.5714285714285713
 40
0.5714285714285713
 40
0.5714285714285713
 40
0.6428571428571427
 40
0.6428571428571427
 40
0.6428571428571427
 40
0.6428571428571427
 40
0.7142857142857141
 40
0.7142857142857141
 40
0.7142857142857141
 40
0.7142857142857141
 40
0.7857142857142855
 40
0.7857142857142855
 40
0.7857142857142855
 40
0.7857142857142855
 40
0.8571428571428569
 40
0.8571428571428569
 40
0.8571428571428569
 40
0.8571428571428569
 40
0.9285714285714283
 40
0.9285714285714283
 40
0.9285714285714283
 40
0.9285714285714283
 40
1.0
 40
1.0
 40
1.0
 40
1.0
 10
0.274011811023622
 20
0.3989133858267717
 30
0.0
 10
0.274011811023622
 20
0.3989133858267717
 30
0.0
 10
0.2696220472440945
 20
0.4043031496062992
 30
0.0
 10
0.2696220472440945
 20
0.4043031496062992
 30
0.0
 10
0.2696220472440945
 20
0.4043031496062992
 30
0.0
 10
0.280736220472441
 20
0.4133582677165354
 30
0.0
 10
0.2863188976377953
 20
0.4209133858267717
 30
0.0
 10
0.2863188976377953
 20
0.426996062992126
 30
0.0
 10
0.2863188976377953
 20
0.426996062992126
 30
0.0
 10
0.2863188976377953
 20
0.4276889763779528
 30
0.0
 10
0.2862637795275591
 20
0.4285787401574803
 30
0.0
 10
0.2861496062992126
 20
0.4296062992125985
 30
0.0
 10
0.2861496062992126
 20
0.4296062992125985
 30
0.0
 10
0.285236220472441
 20
0.4292165354330709
 30
0.0
 10
0.2843188976377953
 20
0.4289133858267717
 30
0.0
 10
0.2834566929133858
 20
0.4287165354330709
 30
0.0
 10
0.2834566929133858
 20
0.4287165354330709
 30
0.0
 10
0.2825944881889764
 20
0.428496062992126
 30
0.0
 10
0.2817913385826772
 20
0.4283858267716535
 30
0.0
 10
0.2810118110236221
 20
0.4283858267716535
 30
0.0
 10
0.2810118110236221
 20
0.4283858267716535
 30
0.0
 10
0.2784015748031496
 20
0.4283858267716535
 30
0.0
 10
0.2763188976377953
 20
0.4292165354330709
 30
0.0
 10
0.274763779527559
 20
0.4309133858267717
 30
0.0
 10
0.274763779527559
 20
0.4309133858267717
 30
0.0
 10
0.2731771653543307
 20
0.4325787401574803
 30
0.0
 10
0.2724015748031496
 20
0.4347165354330709
 30
0.0
 10
0.2724015748031496
 20
0.4373307086614173
 30
0.0
 10
0.2724015748031496
 20
0.4373307086614173
 30
0.0
 10
0.2724015748031496
 20
0.4398858267716536
 30
0.0
 10
0.2733464566929134
 20
0.4421062992125984
 30
0.0
 10
0.275236220472441
 20
0.443996062992126
 30
0.0
 10
0.275236220472441
 20
0.443996062992126
 30
0.0
 10
0.2771496062992126
 20
0.4459133858267717
 30
0.0
 10
0.2794291338582677
 20
0.4468582677165355
 30
0.0
 10
0.2820669291338583
 20
0.4468582677165355
 30
0.0
 10
0.2820669291338583
 20
0.4468582677165355
 30
0.0
 10
0.2857637795275591
 20
0.4468582677165355
 30
0.0
 10
0.2889291338582677
 20
0.4453858267716536
 30
0.0
 10
0.2915669291338583
 20
0.4424133858267716
 30
0.0
 10
0.2915669291338583
 20
0.4424133858267716
 30
0.0
 10
0.2941771653543307
 20
0.4394685039370079
 30
0.0
 10
0.2955118110236221
 20
0.4356614173228346
 30
0.0
 10
0.2955118110236221
 20
0.430996062992126
 30
0.0
 10
0.2955118110236221
 20
0.430996062992126
 30
0.0
 10
0.2955118110236221
 20
0.4279409448818898
 30
0.0
 10
0.2948740157480315
 20
0.424744094488189
 30
0.0
 10
0.2936220472440945
 20
0.4214133858267717
 30
0.0
 10
0.2936220472440945
 20
0.4214133858267717
 30
0.0
 10
0.2923740157480315
 20
0.4180787401574803
 30
0.0
 10
0.2905669291338583
 20
0.414996062992126
 30
0.0
 10
0.2881771653543307
 20
0.4121338582677165
 30
0.0
 10
0.2881771653543307
 20
0.4121338582677165
 30
0.0
 10
0.2857913385826772
 20
0.4093031496062992
 30
0.0
 10
0.2810669291338583
 20
0.4048858267716536
 30
0.0
 10
0.274011811023622
 20
0.3989133858267717
 30
0.0
  0
SPLINE
  5
44
330
1F
100
AcDbEntity
  8
P1-Layer 1
 62
   250
100
AcDbSpline
210
0.0
220
0.0
230
1.0
 70
    11
 71
     3
 72
    60
 73
    56
 74
     0
 42
0.0000000001
 43
0.0000000001
 40
0.0
 40
0.0
 40
0.0
 40
0.0
 40
0.0714285714285714
 40
0.0714285714285714
 40
0.0714285714285714
 40
0.0714285714285714
 40
0.1428571428571429
 40
0.1428571428571429
 40
0.1428571428571429
 40
0.1428571428571429
 40
0.2142857142857143
 40
0.2142857142857143
 40
0.2142857142857143
 40
0.2142857142857143
 40
0.2857142857142857
 40
0.2857142857142857
 40
0.2857142857142857
 40
0.2857142857142857
 40
0.3571428571428571
 40
0.3571428571428571
 40
0.3571428571428571
 40
0.3571428571428571
 40
0.4285714285714285
 40
0.4285714285714285
 40
0.4285714285714285
 40
0.4285714285714285
 40
0.4999999999999999
 40
0.4999999999999999
 40
0.4999999999999999
 40
0.4999999999999999
 40
0.5714285714285713
 40
0.5714285714285713
 40
0.5714285714285713
 40
0.5714285714285713
 40
0.6428571428571427
 40
0.6428571428571427
 40
0.6428571428571427
 40
0.6428571428571427
 40
0.7142857142857141
 40
0.7142857142857141
 40
0.7142857142857141
 40
0.7142857142857141
 40
0.7857142857142855
 40
0.7857142857142855
 40
0.7857142857142855
 40
0.7857142857142855
 40
0.8571428571428569
 40
0.8571428571428569
 40
0.8571428571428569
 40
0.8571428571428569
 40
0.9285714285714283
 40
0.9285714285714283
 40
0.9285714285714283
 40
0.9285714285714283
 40
1.0
 40
1.0
 40
1.0
 40
1.0
 10
0.3030669291338583
 20
0.3989133858267717
 30
0.0
 10
0.3030669291338583
 20
0.3989133858267717
 30
0.0
 10
0.2986771653543307
 20
0.4043031496062992
 30
0.0
 10
0.2986771653543307
 20
0.4043031496062992
 30
0.0
 10
0.2986771653543307
 20
0.4043031496062992
 30
0.0
 10
0.3097913385826772
 20
0.4133582677165354
 30
0.0
 10
0.3153740157480315
 20
0.4209133858267717
 30
0.0
 10
0.3153740157480315
 20
0.426996062992126
 30
0.0
 10
0.3153740157480315
 20
0.426996062992126
 30
0.0
 10
0.3153740157480315
 20
0.4276889763779528
 30
0.0
 10
0.3153188976377953
 20
0.4285787401574803
 30
0.0
 10
0.3152047244094489
 20
0.4296062992125985
 30
0.0
 10
0.3152047244094489
 20
0.4296062992125985
 30
0.0
 10
0.3142913385826772
 20
0.4292165354330709
 30
0.0
 10
0.3133740157480315
 20
0.4289133858267717
 30
0.0
 10
0.3125118110236221
 20
0.4287165354330709
 30
0.0
 10
0.3125118110236221
 20
0.4287165354330709
 30
0.0
 10
0.3116496062992126
 20
0.428496062992126
 30
0.0
 10
0.3108188976377953
 20
0.4283858267716535
 30
0.0
 10
0.3099842519685039
 20
0.4283858267716535
 30
0.0
 10
0.3099842519685039
 20
0.4283858267716535
 30
0.0
 10
0.3074291338582678
 20
0.4283858267716535
 30
0.0
 10
0.3053740157480315
 20
0.4292165354330709
 30
0.0
 10
0.3038188976377953
 20
0.4309133858267717
 30
0.0
 10
0.3038188976377953
 20
0.4309133858267717
 30
0.0
 10
0.302236220472441
 20
0.4325787401574803
 30
0.0
 10
0.3014566929133858
 20
0.4347165354330709
 30
0.0
 10
0.3014566929133858
 20
0.4373307086614173
 30
0.0
 10
0.3014566929133858
 20
0.4373307086614173
 30
0.0
 10
0.3014566929133858
 20
0.4398858267716536
 30
0.0
 10
0.3024015748031496
 20
0.4421062992125984
 30
0.0
 10
0.3042913385826772
 20
0.443996062992126
 30
0.0
 10
0.3042913385826772
 20
0.443996062992126
 30
0.0
 10
0.3061771653543307
 20
0.4459133858267717
 30
0.0
 10
0.3084842519685039
 20
0.4468582677165355
 30
0.0
 10
0.3111220472440945
 20
0.4468582677165355
 30
0.0
 10
0.3111220472440945
 20
0.4468582677165355
 30
0.0
 10
0.3148188976377953
 20
0.4468582677165355
 30
0.0
 10
0.3179842519685039
 20
0.4453858267716536
 30
0.0
 10
0.3206220472440945
 20
0.4424133858267716
 30
0.0
 10
0.3206220472440945
 20
0.4424133858267716
 30
0.0
 10
0.323232283464567
 20
0.4394685039370079
 30
0.0
 10
0.3245669291338583
 20
0.4356614173228346
 30
0.0
 10
0.3245669291338583
 20
0.430996062992126
 30
0.0
 10
0.3245669291338583
 20
0.430996062992126
 30
0.0
 10
0.3245669291338583
 20
0.4279409448818898
 30
0.0
 10
0.3239291338582677
 20
0.424744094488189
 30
0.0
 10
0.3226771653543307
 20
0.4214133858267717
 30
0.0
 10
0.3226771653543307
 20
0.4214133858267717
 30
0.0
 10
0.3214291338582677
 20
0.4180787401574803
 30
0.0
 10
0.3196220472440945
 20
0.414996062992126
 30
0.0
 10
0.3172362204724409
 20
0.4121338582677165
 30
0.0
 10
0.3172362204724409
 20
0.4121338582677165
 30
0.0
 10
0.3148464566929134
 20
0.4093031496062992
 30
0.0
 10
0.3101220472440945
 20
0.4048858267716536
 30
0.0
 10
0.3030669291338583
 20
0.3989133858267717
 30
0.0
  0
SPLINE
  5
45
330
1F
100
AcDbEntity
  8
P1-Layer 1
 62
   250
370
    40
100
AcDbSpline
210
0.0
220
0.0
230
1.0
 70
     8
 71
     3
 72
    16
 73
    12
 74
     0
 42
0.0000000001
 43
0.0000000001
 40
0.0
 40
0.0
 40
0.0
 40
0.0
 40
0.3333333333333333
 40
0.3333333333333333
 40
0.3333333333333333
 40
0.3333333333333333
 40
0.6666666666666666
 40
0.6666666666666666
 40
0.6666666666666666
 40
0.6666666666666666
 40
1.0
 40
1.0
 40
1.0
 40
1.0
 10
-2.286161417322835
 20
1.749842519685039
 30
0.0
 10
-2.286161417322835
 20
1.749842519685039
 30
0.0
 10
-2.286161417322835
 20
0.7498425196850393
 30
0.0
 10
-2.286161417322835
 20
0.7498425196850393
 30
0.0
 10
-2.286161417322835
 20
0.7498425196850393
 30
0.0
 10
-2.286161417322835
 20
0.7498425196850393
 30
0.0
 10
2.251338582677165
 20
0.7498425196850393
 30
0.0
 10
2.251338582677165
 20
0.7498425196850393
 30
0.0
 10
2.251338582677165
 20
0.7498425196850393
 30
0.0
 10
2.251338582677165
 20
0.7498425196850393
 30
0.0
 10
2.251338582677165
 20
1.749842519685039
 30
0.0
 10
2.251338582677165
 20
1.749842519685039
 30
0.0
  0
SPLINE
  5
46
330
1F
100
AcDbEntity
  8
P1-Layer 1
 62
   250
370
    40
100
AcDbSpline
210
0.0
220
0.0
230
1.0
 70
     8
 71
     3
 72
    96
 73
    92
 74
     0
 42
0.0000000001
 43
0.0000000001
 40
0.0
 40
0.0
 40
0.0
 40
0.0
 40
0.0434782608695652
 40
0.0434782608695652
 40
0.0434782608695652
 40
0.0434782608695652
 40
0.0869565217391304
 40
0.0869565217391304
 40
0.0869565217391304
 40
0.0869565217391304
 40
0.1304347826086957
 40
0.1304347826086957
 40
0.1304347826086957
 40
0.1304347826086957
 40
0.1739130434782609
 40
0.1739130434782609
 40
0.1739130434782609
 40
0.1739130434782609
 40
0.2173913043478261
 40
0.2173913043478261
 40
0.2173913043478261
 40
0.2173913043478261
 40
0.2608695652173913
 40
0.2608695652173913
 40
0.2608695652173913
 40
0.2608695652173913
 40
0.3043478260869565
 40
0.3043478260869565
 40
0.3043478260869565
 40
0.3043478260869565
 40
0.3478260869565217
 40
0.3478260869565217
 40
0.3478260869565217
 40
0.3478260869565217
 40
0.3913043478260869
 40
0.3913043478260869
 40
0.3913043478260869
 40
0.3913043478260869
 40
0.4347826086956521
 40
0.4347826086956521
 40
0.4347826086956521
 40
0.4347826086956521
 40
0.4782608695652173
 40
0.4782608695652173
 40
0.4782608695652173
 40
0.4782608695652173
 40
0.5217391304347825
 40
0.5217391304347825
 40
0.5217391304347825
 40
0.5217391304347825
 40
0.5652173913043477
 40
0.5652173913043477
 40
0.5652173913043477
 40
0.5652173913043477
 40
0.6086956521739129
 40
0.6086956521739129
 40
0.6086956521739129
 40
0.6086956521739129
 40
0.6521739130434781
 40
0.6521739130434781
 40
0.6521739130434781
 40
0.6521739130434781
 40
0.6956521739130432
 40
0.6956521739130432
 40
0.6956521739130432
 40
0.6956521739130432
 40
0.7391304347826084
 40
0.7391304347826084
 40
0.7391304347826084
 40
0.7391304347826084
 40
0.7826086956521736
 40
0.7826086956521736
 40
0.7826086956521736
 40
0.7826086956521736
 40
0.8260869565217388
 40
0.8260869565217388
 40
0.8260869565217388
 40
0.8260869565217388
 40
0.869565217391304
 40
0.869565217391304
 40
0.869565217391304
 40
0.869565217391304
 40
0.9130434782608692
 40
0.9130434782608692
 40
0.9130434782608692
 40
0.9130434782608692
 40
0.9565217391304344
 40
0.9565217391304344
 40
0.9565217391304344
 40
0.9565217391304344
 40
1.0
 40
1.0
 40
1.0
 40
1.0
 10
-2.286161417322835
 20
1.749842519685039
 30
0.0
 10
-2.286161417322835
 20
1.749842519685039
 30
0.0
 10
-1.348661417322835
 20
1.749842519685039
 30
0.0
 10
-1.348661417322835
 20
1.749842519685039
 30
0.0
 10
-1.348661417322835
 20
1.749842519685039
 30
0.0
 10
-1.348661417322835
 20
1.74498031496063
 30
0.0
 10
-1.348661417322835
 20
1.739425196850394
 30
0.0
 10
-1.348661417322835
 20
1.733870078740158
 30
0.0
 10
-1.348661417322835
 20
1.733870078740158
 30
0.0
 10
-1.348661417322835
 20
1.736645669291339
 30
0.0
 10
-1.348661417322835
 20
1.739425196850394
 30
0.0
 10
-1.348661417322835
 20
1.742200787401575
 30
0.0
 10
-1.348661417322835
 20
1.742200787401575
 30
0.0
 10
-1.348661417322835
 20
1.722062992125984
 30
0.0
 10
-1.348661417322835
 20
1.701228346456693
 30
0.0
 10
-1.348661417322835
 20
1.680397637795276
 30
0.0
 10
-1.348661417322835
 20
1.680397637795276
 30
0.0
 10
-1.346578740157481
 20
1.680397637795276
 30
0.0
 10
-1.344496062992126
 20
1.680397637795276
 30
0.0
 10
-1.342413385826772
 20
1.680397637795276
 30
0.0
 10
-1.342413385826772
 20
1.680397637795276
 30
0.0
 10
-1.342413385826772
 20
1.680397637795276
 30
0.0
 10
-1.342413385826772
 20
1.680397637795276
 30
0.0
 10
-1.342413385826772
 20
1.680397637795276
 30
0.0
 10
-1.342413385826772
 20
1.680397637795276
 30
0.0
 10
-1.080606299212598
 20
1.719283464566929
 30
0.0
 10
-1.139633858267717
 20
1.52484251968504
 30
0.0
 10
-0.8701889763779528
 20
1.516507874015748
 30
0.0
 10
-0.8701889763779528
 20
1.516507874015748
 30
0.0
 10
-0.8701889763779528
 20
1.516507874015748
 30
0.0
 10
-0.8701889763779528
 20
1.516507874015748
 30
0.0
 10
-0.8701889763779528
 20
1.516507874015748
 30
0.0
 10
-0.8701889763779528
 20
1.516507874015748
 30
0.0
 10
-0.8701889763779528
 20
1.515814960629921
 30
0.0
 10
-0.869496062992126
 20
1.515118110236221
 30
0.0
 10
-0.8688031496062992
 20
1.513728346456693
 30
0.0
 10
-0.8688031496062992
 20
1.513728346456693
 30
0.0
 10
-0.8688031496062992
 20
1.490814960629921
 30
0.0
 10
-0.8688031496062992
 20
1.467200787401575
 30
0.0
 10
-0.8688031496062992
 20
1.443590551181103
 30
0.0
 10
-0.8688031496062992
 20
1.443590551181103
 30
0.0
 10
-0.3861614173228347
 20
1.443590551181103
 30
0.0
 10
0.0964763779527559
 20
1.443590551181103
 30
0.0
 10
0.5791141732283465
 20
1.443590551181103
 30
0.0
 10
0.5791141732283465
 20
1.443590551181103
 30
0.0
 10
0.6638385826771653
 20
1.443590551181103
 30
0.0
 10
0.7485590551181103
 20
1.443590551181103
 30
0.0
 10
0.8339763779527559
 20
1.443590551181103
 30
0.0
 10
0.8339763779527559
 20
1.443590551181103
 30
0.0
 10
0.8339763779527559
 20
1.443590551181103
 30
0.0
 10
0.8339763779527559
 20
1.443590551181103
 30
0.0
 10
0.8339763779527559
 20
1.443590551181103
 30
0.0
 10
0.8339763779527559
 20
1.443590551181103
 30
0.0
 10
0.8339763779527559
 20
1.466507874015748
 30
0.0
 10
0.8339763779527559
 20
1.49011811023622
 30
0.0
 10
0.8339763779527559
 20
1.513728346456693
 30
0.0
 10
0.8339763779527559
 20
1.513728346456693
 30
0.0
 10
0.8339763779527559
 20
1.514425196850394
 30
0.0
 10
0.8346692913385827
 20
1.515118110236221
 30
0.0
 10
0.8353661417322835
 20
1.516507874015748
 30
0.0
 10
0.8353661417322835
 20
1.516507874015748
 30
0.0
 10
0.8353661417322835
 20
1.516507874015748
 30
0.0
 10
0.8353661417322835
 20
1.516507874015748
 30
0.0
 10
0.8353661417322835
 20
1.516507874015748
 30
0.0
 10
0.8353661417322835
 20
1.516507874015748
 30
0.0
 10
1.104811023622047
 20
1.52484251968504
 30
0.0
 10
1.045783464566929
 20
1.719283464566929
 30
0.0
 10
1.306893700787402
 20
1.680397637795276
 30
0.0
 10
1.306893700787402
 20
1.680397637795276
 30
0.0
 10
1.306893700787402
 20
1.680397637795276
 30
0.0
 10
1.306893700787402
 20
1.680397637795276
 30
0.0
 10
1.306893700787402
 20
1.680397637795276
 30
0.0
 10
1.306893700787402
 20
1.680397637795276
 30
0.0
 10
1.308976377952756
 20
1.680397637795276
 30
0.0
 10
1.31105905511811
 20
1.680397637795276
 30
0.0
 10
1.313838582677166
 20
1.680397637795276
 30
0.0
 10
1.313838582677166
 20
1.680397637795276
 30
0.0
 10
1.313838582677166
 20
1.700535433070866
 30
0.0
 10
1.313838582677166
 20
1.721370078740158
 30
0.0
 10
1.313838582677166
 20
1.742200787401575
 30
0.0
 10
1.313838582677166
 20
1.742200787401575
 30
0.0
 10
1.313838582677166
 20
1.739425196850394
 30
0.0
 10
1.313838582677166
 20
1.736645669291339
 30
0.0
 10
1.313838582677166
 20
1.733870078740158
 30
0.0
 10
1.313838582677166
 20
1.733870078740158
 30
0.0
 10
1.313838582677166
 20
1.738728346456693
 30
0.0
 10
1.313838582677166
 20
1.744283464566929
 30
0.0
 10
1.313838582677166
 20
1.749842519685039
 30
0.0
 10
1.313838582677166
 20
1.749842519685039
 30
0.0
 10
1.313838582677166
 20
1.749842519685039
 30
0.0
 10
2.251338582677165
 20
1.749842519685039
 30
0.0
 10
2.251338582677165
 20
1.749842519685039
 30
0.0
  0
SPLINE
  5
47
330
1F
100
AcDbEntity
  8
P1-Layer 1
 62
   250
100
AcDbSpline
210
0.0
220
0.0
230
1.0
 70
    11
 71
     3
 72
   108
 73
   104
 74
     0
 42
0.0000000001
 43
0.0000000001
 40
0.0
 40
0.0
 40
0.0
 40
0.0
 40
0.0384615384615385
 40
0.0384615384615385
 40
0.0384615384615385
 40
0.0384615384615385
 40
0.0769230769230769
 40
0.0769230769230769
 40
0.0769230769230769
 40
0.0769230769230769
 40
0.1153846153846154
 40
0.1153846153846154
 40
0.1153846153846154
 40
0.1153846153846154
 40
0.1538461538461539
 40
0.1538461538461539
 40
0.1538461538461539
 40
0.1538461538461539
 40
0.1923076923076923
 40
0.1923076923076923
 40
0.1923076923076923
 40
0.1923076923076923
 40
0.2307692307692308
 40
0.2307692307692308
 40
0.2307692307692308
 40
0.2307692307692308
 40
0.2692307692307693
 40
0.2692307692307693
 40
0.2692307692307693
 40
0.2692307692307693
 40
0.3076923076923077
 40
0.3076923076923077
 40
0.3076923076923077
 40
0.3076923076923077
 40
0.3461538461538462
 40
0.3461538461538462
 40
0.3461538461538462
 40
0.3461538461538462
 40
0.3846153846153846
 40
0.3846153846153846
 40
0.3846153846153846
 40
0.3846153846153846
 40
0.423076923076923
 40
0.423076923076923
 40
0.423076923076923
 40
0.423076923076923
 40
0.4615384615384615
 40
0.4615384615384615
 40
0.4615384615384615
 40
0.4615384615384615
 40
0.4999999999999999
 40
0.4999999999999999
 40
0.4999999999999999
 40
0.4999999999999999
 40
0.5384615384615383
 40
0.5384615384615383
 40
0.5384615384615383
 40
0.5384615384615383
 40
0.5769230769230768
 40
0.5769230769230768
 40
0.5769230769230768
 40
0.5769230769230768
 40
0.6153846153846152
 40
0.6153846153846152
 40
0.6153846153846152
 40
0.6153846153846152
 40
0.6538461538461536
 40
0.6538461538461536
 40
0.6538461538461536
 40
0.6538461538461536
 40
0.6923076923076921
 40
0.6923076923076921
 40
0.6923076923076921
 40
0.6923076923076921
 40
0.7307692307692305
 40
0.7307692307692305
 40
0.7307692307692305
 40
0.7307692307692305
 40
0.7692307692307689
 40
0.7692307692307689
 40
0.7692307692307689
 40
0.7692307692307689
 40
0.8076923076923074
 40
0.8076923076923074
 40
0.8076923076923074
 40
0.8076923076923074
 40
0.8461538461538458
 40
0.8461538461538458
 40
0.8461538461538458
 40
0.8461538461538458
 40
0.8846153846153843
 40
0.8846153846153843
 40
0.8846153846153843
 40
0.8846153846153843
 40
0.9230769230769227
 40
0.9230769230769227
 40
0.9230769230769227
 40
0.9230769230769227
 40
0.9615384615384611
 40
0.9615384615384611
 40
0.9615384615384611
 40
0.9615384615384611
 40
1.0
 40
1.0
 40
1.0
 40
1.0
 10
1.844732283464567
 20
1.011307086614173
 30
0.0
 10
1.844732283464567
 20
1.011307086614173
 30
0.0
 10
1.849129921259843
 20
1.011307086614173
 30
0.0
 10
1.849129921259843
 20
1.011307086614173
 30
0.0
 10
1.849129921259843
 20
1.011307086614173
 30
0.0
 10
1.849129921259843
 20
1.011307086614173
 30
0.0
 10
1.856877952755906
 20
0.9829330708661418
 30
0.0
 10
1.856877952755906
 20
0.9829330708661418
 30
0.0
 10
1.856877952755906
 20
0.9829330708661418
 30
0.0
 10
1.856877952755906
 20
0.9829330708661418
 30
0.0
 10
1.851212598425197
 20
0.9813267716535433
 30
0.0
 10
1.851212598425197
 20
0.9813267716535433
 30
0.0
 10
1.851212598425197
 20
0.9813267716535433
 30
0.0
 10
1.848149606299213
 20
0.9878897637795276
 30
0.0
 10
1.845838582677166
 20
0.9922874015748032
 30
0.0
 10
1.844255905511811
 20
0.9945157480314961
 30
0.0
 10
1.844255905511811
 20
0.9945157480314961
 30
0.0
 10
1.841649606299213
 20
0.9981417322834646
 30
0.0
 10
1.83840157480315
 20
1.001015748031496
 30
0.0
 10
1.834503937007874
 20
1.003118110236221
 30
0.0
 10
1.834503937007874
 20
1.003118110236221
 30
0.0
 10
1.830629921259843
 20
1.005244094488189
 30
0.0
 10
1.826338582677165
 20
1.006307086614173
 30
0.0
 10
1.821669291338583
 20
1.006307086614173
 30
0.0
 10
1.821669291338583
 20
1.006307086614173
 30
0.0
 10
1.816169291338583
 20
1.006307086614173
 30
0.0
 10
1.811106299212599
 20
1.004826771653543
 30
0.0
 10
1.806503937007874
 20
1.001870078740158
 30
0.0
 10
1.806503937007874
 20
1.001870078740158
 30
0.0
 10
1.801877952755906
 20
0.9989330708661418
 30
0.0
 10
1.798129921259843
 20
0.9945984251968504
 30
0.0
 10
1.795275590551181
 20
0.9889133858267717
 30
0.0
 10
1.795275590551181
 20
0.9889133858267717
 30
0.0
 10
1.79240157480315
 20
0.9832047244094488
 30
0.0
 10
1.79096062992126
 20
0.9768070866141733
 30
0.0
 10
1.79096062992126
 20
0.9696811023622047
 30
0.0
 10
1.79096062992126
 20
0.9696811023622047
 30
0.0
 10
1.79096062992126
 20
0.9623503937007875
 30
0.0
 10
1.79242125984252
 20
0.9558267716535434
 30
0.0
 10
1.795314960629921
 20
0.9500787401574804
 30
0.0
 10
1.795314960629921
 20
0.9500787401574804
 30
0.0
 10
1.798232283464567
 20
0.9443503937007874
 30
0.0
 10
1.802169291338583
 20
0.9399330708661418
 30
0.0
 10
1.807129921259843
 20
0.9368503937007875
 30
0.0
 10
1.807129921259843
 20
0.9368503937007875
 30
0.0
 10
1.812106299212599
 20
0.933744094488189
 30
0.0
 10
1.81744094488189
 20
0.9322047244094489
 30
0.0
 10
1.823192913385827
 20
0.9322047244094489
 30
0.0
 10
1.823192913385827
 20
0.9322047244094489
 30
0.0
 10
1.828606299212598
 20
0.9322047244094489
 30
0.0
 10
1.834129921259843
 20
0.933744094488189
 30
0.0
 10
1.839795275590551
 20
0.9368503937007875
 30
0.0
 10
1.839795275590551
 20
0.9368503937007875
 30
0.0
 10
1.84544094488189
 20
0.9399330708661418
 30
0.0
 10
1.850358267716536
 20
0.9442637795275591
 30
0.0
 10
1.854503937007874
 20
0.9498503937007874
 30
0.0
 10
1.854503937007874
 20
0.9498503937007874
 30
0.0
 10
1.854503937007874
 20
0.9498503937007874
 30
0.0
 10
1.859377952755906
 20
0.9464960629921261
 30
0.0
 10
1.859377952755906
 20
0.9464960629921261
 30
0.0
 10
1.859377952755906
 20
0.9464960629921261
 30
0.0
 10
1.856858267716536
 20
0.942744094488189
 30
0.0
 10
1.854129921259843
 20
0.9395787401574803
 30
0.0
 10
1.851212598425197
 20
0.936972440944882
 30
0.0
 10
1.851212598425197
 20
0.936972440944882
 30
0.0
 10
1.846566929133858
 20
0.9327637795275591
 30
0.0
 10
1.841755905511811
 20
0.9296811023622048
 30
0.0
 10
1.836732283464567
 20
0.9276811023622048
 30
0.0
 10
1.836732283464567
 20
0.9276811023622048
 30
0.0
 10
1.831732283464567
 20
0.9257047244094488
 30
0.0
 10
1.826232283464567
 20
0.9247047244094488
 30
0.0
 10
1.820255905511811
 20
0.9247047244094488
 30
0.0
 10
1.820255905511811
 20
0.9247047244094488
 30
0.0
 10
1.807023622047244
 20
0.9247047244094488
 30
0.0
 10
1.796295275590551
 20
0.9295984251968504
 30
0.0
 10
1.788023622047244
 20
0.9394133858267717
 30
0.0
 10
1.788023622047244
 20
0.9394133858267717
 30
0.0
 10
1.781192913385827
 20
0.9475354330708662
 30
0.0
 10
1.777775590551181
 20
0.9572244094488189
 30
0.0
 10
1.777775590551181
 20
0.9684527559055118
 30
0.0
 10
1.777775590551181
 20
0.9684527559055118
 30
0.0
 10
1.777775590551181
 20
0.9767244094488189
 30
0.0
 10
1.779669291338583
 20
0.9842047244094488
 30
0.0
 10
1.78346062992126
 20
0.9908897637795276
 30
0.0
 10
1.78346062992126
 20
0.9908897637795276
 30
0.0
 10
1.787232283464567
 20
0.9975787401574804
 30
0.0
 10
1.79246062992126
 20
1.002913385826772
 30
0.0
 10
1.799106299212599
 20
1.006850393700788
 30
0.0
 10
1.799106299212599
 20
1.006850393700788
 30
0.0
 10
1.805755905511811
 20
1.010807086614173
 30
0.0
 10
1.81294094488189
 20
1.012763779527559
 30
0.0
 10
1.820629921259843
 20
1.012763779527559
 30
0.0
 10
1.820629921259843
 20
1.012763779527559
 30
0.0
 10
1.824732283464567
 20
1.012763779527559
 30
0.0
 10
1.828547244094488
 20
1.012204724409449
 30
0.0
 10
1.832066929133858
 20
1.01109842519685
 30
0.0
 10
1.832066929133858
 20
1.01109842519685
 30
0.0
 10
1.835586614173228
 20
1.009972440944882
 30
0.0
 10
1.839149606299213
 20
1.008181102362205
 30
0.0
 10
1.842775590551181
 20
1.005681102362205
 30
0.0
 10
1.842775590551181
 20
1.005681102362205
 30
0.0
 10
1.842775590551181
 20
1.005681102362205
 30
0.0
 10
1.844732283464567
 20
1.011307086614173
 30
0.0
 10
1.844732283464567
 20
1.011307086614173
 30
0.0
  0
SPLINE
  5
48
330
1F
100
AcDbEntity
  8
P1-Layer 1
 62
   250
100
AcDbSpline
210
0.0
220
0.0
230
1.0
 70
    11
 71
     3
 72
   140
 73
   136
 74
     0
 42
0.0000000001
 43
0.0000000001
 40
0.0
 40
0.0
 40
0.0
 40
0.0
 40
0.0294117647058824
 40
0.0294117647058824
 40
0.0294117647058824
 40
0.0294117647058824
 40
0.0588235294117647
 40
0.0588235294117647
 40
0.0588235294117647
 40
0.0588235294117647
 40
0.0882352941176471
 40
0.0882352941176471
 40
0.0882352941176471
 40
0.0882352941176471
 40
0.1176470588235294
 40
0.1176470588235294
 40
0.1176470588235294
 40
0.1176470588235294
 40
0.1470588235294118
 40
0.1470588235294118
 40
0.1470588235294118
 40
0.1470588235294118
 40
0.1764705882352941
 40
0.1764705882352941
 40
0.1764705882352941
 40
0.1764705882352941
 40
0.2058823529411765
 40
0.2058823529411765
 40
0.2058823529411765
 40
0.2058823529411765
 40
0.2352941176470589
 40
0.2352941176470589
 40
0.2352941176470589
 40
0.2352941176470589
 40
0.2647058823529412
 40
0.2647058823529412
 40
0.2647058823529412
 40
0.2647058823529412
 40
0.2941176470588235
 40
0.2941176470588235
 40
0.2941176470588235
 40
0.2941176470588235
 40
0.3235294117647059
 40
0.3235294117647059
 40
0.3235294117647059
 40
0.3235294117647059
 40
0.3529411764705883
 40
0.3529411764705883
 40
0.3529411764705883
 40
0.3529411764705883
 40
0.3823529411764706
 40
0.3823529411764706
 40
0.3823529411764706
 40
0.3823529411764706
 40
0.411764705882353
 40
0.411764705882353
 40
0.411764705882353
 40
0.411764705882353
 40
0.4411764705882353
 40
0.4411764705882353
 40
0.4411764705882353
 40
0.4411764705882353
 40
0.4705882352941177
 40
0.4705882352941177
 40
0.4705882352941177
 40
0.4705882352941177
 40
0.5
 40
0.5
 40
0.5
 40
0.5
 40
0.5294117647058824
 40
0.5294117647058824
 40
0.5294117647058824
 40
0.5294117647058824
 40
0.5588235294117647
 40
0.5588235294117647
 40
0.5588235294117647
 40
0.5588235294117647
 40
0.5882352941176471
 40
0.5882352941176471
 40
0.5882352941176471
 40
0.5882352941176471
 40
0.6176470588235294
 40
0.6176470588235294
 40
0.6176470588235294
 40
0.6176470588235294
 40
0.6470588235294118
 40
0.6470588235294118
 40
0.6470588235294118
 40
0.6470588235294118
 40
0.6764705882352942
 40
0.6764705882352942
 40
0.6764705882352942
 40
0.6764705882352942
 40
0.7058823529411765
 40
0.7058823529411765
 40
0.7058823529411765
 40
0.7058823529411765
 40
0.7352941176470589
 40
0.7352941176470589
 40
0.7352941176470589
 40
0.7352941176470589
 40
0.7647058823529412
 40
0.7647058823529412
 40
0.7647058823529412
 40
0.7647058823529412
 40
0.7941176470588236
 40
0.7941176470588236
 40
0.7941176470588236
 40
0.7941176470588236
 40
0.823529411764706
 40
0.823529411764706
 40
0.823529411764706
 40
0.823529411764706
 40
0.8529411764705883
 40
0.8529411764705883
 40
0.8529411764705883
 40
0.8529411764705883
 40
0.8823529411764707
 40
0.8823529411764707
 40
0.8823529411764707
 40
0.8823529411764707
 40
0.911764705882353
 40
0.911764705882353
 40
0.911764705882353
 40
0.911764705882353
 40
0.9411764705882354
 40
0.9411764705882354
 40
0.9411764705882354
 40
0.9411764705882354
 40
0.9705882352941178
 40
0.9705882352941178
 40
0.9705882352941178
 40
0.9705882352941178
 40
1.0
 40
1.0
 40
1.0
 40
1.0
 10
1.911858267716535
 20
0.961496062992126
 30
0.0
 10
1.911858267716535
 20
0.961496062992126
 30
0.0
 10
1.911858267716535
 20
0.9681614173228347
 30
0.0
 10
1.911858267716535
 20
0.9681614173228347
 30
0.0
 10
1.911858267716535
 20
0.9681614173228347
 30
0.0
 10
1.911858267716535
 20
0.9726614173228347
 30
0.0
 10
1.910606299212599
 20
0.9758897637795276
 30
0.0
 10
1.908086614173228
 20
0.9778267716535434
 30
0.0
 10
1.908086614173228
 20
0.9778267716535434
 30
0.0
 10
1.905562992125984
 20
0.9797637795275591
 30
0.0
 10
1.902003937007874
 20
0.9807244094488189
 30
0.0
 10
1.897397637795276
 20
0.9807244094488189
 30
0.0
 10
1.897397637795276
 20
0.9807244094488189
 30
0.0
 10
1.895125984251969
 20
0.9807244094488189
 30
0.0
 10
1.893125984251969
 20
0.9804527559055118
 30
0.0
 10
1.891417322834646
 20
0.9799133858267717
 30
0.0
 10
1.891417322834646
 20
0.9799133858267717
 30
0.0
 10
1.889712598425197
 20
0.9793503937007875
 30
0.0
 10
1.888334645669291
 20
0.9785984251968505
 30
0.0
 10
1.887295275590551
 20
0.9776417322834646
 30
0.0
 10
1.887295275590551
 20
0.9776417322834646
 30
0.0
 10
1.886251968503937
 20
0.9766811023622047
 30
0.0
 10
1.885503937007874
 20
0.9755984251968505
 30
0.0
 10
1.885003937007874
 20
0.9743700787401575
 30
0.0
 10
1.885003937007874
 20
0.9743700787401575
 30
0.0
 10
1.884795275590551
 20
0.9739330708661418
 30
0.0
 10
1.884314960629921
 20
0.9722047244094488
 30
0.0
 10
1.883543307086614
 20
0.9691811023622048
 30
0.0
 10
1.883543307086614
 20
0.9691811023622048
 30
0.0
 10
1.882606299212599
 20
0.9655354330708662
 30
0.0
 10
1.880712598425197
 20
0.9637047244094489
 30
0.0
 10
1.877858267716535
 20
0.9637047244094489
 30
0.0
 10
1.877858267716535
 20
0.9637047244094489
 30
0.0
 10
1.876232283464567
 20
0.9637047244094489
 30
0.0
 10
1.874917322834646
 20
0.964244094488189
 30
0.0
 10
1.873917322834646
 20
0.9653070866141733
 30
0.0
 10
1.873917322834646
 20
0.9653070866141733
 30
0.0
 10
1.87294094488189
 20
0.9663897637795276
 30
0.0
 10
1.87244094488189
 20
0.9678503937007874
 30
0.0
 10
1.87244094488189
 20
0.9696811023622047
 30
0.0
 10
1.87244094488189
 20
0.9696811023622047
 30
0.0
 10
1.87244094488189
 20
0.9723700787401575
 30
0.0
 10
1.87344094488189
 20
0.974996062992126
 30
0.0
 10
1.875417322834646
 20
0.9775787401574804
 30
0.0
 10
1.875417322834646
 20
0.9775787401574804
 30
0.0
 10
1.877417322834646
 20
0.9801614173228347
 30
0.0
 10
1.88046062992126
 20
0.9823070866141733
 30
0.0
 10
1.884543307086614
 20
0.9839960629921261
 30
0.0
 10
1.884543307086614
 20
0.9839960629921261
 30
0.0
 10
1.888625984251969
 20
0.9856811023622047
 30
0.0
 10
1.89346062992126
 20
0.9865157480314961
 30
0.0
 10
1.899043307086614
 20
0.9865157480314961
 30
0.0
 10
1.899043307086614
 20
0.9865157480314961
 30
0.0
 10
1.904251968503937
 20
0.9865157480314961
 30
0.0
 10
1.908712598425197
 20
0.9857244094488189
 30
0.0
 10
1.912417322834646
 20
0.9841181102362205
 30
0.0
 10
1.912417322834646
 20
0.9841181102362205
 30
0.0
 10
1.916106299212599
 20
0.9825157480314961
 30
0.0
 10
1.918834645669292
 20
0.9802047244094488
 30
0.0
 10
1.920586614173228
 20
0.9771811023622048
 30
0.0
 10
1.920586614173228
 20
0.9771811023622048
 30
0.0
 10
1.921814960629921
 20
0.9751181102362205
 30
0.0
 10
1.922417322834646
 20
0.9713267716535433
 30
0.0
 10
1.922417322834646
 20
0.9658267716535434
 30
0.0
 10
1.922417322834646
 20
0.9658267716535434
 30
0.0
 10
1.922417322834646
 20
0.9658267716535434
 30
0.0
 10
1.922417322834646
 20
0.9423267716535434
 30
0.0
 10
1.922417322834646
 20
0.9423267716535434
 30
0.0
 10
1.922417322834646
 20
0.9423267716535434
 30
0.0
 10
1.922417322834646
 20
0.938996062992126
 30
0.0
 10
1.922523622047244
 20
0.9368267716535433
 30
0.0
 10
1.922732283464567
 20
0.9358070866141732
 30
0.0
 10
1.922732283464567
 20
0.9358070866141732
 30
0.0
 10
1.923169291338583
 20
0.9340590551181103
 30
0.0
 10
1.92396062992126
 20
0.932744094488189
 30
0.0
 10
1.925086614173228
 20
0.9318700787401575
 30
0.0
 10
1.925086614173228
 20
0.9318700787401575
 30
0.0
 10
1.926188976377953
 20
0.930996062992126
 30
0.0
 10
1.927649606299213
 20
0.9305590551181103
 30
0.0
 10
1.92944094488189
 20
0.9305590551181103
 30
0.0
 10
1.92944094488189
 20
0.9305590551181103
 30
0.0
 10
1.931314960629921
 20
0.9305590551181103
 30
0.0
 10
1.933543307086614
 20
0.930996062992126
 30
0.0
 10
1.936149606299213
 20
0.9318897637795276
 30
0.0
 10
1.936149606299213
 20
0.9318897637795276
 30
0.0
 10
1.936149606299213
 20
0.9318897637795276
 30
0.0
 10
1.936149606299213
 20
0.9265984251968504
 30
0.0
 10
1.936149606299213
 20
0.9265984251968504
 30
0.0
 10
1.936149606299213
 20
0.9265984251968504
 30
0.0
 10
1.932771653543307
 20
0.9256181102362205
 30
0.0
 10
1.929751968503937
 20
0.9251181102362205
 30
0.0
 10
1.927062992125984
 20
0.9251181102362205
 30
0.0
 10
1.927062992125984
 20
0.9251181102362205
 30
0.0
 10
1.924169291338583
 20
0.9251181102362205
 30
0.0
 10
1.921732283464567
 20
0.9255354330708662
 30
0.0
 10
1.919771653543307
 20
0.9263503937007874
 30
0.0
 10
1.919771653543307
 20
0.9263503937007874
 30
0.0
 10
1.917795275590551
 20
0.9271614173228346
 30
0.0
 10
1.916169291338583
 20
0.9283503937007874
 30
0.0
 10
1.914917322834646
 20
0.9299133858267717
 30
0.0
 10
1.914917322834646
 20
0.9299133858267717
 30
0.0
 10
1.913649606299213
 20
0.9314724409448819
 30
0.0
 10
1.912834645669292
 20
0.9333503937007874
 30
0.0
 10
1.91248031496063
 20
0.9354960629921261
 30
0.0
 10
1.91248031496063
 20
0.9354960629921261
 30
0.0
 10
1.907586614173229
 20
0.9316811023622048
 30
0.0
 10
1.903169291338583
 20
0.928996062992126
 30
0.0
 10
1.899232283464567
 20
0.9274527559055118
 30
0.0
 10
1.899232283464567
 20
0.9274527559055118
 30
0.0
 10
1.895271653543307
 20
0.9258897637795276
 30
0.0
 10
1.891295275590551
 20
0.9251181102362205
 30
0.0
 10
1.887271653543307
 20
0.9251181102362205
 30
0.0
 10
1.887271653543307
 20
0.9251181102362205
 30
0.0
 10
1.881649606299213
 20
0.9251181102362205
 30
0.0
 10
1.877086614173228
 20
0.9266417322834646
 30
0.0
 10
1.873586614173229
 20
0.9297047244094489
 30
0.0
 10
1.873586614173229
 20
0.9297047244094489
 30
0.0
 10
1.870086614173228
 20
0.932744094488189
 30
0.0
 10
1.868334645669291
 20
0.9363267716535434
 30
0.0
 10
1.868334645669291
 20
0.9404527559055118
 30
0.0
 10
1.868334645669291
 20
0.9404527559055118
 30
0.0
 10
1.868334645669291
 20
0.9429330708661418
 30
0.0
 10
1.86898031496063
 20
0.9452874015748032
 30
0.0
 10
1.870271653543307
 20
0.9475157480314961
 30
0.0
 10
1.870271653543307
 20
0.9475157480314961
 30
0.0
 10
1.871543307086614
 20
0.9497637795275591
 30
0.0
 10
1.873503937007874
 20
0.951744094488189
 30
0.0
 10
1.876125984251969
 20
0.9534527559055118
 30
0.0
 10
1.876125984251969
 20
0.9534527559055118
 30
0.0
 10
1.878751968503937
 20
0.9551614173228347
 30
0.0
 10
1.882877952755906
 20
0.9566614173228347
 30
0.0
 10
1.88848031496063
 20
0.9579527559055119
 30
0.0
 10
1.88848031496063
 20
0.9579527559055119
 30
0.0
 10
1.894106299212599
 20
0.9592637795275592
 30
0.0
 10
1.901897637795276
 20
0.9604527559055118
 30
0.0
 10
1.911858267716535
 20
0.961496062992126
 30
0.0
  0
SPLINE
  5
49
330
1F
100
AcDbEntity
  8
P1-Layer 1
 62
   250
100
AcDbSpline
210
0.0
220
0.0
230
1.0
 70
    11
 71
     3
 72
    44
 73
    40
 74
     0
 42
0.0000000001
 43
0.0000000001
 40
0.0
 40
0.0
 40
0.0
 40
0.0
 40
0.1
 40
0.1
 40
0.1
 40
0.1
 40
0.2
 40
0.2
 40
0.2
 40
0.2
 40
0.3
 40
0.3
 40
0.3
 40
0.3
 40
0.4
 40
0.4
 40
0.4
 40
0.4
 40
0.5
 40
0.5
 40
0.5
 40
0.5
 40
0.6
 40
0.6
 40
0.6
 40
0.6
 40
0.7
 40
0.7
 40
0.7
 40
0.7
 40
0.7999999999999999
 40
0.7999999999999999
 40
0.7999999999999999
 40
0.7999999999999999
 40
0.8999999999999999
 40
0.8999999999999999
 40
0.8999999999999999
 40
0.8999999999999999
 40
1.0
 40
1.0
 40
1.0
 40
1.0
 10
1.911858267716535
 20
0.9561811023622048
 30
0.0
 10
1.902417322834646
 20
0.9548070866141732
 30
0.0
 10
1.896586614173228
 20
0.9538503937007874
 30
0.0
 10
1.894334645669291
 20
0.9533267716535433
 30
0.0
 10
1.894334645669291
 20
0.9533267716535433
 30
0.0
 10
1.889917322834646
 20
0.9523070866141733
 30
0.0
 10
1.886732283464567
 20
0.9511811023622048
 30
0.0
 10
1.884814960629921
 20
0.949972440944882
 30
0.0
 10
1.884814960629921
 20
0.949972440944882
 30
0.0
 10
1.882917322834646
 20
0.948744094488189
 30
0.0
 10
1.881543307086614
 20
0.9474330708661418
 30
0.0
 10
1.880732283464567
 20
0.9460354330708661
 30
0.0
 10
1.880732283464567
 20
0.9460354330708661
 30
0.0
 10
1.879917322834646
 20
0.9446181102362206
 30
0.0
 10
1.879523622047244
 20
0.9431181102362205
 30
0.0
 10
1.879523622047244
 20
0.9415354330708662
 30
0.0
 10
1.879523622047244
 20
0.9415354330708662
 30
0.0
 10
1.879523622047244
 20
0.9399527559055119
 30
0.0
 10
1.87996062992126
 20
0.9384133858267717
 30
0.0
 10
1.880877952755906
 20
0.9369330708661418
 30
0.0
 10
1.880877952755906
 20
0.9369330708661418
 30
0.0
 10
1.881795275590551
 20
0.9354527559055118
 30
0.0
 10
1.883086614173228
 20
0.9342874015748032
 30
0.0
 10
1.884751968503937
 20
0.9334330708661418
 30
0.0
 10
1.884751968503937
 20
0.9334330708661418
 30
0.0
 10
1.88644094488189
 20
0.9325787401574803
 30
0.0
 10
1.888212598425197
 20
0.9321417322834646
 30
0.0
 10
1.890062992125984
 20
0.9321417322834646
 30
0.0
 10
1.890062992125984
 20
0.9321417322834646
 30
0.0
 10
1.892712598425197
 20
0.9321417322834646
 30
0.0
 10
1.895712598425197
 20
0.9327637795275591
 30
0.0
 10
1.899043307086614
 20
0.9340354330708662
 30
0.0
 10
1.899043307086614
 20
0.9340354330708662
 30
0.0
 10
1.902377952755906
 20
0.9352874015748032
 30
0.0
 10
1.906649606299213
 20
0.9377637795275591
 30
0.0
 10
1.911858267716535
 20
0.9414133858267717
 30
0.0
 10
1.911858267716535
 20
0.9414133858267717
 30
0.0
 10
1.911858267716535
 20
0.9414133858267717
 30
0.0
 10
1.911858267716535
 20
0.9561811023622048
 30
0.0
 10
1.911858267716535
 20
0.9561811023622048
 30
0.0
  0
SPLINE
  5
4A
330
1F
100
AcDbEntity
  8
P1-Layer 1
 62
   250
100
AcDbSpline
210
0.0
220
0.0
230
1.0
 70
    11
 71
     3
 72
   140
 73
   136
 74
     0
 42
0.0000000001
 43
0.0000000001
 40
0.0
 40
0.0
 40
0.0
 40
0.0
 40
0.0294117647058824
 40
0.0294117647058824
 40
0.0294117647058824
 40
0.0294117647058824
 40
0.0588235294117647
 40
0.0588235294117647
 40
0.0588235294117647
 40
0.0588235294117647
 40
0.0882352941176471
 40
0.0882352941176471
 40
0.0882352941176471
 40
0.0882352941176471
 40
0.1176470588235294
 40
0.1176470588235294
 40
0.1176470588235294
 40
0.1176470588235294
 40
0.1470588235294118
 40
0.1470588235294118
 40
0.1470588235294118
 40
0.1470588235294118
 40
0.1764705882352941
 40
0.1764705882352941
 40
0.1764705882352941
 40
0.1764705882352941
 40
0.2058823529411765
 40
0.2058823529411765
 40
0.2058823529411765
 40
0.2058823529411765
 40
0.2352941176470589
 40
0.2352941176470589
 40
0.2352941176470589
 40
0.2352941176470589
 40
0.2647058823529412
 40
0.2647058823529412
 40
0.2647058823529412
 40
0.2647058823529412
 40
0.2941176470588235
 40
0.2941176470588235
 40
0.2941176470588235
 40
0.2941176470588235
 40
0.3235294117647059
 40
0.3235294117647059
 40
0.3235294117647059
 40
0.3235294117647059
 40
0.3529411764705883
 40
0.3529411764705883
 40
0.3529411764705883
 40
0.3529411764705883
 40
0.3823529411764706
 40
0.3823529411764706
 40
0.3823529411764706
 40
0.3823529411764706
 40
0.411764705882353
 40
0.411764705882353
 40
0.411764705882353
 40
0.411764705882353
 40
0.4411764705882353
 40
0.4411764705882353
 40
0.4411764705882353
 40
0.4411764705882353
 40
0.4705882352941177
 40
0.4705882352941177
 40
0.4705882352941177
 40
0.4705882352941177
 40
0.5
 40
0.5
 40
0.5
 40
0.5
 40
0.5294117647058824
 40
0.5294117647058824
 40
0.5294117647058824
 40
0.5294117647058824
 40
0.5588235294117647
 40
0.5588235294117647
 40
0.5588235294117647
 40
0.5588235294117647
 40
0.5882352941176471
 40
0.5882352941176471
 40
0.5882352941176471
 40
0.5882352941176471
 40
0.6176470588235294
 40
0.6176470588235294
 40
0.6176470588235294
 40
0.6176470588235294
 40
0.6470588235294118
 40
0.6470588235294118
 40
0.6470588235294118
 40
0.6470588235294118
 40
0.6764705882352942
 40
0.6764705882352942
 40
0.6764705882352942
 40
0.6764705882352942
 40
0.7058823529411765
 40
0.7058823529411765
 40
0.7058823529411765
 40
0.7058823529411765
 40
0.7352941176470589
 40
0.7352941176470589
 40
0.7352941176470589
 40
0.7352941176470589
 40
0.7647058823529412
 40
0.7647058823529412
 40
0.7647058823529412
 40
0.7647058823529412
 40
0.7941176470588236
 40
0.7941176470588236
 40
0.7941176470588236
 40
0.7941176470588236
 40
0.823529411764706
 40
0.823529411764706
 40
0.823529411764706
 40
0.823529411764706
 40
0.8529411764705883
 40
0.8529411764705883
 40
0.8529411764705883
 40
0.8529411764705883
 40
0.8823529411764707
 40
0.8823529411764707
 40
0.8823529411764707
 40
0.8823529411764707
 40
0.911764705882353
 40
0.911764705882353
 40
0.911764705882353
 40
0.911764705882353
 40
0.9411764705882354
 40
0.9411764705882354
 40
0.9411764705882354
 40
0.9411764705882354
 40
0.9705882352941178
 40
0.9705882352941178
 40
0.9705882352941178
 40
0.9705882352941178
 40
1.0
 40
1.0
 40
1.0
 40
1.0
 10
1.981795275590551
 20
0.9850590551181103
 30
0.0
 10
1.981795275590551
 20
0.9850590551181103
 30
0.0
 10
1.986062992125984
 20
0.9850590551181103
 30
0.0
 10
1.986062992125984
 20
0.9850590551181103
 30
0.0
 10
1.986062992125984
 20
0.9850590551181103
 30
0.0
 10
1.986062992125984
 20
0.9850590551181103
 30
0.0
 10
1.991562992125984
 20
0.9663897637795276
 30
0.0
 10
1.991562992125984
 20
0.9663897637795276
 30
0.0
 10
1.991562992125984
 20
0.9663897637795276
 30
0.0
 10
1.991562992125984
 20
0.9663897637795276
 30
0.0
 10
1.986062992125984
 20
0.9645590551181102
 30
0.0
 10
1.986062992125984
 20
0.9645590551181102
 30
0.0
 10
1.986062992125984
 20
0.9645590551181102
 30
0.0
 10
1.983877952755906
 20
0.9695590551181103
 30
0.0
 10
1.980795275590551
 20
0.973496062992126
 30
0.0
 10
1.976814960629921
 20
0.9763700787401575
 30
0.0
 10
1.976814960629921
 20
0.9763700787401575
 30
0.0
 10
1.972858267716536
 20
0.9792244094488189
 30
0.0
 10
1.968834645669291
 20
0.9806614173228346
 30
0.0
 10
1.964771653543307
 20
0.9806614173228346
 30
0.0
 10
1.964771653543307
 20
0.9806614173228346
 30
0.0
 10
1.961625984251969
 20
0.9806614173228346
 30
0.0
 10
1.959086614173228
 20
0.9799133858267717
 30
0.0
 10
1.957149606299213
 20
0.9783700787401575
 30
0.0
 10
1.957149606299213
 20
0.9783700787401575
 30
0.0
 10
1.955188976377953
 20
0.9768503937007874
 30
0.0
 10
1.954212598425197
 20
0.9750984251968504
 30
0.0
 10
1.954212598425197
 20
0.9730984251968504
 30
0.0
 10
1.954212598425197
 20
0.9730984251968504
 30
0.0
 10
1.954212598425197
 20
0.9712244094488189
 30
0.0
 10
1.954917322834646
 20
0.9696181102362205
 30
0.0
 10
1.956358267716535
 20
0.968263779527559
 30
0.0
 10
1.956358267716535
 20
0.968263779527559
 30
0.0
 10
1.957732283464567
 20
0.9668897637795276
 30
0.0
 10
1.960834645669291
 20
0.9653267716535433
 30
0.0
 10
1.965688976377953
 20
0.9635787401574804
 30
0.0
 10
1.965688976377953
 20
0.9635787401574804
 30
0.0
 10
1.965688976377953
 20
0.9635787401574804
 30
0.0
 10
1.977586614173228
 20
0.9593700787401576
 30
0.0
 10
1.977586614173228
 20
0.9593700787401576
 30
0.0
 10
1.977586614173228
 20
0.9593700787401576
 30
0.0
 10
1.984295275590551
 20
0.9569724409448819
 30
0.0
 10
1.988877952755906
 20
0.9543897637795276
 30
0.0
 10
1.991314960629921
 20
0.9516811023622047
 30
0.0
 10
1.991314960629921
 20
0.9516811023622047
 30
0.0
 10
1.993712598425197
 20
0.9489133858267717
 30
0.0
 10
1.994917322834646
 20
0.9457637795275591
 30
0.0
 10
1.994917322834646
 20
0.9422637795275591
 30
0.0
 10
1.994917322834646
 20
0.9422637795275591
 30
0.0
 10
1.994917322834646
 20
0.9393070866141733
 30
0.0
 10
1.994023622047244
 20
0.9364527559055118
 30
0.0
 10
1.992232283464567
 20
0.9337047244094489
 30
0.0
 10
1.992232283464567
 20
0.9337047244094489
 30
0.0
 10
1.99044094488189
 20
0.9309527559055119
 30
0.0
 10
1.987858267716536
 20
0.9287637795275591
 30
0.0
 10
1.98446062992126
 20
0.9271417322834646
 30
0.0
 10
1.98446062992126
 20
0.9271417322834646
 30
0.0
 10
1.981062992125984
 20
0.9255157480314961
 30
0.0
 10
1.977169291338583
 20
0.9247047244094488
 30
0.0
 10
1.972771653543307
 20
0.9247047244094488
 30
0.0
 10
1.972771653543307
 20
0.9247047244094488
 30
0.0
 10
1.965917322834646
 20
0.9247047244094488
 30
0.0
 10
1.960062992125984
 20
0.9266417322834646
 30
0.0
 10
1.955188976377953
 20
0.9305590551181103
 30
0.0
 10
1.955188976377953
 20
0.9305590551181103
 30
0.0
 10
1.955188976377953
 20
0.9305590551181103
 30
0.0
 10
1.953897637795276
 20
0.9261614173228346
 30
0.0
 10
1.953897637795276
 20
0.9261614173228346
 30
0.0
 10
1.953897637795276
 20
0.9261614173228346
 30
0.0
 10
1.953897637795276
 20
0.9261614173228346
 30
0.0
 10
1.949562992125984
 20
0.9261614173228346
 30
0.0
 10
1.949562992125984
 20
0.9261614173228346
 30
0.0
 10
1.949562992125984
 20
0.9261614173228346
 30
0.0
 10
1.949562992125984
 20
0.9261614173228346
 30
0.0
 10
1.94194094488189
 20
0.9461181102362205
 30
0.0
 10
1.94194094488189
 20
0.9461181102362205
 30
0.0
 10
1.94194094488189
 20
0.9461181102362205
 30
0.0
 10
1.94194094488189
 20
0.9461181102362205
 30
0.0
 10
1.947503937007874
 20
0.9483070866141733
 30
0.0
 10
1.947503937007874
 20
0.9483070866141733
 30
0.0
 10
1.947503937007874
 20
0.9483070866141733
 30
0.0
 10
1.951188976377953
 20
0.9424527559055118
 30
0.0
 10
1.954688976377953
 20
0.9383070866141733
 30
0.0
 10
1.958003937007874
 20
0.9358700787401575
 30
0.0
 10
1.958003937007874
 20
0.9358700787401575
 30
0.0
 10
1.962586614173228
 20
0.9324133858267717
 30
0.0
 10
1.967562992125984
 20
0.9306811023622048
 30
0.0
 10
1.972877952755906
 20
0.9306811023622048
 30
0.0
 10
1.972877952755906
 20
0.9306811023622048
 30
0.0
 10
1.976417322834646
 20
0.9306811023622048
 30
0.0
 10
1.979334645669292
 20
0.9316181102362205
 30
0.0
 10
1.981606299212599
 20
0.9335157480314961
 30
0.0
 10
1.981606299212599
 20
0.9335157480314961
 30
0.0
 10
1.983897637795276
 20
0.9354133858267717
 30
0.0
 10
1.985023622047244
 20
0.9375157480314961
 30
0.0
 10
1.985023622047244
 20
0.9398267716535433
 30
0.0
 10
1.985023622047244
 20
0.9398267716535433
 30
0.0
 10
1.985023622047244
 20
0.941744094488189
 30
0.0
 10
1.984314960629921
 20
0.9434960629921261
 30
0.0
 10
1.982897637795276
 20
0.9450787401574804
 30
0.0
 10
1.982897637795276
 20
0.9450787401574804
 30
0.0
 10
1.98144094488189
 20
0.9466181102362206
 30
0.0
 10
1.978625984251969
 20
0.9481417322834647
 30
0.0
 10
1.97448031496063
 20
0.9495984251968505
 30
0.0
 10
1.97448031496063
 20
0.9495984251968505
 30
0.0
 10
1.97448031496063
 20
0.9495984251968505
 30
0.0
 10
1.960377952755906
 20
0.954724409448819
 30
0.0
 10
1.960377952755906
 20
0.954724409448819
 30
0.0
 10
1.960377952755906
 20
0.954724409448819
 30
0.0
 10
1.954314960629921
 20
0.9569330708661418
 30
0.0
 10
1.950106299212599
 20
0.9593267716535433
 30
0.0
 10
1.947732283464567
 20
0.9619330708661418
 30
0.0
 10
1.947732283464567
 20
0.9619330708661418
 30
0.0
 10
1.945377952755906
 20
0.9645354330708662
 30
0.0
 10
1.944212598425197
 20
0.9675157480314961
 30
0.0
 10
1.944212598425197
 20
0.9708897637795276
 30
0.0
 10
1.944212598425197
 20
0.9708897637795276
 30
0.0
 10
1.944212598425197
 20
0.9750157480314962
 30
0.0
 10
1.946125984251969
 20
0.9786417322834646
 30
0.0
 10
1.94996062992126
 20
0.9817874015748032
 30
0.0
 10
1.94996062992126
 20
0.9817874015748032
 30
0.0
 10
1.953814960629921
 20
0.9849527559055119
 30
0.0
 10
1.958712598425197
 20
0.9865157480314961
 30
0.0
 10
1.964649606299213
 20
0.9865157480314961
 30
0.0
 10
1.964649606299213
 20
0.9865157480314961
 30
0.0
 10
1.967732283464567
 20
0.9865157480314961
 30
0.0
 10
1.970503937007874
 20
0.9861181102362205
 30
0.0
 10
1.97294094488189
 20
0.9853267716535433
 30
0.0
 10
1.97294094488189
 20
0.9853267716535433
 30
0.0
 10
1.975397637795276
 20
0.9845354330708662
 30
0.0
 10
1.977795275590551
 20
0.983224409448819
 30
0.0
 10
1.980149606299213
 20
0.9813897637795276
 30
0.0
 10
1.980149606299213
 20
0.9813897637795276
 30
0.0
 10
1.980149606299213
 20
0.9813897637795276
 30
0.0
 10
1.981795275590551
 20
0.9850590551181103
 30
0.0
 10
1.981795275590551
 20
0.9850590551181103
 30
0.0
  0
SPLINE
  5
4B
330
1F
100
AcDbEntity
  8
P1-Layer 1
 62
   250
100
AcDbSpline
210
0.0
220
0.0
230
1.0
 70
    11
 71
     3
 72
    88
 73
    84
 74
     0
 42
0.0000000001
 43
0.0000000001
 40
0.0
 40
0.0
 40
0.0
 40
0.0
 40
0.0476190476190476
 40
0.0476190476190476
 40
0.0476190476190476
 40
0.0476190476190476
 40
0.0952380952380952
 40
0.0952380952380952
 40
0.0952380952380952
 40
0.0952380952380952
 40
0.1428571428571429
 40
0.1428571428571429
 40
0.1428571428571429
 40
0.1428571428571429
 40
0.1904761904761905
 40
0.1904761904761905
 40
0.1904761904761905
 40
0.1904761904761905
 40
0.2380952380952381
 40
0.2380952380952381
 40
0.2380952380952381
 40
0.2380952380952381
 40
0.2857142857142857
 40
0.2857142857142857
 40
0.2857142857142857
 40
0.2857142857142857
 40
0.3333333333333333
 40
0.3333333333333333
 40
0.3333333333333333
 40
0.3333333333333333
 40
0.3809523809523809
 40
0.3809523809523809
 40
0.3809523809523809
 40
0.3809523809523809
 40
0.4285714285714286
 40
0.4285714285714286
 40
0.4285714285714286
 40
0.4285714285714286
 40
0.4761904761904762
 40
0.4761904761904762
 40
0.4761904761904762
 40
0.4761904761904762
 40
0.5238095238095237
 40
0.5238095238095237
 40
0.5238095238095237
 40
0.5238095238095237
 40
0.5714285714285714
 40
0.5714285714285714
 40
0.5714285714285714
 40
0.5714285714285714
 40
0.6190476190476191
 40
0.6190476190476191
 40
0.6190476190476191
 40
0.6190476190476191
 40
0.6666666666666667
 40
0.6666666666666667
 40
0.6666666666666667
 40
0.6666666666666667
 40
0.7142857142857144
 40
0.7142857142857144
 40
0.7142857142857144
 40
0.7142857142857144
 40
0.7619047619047621
 40
0.7619047619047621
 40
0.7619047619047621
 40
0.7619047619047621
 40
0.8095238095238098
 40
0.8095238095238098
 40
0.8095238095238098
 40
0.8095238095238098
 40
0.8571428571428574
 40
0.8571428571428574
 40
0.8571428571428574
 40
0.8571428571428574
 40
0.9047619047619051
 40
0.9047619047619051
 40
0.9047619047619051
 40
0.9047619047619051
 40
0.9523809523809528
 40
0.9523809523809528
 40
0.9523809523809528
 40
0.9523809523809528
 40
1.0
 40
1.0
 40
1.0
 40
1.0
 10
2.057732283464567
 20
0.9419133858267716
 30
0.0
 10
2.057732283464567
 20
0.9419133858267716
 30
0.0
 10
2.061625984251969
 20
0.938744094488189
 30
0.0
 10
2.061625984251969
 20
0.938744094488189
 30
0.0
 10
2.061625984251969
 20
0.938744094488189
 30
0.0
 10
2.058669291338583
 20
0.9352047244094489
 30
0.0
 10
2.055771653543307
 20
0.9323897637795277
 30
0.0
 10
2.053003937007874
 20
0.9303070866141733
 30
0.0
 10
2.053003937007874
 20
0.9303070866141733
 30
0.0
 10
2.050212598425197
 20
0.928244094488189
 30
0.0
 10
2.047562992125984
 20
0.9267874015748032
 30
0.0
 10
2.045086614173228
 20
0.9259527559055119
 30
0.0
 10
2.045086614173228
 20
0.9259527559055119
 30
0.0
 10
2.042606299212598
 20
0.9251181102362205
 30
0.0
 10
2.039688976377953
 20
0.9247047244094488
 30
0.0
 10
2.036358267716536
 20
0.9247047244094488
 30
0.0
 10
2.036358267716536
 20
0.9247047244094488
 30
0.0
 10
2.030377952755905
 20
0.9247047244094488
 30
0.0
 10
2.025295275590551
 20
0.9259094488188977
 30
0.0
 10
2.021106299212598
 20
0.9283503937007874
 30
0.0
 10
2.021106299212598
 20
0.9283503937007874
 30
0.0
 10
2.016295275590551
 20
0.9311614173228346
 30
0.0
 10
2.012625984251969
 20
0.9348267716535433
 30
0.0
 10
2.010062992125985
 20
0.9393503937007874
 30
0.0
 10
2.010062992125985
 20
0.9393503937007874
 30
0.0
 10
2.00748031496063
 20
0.9438700787401575
 30
0.0
 10
2.006212598425197
 20
0.9491811023622048
 30
0.0
 10
2.006212598425197
 20
0.9553267716535433
 30
0.0
 10
2.006212598425197
 20
0.9553267716535433
 30
0.0
 10
2.006212598425197
 20
0.9617637795275591
 30
0.0
 10
2.00746062992126
 20
0.967263779527559
 30
0.0
 10
2.00994094488189
 20
0.9718070866141733
 30
0.0
 10
2.00994094488189
 20
0.9718070866141733
 30
0.0
 10
2.012417322834646
 20
0.9763700787401575
 30
0.0
 10
2.015877952755905
 20
0.9799724409448819
 30
0.0
 10
2.020334645669291
 20
0.9825984251968505
 30
0.0
 10
2.020334645669291
 20
0.9825984251968505
 30
0.0
 10
2.024795275590551
 20
0.9852047244094488
 30
0.0
 10
2.02996062992126
 20
0.9865157480314961
 30
0.0
 10
2.035814960629921
 20
0.9865157480314961
 30
0.0
 10
2.035814960629921
 20
0.9865157480314961
 30
0.0
 10
2.040169291338583
 20
0.9865157480314961
 30
0.0
 10
2.04394094488189
 20
0.9858503937007874
 30
0.0
 10
2.047169291338583
 20
0.984472440944882
 30
0.0
 10
2.047169291338583
 20
0.984472440944882
 30
0.0
 10
2.050377952755905
 20
0.9831181102362205
 30
0.0
 10
2.053106299212598
 20
0.9810590551181103
 30
0.0
 10
2.055334645669292
 20
0.9783070866141733
 30
0.0
 10
2.055334645669292
 20
0.9783070866141733
 30
0.0
 10
2.057586614173228
 20
0.9755787401574804
 30
0.0
 10
2.059212598425197
 20
0.9724330708661417
 30
0.0
 10
2.060232283464567
 20
0.9688897637795276
 30
0.0
 10
2.060232283464567
 20
0.9688897637795276
 30
0.0
 10
2.060795275590551
 20
0.9668070866141733
 30
0.0
 10
2.061125984251969
 20
0.9641181102362205
 30
0.0
 10
2.061212598425197
 20
0.9608267716535434
 30
0.0
 10
2.061212598425197
 20
0.9608267716535434
 30
0.0
 10
2.061212598425197
 20
0.9608267716535434
 30
0.0
 10
2.018043307086614
 20
0.9608267716535434
 30
0.0
 10
2.018043307086614
 20
0.9608267716535434
 30
0.0
 10
2.018043307086614
 20
0.9608267716535434
 30
0.0
 10
2.017917322834646
 20
0.9588267716535434
 30
0.0
 10
2.017877952755906
 20
0.9573503937007875
 30
0.0
 10
2.017877952755906
 20
0.9563700787401576
 30
0.0
 10
2.017877952755906
 20
0.9563700787401576
 30
0.0
 10
2.017877952755906
 20
0.951244094488189
 30
0.0
 10
2.018771653543307
 20
0.9466811023622047
 30
0.0
 10
2.020543307086614
 20
0.9426614173228347
 30
0.0
 10
2.020543307086614
 20
0.9426614173228347
 30
0.0
 10
2.022334645669291
 20
0.9386614173228347
 30
0.0
 10
2.024712598425197
 20
0.9357047244094489
 30
0.0
 10
2.027669291338583
 20
0.9338267716535433
 30
0.0
 10
2.027669291338583
 20
0.9338267716535433
 30
0.0
 10
2.030606299212598
 20
0.9319330708661417
 30
0.0
 10
2.03396062992126
 20
0.930972440944882
 30
0.0
 10
2.037712598425197
 20
0.930972440944882
 30
0.0
 10
2.037712598425197
 20
0.930972440944882
 30
0.0
 10
2.040877952755906
 20
0.930972440944882
 30
0.0
 10
2.04394094488189
 20
0.931724409448819
 30
0.0
 10
2.046917322834646
 20
0.9332047244094489
 30
0.0
 10
2.046917322834646
 20
0.9332047244094489
 30
0.0
 10
2.049897637795276
 20
0.9347047244094489
 30
0.0
 10
2.05348031496063
 20
0.9375984251968504
 30
0.0
 10
2.057732283464567
 20
0.9419133858267716
 30
0.0
  0
SPLINE
  5
4C
330
1F
100
AcDbEntity
  8
P1-Layer 1
 62
   250
100
AcDbSpline
210
0.0
220
0.0
230
1.0
 70
    11
 71
     3
 72
    32
 73
    28
 74
     0
 42
0.0000000001
 43
0.0000000001
 40
0.0
 40
0.0
 40
0.0
 40
0.0
 40
0.1428571428571429
 40
0.1428571428571429
 40
0.1428571428571429
 40
0.1428571428571429
 40
0.2857142857142857
 40
0.2857142857142857
 40
0.2857142857142857
 40
0.2857142857142857
 40
0.4285714285714286
 40
0.4285714285714286
 40
0.4285714285714286
 40
0.4285714285714286
 40
0.5714285714285714
 40
0.5714285714285714
 40
0.5714285714285714
 40
0.5714285714285714
 40
0.7142857142857142
 40
0.7142857142857142
 40
0.7142857142857142
 40
0.7142857142857142
 40
0.857142857142857
 40
0.857142857142857
 40
0.857142857142857
 40
0.857142857142857
 40
1.0
 40
1.0
 40
1.0
 40
1.0
 10
2.049917322834646
 20
0.9665590551181102
 30
0.0
 10
2.049295275590551
 20
0.9703070866141733
 30
0.0
 10
2.04844094488189
 20
0.9730787401574803
 30
0.0
 10
2.047314960629922
 20
0.9748700787401575
 30
0.0
 10
2.047314960629922
 20
0.9748700787401575
 30
0.0
 10
2.046188976377953
 20
0.9766614173228347
 30
0.0
 10
2.044606299212599
 20
0.9780787401574803
 30
0.0
 10
2.042562992125984
 20
0.9791417322834646
 30
0.0
 10
2.042562992125984
 20
0.9791417322834646
 30
0.0
 10
2.040503937007874
 20
0.9802047244094488
 30
0.0
 10
2.038188976377953
 20
0.9807244094488189
 30
0.0
 10
2.035625984251968
 20
0.9807244094488189
 30
0.0
 10
2.035625984251968
 20
0.9807244094488189
 30
0.0
 10
2.033062992125984
 20
0.9807244094488189
 30
0.0
 10
2.030669291338583
 20
0.9802047244094488
 30
0.0
 10
2.028417322834646
 20
0.9791417322834646
 30
0.0
 10
2.028417322834646
 20
0.9791417322834646
 30
0.0
 10
2.026188976377953
 20
0.9780787401574803
 30
0.0
 10
2.024334645669291
 20
0.9766181102362205
 30
0.0
 10
2.022834645669291
 20
0.974744094488189
 30
0.0
 10
2.022834645669291
 20
0.974744094488189
 30
0.0
 10
2.021358267716535
 20
0.9728700787401575
 30
0.0
 10
2.020062992125984
 20
0.9701417322834646
 30
0.0
 10
2.01896062992126
 20
0.9665590551181102
 30
0.0
 10
2.01896062992126
 20
0.9665590551181102
 30
0.0
 10
2.01896062992126
 20
0.9665590551181102
 30
0.0
 10
2.049917322834646
 20
0.9665590551181102
 30
0.0
 10
2.049917322834646
 20
0.9665590551181102
 30
0.0
  0
SPLINE
  5
4D
330
1F
100
AcDbEntity
  8
P1-Layer 1
 62
   250
100
AcDbSpline
210
0.0
220
0.0
230
1.0
 70
    11
 71
     3
 72
   104
 73
   100
 74
     0
 42
0.0000000001
 43
0.0000000001
 40
0.0
 40
0.0
 40
0.0
 40
0.0
 40
0.04
 40
0.04
 40
0.04
 40
0.04
 40
0.08
 40
0.08
 40
0.08
 40
0.08
 40
0.12
 40
0.12
 40
0.12
 40
0.12
 40
0.16
 40
0.16
 40
0.16
 40
0.16
 40
0.2
 40
0.2
 40
0.2
 40
0.2
 40
0.24
 40
0.24
 40
0.24
 40
0.24
 40
0.28
 40
0.28
 40
0.28
 40
0.28
 40
0.32
 40
0.32
 40
0.32
 40
0.32
 40
0.36
 40
0.36
 40
0.36
 40
0.36
 40
0.4
 40
0.4
 40
0.4
 40
0.4
 40
0.44
 40
0.44
 40
0.44
 40
0.44
 40
0.4799999999999999
 40
0.4799999999999999
 40
0.4799999999999999
 40
0.4799999999999999
 40
0.5199999999999999
 40
0.5199999999999999
 40
0.5199999999999999
 40
0.5199999999999999
 40
0.5599999999999999
 40
0.5599999999999999
 40
0.5599999999999999
 40
0.5599999999999999
 40
0.6
 40
0.6
 40
0.6
 40
0.6
 40
0.64
 40
0.64
 40
0.64
 40
0.64
 40
0.6800000000000001
 40
0.6800000000000001
 40
0.6800000000000001
 40
0.6800000000000001
 40
0.7200000000000001
 40
0.7200000000000001
 40
0.7200000000000001
 40
0.7200000000000001
 40
0.7600000000000001
 40
0.7600000000000001
 40
0.7600000000000001
 40
0.7600000000000001
 40
0.8000000000000002
 40
0.8000000000000002
 40
0.8000000000000002
 40
0.8000000000000002
 40
0.8400000000000002
 40
0.8400000000000002
 40
0.8400000000000002
 40
0.8400000000000002
 40
0.8800000000000002
 40
0.8800000000000002
 40
0.8800000000000002
 40
0.8800000000000002
 40
0.9200000000000003
 40
0.9200000000000003
 40
0.9200000000000003
 40
0.9200000000000003
 40
0.9600000000000003
 40
0.9600000000000003
 40
0.9600000000000003
 40
0.9600000000000003
 40
1.0
 40
1.0
 40
1.0
 40
1.0
 10
1.639787401574803
 20
0.8706811023622048
 30
0.0
 10
1.639787401574803
 20
0.8706811023622048
 30
0.0
 10
1.680267716535433
 20
0.8706811023622048
 30
0.0
 10
1.680267716535433
 20
0.8706811023622048
 30
0.0
 10
1.680267716535433
 20
0.8706811023622048
 30
0.0
 10
1.690141732283465
 20
0.8706811023622048
 30
0.0
 10
1.696913385826772
 20
0.870224409448819
 30
0.0
 10
1.70057874015748
 20
0.8693267716535433
 30
0.0
 10
1.70057874015748
 20
0.8693267716535433
 30
0.0
 10
1.705996062992126
 20
0.8680354330708662
 30
0.0
 10
1.710267716535433
 20
0.8656811023622048
 30
0.0
 10
1.713433070866142
 20
0.8622637795275591
 30
0.0
 10
1.713433070866142
 20
0.8622637795275591
 30
0.0
 10
1.71657874015748
 20
0.8588464566929134
 30
0.0
 10
1.718161417322835
 20
0.8547244094488189
 30
0.0
 10
1.718161417322835
 20
0.8499330708661418
 30
0.0
 10
1.718161417322835
 20
0.8499330708661418
 30
0.0
 10
1.718161417322835
 20
0.8464724409448819
 30
0.0
 10
1.717326771653543
 20
0.8433700787401575
 30
0.0
 10
1.715661417322835
 20
0.8406181102362205
 30
0.0
 10
1.715661417322835
 20
0.8406181102362205
 30
0.0
 10
1.713996062992126
 20
0.8378700787401575
 30
0.0
 10
1.71155905511811
 20
0.8355157480314961
 30
0.0
 10
1.708389763779528
 20
0.8335787401574804
 30
0.0
 10
1.708389763779528
 20
0.8335787401574804
 30
0.0
 10
1.706350393700788
 20
0.8323070866141733
 30
0.0
 10
1.703598425196851
 20
0.8312244094488189
 30
0.0
 10
1.700098425196851
 20
0.8303267716535433
 30
0.0
 10
1.700098425196851
 20
0.8303267716535433
 30
0.0
 10
1.704535433070866
 20
0.8295157480314961
 30
0.0
 10
1.707913385826772
 20
0.8285354330708662
 30
0.0
 10
1.710224409448819
 20
0.8274094488188977
 30
0.0
 10
1.710224409448819
 20
0.8274094488188977
 30
0.0
 10
1.713724409448819
 20
0.8257007874015748
 30
0.0
 10
1.716496062992126
 20
0.8232637795275591
 30
0.0
 10
1.718515748031496
 20
0.8200787401574804
 30
0.0
 10
1.718515748031496
 20
0.8200787401574804
 30
0.0
 10
1.72055905511811
 20
0.8169094488188977
 30
0.0
 10
1.721578740157481
 20
0.8133267716535434
 30
0.0
 10
1.721578740157481
 20
0.8093464566929134
 30
0.0
 10
1.721578740157481
 20
0.8093464566929134
 30
0.0
 10
1.721578740157481
 20
0.8054724409448819
 30
0.0
 10
1.72057874015748
 20
0.8018897637795276
 30
0.0
 10
1.71857874015748
 20
0.7985984251968504
 30
0.0
 10
1.71857874015748
 20
0.7985984251968504
 30
0.0
 10
1.716598425196851
 20
0.7953070866141733
 30
0.0
 10
1.713767716535433
 20
0.7925984251968504
 30
0.0
 10
1.710141732283465
 20
0.7904724409448819
 30
0.0
 10
1.710141732283465
 20
0.7904724409448819
 30
0.0
 10
1.706496062992126
 20
0.7883700787401575
 30
0.0
 10
1.702244094488189
 20
0.7870157480314961
 30
0.0
 10
1.697413385826772
 20
0.7864094488188976
 30
0.0
 10
1.697413385826772
 20
0.7864094488188976
 30
0.0
 10
1.69255905511811
 20
0.7858267716535433
 30
0.0
 10
1.68757874015748
 20
0.7855354330708662
 30
0.0
 10
1.682452755905512
 20
0.7855354330708662
 30
0.0
 10
1.682452755905512
 20
0.7855354330708662
 30
0.0
 10
1.682452755905512
 20
0.7855354330708662
 30
0.0
 10
1.639787401574803
 20
0.7855354330708662
 30
0.0
 10
1.639787401574803
 20
0.7855354330708662
 30
0.0
 10
1.639787401574803
 20
0.7855354330708662
 30
0.0
 10
1.639787401574803
 20
0.7855354330708662
 30
0.0
 10
1.639787401574803
 20
0.7906614173228347
 30
0.0
 10
1.639787401574803
 20
0.7906614173228347
 30
0.0
 10
1.639787401574803
 20
0.7906614173228347
 30
0.0
 10
1.639787401574803
 20
0.7906614173228347
 30
0.0
 10
1.642661417322835
 20
0.7906614173228347
 30
0.0
 10
1.642661417322835
 20
0.7906614173228347
 30
0.0
 10
1.642661417322835
 20
0.7906614173228347
 30
0.0
 10
1.645433070866142
 20
0.7906614173228347
 30
0.0
 10
1.647307086614173
 20
0.7910984251968505
 30
0.0
 10
1.648326771653544
 20
0.7919527559055118
 30
0.0
 10
1.648326771653544
 20
0.7919527559055118
 30
0.0
 10
1.649807086614173
 20
0.7931181102362205
 30
0.0
 10
1.650535433070866
 20
0.7950787401574804
 30
0.0
 10
1.650535433070866
 20
0.7978070866141732
 30
0.0
 10
1.650535433070866
 20
0.7978070866141732
 30
0.0
 10
1.650535433070866
 20
0.7978070866141732
 30
0.0
 10
1.650535433070866
 20
0.8569527559055119
 30
0.0
 10
1.650535433070866
 20
0.8569527559055119
 30
0.0
 10
1.650535433070866
 20
0.8569527559055119
 30
0.0
 10
1.650535433070866
 20
0.8597244094488189
 30
0.0
 10
1.650307086614173
 20
0.8615984251968505
 30
0.0
 10
1.649870078740158
 20
0.8626181102362205
 30
0.0
 10
1.649870078740158
 20
0.8626181102362205
 30
0.0
 10
1.649413385826772
 20
0.8636377952755906
 30
0.0
 10
1.648744094488189
 20
0.8643700787401575
 30
0.0
 10
1.647850393700788
 20
0.8648267716535434
 30
0.0
 10
1.647850393700788
 20
0.8648267716535434
 30
0.0
 10
1.646952755905512
 20
0.8652637795275591
 30
0.0
 10
1.645224409448819
 20
0.865492125984252
 30
0.0
 10
1.642661417322835
 20
0.865492125984252
 30
0.0
 10
1.642661417322835
 20
0.865492125984252
 30
0.0
 10
1.642661417322835
 20
0.865492125984252
 30
0.0
 10
1.639787401574803
 20
0.865492125984252
 30
0.0
 10
1.639787401574803
 20
0.865492125984252
 30
0.0
 10
1.639787401574803
 20
0.865492125984252
 30
0.0
 10
1.639787401574803
 20
0.865492125984252
 30
0.0
 10
1.639787401574803
 20
0.8706811023622048
 30
0.0
 10
1.639787401574803
 20
0.8706811023622048
 30
0.0
  0
SPLINE
  5
4E
330
1F
100
AcDbEntity
  8
P1-Layer 1
 62
   250
100
AcDbSpline
210
0.0
220
0.0
230
1.0
 70
    11
 71
     3
 72
    40
 73
    36
 74
     0
 42
0.0000000001
 43
0.0000000001
 40
0.0
 40
0.0
 40
0.0
 40
0.0
 40
0.1111111111111111
 40
0.1111111111111111
 40
0.1111111111111111
 40
0.1111111111111111
 40
0.2222222222222222
 40
0.2222222222222222
 40
0.2222222222222222
 40
0.2222222222222222
 40
0.3333333333333333
 40
0.3333333333333333
 40
0.3333333333333333
 40
0.3333333333333333
 40
0.4444444444444444
 40
0.4444444444444444
 40
0.4444444444444444
 40
0.4444444444444444
 40
0.5555555555555556
 40
0.5555555555555556
 40
0.5555555555555556
 40
0.5555555555555556
 40
0.6666666666666667
 40
0.6666666666666667
 40
0.6666666666666667
 40
0.6666666666666667
 40
0.7777777777777779
 40
0.7777777777777779
 40
0.7777777777777779
 40
0.7777777777777779
 40
0.8888888888888891
 40
0.8888888888888891
 40
0.8888888888888891
 40
0.8888888888888891
 40
1.0
 40
1.0
 40
1.0
 40
1.0
 10
1.661952755905512
 20
0.8639094488188976
 30
0.0
 10
1.661952755905512
 20
0.8639094488188976
 30
0.0
 10
1.661952755905512
 20
0.832724409448819
 30
0.0
 10
1.661952755905512
 20
0.832724409448819
 30
0.0
 10
1.661952755905512
 20
0.832724409448819
 30
0.0
 10
1.661952755905512
 20
0.832724409448819
 30
0.0
 10
1.677515748031496
 20
0.832724409448819
 30
0.0
 10
1.677515748031496
 20
0.832724409448819
 30
0.0
 10
1.677515748031496
 20
0.832724409448819
 30
0.0
 10
1.684787401574803
 20
0.832724409448819
 30
0.0
 10
1.689787401574803
 20
0.8330551181102363
 30
0.0
 10
1.692452755905512
 20
0.833744094488189
 30
0.0
 10
1.692452755905512
 20
0.833744094488189
 30
0.0
 10
1.696661417322835
 20
0.8348464566929135
 30
0.0
 10
1.699850393700787
 20
0.836724409448819
 30
0.0
 10
1.70207874015748
 20
0.8393700787401576
 30
0.0
 10
1.70207874015748
 20
0.8393700787401576
 30
0.0
 10
1.704287401574803
 20
0.8420157480314962
 30
0.0
 10
1.705413385826772
 20
0.8454094488188977
 30
0.0
 10
1.705413385826772
 20
0.8495551181102362
 30
0.0
 10
1.705413385826772
 20
0.8495551181102362
 30
0.0
 10
1.705413385826772
 20
0.8530551181102363
 30
0.0
 10
1.704389763779528
 20
0.8559724409448819
 30
0.0
 10
1.702389763779528
 20
0.8583267716535433
 30
0.0
 10
1.702389763779528
 20
0.8583267716535433
 30
0.0
 10
1.700370078740157
 20
0.8606614173228346
 30
0.0
 10
1.697661417322835
 20
0.8622637795275591
 30
0.0
 10
1.694287401574803
 20
0.8631181102362205
 30
0.0
 10
1.694287401574803
 20
0.8631181102362205
 30
0.0
 10
1.692098425196851
 20
0.8636377952755906
 30
0.0
 10
1.687535433070866
 20
0.8639094488188976
 30
0.0
 10
1.680622047244095
 20
0.8639094488188976
 30
0.0
 10
1.680622047244095
 20
0.8639094488188976
 30
0.0
 10
1.680622047244095
 20
0.8639094488188976
 30
0.0
 10
1.661952755905512
 20
0.8639094488188976
 30
0.0
 10
1.661952755905512
 20
0.8639094488188976
 30
0.0
  0
SPLINE
  5
4F
330
1F
100
AcDbEntity
  8
P1-Layer 1
 62
   250
100
AcDbSpline
210
0.0
220
0.0
230
1.0
 70
    11
 71
     3
 72
    52
 73
    48
 74
     0
 42
0.0000000001
 43
0.0000000001
 40
0.0
 40
0.0
 40
0.0
 40
0.0
 40
0.0833333333333333
 40
0.0833333333333333
 40
0.0833333333333333
 40
0.0833333333333333
 40
0.1666666666666667
 40
0.1666666666666667
 40
0.1666666666666667
 40
0.1666666666666667
 40
0.25
 40
0.25
 40
0.25
 40
0.25
 40
0.3333333333333333
 40
0.3333333333333333
 40
0.3333333333333333
 40
0.3333333333333333
 40
0.4166666666666666
 40
0.4166666666666666
 40
0.4166666666666666
 40
0.4166666666666666
 40
0.4999999999999999
 40
0.4999999999999999
 40
0.4999999999999999
 40
0.4999999999999999
 40
0.5833333333333333
 40
0.5833333333333333
 40
0.5833333333333333
 40
0.5833333333333333
 40
0.6666666666666666
 40
0.6666666666666666
 40
0.6666666666666666
 40
0.6666666666666666
 40
0.75
 40
0.75
 40
0.75
 40
0.75
 40
0.8333333333333334
 40
0.8333333333333334
 40
0.8333333333333334
 40
0.8333333333333334
 40
0.9166666666666667
 40
0.9166666666666667
 40
0.9166666666666667
 40
0.9166666666666667
 40
1.0
 40
1.0
 40
1.0
 40
1.0
 10
1.661952755905512
 20
0.8268464566929135
 30
0.0
 10
1.661952755905512
 20
0.8268464566929135
 30
0.0
 10
1.661952755905512
 20
0.7989094488188977
 30
0.0
 10
1.661952755905512
 20
0.7989094488188977
 30
0.0
 10
1.661952755905512
 20
0.7989094488188977
 30
0.0
 10
1.661952755905512
 20
0.7960984251968505
 30
0.0
 10
1.66207874015748
 20
0.7944330708661418
 30
0.0
 10
1.662307086614173
 20
0.7938897637795276
 30
0.0
 10
1.662307086614173
 20
0.7938897637795276
 30
0.0
 10
1.662641732283465
 20
0.7931614173228346
 30
0.0
 10
1.663287401574803
 20
0.7926614173228347
 30
0.0
 10
1.664267716535433
 20
0.7923700787401575
 30
0.0
 10
1.664267716535433
 20
0.7923700787401575
 30
0.0
 10
1.664952755905512
 20
0.7921614173228346
 30
0.0
 10
1.666913385826772
 20
0.7920551181102362
 30
0.0
 10
1.670122047244095
 20
0.7920551181102362
 30
0.0
 10
1.670122047244095
 20
0.7920551181102362
 30
0.0
 10
1.670122047244095
 20
0.7920551181102362
 30
0.0
 10
1.678433070866142
 20
0.7920551181102362
 30
0.0
 10
1.678433070866142
 20
0.7920551181102362
 30
0.0
 10
1.678433070866142
 20
0.7920551181102362
 30
0.0
 10
1.686641732283465
 20
0.7920551181102362
 30
0.0
 10
1.692515748031496
 20
0.7925157480314961
 30
0.0
 10
1.696035433070866
 20
0.7934330708661418
 30
0.0
 10
1.696035433070866
 20
0.7934330708661418
 30
0.0
 10
1.69955905511811
 20
0.7943464566929134
 30
0.0
 10
1.70255905511811
 20
0.7962874015748032
 30
0.0
 10
1.705035433070866
 20
0.799244094488189
 30
0.0
 10
1.705035433070866
 20
0.799244094488189
 30
0.0
 10
1.707515748031496
 20
0.8021811023622048
 30
0.0
 10
1.708767716535433
 20
0.805744094488189
 30
0.0
 10
1.708767716535433
 20
0.8098897637795276
 30
0.0
 10
1.708767716535433
 20
0.8098897637795276
 30
0.0
 10
1.708767716535433
 20
0.8133897637795275
 30
0.0
 10
1.707744094488189
 20
0.816492125984252
 30
0.0
 10
1.705744094488189
 20
0.8192007874015749
 30
0.0
 10
1.705744094488189
 20
0.8192007874015749
 30
0.0
 10
1.703724409448819
 20
0.8219094488188977
 30
0.0
 10
1.700933070866142
 20
0.8238464566929135
 30
0.0
 10
1.697370078740158
 20
0.8250551181102362
 30
0.0
 10
1.697370078740158
 20
0.8250551181102362
 30
0.0
 10
1.693807086614173
 20
0.8262637795275591
 30
0.0
 10
1.687496062992126
 20
0.8268464566929135
 30
0.0
 10
1.678433070866142
 20
0.8268464566929135
 30
0.0
 10
1.678433070866142
 20
0.8268464566929135
 30
0.0
 10
1.678433070866142
 20
0.8268464566929135
 30
0.0
 10
1.661952755905512
 20
0.8268464566929135
 30
0.0
 10
1.661952755905512
 20
0.8268464566929135
 30
0.0
  0
SPLINE
  5
50
330
1F
100
AcDbEntity
  8
P1-Layer 1
 62
   250
100
AcDbSpline
210
0.0
220
0.0
230
1.0
 70
    11
 71
     3
 72
   112
 73
   108
 74
     0
 42
0.0000000001
 43
0.0000000001
 40
0.0
 40
0.0
 40
0.0
 40
0.0
 40
0.037037037037037
 40
0.037037037037037
 40
0.037037037037037
 40
0.037037037037037
 40
0.0740740740740741
 40
0.0740740740740741
 40
0.0740740740740741
 40
0.0740740740740741
 40
0.1111111111111111
 40
0.1111111111111111
 40
0.1111111111111111
 40
0.1111111111111111
 40
0.1481481481481481
 40
0.1481481481481481
 40
0.1481481481481481
 40
0.1481481481481481
 40
0.1851851851851852
 40
0.1851851851851852
 40
0.1851851851851852
 40
0.1851851851851852
 40
0.2222222222222222
 40
0.2222222222222222
 40
0.2222222222222222
 40
0.2222222222222222
 40
0.2592592592592592
 40
0.2592592592592592
 40
0.2592592592592592
 40
0.2592592592592592
 40
0.2962962962962963
 40
0.2962962962962963
 40
0.2962962962962963
 40
0.2962962962962963
 40
0.3333333333333333
 40
0.3333333333333333
 40
0.3333333333333333
 40
0.3333333333333333
 40
0.3703703703703704
 40
0.3703703703703704
 40
0.3703703703703704
 40
0.3703703703703704
 40
0.4074074074074074
 40
0.4074074074074074
 40
0.4074074074074074
 40
0.4074074074074074
 40
0.4444444444444444
 40
0.4444444444444444
 40
0.4444444444444444
 40
0.4444444444444444
 40
0.4814814814814815
 40
0.4814814814814815
 40
0.4814814814814815
 40
0.4814814814814815
 40
0.5185185185185185
 40
0.5185185185185185
 40
0.5185185185185185
 40
0.5185185185185185
 40
0.5555555555555556
 40
0.5555555555555556
 40
0.5555555555555556
 40
0.5555555555555556
 40
0.5925925925925926
 40
0.5925925925925926
 40
0.5925925925925926
 40
0.5925925925925926
 40
0.6296296296296295
 40
0.6296296296296295
 40
0.6296296296296295
 40
0.6296296296296295
 40
0.6666666666666665
 40
0.6666666666666665
 40
0.6666666666666665
 40
0.6666666666666665
 40
0.7037037037037035
 40
0.7037037037037035
 40
0.7037037037037035
 40
0.7037037037037035
 40
0.7407407407407405
 40
0.7407407407407405
 40
0.7407407407407405
 40
0.7407407407407405
 40
0.7777777777777775
 40
0.7777777777777775
 40
0.7777777777777775
 40
0.7777777777777775
 40
0.8148148148148144
 40
0.8148148148148144
 40
0.8148148148148144
 40
0.8148148148148144
 40
0.8518518518518514
 40
0.8518518518518514
 40
0.8518518518518514
 40
0.8518518518518514
 40
0.8888888888888884
 40
0.8888888888888884
 40
0.8888888888888884
 40
0.8888888888888884
 40
0.9259259259259254
 40
0.9259259259259254
 40
0.9259259259259254
 40
0.9259259259259254
 40
0.9629629629629624
 40
0.9629629629629624
 40
0.9629629629629624
 40
0.9629629629629624
 40
1.0
 40
1.0
 40
1.0
 40
1.0
 10
1.764783464566929
 20
0.8706811023622048
 30
0.0
 10
1.764783464566929
 20
0.8706811023622048
 30
0.0
 10
1.774846456692913
 20
0.8706811023622048
 30
0.0
 10
1.774846456692913
 20
0.8706811023622048
 30
0.0
 10
1.774846456692913
 20
0.8706811023622048
 30
0.0
 10
1.774846456692913
 20
0.8706811023622048
 30
0.0
 10
1.801283464566929
 20
0.7995157480314961
 30
0.0
 10
1.801283464566929
 20
0.7995157480314961
 30
0.0
 10
1.801283464566929
 20
0.7995157480314961
 30
0.0
 10
1.80257874015748
 20
0.7959330708661417
 30
0.0
 10
1.803889763779528
 20
0.7935551181102363
 30
0.0
 10
1.805224409448819
 20
0.7924094488188976
 30
0.0
 10
1.805224409448819
 20
0.7924094488188976
 30
0.0
 10
1.806535433070866
 20
0.791244094488189
 30
0.0
 10
1.808326771653543
 20
0.7906614173228347
 30
0.0
 10
1.810555118110236
 20
0.7906614173228347
 30
0.0
 10
1.810555118110236
 20
0.7906614173228347
 30
0.0
 10
1.810555118110236
 20
0.7906614173228347
 30
0.0
 10
1.811889763779528
 20
0.7906614173228347
 30
0.0
 10
1.811889763779528
 20
0.7906614173228347
 30
0.0
 10
1.811889763779528
 20
0.7906614173228347
 30
0.0
 10
1.811889763779528
 20
0.7906614173228347
 30
0.0
 10
1.811889763779528
 20
0.7855354330708662
 30
0.0
 10
1.811889763779528
 20
0.7855354330708662
 30
0.0
 10
1.811889763779528
 20
0.7855354330708662
 30
0.0
 10
1.811889763779528
 20
0.7855354330708662
 30
0.0
 10
1.781555118110236
 20
0.7855354330708662
 30
0.0
 10
1.781555118110236
 20
0.7855354330708662
 30
0.0
 10
1.781555118110236
 20
0.7855354330708662
 30
0.0
 10
1.781555118110236
 20
0.7855354330708662
 30
0.0
 10
1.781555118110236
 20
0.7906614173228347
 30
0.0
 10
1.781555118110236
 20
0.7906614173228347
 30
0.0
 10
1.781555118110236
 20
0.7906614173228347
 30
0.0
 10
1.782535433070866
 20
0.7907440944881891
 30
0.0
 10
1.783492125984252
 20
0.7907874015748032
 30
0.0
 10
1.784433070866142
 20
0.7907874015748032
 30
0.0
 10
1.784433070866142
 20
0.7907874015748032
 30
0.0
 10
1.786389763779528
 20
0.7907874015748032
 30
0.0
 10
1.787661417322835
 20
0.790992125984252
 30
0.0
 10
1.788283464566929
 20
0.7913897637795276
 30
0.0
 10
1.788283464566929
 20
0.7913897637795276
 30
0.0
 10
1.789452755905512
 20
0.7921614173228346
 30
0.0
 10
1.790055118110236
 20
0.7931377952755906
 30
0.0
 10
1.790055118110236
 20
0.7943267716535434
 30
0.0
 10
1.790055118110236
 20
0.7943267716535434
 30
0.0
 10
1.790055118110236
 20
0.7951811023622047
 30
0.0
 10
1.789472440944882
 20
0.7972637795275591
 30
0.0
 10
1.788346456692914
 20
0.8006181102362205
 30
0.0
 10
1.788346456692914
 20
0.8006181102362205
 30
0.0
 10
1.788346456692914
 20
0.8006181102362205
 30
0.0
 10
1.782724409448819
 20
0.8170984251968504
 30
0.0
 10
1.782724409448819
 20
0.8170984251968504
 30
0.0
 10
1.782724409448819
 20
0.8170984251968504
 30
0.0
 10
1.782724409448819
 20
0.8170984251968504
 30
0.0
 10
1.751846456692914
 20
0.8170984251968504
 30
0.0
 10
1.751846456692914
 20
0.8170984251968504
 30
0.0
 10
1.751846456692914
 20
0.8170984251968504
 30
0.0
 10
1.751846456692914
 20
0.8170984251968504
 30
0.0
 10
1.745244094488189
 20
0.7986614173228347
 30
0.0
 10
1.745244094488189
 20
0.7986614173228347
 30
0.0
 10
1.745244094488189
 20
0.7986614173228347
 30
0.0
 10
1.744555118110236
 20
0.7967440944881891
 30
0.0
 10
1.744200787401575
 20
0.7954330708661418
 30
0.0
 10
1.744200787401575
 20
0.7946811023622048
 30
0.0
 10
1.744200787401575
 20
0.7946811023622048
 30
0.0
 10
1.744200787401575
 20
0.7938700787401575
 30
0.0
 10
1.744433070866142
 20
0.7931614173228346
 30
0.0
 10
1.744846456692913
 20
0.7925551181102363
 30
0.0
 10
1.744846456692913
 20
0.7925551181102363
 30
0.0
 10
1.745283464566929
 20
0.7919527559055118
 30
0.0
 10
1.745846456692914
 20
0.791492125984252
 30
0.0
 10
1.746598425196851
 20
0.7911811023622047
 30
0.0
 10
1.746598425196851
 20
0.7911811023622047
 30
0.0
 10
1.747326771653543
 20
0.7908700787401575
 30
0.0
 10
1.748492125984252
 20
0.7907244094488189
 30
0.0
 10
1.750137795275591
 20
0.7907244094488189
 30
0.0
 10
1.750137795275591
 20
0.7907244094488189
 30
0.0
 10
1.751224409448819
 20
0.7907244094488189
 30
0.0
 10
1.75211811023622
 20
0.7907007874015748
 30
0.0
 10
1.752807086614173
 20
0.7906614173228347
 30
0.0
 10
1.752807086614173
 20
0.7906614173228347
 30
0.0
 10
1.752807086614173
 20
0.7906614173228347
 30
0.0
 10
1.752807086614173
 20
0.7855354330708662
 30
0.0
 10
1.752807086614173
 20
0.7855354330708662
 30
0.0
 10
1.752807086614173
 20
0.7855354330708662
 30
0.0
 10
1.752807086614173
 20
0.7855354330708662
 30
0.0
 10
1.727370078740158
 20
0.7855354330708662
 30
0.0
 10
1.727370078740158
 20
0.7855354330708662
 30
0.0
 10
1.727370078740158
 20
0.7855354330708662
 30
0.0
 10
1.727370078740158
 20
0.7855354330708662
 30
0.0
 10
1.727370078740158
 20
0.7906614173228347
 30
0.0
 10
1.727370078740158
 20
0.7906614173228347
 30
0.0
 10
1.727370078740158
 20
0.7906614173228347
 30
0.0
 10
1.729724409448819
 20
0.7906614173228347
 30
0.0
 10
1.731433070866142
 20
0.7908897637795276
 30
0.0
 10
1.732452755905512
 20
0.7913700787401575
 30
0.0
 10
1.732452755905512
 20
0.7913700787401575
 30
0.0
 10
1.733492125984252
 20
0.7918267716535433
 30
0.0
 10
1.734409448818898
 20
0.7925787401574803
 30
0.0
 10
1.735181102362205
 20
0.7936181102362205
 30
0.0
 10
1.735181102362205
 20
0.7936181102362205
 30
0.0
 10
1.735952755905512
 20
0.7946614173228347
 30
0.0
 10
1.736972440944882
 20
0.7968464566929134
 30
0.0
 10
1.738224409448819
 20
0.8001811023622047
 30
0.0
 10
1.738224409448819
 20
0.8001811023622047
 30
0.0
 10
1.738224409448819
 20
0.8001811023622047
 30
0.0
 10
1.764783464566929
 20
0.8706811023622048
 30
0.0
 10
1.764783464566929
 20
0.8706811023622048
 30
0.0
  0
SPLINE
  5
51
330
1F
100
AcDbEntity
  8
P1-Layer 1
 62
   250
100
AcDbSpline
210
0.0
220
0.0
230
1.0
 70
    11
 71
     3
 72
    16
 73
    12
 74
     0
 42
0.0000000001
 43
0.0000000001
 40
0.0
 40
0.0
 40
0.0
 40
0.0
 40
0.3333333333333333
 40
0.3333333333333333
 40
0.3333333333333333
 40
0.3333333333333333
 40
0.6666666666666666
 40
0.6666666666666666
 40
0.6666666666666666
 40
0.6666666666666666
 40
1.0
 40
1.0
 40
1.0
 40
1.0
 10
1.754098425196851
 20
0.8230787401574804
 30
0.0
 10
1.754098425196851
 20
0.8230787401574804
 30
0.0
 10
1.780409448818898
 20
0.8230787401574804
 30
0.0
 10
1.780409448818898
 20
0.8230787401574804
 30
0.0
 10
1.780409448818898
 20
0.8230787401574804
 30
0.0
 10
1.780409448818898
 20
0.8230787401574804
 30
0.0
 10
1.767224409448819
 20
0.8597007874015749
 30
0.0
 10
1.767224409448819
 20
0.8597007874015749
 30
0.0
 10
1.767224409448819
 20
0.8597007874015749
 30
0.0
 10
1.767224409448819
 20
0.8597007874015749
 30
0.0
 10
1.754098425196851
 20
0.8230787401574804
 30
0.0
 10
1.754098425196851
 20
0.8230787401574804
 30
0.0
  0
SPLINE
  5
52
330
1F
100
AcDbEntity
  8
P1-Layer 1
 62
   250
100
AcDbSpline
210
0.0
220
0.0
230
1.0
 70
    11
 71
     3
 72
    72
 73
    68
 74
     0
 42
0.0000000001
 43
0.0000000001
 40
0.0
 40
0.0
 40
0.0
 40
0.0
 40
0.0588235294117647
 40
0.0588235294117647
 40
0.0588235294117647
 40
0.0588235294117647
 40
0.1176470588235294
 40
0.1176470588235294
 40
0.1176470588235294
 40
0.1176470588235294
 40
0.1764705882352941
 40
0.1764705882352941
 40
0.1764705882352941
 40
0.1764705882352941
 40
0.2352941176470588
 40
0.2352941176470588
 40
0.2352941176470588
 40
0.2352941176470588
 40
0.2941176470588235
 40
0.2941176470588235
 40
0.2941176470588235
 40
0.2941176470588235
 40
0.3529411764705883
 40
0.3529411764705883
 40
0.3529411764705883
 40
0.3529411764705883
 40
0.411764705882353
 40
0.411764705882353
 40
0.411764705882353
 40
0.411764705882353
 40
0.4705882352941177
 40
0.4705882352941177
 40
0.4705882352941177
 40
0.4705882352941177
 40
0.5294117647058824
 40
0.5294117647058824
 40
0.5294117647058824
 40
0.5294117647058824
 40
0.5882352941176471
 40
0.5882352941176471
 40
0.5882352941176471
 40
0.5882352941176471
 40
0.6470588235294118
 40
0.6470588235294118
 40
0.6470588235294118
 40
0.6470588235294118
 40
0.7058823529411765
 40
0.7058823529411765
 40
0.7058823529411765
 40
0.7058823529411765
 40
0.7647058823529412
 40
0.7647058823529412
 40
0.7647058823529412
 40
0.7647058823529412
 40
0.823529411764706
 40
0.823529411764706
 40
0.823529411764706
 40
0.823529411764706
 40
0.8823529411764707
 40
0.8823529411764707
 40
0.8823529411764707
 40
0.8823529411764707
 40
0.9411764705882354
 40
0.9411764705882354
 40
0.9411764705882354
 40
0.9411764705882354
 40
1.0
 40
1.0
 40
1.0
 40
1.0
 10
1.934161417322835
 20
0.8706811023622048
 30
0.0
 10
1.934161417322835
 20
0.8706811023622048
 30
0.0
 10
1.938724409448819
 20
0.8706811023622048
 30
0.0
 10
1.938724409448819
 20
0.8706811023622048
 30
0.0
 10
1.938724409448819
 20
0.8706811023622048
 30
0.0
 10
1.938724409448819
 20
0.8706811023622048
 30
0.0
 10
1.938724409448819
 20
0.799992125984252
 30
0.0
 10
1.938724409448819
 20
0.799992125984252
 30
0.0
 10
1.938724409448819
 20
0.799992125984252
 30
0.0
 10
1.938724409448819
 20
0.7966614173228347
 30
0.0
 10
1.938952755905512
 20
0.7945157480314961
 30
0.0
 10
1.939370078740158
 20
0.7935551181102363
 30
0.0
 10
1.939370078740158
 20
0.7935551181102363
 30
0.0
 10
1.939807086614173
 20
0.7925984251968504
 30
0.0
 10
1.940496062992126
 20
0.7918897637795276
 30
0.0
 10
1.941472440944882
 20
0.7913897637795276
 30
0.0
 10
1.941472440944882
 20
0.7913897637795276
 30
0.0
 10
1.942452755905512
 20
0.7909094488188977
 30
0.0
 10
1.944389763779528
 20
0.7906614173228347
 30
0.0
 10
1.947287401574803
 20
0.7906614173228347
 30
0.0
 10
1.947287401574803
 20
0.7906614173228347
 30
0.0
 10
1.947287401574803
 20
0.7906614173228347
 30
0.0
 10
1.953263779527559
 20
0.7906614173228347
 30
0.0
 10
1.953263779527559
 20
0.7906614173228347
 30
0.0
 10
1.953263779527559
 20
0.7906614173228347
 30
0.0
 10
1.953263779527559
 20
0.7906614173228347
 30
0.0
 10
1.953263779527559
 20
0.7855354330708662
 30
0.0
 10
1.953263779527559
 20
0.7855354330708662
 30
0.0
 10
1.953263779527559
 20
0.7855354330708662
 30
0.0
 10
1.953263779527559
 20
0.7855354330708662
 30
0.0
 10
1.913035433070866
 20
0.7855354330708662
 30
0.0
 10
1.913035433070866
 20
0.7855354330708662
 30
0.0
 10
1.913035433070866
 20
0.7855354330708662
 30
0.0
 10
1.913035433070866
 20
0.7855354330708662
 30
0.0
 10
1.913035433070866
 20
0.7906614173228347
 30
0.0
 10
1.913035433070866
 20
0.7906614173228347
 30
0.0
 10
1.913035433070866
 20
0.7906614173228347
 30
0.0
 10
1.913035433070866
 20
0.7906614173228347
 30
0.0
 10
1.919681102362205
 20
0.7906614173228347
 30
0.0
 10
1.919681102362205
 20
0.7906614173228347
 30
0.0
 10
1.919681102362205
 20
0.7906614173228347
 30
0.0
 10
1.92257874015748
 20
0.7906614173228347
 30
0.0
 10
1.924496062992126
 20
0.7909094488188977
 30
0.0
 10
1.925452755905512
 20
0.7914330708661418
 30
0.0
 10
1.925452755905512
 20
0.7914330708661418
 30
0.0
 10
1.926413385826772
 20
0.7919330708661417
 30
0.0
 10
1.927161417322835
 20
0.7927440944881891
 30
0.0
 10
1.927681102362205
 20
0.7938700787401575
 30
0.0
 10
1.927681102362205
 20
0.7938700787401575
 30
0.0
 10
1.928204724409449
 20
0.794992125984252
 30
0.0
 10
1.928472440944882
 20
0.7970354330708662
 30
0.0
 10
1.928472440944882
 20
0.799992125984252
 30
0.0
 10
1.928472440944882
 20
0.799992125984252
 30
0.0
 10
1.928472440944882
 20
0.799992125984252
 30
0.0
 10
1.928472440944882
 20
0.8580984251968504
 30
0.0
 10
1.928472440944882
 20
0.8580984251968504
 30
0.0
 10
1.928472440944882
 20
0.8580984251968504
 30
0.0
 10
1.928472440944882
 20
0.8580984251968504
 30
0.0
 10
1.913035433070866
 20
0.8580984251968504
 30
0.0
 10
1.913035433070866
 20
0.8580984251968504
 30
0.0
 10
1.913035433070866
 20
0.8580984251968504
 30
0.0
 10
1.913035433070866
 20
0.8580984251968504
 30
0.0
 10
1.913035433070866
 20
0.8633464566929134
 30
0.0
 10
1.913035433070866
 20
0.8633464566929134
 30
0.0
 10
1.913035433070866
 20
0.8633464566929134
 30
0.0
 10
1.921452755905512
 20
0.8645354330708662
 30
0.0
 10
1.928496062992126
 20
0.8669724409448819
 30
0.0
 10
1.934161417322835
 20
0.8706811023622048
 30
0.0
  0
SPLINE
  5
53
330
1F
100
AcDbEntity
  8
P1-Layer 1
 62
   250
100
AcDbSpline
210
0.0
220
0.0
230
1.0
 70
    11
 71
     3
 72
    48
 73
    44
 74
     0
 42
0.0000000001
 43
0.0000000001
 40
0.0
 40
0.0
 40
0.0
 40
0.0
 40
0.0909090909090909
 40
0.0909090909090909
 40
0.0909090909090909
 40
0.0909090909090909
 40
0.1818181818181818
 40
0.1818181818181818
 40
0.1818181818181818
 40
0.1818181818181818
 40
0.2727272727272727
 40
0.2727272727272727
 40
0.2727272727272727
 40
0.2727272727272727
 40
0.3636363636363637
 40
0.3636363636363637
 40
0.3636363636363637
 40
0.3636363636363637
 40
0.4545454545454546
 40
0.4545454545454546
 40
0.4545454545454546
 40
0.4545454545454546
 40
0.5454545454545455
 40
0.5454545454545455
 40
0.5454545454545455
 40
0.5454545454545455
 40
0.6363636363636365
 40
0.6363636363636365
 40
0.6363636363636365
 40
0.6363636363636365
 40
0.7272727272727274
 40
0.7272727272727274
 40
0.7272727272727274
 40
0.7272727272727274
 40
0.8181818181818183
 40
0.8181818181818183
 40
0.8181818181818183
 40
0.8181818181818183
 40
0.9090909090909093
 40
0.9090909090909093
 40
0.9090909090909093
 40
0.9090909090909093
 40
1.0
 40
1.0
 40
1.0
 40
1.0
 10
2.00861811023622
 20
0.8721377952755905
 30
0.0
 10
2.014889763779528
 20
0.8721377952755905
 30
0.0
 10
2.020370078740158
 20
0.8705551181102362
 30
0.0
 10
2.025035433070866
 20
0.8673464566929134
 30
0.0
 10
2.025035433070866
 20
0.8673464566929134
 30
0.0
 10
2.029724409448819
 20
0.8641614173228347
 30
0.0
 10
2.033515748031496
 20
0.8591377952755905
 30
0.0
 10
2.036452755905512
 20
0.8523070866141733
 30
0.0
 10
2.036452755905512
 20
0.8523070866141733
 30
0.0
 10
2.039389763779528
 20
0.8454724409448819
 30
0.0
 10
2.040846456692913
 20
0.8371811023622048
 30
0.0
 10
2.040846456692913
 20
0.8274724409448819
 30
0.0
 10
2.040846456692913
 20
0.8274724409448819
 30
0.0
 10
2.040846456692913
 20
0.8130551181102362
 30
0.0
 10
2.037244094488189
 20
0.8018464566929134
 30
0.0
 10
2.030035433070866
 20
0.7938267716535433
 30
0.0
 10
2.030035433070866
 20
0.7938267716535433
 30
0.0
 10
2.024181102362205
 20
0.7873267716535434
 30
0.0
 10
2.016783464566929
 20
0.7840787401574804
 30
0.0
 10
2.007826771653543
 20
0.7840787401574804
 30
0.0
 10
2.007826771653543
 20
0.7840787401574804
 30
0.0
 10
2.001763779527559
 20
0.7840787401574804
 30
0.0
 10
1.996389763779528
 20
0.7856811023622048
 30
0.0
 10
1.991724409448819
 20
0.7889330708661417
 30
0.0
 10
1.991724409448819
 20
0.7889330708661417
 30
0.0
 10
1.987035433070866
 20
0.7921614173228346
 30
0.0
 10
1.983244094488189
 20
0.7970157480314961
 30
0.0
 10
1.980370078740158
 20
0.8034724409448819
 30
0.0
 10
1.980370078740158
 20
0.8034724409448819
 30
0.0
 10
1.977472440944882
 20
0.8099527559055119
 30
0.0
 10
1.976035433070866
 20
0.8181614173228347
 30
0.0
 10
1.976035433070866
 20
0.8281377952755906
 30
0.0
 10
1.976035433070866
 20
0.8281377952755906
 30
0.0
 10
1.976035433070866
 20
0.8381811023622048
 30
0.0
 10
1.977452755905512
 20
0.8463897637795276
 30
0.0
 10
1.980263779527559
 20
0.852744094488189
 30
0.0
 10
1.980263779527559
 20
0.852744094488189
 30
0.0
 10
1.98309842519685
 20
0.8590787401574803
 30
0.0
 10
1.986952755905512
 20
0.8639094488188976
 30
0.0
 10
1.991826771653543
 20
0.8672007874015748
 30
0.0
 10
1.991826771653543
 20
0.8672007874015748
 30
0.0
 10
1.996724409448819
 20
0.870492125984252
 30
0.0
 10
2.002307086614173
 20
0.8721377952755905
 30
0.0
 10
2.00861811023622
 20
0.8721377952755905
 30
0.0
  0
SPLINE
  5
54
330
1F
100
AcDbEntity
  8
P1-Layer 1
 62
   250
100
AcDbSpline
210
0.0
220
0.0
230
1.0
 70
    11
 71
     3
 72
    56
 73
    52
 74
     0
 42
0.0000000001
 43
0.0000000001
 40
0.0
 40
0.0
 40
0.0
 40
0.0
 40
0.0769230769230769
 40
0.0769230769230769
 40
0.0769230769230769
 40
0.0769230769230769
 40
0.1538461538461539
 40
0.1538461538461539
 40
0.1538461538461539
 40
0.1538461538461539
 40
0.2307692307692308
 40
0.2307692307692308
 40
0.2307692307692308
 40
0.2307692307692308
 40
0.3076923076923077
 40
0.3076923076923077
 40
0.3076923076923077
 40
0.3076923076923077
 40
0.3846153846153846
 40
0.3846153846153846
 40
0.3846153846153846
 40
0.3846153846153846
 40
0.4615384615384616
 40
0.4615384615384616
 40
0.4615384615384616
 40
0.4615384615384616
 40
0.5384615384615386
 40
0.5384615384615386
 40
0.5384615384615386
 40
0.5384615384615386
 40
0.6153846153846154
 40
0.6153846153846154
 40
0.6153846153846154
 40
0.6153846153846154
 40
0.6923076923076923
 40
0.6923076923076923
 40
0.6923076923076923
 40
0.6923076923076923
 40
0.7692307692307692
 40
0.7692307692307692
 40
0.7692307692307692
 40
0.7692307692307692
 40
0.846153846153846
 40
0.846153846153846
 40
0.846153846153846
 40
0.846153846153846
 40
0.9230769230769229
 40
0.9230769230769229
 40
0.9230769230769229
 40
0.9230769230769229
 40
1.0
 40
1.0
 40
1.0
 40
1.0
 10
2.008326771653544
 20
0.8660984251968504
 30
0.0
 10
2.00407874015748
 20
0.8660984251968504
 30
0.0
 10
2.000370078740158
 20
0.8645551181102362
 30
0.0
 10
1.997137795275591
 20
0.861472440944882
 30
0.0
 10
1.997137795275591
 20
0.861472440944882
 30
0.0
 10
1.994346456692913
 20
0.8587874015748032
 30
0.0
 10
1.992118110236221
 20
0.8545551181102362
 30
0.0
 10
1.990492125984252
 20
0.8487637795275591
 30
0.0
 10
1.990492125984252
 20
0.8487637795275591
 30
0.0
 10
1.988618110236221
 20
0.8421811023622048
 30
0.0
 10
1.987681102362205
 20
0.8348897637795276
 30
0.0
 10
1.987681102362205
 20
0.8269094488188977
 30
0.0
 10
1.987681102362205
 20
0.8269094488188977
 30
0.0
 10
1.987681102362205
 20
0.820724409448819
 30
0.0
 10
1.988263779527559
 20
0.8151181102362205
 30
0.0
 10
1.989433070866142
 20
0.8100984251968504
 30
0.0
 10
1.989433070866142
 20
0.8100984251968504
 30
0.0
 10
1.99057874015748
 20
0.8050787401574804
 30
0.0
 10
1.992118110236221
 20
0.8011614173228346
 30
0.0
 10
1.994035433070866
 20
0.7983897637795276
 30
0.0
 10
1.994035433070866
 20
0.7983897637795276
 30
0.0
 10
1.995952755905512
 20
0.7955984251968504
 30
0.0
 10
1.998118110236221
 20
0.7935354330708662
 30
0.0
 10
2.000535433070866
 20
0.7921811023622047
 30
0.0
 10
2.000535433070866
 20
0.7921811023622047
 30
0.0
 10
2.002952755905512
 20
0.7908464566929134
 30
0.0
 10
2.005515748031496
 20
0.7901811023622047
 30
0.0
 10
2.008200787401575
 20
0.7901811023622047
 30
0.0
 10
2.008200787401575
 20
0.7901811023622047
 30
0.0
 10
2.012224409448819
 20
0.7901811023622047
 30
0.0
 10
2.015992125984252
 20
0.7917440944881891
 30
0.0
 10
2.019492125984252
 20
0.7948700787401575
 30
0.0
 10
2.019492125984252
 20
0.7948700787401575
 30
0.0
 10
2.022283464566929
 20
0.7974330708661418
 30
0.0
 10
2.024515748031496
 20
0.8012637795275591
 30
0.0
 10
2.026137795275591
 20
0.8063464566929134
 30
0.0
 10
2.026137795275591
 20
0.8063464566929134
 30
0.0
 10
2.028098425196851
 20
0.8125354330708662
 30
0.0
 10
2.02907874015748
 20
0.8198070866141732
 30
0.0
 10
2.02907874015748
 20
0.8281377952755906
 30
0.0
 10
2.02907874015748
 20
0.8281377952755906
 30
0.0
 10
2.02907874015748
 20
0.8367637795275591
 30
0.0
 10
2.028078740157481
 20
0.8440984251968504
 30
0.0
 10
2.02607874015748
 20
0.8501181102362205
 30
0.0
 10
2.02607874015748
 20
0.8501181102362205
 30
0.0
 10
2.024078740157481
 20
0.8561377952755905
 30
0.0
 10
2.021637795275591
 20
0.8603070866141732
 30
0.0
 10
2.018724409448819
 20
0.8626181102362205
 30
0.0
 10
2.018724409448819
 20
0.8626181102362205
 30
0.0
 10
2.015807086614173
 20
0.8649527559055118
 30
0.0
 10
2.012346456692914
 20
0.8660984251968504
 30
0.0
 10
2.008326771653544
 20
0.8660984251968504
 30
0.0
  0
SPLINE
  5
55
330
1F
100
AcDbEntity
  8
P1-Layer 1
 62
   250
100
AcDbSpline
210
0.0
220
0.0
230
1.0
 70
    11
 71
     3
 72
    48
 73
    44
 74
     0
 42
0.0000000001
 43
0.0000000001
 40
0.0
 40
0.0
 40
0.0
 40
0.0
 40
0.0909090909090909
 40
0.0909090909090909
 40
0.0909090909090909
 40
0.0909090909090909
 40
0.1818181818181818
 40
0.1818181818181818
 40
0.1818181818181818
 40
0.1818181818181818
 40
0.2727272727272727
 40
0.2727272727272727
 40
0.2727272727272727
 40
0.2727272727272727
 40
0.3636363636363637
 40
0.3636363636363637
 40
0.3636363636363637
 40
0.3636363636363637
 40
0.4545454545454546
 40
0.4545454545454546
 40
0.4545454545454546
 40
0.4545454545454546
 40
0.5454545454545455
 40
0.5454545454545455
 40
0.5454545454545455
 40
0.5454545454545455
 40
0.6363636363636365
 40
0.6363636363636365
 40
0.6363636363636365
 40
0.6363636363636365
 40
0.7272727272727274
 40
0.7272727272727274
 40
0.7272727272727274
 40
0.7272727272727274
 40
0.8181818181818183
 40
0.8181818181818183
 40
0.8181818181818183
 40
0.8181818181818183
 40
0.9090909090909093
 40
0.9090909090909093
 40
0.9090909090909093
 40
0.9090909090909093
 40
1.0
 40
1.0
 40
1.0
 40
1.0
 10
2.092492125984252
 20
0.8706811023622048
 30
0.0
 10
2.092492125984252
 20
0.8706811023622048
 30
0.0
 10
2.102803149606299
 20
0.8706811023622048
 30
0.0
 10
2.102803149606299
 20
0.8706811023622048
 30
0.0
 10
2.102803149606299
 20
0.8706811023622048
 30
0.0
 10
2.102803149606299
 20
0.8706811023622048
 30
0.0
 10
2.102803149606299
 20
0.8211811023622048
 30
0.0
 10
2.102803149606299
 20
0.8211811023622048
 30
0.0
 10
2.102803149606299
 20
0.8211811023622048
 30
0.0
 10
2.102803149606299
 20
0.8211811023622048
 30
0.0
 10
2.118803149606299
 20
0.8211811023622048
 30
0.0
 10
2.118803149606299
 20
0.8211811023622048
 30
0.0
 10
2.118803149606299
 20
0.8211811023622048
 30
0.0
 10
2.118803149606299
 20
0.8211811023622048
 30
0.0
 10
2.118803149606299
 20
0.8135551181102363
 30
0.0
 10
2.118803149606299
 20
0.8135551181102363
 30
0.0
 10
2.118803149606299
 20
0.8135551181102363
 30
0.0
 10
2.118803149606299
 20
0.8135551181102363
 30
0.0
 10
2.102803149606299
 20
0.8135551181102363
 30
0.0
 10
2.102803149606299
 20
0.8135551181102363
 30
0.0
 10
2.102803149606299
 20
0.8135551181102363
 30
0.0
 10
2.102803149606299
 20
0.8135551181102363
 30
0.0
 10
2.102803149606299
 20
0.7855354330708662
 30
0.0
 10
2.102803149606299
 20
0.7855354330708662
 30
0.0
 10
2.102803149606299
 20
0.7855354330708662
 30
0.0
 10
2.102803149606299
 20
0.7855354330708662
 30
0.0
 10
2.092492125984252
 20
0.7855354330708662
 30
0.0
 10
2.092492125984252
 20
0.7855354330708662
 30
0.0
 10
2.092492125984252
 20
0.7855354330708662
 30
0.0
 10
2.092492125984252
 20
0.7855354330708662
 30
0.0
 10
2.092492125984252
 20
0.8135551181102363
 30
0.0
 10
2.092492125984252
 20
0.8135551181102363
 30
0.0
 10
2.092492125984252
 20
0.8135551181102363
 30
0.0
 10
2.092492125984252
 20
0.8135551181102363
 30
0.0
 10
2.052389763779527
 20
0.8135551181102363
 30
0.0
 10
2.052389763779527
 20
0.8135551181102363
 30
0.0
 10
2.052389763779527
 20
0.8135551181102363
 30
0.0
 10
2.052389763779527
 20
0.8135551181102363
 30
0.0
 10
2.052389763779527
 20
0.8242874015748032
 30
0.0
 10
2.052389763779527
 20
0.8242874015748032
 30
0.0
 10
2.052389763779527
 20
0.8242874015748032
 30
0.0
 10
2.052389763779527
 20
0.8242874015748032
 30
0.0
 10
2.092492125984252
 20
0.8706811023622048
 30
0.0
 10
2.092492125984252
 20
0.8706811023622048
 30
0.0
  0
SPLINE
  5
56
330
1F
100
AcDbEntity
  8
P1-Layer 1
 62
   250
100
AcDbSpline
210
0.0
220
0.0
230
1.0
 70
    11
 71
     3
 72
    16
 73
    12
 74
     0
 42
0.0000000001
 43
0.0000000001
 40
0.0
 40
0.0
 40
0.0
 40
0.0
 40
0.3333333333333333
 40
0.3333333333333333
 40
0.3333333333333333
 40
0.3333333333333333
 40
0.6666666666666666
 40
0.6666666666666666
 40
0.6666666666666666
 40
0.6666666666666666
 40
1.0
 40
1.0
 40
1.0
 40
1.0
 10
2.092492125984252
 20
0.8211811023622048
 30
0.0
 10
2.092492125984252
 20
0.8211811023622048
 30
0.0
 10
2.092492125984252
 20
0.861224409448819
 30
0.0
 10
2.092492125984252
 20
0.861224409448819
 30
0.0
 10
2.092492125984252
 20
0.861224409448819
 30
0.0
 10
2.092492125984252
 20
0.861224409448819
 30
0.0
 10
2.057952755905512
 20
0.8211811023622048
 30
0.0
 10
2.057952755905512
 20
0.8211811023622048
 30
0.0
 10
2.057952755905512
 20
0.8211811023622048
 30
0.0
 10
2.057952755905512
 20
0.8211811023622048
 30
0.0
 10
2.092492125984252
 20
0.8211811023622048
 30
0.0
 10
2.092492125984252
 20
0.8211811023622048
 30
0.0
  0
SPLINE
  5
57
330
1F
100
AcDbEntity
  8
P1-Layer 1
 62
   250
100
AcDbSpline
210
0.0
220
0.0
230
1.0
 70
    11
 71
     3
 72
    84
 73
    80
 74
     0
 42
0.0000000001
 43
0.0000000001
 40
0.0
 40
0.0
 40
0.0
 40
0.0
 40
0.05
 40
0.05
 40
0.05
 40
0.05
 40
0.1
 40
0.1
 40
0.1
 40
0.1
 40
0.15
 40
0.15
 40
0.15
 40
0.15
 40
0.2
 40
0.2
 40
0.2
 40
0.2
 40
0.25
 40
0.25
 40
0.25
 40
0.25
 40
0.3
 40
0.3
 40
0.3
 40
0.3
 40
0.35
 40
0.35
 40
0.35
 40
0.35
 40
0.4
 40
0.4
 40
0.4
 40
0.4
 40
0.45
 40
0.45
 40
0.45
 40
0.45
 40
0.4999999999999999
 40
0.4999999999999999
 40
0.4999999999999999
 40
0.4999999999999999
 40
0.5499999999999999
 40
0.5499999999999999
 40
0.5499999999999999
 40
0.5499999999999999
 40
0.6
 40
0.6
 40
0.6
 40
0.6
 40
0.65
 40
0.65
 40
0.65
 40
0.65
 40
0.7000000000000001
 40
0.7000000000000001
 40
0.7000000000000001
 40
0.7000000000000001
 40
0.7500000000000001
 40
0.7500000000000001
 40
0.7500000000000001
 40
0.7500000000000001
 40
0.8000000000000002
 40
0.8000000000000002
 40
0.8000000000000002
 40
0.8000000000000002
 40
0.8500000000000002
 40
0.8500000000000002
 40
0.8500000000000002
 40
0.8500000000000002
 40
0.9000000000000002
 40
0.9000000000000002
 40
0.9000000000000002
 40
0.9000000000000002
 40
0.9500000000000003
 40
0.9500000000000003
 40
0.9500000000000003
 40
0.9500000000000003
 40
1.0
 40
1.0
 40
1.0
 40
1.0
 10
2.139055118110236
 20
0.7840787401574804
 30
0.0
 10
2.139055118110236
 20
0.7840787401574804
 30
0.0
 10
2.139055118110236
 20
0.7897440944881891
 30
0.0
 10
2.139055118110236
 20
0.7897440944881891
 30
0.0
 10
2.139055118110236
 20
0.7897440944881891
 30
0.0
 10
2.149157480314961
 20
0.7898700787401575
 30
0.0
 10
2.157303149606299
 20
0.7913267716535434
 30
0.0
 10
2.163511811023622
 20
0.7941181102362205
 30
0.0
 10
2.163511811023622
 20
0.7941181102362205
 30
0.0
 10
2.169720472440945
 20
0.7968897637795276
 30
0.0
 10
2.174263779527559
 20
0.8010984251968504
 30
0.0
 10
2.177177165354331
 20
0.806724409448819
 30
0.0
 10
2.177177165354331
 20
0.806724409448819
 30
0.0
 10
2.180094488188976
 20
0.8123267716535434
 30
0.0
 10
2.181720472440945
 20
0.8192007874015749
 30
0.0
 10
2.182094488188977
 20
0.8273464566929134
 30
0.0
 10
2.182094488188977
 20
0.8273464566929134
 30
0.0
 10
2.180011811023622
 20
0.8241811023622048
 30
0.0
 10
2.177885826771654
 20
0.8217007874015748
 30
0.0
 10
2.175720472440945
 20
0.8199527559055119
 30
0.0
 10
2.175720472440945
 20
0.8199527559055119
 30
0.0
 10
2.173531496062992
 20
0.8182007874015749
 30
0.0
 10
2.170992125984252
 20
0.8168464566929135
 30
0.0
 10
2.168094488188976
 20
0.8158700787401575
 30
0.0
 10
2.168094488188976
 20
0.8158700787401575
 30
0.0
 10
2.165177165354331
 20
0.8148897637795276
 30
0.0
 10
2.162011811023622
 20
0.8144094488188977
 30
0.0
 10
2.158594488188976
 20
0.8144094488188977
 30
0.0
 10
2.158594488188976
 20
0.8144094488188977
 30
0.0
 10
2.153055118110236
 20
0.8144094488188977
 30
0.0
 10
2.148137795275591
 20
0.8156181102362206
 30
0.0
 10
2.1438031496063
 20
0.8180787401574804
 30
0.0
 10
2.1438031496063
 20
0.8180787401574804
 30
0.0
 10
2.139472440944882
 20
0.8205157480314961
 30
0.0
 10
2.136094488188976
 20
0.8238070866141732
 30
0.0
 10
2.133700787401575
 20
0.8279527559055119
 30
0.0
 10
2.133700787401575
 20
0.8279527559055119
 30
0.0
 10
2.131283464566929
 20
0.8320984251968504
 30
0.0
 10
2.130094488188977
 20
0.836992125984252
 30
0.0
 10
2.130094488188977
 20
0.8425984251968505
 30
0.0
 10
2.130094488188977
 20
0.8425984251968505
 30
0.0
 10
2.130094488188977
 20
0.8515551181102362
 30
0.0
 10
2.132803149606299
 20
0.8585984251968505
 30
0.0
 10
2.138200787401575
 20
0.8637244094488189
 30
0.0
 10
2.138200787401575
 20
0.8637244094488189
 30
0.0
 10
2.144200787401575
 20
0.8693267716535433
 30
0.0
 10
2.151972440944882
 20
0.8721377952755905
 30
0.0
 10
2.161531496062992
 20
0.8721377952755905
 30
0.0
 10
2.161531496062992
 20
0.8721377952755905
 30
0.0
 10
2.168409448818898
 20
0.8721377952755905
 30
0.0
 10
2.174200787401575
 20
0.8707244094488189
 30
0.0
 10
2.178929133858268
 20
0.8678700787401575
 30
0.0
 10
2.178929133858268
 20
0.8678700787401575
 30
0.0
 10
2.183637795275591
 20
0.8650157480314961
 30
0.0
 10
2.187385826771654
 20
0.8606614173228346
 30
0.0
 10
2.190157480314961
 20
0.8548070866141733
 30
0.0
 10
2.190157480314961
 20
0.8548070866141733
 30
0.0
 10
2.192909448818898
 20
0.8489527559055119
 30
0.0
 10
2.1943031496063
 20
0.841744094488189
 30
0.0
 10
2.1943031496063
 20
0.8332007874015749
 30
0.0
 10
2.1943031496063
 20
0.8332007874015749
 30
0.0
 10
2.1943031496063
 20
0.8246614173228347
 30
0.0
 10
2.192866141732284
 20
0.8170354330708661
 30
0.0
 10
2.189972440944882
 20
0.8103070866141733
 30
0.0
 10
2.189972440944882
 20
0.8103070866141733
 30
0.0
 10
2.187074803149606
 20
0.8035984251968504
 30
0.0
 10
2.183031496062992
 20
0.7982244094488189
 30
0.0
 10
2.177846456692913
 20
0.7941811023622047
 30
0.0
 10
2.177846456692913
 20
0.7941811023622047
 30
0.0
 10
2.172657480314961
 20
0.7901181102362205
 30
0.0
 10
2.166948818897638
 20
0.7874330708661418
 30
0.0
 10
2.160740157480315
 20
0.7860787401574804
 30
0.0
 10
2.160740157480315
 20
0.7860787401574804
 30
0.0
 10
2.154511811023622
 20
0.7847440944881891
 30
0.0
 10
2.148866141732284
 20
0.7840787401574804
 30
0.0
 10
2.14382283464567
 20
0.7840787401574804
 30
0.0
 10
2.14382283464567
 20
0.7840787401574804
 30
0.0
 10
2.14382283464567
 20
0.7840787401574804
 30
0.0
 10
2.139055118110236
 20
0.7840787401574804
 30
0.0
 10
2.139055118110236
 20
0.7840787401574804
 30
0.0
  0
SPLINE
  5
58
330
1F
100
AcDbEntity
  8
P1-Layer 1
 62
   250
100
AcDbSpline
210
0.0
220
0.0
230
1.0
 70
    11
 71
     3
 72
    40
 73
    36
 74
     0
 42
0.0000000001
 43
0.0000000001
 40
0.0
 40
0.0
 40
0.0
 40
0.0
 40
0.1111111111111111
 40
0.1111111111111111
 40
0.1111111111111111
 40
0.1111111111111111
 40
0.2222222222222222
 40
0.2222222222222222
 40
0.2222222222222222
 40
0.2222222222222222
 40
0.3333333333333333
 40
0.3333333333333333
 40
0.3333333333333333
 40
0.3333333333333333
 40
0.4444444444444444
 40
0.4444444444444444
 40
0.4444444444444444
 40
0.4444444444444444
 40
0.5555555555555556
 40
0.5555555555555556
 40
0.5555555555555556
 40
0.5555555555555556
 40
0.6666666666666667
 40
0.6666666666666667
 40
0.6666666666666667
 40
0.6666666666666667
 40
0.7777777777777779
 40
0.7777777777777779
 40
0.7777777777777779
 40
0.7777777777777779
 40
0.8888888888888891
 40
0.8888888888888891
 40
0.8888888888888891
 40
0.8888888888888891
 40
1.0
 40
1.0
 40
1.0
 40
1.0
 10
2.161409448818898
 20
0.8209330708661418
 30
0.0
 10
2.167220472440945
 20
0.8209330708661418
 30
0.0
 10
2.172011811023622
 20
0.8231377952755906
 30
0.0
 10
2.175783464566929
 20
0.8275551181102363
 30
0.0
 10
2.175783464566929
 20
0.8275551181102363
 30
0.0
 10
2.179531496062992
 20
0.8319724409448819
 30
0.0
 10
2.181429133858268
 20
0.8372874015748032
 30
0.0
 10
2.181429133858268
 20
0.8435157480314961
 30
0.0
 10
2.181429133858268
 20
0.8435157480314961
 30
0.0
 10
2.181429133858268
 20
0.8479094488188976
 30
0.0
 10
2.180511811023622
 20
0.8519724409448819
 30
0.0
 10
2.178677165354331
 20
0.8557007874015749
 30
0.0
 10
2.178677165354331
 20
0.8557007874015749
 30
0.0
 10
2.176846456692914
 20
0.8594094488188977
 30
0.0
 10
2.174492125984252
 20
0.8621811023622048
 30
0.0
 10
2.171618110236221
 20
0.863992125984252
 30
0.0
 10
2.171618110236221
 20
0.863992125984252
 30
0.0
 10
2.168763779527559
 20
0.8658070866141733
 30
0.0
 10
2.165492125984252
 20
0.8667007874015749
 30
0.0
 10
2.161822834645669
 20
0.8667007874015749
 30
0.0
 10
2.161822834645669
 20
0.8667007874015749
 30
0.0
 10
2.156263779527559
 20
0.8667007874015749
 30
0.0
 10
2.151594488188977
 20
0.8645787401574804
 30
0.0
 10
2.147846456692914
 20
0.8603267716535433
 30
0.0
 10
2.147846456692914
 20
0.8603267716535433
 30
0.0
 10
2.14411811023622
 20
0.8560787401574803
 30
0.0
 10
2.142240157480315
 20
0.8503700787401575
 30
0.0
 10
2.142240157480315
 20
0.8432244094488189
 30
0.0
 10
2.142240157480315
 20
0.8432244094488189
 30
0.0
 10
2.142240157480315
 20
0.8363700787401576
 30
0.0
 10
2.144055118110236
 20
0.8309527559055119
 30
0.0
 10
2.147700787401575
 20
0.8269527559055119
 30
0.0
 10
2.147700787401575
 20
0.8269527559055119
 30
0.0
 10
2.151346456692914
 20
0.8229330708661418
 30
0.0
 10
2.155909448818898
 20
0.8209330708661418
 30
0.0
 10
2.161409448818898
 20
0.8209330708661418
 30
0.0
  0
ENDSEC
  0
SECTION
  2
OBJECTS
  0
DICTIONARY
  5
C
330
0
100
AcDbDictionary
281
     1
  3
ACAD_GROUP
350
D
  3
ACAD_LAYOUT
350
1A
  3
ACAD_MLINESTYLE
350
17
  3
ACAD_PLOTSETTINGS
350
19
  3
ACAD_PLOTSTYLENAME
350
E
  0
DICTIONARY
  5
D
102
{ACAD_REACTORS
330
C
102
}
330
C
100
AcDbDictionary
281
     1
  0
DICTIONARY
  5
1A
102
{ACAD_REACTORS
330
C
102
}
330
C
100
AcDbDictionary
281
     1
  3
Layout1
350
1E
  3
Layout2
350
26
  3
Model
350
22
  0
DICTIONARY
  5
17
102
{ACAD_REACTORS
330
C
102
}
330
C
100
AcDbDictionary
281
     1
  3
Standard
350
18
  0
DICTIONARY
  5
19
102
{ACAD_REACTORS
330
C
102
}
330
C
100
AcDbDictionary
281
     1
  0
ACDBDICTIONARYWDFLT
  5
E
102
{ACAD_REACTORS
330
C
102
}
330
C
100
AcDbDictionary
281
     1
  3
Normal
350
F
100
AcDbDictionaryWithDefault
340
F
  0
LAYOUT
  5
1E
102
{ACAD_REACTORS
330
1A
102
}
330
1A
100
AcDbPlotSettings
  1

  2

  4

  6

 40
0.0
 41
0.0
 42
0.0
 43
0.0
 44
0.0
 45
0.0
 46
0.0
 47
0.0
 48
0.0
 49
0.0
140
0.0
141
0.0
142
1.0
143
1.0
 70
   688
 72
     0
 73
     0
 74
     5
  7

 75
    16
 76
     0
 77
     2
 78
   300
147
1.0
148
0.0
149
0.0
100
AcDbLayout
  1
Layout1
 70
     1
 71
     1
 10
0.0
 20
0.0
 11
12.0
 21
9.0
 12
0.0
 22
0.0
 32
0.0
 14
1.000000000000000E+20
 24
1.000000000000000E+20
 34
1.000000000000000E+20
 15
-1.000000000000000E+20
 25
-1.000000000000000E+20
 35
-1.000000000000000E+20
146
0.0
 13
0.0
 23
0.0
 33
0.0
 16
1.0
 26
0.0
 36
0.0
 17
0.0
 27
1.0
 37
0.0
 76
     0
330
1B
  0
LAYOUT
  5
26
102
{ACAD_REACTORS
330
1A
102
}
330
1A
100
AcDbPlotSettings
  1

  2

  4

  6

 40
0.0
 41
0.0
 42
0.0
 43
0.0
 44
0.0
 45
0.0
 46
0.0
 47
0.0
 48
0.0
 49
0.0
140
0.0
141
0.0
142
1.0
143
1.0
 70
   688
 72
     0
 73
     0
 74
     5
  7

 75
    16
 76
     0
 77
     2
 78
   300
147
1.0
148
0.0
149
0.0
100
AcDbLayout
  1
Layout2
 70
     1
 71
     2
 10
0.0
 20
0.0
 11
0.0
 21
0.0
 12
0.0
 22
0.0
 32
0.0
 14
0.0
 24
0.0
 34
0.0
 15
0.0
 25
0.0
 35
0.0
146
0.0
 13
0.0
 23
0.0
 33
0.0
 16
1.0
 26
0.0
 36
0.0
 17
0.0
 27
1.0
 37
0.0
 76
     0
330
23
  0
LAYOUT
  5
22
102
{ACAD_REACTORS
330
1A
102
}
330
1A
100
AcDbPlotSettings
  1

  2

  4

  6

 40
0.0
 41
0.0
 42
0.0
 43
0.0
 44
0.0
 45
0.0
 46
0.0
 47
0.0
 48
0.0
 49
0.0
140
0.0
141
0.0
142
1.0
143
1.0
 70
  1712
 72
     0
 73
     0
 74
     0
  7

 75
     0
 76
     0
 77
     2
 78
   300
147
1.0
148
0.0
149
0.0
100
AcDbLayout
  1
Model
 70
     1
 71
     0
 10
0.0
 20
0.0
 11
0.0
 21
0.0
 12
0.0
 22
0.0
 32
0.0
 14
-2.293106299212599
 24
0.2911614173228346
 34
0.0
 15
2.258283464566929
 25
1.756787401574803
 35
0.0
146
0.0
 13
0.0
 23
0.0
 33
0.0
 16
1.0
 26
0.0
 36
0.0
 17
0.0
 27
1.0
 37
0.0
 76
     0
330
1F
  0
MLINESTYLE
  5
18
102
{ACAD_REACTORS
330
17
102
}
330
17
100
AcDbMlineStyle
  2
Standard
 70
     0
  3

 62
   256
 51
90.0
 52
90.0
 71
     2
 49
0.5
 62
   256
  6
BYLAYER
 49
-0.5
 62
   256
  6
BYLAYER
  0
ACDBPLACEHOLDER
  5
F
102
{ACAD_REACTORS
330
E
102
}
330
E
  0
ENDSEC
  0
EOF
