  0
SECTION
  2
HEADER
  9
$ACADVER
  1
AC1014
  9
$ACADMAINTVER
 70
     9
  9
$DWGCODEPAGE
  3
ANSI_1252
  9
$INSBASE
 10
0.0
 20
0.0
 30
0.0
  9
$EXTMIN
 10
-1.975696850393701
 20
-0.0705787401574803
 30
0.0
  9
$EXTMAX
 10
2.672314960629922
 20
3.742118110236221
 30
0.0
  9
$LIMMIN
 10
0.0
 20
0.0
  9
$LIMMAX
 10
12.0
 20
9.0
  9
$ORTHOMODE
 70
     0
  9
$REGENMODE
 70
     1
  9
$FILLMODE
 70
     1
  9
$QTEXTMODE
 70
     0
  9
$MIRRTEXT
 70
     1
  9
$DRAGMODE
 70
     2
  9
$LTSCALE
 40
1.0
  9
$OSMODE
 70
    37
  9
$ATTMODE
 70
     1
  9
$TEXTSIZE
 40
0.2
  9
$TRACEWID
 40
0.05
  9
$TEXTSTYLE
  7
STANDARD
  9
$CLAYER
  8
0
  9
$CELTYPE
  6
BYLAYER
  9
$CECOLOR
 62
   256
  9
$CELTSCALE
 40
1.0
  9
$DELOBJ
 70
     1
  9
$DISPSILH
 70
     0
  9
$DIMSCALE
 40
1.0
  9
$DIMASZ
 40
0.18
  9
$DIMEXO
 40
0.0625
  9
$DIMDLI
 40
0.38
  9
$DIMRND
 40
0.0
  9
$DIMDLE
 40
0.0
  9
$DIMEXE
 40
0.18
  9
$DIMTP
 40
0.0
  9
$DIMTM
 40
0.0
  9
$DIMTXT
 40
0.18
  9
$DIMCEN
 40
0.09
  9
$DIMTSZ
 40
0.0
  9
$DIMTOL
 70
     0
  9
$DIMLIM
 70
     0
  9
$DIMTIH
 70
     1
  9
$DIMTOH
 70
     1
  9
$DIMSE1
 70
     0
  9
$DIMSE2
 70
     0
  9
$DIMTAD
 70
     0
  9
$DIMZIN
 70
     0
  9
$DIMBLK
  1

  9
$DIMASO
 70
     1
  9
$DIMSHO
 70
     1
  9
$DIMPOST
  1

  9
$DIMAPOST
  1

  9
$DIMALT
 70
     0
  9
$DIMALTD
 70
     2
  9
$DIMALTF
 40
25.4
  9
$DIMLFAC
 40
1.0
  9
$DIMTOFL
 70
     0
  9
$DIMTVP
 40
0.0
  9
$DIMTIX
 70
     0
  9
$DIMSOXD
 70
     0
  9
$DIMSAH
 70
     0
  9
$DIMBLK1
  1

  9
$DIMBLK2
  1

  9
$DIMSTYLE
  2
STANDARD
  9
$DIMCLRD
 70
     0
  9
$DIMCLRE
 70
     0
  9
$DIMCLRT
 70
     0
  9
$DIMTFAC
 40
1.0
  9
$DIMGAP
 40
0.09
  9
$DIMJUST
 70
     0
  9
$DIMSD1
 70
     0
  9
$DIMSD2
 70
     0
  9
$DIMTOLJ
 70
     1
  9
$DIMTZIN
 70
     0
  9
$DIMALTZ
 70
     0
  9
$DIMALTTZ
 70
     0
  9
$DIMFIT
 70
     3
  9
$DIMUPT
 70
     0
  9
$DIMUNIT
 70
     2
  9
$DIMDEC
 70
     4
  9
$DIMTDEC
 70
     4
  9
$DIMALTU
 70
     2
  9
$DIMALTTD
 70
     2
  9
$DIMTXSTY
  7
STANDARD
  9
$DIMAUNIT
 70
     0
  9
$LUNITS
 70
     2
  9
$LUPREC
 70
     4
  9
$SKETCHINC
 40
0.1
  9
$FILLETRAD
 40
0.5
  9
$AUNITS
 70
     0
  9
$AUPREC
 70
     0
  9
$MENU
  1
.
  9
$ELEVATION
 40
0.0
  9
$PELEVATION
 40
0.0
  9
$THICKNESS
 40
0.0
  9
$LIMCHECK
 70
     0
  9
$CHAMFERA
 40
0.5
  9
$CHAMFERB
 40
0.5
  9
$CHAMFERC
 40
1.0
  9
$CHAMFERD
 40
0.0
  9
$SKPOLY
 70
     0
  9
$TDCREATE
 40
2454125.49812147
  9
$TDUPDATE
 40
2454125.498121481
  9
$TDINDWG
 40
0.0000000116
  9
$TDUSRTIMER
 40
0.0000000116
  9
$USRTIMER
 70
     1
  9
$ANGBASE
 50
0.0
  9
$ANGDIR
 70
     0
  9
$PDMODE
 70
     0
  9
$PDSIZE
 40
0.0
  9
$PLINEWID
 40
0.0
  9
$COORDS
 70
     1
  9
$SPLFRAME
 70
     0
  9
$SPLINETYPE
 70
     6
  9
$SPLINESEGS
 70
     8
  9
$ATTDIA
 70
     0
  9
$ATTREQ
 70
     1
  9
$HANDLING
 70
     1
  9
$HANDSEED
  5
A3
  9
$SURFTAB1
 70
     6
  9
$SURFTAB2
 70
     6
  9
$SURFTYPE
 70
     6
  9
$SURFU
 70
     6
  9
$SURFV
 70
     6
  9
$UCSNAME
  2

  9
$UCSORG
 10
0.0
 20
0.0
 30
0.0
  9
$UCSXDIR
 10
1.0
 20
0.0
 30
0.0
  9
$UCSYDIR
 10
0.0
 20
1.0
 30
0.0
  9
$PUCSNAME
  2

  9
$PUCSORG
 10
0.0
 20
0.0
 30
0.0
  9
$PUCSXDIR
 10
1.0
 20
0.0
 30
0.0
  9
$PUCSYDIR
 10
0.0
 20
1.0
 30
0.0
  9
$USERI1
 70
     0
  9
$USERI2
 70
     0
  9
$USERI3
 70
     0
  9
$USERI4
 70
     0
  9
$USERI5
 70
     0
  9
$USERR1
 40
0.0
  9
$USERR2
 40
0.0
  9
$USERR3
 40
0.0
  9
$USERR4
 40
0.0
  9
$USERR5
 40
0.0
  9
$WORLDVIEW
 70
     1
  9
$SHADEDGE
 70
     3
  9
$SHADEDIF
 70
    70
  9
$TILEMODE
 70
     1
  9
$MAXACTVP
 70
    64
  9
$PINSBASE
 10
0.0
 20
0.0
 30
0.0
  9
$PLIMCHECK
 70
     0
  9
$PEXTMIN
 10
1.000000000000000E+20
 20
1.000000000000000E+20
 30
1.000000000000000E+20
  9
$PEXTMAX
 10
-1.000000000000000E+20
 20
-1.000000000000000E+20
 30
-1.000000000000000E+20
  9
$PLIMMIN
 10
0.0
 20
0.0
  9
$PLIMMAX
 10
12.0
 20
9.0
  9
$UNITMODE
 70
     0
  9
$VISRETAIN
 70
     1
  9
$PLINEGEN
 70
     0
  9
$PSLTSCALE
 70
     1
  9
$TREEDEPTH
 70
  3020
  9
$PICKSTYLE
 70
     1
  9
$CMLSTYLE
  2
STANDARD
  9
$CMLJUST
 70
     0
  9
$CMLSCALE
 40
1.0
  9
$PROXYGRAPHICS
 70
     1
  9
$MEASUREMENT
 70
     0
  0
ENDSEC
  0
SECTION
  2
CLASSES
  0
CLASS
  1
ACDBDICTIONARYWDFLT
  2
AcDbDictionaryWithDefault
  3
ObjectDBX Classes
 90
        0
280
     0
281
     0
  0
CLASS
  1
XRECORD
  2
AcDbXrecord
  3
AutoCAD 2000
 90
        0
280
     0
281
     0
  0
CLASS
  1
LWPOLYLINE
  2
AcDbPolyline
  3
AutoCAD 2000
 90
        0
280
     0
281
     1
  0
CLASS
  1
HATCH
  2
AcDbHatch
  3
AutoCAD 2000
 90
        0
280
     0
281
     1
  0
CLASS
  1
ACDBPLACEHOLDER
  2
AcDbPlaceHolder
  3
ObjectDBX Classes
 90
        0
280
     0
281
     0
  0
CLASS
  1
LAYOUT
  2
AcDbLayout
  3
ObjectDBX Classes
 90
        0
280
     0
281
     0
  0
ENDSEC
  0
SECTION
  2
TABLES
  0
TABLE
  2
VPORT
  5
8
330
0
100
AcDbSymbolTable
 70
     2
  0
VPORT
  5
29
102
{ACAD_XDICTIONARY
360
A1
102
}
330
8
100
AcDbSymbolTableRecord
100
AcDbViewportTableRecord
  2
*ACTIVE
 70
     0
 10
0.0
 20
0.0
 11
1.0
 21
1.0
 12
10.42990654205607
 22
4.5
 13
0.0
 23
0.0
 14
0.5
 24
0.5
 15
0.5
 25
0.5
 16
0.0
 26
0.0
 36
1.0
 17
0.0
 27
0.0
 37
0.0
 40
9.0
 41
1.972972972850329
 42
50.0
 43
0.0
 44
0.0
 50
0.0
 51
0.0
 71
     0
 72
   100
 73
     1
 74
     3
 75
     0
 76
     0
 77
     0
 78
     0
  0
ENDTAB
  0
TABLE
  2
LTYPE
  5
5
330
0
100
AcDbSymbolTable
 70
     1
  0
LTYPE
  5
14
330
5
100
AcDbSymbolTableRecord
100
AcDbLinetypeTableRecord
  2
BYBLOCK
 70
     0
  3

 72
    65
 73
     0
 40
0.0
  0
LTYPE
  5
15
330
5
100
AcDbSymbolTableRecord
100
AcDbLinetypeTableRecord
  2
BYLAYER
 70
     0
  3

 72
    65
 73
     0
 40
0.0
  0
LTYPE
  5
16
330
5
100
AcDbSymbolTableRecord
100
AcDbLinetypeTableRecord
  2
CONTINUOUS
 70
     0
  3
Solid line
 72
    65
 73
     0
 40
0.0
  0
ENDTAB
  0
TABLE
  2
LAYER
  5
2
330
0
100
AcDbSymbolTable
 70
     2
  0
LAYER
  5
10
330
2
100
AcDbSymbolTableRecord
100
AcDbLayerTableRecord
  2
0
 70
     0
 62
     7
  6
CONTINUOUS
  0
LAYER
  5
2B
330
2
100
AcDbSymbolTableRecord
100
AcDbLayerTableRecord
  2
LAYER_1
 70
     0
 62
     7
  6
CONTINUOUS
  0
ENDTAB
  0
TABLE
  2
STYLE
  5
3
330
0
100
AcDbSymbolTable
 70
     1
  0
STYLE
  5
11
330
3
100
AcDbSymbolTableRecord
100
AcDbTextStyleTableRecord
  2
STANDARD
 70
     0
 40
0.0
 41
1.0
 50
0.0
 71
     0
 42
0.2
  3
txt
  4

  0
ENDTAB
  0
TABLE
  2
VIEW
  5
6
330
0
100
AcDbSymbolTable
 70
     0
  0
ENDTAB
  0
TABLE
  2
UCS
  5
7
330
0
100
AcDbSymbolTable
 70
     0
  0
ENDTAB
  0
TABLE
  2
APPID
  5
9
330
0
100
AcDbSymbolTable
 70
     2
  0
APPID
  5
12
330
9
100
AcDbSymbolTableRecord
100
AcDbRegAppTableRecord
  2
ACAD
 70
     0
  0
APPID
  5
2A
330
9
100
AcDbSymbolTableRecord
100
AcDbRegAppTableRecord
  2
ODA
 70
     0
  0
ENDTAB
  0
TABLE
  2
DIMSTYLE
  5
A
330
0
100
AcDbSymbolTable
 70
     1
  0
DIMSTYLE
105
27
330
A
100
AcDbSymbolTableRecord
100
AcDbDimStyleTableRecord
  2
STANDARD
 70
     0
  3

  4

  5

  6

  7

 40
1.0
 41
0.18
 42
0.0625
 43
0.38
 44
0.18
 45
0.0
 46
0.0
 47
0.0
 48
0.0
140
0.18
141
0.09
142
0.0
143
25.4
144
1.0
145
0.0
146
1.0
147
0.09
 71
     0
 72
     0
 73
     1
 74
     1
 75
     0
 76
     0
 77
     0
 78
     0
170
     0
171
     2
172
     0
173
     0
174
     0
175
     0
176
     0
177
     0
178
     0
270
     2
271
     4
272
     4
273
     2
274
     2
340
11
275
     0
280
     0
281
     0
282
     0
283
     1
284
     0
285
     0
286
     0
287
     3
288
     0
  0
ENDTAB
  0
TABLE
  2
BLOCK_RECORD
  5
1
330
0
100
AcDbSymbolTable
 70
     1
  0
BLOCK_RECORD
  5
1F
330
1
100
AcDbSymbolTableRecord
100
AcDbBlockTableRecord
  2
*MODEL_SPACE
  0
BLOCK_RECORD
  5
1B
330
1
100
AcDbSymbolTableRecord
100
AcDbBlockTableRecord
  2
*PAPER_SPACE
  0
ENDTAB
  0
ENDSEC
  0
SECTION
  2
BLOCKS
  0
BLOCK
  5
20
330
1F
100
AcDbEntity
  8
0
100
AcDbBlockBegin
  2
*MODEL_SPACE
 70
     0
 71
     0
 10
0.0
 20
0.0
 30
0.0
  3
*MODEL_SPACE
  1

  0
ENDBLK
  5
21
330
1F
100
AcDbEntity
  8
0
100
AcDbBlockEnd
  0
BLOCK
  5
1C
330
1B
100
AcDbEntity
 67
     1
  8
0
100
AcDbBlockBegin
  2
*PAPER_SPACE
 70
     0
 71
     0
 10
0.0
 20
0.0
 30
0.0
  3
*PAPER_SPACE
  1

  0
ENDBLK
  5
1D
330
1B
100
AcDbEntity
 67
     1
  8
0
100
AcDbBlockEnd
  0
ENDSEC
  0
SECTION
  2
ENTITIES
  0
SPLINE
  5
2C
330
1F
100
AcDbEntity
  8
LAYER_1
 62
   250
100
AcDbSpline
210
0.0
220
0.0
230
1.0
 70
     8
 71
     3
 72
    24
 73
    20
 74
     0
 42
0.0000000001
 43
0.0000000001
 40
0.0
 40
0.0
 40
0.0
 40
0.0
 40
0.2
 40
0.2
 40
0.2
 40
0.2
 40
0.4
 40
0.4
 40
0.4
 40
0.4
 40
0.6000000000000001
 40
0.6000000000000001
 40
0.6000000000000001
 40
0.6000000000000001
 40
0.8
 40
0.8
 40
0.8
 40
0.8
 40
1.0
 40
1.0
 40
1.0
 40
1.0
 10
1.781248031496063
 20
1.413169291338583
 30
0.0
 10
1.781248031496063
 20
1.413169291338583
 30
0.0
 10
1.781248031496063
 20
0.8514133858267717
 30
0.0
 10
1.781248031496063
 20
0.8514133858267717
 30
0.0
 10
1.781248031496063
 20
0.8514133858267717
 30
0.0
 10
1.781248031496063
 20
0.8514133858267717
 30
0.0
 10
1.968748031496063
 20
0.8246692913385827
 30
0.0
 10
1.968748031496063
 20
0.8246692913385827
 30
0.0
 10
1.968748031496063
 20
0.8246692913385827
 30
0.0
 10
1.968748031496063
 20
0.8246692913385827
 30
0.0
 10
1.968748031496063
 20
0.5649133858267716
 30
0.0
 10
1.968748031496063
 20
0.5649133858267716
 30
0.0
 10
1.968748031496063
 20
0.5649133858267716
 30
0.0
 10
1.968748031496063
 20
0.5649133858267716
 30
0.0
 10
1.781248031496063
 20
0.5381692913385827
 30
0.0
 10
1.781248031496063
 20
0.5381692913385827
 30
0.0
 10
1.781248031496063
 20
0.5381692913385827
 30
0.0
 10
1.781248031496063
 20
0.5381692913385827
 30
0.0
 10
1.781248031496063
 20
0.4131692913385827
 30
0.0
 10
1.781248031496063
 20
0.4131692913385827
 30
0.0
  0
SPLINE
  5
2D
330
1F
100
AcDbEntity
  8
LAYER_1
 62
   250
100
AcDbSpline
210
0.0
220
0.0
230
1.0
 70
     8
 71
     3
 72
    20
 73
    16
 74
     0
 42
0.0000000001
 43
0.0000000001
 40
0.0
 40
0.0
 40
0.0
 40
0.0
 40
0.25
 40
0.25
 40
0.25
 40
0.25
 40
0.5
 40
0.5
 40
0.5
 40
0.5
 40
0.75
 40
0.75
 40
0.75
 40
0.75
 40
1.0
 40
1.0
 40
1.0
 40
1.0
 10
1.781248031496063
 20
0.4131692913385827
 30
0.0
 10
1.781248031496063
 20
0.4131692913385827
 30
0.0
 10
-1.468751968503937
 20
0.4131692913385827
 30
0.0
 10
-1.468751968503937
 20
0.4131692913385827
 30
0.0
 10
-1.468751968503937
 20
0.4131692913385827
 30
0.0
 10
-1.744850393700788
 20
0.4131692913385827
 30
0.0
 10
-1.968751968503937
 20
0.6370708661417324
 30
0.0
 10
-1.968751968503937
 20
0.9131692913385827
 30
0.0
 10
-1.968751968503937
 20
0.9131692913385827
 30
0.0
 10
-1.968751968503937
 20
1.189267716535433
 30
0.0
 10
-1.744850393700788
 20
1.413169291338583
 30
0.0
 10
-1.468751968503937
 20
1.413169291338583
 30
0.0
 10
-1.468751968503937
 20
1.413169291338583
 30
0.0
 10
-1.468751968503937
 20
1.413169291338583
 30
0.0
 10
1.781248031496063
 20
1.413169291338583
 30
0.0
 10
1.781248031496063
 20
1.413169291338583
 30
0.0
  0
SPLINE
  5
2E
330
1F
100
AcDbEntity
  8
LAYER_1
 62
   253
100
AcDbSpline
210
0.0
220
0.0
230
1.0
 70
    11
 71
     3
 72
    20
 73
    16
 74
     0
 42
0.0000000001
 43
0.0000000001
 40
0.0
 40
0.0
 40
0.0
 40
0.0
 40
0.25
 40
0.25
 40
0.25
 40
0.25
 40
0.5
 40
0.5
 40
0.5
 40
0.5
 40
0.75
 40
0.75
 40
0.75
 40
0.75
 40
1.0
 40
1.0
 40
1.0
 40
1.0
 10
1.831263779527559
 20
2.363035433070866
 30
0.0
 10
1.831263779527559
 20
2.363035433070866
 30
0.0
 10
2.483314960629921
 20
2.740618110236221
 30
0.0
 10
2.483314960629921
 20
2.740618110236221
 30
0.0
 10
2.483314960629921
 20
2.740618110236221
 30
0.0
 10
2.483314960629921
 20
2.740618110236221
 30
0.0
 10
2.483314960629921
 20
2.865618110236221
 30
0.0
 10
2.483314960629921
 20
2.865618110236221
 30
0.0
 10
2.483314960629921
 20
2.865618110236221
 30
0.0
 10
2.483314960629921
 20
2.865618110236221
 30
0.0
 10
1.831263779527559
 20
2.488035433070866
 30
0.0
 10
1.831263779527559
 20
2.488035433070866
 30
0.0
 10
1.831263779527559
 20
2.488035433070866
 30
0.0
 10
1.831263779527559
 20
2.488035433070866
 30
0.0
 10
1.831263779527559
 20
2.363035433070866
 30
0.0
 10
1.831263779527559
 20
2.363035433070866
 30
0.0
  0
SPLINE
  5
2F
330
1F
100
AcDbEntity
  8
LAYER_1
 62
   250
100
AcDbSpline
210
0.0
220
0.0
230
1.0
 70
    11
 71
     3
 72
    20
 73
    16
 74
     0
 42
0.0000000001
 43
0.0000000001
 40
0.0
 40
0.0
 40
0.0
 40
0.0
 40
0.25
 40
0.25
 40
0.25
 40
0.25
 40
0.5
 40
0.5
 40
0.5
 40
0.5
 40
0.75
 40
0.75
 40
0.75
 40
0.75
 40
1.0
 40
1.0
 40
1.0
 40
1.0
 10
1.831263779527559
 20
2.363035433070866
 30
0.0
 10
1.831263779527559
 20
2.363035433070866
 30
0.0
 10
2.483314960629921
 20
2.740618110236221
 30
0.0
 10
2.483314960629921
 20
2.740618110236221
 30
0.0
 10
2.483314960629921
 20
2.740618110236221
 30
0.0
 10
2.483314960629921
 20
2.740618110236221
 30
0.0
 10
2.483314960629921
 20
2.865618110236221
 30
0.0
 10
2.483314960629921
 20
2.865618110236221
 30
0.0
 10
2.483314960629921
 20
2.865618110236221
 30
0.0
 10
2.483314960629921
 20
2.865618110236221
 30
0.0
 10
1.831263779527559
 20
2.488035433070866
 30
0.0
 10
1.831263779527559
 20
2.488035433070866
 30
0.0
 10
1.831263779527559
 20
2.488035433070866
 30
0.0
 10
1.831263779527559
 20
2.488035433070866
 30
0.0
 10
1.831263779527559
 20
2.363035433070866
 30
0.0
 10
1.831263779527559
 20
2.363035433070866
 30
0.0
  0
SPLINE
  5
30
330
1F
100
AcDbEntity
  8
LAYER_1
 62
   253
100
AcDbSpline
210
0.0
220
0.0
230
1.0
 70
    11
 71
     3
 72
    20
 73
    16
 74
     0
 42
0.0000000001
 43
0.0000000001
 40
0.0
 40
0.0
 40
0.0
 40
0.0
 40
0.25
 40
0.25
 40
0.25
 40
0.25
 40
0.5
 40
0.5
 40
0.5
 40
0.5
 40
0.75
 40
0.75
 40
0.75
 40
0.75
 40
1.0
 40
1.0
 40
1.0
 40
1.0
 10
2.018763779527559
 20
2.514779527559055
 30
0.0
 10
2.018763779527559
 20
2.514779527559055
 30
0.0
 10
2.670814960629921
 20
2.89236220472441
 30
0.0
 10
2.670814960629921
 20
2.89236220472441
 30
0.0
 10
2.670814960629921
 20
2.89236220472441
 30
0.0
 10
2.670814960629921
 20
2.89236220472441
 30
0.0
 10
2.670814960629921
 20
3.152118110236221
 30
0.0
 10
2.670814960629921
 20
3.152118110236221
 30
0.0
 10
2.670814960629921
 20
3.152118110236221
 30
0.0
 10
2.670814960629921
 20
3.152118110236221
 30
0.0
 10
2.018763779527559
 20
2.774535433070866
 30
0.0
 10
2.018763779527559
 20
2.774535433070866
 30
0.0
 10
2.018763779527559
 20
2.774535433070866
 30
0.0
 10
2.018763779527559
 20
2.774535433070866
 30
0.0
 10
2.018763779527559
 20
2.514779527559055
 30
0.0
 10
2.018763779527559
 20
2.514779527559055
 30
0.0
  0
SPLINE
  5
31
330
1F
100
AcDbEntity
  8
LAYER_1
 62
   250
100
AcDbSpline
210
0.0
220
0.0
230
1.0
 70
    11
 71
     3
 72
    20
 73
    16
 74
     0
 42
0.0000000001
 43
0.0000000001
 40
0.0
 40
0.0
 40
0.0
 40
0.0
 40
0.25
 40
0.25
 40
0.25
 40
0.25
 40
0.5
 40
0.5
 40
0.5
 40
0.5
 40
0.75
 40
0.75
 40
0.75
 40
0.75
 40
1.0
 40
1.0
 40
1.0
 40
1.0
 10
2.018763779527559
 20
2.514779527559055
 30
0.0
 10
2.018763779527559
 20
2.514779527559055
 30
0.0
 10
2.670814960629921
 20
2.89236220472441
 30
0.0
 10
2.670814960629921
 20
2.89236220472441
 30
0.0
 10
2.670814960629921
 20
2.89236220472441
 30
0.0
 10
2.670814960629921
 20
2.89236220472441
 30
0.0
 10
2.670814960629921
 20
3.152118110236221
 30
0.0
 10
2.670814960629921
 20
3.152118110236221
 30
0.0
 10
2.670814960629921
 20
3.152118110236221
 30
0.0
 10
2.670814960629921
 20
3.152118110236221
 30
0.0
 10
2.018763779527559
 20
2.774535433070866
 30
0.0
 10
2.018763779527559
 20
2.774535433070866
 30
0.0
 10
2.018763779527559
 20
2.774535433070866
 30
0.0
 10
2.018763779527559
 20
2.774535433070866
 30
0.0
 10
2.018763779527559
 20
2.514779527559055
 30
0.0
 10
2.018763779527559
 20
2.514779527559055
 30
0.0
  0
SPLINE
  5
32
330
1F
100
AcDbEntity
  8
LAYER_1
 62
   252
100
AcDbSpline
210
0.0
220
0.0
230
1.0
 70
    11
 71
     3
 72
    20
 73
    16
 74
     0
 42
0.0000000001
 43
0.0000000001
 40
0.0
 40
0.0
 40
0.0
 40
0.0
 40
0.25
 40
0.25
 40
0.25
 40
0.25
 40
0.5
 40
0.5
 40
0.5
 40
0.5
 40
0.75
 40
0.75
 40
0.75
 40
0.75
 40
1.0
 40
1.0
 40
1.0
 40
1.0
 10
2.018763779527559
 20
2.774535433070866
 30
0.0
 10
2.018763779527559
 20
2.774535433070866
 30
0.0
 10
2.670814960629921
 20
3.152118110236221
 30
0.0
 10
2.670814960629921
 20
3.152118110236221
 30
0.0
 10
2.670814960629921
 20
3.152118110236221
 30
0.0
 10
2.670814960629921
 20
3.152118110236221
 30
0.0
 10
2.483314960629921
 20
3.17886220472441
 30
0.0
 10
2.483314960629921
 20
3.17886220472441
 30
0.0
 10
2.483314960629921
 20
3.17886220472441
 30
0.0
 10
2.483314960629921
 20
3.17886220472441
 30
0.0
 10
1.831263779527559
 20
2.801279527559055
 30
0.0
 10
1.831263779527559
 20
2.801279527559055
 30
0.0
 10
1.831263779527559
 20
2.801279527559055
 30
0.0
 10
1.831263779527559
 20
2.801279527559055
 30
0.0
 10
2.018763779527559
 20
2.774535433070866
 30
0.0
 10
2.018763779527559
 20
2.774535433070866
 30
0.0
  0
SPLINE
  5
33
330
1F
100
AcDbEntity
  8
LAYER_1
 62
   250
100
AcDbSpline
210
0.0
220
0.0
230
1.0
 70
    11
 71
     3
 72
    20
 73
    16
 74
     0
 42
0.0000000001
 43
0.0000000001
 40
0.0
 40
0.0
 40
0.0
 40
0.0
 40
0.25
 40
0.25
 40
0.25
 40
0.25
 40
0.5
 40
0.5
 40
0.5
 40
0.5
 40
0.75
 40
0.75
 40
0.75
 40
0.75
 40
1.0
 40
1.0
 40
1.0
 40
1.0
 10
2.018763779527559
 20
2.774535433070866
 30
0.0
 10
2.018763779527559
 20
2.774535433070866
 30
0.0
 10
2.670814960629921
 20
3.152118110236221
 30
0.0
 10
2.670814960629921
 20
3.152118110236221
 30
0.0
 10
2.670814960629921
 20
3.152118110236221
 30
0.0
 10
2.670814960629921
 20
3.152118110236221
 30
0.0
 10
2.483314960629921
 20
3.17886220472441
 30
0.0
 10
2.483314960629921
 20
3.17886220472441
 30
0.0
 10
2.483314960629921
 20
3.17886220472441
 30
0.0
 10
2.483314960629921
 20
3.17886220472441
 30
0.0
 10
1.831263779527559
 20
2.801279527559055
 30
0.0
 10
1.831263779527559
 20
2.801279527559055
 30
0.0
 10
1.831263779527559
 20
2.801279527559055
 30
0.0
 10
1.831263779527559
 20
2.801279527559055
 30
0.0
 10
2.018763779527559
 20
2.774535433070866
 30
0.0
 10
2.018763779527559
 20
2.774535433070866
 30
0.0
  0
SPLINE
  5
34
330
1F
100
AcDbEntity
  8
LAYER_1
 62
   253
100
AcDbSpline
210
0.0
220
0.0
230
1.0
 70
    11
 71
     3
 72
    20
 73
    16
 74
     0
 42
0.0000000001
 43
0.0000000001
 40
0.0
 40
0.0
 40
0.0
 40
0.0
 40
0.25
 40
0.25
 40
0.25
 40
0.25
 40
0.5
 40
0.5
 40
0.5
 40
0.5
 40
0.75
 40
0.75
 40
0.75
 40
0.75
 40
1.0
 40
1.0
 40
1.0
 40
1.0
 10
1.831263779527559
 20
2.801279527559055
 30
0.0
 10
1.831263779527559
 20
2.801279527559055
 30
0.0
 10
2.483314960629921
 20
3.17886220472441
 30
0.0
 10
2.483314960629921
 20
3.17886220472441
 30
0.0
 10
2.483314960629921
 20
3.17886220472441
 30
0.0
 10
2.483314960629921
 20
3.17886220472441
 30
0.0
 10
2.483314960629921
 20
3.740618110236221
 30
0.0
 10
2.483314960629921
 20
3.740618110236221
 30
0.0
 10
2.483314960629921
 20
3.740618110236221
 30
0.0
 10
2.483314960629921
 20
3.740618110236221
 30
0.0
 10
1.831263779527559
 20
3.363035433070866
 30
0.0
 10
1.831263779527559
 20
3.363035433070866
 30
0.0
 10
1.831263779527559
 20
3.363035433070866
 30
0.0
 10
1.831263779527559
 20
3.363035433070866
 30
0.0
 10
1.831263779527559
 20
2.801279527559055
 30
0.0
 10
1.831263779527559
 20
2.801279527559055
 30
0.0
  0
SPLINE
  5
35
330
1F
100
AcDbEntity
  8
LAYER_1
 62
   250
100
AcDbSpline
210
0.0
220
0.0
230
1.0
 70
    11
 71
     3
 72
    20
 73
    16
 74
     0
 42
0.0000000001
 43
0.0000000001
 40
0.0
 40
0.0
 40
0.0
 40
0.0
 40
0.25
 40
0.25
 40
0.25
 40
0.25
 40
0.5
 40
0.5
 40
0.5
 40
0.5
 40
0.75
 40
0.75
 40
0.75
 40
0.75
 40
1.0
 40
1.0
 40
1.0
 40
1.0
 10
1.831263779527559
 20
2.801279527559055
 30
0.0
 10
1.831263779527559
 20
2.801279527559055
 30
0.0
 10
2.483314960629921
 20
3.17886220472441
 30
0.0
 10
2.483314960629921
 20
3.17886220472441
 30
0.0
 10
2.483314960629921
 20
3.17886220472441
 30
0.0
 10
2.483314960629921
 20
3.17886220472441
 30
0.0
 10
2.483314960629921
 20
3.740618110236221
 30
0.0
 10
2.483314960629921
 20
3.740618110236221
 30
0.0
 10
2.483314960629921
 20
3.740618110236221
 30
0.0
 10
2.483314960629921
 20
3.740618110236221
 30
0.0
 10
1.831263779527559
 20
3.363035433070866
 30
0.0
 10
1.831263779527559
 20
3.363035433070866
 30
0.0
 10
1.831263779527559
 20
3.363035433070866
 30
0.0
 10
1.831263779527559
 20
3.363035433070866
 30
0.0
 10
1.831263779527559
 20
2.801279527559055
 30
0.0
 10
1.831263779527559
 20
2.801279527559055
 30
0.0
  0
SPLINE
  5
36
330
1F
100
AcDbEntity
  8
LAYER_1
 62
   252
100
AcDbSpline
210
0.0
220
0.0
230
1.0
 70
    11
 71
     3
 72
    20
 73
    16
 74
     0
 42
0.0000000001
 43
0.0000000001
 40
0.0
 40
0.0
 40
0.0
 40
0.0
 40
0.25
 40
0.25
 40
0.25
 40
0.25
 40
0.5
 40
0.5
 40
0.5
 40
0.5
 40
0.75
 40
0.75
 40
0.75
 40
0.75
 40
1.0
 40
1.0
 40
1.0
 40
1.0
 10
1.831263779527559
 20
3.363035433070866
 30
0.0
 10
1.831263779527559
 20
3.363035433070866
 30
0.0
 10
2.483314960629921
 20
3.740618110236221
 30
0.0
 10
2.483314960629921
 20
3.740618110236221
 30
0.0
 10
2.483314960629921
 20
3.740618110236221
 30
0.0
 10
2.483314960629921
 20
3.740618110236221
 30
0.0
 10
-0.7666850393700788
 20
3.740618110236221
 30
0.0
 10
-0.7666850393700788
 20
3.740618110236221
 30
0.0
 10
-0.7666850393700788
 20
3.740618110236221
 30
0.0
 10
-0.7666850393700788
 20
3.740618110236221
 30
0.0
 10
-1.418736220472441
 20
3.363035433070866
 30
0.0
 10
-1.418736220472441
 20
3.363035433070866
 30
0.0
 10
-1.418736220472441
 20
3.363035433070866
 30
0.0
 10
-1.418736220472441
 20
3.363035433070866
 30
0.0
 10
1.831263779527559
 20
3.363035433070866
 30
0.0
 10
1.831263779527559
 20
3.363035433070866
 30
0.0
  0
SPLINE
  5
37
330
1F
100
AcDbEntity
  8
LAYER_1
 62
   250
100
AcDbSpline
210
0.0
220
0.0
230
1.0
 70
    11
 71
     3
 72
    20
 73
    16
 74
     0
 42
0.0000000001
 43
0.0000000001
 40
0.0
 40
0.0
 40
0.0
 40
0.0
 40
0.25
 40
0.25
 40
0.25
 40
0.25
 40
0.5
 40
0.5
 40
0.5
 40
0.5
 40
0.75
 40
0.75
 40
0.75
 40
0.75
 40
1.0
 40
1.0
 40
1.0
 40
1.0
 10
1.831263779527559
 20
3.363035433070866
 30
0.0
 10
1.831263779527559
 20
3.363035433070866
 30
0.0
 10
2.483314960629921
 20
3.740618110236221
 30
0.0
 10
2.483314960629921
 20
3.740618110236221
 30
0.0
 10
2.483314960629921
 20
3.740618110236221
 30
0.0
 10
2.483314960629921
 20
3.740618110236221
 30
0.0
 10
-0.7666850393700788
 20
3.740618110236221
 30
0.0
 10
-0.7666850393700788
 20
3.740618110236221
 30
0.0
 10
-0.7666850393700788
 20
3.740618110236221
 30
0.0
 10
-0.7666850393700788
 20
3.740618110236221
 30
0.0
 10
-1.418736220472441
 20
3.363035433070866
 30
0.0
 10
-1.418736220472441
 20
3.363035433070866
 30
0.0
 10
-1.418736220472441
 20
3.363035433070866
 30
0.0
 10
-1.418736220472441
 20
3.363035433070866
 30
0.0
 10
1.831263779527559
 20
3.363035433070866
 30
0.0
 10
1.831263779527559
 20
3.363035433070866
 30
0.0
  0
SPLINE
  5
38
330
1F
100
AcDbEntity
  8
LAYER_1
 62
   252
100
AcDbSpline
210
0.0
220
0.0
230
1.0
 70
    11
 71
     3
 72
    20
 73
    16
 74
     0
 42
0.0000000001
 43
0.0000000001
 40
0.0
 40
0.0
 40
0.0
 40
0.0
 40
0.25
 40
0.25
 40
0.25
 40
0.25
 40
0.5
 40
0.5
 40
0.5
 40
0.5
 40
0.75
 40
0.75
 40
0.75
 40
0.75
 40
1.0
 40
1.0
 40
1.0
 40
1.0
 10
-1.418736220472441
 20
3.363035433070866
 30
0.0
 10
-1.418736220472441
 20
3.363035433070866
 30
0.0
 10
-0.7666850393700788
 20
3.740618110236221
 30
0.0
 10
-0.7666850393700788
 20
3.740618110236221
 30
0.0
 10
-0.7666850393700788
 20
3.740618110236221
 30
0.0
 10
-0.7666850393700788
 20
3.740618110236221
 30
0.0
 10
-0.7924055118110237
 20
3.739964566929134
 30
0.0
 10
-0.7924055118110237
 20
3.739964566929134
 30
0.0
 10
-0.7924055118110237
 20
3.739964566929134
 30
0.0
 10
-0.7924055118110237
 20
3.739964566929134
 30
0.0
 10
-1.444456692913386
 20
3.36238188976378
 30
0.0
 10
-1.444456692913386
 20
3.36238188976378
 30
0.0
 10
-1.444456692913386
 20
3.36238188976378
 30
0.0
 10
-1.444456692913386
 20
3.36238188976378
 30
0.0
 10
-1.418736220472441
 20
3.363035433070866
 30
0.0
 10
-1.418736220472441
 20
3.363035433070866
 30
0.0
  0
SPLINE
  5
39
330
1F
100
AcDbEntity
  8
LAYER_1
 62
     8
100
AcDbSpline
210
0.0
220
0.0
230
1.0
 70
    11
 71
     3
 72
    20
 73
    16
 74
     0
 42
0.0000000001
 43
0.0000000001
 40
0.0
 40
0.0
 40
0.0
 40
0.0
 40
0.25
 40
0.25
 40
0.25
 40
0.25
 40
0.5
 40
0.5
 40
0.5
 40
0.5
 40
0.75
 40
0.75
 40
0.75
 40
0.75
 40
1.0
 40
1.0
 40
1.0
 40
1.0
 10
-1.444456692913386
 20
3.36238188976378
 30
0.0
 10
-1.444456692913386
 20
3.36238188976378
 30
0.0
 10
-0.7924055118110237
 20
3.739964566929134
 30
0.0
 10
-0.7924055118110237
 20
3.739964566929134
 30
0.0
 10
-0.7924055118110237
 20
3.739964566929134
 30
0.0
 10
-0.7924055118110237
 20
3.739964566929134
 30
0.0
 10
-0.8177952755905512
 20
3.738031496062992
 30
0.0
 10
-0.8177952755905512
 20
3.738031496062992
 30
0.0
 10
-0.8177952755905512
 20
3.738031496062992
 30
0.0
 10
-0.8177952755905512
 20
3.738031496062992
 30
0.0
 10
-1.469846456692914
 20
3.360448818897638
 30
0.0
 10
-1.469846456692914
 20
3.360448818897638
 30
0.0
 10
-1.469846456692914
 20
3.360448818897638
 30
0.0
 10
-1.469846456692914
 20
3.360448818897638
 30
0.0
 10
-1.444456692913386
 20
3.36238188976378
 30
0.0
 10
-1.444456692913386
 20
3.36238188976378
 30
0.0
  0
SPLINE
  5
3A
330
1F
100
AcDbEntity
  8
LAYER_1
 62
     8
100
AcDbSpline
210
0.0
220
0.0
230
1.0
 70
    11
 71
     3
 72
    20
 73
    16
 74
     0
 42
0.0000000001
 43
0.0000000001
 40
0.0
 40
0.0
 40
0.0
 40
0.0
 40
0.25
 40
0.25
 40
0.25
 40
0.25
 40
0.5
 40
0.5
 40
0.5
 40
0.5
 40
0.75
 40
0.75
 40
0.75
 40
0.75
 40
1.0
 40
1.0
 40
1.0
 40
1.0
 10
-1.469846456692914
 20
3.360448818897638
 30
0.0
 10
-1.469846456692914
 20
3.360448818897638
 30
0.0
 10
-0.8177952755905512
 20
3.738031496062992
 30
0.0
 10
-0.8177952755905512
 20
3.738031496062992
 30
0.0
 10
-0.8177952755905512
 20
3.738031496062992
 30
0.0
 10
-0.8177952755905512
 20
3.738031496062992
 30
0.0
 10
-0.8428110236220473
 20
3.734846456692913
 30
0.0
 10
-0.8428110236220473
 20
3.734846456692913
 30
0.0
 10
-0.8428110236220473
 20
3.734846456692913
 30
0.0
 10
-0.8428110236220473
 20
3.734846456692913
 30
0.0
 10
-1.49486220472441
 20
3.357263779527559
 30
0.0
 10
-1.49486220472441
 20
3.357263779527559
 30
0.0
 10
-1.49486220472441
 20
3.357263779527559
 30
0.0
 10
-1.49486220472441
 20
3.357263779527559
 30
0.0
 10
-1.469846456692914
 20
3.360448818897638
 30
0.0
 10
-1.469846456692914
 20
3.360448818897638
 30
0.0
  0
SPLINE
  5
3B
330
1F
100
AcDbEntity
  8
LAYER_1
 62
   251
100
AcDbSpline
210
0.0
220
0.0
230
1.0
 70
    11
 71
     3
 72
    28
 73
    24
 74
     0
 42
0.0000000001
 43
0.0000000001
 40
0.0
 40
0.0
 40
0.0
 40
0.0
 40
0.1666666666666667
 40
0.1666666666666667
 40
0.1666666666666667
 40
0.1666666666666667
 40
0.3333333333333333
 40
0.3333333333333333
 40
0.3333333333333333
 40
0.3333333333333333
 40
0.5
 40
0.5
 40
0.5
 40
0.5
 40
0.6666666666666666
 40
0.6666666666666666
 40
0.6666666666666666
 40
0.6666666666666666
 40
0.8333333333333333
 40
0.8333333333333333
 40
0.8333333333333333
 40
0.8333333333333333
 40
1.0
 40
1.0
 40
1.0
 40
1.0
 10
-1.49486220472441
 20
3.357263779527559
 30
0.0
 10
-1.49486220472441
 20
3.357263779527559
 30
0.0
 10
-0.8428110236220473
 20
3.734846456692913
 30
0.0
 10
-0.8428110236220473
 20
3.734846456692913
 30
0.0
 10
-0.8428110236220473
 20
3.734846456692913
 30
0.0
 10
-0.8428110236220473
 20
3.734846456692913
 30
0.0
 10
-0.8674330708661417
 20
3.730452755905512
 30
0.0
 10
-0.8674330708661417
 20
3.730452755905512
 30
0.0
 10
-0.8674330708661417
 20
3.730452755905512
 30
0.0
 10
-0.8674330708661417
 20
3.730452755905512
 30
0.0
 10
-0.8916181102362205
 20
3.724866141732284
 30
0.0
 10
-0.8916181102362205
 20
3.724866141732284
 30
0.0
 10
-0.8916181102362205
 20
3.724866141732284
 30
0.0
 10
-0.8916181102362205
 20
3.724866141732284
 30
0.0
 10
-1.543669291338583
 20
3.347283464566929
 30
0.0
 10
-1.543669291338583
 20
3.347283464566929
 30
0.0
 10
-1.543669291338583
 20
3.347283464566929
 30
0.0
 10
-1.543669291338583
 20
3.347283464566929
 30
0.0
 10
-1.519484251968504
 20
3.352870078740158
 30
0.0
 10
-1.519484251968504
 20
3.352870078740158
 30
0.0
 10
-1.519484251968504
 20
3.352870078740158
 30
0.0
 10
-1.519484251968504
 20
3.352870078740158
 30
0.0
 10
-1.49486220472441
 20
3.357263779527559
 30
0.0
 10
-1.49486220472441
 20
3.357263779527559
 30
0.0
  0
SPLINE
  5
3C
330
1F
100
AcDbEntity
  8
LAYER_1
 62
   251
100
AcDbSpline
210
0.0
220
0.0
230
1.0
 70
    11
 71
     3
 72
    28
 73
    24
 74
     0
 42
0.0000000001
 43
0.0000000001
 40
0.0
 40
0.0
 40
0.0
 40
0.0
 40
0.1666666666666667
 40
0.1666666666666667
 40
0.1666666666666667
 40
0.1666666666666667
 40
0.3333333333333333
 40
0.3333333333333333
 40
0.3333333333333333
 40
0.3333333333333333
 40
0.5
 40
0.5
 40
0.5
 40
0.5
 40
0.6666666666666666
 40
0.6666666666666666
 40
0.6666666666666666
 40
0.6666666666666666
 40
0.8333333333333333
 40
0.8333333333333333
 40
0.8333333333333333
 40
0.8333333333333333
 40
1.0
 40
1.0
 40
1.0
 40
1.0
 10
-1.543669291338583
 20
3.347283464566929
 30
0.0
 10
-1.543669291338583
 20
3.347283464566929
 30
0.0
 10
-0.8916181102362205
 20
3.724866141732284
 30
0.0
 10
-0.8916181102362205
 20
3.724866141732284
 30
0.0
 10
-0.8916181102362205
 20
3.724866141732284
 30
0.0
 10
-0.8916181102362205
 20
3.724866141732284
 30
0.0
 10
-0.9153425196850394
 20
3.718129921259843
 30
0.0
 10
-0.9153425196850394
 20
3.718129921259843
 30
0.0
 10
-0.9153425196850394
 20
3.718129921259843
 30
0.0
 10
-0.9153425196850394
 20
3.718129921259843
 30
0.0
 10
-0.9385708661417324
 20
3.710263779527559
 30
0.0
 10
-0.9385708661417324
 20
3.710263779527559
 30
0.0
 10
-0.9385708661417324
 20
3.710263779527559
 30
0.0
 10
-0.9385708661417324
 20
3.710263779527559
 30
0.0
 10
-1.590622047244095
 20
3.332681102362205
 30
0.0
 10
-1.590622047244095
 20
3.332681102362205
 30
0.0
 10
-1.590622047244095
 20
3.332681102362205
 30
0.0
 10
-1.590622047244095
 20
3.332681102362205
 30
0.0
 10
-1.567393700787402
 20
3.340547244094488
 30
0.0
 10
-1.567393700787402
 20
3.340547244094488
 30
0.0
 10
-1.567393700787402
 20
3.340547244094488
 30
0.0
 10
-1.567393700787402
 20
3.340547244094488
 30
0.0
 10
-1.543669291338583
 20
3.347283464566929
 30
0.0
 10
-1.543669291338583
 20
3.347283464566929
 30
0.0
  0
SPLINE
  5
3D
330
1F
100
AcDbEntity
  8
LAYER_1
 62
   250
100
AcDbSpline
210
0.0
220
0.0
230
1.0
 70
    11
 71
     3
 72
    28
 73
    24
 74
     0
 42
0.0000000001
 43
0.0000000001
 40
0.0
 40
0.0
 40
0.0
 40
0.0
 40
0.1666666666666667
 40
0.1666666666666667
 40
0.1666666666666667
 40
0.1666666666666667
 40
0.3333333333333333
 40
0.3333333333333333
 40
0.3333333333333333
 40
0.3333333333333333
 40
0.5
 40
0.5
 40
0.5
 40
0.5
 40
0.6666666666666666
 40
0.6666666666666666
 40
0.6666666666666666
 40
0.6666666666666666
 40
0.8333333333333333
 40
0.8333333333333333
 40
0.8333333333333333
 40
0.8333333333333333
 40
1.0
 40
1.0
 40
1.0
 40
1.0
 10
-1.590622047244095
 20
3.332681102362205
 30
0.0
 10
-1.590622047244095
 20
3.332681102362205
 30
0.0
 10
-0.9385708661417324
 20
3.710263779527559
 30
0.0
 10
-0.9385708661417324
 20
3.710263779527559
 30
0.0
 10
-0.9385708661417324
 20
3.710263779527559
 30
0.0
 10
-0.9385708661417324
 20
3.710263779527559
 30
0.0
 10
-0.9612834645669292
 20
3.701314960629921
 30
0.0
 10
-0.9612834645669292
 20
3.701314960629921
 30
0.0
 10
-0.9612834645669292
 20
3.701314960629921
 30
0.0
 10
-0.9612834645669292
 20
3.701314960629921
 30
0.0
 10
-0.9834251968503938
 20
3.691295275590552
 30
0.0
 10
-0.9834251968503938
 20
3.691295275590552
 30
0.0
 10
-0.9834251968503938
 20
3.691295275590552
 30
0.0
 10
-0.9834251968503938
 20
3.691295275590552
 30
0.0
 10
-1.635476377952756
 20
3.313712598425197
 30
0.0
 10
-1.635476377952756
 20
3.313712598425197
 30
0.0
 10
-1.635476377952756
 20
3.313712598425197
 30
0.0
 10
-1.635476377952756
 20
3.313712598425197
 30
0.0
 10
-1.613334645669291
 20
3.323732283464567
 30
0.0
 10
-1.613334645669291
 20
3.323732283464567
 30
0.0
 10
-1.613334645669291
 20
3.323732283464567
 30
0.0
 10
-1.613334645669291
 20
3.323732283464567
 30
0.0
 10
-1.590622047244095
 20
3.332681102362205
 30
0.0
 10
-1.590622047244095
 20
3.332681102362205
 30
0.0
  0
SPLINE
  5
3E
330
1F
100
AcDbEntity
  8
LAYER_1
 62
   250
100
AcDbSpline
210
0.0
220
0.0
230
1.0
 70
    11
 71
     3
 72
    84
 73
    80
 74
     0
 42
0.0000000001
 43
0.0000000001
 40
0.0
 40
0.0
 40
0.0
 40
0.0
 40
0.05
 40
0.05
 40
0.05
 40
0.05
 40
0.1
 40
0.1
 40
0.1
 40
0.1
 40
0.15
 40
0.15
 40
0.15
 40
0.15
 40
0.2
 40
0.2
 40
0.2
 40
0.2
 40
0.25
 40
0.25
 40
0.25
 40
0.25
 40
0.3
 40
0.3
 40
0.3
 40
0.3
 40
0.35
 40
0.35
 40
0.35
 40
0.35
 40
0.4
 40
0.4
 40
0.4
 40
0.4
 40
0.45
 40
0.45
 40
0.45
 40
0.45
 40
0.4999999999999999
 40
0.4999999999999999
 40
0.4999999999999999
 40
0.4999999999999999
 40
0.5499999999999999
 40
0.5499999999999999
 40
0.5499999999999999
 40
0.5499999999999999
 40
0.6
 40
0.6
 40
0.6
 40
0.6
 40
0.65
 40
0.65
 40
0.65
 40
0.65
 40
0.7000000000000001
 40
0.7000000000000001
 40
0.7000000000000001
 40
0.7000000000000001
 40
0.7500000000000001
 40
0.7500000000000001
 40
0.7500000000000001
 40
0.7500000000000001
 40
0.8000000000000002
 40
0.8000000000000002
 40
0.8000000000000002
 40
0.8000000000000002
 40
0.8500000000000002
 40
0.8500000000000002
 40
0.8500000000000002
 40
0.8500000000000002
 40
0.9000000000000002
 40
0.9000000000000002
 40
0.9000000000000002
 40
0.9000000000000002
 40
0.9500000000000003
 40
0.9500000000000003
 40
0.9500000000000003
 40
0.9500000000000003
 40
1.0
 40
1.0
 40
1.0
 40
1.0
 10
-1.418736220472441
 20
3.363035433070866
 30
0.0
 10
-1.418736220472441
 20
3.363035433070866
 30
0.0
 10
-0.7666850393700788
 20
3.740618110236221
 30
0.0
 10
-0.7666850393700788
 20
3.740618110236221
 30
0.0
 10
-0.7666850393700788
 20
3.740618110236221
 30
0.0
 10
-0.7666850393700788
 20
3.740618110236221
 30
0.0
 10
-0.7924055118110237
 20
3.739964566929134
 30
0.0
 10
-0.7924055118110237
 20
3.739964566929134
 30
0.0
 10
-0.7924055118110237
 20
3.739964566929134
 30
0.0
 10
-0.7924055118110237
 20
3.739964566929134
 30
0.0
 10
-0.8177952755905512
 20
3.738031496062992
 30
0.0
 10
-0.8177952755905512
 20
3.738031496062992
 30
0.0
 10
-0.8177952755905512
 20
3.738031496062992
 30
0.0
 10
-0.8177952755905512
 20
3.738031496062992
 30
0.0
 10
-0.8428110236220473
 20
3.734846456692913
 30
0.0
 10
-0.8428110236220473
 20
3.734846456692913
 30
0.0
 10
-0.8428110236220473
 20
3.734846456692913
 30
0.0
 10
-0.8428110236220473
 20
3.734846456692913
 30
0.0
 10
-0.8674330708661417
 20
3.730452755905512
 30
0.0
 10
-0.8674330708661417
 20
3.730452755905512
 30
0.0
 10
-0.8674330708661417
 20
3.730452755905512
 30
0.0
 10
-0.8674330708661417
 20
3.730452755905512
 30
0.0
 10
-0.8916181102362205
 20
3.724866141732284
 30
0.0
 10
-0.8916181102362205
 20
3.724866141732284
 30
0.0
 10
-0.8916181102362205
 20
3.724866141732284
 30
0.0
 10
-0.8916181102362205
 20
3.724866141732284
 30
0.0
 10
-0.9153425196850394
 20
3.718129921259843
 30
0.0
 10
-0.9153425196850394
 20
3.718129921259843
 30
0.0
 10
-0.9153425196850394
 20
3.718129921259843
 30
0.0
 10
-0.9153425196850394
 20
3.718129921259843
 30
0.0
 10
-0.9385708661417324
 20
3.710263779527559
 30
0.0
 10
-0.9385708661417324
 20
3.710263779527559
 30
0.0
 10
-0.9385708661417324
 20
3.710263779527559
 30
0.0
 10
-0.9385708661417324
 20
3.710263779527559
 30
0.0
 10
-0.9612834645669292
 20
3.701314960629921
 30
0.0
 10
-0.9612834645669292
 20
3.701314960629921
 30
0.0
 10
-0.9612834645669292
 20
3.701314960629921
 30
0.0
 10
-0.9612834645669292
 20
3.701314960629921
 30
0.0
 10
-0.9834251968503938
 20
3.691295275590552
 30
0.0
 10
-0.9834251968503938
 20
3.691295275590552
 30
0.0
 10
-0.9834251968503938
 20
3.691295275590552
 30
0.0
 10
-0.9834251968503938
 20
3.691295275590552
 30
0.0
 10
-1.635476377952756
 20
3.313712598425197
 30
0.0
 10
-1.635476377952756
 20
3.313712598425197
 30
0.0
 10
-1.635476377952756
 20
3.313712598425197
 30
0.0
 10
-1.635476377952756
 20
3.313712598425197
 30
0.0
 10
-1.613334645669291
 20
3.323732283464567
 30
0.0
 10
-1.613334645669291
 20
3.323732283464567
 30
0.0
 10
-1.613334645669291
 20
3.323732283464567
 30
0.0
 10
-1.613334645669291
 20
3.323732283464567
 30
0.0
 10
-1.590622047244095
 20
3.332681102362205
 30
0.0
 10
-1.590622047244095
 20
3.332681102362205
 30
0.0
 10
-1.590622047244095
 20
3.332681102362205
 30
0.0
 10
-1.590622047244095
 20
3.332681102362205
 30
0.0
 10
-1.567393700787402
 20
3.340547244094488
 30
0.0
 10
-1.567393700787402
 20
3.340547244094488
 30
0.0
 10
-1.567393700787402
 20
3.340547244094488
 30
0.0
 10
-1.567393700787402
 20
3.340547244094488
 30
0.0
 10
-1.543669291338583
 20
3.347283464566929
 30
0.0
 10
-1.543669291338583
 20
3.347283464566929
 30
0.0
 10
-1.543669291338583
 20
3.347283464566929
 30
0.0
 10
-1.543669291338583
 20
3.347283464566929
 30
0.0
 10
-1.519484251968504
 20
3.352870078740158
 30
0.0
 10
-1.519484251968504
 20
3.352870078740158
 30
0.0
 10
-1.519484251968504
 20
3.352870078740158
 30
0.0
 10
-1.519484251968504
 20
3.352870078740158
 30
0.0
 10
-1.49486220472441
 20
3.357263779527559
 30
0.0
 10
-1.49486220472441
 20
3.357263779527559
 30
0.0
 10
-1.49486220472441
 20
3.357263779527559
 30
0.0
 10
-1.49486220472441
 20
3.357263779527559
 30
0.0
 10
-1.469846456692914
 20
3.360448818897638
 30
0.0
 10
-1.469846456692914
 20
3.360448818897638
 30
0.0
 10
-1.469846456692914
 20
3.360448818897638
 30
0.0
 10
-1.469846456692914
 20
3.360448818897638
 30
0.0
 10
-1.444456692913386
 20
3.36238188976378
 30
0.0
 10
-1.444456692913386
 20
3.36238188976378
 30
0.0
 10
-1.444456692913386
 20
3.36238188976378
 30
0.0
 10
-1.444456692913386
 20
3.36238188976378
 30
0.0
 10
-1.418736220472441
 20
3.363035433070866
 30
0.0
 10
-1.418736220472441
 20
3.363035433070866
 30
0.0
  0
SPLINE
  5
3F
330
1F
100
AcDbEntity
  8
LAYER_1
 62
   253
100
AcDbSpline
210
0.0
220
0.0
230
1.0
 70
    11
 71
     3
 72
    20
 73
    16
 74
     0
 42
0.0000000001
 43
0.0000000001
 40
0.0
 40
0.0
 40
0.0
 40
0.0
 40
0.25
 40
0.25
 40
0.25
 40
0.25
 40
0.5
 40
0.5
 40
0.5
 40
0.5
 40
0.75
 40
0.75
 40
0.75
 40
0.75
 40
1.0
 40
1.0
 40
1.0
 40
1.0
 10
1.831263779527559
 20
2.363035433070866
 30
0.0
 10
1.831263779527559
 20
2.363035433070866
 30
0.0
 10
2.483314960629921
 20
2.740618110236221
 30
0.0
 10
2.483314960629921
 20
2.740618110236221
 30
0.0
 10
2.483314960629921
 20
2.740618110236221
 30
0.0
 10
2.483314960629921
 20
2.740618110236221
 30
0.0
 10
2.483314960629921
 20
2.865618110236221
 30
0.0
 10
2.483314960629921
 20
2.865618110236221
 30
0.0
 10
2.483314960629921
 20
2.865618110236221
 30
0.0
 10
2.483314960629921
 20
2.865618110236221
 30
0.0
 10
1.831263779527559
 20
2.488035433070866
 30
0.0
 10
1.831263779527559
 20
2.488035433070866
 30
0.0
 10
1.831263779527559
 20
2.488035433070866
 30
0.0
 10
1.831263779527559
 20
2.488035433070866
 30
0.0
 10
1.831263779527559
 20
2.363035433070866
 30
0.0
 10
1.831263779527559
 20
2.363035433070866
 30
0.0
  0
SPLINE
  5
40
330
1F
100
AcDbEntity
  8
LAYER_1
 62
   250
100
AcDbSpline
210
0.0
220
0.0
230
1.0
 70
    11
 71
     3
 72
    20
 73
    16
 74
     0
 42
0.0000000001
 43
0.0000000001
 40
0.0
 40
0.0
 40
0.0
 40
0.0
 40
0.25
 40
0.25
 40
0.25
 40
0.25
 40
0.5
 40
0.5
 40
0.5
 40
0.5
 40
0.75
 40
0.75
 40
0.75
 40
0.75
 40
1.0
 40
1.0
 40
1.0
 40
1.0
 10
1.831263779527559
 20
2.363035433070866
 30
0.0
 10
1.831263779527559
 20
2.363035433070866
 30
0.0
 10
2.483314960629921
 20
2.740618110236221
 30
0.0
 10
2.483314960629921
 20
2.740618110236221
 30
0.0
 10
2.483314960629921
 20
2.740618110236221
 30
0.0
 10
2.483314960629921
 20
2.740618110236221
 30
0.0
 10
2.483314960629921
 20
2.865618110236221
 30
0.0
 10
2.483314960629921
 20
2.865618110236221
 30
0.0
 10
2.483314960629921
 20
2.865618110236221
 30
0.0
 10
2.483314960629921
 20
2.865618110236221
 30
0.0
 10
1.831263779527559
 20
2.488035433070866
 30
0.0
 10
1.831263779527559
 20
2.488035433070866
 30
0.0
 10
1.831263779527559
 20
2.488035433070866
 30
0.0
 10
1.831263779527559
 20
2.488035433070866
 30
0.0
 10
1.831263779527559
 20
2.363035433070866
 30
0.0
 10
1.831263779527559
 20
2.363035433070866
 30
0.0
  0
SPLINE
  5
41
330
1F
100
AcDbEntity
  8
LAYER_1
 62
   253
100
AcDbSpline
210
0.0
220
0.0
230
1.0
 70
    11
 71
     3
 72
    20
 73
    16
 74
     0
 42
0.0000000001
 43
0.0000000001
 40
0.0
 40
0.0
 40
0.0
 40
0.0
 40
0.25
 40
0.25
 40
0.25
 40
0.25
 40
0.5
 40
0.5
 40
0.5
 40
0.5
 40
0.75
 40
0.75
 40
0.75
 40
0.75
 40
1.0
 40
1.0
 40
1.0
 40
1.0
 10
2.018763779527559
 20
2.514779527559055
 30
0.0
 10
2.018763779527559
 20
2.514779527559055
 30
0.0
 10
2.670814960629921
 20
2.89236220472441
 30
0.0
 10
2.670814960629921
 20
2.89236220472441
 30
0.0
 10
2.670814960629921
 20
2.89236220472441
 30
0.0
 10
2.670814960629921
 20
2.89236220472441
 30
0.0
 10
2.670814960629921
 20
3.152118110236221
 30
0.0
 10
2.670814960629921
 20
3.152118110236221
 30
0.0
 10
2.670814960629921
 20
3.152118110236221
 30
0.0
 10
2.670814960629921
 20
3.152118110236221
 30
0.0
 10
2.018763779527559
 20
2.774535433070866
 30
0.0
 10
2.018763779527559
 20
2.774535433070866
 30
0.0
 10
2.018763779527559
 20
2.774535433070866
 30
0.0
 10
2.018763779527559
 20
2.774535433070866
 30
0.0
 10
2.018763779527559
 20
2.514779527559055
 30
0.0
 10
2.018763779527559
 20
2.514779527559055
 30
0.0
  0
SPLINE
  5
42
330
1F
100
AcDbEntity
  8
LAYER_1
 62
   250
100
AcDbSpline
210
0.0
220
0.0
230
1.0
 70
    11
 71
     3
 72
    20
 73
    16
 74
     0
 42
0.0000000001
 43
0.0000000001
 40
0.0
 40
0.0
 40
0.0
 40
0.0
 40
0.25
 40
0.25
 40
0.25
 40
0.25
 40
0.5
 40
0.5
 40
0.5
 40
0.5
 40
0.75
 40
0.75
 40
0.75
 40
0.75
 40
1.0
 40
1.0
 40
1.0
 40
1.0
 10
2.018763779527559
 20
2.514779527559055
 30
0.0
 10
2.018763779527559
 20
2.514779527559055
 30
0.0
 10
2.670814960629921
 20
2.89236220472441
 30
0.0
 10
2.670814960629921
 20
2.89236220472441
 30
0.0
 10
2.670814960629921
 20
2.89236220472441
 30
0.0
 10
2.670814960629921
 20
2.89236220472441
 30
0.0
 10
2.670814960629921
 20
3.152118110236221
 30
0.0
 10
2.670814960629921
 20
3.152118110236221
 30
0.0
 10
2.670814960629921
 20
3.152118110236221
 30
0.0
 10
2.670814960629921
 20
3.152118110236221
 30
0.0
 10
2.018763779527559
 20
2.774535433070866
 30
0.0
 10
2.018763779527559
 20
2.774535433070866
 30
0.0
 10
2.018763779527559
 20
2.774535433070866
 30
0.0
 10
2.018763779527559
 20
2.774535433070866
 30
0.0
 10
2.018763779527559
 20
2.514779527559055
 30
0.0
 10
2.018763779527559
 20
2.514779527559055
 30
0.0
  0
SPLINE
  5
43
330
1F
100
AcDbEntity
  8
LAYER_1
 62
   252
100
AcDbSpline
210
0.0
220
0.0
230
1.0
 70
    11
 71
     3
 72
    20
 73
    16
 74
     0
 42
0.0000000001
 43
0.0000000001
 40
0.0
 40
0.0
 40
0.0
 40
0.0
 40
0.25
 40
0.25
 40
0.25
 40
0.25
 40
0.5
 40
0.5
 40
0.5
 40
0.5
 40
0.75
 40
0.75
 40
0.75
 40
0.75
 40
1.0
 40
1.0
 40
1.0
 40
1.0
 10
2.018763779527559
 20
2.774535433070866
 30
0.0
 10
2.018763779527559
 20
2.774535433070866
 30
0.0
 10
2.670814960629921
 20
3.152118110236221
 30
0.0
 10
2.670814960629921
 20
3.152118110236221
 30
0.0
 10
2.670814960629921
 20
3.152118110236221
 30
0.0
 10
2.670814960629921
 20
3.152118110236221
 30
0.0
 10
2.483314960629921
 20
3.17886220472441
 30
0.0
 10
2.483314960629921
 20
3.17886220472441
 30
0.0
 10
2.483314960629921
 20
3.17886220472441
 30
0.0
 10
2.483314960629921
 20
3.17886220472441
 30
0.0
 10
1.831263779527559
 20
2.801279527559055
 30
0.0
 10
1.831263779527559
 20
2.801279527559055
 30
0.0
 10
1.831263779527559
 20
2.801279527559055
 30
0.0
 10
1.831263779527559
 20
2.801279527559055
 30
0.0
 10
2.018763779527559
 20
2.774535433070866
 30
0.0
 10
2.018763779527559
 20
2.774535433070866
 30
0.0
  0
SPLINE
  5
44
330
1F
100
AcDbEntity
  8
LAYER_1
 62
   250
100
AcDbSpline
210
0.0
220
0.0
230
1.0
 70
    11
 71
     3
 72
    20
 73
    16
 74
     0
 42
0.0000000001
 43
0.0000000001
 40
0.0
 40
0.0
 40
0.0
 40
0.0
 40
0.25
 40
0.25
 40
0.25
 40
0.25
 40
0.5
 40
0.5
 40
0.5
 40
0.5
 40
0.75
 40
0.75
 40
0.75
 40
0.75
 40
1.0
 40
1.0
 40
1.0
 40
1.0
 10
2.018763779527559
 20
2.774535433070866
 30
0.0
 10
2.018763779527559
 20
2.774535433070866
 30
0.0
 10
2.670814960629921
 20
3.152118110236221
 30
0.0
 10
2.670814960629921
 20
3.152118110236221
 30
0.0
 10
2.670814960629921
 20
3.152118110236221
 30
0.0
 10
2.670814960629921
 20
3.152118110236221
 30
0.0
 10
2.483314960629921
 20
3.17886220472441
 30
0.0
 10
2.483314960629921
 20
3.17886220472441
 30
0.0
 10
2.483314960629921
 20
3.17886220472441
 30
0.0
 10
2.483314960629921
 20
3.17886220472441
 30
0.0
 10
1.831263779527559
 20
2.801279527559055
 30
0.0
 10
1.831263779527559
 20
2.801279527559055
 30
0.0
 10
1.831263779527559
 20
2.801279527559055
 30
0.0
 10
1.831263779527559
 20
2.801279527559055
 30
0.0
 10
2.018763779527559
 20
2.774535433070866
 30
0.0
 10
2.018763779527559
 20
2.774535433070866
 30
0.0
  0
SPLINE
  5
45
330
1F
100
AcDbEntity
  8
LAYER_1
 62
   253
100
AcDbSpline
210
0.0
220
0.0
230
1.0
 70
    11
 71
     3
 72
    20
 73
    16
 74
     0
 42
0.0000000001
 43
0.0000000001
 40
0.0
 40
0.0
 40
0.0
 40
0.0
 40
0.25
 40
0.25
 40
0.25
 40
0.25
 40
0.5
 40
0.5
 40
0.5
 40
0.5
 40
0.75
 40
0.75
 40
0.75
 40
0.75
 40
1.0
 40
1.0
 40
1.0
 40
1.0
 10
1.831263779527559
 20
2.801279527559055
 30
0.0
 10
1.831263779527559
 20
2.801279527559055
 30
0.0
 10
2.483314960629921
 20
3.17886220472441
 30
0.0
 10
2.483314960629921
 20
3.17886220472441
 30
0.0
 10
2.483314960629921
 20
3.17886220472441
 30
0.0
 10
2.483314960629921
 20
3.17886220472441
 30
0.0
 10
2.483314960629921
 20
3.740618110236221
 30
0.0
 10
2.483314960629921
 20
3.740618110236221
 30
0.0
 10
2.483314960629921
 20
3.740618110236221
 30
0.0
 10
2.483314960629921
 20
3.740618110236221
 30
0.0
 10
1.831263779527559
 20
3.363035433070866
 30
0.0
 10
1.831263779527559
 20
3.363035433070866
 30
0.0
 10
1.831263779527559
 20
3.363035433070866
 30
0.0
 10
1.831263779527559
 20
3.363035433070866
 30
0.0
 10
1.831263779527559
 20
2.801279527559055
 30
0.0
 10
1.831263779527559
 20
2.801279527559055
 30
0.0
  0
SPLINE
  5
46
330
1F
100
AcDbEntity
  8
LAYER_1
 62
   250
100
AcDbSpline
210
0.0
220
0.0
230
1.0
 70
    11
 71
     3
 72
    20
 73
    16
 74
     0
 42
0.0000000001
 43
0.0000000001
 40
0.0
 40
0.0
 40
0.0
 40
0.0
 40
0.25
 40
0.25
 40
0.25
 40
0.25
 40
0.5
 40
0.5
 40
0.5
 40
0.5
 40
0.75
 40
0.75
 40
0.75
 40
0.75
 40
1.0
 40
1.0
 40
1.0
 40
1.0
 10
1.831263779527559
 20
2.801279527559055
 30
0.0
 10
1.831263779527559
 20
2.801279527559055
 30
0.0
 10
2.483314960629921
 20
3.17886220472441
 30
0.0
 10
2.483314960629921
 20
3.17886220472441
 30
0.0
 10
2.483314960629921
 20
3.17886220472441
 30
0.0
 10
2.483314960629921
 20
3.17886220472441
 30
0.0
 10
2.483314960629921
 20
3.740618110236221
 30
0.0
 10
2.483314960629921
 20
3.740618110236221
 30
0.0
 10
2.483314960629921
 20
3.740618110236221
 30
0.0
 10
2.483314960629921
 20
3.740618110236221
 30
0.0
 10
1.831263779527559
 20
3.363035433070866
 30
0.0
 10
1.831263779527559
 20
3.363035433070866
 30
0.0
 10
1.831263779527559
 20
3.363035433070866
 30
0.0
 10
1.831263779527559
 20
3.363035433070866
 30
0.0
 10
1.831263779527559
 20
2.801279527559055
 30
0.0
 10
1.831263779527559
 20
2.801279527559055
 30
0.0
  0
SPLINE
  5
47
330
1F
100
AcDbEntity
  8
LAYER_1
 62
   252
100
AcDbSpline
210
0.0
220
0.0
230
1.0
 70
    11
 71
     3
 72
    20
 73
    16
 74
     0
 42
0.0000000001
 43
0.0000000001
 40
0.0
 40
0.0
 40
0.0
 40
0.0
 40
0.25
 40
0.25
 40
0.25
 40
0.25
 40
0.5
 40
0.5
 40
0.5
 40
0.5
 40
0.75
 40
0.75
 40
0.75
 40
0.75
 40
1.0
 40
1.0
 40
1.0
 40
1.0
 10
1.831263779527559
 20
3.363035433070866
 30
0.0
 10
1.831263779527559
 20
3.363035433070866
 30
0.0
 10
2.483314960629921
 20
3.740618110236221
 30
0.0
 10
2.483314960629921
 20
3.740618110236221
 30
0.0
 10
2.483314960629921
 20
3.740618110236221
 30
0.0
 10
2.483314960629921
 20
3.740618110236221
 30
0.0
 10
-0.7666850393700788
 20
3.740618110236221
 30
0.0
 10
-0.7666850393700788
 20
3.740618110236221
 30
0.0
 10
-0.7666850393700788
 20
3.740618110236221
 30
0.0
 10
-0.7666850393700788
 20
3.740618110236221
 30
0.0
 10
-1.418736220472441
 20
3.363035433070866
 30
0.0
 10
-1.418736220472441
 20
3.363035433070866
 30
0.0
 10
-1.418736220472441
 20
3.363035433070866
 30
0.0
 10
-1.418736220472441
 20
3.363035433070866
 30
0.0
 10
1.831263779527559
 20
3.363035433070866
 30
0.0
 10
1.831263779527559
 20
3.363035433070866
 30
0.0
  0
SPLINE
  5
48
330
1F
100
AcDbEntity
  8
LAYER_1
 62
   250
100
AcDbSpline
210
0.0
220
0.0
230
1.0
 70
    11
 71
     3
 72
    20
 73
    16
 74
     0
 42
0.0000000001
 43
0.0000000001
 40
0.0
 40
0.0
 40
0.0
 40
0.0
 40
0.25
 40
0.25
 40
0.25
 40
0.25
 40
0.5
 40
0.5
 40
0.5
 40
0.5
 40
0.75
 40
0.75
 40
0.75
 40
0.75
 40
1.0
 40
1.0
 40
1.0
 40
1.0
 10
1.831263779527559
 20
3.363035433070866
 30
0.0
 10
1.831263779527559
 20
3.363035433070866
 30
0.0
 10
2.483314960629921
 20
3.740618110236221
 30
0.0
 10
2.483314960629921
 20
3.740618110236221
 30
0.0
 10
2.483314960629921
 20
3.740618110236221
 30
0.0
 10
2.483314960629921
 20
3.740618110236221
 30
0.0
 10
-0.7666850393700788
 20
3.740618110236221
 30
0.0
 10
-0.7666850393700788
 20
3.740618110236221
 30
0.0
 10
-0.7666850393700788
 20
3.740618110236221
 30
0.0
 10
-0.7666850393700788
 20
3.740618110236221
 30
0.0
 10
-1.418736220472441
 20
3.363035433070866
 30
0.0
 10
-1.418736220472441
 20
3.363035433070866
 30
0.0
 10
-1.418736220472441
 20
3.363035433070866
 30
0.0
 10
-1.418736220472441
 20
3.363035433070866
 30
0.0
 10
1.831263779527559
 20
3.363035433070866
 30
0.0
 10
1.831263779527559
 20
3.363035433070866
 30
0.0
  0
SPLINE
  5
49
330
1F
100
AcDbEntity
  8
LAYER_1
 62
   252
100
AcDbSpline
210
0.0
220
0.0
230
1.0
 70
    11
 71
     3
 72
    20
 73
    16
 74
     0
 42
0.0000000001
 43
0.0000000001
 40
0.0
 40
0.0
 40
0.0
 40
0.0
 40
0.25
 40
0.25
 40
0.25
 40
0.25
 40
0.5
 40
0.5
 40
0.5
 40
0.5
 40
0.75
 40
0.75
 40
0.75
 40
0.75
 40
1.0
 40
1.0
 40
1.0
 40
1.0
 10
-1.418736220472441
 20
3.363035433070866
 30
0.0
 10
-1.418736220472441
 20
3.363035433070866
 30
0.0
 10
-0.7666850393700788
 20
3.740618110236221
 30
0.0
 10
-0.7666850393700788
 20
3.740618110236221
 30
0.0
 10
-0.7666850393700788
 20
3.740618110236221
 30
0.0
 10
-0.7666850393700788
 20
3.740618110236221
 30
0.0
 10
-0.7924055118110237
 20
3.739964566929134
 30
0.0
 10
-0.7924055118110237
 20
3.739964566929134
 30
0.0
 10
-0.7924055118110237
 20
3.739964566929134
 30
0.0
 10
-0.7924055118110237
 20
3.739964566929134
 30
0.0
 10
-1.444456692913386
 20
3.36238188976378
 30
0.0
 10
-1.444456692913386
 20
3.36238188976378
 30
0.0
 10
-1.444456692913386
 20
3.36238188976378
 30
0.0
 10
-1.444456692913386
 20
3.36238188976378
 30
0.0
 10
-1.418736220472441
 20
3.363035433070866
 30
0.0
 10
-1.418736220472441
 20
3.363035433070866
 30
0.0
  0
SPLINE
  5
4A
330
1F
100
AcDbEntity
  8
LAYER_1
 62
     8
100
AcDbSpline
210
0.0
220
0.0
230
1.0
 70
    11
 71
     3
 72
    20
 73
    16
 74
     0
 42
0.0000000001
 43
0.0000000001
 40
0.0
 40
0.0
 40
0.0
 40
0.0
 40
0.25
 40
0.25
 40
0.25
 40
0.25
 40
0.5
 40
0.5
 40
0.5
 40
0.5
 40
0.75
 40
0.75
 40
0.75
 40
0.75
 40
1.0
 40
1.0
 40
1.0
 40
1.0
 10
-1.444456692913386
 20
3.36238188976378
 30
0.0
 10
-1.444456692913386
 20
3.36238188976378
 30
0.0
 10
-0.7924055118110237
 20
3.739964566929134
 30
0.0
 10
-0.7924055118110237
 20
3.739964566929134
 30
0.0
 10
-0.7924055118110237
 20
3.739964566929134
 30
0.0
 10
-0.7924055118110237
 20
3.739964566929134
 30
0.0
 10
-0.8177952755905512
 20
3.738031496062992
 30
0.0
 10
-0.8177952755905512
 20
3.738031496062992
 30
0.0
 10
-0.8177952755905512
 20
3.738031496062992
 30
0.0
 10
-0.8177952755905512
 20
3.738031496062992
 30
0.0
 10
-1.469846456692914
 20
3.360448818897638
 30
0.0
 10
-1.469846456692914
 20
3.360448818897638
 30
0.0
 10
-1.469846456692914
 20
3.360448818897638
 30
0.0
 10
-1.469846456692914
 20
3.360448818897638
 30
0.0
 10
-1.444456692913386
 20
3.36238188976378
 30
0.0
 10
-1.444456692913386
 20
3.36238188976378
 30
0.0
  0
SPLINE
  5
4B
330
1F
100
AcDbEntity
  8
LAYER_1
 62
     8
100
AcDbSpline
210
0.0
220
0.0
230
1.0
 70
    11
 71
     3
 72
    20
 73
    16
 74
     0
 42
0.0000000001
 43
0.0000000001
 40
0.0
 40
0.0
 40
0.0
 40
0.0
 40
0.25
 40
0.25
 40
0.25
 40
0.25
 40
0.5
 40
0.5
 40
0.5
 40
0.5
 40
0.75
 40
0.75
 40
0.75
 40
0.75
 40
1.0
 40
1.0
 40
1.0
 40
1.0
 10
-1.469846456692914
 20
3.360448818897638
 30
0.0
 10
-1.469846456692914
 20
3.360448818897638
 30
0.0
 10
-0.8177952755905512
 20
3.738031496062992
 30
0.0
 10
-0.8177952755905512
 20
3.738031496062992
 30
0.0
 10
-0.8177952755905512
 20
3.738031496062992
 30
0.0
 10
-0.8177952755905512
 20
3.738031496062992
 30
0.0
 10
-0.8428110236220473
 20
3.734846456692913
 30
0.0
 10
-0.8428110236220473
 20
3.734846456692913
 30
0.0
 10
-0.8428110236220473
 20
3.734846456692913
 30
0.0
 10
-0.8428110236220473
 20
3.734846456692913
 30
0.0
 10
-1.49486220472441
 20
3.357263779527559
 30
0.0
 10
-1.49486220472441
 20
3.357263779527559
 30
0.0
 10
-1.49486220472441
 20
3.357263779527559
 30
0.0
 10
-1.49486220472441
 20
3.357263779527559
 30
0.0
 10
-1.469846456692914
 20
3.360448818897638
 30
0.0
 10
-1.469846456692914
 20
3.360448818897638
 30
0.0
  0
SPLINE
  5
4C
330
1F
100
AcDbEntity
  8
LAYER_1
 62
   251
100
AcDbSpline
210
0.0
220
0.0
230
1.0
 70
    11
 71
     3
 72
    28
 73
    24
 74
     0
 42
0.0000000001
 43
0.0000000001
 40
0.0
 40
0.0
 40
0.0
 40
0.0
 40
0.1666666666666667
 40
0.1666666666666667
 40
0.1666666666666667
 40
0.1666666666666667
 40
0.3333333333333333
 40
0.3333333333333333
 40
0.3333333333333333
 40
0.3333333333333333
 40
0.5
 40
0.5
 40
0.5
 40
0.5
 40
0.6666666666666666
 40
0.6666666666666666
 40
0.6666666666666666
 40
0.6666666666666666
 40
0.8333333333333333
 40
0.8333333333333333
 40
0.8333333333333333
 40
0.8333333333333333
 40
1.0
 40
1.0
 40
1.0
 40
1.0
 10
-1.49486220472441
 20
3.357263779527559
 30
0.0
 10
-1.49486220472441
 20
3.357263779527559
 30
0.0
 10
-0.8428110236220473
 20
3.734846456692913
 30
0.0
 10
-0.8428110236220473
 20
3.734846456692913
 30
0.0
 10
-0.8428110236220473
 20
3.734846456692913
 30
0.0
 10
-0.8428110236220473
 20
3.734846456692913
 30
0.0
 10
-0.8674330708661417
 20
3.730452755905512
 30
0.0
 10
-0.8674330708661417
 20
3.730452755905512
 30
0.0
 10
-0.8674330708661417
 20
3.730452755905512
 30
0.0
 10
-0.8674330708661417
 20
3.730452755905512
 30
0.0
 10
-0.8916181102362205
 20
3.724866141732284
 30
0.0
 10
-0.8916181102362205
 20
3.724866141732284
 30
0.0
 10
-0.8916181102362205
 20
3.724866141732284
 30
0.0
 10
-0.8916181102362205
 20
3.724866141732284
 30
0.0
 10
-1.543669291338583
 20
3.347283464566929
 30
0.0
 10
-1.543669291338583
 20
3.347283464566929
 30
0.0
 10
-1.543669291338583
 20
3.347283464566929
 30
0.0
 10
-1.543669291338583
 20
3.347283464566929
 30
0.0
 10
-1.519484251968504
 20
3.352870078740158
 30
0.0
 10
-1.519484251968504
 20
3.352870078740158
 30
0.0
 10
-1.519484251968504
 20
3.352870078740158
 30
0.0
 10
-1.519484251968504
 20
3.352870078740158
 30
0.0
 10
-1.49486220472441
 20
3.357263779527559
 30
0.0
 10
-1.49486220472441
 20
3.357263779527559
 30
0.0
  0
SPLINE
  5
4D
330
1F
100
AcDbEntity
  8
LAYER_1
 62
   251
100
AcDbSpline
210
0.0
220
0.0
230
1.0
 70
    11
 71
     3
 72
    28
 73
    24
 74
     0
 42
0.0000000001
 43
0.0000000001
 40
0.0
 40
0.0
 40
0.0
 40
0.0
 40
0.1666666666666667
 40
0.1666666666666667
 40
0.1666666666666667
 40
0.1666666666666667
 40
0.3333333333333333
 40
0.3333333333333333
 40
0.3333333333333333
 40
0.3333333333333333
 40
0.5
 40
0.5
 40
0.5
 40
0.5
 40
0.6666666666666666
 40
0.6666666666666666
 40
0.6666666666666666
 40
0.6666666666666666
 40
0.8333333333333333
 40
0.8333333333333333
 40
0.8333333333333333
 40
0.8333333333333333
 40
1.0
 40
1.0
 40
1.0
 40
1.0
 10
-1.543669291338583
 20
3.347283464566929
 30
0.0
 10
-1.543669291338583
 20
3.347283464566929
 30
0.0
 10
-0.8916181102362205
 20
3.724866141732284
 30
0.0
 10
-0.8916181102362205
 20
3.724866141732284
 30
0.0
 10
-0.8916181102362205
 20
3.724866141732284
 30
0.0
 10
-0.8916181102362205
 20
3.724866141732284
 30
0.0
 10
-0.9153425196850394
 20
3.718129921259843
 30
0.0
 10
-0.9153425196850394
 20
3.718129921259843
 30
0.0
 10
-0.9153425196850394
 20
3.718129921259843
 30
0.0
 10
-0.9153425196850394
 20
3.718129921259843
 30
0.0
 10
-0.9385708661417324
 20
3.710263779527559
 30
0.0
 10
-0.9385708661417324
 20
3.710263779527559
 30
0.0
 10
-0.9385708661417324
 20
3.710263779527559
 30
0.0
 10
-0.9385708661417324
 20
3.710263779527559
 30
0.0
 10
-1.590622047244095
 20
3.332681102362205
 30
0.0
 10
-1.590622047244095
 20
3.332681102362205
 30
0.0
 10
-1.590622047244095
 20
3.332681102362205
 30
0.0
 10
-1.590622047244095
 20
3.332681102362205
 30
0.0
 10
-1.567393700787402
 20
3.340547244094488
 30
0.0
 10
-1.567393700787402
 20
3.340547244094488
 30
0.0
 10
-1.567393700787402
 20
3.340547244094488
 30
0.0
 10
-1.567393700787402
 20
3.340547244094488
 30
0.0
 10
-1.543669291338583
 20
3.347283464566929
 30
0.0
 10
-1.543669291338583
 20
3.347283464566929
 30
0.0
  0
SPLINE
  5
4E
330
1F
100
AcDbEntity
  8
LAYER_1
 62
   250
100
AcDbSpline
210
0.0
220
0.0
230
1.0
 70
    11
 71
     3
 72
    28
 73
    24
 74
     0
 42
0.0000000001
 43
0.0000000001
 40
0.0
 40
0.0
 40
0.0
 40
0.0
 40
0.1666666666666667
 40
0.1666666666666667
 40
0.1666666666666667
 40
0.1666666666666667
 40
0.3333333333333333
 40
0.3333333333333333
 40
0.3333333333333333
 40
0.3333333333333333
 40
0.5
 40
0.5
 40
0.5
 40
0.5
 40
0.6666666666666666
 40
0.6666666666666666
 40
0.6666666666666666
 40
0.6666666666666666
 40
0.8333333333333333
 40
0.8333333333333333
 40
0.8333333333333333
 40
0.8333333333333333
 40
1.0
 40
1.0
 40
1.0
 40
1.0
 10
-1.590622047244095
 20
3.332681102362205
 30
0.0
 10
-1.590622047244095
 20
3.332681102362205
 30
0.0
 10
-0.9385708661417324
 20
3.710263779527559
 30
0.0
 10
-0.9385708661417324
 20
3.710263779527559
 30
0.0
 10
-0.9385708661417324
 20
3.710263779527559
 30
0.0
 10
-0.9385708661417324
 20
3.710263779527559
 30
0.0
 10
-0.9612834645669292
 20
3.701314960629921
 30
0.0
 10
-0.9612834645669292
 20
3.701314960629921
 30
0.0
 10
-0.9612834645669292
 20
3.701314960629921
 30
0.0
 10
-0.9612834645669292
 20
3.701314960629921
 30
0.0
 10
-0.9834251968503938
 20
3.691295275590552
 30
0.0
 10
-0.9834251968503938
 20
3.691295275590552
 30
0.0
 10
-0.9834251968503938
 20
3.691295275590552
 30
0.0
 10
-0.9834251968503938
 20
3.691295275590552
 30
0.0
 10
-1.635476377952756
 20
3.313712598425197
 30
0.0
 10
-1.635476377952756
 20
3.313712598425197
 30
0.0
 10
-1.635476377952756
 20
3.313712598425197
 30
0.0
 10
-1.635476377952756
 20
3.313712598425197
 30
0.0
 10
-1.613334645669291
 20
3.323732283464567
 30
0.0
 10
-1.613334645669291
 20
3.323732283464567
 30
0.0
 10
-1.613334645669291
 20
3.323732283464567
 30
0.0
 10
-1.613334645669291
 20
3.323732283464567
 30
0.0
 10
-1.590622047244095
 20
3.332681102362205
 30
0.0
 10
-1.590622047244095
 20
3.332681102362205
 30
0.0
  0
SPLINE
  5
4F
330
1F
100
AcDbEntity
  8
LAYER_1
 62
   250
100
AcDbSpline
210
0.0
220
0.0
230
1.0
 70
    11
 71
     3
 72
    84
 73
    80
 74
     0
 42
0.0000000001
 43
0.0000000001
 40
0.0
 40
0.0
 40
0.0
 40
0.0
 40
0.05
 40
0.05
 40
0.05
 40
0.05
 40
0.1
 40
0.1
 40
0.1
 40
0.1
 40
0.15
 40
0.15
 40
0.15
 40
0.15
 40
0.2
 40
0.2
 40
0.2
 40
0.2
 40
0.25
 40
0.25
 40
0.25
 40
0.25
 40
0.3
 40
0.3
 40
0.3
 40
0.3
 40
0.35
 40
0.35
 40
0.35
 40
0.35
 40
0.4
 40
0.4
 40
0.4
 40
0.4
 40
0.45
 40
0.45
 40
0.45
 40
0.45
 40
0.4999999999999999
 40
0.4999999999999999
 40
0.4999999999999999
 40
0.4999999999999999
 40
0.5499999999999999
 40
0.5499999999999999
 40
0.5499999999999999
 40
0.5499999999999999
 40
0.6
 40
0.6
 40
0.6
 40
0.6
 40
0.65
 40
0.65
 40
0.65
 40
0.65
 40
0.7000000000000001
 40
0.7000000000000001
 40
0.7000000000000001
 40
0.7000000000000001
 40
0.7500000000000001
 40
0.7500000000000001
 40
0.7500000000000001
 40
0.7500000000000001
 40
0.8000000000000002
 40
0.8000000000000002
 40
0.8000000000000002
 40
0.8000000000000002
 40
0.8500000000000002
 40
0.8500000000000002
 40
0.8500000000000002
 40
0.8500000000000002
 40
0.9000000000000002
 40
0.9000000000000002
 40
0.9000000000000002
 40
0.9000000000000002
 40
0.9500000000000003
 40
0.9500000000000003
 40
0.9500000000000003
 40
0.9500000000000003
 40
1.0
 40
1.0
 40
1.0
 40
1.0
 10
-1.418736220472441
 20
3.363035433070866
 30
0.0
 10
-1.418736220472441
 20
3.363035433070866
 30
0.0
 10
-0.7666850393700788
 20
3.740618110236221
 30
0.0
 10
-0.7666850393700788
 20
3.740618110236221
 30
0.0
 10
-0.7666850393700788
 20
3.740618110236221
 30
0.0
 10
-0.7666850393700788
 20
3.740618110236221
 30
0.0
 10
-0.7924055118110237
 20
3.739964566929134
 30
0.0
 10
-0.7924055118110237
 20
3.739964566929134
 30
0.0
 10
-0.7924055118110237
 20
3.739964566929134
 30
0.0
 10
-0.7924055118110237
 20
3.739964566929134
 30
0.0
 10
-0.8177952755905512
 20
3.738031496062992
 30
0.0
 10
-0.8177952755905512
 20
3.738031496062992
 30
0.0
 10
-0.8177952755905512
 20
3.738031496062992
 30
0.0
 10
-0.8177952755905512
 20
3.738031496062992
 30
0.0
 10
-0.8428110236220473
 20
3.734846456692913
 30
0.0
 10
-0.8428110236220473
 20
3.734846456692913
 30
0.0
 10
-0.8428110236220473
 20
3.734846456692913
 30
0.0
 10
-0.8428110236220473
 20
3.734846456692913
 30
0.0
 10
-0.8674330708661417
 20
3.730452755905512
 30
0.0
 10
-0.8674330708661417
 20
3.730452755905512
 30
0.0
 10
-0.8674330708661417
 20
3.730452755905512
 30
0.0
 10
-0.8674330708661417
 20
3.730452755905512
 30
0.0
 10
-0.8916181102362205
 20
3.724866141732284
 30
0.0
 10
-0.8916181102362205
 20
3.724866141732284
 30
0.0
 10
-0.8916181102362205
 20
3.724866141732284
 30
0.0
 10
-0.8916181102362205
 20
3.724866141732284
 30
0.0
 10
-0.9153425196850394
 20
3.718129921259843
 30
0.0
 10
-0.9153425196850394
 20
3.718129921259843
 30
0.0
 10
-0.9153425196850394
 20
3.718129921259843
 30
0.0
 10
-0.9153425196850394
 20
3.718129921259843
 30
0.0
 10
-0.9385708661417324
 20
3.710263779527559
 30
0.0
 10
-0.9385708661417324
 20
3.710263779527559
 30
0.0
 10
-0.9385708661417324
 20
3.710263779527559
 30
0.0
 10
-0.9385708661417324
 20
3.710263779527559
 30
0.0
 10
-0.9612834645669292
 20
3.701314960629921
 30
0.0
 10
-0.9612834645669292
 20
3.701314960629921
 30
0.0
 10
-0.9612834645669292
 20
3.701314960629921
 30
0.0
 10
-0.9612834645669292
 20
3.701314960629921
 30
0.0
 10
-0.9834251968503938
 20
3.691295275590552
 30
0.0
 10
-0.9834251968503938
 20
3.691295275590552
 30
0.0
 10
-0.9834251968503938
 20
3.691295275590552
 30
0.0
 10
-0.9834251968503938
 20
3.691295275590552
 30
0.0
 10
-1.635476377952756
 20
3.313712598425197
 30
0.0
 10
-1.635476377952756
 20
3.313712598425197
 30
0.0
 10
-1.635476377952756
 20
3.313712598425197
 30
0.0
 10
-1.635476377952756
 20
3.313712598425197
 30
0.0
 10
-1.613334645669291
 20
3.323732283464567
 30
0.0
 10
-1.613334645669291
 20
3.323732283464567
 30
0.0
 10
-1.613334645669291
 20
3.323732283464567
 30
0.0
 10
-1.613334645669291
 20
3.323732283464567
 30
0.0
 10
-1.590622047244095
 20
3.332681102362205
 30
0.0
 10
-1.590622047244095
 20
3.332681102362205
 30
0.0
 10
-1.590622047244095
 20
3.332681102362205
 30
0.0
 10
-1.590622047244095
 20
3.332681102362205
 30
0.0
 10
-1.567393700787402
 20
3.340547244094488
 30
0.0
 10
-1.567393700787402
 20
3.340547244094488
 30
0.0
 10
-1.567393700787402
 20
3.340547244094488
 30
0.0
 10
-1.567393700787402
 20
3.340547244094488
 30
0.0
 10
-1.543669291338583
 20
3.347283464566929
 30
0.0
 10
-1.543669291338583
 20
3.347283464566929
 30
0.0
 10
-1.543669291338583
 20
3.347283464566929
 30
0.0
 10
-1.543669291338583
 20
3.347283464566929
 30
0.0
 10
-1.519484251968504
 20
3.352870078740158
 30
0.0
 10
-1.519484251968504
 20
3.352870078740158
 30
0.0
 10
-1.519484251968504
 20
3.352870078740158
 30
0.0
 10
-1.519484251968504
 20
3.352870078740158
 30
0.0
 10
-1.49486220472441
 20
3.357263779527559
 30
0.0
 10
-1.49486220472441
 20
3.357263779527559
 30
0.0
 10
-1.49486220472441
 20
3.357263779527559
 30
0.0
 10
-1.49486220472441
 20
3.357263779527559
 30
0.0
 10
-1.469846456692914
 20
3.360448818897638
 30
0.0
 10
-1.469846456692914
 20
3.360448818897638
 30
0.0
 10
-1.469846456692914
 20
3.360448818897638
 30
0.0
 10
-1.469846456692914
 20
3.360448818897638
 30
0.0
 10
-1.444456692913386
 20
3.36238188976378
 30
0.0
 10
-1.444456692913386
 20
3.36238188976378
 30
0.0
 10
-1.444456692913386
 20
3.36238188976378
 30
0.0
 10
-1.444456692913386
 20
3.36238188976378
 30
0.0
 10
-1.418736220472441
 20
3.363035433070866
 30
0.0
 10
-1.418736220472441
 20
3.363035433070866
 30
0.0
  0
SPLINE
  5
50
330
1F
100
AcDbEntity
  8
LAYER_1
 62
     7
100
AcDbSpline
210
0.0
220
0.0
230
1.0
 70
    11
 71
     3
 72
    40
 73
    36
 74
     0
 42
0.0000000001
 43
0.0000000001
 40
0.0
 40
0.0
 40
0.0
 40
0.0
 40
0.1111111111111111
 40
0.1111111111111111
 40
0.1111111111111111
 40
0.1111111111111111
 40
0.2222222222222222
 40
0.2222222222222222
 40
0.2222222222222222
 40
0.2222222222222222
 40
0.3333333333333333
 40
0.3333333333333333
 40
0.3333333333333333
 40
0.3333333333333333
 40
0.4444444444444444
 40
0.4444444444444444
 40
0.4444444444444444
 40
0.4444444444444444
 40
0.5555555555555556
 40
0.5555555555555556
 40
0.5555555555555556
 40
0.5555555555555556
 40
0.6666666666666667
 40
0.6666666666666667
 40
0.6666666666666667
 40
0.6666666666666667
 40
0.7777777777777779
 40
0.7777777777777779
 40
0.7777777777777779
 40
0.7777777777777779
 40
0.8888888888888891
 40
0.8888888888888891
 40
0.8888888888888891
 40
0.8888888888888891
 40
1.0
 40
1.0
 40
1.0
 40
1.0
 10
1.831263779527559
 20
2.363035433070866
 30
0.0
 10
1.831263779527559
 20
2.363035433070866
 30
0.0
 10
1.831263779527559
 20
2.488035433070866
 30
0.0
 10
1.831263779527559
 20
2.488035433070866
 30
0.0
 10
1.831263779527559
 20
2.488035433070866
 30
0.0
 10
1.831263779527559
 20
2.488035433070866
 30
0.0
 10
2.018763779527559
 20
2.514779527559055
 30
0.0
 10
2.018763779527559
 20
2.514779527559055
 30
0.0
 10
2.018763779527559
 20
2.514779527559055
 30
0.0
 10
2.018763779527559
 20
2.514779527559055
 30
0.0
 10
2.018763779527559
 20
2.774535433070866
 30
0.0
 10
2.018763779527559
 20
2.774535433070866
 30
0.0
 10
2.018763779527559
 20
2.774535433070866
 30
0.0
 10
2.018763779527559
 20
2.774535433070866
 30
0.0
 10
1.831263779527559
 20
2.801279527559055
 30
0.0
 10
1.831263779527559
 20
2.801279527559055
 30
0.0
 10
1.831263779527559
 20
2.801279527559055
 30
0.0
 10
1.831263779527559
 20
2.801279527559055
 30
0.0
 10
1.831263779527559
 20
3.363035433070866
 30
0.0
 10
1.831263779527559
 20
3.363035433070866
 30
0.0
 10
1.831263779527559
 20
3.363035433070866
 30
0.0
 10
1.831263779527559
 20
3.363035433070866
 30
0.0
 10
-1.418736220472441
 20
3.363035433070866
 30
0.0
 10
-1.418736220472441
 20
3.363035433070866
 30
0.0
 10
-1.418736220472441
 20
3.363035433070866
 30
0.0
 10
-1.694834645669291
 20
3.363035433070866
 30
0.0
 10
-1.918736220472441
 20
3.139133858267717
 30
0.0
 10
-1.918736220472441
 20
2.863035433070866
 30
0.0
 10
-1.918736220472441
 20
2.863035433070866
 30
0.0
 10
-1.918736220472441
 20
2.586937007874016
 30
0.0
 10
-1.694834645669291
 20
2.363035433070866
 30
0.0
 10
-1.418736220472441
 20
2.363035433070866
 30
0.0
 10
-1.418736220472441
 20
2.363035433070866
 30
0.0
 10
-1.418736220472441
 20
2.363035433070866
 30
0.0
 10
1.831263779527559
 20
2.363035433070866
 30
0.0
 10
1.831263779527559
 20
2.363035433070866
 30
0.0
  0
SPLINE
  5
51
330
1F
100
AcDbEntity
  8
LAYER_1
 62
   250
100
AcDbSpline
210
0.0
220
0.0
230
1.0
 70
    11
 71
     3
 72
   104
 73
   100
 74
     0
 42
0.0000000001
 43
0.0000000001
 40
0.0
 40
0.0
 40
0.0
 40
0.0
 40
0.04
 40
0.04
 40
0.04
 40
0.04
 40
0.08
 40
0.08
 40
0.08
 40
0.08
 40
0.12
 40
0.12
 40
0.12
 40
0.12
 40
0.16
 40
0.16
 40
0.16
 40
0.16
 40
0.2
 40
0.2
 40
0.2
 40
0.2
 40
0.24
 40
0.24
 40
0.24
 40
0.24
 40
0.28
 40
0.28
 40
0.28
 40
0.28
 40
0.32
 40
0.32
 40
0.32
 40
0.32
 40
0.36
 40
0.36
 40
0.36
 40
0.36
 40
0.4
 40
0.4
 40
0.4
 40
0.4
 40
0.44
 40
0.44
 40
0.44
 40
0.44
 40
0.4799999999999999
 40
0.4799999999999999
 40
0.4799999999999999
 40
0.4799999999999999
 40
0.5199999999999999
 40
0.5199999999999999
 40
0.5199999999999999
 40
0.5199999999999999
 40
0.5599999999999999
 40
0.5599999999999999
 40
0.5599999999999999
 40
0.5599999999999999
 40
0.6
 40
0.6
 40
0.6
 40
0.6
 40
0.64
 40
0.64
 40
0.64
 40
0.64
 40
0.6800000000000001
 40
0.6800000000000001
 40
0.6800000000000001
 40
0.6800000000000001
 40
0.7200000000000001
 40
0.7200000000000001
 40
0.7200000000000001
 40
0.7200000000000001
 40
0.7600000000000001
 40
0.7600000000000001
 40
0.7600000000000001
 40
0.7600000000000001
 40
0.8000000000000002
 40
0.8000000000000002
 40
0.8000000000000002
 40
0.8000000000000002
 40
0.8400000000000002
 40
0.8400000000000002
 40
0.8400000000000002
 40
0.8400000000000002
 40
0.8800000000000002
 40
0.8800000000000002
 40
0.8800000000000002
 40
0.8800000000000002
 40
0.9200000000000003
 40
0.9200000000000003
 40
0.9200000000000003
 40
0.9200000000000003
 40
0.9600000000000003
 40
0.9600000000000003
 40
0.9600000000000003
 40
0.9600000000000003
 40
1.0
 40
1.0
 40
1.0
 40
1.0
 10
-0.3686023622047244
 20
0.2667559055118111
 30
0.0
 10
-0.3686023622047244
 20
0.2667559055118111
 30
0.0
 10
-0.3146299212598425
 20
0.2667559055118111
 30
0.0
 10
-0.3146299212598425
 20
0.2667559055118111
 30
0.0
 10
-0.3146299212598425
 20
0.2667559055118111
 30
0.0
 10
-0.3014606299212598
 20
0.2667559055118111
 30
0.0
 10
-0.2924330708661417
 20
0.2661456692913386
 30
0.0
 10
-0.2875472440944882
 20
0.2649488188976378
 30
0.0
 10
-0.2875472440944882
 20
0.2649488188976378
 30
0.0
 10
-0.2803228346456693
 20
0.2632283464566929
 30
0.0
 10
-0.2746299212598425
 20
0.2600905511811024
 30
0.0
 10
-0.2704055118110236
 20
0.2555314960629921
 30
0.0
 10
-0.2704055118110236
 20
0.2555314960629921
 30
0.0
 10
-0.2662125984251968
 20
0.2509763779527559
 30
0.0
 10
-0.2641023622047244
 20
0.2454763779527559
 30
0.0
 10
-0.2641023622047244
 20
0.2390905511811024
 30
0.0
 10
-0.2641023622047244
 20
0.2390905511811024
 30
0.0
 10
-0.2641023622047244
 20
0.2344763779527559
 30
0.0
 10
-0.2652125984251968
 20
0.2303385826771654
 30
0.0
 10
-0.2674330708661418
 20
0.2266732283464567
 30
0.0
 10
-0.2674330708661418
 20
0.2266732283464567
 30
0.0
 10
-0.2696574803149606
 20
0.223003937007874
 30
0.0
 10
-0.2729055118110236
 20
0.2198661417322835
 30
0.0
 10
-0.2771299212598425
 20
0.2172834645669292
 30
0.0
 10
-0.2771299212598425
 20
0.2172834645669292
 30
0.0
 10
-0.2798503937007874
 20
0.2155905511811024
 30
0.0
 10
-0.2835196850393701
 20
0.2141456692913386
 30
0.0
 10
-0.2881850393700788
 20
0.2129488188976378
 30
0.0
 10
-0.2881850393700788
 20
0.2129488188976378
 30
0.0
 10
-0.2822677165354331
 20
0.2118661417322835
 30
0.0
 10
-0.2777677165354331
 20
0.2105629921259843
 30
0.0
 10
-0.2746850393700788
 20
0.2090629921259843
 30
0.0
 10
-0.2746850393700788
 20
0.2090629921259843
 30
0.0
 10
-0.2700196850393701
 20
0.2067834645669291
 30
0.0
 10
-0.2663228346456693
 20
0.2035354330708662
 30
0.0
 10
-0.2636299212598425
 20
0.1992834645669291
 30
0.0
 10
-0.2636299212598425
 20
0.1992834645669291
 30
0.0
 10
-0.2609055118110236
 20
0.1950629921259843
 30
0.0
 10
-0.2595472440944882
 20
0.1902834645669291
 30
0.0
 10
-0.2595472440944882
 20
0.1849763779527559
 30
0.0
 10
-0.2595472440944882
 20
0.1849763779527559
 30
0.0
 10
-0.2595472440944882
 20
0.1798110236220473
 30
0.0
 10
-0.2608779527559055
 20
0.1750354330708661
 30
0.0
 10
-0.2635472440944882
 20
0.1706456692913386
 30
0.0
 10
-0.2635472440944882
 20
0.1706456692913386
 30
0.0
 10
-0.2661850393700788
 20
0.166255905511811
 30
0.0
 10
-0.2699606299212599
 20
0.1626456692913386
 30
0.0
 10
-0.2747952755905512
 20
0.1598110236220472
 30
0.0
 10
-0.2747952755905512
 20
0.1598110236220472
 30
0.0
 10
-0.2796574803149606
 20
0.157007874015748
 30
0.0
 10
-0.2853228346456693
 20
0.1552007874015748
 30
0.0
 10
-0.2917677165354331
 20
0.1543937007874016
 30
0.0
 10
-0.2917677165354331
 20
0.1543937007874016
 30
0.0
 10
-0.298240157480315
 20
0.1536181102362205
 30
0.0
 10
-0.3048779527559055
 20
0.1532283464566929
 30
0.0
 10
-0.3117125984251969
 20
0.1532283464566929
 30
0.0
 10
-0.3117125984251969
 20
0.1532283464566929
 30
0.0
 10
-0.3117125984251969
 20
0.1532283464566929
 30
0.0
 10
-0.3686023622047244
 20
0.1532283464566929
 30
0.0
 10
-0.3686023622047244
 20
0.1532283464566929
 30
0.0
 10
-0.3686023622047244
 20
0.1532283464566929
 30
0.0
 10
-0.3686023622047244
 20
0.1532283464566929
 30
0.0
 10
-0.3686023622047244
 20
0.1600629921259843
 30
0.0
 10
-0.3686023622047244
 20
0.1600629921259843
 30
0.0
 10
-0.3686023622047244
 20
0.1600629921259843
 30
0.0
 10
-0.3686023622047244
 20
0.1600629921259843
 30
0.0
 10
-0.3647677165354331
 20
0.1600629921259843
 30
0.0
 10
-0.3647677165354331
 20
0.1600629921259843
 30
0.0
 10
-0.3647677165354331
 20
0.1600629921259843
 30
0.0
 10
-0.3610708661417323
 20
0.1600629921259843
 30
0.0
 10
-0.3585708661417323
 20
0.1606456692913386
 30
0.0
 10
-0.3572125984251969
 20
0.1617834645669291
 30
0.0
 10
-0.3572125984251969
 20
0.1617834645669291
 30
0.0
 10
-0.355240157480315
 20
0.1633385826771654
 30
0.0
 10
-0.3542677165354331
 20
0.1659488188976378
 30
0.0
 10
-0.3542677165354331
 20
0.1695905511811024
 30
0.0
 10
-0.3542677165354331
 20
0.1695905511811024
 30
0.0
 10
-0.3542677165354331
 20
0.1695905511811024
 30
0.0
 10
-0.3542677165354331
 20
0.2484488188976378
 30
0.0
 10
-0.3542677165354331
 20
0.2484488188976378
 30
0.0
 10
-0.3542677165354331
 20
0.2484488188976378
 30
0.0
 10
-0.3542677165354331
 20
0.2521456692913386
 30
0.0
 10
-0.3545708661417323
 20
0.2546456692913386
 30
0.0
 10
-0.3551574803149606
 20
0.2560039370078741
 30
0.0
 10
-0.3551574803149606
 20
0.2560039370078741
 30
0.0
 10
-0.3557677165354331
 20
0.2573661417322835
 30
0.0
 10
-0.3566574803149606
 20
0.2583385826771654
 30
0.0
 10
-0.3578503937007874
 20
0.2589488188976378
 30
0.0
 10
-0.3578503937007874
 20
0.2589488188976378
 30
0.0
 10
-0.3590433070866142
 20
0.2595314960629921
 30
0.0
 10
-0.3613503937007874
 20
0.2598385826771654
 30
0.0
 10
-0.3647677165354331
 20
0.2598385826771654
 30
0.0
 10
-0.3647677165354331
 20
0.2598385826771654
 30
0.0
 10
-0.3647677165354331
 20
0.2598385826771654
 30
0.0
 10
-0.3686023622047244
 20
0.2598385826771654
 30
0.0
 10
-0.3686023622047244
 20
0.2598385826771654
 30
0.0
 10
-0.3686023622047244
 20
0.2598385826771654
 30
0.0
 10
-0.3686023622047244
 20
0.2598385826771654
 30
0.0
 10
-0.3686023622047244
 20
0.2667559055118111
 30
0.0
 10
-0.3686023622047244
 20
0.2667559055118111
 30
0.0
  0
SPLINE
  5
52
330
1F
100
AcDbEntity
  8
LAYER_1
 62
   250
100
AcDbSpline
210
0.0
220
0.0
230
1.0
 70
    11
 71
     3
 72
    40
 73
    36
 74
     0
 42
0.0000000001
 43
0.0000000001
 40
0.0
 40
0.0
 40
0.0
 40
0.0
 40
0.1111111111111111
 40
0.1111111111111111
 40
0.1111111111111111
 40
0.1111111111111111
 40
0.2222222222222222
 40
0.2222222222222222
 40
0.2222222222222222
 40
0.2222222222222222
 40
0.3333333333333333
 40
0.3333333333333333
 40
0.3333333333333333
 40
0.3333333333333333
 40
0.4444444444444444
 40
0.4444444444444444
 40
0.4444444444444444
 40
0.4444444444444444
 40
0.5555555555555556
 40
0.5555555555555556
 40
0.5555555555555556
 40
0.5555555555555556
 40
0.6666666666666667
 40
0.6666666666666667
 40
0.6666666666666667
 40
0.6666666666666667
 40
0.7777777777777779
 40
0.7777777777777779
 40
0.7777777777777779
 40
0.7777777777777779
 40
0.8888888888888891
 40
0.8888888888888891
 40
0.8888888888888891
 40
0.8888888888888891
 40
1.0
 40
1.0
 40
1.0
 40
1.0
 10
-0.3390433070866142
 20
0.2577283464566929
 30
0.0
 10
-0.3390433070866142
 20
0.2577283464566929
 30
0.0
 10
-0.3390433070866142
 20
0.2161456692913386
 30
0.0
 10
-0.3390433070866142
 20
0.2161456692913386
 30
0.0
 10
-0.3390433070866142
 20
0.2161456692913386
 30
0.0
 10
-0.3390433070866142
 20
0.2161456692913386
 30
0.0
 10
-0.3182952755905512
 20
0.2161456692913386
 30
0.0
 10
-0.3182952755905512
 20
0.2161456692913386
 30
0.0
 10
-0.3182952755905512
 20
0.2161456692913386
 30
0.0
 10
-0.3086023622047244
 20
0.2161456692913386
 30
0.0
 10
-0.3019330708661417
 20
0.2165905511811024
 30
0.0
 10
-0.2983779527559055
 20
0.217503937007874
 30
0.0
 10
-0.2983779527559055
 20
0.217503937007874
 30
0.0
 10
-0.2927677165354331
 20
0.2189763779527559
 30
0.0
 10
-0.2885196850393701
 20
0.2214763779527559
 30
0.0
 10
-0.2855472440944882
 20
0.225003937007874
 30
0.0
 10
-0.2855472440944882
 20
0.225003937007874
 30
0.0
 10
-0.2826023622047244
 20
0.2285314960629921
 30
0.0
 10
-0.2811023622047244
 20
0.2330629921259843
 30
0.0
 10
-0.2811023622047244
 20
0.2385905511811024
 30
0.0
 10
-0.2811023622047244
 20
0.2385905511811024
 30
0.0
 10
-0.2811023622047244
 20
0.243255905511811
 30
0.0
 10
-0.2824606299212599
 20
0.2471456692913386
 30
0.0
 10
-0.2851299212598425
 20
0.2502834645669291
 30
0.0
 10
-0.2851299212598425
 20
0.2502834645669291
 30
0.0
 10
-0.2878228346456693
 20
0.2533937007874016
 30
0.0
 10
-0.2914330708661417
 20
0.2555314960629921
 30
0.0
 10
-0.2959330708661417
 20
0.2566732283464567
 30
0.0
 10
-0.2959330708661417
 20
0.2566732283464567
 30
0.0
 10
-0.2988503937007874
 20
0.2573661417322835
 30
0.0
 10
-0.3049330708661417
 20
0.2577283464566929
 30
0.0
 10
-0.3141574803149607
 20
0.2577283464566929
 30
0.0
 10
-0.3141574803149607
 20
0.2577283464566929
 30
0.0
 10
-0.3141574803149607
 20
0.2577283464566929
 30
0.0
 10
-0.3390433070866142
 20
0.2577283464566929
 30
0.0
 10
-0.3390433070866142
 20
0.2577283464566929
 30
0.0
  0
SPLINE
  5
53
330
1F
100
AcDbEntity
  8
LAYER_1
 62
   250
100
AcDbSpline
210
0.0
220
0.0
230
1.0
 70
    11
 71
     3
 72
    52
 73
    48
 74
     0
 42
0.0000000001
 43
0.0000000001
 40
0.0
 40
0.0
 40
0.0
 40
0.0
 40
0.0833333333333333
 40
0.0833333333333333
 40
0.0833333333333333
 40
0.0833333333333333
 40
0.1666666666666667
 40
0.1666666666666667
 40
0.1666666666666667
 40
0.1666666666666667
 40
0.25
 40
0.25
 40
0.25
 40
0.25
 40
0.3333333333333333
 40
0.3333333333333333
 40
0.3333333333333333
 40
0.3333333333333333
 40
0.4166666666666666
 40
0.4166666666666666
 40
0.4166666666666666
 40
0.4166666666666666
 40
0.4999999999999999
 40
0.4999999999999999
 40
0.4999999999999999
 40
0.4999999999999999
 40
0.5833333333333333
 40
0.5833333333333333
 40
0.5833333333333333
 40
0.5833333333333333
 40
0.6666666666666666
 40
0.6666666666666666
 40
0.6666666666666666
 40
0.6666666666666666
 40
0.75
 40
0.75
 40
0.75
 40
0.75
 40
0.8333333333333334
 40
0.8333333333333334
 40
0.8333333333333334
 40
0.8333333333333334
 40
0.9166666666666667
 40
0.9166666666666667
 40
0.9166666666666667
 40
0.9166666666666667
 40
1.0
 40
1.0
 40
1.0
 40
1.0
 10
-0.3390433070866142
 20
0.2083110236220473
 30
0.0
 10
-0.3390433070866142
 20
0.2083110236220473
 30
0.0
 10
-0.3390433070866142
 20
0.1710629921259843
 30
0.0
 10
-0.3390433070866142
 20
0.1710629921259843
 30
0.0
 10
-0.3390433070866142
 20
0.1710629921259843
 30
0.0
 10
-0.3390433070866142
 20
0.1673110236220473
 30
0.0
 10
-0.3388779527559055
 20
0.1650905511811024
 30
0.0
 10
-0.3385748031496063
 20
0.1643661417322835
 30
0.0
 10
-0.3385748031496063
 20
0.1643661417322835
 30
0.0
 10
-0.3381299212598425
 20
0.1633937007874016
 30
0.0
 10
-0.3372677165354331
 20
0.1627283464566929
 30
0.0
 10
-0.3359606299212599
 20
0.1623385826771654
 30
0.0
 10
-0.3359606299212599
 20
0.1623385826771654
 30
0.0
 10
-0.3350433070866142
 20
0.1620629921259843
 30
0.0
 10
-0.3324330708661418
 20
0.1619212598425197
 30
0.0
 10
-0.3281574803149607
 20
0.1619212598425197
 30
0.0
 10
-0.3281574803149607
 20
0.1619212598425197
 30
0.0
 10
-0.3281574803149607
 20
0.1619212598425197
 30
0.0
 10
-0.3170748031496063
 20
0.1619212598425197
 30
0.0
 10
-0.3170748031496063
 20
0.1619212598425197
 30
0.0
 10
-0.3170748031496063
 20
0.1619212598425197
 30
0.0
 10
-0.3061299212598425
 20
0.1619212598425197
 30
0.0
 10
-0.2982952755905512
 20
0.1625354330708662
 30
0.0
 10
-0.2936023622047244
 20
0.163755905511811
 30
0.0
 10
-0.2936023622047244
 20
0.163755905511811
 30
0.0
 10
-0.2889055118110236
 20
0.1649763779527559
 30
0.0
 10
-0.2849055118110236
 20
0.1675629921259842
 30
0.0
 10
-0.2816023622047244
 20
0.1715078740157481
 30
0.0
 10
-0.2816023622047244
 20
0.1715078740157481
 30
0.0
 10
-0.2782952755905512
 20
0.1754212598425197
 30
0.0
 10
-0.2766299212598425
 20
0.1801732283464567
 30
0.0
 10
-0.2766299212598425
 20
0.1857007874015748
 30
0.0
 10
-0.2766299212598425
 20
0.1857007874015748
 30
0.0
 10
-0.2766299212598425
 20
0.1903661417322835
 30
0.0
 10
-0.277988188976378
 20
0.194503937007874
 30
0.0
 10
-0.2806574803149606
 20
0.1981181102362205
 30
0.0
 10
-0.2806574803149606
 20
0.1981181102362205
 30
0.0
 10
-0.2833503937007874
 20
0.2017283464566929
 30
0.0
 10
-0.2870748031496063
 20
0.2043110236220473
 30
0.0
 10
-0.2918228346456693
 20
0.2059212598425197
 30
0.0
 10
-0.2918228346456693
 20
0.2059212598425197
 30
0.0
 10
-0.2965748031496063
 20
0.2075354330708661
 30
0.0
 10
-0.304988188976378
 20
0.2083110236220473
 30
0.0
 10
-0.3170748031496063
 20
0.2083110236220473
 30
0.0
 10
-0.3170748031496063
 20
0.2083110236220473
 30
0.0
 10
-0.3170748031496063
 20
0.2083110236220473
 30
0.0
 10
-0.3390433070866142
 20
0.2083110236220473
 30
0.0
 10
-0.3390433070866142
 20
0.2083110236220473
 30
0.0
  0
SPLINE
  5
54
330
1F
100
AcDbEntity
  8
LAYER_1
 62
   250
100
AcDbSpline
210
0.0
220
0.0
230
1.0
 70
    11
 71
     3
 72
   112
 73
   108
 74
     0
 42
0.0000000001
 43
0.0000000001
 40
0.0
 40
0.0
 40
0.0
 40
0.0
 40
0.037037037037037
 40
0.037037037037037
 40
0.037037037037037
 40
0.037037037037037
 40
0.0740740740740741
 40
0.0740740740740741
 40
0.0740740740740741
 40
0.0740740740740741
 40
0.1111111111111111
 40
0.1111111111111111
 40
0.1111111111111111
 40
0.1111111111111111
 40
0.1481481481481481
 40
0.1481481481481481
 40
0.1481481481481481
 40
0.1481481481481481
 40
0.1851851851851852
 40
0.1851851851851852
 40
0.1851851851851852
 40
0.1851851851851852
 40
0.2222222222222222
 40
0.2222222222222222
 40
0.2222222222222222
 40
0.2222222222222222
 40
0.2592592592592592
 40
0.2592592592592592
 40
0.2592592592592592
 40
0.2592592592592592
 40
0.2962962962962963
 40
0.2962962962962963
 40
0.2962962962962963
 40
0.2962962962962963
 40
0.3333333333333333
 40
0.3333333333333333
 40
0.3333333333333333
 40
0.3333333333333333
 40
0.3703703703703704
 40
0.3703703703703704
 40
0.3703703703703704
 40
0.3703703703703704
 40
0.4074074074074074
 40
0.4074074074074074
 40
0.4074074074074074
 40
0.4074074074074074
 40
0.4444444444444444
 40
0.4444444444444444
 40
0.4444444444444444
 40
0.4444444444444444
 40
0.4814814814814815
 40
0.4814814814814815
 40
0.4814814814814815
 40
0.4814814814814815
 40
0.5185185185185185
 40
0.5185185185185185
 40
0.5185185185185185
 40
0.5185185185185185
 40
0.5555555555555556
 40
0.5555555555555556
 40
0.5555555555555556
 40
0.5555555555555556
 40
0.5925925925925926
 40
0.5925925925925926
 40
0.5925925925925926
 40
0.5925925925925926
 40
0.6296296296296295
 40
0.6296296296296295
 40
0.6296296296296295
 40
0.6296296296296295
 40
0.6666666666666665
 40
0.6666666666666665
 40
0.6666666666666665
 40
0.6666666666666665
 40
0.7037037037037035
 40
0.7037037037037035
 40
0.7037037037037035
 40
0.7037037037037035
 40
0.7407407407407405
 40
0.7407407407407405
 40
0.7407407407407405
 40
0.7407407407407405
 40
0.7777777777777775
 40
0.7777777777777775
 40
0.7777777777777775
 40
0.7777777777777775
 40
0.8148148148148144
 40
0.8148148148148144
 40
0.8148148148148144
 40
0.8148148148148144
 40
0.8518518518518514
 40
0.8518518518518514
 40
0.8518518518518514
 40
0.8518518518518514
 40
0.8888888888888884
 40
0.8888888888888884
 40
0.8888888888888884
 40
0.8888888888888884
 40
0.9259259259259254
 40
0.9259259259259254
 40
0.9259259259259254
 40
0.9259259259259254
 40
0.9629629629629624
 40
0.9629629629629624
 40
0.9629629629629624
 40
0.9629629629629624
 40
1.0
 40
1.0
 40
1.0
 40
1.0
 10
-0.2019370078740158
 20
0.2667559055118111
 30
0.0
 10
-0.2019370078740158
 20
0.2667559055118111
 30
0.0
 10
-0.1885196850393701
 20
0.2667559055118111
 30
0.0
 10
-0.1885196850393701
 20
0.2667559055118111
 30
0.0
 10
-0.1885196850393701
 20
0.2667559055118111
 30
0.0
 10
-0.1885196850393701
 20
0.2667559055118111
 30
0.0
 10
-0.1532716535433071
 20
0.1718661417322835
 30
0.0
 10
-0.1532716535433071
 20
0.1718661417322835
 30
0.0
 10
-0.1532716535433071
 20
0.1718661417322835
 30
0.0
 10
-0.1515472440944882
 20
0.1670905511811024
 30
0.0
 10
-0.1497992125984252
 20
0.1639212598425197
 30
0.0
 10
-0.1480196850393701
 20
0.1623937007874016
 30
0.0
 10
-0.1480196850393701
 20
0.1623937007874016
 30
0.0
 10
-0.1462716535433071
 20
0.1608385826771654
 30
0.0
 10
-0.1438818897637795
 20
0.1600629921259843
 30
0.0
 10
-0.1409094488188976
 20
0.1600629921259843
 30
0.0
 10
-0.1409094488188976
 20
0.1600629921259843
 30
0.0
 10
-0.1409094488188976
 20
0.1600629921259843
 30
0.0
 10
-0.1391299212598425
 20
0.1600629921259843
 30
0.0
 10
-0.1391299212598425
 20
0.1600629921259843
 30
0.0
 10
-0.1391299212598425
 20
0.1600629921259843
 30
0.0
 10
-0.1391299212598425
 20
0.1600629921259843
 30
0.0
 10
-0.1391299212598425
 20
0.1532283464566929
 30
0.0
 10
-0.1391299212598425
 20
0.1532283464566929
 30
0.0
 10
-0.1391299212598425
 20
0.1532283464566929
 30
0.0
 10
-0.1391299212598425
 20
0.1532283464566929
 30
0.0
 10
-0.1795748031496063
 20
0.1532283464566929
 30
0.0
 10
-0.1795748031496063
 20
0.1532283464566929
 30
0.0
 10
-0.1795748031496063
 20
0.1532283464566929
 30
0.0
 10
-0.1795748031496063
 20
0.1532283464566929
 30
0.0
 10
-0.1795748031496063
 20
0.1600629921259843
 30
0.0
 10
-0.1795748031496063
 20
0.1600629921259843
 30
0.0
 10
-0.1795748031496063
 20
0.1600629921259843
 30
0.0
 10
-0.1782716535433071
 20
0.1601732283464567
 30
0.0
 10
-0.176992125984252
 20
0.1602283464566929
 30
0.0
 10
-0.175740157480315
 20
0.1602283464566929
 30
0.0
 10
-0.175740157480315
 20
0.1602283464566929
 30
0.0
 10
-0.1731299212598425
 20
0.1602283464566929
 30
0.0
 10
-0.1714370078740158
 20
0.160507874015748
 30
0.0
 10
-0.1706023622047244
 20
0.1610354330708662
 30
0.0
 10
-0.1706023622047244
 20
0.1610354330708662
 30
0.0
 10
-0.1690472440944882
 20
0.1620629921259843
 30
0.0
 10
-0.168244094488189
 20
0.1633661417322835
 30
0.0
 10
-0.168244094488189
 20
0.1649488188976378
 30
0.0
 10
-0.168244094488189
 20
0.1649488188976378
 30
0.0
 10
-0.168244094488189
 20
0.1660905511811024
 30
0.0
 10
-0.1690196850393701
 20
0.1688661417322835
 30
0.0
 10
-0.1705196850393701
 20
0.1733385826771654
 30
0.0
 10
-0.1705196850393701
 20
0.1733385826771654
 30
0.0
 10
-0.1705196850393701
 20
0.1733385826771654
 30
0.0
 10
-0.1780196850393701
 20
0.1953110236220473
 30
0.0
 10
-0.1780196850393701
 20
0.1953110236220473
 30
0.0
 10
-0.1780196850393701
 20
0.1953110236220473
 30
0.0
 10
-0.1780196850393701
 20
0.1953110236220473
 30
0.0
 10
-0.2191850393700787
 20
0.1953110236220473
 30
0.0
 10
-0.2191850393700787
 20
0.1953110236220473
 30
0.0
 10
-0.2191850393700787
 20
0.1953110236220473
 30
0.0
 10
-0.2191850393700787
 20
0.1953110236220473
 30
0.0
 10
-0.227992125984252
 20
0.1707283464566929
 30
0.0
 10
-0.227992125984252
 20
0.1707283464566929
 30
0.0
 10
-0.227992125984252
 20
0.1707283464566929
 30
0.0
 10
-0.2289094488188977
 20
0.1681732283464567
 30
0.0
 10
-0.2293818897637796
 20
0.1664212598425197
 30
0.0
 10
-0.2293818897637796
 20
0.1654212598425197
 30
0.0
 10
-0.2293818897637796
 20
0.1654212598425197
 30
0.0
 10
-0.2293818897637796
 20
0.1643385826771654
 30
0.0
 10
-0.2290748031496063
 20
0.1633937007874016
 30
0.0
 10
-0.2285196850393701
 20
0.1625905511811024
 30
0.0
 10
-0.2285196850393701
 20
0.1625905511811024
 30
0.0
 10
-0.2279370078740158
 20
0.1617834645669291
 30
0.0
 10
-0.2271850393700788
 20
0.1611732283464567
 30
0.0
 10
-0.2261850393700788
 20
0.160755905511811
 30
0.0
 10
-0.2261850393700788
 20
0.160755905511811
 30
0.0
 10
-0.2252125984251969
 20
0.1603385826771654
 30
0.0
 10
-0.2236574803149606
 20
0.1601456692913386
 30
0.0
 10
-0.2214645669291339
 20
0.1601456692913386
 30
0.0
 10
-0.2214645669291339
 20
0.1601456692913386
 30
0.0
 10
-0.2200196850393701
 20
0.1601456692913386
 30
0.0
 10
-0.2188267716535433
 20
0.1601181102362205
 30
0.0
 10
-0.2179094488188977
 20
0.1600629921259843
 30
0.0
 10
-0.2179094488188977
 20
0.1600629921259843
 30
0.0
 10
-0.2179094488188977
 20
0.1600629921259843
 30
0.0
 10
-0.2179094488188977
 20
0.1532283464566929
 30
0.0
 10
-0.2179094488188977
 20
0.1532283464566929
 30
0.0
 10
-0.2179094488188977
 20
0.1532283464566929
 30
0.0
 10
-0.2179094488188977
 20
0.1532283464566929
 30
0.0
 10
-0.2518267716535433
 20
0.1532283464566929
 30
0.0
 10
-0.2518267716535433
 20
0.1532283464566929
 30
0.0
 10
-0.2518267716535433
 20
0.1532283464566929
 30
0.0
 10
-0.2518267716535433
 20
0.1532283464566929
 30
0.0
 10
-0.2518267716535433
 20
0.1600629921259843
 30
0.0
 10
-0.2518267716535433
 20
0.1600629921259843
 30
0.0
 10
-0.2518267716535433
 20
0.1600629921259843
 30
0.0
 10
-0.2486850393700787
 20
0.1600629921259843
 30
0.0
 10
-0.2464094488188977
 20
0.1603661417322835
 30
0.0
 10
-0.2450472440944882
 20
0.161007874015748
 30
0.0
 10
-0.2450472440944882
 20
0.161007874015748
 30
0.0
 10
-0.2436574803149607
 20
0.1616181102362205
 30
0.0
 10
-0.2424370078740158
 20
0.1626181102362205
 30
0.0
 10
-0.2414094488188976
 20
0.164007874015748
 30
0.0
 10
-0.2414094488188976
 20
0.164007874015748
 30
0.0
 10
-0.2403818897637795
 20
0.1653937007874016
 30
0.0
 10
-0.2390196850393701
 20
0.1683110236220473
 30
0.0
 10
-0.2373543307086614
 20
0.172755905511811
 30
0.0
 10
-0.2373543307086614
 20
0.172755905511811
 30
0.0
 10
-0.2373543307086614
 20
0.172755905511811
 30
0.0
 10
-0.2019370078740158
 20
0.2667559055118111
 30
0.0
 10
-0.2019370078740158
 20
0.2667559055118111
 30
0.0
  0
SPLINE
  5
55
330
1F
100
AcDbEntity
  8
LAYER_1
 62
   250
100
AcDbSpline
210
0.0
220
0.0
230
1.0
 70
    11
 71
     3
 72
    16
 73
    12
 74
     0
 42
0.0000000001
 43
0.0000000001
 40
0.0
 40
0.0
 40
0.0
 40
0.0
 40
0.3333333333333333
 40
0.3333333333333333
 40
0.3333333333333333
 40
0.3333333333333333
 40
0.6666666666666666
 40
0.6666666666666666
 40
0.6666666666666666
 40
0.6666666666666666
 40
1.0
 40
1.0
 40
1.0
 40
1.0
 10
-0.2161850393700787
 20
0.2032834645669291
 30
0.0
 10
-0.2161850393700787
 20
0.2032834645669291
 30
0.0
 10
-0.1811023622047244
 20
0.2032834645669291
 30
0.0
 10
-0.1811023622047244
 20
0.2032834645669291
 30
0.0
 10
-0.1811023622047244
 20
0.2032834645669291
 30
0.0
 10
-0.1811023622047244
 20
0.2032834645669291
 30
0.0
 10
-0.1986850393700788
 20
0.2521181102362205
 30
0.0
 10
-0.1986850393700788
 20
0.2521181102362205
 30
0.0
 10
-0.1986850393700788
 20
0.2521181102362205
 30
0.0
 10
-0.1986850393700788
 20
0.2521181102362205
 30
0.0
 10
-0.2161850393700787
 20
0.2032834645669291
 30
0.0
 10
-0.2161850393700787
 20
0.2032834645669291
 30
0.0
  0
SPLINE
  5
56
330
1F
100
AcDbEntity
  8
LAYER_1
 62
   250
100
AcDbSpline
210
0.0
220
0.0
230
1.0
 70
    11
 71
     3
 72
    72
 73
    68
 74
     0
 42
0.0000000001
 43
0.0000000001
 40
0.0
 40
0.0
 40
0.0
 40
0.0
 40
0.0588235294117647
 40
0.0588235294117647
 40
0.0588235294117647
 40
0.0588235294117647
 40
0.1176470588235294
 40
0.1176470588235294
 40
0.1176470588235294
 40
0.1176470588235294
 40
0.1764705882352941
 40
0.1764705882352941
 40
0.1764705882352941
 40
0.1764705882352941
 40
0.2352941176470588
 40
0.2352941176470588
 40
0.2352941176470588
 40
0.2352941176470588
 40
0.2941176470588235
 40
0.2941176470588235
 40
0.2941176470588235
 40
0.2941176470588235
 40
0.3529411764705883
 40
0.3529411764705883
 40
0.3529411764705883
 40
0.3529411764705883
 40
0.411764705882353
 40
0.411764705882353
 40
0.411764705882353
 40
0.411764705882353
 40
0.4705882352941177
 40
0.4705882352941177
 40
0.4705882352941177
 40
0.4705882352941177
 40
0.5294117647058824
 40
0.5294117647058824
 40
0.5294117647058824
 40
0.5294117647058824
 40
0.5882352941176471
 40
0.5882352941176471
 40
0.5882352941176471
 40
0.5882352941176471
 40
0.6470588235294118
 40
0.6470588235294118
 40
0.6470588235294118
 40
0.6470588235294118
 40
0.7058823529411765
 40
0.7058823529411765
 40
0.7058823529411765
 40
0.7058823529411765
 40
0.7647058823529412
 40
0.7647058823529412
 40
0.7647058823529412
 40
0.7647058823529412
 40
0.823529411764706
 40
0.823529411764706
 40
0.823529411764706
 40
0.823529411764706
 40
0.8823529411764707
 40
0.8823529411764707
 40
0.8823529411764707
 40
0.8823529411764707
 40
0.9411764705882354
 40
0.9411764705882354
 40
0.9411764705882354
 40
0.9411764705882354
 40
1.0
 40
1.0
 40
1.0
 40
1.0
 10
0.0238976377952756
 20
0.2667559055118111
 30
0.0
 10
0.0238976377952756
 20
0.2667559055118111
 30
0.0
 10
0.0299803149606299
 20
0.2667559055118111
 30
0.0
 10
0.0299803149606299
 20
0.2667559055118111
 30
0.0
 10
0.0299803149606299
 20
0.2667559055118111
 30
0.0
 10
0.0299803149606299
 20
0.2667559055118111
 30
0.0
 10
0.0299803149606299
 20
0.1725078740157481
 30
0.0
 10
0.0299803149606299
 20
0.1725078740157481
 30
0.0
 10
0.0299803149606299
 20
0.1725078740157481
 30
0.0
 10
0.0299803149606299
 20
0.1680629921259843
 30
0.0
 10
0.0302874015748032
 20
0.1652007874015748
 30
0.0
 10
0.0308425196850394
 20
0.1639212598425197
 30
0.0
 10
0.0308425196850394
 20
0.1639212598425197
 30
0.0
 10
0.0314251968503937
 20
0.1626456692913386
 30
0.0
 10
0.0323425196850394
 20
0.1617007874015748
 30
0.0
 10
0.0336456692913386
 20
0.1610354330708662
 30
0.0
 10
0.0336456692913386
 20
0.1610354330708662
 30
0.0
 10
0.0349527559055118
 20
0.1603937007874016
 30
0.0
 10
0.0375354330708661
 20
0.1600629921259843
 30
0.0
 10
0.0413976377952756
 20
0.1600629921259843
 30
0.0
 10
0.0413976377952756
 20
0.1600629921259843
 30
0.0
 10
0.0413976377952756
 20
0.1600629921259843
 30
0.0
 10
0.0493700787401575
 20
0.1600629921259843
 30
0.0
 10
0.0493700787401575
 20
0.1600629921259843
 30
0.0
 10
0.0493700787401575
 20
0.1600629921259843
 30
0.0
 10
0.0493700787401575
 20
0.1600629921259843
 30
0.0
 10
0.0493700787401575
 20
0.1532283464566929
 30
0.0
 10
0.0493700787401575
 20
0.1532283464566929
 30
0.0
 10
0.0493700787401575
 20
0.1532283464566929
 30
0.0
 10
0.0493700787401575
 20
0.1532283464566929
 30
0.0
 10
-0.0042677165354331
 20
0.1532283464566929
 30
0.0
 10
-0.0042677165354331
 20
0.1532283464566929
 30
0.0
 10
-0.0042677165354331
 20
0.1532283464566929
 30
0.0
 10
-0.0042677165354331
 20
0.1532283464566929
 30
0.0
 10
-0.0042677165354331
 20
0.1600629921259843
 30
0.0
 10
-0.0042677165354331
 20
0.1600629921259843
 30
0.0
 10
-0.0042677165354331
 20
0.1600629921259843
 30
0.0
 10
-0.0042677165354331
 20
0.1600629921259843
 30
0.0
 10
0.0045905511811024
 20
0.1600629921259843
 30
0.0
 10
0.0045905511811024
 20
0.1600629921259843
 30
0.0
 10
0.0045905511811024
 20
0.1600629921259843
 30
0.0
 10
0.0084527559055118
 20
0.1600629921259843
 30
0.0
 10
0.011007874015748
 20
0.1603937007874016
 30
0.0
 10
0.0122874015748031
 20
0.1610905511811024
 30
0.0
 10
0.0122874015748031
 20
0.1610905511811024
 30
0.0
 10
0.0135629921259843
 20
0.161755905511811
 30
0.0
 10
0.0145629921259843
 20
0.1628385826771654
 30
0.0
 10
0.015259842519685
 20
0.1643385826771654
 30
0.0
 10
0.015259842519685
 20
0.1643385826771654
 30
0.0
 10
0.0159527559055118
 20
0.1658385826771654
 30
0.0
 10
0.0163149606299213
 20
0.1685629921259843
 30
0.0
 10
0.0163149606299213
 20
0.1725078740157481
 30
0.0
 10
0.0163149606299213
 20
0.1725078740157481
 30
0.0
 10
0.0163149606299213
 20
0.1725078740157481
 30
0.0
 10
0.0163149606299213
 20
0.2499763779527559
 30
0.0
 10
0.0163149606299213
 20
0.2499763779527559
 30
0.0
 10
0.0163149606299213
 20
0.2499763779527559
 30
0.0
 10
0.0163149606299213
 20
0.2499763779527559
 30
0.0
 10
-0.0042677165354331
 20
0.2499763779527559
 30
0.0
 10
-0.0042677165354331
 20
0.2499763779527559
 30
0.0
 10
-0.0042677165354331
 20
0.2499763779527559
 30
0.0
 10
-0.0042677165354331
 20
0.2499763779527559
 30
0.0
 10
-0.0042677165354331
 20
0.2569763779527559
 30
0.0
 10
-0.0042677165354331
 20
0.2569763779527559
 30
0.0
 10
-0.0042677165354331
 20
0.2569763779527559
 30
0.0
 10
0.0069527559055118
 20
0.2585590551181102
 30
0.0
 10
0.0163425196850394
 20
0.2618110236220473
 30
0.0
 10
0.0238976377952756
 20
0.2667559055118111
 30
0.0
  0
SPLINE
  5
57
330
1F
100
AcDbEntity
  8
LAYER_1
 62
   250
100
AcDbSpline
210
0.0
220
0.0
230
1.0
 70
    11
 71
     3
 72
    84
 73
    80
 74
     0
 42
0.0000000001
 43
0.0000000001
 40
0.0
 40
0.0
 40
0.0
 40
0.0
 40
0.05
 40
0.05
 40
0.05
 40
0.05
 40
0.1
 40
0.1
 40
0.1
 40
0.1
 40
0.15
 40
0.15
 40
0.15
 40
0.15
 40
0.2
 40
0.2
 40
0.2
 40
0.2
 40
0.25
 40
0.25
 40
0.25
 40
0.25
 40
0.3
 40
0.3
 40
0.3
 40
0.3
 40
0.35
 40
0.35
 40
0.35
 40
0.35
 40
0.4
 40
0.4
 40
0.4
 40
0.4
 40
0.45
 40
0.45
 40
0.45
 40
0.45
 40
0.4999999999999999
 40
0.4999999999999999
 40
0.4999999999999999
 40
0.4999999999999999
 40
0.5499999999999999
 40
0.5499999999999999
 40
0.5499999999999999
 40
0.5499999999999999
 40
0.6
 40
0.6
 40
0.6
 40
0.6
 40
0.65
 40
0.65
 40
0.65
 40
0.65
 40
0.7000000000000001
 40
0.7000000000000001
 40
0.7000000000000001
 40
0.7000000000000001
 40
0.7500000000000001
 40
0.7500000000000001
 40
0.7500000000000001
 40
0.7500000000000001
 40
0.8000000000000002
 40
0.8000000000000002
 40
0.8000000000000002
 40
0.8000000000000002
 40
0.8500000000000002
 40
0.8500000000000002
 40
0.8500000000000002
 40
0.8500000000000002
 40
0.9000000000000002
 40
0.9000000000000002
 40
0.9000000000000002
 40
0.9000000000000002
 40
0.9500000000000003
 40
0.9500000000000003
 40
0.9500000000000003
 40
0.9500000000000003
 40
1.0
 40
1.0
 40
1.0
 40
1.0
 10
0.1555629921259843
 20
0.2688661417322835
 30
0.0
 10
0.1555629921259843
 20
0.2688661417322835
 30
0.0
 10
0.1555629921259843
 20
0.2614488188976378
 30
0.0
 10
0.1555629921259843
 20
0.2614488188976378
 30
0.0
 10
0.1555629921259843
 20
0.2614488188976378
 30
0.0
 10
0.1421771653543307
 20
0.2613110236220473
 30
0.0
 10
0.1313425196850394
 20
0.2593385826771654
 30
0.0
 10
0.1230669291338583
 20
0.2556181102362205
 30
0.0
 10
0.1230669291338583
 20
0.2556181102362205
 30
0.0
 10
0.1147874015748032
 20
0.2518661417322835
 30
0.0
 10
0.1087047244094488
 20
0.246255905511811
 30
0.0
 10
0.1047874015748032
 20
0.2388110236220473
 30
0.0
 10
0.1047874015748032
 20
0.2388110236220473
 30
0.0
 10
0.1008700787401575
 20
0.2313385826771654
 30
0.0
 10
0.0986771653543307
 20
0.2221456692913386
 30
0.0
 10
0.0982047244094488
 20
0.211255905511811
 30
0.0
 10
0.0982047244094488
 20
0.211255905511811
 30
0.0
 10
0.1009527559055118
 20
0.2154763779527559
 30
0.0
 10
0.1037874015748032
 20
0.2187834645669292
 30
0.0
 10
0.1067047244094488
 20
0.2211456692913386
 30
0.0
 10
0.1067047244094488
 20
0.2211456692913386
 30
0.0
 10
0.1095944881889764
 20
0.223503937007874
 30
0.0
 10
0.1129803149606299
 20
0.2253110236220473
 30
0.0
 10
0.1168700787401575
 20
0.2265905511811024
 30
0.0
 10
0.1168700787401575
 20
0.2265905511811024
 30
0.0
 10
0.120759842519685
 20
0.2278661417322835
 30
0.0
 10
0.125007874015748
 20
0.228503937007874
 30
0.0
 10
0.1296220472440945
 20
0.228503937007874
 30
0.0
 10
0.1296220472440945
 20
0.228503937007874
 30
0.0
 10
0.1369803149606299
 20
0.228503937007874
 30
0.0
 10
0.1435629921259843
 20
0.2268661417322835
 30
0.0
 10
0.1493149606299213
 20
0.2236181102362205
 30
0.0
 10
0.1493149606299213
 20
0.2236181102362205
 30
0.0
 10
0.1550629921259843
 20
0.2203661417322835
 30
0.0
 10
0.1595354330708662
 20
0.2159488188976378
 30
0.0
 10
0.162732283464567
 20
0.2103937007874016
 30
0.0
 10
0.162732283464567
 20
0.2103937007874016
 30
0.0
 10
0.1659251968503937
 20
0.2048385826771654
 30
0.0
 10
0.1675354330708662
 20
0.1982834645669291
 30
0.0
 10
0.1675354330708662
 20
0.190755905511811
 30
0.0
 10
0.1675354330708662
 20
0.190755905511811
 30
0.0
 10
0.1675354330708662
 20
0.178755905511811
 30
0.0
 10
0.1639251968503937
 20
0.1693385826771654
 30
0.0
 10
0.1567047244094488
 20
0.162507874015748
 30
0.0
 10
0.1567047244094488
 20
0.162507874015748
 30
0.0
 10
0.1487322834645669
 20
0.155007874015748
 30
0.0
 10
0.1383976377952756
 20
0.1512834645669292
 30
0.0
 10
0.1257047244094488
 20
0.1512834645669292
 30
0.0
 10
0.1257047244094488
 20
0.1512834645669292
 30
0.0
 10
0.1165354330708661
 20
0.1512834645669292
 30
0.0
 10
0.1088149606299213
 20
0.1531732283464567
 30
0.0
 10
0.102507874015748
 20
0.1569763779527559
 30
0.0
 10
0.102507874015748
 20
0.1569763779527559
 30
0.0
 10
0.0962047244094488
 20
0.160755905511811
 30
0.0
 10
0.0912047244094488
 20
0.1665629921259843
 30
0.0
 10
0.0874803149606299
 20
0.1743937007874016
 30
0.0
 10
0.0874803149606299
 20
0.1743937007874016
 30
0.0
 10
0.0837874015748031
 20
0.1822007874015748
 30
0.0
 10
0.0819251968503937
 20
0.1918661417322835
 30
0.0
 10
0.0819251968503937
 20
0.2033661417322835
 30
0.0
 10
0.0819251968503937
 20
0.2033661417322835
 30
0.0
 10
0.0819251968503937
 20
0.2149212598425197
 30
0.0
 10
0.0838976377952756
 20
0.2251732283464567
 30
0.0
 10
0.0878149606299213
 20
0.2341181102362205
 30
0.0
 10
0.0878149606299213
 20
0.2341181102362205
 30
0.0
 10
0.091759842519685
 20
0.2430590551181102
 30
0.0
 10
0.0972047244094488
 20
0.250255905511811
 30
0.0
 10
0.1041496062992126
 20
0.2556732283464567
 30
0.0
 10
0.1041496062992126
 20
0.2556732283464567
 30
0.0
 10
0.1110944881889764
 20
0.2611181102362205
 30
0.0
 10
0.1187047244094488
 20
0.2646732283464567
 30
0.0
 10
0.1269527559055118
 20
0.2663385826771654
 30
0.0
 10
0.1269527559055118
 20
0.2663385826771654
 30
0.0
 10
0.1352322834645669
 20
0.2680314960629922
 30
0.0
 10
0.1426496062992126
 20
0.2688661417322835
 30
0.0
 10
0.1492322834645669
 20
0.2688661417322835
 30
0.0
 10
0.1492322834645669
 20
0.2688661417322835
 30
0.0
 10
0.1492322834645669
 20
0.2688661417322835
 30
0.0
 10
0.1555629921259843
 20
0.2688661417322835
 30
0.0
 10
0.1555629921259843
 20
0.2688661417322835
 30
0.0
  0
SPLINE
  5
58
330
1F
100
AcDbEntity
  8
LAYER_1
 62
   250
100
AcDbSpline
210
0.0
220
0.0
230
1.0
 70
    11
 71
     3
 72
    40
 73
    36
 74
     0
 42
0.0000000001
 43
0.0000000001
 40
0.0
 40
0.0
 40
0.0
 40
0.0
 40
0.1111111111111111
 40
0.1111111111111111
 40
0.1111111111111111
 40
0.1111111111111111
 40
0.2222222222222222
 40
0.2222222222222222
 40
0.2222222222222222
 40
0.2222222222222222
 40
0.3333333333333333
 40
0.3333333333333333
 40
0.3333333333333333
 40
0.3333333333333333
 40
0.4444444444444444
 40
0.4444444444444444
 40
0.4444444444444444
 40
0.4444444444444444
 40
0.5555555555555556
 40
0.5555555555555556
 40
0.5555555555555556
 40
0.5555555555555556
 40
0.6666666666666667
 40
0.6666666666666667
 40
0.6666666666666667
 40
0.6666666666666667
 40
0.7777777777777779
 40
0.7777777777777779
 40
0.7777777777777779
 40
0.7777777777777779
 40
0.8888888888888891
 40
0.8888888888888891
 40
0.8888888888888891
 40
0.8888888888888891
 40
1.0
 40
1.0
 40
1.0
 40
1.0
 10
0.1258700787401575
 20
0.2198661417322835
 30
0.0
 10
0.1180669291338583
 20
0.2198661417322835
 30
0.0
 10
0.1116496062992126
 20
0.2169212598425197
 30
0.0
 10
0.1066220472440945
 20
0.211003937007874
 30
0.0
 10
0.1066220472440945
 20
0.211003937007874
 30
0.0
 10
0.1015944881889764
 20
0.2050905511811024
 30
0.0
 10
0.0990944881889764
 20
0.1979763779527559
 30
0.0
 10
0.0990944881889764
 20
0.1897007874015748
 30
0.0
 10
0.0990944881889764
 20
0.1897007874015748
 30
0.0
 10
0.0990944881889764
 20
0.1838385826771654
 30
0.0
 10
0.1003149606299213
 20
0.1784212598425197
 30
0.0
 10
0.1027598425196851
 20
0.1734488188976378
 30
0.0
 10
0.1027598425196851
 20
0.1734488188976378
 30
0.0
 10
0.1052047244094488
 20
0.1684763779527559
 30
0.0
 10
0.1083425196850394
 20
0.1648110236220473
 30
0.0
 10
0.1122047244094488
 20
0.1623937007874016
 30
0.0
 10
0.1122047244094488
 20
0.1623937007874016
 30
0.0
 10
0.1160354330708661
 20
0.1599763779527559
 30
0.0
 10
0.1203976377952756
 20
0.158755905511811
 30
0.0
 10
0.1252047244094488
 20
0.158755905511811
 30
0.0
 10
0.1252047244094488
 20
0.158755905511811
 30
0.0
 10
0.1327047244094488
 20
0.158755905511811
 30
0.0
 10
0.1389251968503937
 20
0.1615905511811024
 30
0.0
 10
0.1438976377952756
 20
0.167255905511811
 30
0.0
 10
0.1438976377952756
 20
0.167255905511811
 30
0.0
 10
0.1488425196850394
 20
0.1729212598425197
 30
0.0
 10
0.1513425196850394
 20
0.1805354330708661
 30
0.0
 10
0.1513425196850394
 20
0.1900905511811024
 30
0.0
 10
0.1513425196850394
 20
0.1900905511811024
 30
0.0
 10
0.1513425196850394
 20
0.1992007874015748
 30
0.0
 10
0.1489251968503937
 20
0.2064488188976378
 30
0.0
 10
0.1440944881889764
 20
0.2118110236220473
 30
0.0
 10
0.1440944881889764
 20
0.2118110236220473
 30
0.0
 10
0.139259842519685
 20
0.2172007874015748
 30
0.0
 10
0.1331771653543307
 20
0.2198661417322835
 30
0.0
 10
0.1258700787401575
 20
0.2198661417322835
 30
0.0
  0
SPLINE
  5
59
330
1F
100
AcDbEntity
  8
LAYER_1
 62
   250
100
AcDbSpline
210
0.0
220
0.0
230
1.0
 70
    11
 71
     3
 72
    80
 73
    76
 74
     0
 42
0.0000000001
 43
0.0000000001
 40
0.0
 40
0.0
 40
0.0
 40
0.0
 40
0.0526315789473684
 40
0.0526315789473684
 40
0.0526315789473684
 40
0.0526315789473684
 40
0.1052631578947368
 40
0.1052631578947368
 40
0.1052631578947368
 40
0.1052631578947368
 40
0.1578947368421053
 40
0.1578947368421053
 40
0.1578947368421053
 40
0.1578947368421053
 40
0.2105263157894737
 40
0.2105263157894737
 40
0.2105263157894737
 40
0.2105263157894737
 40
0.2631578947368421
 40
0.2631578947368421
 40
0.2631578947368421
 40
0.2631578947368421
 40
0.3157894736842105
 40
0.3157894736842105
 40
0.3157894736842105
 40
0.3157894736842105
 40
0.3684210526315789
 40
0.3684210526315789
 40
0.3684210526315789
 40
0.3684210526315789
 40
0.4210526315789474
 40
0.4210526315789474
 40
0.4210526315789474
 40
0.4210526315789474
 40
0.4736842105263158
 40
0.4736842105263158
 40
0.4736842105263158
 40
0.4736842105263158
 40
0.5263157894736842
 40
0.5263157894736842
 40
0.5263157894736842
 40
0.5263157894736842
 40
0.5789473684210527
 40
0.5789473684210527
 40
0.5789473684210527
 40
0.5789473684210527
 40
0.631578947368421
 40
0.631578947368421
 40
0.631578947368421
 40
0.631578947368421
 40
0.6842105263157894
 40
0.6842105263157894
 40
0.6842105263157894
 40
0.6842105263157894
 40
0.7368421052631577
 40
0.7368421052631577
 40
0.7368421052631577
 40
0.7368421052631577
 40
0.7894736842105261
 40
0.7894736842105261
 40
0.7894736842105261
 40
0.7894736842105261
 40
0.8421052631578945
 40
0.8421052631578945
 40
0.8421052631578945
 40
0.8421052631578945
 40
0.8947368421052628
 40
0.8947368421052628
 40
0.8947368421052628
 40
0.8947368421052628
 40
0.9473684210526312
 40
0.9473684210526312
 40
0.9473684210526312
 40
0.9473684210526312
 40
1.0
 40
1.0
 40
1.0
 40
1.0
 10
0.1926771653543307
 20
0.2708937007874016
 30
0.0
 10
0.1926771653543307
 20
0.2708937007874016
 30
0.0
 10
0.1980669291338583
 20
0.2708937007874016
 30
0.0
 10
0.1980669291338583
 20
0.2708937007874016
 30
0.0
 10
0.1980669291338583
 20
0.2708937007874016
 30
0.0
 10
0.1980669291338583
 20
0.2708937007874016
 30
0.0
 10
0.1990393700787402
 20
0.2667559055118111
 30
0.0
 10
0.1990393700787402
 20
0.2667559055118111
 30
0.0
 10
0.1990393700787402
 20
0.2667559055118111
 30
0.0
 10
0.1990393700787402
 20
0.2667559055118111
 30
0.0
 10
0.2701496062992126
 20
0.2667559055118111
 30
0.0
 10
0.2701496062992126
 20
0.2667559055118111
 30
0.0
 10
0.2701496062992126
 20
0.2667559055118111
 30
0.0
 10
0.2701496062992126
 20
0.2667559055118111
 30
0.0
 10
0.2701496062992126
 20
0.2598385826771654
 30
0.0
 10
0.2701496062992126
 20
0.2598385826771654
 30
0.0
 10
0.2701496062992126
 20
0.2598385826771654
 30
0.0
 10
0.2616496062992126
 20
0.250003937007874
 30
0.0
 10
0.2539251968503937
 20
0.2388385826771654
 30
0.0
 10
0.2470118110236221
 20
0.2262559055118111
 30
0.0
 10
0.2470118110236221
 20
0.2262559055118111
 30
0.0
 10
0.2400944881889764
 20
0.2137007874015748
 30
0.0
 10
0.2347322834645669
 20
0.2009212598425197
 30
0.0
 10
0.2309251968503937
 20
0.1878937007874016
 30
0.0
 10
0.2309251968503937
 20
0.1878937007874016
 30
0.0
 10
0.2281771653543307
 20
0.178507874015748
 30
0.0
 10
0.2259291338582677
 20
0.1669488188976378
 30
0.0
 10
0.2241771653543307
 20
0.1532283464566929
 30
0.0
 10
0.2241771653543307
 20
0.1532283464566929
 30
0.0
 10
0.2241771653543307
 20
0.1532283464566929
 30
0.0
 10
0.2075118110236221
 20
0.1532283464566929
 30
0.0
 10
0.2075118110236221
 20
0.1532283464566929
 30
0.0
 10
0.2075118110236221
 20
0.1532283464566929
 30
0.0
 10
0.2091220472440945
 20
0.1653385826771654
 30
0.0
 10
0.2117874015748032
 20
0.1766456692913386
 30
0.0
 10
0.2155118110236221
 20
0.1871732283464567
 30
0.0
 10
0.2155118110236221
 20
0.1871732283464567
 30
0.0
 10
0.2192322834645669
 20
0.1977007874015748
 30
0.0
 10
0.2245944881889764
 20
0.2087007874015748
 30
0.0
 10
0.2316220472440945
 20
0.2201732283464567
 30
0.0
 10
0.2316220472440945
 20
0.2201732283464567
 30
0.0
 10
0.2386496062992126
 20
0.2316456692913386
 30
0.0
 10
0.2471771653543307
 20
0.2430905511811024
 30
0.0
 10
0.257232283464567
 20
0.2545314960629921
 30
0.0
 10
0.257232283464567
 20
0.2545314960629921
 30
0.0
 10
0.257232283464567
 20
0.2545314960629921
 30
0.0
 10
0.2065118110236221
 20
0.2545314960629921
 30
0.0
 10
0.2065118110236221
 20
0.2545314960629921
 30
0.0
 10
0.2065118110236221
 20
0.2545314960629921
 30
0.0
 10
0.2028425196850394
 20
0.2545314960629921
 30
0.0
 10
0.2003149606299213
 20
0.2543661417322835
 30
0.0
 10
0.1989566929133858
 20
0.2539763779527559
 30
0.0
 10
0.1989566929133858
 20
0.2539763779527559
 30
0.0
 10
0.1975944881889764
 20
0.2535905511811024
 30
0.0
 10
0.1965393700787402
 20
0.2530039370078741
 30
0.0
 10
0.1957874015748032
 20
0.2522007874015748
 30
0.0
 10
0.1957874015748032
 20
0.2522007874015748
 30
0.0
 10
0.1950118110236221
 20
0.2513661417322835
 30
0.0
 10
0.1943700787401575
 20
0.2499212598425197
 30
0.0
 10
0.1938149606299213
 20
0.2478661417322835
 30
0.0
 10
0.1938149606299213
 20
0.2478661417322835
 30
0.0
 10
0.1938149606299213
 20
0.2478661417322835
 30
0.0
 10
0.1934291338582677
 20
0.2463385826771654
 30
0.0
 10
0.1934291338582677
 20
0.2463385826771654
 30
0.0
 10
0.1934291338582677
 20
0.2463385826771654
 30
0.0
 10
0.1934291338582677
 20
0.2463385826771654
 30
0.0
 10
0.1906496062992126
 20
0.2367283464566929
 30
0.0
 10
0.1906496062992126
 20
0.2367283464566929
 30
0.0
 10
0.1906496062992126
 20
0.2367283464566929
 30
0.0
 10
0.1906496062992126
 20
0.2367283464566929
 30
0.0
 10
0.1837322834645669
 20
0.2382007874015748
 30
0.0
 10
0.1837322834645669
 20
0.2382007874015748
 30
0.0
 10
0.1837322834645669
 20
0.2382007874015748
 30
0.0
 10
0.1837322834645669
 20
0.2382007874015748
 30
0.0
 10
0.1926771653543307
 20
0.2708937007874016
 30
0.0
 10
0.1926771653543307
 20
0.2708937007874016
 30
0.0
  0
SPLINE
  5
5A
330
1F
100
AcDbEntity
  8
LAYER_1
 62
   250
100
AcDbSpline
210
0.0
220
0.0
230
1.0
 70
    11
 71
     3
 72
   172
 73
   168
 74
     0
 42
0.0000000001
 43
0.0000000001
 40
0.0
 40
0.0
 40
0.0
 40
0.0
 40
0.0238095238095238
 40
0.0238095238095238
 40
0.0238095238095238
 40
0.0238095238095238
 40
0.0476190476190476
 40
0.0476190476190476
 40
0.0476190476190476
 40
0.0476190476190476
 40
0.0714285714285714
 40
0.0714285714285714
 40
0.0714285714285714
 40
0.0714285714285714
 40
0.0952380952380952
 40
0.0952380952380952
 40
0.0952380952380952
 40
0.0952380952380952
 40
0.119047619047619
 40
0.119047619047619
 40
0.119047619047619
 40
0.119047619047619
 40
0.1428571428571429
 40
0.1428571428571429
 40
0.1428571428571429
 40
0.1428571428571429
 40
0.1666666666666667
 40
0.1666666666666667
 40
0.1666666666666667
 40
0.1666666666666667
 40
0.1904761904761905
 40
0.1904761904761905
 40
0.1904761904761905
 40
0.1904761904761905
 40
0.2142857142857143
 40
0.2142857142857143
 40
0.2142857142857143
 40
0.2142857142857143
 40
0.2380952380952381
 40
0.2380952380952381
 40
0.2380952380952381
 40
0.2380952380952381
 40
0.2619047619047619
 40
0.2619047619047619
 40
0.2619047619047619
 40
0.2619047619047619
 40
0.2857142857142857
 40
0.2857142857142857
 40
0.2857142857142857
 40
0.2857142857142857
 40
0.3095238095238095
 40
0.3095238095238095
 40
0.3095238095238095
 40
0.3095238095238095
 40
0.3333333333333334
 40
0.3333333333333334
 40
0.3333333333333334
 40
0.3333333333333334
 40
0.3571428571428572
 40
0.3571428571428572
 40
0.3571428571428572
 40
0.3571428571428572
 40
0.380952380952381
 40
0.380952380952381
 40
0.380952380952381
 40
0.380952380952381
 40
0.4047619047619049
 40
0.4047619047619049
 40
0.4047619047619049
 40
0.4047619047619049
 40
0.4285714285714287
 40
0.4285714285714287
 40
0.4285714285714287
 40
0.4285714285714287
 40
0.4523809523809526
 40
0.4523809523809526
 40
0.4523809523809526
 40
0.4523809523809526
 40
0.4761904761904764
 40
0.4761904761904764
 40
0.4761904761904764
 40
0.4761904761904764
 40
0.5000000000000002
 40
0.5000000000000002
 40
0.5000000000000002
 40
0.5000000000000002
 40
0.5238095238095241
 40
0.5238095238095241
 40
0.5238095238095241
 40
0.5238095238095241
 40
0.5476190476190479
 40
0.5476190476190479
 40
0.5476190476190479
 40
0.5476190476190479
 40
0.5714285714285717
 40
0.5714285714285717
 40
0.5714285714285717
 40
0.5714285714285717
 40
0.5952380952380956
 40
0.5952380952380956
 40
0.5952380952380956
 40
0.5952380952380956
 40
0.6190476190476194
 40
0.6190476190476194
 40
0.6190476190476194
 40
0.6190476190476194
 40
0.6428571428571432
 40
0.6428571428571432
 40
0.6428571428571432
 40
0.6428571428571432
 40
0.6666666666666671
 40
0.6666666666666671
 40
0.6666666666666671
 40
0.6666666666666671
 40
0.6904761904761909
 40
0.6904761904761909
 40
0.6904761904761909
 40
0.6904761904761909
 40
0.7142857142857148
 40
0.7142857142857148
 40
0.7142857142857148
 40
0.7142857142857148
 40
0.7380952380952386
 40
0.7380952380952386
 40
0.7380952380952386
 40
0.7380952380952386
 40
0.7619047619047624
 40
0.7619047619047624
 40
0.7619047619047624
 40
0.7619047619047624
 40
0.7857142857142863
 40
0.7857142857142863
 40
0.7857142857142863
 40
0.7857142857142863
 40
0.8095238095238101
 40
0.8095238095238101
 40
0.8095238095238101
 40
0.8095238095238101
 40
0.8333333333333339
 40
0.8333333333333339
 40
0.8333333333333339
 40
0.8333333333333339
 40
0.8571428571428578
 40
0.8571428571428578
 40
0.8571428571428578
 40
0.8571428571428578
 40
0.8809523809523816
 40
0.8809523809523816
 40
0.8809523809523816
 40
0.8809523809523816
 40
0.9047619047619054
 40
0.9047619047619054
 40
0.9047619047619054
 40
0.9047619047619054
 40
0.9285714285714293
 40
0.9285714285714293
 40
0.9285714285714293
 40
0.9285714285714293
 40
0.9523809523809531
 40
0.9523809523809531
 40
0.9523809523809531
 40
0.9523809523809531
 40
0.9761904761904769
 40
0.9761904761904769
 40
0.9761904761904769
 40
0.9761904761904769
 40
1.0
 40
1.0
 40
1.0
 40
1.0
 10
0.3000393700787402
 20
0.2363937007874016
 30
0.0
 10
0.3000393700787402
 20
0.2363937007874016
 30
0.0
 10
0.2922322834645669
 20
0.2376181102362205
 30
0.0
 10
0.2922322834645669
 20
0.2376181102362205
 30
0.0
 10
0.2922322834645669
 20
0.2376181102362205
 30
0.0
 10
0.2929291338582677
 20
0.2434763779527559
 30
0.0
 10
0.2944566929133858
 20
0.2483385826771654
 30
0.0
 10
0.2967913385826772
 20
0.2522007874015748
 30
0.0
 10
0.2967913385826772
 20
0.2522007874015748
 30
0.0
 10
0.2998740157480315
 20
0.2573937007874016
 30
0.0
 10
0.3042322834645669
 20
0.2614488188976378
 30
0.0
 10
0.3098740157480315
 20
0.2643385826771654
 30
0.0
 10
0.3098740157480315
 20
0.2643385826771654
 30
0.0
 10
0.3155393700787402
 20
0.2672559055118111
 30
0.0
 10
0.3220118110236221
 20
0.2687007874015748
 30
0.0
 10
0.3293464566929134
 20
0.2687007874015748
 30
0.0
 10
0.3293464566929134
 20
0.2687007874015748
 30
0.0
 10
0.3365393700787402
 20
0.2687007874015748
 30
0.0
 10
0.3429015748031496
 20
0.2674212598425197
 30
0.0
 10
0.3483740157480315
 20
0.2648385826771654
 30
0.0
 10
0.3483740157480315
 20
0.2648385826771654
 30
0.0
 10
0.3538464566929134
 20
0.2622559055118111
 30
0.0
 10
0.357984251968504
 20
0.2588385826771654
 30
0.0
 10
0.3607874015748032
 20
0.2545905511811024
 30
0.0
 10
0.3607874015748032
 20
0.2545905511811024
 30
0.0
 10
0.3635944881889764
 20
0.2503385826771654
 30
0.0
 10
0.3649842519685039
 20
0.2457283464566929
 30
0.0
 10
0.3649842519685039
 20
0.2407834645669292
 30
0.0
 10
0.3649842519685039
 20
0.2407834645669292
 30
0.0
 10
0.3649842519685039
 20
0.2364488188976378
 30
0.0
 10
0.3639291338582678
 20
0.2325629921259843
 30
0.0
 10
0.3618149606299213
 20
0.2291456692913386
 30
0.0
 10
0.3618149606299213
 20
0.2291456692913386
 30
0.0
 10
0.3596771653543307
 20
0.2257283464566929
 30
0.0
 10
0.3565393700787402
 20
0.2226732283464567
 30
0.0
 10
0.3523740157480315
 20
0.2199488188976378
 30
0.0
 10
0.3523740157480315
 20
0.2199488188976378
 30
0.0
 10
0.3494291338582677
 20
0.2180629921259843
 30
0.0
 10
0.3456220472440945
 20
0.2163937007874016
 30
0.0
 10
0.3409015748031496
 20
0.215003937007874
 30
0.0
 10
0.3409015748031496
 20
0.215003937007874
 30
0.0
 10
0.3459291338582677
 20
0.2142834645669292
 30
0.0
 10
0.3500669291338583
 20
0.2131181102362205
 30
0.0
 10
0.3532598425196851
 20
0.211503937007874
 30
0.0
 10
0.3532598425196851
 20
0.211503937007874
 30
0.0
 10
0.3584566929133858
 20
0.2088385826771654
 30
0.0
 10
0.3625669291338583
 20
0.2051732283464567
 30
0.0
 10
0.3655393700787402
 20
0.200503937007874
 30
0.0
 10
0.3655393700787402
 20
0.200503937007874
 30
0.0
 10
0.3685393700787402
 20
0.1958385826771654
 30
0.0
 10
0.3700118110236221
 20
0.1907283464566929
 30
0.0
 10
0.3700118110236221
 20
0.1851181102362205
 30
0.0
 10
0.3700118110236221
 20
0.1851181102362205
 30
0.0
 10
0.3700118110236221
 20
0.1761732283464567
 30
0.0
 10
0.3660944881889764
 20
0.1682834645669291
 30
0.0
 10
0.3582322834645669
 20
0.1614763779527559
 30
0.0
 10
0.3582322834645669
 20
0.1614763779527559
 30
0.0
 10
0.3503464566929134
 20
0.1546732283464567
 30
0.0
 10
0.3401771653543307
 20
0.1512834645669292
 30
0.0
 10
0.3277047244094488
 20
0.1512834645669292
 30
0.0
 10
0.3277047244094488
 20
0.1512834645669292
 30
0.0
 10
0.3154015748031496
 20
0.1512834645669292
 30
0.0
 10
0.3050393700787402
 20
0.1545629921259843
 30
0.0
 10
0.2966220472440945
 20
0.1611181102362205
 30
0.0
 10
0.2966220472440945
 20
0.1611181102362205
 30
0.0
 10
0.2895669291338583
 20
0.1667007874015748
 30
0.0
 10
0.2860393700787401
 20
0.1723385826771654
 30
0.0
 10
0.2860393700787401
 20
0.1779763779527559
 30
0.0
 10
0.2860393700787401
 20
0.1779763779527559
 30
0.0
 10
0.2860393700787401
 20
0.1802007874015748
 30
0.0
 10
0.2867637795275591
 20
0.1820629921259843
 30
0.0
 10
0.2882047244094488
 20
0.1835354330708661
 30
0.0
 10
0.2882047244094488
 20
0.1835354330708661
 30
0.0
 10
0.2896220472440945
 20
0.1850354330708662
 30
0.0
 10
0.2914291338582677
 20
0.1857834645669292
 30
0.0
 10
0.2936220472440945
 20
0.1857834645669292
 30
0.0
 10
0.2936220472440945
 20
0.1857834645669292
 30
0.0
 10
0.295984251968504
 20
0.1857834645669292
 30
0.0
 10
0.2980393700787402
 20
0.1848661417322835
 30
0.0
 10
0.2997047244094488
 20
0.183003937007874
 30
0.0
 10
0.2997047244094488
 20
0.183003937007874
 30
0.0
 10
0.3006220472440945
 20
0.1819763779527559
 30
0.0
 10
0.3017047244094488
 20
0.179507874015748
 30
0.0
 10
0.3028740157480315
 20
0.1756181102362205
 30
0.0
 10
0.3028740157480315
 20
0.1756181102362205
 30
0.0
 10
0.3045669291338583
 20
0.1701181102362205
 30
0.0
 10
0.3074291338582678
 20
0.1659488188976378
 30
0.0
 10
0.3114291338582677
 20
0.1630905511811024
 30
0.0
 10
0.3114291338582677
 20
0.1630905511811024
 30
0.0
 10
0.3154566929133859
 20
0.1602007874015748
 30
0.0
 10
0.3204291338582677
 20
0.158755905511811
 30
0.0
 10
0.3264015748031496
 20
0.158755905511811
 30
0.0
 10
0.3264015748031496
 20
0.158755905511811
 30
0.0
 10
0.331732283464567
 20
0.158755905511811
 30
0.0
 10
0.336484251968504
 20
0.1599212598425197
 30
0.0
 10
0.3406771653543307
 20
0.162255905511811
 30
0.0
 10
0.3406771653543307
 20
0.162255905511811
 30
0.0
 10
0.3449015748031497
 20
0.1645905511811024
 30
0.0
 10
0.3482047244094488
 20
0.1678937007874016
 30
0.0
 10
0.3506496062992126
 20
0.1722007874015748
 30
0.0
 10
0.3506496062992126
 20
0.1722007874015748
 30
0.0
 10
0.3530944881889764
 20
0.1764763779527559
 30
0.0
 10
0.3543188976377953
 20
0.1811732283464567
 30
0.0
 10
0.3543188976377953
 20
0.186255905511811
 30
0.0
 10
0.3543188976377953
 20
0.186255905511811
 30
0.0
 10
0.3543188976377953
 20
0.1903937007874016
 30
0.0
 10
0.3534291338582677
 20
0.1940905511811024
 30
0.0
 10
0.3516771653543308
 20
0.1973661417322835
 30
0.0
 10
0.3516771653543308
 20
0.1973661417322835
 30
0.0
 10
0.3499015748031496
 20
0.2006732283464567
 30
0.0
 10
0.3474015748031496
 20
0.2034488188976378
 30
0.0
 10
0.3441496062992126
 20
0.2057283464566929
 30
0.0
 10
0.3441496062992126
 20
0.2057283464566929
 30
0.0
 10
0.3416496062992126
 20
0.207503937007874
 30
0.0
 10
0.3384566929133858
 20
0.208755905511811
 30
0.0
 10
0.3345944881889764
 20
0.2094488188976378
 30
0.0
 10
0.3345944881889764
 20
0.2094488188976378
 30
0.0
 10
0.3307047244094488
 20
0.2101732283464567
 30
0.0
 10
0.3272047244094488
 20
0.2105314960629921
 30
0.0
 10
0.3241220472440945
 20
0.2105314960629921
 30
0.0
 10
0.3241220472440945
 20
0.2105314960629921
 30
0.0
 10
0.3241220472440945
 20
0.2105314960629921
 30
0.0
 10
0.3165669291338583
 20
0.2105314960629921
 30
0.0
 10
0.3165669291338583
 20
0.2105314960629921
 30
0.0
 10
0.3165669291338583
 20
0.2105314960629921
 30
0.0
 10
0.3165669291338583
 20
0.2105314960629921
 30
0.0
 10
0.3165669291338583
 20
0.2184212598425197
 30
0.0
 10
0.3165669291338583
 20
0.2184212598425197
 30
0.0
 10
0.3165669291338583
 20
0.2184212598425197
 30
0.0
 10
0.3165669291338583
 20
0.2184212598425197
 30
0.0
 10
0.3213740157480315
 20
0.2184212598425197
 30
0.0
 10
0.3213740157480315
 20
0.2184212598425197
 30
0.0
 10
0.3213740157480315
 20
0.2184212598425197
 30
0.0
 10
0.3261220472440945
 20
0.2184212598425197
 30
0.0
 10
0.3306771653543307
 20
0.2189763779527559
 30
0.0
 10
0.3350393700787402
 20
0.2200905511811024
 30
0.0
 10
0.3350393700787402
 20
0.2200905511811024
 30
0.0
 10
0.3393740157480315
 20
0.2212007874015748
 30
0.0
 10
0.3428464566929134
 20
0.2234763779527559
 30
0.0
 10
0.3454566929133858
 20
0.2269488188976378
 30
0.0
 10
0.3454566929133858
 20
0.2269488188976378
 30
0.0
 10
0.3480393700787402
 20
0.2304212598425197
 30
0.0
 10
0.3493464566929134
 20
0.2343661417322835
 30
0.0
 10
0.3493464566929134
 20
0.238755905511811
 30
0.0
 10
0.3493464566929134
 20
0.238755905511811
 30
0.0
 10
0.3493464566929134
 20
0.2425590551181102
 30
0.0
 10
0.3484566929133858
 20
0.2459763779527559
 30
0.0
 10
0.3466220472440945
 20
0.249003937007874
 30
0.0
 10
0.3466220472440945
 20
0.249003937007874
 30
0.0
 10
0.3448188976377953
 20
0.2520590551181102
 30
0.0
 10
0.3421496062992126
 20
0.2544763779527559
 30
0.0
 10
0.3386220472440945
 20
0.256255905511811
 30
0.0
 10
0.3386220472440945
 20
0.256255905511811
 30
0.0
 10
0.3350944881889764
 20
0.2580314960629921
 30
0.0
 10
0.331011811023622
 20
0.2589488188976378
 30
0.0
 10
0.3264015748031496
 20
0.2589488188976378
 30
0.0
 10
0.3264015748031496
 20
0.2589488188976378
 30
0.0
 10
0.3219015748031496
 20
0.2589488188976378
 30
0.0
 10
0.317759842519685
 20
0.2580039370078741
 30
0.0
 10
0.3139842519685039
 20
0.2561732283464567
 30
0.0
 10
0.3139842519685039
 20
0.2561732283464567
 30
0.0
 10
0.3102322834645669
 20
0.2543385826771654
 30
0.0
 10
0.3072047244094489
 20
0.2518661417322835
 30
0.0
 10
0.3049291338582678
 20
0.248755905511811
 30
0.0
 10
0.3049291338582678
 20
0.248755905511811
 30
0.0
 10
0.3026496062992126
 20
0.2456732283464567
 30
0.0
 10
0.3010118110236221
 20
0.2415590551181102
 30
0.0
 10
0.3000393700787402
 20
0.2363937007874016
 30
0.0
  0
SPLINE
  5
5B
330
1F
100
AcDbEntity
  8
LAYER_1
 62
   250
100
AcDbSpline
210
0.0
220
0.0
230
1.0
 70
    11
 71
     3
 72
    72
 73
    68
 74
     0
 42
0.0000000001
 43
0.0000000001
 40
0.0
 40
0.0
 40
0.0
 40
0.0
 40
0.0588235294117647
 40
0.0588235294117647
 40
0.0588235294117647
 40
0.0588235294117647
 40
0.1176470588235294
 40
0.1176470588235294
 40
0.1176470588235294
 40
0.1176470588235294
 40
0.1764705882352941
 40
0.1764705882352941
 40
0.1764705882352941
 40
0.1764705882352941
 40
0.2352941176470588
 40
0.2352941176470588
 40
0.2352941176470588
 40
0.2352941176470588
 40
0.2941176470588235
 40
0.2941176470588235
 40
0.2941176470588235
 40
0.2941176470588235
 40
0.3529411764705883
 40
0.3529411764705883
 40
0.3529411764705883
 40
0.3529411764705883
 40
0.411764705882353
 40
0.411764705882353
 40
0.411764705882353
 40
0.411764705882353
 40
0.4705882352941177
 40
0.4705882352941177
 40
0.4705882352941177
 40
0.4705882352941177
 40
0.5294117647058824
 40
0.5294117647058824
 40
0.5294117647058824
 40
0.5294117647058824
 40
0.5882352941176471
 40
0.5882352941176471
 40
0.5882352941176471
 40
0.5882352941176471
 40
0.6470588235294118
 40
0.6470588235294118
 40
0.6470588235294118
 40
0.6470588235294118
 40
0.7058823529411765
 40
0.7058823529411765
 40
0.7058823529411765
 40
0.7058823529411765
 40
0.7647058823529412
 40
0.7647058823529412
 40
0.7647058823529412
 40
0.7647058823529412
 40
0.823529411764706
 40
0.823529411764706
 40
0.823529411764706
 40
0.823529411764706
 40
0.8823529411764707
 40
0.8823529411764707
 40
0.8823529411764707
 40
0.8823529411764707
 40
0.9411764705882354
 40
0.9411764705882354
 40
0.9411764705882354
 40
0.9411764705882354
 40
1.0
 40
1.0
 40
1.0
 40
1.0
 10
-0.5010314960629921
 20
0.079255905511811
 30
0.0
 10
-0.5010314960629921
 20
0.079255905511811
 30
0.0
 10
-0.4949488188976378
 20
0.079255905511811
 30
0.0
 10
-0.4949488188976378
 20
0.079255905511811
 30
0.0
 10
-0.4949488188976378
 20
0.079255905511811
 30
0.0
 10
-0.4949488188976378
 20
0.079255905511811
 30
0.0
 10
-0.4949488188976378
 20
-0.014992125984252
 30
0.0
 10
-0.4949488188976378
 20
-0.014992125984252
 30
0.0
 10
-0.4949488188976378
 20
-0.014992125984252
 30
0.0
 10
-0.4949488188976378
 20
-0.0194370078740157
 30
0.0
 10
-0.4946417322834646
 20
-0.0222992125984252
 30
0.0
 10
-0.4940866141732284
 20
-0.0235787401574803
 30
0.0
 10
-0.4940866141732284
 20
-0.0235787401574803
 30
0.0
 10
-0.493503937007874
 20
-0.0248543307086614
 30
0.0
 10
-0.4925866141732284
 20
-0.0257992125984252
 30
0.0
 10
-0.4912834645669292
 20
-0.0264645669291339
 30
0.0
 10
-0.4912834645669292
 20
-0.0264645669291339
 30
0.0
 10
-0.489976377952756
 20
-0.0271062992125984
 30
0.0
 10
-0.4873937007874016
 20
-0.0274370078740157
 30
0.0
 10
-0.4835314960629921
 20
-0.0274370078740157
 30
0.0
 10
-0.4835314960629921
 20
-0.0274370078740157
 30
0.0
 10
-0.4835314960629921
 20
-0.0274370078740157
 30
0.0
 10
-0.4755590551181103
 20
-0.0274370078740157
 30
0.0
 10
-0.4755590551181103
 20
-0.0274370078740157
 30
0.0
 10
-0.4755590551181103
 20
-0.0274370078740157
 30
0.0
 10
-0.4755590551181103
 20
-0.0274370078740157
 30
0.0
 10
-0.4755590551181103
 20
-0.0342716535433071
 30
0.0
 10
-0.4755590551181103
 20
-0.0342716535433071
 30
0.0
 10
-0.4755590551181103
 20
-0.0342716535433071
 30
0.0
 10
-0.4755590551181103
 20
-0.0342716535433071
 30
0.0
 10
-0.5291968503937008
 20
-0.0342716535433071
 30
0.0
 10
-0.5291968503937008
 20
-0.0342716535433071
 30
0.0
 10
-0.5291968503937008
 20
-0.0342716535433071
 30
0.0
 10
-0.5291968503937008
 20
-0.0342716535433071
 30
0.0
 10
-0.5291968503937008
 20
-0.0274370078740157
 30
0.0
 10
-0.5291968503937008
 20
-0.0274370078740157
 30
0.0
 10
-0.5291968503937008
 20
-0.0274370078740157
 30
0.0
 10
-0.5291968503937008
 20
-0.0274370078740157
 30
0.0
 10
-0.5203385826771654
 20
-0.0274370078740157
 30
0.0
 10
-0.5203385826771654
 20
-0.0274370078740157
 30
0.0
 10
-0.5203385826771654
 20
-0.0274370078740157
 30
0.0
 10
-0.5164763779527559
 20
-0.0274370078740157
 30
0.0
 10
-0.5139212598425197
 20
-0.0271062992125984
 30
0.0
 10
-0.5126417322834646
 20
-0.0264094488188976
 30
0.0
 10
-0.5126417322834646
 20
-0.0264094488188976
 30
0.0
 10
-0.5113661417322835
 20
-0.025744094488189
 30
0.0
 10
-0.5103661417322835
 20
-0.0246614173228346
 30
0.0
 10
-0.5096692913385827
 20
-0.0231614173228346
 30
0.0
 10
-0.5096692913385827
 20
-0.0231614173228346
 30
0.0
 10
-0.508976377952756
 20
-0.0216614173228346
 30
0.0
 10
-0.5086141732283465
 20
-0.0189370078740157
 30
0.0
 10
-0.5086141732283465
 20
-0.014992125984252
 30
0.0
 10
-0.5086141732283465
 20
-0.014992125984252
 30
0.0
 10
-0.5086141732283465
 20
-0.014992125984252
 30
0.0
 10
-0.5086141732283465
 20
0.0624763779527559
 30
0.0
 10
-0.5086141732283465
 20
0.0624763779527559
 30
0.0
 10
-0.5086141732283465
 20
0.0624763779527559
 30
0.0
 10
-0.5086141732283465
 20
0.0624763779527559
 30
0.0
 10
-0.5291968503937008
 20
0.0624763779527559
 30
0.0
 10
-0.5291968503937008
 20
0.0624763779527559
 30
0.0
 10
-0.5291968503937008
 20
0.0624763779527559
 30
0.0
 10
-0.5291968503937008
 20
0.0624763779527559
 30
0.0
 10
-0.5291968503937008
 20
0.0694763779527559
 30
0.0
 10
-0.5291968503937008
 20
0.0694763779527559
 30
0.0
 10
-0.5291968503937008
 20
0.0694763779527559
 30
0.0
 10
-0.517976377952756
 20
0.0710590551181102
 30
0.0
 10
-0.5085866141732284
 20
0.0743110236220473
 30
0.0
 10
-0.5010314960629921
 20
0.079255905511811
 30
0.0
  0
SPLINE
  5
5C
330
1F
100
AcDbEntity
  8
LAYER_1
 62
   250
100
AcDbSpline
210
0.0
220
0.0
230
1.0
 70
    11
 71
     3
 72
    60
 73
    56
 74
     0
 42
0.0000000001
 43
0.0000000001
 40
0.0
 40
0.0
 40
0.0
 40
0.0
 40
0.0714285714285714
 40
0.0714285714285714
 40
0.0714285714285714
 40
0.0714285714285714
 40
0.1428571428571429
 40
0.1428571428571429
 40
0.1428571428571429
 40
0.1428571428571429
 40
0.2142857142857143
 40
0.2142857142857143
 40
0.2142857142857143
 40
0.2142857142857143
 40
0.2857142857142857
 40
0.2857142857142857
 40
0.2857142857142857
 40
0.2857142857142857
 40
0.3571428571428571
 40
0.3571428571428571
 40
0.3571428571428571
 40
0.3571428571428571
 40
0.4285714285714285
 40
0.4285714285714285
 40
0.4285714285714285
 40
0.4285714285714285
 40
0.4999999999999999
 40
0.4999999999999999
 40
0.4999999999999999
 40
0.4999999999999999
 40
0.5714285714285713
 40
0.5714285714285713
 40
0.5714285714285713
 40
0.5714285714285713
 40
0.6428571428571427
 40
0.6428571428571427
 40
0.6428571428571427
 40
0.6428571428571427
 40
0.7142857142857141
 40
0.7142857142857141
 40
0.7142857142857141
 40
0.7142857142857141
 40
0.7857142857142855
 40
0.7857142857142855
 40
0.7857142857142855
 40
0.7857142857142855
 40
0.8571428571428569
 40
0.8571428571428569
 40
0.8571428571428569
 40
0.8571428571428569
 40
0.9285714285714283
 40
0.9285714285714283
 40
0.9285714285714283
 40
0.9285714285714283
 40
1.0
 40
1.0
 40
1.0
 40
1.0
 10
-0.4435866141732284
 20
0.0371732283464567
 30
0.0
 10
-0.4435866141732284
 20
0.0371732283464567
 30
0.0
 10
-0.4479763779527559
 20
0.0425629921259843
 30
0.0
 10
-0.4479763779527559
 20
0.0425629921259843
 30
0.0
 10
-0.4479763779527559
 20
0.0425629921259843
 30
0.0
 10
-0.4368622047244095
 20
0.0516181102362205
 30
0.0
 10
-0.4312795275590551
 20
0.0591732283464567
 30
0.0
 10
-0.4312795275590551
 20
0.065255905511811
 30
0.0
 10
-0.4312795275590551
 20
0.065255905511811
 30
0.0
 10
-0.4312795275590551
 20
0.0659488188976378
 30
0.0
 10
-0.4313346456692914
 20
0.0668385826771654
 30
0.0
 10
-0.4314488188976378
 20
0.0678661417322835
 30
0.0
 10
-0.4314488188976378
 20
0.0678661417322835
 30
0.0
 10
-0.4323622047244095
 20
0.0674763779527559
 30
0.0
 10
-0.4332795275590551
 20
0.0671732283464567
 30
0.0
 10
-0.4341417322834646
 20
0.0669763779527559
 30
0.0
 10
-0.4341417322834646
 20
0.0669763779527559
 30
0.0
 10
-0.435003937007874
 20
0.066755905511811
 30
0.0
 10
-0.4358070866141732
 20
0.0666456692913386
 30
0.0
 10
-0.4365866141732284
 20
0.0666456692913386
 30
0.0
 10
-0.4365866141732284
 20
0.0666456692913386
 30
0.0
 10
-0.4391968503937008
 20
0.0666456692913386
 30
0.0
 10
-0.4412795275590551
 20
0.0674763779527559
 30
0.0
 10
-0.4428346456692914
 20
0.0691732283464567
 30
0.0
 10
-0.4428346456692914
 20
0.0691732283464567
 30
0.0
 10
-0.4444212598425197
 20
0.0708385826771654
 30
0.0
 10
-0.4451968503937008
 20
0.0729763779527559
 30
0.0
 10
-0.4451968503937008
 20
0.0755905511811024
 30
0.0
 10
-0.4451968503937008
 20
0.0755905511811024
 30
0.0
 10
-0.4451968503937008
 20
0.0781456692913386
 30
0.0
 10
-0.444251968503937
 20
0.0803661417322835
 30
0.0
 10
-0.4423622047244095
 20
0.082255905511811
 30
0.0
 10
-0.4423622047244095
 20
0.082255905511811
 30
0.0
 10
-0.4404488188976378
 20
0.0841732283464567
 30
0.0
 10
-0.4381692913385827
 20
0.0851181102362205
 30
0.0
 10
-0.4355314960629921
 20
0.0851181102362205
 30
0.0
 10
-0.4355314960629921
 20
0.0851181102362205
 30
0.0
 10
-0.4318346456692914
 20
0.0851181102362205
 30
0.0
 10
-0.4286692913385827
 20
0.0836456692913386
 30
0.0
 10
-0.4260314960629921
 20
0.0806732283464567
 30
0.0
 10
-0.4260314960629921
 20
0.0806732283464567
 30
0.0
 10
-0.4234212598425197
 20
0.0777283464566929
 30
0.0
 10
-0.4220866141732284
 20
0.0739212598425197
 30
0.0
 10
-0.4220866141732284
 20
0.069255905511811
 30
0.0
 10
-0.4220866141732284
 20
0.069255905511811
 30
0.0
 10
-0.4220866141732284
 20
0.0662007874015748
 30
0.0
 10
-0.4227244094488189
 20
0.063003937007874
 30
0.0
 10
-0.423976377952756
 20
0.0596732283464567
 30
0.0
 10
-0.423976377952756
 20
0.0596732283464567
 30
0.0
 10
-0.4252244094488189
 20
0.0563385826771654
 30
0.0
 10
-0.4270314960629921
 20
0.053255905511811
 30
0.0
 10
-0.4294212598425197
 20
0.0503937007874016
 30
0.0
 10
-0.4294212598425197
 20
0.0503937007874016
 30
0.0
 10
-0.4318070866141732
 20
0.0475629921259843
 30
0.0
 10
-0.4365314960629921
 20
0.0431456692913386
 30
0.0
 10
-0.4435866141732284
 20
0.0371732283464567
 30
0.0
  0
SPLINE
  5
5D
330
1F
100
AcDbEntity
  8
LAYER_1
 62
   250
100
AcDbSpline
210
0.0
220
0.0
230
1.0
 70
    11
 71
     3
 72
    60
 73
    56
 74
     0
 42
0.0000000001
 43
0.0000000001
 40
0.0
 40
0.0
 40
0.0
 40
0.0
 40
0.0714285714285714
 40
0.0714285714285714
 40
0.0714285714285714
 40
0.0714285714285714
 40
0.1428571428571429
 40
0.1428571428571429
 40
0.1428571428571429
 40
0.1428571428571429
 40
0.2142857142857143
 40
0.2142857142857143
 40
0.2142857142857143
 40
0.2142857142857143
 40
0.2857142857142857
 40
0.2857142857142857
 40
0.2857142857142857
 40
0.2857142857142857
 40
0.3571428571428571
 40
0.3571428571428571
 40
0.3571428571428571
 40
0.3571428571428571
 40
0.4285714285714285
 40
0.4285714285714285
 40
0.4285714285714285
 40
0.4285714285714285
 40
0.4999999999999999
 40
0.4999999999999999
 40
0.4999999999999999
 40
0.4999999999999999
 40
0.5714285714285713
 40
0.5714285714285713
 40
0.5714285714285713
 40
0.5714285714285713
 40
0.6428571428571427
 40
0.6428571428571427
 40
0.6428571428571427
 40
0.6428571428571427
 40
0.7142857142857141
 40
0.7142857142857141
 40
0.7142857142857141
 40
0.7142857142857141
 40
0.7857142857142855
 40
0.7857142857142855
 40
0.7857142857142855
 40
0.7857142857142855
 40
0.8571428571428569
 40
0.8571428571428569
 40
0.8571428571428569
 40
0.8571428571428569
 40
0.9285714285714283
 40
0.9285714285714283
 40
0.9285714285714283
 40
0.9285714285714283
 40
1.0
 40
1.0
 40
1.0
 40
1.0
 10
-0.4145314960629922
 20
0.0371732283464567
 30
0.0
 10
-0.4145314960629922
 20
0.0371732283464567
 30
0.0
 10
-0.4189212598425197
 20
0.0425629921259843
 30
0.0
 10
-0.4189212598425197
 20
0.0425629921259843
 30
0.0
 10
-0.4189212598425197
 20
0.0425629921259843
 30
0.0
 10
-0.4078070866141733
 20
0.0516181102362205
 30
0.0
 10
-0.4022244094488189
 20
0.0591732283464567
 30
0.0
 10
-0.4022244094488189
 20
0.065255905511811
 30
0.0
 10
-0.4022244094488189
 20
0.065255905511811
 30
0.0
 10
-0.4022244094488189
 20
0.0659488188976378
 30
0.0
 10
-0.4022795275590551
 20
0.0668385826771654
 30
0.0
 10
-0.4023937007874016
 20
0.0678661417322835
 30
0.0
 10
-0.4023937007874016
 20
0.0678661417322835
 30
0.0
 10
-0.4033070866141733
 20
0.0674763779527559
 30
0.0
 10
-0.4042244094488189
 20
0.0671732283464567
 30
0.0
 10
-0.4050866141732284
 20
0.0669763779527559
 30
0.0
 10
-0.4050866141732284
 20
0.0669763779527559
 30
0.0
 10
-0.4059488188976378
 20
0.066755905511811
 30
0.0
 10
-0.4067795275590551
 20
0.0666456692913386
 30
0.0
 10
-0.4076141732283465
 20
0.0666456692913386
 30
0.0
 10
-0.4076141732283465
 20
0.0666456692913386
 30
0.0
 10
-0.4101692913385827
 20
0.0666456692913386
 30
0.0
 10
-0.4122244094488189
 20
0.0674763779527559
 30
0.0
 10
-0.4137795275590551
 20
0.0691732283464567
 30
0.0
 10
-0.4137795275590551
 20
0.0691732283464567
 30
0.0
 10
-0.4153622047244095
 20
0.0708385826771654
 30
0.0
 10
-0.4161417322834646
 20
0.0729763779527559
 30
0.0
 10
-0.4161417322834646
 20
0.0755905511811024
 30
0.0
 10
-0.4161417322834646
 20
0.0755905511811024
 30
0.0
 10
-0.4161417322834646
 20
0.0781456692913386
 30
0.0
 10
-0.4151968503937008
 20
0.0803661417322835
 30
0.0
 10
-0.4133070866141733
 20
0.082255905511811
 30
0.0
 10
-0.4133070866141733
 20
0.082255905511811
 30
0.0
 10
-0.4114212598425197
 20
0.0841732283464567
 30
0.0
 10
-0.4091141732283465
 20
0.0851181102362205
 30
0.0
 10
-0.4064763779527559
 20
0.0851181102362205
 30
0.0
 10
-0.4064763779527559
 20
0.0851181102362205
 30
0.0
 10
-0.4027795275590551
 20
0.0851181102362205
 30
0.0
 10
-0.3996141732283465
 20
0.0836456692913386
 30
0.0
 10
-0.3969763779527559
 20
0.0806732283464567
 30
0.0
 10
-0.3969763779527559
 20
0.0806732283464567
 30
0.0
 10
-0.3943661417322835
 20
0.0777283464566929
 30
0.0
 10
-0.3930314960629922
 20
0.0739212598425197
 30
0.0
 10
-0.3930314960629922
 20
0.069255905511811
 30
0.0
 10
-0.3930314960629922
 20
0.069255905511811
 30
0.0
 10
-0.3930314960629922
 20
0.0662007874015748
 30
0.0
 10
-0.3936692913385827
 20
0.063003937007874
 30
0.0
 10
-0.3949212598425197
 20
0.0596732283464567
 30
0.0
 10
-0.3949212598425197
 20
0.0596732283464567
 30
0.0
 10
-0.3961692913385827
 20
0.0563385826771654
 30
0.0
 10
-0.3979763779527559
 20
0.053255905511811
 30
0.0
 10
-0.4003622047244095
 20
0.0503937007874016
 30
0.0
 10
-0.4003622047244095
 20
0.0503937007874016
 30
0.0
 10
-0.402751968503937
 20
0.0475629921259843
 30
0.0
 10
-0.4074763779527559
 20
0.0431456692913386
 30
0.0
 10
-0.4145314960629922
 20
0.0371732283464567
 30
0.0
  0
SPLINE
  5
5E
330
1F
100
AcDbEntity
  8
LAYER_1
 62
   250
100
AcDbSpline
210
0.0
220
0.0
230
1.0
 70
    11
 71
     3
 72
   204
 73
   200
 74
     0
 42
0.0000000001
 43
0.0000000001
 40
0.0
 40
0.0
 40
0.0
 40
0.0
 40
0.02
 40
0.02
 40
0.02
 40
0.02
 40
0.04
 40
0.04
 40
0.04
 40
0.04
 40
0.06
 40
0.06
 40
0.06
 40
0.06
 40
0.08
 40
0.08
 40
0.08
 40
0.08
 40
0.1
 40
0.1
 40
0.1
 40
0.1
 40
0.12
 40
0.12
 40
0.12
 40
0.12
 40
0.14
 40
0.14
 40
0.14
 40
0.14
 40
0.16
 40
0.16
 40
0.16
 40
0.16
 40
0.18
 40
0.18
 40
0.18
 40
0.18
 40
0.2
 40
0.2
 40
0.2
 40
0.2
 40
0.22
 40
0.22
 40
0.22
 40
0.22
 40
0.24
 40
0.24
 40
0.24
 40
0.24
 40
0.26
 40
0.26
 40
0.26
 40
0.26
 40
0.28
 40
0.28
 40
0.28
 40
0.28
 40
0.3
 40
0.3
 40
0.3
 40
0.3
 40
0.32
 40
0.32
 40
0.32
 40
0.32
 40
0.34
 40
0.34
 40
0.34
 40
0.34
 40
0.36
 40
0.36
 40
0.36
 40
0.36
 40
0.3800000000000001
 40
0.3800000000000001
 40
0.3800000000000001
 40
0.3800000000000001
 40
0.4000000000000001
 40
0.4000000000000001
 40
0.4000000000000001
 40
0.4000000000000001
 40
0.4200000000000001
 40
0.4200000000000001
 40
0.4200000000000001
 40
0.4200000000000001
 40
0.4400000000000001
 40
0.4400000000000001
 40
0.4400000000000001
 40
0.4400000000000001
 40
0.4600000000000001
 40
0.4600000000000001
 40
0.4600000000000001
 40
0.4600000000000001
 40
0.4800000000000002
 40
0.4800000000000002
 40
0.4800000000000002
 40
0.4800000000000002
 40
0.5000000000000001
 40
0.5000000000000001
 40
0.5000000000000001
 40
0.5000000000000001
 40
0.5200000000000001
 40
0.5200000000000001
 40
0.5200000000000001
 40
0.5200000000000001
 40
0.5400000000000002
 40
0.5400000000000002
 40
0.5400000000000002
 40
0.5400000000000002
 40
0.5600000000000002
 40
0.5600000000000002
 40
0.5600000000000002
 40
0.5600000000000002
 40
0.5800000000000002
 40
0.5800000000000002
 40
0.5800000000000002
 40
0.5800000000000002
 40
0.6000000000000002
 40
0.6000000000000002
 40
0.6000000000000002
 40
0.6000000000000002
 40
0.6200000000000002
 40
0.6200000000000002
 40
0.6200000000000002
 40
0.6200000000000002
 40
0.6400000000000002
 40
0.6400000000000002
 40
0.6400000000000002
 40
0.6400000000000002
 40
0.6600000000000003
 40
0.6600000000000003
 40
0.6600000000000003
 40
0.6600000000000003
 40
0.6800000000000003
 40
0.6800000000000003
 40
0.6800000000000003
 40
0.6800000000000003
 40
0.7000000000000003
 40
0.7000000000000003
 40
0.7000000000000003
 40
0.7000000000000003
 40
0.7200000000000003
 40
0.7200000000000003
 40
0.7200000000000003
 40
0.7200000000000003
 40
0.7400000000000003
 40
0.7400000000000003
 40
0.7400000000000003
 40
0.7400000000000003
 40
0.7600000000000003
 40
0.7600000000000003
 40
0.7600000000000003
 40
0.7600000000000003
 40
0.7800000000000004
 40
0.7800000000000004
 40
0.7800000000000004
 40
0.7800000000000004
 40
0.8000000000000004
 40
0.8000000000000004
 40
0.8000000000000004
 40
0.8000000000000004
 40
0.8200000000000004
 40
0.8200000000000004
 40
0.8200000000000004
 40
0.8200000000000004
 40
0.8400000000000004
 40
0.8400000000000004
 40
0.8400000000000004
 40
0.8400000000000004
 40
0.8600000000000004
 40
0.8600000000000004
 40
0.8600000000000004
 40
0.8600000000000004
 40
0.8800000000000005
 40
0.8800000000000005
 40
0.8800000000000005
 40
0.8800000000000005
 40
0.9000000000000005
 40
0.9000000000000005
 40
0.9000000000000005
 40
0.9000000000000005
 40
0.9200000000000005
 40
0.9200000000000005
 40
0.9200000000000005
 40
0.9200000000000005
 40
0.9400000000000005
 40
0.9400000000000005
 40
0.9400000000000005
 40
0.9400000000000005
 40
0.9600000000000005
 40
0.9600000000000005
 40
0.9600000000000005
 40
0.9600000000000005
 40
0.9800000000000005
 40
0.9800000000000005
 40
0.9800000000000005
 40
0.9800000000000005
 40
1.0
 40
1.0
 40
1.0
 40
1.0
 10
-0.3307244094488189
 20
0.044255905511811
 30
0.0
 10
-0.3307244094488189
 20
0.044255905511811
 30
0.0
 10
-0.2897795275590551
 20
0.044255905511811
 30
0.0
 10
-0.2897795275590551
 20
0.044255905511811
 30
0.0
 10
-0.2897795275590551
 20
0.044255905511811
 30
0.0
 10
-0.2897795275590551
 20
0.044255905511811
 30
0.0
 10
-0.2897795275590551
 20
0.0374212598425197
 30
0.0
 10
-0.2897795275590551
 20
0.0374212598425197
 30
0.0
 10
-0.2897795275590551
 20
0.0374212598425197
 30
0.0
 10
-0.2897795275590551
 20
0.0374212598425197
 30
0.0
 10
-0.2926141732283465
 20
0.0374212598425197
 30
0.0
 10
-0.2926141732283465
 20
0.0374212598425197
 30
0.0
 10
-0.2926141732283465
 20
0.0374212598425197
 30
0.0
 10
-0.294251968503937
 20
0.0374212598425197
 30
0.0
 10
-0.295751968503937
 20
0.0372283464566929
 30
0.0
 10
-0.2971141732283465
 20
0.0368661417322835
 30
0.0
 10
-0.2971141732283465
 20
0.0368661417322835
 30
0.0
 10
-0.2979173228346457
 20
0.0366456692913386
 30
0.0
 10
-0.2985866141732284
 20
0.0362283464566929
 30
0.0
 10
-0.2990866141732284
 20
0.0355905511811024
 30
0.0
 10
-0.2990866141732284
 20
0.0355905511811024
 30
0.0
 10
-0.2996141732283465
 20
0.0349763779527559
 30
0.0
 10
-0.2998622047244094
 20
0.0343937007874016
 30
0.0
 10
-0.2998622047244094
 20
0.0338385826771654
 30
0.0
 10
-0.2998622047244094
 20
0.0338385826771654
 30
0.0
 10
-0.2998622047244094
 20
0.0325905511811024
 30
0.0
 10
-0.2988346456692914
 20
0.0307283464566929
 30
0.0
 10
-0.2967795275590551
 20
0.0282283464566929
 30
0.0
 10
-0.2967795275590551
 20
0.0282283464566929
 30
0.0
 10
-0.2967795275590551
 20
0.0282283464566929
 30
0.0
 10
-0.2851417322834646
 20
0.0135905511811024
 30
0.0
 10
-0.2851417322834646
 20
0.0135905511811024
 30
0.0
 10
-0.2851417322834646
 20
0.0135905511811024
 30
0.0
 10
-0.2851417322834646
 20
0.0135905511811024
 30
0.0
 10
-0.2715590551181102
 20
0.0282283464566929
 30
0.0
 10
-0.2715590551181102
 20
0.0282283464566929
 30
0.0
 10
-0.2715590551181102
 20
0.0282283464566929
 30
0.0
 10
-0.2690590551181102
 20
0.0309488188976378
 30
0.0
 10
-0.2678070866141732
 20
0.0329763779527559
 30
0.0
 10
-0.2678070866141732
 20
0.0343385826771654
 30
0.0
 10
-0.2678070866141732
 20
0.0343385826771654
 30
0.0
 10
-0.2678070866141732
 20
0.0353110236220472
 30
0.0
 10
-0.268251968503937
 20
0.0360629921259843
 30
0.0
 10
-0.2691141732283465
 20
0.0366181102362205
 30
0.0
 10
-0.2691141732283465
 20
0.0366181102362205
 30
0.0
 10
-0.2699763779527559
 20
0.0371456692913386
 30
0.0
 10
-0.2718346456692913
 20
0.0374212598425197
 30
0.0
 10
-0.2747244094488189
 20
0.0374212598425197
 30
0.0
 10
-0.2747244094488189
 20
0.0374212598425197
 30
0.0
 10
-0.2747244094488189
 20
0.0374212598425197
 30
0.0
 10
-0.2778070866141733
 20
0.0374212598425197
 30
0.0
 10
-0.2778070866141733
 20
0.0374212598425197
 30
0.0
 10
-0.2778070866141733
 20
0.0374212598425197
 30
0.0
 10
-0.2778070866141733
 20
0.0374212598425197
 30
0.0
 10
-0.2778070866141733
 20
0.044255905511811
 30
0.0
 10
-0.2778070866141733
 20
0.044255905511811
 30
0.0
 10
-0.2778070866141733
 20
0.044255905511811
 30
0.0
 10
-0.2778070866141733
 20
0.044255905511811
 30
0.0
 10
-0.2430590551181102
 20
0.044255905511811
 30
0.0
 10
-0.2430590551181102
 20
0.044255905511811
 30
0.0
 10
-0.2430590551181102
 20
0.044255905511811
 30
0.0
 10
-0.2430590551181102
 20
0.044255905511811
 30
0.0
 10
-0.2430590551181102
 20
0.0374212598425197
 30
0.0
 10
-0.2430590551181102
 20
0.0374212598425197
 30
0.0
 10
-0.2430590551181102
 20
0.0374212598425197
 30
0.0
 10
-0.2464763779527559
 20
0.037255905511811
 30
0.0
 10
-0.2494212598425197
 20
0.0365629921259843
 30
0.0
 10
-0.2518897637795275
 20
0.0353110236220472
 30
0.0
 10
-0.2518897637795275
 20
0.0353110236220472
 30
0.0
 10
-0.2543622047244095
 20
0.0340629921259843
 30
0.0
 10
-0.2572795275590551
 20
0.0317007874015748
 30
0.0
 10
-0.2606417322834646
 20
0.0282283464566929
 30
0.0
 10
-0.2606417322834646
 20
0.0282283464566929
 30
0.0
 10
-0.2606417322834646
 20
0.0282283464566929
 30
0.0
 10
-0.2792795275590551
 20
0.0088661417322835
 30
0.0
 10
-0.2792795275590551
 20
0.0088661417322835
 30
0.0
 10
-0.2792795275590551
 20
0.0088661417322835
 30
0.0
 10
-0.2792795275590551
 20
0.0088661417322835
 30
0.0
 10
-0.2560866141732284
 20
-0.0175787401574803
 30
0.0
 10
-0.2560866141732284
 20
-0.0175787401574803
 30
0.0
 10
-0.2560866141732284
 20
-0.0175787401574803
 30
0.0
 10
-0.2560866141732284
 20
-0.0175787401574803
 30
0.0
 10
-0.2551968503937008
 20
-0.0187165354330709
 30
0.0
 10
-0.2551968503937008
 20
-0.0187165354330709
 30
0.0
 10
-0.2551968503937008
 20
-0.0187165354330709
 30
0.0
 10
-0.2529212598425197
 20
-0.0216614173228346
 30
0.0
 10
-0.2503622047244095
 20
-0.0240236220472441
 30
0.0
 10
-0.2475314960629921
 20
-0.0257992125984252
 30
0.0
 10
-0.2475314960629921
 20
-0.0257992125984252
 30
0.0
 10
-0.2459763779527559
 20
-0.0268267716535433
 30
0.0
 10
-0.2435314960629921
 20
-0.0273818897637795
 30
0.0
 10
-0.2402244094488189
 20
-0.0274370078740157
 30
0.0
 10
-0.2402244094488189
 20
-0.0274370078740157
 30
0.0
 10
-0.2402244094488189
 20
-0.0274370078740157
 30
0.0
 10
-0.2402244094488189
 20
-0.0342716535433071
 30
0.0
 10
-0.2402244094488189
 20
-0.0342716535433071
 30
0.0
 10
-0.2402244094488189
 20
-0.0342716535433071
 30
0.0
 10
-0.2402244094488189
 20
-0.0342716535433071
 30
0.0
 10
-0.2801692913385827
 20
-0.0342716535433071
 30
0.0
 10
-0.2801692913385827
 20
-0.0342716535433071
 30
0.0
 10
-0.2801692913385827
 20
-0.0342716535433071
 30
0.0
 10
-0.2801692913385827
 20
-0.0342716535433071
 30
0.0
 10
-0.2801692913385827
 20
-0.0274370078740157
 30
0.0
 10
-0.2801692913385827
 20
-0.0274370078740157
 30
0.0
 10
-0.2801692913385827
 20
-0.0274370078740157
 30
0.0
 10
-0.2801692913385827
 20
-0.0274370078740157
 30
0.0
 10
-0.276751968503937
 20
-0.0274370078740157
 30
0.0
 10
-0.276751968503937
 20
-0.0274370078740157
 30
0.0
 10
-0.276751968503937
 20
-0.0274370078740157
 30
0.0
 10
-0.2741417322834646
 20
-0.0274370078740157
 30
0.0
 10
-0.272503937007874
 20
-0.0272716535433071
 30
0.0
 10
-0.2717795275590551
 20
-0.0269370078740157
 30
0.0
 10
-0.2717795275590551
 20
-0.0269370078740157
 30
0.0
 10
-0.2706141732283465
 20
-0.0264094488188976
 30
0.0
 10
-0.270003937007874
 20
-0.025492125984252
 30
0.0
 10
-0.270003937007874
 20
-0.0241889763779528
 30
0.0
 10
-0.270003937007874
 20
-0.0241889763779528
 30
0.0
 10
-0.270003937007874
 20
-0.022992125984252
 30
0.0
 10
-0.2713070866141732
 20
-0.0207992125984252
 30
0.0
 10
-0.2739212598425197
 20
-0.0175787401574803
 30
0.0
 10
-0.2739212598425197
 20
-0.0175787401574803
 30
0.0
 10
-0.2739212598425197
 20
-0.0175787401574803
 30
0.0
 10
-0.2887244094488189
 20
0.0005629921259843
 30
0.0
 10
-0.2887244094488189
 20
0.0005629921259843
 30
0.0
 10
-0.2887244094488189
 20
0.0005629921259843
 30
0.0
 10
-0.2887244094488189
 20
0.0005629921259843
 30
0.0
 10
-0.305251968503937
 20
-0.0175787401574803
 30
0.0
 10
-0.305251968503937
 20
-0.0175787401574803
 30
0.0
 10
-0.305251968503937
 20
-0.0175787401574803
 30
0.0
 10
-0.305251968503937
 20
-0.0175787401574803
 30
0.0
 10
-0.3068622047244095
 20
-0.0195511811023622
 30
0.0
 10
-0.3068622047244095
 20
-0.0195511811023622
 30
0.0
 10
-0.3068622047244095
 20
-0.0195511811023622
 30
0.0
 10
-0.3068622047244095
 20
-0.0195511811023622
 30
0.0
 10
-0.3077519685039371
 20
-0.0205236220472441
 30
0.0
 10
-0.3077519685039371
 20
-0.0205236220472441
 30
0.0
 10
-0.3077519685039371
 20
-0.0205236220472441
 30
0.0
 10
-0.3091141732283464
 20
-0.021992125984252
 30
0.0
 10
-0.3098070866141732
 20
-0.0232716535433071
 30
0.0
 10
-0.3098070866141732
 20
-0.0244094488188976
 30
0.0
 10
-0.3098070866141732
 20
-0.0244094488188976
 30
0.0
 10
-0.3098070866141732
 20
-0.0254645669291339
 30
0.0
 10
-0.3093897637795276
 20
-0.0262165354330709
 30
0.0
 10
-0.3085314960629921
 20
-0.0267165354330709
 30
0.0
 10
-0.3085314960629921
 20
-0.0267165354330709
 30
0.0
 10
-0.3076968503937008
 20
-0.0271889763779528
 30
0.0
 10
-0.3058070866141732
 20
-0.0274370078740157
 30
0.0
 10
-0.3028897637795276
 20
-0.0274370078740157
 30
0.0
 10
-0.3028897637795276
 20
-0.0274370078740157
 30
0.0
 10
-0.3028897637795276
 20
-0.0274370078740157
 30
0.0
 10
-0.2996141732283465
 20
-0.0274370078740157
 30
0.0
 10
-0.2996141732283465
 20
-0.0274370078740157
 30
0.0
 10
-0.2996141732283465
 20
-0.0274370078740157
 30
0.0
 10
-0.2996141732283465
 20
-0.0274370078740157
 30
0.0
 10
-0.2996141732283465
 20
-0.0342716535433071
 30
0.0
 10
-0.2996141732283465
 20
-0.0342716535433071
 30
0.0
 10
-0.2996141732283465
 20
-0.0342716535433071
 30
0.0
 10
-0.2996141732283465
 20
-0.0342716535433071
 30
0.0
 10
-0.3338897637795276
 20
-0.0342716535433071
 30
0.0
 10
-0.3338897637795276
 20
-0.0342716535433071
 30
0.0
 10
-0.3338897637795276
 20
-0.0342716535433071
 30
0.0
 10
-0.3338897637795276
 20
-0.0342716535433071
 30
0.0
 10
-0.3338897637795276
 20
-0.0274370078740157
 30
0.0
 10
-0.3338897637795276
 20
-0.0274370078740157
 30
0.0
 10
-0.3338897637795276
 20
-0.0274370078740157
 30
0.0
 10
-0.3312244094488189
 20
-0.0273818897637795
 30
0.0
 10
-0.3291417322834646
 20
-0.0271062992125984
 30
0.0
 10
-0.3276141732283465
 20
-0.0265787401574803
 30
0.0
 10
-0.3276141732283465
 20
-0.0265787401574803
 30
0.0
 10
-0.3261141732283465
 20
-0.0260787401574803
 30
0.0
 10
-0.3246417322834646
 20
-0.0252716535433071
 30
0.0
 10
-0.3232244094488189
 20
-0.0241889763779528
 30
0.0
 10
-0.3232244094488189
 20
-0.0241889763779528
 30
0.0
 10
-0.3207795275590551
 20
-0.0222165354330709
 30
0.0
 10
-0.3190314960629921
 20
-0.0206889763779528
 30
0.0
 10
-0.3179448818897638
 20
-0.0195511811023622
 30
0.0
 10
-0.3179448818897638
 20
-0.0195511811023622
 30
0.0
 10
-0.3179448818897638
 20
-0.0195511811023622
 30
0.0
 10
-0.2940866141732283
 20
0.0049488188976378
 30
0.0
 10
-0.2940866141732283
 20
0.0049488188976378
 30
0.0
 10
-0.2940866141732283
 20
0.0049488188976378
 30
0.0
 10
-0.2940866141732283
 20
0.0049488188976378
 30
0.0
 10
-0.3143622047244095
 20
0.0282283464566929
 30
0.0
 10
-0.3143622047244095
 20
0.0282283464566929
 30
0.0
 10
-0.3143622047244095
 20
0.0282283464566929
 30
0.0
 10
-0.3169173228346457
 20
0.0311181102362205
 30
0.0
 10
-0.3189173228346457
 20
0.0331181102362205
 30
0.0
 10
-0.3204173228346457
 20
0.0342834645669291
 30
0.0
 10
-0.3204173228346457
 20
0.0342834645669291
 30
0.0
 10
-0.3219173228346457
 20
0.0354488188976378
 30
0.0
 10
-0.3233622047244095
 20
0.0362834645669291
 30
0.0
 10
-0.3247795275590552
 20
0.0367283464566929
 30
0.0
 10
-0.3247795275590552
 20
0.0367283464566929
 30
0.0
 10
-0.3261968503937008
 20
0.0372007874015748
 30
0.0
 10
-0.3281692913385827
 20
0.0374212598425197
 30
0.0
 10
-0.3307244094488189
 20
0.0374212598425197
 30
0.0
 10
-0.3307244094488189
 20
0.0374212598425197
 30
0.0
 10
-0.3307244094488189
 20
0.0374212598425197
 30
0.0
 10
-0.3307244094488189
 20
0.044255905511811
 30
0.0
 10
-0.3307244094488189
 20
0.044255905511811
 30
0.0
  0
SPLINE
  5
5F
330
1F
100
AcDbEntity
  8
LAYER_1
 62
   250
100
AcDbSpline
210
0.0
220
0.0
230
1.0
 70
    11
 71
     3
 72
   172
 73
   168
 74
     0
 42
0.0000000001
 43
0.0000000001
 40
0.0
 40
0.0
 40
0.0
 40
0.0
 40
0.0238095238095238
 40
0.0238095238095238
 40
0.0238095238095238
 40
0.0238095238095238
 40
0.0476190476190476
 40
0.0476190476190476
 40
0.0476190476190476
 40
0.0476190476190476
 40
0.0714285714285714
 40
0.0714285714285714
 40
0.0714285714285714
 40
0.0714285714285714
 40
0.0952380952380952
 40
0.0952380952380952
 40
0.0952380952380952
 40
0.0952380952380952
 40
0.119047619047619
 40
0.119047619047619
 40
0.119047619047619
 40
0.119047619047619
 40
0.1428571428571429
 40
0.1428571428571429
 40
0.1428571428571429
 40
0.1428571428571429
 40
0.1666666666666667
 40
0.1666666666666667
 40
0.1666666666666667
 40
0.1666666666666667
 40
0.1904761904761905
 40
0.1904761904761905
 40
0.1904761904761905
 40
0.1904761904761905
 40
0.2142857142857143
 40
0.2142857142857143
 40
0.2142857142857143
 40
0.2142857142857143
 40
0.2380952380952381
 40
0.2380952380952381
 40
0.2380952380952381
 40
0.2380952380952381
 40
0.2619047619047619
 40
0.2619047619047619
 40
0.2619047619047619
 40
0.2619047619047619
 40
0.2857142857142857
 40
0.2857142857142857
 40
0.2857142857142857
 40
0.2857142857142857
 40
0.3095238095238095
 40
0.3095238095238095
 40
0.3095238095238095
 40
0.3095238095238095
 40
0.3333333333333334
 40
0.3333333333333334
 40
0.3333333333333334
 40
0.3333333333333334
 40
0.3571428571428572
 40
0.3571428571428572
 40
0.3571428571428572
 40
0.3571428571428572
 40
0.380952380952381
 40
0.380952380952381
 40
0.380952380952381
 40
0.380952380952381
 40
0.4047619047619049
 40
0.4047619047619049
 40
0.4047619047619049
 40
0.4047619047619049
 40
0.4285714285714287
 40
0.4285714285714287
 40
0.4285714285714287
 40
0.4285714285714287
 40
0.4523809523809526
 40
0.4523809523809526
 40
0.4523809523809526
 40
0.4523809523809526
 40
0.4761904761904764
 40
0.4761904761904764
 40
0.4761904761904764
 40
0.4761904761904764
 40
0.5000000000000002
 40
0.5000000000000002
 40
0.5000000000000002
 40
0.5000000000000002
 40
0.5238095238095241
 40
0.5238095238095241
 40
0.5238095238095241
 40
0.5238095238095241
 40
0.5476190476190479
 40
0.5476190476190479
 40
0.5476190476190479
 40
0.5476190476190479
 40
0.5714285714285717
 40
0.5714285714285717
 40
0.5714285714285717
 40
0.5714285714285717
 40
0.5952380952380956
 40
0.5952380952380956
 40
0.5952380952380956
 40
0.5952380952380956
 40
0.6190476190476194
 40
0.6190476190476194
 40
0.6190476190476194
 40
0.6190476190476194
 40
0.6428571428571432
 40
0.6428571428571432
 40
0.6428571428571432
 40
0.6428571428571432
 40
0.6666666666666671
 40
0.6666666666666671
 40
0.6666666666666671
 40
0.6666666666666671
 40
0.6904761904761909
 40
0.6904761904761909
 40
0.6904761904761909
 40
0.6904761904761909
 40
0.7142857142857148
 40
0.7142857142857148
 40
0.7142857142857148
 40
0.7142857142857148
 40
0.7380952380952386
 40
0.7380952380952386
 40
0.7380952380952386
 40
0.7380952380952386
 40
0.7619047619047624
 40
0.7619047619047624
 40
0.7619047619047624
 40
0.7619047619047624
 40
0.7857142857142863
 40
0.7857142857142863
 40
0.7857142857142863
 40
0.7857142857142863
 40
0.8095238095238101
 40
0.8095238095238101
 40
0.8095238095238101
 40
0.8095238095238101
 40
0.8333333333333339
 40
0.8333333333333339
 40
0.8333333333333339
 40
0.8333333333333339
 40
0.8571428571428578
 40
0.8571428571428578
 40
0.8571428571428578
 40
0.8571428571428578
 40
0.8809523809523816
 40
0.8809523809523816
 40
0.8809523809523816
 40
0.8809523809523816
 40
0.9047619047619054
 40
0.9047619047619054
 40
0.9047619047619054
 40
0.9047619047619054
 40
0.9285714285714293
 40
0.9285714285714293
 40
0.9285714285714293
 40
0.9285714285714293
 40
0.9523809523809531
 40
0.9523809523809531
 40
0.9523809523809531
 40
0.9523809523809531
 40
0.9761904761904769
 40
0.9761904761904769
 40
0.9761904761904769
 40
0.9761904761904769
 40
1.0
 40
1.0
 40
1.0
 40
1.0
 10
-0.1650314960629921
 20
0.0488937007874016
 30
0.0
 10
-0.1650314960629921
 20
0.0488937007874016
 30
0.0
 10
-0.1728385826771654
 20
0.0501181102362205
 30
0.0
 10
-0.1728385826771654
 20
0.0501181102362205
 30
0.0
 10
-0.1728385826771654
 20
0.0501181102362205
 30
0.0
 10
-0.1721417322834646
 20
0.0559763779527559
 30
0.0
 10
-0.1706141732283465
 20
0.0608385826771654
 30
0.0
 10
-0.1682795275590551
 20
0.0647007874015748
 30
0.0
 10
-0.1682795275590551
 20
0.0647007874015748
 30
0.0
 10
-0.1651968503937008
 20
0.0698937007874016
 30
0.0
 10
-0.1608385826771654
 20
0.0739488188976378
 30
0.0
 10
-0.1551968503937008
 20
0.0768385826771654
 30
0.0
 10
-0.1551968503937008
 20
0.0768385826771654
 30
0.0
 10
-0.1495314960629921
 20
0.079755905511811
 30
0.0
 10
-0.1430590551181102
 20
0.0812007874015748
 30
0.0
 10
-0.1357244094488189
 20
0.0812007874015748
 30
0.0
 10
-0.1357244094488189
 20
0.0812007874015748
 30
0.0
 10
-0.1285314960629921
 20
0.0812007874015748
 30
0.0
 10
-0.1221692913385827
 20
0.0799212598425197
 30
0.0
 10
-0.1166968503937008
 20
0.0773385826771654
 30
0.0
 10
-0.1166968503937008
 20
0.0773385826771654
 30
0.0
 10
-0.1112244094488189
 20
0.074755905511811
 30
0.0
 10
-0.1070866141732283
 20
0.0713385826771654
 30
0.0
 10
-0.1042834645669291
 20
0.0670905511811024
 30
0.0
 10
-0.1042834645669291
 20
0.0670905511811024
 30
0.0
 10
-0.1014763779527559
 20
0.0628385826771654
 30
0.0
 10
-0.1000866141732284
 20
0.0582283464566929
 30
0.0
 10
-0.1000866141732284
 20
0.0532834645669291
 30
0.0
 10
-0.1000866141732284
 20
0.0532834645669291
 30
0.0
 10
-0.1000866141732284
 20
0.0489488188976378
 30
0.0
 10
-0.1011417322834646
 20
0.0450629921259843
 30
0.0
 10
-0.103255905511811
 20
0.0416456692913386
 30
0.0
 10
-0.103255905511811
 20
0.0416456692913386
 30
0.0
 10
-0.1053937007874016
 20
0.0382283464566929
 30
0.0
 10
-0.1085314960629921
 20
0.0351732283464567
 30
0.0
 10
-0.1126968503937008
 20
0.0324488188976378
 30
0.0
 10
-0.1126968503937008
 20
0.0324488188976378
 30
0.0
 10
-0.1156417322834646
 20
0.0305629921259843
 30
0.0
 10
-0.1194488188976378
 20
0.0288937007874016
 30
0.0
 10
-0.1241692913385827
 20
0.027503937007874
 30
0.0
 10
-0.1241692913385827
 20
0.027503937007874
 30
0.0
 10
-0.1191417322834646
 20
0.0267834645669291
 30
0.0
 10
-0.115003937007874
 20
0.0256181102362205
 30
0.0
 10
-0.1118110236220472
 20
0.024003937007874
 30
0.0
 10
-0.1118110236220472
 20
0.024003937007874
 30
0.0
 10
-0.1066141732283465
 20
0.0213385826771654
 30
0.0
 10
-0.102503937007874
 20
0.0176732283464567
 30
0.0
 10
-0.0995314960629921
 20
0.013003937007874
 30
0.0
 10
-0.0995314960629921
 20
0.013003937007874
 30
0.0
 10
-0.0965314960629921
 20
0.0083385826771654
 30
0.0
 10
-0.0950590551181102
 20
0.0032283464566929
 30
0.0
 10
-0.0950590551181102
 20
-0.0023818897637795
 30
0.0
 10
-0.0950590551181102
 20
-0.0023818897637795
 30
0.0
 10
-0.0950590551181102
 20
-0.0113267716535433
 30
0.0
 10
-0.0989763779527559
 20
-0.0192165354330709
 30
0.0
 10
-0.1068385826771654
 20
-0.0260236220472441
 30
0.0
 10
-0.1068385826771654
 20
-0.0260236220472441
 30
0.0
 10
-0.1147244094488189
 20
-0.0328267716535433
 30
0.0
 10
-0.1248937007874016
 20
-0.0362165354330709
 30
0.0
 10
-0.1373661417322835
 20
-0.0362165354330709
 30
0.0
 10
-0.1373661417322835
 20
-0.0362165354330709
 30
0.0
 10
-0.1496692913385827
 20
-0.0362165354330709
 30
0.0
 10
-0.1600314960629921
 20
-0.0329370078740157
 30
0.0
 10
-0.1684488188976378
 20
-0.0263818897637795
 30
0.0
 10
-0.1684488188976378
 20
-0.0263818897637795
 30
0.0
 10
-0.175503937007874
 20
-0.0207992125984252
 30
0.0
 10
-0.1790314960629921
 20
-0.0151614173228346
 30
0.0
 10
-0.1790314960629921
 20
-0.0095236220472441
 30
0.0
 10
-0.1790314960629921
 20
-0.0095236220472441
 30
0.0
 10
-0.1790314960629921
 20
-0.0072992125984252
 30
0.0
 10
-0.1783070866141732
 20
-0.0054370078740157
 30
0.0
 10
-0.1768661417322835
 20
-0.0039645669291339
 30
0.0
 10
-0.1768661417322835
 20
-0.0039645669291339
 30
0.0
 10
-0.1754488188976378
 20
-0.0024645669291339
 30
0.0
 10
-0.1736417322834646
 20
-0.0017165354330709
 30
0.0
 10
-0.1714488188976378
 20
-0.0017165354330709
 30
0.0
 10
-0.1714488188976378
 20
-0.0017165354330709
 30
0.0
 10
-0.1690866141732283
 20
-0.0017165354330709
 30
0.0
 10
-0.1670314960629921
 20
-0.0026338582677165
 30
0.0
 10
-0.1653661417322835
 20
-0.004496062992126
 30
0.0
 10
-0.1653661417322835
 20
-0.004496062992126
 30
0.0
 10
-0.1644488188976378
 20
-0.0055236220472441
 30
0.0
 10
-0.1633661417322835
 20
-0.007992125984252
 30
0.0
 10
-0.1621968503937008
 20
-0.0118818897637795
 30
0.0
 10
-0.1621968503937008
 20
-0.0118818897637795
 30
0.0
 10
-0.160503937007874
 20
-0.0173818897637795
 30
0.0
 10
-0.1576417322834646
 20
-0.0215511811023622
 30
0.0
 10
-0.1536417322834646
 20
-0.0244094488188976
 30
0.0
 10
-0.1536417322834646
 20
-0.0244094488188976
 30
0.0
 10
-0.1496141732283465
 20
-0.0272992125984252
 30
0.0
 10
-0.1446417322834646
 20
-0.028744094488189
 30
0.0
 10
-0.1386692913385827
 20
-0.028744094488189
 30
0.0
 10
-0.1386692913385827
 20
-0.028744094488189
 30
0.0
 10
-0.1333385826771654
 20
-0.028744094488189
 30
0.0
 10
-0.1285866141732284
 20
-0.0275787401574803
 30
0.0
 10
-0.1243937007874016
 20
-0.025244094488189
 30
0.0
 10
-0.1243937007874016
 20
-0.025244094488189
 30
0.0
 10
-0.1201692913385827
 20
-0.0229094488188976
 30
0.0
 10
-0.1168661417322835
 20
-0.0196062992125984
 30
0.0
 10
-0.1144212598425197
 20
-0.0152992125984252
 30
0.0
 10
-0.1144212598425197
 20
-0.0152992125984252
 30
0.0
 10
-0.1119763779527559
 20
-0.0110236220472441
 30
0.0
 10
-0.110751968503937
 20
-0.0063267716535433
 30
0.0
 10
-0.110751968503937
 20
-0.001244094488189
 30
0.0
 10
-0.110751968503937
 20
-0.001244094488189
 30
0.0
 10
-0.110751968503937
 20
0.0028937007874016
 30
0.0
 10
-0.1116417322834646
 20
0.0065905511811024
 30
0.0
 10
-0.1133937007874016
 20
0.0098661417322835
 30
0.0
 10
-0.1133937007874016
 20
0.0098661417322835
 30
0.0
 10
-0.1151692913385827
 20
0.0131732283464567
 30
0.0
 10
-0.1176692913385827
 20
0.0159488188976378
 30
0.0
 10
-0.1209212598425197
 20
0.0182283464566929
 30
0.0
 10
-0.1209212598425197
 20
0.0182283464566929
 30
0.0
 10
-0.1234212598425197
 20
0.020003937007874
 30
0.0
 10
-0.1266141732283465
 20
0.021255905511811
 30
0.0
 10
-0.1304763779527559
 20
0.0219488188976378
 30
0.0
 10
-0.1304763779527559
 20
0.0219488188976378
 30
0.0
 10
-0.1343661417322835
 20
0.0226732283464567
 30
0.0
 10
-0.1378661417322835
 20
0.0230314960629921
 30
0.0
 10
-0.1409488188976378
 20
0.0230314960629921
 30
0.0
 10
-0.1409488188976378
 20
0.0230314960629921
 30
0.0
 10
-0.1409488188976378
 20
0.0230314960629921
 30
0.0
 10
-0.148503937007874
 20
0.0230314960629921
 30
0.0
 10
-0.148503937007874
 20
0.0230314960629921
 30
0.0
 10
-0.148503937007874
 20
0.0230314960629921
 30
0.0
 10
-0.148503937007874
 20
0.0230314960629921
 30
0.0
 10
-0.148503937007874
 20
0.0309212598425197
 30
0.0
 10
-0.148503937007874
 20
0.0309212598425197
 30
0.0
 10
-0.148503937007874
 20
0.0309212598425197
 30
0.0
 10
-0.148503937007874
 20
0.0309212598425197
 30
0.0
 10
-0.1436968503937008
 20
0.0309212598425197
 30
0.0
 10
-0.1436968503937008
 20
0.0309212598425197
 30
0.0
 10
-0.1436968503937008
 20
0.0309212598425197
 30
0.0
 10
-0.1389488188976378
 20
0.0309212598425197
 30
0.0
 10
-0.1343937007874016
 20
0.0314763779527559
 30
0.0
 10
-0.1300314960629921
 20
0.0325905511811024
 30
0.0
 10
-0.1300314960629921
 20
0.0325905511811024
 30
0.0
 10
-0.1256968503937008
 20
0.0337007874015748
 30
0.0
 10
-0.1222244094488189
 20
0.0359763779527559
 30
0.0
 10
-0.1196141732283465
 20
0.0394488188976378
 30
0.0
 10
-0.1196141732283465
 20
0.0394488188976378
 30
0.0
 10
-0.1170314960629921
 20
0.0429212598425197
 30
0.0
 10
-0.1157244094488189
 20
0.0468661417322835
 30
0.0
 10
-0.1157244094488189
 20
0.051255905511811
 30
0.0
 10
-0.1157244094488189
 20
0.051255905511811
 30
0.0
 10
-0.1157244094488189
 20
0.0550590551181102
 30
0.0
 10
-0.1166141732283465
 20
0.0584763779527559
 30
0.0
 10
-0.1184488188976378
 20
0.061503937007874
 30
0.0
 10
-0.1184488188976378
 20
0.061503937007874
 30
0.0
 10
-0.120251968503937
 20
0.0645590551181102
 30
0.0
 10
-0.1229212598425197
 20
0.0669763779527559
 30
0.0
 10
-0.1264488188976378
 20
0.068755905511811
 30
0.0
 10
-0.1264488188976378
 20
0.068755905511811
 30
0.0
 10
-0.1299763779527559
 20
0.0705314960629921
 30
0.0
 10
-0.1340590551181103
 20
0.0714488188976378
 30
0.0
 10
-0.1386692913385827
 20
0.0714488188976378
 30
0.0
 10
-0.1386692913385827
 20
0.0714488188976378
 30
0.0
 10
-0.1431692913385827
 20
0.0714488188976378
 30
0.0
 10
-0.1473110236220473
 20
0.070503937007874
 30
0.0
 10
-0.1510866141732284
 20
0.0686732283464567
 30
0.0
 10
-0.1510866141732284
 20
0.0686732283464567
 30
0.0
 10
-0.1548385826771654
 20
0.0668385826771654
 30
0.0
 10
-0.1578661417322835
 20
0.0643661417322835
 30
0.0
 10
-0.1601417322834646
 20
0.061255905511811
 30
0.0
 10
-0.1601417322834646
 20
0.061255905511811
 30
0.0
 10
-0.1624212598425197
 20
0.0581732283464567
 30
0.0
 10
-0.1640590551181103
 20
0.0540590551181102
 30
0.0
 10
-0.1650314960629921
 20
0.0488937007874016
 30
0.0
  0
SPLINE
  5
60
330
1F
100
AcDbEntity
  8
LAYER_1
 62
   250
100
AcDbSpline
210
0.0
220
0.0
230
1.0
 70
    11
 71
     3
 72
    20
 73
    16
 74
     0
 42
0.0000000001
 43
0.0000000001
 40
0.0
 40
0.0
 40
0.0
 40
0.0
 40
0.25
 40
0.25
 40
0.25
 40
0.25
 40
0.5
 40
0.5
 40
0.5
 40
0.5
 40
0.75
 40
0.75
 40
0.75
 40
0.75
 40
1.0
 40
1.0
 40
1.0
 40
1.0
 10
-0.0746141732283465
 20
0.0122007874015748
 30
0.0
 10
-0.0746141732283465
 20
0.0122007874015748
 30
0.0
 10
-0.0262795275590551
 20
0.0122007874015748
 30
0.0
 10
-0.0262795275590551
 20
0.0122007874015748
 30
0.0
 10
-0.0262795275590551
 20
0.0122007874015748
 30
0.0
 10
-0.0262795275590551
 20
0.0122007874015748
 30
0.0
 10
-0.0262795275590551
 20
0.0021181102362205
 30
0.0
 10
-0.0262795275590551
 20
0.0021181102362205
 30
0.0
 10
-0.0262795275590551
 20
0.0021181102362205
 30
0.0
 10
-0.0262795275590551
 20
0.0021181102362205
 30
0.0
 10
-0.0746141732283465
 20
0.0021181102362205
 30
0.0
 10
-0.0746141732283465
 20
0.0021181102362205
 30
0.0
 10
-0.0746141732283465
 20
0.0021181102362205
 30
0.0
 10
-0.0746141732283465
 20
0.0021181102362205
 30
0.0
 10
-0.0746141732283465
 20
0.0122007874015748
 30
0.0
 10
-0.0746141732283465
 20
0.0122007874015748
 30
0.0
  0
SPLINE
  5
61
330
1F
100
AcDbEntity
  8
LAYER_1
 62
   250
100
AcDbSpline
210
0.0
220
0.0
230
1.0
 70
    11
 71
     3
 72
    72
 73
    68
 74
     0
 42
0.0000000001
 43
0.0000000001
 40
0.0
 40
0.0
 40
0.0
 40
0.0
 40
0.0588235294117647
 40
0.0588235294117647
 40
0.0588235294117647
 40
0.0588235294117647
 40
0.1176470588235294
 40
0.1176470588235294
 40
0.1176470588235294
 40
0.1176470588235294
 40
0.1764705882352941
 40
0.1764705882352941
 40
0.1764705882352941
 40
0.1764705882352941
 40
0.2352941176470588
 40
0.2352941176470588
 40
0.2352941176470588
 40
0.2352941176470588
 40
0.2941176470588235
 40
0.2941176470588235
 40
0.2941176470588235
 40
0.2941176470588235
 40
0.3529411764705883
 40
0.3529411764705883
 40
0.3529411764705883
 40
0.3529411764705883
 40
0.411764705882353
 40
0.411764705882353
 40
0.411764705882353
 40
0.411764705882353
 40
0.4705882352941177
 40
0.4705882352941177
 40
0.4705882352941177
 40
0.4705882352941177
 40
0.5294117647058824
 40
0.5294117647058824
 40
0.5294117647058824
 40
0.5294117647058824
 40
0.5882352941176471
 40
0.5882352941176471
 40
0.5882352941176471
 40
0.5882352941176471
 40
0.6470588235294118
 40
0.6470588235294118
 40
0.6470588235294118
 40
0.6470588235294118
 40
0.7058823529411765
 40
0.7058823529411765
 40
0.7058823529411765
 40
0.7058823529411765
 40
0.7647058823529412
 40
0.7647058823529412
 40
0.7647058823529412
 40
0.7647058823529412
 40
0.823529411764706
 40
0.823529411764706
 40
0.823529411764706
 40
0.823529411764706
 40
0.8823529411764707
 40
0.8823529411764707
 40
0.8823529411764707
 40
0.8823529411764707
 40
0.9411764705882354
 40
0.9411764705882354
 40
0.9411764705882354
 40
0.9411764705882354
 40
1.0
 40
1.0
 40
1.0
 40
1.0
 10
0.0389133858267717
 20
0.079255905511811
 30
0.0
 10
0.0389133858267717
 20
0.079255905511811
 30
0.0
 10
0.044996062992126
 20
0.079255905511811
 30
0.0
 10
0.044996062992126
 20
0.079255905511811
 30
0.0
 10
0.044996062992126
 20
0.079255905511811
 30
0.0
 10
0.044996062992126
 20
0.079255905511811
 30
0.0
 10
0.044996062992126
 20
-0.014992125984252
 30
0.0
 10
0.044996062992126
 20
-0.014992125984252
 30
0.0
 10
0.044996062992126
 20
-0.014992125984252
 30
0.0
 10
0.044996062992126
 20
-0.0194370078740157
 30
0.0
 10
0.0453031496062992
 20
-0.0222992125984252
 30
0.0
 10
0.0458582677165354
 20
-0.0235787401574803
 30
0.0
 10
0.0458582677165354
 20
-0.0235787401574803
 30
0.0
 10
0.0464409448818898
 20
-0.0248543307086614
 30
0.0
 10
0.0473582677165354
 20
-0.0257992125984252
 30
0.0
 10
0.0486614173228346
 20
-0.0264645669291339
 30
0.0
 10
0.0486614173228346
 20
-0.0264645669291339
 30
0.0
 10
0.0499685039370079
 20
-0.0271062992125984
 30
0.0
 10
0.0525511811023622
 20
-0.0274370078740157
 30
0.0
 10
0.0564133858267717
 20
-0.0274370078740157
 30
0.0
 10
0.0564133858267717
 20
-0.0274370078740157
 30
0.0
 10
0.0564133858267717
 20
-0.0274370078740157
 30
0.0
 10
0.0643858267716535
 20
-0.0274370078740157
 30
0.0
 10
0.0643858267716535
 20
-0.0274370078740157
 30
0.0
 10
0.0643858267716535
 20
-0.0274370078740157
 30
0.0
 10
0.0643858267716535
 20
-0.0274370078740157
 30
0.0
 10
0.0643858267716535
 20
-0.0342716535433071
 30
0.0
 10
0.0643858267716535
 20
-0.0342716535433071
 30
0.0
 10
0.0643858267716535
 20
-0.0342716535433071
 30
0.0
 10
0.0643858267716535
 20
-0.0342716535433071
 30
0.0
 10
0.010748031496063
 20
-0.0342716535433071
 30
0.0
 10
0.010748031496063
 20
-0.0342716535433071
 30
0.0
 10
0.010748031496063
 20
-0.0342716535433071
 30
0.0
 10
0.010748031496063
 20
-0.0342716535433071
 30
0.0
 10
0.010748031496063
 20
-0.0274370078740157
 30
0.0
 10
0.010748031496063
 20
-0.0274370078740157
 30
0.0
 10
0.010748031496063
 20
-0.0274370078740157
 30
0.0
 10
0.010748031496063
 20
-0.0274370078740157
 30
0.0
 10
0.0196062992125984
 20
-0.0274370078740157
 30
0.0
 10
0.0196062992125984
 20
-0.0274370078740157
 30
0.0
 10
0.0196062992125984
 20
-0.0274370078740157
 30
0.0
 10
0.0234685039370079
 20
-0.0274370078740157
 30
0.0
 10
0.0260236220472441
 20
-0.0271062992125984
 30
0.0
 10
0.0273031496062992
 20
-0.0264094488188976
 30
0.0
 10
0.0273031496062992
 20
-0.0264094488188976
 30
0.0
 10
0.0285787401574803
 20
-0.025744094488189
 30
0.0
 10
0.0295787401574803
 20
-0.0246614173228346
 30
0.0
 10
0.0302755905511811
 20
-0.0231614173228346
 30
0.0
 10
0.0302755905511811
 20
-0.0231614173228346
 30
0.0
 10
0.0309685039370079
 20
-0.0216614173228346
 30
0.0
 10
0.0313307086614173
 20
-0.0189370078740157
 30
0.0
 10
0.0313307086614173
 20
-0.014992125984252
 30
0.0
 10
0.0313307086614173
 20
-0.014992125984252
 30
0.0
 10
0.0313307086614173
 20
-0.014992125984252
 30
0.0
 10
0.0313307086614173
 20
0.0624763779527559
 30
0.0
 10
0.0313307086614173
 20
0.0624763779527559
 30
0.0
 10
0.0313307086614173
 20
0.0624763779527559
 30
0.0
 10
0.0313307086614173
 20
0.0624763779527559
 30
0.0
 10
0.010748031496063
 20
0.0624763779527559
 30
0.0
 10
0.010748031496063
 20
0.0624763779527559
 30
0.0
 10
0.010748031496063
 20
0.0624763779527559
 30
0.0
 10
0.010748031496063
 20
0.0624763779527559
 30
0.0
 10
0.010748031496063
 20
0.0694763779527559
 30
0.0
 10
0.010748031496063
 20
0.0694763779527559
 30
0.0
 10
0.010748031496063
 20
0.0694763779527559
 30
0.0
 10
0.0219685039370079
 20
0.0710590551181102
 30
0.0
 10
0.0313582677165354
 20
0.0743110236220473
 30
0.0
 10
0.0389133858267717
 20
0.079255905511811
 30
0.0
  0
SPLINE
  5
62
330
1F
100
AcDbEntity
  8
LAYER_1
 62
   250
100
AcDbSpline
210
0.0
220
0.0
230
1.0
 70
    11
 71
     3
 72
   132
 73
   128
 74
     0
 42
0.0000000001
 43
0.0000000001
 40
0.0
 40
0.0
 40
0.0
 40
0.0
 40
0.03125
 40
0.03125
 40
0.03125
 40
0.03125
 40
0.0625
 40
0.0625
 40
0.0625
 40
0.0625
 40
0.09375
 40
0.09375
 40
0.09375
 40
0.09375
 40
0.125
 40
0.125
 40
0.125
 40
0.125
 40
0.15625
 40
0.15625
 40
0.15625
 40
0.15625
 40
0.1875
 40
0.1875
 40
0.1875
 40
0.1875
 40
0.21875
 40
0.21875
 40
0.21875
 40
0.21875
 40
0.25
 40
0.25
 40
0.25
 40
0.25
 40
0.28125
 40
0.28125
 40
0.28125
 40
0.28125
 40
0.3125
 40
0.3125
 40
0.3125
 40
0.3125
 40
0.34375
 40
0.34375
 40
0.34375
 40
0.34375
 40
0.375
 40
0.375
 40
0.375
 40
0.375
 40
0.40625
 40
0.40625
 40
0.40625
 40
0.40625
 40
0.4375
 40
0.4375
 40
0.4375
 40
0.4375
 40
0.46875
 40
0.46875
 40
0.46875
 40
0.46875
 40
0.5
 40
0.5
 40
0.5
 40
0.5
 40
0.53125
 40
0.53125
 40
0.53125
 40
0.53125
 40
0.5625
 40
0.5625
 40
0.5625
 40
0.5625
 40
0.59375
 40
0.59375
 40
0.59375
 40
0.59375
 40
0.625
 40
0.625
 40
0.625
 40
0.625
 40
0.65625
 40
0.65625
 40
0.65625
 40
0.65625
 40
0.6875
 40
0.6875
 40
0.6875
 40
0.6875
 40
0.71875
 40
0.71875
 40
0.71875
 40
0.71875
 40
0.75
 40
0.75
 40
0.75
 40
0.75
 40
0.78125
 40
0.78125
 40
0.78125
 40
0.78125
 40
0.8125
 40
0.8125
 40
0.8125
 40
0.8125
 40
0.84375
 40
0.84375
 40
0.84375
 40
0.84375
 40
0.875
 40
0.875
 40
0.875
 40
0.875
 40
0.90625
 40
0.90625
 40
0.90625
 40
0.90625
 40
0.9375
 40
0.9375
 40
0.9375
 40
0.9375
 40
0.96875
 40
0.96875
 40
0.96875
 40
0.96875
 40
1.0
 40
1.0
 40
1.0
 40
1.0
 10
0.1086653543307087
 20
0.079255905511811
 30
0.0
 10
0.1086653543307087
 20
0.079255905511811
 30
0.0
 10
0.1592755905511811
 20
0.079255905511811
 30
0.0
 10
0.1592755905511811
 20
0.079255905511811
 30
0.0
 10
0.1592755905511811
 20
0.079255905511811
 30
0.0
 10
0.1623582677165354
 20
0.079255905511811
 30
0.0
 10
0.164248031496063
 20
0.0794212598425197
 30
0.0
 10
0.1648858267716536
 20
0.079755905511811
 30
0.0
 10
0.1648858267716536
 20
0.079755905511811
 30
0.0
 10
0.1658031496062992
 20
0.0802834645669291
 30
0.0
 10
0.1663582677165355
 20
0.0814488188976378
 30
0.0
 10
0.1665236220472441
 20
0.0832283464566929
 30
0.0
 10
0.1665236220472441
 20
0.0832283464566929
 30
0.0
 10
0.1665236220472441
 20
0.0832283464566929
 30
0.0
 10
0.1724685039370079
 20
0.0832283464566929
 30
0.0
 10
0.1724685039370079
 20
0.0832283464566929
 30
0.0
 10
0.1724685039370079
 20
0.0832283464566929
 30
0.0
 10
0.1724685039370079
 20
0.0832283464566929
 30
0.0
 10
0.1724685039370079
 20
0.0660590551181102
 30
0.0
 10
0.1724685039370079
 20
0.0660590551181102
 30
0.0
 10
0.1724685039370079
 20
0.0660590551181102
 30
0.0
 10
0.1724685039370079
 20
0.0660590551181102
 30
0.0
 10
0.1162204724409449
 20
0.0660590551181102
 30
0.0
 10
0.1162204724409449
 20
0.0660590551181102
 30
0.0
 10
0.1162204724409449
 20
0.0660590551181102
 30
0.0
 10
0.1162204724409449
 20
0.0660590551181102
 30
0.0
 10
0.1148307086614173
 20
0.0374212598425197
 30
0.0
 10
0.1148307086614173
 20
0.0374212598425197
 30
0.0
 10
0.1148307086614173
 20
0.0374212598425197
 30
0.0
 10
0.1171653543307087
 20
0.0380905511811024
 30
0.0
 10
0.1201377952755906
 20
0.0386181102362205
 30
0.0
 10
0.1237204724409449
 20
0.0390629921259843
 30
0.0
 10
0.1237204724409449
 20
0.0390629921259843
 30
0.0
 10
0.1283307086614173
 20
0.0395905511811024
 30
0.0
 10
0.1324409448818898
 20
0.0398661417322835
 30
0.0
 10
0.1360826771653543
 20
0.0398661417322835
 30
0.0
 10
0.1360826771653543
 20
0.0398661417322835
 30
0.0
 10
0.1451377952755906
 20
0.0398661417322835
 30
0.0
 10
0.1530236220472441
 20
0.0382283464566929
 30
0.0
 10
0.1597755905511811
 20
0.0349763779527559
 30
0.0
 10
0.1597755905511811
 20
0.0349763779527559
 30
0.0
 10
0.166496062992126
 20
0.0317283464566929
 30
0.0
 10
0.1716062992125984
 20
0.027255905511811
 30
0.0
 10
0.1751062992125984
 20
0.0215905511811024
 30
0.0
 10
0.1751062992125984
 20
0.0215905511811024
 30
0.0
 10
0.1786062992125984
 20
0.0159212598425197
 30
0.0
 10
0.1803582677165354
 20
0.0095905511811024
 30
0.0
 10
0.1803582677165354
 20
0.0025905511811024
 30
0.0
 10
0.1803582677165354
 20
0.0025905511811024
 30
0.0
 10
0.1803582677165354
 20
-0.008244094488189
 30
0.0
 10
0.1762755905511811
 20
-0.0174370078740158
 30
0.0
 10
0.1681377952755906
 20
-0.0249645669291339
 30
0.0
 10
0.1681377952755906
 20
-0.0249645669291339
 30
0.0
 10
0.159996062992126
 20
-0.0324645669291339
 30
0.0
 10
0.1496377952755906
 20
-0.0362165354330709
 30
0.0
 10
0.1370511811023622
 20
-0.0362165354330709
 30
0.0
 10
0.1370511811023622
 20
-0.0362165354330709
 30
0.0
 10
0.1297755905511811
 20
-0.0362165354330709
 30
0.0
 10
0.1232204724409449
 20
-0.0349094488188976
 30
0.0
 10
0.1173307086614173
 20
-0.0323267716535433
 30
0.0
 10
0.1173307086614173
 20
-0.0323267716535433
 30
0.0
 10
0.1114409448818898
 20
-0.0297165354330709
 30
0.0
 10
0.1068307086614173
 20
-0.0262716535433071
 30
0.0
 10
0.1035236220472441
 20
-0.0220236220472441
 30
0.0
 10
0.1035236220472441
 20
-0.0220236220472441
 30
0.0
 10
0.1002204724409449
 20
-0.0177716535433071
 30
0.0
 10
0.0985551181102362
 20
-0.0140236220472441
 30
0.0
 10
0.0985551181102362
 20
-0.0108267716535433
 30
0.0
 10
0.0985551181102362
 20
-0.0108267716535433
 30
0.0
 10
0.0985551181102362
 20
-0.0087165354330709
 30
0.0
 10
0.0992755905511811
 20
-0.0068818897637795
 30
0.0
 10
0.1006929133858268
 20
-0.0053267716535433
 30
0.0
 10
0.1006929133858268
 20
-0.0053267716535433
 30
0.0
 10
0.1020826771653543
 20
-0.0037992125984252
 30
0.0
 10
0.1039133858267717
 20
-0.0030236220472441
 30
0.0
 10
0.1061377952755906
 20
-0.0030236220472441
 30
0.0
 10
0.1061377952755906
 20
-0.0030236220472441
 30
0.0
 10
0.1084133858267717
 20
-0.0030236220472441
 30
0.0
 10
0.1104133858267717
 20
-0.0039645669291339
 30
0.0
 10
0.1121653543307087
 20
-0.0058818897637795
 30
0.0
 10
0.1121653543307087
 20
-0.0058818897637795
 30
0.0
 10
0.1131377952755906
 20
-0.0068543307086614
 30
0.0
 10
0.1143031496062992
 20
-0.009244094488189
 30
0.0
 10
0.1156653543307087
 20
-0.0130236220472441
 30
0.0
 10
0.1156653543307087
 20
-0.0130236220472441
 30
0.0
 10
0.117496062992126
 20
-0.0183543307086614
 30
0.0
 10
0.120248031496063
 20
-0.022244094488189
 30
0.0
 10
0.1238858267716536
 20
-0.024744094488189
 30
0.0
 10
0.1238858267716536
 20
-0.024744094488189
 30
0.0
 10
0.1274409448818898
 20
-0.0272992125984252
 30
0.0
 10
0.1319685039370079
 20
-0.0285787401574803
 30
0.0
 10
0.1373858267716535
 20
-0.0285787401574803
 30
0.0
 10
0.1373858267716535
 20
-0.0285787401574803
 30
0.0
 10
0.1428031496062992
 20
-0.0285787401574803
 30
0.0
 10
0.1476377952755906
 20
-0.0273818897637795
 30
0.0
 10
0.1518582677165354
 20
-0.0250236220472441
 30
0.0
 10
0.1518582677165354
 20
-0.0250236220472441
 30
0.0
 10
0.1561102362204725
 20
-0.0226889763779528
 30
0.0
 10
0.1594409448818898
 20
-0.0192716535433071
 30
0.0
 10
0.1618858267716536
 20
-0.0148543307086614
 30
0.0
 10
0.1618858267716536
 20
-0.0148543307086614
 30
0.0
 10
0.1643307086614173
 20
-0.0104370078740157
 30
0.0
 10
0.1655511811023622
 20
-0.0055236220472441
 30
0.0
 10
0.1655511811023622
 20
-0.0001062992125984
 30
0.0
 10
0.1655511811023622
 20
-0.0001062992125984
 30
0.0
 10
0.1655511811023622
 20
0.0056181102362205
 30
0.0
 10
0.1642204724409449
 20
0.0106732283464567
 30
0.0
 10
0.1615787401574803
 20
0.0151181102362205
 30
0.0
 10
0.1615787401574803
 20
0.0151181102362205
 30
0.0
 10
0.1589685039370079
 20
0.0195629921259843
 30
0.0
 10
0.1551929133858268
 20
0.0230314960629921
 30
0.0
 10
0.1502755905511811
 20
0.0254488188976378
 30
0.0
 10
0.1502755905511811
 20
0.0254488188976378
 30
0.0
 10
0.1453582677165354
 20
0.0278937007874016
 30
0.0
 10
0.1393858267716535
 20
0.0291181102362205
 30
0.0
 10
0.1323307086614173
 20
0.0291181102362205
 30
0.0
 10
0.1323307086614173
 20
0.0291181102362205
 30
0.0
 10
0.1280511811023622
 20
0.0291181102362205
 30
0.0
 10
0.1234409448818898
 20
0.0286732283464567
 30
0.0
 10
0.1185511811023622
 20
0.0277283464566929
 30
0.0
 10
0.1185511811023622
 20
0.0277283464566929
 30
0.0
 10
0.1136377952755906
 20
0.0268110236220472
 30
0.0
 10
0.1094133858267717
 20
0.0256456692913386
 30
0.0
 10
0.1058858267716536
 20
0.0242283464566929
 30
0.0
 10
0.1058858267716536
 20
0.0242283464566929
 30
0.0
 10
0.1058858267716536
 20
0.0242283464566929
 30
0.0
 10
0.1086653543307087
 20
0.079255905511811
 30
0.0
 10
0.1086653543307087
 20
0.079255905511811
 30
0.0
  0
SPLINE
  5
63
330
1F
100
AcDbEntity
  8
LAYER_1
 62
   250
100
AcDbSpline
210
0.0
220
0.0
230
1.0
 70
    11
 71
     3
 72
    20
 73
    16
 74
     0
 42
0.0000000001
 43
0.0000000001
 40
0.0
 40
0.0
 40
0.0
 40
0.0
 40
0.25
 40
0.25
 40
0.25
 40
0.25
 40
0.5
 40
0.5
 40
0.5
 40
0.5
 40
0.75
 40
0.75
 40
0.75
 40
0.75
 40
1.0
 40
1.0
 40
1.0
 40
1.0
 10
0.2711102362204725
 20
0.0851181102362205
 30
0.0
 10
0.2711102362204725
 20
0.0851181102362205
 30
0.0
 10
0.2155275590551181
 20
-0.0705787401574803
 30
0.0
 10
0.2155275590551181
 20
-0.0705787401574803
 30
0.0
 10
0.2155275590551181
 20
-0.0705787401574803
 30
0.0
 10
0.2155275590551181
 20
-0.0705787401574803
 30
0.0
 10
0.2034724409448819
 20
-0.0705787401574803
 30
0.0
 10
0.2034724409448819
 20
-0.0705787401574803
 30
0.0
 10
0.2034724409448819
 20
-0.0705787401574803
 30
0.0
 10
0.2034724409448819
 20
-0.0705787401574803
 30
0.0
 10
0.2587204724409449
 20
0.0851181102362205
 30
0.0
 10
0.2587204724409449
 20
0.0851181102362205
 30
0.0
 10
0.2587204724409449
 20
0.0851181102362205
 30
0.0
 10
0.2587204724409449
 20
0.0851181102362205
 30
0.0
 10
0.2711102362204725
 20
0.0851181102362205
 30
0.0
 10
0.2711102362204725
 20
0.0851181102362205
 30
0.0
  0
SPLINE
  5
64
330
1F
100
AcDbEntity
  8
LAYER_1
 62
   250
100
AcDbSpline
210
0.0
220
0.0
230
1.0
 70
    11
 71
     3
 72
    72
 73
    68
 74
     0
 42
0.0000000001
 43
0.0000000001
 40
0.0
 40
0.0
 40
0.0
 40
0.0
 40
0.0588235294117647
 40
0.0588235294117647
 40
0.0588235294117647
 40
0.0588235294117647
 40
0.1176470588235294
 40
0.1176470588235294
 40
0.1176470588235294
 40
0.1176470588235294
 40
0.1764705882352941
 40
0.1764705882352941
 40
0.1764705882352941
 40
0.1764705882352941
 40
0.2352941176470588
 40
0.2352941176470588
 40
0.2352941176470588
 40
0.2352941176470588
 40
0.2941176470588235
 40
0.2941176470588235
 40
0.2941176470588235
 40
0.2941176470588235
 40
0.3529411764705883
 40
0.3529411764705883
 40
0.3529411764705883
 40
0.3529411764705883
 40
0.411764705882353
 40
0.411764705882353
 40
0.411764705882353
 40
0.411764705882353
 40
0.4705882352941177
 40
0.4705882352941177
 40
0.4705882352941177
 40
0.4705882352941177
 40
0.5294117647058824
 40
0.5294117647058824
 40
0.5294117647058824
 40
0.5294117647058824
 40
0.5882352941176471
 40
0.5882352941176471
 40
0.5882352941176471
 40
0.5882352941176471
 40
0.6470588235294118
 40
0.6470588235294118
 40
0.6470588235294118
 40
0.6470588235294118
 40
0.7058823529411765
 40
0.7058823529411765
 40
0.7058823529411765
 40
0.7058823529411765
 40
0.7647058823529412
 40
0.7647058823529412
 40
0.7647058823529412
 40
0.7647058823529412
 40
0.823529411764706
 40
0.823529411764706
 40
0.823529411764706
 40
0.823529411764706
 40
0.8823529411764707
 40
0.8823529411764707
 40
0.8823529411764707
 40
0.8823529411764707
 40
0.9411764705882354
 40
0.9411764705882354
 40
0.9411764705882354
 40
0.9411764705882354
 40
1.0
 40
1.0
 40
1.0
 40
1.0
 10
0.3456653543307087
 20
0.079255905511811
 30
0.0
 10
0.3456653543307087
 20
0.079255905511811
 30
0.0
 10
0.351748031496063
 20
0.079255905511811
 30
0.0
 10
0.351748031496063
 20
0.079255905511811
 30
0.0
 10
0.351748031496063
 20
0.079255905511811
 30
0.0
 10
0.351748031496063
 20
0.079255905511811
 30
0.0
 10
0.351748031496063
 20
-0.014992125984252
 30
0.0
 10
0.351748031496063
 20
-0.014992125984252
 30
0.0
 10
0.351748031496063
 20
-0.014992125984252
 30
0.0
 10
0.351748031496063
 20
-0.0194370078740157
 30
0.0
 10
0.3520551181102362
 20
-0.0222992125984252
 30
0.0
 10
0.3526102362204724
 20
-0.0235787401574803
 30
0.0
 10
0.3526102362204724
 20
-0.0235787401574803
 30
0.0
 10
0.3531929133858268
 20
-0.0248543307086614
 30
0.0
 10
0.3541102362204724
 20
-0.0257992125984252
 30
0.0
 10
0.3554133858267717
 20
-0.0264645669291339
 30
0.0
 10
0.3554133858267717
 20
-0.0264645669291339
 30
0.0
 10
0.3567204724409449
 20
-0.0271062992125984
 30
0.0
 10
0.3593031496062992
 20
-0.0274370078740157
 30
0.0
 10
0.3631653543307087
 20
-0.0274370078740157
 30
0.0
 10
0.3631653543307087
 20
-0.0274370078740157
 30
0.0
 10
0.3631653543307087
 20
-0.0274370078740157
 30
0.0
 10
0.3711377952755905
 20
-0.0274370078740157
 30
0.0
 10
0.3711377952755905
 20
-0.0274370078740157
 30
0.0
 10
0.3711377952755905
 20
-0.0274370078740157
 30
0.0
 10
0.3711377952755905
 20
-0.0274370078740157
 30
0.0
 10
0.3711377952755905
 20
-0.0342716535433071
 30
0.0
 10
0.3711377952755905
 20
-0.0342716535433071
 30
0.0
 10
0.3711377952755905
 20
-0.0342716535433071
 30
0.0
 10
0.3711377952755905
 20
-0.0342716535433071
 30
0.0
 10
0.3175
 20
-0.0342716535433071
 30
0.0
 10
0.3175
 20
-0.0342716535433071
 30
0.0
 10
0.3175
 20
-0.0342716535433071
 30
0.0
 10
0.3175
 20
-0.0342716535433071
 30
0.0
 10
0.3175
 20
-0.0274370078740157
 30
0.0
 10
0.3175
 20
-0.0274370078740157
 30
0.0
 10
0.3175
 20
-0.0274370078740157
 30
0.0
 10
0.3175
 20
-0.0274370078740157
 30
0.0
 10
0.3263582677165354
 20
-0.0274370078740157
 30
0.0
 10
0.3263582677165354
 20
-0.0274370078740157
 30
0.0
 10
0.3263582677165354
 20
-0.0274370078740157
 30
0.0
 10
0.3302204724409449
 20
-0.0274370078740157
 30
0.0
 10
0.3327755905511811
 20
-0.0271062992125984
 30
0.0
 10
0.3340551181102363
 20
-0.0264094488188976
 30
0.0
 10
0.3340551181102363
 20
-0.0264094488188976
 30
0.0
 10
0.3353307086614173
 20
-0.025744094488189
 30
0.0
 10
0.3363307086614173
 20
-0.0246614173228346
 30
0.0
 10
0.3370275590551181
 20
-0.0231614173228346
 30
0.0
 10
0.3370275590551181
 20
-0.0231614173228346
 30
0.0
 10
0.3377204724409449
 20
-0.0216614173228346
 30
0.0
 10
0.3380826771653543
 20
-0.0189370078740157
 30
0.0
 10
0.3380826771653543
 20
-0.014992125984252
 30
0.0
 10
0.3380826771653543
 20
-0.014992125984252
 30
0.0
 10
0.3380826771653543
 20
-0.014992125984252
 30
0.0
 10
0.3380826771653543
 20
0.0624763779527559
 30
0.0
 10
0.3380826771653543
 20
0.0624763779527559
 30
0.0
 10
0.3380826771653543
 20
0.0624763779527559
 30
0.0
 10
0.3380826771653543
 20
0.0624763779527559
 30
0.0
 10
0.3175
 20
0.0624763779527559
 30
0.0
 10
0.3175
 20
0.0624763779527559
 30
0.0
 10
0.3175
 20
0.0624763779527559
 30
0.0
 10
0.3175
 20
0.0624763779527559
 30
0.0
 10
0.3175
 20
0.0694763779527559
 30
0.0
 10
0.3175
 20
0.0694763779527559
 30
0.0
 10
0.3175
 20
0.0694763779527559
 30
0.0
 10
0.3287204724409449
 20
0.0710590551181102
 30
0.0
 10
0.3381102362204724
 20
0.0743110236220473
 30
0.0
 10
0.3456653543307087
 20
0.079255905511811
 30
0.0
  0
SPLINE
  5
65
330
1F
100
AcDbEntity
  8
LAYER_1
 62
   250
100
AcDbSpline
210
0.0
220
0.0
230
1.0
 70
    11
 71
     3
 72
    84
 73
    80
 74
     0
 42
0.0000000001
 43
0.0000000001
 40
0.0
 40
0.0
 40
0.0
 40
0.0
 40
0.05
 40
0.05
 40
0.05
 40
0.05
 40
0.1
 40
0.1
 40
0.1
 40
0.1
 40
0.15
 40
0.15
 40
0.15
 40
0.15
 40
0.2
 40
0.2
 40
0.2
 40
0.2
 40
0.25
 40
0.25
 40
0.25
 40
0.25
 40
0.3
 40
0.3
 40
0.3
 40
0.3
 40
0.35
 40
0.35
 40
0.35
 40
0.35
 40
0.4
 40
0.4
 40
0.4
 40
0.4
 40
0.45
 40
0.45
 40
0.45
 40
0.45
 40
0.4999999999999999
 40
0.4999999999999999
 40
0.4999999999999999
 40
0.4999999999999999
 40
0.5499999999999999
 40
0.5499999999999999
 40
0.5499999999999999
 40
0.5499999999999999
 40
0.6
 40
0.6
 40
0.6
 40
0.6
 40
0.65
 40
0.65
 40
0.65
 40
0.65
 40
0.7000000000000001
 40
0.7000000000000001
 40
0.7000000000000001
 40
0.7000000000000001
 40
0.7500000000000001
 40
0.7500000000000001
 40
0.7500000000000001
 40
0.7500000000000001
 40
0.8000000000000002
 40
0.8000000000000002
 40
0.8000000000000002
 40
0.8000000000000002
 40
0.8500000000000002
 40
0.8500000000000002
 40
0.8500000000000002
 40
0.8500000000000002
 40
0.9000000000000002
 40
0.9000000000000002
 40
0.9000000000000002
 40
0.9000000000000002
 40
0.9500000000000003
 40
0.9500000000000003
 40
0.9500000000000003
 40
0.9500000000000003
 40
1.0
 40
1.0
 40
1.0
 40
1.0
 10
0.4773307086614174
 20
0.0813661417322835
 30
0.0
 10
0.4773307086614174
 20
0.0813661417322835
 30
0.0
 10
0.4773307086614174
 20
0.0739488188976378
 30
0.0
 10
0.4773307086614174
 20
0.0739488188976378
 30
0.0
 10
0.4773307086614174
 20
0.0739488188976378
 30
0.0
 10
0.4639448818897638
 20
0.0738110236220473
 30
0.0
 10
0.4531102362204725
 20
0.0718385826771654
 30
0.0
 10
0.4448346456692914
 20
0.0681181102362205
 30
0.0
 10
0.4448346456692914
 20
0.0681181102362205
 30
0.0
 10
0.4365551181102362
 20
0.0643661417322835
 30
0.0
 10
0.4304724409448819
 20
0.058755905511811
 30
0.0
 10
0.4265551181102362
 20
0.0513110236220472
 30
0.0
 10
0.4265551181102362
 20
0.0513110236220472
 30
0.0
 10
0.4226377952755906
 20
0.0438385826771654
 30
0.0
 10
0.4204448818897638
 20
0.0346456692913386
 30
0.0
 10
0.4199724409448819
 20
0.023755905511811
 30
0.0
 10
0.4199724409448819
 20
0.023755905511811
 30
0.0
 10
0.4227204724409449
 20
0.0279763779527559
 30
0.0
 10
0.4255551181102362
 20
0.0312834645669291
 30
0.0
 10
0.4284724409448819
 20
0.0336456692913386
 30
0.0
 10
0.4284724409448819
 20
0.0336456692913386
 30
0.0
 10
0.4313622047244095
 20
0.036003937007874
 30
0.0
 10
0.434748031496063
 20
0.0378110236220472
 30
0.0
 10
0.4386377952755906
 20
0.0390905511811024
 30
0.0
 10
0.4386377952755906
 20
0.0390905511811024
 30
0.0
 10
0.4425275590551182
 20
0.0403661417322835
 30
0.0
 10
0.4467755905511811
 20
0.041003937007874
 30
0.0
 10
0.4513897637795276
 20
0.041003937007874
 30
0.0
 10
0.4513897637795276
 20
0.041003937007874
 30
0.0
 10
0.458748031496063
 20
0.041003937007874
 30
0.0
 10
0.4653307086614174
 20
0.0393661417322835
 30
0.0
 10
0.4710826771653544
 20
0.0361181102362205
 30
0.0
 10
0.4710826771653544
 20
0.0361181102362205
 30
0.0
 10
0.4768307086614174
 20
0.0328661417322835
 30
0.0
 10
0.4813031496062992
 20
0.0284488188976378
 30
0.0
 10
0.4845
 20
0.0228937007874016
 30
0.0
 10
0.4845
 20
0.0228937007874016
 30
0.0
 10
0.4876929133858268
 20
0.0173385826771654
 30
0.0
 10
0.4893031496062992
 20
0.0107834645669291
 30
0.0
 10
0.4893031496062992
 20
0.003255905511811
 30
0.0
 10
0.4893031496062992
 20
0.003255905511811
 30
0.0
 10
0.4893031496062992
 20
-0.008744094488189
 30
0.0
 10
0.4856929133858268
 20
-0.0181614173228346
 30
0.0
 10
0.4784724409448819
 20
-0.024992125984252
 30
0.0
 10
0.4784724409448819
 20
-0.024992125984252
 30
0.0
 10
0.4705
 20
-0.032492125984252
 30
0.0
 10
0.4601653543307087
 20
-0.0362165354330709
 30
0.0
 10
0.4474724409448819
 20
-0.0362165354330709
 30
0.0
 10
0.4474724409448819
 20
-0.0362165354330709
 30
0.0
 10
0.4383031496062992
 20
-0.0362165354330709
 30
0.0
 10
0.4305826771653544
 20
-0.0343267716535433
 30
0.0
 10
0.4242755905511811
 20
-0.0305236220472441
 30
0.0
 10
0.4242755905511811
 20
-0.0305236220472441
 30
0.0
 10
0.4179724409448819
 20
-0.026744094488189
 30
0.0
 10
0.4129724409448819
 20
-0.0209370078740157
 30
0.0
 10
0.409248031496063
 20
-0.0131062992125984
 30
0.0
 10
0.409248031496063
 20
-0.0131062992125984
 30
0.0
 10
0.4055551181102363
 20
-0.0052992125984252
 30
0.0
 10
0.4036929133858268
 20
0.0043661417322835
 30
0.0
 10
0.4036929133858268
 20
0.0158661417322835
 30
0.0
 10
0.4036929133858268
 20
0.0158661417322835
 30
0.0
 10
0.4036929133858268
 20
0.0274212598425197
 30
0.0
 10
0.4056653543307087
 20
0.0376732283464567
 30
0.0
 10
0.4095826771653544
 20
0.0466181102362205
 30
0.0
 10
0.4095826771653544
 20
0.0466181102362205
 30
0.0
 10
0.4135275590551181
 20
0.0555590551181102
 30
0.0
 10
0.4189724409448819
 20
0.062755905511811
 30
0.0
 10
0.4259173228346457
 20
0.0681732283464567
 30
0.0
 10
0.4259173228346457
 20
0.0681732283464567
 30
0.0
 10
0.4328622047244095
 20
0.0736181102362205
 30
0.0
 10
0.4404724409448819
 20
0.0771732283464567
 30
0.0
 10
0.4487204724409449
 20
0.0788385826771654
 30
0.0
 10
0.4487204724409449
 20
0.0788385826771654
 30
0.0
 10
0.457
 20
0.0805314960629921
 30
0.0
 10
0.4644173228346457
 20
0.0813661417322835
 30
0.0
 10
0.471
 20
0.0813661417322835
 30
0.0
 10
0.471
 20
0.0813661417322835
 30
0.0
 10
0.471
 20
0.0813661417322835
 30
0.0
 10
0.4773307086614174
 20
0.0813661417322835
 30
0.0
 10
0.4773307086614174
 20
0.0813661417322835
 30
0.0
  0
SPLINE
  5
66
330
1F
100
AcDbEntity
  8
LAYER_1
 62
   250
100
AcDbSpline
210
0.0
220
0.0
230
1.0
 70
    11
 71
     3
 72
    40
 73
    36
 74
     0
 42
0.0000000001
 43
0.0000000001
 40
0.0
 40
0.0
 40
0.0
 40
0.0
 40
0.1111111111111111
 40
0.1111111111111111
 40
0.1111111111111111
 40
0.1111111111111111
 40
0.2222222222222222
 40
0.2222222222222222
 40
0.2222222222222222
 40
0.2222222222222222
 40
0.3333333333333333
 40
0.3333333333333333
 40
0.3333333333333333
 40
0.3333333333333333
 40
0.4444444444444444
 40
0.4444444444444444
 40
0.4444444444444444
 40
0.4444444444444444
 40
0.5555555555555556
 40
0.5555555555555556
 40
0.5555555555555556
 40
0.5555555555555556
 40
0.6666666666666667
 40
0.6666666666666667
 40
0.6666666666666667
 40
0.6666666666666667
 40
0.7777777777777779
 40
0.7777777777777779
 40
0.7777777777777779
 40
0.7777777777777779
 40
0.8888888888888891
 40
0.8888888888888891
 40
0.8888888888888891
 40
0.8888888888888891
 40
1.0
 40
1.0
 40
1.0
 40
1.0
 10
0.4476377952755906
 20
0.0323661417322835
 30
0.0
 10
0.4398346456692914
 20
0.0323661417322835
 30
0.0
 10
0.4334173228346457
 20
0.0294212598425197
 30
0.0
 10
0.4283897637795276
 20
0.023503937007874
 30
0.0
 10
0.4283897637795276
 20
0.023503937007874
 30
0.0
 10
0.4233622047244094
 20
0.0175905511811024
 30
0.0
 10
0.4208622047244094
 20
0.0104763779527559
 30
0.0
 10
0.4208622047244094
 20
0.0022007874015748
 30
0.0
 10
0.4208622047244094
 20
0.0022007874015748
 30
0.0
 10
0.4208622047244094
 20
-0.0036614173228346
 30
0.0
 10
0.4220826771653544
 20
-0.0090787401574803
 30
0.0
 10
0.4245275590551181
 20
-0.0140511811023622
 30
0.0
 10
0.4245275590551181
 20
-0.0140511811023622
 30
0.0
 10
0.4269724409448819
 20
-0.0190236220472441
 30
0.0
 10
0.4301102362204725
 20
-0.0226889763779528
 30
0.0
 10
0.4339724409448819
 20
-0.0251062992125984
 30
0.0
 10
0.4339724409448819
 20
-0.0251062992125984
 30
0.0
 10
0.4378031496062992
 20
-0.0275236220472441
 30
0.0
 10
0.4421653543307087
 20
-0.028744094488189
 30
0.0
 10
0.4469724409448819
 20
-0.028744094488189
 30
0.0
 10
0.4469724409448819
 20
-0.028744094488189
 30
0.0
 10
0.4544724409448819
 20
-0.028744094488189
 30
0.0
 10
0.4606929133858268
 20
-0.0259094488188976
 30
0.0
 10
0.4656653543307087
 20
-0.020244094488189
 30
0.0
 10
0.4656653543307087
 20
-0.020244094488189
 30
0.0
 10
0.4706102362204724
 20
-0.0145787401574803
 30
0.0
 10
0.4731102362204724
 20
-0.0069645669291339
 30
0.0
 10
0.4731102362204724
 20
0.0025905511811024
 30
0.0
 10
0.4731102362204724
 20
0.0025905511811024
 30
0.0
 10
0.4731102362204724
 20
0.0117007874015748
 30
0.0
 10
0.4706929133858268
 20
0.0189488188976378
 30
0.0
 10
0.4658622047244095
 20
0.0243110236220472
 30
0.0
 10
0.4658622047244095
 20
0.0243110236220472
 30
0.0
 10
0.4610275590551181
 20
0.0297007874015748
 30
0.0
 10
0.4549448818897638
 20
0.0323661417322835
 30
0.0
 10
0.4476377952755906
 20
0.0323661417322835
 30
0.0
  0
SPLINE
  5
67
330
1F
100
AcDbEntity
  8
LAYER_1
 62
   250
100
AcDbSpline
210
0.0
220
0.0
230
1.0
 70
    11
 71
     3
 72
    60
 73
    56
 74
     0
 42
0.0000000001
 43
0.0000000001
 40
0.0
 40
0.0
 40
0.0
 40
0.0
 40
0.0714285714285714
 40
0.0714285714285714
 40
0.0714285714285714
 40
0.0714285714285714
 40
0.1428571428571429
 40
0.1428571428571429
 40
0.1428571428571429
 40
0.1428571428571429
 40
0.2142857142857143
 40
0.2142857142857143
 40
0.2142857142857143
 40
0.2142857142857143
 40
0.2857142857142857
 40
0.2857142857142857
 40
0.2857142857142857
 40
0.2857142857142857
 40
0.3571428571428571
 40
0.3571428571428571
 40
0.3571428571428571
 40
0.3571428571428571
 40
0.4285714285714285
 40
0.4285714285714285
 40
0.4285714285714285
 40
0.4285714285714285
 40
0.4999999999999999
 40
0.4999999999999999
 40
0.4999999999999999
 40
0.4999999999999999
 40
0.5714285714285713
 40
0.5714285714285713
 40
0.5714285714285713
 40
0.5714285714285713
 40
0.6428571428571427
 40
0.6428571428571427
 40
0.6428571428571427
 40
0.6428571428571427
 40
0.7142857142857141
 40
0.7142857142857141
 40
0.7142857142857141
 40
0.7142857142857141
 40
0.7857142857142855
 40
0.7857142857142855
 40
0.7857142857142855
 40
0.7857142857142855
 40
0.8571428571428569
 40
0.8571428571428569
 40
0.8571428571428569
 40
0.8571428571428569
 40
0.9285714285714283
 40
0.9285714285714283
 40
0.9285714285714283
 40
0.9285714285714283
 40
1.0
 40
1.0
 40
1.0
 40
1.0
 10
0.5064724409448819
 20
0.0371732283464567
 30
0.0
 10
0.5064724409448819
 20
0.0371732283464567
 30
0.0
 10
0.5020826771653544
 20
0.0425629921259843
 30
0.0
 10
0.5020826771653544
 20
0.0425629921259843
 30
0.0
 10
0.5020826771653544
 20
0.0425629921259843
 30
0.0
 10
0.5131968503937008
 20
0.0516181102362205
 30
0.0
 10
0.5187795275590551
 20
0.0591732283464567
 30
0.0
 10
0.5187795275590551
 20
0.065255905511811
 30
0.0
 10
0.5187795275590551
 20
0.065255905511811
 30
0.0
 10
0.5187795275590551
 20
0.0659488188976378
 30
0.0
 10
0.5187244094488189
 20
0.0668385826771654
 30
0.0
 10
0.5186102362204724
 20
0.0678661417322835
 30
0.0
 10
0.5186102362204724
 20
0.0678661417322835
 30
0.0
 10
0.5176968503937008
 20
0.0674763779527559
 30
0.0
 10
0.5167795275590551
 20
0.0671732283464567
 30
0.0
 10
0.5159173228346456
 20
0.0669763779527559
 30
0.0
 10
0.5159173228346456
 20
0.0669763779527559
 30
0.0
 10
0.5150551181102362
 20
0.066755905511811
 30
0.0
 10
0.5142519685039371
 20
0.0666456692913386
 30
0.0
 10
0.5134724409448819
 20
0.0666456692913386
 30
0.0
 10
0.5134724409448819
 20
0.0666456692913386
 30
0.0
 10
0.5108622047244095
 20
0.0666456692913386
 30
0.0
 10
0.5087795275590551
 20
0.0674763779527559
 30
0.0
 10
0.507224409448819
 20
0.0691732283464567
 30
0.0
 10
0.507224409448819
 20
0.0691732283464567
 30
0.0
 10
0.5056377952755906
 20
0.0708385826771654
 30
0.0
 10
0.5048622047244095
 20
0.0729763779527559
 30
0.0
 10
0.5048622047244095
 20
0.0755905511811024
 30
0.0
 10
0.5048622047244095
 20
0.0755905511811024
 30
0.0
 10
0.5048622047244095
 20
0.0781456692913386
 30
0.0
 10
0.5058070866141733
 20
0.0803661417322835
 30
0.0
 10
0.5076968503937008
 20
0.082255905511811
 30
0.0
 10
0.5076968503937008
 20
0.082255905511811
 30
0.0
 10
0.5096102362204724
 20
0.0841732283464567
 30
0.0
 10
0.5118897637795276
 20
0.0851181102362205
 30
0.0
 10
0.5145275590551182
 20
0.0851181102362205
 30
0.0
 10
0.5145275590551182
 20
0.0851181102362205
 30
0.0
 10
0.5182244094488189
 20
0.0851181102362205
 30
0.0
 10
0.5213897637795276
 20
0.0836456692913386
 30
0.0
 10
0.5240275590551181
 20
0.0806732283464567
 30
0.0
 10
0.5240275590551181
 20
0.0806732283464567
 30
0.0
 10
0.5266377952755906
 20
0.0777283464566929
 30
0.0
 10
0.5279724409448819
 20
0.0739212598425197
 30
0.0
 10
0.5279724409448819
 20
0.069255905511811
 30
0.0
 10
0.5279724409448819
 20
0.069255905511811
 30
0.0
 10
0.5279724409448819
 20
0.0662007874015748
 30
0.0
 10
0.5273346456692913
 20
0.063003937007874
 30
0.0
 10
0.5260826771653544
 20
0.0596732283464567
 30
0.0
 10
0.5260826771653544
 20
0.0596732283464567
 30
0.0
 10
0.5248346456692914
 20
0.0563385826771654
 30
0.0
 10
0.5230275590551181
 20
0.053255905511811
 30
0.0
 10
0.5206377952755906
 20
0.0503937007874016
 30
0.0
 10
0.5206377952755906
 20
0.0503937007874016
 30
0.0
 10
0.5182519685039371
 20
0.0475629921259843
 30
0.0
 10
0.5135275590551182
 20
0.0431456692913386
 30
0.0
 10
0.5064724409448819
 20
0.0371732283464567
 30
0.0
  0
SPLINE
  5
68
330
1F
100
AcDbEntity
  8
LAYER_1
 62
   250
100
AcDbSpline
210
0.0
220
0.0
230
1.0
 70
    11
 71
     3
 72
    60
 73
    56
 74
     0
 42
0.0000000001
 43
0.0000000001
 40
0.0
 40
0.0
 40
0.0
 40
0.0
 40
0.0714285714285714
 40
0.0714285714285714
 40
0.0714285714285714
 40
0.0714285714285714
 40
0.1428571428571429
 40
0.1428571428571429
 40
0.1428571428571429
 40
0.1428571428571429
 40
0.2142857142857143
 40
0.2142857142857143
 40
0.2142857142857143
 40
0.2142857142857143
 40
0.2857142857142857
 40
0.2857142857142857
 40
0.2857142857142857
 40
0.2857142857142857
 40
0.3571428571428571
 40
0.3571428571428571
 40
0.3571428571428571
 40
0.3571428571428571
 40
0.4285714285714285
 40
0.4285714285714285
 40
0.4285714285714285
 40
0.4285714285714285
 40
0.4999999999999999
 40
0.4999999999999999
 40
0.4999999999999999
 40
0.4999999999999999
 40
0.5714285714285713
 40
0.5714285714285713
 40
0.5714285714285713
 40
0.5714285714285713
 40
0.6428571428571427
 40
0.6428571428571427
 40
0.6428571428571427
 40
0.6428571428571427
 40
0.7142857142857141
 40
0.7142857142857141
 40
0.7142857142857141
 40
0.7142857142857141
 40
0.7857142857142855
 40
0.7857142857142855
 40
0.7857142857142855
 40
0.7857142857142855
 40
0.8571428571428569
 40
0.8571428571428569
 40
0.8571428571428569
 40
0.8571428571428569
 40
0.9285714285714283
 40
0.9285714285714283
 40
0.9285714285714283
 40
0.9285714285714283
 40
1.0
 40
1.0
 40
1.0
 40
1.0
 10
0.5355275590551182
 20
0.0371732283464567
 30
0.0
 10
0.5355275590551182
 20
0.0371732283464567
 30
0.0
 10
0.5311377952755906
 20
0.0425629921259843
 30
0.0
 10
0.5311377952755906
 20
0.0425629921259843
 30
0.0
 10
0.5311377952755906
 20
0.0425629921259843
 30
0.0
 10
0.542251968503937
 20
0.0516181102362205
 30
0.0
 10
0.5478346456692914
 20
0.0591732283464567
 30
0.0
 10
0.5478346456692914
 20
0.065255905511811
 30
0.0
 10
0.5478346456692914
 20
0.065255905511811
 30
0.0
 10
0.5478346456692914
 20
0.0659488188976378
 30
0.0
 10
0.5477795275590551
 20
0.0668385826771654
 30
0.0
 10
0.5476653543307087
 20
0.0678661417322835
 30
0.0
 10
0.5476653543307087
 20
0.0678661417322835
 30
0.0
 10
0.546751968503937
 20
0.0674763779527559
 30
0.0
 10
0.5458346456692914
 20
0.0671732283464567
 30
0.0
 10
0.544972440944882
 20
0.0669763779527559
 30
0.0
 10
0.544972440944882
 20
0.0669763779527559
 30
0.0
 10
0.5441102362204725
 20
0.066755905511811
 30
0.0
 10
0.5432795275590552
 20
0.0666456692913386
 30
0.0
 10
0.5424448818897638
 20
0.0666456692913386
 30
0.0
 10
0.5424448818897638
 20
0.0666456692913386
 30
0.0
 10
0.5398897637795276
 20
0.0666456692913386
 30
0.0
 10
0.5378346456692914
 20
0.0674763779527559
 30
0.0
 10
0.5362795275590552
 20
0.0691732283464567
 30
0.0
 10
0.5362795275590552
 20
0.0691732283464567
 30
0.0
 10
0.5346968503937009
 20
0.0708385826771654
 30
0.0
 10
0.5339173228346457
 20
0.0729763779527559
 30
0.0
 10
0.5339173228346457
 20
0.0755905511811024
 30
0.0
 10
0.5339173228346457
 20
0.0755905511811024
 30
0.0
 10
0.5339173228346457
 20
0.0781456692913386
 30
0.0
 10
0.5348622047244095
 20
0.0803661417322835
 30
0.0
 10
0.536751968503937
 20
0.082255905511811
 30
0.0
 10
0.536751968503937
 20
0.082255905511811
 30
0.0
 10
0.5386377952755905
 20
0.0841732283464567
 30
0.0
 10
0.5409448818897638
 20
0.0851181102362205
 30
0.0
 10
0.5435826771653544
 20
0.0851181102362205
 30
0.0
 10
0.5435826771653544
 20
0.0851181102362205
 30
0.0
 10
0.5472795275590552
 20
0.0851181102362205
 30
0.0
 10
0.5504448818897638
 20
0.0836456692913386
 30
0.0
 10
0.5530826771653543
 20
0.0806732283464567
 30
0.0
 10
0.5530826771653543
 20
0.0806732283464567
 30
0.0
 10
0.5556929133858268
 20
0.0777283464566929
 30
0.0
 10
0.5570275590551181
 20
0.0739212598425197
 30
0.0
 10
0.5570275590551181
 20
0.069255905511811
 30
0.0
 10
0.5570275590551181
 20
0.069255905511811
 30
0.0
 10
0.5570275590551181
 20
0.0662007874015748
 30
0.0
 10
0.5563897637795275
 20
0.063003937007874
 30
0.0
 10
0.5551377952755906
 20
0.0596732283464567
 30
0.0
 10
0.5551377952755906
 20
0.0596732283464567
 30
0.0
 10
0.5538897637795276
 20
0.0563385826771654
 30
0.0
 10
0.5520826771653543
 20
0.053255905511811
 30
0.0
 10
0.5496968503937008
 20
0.0503937007874016
 30
0.0
 10
0.5496968503937008
 20
0.0503937007874016
 30
0.0
 10
0.5473070866141733
 20
0.0475629921259843
 30
0.0
 10
0.5425826771653544
 20
0.0431456692913386
 30
0.0
 10
0.5355275590551182
 20
0.0371732283464567
 30
0.0
  0
SPLINE
  5
69
330
1F
100
AcDbEntity
  8
LAYER_1
 62
   250
100
AcDbSpline
210
0.0
220
0.0
230
1.0
 70
    11
 71
     3
 72
   104
 73
   100
 74
     0
 42
0.0000000001
 43
0.0000000001
 40
0.0
 40
0.0
 40
0.0
 40
0.0
 40
0.04
 40
0.04
 40
0.04
 40
0.04
 40
0.08
 40
0.08
 40
0.08
 40
0.08
 40
0.12
 40
0.12
 40
0.12
 40
0.12
 40
0.16
 40
0.16
 40
0.16
 40
0.16
 40
0.2
 40
0.2
 40
0.2
 40
0.2
 40
0.24
 40
0.24
 40
0.24
 40
0.24
 40
0.28
 40
0.28
 40
0.28
 40
0.28
 40
0.32
 40
0.32
 40
0.32
 40
0.32
 40
0.36
 40
0.36
 40
0.36
 40
0.36
 40
0.4
 40
0.4
 40
0.4
 40
0.4
 40
0.44
 40
0.44
 40
0.44
 40
0.44
 40
0.4799999999999999
 40
0.4799999999999999
 40
0.4799999999999999
 40
0.4799999999999999
 40
0.5199999999999999
 40
0.5199999999999999
 40
0.5199999999999999
 40
0.5199999999999999
 40
0.5599999999999999
 40
0.5599999999999999
 40
0.5599999999999999
 40
0.5599999999999999
 40
0.6
 40
0.6
 40
0.6
 40
0.6
 40
0.64
 40
0.64
 40
0.64
 40
0.64
 40
0.6800000000000001
 40
0.6800000000000001
 40
0.6800000000000001
 40
0.6800000000000001
 40
0.7200000000000001
 40
0.7200000000000001
 40
0.7200000000000001
 40
0.7200000000000001
 40
0.7600000000000001
 40
0.7600000000000001
 40
0.7600000000000001
 40
0.7600000000000001
 40
0.8000000000000002
 40
0.8000000000000002
 40
0.8000000000000002
 40
0.8000000000000002
 40
0.8400000000000002
 40
0.8400000000000002
 40
0.8400000000000002
 40
0.8400000000000002
 40
0.8800000000000002
 40
0.8800000000000002
 40
0.8800000000000002
 40
0.8800000000000002
 40
0.9200000000000003
 40
0.9200000000000003
 40
0.9200000000000003
 40
0.9200000000000003
 40
0.9600000000000003
 40
0.9600000000000003
 40
0.9600000000000003
 40
0.9600000000000003
 40
1.0
 40
1.0
 40
1.0
 40
1.0
 10
-0.3185866141732284
 20
2.216622047244095
 30
0.0
 10
-0.3185866141732284
 20
2.216622047244095
 30
0.0
 10
-0.2646141732283465
 20
2.216622047244095
 30
0.0
 10
-0.2646141732283465
 20
2.216622047244095
 30
0.0
 10
-0.2646141732283465
 20
2.216622047244095
 30
0.0
 10
-0.2514448818897638
 20
2.216622047244095
 30
0.0
 10
-0.2424173228346457
 20
2.216011811023622
 30
0.0
 10
-0.2375314960629922
 20
2.214814960629921
 30
0.0
 10
-0.2375314960629922
 20
2.214814960629921
 30
0.0
 10
-0.2303070866141732
 20
2.213094488188976
 30
0.0
 10
-0.2246141732283465
 20
2.209956692913386
 30
0.0
 10
-0.2203897637795276
 20
2.205397637795276
 30
0.0
 10
-0.2203897637795276
 20
2.205397637795276
 30
0.0
 10
-0.2161968503937008
 20
2.20084251968504
 30
0.0
 10
-0.2140866141732284
 20
2.19534251968504
 30
0.0
 10
-0.2140866141732284
 20
2.188956692913386
 30
0.0
 10
-0.2140866141732284
 20
2.188956692913386
 30
0.0
 10
-0.2140866141732284
 20
2.18434251968504
 30
0.0
 10
-0.2151968503937008
 20
2.180204724409449
 30
0.0
 10
-0.2174173228346457
 20
2.17653937007874
 30
0.0
 10
-0.2174173228346457
 20
2.17653937007874
 30
0.0
 10
-0.2196417322834646
 20
2.172870078740158
 30
0.0
 10
-0.2228897637795276
 20
2.169732283464567
 30
0.0
 10
-0.2271141732283465
 20
2.167149606299213
 30
0.0
 10
-0.2271141732283465
 20
2.167149606299213
 30
0.0
 10
-0.2298346456692914
 20
2.165456692913386
 30
0.0
 10
-0.233503937007874
 20
2.164011811023622
 30
0.0
 10
-0.2381692913385827
 20
2.162814960629921
 30
0.0
 10
-0.2381692913385827
 20
2.162814960629921
 30
0.0
 10
-0.232251968503937
 20
2.161732283464567
 30
0.0
 10
-0.227751968503937
 20
2.160429133858268
 30
0.0
 10
-0.2246692913385827
 20
2.158929133858268
 30
0.0
 10
-0.2246692913385827
 20
2.158929133858268
 30
0.0
 10
-0.220003937007874
 20
2.156649606299213
 30
0.0
 10
-0.2163070866141733
 20
2.15340157480315
 30
0.0
 10
-0.2136141732283465
 20
2.149149606299213
 30
0.0
 10
-0.2136141732283465
 20
2.149149606299213
 30
0.0
 10
-0.2108897637795276
 20
2.144929133858268
 30
0.0
 10
-0.2095314960629921
 20
2.140149606299213
 30
0.0
 10
-0.2095314960629921
 20
2.134842519685039
 30
0.0
 10
-0.2095314960629921
 20
2.134842519685039
 30
0.0
 10
-0.2095314960629921
 20
2.129677165354331
 30
0.0
 10
-0.2108622047244095
 20
2.12490157480315
 30
0.0
 10
-0.2135314960629921
 20
2.120511811023622
 30
0.0
 10
-0.2135314960629921
 20
2.120511811023622
 30
0.0
 10
-0.2161692913385827
 20
2.116122047244095
 30
0.0
 10
-0.2199448818897638
 20
2.112511811023622
 30
0.0
 10
-0.2247795275590551
 20
2.109677165354331
 30
0.0
 10
-0.2247795275590551
 20
2.109677165354331
 30
0.0
 10
-0.2296417322834646
 20
2.106874015748032
 30
0.0
 10
-0.2353070866141732
 20
2.105066929133858
 30
0.0
 10
-0.241751968503937
 20
2.104259842519685
 30
0.0
 10
-0.241751968503937
 20
2.104259842519685
 30
0.0
 10
-0.2482244094488189
 20
2.103484251968504
 30
0.0
 10
-0.2548622047244095
 20
2.103094488188976
 30
0.0
 10
-0.2616968503937008
 20
2.103094488188976
 30
0.0
 10
-0.2616968503937008
 20
2.103094488188976
 30
0.0
 10
-0.2616968503937008
 20
2.103094488188976
 30
0.0
 10
-0.3185866141732284
 20
2.103094488188976
 30
0.0
 10
-0.3185866141732284
 20
2.103094488188976
 30
0.0
 10
-0.3185866141732284
 20
2.103094488188976
 30
0.0
 10
-0.3185866141732284
 20
2.103094488188976
 30
0.0
 10
-0.3185866141732284
 20
2.109929133858268
 30
0.0
 10
-0.3185866141732284
 20
2.109929133858268
 30
0.0
 10
-0.3185866141732284
 20
2.109929133858268
 30
0.0
 10
-0.3185866141732284
 20
2.109929133858268
 30
0.0
 10
-0.314751968503937
 20
2.109929133858268
 30
0.0
 10
-0.314751968503937
 20
2.109929133858268
 30
0.0
 10
-0.314751968503937
 20
2.109929133858268
 30
0.0
 10
-0.3110551181102362
 20
2.109929133858268
 30
0.0
 10
-0.3085551181102362
 20
2.110511811023622
 30
0.0
 10
-0.3071968503937008
 20
2.111649606299213
 30
0.0
 10
-0.3071968503937008
 20
2.111649606299213
 30
0.0
 10
-0.3052244094488189
 20
2.113204724409449
 30
0.0
 10
-0.304251968503937
 20
2.115814960629921
 30
0.0
 10
-0.304251968503937
 20
2.119456692913386
 30
0.0
 10
-0.304251968503937
 20
2.119456692913386
 30
0.0
 10
-0.304251968503937
 20
2.119456692913386
 30
0.0
 10
-0.304251968503937
 20
2.198314960629921
 30
0.0
 10
-0.304251968503937
 20
2.198314960629921
 30
0.0
 10
-0.304251968503937
 20
2.198314960629921
 30
0.0
 10
-0.304251968503937
 20
2.202011811023622
 30
0.0
 10
-0.3045551181102362
 20
2.204511811023622
 30
0.0
 10
-0.3051417322834646
 20
2.205870078740158
 30
0.0
 10
-0.3051417322834646
 20
2.205870078740158
 30
0.0
 10
-0.305751968503937
 20
2.207232283464567
 30
0.0
 10
-0.3066417322834646
 20
2.208204724409449
 30
0.0
 10
-0.3078346456692914
 20
2.208814960629921
 30
0.0
 10
-0.3078346456692914
 20
2.208814960629921
 30
0.0
 10
-0.3090275590551181
 20
2.209397637795276
 30
0.0
 10
-0.3113346456692914
 20
2.209704724409449
 30
0.0
 10
-0.314751968503937
 20
2.209704724409449
 30
0.0
 10
-0.314751968503937
 20
2.209704724409449
 30
0.0
 10
-0.314751968503937
 20
2.209704724409449
 30
0.0
 10
-0.3185866141732284
 20
2.209704724409449
 30
0.0
 10
-0.3185866141732284
 20
2.209704724409449
 30
0.0
 10
-0.3185866141732284
 20
2.209704724409449
 30
0.0
 10
-0.3185866141732284
 20
2.209704724409449
 30
0.0
 10
-0.3185866141732284
 20
2.216622047244095
 30
0.0
 10
-0.3185866141732284
 20
2.216622047244095
 30
0.0
  0
SPLINE
  5
6A
330
1F
100
AcDbEntity
  8
LAYER_1
 62
   250
100
AcDbSpline
210
0.0
220
0.0
230
1.0
 70
    11
 71
     3
 72
    40
 73
    36
 74
     0
 42
0.0000000001
 43
0.0000000001
 40
0.0
 40
0.0
 40
0.0
 40
0.0
 40
0.1111111111111111
 40
0.1111111111111111
 40
0.1111111111111111
 40
0.1111111111111111
 40
0.2222222222222222
 40
0.2222222222222222
 40
0.2222222222222222
 40
0.2222222222222222
 40
0.3333333333333333
 40
0.3333333333333333
 40
0.3333333333333333
 40
0.3333333333333333
 40
0.4444444444444444
 40
0.4444444444444444
 40
0.4444444444444444
 40
0.4444444444444444
 40
0.5555555555555556
 40
0.5555555555555556
 40
0.5555555555555556
 40
0.5555555555555556
 40
0.6666666666666667
 40
0.6666666666666667
 40
0.6666666666666667
 40
0.6666666666666667
 40
0.7777777777777779
 40
0.7777777777777779
 40
0.7777777777777779
 40
0.7777777777777779
 40
0.8888888888888891
 40
0.8888888888888891
 40
0.8888888888888891
 40
0.8888888888888891
 40
1.0
 40
1.0
 40
1.0
 40
1.0
 10
-0.2890275590551181
 20
2.207594488188977
 30
0.0
 10
-0.2890275590551181
 20
2.207594488188977
 30
0.0
 10
-0.2890275590551181
 20
2.166011811023622
 30
0.0
 10
-0.2890275590551181
 20
2.166011811023622
 30
0.0
 10
-0.2890275590551181
 20
2.166011811023622
 30
0.0
 10
-0.2890275590551181
 20
2.166011811023622
 30
0.0
 10
-0.2682795275590552
 20
2.166011811023622
 30
0.0
 10
-0.2682795275590552
 20
2.166011811023622
 30
0.0
 10
-0.2682795275590552
 20
2.166011811023622
 30
0.0
 10
-0.2585866141732284
 20
2.166011811023622
 30
0.0
 10
-0.2519173228346457
 20
2.166456692913386
 30
0.0
 10
-0.2483622047244095
 20
2.167370078740158
 30
0.0
 10
-0.2483622047244095
 20
2.167370078740158
 30
0.0
 10
-0.242751968503937
 20
2.16884251968504
 30
0.0
 10
-0.238503937007874
 20
2.17134251968504
 30
0.0
 10
-0.2355314960629922
 20
2.174870078740157
 30
0.0
 10
-0.2355314960629922
 20
2.174870078740157
 30
0.0
 10
-0.2325866141732284
 20
2.178397637795276
 30
0.0
 10
-0.2310866141732283
 20
2.182929133858268
 30
0.0
 10
-0.2310866141732283
 20
2.188456692913386
 30
0.0
 10
-0.2310866141732283
 20
2.188456692913386
 30
0.0
 10
-0.2310866141732283
 20
2.193122047244095
 30
0.0
 10
-0.2324448818897638
 20
2.197011811023622
 30
0.0
 10
-0.2351141732283465
 20
2.200149606299213
 30
0.0
 10
-0.2351141732283465
 20
2.200149606299213
 30
0.0
 10
-0.2378070866141732
 20
2.203259842519685
 30
0.0
 10
-0.2414173228346457
 20
2.205397637795276
 30
0.0
 10
-0.2459173228346457
 20
2.20653937007874
 30
0.0
 10
-0.2459173228346457
 20
2.20653937007874
 30
0.0
 10
-0.2488346456692913
 20
2.207232283464567
 30
0.0
 10
-0.2549173228346457
 20
2.207594488188977
 30
0.0
 10
-0.2641417322834646
 20
2.207594488188977
 30
0.0
 10
-0.2641417322834646
 20
2.207594488188977
 30
0.0
 10
-0.2641417322834646
 20
2.207594488188977
 30
0.0
 10
-0.2890275590551181
 20
2.207594488188977
 30
0.0
 10
-0.2890275590551181
 20
2.207594488188977
 30
0.0
  0
SPLINE
  5
6B
330
1F
100
AcDbEntity
  8
LAYER_1
 62
   250
100
AcDbSpline
210
0.0
220
0.0
230
1.0
 70
    11
 71
     3
 72
    52
 73
    48
 74
     0
 42
0.0000000001
 43
0.0000000001
 40
0.0
 40
0.0
 40
0.0
 40
0.0
 40
0.0833333333333333
 40
0.0833333333333333
 40
0.0833333333333333
 40
0.0833333333333333
 40
0.1666666666666667
 40
0.1666666666666667
 40
0.1666666666666667
 40
0.1666666666666667
 40
0.25
 40
0.25
 40
0.25
 40
0.25
 40
0.3333333333333333
 40
0.3333333333333333
 40
0.3333333333333333
 40
0.3333333333333333
 40
0.4166666666666666
 40
0.4166666666666666
 40
0.4166666666666666
 40
0.4166666666666666
 40
0.4999999999999999
 40
0.4999999999999999
 40
0.4999999999999999
 40
0.4999999999999999
 40
0.5833333333333333
 40
0.5833333333333333
 40
0.5833333333333333
 40
0.5833333333333333
 40
0.6666666666666666
 40
0.6666666666666666
 40
0.6666666666666666
 40
0.6666666666666666
 40
0.75
 40
0.75
 40
0.75
 40
0.75
 40
0.8333333333333334
 40
0.8333333333333334
 40
0.8333333333333334
 40
0.8333333333333334
 40
0.9166666666666667
 40
0.9166666666666667
 40
0.9166666666666667
 40
0.9166666666666667
 40
1.0
 40
1.0
 40
1.0
 40
1.0
 10
-0.2890275590551181
 20
2.158177165354331
 30
0.0
 10
-0.2890275590551181
 20
2.158177165354331
 30
0.0
 10
-0.2890275590551181
 20
2.120929133858268
 30
0.0
 10
-0.2890275590551181
 20
2.120929133858268
 30
0.0
 10
-0.2890275590551181
 20
2.120929133858268
 30
0.0
 10
-0.2890275590551181
 20
2.117177165354331
 30
0.0
 10
-0.2888622047244094
 20
2.114956692913386
 30
0.0
 10
-0.2885590551181103
 20
2.114232283464567
 30
0.0
 10
-0.2885590551181103
 20
2.114232283464567
 30
0.0
 10
-0.2881141732283465
 20
2.113259842519685
 30
0.0
 10
-0.287251968503937
 20
2.112594488188976
 30
0.0
 10
-0.2859448818897638
 20
2.112204724409449
 30
0.0
 10
-0.2859448818897638
 20
2.112204724409449
 30
0.0
 10
-0.2850275590551181
 20
2.111929133858268
 30
0.0
 10
-0.2824173228346457
 20
2.111787401574803
 30
0.0
 10
-0.2781417322834646
 20
2.111787401574803
 30
0.0
 10
-0.2781417322834646
 20
2.111787401574803
 30
0.0
 10
-0.2781417322834646
 20
2.111787401574803
 30
0.0
 10
-0.2670590551181102
 20
2.111787401574803
 30
0.0
 10
-0.2670590551181102
 20
2.111787401574803
 30
0.0
 10
-0.2670590551181102
 20
2.111787401574803
 30
0.0
 10
-0.2561141732283465
 20
2.111787401574803
 30
0.0
 10
-0.2482795275590551
 20
2.11240157480315
 30
0.0
 10
-0.2435866141732284
 20
2.113622047244095
 30
0.0
 10
-0.2435866141732284
 20
2.113622047244095
 30
0.0
 10
-0.2388897637795276
 20
2.114842519685039
 30
0.0
 10
-0.2348897637795276
 20
2.117429133858268
 30
0.0
 10
-0.2315866141732283
 20
2.121374015748032
 30
0.0
 10
-0.2315866141732283
 20
2.121374015748032
 30
0.0
 10
-0.2282795275590551
 20
2.125287401574803
 30
0.0
 10
-0.2266141732283465
 20
2.13003937007874
 30
0.0
 10
-0.2266141732283465
 20
2.135566929133858
 30
0.0
 10
-0.2266141732283465
 20
2.135566929133858
 30
0.0
 10
-0.2266141732283465
 20
2.140232283464567
 30
0.0
 10
-0.2279724409448819
 20
2.144370078740157
 30
0.0
 10
-0.2306417322834646
 20
2.147984251968504
 30
0.0
 10
-0.2306417322834646
 20
2.147984251968504
 30
0.0
 10
-0.2333346456692914
 20
2.151594488188977
 30
0.0
 10
-0.2370590551181102
 20
2.154177165354331
 30
0.0
 10
-0.2418070866141732
 20
2.155787401574803
 30
0.0
 10
-0.2418070866141732
 20
2.155787401574803
 30
0.0
 10
-0.2465590551181102
 20
2.15740157480315
 30
0.0
 10
-0.2549724409448819
 20
2.158177165354331
 30
0.0
 10
-0.2670590551181102
 20
2.158177165354331
 30
0.0
 10
-0.2670590551181102
 20
2.158177165354331
 30
0.0
 10
-0.2670590551181102
 20
2.158177165354331
 30
0.0
 10
-0.2890275590551181
 20
2.158177165354331
 30
0.0
 10
-0.2890275590551181
 20
2.158177165354331
 30
0.0
  0
SPLINE
  5
6C
330
1F
100
AcDbEntity
  8
LAYER_1
 62
   250
100
AcDbSpline
210
0.0
220
0.0
230
1.0
 70
    11
 71
     3
 72
   112
 73
   108
 74
     0
 42
0.0000000001
 43
0.0000000001
 40
0.0
 40
0.0
 40
0.0
 40
0.0
 40
0.037037037037037
 40
0.037037037037037
 40
0.037037037037037
 40
0.037037037037037
 40
0.0740740740740741
 40
0.0740740740740741
 40
0.0740740740740741
 40
0.0740740740740741
 40
0.1111111111111111
 40
0.1111111111111111
 40
0.1111111111111111
 40
0.1111111111111111
 40
0.1481481481481481
 40
0.1481481481481481
 40
0.1481481481481481
 40
0.1481481481481481
 40
0.1851851851851852
 40
0.1851851851851852
 40
0.1851851851851852
 40
0.1851851851851852
 40
0.2222222222222222
 40
0.2222222222222222
 40
0.2222222222222222
 40
0.2222222222222222
 40
0.2592592592592592
 40
0.2592592592592592
 40
0.2592592592592592
 40
0.2592592592592592
 40
0.2962962962962963
 40
0.2962962962962963
 40
0.2962962962962963
 40
0.2962962962962963
 40
0.3333333333333333
 40
0.3333333333333333
 40
0.3333333333333333
 40
0.3333333333333333
 40
0.3703703703703704
 40
0.3703703703703704
 40
0.3703703703703704
 40
0.3703703703703704
 40
0.4074074074074074
 40
0.4074074074074074
 40
0.4074074074074074
 40
0.4074074074074074
 40
0.4444444444444444
 40
0.4444444444444444
 40
0.4444444444444444
 40
0.4444444444444444
 40
0.4814814814814815
 40
0.4814814814814815
 40
0.4814814814814815
 40
0.4814814814814815
 40
0.5185185185185185
 40
0.5185185185185185
 40
0.5185185185185185
 40
0.5185185185185185
 40
0.5555555555555556
 40
0.5555555555555556
 40
0.5555555555555556
 40
0.5555555555555556
 40
0.5925925925925926
 40
0.5925925925925926
 40
0.5925925925925926
 40
0.5925925925925926
 40
0.6296296296296295
 40
0.6296296296296295
 40
0.6296296296296295
 40
0.6296296296296295
 40
0.6666666666666665
 40
0.6666666666666665
 40
0.6666666666666665
 40
0.6666666666666665
 40
0.7037037037037035
 40
0.7037037037037035
 40
0.7037037037037035
 40
0.7037037037037035
 40
0.7407407407407405
 40
0.7407407407407405
 40
0.7407407407407405
 40
0.7407407407407405
 40
0.7777777777777775
 40
0.7777777777777775
 40
0.7777777777777775
 40
0.7777777777777775
 40
0.8148148148148144
 40
0.8148148148148144
 40
0.8148148148148144
 40
0.8148148148148144
 40
0.8518518518518514
 40
0.8518518518518514
 40
0.8518518518518514
 40
0.8518518518518514
 40
0.8888888888888884
 40
0.8888888888888884
 40
0.8888888888888884
 40
0.8888888888888884
 40
0.9259259259259254
 40
0.9259259259259254
 40
0.9259259259259254
 40
0.9259259259259254
 40
0.9629629629629624
 40
0.9629629629629624
 40
0.9629629629629624
 40
0.9629629629629624
 40
1.0
 40
1.0
 40
1.0
 40
1.0
 10
-0.1519212598425197
 20
2.216622047244095
 30
0.0
 10
-0.1519212598425197
 20
2.216622047244095
 30
0.0
 10
-0.138503937007874
 20
2.216622047244095
 30
0.0
 10
-0.138503937007874
 20
2.216622047244095
 30
0.0
 10
-0.138503937007874
 20
2.216622047244095
 30
0.0
 10
-0.138503937007874
 20
2.216622047244095
 30
0.0
 10
-0.103255905511811
 20
2.121732283464567
 30
0.0
 10
-0.103255905511811
 20
2.121732283464567
 30
0.0
 10
-0.103255905511811
 20
2.121732283464567
 30
0.0
 10
-0.1015314960629921
 20
2.116956692913386
 30
0.0
 10
-0.0997834645669291
 20
2.113787401574803
 30
0.0
 10
-0.098003937007874
 20
2.112259842519685
 30
0.0
 10
-0.098003937007874
 20
2.112259842519685
 30
0.0
 10
-0.096255905511811
 20
2.110704724409449
 30
0.0
 10
-0.0938661417322835
 20
2.109929133858268
 30
0.0
 10
-0.0908937007874016
 20
2.109929133858268
 30
0.0
 10
-0.0908937007874016
 20
2.109929133858268
 30
0.0
 10
-0.0908937007874016
 20
2.109929133858268
 30
0.0
 10
-0.0891141732283465
 20
2.109929133858268
 30
0.0
 10
-0.0891141732283465
 20
2.109929133858268
 30
0.0
 10
-0.0891141732283465
 20
2.109929133858268
 30
0.0
 10
-0.0891141732283465
 20
2.109929133858268
 30
0.0
 10
-0.0891141732283465
 20
2.103094488188976
 30
0.0
 10
-0.0891141732283465
 20
2.103094488188976
 30
0.0
 10
-0.0891141732283465
 20
2.103094488188976
 30
0.0
 10
-0.0891141732283465
 20
2.103094488188976
 30
0.0
 10
-0.1295590551181103
 20
2.103094488188976
 30
0.0
 10
-0.1295590551181103
 20
2.103094488188976
 30
0.0
 10
-0.1295590551181103
 20
2.103094488188976
 30
0.0
 10
-0.1295590551181103
 20
2.103094488188976
 30
0.0
 10
-0.1295590551181103
 20
2.109929133858268
 30
0.0
 10
-0.1295590551181103
 20
2.109929133858268
 30
0.0
 10
-0.1295590551181103
 20
2.109929133858268
 30
0.0
 10
-0.128255905511811
 20
2.11003937007874
 30
0.0
 10
-0.1269763779527559
 20
2.110094488188977
 30
0.0
 10
-0.1257244094488189
 20
2.110094488188977
 30
0.0
 10
-0.1257244094488189
 20
2.110094488188977
 30
0.0
 10
-0.1231141732283465
 20
2.110094488188977
 30
0.0
 10
-0.1214212598425197
 20
2.110374015748032
 30
0.0
 10
-0.1205866141732284
 20
2.11090157480315
 30
0.0
 10
-0.1205866141732284
 20
2.11090157480315
 30
0.0
 10
-0.1190314960629921
 20
2.111929133858268
 30
0.0
 10
-0.1182283464566929
 20
2.113232283464567
 30
0.0
 10
-0.1182283464566929
 20
2.114814960629921
 30
0.0
 10
-0.1182283464566929
 20
2.114814960629921
 30
0.0
 10
-0.1182283464566929
 20
2.115956692913386
 30
0.0
 10
-0.119003937007874
 20
2.118732283464567
 30
0.0
 10
-0.120503937007874
 20
2.123204724409449
 30
0.0
 10
-0.120503937007874
 20
2.123204724409449
 30
0.0
 10
-0.120503937007874
 20
2.123204724409449
 30
0.0
 10
-0.128003937007874
 20
2.145177165354331
 30
0.0
 10
-0.128003937007874
 20
2.145177165354331
 30
0.0
 10
-0.128003937007874
 20
2.145177165354331
 30
0.0
 10
-0.128003937007874
 20
2.145177165354331
 30
0.0
 10
-0.1691692913385827
 20
2.145177165354331
 30
0.0
 10
-0.1691692913385827
 20
2.145177165354331
 30
0.0
 10
-0.1691692913385827
 20
2.145177165354331
 30
0.0
 10
-0.1691692913385827
 20
2.145177165354331
 30
0.0
 10
-0.1779763779527559
 20
2.120594488188976
 30
0.0
 10
-0.1779763779527559
 20
2.120594488188976
 30
0.0
 10
-0.1779763779527559
 20
2.120594488188976
 30
0.0
 10
-0.1788937007874016
 20
2.11803937007874
 30
0.0
 10
-0.1793661417322835
 20
2.116287401574803
 30
0.0
 10
-0.1793661417322835
 20
2.115287401574803
 30
0.0
 10
-0.1793661417322835
 20
2.115287401574803
 30
0.0
 10
-0.1793661417322835
 20
2.114204724409449
 30
0.0
 10
-0.1790590551181102
 20
2.113259842519685
 30
0.0
 10
-0.178503937007874
 20
2.112456692913386
 30
0.0
 10
-0.178503937007874
 20
2.112456692913386
 30
0.0
 10
-0.1779212598425197
 20
2.111649606299213
 30
0.0
 10
-0.1771692913385827
 20
2.11103937007874
 30
0.0
 10
-0.1761692913385827
 20
2.110622047244095
 30
0.0
 10
-0.1761692913385827
 20
2.110622047244095
 30
0.0
 10
-0.1751968503937008
 20
2.110204724409449
 30
0.0
 10
-0.1736417322834646
 20
2.110011811023622
 30
0.0
 10
-0.1714488188976378
 20
2.110011811023622
 30
0.0
 10
-0.1714488188976378
 20
2.110011811023622
 30
0.0
 10
-0.170003937007874
 20
2.110011811023622
 30
0.0
 10
-0.1688110236220473
 20
2.109984251968504
 30
0.0
 10
-0.1678937007874016
 20
2.109929133858268
 30
0.0
 10
-0.1678937007874016
 20
2.109929133858268
 30
0.0
 10
-0.1678937007874016
 20
2.109929133858268
 30
0.0
 10
-0.1678937007874016
 20
2.103094488188976
 30
0.0
 10
-0.1678937007874016
 20
2.103094488188976
 30
0.0
 10
-0.1678937007874016
 20
2.103094488188976
 30
0.0
 10
-0.1678937007874016
 20
2.103094488188976
 30
0.0
 10
-0.2018110236220473
 20
2.103094488188976
 30
0.0
 10
-0.2018110236220473
 20
2.103094488188976
 30
0.0
 10
-0.2018110236220473
 20
2.103094488188976
 30
0.0
 10
-0.2018110236220473
 20
2.103094488188976
 30
0.0
 10
-0.2018110236220473
 20
2.109929133858268
 30
0.0
 10
-0.2018110236220473
 20
2.109929133858268
 30
0.0
 10
-0.2018110236220473
 20
2.109929133858268
 30
0.0
 10
-0.1986692913385827
 20
2.109929133858268
 30
0.0
 10
-0.1963937007874016
 20
2.110232283464567
 30
0.0
 10
-0.1950314960629921
 20
2.110874015748032
 30
0.0
 10
-0.1950314960629921
 20
2.110874015748032
 30
0.0
 10
-0.1936417322834646
 20
2.111484251968504
 30
0.0
 10
-0.1924212598425197
 20
2.112484251968504
 30
0.0
 10
-0.1913937007874016
 20
2.113874015748031
 30
0.0
 10
-0.1913937007874016
 20
2.113874015748031
 30
0.0
 10
-0.1903661417322835
 20
2.115259842519685
 30
0.0
 10
-0.189003937007874
 20
2.118177165354331
 30
0.0
 10
-0.1873385826771654
 20
2.122622047244095
 30
0.0
 10
-0.1873385826771654
 20
2.122622047244095
 30
0.0
 10
-0.1873385826771654
 20
2.122622047244095
 30
0.0
 10
-0.1519212598425197
 20
2.216622047244095
 30
0.0
 10
-0.1519212598425197
 20
2.216622047244095
 30
0.0
  0
SPLINE
  5
6D
330
1F
100
AcDbEntity
  8
LAYER_1
 62
   250
100
AcDbSpline
210
0.0
220
0.0
230
1.0
 70
    11
 71
     3
 72
    16
 73
    12
 74
     0
 42
0.0000000001
 43
0.0000000001
 40
0.0
 40
0.0
 40
0.0
 40
0.0
 40
0.3333333333333333
 40
0.3333333333333333
 40
0.3333333333333333
 40
0.3333333333333333
 40
0.6666666666666666
 40
0.6666666666666666
 40
0.6666666666666666
 40
0.6666666666666666
 40
1.0
 40
1.0
 40
1.0
 40
1.0
 10
-0.1661692913385827
 20
2.153149606299213
 30
0.0
 10
-0.1661692913385827
 20
2.153149606299213
 30
0.0
 10
-0.1310866141732283
 20
2.153149606299213
 30
0.0
 10
-0.1310866141732283
 20
2.153149606299213
 30
0.0
 10
-0.1310866141732283
 20
2.153149606299213
 30
0.0
 10
-0.1310866141732283
 20
2.153149606299213
 30
0.0
 10
-0.1486692913385827
 20
2.201984251968504
 30
0.0
 10
-0.1486692913385827
 20
2.201984251968504
 30
0.0
 10
-0.1486692913385827
 20
2.201984251968504
 30
0.0
 10
-0.1486692913385827
 20
2.201984251968504
 30
0.0
 10
-0.1661692913385827
 20
2.153149606299213
 30
0.0
 10
-0.1661692913385827
 20
2.153149606299213
 30
0.0
  0
SPLINE
  5
6E
330
1F
100
AcDbEntity
  8
LAYER_1
 62
   250
100
AcDbSpline
210
0.0
220
0.0
230
1.0
 70
    11
 71
     3
 72
    72
 73
    68
 74
     0
 42
0.0000000001
 43
0.0000000001
 40
0.0
 40
0.0
 40
0.0
 40
0.0
 40
0.0588235294117647
 40
0.0588235294117647
 40
0.0588235294117647
 40
0.0588235294117647
 40
0.1176470588235294
 40
0.1176470588235294
 40
0.1176470588235294
 40
0.1176470588235294
 40
0.1764705882352941
 40
0.1764705882352941
 40
0.1764705882352941
 40
0.1764705882352941
 40
0.2352941176470588
 40
0.2352941176470588
 40
0.2352941176470588
 40
0.2352941176470588
 40
0.2941176470588235
 40
0.2941176470588235
 40
0.2941176470588235
 40
0.2941176470588235
 40
0.3529411764705883
 40
0.3529411764705883
 40
0.3529411764705883
 40
0.3529411764705883
 40
0.411764705882353
 40
0.411764705882353
 40
0.411764705882353
 40
0.411764705882353
 40
0.4705882352941177
 40
0.4705882352941177
 40
0.4705882352941177
 40
0.4705882352941177
 40
0.5294117647058824
 40
0.5294117647058824
 40
0.5294117647058824
 40
0.5294117647058824
 40
0.5882352941176471
 40
0.5882352941176471
 40
0.5882352941176471
 40
0.5882352941176471
 40
0.6470588235294118
 40
0.6470588235294118
 40
0.6470588235294118
 40
0.6470588235294118
 40
0.7058823529411765
 40
0.7058823529411765
 40
0.7058823529411765
 40
0.7058823529411765
 40
0.7647058823529412
 40
0.7647058823529412
 40
0.7647058823529412
 40
0.7647058823529412
 40
0.823529411764706
 40
0.823529411764706
 40
0.823529411764706
 40
0.823529411764706
 40
0.8823529411764707
 40
0.8823529411764707
 40
0.8823529411764707
 40
0.8823529411764707
 40
0.9411764705882354
 40
0.9411764705882354
 40
0.9411764705882354
 40
0.9411764705882354
 40
1.0
 40
1.0
 40
1.0
 40
1.0
 10
0.0739133858267717
 20
2.216622047244095
 30
0.0
 10
0.0739133858267717
 20
2.216622047244095
 30
0.0
 10
0.079996062992126
 20
2.216622047244095
 30
0.0
 10
0.079996062992126
 20
2.216622047244095
 30
0.0
 10
0.079996062992126
 20
2.216622047244095
 30
0.0
 10
0.079996062992126
 20
2.216622047244095
 30
0.0
 10
0.079996062992126
 20
2.122374015748032
 30
0.0
 10
0.079996062992126
 20
2.122374015748032
 30
0.0
 10
0.079996062992126
 20
2.122374015748032
 30
0.0
 10
0.079996062992126
 20
2.117929133858268
 30
0.0
 10
0.0803031496062992
 20
2.115066929133858
 30
0.0
 10
0.0808582677165354
 20
2.113787401574803
 30
0.0
 10
0.0808582677165354
 20
2.113787401574803
 30
0.0
 10
0.0814409448818898
 20
2.112511811023622
 30
0.0
 10
0.0823582677165354
 20
2.111566929133858
 30
0.0
 10
0.0836614173228347
 20
2.11090157480315
 30
0.0
 10
0.0836614173228347
 20
2.11090157480315
 30
0.0
 10
0.0849685039370079
 20
2.110259842519685
 30
0.0
 10
0.0875511811023622
 20
2.109929133858268
 30
0.0
 10
0.0914133858267717
 20
2.109929133858268
 30
0.0
 10
0.0914133858267717
 20
2.109929133858268
 30
0.0
 10
0.0914133858267717
 20
2.109929133858268
 30
0.0
 10
0.0993858267716535
 20
2.109929133858268
 30
0.0
 10
0.0993858267716535
 20
2.109929133858268
 30
0.0
 10
0.0993858267716535
 20
2.109929133858268
 30
0.0
 10
0.0993858267716535
 20
2.109929133858268
 30
0.0
 10
0.0993858267716535
 20
2.103094488188976
 30
0.0
 10
0.0993858267716535
 20
2.103094488188976
 30
0.0
 10
0.0993858267716535
 20
2.103094488188976
 30
0.0
 10
0.0993858267716535
 20
2.103094488188976
 30
0.0
 10
0.045748031496063
 20
2.103094488188976
 30
0.0
 10
0.045748031496063
 20
2.103094488188976
 30
0.0
 10
0.045748031496063
 20
2.103094488188976
 30
0.0
 10
0.045748031496063
 20
2.103094488188976
 30
0.0
 10
0.045748031496063
 20
2.109929133858268
 30
0.0
 10
0.045748031496063
 20
2.109929133858268
 30
0.0
 10
0.045748031496063
 20
2.109929133858268
 30
0.0
 10
0.045748031496063
 20
2.109929133858268
 30
0.0
 10
0.0546062992125984
 20
2.109929133858268
 30
0.0
 10
0.0546062992125984
 20
2.109929133858268
 30
0.0
 10
0.0546062992125984
 20
2.109929133858268
 30
0.0
 10
0.0584685039370079
 20
2.109929133858268
 30
0.0
 10
0.0610236220472441
 20
2.110259842519685
 30
0.0
 10
0.0623031496062992
 20
2.110956692913386
 30
0.0
 10
0.0623031496062992
 20
2.110956692913386
 30
0.0
 10
0.0635787401574803
 20
2.111622047244095
 30
0.0
 10
0.0645787401574803
 20
2.112704724409449
 30
0.0
 10
0.0652755905511811
 20
2.114204724409449
 30
0.0
 10
0.0652755905511811
 20
2.114204724409449
 30
0.0
 10
0.0659685039370079
 20
2.115704724409449
 30
0.0
 10
0.0663307086614173
 20
2.118429133858268
 30
0.0
 10
0.0663307086614173
 20
2.122374015748032
 30
0.0
 10
0.0663307086614173
 20
2.122374015748032
 30
0.0
 10
0.0663307086614173
 20
2.122374015748032
 30
0.0
 10
0.0663307086614173
 20
2.199842519685039
 30
0.0
 10
0.0663307086614173
 20
2.199842519685039
 30
0.0
 10
0.0663307086614173
 20
2.199842519685039
 30
0.0
 10
0.0663307086614173
 20
2.199842519685039
 30
0.0
 10
0.045748031496063
 20
2.199842519685039
 30
0.0
 10
0.045748031496063
 20
2.199842519685039
 30
0.0
 10
0.045748031496063
 20
2.199842519685039
 30
0.0
 10
0.045748031496063
 20
2.199842519685039
 30
0.0
 10
0.045748031496063
 20
2.206842519685039
 30
0.0
 10
0.045748031496063
 20
2.206842519685039
 30
0.0
 10
0.045748031496063
 20
2.206842519685039
 30
0.0
 10
0.0569685039370079
 20
2.208425196850394
 30
0.0
 10
0.0663582677165354
 20
2.211677165354331
 30
0.0
 10
0.0739133858267717
 20
2.216622047244095
 30
0.0
  0
SPLINE
  5
6F
330
1F
100
AcDbEntity
  8
LAYER_1
 62
   250
100
AcDbSpline
210
0.0
220
0.0
230
1.0
 70
    11
 71
     3
 72
    84
 73
    80
 74
     0
 42
0.0000000001
 43
0.0000000001
 40
0.0
 40
0.0
 40
0.0
 40
0.0
 40
0.05
 40
0.05
 40
0.05
 40
0.05
 40
0.1
 40
0.1
 40
0.1
 40
0.1
 40
0.15
 40
0.15
 40
0.15
 40
0.15
 40
0.2
 40
0.2
 40
0.2
 40
0.2
 40
0.25
 40
0.25
 40
0.25
 40
0.25
 40
0.3
 40
0.3
 40
0.3
 40
0.3
 40
0.35
 40
0.35
 40
0.35
 40
0.35
 40
0.4
 40
0.4
 40
0.4
 40
0.4
 40
0.45
 40
0.45
 40
0.45
 40
0.45
 40
0.4999999999999999
 40
0.4999999999999999
 40
0.4999999999999999
 40
0.4999999999999999
 40
0.5499999999999999
 40
0.5499999999999999
 40
0.5499999999999999
 40
0.5499999999999999
 40
0.6
 40
0.6
 40
0.6
 40
0.6
 40
0.65
 40
0.65
 40
0.65
 40
0.65
 40
0.7000000000000001
 40
0.7000000000000001
 40
0.7000000000000001
 40
0.7000000000000001
 40
0.7500000000000001
 40
0.7500000000000001
 40
0.7500000000000001
 40
0.7500000000000001
 40
0.8000000000000002
 40
0.8000000000000002
 40
0.8000000000000002
 40
0.8000000000000002
 40
0.8500000000000002
 40
0.8500000000000002
 40
0.8500000000000002
 40
0.8500000000000002
 40
0.9000000000000002
 40
0.9000000000000002
 40
0.9000000000000002
 40
0.9000000000000002
 40
0.9500000000000003
 40
0.9500000000000003
 40
0.9500000000000003
 40
0.9500000000000003
 40
1.0
 40
1.0
 40
1.0
 40
1.0
 10
0.2055787401574803
 20
2.218732283464567
 30
0.0
 10
0.2055787401574803
 20
2.218732283464567
 30
0.0
 10
0.2055787401574803
 20
2.211314960629921
 30
0.0
 10
0.2055787401574803
 20
2.211314960629921
 30
0.0
 10
0.2055787401574803
 20
2.211314960629921
 30
0.0
 10
0.1921929133858268
 20
2.211177165354331
 30
0.0
 10
0.1813582677165354
 20
2.209204724409449
 30
0.0
 10
0.1730826771653543
 20
2.205484251968504
 30
0.0
 10
0.1730826771653543
 20
2.205484251968504
 30
0.0
 10
0.1648031496062992
 20
2.201732283464567
 30
0.0
 10
0.1587204724409449
 20
2.196122047244095
 30
0.0
 10
0.1548031496062992
 20
2.188677165354331
 30
0.0
 10
0.1548031496062992
 20
2.188677165354331
 30
0.0
 10
0.1508858267716536
 20
2.181204724409449
 30
0.0
 10
0.1486929133858268
 20
2.172011811023622
 30
0.0
 10
0.1482204724409449
 20
2.161122047244095
 30
0.0
 10
0.1482204724409449
 20
2.161122047244095
 30
0.0
 10
0.1509685039370079
 20
2.165342519685039
 30
0.0
 10
0.1538031496062992
 20
2.168649606299213
 30
0.0
 10
0.1567204724409449
 20
2.171011811023622
 30
0.0
 10
0.1567204724409449
 20
2.171011811023622
 30
0.0
 10
0.1596102362204724
 20
2.173370078740158
 30
0.0
 10
0.162996062992126
 20
2.175177165354331
 30
0.0
 10
0.1668858267716536
 20
2.176456692913386
 30
0.0
 10
0.1668858267716536
 20
2.176456692913386
 30
0.0
 10
0.1707755905511811
 20
2.177732283464567
 30
0.0
 10
0.1750236220472441
 20
2.178370078740158
 30
0.0
 10
0.1796377952755906
 20
2.178370078740158
 30
0.0
 10
0.1796377952755906
 20
2.178370078740158
 30
0.0
 10
0.186996062992126
 20
2.178370078740158
 30
0.0
 10
0.1935787401574803
 20
2.176732283464567
 30
0.0
 10
0.1993307086614173
 20
2.173484251968504
 30
0.0
 10
0.1993307086614173
 20
2.173484251968504
 30
0.0
 10
0.2050787401574803
 20
2.170232283464567
 30
0.0
 10
0.2095511811023622
 20
2.165814960629922
 30
0.0
 10
0.212748031496063
 20
2.160259842519685
 30
0.0
 10
0.212748031496063
 20
2.160259842519685
 30
0.0
 10
0.2159409448818898
 20
2.154704724409449
 30
0.0
 10
0.2175511811023622
 20
2.148149606299213
 30
0.0
 10
0.2175511811023622
 20
2.140622047244094
 30
0.0
 10
0.2175511811023622
 20
2.140622047244094
 30
0.0
 10
0.2175511811023622
 20
2.128622047244094
 30
0.0
 10
0.2139409448818898
 20
2.119204724409449
 30
0.0
 10
0.2067204724409449
 20
2.112374015748032
 30
0.0
 10
0.2067204724409449
 20
2.112374015748032
 30
0.0
 10
0.198748031496063
 20
2.104874015748032
 30
0.0
 10
0.1884133858267717
 20
2.101149606299213
 30
0.0
 10
0.1757204724409449
 20
2.101149606299213
 30
0.0
 10
0.1757204724409449
 20
2.101149606299213
 30
0.0
 10
0.1665511811023622
 20
2.101149606299213
 30
0.0
 10
0.1588307086614173
 20
2.10303937007874
 30
0.0
 10
0.1525236220472441
 20
2.106842519685039
 30
0.0
 10
0.1525236220472441
 20
2.106842519685039
 30
0.0
 10
0.1462204724409449
 20
2.110622047244095
 30
0.0
 10
0.1412204724409449
 20
2.116429133858268
 30
0.0
 10
0.137496062992126
 20
2.124259842519685
 30
0.0
 10
0.137496062992126
 20
2.124259842519685
 30
0.0
 10
0.1338031496062992
 20
2.132066929133858
 30
0.0
 10
0.1319409448818898
 20
2.141732283464567
 30
0.0
 10
0.1319409448818898
 20
2.153232283464567
 30
0.0
 10
0.1319409448818898
 20
2.153232283464567
 30
0.0
 10
0.1319409448818898
 20
2.164787401574803
 30
0.0
 10
0.1339133858267717
 20
2.17503937007874
 30
0.0
 10
0.1378307086614173
 20
2.183984251968504
 30
0.0
 10
0.1378307086614173
 20
2.183984251968504
 30
0.0
 10
0.1417755905511811
 20
2.192925196850394
 30
0.0
 10
0.1472204724409449
 20
2.200122047244095
 30
0.0
 10
0.1541653543307087
 20
2.205539370078741
 30
0.0
 10
0.1541653543307087
 20
2.205539370078741
 30
0.0
 10
0.1611102362204724
 20
2.210984251968504
 30
0.0
 10
0.1687204724409449
 20
2.21453937007874
 30
0.0
 10
0.1769685039370079
 20
2.216204724409449
 30
0.0
 10
0.1769685039370079
 20
2.216204724409449
 30
0.0
 10
0.185248031496063
 20
2.217897637795276
 30
0.0
 10
0.1926653543307087
 20
2.218732283464567
 30
0.0
 10
0.199248031496063
 20
2.218732283464567
 30
0.0
 10
0.199248031496063
 20
2.218732283464567
 30
0.0
 10
0.199248031496063
 20
2.218732283464567
 30
0.0
 10
0.2055787401574803
 20
2.218732283464567
 30
0.0
 10
0.2055787401574803
 20
2.218732283464567
 30
0.0
  0
SPLINE
  5
70
330
1F
100
AcDbEntity
  8
LAYER_1
 62
   250
100
AcDbSpline
210
0.0
220
0.0
230
1.0
 70
    11
 71
     3
 72
    40
 73
    36
 74
     0
 42
0.0000000001
 43
0.0000000001
 40
0.0
 40
0.0
 40
0.0
 40
0.0
 40
0.1111111111111111
 40
0.1111111111111111
 40
0.1111111111111111
 40
0.1111111111111111
 40
0.2222222222222222
 40
0.2222222222222222
 40
0.2222222222222222
 40
0.2222222222222222
 40
0.3333333333333333
 40
0.3333333333333333
 40
0.3333333333333333
 40
0.3333333333333333
 40
0.4444444444444444
 40
0.4444444444444444
 40
0.4444444444444444
 40
0.4444444444444444
 40
0.5555555555555556
 40
0.5555555555555556
 40
0.5555555555555556
 40
0.5555555555555556
 40
0.6666666666666667
 40
0.6666666666666667
 40
0.6666666666666667
 40
0.6666666666666667
 40
0.7777777777777779
 40
0.7777777777777779
 40
0.7777777777777779
 40
0.7777777777777779
 40
0.8888888888888891
 40
0.8888888888888891
 40
0.8888888888888891
 40
0.8888888888888891
 40
1.0
 40
1.0
 40
1.0
 40
1.0
 10
0.1758858267716535
 20
2.169732283464567
 30
0.0
 10
0.1680826771653543
 20
2.169732283464567
 30
0.0
 10
0.1616653543307087
 20
2.166787401574803
 30
0.0
 10
0.1566377952755906
 20
2.160870078740158
 30
0.0
 10
0.1566377952755906
 20
2.160870078740158
 30
0.0
 10
0.1516102362204725
 20
2.154956692913386
 30
0.0
 10
0.1491102362204725
 20
2.147842519685039
 30
0.0
 10
0.1491102362204725
 20
2.139566929133858
 30
0.0
 10
0.1491102362204725
 20
2.139566929133858
 30
0.0
 10
0.1491102362204725
 20
2.133704724409449
 30
0.0
 10
0.1503307086614173
 20
2.128287401574804
 30
0.0
 10
0.1527755905511811
 20
2.123314960629922
 30
0.0
 10
0.1527755905511811
 20
2.123314960629922
 30
0.0
 10
0.1552204724409449
 20
2.11834251968504
 30
0.0
 10
0.1583582677165354
 20
2.114677165354331
 30
0.0
 10
0.1622204724409449
 20
2.112259842519685
 30
0.0
 10
0.1622204724409449
 20
2.112259842519685
 30
0.0
 10
0.1660511811023622
 20
2.109842519685039
 30
0.0
 10
0.1704133858267717
 20
2.108622047244094
 30
0.0
 10
0.1752204724409449
 20
2.108622047244094
 30
0.0
 10
0.1752204724409449
 20
2.108622047244094
 30
0.0
 10
0.1827204724409449
 20
2.108622047244094
 30
0.0
 10
0.1889409448818898
 20
2.111456692913386
 30
0.0
 10
0.1939133858267717
 20
2.117122047244095
 30
0.0
 10
0.1939133858267717
 20
2.117122047244095
 30
0.0
 10
0.1988582677165355
 20
2.122787401574803
 30
0.0
 10
0.2013582677165355
 20
2.13040157480315
 30
0.0
 10
0.2013582677165355
 20
2.139956692913386
 30
0.0
 10
0.2013582677165355
 20
2.139956692913386
 30
0.0
 10
0.2013582677165355
 20
2.149066929133858
 30
0.0
 10
0.1989409448818898
 20
2.156314960629922
 30
0.0
 10
0.1941102362204724
 20
2.161677165354331
 30
0.0
 10
0.1941102362204724
 20
2.161677165354331
 30
0.0
 10
0.1892755905511811
 20
2.167066929133859
 30
0.0
 10
0.1831929133858268
 20
2.169732283464567
 30
0.0
 10
0.1758858267716535
 20
2.169732283464567
 30
0.0
  0
SPLINE
  5
71
330
1F
100
AcDbEntity
  8
LAYER_1
 62
   250
100
AcDbSpline
210
0.0
220
0.0
230
1.0
 70
    11
 71
     3
 72
    80
 73
    76
 74
     0
 42
0.0000000001
 43
0.0000000001
 40
0.0
 40
0.0
 40
0.0
 40
0.0
 40
0.0526315789473684
 40
0.0526315789473684
 40
0.0526315789473684
 40
0.0526315789473684
 40
0.1052631578947368
 40
0.1052631578947368
 40
0.1052631578947368
 40
0.1052631578947368
 40
0.1578947368421053
 40
0.1578947368421053
 40
0.1578947368421053
 40
0.1578947368421053
 40
0.2105263157894737
 40
0.2105263157894737
 40
0.2105263157894737
 40
0.2105263157894737
 40
0.2631578947368421
 40
0.2631578947368421
 40
0.2631578947368421
 40
0.2631578947368421
 40
0.3157894736842105
 40
0.3157894736842105
 40
0.3157894736842105
 40
0.3157894736842105
 40
0.3684210526315789
 40
0.3684210526315789
 40
0.3684210526315789
 40
0.3684210526315789
 40
0.4210526315789474
 40
0.4210526315789474
 40
0.4210526315789474
 40
0.4210526315789474
 40
0.4736842105263158
 40
0.4736842105263158
 40
0.4736842105263158
 40
0.4736842105263158
 40
0.5263157894736842
 40
0.5263157894736842
 40
0.5263157894736842
 40
0.5263157894736842
 40
0.5789473684210527
 40
0.5789473684210527
 40
0.5789473684210527
 40
0.5789473684210527
 40
0.631578947368421
 40
0.631578947368421
 40
0.631578947368421
 40
0.631578947368421
 40
0.6842105263157894
 40
0.6842105263157894
 40
0.6842105263157894
 40
0.6842105263157894
 40
0.7368421052631577
 40
0.7368421052631577
 40
0.7368421052631577
 40
0.7368421052631577
 40
0.7894736842105261
 40
0.7894736842105261
 40
0.7894736842105261
 40
0.7894736842105261
 40
0.8421052631578945
 40
0.8421052631578945
 40
0.8421052631578945
 40
0.8421052631578945
 40
0.8947368421052628
 40
0.8947368421052628
 40
0.8947368421052628
 40
0.8947368421052628
 40
0.9473684210526312
 40
0.9473684210526312
 40
0.9473684210526312
 40
0.9473684210526312
 40
1.0
 40
1.0
 40
1.0
 40
1.0
 10
0.2426929133858268
 20
2.220759842519685
 30
0.0
 10
0.2426929133858268
 20
2.220759842519685
 30
0.0
 10
0.2480826771653543
 20
2.220759842519685
 30
0.0
 10
0.2480826771653543
 20
2.220759842519685
 30
0.0
 10
0.2480826771653543
 20
2.220759842519685
 30
0.0
 10
0.2480826771653543
 20
2.220759842519685
 30
0.0
 10
0.2490551181102362
 20
2.216622047244095
 30
0.0
 10
0.2490551181102362
 20
2.216622047244095
 30
0.0
 10
0.2490551181102362
 20
2.216622047244095
 30
0.0
 10
0.2490551181102362
 20
2.216622047244095
 30
0.0
 10
0.3201653543307087
 20
2.216622047244095
 30
0.0
 10
0.3201653543307087
 20
2.216622047244095
 30
0.0
 10
0.3201653543307087
 20
2.216622047244095
 30
0.0
 10
0.3201653543307087
 20
2.216622047244095
 30
0.0
 10
0.3201653543307087
 20
2.209704724409449
 30
0.0
 10
0.3201653543307087
 20
2.209704724409449
 30
0.0
 10
0.3201653543307087
 20
2.209704724409449
 30
0.0
 10
0.3116653543307087
 20
2.199870078740158
 30
0.0
 10
0.3039409448818898
 20
2.188704724409449
 30
0.0
 10
0.2970275590551181
 20
2.176122047244095
 30
0.0
 10
0.2970275590551181
 20
2.176122047244095
 30
0.0
 10
0.2901102362204724
 20
2.163566929133858
 30
0.0
 10
0.284748031496063
 20
2.150787401574803
 30
0.0
 10
0.2809409448818898
 20
2.137759842519685
 30
0.0
 10
0.2809409448818898
 20
2.137759842519685
 30
0.0
 10
0.2781929133858268
 20
2.128374015748032
 30
0.0
 10
0.2759448818897638
 20
2.116814960629921
 30
0.0
 10
0.2741929133858268
 20
2.103094488188976
 30
0.0
 10
0.2741929133858268
 20
2.103094488188976
 30
0.0
 10
0.2741929133858268
 20
2.103094488188976
 30
0.0
 10
0.2575275590551181
 20
2.103094488188976
 30
0.0
 10
0.2575275590551181
 20
2.103094488188976
 30
0.0
 10
0.2575275590551181
 20
2.103094488188976
 30
0.0
 10
0.2591377952755906
 20
2.115204724409449
 30
0.0
 10
0.2618031496062993
 20
2.126511811023622
 30
0.0
 10
0.2655275590551181
 20
2.13703937007874
 30
0.0
 10
0.2655275590551181
 20
2.13703937007874
 30
0.0
 10
0.269248031496063
 20
2.147566929133858
 30
0.0
 10
0.2746102362204724
 20
2.158566929133858
 30
0.0
 10
0.2816377952755906
 20
2.17003937007874
 30
0.0
 10
0.2816377952755906
 20
2.17003937007874
 30
0.0
 10
0.2886653543307087
 20
2.181511811023622
 30
0.0
 10
0.2971929133858268
 20
2.192956692913386
 30
0.0
 10
0.307248031496063
 20
2.204397637795276
 30
0.0
 10
0.307248031496063
 20
2.204397637795276
 30
0.0
 10
0.307248031496063
 20
2.204397637795276
 30
0.0
 10
0.2565275590551181
 20
2.204397637795276
 30
0.0
 10
0.2565275590551181
 20
2.204397637795276
 30
0.0
 10
0.2565275590551181
 20
2.204397637795276
 30
0.0
 10
0.2528582677165355
 20
2.204397637795276
 30
0.0
 10
0.2503307086614173
 20
2.204232283464567
 30
0.0
 10
0.2489724409448819
 20
2.203842519685039
 30
0.0
 10
0.2489724409448819
 20
2.203842519685039
 30
0.0
 10
0.2476102362204725
 20
2.203456692913386
 30
0.0
 10
0.2465551181102362
 20
2.202870078740157
 30
0.0
 10
0.2458031496062992
 20
2.202066929133858
 30
0.0
 10
0.2458031496062992
 20
2.202066929133858
 30
0.0
 10
0.2450275590551181
 20
2.201232283464567
 30
0.0
 10
0.2443858267716536
 20
2.199787401574803
 30
0.0
 10
0.2438307086614173
 20
2.197732283464567
 30
0.0
 10
0.2438307086614173
 20
2.197732283464567
 30
0.0
 10
0.2438307086614173
 20
2.197732283464567
 30
0.0
 10
0.2434448818897638
 20
2.196204724409449
 30
0.0
 10
0.2434448818897638
 20
2.196204724409449
 30
0.0
 10
0.2434448818897638
 20
2.196204724409449
 30
0.0
 10
0.2434448818897638
 20
2.196204724409449
 30
0.0
 10
0.2406653543307087
 20
2.186594488188976
 30
0.0
 10
0.2406653543307087
 20
2.186594488188976
 30
0.0
 10
0.2406653543307087
 20
2.186594488188976
 30
0.0
 10
0.2406653543307087
 20
2.186594488188976
 30
0.0
 10
0.233748031496063
 20
2.188066929133858
 30
0.0
 10
0.233748031496063
 20
2.188066929133858
 30
0.0
 10
0.233748031496063
 20
2.188066929133858
 30
0.0
 10
0.233748031496063
 20
2.188066929133858
 30
0.0
 10
0.2426929133858268
 20
2.220759842519685
 30
0.0
 10
0.2426929133858268
 20
2.220759842519685
 30
0.0
  0
SPLINE
  5
72
330
1F
100
AcDbEntity
  8
LAYER_1
 62
   250
100
AcDbSpline
210
0.0
220
0.0
230
1.0
 70
    11
 71
     3
 72
   172
 73
   168
 74
     0
 42
0.0000000001
 43
0.0000000001
 40
0.0
 40
0.0
 40
0.0
 40
0.0
 40
0.0238095238095238
 40
0.0238095238095238
 40
0.0238095238095238
 40
0.0238095238095238
 40
0.0476190476190476
 40
0.0476190476190476
 40
0.0476190476190476
 40
0.0476190476190476
 40
0.0714285714285714
 40
0.0714285714285714
 40
0.0714285714285714
 40
0.0714285714285714
 40
0.0952380952380952
 40
0.0952380952380952
 40
0.0952380952380952
 40
0.0952380952380952
 40
0.119047619047619
 40
0.119047619047619
 40
0.119047619047619
 40
0.119047619047619
 40
0.1428571428571429
 40
0.1428571428571429
 40
0.1428571428571429
 40
0.1428571428571429
 40
0.1666666666666667
 40
0.1666666666666667
 40
0.1666666666666667
 40
0.1666666666666667
 40
0.1904761904761905
 40
0.1904761904761905
 40
0.1904761904761905
 40
0.1904761904761905
 40
0.2142857142857143
 40
0.2142857142857143
 40
0.2142857142857143
 40
0.2142857142857143
 40
0.2380952380952381
 40
0.2380952380952381
 40
0.2380952380952381
 40
0.2380952380952381
 40
0.2619047619047619
 40
0.2619047619047619
 40
0.2619047619047619
 40
0.2619047619047619
 40
0.2857142857142857
 40
0.2857142857142857
 40
0.2857142857142857
 40
0.2857142857142857
 40
0.3095238095238095
 40
0.3095238095238095
 40
0.3095238095238095
 40
0.3095238095238095
 40
0.3333333333333334
 40
0.3333333333333334
 40
0.3333333333333334
 40
0.3333333333333334
 40
0.3571428571428572
 40
0.3571428571428572
 40
0.3571428571428572
 40
0.3571428571428572
 40
0.380952380952381
 40
0.380952380952381
 40
0.380952380952381
 40
0.380952380952381
 40
0.4047619047619049
 40
0.4047619047619049
 40
0.4047619047619049
 40
0.4047619047619049
 40
0.4285714285714287
 40
0.4285714285714287
 40
0.4285714285714287
 40
0.4285714285714287
 40
0.4523809523809526
 40
0.4523809523809526
 40
0.4523809523809526
 40
0.4523809523809526
 40
0.4761904761904764
 40
0.4761904761904764
 40
0.4761904761904764
 40
0.4761904761904764
 40
0.5000000000000002
 40
0.5000000000000002
 40
0.5000000000000002
 40
0.5000000000000002
 40
0.5238095238095241
 40
0.5238095238095241
 40
0.5238095238095241
 40
0.5238095238095241
 40
0.5476190476190479
 40
0.5476190476190479
 40
0.5476190476190479
 40
0.5476190476190479
 40
0.5714285714285717
 40
0.5714285714285717
 40
0.5714285714285717
 40
0.5714285714285717
 40
0.5952380952380956
 40
0.5952380952380956
 40
0.5952380952380956
 40
0.5952380952380956
 40
0.6190476190476194
 40
0.6190476190476194
 40
0.6190476190476194
 40
0.6190476190476194
 40
0.6428571428571432
 40
0.6428571428571432
 40
0.6428571428571432
 40
0.6428571428571432
 40
0.6666666666666671
 40
0.6666666666666671
 40
0.6666666666666671
 40
0.6666666666666671
 40
0.6904761904761909
 40
0.6904761904761909
 40
0.6904761904761909
 40
0.6904761904761909
 40
0.7142857142857148
 40
0.7142857142857148
 40
0.7142857142857148
 40
0.7142857142857148
 40
0.7380952380952386
 40
0.7380952380952386
 40
0.7380952380952386
 40
0.7380952380952386
 40
0.7619047619047624
 40
0.7619047619047624
 40
0.7619047619047624
 40
0.7619047619047624
 40
0.7857142857142863
 40
0.7857142857142863
 40
0.7857142857142863
 40
0.7857142857142863
 40
0.8095238095238101
 40
0.8095238095238101
 40
0.8095238095238101
 40
0.8095238095238101
 40
0.8333333333333339
 40
0.8333333333333339
 40
0.8333333333333339
 40
0.8333333333333339
 40
0.8571428571428578
 40
0.8571428571428578
 40
0.8571428571428578
 40
0.8571428571428578
 40
0.8809523809523816
 40
0.8809523809523816
 40
0.8809523809523816
 40
0.8809523809523816
 40
0.9047619047619054
 40
0.9047619047619054
 40
0.9047619047619054
 40
0.9047619047619054
 40
0.9285714285714293
 40
0.9285714285714293
 40
0.9285714285714293
 40
0.9285714285714293
 40
0.9523809523809531
 40
0.9523809523809531
 40
0.9523809523809531
 40
0.9523809523809531
 40
0.9761904761904769
 40
0.9761904761904769
 40
0.9761904761904769
 40
0.9761904761904769
 40
1.0
 40
1.0
 40
1.0
 40
1.0
 10
0.3500551181102362
 20
2.186259842519685
 30
0.0
 10
0.3500551181102362
 20
2.186259842519685
 30
0.0
 10
0.342248031496063
 20
2.187484251968504
 30
0.0
 10
0.342248031496063
 20
2.187484251968504
 30
0.0
 10
0.342248031496063
 20
2.187484251968504
 30
0.0
 10
0.3429448818897638
 20
2.193342519685039
 30
0.0
 10
0.3444724409448819
 20
2.198204724409449
 30
0.0
 10
0.3468070866141733
 20
2.202066929133858
 30
0.0
 10
0.3468070866141733
 20
2.202066929133858
 30
0.0
 10
0.3498897637795276
 20
2.207259842519685
 30
0.0
 10
0.354248031496063
 20
2.211314960629921
 30
0.0
 10
0.3598897637795276
 20
2.214204724409449
 30
0.0
 10
0.3598897637795276
 20
2.214204724409449
 30
0.0
 10
0.3655551181102362
 20
2.217122047244095
 30
0.0
 10
0.3720275590551181
 20
2.218566929133858
 30
0.0
 10
0.3793622047244095
 20
2.218566929133858
 30
0.0
 10
0.3793622047244095
 20
2.218566929133858
 30
0.0
 10
0.3865551181102362
 20
2.218566929133858
 30
0.0
 10
0.3929173228346457
 20
2.217287401574803
 30
0.0
 10
0.3983897637795276
 20
2.214704724409449
 30
0.0
 10
0.3983897637795276
 20
2.214704724409449
 30
0.0
 10
0.4038622047244095
 20
2.212122047244095
 30
0.0
 10
0.408
 20
2.208704724409449
 30
0.0
 10
0.4108031496062992
 20
2.204456692913386
 30
0.0
 10
0.4108031496062992
 20
2.204456692913386
 30
0.0
 10
0.4136102362204724
 20
2.200204724409449
 30
0.0
 10
0.415
 20
2.195594488188977
 30
0.0
 10
0.415
 20
2.190649606299213
 30
0.0
 10
0.415
 20
2.190649606299213
 30
0.0
 10
0.415
 20
2.186314960629921
 30
0.0
 10
0.4139448818897638
 20
2.182429133858268
 30
0.0
 10
0.4118307086614174
 20
2.179011811023622
 30
0.0
 10
0.4118307086614174
 20
2.179011811023622
 30
0.0
 10
0.4096929133858268
 20
2.175594488188977
 30
0.0
 10
0.4065551181102363
 20
2.17253937007874
 30
0.0
 10
0.4023897637795276
 20
2.169814960629922
 30
0.0
 10
0.4023897637795276
 20
2.169814960629922
 30
0.0
 10
0.3994448818897638
 20
2.167929133858268
 30
0.0
 10
0.3956377952755906
 20
2.166259842519685
 30
0.0
 10
0.3909173228346457
 20
2.164870078740158
 30
0.0
 10
0.3909173228346457
 20
2.164870078740158
 30
0.0
 10
0.3959448818897638
 20
2.164149606299213
 30
0.0
 10
0.4000826771653543
 20
2.162984251968504
 30
0.0
 10
0.4032755905511811
 20
2.161370078740158
 30
0.0
 10
0.4032755905511811
 20
2.161370078740158
 30
0.0
 10
0.4084724409448819
 20
2.158704724409449
 30
0.0
 10
0.4125826771653544
 20
2.15503937007874
 30
0.0
 10
0.4155551181102362
 20
2.150370078740158
 30
0.0
 10
0.4155551181102362
 20
2.150370078740158
 30
0.0
 10
0.4185551181102362
 20
2.145704724409449
 30
0.0
 10
0.4200275590551181
 20
2.140594488188977
 30
0.0
 10
0.4200275590551181
 20
2.134984251968504
 30
0.0
 10
0.4200275590551181
 20
2.134984251968504
 30
0.0
 10
0.4200275590551181
 20
2.12603937007874
 30
0.0
 10
0.4161102362204724
 20
2.118149606299213
 30
0.0
 10
0.408248031496063
 20
2.11134251968504
 30
0.0
 10
0.408248031496063
 20
2.11134251968504
 30
0.0
 10
0.4003622047244095
 20
2.10453937007874
 30
0.0
 10
0.3901929133858268
 20
2.101149606299213
 30
0.0
 10
0.3777204724409449
 20
2.101149606299213
 30
0.0
 10
0.3777204724409449
 20
2.101149606299213
 30
0.0
 10
0.3654173228346457
 20
2.101149606299213
 30
0.0
 10
0.3550551181102362
 20
2.104429133858268
 30
0.0
 10
0.3466377952755906
 20
2.110984251968504
 30
0.0
 10
0.3466377952755906
 20
2.110984251968504
 30
0.0
 10
0.3395826771653543
 20
2.116566929133859
 30
0.0
 10
0.3360551181102363
 20
2.122204724409449
 30
0.0
 10
0.3360551181102363
 20
2.127842519685039
 30
0.0
 10
0.3360551181102363
 20
2.127842519685039
 30
0.0
 10
0.3360551181102363
 20
2.130066929133859
 30
0.0
 10
0.3367795275590552
 20
2.131929133858268
 30
0.0
 10
0.3382204724409449
 20
2.13340157480315
 30
0.0
 10
0.3382204724409449
 20
2.13340157480315
 30
0.0
 10
0.3396377952755906
 20
2.13490157480315
 30
0.0
 10
0.3414448818897638
 20
2.135649606299213
 30
0.0
 10
0.3436377952755906
 20
2.135649606299213
 30
0.0
 10
0.3436377952755906
 20
2.135649606299213
 30
0.0
 10
0.346
 20
2.135649606299213
 30
0.0
 10
0.3480551181102363
 20
2.134732283464567
 30
0.0
 10
0.3497204724409449
 20
2.132870078740158
 30
0.0
 10
0.3497204724409449
 20
2.132870078740158
 30
0.0
 10
0.3506377952755906
 20
2.131842519685039
 30
0.0
 10
0.3517204724409449
 20
2.129374015748032
 30
0.0
 10
0.3528897637795276
 20
2.125484251968504
 30
0.0
 10
0.3528897637795276
 20
2.125484251968504
 30
0.0
 10
0.3545826771653544
 20
2.119984251968504
 30
0.0
 10
0.3574448818897638
 20
2.115814960629921
 30
0.0
 10
0.3614448818897638
 20
2.112956692913386
 30
0.0
 10
0.3614448818897638
 20
2.112956692913386
 30
0.0
 10
0.3654724409448819
 20
2.110066929133859
 30
0.0
 10
0.3704448818897638
 20
2.108622047244094
 30
0.0
 10
0.3764173228346457
 20
2.108622047244094
 30
0.0
 10
0.3764173228346457
 20
2.108622047244094
 30
0.0
 10
0.381748031496063
 20
2.108622047244094
 30
0.0
 10
0.3865
 20
2.109787401574803
 30
0.0
 10
0.3906929133858268
 20
2.112122047244095
 30
0.0
 10
0.3906929133858268
 20
2.112122047244095
 30
0.0
 10
0.3949173228346457
 20
2.114456692913386
 30
0.0
 10
0.3982204724409449
 20
2.117759842519685
 30
0.0
 10
0.4006653543307087
 20
2.122066929133859
 30
0.0
 10
0.4006653543307087
 20
2.122066929133859
 30
0.0
 10
0.4031102362204724
 20
2.12634251968504
 30
0.0
 10
0.4043346456692913
 20
2.13103937007874
 30
0.0
 10
0.4043346456692913
 20
2.136122047244095
 30
0.0
 10
0.4043346456692913
 20
2.136122047244095
 30
0.0
 10
0.4043346456692913
 20
2.140259842519685
 30
0.0
 10
0.4034448818897638
 20
2.143956692913386
 30
0.0
 10
0.4016929133858268
 20
2.147232283464567
 30
0.0
 10
0.4016929133858268
 20
2.147232283464567
 30
0.0
 10
0.3999173228346457
 20
2.15053937007874
 30
0.0
 10
0.3974173228346457
 20
2.153314960629921
 30
0.0
 10
0.3941653543307087
 20
2.155594488188977
 30
0.0
 10
0.3941653543307087
 20
2.155594488188977
 30
0.0
 10
0.3916653543307087
 20
2.157370078740158
 30
0.0
 10
0.3884724409448819
 20
2.158622047244095
 30
0.0
 10
0.3846102362204725
 20
2.159314960629921
 30
0.0
 10
0.3846102362204725
 20
2.159314960629921
 30
0.0
 10
0.3807204724409449
 20
2.16003937007874
 30
0.0
 10
0.3772204724409449
 20
2.160397637795276
 30
0.0
 10
0.3741377952755906
 20
2.160397637795276
 30
0.0
 10
0.3741377952755906
 20
2.160397637795276
 30
0.0
 10
0.3741377952755906
 20
2.160397637795276
 30
0.0
 10
0.3665826771653544
 20
2.160397637795276
 30
0.0
 10
0.3665826771653544
 20
2.160397637795276
 30
0.0
 10
0.3665826771653544
 20
2.160397637795276
 30
0.0
 10
0.3665826771653544
 20
2.160397637795276
 30
0.0
 10
0.3665826771653544
 20
2.168287401574803
 30
0.0
 10
0.3665826771653544
 20
2.168287401574803
 30
0.0
 10
0.3665826771653544
 20
2.168287401574803
 30
0.0
 10
0.3665826771653544
 20
2.168287401574803
 30
0.0
 10
0.3713897637795276
 20
2.168287401574803
 30
0.0
 10
0.3713897637795276
 20
2.168287401574803
 30
0.0
 10
0.3713897637795276
 20
2.168287401574803
 30
0.0
 10
0.3761377952755906
 20
2.168287401574803
 30
0.0
 10
0.3806929133858268
 20
2.16884251968504
 30
0.0
 10
0.3850551181102362
 20
2.169956692913386
 30
0.0
 10
0.3850551181102362
 20
2.169956692913386
 30
0.0
 10
0.3893897637795276
 20
2.171066929133859
 30
0.0
 10
0.3928622047244095
 20
2.173342519685039
 30
0.0
 10
0.3954724409448819
 20
2.176814960629921
 30
0.0
 10
0.3954724409448819
 20
2.176814960629921
 30
0.0
 10
0.3980551181102363
 20
2.180287401574803
 30
0.0
 10
0.3993622047244095
 20
2.184232283464567
 30
0.0
 10
0.3993622047244095
 20
2.188622047244095
 30
0.0
 10
0.3993622047244095
 20
2.188622047244095
 30
0.0
 10
0.3993622047244095
 20
2.192425196850394
 30
0.0
 10
0.3984724409448819
 20
2.195842519685039
 30
0.0
 10
0.3966377952755906
 20
2.198870078740157
 30
0.0
 10
0.3966377952755906
 20
2.198870078740157
 30
0.0
 10
0.3948346456692913
 20
2.201925196850394
 30
0.0
 10
0.3921653543307087
 20
2.20434251968504
 30
0.0
 10
0.3886377952755906
 20
2.206122047244095
 30
0.0
 10
0.3886377952755906
 20
2.206122047244095
 30
0.0
 10
0.3851102362204725
 20
2.207897637795276
 30
0.0
 10
0.3810275590551182
 20
2.208814960629921
 30
0.0
 10
0.3764173228346457
 20
2.208814960629921
 30
0.0
 10
0.3764173228346457
 20
2.208814960629921
 30
0.0
 10
0.3719173228346457
 20
2.208814960629921
 30
0.0
 10
0.3677755905511811
 20
2.207870078740158
 30
0.0
 10
0.364
 20
2.20603937007874
 30
0.0
 10
0.364
 20
2.20603937007874
 30
0.0
 10
0.360248031496063
 20
2.204204724409449
 30
0.0
 10
0.3572204724409449
 20
2.201732283464567
 30
0.0
 10
0.3549448818897638
 20
2.198622047244095
 30
0.0
 10
0.3549448818897638
 20
2.198622047244095
 30
0.0
 10
0.3526653543307087
 20
2.19553937007874
 30
0.0
 10
0.3510275590551181
 20
2.191425196850394
 30
0.0
 10
0.3500551181102362
 20
2.186259842519685
 30
0.0
  0
SPLINE
  5
73
330
1F
100
AcDbEntity
  8
LAYER_1
 62
   250
100
AcDbSpline
210
0.0
220
0.0
230
1.0
 70
    11
 71
     3
 72
    72
 73
    68
 74
     0
 42
0.0000000001
 43
0.0000000001
 40
0.0
 40
0.0
 40
0.0
 40
0.0
 40
0.0588235294117647
 40
0.0588235294117647
 40
0.0588235294117647
 40
0.0588235294117647
 40
0.1176470588235294
 40
0.1176470588235294
 40
0.1176470588235294
 40
0.1176470588235294
 40
0.1764705882352941
 40
0.1764705882352941
 40
0.1764705882352941
 40
0.1764705882352941
 40
0.2352941176470588
 40
0.2352941176470588
 40
0.2352941176470588
 40
0.2352941176470588
 40
0.2941176470588235
 40
0.2941176470588235
 40
0.2941176470588235
 40
0.2941176470588235
 40
0.3529411764705883
 40
0.3529411764705883
 40
0.3529411764705883
 40
0.3529411764705883
 40
0.411764705882353
 40
0.411764705882353
 40
0.411764705882353
 40
0.411764705882353
 40
0.4705882352941177
 40
0.4705882352941177
 40
0.4705882352941177
 40
0.4705882352941177
 40
0.5294117647058824
 40
0.5294117647058824
 40
0.5294117647058824
 40
0.5294117647058824
 40
0.5882352941176471
 40
0.5882352941176471
 40
0.5882352941176471
 40
0.5882352941176471
 40
0.6470588235294118
 40
0.6470588235294118
 40
0.6470588235294118
 40
0.6470588235294118
 40
0.7058823529411765
 40
0.7058823529411765
 40
0.7058823529411765
 40
0.7058823529411765
 40
0.7647058823529412
 40
0.7647058823529412
 40
0.7647058823529412
 40
0.7647058823529412
 40
0.823529411764706
 40
0.823529411764706
 40
0.823529411764706
 40
0.823529411764706
 40
0.8823529411764707
 40
0.8823529411764707
 40
0.8823529411764707
 40
0.8823529411764707
 40
0.9411764705882354
 40
0.9411764705882354
 40
0.9411764705882354
 40
0.9411764705882354
 40
1.0
 40
1.0
 40
1.0
 40
1.0
 10
-0.4510157480314961
 20
2.029122047244095
 30
0.0
 10
-0.4510157480314961
 20
2.029122047244095
 30
0.0
 10
-0.4449330708661418
 20
2.029122047244095
 30
0.0
 10
-0.4449330708661418
 20
2.029122047244095
 30
0.0
 10
-0.4449330708661418
 20
2.029122047244095
 30
0.0
 10
-0.4449330708661418
 20
2.029122047244095
 30
0.0
 10
-0.4449330708661418
 20
1.934874015748032
 30
0.0
 10
-0.4449330708661418
 20
1.934874015748032
 30
0.0
 10
-0.4449330708661418
 20
1.934874015748032
 30
0.0
 10
-0.4449330708661418
 20
1.930429133858268
 30
0.0
 10
-0.4446259842519685
 20
1.927566929133858
 30
0.0
 10
-0.4440708661417323
 20
1.926287401574803
 30
0.0
 10
-0.4440708661417323
 20
1.926287401574803
 30
0.0
 10
-0.443488188976378
 20
1.925011811023622
 30
0.0
 10
-0.4425708661417323
 20
1.924066929133858
 30
0.0
 10
-0.4412677165354331
 20
1.92340157480315
 30
0.0
 10
-0.4412677165354331
 20
1.92340157480315
 30
0.0
 10
-0.4399606299212598
 20
1.922759842519685
 30
0.0
 10
-0.4373779527559055
 20
1.922429133858268
 30
0.0
 10
-0.4335157480314961
 20
1.922429133858268
 30
0.0
 10
-0.4335157480314961
 20
1.922429133858268
 30
0.0
 10
-0.4335157480314961
 20
1.922429133858268
 30
0.0
 10
-0.4255433070866142
 20
1.922429133858268
 30
0.0
 10
-0.4255433070866142
 20
1.922429133858268
 30
0.0
 10
-0.4255433070866142
 20
1.922429133858268
 30
0.0
 10
-0.4255433070866142
 20
1.922429133858268
 30
0.0
 10
-0.4255433070866142
 20
1.915594488188976
 30
0.0
 10
-0.4255433070866142
 20
1.915594488188976
 30
0.0
 10
-0.4255433070866142
 20
1.915594488188976
 30
0.0
 10
-0.4255433070866142
 20
1.915594488188976
 30
0.0
 10
-0.4791811023622047
 20
1.915594488188976
 30
0.0
 10
-0.4791811023622047
 20
1.915594488188976
 30
0.0
 10
-0.4791811023622047
 20
1.915594488188976
 30
0.0
 10
-0.4791811023622047
 20
1.915594488188976
 30
0.0
 10
-0.4791811023622047
 20
1.922429133858268
 30
0.0
 10
-0.4791811023622047
 20
1.922429133858268
 30
0.0
 10
-0.4791811023622047
 20
1.922429133858268
 30
0.0
 10
-0.4791811023622047
 20
1.922429133858268
 30
0.0
 10
-0.4703228346456693
 20
1.922429133858268
 30
0.0
 10
-0.4703228346456693
 20
1.922429133858268
 30
0.0
 10
-0.4703228346456693
 20
1.922429133858268
 30
0.0
 10
-0.4664606299212599
 20
1.922429133858268
 30
0.0
 10
-0.4639055118110236
 20
1.922759842519685
 30
0.0
 10
-0.4626259842519686
 20
1.923456692913386
 30
0.0
 10
-0.4626259842519686
 20
1.923456692913386
 30
0.0
 10
-0.4613503937007874
 20
1.924122047244095
 30
0.0
 10
-0.4603503937007874
 20
1.925204724409449
 30
0.0
 10
-0.4596535433070866
 20
1.926704724409449
 30
0.0
 10
-0.4596535433070866
 20
1.926704724409449
 30
0.0
 10
-0.4589606299212599
 20
1.928204724409449
 30
0.0
 10
-0.4585984251968504
 20
1.930929133858268
 30
0.0
 10
-0.4585984251968504
 20
1.934874015748032
 30
0.0
 10
-0.4585984251968504
 20
1.934874015748032
 30
0.0
 10
-0.4585984251968504
 20
1.934874015748032
 30
0.0
 10
-0.4585984251968504
 20
2.012342519685039
 30
0.0
 10
-0.4585984251968504
 20
2.012342519685039
 30
0.0
 10
-0.4585984251968504
 20
2.012342519685039
 30
0.0
 10
-0.4585984251968504
 20
2.012342519685039
 30
0.0
 10
-0.4791811023622047
 20
2.012342519685039
 30
0.0
 10
-0.4791811023622047
 20
2.012342519685039
 30
0.0
 10
-0.4791811023622047
 20
2.012342519685039
 30
0.0
 10
-0.4791811023622047
 20
2.012342519685039
 30
0.0
 10
-0.4791811023622047
 20
2.019342519685039
 30
0.0
 10
-0.4791811023622047
 20
2.019342519685039
 30
0.0
 10
-0.4791811023622047
 20
2.019342519685039
 30
0.0
 10
-0.4679606299212599
 20
2.020925196850394
 30
0.0
 10
-0.4585708661417323
 20
2.024177165354331
 30
0.0
 10
-0.4510157480314961
 20
2.029122047244095
 30
0.0
  0
SPLINE
  5
74
330
1F
100
AcDbEntity
  8
LAYER_1
 62
   250
100
AcDbSpline
210
0.0
220
0.0
230
1.0
 70
    11
 71
     3
 72
    60
 73
    56
 74
     0
 42
0.0000000001
 43
0.0000000001
 40
0.0
 40
0.0
 40
0.0
 40
0.0
 40
0.0714285714285714
 40
0.0714285714285714
 40
0.0714285714285714
 40
0.0714285714285714
 40
0.1428571428571429
 40
0.1428571428571429
 40
0.1428571428571429
 40
0.1428571428571429
 40
0.2142857142857143
 40
0.2142857142857143
 40
0.2142857142857143
 40
0.2142857142857143
 40
0.2857142857142857
 40
0.2857142857142857
 40
0.2857142857142857
 40
0.2857142857142857
 40
0.3571428571428571
 40
0.3571428571428571
 40
0.3571428571428571
 40
0.3571428571428571
 40
0.4285714285714285
 40
0.4285714285714285
 40
0.4285714285714285
 40
0.4285714285714285
 40
0.4999999999999999
 40
0.4999999999999999
 40
0.4999999999999999
 40
0.4999999999999999
 40
0.5714285714285713
 40
0.5714285714285713
 40
0.5714285714285713
 40
0.5714285714285713
 40
0.6428571428571427
 40
0.6428571428571427
 40
0.6428571428571427
 40
0.6428571428571427
 40
0.7142857142857141
 40
0.7142857142857141
 40
0.7142857142857141
 40
0.7142857142857141
 40
0.7857142857142855
 40
0.7857142857142855
 40
0.7857142857142855
 40
0.7857142857142855
 40
0.8571428571428569
 40
0.8571428571428569
 40
0.8571428571428569
 40
0.8571428571428569
 40
0.9285714285714283
 40
0.9285714285714283
 40
0.9285714285714283
 40
0.9285714285714283
 40
1.0
 40
1.0
 40
1.0
 40
1.0
 10
-0.3935708661417323
 20
1.98703937007874
 30
0.0
 10
-0.3935708661417323
 20
1.98703937007874
 30
0.0
 10
-0.3979606299212599
 20
1.992429133858268
 30
0.0
 10
-0.3979606299212599
 20
1.992429133858268
 30
0.0
 10
-0.3979606299212599
 20
1.992429133858268
 30
0.0
 10
-0.3868464566929134
 20
2.001484251968504
 30
0.0
 10
-0.3812637795275591
 20
2.00903937007874
 30
0.0
 10
-0.3812637795275591
 20
2.015122047244095
 30
0.0
 10
-0.3812637795275591
 20
2.015122047244095
 30
0.0
 10
-0.3812637795275591
 20
2.015814960629921
 30
0.0
 10
-0.3813188976377953
 20
2.016704724409449
 30
0.0
 10
-0.3814330708661418
 20
2.017732283464567
 30
0.0
 10
-0.3814330708661418
 20
2.017732283464567
 30
0.0
 10
-0.3823464566929134
 20
2.01734251968504
 30
0.0
 10
-0.3832637795275591
 20
2.01703937007874
 30
0.0
 10
-0.3841259842519685
 20
2.01684251968504
 30
0.0
 10
-0.3841259842519685
 20
2.01684251968504
 30
0.0
 10
-0.384988188976378
 20
2.016622047244095
 30
0.0
 10
-0.3857913385826772
 20
2.016511811023622
 30
0.0
 10
-0.3865708661417323
 20
2.016511811023622
 30
0.0
 10
-0.3865708661417323
 20
2.016511811023622
 30
0.0
 10
-0.3891811023622047
 20
2.016511811023622
 30
0.0
 10
-0.3912637795275591
 20
2.01734251968504
 30
0.0
 10
-0.3928188976377953
 20
2.01903937007874
 30
0.0
 10
-0.3928188976377953
 20
2.01903937007874
 30
0.0
 10
-0.3944055118110236
 20
2.020704724409449
 30
0.0
 10
-0.3951811023622047
 20
2.022842519685039
 30
0.0
 10
-0.3951811023622047
 20
2.025456692913386
 30
0.0
 10
-0.3951811023622047
 20
2.025456692913386
 30
0.0
 10
-0.3951811023622047
 20
2.028011811023622
 30
0.0
 10
-0.394236220472441
 20
2.030232283464567
 30
0.0
 10
-0.3923464566929134
 20
2.032122047244095
 30
0.0
 10
-0.3923464566929134
 20
2.032122047244095
 30
0.0
 10
-0.3904330708661418
 20
2.03403937007874
 30
0.0
 10
-0.3881535433070866
 20
2.034984251968504
 30
0.0
 10
-0.3855157480314961
 20
2.034984251968504
 30
0.0
 10
-0.3855157480314961
 20
2.034984251968504
 30
0.0
 10
-0.3818188976377953
 20
2.034984251968504
 30
0.0
 10
-0.3786535433070866
 20
2.033511811023622
 30
0.0
 10
-0.3760157480314961
 20
2.03053937007874
 30
0.0
 10
-0.3760157480314961
 20
2.03053937007874
 30
0.0
 10
-0.3734055118110237
 20
2.027594488188977
 30
0.0
 10
-0.3720708661417323
 20
2.023787401574803
 30
0.0
 10
-0.3720708661417323
 20
2.019122047244095
 30
0.0
 10
-0.3720708661417323
 20
2.019122047244095
 30
0.0
 10
-0.3720708661417323
 20
2.016066929133858
 30
0.0
 10
-0.3727086614173228
 20
2.012870078740157
 30
0.0
 10
-0.3739606299212598
 20
2.00953937007874
 30
0.0
 10
-0.3739606299212598
 20
2.00953937007874
 30
0.0
 10
-0.3752086614173228
 20
2.006204724409449
 30
0.0
 10
-0.3770157480314961
 20
2.003122047244095
 30
0.0
 10
-0.3794055118110236
 20
2.000259842519685
 30
0.0
 10
-0.3794055118110236
 20
2.000259842519685
 30
0.0
 10
-0.3817913385826772
 20
1.997429133858268
 30
0.0
 10
-0.3865157480314961
 20
1.993011811023622
 30
0.0
 10
-0.3935708661417323
 20
1.98703937007874
 30
0.0
  0
SPLINE
  5
75
330
1F
100
AcDbEntity
  8
LAYER_1
 62
   250
100
AcDbSpline
210
0.0
220
0.0
230
1.0
 70
    11
 71
     3
 72
    60
 73
    56
 74
     0
 42
0.0000000001
 43
0.0000000001
 40
0.0
 40
0.0
 40
0.0
 40
0.0
 40
0.0714285714285714
 40
0.0714285714285714
 40
0.0714285714285714
 40
0.0714285714285714
 40
0.1428571428571429
 40
0.1428571428571429
 40
0.1428571428571429
 40
0.1428571428571429
 40
0.2142857142857143
 40
0.2142857142857143
 40
0.2142857142857143
 40
0.2142857142857143
 40
0.2857142857142857
 40
0.2857142857142857
 40
0.2857142857142857
 40
0.2857142857142857
 40
0.3571428571428571
 40
0.3571428571428571
 40
0.3571428571428571
 40
0.3571428571428571
 40
0.4285714285714285
 40
0.4285714285714285
 40
0.4285714285714285
 40
0.4285714285714285
 40
0.4999999999999999
 40
0.4999999999999999
 40
0.4999999999999999
 40
0.4999999999999999
 40
0.5714285714285713
 40
0.5714285714285713
 40
0.5714285714285713
 40
0.5714285714285713
 40
0.6428571428571427
 40
0.6428571428571427
 40
0.6428571428571427
 40
0.6428571428571427
 40
0.7142857142857141
 40
0.7142857142857141
 40
0.7142857142857141
 40
0.7142857142857141
 40
0.7857142857142855
 40
0.7857142857142855
 40
0.7857142857142855
 40
0.7857142857142855
 40
0.8571428571428569
 40
0.8571428571428569
 40
0.8571428571428569
 40
0.8571428571428569
 40
0.9285714285714283
 40
0.9285714285714283
 40
0.9285714285714283
 40
0.9285714285714283
 40
1.0
 40
1.0
 40
1.0
 40
1.0
 10
-0.3645157480314961
 20
1.98703937007874
 30
0.0
 10
-0.3645157480314961
 20
1.98703937007874
 30
0.0
 10
-0.3689055118110237
 20
1.992429133858268
 30
0.0
 10
-0.3689055118110237
 20
1.992429133858268
 30
0.0
 10
-0.3689055118110237
 20
1.992429133858268
 30
0.0
 10
-0.3577913385826772
 20
2.001484251968504
 30
0.0
 10
-0.3522086614173228
 20
2.00903937007874
 30
0.0
 10
-0.3522086614173228
 20
2.015122047244095
 30
0.0
 10
-0.3522086614173228
 20
2.015122047244095
 30
0.0
 10
-0.3522086614173228
 20
2.015814960629921
 30
0.0
 10
-0.3522637795275591
 20
2.016704724409449
 30
0.0
 10
-0.3523779527559055
 20
2.017732283464567
 30
0.0
 10
-0.3523779527559055
 20
2.017732283464567
 30
0.0
 10
-0.3532913385826772
 20
2.01734251968504
 30
0.0
 10
-0.3542086614173228
 20
2.01703937007874
 30
0.0
 10
-0.3550708661417323
 20
2.01684251968504
 30
0.0
 10
-0.3550708661417323
 20
2.01684251968504
 30
0.0
 10
-0.3559330708661417
 20
2.016622047244095
 30
0.0
 10
-0.3567637795275591
 20
2.016511811023622
 30
0.0
 10
-0.3575984251968504
 20
2.016511811023622
 30
0.0
 10
-0.3575984251968504
 20
2.016511811023622
 30
0.0
 10
-0.3601535433070867
 20
2.016511811023622
 30
0.0
 10
-0.3622086614173228
 20
2.01734251968504
 30
0.0
 10
-0.3637637795275591
 20
2.01903937007874
 30
0.0
 10
-0.3637637795275591
 20
2.01903937007874
 30
0.0
 10
-0.3653464566929134
 20
2.020704724409449
 30
0.0
 10
-0.3661259842519685
 20
2.022842519685039
 30
0.0
 10
-0.3661259842519685
 20
2.025456692913386
 30
0.0
 10
-0.3661259842519685
 20
2.025456692913386
 30
0.0
 10
-0.3661259842519685
 20
2.028011811023622
 30
0.0
 10
-0.3651811023622048
 20
2.030232283464567
 30
0.0
 10
-0.3632913385826772
 20
2.032122047244095
 30
0.0
 10
-0.3632913385826772
 20
2.032122047244095
 30
0.0
 10
-0.3614055118110237
 20
2.03403937007874
 30
0.0
 10
-0.3590984251968504
 20
2.034984251968504
 30
0.0
 10
-0.3564606299212599
 20
2.034984251968504
 30
0.0
 10
-0.3564606299212599
 20
2.034984251968504
 30
0.0
 10
-0.3527637795275591
 20
2.034984251968504
 30
0.0
 10
-0.3495984251968504
 20
2.033511811023622
 30
0.0
 10
-0.3469606299212599
 20
2.03053937007874
 30
0.0
 10
-0.3469606299212599
 20
2.03053937007874
 30
0.0
 10
-0.3443503937007874
 20
2.027594488188977
 30
0.0
 10
-0.3430157480314961
 20
2.023787401574803
 30
0.0
 10
-0.3430157480314961
 20
2.019122047244095
 30
0.0
 10
-0.3430157480314961
 20
2.019122047244095
 30
0.0
 10
-0.3430157480314961
 20
2.016066929133858
 30
0.0
 10
-0.3436535433070866
 20
2.012870078740157
 30
0.0
 10
-0.3449055118110236
 20
2.00953937007874
 30
0.0
 10
-0.3449055118110236
 20
2.00953937007874
 30
0.0
 10
-0.3461535433070866
 20
2.006204724409449
 30
0.0
 10
-0.3479606299212599
 20
2.003122047244095
 30
0.0
 10
-0.3503464566929134
 20
2.000259842519685
 30
0.0
 10
-0.3503464566929134
 20
2.000259842519685
 30
0.0
 10
-0.352736220472441
 20
1.997429133858268
 30
0.0
 10
-0.3574606299212599
 20
1.993011811023622
 30
0.0
 10
-0.3645157480314961
 20
1.98703937007874
 30
0.0
  0
SPLINE
  5
76
330
1F
100
AcDbEntity
  8
LAYER_1
 62
   250
100
AcDbSpline
210
0.0
220
0.0
230
1.0
 70
    11
 71
     3
 72
   204
 73
   200
 74
     0
 42
0.0000000001
 43
0.0000000001
 40
0.0
 40
0.0
 40
0.0
 40
0.0
 40
0.02
 40
0.02
 40
0.02
 40
0.02
 40
0.04
 40
0.04
 40
0.04
 40
0.04
 40
0.06
 40
0.06
 40
0.06
 40
0.06
 40
0.08
 40
0.08
 40
0.08
 40
0.08
 40
0.1
 40
0.1
 40
0.1
 40
0.1
 40
0.12
 40
0.12
 40
0.12
 40
0.12
 40
0.14
 40
0.14
 40
0.14
 40
0.14
 40
0.16
 40
0.16
 40
0.16
 40
0.16
 40
0.18
 40
0.18
 40
0.18
 40
0.18
 40
0.2
 40
0.2
 40
0.2
 40
0.2
 40
0.22
 40
0.22
 40
0.22
 40
0.22
 40
0.24
 40
0.24
 40
0.24
 40
0.24
 40
0.26
 40
0.26
 40
0.26
 40
0.26
 40
0.28
 40
0.28
 40
0.28
 40
0.28
 40
0.3
 40
0.3
 40
0.3
 40
0.3
 40
0.32
 40
0.32
 40
0.32
 40
0.32
 40
0.34
 40
0.34
 40
0.34
 40
0.34
 40
0.36
 40
0.36
 40
0.36
 40
0.36
 40
0.3800000000000001
 40
0.3800000000000001
 40
0.3800000000000001
 40
0.3800000000000001
 40
0.4000000000000001
 40
0.4000000000000001
 40
0.4000000000000001
 40
0.4000000000000001
 40
0.4200000000000001
 40
0.4200000000000001
 40
0.4200000000000001
 40
0.4200000000000001
 40
0.4400000000000001
 40
0.4400000000000001
 40
0.4400000000000001
 40
0.4400000000000001
 40
0.4600000000000001
 40
0.4600000000000001
 40
0.4600000000000001
 40
0.4600000000000001
 40
0.4800000000000002
 40
0.4800000000000002
 40
0.4800000000000002
 40
0.4800000000000002
 40
0.5000000000000001
 40
0.5000000000000001
 40
0.5000000000000001
 40
0.5000000000000001
 40
0.5200000000000001
 40
0.5200000000000001
 40
0.5200000000000001
 40
0.5200000000000001
 40
0.5400000000000002
 40
0.5400000000000002
 40
0.5400000000000002
 40
0.5400000000000002
 40
0.5600000000000002
 40
0.5600000000000002
 40
0.5600000000000002
 40
0.5600000000000002
 40
0.5800000000000002
 40
0.5800000000000002
 40
0.5800000000000002
 40
0.5800000000000002
 40
0.6000000000000002
 40
0.6000000000000002
 40
0.6000000000000002
 40
0.6000000000000002
 40
0.6200000000000002
 40
0.6200000000000002
 40
0.6200000000000002
 40
0.6200000000000002
 40
0.6400000000000002
 40
0.6400000000000002
 40
0.6400000000000002
 40
0.6400000000000002
 40
0.6600000000000003
 40
0.6600000000000003
 40
0.6600000000000003
 40
0.6600000000000003
 40
0.6800000000000003
 40
0.6800000000000003
 40
0.6800000000000003
 40
0.6800000000000003
 40
0.7000000000000003
 40
0.7000000000000003
 40
0.7000000000000003
 40
0.7000000000000003
 40
0.7200000000000003
 40
0.7200000000000003
 40
0.7200000000000003
 40
0.7200000000000003
 40
0.7400000000000003
 40
0.7400000000000003
 40
0.7400000000000003
 40
0.7400000000000003
 40
0.7600000000000003
 40
0.7600000000000003
 40
0.7600000000000003
 40
0.7600000000000003
 40
0.7800000000000004
 40
0.7800000000000004
 40
0.7800000000000004
 40
0.7800000000000004
 40
0.8000000000000004
 40
0.8000000000000004
 40
0.8000000000000004
 40
0.8000000000000004
 40
0.8200000000000004
 40
0.8200000000000004
 40
0.8200000000000004
 40
0.8200000000000004
 40
0.8400000000000004
 40
0.8400000000000004
 40
0.8400000000000004
 40
0.8400000000000004
 40
0.8600000000000004
 40
0.8600000000000004
 40
0.8600000000000004
 40
0.8600000000000004
 40
0.8800000000000005
 40
0.8800000000000005
 40
0.8800000000000005
 40
0.8800000000000005
 40
0.9000000000000005
 40
0.9000000000000005
 40
0.9000000000000005
 40
0.9000000000000005
 40
0.9200000000000005
 40
0.9200000000000005
 40
0.9200000000000005
 40
0.9200000000000005
 40
0.9400000000000005
 40
0.9400000000000005
 40
0.9400000000000005
 40
0.9400000000000005
 40
0.9600000000000005
 40
0.9600000000000005
 40
0.9600000000000005
 40
0.9600000000000005
 40
0.9800000000000005
 40
0.9800000000000005
 40
0.9800000000000005
 40
0.9800000000000005
 40
1.0
 40
1.0
 40
1.0
 40
1.0
 10
-0.2807086614173229
 20
1.994122047244095
 30
0.0
 10
-0.2807086614173229
 20
1.994122047244095
 30
0.0
 10
-0.2397637795275591
 20
1.994122047244095
 30
0.0
 10
-0.2397637795275591
 20
1.994122047244095
 30
0.0
 10
-0.2397637795275591
 20
1.994122047244095
 30
0.0
 10
-0.2397637795275591
 20
1.994122047244095
 30
0.0
 10
-0.2397637795275591
 20
1.987287401574803
 30
0.0
 10
-0.2397637795275591
 20
1.987287401574803
 30
0.0
 10
-0.2397637795275591
 20
1.987287401574803
 30
0.0
 10
-0.2397637795275591
 20
1.987287401574803
 30
0.0
 10
-0.2425984251968504
 20
1.987287401574803
 30
0.0
 10
-0.2425984251968504
 20
1.987287401574803
 30
0.0
 10
-0.2425984251968504
 20
1.987287401574803
 30
0.0
 10
-0.244236220472441
 20
1.987287401574803
 30
0.0
 10
-0.245736220472441
 20
1.987094488188977
 30
0.0
 10
-0.2470984251968504
 20
1.986732283464567
 30
0.0
 10
-0.2470984251968504
 20
1.986732283464567
 30
0.0
 10
-0.2479015748031496
 20
1.986511811023622
 30
0.0
 10
-0.2485708661417323
 20
1.986094488188976
 30
0.0
 10
-0.2490708661417323
 20
1.985456692913386
 30
0.0
 10
-0.2490708661417323
 20
1.985456692913386
 30
0.0
 10
-0.2495984251968504
 20
1.984842519685039
 30
0.0
 10
-0.2498464566929134
 20
1.984259842519685
 30
0.0
 10
-0.2498464566929134
 20
1.983704724409449
 30
0.0
 10
-0.2498464566929134
 20
1.983704724409449
 30
0.0
 10
-0.2498464566929134
 20
1.982456692913386
 30
0.0
 10
-0.2488188976377953
 20
1.980594488188977
 30
0.0
 10
-0.2467637795275591
 20
1.978094488188976
 30
0.0
 10
-0.2467637795275591
 20
1.978094488188976
 30
0.0
 10
-0.2467637795275591
 20
1.978094488188976
 30
0.0
 10
-0.2351259842519685
 20
1.963456692913386
 30
0.0
 10
-0.2351259842519685
 20
1.963456692913386
 30
0.0
 10
-0.2351259842519685
 20
1.963456692913386
 30
0.0
 10
-0.2351259842519685
 20
1.963456692913386
 30
0.0
 10
-0.2215433070866142
 20
1.978094488188976
 30
0.0
 10
-0.2215433070866142
 20
1.978094488188976
 30
0.0
 10
-0.2215433070866142
 20
1.978094488188976
 30
0.0
 10
-0.2190433070866142
 20
1.980814960629921
 30
0.0
 10
-0.2177913385826772
 20
1.982842519685039
 30
0.0
 10
-0.2177913385826772
 20
1.984204724409449
 30
0.0
 10
-0.2177913385826772
 20
1.984204724409449
 30
0.0
 10
-0.2177913385826772
 20
1.985177165354331
 30
0.0
 10
-0.218236220472441
 20
1.985929133858268
 30
0.0
 10
-0.2190984251968504
 20
1.986484251968504
 30
0.0
 10
-0.2190984251968504
 20
1.986484251968504
 30
0.0
 10
-0.2199606299212598
 20
1.987011811023622
 30
0.0
 10
-0.2218188976377953
 20
1.987287401574803
 30
0.0
 10
-0.2247086614173229
 20
1.987287401574803
 30
0.0
 10
-0.2247086614173229
 20
1.987287401574803
 30
0.0
 10
-0.2247086614173229
 20
1.987287401574803
 30
0.0
 10
-0.2277913385826772
 20
1.987287401574803
 30
0.0
 10
-0.2277913385826772
 20
1.987287401574803
 30
0.0
 10
-0.2277913385826772
 20
1.987287401574803
 30
0.0
 10
-0.2277913385826772
 20
1.987287401574803
 30
0.0
 10
-0.2277913385826772
 20
1.994122047244095
 30
0.0
 10
-0.2277913385826772
 20
1.994122047244095
 30
0.0
 10
-0.2277913385826772
 20
1.994122047244095
 30
0.0
 10
-0.2277913385826772
 20
1.994122047244095
 30
0.0
 10
-0.1930433070866142
 20
1.994122047244095
 30
0.0
 10
-0.1930433070866142
 20
1.994122047244095
 30
0.0
 10
-0.1930433070866142
 20
1.994122047244095
 30
0.0
 10
-0.1930433070866142
 20
1.994122047244095
 30
0.0
 10
-0.1930433070866142
 20
1.987287401574803
 30
0.0
 10
-0.1930433070866142
 20
1.987287401574803
 30
0.0
 10
-0.1930433070866142
 20
1.987287401574803
 30
0.0
 10
-0.1964606299212598
 20
1.987122047244095
 30
0.0
 10
-0.1994055118110236
 20
1.986429133858268
 30
0.0
 10
-0.2018740157480315
 20
1.985177165354331
 30
0.0
 10
-0.2018740157480315
 20
1.985177165354331
 30
0.0
 10
-0.2043464566929134
 20
1.983929133858268
 30
0.0
 10
-0.2072637795275591
 20
1.981566929133858
 30
0.0
 10
-0.2106259842519685
 20
1.978094488188976
 30
0.0
 10
-0.2106259842519685
 20
1.978094488188976
 30
0.0
 10
-0.2106259842519685
 20
1.978094488188976
 30
0.0
 10
-0.2292637795275591
 20
1.958732283464567
 30
0.0
 10
-0.2292637795275591
 20
1.958732283464567
 30
0.0
 10
-0.2292637795275591
 20
1.958732283464567
 30
0.0
 10
-0.2292637795275591
 20
1.958732283464567
 30
0.0
 10
-0.2060708661417323
 20
1.932287401574803
 30
0.0
 10
-0.2060708661417323
 20
1.932287401574803
 30
0.0
 10
-0.2060708661417323
 20
1.932287401574803
 30
0.0
 10
-0.2060708661417323
 20
1.932287401574803
 30
0.0
 10
-0.2051811023622047
 20
1.931149606299213
 30
0.0
 10
-0.2051811023622047
 20
1.931149606299213
 30
0.0
 10
-0.2051811023622047
 20
1.931149606299213
 30
0.0
 10
-0.2029055118110236
 20
1.928204724409449
 30
0.0
 10
-0.2003464566929134
 20
1.92584251968504
 30
0.0
 10
-0.1975157480314961
 20
1.924066929133858
 30
0.0
 10
-0.1975157480314961
 20
1.924066929133858
 30
0.0
 10
-0.1959606299212598
 20
1.92303937007874
 30
0.0
 10
-0.1935157480314961
 20
1.922484251968504
 30
0.0
 10
-0.1902086614173228
 20
1.922429133858268
 30
0.0
 10
-0.1902086614173228
 20
1.922429133858268
 30
0.0
 10
-0.1902086614173228
 20
1.922429133858268
 30
0.0
 10
-0.1902086614173228
 20
1.915594488188976
 30
0.0
 10
-0.1902086614173228
 20
1.915594488188976
 30
0.0
 10
-0.1902086614173228
 20
1.915594488188976
 30
0.0
 10
-0.1902086614173228
 20
1.915594488188976
 30
0.0
 10
-0.2301535433070866
 20
1.915594488188976
 30
0.0
 10
-0.2301535433070866
 20
1.915594488188976
 30
0.0
 10
-0.2301535433070866
 20
1.915594488188976
 30
0.0
 10
-0.2301535433070866
 20
1.915594488188976
 30
0.0
 10
-0.2301535433070866
 20
1.922429133858268
 30
0.0
 10
-0.2301535433070866
 20
1.922429133858268
 30
0.0
 10
-0.2301535433070866
 20
1.922429133858268
 30
0.0
 10
-0.2301535433070866
 20
1.922429133858268
 30
0.0
 10
-0.226736220472441
 20
1.922429133858268
 30
0.0
 10
-0.226736220472441
 20
1.922429133858268
 30
0.0
 10
-0.226736220472441
 20
1.922429133858268
 30
0.0
 10
-0.2241259842519685
 20
1.922429133858268
 30
0.0
 10
-0.222488188976378
 20
1.922594488188977
 30
0.0
 10
-0.2217637795275591
 20
1.922929133858268
 30
0.0
 10
-0.2217637795275591
 20
1.922929133858268
 30
0.0
 10
-0.2205984251968504
 20
1.923456692913386
 30
0.0
 10
-0.219988188976378
 20
1.924374015748032
 30
0.0
 10
-0.219988188976378
 20
1.925677165354331
 30
0.0
 10
-0.219988188976378
 20
1.925677165354331
 30
0.0
 10
-0.219988188976378
 20
1.926874015748032
 30
0.0
 10
-0.2212913385826772
 20
1.929066929133858
 30
0.0
 10
-0.2239055118110236
 20
1.932287401574803
 30
0.0
 10
-0.2239055118110236
 20
1.932287401574803
 30
0.0
 10
-0.2239055118110236
 20
1.932287401574803
 30
0.0
 10
-0.2387086614173228
 20
1.950429133858268
 30
0.0
 10
-0.2387086614173228
 20
1.950429133858268
 30
0.0
 10
-0.2387086614173228
 20
1.950429133858268
 30
0.0
 10
-0.2387086614173228
 20
1.950429133858268
 30
0.0
 10
-0.2552362204724409
 20
1.932287401574803
 30
0.0
 10
-0.2552362204724409
 20
1.932287401574803
 30
0.0
 10
-0.2552362204724409
 20
1.932287401574803
 30
0.0
 10
-0.2552362204724409
 20
1.932287401574803
 30
0.0
 10
-0.2568464566929134
 20
1.930314960629921
 30
0.0
 10
-0.2568464566929134
 20
1.930314960629921
 30
0.0
 10
-0.2568464566929134
 20
1.930314960629921
 30
0.0
 10
-0.2568464566929134
 20
1.930314960629921
 30
0.0
 10
-0.2577362204724409
 20
1.929342519685039
 30
0.0
 10
-0.2577362204724409
 20
1.929342519685039
 30
0.0
 10
-0.2577362204724409
 20
1.929342519685039
 30
0.0
 10
-0.2590984251968504
 20
1.927874015748032
 30
0.0
 10
-0.2597913385826772
 20
1.926594488188977
 30
0.0
 10
-0.2597913385826772
 20
1.925456692913386
 30
0.0
 10
-0.2597913385826772
 20
1.925456692913386
 30
0.0
 10
-0.2597913385826772
 20
1.92440157480315
 30
0.0
 10
-0.2593740157480315
 20
1.923649606299213
 30
0.0
 10
-0.2585157480314961
 20
1.923149606299213
 30
0.0
 10
-0.2585157480314961
 20
1.923149606299213
 30
0.0
 10
-0.2576811023622048
 20
1.922677165354331
 30
0.0
 10
-0.2557913385826772
 20
1.922429133858268
 30
0.0
 10
-0.2528740157480315
 20
1.922429133858268
 30
0.0
 10
-0.2528740157480315
 20
1.922429133858268
 30
0.0
 10
-0.2528740157480315
 20
1.922429133858268
 30
0.0
 10
-0.2495984251968504
 20
1.922429133858268
 30
0.0
 10
-0.2495984251968504
 20
1.922429133858268
 30
0.0
 10
-0.2495984251968504
 20
1.922429133858268
 30
0.0
 10
-0.2495984251968504
 20
1.922429133858268
 30
0.0
 10
-0.2495984251968504
 20
1.915594488188976
 30
0.0
 10
-0.2495984251968504
 20
1.915594488188976
 30
0.0
 10
-0.2495984251968504
 20
1.915594488188976
 30
0.0
 10
-0.2495984251968504
 20
1.915594488188976
 30
0.0
 10
-0.2838740157480315
 20
1.915594488188976
 30
0.0
 10
-0.2838740157480315
 20
1.915594488188976
 30
0.0
 10
-0.2838740157480315
 20
1.915594488188976
 30
0.0
 10
-0.2838740157480315
 20
1.915594488188976
 30
0.0
 10
-0.2838740157480315
 20
1.922429133858268
 30
0.0
 10
-0.2838740157480315
 20
1.922429133858268
 30
0.0
 10
-0.2838740157480315
 20
1.922429133858268
 30
0.0
 10
-0.2812086614173229
 20
1.922484251968504
 30
0.0
 10
-0.2791259842519685
 20
1.922759842519685
 30
0.0
 10
-0.2775984251968504
 20
1.923287401574803
 30
0.0
 10
-0.2775984251968504
 20
1.923287401574803
 30
0.0
 10
-0.2760984251968504
 20
1.923787401574803
 30
0.0
 10
-0.2746259842519685
 20
1.924594488188977
 30
0.0
 10
-0.2732086614173229
 20
1.925677165354331
 30
0.0
 10
-0.2732086614173229
 20
1.925677165354331
 30
0.0
 10
-0.2707637795275591
 20
1.927649606299213
 30
0.0
 10
-0.2690157480314961
 20
1.929177165354331
 30
0.0
 10
-0.2679291338582677
 20
1.930314960629921
 30
0.0
 10
-0.2679291338582677
 20
1.930314960629921
 30
0.0
 10
-0.2679291338582677
 20
1.930314960629921
 30
0.0
 10
-0.2440708661417323
 20
1.954814960629921
 30
0.0
 10
-0.2440708661417323
 20
1.954814960629921
 30
0.0
 10
-0.2440708661417323
 20
1.954814960629921
 30
0.0
 10
-0.2440708661417323
 20
1.954814960629921
 30
0.0
 10
-0.2643464566929134
 20
1.978094488188976
 30
0.0
 10
-0.2643464566929134
 20
1.978094488188976
 30
0.0
 10
-0.2643464566929134
 20
1.978094488188976
 30
0.0
 10
-0.2669015748031496
 20
1.980984251968504
 30
0.0
 10
-0.2689015748031496
 20
1.982984251968504
 30
0.0
 10
-0.2704015748031496
 20
1.984149606299213
 30
0.0
 10
-0.2704015748031496
 20
1.984149606299213
 30
0.0
 10
-0.2719015748031496
 20
1.985314960629921
 30
0.0
 10
-0.2733464566929134
 20
1.986149606299213
 30
0.0
 10
-0.274763779527559
 20
1.986594488188977
 30
0.0
 10
-0.274763779527559
 20
1.986594488188977
 30
0.0
 10
-0.2761811023622047
 20
1.987066929133858
 30
0.0
 10
-0.2781535433070866
 20
1.987287401574803
 30
0.0
 10
-0.2807086614173229
 20
1.987287401574803
 30
0.0
 10
-0.2807086614173229
 20
1.987287401574803
 30
0.0
 10
-0.2807086614173229
 20
1.987287401574803
 30
0.0
 10
-0.2807086614173229
 20
1.994122047244095
 30
0.0
 10
-0.2807086614173229
 20
1.994122047244095
 30
0.0
  0
SPLINE
  5
77
330
1F
100
AcDbEntity
  8
LAYER_1
 62
   250
100
AcDbSpline
210
0.0
220
0.0
230
1.0
 70
    11
 71
     3
 72
   172
 73
   168
 74
     0
 42
0.0000000001
 43
0.0000000001
 40
0.0
 40
0.0
 40
0.0
 40
0.0
 40
0.0238095238095238
 40
0.0238095238095238
 40
0.0238095238095238
 40
0.0238095238095238
 40
0.0476190476190476
 40
0.0476190476190476
 40
0.0476190476190476
 40
0.0476190476190476
 40
0.0714285714285714
 40
0.0714285714285714
 40
0.0714285714285714
 40
0.0714285714285714
 40
0.0952380952380952
 40
0.0952380952380952
 40
0.0952380952380952
 40
0.0952380952380952
 40
0.119047619047619
 40
0.119047619047619
 40
0.119047619047619
 40
0.119047619047619
 40
0.1428571428571429
 40
0.1428571428571429
 40
0.1428571428571429
 40
0.1428571428571429
 40
0.1666666666666667
 40
0.1666666666666667
 40
0.1666666666666667
 40
0.1666666666666667
 40
0.1904761904761905
 40
0.1904761904761905
 40
0.1904761904761905
 40
0.1904761904761905
 40
0.2142857142857143
 40
0.2142857142857143
 40
0.2142857142857143
 40
0.2142857142857143
 40
0.2380952380952381
 40
0.2380952380952381
 40
0.2380952380952381
 40
0.2380952380952381
 40
0.2619047619047619
 40
0.2619047619047619
 40
0.2619047619047619
 40
0.2619047619047619
 40
0.2857142857142857
 40
0.2857142857142857
 40
0.2857142857142857
 40
0.2857142857142857
 40
0.3095238095238095
 40
0.3095238095238095
 40
0.3095238095238095
 40
0.3095238095238095
 40
0.3333333333333334
 40
0.3333333333333334
 40
0.3333333333333334
 40
0.3333333333333334
 40
0.3571428571428572
 40
0.3571428571428572
 40
0.3571428571428572
 40
0.3571428571428572
 40
0.380952380952381
 40
0.380952380952381
 40
0.380952380952381
 40
0.380952380952381
 40
0.4047619047619049
 40
0.4047619047619049
 40
0.4047619047619049
 40
0.4047619047619049
 40
0.4285714285714287
 40
0.4285714285714287
 40
0.4285714285714287
 40
0.4285714285714287
 40
0.4523809523809526
 40
0.4523809523809526
 40
0.4523809523809526
 40
0.4523809523809526
 40
0.4761904761904764
 40
0.4761904761904764
 40
0.4761904761904764
 40
0.4761904761904764
 40
0.5000000000000002
 40
0.5000000000000002
 40
0.5000000000000002
 40
0.5000000000000002
 40
0.5238095238095241
 40
0.5238095238095241
 40
0.5238095238095241
 40
0.5238095238095241
 40
0.5476190476190479
 40
0.5476190476190479
 40
0.5476190476190479
 40
0.5476190476190479
 40
0.5714285714285717
 40
0.5714285714285717
 40
0.5714285714285717
 40
0.5714285714285717
 40
0.5952380952380956
 40
0.5952380952380956
 40
0.5952380952380956
 40
0.5952380952380956
 40
0.6190476190476194
 40
0.6190476190476194
 40
0.6190476190476194
 40
0.6190476190476194
 40
0.6428571428571432
 40
0.6428571428571432
 40
0.6428571428571432
 40
0.6428571428571432
 40
0.6666666666666671
 40
0.6666666666666671
 40
0.6666666666666671
 40
0.6666666666666671
 40
0.6904761904761909
 40
0.6904761904761909
 40
0.6904761904761909
 40
0.6904761904761909
 40
0.7142857142857148
 40
0.7142857142857148
 40
0.7142857142857148
 40
0.7142857142857148
 40
0.7380952380952386
 40
0.7380952380952386
 40
0.7380952380952386
 40
0.7380952380952386
 40
0.7619047619047624
 40
0.7619047619047624
 40
0.7619047619047624
 40
0.7619047619047624
 40
0.7857142857142863
 40
0.7857142857142863
 40
0.7857142857142863
 40
0.7857142857142863
 40
0.8095238095238101
 40
0.8095238095238101
 40
0.8095238095238101
 40
0.8095238095238101
 40
0.8333333333333339
 40
0.8333333333333339
 40
0.8333333333333339
 40
0.8333333333333339
 40
0.8571428571428578
 40
0.8571428571428578
 40
0.8571428571428578
 40
0.8571428571428578
 40
0.8809523809523816
 40
0.8809523809523816
 40
0.8809523809523816
 40
0.8809523809523816
 40
0.9047619047619054
 40
0.9047619047619054
 40
0.9047619047619054
 40
0.9047619047619054
 40
0.9285714285714293
 40
0.9285714285714293
 40
0.9285714285714293
 40
0.9285714285714293
 40
0.9523809523809531
 40
0.9523809523809531
 40
0.9523809523809531
 40
0.9523809523809531
 40
0.9761904761904769
 40
0.9761904761904769
 40
0.9761904761904769
 40
0.9761904761904769
 40
1.0
 40
1.0
 40
1.0
 40
1.0
 10
-0.1150157480314961
 20
1.998759842519685
 30
0.0
 10
-0.1150157480314961
 20
1.998759842519685
 30
0.0
 10
-0.1228228346456693
 20
1.999984251968504
 30
0.0
 10
-0.1228228346456693
 20
1.999984251968504
 30
0.0
 10
-0.1228228346456693
 20
1.999984251968504
 30
0.0
 10
-0.1221259842519685
 20
2.005842519685039
 30
0.0
 10
-0.1205984251968504
 20
2.010704724409449
 30
0.0
 10
-0.1182637795275591
 20
2.014566929133858
 30
0.0
 10
-0.1182637795275591
 20
2.014566929133858
 30
0.0
 10
-0.1151811023622047
 20
2.019759842519685
 30
0.0
 10
-0.1108228346456693
 20
2.023814960629921
 30
0.0
 10
-0.1051811023622047
 20
2.026704724409449
 30
0.0
 10
-0.1051811023622047
 20
2.026704724409449
 30
0.0
 10
-0.0995157480314961
 20
2.029622047244095
 30
0.0
 10
-0.0930433070866142
 20
2.031066929133858
 30
0.0
 10
-0.0857086614173228
 20
2.031066929133858
 30
0.0
 10
-0.0857086614173228
 20
2.031066929133858
 30
0.0
 10
-0.0785157480314961
 20
2.031066929133858
 30
0.0
 10
-0.0721535433070866
 20
2.029787401574803
 30
0.0
 10
-0.0666811023622047
 20
2.027204724409449
 30
0.0
 10
-0.0666811023622047
 20
2.027204724409449
 30
0.0
 10
-0.0612086614173228
 20
2.024622047244095
 30
0.0
 10
-0.0570708661417323
 20
2.021204724409449
 30
0.0
 10
-0.0542677165354331
 20
2.016956692913386
 30
0.0
 10
-0.0542677165354331
 20
2.016956692913386
 30
0.0
 10
-0.0514606299212598
 20
2.012704724409449
 30
0.0
 10
-0.0500708661417323
 20
2.008094488188977
 30
0.0
 10
-0.0500708661417323
 20
2.003149606299213
 30
0.0
 10
-0.0500708661417323
 20
2.003149606299213
 30
0.0
 10
-0.0500708661417323
 20
1.998814960629921
 30
0.0
 10
-0.0511259842519685
 20
1.994929133858268
 30
0.0
 10
-0.053240157480315
 20
1.991511811023622
 30
0.0
 10
-0.053240157480315
 20
1.991511811023622
 30
0.0
 10
-0.0553779527559055
 20
1.988094488188976
 30
0.0
 10
-0.0585157480314961
 20
1.98503937007874
 30
0.0
 10
-0.0626811023622047
 20
1.982314960629921
 30
0.0
 10
-0.0626811023622047
 20
1.982314960629921
 30
0.0
 10
-0.0656259842519685
 20
1.980429133858268
 30
0.0
 10
-0.0694330708661417
 20
1.978759842519685
 30
0.0
 10
-0.0741535433070866
 20
1.977370078740158
 30
0.0
 10
-0.0741535433070866
 20
1.977370078740158
 30
0.0
 10
-0.0691259842519685
 20
1.976649606299213
 30
0.0
 10
-0.064988188976378
 20
1.975484251968504
 30
0.0
 10
-0.0617952755905512
 20
1.973870078740158
 30
0.0
 10
-0.0617952755905512
 20
1.973870078740158
 30
0.0
 10
-0.0565984251968504
 20
1.971204724409449
 30
0.0
 10
-0.052488188976378
 20
1.96753937007874
 30
0.0
 10
-0.0495157480314961
 20
1.962870078740158
 30
0.0
 10
-0.0495157480314961
 20
1.962870078740158
 30
0.0
 10
-0.0465157480314961
 20
1.958204724409449
 30
0.0
 10
-0.0450433070866142
 20
1.953094488188977
 30
0.0
 10
-0.0450433070866142
 20
1.947484251968504
 30
0.0
 10
-0.0450433070866142
 20
1.947484251968504
 30
0.0
 10
-0.0450433070866142
 20
1.93853937007874
 30
0.0
 10
-0.0489606299212598
 20
1.930649606299213
 30
0.0
 10
-0.0568228346456693
 20
1.92384251968504
 30
0.0
 10
-0.0568228346456693
 20
1.92384251968504
 30
0.0
 10
-0.0647086614173228
 20
1.91703937007874
 30
0.0
 10
-0.0748779527559055
 20
1.913649606299213
 30
0.0
 10
-0.0873503937007874
 20
1.913649606299213
 30
0.0
 10
-0.0873503937007874
 20
1.913649606299213
 30
0.0
 10
-0.0996535433070866
 20
1.913649606299213
 30
0.0
 10
-0.1100157480314961
 20
1.916929133858268
 30
0.0
 10
-0.1184330708661417
 20
1.923484251968504
 30
0.0
 10
-0.1184330708661417
 20
1.923484251968504
 30
0.0
 10
-0.125488188976378
 20
1.929066929133858
 30
0.0
 10
-0.1290157480314961
 20
1.934704724409449
 30
0.0
 10
-0.1290157480314961
 20
1.94034251968504
 30
0.0
 10
-0.1290157480314961
 20
1.94034251968504
 30
0.0
 10
-0.1290157480314961
 20
1.942566929133858
 30
0.0
 10
-0.1282913385826772
 20
1.944429133858268
 30
0.0
 10
-0.1268503937007874
 20
1.94590157480315
 30
0.0
 10
-0.1268503937007874
 20
1.94590157480315
 30
0.0
 10
-0.1254330708661418
 20
1.94740157480315
 30
0.0
 10
-0.1236259842519685
 20
1.948149606299213
 30
0.0
 10
-0.1214330708661417
 20
1.948149606299213
 30
0.0
 10
-0.1214330708661417
 20
1.948149606299213
 30
0.0
 10
-0.1190708661417323
 20
1.948149606299213
 30
0.0
 10
-0.1170157480314961
 20
1.947232283464567
 30
0.0
 10
-0.1153503937007874
 20
1.945370078740158
 30
0.0
 10
-0.1153503937007874
 20
1.945370078740158
 30
0.0
 10
-0.1144330708661417
 20
1.94434251968504
 30
0.0
 10
-0.1133503937007874
 20
1.941874015748032
 30
0.0
 10
-0.1121811023622047
 20
1.937984251968504
 30
0.0
 10
-0.1121811023622047
 20
1.937984251968504
 30
0.0
 10
-0.110488188976378
 20
1.932484251968504
 30
0.0
 10
-0.1076259842519685
 20
1.928314960629921
 30
0.0
 10
-0.1036259842519685
 20
1.925456692913386
 30
0.0
 10
-0.1036259842519685
 20
1.925456692913386
 30
0.0
 10
-0.0995984251968504
 20
1.922566929133858
 30
0.0
 10
-0.0946259842519685
 20
1.921122047244095
 30
0.0
 10
-0.0886535433070866
 20
1.921122047244095
 30
0.0
 10
-0.0886535433070866
 20
1.921122047244095
 30
0.0
 10
-0.0833228346456693
 20
1.921122047244095
 30
0.0
 10
-0.0785708661417323
 20
1.922287401574803
 30
0.0
 10
-0.0743779527559055
 20
1.924622047244095
 30
0.0
 10
-0.0743779527559055
 20
1.924622047244095
 30
0.0
 10
-0.0701535433070866
 20
1.926956692913386
 30
0.0
 10
-0.0668503937007874
 20
1.930259842519685
 30
0.0
 10
-0.0644055118110236
 20
1.934566929133858
 30
0.0
 10
-0.0644055118110236
 20
1.934566929133858
 30
0.0
 10
-0.0619606299212598
 20
1.938842519685039
 30
0.0
 10
-0.0607362204724409
 20
1.94353937007874
 30
0.0
 10
-0.0607362204724409
 20
1.948622047244095
 30
0.0
 10
-0.0607362204724409
 20
1.948622047244095
 30
0.0
 10
-0.0607362204724409
 20
1.952759842519685
 30
0.0
 10
-0.0616259842519685
 20
1.956456692913386
 30
0.0
 10
-0.0633779527559055
 20
1.959732283464567
 30
0.0
 10
-0.0633779527559055
 20
1.959732283464567
 30
0.0
 10
-0.0651535433070866
 20
1.96303937007874
 30
0.0
 10
-0.0676535433070866
 20
1.965814960629921
 30
0.0
 10
-0.0709055118110236
 20
1.968094488188976
 30
0.0
 10
-0.0709055118110236
 20
1.968094488188976
 30
0.0
 10
-0.0734055118110236
 20
1.969870078740158
 30
0.0
 10
-0.0765984251968504
 20
1.971122047244095
 30
0.0
 10
-0.0804606299212599
 20
1.971814960629921
 30
0.0
 10
-0.0804606299212599
 20
1.971814960629921
 30
0.0
 10
-0.0843503937007874
 20
1.97253937007874
 30
0.0
 10
-0.0878503937007874
 20
1.972897637795276
 30
0.0
 10
-0.0909330708661417
 20
1.972897637795276
 30
0.0
 10
-0.0909330708661417
 20
1.972897637795276
 30
0.0
 10
-0.0909330708661417
 20
1.972897637795276
 30
0.0
 10
-0.098488188976378
 20
1.972897637795276
 30
0.0
 10
-0.098488188976378
 20
1.972897637795276
 30
0.0
 10
-0.098488188976378
 20
1.972897637795276
 30
0.0
 10
-0.098488188976378
 20
1.972897637795276
 30
0.0
 10
-0.098488188976378
 20
1.980787401574803
 30
0.0
 10
-0.098488188976378
 20
1.980787401574803
 30
0.0
 10
-0.098488188976378
 20
1.980787401574803
 30
0.0
 10
-0.098488188976378
 20
1.980787401574803
 30
0.0
 10
-0.0936811023622047
 20
1.980787401574803
 30
0.0
 10
-0.0936811023622047
 20
1.980787401574803
 30
0.0
 10
-0.0936811023622047
 20
1.980787401574803
 30
0.0
 10
-0.0889330708661417
 20
1.980787401574803
 30
0.0
 10
-0.0843779527559055
 20
1.981342519685039
 30
0.0
 10
-0.0800157480314961
 20
1.982456692913386
 30
0.0
 10
-0.0800157480314961
 20
1.982456692913386
 30
0.0
 10
-0.0756811023622047
 20
1.983566929133858
 30
0.0
 10
-0.0722086614173228
 20
1.98584251968504
 30
0.0
 10
-0.0695984251968504
 20
1.989314960629921
 30
0.0
 10
-0.0695984251968504
 20
1.989314960629921
 30
0.0
 10
-0.0670157480314961
 20
1.992787401574803
 30
0.0
 10
-0.0657086614173228
 20
1.996732283464567
 30
0.0
 10
-0.0657086614173228
 20
2.001122047244095
 30
0.0
 10
-0.0657086614173228
 20
2.001122047244095
 30
0.0
 10
-0.0657086614173228
 20
2.004925196850394
 30
0.0
 10
-0.0665984251968504
 20
2.008342519685039
 30
0.0
 10
-0.0684330708661417
 20
2.011370078740157
 30
0.0
 10
-0.0684330708661417
 20
2.011370078740157
 30
0.0
 10
-0.0702362204724409
 20
2.014425196850394
 30
0.0
 10
-0.0729055118110236
 20
2.01684251968504
 30
0.0
 10
-0.0764330708661417
 20
2.018622047244095
 30
0.0
 10
-0.0764330708661417
 20
2.018622047244095
 30
0.0
 10
-0.0799606299212599
 20
2.020397637795276
 30
0.0
 10
-0.0840433070866142
 20
2.021314960629921
 30
0.0
 10
-0.0886535433070866
 20
2.021314960629921
 30
0.0
 10
-0.0886535433070866
 20
2.021314960629921
 30
0.0
 10
-0.0931535433070866
 20
2.021314960629921
 30
0.0
 10
-0.0972952755905512
 20
2.020370078740158
 30
0.0
 10
-0.1010708661417323
 20
2.01853937007874
 30
0.0
 10
-0.1010708661417323
 20
2.01853937007874
 30
0.0
 10
-0.1048228346456693
 20
2.016704724409449
 30
0.0
 10
-0.1078503937007874
 20
2.014232283464567
 30
0.0
 10
-0.1101259842519685
 20
2.011122047244095
 30
0.0
 10
-0.1101259842519685
 20
2.011122047244095
 30
0.0
 10
-0.1124055118110236
 20
2.00803937007874
 30
0.0
 10
-0.1140433070866142
 20
2.003925196850394
 30
0.0
 10
-0.1150157480314961
 20
1.998759842519685
 30
0.0
  0
SPLINE
  5
78
330
1F
100
AcDbEntity
  8
LAYER_1
 62
   250
100
AcDbSpline
210
0.0
220
0.0
230
1.0
 70
    11
 71
     3
 72
    20
 73
    16
 74
     0
 42
0.0000000001
 43
0.0000000001
 40
0.0
 40
0.0
 40
0.0
 40
0.0
 40
0.25
 40
0.25
 40
0.25
 40
0.25
 40
0.5
 40
0.5
 40
0.5
 40
0.5
 40
0.75
 40
0.75
 40
0.75
 40
0.75
 40
1.0
 40
1.0
 40
1.0
 40
1.0
 10
-0.0245984251968504
 20
1.962066929133858
 30
0.0
 10
-0.0245984251968504
 20
1.962066929133858
 30
0.0
 10
0.0237362204724409
 20
1.962066929133858
 30
0.0
 10
0.0237362204724409
 20
1.962066929133858
 30
0.0
 10
0.0237362204724409
 20
1.962066929133858
 30
0.0
 10
0.0237362204724409
 20
1.962066929133858
 30
0.0
 10
0.0237362204724409
 20
1.951984251968504
 30
0.0
 10
0.0237362204724409
 20
1.951984251968504
 30
0.0
 10
0.0237362204724409
 20
1.951984251968504
 30
0.0
 10
0.0237362204724409
 20
1.951984251968504
 30
0.0
 10
-0.0245984251968504
 20
1.951984251968504
 30
0.0
 10
-0.0245984251968504
 20
1.951984251968504
 30
0.0
 10
-0.0245984251968504
 20
1.951984251968504
 30
0.0
 10
-0.0245984251968504
 20
1.951984251968504
 30
0.0
 10
-0.0245984251968504
 20
1.962066929133858
 30
0.0
 10
-0.0245984251968504
 20
1.962066929133858
 30
0.0
  0
SPLINE
  5
79
330
1F
100
AcDbEntity
  8
LAYER_1
 62
   250
100
AcDbSpline
210
0.0
220
0.0
230
1.0
 70
    11
 71
     3
 72
    72
 73
    68
 74
     0
 42
0.0000000001
 43
0.0000000001
 40
0.0
 40
0.0
 40
0.0
 40
0.0
 40
0.0588235294117647
 40
0.0588235294117647
 40
0.0588235294117647
 40
0.0588235294117647
 40
0.1176470588235294
 40
0.1176470588235294
 40
0.1176470588235294
 40
0.1176470588235294
 40
0.1764705882352941
 40
0.1764705882352941
 40
0.1764705882352941
 40
0.1764705882352941
 40
0.2352941176470588
 40
0.2352941176470588
 40
0.2352941176470588
 40
0.2352941176470588
 40
0.2941176470588235
 40
0.2941176470588235
 40
0.2941176470588235
 40
0.2941176470588235
 40
0.3529411764705883
 40
0.3529411764705883
 40
0.3529411764705883
 40
0.3529411764705883
 40
0.411764705882353
 40
0.411764705882353
 40
0.411764705882353
 40
0.411764705882353
 40
0.4705882352941177
 40
0.4705882352941177
 40
0.4705882352941177
 40
0.4705882352941177
 40
0.5294117647058824
 40
0.5294117647058824
 40
0.5294117647058824
 40
0.5294117647058824
 40
0.5882352941176471
 40
0.5882352941176471
 40
0.5882352941176471
 40
0.5882352941176471
 40
0.6470588235294118
 40
0.6470588235294118
 40
0.6470588235294118
 40
0.6470588235294118
 40
0.7058823529411765
 40
0.7058823529411765
 40
0.7058823529411765
 40
0.7058823529411765
 40
0.7647058823529412
 40
0.7647058823529412
 40
0.7647058823529412
 40
0.7647058823529412
 40
0.823529411764706
 40
0.823529411764706
 40
0.823529411764706
 40
0.823529411764706
 40
0.8823529411764707
 40
0.8823529411764707
 40
0.8823529411764707
 40
0.8823529411764707
 40
0.9411764705882354
 40
0.9411764705882354
 40
0.9411764705882354
 40
0.9411764705882354
 40
1.0
 40
1.0
 40
1.0
 40
1.0
 10
0.0889291338582677
 20
2.029122047244095
 30
0.0
 10
0.0889291338582677
 20
2.029122047244095
 30
0.0
 10
0.0950118110236221
 20
2.029122047244095
 30
0.0
 10
0.0950118110236221
 20
2.029122047244095
 30
0.0
 10
0.0950118110236221
 20
2.029122047244095
 30
0.0
 10
0.0950118110236221
 20
2.029122047244095
 30
0.0
 10
0.0950118110236221
 20
1.934874015748032
 30
0.0
 10
0.0950118110236221
 20
1.934874015748032
 30
0.0
 10
0.0950118110236221
 20
1.934874015748032
 30
0.0
 10
0.0950118110236221
 20
1.930429133858268
 30
0.0
 10
0.0953188976377953
 20
1.927566929133858
 30
0.0
 10
0.0958740157480315
 20
1.926287401574803
 30
0.0
 10
0.0958740157480315
 20
1.926287401574803
 30
0.0
 10
0.0964566929133858
 20
1.925011811023622
 30
0.0
 10
0.0973740157480315
 20
1.924066929133858
 30
0.0
 10
0.0986771653543307
 20
1.92340157480315
 30
0.0
 10
0.0986771653543307
 20
1.92340157480315
 30
0.0
 10
0.0999842519685039
 20
1.922759842519685
 30
0.0
 10
0.1025669291338583
 20
1.922429133858268
 30
0.0
 10
0.1064291338582677
 20
1.922429133858268
 30
0.0
 10
0.1064291338582677
 20
1.922429133858268
 30
0.0
 10
0.1064291338582677
 20
1.922429133858268
 30
0.0
 10
0.1144015748031496
 20
1.922429133858268
 30
0.0
 10
0.1144015748031496
 20
1.922429133858268
 30
0.0
 10
0.1144015748031496
 20
1.922429133858268
 30
0.0
 10
0.1144015748031496
 20
1.922429133858268
 30
0.0
 10
0.1144015748031496
 20
1.915594488188976
 30
0.0
 10
0.1144015748031496
 20
1.915594488188976
 30
0.0
 10
0.1144015748031496
 20
1.915594488188976
 30
0.0
 10
0.1144015748031496
 20
1.915594488188976
 30
0.0
 10
0.0607637795275591
 20
1.915594488188976
 30
0.0
 10
0.0607637795275591
 20
1.915594488188976
 30
0.0
 10
0.0607637795275591
 20
1.915594488188976
 30
0.0
 10
0.0607637795275591
 20
1.915594488188976
 30
0.0
 10
0.0607637795275591
 20
1.922429133858268
 30
0.0
 10
0.0607637795275591
 20
1.922429133858268
 30
0.0
 10
0.0607637795275591
 20
1.922429133858268
 30
0.0
 10
0.0607637795275591
 20
1.922429133858268
 30
0.0
 10
0.0696220472440945
 20
1.922429133858268
 30
0.0
 10
0.0696220472440945
 20
1.922429133858268
 30
0.0
 10
0.0696220472440945
 20
1.922429133858268
 30
0.0
 10
0.0734842519685039
 20
1.922429133858268
 30
0.0
 10
0.0760393700787402
 20
1.922759842519685
 30
0.0
 10
0.0773188976377953
 20
1.923456692913386
 30
0.0
 10
0.0773188976377953
 20
1.923456692913386
 30
0.0
 10
0.0785944881889764
 20
1.924122047244095
 30
0.0
 10
0.0795944881889764
 20
1.925204724409449
 30
0.0
 10
0.0802913385826772
 20
1.926704724409449
 30
0.0
 10
0.0802913385826772
 20
1.926704724409449
 30
0.0
 10
0.0809842519685039
 20
1.928204724409449
 30
0.0
 10
0.0813464566929134
 20
1.930929133858268
 30
0.0
 10
0.0813464566929134
 20
1.934874015748032
 30
0.0
 10
0.0813464566929134
 20
1.934874015748032
 30
0.0
 10
0.0813464566929134
 20
1.934874015748032
 30
0.0
 10
0.0813464566929134
 20
2.012342519685039
 30
0.0
 10
0.0813464566929134
 20
2.012342519685039
 30
0.0
 10
0.0813464566929134
 20
2.012342519685039
 30
0.0
 10
0.0813464566929134
 20
2.012342519685039
 30
0.0
 10
0.0607637795275591
 20
2.012342519685039
 30
0.0
 10
0.0607637795275591
 20
2.012342519685039
 30
0.0
 10
0.0607637795275591
 20
2.012342519685039
 30
0.0
 10
0.0607637795275591
 20
2.012342519685039
 30
0.0
 10
0.0607637795275591
 20
2.019342519685039
 30
0.0
 10
0.0607637795275591
 20
2.019342519685039
 30
0.0
 10
0.0607637795275591
 20
2.019342519685039
 30
0.0
 10
0.0719842519685039
 20
2.020925196850394
 30
0.0
 10
0.0813740157480315
 20
2.024177165354331
 30
0.0
 10
0.0889291338582677
 20
2.029122047244095
 30
0.0
  0
SPLINE
  5
7A
330
1F
100
AcDbEntity
  8
LAYER_1
 62
   250
100
AcDbSpline
210
0.0
220
0.0
230
1.0
 70
    11
 71
     3
 72
   132
 73
   128
 74
     0
 42
0.0000000001
 43
0.0000000001
 40
0.0
 40
0.0
 40
0.0
 40
0.0
 40
0.03125
 40
0.03125
 40
0.03125
 40
0.03125
 40
0.0625
 40
0.0625
 40
0.0625
 40
0.0625
 40
0.09375
 40
0.09375
 40
0.09375
 40
0.09375
 40
0.125
 40
0.125
 40
0.125
 40
0.125
 40
0.15625
 40
0.15625
 40
0.15625
 40
0.15625
 40
0.1875
 40
0.1875
 40
0.1875
 40
0.1875
 40
0.21875
 40
0.21875
 40
0.21875
 40
0.21875
 40
0.25
 40
0.25
 40
0.25
 40
0.25
 40
0.28125
 40
0.28125
 40
0.28125
 40
0.28125
 40
0.3125
 40
0.3125
 40
0.3125
 40
0.3125
 40
0.34375
 40
0.34375
 40
0.34375
 40
0.34375
 40
0.375
 40
0.375
 40
0.375
 40
0.375
 40
0.40625
 40
0.40625
 40
0.40625
 40
0.40625
 40
0.4375
 40
0.4375
 40
0.4375
 40
0.4375
 40
0.46875
 40
0.46875
 40
0.46875
 40
0.46875
 40
0.5
 40
0.5
 40
0.5
 40
0.5
 40
0.53125
 40
0.53125
 40
0.53125
 40
0.53125
 40
0.5625
 40
0.5625
 40
0.5625
 40
0.5625
 40
0.59375
 40
0.59375
 40
0.59375
 40
0.59375
 40
0.625
 40
0.625
 40
0.625
 40
0.625
 40
0.65625
 40
0.65625
 40
0.65625
 40
0.65625
 40
0.6875
 40
0.6875
 40
0.6875
 40
0.6875
 40
0.71875
 40
0.71875
 40
0.71875
 40
0.71875
 40
0.75
 40
0.75
 40
0.75
 40
0.75
 40
0.78125
 40
0.78125
 40
0.78125
 40
0.78125
 40
0.8125
 40
0.8125
 40
0.8125
 40
0.8125
 40
0.84375
 40
0.84375
 40
0.84375
 40
0.84375
 40
0.875
 40
0.875
 40
0.875
 40
0.875
 40
0.90625
 40
0.90625
 40
0.90625
 40
0.90625
 40
0.9375
 40
0.9375
 40
0.9375
 40
0.9375
 40
0.96875
 40
0.96875
 40
0.96875
 40
0.96875
 40
1.0
 40
1.0
 40
1.0
 40
1.0
 10
0.1586811023622047
 20
2.029122047244095
 30
0.0
 10
0.1586811023622047
 20
2.029122047244095
 30
0.0
 10
0.2092913385826772
 20
2.029122047244095
 30
0.0
 10
0.2092913385826772
 20
2.029122047244095
 30
0.0
 10
0.2092913385826772
 20
2.029122047244095
 30
0.0
 10
0.2123740157480315
 20
2.029122047244095
 30
0.0
 10
0.2142637795275591
 20
2.029287401574803
 30
0.0
 10
0.2149015748031496
 20
2.029622047244095
 30
0.0
 10
0.2149015748031496
 20
2.029622047244095
 30
0.0
 10
0.2158188976377953
 20
2.030149606299213
 30
0.0
 10
0.2163740157480315
 20
2.031314960629922
 30
0.0
 10
0.2165393700787402
 20
2.033094488188977
 30
0.0
 10
0.2165393700787402
 20
2.033094488188977
 30
0.0
 10
0.2165393700787402
 20
2.033094488188977
 30
0.0
 10
0.2224842519685039
 20
2.033094488188977
 30
0.0
 10
0.2224842519685039
 20
2.033094488188977
 30
0.0
 10
0.2224842519685039
 20
2.033094488188977
 30
0.0
 10
0.2224842519685039
 20
2.033094488188977
 30
0.0
 10
0.2224842519685039
 20
2.015925196850394
 30
0.0
 10
0.2224842519685039
 20
2.015925196850394
 30
0.0
 10
0.2224842519685039
 20
2.015925196850394
 30
0.0
 10
0.2224842519685039
 20
2.015925196850394
 30
0.0
 10
0.1662362204724409
 20
2.015925196850394
 30
0.0
 10
0.1662362204724409
 20
2.015925196850394
 30
0.0
 10
0.1662362204724409
 20
2.015925196850394
 30
0.0
 10
0.1662362204724409
 20
2.015925196850394
 30
0.0
 10
0.1648464566929134
 20
1.987287401574803
 30
0.0
 10
0.1648464566929134
 20
1.987287401574803
 30
0.0
 10
0.1648464566929134
 20
1.987287401574803
 30
0.0
 10
0.1671811023622047
 20
1.987956692913386
 30
0.0
 10
0.1701535433070866
 20
1.988484251968504
 30
0.0
 10
0.1737362204724409
 20
1.988929133858268
 30
0.0
 10
0.1737362204724409
 20
1.988929133858268
 30
0.0
 10
0.1783464566929134
 20
1.989456692913386
 30
0.0
 10
0.1824566929133858
 20
1.989732283464567
 30
0.0
 10
0.1860984251968504
 20
1.989732283464567
 30
0.0
 10
0.1860984251968504
 20
1.989732283464567
 30
0.0
 10
0.1951535433070866
 20
1.989732283464567
 30
0.0
 10
0.2030393700787402
 20
1.988094488188976
 30
0.0
 10
0.2097913385826772
 20
1.984842519685039
 30
0.0
 10
0.2097913385826772
 20
1.984842519685039
 30
0.0
 10
0.2165118110236221
 20
1.981594488188976
 30
0.0
 10
0.2216220472440945
 20
1.977122047244095
 30
0.0
 10
0.2251220472440945
 20
1.971456692913386
 30
0.0
 10
0.2251220472440945
 20
1.971456692913386
 30
0.0
 10
0.2286220472440945
 20
1.965787401574803
 30
0.0
 10
0.2303740157480315
 20
1.959456692913386
 30
0.0
 10
0.2303740157480315
 20
1.952456692913386
 30
0.0
 10
0.2303740157480315
 20
1.952456692913386
 30
0.0
 10
0.2303740157480315
 20
1.941622047244095
 30
0.0
 10
0.2262913385826772
 20
1.932429133858268
 30
0.0
 10
0.2181535433070866
 20
1.92490157480315
 30
0.0
 10
0.2181535433070866
 20
1.92490157480315
 30
0.0
 10
0.210011811023622
 20
1.91740157480315
 30
0.0
 10
0.1996535433070866
 20
1.913649606299213
 30
0.0
 10
0.1870669291338583
 20
1.913649606299213
 30
0.0
 10
0.1870669291338583
 20
1.913649606299213
 30
0.0
 10
0.1797913385826772
 20
1.913649606299213
 30
0.0
 10
0.1732362204724409
 20
1.914956692913386
 30
0.0
 10
0.1673464566929134
 20
1.91753937007874
 30
0.0
 10
0.1673464566929134
 20
1.91753937007874
 30
0.0
 10
0.1614566929133858
 20
1.920149606299213
 30
0.0
 10
0.1568464566929134
 20
1.923594488188976
 30
0.0
 10
0.1535393700787402
 20
1.92784251968504
 30
0.0
 10
0.1535393700787402
 20
1.92784251968504
 30
0.0
 10
0.150236220472441
 20
1.932094488188977
 30
0.0
 10
0.1485708661417323
 20
1.93584251968504
 30
0.0
 10
0.1485708661417323
 20
1.93903937007874
 30
0.0
 10
0.1485708661417323
 20
1.93903937007874
 30
0.0
 10
0.1485708661417323
 20
1.941149606299213
 30
0.0
 10
0.1492913385826772
 20
1.942984251968504
 30
0.0
 10
0.1507086614173228
 20
1.94453937007874
 30
0.0
 10
0.1507086614173228
 20
1.94453937007874
 30
0.0
 10
0.1520984251968504
 20
1.946066929133858
 30
0.0
 10
0.1539291338582677
 20
1.946842519685039
 30
0.0
 10
0.1561535433070866
 20
1.946842519685039
 30
0.0
 10
0.1561535433070866
 20
1.946842519685039
 30
0.0
 10
0.1584291338582677
 20
1.946842519685039
 30
0.0
 10
0.1604291338582677
 20
1.94590157480315
 30
0.0
 10
0.1621811023622047
 20
1.943984251968504
 30
0.0
 10
0.1621811023622047
 20
1.943984251968504
 30
0.0
 10
0.1631535433070866
 20
1.943011811023622
 30
0.0
 10
0.1643188976377953
 20
1.940622047244095
 30
0.0
 10
0.1656811023622047
 20
1.936842519685039
 30
0.0
 10
0.1656811023622047
 20
1.936842519685039
 30
0.0
 10
0.1675118110236221
 20
1.931511811023622
 30
0.0
 10
0.1702637795275591
 20
1.927622047244095
 30
0.0
 10
0.1739015748031496
 20
1.925122047244095
 30
0.0
 10
0.1739015748031496
 20
1.925122047244095
 30
0.0
 10
0.1774566929133858
 20
1.922566929133858
 30
0.0
 10
0.181984251968504
 20
1.921287401574803
 30
0.0
 10
0.1874015748031496
 20
1.921287401574803
 30
0.0
 10
0.1874015748031496
 20
1.921287401574803
 30
0.0
 10
0.1928188976377953
 20
1.921287401574803
 30
0.0
 10
0.1976535433070866
 20
1.922484251968504
 30
0.0
 10
0.2018740157480315
 20
1.924842519685039
 30
0.0
 10
0.2018740157480315
 20
1.924842519685039
 30
0.0
 10
0.2061259842519685
 20
1.927177165354331
 30
0.0
 10
0.2094566929133858
 20
1.930594488188977
 30
0.0
 10
0.2119015748031496
 20
1.935011811023622
 30
0.0
 10
0.2119015748031496
 20
1.935011811023622
 30
0.0
 10
0.2143464566929134
 20
1.939429133858268
 30
0.0
 10
0.2155669291338583
 20
1.94434251968504
 30
0.0
 10
0.2155669291338583
 20
1.949759842519685
 30
0.0
 10
0.2155669291338583
 20
1.949759842519685
 30
0.0
 10
0.2155669291338583
 20
1.955484251968504
 30
0.0
 10
0.214236220472441
 20
1.96053937007874
 30
0.0
 10
0.2115944881889764
 20
1.964984251968504
 30
0.0
 10
0.2115944881889764
 20
1.964984251968504
 30
0.0
 10
0.208984251968504
 20
1.969429133858268
 30
0.0
 10
0.2052086614173228
 20
1.972897637795276
 30
0.0
 10
0.2002913385826772
 20
1.975314960629921
 30
0.0
 10
0.2002913385826772
 20
1.975314960629921
 30
0.0
 10
0.1953740157480315
 20
1.977759842519685
 30
0.0
 10
0.1894015748031496
 20
1.978984251968504
 30
0.0
 10
0.1823464566929134
 20
1.978984251968504
 30
0.0
 10
0.1823464566929134
 20
1.978984251968504
 30
0.0
 10
0.1780669291338583
 20
1.978984251968504
 30
0.0
 10
0.1734566929133858
 20
1.97853937007874
 30
0.0
 10
0.1685669291338583
 20
1.977594488188976
 30
0.0
 10
0.1685669291338583
 20
1.977594488188976
 30
0.0
 10
0.1636535433070866
 20
1.976677165354331
 30
0.0
 10
0.1594291338582677
 20
1.975511811023622
 30
0.0
 10
0.1559015748031496
 20
1.974094488188976
 30
0.0
 10
0.1559015748031496
 20
1.974094488188976
 30
0.0
 10
0.1559015748031496
 20
1.974094488188976
 30
0.0
 10
0.1586811023622047
 20
2.029122047244095
 30
0.0
 10
0.1586811023622047
 20
2.029122047244095
 30
0.0
  0
SPLINE
  5
7B
330
1F
100
AcDbEntity
  8
LAYER_1
 62
   250
100
AcDbSpline
210
0.0
220
0.0
230
1.0
 70
    11
 71
     3
 72
    20
 73
    16
 74
     0
 42
0.0000000001
 43
0.0000000001
 40
0.0
 40
0.0
 40
0.0
 40
0.0
 40
0.25
 40
0.25
 40
0.25
 40
0.25
 40
0.5
 40
0.5
 40
0.5
 40
0.5
 40
0.75
 40
0.75
 40
0.75
 40
0.75
 40
1.0
 40
1.0
 40
1.0
 40
1.0
 10
0.3211259842519685
 20
2.034984251968504
 30
0.0
 10
0.3211259842519685
 20
2.034984251968504
 30
0.0
 10
0.2655433070866142
 20
1.879287401574803
 30
0.0
 10
0.2655433070866142
 20
1.879287401574803
 30
0.0
 10
0.2655433070866142
 20
1.879287401574803
 30
0.0
 10
0.2655433070866142
 20
1.879287401574803
 30
0.0
 10
0.253488188976378
 20
1.879287401574803
 30
0.0
 10
0.253488188976378
 20
1.879287401574803
 30
0.0
 10
0.253488188976378
 20
1.879287401574803
 30
0.0
 10
0.253488188976378
 20
1.879287401574803
 30
0.0
 10
0.308736220472441
 20
2.034984251968504
 30
0.0
 10
0.308736220472441
 20
2.034984251968504
 30
0.0
 10
0.308736220472441
 20
2.034984251968504
 30
0.0
 10
0.308736220472441
 20
2.034984251968504
 30
0.0
 10
0.3211259842519685
 20
2.034984251968504
 30
0.0
 10
0.3211259842519685
 20
2.034984251968504
 30
0.0
  0
SPLINE
  5
7C
330
1F
100
AcDbEntity
  8
LAYER_1
 62
   250
100
AcDbSpline
210
0.0
220
0.0
230
1.0
 70
    11
 71
     3
 72
    72
 73
    68
 74
     0
 42
0.0000000001
 43
0.0000000001
 40
0.0
 40
0.0
 40
0.0
 40
0.0
 40
0.0588235294117647
 40
0.0588235294117647
 40
0.0588235294117647
 40
0.0588235294117647
 40
0.1176470588235294
 40
0.1176470588235294
 40
0.1176470588235294
 40
0.1176470588235294
 40
0.1764705882352941
 40
0.1764705882352941
 40
0.1764705882352941
 40
0.1764705882352941
 40
0.2352941176470588
 40
0.2352941176470588
 40
0.2352941176470588
 40
0.2352941176470588
 40
0.2941176470588235
 40
0.2941176470588235
 40
0.2941176470588235
 40
0.2941176470588235
 40
0.3529411764705883
 40
0.3529411764705883
 40
0.3529411764705883
 40
0.3529411764705883
 40
0.411764705882353
 40
0.411764705882353
 40
0.411764705882353
 40
0.411764705882353
 40
0.4705882352941177
 40
0.4705882352941177
 40
0.4705882352941177
 40
0.4705882352941177
 40
0.5294117647058824
 40
0.5294117647058824
 40
0.5294117647058824
 40
0.5294117647058824
 40
0.5882352941176471
 40
0.5882352941176471
 40
0.5882352941176471
 40
0.5882352941176471
 40
0.6470588235294118
 40
0.6470588235294118
 40
0.6470588235294118
 40
0.6470588235294118
 40
0.7058823529411765
 40
0.7058823529411765
 40
0.7058823529411765
 40
0.7058823529411765
 40
0.7647058823529412
 40
0.7647058823529412
 40
0.7647058823529412
 40
0.7647058823529412
 40
0.823529411764706
 40
0.823529411764706
 40
0.823529411764706
 40
0.823529411764706
 40
0.8823529411764707
 40
0.8823529411764707
 40
0.8823529411764707
 40
0.8823529411764707
 40
0.9411764705882354
 40
0.9411764705882354
 40
0.9411764705882354
 40
0.9411764705882354
 40
1.0
 40
1.0
 40
1.0
 40
1.0
 10
0.3956811023622047
 20
2.029122047244095
 30
0.0
 10
0.3956811023622047
 20
2.029122047244095
 30
0.0
 10
0.4017637795275591
 20
2.029122047244095
 30
0.0
 10
0.4017637795275591
 20
2.029122047244095
 30
0.0
 10
0.4017637795275591
 20
2.029122047244095
 30
0.0
 10
0.4017637795275591
 20
2.029122047244095
 30
0.0
 10
0.4017637795275591
 20
1.934874015748032
 30
0.0
 10
0.4017637795275591
 20
1.934874015748032
 30
0.0
 10
0.4017637795275591
 20
1.934874015748032
 30
0.0
 10
0.4017637795275591
 20
1.930429133858268
 30
0.0
 10
0.4020708661417323
 20
1.927566929133858
 30
0.0
 10
0.4026259842519685
 20
1.926287401574803
 30
0.0
 10
0.4026259842519685
 20
1.926287401574803
 30
0.0
 10
0.4032086614173229
 20
1.925011811023622
 30
0.0
 10
0.4041259842519685
 20
1.924066929133858
 30
0.0
 10
0.4054291338582677
 20
1.92340157480315
 30
0.0
 10
0.4054291338582677
 20
1.92340157480315
 30
0.0
 10
0.406736220472441
 20
1.922759842519685
 30
0.0
 10
0.4093188976377953
 20
1.922429133858268
 30
0.0
 10
0.4131811023622047
 20
1.922429133858268
 30
0.0
 10
0.4131811023622047
 20
1.922429133858268
 30
0.0
 10
0.4131811023622047
 20
1.922429133858268
 30
0.0
 10
0.4211535433070867
 20
1.922429133858268
 30
0.0
 10
0.4211535433070867
 20
1.922429133858268
 30
0.0
 10
0.4211535433070867
 20
1.922429133858268
 30
0.0
 10
0.4211535433070867
 20
1.922429133858268
 30
0.0
 10
0.4211535433070867
 20
1.915594488188976
 30
0.0
 10
0.4211535433070867
 20
1.915594488188976
 30
0.0
 10
0.4211535433070867
 20
1.915594488188976
 30
0.0
 10
0.4211535433070867
 20
1.915594488188976
 30
0.0
 10
0.3675157480314961
 20
1.915594488188976
 30
0.0
 10
0.3675157480314961
 20
1.915594488188976
 30
0.0
 10
0.3675157480314961
 20
1.915594488188976
 30
0.0
 10
0.3675157480314961
 20
1.915594488188976
 30
0.0
 10
0.3675157480314961
 20
1.922429133858268
 30
0.0
 10
0.3675157480314961
 20
1.922429133858268
 30
0.0
 10
0.3675157480314961
 20
1.922429133858268
 30
0.0
 10
0.3675157480314961
 20
1.922429133858268
 30
0.0
 10
0.3763740157480315
 20
1.922429133858268
 30
0.0
 10
0.3763740157480315
 20
1.922429133858268
 30
0.0
 10
0.3763740157480315
 20
1.922429133858268
 30
0.0
 10
0.3802362204724409
 20
1.922429133858268
 30
0.0
 10
0.3827913385826772
 20
1.922759842519685
 30
0.0
 10
0.3840708661417323
 20
1.923456692913386
 30
0.0
 10
0.3840708661417323
 20
1.923456692913386
 30
0.0
 10
0.3853464566929134
 20
1.924122047244095
 30
0.0
 10
0.3863464566929134
 20
1.925204724409449
 30
0.0
 10
0.3870433070866142
 20
1.926704724409449
 30
0.0
 10
0.3870433070866142
 20
1.926704724409449
 30
0.0
 10
0.3877362204724409
 20
1.928204724409449
 30
0.0
 10
0.3880984251968504
 20
1.930929133858268
 30
0.0
 10
0.3880984251968504
 20
1.934874015748032
 30
0.0
 10
0.3880984251968504
 20
1.934874015748032
 30
0.0
 10
0.3880984251968504
 20
1.934874015748032
 30
0.0
 10
0.3880984251968504
 20
2.012342519685039
 30
0.0
 10
0.3880984251968504
 20
2.012342519685039
 30
0.0
 10
0.3880984251968504
 20
2.012342519685039
 30
0.0
 10
0.3880984251968504
 20
2.012342519685039
 30
0.0
 10
0.3675157480314961
 20
2.012342519685039
 30
0.0
 10
0.3675157480314961
 20
2.012342519685039
 30
0.0
 10
0.3675157480314961
 20
2.012342519685039
 30
0.0
 10
0.3675157480314961
 20
2.012342519685039
 30
0.0
 10
0.3675157480314961
 20
2.019342519685039
 30
0.0
 10
0.3675157480314961
 20
2.019342519685039
 30
0.0
 10
0.3675157480314961
 20
2.019342519685039
 30
0.0
 10
0.3787362204724409
 20
2.020925196850394
 30
0.0
 10
0.3881259842519685
 20
2.024177165354331
 30
0.0
 10
0.3956811023622047
 20
2.029122047244095
 30
0.0
  0
SPLINE
  5
7D
330
1F
100
AcDbEntity
  8
LAYER_1
 62
   250
100
AcDbSpline
210
0.0
220
0.0
230
1.0
 70
    11
 71
     3
 72
    84
 73
    80
 74
     0
 42
0.0000000001
 43
0.0000000001
 40
0.0
 40
0.0
 40
0.0
 40
0.0
 40
0.05
 40
0.05
 40
0.05
 40
0.05
 40
0.1
 40
0.1
 40
0.1
 40
0.1
 40
0.15
 40
0.15
 40
0.15
 40
0.15
 40
0.2
 40
0.2
 40
0.2
 40
0.2
 40
0.25
 40
0.25
 40
0.25
 40
0.25
 40
0.3
 40
0.3
 40
0.3
 40
0.3
 40
0.35
 40
0.35
 40
0.35
 40
0.35
 40
0.4
 40
0.4
 40
0.4
 40
0.4
 40
0.45
 40
0.45
 40
0.45
 40
0.45
 40
0.4999999999999999
 40
0.4999999999999999
 40
0.4999999999999999
 40
0.4999999999999999
 40
0.5499999999999999
 40
0.5499999999999999
 40
0.5499999999999999
 40
0.5499999999999999
 40
0.6
 40
0.6
 40
0.6
 40
0.6
 40
0.65
 40
0.65
 40
0.65
 40
0.65
 40
0.7000000000000001
 40
0.7000000000000001
 40
0.7000000000000001
 40
0.7000000000000001
 40
0.7500000000000001
 40
0.7500000000000001
 40
0.7500000000000001
 40
0.7500000000000001
 40
0.8000000000000002
 40
0.8000000000000002
 40
0.8000000000000002
 40
0.8000000000000002
 40
0.8500000000000002
 40
0.8500000000000002
 40
0.8500000000000002
 40
0.8500000000000002
 40
0.9000000000000002
 40
0.9000000000000002
 40
0.9000000000000002
 40
0.9000000000000002
 40
0.9500000000000003
 40
0.9500000000000003
 40
0.9500000000000003
 40
0.9500000000000003
 40
1.0
 40
1.0
 40
1.0
 40
1.0
 10
0.5273464566929134
 20
2.031232283464567
 30
0.0
 10
0.5273464566929134
 20
2.031232283464567
 30
0.0
 10
0.5273464566929134
 20
2.023814960629921
 30
0.0
 10
0.5273464566929134
 20
2.023814960629921
 30
0.0
 10
0.5273464566929134
 20
2.023814960629921
 30
0.0
 10
0.5139606299212599
 20
2.023677165354331
 30
0.0
 10
0.5031259842519685
 20
2.021704724409449
 30
0.0
 10
0.4948503937007874
 20
2.017984251968504
 30
0.0
 10
0.4948503937007874
 20
2.017984251968504
 30
0.0
 10
0.4865708661417323
 20
2.014232283464567
 30
0.0
 10
0.480488188976378
 20
2.008622047244095
 30
0.0
 10
0.4765708661417323
 20
2.001177165354331
 30
0.0
 10
0.4765708661417323
 20
2.001177165354331
 30
0.0
 10
0.4726535433070866
 20
1.993704724409449
 30
0.0
 10
0.4704606299212599
 20
1.984511811023622
 30
0.0
 10
0.469988188976378
 20
1.973622047244095
 30
0.0
 10
0.469988188976378
 20
1.973622047244095
 30
0.0
 10
0.472736220472441
 20
1.97784251968504
 30
0.0
 10
0.4755708661417323
 20
1.981149606299213
 30
0.0
 10
0.478488188976378
 20
1.983511811023622
 30
0.0
 10
0.478488188976378
 20
1.983511811023622
 30
0.0
 10
0.4813779527559055
 20
1.985870078740158
 30
0.0
 10
0.4847637795275591
 20
1.987677165354331
 30
0.0
 10
0.4886535433070867
 20
1.988956692913386
 30
0.0
 10
0.4886535433070867
 20
1.988956692913386
 30
0.0
 10
0.4925433070866142
 20
1.990232283464567
 30
0.0
 10
0.4967913385826772
 20
1.990870078740158
 30
0.0
 10
0.5014055118110237
 20
1.990870078740158
 30
0.0
 10
0.5014055118110237
 20
1.990870078740158
 30
0.0
 10
0.508763779527559
 20
1.990870078740158
 30
0.0
 10
0.5153464566929135
 20
1.989232283464567
 30
0.0
 10
0.5210984251968505
 20
1.985984251968504
 30
0.0
 10
0.5210984251968505
 20
1.985984251968504
 30
0.0
 10
0.5268464566929134
 20
1.982732283464567
 30
0.0
 10
0.5313188976377953
 20
1.978314960629921
 30
0.0
 10
0.534515748031496
 20
1.972759842519685
 30
0.0
 10
0.534515748031496
 20
1.972759842519685
 30
0.0
 10
0.5377086614173229
 20
1.967204724409449
 30
0.0
 10
0.5393188976377953
 20
1.960649606299213
 30
0.0
 10
0.5393188976377953
 20
1.953122047244095
 30
0.0
 10
0.5393188976377953
 20
1.953122047244095
 30
0.0
 10
0.5393188976377953
 20
1.941122047244095
 30
0.0
 10
0.5357086614173229
 20
1.931704724409449
 30
0.0
 10
0.528488188976378
 20
1.924874015748032
 30
0.0
 10
0.528488188976378
 20
1.924874015748032
 30
0.0
 10
0.520515748031496
 20
1.917374015748032
 30
0.0
 10
0.5101811023622047
 20
1.913649606299213
 30
0.0
 10
0.497488188976378
 20
1.913649606299213
 30
0.0
 10
0.497488188976378
 20
1.913649606299213
 30
0.0
 10
0.4883188976377953
 20
1.913649606299213
 30
0.0
 10
0.4805984251968504
 20
1.91553937007874
 30
0.0
 10
0.4742913385826772
 20
1.91934251968504
 30
0.0
 10
0.4742913385826772
 20
1.91934251968504
 30
0.0
 10
0.467988188976378
 20
1.923122047244095
 30
0.0
 10
0.462988188976378
 20
1.928929133858268
 30
0.0
 10
0.4592637795275591
 20
1.936759842519685
 30
0.0
 10
0.4592637795275591
 20
1.936759842519685
 30
0.0
 10
0.4555708661417323
 20
1.944566929133858
 30
0.0
 10
0.4537086614173229
 20
1.954232283464567
 30
0.0
 10
0.4537086614173229
 20
1.965732283464567
 30
0.0
 10
0.4537086614173229
 20
1.965732283464567
 30
0.0
 10
0.4537086614173229
 20
1.977287401574803
 30
0.0
 10
0.4556811023622047
 20
1.98753937007874
 30
0.0
 10
0.4595984251968504
 20
1.996484251968504
 30
0.0
 10
0.4595984251968504
 20
1.996484251968504
 30
0.0
 10
0.4635433070866142
 20
2.005425196850394
 30
0.0
 10
0.468988188976378
 20
2.012622047244095
 30
0.0
 10
0.4759330708661417
 20
2.01803937007874
 30
0.0
 10
0.4759330708661417
 20
2.01803937007874
 30
0.0
 10
0.4828779527559055
 20
2.023484251968504
 30
0.0
 10
0.490488188976378
 20
2.02703937007874
 30
0.0
 10
0.498736220472441
 20
2.028704724409449
 30
0.0
 10
0.498736220472441
 20
2.028704724409449
 30
0.0
 10
0.5070157480314961
 20
2.030397637795276
 30
0.0
 10
0.5144330708661418
 20
2.031232283464567
 30
0.0
 10
0.5210157480314961
 20
2.031232283464567
 30
0.0
 10
0.5210157480314961
 20
2.031232283464567
 30
0.0
 10
0.5210157480314961
 20
2.031232283464567
 30
0.0
 10
0.5273464566929134
 20
2.031232283464567
 30
0.0
 10
0.5273464566929134
 20
2.031232283464567
 30
0.0
  0
SPLINE
  5
7E
330
1F
100
AcDbEntity
  8
LAYER_1
 62
   250
100
AcDbSpline
210
0.0
220
0.0
230
1.0
 70
    11
 71
     3
 72
    40
 73
    36
 74
     0
 42
0.0000000001
 43
0.0000000001
 40
0.0
 40
0.0
 40
0.0
 40
0.0
 40
0.1111111111111111
 40
0.1111111111111111
 40
0.1111111111111111
 40
0.1111111111111111
 40
0.2222222222222222
 40
0.2222222222222222
 40
0.2222222222222222
 40
0.2222222222222222
 40
0.3333333333333333
 40
0.3333333333333333
 40
0.3333333333333333
 40
0.3333333333333333
 40
0.4444444444444444
 40
0.4444444444444444
 40
0.4444444444444444
 40
0.4444444444444444
 40
0.5555555555555556
 40
0.5555555555555556
 40
0.5555555555555556
 40
0.5555555555555556
 40
0.6666666666666667
 40
0.6666666666666667
 40
0.6666666666666667
 40
0.6666666666666667
 40
0.7777777777777779
 40
0.7777777777777779
 40
0.7777777777777779
 40
0.7777777777777779
 40
0.8888888888888891
 40
0.8888888888888891
 40
0.8888888888888891
 40
0.8888888888888891
 40
1.0
 40
1.0
 40
1.0
 40
1.0
 10
0.4976535433070866
 20
1.982232283464567
 30
0.0
 10
0.4898503937007874
 20
1.982232283464567
 30
0.0
 10
0.4834330708661417
 20
1.979287401574803
 30
0.0
 10
0.4784055118110236
 20
1.973370078740158
 30
0.0
 10
0.4784055118110236
 20
1.973370078740158
 30
0.0
 10
0.4733779527559056
 20
1.967456692913386
 30
0.0
 10
0.4708779527559056
 20
1.96034251968504
 30
0.0
 10
0.4708779527559056
 20
1.952066929133858
 30
0.0
 10
0.4708779527559056
 20
1.952066929133858
 30
0.0
 10
0.4708779527559056
 20
1.946204724409449
 30
0.0
 10
0.4720984251968504
 20
1.940787401574803
 30
0.0
 10
0.4745433070866142
 20
1.935814960629921
 30
0.0
 10
0.4745433070866142
 20
1.935814960629921
 30
0.0
 10
0.476988188976378
 20
1.930842519685039
 30
0.0
 10
0.4801259842519685
 20
1.927177165354331
 30
0.0
 10
0.483988188976378
 20
1.924759842519685
 30
0.0
 10
0.483988188976378
 20
1.924759842519685
 30
0.0
 10
0.4878188976377953
 20
1.922342519685039
 30
0.0
 10
0.4921811023622048
 20
1.921122047244095
 30
0.0
 10
0.496988188976378
 20
1.921122047244095
 30
0.0
 10
0.496988188976378
 20
1.921122047244095
 30
0.0
 10
0.5044881889763779
 20
1.921122047244095
 30
0.0
 10
0.5107086614173229
 20
1.923956692913386
 30
0.0
 10
0.5156811023622048
 20
1.929622047244095
 30
0.0
 10
0.5156811023622048
 20
1.929622047244095
 30
0.0
 10
0.5206259842519685
 20
1.935287401574803
 30
0.0
 10
0.5231259842519686
 20
1.94290157480315
 30
0.0
 10
0.5231259842519686
 20
1.952456692913386
 30
0.0
 10
0.5231259842519686
 20
1.952456692913386
 30
0.0
 10
0.5231259842519686
 20
1.961566929133858
 30
0.0
 10
0.5207086614173229
 20
1.968814960629921
 30
0.0
 10
0.5158779527559055
 20
1.974177165354331
 30
0.0
 10
0.5158779527559055
 20
1.974177165354331
 30
0.0
 10
0.5110433070866142
 20
1.979566929133858
 30
0.0
 10
0.5049606299212599
 20
1.982232283464567
 30
0.0
 10
0.4976535433070866
 20
1.982232283464567
 30
0.0
  0
SPLINE
  5
7F
330
1F
100
AcDbEntity
  8
LAYER_1
 62
   250
100
AcDbSpline
210
0.0
220
0.0
230
1.0
 70
    11
 71
     3
 72
    60
 73
    56
 74
     0
 42
0.0000000001
 43
0.0000000001
 40
0.0
 40
0.0
 40
0.0
 40
0.0
 40
0.0714285714285714
 40
0.0714285714285714
 40
0.0714285714285714
 40
0.0714285714285714
 40
0.1428571428571429
 40
0.1428571428571429
 40
0.1428571428571429
 40
0.1428571428571429
 40
0.2142857142857143
 40
0.2142857142857143
 40
0.2142857142857143
 40
0.2142857142857143
 40
0.2857142857142857
 40
0.2857142857142857
 40
0.2857142857142857
 40
0.2857142857142857
 40
0.3571428571428571
 40
0.3571428571428571
 40
0.3571428571428571
 40
0.3571428571428571
 40
0.4285714285714285
 40
0.4285714285714285
 40
0.4285714285714285
 40
0.4285714285714285
 40
0.4999999999999999
 40
0.4999999999999999
 40
0.4999999999999999
 40
0.4999999999999999
 40
0.5714285714285713
 40
0.5714285714285713
 40
0.5714285714285713
 40
0.5714285714285713
 40
0.6428571428571427
 40
0.6428571428571427
 40
0.6428571428571427
 40
0.6428571428571427
 40
0.7142857142857141
 40
0.7142857142857141
 40
0.7142857142857141
 40
0.7142857142857141
 40
0.7857142857142855
 40
0.7857142857142855
 40
0.7857142857142855
 40
0.7857142857142855
 40
0.8571428571428569
 40
0.8571428571428569
 40
0.8571428571428569
 40
0.8571428571428569
 40
0.9285714285714283
 40
0.9285714285714283
 40
0.9285714285714283
 40
0.9285714285714283
 40
1.0
 40
1.0
 40
1.0
 40
1.0
 10
0.556488188976378
 20
1.98703937007874
 30
0.0
 10
0.556488188976378
 20
1.98703937007874
 30
0.0
 10
0.5520984251968504
 20
1.992429133858268
 30
0.0
 10
0.5520984251968504
 20
1.992429133858268
 30
0.0
 10
0.5520984251968504
 20
1.992429133858268
 30
0.0
 10
0.5632125984251969
 20
2.001484251968504
 30
0.0
 10
0.5687952755905512
 20
2.00903937007874
 30
0.0
 10
0.5687952755905512
 20
2.015122047244095
 30
0.0
 10
0.5687952755905512
 20
2.015122047244095
 30
0.0
 10
0.5687952755905512
 20
2.015814960629921
 30
0.0
 10
0.568740157480315
 20
2.016704724409449
 30
0.0
 10
0.5686259842519685
 20
2.017732283464567
 30
0.0
 10
0.5686259842519685
 20
2.017732283464567
 30
0.0
 10
0.5677125984251968
 20
2.01734251968504
 30
0.0
 10
0.5667952755905512
 20
2.01703937007874
 30
0.0
 10
0.5659330708661418
 20
2.01684251968504
 30
0.0
 10
0.5659330708661418
 20
2.01684251968504
 30
0.0
 10
0.5650708661417323
 20
2.016622047244095
 30
0.0
 10
0.5642677165354331
 20
2.016511811023622
 30
0.0
 10
0.563488188976378
 20
2.016511811023622
 30
0.0
 10
0.563488188976378
 20
2.016511811023622
 30
0.0
 10
0.5608779527559056
 20
2.016511811023622
 30
0.0
 10
0.5587952755905512
 20
2.01734251968504
 30
0.0
 10
0.557240157480315
 20
2.01903937007874
 30
0.0
 10
0.557240157480315
 20
2.01903937007874
 30
0.0
 10
0.5556535433070866
 20
2.020704724409449
 30
0.0
 10
0.5548779527559056
 20
2.022842519685039
 30
0.0
 10
0.5548779527559056
 20
2.025456692913386
 30
0.0
 10
0.5548779527559056
 20
2.025456692913386
 30
0.0
 10
0.5548779527559056
 20
2.028011811023622
 30
0.0
 10
0.5558228346456693
 20
2.030232283464567
 30
0.0
 10
0.5577125984251968
 20
2.032122047244095
 30
0.0
 10
0.5577125984251968
 20
2.032122047244095
 30
0.0
 10
0.5596259842519685
 20
2.03403937007874
 30
0.0
 10
0.5619055118110237
 20
2.034984251968504
 30
0.0
 10
0.5645433070866142
 20
2.034984251968504
 30
0.0
 10
0.5645433070866142
 20
2.034984251968504
 30
0.0
 10
0.568240157480315
 20
2.034984251968504
 30
0.0
 10
0.5714055118110236
 20
2.033511811023622
 30
0.0
 10
0.5740433070866142
 20
2.03053937007874
 30
0.0
 10
0.5740433070866142
 20
2.03053937007874
 30
0.0
 10
0.5766535433070866
 20
2.027594488188977
 30
0.0
 10
0.5779881889763779
 20
2.023787401574803
 30
0.0
 10
0.5779881889763779
 20
2.019122047244095
 30
0.0
 10
0.5779881889763779
 20
2.019122047244095
 30
0.0
 10
0.5779881889763779
 20
2.016066929133858
 30
0.0
 10
0.5773503937007875
 20
2.012870078740157
 30
0.0
 10
0.5760984251968504
 20
2.00953937007874
 30
0.0
 10
0.5760984251968504
 20
2.00953937007874
 30
0.0
 10
0.5748503937007874
 20
2.006204724409449
 30
0.0
 10
0.5730433070866142
 20
2.003122047244095
 30
0.0
 10
0.5706535433070866
 20
2.000259842519685
 30
0.0
 10
0.5706535433070866
 20
2.000259842519685
 30
0.0
 10
0.5682677165354331
 20
1.997429133858268
 30
0.0
 10
0.5635433070866142
 20
1.993011811023622
 30
0.0
 10
0.556488188976378
 20
1.98703937007874
 30
0.0
  0
SPLINE
  5
80
330
1F
100
AcDbEntity
  8
LAYER_1
 62
   250
100
AcDbSpline
210
0.0
220
0.0
230
1.0
 70
    11
 71
     3
 72
    60
 73
    56
 74
     0
 42
0.0000000001
 43
0.0000000001
 40
0.0
 40
0.0
 40
0.0
 40
0.0
 40
0.0714285714285714
 40
0.0714285714285714
 40
0.0714285714285714
 40
0.0714285714285714
 40
0.1428571428571429
 40
0.1428571428571429
 40
0.1428571428571429
 40
0.1428571428571429
 40
0.2142857142857143
 40
0.2142857142857143
 40
0.2142857142857143
 40
0.2142857142857143
 40
0.2857142857142857
 40
0.2857142857142857
 40
0.2857142857142857
 40
0.2857142857142857
 40
0.3571428571428571
 40
0.3571428571428571
 40
0.3571428571428571
 40
0.3571428571428571
 40
0.4285714285714285
 40
0.4285714285714285
 40
0.4285714285714285
 40
0.4285714285714285
 40
0.4999999999999999
 40
0.4999999999999999
 40
0.4999999999999999
 40
0.4999999999999999
 40
0.5714285714285713
 40
0.5714285714285713
 40
0.5714285714285713
 40
0.5714285714285713
 40
0.6428571428571427
 40
0.6428571428571427
 40
0.6428571428571427
 40
0.6428571428571427
 40
0.7142857142857141
 40
0.7142857142857141
 40
0.7142857142857141
 40
0.7142857142857141
 40
0.7857142857142855
 40
0.7857142857142855
 40
0.7857142857142855
 40
0.7857142857142855
 40
0.8571428571428569
 40
0.8571428571428569
 40
0.8571428571428569
 40
0.8571428571428569
 40
0.9285714285714283
 40
0.9285714285714283
 40
0.9285714285714283
 40
0.9285714285714283
 40
1.0
 40
1.0
 40
1.0
 40
1.0
 10
0.5855433070866142
 20
1.98703937007874
 30
0.0
 10
0.5855433070866142
 20
1.98703937007874
 30
0.0
 10
0.5811535433070867
 20
1.992429133858268
 30
0.0
 10
0.5811535433070867
 20
1.992429133858268
 30
0.0
 10
0.5811535433070867
 20
1.992429133858268
 30
0.0
 10
0.5922677165354331
 20
2.001484251968504
 30
0.0
 10
0.5978503937007874
 20
2.00903937007874
 30
0.0
 10
0.5978503937007874
 20
2.015122047244095
 30
0.0
 10
0.5978503937007874
 20
2.015122047244095
 30
0.0
 10
0.5978503937007874
 20
2.015814960629921
 30
0.0
 10
0.5977952755905512
 20
2.016704724409449
 30
0.0
 10
0.5976811023622047
 20
2.017732283464567
 30
0.0
 10
0.5976811023622047
 20
2.017732283464567
 30
0.0
 10
0.5967677165354332
 20
2.01734251968504
 30
0.0
 10
0.5958503937007874
 20
2.01703937007874
 30
0.0
 10
0.594988188976378
 20
2.01684251968504
 30
0.0
 10
0.594988188976378
 20
2.01684251968504
 30
0.0
 10
0.5941259842519685
 20
2.016622047244095
 30
0.0
 10
0.5932952755905512
 20
2.016511811023622
 30
0.0
 10
0.5924606299212599
 20
2.016511811023622
 30
0.0
 10
0.5924606299212599
 20
2.016511811023622
 30
0.0
 10
0.5899055118110237
 20
2.016511811023622
 30
0.0
 10
0.5878503937007874
 20
2.01734251968504
 30
0.0
 10
0.5862952755905512
 20
2.01903937007874
 30
0.0
 10
0.5862952755905512
 20
2.01903937007874
 30
0.0
 10
0.5847125984251969
 20
2.020704724409449
 30
0.0
 10
0.5839330708661418
 20
2.022842519685039
 30
0.0
 10
0.5839330708661418
 20
2.025456692913386
 30
0.0
 10
0.5839330708661418
 20
2.025456692913386
 30
0.0
 10
0.5839330708661418
 20
2.028011811023622
 30
0.0
 10
0.5848779527559055
 20
2.030232283464567
 30
0.0
 10
0.5867677165354331
 20
2.032122047244095
 30
0.0
 10
0.5867677165354331
 20
2.032122047244095
 30
0.0
 10
0.5886535433070866
 20
2.03403937007874
 30
0.0
 10
0.5909606299212599
 20
2.034984251968504
 30
0.0
 10
0.5935984251968505
 20
2.034984251968504
 30
0.0
 10
0.5935984251968505
 20
2.034984251968504
 30
0.0
 10
0.5972952755905512
 20
2.034984251968504
 30
0.0
 10
0.6004606299212598
 20
2.033511811023622
 30
0.0
 10
0.6030984251968504
 20
2.03053937007874
 30
0.0
 10
0.6030984251968504
 20
2.03053937007874
 30
0.0
 10
0.6057086614173228
 20
2.027594488188977
 30
0.0
 10
0.6070433070866143
 20
2.023787401574803
 30
0.0
 10
0.6070433070866143
 20
2.019122047244095
 30
0.0
 10
0.6070433070866143
 20
2.019122047244095
 30
0.0
 10
0.6070433070866143
 20
2.016066929133858
 30
0.0
 10
0.6064055118110237
 20
2.012870078740157
 30
0.0
 10
0.6051535433070866
 20
2.00953937007874
 30
0.0
 10
0.6051535433070866
 20
2.00953937007874
 30
0.0
 10
0.6039055118110237
 20
2.006204724409449
 30
0.0
 10
0.6020984251968504
 20
2.003122047244095
 30
0.0
 10
0.5997125984251969
 20
2.000259842519685
 30
0.0
 10
0.5997125984251969
 20
2.000259842519685
 30
0.0
 10
0.5973228346456693
 20
1.997429133858268
 30
0.0
 10
0.5925984251968505
 20
1.993011811023622
 30
0.0
 10
0.5855433070866142
 20
1.98703937007874
 30
0.0
  0
ENDSEC
  0
SECTION
  2
OBJECTS
  0
DICTIONARY
  5
C
330
0
100
AcDbDictionary
  3
ACAD_GROUP
350
D
  3
ACAD_LAYOUT
350
1A
  3
ACAD_MLINESTYLE
350
17
  3
ACAD_PLOTSETTINGS
350
19
  3
ACDBHEADERROUNDTRIPXREC
350
81
  0
DICTIONARY
  5
A1
330
29
100
AcDbDictionary
280
     1
  3
ACAD_XREC_ROUNDTRIP
360
A2
  0
DICTIONARY
  5
D
102
{ACAD_REACTORS
330
C
102
}
330
C
100
AcDbDictionary
  0
DICTIONARY
  5
1A
102
{ACAD_REACTORS
330
C
102
}
330
C
100
AcDbDictionary
  0
DICTIONARY
  5
17
102
{ACAD_REACTORS
330
C
102
}
330
C
100
AcDbDictionary
  3
STANDARD
350
18
  0
DICTIONARY
  5
19
102
{ACAD_REACTORS
330
C
102
}
330
C
100
AcDbDictionary
  0
DICTIONARY
  5
81
102
{ACAD_REACTORS
330
C
102
}
330
C
100
AcDbDictionary
  3
CEPSNTYPE
350
8A
  3
DIMSTYLEDATA
350
A0
  3
FINGERPRINTGUID
350
8B
  3
HYPERLINKBASE
350
84
  3
INSUNITS
350
89
  3
LAYOUTDICT
350
86
  3
LWETCUNION
350
88
  3
PLOTSETDICT
350
87
  3
PSVPSCALE
350
8D
  3
PUCSBASE
350
90
  3
PUCSORGBACK
350
96
  3
PUCSORGBOTTOM
350
92
  3
PUCSORGFRONT
350
95
  3
PUCSORGLEFT
350
93
  3
PUCSORGRIGHT
350
94
  3
PUCSORGTOP
350
91
  3
PUCSORTHOREF
350
8E
  3
PUCSORTHOVIEW
350
8F
  3
STYLESHEET
350
85
  3
TSTACKALIGN
350
82
  3
TSTACKSIZE
350
83
  3
UCSBASE
350
99
  3
UCSORGBACK
350
9F
  3
UCSORGBOTTOM
350
9B
  3
UCSORGFRONT
350
9E
  3
UCSORGLEFT
350
9C
  3
UCSORGRIGHT
350
9D
  3
UCSORGTOP
350
9A
  3
UCSORTHOREF
350
97
  3
UCSORTHOVIEW
350
98
  3
VERSIONGUID
350
8C
  0
XRECORD
  5
A2
102
{ACAD_REACTORS
330
A1
102
}
330
A1
100
AcDbXrecord
102
UCS
 74
     0
 71
     1
 10
0.0
 20
0.0
 30
0.0
 10
1.0
 20
0.0
 30
0.0
 10
0.0
 20
1.0
 30
0.0
146
0.0
 79
     0
102
VIEW
281
     0
  0
MLINESTYLE
  5
18
102
{ACAD_REACTORS
330
17
102
}
330
17
100
AcDbMlineStyle
  2
Standard
 70
     0
  3

 62
   256
 51
90.0
 52
90.0
 71
     2
 49
0.5
 62
   256
  6
BYLAYER
 49
-0.5
 62
   256
  6
BYLAYER
  0
XRECORD
  5
8A
102
{ACAD_REACTORS
330
81
102
}
330
81
100
AcDbXrecord
 90
        0
  0
XRECORD
  5
A0
102
{ACAD_REACTORS
330
81
102
}
330
81
100
AcDbXrecord
1000
DSTYLE
1002
{
1070
   340
340
11
1002
}
  0
XRECORD
  5
8B
102
{ACAD_REACTORS
330
81
102
}
330
81
100
AcDbXrecord
  1
{FAEB1C30-E019-11D5-929B-00C0DF256EC4}
  0
XRECORD
  5
84
102
{ACAD_REACTORS
330
81
102
}
330
81
100
AcDbXrecord
  1

  0
XRECORD
  5
89
102
{ACAD_REACTORS
330
81
102
}
330
81
100
AcDbXrecord
 90
        1
  0
XRECORD
  5
86
102
{ACAD_REACTORS
330
81
102
}
330
81
100
AcDbXrecord
340
1A
  0
XRECORD
  5
88
102
{ACAD_REACTORS
330
81
102
}
330
81
100
AcDbXrecord
 90
     2560
  0
XRECORD
  5
87
102
{ACAD_REACTORS
330
81
102
}
330
81
100
AcDbXrecord
340
19
  0
XRECORD
  5
8D
102
{ACAD_REACTORS
330
81
102
}
330
81
100
AcDbXrecord
 40
0.0
  0
XRECORD
  5
90
102
{ACAD_REACTORS
330
81
102
}
330
81
100
AcDbXrecord
340
0
  0
XRECORD
  5
96
102
{ACAD_REACTORS
330
81
102
}
330
81
100
AcDbXrecord
 10
0.0
 20
0.0
 30
0.0
  0
XRECORD
  5
92
102
{ACAD_REACTORS
330
81
102
}
330
81
100
AcDbXrecord
 10
0.0
 20
0.0
 30
0.0
  0
XRECORD
  5
95
102
{ACAD_REACTORS
330
81
102
}
330
81
100
AcDbXrecord
 10
0.0
 20
0.0
 30
0.0
  0
XRECORD
  5
93
102
{ACAD_REACTORS
330
81
102
}
330
81
100
AcDbXrecord
 10
0.0
 20
0.0
 30
0.0
  0
XRECORD
  5
94
102
{ACAD_REACTORS
330
81
102
}
330
81
100
AcDbXrecord
 10
0.0
 20
0.0
 30
0.0
  0
XRECORD
  5
91
102
{ACAD_REACTORS
330
81
102
}
330
81
100
AcDbXrecord
 10
0.0
 20
0.0
 30
0.0
  0
XRECORD
  5
8E
102
{ACAD_REACTORS
330
81
102
}
330
81
100
AcDbXrecord
340
0
  0
XRECORD
  5
8F
102
{ACAD_REACTORS
330
81
102
}
330
81
100
AcDbXrecord
 70
     0
  0
XRECORD
  5
85
102
{ACAD_REACTORS
330
81
102
}
330
81
100
AcDbXrecord
  1

  0
XRECORD
  5
82
102
{ACAD_REACTORS
330
81
102
}
330
81
100
AcDbXrecord
 90
        1
  0
XRECORD
  5
83
102
{ACAD_REACTORS
330
81
102
}
330
81
100
AcDbXrecord
 90
       70
  0
XRECORD
  5
99
102
{ACAD_REACTORS
330
81
102
}
330
81
100
AcDbXrecord
340
0
  0
XRECORD
  5
9F
102
{ACAD_REACTORS
330
81
102
}
330
81
100
AcDbXrecord
 10
0.0
 20
0.0
 30
0.0
  0
XRECORD
  5
9B
102
{ACAD_REACTORS
330
81
102
}
330
81
100
AcDbXrecord
 10
0.0
 20
0.0
 30
0.0
  0
XRECORD
  5
9E
102
{ACAD_REACTORS
330
81
102
}
330
81
100
AcDbXrecord
 10
0.0
 20
0.0
 30
0.0
  0
XRECORD
  5
9C
102
{ACAD_REACTORS
330
81
102
}
330
81
100
AcDbXrecord
 10
0.0
 20
0.0
 30
0.0
  0
XRECORD
  5
9D
102
{ACAD_REACTORS
330
81
102
}
330
81
100
AcDbXrecord
 10
0.0
 20
0.0
 30
0.0
  0
XRECORD
  5
9A
102
{ACAD_REACTORS
330
81
102
}
330
81
100
AcDbXrecord
 10
0.0
 20
0.0
 30
0.0
  0
XRECORD
  5
97
102
{ACAD_REACTORS
330
81
102
}
330
81
100
AcDbXrecord
340
0
  0
XRECORD
  5
98
102
{ACAD_REACTORS
330
81
102
}
330
81
100
AcDbXrecord
 70
     0
  0
XRECORD
  5
8C
102
{ACAD_REACTORS
330
81
102
}
330
81
100
AcDbXrecord
  1
{FAEB1C32-E019-11D5-929B-00C0DF256EC4}
  0
ENDSEC
  0
EOF
