  0
SECTION
  2
HEADER
  9
$ACADVER
  1
AC1018
  9
$ACADMAINTVER
 70
     0
  9
$DWGCODEPAGE
  3
ANSI_1252
  9
$INSBASE
 10
0.0
 20
0.0
 30
0.0
  9
$EXTMIN
 10
-2.281503937007874
 20
-0.0705275590551181
 30
0.0
  9
$EXTMAX
 10
2.41988188976378
 20
1.282586614173228
 30
0.0
  9
$LIMMIN
 10
0.0
 20
0.0
  9
$LIMMAX
 10
12.0
 20
9.0
  9
$ORTHOMODE
 70
     0
  9
$REGENMODE
 70
     1
  9
$FILLMODE
 70
     1
  9
$QTEXTMODE
 70
     0
  9
$MIRRTEXT
 70
     1
  9
$LTSCALE
 40
1.0
  9
$ATTMODE
 70
     1
  9
$TEXTSIZE
 40
0.2
  9
$TRACEWID
 40
0.05
  9
$TEXTSTYLE
  7
Standard
  9
$CLAYER
  8
0
  9
$CELTYPE
  6
ByLayer
  9
$CECOLOR
 62
   256
  9
$CELTSCALE
 40
1.0
  9
$DISPSILH
 70
     0
  9
$DIMSCALE
 40
1.0
  9
$DIMASZ
 40
0.18
  9
$DIMEXO
 40
0.0625
  9
$DIMDLI
 40
0.38
  9
$DIMRND
 40
0.0
  9
$DIMDLE
 40
0.0
  9
$DIMEXE
 40
0.18
  9
$DIMTP
 40
0.0
  9
$DIMTM
 40
0.0
  9
$DIMTXT
 40
0.18
  9
$DIMCEN
 40
0.09
  9
$DIMTSZ
 40
0.0
  9
$DIMTOL
 70
     0
  9
$DIMLIM
 70
     0
  9
$DIMTIH
 70
     1
  9
$DIMTOH
 70
     1
  9
$DIMSE1
 70
     0
  9
$DIMSE2
 70
     0
  9
$DIMTAD
 70
     0
  9
$DIMZIN
 70
     0
  9
$DIMBLK
  1

  9
$DIMASO
 70
     1
  9
$DIMSHO
 70
     1
  9
$DIMPOST
  1

  9
$DIMAPOST
  1

  9
$DIMALT
 70
     0
  9
$DIMALTD
 70
     2
  9
$DIMALTF
 40
25.4
  9
$DIMLFAC
 40
1.0
  9
$DIMTOFL
 70
     0
  9
$DIMTVP
 40
0.0
  9
$DIMTIX
 70
     0
  9
$DIMSOXD
 70
     0
  9
$DIMSAH
 70
     0
  9
$DIMBLK1
  1

  9
$DIMBLK2
  1

  9
$DIMSTYLE
  2
Standard
  9
$DIMCLRD
 70
     0
  9
$DIMCLRE
 70
     0
  9
$DIMCLRT
 70
     0
  9
$DIMTFAC
 40
1.0
  9
$DIMGAP
 40
0.09
  9
$DIMJUST
 70
     0
  9
$DIMSD1
 70
     0
  9
$DIMSD2
 70
     0
  9
$DIMTOLJ
 70
     1
  9
$DIMTZIN
 70
     0
  9
$DIMALTZ
 70
     0
  9
$DIMALTTZ
 70
     0
  9
$DIMUPT
 70
     0
  9
$DIMDEC
 70
     4
  9
$DIMTDEC
 70
     4
  9
$DIMALTU
 70
     2
  9
$DIMALTTD
 70
     2
  9
$DIMTXSTY
  7
Standard
  9
$DIMAUNIT
 70
     0
  9
$DIMADEC
 70
     0
  9
$DIMALTRND
 40
0.0
  9
$DIMAZIN
 70
     0
  9
$DIMDSEP
 70
    46
  9
$DIMATFIT
 70
     3
  9
$DIMFRAC
 70
     0
  9
$DIMLDRBLK
  1

  9
$DIMLUNIT
 70
     2
  9
$DIMLWD
 70
    -2
  9
$DIMLWE
 70
    -2
  9
$DIMTMOVE
 70
     0
  9
$LUNITS
 70
     2
  9
$LUPREC
 70
     4
  9
$SKETCHINC
 40
0.1
  9
$FILLETRAD
 40
0.5
  9
$AUNITS
 70
     0
  9
$AUPREC
 70
     0
  9
$MENU
  1
.
  9
$ELEVATION
 40
0.0
  9
$PELEVATION
 40
0.0
  9
$THICKNESS
 40
0.0
  9
$LIMCHECK
 70
     0
  9
$CHAMFERA
 40
0.5
  9
$CHAMFERB
 40
0.5
  9
$CHAMFERC
 40
1.0
  9
$CHAMFERD
 40
0.0
  9
$SKPOLY
 70
     0
  9
$TDCREATE
 40
2453769.647082789
  9
$TDUCREATE
 40
2453769.855416123
  9
$TDUPDATE
 40
2453769.647082801
  9
$TDUUPDATE
 40
2453769.855416135
  9
$TDINDWG
 40
0.0000000116
  9
$TDUSRTIMER
 40
0.0000000116
  9
$USRTIMER
 70
     1
  9
$ANGBASE
 50
0.0
  9
$ANGDIR
 70
     0
  9
$PDMODE
 70
     0
  9
$PDSIZE
 40
0.0
  9
$PLINEWID
 40
0.0
  9
$SPLFRAME
 70
     0
  9
$SPLINETYPE
 70
     6
  9
$SPLINESEGS
 70
     8
  9
$HANDSEED
  5
5E
  9
$SURFTAB1
 70
     6
  9
$SURFTAB2
 70
     6
  9
$SURFTYPE
 70
     6
  9
$SURFU
 70
     6
  9
$SURFV
 70
     6
  9
$UCSBASE
  2

  9
$UCSNAME
  2

  9
$UCSORG
 10
0.0
 20
0.0
 30
0.0
  9
$UCSXDIR
 10
1.0
 20
0.0
 30
0.0
  9
$UCSYDIR
 10
0.0
 20
1.0
 30
0.0
  9
$UCSORTHOREF
  2

  9
$UCSORTHOVIEW
 70
     0
  9
$UCSORGTOP
 10
0.0
 20
0.0
 30
0.0
  9
$UCSORGBOTTOM
 10
0.0
 20
0.0
 30
0.0
  9
$UCSORGLEFT
 10
0.0
 20
0.0
 30
0.0
  9
$UCSORGRIGHT
 10
0.0
 20
0.0
 30
0.0
  9
$UCSORGFRONT
 10
0.0
 20
0.0
 30
0.0
  9
$UCSORGBACK
 10
0.0
 20
0.0
 30
0.0
  9
$PUCSBASE
  2

  9
$PUCSNAME
  2

  9
$PUCSORG
 10
0.0
 20
0.0
 30
0.0
  9
$PUCSXDIR
 10
1.0
 20
0.0
 30
0.0
  9
$PUCSYDIR
 10
0.0
 20
1.0
 30
0.0
  9
$PUCSORTHOREF
  2

  9
$PUCSORTHOVIEW
 70
     0
  9
$PUCSORGTOP
 10
0.0
 20
0.0
 30
0.0
  9
$PUCSORGBOTTOM
 10
0.0
 20
0.0
 30
0.0
  9
$PUCSORGLEFT
 10
0.0
 20
0.0
 30
0.0
  9
$PUCSORGRIGHT
 10
0.0
 20
0.0
 30
0.0
  9
$PUCSORGFRONT
 10
0.0
 20
0.0
 30
0.0
  9
$PUCSORGBACK
 10
0.0
 20
0.0
 30
0.0
  9
$USERI1
 70
     0
  9
$USERI2
 70
     0
  9
$USERI3
 70
     0
  9
$USERI4
 70
     0
  9
$USERI5
 70
     0
  9
$USERR1
 40
0.0
  9
$USERR2
 40
0.0
  9
$USERR3
 40
0.0
  9
$USERR4
 40
0.0
  9
$USERR5
 40
0.0
  9
$WORLDVIEW
 70
     1
  9
$SHADEDGE
 70
     3
  9
$SHADEDIF
 70
    70
  9
$TILEMODE
 70
     1
  9
$MAXACTVP
 70
    64
  9
$PINSBASE
 10
0.0
 20
0.0
 30
0.0
  9
$PLIMCHECK
 70
     0
  9
$PEXTMIN
 10
1.000000000000000E+20
 20
1.000000000000000E+20
 30
1.000000000000000E+20
  9
$PEXTMAX
 10
-1.000000000000000E+20
 20
-1.000000000000000E+20
 30
-1.000000000000000E+20
  9
$PLIMMIN
 10
0.0
 20
0.0
  9
$PLIMMAX
 10
12.0
 20
9.0
  9
$UNITMODE
 70
     0
  9
$VISRETAIN
 70
     1
  9
$PLINEGEN
 70
     0
  9
$PSLTSCALE
 70
     1
  9
$TREEDEPTH
 70
  3020
  9
$CMLSTYLE
  2
Standard
  9
$CMLJUST
 70
     0
  9
$CMLSCALE
 40
1.0
  9
$PROXYGRAPHICS
 70
     1
  9
$MEASUREMENT
 70
     0
  9
$CELWEIGHT
370
    -1
  9
$ENDCAPS
280
     0
  9
$JOINSTYLE
280
     0
  9
$LWDISPLAY
290
     0
  9
$INSUNITS
 70
     1
  9
$HYPERLINKBASE
  1

  9
$STYLESHEET
  1

  9
$XEDIT
290
     1
  9
$CEPSNTYPE
380
     0
  9
$PSTYLEMODE
290
     0
  9
$FINGERPRINTGUID
  2
{FAEB1C30-E019-11D5-929B-00C0DF256EC4}
  9
$VERSIONGUID
  2
{FAEB1C32-E019-11D5-929B-00C0DF256EC4}
  9
$EXTNAMES
290
     1
  9
$PSVPSCALE
 40
0.0
  9
$OLESTARTUP
290
     0
  9
$SORTENTS
280
   127
  9
$INDEXCTL
280
     0
  9
$HIDETEXT
280
     1
  9
$XCLIPFRAME
290
     0
  9
$HALOGAP
280
     0
  9
$OBSCOLOR
 70
   257
  9
$OBSLTYPE
280
     0
  9
$INTERSECTIONDISPLAY
280
     0
  9
$INTERSECTIONCOLOR
 70
   257
  9
$DIMASSOC
280
     2
  9
$PROJECTNAME
  1

  0
ENDSEC
  0
SECTION
  2
CLASSES
  0
CLASS
  1
ACDBDICTIONARYWDFLT
  2
AcDbDictionaryWithDefault
  3
ObjectDBX Classes
 90
        0
 91
        1
280
     0
281
     0
  0
ENDSEC
  0
SECTION
  2
TABLES
  0
TABLE
  2
VPORT
  5
8
330
0
100
AcDbSymbolTable
 70
     2
  0
VPORT
  5
29
330
8
100
AcDbSymbolTableRecord
100
AcDbViewportTableRecord
  2
*Active
 70
     0
 10
0.0
 20
0.0
 11
1.0
 21
1.0
 12
10.42990654205607
 22
4.5
 13
0.0
 23
0.0
 14
0.5
 24
0.5
 15
0.5
 25
0.5
 16
0.0
 26
0.0
 36
1.0
 17
0.0
 27
0.0
 37
0.0
 40
9.0
 41
1.972972972850329
 42
50.0
 43
0.0
 44
0.0
 50
0.0
 51
0.0
 71
     0
 72
   100
 73
     1
 74
     3
 75
     0
 76
     0
 77
     0
 78
     0
281
     0
 65
     1
110
0.0
120
0.0
130
0.0
111
1.0
121
0.0
131
0.0
112
0.0
122
1.0
132
0.0
 79
     0
146
0.0
  0
ENDTAB
  0
TABLE
  2
LTYPE
  5
5
330
0
100
AcDbSymbolTable
 70
     1
  0
LTYPE
  5
14
330
5
100
AcDbSymbolTableRecord
100
AcDbLinetypeTableRecord
  2
ByBlock
 70
     0
  3

 72
    65
 73
     0
 40
0.0
  0
LTYPE
  5
15
330
5
100
AcDbSymbolTableRecord
100
AcDbLinetypeTableRecord
  2
ByLayer
 70
     0
  3

 72
    65
 73
     0
 40
0.0
  0
LTYPE
  5
16
330
5
100
AcDbSymbolTableRecord
100
AcDbLinetypeTableRecord
  2
Continuous
 70
     0
  3
Solid line
 72
    65
 73
     0
 40
0.0
  0
ENDTAB
  0
TABLE
  2
LAYER
  5
2
330
0
100
AcDbSymbolTable
 70
     2
  0
LAYER
  5
10
330
2
100
AcDbSymbolTableRecord
100
AcDbLayerTableRecord
  2
0
 70
     0
 62
     7
  6
Continuous
370
    -3
390
F
  0
LAYER
  5
2B
330
2
100
AcDbSymbolTableRecord
100
AcDbLayerTableRecord
  2
P1-Layer 1
 70
     0
 62
     7
  6
Continuous
370
    -3
390
F
  0
ENDTAB
  0
TABLE
  2
STYLE
  5
3
330
0
100
AcDbSymbolTable
 70
     1
  0
STYLE
  5
11
330
3
100
AcDbSymbolTableRecord
100
AcDbTextStyleTableRecord
  2
Standard
 70
     0
 40
0.0
 41
1.0
 50
0.0
 71
     0
 42
0.2
  3
txt
  4

  0
ENDTAB
  0
TABLE
  2
VIEW
  5
6
330
0
100
AcDbSymbolTable
 70
     0
  0
ENDTAB
  0
TABLE
  2
UCS
  5
7
330
0
100
AcDbSymbolTable
 70
     0
  0
ENDTAB
  0
TABLE
  2
APPID
  5
9
330
0
100
AcDbSymbolTable
 70
     2
  0
APPID
  5
12
330
9
100
AcDbSymbolTableRecord
100
AcDbRegAppTableRecord
  2
ACAD
 70
     0
  0
APPID
  5
2A
330
9
100
AcDbSymbolTableRecord
100
AcDbRegAppTableRecord
  2
ODA
 70
     0
  0
ENDTAB
  0
TABLE
  2
DIMSTYLE
  5
A
330
0
100
AcDbSymbolTable
 70
     1
100
AcDbDimStyleTable
  0
DIMSTYLE
105
27
330
A
100
AcDbSymbolTableRecord
100
AcDbDimStyleTableRecord
  2
Standard
 70
     0
340
11
  0
ENDTAB
  0
TABLE
  2
BLOCK_RECORD
  5
1
330
0
100
AcDbSymbolTable
 70
     1
  0
BLOCK_RECORD
  5
1F
330
1
100
AcDbSymbolTableRecord
100
AcDbBlockTableRecord
  2
*Model_Space
340
22
  0
BLOCK_RECORD
  5
1B
330
1
100
AcDbSymbolTableRecord
100
AcDbBlockTableRecord
  2
*Paper_Space
340
1E
  0
BLOCK_RECORD
  5
23
330
1
100
AcDbSymbolTableRecord
100
AcDbBlockTableRecord
  2
*Paper_Space0
340
26
  0
ENDTAB
  0
ENDSEC
  0
SECTION
  2
BLOCKS
  0
BLOCK
  5
20
330
1F
100
AcDbEntity
  8
0
100
AcDbBlockBegin
  2
*Model_Space
 70
     0
 71
     0
 10
0.0
 20
0.0
 30
0.0
  3
*Model_Space
  1

  0
ENDBLK
  5
21
330
1F
100
AcDbEntity
  8
0
100
AcDbBlockEnd
  0
BLOCK
  5
1C
330
1B
100
AcDbEntity
 67
     1
  8
0
100
AcDbBlockBegin
  2
*Paper_Space
 70
     0
 71
     0
 10
0.0
 20
0.0
 30
0.0
  3
*Paper_Space
  1

  0
ENDBLK
  5
1D
330
1B
100
AcDbEntity
 67
     1
  8
0
100
AcDbBlockEnd
  0
BLOCK
  5
24
330
23
100
AcDbEntity
  8
0
100
AcDbBlockBegin
  2
*Paper_Space0
 70
     0
 71
     0
 10
0.0
 20
0.0
 30
0.0
  3
*Paper_Space0
  1

  0
ENDBLK
  5
25
330
23
100
AcDbEntity
  8
0
100
AcDbBlockEnd
  0
ENDSEC
  0
SECTION
  2
ENTITIES
  0
SPLINE
  5
2C
330
1F
100
AcDbEntity
  8
P1-Layer 1
 62
   250
370
    40
100
AcDbSpline
210
0.0
220
0.0
230
1.0
 70
    11
 71
     3
 72
    64
 73
    60
 74
     0
 42
0.0000000001
 43
0.0000000001
 40
0.0
 40
0.0
 40
0.0
 40
0.0
 40
0.0666666666666667
 40
0.0666666666666667
 40
0.0666666666666667
 40
0.0666666666666667
 40
0.1333333333333333
 40
0.1333333333333333
 40
0.1333333333333333
 40
0.1333333333333333
 40
0.2
 40
0.2
 40
0.2
 40
0.2
 40
0.2666666666666667
 40
0.2666666666666667
 40
0.2666666666666667
 40
0.2666666666666667
 40
0.3333333333333333
 40
0.3333333333333333
 40
0.3333333333333333
 40
0.3333333333333333
 40
0.4
 40
0.4
 40
0.4
 40
0.4
 40
0.4666666666666666
 40
0.4666666666666666
 40
0.4666666666666666
 40
0.4666666666666666
 40
0.5333333333333333
 40
0.5333333333333333
 40
0.5333333333333333
 40
0.5333333333333333
 40
0.6
 40
0.6
 40
0.6
 40
0.6
 40
0.6666666666666666
 40
0.6666666666666666
 40
0.6666666666666666
 40
0.6666666666666666
 40
0.7333333333333333
 40
0.7333333333333333
 40
0.7333333333333333
 40
0.7333333333333333
 40
0.7999999999999999
 40
0.7999999999999999
 40
0.7999999999999999
 40
0.7999999999999999
 40
0.8666666666666666
 40
0.8666666666666666
 40
0.8666666666666666
 40
0.8666666666666666
 40
0.9333333333333332
 40
0.9333333333333332
 40
0.9333333333333332
 40
0.9333333333333332
 40
1.0
 40
1.0
 40
1.0
 40
1.0
 10
-2.274559055118111
 20
0.4006417322834646
 30
0.0
 10
-2.274559055118111
 20
0.4006417322834646
 30
0.0
 10
2.412937007874016
 20
0.4006417322834646
 30
0.0
 10
2.412937007874016
 20
0.4006417322834646
 30
0.0
 10
2.412937007874016
 20
0.4006417322834646
 30
0.0
 10
2.412937007874016
 20
0.4006417322834646
 30
0.0
 10
2.412937007874016
 20
1.275641732283465
 30
0.0
 10
2.412937007874016
 20
1.275641732283465
 30
0.0
 10
2.412937007874016
 20
1.275641732283465
 30
0.0
 10
2.412937007874016
 20
1.275641732283465
 30
0.0
 10
1.637165354330709
 20
1.275641732283465
 30
0.0
 10
1.637165354330709
 20
1.275641732283465
 30
0.0
 10
1.637165354330709
 20
1.275641732283465
 30
0.0
 10
1.637165354330709
 20
1.275641732283465
 30
0.0
 10
1.608
 20
1.156196850393701
 30
0.0
 10
1.608
 20
1.156196850393701
 30
0.0
 10
1.608
 20
1.156196850393701
 30
0.0
 10
1.608
 20
1.156196850393701
 30
0.0
 10
1.590637795275591
 20
1.156196850393701
 30
0.0
 10
1.590637795275591
 20
1.156196850393701
 30
0.0
 10
1.590637795275591
 20
1.156196850393701
 30
0.0
 10
1.301889763779528
 20
1.498322834645669
 30
0.0
 10
1.30238188976378
 20
0.6019251968503937
 30
0.0
 10
0.8003622047244094
 20
1.066614173228347
 30
0.0
 10
0.8003622047244094
 20
1.066614173228347
 30
0.0
 10
0.8003622047244094
 20
1.066614173228347
 30
0.0
 10
0.6975826771653544
 20
0.9770314960629921
 30
0.0
 10
0.6975826771653544
 20
0.9770314960629921
 30
0.0
 10
0.6975826771653544
 20
0.9770314960629921
 30
0.0
 10
0.4993858267716536
 20
1.153807086614173
 30
0.0
 10
0.3064330708661417
 20
1.221468503937008
 30
0.0
 10
0.0691889763779528
 20
1.22236220472441
 30
0.0
 10
0.0691889763779528
 20
1.22236220472441
 30
0.0
 10
-0.1680551181102362
 20
1.221468503937008
 30
0.0
 10
-0.361007874015748
 20
1.153807086614173
 30
0.0
 10
-0.5592047244094488
 20
0.9770314960629921
 30
0.0
 10
-0.5592047244094488
 20
0.9770314960629921
 30
0.0
 10
-0.5592047244094488
 20
0.9770314960629921
 30
0.0
 10
-0.661984251968504
 20
1.066614173228347
 30
0.0
 10
-0.661984251968504
 20
1.066614173228347
 30
0.0
 10
-0.661984251968504
 20
1.066614173228347
 30
0.0
 10
-1.164003937007874
 20
0.6019251968503937
 30
0.0
 10
-1.163511811023622
 20
1.498322834645669
 30
0.0
 10
-1.452259842519685
 20
1.156196850393701
 30
0.0
 10
-1.452259842519685
 20
1.156196850393701
 30
0.0
 10
-1.452259842519685
 20
1.156196850393701
 30
0.0
 10
-1.469622047244095
 20
1.156196850393701
 30
0.0
 10
-1.469622047244095
 20
1.156196850393701
 30
0.0
 10
-1.469622047244095
 20
1.156196850393701
 30
0.0
 10
-1.469622047244095
 20
1.156196850393701
 30
0.0
 10
-1.498787401574803
 20
1.275641732283465
 30
0.0
 10
-1.498787401574803
 20
1.275641732283465
 30
0.0
 10
-1.498787401574803
 20
1.275641732283465
 30
0.0
 10
-1.498787401574803
 20
1.275641732283465
 30
0.0
 10
-2.274559055118111
 20
1.275641732283465
 30
0.0
 10
-2.274559055118111
 20
1.275641732283465
 30
0.0
 10
-2.274559055118111
 20
1.275641732283465
 30
0.0
 10
-2.274559055118111
 20
1.275641732283465
 30
0.0
 10
-2.274559055118111
 20
0.4006417322834646
 30
0.0
 10
-2.274559055118111
 20
0.4006417322834646
 30
0.0
  0
SPLINE
  5
2D
330
1F
100
AcDbEntity
  8
P1-Layer 1
 62
   250
100
AcDbSpline
210
0.0
220
0.0
230
1.0
 70
    11
 71
     3
 72
   104
 73
   100
 74
     0
 42
0.0000000001
 43
0.0000000001
 40
0.0
 40
0.0
 40
0.0
 40
0.0
 40
0.04
 40
0.04
 40
0.04
 40
0.04
 40
0.08
 40
0.08
 40
0.08
 40
0.08
 40
0.12
 40
0.12
 40
0.12
 40
0.12
 40
0.16
 40
0.16
 40
0.16
 40
0.16
 40
0.2
 40
0.2
 40
0.2
 40
0.2
 40
0.24
 40
0.24
 40
0.24
 40
0.24
 40
0.28
 40
0.28
 40
0.28
 40
0.28
 40
0.32
 40
0.32
 40
0.32
 40
0.32
 40
0.36
 40
0.36
 40
0.36
 40
0.36
 40
0.4
 40
0.4
 40
0.4
 40
0.4
 40
0.44
 40
0.44
 40
0.44
 40
0.44
 40
0.4799999999999999
 40
0.4799999999999999
 40
0.4799999999999999
 40
0.4799999999999999
 40
0.5199999999999999
 40
0.5199999999999999
 40
0.5199999999999999
 40
0.5199999999999999
 40
0.5599999999999999
 40
0.5599999999999999
 40
0.5599999999999999
 40
0.5599999999999999
 40
0.6
 40
0.6
 40
0.6
 40
0.6
 40
0.64
 40
0.64
 40
0.64
 40
0.64
 40
0.6800000000000001
 40
0.6800000000000001
 40
0.6800000000000001
 40
0.6800000000000001
 40
0.7200000000000001
 40
0.7200000000000001
 40
0.7200000000000001
 40
0.7200000000000001
 40
0.7600000000000001
 40
0.7600000000000001
 40
0.7600000000000001
 40
0.7600000000000001
 40
0.8000000000000002
 40
0.8000000000000002
 40
0.8000000000000002
 40
0.8000000000000002
 40
0.8400000000000002
 40
0.8400000000000002
 40
0.8400000000000002
 40
0.8400000000000002
 40
0.8800000000000002
 40
0.8800000000000002
 40
0.8800000000000002
 40
0.8800000000000002
 40
0.9200000000000003
 40
0.9200000000000003
 40
0.9200000000000003
 40
0.9200000000000003
 40
0.9600000000000003
 40
0.9600000000000003
 40
0.9600000000000003
 40
0.9600000000000003
 40
1.0
 40
1.0
 40
1.0
 40
1.0
 10
-0.3709566929133858
 20
0.2668070866141732
 30
0.0
 10
-0.3709566929133858
 20
0.2668070866141732
 30
0.0
 10
-0.3169842519685039
 20
0.2668070866141732
 30
0.0
 10
-0.3169842519685039
 20
0.2668070866141732
 30
0.0
 10
-0.3169842519685039
 20
0.2668070866141732
 30
0.0
 10
-0.3038149606299213
 20
0.2668070866141732
 30
0.0
 10
-0.2947874015748032
 20
0.2661968503937008
 30
0.0
 10
-0.2899015748031496
 20
0.265
 30
0.0
 10
-0.2899015748031496
 20
0.265
 30
0.0
 10
-0.2826771653543307
 20
0.2632795275590552
 30
0.0
 10
-0.276984251968504
 20
0.2601417322834646
 30
0.0
 10
-0.2727598425196851
 20
0.2555826771653543
 30
0.0
 10
-0.2727598425196851
 20
0.2555826771653543
 30
0.0
 10
-0.2685669291338583
 20
0.2510275590551181
 30
0.0
 10
-0.2664566929133859
 20
0.2455275590551181
 30
0.0
 10
-0.2664566929133859
 20
0.2391417322834646
 30
0.0
 10
-0.2664566929133859
 20
0.2391417322834646
 30
0.0
 10
-0.2664566929133859
 20
0.2345275590551181
 30
0.0
 10
-0.2675669291338583
 20
0.2303897637795276
 30
0.0
 10
-0.2697874015748032
 20
0.2267244094488189
 30
0.0
 10
-0.2697874015748032
 20
0.2267244094488189
 30
0.0
 10
-0.272011811023622
 20
0.2230551181102362
 30
0.0
 10
-0.2752598425196851
 20
0.2199173228346457
 30
0.0
 10
-0.279484251968504
 20
0.2173346456692913
 30
0.0
 10
-0.279484251968504
 20
0.2173346456692913
 30
0.0
 10
-0.2822047244094488
 20
0.2156417322834646
 30
0.0
 10
-0.2858740157480315
 20
0.2141968503937008
 30
0.0
 10
-0.2905393700787401
 20
0.213
 30
0.0
 10
-0.2905393700787401
 20
0.213
 30
0.0
 10
-0.2846220472440945
 20
0.2119173228346457
 30
0.0
 10
-0.2801220472440945
 20
0.2106141732283465
 30
0.0
 10
-0.2770393700787402
 20
0.2091141732283465
 30
0.0
 10
-0.2770393700787402
 20
0.2091141732283465
 30
0.0
 10
-0.2723740157480315
 20
0.2068346456692914
 30
0.0
 10
-0.2686771653543307
 20
0.2035866141732284
 30
0.0
 10
-0.265984251968504
 20
0.1993346456692914
 30
0.0
 10
-0.265984251968504
 20
0.1993346456692914
 30
0.0
 10
-0.263259842519685
 20
0.1951141732283465
 30
0.0
 10
-0.2619015748031496
 20
0.1903346456692913
 30
0.0
 10
-0.2619015748031496
 20
0.1850275590551181
 30
0.0
 10
-0.2619015748031496
 20
0.1850275590551181
 30
0.0
 10
-0.2619015748031496
 20
0.1798622047244095
 30
0.0
 10
-0.263232283464567
 20
0.1750866141732284
 30
0.0
 10
-0.2659015748031496
 20
0.1706968503937008
 30
0.0
 10
-0.2659015748031496
 20
0.1706968503937008
 30
0.0
 10
-0.2685393700787402
 20
0.1663070866141732
 30
0.0
 10
-0.2723149606299213
 20
0.1626968503937008
 30
0.0
 10
-0.2771496062992126
 20
0.1598622047244095
 30
0.0
 10
-0.2771496062992126
 20
0.1598622047244095
 30
0.0
 10
-0.2820118110236221
 20
0.1570590551181103
 30
0.0
 10
-0.2876771653543307
 20
0.155251968503937
 30
0.0
 10
-0.2941220472440945
 20
0.1544448818897638
 30
0.0
 10
-0.2941220472440945
 20
0.1544448818897638
 30
0.0
 10
-0.3005944881889764
 20
0.1536692913385827
 30
0.0
 10
-0.3072322834645669
 20
0.1532795275590551
 30
0.0
 10
-0.3140669291338583
 20
0.1532795275590551
 30
0.0
 10
-0.3140669291338583
 20
0.1532795275590551
 30
0.0
 10
-0.3140669291338583
 20
0.1532795275590551
 30
0.0
 10
-0.3709566929133858
 20
0.1532795275590551
 30
0.0
 10
-0.3709566929133858
 20
0.1532795275590551
 30
0.0
 10
-0.3709566929133858
 20
0.1532795275590551
 30
0.0
 10
-0.3709566929133858
 20
0.1532795275590551
 30
0.0
 10
-0.3709566929133858
 20
0.1601141732283465
 30
0.0
 10
-0.3709566929133858
 20
0.1601141732283465
 30
0.0
 10
-0.3709566929133858
 20
0.1601141732283465
 30
0.0
 10
-0.3709566929133858
 20
0.1601141732283465
 30
0.0
 10
-0.3671220472440945
 20
0.1601141732283465
 30
0.0
 10
-0.3671220472440945
 20
0.1601141732283465
 30
0.0
 10
-0.3671220472440945
 20
0.1601141732283465
 30
0.0
 10
-0.3634251968503937
 20
0.1601141732283465
 30
0.0
 10
-0.3609251968503937
 20
0.1606968503937008
 30
0.0
 10
-0.3595669291338583
 20
0.1618346456692913
 30
0.0
 10
-0.3595669291338583
 20
0.1618346456692913
 30
0.0
 10
-0.3575944881889764
 20
0.1633897637795276
 30
0.0
 10
-0.3566220472440945
 20
0.166
 30
0.0
 10
-0.3566220472440945
 20
0.1696417322834646
 30
0.0
 10
-0.3566220472440945
 20
0.1696417322834646
 30
0.0
 10
-0.3566220472440945
 20
0.1696417322834646
 30
0.0
 10
-0.3566220472440945
 20
0.2485
 30
0.0
 10
-0.3566220472440945
 20
0.2485
 30
0.0
 10
-0.3566220472440945
 20
0.2485
 30
0.0
 10
-0.3566220472440945
 20
0.2521968503937008
 30
0.0
 10
-0.3569251968503937
 20
0.2546968503937008
 30
0.0
 10
-0.3575118110236221
 20
0.2560551181102362
 30
0.0
 10
-0.3575118110236221
 20
0.2560551181102362
 30
0.0
 10
-0.3581220472440945
 20
0.2574173228346457
 30
0.0
 10
-0.3590118110236221
 20
0.2583897637795276
 30
0.0
 10
-0.3602047244094488
 20
0.259
 30
0.0
 10
-0.3602047244094488
 20
0.259
 30
0.0
 10
-0.3613976377952756
 20
0.2595826771653543
 30
0.0
 10
-0.3637047244094488
 20
0.2598897637795276
 30
0.0
 10
-0.3671220472440945
 20
0.2598897637795276
 30
0.0
 10
-0.3671220472440945
 20
0.2598897637795276
 30
0.0
 10
-0.3671220472440945
 20
0.2598897637795276
 30
0.0
 10
-0.3709566929133858
 20
0.2598897637795276
 30
0.0
 10
-0.3709566929133858
 20
0.2598897637795276
 30
0.0
 10
-0.3709566929133858
 20
0.2598897637795276
 30
0.0
 10
-0.3709566929133858
 20
0.2598897637795276
 30
0.0
 10
-0.3709566929133858
 20
0.2668070866141732
 30
0.0
 10
-0.3709566929133858
 20
0.2668070866141732
 30
0.0
  0
SPLINE
  5
2E
330
1F
100
AcDbEntity
  8
P1-Layer 1
 62
   250
100
AcDbSpline
210
0.0
220
0.0
230
1.0
 70
    11
 71
     3
 72
    40
 73
    36
 74
     0
 42
0.0000000001
 43
0.0000000001
 40
0.0
 40
0.0
 40
0.0
 40
0.0
 40
0.1111111111111111
 40
0.1111111111111111
 40
0.1111111111111111
 40
0.1111111111111111
 40
0.2222222222222222
 40
0.2222222222222222
 40
0.2222222222222222
 40
0.2222222222222222
 40
0.3333333333333333
 40
0.3333333333333333
 40
0.3333333333333333
 40
0.3333333333333333
 40
0.4444444444444444
 40
0.4444444444444444
 40
0.4444444444444444
 40
0.4444444444444444
 40
0.5555555555555556
 40
0.5555555555555556
 40
0.5555555555555556
 40
0.5555555555555556
 40
0.6666666666666667
 40
0.6666666666666667
 40
0.6666666666666667
 40
0.6666666666666667
 40
0.7777777777777779
 40
0.7777777777777779
 40
0.7777777777777779
 40
0.7777777777777779
 40
0.8888888888888891
 40
0.8888888888888891
 40
0.8888888888888891
 40
0.8888888888888891
 40
1.0
 40
1.0
 40
1.0
 40
1.0
 10
-0.3413976377952756
 20
0.2577795275590551
 30
0.0
 10
-0.3413976377952756
 20
0.2577795275590551
 30
0.0
 10
-0.3413976377952756
 20
0.2161968503937008
 30
0.0
 10
-0.3413976377952756
 20
0.2161968503937008
 30
0.0
 10
-0.3413976377952756
 20
0.2161968503937008
 30
0.0
 10
-0.3413976377952756
 20
0.2161968503937008
 30
0.0
 10
-0.3206496062992126
 20
0.2161968503937008
 30
0.0
 10
-0.3206496062992126
 20
0.2161968503937008
 30
0.0
 10
-0.3206496062992126
 20
0.2161968503937008
 30
0.0
 10
-0.3109566929133859
 20
0.2161968503937008
 30
0.0
 10
-0.3042874015748032
 20
0.2166417322834646
 30
0.0
 10
-0.3007322834645669
 20
0.2175551181102362
 30
0.0
 10
-0.3007322834645669
 20
0.2175551181102362
 30
0.0
 10
-0.2951220472440945
 20
0.2190275590551181
 30
0.0
 10
-0.2908740157480315
 20
0.2215275590551181
 30
0.0
 10
-0.2879015748031496
 20
0.2250551181102362
 30
0.0
 10
-0.2879015748031496
 20
0.2250551181102362
 30
0.0
 10
-0.2849566929133858
 20
0.2285826771653544
 30
0.0
 10
-0.2834566929133858
 20
0.2331141732283465
 30
0.0
 10
-0.2834566929133858
 20
0.2386417322834646
 30
0.0
 10
-0.2834566929133858
 20
0.2386417322834646
 30
0.0
 10
-0.2834566929133858
 20
0.2433070866141733
 30
0.0
 10
-0.2848149606299213
 20
0.2471968503937008
 30
0.0
 10
-0.287484251968504
 20
0.2503346456692914
 30
0.0
 10
-0.287484251968504
 20
0.2503346456692914
 30
0.0
 10
-0.2901771653543308
 20
0.2534448818897638
 30
0.0
 10
-0.2937874015748032
 20
0.2555826771653543
 30
0.0
 10
-0.2982874015748032
 20
0.2567244094488189
 30
0.0
 10
-0.2982874015748032
 20
0.2567244094488189
 30
0.0
 10
-0.3012047244094488
 20
0.2574173228346457
 30
0.0
 10
-0.3072874015748032
 20
0.2577795275590551
 30
0.0
 10
-0.3165118110236221
 20
0.2577795275590551
 30
0.0
 10
-0.3165118110236221
 20
0.2577795275590551
 30
0.0
 10
-0.3165118110236221
 20
0.2577795275590551
 30
0.0
 10
-0.3413976377952756
 20
0.2577795275590551
 30
0.0
 10
-0.3413976377952756
 20
0.2577795275590551
 30
0.0
  0
SPLINE
  5
2F
330
1F
100
AcDbEntity
  8
P1-Layer 1
 62
   250
100
AcDbSpline
210
0.0
220
0.0
230
1.0
 70
    11
 71
     3
 72
    52
 73
    48
 74
     0
 42
0.0000000001
 43
0.0000000001
 40
0.0
 40
0.0
 40
0.0
 40
0.0
 40
0.0833333333333333
 40
0.0833333333333333
 40
0.0833333333333333
 40
0.0833333333333333
 40
0.1666666666666667
 40
0.1666666666666667
 40
0.1666666666666667
 40
0.1666666666666667
 40
0.25
 40
0.25
 40
0.25
 40
0.25
 40
0.3333333333333333
 40
0.3333333333333333
 40
0.3333333333333333
 40
0.3333333333333333
 40
0.4166666666666666
 40
0.4166666666666666
 40
0.4166666666666666
 40
0.4166666666666666
 40
0.4999999999999999
 40
0.4999999999999999
 40
0.4999999999999999
 40
0.4999999999999999
 40
0.5833333333333333
 40
0.5833333333333333
 40
0.5833333333333333
 40
0.5833333333333333
 40
0.6666666666666666
 40
0.6666666666666666
 40
0.6666666666666666
 40
0.6666666666666666
 40
0.75
 40
0.75
 40
0.75
 40
0.75
 40
0.8333333333333334
 40
0.8333333333333334
 40
0.8333333333333334
 40
0.8333333333333334
 40
0.9166666666666667
 40
0.9166666666666667
 40
0.9166666666666667
 40
0.9166666666666667
 40
1.0
 40
1.0
 40
1.0
 40
1.0
 10
-0.3413976377952756
 20
0.2083622047244094
 30
0.0
 10
-0.3413976377952756
 20
0.2083622047244094
 30
0.0
 10
-0.3413976377952756
 20
0.1711141732283465
 30
0.0
 10
-0.3413976377952756
 20
0.1711141732283465
 30
0.0
 10
-0.3413976377952756
 20
0.1711141732283465
 30
0.0
 10
-0.3413976377952756
 20
0.1673622047244095
 30
0.0
 10
-0.341232283464567
 20
0.1651417322834646
 30
0.0
 10
-0.3409291338582677
 20
0.1644173228346457
 30
0.0
 10
-0.3409291338582677
 20
0.1644173228346457
 30
0.0
 10
-0.340484251968504
 20
0.1634448818897638
 30
0.0
 10
-0.3396220472440945
 20
0.1627795275590551
 30
0.0
 10
-0.3383149606299213
 20
0.1623897637795276
 30
0.0
 10
-0.3383149606299213
 20
0.1623897637795276
 30
0.0
 10
-0.3373976377952756
 20
0.1621141732283465
 30
0.0
 10
-0.3347874015748032
 20
0.1619724409448819
 30
0.0
 10
-0.330511811023622
 20
0.1619724409448819
 30
0.0
 10
-0.330511811023622
 20
0.1619724409448819
 30
0.0
 10
-0.330511811023622
 20
0.1619724409448819
 30
0.0
 10
-0.3194291338582677
 20
0.1619724409448819
 30
0.0
 10
-0.3194291338582677
 20
0.1619724409448819
 30
0.0
 10
-0.3194291338582677
 20
0.1619724409448819
 30
0.0
 10
-0.3084842519685039
 20
0.1619724409448819
 30
0.0
 10
-0.3006496062992126
 20
0.1625866141732283
 30
0.0
 10
-0.2959566929133858
 20
0.1638070866141732
 30
0.0
 10
-0.2959566929133858
 20
0.1638070866141732
 30
0.0
 10
-0.2912598425196851
 20
0.1650275590551181
 30
0.0
 10
-0.2872598425196851
 20
0.1676141732283465
 30
0.0
 10
-0.2839566929133858
 20
0.1715590551181102
 30
0.0
 10
-0.2839566929133858
 20
0.1715590551181102
 30
0.0
 10
-0.2806496062992126
 20
0.1754724409448819
 30
0.0
 10
-0.278984251968504
 20
0.1802244094488189
 30
0.0
 10
-0.278984251968504
 20
0.185751968503937
 30
0.0
 10
-0.278984251968504
 20
0.185751968503937
 30
0.0
 10
-0.278984251968504
 20
0.1904173228346457
 30
0.0
 10
-0.2803425196850394
 20
0.1945551181102362
 30
0.0
 10
-0.2830118110236221
 20
0.1981692913385827
 30
0.0
 10
-0.2830118110236221
 20
0.1981692913385827
 30
0.0
 10
-0.2857047244094488
 20
0.2017795275590551
 30
0.0
 10
-0.2894291338582677
 20
0.2043622047244095
 30
0.0
 10
-0.2941771653543307
 20
0.2059724409448819
 30
0.0
 10
-0.2941771653543307
 20
0.2059724409448819
 30
0.0
 10
-0.2989291338582678
 20
0.2075866141732284
 30
0.0
 10
-0.3073425196850394
 20
0.2083622047244094
 30
0.0
 10
-0.3194291338582677
 20
0.2083622047244094
 30
0.0
 10
-0.3194291338582677
 20
0.2083622047244094
 30
0.0
 10
-0.3194291338582677
 20
0.2083622047244094
 30
0.0
 10
-0.3413976377952756
 20
0.2083622047244094
 30
0.0
 10
-0.3413976377952756
 20
0.2083622047244094
 30
0.0
  0
SPLINE
  5
30
330
1F
100
AcDbEntity
  8
P1-Layer 1
 62
   250
100
AcDbSpline
210
0.0
220
0.0
230
1.0
 70
    11
 71
     3
 72
   112
 73
   108
 74
     0
 42
0.0000000001
 43
0.0000000001
 40
0.0
 40
0.0
 40
0.0
 40
0.0
 40
0.037037037037037
 40
0.037037037037037
 40
0.037037037037037
 40
0.037037037037037
 40
0.0740740740740741
 40
0.0740740740740741
 40
0.0740740740740741
 40
0.0740740740740741
 40
0.1111111111111111
 40
0.1111111111111111
 40
0.1111111111111111
 40
0.1111111111111111
 40
0.1481481481481481
 40
0.1481481481481481
 40
0.1481481481481481
 40
0.1481481481481481
 40
0.1851851851851852
 40
0.1851851851851852
 40
0.1851851851851852
 40
0.1851851851851852
 40
0.2222222222222222
 40
0.2222222222222222
 40
0.2222222222222222
 40
0.2222222222222222
 40
0.2592592592592592
 40
0.2592592592592592
 40
0.2592592592592592
 40
0.2592592592592592
 40
0.2962962962962963
 40
0.2962962962962963
 40
0.2962962962962963
 40
0.2962962962962963
 40
0.3333333333333333
 40
0.3333333333333333
 40
0.3333333333333333
 40
0.3333333333333333
 40
0.3703703703703704
 40
0.3703703703703704
 40
0.3703703703703704
 40
0.3703703703703704
 40
0.4074074074074074
 40
0.4074074074074074
 40
0.4074074074074074
 40
0.4074074074074074
 40
0.4444444444444444
 40
0.4444444444444444
 40
0.4444444444444444
 40
0.4444444444444444
 40
0.4814814814814815
 40
0.4814814814814815
 40
0.4814814814814815
 40
0.4814814814814815
 40
0.5185185185185185
 40
0.5185185185185185
 40
0.5185185185185185
 40
0.5185185185185185
 40
0.5555555555555556
 40
0.5555555555555556
 40
0.5555555555555556
 40
0.5555555555555556
 40
0.5925925925925926
 40
0.5925925925925926
 40
0.5925925925925926
 40
0.5925925925925926
 40
0.6296296296296295
 40
0.6296296296296295
 40
0.6296296296296295
 40
0.6296296296296295
 40
0.6666666666666665
 40
0.6666666666666665
 40
0.6666666666666665
 40
0.6666666666666665
 40
0.7037037037037035
 40
0.7037037037037035
 40
0.7037037037037035
 40
0.7037037037037035
 40
0.7407407407407405
 40
0.7407407407407405
 40
0.7407407407407405
 40
0.7407407407407405
 40
0.7777777777777775
 40
0.7777777777777775
 40
0.7777777777777775
 40
0.7777777777777775
 40
0.8148148148148144
 40
0.8148148148148144
 40
0.8148148148148144
 40
0.8148148148148144
 40
0.8518518518518514
 40
0.8518518518518514
 40
0.8518518518518514
 40
0.8518518518518514
 40
0.8888888888888884
 40
0.8888888888888884
 40
0.8888888888888884
 40
0.8888888888888884
 40
0.9259259259259254
 40
0.9259259259259254
 40
0.9259259259259254
 40
0.9259259259259254
 40
0.9629629629629624
 40
0.9629629629629624
 40
0.9629629629629624
 40
0.9629629629629624
 40
1.0
 40
1.0
 40
1.0
 40
1.0
 10
-0.2042913385826772
 20
0.2668070866141732
 30
0.0
 10
-0.2042913385826772
 20
0.2668070866141732
 30
0.0
 10
-0.1908740157480315
 20
0.2668070866141732
 30
0.0
 10
-0.1908740157480315
 20
0.2668070866141732
 30
0.0
 10
-0.1908740157480315
 20
0.2668070866141732
 30
0.0
 10
-0.1908740157480315
 20
0.2668070866141732
 30
0.0
 10
-0.1556259842519685
 20
0.1719173228346457
 30
0.0
 10
-0.1556259842519685
 20
0.1719173228346457
 30
0.0
 10
-0.1556259842519685
 20
0.1719173228346457
 30
0.0
 10
-0.1539015748031496
 20
0.1671417322834646
 30
0.0
 10
-0.1521535433070866
 20
0.1639724409448819
 30
0.0
 10
-0.1503740157480315
 20
0.1624448818897638
 30
0.0
 10
-0.1503740157480315
 20
0.1624448818897638
 30
0.0
 10
-0.1486259842519685
 20
0.1608897637795276
 30
0.0
 10
-0.146236220472441
 20
0.1601141732283465
 30
0.0
 10
-0.1432637795275591
 20
0.1601141732283465
 30
0.0
 10
-0.1432637795275591
 20
0.1601141732283465
 30
0.0
 10
-0.1432637795275591
 20
0.1601141732283465
 30
0.0
 10
-0.141484251968504
 20
0.1601141732283465
 30
0.0
 10
-0.141484251968504
 20
0.1601141732283465
 30
0.0
 10
-0.141484251968504
 20
0.1601141732283465
 30
0.0
 10
-0.141484251968504
 20
0.1601141732283465
 30
0.0
 10
-0.141484251968504
 20
0.1532795275590551
 30
0.0
 10
-0.141484251968504
 20
0.1532795275590551
 30
0.0
 10
-0.141484251968504
 20
0.1532795275590551
 30
0.0
 10
-0.141484251968504
 20
0.1532795275590551
 30
0.0
 10
-0.1819291338582677
 20
0.1532795275590551
 30
0.0
 10
-0.1819291338582677
 20
0.1532795275590551
 30
0.0
 10
-0.1819291338582677
 20
0.1532795275590551
 30
0.0
 10
-0.1819291338582677
 20
0.1532795275590551
 30
0.0
 10
-0.1819291338582677
 20
0.1601141732283465
 30
0.0
 10
-0.1819291338582677
 20
0.1601141732283465
 30
0.0
 10
-0.1819291338582677
 20
0.1601141732283465
 30
0.0
 10
-0.1806259842519685
 20
0.1602244094488189
 30
0.0
 10
-0.1793464566929134
 20
0.1602795275590551
 30
0.0
 10
-0.1780944881889764
 20
0.1602795275590551
 30
0.0
 10
-0.1780944881889764
 20
0.1602795275590551
 30
0.0
 10
-0.175484251968504
 20
0.1602795275590551
 30
0.0
 10
-0.1737913385826772
 20
0.1605590551181103
 30
0.0
 10
-0.1729566929133858
 20
0.1610866141732284
 30
0.0
 10
-0.1729566929133858
 20
0.1610866141732284
 30
0.0
 10
-0.1714015748031496
 20
0.1621141732283465
 30
0.0
 10
-0.1705984251968504
 20
0.1634173228346457
 30
0.0
 10
-0.1705984251968504
 20
0.165
 30
0.0
 10
-0.1705984251968504
 20
0.165
 30
0.0
 10
-0.1705984251968504
 20
0.1661417322834646
 30
0.0
 10
-0.1713740157480315
 20
0.1689173228346457
 30
0.0
 10
-0.1728740157480315
 20
0.1733897637795276
 30
0.0
 10
-0.1728740157480315
 20
0.1733897637795276
 30
0.0
 10
-0.1728740157480315
 20
0.1733897637795276
 30
0.0
 10
-0.1803740157480315
 20
0.1953622047244095
 30
0.0
 10
-0.1803740157480315
 20
0.1953622047244095
 30
0.0
 10
-0.1803740157480315
 20
0.1953622047244095
 30
0.0
 10
-0.1803740157480315
 20
0.1953622047244095
 30
0.0
 10
-0.2215393700787402
 20
0.1953622047244095
 30
0.0
 10
-0.2215393700787402
 20
0.1953622047244095
 30
0.0
 10
-0.2215393700787402
 20
0.1953622047244095
 30
0.0
 10
-0.2215393700787402
 20
0.1953622047244095
 30
0.0
 10
-0.2303464566929134
 20
0.1707795275590551
 30
0.0
 10
-0.2303464566929134
 20
0.1707795275590551
 30
0.0
 10
-0.2303464566929134
 20
0.1707795275590551
 30
0.0
 10
-0.2312637795275591
 20
0.1682244094488189
 30
0.0
 10
-0.2317362204724409
 20
0.1664724409448819
 30
0.0
 10
-0.2317362204724409
 20
0.1654724409448819
 30
0.0
 10
-0.2317362204724409
 20
0.1654724409448819
 30
0.0
 10
-0.2317362204724409
 20
0.1643897637795276
 30
0.0
 10
-0.2314291338582677
 20
0.1634448818897638
 30
0.0
 10
-0.2308740157480315
 20
0.1626417322834646
 30
0.0
 10
-0.2308740157480315
 20
0.1626417322834646
 30
0.0
 10
-0.2302913385826772
 20
0.1618346456692913
 30
0.0
 10
-0.2295393700787402
 20
0.1612244094488189
 30
0.0
 10
-0.2285393700787402
 20
0.1608070866141732
 30
0.0
 10
-0.2285393700787402
 20
0.1608070866141732
 30
0.0
 10
-0.2275669291338583
 20
0.1603897637795276
 30
0.0
 10
-0.2260118110236221
 20
0.1601968503937008
 30
0.0
 10
-0.2238188976377953
 20
0.1601968503937008
 30
0.0
 10
-0.2238188976377953
 20
0.1601968503937008
 30
0.0
 10
-0.2223740157480315
 20
0.1601968503937008
 30
0.0
 10
-0.2211811023622047
 20
0.1601692913385827
 30
0.0
 10
-0.2202637795275591
 20
0.1601141732283465
 30
0.0
 10
-0.2202637795275591
 20
0.1601141732283465
 30
0.0
 10
-0.2202637795275591
 20
0.1601141732283465
 30
0.0
 10
-0.2202637795275591
 20
0.1532795275590551
 30
0.0
 10
-0.2202637795275591
 20
0.1532795275590551
 30
0.0
 10
-0.2202637795275591
 20
0.1532795275590551
 30
0.0
 10
-0.2202637795275591
 20
0.1532795275590551
 30
0.0
 10
-0.2541811023622048
 20
0.1532795275590551
 30
0.0
 10
-0.2541811023622048
 20
0.1532795275590551
 30
0.0
 10
-0.2541811023622048
 20
0.1532795275590551
 30
0.0
 10
-0.2541811023622048
 20
0.1532795275590551
 30
0.0
 10
-0.2541811023622048
 20
0.1601141732283465
 30
0.0
 10
-0.2541811023622048
 20
0.1601141732283465
 30
0.0
 10
-0.2541811023622048
 20
0.1601141732283465
 30
0.0
 10
-0.2510393700787402
 20
0.1601141732283465
 30
0.0
 10
-0.2487637795275591
 20
0.1604173228346457
 30
0.0
 10
-0.2474015748031496
 20
0.1610590551181103
 30
0.0
 10
-0.2474015748031496
 20
0.1610590551181103
 30
0.0
 10
-0.2460118110236221
 20
0.1616692913385827
 30
0.0
 10
-0.2447913385826772
 20
0.1626692913385827
 30
0.0
 10
-0.2437637795275591
 20
0.1640590551181103
 30
0.0
 10
-0.2437637795275591
 20
0.1640590551181103
 30
0.0
 10
-0.242736220472441
 20
0.1654448818897638
 30
0.0
 10
-0.2413740157480315
 20
0.1683622047244095
 30
0.0
 10
-0.2397086614173228
 20
0.1728070866141732
 30
0.0
 10
-0.2397086614173228
 20
0.1728070866141732
 30
0.0
 10
-0.2397086614173228
 20
0.1728070866141732
 30
0.0
 10
-0.2042913385826772
 20
0.2668070866141732
 30
0.0
 10
-0.2042913385826772
 20
0.2668070866141732
 30
0.0
  0
SPLINE
  5
31
330
1F
100
AcDbEntity
  8
P1-Layer 1
 62
   250
100
AcDbSpline
210
0.0
220
0.0
230
1.0
 70
    11
 71
     3
 72
    16
 73
    12
 74
     0
 42
0.0000000001
 43
0.0000000001
 40
0.0
 40
0.0
 40
0.0
 40
0.0
 40
0.3333333333333333
 40
0.3333333333333333
 40
0.3333333333333333
 40
0.3333333333333333
 40
0.6666666666666666
 40
0.6666666666666666
 40
0.6666666666666666
 40
0.6666666666666666
 40
1.0
 40
1.0
 40
1.0
 40
1.0
 10
-0.2185393700787402
 20
0.2033346456692914
 30
0.0
 10
-0.2185393700787402
 20
0.2033346456692914
 30
0.0
 10
-0.1834566929133858
 20
0.2033346456692914
 30
0.0
 10
-0.1834566929133858
 20
0.2033346456692914
 30
0.0
 10
-0.1834566929133858
 20
0.2033346456692914
 30
0.0
 10
-0.1834566929133858
 20
0.2033346456692914
 30
0.0
 10
-0.2010393700787402
 20
0.2521692913385827
 30
0.0
 10
-0.2010393700787402
 20
0.2521692913385827
 30
0.0
 10
-0.2010393700787402
 20
0.2521692913385827
 30
0.0
 10
-0.2010393700787402
 20
0.2521692913385827
 30
0.0
 10
-0.2185393700787402
 20
0.2033346456692914
 30
0.0
 10
-0.2185393700787402
 20
0.2033346456692914
 30
0.0
  0
SPLINE
  5
32
330
1F
100
AcDbEntity
  8
P1-Layer 1
 62
   250
100
AcDbSpline
210
0.0
220
0.0
230
1.0
 70
    11
 71
     3
 72
    72
 73
    68
 74
     0
 42
0.0000000001
 43
0.0000000001
 40
0.0
 40
0.0
 40
0.0
 40
0.0
 40
0.0588235294117647
 40
0.0588235294117647
 40
0.0588235294117647
 40
0.0588235294117647
 40
0.1176470588235294
 40
0.1176470588235294
 40
0.1176470588235294
 40
0.1176470588235294
 40
0.1764705882352941
 40
0.1764705882352941
 40
0.1764705882352941
 40
0.1764705882352941
 40
0.2352941176470588
 40
0.2352941176470588
 40
0.2352941176470588
 40
0.2352941176470588
 40
0.2941176470588235
 40
0.2941176470588235
 40
0.2941176470588235
 40
0.2941176470588235
 40
0.3529411764705883
 40
0.3529411764705883
 40
0.3529411764705883
 40
0.3529411764705883
 40
0.411764705882353
 40
0.411764705882353
 40
0.411764705882353
 40
0.411764705882353
 40
0.4705882352941177
 40
0.4705882352941177
 40
0.4705882352941177
 40
0.4705882352941177
 40
0.5294117647058824
 40
0.5294117647058824
 40
0.5294117647058824
 40
0.5294117647058824
 40
0.5882352941176471
 40
0.5882352941176471
 40
0.5882352941176471
 40
0.5882352941176471
 40
0.6470588235294118
 40
0.6470588235294118
 40
0.6470588235294118
 40
0.6470588235294118
 40
0.7058823529411765
 40
0.7058823529411765
 40
0.7058823529411765
 40
0.7058823529411765
 40
0.7647058823529412
 40
0.7647058823529412
 40
0.7647058823529412
 40
0.7647058823529412
 40
0.823529411764706
 40
0.823529411764706
 40
0.823529411764706
 40
0.823529411764706
 40
0.8823529411764707
 40
0.8823529411764707
 40
0.8823529411764707
 40
0.8823529411764707
 40
0.9411764705882354
 40
0.9411764705882354
 40
0.9411764705882354
 40
0.9411764705882354
 40
1.0
 40
1.0
 40
1.0
 40
1.0
 10
0.0215433070866142
 20
0.2668070866141732
 30
0.0
 10
0.0215433070866142
 20
0.2668070866141732
 30
0.0
 10
0.0276259842519685
 20
0.2668070866141732
 30
0.0
 10
0.0276259842519685
 20
0.2668070866141732
 30
0.0
 10
0.0276259842519685
 20
0.2668070866141732
 30
0.0
 10
0.0276259842519685
 20
0.2668070866141732
 30
0.0
 10
0.0276259842519685
 20
0.1725590551181102
 30
0.0
 10
0.0276259842519685
 20
0.1725590551181102
 30
0.0
 10
0.0276259842519685
 20
0.1725590551181102
 30
0.0
 10
0.0276259842519685
 20
0.1681141732283465
 30
0.0
 10
0.0279330708661417
 20
0.165251968503937
 30
0.0
 10
0.028488188976378
 20
0.1639724409448819
 30
0.0
 10
0.028488188976378
 20
0.1639724409448819
 30
0.0
 10
0.0290708661417323
 20
0.1626968503937008
 30
0.0
 10
0.029988188976378
 20
0.161751968503937
 30
0.0
 10
0.0312913385826772
 20
0.1610866141732284
 30
0.0
 10
0.0312913385826772
 20
0.1610866141732284
 30
0.0
 10
0.0325984251968504
 20
0.1604448818897638
 30
0.0
 10
0.0351811023622047
 20
0.1601141732283465
 30
0.0
 10
0.0390433070866142
 20
0.1601141732283465
 30
0.0
 10
0.0390433070866142
 20
0.1601141732283465
 30
0.0
 10
0.0390433070866142
 20
0.1601141732283465
 30
0.0
 10
0.0470157480314961
 20
0.1601141732283465
 30
0.0
 10
0.0470157480314961
 20
0.1601141732283465
 30
0.0
 10
0.0470157480314961
 20
0.1601141732283465
 30
0.0
 10
0.0470157480314961
 20
0.1601141732283465
 30
0.0
 10
0.0470157480314961
 20
0.1532795275590551
 30
0.0
 10
0.0470157480314961
 20
0.1532795275590551
 30
0.0
 10
0.0470157480314961
 20
0.1532795275590551
 30
0.0
 10
0.0470157480314961
 20
0.1532795275590551
 30
0.0
 10
-0.0066220472440945
 20
0.1532795275590551
 30
0.0
 10
-0.0066220472440945
 20
0.1532795275590551
 30
0.0
 10
-0.0066220472440945
 20
0.1532795275590551
 30
0.0
 10
-0.0066220472440945
 20
0.1532795275590551
 30
0.0
 10
-0.0066220472440945
 20
0.1601141732283465
 30
0.0
 10
-0.0066220472440945
 20
0.1601141732283465
 30
0.0
 10
-0.0066220472440945
 20
0.1601141732283465
 30
0.0
 10
-0.0066220472440945
 20
0.1601141732283465
 30
0.0
 10
0.0022362204724409
 20
0.1601141732283465
 30
0.0
 10
0.0022362204724409
 20
0.1601141732283465
 30
0.0
 10
0.0022362204724409
 20
0.1601141732283465
 30
0.0
 10
0.0060984251968504
 20
0.1601141732283465
 30
0.0
 10
0.0086535433070866
 20
0.1604448818897638
 30
0.0
 10
0.0099330708661417
 20
0.1611417322834646
 30
0.0
 10
0.0099330708661417
 20
0.1611417322834646
 30
0.0
 10
0.0112086614173228
 20
0.1618070866141732
 30
0.0
 10
0.0122086614173228
 20
0.1628897637795276
 30
0.0
 10
0.0129055118110236
 20
0.1643897637795276
 30
0.0
 10
0.0129055118110236
 20
0.1643897637795276
 30
0.0
 10
0.0135984251968504
 20
0.1658897637795276
 30
0.0
 10
0.0139606299212598
 20
0.1686141732283465
 30
0.0
 10
0.0139606299212598
 20
0.1725590551181102
 30
0.0
 10
0.0139606299212598
 20
0.1725590551181102
 30
0.0
 10
0.0139606299212598
 20
0.1725590551181102
 30
0.0
 10
0.0139606299212598
 20
0.2500275590551181
 30
0.0
 10
0.0139606299212598
 20
0.2500275590551181
 30
0.0
 10
0.0139606299212598
 20
0.2500275590551181
 30
0.0
 10
0.0139606299212598
 20
0.2500275590551181
 30
0.0
 10
-0.0066220472440945
 20
0.2500275590551181
 30
0.0
 10
-0.0066220472440945
 20
0.2500275590551181
 30
0.0
 10
-0.0066220472440945
 20
0.2500275590551181
 30
0.0
 10
-0.0066220472440945
 20
0.2500275590551181
 30
0.0
 10
-0.0066220472440945
 20
0.2570275590551181
 30
0.0
 10
-0.0066220472440945
 20
0.2570275590551181
 30
0.0
 10
-0.0066220472440945
 20
0.2570275590551181
 30
0.0
 10
0.0045984251968504
 20
0.2586102362204725
 30
0.0
 10
0.013988188976378
 20
0.2618622047244095
 30
0.0
 10
0.0215433070866142
 20
0.2668070866141732
 30
0.0
  0
SPLINE
  5
33
330
1F
100
AcDbEntity
  8
P1-Layer 1
 62
   250
100
AcDbSpline
210
0.0
220
0.0
230
1.0
 70
    11
 71
     3
 72
    84
 73
    80
 74
     0
 42
0.0000000001
 43
0.0000000001
 40
0.0
 40
0.0
 40
0.0
 40
0.0
 40
0.05
 40
0.05
 40
0.05
 40
0.05
 40
0.1
 40
0.1
 40
0.1
 40
0.1
 40
0.15
 40
0.15
 40
0.15
 40
0.15
 40
0.2
 40
0.2
 40
0.2
 40
0.2
 40
0.25
 40
0.25
 40
0.25
 40
0.25
 40
0.3
 40
0.3
 40
0.3
 40
0.3
 40
0.35
 40
0.35
 40
0.35
 40
0.35
 40
0.4
 40
0.4
 40
0.4
 40
0.4
 40
0.45
 40
0.45
 40
0.45
 40
0.45
 40
0.4999999999999999
 40
0.4999999999999999
 40
0.4999999999999999
 40
0.4999999999999999
 40
0.5499999999999999
 40
0.5499999999999999
 40
0.5499999999999999
 40
0.5499999999999999
 40
0.6
 40
0.6
 40
0.6
 40
0.6
 40
0.65
 40
0.65
 40
0.65
 40
0.65
 40
0.7000000000000001
 40
0.7000000000000001
 40
0.7000000000000001
 40
0.7000000000000001
 40
0.7500000000000001
 40
0.7500000000000001
 40
0.7500000000000001
 40
0.7500000000000001
 40
0.8000000000000002
 40
0.8000000000000002
 40
0.8000000000000002
 40
0.8000000000000002
 40
0.8500000000000002
 40
0.8500000000000002
 40
0.8500000000000002
 40
0.8500000000000002
 40
0.9000000000000002
 40
0.9000000000000002
 40
0.9000000000000002
 40
0.9000000000000002
 40
0.9500000000000003
 40
0.9500000000000003
 40
0.9500000000000003
 40
0.9500000000000003
 40
1.0
 40
1.0
 40
1.0
 40
1.0
 10
0.1532086614173228
 20
0.2689173228346457
 30
0.0
 10
0.1532086614173228
 20
0.2689173228346457
 30
0.0
 10
0.1532086614173228
 20
0.2615
 30
0.0
 10
0.1532086614173228
 20
0.2615
 30
0.0
 10
0.1532086614173228
 20
0.2615
 30
0.0
 10
0.1398228346456693
 20
0.2613622047244095
 30
0.0
 10
0.128988188976378
 20
0.2593897637795276
 30
0.0
 10
0.1207125984251969
 20
0.2556692913385827
 30
0.0
 10
0.1207125984251969
 20
0.2556692913385827
 30
0.0
 10
0.1124330708661417
 20
0.2519173228346457
 30
0.0
 10
0.1063503937007874
 20
0.2463070866141733
 30
0.0
 10
0.1024330708661417
 20
0.2388622047244095
 30
0.0
 10
0.1024330708661417
 20
0.2388622047244095
 30
0.0
 10
0.0985157480314961
 20
0.2313897637795276
 30
0.0
 10
0.0963228346456693
 20
0.2221968503937008
 30
0.0
 10
0.0958503937007874
 20
0.2113070866141733
 30
0.0
 10
0.0958503937007874
 20
0.2113070866141733
 30
0.0
 10
0.0985984251968504
 20
0.2155275590551181
 30
0.0
 10
0.1014330708661417
 20
0.2188346456692913
 30
0.0
 10
0.1043503937007874
 20
0.2211968503937008
 30
0.0
 10
0.1043503937007874
 20
0.2211968503937008
 30
0.0
 10
0.107240157480315
 20
0.2235551181102362
 30
0.0
 10
0.1106259842519685
 20
0.2253622047244095
 30
0.0
 10
0.1145157480314961
 20
0.2266417322834646
 30
0.0
 10
0.1145157480314961
 20
0.2266417322834646
 30
0.0
 10
0.1184055118110236
 20
0.2279173228346457
 30
0.0
 10
0.1226535433070866
 20
0.2285551181102362
 30
0.0
 10
0.1272677165354331
 20
0.2285551181102362
 30
0.0
 10
0.1272677165354331
 20
0.2285551181102362
 30
0.0
 10
0.1346259842519685
 20
0.2285551181102362
 30
0.0
 10
0.1412086614173228
 20
0.2269173228346457
 30
0.0
 10
0.1469606299212599
 20
0.2236692913385827
 30
0.0
 10
0.1469606299212599
 20
0.2236692913385827
 30
0.0
 10
0.1527086614173228
 20
0.2204173228346457
 30
0.0
 10
0.1571811023622047
 20
0.216
 30
0.0
 10
0.1603779527559055
 20
0.2104448818897638
 30
0.0
 10
0.1603779527559055
 20
0.2104448818897638
 30
0.0
 10
0.1635708661417323
 20
0.2048897637795276
 30
0.0
 10
0.1651811023622047
 20
0.1983346456692914
 30
0.0
 10
0.1651811023622047
 20
0.1908070866141732
 30
0.0
 10
0.1651811023622047
 20
0.1908070866141732
 30
0.0
 10
0.1651811023622047
 20
0.1788070866141732
 30
0.0
 10
0.1615708661417323
 20
0.1693897637795276
 30
0.0
 10
0.1543503937007874
 20
0.1625590551181103
 30
0.0
 10
0.1543503937007874
 20
0.1625590551181103
 30
0.0
 10
0.1463779527559055
 20
0.1550590551181102
 30
0.0
 10
0.1360433070866142
 20
0.1513346456692913
 30
0.0
 10
0.1233503937007874
 20
0.1513346456692913
 30
0.0
 10
0.1233503937007874
 20
0.1513346456692913
 30
0.0
 10
0.1141811023622047
 20
0.1513346456692913
 30
0.0
 10
0.1064606299212599
 20
0.1532244094488189
 30
0.0
 10
0.1001535433070866
 20
0.1570275590551181
 30
0.0
 10
0.1001535433070866
 20
0.1570275590551181
 30
0.0
 10
0.0938503937007874
 20
0.1608070866141732
 30
0.0
 10
0.0888503937007874
 20
0.1666141732283465
 30
0.0
 10
0.0851259842519685
 20
0.1744448818897638
 30
0.0
 10
0.0851259842519685
 20
0.1744448818897638
 30
0.0
 10
0.0814330708661417
 20
0.182251968503937
 30
0.0
 10
0.0795708661417323
 20
0.1919173228346457
 30
0.0
 10
0.0795708661417323
 20
0.2034173228346457
 30
0.0
 10
0.0795708661417323
 20
0.2034173228346457
 30
0.0
 10
0.0795708661417323
 20
0.2149724409448819
 30
0.0
 10
0.0815433070866142
 20
0.2252244094488189
 30
0.0
 10
0.0854606299212598
 20
0.2341692913385827
 30
0.0
 10
0.0854606299212598
 20
0.2341692913385827
 30
0.0
 10
0.0894055118110236
 20
0.2431102362204725
 30
0.0
 10
0.0948503937007874
 20
0.2503070866141732
 30
0.0
 10
0.1017952755905512
 20
0.2557244094488189
 30
0.0
 10
0.1017952755905512
 20
0.2557244094488189
 30
0.0
 10
0.108740157480315
 20
0.2611692913385827
 30
0.0
 10
0.1163503937007874
 20
0.2647244094488189
 30
0.0
 10
0.1245984251968504
 20
0.2663897637795276
 30
0.0
 10
0.1245984251968504
 20
0.2663897637795276
 30
0.0
 10
0.1328779527559055
 20
0.2680826771653543
 30
0.0
 10
0.1402952755905512
 20
0.2689173228346457
 30
0.0
 10
0.1468779527559055
 20
0.2689173228346457
 30
0.0
 10
0.1468779527559055
 20
0.2689173228346457
 30
0.0
 10
0.1468779527559055
 20
0.2689173228346457
 30
0.0
 10
0.1532086614173228
 20
0.2689173228346457
 30
0.0
 10
0.1532086614173228
 20
0.2689173228346457
 30
0.0
  0
SPLINE
  5
34
330
1F
100
AcDbEntity
  8
P1-Layer 1
 62
   250
100
AcDbSpline
210
0.0
220
0.0
230
1.0
 70
    11
 71
     3
 72
    40
 73
    36
 74
     0
 42
0.0000000001
 43
0.0000000001
 40
0.0
 40
0.0
 40
0.0
 40
0.0
 40
0.1111111111111111
 40
0.1111111111111111
 40
0.1111111111111111
 40
0.1111111111111111
 40
0.2222222222222222
 40
0.2222222222222222
 40
0.2222222222222222
 40
0.2222222222222222
 40
0.3333333333333333
 40
0.3333333333333333
 40
0.3333333333333333
 40
0.3333333333333333
 40
0.4444444444444444
 40
0.4444444444444444
 40
0.4444444444444444
 40
0.4444444444444444
 40
0.5555555555555556
 40
0.5555555555555556
 40
0.5555555555555556
 40
0.5555555555555556
 40
0.6666666666666667
 40
0.6666666666666667
 40
0.6666666666666667
 40
0.6666666666666667
 40
0.7777777777777779
 40
0.7777777777777779
 40
0.7777777777777779
 40
0.7777777777777779
 40
0.8888888888888891
 40
0.8888888888888891
 40
0.8888888888888891
 40
0.8888888888888891
 40
1.0
 40
1.0
 40
1.0
 40
1.0
 10
0.1235157480314961
 20
0.2199173228346457
 30
0.0
 10
0.1157125984251969
 20
0.2199173228346457
 30
0.0
 10
0.1092952755905512
 20
0.2169724409448819
 30
0.0
 10
0.1042677165354331
 20
0.2110551181102362
 30
0.0
 10
0.1042677165354331
 20
0.2110551181102362
 30
0.0
 10
0.099240157480315
 20
0.2051417322834646
 30
0.0
 10
0.096740157480315
 20
0.1980275590551181
 30
0.0
 10
0.096740157480315
 20
0.189751968503937
 30
0.0
 10
0.096740157480315
 20
0.189751968503937
 30
0.0
 10
0.096740157480315
 20
0.1838897637795276
 30
0.0
 10
0.0979606299212598
 20
0.1784724409448819
 30
0.0
 10
0.1004055118110236
 20
0.1735
 30
0.0
 10
0.1004055118110236
 20
0.1735
 30
0.0
 10
0.1028503937007874
 20
0.1685275590551181
 30
0.0
 10
0.105988188976378
 20
0.1648622047244095
 30
0.0
 10
0.1098503937007874
 20
0.1624448818897638
 30
0.0
 10
0.1098503937007874
 20
0.1624448818897638
 30
0.0
 10
0.1136811023622047
 20
0.1600275590551181
 30
0.0
 10
0.1180433070866142
 20
0.1588070866141732
 30
0.0
 10
0.1228503937007874
 20
0.1588070866141732
 30
0.0
 10
0.1228503937007874
 20
0.1588070866141732
 30
0.0
 10
0.1303503937007874
 20
0.1588070866141732
 30
0.0
 10
0.1365708661417323
 20
0.1616417322834646
 30
0.0
 10
0.1415433070866142
 20
0.1673070866141732
 30
0.0
 10
0.1415433070866142
 20
0.1673070866141732
 30
0.0
 10
0.146488188976378
 20
0.1729724409448819
 30
0.0
 10
0.148988188976378
 20
0.1805866141732284
 30
0.0
 10
0.148988188976378
 20
0.1901417322834646
 30
0.0
 10
0.148988188976378
 20
0.1901417322834646
 30
0.0
 10
0.148988188976378
 20
0.199251968503937
 30
0.0
 10
0.1465708661417323
 20
0.2065
 30
0.0
 10
0.141740157480315
 20
0.2118622047244095
 30
0.0
 10
0.141740157480315
 20
0.2118622047244095
 30
0.0
 10
0.1369055118110236
 20
0.217251968503937
 30
0.0
 10
0.1308228346456693
 20
0.2199173228346457
 30
0.0
 10
0.1235157480314961
 20
0.2199173228346457
 30
0.0
  0
SPLINE
  5
35
330
1F
100
AcDbEntity
  8
P1-Layer 1
 62
   250
100
AcDbSpline
210
0.0
220
0.0
230
1.0
 70
    11
 71
     3
 72
   132
 73
   128
 74
     0
 42
0.0000000001
 43
0.0000000001
 40
0.0
 40
0.0
 40
0.0
 40
0.0
 40
0.03125
 40
0.03125
 40
0.03125
 40
0.03125
 40
0.0625
 40
0.0625
 40
0.0625
 40
0.0625
 40
0.09375
 40
0.09375
 40
0.09375
 40
0.09375
 40
0.125
 40
0.125
 40
0.125
 40
0.125
 40
0.15625
 40
0.15625
 40
0.15625
 40
0.15625
 40
0.1875
 40
0.1875
 40
0.1875
 40
0.1875
 40
0.21875
 40
0.21875
 40
0.21875
 40
0.21875
 40
0.25
 40
0.25
 40
0.25
 40
0.25
 40
0.28125
 40
0.28125
 40
0.28125
 40
0.28125
 40
0.3125
 40
0.3125
 40
0.3125
 40
0.3125
 40
0.34375
 40
0.34375
 40
0.34375
 40
0.34375
 40
0.375
 40
0.375
 40
0.375
 40
0.375
 40
0.40625
 40
0.40625
 40
0.40625
 40
0.40625
 40
0.4375
 40
0.4375
 40
0.4375
 40
0.4375
 40
0.46875
 40
0.46875
 40
0.46875
 40
0.46875
 40
0.5
 40
0.5
 40
0.5
 40
0.5
 40
0.53125
 40
0.53125
 40
0.53125
 40
0.53125
 40
0.5625
 40
0.5625
 40
0.5625
 40
0.5625
 40
0.59375
 40
0.59375
 40
0.59375
 40
0.59375
 40
0.625
 40
0.625
 40
0.625
 40
0.625
 40
0.65625
 40
0.65625
 40
0.65625
 40
0.65625
 40
0.6875
 40
0.6875
 40
0.6875
 40
0.6875
 40
0.71875
 40
0.71875
 40
0.71875
 40
0.71875
 40
0.75
 40
0.75
 40
0.75
 40
0.75
 40
0.78125
 40
0.78125
 40
0.78125
 40
0.78125
 40
0.8125
 40
0.8125
 40
0.8125
 40
0.8125
 40
0.84375
 40
0.84375
 40
0.84375
 40
0.84375
 40
0.875
 40
0.875
 40
0.875
 40
0.875
 40
0.90625
 40
0.90625
 40
0.90625
 40
0.90625
 40
0.9375
 40
0.9375
 40
0.9375
 40
0.9375
 40
0.96875
 40
0.96875
 40
0.96875
 40
0.96875
 40
1.0
 40
1.0
 40
1.0
 40
1.0
 10
0.1946574803149606
 20
0.2668070866141732
 30
0.0
 10
0.1946574803149606
 20
0.2668070866141732
 30
0.0
 10
0.2452677165354331
 20
0.2668070866141732
 30
0.0
 10
0.2452677165354331
 20
0.2668070866141732
 30
0.0
 10
0.2452677165354331
 20
0.2668070866141732
 30
0.0
 10
0.2483503937007874
 20
0.2668070866141732
 30
0.0
 10
0.250240157480315
 20
0.2669724409448819
 30
0.0
 10
0.2508779527559055
 20
0.2673070866141732
 30
0.0
 10
0.2508779527559055
 20
0.2673070866141732
 30
0.0
 10
0.2517952755905512
 20
0.2678346456692913
 30
0.0
 10
0.2523503937007874
 20
0.269
 30
0.0
 10
0.2525157480314961
 20
0.2707795275590552
 30
0.0
 10
0.2525157480314961
 20
0.2707795275590552
 30
0.0
 10
0.2525157480314961
 20
0.2707795275590552
 30
0.0
 10
0.2584606299212598
 20
0.2707795275590552
 30
0.0
 10
0.2584606299212598
 20
0.2707795275590552
 30
0.0
 10
0.2584606299212598
 20
0.2707795275590552
 30
0.0
 10
0.2584606299212598
 20
0.2707795275590552
 30
0.0
 10
0.2584606299212598
 20
0.2536102362204725
 30
0.0
 10
0.2584606299212598
 20
0.2536102362204725
 30
0.0
 10
0.2584606299212598
 20
0.2536102362204725
 30
0.0
 10
0.2584606299212598
 20
0.2536102362204725
 30
0.0
 10
0.2022125984251969
 20
0.2536102362204725
 30
0.0
 10
0.2022125984251969
 20
0.2536102362204725
 30
0.0
 10
0.2022125984251969
 20
0.2536102362204725
 30
0.0
 10
0.2022125984251969
 20
0.2536102362204725
 30
0.0
 10
0.2008228346456693
 20
0.2249724409448819
 30
0.0
 10
0.2008228346456693
 20
0.2249724409448819
 30
0.0
 10
0.2008228346456693
 20
0.2249724409448819
 30
0.0
 10
0.2031574803149606
 20
0.2256417322834646
 30
0.0
 10
0.2061299212598425
 20
0.2261692913385827
 30
0.0
 10
0.2097125984251969
 20
0.2266141732283465
 30
0.0
 10
0.2097125984251969
 20
0.2266141732283465
 30
0.0
 10
0.2143228346456693
 20
0.2271417322834646
 30
0.0
 10
0.2184330708661418
 20
0.2274173228346457
 30
0.0
 10
0.2220748031496063
 20
0.2274173228346457
 30
0.0
 10
0.2220748031496063
 20
0.2274173228346457
 30
0.0
 10
0.2311299212598425
 20
0.2274173228346457
 30
0.0
 10
0.2390157480314961
 20
0.2257795275590551
 30
0.0
 10
0.2457677165354331
 20
0.2225275590551181
 30
0.0
 10
0.2457677165354331
 20
0.2225275590551181
 30
0.0
 10
0.252488188976378
 20
0.2192795275590551
 30
0.0
 10
0.2575984251968504
 20
0.2148070866141733
 30
0.0
 10
0.2610984251968504
 20
0.2091417322834646
 30
0.0
 10
0.2610984251968504
 20
0.2091417322834646
 30
0.0
 10
0.2645984251968504
 20
0.2034724409448819
 30
0.0
 10
0.2663503937007874
 20
0.1971417322834646
 30
0.0
 10
0.2663503937007874
 20
0.1901417322834646
 30
0.0
 10
0.2663503937007874
 20
0.1901417322834646
 30
0.0
 10
0.2663503937007874
 20
0.1793070866141732
 30
0.0
 10
0.2622677165354331
 20
0.1701141732283465
 30
0.0
 10
0.2541299212598425
 20
0.1625866141732283
 30
0.0
 10
0.2541299212598425
 20
0.1625866141732283
 30
0.0
 10
0.245988188976378
 20
0.1550866141732284
 30
0.0
 10
0.2356299212598425
 20
0.1513346456692913
 30
0.0
 10
0.2230433070866142
 20
0.1513346456692913
 30
0.0
 10
0.2230433070866142
 20
0.1513346456692913
 30
0.0
 10
0.2157677165354331
 20
0.1513346456692913
 30
0.0
 10
0.2092125984251969
 20
0.1526417322834646
 30
0.0
 10
0.2033228346456693
 20
0.1552244094488189
 30
0.0
 10
0.2033228346456693
 20
0.1552244094488189
 30
0.0
 10
0.1974330708661417
 20
0.1578346456692913
 30
0.0
 10
0.1928228346456693
 20
0.1612795275590551
 30
0.0
 10
0.1895157480314961
 20
0.1655275590551181
 30
0.0
 10
0.1895157480314961
 20
0.1655275590551181
 30
0.0
 10
0.1862125984251969
 20
0.1697795275590551
 30
0.0
 10
0.1845472440944882
 20
0.1735275590551181
 30
0.0
 10
0.1845472440944882
 20
0.1767244094488189
 30
0.0
 10
0.1845472440944882
 20
0.1767244094488189
 30
0.0
 10
0.1845472440944882
 20
0.1788346456692914
 30
0.0
 10
0.1852677165354331
 20
0.1806692913385827
 30
0.0
 10
0.1866850393700787
 20
0.1822244094488189
 30
0.0
 10
0.1866850393700787
 20
0.1822244094488189
 30
0.0
 10
0.1880748031496063
 20
0.183751968503937
 30
0.0
 10
0.1899055118110236
 20
0.1845275590551181
 30
0.0
 10
0.1921299212598425
 20
0.1845275590551181
 30
0.0
 10
0.1921299212598425
 20
0.1845275590551181
 30
0.0
 10
0.1944055118110236
 20
0.1845275590551181
 30
0.0
 10
0.1964055118110236
 20
0.1835866141732284
 30
0.0
 10
0.1981574803149606
 20
0.1816692913385827
 30
0.0
 10
0.1981574803149606
 20
0.1816692913385827
 30
0.0
 10
0.1991299212598425
 20
0.1806968503937008
 30
0.0
 10
0.2002952755905512
 20
0.1783070866141732
 30
0.0
 10
0.2016574803149606
 20
0.1745275590551181
 30
0.0
 10
0.2016574803149606
 20
0.1745275590551181
 30
0.0
 10
0.203488188976378
 20
0.1691968503937008
 30
0.0
 10
0.206240157480315
 20
0.1653070866141732
 30
0.0
 10
0.2098779527559055
 20
0.1628070866141732
 30
0.0
 10
0.2098779527559055
 20
0.1628070866141732
 30
0.0
 10
0.2134330708661417
 20
0.160251968503937
 30
0.0
 10
0.2179606299212599
 20
0.1589724409448819
 30
0.0
 10
0.2233779527559055
 20
0.1589724409448819
 30
0.0
 10
0.2233779527559055
 20
0.1589724409448819
 30
0.0
 10
0.2287952755905512
 20
0.1589724409448819
 30
0.0
 10
0.2336299212598425
 20
0.1601692913385827
 30
0.0
 10
0.2378503937007874
 20
0.1625275590551181
 30
0.0
 10
0.2378503937007874
 20
0.1625275590551181
 30
0.0
 10
0.2421023622047244
 20
0.1648622047244095
 30
0.0
 10
0.2454330708661417
 20
0.1682795275590551
 30
0.0
 10
0.2478779527559055
 20
0.1726968503937008
 30
0.0
 10
0.2478779527559055
 20
0.1726968503937008
 30
0.0
 10
0.2503228346456693
 20
0.1771141732283465
 30
0.0
 10
0.2515433070866142
 20
0.1820275590551181
 30
0.0
 10
0.2515433070866142
 20
0.1874448818897638
 30
0.0
 10
0.2515433070866142
 20
0.1874448818897638
 30
0.0
 10
0.2515433070866142
 20
0.1931692913385827
 30
0.0
 10
0.2502125984251969
 20
0.1982244094488189
 30
0.0
 10
0.2475708661417323
 20
0.2026692913385827
 30
0.0
 10
0.2475708661417323
 20
0.2026692913385827
 30
0.0
 10
0.2449606299212599
 20
0.2071141732283465
 30
0.0
 10
0.2411850393700787
 20
0.2105826771653543
 30
0.0
 10
0.2362677165354331
 20
0.213
 30
0.0
 10
0.2362677165354331
 20
0.213
 30
0.0
 10
0.2313503937007874
 20
0.2154448818897638
 30
0.0
 10
0.2253779527559055
 20
0.2166692913385827
 30
0.0
 10
0.2183228346456693
 20
0.2166692913385827
 30
0.0
 10
0.2183228346456693
 20
0.2166692913385827
 30
0.0
 10
0.2140433070866142
 20
0.2166692913385827
 30
0.0
 10
0.2094330708661417
 20
0.2162244094488189
 30
0.0
 10
0.2045433070866142
 20
0.2152795275590551
 30
0.0
 10
0.2045433070866142
 20
0.2152795275590551
 30
0.0
 10
0.1996299212598425
 20
0.2143622047244095
 30
0.0
 10
0.1954055118110236
 20
0.2131968503937008
 30
0.0
 10
0.1918779527559055
 20
0.2117795275590551
 30
0.0
 10
0.1918779527559055
 20
0.2117795275590551
 30
0.0
 10
0.1918779527559055
 20
0.2117795275590551
 30
0.0
 10
0.1946574803149606
 20
0.2668070866141732
 30
0.0
 10
0.1946574803149606
 20
0.2668070866141732
 30
0.0
  0
SPLINE
  5
36
330
1F
100
AcDbEntity
  8
P1-Layer 1
 62
   250
100
AcDbSpline
210
0.0
220
0.0
230
1.0
 70
    11
 71
     3
 72
    76
 73
    72
 74
     0
 42
0.0000000001
 43
0.0000000001
 40
0.0
 40
0.0
 40
0.0
 40
0.0
 40
0.0555555555555556
 40
0.0555555555555556
 40
0.0555555555555556
 40
0.0555555555555556
 40
0.1111111111111111
 40
0.1111111111111111
 40
0.1111111111111111
 40
0.1111111111111111
 40
0.1666666666666667
 40
0.1666666666666667
 40
0.1666666666666667
 40
0.1666666666666667
 40
0.2222222222222222
 40
0.2222222222222222
 40
0.2222222222222222
 40
0.2222222222222222
 40
0.2777777777777778
 40
0.2777777777777778
 40
0.2777777777777778
 40
0.2777777777777778
 40
0.3333333333333334
 40
0.3333333333333334
 40
0.3333333333333334
 40
0.3333333333333334
 40
0.388888888888889
 40
0.388888888888889
 40
0.388888888888889
 40
0.388888888888889
 40
0.4444444444444445
 40
0.4444444444444445
 40
0.4444444444444445
 40
0.4444444444444445
 40
0.5000000000000001
 40
0.5000000000000001
 40
0.5000000000000001
 40
0.5000000000000001
 40
0.5555555555555557
 40
0.5555555555555557
 40
0.5555555555555557
 40
0.5555555555555557
 40
0.6111111111111113
 40
0.6111111111111113
 40
0.6111111111111113
 40
0.6111111111111113
 40
0.6666666666666669
 40
0.6666666666666669
 40
0.6666666666666669
 40
0.6666666666666669
 40
0.7222222222222224
 40
0.7222222222222224
 40
0.7222222222222224
 40
0.7222222222222224
 40
0.777777777777778
 40
0.777777777777778
 40
0.777777777777778
 40
0.777777777777778
 40
0.8333333333333336
 40
0.8333333333333336
 40
0.8333333333333336
 40
0.8333333333333336
 40
0.8888888888888892
 40
0.8888888888888892
 40
0.8888888888888892
 40
0.8888888888888892
 40
0.9444444444444448
 40
0.9444444444444448
 40
0.9444444444444448
 40
0.9444444444444448
 40
1.0
 40
1.0
 40
1.0
 40
1.0
 10
0.3400748031496063
 20
0.2162795275590551
 30
0.0
 10
0.346492125984252
 20
0.2138346456692913
 30
0.0
 10
0.3513779527559055
 20
0.2115275590551181
 30
0.0
 10
0.354740157480315
 20
0.2093622047244095
 30
0.0
 10
0.354740157480315
 20
0.2093622047244095
 30
0.0
 10
0.3596574803149606
 20
0.2061968503937008
 30
0.0
 10
0.3633779527559055
 20
0.2025
 30
0.0
 10
0.3658779527559055
 20
0.198251968503937
 30
0.0
 10
0.3658779527559055
 20
0.198251968503937
 30
0.0
 10
0.3683779527559055
 20
0.1939724409448819
 30
0.0
 10
0.3696299212598425
 20
0.1893622047244095
 30
0.0
 10
0.3696299212598425
 20
0.1843622047244095
 30
0.0
 10
0.3696299212598425
 20
0.1843622047244095
 30
0.0
 10
0.3696299212598425
 20
0.1754173228346457
 30
0.0
 10
0.3657677165354331
 20
0.1676692913385827
 30
0.0
 10
0.3580748031496063
 20
0.1611417322834646
 30
0.0
 10
0.3580748031496063
 20
0.1611417322834646
 30
0.0
 10
0.3503503937007874
 20
0.1545866141732284
 30
0.0
 10
0.3399645669291339
 20
0.1513346456692913
 30
0.0
 10
0.3269055118110236
 20
0.1513346456692913
 30
0.0
 10
0.3269055118110236
 20
0.1513346456692913
 30
0.0
 10
0.3130748031496063
 20
0.1513346456692913
 30
0.0
 10
0.3022125984251969
 20
0.1550275590551181
 30
0.0
 10
0.2943503937007874
 20
0.1623897637795276
 30
0.0
 10
0.2943503937007874
 20
0.1623897637795276
 30
0.0
 10
0.2881023622047244
 20
0.1683070866141732
 30
0.0
 10
0.284992125984252
 20
0.175
 30
0.0
 10
0.284992125984252
 20
0.1825
 30
0.0
 10
0.284992125984252
 20
0.1825
 30
0.0
 10
0.284992125984252
 20
0.1885275590551181
 30
0.0
 10
0.2871023622047244
 20
0.1939173228346457
 30
0.0
 10
0.2913228346456693
 20
0.1986968503937008
 30
0.0
 10
0.2913228346456693
 20
0.1986968503937008
 30
0.0
 10
0.2964370078740158
 20
0.2043897637795276
 30
0.0
 10
0.3037125984251969
 20
0.2088346456692914
 30
0.0
 10
0.3131574803149607
 20
0.2120275590551181
 30
0.0
 10
0.3131574803149607
 20
0.2120275590551181
 30
0.0
 10
0.3057677165354331
 20
0.2155
 30
0.0
 10
0.3004645669291339
 20
0.2190275590551181
 30
0.0
 10
0.2971850393700787
 20
0.2226141732283465
 30
0.0
 10
0.2971850393700787
 20
0.2226141732283465
 30
0.0
 10
0.2930196850393701
 20
0.2273346456692914
 30
0.0
 10
0.2909370078740158
 20
0.233
 30
0.0
 10
0.2909370078740158
 20
0.2396102362204725
 30
0.0
 10
0.2909370078740158
 20
0.2396102362204725
 30
0.0
 10
0.2909370078740158
 20
0.2478070866141733
 30
0.0
 10
0.2940196850393701
 20
0.2544448818897638
 30
0.0
 10
0.3002125984251969
 20
0.2594724409448819
 30
0.0
 10
0.3002125984251969
 20
0.2594724409448819
 30
0.0
 10
0.3077952755905512
 20
0.2656692913385827
 30
0.0
 10
0.3172952755905512
 20
0.268751968503937
 30
0.0
 10
0.3286850393700788
 20
0.268751968503937
 30
0.0
 10
0.3286850393700788
 20
0.268751968503937
 30
0.0
 10
0.3391023622047244
 20
0.268751968503937
 30
0.0
 10
0.3475196850393701
 20
0.2660826771653543
 30
0.0
 10
0.3539645669291339
 20
0.260751968503937
 30
0.0
 10
0.3539645669291339
 20
0.260751968503937
 30
0.0
 10
0.3603779527559055
 20
0.2553897637795276
 30
0.0
 10
0.3636023622047244
 20
0.2492795275590551
 30
0.0
 10
0.3636023622047244
 20
0.2423897637795276
 30
0.0
 10
0.3636023622047244
 20
0.2423897637795276
 30
0.0
 10
0.3636023622047244
 20
0.2389724409448819
 30
0.0
 10
0.3627952755905512
 20
0.2356968503937008
 30
0.0
 10
0.3612125984251969
 20
0.2325826771653543
 30
0.0
 10
0.3612125984251969
 20
0.2325826771653543
 30
0.0
 10
0.3596023622047244
 20
0.2294724409448819
 30
0.0
 10
0.3571574803149606
 20
0.2265551181102362
 30
0.0
 10
0.3538228346456693
 20
0.2238897637795276
 30
0.0
 10
0.3538228346456693
 20
0.2238897637795276
 30
0.0
 10
0.3505196850393701
 20
0.2211968503937008
 30
0.0
 10
0.3459330708661417
 20
0.2186692913385827
 30
0.0
 10
0.3400748031496063
 20
0.2162795275590551
 30
0.0
  0
SPLINE
  5
37
330
1F
100
AcDbEntity
  8
P1-Layer 1
 62
   250
100
AcDbSpline
210
0.0
220
0.0
230
1.0
 70
    11
 71
     3
 72
    48
 73
    44
 74
     0
 42
0.0000000001
 43
0.0000000001
 40
0.0
 40
0.0
 40
0.0
 40
0.0
 40
0.0909090909090909
 40
0.0909090909090909
 40
0.0909090909090909
 40
0.0909090909090909
 40
0.1818181818181818
 40
0.1818181818181818
 40
0.1818181818181818
 40
0.1818181818181818
 40
0.2727272727272727
 40
0.2727272727272727
 40
0.2727272727272727
 40
0.2727272727272727
 40
0.3636363636363637
 40
0.3636363636363637
 40
0.3636363636363637
 40
0.3636363636363637
 40
0.4545454545454546
 40
0.4545454545454546
 40
0.4545454545454546
 40
0.4545454545454546
 40
0.5454545454545455
 40
0.5454545454545455
 40
0.5454545454545455
 40
0.5454545454545455
 40
0.6363636363636365
 40
0.6363636363636365
 40
0.6363636363636365
 40
0.6363636363636365
 40
0.7272727272727274
 40
0.7272727272727274
 40
0.7272727272727274
 40
0.7272727272727274
 40
0.8181818181818183
 40
0.8181818181818183
 40
0.8181818181818183
 40
0.8181818181818183
 40
0.9090909090909093
 40
0.9090909090909093
 40
0.9090909090909093
 40
0.9090909090909093
 40
1.0
 40
1.0
 40
1.0
 40
1.0
 10
0.3326850393700788
 20
0.2192795275590551
 30
0.0
 10
0.3388503937007874
 20
0.2239448818897638
 30
0.0
 10
0.3428779527559056
 20
0.2271968503937008
 30
0.0
 10
0.3447125984251969
 20
0.2290551181102362
 30
0.0
 10
0.3447125984251969
 20
0.2290551181102362
 30
0.0
 10
0.3465748031496063
 20
0.2308897637795276
 30
0.0
 10
0.347992125984252
 20
0.233
 30
0.0
 10
0.348992125984252
 20
0.2353622047244095
 30
0.0
 10
0.348992125984252
 20
0.2353622047244095
 30
0.0
 10
0.349992125984252
 20
0.2377244094488189
 30
0.0
 10
0.350492125984252
 20
0.24
 30
0.0
 10
0.350492125984252
 20
0.2422244094488189
 30
0.0
 10
0.350492125984252
 20
0.2422244094488189
 30
0.0
 10
0.350492125984252
 20
0.2454173228346457
 30
0.0
 10
0.3495472440944882
 20
0.2484724409448819
 30
0.0
 10
0.3476574803149606
 20
0.2513897637795275
 30
0.0
 10
0.3476574803149606
 20
0.2513897637795275
 30
0.0
 10
0.345740157480315
 20
0.2542795275590551
 30
0.0
 10
0.3429645669291339
 20
0.2566417322834646
 30
0.0
 10
0.3392952755905512
 20
0.2584173228346457
 30
0.0
 10
0.3392952755905512
 20
0.2584173228346457
 30
0.0
 10
0.3356574803149606
 20
0.2602244094488189
 30
0.0
 10
0.3315472440944882
 20
0.2611102362204725
 30
0.0
 10
0.326992125984252
 20
0.2611102362204725
 30
0.0
 10
0.326992125984252
 20
0.2611102362204725
 30
0.0
 10
0.320240157480315
 20
0.2611102362204725
 30
0.0
 10
0.3146574803149607
 20
0.259251968503937
 30
0.0
 10
0.3102125984251969
 20
0.2555275590551182
 30
0.0
 10
0.3102125984251969
 20
0.2555275590551182
 30
0.0
 10
0.3057677165354331
 20
0.2518070866141732
 30
0.0
 10
0.3035472440944882
 20
0.2475275590551181
 30
0.0
 10
0.3035472440944882
 20
0.2426417322834646
 30
0.0
 10
0.3035472440944882
 20
0.2426417322834646
 30
0.0
 10
0.3035472440944882
 20
0.2387244094488189
 30
0.0
 10
0.3049370078740158
 20
0.2352244094488189
 30
0.0
 10
0.3076850393700787
 20
0.2321417322834646
 30
0.0
 10
0.3076850393700787
 20
0.2321417322834646
 30
0.0
 10
0.3104645669291339
 20
0.2290551181102362
 30
0.0
 10
0.3156023622047244
 20
0.226
 30
0.0
 10
0.3231574803149607
 20
0.2230275590551181
 30
0.0
 10
0.3231574803149607
 20
0.2230275590551181
 30
0.0
 10
0.3231574803149607
 20
0.2230275590551181
 30
0.0
 10
0.3326850393700788
 20
0.2192795275590551
 30
0.0
 10
0.3326850393700788
 20
0.2192795275590551
 30
0.0
  0
SPLINE
  5
38
330
1F
100
AcDbEntity
  8
P1-Layer 1
 62
   250
100
AcDbSpline
210
0.0
220
0.0
230
1.0
 70
    11
 71
     3
 72
    40
 73
    36
 74
     0
 42
0.0000000001
 43
0.0000000001
 40
0.0
 40
0.0
 40
0.0
 40
0.0
 40
0.1111111111111111
 40
0.1111111111111111
 40
0.1111111111111111
 40
0.1111111111111111
 40
0.2222222222222222
 40
0.2222222222222222
 40
0.2222222222222222
 40
0.2222222222222222
 40
0.3333333333333333
 40
0.3333333333333333
 40
0.3333333333333333
 40
0.3333333333333333
 40
0.4444444444444444
 40
0.4444444444444444
 40
0.4444444444444444
 40
0.4444444444444444
 40
0.5555555555555556
 40
0.5555555555555556
 40
0.5555555555555556
 40
0.5555555555555556
 40
0.6666666666666667
 40
0.6666666666666667
 40
0.6666666666666667
 40
0.6666666666666667
 40
0.7777777777777779
 40
0.7777777777777779
 40
0.7777777777777779
 40
0.7777777777777779
 40
0.8888888888888891
 40
0.8888888888888891
 40
0.8888888888888891
 40
0.8888888888888891
 40
1.0
 40
1.0
 40
1.0
 40
1.0
 10
0.3212125984251968
 20
0.2088622047244094
 30
0.0
 10
0.3135472440944882
 20
0.2055
 30
0.0
 10
0.307492125984252
 20
0.2011417322834646
 30
0.0
 10
0.3030472440944882
 20
0.195751968503937
 30
0.0
 10
0.3030472440944882
 20
0.195751968503937
 30
0.0
 10
0.2995748031496063
 20
0.1915275590551181
 30
0.0
 10
0.2978503937007874
 20
0.1871417322834646
 30
0.0
 10
0.2978503937007874
 20
0.1825866141732284
 30
0.0
 10
0.2978503937007874
 20
0.1825866141732284
 30
0.0
 10
0.2978503937007874
 20
0.1763897637795276
 30
0.0
 10
0.3005748031496063
 20
0.1708897637795276
 30
0.0
 10
0.3060748031496063
 20
0.1660866141732283
 30
0.0
 10
0.3060748031496063
 20
0.1660866141732283
 30
0.0
 10
0.3115472440944882
 20
0.1613070866141732
 30
0.0
 10
0.3186299212598425
 20
0.1588897637795276
 30
0.0
 10
0.3272952755905512
 20
0.1588897637795276
 30
0.0
 10
0.3272952755905512
 20
0.1588897637795276
 30
0.0
 10
0.3361574803149606
 20
0.1588897637795276
 30
0.0
 10
0.3435196850393701
 20
0.1616417322834646
 30
0.0
 10
0.3494330708661417
 20
0.1671141732283465
 30
0.0
 10
0.3494330708661417
 20
0.1671141732283465
 30
0.0
 10
0.3542677165354331
 20
0.1715590551181102
 30
0.0
 10
0.3566850393700787
 20
0.1763346456692914
 30
0.0
 10
0.3566850393700787
 20
0.1814448818897638
 30
0.0
 10
0.3566850393700787
 20
0.1814448818897638
 30
0.0
 10
0.3566850393700787
 20
0.1854448818897638
 30
0.0
 10
0.3551023622047244
 20
0.1892795275590551
 30
0.0
 10
0.3519330708661417
 20
0.1929448818897638
 30
0.0
 10
0.3519330708661417
 20
0.1929448818897638
 30
0.0
 10
0.348740157480315
 20
0.1966141732283465
 30
0.0
 10
0.3428503937007874
 20
0.2001692913385827
 30
0.0
 10
0.3342125984251969
 20
0.2036417322834646
 30
0.0
 10
0.3342125984251969
 20
0.2036417322834646
 30
0.0
 10
0.3342125984251969
 20
0.2036417322834646
 30
0.0
 10
0.3212125984251968
 20
0.2088622047244094
 30
0.0
 10
0.3212125984251968
 20
0.2088622047244094
 30
0.0
  0
SPLINE
  5
39
330
1F
100
AcDbEntity
  8
P1-Layer 1
 62
   250
100
AcDbSpline
210
0.0
220
0.0
230
1.0
 70
    11
 71
     3
 72
   144
 73
   140
 74
     0
 42
0.0000000001
 43
0.0000000001
 40
0.0
 40
0.0
 40
0.0
 40
0.0
 40
0.0285714285714286
 40
0.0285714285714286
 40
0.0285714285714286
 40
0.0285714285714286
 40
0.0571428571428571
 40
0.0571428571428571
 40
0.0571428571428571
 40
0.0571428571428571
 40
0.0857142857142857
 40
0.0857142857142857
 40
0.0857142857142857
 40
0.0857142857142857
 40
0.1142857142857143
 40
0.1142857142857143
 40
0.1142857142857143
 40
0.1142857142857143
 40
0.1428571428571429
 40
0.1428571428571429
 40
0.1428571428571429
 40
0.1428571428571429
 40
0.1714285714285714
 40
0.1714285714285714
 40
0.1714285714285714
 40
0.1714285714285714
 40
0.2
 40
0.2
 40
0.2
 40
0.2
 40
0.2285714285714286
 40
0.2285714285714286
 40
0.2285714285714286
 40
0.2285714285714286
 40
0.2571428571428572
 40
0.2571428571428572
 40
0.2571428571428572
 40
0.2571428571428572
 40
0.2857142857142858
 40
0.2857142857142858
 40
0.2857142857142858
 40
0.2857142857142858
 40
0.3142857142857143
 40
0.3142857142857143
 40
0.3142857142857143
 40
0.3142857142857143
 40
0.3428571428571429
 40
0.3428571428571429
 40
0.3428571428571429
 40
0.3428571428571429
 40
0.3714285714285715
 40
0.3714285714285715
 40
0.3714285714285715
 40
0.3714285714285715
 40
0.4000000000000001
 40
0.4000000000000001
 40
0.4000000000000001
 40
0.4000000000000001
 40
0.4285714285714287
 40
0.4285714285714287
 40
0.4285714285714287
 40
0.4285714285714287
 40
0.4571428571428572
 40
0.4571428571428572
 40
0.4571428571428572
 40
0.4571428571428572
 40
0.4857142857142858
 40
0.4857142857142858
 40
0.4857142857142858
 40
0.4857142857142858
 40
0.5142857142857144
 40
0.5142857142857144
 40
0.5142857142857144
 40
0.5142857142857144
 40
0.5428571428571429
 40
0.5428571428571429
 40
0.5428571428571429
 40
0.5428571428571429
 40
0.5714285714285715
 40
0.5714285714285715
 40
0.5714285714285715
 40
0.5714285714285715
 40
0.6000000000000001
 40
0.6000000000000001
 40
0.6000000000000001
 40
0.6000000000000001
 40
0.6285714285714287
 40
0.6285714285714287
 40
0.6285714285714287
 40
0.6285714285714287
 40
0.6571428571428573
 40
0.6571428571428573
 40
0.6571428571428573
 40
0.6571428571428573
 40
0.6857142857142858
 40
0.6857142857142858
 40
0.6857142857142858
 40
0.6857142857142858
 40
0.7142857142857144
 40
0.7142857142857144
 40
0.7142857142857144
 40
0.7142857142857144
 40
0.742857142857143
 40
0.742857142857143
 40
0.742857142857143
 40
0.742857142857143
 40
0.7714285714285716
 40
0.7714285714285716
 40
0.7714285714285716
 40
0.7714285714285716
 40
0.8000000000000002
 40
0.8000000000000002
 40
0.8000000000000002
 40
0.8000000000000002
 40
0.8285714285714287
 40
0.8285714285714287
 40
0.8285714285714287
 40
0.8285714285714287
 40
0.8571428571428573
 40
0.8571428571428573
 40
0.8571428571428573
 40
0.8571428571428573
 40
0.8857142857142859
 40
0.8857142857142859
 40
0.8857142857142859
 40
0.8857142857142859
 40
0.9142857142857145
 40
0.9142857142857145
 40
0.9142857142857145
 40
0.9142857142857145
 40
0.9428571428571431
 40
0.9428571428571431
 40
0.9428571428571431
 40
0.9428571428571431
 40
0.9714285714285716
 40
0.9714285714285716
 40
0.9714285714285716
 40
0.9714285714285716
 40
1.0
 40
1.0
 40
1.0
 40
1.0
 10
0.3870472440944882
 20
0.2668070866141732
 30
0.0
 10
0.3870472440944882
 20
0.2668070866141732
 30
0.0
 10
0.4456299212598425
 20
0.2668070866141732
 30
0.0
 10
0.4456299212598425
 20
0.2668070866141732
 30
0.0
 10
0.4456299212598425
 20
0.2668070866141732
 30
0.0
 10
0.4567677165354331
 20
0.2668070866141732
 30
0.0
 10
0.4651850393700788
 20
0.2656377952755906
 30
0.0
 10
0.4708818897637795
 20
0.2633346456692913
 30
0.0
 10
0.4708818897637795
 20
0.2633346456692913
 30
0.0
 10
0.4765748031496063
 20
0.2610275590551181
 30
0.0
 10
0.4809370078740158
 20
0.2576968503937008
 30
0.0
 10
0.4840196850393701
 20
0.2533346456692914
 30
0.0
 10
0.4840196850393701
 20
0.2533346456692914
 30
0.0
 10
0.4870748031496063
 20
0.2489724409448819
 30
0.0
 10
0.4886023622047244
 20
0.2439173228346457
 30
0.0
 10
0.4886023622047244
 20
0.2381692913385827
 30
0.0
 10
0.4886023622047244
 20
0.2381692913385827
 30
0.0
 10
0.4886023622047244
 20
0.232251968503937
 30
0.0
 10
0.4871299212598426
 20
0.227
 30
0.0
 10
0.4841299212598426
 20
0.2224173228346457
 30
0.0
 10
0.4841299212598426
 20
0.2224173228346457
 30
0.0
 10
0.4811574803149606
 20
0.2178346456692913
 30
0.0
 10
0.4768543307086615
 20
0.2142244094488189
 30
0.0
 10
0.471240157480315
 20
0.2115826771653543
 30
0.0
 10
0.471240157480315
 20
0.2115826771653543
 30
0.0
 10
0.4656299212598425
 20
0.2089448818897638
 30
0.0
 10
0.4581850393700788
 20
0.2075866141732284
 30
0.0
 10
0.4489094488188977
 20
0.2074724409448819
 30
0.0
 10
0.4489094488188977
 20
0.2074724409448819
 30
0.0
 10
0.4489094488188977
 20
0.2074724409448819
 30
0.0
 10
0.4788543307086615
 20
0.1708622047244095
 30
0.0
 10
0.4788543307086615
 20
0.1708622047244095
 30
0.0
 10
0.4788543307086615
 20
0.1708622047244095
 30
0.0
 10
0.4812952755905512
 20
0.1678070866141732
 30
0.0
 10
0.4828818897637796
 20
0.1659448818897638
 30
0.0
 10
0.4836574803149606
 20
0.165251968503937
 30
0.0
 10
0.4836574803149606
 20
0.165251968503937
 30
0.0
 10
0.4855472440944882
 20
0.1635590551181103
 30
0.0
 10
0.4875472440944882
 20
0.1622795275590551
 30
0.0
 10
0.4896299212598426
 20
0.1614173228346457
 30
0.0
 10
0.4896299212598426
 20
0.1614173228346457
 30
0.0
 10
0.4917125984251969
 20
0.1605590551181103
 30
0.0
 10
0.4940748031496063
 20
0.1601141732283465
 30
0.0
 10
0.4966574803149607
 20
0.1601141732283465
 30
0.0
 10
0.4966574803149607
 20
0.1601141732283465
 30
0.0
 10
0.4966574803149607
 20
0.1601141732283465
 30
0.0
 10
0.4987125984251969
 20
0.1601141732283465
 30
0.0
 10
0.4987125984251969
 20
0.1601141732283465
 30
0.0
 10
0.4987125984251969
 20
0.1601141732283465
 30
0.0
 10
0.4987125984251969
 20
0.1601141732283465
 30
0.0
 10
0.4987125984251969
 20
0.1532795275590551
 30
0.0
 10
0.4987125984251969
 20
0.1532795275590551
 30
0.0
 10
0.4987125984251969
 20
0.1532795275590551
 30
0.0
 10
0.4987125984251969
 20
0.1532795275590551
 30
0.0
 10
0.4728228346456693
 20
0.1532795275590551
 30
0.0
 10
0.4728228346456693
 20
0.1532795275590551
 30
0.0
 10
0.4728228346456693
 20
0.1532795275590551
 30
0.0
 10
0.4728228346456693
 20
0.1532795275590551
 30
0.0
 10
0.4311574803149607
 20
0.2074724409448819
 30
0.0
 10
0.4311574803149607
 20
0.2074724409448819
 30
0.0
 10
0.4311574803149607
 20
0.2074724409448819
 30
0.0
 10
0.4311574803149607
 20
0.2074724409448819
 30
0.0
 10
0.4166023622047244
 20
0.2074724409448819
 30
0.0
 10
0.4166023622047244
 20
0.2074724409448819
 30
0.0
 10
0.4166023622047244
 20
0.2074724409448819
 30
0.0
 10
0.4166023622047244
 20
0.2074724409448819
 30
0.0
 10
0.4166023622047244
 20
0.1724724409448819
 30
0.0
 10
0.4166023622047244
 20
0.1724724409448819
 30
0.0
 10
0.4166023622047244
 20
0.1724724409448819
 30
0.0
 10
0.4166023622047244
 20
0.1685866141732283
 30
0.0
 10
0.4167125984251969
 20
0.1661417322834646
 30
0.0
 10
0.416992125984252
 20
0.1651692913385827
 30
0.0
 10
0.416992125984252
 20
0.1651692913385827
 30
0.0
 10
0.4176023622047244
 20
0.1633070866141732
 30
0.0
 10
0.4185472440944882
 20
0.162
 30
0.0
 10
0.4198818897637796
 20
0.161251968503937
 30
0.0
 10
0.4198818897637796
 20
0.161251968503937
 30
0.0
 10
0.4212125984251969
 20
0.1605
 30
0.0
 10
0.4237992125984252
 20
0.1601141732283465
 30
0.0
 10
0.4276574803149607
 20
0.1601141732283465
 30
0.0
 10
0.4276574803149607
 20
0.1601141732283465
 30
0.0
 10
0.4276574803149607
 20
0.1601141732283465
 30
0.0
 10
0.4305748031496063
 20
0.1601141732283465
 30
0.0
 10
0.4305748031496063
 20
0.1601141732283465
 30
0.0
 10
0.4305748031496063
 20
0.1601141732283465
 30
0.0
 10
0.4305748031496063
 20
0.1601141732283465
 30
0.0
 10
0.4305748031496063
 20
0.1532795275590551
 30
0.0
 10
0.4305748031496063
 20
0.1532795275590551
 30
0.0
 10
0.4305748031496063
 20
0.1532795275590551
 30
0.0
 10
0.4305748031496063
 20
0.1532795275590551
 30
0.0
 10
0.3870472440944882
 20
0.1532795275590551
 30
0.0
 10
0.3870472440944882
 20
0.1532795275590551
 30
0.0
 10
0.3870472440944882
 20
0.1532795275590551
 30
0.0
 10
0.3870472440944882
 20
0.1532795275590551
 30
0.0
 10
0.3870472440944882
 20
0.1601141732283465
 30
0.0
 10
0.3870472440944882
 20
0.1601141732283465
 30
0.0
 10
0.3870472440944882
 20
0.1601141732283465
 30
0.0
 10
0.3870472440944882
 20
0.1601141732283465
 30
0.0
 10
0.3909645669291339
 20
0.1601141732283465
 30
0.0
 10
0.3909645669291339
 20
0.1601141732283465
 30
0.0
 10
0.3909645669291339
 20
0.1601141732283465
 30
0.0
 10
0.3938818897637795
 20
0.1601141732283465
 30
0.0
 10
0.3958543307086614
 20
0.1603070866141732
 30
0.0
 10
0.3968543307086614
 20
0.1606968503937008
 30
0.0
 10
0.3968543307086614
 20
0.1606968503937008
 30
0.0
 10
0.3978543307086614
 20
0.1610590551181103
 30
0.0
 10
0.398740157480315
 20
0.1617244094488189
 30
0.0
 10
0.3995472440944882
 20
0.1626692913385827
 30
0.0
 10
0.3995472440944882
 20
0.1626692913385827
 30
0.0
 10
0.4003267716535433
 20
0.1636417322834646
 30
0.0
 10
0.4008818897637795
 20
0.1648346456692914
 30
0.0
 10
0.4012125984251969
 20
0.1663070866141732
 30
0.0
 10
0.4012125984251969
 20
0.1663070866141732
 30
0.0
 10
0.4013267716535433
 20
0.1668897637795276
 30
0.0
 10
0.4014094488188977
 20
0.1696417322834646
 30
0.0
 10
0.4014645669291339
 20
0.1745275590551181
 30
0.0
 10
0.4014645669291339
 20
0.1745275590551181
 30
0.0
 10
0.4014645669291339
 20
0.1745275590551181
 30
0.0
 10
0.4014645669291339
 20
0.2488897637795276
 30
0.0
 10
0.4014645669291339
 20
0.2488897637795276
 30
0.0
 10
0.4014645669291339
 20
0.2488897637795276
 30
0.0
 10
0.4014645669291339
 20
0.2521692913385827
 30
0.0
 10
0.4011299212598425
 20
0.2545
 30
0.0
 10
0.4004645669291339
 20
0.2558897637795276
 30
0.0
 10
0.4004645669291339
 20
0.2558897637795276
 30
0.0
 10
0.3998267716535433
 20
0.2573070866141732
 30
0.0
 10
0.3989094488188977
 20
0.2583346456692914
 30
0.0
 10
0.397740157480315
 20
0.2589448818897638
 30
0.0
 10
0.397740157480315
 20
0.2589448818897638
 30
0.0
 10
0.3965748031496063
 20
0.2595826771653543
 30
0.0
 10
0.3945748031496063
 20
0.2598897637795276
 30
0.0
 10
0.3916850393700788
 20
0.2598897637795276
 30
0.0
 10
0.3916850393700788
 20
0.2598897637795276
 30
0.0
 10
0.3916850393700788
 20
0.2598897637795276
 30
0.0
 10
0.3870472440944882
 20
0.2598897637795276
 30
0.0
 10
0.3870472440944882
 20
0.2598897637795276
 30
0.0
 10
0.3870472440944882
 20
0.2598897637795276
 30
0.0
 10
0.3870472440944882
 20
0.2598897637795276
 30
0.0
 10
0.3870472440944882
 20
0.2668070866141732
 30
0.0
 10
0.3870472440944882
 20
0.2668070866141732
 30
0.0
  0
SPLINE
  5
3A
330
1F
100
AcDbEntity
  8
P1-Layer 1
 62
   250
100
AcDbSpline
210
0.0
220
0.0
230
1.0
 70
    11
 71
     3
 72
    40
 73
    36
 74
     0
 42
0.0000000001
 43
0.0000000001
 40
0.0
 40
0.0
 40
0.0
 40
0.0
 40
0.1111111111111111
 40
0.1111111111111111
 40
0.1111111111111111
 40
0.1111111111111111
 40
0.2222222222222222
 40
0.2222222222222222
 40
0.2222222222222222
 40
0.2222222222222222
 40
0.3333333333333333
 40
0.3333333333333333
 40
0.3333333333333333
 40
0.3333333333333333
 40
0.4444444444444444
 40
0.4444444444444444
 40
0.4444444444444444
 40
0.4444444444444444
 40
0.5555555555555556
 40
0.5555555555555556
 40
0.5555555555555556
 40
0.5555555555555556
 40
0.6666666666666667
 40
0.6666666666666667
 40
0.6666666666666667
 40
0.6666666666666667
 40
0.7777777777777779
 40
0.7777777777777779
 40
0.7777777777777779
 40
0.7777777777777779
 40
0.8888888888888891
 40
0.8888888888888891
 40
0.8888888888888891
 40
0.8888888888888891
 40
1.0
 40
1.0
 40
1.0
 40
1.0
 10
0.4166023622047244
 20
0.2579448818897638
 30
0.0
 10
0.4166023622047244
 20
0.2579448818897638
 30
0.0
 10
0.4166023622047244
 20
0.2152244094488189
 30
0.0
 10
0.4166023622047244
 20
0.2152244094488189
 30
0.0
 10
0.4166023622047244
 20
0.2152244094488189
 30
0.0
 10
0.4166023622047244
 20
0.2152244094488189
 30
0.0
 10
0.4399370078740157
 20
0.2152244094488189
 30
0.0
 10
0.4399370078740157
 20
0.2152244094488189
 30
0.0
 10
0.4399370078740157
 20
0.2152244094488189
 30
0.0
 10
0.4478818897637795
 20
0.2152244094488189
 30
0.0
 10
0.4534370078740158
 20
0.2156968503937008
 30
0.0
 10
0.4566299212598425
 20
0.2166692913385827
 30
0.0
 10
0.4566299212598425
 20
0.2166692913385827
 30
0.0
 10
0.4611850393700788
 20
0.2179724409448819
 30
0.0
 10
0.4647677165354331
 20
0.2203622047244095
 30
0.0
 10
0.4674094488188977
 20
0.2238346456692913
 30
0.0
 10
0.4674094488188977
 20
0.2238346456692913
 30
0.0
 10
0.4700472440944882
 20
0.2273070866141732
 30
0.0
 10
0.4713543307086615
 20
0.2317244094488189
 30
0.0
 10
0.4713543307086615
 20
0.2371102362204725
 30
0.0
 10
0.4713543307086615
 20
0.2371102362204725
 30
0.0
 10
0.4713543307086615
 20
0.2416692913385827
 30
0.0
 10
0.4704094488188977
 20
0.2455
 30
0.0
 10
0.4685196850393701
 20
0.2486102362204725
 30
0.0
 10
0.4685196850393701
 20
0.2486102362204725
 30
0.0
 10
0.4666023622047245
 20
0.2517244094488189
 30
0.0
 10
0.4640196850393701
 20
0.2540551181102362
 30
0.0
 10
0.460740157480315
 20
0.2556102362204725
 30
0.0
 10
0.460740157480315
 20
0.2556102362204725
 30
0.0
 10
0.4574645669291339
 20
0.2571692913385827
 30
0.0
 10
0.4525472440944882
 20
0.2579448818897638
 30
0.0
 10
0.4460472440944882
 20
0.2579448818897638
 30
0.0
 10
0.4460472440944882
 20
0.2579448818897638
 30
0.0
 10
0.4460472440944882
 20
0.2579448818897638
 30
0.0
 10
0.4166023622047244
 20
0.2579448818897638
 30
0.0
 10
0.4166023622047244
 20
0.2579448818897638
 30
0.0
  0
SPLINE
  5
3B
330
1F
100
AcDbEntity
  8
P1-Layer 1
 62
   250
100
AcDbSpline
210
0.0
220
0.0
230
1.0
 70
    11
 71
     3
 72
    80
 73
    76
 74
     0
 42
0.0000000001
 43
0.0000000001
 40
0.0
 40
0.0
 40
0.0
 40
0.0
 40
0.0526315789473684
 40
0.0526315789473684
 40
0.0526315789473684
 40
0.0526315789473684
 40
0.1052631578947368
 40
0.1052631578947368
 40
0.1052631578947368
 40
0.1052631578947368
 40
0.1578947368421053
 40
0.1578947368421053
 40
0.1578947368421053
 40
0.1578947368421053
 40
0.2105263157894737
 40
0.2105263157894737
 40
0.2105263157894737
 40
0.2105263157894737
 40
0.2631578947368421
 40
0.2631578947368421
 40
0.2631578947368421
 40
0.2631578947368421
 40
0.3157894736842105
 40
0.3157894736842105
 40
0.3157894736842105
 40
0.3157894736842105
 40
0.3684210526315789
 40
0.3684210526315789
 40
0.3684210526315789
 40
0.3684210526315789
 40
0.4210526315789474
 40
0.4210526315789474
 40
0.4210526315789474
 40
0.4210526315789474
 40
0.4736842105263158
 40
0.4736842105263158
 40
0.4736842105263158
 40
0.4736842105263158
 40
0.5263157894736842
 40
0.5263157894736842
 40
0.5263157894736842
 40
0.5263157894736842
 40
0.5789473684210527
 40
0.5789473684210527
 40
0.5789473684210527
 40
0.5789473684210527
 40
0.631578947368421
 40
0.631578947368421
 40
0.631578947368421
 40
0.631578947368421
 40
0.6842105263157894
 40
0.6842105263157894
 40
0.6842105263157894
 40
0.6842105263157894
 40
0.7368421052631577
 40
0.7368421052631577
 40
0.7368421052631577
 40
0.7368421052631577
 40
0.7894736842105261
 40
0.7894736842105261
 40
0.7894736842105261
 40
0.7894736842105261
 40
0.8421052631578945
 40
0.8421052631578945
 40
0.8421052631578945
 40
0.8421052631578945
 40
0.8947368421052628
 40
0.8947368421052628
 40
0.8947368421052628
 40
0.8947368421052628
 40
0.9473684210526312
 40
0.9473684210526312
 40
0.9473684210526312
 40
0.9473684210526312
 40
1.0
 40
1.0
 40
1.0
 40
1.0
 10
-0.5830118110236221
 20
0.0834448818897638
 30
0.0
 10
-0.5830118110236221
 20
0.0834448818897638
 30
0.0
 10
-0.5776220472440945
 20
0.0834448818897638
 30
0.0
 10
-0.5776220472440945
 20
0.0834448818897638
 30
0.0
 10
-0.5776220472440945
 20
0.0834448818897638
 30
0.0
 10
-0.5776220472440945
 20
0.0834448818897638
 30
0.0
 10
-0.5766496062992126
 20
0.0793070866141732
 30
0.0
 10
-0.5766496062992126
 20
0.0793070866141732
 30
0.0
 10
-0.5766496062992126
 20
0.0793070866141732
 30
0.0
 10
-0.5766496062992126
 20
0.0793070866141732
 30
0.0
 10
-0.5055393700787402
 20
0.0793070866141732
 30
0.0
 10
-0.5055393700787402
 20
0.0793070866141732
 30
0.0
 10
-0.5055393700787402
 20
0.0793070866141732
 30
0.0
 10
-0.5055393700787402
 20
0.0793070866141732
 30
0.0
 10
-0.5055393700787402
 20
0.0723897637795276
 30
0.0
 10
-0.5055393700787402
 20
0.0723897637795276
 30
0.0
 10
-0.5055393700787402
 20
0.0723897637795276
 30
0.0
 10
-0.5140393700787402
 20
0.0625551181102362
 30
0.0
 10
-0.521763779527559
 20
0.0513897637795276
 30
0.0
 10
-0.5286771653543307
 20
0.0388070866141732
 30
0.0
 10
-0.5286771653543307
 20
0.0388070866141732
 30
0.0
 10
-0.5355944881889764
 20
0.026251968503937
 30
0.0
 10
-0.5409566929133859
 20
0.0134724409448819
 30
0.0
 10
-0.5447637795275591
 20
0.0004448818897638
 30
0.0
 10
-0.5447637795275591
 20
0.0004448818897638
 30
0.0
 10
-0.5475118110236221
 20
-0.0089409448818898
 30
0.0
 10
-0.549759842519685
 20
-0.0205
 30
0.0
 10
-0.5515118110236221
 20
-0.0342204724409449
 30
0.0
 10
-0.5515118110236221
 20
-0.0342204724409449
 30
0.0
 10
-0.5515118110236221
 20
-0.0342204724409449
 30
0.0
 10
-0.5681771653543307
 20
-0.0342204724409449
 30
0.0
 10
-0.5681771653543307
 20
-0.0342204724409449
 30
0.0
 10
-0.5681771653543307
 20
-0.0342204724409449
 30
0.0
 10
-0.5665669291338583
 20
-0.0221102362204724
 30
0.0
 10
-0.5639015748031496
 20
-0.0108031496062992
 30
0.0
 10
-0.5601771653543307
 20
-0.0002755905511811
 30
0.0
 10
-0.5601771653543307
 20
-0.0002755905511811
 30
0.0
 10
-0.5564566929133858
 20
0.010251968503937
 30
0.0
 10
-0.5510944881889764
 20
0.021251968503937
 30
0.0
 10
-0.5440669291338582
 20
0.0327244094488189
 30
0.0
 10
-0.5440669291338582
 20
0.0327244094488189
 30
0.0
 10
-0.5370393700787401
 20
0.0441968503937008
 30
0.0
 10
-0.5285118110236221
 20
0.0556417322834646
 30
0.0
 10
-0.5184566929133858
 20
0.0670826771653543
 30
0.0
 10
-0.5184566929133858
 20
0.0670826771653543
 30
0.0
 10
-0.5184566929133858
 20
0.0670826771653543
 30
0.0
 10
-0.5691771653543307
 20
0.0670826771653543
 30
0.0
 10
-0.5691771653543307
 20
0.0670826771653543
 30
0.0
 10
-0.5691771653543307
 20
0.0670826771653543
 30
0.0
 10
-0.5728464566929135
 20
0.0670826771653543
 30
0.0
 10
-0.5753740157480315
 20
0.0669173228346457
 30
0.0
 10
-0.576732283464567
 20
0.0665275590551181
 30
0.0
 10
-0.576732283464567
 20
0.0665275590551181
 30
0.0
 10
-0.5780944881889764
 20
0.0661417322834646
 30
0.0
 10
-0.5791496062992126
 20
0.0655551181102362
 30
0.0
 10
-0.5799015748031496
 20
0.064751968503937
 30
0.0
 10
-0.5799015748031496
 20
0.064751968503937
 30
0.0
 10
-0.5806771653543308
 20
0.0639173228346457
 30
0.0
 10
-0.5813188976377953
 20
0.0624724409448819
 30
0.0
 10
-0.5818740157480316
 20
0.0604173228346457
 30
0.0
 10
-0.5818740157480316
 20
0.0604173228346457
 30
0.0
 10
-0.5818740157480316
 20
0.0604173228346457
 30
0.0
 10
-0.5822598425196851
 20
0.0588897637795276
 30
0.0
 10
-0.5822598425196851
 20
0.0588897637795276
 30
0.0
 10
-0.5822598425196851
 20
0.0588897637795276
 30
0.0
 10
-0.5822598425196851
 20
0.0588897637795276
 30
0.0
 10
-0.5850393700787402
 20
0.0492795275590551
 30
0.0
 10
-0.5850393700787402
 20
0.0492795275590551
 30
0.0
 10
-0.5850393700787402
 20
0.0492795275590551
 30
0.0
 10
-0.5850393700787402
 20
0.0492795275590551
 30
0.0
 10
-0.5919566929133858
 20
0.050751968503937
 30
0.0
 10
-0.5919566929133858
 20
0.050751968503937
 30
0.0
 10
-0.5919566929133858
 20
0.050751968503937
 30
0.0
 10
-0.5919566929133858
 20
0.050751968503937
 30
0.0
 10
-0.5830118110236221
 20
0.0834448818897638
 30
0.0
 10
-0.5830118110236221
 20
0.0834448818897638
 30
0.0
  0
SPLINE
  5
3C
330
1F
100
AcDbEntity
  8
P1-Layer 1
 62
   250
100
AcDbSpline
210
0.0
220
0.0
230
1.0
 70
    11
 71
     3
 72
    20
 73
    16
 74
     0
 42
0.0000000001
 43
0.0000000001
 40
0.0
 40
0.0
 40
0.0
 40
0.0
 40
0.25
 40
0.25
 40
0.25
 40
0.25
 40
0.5
 40
0.5
 40
0.5
 40
0.5
 40
0.75
 40
0.75
 40
0.75
 40
0.75
 40
1.0
 40
1.0
 40
1.0
 40
1.0
 10
-0.4162322834645669
 20
0.0851692913385827
 30
0.0
 10
-0.4162322834645669
 20
0.0851692913385827
 30
0.0
 10
-0.4718149606299213
 20
-0.0705275590551181
 30
0.0
 10
-0.4718149606299213
 20
-0.0705275590551181
 30
0.0
 10
-0.4718149606299213
 20
-0.0705275590551181
 30
0.0
 10
-0.4718149606299213
 20
-0.0705275590551181
 30
0.0
 10
-0.4838700787401575
 20
-0.0705275590551181
 30
0.0
 10
-0.4838700787401575
 20
-0.0705275590551181
 30
0.0
 10
-0.4838700787401575
 20
-0.0705275590551181
 30
0.0
 10
-0.4838700787401575
 20
-0.0705275590551181
 30
0.0
 10
-0.4286220472440945
 20
0.0851692913385827
 30
0.0
 10
-0.4286220472440945
 20
0.0851692913385827
 30
0.0
 10
-0.4286220472440945
 20
0.0851692913385827
 30
0.0
 10
-0.4286220472440945
 20
0.0851692913385827
 30
0.0
 10
-0.4162322834645669
 20
0.0851692913385827
 30
0.0
 10
-0.4162322834645669
 20
0.0851692913385827
 30
0.0
  0
SPLINE
  5
3D
330
1F
100
AcDbEntity
  8
P1-Layer 1
 62
   250
100
AcDbSpline
210
0.0
220
0.0
230
1.0
 70
    11
 71
     3
 72
    76
 73
    72
 74
     0
 42
0.0000000001
 43
0.0000000001
 40
0.0
 40
0.0
 40
0.0
 40
0.0
 40
0.0555555555555556
 40
0.0555555555555556
 40
0.0555555555555556
 40
0.0555555555555556
 40
0.1111111111111111
 40
0.1111111111111111
 40
0.1111111111111111
 40
0.1111111111111111
 40
0.1666666666666667
 40
0.1666666666666667
 40
0.1666666666666667
 40
0.1666666666666667
 40
0.2222222222222222
 40
0.2222222222222222
 40
0.2222222222222222
 40
0.2222222222222222
 40
0.2777777777777778
 40
0.2777777777777778
 40
0.2777777777777778
 40
0.2777777777777778
 40
0.3333333333333334
 40
0.3333333333333334
 40
0.3333333333333334
 40
0.3333333333333334
 40
0.388888888888889
 40
0.388888888888889
 40
0.388888888888889
 40
0.388888888888889
 40
0.4444444444444445
 40
0.4444444444444445
 40
0.4444444444444445
 40
0.4444444444444445
 40
0.5000000000000001
 40
0.5000000000000001
 40
0.5000000000000001
 40
0.5000000000000001
 40
0.5555555555555557
 40
0.5555555555555557
 40
0.5555555555555557
 40
0.5555555555555557
 40
0.6111111111111113
 40
0.6111111111111113
 40
0.6111111111111113
 40
0.6111111111111113
 40
0.6666666666666669
 40
0.6666666666666669
 40
0.6666666666666669
 40
0.6666666666666669
 40
0.7222222222222224
 40
0.7222222222222224
 40
0.7222222222222224
 40
0.7222222222222224
 40
0.777777777777778
 40
0.777777777777778
 40
0.777777777777778
 40
0.777777777777778
 40
0.8333333333333336
 40
0.8333333333333336
 40
0.8333333333333336
 40
0.8333333333333336
 40
0.8888888888888892
 40
0.8888888888888892
 40
0.8888888888888892
 40
0.8888888888888892
 40
0.9444444444444448
 40
0.9444444444444448
 40
0.9444444444444448
 40
0.9444444444444448
 40
1.0
 40
1.0
 40
1.0
 40
1.0
 10
-0.333232283464567
 20
0.0287795275590551
 30
0.0
 10
-0.3268149606299213
 20
0.0263346456692913
 30
0.0
 10
-0.3219291338582677
 20
0.0240275590551181
 30
0.0
 10
-0.3185669291338583
 20
0.0218622047244094
 30
0.0
 10
-0.3185669291338583
 20
0.0218622047244094
 30
0.0
 10
-0.3136496062992126
 20
0.0186968503937008
 30
0.0
 10
-0.3099291338582677
 20
0.015
 30
0.0
 10
-0.3074291338582678
 20
0.010751968503937
 30
0.0
 10
-0.3074291338582678
 20
0.010751968503937
 30
0.0
 10
-0.3049291338582678
 20
0.0064724409448819
 30
0.0
 10
-0.3036771653543307
 20
0.0018622047244094
 30
0.0
 10
-0.3036771653543307
 20
-0.0031377952755906
 30
0.0
 10
-0.3036771653543307
 20
-0.0031377952755906
 30
0.0
 10
-0.3036771653543307
 20
-0.0120826771653543
 30
0.0
 10
-0.3075393700787402
 20
-0.0198307086614173
 30
0.0
 10
-0.3152322834645669
 20
-0.0263582677165354
 30
0.0
 10
-0.3152322834645669
 20
-0.0263582677165354
 30
0.0
 10
-0.3229566929133859
 20
-0.0329133858267717
 30
0.0
 10
-0.3333425196850394
 20
-0.0361653543307087
 30
0.0
 10
-0.3464015748031496
 20
-0.0361653543307087
 30
0.0
 10
-0.3464015748031496
 20
-0.0361653543307087
 30
0.0
 10
-0.3602322834645669
 20
-0.0361653543307087
 30
0.0
 10
-0.3710944881889764
 20
-0.0324724409448819
 30
0.0
 10
-0.3789566929133859
 20
-0.0251102362204724
 30
0.0
 10
-0.3789566929133859
 20
-0.0251102362204724
 30
0.0
 10
-0.3852047244094488
 20
-0.0191929133858268
 30
0.0
 10
-0.3883149606299213
 20
-0.0125
 30
0.0
 10
-0.3883149606299213
 20
-0.005
 30
0.0
 10
-0.3883149606299213
 20
-0.005
 30
0.0
 10
-0.3883149606299213
 20
0.0010275590551181
 30
0.0
 10
-0.3862047244094488
 20
0.0064173228346457
 30
0.0
 10
-0.3819842519685039
 20
0.0111968503937008
 30
0.0
 10
-0.3819842519685039
 20
0.0111968503937008
 30
0.0
 10
-0.3768700787401575
 20
0.0168897637795276
 30
0.0
 10
-0.3695944881889764
 20
0.0213346456692913
 30
0.0
 10
-0.3601496062992126
 20
0.0245275590551181
 30
0.0
 10
-0.3601496062992126
 20
0.0245275590551181
 30
0.0
 10
-0.3675393700787402
 20
0.028
 30
0.0
 10
-0.3728425196850394
 20
0.0315275590551181
 30
0.0
 10
-0.3761220472440945
 20
0.0351141732283465
 30
0.0
 10
-0.3761220472440945
 20
0.0351141732283465
 30
0.0
 10
-0.3802874015748032
 20
0.0398346456692913
 30
0.0
 10
-0.3823700787401575
 20
0.0455
 30
0.0
 10
-0.3823700787401575
 20
0.0521102362204724
 30
0.0
 10
-0.3823700787401575
 20
0.0521102362204724
 30
0.0
 10
-0.3823700787401575
 20
0.0603070866141732
 30
0.0
 10
-0.3792874015748032
 20
0.0669448818897638
 30
0.0
 10
-0.3730944881889764
 20
0.0719724409448819
 30
0.0
 10
-0.3730944881889764
 20
0.0719724409448819
 30
0.0
 10
-0.3655118110236221
 20
0.0781692913385827
 30
0.0
 10
-0.3560118110236221
 20
0.081251968503937
 30
0.0
 10
-0.3446220472440945
 20
0.081251968503937
 30
0.0
 10
-0.3446220472440945
 20
0.081251968503937
 30
0.0
 10
-0.3342047244094488
 20
0.081251968503937
 30
0.0
 10
-0.3257874015748032
 20
0.0785826771653543
 30
0.0
 10
-0.3193425196850394
 20
0.073251968503937
 30
0.0
 10
-0.3193425196850394
 20
0.073251968503937
 30
0.0
 10
-0.3129291338582677
 20
0.0678897637795276
 30
0.0
 10
-0.3097047244094489
 20
0.0617795275590551
 30
0.0
 10
-0.3097047244094489
 20
0.0548897637795276
 30
0.0
 10
-0.3097047244094489
 20
0.0548897637795276
 30
0.0
 10
-0.3097047244094489
 20
0.0514724409448819
 30
0.0
 10
-0.3105118110236221
 20
0.0481968503937008
 30
0.0
 10
-0.3120944881889764
 20
0.0450826771653543
 30
0.0
 10
-0.3120944881889764
 20
0.0450826771653543
 30
0.0
 10
-0.3137047244094489
 20
0.0419724409448819
 30
0.0
 10
-0.3161496062992126
 20
0.0390551181102362
 30
0.0
 10
-0.3194842519685039
 20
0.0363897637795276
 30
0.0
 10
-0.3194842519685039
 20
0.0363897637795276
 30
0.0
 10
-0.3227874015748032
 20
0.0336968503937008
 30
0.0
 10
-0.3273740157480315
 20
0.0311692913385827
 30
0.0
 10
-0.333232283464567
 20
0.0287795275590551
 30
0.0
  0
SPLINE
  5
3E
330
1F
100
AcDbEntity
  8
P1-Layer 1
 62
   250
100
AcDbSpline
210
0.0
220
0.0
230
1.0
 70
    11
 71
     3
 72
    48
 73
    44
 74
     0
 42
0.0000000001
 43
0.0000000001
 40
0.0
 40
0.0
 40
0.0
 40
0.0
 40
0.0909090909090909
 40
0.0909090909090909
 40
0.0909090909090909
 40
0.0909090909090909
 40
0.1818181818181818
 40
0.1818181818181818
 40
0.1818181818181818
 40
0.1818181818181818
 40
0.2727272727272727
 40
0.2727272727272727
 40
0.2727272727272727
 40
0.2727272727272727
 40
0.3636363636363637
 40
0.3636363636363637
 40
0.3636363636363637
 40
0.3636363636363637
 40
0.4545454545454546
 40
0.4545454545454546
 40
0.4545454545454546
 40
0.4545454545454546
 40
0.5454545454545455
 40
0.5454545454545455
 40
0.5454545454545455
 40
0.5454545454545455
 40
0.6363636363636365
 40
0.6363636363636365
 40
0.6363636363636365
 40
0.6363636363636365
 40
0.7272727272727274
 40
0.7272727272727274
 40
0.7272727272727274
 40
0.7272727272727274
 40
0.8181818181818183
 40
0.8181818181818183
 40
0.8181818181818183
 40
0.8181818181818183
 40
0.9090909090909093
 40
0.9090909090909093
 40
0.9090909090909093
 40
0.9090909090909093
 40
1.0
 40
1.0
 40
1.0
 40
1.0
 10
-0.3406220472440945
 20
0.0317795275590551
 30
0.0
 10
-0.3344566929133859
 20
0.0364448818897638
 30
0.0
 10
-0.3304291338582677
 20
0.0396968503937008
 30
0.0
 10
-0.3285944881889764
 20
0.0415551181102362
 30
0.0
 10
-0.3285944881889764
 20
0.0415551181102362
 30
0.0
 10
-0.326732283464567
 20
0.0433897637795276
 30
0.0
 10
-0.3253149606299213
 20
0.0455
 30
0.0
 10
-0.3243149606299213
 20
0.0478622047244094
 30
0.0
 10
-0.3243149606299213
 20
0.0478622047244094
 30
0.0
 10
-0.3233149606299213
 20
0.0502244094488189
 30
0.0
 10
-0.3228149606299213
 20
0.0525
 30
0.0
 10
-0.3228149606299213
 20
0.0547244094488189
 30
0.0
 10
-0.3228149606299213
 20
0.0547244094488189
 30
0.0
 10
-0.3228149606299213
 20
0.0579173228346457
 30
0.0
 10
-0.323759842519685
 20
0.0609724409448819
 30
0.0
 10
-0.3256496062992126
 20
0.0638897637795276
 30
0.0
 10
-0.3256496062992126
 20
0.0638897637795276
 30
0.0
 10
-0.3275669291338583
 20
0.0667795275590551
 30
0.0
 10
-0.3303425196850394
 20
0.0691417322834646
 30
0.0
 10
-0.334011811023622
 20
0.0709173228346457
 30
0.0
 10
-0.334011811023622
 20
0.0709173228346457
 30
0.0
 10
-0.3376496062992126
 20
0.0727244094488189
 30
0.0
 10
-0.3417598425196851
 20
0.0736102362204724
 30
0.0
 10
-0.3463149606299213
 20
0.0736102362204724
 30
0.0
 10
-0.3463149606299213
 20
0.0736102362204724
 30
0.0
 10
-0.3530669291338583
 20
0.0736102362204724
 30
0.0
 10
-0.3586496062992126
 20
0.071751968503937
 30
0.0
 10
-0.3630944881889764
 20
0.0680275590551181
 30
0.0
 10
-0.3630944881889764
 20
0.0680275590551181
 30
0.0
 10
-0.3675393700787402
 20
0.0643070866141732
 30
0.0
 10
-0.3697598425196851
 20
0.0600275590551181
 30
0.0
 10
-0.3697598425196851
 20
0.0551417322834646
 30
0.0
 10
-0.3697598425196851
 20
0.0551417322834646
 30
0.0
 10
-0.3697598425196851
 20
0.0512244094488189
 30
0.0
 10
-0.3683700787401575
 20
0.0477244094488189
 30
0.0
 10
-0.3656220472440945
 20
0.0446417322834646
 30
0.0
 10
-0.3656220472440945
 20
0.0446417322834646
 30
0.0
 10
-0.3628425196850394
 20
0.0415551181102362
 30
0.0
 10
-0.3577047244094488
 20
0.0385
 30
0.0
 10
-0.3501496062992126
 20
0.0355275590551181
 30
0.0
 10
-0.3501496062992126
 20
0.0355275590551181
 30
0.0
 10
-0.3501496062992126
 20
0.0355275590551181
 30
0.0
 10
-0.3406220472440945
 20
0.0317795275590551
 30
0.0
 10
-0.3406220472440945
 20
0.0317795275590551
 30
0.0
  0
SPLINE
  5
3F
330
1F
100
AcDbEntity
  8
P1-Layer 1
 62
   250
100
AcDbSpline
210
0.0
220
0.0
230
1.0
 70
    11
 71
     3
 72
    40
 73
    36
 74
     0
 42
0.0000000001
 43
0.0000000001
 40
0.0
 40
0.0
 40
0.0
 40
0.0
 40
0.1111111111111111
 40
0.1111111111111111
 40
0.1111111111111111
 40
0.1111111111111111
 40
0.2222222222222222
 40
0.2222222222222222
 40
0.2222222222222222
 40
0.2222222222222222
 40
0.3333333333333333
 40
0.3333333333333333
 40
0.3333333333333333
 40
0.3333333333333333
 40
0.4444444444444444
 40
0.4444444444444444
 40
0.4444444444444444
 40
0.4444444444444444
 40
0.5555555555555556
 40
0.5555555555555556
 40
0.5555555555555556
 40
0.5555555555555556
 40
0.6666666666666667
 40
0.6666666666666667
 40
0.6666666666666667
 40
0.6666666666666667
 40
0.7777777777777779
 40
0.7777777777777779
 40
0.7777777777777779
 40
0.7777777777777779
 40
0.8888888888888891
 40
0.8888888888888891
 40
0.8888888888888891
 40
0.8888888888888891
 40
1.0
 40
1.0
 40
1.0
 40
1.0
 10
-0.3520944881889764
 20
0.0213622047244094
 30
0.0
 10
-0.3597598425196851
 20
0.018
 30
0.0
 10
-0.3658149606299213
 20
0.0136417322834646
 30
0.0
 10
-0.3702598425196851
 20
0.008251968503937
 30
0.0
 10
-0.3702598425196851
 20
0.008251968503937
 30
0.0
 10
-0.3737322834645669
 20
0.0040275590551181
 30
0.0
 10
-0.3754566929133859
 20
-0.0003582677165354
 30
0.0
 10
-0.3754566929133859
 20
-0.0049133858267717
 30
0.0
 10
-0.3754566929133859
 20
-0.0049133858267717
 30
0.0
 10
-0.3754566929133859
 20
-0.0111102362204724
 30
0.0
 10
-0.3727322834645669
 20
-0.0166102362204724
 30
0.0
 10
-0.3672322834645669
 20
-0.0214133858267717
 30
0.0
 10
-0.3672322834645669
 20
-0.0214133858267717
 30
0.0
 10
-0.3617598425196851
 20
-0.0261929133858268
 30
0.0
 10
-0.3546771653543308
 20
-0.0286102362204724
 30
0.0
 10
-0.3460118110236221
 20
-0.0286102362204724
 30
0.0
 10
-0.3460118110236221
 20
-0.0286102362204724
 30
0.0
 10
-0.3371496062992126
 20
-0.0286102362204724
 30
0.0
 10
-0.3297874015748032
 20
-0.0258582677165354
 30
0.0
 10
-0.3238740157480315
 20
-0.0203858267716535
 30
0.0
 10
-0.3238740157480315
 20
-0.0203858267716535
 30
0.0
 10
-0.3190393700787402
 20
-0.0159409448818898
 30
0.0
 10
-0.3166220472440945
 20
-0.0111653543307087
 30
0.0
 10
-0.3166220472440945
 20
-0.0060551181102362
 30
0.0
 10
-0.3166220472440945
 20
-0.0060551181102362
 30
0.0
 10
-0.3166220472440945
 20
-0.0020551181102362
 30
0.0
 10
-0.3182047244094489
 20
0.0017795275590551
 30
0.0
 10
-0.3213740157480315
 20
0.0054448818897638
 30
0.0
 10
-0.3213740157480315
 20
0.0054448818897638
 30
0.0
 10
-0.3245669291338583
 20
0.0091141732283465
 30
0.0
 10
-0.3304566929133859
 20
0.0126692913385827
 30
0.0
 10
-0.3390944881889764
 20
0.0161417322834646
 30
0.0
 10
-0.3390944881889764
 20
0.0161417322834646
 30
0.0
 10
-0.3390944881889764
 20
0.0161417322834646
 30
0.0
 10
-0.3520944881889764
 20
0.0213622047244094
 30
0.0
 10
-0.3520944881889764
 20
0.0213622047244094
 30
0.0
  0
SPLINE
  5
40
330
1F
100
AcDbEntity
  8
P1-Layer 1
 62
   250
100
AcDbSpline
210
0.0
220
0.0
230
1.0
 70
    11
 71
     3
 72
    60
 73
    56
 74
     0
 42
0.0000000001
 43
0.0000000001
 40
0.0
 40
0.0
 40
0.0
 40
0.0
 40
0.0714285714285714
 40
0.0714285714285714
 40
0.0714285714285714
 40
0.0714285714285714
 40
0.1428571428571429
 40
0.1428571428571429
 40
0.1428571428571429
 40
0.1428571428571429
 40
0.2142857142857143
 40
0.2142857142857143
 40
0.2142857142857143
 40
0.2142857142857143
 40
0.2857142857142857
 40
0.2857142857142857
 40
0.2857142857142857
 40
0.2857142857142857
 40
0.3571428571428571
 40
0.3571428571428571
 40
0.3571428571428571
 40
0.3571428571428571
 40
0.4285714285714285
 40
0.4285714285714285
 40
0.4285714285714285
 40
0.4285714285714285
 40
0.4999999999999999
 40
0.4999999999999999
 40
0.4999999999999999
 40
0.4999999999999999
 40
0.5714285714285713
 40
0.5714285714285713
 40
0.5714285714285713
 40
0.5714285714285713
 40
0.6428571428571427
 40
0.6428571428571427
 40
0.6428571428571427
 40
0.6428571428571427
 40
0.7142857142857141
 40
0.7142857142857141
 40
0.7142857142857141
 40
0.7142857142857141
 40
0.7857142857142855
 40
0.7857142857142855
 40
0.7857142857142855
 40
0.7857142857142855
 40
0.8571428571428569
 40
0.8571428571428569
 40
0.8571428571428569
 40
0.8571428571428569
 40
0.9285714285714283
 40
0.9285714285714283
 40
0.9285714285714283
 40
0.9285714285714283
 40
1.0
 40
1.0
 40
1.0
 40
1.0
 10
-0.2842322834645669
 20
0.0372244094488189
 30
0.0
 10
-0.2842322834645669
 20
0.0372244094488189
 30
0.0
 10
-0.2886220472440945
 20
0.0426141732283465
 30
0.0
 10
-0.2886220472440945
 20
0.0426141732283465
 30
0.0
 10
-0.2886220472440945
 20
0.0426141732283465
 30
0.0
 10
-0.2775078740157481
 20
0.0516692913385827
 30
0.0
 10
-0.2719251968503937
 20
0.0592244094488189
 30
0.0
 10
-0.2719251968503937
 20
0.0653070866141732
 30
0.0
 10
-0.2719251968503937
 20
0.0653070866141732
 30
0.0
 10
-0.2719251968503937
 20
0.066
 30
0.0
 10
-0.2719803149606299
 20
0.0668897637795276
 30
0.0
 10
-0.2720944881889764
 20
0.0679173228346457
 30
0.0
 10
-0.2720944881889764
 20
0.0679173228346457
 30
0.0
 10
-0.2730078740157481
 20
0.0675275590551181
 30
0.0
 10
-0.2739251968503937
 20
0.0672244094488189
 30
0.0
 10
-0.2747874015748031
 20
0.0670275590551181
 30
0.0
 10
-0.2747874015748031
 20
0.0670275590551181
 30
0.0
 10
-0.2756496062992126
 20
0.0668070866141732
 30
0.0
 10
-0.2764527559055118
 20
0.0666968503937008
 30
0.0
 10
-0.277232283464567
 20
0.0666968503937008
 30
0.0
 10
-0.277232283464567
 20
0.0666968503937008
 30
0.0
 10
-0.2798425196850394
 20
0.0666968503937008
 30
0.0
 10
-0.2819251968503937
 20
0.0675275590551181
 30
0.0
 10
-0.2834803149606299
 20
0.0692244094488189
 30
0.0
 10
-0.2834803149606299
 20
0.0692244094488189
 30
0.0
 10
-0.2850669291338583
 20
0.0708897637795276
 30
0.0
 10
-0.2858425196850394
 20
0.0730275590551181
 30
0.0
 10
-0.2858425196850394
 20
0.0756417322834646
 30
0.0
 10
-0.2858425196850394
 20
0.0756417322834646
 30
0.0
 10
-0.2858425196850394
 20
0.0781968503937008
 30
0.0
 10
-0.2848976377952756
 20
0.0804173228346457
 30
0.0
 10
-0.2830078740157481
 20
0.0823070866141732
 30
0.0
 10
-0.2830078740157481
 20
0.0823070866141732
 30
0.0
 10
-0.2810944881889764
 20
0.0842244094488189
 30
0.0
 10
-0.2788149606299213
 20
0.0851692913385827
 30
0.0
 10
-0.2761771653543307
 20
0.0851692913385827
 30
0.0
 10
-0.2761771653543307
 20
0.0851692913385827
 30
0.0
 10
-0.2724803149606299
 20
0.0851692913385827
 30
0.0
 10
-0.2693149606299213
 20
0.0836968503937008
 30
0.0
 10
-0.2666771653543307
 20
0.0807244094488189
 30
0.0
 10
-0.2666771653543307
 20
0.0807244094488189
 30
0.0
 10
-0.2640669291338583
 20
0.0777795275590551
 30
0.0
 10
-0.262732283464567
 20
0.0739724409448819
 30
0.0
 10
-0.262732283464567
 20
0.0693070866141732
 30
0.0
 10
-0.262732283464567
 20
0.0693070866141732
 30
0.0
 10
-0.262732283464567
 20
0.066251968503937
 30
0.0
 10
-0.2633700787401575
 20
0.0630551181102362
 30
0.0
 10
-0.2646220472440945
 20
0.0597244094488189
 30
0.0
 10
-0.2646220472440945
 20
0.0597244094488189
 30
0.0
 10
-0.2658700787401575
 20
0.0563897637795276
 30
0.0
 10
-0.2676771653543307
 20
0.0533070866141732
 30
0.0
 10
-0.2700669291338583
 20
0.0504448818897638
 30
0.0
 10
-0.2700669291338583
 20
0.0504448818897638
 30
0.0
 10
-0.2724527559055118
 20
0.0476141732283465
 30
0.0
 10
-0.2771771653543307
 20
0.0431968503937008
 30
0.0
 10
-0.2842322834645669
 20
0.0372244094488189
 30
0.0
  0
SPLINE
  5
41
330
1F
100
AcDbEntity
  8
P1-Layer 1
 62
   250
100
AcDbSpline
210
0.0
220
0.0
230
1.0
 70
    11
 71
     3
 72
    60
 73
    56
 74
     0
 42
0.0000000001
 43
0.0000000001
 40
0.0
 40
0.0
 40
0.0
 40
0.0
 40
0.0714285714285714
 40
0.0714285714285714
 40
0.0714285714285714
 40
0.0714285714285714
 40
0.1428571428571429
 40
0.1428571428571429
 40
0.1428571428571429
 40
0.1428571428571429
 40
0.2142857142857143
 40
0.2142857142857143
 40
0.2142857142857143
 40
0.2142857142857143
 40
0.2857142857142857
 40
0.2857142857142857
 40
0.2857142857142857
 40
0.2857142857142857
 40
0.3571428571428571
 40
0.3571428571428571
 40
0.3571428571428571
 40
0.3571428571428571
 40
0.4285714285714285
 40
0.4285714285714285
 40
0.4285714285714285
 40
0.4285714285714285
 40
0.4999999999999999
 40
0.4999999999999999
 40
0.4999999999999999
 40
0.4999999999999999
 40
0.5714285714285713
 40
0.5714285714285713
 40
0.5714285714285713
 40
0.5714285714285713
 40
0.6428571428571427
 40
0.6428571428571427
 40
0.6428571428571427
 40
0.6428571428571427
 40
0.7142857142857141
 40
0.7142857142857141
 40
0.7142857142857141
 40
0.7142857142857141
 40
0.7857142857142855
 40
0.7857142857142855
 40
0.7857142857142855
 40
0.7857142857142855
 40
0.8571428571428569
 40
0.8571428571428569
 40
0.8571428571428569
 40
0.8571428571428569
 40
0.9285714285714283
 40
0.9285714285714283
 40
0.9285714285714283
 40
0.9285714285714283
 40
1.0
 40
1.0
 40
1.0
 40
1.0
 10
-0.2551771653543307
 20
0.0372244094488189
 30
0.0
 10
-0.2551771653543307
 20
0.0372244094488189
 30
0.0
 10
-0.2595669291338583
 20
0.0426141732283465
 30
0.0
 10
-0.2595669291338583
 20
0.0426141732283465
 30
0.0
 10
-0.2595669291338583
 20
0.0426141732283465
 30
0.0
 10
-0.2484527559055118
 20
0.0516692913385827
 30
0.0
 10
-0.2428700787401575
 20
0.0592244094488189
 30
0.0
 10
-0.2428700787401575
 20
0.0653070866141732
 30
0.0
 10
-0.2428700787401575
 20
0.0653070866141732
 30
0.0
 10
-0.2428700787401575
 20
0.066
 30
0.0
 10
-0.2429251968503937
 20
0.0668897637795276
 30
0.0
 10
-0.2430393700787402
 20
0.0679173228346457
 30
0.0
 10
-0.2430393700787402
 20
0.0679173228346457
 30
0.0
 10
-0.2439527559055118
 20
0.0675275590551181
 30
0.0
 10
-0.2448700787401575
 20
0.0672244094488189
 30
0.0
 10
-0.2457322834645669
 20
0.0670275590551181
 30
0.0
 10
-0.2457322834645669
 20
0.0670275590551181
 30
0.0
 10
-0.2465944881889764
 20
0.0668070866141732
 30
0.0
 10
-0.2474251968503937
 20
0.0666968503937008
 30
0.0
 10
-0.2482598425196851
 20
0.0666968503937008
 30
0.0
 10
-0.2482598425196851
 20
0.0666968503937008
 30
0.0
 10
-0.2508149606299213
 20
0.0666968503937008
 30
0.0
 10
-0.2528700787401575
 20
0.0675275590551181
 30
0.0
 10
-0.2544251968503937
 20
0.0692244094488189
 30
0.0
 10
-0.2544251968503937
 20
0.0692244094488189
 30
0.0
 10
-0.256007874015748
 20
0.0708897637795276
 30
0.0
 10
-0.2567874015748032
 20
0.0730275590551181
 30
0.0
 10
-0.2567874015748032
 20
0.0756417322834646
 30
0.0
 10
-0.2567874015748032
 20
0.0756417322834646
 30
0.0
 10
-0.2567874015748032
 20
0.0781968503937008
 30
0.0
 10
-0.2558425196850394
 20
0.0804173228346457
 30
0.0
 10
-0.2539527559055118
 20
0.0823070866141732
 30
0.0
 10
-0.2539527559055118
 20
0.0823070866141732
 30
0.0
 10
-0.2520669291338583
 20
0.0842244094488189
 30
0.0
 10
-0.2497598425196851
 20
0.0851692913385827
 30
0.0
 10
-0.2471220472440945
 20
0.0851692913385827
 30
0.0
 10
-0.2471220472440945
 20
0.0851692913385827
 30
0.0
 10
-0.2434251968503937
 20
0.0851692913385827
 30
0.0
 10
-0.2402598425196851
 20
0.0836968503937008
 30
0.0
 10
-0.2376220472440945
 20
0.0807244094488189
 30
0.0
 10
-0.2376220472440945
 20
0.0807244094488189
 30
0.0
 10
-0.2350118110236221
 20
0.0777795275590551
 30
0.0
 10
-0.2336771653543307
 20
0.0739724409448819
 30
0.0
 10
-0.2336771653543307
 20
0.0693070866141732
 30
0.0
 10
-0.2336771653543307
 20
0.0693070866141732
 30
0.0
 10
-0.2336771653543307
 20
0.066251968503937
 30
0.0
 10
-0.2343149606299213
 20
0.0630551181102362
 30
0.0
 10
-0.2355669291338583
 20
0.0597244094488189
 30
0.0
 10
-0.2355669291338583
 20
0.0597244094488189
 30
0.0
 10
-0.2368149606299213
 20
0.0563897637795276
 30
0.0
 10
-0.2386220472440945
 20
0.0533070866141732
 30
0.0
 10
-0.2410078740157481
 20
0.0504448818897638
 30
0.0
 10
-0.2410078740157481
 20
0.0504448818897638
 30
0.0
 10
-0.2433976377952756
 20
0.0476141732283465
 30
0.0
 10
-0.2481220472440945
 20
0.0431968503937008
 30
0.0
 10
-0.2551771653543307
 20
0.0372244094488189
 30
0.0
  0
SPLINE
  5
42
330
1F
100
AcDbEntity
  8
P1-Layer 1
 62
   250
100
AcDbSpline
210
0.0
220
0.0
230
1.0
 70
    11
 71
     3
 72
   204
 73
   200
 74
     0
 42
0.0000000001
 43
0.0000000001
 40
0.0
 40
0.0
 40
0.0
 40
0.0
 40
0.02
 40
0.02
 40
0.02
 40
0.02
 40
0.04
 40
0.04
 40
0.04
 40
0.04
 40
0.06
 40
0.06
 40
0.06
 40
0.06
 40
0.08
 40
0.08
 40
0.08
 40
0.08
 40
0.1
 40
0.1
 40
0.1
 40
0.1
 40
0.12
 40
0.12
 40
0.12
 40
0.12
 40
0.14
 40
0.14
 40
0.14
 40
0.14
 40
0.16
 40
0.16
 40
0.16
 40
0.16
 40
0.18
 40
0.18
 40
0.18
 40
0.18
 40
0.2
 40
0.2
 40
0.2
 40
0.2
 40
0.22
 40
0.22
 40
0.22
 40
0.22
 40
0.24
 40
0.24
 40
0.24
 40
0.24
 40
0.26
 40
0.26
 40
0.26
 40
0.26
 40
0.28
 40
0.28
 40
0.28
 40
0.28
 40
0.3
 40
0.3
 40
0.3
 40
0.3
 40
0.32
 40
0.32
 40
0.32
 40
0.32
 40
0.34
 40
0.34
 40
0.34
 40
0.34
 40
0.36
 40
0.36
 40
0.36
 40
0.36
 40
0.3800000000000001
 40
0.3800000000000001
 40
0.3800000000000001
 40
0.3800000000000001
 40
0.4000000000000001
 40
0.4000000000000001
 40
0.4000000000000001
 40
0.4000000000000001
 40
0.4200000000000001
 40
0.4200000000000001
 40
0.4200000000000001
 40
0.4200000000000001
 40
0.4400000000000001
 40
0.4400000000000001
 40
0.4400000000000001
 40
0.4400000000000001
 40
0.4600000000000001
 40
0.4600000000000001
 40
0.4600000000000001
 40
0.4600000000000001
 40
0.4800000000000002
 40
0.4800000000000002
 40
0.4800000000000002
 40
0.4800000000000002
 40
0.5000000000000001
 40
0.5000000000000001
 40
0.5000000000000001
 40
0.5000000000000001
 40
0.5200000000000001
 40
0.5200000000000001
 40
0.5200000000000001
 40
0.5200000000000001
 40
0.5400000000000002
 40
0.5400000000000002
 40
0.5400000000000002
 40
0.5400000000000002
 40
0.5600000000000002
 40
0.5600000000000002
 40
0.5600000000000002
 40
0.5600000000000002
 40
0.5800000000000002
 40
0.5800000000000002
 40
0.5800000000000002
 40
0.5800000000000002
 40
0.6000000000000002
 40
0.6000000000000002
 40
0.6000000000000002
 40
0.6000000000000002
 40
0.6200000000000002
 40
0.6200000000000002
 40
0.6200000000000002
 40
0.6200000000000002
 40
0.6400000000000002
 40
0.6400000000000002
 40
0.6400000000000002
 40
0.6400000000000002
 40
0.6600000000000003
 40
0.6600000000000003
 40
0.6600000000000003
 40
0.6600000000000003
 40
0.6800000000000003
 40
0.6800000000000003
 40
0.6800000000000003
 40
0.6800000000000003
 40
0.7000000000000003
 40
0.7000000000000003
 40
0.7000000000000003
 40
0.7000000000000003
 40
0.7200000000000003
 40
0.7200000000000003
 40
0.7200000000000003
 40
0.7200000000000003
 40
0.7400000000000003
 40
0.7400000000000003
 40
0.7400000000000003
 40
0.7400000000000003
 40
0.7600000000000003
 40
0.7600000000000003
 40
0.7600000000000003
 40
0.7600000000000003
 40
0.7800000000000004
 40
0.7800000000000004
 40
0.7800000000000004
 40
0.7800000000000004
 40
0.8000000000000004
 40
0.8000000000000004
 40
0.8000000000000004
 40
0.8000000000000004
 40
0.8200000000000004
 40
0.8200000000000004
 40
0.8200000000000004
 40
0.8200000000000004
 40
0.8400000000000004
 40
0.8400000000000004
 40
0.8400000000000004
 40
0.8400000000000004
 40
0.8600000000000004
 40
0.8600000000000004
 40
0.8600000000000004
 40
0.8600000000000004
 40
0.8800000000000005
 40
0.8800000000000005
 40
0.8800000000000005
 40
0.8800000000000005
 40
0.9000000000000005
 40
0.9000000000000005
 40
0.9000000000000005
 40
0.9000000000000005
 40
0.9200000000000005
 40
0.9200000000000005
 40
0.9200000000000005
 40
0.9200000000000005
 40
0.9400000000000005
 40
0.9400000000000005
 40
0.9400000000000005
 40
0.9400000000000005
 40
0.9600000000000005
 40
0.9600000000000005
 40
0.9600000000000005
 40
0.9600000000000005
 40
0.9800000000000005
 40
0.9800000000000005
 40
0.9800000000000005
 40
0.9800000000000005
 40
1.0
 40
1.0
 40
1.0
 40
1.0
 10
-0.1713700787401575
 20
0.0443070866141732
 30
0.0
 10
-0.1713700787401575
 20
0.0443070866141732
 30
0.0
 10
-0.1304251968503937
 20
0.0443070866141732
 30
0.0
 10
-0.1304251968503937
 20
0.0443070866141732
 30
0.0
 10
-0.1304251968503937
 20
0.0443070866141732
 30
0.0
 10
-0.1304251968503937
 20
0.0443070866141732
 30
0.0
 10
-0.1304251968503937
 20
0.0374724409448819
 30
0.0
 10
-0.1304251968503937
 20
0.0374724409448819
 30
0.0
 10
-0.1304251968503937
 20
0.0374724409448819
 30
0.0
 10
-0.1304251968503937
 20
0.0374724409448819
 30
0.0
 10
-0.133259842519685
 20
0.0374724409448819
 30
0.0
 10
-0.133259842519685
 20
0.0374724409448819
 30
0.0
 10
-0.133259842519685
 20
0.0374724409448819
 30
0.0
 10
-0.1348976377952756
 20
0.0374724409448819
 30
0.0
 10
-0.1363976377952756
 20
0.0372795275590551
 30
0.0
 10
-0.137759842519685
 20
0.0369173228346457
 30
0.0
 10
-0.137759842519685
 20
0.0369173228346457
 30
0.0
 10
-0.1385629921259843
 20
0.0366968503937008
 30
0.0
 10
-0.1392322834645669
 20
0.0362795275590551
 30
0.0
 10
-0.1397322834645669
 20
0.0356417322834646
 30
0.0
 10
-0.1397322834645669
 20
0.0356417322834646
 30
0.0
 10
-0.140259842519685
 20
0.0350275590551181
 30
0.0
 10
-0.1405078740157481
 20
0.0344448818897638
 30
0.0
 10
-0.1405078740157481
 20
0.0338897637795276
 30
0.0
 10
-0.1405078740157481
 20
0.0338897637795276
 30
0.0
 10
-0.1405078740157481
 20
0.0326417322834646
 30
0.0
 10
-0.1394803149606299
 20
0.0307795275590551
 30
0.0
 10
-0.1374251968503937
 20
0.0282795275590551
 30
0.0
 10
-0.1374251968503937
 20
0.0282795275590551
 30
0.0
 10
-0.1374251968503937
 20
0.0282795275590551
 30
0.0
 10
-0.1257874015748031
 20
0.0136417322834646
 30
0.0
 10
-0.1257874015748031
 20
0.0136417322834646
 30
0.0
 10
-0.1257874015748031
 20
0.0136417322834646
 30
0.0
 10
-0.1257874015748031
 20
0.0136417322834646
 30
0.0
 10
-0.1122047244094488
 20
0.0282795275590551
 30
0.0
 10
-0.1122047244094488
 20
0.0282795275590551
 30
0.0
 10
-0.1122047244094488
 20
0.0282795275590551
 30
0.0
 10
-0.1097047244094488
 20
0.031
 30
0.0
 10
-0.1084527559055118
 20
0.0330275590551181
 30
0.0
 10
-0.1084527559055118
 20
0.0343897637795276
 30
0.0
 10
-0.1084527559055118
 20
0.0343897637795276
 30
0.0
 10
-0.1084527559055118
 20
0.0353622047244095
 30
0.0
 10
-0.1088976377952756
 20
0.0361141732283465
 30
0.0
 10
-0.109759842519685
 20
0.0366692913385827
 30
0.0
 10
-0.109759842519685
 20
0.0366692913385827
 30
0.0
 10
-0.1106220472440945
 20
0.0371968503937008
 30
0.0
 10
-0.1124803149606299
 20
0.0374724409448819
 30
0.0
 10
-0.1153700787401575
 20
0.0374724409448819
 30
0.0
 10
-0.1153700787401575
 20
0.0374724409448819
 30
0.0
 10
-0.1153700787401575
 20
0.0374724409448819
 30
0.0
 10
-0.1184527559055118
 20
0.0374724409448819
 30
0.0
 10
-0.1184527559055118
 20
0.0374724409448819
 30
0.0
 10
-0.1184527559055118
 20
0.0374724409448819
 30
0.0
 10
-0.1184527559055118
 20
0.0374724409448819
 30
0.0
 10
-0.1184527559055118
 20
0.0443070866141732
 30
0.0
 10
-0.1184527559055118
 20
0.0443070866141732
 30
0.0
 10
-0.1184527559055118
 20
0.0443070866141732
 30
0.0
 10
-0.1184527559055118
 20
0.0443070866141732
 30
0.0
 10
-0.0837047244094488
 20
0.0443070866141732
 30
0.0
 10
-0.0837047244094488
 20
0.0443070866141732
 30
0.0
 10
-0.0837047244094488
 20
0.0443070866141732
 30
0.0
 10
-0.0837047244094488
 20
0.0443070866141732
 30
0.0
 10
-0.0837047244094488
 20
0.0374724409448819
 30
0.0
 10
-0.0837047244094488
 20
0.0374724409448819
 30
0.0
 10
-0.0837047244094488
 20
0.0374724409448819
 30
0.0
 10
-0.0871220472440945
 20
0.0373070866141732
 30
0.0
 10
-0.0900669291338583
 20
0.0366141732283465
 30
0.0
 10
-0.0925354330708661
 20
0.0353622047244095
 30
0.0
 10
-0.0925354330708661
 20
0.0353622047244095
 30
0.0
 10
-0.095007874015748
 20
0.0341141732283465
 30
0.0
 10
-0.0979251968503937
 20
0.031751968503937
 30
0.0
 10
-0.1012874015748032
 20
0.0282795275590551
 30
0.0
 10
-0.1012874015748032
 20
0.0282795275590551
 30
0.0
 10
-0.1012874015748032
 20
0.0282795275590551
 30
0.0
 10
-0.1199251968503937
 20
0.0089173228346457
 30
0.0
 10
-0.1199251968503937
 20
0.0089173228346457
 30
0.0
 10
-0.1199251968503937
 20
0.0089173228346457
 30
0.0
 10
-0.1199251968503937
 20
0.0089173228346457
 30
0.0
 10
-0.0967322834645669
 20
-0.0175275590551181
 30
0.0
 10
-0.0967322834645669
 20
-0.0175275590551181
 30
0.0
 10
-0.0967322834645669
 20
-0.0175275590551181
 30
0.0
 10
-0.0967322834645669
 20
-0.0175275590551181
 30
0.0
 10
-0.0958425196850394
 20
-0.0186653543307087
 30
0.0
 10
-0.0958425196850394
 20
-0.0186653543307087
 30
0.0
 10
-0.0958425196850394
 20
-0.0186653543307087
 30
0.0
 10
-0.0935669291338583
 20
-0.0216102362204724
 30
0.0
 10
-0.091007874015748
 20
-0.0239724409448819
 30
0.0
 10
-0.0881771653543307
 20
-0.025748031496063
 30
0.0
 10
-0.0881771653543307
 20
-0.025748031496063
 30
0.0
 10
-0.0866220472440945
 20
-0.0267755905511811
 30
0.0
 10
-0.0841771653543307
 20
-0.0273307086614173
 30
0.0
 10
-0.0808700787401575
 20
-0.0273858267716535
 30
0.0
 10
-0.0808700787401575
 20
-0.0273858267716535
 30
0.0
 10
-0.0808700787401575
 20
-0.0273858267716535
 30
0.0
 10
-0.0808700787401575
 20
-0.0342204724409449
 30
0.0
 10
-0.0808700787401575
 20
-0.0342204724409449
 30
0.0
 10
-0.0808700787401575
 20
-0.0342204724409449
 30
0.0
 10
-0.0808700787401575
 20
-0.0342204724409449
 30
0.0
 10
-0.1208149606299213
 20
-0.0342204724409449
 30
0.0
 10
-0.1208149606299213
 20
-0.0342204724409449
 30
0.0
 10
-0.1208149606299213
 20
-0.0342204724409449
 30
0.0
 10
-0.1208149606299213
 20
-0.0342204724409449
 30
0.0
 10
-0.1208149606299213
 20
-0.0273858267716535
 30
0.0
 10
-0.1208149606299213
 20
-0.0273858267716535
 30
0.0
 10
-0.1208149606299213
 20
-0.0273858267716535
 30
0.0
 10
-0.1208149606299213
 20
-0.0273858267716535
 30
0.0
 10
-0.1173976377952756
 20
-0.0273858267716535
 30
0.0
 10
-0.1173976377952756
 20
-0.0273858267716535
 30
0.0
 10
-0.1173976377952756
 20
-0.0273858267716535
 30
0.0
 10
-0.1147874015748032
 20
-0.0273858267716535
 30
0.0
 10
-0.1131496062992126
 20
-0.0272204724409449
 30
0.0
 10
-0.1124251968503937
 20
-0.0268858267716535
 30
0.0
 10
-0.1124251968503937
 20
-0.0268858267716535
 30
0.0
 10
-0.111259842519685
 20
-0.0263582677165354
 30
0.0
 10
-0.1106496062992126
 20
-0.0254409448818898
 30
0.0
 10
-0.1106496062992126
 20
-0.0241377952755906
 30
0.0
 10
-0.1106496062992126
 20
-0.0241377952755906
 30
0.0
 10
-0.1106496062992126
 20
-0.0229409448818898
 30
0.0
 10
-0.1119527559055118
 20
-0.020748031496063
 30
0.0
 10
-0.1145669291338583
 20
-0.0175275590551181
 30
0.0
 10
-0.1145669291338583
 20
-0.0175275590551181
 30
0.0
 10
-0.1145669291338583
 20
-0.0175275590551181
 30
0.0
 10
-0.1293700787401575
 20
0.0006141732283465
 30
0.0
 10
-0.1293700787401575
 20
0.0006141732283465
 30
0.0
 10
-0.1293700787401575
 20
0.0006141732283465
 30
0.0
 10
-0.1293700787401575
 20
0.0006141732283465
 30
0.0
 10
-0.1458976377952756
 20
-0.0175275590551181
 30
0.0
 10
-0.1458976377952756
 20
-0.0175275590551181
 30
0.0
 10
-0.1458976377952756
 20
-0.0175275590551181
 30
0.0
 10
-0.1458976377952756
 20
-0.0175275590551181
 30
0.0
 10
-0.147507874015748
 20
-0.0195
 30
0.0
 10
-0.147507874015748
 20
-0.0195
 30
0.0
 10
-0.147507874015748
 20
-0.0195
 30
0.0
 10
-0.147507874015748
 20
-0.0195
 30
0.0
 10
-0.1483976377952756
 20
-0.0204724409448819
 30
0.0
 10
-0.1483976377952756
 20
-0.0204724409448819
 30
0.0
 10
-0.1483976377952756
 20
-0.0204724409448819
 30
0.0
 10
-0.1497598425196851
 20
-0.0219409448818898
 30
0.0
 10
-0.1504527559055118
 20
-0.0232204724409449
 30
0.0
 10
-0.1504527559055118
 20
-0.0243582677165354
 30
0.0
 10
-0.1504527559055118
 20
-0.0243582677165354
 30
0.0
 10
-0.1504527559055118
 20
-0.0254133858267717
 30
0.0
 10
-0.1500354330708661
 20
-0.0261653543307087
 30
0.0
 10
-0.1491771653543307
 20
-0.0266653543307087
 30
0.0
 10
-0.1491771653543307
 20
-0.0266653543307087
 30
0.0
 10
-0.1483425196850394
 20
-0.0271377952755906
 30
0.0
 10
-0.1464527559055118
 20
-0.0273858267716535
 30
0.0
 10
-0.1435354330708661
 20
-0.0273858267716535
 30
0.0
 10
-0.1435354330708661
 20
-0.0273858267716535
 30
0.0
 10
-0.1435354330708661
 20
-0.0273858267716535
 30
0.0
 10
-0.140259842519685
 20
-0.0273858267716535
 30
0.0
 10
-0.140259842519685
 20
-0.0273858267716535
 30
0.0
 10
-0.140259842519685
 20
-0.0273858267716535
 30
0.0
 10
-0.140259842519685
 20
-0.0273858267716535
 30
0.0
 10
-0.140259842519685
 20
-0.0342204724409449
 30
0.0
 10
-0.140259842519685
 20
-0.0342204724409449
 30
0.0
 10
-0.140259842519685
 20
-0.0342204724409449
 30
0.0
 10
-0.140259842519685
 20
-0.0342204724409449
 30
0.0
 10
-0.1745354330708661
 20
-0.0342204724409449
 30
0.0
 10
-0.1745354330708661
 20
-0.0342204724409449
 30
0.0
 10
-0.1745354330708661
 20
-0.0342204724409449
 30
0.0
 10
-0.1745354330708661
 20
-0.0342204724409449
 30
0.0
 10
-0.1745354330708661
 20
-0.0273858267716535
 30
0.0
 10
-0.1745354330708661
 20
-0.0273858267716535
 30
0.0
 10
-0.1745354330708661
 20
-0.0273858267716535
 30
0.0
 10
-0.1718700787401575
 20
-0.0273307086614173
 30
0.0
 10
-0.1697874015748032
 20
-0.0270551181102362
 30
0.0
 10
-0.168259842519685
 20
-0.0265275590551181
 30
0.0
 10
-0.168259842519685
 20
-0.0265275590551181
 30
0.0
 10
-0.166759842519685
 20
-0.0260275590551181
 30
0.0
 10
-0.1652874015748032
 20
-0.0252204724409449
 30
0.0
 10
-0.1638700787401575
 20
-0.0241377952755906
 30
0.0
 10
-0.1638700787401575
 20
-0.0241377952755906
 30
0.0
 10
-0.1614251968503937
 20
-0.0221653543307087
 30
0.0
 10
-0.1596771653543307
 20
-0.0206377952755906
 30
0.0
 10
-0.1585905511811024
 20
-0.0195
 30
0.0
 10
-0.1585905511811024
 20
-0.0195
 30
0.0
 10
-0.1585905511811024
 20
-0.0195
 30
0.0
 10
-0.1347322834645669
 20
0.005
 30
0.0
 10
-0.1347322834645669
 20
0.005
 30
0.0
 10
-0.1347322834645669
 20
0.005
 30
0.0
 10
-0.1347322834645669
 20
0.005
 30
0.0
 10
-0.155007874015748
 20
0.0282795275590551
 30
0.0
 10
-0.155007874015748
 20
0.0282795275590551
 30
0.0
 10
-0.155007874015748
 20
0.0282795275590551
 30
0.0
 10
-0.1575629921259843
 20
0.0311692913385827
 30
0.0
 10
-0.1595629921259843
 20
0.0331692913385827
 30
0.0
 10
-0.1610629921259843
 20
0.0343346456692913
 30
0.0
 10
-0.1610629921259843
 20
0.0343346456692913
 30
0.0
 10
-0.1625629921259843
 20
0.0355
 30
0.0
 10
-0.164007874015748
 20
0.0363346456692913
 30
0.0
 10
-0.1654251968503937
 20
0.0367795275590551
 30
0.0
 10
-0.1654251968503937
 20
0.0367795275590551
 30
0.0
 10
-0.1668425196850394
 20
0.037251968503937
 30
0.0
 10
-0.1688149606299213
 20
0.0374724409448819
 30
0.0
 10
-0.1713700787401575
 20
0.0374724409448819
 30
0.0
 10
-0.1713700787401575
 20
0.0374724409448819
 30
0.0
 10
-0.1713700787401575
 20
0.0374724409448819
 30
0.0
 10
-0.1713700787401575
 20
0.0443070866141732
 30
0.0
 10
-0.1713700787401575
 20
0.0443070866141732
 30
0.0
  0
SPLINE
  5
43
330
1F
100
AcDbEntity
  8
P1-Layer 1
 62
   250
100
AcDbSpline
210
0.0
220
0.0
230
1.0
 70
    11
 71
     3
 72
    48
 73
    44
 74
     0
 42
0.0000000001
 43
0.0000000001
 40
0.0
 40
0.0
 40
0.0
 40
0.0
 40
0.0909090909090909
 40
0.0909090909090909
 40
0.0909090909090909
 40
0.0909090909090909
 40
0.1818181818181818
 40
0.1818181818181818
 40
0.1818181818181818
 40
0.1818181818181818
 40
0.2727272727272727
 40
0.2727272727272727
 40
0.2727272727272727
 40
0.2727272727272727
 40
0.3636363636363637
 40
0.3636363636363637
 40
0.3636363636363637
 40
0.3636363636363637
 40
0.4545454545454546
 40
0.4545454545454546
 40
0.4545454545454546
 40
0.4545454545454546
 40
0.5454545454545455
 40
0.5454545454545455
 40
0.5454545454545455
 40
0.5454545454545455
 40
0.6363636363636365
 40
0.6363636363636365
 40
0.6363636363636365
 40
0.6363636363636365
 40
0.7272727272727274
 40
0.7272727272727274
 40
0.7272727272727274
 40
0.7272727272727274
 40
0.8181818181818183
 40
0.8181818181818183
 40
0.8181818181818183
 40
0.8181818181818183
 40
0.9090909090909093
 40
0.9090909090909093
 40
0.9090909090909093
 40
0.9090909090909093
 40
1.0
 40
1.0
 40
1.0
 40
1.0
 10
0.0326574803149606
 20
0.0793070866141732
 30
0.0
 10
0.0326574803149606
 20
0.0793070866141732
 30
0.0
 10
0.0464055118110236
 20
0.0793070866141732
 30
0.0
 10
0.0464055118110236
 20
0.0793070866141732
 30
0.0
 10
0.0464055118110236
 20
0.0793070866141732
 30
0.0
 10
0.0464055118110236
 20
0.0793070866141732
 30
0.0
 10
0.0464055118110236
 20
0.0133070866141732
 30
0.0
 10
0.0464055118110236
 20
0.0133070866141732
 30
0.0
 10
0.0464055118110236
 20
0.0133070866141732
 30
0.0
 10
0.0464055118110236
 20
0.0133070866141732
 30
0.0
 10
0.067740157480315
 20
0.0133070866141732
 30
0.0
 10
0.067740157480315
 20
0.0133070866141732
 30
0.0
 10
0.067740157480315
 20
0.0133070866141732
 30
0.0
 10
0.067740157480315
 20
0.0133070866141732
 30
0.0
 10
0.067740157480315
 20
0.0031417322834646
 30
0.0
 10
0.067740157480315
 20
0.0031417322834646
 30
0.0
 10
0.067740157480315
 20
0.0031417322834646
 30
0.0
 10
0.067740157480315
 20
0.0031417322834646
 30
0.0
 10
0.0464055118110236
 20
0.0031417322834646
 30
0.0
 10
0.0464055118110236
 20
0.0031417322834646
 30
0.0
 10
0.0464055118110236
 20
0.0031417322834646
 30
0.0
 10
0.0464055118110236
 20
0.0031417322834646
 30
0.0
 10
0.0464055118110236
 20
-0.0342204724409449
 30
0.0
 10
0.0464055118110236
 20
-0.0342204724409449
 30
0.0
 10
0.0464055118110236
 20
-0.0342204724409449
 30
0.0
 10
0.0464055118110236
 20
-0.0342204724409449
 30
0.0
 10
0.0326574803149606
 20
-0.0342204724409449
 30
0.0
 10
0.0326574803149606
 20
-0.0342204724409449
 30
0.0
 10
0.0326574803149606
 20
-0.0342204724409449
 30
0.0
 10
0.0326574803149606
 20
-0.0342204724409449
 30
0.0
 10
0.0326574803149606
 20
0.0031417322834646
 30
0.0
 10
0.0326574803149606
 20
0.0031417322834646
 30
0.0
 10
0.0326574803149606
 20
0.0031417322834646
 30
0.0
 10
0.0326574803149606
 20
0.0031417322834646
 30
0.0
 10
-0.0208149606299213
 20
0.0031417322834646
 30
0.0
 10
-0.0208149606299213
 20
0.0031417322834646
 30
0.0
 10
-0.0208149606299213
 20
0.0031417322834646
 30
0.0
 10
-0.0208149606299213
 20
0.0031417322834646
 30
0.0
 10
-0.0208149606299213
 20
0.0174448818897638
 30
0.0
 10
-0.0208149606299213
 20
0.0174448818897638
 30
0.0
 10
-0.0208149606299213
 20
0.0174448818897638
 30
0.0
 10
-0.0208149606299213
 20
0.0174448818897638
 30
0.0
 10
0.0326574803149606
 20
0.0793070866141732
 30
0.0
 10
0.0326574803149606
 20
0.0793070866141732
 30
0.0
  0
SPLINE
  5
44
330
1F
100
AcDbEntity
  8
P1-Layer 1
 62
   250
100
AcDbSpline
210
0.0
220
0.0
230
1.0
 70
    11
 71
     3
 72
    16
 73
    12
 74
     0
 42
0.0000000001
 43
0.0000000001
 40
0.0
 40
0.0
 40
0.0
 40
0.0
 40
0.3333333333333333
 40
0.3333333333333333
 40
0.3333333333333333
 40
0.3333333333333333
 40
0.6666666666666666
 40
0.6666666666666666
 40
0.6666666666666666
 40
0.6666666666666666
 40
1.0
 40
1.0
 40
1.0
 40
1.0
 10
0.0326574803149606
 20
0.0133070866141732
 30
0.0
 10
0.0326574803149606
 20
0.0133070866141732
 30
0.0
 10
0.0326574803149606
 20
0.0666968503937008
 30
0.0
 10
0.0326574803149606
 20
0.0666968503937008
 30
0.0
 10
0.0326574803149606
 20
0.0666968503937008
 30
0.0
 10
0.0326574803149606
 20
0.0666968503937008
 30
0.0
 10
-0.0133976377952756
 20
0.0133070866141732
 30
0.0
 10
-0.0133976377952756
 20
0.0133070866141732
 30
0.0
 10
-0.0133976377952756
 20
0.0133070866141732
 30
0.0
 10
-0.0133976377952756
 20
0.0133070866141732
 30
0.0
 10
0.0326574803149606
 20
0.0133070866141732
 30
0.0
 10
0.0326574803149606
 20
0.0133070866141732
 30
0.0
  0
SPLINE
  5
45
330
1F
100
AcDbEntity
  8
P1-Layer 1
 62
   250
100
AcDbSpline
210
0.0
220
0.0
230
1.0
 70
    11
 71
     3
 72
    20
 73
    16
 74
     0
 42
0.0000000001
 43
0.0000000001
 40
0.0
 40
0.0
 40
0.0
 40
0.0
 40
0.25
 40
0.25
 40
0.25
 40
0.25
 40
0.5
 40
0.5
 40
0.5
 40
0.5
 40
0.75
 40
0.75
 40
0.75
 40
0.75
 40
1.0
 40
1.0
 40
1.0
 40
1.0
 10
0.084740157480315
 20
0.012251968503937
 30
0.0
 10
0.084740157480315
 20
0.012251968503937
 30
0.0
 10
0.1330748031496063
 20
0.012251968503937
 30
0.0
 10
0.1330748031496063
 20
0.012251968503937
 30
0.0
 10
0.1330748031496063
 20
0.012251968503937
 30
0.0
 10
0.1330748031496063
 20
0.012251968503937
 30
0.0
 10
0.1330748031496063
 20
0.0021692913385827
 30
0.0
 10
0.1330748031496063
 20
0.0021692913385827
 30
0.0
 10
0.1330748031496063
 20
0.0021692913385827
 30
0.0
 10
0.1330748031496063
 20
0.0021692913385827
 30
0.0
 10
0.084740157480315
 20
0.0021692913385827
 30
0.0
 10
0.084740157480315
 20
0.0021692913385827
 30
0.0
 10
0.084740157480315
 20
0.0021692913385827
 30
0.0
 10
0.084740157480315
 20
0.0021692913385827
 30
0.0
 10
0.084740157480315
 20
0.012251968503937
 30
0.0
 10
0.084740157480315
 20
0.012251968503937
 30
0.0
  0
SPLINE
  5
46
330
1F
100
AcDbEntity
  8
P1-Layer 1
 62
   250
100
AcDbSpline
210
0.0
220
0.0
230
1.0
 70
    11
 71
     3
 72
    72
 73
    68
 74
     0
 42
0.0000000001
 43
0.0000000001
 40
0.0
 40
0.0
 40
0.0
 40
0.0
 40
0.0588235294117647
 40
0.0588235294117647
 40
0.0588235294117647
 40
0.0588235294117647
 40
0.1176470588235294
 40
0.1176470588235294
 40
0.1176470588235294
 40
0.1176470588235294
 40
0.1764705882352941
 40
0.1764705882352941
 40
0.1764705882352941
 40
0.1764705882352941
 40
0.2352941176470588
 40
0.2352941176470588
 40
0.2352941176470588
 40
0.2352941176470588
 40
0.2941176470588235
 40
0.2941176470588235
 40
0.2941176470588235
 40
0.2941176470588235
 40
0.3529411764705883
 40
0.3529411764705883
 40
0.3529411764705883
 40
0.3529411764705883
 40
0.411764705882353
 40
0.411764705882353
 40
0.411764705882353
 40
0.411764705882353
 40
0.4705882352941177
 40
0.4705882352941177
 40
0.4705882352941177
 40
0.4705882352941177
 40
0.5294117647058824
 40
0.5294117647058824
 40
0.5294117647058824
 40
0.5294117647058824
 40
0.5882352941176471
 40
0.5882352941176471
 40
0.5882352941176471
 40
0.5882352941176471
 40
0.6470588235294118
 40
0.6470588235294118
 40
0.6470588235294118
 40
0.6470588235294118
 40
0.7058823529411765
 40
0.7058823529411765
 40
0.7058823529411765
 40
0.7058823529411765
 40
0.7647058823529412
 40
0.7647058823529412
 40
0.7647058823529412
 40
0.7647058823529412
 40
0.823529411764706
 40
0.823529411764706
 40
0.823529411764706
 40
0.823529411764706
 40
0.8823529411764707
 40
0.8823529411764707
 40
0.8823529411764707
 40
0.8823529411764707
 40
0.9411764705882354
 40
0.9411764705882354
 40
0.9411764705882354
 40
0.9411764705882354
 40
1.0
 40
1.0
 40
1.0
 40
1.0
 10
0.1982677165354331
 20
0.0793070866141732
 30
0.0
 10
0.1982677165354331
 20
0.0793070866141732
 30
0.0
 10
0.2043503937007874
 20
0.0793070866141732
 30
0.0
 10
0.2043503937007874
 20
0.0793070866141732
 30
0.0
 10
0.2043503937007874
 20
0.0793070866141732
 30
0.0
 10
0.2043503937007874
 20
0.0793070866141732
 30
0.0
 10
0.2043503937007874
 20
-0.0149409448818898
 30
0.0
 10
0.2043503937007874
 20
-0.0149409448818898
 30
0.0
 10
0.2043503937007874
 20
-0.0149409448818898
 30
0.0
 10
0.2043503937007874
 20
-0.0193858267716535
 30
0.0
 10
0.2046574803149606
 20
-0.022248031496063
 30
0.0
 10
0.2052125984251969
 20
-0.0235275590551181
 30
0.0
 10
0.2052125984251969
 20
-0.0235275590551181
 30
0.0
 10
0.2057952755905512
 20
-0.0248031496062992
 30
0.0
 10
0.2067125984251969
 20
-0.025748031496063
 30
0.0
 10
0.2080157480314961
 20
-0.0264133858267717
 30
0.0
 10
0.2080157480314961
 20
-0.0264133858267717
 30
0.0
 10
0.2093228346456693
 20
-0.0270551181102362
 30
0.0
 10
0.2119055118110236
 20
-0.0273858267716535
 30
0.0
 10
0.2157677165354331
 20
-0.0273858267716535
 30
0.0
 10
0.2157677165354331
 20
-0.0273858267716535
 30
0.0
 10
0.2157677165354331
 20
-0.0273858267716535
 30
0.0
 10
0.223740157480315
 20
-0.0273858267716535
 30
0.0
 10
0.223740157480315
 20
-0.0273858267716535
 30
0.0
 10
0.223740157480315
 20
-0.0273858267716535
 30
0.0
 10
0.223740157480315
 20
-0.0273858267716535
 30
0.0
 10
0.223740157480315
 20
-0.0342204724409449
 30
0.0
 10
0.223740157480315
 20
-0.0342204724409449
 30
0.0
 10
0.223740157480315
 20
-0.0342204724409449
 30
0.0
 10
0.223740157480315
 20
-0.0342204724409449
 30
0.0
 10
0.1701023622047244
 20
-0.0342204724409449
 30
0.0
 10
0.1701023622047244
 20
-0.0342204724409449
 30
0.0
 10
0.1701023622047244
 20
-0.0342204724409449
 30
0.0
 10
0.1701023622047244
 20
-0.0342204724409449
 30
0.0
 10
0.1701023622047244
 20
-0.0273858267716535
 30
0.0
 10
0.1701023622047244
 20
-0.0273858267716535
 30
0.0
 10
0.1701023622047244
 20
-0.0273858267716535
 30
0.0
 10
0.1701023622047244
 20
-0.0273858267716535
 30
0.0
 10
0.1789606299212599
 20
-0.0273858267716535
 30
0.0
 10
0.1789606299212599
 20
-0.0273858267716535
 30
0.0
 10
0.1789606299212599
 20
-0.0273858267716535
 30
0.0
 10
0.1828228346456693
 20
-0.0273858267716535
 30
0.0
 10
0.1853779527559055
 20
-0.0270551181102362
 30
0.0
 10
0.1866574803149606
 20
-0.0263582677165354
 30
0.0
 10
0.1866574803149606
 20
-0.0263582677165354
 30
0.0
 10
0.1879330708661418
 20
-0.0256929133858268
 30
0.0
 10
0.1889330708661418
 20
-0.0246102362204724
 30
0.0
 10
0.1896299212598425
 20
-0.0231102362204724
 30
0.0
 10
0.1896299212598425
 20
-0.0231102362204724
 30
0.0
 10
0.1903228346456693
 20
-0.0216102362204724
 30
0.0
 10
0.1906850393700788
 20
-0.0188858267716535
 30
0.0
 10
0.1906850393700788
 20
-0.0149409448818898
 30
0.0
 10
0.1906850393700788
 20
-0.0149409448818898
 30
0.0
 10
0.1906850393700788
 20
-0.0149409448818898
 30
0.0
 10
0.1906850393700788
 20
0.0625275590551181
 30
0.0
 10
0.1906850393700788
 20
0.0625275590551181
 30
0.0
 10
0.1906850393700788
 20
0.0625275590551181
 30
0.0
 10
0.1906850393700788
 20
0.0625275590551181
 30
0.0
 10
0.1701023622047244
 20
0.0625275590551181
 30
0.0
 10
0.1701023622047244
 20
0.0625275590551181
 30
0.0
 10
0.1701023622047244
 20
0.0625275590551181
 30
0.0
 10
0.1701023622047244
 20
0.0625275590551181
 30
0.0
 10
0.1701023622047244
 20
0.0695275590551181
 30
0.0
 10
0.1701023622047244
 20
0.0695275590551181
 30
0.0
 10
0.1701023622047244
 20
0.0695275590551181
 30
0.0
 10
0.1813228346456693
 20
0.0711102362204724
 30
0.0
 10
0.1907125984251969
 20
0.0743622047244095
 30
0.0
 10
0.1982677165354331
 20
0.0793070866141732
 30
0.0
  0
SPLINE
  5
47
330
1F
100
AcDbEntity
  8
P1-Layer 1
 62
   250
100
AcDbSpline
210
0.0
220
0.0
230
1.0
 70
    11
 71
     3
 72
    72
 73
    68
 74
     0
 42
0.0000000001
 43
0.0000000001
 40
0.0
 40
0.0
 40
0.0
 40
0.0
 40
0.0588235294117647
 40
0.0588235294117647
 40
0.0588235294117647
 40
0.0588235294117647
 40
0.1176470588235294
 40
0.1176470588235294
 40
0.1176470588235294
 40
0.1176470588235294
 40
0.1764705882352941
 40
0.1764705882352941
 40
0.1764705882352941
 40
0.1764705882352941
 40
0.2352941176470588
 40
0.2352941176470588
 40
0.2352941176470588
 40
0.2352941176470588
 40
0.2941176470588235
 40
0.2941176470588235
 40
0.2941176470588235
 40
0.2941176470588235
 40
0.3529411764705883
 40
0.3529411764705883
 40
0.3529411764705883
 40
0.3529411764705883
 40
0.411764705882353
 40
0.411764705882353
 40
0.411764705882353
 40
0.411764705882353
 40
0.4705882352941177
 40
0.4705882352941177
 40
0.4705882352941177
 40
0.4705882352941177
 40
0.5294117647058824
 40
0.5294117647058824
 40
0.5294117647058824
 40
0.5294117647058824
 40
0.5882352941176471
 40
0.5882352941176471
 40
0.5882352941176471
 40
0.5882352941176471
 40
0.6470588235294118
 40
0.6470588235294118
 40
0.6470588235294118
 40
0.6470588235294118
 40
0.7058823529411765
 40
0.7058823529411765
 40
0.7058823529411765
 40
0.7058823529411765
 40
0.7647058823529412
 40
0.7647058823529412
 40
0.7647058823529412
 40
0.7647058823529412
 40
0.823529411764706
 40
0.823529411764706
 40
0.823529411764706
 40
0.823529411764706
 40
0.8823529411764707
 40
0.8823529411764707
 40
0.8823529411764707
 40
0.8823529411764707
 40
0.9411764705882354
 40
0.9411764705882354
 40
0.9411764705882354
 40
0.9411764705882354
 40
1.0
 40
1.0
 40
1.0
 40
1.0
 10
0.3016299212598425
 20
0.0793070866141732
 30
0.0
 10
0.3016299212598425
 20
0.0793070866141732
 30
0.0
 10
0.3077125984251969
 20
0.0793070866141732
 30
0.0
 10
0.3077125984251969
 20
0.0793070866141732
 30
0.0
 10
0.3077125984251969
 20
0.0793070866141732
 30
0.0
 10
0.3077125984251969
 20
0.0793070866141732
 30
0.0
 10
0.3077125984251969
 20
-0.0149409448818898
 30
0.0
 10
0.3077125984251969
 20
-0.0149409448818898
 30
0.0
 10
0.3077125984251969
 20
-0.0149409448818898
 30
0.0
 10
0.3077125984251969
 20
-0.0193858267716535
 30
0.0
 10
0.3080196850393701
 20
-0.022248031496063
 30
0.0
 10
0.3085748031496063
 20
-0.0235275590551181
 30
0.0
 10
0.3085748031496063
 20
-0.0235275590551181
 30
0.0
 10
0.3091574803149607
 20
-0.0248031496062992
 30
0.0
 10
0.3100748031496063
 20
-0.025748031496063
 30
0.0
 10
0.3113779527559055
 20
-0.0264133858267717
 30
0.0
 10
0.3113779527559055
 20
-0.0264133858267717
 30
0.0
 10
0.3126850393700787
 20
-0.0270551181102362
 30
0.0
 10
0.3152677165354331
 20
-0.0273858267716535
 30
0.0
 10
0.3191299212598425
 20
-0.0273858267716535
 30
0.0
 10
0.3191299212598425
 20
-0.0273858267716535
 30
0.0
 10
0.3191299212598425
 20
-0.0273858267716535
 30
0.0
 10
0.3271023622047244
 20
-0.0273858267716535
 30
0.0
 10
0.3271023622047244
 20
-0.0273858267716535
 30
0.0
 10
0.3271023622047244
 20
-0.0273858267716535
 30
0.0
 10
0.3271023622047244
 20
-0.0273858267716535
 30
0.0
 10
0.3271023622047244
 20
-0.0342204724409449
 30
0.0
 10
0.3271023622047244
 20
-0.0342204724409449
 30
0.0
 10
0.3271023622047244
 20
-0.0342204724409449
 30
0.0
 10
0.3271023622047244
 20
-0.0342204724409449
 30
0.0
 10
0.2734645669291339
 20
-0.0342204724409449
 30
0.0
 10
0.2734645669291339
 20
-0.0342204724409449
 30
0.0
 10
0.2734645669291339
 20
-0.0342204724409449
 30
0.0
 10
0.2734645669291339
 20
-0.0342204724409449
 30
0.0
 10
0.2734645669291339
 20
-0.0273858267716535
 30
0.0
 10
0.2734645669291339
 20
-0.0273858267716535
 30
0.0
 10
0.2734645669291339
 20
-0.0273858267716535
 30
0.0
 10
0.2734645669291339
 20
-0.0273858267716535
 30
0.0
 10
0.2823228346456693
 20
-0.0273858267716535
 30
0.0
 10
0.2823228346456693
 20
-0.0273858267716535
 30
0.0
 10
0.2823228346456693
 20
-0.0273858267716535
 30
0.0
 10
0.2861850393700788
 20
-0.0273858267716535
 30
0.0
 10
0.288740157480315
 20
-0.0270551181102362
 30
0.0
 10
0.2900196850393701
 20
-0.0263582677165354
 30
0.0
 10
0.2900196850393701
 20
-0.0263582677165354
 30
0.0
 10
0.2912952755905512
 20
-0.0256929133858268
 30
0.0
 10
0.2922952755905512
 20
-0.0246102362204724
 30
0.0
 10
0.292992125984252
 20
-0.0231102362204724
 30
0.0
 10
0.292992125984252
 20
-0.0231102362204724
 30
0.0
 10
0.2936850393700787
 20
-0.0216102362204724
 30
0.0
 10
0.2940472440944882
 20
-0.0188858267716535
 30
0.0
 10
0.2940472440944882
 20
-0.0149409448818898
 30
0.0
 10
0.2940472440944882
 20
-0.0149409448818898
 30
0.0
 10
0.2940472440944882
 20
-0.0149409448818898
 30
0.0
 10
0.2940472440944882
 20
0.0625275590551181
 30
0.0
 10
0.2940472440944882
 20
0.0625275590551181
 30
0.0
 10
0.2940472440944882
 20
0.0625275590551181
 30
0.0
 10
0.2940472440944882
 20
0.0625275590551181
 30
0.0
 10
0.2734645669291339
 20
0.0625275590551181
 30
0.0
 10
0.2734645669291339
 20
0.0625275590551181
 30
0.0
 10
0.2734645669291339
 20
0.0625275590551181
 30
0.0
 10
0.2734645669291339
 20
0.0625275590551181
 30
0.0
 10
0.2734645669291339
 20
0.0695275590551181
 30
0.0
 10
0.2734645669291339
 20
0.0695275590551181
 30
0.0
 10
0.2734645669291339
 20
0.0695275590551181
 30
0.0
 10
0.2846850393700788
 20
0.0711102362204724
 30
0.0
 10
0.2940748031496063
 20
0.0743622047244095
 30
0.0
 10
0.3016299212598425
 20
0.0793070866141732
 30
0.0
  0
SPLINE
  5
48
330
1F
100
AcDbEntity
  8
P1-Layer 1
 62
   250
100
AcDbSpline
210
0.0
220
0.0
230
1.0
 70
    11
 71
     3
 72
    20
 73
    16
 74
     0
 42
0.0000000001
 43
0.0000000001
 40
0.0
 40
0.0
 40
0.0
 40
0.0
 40
0.25
 40
0.25
 40
0.25
 40
0.25
 40
0.5
 40
0.5
 40
0.5
 40
0.5
 40
0.75
 40
0.75
 40
0.75
 40
0.75
 40
1.0
 40
1.0
 40
1.0
 40
1.0
 10
0.4304645669291339
 20
0.0851692913385827
 30
0.0
 10
0.4304645669291339
 20
0.0851692913385827
 30
0.0
 10
0.3748818897637796
 20
-0.0705275590551181
 30
0.0
 10
0.3748818897637796
 20
-0.0705275590551181
 30
0.0
 10
0.3748818897637796
 20
-0.0705275590551181
 30
0.0
 10
0.3748818897637796
 20
-0.0705275590551181
 30
0.0
 10
0.3628267716535433
 20
-0.0705275590551181
 30
0.0
 10
0.3628267716535433
 20
-0.0705275590551181
 30
0.0
 10
0.3628267716535433
 20
-0.0705275590551181
 30
0.0
 10
0.3628267716535433
 20
-0.0705275590551181
 30
0.0
 10
0.4180748031496063
 20
0.0851692913385827
 30
0.0
 10
0.4180748031496063
 20
0.0851692913385827
 30
0.0
 10
0.4180748031496063
 20
0.0851692913385827
 30
0.0
 10
0.4180748031496063
 20
0.0851692913385827
 30
0.0
 10
0.4304645669291339
 20
0.0851692913385827
 30
0.0
 10
0.4304645669291339
 20
0.0851692913385827
 30
0.0
  0
SPLINE
  5
49
330
1F
100
AcDbEntity
  8
P1-Layer 1
 62
   250
100
AcDbSpline
210
0.0
220
0.0
230
1.0
 70
    11
 71
     3
 72
    72
 73
    68
 74
     0
 42
0.0000000001
 43
0.0000000001
 40
0.0
 40
0.0
 40
0.0
 40
0.0
 40
0.0588235294117647
 40
0.0588235294117647
 40
0.0588235294117647
 40
0.0588235294117647
 40
0.1176470588235294
 40
0.1176470588235294
 40
0.1176470588235294
 40
0.1176470588235294
 40
0.1764705882352941
 40
0.1764705882352941
 40
0.1764705882352941
 40
0.1764705882352941
 40
0.2352941176470588
 40
0.2352941176470588
 40
0.2352941176470588
 40
0.2352941176470588
 40
0.2941176470588235
 40
0.2941176470588235
 40
0.2941176470588235
 40
0.2941176470588235
 40
0.3529411764705883
 40
0.3529411764705883
 40
0.3529411764705883
 40
0.3529411764705883
 40
0.411764705882353
 40
0.411764705882353
 40
0.411764705882353
 40
0.411764705882353
 40
0.4705882352941177
 40
0.4705882352941177
 40
0.4705882352941177
 40
0.4705882352941177
 40
0.5294117647058824
 40
0.5294117647058824
 40
0.5294117647058824
 40
0.5294117647058824
 40
0.5882352941176471
 40
0.5882352941176471
 40
0.5882352941176471
 40
0.5882352941176471
 40
0.6470588235294118
 40
0.6470588235294118
 40
0.6470588235294118
 40
0.6470588235294118
 40
0.7058823529411765
 40
0.7058823529411765
 40
0.7058823529411765
 40
0.7058823529411765
 40
0.7647058823529412
 40
0.7647058823529412
 40
0.7647058823529412
 40
0.7647058823529412
 40
0.823529411764706
 40
0.823529411764706
 40
0.823529411764706
 40
0.823529411764706
 40
0.8823529411764707
 40
0.8823529411764707
 40
0.8823529411764707
 40
0.8823529411764707
 40
0.9411764705882354
 40
0.9411764705882354
 40
0.9411764705882354
 40
0.9411764705882354
 40
1.0
 40
1.0
 40
1.0
 40
1.0
 10
0.5050196850393701
 20
0.0793070866141732
 30
0.0
 10
0.5050196850393701
 20
0.0793070866141732
 30
0.0
 10
0.5111023622047244
 20
0.0793070866141732
 30
0.0
 10
0.5111023622047244
 20
0.0793070866141732
 30
0.0
 10
0.5111023622047244
 20
0.0793070866141732
 30
0.0
 10
0.5111023622047244
 20
0.0793070866141732
 30
0.0
 10
0.5111023622047244
 20
-0.0149409448818898
 30
0.0
 10
0.5111023622047244
 20
-0.0149409448818898
 30
0.0
 10
0.5111023622047244
 20
-0.0149409448818898
 30
0.0
 10
0.5111023622047244
 20
-0.0193858267716535
 30
0.0
 10
0.5114094488188976
 20
-0.022248031496063
 30
0.0
 10
0.5119645669291338
 20
-0.0235275590551181
 30
0.0
 10
0.5119645669291338
 20
-0.0235275590551181
 30
0.0
 10
0.5125472440944883
 20
-0.0248031496062992
 30
0.0
 10
0.5134645669291339
 20
-0.025748031496063
 30
0.0
 10
0.5147677165354331
 20
-0.0264133858267717
 30
0.0
 10
0.5147677165354331
 20
-0.0264133858267717
 30
0.0
 10
0.5160748031496063
 20
-0.0270551181102362
 30
0.0
 10
0.5186574803149606
 20
-0.0273858267716535
 30
0.0
 10
0.5225196850393701
 20
-0.0273858267716535
 30
0.0
 10
0.5225196850393701
 20
-0.0273858267716535
 30
0.0
 10
0.5225196850393701
 20
-0.0273858267716535
 30
0.0
 10
0.530492125984252
 20
-0.0273858267716535
 30
0.0
 10
0.530492125984252
 20
-0.0273858267716535
 30
0.0
 10
0.530492125984252
 20
-0.0273858267716535
 30
0.0
 10
0.530492125984252
 20
-0.0273858267716535
 30
0.0
 10
0.530492125984252
 20
-0.0342204724409449
 30
0.0
 10
0.530492125984252
 20
-0.0342204724409449
 30
0.0
 10
0.530492125984252
 20
-0.0342204724409449
 30
0.0
 10
0.530492125984252
 20
-0.0342204724409449
 30
0.0
 10
0.4768543307086615
 20
-0.0342204724409449
 30
0.0
 10
0.4768543307086615
 20
-0.0342204724409449
 30
0.0
 10
0.4768543307086615
 20
-0.0342204724409449
 30
0.0
 10
0.4768543307086615
 20
-0.0342204724409449
 30
0.0
 10
0.4768543307086615
 20
-0.0273858267716535
 30
0.0
 10
0.4768543307086615
 20
-0.0273858267716535
 30
0.0
 10
0.4768543307086615
 20
-0.0273858267716535
 30
0.0
 10
0.4768543307086615
 20
-0.0273858267716535
 30
0.0
 10
0.4857125984251969
 20
-0.0273858267716535
 30
0.0
 10
0.4857125984251969
 20
-0.0273858267716535
 30
0.0
 10
0.4857125984251969
 20
-0.0273858267716535
 30
0.0
 10
0.4895748031496063
 20
-0.0273858267716535
 30
0.0
 10
0.4921299212598426
 20
-0.0270551181102362
 30
0.0
 10
0.4934094488188976
 20
-0.0263582677165354
 30
0.0
 10
0.4934094488188976
 20
-0.0263582677165354
 30
0.0
 10
0.4946850393700787
 20
-0.0256929133858268
 30
0.0
 10
0.4956850393700787
 20
-0.0246102362204724
 30
0.0
 10
0.4963818897637796
 20
-0.0231102362204724
 30
0.0
 10
0.4963818897637796
 20
-0.0231102362204724
 30
0.0
 10
0.4970748031496063
 20
-0.0216102362204724
 30
0.0
 10
0.4974370078740158
 20
-0.0188858267716535
 30
0.0
 10
0.4974370078740158
 20
-0.0149409448818898
 30
0.0
 10
0.4974370078740158
 20
-0.0149409448818898
 30
0.0
 10
0.4974370078740158
 20
-0.0149409448818898
 30
0.0
 10
0.4974370078740158
 20
0.0625275590551181
 30
0.0
 10
0.4974370078740158
 20
0.0625275590551181
 30
0.0
 10
0.4974370078740158
 20
0.0625275590551181
 30
0.0
 10
0.4974370078740158
 20
0.0625275590551181
 30
0.0
 10
0.4768543307086615
 20
0.0625275590551181
 30
0.0
 10
0.4768543307086615
 20
0.0625275590551181
 30
0.0
 10
0.4768543307086615
 20
0.0625275590551181
 30
0.0
 10
0.4768543307086615
 20
0.0625275590551181
 30
0.0
 10
0.4768543307086615
 20
0.0695275590551181
 30
0.0
 10
0.4768543307086615
 20
0.0695275590551181
 30
0.0
 10
0.4768543307086615
 20
0.0695275590551181
 30
0.0
 10
0.4880748031496063
 20
0.0711102362204724
 30
0.0
 10
0.4974645669291339
 20
0.0743622047244095
 30
0.0
 10
0.5050196850393701
 20
0.0793070866141732
 30
0.0
  0
SPLINE
  5
4A
330
1F
100
AcDbEntity
  8
P1-Layer 1
 62
   250
100
AcDbSpline
210
0.0
220
0.0
230
1.0
 70
    11
 71
     3
 72
    84
 73
    80
 74
     0
 42
0.0000000001
 43
0.0000000001
 40
0.0
 40
0.0
 40
0.0
 40
0.0
 40
0.05
 40
0.05
 40
0.05
 40
0.05
 40
0.1
 40
0.1
 40
0.1
 40
0.1
 40
0.15
 40
0.15
 40
0.15
 40
0.15
 40
0.2
 40
0.2
 40
0.2
 40
0.2
 40
0.25
 40
0.25
 40
0.25
 40
0.25
 40
0.3
 40
0.3
 40
0.3
 40
0.3
 40
0.35
 40
0.35
 40
0.35
 40
0.35
 40
0.4
 40
0.4
 40
0.4
 40
0.4
 40
0.45
 40
0.45
 40
0.45
 40
0.45
 40
0.4999999999999999
 40
0.4999999999999999
 40
0.4999999999999999
 40
0.4999999999999999
 40
0.5499999999999999
 40
0.5499999999999999
 40
0.5499999999999999
 40
0.5499999999999999
 40
0.6
 40
0.6
 40
0.6
 40
0.6
 40
0.65
 40
0.65
 40
0.65
 40
0.65
 40
0.7000000000000001
 40
0.7000000000000001
 40
0.7000000000000001
 40
0.7000000000000001
 40
0.7500000000000001
 40
0.7500000000000001
 40
0.7500000000000001
 40
0.7500000000000001
 40
0.8000000000000002
 40
0.8000000000000002
 40
0.8000000000000002
 40
0.8000000000000002
 40
0.8500000000000002
 40
0.8500000000000002
 40
0.8500000000000002
 40
0.8500000000000002
 40
0.9000000000000002
 40
0.9000000000000002
 40
0.9000000000000002
 40
0.9000000000000002
 40
0.9500000000000003
 40
0.9500000000000003
 40
0.9500000000000003
 40
0.9500000000000003
 40
1.0
 40
1.0
 40
1.0
 40
1.0
 10
0.6366850393700788
 20
0.0814173228346457
 30
0.0
 10
0.6366850393700788
 20
0.0814173228346457
 30
0.0
 10
0.6366850393700788
 20
0.074
 30
0.0
 10
0.6366850393700788
 20
0.074
 30
0.0
 10
0.6366850393700788
 20
0.074
 30
0.0
 10
0.6232992125984253
 20
0.0738622047244095
 30
0.0
 10
0.6124645669291339
 20
0.0718897637795276
 30
0.0
 10
0.6041889763779528
 20
0.0681692913385827
 30
0.0
 10
0.6041889763779528
 20
0.0681692913385827
 30
0.0
 10
0.5959094488188976
 20
0.0644173228346457
 30
0.0
 10
0.5898267716535434
 20
0.0588070866141732
 30
0.0
 10
0.5859094488188976
 20
0.0513622047244095
 30
0.0
 10
0.5859094488188976
 20
0.0513622047244095
 30
0.0
 10
0.581992125984252
 20
0.0438897637795276
 30
0.0
 10
0.5797992125984253
 20
0.0346968503937008
 30
0.0
 10
0.5793267716535433
 20
0.0238070866141732
 30
0.0
 10
0.5793267716535433
 20
0.0238070866141732
 30
0.0
 10
0.5820748031496064
 20
0.0280275590551181
 30
0.0
 10
0.5849094488188976
 20
0.0313346456692913
 30
0.0
 10
0.5878267716535434
 20
0.0336968503937008
 30
0.0
 10
0.5878267716535434
 20
0.0336968503937008
 30
0.0
 10
0.5907165354330709
 20
0.0360551181102362
 30
0.0
 10
0.5941023622047245
 20
0.0378622047244095
 30
0.0
 10
0.597992125984252
 20
0.0391417322834646
 30
0.0
 10
0.597992125984252
 20
0.0391417322834646
 30
0.0
 10
0.6018818897637795
 20
0.0404173228346457
 30
0.0
 10
0.6061299212598426
 20
0.0410551181102362
 30
0.0
 10
0.610744094488189
 20
0.0410551181102362
 30
0.0
 10
0.610744094488189
 20
0.0410551181102362
 30
0.0
 10
0.6181023622047245
 20
0.0410551181102362
 30
0.0
 10
0.6246850393700788
 20
0.0394173228346457
 30
0.0
 10
0.6304370078740158
 20
0.0361692913385827
 30
0.0
 10
0.6304370078740158
 20
0.0361692913385827
 30
0.0
 10
0.6361850393700788
 20
0.0329173228346457
 30
0.0
 10
0.6406574803149606
 20
0.0285
 30
0.0
 10
0.6438543307086615
 20
0.0229448818897638
 30
0.0
 10
0.6438543307086615
 20
0.0229448818897638
 30
0.0
 10
0.6470472440944882
 20
0.0173897637795276
 30
0.0
 10
0.6486574803149606
 20
0.0108346456692913
 30
0.0
 10
0.6486574803149606
 20
0.0033070866141732
 30
0.0
 10
0.6486574803149606
 20
0.0033070866141732
 30
0.0
 10
0.6486574803149606
 20
-0.0086929133858268
 30
0.0
 10
0.6450472440944882
 20
-0.0181102362204724
 30
0.0
 10
0.6378267716535433
 20
-0.0249409448818898
 30
0.0
 10
0.6378267716535433
 20
-0.0249409448818898
 30
0.0
 10
0.6298543307086615
 20
-0.0324409448818898
 30
0.0
 10
0.6195196850393701
 20
-0.0361653543307087
 30
0.0
 10
0.6068267716535434
 20
-0.0361653543307087
 30
0.0
 10
0.6068267716535434
 20
-0.0361653543307087
 30
0.0
 10
0.5976574803149607
 20
-0.0361653543307087
 30
0.0
 10
0.5899370078740158
 20
-0.0342755905511811
 30
0.0
 10
0.5836299212598426
 20
-0.0304724409448819
 30
0.0
 10
0.5836299212598426
 20
-0.0304724409448819
 30
0.0
 10
0.5773267716535433
 20
-0.0266929133858268
 30
0.0
 10
0.5723267716535433
 20
-0.0208858267716535
 30
0.0
 10
0.5686023622047244
 20
-0.0130551181102362
 30
0.0
 10
0.5686023622047244
 20
-0.0130551181102362
 30
0.0
 10
0.5649094488188977
 20
-0.005248031496063
 30
0.0
 10
0.5630472440944883
 20
0.0044173228346457
 30
0.0
 10
0.5630472440944883
 20
0.0159173228346457
 30
0.0
 10
0.5630472440944883
 20
0.0159173228346457
 30
0.0
 10
0.5630472440944883
 20
0.0274724409448819
 30
0.0
 10
0.5650196850393701
 20
0.0377244094488189
 30
0.0
 10
0.5689370078740158
 20
0.0466692913385827
 30
0.0
 10
0.5689370078740158
 20
0.0466692913385827
 30
0.0
 10
0.5728818897637795
 20
0.0556102362204724
 30
0.0
 10
0.5783267716535433
 20
0.0628070866141732
 30
0.0
 10
0.5852716535433071
 20
0.0682244094488189
 30
0.0
 10
0.5852716535433071
 20
0.0682244094488189
 30
0.0
 10
0.5922165354330709
 20
0.0736692913385827
 30
0.0
 10
0.5998267716535434
 20
0.0772244094488189
 30
0.0
 10
0.6080748031496063
 20
0.0788897637795276
 30
0.0
 10
0.6080748031496063
 20
0.0788897637795276
 30
0.0
 10
0.6163543307086614
 20
0.0805826771653543
 30
0.0
 10
0.6237716535433071
 20
0.0814173228346457
 30
0.0
 10
0.6303543307086614
 20
0.0814173228346457
 30
0.0
 10
0.6303543307086614
 20
0.0814173228346457
 30
0.0
 10
0.6303543307086614
 20
0.0814173228346457
 30
0.0
 10
0.6366850393700788
 20
0.0814173228346457
 30
0.0
 10
0.6366850393700788
 20
0.0814173228346457
 30
0.0
  0
SPLINE
  5
4B
330
1F
100
AcDbEntity
  8
P1-Layer 1
 62
   250
100
AcDbSpline
210
0.0
220
0.0
230
1.0
 70
    11
 71
     3
 72
    40
 73
    36
 74
     0
 42
0.0000000001
 43
0.0000000001
 40
0.0
 40
0.0
 40
0.0
 40
0.0
 40
0.1111111111111111
 40
0.1111111111111111
 40
0.1111111111111111
 40
0.1111111111111111
 40
0.2222222222222222
 40
0.2222222222222222
 40
0.2222222222222222
 40
0.2222222222222222
 40
0.3333333333333333
 40
0.3333333333333333
 40
0.3333333333333333
 40
0.3333333333333333
 40
0.4444444444444444
 40
0.4444444444444444
 40
0.4444444444444444
 40
0.4444444444444444
 40
0.5555555555555556
 40
0.5555555555555556
 40
0.5555555555555556
 40
0.5555555555555556
 40
0.6666666666666667
 40
0.6666666666666667
 40
0.6666666666666667
 40
0.6666666666666667
 40
0.7777777777777779
 40
0.7777777777777779
 40
0.7777777777777779
 40
0.7777777777777779
 40
0.8888888888888891
 40
0.8888888888888891
 40
0.8888888888888891
 40
0.8888888888888891
 40
1.0
 40
1.0
 40
1.0
 40
1.0
 10
0.606992125984252
 20
0.0324173228346457
 30
0.0
 10
0.5991889763779528
 20
0.0324173228346457
 30
0.0
 10
0.5927716535433071
 20
0.0294724409448819
 30
0.0
 10
0.587744094488189
 20
0.0235551181102362
 30
0.0
 10
0.587744094488189
 20
0.0235551181102362
 30
0.0
 10
0.5827165354330709
 20
0.0176417322834646
 30
0.0
 10
0.5802165354330708
 20
0.0105275590551181
 30
0.0
 10
0.5802165354330708
 20
0.002251968503937
 30
0.0
 10
0.5802165354330708
 20
0.002251968503937
 30
0.0
 10
0.5802165354330708
 20
-0.0036102362204724
 30
0.0
 10
0.5814370078740158
 20
-0.0090275590551181
 30
0.0
 10
0.5838818897637795
 20
-0.014
 30
0.0
 10
0.5838818897637795
 20
-0.014
 30
0.0
 10
0.5863267716535433
 20
-0.0189724409448819
 30
0.0
 10
0.5894645669291339
 20
-0.0226377952755906
 30
0.0
 10
0.5933267716535433
 20
-0.0250551181102362
 30
0.0
 10
0.5933267716535433
 20
-0.0250551181102362
 30
0.0
 10
0.5971574803149606
 20
-0.0274724409448819
 30
0.0
 10
0.6015196850393701
 20
-0.0286929133858268
 30
0.0
 10
0.6063267716535433
 20
-0.0286929133858268
 30
0.0
 10
0.6063267716535433
 20
-0.0286929133858268
 30
0.0
 10
0.6138267716535434
 20
-0.0286929133858268
 30
0.0
 10
0.6200472440944882
 20
-0.0258582677165354
 30
0.0
 10
0.6250196850393701
 20
-0.0201929133858268
 30
0.0
 10
0.6250196850393701
 20
-0.0201929133858268
 30
0.0
 10
0.6299645669291338
 20
-0.0145275590551181
 30
0.0
 10
0.6324645669291339
 20
-0.0069133858267717
 30
0.0
 10
0.6324645669291339
 20
0.0026417322834646
 30
0.0
 10
0.6324645669291339
 20
0.0026417322834646
 30
0.0
 10
0.6324645669291339
 20
0.011751968503937
 30
0.0
 10
0.6300472440944882
 20
0.019
 30
0.0
 10
0.6252165354330709
 20
0.0243622047244095
 30
0.0
 10
0.6252165354330709
 20
0.0243622047244095
 30
0.0
 10
0.6203818897637795
 20
0.029751968503937
 30
0.0
 10
0.6142992125984252
 20
0.0324173228346457
 30
0.0
 10
0.606992125984252
 20
0.0324173228346457
 30
0.0
  0
SPLINE
  5
4C
330
1F
100
AcDbEntity
  8
P1-Layer 1
 62
   250
100
AcDbSpline
210
0.0
220
0.0
230
1.0
 70
    11
 71
     3
 72
    60
 73
    56
 74
     0
 42
0.0000000001
 43
0.0000000001
 40
0.0
 40
0.0
 40
0.0
 40
0.0
 40
0.0714285714285714
 40
0.0714285714285714
 40
0.0714285714285714
 40
0.0714285714285714
 40
0.1428571428571429
 40
0.1428571428571429
 40
0.1428571428571429
 40
0.1428571428571429
 40
0.2142857142857143
 40
0.2142857142857143
 40
0.2142857142857143
 40
0.2142857142857143
 40
0.2857142857142857
 40
0.2857142857142857
 40
0.2857142857142857
 40
0.2857142857142857
 40
0.3571428571428571
 40
0.3571428571428571
 40
0.3571428571428571
 40
0.3571428571428571
 40
0.4285714285714285
 40
0.4285714285714285
 40
0.4285714285714285
 40
0.4285714285714285
 40
0.4999999999999999
 40
0.4999999999999999
 40
0.4999999999999999
 40
0.4999999999999999
 40
0.5714285714285713
 40
0.5714285714285713
 40
0.5714285714285713
 40
0.5714285714285713
 40
0.6428571428571427
 40
0.6428571428571427
 40
0.6428571428571427
 40
0.6428571428571427
 40
0.7142857142857141
 40
0.7142857142857141
 40
0.7142857142857141
 40
0.7142857142857141
 40
0.7857142857142855
 40
0.7857142857142855
 40
0.7857142857142855
 40
0.7857142857142855
 40
0.8571428571428569
 40
0.8571428571428569
 40
0.8571428571428569
 40
0.8571428571428569
 40
0.9285714285714283
 40
0.9285714285714283
 40
0.9285714285714283
 40
0.9285714285714283
 40
1.0
 40
1.0
 40
1.0
 40
1.0
 10
0.6658267716535433
 20
0.0372244094488189
 30
0.0
 10
0.6658267716535433
 20
0.0372244094488189
 30
0.0
 10
0.6614370078740158
 20
0.0426141732283465
 30
0.0
 10
0.6614370078740158
 20
0.0426141732283465
 30
0.0
 10
0.6614370078740158
 20
0.0426141732283465
 30
0.0
 10
0.6725511811023622
 20
0.0516692913385827
 30
0.0
 10
0.6781338582677166
 20
0.0592244094488189
 30
0.0
 10
0.6781338582677166
 20
0.0653070866141732
 30
0.0
 10
0.6781338582677166
 20
0.0653070866141732
 30
0.0
 10
0.6781338582677166
 20
0.066
 30
0.0
 10
0.6780787401574804
 20
0.0668897637795276
 30
0.0
 10
0.6779645669291339
 20
0.0679173228346457
 30
0.0
 10
0.6779645669291339
 20
0.0679173228346457
 30
0.0
 10
0.6770511811023622
 20
0.0675275590551181
 30
0.0
 10
0.6761338582677166
 20
0.0672244094488189
 30
0.0
 10
0.6752716535433071
 20
0.0670275590551181
 30
0.0
 10
0.6752716535433071
 20
0.0670275590551181
 30
0.0
 10
0.6744094488188976
 20
0.0668070866141732
 30
0.0
 10
0.6736062992125984
 20
0.0666968503937008
 30
0.0
 10
0.6728267716535433
 20
0.0666968503937008
 30
0.0
 10
0.6728267716535433
 20
0.0666968503937008
 30
0.0
 10
0.6702165354330709
 20
0.0666968503937008
 30
0.0
 10
0.6681338582677165
 20
0.0675275590551181
 30
0.0
 10
0.6665787401574803
 20
0.0692244094488189
 30
0.0
 10
0.6665787401574803
 20
0.0692244094488189
 30
0.0
 10
0.664992125984252
 20
0.0708897637795276
 30
0.0
 10
0.6642165354330709
 20
0.0730275590551181
 30
0.0
 10
0.6642165354330709
 20
0.0756417322834646
 30
0.0
 10
0.6642165354330709
 20
0.0756417322834646
 30
0.0
 10
0.6642165354330709
 20
0.0781968503937008
 30
0.0
 10
0.6651614173228346
 20
0.0804173228346457
 30
0.0
 10
0.6670511811023623
 20
0.0823070866141732
 30
0.0
 10
0.6670511811023623
 20
0.0823070866141732
 30
0.0
 10
0.6689645669291339
 20
0.0842244094488189
 30
0.0
 10
0.671244094488189
 20
0.0851692913385827
 30
0.0
 10
0.6738818897637796
 20
0.0851692913385827
 30
0.0
 10
0.6738818897637796
 20
0.0851692913385827
 30
0.0
 10
0.6775787401574803
 20
0.0851692913385827
 30
0.0
 10
0.680744094488189
 20
0.0836968503937008
 30
0.0
 10
0.6833818897637796
 20
0.0807244094488189
 30
0.0
 10
0.6833818897637796
 20
0.0807244094488189
 30
0.0
 10
0.685992125984252
 20
0.0777795275590551
 30
0.0
 10
0.6873267716535433
 20
0.0739724409448819
 30
0.0
 10
0.6873267716535433
 20
0.0693070866141732
 30
0.0
 10
0.6873267716535433
 20
0.0693070866141732
 30
0.0
 10
0.6873267716535433
 20
0.066251968503937
 30
0.0
 10
0.6866889763779528
 20
0.0630551181102362
 30
0.0
 10
0.6854370078740157
 20
0.0597244094488189
 30
0.0
 10
0.6854370078740157
 20
0.0597244094488189
 30
0.0
 10
0.6841889763779527
 20
0.0563897637795276
 30
0.0
 10
0.6823818897637796
 20
0.0533070866141732
 30
0.0
 10
0.679992125984252
 20
0.0504448818897638
 30
0.0
 10
0.679992125984252
 20
0.0504448818897638
 30
0.0
 10
0.6776062992125984
 20
0.0476141732283465
 30
0.0
 10
0.6728818897637796
 20
0.0431968503937008
 30
0.0
 10
0.6658267716535433
 20
0.0372244094488189
 30
0.0
  0
SPLINE
  5
4D
330
1F
100
AcDbEntity
  8
P1-Layer 1
 62
   250
100
AcDbSpline
210
0.0
220
0.0
230
1.0
 70
    11
 71
     3
 72
    60
 73
    56
 74
     0
 42
0.0000000001
 43
0.0000000001
 40
0.0
 40
0.0
 40
0.0
 40
0.0
 40
0.0714285714285714
 40
0.0714285714285714
 40
0.0714285714285714
 40
0.0714285714285714
 40
0.1428571428571429
 40
0.1428571428571429
 40
0.1428571428571429
 40
0.1428571428571429
 40
0.2142857142857143
 40
0.2142857142857143
 40
0.2142857142857143
 40
0.2142857142857143
 40
0.2857142857142857
 40
0.2857142857142857
 40
0.2857142857142857
 40
0.2857142857142857
 40
0.3571428571428571
 40
0.3571428571428571
 40
0.3571428571428571
 40
0.3571428571428571
 40
0.4285714285714285
 40
0.4285714285714285
 40
0.4285714285714285
 40
0.4285714285714285
 40
0.4999999999999999
 40
0.4999999999999999
 40
0.4999999999999999
 40
0.4999999999999999
 40
0.5714285714285713
 40
0.5714285714285713
 40
0.5714285714285713
 40
0.5714285714285713
 40
0.6428571428571427
 40
0.6428571428571427
 40
0.6428571428571427
 40
0.6428571428571427
 40
0.7142857142857141
 40
0.7142857142857141
 40
0.7142857142857141
 40
0.7142857142857141
 40
0.7857142857142855
 40
0.7857142857142855
 40
0.7857142857142855
 40
0.7857142857142855
 40
0.8571428571428569
 40
0.8571428571428569
 40
0.8571428571428569
 40
0.8571428571428569
 40
0.9285714285714283
 40
0.9285714285714283
 40
0.9285714285714283
 40
0.9285714285714283
 40
1.0
 40
1.0
 40
1.0
 40
1.0
 10
0.6948818897637795
 20
0.0372244094488189
 30
0.0
 10
0.6948818897637795
 20
0.0372244094488189
 30
0.0
 10
0.690492125984252
 20
0.0426141732283465
 30
0.0
 10
0.690492125984252
 20
0.0426141732283465
 30
0.0
 10
0.690492125984252
 20
0.0426141732283465
 30
0.0
 10
0.7016062992125984
 20
0.0516692913385827
 30
0.0
 10
0.7071889763779528
 20
0.0592244094488189
 30
0.0
 10
0.7071889763779528
 20
0.0653070866141732
 30
0.0
 10
0.7071889763779528
 20
0.0653070866141732
 30
0.0
 10
0.7071889763779528
 20
0.066
 30
0.0
 10
0.7071338582677166
 20
0.0668897637795276
 30
0.0
 10
0.7070196850393701
 20
0.0679173228346457
 30
0.0
 10
0.7070196850393701
 20
0.0679173228346457
 30
0.0
 10
0.7061062992125985
 20
0.0675275590551181
 30
0.0
 10
0.7051889763779528
 20
0.0672244094488189
 30
0.0
 10
0.7043267716535433
 20
0.0670275590551181
 30
0.0
 10
0.7043267716535433
 20
0.0670275590551181
 30
0.0
 10
0.7034645669291338
 20
0.0668070866141732
 30
0.0
 10
0.7026338582677165
 20
0.0666968503937008
 30
0.0
 10
0.7017992125984253
 20
0.0666968503937008
 30
0.0
 10
0.7017992125984253
 20
0.0666968503937008
 30
0.0
 10
0.699244094488189
 20
0.0666968503937008
 30
0.0
 10
0.6971889763779527
 20
0.0675275590551181
 30
0.0
 10
0.6956338582677165
 20
0.0692244094488189
 30
0.0
 10
0.6956338582677165
 20
0.0692244094488189
 30
0.0
 10
0.6940511811023622
 20
0.0708897637795276
 30
0.0
 10
0.6932716535433071
 20
0.0730275590551181
 30
0.0
 10
0.6932716535433071
 20
0.0756417322834646
 30
0.0
 10
0.6932716535433071
 20
0.0756417322834646
 30
0.0
 10
0.6932716535433071
 20
0.0781968503937008
 30
0.0
 10
0.6942165354330709
 20
0.0804173228346457
 30
0.0
 10
0.6961062992125985
 20
0.0823070866141732
 30
0.0
 10
0.6961062992125985
 20
0.0823070866141732
 30
0.0
 10
0.697992125984252
 20
0.0842244094488189
 30
0.0
 10
0.7002992125984252
 20
0.0851692913385827
 30
0.0
 10
0.7029370078740158
 20
0.0851692913385827
 30
0.0
 10
0.7029370078740158
 20
0.0851692913385827
 30
0.0
 10
0.7066338582677165
 20
0.0851692913385827
 30
0.0
 10
0.7097992125984253
 20
0.0836968503937008
 30
0.0
 10
0.7124370078740158
 20
0.0807244094488189
 30
0.0
 10
0.7124370078740158
 20
0.0807244094488189
 30
0.0
 10
0.7150472440944882
 20
0.0777795275590551
 30
0.0
 10
0.7163818897637796
 20
0.0739724409448819
 30
0.0
 10
0.7163818897637796
 20
0.0693070866141732
 30
0.0
 10
0.7163818897637796
 20
0.0693070866141732
 30
0.0
 10
0.7163818897637796
 20
0.066251968503937
 30
0.0
 10
0.715744094488189
 20
0.0630551181102362
 30
0.0
 10
0.7144921259842521
 20
0.0597244094488189
 30
0.0
 10
0.7144921259842521
 20
0.0597244094488189
 30
0.0
 10
0.713244094488189
 20
0.0563897637795276
 30
0.0
 10
0.7114370078740158
 20
0.0533070866141732
 30
0.0
 10
0.7090511811023622
 20
0.0504448818897638
 30
0.0
 10
0.7090511811023622
 20
0.0504448818897638
 30
0.0
 10
0.7066614173228347
 20
0.0476141732283465
 30
0.0
 10
0.7019370078740158
 20
0.0431968503937008
 30
0.0
 10
0.6948818897637795
 20
0.0372244094488189
 30
0.0
  0
SPLINE
  5
4E
330
1F
100
AcDbEntity
  8
P1-Layer 1
 62
   250
100
AcDbSpline
210
0.0
220
0.0
230
1.0
 70
    11
 71
     3
 72
   108
 73
   104
 74
     0
 42
0.0000000001
 43
0.0000000001
 40
0.0
 40
0.0
 40
0.0
 40
0.0
 40
0.0384615384615385
 40
0.0384615384615385
 40
0.0384615384615385
 40
0.0384615384615385
 40
0.0769230769230769
 40
0.0769230769230769
 40
0.0769230769230769
 40
0.0769230769230769
 40
0.1153846153846154
 40
0.1153846153846154
 40
0.1153846153846154
 40
0.1153846153846154
 40
0.1538461538461539
 40
0.1538461538461539
 40
0.1538461538461539
 40
0.1538461538461539
 40
0.1923076923076923
 40
0.1923076923076923
 40
0.1923076923076923
 40
0.1923076923076923
 40
0.2307692307692308
 40
0.2307692307692308
 40
0.2307692307692308
 40
0.2307692307692308
 40
0.2692307692307693
 40
0.2692307692307693
 40
0.2692307692307693
 40
0.2692307692307693
 40
0.3076923076923077
 40
0.3076923076923077
 40
0.3076923076923077
 40
0.3076923076923077
 40
0.3461538461538462
 40
0.3461538461538462
 40
0.3461538461538462
 40
0.3461538461538462
 40
0.3846153846153846
 40
0.3846153846153846
 40
0.3846153846153846
 40
0.3846153846153846
 40
0.423076923076923
 40
0.423076923076923
 40
0.423076923076923
 40
0.423076923076923
 40
0.4615384615384615
 40
0.4615384615384615
 40
0.4615384615384615
 40
0.4615384615384615
 40
0.4999999999999999
 40
0.4999999999999999
 40
0.4999999999999999
 40
0.4999999999999999
 40
0.5384615384615383
 40
0.5384615384615383
 40
0.5384615384615383
 40
0.5384615384615383
 40
0.5769230769230768
 40
0.5769230769230768
 40
0.5769230769230768
 40
0.5769230769230768
 40
0.6153846153846152
 40
0.6153846153846152
 40
0.6153846153846152
 40
0.6153846153846152
 40
0.6538461538461536
 40
0.6538461538461536
 40
0.6538461538461536
 40
0.6538461538461536
 40
0.6923076923076921
 40
0.6923076923076921
 40
0.6923076923076921
 40
0.6923076923076921
 40
0.7307692307692305
 40
0.7307692307692305
 40
0.7307692307692305
 40
0.7307692307692305
 40
0.7692307692307689
 40
0.7692307692307689
 40
0.7692307692307689
 40
0.7692307692307689
 40
0.8076923076923074
 40
0.8076923076923074
 40
0.8076923076923074
 40
0.8076923076923074
 40
0.8461538461538458
 40
0.8461538461538458
 40
0.8461538461538458
 40
0.8461538461538458
 40
0.8846153846153843
 40
0.8846153846153843
 40
0.8846153846153843
 40
0.8846153846153843
 40
0.9230769230769227
 40
0.9230769230769227
 40
0.9230769230769227
 40
0.9230769230769227
 40
0.9615384615384611
 40
0.9615384615384611
 40
0.9615384615384611
 40
0.9615384615384611
 40
1.0
 40
1.0
 40
1.0
 40
1.0
 10
1.576610236220473
 20
0.6010748031496064
 30
0.0
 10
1.576610236220473
 20
0.6010748031496064
 30
0.0
 10
1.58051968503937
 20
0.6010748031496064
 30
0.0
 10
1.58051968503937
 20
0.6010748031496064
 30
0.0
 10
1.58051968503937
 20
0.6010748031496064
 30
0.0
 10
1.58051968503937
 20
0.6010748031496064
 30
0.0
 10
1.587409448818898
 20
0.5758503937007874
 30
0.0
 10
1.587409448818898
 20
0.5758503937007874
 30
0.0
 10
1.587409448818898
 20
0.5758503937007874
 30
0.0
 10
1.587409448818898
 20
0.5758503937007874
 30
0.0
 10
1.582370078740158
 20
0.5744251968503937
 30
0.0
 10
1.582370078740158
 20
0.5744251968503937
 30
0.0
 10
1.582370078740158
 20
0.5744251968503937
 30
0.0
 10
1.579649606299213
 20
0.5802598425196851
 30
0.0
 10
1.577594488188977
 20
0.5841653543307087
 30
0.0
 10
1.576185039370079
 20
0.5861496062992126
 30
0.0
 10
1.576185039370079
 20
0.5861496062992126
 30
0.0
 10
1.573870078740158
 20
0.5893700787401575
 30
0.0
 10
1.57098031496063
 20
0.5919251968503937
 30
0.0
 10
1.56751968503937
 20
0.5937952755905512
 30
0.0
 10
1.56751968503937
 20
0.5937952755905512
 30
0.0
 10
1.564074803149606
 20
0.5956850393700788
 30
0.0
 10
1.560259842519685
 20
0.5966299212598425
 30
0.0
 10
1.556110236220472
 20
0.5966299212598425
 30
0.0
 10
1.556110236220472
 20
0.5966299212598425
 30
0.0
 10
1.551224409448819
 20
0.5966299212598425
 30
0.0
 10
1.546724409448819
 20
0.5953149606299213
 30
0.0
 10
1.542629921259843
 20
0.5926850393700788
 30
0.0
 10
1.542629921259843
 20
0.5926850393700788
 30
0.0
 10
1.53851968503937
 20
0.5900748031496064
 30
0.0
 10
1.535185039370079
 20
0.5862244094488189
 30
0.0
 10
1.532649606299213
 20
0.5811653543307087
 30
0.0
 10
1.532649606299213
 20
0.5811653543307087
 30
0.0
 10
1.530094488188976
 20
0.5760944881889764
 30
0.0
 10
1.528814960629921
 20
0.5704094488188977
 30
0.0
 10
1.528814960629921
 20
0.5640748031496063
 30
0.0
 10
1.528814960629921
 20
0.5640748031496063
 30
0.0
 10
1.528814960629921
 20
0.5575551181102363
 30
0.0
 10
1.530110236220473
 20
0.551759842519685
 30
0.0
 10
1.532685039370079
 20
0.5466496062992127
 30
0.0
 10
1.532685039370079
 20
0.5466496062992127
 30
0.0
 10
1.535279527559055
 20
0.5415551181102363
 30
0.0
 10
1.538779527559055
 20
0.5376299212598426
 30
0.0
 10
1.543185039370079
 20
0.5348897637795276
 30
0.0
 10
1.543185039370079
 20
0.5348897637795276
 30
0.0
 10
1.547610236220472
 20
0.5321299212598425
 30
0.0
 10
1.552350393700787
 20
0.5307598425196851
 30
0.0
 10
1.557464566929134
 20
0.5307598425196851
 30
0.0
 10
1.557464566929134
 20
0.5307598425196851
 30
0.0
 10
1.562279527559055
 20
0.5307598425196851
 30
0.0
 10
1.567185039370079
 20
0.5321299212598425
 30
0.0
 10
1.572224409448819
 20
0.5348897637795276
 30
0.0
 10
1.572224409448819
 20
0.5348897637795276
 30
0.0
 10
1.577240157480315
 20
0.5376299212598426
 30
0.0
 10
1.581610236220473
 20
0.54148031496063
 30
0.0
 10
1.585295275590551
 20
0.5464448818897638
 30
0.0
 10
1.585295275590551
 20
0.5464448818897638
 30
0.0
 10
1.585295275590551
 20
0.5464448818897638
 30
0.0
 10
1.589629921259843
 20
0.5434645669291339
 30
0.0
 10
1.589629921259843
 20
0.5434645669291339
 30
0.0
 10
1.589629921259843
 20
0.5434645669291339
 30
0.0
 10
1.587389763779528
 20
0.5401299212598425
 30
0.0
 10
1.584964566929134
 20
0.5373149606299212
 30
0.0
 10
1.582370078740158
 20
0.535
 30
0.0
 10
1.582370078740158
 20
0.535
 30
0.0
 10
1.578240157480315
 20
0.5312598425196851
 30
0.0
 10
1.573964566929134
 20
0.5285196850393701
 30
0.0
 10
1.5695
 20
0.526740157480315
 30
0.0
 10
1.5695
 20
0.526740157480315
 30
0.0
 10
1.565055118110236
 20
0.524984251968504
 30
0.0
 10
1.560165354330709
 20
0.5240944881889764
 30
0.0
 10
1.554850393700787
 20
0.5240944881889764
 30
0.0
 10
1.554850393700787
 20
0.5240944881889764
 30
0.0
 10
1.543094488188977
 20
0.5240944881889764
 30
0.0
 10
1.533555118110236
 20
0.5284448818897638
 30
0.0
 10
1.526204724409449
 20
0.5371692913385827
 30
0.0
 10
1.526204724409449
 20
0.5371692913385827
 30
0.0
 10
1.520129921259843
 20
0.5443897637795275
 30
0.0
 10
1.517094488188977
 20
0.5530000000000001
 30
0.0
 10
1.517094488188977
 20
0.56298031496063
 30
0.0
 10
1.517094488188977
 20
0.56298031496063
 30
0.0
 10
1.517094488188977
 20
0.5703346456692914
 30
0.0
 10
1.518779527559055
 20
0.57698031496063
 30
0.0
 10
1.522149606299213
 20
0.5829251968503937
 30
0.0
 10
1.522149606299213
 20
0.5829251968503937
 30
0.0
 10
1.5255
 20
0.5888700787401575
 30
0.0
 10
1.530149606299213
 20
0.5936102362204725
 30
0.0
 10
1.536055118110236
 20
0.5971102362204724
 30
0.0
 10
1.536055118110236
 20
0.5971102362204724
 30
0.0
 10
1.541964566929134
 20
0.6006299212598425
 30
0.0
 10
1.548350393700787
 20
0.6023700787401575
 30
0.0
 10
1.555185039370079
 20
0.6023700787401575
 30
0.0
 10
1.555185039370079
 20
0.6023700787401575
 30
0.0
 10
1.558834645669291
 20
0.6023700787401575
 30
0.0
 10
1.562224409448819
 20
0.6018700787401575
 30
0.0
 10
1.565350393700788
 20
0.6008897637795276
 30
0.0
 10
1.565350393700788
 20
0.6008897637795276
 30
0.0
 10
1.56848031496063
 20
0.5998897637795276
 30
0.0
 10
1.571649606299213
 20
0.5982952755905512
 30
0.0
 10
1.574870078740158
 20
0.5960748031496064
 30
0.0
 10
1.574870078740158
 20
0.5960748031496064
 30
0.0
 10
1.574870078740158
 20
0.5960748031496064
 30
0.0
 10
1.576610236220473
 20
0.6010748031496064
 30
0.0
 10
1.576610236220473
 20
0.6010748031496064
 30
0.0
  0
SPLINE
  5
4F
330
1F
100
AcDbEntity
  8
P1-Layer 1
 62
   250
100
AcDbSpline
210
0.0
220
0.0
230
1.0
 70
    11
 71
     3
 72
   140
 73
   136
 74
     0
 42
0.0000000001
 43
0.0000000001
 40
0.0
 40
0.0
 40
0.0
 40
0.0
 40
0.0294117647058824
 40
0.0294117647058824
 40
0.0294117647058824
 40
0.0294117647058824
 40
0.0588235294117647
 40
0.0588235294117647
 40
0.0588235294117647
 40
0.0588235294117647
 40
0.0882352941176471
 40
0.0882352941176471
 40
0.0882352941176471
 40
0.0882352941176471
 40
0.1176470588235294
 40
0.1176470588235294
 40
0.1176470588235294
 40
0.1176470588235294
 40
0.1470588235294118
 40
0.1470588235294118
 40
0.1470588235294118
 40
0.1470588235294118
 40
0.1764705882352941
 40
0.1764705882352941
 40
0.1764705882352941
 40
0.1764705882352941
 40
0.2058823529411765
 40
0.2058823529411765
 40
0.2058823529411765
 40
0.2058823529411765
 40
0.2352941176470589
 40
0.2352941176470589
 40
0.2352941176470589
 40
0.2352941176470589
 40
0.2647058823529412
 40
0.2647058823529412
 40
0.2647058823529412
 40
0.2647058823529412
 40
0.2941176470588235
 40
0.2941176470588235
 40
0.2941176470588235
 40
0.2941176470588235
 40
0.3235294117647059
 40
0.3235294117647059
 40
0.3235294117647059
 40
0.3235294117647059
 40
0.3529411764705883
 40
0.3529411764705883
 40
0.3529411764705883
 40
0.3529411764705883
 40
0.3823529411764706
 40
0.3823529411764706
 40
0.3823529411764706
 40
0.3823529411764706
 40
0.411764705882353
 40
0.411764705882353
 40
0.411764705882353
 40
0.411764705882353
 40
0.4411764705882353
 40
0.4411764705882353
 40
0.4411764705882353
 40
0.4411764705882353
 40
0.4705882352941177
 40
0.4705882352941177
 40
0.4705882352941177
 40
0.4705882352941177
 40
0.5
 40
0.5
 40
0.5
 40
0.5
 40
0.5294117647058824
 40
0.5294117647058824
 40
0.5294117647058824
 40
0.5294117647058824
 40
0.5588235294117647
 40
0.5588235294117647
 40
0.5588235294117647
 40
0.5588235294117647
 40
0.5882352941176471
 40
0.5882352941176471
 40
0.5882352941176471
 40
0.5882352941176471
 40
0.6176470588235294
 40
0.6176470588235294
 40
0.6176470588235294
 40
0.6176470588235294
 40
0.6470588235294118
 40
0.6470588235294118
 40
0.6470588235294118
 40
0.6470588235294118
 40
0.6764705882352942
 40
0.6764705882352942
 40
0.6764705882352942
 40
0.6764705882352942
 40
0.7058823529411765
 40
0.7058823529411765
 40
0.7058823529411765
 40
0.7058823529411765
 40
0.7352941176470589
 40
0.7352941176470589
 40
0.7352941176470589
 40
0.7352941176470589
 40
0.7647058823529412
 40
0.7647058823529412
 40
0.7647058823529412
 40
0.7647058823529412
 40
0.7941176470588236
 40
0.7941176470588236
 40
0.7941176470588236
 40
0.7941176470588236
 40
0.823529411764706
 40
0.823529411764706
 40
0.823529411764706
 40
0.823529411764706
 40
0.8529411764705883
 40
0.8529411764705883
 40
0.8529411764705883
 40
0.8529411764705883
 40
0.8823529411764707
 40
0.8823529411764707
 40
0.8823529411764707
 40
0.8823529411764707
 40
0.911764705882353
 40
0.911764705882353
 40
0.911764705882353
 40
0.911764705882353
 40
0.9411764705882354
 40
0.9411764705882354
 40
0.9411764705882354
 40
0.9411764705882354
 40
0.9705882352941178
 40
0.9705882352941178
 40
0.9705882352941178
 40
0.9705882352941178
 40
1.0
 40
1.0
 40
1.0
 40
1.0
 10
1.636279527559055
 20
0.5567952755905512
 30
0.0
 10
1.636279527559055
 20
0.5567952755905512
 30
0.0
 10
1.636279527559055
 20
0.562724409448819
 30
0.0
 10
1.636279527559055
 20
0.562724409448819
 30
0.0
 10
1.636279527559055
 20
0.562724409448819
 30
0.0
 10
1.636279527559055
 20
0.566724409448819
 30
0.0
 10
1.635165354330709
 20
0.5695944881889764
 30
0.0
 10
1.632925196850394
 20
0.5713149606299213
 30
0.0
 10
1.632925196850394
 20
0.5713149606299213
 30
0.0
 10
1.630685039370079
 20
0.5730393700787402
 30
0.0
 10
1.62751968503937
 20
0.5738897637795276
 30
0.0
 10
1.623425196850394
 20
0.5738897637795276
 30
0.0
 10
1.623425196850394
 20
0.5738897637795276
 30
0.0
 10
1.621409448818898
 20
0.5738897637795276
 30
0.0
 10
1.619629921259843
 20
0.5736496062992126
 30
0.0
 10
1.618110236220473
 20
0.5731653543307087
 30
0.0
 10
1.618110236220473
 20
0.5731653543307087
 30
0.0
 10
1.616594488188976
 20
0.5726653543307086
 30
0.0
 10
1.615370078740158
 20
0.5720000000000001
 30
0.0
 10
1.614444881889764
 20
0.5711496062992126
 30
0.0
 10
1.614444881889764
 20
0.5711496062992126
 30
0.0
 10
1.61351968503937
 20
0.5702952755905512
 30
0.0
 10
1.612850393700787
 20
0.5693346456692914
 30
0.0
 10
1.612409448818898
 20
0.568240157480315
 30
0.0
 10
1.612409448818898
 20
0.568240157480315
 30
0.0
 10
1.612224409448819
 20
0.5678543307086614
 30
0.0
 10
1.611795275590551
 20
0.5663149606299213
 30
0.0
 10
1.611110236220473
 20
0.5636299212598426
 30
0.0
 10
1.611110236220473
 20
0.5636299212598426
 30
0.0
 10
1.610279527559055
 20
0.5603897637795275
 30
0.0
 10
1.608594488188976
 20
0.558759842519685
 30
0.0
 10
1.606055118110236
 20
0.558759842519685
 30
0.0
 10
1.606055118110236
 20
0.558759842519685
 30
0.0
 10
1.604610236220473
 20
0.558759842519685
 30
0.0
 10
1.603444881889764
 20
0.559240157480315
 30
0.0
 10
1.602555118110236
 20
0.5601850393700788
 30
0.0
 10
1.602555118110236
 20
0.5601850393700788
 30
0.0
 10
1.601685039370079
 20
0.5611496062992126
 30
0.0
 10
1.601240157480315
 20
0.5624448818897638
 30
0.0
 10
1.601240157480315
 20
0.5640748031496063
 30
0.0
 10
1.601240157480315
 20
0.5640748031496063
 30
0.0
 10
1.601240157480315
 20
0.5664645669291338
 30
0.0
 10
1.602129921259843
 20
0.5687952755905512
 30
0.0
 10
1.603889763779528
 20
0.5710944881889764
 30
0.0
 10
1.603889763779528
 20
0.5710944881889764
 30
0.0
 10
1.605665354330709
 20
0.5733897637795276
 30
0.0
 10
1.608370078740158
 20
0.5752952755905512
 30
0.0
 10
1.612
 20
0.5767952755905512
 30
0.0
 10
1.612
 20
0.5767952755905512
 30
0.0
 10
1.615629921259843
 20
0.5782952755905512
 30
0.0
 10
1.619925196850394
 20
0.5790393700787402
 30
0.0
 10
1.624889763779528
 20
0.5790393700787402
 30
0.0
 10
1.624889763779528
 20
0.5790393700787402
 30
0.0
 10
1.62951968503937
 20
0.5790393700787402
 30
0.0
 10
1.63348031496063
 20
0.5783346456692914
 30
0.0
 10
1.636779527559055
 20
0.5769094488188976
 30
0.0
 10
1.636779527559055
 20
0.5769094488188976
 30
0.0
 10
1.640055118110236
 20
0.5754803149606299
 30
0.0
 10
1.64248031496063
 20
0.5734251968503937
 30
0.0
 10
1.644035433070866
 20
0.570740157480315
 30
0.0
 10
1.644035433070866
 20
0.570740157480315
 30
0.0
 10
1.645129921259843
 20
0.5689094488188977
 30
0.0
 10
1.645665354330709
 20
0.5655393700787402
 30
0.0
 10
1.645665354330709
 20
0.5606496062992126
 30
0.0
 10
1.645665354330709
 20
0.5606496062992126
 30
0.0
 10
1.645665354330709
 20
0.5606496062992126
 30
0.0
 10
1.645665354330709
 20
0.539759842519685
 30
0.0
 10
1.645665354330709
 20
0.539759842519685
 30
0.0
 10
1.645665354330709
 20
0.539759842519685
 30
0.0
 10
1.645665354330709
 20
0.5367952755905512
 30
0.0
 10
1.645759842519685
 20
0.5348700787401575
 30
0.0
 10
1.645944881889764
 20
0.5339645669291339
 30
0.0
 10
1.645944881889764
 20
0.5339645669291339
 30
0.0
 10
1.646334645669291
 20
0.5324094488188976
 30
0.0
 10
1.647035433070866
 20
0.531240157480315
 30
0.0
 10
1.648035433070866
 20
0.5304645669291339
 30
0.0
 10
1.648035433070866
 20
0.5304645669291339
 30
0.0
 10
1.64901968503937
 20
0.5296850393700787
 30
0.0
 10
1.650314960629921
 20
0.5292952755905512
 30
0.0
 10
1.651909448818898
 20
0.5292952755905512
 30
0.0
 10
1.651909448818898
 20
0.5292952755905512
 30
0.0
 10
1.653574803149606
 20
0.5292952755905512
 30
0.0
 10
1.655555118110236
 20
0.5296850393700787
 30
0.0
 10
1.657870078740158
 20
0.5304842519685039
 30
0.0
 10
1.657870078740158
 20
0.5304842519685039
 30
0.0
 10
1.657870078740158
 20
0.5304842519685039
 30
0.0
 10
1.657870078740158
 20
0.5257795275590551
 30
0.0
 10
1.657870078740158
 20
0.5257795275590551
 30
0.0
 10
1.657870078740158
 20
0.5257795275590551
 30
0.0
 10
1.654870078740158
 20
0.5249094488188977
 30
0.0
 10
1.652185039370079
 20
0.5244645669291339
 30
0.0
 10
1.649795275590551
 20
0.5244645669291339
 30
0.0
 10
1.649795275590551
 20
0.5244645669291339
 30
0.0
 10
1.647220472440945
 20
0.5244645669291339
 30
0.0
 10
1.645055118110236
 20
0.5248346456692914
 30
0.0
 10
1.643314960629921
 20
0.5255551181102363
 30
0.0
 10
1.643314960629921
 20
0.5255551181102363
 30
0.0
 10
1.641555118110236
 20
0.5262795275590552
 30
0.0
 10
1.640110236220473
 20
0.5273346456692913
 30
0.0
 10
1.639
 20
0.5287244094488189
 30
0.0
 10
1.639
 20
0.5287244094488189
 30
0.0
 10
1.637870078740157
 20
0.5301102362204725
 30
0.0
 10
1.637149606299213
 20
0.5317795275590551
 30
0.0
 10
1.636834645669292
 20
0.5336850393700787
 30
0.0
 10
1.636834645669292
 20
0.5336850393700787
 30
0.0
 10
1.63248031496063
 20
0.5302952755905512
 30
0.0
 10
1.628555118110236
 20
0.5279094488188977
 30
0.0
 10
1.625055118110236
 20
0.5265393700787402
 30
0.0
 10
1.625055118110236
 20
0.5265393700787402
 30
0.0
 10
1.621535433070866
 20
0.5251496062992126
 30
0.0
 10
1.618
 20
0.5244645669291339
 30
0.0
 10
1.614425196850394
 20
0.5244645669291339
 30
0.0
 10
1.614425196850394
 20
0.5244645669291339
 30
0.0
 10
1.609425196850394
 20
0.5244645669291339
 30
0.0
 10
1.605370078740158
 20
0.5258149606299213
 30
0.0
 10
1.602259842519685
 20
0.5285393700787402
 30
0.0
 10
1.602259842519685
 20
0.5285393700787402
 30
0.0
 10
1.599149606299213
 20
0.531240157480315
 30
0.0
 10
1.597594488188977
 20
0.5344251968503937
 30
0.0
 10
1.597594488188977
 20
0.5380944881889764
 30
0.0
 10
1.597594488188977
 20
0.5380944881889764
 30
0.0
 10
1.597594488188977
 20
0.5402952755905512
 30
0.0
 10
1.598165354330709
 20
0.5423897637795276
 30
0.0
 10
1.599314960629921
 20
0.5443700787401575
 30
0.0
 10
1.599314960629921
 20
0.5443700787401575
 30
0.0
 10
1.600444881889764
 20
0.5463700787401575
 30
0.0
 10
1.602185039370079
 20
0.5481299212598425
 30
0.0
 10
1.60451968503937
 20
0.5496496062992127
 30
0.0
 10
1.60451968503937
 20
0.5496496062992127
 30
0.0
 10
1.606850393700787
 20
0.5511692913385827
 30
0.0
 10
1.61051968503937
 20
0.5525
 30
0.0
 10
1.6155
 20
0.5536496062992127
 30
0.0
 10
1.6155
 20
0.5536496062992127
 30
0.0
 10
1.6205
 20
0.5548149606299213
 30
0.0
 10
1.627425196850394
 20
0.5558700787401575
 30
0.0
 10
1.636279527559055
 20
0.5567952755905512
 30
0.0
  0
SPLINE
  5
50
330
1F
100
AcDbEntity
  8
P1-Layer 1
 62
   250
100
AcDbSpline
210
0.0
220
0.0
230
1.0
 70
    11
 71
     3
 72
    44
 73
    40
 74
     0
 42
0.0000000001
 43
0.0000000001
 40
0.0
 40
0.0
 40
0.0
 40
0.0
 40
0.1
 40
0.1
 40
0.1
 40
0.1
 40
0.2
 40
0.2
 40
0.2
 40
0.2
 40
0.3
 40
0.3
 40
0.3
 40
0.3
 40
0.4
 40
0.4
 40
0.4
 40
0.4
 40
0.5
 40
0.5
 40
0.5
 40
0.5
 40
0.6
 40
0.6
 40
0.6
 40
0.6
 40
0.7
 40
0.7
 40
0.7
 40
0.7
 40
0.7999999999999999
 40
0.7999999999999999
 40
0.7999999999999999
 40
0.7999999999999999
 40
0.8999999999999999
 40
0.8999999999999999
 40
0.8999999999999999
 40
0.8999999999999999
 40
1.0
 40
1.0
 40
1.0
 40
1.0
 10
1.636279527559055
 20
0.5520748031496063
 30
0.0
 10
1.627889763779528
 20
0.5508543307086614
 30
0.0
 10
1.622704724409449
 20
0.55
 30
0.0
 10
1.620704724409449
 20
0.5495393700787402
 30
0.0
 10
1.620704724409449
 20
0.5495393700787402
 30
0.0
 10
1.616779527559055
 20
0.5486299212598426
 30
0.0
 10
1.613944881889764
 20
0.5476299212598426
 30
0.0
 10
1.612240157480315
 20
0.5465551181102363
 30
0.0
 10
1.612240157480315
 20
0.5465551181102363
 30
0.0
 10
1.610555118110236
 20
0.5454645669291339
 30
0.0
 10
1.609334645669291
 20
0.5442952755905512
 30
0.0
 10
1.608610236220473
 20
0.5430551181102362
 30
0.0
 10
1.608610236220473
 20
0.5430551181102362
 30
0.0
 10
1.607889763779528
 20
0.5417952755905512
 30
0.0
 10
1.60753937007874
 20
0.5404645669291339
 30
0.0
 10
1.60753937007874
 20
0.5390551181102362
 30
0.0
 10
1.60753937007874
 20
0.5390551181102362
 30
0.0
 10
1.60753937007874
 20
0.5376496062992127
 30
0.0
 10
1.607925196850394
 20
0.5362795275590552
 30
0.0
 10
1.608740157480315
 20
0.5349645669291339
 30
0.0
 10
1.608740157480315
 20
0.5349645669291339
 30
0.0
 10
1.609555118110236
 20
0.5336496062992127
 30
0.0
 10
1.610704724409449
 20
0.5326102362204724
 30
0.0
 10
1.612185039370079
 20
0.5318543307086614
 30
0.0
 10
1.612185039370079
 20
0.5318543307086614
 30
0.0
 10
1.613685039370079
 20
0.5310944881889764
 30
0.0
 10
1.615259842519685
 20
0.5307047244094488
 30
0.0
 10
1.616909448818898
 20
0.5307047244094488
 30
0.0
 10
1.616909448818898
 20
0.5307047244094488
 30
0.0
 10
1.619259842519685
 20
0.5307047244094488
 30
0.0
 10
1.621925196850394
 20
0.5312598425196851
 30
0.0
 10
1.624889763779528
 20
0.5323897637795276
 30
0.0
 10
1.624889763779528
 20
0.5323897637795276
 30
0.0
 10
1.627850393700788
 20
0.5335
 30
0.0
 10
1.631649606299213
 20
0.5357047244094488
 30
0.0
 10
1.636279527559055
 20
0.5389448818897638
 30
0.0
 10
1.636279527559055
 20
0.5389448818897638
 30
0.0
 10
1.636279527559055
 20
0.5389448818897638
 30
0.0
 10
1.636279527559055
 20
0.5520748031496063
 30
0.0
 10
1.636279527559055
 20
0.5520748031496063
 30
0.0
  0
SPLINE
  5
51
330
1F
100
AcDbEntity
  8
P1-Layer 1
 62
   250
100
AcDbSpline
210
0.0
220
0.0
230
1.0
 70
    11
 71
     3
 72
   140
 73
   136
 74
     0
 42
0.0000000001
 43
0.0000000001
 40
0.0
 40
0.0
 40
0.0
 40
0.0
 40
0.0294117647058824
 40
0.0294117647058824
 40
0.0294117647058824
 40
0.0294117647058824
 40
0.0588235294117647
 40
0.0588235294117647
 40
0.0588235294117647
 40
0.0588235294117647
 40
0.0882352941176471
 40
0.0882352941176471
 40
0.0882352941176471
 40
0.0882352941176471
 40
0.1176470588235294
 40
0.1176470588235294
 40
0.1176470588235294
 40
0.1176470588235294
 40
0.1470588235294118
 40
0.1470588235294118
 40
0.1470588235294118
 40
0.1470588235294118
 40
0.1764705882352941
 40
0.1764705882352941
 40
0.1764705882352941
 40
0.1764705882352941
 40
0.2058823529411765
 40
0.2058823529411765
 40
0.2058823529411765
 40
0.2058823529411765
 40
0.2352941176470589
 40
0.2352941176470589
 40
0.2352941176470589
 40
0.2352941176470589
 40
0.2647058823529412
 40
0.2647058823529412
 40
0.2647058823529412
 40
0.2647058823529412
 40
0.2941176470588235
 40
0.2941176470588235
 40
0.2941176470588235
 40
0.2941176470588235
 40
0.3235294117647059
 40
0.3235294117647059
 40
0.3235294117647059
 40
0.3235294117647059
 40
0.3529411764705883
 40
0.3529411764705883
 40
0.3529411764705883
 40
0.3529411764705883
 40
0.3823529411764706
 40
0.3823529411764706
 40
0.3823529411764706
 40
0.3823529411764706
 40
0.411764705882353
 40
0.411764705882353
 40
0.411764705882353
 40
0.411764705882353
 40
0.4411764705882353
 40
0.4411764705882353
 40
0.4411764705882353
 40
0.4411764705882353
 40
0.4705882352941177
 40
0.4705882352941177
 40
0.4705882352941177
 40
0.4705882352941177
 40
0.5
 40
0.5
 40
0.5
 40
0.5
 40
0.5294117647058824
 40
0.5294117647058824
 40
0.5294117647058824
 40
0.5294117647058824
 40
0.5588235294117647
 40
0.5588235294117647
 40
0.5588235294117647
 40
0.5588235294117647
 40
0.5882352941176471
 40
0.5882352941176471
 40
0.5882352941176471
 40
0.5882352941176471
 40
0.6176470588235294
 40
0.6176470588235294
 40
0.6176470588235294
 40
0.6176470588235294
 40
0.6470588235294118
 40
0.6470588235294118
 40
0.6470588235294118
 40
0.6470588235294118
 40
0.6764705882352942
 40
0.6764705882352942
 40
0.6764705882352942
 40
0.6764705882352942
 40
0.7058823529411765
 40
0.7058823529411765
 40
0.7058823529411765
 40
0.7058823529411765
 40
0.7352941176470589
 40
0.7352941176470589
 40
0.7352941176470589
 40
0.7352941176470589
 40
0.7647058823529412
 40
0.7647058823529412
 40
0.7647058823529412
 40
0.7647058823529412
 40
0.7941176470588236
 40
0.7941176470588236
 40
0.7941176470588236
 40
0.7941176470588236
 40
0.823529411764706
 40
0.823529411764706
 40
0.823529411764706
 40
0.823529411764706
 40
0.8529411764705883
 40
0.8529411764705883
 40
0.8529411764705883
 40
0.8529411764705883
 40
0.8823529411764707
 40
0.8823529411764707
 40
0.8823529411764707
 40
0.8823529411764707
 40
0.911764705882353
 40
0.911764705882353
 40
0.911764705882353
 40
0.911764705882353
 40
0.9411764705882354
 40
0.9411764705882354
 40
0.9411764705882354
 40
0.9411764705882354
 40
0.9705882352941178
 40
0.9705882352941178
 40
0.9705882352941178
 40
0.9705882352941178
 40
1.0
 40
1.0
 40
1.0
 40
1.0
 10
1.698444881889764
 20
0.5777401574803149
 30
0.0
 10
1.698444881889764
 20
0.5777401574803149
 30
0.0
 10
1.702240157480315
 20
0.5777401574803149
 30
0.0
 10
1.702240157480315
 20
0.5777401574803149
 30
0.0
 10
1.702240157480315
 20
0.5777401574803149
 30
0.0
 10
1.702240157480315
 20
0.5777401574803149
 30
0.0
 10
1.707129921259843
 20
0.5611496062992126
 30
0.0
 10
1.707129921259843
 20
0.5611496062992126
 30
0.0
 10
1.707129921259843
 20
0.5611496062992126
 30
0.0
 10
1.707129921259843
 20
0.5611496062992126
 30
0.0
 10
1.702240157480315
 20
0.5595196850393701
 30
0.0
 10
1.702240157480315
 20
0.5595196850393701
 30
0.0
 10
1.702240157480315
 20
0.5595196850393701
 30
0.0
 10
1.700295275590551
 20
0.5639645669291339
 30
0.0
 10
1.697555118110236
 20
0.5674645669291338
 30
0.0
 10
1.69401968503937
 20
0.5700196850393701
 30
0.0
 10
1.69401968503937
 20
0.5700196850393701
 30
0.0
 10
1.6905
 20
0.5725551181102363
 30
0.0
 10
1.686925196850394
 20
0.5738346456692913
 30
0.0
 10
1.683314960629921
 20
0.5738346456692913
 30
0.0
 10
1.683314960629921
 20
0.5738346456692913
 30
0.0
 10
1.68051968503937
 20
0.5738346456692913
 30
0.0
 10
1.678259842519685
 20
0.5731653543307087
 30
0.0
 10
1.67653937007874
 20
0.5717952755905512
 30
0.0
 10
1.67653937007874
 20
0.5717952755905512
 30
0.0
 10
1.674795275590551
 20
0.5704448818897638
 30
0.0
 10
1.673925196850394
 20
0.5688897637795276
 30
0.0
 10
1.673925196850394
 20
0.5671102362204724
 30
0.0
 10
1.673925196850394
 20
0.5671102362204724
 30
0.0
 10
1.673925196850394
 20
0.5654448818897638
 30
0.0
 10
1.674555118110236
 20
0.5640196850393701
 30
0.0
 10
1.675834645669291
 20
0.5628149606299213
 30
0.0
 10
1.675834645669291
 20
0.5628149606299213
 30
0.0
 10
1.677055118110236
 20
0.5615944881889764
 30
0.0
 10
1.679814960629921
 20
0.5602047244094488
 30
0.0
 10
1.684129921259843
 20
0.5586496062992126
 30
0.0
 10
1.684129921259843
 20
0.5586496062992126
 30
0.0
 10
1.684129921259843
 20
0.5586496062992126
 30
0.0
 10
1.694704724409449
 20
0.5549094488188977
 30
0.0
 10
1.694704724409449
 20
0.5549094488188977
 30
0.0
 10
1.694704724409449
 20
0.5549094488188977
 30
0.0
 10
1.700669291338583
 20
0.5527795275590551
 30
0.0
 10
1.704740157480315
 20
0.55048031496063
 30
0.0
 10
1.706909448818898
 20
0.5480748031496063
 30
0.0
 10
1.706909448818898
 20
0.5480748031496063
 30
0.0
 10
1.70903937007874
 20
0.5456102362204724
 30
0.0
 10
1.710110236220473
 20
0.5428149606299213
 30
0.0
 10
1.710110236220473
 20
0.5397047244094488
 30
0.0
 10
1.710110236220473
 20
0.5397047244094488
 30
0.0
 10
1.710110236220473
 20
0.5370748031496063
 30
0.0
 10
1.709314960629921
 20
0.5345393700787402
 30
0.0
 10
1.707724409448819
 20
0.5320944881889764
 30
0.0
 10
1.707724409448819
 20
0.5320944881889764
 30
0.0
 10
1.706129921259843
 20
0.5296496062992127
 30
0.0
 10
1.703834645669291
 20
0.5277047244094488
 30
0.0
 10
1.700814960629921
 20
0.5262598425196851
 30
0.0
 10
1.700814960629921
 20
0.5262598425196851
 30
0.0
 10
1.697795275590551
 20
0.5248149606299213
 30
0.0
 10
1.694334645669291
 20
0.5240944881889764
 30
0.0
 10
1.690425196850394
 20
0.5240944881889764
 30
0.0
 10
1.690425196850394
 20
0.5240944881889764
 30
0.0
 10
1.684334645669291
 20
0.5240944881889764
 30
0.0
 10
1.679129921259843
 20
0.5258149606299213
 30
0.0
 10
1.674795275590551
 20
0.5292952755905512
 30
0.0
 10
1.674795275590551
 20
0.5292952755905512
 30
0.0
 10
1.674795275590551
 20
0.5292952755905512
 30
0.0
 10
1.673649606299213
 20
0.5253897637795276
 30
0.0
 10
1.673649606299213
 20
0.5253897637795276
 30
0.0
 10
1.673649606299213
 20
0.5253897637795276
 30
0.0
 10
1.673649606299213
 20
0.5253897637795276
 30
0.0
 10
1.669795275590551
 20
0.5253897637795276
 30
0.0
 10
1.669795275590551
 20
0.5253897637795276
 30
0.0
 10
1.669795275590551
 20
0.5253897637795276
 30
0.0
 10
1.669795275590551
 20
0.5253897637795276
 30
0.0
 10
1.66301968503937
 20
0.5431299212598425
 30
0.0
 10
1.66301968503937
 20
0.5431299212598425
 30
0.0
 10
1.66301968503937
 20
0.5431299212598425
 30
0.0
 10
1.66301968503937
 20
0.5431299212598425
 30
0.0
 10
1.667964566929134
 20
0.5450748031496063
 30
0.0
 10
1.667964566929134
 20
0.5450748031496063
 30
0.0
 10
1.667964566929134
 20
0.5450748031496063
 30
0.0
 10
1.671240157480315
 20
0.5398700787401575
 30
0.0
 10
1.674354330708662
 20
0.5361850393700788
 30
0.0
 10
1.677295275590551
 20
0.5340196850393701
 30
0.0
 10
1.677295275590551
 20
0.5340196850393701
 30
0.0
 10
1.681370078740158
 20
0.5309448818897639
 30
0.0
 10
1.685795275590551
 20
0.5294094488188976
 30
0.0
 10
1.69051968503937
 20
0.5294094488188976
 30
0.0
 10
1.69051968503937
 20
0.5294094488188976
 30
0.0
 10
1.693669291338583
 20
0.5294094488188976
 30
0.0
 10
1.696259842519685
 20
0.5302401574803149
 30
0.0
 10
1.698279527559055
 20
0.5319251968503937
 30
0.0
 10
1.698279527559055
 20
0.5319251968503937
 30
0.0
 10
1.700314960629921
 20
0.5336102362204724
 30
0.0
 10
1.701314960629921
 20
0.53548031496063
 30
0.0
 10
1.701314960629921
 20
0.5375393700787402
 30
0.0
 10
1.701314960629921
 20
0.5375393700787402
 30
0.0
 10
1.701314960629921
 20
0.539240157480315
 30
0.0
 10
1.700685039370079
 20
0.5407952755905512
 30
0.0
 10
1.699425196850394
 20
0.5422047244094489
 30
0.0
 10
1.699425196850394
 20
0.5422047244094489
 30
0.0
 10
1.698129921259843
 20
0.5435748031496063
 30
0.0
 10
1.695629921259843
 20
0.5449251968503938
 30
0.0
 10
1.691944881889764
 20
0.5462244094488189
 30
0.0
 10
1.691944881889764
 20
0.5462244094488189
 30
0.0
 10
1.691944881889764
 20
0.5462244094488189
 30
0.0
 10
1.679409448818898
 20
0.5507795275590551
 30
0.0
 10
1.679409448818898
 20
0.5507795275590551
 30
0.0
 10
1.679409448818898
 20
0.5507795275590551
 30
0.0
 10
1.67401968503937
 20
0.552740157480315
 30
0.0
 10
1.670279527559055
 20
0.5548700787401575
 30
0.0
 10
1.668169291338583
 20
0.5571850393700788
 30
0.0
 10
1.668169291338583
 20
0.5571850393700788
 30
0.0
 10
1.666074803149606
 20
0.5595
 30
0.0
 10
1.66503937007874
 20
0.5621496062992126
 30
0.0
 10
1.66503937007874
 20
0.5651496062992126
 30
0.0
 10
1.66503937007874
 20
0.5651496062992126
 30
0.0
 10
1.66503937007874
 20
0.5688149606299213
 30
0.0
 10
1.666740157480315
 20
0.5720393700787402
 30
0.0
 10
1.670149606299213
 20
0.5748346456692913
 30
0.0
 10
1.670149606299213
 20
0.5748346456692913
 30
0.0
 10
1.673574803149606
 20
0.5776496062992126
 30
0.0
 10
1.677925196850394
 20
0.5790393700787402
 30
0.0
 10
1.683204724409449
 20
0.5790393700787402
 30
0.0
 10
1.683204724409449
 20
0.5790393700787402
 30
0.0
 10
1.685944881889764
 20
0.5790393700787402
 30
0.0
 10
1.688409448818898
 20
0.5786850393700788
 30
0.0
 10
1.690574803149606
 20
0.57798031496063
 30
0.0
 10
1.690574803149606
 20
0.57798031496063
 30
0.0
 10
1.692759842519685
 20
0.5772795275590551
 30
0.0
 10
1.694889763779528
 20
0.5761102362204724
 30
0.0
 10
1.69698031496063
 20
0.5744803149606299
 30
0.0
 10
1.69698031496063
 20
0.5744803149606299
 30
0.0
 10
1.69698031496063
 20
0.5744803149606299
 30
0.0
 10
1.698444881889764
 20
0.5777401574803149
 30
0.0
 10
1.698444881889764
 20
0.5777401574803149
 30
0.0
  0
SPLINE
  5
52
330
1F
100
AcDbEntity
  8
P1-Layer 1
 62
   250
100
AcDbSpline
210
0.0
220
0.0
230
1.0
 70
    11
 71
     3
 72
    88
 73
    84
 74
     0
 42
0.0000000001
 43
0.0000000001
 40
0.0
 40
0.0
 40
0.0
 40
0.0
 40
0.0476190476190476
 40
0.0476190476190476
 40
0.0476190476190476
 40
0.0476190476190476
 40
0.0952380952380952
 40
0.0952380952380952
 40
0.0952380952380952
 40
0.0952380952380952
 40
0.1428571428571429
 40
0.1428571428571429
 40
0.1428571428571429
 40
0.1428571428571429
 40
0.1904761904761905
 40
0.1904761904761905
 40
0.1904761904761905
 40
0.1904761904761905
 40
0.2380952380952381
 40
0.2380952380952381
 40
0.2380952380952381
 40
0.2380952380952381
 40
0.2857142857142857
 40
0.2857142857142857
 40
0.2857142857142857
 40
0.2857142857142857
 40
0.3333333333333333
 40
0.3333333333333333
 40
0.3333333333333333
 40
0.3333333333333333
 40
0.3809523809523809
 40
0.3809523809523809
 40
0.3809523809523809
 40
0.3809523809523809
 40
0.4285714285714286
 40
0.4285714285714286
 40
0.4285714285714286
 40
0.4285714285714286
 40
0.4761904761904762
 40
0.4761904761904762
 40
0.4761904761904762
 40
0.4761904761904762
 40
0.5238095238095237
 40
0.5238095238095237
 40
0.5238095238095237
 40
0.5238095238095237
 40
0.5714285714285714
 40
0.5714285714285714
 40
0.5714285714285714
 40
0.5714285714285714
 40
0.6190476190476191
 40
0.6190476190476191
 40
0.6190476190476191
 40
0.6190476190476191
 40
0.6666666666666667
 40
0.6666666666666667
 40
0.6666666666666667
 40
0.6666666666666667
 40
0.7142857142857144
 40
0.7142857142857144
 40
0.7142857142857144
 40
0.7142857142857144
 40
0.7619047619047621
 40
0.7619047619047621
 40
0.7619047619047621
 40
0.7619047619047621
 40
0.8095238095238098
 40
0.8095238095238098
 40
0.8095238095238098
 40
0.8095238095238098
 40
0.8571428571428574
 40
0.8571428571428574
 40
0.8571428571428574
 40
0.8571428571428574
 40
0.9047619047619051
 40
0.9047619047619051
 40
0.9047619047619051
 40
0.9047619047619051
 40
0.9523809523809528
 40
0.9523809523809528
 40
0.9523809523809528
 40
0.9523809523809528
 40
1.0
 40
1.0
 40
1.0
 40
1.0
 10
1.76594094488189
 20
0.5393897637795276
 30
0.0
 10
1.76594094488189
 20
0.5393897637795276
 30
0.0
 10
1.769405511811024
 20
0.5365748031496064
 30
0.0
 10
1.769405511811024
 20
0.5365748031496064
 30
0.0
 10
1.769405511811024
 20
0.5365748031496064
 30
0.0
 10
1.766775590551181
 20
0.5334251968503937
 30
0.0
 10
1.764200787401575
 20
0.5309251968503937
 30
0.0
 10
1.761740157480315
 20
0.5290748031496063
 30
0.0
 10
1.761740157480315
 20
0.5290748031496063
 30
0.0
 10
1.759255905511811
 20
0.5272401574803149
 30
0.0
 10
1.756905511811024
 20
0.5259448818897639
 30
0.0
 10
1.754700787401575
 20
0.5252047244094489
 30
0.0
 10
1.754700787401575
 20
0.5252047244094489
 30
0.0
 10
1.7525
 20
0.5244645669291339
 30
0.0
 10
1.749905511811024
 20
0.5240944881889764
 30
0.0
 10
1.746944881889764
 20
0.5240944881889764
 30
0.0
 10
1.746944881889764
 20
0.5240944881889764
 30
0.0
 10
1.741629921259843
 20
0.5240944881889764
 30
0.0
 10
1.737110236220472
 20
0.5251692913385827
 30
0.0
 10
1.733385826771654
 20
0.5273346456692913
 30
0.0
 10
1.733385826771654
 20
0.5273346456692913
 30
0.0
 10
1.729110236220472
 20
0.5298346456692914
 30
0.0
 10
1.725850393700787
 20
0.5330944881889764
 30
0.0
 10
1.723574803149606
 20
0.5371102362204725
 30
0.0
 10
1.723574803149606
 20
0.5371102362204725
 30
0.0
 10
1.721275590551181
 20
0.5411299212598425
 30
0.0
 10
1.720145669291339
 20
0.5458543307086614
 30
0.0
 10
1.720145669291339
 20
0.5513149606299213
 30
0.0
 10
1.720145669291339
 20
0.5513149606299213
 30
0.0
 10
1.720145669291339
 20
0.5570393700787402
 30
0.0
 10
1.721259842519685
 20
0.5619251968503938
 30
0.0
 10
1.72346062992126
 20
0.5659645669291339
 30
0.0
 10
1.72346062992126
 20
0.5659645669291339
 30
0.0
 10
1.725665354330709
 20
0.5700196850393701
 30
0.0
 10
1.728740157480315
 20
0.5732244094488189
 30
0.0
 10
1.732700787401575
 20
0.5755551181102363
 30
0.0
 10
1.732700787401575
 20
0.5755551181102363
 30
0.0
 10
1.736665354330709
 20
0.5778700787401575
 30
0.0
 10
1.741259842519685
 20
0.5790393700787402
 30
0.0
 10
1.74646062992126
 20
0.5790393700787402
 30
0.0
 10
1.74646062992126
 20
0.5790393700787402
 30
0.0
 10
1.750330708661418
 20
0.5790393700787402
 30
0.0
 10
1.753685039370079
 20
0.5784448818897638
 30
0.0
 10
1.756555118110236
 20
0.5772244094488189
 30
0.0
 10
1.756555118110236
 20
0.5772244094488189
 30
0.0
 10
1.759405511811024
 20
0.5760196850393701
 30
0.0
 10
1.761830708661417
 20
0.5741850393700788
 30
0.0
 10
1.763814960629921
 20
0.571740157480315
 30
0.0
 10
1.763814960629921
 20
0.571740157480315
 30
0.0
 10
1.765814960629921
 20
0.5693149606299213
 30
0.0
 10
1.767255905511811
 20
0.5665196850393701
 30
0.0
 10
1.768165354330709
 20
0.5633700787401575
 30
0.0
 10
1.768165354330709
 20
0.5633700787401575
 30
0.0
 10
1.768665354330709
 20
0.5615196850393701
 30
0.0
 10
1.76896062992126
 20
0.5591299212598425
 30
0.0
 10
1.769035433070866
 20
0.5562047244094488
 30
0.0
 10
1.769035433070866
 20
0.5562047244094488
 30
0.0
 10
1.769035433070866
 20
0.5562047244094488
 30
0.0
 10
1.730665354330709
 20
0.5562047244094488
 30
0.0
 10
1.730665354330709
 20
0.5562047244094488
 30
0.0
 10
1.730665354330709
 20
0.5562047244094488
 30
0.0
 10
1.730555118110236
 20
0.5544251968503937
 30
0.0
 10
1.730515748031496
 20
0.5531102362204725
 30
0.0
 10
1.730515748031496
 20
0.552240157480315
 30
0.0
 10
1.730515748031496
 20
0.552240157480315
 30
0.0
 10
1.730515748031496
 20
0.5476850393700787
 30
0.0
 10
1.731314960629921
 20
0.5436299212598426
 30
0.0
 10
1.732885826771654
 20
0.5400551181102362
 30
0.0
 10
1.732885826771654
 20
0.5400551181102362
 30
0.0
 10
1.73448031496063
 20
0.5365
 30
0.0
 10
1.736590551181102
 20
0.5338700787401575
 30
0.0
 10
1.739220472440945
 20
0.5322047244094489
 30
0.0
 10
1.739220472440945
 20
0.5322047244094489
 30
0.0
 10
1.741830708661417
 20
0.5305196850393701
 30
0.0
 10
1.744814960629921
 20
0.5296692913385827
 30
0.0
 10
1.748145669291339
 20
0.5296692913385827
 30
0.0
 10
1.748145669291339
 20
0.5296692913385827
 30
0.0
 10
1.75096062992126
 20
0.5296692913385827
 30
0.0
 10
1.753685039370079
 20
0.5303346456692913
 30
0.0
 10
1.756330708661418
 20
0.5316496062992127
 30
0.0
 10
1.756330708661418
 20
0.5316496062992127
 30
0.0
 10
1.75898031496063
 20
0.532984251968504
 30
0.0
 10
1.762165354330709
 20
0.5355551181102363
 30
0.0
 10
1.76594094488189
 20
0.5393897637795276
 30
0.0
  0
SPLINE
  5
53
330
1F
100
AcDbEntity
  8
P1-Layer 1
 62
   250
100
AcDbSpline
210
0.0
220
0.0
230
1.0
 70
    11
 71
     3
 72
    32
 73
    28
 74
     0
 42
0.0000000001
 43
0.0000000001
 40
0.0
 40
0.0
 40
0.0
 40
0.0
 40
0.1428571428571429
 40
0.1428571428571429
 40
0.1428571428571429
 40
0.1428571428571429
 40
0.2857142857142857
 40
0.2857142857142857
 40
0.2857142857142857
 40
0.2857142857142857
 40
0.4285714285714286
 40
0.4285714285714286
 40
0.4285714285714286
 40
0.4285714285714286
 40
0.5714285714285714
 40
0.5714285714285714
 40
0.5714285714285714
 40
0.5714285714285714
 40
0.7142857142857142
 40
0.7142857142857142
 40
0.7142857142857142
 40
0.7142857142857142
 40
0.857142857142857
 40
0.857142857142857
 40
0.857142857142857
 40
0.857142857142857
 40
1.0
 40
1.0
 40
1.0
 40
1.0
 10
1.759
 20
0.5612952755905513
 30
0.0
 10
1.758444881889764
 20
0.5646299212598426
 30
0.0
 10
1.757685039370079
 20
0.5670944881889765
 30
0.0
 10
1.756685039370079
 20
0.5686850393700788
 30
0.0
 10
1.756685039370079
 20
0.5686850393700788
 30
0.0
 10
1.755685039370079
 20
0.5702795275590551
 30
0.0
 10
1.754275590551181
 20
0.5715393700787402
 30
0.0
 10
1.75246062992126
 20
0.5724803149606299
 30
0.0
 10
1.75246062992126
 20
0.5724803149606299
 30
0.0
 10
1.750629921259843
 20
0.5734251968503937
 30
0.0
 10
1.748570866141732
 20
0.5738897637795276
 30
0.0
 10
1.746295275590551
 20
0.5738897637795276
 30
0.0
 10
1.746295275590551
 20
0.5738897637795276
 30
0.0
 10
1.744015748031496
 20
0.5738897637795276
 30
0.0
 10
1.741885826771654
 20
0.5734251968503937
 30
0.0
 10
1.739885826771654
 20
0.5724803149606299
 30
0.0
 10
1.739885826771654
 20
0.5724803149606299
 30
0.0
 10
1.737905511811024
 20
0.5715393700787402
 30
0.0
 10
1.736259842519685
 20
0.570240157480315
 30
0.0
 10
1.734925196850394
 20
0.5685748031496063
 30
0.0
 10
1.734925196850394
 20
0.5685748031496063
 30
0.0
 10
1.733610236220473
 20
0.5669094488188977
 30
0.0
 10
1.73246062992126
 20
0.5644803149606299
 30
0.0
 10
1.73148031496063
 20
0.5612952755905513
 30
0.0
 10
1.73148031496063
 20
0.5612952755905513
 30
0.0
 10
1.73148031496063
 20
0.5612952755905513
 30
0.0
 10
1.759
 20
0.5612952755905513
 30
0.0
 10
1.759
 20
0.5612952755905513
 30
0.0
  0
SPLINE
  5
54
330
1F
100
AcDbEntity
  8
P1-Layer 1
 62
   250
100
AcDbSpline
210
0.0
220
0.0
230
1.0
 70
    11
 71
     3
 72
   104
 73
   100
 74
     0
 42
0.0000000001
 43
0.0000000001
 40
0.0
 40
0.0
 40
0.0
 40
0.0
 40
0.04
 40
0.04
 40
0.04
 40
0.04
 40
0.08
 40
0.08
 40
0.08
 40
0.08
 40
0.12
 40
0.12
 40
0.12
 40
0.12
 40
0.16
 40
0.16
 40
0.16
 40
0.16
 40
0.2
 40
0.2
 40
0.2
 40
0.2
 40
0.24
 40
0.24
 40
0.24
 40
0.24
 40
0.28
 40
0.28
 40
0.28
 40
0.28
 40
0.32
 40
0.32
 40
0.32
 40
0.32
 40
0.36
 40
0.36
 40
0.36
 40
0.36
 40
0.4
 40
0.4
 40
0.4
 40
0.4
 40
0.44
 40
0.44
 40
0.44
 40
0.44
 40
0.4799999999999999
 40
0.4799999999999999
 40
0.4799999999999999
 40
0.4799999999999999
 40
0.5199999999999999
 40
0.5199999999999999
 40
0.5199999999999999
 40
0.5199999999999999
 40
0.5599999999999999
 40
0.5599999999999999
 40
0.5599999999999999
 40
0.5599999999999999
 40
0.6
 40
0.6
 40
0.6
 40
0.6
 40
0.64
 40
0.64
 40
0.64
 40
0.64
 40
0.6800000000000001
 40
0.6800000000000001
 40
0.6800000000000001
 40
0.6800000000000001
 40
0.7200000000000001
 40
0.7200000000000001
 40
0.7200000000000001
 40
0.7200000000000001
 40
0.7600000000000001
 40
0.7600000000000001
 40
0.7600000000000001
 40
0.7600000000000001
 40
0.8000000000000002
 40
0.8000000000000002
 40
0.8000000000000002
 40
0.8000000000000002
 40
0.8400000000000002
 40
0.8400000000000002
 40
0.8400000000000002
 40
0.8400000000000002
 40
0.8800000000000002
 40
0.8800000000000002
 40
0.8800000000000002
 40
0.8800000000000002
 40
0.9200000000000003
 40
0.9200000000000003
 40
0.9200000000000003
 40
0.9200000000000003
 40
0.9600000000000003
 40
0.9600000000000003
 40
0.9600000000000003
 40
0.9600000000000003
 40
1.0
 40
1.0
 40
1.0
 40
1.0
 10
1.813291338582677
 20
0.6010748031496064
 30
0.0
 10
1.813291338582677
 20
0.6010748031496064
 30
0.0
 10
1.849271653543307
 20
0.6010748031496064
 30
0.0
 10
1.849271653543307
 20
0.6010748031496064
 30
0.0
 10
1.849271653543307
 20
0.6010748031496064
 30
0.0
 10
1.858051181102362
 20
0.6010748031496064
 30
0.0
 10
1.864066929133858
 20
0.6006653543307087
 30
0.0
 10
1.867326771653543
 20
0.5998700787401575
 30
0.0
 10
1.867326771653543
 20
0.5998700787401575
 30
0.0
 10
1.872141732283465
 20
0.5987244094488189
 30
0.0
 10
1.875937007874016
 20
0.5966299212598425
 30
0.0
 10
1.878751968503937
 20
0.5935944881889764
 30
0.0
 10
1.878751968503937
 20
0.5935944881889764
 30
0.0
 10
1.881551181102362
 20
0.5905551181102362
 30
0.0
 10
1.882956692913386
 20
0.5868897637795276
 30
0.0
 10
1.882956692913386
 20
0.5826299212598426
 30
0.0
 10
1.882956692913386
 20
0.5826299212598426
 30
0.0
 10
1.882956692913386
 20
0.5795551181102362
 30
0.0
 10
1.882216535433071
 20
0.5767952755905512
 30
0.0
 10
1.880736220472441
 20
0.5743503937007874
 30
0.0
 10
1.880736220472441
 20
0.5743503937007874
 30
0.0
 10
1.879251968503937
 20
0.5719094488188977
 30
0.0
 10
1.877086614173228
 20
0.5698149606299213
 30
0.0
 10
1.874271653543307
 20
0.5680944881889765
 30
0.0
 10
1.874271653543307
 20
0.5680944881889765
 30
0.0
 10
1.872456692913386
 20
0.5669645669291339
 30
0.0
 10
1.870011811023622
 20
0.5660000000000001
 30
0.0
 10
1.86690157480315
 20
0.5652047244094488
 30
0.0
 10
1.86690157480315
 20
0.5652047244094488
 30
0.0
 10
1.870846456692914
 20
0.5644803149606299
 30
0.0
 10
1.873846456692913
 20
0.5636102362204725
 30
0.0
 10
1.87590157480315
 20
0.5626102362204725
 30
0.0
 10
1.87590157480315
 20
0.5626102362204725
 30
0.0
 10
1.879011811023622
 20
0.5610944881889765
 30
0.0
 10
1.881476377952756
 20
0.5589251968503938
 30
0.0
 10
1.883271653543307
 20
0.5560944881889764
 30
0.0
 10
1.883271653543307
 20
0.5560944881889764
 30
0.0
 10
1.885086614173228
 20
0.5532795275590552
 30
0.0
 10
1.885996062992126
 20
0.5500944881889764
 30
0.0
 10
1.885996062992126
 20
0.5465551181102363
 30
0.0
 10
1.885996062992126
 20
0.5465551181102363
 30
0.0
 10
1.885996062992126
 20
0.5431102362204725
 30
0.0
 10
1.885106299212598
 20
0.5399251968503938
 30
0.0
 10
1.883326771653543
 20
0.537
 30
0.0
 10
1.883326771653543
 20
0.537
 30
0.0
 10
1.881566929133858
 20
0.5340748031496063
 30
0.0
 10
1.879051181102362
 20
0.5316692913385827
 30
0.0
 10
1.875826771653543
 20
0.5297795275590551
 30
0.0
 10
1.875826771653543
 20
0.5297795275590551
 30
0.0
 10
1.872586614173228
 20
0.5279094488188977
 30
0.0
 10
1.868811023622047
 20
0.5267047244094488
 30
0.0
 10
1.864511811023622
 20
0.5261692913385827
 30
0.0
 10
1.864511811023622
 20
0.5261692913385827
 30
0.0
 10
1.860196850393701
 20
0.5256496062992127
 30
0.0
 10
1.855771653543307
 20
0.5253897637795276
 30
0.0
 10
1.851216535433071
 20
0.5253897637795276
 30
0.0
 10
1.851216535433071
 20
0.5253897637795276
 30
0.0
 10
1.851216535433071
 20
0.5253897637795276
 30
0.0
 10
1.813291338582677
 20
0.5253897637795276
 30
0.0
 10
1.813291338582677
 20
0.5253897637795276
 30
0.0
 10
1.813291338582677
 20
0.5253897637795276
 30
0.0
 10
1.813291338582677
 20
0.5253897637795276
 30
0.0
 10
1.813291338582677
 20
0.5299448818897639
 30
0.0
 10
1.813291338582677
 20
0.5299448818897639
 30
0.0
 10
1.813291338582677
 20
0.5299448818897639
 30
0.0
 10
1.813291338582677
 20
0.5299448818897639
 30
0.0
 10
1.815846456692914
 20
0.5299448818897639
 30
0.0
 10
1.815846456692914
 20
0.5299448818897639
 30
0.0
 10
1.815846456692914
 20
0.5299448818897639
 30
0.0
 10
1.818311023622047
 20
0.5299448818897639
 30
0.0
 10
1.819976377952756
 20
0.5303346456692913
 30
0.0
 10
1.82088188976378
 20
0.5310944881889764
 30
0.0
 10
1.82088188976378
 20
0.5310944881889764
 30
0.0
 10
1.822196850393701
 20
0.5321299212598425
 30
0.0
 10
1.822846456692914
 20
0.5338700787401575
 30
0.0
 10
1.822846456692914
 20
0.5362952755905512
 30
0.0
 10
1.822846456692914
 20
0.5362952755905512
 30
0.0
 10
1.822846456692914
 20
0.5362952755905512
 30
0.0
 10
1.822846456692914
 20
0.5888700787401575
 30
0.0
 10
1.822846456692914
 20
0.5888700787401575
 30
0.0
 10
1.822846456692914
 20
0.5888700787401575
 30
0.0
 10
1.822846456692914
 20
0.5913346456692914
 30
0.0
 10
1.822641732283465
 20
0.593
 30
0.0
 10
1.822255905511811
 20
0.5939094488188976
 30
0.0
 10
1.822255905511811
 20
0.5939094488188976
 30
0.0
 10
1.821846456692914
 20
0.5948149606299212
 30
0.0
 10
1.821255905511811
 20
0.5954645669291339
 30
0.0
 10
1.820456692913386
 20
0.5958700787401575
 30
0.0
 10
1.820456692913386
 20
0.5958700787401575
 30
0.0
 10
1.819661417322835
 20
0.5962598425196851
 30
0.0
 10
1.818125984251969
 20
0.5964645669291339
 30
0.0
 10
1.815846456692914
 20
0.5964645669291339
 30
0.0
 10
1.815846456692914
 20
0.5964645669291339
 30
0.0
 10
1.815846456692914
 20
0.5964645669291339
 30
0.0
 10
1.813291338582677
 20
0.5964645669291339
 30
0.0
 10
1.813291338582677
 20
0.5964645669291339
 30
0.0
 10
1.813291338582677
 20
0.5964645669291339
 30
0.0
 10
1.813291338582677
 20
0.5964645669291339
 30
0.0
 10
1.813291338582677
 20
0.6010748031496064
 30
0.0
 10
1.813291338582677
 20
0.6010748031496064
 30
0.0
  0
SPLINE
  5
55
330
1F
100
AcDbEntity
  8
P1-Layer 1
 62
   250
100
AcDbSpline
210
0.0
220
0.0
230
1.0
 70
    11
 71
     3
 72
    40
 73
    36
 74
     0
 42
0.0000000001
 43
0.0000000001
 40
0.0
 40
0.0
 40
0.0
 40
0.0
 40
0.1111111111111111
 40
0.1111111111111111
 40
0.1111111111111111
 40
0.1111111111111111
 40
0.2222222222222222
 40
0.2222222222222222
 40
0.2222222222222222
 40
0.2222222222222222
 40
0.3333333333333333
 40
0.3333333333333333
 40
0.3333333333333333
 40
0.3333333333333333
 40
0.4444444444444444
 40
0.4444444444444444
 40
0.4444444444444444
 40
0.4444444444444444
 40
0.5555555555555556
 40
0.5555555555555556
 40
0.5555555555555556
 40
0.5555555555555556
 40
0.6666666666666667
 40
0.6666666666666667
 40
0.6666666666666667
 40
0.6666666666666667
 40
0.7777777777777779
 40
0.7777777777777779
 40
0.7777777777777779
 40
0.7777777777777779
 40
0.8888888888888891
 40
0.8888888888888891
 40
0.8888888888888891
 40
0.8888888888888891
 40
1.0
 40
1.0
 40
1.0
 40
1.0
 10
1.832996062992126
 20
0.5950551181102363
 30
0.0
 10
1.832996062992126
 20
0.5950551181102363
 30
0.0
 10
1.832996062992126
 20
0.5673346456692914
 30
0.0
 10
1.832996062992126
 20
0.5673346456692914
 30
0.0
 10
1.832996062992126
 20
0.5673346456692914
 30
0.0
 10
1.832996062992126
 20
0.5673346456692914
 30
0.0
 10
1.846826771653543
 20
0.5673346456692914
 30
0.0
 10
1.846826771653543
 20
0.5673346456692914
 30
0.0
 10
1.846826771653543
 20
0.5673346456692914
 30
0.0
 10
1.853291338582677
 20
0.5673346456692914
 30
0.0
 10
1.857736220472441
 20
0.5676299212598426
 30
0.0
 10
1.860106299212599
 20
0.568240157480315
 30
0.0
 10
1.860106299212599
 20
0.568240157480315
 30
0.0
 10
1.863846456692913
 20
0.5692244094488189
 30
0.0
 10
1.866681102362205
 20
0.5708897637795276
 30
0.0
 10
1.868661417322835
 20
0.573240157480315
 30
0.0
 10
1.868661417322835
 20
0.573240157480315
 30
0.0
 10
1.870625984251969
 20
0.5755944881889764
 30
0.0
 10
1.871625984251969
 20
0.5786102362204725
 30
0.0
 10
1.871625984251969
 20
0.5822952755905512
 30
0.0
 10
1.871625984251969
 20
0.5822952755905512
 30
0.0
 10
1.871625984251969
 20
0.5854094488188977
 30
0.0
 10
1.870716535433071
 20
0.588
 30
0.0
 10
1.86894094488189
 20
0.5900944881889764
 30
0.0
 10
1.86894094488189
 20
0.5900944881889764
 30
0.0
 10
1.867141732283465
 20
0.5921653543307087
 30
0.0
 10
1.864736220472441
 20
0.5935944881889764
 30
0.0
 10
1.861736220472441
 20
0.5943503937007875
 30
0.0
 10
1.861736220472441
 20
0.5943503937007875
 30
0.0
 10
1.859791338582677
 20
0.5948149606299212
 30
0.0
 10
1.855736220472441
 20
0.5950551181102363
 30
0.0
 10
1.849586614173228
 20
0.5950551181102363
 30
0.0
 10
1.849586614173228
 20
0.5950551181102363
 30
0.0
 10
1.849586614173228
 20
0.5950551181102363
 30
0.0
 10
1.832996062992126
 20
0.5950551181102363
 30
0.0
 10
1.832996062992126
 20
0.5950551181102363
 30
0.0
  0
SPLINE
  5
56
330
1F
100
AcDbEntity
  8
P1-Layer 1
 62
   250
100
AcDbSpline
210
0.0
220
0.0
230
1.0
 70
    11
 71
     3
 72
    52
 73
    48
 74
     0
 42
0.0000000001
 43
0.0000000001
 40
0.0
 40
0.0
 40
0.0
 40
0.0
 40
0.0833333333333333
 40
0.0833333333333333
 40
0.0833333333333333
 40
0.0833333333333333
 40
0.1666666666666667
 40
0.1666666666666667
 40
0.1666666666666667
 40
0.1666666666666667
 40
0.25
 40
0.25
 40
0.25
 40
0.25
 40
0.3333333333333333
 40
0.3333333333333333
 40
0.3333333333333333
 40
0.3333333333333333
 40
0.4166666666666666
 40
0.4166666666666666
 40
0.4166666666666666
 40
0.4166666666666666
 40
0.4999999999999999
 40
0.4999999999999999
 40
0.4999999999999999
 40
0.4999999999999999
 40
0.5833333333333333
 40
0.5833333333333333
 40
0.5833333333333333
 40
0.5833333333333333
 40
0.6666666666666666
 40
0.6666666666666666
 40
0.6666666666666666
 40
0.6666666666666666
 40
0.75
 40
0.75
 40
0.75
 40
0.75
 40
0.8333333333333334
 40
0.8333333333333334
 40
0.8333333333333334
 40
0.8333333333333334
 40
0.9166666666666667
 40
0.9166666666666667
 40
0.9166666666666667
 40
0.9166666666666667
 40
1.0
 40
1.0
 40
1.0
 40
1.0
 10
1.832996062992126
 20
0.5621102362204725
 30
0.0
 10
1.832996062992126
 20
0.5621102362204725
 30
0.0
 10
1.832996062992126
 20
0.5372795275590552
 30
0.0
 10
1.832996062992126
 20
0.5372795275590552
 30
0.0
 10
1.832996062992126
 20
0.5372795275590552
 30
0.0
 10
1.832996062992126
 20
0.5347795275590551
 30
0.0
 10
1.833106299212599
 20
0.5332952755905512
 30
0.0
 10
1.833311023622047
 20
0.5328149606299213
 30
0.0
 10
1.833311023622047
 20
0.5328149606299213
 30
0.0
 10
1.833606299212599
 20
0.5321692913385827
 30
0.0
 10
1.834181102362205
 20
0.5317244094488189
 30
0.0
 10
1.835051181102362
 20
0.5314645669291339
 30
0.0
 10
1.835051181102362
 20
0.5314645669291339
 30
0.0
 10
1.835661417322835
 20
0.5312795275590552
 30
0.0
 10
1.83740157480315
 20
0.5311850393700788
 30
0.0
 10
1.840255905511811
 20
0.5311850393700788
 30
0.0
 10
1.840255905511811
 20
0.5311850393700788
 30
0.0
 10
1.840255905511811
 20
0.5311850393700788
 30
0.0
 10
1.847641732283465
 20
0.5311850393700788
 30
0.0
 10
1.847641732283465
 20
0.5311850393700788
 30
0.0
 10
1.847641732283465
 20
0.5311850393700788
 30
0.0
 10
1.85494094488189
 20
0.5311850393700788
 30
0.0
 10
1.860161417322835
 20
0.5315944881889764
 30
0.0
 10
1.863291338582677
 20
0.5324094488188976
 30
0.0
 10
1.863291338582677
 20
0.5324094488188976
 30
0.0
 10
1.86642125984252
 20
0.5332244094488189
 30
0.0
 10
1.869086614173229
 20
0.5349448818897638
 30
0.0
 10
1.871291338582677
 20
0.5375748031496064
 30
0.0
 10
1.871291338582677
 20
0.5375748031496064
 30
0.0
 10
1.873496062992126
 20
0.5401850393700788
 30
0.0
 10
1.874606299212599
 20
0.5433543307086615
 30
0.0
 10
1.874606299212599
 20
0.5470393700787402
 30
0.0
 10
1.874606299212599
 20
0.5470393700787402
 30
0.0
 10
1.874606299212599
 20
0.5501496062992126
 30
0.0
 10
1.873696850393701
 20
0.5529094488188977
 30
0.0
 10
1.87192125984252
 20
0.5553149606299213
 30
0.0
 10
1.87192125984252
 20
0.5553149606299213
 30
0.0
 10
1.870125984251969
 20
0.557724409448819
 30
0.0
 10
1.867641732283465
 20
0.5594448818897638
 30
0.0
 10
1.864476377952756
 20
0.5605196850393701
 30
0.0
 10
1.864476377952756
 20
0.5605196850393701
 30
0.0
 10
1.861311023622047
 20
0.5615944881889764
 30
0.0
 10
1.855696850393701
 20
0.5621102362204725
 30
0.0
 10
1.847641732283465
 20
0.5621102362204725
 30
0.0
 10
1.847641732283465
 20
0.5621102362204725
 30
0.0
 10
1.847641732283465
 20
0.5621102362204725
 30
0.0
 10
1.832996062992126
 20
0.5621102362204725
 30
0.0
 10
1.832996062992126
 20
0.5621102362204725
 30
0.0
  0
SPLINE
  5
57
330
1F
100
AcDbEntity
  8
P1-Layer 1
 62
   250
100
AcDbSpline
210
0.0
220
0.0
230
1.0
 70
    11
 71
     3
 72
   112
 73
   108
 74
     0
 42
0.0000000001
 43
0.0000000001
 40
0.0
 40
0.0
 40
0.0
 40
0.0
 40
0.037037037037037
 40
0.037037037037037
 40
0.037037037037037
 40
0.037037037037037
 40
0.0740740740740741
 40
0.0740740740740741
 40
0.0740740740740741
 40
0.0740740740740741
 40
0.1111111111111111
 40
0.1111111111111111
 40
0.1111111111111111
 40
0.1111111111111111
 40
0.1481481481481481
 40
0.1481481481481481
 40
0.1481481481481481
 40
0.1481481481481481
 40
0.1851851851851852
 40
0.1851851851851852
 40
0.1851851851851852
 40
0.1851851851851852
 40
0.2222222222222222
 40
0.2222222222222222
 40
0.2222222222222222
 40
0.2222222222222222
 40
0.2592592592592592
 40
0.2592592592592592
 40
0.2592592592592592
 40
0.2592592592592592
 40
0.2962962962962963
 40
0.2962962962962963
 40
0.2962962962962963
 40
0.2962962962962963
 40
0.3333333333333333
 40
0.3333333333333333
 40
0.3333333333333333
 40
0.3333333333333333
 40
0.3703703703703704
 40
0.3703703703703704
 40
0.3703703703703704
 40
0.3703703703703704
 40
0.4074074074074074
 40
0.4074074074074074
 40
0.4074074074074074
 40
0.4074074074074074
 40
0.4444444444444444
 40
0.4444444444444444
 40
0.4444444444444444
 40
0.4444444444444444
 40
0.4814814814814815
 40
0.4814814814814815
 40
0.4814814814814815
 40
0.4814814814814815
 40
0.5185185185185185
 40
0.5185185185185185
 40
0.5185185185185185
 40
0.5185185185185185
 40
0.5555555555555556
 40
0.5555555555555556
 40
0.5555555555555556
 40
0.5555555555555556
 40
0.5925925925925926
 40
0.5925925925925926
 40
0.5925925925925926
 40
0.5925925925925926
 40
0.6296296296296295
 40
0.6296296296296295
 40
0.6296296296296295
 40
0.6296296296296295
 40
0.6666666666666665
 40
0.6666666666666665
 40
0.6666666666666665
 40
0.6666666666666665
 40
0.7037037037037035
 40
0.7037037037037035
 40
0.7037037037037035
 40
0.7037037037037035
 40
0.7407407407407405
 40
0.7407407407407405
 40
0.7407407407407405
 40
0.7407407407407405
 40
0.7777777777777775
 40
0.7777777777777775
 40
0.7777777777777775
 40
0.7777777777777775
 40
0.8148148148148144
 40
0.8148148148148144
 40
0.8148148148148144
 40
0.8148148148148144
 40
0.8518518518518514
 40
0.8518518518518514
 40
0.8518518518518514
 40
0.8518518518518514
 40
0.8888888888888884
 40
0.8888888888888884
 40
0.8888888888888884
 40
0.8888888888888884
 40
0.9259259259259254
 40
0.9259259259259254
 40
0.9259259259259254
 40
0.9259259259259254
 40
0.9629629629629624
 40
0.9629629629629624
 40
0.9629629629629624
 40
0.9629629629629624
 40
1.0
 40
1.0
 40
1.0
 40
1.0
 10
1.92440157480315
 20
0.6010748031496064
 30
0.0
 10
1.92440157480315
 20
0.6010748031496064
 30
0.0
 10
1.933346456692914
 20
0.6010748031496064
 30
0.0
 10
1.933346456692914
 20
0.6010748031496064
 30
0.0
 10
1.933346456692914
 20
0.6010748031496064
 30
0.0
 10
1.933346456692914
 20
0.6010748031496064
 30
0.0
 10
1.956846456692913
 20
0.5378149606299213
 30
0.0
 10
1.956846456692913
 20
0.5378149606299213
 30
0.0
 10
1.956846456692913
 20
0.5378149606299213
 30
0.0
 10
1.957996062992126
 20
0.5346299212598425
 30
0.0
 10
1.959161417322835
 20
0.5325196850393701
 30
0.0
 10
1.960346456692913
 20
0.5315
 30
0.0
 10
1.960346456692913
 20
0.5315
 30
0.0
 10
1.961511811023622
 20
0.5304645669291339
 30
0.0
 10
1.963106299212599
 20
0.5299448818897639
 30
0.0
 10
1.965086614173228
 20
0.5299448818897639
 30
0.0
 10
1.965086614173228
 20
0.5299448818897639
 30
0.0
 10
1.965086614173228
 20
0.5299448818897639
 30
0.0
 10
1.966271653543307
 20
0.5299448818897639
 30
0.0
 10
1.966271653543307
 20
0.5299448818897639
 30
0.0
 10
1.966271653543307
 20
0.5299448818897639
 30
0.0
 10
1.966271653543307
 20
0.5299448818897639
 30
0.0
 10
1.966271653543307
 20
0.5253897637795276
 30
0.0
 10
1.966271653543307
 20
0.5253897637795276
 30
0.0
 10
1.966271653543307
 20
0.5253897637795276
 30
0.0
 10
1.966271653543307
 20
0.5253897637795276
 30
0.0
 10
1.939311023622047
 20
0.5253897637795276
 30
0.0
 10
1.939311023622047
 20
0.5253897637795276
 30
0.0
 10
1.939311023622047
 20
0.5253897637795276
 30
0.0
 10
1.939311023622047
 20
0.5253897637795276
 30
0.0
 10
1.939311023622047
 20
0.5299448818897639
 30
0.0
 10
1.939311023622047
 20
0.5299448818897639
 30
0.0
 10
1.939311023622047
 20
0.5299448818897639
 30
0.0
 10
1.940181102362205
 20
0.5300196850393701
 30
0.0
 10
1.941031496062992
 20
0.5300551181102362
 30
0.0
 10
1.941866141732284
 20
0.5300551181102362
 30
0.0
 10
1.941866141732284
 20
0.5300551181102362
 30
0.0
 10
1.943606299212598
 20
0.5300551181102362
 30
0.0
 10
1.944736220472441
 20
0.5302401574803149
 30
0.0
 10
1.945291338582677
 20
0.5305944881889764
 30
0.0
 10
1.945291338582677
 20
0.5305944881889764
 30
0.0
 10
1.946326771653543
 20
0.5312795275590552
 30
0.0
 10
1.946866141732284
 20
0.5321496062992126
 30
0.0
 10
1.946866141732284
 20
0.5332047244094489
 30
0.0
 10
1.946866141732284
 20
0.5332047244094489
 30
0.0
 10
1.946866141732284
 20
0.5339645669291339
 30
0.0
 10
1.946346456692913
 20
0.5358149606299213
 30
0.0
 10
1.945346456692914
 20
0.5387952755905512
 30
0.0
 10
1.945346456692914
 20
0.5387952755905512
 30
0.0
 10
1.945346456692914
 20
0.5387952755905512
 30
0.0
 10
1.940346456692913
 20
0.5534448818897638
 30
0.0
 10
1.940346456692913
 20
0.5534448818897638
 30
0.0
 10
1.940346456692913
 20
0.5534448818897638
 30
0.0
 10
1.940346456692913
 20
0.5534448818897638
 30
0.0
 10
1.91290157480315
 20
0.5534448818897638
 30
0.0
 10
1.91290157480315
 20
0.5534448818897638
 30
0.0
 10
1.91290157480315
 20
0.5534448818897638
 30
0.0
 10
1.91290157480315
 20
0.5534448818897638
 30
0.0
 10
1.907031496062992
 20
0.5370551181102362
 30
0.0
 10
1.907031496062992
 20
0.5370551181102362
 30
0.0
 10
1.907031496062992
 20
0.5370551181102362
 30
0.0
 10
1.90642125984252
 20
0.5353543307086615
 30
0.0
 10
1.906106299212599
 20
0.5341850393700788
 30
0.0
 10
1.906106299212599
 20
0.5335196850393701
 30
0.0
 10
1.906106299212599
 20
0.5335196850393701
 30
0.0
 10
1.906106299212599
 20
0.5327952755905512
 30
0.0
 10
1.906311023622047
 20
0.5321692913385827
 30
0.0
 10
1.906681102362205
 20
0.5316299212598425
 30
0.0
 10
1.906681102362205
 20
0.5316299212598425
 30
0.0
 10
1.907066929133858
 20
0.5310944881889764
 30
0.0
 10
1.907566929133858
 20
0.5306850393700787
 30
0.0
 10
1.908236220472441
 20
0.5304094488188976
 30
0.0
 10
1.908236220472441
 20
0.5304094488188976
 30
0.0
 10
1.90888188976378
 20
0.5301299212598425
 30
0.0
 10
1.90992125984252
 20
0.53
 30
0.0
 10
1.91138188976378
 20
0.53
 30
0.0
 10
1.91138188976378
 20
0.53
 30
0.0
 10
1.912346456692913
 20
0.53
 30
0.0
 10
1.913141732283465
 20
0.529984251968504
 30
0.0
 10
1.913755905511811
 20
0.5299448818897639
 30
0.0
 10
1.913755905511811
 20
0.5299448818897639
 30
0.0
 10
1.913755905511811
 20
0.5299448818897639
 30
0.0
 10
1.913755905511811
 20
0.5253897637795276
 30
0.0
 10
1.913755905511811
 20
0.5253897637795276
 30
0.0
 10
1.913755905511811
 20
0.5253897637795276
 30
0.0
 10
1.913755905511811
 20
0.5253897637795276
 30
0.0
 10
1.891141732283465
 20
0.5253897637795276
 30
0.0
 10
1.891141732283465
 20
0.5253897637795276
 30
0.0
 10
1.891141732283465
 20
0.5253897637795276
 30
0.0
 10
1.891141732283465
 20
0.5253897637795276
 30
0.0
 10
1.891141732283465
 20
0.5299448818897639
 30
0.0
 10
1.891141732283465
 20
0.5299448818897639
 30
0.0
 10
1.891141732283465
 20
0.5299448818897639
 30
0.0
 10
1.893236220472441
 20
0.5299448818897639
 30
0.0
 10
1.894755905511811
 20
0.5301496062992126
 30
0.0
 10
1.895661417322835
 20
0.5305748031496064
 30
0.0
 10
1.895661417322835
 20
0.5305748031496064
 30
0.0
 10
1.896586614173228
 20
0.530984251968504
 30
0.0
 10
1.89740157480315
 20
0.5316496062992127
 30
0.0
 10
1.898086614173228
 20
0.5325748031496064
 30
0.0
 10
1.898086614173228
 20
0.5325748031496064
 30
0.0
 10
1.898771653543307
 20
0.5335
 30
0.0
 10
1.899681102362205
 20
0.5354448818897638
 30
0.0
 10
1.900791338582677
 20
0.5384094488188976
 30
0.0
 10
1.900791338582677
 20
0.5384094488188976
 30
0.0
 10
1.900791338582677
 20
0.5384094488188976
 30
0.0
 10
1.92440157480315
 20
0.6010748031496064
 30
0.0
 10
1.92440157480315
 20
0.6010748031496064
 30
0.0
  0
SPLINE
  5
58
330
1F
100
AcDbEntity
  8
P1-Layer 1
 62
   250
100
AcDbSpline
210
0.0
220
0.0
230
1.0
 70
    11
 71
     3
 72
    16
 73
    12
 74
     0
 42
0.0000000001
 43
0.0000000001
 40
0.0
 40
0.0
 40
0.0
 40
0.0
 40
0.3333333333333333
 40
0.3333333333333333
 40
0.3333333333333333
 40
0.3333333333333333
 40
0.6666666666666666
 40
0.6666666666666666
 40
0.6666666666666666
 40
0.6666666666666666
 40
1.0
 40
1.0
 40
1.0
 40
1.0
 10
1.91490157480315
 20
0.558759842519685
 30
0.0
 10
1.91490157480315
 20
0.558759842519685
 30
0.0
 10
1.938291338582677
 20
0.558759842519685
 30
0.0
 10
1.938291338582677
 20
0.558759842519685
 30
0.0
 10
1.938291338582677
 20
0.558759842519685
 30
0.0
 10
1.938291338582677
 20
0.558759842519685
 30
0.0
 10
1.926566929133858
 20
0.5913149606299213
 30
0.0
 10
1.926566929133858
 20
0.5913149606299213
 30
0.0
 10
1.926566929133858
 20
0.5913149606299213
 30
0.0
 10
1.926566929133858
 20
0.5913149606299213
 30
0.0
 10
1.91490157480315
 20
0.558759842519685
 30
0.0
 10
1.91490157480315
 20
0.558759842519685
 30
0.0
  0
SPLINE
  5
59
330
1F
100
AcDbEntity
  8
P1-Layer 1
 62
   250
100
AcDbSpline
210
0.0
220
0.0
230
1.0
 70
    11
 71
     3
 72
    72
 73
    68
 74
     0
 42
0.0000000001
 43
0.0000000001
 40
0.0
 40
0.0
 40
0.0
 40
0.0
 40
0.0588235294117647
 40
0.0588235294117647
 40
0.0588235294117647
 40
0.0588235294117647
 40
0.1176470588235294
 40
0.1176470588235294
 40
0.1176470588235294
 40
0.1176470588235294
 40
0.1764705882352941
 40
0.1764705882352941
 40
0.1764705882352941
 40
0.1764705882352941
 40
0.2352941176470588
 40
0.2352941176470588
 40
0.2352941176470588
 40
0.2352941176470588
 40
0.2941176470588235
 40
0.2941176470588235
 40
0.2941176470588235
 40
0.2941176470588235
 40
0.3529411764705883
 40
0.3529411764705883
 40
0.3529411764705883
 40
0.3529411764705883
 40
0.411764705882353
 40
0.411764705882353
 40
0.411764705882353
 40
0.411764705882353
 40
0.4705882352941177
 40
0.4705882352941177
 40
0.4705882352941177
 40
0.4705882352941177
 40
0.5294117647058824
 40
0.5294117647058824
 40
0.5294117647058824
 40
0.5294117647058824
 40
0.5882352941176471
 40
0.5882352941176471
 40
0.5882352941176471
 40
0.5882352941176471
 40
0.6470588235294118
 40
0.6470588235294118
 40
0.6470588235294118
 40
0.6470588235294118
 40
0.7058823529411765
 40
0.7058823529411765
 40
0.7058823529411765
 40
0.7058823529411765
 40
0.7647058823529412
 40
0.7647058823529412
 40
0.7647058823529412
 40
0.7647058823529412
 40
0.823529411764706
 40
0.823529411764706
 40
0.823529411764706
 40
0.823529411764706
 40
0.8823529411764707
 40
0.8823529411764707
 40
0.8823529411764707
 40
0.8823529411764707
 40
0.9411764705882354
 40
0.9411764705882354
 40
0.9411764705882354
 40
0.9411764705882354
 40
1.0
 40
1.0
 40
1.0
 40
1.0
 10
2.074956692913386
 20
0.6010748031496064
 30
0.0
 10
2.074956692913386
 20
0.6010748031496064
 30
0.0
 10
2.079011811023622
 20
0.6010748031496064
 30
0.0
 10
2.079011811023622
 20
0.6010748031496064
 30
0.0
 10
2.079011811023622
 20
0.6010748031496064
 30
0.0
 10
2.079011811023622
 20
0.6010748031496064
 30
0.0
 10
2.079011811023622
 20
0.538240157480315
 30
0.0
 10
2.079011811023622
 20
0.538240157480315
 30
0.0
 10
2.079011811023622
 20
0.538240157480315
 30
0.0
 10
2.079011811023622
 20
0.5352795275590552
 30
0.0
 10
2.079212598425197
 20
0.5333700787401575
 30
0.0
 10
2.079586614173228
 20
0.5325196850393701
 30
0.0
 10
2.079586614173228
 20
0.5325196850393701
 30
0.0
 10
2.079972440944882
 20
0.5316692913385827
 30
0.0
 10
2.080586614173229
 20
0.5310393700787401
 30
0.0
 10
2.081456692913386
 20
0.5305944881889764
 30
0.0
 10
2.081456692913386
 20
0.5305944881889764
 30
0.0
 10
2.082326771653543
 20
0.5301692913385827
 30
0.0
 10
2.084047244094488
 20
0.5299448818897639
 30
0.0
 10
2.086622047244095
 20
0.5299448818897639
 30
0.0
 10
2.086622047244095
 20
0.5299448818897639
 30
0.0
 10
2.086622047244095
 20
0.5299448818897639
 30
0.0
 10
2.091937007874016
 20
0.5299448818897639
 30
0.0
 10
2.091937007874016
 20
0.5299448818897639
 30
0.0
 10
2.091937007874016
 20
0.5299448818897639
 30
0.0
 10
2.091937007874016
 20
0.5299448818897639
 30
0.0
 10
2.091937007874016
 20
0.5253897637795276
 30
0.0
 10
2.091937007874016
 20
0.5253897637795276
 30
0.0
 10
2.091937007874016
 20
0.5253897637795276
 30
0.0
 10
2.091937007874016
 20
0.5253897637795276
 30
0.0
 10
2.056177165354331
 20
0.5253897637795276
 30
0.0
 10
2.056177165354331
 20
0.5253897637795276
 30
0.0
 10
2.056177165354331
 20
0.5253897637795276
 30
0.0
 10
2.056177165354331
 20
0.5253897637795276
 30
0.0
 10
2.056177165354331
 20
0.5299448818897639
 30
0.0
 10
2.056177165354331
 20
0.5299448818897639
 30
0.0
 10
2.056177165354331
 20
0.5299448818897639
 30
0.0
 10
2.056177165354331
 20
0.5299448818897639
 30
0.0
 10
2.062086614173229
 20
0.5299448818897639
 30
0.0
 10
2.062086614173229
 20
0.5299448818897639
 30
0.0
 10
2.062086614173229
 20
0.5299448818897639
 30
0.0
 10
2.064657480314961
 20
0.5299448818897639
 30
0.0
 10
2.06636220472441
 20
0.5301692913385827
 30
0.0
 10
2.067212598425197
 20
0.5306299212598425
 30
0.0
 10
2.067212598425197
 20
0.5306299212598425
 30
0.0
 10
2.068066929133858
 20
0.5310748031496063
 30
0.0
 10
2.068732283464567
 20
0.5317952755905512
 30
0.0
 10
2.069196850393701
 20
0.5327952755905512
 30
0.0
 10
2.069196850393701
 20
0.5327952755905512
 30
0.0
 10
2.069657480314961
 20
0.5337952755905512
 30
0.0
 10
2.069897637795276
 20
0.5356102362204724
 30
0.0
 10
2.069897637795276
 20
0.538240157480315
 30
0.0
 10
2.069897637795276
 20
0.538240157480315
 30
0.0
 10
2.069897637795276
 20
0.538240157480315
 30
0.0
 10
2.069897637795276
 20
0.5898897637795276
 30
0.0
 10
2.069897637795276
 20
0.5898897637795276
 30
0.0
 10
2.069897637795276
 20
0.5898897637795276
 30
0.0
 10
2.069897637795276
 20
0.5898897637795276
 30
0.0
 10
2.056177165354331
 20
0.5898897637795276
 30
0.0
 10
2.056177165354331
 20
0.5898897637795276
 30
0.0
 10
2.056177165354331
 20
0.5898897637795276
 30
0.0
 10
2.056177165354331
 20
0.5898897637795276
 30
0.0
 10
2.056177165354331
 20
0.5945551181102362
 30
0.0
 10
2.056177165354331
 20
0.5945551181102362
 30
0.0
 10
2.056177165354331
 20
0.5945551181102362
 30
0.0
 10
2.063657480314961
 20
0.5956102362204725
 30
0.0
 10
2.069917322834646
 20
0.5977795275590552
 30
0.0
 10
2.074956692913386
 20
0.6010748031496064
 30
0.0
  0
SPLINE
  5
5A
330
1F
100
AcDbEntity
  8
P1-Layer 1
 62
   250
100
AcDbSpline
210
0.0
220
0.0
230
1.0
 70
    11
 71
     3
 72
    48
 73
    44
 74
     0
 42
0.0000000001
 43
0.0000000001
 40
0.0
 40
0.0
 40
0.0
 40
0.0
 40
0.0909090909090909
 40
0.0909090909090909
 40
0.0909090909090909
 40
0.0909090909090909
 40
0.1818181818181818
 40
0.1818181818181818
 40
0.1818181818181818
 40
0.1818181818181818
 40
0.2727272727272727
 40
0.2727272727272727
 40
0.2727272727272727
 40
0.2727272727272727
 40
0.3636363636363637
 40
0.3636363636363637
 40
0.3636363636363637
 40
0.3636363636363637
 40
0.4545454545454546
 40
0.4545454545454546
 40
0.4545454545454546
 40
0.4545454545454546
 40
0.5454545454545455
 40
0.5454545454545455
 40
0.5454545454545455
 40
0.5454545454545455
 40
0.6363636363636365
 40
0.6363636363636365
 40
0.6363636363636365
 40
0.6363636363636365
 40
0.7272727272727274
 40
0.7272727272727274
 40
0.7272727272727274
 40
0.7272727272727274
 40
0.8181818181818183
 40
0.8181818181818183
 40
0.8181818181818183
 40
0.8181818181818183
 40
0.9090909090909093
 40
0.9090909090909093
 40
0.9090909090909093
 40
0.9090909090909093
 40
1.0
 40
1.0
 40
1.0
 40
1.0
 10
2.141137795275591
 20
0.6023700787401575
 30
0.0
 10
2.146712598425197
 20
0.6023700787401575
 30
0.0
 10
2.151582677165354
 20
0.6009645669291339
 30
0.0
 10
2.155732283464567
 20
0.5981102362204724
 30
0.0
 10
2.155732283464567
 20
0.5981102362204724
 30
0.0
 10
2.159897637795276
 20
0.5952795275590551
 30
0.0
 10
2.163267716535433
 20
0.5908149606299213
 30
0.0
 10
2.165877952755906
 20
0.5847401574803149
 30
0.0
 10
2.165877952755906
 20
0.5847401574803149
 30
0.0
 10
2.168488188976378
 20
0.5786653543307087
 30
0.0
 10
2.169787401574803
 20
0.5712952755905512
 30
0.0
 10
2.169787401574803
 20
0.5626653543307086
 30
0.0
 10
2.169787401574803
 20
0.5626653543307086
 30
0.0
 10
2.169787401574803
 20
0.5498543307086614
 30
0.0
 10
2.166582677165355
 20
0.5398897637795276
 30
0.0
 10
2.160177165354331
 20
0.5327598425196851
 30
0.0
 10
2.160177165354331
 20
0.5327598425196851
 30
0.0
 10
2.154972440944882
 20
0.526984251968504
 30
0.0
 10
2.148397637795276
 20
0.5240944881889764
 30
0.0
 10
2.140433070866142
 20
0.5240944881889764
 30
0.0
 10
2.140433070866142
 20
0.5240944881889764
 30
0.0
 10
2.135047244094488
 20
0.5240944881889764
 30
0.0
 10
2.130267716535433
 20
0.5255196850393701
 30
0.0
 10
2.126118110236221
 20
0.5284094488188976
 30
0.0
 10
2.126118110236221
 20
0.5284094488188976
 30
0.0
 10
2.121952755905512
 20
0.5312795275590552
 30
0.0
 10
2.118582677165354
 20
0.5355944881889764
 30
0.0
 10
2.116027559055118
 20
0.5413346456692914
 30
0.0
 10
2.116027559055118
 20
0.5413346456692914
 30
0.0
 10
2.113452755905512
 20
0.5470944881889764
 30
0.0
 10
2.112177165354331
 20
0.5543897637795275
 30
0.0
 10
2.112177165354331
 20
0.5632598425196851
 30
0.0
 10
2.112177165354331
 20
0.5632598425196851
 30
0.0
 10
2.112177165354331
 20
0.5721850393700788
 30
0.0
 10
2.113433070866142
 20
0.5794803149606299
 30
0.0
 10
2.115933070866142
 20
0.5851299212598425
 30
0.0
 10
2.115933070866142
 20
0.5851299212598425
 30
0.0
 10
2.118452755905512
 20
0.5907598425196851
 30
0.0
 10
2.121877952755906
 20
0.5950551181102363
 30
0.0
 10
2.126212598425197
 20
0.59798031496063
 30
0.0
 10
2.126212598425197
 20
0.59798031496063
 30
0.0
 10
2.130562992125984
 20
0.6009094488188976
 30
0.0
 10
2.135527559055118
 20
0.6023700787401575
 30
0.0
 10
2.141137795275591
 20
0.6023700787401575
 30
0.0
  0
SPLINE
  5
5B
330
1F
100
AcDbEntity
  8
P1-Layer 1
 62
   250
100
AcDbSpline
210
0.0
220
0.0
230
1.0
 70
    11
 71
     3
 72
    56
 73
    52
 74
     0
 42
0.0000000001
 43
0.0000000001
 40
0.0
 40
0.0
 40
0.0
 40
0.0
 40
0.0769230769230769
 40
0.0769230769230769
 40
0.0769230769230769
 40
0.0769230769230769
 40
0.1538461538461539
 40
0.1538461538461539
 40
0.1538461538461539
 40
0.1538461538461539
 40
0.2307692307692308
 40
0.2307692307692308
 40
0.2307692307692308
 40
0.2307692307692308
 40
0.3076923076923077
 40
0.3076923076923077
 40
0.3076923076923077
 40
0.3076923076923077
 40
0.3846153846153846
 40
0.3846153846153846
 40
0.3846153846153846
 40
0.3846153846153846
 40
0.4615384615384616
 40
0.4615384615384616
 40
0.4615384615384616
 40
0.4615384615384616
 40
0.5384615384615386
 40
0.5384615384615386
 40
0.5384615384615386
 40
0.5384615384615386
 40
0.6153846153846154
 40
0.6153846153846154
 40
0.6153846153846154
 40
0.6153846153846154
 40
0.6923076923076923
 40
0.6923076923076923
 40
0.6923076923076923
 40
0.6923076923076923
 40
0.7692307692307692
 40
0.7692307692307692
 40
0.7692307692307692
 40
0.7692307692307692
 40
0.846153846153846
 40
0.846153846153846
 40
0.846153846153846
 40
0.846153846153846
 40
0.9230769230769229
 40
0.9230769230769229
 40
0.9230769230769229
 40
0.9230769230769229
 40
1.0
 40
1.0
 40
1.0
 40
1.0
 10
2.140877952755905
 20
0.597
 30
0.0
 10
2.137102362204725
 20
0.597
 30
0.0
 10
2.133807086614173
 20
0.5956299212598425
 30
0.0
 10
2.130933070866142
 20
0.5928897637795276
 30
0.0
 10
2.130933070866142
 20
0.5928897637795276
 30
0.0
 10
2.128452755905512
 20
0.5905
 30
0.0
 10
2.126472440944882
 20
0.5867401574803149
 30
0.0
 10
2.125027559055118
 20
0.5815944881889764
 30
0.0
 10
2.125027559055118
 20
0.5815944881889764
 30
0.0
 10
2.12336220472441
 20
0.5757401574803149
 30
0.0
 10
2.122527559055118
 20
0.5692598425196851
 30
0.0
 10
2.122527559055118
 20
0.5621653543307087
 30
0.0
 10
2.122527559055118
 20
0.5621653543307087
 30
0.0
 10
2.122527559055118
 20
0.5566653543307086
 30
0.0
 10
2.123047244094488
 20
0.5516850393700787
 30
0.0
 10
2.124082677165355
 20
0.5472244094488189
 30
0.0
 10
2.124082677165355
 20
0.5472244094488189
 30
0.0
 10
2.125102362204725
 20
0.542759842519685
 30
0.0
 10
2.126472440944882
 20
0.5392795275590552
 30
0.0
 10
2.128177165354331
 20
0.5368149606299213
 30
0.0
 10
2.128177165354331
 20
0.5368149606299213
 30
0.0
 10
2.129877952755906
 20
0.5343346456692913
 30
0.0
 10
2.131807086614173
 20
0.5325
 30
0.0
 10
2.133952755905512
 20
0.5312952755905512
 30
0.0
 10
2.133952755905512
 20
0.5312952755905512
 30
0.0
 10
2.136102362204725
 20
0.5301102362204725
 30
0.0
 10
2.138377952755906
 20
0.5295196850393701
 30
0.0
 10
2.140767716535433
 20
0.5295196850393701
 30
0.0
 10
2.140767716535433
 20
0.5295196850393701
 30
0.0
 10
2.144342519685039
 20
0.5295196850393701
 30
0.0
 10
2.147692913385827
 20
0.5309094488188977
 30
0.0
 10
2.150803149606299
 20
0.5336850393700787
 30
0.0
 10
2.150803149606299
 20
0.5336850393700787
 30
0.0
 10
2.153287401574803
 20
0.5359645669291339
 30
0.0
 10
2.155267716535433
 20
0.5393700787401575
 30
0.0
 10
2.156712598425197
 20
0.5438897637795276
 30
0.0
 10
2.156712598425197
 20
0.5438897637795276
 30
0.0
 10
2.158452755905512
 20
0.5493897637795275
 30
0.0
 10
2.159322834645669
 20
0.5558543307086614
 30
0.0
 10
2.159322834645669
 20
0.5632598425196851
 30
0.0
 10
2.159322834645669
 20
0.5632598425196851
 30
0.0
 10
2.159322834645669
 20
0.5709251968503937
 30
0.0
 10
2.158433070866142
 20
0.5774448818897638
 30
0.0
 10
2.156657480314961
 20
0.5827952755905512
 30
0.0
 10
2.156657480314961
 20
0.5827952755905512
 30
0.0
 10
2.154877952755906
 20
0.5881496062992127
 30
0.0
 10
2.152712598425197
 20
0.5918503937007874
 30
0.0
 10
2.150118110236221
 20
0.5939094488188976
 30
0.0
 10
2.150118110236221
 20
0.5939094488188976
 30
0.0
 10
2.147527559055118
 20
0.59598031496063
 30
0.0
 10
2.144452755905512
 20
0.597
 30
0.0
 10
2.140877952755905
 20
0.597
 30
0.0
  0
SPLINE
  5
5C
330
1F
100
AcDbEntity
  8
P1-Layer 1
 62
   250
100
AcDbSpline
210
0.0
220
0.0
230
1.0
 70
    11
 71
     3
 72
    48
 73
    44
 74
     0
 42
0.0000000001
 43
0.0000000001
 40
0.0
 40
0.0
 40
0.0
 40
0.0
 40
0.0909090909090909
 40
0.0909090909090909
 40
0.0909090909090909
 40
0.0909090909090909
 40
0.1818181818181818
 40
0.1818181818181818
 40
0.1818181818181818
 40
0.1818181818181818
 40
0.2727272727272727
 40
0.2727272727272727
 40
0.2727272727272727
 40
0.2727272727272727
 40
0.3636363636363637
 40
0.3636363636363637
 40
0.3636363636363637
 40
0.3636363636363637
 40
0.4545454545454546
 40
0.4545454545454546
 40
0.4545454545454546
 40
0.4545454545454546
 40
0.5454545454545455
 40
0.5454545454545455
 40
0.5454545454545455
 40
0.5454545454545455
 40
0.6363636363636365
 40
0.6363636363636365
 40
0.6363636363636365
 40
0.6363636363636365
 40
0.7272727272727274
 40
0.7272727272727274
 40
0.7272727272727274
 40
0.7272727272727274
 40
0.8181818181818183
 40
0.8181818181818183
 40
0.8181818181818183
 40
0.8181818181818183
 40
0.9090909090909093
 40
0.9090909090909093
 40
0.9090909090909093
 40
0.9090909090909093
 40
1.0
 40
1.0
 40
1.0
 40
1.0
 10
2.210043307086614
 20
0.6023700787401575
 30
0.0
 10
2.215618110236221
 20
0.6023700787401575
 30
0.0
 10
2.220488188976378
 20
0.6009645669291339
 30
0.0
 10
2.224637795275591
 20
0.5981102362204724
 30
0.0
 10
2.224637795275591
 20
0.5981102362204724
 30
0.0
 10
2.228803149606299
 20
0.5952795275590551
 30
0.0
 10
2.232173228346457
 20
0.5908149606299213
 30
0.0
 10
2.234783464566929
 20
0.5847401574803149
 30
0.0
 10
2.234783464566929
 20
0.5847401574803149
 30
0.0
 10
2.237393700787402
 20
0.5786653543307087
 30
0.0
 10
2.238692913385827
 20
0.5712952755905512
 30
0.0
 10
2.238692913385827
 20
0.5626653543307086
 30
0.0
 10
2.238692913385827
 20
0.5626653543307086
 30
0.0
 10
2.238692913385827
 20
0.5498543307086614
 30
0.0
 10
2.235488188976378
 20
0.5398897637795276
 30
0.0
 10
2.229082677165355
 20
0.5327598425196851
 30
0.0
 10
2.229082677165355
 20
0.5327598425196851
 30
0.0
 10
2.223877952755906
 20
0.526984251968504
 30
0.0
 10
2.217303149606299
 20
0.5240944881889764
 30
0.0
 10
2.209338582677165
 20
0.5240944881889764
 30
0.0
 10
2.209338582677165
 20
0.5240944881889764
 30
0.0
 10
2.203952755905512
 20
0.5240944881889764
 30
0.0
 10
2.199173228346457
 20
0.5255196850393701
 30
0.0
 10
2.195023622047244
 20
0.5284094488188976
 30
0.0
 10
2.195023622047244
 20
0.5284094488188976
 30
0.0
 10
2.190858267716536
 20
0.5312795275590552
 30
0.0
 10
2.187488188976378
 20
0.5355944881889764
 30
0.0
 10
2.184933070866142
 20
0.5413346456692914
 30
0.0
 10
2.184933070866142
 20
0.5413346456692914
 30
0.0
 10
2.182358267716535
 20
0.5470944881889764
 30
0.0
 10
2.181082677165354
 20
0.5543897637795275
 30
0.0
 10
2.181082677165354
 20
0.5632598425196851
 30
0.0
 10
2.181082677165354
 20
0.5632598425196851
 30
0.0
 10
2.181082677165354
 20
0.5721850393700788
 30
0.0
 10
2.182338582677165
 20
0.5794803149606299
 30
0.0
 10
2.184838582677165
 20
0.5851299212598425
 30
0.0
 10
2.184838582677165
 20
0.5851299212598425
 30
0.0
 10
2.187358267716535
 20
0.5907598425196851
 30
0.0
 10
2.190783464566929
 20
0.5950551181102363
 30
0.0
 10
2.195118110236221
 20
0.59798031496063
 30
0.0
 10
2.195118110236221
 20
0.59798031496063
 30
0.0
 10
2.199468503937008
 20
0.6009094488188976
 30
0.0
 10
2.204433070866142
 20
0.6023700787401575
 30
0.0
 10
2.210043307086614
 20
0.6023700787401575
 30
0.0
  0
SPLINE
  5
5D
330
1F
100
AcDbEntity
  8
P1-Layer 1
 62
   250
100
AcDbSpline
210
0.0
220
0.0
230
1.0
 70
    11
 71
     3
 72
    56
 73
    52
 74
     0
 42
0.0000000001
 43
0.0000000001
 40
0.0
 40
0.0
 40
0.0
 40
0.0
 40
0.0769230769230769
 40
0.0769230769230769
 40
0.0769230769230769
 40
0.0769230769230769
 40
0.1538461538461539
 40
0.1538461538461539
 40
0.1538461538461539
 40
0.1538461538461539
 40
0.2307692307692308
 40
0.2307692307692308
 40
0.2307692307692308
 40
0.2307692307692308
 40
0.3076923076923077
 40
0.3076923076923077
 40
0.3076923076923077
 40
0.3076923076923077
 40
0.3846153846153846
 40
0.3846153846153846
 40
0.3846153846153846
 40
0.3846153846153846
 40
0.4615384615384616
 40
0.4615384615384616
 40
0.4615384615384616
 40
0.4615384615384616
 40
0.5384615384615386
 40
0.5384615384615386
 40
0.5384615384615386
 40
0.5384615384615386
 40
0.6153846153846154
 40
0.6153846153846154
 40
0.6153846153846154
 40
0.6153846153846154
 40
0.6923076923076923
 40
0.6923076923076923
 40
0.6923076923076923
 40
0.6923076923076923
 40
0.7692307692307692
 40
0.7692307692307692
 40
0.7692307692307692
 40
0.7692307692307692
 40
0.846153846153846
 40
0.846153846153846
 40
0.846153846153846
 40
0.846153846153846
 40
0.9230769230769229
 40
0.9230769230769229
 40
0.9230769230769229
 40
0.9230769230769229
 40
1.0
 40
1.0
 40
1.0
 40
1.0
 10
2.209783464566929
 20
0.597
 30
0.0
 10
2.206007874015748
 20
0.597
 30
0.0
 10
2.202712598425197
 20
0.5956299212598425
 30
0.0
 10
2.199838582677165
 20
0.5928897637795276
 30
0.0
 10
2.199838582677165
 20
0.5928897637795276
 30
0.0
 10
2.197358267716536
 20
0.5905
 30
0.0
 10
2.195377952755905
 20
0.5867401574803149
 30
0.0
 10
2.193933070866142
 20
0.5815944881889764
 30
0.0
 10
2.193933070866142
 20
0.5815944881889764
 30
0.0
 10
2.192267716535433
 20
0.5757401574803149
 30
0.0
 10
2.191433070866142
 20
0.5692598425196851
 30
0.0
 10
2.191433070866142
 20
0.5621653543307087
 30
0.0
 10
2.191433070866142
 20
0.5621653543307087
 30
0.0
 10
2.191433070866142
 20
0.5566653543307086
 30
0.0
 10
2.191952755905512
 20
0.5516850393700787
 30
0.0
 10
2.192988188976378
 20
0.5472244094488189
 30
0.0
 10
2.192988188976378
 20
0.5472244094488189
 30
0.0
 10
2.194007874015748
 20
0.542759842519685
 30
0.0
 10
2.195377952755905
 20
0.5392795275590552
 30
0.0
 10
2.197082677165354
 20
0.5368149606299213
 30
0.0
 10
2.197082677165354
 20
0.5368149606299213
 30
0.0
 10
2.198783464566929
 20
0.5343346456692913
 30
0.0
 10
2.200712598425197
 20
0.5325
 30
0.0
 10
2.202858267716536
 20
0.5312952755905512
 30
0.0
 10
2.202858267716536
 20
0.5312952755905512
 30
0.0
 10
2.205007874015748
 20
0.5301102362204725
 30
0.0
 10
2.207283464566929
 20
0.5295196850393701
 30
0.0
 10
2.209673228346457
 20
0.5295196850393701
 30
0.0
 10
2.209673228346457
 20
0.5295196850393701
 30
0.0
 10
2.213248031496063
 20
0.5295196850393701
 30
0.0
 10
2.216598425196851
 20
0.5309094488188977
 30
0.0
 10
2.219708661417323
 20
0.5336850393700787
 30
0.0
 10
2.219708661417323
 20
0.5336850393700787
 30
0.0
 10
2.222192913385827
 20
0.5359645669291339
 30
0.0
 10
2.224173228346457
 20
0.5393700787401575
 30
0.0
 10
2.225618110236221
 20
0.5438897637795276
 30
0.0
 10
2.225618110236221
 20
0.5438897637795276
 30
0.0
 10
2.227358267716535
 20
0.5493897637795275
 30
0.0
 10
2.228228346456693
 20
0.5558543307086614
 30
0.0
 10
2.228228346456693
 20
0.5632598425196851
 30
0.0
 10
2.228228346456693
 20
0.5632598425196851
 30
0.0
 10
2.228228346456693
 20
0.5709251968503937
 30
0.0
 10
2.227338582677165
 20
0.5774448818897638
 30
0.0
 10
2.225562992125985
 20
0.5827952755905512
 30
0.0
 10
2.225562992125985
 20
0.5827952755905512
 30
0.0
 10
2.223783464566929
 20
0.5881496062992127
 30
0.0
 10
2.221618110236221
 20
0.5918503937007874
 30
0.0
 10
2.219023622047244
 20
0.5939094488188976
 30
0.0
 10
2.219023622047244
 20
0.5939094488188976
 30
0.0
 10
2.216433070866142
 20
0.59598031496063
 30
0.0
 10
2.213358267716536
 20
0.597
 30
0.0
 10
2.209783464566929
 20
0.597
 30
0.0
  0
ENDSEC
  0
SECTION
  2
OBJECTS
  0
DICTIONARY
  5
C
330
0
100
AcDbDictionary
281
     1
  3
ACAD_GROUP
350
D
  3
ACAD_LAYOUT
350
1A
  3
ACAD_MLINESTYLE
350
17
  3
ACAD_PLOTSETTINGS
350
19
  3
ACAD_PLOTSTYLENAME
350
E
  0
DICTIONARY
  5
D
102
{ACAD_REACTORS
330
C
102
}
330
C
100
AcDbDictionary
281
     1
  0
DICTIONARY
  5
1A
102
{ACAD_REACTORS
330
C
102
}
330
C
100
AcDbDictionary
281
     1
  3
Layout1
350
1E
  3
Layout2
350
26
  3
Model
350
22
  0
DICTIONARY
  5
17
102
{ACAD_REACTORS
330
C
102
}
330
C
100
AcDbDictionary
281
     1
  3
Standard
350
18
  0
DICTIONARY
  5
19
102
{ACAD_REACTORS
330
C
102
}
330
C
100
AcDbDictionary
281
     1
  0
ACDBDICTIONARYWDFLT
  5
E
102
{ACAD_REACTORS
330
C
102
}
330
C
100
AcDbDictionary
281
     1
  3
Normal
350
F
100
AcDbDictionaryWithDefault
340
F
  0
LAYOUT
  5
1E
102
{ACAD_REACTORS
330
1A
102
}
330
1A
100
AcDbPlotSettings
  1

  2

  4

  6

 40
0.0
 41
0.0
 42
0.0
 43
0.0
 44
0.0
 45
0.0
 46
0.0
 47
0.0
 48
0.0
 49
0.0
140
0.0
141
0.0
142
1.0
143
1.0
 70
   688
 72
     0
 73
     0
 74
     5
  7

 75
    16
 76
     0
 77
     2
 78
   300
147
1.0
148
0.0
149
0.0
100
AcDbLayout
  1
Layout1
 70
     1
 71
     1
 10
0.0
 20
0.0
 11
12.0
 21
9.0
 12
0.0
 22
0.0
 32
0.0
 14
1.000000000000000E+20
 24
1.000000000000000E+20
 34
1.000000000000000E+20
 15
-1.000000000000000E+20
 25
-1.000000000000000E+20
 35
-1.000000000000000E+20
146
0.0
 13
0.0
 23
0.0
 33
0.0
 16
1.0
 26
0.0
 36
0.0
 17
0.0
 27
1.0
 37
0.0
 76
     0
330
1B
  0
LAYOUT
  5
26
102
{ACAD_REACTORS
330
1A
102
}
330
1A
100
AcDbPlotSettings
  1

  2

  4

  6

 40
0.0
 41
0.0
 42
0.0
 43
0.0
 44
0.0
 45
0.0
 46
0.0
 47
0.0
 48
0.0
 49
0.0
140
0.0
141
0.0
142
1.0
143
1.0
 70
   688
 72
     0
 73
     0
 74
     5
  7

 75
    16
 76
     0
 77
     2
 78
   300
147
1.0
148
0.0
149
0.0
100
AcDbLayout
  1
Layout2
 70
     1
 71
     2
 10
0.0
 20
0.0
 11
0.0
 21
0.0
 12
0.0
 22
0.0
 32
0.0
 14
0.0
 24
0.0
 34
0.0
 15
0.0
 25
0.0
 35
0.0
146
0.0
 13
0.0
 23
0.0
 33
0.0
 16
1.0
 26
0.0
 36
0.0
 17
0.0
 27
1.0
 37
0.0
 76
     0
330
23
  0
LAYOUT
  5
22
102
{ACAD_REACTORS
330
1A
102
}
330
1A
100
AcDbPlotSettings
  1

  2

  4

  6

 40
0.0
 41
0.0
 42
0.0
 43
0.0
 44
0.0
 45
0.0
 46
0.0
 47
0.0
 48
0.0
 49
0.0
140
0.0
141
0.0
142
1.0
143
1.0
 70
  1712
 72
     0
 73
     0
 74
     0
  7

 75
     0
 76
     0
 77
     2
 78
   300
147
1.0
148
0.0
149
0.0
100
AcDbLayout
  1
Model
 70
     1
 71
     0
 10
0.0
 20
0.0
 11
0.0
 21
0.0
 12
0.0
 22
0.0
 32
0.0
 14
-2.281503937007874
 24
-0.0705275590551181
 34
0.0
 15
2.41988188976378
 25
1.282586614173228
 35
0.0
146
0.0
 13
0.0
 23
0.0
 33
0.0
 16
1.0
 26
0.0
 36
0.0
 17
0.0
 27
1.0
 37
0.0
 76
     0
330
1F
  0
MLINESTYLE
  5
18
102
{ACAD_REACTORS
330
17
102
}
330
17
100
AcDbMlineStyle
  2
Standard
 70
     0
  3

 62
   256
 51
90.0
 52
90.0
 71
     2
 49
0.5
 62
   256
  6
BYLAYER
 49
-0.5
 62
   256
  6
BYLAYER
  0
ACDBPLACEHOLDER
  5
F
102
{ACAD_REACTORS
330
E
102
}
330
E
  0
ENDSEC
  0
EOF
