  0
SECTION
  2
HEADER
  9
$ACADVER
  1
AC1018
  9
$ACADMAINTVER
 70
     0
  9
$DWGCODEPAGE
  3
ANSI_1252
  9
$INSBASE
 10
0.0
 20
0.0
 30
0.0
  9
$EXTMIN
 10
-1.179858267716536
 20
-0.6038700787401575
 30
0.0
  9
$EXTMAX
 10
0.8196062992125984
 20
2.524850393700787
 30
0.0
  9
$LIMMIN
 10
0.0
 20
0.0
  9
$LIMMAX
 10
12.0
 20
9.0
  9
$ORTHOMODE
 70
     0
  9
$REGENMODE
 70
     1
  9
$FILLMODE
 70
     1
  9
$QTEXTMODE
 70
     0
  9
$MIRRTEXT
 70
     1
  9
$LTSCALE
 40
1.0
  9
$ATTMODE
 70
     1
  9
$TEXTSIZE
 40
0.2
  9
$TRACEWID
 40
0.05
  9
$TEXTSTYLE
  7
Standard
  9
$CLAYER
  8
0
  9
$CELTYPE
  6
ByLayer
  9
$CECOLOR
 62
   256
  9
$CELTSCALE
 40
1.0
  9
$DISPSILH
 70
     0
  9
$DIMSCALE
 40
1.0
  9
$DIMASZ
 40
0.18
  9
$DIMEXO
 40
0.0625
  9
$DIMDLI
 40
0.38
  9
$DIMRND
 40
0.0
  9
$DIMDLE
 40
0.0
  9
$DIMEXE
 40
0.18
  9
$DIMTP
 40
0.0
  9
$DIMTM
 40
0.0
  9
$DIMTXT
 40
0.18
  9
$DIMCEN
 40
0.09
  9
$DIMTSZ
 40
0.0
  9
$DIMTOL
 70
     0
  9
$DIMLIM
 70
     0
  9
$DIMTIH
 70
     1
  9
$DIMTOH
 70
     1
  9
$DIMSE1
 70
     0
  9
$DIMSE2
 70
     0
  9
$DIMTAD
 70
     0
  9
$DIMZIN
 70
     0
  9
$DIMBLK
  1

  9
$DIMASO
 70
     1
  9
$DIMSHO
 70
     1
  9
$DIMPOST
  1

  9
$DIMAPOST
  1

  9
$DIMALT
 70
     0
  9
$DIMALTD
 70
     2
  9
$DIMALTF
 40
25.4
  9
$DIMLFAC
 40
1.0
  9
$DIMTOFL
 70
     0
  9
$DIMTVP
 40
0.0
  9
$DIMTIX
 70
     0
  9
$DIMSOXD
 70
     0
  9
$DIMSAH
 70
     0
  9
$DIMBLK1
  1

  9
$DIMBLK2
  1

  9
$DIMSTYLE
  2
Standard
  9
$DIMCLRD
 70
     0
  9
$DIMCLRE
 70
     0
  9
$DIMCLRT
 70
     0
  9
$DIMTFAC
 40
1.0
  9
$DIMGAP
 40
0.09
  9
$DIMJUST
 70
     0
  9
$DIMSD1
 70
     0
  9
$DIMSD2
 70
     0
  9
$DIMTOLJ
 70
     1
  9
$DIMTZIN
 70
     0
  9
$DIMALTZ
 70
     0
  9
$DIMALTTZ
 70
     0
  9
$DIMUPT
 70
     0
  9
$DIMDEC
 70
     4
  9
$DIMTDEC
 70
     4
  9
$DIMALTU
 70
     2
  9
$DIMALTTD
 70
     2
  9
$DIMTXSTY
  7
Standard
  9
$DIMAUNIT
 70
     0
  9
$DIMADEC
 70
     0
  9
$DIMALTRND
 40
0.0
  9
$DIMAZIN
 70
     0
  9
$DIMDSEP
 70
    46
  9
$DIMATFIT
 70
     3
  9
$DIMFRAC
 70
     0
  9
$DIMLDRBLK
  1

  9
$DIMLUNIT
 70
     2
  9
$DIMLWD
 70
    -2
  9
$DIMLWE
 70
    -2
  9
$DIMTMOVE
 70
     0
  9
$LUNITS
 70
     2
  9
$LUPREC
 70
     4
  9
$SKETCHINC
 40
0.1
  9
$FILLETRAD
 40
0.5
  9
$AUNITS
 70
     0
  9
$AUPREC
 70
     0
  9
$MENU
  1
.
  9
$ELEVATION
 40
0.0
  9
$PELEVATION
 40
0.0
  9
$THICKNESS
 40
0.0
  9
$LIMCHECK
 70
     0
  9
$CHAMFERA
 40
0.5
  9
$CHAMFERB
 40
0.5
  9
$CHAMFERC
 40
1.0
  9
$CHAMFERD
 40
0.0
  9
$SKPOLY
 70
     0
  9
$TDCREATE
 40
2453769.64713397
  9
$TDUCREATE
 40
2453769.855467303
  9
$TDUPDATE
 40
2453769.647133981
  9
$TDUUPDATE
 40
2453769.855467315
  9
$TDINDWG
 40
0.0000000116
  9
$TDUSRTIMER
 40
0.0000000116
  9
$USRTIMER
 70
     1
  9
$ANGBASE
 50
0.0
  9
$ANGDIR
 70
     0
  9
$PDMODE
 70
     0
  9
$PDSIZE
 40
0.0
  9
$PLINEWID
 40
0.0
  9
$SPLFRAME
 70
     0
  9
$SPLINETYPE
 70
     6
  9
$SPLINESEGS
 70
     8
  9
$HANDSEED
  5
76
  9
$SURFTAB1
 70
     6
  9
$SURFTAB2
 70
     6
  9
$SURFTYPE
 70
     6
  9
$SURFU
 70
     6
  9
$SURFV
 70
     6
  9
$UCSBASE
  2

  9
$UCSNAME
  2

  9
$UCSORG
 10
0.0
 20
0.0
 30
0.0
  9
$UCSXDIR
 10
1.0
 20
0.0
 30
0.0
  9
$UCSYDIR
 10
0.0
 20
1.0
 30
0.0
  9
$UCSORTHOREF
  2

  9
$UCSORTHOVIEW
 70
     0
  9
$UCSORGTOP
 10
0.0
 20
0.0
 30
0.0
  9
$UCSORGBOTTOM
 10
0.0
 20
0.0
 30
0.0
  9
$UCSORGLEFT
 10
0.0
 20
0.0
 30
0.0
  9
$UCSORGRIGHT
 10
0.0
 20
0.0
 30
0.0
  9
$UCSORGFRONT
 10
0.0
 20
0.0
 30
0.0
  9
$UCSORGBACK
 10
0.0
 20
0.0
 30
0.0
  9
$PUCSBASE
  2

  9
$PUCSNAME
  2

  9
$PUCSORG
 10
0.0
 20
0.0
 30
0.0
  9
$PUCSXDIR
 10
1.0
 20
0.0
 30
0.0
  9
$PUCSYDIR
 10
0.0
 20
1.0
 30
0.0
  9
$PUCSORTHOREF
  2

  9
$PUCSORTHOVIEW
 70
     0
  9
$PUCSORGTOP
 10
0.0
 20
0.0
 30
0.0
  9
$PUCSORGBOTTOM
 10
0.0
 20
0.0
 30
0.0
  9
$PUCSORGLEFT
 10
0.0
 20
0.0
 30
0.0
  9
$PUCSORGRIGHT
 10
0.0
 20
0.0
 30
0.0
  9
$PUCSORGFRONT
 10
0.0
 20
0.0
 30
0.0
  9
$PUCSORGBACK
 10
0.0
 20
0.0
 30
0.0
  9
$USERI1
 70
     0
  9
$USERI2
 70
     0
  9
$USERI3
 70
     0
  9
$USERI4
 70
     0
  9
$USERI5
 70
     0
  9
$USERR1
 40
0.0
  9
$USERR2
 40
0.0
  9
$USERR3
 40
0.0
  9
$USERR4
 40
0.0
  9
$USERR5
 40
0.0
  9
$WORLDVIEW
 70
     1
  9
$SHADEDGE
 70
     3
  9
$SHADEDIF
 70
    70
  9
$TILEMODE
 70
     1
  9
$MAXACTVP
 70
    64
  9
$PINSBASE
 10
0.0
 20
0.0
 30
0.0
  9
$PLIMCHECK
 70
     0
  9
$PEXTMIN
 10
1.000000000000000E+20
 20
1.000000000000000E+20
 30
1.000000000000000E+20
  9
$PEXTMAX
 10
-1.000000000000000E+20
 20
-1.000000000000000E+20
 30
-1.000000000000000E+20
  9
$PLIMMIN
 10
0.0
 20
0.0
  9
$PLIMMAX
 10
12.0
 20
9.0
  9
$UNITMODE
 70
     0
  9
$VISRETAIN
 70
     1
  9
$PLINEGEN
 70
     0
  9
$PSLTSCALE
 70
     1
  9
$TREEDEPTH
 70
  3020
  9
$CMLSTYLE
  2
Standard
  9
$CMLJUST
 70
     0
  9
$CMLSCALE
 40
1.0
  9
$PROXYGRAPHICS
 70
     1
  9
$MEASUREMENT
 70
     0
  9
$CELWEIGHT
370
    -1
  9
$ENDCAPS
280
     0
  9
$JOINSTYLE
280
     0
  9
$LWDISPLAY
290
     0
  9
$INSUNITS
 70
     1
  9
$HYPERLINKBASE
  1

  9
$STYLESHEET
  1

  9
$XEDIT
290
     1
  9
$CEPSNTYPE
380
     0
  9
$PSTYLEMODE
290
     0
  9
$FINGERPRINTGUID
  2
{FAEB1C30-E019-11D5-929B-00C0DF256EC4}
  9
$VERSIONGUID
  2
{FAEB1C32-E019-11D5-929B-00C0DF256EC4}
  9
$EXTNAMES
290
     1
  9
$PSVPSCALE
 40
0.0
  9
$OLESTARTUP
290
     0
  9
$SORTENTS
280
   127
  9
$INDEXCTL
280
     0
  9
$HIDETEXT
280
     1
  9
$XCLIPFRAME
290
     0
  9
$HALOGAP
280
     0
  9
$OBSCOLOR
 70
   257
  9
$OBSLTYPE
280
     0
  9
$INTERSECTIONDISPLAY
280
     0
  9
$INTERSECTIONCOLOR
 70
   257
  9
$DIMASSOC
280
     2
  9
$PROJECTNAME
  1

  0
ENDSEC
  0
SECTION
  2
CLASSES
  0
CLASS
  1
ACDBDICTIONARYWDFLT
  2
AcDbDictionaryWithDefault
  3
ObjectDBX Classes
 90
        0
 91
        1
280
     0
281
     0
  0
ENDSEC
  0
SECTION
  2
TABLES
  0
TABLE
  2
VPORT
  5
8
330
0
100
AcDbSymbolTable
 70
     2
  0
VPORT
  5
29
330
8
100
AcDbSymbolTableRecord
100
AcDbViewportTableRecord
  2
*Active
 70
     0
 10
0.0
 20
0.0
 11
1.0
 21
1.0
 12
10.42990654205607
 22
4.5
 13
0.0
 23
0.0
 14
0.5
 24
0.5
 15
0.5
 25
0.5
 16
0.0
 26
0.0
 36
1.0
 17
0.0
 27
0.0
 37
0.0
 40
9.0
 41
1.972972972850329
 42
50.0
 43
0.0
 44
0.0
 50
0.0
 51
0.0
 71
     0
 72
   100
 73
     1
 74
     3
 75
     0
 76
     0
 77
     0
 78
     0
281
     0
 65
     1
110
0.0
120
0.0
130
0.0
111
1.0
121
0.0
131
0.0
112
0.0
122
1.0
132
0.0
 79
     0
146
0.0
  0
ENDTAB
  0
TABLE
  2
LTYPE
  5
5
330
0
100
AcDbSymbolTable
 70
     1
  0
LTYPE
  5
14
330
5
100
AcDbSymbolTableRecord
100
AcDbLinetypeTableRecord
  2
ByBlock
 70
     0
  3

 72
    65
 73
     0
 40
0.0
  0
LTYPE
  5
15
330
5
100
AcDbSymbolTableRecord
100
AcDbLinetypeTableRecord
  2
ByLayer
 70
     0
  3

 72
    65
 73
     0
 40
0.0
  0
LTYPE
  5
16
330
5
100
AcDbSymbolTableRecord
100
AcDbLinetypeTableRecord
  2
Continuous
 70
     0
  3
Solid line
 72
    65
 73
     0
 40
0.0
  0
ENDTAB
  0
TABLE
  2
LAYER
  5
2
330
0
100
AcDbSymbolTable
 70
     2
  0
LAYER
  5
10
330
2
100
AcDbSymbolTableRecord
100
AcDbLayerTableRecord
  2
0
 70
     0
 62
     7
  6
Continuous
370
    -3
390
F
  0
LAYER
  5
2B
330
2
100
AcDbSymbolTableRecord
100
AcDbLayerTableRecord
  2
Layer 1
 70
     0
 62
     7
  6
Continuous
370
    -3
390
F
  0
ENDTAB
  0
TABLE
  2
STYLE
  5
3
330
0
100
AcDbSymbolTable
 70
     1
  0
STYLE
  5
11
330
3
100
AcDbSymbolTableRecord
100
AcDbTextStyleTableRecord
  2
Standard
 70
     0
 40
0.0
 41
1.0
 50
0.0
 71
     0
 42
0.2
  3
txt
  4

  0
ENDTAB
  0
TABLE
  2
VIEW
  5
6
330
0
100
AcDbSymbolTable
 70
     0
  0
ENDTAB
  0
TABLE
  2
UCS
  5
7
330
0
100
AcDbSymbolTable
 70
     0
  0
ENDTAB
  0
TABLE
  2
APPID
  5
9
330
0
100
AcDbSymbolTable
 70
     2
  0
APPID
  5
12
330
9
100
AcDbSymbolTableRecord
100
AcDbRegAppTableRecord
  2
ACAD
 70
     0
  0
APPID
  5
2A
330
9
100
AcDbSymbolTableRecord
100
AcDbRegAppTableRecord
  2
ODA
 70
     0
  0
ENDTAB
  0
TABLE
  2
DIMSTYLE
  5
A
330
0
100
AcDbSymbolTable
 70
     1
100
AcDbDimStyleTable
  0
DIMSTYLE
105
27
330
A
100
AcDbSymbolTableRecord
100
AcDbDimStyleTableRecord
  2
Standard
 70
     0
340
11
  0
ENDTAB
  0
TABLE
  2
BLOCK_RECORD
  5
1
330
0
100
AcDbSymbolTable
 70
     1
  0
BLOCK_RECORD
  5
1F
330
1
100
AcDbSymbolTableRecord
100
AcDbBlockTableRecord
  2
*Model_Space
340
22
  0
BLOCK_RECORD
  5
1B
330
1
100
AcDbSymbolTableRecord
100
AcDbBlockTableRecord
  2
*Paper_Space
340
1E
  0
BLOCK_RECORD
  5
23
330
1
100
AcDbSymbolTableRecord
100
AcDbBlockTableRecord
  2
*Paper_Space0
340
26
  0
ENDTAB
  0
ENDSEC
  0
SECTION
  2
BLOCKS
  0
BLOCK
  5
20
330
1F
100
AcDbEntity
  8
0
100
AcDbBlockBegin
  2
*Model_Space
 70
     0
 71
     0
 10
0.0
 20
0.0
 30
0.0
  3
*Model_Space
  1

  0
ENDBLK
  5
21
330
1F
100
AcDbEntity
  8
0
100
AcDbBlockEnd
  0
BLOCK
  5
1C
330
1B
100
AcDbEntity
 67
     1
  8
0
100
AcDbBlockBegin
  2
*Paper_Space
 70
     0
 71
     0
 10
0.0
 20
0.0
 30
0.0
  3
*Paper_Space
  1

  0
ENDBLK
  5
1D
330
1B
100
AcDbEntity
 67
     1
  8
0
100
AcDbBlockEnd
  0
BLOCK
  5
24
330
23
100
AcDbEntity
  8
0
100
AcDbBlockBegin
  2
*Paper_Space0
 70
     0
 71
     0
 10
0.0
 20
0.0
 30
0.0
  3
*Paper_Space0
  1

  0
ENDBLK
  5
25
330
23
100
AcDbEntity
  8
0
100
AcDbBlockEnd
  0
ENDSEC
  0
SECTION
  2
ENTITIES
  0
SPLINE
  5
2C
330
1F
100
AcDbEntity
  8
Layer 1
 62
   250
100
AcDbSpline
210
0.0
220
0.0
230
1.0
 70
    11
 71
     3
 72
   104
 73
   100
 74
     0
 42
0.0000000001
 43
0.0000000001
 40
0.0
 40
0.0
 40
0.0
 40
0.0
 40
0.04
 40
0.04
 40
0.04
 40
0.04
 40
0.08
 40
0.08
 40
0.08
 40
0.08
 40
0.12
 40
0.12
 40
0.12
 40
0.12
 40
0.16
 40
0.16
 40
0.16
 40
0.16
 40
0.2
 40
0.2
 40
0.2
 40
0.2
 40
0.24
 40
0.24
 40
0.24
 40
0.24
 40
0.28
 40
0.28
 40
0.28
 40
0.28
 40
0.32
 40
0.32
 40
0.32
 40
0.32
 40
0.36
 40
0.36
 40
0.36
 40
0.36
 40
0.4
 40
0.4
 40
0.4
 40
0.4
 40
0.44
 40
0.44
 40
0.44
 40
0.44
 40
0.4799999999999999
 40
0.4799999999999999
 40
0.4799999999999999
 40
0.4799999999999999
 40
0.5199999999999999
 40
0.5199999999999999
 40
0.5199999999999999
 40
0.5199999999999999
 40
0.5599999999999999
 40
0.5599999999999999
 40
0.5599999999999999
 40
0.5599999999999999
 40
0.6
 40
0.6
 40
0.6
 40
0.6
 40
0.64
 40
0.64
 40
0.64
 40
0.64
 40
0.6800000000000001
 40
0.6800000000000001
 40
0.6800000000000001
 40
0.6800000000000001
 40
0.7200000000000001
 40
0.7200000000000001
 40
0.7200000000000001
 40
0.7200000000000001
 40
0.7600000000000001
 40
0.7600000000000001
 40
0.7600000000000001
 40
0.7600000000000001
 40
0.8000000000000002
 40
0.8000000000000002
 40
0.8000000000000002
 40
0.8000000000000002
 40
0.8400000000000002
 40
0.8400000000000002
 40
0.8400000000000002
 40
0.8400000000000002
 40
0.8800000000000002
 40
0.8800000000000002
 40
0.8800000000000002
 40
0.8800000000000002
 40
0.9200000000000003
 40
0.9200000000000003
 40
0.9200000000000003
 40
0.9200000000000003
 40
0.9600000000000003
 40
0.9600000000000003
 40
0.9600000000000003
 40
0.9600000000000003
 40
1.0
 40
1.0
 40
1.0
 40
1.0
 10
-0.7981456692913386
 20
1.704629921259843
 30
0.0
 10
-0.7981456692913386
 20
1.704629921259843
 30
0.0
 10
-0.7441732283464567
 20
1.704629921259843
 30
0.0
 10
-0.7441732283464567
 20
1.704629921259843
 30
0.0
 10
-0.7441732283464567
 20
1.704629921259843
 30
0.0
 10
-0.731003937007874
 20
1.704629921259843
 30
0.0
 10
-0.7219763779527559
 20
1.70401968503937
 30
0.0
 10
-0.7170905511811024
 20
1.702822834645669
 30
0.0
 10
-0.7170905511811024
 20
1.702822834645669
 30
0.0
 10
-0.7098661417322835
 20
1.701102362204725
 30
0.0
 10
-0.7041732283464567
 20
1.697964566929134
 30
0.0
 10
-0.6999488188976378
 20
1.693405511811024
 30
0.0
 10
-0.6999488188976378
 20
1.693405511811024
 30
0.0
 10
-0.6957559055118111
 20
1.688850393700788
 30
0.0
 10
-0.6936456692913386
 20
1.683350393700787
 30
0.0
 10
-0.6936456692913386
 20
1.676964566929134
 30
0.0
 10
-0.6936456692913386
 20
1.676964566929134
 30
0.0
 10
-0.6936456692913386
 20
1.672350393700788
 30
0.0
 10
-0.6947559055118111
 20
1.668212598425197
 30
0.0
 10
-0.6969763779527559
 20
1.664547244094488
 30
0.0
 10
-0.6969763779527559
 20
1.664547244094488
 30
0.0
 10
-0.6992007874015749
 20
1.660877952755906
 30
0.0
 10
-0.7024488188976378
 20
1.657740157480315
 30
0.0
 10
-0.7066732283464567
 20
1.655157480314961
 30
0.0
 10
-0.7066732283464567
 20
1.655157480314961
 30
0.0
 10
-0.7093937007874016
 20
1.653464566929134
 30
0.0
 10
-0.7130629921259842
 20
1.65201968503937
 30
0.0
 10
-0.7177283464566929
 20
1.650822834645669
 30
0.0
 10
-0.7177283464566929
 20
1.650822834645669
 30
0.0
 10
-0.7118110236220473
 20
1.649740157480315
 30
0.0
 10
-0.7073110236220472
 20
1.648437007874016
 30
0.0
 10
-0.704228346456693
 20
1.646937007874016
 30
0.0
 10
-0.704228346456693
 20
1.646937007874016
 30
0.0
 10
-0.6995629921259843
 20
1.644657480314961
 30
0.0
 10
-0.6958661417322835
 20
1.641409448818898
 30
0.0
 10
-0.6931732283464567
 20
1.637157480314961
 30
0.0
 10
-0.6931732283464567
 20
1.637157480314961
 30
0.0
 10
-0.6904488188976379
 20
1.632937007874016
 30
0.0
 10
-0.6890905511811024
 20
1.628157480314961
 30
0.0
 10
-0.6890905511811024
 20
1.622850393700787
 30
0.0
 10
-0.6890905511811024
 20
1.622850393700787
 30
0.0
 10
-0.6890905511811024
 20
1.617685039370079
 30
0.0
 10
-0.6904212598425197
 20
1.612909448818898
 30
0.0
 10
-0.6930905511811024
 20
1.60851968503937
 30
0.0
 10
-0.6930905511811024
 20
1.60851968503937
 30
0.0
 10
-0.6957283464566929
 20
1.604129921259843
 30
0.0
 10
-0.6995039370078741
 20
1.60051968503937
 30
0.0
 10
-0.7043385826771654
 20
1.597685039370079
 30
0.0
 10
-0.7043385826771654
 20
1.597685039370079
 30
0.0
 10
-0.7092007874015749
 20
1.59488188976378
 30
0.0
 10
-0.7148661417322835
 20
1.593074803149606
 30
0.0
 10
-0.7213110236220472
 20
1.592267716535433
 30
0.0
 10
-0.7213110236220472
 20
1.592267716535433
 30
0.0
 10
-0.7277834645669292
 20
1.591492125984252
 30
0.0
 10
-0.7344212598425197
 20
1.591102362204725
 30
0.0
 10
-0.7412559055118111
 20
1.591102362204725
 30
0.0
 10
-0.7412559055118111
 20
1.591102362204725
 30
0.0
 10
-0.7412559055118111
 20
1.591102362204725
 30
0.0
 10
-0.7981456692913386
 20
1.591102362204725
 30
0.0
 10
-0.7981456692913386
 20
1.591102362204725
 30
0.0
 10
-0.7981456692913386
 20
1.591102362204725
 30
0.0
 10
-0.7981456692913386
 20
1.591102362204725
 30
0.0
 10
-0.7981456692913386
 20
1.597937007874016
 30
0.0
 10
-0.7981456692913386
 20
1.597937007874016
 30
0.0
 10
-0.7981456692913386
 20
1.597937007874016
 30
0.0
 10
-0.7981456692913386
 20
1.597937007874016
 30
0.0
 10
-0.7943110236220473
 20
1.597937007874016
 30
0.0
 10
-0.7943110236220473
 20
1.597937007874016
 30
0.0
 10
-0.7943110236220473
 20
1.597937007874016
 30
0.0
 10
-0.7906141732283465
 20
1.597937007874016
 30
0.0
 10
-0.7881141732283465
 20
1.59851968503937
 30
0.0
 10
-0.7867559055118111
 20
1.599657480314961
 30
0.0
 10
-0.7867559055118111
 20
1.599657480314961
 30
0.0
 10
-0.7847834645669292
 20
1.601212598425197
 30
0.0
 10
-0.7838110236220472
 20
1.603822834645669
 30
0.0
 10
-0.7838110236220472
 20
1.607464566929134
 30
0.0
 10
-0.7838110236220472
 20
1.607464566929134
 30
0.0
 10
-0.7838110236220472
 20
1.607464566929134
 30
0.0
 10
-0.7838110236220472
 20
1.686322834645669
 30
0.0
 10
-0.7838110236220472
 20
1.686322834645669
 30
0.0
 10
-0.7838110236220472
 20
1.686322834645669
 30
0.0
 10
-0.7838110236220472
 20
1.69001968503937
 30
0.0
 10
-0.7841141732283465
 20
1.69251968503937
 30
0.0
 10
-0.7847007874015748
 20
1.693877952755906
 30
0.0
 10
-0.7847007874015748
 20
1.693877952755906
 30
0.0
 10
-0.7853110236220473
 20
1.695240157480315
 30
0.0
 10
-0.7862007874015748
 20
1.696212598425197
 30
0.0
 10
-0.7873937007874016
 20
1.696822834645669
 30
0.0
 10
-0.7873937007874016
 20
1.696822834645669
 30
0.0
 10
-0.7885866141732284
 20
1.697405511811024
 30
0.0
 10
-0.7908937007874016
 20
1.697712598425197
 30
0.0
 10
-0.7943110236220473
 20
1.697712598425197
 30
0.0
 10
-0.7943110236220473
 20
1.697712598425197
 30
0.0
 10
-0.7943110236220473
 20
1.697712598425197
 30
0.0
 10
-0.7981456692913386
 20
1.697712598425197
 30
0.0
 10
-0.7981456692913386
 20
1.697712598425197
 30
0.0
 10
-0.7981456692913386
 20
1.697712598425197
 30
0.0
 10
-0.7981456692913386
 20
1.697712598425197
 30
0.0
 10
-0.7981456692913386
 20
1.704629921259843
 30
0.0
 10
-0.7981456692913386
 20
1.704629921259843
 30
0.0
  0
SPLINE
  5
2D
330
1F
100
AcDbEntity
  8
Layer 1
 62
   250
100
AcDbSpline
210
0.0
220
0.0
230
1.0
 70
    11
 71
     3
 72
    40
 73
    36
 74
     0
 42
0.0000000001
 43
0.0000000001
 40
0.0
 40
0.0
 40
0.0
 40
0.0
 40
0.1111111111111111
 40
0.1111111111111111
 40
0.1111111111111111
 40
0.1111111111111111
 40
0.2222222222222222
 40
0.2222222222222222
 40
0.2222222222222222
 40
0.2222222222222222
 40
0.3333333333333333
 40
0.3333333333333333
 40
0.3333333333333333
 40
0.3333333333333333
 40
0.4444444444444444
 40
0.4444444444444444
 40
0.4444444444444444
 40
0.4444444444444444
 40
0.5555555555555556
 40
0.5555555555555556
 40
0.5555555555555556
 40
0.5555555555555556
 40
0.6666666666666667
 40
0.6666666666666667
 40
0.6666666666666667
 40
0.6666666666666667
 40
0.7777777777777779
 40
0.7777777777777779
 40
0.7777777777777779
 40
0.7777777777777779
 40
0.8888888888888891
 40
0.8888888888888891
 40
0.8888888888888891
 40
0.8888888888888891
 40
1.0
 40
1.0
 40
1.0
 40
1.0
 10
-0.7685866141732284
 20
1.695602362204725
 30
0.0
 10
-0.7685866141732284
 20
1.695602362204725
 30
0.0
 10
-0.7685866141732284
 20
1.65401968503937
 30
0.0
 10
-0.7685866141732284
 20
1.65401968503937
 30
0.0
 10
-0.7685866141732284
 20
1.65401968503937
 30
0.0
 10
-0.7685866141732284
 20
1.65401968503937
 30
0.0
 10
-0.7478385826771654
 20
1.65401968503937
 30
0.0
 10
-0.7478385826771654
 20
1.65401968503937
 30
0.0
 10
-0.7478385826771654
 20
1.65401968503937
 30
0.0
 10
-0.7381456692913386
 20
1.65401968503937
 30
0.0
 10
-0.7314763779527559
 20
1.654464566929134
 30
0.0
 10
-0.7279212598425198
 20
1.655377952755906
 30
0.0
 10
-0.7279212598425198
 20
1.655377952755906
 30
0.0
 10
-0.7223110236220472
 20
1.656850393700788
 30
0.0
 10
-0.7180629921259842
 20
1.659350393700787
 30
0.0
 10
-0.7150905511811024
 20
1.662877952755906
 30
0.0
 10
-0.7150905511811024
 20
1.662877952755906
 30
0.0
 10
-0.7121456692913386
 20
1.666405511811024
 30
0.0
 10
-0.7106456692913387
 20
1.670937007874016
 30
0.0
 10
-0.7106456692913387
 20
1.676464566929134
 30
0.0
 10
-0.7106456692913387
 20
1.676464566929134
 30
0.0
 10
-0.7106456692913387
 20
1.681129921259843
 30
0.0
 10
-0.712003937007874
 20
1.68501968503937
 30
0.0
 10
-0.7146732283464568
 20
1.688157480314961
 30
0.0
 10
-0.7146732283464568
 20
1.688157480314961
 30
0.0
 10
-0.7173661417322835
 20
1.691267716535433
 30
0.0
 10
-0.7209763779527559
 20
1.693405511811024
 30
0.0
 10
-0.7254763779527559
 20
1.694547244094488
 30
0.0
 10
-0.7254763779527559
 20
1.694547244094488
 30
0.0
 10
-0.7283937007874016
 20
1.695240157480315
 30
0.0
 10
-0.7344763779527559
 20
1.695602362204725
 30
0.0
 10
-0.7437007874015749
 20
1.695602362204725
 30
0.0
 10
-0.7437007874015749
 20
1.695602362204725
 30
0.0
 10
-0.7437007874015749
 20
1.695602362204725
 30
0.0
 10
-0.7685866141732284
 20
1.695602362204725
 30
0.0
 10
-0.7685866141732284
 20
1.695602362204725
 30
0.0
  0
SPLINE
  5
2E
330
1F
100
AcDbEntity
  8
Layer 1
 62
   250
100
AcDbSpline
210
0.0
220
0.0
230
1.0
 70
    11
 71
     3
 72
    52
 73
    48
 74
     0
 42
0.0000000001
 43
0.0000000001
 40
0.0
 40
0.0
 40
0.0
 40
0.0
 40
0.0833333333333333
 40
0.0833333333333333
 40
0.0833333333333333
 40
0.0833333333333333
 40
0.1666666666666667
 40
0.1666666666666667
 40
0.1666666666666667
 40
0.1666666666666667
 40
0.25
 40
0.25
 40
0.25
 40
0.25
 40
0.3333333333333333
 40
0.3333333333333333
 40
0.3333333333333333
 40
0.3333333333333333
 40
0.4166666666666666
 40
0.4166666666666666
 40
0.4166666666666666
 40
0.4166666666666666
 40
0.4999999999999999
 40
0.4999999999999999
 40
0.4999999999999999
 40
0.4999999999999999
 40
0.5833333333333333
 40
0.5833333333333333
 40
0.5833333333333333
 40
0.5833333333333333
 40
0.6666666666666666
 40
0.6666666666666666
 40
0.6666666666666666
 40
0.6666666666666666
 40
0.75
 40
0.75
 40
0.75
 40
0.75
 40
0.8333333333333334
 40
0.8333333333333334
 40
0.8333333333333334
 40
0.8333333333333334
 40
0.9166666666666667
 40
0.9166666666666667
 40
0.9166666666666667
 40
0.9166666666666667
 40
1.0
 40
1.0
 40
1.0
 40
1.0
 10
-0.7685866141732284
 20
1.646185039370079
 30
0.0
 10
-0.7685866141732284
 20
1.646185039370079
 30
0.0
 10
-0.7685866141732284
 20
1.608937007874016
 30
0.0
 10
-0.7685866141732284
 20
1.608937007874016
 30
0.0
 10
-0.7685866141732284
 20
1.608937007874016
 30
0.0
 10
-0.7685866141732284
 20
1.605185039370079
 30
0.0
 10
-0.7684212598425197
 20
1.602964566929134
 30
0.0
 10
-0.7681181102362205
 20
1.602240157480315
 30
0.0
 10
-0.7681181102362205
 20
1.602240157480315
 30
0.0
 10
-0.7676732283464567
 20
1.601267716535433
 30
0.0
 10
-0.7668110236220472
 20
1.600602362204725
 30
0.0
 10
-0.765503937007874
 20
1.600212598425197
 30
0.0
 10
-0.765503937007874
 20
1.600212598425197
 30
0.0
 10
-0.7645866141732284
 20
1.599937007874016
 30
0.0
 10
-0.761976377952756
 20
1.599795275590551
 30
0.0
 10
-0.7577007874015749
 20
1.599795275590551
 30
0.0
 10
-0.7577007874015749
 20
1.599795275590551
 30
0.0
 10
-0.7577007874015749
 20
1.599795275590551
 30
0.0
 10
-0.7466181102362205
 20
1.599795275590551
 30
0.0
 10
-0.7466181102362205
 20
1.599795275590551
 30
0.0
 10
-0.7466181102362205
 20
1.599795275590551
 30
0.0
 10
-0.7356732283464568
 20
1.599795275590551
 30
0.0
 10
-0.7278385826771654
 20
1.600409448818898
 30
0.0
 10
-0.7231456692913386
 20
1.601629921259843
 30
0.0
 10
-0.7231456692913386
 20
1.601629921259843
 30
0.0
 10
-0.7184488188976378
 20
1.602850393700787
 30
0.0
 10
-0.7144488188976378
 20
1.605437007874016
 30
0.0
 10
-0.7111456692913386
 20
1.60938188976378
 30
0.0
 10
-0.7111456692913386
 20
1.60938188976378
 30
0.0
 10
-0.7078385826771654
 20
1.613295275590551
 30
0.0
 10
-0.7061732283464567
 20
1.618047244094488
 30
0.0
 10
-0.7061732283464567
 20
1.623574803149606
 30
0.0
 10
-0.7061732283464567
 20
1.623574803149606
 30
0.0
 10
-0.7061732283464567
 20
1.628240157480315
 30
0.0
 10
-0.7075314960629922
 20
1.632377952755906
 30
0.0
 10
-0.7102007874015749
 20
1.635992125984252
 30
0.0
 10
-0.7102007874015749
 20
1.635992125984252
 30
0.0
 10
-0.7128937007874016
 20
1.639602362204724
 30
0.0
 10
-0.7166181102362205
 20
1.642185039370079
 30
0.0
 10
-0.7213661417322835
 20
1.643795275590551
 30
0.0
 10
-0.7213661417322835
 20
1.643795275590551
 30
0.0
 10
-0.7261181102362205
 20
1.645409448818898
 30
0.0
 10
-0.7345314960629922
 20
1.646185039370079
 30
0.0
 10
-0.7466181102362205
 20
1.646185039370079
 30
0.0
 10
-0.7466181102362205
 20
1.646185039370079
 30
0.0
 10
-0.7466181102362205
 20
1.646185039370079
 30
0.0
 10
-0.7685866141732284
 20
1.646185039370079
 30
0.0
 10
-0.7685866141732284
 20
1.646185039370079
 30
0.0
  0
SPLINE
  5
2F
330
1F
100
AcDbEntity
  8
Layer 1
 62
   250
100
AcDbSpline
210
0.0
220
0.0
230
1.0
 70
    11
 71
     3
 72
   112
 73
   108
 74
     0
 42
0.0000000001
 43
0.0000000001
 40
0.0
 40
0.0
 40
0.0
 40
0.0
 40
0.037037037037037
 40
0.037037037037037
 40
0.037037037037037
 40
0.037037037037037
 40
0.0740740740740741
 40
0.0740740740740741
 40
0.0740740740740741
 40
0.0740740740740741
 40
0.1111111111111111
 40
0.1111111111111111
 40
0.1111111111111111
 40
0.1111111111111111
 40
0.1481481481481481
 40
0.1481481481481481
 40
0.1481481481481481
 40
0.1481481481481481
 40
0.1851851851851852
 40
0.1851851851851852
 40
0.1851851851851852
 40
0.1851851851851852
 40
0.2222222222222222
 40
0.2222222222222222
 40
0.2222222222222222
 40
0.2222222222222222
 40
0.2592592592592592
 40
0.2592592592592592
 40
0.2592592592592592
 40
0.2592592592592592
 40
0.2962962962962963
 40
0.2962962962962963
 40
0.2962962962962963
 40
0.2962962962962963
 40
0.3333333333333333
 40
0.3333333333333333
 40
0.3333333333333333
 40
0.3333333333333333
 40
0.3703703703703704
 40
0.3703703703703704
 40
0.3703703703703704
 40
0.3703703703703704
 40
0.4074074074074074
 40
0.4074074074074074
 40
0.4074074074074074
 40
0.4074074074074074
 40
0.4444444444444444
 40
0.4444444444444444
 40
0.4444444444444444
 40
0.4444444444444444
 40
0.4814814814814815
 40
0.4814814814814815
 40
0.4814814814814815
 40
0.4814814814814815
 40
0.5185185185185185
 40
0.5185185185185185
 40
0.5185185185185185
 40
0.5185185185185185
 40
0.5555555555555556
 40
0.5555555555555556
 40
0.5555555555555556
 40
0.5555555555555556
 40
0.5925925925925926
 40
0.5925925925925926
 40
0.5925925925925926
 40
0.5925925925925926
 40
0.6296296296296295
 40
0.6296296296296295
 40
0.6296296296296295
 40
0.6296296296296295
 40
0.6666666666666665
 40
0.6666666666666665
 40
0.6666666666666665
 40
0.6666666666666665
 40
0.7037037037037035
 40
0.7037037037037035
 40
0.7037037037037035
 40
0.7037037037037035
 40
0.7407407407407405
 40
0.7407407407407405
 40
0.7407407407407405
 40
0.7407407407407405
 40
0.7777777777777775
 40
0.7777777777777775
 40
0.7777777777777775
 40
0.7777777777777775
 40
0.8148148148148144
 40
0.8148148148148144
 40
0.8148148148148144
 40
0.8148148148148144
 40
0.8518518518518514
 40
0.8518518518518514
 40
0.8518518518518514
 40
0.8518518518518514
 40
0.8888888888888884
 40
0.8888888888888884
 40
0.8888888888888884
 40
0.8888888888888884
 40
0.9259259259259254
 40
0.9259259259259254
 40
0.9259259259259254
 40
0.9259259259259254
 40
0.9629629629629624
 40
0.9629629629629624
 40
0.9629629629629624
 40
0.9629629629629624
 40
1.0
 40
1.0
 40
1.0
 40
1.0
 10
-0.63148031496063
 20
1.704629921259843
 30
0.0
 10
-0.63148031496063
 20
1.704629921259843
 30
0.0
 10
-0.6180629921259843
 20
1.704629921259843
 30
0.0
 10
-0.6180629921259843
 20
1.704629921259843
 30
0.0
 10
-0.6180629921259843
 20
1.704629921259843
 30
0.0
 10
-0.6180629921259843
 20
1.704629921259843
 30
0.0
 10
-0.5828149606299213
 20
1.609740157480315
 30
0.0
 10
-0.5828149606299213
 20
1.609740157480315
 30
0.0
 10
-0.5828149606299213
 20
1.609740157480315
 30
0.0
 10
-0.5810905511811024
 20
1.604964566929134
 30
0.0
 10
-0.5793425196850394
 20
1.601795275590551
 30
0.0
 10
-0.5775629921259843
 20
1.600267716535433
 30
0.0
 10
-0.5775629921259843
 20
1.600267716535433
 30
0.0
 10
-0.5758149606299213
 20
1.598712598425197
 30
0.0
 10
-0.5734251968503937
 20
1.597937007874016
 30
0.0
 10
-0.5704527559055118
 20
1.597937007874016
 30
0.0
 10
-0.5704527559055118
 20
1.597937007874016
 30
0.0
 10
-0.5704527559055118
 20
1.597937007874016
 30
0.0
 10
-0.5686732283464567
 20
1.597937007874016
 30
0.0
 10
-0.5686732283464567
 20
1.597937007874016
 30
0.0
 10
-0.5686732283464567
 20
1.597937007874016
 30
0.0
 10
-0.5686732283464567
 20
1.597937007874016
 30
0.0
 10
-0.5686732283464567
 20
1.591102362204725
 30
0.0
 10
-0.5686732283464567
 20
1.591102362204725
 30
0.0
 10
-0.5686732283464567
 20
1.591102362204725
 30
0.0
 10
-0.5686732283464567
 20
1.591102362204725
 30
0.0
 10
-0.6091181102362205
 20
1.591102362204725
 30
0.0
 10
-0.6091181102362205
 20
1.591102362204725
 30
0.0
 10
-0.6091181102362205
 20
1.591102362204725
 30
0.0
 10
-0.6091181102362205
 20
1.591102362204725
 30
0.0
 10
-0.6091181102362205
 20
1.597937007874016
 30
0.0
 10
-0.6091181102362205
 20
1.597937007874016
 30
0.0
 10
-0.6091181102362205
 20
1.597937007874016
 30
0.0
 10
-0.6078149606299212
 20
1.598047244094488
 30
0.0
 10
-0.6065354330708662
 20
1.598102362204725
 30
0.0
 10
-0.6052834645669292
 20
1.598102362204725
 30
0.0
 10
-0.6052834645669292
 20
1.598102362204725
 30
0.0
 10
-0.6026732283464568
 20
1.598102362204725
 30
0.0
 10
-0.60098031496063
 20
1.59838188976378
 30
0.0
 10
-0.6001456692913386
 20
1.598909448818898
 30
0.0
 10
-0.6001456692913386
 20
1.598909448818898
 30
0.0
 10
-0.5985905511811024
 20
1.599937007874016
 30
0.0
 10
-0.5977874015748032
 20
1.601240157480315
 30
0.0
 10
-0.5977874015748032
 20
1.602822834645669
 30
0.0
 10
-0.5977874015748032
 20
1.602822834645669
 30
0.0
 10
-0.5977874015748032
 20
1.603964566929134
 30
0.0
 10
-0.5985629921259843
 20
1.606740157480315
 30
0.0
 10
-0.6000629921259842
 20
1.611212598425197
 30
0.0
 10
-0.6000629921259842
 20
1.611212598425197
 30
0.0
 10
-0.6000629921259842
 20
1.611212598425197
 30
0.0
 10
-0.6075629921259843
 20
1.633185039370079
 30
0.0
 10
-0.6075629921259843
 20
1.633185039370079
 30
0.0
 10
-0.6075629921259843
 20
1.633185039370079
 30
0.0
 10
-0.6075629921259843
 20
1.633185039370079
 30
0.0
 10
-0.648728346456693
 20
1.633185039370079
 30
0.0
 10
-0.648728346456693
 20
1.633185039370079
 30
0.0
 10
-0.648728346456693
 20
1.633185039370079
 30
0.0
 10
-0.648728346456693
 20
1.633185039370079
 30
0.0
 10
-0.6575354330708662
 20
1.608602362204725
 30
0.0
 10
-0.6575354330708662
 20
1.608602362204725
 30
0.0
 10
-0.6575354330708662
 20
1.608602362204725
 30
0.0
 10
-0.6584527559055119
 20
1.606047244094488
 30
0.0
 10
-0.6589251968503938
 20
1.604295275590551
 30
0.0
 10
-0.6589251968503938
 20
1.603295275590551
 30
0.0
 10
-0.6589251968503938
 20
1.603295275590551
 30
0.0
 10
-0.6589251968503938
 20
1.602212598425197
 30
0.0
 10
-0.6586181102362205
 20
1.601267716535433
 30
0.0
 10
-0.6580629921259843
 20
1.600464566929134
 30
0.0
 10
-0.6580629921259843
 20
1.600464566929134
 30
0.0
 10
-0.65748031496063
 20
1.599657480314961
 30
0.0
 10
-0.656728346456693
 20
1.599047244094488
 30
0.0
 10
-0.655728346456693
 20
1.598629921259843
 30
0.0
 10
-0.655728346456693
 20
1.598629921259843
 30
0.0
 10
-0.6547559055118111
 20
1.598212598425197
 30
0.0
 10
-0.6532007874015748
 20
1.59801968503937
 30
0.0
 10
-0.6510078740157481
 20
1.59801968503937
 30
0.0
 10
-0.6510078740157481
 20
1.59801968503937
 30
0.0
 10
-0.6495629921259842
 20
1.59801968503937
 30
0.0
 10
-0.6483700787401575
 20
1.597992125984252
 30
0.0
 10
-0.6474527559055119
 20
1.597937007874016
 30
0.0
 10
-0.6474527559055119
 20
1.597937007874016
 30
0.0
 10
-0.6474527559055119
 20
1.597937007874016
 30
0.0
 10
-0.6474527559055119
 20
1.591102362204725
 30
0.0
 10
-0.6474527559055119
 20
1.591102362204725
 30
0.0
 10
-0.6474527559055119
 20
1.591102362204725
 30
0.0
 10
-0.6474527559055119
 20
1.591102362204725
 30
0.0
 10
-0.6813700787401575
 20
1.591102362204725
 30
0.0
 10
-0.6813700787401575
 20
1.591102362204725
 30
0.0
 10
-0.6813700787401575
 20
1.591102362204725
 30
0.0
 10
-0.6813700787401575
 20
1.591102362204725
 30
0.0
 10
-0.6813700787401575
 20
1.597937007874016
 30
0.0
 10
-0.6813700787401575
 20
1.597937007874016
 30
0.0
 10
-0.6813700787401575
 20
1.597937007874016
 30
0.0
 10
-0.6782283464566929
 20
1.597937007874016
 30
0.0
 10
-0.6759527559055119
 20
1.598240157480315
 30
0.0
 10
-0.6745905511811023
 20
1.59888188976378
 30
0.0
 10
-0.6745905511811023
 20
1.59888188976378
 30
0.0
 10
-0.6732007874015749
 20
1.599492125984252
 30
0.0
 10
-0.6719803149606299
 20
1.600492125984252
 30
0.0
 10
-0.6709527559055118
 20
1.60188188976378
 30
0.0
 10
-0.6709527559055118
 20
1.60188188976378
 30
0.0
 10
-0.6699251968503938
 20
1.603267716535433
 30
0.0
 10
-0.6685629921259843
 20
1.606185039370079
 30
0.0
 10
-0.6668976377952757
 20
1.610629921259843
 30
0.0
 10
-0.6668976377952757
 20
1.610629921259843
 30
0.0
 10
-0.6668976377952757
 20
1.610629921259843
 30
0.0
 10
-0.63148031496063
 20
1.704629921259843
 30
0.0
 10
-0.63148031496063
 20
1.704629921259843
 30
0.0
  0
SPLINE
  5
30
330
1F
100
AcDbEntity
  8
Layer 1
 62
   250
100
AcDbSpline
210
0.0
220
0.0
230
1.0
 70
    11
 71
     3
 72
    16
 73
    12
 74
     0
 42
0.0000000001
 43
0.0000000001
 40
0.0
 40
0.0
 40
0.0
 40
0.0
 40
0.3333333333333333
 40
0.3333333333333333
 40
0.3333333333333333
 40
0.3333333333333333
 40
0.6666666666666666
 40
0.6666666666666666
 40
0.6666666666666666
 40
0.6666666666666666
 40
1.0
 40
1.0
 40
1.0
 40
1.0
 10
-0.645728346456693
 20
1.641157480314961
 30
0.0
 10
-0.645728346456693
 20
1.641157480314961
 30
0.0
 10
-0.6106456692913386
 20
1.641157480314961
 30
0.0
 10
-0.6106456692913386
 20
1.641157480314961
 30
0.0
 10
-0.6106456692913386
 20
1.641157480314961
 30
0.0
 10
-0.6106456692913386
 20
1.641157480314961
 30
0.0
 10
-0.6282283464566929
 20
1.689992125984252
 30
0.0
 10
-0.6282283464566929
 20
1.689992125984252
 30
0.0
 10
-0.6282283464566929
 20
1.689992125984252
 30
0.0
 10
-0.6282283464566929
 20
1.689992125984252
 30
0.0
 10
-0.645728346456693
 20
1.641157480314961
 30
0.0
 10
-0.645728346456693
 20
1.641157480314961
 30
0.0
  0
SPLINE
  5
31
330
1F
100
AcDbEntity
  8
Layer 1
 62
   250
100
AcDbSpline
210
0.0
220
0.0
230
1.0
 70
    11
 71
     3
 72
    72
 73
    68
 74
     0
 42
0.0000000001
 43
0.0000000001
 40
0.0
 40
0.0
 40
0.0
 40
0.0
 40
0.0588235294117647
 40
0.0588235294117647
 40
0.0588235294117647
 40
0.0588235294117647
 40
0.1176470588235294
 40
0.1176470588235294
 40
0.1176470588235294
 40
0.1176470588235294
 40
0.1764705882352941
 40
0.1764705882352941
 40
0.1764705882352941
 40
0.1764705882352941
 40
0.2352941176470588
 40
0.2352941176470588
 40
0.2352941176470588
 40
0.2352941176470588
 40
0.2941176470588235
 40
0.2941176470588235
 40
0.2941176470588235
 40
0.2941176470588235
 40
0.3529411764705883
 40
0.3529411764705883
 40
0.3529411764705883
 40
0.3529411764705883
 40
0.411764705882353
 40
0.411764705882353
 40
0.411764705882353
 40
0.411764705882353
 40
0.4705882352941177
 40
0.4705882352941177
 40
0.4705882352941177
 40
0.4705882352941177
 40
0.5294117647058824
 40
0.5294117647058824
 40
0.5294117647058824
 40
0.5294117647058824
 40
0.5882352941176471
 40
0.5882352941176471
 40
0.5882352941176471
 40
0.5882352941176471
 40
0.6470588235294118
 40
0.6470588235294118
 40
0.6470588235294118
 40
0.6470588235294118
 40
0.7058823529411765
 40
0.7058823529411765
 40
0.7058823529411765
 40
0.7058823529411765
 40
0.7647058823529412
 40
0.7647058823529412
 40
0.7647058823529412
 40
0.7647058823529412
 40
0.823529411764706
 40
0.823529411764706
 40
0.823529411764706
 40
0.823529411764706
 40
0.8823529411764707
 40
0.8823529411764707
 40
0.8823529411764707
 40
0.8823529411764707
 40
0.9411764705882354
 40
0.9411764705882354
 40
0.9411764705882354
 40
0.9411764705882354
 40
1.0
 40
1.0
 40
1.0
 40
1.0
 10
-0.4056456692913386
 20
1.704629921259843
 30
0.0
 10
-0.4056456692913386
 20
1.704629921259843
 30
0.0
 10
-0.3995629921259843
 20
1.704629921259843
 30
0.0
 10
-0.3995629921259843
 20
1.704629921259843
 30
0.0
 10
-0.3995629921259843
 20
1.704629921259843
 30
0.0
 10
-0.3995629921259843
 20
1.704629921259843
 30
0.0
 10
-0.3995629921259843
 20
1.61038188976378
 30
0.0
 10
-0.3995629921259843
 20
1.61038188976378
 30
0.0
 10
-0.3995629921259843
 20
1.61038188976378
 30
0.0
 10
-0.3995629921259843
 20
1.605937007874016
 30
0.0
 10
-0.3992559055118111
 20
1.603074803149606
 30
0.0
 10
-0.3987007874015748
 20
1.601795275590551
 30
0.0
 10
-0.3987007874015748
 20
1.601795275590551
 30
0.0
 10
-0.3981181102362205
 20
1.60051968503937
 30
0.0
 10
-0.3972007874015748
 20
1.599574803149606
 30
0.0
 10
-0.3958976377952756
 20
1.598909448818898
 30
0.0
 10
-0.3958976377952756
 20
1.598909448818898
 30
0.0
 10
-0.3945905511811024
 20
1.598267716535433
 30
0.0
 10
-0.3920078740157481
 20
1.597937007874016
 30
0.0
 10
-0.3881456692913386
 20
1.597937007874016
 30
0.0
 10
-0.3881456692913386
 20
1.597937007874016
 30
0.0
 10
-0.3881456692913386
 20
1.597937007874016
 30
0.0
 10
-0.3801732283464567
 20
1.597937007874016
 30
0.0
 10
-0.3801732283464567
 20
1.597937007874016
 30
0.0
 10
-0.3801732283464567
 20
1.597937007874016
 30
0.0
 10
-0.3801732283464567
 20
1.597937007874016
 30
0.0
 10
-0.3801732283464567
 20
1.591102362204725
 30
0.0
 10
-0.3801732283464567
 20
1.591102362204725
 30
0.0
 10
-0.3801732283464567
 20
1.591102362204725
 30
0.0
 10
-0.3801732283464567
 20
1.591102362204725
 30
0.0
 10
-0.4338110236220473
 20
1.591102362204725
 30
0.0
 10
-0.4338110236220473
 20
1.591102362204725
 30
0.0
 10
-0.4338110236220473
 20
1.591102362204725
 30
0.0
 10
-0.4338110236220473
 20
1.591102362204725
 30
0.0
 10
-0.4338110236220473
 20
1.597937007874016
 30
0.0
 10
-0.4338110236220473
 20
1.597937007874016
 30
0.0
 10
-0.4338110236220473
 20
1.597937007874016
 30
0.0
 10
-0.4338110236220473
 20
1.597937007874016
 30
0.0
 10
-0.4249527559055119
 20
1.597937007874016
 30
0.0
 10
-0.4249527559055119
 20
1.597937007874016
 30
0.0
 10
-0.4249527559055119
 20
1.597937007874016
 30
0.0
 10
-0.4210905511811024
 20
1.597937007874016
 30
0.0
 10
-0.4185354330708662
 20
1.598267716535433
 30
0.0
 10
-0.417255905511811
 20
1.598964566929134
 30
0.0
 10
-0.417255905511811
 20
1.598964566929134
 30
0.0
 10
-0.4159803149606299
 20
1.599629921259843
 30
0.0
 10
-0.4149803149606299
 20
1.600712598425197
 30
0.0
 10
-0.4142834645669292
 20
1.602212598425197
 30
0.0
 10
-0.4142834645669292
 20
1.602212598425197
 30
0.0
 10
-0.4135905511811024
 20
1.603712598425197
 30
0.0
 10
-0.4132283464566929
 20
1.606437007874016
 30
0.0
 10
-0.4132283464566929
 20
1.61038188976378
 30
0.0
 10
-0.4132283464566929
 20
1.61038188976378
 30
0.0
 10
-0.4132283464566929
 20
1.61038188976378
 30
0.0
 10
-0.4132283464566929
 20
1.687850393700787
 30
0.0
 10
-0.4132283464566929
 20
1.687850393700787
 30
0.0
 10
-0.4132283464566929
 20
1.687850393700787
 30
0.0
 10
-0.4132283464566929
 20
1.687850393700787
 30
0.0
 10
-0.4338110236220473
 20
1.687850393700787
 30
0.0
 10
-0.4338110236220473
 20
1.687850393700787
 30
0.0
 10
-0.4338110236220473
 20
1.687850393700787
 30
0.0
 10
-0.4338110236220473
 20
1.687850393700787
 30
0.0
 10
-0.4338110236220473
 20
1.694850393700788
 30
0.0
 10
-0.4338110236220473
 20
1.694850393700788
 30
0.0
 10
-0.4338110236220473
 20
1.694850393700788
 30
0.0
 10
-0.4225905511811024
 20
1.696433070866142
 30
0.0
 10
-0.4132007874015748
 20
1.699685039370079
 30
0.0
 10
-0.4056456692913386
 20
1.704629921259843
 30
0.0
  0
SPLINE
  5
32
330
1F
100
AcDbEntity
  8
Layer 1
 62
   250
100
AcDbSpline
210
0.0
220
0.0
230
1.0
 70
    11
 71
     3
 72
    84
 73
    80
 74
     0
 42
0.0000000001
 43
0.0000000001
 40
0.0
 40
0.0
 40
0.0
 40
0.0
 40
0.05
 40
0.05
 40
0.05
 40
0.05
 40
0.1
 40
0.1
 40
0.1
 40
0.1
 40
0.15
 40
0.15
 40
0.15
 40
0.15
 40
0.2
 40
0.2
 40
0.2
 40
0.2
 40
0.25
 40
0.25
 40
0.25
 40
0.25
 40
0.3
 40
0.3
 40
0.3
 40
0.3
 40
0.35
 40
0.35
 40
0.35
 40
0.35
 40
0.4
 40
0.4
 40
0.4
 40
0.4
 40
0.45
 40
0.45
 40
0.45
 40
0.45
 40
0.4999999999999999
 40
0.4999999999999999
 40
0.4999999999999999
 40
0.4999999999999999
 40
0.5499999999999999
 40
0.5499999999999999
 40
0.5499999999999999
 40
0.5499999999999999
 40
0.6
 40
0.6
 40
0.6
 40
0.6
 40
0.65
 40
0.65
 40
0.65
 40
0.65
 40
0.7000000000000001
 40
0.7000000000000001
 40
0.7000000000000001
 40
0.7000000000000001
 40
0.7500000000000001
 40
0.7500000000000001
 40
0.7500000000000001
 40
0.7500000000000001
 40
0.8000000000000002
 40
0.8000000000000002
 40
0.8000000000000002
 40
0.8000000000000002
 40
0.8500000000000002
 40
0.8500000000000002
 40
0.8500000000000002
 40
0.8500000000000002
 40
0.9000000000000002
 40
0.9000000000000002
 40
0.9000000000000002
 40
0.9000000000000002
 40
0.9500000000000003
 40
0.9500000000000003
 40
0.9500000000000003
 40
0.9500000000000003
 40
1.0
 40
1.0
 40
1.0
 40
1.0
 10
-0.2739803149606299
 20
1.706740157480315
 30
0.0
 10
-0.2739803149606299
 20
1.706740157480315
 30
0.0
 10
-0.2739803149606299
 20
1.699322834645669
 30
0.0
 10
-0.2739803149606299
 20
1.699322834645669
 30
0.0
 10
-0.2739803149606299
 20
1.699322834645669
 30
0.0
 10
-0.2873661417322835
 20
1.699185039370079
 30
0.0
 10
-0.2982007874015748
 20
1.697212598425197
 30
0.0
 10
-0.3064763779527559
 20
1.693492125984252
 30
0.0
 10
-0.3064763779527559
 20
1.693492125984252
 30
0.0
 10
-0.314755905511811
 20
1.689740157480315
 30
0.0
 10
-0.3208385826771654
 20
1.684129921259843
 30
0.0
 10
-0.3247559055118111
 20
1.676685039370079
 30
0.0
 10
-0.3247559055118111
 20
1.676685039370079
 30
0.0
 10
-0.3286732283464567
 20
1.669212598425197
 30
0.0
 10
-0.3308661417322835
 20
1.66001968503937
 30
0.0
 10
-0.3313385826771654
 20
1.649129921259843
 30
0.0
 10
-0.3313385826771654
 20
1.649129921259843
 30
0.0
 10
-0.3285905511811024
 20
1.653350393700787
 30
0.0
 10
-0.3257559055118111
 20
1.656657480314961
 30
0.0
 10
-0.3228385826771654
 20
1.65901968503937
 30
0.0
 10
-0.3228385826771654
 20
1.65901968503937
 30
0.0
 10
-0.3199488188976378
 20
1.661377952755906
 30
0.0
 10
-0.3165629921259843
 20
1.663185039370079
 30
0.0
 10
-0.3126732283464567
 20
1.664464566929134
 30
0.0
 10
-0.3126732283464567
 20
1.664464566929134
 30
0.0
 10
-0.3087834645669291
 20
1.665740157480315
 30
0.0
 10
-0.3045354330708662
 20
1.666377952755906
 30
0.0
 10
-0.2999212598425197
 20
1.666377952755906
 30
0.0
 10
-0.2999212598425197
 20
1.666377952755906
 30
0.0
 10
-0.2925629921259842
 20
1.666377952755906
 30
0.0
 10
-0.2859803149606299
 20
1.664740157480315
 30
0.0
 10
-0.2802283464566929
 20
1.661492125984252
 30
0.0
 10
-0.2802283464566929
 20
1.661492125984252
 30
0.0
 10
-0.2744803149606299
 20
1.658240157480315
 30
0.0
 10
-0.2700078740157481
 20
1.653822834645669
 30
0.0
 10
-0.2668110236220472
 20
1.648267716535433
 30
0.0
 10
-0.2668110236220472
 20
1.648267716535433
 30
0.0
 10
-0.2636181102362205
 20
1.642712598425197
 30
0.0
 10
-0.262007874015748
 20
1.636157480314961
 30
0.0
 10
-0.262007874015748
 20
1.628629921259843
 30
0.0
 10
-0.262007874015748
 20
1.628629921259843
 30
0.0
 10
-0.262007874015748
 20
1.616629921259843
 30
0.0
 10
-0.2656181102362205
 20
1.607212598425197
 30
0.0
 10
-0.2728385826771654
 20
1.60038188976378
 30
0.0
 10
-0.2728385826771654
 20
1.60038188976378
 30
0.0
 10
-0.2808110236220472
 20
1.59288188976378
 30
0.0
 10
-0.2911456692913386
 20
1.589157480314961
 30
0.0
 10
-0.3038385826771654
 20
1.589157480314961
 30
0.0
 10
-0.3038385826771654
 20
1.589157480314961
 30
0.0
 10
-0.313007874015748
 20
1.589157480314961
 30
0.0
 10
-0.3207283464566929
 20
1.591047244094488
 30
0.0
 10
-0.3270354330708661
 20
1.594850393700787
 30
0.0
 10
-0.3270354330708661
 20
1.594850393700787
 30
0.0
 10
-0.3333385826771654
 20
1.598629921259843
 30
0.0
 10
-0.3383385826771654
 20
1.604437007874016
 30
0.0
 10
-0.3420629921259843
 20
1.612267716535433
 30
0.0
 10
-0.3420629921259843
 20
1.612267716535433
 30
0.0
 10
-0.345755905511811
 20
1.620074803149606
 30
0.0
 10
-0.3476181102362205
 20
1.629740157480315
 30
0.0
 10
-0.3476181102362205
 20
1.641240157480315
 30
0.0
 10
-0.3476181102362205
 20
1.641240157480315
 30
0.0
 10
-0.3476181102362205
 20
1.652795275590551
 30
0.0
 10
-0.3456456692913386
 20
1.663047244094488
 30
0.0
 10
-0.3417283464566929
 20
1.671992125984252
 30
0.0
 10
-0.3417283464566929
 20
1.671992125984252
 30
0.0
 10
-0.3377834645669292
 20
1.680933070866142
 30
0.0
 10
-0.3323385826771654
 20
1.688129921259843
 30
0.0
 10
-0.3253937007874016
 20
1.693547244094488
 30
0.0
 10
-0.3253937007874016
 20
1.693547244094488
 30
0.0
 10
-0.3184488188976378
 20
1.698992125984252
 30
0.0
 10
-0.3108385826771654
 20
1.702547244094488
 30
0.0
 10
-0.3025905511811024
 20
1.704212598425197
 30
0.0
 10
-0.3025905511811024
 20
1.704212598425197
 30
0.0
 10
-0.2943110236220473
 20
1.705905511811024
 30
0.0
 10
-0.2868937007874016
 20
1.706740157480315
 30
0.0
 10
-0.2803110236220472
 20
1.706740157480315
 30
0.0
 10
-0.2803110236220472
 20
1.706740157480315
 30
0.0
 10
-0.2803110236220472
 20
1.706740157480315
 30
0.0
 10
-0.2739803149606299
 20
1.706740157480315
 30
0.0
 10
-0.2739803149606299
 20
1.706740157480315
 30
0.0
  0
SPLINE
  5
33
330
1F
100
AcDbEntity
  8
Layer 1
 62
   250
100
AcDbSpline
210
0.0
220
0.0
230
1.0
 70
    11
 71
     3
 72
    40
 73
    36
 74
     0
 42
0.0000000001
 43
0.0000000001
 40
0.0
 40
0.0
 40
0.0
 40
0.0
 40
0.1111111111111111
 40
0.1111111111111111
 40
0.1111111111111111
 40
0.1111111111111111
 40
0.2222222222222222
 40
0.2222222222222222
 40
0.2222222222222222
 40
0.2222222222222222
 40
0.3333333333333333
 40
0.3333333333333333
 40
0.3333333333333333
 40
0.3333333333333333
 40
0.4444444444444444
 40
0.4444444444444444
 40
0.4444444444444444
 40
0.4444444444444444
 40
0.5555555555555556
 40
0.5555555555555556
 40
0.5555555555555556
 40
0.5555555555555556
 40
0.6666666666666667
 40
0.6666666666666667
 40
0.6666666666666667
 40
0.6666666666666667
 40
0.7777777777777779
 40
0.7777777777777779
 40
0.7777777777777779
 40
0.7777777777777779
 40
0.8888888888888891
 40
0.8888888888888891
 40
0.8888888888888891
 40
0.8888888888888891
 40
1.0
 40
1.0
 40
1.0
 40
1.0
 10
-0.3036732283464567
 20
1.657740157480315
 30
0.0
 10
-0.3114763779527559
 20
1.657740157480315
 30
0.0
 10
-0.3178937007874016
 20
1.654795275590551
 30
0.0
 10
-0.3229212598425197
 20
1.648877952755906
 30
0.0
 10
-0.3229212598425197
 20
1.648877952755906
 30
0.0
 10
-0.3279488188976378
 20
1.642964566929134
 30
0.0
 10
-0.3304488188976378
 20
1.635850393700788
 30
0.0
 10
-0.3304488188976378
 20
1.627574803149607
 30
0.0
 10
-0.3304488188976378
 20
1.627574803149607
 30
0.0
 10
-0.3304488188976378
 20
1.621712598425197
 30
0.0
 10
-0.3292283464566929
 20
1.616295275590551
 30
0.0
 10
-0.3267834645669291
 20
1.611322834645669
 30
0.0
 10
-0.3267834645669291
 20
1.611322834645669
 30
0.0
 10
-0.3243385826771654
 20
1.606350393700788
 30
0.0
 10
-0.3212007874015748
 20
1.602685039370079
 30
0.0
 10
-0.3173385826771654
 20
1.600267716535433
 30
0.0
 10
-0.3173385826771654
 20
1.600267716535433
 30
0.0
 10
-0.313507874015748
 20
1.597850393700788
 30
0.0
 10
-0.3091456692913386
 20
1.596629921259843
 30
0.0
 10
-0.3043385826771654
 20
1.596629921259843
 30
0.0
 10
-0.3043385826771654
 20
1.596629921259843
 30
0.0
 10
-0.2968385826771653
 20
1.596629921259843
 30
0.0
 10
-0.2906181102362205
 20
1.599464566929134
 30
0.0
 10
-0.2856456692913386
 20
1.605129921259843
 30
0.0
 10
-0.2856456692913386
 20
1.605129921259843
 30
0.0
 10
-0.2807007874015748
 20
1.610795275590551
 30
0.0
 10
-0.2782007874015748
 20
1.618409448818898
 30
0.0
 10
-0.2782007874015748
 20
1.627964566929134
 30
0.0
 10
-0.2782007874015748
 20
1.627964566929134
 30
0.0
 10
-0.2782007874015748
 20
1.637074803149606
 30
0.0
 10
-0.2806181102362205
 20
1.644322834645669
 30
0.0
 10
-0.2854488188976378
 20
1.649685039370079
 30
0.0
 10
-0.2854488188976378
 20
1.649685039370079
 30
0.0
 10
-0.2902834645669292
 20
1.655074803149606
 30
0.0
 10
-0.2963661417322835
 20
1.657740157480315
 30
0.0
 10
-0.3036732283464567
 20
1.657740157480315
 30
0.0
  0
SPLINE
  5
34
330
1F
100
AcDbEntity
  8
Layer 1
 62
   250
100
AcDbSpline
210
0.0
220
0.0
230
1.0
 70
    11
 71
     3
 72
   132
 73
   128
 74
     0
 42
0.0000000001
 43
0.0000000001
 40
0.0
 40
0.0
 40
0.0
 40
0.0
 40
0.03125
 40
0.03125
 40
0.03125
 40
0.03125
 40
0.0625
 40
0.0625
 40
0.0625
 40
0.0625
 40
0.09375
 40
0.09375
 40
0.09375
 40
0.09375
 40
0.125
 40
0.125
 40
0.125
 40
0.125
 40
0.15625
 40
0.15625
 40
0.15625
 40
0.15625
 40
0.1875
 40
0.1875
 40
0.1875
 40
0.1875
 40
0.21875
 40
0.21875
 40
0.21875
 40
0.21875
 40
0.25
 40
0.25
 40
0.25
 40
0.25
 40
0.28125
 40
0.28125
 40
0.28125
 40
0.28125
 40
0.3125
 40
0.3125
 40
0.3125
 40
0.3125
 40
0.34375
 40
0.34375
 40
0.34375
 40
0.34375
 40
0.375
 40
0.375
 40
0.375
 40
0.375
 40
0.40625
 40
0.40625
 40
0.40625
 40
0.40625
 40
0.4375
 40
0.4375
 40
0.4375
 40
0.4375
 40
0.46875
 40
0.46875
 40
0.46875
 40
0.46875
 40
0.5
 40
0.5
 40
0.5
 40
0.5
 40
0.53125
 40
0.53125
 40
0.53125
 40
0.53125
 40
0.5625
 40
0.5625
 40
0.5625
 40
0.5625
 40
0.59375
 40
0.59375
 40
0.59375
 40
0.59375
 40
0.625
 40
0.625
 40
0.625
 40
0.625
 40
0.65625
 40
0.65625
 40
0.65625
 40
0.65625
 40
0.6875
 40
0.6875
 40
0.6875
 40
0.6875
 40
0.71875
 40
0.71875
 40
0.71875
 40
0.71875
 40
0.75
 40
0.75
 40
0.75
 40
0.75
 40
0.78125
 40
0.78125
 40
0.78125
 40
0.78125
 40
0.8125
 40
0.8125
 40
0.8125
 40
0.8125
 40
0.84375
 40
0.84375
 40
0.84375
 40
0.84375
 40
0.875
 40
0.875
 40
0.875
 40
0.875
 40
0.90625
 40
0.90625
 40
0.90625
 40
0.90625
 40
0.9375
 40
0.9375
 40
0.9375
 40
0.9375
 40
0.96875
 40
0.96875
 40
0.96875
 40
0.96875
 40
1.0
 40
1.0
 40
1.0
 40
1.0
 10
-0.2325314960629921
 20
1.704629921259843
 30
0.0
 10
-0.2325314960629921
 20
1.704629921259843
 30
0.0
 10
-0.1819212598425197
 20
1.704629921259843
 30
0.0
 10
-0.1819212598425197
 20
1.704629921259843
 30
0.0
 10
-0.1819212598425197
 20
1.704629921259843
 30
0.0
 10
-0.1788385826771654
 20
1.704629921259843
 30
0.0
 10
-0.1769488188976378
 20
1.704795275590551
 30
0.0
 10
-0.1763110236220473
 20
1.705129921259843
 30
0.0
 10
-0.1763110236220473
 20
1.705129921259843
 30
0.0
 10
-0.1753937007874016
 20
1.705657480314961
 30
0.0
 10
-0.1748385826771654
 20
1.706822834645669
 30
0.0
 10
-0.1746732283464567
 20
1.708602362204724
 30
0.0
 10
-0.1746732283464567
 20
1.708602362204724
 30
0.0
 10
-0.1746732283464567
 20
1.708602362204724
 30
0.0
 10
-0.1687283464566929
 20
1.708602362204724
 30
0.0
 10
-0.1687283464566929
 20
1.708602362204724
 30
0.0
 10
-0.1687283464566929
 20
1.708602362204724
 30
0.0
 10
-0.1687283464566929
 20
1.708602362204724
 30
0.0
 10
-0.1687283464566929
 20
1.691433070866142
 30
0.0
 10
-0.1687283464566929
 20
1.691433070866142
 30
0.0
 10
-0.1687283464566929
 20
1.691433070866142
 30
0.0
 10
-0.1687283464566929
 20
1.691433070866142
 30
0.0
 10
-0.2249763779527559
 20
1.691433070866142
 30
0.0
 10
-0.2249763779527559
 20
1.691433070866142
 30
0.0
 10
-0.2249763779527559
 20
1.691433070866142
 30
0.0
 10
-0.2249763779527559
 20
1.691433070866142
 30
0.0
 10
-0.2263661417322835
 20
1.662795275590551
 30
0.0
 10
-0.2263661417322835
 20
1.662795275590551
 30
0.0
 10
-0.2263661417322835
 20
1.662795275590551
 30
0.0
 10
-0.2240314960629921
 20
1.663464566929134
 30
0.0
 10
-0.2210590551181103
 20
1.663992125984252
 30
0.0
 10
-0.2174763779527559
 20
1.664437007874016
 30
0.0
 10
-0.2174763779527559
 20
1.664437007874016
 30
0.0
 10
-0.2128661417322835
 20
1.664964566929134
 30
0.0
 10
-0.208755905511811
 20
1.665240157480315
 30
0.0
 10
-0.2051141732283465
 20
1.665240157480315
 30
0.0
 10
-0.2051141732283465
 20
1.665240157480315
 30
0.0
 10
-0.1960590551181103
 20
1.665240157480315
 30
0.0
 10
-0.1881732283464567
 20
1.663602362204725
 30
0.0
 10
-0.1814212598425197
 20
1.660350393700788
 30
0.0
 10
-0.1814212598425197
 20
1.660350393700788
 30
0.0
 10
-0.1747007874015748
 20
1.657102362204725
 30
0.0
 10
-0.1695905511811024
 20
1.652629921259843
 30
0.0
 10
-0.1660905511811024
 20
1.646964566929134
 30
0.0
 10
-0.1660905511811024
 20
1.646964566929134
 30
0.0
 10
-0.1625905511811024
 20
1.641295275590551
 30
0.0
 10
-0.1608385826771654
 20
1.634964566929134
 30
0.0
 10
-0.1608385826771654
 20
1.627964566929134
 30
0.0
 10
-0.1608385826771654
 20
1.627964566929134
 30
0.0
 10
-0.1608385826771654
 20
1.617129921259843
 30
0.0
 10
-0.1649212598425197
 20
1.607937007874016
 30
0.0
 10
-0.1730590551181102
 20
1.600409448818898
 30
0.0
 10
-0.1730590551181102
 20
1.600409448818898
 30
0.0
 10
-0.1812007874015748
 20
1.592909448818898
 30
0.0
 10
-0.1915590551181103
 20
1.589157480314961
 30
0.0
 10
-0.2041456692913386
 20
1.589157480314961
 30
0.0
 10
-0.2041456692913386
 20
1.589157480314961
 30
0.0
 10
-0.2114212598425197
 20
1.589157480314961
 30
0.0
 10
-0.2179763779527559
 20
1.590464566929134
 30
0.0
 10
-0.2238661417322835
 20
1.593047244094488
 30
0.0
 10
-0.2238661417322835
 20
1.593047244094488
 30
0.0
 10
-0.229755905511811
 20
1.595657480314961
 30
0.0
 10
-0.2343661417322835
 20
1.599102362204725
 30
0.0
 10
-0.2376732283464567
 20
1.603350393700787
 30
0.0
 10
-0.2376732283464567
 20
1.603350393700787
 30
0.0
 10
-0.2409763779527559
 20
1.607602362204724
 30
0.0
 10
-0.2426417322834646
 20
1.611350393700787
 30
0.0
 10
-0.2426417322834646
 20
1.614547244094488
 30
0.0
 10
-0.2426417322834646
 20
1.614547244094488
 30
0.0
 10
-0.2426417322834646
 20
1.616657480314961
 30
0.0
 10
-0.2419212598425197
 20
1.618492125984252
 30
0.0
 10
-0.240503937007874
 20
1.620047244094488
 30
0.0
 10
-0.240503937007874
 20
1.620047244094488
 30
0.0
 10
-0.2391141732283465
 20
1.621574803149606
 30
0.0
 10
-0.2372834645669291
 20
1.622350393700788
 30
0.0
 10
-0.2350590551181102
 20
1.622350393700788
 30
0.0
 10
-0.2350590551181102
 20
1.622350393700788
 30
0.0
 10
-0.2327834645669291
 20
1.622350393700788
 30
0.0
 10
-0.2307834645669291
 20
1.621409448818898
 30
0.0
 10
-0.2290314960629921
 20
1.619492125984252
 30
0.0
 10
-0.2290314960629921
 20
1.619492125984252
 30
0.0
 10
-0.2280590551181103
 20
1.61851968503937
 30
0.0
 10
-0.2268937007874016
 20
1.616129921259843
 30
0.0
 10
-0.2255314960629921
 20
1.612350393700788
 30
0.0
 10
-0.2255314960629921
 20
1.612350393700788
 30
0.0
 10
-0.2237007874015748
 20
1.60701968503937
 30
0.0
 10
-0.2209488188976378
 20
1.603129921259843
 30
0.0
 10
-0.2173110236220472
 20
1.600629921259843
 30
0.0
 10
-0.2173110236220472
 20
1.600629921259843
 30
0.0
 10
-0.213755905511811
 20
1.598074803149606
 30
0.0
 10
-0.2092283464566929
 20
1.596795275590551
 30
0.0
 10
-0.2038110236220473
 20
1.596795275590551
 30
0.0
 10
-0.2038110236220473
 20
1.596795275590551
 30
0.0
 10
-0.1983937007874016
 20
1.596795275590551
 30
0.0
 10
-0.1935590551181103
 20
1.597992125984252
 30
0.0
 10
-0.1893385826771654
 20
1.600350393700788
 30
0.0
 10
-0.1893385826771654
 20
1.600350393700788
 30
0.0
 10
-0.1850866141732284
 20
1.602685039370079
 30
0.0
 10
-0.181755905511811
 20
1.606102362204725
 30
0.0
 10
-0.1793110236220473
 20
1.61051968503937
 30
0.0
 10
-0.1793110236220473
 20
1.61051968503937
 30
0.0
 10
-0.1768661417322835
 20
1.614937007874016
 30
0.0
 10
-0.1756456692913386
 20
1.619850393700788
 30
0.0
 10
-0.1756456692913386
 20
1.625267716535433
 30
0.0
 10
-0.1756456692913386
 20
1.625267716535433
 30
0.0
 10
-0.1756456692913386
 20
1.630992125984252
 30
0.0
 10
-0.1769763779527559
 20
1.636047244094488
 30
0.0
 10
-0.1796181102362205
 20
1.640492125984252
 30
0.0
 10
-0.1796181102362205
 20
1.640492125984252
 30
0.0
 10
-0.1822283464566929
 20
1.644937007874016
 30
0.0
 10
-0.186003937007874
 20
1.648405511811024
 30
0.0
 10
-0.1909212598425197
 20
1.650822834645669
 30
0.0
 10
-0.1909212598425197
 20
1.650822834645669
 30
0.0
 10
-0.1958385826771654
 20
1.653267716535433
 30
0.0
 10
-0.2018110236220473
 20
1.654492125984252
 30
0.0
 10
-0.2088661417322835
 20
1.654492125984252
 30
0.0
 10
-0.2088661417322835
 20
1.654492125984252
 30
0.0
 10
-0.2131456692913386
 20
1.654492125984252
 30
0.0
 10
-0.217755905511811
 20
1.654047244094488
 30
0.0
 10
-0.2226456692913386
 20
1.653102362204725
 30
0.0
 10
-0.2226456692913386
 20
1.653102362204725
 30
0.0
 10
-0.2275590551181103
 20
1.652185039370079
 30
0.0
 10
-0.2317834645669291
 20
1.65101968503937
 30
0.0
 10
-0.2353110236220473
 20
1.649602362204724
 30
0.0
 10
-0.2353110236220473
 20
1.649602362204724
 30
0.0
 10
-0.2353110236220473
 20
1.649602362204724
 30
0.0
 10
-0.2325314960629921
 20
1.704629921259843
 30
0.0
 10
-0.2325314960629921
 20
1.704629921259843
 30
0.0
  0
SPLINE
  5
35
330
1F
100
AcDbEntity
  8
Layer 1
 62
   250
100
AcDbSpline
210
0.0
220
0.0
230
1.0
 70
    11
 71
     3
 72
    80
 73
    76
 74
     0
 42
0.0000000001
 43
0.0000000001
 40
0.0
 40
0.0
 40
0.0
 40
0.0
 40
0.0526315789473684
 40
0.0526315789473684
 40
0.0526315789473684
 40
0.0526315789473684
 40
0.1052631578947368
 40
0.1052631578947368
 40
0.1052631578947368
 40
0.1052631578947368
 40
0.1578947368421053
 40
0.1578947368421053
 40
0.1578947368421053
 40
0.1578947368421053
 40
0.2105263157894737
 40
0.2105263157894737
 40
0.2105263157894737
 40
0.2105263157894737
 40
0.2631578947368421
 40
0.2631578947368421
 40
0.2631578947368421
 40
0.2631578947368421
 40
0.3157894736842105
 40
0.3157894736842105
 40
0.3157894736842105
 40
0.3157894736842105
 40
0.3684210526315789
 40
0.3684210526315789
 40
0.3684210526315789
 40
0.3684210526315789
 40
0.4210526315789474
 40
0.4210526315789474
 40
0.4210526315789474
 40
0.4210526315789474
 40
0.4736842105263158
 40
0.4736842105263158
 40
0.4736842105263158
 40
0.4736842105263158
 40
0.5263157894736842
 40
0.5263157894736842
 40
0.5263157894736842
 40
0.5263157894736842
 40
0.5789473684210527
 40
0.5789473684210527
 40
0.5789473684210527
 40
0.5789473684210527
 40
0.631578947368421
 40
0.631578947368421
 40
0.631578947368421
 40
0.631578947368421
 40
0.6842105263157894
 40
0.6842105263157894
 40
0.6842105263157894
 40
0.6842105263157894
 40
0.7368421052631577
 40
0.7368421052631577
 40
0.7368421052631577
 40
0.7368421052631577
 40
0.7894736842105261
 40
0.7894736842105261
 40
0.7894736842105261
 40
0.7894736842105261
 40
0.8421052631578945
 40
0.8421052631578945
 40
0.8421052631578945
 40
0.8421052631578945
 40
0.8947368421052628
 40
0.8947368421052628
 40
0.8947368421052628
 40
0.8947368421052628
 40
0.9473684210526312
 40
0.9473684210526312
 40
0.9473684210526312
 40
0.9473684210526312
 40
1.0
 40
1.0
 40
1.0
 40
1.0
 10
-0.133503937007874
 20
1.708767716535433
 30
0.0
 10
-0.133503937007874
 20
1.708767716535433
 30
0.0
 10
-0.1281141732283465
 20
1.708767716535433
 30
0.0
 10
-0.1281141732283465
 20
1.708767716535433
 30
0.0
 10
-0.1281141732283465
 20
1.708767716535433
 30
0.0
 10
-0.1281141732283465
 20
1.708767716535433
 30
0.0
 10
-0.1271417322834646
 20
1.704629921259843
 30
0.0
 10
-0.1271417322834646
 20
1.704629921259843
 30
0.0
 10
-0.1271417322834646
 20
1.704629921259843
 30
0.0
 10
-0.1271417322834646
 20
1.704629921259843
 30
0.0
 10
-0.0560314960629921
 20
1.704629921259843
 30
0.0
 10
-0.0560314960629921
 20
1.704629921259843
 30
0.0
 10
-0.0560314960629921
 20
1.704629921259843
 30
0.0
 10
-0.0560314960629921
 20
1.704629921259843
 30
0.0
 10
-0.0560314960629921
 20
1.697712598425197
 30
0.0
 10
-0.0560314960629921
 20
1.697712598425197
 30
0.0
 10
-0.0560314960629921
 20
1.697712598425197
 30
0.0
 10
-0.0645314960629921
 20
1.687877952755906
 30
0.0
 10
-0.072255905511811
 20
1.676712598425197
 30
0.0
 10
-0.0791692913385827
 20
1.664129921259843
 30
0.0
 10
-0.0791692913385827
 20
1.664129921259843
 30
0.0
 10
-0.0860866141732284
 20
1.651574803149606
 30
0.0
 10
-0.0914488188976378
 20
1.638795275590551
 30
0.0
 10
-0.095255905511811
 20
1.625767716535433
 30
0.0
 10
-0.095255905511811
 20
1.625767716535433
 30
0.0
 10
-0.098003937007874
 20
1.61638188976378
 30
0.0
 10
-0.100251968503937
 20
1.604822834645669
 30
0.0
 10
-0.102003937007874
 20
1.591102362204725
 30
0.0
 10
-0.102003937007874
 20
1.591102362204725
 30
0.0
 10
-0.102003937007874
 20
1.591102362204725
 30
0.0
 10
-0.1186692913385827
 20
1.591102362204725
 30
0.0
 10
-0.1186692913385827
 20
1.591102362204725
 30
0.0
 10
-0.1186692913385827
 20
1.591102362204725
 30
0.0
 10
-0.1170590551181102
 20
1.603212598425197
 30
0.0
 10
-0.1143937007874016
 20
1.61451968503937
 30
0.0
 10
-0.1106692913385827
 20
1.625047244094488
 30
0.0
 10
-0.1106692913385827
 20
1.625047244094488
 30
0.0
 10
-0.1069488188976378
 20
1.635574803149607
 30
0.0
 10
-0.1015866141732284
 20
1.646574803149606
 30
0.0
 10
-0.0945590551181102
 20
1.658047244094488
 30
0.0
 10
-0.0945590551181102
 20
1.658047244094488
 30
0.0
 10
-0.0875314960629921
 20
1.66951968503937
 30
0.0
 10
-0.079003937007874
 20
1.680964566929134
 30
0.0
 10
-0.0689488188976378
 20
1.692405511811024
 30
0.0
 10
-0.0689488188976378
 20
1.692405511811024
 30
0.0
 10
-0.0689488188976378
 20
1.692405511811024
 30
0.0
 10
-0.1196692913385827
 20
1.692405511811024
 30
0.0
 10
-0.1196692913385827
 20
1.692405511811024
 30
0.0
 10
-0.1196692913385827
 20
1.692405511811024
 30
0.0
 10
-0.1233385826771654
 20
1.692405511811024
 30
0.0
 10
-0.1258661417322835
 20
1.692240157480315
 30
0.0
 10
-0.1272244094488189
 20
1.691850393700787
 30
0.0
 10
-0.1272244094488189
 20
1.691850393700787
 30
0.0
 10
-0.1285866141732284
 20
1.691464566929134
 30
0.0
 10
-0.1296417322834646
 20
1.690877952755906
 30
0.0
 10
-0.1303937007874016
 20
1.690074803149607
 30
0.0
 10
-0.1303937007874016
 20
1.690074803149607
 30
0.0
 10
-0.1311692913385827
 20
1.689240157480315
 30
0.0
 10
-0.1318110236220473
 20
1.687795275590551
 30
0.0
 10
-0.1323661417322835
 20
1.685740157480315
 30
0.0
 10
-0.1323661417322835
 20
1.685740157480315
 30
0.0
 10
-0.1323661417322835
 20
1.685740157480315
 30
0.0
 10
-0.132751968503937
 20
1.684212598425197
 30
0.0
 10
-0.132751968503937
 20
1.684212598425197
 30
0.0
 10
-0.132751968503937
 20
1.684212598425197
 30
0.0
 10
-0.132751968503937
 20
1.684212598425197
 30
0.0
 10
-0.1355314960629921
 20
1.674602362204725
 30
0.0
 10
-0.1355314960629921
 20
1.674602362204725
 30
0.0
 10
-0.1355314960629921
 20
1.674602362204725
 30
0.0
 10
-0.1355314960629921
 20
1.674602362204725
 30
0.0
 10
-0.1424488188976378
 20
1.676074803149606
 30
0.0
 10
-0.1424488188976378
 20
1.676074803149606
 30
0.0
 10
-0.1424488188976378
 20
1.676074803149606
 30
0.0
 10
-0.1424488188976378
 20
1.676074803149606
 30
0.0
 10
-0.133503937007874
 20
1.708767716535433
 30
0.0
 10
-0.133503937007874
 20
1.708767716535433
 30
0.0
  0
SPLINE
  5
36
330
1F
100
AcDbEntity
  8
Layer 1
 62
   250
100
AcDbSpline
210
0.0
220
0.0
230
1.0
 70
    11
 71
     3
 72
   104
 73
   100
 74
     0
 42
0.0000000001
 43
0.0000000001
 40
0.0
 40
0.0
 40
0.0
 40
0.0
 40
0.04
 40
0.04
 40
0.04
 40
0.04
 40
0.08
 40
0.08
 40
0.08
 40
0.08
 40
0.12
 40
0.12
 40
0.12
 40
0.12
 40
0.16
 40
0.16
 40
0.16
 40
0.16
 40
0.2
 40
0.2
 40
0.2
 40
0.2
 40
0.24
 40
0.24
 40
0.24
 40
0.24
 40
0.28
 40
0.28
 40
0.28
 40
0.28
 40
0.32
 40
0.32
 40
0.32
 40
0.32
 40
0.36
 40
0.36
 40
0.36
 40
0.36
 40
0.4
 40
0.4
 40
0.4
 40
0.4
 40
0.44
 40
0.44
 40
0.44
 40
0.44
 40
0.4799999999999999
 40
0.4799999999999999
 40
0.4799999999999999
 40
0.4799999999999999
 40
0.5199999999999999
 40
0.5199999999999999
 40
0.5199999999999999
 40
0.5199999999999999
 40
0.5599999999999999
 40
0.5599999999999999
 40
0.5599999999999999
 40
0.5599999999999999
 40
0.6
 40
0.6
 40
0.6
 40
0.6
 40
0.64
 40
0.64
 40
0.64
 40
0.64
 40
0.6800000000000001
 40
0.6800000000000001
 40
0.6800000000000001
 40
0.6800000000000001
 40
0.7200000000000001
 40
0.7200000000000001
 40
0.7200000000000001
 40
0.7200000000000001
 40
0.7600000000000001
 40
0.7600000000000001
 40
0.7600000000000001
 40
0.7600000000000001
 40
0.8000000000000002
 40
0.8000000000000002
 40
0.8000000000000002
 40
0.8000000000000002
 40
0.8400000000000002
 40
0.8400000000000002
 40
0.8400000000000002
 40
0.8400000000000002
 40
0.8800000000000002
 40
0.8800000000000002
 40
0.8800000000000002
 40
0.8800000000000002
 40
0.9200000000000003
 40
0.9200000000000003
 40
0.9200000000000003
 40
0.9200000000000003
 40
0.9600000000000003
 40
0.9600000000000003
 40
0.9600000000000003
 40
0.9600000000000003
 40
1.0
 40
1.0
 40
1.0
 40
1.0
 10
-0.6247795275590552
 20
1.517129921259843
 30
0.0
 10
-0.6247795275590552
 20
1.517129921259843
 30
0.0
 10
-0.5708070866141732
 20
1.517129921259843
 30
0.0
 10
-0.5708070866141732
 20
1.517129921259843
 30
0.0
 10
-0.5708070866141732
 20
1.517129921259843
 30
0.0
 10
-0.5576377952755905
 20
1.517129921259843
 30
0.0
 10
-0.5486102362204725
 20
1.51651968503937
 30
0.0
 10
-0.543724409448819
 20
1.515322834645669
 30
0.0
 10
-0.543724409448819
 20
1.515322834645669
 30
0.0
 10
-0.5365
 20
1.513602362204725
 30
0.0
 10
-0.5308070866141732
 20
1.510464566929134
 30
0.0
 10
-0.5265826771653543
 20
1.505905511811024
 30
0.0
 10
-0.5265826771653543
 20
1.505905511811024
 30
0.0
 10
-0.5223897637795276
 20
1.501350393700788
 30
0.0
 10
-0.5202795275590552
 20
1.495850393700787
 30
0.0
 10
-0.5202795275590552
 20
1.489464566929134
 30
0.0
 10
-0.5202795275590552
 20
1.489464566929134
 30
0.0
 10
-0.5202795275590552
 20
1.484850393700788
 30
0.0
 10
-0.5213897637795276
 20
1.480712598425197
 30
0.0
 10
-0.5236102362204724
 20
1.477047244094488
 30
0.0
 10
-0.5236102362204724
 20
1.477047244094488
 30
0.0
 10
-0.5258346456692914
 20
1.473377952755906
 30
0.0
 10
-0.5290826771653544
 20
1.470240157480315
 30
0.0
 10
-0.5333070866141733
 20
1.467657480314961
 30
0.0
 10
-0.5333070866141733
 20
1.467657480314961
 30
0.0
 10
-0.5360275590551181
 20
1.465964566929134
 30
0.0
 10
-0.5396968503937009
 20
1.46451968503937
 30
0.0
 10
-0.5443622047244094
 20
1.463322834645669
 30
0.0
 10
-0.5443622047244094
 20
1.463322834645669
 30
0.0
 10
-0.5384448818897638
 20
1.462240157480315
 30
0.0
 10
-0.5339448818897637
 20
1.460937007874016
 30
0.0
 10
-0.5308622047244095
 20
1.459437007874016
 30
0.0
 10
-0.5308622047244095
 20
1.459437007874016
 30
0.0
 10
-0.5261968503937008
 20
1.457157480314961
 30
0.0
 10
-0.5225
 20
1.453909448818898
 30
0.0
 10
-0.5198070866141733
 20
1.449657480314961
 30
0.0
 10
-0.5198070866141733
 20
1.449657480314961
 30
0.0
 10
-0.5170826771653544
 20
1.445437007874016
 30
0.0
 10
-0.5157244094488189
 20
1.440657480314961
 30
0.0
 10
-0.5157244094488189
 20
1.435350393700787
 30
0.0
 10
-0.5157244094488189
 20
1.435350393700787
 30
0.0
 10
-0.5157244094488189
 20
1.430185039370079
 30
0.0
 10
-0.5170551181102362
 20
1.425409448818898
 30
0.0
 10
-0.5197244094488189
 20
1.42101968503937
 30
0.0
 10
-0.5197244094488189
 20
1.42101968503937
 30
0.0
 10
-0.5223622047244094
 20
1.416629921259843
 30
0.0
 10
-0.5261377952755906
 20
1.41301968503937
 30
0.0
 10
-0.5309724409448819
 20
1.410185039370079
 30
0.0
 10
-0.5309724409448819
 20
1.410185039370079
 30
0.0
 10
-0.5358346456692914
 20
1.40738188976378
 30
0.0
 10
-0.5415
 20
1.405574803149606
 30
0.0
 10
-0.5479448818897638
 20
1.404767716535433
 30
0.0
 10
-0.5479448818897638
 20
1.404767716535433
 30
0.0
 10
-0.5544173228346457
 20
1.403992125984252
 30
0.0
 10
-0.5610551181102362
 20
1.403602362204725
 30
0.0
 10
-0.5678897637795276
 20
1.403602362204725
 30
0.0
 10
-0.5678897637795276
 20
1.403602362204725
 30
0.0
 10
-0.5678897637795276
 20
1.403602362204725
 30
0.0
 10
-0.6247795275590552
 20
1.403602362204725
 30
0.0
 10
-0.6247795275590552
 20
1.403602362204725
 30
0.0
 10
-0.6247795275590552
 20
1.403602362204725
 30
0.0
 10
-0.6247795275590552
 20
1.403602362204725
 30
0.0
 10
-0.6247795275590552
 20
1.410437007874016
 30
0.0
 10
-0.6247795275590552
 20
1.410437007874016
 30
0.0
 10
-0.6247795275590552
 20
1.410437007874016
 30
0.0
 10
-0.6247795275590552
 20
1.410437007874016
 30
0.0
 10
-0.6209448818897638
 20
1.410437007874016
 30
0.0
 10
-0.6209448818897638
 20
1.410437007874016
 30
0.0
 10
-0.6209448818897638
 20
1.410437007874016
 30
0.0
 10
-0.617248031496063
 20
1.410437007874016
 30
0.0
 10
-0.6147480314960631
 20
1.41101968503937
 30
0.0
 10
-0.6133897637795276
 20
1.412157480314961
 30
0.0
 10
-0.6133897637795276
 20
1.412157480314961
 30
0.0
 10
-0.6114173228346457
 20
1.413712598425197
 30
0.0
 10
-0.6104448818897638
 20
1.416322834645669
 30
0.0
 10
-0.6104448818897638
 20
1.419964566929134
 30
0.0
 10
-0.6104448818897638
 20
1.419964566929134
 30
0.0
 10
-0.6104448818897638
 20
1.419964566929134
 30
0.0
 10
-0.6104448818897638
 20
1.498822834645669
 30
0.0
 10
-0.6104448818897638
 20
1.498822834645669
 30
0.0
 10
-0.6104448818897638
 20
1.498822834645669
 30
0.0
 10
-0.6104448818897638
 20
1.50251968503937
 30
0.0
 10
-0.6107480314960631
 20
1.50501968503937
 30
0.0
 10
-0.6113346456692914
 20
1.506377952755906
 30
0.0
 10
-0.6113346456692914
 20
1.506377952755906
 30
0.0
 10
-0.6119448818897638
 20
1.507740157480315
 30
0.0
 10
-0.6128346456692914
 20
1.508712598425197
 30
0.0
 10
-0.6140275590551182
 20
1.509322834645669
 30
0.0
 10
-0.6140275590551182
 20
1.509322834645669
 30
0.0
 10
-0.6152204724409449
 20
1.509905511811024
 30
0.0
 10
-0.6175275590551181
 20
1.510212598425197
 30
0.0
 10
-0.6209448818897638
 20
1.510212598425197
 30
0.0
 10
-0.6209448818897638
 20
1.510212598425197
 30
0.0
 10
-0.6209448818897638
 20
1.510212598425197
 30
0.0
 10
-0.6247795275590552
 20
1.510212598425197
 30
0.0
 10
-0.6247795275590552
 20
1.510212598425197
 30
0.0
 10
-0.6247795275590552
 20
1.510212598425197
 30
0.0
 10
-0.6247795275590552
 20
1.510212598425197
 30
0.0
 10
-0.6247795275590552
 20
1.517129921259843
 30
0.0
 10
-0.6247795275590552
 20
1.517129921259843
 30
0.0
  0
SPLINE
  5
37
330
1F
100
AcDbEntity
  8
Layer 1
 62
   250
100
AcDbSpline
210
0.0
220
0.0
230
1.0
 70
    11
 71
     3
 72
    40
 73
    36
 74
     0
 42
0.0000000001
 43
0.0000000001
 40
0.0
 40
0.0
 40
0.0
 40
0.0
 40
0.1111111111111111
 40
0.1111111111111111
 40
0.1111111111111111
 40
0.1111111111111111
 40
0.2222222222222222
 40
0.2222222222222222
 40
0.2222222222222222
 40
0.2222222222222222
 40
0.3333333333333333
 40
0.3333333333333333
 40
0.3333333333333333
 40
0.3333333333333333
 40
0.4444444444444444
 40
0.4444444444444444
 40
0.4444444444444444
 40
0.4444444444444444
 40
0.5555555555555556
 40
0.5555555555555556
 40
0.5555555555555556
 40
0.5555555555555556
 40
0.6666666666666667
 40
0.6666666666666667
 40
0.6666666666666667
 40
0.6666666666666667
 40
0.7777777777777779
 40
0.7777777777777779
 40
0.7777777777777779
 40
0.7777777777777779
 40
0.8888888888888891
 40
0.8888888888888891
 40
0.8888888888888891
 40
0.8888888888888891
 40
1.0
 40
1.0
 40
1.0
 40
1.0
 10
-0.5952204724409449
 20
1.508102362204725
 30
0.0
 10
-0.5952204724409449
 20
1.508102362204725
 30
0.0
 10
-0.5952204724409449
 20
1.46651968503937
 30
0.0
 10
-0.5952204724409449
 20
1.46651968503937
 30
0.0
 10
-0.5952204724409449
 20
1.46651968503937
 30
0.0
 10
-0.5952204724409449
 20
1.46651968503937
 30
0.0
 10
-0.5744724409448819
 20
1.46651968503937
 30
0.0
 10
-0.5744724409448819
 20
1.46651968503937
 30
0.0
 10
-0.5744724409448819
 20
1.46651968503937
 30
0.0
 10
-0.5647795275590551
 20
1.46651968503937
 30
0.0
 10
-0.5581102362204725
 20
1.466964566929134
 30
0.0
 10
-0.5545551181102363
 20
1.467877952755906
 30
0.0
 10
-0.5545551181102363
 20
1.467877952755906
 30
0.0
 10
-0.5489448818897638
 20
1.469350393700788
 30
0.0
 10
-0.5446968503937009
 20
1.471850393700787
 30
0.0
 10
-0.5417244094488189
 20
1.475377952755906
 30
0.0
 10
-0.5417244094488189
 20
1.475377952755906
 30
0.0
 10
-0.5387795275590551
 20
1.478905511811024
 30
0.0
 10
-0.5372795275590552
 20
1.483437007874016
 30
0.0
 10
-0.5372795275590552
 20
1.488964566929134
 30
0.0
 10
-0.5372795275590552
 20
1.488964566929134
 30
0.0
 10
-0.5372795275590552
 20
1.493629921259843
 30
0.0
 10
-0.5386377952755905
 20
1.49751968503937
 30
0.0
 10
-0.5413070866141733
 20
1.500657480314961
 30
0.0
 10
-0.5413070866141733
 20
1.500657480314961
 30
0.0
 10
-0.544
 20
1.503767716535433
 30
0.0
 10
-0.5476102362204725
 20
1.505905511811024
 30
0.0
 10
-0.5521102362204725
 20
1.507047244094488
 30
0.0
 10
-0.5521102362204725
 20
1.507047244094488
 30
0.0
 10
-0.5550275590551181
 20
1.507740157480315
 30
0.0
 10
-0.5611102362204725
 20
1.508102362204725
 30
0.0
 10
-0.5703346456692914
 20
1.508102362204725
 30
0.0
 10
-0.5703346456692914
 20
1.508102362204725
 30
0.0
 10
-0.5703346456692914
 20
1.508102362204725
 30
0.0
 10
-0.5952204724409449
 20
1.508102362204725
 30
0.0
 10
-0.5952204724409449
 20
1.508102362204725
 30
0.0
  0
SPLINE
  5
38
330
1F
100
AcDbEntity
  8
Layer 1
 62
   250
100
AcDbSpline
210
0.0
220
0.0
230
1.0
 70
    11
 71
     3
 72
    52
 73
    48
 74
     0
 42
0.0000000001
 43
0.0000000001
 40
0.0
 40
0.0
 40
0.0
 40
0.0
 40
0.0833333333333333
 40
0.0833333333333333
 40
0.0833333333333333
 40
0.0833333333333333
 40
0.1666666666666667
 40
0.1666666666666667
 40
0.1666666666666667
 40
0.1666666666666667
 40
0.25
 40
0.25
 40
0.25
 40
0.25
 40
0.3333333333333333
 40
0.3333333333333333
 40
0.3333333333333333
 40
0.3333333333333333
 40
0.4166666666666666
 40
0.4166666666666666
 40
0.4166666666666666
 40
0.4166666666666666
 40
0.4999999999999999
 40
0.4999999999999999
 40
0.4999999999999999
 40
0.4999999999999999
 40
0.5833333333333333
 40
0.5833333333333333
 40
0.5833333333333333
 40
0.5833333333333333
 40
0.6666666666666666
 40
0.6666666666666666
 40
0.6666666666666666
 40
0.6666666666666666
 40
0.75
 40
0.75
 40
0.75
 40
0.75
 40
0.8333333333333334
 40
0.8333333333333334
 40
0.8333333333333334
 40
0.8333333333333334
 40
0.9166666666666667
 40
0.9166666666666667
 40
0.9166666666666667
 40
0.9166666666666667
 40
1.0
 40
1.0
 40
1.0
 40
1.0
 10
-0.5952204724409449
 20
1.458685039370079
 30
0.0
 10
-0.5952204724409449
 20
1.458685039370079
 30
0.0
 10
-0.5952204724409449
 20
1.421437007874016
 30
0.0
 10
-0.5952204724409449
 20
1.421437007874016
 30
0.0
 10
-0.5952204724409449
 20
1.421437007874016
 30
0.0
 10
-0.5952204724409449
 20
1.417685039370079
 30
0.0
 10
-0.5950551181102363
 20
1.415464566929134
 30
0.0
 10
-0.5947519685039371
 20
1.414740157480315
 30
0.0
 10
-0.5947519685039371
 20
1.414740157480315
 30
0.0
 10
-0.5943070866141732
 20
1.413767716535433
 30
0.0
 10
-0.5934448818897639
 20
1.413102362204725
 30
0.0
 10
-0.5921377952755906
 20
1.412712598425197
 30
0.0
 10
-0.5921377952755906
 20
1.412712598425197
 30
0.0
 10
-0.5912204724409449
 20
1.412437007874016
 30
0.0
 10
-0.5886102362204725
 20
1.412295275590551
 30
0.0
 10
-0.5843346456692914
 20
1.412295275590551
 30
0.0
 10
-0.5843346456692914
 20
1.412295275590551
 30
0.0
 10
-0.5843346456692914
 20
1.412295275590551
 30
0.0
 10
-0.573251968503937
 20
1.412295275590551
 30
0.0
 10
-0.573251968503937
 20
1.412295275590551
 30
0.0
 10
-0.573251968503937
 20
1.412295275590551
 30
0.0
 10
-0.5623070866141733
 20
1.412295275590551
 30
0.0
 10
-0.5544724409448819
 20
1.412909448818898
 30
0.0
 10
-0.5497795275590551
 20
1.414129921259843
 30
0.0
 10
-0.5497795275590551
 20
1.414129921259843
 30
0.0
 10
-0.5450826771653543
 20
1.415350393700787
 30
0.0
 10
-0.5410826771653543
 20
1.417937007874016
 30
0.0
 10
-0.5377795275590551
 20
1.42188188976378
 30
0.0
 10
-0.5377795275590551
 20
1.42188188976378
 30
0.0
 10
-0.5344724409448819
 20
1.425795275590551
 30
0.0
 10
-0.5328070866141732
 20
1.430547244094488
 30
0.0
 10
-0.5328070866141732
 20
1.436074803149606
 30
0.0
 10
-0.5328070866141732
 20
1.436074803149606
 30
0.0
 10
-0.5328070866141732
 20
1.440740157480315
 30
0.0
 10
-0.5341653543307087
 20
1.444877952755906
 30
0.0
 10
-0.5368346456692914
 20
1.448492125984252
 30
0.0
 10
-0.5368346456692914
 20
1.448492125984252
 30
0.0
 10
-0.5395275590551182
 20
1.452102362204724
 30
0.0
 10
-0.543251968503937
 20
1.454685039370079
 30
0.0
 10
-0.548
 20
1.456295275590551
 30
0.0
 10
-0.548
 20
1.456295275590551
 30
0.0
 10
-0.552751968503937
 20
1.457909448818898
 30
0.0
 10
-0.5611653543307087
 20
1.458685039370079
 30
0.0
 10
-0.573251968503937
 20
1.458685039370079
 30
0.0
 10
-0.573251968503937
 20
1.458685039370079
 30
0.0
 10
-0.573251968503937
 20
1.458685039370079
 30
0.0
 10
-0.5952204724409449
 20
1.458685039370079
 30
0.0
 10
-0.5952204724409449
 20
1.458685039370079
 30
0.0
  0
SPLINE
  5
39
330
1F
100
AcDbEntity
  8
Layer 1
 62
   250
100
AcDbSpline
210
0.0
220
0.0
230
1.0
 70
    11
 71
     3
 72
    88
 73
    84
 74
     0
 42
0.0000000001
 43
0.0000000001
 40
0.0
 40
0.0
 40
0.0
 40
0.0
 40
0.0476190476190476
 40
0.0476190476190476
 40
0.0476190476190476
 40
0.0476190476190476
 40
0.0952380952380952
 40
0.0952380952380952
 40
0.0952380952380952
 40
0.0952380952380952
 40
0.1428571428571429
 40
0.1428571428571429
 40
0.1428571428571429
 40
0.1428571428571429
 40
0.1904761904761905
 40
0.1904761904761905
 40
0.1904761904761905
 40
0.1904761904761905
 40
0.2380952380952381
 40
0.2380952380952381
 40
0.2380952380952381
 40
0.2380952380952381
 40
0.2857142857142857
 40
0.2857142857142857
 40
0.2857142857142857
 40
0.2857142857142857
 40
0.3333333333333333
 40
0.3333333333333333
 40
0.3333333333333333
 40
0.3333333333333333
 40
0.3809523809523809
 40
0.3809523809523809
 40
0.3809523809523809
 40
0.3809523809523809
 40
0.4285714285714286
 40
0.4285714285714286
 40
0.4285714285714286
 40
0.4285714285714286
 40
0.4761904761904762
 40
0.4761904761904762
 40
0.4761904761904762
 40
0.4761904761904762
 40
0.5238095238095237
 40
0.5238095238095237
 40
0.5238095238095237
 40
0.5238095238095237
 40
0.5714285714285714
 40
0.5714285714285714
 40
0.5714285714285714
 40
0.5714285714285714
 40
0.6190476190476191
 40
0.6190476190476191
 40
0.6190476190476191
 40
0.6190476190476191
 40
0.6666666666666667
 40
0.6666666666666667
 40
0.6666666666666667
 40
0.6666666666666667
 40
0.7142857142857144
 40
0.7142857142857144
 40
0.7142857142857144
 40
0.7142857142857144
 40
0.7619047619047621
 40
0.7619047619047621
 40
0.7619047619047621
 40
0.7619047619047621
 40
0.8095238095238098
 40
0.8095238095238098
 40
0.8095238095238098
 40
0.8095238095238098
 40
0.8571428571428574
 40
0.8571428571428574
 40
0.8571428571428574
 40
0.8571428571428574
 40
0.9047619047619051
 40
0.9047619047619051
 40
0.9047619047619051
 40
0.9047619047619051
 40
0.9523809523809528
 40
0.9523809523809528
 40
0.9523809523809528
 40
0.9523809523809528
 40
1.0
 40
1.0
 40
1.0
 40
1.0
 10
-0.4325590551181103
 20
1.424602362204724
 30
0.0
 10
-0.4325590551181103
 20
1.424602362204724
 30
0.0
 10
-0.4273622047244094
 20
1.42038188976378
 30
0.0
 10
-0.4273622047244094
 20
1.42038188976378
 30
0.0
 10
-0.4273622047244094
 20
1.42038188976378
 30
0.0
 10
-0.4313070866141732
 20
1.415657480314961
 30
0.0
 10
-0.4351692913385827
 20
1.411909448818898
 30
0.0
 10
-0.4388622047244095
 20
1.409129921259843
 30
0.0
 10
-0.4388622047244095
 20
1.409129921259843
 30
0.0
 10
-0.4425866141732284
 20
1.40638188976378
 30
0.0
 10
-0.4461141732283465
 20
1.404437007874016
 30
0.0
 10
-0.4494173228346457
 20
1.403322834645669
 30
0.0
 10
-0.4494173228346457
 20
1.403322834645669
 30
0.0
 10
-0.4527244094488189
 20
1.402212598425197
 30
0.0
 10
-0.4566141732283465
 20
1.401657480314961
 30
0.0
 10
-0.4610590551181102
 20
1.401657480314961
 30
0.0
 10
-0.4610590551181102
 20
1.401657480314961
 30
0.0
 10
-0.4690314960629922
 20
1.401657480314961
 30
0.0
 10
-0.4758070866141733
 20
1.403267716535433
 30
0.0
 10
-0.4813897637795276
 20
1.40651968503937
 30
0.0
 10
-0.4813897637795276
 20
1.40651968503937
 30
0.0
 10
-0.4878070866141733
 20
1.410267716535433
 30
0.0
 10
-0.4926968503937008
 20
1.415157480314961
 30
0.0
 10
-0.4961141732283465
 20
1.421185039370079
 30
0.0
 10
-0.4961141732283465
 20
1.421185039370079
 30
0.0
 10
-0.4995590551181103
 20
1.427212598425197
 30
0.0
 10
-0.5012519685039371
 20
1.434295275590551
 30
0.0
 10
-0.5012519685039371
 20
1.442492125984252
 30
0.0
 10
-0.5012519685039371
 20
1.442492125984252
 30
0.0
 10
-0.5012519685039371
 20
1.451074803149606
 30
0.0
 10
-0.4995866141732284
 20
1.458409448818898
 30
0.0
 10
-0.4962795275590551
 20
1.464464566929134
 30
0.0
 10
-0.4962795275590551
 20
1.464464566929134
 30
0.0
 10
-0.4929724409448819
 20
1.470547244094488
 30
0.0
 10
-0.4883622047244094
 20
1.475350393700788
 30
0.0
 10
-0.4824173228346457
 20
1.478850393700788
 30
0.0
 10
-0.4824173228346457
 20
1.478850393700788
 30
0.0
 10
-0.4764763779527559
 20
1.482322834645669
 30
0.0
 10
-0.4695866141732284
 20
1.484074803149606
 30
0.0
 10
-0.4617795275590552
 20
1.484074803149606
 30
0.0
 10
-0.4617795275590552
 20
1.484074803149606
 30
0.0
 10
-0.4559763779527559
 20
1.484074803149606
 30
0.0
 10
-0.4509488188976378
 20
1.483185039370079
 30
0.0
 10
-0.4466417322834646
 20
1.481350393700788
 30
0.0
 10
-0.4466417322834646
 20
1.481350393700788
 30
0.0
 10
-0.4423622047244095
 20
1.479547244094488
 30
0.0
 10
-0.4387244094488189
 20
1.476795275590551
 30
0.0
 10
-0.4357519685039371
 20
1.473129921259843
 30
0.0
 10
-0.4357519685039371
 20
1.473129921259843
 30
0.0
 10
-0.4327519685039371
 20
1.469492125984252
 30
0.0
 10
-0.4305866141732284
 20
1.465295275590551
 30
0.0
 10
-0.4292244094488189
 20
1.460574803149606
 30
0.0
 10
-0.4292244094488189
 20
1.460574803149606
 30
0.0
 10
-0.428476377952756
 20
1.457795275590551
 30
0.0
 10
-0.4280314960629921
 20
1.454212598425197
 30
0.0
 10
-0.4279173228346457
 20
1.449822834645669
 30
0.0
 10
-0.4279173228346457
 20
1.449822834645669
 30
0.0
 10
-0.4279173228346457
 20
1.449822834645669
 30
0.0
 10
-0.4854724409448819
 20
1.449822834645669
 30
0.0
 10
-0.4854724409448819
 20
1.449822834645669
 30
0.0
 10
-0.4854724409448819
 20
1.449822834645669
 30
0.0
 10
-0.4856417322834646
 20
1.447157480314961
 30
0.0
 10
-0.4856968503937008
 20
1.445185039370079
 30
0.0
 10
-0.4856968503937008
 20
1.443877952755906
 30
0.0
 10
-0.4856968503937008
 20
1.443877952755906
 30
0.0
 10
-0.4856968503937008
 20
1.437047244094488
 30
0.0
 10
-0.484503937007874
 20
1.430964566929134
 30
0.0
 10
-0.4821417322834646
 20
1.425602362204725
 30
0.0
 10
-0.4821417322834646
 20
1.425602362204725
 30
0.0
 10
-0.479751968503937
 20
1.420267716535433
 30
0.0
 10
-0.4765866141732283
 20
1.416322834645669
 30
0.0
 10
-0.4726417322834646
 20
1.413822834645669
 30
0.0
 10
-0.4726417322834646
 20
1.413822834645669
 30
0.0
 10
-0.4687244094488189
 20
1.411295275590551
 30
0.0
 10
-0.464251968503937
 20
1.41001968503937
 30
0.0
 10
-0.459251968503937
 20
1.41001968503937
 30
0.0
 10
-0.459251968503937
 20
1.41001968503937
 30
0.0
 10
-0.4550314960629922
 20
1.41001968503937
 30
0.0
 10
-0.4509488188976378
 20
1.41101968503937
 30
0.0
 10
-0.4469763779527559
 20
1.412992125984252
 30
0.0
 10
-0.4469763779527559
 20
1.412992125984252
 30
0.0
 10
-0.4430039370078741
 20
1.414992125984252
 30
0.0
 10
-0.4382244094488189
 20
1.418850393700788
 30
0.0
 10
-0.4325590551181103
 20
1.424602362204724
 30
0.0
  0
SPLINE
  5
3A
330
1F
100
AcDbEntity
  8
Layer 1
 62
   250
100
AcDbSpline
210
0.0
220
0.0
230
1.0
 70
    11
 71
     3
 72
    32
 73
    28
 74
     0
 42
0.0000000001
 43
0.0000000001
 40
0.0
 40
0.0
 40
0.0
 40
0.0
 40
0.1428571428571429
 40
0.1428571428571429
 40
0.1428571428571429
 40
0.1428571428571429
 40
0.2857142857142857
 40
0.2857142857142857
 40
0.2857142857142857
 40
0.2857142857142857
 40
0.4285714285714286
 40
0.4285714285714286
 40
0.4285714285714286
 40
0.4285714285714286
 40
0.5714285714285714
 40
0.5714285714285714
 40
0.5714285714285714
 40
0.5714285714285714
 40
0.7142857142857142
 40
0.7142857142857142
 40
0.7142857142857142
 40
0.7142857142857142
 40
0.857142857142857
 40
0.857142857142857
 40
0.857142857142857
 40
0.857142857142857
 40
1.0
 40
1.0
 40
1.0
 40
1.0
 10
-0.4429763779527559
 20
1.457464566929134
 30
0.0
 10
-0.4438070866141732
 20
1.462464566929134
 30
0.0
 10
-0.4449488188976378
 20
1.466157480314961
 30
0.0
 10
-0.4464488188976378
 20
1.468547244094488
 30
0.0
 10
-0.4464488188976378
 20
1.468547244094488
 30
0.0
 10
-0.4479488188976378
 20
1.470937007874016
 30
0.0
 10
-0.4500590551181102
 20
1.472822834645669
 30
0.0
 10
-0.4527795275590552
 20
1.474240157480315
 30
0.0
 10
-0.4527795275590552
 20
1.474240157480315
 30
0.0
 10
-0.4555314960629922
 20
1.475657480314961
 30
0.0
 10
-0.4586141732283465
 20
1.476350393700787
 30
0.0
 10
-0.4620314960629922
 20
1.476350393700787
 30
0.0
 10
-0.4620314960629922
 20
1.476350393700787
 30
0.0
 10
-0.4654448818897638
 20
1.476350393700787
 30
0.0
 10
-0.4686417322834646
 20
1.475657480314961
 30
0.0
 10
-0.4716417322834646
 20
1.474240157480315
 30
0.0
 10
-0.4716417322834646
 20
1.474240157480315
 30
0.0
 10
-0.4746141732283465
 20
1.472822834645669
 30
0.0
 10
-0.4770866141732283
 20
1.470877952755906
 30
0.0
 10
-0.4790866141732283
 20
1.468377952755906
 30
0.0
 10
-0.4790866141732283
 20
1.468377952755906
 30
0.0
 10
-0.4810590551181103
 20
1.465877952755906
 30
0.0
 10
-0.4827795275590551
 20
1.462240157480315
 30
0.0
 10
-0.484251968503937
 20
1.457464566929134
 30
0.0
 10
-0.484251968503937
 20
1.457464566929134
 30
0.0
 10
-0.484251968503937
 20
1.457464566929134
 30
0.0
 10
-0.4429763779527559
 20
1.457464566929134
 30
0.0
 10
-0.4429763779527559
 20
1.457464566929134
 30
0.0
  0
SPLINE
  5
3B
330
1F
100
AcDbEntity
  8
Layer 1
 62
   250
100
AcDbSpline
210
0.0
220
0.0
230
1.0
 70
    11
 71
     3
 72
   140
 73
   136
 74
     0
 42
0.0000000001
 43
0.0000000001
 40
0.0
 40
0.0
 40
0.0
 40
0.0
 40
0.0294117647058824
 40
0.0294117647058824
 40
0.0294117647058824
 40
0.0294117647058824
 40
0.0588235294117647
 40
0.0588235294117647
 40
0.0588235294117647
 40
0.0588235294117647
 40
0.0882352941176471
 40
0.0882352941176471
 40
0.0882352941176471
 40
0.0882352941176471
 40
0.1176470588235294
 40
0.1176470588235294
 40
0.1176470588235294
 40
0.1176470588235294
 40
0.1470588235294118
 40
0.1470588235294118
 40
0.1470588235294118
 40
0.1470588235294118
 40
0.1764705882352941
 40
0.1764705882352941
 40
0.1764705882352941
 40
0.1764705882352941
 40
0.2058823529411765
 40
0.2058823529411765
 40
0.2058823529411765
 40
0.2058823529411765
 40
0.2352941176470589
 40
0.2352941176470589
 40
0.2352941176470589
 40
0.2352941176470589
 40
0.2647058823529412
 40
0.2647058823529412
 40
0.2647058823529412
 40
0.2647058823529412
 40
0.2941176470588235
 40
0.2941176470588235
 40
0.2941176470588235
 40
0.2941176470588235
 40
0.3235294117647059
 40
0.3235294117647059
 40
0.3235294117647059
 40
0.3235294117647059
 40
0.3529411764705883
 40
0.3529411764705883
 40
0.3529411764705883
 40
0.3529411764705883
 40
0.3823529411764706
 40
0.3823529411764706
 40
0.3823529411764706
 40
0.3823529411764706
 40
0.411764705882353
 40
0.411764705882353
 40
0.411764705882353
 40
0.411764705882353
 40
0.4411764705882353
 40
0.4411764705882353
 40
0.4411764705882353
 40
0.4411764705882353
 40
0.4705882352941177
 40
0.4705882352941177
 40
0.4705882352941177
 40
0.4705882352941177
 40
0.5
 40
0.5
 40
0.5
 40
0.5
 40
0.5294117647058824
 40
0.5294117647058824
 40
0.5294117647058824
 40
0.5294117647058824
 40
0.5588235294117647
 40
0.5588235294117647
 40
0.5588235294117647
 40
0.5588235294117647
 40
0.5882352941176471
 40
0.5882352941176471
 40
0.5882352941176471
 40
0.5882352941176471
 40
0.6176470588235294
 40
0.6176470588235294
 40
0.6176470588235294
 40
0.6176470588235294
 40
0.6470588235294118
 40
0.6470588235294118
 40
0.6470588235294118
 40
0.6470588235294118
 40
0.6764705882352942
 40
0.6764705882352942
 40
0.6764705882352942
 40
0.6764705882352942
 40
0.7058823529411765
 40
0.7058823529411765
 40
0.7058823529411765
 40
0.7058823529411765
 40
0.7352941176470589
 40
0.7352941176470589
 40
0.7352941176470589
 40
0.7352941176470589
 40
0.7647058823529412
 40
0.7647058823529412
 40
0.7647058823529412
 40
0.7647058823529412
 40
0.7941176470588236
 40
0.7941176470588236
 40
0.7941176470588236
 40
0.7941176470588236
 40
0.823529411764706
 40
0.823529411764706
 40
0.823529411764706
 40
0.823529411764706
 40
0.8529411764705883
 40
0.8529411764705883
 40
0.8529411764705883
 40
0.8529411764705883
 40
0.8823529411764707
 40
0.8823529411764707
 40
0.8823529411764707
 40
0.8823529411764707
 40
0.911764705882353
 40
0.911764705882353
 40
0.911764705882353
 40
0.911764705882353
 40
0.9411764705882354
 40
0.9411764705882354
 40
0.9411764705882354
 40
0.9411764705882354
 40
0.9705882352941178
 40
0.9705882352941178
 40
0.9705882352941178
 40
0.9705882352941178
 40
1.0
 40
1.0
 40
1.0
 40
1.0
 10
-0.3570590551181103
 20
1.450712598425197
 30
0.0
 10
-0.3570590551181103
 20
1.450712598425197
 30
0.0
 10
-0.3570590551181103
 20
1.459602362204725
 30
0.0
 10
-0.3570590551181103
 20
1.459602362204725
 30
0.0
 10
-0.3570590551181103
 20
1.459602362204725
 30
0.0
 10
-0.3570590551181103
 20
1.465602362204725
 30
0.0
 10
-0.3587244094488189
 20
1.469905511811024
 30
0.0
 10
-0.3620866141732284
 20
1.472492125984252
 30
0.0
 10
-0.3620866141732284
 20
1.472492125984252
 30
0.0
 10
-0.3654488188976378
 20
1.475074803149606
 30
0.0
 10
-0.3701968503937008
 20
1.476350393700787
 30
0.0
 10
-0.3763385826771654
 20
1.476350393700787
 30
0.0
 10
-0.3763385826771654
 20
1.476350393700787
 30
0.0
 10
-0.3793661417322835
 20
1.476350393700787
 30
0.0
 10
-0.3820314960629921
 20
1.475992125984252
 30
0.0
 10
-0.3843110236220473
 20
1.475267716535433
 30
0.0
 10
-0.3843110236220473
 20
1.475267716535433
 30
0.0
 10
-0.3865866141732284
 20
1.47451968503937
 30
0.0
 10
-0.3884212598425197
 20
1.47351968503937
 30
0.0
 10
-0.3898110236220473
 20
1.472240157480315
 30
0.0
 10
-0.3898110236220473
 20
1.472240157480315
 30
0.0
 10
-0.3911968503937008
 20
1.470964566929134
 30
0.0
 10
-0.3921968503937008
 20
1.46951968503937
 30
0.0
 10
-0.3928661417322835
 20
1.467877952755906
 30
0.0
 10
-0.3928661417322835
 20
1.467877952755906
 30
0.0
 10
-0.3931417322834646
 20
1.467295275590551
 30
0.0
 10
-0.3937795275590552
 20
1.464992125984252
 30
0.0
 10
-0.3948070866141732
 20
1.460964566929134
 30
0.0
 10
-0.3948070866141732
 20
1.460964566929134
 30
0.0
 10
-0.3960590551181102
 20
1.456102362204724
 30
0.0
 10
-0.3985866141732284
 20
1.453657480314961
 30
0.0
 10
-0.4023937007874016
 20
1.453657480314961
 30
0.0
 10
-0.4023937007874016
 20
1.453657480314961
 30
0.0
 10
-0.4045590551181102
 20
1.453657480314961
 30
0.0
 10
-0.4063070866141733
 20
1.454377952755906
 30
0.0
 10
-0.4076417322834646
 20
1.455795275590551
 30
0.0
 10
-0.4076417322834646
 20
1.455795275590551
 30
0.0
 10
-0.4089488188976378
 20
1.457240157480315
 30
0.0
 10
-0.4096141732283465
 20
1.459185039370079
 30
0.0
 10
-0.4096141732283465
 20
1.461629921259843
 30
0.0
 10
-0.4096141732283465
 20
1.461629921259843
 30
0.0
 10
-0.4096141732283465
 20
1.465212598425197
 30
0.0
 10
-0.4082795275590551
 20
1.468712598425197
 30
0.0
 10
-0.4056417322834646
 20
1.472157480314961
 30
0.0
 10
-0.4056417322834646
 20
1.472157480314961
 30
0.0
 10
-0.4029763779527559
 20
1.475602362204725
 30
0.0
 10
-0.3989212598425197
 20
1.478464566929134
 30
0.0
 10
-0.3934763779527559
 20
1.480712598425197
 30
0.0
 10
-0.3934763779527559
 20
1.480712598425197
 30
0.0
 10
-0.3880314960629921
 20
1.482964566929134
 30
0.0
 10
-0.3815866141732284
 20
1.484074803149606
 30
0.0
 10
-0.3741417322834646
 20
1.484074803149606
 30
0.0
 10
-0.3741417322834646
 20
1.484074803149606
 30
0.0
 10
-0.3671968503937008
 20
1.484074803149606
 30
0.0
 10
-0.361251968503937
 20
1.48301968503937
 30
0.0
 10
-0.3563110236220473
 20
1.480877952755906
 30
0.0
 10
-0.3563110236220473
 20
1.480877952755906
 30
0.0
 10
-0.3513937007874016
 20
1.478740157480315
 30
0.0
 10
-0.347751968503937
 20
1.475657480314961
 30
0.0
 10
-0.3454212598425197
 20
1.471629921259843
 30
0.0
 10
-0.3454212598425197
 20
1.471629921259843
 30
0.0
 10
-0.3437834645669292
 20
1.468877952755906
 30
0.0
 10
-0.3429763779527559
 20
1.463822834645669
 30
0.0
 10
-0.3429763779527559
 20
1.456492125984252
 30
0.0
 10
-0.3429763779527559
 20
1.456492125984252
 30
0.0
 10
-0.3429763779527559
 20
1.456492125984252
 30
0.0
 10
-0.3429763779527559
 20
1.425157480314961
 30
0.0
 10
-0.3429763779527559
 20
1.425157480314961
 30
0.0
 10
-0.3429763779527559
 20
1.425157480314961
 30
0.0
 10
-0.3429763779527559
 20
1.420712598425197
 30
0.0
 10
-0.3428385826771654
 20
1.417822834645669
 30
0.0
 10
-0.3425590551181102
 20
1.416464566929134
 30
0.0
 10
-0.3425590551181102
 20
1.416464566929134
 30
0.0
 10
-0.3419763779527559
 20
1.414129921259843
 30
0.0
 10
-0.3409212598425197
 20
1.41238188976378
 30
0.0
 10
-0.3394212598425197
 20
1.411212598425197
 30
0.0
 10
-0.3394212598425197
 20
1.411212598425197
 30
0.0
 10
-0.3379488188976378
 20
1.410047244094488
 30
0.0
 10
-0.336003937007874
 20
1.409464566929134
 30
0.0
 10
-0.3336141732283465
 20
1.409464566929134
 30
0.0
 10
-0.3336141732283465
 20
1.409464566929134
 30
0.0
 10
-0.3311141732283465
 20
1.409464566929134
 30
0.0
 10
-0.3281417322834646
 20
1.410047244094488
 30
0.0
 10
-0.3246692913385827
 20
1.411240157480315
 30
0.0
 10
-0.3246692913385827
 20
1.411240157480315
 30
0.0
 10
-0.3246692913385827
 20
1.411240157480315
 30
0.0
 10
-0.3246692913385827
 20
1.404185039370079
 30
0.0
 10
-0.3246692913385827
 20
1.404185039370079
 30
0.0
 10
-0.3246692913385827
 20
1.404185039370079
 30
0.0
 10
-0.3291692913385827
 20
1.40288188976378
 30
0.0
 10
-0.3331968503937008
 20
1.402212598425197
 30
0.0
 10
-0.3367834645669292
 20
1.402212598425197
 30
0.0
 10
-0.3367834645669292
 20
1.402212598425197
 30
0.0
 10
-0.3406417322834646
 20
1.402212598425197
 30
0.0
 10
-0.3438937007874016
 20
1.402767716535433
 30
0.0
 10
-0.346503937007874
 20
1.403850393700787
 30
0.0
 10
-0.346503937007874
 20
1.403850393700787
 30
0.0
 10
-0.3491417322834646
 20
1.404937007874016
 30
0.0
 10
-0.3513110236220473
 20
1.40651968503937
 30
0.0
 10
-0.3529763779527559
 20
1.408602362204725
 30
0.0
 10
-0.3529763779527559
 20
1.408602362204725
 30
0.0
 10
-0.3546692913385827
 20
1.410685039370079
 30
0.0
 10
-0.355751968503937
 20
1.413185039370079
 30
0.0
 10
-0.3562244094488189
 20
1.416047244094488
 30
0.0
 10
-0.3562244094488189
 20
1.416047244094488
 30
0.0
 10
-0.362751968503937
 20
1.410964566929134
 30
0.0
 10
-0.3686417322834646
 20
1.40738188976378
 30
0.0
 10
-0.3738937007874016
 20
1.405322834645669
 30
0.0
 10
-0.3738937007874016
 20
1.405322834645669
 30
0.0
 10
-0.3791692913385827
 20
1.403240157480315
 30
0.0
 10
-0.3844763779527559
 20
1.402212598425197
 30
0.0
 10
-0.3898385826771654
 20
1.402212598425197
 30
0.0
 10
-0.3898385826771654
 20
1.402212598425197
 30
0.0
 10
-0.3973385826771654
 20
1.402212598425197
 30
0.0
 10
-0.4034212598425197
 20
1.404240157480315
 30
0.0
 10
-0.4080866141732283
 20
1.408322834645669
 30
0.0
 10
-0.4080866141732283
 20
1.408322834645669
 30
0.0
 10
-0.412751968503937
 20
1.41238188976378
 30
0.0
 10
-0.4150866141732283
 20
1.417157480314961
 30
0.0
 10
-0.4150866141732283
 20
1.422657480314961
 30
0.0
 10
-0.4150866141732283
 20
1.422657480314961
 30
0.0
 10
-0.4150866141732283
 20
1.425964566929134
 30
0.0
 10
-0.4142244094488189
 20
1.429102362204725
 30
0.0
 10
-0.412503937007874
 20
1.432074803149606
 30
0.0
 10
-0.412503937007874
 20
1.432074803149606
 30
0.0
 10
-0.4108070866141733
 20
1.435074803149606
 30
0.0
 10
-0.4081968503937008
 20
1.437712598425197
 30
0.0
 10
-0.4046968503937008
 20
1.439992125984252
 30
0.0
 10
-0.4046968503937008
 20
1.439992125984252
 30
0.0
 10
-0.4011968503937008
 20
1.442267716535433
 30
0.0
 10
-0.3956968503937008
 20
1.444267716535433
 30
0.0
 10
-0.3882244094488189
 20
1.445992125984252
 30
0.0
 10
-0.3882244094488189
 20
1.445992125984252
 30
0.0
 10
-0.3807244094488189
 20
1.447740157480315
 30
0.0
 10
-0.3703385826771654
 20
1.449322834645669
 30
0.0
 10
-0.3570590551181103
 20
1.450712598425197
 30
0.0
  0
SPLINE
  5
3C
330
1F
100
AcDbEntity
  8
Layer 1
 62
   250
100
AcDbSpline
210
0.0
220
0.0
230
1.0
 70
    11
 71
     3
 72
    44
 73
    40
 74
     0
 42
0.0000000001
 43
0.0000000001
 40
0.0
 40
0.0
 40
0.0
 40
0.0
 40
0.1
 40
0.1
 40
0.1
 40
0.1
 40
0.2
 40
0.2
 40
0.2
 40
0.2
 40
0.3
 40
0.3
 40
0.3
 40
0.3
 40
0.4
 40
0.4
 40
0.4
 40
0.4
 40
0.5
 40
0.5
 40
0.5
 40
0.5
 40
0.6
 40
0.6
 40
0.6
 40
0.6
 40
0.7
 40
0.7
 40
0.7
 40
0.7
 40
0.7999999999999999
 40
0.7999999999999999
 40
0.7999999999999999
 40
0.7999999999999999
 40
0.8999999999999999
 40
0.8999999999999999
 40
0.8999999999999999
 40
0.8999999999999999
 40
1.0
 40
1.0
 40
1.0
 40
1.0
 10
-0.3570590551181103
 20
1.443629921259843
 30
0.0
 10
-0.3696417322834646
 20
1.441795275590551
 30
0.0
 10
-0.3774212598425197
 20
1.44051968503937
 30
0.0
 10
-0.3804212598425197
 20
1.439822834645669
 30
0.0
 10
-0.3804212598425197
 20
1.439822834645669
 30
0.0
 10
-0.3863110236220473
 20
1.438464566929134
 30
0.0
 10
-0.3905590551181102
 20
1.436964566929134
 30
0.0
 10
-0.3931141732283465
 20
1.435350393700787
 30
0.0
 10
-0.3931141732283465
 20
1.435350393700787
 30
0.0
 10
-0.3956417322834646
 20
1.433712598425197
 30
0.0
 10
-0.3974763779527559
 20
1.431964566929134
 30
0.0
 10
-0.3985590551181102
 20
1.430102362204724
 30
0.0
 10
-0.3985590551181102
 20
1.430102362204724
 30
0.0
 10
-0.3996417322834646
 20
1.428212598425197
 30
0.0
 10
-0.4001692913385827
 20
1.426212598425197
 30
0.0
 10
-0.4001692913385827
 20
1.424102362204724
 30
0.0
 10
-0.4001692913385827
 20
1.424102362204724
 30
0.0
 10
-0.4001692913385827
 20
1.421992125984252
 30
0.0
 10
-0.3995866141732284
 20
1.419937007874016
 30
0.0
 10
-0.3983661417322835
 20
1.417964566929134
 30
0.0
 10
-0.3983661417322835
 20
1.417964566929134
 30
0.0
 10
-0.3971417322834646
 20
1.415992125984252
 30
0.0
 10
-0.3954212598425197
 20
1.414437007874016
 30
0.0
 10
-0.3931968503937008
 20
1.413295275590551
 30
0.0
 10
-0.3931968503937008
 20
1.413295275590551
 30
0.0
 10
-0.3909488188976378
 20
1.412157480314961
 30
0.0
 10
-0.3885866141732284
 20
1.411574803149606
 30
0.0
 10
-0.3861141732283465
 20
1.411574803149606
 30
0.0
 10
-0.3861141732283465
 20
1.411574803149606
 30
0.0
 10
-0.3825866141732284
 20
1.411574803149606
 30
0.0
 10
-0.3785866141732284
 20
1.412409448818898
 30
0.0
 10
-0.3741417322834646
 20
1.414102362204724
 30
0.0
 10
-0.3741417322834646
 20
1.414102362204724
 30
0.0
 10
-0.3696968503937008
 20
1.415767716535433
 30
0.0
 10
-0.364003937007874
 20
1.419074803149606
 30
0.0
 10
-0.3570590551181103
 20
1.423937007874016
 30
0.0
 10
-0.3570590551181103
 20
1.423937007874016
 30
0.0
 10
-0.3570590551181103
 20
1.423937007874016
 30
0.0
 10
-0.3570590551181103
 20
1.443629921259843
 30
0.0
 10
-0.3570590551181103
 20
1.443629921259843
 30
0.0
  0
SPLINE
  5
3D
330
1F
100
AcDbEntity
  8
Layer 1
 62
   250
100
AcDbSpline
210
0.0
220
0.0
230
1.0
 70
    11
 71
     3
 72
    96
 73
    92
 74
     0
 42
0.0000000001
 43
0.0000000001
 40
0.0
 40
0.0
 40
0.0
 40
0.0
 40
0.0434782608695652
 40
0.0434782608695652
 40
0.0434782608695652
 40
0.0434782608695652
 40
0.0869565217391304
 40
0.0869565217391304
 40
0.0869565217391304
 40
0.0869565217391304
 40
0.1304347826086957
 40
0.1304347826086957
 40
0.1304347826086957
 40
0.1304347826086957
 40
0.1739130434782609
 40
0.1739130434782609
 40
0.1739130434782609
 40
0.1739130434782609
 40
0.2173913043478261
 40
0.2173913043478261
 40
0.2173913043478261
 40
0.2173913043478261
 40
0.2608695652173913
 40
0.2608695652173913
 40
0.2608695652173913
 40
0.2608695652173913
 40
0.3043478260869565
 40
0.3043478260869565
 40
0.3043478260869565
 40
0.3043478260869565
 40
0.3478260869565217
 40
0.3478260869565217
 40
0.3478260869565217
 40
0.3478260869565217
 40
0.3913043478260869
 40
0.3913043478260869
 40
0.3913043478260869
 40
0.3913043478260869
 40
0.4347826086956521
 40
0.4347826086956521
 40
0.4347826086956521
 40
0.4347826086956521
 40
0.4782608695652173
 40
0.4782608695652173
 40
0.4782608695652173
 40
0.4782608695652173
 40
0.5217391304347825
 40
0.5217391304347825
 40
0.5217391304347825
 40
0.5217391304347825
 40
0.5652173913043477
 40
0.5652173913043477
 40
0.5652173913043477
 40
0.5652173913043477
 40
0.6086956521739129
 40
0.6086956521739129
 40
0.6086956521739129
 40
0.6086956521739129
 40
0.6521739130434781
 40
0.6521739130434781
 40
0.6521739130434781
 40
0.6521739130434781
 40
0.6956521739130432
 40
0.6956521739130432
 40
0.6956521739130432
 40
0.6956521739130432
 40
0.7391304347826084
 40
0.7391304347826084
 40
0.7391304347826084
 40
0.7391304347826084
 40
0.7826086956521736
 40
0.7826086956521736
 40
0.7826086956521736
 40
0.7826086956521736
 40
0.8260869565217388
 40
0.8260869565217388
 40
0.8260869565217388
 40
0.8260869565217388
 40
0.869565217391304
 40
0.869565217391304
 40
0.869565217391304
 40
0.869565217391304
 40
0.9130434782608692
 40
0.9130434782608692
 40
0.9130434782608692
 40
0.9130434782608692
 40
0.9565217391304344
 40
0.9565217391304344
 40
0.9565217391304344
 40
0.9565217391304344
 40
1.0
 40
1.0
 40
1.0
 40
1.0
 10
-0.2682007874015748
 20
1.509240157480315
 30
0.0
 10
-0.2682007874015748
 20
1.509240157480315
 30
0.0
 10
-0.2682007874015748
 20
1.516157480314961
 30
0.0
 10
-0.2682007874015748
 20
1.516157480314961
 30
0.0
 10
-0.2682007874015748
 20
1.516157480314961
 30
0.0
 10
-0.264503937007874
 20
1.51646062992126
 30
0.0
 10
-0.2611456692913386
 20
1.517102362204724
 30
0.0
 10
-0.2580590551181102
 20
1.518074803149606
 30
0.0
 10
-0.2580590551181102
 20
1.518074803149606
 30
0.0
 10
-0.2550039370078741
 20
1.51901968503937
 30
0.0
 10
-0.2511732283464567
 20
1.520657480314961
 30
0.0
 10
-0.2465590551181102
 20
1.522992125984252
 30
0.0
 10
-0.2465590551181102
 20
1.522992125984252
 30
0.0
 10
-0.2465590551181102
 20
1.522992125984252
 30
0.0
 10
-0.2404488188976378
 20
1.522992125984252
 30
0.0
 10
-0.2404488188976378
 20
1.522992125984252
 30
0.0
 10
-0.2404488188976378
 20
1.522992125984252
 30
0.0
 10
-0.2404488188976378
 20
1.522992125984252
 30
0.0
 10
-0.2404488188976378
 20
1.424267716535433
 30
0.0
 10
-0.2404488188976378
 20
1.424267716535433
 30
0.0
 10
-0.2404488188976378
 20
1.424267716535433
 30
0.0
 10
-0.2404488188976378
 20
1.419712598425197
 30
0.0
 10
-0.2403385826771654
 20
1.416937007874016
 30
0.0
 10
-0.2401181102362205
 20
1.415964566929134
 30
0.0
 10
-0.2401181102362205
 20
1.415964566929134
 30
0.0
 10
-0.2395905511811024
 20
1.413909448818898
 30
0.0
 10
-0.2386732283464567
 20
1.412464566929134
 30
0.0
 10
-0.2373661417322835
 20
1.411657480314961
 30
0.0
 10
-0.2373661417322835
 20
1.411657480314961
 30
0.0
 10
-0.2360590551181102
 20
1.410850393700788
 30
0.0
 10
-0.2335314960629921
 20
1.410437007874016
 30
0.0
 10
-0.2297834645669291
 20
1.410437007874016
 30
0.0
 10
-0.2297834645669291
 20
1.410437007874016
 30
0.0
 10
-0.2297834645669291
 20
1.410437007874016
 30
0.0
 10
-0.2262834645669291
 20
1.410437007874016
 30
0.0
 10
-0.2262834645669291
 20
1.410437007874016
 30
0.0
 10
-0.2262834645669291
 20
1.410437007874016
 30
0.0
 10
-0.2262834645669291
 20
1.410437007874016
 30
0.0
 10
-0.2262834645669291
 20
1.403602362204725
 30
0.0
 10
-0.2262834645669291
 20
1.403602362204725
 30
0.0
 10
-0.2262834645669291
 20
1.403602362204725
 30
0.0
 10
-0.2262834645669291
 20
1.403602362204725
 30
0.0
 10
-0.2545314960629921
 20
1.402295275590551
 30
0.0
 10
-0.2545314960629921
 20
1.402295275590551
 30
0.0
 10
-0.2545314960629921
 20
1.402295275590551
 30
0.0
 10
-0.2545314960629921
 20
1.402295275590551
 30
0.0
 10
-0.2545314960629921
 20
1.415240157480315
 30
0.0
 10
-0.2545314960629921
 20
1.415240157480315
 30
0.0
 10
-0.2545314960629921
 20
1.415240157480315
 30
0.0
 10
-0.2599488188976378
 20
1.410295275590551
 30
0.0
 10
-0.2650314960629921
 20
1.406795275590551
 30
0.0
 10
-0.2697834645669291
 20
1.404740157480315
 30
0.0
 10
-0.2697834645669291
 20
1.404740157480315
 30
0.0
 10
-0.2745314960629922
 20
1.402685039370079
 30
0.0
 10
-0.2792834645669292
 20
1.401657480314961
 30
0.0
 10
-0.2840590551181103
 20
1.401657480314961
 30
0.0
 10
-0.2840590551181103
 20
1.401657480314961
 30
0.0
 10
-0.2938937007874016
 20
1.401657480314961
 30
0.0
 10
-0.3020314960629921
 20
1.405602362204725
 30
0.0
 10
-0.3085314960629921
 20
1.413492125984252
 30
0.0
 10
-0.3085314960629921
 20
1.413492125984252
 30
0.0
 10
-0.3150039370078741
 20
1.42138188976378
 30
0.0
 10
-0.318255905511811
 20
1.43088188976378
 30
0.0
 10
-0.318255905511811
 20
1.44201968503937
 30
0.0
 10
-0.318255905511811
 20
1.44201968503937
 30
0.0
 10
-0.318255905511811
 20
1.449937007874016
 30
0.0
 10
-0.3165314960629921
 20
1.457185039370079
 30
0.0
 10
-0.3130866141732284
 20
1.463795275590551
 30
0.0
 10
-0.3130866141732284
 20
1.463795275590551
 30
0.0
 10
-0.3096417322834646
 20
1.470377952755906
 30
0.0
 10
-0.3050866141732284
 20
1.475405511811024
 30
0.0
 10
-0.2994488188976378
 20
1.478877952755906
 30
0.0
 10
-0.2994488188976378
 20
1.478877952755906
 30
0.0
 10
-0.2938110236220473
 20
1.482350393700787
 30
0.0
 10
-0.2876141732283465
 20
1.484074803149606
 30
0.0
 10
-0.2808937007874016
 20
1.484074803149606
 30
0.0
 10
-0.2808937007874016
 20
1.484074803149606
 30
0.0
 10
-0.2757283464566929
 20
1.484074803149606
 30
0.0
 10
-0.2709763779527559
 20
1.483185039370079
 30
0.0
 10
-0.2665590551181102
 20
1.481405511811024
 30
0.0
 10
-0.2665590551181102
 20
1.481405511811024
 30
0.0
 10
-0.2621732283464567
 20
1.479602362204725
 30
0.0
 10
-0.2581732283464567
 20
1.476937007874016
 30
0.0
 10
-0.2545314960629921
 20
1.473350393700788
 30
0.0
 10
-0.2545314960629921
 20
1.473350393700788
 30
0.0
 10
-0.2545314960629921
 20
1.473350393700788
 30
0.0
 10
-0.2545314960629921
 20
1.509240157480315
 30
0.0
 10
-0.2545314960629921
 20
1.509240157480315
 30
0.0
 10
-0.2545314960629921
 20
1.509240157480315
 30
0.0
 10
-0.2545314960629921
 20
1.509240157480315
 30
0.0
 10
-0.2682007874015748
 20
1.509240157480315
 30
0.0
 10
-0.2682007874015748
 20
1.509240157480315
 30
0.0
  0
SPLINE
  5
3E
330
1F
100
AcDbEntity
  8
Layer 1
 62
   250
100
AcDbSpline
210
0.0
220
0.0
230
1.0
 70
    11
 71
     3
 72
    52
 73
    48
 74
     0
 42
0.0000000001
 43
0.0000000001
 40
0.0
 40
0.0
 40
0.0
 40
0.0
 40
0.0833333333333333
 40
0.0833333333333333
 40
0.0833333333333333
 40
0.0833333333333333
 40
0.1666666666666667
 40
0.1666666666666667
 40
0.1666666666666667
 40
0.1666666666666667
 40
0.25
 40
0.25
 40
0.25
 40
0.25
 40
0.3333333333333333
 40
0.3333333333333333
 40
0.3333333333333333
 40
0.3333333333333333
 40
0.4166666666666666
 40
0.4166666666666666
 40
0.4166666666666666
 40
0.4166666666666666
 40
0.4999999999999999
 40
0.4999999999999999
 40
0.4999999999999999
 40
0.4999999999999999
 40
0.5833333333333333
 40
0.5833333333333333
 40
0.5833333333333333
 40
0.5833333333333333
 40
0.6666666666666666
 40
0.6666666666666666
 40
0.6666666666666666
 40
0.6666666666666666
 40
0.75
 40
0.75
 40
0.75
 40
0.75
 40
0.8333333333333334
 40
0.8333333333333334
 40
0.8333333333333334
 40
0.8333333333333334
 40
0.9166666666666667
 40
0.9166666666666667
 40
0.9166666666666667
 40
0.9166666666666667
 40
1.0
 40
1.0
 40
1.0
 40
1.0
 10
-0.2545314960629921
 20
1.423295275590551
 30
0.0
 10
-0.2545314960629921
 20
1.423295275590551
 30
0.0
 10
-0.2545314960629921
 20
1.454047244094488
 30
0.0
 10
-0.2545314960629921
 20
1.454047244094488
 30
0.0
 10
-0.2545314960629921
 20
1.454047244094488
 30
0.0
 10
-0.2545314960629921
 20
1.458464566929134
 30
0.0
 10
-0.2553661417322835
 20
1.462047244094488
 30
0.0
 10
-0.2570039370078741
 20
1.464850393700788
 30
0.0
 10
-0.2570039370078741
 20
1.464850393700788
 30
0.0
 10
-0.2586732283464567
 20
1.467629921259843
 30
0.0
 10
-0.2613661417322835
 20
1.470074803149606
 30
0.0
 10
-0.2651456692913386
 20
1.472129921259843
 30
0.0
 10
-0.2651456692913386
 20
1.472129921259843
 30
0.0
 10
-0.2689212598425197
 20
1.474185039370079
 30
0.0
 10
-0.2727834645669292
 20
1.475212598425197
 30
0.0
 10
-0.276755905511811
 20
1.475212598425197
 30
0.0
 10
-0.276755905511811
 20
1.475212598425197
 30
0.0
 10
-0.2814763779527559
 20
1.475212598425197
 30
0.0
 10
-0.2858110236220472
 20
1.473937007874016
 30
0.0
 10
-0.2898110236220473
 20
1.471350393700788
 30
0.0
 10
-0.2898110236220473
 20
1.471350393700788
 30
0.0
 10
-0.2937834645669292
 20
1.468767716535433
 30
0.0
 10
-0.2969212598425197
 20
1.465047244094488
 30
0.0
 10
-0.2991732283464567
 20
1.460212598425197
 30
0.0
 10
-0.2991732283464567
 20
1.460212598425197
 30
0.0
 10
-0.3014212598425197
 20
1.455350393700787
 30
0.0
 10
-0.3025314960629921
 20
1.449464566929134
 30
0.0
 10
-0.3025314960629921
 20
1.442574803149606
 30
0.0
 10
-0.3025314960629921
 20
1.442574803149606
 30
0.0
 10
-0.3025314960629921
 20
1.436074803149606
 30
0.0
 10
-0.301503937007874
 20
1.430437007874016
 30
0.0
 10
-0.2994212598425197
 20
1.425685039370079
 30
0.0
 10
-0.2994212598425197
 20
1.425685039370079
 30
0.0
 10
-0.2973110236220473
 20
1.420964566929134
 30
0.0
 10
-0.294503937007874
 20
1.417350393700787
 30
0.0
 10
-0.2909763779527559
 20
1.41488188976378
 30
0.0
 10
-0.2909763779527559
 20
1.41488188976378
 30
0.0
 10
-0.2874488188976378
 20
1.412409448818898
 30
0.0
 10
-0.2838385826771654
 20
1.411157480314961
 30
0.0
 10
-0.2801732283464567
 20
1.411157480314961
 30
0.0
 10
-0.2801732283464567
 20
1.411157480314961
 30
0.0
 10
-0.2765314960629922
 20
1.411157480314961
 30
0.0
 10
-0.2723937007874016
 20
1.412212598425197
 30
0.0
 10
-0.2677834645669291
 20
1.414295275590551
 30
0.0
 10
-0.2677834645669291
 20
1.414295275590551
 30
0.0
 10
-0.2631732283464567
 20
1.41638188976378
 30
0.0
 10
-0.2587559055118111
 20
1.41938188976378
 30
0.0
 10
-0.2545314960629921
 20
1.423295275590551
 30
0.0
  0
SPLINE
  5
3F
330
1F
100
AcDbEntity
  8
Layer 1
 62
   250
370
     5
100
AcDbSpline
210
0.0
220
0.0
230
1.0
 70
    11
 71
     3
 72
    40
 73
    36
 74
     0
 42
0.0000000001
 43
0.0000000001
 40
0.0
 40
0.0
 40
0.0
 40
0.0
 40
0.1111111111111111
 40
0.1111111111111111
 40
0.1111111111111111
 40
0.1111111111111111
 40
0.2222222222222222
 40
0.2222222222222222
 40
0.2222222222222222
 40
0.2222222222222222
 40
0.3333333333333333
 40
0.3333333333333333
 40
0.3333333333333333
 40
0.3333333333333333
 40
0.4444444444444444
 40
0.4444444444444444
 40
0.4444444444444444
 40
0.4444444444444444
 40
0.5555555555555556
 40
0.5555555555555556
 40
0.5555555555555556
 40
0.5555555555555556
 40
0.6666666666666667
 40
0.6666666666666667
 40
0.6666666666666667
 40
0.6666666666666667
 40
0.7777777777777779
 40
0.7777777777777779
 40
0.7777777777777779
 40
0.7777777777777779
 40
0.8888888888888891
 40
0.8888888888888891
 40
0.8888888888888891
 40
0.8888888888888891
 40
1.0
 40
1.0
 40
1.0
 40
1.0
 10
0.2208622047244095
 20
2.205759842519685
 30
0.0
 10
0.2208622047244095
 20
2.205759842519685
 30
0.0
 10
-0.3097125984251969
 20
2.205759842519685
 30
0.0
 10
-0.3097125984251969
 20
2.205759842519685
 30
0.0
 10
-0.3097125984251969
 20
2.205759842519685
 30
0.0
 10
-0.3097125984251969
 20
2.26840157480315
 30
0.0
 10
-0.360507874015748
 20
2.319196850393701
 30
0.0
 10
-0.4231496062992126
 20
2.319196850393701
 30
0.0
 10
-0.4231496062992126
 20
2.319196850393701
 30
0.0
 10
-0.4857952755905512
 20
2.319196850393701
 30
0.0
 10
-0.5365905511811024
 20
2.26840157480315
 30
0.0
 10
-0.5365905511811024
 20
2.205759842519685
 30
0.0
 10
-0.5365905511811024
 20
2.205759842519685
 30
0.0
 10
-0.5365905511811024
 20
2.205759842519685
 30
0.0
 10
-0.6225669291338583
 20
2.205759842519685
 30
0.0
 10
-0.6225669291338583
 20
2.205759842519685
 30
0.0
 10
-0.6225669291338583
 20
2.205759842519685
 30
0.0
 10
-0.6225669291338583
 20
2.205759842519685
 30
0.0
 10
-0.6465708661417323
 20
2.523350393700787
 30
0.0
 10
-0.6465708661417323
 20
2.523350393700787
 30
0.0
 10
-0.6465708661417323
 20
2.523350393700787
 30
0.0
 10
-0.6465708661417323
 20
2.523350393700787
 30
0.0
 10
-1.146566929133858
 20
2.523350393700787
 30
0.0
 10
-1.146566929133858
 20
2.523350393700787
 30
0.0
 10
-1.146566929133858
 20
2.523350393700787
 30
0.0
 10
-1.146566929133858
 20
2.523350393700787
 30
0.0
 10
-1.146566929133858
 20
1.773350393700788
 30
0.0
 10
-1.146566929133858
 20
1.773350393700788
 30
0.0
 10
-1.146566929133858
 20
1.773350393700788
 30
0.0
 10
-1.146566929133858
 20
1.773350393700788
 30
0.0
 10
0.2208622047244095
 20
1.773350393700788
 30
0.0
 10
0.2208622047244095
 20
1.773350393700788
 30
0.0
 10
0.2208622047244095
 20
1.773350393700788
 30
0.0
 10
0.2208622047244095
 20
1.773350393700788
 30
0.0
 10
0.2208622047244095
 20
2.205759842519685
 30
0.0
 10
0.2208622047244095
 20
2.205759842519685
 30
0.0
  0
SPLINE
  5
40
330
1F
100
AcDbEntity
  8
Layer 1
 62
   250
100
AcDbSpline
210
0.0
220
0.0
230
1.0
 70
    11
 71
     3
 72
   104
 73
   100
 74
     0
 42
0.0000000001
 43
0.0000000001
 40
0.0
 40
0.0
 40
0.0
 40
0.0
 40
0.04
 40
0.04
 40
0.04
 40
0.04
 40
0.08
 40
0.08
 40
0.08
 40
0.08
 40
0.12
 40
0.12
 40
0.12
 40
0.12
 40
0.16
 40
0.16
 40
0.16
 40
0.16
 40
0.2
 40
0.2
 40
0.2
 40
0.2
 40
0.24
 40
0.24
 40
0.24
 40
0.24
 40
0.28
 40
0.28
 40
0.28
 40
0.28
 40
0.32
 40
0.32
 40
0.32
 40
0.32
 40
0.36
 40
0.36
 40
0.36
 40
0.36
 40
0.4
 40
0.4
 40
0.4
 40
0.4
 40
0.44
 40
0.44
 40
0.44
 40
0.44
 40
0.4799999999999999
 40
0.4799999999999999
 40
0.4799999999999999
 40
0.4799999999999999
 40
0.5199999999999999
 40
0.5199999999999999
 40
0.5199999999999999
 40
0.5199999999999999
 40
0.5599999999999999
 40
0.5599999999999999
 40
0.5599999999999999
 40
0.5599999999999999
 40
0.6
 40
0.6
 40
0.6
 40
0.6
 40
0.64
 40
0.64
 40
0.64
 40
0.64
 40
0.6800000000000001
 40
0.6800000000000001
 40
0.6800000000000001
 40
0.6800000000000001
 40
0.7200000000000001
 40
0.7200000000000001
 40
0.7200000000000001
 40
0.7200000000000001
 40
0.7600000000000001
 40
0.7600000000000001
 40
0.7600000000000001
 40
0.7600000000000001
 40
0.8000000000000002
 40
0.8000000000000002
 40
0.8000000000000002
 40
0.8000000000000002
 40
0.8400000000000002
 40
0.8400000000000002
 40
0.8400000000000002
 40
0.8400000000000002
 40
0.8800000000000002
 40
0.8800000000000002
 40
0.8800000000000002
 40
0.8800000000000002
 40
0.9200000000000003
 40
0.9200000000000003
 40
0.9200000000000003
 40
0.9200000000000003
 40
0.9600000000000003
 40
0.9600000000000003
 40
0.9600000000000003
 40
0.9600000000000003
 40
1.0
 40
1.0
 40
1.0
 40
1.0
 10
-0.5478110236220473
 20
-0.3008976377952756
 30
0.0
 10
-0.5478110236220473
 20
-0.3008976377952756
 30
0.0
 10
-0.4938385826771654
 20
-0.3008976377952756
 30
0.0
 10
-0.4938385826771654
 20
-0.3008976377952756
 30
0.0
 10
-0.4938385826771654
 20
-0.3008976377952756
 30
0.0
 10
-0.4806692913385827
 20
-0.3008976377952756
 30
0.0
 10
-0.4716417322834646
 20
-0.301507874015748
 30
0.0
 10
-0.4667559055118111
 20
-0.3027047244094488
 30
0.0
 10
-0.4667559055118111
 20
-0.3027047244094488
 30
0.0
 10
-0.4595314960629922
 20
-0.3044251968503937
 30
0.0
 10
-0.4538385826771654
 20
-0.3075629921259843
 30
0.0
 10
-0.4496141732283465
 20
-0.3121220472440945
 30
0.0
 10
-0.4496141732283465
 20
-0.3121220472440945
 30
0.0
 10
-0.4454212598425197
 20
-0.3166771653543307
 30
0.0
 10
-0.4433110236220473
 20
-0.3221771653543307
 30
0.0
 10
-0.4433110236220473
 20
-0.3285629921259843
 30
0.0
 10
-0.4433110236220473
 20
-0.3285629921259843
 30
0.0
 10
-0.4433110236220473
 20
-0.3331771653543307
 30
0.0
 10
-0.4444212598425197
 20
-0.3373149606299213
 30
0.0
 10
-0.4466417322834646
 20
-0.3409803149606299
 30
0.0
 10
-0.4466417322834646
 20
-0.3409803149606299
 30
0.0
 10
-0.4488661417322835
 20
-0.3446496062992126
 30
0.0
 10
-0.4521141732283465
 20
-0.3477874015748032
 30
0.0
 10
-0.4563385826771654
 20
-0.3503700787401575
 30
0.0
 10
-0.4563385826771654
 20
-0.3503700787401575
 30
0.0
 10
-0.4590590551181102
 20
-0.3520629921259842
 30
0.0
 10
-0.4627283464566929
 20
-0.3535078740157481
 30
0.0
 10
-0.4673937007874016
 20
-0.3547047244094488
 30
0.0
 10
-0.4673937007874016
 20
-0.3547047244094488
 30
0.0
 10
-0.4614763779527559
 20
-0.3557874015748032
 30
0.0
 10
-0.4569763779527559
 20
-0.3570905511811024
 30
0.0
 10
-0.4538937007874016
 20
-0.3585905511811024
 30
0.0
 10
-0.4538937007874016
 20
-0.3585905511811024
 30
0.0
 10
-0.4492283464566929
 20
-0.3608700787401575
 30
0.0
 10
-0.4455314960629921
 20
-0.3641181102362205
 30
0.0
 10
-0.4428385826771654
 20
-0.3683700787401575
 30
0.0
 10
-0.4428385826771654
 20
-0.3683700787401575
 30
0.0
 10
-0.4401141732283465
 20
-0.3725905511811024
 30
0.0
 10
-0.438755905511811
 20
-0.3773700787401575
 30
0.0
 10
-0.438755905511811
 20
-0.3826771653543307
 30
0.0
 10
-0.438755905511811
 20
-0.3826771653543307
 30
0.0
 10
-0.438755905511811
 20
-0.3878425196850394
 30
0.0
 10
-0.4400866141732284
 20
-0.3926181102362205
 30
0.0
 10
-0.442755905511811
 20
-0.3970078740157481
 30
0.0
 10
-0.442755905511811
 20
-0.3970078740157481
 30
0.0
 10
-0.4453937007874016
 20
-0.4013976377952756
 30
0.0
 10
-0.4491692913385827
 20
-0.4050078740157481
 30
0.0
 10
-0.4540039370078741
 20
-0.4078425196850394
 30
0.0
 10
-0.4540039370078741
 20
-0.4078425196850394
 30
0.0
 10
-0.4588661417322835
 20
-0.4106456692913386
 30
0.0
 10
-0.4645314960629922
 20
-0.4124527559055118
 30
0.0
 10
-0.4709763779527559
 20
-0.4132598425196851
 30
0.0
 10
-0.4709763779527559
 20
-0.4132598425196851
 30
0.0
 10
-0.4774488188976378
 20
-0.4140354330708662
 30
0.0
 10
-0.4840866141732284
 20
-0.4144251968503937
 30
0.0
 10
-0.4909212598425197
 20
-0.4144251968503937
 30
0.0
 10
-0.4909212598425197
 20
-0.4144251968503937
 30
0.0
 10
-0.4909212598425197
 20
-0.4144251968503937
 30
0.0
 10
-0.5478110236220473
 20
-0.4144251968503937
 30
0.0
 10
-0.5478110236220473
 20
-0.4144251968503937
 30
0.0
 10
-0.5478110236220473
 20
-0.4144251968503937
 30
0.0
 10
-0.5478110236220473
 20
-0.4144251968503937
 30
0.0
 10
-0.5478110236220473
 20
-0.4075905511811024
 30
0.0
 10
-0.5478110236220473
 20
-0.4075905511811024
 30
0.0
 10
-0.5478110236220473
 20
-0.4075905511811024
 30
0.0
 10
-0.5478110236220473
 20
-0.4075905511811024
 30
0.0
 10
-0.5439763779527559
 20
-0.4075905511811024
 30
0.0
 10
-0.5439763779527559
 20
-0.4075905511811024
 30
0.0
 10
-0.5439763779527559
 20
-0.4075905511811024
 30
0.0
 10
-0.5402795275590552
 20
-0.4075905511811024
 30
0.0
 10
-0.5377795275590551
 20
-0.4070078740157481
 30
0.0
 10
-0.5364212598425198
 20
-0.4058700787401575
 30
0.0
 10
-0.5364212598425198
 20
-0.4058700787401575
 30
0.0
 10
-0.5344488188976379
 20
-0.4043149606299213
 30
0.0
 10
-0.5334763779527559
 20
-0.4017047244094488
 30
0.0
 10
-0.5334763779527559
 20
-0.3980629921259843
 30
0.0
 10
-0.5334763779527559
 20
-0.3980629921259843
 30
0.0
 10
-0.5334763779527559
 20
-0.3980629921259843
 30
0.0
 10
-0.5334763779527559
 20
-0.3192047244094488
 30
0.0
 10
-0.5334763779527559
 20
-0.3192047244094488
 30
0.0
 10
-0.5334763779527559
 20
-0.3192047244094488
 30
0.0
 10
-0.5334763779527559
 20
-0.315507874015748
 30
0.0
 10
-0.5337795275590551
 20
-0.313007874015748
 30
0.0
 10
-0.5343661417322835
 20
-0.3116496062992126
 30
0.0
 10
-0.5343661417322835
 20
-0.3116496062992126
 30
0.0
 10
-0.5349763779527559
 20
-0.3102874015748032
 30
0.0
 10
-0.5358661417322835
 20
-0.3093149606299213
 30
0.0
 10
-0.5370590551181103
 20
-0.3087047244094489
 30
0.0
 10
-0.5370590551181103
 20
-0.3087047244094489
 30
0.0
 10
-0.538251968503937
 20
-0.3081220472440945
 30
0.0
 10
-0.5405590551181103
 20
-0.3078149606299213
 30
0.0
 10
-0.5439763779527559
 20
-0.3078149606299213
 30
0.0
 10
-0.5439763779527559
 20
-0.3078149606299213
 30
0.0
 10
-0.5439763779527559
 20
-0.3078149606299213
 30
0.0
 10
-0.5478110236220473
 20
-0.3078149606299213
 30
0.0
 10
-0.5478110236220473
 20
-0.3078149606299213
 30
0.0
 10
-0.5478110236220473
 20
-0.3078149606299213
 30
0.0
 10
-0.5478110236220473
 20
-0.3078149606299213
 30
0.0
 10
-0.5478110236220473
 20
-0.3008976377952756
 30
0.0
 10
-0.5478110236220473
 20
-0.3008976377952756
 30
0.0
  0
SPLINE
  5
41
330
1F
100
AcDbEntity
  8
Layer 1
 62
   250
100
AcDbSpline
210
0.0
220
0.0
230
1.0
 70
    11
 71
     3
 72
    40
 73
    36
 74
     0
 42
0.0000000001
 43
0.0000000001
 40
0.0
 40
0.0
 40
0.0
 40
0.0
 40
0.1111111111111111
 40
0.1111111111111111
 40
0.1111111111111111
 40
0.1111111111111111
 40
0.2222222222222222
 40
0.2222222222222222
 40
0.2222222222222222
 40
0.2222222222222222
 40
0.3333333333333333
 40
0.3333333333333333
 40
0.3333333333333333
 40
0.3333333333333333
 40
0.4444444444444444
 40
0.4444444444444444
 40
0.4444444444444444
 40
0.4444444444444444
 40
0.5555555555555556
 40
0.5555555555555556
 40
0.5555555555555556
 40
0.5555555555555556
 40
0.6666666666666667
 40
0.6666666666666667
 40
0.6666666666666667
 40
0.6666666666666667
 40
0.7777777777777779
 40
0.7777777777777779
 40
0.7777777777777779
 40
0.7777777777777779
 40
0.8888888888888891
 40
0.8888888888888891
 40
0.8888888888888891
 40
0.8888888888888891
 40
1.0
 40
1.0
 40
1.0
 40
1.0
 10
-0.5182519685039371
 20
-0.3099251968503937
 30
0.0
 10
-0.5182519685039371
 20
-0.3099251968503937
 30
0.0
 10
-0.5182519685039371
 20
-0.3515078740157481
 30
0.0
 10
-0.5182519685039371
 20
-0.3515078740157481
 30
0.0
 10
-0.5182519685039371
 20
-0.3515078740157481
 30
0.0
 10
-0.5182519685039371
 20
-0.3515078740157481
 30
0.0
 10
-0.497503937007874
 20
-0.3515078740157481
 30
0.0
 10
-0.497503937007874
 20
-0.3515078740157481
 30
0.0
 10
-0.497503937007874
 20
-0.3515078740157481
 30
0.0
 10
-0.4878110236220473
 20
-0.3515078740157481
 30
0.0
 10
-0.4811417322834646
 20
-0.3510629921259842
 30
0.0
 10
-0.4775866141732283
 20
-0.3501496062992126
 30
0.0
 10
-0.4775866141732283
 20
-0.3501496062992126
 30
0.0
 10
-0.4719763779527559
 20
-0.3486771653543307
 30
0.0
 10
-0.4677283464566929
 20
-0.3461771653543307
 30
0.0
 10
-0.4647559055118111
 20
-0.3426496062992126
 30
0.0
 10
-0.4647559055118111
 20
-0.3426496062992126
 30
0.0
 10
-0.4618110236220472
 20
-0.3391220472440945
 30
0.0
 10
-0.4603110236220473
 20
-0.3345905511811024
 30
0.0
 10
-0.4603110236220473
 20
-0.3290629921259843
 30
0.0
 10
-0.4603110236220473
 20
-0.3290629921259843
 30
0.0
 10
-0.4603110236220473
 20
-0.3243976377952756
 30
0.0
 10
-0.4616692913385827
 20
-0.320507874015748
 30
0.0
 10
-0.4643385826771654
 20
-0.3173700787401575
 30
0.0
 10
-0.4643385826771654
 20
-0.3173700787401575
 30
0.0
 10
-0.4670314960629922
 20
-0.314259842519685
 30
0.0
 10
-0.4706417322834646
 20
-0.3121220472440945
 30
0.0
 10
-0.4751417322834646
 20
-0.3109803149606299
 30
0.0
 10
-0.4751417322834646
 20
-0.3109803149606299
 30
0.0
 10
-0.4780590551181103
 20
-0.3102874015748032
 30
0.0
 10
-0.4841417322834646
 20
-0.3099251968503937
 30
0.0
 10
-0.4933661417322835
 20
-0.3099251968503937
 30
0.0
 10
-0.4933661417322835
 20
-0.3099251968503937
 30
0.0
 10
-0.4933661417322835
 20
-0.3099251968503937
 30
0.0
 10
-0.5182519685039371
 20
-0.3099251968503937
 30
0.0
 10
-0.5182519685039371
 20
-0.3099251968503937
 30
0.0
  0
SPLINE
  5
42
330
1F
100
AcDbEntity
  8
Layer 1
 62
   250
100
AcDbSpline
210
0.0
220
0.0
230
1.0
 70
    11
 71
     3
 72
    52
 73
    48
 74
     0
 42
0.0000000001
 43
0.0000000001
 40
0.0
 40
0.0
 40
0.0
 40
0.0
 40
0.0833333333333333
 40
0.0833333333333333
 40
0.0833333333333333
 40
0.0833333333333333
 40
0.1666666666666667
 40
0.1666666666666667
 40
0.1666666666666667
 40
0.1666666666666667
 40
0.25
 40
0.25
 40
0.25
 40
0.25
 40
0.3333333333333333
 40
0.3333333333333333
 40
0.3333333333333333
 40
0.3333333333333333
 40
0.4166666666666666
 40
0.4166666666666666
 40
0.4166666666666666
 40
0.4166666666666666
 40
0.4999999999999999
 40
0.4999999999999999
 40
0.4999999999999999
 40
0.4999999999999999
 40
0.5833333333333333
 40
0.5833333333333333
 40
0.5833333333333333
 40
0.5833333333333333
 40
0.6666666666666666
 40
0.6666666666666666
 40
0.6666666666666666
 40
0.6666666666666666
 40
0.75
 40
0.75
 40
0.75
 40
0.75
 40
0.8333333333333334
 40
0.8333333333333334
 40
0.8333333333333334
 40
0.8333333333333334
 40
0.9166666666666667
 40
0.9166666666666667
 40
0.9166666666666667
 40
0.9166666666666667
 40
1.0
 40
1.0
 40
1.0
 40
1.0
 10
-0.5182519685039371
 20
-0.3593425196850394
 30
0.0
 10
-0.5182519685039371
 20
-0.3593425196850394
 30
0.0
 10
-0.5182519685039371
 20
-0.3965905511811024
 30
0.0
 10
-0.5182519685039371
 20
-0.3965905511811024
 30
0.0
 10
-0.5182519685039371
 20
-0.3965905511811024
 30
0.0
 10
-0.5182519685039371
 20
-0.4003425196850394
 30
0.0
 10
-0.5180866141732283
 20
-0.4025629921259843
 30
0.0
 10
-0.5177834645669291
 20
-0.4032874015748031
 30
0.0
 10
-0.5177834645669291
 20
-0.4032874015748031
 30
0.0
 10
-0.5173385826771654
 20
-0.4042598425196851
 30
0.0
 10
-0.5164763779527559
 20
-0.4049251968503937
 30
0.0
 10
-0.5151692913385827
 20
-0.4053149606299213
 30
0.0
 10
-0.5151692913385827
 20
-0.4053149606299213
 30
0.0
 10
-0.5142519685039371
 20
-0.4055905511811024
 30
0.0
 10
-0.5116417322834646
 20
-0.405732283464567
 30
0.0
 10
-0.5073661417322835
 20
-0.405732283464567
 30
0.0
 10
-0.5073661417322835
 20
-0.405732283464567
 30
0.0
 10
-0.5073661417322835
 20
-0.405732283464567
 30
0.0
 10
-0.4962834645669292
 20
-0.405732283464567
 30
0.0
 10
-0.4962834645669292
 20
-0.405732283464567
 30
0.0
 10
-0.4962834645669292
 20
-0.405732283464567
 30
0.0
 10
-0.4853385826771654
 20
-0.405732283464567
 30
0.0
 10
-0.477503937007874
 20
-0.4051181102362205
 30
0.0
 10
-0.4728110236220472
 20
-0.4038976377952756
 30
0.0
 10
-0.4728110236220472
 20
-0.4038976377952756
 30
0.0
 10
-0.4681141732283465
 20
-0.4026771653543307
 30
0.0
 10
-0.4641141732283465
 20
-0.4000905511811024
 30
0.0
 10
-0.4608110236220473
 20
-0.3961456692913386
 30
0.0
 10
-0.4608110236220473
 20
-0.3961456692913386
 30
0.0
 10
-0.457503937007874
 20
-0.392232283464567
 30
0.0
 10
-0.4558385826771654
 20
-0.38748031496063
 30
0.0
 10
-0.4558385826771654
 20
-0.3819527559055118
 30
0.0
 10
-0.4558385826771654
 20
-0.3819527559055118
 30
0.0
 10
-0.4558385826771654
 20
-0.3772874015748032
 30
0.0
 10
-0.4571968503937008
 20
-0.3731496062992126
 30
0.0
 10
-0.4598661417322835
 20
-0.3695354330708662
 30
0.0
 10
-0.4598661417322835
 20
-0.3695354330708662
 30
0.0
 10
-0.4625590551181102
 20
-0.3659251968503937
 30
0.0
 10
-0.4662834645669292
 20
-0.3633425196850394
 30
0.0
 10
-0.4710314960629922
 20
-0.3617322834645669
 30
0.0
 10
-0.4710314960629922
 20
-0.3617322834645669
 30
0.0
 10
-0.4757834645669292
 20
-0.3601181102362205
 30
0.0
 10
-0.4841968503937008
 20
-0.3593425196850394
 30
0.0
 10
-0.4962834645669292
 20
-0.3593425196850394
 30
0.0
 10
-0.4962834645669292
 20
-0.3593425196850394
 30
0.0
 10
-0.4962834645669292
 20
-0.3593425196850394
 30
0.0
 10
-0.5182519685039371
 20
-0.3593425196850394
 30
0.0
 10
-0.5182519685039371
 20
-0.3593425196850394
 30
0.0
  0
SPLINE
  5
43
330
1F
100
AcDbEntity
  8
Layer 1
 62
   250
100
AcDbSpline
210
0.0
220
0.0
230
1.0
 70
    11
 71
     3
 72
   112
 73
   108
 74
     0
 42
0.0000000001
 43
0.0000000001
 40
0.0
 40
0.0
 40
0.0
 40
0.0
 40
0.037037037037037
 40
0.037037037037037
 40
0.037037037037037
 40
0.037037037037037
 40
0.0740740740740741
 40
0.0740740740740741
 40
0.0740740740740741
 40
0.0740740740740741
 40
0.1111111111111111
 40
0.1111111111111111
 40
0.1111111111111111
 40
0.1111111111111111
 40
0.1481481481481481
 40
0.1481481481481481
 40
0.1481481481481481
 40
0.1481481481481481
 40
0.1851851851851852
 40
0.1851851851851852
 40
0.1851851851851852
 40
0.1851851851851852
 40
0.2222222222222222
 40
0.2222222222222222
 40
0.2222222222222222
 40
0.2222222222222222
 40
0.2592592592592592
 40
0.2592592592592592
 40
0.2592592592592592
 40
0.2592592592592592
 40
0.2962962962962963
 40
0.2962962962962963
 40
0.2962962962962963
 40
0.2962962962962963
 40
0.3333333333333333
 40
0.3333333333333333
 40
0.3333333333333333
 40
0.3333333333333333
 40
0.3703703703703704
 40
0.3703703703703704
 40
0.3703703703703704
 40
0.3703703703703704
 40
0.4074074074074074
 40
0.4074074074074074
 40
0.4074074074074074
 40
0.4074074074074074
 40
0.4444444444444444
 40
0.4444444444444444
 40
0.4444444444444444
 40
0.4444444444444444
 40
0.4814814814814815
 40
0.4814814814814815
 40
0.4814814814814815
 40
0.4814814814814815
 40
0.5185185185185185
 40
0.5185185185185185
 40
0.5185185185185185
 40
0.5185185185185185
 40
0.5555555555555556
 40
0.5555555555555556
 40
0.5555555555555556
 40
0.5555555555555556
 40
0.5925925925925926
 40
0.5925925925925926
 40
0.5925925925925926
 40
0.5925925925925926
 40
0.6296296296296295
 40
0.6296296296296295
 40
0.6296296296296295
 40
0.6296296296296295
 40
0.6666666666666665
 40
0.6666666666666665
 40
0.6666666666666665
 40
0.6666666666666665
 40
0.7037037037037035
 40
0.7037037037037035
 40
0.7037037037037035
 40
0.7037037037037035
 40
0.7407407407407405
 40
0.7407407407407405
 40
0.7407407407407405
 40
0.7407407407407405
 40
0.7777777777777775
 40
0.7777777777777775
 40
0.7777777777777775
 40
0.7777777777777775
 40
0.8148148148148144
 40
0.8148148148148144
 40
0.8148148148148144
 40
0.8148148148148144
 40
0.8518518518518514
 40
0.8518518518518514
 40
0.8518518518518514
 40
0.8518518518518514
 40
0.8888888888888884
 40
0.8888888888888884
 40
0.8888888888888884
 40
0.8888888888888884
 40
0.9259259259259254
 40
0.9259259259259254
 40
0.9259259259259254
 40
0.9259259259259254
 40
0.9629629629629624
 40
0.9629629629629624
 40
0.9629629629629624
 40
0.9629629629629624
 40
1.0
 40
1.0
 40
1.0
 40
1.0
 10
-0.3811456692913386
 20
-0.3008976377952756
 30
0.0
 10
-0.3811456692913386
 20
-0.3008976377952756
 30
0.0
 10
-0.3677283464566929
 20
-0.3008976377952756
 30
0.0
 10
-0.3677283464566929
 20
-0.3008976377952756
 30
0.0
 10
-0.3677283464566929
 20
-0.3008976377952756
 30
0.0
 10
-0.3677283464566929
 20
-0.3008976377952756
 30
0.0
 10
-0.3324803149606299
 20
-0.3957874015748032
 30
0.0
 10
-0.3324803149606299
 20
-0.3957874015748032
 30
0.0
 10
-0.3324803149606299
 20
-0.3957874015748032
 30
0.0
 10
-0.3307559055118111
 20
-0.4005629921259843
 30
0.0
 10
-0.3290078740157481
 20
-0.403732283464567
 30
0.0
 10
-0.3272283464566929
 20
-0.4052598425196851
 30
0.0
 10
-0.3272283464566929
 20
-0.4052598425196851
 30
0.0
 10
-0.32548031496063
 20
-0.4068149606299213
 30
0.0
 10
-0.3230905511811024
 20
-0.4075905511811024
 30
0.0
 10
-0.3201181102362205
 20
-0.4075905511811024
 30
0.0
 10
-0.3201181102362205
 20
-0.4075905511811024
 30
0.0
 10
-0.3201181102362205
 20
-0.4075905511811024
 30
0.0
 10
-0.3183385826771654
 20
-0.4075905511811024
 30
0.0
 10
-0.3183385826771654
 20
-0.4075905511811024
 30
0.0
 10
-0.3183385826771654
 20
-0.4075905511811024
 30
0.0
 10
-0.3183385826771654
 20
-0.4075905511811024
 30
0.0
 10
-0.3183385826771654
 20
-0.4144251968503937
 30
0.0
 10
-0.3183385826771654
 20
-0.4144251968503937
 30
0.0
 10
-0.3183385826771654
 20
-0.4144251968503937
 30
0.0
 10
-0.3183385826771654
 20
-0.4144251968503937
 30
0.0
 10
-0.3587834645669292
 20
-0.4144251968503937
 30
0.0
 10
-0.3587834645669292
 20
-0.4144251968503937
 30
0.0
 10
-0.3587834645669292
 20
-0.4144251968503937
 30
0.0
 10
-0.3587834645669292
 20
-0.4144251968503937
 30
0.0
 10
-0.3587834645669292
 20
-0.4075905511811024
 30
0.0
 10
-0.3587834645669292
 20
-0.4075905511811024
 30
0.0
 10
-0.3587834645669292
 20
-0.4075905511811024
 30
0.0
 10
-0.3574803149606299
 20
-0.4074803149606299
 30
0.0
 10
-0.3562007874015748
 20
-0.4074251968503937
 30
0.0
 10
-0.3549488188976378
 20
-0.4074251968503937
 30
0.0
 10
-0.3549488188976378
 20
-0.4074251968503937
 30
0.0
 10
-0.3523385826771654
 20
-0.4074251968503937
 30
0.0
 10
-0.3506456692913386
 20
-0.4071456692913386
 30
0.0
 10
-0.3498110236220473
 20
-0.4066181102362205
 30
0.0
 10
-0.3498110236220473
 20
-0.4066181102362205
 30
0.0
 10
-0.348255905511811
 20
-0.4055905511811024
 30
0.0
 10
-0.3474527559055118
 20
-0.4042874015748031
 30
0.0
 10
-0.3474527559055118
 20
-0.4027047244094488
 30
0.0
 10
-0.3474527559055118
 20
-0.4027047244094488
 30
0.0
 10
-0.3474527559055118
 20
-0.4015629921259843
 30
0.0
 10
-0.3482283464566929
 20
-0.3987874015748032
 30
0.0
 10
-0.3497283464566929
 20
-0.3943149606299213
 30
0.0
 10
-0.3497283464566929
 20
-0.3943149606299213
 30
0.0
 10
-0.3497283464566929
 20
-0.3943149606299213
 30
0.0
 10
-0.3572283464566929
 20
-0.3723425196850394
 30
0.0
 10
-0.3572283464566929
 20
-0.3723425196850394
 30
0.0
 10
-0.3572283464566929
 20
-0.3723425196850394
 30
0.0
 10
-0.3572283464566929
 20
-0.3723425196850394
 30
0.0
 10
-0.3983937007874016
 20
-0.3723425196850394
 30
0.0
 10
-0.3983937007874016
 20
-0.3723425196850394
 30
0.0
 10
-0.3983937007874016
 20
-0.3723425196850394
 30
0.0
 10
-0.3983937007874016
 20
-0.3723425196850394
 30
0.0
 10
-0.4072007874015748
 20
-0.3969251968503937
 30
0.0
 10
-0.4072007874015748
 20
-0.3969251968503937
 30
0.0
 10
-0.4072007874015748
 20
-0.3969251968503937
 30
0.0
 10
-0.4081181102362205
 20
-0.3994803149606299
 30
0.0
 10
-0.4085905511811024
 20
-0.401232283464567
 30
0.0
 10
-0.4085905511811024
 20
-0.402232283464567
 30
0.0
 10
-0.4085905511811024
 20
-0.402232283464567
 30
0.0
 10
-0.4085905511811024
 20
-0.4033149606299213
 30
0.0
 10
-0.4082834645669292
 20
-0.4042598425196851
 30
0.0
 10
-0.4077283464566929
 20
-0.4050629921259843
 30
0.0
 10
-0.4077283464566929
 20
-0.4050629921259843
 30
0.0
 10
-0.4071456692913386
 20
-0.4058700787401575
 30
0.0
 10
-0.4063937007874016
 20
-0.4064803149606299
 30
0.0
 10
-0.4053937007874016
 20
-0.4068976377952756
 30
0.0
 10
-0.4053937007874016
 20
-0.4068976377952756
 30
0.0
 10
-0.4044212598425197
 20
-0.4073149606299213
 30
0.0
 10
-0.4028661417322835
 20
-0.4075078740157481
 30
0.0
 10
-0.4006732283464567
 20
-0.4075078740157481
 30
0.0
 10
-0.4006732283464567
 20
-0.4075078740157481
 30
0.0
 10
-0.3992283464566929
 20
-0.4075078740157481
 30
0.0
 10
-0.3980354330708661
 20
-0.4075354330708662
 30
0.0
 10
-0.3971181102362205
 20
-0.4075905511811024
 30
0.0
 10
-0.3971181102362205
 20
-0.4075905511811024
 30
0.0
 10
-0.3971181102362205
 20
-0.4075905511811024
 30
0.0
 10
-0.3971181102362205
 20
-0.4144251968503937
 30
0.0
 10
-0.3971181102362205
 20
-0.4144251968503937
 30
0.0
 10
-0.3971181102362205
 20
-0.4144251968503937
 30
0.0
 10
-0.3971181102362205
 20
-0.4144251968503937
 30
0.0
 10
-0.4310354330708662
 20
-0.4144251968503937
 30
0.0
 10
-0.4310354330708662
 20
-0.4144251968503937
 30
0.0
 10
-0.4310354330708662
 20
-0.4144251968503937
 30
0.0
 10
-0.4310354330708662
 20
-0.4144251968503937
 30
0.0
 10
-0.4310354330708662
 20
-0.4075905511811024
 30
0.0
 10
-0.4310354330708662
 20
-0.4075905511811024
 30
0.0
 10
-0.4310354330708662
 20
-0.4075905511811024
 30
0.0
 10
-0.4278937007874016
 20
-0.4075905511811024
 30
0.0
 10
-0.4256181102362205
 20
-0.4072874015748031
 30
0.0
 10
-0.424255905511811
 20
-0.4066456692913386
 30
0.0
 10
-0.424255905511811
 20
-0.4066456692913386
 30
0.0
 10
-0.4228661417322835
 20
-0.4060354330708662
 30
0.0
 10
-0.4216456692913386
 20
-0.4050354330708662
 30
0.0
 10
-0.4206181102362205
 20
-0.4036456692913386
 30
0.0
 10
-0.4206181102362205
 20
-0.4036456692913386
 30
0.0
 10
-0.4195905511811024
 20
-0.4022598425196851
 30
0.0
 10
-0.4182283464566929
 20
-0.3993425196850394
 30
0.0
 10
-0.4165629921259842
 20
-0.3948976377952756
 30
0.0
 10
-0.4165629921259842
 20
-0.3948976377952756
 30
0.0
 10
-0.4165629921259842
 20
-0.3948976377952756
 30
0.0
 10
-0.3811456692913386
 20
-0.3008976377952756
 30
0.0
 10
-0.3811456692913386
 20
-0.3008976377952756
 30
0.0
  0
SPLINE
  5
44
330
1F
100
AcDbEntity
  8
Layer 1
 62
   250
100
AcDbSpline
210
0.0
220
0.0
230
1.0
 70
    11
 71
     3
 72
    16
 73
    12
 74
     0
 42
0.0000000001
 43
0.0000000001
 40
0.0
 40
0.0
 40
0.0
 40
0.0
 40
0.3333333333333333
 40
0.3333333333333333
 40
0.3333333333333333
 40
0.3333333333333333
 40
0.6666666666666666
 40
0.6666666666666666
 40
0.6666666666666666
 40
0.6666666666666666
 40
1.0
 40
1.0
 40
1.0
 40
1.0
 10
-0.3953937007874016
 20
-0.3643700787401575
 30
0.0
 10
-0.3953937007874016
 20
-0.3643700787401575
 30
0.0
 10
-0.3603110236220473
 20
-0.3643700787401575
 30
0.0
 10
-0.3603110236220473
 20
-0.3643700787401575
 30
0.0
 10
-0.3603110236220473
 20
-0.3643700787401575
 30
0.0
 10
-0.3603110236220473
 20
-0.3643700787401575
 30
0.0
 10
-0.3778937007874016
 20
-0.3155354330708662
 30
0.0
 10
-0.3778937007874016
 20
-0.3155354330708662
 30
0.0
 10
-0.3778937007874016
 20
-0.3155354330708662
 30
0.0
 10
-0.3778937007874016
 20
-0.3155354330708662
 30
0.0
 10
-0.3953937007874016
 20
-0.3643700787401575
 30
0.0
 10
-0.3953937007874016
 20
-0.3643700787401575
 30
0.0
  0
SPLINE
  5
45
330
1F
100
AcDbEntity
  8
Layer 1
 62
   250
100
AcDbSpline
210
0.0
220
0.0
230
1.0
 70
    11
 71
     3
 72
    72
 73
    68
 74
     0
 42
0.0000000001
 43
0.0000000001
 40
0.0
 40
0.0
 40
0.0
 40
0.0
 40
0.0588235294117647
 40
0.0588235294117647
 40
0.0588235294117647
 40
0.0588235294117647
 40
0.1176470588235294
 40
0.1176470588235294
 40
0.1176470588235294
 40
0.1176470588235294
 40
0.1764705882352941
 40
0.1764705882352941
 40
0.1764705882352941
 40
0.1764705882352941
 40
0.2352941176470588
 40
0.2352941176470588
 40
0.2352941176470588
 40
0.2352941176470588
 40
0.2941176470588235
 40
0.2941176470588235
 40
0.2941176470588235
 40
0.2941176470588235
 40
0.3529411764705883
 40
0.3529411764705883
 40
0.3529411764705883
 40
0.3529411764705883
 40
0.411764705882353
 40
0.411764705882353
 40
0.411764705882353
 40
0.411764705882353
 40
0.4705882352941177
 40
0.4705882352941177
 40
0.4705882352941177
 40
0.4705882352941177
 40
0.5294117647058824
 40
0.5294117647058824
 40
0.5294117647058824
 40
0.5294117647058824
 40
0.5882352941176471
 40
0.5882352941176471
 40
0.5882352941176471
 40
0.5882352941176471
 40
0.6470588235294118
 40
0.6470588235294118
 40
0.6470588235294118
 40
0.6470588235294118
 40
0.7058823529411765
 40
0.7058823529411765
 40
0.7058823529411765
 40
0.7058823529411765
 40
0.7647058823529412
 40
0.7647058823529412
 40
0.7647058823529412
 40
0.7647058823529412
 40
0.823529411764706
 40
0.823529411764706
 40
0.823529411764706
 40
0.823529411764706
 40
0.8823529411764707
 40
0.8823529411764707
 40
0.8823529411764707
 40
0.8823529411764707
 40
0.9411764705882354
 40
0.9411764705882354
 40
0.9411764705882354
 40
0.9411764705882354
 40
1.0
 40
1.0
 40
1.0
 40
1.0
 10
-0.1553110236220472
 20
-0.3008976377952756
 30
0.0
 10
-0.1553110236220472
 20
-0.3008976377952756
 30
0.0
 10
-0.1492283464566929
 20
-0.3008976377952756
 30
0.0
 10
-0.1492283464566929
 20
-0.3008976377952756
 30
0.0
 10
-0.1492283464566929
 20
-0.3008976377952756
 30
0.0
 10
-0.1492283464566929
 20
-0.3008976377952756
 30
0.0
 10
-0.1492283464566929
 20
-0.3951456692913386
 30
0.0
 10
-0.1492283464566929
 20
-0.3951456692913386
 30
0.0
 10
-0.1492283464566929
 20
-0.3951456692913386
 30
0.0
 10
-0.1492283464566929
 20
-0.3995905511811024
 30
0.0
 10
-0.1489212598425197
 20
-0.4024527559055118
 30
0.0
 10
-0.1483661417322835
 20
-0.403732283464567
 30
0.0
 10
-0.1483661417322835
 20
-0.403732283464567
 30
0.0
 10
-0.1477834645669292
 20
-0.4050078740157481
 30
0.0
 10
-0.1468661417322835
 20
-0.4059527559055118
 30
0.0
 10
-0.1455629921259843
 20
-0.4066181102362205
 30
0.0
 10
-0.1455629921259843
 20
-0.4066181102362205
 30
0.0
 10
-0.144255905511811
 20
-0.4072598425196851
 30
0.0
 10
-0.1416732283464567
 20
-0.4075905511811024
 30
0.0
 10
-0.1378110236220473
 20
-0.4075905511811024
 30
0.0
 10
-0.1378110236220473
 20
-0.4075905511811024
 30
0.0
 10
-0.1378110236220473
 20
-0.4075905511811024
 30
0.0
 10
-0.1298385826771654
 20
-0.4075905511811024
 30
0.0
 10
-0.1298385826771654
 20
-0.4075905511811024
 30
0.0
 10
-0.1298385826771654
 20
-0.4075905511811024
 30
0.0
 10
-0.1298385826771654
 20
-0.4075905511811024
 30
0.0
 10
-0.1298385826771654
 20
-0.4144251968503937
 30
0.0
 10
-0.1298385826771654
 20
-0.4144251968503937
 30
0.0
 10
-0.1298385826771654
 20
-0.4144251968503937
 30
0.0
 10
-0.1298385826771654
 20
-0.4144251968503937
 30
0.0
 10
-0.1834763779527559
 20
-0.4144251968503937
 30
0.0
 10
-0.1834763779527559
 20
-0.4144251968503937
 30
0.0
 10
-0.1834763779527559
 20
-0.4144251968503937
 30
0.0
 10
-0.1834763779527559
 20
-0.4144251968503937
 30
0.0
 10
-0.1834763779527559
 20
-0.4075905511811024
 30
0.0
 10
-0.1834763779527559
 20
-0.4075905511811024
 30
0.0
 10
-0.1834763779527559
 20
-0.4075905511811024
 30
0.0
 10
-0.1834763779527559
 20
-0.4075905511811024
 30
0.0
 10
-0.1746181102362205
 20
-0.4075905511811024
 30
0.0
 10
-0.1746181102362205
 20
-0.4075905511811024
 30
0.0
 10
-0.1746181102362205
 20
-0.4075905511811024
 30
0.0
 10
-0.170755905511811
 20
-0.4075905511811024
 30
0.0
 10
-0.1682007874015748
 20
-0.4072598425196851
 30
0.0
 10
-0.1669212598425197
 20
-0.4065629921259843
 30
0.0
 10
-0.1669212598425197
 20
-0.4065629921259843
 30
0.0
 10
-0.1656456692913386
 20
-0.4058976377952756
 30
0.0
 10
-0.1646456692913386
 20
-0.4048149606299213
 30
0.0
 10
-0.1639488188976378
 20
-0.4033149606299213
 30
0.0
 10
-0.1639488188976378
 20
-0.4033149606299213
 30
0.0
 10
-0.163255905511811
 20
-0.4018149606299213
 30
0.0
 10
-0.1628937007874016
 20
-0.3990905511811024
 30
0.0
 10
-0.1628937007874016
 20
-0.3951456692913386
 30
0.0
 10
-0.1628937007874016
 20
-0.3951456692913386
 30
0.0
 10
-0.1628937007874016
 20
-0.3951456692913386
 30
0.0
 10
-0.1628937007874016
 20
-0.3176771653543307
 30
0.0
 10
-0.1628937007874016
 20
-0.3176771653543307
 30
0.0
 10
-0.1628937007874016
 20
-0.3176771653543307
 30
0.0
 10
-0.1628937007874016
 20
-0.3176771653543307
 30
0.0
 10
-0.1834763779527559
 20
-0.3176771653543307
 30
0.0
 10
-0.1834763779527559
 20
-0.3176771653543307
 30
0.0
 10
-0.1834763779527559
 20
-0.3176771653543307
 30
0.0
 10
-0.1834763779527559
 20
-0.3176771653543307
 30
0.0
 10
-0.1834763779527559
 20
-0.3106771653543307
 30
0.0
 10
-0.1834763779527559
 20
-0.3106771653543307
 30
0.0
 10
-0.1834763779527559
 20
-0.3106771653543307
 30
0.0
 10
-0.172255905511811
 20
-0.3090944881889764
 30
0.0
 10
-0.1628661417322835
 20
-0.3058425196850394
 30
0.0
 10
-0.1553110236220472
 20
-0.3008976377952756
 30
0.0
  0
SPLINE
  5
46
330
1F
100
AcDbEntity
  8
Layer 1
 62
   250
100
AcDbSpline
210
0.0
220
0.0
230
1.0
 70
    11
 71
     3
 72
    84
 73
    80
 74
     0
 42
0.0000000001
 43
0.0000000001
 40
0.0
 40
0.0
 40
0.0
 40
0.0
 40
0.05
 40
0.05
 40
0.05
 40
0.05
 40
0.1
 40
0.1
 40
0.1
 40
0.1
 40
0.15
 40
0.15
 40
0.15
 40
0.15
 40
0.2
 40
0.2
 40
0.2
 40
0.2
 40
0.25
 40
0.25
 40
0.25
 40
0.25
 40
0.3
 40
0.3
 40
0.3
 40
0.3
 40
0.35
 40
0.35
 40
0.35
 40
0.35
 40
0.4
 40
0.4
 40
0.4
 40
0.4
 40
0.45
 40
0.45
 40
0.45
 40
0.45
 40
0.4999999999999999
 40
0.4999999999999999
 40
0.4999999999999999
 40
0.4999999999999999
 40
0.5499999999999999
 40
0.5499999999999999
 40
0.5499999999999999
 40
0.5499999999999999
 40
0.6
 40
0.6
 40
0.6
 40
0.6
 40
0.65
 40
0.65
 40
0.65
 40
0.65
 40
0.7000000000000001
 40
0.7000000000000001
 40
0.7000000000000001
 40
0.7000000000000001
 40
0.7500000000000001
 40
0.7500000000000001
 40
0.7500000000000001
 40
0.7500000000000001
 40
0.8000000000000002
 40
0.8000000000000002
 40
0.8000000000000002
 40
0.8000000000000002
 40
0.8500000000000002
 40
0.8500000000000002
 40
0.8500000000000002
 40
0.8500000000000002
 40
0.9000000000000002
 40
0.9000000000000002
 40
0.9000000000000002
 40
0.9000000000000002
 40
0.9500000000000003
 40
0.9500000000000003
 40
0.9500000000000003
 40
0.9500000000000003
 40
1.0
 40
1.0
 40
1.0
 40
1.0
 10
-0.0236456692913386
 20
-0.2987874015748032
 30
0.0
 10
-0.0236456692913386
 20
-0.2987874015748032
 30
0.0
 10
-0.0236456692913386
 20
-0.3062047244094489
 30
0.0
 10
-0.0236456692913386
 20
-0.3062047244094489
 30
0.0
 10
-0.0236456692913386
 20
-0.3062047244094489
 30
0.0
 10
-0.0370314960629921
 20
-0.3063425196850394
 30
0.0
 10
-0.0478661417322835
 20
-0.3083149606299213
 30
0.0
 10
-0.0561417322834646
 20
-0.3120354330708662
 30
0.0
 10
-0.0561417322834646
 20
-0.3120354330708662
 30
0.0
 10
-0.0644212598425197
 20
-0.3157874015748032
 30
0.0
 10
-0.070503937007874
 20
-0.3213976377952756
 30
0.0
 10
-0.0744212598425197
 20
-0.3288425196850394
 30
0.0
 10
-0.0744212598425197
 20
-0.3288425196850394
 30
0.0
 10
-0.0783385826771654
 20
-0.3363149606299213
 30
0.0
 10
-0.0805314960629921
 20
-0.3455078740157481
 30
0.0
 10
-0.081003937007874
 20
-0.3563976377952756
 30
0.0
 10
-0.081003937007874
 20
-0.3563976377952756
 30
0.0
 10
-0.078255905511811
 20
-0.3521771653543308
 30
0.0
 10
-0.0754212598425197
 20
-0.3488700787401575
 30
0.0
 10
-0.072503937007874
 20
-0.3465078740157481
 30
0.0
 10
-0.072503937007874
 20
-0.3465078740157481
 30
0.0
 10
-0.0696141732283465
 20
-0.3441496062992126
 30
0.0
 10
-0.0662283464566929
 20
-0.3423425196850394
 30
0.0
 10
-0.0623385826771654
 20
-0.3410629921259843
 30
0.0
 10
-0.0623385826771654
 20
-0.3410629921259843
 30
0.0
 10
-0.0584488188976378
 20
-0.3397874015748031
 30
0.0
 10
-0.0542007874015748
 20
-0.3391496062992126
 30
0.0
 10
-0.0495866141732283
 20
-0.3391496062992126
 30
0.0
 10
-0.0495866141732283
 20
-0.3391496062992126
 30
0.0
 10
-0.0422283464566929
 20
-0.3391496062992126
 30
0.0
 10
-0.0356456692913386
 20
-0.3407874015748031
 30
0.0
 10
-0.0298937007874016
 20
-0.3440354330708662
 30
0.0
 10
-0.0298937007874016
 20
-0.3440354330708662
 30
0.0
 10
-0.0241456692913386
 20
-0.3472874015748032
 30
0.0
 10
-0.0196732283464567
 20
-0.3517047244094488
 30
0.0
 10
-0.0164763779527559
 20
-0.3572598425196851
 30
0.0
 10
-0.0164763779527559
 20
-0.3572598425196851
 30
0.0
 10
-0.0132834645669291
 20
-0.3628149606299213
 30
0.0
 10
-0.0116732283464567
 20
-0.3693700787401575
 30
0.0
 10
-0.0116732283464567
 20
-0.3768976377952756
 30
0.0
 10
-0.0116732283464567
 20
-0.3768976377952756
 30
0.0
 10
-0.0116732283464567
 20
-0.3888976377952756
 30
0.0
 10
-0.0152834645669291
 20
-0.3983149606299213
 30
0.0
 10
-0.022503937007874
 20
-0.4051456692913386
 30
0.0
 10
-0.022503937007874
 20
-0.4051456692913386
 30
0.0
 10
-0.0304763779527559
 20
-0.4126456692913386
 30
0.0
 10
-0.0408110236220472
 20
-0.4163700787401575
 30
0.0
 10
-0.053503937007874
 20
-0.4163700787401575
 30
0.0
 10
-0.053503937007874
 20
-0.4163700787401575
 30
0.0
 10
-0.0626732283464567
 20
-0.4163700787401575
 30
0.0
 10
-0.0703937007874016
 20
-0.4144803149606299
 30
0.0
 10
-0.0767007874015748
 20
-0.4106771653543307
 30
0.0
 10
-0.0767007874015748
 20
-0.4106771653543307
 30
0.0
 10
-0.083003937007874
 20
-0.4068976377952756
 30
0.0
 10
-0.088003937007874
 20
-0.4010905511811024
 30
0.0
 10
-0.0917283464566929
 20
-0.393259842519685
 30
0.0
 10
-0.0917283464566929
 20
-0.393259842519685
 30
0.0
 10
-0.0954212598425197
 20
-0.3854527559055118
 30
0.0
 10
-0.0972834645669291
 20
-0.3757874015748032
 30
0.0
 10
-0.0972834645669291
 20
-0.3642874015748032
 30
0.0
 10
-0.0972834645669291
 20
-0.3642874015748032
 30
0.0
 10
-0.0972834645669291
 20
-0.3527322834645669
 30
0.0
 10
-0.0953110236220472
 20
-0.3424803149606299
 30
0.0
 10
-0.0913937007874016
 20
-0.3335354330708661
 30
0.0
 10
-0.0913937007874016
 20
-0.3335354330708661
 30
0.0
 10
-0.0874488188976378
 20
-0.3245944881889764
 30
0.0
 10
-0.082003937007874
 20
-0.3173976377952756
 30
0.0
 10
-0.0750590551181102
 20
-0.31198031496063
 30
0.0
 10
-0.0750590551181102
 20
-0.31198031496063
 30
0.0
 10
-0.0681141732283465
 20
-0.3065354330708662
 30
0.0
 10
-0.060503937007874
 20
-0.3029803149606299
 30
0.0
 10
-0.052255905511811
 20
-0.3013149606299213
 30
0.0
 10
-0.052255905511811
 20
-0.3013149606299213
 30
0.0
 10
-0.0439763779527559
 20
-0.2996220472440945
 30
0.0
 10
-0.0365590551181102
 20
-0.2987874015748032
 30
0.0
 10
-0.0299763779527559
 20
-0.2987874015748032
 30
0.0
 10
-0.0299763779527559
 20
-0.2987874015748032
 30
0.0
 10
-0.0299763779527559
 20
-0.2987874015748032
 30
0.0
 10
-0.0236456692913386
 20
-0.2987874015748032
 30
0.0
 10
-0.0236456692913386
 20
-0.2987874015748032
 30
0.0
  0
SPLINE
  5
47
330
1F
100
AcDbEntity
  8
Layer 1
 62
   250
100
AcDbSpline
210
0.0
220
0.0
230
1.0
 70
    11
 71
     3
 72
    40
 73
    36
 74
     0
 42
0.0000000001
 43
0.0000000001
 40
0.0
 40
0.0
 40
0.0
 40
0.0
 40
0.1111111111111111
 40
0.1111111111111111
 40
0.1111111111111111
 40
0.1111111111111111
 40
0.2222222222222222
 40
0.2222222222222222
 40
0.2222222222222222
 40
0.2222222222222222
 40
0.3333333333333333
 40
0.3333333333333333
 40
0.3333333333333333
 40
0.3333333333333333
 40
0.4444444444444444
 40
0.4444444444444444
 40
0.4444444444444444
 40
0.4444444444444444
 40
0.5555555555555556
 40
0.5555555555555556
 40
0.5555555555555556
 40
0.5555555555555556
 40
0.6666666666666667
 40
0.6666666666666667
 40
0.6666666666666667
 40
0.6666666666666667
 40
0.7777777777777779
 40
0.7777777777777779
 40
0.7777777777777779
 40
0.7777777777777779
 40
0.8888888888888891
 40
0.8888888888888891
 40
0.8888888888888891
 40
0.8888888888888891
 40
1.0
 40
1.0
 40
1.0
 40
1.0
 10
-0.0533385826771654
 20
-0.3477874015748032
 30
0.0
 10
-0.0611417322834646
 20
-0.3477874015748032
 30
0.0
 10
-0.0675590551181102
 20
-0.3507322834645669
 30
0.0
 10
-0.0725866141732284
 20
-0.3566496062992126
 30
0.0
 10
-0.0725866141732284
 20
-0.3566496062992126
 30
0.0
 10
-0.0776141732283465
 20
-0.3625629921259843
 30
0.0
 10
-0.0801141732283465
 20
-0.3696771653543307
 30
0.0
 10
-0.0801141732283465
 20
-0.3779527559055118
 30
0.0
 10
-0.0801141732283465
 20
-0.3779527559055118
 30
0.0
 10
-0.0801141732283465
 20
-0.3838149606299213
 30
0.0
 10
-0.0788937007874016
 20
-0.389232283464567
 30
0.0
 10
-0.0764488188976378
 20
-0.3942047244094488
 30
0.0
 10
-0.0764488188976378
 20
-0.3942047244094488
 30
0.0
 10
-0.074003937007874
 20
-0.3991771653543307
 30
0.0
 10
-0.0708661417322835
 20
-0.4028425196850394
 30
0.0
 10
-0.067003937007874
 20
-0.4052598425196851
 30
0.0
 10
-0.067003937007874
 20
-0.4052598425196851
 30
0.0
 10
-0.0631732283464567
 20
-0.4076771653543307
 30
0.0
 10
-0.0588110236220472
 20
-0.4088976377952756
 30
0.0
 10
-0.054003937007874
 20
-0.4088976377952756
 30
0.0
 10
-0.054003937007874
 20
-0.4088976377952756
 30
0.0
 10
-0.046503937007874
 20
-0.4088976377952756
 30
0.0
 10
-0.0402834645669291
 20
-0.4060629921259843
 30
0.0
 10
-0.0353110236220472
 20
-0.4003976377952756
 30
0.0
 10
-0.0353110236220472
 20
-0.4003976377952756
 30
0.0
 10
-0.0303661417322835
 20
-0.394732283464567
 30
0.0
 10
-0.0278661417322835
 20
-0.3871181102362205
 30
0.0
 10
-0.0278661417322835
 20
-0.3775629921259843
 30
0.0
 10
-0.0278661417322835
 20
-0.3775629921259843
 30
0.0
 10
-0.0278661417322835
 20
-0.3684527559055118
 30
0.0
 10
-0.0302834645669291
 20
-0.3612047244094488
 30
0.0
 10
-0.0351141732283465
 20
-0.3558425196850394
 30
0.0
 10
-0.0351141732283465
 20
-0.3558425196850394
 30
0.0
 10
-0.0399488188976378
 20
-0.3504527559055118
 30
0.0
 10
-0.0460314960629921
 20
-0.3477874015748032
 30
0.0
 10
-0.0533385826771654
 20
-0.3477874015748032
 30
0.0
  0
SPLINE
  5
48
330
1F
100
AcDbEntity
  8
Layer 1
 62
   250
100
AcDbSpline
210
0.0
220
0.0
230
1.0
 70
    11
 71
     3
 72
   132
 73
   128
 74
     0
 42
0.0000000001
 43
0.0000000001
 40
0.0
 40
0.0
 40
0.0
 40
0.0
 40
0.03125
 40
0.03125
 40
0.03125
 40
0.03125
 40
0.0625
 40
0.0625
 40
0.0625
 40
0.0625
 40
0.09375
 40
0.09375
 40
0.09375
 40
0.09375
 40
0.125
 40
0.125
 40
0.125
 40
0.125
 40
0.15625
 40
0.15625
 40
0.15625
 40
0.15625
 40
0.1875
 40
0.1875
 40
0.1875
 40
0.1875
 40
0.21875
 40
0.21875
 40
0.21875
 40
0.21875
 40
0.25
 40
0.25
 40
0.25
 40
0.25
 40
0.28125
 40
0.28125
 40
0.28125
 40
0.28125
 40
0.3125
 40
0.3125
 40
0.3125
 40
0.3125
 40
0.34375
 40
0.34375
 40
0.34375
 40
0.34375
 40
0.375
 40
0.375
 40
0.375
 40
0.375
 40
0.40625
 40
0.40625
 40
0.40625
 40
0.40625
 40
0.4375
 40
0.4375
 40
0.4375
 40
0.4375
 40
0.46875
 40
0.46875
 40
0.46875
 40
0.46875
 40
0.5
 40
0.5
 40
0.5
 40
0.5
 40
0.53125
 40
0.53125
 40
0.53125
 40
0.53125
 40
0.5625
 40
0.5625
 40
0.5625
 40
0.5625
 40
0.59375
 40
0.59375
 40
0.59375
 40
0.59375
 40
0.625
 40
0.625
 40
0.625
 40
0.625
 40
0.65625
 40
0.65625
 40
0.65625
 40
0.65625
 40
0.6875
 40
0.6875
 40
0.6875
 40
0.6875
 40
0.71875
 40
0.71875
 40
0.71875
 40
0.71875
 40
0.75
 40
0.75
 40
0.75
 40
0.75
 40
0.78125
 40
0.78125
 40
0.78125
 40
0.78125
 40
0.8125
 40
0.8125
 40
0.8125
 40
0.8125
 40
0.84375
 40
0.84375
 40
0.84375
 40
0.84375
 40
0.875
 40
0.875
 40
0.875
 40
0.875
 40
0.90625
 40
0.90625
 40
0.90625
 40
0.90625
 40
0.9375
 40
0.9375
 40
0.9375
 40
0.9375
 40
0.96875
 40
0.96875
 40
0.96875
 40
0.96875
 40
1.0
 40
1.0
 40
1.0
 40
1.0
 10
0.0178031496062992
 20
-0.3008976377952756
 30
0.0
 10
0.0178031496062992
 20
-0.3008976377952756
 30
0.0
 10
0.0684133858267717
 20
-0.3008976377952756
 30
0.0
 10
0.0684133858267717
 20
-0.3008976377952756
 30
0.0
 10
0.0684133858267717
 20
-0.3008976377952756
 30
0.0
 10
0.071496062992126
 20
-0.3008976377952756
 30
0.0
 10
0.0733858267716535
 20
-0.3007322834645669
 30
0.0
 10
0.0740236220472441
 20
-0.3003976377952756
 30
0.0
 10
0.0740236220472441
 20
-0.3003976377952756
 30
0.0
 10
0.0749409448818898
 20
-0.2998700787401575
 30
0.0
 10
0.075496062992126
 20
-0.2987047244094488
 30
0.0
 10
0.0756614173228346
 20
-0.2969251968503937
 30
0.0
 10
0.0756614173228346
 20
-0.2969251968503937
 30
0.0
 10
0.0756614173228346
 20
-0.2969251968503937
 30
0.0
 10
0.0816062992125984
 20
-0.2969251968503937
 30
0.0
 10
0.0816062992125984
 20
-0.2969251968503937
 30
0.0
 10
0.0816062992125984
 20
-0.2969251968503937
 30
0.0
 10
0.0816062992125984
 20
-0.2969251968503937
 30
0.0
 10
0.0816062992125984
 20
-0.3140944881889764
 30
0.0
 10
0.0816062992125984
 20
-0.3140944881889764
 30
0.0
 10
0.0816062992125984
 20
-0.3140944881889764
 30
0.0
 10
0.0816062992125984
 20
-0.3140944881889764
 30
0.0
 10
0.0253582677165354
 20
-0.3140944881889764
 30
0.0
 10
0.0253582677165354
 20
-0.3140944881889764
 30
0.0
 10
0.0253582677165354
 20
-0.3140944881889764
 30
0.0
 10
0.0253582677165354
 20
-0.3140944881889764
 30
0.0
 10
0.0239685039370079
 20
-0.342732283464567
 30
0.0
 10
0.0239685039370079
 20
-0.342732283464567
 30
0.0
 10
0.0239685039370079
 20
-0.342732283464567
 30
0.0
 10
0.0263031496062992
 20
-0.3420629921259843
 30
0.0
 10
0.0292755905511811
 20
-0.3415354330708662
 30
0.0
 10
0.0328582677165354
 20
-0.3410905511811024
 30
0.0
 10
0.0328582677165354
 20
-0.3410905511811024
 30
0.0
 10
0.0374685039370079
 20
-0.3405629921259843
 30
0.0
 10
0.0415787401574803
 20
-0.3402874015748031
 30
0.0
 10
0.0452204724409449
 20
-0.3402874015748031
 30
0.0
 10
0.0452204724409449
 20
-0.3402874015748031
 30
0.0
 10
0.0542755905511811
 20
-0.3402874015748031
 30
0.0
 10
0.0621614173228347
 20
-0.3419251968503937
 30
0.0
 10
0.0689133858267717
 20
-0.3451771653543307
 30
0.0
 10
0.0689133858267717
 20
-0.3451771653543307
 30
0.0
 10
0.0756338582677165
 20
-0.3484251968503937
 30
0.0
 10
0.080744094488189
 20
-0.3528976377952756
 30
0.0
 10
0.084244094488189
 20
-0.3585629921259843
 30
0.0
 10
0.084244094488189
 20
-0.3585629921259843
 30
0.0
 10
0.087744094488189
 20
-0.3642322834645669
 30
0.0
 10
0.089496062992126
 20
-0.3705629921259843
 30
0.0
 10
0.089496062992126
 20
-0.3775629921259843
 30
0.0
 10
0.089496062992126
 20
-0.3775629921259843
 30
0.0
 10
0.089496062992126
 20
-0.3883976377952756
 30
0.0
 10
0.0854133858267717
 20
-0.3975905511811024
 30
0.0
 10
0.0772755905511811
 20
-0.4051181102362205
 30
0.0
 10
0.0772755905511811
 20
-0.4051181102362205
 30
0.0
 10
0.0691338582677165
 20
-0.4126181102362205
 30
0.0
 10
0.0587755905511811
 20
-0.4163700787401575
 30
0.0
 10
0.0461889763779528
 20
-0.4163700787401575
 30
0.0
 10
0.0461889763779528
 20
-0.4163700787401575
 30
0.0
 10
0.0389133858267717
 20
-0.4163700787401575
 30
0.0
 10
0.0323582677165354
 20
-0.4150629921259842
 30
0.0
 10
0.0264685039370079
 20
-0.4124803149606299
 30
0.0
 10
0.0264685039370079
 20
-0.4124803149606299
 30
0.0
 10
0.0205787401574803
 20
-0.4098700787401575
 30
0.0
 10
0.0159685039370079
 20
-0.4064251968503937
 30
0.0
 10
0.0126614173228346
 20
-0.4021771653543307
 30
0.0
 10
0.0126614173228346
 20
-0.4021771653543307
 30
0.0
 10
0.0093582677165354
 20
-0.3979251968503937
 30
0.0
 10
0.0076929133858268
 20
-0.3941771653543307
 30
0.0
 10
0.0076929133858268
 20
-0.39098031496063
 30
0.0
 10
0.0076929133858268
 20
-0.39098031496063
 30
0.0
 10
0.0076929133858268
 20
-0.3888700787401575
 30
0.0
 10
0.0084133858267717
 20
-0.3870354330708661
 30
0.0
 10
0.0098307086614173
 20
-0.38548031496063
 30
0.0
 10
0.0098307086614173
 20
-0.38548031496063
 30
0.0
 10
0.0112204724409449
 20
-0.3839527559055118
 30
0.0
 10
0.0130511811023622
 20
-0.3831771653543307
 30
0.0
 10
0.0152755905511811
 20
-0.3831771653543307
 30
0.0
 10
0.0152755905511811
 20
-0.3831771653543307
 30
0.0
 10
0.0175511811023622
 20
-0.3831771653543307
 30
0.0
 10
0.0195511811023622
 20
-0.3841181102362205
 30
0.0
 10
0.0213031496062992
 20
-0.3860354330708661
 30
0.0
 10
0.0213031496062992
 20
-0.3860354330708661
 30
0.0
 10
0.0222755905511811
 20
-0.387007874015748
 30
0.0
 10
0.0234409448818898
 20
-0.3893976377952756
 30
0.0
 10
0.0248031496062992
 20
-0.3931771653543307
 30
0.0
 10
0.0248031496062992
 20
-0.3931771653543307
 30
0.0
 10
0.0266338582677165
 20
-0.3985078740157481
 30
0.0
 10
0.0293858267716535
 20
-0.4023976377952756
 30
0.0
 10
0.0330236220472441
 20
-0.4048976377952756
 30
0.0
 10
0.0330236220472441
 20
-0.4048976377952756
 30
0.0
 10
0.0365787401574803
 20
-0.4074527559055118
 30
0.0
 10
0.0411062992125984
 20
-0.408732283464567
 30
0.0
 10
0.0465236220472441
 20
-0.408732283464567
 30
0.0
 10
0.0465236220472441
 20
-0.408732283464567
 30
0.0
 10
0.0519409448818898
 20
-0.408732283464567
 30
0.0
 10
0.0567755905511811
 20
-0.4075354330708662
 30
0.0
 10
0.060996062992126
 20
-0.4051771653543307
 30
0.0
 10
0.060996062992126
 20
-0.4051771653543307
 30
0.0
 10
0.065248031496063
 20
-0.4028425196850394
 30
0.0
 10
0.0685787401574803
 20
-0.3994251968503937
 30
0.0
 10
0.0710236220472441
 20
-0.3950078740157481
 30
0.0
 10
0.0710236220472441
 20
-0.3950078740157481
 30
0.0
 10
0.0734685039370079
 20
-0.3905905511811024
 30
0.0
 10
0.0746889763779528
 20
-0.3856771653543307
 30
0.0
 10
0.0746889763779528
 20
-0.380259842519685
 30
0.0
 10
0.0746889763779528
 20
-0.380259842519685
 30
0.0
 10
0.0746889763779528
 20
-0.3745354330708662
 30
0.0
 10
0.0733582677165354
 20
-0.3694803149606299
 30
0.0
 10
0.0707165354330709
 20
-0.3650354330708662
 30
0.0
 10
0.0707165354330709
 20
-0.3650354330708662
 30
0.0
 10
0.0681062992125984
 20
-0.3605905511811024
 30
0.0
 10
0.0643307086614173
 20
-0.3571220472440945
 30
0.0
 10
0.0594133858267717
 20
-0.3547047244094488
 30
0.0
 10
0.0594133858267717
 20
-0.3547047244094488
 30
0.0
 10
0.054496062992126
 20
-0.3522598425196851
 30
0.0
 10
0.0485236220472441
 20
-0.3510354330708662
 30
0.0
 10
0.0414685039370079
 20
-0.3510354330708662
 30
0.0
 10
0.0414685039370079
 20
-0.3510354330708662
 30
0.0
 10
0.0371889763779528
 20
-0.3510354330708662
 30
0.0
 10
0.0325787401574803
 20
-0.3514803149606299
 30
0.0
 10
0.0276889763779528
 20
-0.3524251968503937
 30
0.0
 10
0.0276889763779528
 20
-0.3524251968503937
 30
0.0
 10
0.0227755905511811
 20
-0.3533425196850394
 30
0.0
 10
0.0185511811023622
 20
-0.3545078740157481
 30
0.0
 10
0.0150236220472441
 20
-0.3559251968503937
 30
0.0
 10
0.0150236220472441
 20
-0.3559251968503937
 30
0.0
 10
0.0150236220472441
 20
-0.3559251968503937
 30
0.0
 10
0.0178031496062992
 20
-0.3008976377952756
 30
0.0
 10
0.0178031496062992
 20
-0.3008976377952756
 30
0.0
  0
SPLINE
  5
49
330
1F
100
AcDbEntity
  8
Layer 1
 62
   250
100
AcDbSpline
210
0.0
220
0.0
230
1.0
 70
    11
 71
     3
 72
    80
 73
    76
 74
     0
 42
0.0000000001
 43
0.0000000001
 40
0.0
 40
0.0
 40
0.0
 40
0.0
 40
0.0526315789473684
 40
0.0526315789473684
 40
0.0526315789473684
 40
0.0526315789473684
 40
0.1052631578947368
 40
0.1052631578947368
 40
0.1052631578947368
 40
0.1052631578947368
 40
0.1578947368421053
 40
0.1578947368421053
 40
0.1578947368421053
 40
0.1578947368421053
 40
0.2105263157894737
 40
0.2105263157894737
 40
0.2105263157894737
 40
0.2105263157894737
 40
0.2631578947368421
 40
0.2631578947368421
 40
0.2631578947368421
 40
0.2631578947368421
 40
0.3157894736842105
 40
0.3157894736842105
 40
0.3157894736842105
 40
0.3157894736842105
 40
0.3684210526315789
 40
0.3684210526315789
 40
0.3684210526315789
 40
0.3684210526315789
 40
0.4210526315789474
 40
0.4210526315789474
 40
0.4210526315789474
 40
0.4210526315789474
 40
0.4736842105263158
 40
0.4736842105263158
 40
0.4736842105263158
 40
0.4736842105263158
 40
0.5263157894736842
 40
0.5263157894736842
 40
0.5263157894736842
 40
0.5263157894736842
 40
0.5789473684210527
 40
0.5789473684210527
 40
0.5789473684210527
 40
0.5789473684210527
 40
0.631578947368421
 40
0.631578947368421
 40
0.631578947368421
 40
0.631578947368421
 40
0.6842105263157894
 40
0.6842105263157894
 40
0.6842105263157894
 40
0.6842105263157894
 40
0.7368421052631577
 40
0.7368421052631577
 40
0.7368421052631577
 40
0.7368421052631577
 40
0.7894736842105261
 40
0.7894736842105261
 40
0.7894736842105261
 40
0.7894736842105261
 40
0.8421052631578945
 40
0.8421052631578945
 40
0.8421052631578945
 40
0.8421052631578945
 40
0.8947368421052628
 40
0.8947368421052628
 40
0.8947368421052628
 40
0.8947368421052628
 40
0.9473684210526312
 40
0.9473684210526312
 40
0.9473684210526312
 40
0.9473684210526312
 40
1.0
 40
1.0
 40
1.0
 40
1.0
 10
0.1168307086614173
 20
-0.2967598425196851
 30
0.0
 10
0.1168307086614173
 20
-0.2967598425196851
 30
0.0
 10
0.1222204724409449
 20
-0.2967598425196851
 30
0.0
 10
0.1222204724409449
 20
-0.2967598425196851
 30
0.0
 10
0.1222204724409449
 20
-0.2967598425196851
 30
0.0
 10
0.1222204724409449
 20
-0.2967598425196851
 30
0.0
 10
0.1231929133858268
 20
-0.3008976377952756
 30
0.0
 10
0.1231929133858268
 20
-0.3008976377952756
 30
0.0
 10
0.1231929133858268
 20
-0.3008976377952756
 30
0.0
 10
0.1231929133858268
 20
-0.3008976377952756
 30
0.0
 10
0.1943031496062992
 20
-0.3008976377952756
 30
0.0
 10
0.1943031496062992
 20
-0.3008976377952756
 30
0.0
 10
0.1943031496062992
 20
-0.3008976377952756
 30
0.0
 10
0.1943031496062992
 20
-0.3008976377952756
 30
0.0
 10
0.1943031496062992
 20
-0.3078149606299213
 30
0.0
 10
0.1943031496062992
 20
-0.3078149606299213
 30
0.0
 10
0.1943031496062992
 20
-0.3078149606299213
 30
0.0
 10
0.1858031496062992
 20
-0.3176496062992126
 30
0.0
 10
0.1780787401574803
 20
-0.3288149606299213
 30
0.0
 10
0.1711653543307087
 20
-0.3413976377952756
 30
0.0
 10
0.1711653543307087
 20
-0.3413976377952756
 30
0.0
 10
0.164248031496063
 20
-0.3539527559055118
 30
0.0
 10
0.1588858267716536
 20
-0.3667322834645669
 30
0.0
 10
0.1550787401574803
 20
-0.379759842519685
 30
0.0
 10
0.1550787401574803
 20
-0.379759842519685
 30
0.0
 10
0.1523307086614173
 20
-0.3891456692913386
 30
0.0
 10
0.1500826771653543
 20
-0.4007047244094488
 30
0.0
 10
0.1483307086614173
 20
-0.4144251968503937
 30
0.0
 10
0.1483307086614173
 20
-0.4144251968503937
 30
0.0
 10
0.1483307086614173
 20
-0.4144251968503937
 30
0.0
 10
0.1316653543307087
 20
-0.4144251968503937
 30
0.0
 10
0.1316653543307087
 20
-0.4144251968503937
 30
0.0
 10
0.1316653543307087
 20
-0.4144251968503937
 30
0.0
 10
0.1332755905511811
 20
-0.4023149606299213
 30
0.0
 10
0.1359409448818898
 20
-0.3910078740157481
 30
0.0
 10
0.1396653543307087
 20
-0.38048031496063
 30
0.0
 10
0.1396653543307087
 20
-0.38048031496063
 30
0.0
 10
0.1433858267716535
 20
-0.3699527559055118
 30
0.0
 10
0.148748031496063
 20
-0.3589527559055118
 30
0.0
 10
0.1557755905511811
 20
-0.3474803149606299
 30
0.0
 10
0.1557755905511811
 20
-0.3474803149606299
 30
0.0
 10
0.1628031496062992
 20
-0.3360078740157481
 30
0.0
 10
0.1713307086614173
 20
-0.3245629921259843
 30
0.0
 10
0.1813858267716536
 20
-0.3131220472440945
 30
0.0
 10
0.1813858267716536
 20
-0.3131220472440945
 30
0.0
 10
0.1813858267716536
 20
-0.3131220472440945
 30
0.0
 10
0.1306653543307087
 20
-0.3131220472440945
 30
0.0
 10
0.1306653543307087
 20
-0.3131220472440945
 30
0.0
 10
0.1306653543307087
 20
-0.3131220472440945
 30
0.0
 10
0.126996062992126
 20
-0.3131220472440945
 30
0.0
 10
0.1244685039370079
 20
-0.3132874015748032
 30
0.0
 10
0.1231102362204724
 20
-0.3136771653543307
 30
0.0
 10
0.1231102362204724
 20
-0.3136771653543307
 30
0.0
 10
0.121748031496063
 20
-0.3140629921259843
 30
0.0
 10
0.1206929133858268
 20
-0.3146496062992126
 30
0.0
 10
0.1199409448818898
 20
-0.3154527559055118
 30
0.0
 10
0.1199409448818898
 20
-0.3154527559055118
 30
0.0
 10
0.1191653543307087
 20
-0.3162874015748032
 30
0.0
 10
0.1185236220472441
 20
-0.3177322834645669
 30
0.0
 10
0.1179685039370079
 20
-0.3197874015748032
 30
0.0
 10
0.1179685039370079
 20
-0.3197874015748032
 30
0.0
 10
0.1179685039370079
 20
-0.3197874015748032
 30
0.0
 10
0.1175826771653543
 20
-0.3213149606299213
 30
0.0
 10
0.1175826771653543
 20
-0.3213149606299213
 30
0.0
 10
0.1175826771653543
 20
-0.3213149606299213
 30
0.0
 10
0.1175826771653543
 20
-0.3213149606299213
 30
0.0
 10
0.1148031496062992
 20
-0.3309251968503937
 30
0.0
 10
0.1148031496062992
 20
-0.3309251968503937
 30
0.0
 10
0.1148031496062992
 20
-0.3309251968503937
 30
0.0
 10
0.1148031496062992
 20
-0.3309251968503937
 30
0.0
 10
0.1078858267716536
 20
-0.3294527559055118
 30
0.0
 10
0.1078858267716536
 20
-0.3294527559055118
 30
0.0
 10
0.1078858267716536
 20
-0.3294527559055118
 30
0.0
 10
0.1078858267716536
 20
-0.3294527559055118
 30
0.0
 10
0.1168307086614173
 20
-0.2967598425196851
 30
0.0
 10
0.1168307086614173
 20
-0.2967598425196851
 30
0.0
  0
SPLINE
  5
4A
330
1F
100
AcDbEntity
  8
Layer 1
 62
   250
100
AcDbSpline
210
0.0
220
0.0
230
1.0
 70
    11
 71
     3
 72
   104
 73
   100
 74
     0
 42
0.0000000001
 43
0.0000000001
 40
0.0
 40
0.0
 40
0.0
 40
0.0
 40
0.04
 40
0.04
 40
0.04
 40
0.04
 40
0.08
 40
0.08
 40
0.08
 40
0.08
 40
0.12
 40
0.12
 40
0.12
 40
0.12
 40
0.16
 40
0.16
 40
0.16
 40
0.16
 40
0.2
 40
0.2
 40
0.2
 40
0.2
 40
0.24
 40
0.24
 40
0.24
 40
0.24
 40
0.28
 40
0.28
 40
0.28
 40
0.28
 40
0.32
 40
0.32
 40
0.32
 40
0.32
 40
0.36
 40
0.36
 40
0.36
 40
0.36
 40
0.4
 40
0.4
 40
0.4
 40
0.4
 40
0.44
 40
0.44
 40
0.44
 40
0.44
 40
0.4799999999999999
 40
0.4799999999999999
 40
0.4799999999999999
 40
0.4799999999999999
 40
0.5199999999999999
 40
0.5199999999999999
 40
0.5199999999999999
 40
0.5199999999999999
 40
0.5599999999999999
 40
0.5599999999999999
 40
0.5599999999999999
 40
0.5599999999999999
 40
0.6
 40
0.6
 40
0.6
 40
0.6
 40
0.64
 40
0.64
 40
0.64
 40
0.64
 40
0.6800000000000001
 40
0.6800000000000001
 40
0.6800000000000001
 40
0.6800000000000001
 40
0.7200000000000001
 40
0.7200000000000001
 40
0.7200000000000001
 40
0.7200000000000001
 40
0.7600000000000001
 40
0.7600000000000001
 40
0.7600000000000001
 40
0.7600000000000001
 40
0.8000000000000002
 40
0.8000000000000002
 40
0.8000000000000002
 40
0.8000000000000002
 40
0.8400000000000002
 40
0.8400000000000002
 40
0.8400000000000002
 40
0.8400000000000002
 40
0.8800000000000002
 40
0.8800000000000002
 40
0.8800000000000002
 40
0.8800000000000002
 40
0.9200000000000003
 40
0.9200000000000003
 40
0.9200000000000003
 40
0.9200000000000003
 40
0.9600000000000003
 40
0.9600000000000003
 40
0.9600000000000003
 40
0.9600000000000003
 40
1.0
 40
1.0
 40
1.0
 40
1.0
 10
-0.3744448818897638
 20
-0.4883976377952756
 30
0.0
 10
-0.3744448818897638
 20
-0.4883976377952756
 30
0.0
 10
-0.3204724409448819
 20
-0.4883976377952756
 30
0.0
 10
-0.3204724409448819
 20
-0.4883976377952756
 30
0.0
 10
-0.3204724409448819
 20
-0.4883976377952756
 30
0.0
 10
-0.3073031496062992
 20
-0.4883976377952756
 30
0.0
 10
-0.2982755905511811
 20
-0.489007874015748
 30
0.0
 10
-0.2933897637795276
 20
-0.4902047244094488
 30
0.0
 10
-0.2933897637795276
 20
-0.4902047244094488
 30
0.0
 10
-0.2861653543307087
 20
-0.4919251968503937
 30
0.0
 10
-0.2804724409448819
 20
-0.4950629921259843
 30
0.0
 10
-0.276248031496063
 20
-0.4996220472440945
 30
0.0
 10
-0.276248031496063
 20
-0.4996220472440945
 30
0.0
 10
-0.2720551181102363
 20
-0.5041771653543308
 30
0.0
 10
-0.2699448818897638
 20
-0.5096771653543307
 30
0.0
 10
-0.2699448818897638
 20
-0.5160629921259843
 30
0.0
 10
-0.2699448818897638
 20
-0.5160629921259843
 30
0.0
 10
-0.2699448818897638
 20
-0.5206771653543307
 30
0.0
 10
-0.2710551181102363
 20
-0.5248149606299213
 30
0.0
 10
-0.2732755905511811
 20
-0.52848031496063
 30
0.0
 10
-0.2732755905511811
 20
-0.52848031496063
 30
0.0
 10
-0.2755
 20
-0.5321496062992126
 30
0.0
 10
-0.278748031496063
 20
-0.5352874015748032
 30
0.0
 10
-0.2829724409448819
 20
-0.5378700787401575
 30
0.0
 10
-0.2829724409448819
 20
-0.5378700787401575
 30
0.0
 10
-0.2856929133858268
 20
-0.5395629921259842
 30
0.0
 10
-0.2893622047244094
 20
-0.541007874015748
 30
0.0
 10
-0.2940275590551181
 20
-0.5422047244094489
 30
0.0
 10
-0.2940275590551181
 20
-0.5422047244094489
 30
0.0
 10
-0.2881102362204724
 20
-0.5432874015748032
 30
0.0
 10
-0.2836102362204724
 20
-0.5445905511811023
 30
0.0
 10
-0.2805275590551181
 20
-0.5460905511811024
 30
0.0
 10
-0.2805275590551181
 20
-0.5460905511811024
 30
0.0
 10
-0.2758622047244095
 20
-0.5483700787401575
 30
0.0
 10
-0.2721653543307087
 20
-0.5516181102362205
 30
0.0
 10
-0.2694724409448819
 20
-0.5558700787401575
 30
0.0
 10
-0.2694724409448819
 20
-0.5558700787401575
 30
0.0
 10
-0.266748031496063
 20
-0.5600905511811024
 30
0.0
 10
-0.2653897637795276
 20
-0.5648700787401575
 30
0.0
 10
-0.2653897637795276
 20
-0.5701771653543307
 30
0.0
 10
-0.2653897637795276
 20
-0.5701771653543307
 30
0.0
 10
-0.2653897637795276
 20
-0.5753425196850394
 30
0.0
 10
-0.2667204724409449
 20
-0.5801181102362205
 30
0.0
 10
-0.2693897637795276
 20
-0.5845078740157481
 30
0.0
 10
-0.2693897637795276
 20
-0.5845078740157481
 30
0.0
 10
-0.2720275590551181
 20
-0.5888976377952756
 30
0.0
 10
-0.2758031496062992
 20
-0.592507874015748
 30
0.0
 10
-0.2806377952755906
 20
-0.5953425196850394
 30
0.0
 10
-0.2806377952755906
 20
-0.5953425196850394
 30
0.0
 10
-0.2855
 20
-0.5981456692913386
 30
0.0
 10
-0.2911653543307087
 20
-0.5999527559055118
 30
0.0
 10
-0.2976102362204725
 20
-0.6007598425196851
 30
0.0
 10
-0.2976102362204725
 20
-0.6007598425196851
 30
0.0
 10
-0.3040826771653544
 20
-0.6015354330708662
 30
0.0
 10
-0.3107204724409449
 20
-0.6019251968503937
 30
0.0
 10
-0.3175551181102362
 20
-0.6019251968503937
 30
0.0
 10
-0.3175551181102362
 20
-0.6019251968503937
 30
0.0
 10
-0.3175551181102362
 20
-0.6019251968503937
 30
0.0
 10
-0.3744448818897638
 20
-0.6019251968503937
 30
0.0
 10
-0.3744448818897638
 20
-0.6019251968503937
 30
0.0
 10
-0.3744448818897638
 20
-0.6019251968503937
 30
0.0
 10
-0.3744448818897638
 20
-0.6019251968503937
 30
0.0
 10
-0.3744448818897638
 20
-0.5950905511811024
 30
0.0
 10
-0.3744448818897638
 20
-0.5950905511811024
 30
0.0
 10
-0.3744448818897638
 20
-0.5950905511811024
 30
0.0
 10
-0.3744448818897638
 20
-0.5950905511811024
 30
0.0
 10
-0.3706102362204725
 20
-0.5950905511811024
 30
0.0
 10
-0.3706102362204725
 20
-0.5950905511811024
 30
0.0
 10
-0.3706102362204725
 20
-0.5950905511811024
 30
0.0
 10
-0.3669133858267717
 20
-0.5950905511811024
 30
0.0
 10
-0.3644133858267717
 20
-0.594507874015748
 30
0.0
 10
-0.3630551181102362
 20
-0.5933700787401575
 30
0.0
 10
-0.3630551181102362
 20
-0.5933700787401575
 30
0.0
 10
-0.3610826771653544
 20
-0.5918149606299212
 30
0.0
 10
-0.3601102362204725
 20
-0.5892047244094488
 30
0.0
 10
-0.3601102362204725
 20
-0.5855629921259843
 30
0.0
 10
-0.3601102362204725
 20
-0.5855629921259843
 30
0.0
 10
-0.3601102362204725
 20
-0.5855629921259843
 30
0.0
 10
-0.3601102362204725
 20
-0.5067047244094488
 30
0.0
 10
-0.3601102362204725
 20
-0.5067047244094488
 30
0.0
 10
-0.3601102362204725
 20
-0.5067047244094488
 30
0.0
 10
-0.3601102362204725
 20
-0.5030078740157481
 30
0.0
 10
-0.3604133858267717
 20
-0.500507874015748
 30
0.0
 10
-0.361
 20
-0.4991496062992126
 30
0.0
 10
-0.361
 20
-0.4991496062992126
 30
0.0
 10
-0.3616102362204725
 20
-0.4977874015748032
 30
0.0
 10
-0.3625
 20
-0.4968149606299213
 30
0.0
 10
-0.3636929133858268
 20
-0.4962047244094489
 30
0.0
 10
-0.3636929133858268
 20
-0.4962047244094489
 30
0.0
 10
-0.3648858267716535
 20
-0.4956220472440945
 30
0.0
 10
-0.3671929133858268
 20
-0.4953149606299213
 30
0.0
 10
-0.3706102362204725
 20
-0.4953149606299213
 30
0.0
 10
-0.3706102362204725
 20
-0.4953149606299213
 30
0.0
 10
-0.3706102362204725
 20
-0.4953149606299213
 30
0.0
 10
-0.3744448818897638
 20
-0.4953149606299213
 30
0.0
 10
-0.3744448818897638
 20
-0.4953149606299213
 30
0.0
 10
-0.3744448818897638
 20
-0.4953149606299213
 30
0.0
 10
-0.3744448818897638
 20
-0.4953149606299213
 30
0.0
 10
-0.3744448818897638
 20
-0.4883976377952756
 30
0.0
 10
-0.3744448818897638
 20
-0.4883976377952756
 30
0.0
  0
SPLINE
  5
4B
330
1F
100
AcDbEntity
  8
Layer 1
 62
   250
100
AcDbSpline
210
0.0
220
0.0
230
1.0
 70
    11
 71
     3
 72
    40
 73
    36
 74
     0
 42
0.0000000001
 43
0.0000000001
 40
0.0
 40
0.0
 40
0.0
 40
0.0
 40
0.1111111111111111
 40
0.1111111111111111
 40
0.1111111111111111
 40
0.1111111111111111
 40
0.2222222222222222
 40
0.2222222222222222
 40
0.2222222222222222
 40
0.2222222222222222
 40
0.3333333333333333
 40
0.3333333333333333
 40
0.3333333333333333
 40
0.3333333333333333
 40
0.4444444444444444
 40
0.4444444444444444
 40
0.4444444444444444
 40
0.4444444444444444
 40
0.5555555555555556
 40
0.5555555555555556
 40
0.5555555555555556
 40
0.5555555555555556
 40
0.6666666666666667
 40
0.6666666666666667
 40
0.6666666666666667
 40
0.6666666666666667
 40
0.7777777777777779
 40
0.7777777777777779
 40
0.7777777777777779
 40
0.7777777777777779
 40
0.8888888888888891
 40
0.8888888888888891
 40
0.8888888888888891
 40
0.8888888888888891
 40
1.0
 40
1.0
 40
1.0
 40
1.0
 10
-0.3448858267716536
 20
-0.4974251968503937
 30
0.0
 10
-0.3448858267716536
 20
-0.4974251968503937
 30
0.0
 10
-0.3448858267716536
 20
-0.539007874015748
 30
0.0
 10
-0.3448858267716536
 20
-0.539007874015748
 30
0.0
 10
-0.3448858267716536
 20
-0.539007874015748
 30
0.0
 10
-0.3448858267716536
 20
-0.539007874015748
 30
0.0
 10
-0.3241377952755906
 20
-0.539007874015748
 30
0.0
 10
-0.3241377952755906
 20
-0.539007874015748
 30
0.0
 10
-0.3241377952755906
 20
-0.539007874015748
 30
0.0
 10
-0.3144448818897638
 20
-0.539007874015748
 30
0.0
 10
-0.3077755905511811
 20
-0.5385629921259842
 30
0.0
 10
-0.3042204724409449
 20
-0.5376496062992127
 30
0.0
 10
-0.3042204724409449
 20
-0.5376496062992127
 30
0.0
 10
-0.2986102362204725
 20
-0.5361771653543307
 30
0.0
 10
-0.2943622047244094
 20
-0.5336771653543307
 30
0.0
 10
-0.2913897637795276
 20
-0.5301496062992126
 30
0.0
 10
-0.2913897637795276
 20
-0.5301496062992126
 30
0.0
 10
-0.2884448818897638
 20
-0.5266220472440946
 30
0.0
 10
-0.2869448818897638
 20
-0.5220905511811024
 30
0.0
 10
-0.2869448818897638
 20
-0.5165629921259842
 30
0.0
 10
-0.2869448818897638
 20
-0.5165629921259842
 30
0.0
 10
-0.2869448818897638
 20
-0.5118976377952756
 30
0.0
 10
-0.2883031496062992
 20
-0.5080078740157481
 30
0.0
 10
-0.2909724409448819
 20
-0.5048700787401576
 30
0.0
 10
-0.2909724409448819
 20
-0.5048700787401576
 30
0.0
 10
-0.2936653543307087
 20
-0.5017598425196851
 30
0.0
 10
-0.2972755905511811
 20
-0.4996220472440945
 30
0.0
 10
-0.3017755905511811
 20
-0.4984803149606299
 30
0.0
 10
-0.3017755905511811
 20
-0.4984803149606299
 30
0.0
 10
-0.3046929133858268
 20
-0.4977874015748032
 30
0.0
 10
-0.3107755905511811
 20
-0.4974251968503937
 30
0.0
 10
-0.32
 20
-0.4974251968503937
 30
0.0
 10
-0.32
 20
-0.4974251968503937
 30
0.0
 10
-0.32
 20
-0.4974251968503937
 30
0.0
 10
-0.3448858267716536
 20
-0.4974251968503937
 30
0.0
 10
-0.3448858267716536
 20
-0.4974251968503937
 30
0.0
  0
SPLINE
  5
4C
330
1F
100
AcDbEntity
  8
Layer 1
 62
   250
100
AcDbSpline
210
0.0
220
0.0
230
1.0
 70
    11
 71
     3
 72
    52
 73
    48
 74
     0
 42
0.0000000001
 43
0.0000000001
 40
0.0
 40
0.0
 40
0.0
 40
0.0
 40
0.0833333333333333
 40
0.0833333333333333
 40
0.0833333333333333
 40
0.0833333333333333
 40
0.1666666666666667
 40
0.1666666666666667
 40
0.1666666666666667
 40
0.1666666666666667
 40
0.25
 40
0.25
 40
0.25
 40
0.25
 40
0.3333333333333333
 40
0.3333333333333333
 40
0.3333333333333333
 40
0.3333333333333333
 40
0.4166666666666666
 40
0.4166666666666666
 40
0.4166666666666666
 40
0.4166666666666666
 40
0.4999999999999999
 40
0.4999999999999999
 40
0.4999999999999999
 40
0.4999999999999999
 40
0.5833333333333333
 40
0.5833333333333333
 40
0.5833333333333333
 40
0.5833333333333333
 40
0.6666666666666666
 40
0.6666666666666666
 40
0.6666666666666666
 40
0.6666666666666666
 40
0.75
 40
0.75
 40
0.75
 40
0.75
 40
0.8333333333333334
 40
0.8333333333333334
 40
0.8333333333333334
 40
0.8333333333333334
 40
0.9166666666666667
 40
0.9166666666666667
 40
0.9166666666666667
 40
0.9166666666666667
 40
1.0
 40
1.0
 40
1.0
 40
1.0
 10
-0.3448858267716536
 20
-0.5468425196850394
 30
0.0
 10
-0.3448858267716536
 20
-0.5468425196850394
 30
0.0
 10
-0.3448858267716536
 20
-0.5840905511811024
 30
0.0
 10
-0.3448858267716536
 20
-0.5840905511811024
 30
0.0
 10
-0.3448858267716536
 20
-0.5840905511811024
 30
0.0
 10
-0.3448858267716536
 20
-0.5878425196850394
 30
0.0
 10
-0.3447204724409449
 20
-0.5900629921259842
 30
0.0
 10
-0.3444173228346457
 20
-0.5907874015748031
 30
0.0
 10
-0.3444173228346457
 20
-0.5907874015748031
 30
0.0
 10
-0.3439724409448819
 20
-0.5917598425196851
 30
0.0
 10
-0.3431102362204724
 20
-0.5924251968503937
 30
0.0
 10
-0.3418031496062992
 20
-0.5928149606299212
 30
0.0
 10
-0.3418031496062992
 20
-0.5928149606299212
 30
0.0
 10
-0.3408858267716536
 20
-0.5930905511811024
 30
0.0
 10
-0.3382755905511811
 20
-0.5932322834645669
 30
0.0
 10
-0.334
 20
-0.5932322834645669
 30
0.0
 10
-0.334
 20
-0.5932322834645669
 30
0.0
 10
-0.334
 20
-0.5932322834645669
 30
0.0
 10
-0.3229173228346457
 20
-0.5932322834645669
 30
0.0
 10
-0.3229173228346457
 20
-0.5932322834645669
 30
0.0
 10
-0.3229173228346457
 20
-0.5932322834645669
 30
0.0
 10
-0.3119724409448819
 20
-0.5932322834645669
 30
0.0
 10
-0.3041377952755905
 20
-0.5926181102362205
 30
0.0
 10
-0.2994448818897638
 20
-0.5913976377952757
 30
0.0
 10
-0.2994448818897638
 20
-0.5913976377952757
 30
0.0
 10
-0.294748031496063
 20
-0.5901771653543307
 30
0.0
 10
-0.290748031496063
 20
-0.5875905511811024
 30
0.0
 10
-0.2874448818897638
 20
-0.5836456692913387
 30
0.0
 10
-0.2874448818897638
 20
-0.5836456692913387
 30
0.0
 10
-0.2841377952755906
 20
-0.579732283464567
 30
0.0
 10
-0.2824724409448819
 20
-0.57498031496063
 30
0.0
 10
-0.2824724409448819
 20
-0.5694527559055118
 30
0.0
 10
-0.2824724409448819
 20
-0.5694527559055118
 30
0.0
 10
-0.2824724409448819
 20
-0.5647874015748031
 30
0.0
 10
-0.2838307086614174
 20
-0.5606496062992126
 30
0.0
 10
-0.2865
 20
-0.5570354330708661
 30
0.0
 10
-0.2865
 20
-0.5570354330708661
 30
0.0
 10
-0.2891929133858268
 20
-0.5534251968503937
 30
0.0
 10
-0.2929173228346457
 20
-0.5508425196850394
 30
0.0
 10
-0.2976653543307087
 20
-0.549232283464567
 30
0.0
 10
-0.2976653543307087
 20
-0.549232283464567
 30
0.0
 10
-0.3024173228346457
 20
-0.5476181102362205
 30
0.0
 10
-0.3108307086614173
 20
-0.5468425196850394
 30
0.0
 10
-0.3229173228346457
 20
-0.5468425196850394
 30
0.0
 10
-0.3229173228346457
 20
-0.5468425196850394
 30
0.0
 10
-0.3229173228346457
 20
-0.5468425196850394
 30
0.0
 10
-0.3448858267716536
 20
-0.5468425196850394
 30
0.0
 10
-0.3448858267716536
 20
-0.5468425196850394
 30
0.0
  0
SPLINE
  5
4D
330
1F
100
AcDbEntity
  8
Layer 1
 62
   250
100
AcDbSpline
210
0.0
220
0.0
230
1.0
 70
    11
 71
     3
 72
    88
 73
    84
 74
     0
 42
0.0000000001
 43
0.0000000001
 40
0.0
 40
0.0
 40
0.0
 40
0.0
 40
0.0476190476190476
 40
0.0476190476190476
 40
0.0476190476190476
 40
0.0476190476190476
 40
0.0952380952380952
 40
0.0952380952380952
 40
0.0952380952380952
 40
0.0952380952380952
 40
0.1428571428571429
 40
0.1428571428571429
 40
0.1428571428571429
 40
0.1428571428571429
 40
0.1904761904761905
 40
0.1904761904761905
 40
0.1904761904761905
 40
0.1904761904761905
 40
0.2380952380952381
 40
0.2380952380952381
 40
0.2380952380952381
 40
0.2380952380952381
 40
0.2857142857142857
 40
0.2857142857142857
 40
0.2857142857142857
 40
0.2857142857142857
 40
0.3333333333333333
 40
0.3333333333333333
 40
0.3333333333333333
 40
0.3333333333333333
 40
0.3809523809523809
 40
0.3809523809523809
 40
0.3809523809523809
 40
0.3809523809523809
 40
0.4285714285714286
 40
0.4285714285714286
 40
0.4285714285714286
 40
0.4285714285714286
 40
0.4761904761904762
 40
0.4761904761904762
 40
0.4761904761904762
 40
0.4761904761904762
 40
0.5238095238095237
 40
0.5238095238095237
 40
0.5238095238095237
 40
0.5238095238095237
 40
0.5714285714285714
 40
0.5714285714285714
 40
0.5714285714285714
 40
0.5714285714285714
 40
0.6190476190476191
 40
0.6190476190476191
 40
0.6190476190476191
 40
0.6190476190476191
 40
0.6666666666666667
 40
0.6666666666666667
 40
0.6666666666666667
 40
0.6666666666666667
 40
0.7142857142857144
 40
0.7142857142857144
 40
0.7142857142857144
 40
0.7142857142857144
 40
0.7619047619047621
 40
0.7619047619047621
 40
0.7619047619047621
 40
0.7619047619047621
 40
0.8095238095238098
 40
0.8095238095238098
 40
0.8095238095238098
 40
0.8095238095238098
 40
0.8571428571428574
 40
0.8571428571428574
 40
0.8571428571428574
 40
0.8571428571428574
 40
0.9047619047619051
 40
0.9047619047619051
 40
0.9047619047619051
 40
0.9047619047619051
 40
0.9523809523809528
 40
0.9523809523809528
 40
0.9523809523809528
 40
0.9523809523809528
 40
1.0
 40
1.0
 40
1.0
 40
1.0
 10
-0.1822244094488189
 20
-0.5809251968503937
 30
0.0
 10
-0.1822244094488189
 20
-0.5809251968503937
 30
0.0
 10
-0.1770275590551181
 20
-0.5851456692913386
 30
0.0
 10
-0.1770275590551181
 20
-0.5851456692913386
 30
0.0
 10
-0.1770275590551181
 20
-0.5851456692913386
 30
0.0
 10
-0.1809724409448819
 20
-0.5898700787401575
 30
0.0
 10
-0.1848346456692913
 20
-0.5936181102362205
 30
0.0
 10
-0.1885275590551181
 20
-0.5963976377952757
 30
0.0
 10
-0.1885275590551181
 20
-0.5963976377952757
 30
0.0
 10
-0.192251968503937
 20
-0.5991456692913386
 30
0.0
 10
-0.1957795275590551
 20
-0.6010905511811024
 30
0.0
 10
-0.1990826771653543
 20
-0.6022047244094488
 30
0.0
 10
-0.1990826771653543
 20
-0.6022047244094488
 30
0.0
 10
-0.2023897637795276
 20
-0.6033149606299213
 30
0.0
 10
-0.2062795275590551
 20
-0.6038700787401575
 30
0.0
 10
-0.2107244094488189
 20
-0.6038700787401575
 30
0.0
 10
-0.2107244094488189
 20
-0.6038700787401575
 30
0.0
 10
-0.2186968503937008
 20
-0.6038700787401575
 30
0.0
 10
-0.2254724409448819
 20
-0.602259842519685
 30
0.0
 10
-0.2310551181102362
 20
-0.5990078740157481
 30
0.0
 10
-0.2310551181102362
 20
-0.5990078740157481
 30
0.0
 10
-0.2374724409448819
 20
-0.5952598425196851
 30
0.0
 10
-0.2423622047244095
 20
-0.5903700787401575
 30
0.0
 10
-0.2457795275590551
 20
-0.5843425196850394
 30
0.0
 10
-0.2457795275590551
 20
-0.5843425196850394
 30
0.0
 10
-0.2492244094488189
 20
-0.5783149606299213
 30
0.0
 10
-0.2509173228346457
 20
-0.571232283464567
 30
0.0
 10
-0.2509173228346457
 20
-0.5630354330708661
 30
0.0
 10
-0.2509173228346457
 20
-0.5630354330708661
 30
0.0
 10
-0.2509173228346457
 20
-0.5544527559055118
 30
0.0
 10
-0.249251968503937
 20
-0.5471181102362205
 30
0.0
 10
-0.2459448818897638
 20
-0.5410629921259843
 30
0.0
 10
-0.2459448818897638
 20
-0.5410629921259843
 30
0.0
 10
-0.2426377952755906
 20
-0.5349803149606299
 30
0.0
 10
-0.2380275590551181
 20
-0.5301771653543307
 30
0.0
 10
-0.2320826771653543
 20
-0.5266771653543307
 30
0.0
 10
-0.2320826771653543
 20
-0.5266771653543307
 30
0.0
 10
-0.2261417322834646
 20
-0.5232047244094489
 30
0.0
 10
-0.219251968503937
 20
-0.5214527559055119
 30
0.0
 10
-0.2114448818897638
 20
-0.5214527559055119
 30
0.0
 10
-0.2114448818897638
 20
-0.5214527559055119
 30
0.0
 10
-0.2056417322834646
 20
-0.5214527559055119
 30
0.0
 10
-0.2006141732283465
 20
-0.5223425196850394
 30
0.0
 10
-0.1963070866141732
 20
-0.5241771653543307
 30
0.0
 10
-0.1963070866141732
 20
-0.5241771653543307
 30
0.0
 10
-0.1920275590551181
 20
-0.5259803149606299
 30
0.0
 10
-0.1883897637795276
 20
-0.5287322834645669
 30
0.0
 10
-0.1854173228346457
 20
-0.5323976377952756
 30
0.0
 10
-0.1854173228346457
 20
-0.5323976377952756
 30
0.0
 10
-0.1824173228346457
 20
-0.5360354330708662
 30
0.0
 10
-0.180251968503937
 20
-0.540232283464567
 30
0.0
 10
-0.1788897637795276
 20
-0.5449527559055118
 30
0.0
 10
-0.1788897637795276
 20
-0.5449527559055118
 30
0.0
 10
-0.1781417322834646
 20
-0.5477322834645669
 30
0.0
 10
-0.1776968503937008
 20
-0.5513149606299213
 30
0.0
 10
-0.1775826771653543
 20
-0.5557047244094489
 30
0.0
 10
-0.1775826771653543
 20
-0.5557047244094489
 30
0.0
 10
-0.1775826771653543
 20
-0.5557047244094489
 30
0.0
 10
-0.2351377952755906
 20
-0.5557047244094489
 30
0.0
 10
-0.2351377952755906
 20
-0.5557047244094489
 30
0.0
 10
-0.2351377952755906
 20
-0.5557047244094489
 30
0.0
 10
-0.2353070866141732
 20
-0.5583700787401575
 30
0.0
 10
-0.2353622047244095
 20
-0.5603425196850393
 30
0.0
 10
-0.2353622047244095
 20
-0.5616496062992126
 30
0.0
 10
-0.2353622047244095
 20
-0.5616496062992126
 30
0.0
 10
-0.2353622047244095
 20
-0.5684803149606299
 30
0.0
 10
-0.2341692913385827
 20
-0.5745629921259843
 30
0.0
 10
-0.2318070866141732
 20
-0.5799251968503937
 30
0.0
 10
-0.2318070866141732
 20
-0.5799251968503937
 30
0.0
 10
-0.2294173228346457
 20
-0.5852598425196851
 30
0.0
 10
-0.226251968503937
 20
-0.5892047244094488
 30
0.0
 10
-0.2223070866141732
 20
-0.5917047244094489
 30
0.0
 10
-0.2223070866141732
 20
-0.5917047244094489
 30
0.0
 10
-0.2183897637795276
 20
-0.5942322834645669
 30
0.0
 10
-0.2139173228346457
 20
-0.595507874015748
 30
0.0
 10
-0.2089173228346457
 20
-0.595507874015748
 30
0.0
 10
-0.2089173228346457
 20
-0.595507874015748
 30
0.0
 10
-0.2046968503937008
 20
-0.595507874015748
 30
0.0
 10
-0.2006141732283465
 20
-0.594507874015748
 30
0.0
 10
-0.1966417322834646
 20
-0.5925354330708662
 30
0.0
 10
-0.1966417322834646
 20
-0.5925354330708662
 30
0.0
 10
-0.1926692913385827
 20
-0.5905354330708662
 30
0.0
 10
-0.1878897637795276
 20
-0.5866771653543307
 30
0.0
 10
-0.1822244094488189
 20
-0.5809251968503937
 30
0.0
  0
SPLINE
  5
4E
330
1F
100
AcDbEntity
  8
Layer 1
 62
   250
100
AcDbSpline
210
0.0
220
0.0
230
1.0
 70
    11
 71
     3
 72
    32
 73
    28
 74
     0
 42
0.0000000001
 43
0.0000000001
 40
0.0
 40
0.0
 40
0.0
 40
0.0
 40
0.1428571428571429
 40
0.1428571428571429
 40
0.1428571428571429
 40
0.1428571428571429
 40
0.2857142857142857
 40
0.2857142857142857
 40
0.2857142857142857
 40
0.2857142857142857
 40
0.4285714285714286
 40
0.4285714285714286
 40
0.4285714285714286
 40
0.4285714285714286
 40
0.5714285714285714
 40
0.5714285714285714
 40
0.5714285714285714
 40
0.5714285714285714
 40
0.7142857142857142
 40
0.7142857142857142
 40
0.7142857142857142
 40
0.7142857142857142
 40
0.857142857142857
 40
0.857142857142857
 40
0.857142857142857
 40
0.857142857142857
 40
1.0
 40
1.0
 40
1.0
 40
1.0
 10
-0.1926417322834646
 20
-0.5480629921259843
 30
0.0
 10
-0.1934724409448819
 20
-0.5430629921259843
 30
0.0
 10
-0.1946141732283465
 20
-0.5393700787401575
 30
0.0
 10
-0.1961141732283465
 20
-0.5369803149606299
 30
0.0
 10
-0.1961141732283465
 20
-0.5369803149606299
 30
0.0
 10
-0.1976141732283465
 20
-0.5345905511811024
 30
0.0
 10
-0.1997244094488189
 20
-0.5327047244094488
 30
0.0
 10
-0.2024448818897638
 20
-0.5312874015748031
 30
0.0
 10
-0.2024448818897638
 20
-0.5312874015748031
 30
0.0
 10
-0.2051968503937008
 20
-0.5298700787401575
 30
0.0
 10
-0.2082795275590551
 20
-0.5291771653543307
 30
0.0
 10
-0.2116968503937008
 20
-0.5291771653543307
 30
0.0
 10
-0.2116968503937008
 20
-0.5291771653543307
 30
0.0
 10
-0.2151102362204725
 20
-0.5291771653543307
 30
0.0
 10
-0.2183070866141732
 20
-0.5298700787401575
 30
0.0
 10
-0.2213070866141732
 20
-0.5312874015748031
 30
0.0
 10
-0.2213070866141732
 20
-0.5312874015748031
 30
0.0
 10
-0.2242795275590551
 20
-0.5327047244094488
 30
0.0
 10
-0.226751968503937
 20
-0.5346496062992127
 30
0.0
 10
-0.228751968503937
 20
-0.5371496062992126
 30
0.0
 10
-0.228751968503937
 20
-0.5371496062992126
 30
0.0
 10
-0.2307244094488189
 20
-0.5396496062992127
 30
0.0
 10
-0.2324448818897638
 20
-0.5432874015748032
 30
0.0
 10
-0.2339173228346457
 20
-0.5480629921259843
 30
0.0
 10
-0.2339173228346457
 20
-0.5480629921259843
 30
0.0
 10
-0.2339173228346457
 20
-0.5480629921259843
 30
0.0
 10
-0.1926417322834646
 20
-0.5480629921259843
 30
0.0
 10
-0.1926417322834646
 20
-0.5480629921259843
 30
0.0
  0
SPLINE
  5
4F
330
1F
100
AcDbEntity
  8
Layer 1
 62
   250
100
AcDbSpline
210
0.0
220
0.0
230
1.0
 70
    11
 71
     3
 72
   140
 73
   136
 74
     0
 42
0.0000000001
 43
0.0000000001
 40
0.0
 40
0.0
 40
0.0
 40
0.0
 40
0.0294117647058824
 40
0.0294117647058824
 40
0.0294117647058824
 40
0.0294117647058824
 40
0.0588235294117647
 40
0.0588235294117647
 40
0.0588235294117647
 40
0.0588235294117647
 40
0.0882352941176471
 40
0.0882352941176471
 40
0.0882352941176471
 40
0.0882352941176471
 40
0.1176470588235294
 40
0.1176470588235294
 40
0.1176470588235294
 40
0.1176470588235294
 40
0.1470588235294118
 40
0.1470588235294118
 40
0.1470588235294118
 40
0.1470588235294118
 40
0.1764705882352941
 40
0.1764705882352941
 40
0.1764705882352941
 40
0.1764705882352941
 40
0.2058823529411765
 40
0.2058823529411765
 40
0.2058823529411765
 40
0.2058823529411765
 40
0.2352941176470589
 40
0.2352941176470589
 40
0.2352941176470589
 40
0.2352941176470589
 40
0.2647058823529412
 40
0.2647058823529412
 40
0.2647058823529412
 40
0.2647058823529412
 40
0.2941176470588235
 40
0.2941176470588235
 40
0.2941176470588235
 40
0.2941176470588235
 40
0.3235294117647059
 40
0.3235294117647059
 40
0.3235294117647059
 40
0.3235294117647059
 40
0.3529411764705883
 40
0.3529411764705883
 40
0.3529411764705883
 40
0.3529411764705883
 40
0.3823529411764706
 40
0.3823529411764706
 40
0.3823529411764706
 40
0.3823529411764706
 40
0.411764705882353
 40
0.411764705882353
 40
0.411764705882353
 40
0.411764705882353
 40
0.4411764705882353
 40
0.4411764705882353
 40
0.4411764705882353
 40
0.4411764705882353
 40
0.4705882352941177
 40
0.4705882352941177
 40
0.4705882352941177
 40
0.4705882352941177
 40
0.5
 40
0.5
 40
0.5
 40
0.5
 40
0.5294117647058824
 40
0.5294117647058824
 40
0.5294117647058824
 40
0.5294117647058824
 40
0.5588235294117647
 40
0.5588235294117647
 40
0.5588235294117647
 40
0.5588235294117647
 40
0.5882352941176471
 40
0.5882352941176471
 40
0.5882352941176471
 40
0.5882352941176471
 40
0.6176470588235294
 40
0.6176470588235294
 40
0.6176470588235294
 40
0.6176470588235294
 40
0.6470588235294118
 40
0.6470588235294118
 40
0.6470588235294118
 40
0.6470588235294118
 40
0.6764705882352942
 40
0.6764705882352942
 40
0.6764705882352942
 40
0.6764705882352942
 40
0.7058823529411765
 40
0.7058823529411765
 40
0.7058823529411765
 40
0.7058823529411765
 40
0.7352941176470589
 40
0.7352941176470589
 40
0.7352941176470589
 40
0.7352941176470589
 40
0.7647058823529412
 40
0.7647058823529412
 40
0.7647058823529412
 40
0.7647058823529412
 40
0.7941176470588236
 40
0.7941176470588236
 40
0.7941176470588236
 40
0.7941176470588236
 40
0.823529411764706
 40
0.823529411764706
 40
0.823529411764706
 40
0.823529411764706
 40
0.8529411764705883
 40
0.8529411764705883
 40
0.8529411764705883
 40
0.8529411764705883
 40
0.8823529411764707
 40
0.8823529411764707
 40
0.8823529411764707
 40
0.8823529411764707
 40
0.911764705882353
 40
0.911764705882353
 40
0.911764705882353
 40
0.911764705882353
 40
0.9411764705882354
 40
0.9411764705882354
 40
0.9411764705882354
 40
0.9411764705882354
 40
0.9705882352941178
 40
0.9705882352941178
 40
0.9705882352941178
 40
0.9705882352941178
 40
1.0
 40
1.0
 40
1.0
 40
1.0
 10
-0.1067244094488189
 20
-0.5548149606299213
 30
0.0
 10
-0.1067244094488189
 20
-0.5548149606299213
 30
0.0
 10
-0.1067244094488189
 20
-0.5459251968503938
 30
0.0
 10
-0.1067244094488189
 20
-0.5459251968503938
 30
0.0
 10
-0.1067244094488189
 20
-0.5459251968503938
 30
0.0
 10
-0.1067244094488189
 20
-0.5399251968503938
 30
0.0
 10
-0.1083897637795276
 20
-0.5356220472440945
 30
0.0
 10
-0.111751968503937
 20
-0.5330354330708662
 30
0.0
 10
-0.111751968503937
 20
-0.5330354330708662
 30
0.0
 10
-0.1151141732283465
 20
-0.5304527559055119
 30
0.0
 10
-0.1198622047244095
 20
-0.5291771653543307
 30
0.0
 10
-0.126003937007874
 20
-0.5291771653543307
 30
0.0
 10
-0.126003937007874
 20
-0.5291771653543307
 30
0.0
 10
-0.1290314960629921
 20
-0.5291771653543307
 30
0.0
 10
-0.1316968503937008
 20
-0.5295354330708662
 30
0.0
 10
-0.1339763779527559
 20
-0.5302598425196851
 30
0.0
 10
-0.1339763779527559
 20
-0.5302598425196851
 30
0.0
 10
-0.136251968503937
 20
-0.531007874015748
 30
0.0
 10
-0.1380866141732283
 20
-0.532007874015748
 30
0.0
 10
-0.1394763779527559
 20
-0.5332874015748031
 30
0.0
 10
-0.1394763779527559
 20
-0.5332874015748031
 30
0.0
 10
-0.1408622047244095
 20
-0.5345629921259842
 30
0.0
 10
-0.1418622047244094
 20
-0.536007874015748
 30
0.0
 10
-0.1425314960629921
 20
-0.5376496062992127
 30
0.0
 10
-0.1425314960629921
 20
-0.5376496062992127
 30
0.0
 10
-0.1428070866141732
 20
-0.538232283464567
 30
0.0
 10
-0.1434448818897638
 20
-0.5405354330708662
 30
0.0
 10
-0.1444724409448819
 20
-0.5445629921259843
 30
0.0
 10
-0.1444724409448819
 20
-0.5445629921259843
 30
0.0
 10
-0.1457244094488189
 20
-0.5494251968503937
 30
0.0
 10
-0.148251968503937
 20
-0.5518700787401575
 30
0.0
 10
-0.1520590551181102
 20
-0.5518700787401575
 30
0.0
 10
-0.1520590551181102
 20
-0.5518700787401575
 30
0.0
 10
-0.1542244094488189
 20
-0.5518700787401575
 30
0.0
 10
-0.1559724409448819
 20
-0.5511496062992126
 30
0.0
 10
-0.1573070866141732
 20
-0.5497322834645669
 30
0.0
 10
-0.1573070866141732
 20
-0.5497322834645669
 30
0.0
 10
-0.1586141732283465
 20
-0.5482874015748032
 30
0.0
 10
-0.1592795275590551
 20
-0.5463425196850394
 30
0.0
 10
-0.1592795275590551
 20
-0.5438976377952756
 30
0.0
 10
-0.1592795275590551
 20
-0.5438976377952756
 30
0.0
 10
-0.1592795275590551
 20
-0.5403149606299212
 30
0.0
 10
-0.1579448818897638
 20
-0.5368149606299213
 30
0.0
 10
-0.1553070866141732
 20
-0.5333700787401575
 30
0.0
 10
-0.1553070866141732
 20
-0.5333700787401575
 30
0.0
 10
-0.1526417322834646
 20
-0.5299251968503937
 30
0.0
 10
-0.1485866141732284
 20
-0.5270629921259843
 30
0.0
 10
-0.1431417322834646
 20
-0.5248149606299213
 30
0.0
 10
-0.1431417322834646
 20
-0.5248149606299213
 30
0.0
 10
-0.1376968503937008
 20
-0.5225629921259842
 30
0.0
 10
-0.131251968503937
 20
-0.5214527559055119
 30
0.0
 10
-0.1238070866141732
 20
-0.5214527559055119
 30
0.0
 10
-0.1238070866141732
 20
-0.5214527559055119
 30
0.0
 10
-0.1168622047244095
 20
-0.5214527559055119
 30
0.0
 10
-0.1109173228346457
 20
-0.5225078740157481
 30
0.0
 10
-0.1059763779527559
 20
-0.5246496062992127
 30
0.0
 10
-0.1059763779527559
 20
-0.5246496062992127
 30
0.0
 10
-0.1010590551181102
 20
-0.5267874015748032
 30
0.0
 10
-0.0974173228346457
 20
-0.5298700787401575
 30
0.0
 10
-0.0950866141732283
 20
-0.5338976377952757
 30
0.0
 10
-0.0950866141732283
 20
-0.5338976377952757
 30
0.0
 10
-0.0934488188976378
 20
-0.5366496062992127
 30
0.0
 10
-0.0926417322834646
 20
-0.5417047244094488
 30
0.0
 10
-0.0926417322834646
 20
-0.5490354330708661
 30
0.0
 10
-0.0926417322834646
 20
-0.5490354330708661
 30
0.0
 10
-0.0926417322834646
 20
-0.5490354330708661
 30
0.0
 10
-0.0926417322834646
 20
-0.5803700787401575
 30
0.0
 10
-0.0926417322834646
 20
-0.5803700787401575
 30
0.0
 10
-0.0926417322834646
 20
-0.5803700787401575
 30
0.0
 10
-0.0926417322834646
 20
-0.5848149606299213
 30
0.0
 10
-0.092503937007874
 20
-0.5877047244094489
 30
0.0
 10
-0.0922244094488189
 20
-0.5890629921259842
 30
0.0
 10
-0.0922244094488189
 20
-0.5890629921259842
 30
0.0
 10
-0.0916417322834646
 20
-0.5913976377952757
 30
0.0
 10
-0.0905866141732283
 20
-0.5931456692913386
 30
0.0
 10
-0.0890866141732284
 20
-0.5943149606299213
 30
0.0
 10
-0.0890866141732284
 20
-0.5943149606299213
 30
0.0
 10
-0.0876141732283465
 20
-0.5954803149606299
 30
0.0
 10
-0.0856692913385827
 20
-0.5960629921259842
 30
0.0
 10
-0.0832795275590551
 20
-0.5960629921259842
 30
0.0
 10
-0.0832795275590551
 20
-0.5960629921259842
 30
0.0
 10
-0.0807795275590551
 20
-0.5960629921259842
 30
0.0
 10
-0.0778070866141732
 20
-0.5954803149606299
 30
0.0
 10
-0.0743346456692913
 20
-0.5942874015748032
 30
0.0
 10
-0.0743346456692913
 20
-0.5942874015748032
 30
0.0
 10
-0.0743346456692913
 20
-0.5942874015748032
 30
0.0
 10
-0.0743346456692913
 20
-0.6013425196850394
 30
0.0
 10
-0.0743346456692913
 20
-0.6013425196850394
 30
0.0
 10
-0.0743346456692913
 20
-0.6013425196850394
 30
0.0
 10
-0.0788346456692913
 20
-0.6026456692913386
 30
0.0
 10
-0.0828622047244095
 20
-0.6033149606299213
 30
0.0
 10
-0.0864488188976378
 20
-0.6033149606299213
 30
0.0
 10
-0.0864488188976378
 20
-0.6033149606299213
 30
0.0
 10
-0.0903070866141732
 20
-0.6033149606299213
 30
0.0
 10
-0.0935590551181102
 20
-0.6027598425196851
 30
0.0
 10
-0.0961692913385827
 20
-0.6016771653543307
 30
0.0
 10
-0.0961692913385827
 20
-0.6016771653543307
 30
0.0
 10
-0.0988070866141732
 20
-0.6005905511811024
 30
0.0
 10
-0.1009763779527559
 20
-0.5990078740157481
 30
0.0
 10
-0.1026417322834646
 20
-0.5969251968503937
 30
0.0
 10
-0.1026417322834646
 20
-0.5969251968503937
 30
0.0
 10
-0.1043346456692914
 20
-0.5948425196850394
 30
0.0
 10
-0.1054173228346457
 20
-0.5923425196850394
 30
0.0
 10
-0.1058897637795276
 20
-0.5894803149606299
 30
0.0
 10
-0.1058897637795276
 20
-0.5894803149606299
 30
0.0
 10
-0.1124173228346457
 20
-0.5945629921259843
 30
0.0
 10
-0.1183070866141732
 20
-0.5981456692913386
 30
0.0
 10
-0.1235590551181102
 20
-0.6002047244094488
 30
0.0
 10
-0.1235590551181102
 20
-0.6002047244094488
 30
0.0
 10
-0.1288346456692913
 20
-0.6022874015748032
 30
0.0
 10
-0.1341417322834646
 20
-0.6033149606299213
 30
0.0
 10
-0.139503937007874
 20
-0.6033149606299213
 30
0.0
 10
-0.139503937007874
 20
-0.6033149606299213
 30
0.0
 10
-0.147003937007874
 20
-0.6033149606299213
 30
0.0
 10
-0.1530866141732284
 20
-0.6012874015748032
 30
0.0
 10
-0.157751968503937
 20
-0.5972047244094488
 30
0.0
 10
-0.157751968503937
 20
-0.5972047244094488
 30
0.0
 10
-0.1624173228346457
 20
-0.5931456692913386
 30
0.0
 10
-0.164751968503937
 20
-0.5883700787401575
 30
0.0
 10
-0.164751968503937
 20
-0.5828700787401575
 30
0.0
 10
-0.164751968503937
 20
-0.5828700787401575
 30
0.0
 10
-0.164751968503937
 20
-0.5795629921259843
 30
0.0
 10
-0.1638897637795276
 20
-0.5764251968503937
 30
0.0
 10
-0.1621692913385827
 20
-0.5734527559055118
 30
0.0
 10
-0.1621692913385827
 20
-0.5734527559055118
 30
0.0
 10
-0.1604724409448819
 20
-0.5704527559055118
 30
0.0
 10
-0.1578622047244095
 20
-0.5678149606299213
 30
0.0
 10
-0.1543622047244095
 20
-0.5655354330708662
 30
0.0
 10
-0.1543622047244095
 20
-0.5655354330708662
 30
0.0
 10
-0.1508622047244095
 20
-0.5632598425196851
 30
0.0
 10
-0.1453622047244094
 20
-0.5612598425196851
 30
0.0
 10
-0.1378897637795276
 20
-0.5595354330708662
 30
0.0
 10
-0.1378897637795276
 20
-0.5595354330708662
 30
0.0
 10
-0.1303897637795276
 20
-0.5577874015748032
 30
0.0
 10
-0.120003937007874
 20
-0.5562047244094488
 30
0.0
 10
-0.1067244094488189
 20
-0.5548149606299213
 30
0.0
  0
SPLINE
  5
50
330
1F
100
AcDbEntity
  8
Layer 1
 62
   250
100
AcDbSpline
210
0.0
220
0.0
230
1.0
 70
    11
 71
     3
 72
    44
 73
    40
 74
     0
 42
0.0000000001
 43
0.0000000001
 40
0.0
 40
0.0
 40
0.0
 40
0.0
 40
0.1
 40
0.1
 40
0.1
 40
0.1
 40
0.2
 40
0.2
 40
0.2
 40
0.2
 40
0.3
 40
0.3
 40
0.3
 40
0.3
 40
0.4
 40
0.4
 40
0.4
 40
0.4
 40
0.5
 40
0.5
 40
0.5
 40
0.5
 40
0.6
 40
0.6
 40
0.6
 40
0.6
 40
0.7
 40
0.7
 40
0.7
 40
0.7
 40
0.7999999999999999
 40
0.7999999999999999
 40
0.7999999999999999
 40
0.7999999999999999
 40
0.8999999999999999
 40
0.8999999999999999
 40
0.8999999999999999
 40
0.8999999999999999
 40
1.0
 40
1.0
 40
1.0
 40
1.0
 10
-0.1067244094488189
 20
-0.5618976377952756
 30
0.0
 10
-0.1193070866141732
 20
-0.5637322834645669
 30
0.0
 10
-0.1270866141732284
 20
-0.565007874015748
 30
0.0
 10
-0.1300866141732283
 20
-0.5657047244094489
 30
0.0
 10
-0.1300866141732283
 20
-0.5657047244094489
 30
0.0
 10
-0.1359763779527559
 20
-0.5670629921259843
 30
0.0
 10
-0.1402244094488189
 20
-0.5685629921259843
 30
0.0
 10
-0.1427795275590551
 20
-0.5701771653543307
 30
0.0
 10
-0.1427795275590551
 20
-0.5701771653543307
 30
0.0
 10
-0.1453070866141732
 20
-0.5718149606299213
 30
0.0
 10
-0.1471417322834646
 20
-0.5735629921259843
 30
0.0
 10
-0.1482244094488189
 20
-0.5754251968503937
 30
0.0
 10
-0.1482244094488189
 20
-0.5754251968503937
 30
0.0
 10
-0.1493070866141733
 20
-0.5773149606299213
 30
0.0
 10
-0.1498346456692913
 20
-0.5793149606299213
 30
0.0
 10
-0.1498346456692913
 20
-0.5814251968503937
 30
0.0
 10
-0.1498346456692913
 20
-0.5814251968503937
 30
0.0
 10
-0.1498346456692913
 20
-0.5835354330708662
 30
0.0
 10
-0.149251968503937
 20
-0.5855905511811024
 30
0.0
 10
-0.1480314960629921
 20
-0.5875629921259843
 30
0.0
 10
-0.1480314960629921
 20
-0.5875629921259843
 30
0.0
 10
-0.1468070866141732
 20
-0.5895354330708662
 30
0.0
 10
-0.1450866141732284
 20
-0.5910905511811024
 30
0.0
 10
-0.1428622047244094
 20
-0.5922322834645669
 30
0.0
 10
-0.1428622047244094
 20
-0.5922322834645669
 30
0.0
 10
-0.1406141732283465
 20
-0.5933700787401575
 30
0.0
 10
-0.138251968503937
 20
-0.5939527559055119
 30
0.0
 10
-0.1357795275590551
 20
-0.5939527559055119
 30
0.0
 10
-0.1357795275590551
 20
-0.5939527559055119
 30
0.0
 10
-0.132251968503937
 20
-0.5939527559055119
 30
0.0
 10
-0.128251968503937
 20
-0.5931181102362205
 30
0.0
 10
-0.1238070866141732
 20
-0.5914251968503937
 30
0.0
 10
-0.1238070866141732
 20
-0.5914251968503937
 30
0.0
 10
-0.1193622047244095
 20
-0.5897598425196851
 30
0.0
 10
-0.1136692913385827
 20
-0.5864527559055118
 30
0.0
 10
-0.1067244094488189
 20
-0.5815905511811024
 30
0.0
 10
-0.1067244094488189
 20
-0.5815905511811024
 30
0.0
 10
-0.1067244094488189
 20
-0.5815905511811024
 30
0.0
 10
-0.1067244094488189
 20
-0.5618976377952756
 30
0.0
 10
-0.1067244094488189
 20
-0.5618976377952756
 30
0.0
  0
SPLINE
  5
51
330
1F
100
AcDbEntity
  8
Layer 1
 62
   250
100
AcDbSpline
210
0.0
220
0.0
230
1.0
 70
    11
 71
     3
 72
    96
 73
    92
 74
     0
 42
0.0000000001
 43
0.0000000001
 40
0.0
 40
0.0
 40
0.0
 40
0.0
 40
0.0434782608695652
 40
0.0434782608695652
 40
0.0434782608695652
 40
0.0434782608695652
 40
0.0869565217391304
 40
0.0869565217391304
 40
0.0869565217391304
 40
0.0869565217391304
 40
0.1304347826086957
 40
0.1304347826086957
 40
0.1304347826086957
 40
0.1304347826086957
 40
0.1739130434782609
 40
0.1739130434782609
 40
0.1739130434782609
 40
0.1739130434782609
 40
0.2173913043478261
 40
0.2173913043478261
 40
0.2173913043478261
 40
0.2173913043478261
 40
0.2608695652173913
 40
0.2608695652173913
 40
0.2608695652173913
 40
0.2608695652173913
 40
0.3043478260869565
 40
0.3043478260869565
 40
0.3043478260869565
 40
0.3043478260869565
 40
0.3478260869565217
 40
0.3478260869565217
 40
0.3478260869565217
 40
0.3478260869565217
 40
0.3913043478260869
 40
0.3913043478260869
 40
0.3913043478260869
 40
0.3913043478260869
 40
0.4347826086956521
 40
0.4347826086956521
 40
0.4347826086956521
 40
0.4347826086956521
 40
0.4782608695652173
 40
0.4782608695652173
 40
0.4782608695652173
 40
0.4782608695652173
 40
0.5217391304347825
 40
0.5217391304347825
 40
0.5217391304347825
 40
0.5217391304347825
 40
0.5652173913043477
 40
0.5652173913043477
 40
0.5652173913043477
 40
0.5652173913043477
 40
0.6086956521739129
 40
0.6086956521739129
 40
0.6086956521739129
 40
0.6086956521739129
 40
0.6521739130434781
 40
0.6521739130434781
 40
0.6521739130434781
 40
0.6521739130434781
 40
0.6956521739130432
 40
0.6956521739130432
 40
0.6956521739130432
 40
0.6956521739130432
 40
0.7391304347826084
 40
0.7391304347826084
 40
0.7391304347826084
 40
0.7391304347826084
 40
0.7826086956521736
 40
0.7826086956521736
 40
0.7826086956521736
 40
0.7826086956521736
 40
0.8260869565217388
 40
0.8260869565217388
 40
0.8260869565217388
 40
0.8260869565217388
 40
0.869565217391304
 40
0.869565217391304
 40
0.869565217391304
 40
0.869565217391304
 40
0.9130434782608692
 40
0.9130434782608692
 40
0.9130434782608692
 40
0.9130434782608692
 40
0.9565217391304344
 40
0.9565217391304344
 40
0.9565217391304344
 40
0.9565217391304344
 40
1.0
 40
1.0
 40
1.0
 40
1.0
 10
-0.0178661417322835
 20
-0.4962874015748032
 30
0.0
 10
-0.0178661417322835
 20
-0.4962874015748032
 30
0.0
 10
-0.0178661417322835
 20
-0.4893700787401575
 30
0.0
 10
-0.0178661417322835
 20
-0.4893700787401575
 30
0.0
 10
-0.0178661417322835
 20
-0.4893700787401575
 30
0.0
 10
-0.0141692913385827
 20
-0.4890669291338583
 30
0.0
 10
-0.0108110236220472
 20
-0.4884251968503937
 30
0.0
 10
-0.0077244094488189
 20
-0.4874527559055119
 30
0.0
 10
-0.0077244094488189
 20
-0.4874527559055119
 30
0.0
 10
-0.0046692913385827
 20
-0.4865078740157481
 30
0.0
 10
-0.0008385826771654
 20
-0.4848700787401575
 30
0.0
 10
0.0037755905511811
 20
-0.4825354330708662
 30
0.0
 10
0.0037755905511811
 20
-0.4825354330708662
 30
0.0
 10
0.0037755905511811
 20
-0.4825354330708662
 30
0.0
 10
0.0098858267716535
 20
-0.4825354330708662
 30
0.0
 10
0.0098858267716535
 20
-0.4825354330708662
 30
0.0
 10
0.0098858267716535
 20
-0.4825354330708662
 30
0.0
 10
0.0098858267716535
 20
-0.4825354330708662
 30
0.0
 10
0.0098858267716535
 20
-0.5812598425196851
 30
0.0
 10
0.0098858267716535
 20
-0.5812598425196851
 30
0.0
 10
0.0098858267716535
 20
-0.5812598425196851
 30
0.0
 10
0.0098858267716535
 20
-0.5858149606299213
 30
0.0
 10
0.009996062992126
 20
-0.5885905511811024
 30
0.0
 10
0.0102165354330709
 20
-0.5895629921259843
 30
0.0
 10
0.0102165354330709
 20
-0.5895629921259843
 30
0.0
 10
0.010744094488189
 20
-0.5916181102362205
 30
0.0
 10
0.0116614173228346
 20
-0.5930629921259842
 30
0.0
 10
0.0129685039370079
 20
-0.5938700787401575
 30
0.0
 10
0.0129685039370079
 20
-0.5938700787401575
 30
0.0
 10
0.0142755905511811
 20
-0.5946771653543307
 30
0.0
 10
0.0168031496062992
 20
-0.5950905511811024
 30
0.0
 10
0.0205511811023622
 20
-0.5950905511811024
 30
0.0
 10
0.0205511811023622
 20
-0.5950905511811024
 30
0.0
 10
0.0205511811023622
 20
-0.5950905511811024
 30
0.0
 10
0.0240511811023622
 20
-0.5950905511811024
 30
0.0
 10
0.0240511811023622
 20
-0.5950905511811024
 30
0.0
 10
0.0240511811023622
 20
-0.5950905511811024
 30
0.0
 10
0.0240511811023622
 20
-0.5950905511811024
 30
0.0
 10
0.0240511811023622
 20
-0.6019251968503937
 30
0.0
 10
0.0240511811023622
 20
-0.6019251968503937
 30
0.0
 10
0.0240511811023622
 20
-0.6019251968503937
 30
0.0
 10
0.0240511811023622
 20
-0.6019251968503937
 30
0.0
 10
-0.0041968503937008
 20
-0.6032322834645669
 30
0.0
 10
-0.0041968503937008
 20
-0.6032322834645669
 30
0.0
 10
-0.0041968503937008
 20
-0.6032322834645669
 30
0.0
 10
-0.0041968503937008
 20
-0.6032322834645669
 30
0.0
 10
-0.0041968503937008
 20
-0.5902874015748032
 30
0.0
 10
-0.0041968503937008
 20
-0.5902874015748032
 30
0.0
 10
-0.0041968503937008
 20
-0.5902874015748032
 30
0.0
 10
-0.0096141732283465
 20
-0.5952322834645669
 30
0.0
 10
-0.0146968503937008
 20
-0.598732283464567
 30
0.0
 10
-0.0194488188976378
 20
-0.6007874015748032
 30
0.0
 10
-0.0194488188976378
 20
-0.6007874015748032
 30
0.0
 10
-0.0241968503937008
 20
-0.6028425196850394
 30
0.0
 10
-0.0289488188976378
 20
-0.6038700787401575
 30
0.0
 10
-0.0337244094488189
 20
-0.6038700787401575
 30
0.0
 10
-0.0337244094488189
 20
-0.6038700787401575
 30
0.0
 10
-0.0435590551181102
 20
-0.6038700787401575
 30
0.0
 10
-0.0516968503937008
 20
-0.5999251968503937
 30
0.0
 10
-0.0581968503937008
 20
-0.5920354330708662
 30
0.0
 10
-0.0581968503937008
 20
-0.5920354330708662
 30
0.0
 10
-0.0646692913385827
 20
-0.5841456692913386
 30
0.0
 10
-0.0679212598425197
 20
-0.5746456692913387
 30
0.0
 10
-0.0679212598425197
 20
-0.5635078740157481
 30
0.0
 10
-0.0679212598425197
 20
-0.5635078740157481
 30
0.0
 10
-0.0679212598425197
 20
-0.5555905511811023
 30
0.0
 10
-0.0661968503937008
 20
-0.5483425196850394
 30
0.0
 10
-0.062751968503937
 20
-0.5417322834645669
 30
0.0
 10
-0.062751968503937
 20
-0.5417322834645669
 30
0.0
 10
-0.0593070866141732
 20
-0.5351496062992126
 30
0.0
 10
-0.054751968503937
 20
-0.5301220472440945
 30
0.0
 10
-0.0491141732283465
 20
-0.5266496062992127
 30
0.0
 10
-0.0491141732283465
 20
-0.5266496062992127
 30
0.0
 10
-0.0434763779527559
 20
-0.5231771653543307
 30
0.0
 10
-0.0372795275590551
 20
-0.5214527559055119
 30
0.0
 10
-0.0305590551181102
 20
-0.5214527559055119
 30
0.0
 10
-0.0305590551181102
 20
-0.5214527559055119
 30
0.0
 10
-0.0253937007874016
 20
-0.5214527559055119
 30
0.0
 10
-0.0206417322834646
 20
-0.5223425196850394
 30
0.0
 10
-0.0162244094488189
 20
-0.5241220472440945
 30
0.0
 10
-0.0162244094488189
 20
-0.5241220472440945
 30
0.0
 10
-0.0118385826771654
 20
-0.5259251968503937
 30
0.0
 10
-0.0078385826771654
 20
-0.5285905511811024
 30
0.0
 10
-0.0041968503937008
 20
-0.5321771653543307
 30
0.0
 10
-0.0041968503937008
 20
-0.5321771653543307
 30
0.0
 10
-0.0041968503937008
 20
-0.5321771653543307
 30
0.0
 10
-0.0041968503937008
 20
-0.4962874015748032
 30
0.0
 10
-0.0041968503937008
 20
-0.4962874015748032
 30
0.0
 10
-0.0041968503937008
 20
-0.4962874015748032
 30
0.0
 10
-0.0041968503937008
 20
-0.4962874015748032
 30
0.0
 10
-0.0178661417322835
 20
-0.4962874015748032
 30
0.0
 10
-0.0178661417322835
 20
-0.4962874015748032
 30
0.0
  0
SPLINE
  5
52
330
1F
100
AcDbEntity
  8
Layer 1
 62
   250
100
AcDbSpline
210
0.0
220
0.0
230
1.0
 70
    11
 71
     3
 72
    52
 73
    48
 74
     0
 42
0.0000000001
 43
0.0000000001
 40
0.0
 40
0.0
 40
0.0
 40
0.0
 40
0.0833333333333333
 40
0.0833333333333333
 40
0.0833333333333333
 40
0.0833333333333333
 40
0.1666666666666667
 40
0.1666666666666667
 40
0.1666666666666667
 40
0.1666666666666667
 40
0.25
 40
0.25
 40
0.25
 40
0.25
 40
0.3333333333333333
 40
0.3333333333333333
 40
0.3333333333333333
 40
0.3333333333333333
 40
0.4166666666666666
 40
0.4166666666666666
 40
0.4166666666666666
 40
0.4166666666666666
 40
0.4999999999999999
 40
0.4999999999999999
 40
0.4999999999999999
 40
0.4999999999999999
 40
0.5833333333333333
 40
0.5833333333333333
 40
0.5833333333333333
 40
0.5833333333333333
 40
0.6666666666666666
 40
0.6666666666666666
 40
0.6666666666666666
 40
0.6666666666666666
 40
0.75
 40
0.75
 40
0.75
 40
0.75
 40
0.8333333333333334
 40
0.8333333333333334
 40
0.8333333333333334
 40
0.8333333333333334
 40
0.9166666666666667
 40
0.9166666666666667
 40
0.9166666666666667
 40
0.9166666666666667
 40
1.0
 40
1.0
 40
1.0
 40
1.0
 10
-0.0041968503937008
 20
-0.5822322834645669
 30
0.0
 10
-0.0041968503937008
 20
-0.5822322834645669
 30
0.0
 10
-0.0041968503937008
 20
-0.55148031496063
 30
0.0
 10
-0.0041968503937008
 20
-0.55148031496063
 30
0.0
 10
-0.0041968503937008
 20
-0.55148031496063
 30
0.0
 10
-0.0041968503937008
 20
-0.5470629921259843
 30
0.0
 10
-0.0050314960629921
 20
-0.54348031496063
 30
0.0
 10
-0.0066692913385827
 20
-0.5406771653543308
 30
0.0
 10
-0.0066692913385827
 20
-0.5406771653543308
 30
0.0
 10
-0.0083385826771654
 20
-0.5378976377952757
 30
0.0
 10
-0.0110314960629921
 20
-0.5354527559055118
 30
0.0
 10
-0.0148110236220472
 20
-0.5333976377952756
 30
0.0
 10
-0.0148110236220472
 20
-0.5333976377952756
 30
0.0
 10
-0.0185866141732283
 20
-0.5313425196850394
 30
0.0
 10
-0.0224488188976378
 20
-0.5303149606299212
 30
0.0
 10
-0.0264212598425197
 20
-0.5303149606299212
 30
0.0
 10
-0.0264212598425197
 20
-0.5303149606299212
 30
0.0
 10
-0.0311417322834646
 20
-0.5303149606299212
 30
0.0
 10
-0.0354763779527559
 20
-0.5315905511811024
 30
0.0
 10
-0.0394763779527559
 20
-0.5341771653543307
 30
0.0
 10
-0.0394763779527559
 20
-0.5341771653543307
 30
0.0
 10
-0.0434488188976378
 20
-0.536759842519685
 30
0.0
 10
-0.0465866141732283
 20
-0.54048031496063
 30
0.0
 10
-0.0488385826771654
 20
-0.5453149606299212
 30
0.0
 10
-0.0488385826771654
 20
-0.5453149606299212
 30
0.0
 10
-0.0510866141732284
 20
-0.5501771653543307
 30
0.0
 10
-0.0521968503937008
 20
-0.5560629921259843
 30
0.0
 10
-0.0521968503937008
 20
-0.5629527559055119
 30
0.0
 10
-0.0521968503937008
 20
-0.5629527559055119
 30
0.0
 10
-0.0521968503937008
 20
-0.5694527559055118
 30
0.0
 10
-0.0511692913385827
 20
-0.5750905511811024
 30
0.0
 10
-0.0490866141732283
 20
-0.5798425196850394
 30
0.0
 10
-0.0490866141732283
 20
-0.5798425196850394
 30
0.0
 10
-0.0469763779527559
 20
-0.5845629921259843
 30
0.0
 10
-0.0441692913385827
 20
-0.5881771653543307
 30
0.0
 10
-0.0406417322834646
 20
-0.5906456692913387
 30
0.0
 10
-0.0406417322834646
 20
-0.5906456692913387
 30
0.0
 10
-0.0371141732283465
 20
-0.5931181102362205
 30
0.0
 10
-0.033503937007874
 20
-0.5943700787401575
 30
0.0
 10
-0.0298385826771654
 20
-0.5943700787401575
 30
0.0
 10
-0.0298385826771654
 20
-0.5943700787401575
 30
0.0
 10
-0.0261968503937008
 20
-0.5943700787401575
 30
0.0
 10
-0.0220590551181102
 20
-0.5933149606299213
 30
0.0
 10
-0.0174488188976378
 20
-0.5912322834645669
 30
0.0
 10
-0.0174488188976378
 20
-0.5912322834645669
 30
0.0
 10
-0.0128385826771654
 20
-0.5891456692913386
 30
0.0
 10
-0.0084212598425197
 20
-0.5861456692913386
 30
0.0
 10
-0.0041968503937008
 20
-0.5822322834645669
 30
0.0
  0
SPLINE
  5
53
330
1F
100
AcDbEntity
  8
Layer 1
 62
   252
100
AcDbSpline
210
0.0
220
0.0
230
1.0
 70
    11
 71
     3
 72
    20
 73
    16
 74
     0
 42
0.0000000001
 43
0.0000000001
 40
0.0
 40
0.0
 40
0.0
 40
0.0
 40
0.25
 40
0.25
 40
0.25
 40
0.25
 40
0.5
 40
0.5
 40
0.5
 40
0.5
 40
0.75
 40
0.75
 40
0.75
 40
0.75
 40
1.0
 40
1.0
 40
1.0
 40
1.0
 10
0.1890708661417323
 20
0.248744094488189
 30
0.0
 10
0.1890708661417323
 20
0.248744094488189
 30
0.0
 10
0.8181062992125985
 20
0.6072677165354331
 30
0.0
 10
0.8181062992125985
 20
0.6072677165354331
 30
0.0
 10
0.8181062992125985
 20
0.6072677165354331
 30
0.0
 10
0.8181062992125985
 20
0.6072677165354331
 30
0.0
 10
0.2875314960629922
 20
0.6072677165354331
 30
0.0
 10
0.2875314960629922
 20
0.6072677165354331
 30
0.0
 10
0.2875314960629922
 20
0.6072677165354331
 30
0.0
 10
0.2875314960629922
 20
0.6072677165354331
 30
0.0
 10
-0.341503937007874
 20
0.248744094488189
 30
0.0
 10
-0.341503937007874
 20
0.248744094488189
 30
0.0
 10
-0.341503937007874
 20
0.248744094488189
 30
0.0
 10
-0.341503937007874
 20
0.248744094488189
 30
0.0
 10
0.1890708661417323
 20
0.248744094488189
 30
0.0
 10
0.1890708661417323
 20
0.248744094488189
 30
0.0
  0
SPLINE
  5
54
330
1F
100
AcDbEntity
  8
Layer 1
 62
   250
370
     5
100
AcDbSpline
210
0.0
220
0.0
230
1.0
 70
    11
 71
     3
 72
    20
 73
    16
 74
     0
 42
0.0000000001
 43
0.0000000001
 40
0.0
 40
0.0
 40
0.0
 40
0.0
 40
0.25
 40
0.25
 40
0.25
 40
0.25
 40
0.5
 40
0.5
 40
0.5
 40
0.5
 40
0.75
 40
0.75
 40
0.75
 40
0.75
 40
1.0
 40
1.0
 40
1.0
 40
1.0
 10
0.1890708661417323
 20
0.248744094488189
 30
0.0
 10
0.1890708661417323
 20
0.248744094488189
 30
0.0
 10
0.8181062992125985
 20
0.6072677165354331
 30
0.0
 10
0.8181062992125985
 20
0.6072677165354331
 30
0.0
 10
0.8181062992125985
 20
0.6072677165354331
 30
0.0
 10
0.8181062992125985
 20
0.6072677165354331
 30
0.0
 10
0.2875314960629922
 20
0.6072677165354331
 30
0.0
 10
0.2875314960629922
 20
0.6072677165354331
 30
0.0
 10
0.2875314960629922
 20
0.6072677165354331
 30
0.0
 10
0.2875314960629922
 20
0.6072677165354331
 30
0.0
 10
-0.341503937007874
 20
0.248744094488189
 30
0.0
 10
-0.341503937007874
 20
0.248744094488189
 30
0.0
 10
-0.341503937007874
 20
0.248744094488189
 30
0.0
 10
-0.341503937007874
 20
0.248744094488189
 30
0.0
 10
0.1890708661417323
 20
0.248744094488189
 30
0.0
 10
0.1890708661417323
 20
0.248744094488189
 30
0.0
  0
SPLINE
  5
55
330
1F
100
AcDbEntity
  8
Layer 1
 62
   252
100
AcDbSpline
210
0.0
220
0.0
230
1.0
 70
    11
 71
     3
 72
    20
 73
    16
 74
     0
 42
0.0000000001
 43
0.0000000001
 40
0.0
 40
0.0
 40
0.0
 40
0.0
 40
0.25
 40
0.25
 40
0.25
 40
0.25
 40
0.5
 40
0.5
 40
0.5
 40
0.5
 40
0.75
 40
0.75
 40
0.75
 40
0.75
 40
1.0
 40
1.0
 40
1.0
 40
1.0
 10
-0.5683818897637796
 20
0.248744094488189
 30
0.0
 10
-0.5683818897637796
 20
0.248744094488189
 30
0.0
 10
0.0606535433070866
 20
0.6072677165354331
 30
0.0
 10
0.0606535433070866
 20
0.6072677165354331
 30
0.0
 10
0.0606535433070866
 20
0.6072677165354331
 30
0.0
 10
0.0606535433070866
 20
0.6072677165354331
 30
0.0
 10
-0.0253228346456693
 20
0.6072677165354331
 30
0.0
 10
-0.0253228346456693
 20
0.6072677165354331
 30
0.0
 10
-0.0253228346456693
 20
0.6072677165354331
 30
0.0
 10
-0.0253228346456693
 20
0.6072677165354331
 30
0.0
 10
-0.6543582677165355
 20
0.248744094488189
 30
0.0
 10
-0.6543582677165355
 20
0.248744094488189
 30
0.0
 10
-0.6543582677165355
 20
0.248744094488189
 30
0.0
 10
-0.6543582677165355
 20
0.248744094488189
 30
0.0
 10
-0.5683818897637796
 20
0.248744094488189
 30
0.0
 10
-0.5683818897637796
 20
0.248744094488189
 30
0.0
  0
SPLINE
  5
56
330
1F
100
AcDbEntity
  8
Layer 1
 62
   250
370
     5
100
AcDbSpline
210
0.0
220
0.0
230
1.0
 70
    11
 71
     3
 72
    20
 73
    16
 74
     0
 42
0.0000000001
 43
0.0000000001
 40
0.0
 40
0.0
 40
0.0
 40
0.0
 40
0.25
 40
0.25
 40
0.25
 40
0.25
 40
0.5
 40
0.5
 40
0.5
 40
0.5
 40
0.75
 40
0.75
 40
0.75
 40
0.75
 40
1.0
 40
1.0
 40
1.0
 40
1.0
 10
-0.5683818897637796
 20
0.248744094488189
 30
0.0
 10
-0.5683818897637796
 20
0.248744094488189
 30
0.0
 10
0.0606535433070866
 20
0.6072677165354331
 30
0.0
 10
0.0606535433070866
 20
0.6072677165354331
 30
0.0
 10
0.0606535433070866
 20
0.6072677165354331
 30
0.0
 10
0.0606535433070866
 20
0.6072677165354331
 30
0.0
 10
-0.0253228346456693
 20
0.6072677165354331
 30
0.0
 10
-0.0253228346456693
 20
0.6072677165354331
 30
0.0
 10
-0.0253228346456693
 20
0.6072677165354331
 30
0.0
 10
-0.0253228346456693
 20
0.6072677165354331
 30
0.0
 10
-0.6543582677165355
 20
0.248744094488189
 30
0.0
 10
-0.6543582677165355
 20
0.248744094488189
 30
0.0
 10
-0.6543582677165355
 20
0.248744094488189
 30
0.0
 10
-0.6543582677165355
 20
0.248744094488189
 30
0.0
 10
-0.5683818897637796
 20
0.248744094488189
 30
0.0
 10
-0.5683818897637796
 20
0.248744094488189
 30
0.0
  0
SPLINE
  5
57
330
1F
100
AcDbEntity
  8
Layer 1
 62
   253
100
AcDbSpline
210
0.0
220
0.0
230
1.0
 70
    11
 71
     3
 72
    20
 73
    16
 74
     0
 42
0.0000000001
 43
0.0000000001
 40
0.0
 40
0.0
 40
0.0
 40
0.0
 40
0.25
 40
0.25
 40
0.25
 40
0.25
 40
0.5
 40
0.5
 40
0.5
 40
0.5
 40
0.75
 40
0.75
 40
0.75
 40
0.75
 40
1.0
 40
1.0
 40
1.0
 40
1.0
 10
-0.6543582677165355
 20
0.248744094488189
 30
0.0
 10
-0.6543582677165355
 20
0.248744094488189
 30
0.0
 10
-0.0253228346456693
 20
0.6072677165354331
 30
0.0
 10
-0.0253228346456693
 20
0.6072677165354331
 30
0.0
 10
-0.0253228346456693
 20
0.6072677165354331
 30
0.0
 10
-0.0253228346456693
 20
0.6072677165354331
 30
0.0
 10
-0.0493267716535433
 20
0.9248582677165355
 30
0.0
 10
-0.0493267716535433
 20
0.9248582677165355
 30
0.0
 10
-0.0493267716535433
 20
0.9248582677165355
 30
0.0
 10
-0.0493267716535433
 20
0.9248582677165355
 30
0.0
 10
-0.6783622047244095
 20
0.5663346456692914
 30
0.0
 10
-0.6783622047244095
 20
0.5663346456692914
 30
0.0
 10
-0.6783622047244095
 20
0.5663346456692914
 30
0.0
 10
-0.6783622047244095
 20
0.5663346456692914
 30
0.0
 10
-0.6543582677165355
 20
0.248744094488189
 30
0.0
 10
-0.6543582677165355
 20
0.248744094488189
 30
0.0
  0
SPLINE
  5
58
330
1F
100
AcDbEntity
  8
Layer 1
 62
   250
370
     5
100
AcDbSpline
210
0.0
220
0.0
230
1.0
 70
    11
 71
     3
 72
    20
 73
    16
 74
     0
 42
0.0000000001
 43
0.0000000001
 40
0.0
 40
0.0
 40
0.0
 40
0.0
 40
0.25
 40
0.25
 40
0.25
 40
0.25
 40
0.5
 40
0.5
 40
0.5
 40
0.5
 40
0.75
 40
0.75
 40
0.75
 40
0.75
 40
1.0
 40
1.0
 40
1.0
 40
1.0
 10
-0.6543582677165355
 20
0.248744094488189
 30
0.0
 10
-0.6543582677165355
 20
0.248744094488189
 30
0.0
 10
-0.0253228346456693
 20
0.6072677165354331
 30
0.0
 10
-0.0253228346456693
 20
0.6072677165354331
 30
0.0
 10
-0.0253228346456693
 20
0.6072677165354331
 30
0.0
 10
-0.0253228346456693
 20
0.6072677165354331
 30
0.0
 10
-0.0493267716535433
 20
0.9248582677165355
 30
0.0
 10
-0.0493267716535433
 20
0.9248582677165355
 30
0.0
 10
-0.0493267716535433
 20
0.9248582677165355
 30
0.0
 10
-0.0493267716535433
 20
0.9248582677165355
 30
0.0
 10
-0.6783622047244095
 20
0.5663346456692914
 30
0.0
 10
-0.6783622047244095
 20
0.5663346456692914
 30
0.0
 10
-0.6783622047244095
 20
0.5663346456692914
 30
0.0
 10
-0.6783622047244095
 20
0.5663346456692914
 30
0.0
 10
-0.6543582677165355
 20
0.248744094488189
 30
0.0
 10
-0.6543582677165355
 20
0.248744094488189
 30
0.0
  0
SPLINE
  5
59
330
1F
100
AcDbEntity
  8
Layer 1
 62
   253
100
AcDbSpline
210
0.0
220
0.0
230
1.0
 70
    11
 71
     3
 72
    44
 73
    40
 74
     0
 42
0.0000000001
 43
0.0000000001
 40
0.0
 40
0.0
 40
0.0
 40
0.0
 40
0.1
 40
0.1
 40
0.1
 40
0.1
 40
0.2
 40
0.2
 40
0.2
 40
0.2
 40
0.3
 40
0.3
 40
0.3
 40
0.3
 40
0.4
 40
0.4
 40
0.4
 40
0.4
 40
0.5
 40
0.5
 40
0.5
 40
0.5
 40
0.6
 40
0.6
 40
0.6
 40
0.6
 40
0.7
 40
0.7
 40
0.7
 40
0.7
 40
0.7999999999999999
 40
0.7999999999999999
 40
0.7999999999999999
 40
0.7999999999999999
 40
0.8999999999999999
 40
0.8999999999999999
 40
0.8999999999999999
 40
0.8999999999999999
 40
1.0
 40
1.0
 40
1.0
 40
1.0
 10
-0.341503937007874
 20
0.248744094488189
 30
0.0
 10
-0.341503937007874
 20
0.248744094488189
 30
0.0
 10
0.2875314960629922
 20
0.6072677165354331
 30
0.0
 10
0.2875314960629922
 20
0.6072677165354331
 30
0.0
 10
0.2875314960629922
 20
0.6072677165354331
 30
0.0
 10
0.2875314960629922
 20
0.6072677165354331
 30
0.0
 10
0.2869488188976378
 20
0.6188582677165354
 30
0.0
 10
0.2869488188976378
 20
0.6188582677165354
 30
0.0
 10
0.2869488188976378
 20
0.6188582677165354
 30
0.0
 10
0.2869488188976378
 20
0.6188582677165354
 30
0.0
 10
0.2852283464566929
 20
0.6301181102362204
 30
0.0
 10
0.2852283464566929
 20
0.6301181102362204
 30
0.0
 10
0.2852283464566929
 20
0.6301181102362204
 30
0.0
 10
0.2852283464566929
 20
0.6301181102362204
 30
0.0
 10
0.2824370078740158
 20
0.640988188976378
 30
0.0
 10
0.2824370078740158
 20
0.640988188976378
 30
0.0
 10
0.2824370078740158
 20
0.640988188976378
 30
0.0
 10
0.2824370078740158
 20
0.640988188976378
 30
0.0
 10
0.2786181102362205
 20
0.6514133858267717
 30
0.0
 10
0.2786181102362205
 20
0.6514133858267717
 30
0.0
 10
0.2786181102362205
 20
0.6514133858267717
 30
0.0
 10
0.2786181102362205
 20
0.6514133858267717
 30
0.0
 10
-0.3504173228346457
 20
0.2928897637795276
 30
0.0
 10
-0.3504173228346457
 20
0.2928897637795276
 30
0.0
 10
-0.3504173228346457
 20
0.2928897637795276
 30
0.0
 10
-0.3504173228346457
 20
0.2928897637795276
 30
0.0
 10
-0.3465984251968504
 20
0.2824645669291339
 30
0.0
 10
-0.3465984251968504
 20
0.2824645669291339
 30
0.0
 10
-0.3465984251968504
 20
0.2824645669291339
 30
0.0
 10
-0.3465984251968504
 20
0.2824645669291339
 30
0.0
 10
-0.3438070866141733
 20
0.2715944881889764
 30
0.0
 10
-0.3438070866141733
 20
0.2715944881889764
 30
0.0
 10
-0.3438070866141733
 20
0.2715944881889764
 30
0.0
 10
-0.3438070866141733
 20
0.2715944881889764
 30
0.0
 10
-0.3420866141732283
 20
0.2603346456692914
 30
0.0
 10
-0.3420866141732283
 20
0.2603346456692914
 30
0.0
 10
-0.3420866141732283
 20
0.2603346456692914
 30
0.0
 10
-0.3420866141732283
 20
0.2603346456692914
 30
0.0
 10
-0.341503937007874
 20
0.248744094488189
 30
0.0
 10
-0.341503937007874
 20
0.248744094488189
 30
0.0
  0
SPLINE
  5
5A
330
1F
100
AcDbEntity
  8
Layer 1
 62
   253
100
AcDbSpline
210
0.0
220
0.0
230
1.0
 70
    11
 71
     3
 72
    44
 73
    40
 74
     0
 42
0.0000000001
 43
0.0000000001
 40
0.0
 40
0.0
 40
0.0
 40
0.0
 40
0.1
 40
0.1
 40
0.1
 40
0.1
 40
0.2
 40
0.2
 40
0.2
 40
0.2
 40
0.3
 40
0.3
 40
0.3
 40
0.3
 40
0.4
 40
0.4
 40
0.4
 40
0.4
 40
0.5
 40
0.5
 40
0.5
 40
0.5
 40
0.6
 40
0.6
 40
0.6
 40
0.6
 40
0.7
 40
0.7
 40
0.7
 40
0.7
 40
0.7999999999999999
 40
0.7999999999999999
 40
0.7999999999999999
 40
0.7999999999999999
 40
0.8999999999999999
 40
0.8999999999999999
 40
0.8999999999999999
 40
0.8999999999999999
 40
1.0
 40
1.0
 40
1.0
 40
1.0
 10
-0.3504173228346457
 20
0.2928897637795276
 30
0.0
 10
-0.3504173228346457
 20
0.2928897637795276
 30
0.0
 10
0.2786181102362205
 20
0.6514133858267717
 30
0.0
 10
0.2786181102362205
 20
0.6514133858267717
 30
0.0
 10
0.2786181102362205
 20
0.6514133858267717
 30
0.0
 10
0.2786181102362205
 20
0.6514133858267717
 30
0.0
 10
0.2738464566929134
 20
0.6613228346456693
 30
0.0
 10
0.2738464566929134
 20
0.6613228346456693
 30
0.0
 10
0.2738464566929134
 20
0.6613228346456693
 30
0.0
 10
0.2738464566929134
 20
0.6613228346456693
 30
0.0
 10
0.2681614173228347
 20
0.6706811023622048
 30
0.0
 10
0.2681614173228347
 20
0.6706811023622048
 30
0.0
 10
0.2681614173228347
 20
0.6706811023622048
 30
0.0
 10
0.2681614173228347
 20
0.6706811023622048
 30
0.0
 10
0.2616338582677166
 20
0.6794133858267717
 30
0.0
 10
0.2616338582677166
 20
0.6794133858267717
 30
0.0
 10
0.2616338582677166
 20
0.6794133858267717
 30
0.0
 10
0.2616338582677166
 20
0.6794133858267717
 30
0.0
 10
0.2543070866141732
 20
0.6874724409448819
 30
0.0
 10
0.2543070866141732
 20
0.6874724409448819
 30
0.0
 10
0.2543070866141732
 20
0.6874724409448819
 30
0.0
 10
0.2543070866141732
 20
0.6874724409448819
 30
0.0
 10
-0.374728346456693
 20
0.3289488188976378
 30
0.0
 10
-0.374728346456693
 20
0.3289488188976378
 30
0.0
 10
-0.374728346456693
 20
0.3289488188976378
 30
0.0
 10
-0.374728346456693
 20
0.3289488188976378
 30
0.0
 10
-0.3674015748031496
 20
0.3208897637795276
 30
0.0
 10
-0.3674015748031496
 20
0.3208897637795276
 30
0.0
 10
-0.3674015748031496
 20
0.3208897637795276
 30
0.0
 10
-0.3674015748031496
 20
0.3208897637795276
 30
0.0
 10
-0.3608740157480315
 20
0.3121574803149607
 30
0.0
 10
-0.3608740157480315
 20
0.3121574803149607
 30
0.0
 10
-0.3608740157480315
 20
0.3121574803149607
 30
0.0
 10
-0.3608740157480315
 20
0.3121574803149607
 30
0.0
 10
-0.3551889763779528
 20
0.3027992125984252
 30
0.0
 10
-0.3551889763779528
 20
0.3027992125984252
 30
0.0
 10
-0.3551889763779528
 20
0.3027992125984252
 30
0.0
 10
-0.3551889763779528
 20
0.3027992125984252
 30
0.0
 10
-0.3504173228346457
 20
0.2928897637795276
 30
0.0
 10
-0.3504173228346457
 20
0.2928897637795276
 30
0.0
  0
SPLINE
  5
5B
330
1F
100
AcDbEntity
  8
Layer 1
 62
   252
100
AcDbSpline
210
0.0
220
0.0
230
1.0
 70
    11
 71
     3
 72
    44
 73
    40
 74
     0
 42
0.0000000001
 43
0.0000000001
 40
0.0
 40
0.0
 40
0.0
 40
0.0
 40
0.1
 40
0.1
 40
0.1
 40
0.1
 40
0.2
 40
0.2
 40
0.2
 40
0.2
 40
0.3
 40
0.3
 40
0.3
 40
0.3
 40
0.4
 40
0.4
 40
0.4
 40
0.4
 40
0.5
 40
0.5
 40
0.5
 40
0.5
 40
0.6
 40
0.6
 40
0.6
 40
0.6
 40
0.7
 40
0.7
 40
0.7
 40
0.7
 40
0.7999999999999999
 40
0.7999999999999999
 40
0.7999999999999999
 40
0.7999999999999999
 40
0.8999999999999999
 40
0.8999999999999999
 40
0.8999999999999999
 40
0.8999999999999999
 40
1.0
 40
1.0
 40
1.0
 40
1.0
 10
-0.374728346456693
 20
0.3289488188976378
 30
0.0
 10
-0.374728346456693
 20
0.3289488188976378
 30
0.0
 10
0.2543070866141732
 20
0.6874724409448819
 30
0.0
 10
0.2543070866141732
 20
0.6874724409448819
 30
0.0
 10
0.2543070866141732
 20
0.6874724409448819
 30
0.0
 10
0.2543070866141732
 20
0.6874724409448819
 30
0.0
 10
0.246255905511811
 20
0.6947874015748031
 30
0.0
 10
0.246255905511811
 20
0.6947874015748031
 30
0.0
 10
0.246255905511811
 20
0.6947874015748031
 30
0.0
 10
0.246255905511811
 20
0.6947874015748031
 30
0.0
 10
0.2375236220472441
 20
0.7013228346456694
 30
0.0
 10
0.2375236220472441
 20
0.7013228346456694
 30
0.0
 10
0.2375236220472441
 20
0.7013228346456694
 30
0.0
 10
0.2375236220472441
 20
0.7013228346456694
 30
0.0
 10
0.2281732283464567
 20
0.707003937007874
 30
0.0
 10
0.2281732283464567
 20
0.707003937007874
 30
0.0
 10
0.2281732283464567
 20
0.707003937007874
 30
0.0
 10
0.2281732283464567
 20
0.707003937007874
 30
0.0
 10
0.218251968503937
 20
0.7117834645669292
 30
0.0
 10
0.218251968503937
 20
0.7117834645669292
 30
0.0
 10
0.218251968503937
 20
0.7117834645669292
 30
0.0
 10
0.218251968503937
 20
0.7117834645669292
 30
0.0
 10
-0.4107834645669292
 20
0.3532598425196851
 30
0.0
 10
-0.4107834645669292
 20
0.3532598425196851
 30
0.0
 10
-0.4107834645669292
 20
0.3532598425196851
 30
0.0
 10
-0.4107834645669292
 20
0.3532598425196851
 30
0.0
 10
-0.4008622047244095
 20
0.3484803149606299
 30
0.0
 10
-0.4008622047244095
 20
0.3484803149606299
 30
0.0
 10
-0.4008622047244095
 20
0.3484803149606299
 30
0.0
 10
-0.4008622047244095
 20
0.3484803149606299
 30
0.0
 10
-0.391511811023622
 20
0.3427992125984252
 30
0.0
 10
-0.391511811023622
 20
0.3427992125984252
 30
0.0
 10
-0.391511811023622
 20
0.3427992125984252
 30
0.0
 10
-0.391511811023622
 20
0.3427992125984252
 30
0.0
 10
-0.3827795275590551
 20
0.3362637795275591
 30
0.0
 10
-0.3827795275590551
 20
0.3362637795275591
 30
0.0
 10
-0.3827795275590551
 20
0.3362637795275591
 30
0.0
 10
-0.3827795275590551
 20
0.3362637795275591
 30
0.0
 10
-0.374728346456693
 20
0.3289488188976378
 30
0.0
 10
-0.374728346456693
 20
0.3289488188976378
 30
0.0
  0
SPLINE
  5
5C
330
1F
100
AcDbEntity
  8
Layer 1
 62
   252
100
AcDbSpline
210
0.0
220
0.0
230
1.0
 70
    11
 71
     3
 72
    44
 73
    40
 74
     0
 42
0.0000000001
 43
0.0000000001
 40
0.0
 40
0.0
 40
0.0
 40
0.0
 40
0.1
 40
0.1
 40
0.1
 40
0.1
 40
0.2
 40
0.2
 40
0.2
 40
0.2
 40
0.3
 40
0.3
 40
0.3
 40
0.3
 40
0.4
 40
0.4
 40
0.4
 40
0.4
 40
0.5
 40
0.5
 40
0.5
 40
0.5
 40
0.6
 40
0.6
 40
0.6
 40
0.6
 40
0.7
 40
0.7
 40
0.7
 40
0.7
 40
0.7999999999999999
 40
0.7999999999999999
 40
0.7999999999999999
 40
0.7999999999999999
 40
0.8999999999999999
 40
0.8999999999999999
 40
0.8999999999999999
 40
0.8999999999999999
 40
1.0
 40
1.0
 40
1.0
 40
1.0
 10
-0.4107834645669292
 20
0.3532598425196851
 30
0.0
 10
-0.4107834645669292
 20
0.3532598425196851
 30
0.0
 10
0.218251968503937
 20
0.7117834645669292
 30
0.0
 10
0.218251968503937
 20
0.7117834645669292
 30
0.0
 10
0.218251968503937
 20
0.7117834645669292
 30
0.0
 10
0.218251968503937
 20
0.7117834645669292
 30
0.0
 10
0.2078307086614173
 20
0.7155944881889764
 30
0.0
 10
0.2078307086614173
 20
0.7155944881889764
 30
0.0
 10
0.2078307086614173
 20
0.7155944881889764
 30
0.0
 10
0.2078307086614173
 20
0.7155944881889764
 30
0.0
 10
0.1969566929133858
 20
0.7183937007874016
 30
0.0
 10
0.1969566929133858
 20
0.7183937007874016
 30
0.0
 10
0.1969566929133858
 20
0.7183937007874016
 30
0.0
 10
0.1969566929133858
 20
0.7183937007874016
 30
0.0
 10
0.1856968503937008
 20
0.7201141732283465
 30
0.0
 10
0.1856968503937008
 20
0.7201141732283465
 30
0.0
 10
0.1856968503937008
 20
0.7201141732283465
 30
0.0
 10
0.1856968503937008
 20
0.7201141732283465
 30
0.0
 10
0.1740944881889764
 20
0.7207047244094489
 30
0.0
 10
0.1740944881889764
 20
0.7207047244094489
 30
0.0
 10
0.1740944881889764
 20
0.7207047244094489
 30
0.0
 10
0.1740944881889764
 20
0.7207047244094489
 30
0.0
 10
-0.4549409448818898
 20
0.3621811023622047
 30
0.0
 10
-0.4549409448818898
 20
0.3621811023622047
 30
0.0
 10
-0.4549409448818898
 20
0.3621811023622047
 30
0.0
 10
-0.4549409448818898
 20
0.3621811023622047
 30
0.0
 10
-0.4433385826771654
 20
0.3615905511811024
 30
0.0
 10
-0.4433385826771654
 20
0.3615905511811024
 30
0.0
 10
-0.4433385826771654
 20
0.3615905511811024
 30
0.0
 10
-0.4433385826771654
 20
0.3615905511811024
 30
0.0
 10
-0.4320787401574803
 20
0.3598700787401575
 30
0.0
 10
-0.4320787401574803
 20
0.3598700787401575
 30
0.0
 10
-0.4320787401574803
 20
0.3598700787401575
 30
0.0
 10
-0.4320787401574803
 20
0.3598700787401575
 30
0.0
 10
-0.4212047244094488
 20
0.3570708661417323
 30
0.0
 10
-0.4212047244094488
 20
0.3570708661417323
 30
0.0
 10
-0.4212047244094488
 20
0.3570708661417323
 30
0.0
 10
-0.4212047244094488
 20
0.3570708661417323
 30
0.0
 10
-0.4107834645669292
 20
0.3532598425196851
 30
0.0
 10
-0.4107834645669292
 20
0.3532598425196851
 30
0.0
  0
SPLINE
  5
5D
330
1F
100
AcDbEntity
  8
Layer 1
 62
   251
100
AcDbSpline
210
0.0
220
0.0
230
1.0
 70
    11
 71
     3
 72
    44
 73
    40
 74
     0
 42
0.0000000001
 43
0.0000000001
 40
0.0
 40
0.0
 40
0.0
 40
0.0
 40
0.1
 40
0.1
 40
0.1
 40
0.1
 40
0.2
 40
0.2
 40
0.2
 40
0.2
 40
0.3
 40
0.3
 40
0.3
 40
0.3
 40
0.4
 40
0.4
 40
0.4
 40
0.4
 40
0.5
 40
0.5
 40
0.5
 40
0.5
 40
0.6
 40
0.6
 40
0.6
 40
0.6
 40
0.7
 40
0.7
 40
0.7
 40
0.7
 40
0.7999999999999999
 40
0.7999999999999999
 40
0.7999999999999999
 40
0.7999999999999999
 40
0.8999999999999999
 40
0.8999999999999999
 40
0.8999999999999999
 40
0.8999999999999999
 40
1.0
 40
1.0
 40
1.0
 40
1.0
 10
-0.4549409448818898
 20
0.3621811023622047
 30
0.0
 10
-0.4549409448818898
 20
0.3621811023622047
 30
0.0
 10
0.1740944881889764
 20
0.7207047244094489
 30
0.0
 10
0.1740944881889764
 20
0.7207047244094489
 30
0.0
 10
0.1740944881889764
 20
0.7207047244094489
 30
0.0
 10
0.1740944881889764
 20
0.7207047244094489
 30
0.0
 10
0.162503937007874
 20
0.7201141732283465
 30
0.0
 10
0.162503937007874
 20
0.7201141732283465
 30
0.0
 10
0.162503937007874
 20
0.7201141732283465
 30
0.0
 10
0.162503937007874
 20
0.7201141732283465
 30
0.0
 10
0.151240157480315
 20
0.7183937007874016
 30
0.0
 10
0.151240157480315
 20
0.7183937007874016
 30
0.0
 10
0.151240157480315
 20
0.7183937007874016
 30
0.0
 10
0.151240157480315
 20
0.7183937007874016
 30
0.0
 10
0.1403700787401575
 20
0.7155944881889764
 30
0.0
 10
0.1403700787401575
 20
0.7155944881889764
 30
0.0
 10
0.1403700787401575
 20
0.7155944881889764
 30
0.0
 10
0.1403700787401575
 20
0.7155944881889764
 30
0.0
 10
0.1299448818897638
 20
0.7117834645669292
 30
0.0
 10
0.1299448818897638
 20
0.7117834645669292
 30
0.0
 10
0.1299448818897638
 20
0.7117834645669292
 30
0.0
 10
0.1299448818897638
 20
0.7117834645669292
 30
0.0
 10
-0.4990905511811024
 20
0.3532598425196851
 30
0.0
 10
-0.4990905511811024
 20
0.3532598425196851
 30
0.0
 10
-0.4990905511811024
 20
0.3532598425196851
 30
0.0
 10
-0.4990905511811024
 20
0.3532598425196851
 30
0.0
 10
-0.4886653543307087
 20
0.3570708661417323
 30
0.0
 10
-0.4886653543307087
 20
0.3570708661417323
 30
0.0
 10
-0.4886653543307087
 20
0.3570708661417323
 30
0.0
 10
-0.4886653543307087
 20
0.3570708661417323
 30
0.0
 10
-0.4777952755905512
 20
0.3598700787401575
 30
0.0
 10
-0.4777952755905512
 20
0.3598700787401575
 30
0.0
 10
-0.4777952755905512
 20
0.3598700787401575
 30
0.0
 10
-0.4777952755905512
 20
0.3598700787401575
 30
0.0
 10
-0.4665314960629922
 20
0.3615905511811024
 30
0.0
 10
-0.4665314960629922
 20
0.3615905511811024
 30
0.0
 10
-0.4665314960629922
 20
0.3615905511811024
 30
0.0
 10
-0.4665314960629922
 20
0.3615905511811024
 30
0.0
 10
-0.4549409448818898
 20
0.3621811023622047
 30
0.0
 10
-0.4549409448818898
 20
0.3621811023622047
 30
0.0
  0
SPLINE
  5
5E
330
1F
100
AcDbEntity
  8
Layer 1
 62
   251
100
AcDbSpline
210
0.0
220
0.0
230
1.0
 70
    11
 71
     3
 72
    20
 73
    16
 74
     0
 42
0.0000000001
 43
0.0000000001
 40
0.0
 40
0.0
 40
0.0
 40
0.0
 40
0.25
 40
0.25
 40
0.25
 40
0.25
 40
0.5
 40
0.5
 40
0.5
 40
0.5
 40
0.75
 40
0.75
 40
0.75
 40
0.75
 40
1.0
 40
1.0
 40
1.0
 40
1.0
 10
-0.4990905511811024
 20
0.3532598425196851
 30
0.0
 10
-0.4990905511811024
 20
0.3532598425196851
 30
0.0
 10
0.1299448818897638
 20
0.7117834645669292
 30
0.0
 10
0.1299448818897638
 20
0.7117834645669292
 30
0.0
 10
0.1299448818897638
 20
0.7117834645669292
 30
0.0
 10
0.1299448818897638
 20
0.7117834645669292
 30
0.0
 10
0.1200354330708661
 20
0.707003937007874
 30
0.0
 10
0.1200354330708661
 20
0.707003937007874
 30
0.0
 10
0.1200354330708661
 20
0.707003937007874
 30
0.0
 10
0.1200354330708661
 20
0.707003937007874
 30
0.0
 10
-0.509
 20
0.3484803149606299
 30
0.0
 10
-0.509
 20
0.3484803149606299
 30
0.0
 10
-0.509
 20
0.3484803149606299
 30
0.0
 10
-0.509
 20
0.3484803149606299
 30
0.0
 10
-0.4990905511811024
 20
0.3532598425196851
 30
0.0
 10
-0.4990905511811024
 20
0.3532598425196851
 30
0.0
  0
SPLINE
  5
5F
330
1F
100
AcDbEntity
  8
Layer 1
 62
   250
370
     5
100
AcDbSpline
210
0.0
220
0.0
230
1.0
 70
    11
 71
     3
 72
   180
 73
   176
 74
     0
 42
0.0000000001
 43
0.0000000001
 40
0.0
 40
0.0
 40
0.0
 40
0.0
 40
0.0227272727272727
 40
0.0227272727272727
 40
0.0227272727272727
 40
0.0227272727272727
 40
0.0454545454545455
 40
0.0454545454545455
 40
0.0454545454545455
 40
0.0454545454545455
 40
0.0681818181818182
 40
0.0681818181818182
 40
0.0681818181818182
 40
0.0681818181818182
 40
0.0909090909090909
 40
0.0909090909090909
 40
0.0909090909090909
 40
0.0909090909090909
 40
0.1136363636363637
 40
0.1136363636363637
 40
0.1136363636363637
 40
0.1136363636363637
 40
0.1363636363636364
 40
0.1363636363636364
 40
0.1363636363636364
 40
0.1363636363636364
 40
0.1590909090909091
 40
0.1590909090909091
 40
0.1590909090909091
 40
0.1590909090909091
 40
0.1818181818181819
 40
0.1818181818181819
 40
0.1818181818181819
 40
0.1818181818181819
 40
0.2045454545454546
 40
0.2045454545454546
 40
0.2045454545454546
 40
0.2045454545454546
 40
0.2272727272727273
 40
0.2272727272727273
 40
0.2272727272727273
 40
0.2272727272727273
 40
0.2500000000000001
 40
0.2500000000000001
 40
0.2500000000000001
 40
0.2500000000000001
 40
0.2727272727272728
 40
0.2727272727272728
 40
0.2727272727272728
 40
0.2727272727272728
 40
0.2954545454545455
 40
0.2954545454545455
 40
0.2954545454545455
 40
0.2954545454545455
 40
0.3181818181818182
 40
0.3181818181818182
 40
0.3181818181818182
 40
0.3181818181818182
 40
0.3409090909090909
 40
0.3409090909090909
 40
0.3409090909090909
 40
0.3409090909090909
 40
0.3636363636363636
 40
0.3636363636363636
 40
0.3636363636363636
 40
0.3636363636363636
 40
0.3863636363636363
 40
0.3863636363636363
 40
0.3863636363636363
 40
0.3863636363636363
 40
0.409090909090909
 40
0.409090909090909
 40
0.409090909090909
 40
0.409090909090909
 40
0.4318181818181817
 40
0.4318181818181817
 40
0.4318181818181817
 40
0.4318181818181817
 40
0.4545454545454544
 40
0.4545454545454544
 40
0.4545454545454544
 40
0.4545454545454544
 40
0.4772727272727271
 40
0.4772727272727271
 40
0.4772727272727271
 40
0.4772727272727271
 40
0.4999999999999998
 40
0.4999999999999998
 40
0.4999999999999998
 40
0.4999999999999998
 40
0.5227272727272726
 40
0.5227272727272726
 40
0.5227272727272726
 40
0.5227272727272726
 40
0.5454545454545453
 40
0.5454545454545453
 40
0.5454545454545453
 40
0.5454545454545453
 40
0.568181818181818
 40
0.568181818181818
 40
0.568181818181818
 40
0.568181818181818
 40
0.5909090909090907
 40
0.5909090909090907
 40
0.5909090909090907
 40
0.5909090909090907
 40
0.6136363636363634
 40
0.6136363636363634
 40
0.6136363636363634
 40
0.6136363636363634
 40
0.6363636363636361
 40
0.6363636363636361
 40
0.6363636363636361
 40
0.6363636363636361
 40
0.6590909090909088
 40
0.6590909090909088
 40
0.6590909090909088
 40
0.6590909090909088
 40
0.6818181818181816
 40
0.6818181818181816
 40
0.6818181818181816
 40
0.6818181818181816
 40
0.7045454545454543
 40
0.7045454545454543
 40
0.7045454545454543
 40
0.7045454545454543
 40
0.727272727272727
 40
0.727272727272727
 40
0.727272727272727
 40
0.727272727272727
 40
0.7499999999999997
 40
0.7499999999999997
 40
0.7499999999999997
 40
0.7499999999999997
 40
0.7727272727272724
 40
0.7727272727272724
 40
0.7727272727272724
 40
0.7727272727272724
 40
0.7954545454545451
 40
0.7954545454545451
 40
0.7954545454545451
 40
0.7954545454545451
 40
0.8181818181818178
 40
0.8181818181818178
 40
0.8181818181818178
 40
0.8181818181818178
 40
0.8409090909090905
 40
0.8409090909090905
 40
0.8409090909090905
 40
0.8409090909090905
 40
0.8636363636363632
 40
0.8636363636363632
 40
0.8636363636363632
 40
0.8636363636363632
 40
0.8863636363636359
 40
0.8863636363636359
 40
0.8863636363636359
 40
0.8863636363636359
 40
0.9090909090909086
 40
0.9090909090909086
 40
0.9090909090909086
 40
0.9090909090909086
 40
0.9318181818181813
 40
0.9318181818181813
 40
0.9318181818181813
 40
0.9318181818181813
 40
0.954545454545454
 40
0.954545454545454
 40
0.954545454545454
 40
0.954545454545454
 40
0.9772727272727267
 40
0.9772727272727267
 40
0.9772727272727267
 40
0.9772727272727267
 40
1.0
 40
1.0
 40
1.0
 40
1.0
 10
-0.341503937007874
 20
0.248744094488189
 30
0.0
 10
-0.341503937007874
 20
0.248744094488189
 30
0.0
 10
0.2875314960629922
 20
0.6072677165354331
 30
0.0
 10
0.2875314960629922
 20
0.6072677165354331
 30
0.0
 10
0.2875314960629922
 20
0.6072677165354331
 30
0.0
 10
0.2875314960629922
 20
0.6072677165354331
 30
0.0
 10
0.2869488188976378
 20
0.6188582677165354
 30
0.0
 10
0.2869488188976378
 20
0.6188582677165354
 30
0.0
 10
0.2869488188976378
 20
0.6188582677165354
 30
0.0
 10
0.2869488188976378
 20
0.6188582677165354
 30
0.0
 10
0.2852283464566929
 20
0.6301181102362204
 30
0.0
 10
0.2852283464566929
 20
0.6301181102362204
 30
0.0
 10
0.2852283464566929
 20
0.6301181102362204
 30
0.0
 10
0.2852283464566929
 20
0.6301181102362204
 30
0.0
 10
0.2824370078740158
 20
0.640988188976378
 30
0.0
 10
0.2824370078740158
 20
0.640988188976378
 30
0.0
 10
0.2824370078740158
 20
0.640988188976378
 30
0.0
 10
0.2824370078740158
 20
0.640988188976378
 30
0.0
 10
0.2786181102362205
 20
0.6514133858267717
 30
0.0
 10
0.2786181102362205
 20
0.6514133858267717
 30
0.0
 10
0.2786181102362205
 20
0.6514133858267717
 30
0.0
 10
0.2786181102362205
 20
0.6514133858267717
 30
0.0
 10
0.2738464566929134
 20
0.6613228346456693
 30
0.0
 10
0.2738464566929134
 20
0.6613228346456693
 30
0.0
 10
0.2738464566929134
 20
0.6613228346456693
 30
0.0
 10
0.2738464566929134
 20
0.6613228346456693
 30
0.0
 10
0.2681614173228347
 20
0.6706811023622048
 30
0.0
 10
0.2681614173228347
 20
0.6706811023622048
 30
0.0
 10
0.2681614173228347
 20
0.6706811023622048
 30
0.0
 10
0.2681614173228347
 20
0.6706811023622048
 30
0.0
 10
0.2616338582677166
 20
0.6794133858267717
 30
0.0
 10
0.2616338582677166
 20
0.6794133858267717
 30
0.0
 10
0.2616338582677166
 20
0.6794133858267717
 30
0.0
 10
0.2616338582677166
 20
0.6794133858267717
 30
0.0
 10
0.2543070866141732
 20
0.6874724409448819
 30
0.0
 10
0.2543070866141732
 20
0.6874724409448819
 30
0.0
 10
0.2543070866141732
 20
0.6874724409448819
 30
0.0
 10
0.2543070866141732
 20
0.6874724409448819
 30
0.0
 10
0.246255905511811
 20
0.6947874015748031
 30
0.0
 10
0.246255905511811
 20
0.6947874015748031
 30
0.0
 10
0.246255905511811
 20
0.6947874015748031
 30
0.0
 10
0.246255905511811
 20
0.6947874015748031
 30
0.0
 10
0.2375236220472441
 20
0.7013228346456694
 30
0.0
 10
0.2375236220472441
 20
0.7013228346456694
 30
0.0
 10
0.2375236220472441
 20
0.7013228346456694
 30
0.0
 10
0.2375236220472441
 20
0.7013228346456694
 30
0.0
 10
0.2281732283464567
 20
0.707003937007874
 30
0.0
 10
0.2281732283464567
 20
0.707003937007874
 30
0.0
 10
0.2281732283464567
 20
0.707003937007874
 30
0.0
 10
0.2281732283464567
 20
0.707003937007874
 30
0.0
 10
0.218251968503937
 20
0.7117834645669292
 30
0.0
 10
0.218251968503937
 20
0.7117834645669292
 30
0.0
 10
0.218251968503937
 20
0.7117834645669292
 30
0.0
 10
0.218251968503937
 20
0.7117834645669292
 30
0.0
 10
0.2078307086614173
 20
0.7155944881889764
 30
0.0
 10
0.2078307086614173
 20
0.7155944881889764
 30
0.0
 10
0.2078307086614173
 20
0.7155944881889764
 30
0.0
 10
0.2078307086614173
 20
0.7155944881889764
 30
0.0
 10
0.1969566929133858
 20
0.7183937007874016
 30
0.0
 10
0.1969566929133858
 20
0.7183937007874016
 30
0.0
 10
0.1969566929133858
 20
0.7183937007874016
 30
0.0
 10
0.1969566929133858
 20
0.7183937007874016
 30
0.0
 10
0.1856968503937008
 20
0.7201141732283465
 30
0.0
 10
0.1856968503937008
 20
0.7201141732283465
 30
0.0
 10
0.1856968503937008
 20
0.7201141732283465
 30
0.0
 10
0.1856968503937008
 20
0.7201141732283465
 30
0.0
 10
0.1740944881889764
 20
0.7207047244094489
 30
0.0
 10
0.1740944881889764
 20
0.7207047244094489
 30
0.0
 10
0.1740944881889764
 20
0.7207047244094489
 30
0.0
 10
0.1740944881889764
 20
0.7207047244094489
 30
0.0
 10
0.162503937007874
 20
0.7201141732283465
 30
0.0
 10
0.162503937007874
 20
0.7201141732283465
 30
0.0
 10
0.162503937007874
 20
0.7201141732283465
 30
0.0
 10
0.162503937007874
 20
0.7201141732283465
 30
0.0
 10
0.151240157480315
 20
0.7183937007874016
 30
0.0
 10
0.151240157480315
 20
0.7183937007874016
 30
0.0
 10
0.151240157480315
 20
0.7183937007874016
 30
0.0
 10
0.151240157480315
 20
0.7183937007874016
 30
0.0
 10
0.1403700787401575
 20
0.7155944881889764
 30
0.0
 10
0.1403700787401575
 20
0.7155944881889764
 30
0.0
 10
0.1403700787401575
 20
0.7155944881889764
 30
0.0
 10
0.1403700787401575
 20
0.7155944881889764
 30
0.0
 10
0.1299448818897638
 20
0.7117834645669292
 30
0.0
 10
0.1299448818897638
 20
0.7117834645669292
 30
0.0
 10
0.1299448818897638
 20
0.7117834645669292
 30
0.0
 10
0.1299448818897638
 20
0.7117834645669292
 30
0.0
 10
0.1200354330708661
 20
0.707003937007874
 30
0.0
 10
0.1200354330708661
 20
0.707003937007874
 30
0.0
 10
0.1200354330708661
 20
0.707003937007874
 30
0.0
 10
0.1200354330708661
 20
0.707003937007874
 30
0.0
 10
-0.509
 20
0.3484803149606299
 30
0.0
 10
-0.509
 20
0.3484803149606299
 30
0.0
 10
-0.509
 20
0.3484803149606299
 30
0.0
 10
-0.509
 20
0.3484803149606299
 30
0.0
 10
-0.4990905511811024
 20
0.3532598425196851
 30
0.0
 10
-0.4990905511811024
 20
0.3532598425196851
 30
0.0
 10
-0.4990905511811024
 20
0.3532598425196851
 30
0.0
 10
-0.4990905511811024
 20
0.3532598425196851
 30
0.0
 10
-0.4886653543307087
 20
0.3570708661417323
 30
0.0
 10
-0.4886653543307087
 20
0.3570708661417323
 30
0.0
 10
-0.4886653543307087
 20
0.3570708661417323
 30
0.0
 10
-0.4886653543307087
 20
0.3570708661417323
 30
0.0
 10
-0.4777952755905512
 20
0.3598700787401575
 30
0.0
 10
-0.4777952755905512
 20
0.3598700787401575
 30
0.0
 10
-0.4777952755905512
 20
0.3598700787401575
 30
0.0
 10
-0.4777952755905512
 20
0.3598700787401575
 30
0.0
 10
-0.4665314960629922
 20
0.3615905511811024
 30
0.0
 10
-0.4665314960629922
 20
0.3615905511811024
 30
0.0
 10
-0.4665314960629922
 20
0.3615905511811024
 30
0.0
 10
-0.4665314960629922
 20
0.3615905511811024
 30
0.0
 10
-0.4549409448818898
 20
0.3621811023622047
 30
0.0
 10
-0.4549409448818898
 20
0.3621811023622047
 30
0.0
 10
-0.4549409448818898
 20
0.3621811023622047
 30
0.0
 10
-0.4549409448818898
 20
0.3621811023622047
 30
0.0
 10
-0.4433385826771654
 20
0.3615905511811024
 30
0.0
 10
-0.4433385826771654
 20
0.3615905511811024
 30
0.0
 10
-0.4433385826771654
 20
0.3615905511811024
 30
0.0
 10
-0.4433385826771654
 20
0.3615905511811024
 30
0.0
 10
-0.4320787401574803
 20
0.3598700787401575
 30
0.0
 10
-0.4320787401574803
 20
0.3598700787401575
 30
0.0
 10
-0.4320787401574803
 20
0.3598700787401575
 30
0.0
 10
-0.4320787401574803
 20
0.3598700787401575
 30
0.0
 10
-0.4212047244094488
 20
0.3570708661417323
 30
0.0
 10
-0.4212047244094488
 20
0.3570708661417323
 30
0.0
 10
-0.4212047244094488
 20
0.3570708661417323
 30
0.0
 10
-0.4212047244094488
 20
0.3570708661417323
 30
0.0
 10
-0.4107834645669292
 20
0.3532598425196851
 30
0.0
 10
-0.4107834645669292
 20
0.3532598425196851
 30
0.0
 10
-0.4107834645669292
 20
0.3532598425196851
 30
0.0
 10
-0.4107834645669292
 20
0.3532598425196851
 30
0.0
 10
-0.4008622047244095
 20
0.3484803149606299
 30
0.0
 10
-0.4008622047244095
 20
0.3484803149606299
 30
0.0
 10
-0.4008622047244095
 20
0.3484803149606299
 30
0.0
 10
-0.4008622047244095
 20
0.3484803149606299
 30
0.0
 10
-0.391511811023622
 20
0.3427992125984252
 30
0.0
 10
-0.391511811023622
 20
0.3427992125984252
 30
0.0
 10
-0.391511811023622
 20
0.3427992125984252
 30
0.0
 10
-0.391511811023622
 20
0.3427992125984252
 30
0.0
 10
-0.3827795275590551
 20
0.3362637795275591
 30
0.0
 10
-0.3827795275590551
 20
0.3362637795275591
 30
0.0
 10
-0.3827795275590551
 20
0.3362637795275591
 30
0.0
 10
-0.3827795275590551
 20
0.3362637795275591
 30
0.0
 10
-0.374728346456693
 20
0.3289488188976378
 30
0.0
 10
-0.374728346456693
 20
0.3289488188976378
 30
0.0
 10
-0.374728346456693
 20
0.3289488188976378
 30
0.0
 10
-0.374728346456693
 20
0.3289488188976378
 30
0.0
 10
-0.3674015748031496
 20
0.3208897637795276
 30
0.0
 10
-0.3674015748031496
 20
0.3208897637795276
 30
0.0
 10
-0.3674015748031496
 20
0.3208897637795276
 30
0.0
 10
-0.3674015748031496
 20
0.3208897637795276
 30
0.0
 10
-0.3608740157480315
 20
0.3121574803149607
 30
0.0
 10
-0.3608740157480315
 20
0.3121574803149607
 30
0.0
 10
-0.3608740157480315
 20
0.3121574803149607
 30
0.0
 10
-0.3608740157480315
 20
0.3121574803149607
 30
0.0
 10
-0.3551889763779528
 20
0.3027992125984252
 30
0.0
 10
-0.3551889763779528
 20
0.3027992125984252
 30
0.0
 10
-0.3551889763779528
 20
0.3027992125984252
 30
0.0
 10
-0.3551889763779528
 20
0.3027992125984252
 30
0.0
 10
-0.3504173228346457
 20
0.2928897637795276
 30
0.0
 10
-0.3504173228346457
 20
0.2928897637795276
 30
0.0
 10
-0.3504173228346457
 20
0.2928897637795276
 30
0.0
 10
-0.3504173228346457
 20
0.2928897637795276
 30
0.0
 10
-0.3465984251968504
 20
0.2824645669291339
 30
0.0
 10
-0.3465984251968504
 20
0.2824645669291339
 30
0.0
 10
-0.3465984251968504
 20
0.2824645669291339
 30
0.0
 10
-0.3465984251968504
 20
0.2824645669291339
 30
0.0
 10
-0.3438070866141733
 20
0.2715944881889764
 30
0.0
 10
-0.3438070866141733
 20
0.2715944881889764
 30
0.0
 10
-0.3438070866141733
 20
0.2715944881889764
 30
0.0
 10
-0.3438070866141733
 20
0.2715944881889764
 30
0.0
 10
-0.3420866141732283
 20
0.2603346456692914
 30
0.0
 10
-0.3420866141732283
 20
0.2603346456692914
 30
0.0
 10
-0.3420866141732283
 20
0.2603346456692914
 30
0.0
 10
-0.3420866141732283
 20
0.2603346456692914
 30
0.0
 10
-0.341503937007874
 20
0.248744094488189
 30
0.0
 10
-0.341503937007874
 20
0.248744094488189
 30
0.0
  0
SPLINE
  5
60
330
1F
100
AcDbEntity
  8
Layer 1
 62
   252
100
AcDbSpline
210
0.0
220
0.0
230
1.0
 70
    11
 71
     3
 72
    20
 73
    16
 74
     0
 42
0.0000000001
 43
0.0000000001
 40
0.0
 40
0.0
 40
0.0
 40
0.0
 40
0.25
 40
0.25
 40
0.25
 40
0.25
 40
0.5
 40
0.5
 40
0.5
 40
0.5
 40
0.75
 40
0.75
 40
0.75
 40
0.75
 40
1.0
 40
1.0
 40
1.0
 40
1.0
 10
-0.6783622047244095
 20
0.5663346456692914
 30
0.0
 10
-0.6783622047244095
 20
0.5663346456692914
 30
0.0
 10
-0.0493267716535433
 20
0.9248582677165355
 30
0.0
 10
-0.0493267716535433
 20
0.9248582677165355
 30
0.0
 10
-0.0493267716535433
 20
0.9248582677165355
 30
0.0
 10
-0.0493267716535433
 20
0.9248582677165355
 30
0.0
 10
-0.5493228346456693
 20
0.9248582677165355
 30
0.0
 10
-0.5493228346456693
 20
0.9248582677165355
 30
0.0
 10
-0.5493228346456693
 20
0.9248582677165355
 30
0.0
 10
-0.5493228346456693
 20
0.9248582677165355
 30
0.0
 10
-1.178358267716535
 20
0.5663346456692914
 30
0.0
 10
-1.178358267716535
 20
0.5663346456692914
 30
0.0
 10
-1.178358267716535
 20
0.5663346456692914
 30
0.0
 10
-1.178358267716535
 20
0.5663346456692914
 30
0.0
 10
-0.6783622047244095
 20
0.5663346456692914
 30
0.0
 10
-0.6783622047244095
 20
0.5663346456692914
 30
0.0
  0
SPLINE
  5
61
330
1F
100
AcDbEntity
  8
Layer 1
 62
   250
370
     5
100
AcDbSpline
210
0.0
220
0.0
230
1.0
 70
    11
 71
     3
 72
    20
 73
    16
 74
     0
 42
0.0000000001
 43
0.0000000001
 40
0.0
 40
0.0
 40
0.0
 40
0.0
 40
0.25
 40
0.25
 40
0.25
 40
0.25
 40
0.5
 40
0.5
 40
0.5
 40
0.5
 40
0.75
 40
0.75
 40
0.75
 40
0.75
 40
1.0
 40
1.0
 40
1.0
 40
1.0
 10
-0.6783622047244095
 20
0.5663346456692914
 30
0.0
 10
-0.6783622047244095
 20
0.5663346456692914
 30
0.0
 10
-0.0493267716535433
 20
0.9248582677165355
 30
0.0
 10
-0.0493267716535433
 20
0.9248582677165355
 30
0.0
 10
-0.0493267716535433
 20
0.9248582677165355
 30
0.0
 10
-0.0493267716535433
 20
0.9248582677165355
 30
0.0
 10
-0.5493228346456693
 20
0.9248582677165355
 30
0.0
 10
-0.5493228346456693
 20
0.9248582677165355
 30
0.0
 10
-0.5493228346456693
 20
0.9248582677165355
 30
0.0
 10
-0.5493228346456693
 20
0.9248582677165355
 30
0.0
 10
-1.178358267716535
 20
0.5663346456692914
 30
0.0
 10
-1.178358267716535
 20
0.5663346456692914
 30
0.0
 10
-1.178358267716535
 20
0.5663346456692914
 30
0.0
 10
-1.178358267716535
 20
0.5663346456692914
 30
0.0
 10
-0.6783622047244095
 20
0.5663346456692914
 30
0.0
 10
-0.6783622047244095
 20
0.5663346456692914
 30
0.0
  0
SPLINE
  5
62
330
1F
100
AcDbEntity
  8
Layer 1
 62
   253
100
AcDbSpline
210
0.0
220
0.0
230
1.0
 70
    11
 71
     3
 72
    20
 73
    16
 74
     0
 42
0.0000000001
 43
0.0000000001
 40
0.0
 40
0.0
 40
0.0
 40
0.0
 40
0.25
 40
0.25
 40
0.25
 40
0.25
 40
0.5
 40
0.5
 40
0.5
 40
0.5
 40
0.75
 40
0.75
 40
0.75
 40
0.75
 40
1.0
 40
1.0
 40
1.0
 40
1.0
 10
0.1890708661417323
 20
-0.1836653543307087
 30
0.0
 10
0.1890708661417323
 20
-0.1836653543307087
 30
0.0
 10
0.8181062992125985
 20
0.1748582677165354
 30
0.0
 10
0.8181062992125985
 20
0.1748582677165354
 30
0.0
 10
0.8181062992125985
 20
0.1748582677165354
 30
0.0
 10
0.8181062992125985
 20
0.1748582677165354
 30
0.0
 10
0.8181062992125985
 20
0.6072677165354331
 30
0.0
 10
0.8181062992125985
 20
0.6072677165354331
 30
0.0
 10
0.8181062992125985
 20
0.6072677165354331
 30
0.0
 10
0.8181062992125985
 20
0.6072677165354331
 30
0.0
 10
0.1890708661417323
 20
0.248744094488189
 30
0.0
 10
0.1890708661417323
 20
0.248744094488189
 30
0.0
 10
0.1890708661417323
 20
0.248744094488189
 30
0.0
 10
0.1890708661417323
 20
0.248744094488189
 30
0.0
 10
0.1890708661417323
 20
-0.1836653543307087
 30
0.0
 10
0.1890708661417323
 20
-0.1836653543307087
 30
0.0
  0
SPLINE
  5
63
330
1F
100
AcDbEntity
  8
Layer 1
 62
   250
370
     5
100
AcDbSpline
210
0.0
220
0.0
230
1.0
 70
    11
 71
     3
 72
    20
 73
    16
 74
     0
 42
0.0000000001
 43
0.0000000001
 40
0.0
 40
0.0
 40
0.0
 40
0.0
 40
0.25
 40
0.25
 40
0.25
 40
0.25
 40
0.5
 40
0.5
 40
0.5
 40
0.5
 40
0.75
 40
0.75
 40
0.75
 40
0.75
 40
1.0
 40
1.0
 40
1.0
 40
1.0
 10
0.1890708661417323
 20
-0.1836653543307087
 30
0.0
 10
0.1890708661417323
 20
-0.1836653543307087
 30
0.0
 10
0.8181062992125985
 20
0.1748582677165354
 30
0.0
 10
0.8181062992125985
 20
0.1748582677165354
 30
0.0
 10
0.8181062992125985
 20
0.1748582677165354
 30
0.0
 10
0.8181062992125985
 20
0.1748582677165354
 30
0.0
 10
0.8181062992125985
 20
0.6072677165354331
 30
0.0
 10
0.8181062992125985
 20
0.6072677165354331
 30
0.0
 10
0.8181062992125985
 20
0.6072677165354331
 30
0.0
 10
0.8181062992125985
 20
0.6072677165354331
 30
0.0
 10
0.1890708661417323
 20
0.248744094488189
 30
0.0
 10
0.1890708661417323
 20
0.248744094488189
 30
0.0
 10
0.1890708661417323
 20
0.248744094488189
 30
0.0
 10
0.1890708661417323
 20
0.248744094488189
 30
0.0
 10
0.1890708661417323
 20
-0.1836653543307087
 30
0.0
 10
0.1890708661417323
 20
-0.1836653543307087
 30
0.0
  0
SPLINE
  5
64
330
1F
100
AcDbEntity
  8
Layer 1
 62
   252
100
AcDbSpline
210
0.0
220
0.0
230
1.0
 70
    11
 71
     3
 72
    20
 73
    16
 74
     0
 42
0.0000000001
 43
0.0000000001
 40
0.0
 40
0.0
 40
0.0
 40
0.0
 40
0.25
 40
0.25
 40
0.25
 40
0.25
 40
0.5
 40
0.5
 40
0.5
 40
0.5
 40
0.75
 40
0.75
 40
0.75
 40
0.75
 40
1.0
 40
1.0
 40
1.0
 40
1.0
 10
0.1890708661417323
 20
0.248744094488189
 30
0.0
 10
0.1890708661417323
 20
0.248744094488189
 30
0.0
 10
0.8181062992125985
 20
0.6072677165354331
 30
0.0
 10
0.8181062992125985
 20
0.6072677165354331
 30
0.0
 10
0.8181062992125985
 20
0.6072677165354331
 30
0.0
 10
0.8181062992125985
 20
0.6072677165354331
 30
0.0
 10
0.2875314960629922
 20
0.6072677165354331
 30
0.0
 10
0.2875314960629922
 20
0.6072677165354331
 30
0.0
 10
0.2875314960629922
 20
0.6072677165354331
 30
0.0
 10
0.2875314960629922
 20
0.6072677165354331
 30
0.0
 10
-0.341503937007874
 20
0.248744094488189
 30
0.0
 10
-0.341503937007874
 20
0.248744094488189
 30
0.0
 10
-0.341503937007874
 20
0.248744094488189
 30
0.0
 10
-0.341503937007874
 20
0.248744094488189
 30
0.0
 10
0.1890708661417323
 20
0.248744094488189
 30
0.0
 10
0.1890708661417323
 20
0.248744094488189
 30
0.0
  0
SPLINE
  5
65
330
1F
100
AcDbEntity
  8
Layer 1
 62
   250
370
     5
100
AcDbSpline
210
0.0
220
0.0
230
1.0
 70
    11
 71
     3
 72
    20
 73
    16
 74
     0
 42
0.0000000001
 43
0.0000000001
 40
0.0
 40
0.0
 40
0.0
 40
0.0
 40
0.25
 40
0.25
 40
0.25
 40
0.25
 40
0.5
 40
0.5
 40
0.5
 40
0.5
 40
0.75
 40
0.75
 40
0.75
 40
0.75
 40
1.0
 40
1.0
 40
1.0
 40
1.0
 10
0.1890708661417323
 20
0.248744094488189
 30
0.0
 10
0.1890708661417323
 20
0.248744094488189
 30
0.0
 10
0.8181062992125985
 20
0.6072677165354331
 30
0.0
 10
0.8181062992125985
 20
0.6072677165354331
 30
0.0
 10
0.8181062992125985
 20
0.6072677165354331
 30
0.0
 10
0.8181062992125985
 20
0.6072677165354331
 30
0.0
 10
0.2875314960629922
 20
0.6072677165354331
 30
0.0
 10
0.2875314960629922
 20
0.6072677165354331
 30
0.0
 10
0.2875314960629922
 20
0.6072677165354331
 30
0.0
 10
0.2875314960629922
 20
0.6072677165354331
 30
0.0
 10
-0.341503937007874
 20
0.248744094488189
 30
0.0
 10
-0.341503937007874
 20
0.248744094488189
 30
0.0
 10
-0.341503937007874
 20
0.248744094488189
 30
0.0
 10
-0.341503937007874
 20
0.248744094488189
 30
0.0
 10
0.1890708661417323
 20
0.248744094488189
 30
0.0
 10
0.1890708661417323
 20
0.248744094488189
 30
0.0
  0
SPLINE
  5
66
330
1F
100
AcDbEntity
  8
Layer 1
 62
   252
100
AcDbSpline
210
0.0
220
0.0
230
1.0
 70
    11
 71
     3
 72
    20
 73
    16
 74
     0
 42
0.0000000001
 43
0.0000000001
 40
0.0
 40
0.0
 40
0.0
 40
0.0
 40
0.25
 40
0.25
 40
0.25
 40
0.25
 40
0.5
 40
0.5
 40
0.5
 40
0.5
 40
0.75
 40
0.75
 40
0.75
 40
0.75
 40
1.0
 40
1.0
 40
1.0
 40
1.0
 10
-0.5683818897637796
 20
0.248744094488189
 30
0.0
 10
-0.5683818897637796
 20
0.248744094488189
 30
0.0
 10
0.0606535433070866
 20
0.6072677165354331
 30
0.0
 10
0.0606535433070866
 20
0.6072677165354331
 30
0.0
 10
0.0606535433070866
 20
0.6072677165354331
 30
0.0
 10
0.0606535433070866
 20
0.6072677165354331
 30
0.0
 10
-0.0253228346456693
 20
0.6072677165354331
 30
0.0
 10
-0.0253228346456693
 20
0.6072677165354331
 30
0.0
 10
-0.0253228346456693
 20
0.6072677165354331
 30
0.0
 10
-0.0253228346456693
 20
0.6072677165354331
 30
0.0
 10
-0.6543582677165355
 20
0.248744094488189
 30
0.0
 10
-0.6543582677165355
 20
0.248744094488189
 30
0.0
 10
-0.6543582677165355
 20
0.248744094488189
 30
0.0
 10
-0.6543582677165355
 20
0.248744094488189
 30
0.0
 10
-0.5683818897637796
 20
0.248744094488189
 30
0.0
 10
-0.5683818897637796
 20
0.248744094488189
 30
0.0
  0
SPLINE
  5
67
330
1F
100
AcDbEntity
  8
Layer 1
 62
   250
370
     5
100
AcDbSpline
210
0.0
220
0.0
230
1.0
 70
    11
 71
     3
 72
    20
 73
    16
 74
     0
 42
0.0000000001
 43
0.0000000001
 40
0.0
 40
0.0
 40
0.0
 40
0.0
 40
0.25
 40
0.25
 40
0.25
 40
0.25
 40
0.5
 40
0.5
 40
0.5
 40
0.5
 40
0.75
 40
0.75
 40
0.75
 40
0.75
 40
1.0
 40
1.0
 40
1.0
 40
1.0
 10
-0.5683818897637796
 20
0.248744094488189
 30
0.0
 10
-0.5683818897637796
 20
0.248744094488189
 30
0.0
 10
0.0606535433070866
 20
0.6072677165354331
 30
0.0
 10
0.0606535433070866
 20
0.6072677165354331
 30
0.0
 10
0.0606535433070866
 20
0.6072677165354331
 30
0.0
 10
0.0606535433070866
 20
0.6072677165354331
 30
0.0
 10
-0.0253228346456693
 20
0.6072677165354331
 30
0.0
 10
-0.0253228346456693
 20
0.6072677165354331
 30
0.0
 10
-0.0253228346456693
 20
0.6072677165354331
 30
0.0
 10
-0.0253228346456693
 20
0.6072677165354331
 30
0.0
 10
-0.6543582677165355
 20
0.248744094488189
 30
0.0
 10
-0.6543582677165355
 20
0.248744094488189
 30
0.0
 10
-0.6543582677165355
 20
0.248744094488189
 30
0.0
 10
-0.6543582677165355
 20
0.248744094488189
 30
0.0
 10
-0.5683818897637796
 20
0.248744094488189
 30
0.0
 10
-0.5683818897637796
 20
0.248744094488189
 30
0.0
  0
SPLINE
  5
68
330
1F
100
AcDbEntity
  8
Layer 1
 62
   253
100
AcDbSpline
210
0.0
220
0.0
230
1.0
 70
    11
 71
     3
 72
    20
 73
    16
 74
     0
 42
0.0000000001
 43
0.0000000001
 40
0.0
 40
0.0
 40
0.0
 40
0.0
 40
0.25
 40
0.25
 40
0.25
 40
0.25
 40
0.5
 40
0.5
 40
0.5
 40
0.5
 40
0.75
 40
0.75
 40
0.75
 40
0.75
 40
1.0
 40
1.0
 40
1.0
 40
1.0
 10
-0.6543582677165355
 20
0.248744094488189
 30
0.0
 10
-0.6543582677165355
 20
0.248744094488189
 30
0.0
 10
-0.0253228346456693
 20
0.6072677165354331
 30
0.0
 10
-0.0253228346456693
 20
0.6072677165354331
 30
0.0
 10
-0.0253228346456693
 20
0.6072677165354331
 30
0.0
 10
-0.0253228346456693
 20
0.6072677165354331
 30
0.0
 10
-0.0493267716535433
 20
0.9248582677165355
 30
0.0
 10
-0.0493267716535433
 20
0.9248582677165355
 30
0.0
 10
-0.0493267716535433
 20
0.9248582677165355
 30
0.0
 10
-0.0493267716535433
 20
0.9248582677165355
 30
0.0
 10
-0.6783622047244095
 20
0.5663346456692914
 30
0.0
 10
-0.6783622047244095
 20
0.5663346456692914
 30
0.0
 10
-0.6783622047244095
 20
0.5663346456692914
 30
0.0
 10
-0.6783622047244095
 20
0.5663346456692914
 30
0.0
 10
-0.6543582677165355
 20
0.248744094488189
 30
0.0
 10
-0.6543582677165355
 20
0.248744094488189
 30
0.0
  0
SPLINE
  5
69
330
1F
100
AcDbEntity
  8
Layer 1
 62
   250
370
     5
100
AcDbSpline
210
0.0
220
0.0
230
1.0
 70
    11
 71
     3
 72
    20
 73
    16
 74
     0
 42
0.0000000001
 43
0.0000000001
 40
0.0
 40
0.0
 40
0.0
 40
0.0
 40
0.25
 40
0.25
 40
0.25
 40
0.25
 40
0.5
 40
0.5
 40
0.5
 40
0.5
 40
0.75
 40
0.75
 40
0.75
 40
0.75
 40
1.0
 40
1.0
 40
1.0
 40
1.0
 10
-0.6543582677165355
 20
0.248744094488189
 30
0.0
 10
-0.6543582677165355
 20
0.248744094488189
 30
0.0
 10
-0.0253228346456693
 20
0.6072677165354331
 30
0.0
 10
-0.0253228346456693
 20
0.6072677165354331
 30
0.0
 10
-0.0253228346456693
 20
0.6072677165354331
 30
0.0
 10
-0.0253228346456693
 20
0.6072677165354331
 30
0.0
 10
-0.0493267716535433
 20
0.9248582677165355
 30
0.0
 10
-0.0493267716535433
 20
0.9248582677165355
 30
0.0
 10
-0.0493267716535433
 20
0.9248582677165355
 30
0.0
 10
-0.0493267716535433
 20
0.9248582677165355
 30
0.0
 10
-0.6783622047244095
 20
0.5663346456692914
 30
0.0
 10
-0.6783622047244095
 20
0.5663346456692914
 30
0.0
 10
-0.6783622047244095
 20
0.5663346456692914
 30
0.0
 10
-0.6783622047244095
 20
0.5663346456692914
 30
0.0
 10
-0.6543582677165355
 20
0.248744094488189
 30
0.0
 10
-0.6543582677165355
 20
0.248744094488189
 30
0.0
  0
SPLINE
  5
6A
330
1F
100
AcDbEntity
  8
Layer 1
 62
   253
100
AcDbSpline
210
0.0
220
0.0
230
1.0
 70
    11
 71
     3
 72
    44
 73
    40
 74
     0
 42
0.0000000001
 43
0.0000000001
 40
0.0
 40
0.0
 40
0.0
 40
0.0
 40
0.1
 40
0.1
 40
0.1
 40
0.1
 40
0.2
 40
0.2
 40
0.2
 40
0.2
 40
0.3
 40
0.3
 40
0.3
 40
0.3
 40
0.4
 40
0.4
 40
0.4
 40
0.4
 40
0.5
 40
0.5
 40
0.5
 40
0.5
 40
0.6
 40
0.6
 40
0.6
 40
0.6
 40
0.7
 40
0.7
 40
0.7
 40
0.7
 40
0.7999999999999999
 40
0.7999999999999999
 40
0.7999999999999999
 40
0.7999999999999999
 40
0.8999999999999999
 40
0.8999999999999999
 40
0.8999999999999999
 40
0.8999999999999999
 40
1.0
 40
1.0
 40
1.0
 40
1.0
 10
-0.341503937007874
 20
0.248744094488189
 30
0.0
 10
-0.341503937007874
 20
0.248744094488189
 30
0.0
 10
0.2875314960629922
 20
0.6072677165354331
 30
0.0
 10
0.2875314960629922
 20
0.6072677165354331
 30
0.0
 10
0.2875314960629922
 20
0.6072677165354331
 30
0.0
 10
0.2875314960629922
 20
0.6072677165354331
 30
0.0
 10
0.2869488188976378
 20
0.6188582677165354
 30
0.0
 10
0.2869488188976378
 20
0.6188582677165354
 30
0.0
 10
0.2869488188976378
 20
0.6188582677165354
 30
0.0
 10
0.2869488188976378
 20
0.6188582677165354
 30
0.0
 10
0.2852283464566929
 20
0.6301181102362204
 30
0.0
 10
0.2852283464566929
 20
0.6301181102362204
 30
0.0
 10
0.2852283464566929
 20
0.6301181102362204
 30
0.0
 10
0.2852283464566929
 20
0.6301181102362204
 30
0.0
 10
0.2824370078740158
 20
0.640988188976378
 30
0.0
 10
0.2824370078740158
 20
0.640988188976378
 30
0.0
 10
0.2824370078740158
 20
0.640988188976378
 30
0.0
 10
0.2824370078740158
 20
0.640988188976378
 30
0.0
 10
0.2786181102362205
 20
0.6514133858267717
 30
0.0
 10
0.2786181102362205
 20
0.6514133858267717
 30
0.0
 10
0.2786181102362205
 20
0.6514133858267717
 30
0.0
 10
0.2786181102362205
 20
0.6514133858267717
 30
0.0
 10
-0.3504173228346457
 20
0.2928897637795276
 30
0.0
 10
-0.3504173228346457
 20
0.2928897637795276
 30
0.0
 10
-0.3504173228346457
 20
0.2928897637795276
 30
0.0
 10
-0.3504173228346457
 20
0.2928897637795276
 30
0.0
 10
-0.3465984251968504
 20
0.2824645669291339
 30
0.0
 10
-0.3465984251968504
 20
0.2824645669291339
 30
0.0
 10
-0.3465984251968504
 20
0.2824645669291339
 30
0.0
 10
-0.3465984251968504
 20
0.2824645669291339
 30
0.0
 10
-0.3438070866141733
 20
0.2715944881889764
 30
0.0
 10
-0.3438070866141733
 20
0.2715944881889764
 30
0.0
 10
-0.3438070866141733
 20
0.2715944881889764
 30
0.0
 10
-0.3438070866141733
 20
0.2715944881889764
 30
0.0
 10
-0.3420866141732283
 20
0.2603346456692914
 30
0.0
 10
-0.3420866141732283
 20
0.2603346456692914
 30
0.0
 10
-0.3420866141732283
 20
0.2603346456692914
 30
0.0
 10
-0.3420866141732283
 20
0.2603346456692914
 30
0.0
 10
-0.341503937007874
 20
0.248744094488189
 30
0.0
 10
-0.341503937007874
 20
0.248744094488189
 30
0.0
  0
SPLINE
  5
6B
330
1F
100
AcDbEntity
  8
Layer 1
 62
   253
100
AcDbSpline
210
0.0
220
0.0
230
1.0
 70
    11
 71
     3
 72
    44
 73
    40
 74
     0
 42
0.0000000001
 43
0.0000000001
 40
0.0
 40
0.0
 40
0.0
 40
0.0
 40
0.1
 40
0.1
 40
0.1
 40
0.1
 40
0.2
 40
0.2
 40
0.2
 40
0.2
 40
0.3
 40
0.3
 40
0.3
 40
0.3
 40
0.4
 40
0.4
 40
0.4
 40
0.4
 40
0.5
 40
0.5
 40
0.5
 40
0.5
 40
0.6
 40
0.6
 40
0.6
 40
0.6
 40
0.7
 40
0.7
 40
0.7
 40
0.7
 40
0.7999999999999999
 40
0.7999999999999999
 40
0.7999999999999999
 40
0.7999999999999999
 40
0.8999999999999999
 40
0.8999999999999999
 40
0.8999999999999999
 40
0.8999999999999999
 40
1.0
 40
1.0
 40
1.0
 40
1.0
 10
-0.3504173228346457
 20
0.2928897637795276
 30
0.0
 10
-0.3504173228346457
 20
0.2928897637795276
 30
0.0
 10
0.2786181102362205
 20
0.6514133858267717
 30
0.0
 10
0.2786181102362205
 20
0.6514133858267717
 30
0.0
 10
0.2786181102362205
 20
0.6514133858267717
 30
0.0
 10
0.2786181102362205
 20
0.6514133858267717
 30
0.0
 10
0.2738464566929134
 20
0.6613228346456693
 30
0.0
 10
0.2738464566929134
 20
0.6613228346456693
 30
0.0
 10
0.2738464566929134
 20
0.6613228346456693
 30
0.0
 10
0.2738464566929134
 20
0.6613228346456693
 30
0.0
 10
0.2681614173228347
 20
0.6706811023622048
 30
0.0
 10
0.2681614173228347
 20
0.6706811023622048
 30
0.0
 10
0.2681614173228347
 20
0.6706811023622048
 30
0.0
 10
0.2681614173228347
 20
0.6706811023622048
 30
0.0
 10
0.2616338582677166
 20
0.6794133858267717
 30
0.0
 10
0.2616338582677166
 20
0.6794133858267717
 30
0.0
 10
0.2616338582677166
 20
0.6794133858267717
 30
0.0
 10
0.2616338582677166
 20
0.6794133858267717
 30
0.0
 10
0.2543070866141732
 20
0.6874724409448819
 30
0.0
 10
0.2543070866141732
 20
0.6874724409448819
 30
0.0
 10
0.2543070866141732
 20
0.6874724409448819
 30
0.0
 10
0.2543070866141732
 20
0.6874724409448819
 30
0.0
 10
-0.374728346456693
 20
0.3289488188976378
 30
0.0
 10
-0.374728346456693
 20
0.3289488188976378
 30
0.0
 10
-0.374728346456693
 20
0.3289488188976378
 30
0.0
 10
-0.374728346456693
 20
0.3289488188976378
 30
0.0
 10
-0.3674015748031496
 20
0.3208897637795276
 30
0.0
 10
-0.3674015748031496
 20
0.3208897637795276
 30
0.0
 10
-0.3674015748031496
 20
0.3208897637795276
 30
0.0
 10
-0.3674015748031496
 20
0.3208897637795276
 30
0.0
 10
-0.3608740157480315
 20
0.3121574803149607
 30
0.0
 10
-0.3608740157480315
 20
0.3121574803149607
 30
0.0
 10
-0.3608740157480315
 20
0.3121574803149607
 30
0.0
 10
-0.3608740157480315
 20
0.3121574803149607
 30
0.0
 10
-0.3551889763779528
 20
0.3027992125984252
 30
0.0
 10
-0.3551889763779528
 20
0.3027992125984252
 30
0.0
 10
-0.3551889763779528
 20
0.3027992125984252
 30
0.0
 10
-0.3551889763779528
 20
0.3027992125984252
 30
0.0
 10
-0.3504173228346457
 20
0.2928897637795276
 30
0.0
 10
-0.3504173228346457
 20
0.2928897637795276
 30
0.0
  0
SPLINE
  5
6C
330
1F
100
AcDbEntity
  8
Layer 1
 62
   252
100
AcDbSpline
210
0.0
220
0.0
230
1.0
 70
    11
 71
     3
 72
    44
 73
    40
 74
     0
 42
0.0000000001
 43
0.0000000001
 40
0.0
 40
0.0
 40
0.0
 40
0.0
 40
0.1
 40
0.1
 40
0.1
 40
0.1
 40
0.2
 40
0.2
 40
0.2
 40
0.2
 40
0.3
 40
0.3
 40
0.3
 40
0.3
 40
0.4
 40
0.4
 40
0.4
 40
0.4
 40
0.5
 40
0.5
 40
0.5
 40
0.5
 40
0.6
 40
0.6
 40
0.6
 40
0.6
 40
0.7
 40
0.7
 40
0.7
 40
0.7
 40
0.7999999999999999
 40
0.7999999999999999
 40
0.7999999999999999
 40
0.7999999999999999
 40
0.8999999999999999
 40
0.8999999999999999
 40
0.8999999999999999
 40
0.8999999999999999
 40
1.0
 40
1.0
 40
1.0
 40
1.0
 10
-0.374728346456693
 20
0.3289488188976378
 30
0.0
 10
-0.374728346456693
 20
0.3289488188976378
 30
0.0
 10
0.2543070866141732
 20
0.6874724409448819
 30
0.0
 10
0.2543070866141732
 20
0.6874724409448819
 30
0.0
 10
0.2543070866141732
 20
0.6874724409448819
 30
0.0
 10
0.2543070866141732
 20
0.6874724409448819
 30
0.0
 10
0.246255905511811
 20
0.6947874015748031
 30
0.0
 10
0.246255905511811
 20
0.6947874015748031
 30
0.0
 10
0.246255905511811
 20
0.6947874015748031
 30
0.0
 10
0.246255905511811
 20
0.6947874015748031
 30
0.0
 10
0.2375236220472441
 20
0.7013228346456694
 30
0.0
 10
0.2375236220472441
 20
0.7013228346456694
 30
0.0
 10
0.2375236220472441
 20
0.7013228346456694
 30
0.0
 10
0.2375236220472441
 20
0.7013228346456694
 30
0.0
 10
0.2281732283464567
 20
0.707003937007874
 30
0.0
 10
0.2281732283464567
 20
0.707003937007874
 30
0.0
 10
0.2281732283464567
 20
0.707003937007874
 30
0.0
 10
0.2281732283464567
 20
0.707003937007874
 30
0.0
 10
0.218251968503937
 20
0.7117834645669292
 30
0.0
 10
0.218251968503937
 20
0.7117834645669292
 30
0.0
 10
0.218251968503937
 20
0.7117834645669292
 30
0.0
 10
0.218251968503937
 20
0.7117834645669292
 30
0.0
 10
-0.4107834645669292
 20
0.3532598425196851
 30
0.0
 10
-0.4107834645669292
 20
0.3532598425196851
 30
0.0
 10
-0.4107834645669292
 20
0.3532598425196851
 30
0.0
 10
-0.4107834645669292
 20
0.3532598425196851
 30
0.0
 10
-0.4008622047244095
 20
0.3484803149606299
 30
0.0
 10
-0.4008622047244095
 20
0.3484803149606299
 30
0.0
 10
-0.4008622047244095
 20
0.3484803149606299
 30
0.0
 10
-0.4008622047244095
 20
0.3484803149606299
 30
0.0
 10
-0.391511811023622
 20
0.3427992125984252
 30
0.0
 10
-0.391511811023622
 20
0.3427992125984252
 30
0.0
 10
-0.391511811023622
 20
0.3427992125984252
 30
0.0
 10
-0.391511811023622
 20
0.3427992125984252
 30
0.0
 10
-0.3827795275590551
 20
0.3362637795275591
 30
0.0
 10
-0.3827795275590551
 20
0.3362637795275591
 30
0.0
 10
-0.3827795275590551
 20
0.3362637795275591
 30
0.0
 10
-0.3827795275590551
 20
0.3362637795275591
 30
0.0
 10
-0.374728346456693
 20
0.3289488188976378
 30
0.0
 10
-0.374728346456693
 20
0.3289488188976378
 30
0.0
  0
SPLINE
  5
6D
330
1F
100
AcDbEntity
  8
Layer 1
 62
   252
100
AcDbSpline
210
0.0
220
0.0
230
1.0
 70
    11
 71
     3
 72
    44
 73
    40
 74
     0
 42
0.0000000001
 43
0.0000000001
 40
0.0
 40
0.0
 40
0.0
 40
0.0
 40
0.1
 40
0.1
 40
0.1
 40
0.1
 40
0.2
 40
0.2
 40
0.2
 40
0.2
 40
0.3
 40
0.3
 40
0.3
 40
0.3
 40
0.4
 40
0.4
 40
0.4
 40
0.4
 40
0.5
 40
0.5
 40
0.5
 40
0.5
 40
0.6
 40
0.6
 40
0.6
 40
0.6
 40
0.7
 40
0.7
 40
0.7
 40
0.7
 40
0.7999999999999999
 40
0.7999999999999999
 40
0.7999999999999999
 40
0.7999999999999999
 40
0.8999999999999999
 40
0.8999999999999999
 40
0.8999999999999999
 40
0.8999999999999999
 40
1.0
 40
1.0
 40
1.0
 40
1.0
 10
-0.4107834645669292
 20
0.3532598425196851
 30
0.0
 10
-0.4107834645669292
 20
0.3532598425196851
 30
0.0
 10
0.218251968503937
 20
0.7117834645669292
 30
0.0
 10
0.218251968503937
 20
0.7117834645669292
 30
0.0
 10
0.218251968503937
 20
0.7117834645669292
 30
0.0
 10
0.218251968503937
 20
0.7117834645669292
 30
0.0
 10
0.2078307086614173
 20
0.7155944881889764
 30
0.0
 10
0.2078307086614173
 20
0.7155944881889764
 30
0.0
 10
0.2078307086614173
 20
0.7155944881889764
 30
0.0
 10
0.2078307086614173
 20
0.7155944881889764
 30
0.0
 10
0.1969566929133858
 20
0.7183937007874016
 30
0.0
 10
0.1969566929133858
 20
0.7183937007874016
 30
0.0
 10
0.1969566929133858
 20
0.7183937007874016
 30
0.0
 10
0.1969566929133858
 20
0.7183937007874016
 30
0.0
 10
0.1856968503937008
 20
0.7201141732283465
 30
0.0
 10
0.1856968503937008
 20
0.7201141732283465
 30
0.0
 10
0.1856968503937008
 20
0.7201141732283465
 30
0.0
 10
0.1856968503937008
 20
0.7201141732283465
 30
0.0
 10
0.1740944881889764
 20
0.7207047244094489
 30
0.0
 10
0.1740944881889764
 20
0.7207047244094489
 30
0.0
 10
0.1740944881889764
 20
0.7207047244094489
 30
0.0
 10
0.1740944881889764
 20
0.7207047244094489
 30
0.0
 10
-0.4549409448818898
 20
0.3621811023622047
 30
0.0
 10
-0.4549409448818898
 20
0.3621811023622047
 30
0.0
 10
-0.4549409448818898
 20
0.3621811023622047
 30
0.0
 10
-0.4549409448818898
 20
0.3621811023622047
 30
0.0
 10
-0.4433385826771654
 20
0.3615905511811024
 30
0.0
 10
-0.4433385826771654
 20
0.3615905511811024
 30
0.0
 10
-0.4433385826771654
 20
0.3615905511811024
 30
0.0
 10
-0.4433385826771654
 20
0.3615905511811024
 30
0.0
 10
-0.4320787401574803
 20
0.3598700787401575
 30
0.0
 10
-0.4320787401574803
 20
0.3598700787401575
 30
0.0
 10
-0.4320787401574803
 20
0.3598700787401575
 30
0.0
 10
-0.4320787401574803
 20
0.3598700787401575
 30
0.0
 10
-0.4212047244094488
 20
0.3570708661417323
 30
0.0
 10
-0.4212047244094488
 20
0.3570708661417323
 30
0.0
 10
-0.4212047244094488
 20
0.3570708661417323
 30
0.0
 10
-0.4212047244094488
 20
0.3570708661417323
 30
0.0
 10
-0.4107834645669292
 20
0.3532598425196851
 30
0.0
 10
-0.4107834645669292
 20
0.3532598425196851
 30
0.0
  0
SPLINE
  5
6E
330
1F
100
AcDbEntity
  8
Layer 1
 62
   251
100
AcDbSpline
210
0.0
220
0.0
230
1.0
 70
    11
 71
     3
 72
    44
 73
    40
 74
     0
 42
0.0000000001
 43
0.0000000001
 40
0.0
 40
0.0
 40
0.0
 40
0.0
 40
0.1
 40
0.1
 40
0.1
 40
0.1
 40
0.2
 40
0.2
 40
0.2
 40
0.2
 40
0.3
 40
0.3
 40
0.3
 40
0.3
 40
0.4
 40
0.4
 40
0.4
 40
0.4
 40
0.5
 40
0.5
 40
0.5
 40
0.5
 40
0.6
 40
0.6
 40
0.6
 40
0.6
 40
0.7
 40
0.7
 40
0.7
 40
0.7
 40
0.7999999999999999
 40
0.7999999999999999
 40
0.7999999999999999
 40
0.7999999999999999
 40
0.8999999999999999
 40
0.8999999999999999
 40
0.8999999999999999
 40
0.8999999999999999
 40
1.0
 40
1.0
 40
1.0
 40
1.0
 10
-0.4549409448818898
 20
0.3621811023622047
 30
0.0
 10
-0.4549409448818898
 20
0.3621811023622047
 30
0.0
 10
0.1740944881889764
 20
0.7207047244094489
 30
0.0
 10
0.1740944881889764
 20
0.7207047244094489
 30
0.0
 10
0.1740944881889764
 20
0.7207047244094489
 30
0.0
 10
0.1740944881889764
 20
0.7207047244094489
 30
0.0
 10
0.162503937007874
 20
0.7201141732283465
 30
0.0
 10
0.162503937007874
 20
0.7201141732283465
 30
0.0
 10
0.162503937007874
 20
0.7201141732283465
 30
0.0
 10
0.162503937007874
 20
0.7201141732283465
 30
0.0
 10
0.151240157480315
 20
0.7183937007874016
 30
0.0
 10
0.151240157480315
 20
0.7183937007874016
 30
0.0
 10
0.151240157480315
 20
0.7183937007874016
 30
0.0
 10
0.151240157480315
 20
0.7183937007874016
 30
0.0
 10
0.1403700787401575
 20
0.7155944881889764
 30
0.0
 10
0.1403700787401575
 20
0.7155944881889764
 30
0.0
 10
0.1403700787401575
 20
0.7155944881889764
 30
0.0
 10
0.1403700787401575
 20
0.7155944881889764
 30
0.0
 10
0.1299448818897638
 20
0.7117834645669292
 30
0.0
 10
0.1299448818897638
 20
0.7117834645669292
 30
0.0
 10
0.1299448818897638
 20
0.7117834645669292
 30
0.0
 10
0.1299448818897638
 20
0.7117834645669292
 30
0.0
 10
-0.4990905511811024
 20
0.3532598425196851
 30
0.0
 10
-0.4990905511811024
 20
0.3532598425196851
 30
0.0
 10
-0.4990905511811024
 20
0.3532598425196851
 30
0.0
 10
-0.4990905511811024
 20
0.3532598425196851
 30
0.0
 10
-0.4886653543307087
 20
0.3570708661417323
 30
0.0
 10
-0.4886653543307087
 20
0.3570708661417323
 30
0.0
 10
-0.4886653543307087
 20
0.3570708661417323
 30
0.0
 10
-0.4886653543307087
 20
0.3570708661417323
 30
0.0
 10
-0.4777952755905512
 20
0.3598700787401575
 30
0.0
 10
-0.4777952755905512
 20
0.3598700787401575
 30
0.0
 10
-0.4777952755905512
 20
0.3598700787401575
 30
0.0
 10
-0.4777952755905512
 20
0.3598700787401575
 30
0.0
 10
-0.4665314960629922
 20
0.3615905511811024
 30
0.0
 10
-0.4665314960629922
 20
0.3615905511811024
 30
0.0
 10
-0.4665314960629922
 20
0.3615905511811024
 30
0.0
 10
-0.4665314960629922
 20
0.3615905511811024
 30
0.0
 10
-0.4549409448818898
 20
0.3621811023622047
 30
0.0
 10
-0.4549409448818898
 20
0.3621811023622047
 30
0.0
  0
SPLINE
  5
6F
330
1F
100
AcDbEntity
  8
Layer 1
 62
   251
100
AcDbSpline
210
0.0
220
0.0
230
1.0
 70
    11
 71
     3
 72
    20
 73
    16
 74
     0
 42
0.0000000001
 43
0.0000000001
 40
0.0
 40
0.0
 40
0.0
 40
0.0
 40
0.25
 40
0.25
 40
0.25
 40
0.25
 40
0.5
 40
0.5
 40
0.5
 40
0.5
 40
0.75
 40
0.75
 40
0.75
 40
0.75
 40
1.0
 40
1.0
 40
1.0
 40
1.0
 10
-0.4990905511811024
 20
0.3532598425196851
 30
0.0
 10
-0.4990905511811024
 20
0.3532598425196851
 30
0.0
 10
0.1299448818897638
 20
0.7117834645669292
 30
0.0
 10
0.1299448818897638
 20
0.7117834645669292
 30
0.0
 10
0.1299448818897638
 20
0.7117834645669292
 30
0.0
 10
0.1299448818897638
 20
0.7117834645669292
 30
0.0
 10
0.1200354330708661
 20
0.707003937007874
 30
0.0
 10
0.1200354330708661
 20
0.707003937007874
 30
0.0
 10
0.1200354330708661
 20
0.707003937007874
 30
0.0
 10
0.1200354330708661
 20
0.707003937007874
 30
0.0
 10
-0.509
 20
0.3484803149606299
 30
0.0
 10
-0.509
 20
0.3484803149606299
 30
0.0
 10
-0.509
 20
0.3484803149606299
 30
0.0
 10
-0.509
 20
0.3484803149606299
 30
0.0
 10
-0.4990905511811024
 20
0.3532598425196851
 30
0.0
 10
-0.4990905511811024
 20
0.3532598425196851
 30
0.0
  0
SPLINE
  5
70
330
1F
100
AcDbEntity
  8
Layer 1
 62
   250
370
     5
100
AcDbSpline
210
0.0
220
0.0
230
1.0
 70
    11
 71
     3
 72
   180
 73
   176
 74
     0
 42
0.0000000001
 43
0.0000000001
 40
0.0
 40
0.0
 40
0.0
 40
0.0
 40
0.0227272727272727
 40
0.0227272727272727
 40
0.0227272727272727
 40
0.0227272727272727
 40
0.0454545454545455
 40
0.0454545454545455
 40
0.0454545454545455
 40
0.0454545454545455
 40
0.0681818181818182
 40
0.0681818181818182
 40
0.0681818181818182
 40
0.0681818181818182
 40
0.0909090909090909
 40
0.0909090909090909
 40
0.0909090909090909
 40
0.0909090909090909
 40
0.1136363636363637
 40
0.1136363636363637
 40
0.1136363636363637
 40
0.1136363636363637
 40
0.1363636363636364
 40
0.1363636363636364
 40
0.1363636363636364
 40
0.1363636363636364
 40
0.1590909090909091
 40
0.1590909090909091
 40
0.1590909090909091
 40
0.1590909090909091
 40
0.1818181818181819
 40
0.1818181818181819
 40
0.1818181818181819
 40
0.1818181818181819
 40
0.2045454545454546
 40
0.2045454545454546
 40
0.2045454545454546
 40
0.2045454545454546
 40
0.2272727272727273
 40
0.2272727272727273
 40
0.2272727272727273
 40
0.2272727272727273
 40
0.2500000000000001
 40
0.2500000000000001
 40
0.2500000000000001
 40
0.2500000000000001
 40
0.2727272727272728
 40
0.2727272727272728
 40
0.2727272727272728
 40
0.2727272727272728
 40
0.2954545454545455
 40
0.2954545454545455
 40
0.2954545454545455
 40
0.2954545454545455
 40
0.3181818181818182
 40
0.3181818181818182
 40
0.3181818181818182
 40
0.3181818181818182
 40
0.3409090909090909
 40
0.3409090909090909
 40
0.3409090909090909
 40
0.3409090909090909
 40
0.3636363636363636
 40
0.3636363636363636
 40
0.3636363636363636
 40
0.3636363636363636
 40
0.3863636363636363
 40
0.3863636363636363
 40
0.3863636363636363
 40
0.3863636363636363
 40
0.409090909090909
 40
0.409090909090909
 40
0.409090909090909
 40
0.409090909090909
 40
0.4318181818181817
 40
0.4318181818181817
 40
0.4318181818181817
 40
0.4318181818181817
 40
0.4545454545454544
 40
0.4545454545454544
 40
0.4545454545454544
 40
0.4545454545454544
 40
0.4772727272727271
 40
0.4772727272727271
 40
0.4772727272727271
 40
0.4772727272727271
 40
0.4999999999999998
 40
0.4999999999999998
 40
0.4999999999999998
 40
0.4999999999999998
 40
0.5227272727272726
 40
0.5227272727272726
 40
0.5227272727272726
 40
0.5227272727272726
 40
0.5454545454545453
 40
0.5454545454545453
 40
0.5454545454545453
 40
0.5454545454545453
 40
0.568181818181818
 40
0.568181818181818
 40
0.568181818181818
 40
0.568181818181818
 40
0.5909090909090907
 40
0.5909090909090907
 40
0.5909090909090907
 40
0.5909090909090907
 40
0.6136363636363634
 40
0.6136363636363634
 40
0.6136363636363634
 40
0.6136363636363634
 40
0.6363636363636361
 40
0.6363636363636361
 40
0.6363636363636361
 40
0.6363636363636361
 40
0.6590909090909088
 40
0.6590909090909088
 40
0.6590909090909088
 40
0.6590909090909088
 40
0.6818181818181816
 40
0.6818181818181816
 40
0.6818181818181816
 40
0.6818181818181816
 40
0.7045454545454543
 40
0.7045454545454543
 40
0.7045454545454543
 40
0.7045454545454543
 40
0.727272727272727
 40
0.727272727272727
 40
0.727272727272727
 40
0.727272727272727
 40
0.7499999999999997
 40
0.7499999999999997
 40
0.7499999999999997
 40
0.7499999999999997
 40
0.7727272727272724
 40
0.7727272727272724
 40
0.7727272727272724
 40
0.7727272727272724
 40
0.7954545454545451
 40
0.7954545454545451
 40
0.7954545454545451
 40
0.7954545454545451
 40
0.8181818181818178
 40
0.8181818181818178
 40
0.8181818181818178
 40
0.8181818181818178
 40
0.8409090909090905
 40
0.8409090909090905
 40
0.8409090909090905
 40
0.8409090909090905
 40
0.8636363636363632
 40
0.8636363636363632
 40
0.8636363636363632
 40
0.8636363636363632
 40
0.8863636363636359
 40
0.8863636363636359
 40
0.8863636363636359
 40
0.8863636363636359
 40
0.9090909090909086
 40
0.9090909090909086
 40
0.9090909090909086
 40
0.9090909090909086
 40
0.9318181818181813
 40
0.9318181818181813
 40
0.9318181818181813
 40
0.9318181818181813
 40
0.954545454545454
 40
0.954545454545454
 40
0.954545454545454
 40
0.954545454545454
 40
0.9772727272727267
 40
0.9772727272727267
 40
0.9772727272727267
 40
0.9772727272727267
 40
1.0
 40
1.0
 40
1.0
 40
1.0
 10
-0.341503937007874
 20
0.248744094488189
 30
0.0
 10
-0.341503937007874
 20
0.248744094488189
 30
0.0
 10
0.2875314960629922
 20
0.6072677165354331
 30
0.0
 10
0.2875314960629922
 20
0.6072677165354331
 30
0.0
 10
0.2875314960629922
 20
0.6072677165354331
 30
0.0
 10
0.2875314960629922
 20
0.6072677165354331
 30
0.0
 10
0.2869488188976378
 20
0.6188582677165354
 30
0.0
 10
0.2869488188976378
 20
0.6188582677165354
 30
0.0
 10
0.2869488188976378
 20
0.6188582677165354
 30
0.0
 10
0.2869488188976378
 20
0.6188582677165354
 30
0.0
 10
0.2852283464566929
 20
0.6301181102362204
 30
0.0
 10
0.2852283464566929
 20
0.6301181102362204
 30
0.0
 10
0.2852283464566929
 20
0.6301181102362204
 30
0.0
 10
0.2852283464566929
 20
0.6301181102362204
 30
0.0
 10
0.2824370078740158
 20
0.640988188976378
 30
0.0
 10
0.2824370078740158
 20
0.640988188976378
 30
0.0
 10
0.2824370078740158
 20
0.640988188976378
 30
0.0
 10
0.2824370078740158
 20
0.640988188976378
 30
0.0
 10
0.2786181102362205
 20
0.6514133858267717
 30
0.0
 10
0.2786181102362205
 20
0.6514133858267717
 30
0.0
 10
0.2786181102362205
 20
0.6514133858267717
 30
0.0
 10
0.2786181102362205
 20
0.6514133858267717
 30
0.0
 10
0.2738464566929134
 20
0.6613228346456693
 30
0.0
 10
0.2738464566929134
 20
0.6613228346456693
 30
0.0
 10
0.2738464566929134
 20
0.6613228346456693
 30
0.0
 10
0.2738464566929134
 20
0.6613228346456693
 30
0.0
 10
0.2681614173228347
 20
0.6706811023622048
 30
0.0
 10
0.2681614173228347
 20
0.6706811023622048
 30
0.0
 10
0.2681614173228347
 20
0.6706811023622048
 30
0.0
 10
0.2681614173228347
 20
0.6706811023622048
 30
0.0
 10
0.2616338582677166
 20
0.6794133858267717
 30
0.0
 10
0.2616338582677166
 20
0.6794133858267717
 30
0.0
 10
0.2616338582677166
 20
0.6794133858267717
 30
0.0
 10
0.2616338582677166
 20
0.6794133858267717
 30
0.0
 10
0.2543070866141732
 20
0.6874724409448819
 30
0.0
 10
0.2543070866141732
 20
0.6874724409448819
 30
0.0
 10
0.2543070866141732
 20
0.6874724409448819
 30
0.0
 10
0.2543070866141732
 20
0.6874724409448819
 30
0.0
 10
0.246255905511811
 20
0.6947874015748031
 30
0.0
 10
0.246255905511811
 20
0.6947874015748031
 30
0.0
 10
0.246255905511811
 20
0.6947874015748031
 30
0.0
 10
0.246255905511811
 20
0.6947874015748031
 30
0.0
 10
0.2375236220472441
 20
0.7013228346456694
 30
0.0
 10
0.2375236220472441
 20
0.7013228346456694
 30
0.0
 10
0.2375236220472441
 20
0.7013228346456694
 30
0.0
 10
0.2375236220472441
 20
0.7013228346456694
 30
0.0
 10
0.2281732283464567
 20
0.707003937007874
 30
0.0
 10
0.2281732283464567
 20
0.707003937007874
 30
0.0
 10
0.2281732283464567
 20
0.707003937007874
 30
0.0
 10
0.2281732283464567
 20
0.707003937007874
 30
0.0
 10
0.218251968503937
 20
0.7117834645669292
 30
0.0
 10
0.218251968503937
 20
0.7117834645669292
 30
0.0
 10
0.218251968503937
 20
0.7117834645669292
 30
0.0
 10
0.218251968503937
 20
0.7117834645669292
 30
0.0
 10
0.2078307086614173
 20
0.7155944881889764
 30
0.0
 10
0.2078307086614173
 20
0.7155944881889764
 30
0.0
 10
0.2078307086614173
 20
0.7155944881889764
 30
0.0
 10
0.2078307086614173
 20
0.7155944881889764
 30
0.0
 10
0.1969566929133858
 20
0.7183937007874016
 30
0.0
 10
0.1969566929133858
 20
0.7183937007874016
 30
0.0
 10
0.1969566929133858
 20
0.7183937007874016
 30
0.0
 10
0.1969566929133858
 20
0.7183937007874016
 30
0.0
 10
0.1856968503937008
 20
0.7201141732283465
 30
0.0
 10
0.1856968503937008
 20
0.7201141732283465
 30
0.0
 10
0.1856968503937008
 20
0.7201141732283465
 30
0.0
 10
0.1856968503937008
 20
0.7201141732283465
 30
0.0
 10
0.1740944881889764
 20
0.7207047244094489
 30
0.0
 10
0.1740944881889764
 20
0.7207047244094489
 30
0.0
 10
0.1740944881889764
 20
0.7207047244094489
 30
0.0
 10
0.1740944881889764
 20
0.7207047244094489
 30
0.0
 10
0.162503937007874
 20
0.7201141732283465
 30
0.0
 10
0.162503937007874
 20
0.7201141732283465
 30
0.0
 10
0.162503937007874
 20
0.7201141732283465
 30
0.0
 10
0.162503937007874
 20
0.7201141732283465
 30
0.0
 10
0.151240157480315
 20
0.7183937007874016
 30
0.0
 10
0.151240157480315
 20
0.7183937007874016
 30
0.0
 10
0.151240157480315
 20
0.7183937007874016
 30
0.0
 10
0.151240157480315
 20
0.7183937007874016
 30
0.0
 10
0.1403700787401575
 20
0.7155944881889764
 30
0.0
 10
0.1403700787401575
 20
0.7155944881889764
 30
0.0
 10
0.1403700787401575
 20
0.7155944881889764
 30
0.0
 10
0.1403700787401575
 20
0.7155944881889764
 30
0.0
 10
0.1299448818897638
 20
0.7117834645669292
 30
0.0
 10
0.1299448818897638
 20
0.7117834645669292
 30
0.0
 10
0.1299448818897638
 20
0.7117834645669292
 30
0.0
 10
0.1299448818897638
 20
0.7117834645669292
 30
0.0
 10
0.1200354330708661
 20
0.707003937007874
 30
0.0
 10
0.1200354330708661
 20
0.707003937007874
 30
0.0
 10
0.1200354330708661
 20
0.707003937007874
 30
0.0
 10
0.1200354330708661
 20
0.707003937007874
 30
0.0
 10
-0.509
 20
0.3484803149606299
 30
0.0
 10
-0.509
 20
0.3484803149606299
 30
0.0
 10
-0.509
 20
0.3484803149606299
 30
0.0
 10
-0.509
 20
0.3484803149606299
 30
0.0
 10
-0.4990905511811024
 20
0.3532598425196851
 30
0.0
 10
-0.4990905511811024
 20
0.3532598425196851
 30
0.0
 10
-0.4990905511811024
 20
0.3532598425196851
 30
0.0
 10
-0.4990905511811024
 20
0.3532598425196851
 30
0.0
 10
-0.4886653543307087
 20
0.3570708661417323
 30
0.0
 10
-0.4886653543307087
 20
0.3570708661417323
 30
0.0
 10
-0.4886653543307087
 20
0.3570708661417323
 30
0.0
 10
-0.4886653543307087
 20
0.3570708661417323
 30
0.0
 10
-0.4777952755905512
 20
0.3598700787401575
 30
0.0
 10
-0.4777952755905512
 20
0.3598700787401575
 30
0.0
 10
-0.4777952755905512
 20
0.3598700787401575
 30
0.0
 10
-0.4777952755905512
 20
0.3598700787401575
 30
0.0
 10
-0.4665314960629922
 20
0.3615905511811024
 30
0.0
 10
-0.4665314960629922
 20
0.3615905511811024
 30
0.0
 10
-0.4665314960629922
 20
0.3615905511811024
 30
0.0
 10
-0.4665314960629922
 20
0.3615905511811024
 30
0.0
 10
-0.4549409448818898
 20
0.3621811023622047
 30
0.0
 10
-0.4549409448818898
 20
0.3621811023622047
 30
0.0
 10
-0.4549409448818898
 20
0.3621811023622047
 30
0.0
 10
-0.4549409448818898
 20
0.3621811023622047
 30
0.0
 10
-0.4433385826771654
 20
0.3615905511811024
 30
0.0
 10
-0.4433385826771654
 20
0.3615905511811024
 30
0.0
 10
-0.4433385826771654
 20
0.3615905511811024
 30
0.0
 10
-0.4433385826771654
 20
0.3615905511811024
 30
0.0
 10
-0.4320787401574803
 20
0.3598700787401575
 30
0.0
 10
-0.4320787401574803
 20
0.3598700787401575
 30
0.0
 10
-0.4320787401574803
 20
0.3598700787401575
 30
0.0
 10
-0.4320787401574803
 20
0.3598700787401575
 30
0.0
 10
-0.4212047244094488
 20
0.3570708661417323
 30
0.0
 10
-0.4212047244094488
 20
0.3570708661417323
 30
0.0
 10
-0.4212047244094488
 20
0.3570708661417323
 30
0.0
 10
-0.4212047244094488
 20
0.3570708661417323
 30
0.0
 10
-0.4107834645669292
 20
0.3532598425196851
 30
0.0
 10
-0.4107834645669292
 20
0.3532598425196851
 30
0.0
 10
-0.4107834645669292
 20
0.3532598425196851
 30
0.0
 10
-0.4107834645669292
 20
0.3532598425196851
 30
0.0
 10
-0.4008622047244095
 20
0.3484803149606299
 30
0.0
 10
-0.4008622047244095
 20
0.3484803149606299
 30
0.0
 10
-0.4008622047244095
 20
0.3484803149606299
 30
0.0
 10
-0.4008622047244095
 20
0.3484803149606299
 30
0.0
 10
-0.391511811023622
 20
0.3427992125984252
 30
0.0
 10
-0.391511811023622
 20
0.3427992125984252
 30
0.0
 10
-0.391511811023622
 20
0.3427992125984252
 30
0.0
 10
-0.391511811023622
 20
0.3427992125984252
 30
0.0
 10
-0.3827795275590551
 20
0.3362637795275591
 30
0.0
 10
-0.3827795275590551
 20
0.3362637795275591
 30
0.0
 10
-0.3827795275590551
 20
0.3362637795275591
 30
0.0
 10
-0.3827795275590551
 20
0.3362637795275591
 30
0.0
 10
-0.374728346456693
 20
0.3289488188976378
 30
0.0
 10
-0.374728346456693
 20
0.3289488188976378
 30
0.0
 10
-0.374728346456693
 20
0.3289488188976378
 30
0.0
 10
-0.374728346456693
 20
0.3289488188976378
 30
0.0
 10
-0.3674015748031496
 20
0.3208897637795276
 30
0.0
 10
-0.3674015748031496
 20
0.3208897637795276
 30
0.0
 10
-0.3674015748031496
 20
0.3208897637795276
 30
0.0
 10
-0.3674015748031496
 20
0.3208897637795276
 30
0.0
 10
-0.3608740157480315
 20
0.3121574803149607
 30
0.0
 10
-0.3608740157480315
 20
0.3121574803149607
 30
0.0
 10
-0.3608740157480315
 20
0.3121574803149607
 30
0.0
 10
-0.3608740157480315
 20
0.3121574803149607
 30
0.0
 10
-0.3551889763779528
 20
0.3027992125984252
 30
0.0
 10
-0.3551889763779528
 20
0.3027992125984252
 30
0.0
 10
-0.3551889763779528
 20
0.3027992125984252
 30
0.0
 10
-0.3551889763779528
 20
0.3027992125984252
 30
0.0
 10
-0.3504173228346457
 20
0.2928897637795276
 30
0.0
 10
-0.3504173228346457
 20
0.2928897637795276
 30
0.0
 10
-0.3504173228346457
 20
0.2928897637795276
 30
0.0
 10
-0.3504173228346457
 20
0.2928897637795276
 30
0.0
 10
-0.3465984251968504
 20
0.2824645669291339
 30
0.0
 10
-0.3465984251968504
 20
0.2824645669291339
 30
0.0
 10
-0.3465984251968504
 20
0.2824645669291339
 30
0.0
 10
-0.3465984251968504
 20
0.2824645669291339
 30
0.0
 10
-0.3438070866141733
 20
0.2715944881889764
 30
0.0
 10
-0.3438070866141733
 20
0.2715944881889764
 30
0.0
 10
-0.3438070866141733
 20
0.2715944881889764
 30
0.0
 10
-0.3438070866141733
 20
0.2715944881889764
 30
0.0
 10
-0.3420866141732283
 20
0.2603346456692914
 30
0.0
 10
-0.3420866141732283
 20
0.2603346456692914
 30
0.0
 10
-0.3420866141732283
 20
0.2603346456692914
 30
0.0
 10
-0.3420866141732283
 20
0.2603346456692914
 30
0.0
 10
-0.341503937007874
 20
0.248744094488189
 30
0.0
 10
-0.341503937007874
 20
0.248744094488189
 30
0.0
  0
SPLINE
  5
71
330
1F
100
AcDbEntity
  8
Layer 1
 62
   252
100
AcDbSpline
210
0.0
220
0.0
230
1.0
 70
    11
 71
     3
 72
    20
 73
    16
 74
     0
 42
0.0000000001
 43
0.0000000001
 40
0.0
 40
0.0
 40
0.0
 40
0.0
 40
0.25
 40
0.25
 40
0.25
 40
0.25
 40
0.5
 40
0.5
 40
0.5
 40
0.5
 40
0.75
 40
0.75
 40
0.75
 40
0.75
 40
1.0
 40
1.0
 40
1.0
 40
1.0
 10
-0.6783622047244095
 20
0.5663346456692914
 30
0.0
 10
-0.6783622047244095
 20
0.5663346456692914
 30
0.0
 10
-0.0493267716535433
 20
0.9248582677165355
 30
0.0
 10
-0.0493267716535433
 20
0.9248582677165355
 30
0.0
 10
-0.0493267716535433
 20
0.9248582677165355
 30
0.0
 10
-0.0493267716535433
 20
0.9248582677165355
 30
0.0
 10
-0.5493228346456693
 20
0.9248582677165355
 30
0.0
 10
-0.5493228346456693
 20
0.9248582677165355
 30
0.0
 10
-0.5493228346456693
 20
0.9248582677165355
 30
0.0
 10
-0.5493228346456693
 20
0.9248582677165355
 30
0.0
 10
-1.178358267716535
 20
0.5663346456692914
 30
0.0
 10
-1.178358267716535
 20
0.5663346456692914
 30
0.0
 10
-1.178358267716535
 20
0.5663346456692914
 30
0.0
 10
-1.178358267716535
 20
0.5663346456692914
 30
0.0
 10
-0.6783622047244095
 20
0.5663346456692914
 30
0.0
 10
-0.6783622047244095
 20
0.5663346456692914
 30
0.0
  0
SPLINE
  5
72
330
1F
100
AcDbEntity
  8
Layer 1
 62
   250
370
     5
100
AcDbSpline
210
0.0
220
0.0
230
1.0
 70
    11
 71
     3
 72
    20
 73
    16
 74
     0
 42
0.0000000001
 43
0.0000000001
 40
0.0
 40
0.0
 40
0.0
 40
0.0
 40
0.25
 40
0.25
 40
0.25
 40
0.25
 40
0.5
 40
0.5
 40
0.5
 40
0.5
 40
0.75
 40
0.75
 40
0.75
 40
0.75
 40
1.0
 40
1.0
 40
1.0
 40
1.0
 10
-0.6783622047244095
 20
0.5663346456692914
 30
0.0
 10
-0.6783622047244095
 20
0.5663346456692914
 30
0.0
 10
-0.0493267716535433
 20
0.9248582677165355
 30
0.0
 10
-0.0493267716535433
 20
0.9248582677165355
 30
0.0
 10
-0.0493267716535433
 20
0.9248582677165355
 30
0.0
 10
-0.0493267716535433
 20
0.9248582677165355
 30
0.0
 10
-0.5493228346456693
 20
0.9248582677165355
 30
0.0
 10
-0.5493228346456693
 20
0.9248582677165355
 30
0.0
 10
-0.5493228346456693
 20
0.9248582677165355
 30
0.0
 10
-0.5493228346456693
 20
0.9248582677165355
 30
0.0
 10
-1.178358267716535
 20
0.5663346456692914
 30
0.0
 10
-1.178358267716535
 20
0.5663346456692914
 30
0.0
 10
-1.178358267716535
 20
0.5663346456692914
 30
0.0
 10
-1.178358267716535
 20
0.5663346456692914
 30
0.0
 10
-0.6783622047244095
 20
0.5663346456692914
 30
0.0
 10
-0.6783622047244095
 20
0.5663346456692914
 30
0.0
  0
SPLINE
  5
73
330
1F
100
AcDbEntity
  8
Layer 1
 62
   253
100
AcDbSpline
210
0.0
220
0.0
230
1.0
 70
    11
 71
     3
 72
    20
 73
    16
 74
     0
 42
0.0000000001
 43
0.0000000001
 40
0.0
 40
0.0
 40
0.0
 40
0.0
 40
0.25
 40
0.25
 40
0.25
 40
0.25
 40
0.5
 40
0.5
 40
0.5
 40
0.5
 40
0.75
 40
0.75
 40
0.75
 40
0.75
 40
1.0
 40
1.0
 40
1.0
 40
1.0
 10
0.1890708661417323
 20
-0.1836653543307087
 30
0.0
 10
0.1890708661417323
 20
-0.1836653543307087
 30
0.0
 10
0.8181062992125985
 20
0.1748582677165354
 30
0.0
 10
0.8181062992125985
 20
0.1748582677165354
 30
0.0
 10
0.8181062992125985
 20
0.1748582677165354
 30
0.0
 10
0.8181062992125985
 20
0.1748582677165354
 30
0.0
 10
0.8181062992125985
 20
0.6072677165354331
 30
0.0
 10
0.8181062992125985
 20
0.6072677165354331
 30
0.0
 10
0.8181062992125985
 20
0.6072677165354331
 30
0.0
 10
0.8181062992125985
 20
0.6072677165354331
 30
0.0
 10
0.1890708661417323
 20
0.248744094488189
 30
0.0
 10
0.1890708661417323
 20
0.248744094488189
 30
0.0
 10
0.1890708661417323
 20
0.248744094488189
 30
0.0
 10
0.1890708661417323
 20
0.248744094488189
 30
0.0
 10
0.1890708661417323
 20
-0.1836653543307087
 30
0.0
 10
0.1890708661417323
 20
-0.1836653543307087
 30
0.0
  0
SPLINE
  5
74
330
1F
100
AcDbEntity
  8
Layer 1
 62
   250
370
     5
100
AcDbSpline
210
0.0
220
0.0
230
1.0
 70
    11
 71
     3
 72
    20
 73
    16
 74
     0
 42
0.0000000001
 43
0.0000000001
 40
0.0
 40
0.0
 40
0.0
 40
0.0
 40
0.25
 40
0.25
 40
0.25
 40
0.25
 40
0.5
 40
0.5
 40
0.5
 40
0.5
 40
0.75
 40
0.75
 40
0.75
 40
0.75
 40
1.0
 40
1.0
 40
1.0
 40
1.0
 10
0.1890708661417323
 20
-0.1836653543307087
 30
0.0
 10
0.1890708661417323
 20
-0.1836653543307087
 30
0.0
 10
0.8181062992125985
 20
0.1748582677165354
 30
0.0
 10
0.8181062992125985
 20
0.1748582677165354
 30
0.0
 10
0.8181062992125985
 20
0.1748582677165354
 30
0.0
 10
0.8181062992125985
 20
0.1748582677165354
 30
0.0
 10
0.8181062992125985
 20
0.6072677165354331
 30
0.0
 10
0.8181062992125985
 20
0.6072677165354331
 30
0.0
 10
0.8181062992125985
 20
0.6072677165354331
 30
0.0
 10
0.8181062992125985
 20
0.6072677165354331
 30
0.0
 10
0.1890708661417323
 20
0.248744094488189
 30
0.0
 10
0.1890708661417323
 20
0.248744094488189
 30
0.0
 10
0.1890708661417323
 20
0.248744094488189
 30
0.0
 10
0.1890708661417323
 20
0.248744094488189
 30
0.0
 10
0.1890708661417323
 20
-0.1836653543307087
 30
0.0
 10
0.1890708661417323
 20
-0.1836653543307087
 30
0.0
  0
SPLINE
  5
75
330
1F
100
AcDbEntity
  8
Layer 1
 62
     7
370
     5
100
AcDbSpline
210
0.0
220
0.0
230
1.0
 70
    11
 71
     3
 72
    40
 73
    36
 74
     0
 42
0.0000000001
 43
0.0000000001
 40
0.0
 40
0.0
 40
0.0
 40
0.0
 40
0.1111111111111111
 40
0.1111111111111111
 40
0.1111111111111111
 40
0.1111111111111111
 40
0.2222222222222222
 40
0.2222222222222222
 40
0.2222222222222222
 40
0.2222222222222222
 40
0.3333333333333333
 40
0.3333333333333333
 40
0.3333333333333333
 40
0.3333333333333333
 40
0.4444444444444444
 40
0.4444444444444444
 40
0.4444444444444444
 40
0.4444444444444444
 40
0.5555555555555556
 40
0.5555555555555556
 40
0.5555555555555556
 40
0.5555555555555556
 40
0.6666666666666667
 40
0.6666666666666667
 40
0.6666666666666667
 40
0.6666666666666667
 40
0.7777777777777779
 40
0.7777777777777779
 40
0.7777777777777779
 40
0.7777777777777779
 40
0.8888888888888891
 40
0.8888888888888891
 40
0.8888888888888891
 40
0.8888888888888891
 40
1.0
 40
1.0
 40
1.0
 40
1.0
 10
0.1890708661417323
 20
0.248744094488189
 30
0.0
 10
0.1890708661417323
 20
0.248744094488189
 30
0.0
 10
-0.341503937007874
 20
0.248744094488189
 30
0.0
 10
-0.341503937007874
 20
0.248744094488189
 30
0.0
 10
-0.341503937007874
 20
0.248744094488189
 30
0.0
 10
-0.341503937007874
 20
0.3113858267716536
 30
0.0
 10
-0.3922992125984252
 20
0.3621811023622047
 30
0.0
 10
-0.4549409448818898
 20
0.3621811023622047
 30
0.0
 10
-0.4549409448818898
 20
0.3621811023622047
 30
0.0
 10
-0.5175866141732284
 20
0.3621811023622047
 30
0.0
 10
-0.5683818897637796
 20
0.3113858267716536
 30
0.0
 10
-0.5683818897637796
 20
0.248744094488189
 30
0.0
 10
-0.5683818897637796
 20
0.248744094488189
 30
0.0
 10
-0.5683818897637796
 20
0.248744094488189
 30
0.0
 10
-0.6543582677165355
 20
0.248744094488189
 30
0.0
 10
-0.6543582677165355
 20
0.248744094488189
 30
0.0
 10
-0.6543582677165355
 20
0.248744094488189
 30
0.0
 10
-0.6543582677165355
 20
0.248744094488189
 30
0.0
 10
-0.6783622047244095
 20
0.5663346456692914
 30
0.0
 10
-0.6783622047244095
 20
0.5663346456692914
 30
0.0
 10
-0.6783622047244095
 20
0.5663346456692914
 30
0.0
 10
-0.6783622047244095
 20
0.5663346456692914
 30
0.0
 10
-1.178358267716535
 20
0.5663346456692914
 30
0.0
 10
-1.178358267716535
 20
0.5663346456692914
 30
0.0
 10
-1.178358267716535
 20
0.5663346456692914
 30
0.0
 10
-1.178358267716535
 20
0.5663346456692914
 30
0.0
 10
-1.178358267716535
 20
-0.1836653543307087
 30
0.0
 10
-1.178358267716535
 20
-0.1836653543307087
 30
0.0
 10
-1.178358267716535
 20
-0.1836653543307087
 30
0.0
 10
-1.178358267716535
 20
-0.1836653543307087
 30
0.0
 10
0.1890708661417323
 20
-0.1836653543307087
 30
0.0
 10
0.1890708661417323
 20
-0.1836653543307087
 30
0.0
 10
0.1890708661417323
 20
-0.1836653543307087
 30
0.0
 10
0.1890708661417323
 20
-0.1836653543307087
 30
0.0
 10
0.1890708661417323
 20
0.248744094488189
 30
0.0
 10
0.1890708661417323
 20
0.248744094488189
 30
0.0
  0
ENDSEC
  0
SECTION
  2
OBJECTS
  0
DICTIONARY
  5
C
330
0
100
AcDbDictionary
281
     1
  3
ACAD_GROUP
350
D
  3
ACAD_LAYOUT
350
1A
  3
ACAD_MLINESTYLE
350
17
  3
ACAD_PLOTSETTINGS
350
19
  3
ACAD_PLOTSTYLENAME
350
E
  0
DICTIONARY
  5
D
102
{ACAD_REACTORS
330
C
102
}
330
C
100
AcDbDictionary
281
     1
  0
DICTIONARY
  5
1A
102
{ACAD_REACTORS
330
C
102
}
330
C
100
AcDbDictionary
281
     1
  3
Layout1
350
1E
  3
Layout2
350
26
  3
Model
350
22
  0
DICTIONARY
  5
17
102
{ACAD_REACTORS
330
C
102
}
330
C
100
AcDbDictionary
281
     1
  3
Standard
350
18
  0
DICTIONARY
  5
19
102
{ACAD_REACTORS
330
C
102
}
330
C
100
AcDbDictionary
281
     1
  0
ACDBDICTIONARYWDFLT
  5
E
102
{ACAD_REACTORS
330
C
102
}
330
C
100
AcDbDictionary
281
     1
  3
Normal
350
F
100
AcDbDictionaryWithDefault
340
F
  0
LAYOUT
  5
1E
102
{ACAD_REACTORS
330
1A
102
}
330
1A
100
AcDbPlotSettings
  1

  2

  4

  6

 40
0.0
 41
0.0
 42
0.0
 43
0.0
 44
0.0
 45
0.0
 46
0.0
 47
0.0
 48
0.0
 49
0.0
140
0.0
141
0.0
142
1.0
143
1.0
 70
   688
 72
     0
 73
     0
 74
     5
  7

 75
    16
 76
     0
 77
     2
 78
   300
147
1.0
148
0.0
149
0.0
100
AcDbLayout
  1
Layout1
 70
     1
 71
     1
 10
0.0
 20
0.0
 11
12.0
 21
9.0
 12
0.0
 22
0.0
 32
0.0
 14
1.000000000000000E+20
 24
1.000000000000000E+20
 34
1.000000000000000E+20
 15
-1.000000000000000E+20
 25
-1.000000000000000E+20
 35
-1.000000000000000E+20
146
0.0
 13
0.0
 23
0.0
 33
0.0
 16
1.0
 26
0.0
 36
0.0
 17
0.0
 27
1.0
 37
0.0
 76
     0
330
1B
  0
LAYOUT
  5
26
102
{ACAD_REACTORS
330
1A
102
}
330
1A
100
AcDbPlotSettings
  1

  2

  4

  6

 40
0.0
 41
0.0
 42
0.0
 43
0.0
 44
0.0
 45
0.0
 46
0.0
 47
0.0
 48
0.0
 49
0.0
140
0.0
141
0.0
142
1.0
143
1.0
 70
   688
 72
     0
 73
     0
 74
     5
  7

 75
    16
 76
     0
 77
     2
 78
   300
147
1.0
148
0.0
149
0.0
100
AcDbLayout
  1
Layout2
 70
     1
 71
     2
 10
0.0
 20
0.0
 11
0.0
 21
0.0
 12
0.0
 22
0.0
 32
0.0
 14
0.0
 24
0.0
 34
0.0
 15
0.0
 25
0.0
 35
0.0
146
0.0
 13
0.0
 23
0.0
 33
0.0
 16
1.0
 26
0.0
 36
0.0
 17
0.0
 27
1.0
 37
0.0
 76
     0
330
23
  0
LAYOUT
  5
22
102
{ACAD_REACTORS
330
1A
102
}
330
1A
100
AcDbPlotSettings
  1

  2

  4

  6

 40
0.0
 41
0.0
 42
0.0
 43
0.0
 44
0.0
 45
0.0
 46
0.0
 47
0.0
 48
0.0
 49
0.0
140
0.0
141
0.0
142
1.0
143
1.0
 70
  1712
 72
     0
 73
     0
 74
     0
  7

 75
     0
 76
     0
 77
     2
 78
   300
147
1.0
148
0.0
149
0.0
100
AcDbLayout
  1
Model
 70
     1
 71
     0
 10
0.0
 20
0.0
 11
0.0
 21
0.0
 12
0.0
 22
0.0
 32
0.0
 14
-1.179858267716536
 24
-0.6038700787401575
 34
0.0
 15
0.8196062992125984
 25
2.524850393700787
 35
0.0
146
0.0
 13
0.0
 23
0.0
 33
0.0
 16
1.0
 26
0.0
 36
0.0
 17
0.0
 27
1.0
 37
0.0
 76
     0
330
1F
  0
MLINESTYLE
  5
18
102
{ACAD_REACTORS
330
17
102
}
330
17
100
AcDbMlineStyle
  2
Standard
 70
     0
  3

 62
   256
 51
90.0
 52
90.0
 71
     2
 49
0.5
 62
   256
  6
BYLAYER
 49
-0.5
 62
   256
  6
BYLAYER
  0
ACDBPLACEHOLDER
  5
F
102
{ACAD_REACTORS
330
E
102
}
330
E
  0
ENDSEC
  0
EOF
