  0
SECTION
  2
HEADER
  9
$ACADVER
  1
AC1018
  9
$ACADMAINTVER
 70
     0
  9
$DWGCODEPAGE
  3
ANSI_1252
  9
$INSBASE
 10
0.0
 20
0.0
 30
0.0
  9
$EXTMIN
 10
-2.091122047244094
 20
-2.462625984251968
 30
0.0
  9
$EXTMAX
 10
2.251118110236221
 20
4.116846456692914
 30
0.0
  9
$LIMMIN
 10
0.0
 20
0.0
  9
$LIMMAX
 10
12.0
 20
9.0
  9
$ORTHOMODE
 70
     0
  9
$REGENMODE
 70
     1
  9
$FILLMODE
 70
     1
  9
$QTEXTMODE
 70
     0
  9
$MIRRTEXT
 70
     1
  9
$LTSCALE
 40
1.0
  9
$ATTMODE
 70
     1
  9
$TEXTSIZE
 40
0.2
  9
$TRACEWID
 40
0.05
  9
$TEXTSTYLE
  7
Standard
  9
$CLAYER
  8
0
  9
$CELTYPE
  6
ByLayer
  9
$CECOLOR
 62
   256
  9
$CELTSCALE
 40
1.0
  9
$DISPSILH
 70
     0
  9
$DIMSCALE
 40
1.0
  9
$DIMASZ
 40
0.18
  9
$DIMEXO
 40
0.0625
  9
$DIMDLI
 40
0.38
  9
$DIMRND
 40
0.0
  9
$DIMDLE
 40
0.0
  9
$DIMEXE
 40
0.18
  9
$DIMTP
 40
0.0
  9
$DIMTM
 40
0.0
  9
$DIMTXT
 40
0.18
  9
$DIMCEN
 40
0.09
  9
$DIMTSZ
 40
0.0
  9
$DIMTOL
 70
     0
  9
$DIMLIM
 70
     0
  9
$DIMTIH
 70
     1
  9
$DIMTOH
 70
     1
  9
$DIMSE1
 70
     0
  9
$DIMSE2
 70
     0
  9
$DIMTAD
 70
     0
  9
$DIMZIN
 70
     0
  9
$DIMBLK
  1

  9
$DIMASO
 70
     1
  9
$DIMSHO
 70
     1
  9
$DIMPOST
  1

  9
$DIMAPOST
  1

  9
$DIMALT
 70
     0
  9
$DIMALTD
 70
     2
  9
$DIMALTF
 40
25.4
  9
$DIMLFAC
 40
1.0
  9
$DIMTOFL
 70
     0
  9
$DIMTVP
 40
0.0
  9
$DIMTIX
 70
     0
  9
$DIMSOXD
 70
     0
  9
$DIMSAH
 70
     0
  9
$DIMBLK1
  1

  9
$DIMBLK2
  1

  9
$DIMSTYLE
  2
Standard
  9
$DIMCLRD
 70
     0
  9
$DIMCLRE
 70
     0
  9
$DIMCLRT
 70
     0
  9
$DIMTFAC
 40
1.0
  9
$DIMGAP
 40
0.09
  9
$DIMJUST
 70
     0
  9
$DIMSD1
 70
     0
  9
$DIMSD2
 70
     0
  9
$DIMTOLJ
 70
     1
  9
$DIMTZIN
 70
     0
  9
$DIMALTZ
 70
     0
  9
$DIMALTTZ
 70
     0
  9
$DIMUPT
 70
     0
  9
$DIMDEC
 70
     4
  9
$DIMTDEC
 70
     4
  9
$DIMALTU
 70
     2
  9
$DIMALTTD
 70
     2
  9
$DIMTXSTY
  7
Standard
  9
$DIMAUNIT
 70
     0
  9
$DIMADEC
 70
     0
  9
$DIMALTRND
 40
0.0
  9
$DIMAZIN
 70
     0
  9
$DIMDSEP
 70
    46
  9
$DIMATFIT
 70
     3
  9
$DIMFRAC
 70
     0
  9
$DIMLDRBLK
  1

  9
$DIMLUNIT
 70
     2
  9
$DIMLWD
 70
    -2
  9
$DIMLWE
 70
    -2
  9
$DIMTMOVE
 70
     0
  9
$LUNITS
 70
     2
  9
$LUPREC
 70
     4
  9
$SKETCHINC
 40
0.1
  9
$FILLETRAD
 40
0.5
  9
$AUNITS
 70
     0
  9
$AUPREC
 70
     0
  9
$MENU
  1
.
  9
$ELEVATION
 40
0.0
  9
$PELEVATION
 40
0.0
  9
$THICKNESS
 40
0.0
  9
$LIMCHECK
 70
     0
  9
$CHAMFERA
 40
0.5
  9
$CHAMFERB
 40
0.5
  9
$CHAMFERC
 40
1.0
  9
$CHAMFERD
 40
0.0
  9
$SKPOLY
 70
     0
  9
$TDCREATE
 40
2453769.643023901
  9
$TDUCREATE
 40
2453769.851357234
  9
$TDUPDATE
 40
2453769.643023912
  9
$TDUUPDATE
 40
2453769.851357245
  9
$TDINDWG
 40
0.0000000116
  9
$TDUSRTIMER
 40
0.0000000116
  9
$USRTIMER
 70
     1
  9
$ANGBASE
 50
0.0
  9
$ANGDIR
 70
     0
  9
$PDMODE
 70
     0
  9
$PDSIZE
 40
0.0
  9
$PLINEWID
 40
0.0
  9
$SPLFRAME
 70
     0
  9
$SPLINETYPE
 70
     6
  9
$SPLINESEGS
 70
     8
  9
$HANDSEED
  5
92
  9
$SURFTAB1
 70
     6
  9
$SURFTAB2
 70
     6
  9
$SURFTYPE
 70
     6
  9
$SURFU
 70
     6
  9
$SURFV
 70
     6
  9
$UCSBASE
  2

  9
$UCSNAME
  2

  9
$UCSORG
 10
0.0
 20
0.0
 30
0.0
  9
$UCSXDIR
 10
1.0
 20
0.0
 30
0.0
  9
$UCSYDIR
 10
0.0
 20
1.0
 30
0.0
  9
$UCSORTHOREF
  2

  9
$UCSORTHOVIEW
 70
     0
  9
$UCSORGTOP
 10
0.0
 20
0.0
 30
0.0
  9
$UCSORGBOTTOM
 10
0.0
 20
0.0
 30
0.0
  9
$UCSORGLEFT
 10
0.0
 20
0.0
 30
0.0
  9
$UCSORGRIGHT
 10
0.0
 20
0.0
 30
0.0
  9
$UCSORGFRONT
 10
0.0
 20
0.0
 30
0.0
  9
$UCSORGBACK
 10
0.0
 20
0.0
 30
0.0
  9
$PUCSBASE
  2

  9
$PUCSNAME
  2

  9
$PUCSORG
 10
0.0
 20
0.0
 30
0.0
  9
$PUCSXDIR
 10
1.0
 20
0.0
 30
0.0
  9
$PUCSYDIR
 10
0.0
 20
1.0
 30
0.0
  9
$PUCSORTHOREF
  2

  9
$PUCSORTHOVIEW
 70
     0
  9
$PUCSORGTOP
 10
0.0
 20
0.0
 30
0.0
  9
$PUCSORGBOTTOM
 10
0.0
 20
0.0
 30
0.0
  9
$PUCSORGLEFT
 10
0.0
 20
0.0
 30
0.0
  9
$PUCSORGRIGHT
 10
0.0
 20
0.0
 30
0.0
  9
$PUCSORGFRONT
 10
0.0
 20
0.0
 30
0.0
  9
$PUCSORGBACK
 10
0.0
 20
0.0
 30
0.0
  9
$USERI1
 70
     0
  9
$USERI2
 70
     0
  9
$USERI3
 70
     0
  9
$USERI4
 70
     0
  9
$USERI5
 70
     0
  9
$USERR1
 40
0.0
  9
$USERR2
 40
0.0
  9
$USERR3
 40
0.0
  9
$USERR4
 40
0.0
  9
$USERR5
 40
0.0
  9
$WORLDVIEW
 70
     1
  9
$SHADEDGE
 70
     3
  9
$SHADEDIF
 70
    70
  9
$TILEMODE
 70
     1
  9
$MAXACTVP
 70
    64
  9
$PINSBASE
 10
0.0
 20
0.0
 30
0.0
  9
$PLIMCHECK
 70
     0
  9
$PEXTMIN
 10
1.000000000000000E+20
 20
1.000000000000000E+20
 30
1.000000000000000E+20
  9
$PEXTMAX
 10
-1.000000000000000E+20
 20
-1.000000000000000E+20
 30
-1.000000000000000E+20
  9
$PLIMMIN
 10
0.0
 20
0.0
  9
$PLIMMAX
 10
12.0
 20
9.0
  9
$UNITMODE
 70
     0
  9
$VISRETAIN
 70
     1
  9
$PLINEGEN
 70
     0
  9
$PSLTSCALE
 70
     1
  9
$TREEDEPTH
 70
  3020
  9
$CMLSTYLE
  2
Standard
  9
$CMLJUST
 70
     0
  9
$CMLSCALE
 40
1.0
  9
$PROXYGRAPHICS
 70
     1
  9
$MEASUREMENT
 70
     0
  9
$CELWEIGHT
370
    -1
  9
$ENDCAPS
280
     0
  9
$JOINSTYLE
280
     0
  9
$LWDISPLAY
290
     0
  9
$INSUNITS
 70
     1
  9
$HYPERLINKBASE
  1

  9
$STYLESHEET
  1

  9
$XEDIT
290
     1
  9
$CEPSNTYPE
380
     0
  9
$PSTYLEMODE
290
     0
  9
$FINGERPRINTGUID
  2
{FAEB1C30-E019-11D5-929B-00C0DF256EC4}
  9
$VERSIONGUID
  2
{FAEB1C32-E019-11D5-929B-00C0DF256EC4}
  9
$EXTNAMES
290
     1
  9
$PSVPSCALE
 40
0.0
  9
$OLESTARTUP
290
     0
  9
$SORTENTS
280
   127
  9
$INDEXCTL
280
     0
  9
$HIDETEXT
280
     1
  9
$XCLIPFRAME
290
     0
  9
$HALOGAP
280
     0
  9
$OBSCOLOR
 70
   257
  9
$OBSLTYPE
280
     0
  9
$INTERSECTIONDISPLAY
280
     0
  9
$INTERSECTIONCOLOR
 70
   257
  9
$DIMASSOC
280
     2
  9
$PROJECTNAME
  1

  0
ENDSEC
  0
SECTION
  2
CLASSES
  0
CLASS
  1
ACDBDICTIONARYWDFLT
  2
AcDbDictionaryWithDefault
  3
ObjectDBX Classes
 90
        0
 91
        1
280
     0
281
     0
  0
ENDSEC
  0
SECTION
  2
TABLES
  0
TABLE
  2
VPORT
  5
8
330
0
100
AcDbSymbolTable
 70
     2
  0
VPORT
  5
29
330
8
100
AcDbSymbolTableRecord
100
AcDbViewportTableRecord
  2
*Active
 70
     0
 10
0.0
 20
0.0
 11
1.0
 21
1.0
 12
10.42990654205607
 22
4.5
 13
0.0
 23
0.0
 14
0.5
 24
0.5
 15
0.5
 25
0.5
 16
0.0
 26
0.0
 36
1.0
 17
0.0
 27
0.0
 37
0.0
 40
9.0
 41
1.972972972850329
 42
50.0
 43
0.0
 44
0.0
 50
0.0
 51
0.0
 71
     0
 72
   100
 73
     1
 74
     3
 75
     0
 76
     0
 77
     0
 78
     0
281
     0
 65
     1
110
0.0
120
0.0
130
0.0
111
1.0
121
0.0
131
0.0
112
0.0
122
1.0
132
0.0
 79
     0
146
0.0
  0
ENDTAB
  0
TABLE
  2
LTYPE
  5
5
330
0
100
AcDbSymbolTable
 70
     1
  0
LTYPE
  5
14
330
5
100
AcDbSymbolTableRecord
100
AcDbLinetypeTableRecord
  2
ByBlock
 70
     0
  3

 72
    65
 73
     0
 40
0.0
  0
LTYPE
  5
15
330
5
100
AcDbSymbolTableRecord
100
AcDbLinetypeTableRecord
  2
ByLayer
 70
     0
  3

 72
    65
 73
     0
 40
0.0
  0
LTYPE
  5
16
330
5
100
AcDbSymbolTableRecord
100
AcDbLinetypeTableRecord
  2
Continuous
 70
     0
  3
Solid line
 72
    65
 73
     0
 40
0.0
  0
ENDTAB
  0
TABLE
  2
LAYER
  5
2
330
0
100
AcDbSymbolTable
 70
     2
  0
LAYER
  5
10
330
2
100
AcDbSymbolTableRecord
100
AcDbLayerTableRecord
  2
0
 70
     0
 62
     7
  6
Continuous
370
    -3
390
F
  0
LAYER
  5
2B
330
2
100
AcDbSymbolTableRecord
100
AcDbLayerTableRecord
  2
Layer 1
 70
     0
 62
     7
  6
Continuous
370
    -3
390
F
  0
ENDTAB
  0
TABLE
  2
STYLE
  5
3
330
0
100
AcDbSymbolTable
 70
     1
  0
STYLE
  5
11
330
3
100
AcDbSymbolTableRecord
100
AcDbTextStyleTableRecord
  2
Standard
 70
     0
 40
0.0
 41
1.0
 50
0.0
 71
     0
 42
0.2
  3
txt
  4

  0
ENDTAB
  0
TABLE
  2
VIEW
  5
6
330
0
100
AcDbSymbolTable
 70
     0
  0
ENDTAB
  0
TABLE
  2
UCS
  5
7
330
0
100
AcDbSymbolTable
 70
     0
  0
ENDTAB
  0
TABLE
  2
APPID
  5
9
330
0
100
AcDbSymbolTable
 70
     2
  0
APPID
  5
12
330
9
100
AcDbSymbolTableRecord
100
AcDbRegAppTableRecord
  2
ACAD
 70
     0
  0
APPID
  5
2A
330
9
100
AcDbSymbolTableRecord
100
AcDbRegAppTableRecord
  2
ODA
 70
     0
  0
ENDTAB
  0
TABLE
  2
DIMSTYLE
  5
A
330
0
100
AcDbSymbolTable
 70
     1
100
AcDbDimStyleTable
  0
DIMSTYLE
105
27
330
A
100
AcDbSymbolTableRecord
100
AcDbDimStyleTableRecord
  2
Standard
 70
     0
340
11
  0
ENDTAB
  0
TABLE
  2
BLOCK_RECORD
  5
1
330
0
100
AcDbSymbolTable
 70
     1
  0
BLOCK_RECORD
  5
1F
330
1
100
AcDbSymbolTableRecord
100
AcDbBlockTableRecord
  2
*Model_Space
340
22
  0
BLOCK_RECORD
  5
1B
330
1
100
AcDbSymbolTableRecord
100
AcDbBlockTableRecord
  2
*Paper_Space
340
1E
  0
BLOCK_RECORD
  5
23
330
1
100
AcDbSymbolTableRecord
100
AcDbBlockTableRecord
  2
*Paper_Space0
340
26
  0
ENDTAB
  0
ENDSEC
  0
SECTION
  2
BLOCKS
  0
BLOCK
  5
20
330
1F
100
AcDbEntity
  8
0
100
AcDbBlockBegin
  2
*Model_Space
 70
     0
 71
     0
 10
0.0
 20
0.0
 30
0.0
  3
*Model_Space
  1

  0
ENDBLK
  5
21
330
1F
100
AcDbEntity
  8
0
100
AcDbBlockEnd
  0
BLOCK
  5
1C
330
1B
100
AcDbEntity
 67
     1
  8
0
100
AcDbBlockBegin
  2
*Paper_Space
 70
     0
 71
     0
 10
0.0
 20
0.0
 30
0.0
  3
*Paper_Space
  1

  0
ENDBLK
  5
1D
330
1B
100
AcDbEntity
 67
     1
  8
0
100
AcDbBlockEnd
  0
BLOCK
  5
24
330
23
100
AcDbEntity
  8
0
100
AcDbBlockBegin
  2
*Paper_Space0
 70
     0
 71
     0
 10
0.0
 20
0.0
 30
0.0
  3
*Paper_Space0
  1

  0
ENDBLK
  5
25
330
23
100
AcDbEntity
  8
0
100
AcDbBlockEnd
  0
ENDSEC
  0
SECTION
  2
ENTITIES
  0
SPLINE
  5
2C
330
1F
100
AcDbEntity
  8
Layer 1
 62
   250
370
    40
100
AcDbSpline
210
0.0
220
0.0
230
1.0
 70
    11
 71
     3
 72
    32
 73
    28
 74
     0
 42
0.0000000001
 43
0.0000000001
 40
0.0
 40
0.0
 40
0.0
 40
0.0
 40
0.1428571428571429
 40
0.1428571428571429
 40
0.1428571428571429
 40
0.1428571428571429
 40
0.2857142857142857
 40
0.2857142857142857
 40
0.2857142857142857
 40
0.2857142857142857
 40
0.4285714285714286
 40
0.4285714285714286
 40
0.4285714285714286
 40
0.4285714285714286
 40
0.5714285714285714
 40
0.5714285714285714
 40
0.5714285714285714
 40
0.5714285714285714
 40
0.7142857142857142
 40
0.7142857142857142
 40
0.7142857142857142
 40
0.7142857142857142
 40
0.857142857142857
 40
0.857142857142857
 40
0.857142857142857
 40
0.857142857142857
 40
1.0
 40
1.0
 40
1.0
 40
1.0
 10
-1.87253937007874
 20
4.109417322834646
 30
0.0
 10
-1.87253937007874
 20
4.109417322834646
 30
0.0
 10
-1.872543307086614
 20
2.495775590551181
 30
0.0
 10
-1.872543307086614
 20
2.495775590551181
 30
0.0
 10
-1.872543307086614
 20
2.495775590551181
 30
0.0
 10
-1.872543307086614
 20
2.495775590551181
 30
0.0
 10
-1.247543307086614
 20
2.495775590551181
 30
0.0
 10
-1.247543307086614
 20
2.495775590551181
 30
0.0
 10
-1.247543307086614
 20
2.495775590551181
 30
0.0
 10
-1.247543307086614
 20
2.495775590551181
 30
0.0
 10
-1.247543307086614
 20
2.245775590551181
 30
0.0
 10
-1.247543307086614
 20
2.245775590551181
 30
0.0
 10
-1.247543307086614
 20
2.245775590551181
 30
0.0
 10
-1.247543307086614
 20
2.245775590551181
 30
0.0
 10
-0.6225433070866142
 20
2.245775590551181
 30
0.0
 10
-0.6225433070866142
 20
2.245775590551181
 30
0.0
 10
-0.6225433070866142
 20
2.245775590551181
 30
0.0
 10
-0.6225433070866142
 20
2.245775590551181
 30
0.0
 10
-0.6225433070866142
 20
1.995775590551181
 30
0.0
 10
-0.6225433070866142
 20
1.995775590551181
 30
0.0
 10
-0.6225433070866142
 20
1.995775590551181
 30
0.0
 10
2.991992125984252
 20
1.995775590551181
 30
0.0
 10
1.934712598425197
 20
3.852511811023622
 30
0.0
 10
0.4052992125984252
 20
3.951255905511811
 30
0.0
 10
0.4052992125984252
 20
3.951255905511811
 30
0.0
 10
0.4052992125984252
 20
3.951255905511811
 30
0.0
 10
-1.87253937007874
 20
4.109417322834646
 30
0.0
 10
-1.87253937007874
 20
4.109417322834646
 30
0.0
  0
SPLINE
  5
2D
330
1F
100
AcDbEntity
  8
Layer 1
 62
   250
100
AcDbSpline
210
0.0
220
0.0
230
1.0
 70
    11
 71
     3
 72
   104
 73
   100
 74
     0
 42
0.0000000001
 43
0.0000000001
 40
0.0
 40
0.0
 40
0.0
 40
0.0
 40
0.04
 40
0.04
 40
0.04
 40
0.04
 40
0.08
 40
0.08
 40
0.08
 40
0.08
 40
0.12
 40
0.12
 40
0.12
 40
0.12
 40
0.16
 40
0.16
 40
0.16
 40
0.16
 40
0.2
 40
0.2
 40
0.2
 40
0.2
 40
0.24
 40
0.24
 40
0.24
 40
0.24
 40
0.28
 40
0.28
 40
0.28
 40
0.28
 40
0.32
 40
0.32
 40
0.32
 40
0.32
 40
0.36
 40
0.36
 40
0.36
 40
0.36
 40
0.4
 40
0.4
 40
0.4
 40
0.4
 40
0.44
 40
0.44
 40
0.44
 40
0.44
 40
0.4799999999999999
 40
0.4799999999999999
 40
0.4799999999999999
 40
0.4799999999999999
 40
0.5199999999999999
 40
0.5199999999999999
 40
0.5199999999999999
 40
0.5199999999999999
 40
0.5599999999999999
 40
0.5599999999999999
 40
0.5599999999999999
 40
0.5599999999999999
 40
0.6
 40
0.6
 40
0.6
 40
0.6
 40
0.64
 40
0.64
 40
0.64
 40
0.64
 40
0.6800000000000001
 40
0.6800000000000001
 40
0.6800000000000001
 40
0.6800000000000001
 40
0.7200000000000001
 40
0.7200000000000001
 40
0.7200000000000001
 40
0.7200000000000001
 40
0.7600000000000001
 40
0.7600000000000001
 40
0.7600000000000001
 40
0.7600000000000001
 40
0.8000000000000002
 40
0.8000000000000002
 40
0.8000000000000002
 40
0.8000000000000002
 40
0.8400000000000002
 40
0.8400000000000002
 40
0.8400000000000002
 40
0.8400000000000002
 40
0.8800000000000002
 40
0.8800000000000002
 40
0.8800000000000002
 40
0.8800000000000002
 40
0.9200000000000003
 40
0.9200000000000003
 40
0.9200000000000003
 40
0.9200000000000003
 40
0.9600000000000003
 40
0.9600000000000003
 40
0.9600000000000003
 40
0.9600000000000003
 40
1.0
 40
1.0
 40
1.0
 40
1.0
 10
1.275102362204724
 20
1.889590551181102
 30
0.0
 10
1.275102362204724
 20
1.889590551181102
 30
0.0
 10
1.329074803149606
 20
1.889590551181102
 30
0.0
 10
1.329074803149606
 20
1.889590551181102
 30
0.0
 10
1.329074803149606
 20
1.889590551181102
 30
0.0
 10
1.342244094488189
 20
1.889590551181102
 30
0.0
 10
1.351271653543307
 20
1.88898031496063
 30
0.0
 10
1.356157480314961
 20
1.887783464566929
 30
0.0
 10
1.356157480314961
 20
1.887783464566929
 30
0.0
 10
1.36338188976378
 20
1.886062992125984
 30
0.0
 10
1.369074803149606
 20
1.882925196850394
 30
0.0
 10
1.373299212598425
 20
1.878366141732283
 30
0.0
 10
1.373299212598425
 20
1.878366141732283
 30
0.0
 10
1.377492125984252
 20
1.873811023622047
 30
0.0
 10
1.379602362204724
 20
1.868311023622047
 30
0.0
 10
1.379602362204724
 20
1.861925196850394
 30
0.0
 10
1.379602362204724
 20
1.861925196850394
 30
0.0
 10
1.379602362204724
 20
1.857311023622047
 30
0.0
 10
1.378492125984252
 20
1.853173228346457
 30
0.0
 10
1.376271653543307
 20
1.849507874015748
 30
0.0
 10
1.376271653543307
 20
1.849507874015748
 30
0.0
 10
1.374047244094488
 20
1.845838582677166
 30
0.0
 10
1.370799212598425
 20
1.842700787401575
 30
0.0
 10
1.366574803149606
 20
1.840118110236221
 30
0.0
 10
1.366574803149606
 20
1.840118110236221
 30
0.0
 10
1.363854330708662
 20
1.838425196850394
 30
0.0
 10
1.360185039370079
 20
1.83698031496063
 30
0.0
 10
1.35551968503937
 20
1.835783464566929
 30
0.0
 10
1.35551968503937
 20
1.835783464566929
 30
0.0
 10
1.361437007874016
 20
1.834700787401575
 30
0.0
 10
1.365937007874016
 20
1.833397637795276
 30
0.0
 10
1.36901968503937
 20
1.831897637795276
 30
0.0
 10
1.36901968503937
 20
1.831897637795276
 30
0.0
 10
1.373685039370079
 20
1.829618110236221
 30
0.0
 10
1.37738188976378
 20
1.826370078740158
 30
0.0
 10
1.380074803149606
 20
1.822118110236221
 30
0.0
 10
1.380074803149606
 20
1.822118110236221
 30
0.0
 10
1.382799212598425
 20
1.817897637795276
 30
0.0
 10
1.384157480314961
 20
1.813118110236221
 30
0.0
 10
1.384157480314961
 20
1.807811023622047
 30
0.0
 10
1.384157480314961
 20
1.807811023622047
 30
0.0
 10
1.384157480314961
 20
1.802645669291339
 30
0.0
 10
1.382826771653543
 20
1.797870078740158
 30
0.0
 10
1.380157480314961
 20
1.79348031496063
 30
0.0
 10
1.380157480314961
 20
1.79348031496063
 30
0.0
 10
1.37751968503937
 20
1.789090551181102
 30
0.0
 10
1.373744094488189
 20
1.78548031496063
 30
0.0
 10
1.368909448818898
 20
1.782645669291339
 30
0.0
 10
1.368909448818898
 20
1.782645669291339
 30
0.0
 10
1.364047244094488
 20
1.779842519685039
 30
0.0
 10
1.35838188976378
 20
1.778035433070866
 30
0.0
 10
1.351937007874016
 20
1.777228346456693
 30
0.0
 10
1.351937007874016
 20
1.777228346456693
 30
0.0
 10
1.345464566929134
 20
1.776452755905512
 30
0.0
 10
1.338826771653543
 20
1.776062992125984
 30
0.0
 10
1.331992125984252
 20
1.776062992125984
 30
0.0
 10
1.331992125984252
 20
1.776062992125984
 30
0.0
 10
1.331992125984252
 20
1.776062992125984
 30
0.0
 10
1.275102362204724
 20
1.776062992125984
 30
0.0
 10
1.275102362204724
 20
1.776062992125984
 30
0.0
 10
1.275102362204724
 20
1.776062992125984
 30
0.0
 10
1.275102362204724
 20
1.776062992125984
 30
0.0
 10
1.275102362204724
 20
1.782897637795276
 30
0.0
 10
1.275102362204724
 20
1.782897637795276
 30
0.0
 10
1.275102362204724
 20
1.782897637795276
 30
0.0
 10
1.275102362204724
 20
1.782897637795276
 30
0.0
 10
1.278937007874016
 20
1.782897637795276
 30
0.0
 10
1.278937007874016
 20
1.782897637795276
 30
0.0
 10
1.278937007874016
 20
1.782897637795276
 30
0.0
 10
1.282633858267717
 20
1.782897637795276
 30
0.0
 10
1.285133858267717
 20
1.78348031496063
 30
0.0
 10
1.286492125984252
 20
1.784618110236221
 30
0.0
 10
1.286492125984252
 20
1.784618110236221
 30
0.0
 10
1.288464566929134
 20
1.786173228346457
 30
0.0
 10
1.289437007874016
 20
1.788783464566929
 30
0.0
 10
1.289437007874016
 20
1.792425196850394
 30
0.0
 10
1.289437007874016
 20
1.792425196850394
 30
0.0
 10
1.289437007874016
 20
1.792425196850394
 30
0.0
 10
1.289437007874016
 20
1.871283464566929
 30
0.0
 10
1.289437007874016
 20
1.871283464566929
 30
0.0
 10
1.289437007874016
 20
1.871283464566929
 30
0.0
 10
1.289437007874016
 20
1.87498031496063
 30
0.0
 10
1.289133858267717
 20
1.87748031496063
 30
0.0
 10
1.288547244094488
 20
1.878838582677165
 30
0.0
 10
1.288547244094488
 20
1.878838582677165
 30
0.0
 10
1.287937007874016
 20
1.880200787401575
 30
0.0
 10
1.287047244094488
 20
1.881173228346457
 30
0.0
 10
1.285854330708661
 20
1.881783464566929
 30
0.0
 10
1.285854330708661
 20
1.881783464566929
 30
0.0
 10
1.284661417322835
 20
1.882366141732283
 30
0.0
 10
1.282354330708662
 20
1.882673228346457
 30
0.0
 10
1.278937007874016
 20
1.882673228346457
 30
0.0
 10
1.278937007874016
 20
1.882673228346457
 30
0.0
 10
1.278937007874016
 20
1.882673228346457
 30
0.0
 10
1.275102362204724
 20
1.882673228346457
 30
0.0
 10
1.275102362204724
 20
1.882673228346457
 30
0.0
 10
1.275102362204724
 20
1.882673228346457
 30
0.0
 10
1.275102362204724
 20
1.882673228346457
 30
0.0
 10
1.275102362204724
 20
1.889590551181102
 30
0.0
 10
1.275102362204724
 20
1.889590551181102
 30
0.0
  0
SPLINE
  5
2E
330
1F
100
AcDbEntity
  8
Layer 1
 62
   250
100
AcDbSpline
210
0.0
220
0.0
230
1.0
 70
    11
 71
     3
 72
    40
 73
    36
 74
     0
 42
0.0000000001
 43
0.0000000001
 40
0.0
 40
0.0
 40
0.0
 40
0.0
 40
0.1111111111111111
 40
0.1111111111111111
 40
0.1111111111111111
 40
0.1111111111111111
 40
0.2222222222222222
 40
0.2222222222222222
 40
0.2222222222222222
 40
0.2222222222222222
 40
0.3333333333333333
 40
0.3333333333333333
 40
0.3333333333333333
 40
0.3333333333333333
 40
0.4444444444444444
 40
0.4444444444444444
 40
0.4444444444444444
 40
0.4444444444444444
 40
0.5555555555555556
 40
0.5555555555555556
 40
0.5555555555555556
 40
0.5555555555555556
 40
0.6666666666666667
 40
0.6666666666666667
 40
0.6666666666666667
 40
0.6666666666666667
 40
0.7777777777777779
 40
0.7777777777777779
 40
0.7777777777777779
 40
0.7777777777777779
 40
0.8888888888888891
 40
0.8888888888888891
 40
0.8888888888888891
 40
0.8888888888888891
 40
1.0
 40
1.0
 40
1.0
 40
1.0
 10
1.304661417322835
 20
1.880562992125984
 30
0.0
 10
1.304661417322835
 20
1.880562992125984
 30
0.0
 10
1.304661417322835
 20
1.83898031496063
 30
0.0
 10
1.304661417322835
 20
1.83898031496063
 30
0.0
 10
1.304661417322835
 20
1.83898031496063
 30
0.0
 10
1.304661417322835
 20
1.83898031496063
 30
0.0
 10
1.325409448818898
 20
1.83898031496063
 30
0.0
 10
1.325409448818898
 20
1.83898031496063
 30
0.0
 10
1.325409448818898
 20
1.83898031496063
 30
0.0
 10
1.335102362204724
 20
1.83898031496063
 30
0.0
 10
1.341771653543307
 20
1.839425196850394
 30
0.0
 10
1.345326771653543
 20
1.840338582677165
 30
0.0
 10
1.345326771653543
 20
1.840338582677165
 30
0.0
 10
1.350937007874016
 20
1.841811023622047
 30
0.0
 10
1.355185039370079
 20
1.844311023622047
 30
0.0
 10
1.358157480314961
 20
1.847838582677166
 30
0.0
 10
1.358157480314961
 20
1.847838582677166
 30
0.0
 10
1.361102362204725
 20
1.851366141732284
 30
0.0
 10
1.362602362204725
 20
1.855897637795276
 30
0.0
 10
1.362602362204725
 20
1.861425196850394
 30
0.0
 10
1.362602362204725
 20
1.861425196850394
 30
0.0
 10
1.362602362204725
 20
1.866090551181102
 30
0.0
 10
1.361244094488189
 20
1.86998031496063
 30
0.0
 10
1.358574803149606
 20
1.87311811023622
 30
0.0
 10
1.358574803149606
 20
1.87311811023622
 30
0.0
 10
1.35588188976378
 20
1.876228346456693
 30
0.0
 10
1.352271653543307
 20
1.878366141732283
 30
0.0
 10
1.347771653543307
 20
1.879507874015748
 30
0.0
 10
1.347771653543307
 20
1.879507874015748
 30
0.0
 10
1.344854330708662
 20
1.880200787401575
 30
0.0
 10
1.338771653543307
 20
1.880562992125984
 30
0.0
 10
1.329547244094488
 20
1.880562992125984
 30
0.0
 10
1.329547244094488
 20
1.880562992125984
 30
0.0
 10
1.329547244094488
 20
1.880562992125984
 30
0.0
 10
1.304661417322835
 20
1.880562992125984
 30
0.0
 10
1.304661417322835
 20
1.880562992125984
 30
0.0
  0
SPLINE
  5
2F
330
1F
100
AcDbEntity
  8
Layer 1
 62
   250
100
AcDbSpline
210
0.0
220
0.0
230
1.0
 70
    11
 71
     3
 72
    52
 73
    48
 74
     0
 42
0.0000000001
 43
0.0000000001
 40
0.0
 40
0.0
 40
0.0
 40
0.0
 40
0.0833333333333333
 40
0.0833333333333333
 40
0.0833333333333333
 40
0.0833333333333333
 40
0.1666666666666667
 40
0.1666666666666667
 40
0.1666666666666667
 40
0.1666666666666667
 40
0.25
 40
0.25
 40
0.25
 40
0.25
 40
0.3333333333333333
 40
0.3333333333333333
 40
0.3333333333333333
 40
0.3333333333333333
 40
0.4166666666666666
 40
0.4166666666666666
 40
0.4166666666666666
 40
0.4166666666666666
 40
0.4999999999999999
 40
0.4999999999999999
 40
0.4999999999999999
 40
0.4999999999999999
 40
0.5833333333333333
 40
0.5833333333333333
 40
0.5833333333333333
 40
0.5833333333333333
 40
0.6666666666666666
 40
0.6666666666666666
 40
0.6666666666666666
 40
0.6666666666666666
 40
0.75
 40
0.75
 40
0.75
 40
0.75
 40
0.8333333333333334
 40
0.8333333333333334
 40
0.8333333333333334
 40
0.8333333333333334
 40
0.9166666666666667
 40
0.9166666666666667
 40
0.9166666666666667
 40
0.9166666666666667
 40
1.0
 40
1.0
 40
1.0
 40
1.0
 10
1.304661417322835
 20
1.831145669291339
 30
0.0
 10
1.304661417322835
 20
1.831145669291339
 30
0.0
 10
1.304661417322835
 20
1.793897637795276
 30
0.0
 10
1.304661417322835
 20
1.793897637795276
 30
0.0
 10
1.304661417322835
 20
1.793897637795276
 30
0.0
 10
1.304661417322835
 20
1.790145669291339
 30
0.0
 10
1.304826771653543
 20
1.787925196850394
 30
0.0
 10
1.305129921259843
 20
1.787200787401575
 30
0.0
 10
1.305129921259843
 20
1.787200787401575
 30
0.0
 10
1.305574803149606
 20
1.786228346456693
 30
0.0
 10
1.306437007874016
 20
1.785562992125984
 30
0.0
 10
1.307744094488189
 20
1.785173228346457
 30
0.0
 10
1.307744094488189
 20
1.785173228346457
 30
0.0
 10
1.308661417322835
 20
1.784897637795276
 30
0.0
 10
1.311271653543307
 20
1.784755905511811
 30
0.0
 10
1.315547244094488
 20
1.784755905511811
 30
0.0
 10
1.315547244094488
 20
1.784755905511811
 30
0.0
 10
1.315547244094488
 20
1.784755905511811
 30
0.0
 10
1.326629921259843
 20
1.784755905511811
 30
0.0
 10
1.326629921259843
 20
1.784755905511811
 30
0.0
 10
1.326629921259843
 20
1.784755905511811
 30
0.0
 10
1.337574803149606
 20
1.784755905511811
 30
0.0
 10
1.345409448818898
 20
1.785370078740158
 30
0.0
 10
1.350102362204725
 20
1.786590551181102
 30
0.0
 10
1.350102362204725
 20
1.786590551181102
 30
0.0
 10
1.354799212598425
 20
1.787811023622047
 30
0.0
 10
1.358799212598425
 20
1.790397637795276
 30
0.0
 10
1.362102362204724
 20
1.794342519685039
 30
0.0
 10
1.362102362204724
 20
1.794342519685039
 30
0.0
 10
1.365409448818898
 20
1.798255905511811
 30
0.0
 10
1.367074803149606
 20
1.803007874015748
 30
0.0
 10
1.367074803149606
 20
1.808535433070866
 30
0.0
 10
1.367074803149606
 20
1.808535433070866
 30
0.0
 10
1.367074803149606
 20
1.813200787401575
 30
0.0
 10
1.365716535433071
 20
1.817338582677166
 30
0.0
 10
1.363047244094488
 20
1.820952755905512
 30
0.0
 10
1.363047244094488
 20
1.820952755905512
 30
0.0
 10
1.360354330708661
 20
1.824562992125984
 30
0.0
 10
1.356629921259843
 20
1.827145669291339
 30
0.0
 10
1.35188188976378
 20
1.828755905511811
 30
0.0
 10
1.35188188976378
 20
1.828755905511811
 30
0.0
 10
1.347129921259843
 20
1.830370078740158
 30
0.0
 10
1.338716535433071
 20
1.831145669291339
 30
0.0
 10
1.326629921259843
 20
1.831145669291339
 30
0.0
 10
1.326629921259843
 20
1.831145669291339
 30
0.0
 10
1.326629921259843
 20
1.831145669291339
 30
0.0
 10
1.304661417322835
 20
1.831145669291339
 30
0.0
 10
1.304661417322835
 20
1.831145669291339
 30
0.0
  0
SPLINE
  5
30
330
1F
100
AcDbEntity
  8
Layer 1
 62
   250
100
AcDbSpline
210
0.0
220
0.0
230
1.0
 70
    11
 71
     3
 72
   112
 73
   108
 74
     0
 42
0.0000000001
 43
0.0000000001
 40
0.0
 40
0.0
 40
0.0
 40
0.0
 40
0.037037037037037
 40
0.037037037037037
 40
0.037037037037037
 40
0.037037037037037
 40
0.0740740740740741
 40
0.0740740740740741
 40
0.0740740740740741
 40
0.0740740740740741
 40
0.1111111111111111
 40
0.1111111111111111
 40
0.1111111111111111
 40
0.1111111111111111
 40
0.1481481481481481
 40
0.1481481481481481
 40
0.1481481481481481
 40
0.1481481481481481
 40
0.1851851851851852
 40
0.1851851851851852
 40
0.1851851851851852
 40
0.1851851851851852
 40
0.2222222222222222
 40
0.2222222222222222
 40
0.2222222222222222
 40
0.2222222222222222
 40
0.2592592592592592
 40
0.2592592592592592
 40
0.2592592592592592
 40
0.2592592592592592
 40
0.2962962962962963
 40
0.2962962962962963
 40
0.2962962962962963
 40
0.2962962962962963
 40
0.3333333333333333
 40
0.3333333333333333
 40
0.3333333333333333
 40
0.3333333333333333
 40
0.3703703703703704
 40
0.3703703703703704
 40
0.3703703703703704
 40
0.3703703703703704
 40
0.4074074074074074
 40
0.4074074074074074
 40
0.4074074074074074
 40
0.4074074074074074
 40
0.4444444444444444
 40
0.4444444444444444
 40
0.4444444444444444
 40
0.4444444444444444
 40
0.4814814814814815
 40
0.4814814814814815
 40
0.4814814814814815
 40
0.4814814814814815
 40
0.5185185185185185
 40
0.5185185185185185
 40
0.5185185185185185
 40
0.5185185185185185
 40
0.5555555555555556
 40
0.5555555555555556
 40
0.5555555555555556
 40
0.5555555555555556
 40
0.5925925925925926
 40
0.5925925925925926
 40
0.5925925925925926
 40
0.5925925925925926
 40
0.6296296296296295
 40
0.6296296296296295
 40
0.6296296296296295
 40
0.6296296296296295
 40
0.6666666666666665
 40
0.6666666666666665
 40
0.6666666666666665
 40
0.6666666666666665
 40
0.7037037037037035
 40
0.7037037037037035
 40
0.7037037037037035
 40
0.7037037037037035
 40
0.7407407407407405
 40
0.7407407407407405
 40
0.7407407407407405
 40
0.7407407407407405
 40
0.7777777777777775
 40
0.7777777777777775
 40
0.7777777777777775
 40
0.7777777777777775
 40
0.8148148148148144
 40
0.8148148148148144
 40
0.8148148148148144
 40
0.8148148148148144
 40
0.8518518518518514
 40
0.8518518518518514
 40
0.8518518518518514
 40
0.8518518518518514
 40
0.8888888888888884
 40
0.8888888888888884
 40
0.8888888888888884
 40
0.8888888888888884
 40
0.9259259259259254
 40
0.9259259259259254
 40
0.9259259259259254
 40
0.9259259259259254
 40
0.9629629629629624
 40
0.9629629629629624
 40
0.9629629629629624
 40
0.9629629629629624
 40
1.0
 40
1.0
 40
1.0
 40
1.0
 10
1.441767716535433
 20
1.889590551181102
 30
0.0
 10
1.441767716535433
 20
1.889590551181102
 30
0.0
 10
1.455185039370079
 20
1.889590551181102
 30
0.0
 10
1.455185039370079
 20
1.889590551181102
 30
0.0
 10
1.455185039370079
 20
1.889590551181102
 30
0.0
 10
1.455185039370079
 20
1.889590551181102
 30
0.0
 10
1.490433070866142
 20
1.794700787401575
 30
0.0
 10
1.490433070866142
 20
1.794700787401575
 30
0.0
 10
1.490433070866142
 20
1.794700787401575
 30
0.0
 10
1.492157480314961
 20
1.789925196850394
 30
0.0
 10
1.493905511811024
 20
1.786755905511811
 30
0.0
 10
1.495685039370079
 20
1.785228346456693
 30
0.0
 10
1.495685039370079
 20
1.785228346456693
 30
0.0
 10
1.497433070866142
 20
1.783673228346457
 30
0.0
 10
1.49982283464567
 20
1.782897637795276
 30
0.0
 10
1.502795275590551
 20
1.782897637795276
 30
0.0
 10
1.502795275590551
 20
1.782897637795276
 30
0.0
 10
1.502795275590551
 20
1.782897637795276
 30
0.0
 10
1.504574803149607
 20
1.782897637795276
 30
0.0
 10
1.504574803149607
 20
1.782897637795276
 30
0.0
 10
1.504574803149607
 20
1.782897637795276
 30
0.0
 10
1.504574803149607
 20
1.782897637795276
 30
0.0
 10
1.504574803149607
 20
1.776062992125984
 30
0.0
 10
1.504574803149607
 20
1.776062992125984
 30
0.0
 10
1.504574803149607
 20
1.776062992125984
 30
0.0
 10
1.504574803149607
 20
1.776062992125984
 30
0.0
 10
1.464129921259843
 20
1.776062992125984
 30
0.0
 10
1.464129921259843
 20
1.776062992125984
 30
0.0
 10
1.464129921259843
 20
1.776062992125984
 30
0.0
 10
1.464129921259843
 20
1.776062992125984
 30
0.0
 10
1.464129921259843
 20
1.782897637795276
 30
0.0
 10
1.464129921259843
 20
1.782897637795276
 30
0.0
 10
1.464129921259843
 20
1.782897637795276
 30
0.0
 10
1.465433070866142
 20
1.783007874015748
 30
0.0
 10
1.466712598425197
 20
1.783062992125984
 30
0.0
 10
1.467964566929134
 20
1.783062992125984
 30
0.0
 10
1.467964566929134
 20
1.783062992125984
 30
0.0
 10
1.470574803149606
 20
1.783062992125984
 30
0.0
 10
1.472267716535433
 20
1.783342519685039
 30
0.0
 10
1.473102362204725
 20
1.783870078740158
 30
0.0
 10
1.473102362204725
 20
1.783870078740158
 30
0.0
 10
1.474657480314961
 20
1.784897637795276
 30
0.0
 10
1.47546062992126
 20
1.786200787401575
 30
0.0
 10
1.47546062992126
 20
1.787783464566929
 30
0.0
 10
1.47546062992126
 20
1.787783464566929
 30
0.0
 10
1.47546062992126
 20
1.788925196850394
 30
0.0
 10
1.474685039370079
 20
1.791700787401575
 30
0.0
 10
1.473185039370079
 20
1.796173228346457
 30
0.0
 10
1.473185039370079
 20
1.796173228346457
 30
0.0
 10
1.473185039370079
 20
1.796173228346457
 30
0.0
 10
1.465685039370079
 20
1.818145669291339
 30
0.0
 10
1.465685039370079
 20
1.818145669291339
 30
0.0
 10
1.465685039370079
 20
1.818145669291339
 30
0.0
 10
1.465685039370079
 20
1.818145669291339
 30
0.0
 10
1.42451968503937
 20
1.818145669291339
 30
0.0
 10
1.42451968503937
 20
1.818145669291339
 30
0.0
 10
1.42451968503937
 20
1.818145669291339
 30
0.0
 10
1.42451968503937
 20
1.818145669291339
 30
0.0
 10
1.415712598425197
 20
1.793562992125984
 30
0.0
 10
1.415712598425197
 20
1.793562992125984
 30
0.0
 10
1.415712598425197
 20
1.793562992125984
 30
0.0
 10
1.414795275590551
 20
1.791007874015748
 30
0.0
 10
1.414322834645669
 20
1.789255905511811
 30
0.0
 10
1.414322834645669
 20
1.788255905511811
 30
0.0
 10
1.414322834645669
 20
1.788255905511811
 30
0.0
 10
1.414322834645669
 20
1.787173228346457
 30
0.0
 10
1.414629921259843
 20
1.786228346456693
 30
0.0
 10
1.415185039370079
 20
1.785425196850394
 30
0.0
 10
1.415185039370079
 20
1.785425196850394
 30
0.0
 10
1.415767716535433
 20
1.784618110236221
 30
0.0
 10
1.41651968503937
 20
1.784007874015748
 30
0.0
 10
1.41751968503937
 20
1.783590551181102
 30
0.0
 10
1.41751968503937
 20
1.783590551181102
 30
0.0
 10
1.418492125984252
 20
1.783173228346457
 30
0.0
 10
1.420047244094488
 20
1.78298031496063
 30
0.0
 10
1.422240157480315
 20
1.78298031496063
 30
0.0
 10
1.422240157480315
 20
1.78298031496063
 30
0.0
 10
1.423685039370079
 20
1.78298031496063
 30
0.0
 10
1.424877952755906
 20
1.782952755905512
 30
0.0
 10
1.425795275590551
 20
1.782897637795276
 30
0.0
 10
1.425795275590551
 20
1.782897637795276
 30
0.0
 10
1.425795275590551
 20
1.782897637795276
 30
0.0
 10
1.425795275590551
 20
1.776062992125984
 30
0.0
 10
1.425795275590551
 20
1.776062992125984
 30
0.0
 10
1.425795275590551
 20
1.776062992125984
 30
0.0
 10
1.425795275590551
 20
1.776062992125984
 30
0.0
 10
1.391877952755906
 20
1.776062992125984
 30
0.0
 10
1.391877952755906
 20
1.776062992125984
 30
0.0
 10
1.391877952755906
 20
1.776062992125984
 30
0.0
 10
1.391877952755906
 20
1.776062992125984
 30
0.0
 10
1.391877952755906
 20
1.782897637795276
 30
0.0
 10
1.391877952755906
 20
1.782897637795276
 30
0.0
 10
1.391877952755906
 20
1.782897637795276
 30
0.0
 10
1.39501968503937
 20
1.782897637795276
 30
0.0
 10
1.397295275590551
 20
1.783200787401575
 30
0.0
 10
1.398657480314961
 20
1.783842519685039
 30
0.0
 10
1.398657480314961
 20
1.783842519685039
 30
0.0
 10
1.400047244094488
 20
1.784452755905512
 30
0.0
 10
1.401267716535433
 20
1.785452755905512
 30
0.0
 10
1.402295275590551
 20
1.78684251968504
 30
0.0
 10
1.402295275590551
 20
1.78684251968504
 30
0.0
 10
1.403322834645669
 20
1.788228346456693
 30
0.0
 10
1.404685039370079
 20
1.791145669291339
 30
0.0
 10
1.406350393700788
 20
1.795590551181102
 30
0.0
 10
1.406350393700788
 20
1.795590551181102
 30
0.0
 10
1.406350393700788
 20
1.795590551181102
 30
0.0
 10
1.441767716535433
 20
1.889590551181102
 30
0.0
 10
1.441767716535433
 20
1.889590551181102
 30
0.0
  0
SPLINE
  5
31
330
1F
100
AcDbEntity
  8
Layer 1
 62
   250
100
AcDbSpline
210
0.0
220
0.0
230
1.0
 70
    11
 71
     3
 72
    16
 73
    12
 74
     0
 42
0.0000000001
 43
0.0000000001
 40
0.0
 40
0.0
 40
0.0
 40
0.0
 40
0.3333333333333333
 40
0.3333333333333333
 40
0.3333333333333333
 40
0.3333333333333333
 40
0.6666666666666666
 40
0.6666666666666666
 40
0.6666666666666666
 40
0.6666666666666666
 40
1.0
 40
1.0
 40
1.0
 40
1.0
 10
1.42751968503937
 20
1.826118110236221
 30
0.0
 10
1.42751968503937
 20
1.826118110236221
 30
0.0
 10
1.462602362204724
 20
1.826118110236221
 30
0.0
 10
1.462602362204724
 20
1.826118110236221
 30
0.0
 10
1.462602362204724
 20
1.826118110236221
 30
0.0
 10
1.462602362204724
 20
1.826118110236221
 30
0.0
 10
1.44501968503937
 20
1.874952755905512
 30
0.0
 10
1.44501968503937
 20
1.874952755905512
 30
0.0
 10
1.44501968503937
 20
1.874952755905512
 30
0.0
 10
1.44501968503937
 20
1.874952755905512
 30
0.0
 10
1.42751968503937
 20
1.826118110236221
 30
0.0
 10
1.42751968503937
 20
1.826118110236221
 30
0.0
  0
SPLINE
  5
32
330
1F
100
AcDbEntity
  8
Layer 1
 62
   250
100
AcDbSpline
210
0.0
220
0.0
230
1.0
 70
    11
 71
     3
 72
    72
 73
    68
 74
     0
 42
0.0000000001
 43
0.0000000001
 40
0.0
 40
0.0
 40
0.0
 40
0.0
 40
0.0588235294117647
 40
0.0588235294117647
 40
0.0588235294117647
 40
0.0588235294117647
 40
0.1176470588235294
 40
0.1176470588235294
 40
0.1176470588235294
 40
0.1176470588235294
 40
0.1764705882352941
 40
0.1764705882352941
 40
0.1764705882352941
 40
0.1764705882352941
 40
0.2352941176470588
 40
0.2352941176470588
 40
0.2352941176470588
 40
0.2352941176470588
 40
0.2941176470588235
 40
0.2941176470588235
 40
0.2941176470588235
 40
0.2941176470588235
 40
0.3529411764705883
 40
0.3529411764705883
 40
0.3529411764705883
 40
0.3529411764705883
 40
0.411764705882353
 40
0.411764705882353
 40
0.411764705882353
 40
0.411764705882353
 40
0.4705882352941177
 40
0.4705882352941177
 40
0.4705882352941177
 40
0.4705882352941177
 40
0.5294117647058824
 40
0.5294117647058824
 40
0.5294117647058824
 40
0.5294117647058824
 40
0.5882352941176471
 40
0.5882352941176471
 40
0.5882352941176471
 40
0.5882352941176471
 40
0.6470588235294118
 40
0.6470588235294118
 40
0.6470588235294118
 40
0.6470588235294118
 40
0.7058823529411765
 40
0.7058823529411765
 40
0.7058823529411765
 40
0.7058823529411765
 40
0.7647058823529412
 40
0.7647058823529412
 40
0.7647058823529412
 40
0.7647058823529412
 40
0.823529411764706
 40
0.823529411764706
 40
0.823529411764706
 40
0.823529411764706
 40
0.8823529411764707
 40
0.8823529411764707
 40
0.8823529411764707
 40
0.8823529411764707
 40
0.9411764705882354
 40
0.9411764705882354
 40
0.9411764705882354
 40
0.9411764705882354
 40
1.0
 40
1.0
 40
1.0
 40
1.0
 10
1.667602362204725
 20
1.889590551181102
 30
0.0
 10
1.667602362204725
 20
1.889590551181102
 30
0.0
 10
1.673685039370079
 20
1.889590551181102
 30
0.0
 10
1.673685039370079
 20
1.889590551181102
 30
0.0
 10
1.673685039370079
 20
1.889590551181102
 30
0.0
 10
1.673685039370079
 20
1.889590551181102
 30
0.0
 10
1.673685039370079
 20
1.795342519685039
 30
0.0
 10
1.673685039370079
 20
1.795342519685039
 30
0.0
 10
1.673685039370079
 20
1.795342519685039
 30
0.0
 10
1.673685039370079
 20
1.790897637795276
 30
0.0
 10
1.673992125984252
 20
1.788035433070866
 30
0.0
 10
1.674547244094488
 20
1.786755905511811
 30
0.0
 10
1.674547244094488
 20
1.786755905511811
 30
0.0
 10
1.675129921259843
 20
1.78548031496063
 30
0.0
 10
1.676047244094488
 20
1.784535433070866
 30
0.0
 10
1.677350393700787
 20
1.783870078740158
 30
0.0
 10
1.677350393700787
 20
1.783870078740158
 30
0.0
 10
1.678657480314961
 20
1.783228346456693
 30
0.0
 10
1.681240157480315
 20
1.782897637795276
 30
0.0
 10
1.685102362204725
 20
1.782897637795276
 30
0.0
 10
1.685102362204725
 20
1.782897637795276
 30
0.0
 10
1.685102362204725
 20
1.782897637795276
 30
0.0
 10
1.693074803149606
 20
1.782897637795276
 30
0.0
 10
1.693074803149606
 20
1.782897637795276
 30
0.0
 10
1.693074803149606
 20
1.782897637795276
 30
0.0
 10
1.693074803149606
 20
1.782897637795276
 30
0.0
 10
1.693074803149606
 20
1.776062992125984
 30
0.0
 10
1.693074803149606
 20
1.776062992125984
 30
0.0
 10
1.693074803149606
 20
1.776062992125984
 30
0.0
 10
1.693074803149606
 20
1.776062992125984
 30
0.0
 10
1.639437007874016
 20
1.776062992125984
 30
0.0
 10
1.639437007874016
 20
1.776062992125984
 30
0.0
 10
1.639437007874016
 20
1.776062992125984
 30
0.0
 10
1.639437007874016
 20
1.776062992125984
 30
0.0
 10
1.639437007874016
 20
1.782897637795276
 30
0.0
 10
1.639437007874016
 20
1.782897637795276
 30
0.0
 10
1.639437007874016
 20
1.782897637795276
 30
0.0
 10
1.639437007874016
 20
1.782897637795276
 30
0.0
 10
1.648295275590551
 20
1.782897637795276
 30
0.0
 10
1.648295275590551
 20
1.782897637795276
 30
0.0
 10
1.648295275590551
 20
1.782897637795276
 30
0.0
 10
1.652157480314961
 20
1.782897637795276
 30
0.0
 10
1.654712598425197
 20
1.783228346456693
 30
0.0
 10
1.655992125984252
 20
1.783925196850394
 30
0.0
 10
1.655992125984252
 20
1.783925196850394
 30
0.0
 10
1.657267716535433
 20
1.784590551181102
 30
0.0
 10
1.658267716535433
 20
1.785673228346457
 30
0.0
 10
1.658964566929134
 20
1.787173228346457
 30
0.0
 10
1.658964566929134
 20
1.787173228346457
 30
0.0
 10
1.659657480314961
 20
1.788673228346457
 30
0.0
 10
1.66001968503937
 20
1.791397637795276
 30
0.0
 10
1.66001968503937
 20
1.795342519685039
 30
0.0
 10
1.66001968503937
 20
1.795342519685039
 30
0.0
 10
1.66001968503937
 20
1.795342519685039
 30
0.0
 10
1.66001968503937
 20
1.872811023622047
 30
0.0
 10
1.66001968503937
 20
1.872811023622047
 30
0.0
 10
1.66001968503937
 20
1.872811023622047
 30
0.0
 10
1.66001968503937
 20
1.872811023622047
 30
0.0
 10
1.639437007874016
 20
1.872811023622047
 30
0.0
 10
1.639437007874016
 20
1.872811023622047
 30
0.0
 10
1.639437007874016
 20
1.872811023622047
 30
0.0
 10
1.639437007874016
 20
1.872811023622047
 30
0.0
 10
1.639437007874016
 20
1.879811023622047
 30
0.0
 10
1.639437007874016
 20
1.879811023622047
 30
0.0
 10
1.639437007874016
 20
1.879811023622047
 30
0.0
 10
1.650657480314961
 20
1.881393700787402
 30
0.0
 10
1.660047244094488
 20
1.884645669291339
 30
0.0
 10
1.667602362204725
 20
1.889590551181102
 30
0.0
  0
SPLINE
  5
33
330
1F
100
AcDbEntity
  8
Layer 1
 62
   250
100
AcDbSpline
210
0.0
220
0.0
230
1.0
 70
    11
 71
     3
 72
    84
 73
    80
 74
     0
 42
0.0000000001
 43
0.0000000001
 40
0.0
 40
0.0
 40
0.0
 40
0.0
 40
0.05
 40
0.05
 40
0.05
 40
0.05
 40
0.1
 40
0.1
 40
0.1
 40
0.1
 40
0.15
 40
0.15
 40
0.15
 40
0.15
 40
0.2
 40
0.2
 40
0.2
 40
0.2
 40
0.25
 40
0.25
 40
0.25
 40
0.25
 40
0.3
 40
0.3
 40
0.3
 40
0.3
 40
0.35
 40
0.35
 40
0.35
 40
0.35
 40
0.4
 40
0.4
 40
0.4
 40
0.4
 40
0.45
 40
0.45
 40
0.45
 40
0.45
 40
0.4999999999999999
 40
0.4999999999999999
 40
0.4999999999999999
 40
0.4999999999999999
 40
0.5499999999999999
 40
0.5499999999999999
 40
0.5499999999999999
 40
0.5499999999999999
 40
0.6
 40
0.6
 40
0.6
 40
0.6
 40
0.65
 40
0.65
 40
0.65
 40
0.65
 40
0.7000000000000001
 40
0.7000000000000001
 40
0.7000000000000001
 40
0.7000000000000001
 40
0.7500000000000001
 40
0.7500000000000001
 40
0.7500000000000001
 40
0.7500000000000001
 40
0.8000000000000002
 40
0.8000000000000002
 40
0.8000000000000002
 40
0.8000000000000002
 40
0.8500000000000002
 40
0.8500000000000002
 40
0.8500000000000002
 40
0.8500000000000002
 40
0.9000000000000002
 40
0.9000000000000002
 40
0.9000000000000002
 40
0.9000000000000002
 40
0.9500000000000003
 40
0.9500000000000003
 40
0.9500000000000003
 40
0.9500000000000003
 40
1.0
 40
1.0
 40
1.0
 40
1.0
 10
1.799267716535433
 20
1.891700787401575
 30
0.0
 10
1.799267716535433
 20
1.891700787401575
 30
0.0
 10
1.799267716535433
 20
1.884283464566929
 30
0.0
 10
1.799267716535433
 20
1.884283464566929
 30
0.0
 10
1.799267716535433
 20
1.884283464566929
 30
0.0
 10
1.78588188976378
 20
1.884145669291339
 30
0.0
 10
1.775047244094488
 20
1.882173228346457
 30
0.0
 10
1.766771653543307
 20
1.878452755905512
 30
0.0
 10
1.766771653543307
 20
1.878452755905512
 30
0.0
 10
1.758492125984252
 20
1.874700787401575
 30
0.0
 10
1.752409448818898
 20
1.869090551181103
 30
0.0
 10
1.748492125984252
 20
1.861645669291339
 30
0.0
 10
1.748492125984252
 20
1.861645669291339
 30
0.0
 10
1.744574803149606
 20
1.854173228346457
 30
0.0
 10
1.74238188976378
 20
1.84498031496063
 30
0.0
 10
1.741909448818898
 20
1.834090551181103
 30
0.0
 10
1.741909448818898
 20
1.834090551181103
 30
0.0
 10
1.744657480314961
 20
1.838311023622047
 30
0.0
 10
1.747492125984252
 20
1.841618110236221
 30
0.0
 10
1.750409448818898
 20
1.84398031496063
 30
0.0
 10
1.750409448818898
 20
1.84398031496063
 30
0.0
 10
1.753299212598425
 20
1.846338582677165
 30
0.0
 10
1.756685039370079
 20
1.848145669291339
 30
0.0
 10
1.760574803149607
 20
1.849425196850394
 30
0.0
 10
1.760574803149607
 20
1.849425196850394
 30
0.0
 10
1.764464566929134
 20
1.850700787401575
 30
0.0
 10
1.768712598425197
 20
1.851338582677165
 30
0.0
 10
1.773326771653544
 20
1.851338582677165
 30
0.0
 10
1.773326771653544
 20
1.851338582677165
 30
0.0
 10
1.780685039370079
 20
1.851338582677165
 30
0.0
 10
1.787267716535433
 20
1.849700787401575
 30
0.0
 10
1.79301968503937
 20
1.846452755905512
 30
0.0
 10
1.79301968503937
 20
1.846452755905512
 30
0.0
 10
1.798767716535433
 20
1.843200787401575
 30
0.0
 10
1.803240157480315
 20
1.838783464566929
 30
0.0
 10
1.806437007874016
 20
1.833228346456693
 30
0.0
 10
1.806437007874016
 20
1.833228346456693
 30
0.0
 10
1.809629921259843
 20
1.827673228346457
 30
0.0
 10
1.811240157480315
 20
1.821118110236221
 30
0.0
 10
1.811240157480315
 20
1.813590551181102
 30
0.0
 10
1.811240157480315
 20
1.813590551181102
 30
0.0
 10
1.811240157480315
 20
1.801590551181102
 30
0.0
 10
1.807629921259843
 20
1.792173228346457
 30
0.0
 10
1.800409448818898
 20
1.785342519685039
 30
0.0
 10
1.800409448818898
 20
1.785342519685039
 30
0.0
 10
1.792437007874016
 20
1.777842519685039
 30
0.0
 10
1.782102362204725
 20
1.774118110236221
 30
0.0
 10
1.769409448818898
 20
1.774118110236221
 30
0.0
 10
1.769409448818898
 20
1.774118110236221
 30
0.0
 10
1.760240157480315
 20
1.774118110236221
 30
0.0
 10
1.75251968503937
 20
1.776007874015748
 30
0.0
 10
1.746212598425197
 20
1.779811023622047
 30
0.0
 10
1.746212598425197
 20
1.779811023622047
 30
0.0
 10
1.739909448818898
 20
1.783590551181102
 30
0.0
 10
1.734909448818898
 20
1.789397637795276
 30
0.0
 10
1.731185039370079
 20
1.797228346456693
 30
0.0
 10
1.731185039370079
 20
1.797228346456693
 30
0.0
 10
1.727492125984252
 20
1.805035433070866
 30
0.0
 10
1.725629921259843
 20
1.814700787401575
 30
0.0
 10
1.725629921259843
 20
1.826200787401575
 30
0.0
 10
1.725629921259843
 20
1.826200787401575
 30
0.0
 10
1.725629921259843
 20
1.837755905511811
 30
0.0
 10
1.727602362204725
 20
1.848007874015748
 30
0.0
 10
1.73151968503937
 20
1.856952755905512
 30
0.0
 10
1.73151968503937
 20
1.856952755905512
 30
0.0
 10
1.735464566929134
 20
1.865893700787402
 30
0.0
 10
1.740909448818898
 20
1.873090551181103
 30
0.0
 10
1.747854330708662
 20
1.878507874015748
 30
0.0
 10
1.747854330708662
 20
1.878507874015748
 30
0.0
 10
1.754799212598425
 20
1.883952755905512
 30
0.0
 10
1.762409448818898
 20
1.887507874015748
 30
0.0
 10
1.770657480314961
 20
1.889173228346457
 30
0.0
 10
1.770657480314961
 20
1.889173228346457
 30
0.0
 10
1.778937007874016
 20
1.890866141732284
 30
0.0
 10
1.786354330708662
 20
1.891700787401575
 30
0.0
 10
1.792937007874016
 20
1.891700787401575
 30
0.0
 10
1.792937007874016
 20
1.891700787401575
 30
0.0
 10
1.792937007874016
 20
1.891700787401575
 30
0.0
 10
1.799267716535433
 20
1.891700787401575
 30
0.0
 10
1.799267716535433
 20
1.891700787401575
 30
0.0
  0
SPLINE
  5
34
330
1F
100
AcDbEntity
  8
Layer 1
 62
   250
100
AcDbSpline
210
0.0
220
0.0
230
1.0
 70
    11
 71
     3
 72
    40
 73
    36
 74
     0
 42
0.0000000001
 43
0.0000000001
 40
0.0
 40
0.0
 40
0.0
 40
0.0
 40
0.1111111111111111
 40
0.1111111111111111
 40
0.1111111111111111
 40
0.1111111111111111
 40
0.2222222222222222
 40
0.2222222222222222
 40
0.2222222222222222
 40
0.2222222222222222
 40
0.3333333333333333
 40
0.3333333333333333
 40
0.3333333333333333
 40
0.3333333333333333
 40
0.4444444444444444
 40
0.4444444444444444
 40
0.4444444444444444
 40
0.4444444444444444
 40
0.5555555555555556
 40
0.5555555555555556
 40
0.5555555555555556
 40
0.5555555555555556
 40
0.6666666666666667
 40
0.6666666666666667
 40
0.6666666666666667
 40
0.6666666666666667
 40
0.7777777777777779
 40
0.7777777777777779
 40
0.7777777777777779
 40
0.7777777777777779
 40
0.8888888888888891
 40
0.8888888888888891
 40
0.8888888888888891
 40
0.8888888888888891
 40
1.0
 40
1.0
 40
1.0
 40
1.0
 10
1.769574803149606
 20
1.842700787401575
 30
0.0
 10
1.761771653543307
 20
1.842700787401575
 30
0.0
 10
1.755354330708661
 20
1.839755905511811
 30
0.0
 10
1.750326771653543
 20
1.833838582677166
 30
0.0
 10
1.750326771653543
 20
1.833838582677166
 30
0.0
 10
1.745299212598425
 20
1.827925196850394
 30
0.0
 10
1.742799212598425
 20
1.820811023622047
 30
0.0
 10
1.742799212598425
 20
1.812535433070866
 30
0.0
 10
1.742799212598425
 20
1.812535433070866
 30
0.0
 10
1.742799212598425
 20
1.806673228346457
 30
0.0
 10
1.74401968503937
 20
1.801255905511811
 30
0.0
 10
1.746464566929134
 20
1.796283464566929
 30
0.0
 10
1.746464566929134
 20
1.796283464566929
 30
0.0
 10
1.748909448818898
 20
1.791311023622047
 30
0.0
 10
1.752047244094488
 20
1.787645669291339
 30
0.0
 10
1.755909448818898
 20
1.785228346456693
 30
0.0
 10
1.755909448818898
 20
1.785228346456693
 30
0.0
 10
1.759740157480315
 20
1.782811023622047
 30
0.0
 10
1.764102362204725
 20
1.781590551181102
 30
0.0
 10
1.768909448818898
 20
1.781590551181102
 30
0.0
 10
1.768909448818898
 20
1.781590551181102
 30
0.0
 10
1.776409448818898
 20
1.781590551181102
 30
0.0
 10
1.782629921259843
 20
1.784425196850394
 30
0.0
 10
1.787602362204725
 20
1.790090551181103
 30
0.0
 10
1.787602362204725
 20
1.790090551181103
 30
0.0
 10
1.792547244094488
 20
1.795755905511811
 30
0.0
 10
1.795047244094488
 20
1.803370078740158
 30
0.0
 10
1.795047244094488
 20
1.812925196850394
 30
0.0
 10
1.795047244094488
 20
1.812925196850394
 30
0.0
 10
1.795047244094488
 20
1.822035433070866
 30
0.0
 10
1.792629921259843
 20
1.829283464566929
 30
0.0
 10
1.787799212598425
 20
1.834645669291339
 30
0.0
 10
1.787799212598425
 20
1.834645669291339
 30
0.0
 10
1.782964566929134
 20
1.840035433070866
 30
0.0
 10
1.77688188976378
 20
1.842700787401575
 30
0.0
 10
1.769574803149606
 20
1.842700787401575
 30
0.0
  0
SPLINE
  5
35
330
1F
100
AcDbEntity
  8
Layer 1
 62
   250
100
AcDbSpline
210
0.0
220
0.0
230
1.0
 70
    11
 71
     3
 72
    48
 73
    44
 74
     0
 42
0.0000000001
 43
0.0000000001
 40
0.0
 40
0.0
 40
0.0
 40
0.0
 40
0.0909090909090909
 40
0.0909090909090909
 40
0.0909090909090909
 40
0.0909090909090909
 40
0.1818181818181818
 40
0.1818181818181818
 40
0.1818181818181818
 40
0.1818181818181818
 40
0.2727272727272727
 40
0.2727272727272727
 40
0.2727272727272727
 40
0.2727272727272727
 40
0.3636363636363637
 40
0.3636363636363637
 40
0.3636363636363637
 40
0.3636363636363637
 40
0.4545454545454546
 40
0.4545454545454546
 40
0.4545454545454546
 40
0.4545454545454546
 40
0.5454545454545455
 40
0.5454545454545455
 40
0.5454545454545455
 40
0.5454545454545455
 40
0.6363636363636365
 40
0.6363636363636365
 40
0.6363636363636365
 40
0.6363636363636365
 40
0.7272727272727274
 40
0.7272727272727274
 40
0.7272727272727274
 40
0.7272727272727274
 40
0.8181818181818183
 40
0.8181818181818183
 40
0.8181818181818183
 40
0.8181818181818183
 40
0.9090909090909093
 40
0.9090909090909093
 40
0.9090909090909093
 40
0.9090909090909093
 40
1.0
 40
1.0
 40
1.0
 40
1.0
 10
1.878716535433071
 20
1.889590551181102
 30
0.0
 10
1.878716535433071
 20
1.889590551181102
 30
0.0
 10
1.892464566929134
 20
1.889590551181102
 30
0.0
 10
1.892464566929134
 20
1.889590551181102
 30
0.0
 10
1.892464566929134
 20
1.889590551181102
 30
0.0
 10
1.892464566929134
 20
1.889590551181102
 30
0.0
 10
1.892464566929134
 20
1.823590551181102
 30
0.0
 10
1.892464566929134
 20
1.823590551181102
 30
0.0
 10
1.892464566929134
 20
1.823590551181102
 30
0.0
 10
1.892464566929134
 20
1.823590551181102
 30
0.0
 10
1.913799212598425
 20
1.823590551181102
 30
0.0
 10
1.913799212598425
 20
1.823590551181102
 30
0.0
 10
1.913799212598425
 20
1.823590551181102
 30
0.0
 10
1.913799212598425
 20
1.823590551181102
 30
0.0
 10
1.913799212598425
 20
1.813425196850394
 30
0.0
 10
1.913799212598425
 20
1.813425196850394
 30
0.0
 10
1.913799212598425
 20
1.813425196850394
 30
0.0
 10
1.913799212598425
 20
1.813425196850394
 30
0.0
 10
1.892464566929134
 20
1.813425196850394
 30
0.0
 10
1.892464566929134
 20
1.813425196850394
 30
0.0
 10
1.892464566929134
 20
1.813425196850394
 30
0.0
 10
1.892464566929134
 20
1.813425196850394
 30
0.0
 10
1.892464566929134
 20
1.776062992125984
 30
0.0
 10
1.892464566929134
 20
1.776062992125984
 30
0.0
 10
1.892464566929134
 20
1.776062992125984
 30
0.0
 10
1.892464566929134
 20
1.776062992125984
 30
0.0
 10
1.878716535433071
 20
1.776062992125984
 30
0.0
 10
1.878716535433071
 20
1.776062992125984
 30
0.0
 10
1.878716535433071
 20
1.776062992125984
 30
0.0
 10
1.878716535433071
 20
1.776062992125984
 30
0.0
 10
1.878716535433071
 20
1.813425196850394
 30
0.0
 10
1.878716535433071
 20
1.813425196850394
 30
0.0
 10
1.878716535433071
 20
1.813425196850394
 30
0.0
 10
1.878716535433071
 20
1.813425196850394
 30
0.0
 10
1.825244094488189
 20
1.813425196850394
 30
0.0
 10
1.825244094488189
 20
1.813425196850394
 30
0.0
 10
1.825244094488189
 20
1.813425196850394
 30
0.0
 10
1.825244094488189
 20
1.813425196850394
 30
0.0
 10
1.825244094488189
 20
1.827728346456693
 30
0.0
 10
1.825244094488189
 20
1.827728346456693
 30
0.0
 10
1.825244094488189
 20
1.827728346456693
 30
0.0
 10
1.825244094488189
 20
1.827728346456693
 30
0.0
 10
1.878716535433071
 20
1.889590551181102
 30
0.0
 10
1.878716535433071
 20
1.889590551181102
 30
0.0
  0
SPLINE
  5
36
330
1F
100
AcDbEntity
  8
Layer 1
 62
   250
100
AcDbSpline
210
0.0
220
0.0
230
1.0
 70
    11
 71
     3
 72
    16
 73
    12
 74
     0
 42
0.0000000001
 43
0.0000000001
 40
0.0
 40
0.0
 40
0.0
 40
0.0
 40
0.3333333333333333
 40
0.3333333333333333
 40
0.3333333333333333
 40
0.3333333333333333
 40
0.6666666666666666
 40
0.6666666666666666
 40
0.6666666666666666
 40
0.6666666666666666
 40
1.0
 40
1.0
 40
1.0
 40
1.0
 10
1.878716535433071
 20
1.823590551181102
 30
0.0
 10
1.878716535433071
 20
1.823590551181102
 30
0.0
 10
1.878716535433071
 20
1.87698031496063
 30
0.0
 10
1.878716535433071
 20
1.87698031496063
 30
0.0
 10
1.878716535433071
 20
1.87698031496063
 30
0.0
 10
1.878716535433071
 20
1.87698031496063
 30
0.0
 10
1.832661417322835
 20
1.823590551181102
 30
0.0
 10
1.832661417322835
 20
1.823590551181102
 30
0.0
 10
1.832661417322835
 20
1.823590551181102
 30
0.0
 10
1.832661417322835
 20
1.823590551181102
 30
0.0
 10
1.878716535433071
 20
1.823590551181102
 30
0.0
 10
1.878716535433071
 20
1.823590551181102
 30
0.0
  0
SPLINE
  5
37
330
1F
100
AcDbEntity
  8
Layer 1
 62
   250
100
AcDbSpline
210
0.0
220
0.0
230
1.0
 70
    11
 71
     3
 72
    76
 73
    72
 74
     0
 42
0.0000000001
 43
0.0000000001
 40
0.0
 40
0.0
 40
0.0
 40
0.0
 40
0.0555555555555556
 40
0.0555555555555556
 40
0.0555555555555556
 40
0.0555555555555556
 40
0.1111111111111111
 40
0.1111111111111111
 40
0.1111111111111111
 40
0.1111111111111111
 40
0.1666666666666667
 40
0.1666666666666667
 40
0.1666666666666667
 40
0.1666666666666667
 40
0.2222222222222222
 40
0.2222222222222222
 40
0.2222222222222222
 40
0.2222222222222222
 40
0.2777777777777778
 40
0.2777777777777778
 40
0.2777777777777778
 40
0.2777777777777778
 40
0.3333333333333334
 40
0.3333333333333334
 40
0.3333333333333334
 40
0.3333333333333334
 40
0.388888888888889
 40
0.388888888888889
 40
0.388888888888889
 40
0.388888888888889
 40
0.4444444444444445
 40
0.4444444444444445
 40
0.4444444444444445
 40
0.4444444444444445
 40
0.5000000000000001
 40
0.5000000000000001
 40
0.5000000000000001
 40
0.5000000000000001
 40
0.5555555555555557
 40
0.5555555555555557
 40
0.5555555555555557
 40
0.5555555555555557
 40
0.6111111111111113
 40
0.6111111111111113
 40
0.6111111111111113
 40
0.6111111111111113
 40
0.6666666666666669
 40
0.6666666666666669
 40
0.6666666666666669
 40
0.6666666666666669
 40
0.7222222222222224
 40
0.7222222222222224
 40
0.7222222222222224
 40
0.7222222222222224
 40
0.777777777777778
 40
0.777777777777778
 40
0.777777777777778
 40
0.777777777777778
 40
0.8333333333333336
 40
0.8333333333333336
 40
0.8333333333333336
 40
0.8333333333333336
 40
0.8888888888888892
 40
0.8888888888888892
 40
0.8888888888888892
 40
0.8888888888888892
 40
0.9444444444444448
 40
0.9444444444444448
 40
0.9444444444444448
 40
0.9444444444444448
 40
1.0
 40
1.0
 40
1.0
 40
1.0
 10
1.986133858267717
 20
1.839062992125984
 30
0.0
 10
1.992551181102362
 20
1.836618110236221
 30
0.0
 10
1.997437007874016
 20
1.834311023622047
 30
0.0
 10
2.000799212598425
 20
1.832145669291339
 30
0.0
 10
2.000799212598425
 20
1.832145669291339
 30
0.0
 10
2.005716535433071
 20
1.82898031496063
 30
0.0
 10
2.009437007874016
 20
1.825283464566929
 30
0.0
 10
2.011937007874016
 20
1.821035433070866
 30
0.0
 10
2.011937007874016
 20
1.821035433070866
 30
0.0
 10
2.014437007874016
 20
1.816755905511811
 30
0.0
 10
2.015688976377953
 20
1.812145669291339
 30
0.0
 10
2.015688976377953
 20
1.807145669291339
 30
0.0
 10
2.015688976377953
 20
1.807145669291339
 30
0.0
 10
2.015688976377953
 20
1.798200787401575
 30
0.0
 10
2.011826771653543
 20
1.790452755905512
 30
0.0
 10
2.004133858267716
 20
1.783925196850394
 30
0.0
 10
2.004133858267716
 20
1.783925196850394
 30
0.0
 10
1.996409448818898
 20
1.777370078740158
 30
0.0
 10
1.986023622047244
 20
1.774118110236221
 30
0.0
 10
1.972964566929134
 20
1.774118110236221
 30
0.0
 10
1.972964566929134
 20
1.774118110236221
 30
0.0
 10
1.959133858267717
 20
1.774118110236221
 30
0.0
 10
1.948271653543307
 20
1.777811023622047
 30
0.0
 10
1.940409448818898
 20
1.785173228346457
 30
0.0
 10
1.940409448818898
 20
1.785173228346457
 30
0.0
 10
1.934161417322835
 20
1.791090551181102
 30
0.0
 10
1.931051181102362
 20
1.797783464566929
 30
0.0
 10
1.931051181102362
 20
1.805283464566929
 30
0.0
 10
1.931051181102362
 20
1.805283464566929
 30
0.0
 10
1.931051181102362
 20
1.811311023622047
 30
0.0
 10
1.933161417322835
 20
1.816700787401575
 30
0.0
 10
1.93738188976378
 20
1.82148031496063
 30
0.0
 10
1.93738188976378
 20
1.82148031496063
 30
0.0
 10
1.942496062992126
 20
1.827173228346457
 30
0.0
 10
1.949771653543307
 20
1.831618110236221
 30
0.0
 10
1.959216535433071
 20
1.834811023622047
 30
0.0
 10
1.959216535433071
 20
1.834811023622047
 30
0.0
 10
1.951826771653543
 20
1.838283464566929
 30
0.0
 10
1.946523622047244
 20
1.841811023622047
 30
0.0
 10
1.943244094488189
 20
1.845397637795276
 30
0.0
 10
1.943244094488189
 20
1.845397637795276
 30
0.0
 10
1.939078740157481
 20
1.850118110236221
 30
0.0
 10
1.936996062992126
 20
1.855783464566929
 30
0.0
 10
1.936996062992126
 20
1.862393700787402
 30
0.0
 10
1.936996062992126
 20
1.862393700787402
 30
0.0
 10
1.936996062992126
 20
1.870590551181103
 30
0.0
 10
1.94007874015748
 20
1.877228346456693
 30
0.0
 10
1.946271653543307
 20
1.882255905511811
 30
0.0
 10
1.946271653543307
 20
1.882255905511811
 30
0.0
 10
1.953854330708662
 20
1.888452755905512
 30
0.0
 10
1.963354330708661
 20
1.891535433070866
 30
0.0
 10
1.974744094488189
 20
1.891535433070866
 30
0.0
 10
1.974744094488189
 20
1.891535433070866
 30
0.0
 10
1.985161417322835
 20
1.891535433070866
 30
0.0
 10
1.993578740157481
 20
1.888866141732284
 30
0.0
 10
2.000023622047244
 20
1.883535433070866
 30
0.0
 10
2.000023622047244
 20
1.883535433070866
 30
0.0
 10
2.006437007874016
 20
1.878173228346457
 30
0.0
 10
2.009661417322835
 20
1.872062992125984
 30
0.0
 10
2.009661417322835
 20
1.865173228346457
 30
0.0
 10
2.009661417322835
 20
1.865173228346457
 30
0.0
 10
2.009661417322835
 20
1.861755905511811
 30
0.0
 10
2.008854330708662
 20
1.85848031496063
 30
0.0
 10
2.007271653543307
 20
1.855366141732284
 30
0.0
 10
2.007271653543307
 20
1.855366141732284
 30
0.0
 10
2.005661417322835
 20
1.852255905511811
 30
0.0
 10
2.003216535433071
 20
1.849338582677165
 30
0.0
 10
1.99988188976378
 20
1.846673228346457
 30
0.0
 10
1.99988188976378
 20
1.846673228346457
 30
0.0
 10
1.99657874015748
 20
1.84398031496063
 30
0.0
 10
1.991992125984252
 20
1.841452755905512
 30
0.0
 10
1.986133858267717
 20
1.839062992125984
 30
0.0
  0
SPLINE
  5
38
330
1F
100
AcDbEntity
  8
Layer 1
 62
   250
100
AcDbSpline
210
0.0
220
0.0
230
1.0
 70
    11
 71
     3
 72
    48
 73
    44
 74
     0
 42
0.0000000001
 43
0.0000000001
 40
0.0
 40
0.0
 40
0.0
 40
0.0
 40
0.0909090909090909
 40
0.0909090909090909
 40
0.0909090909090909
 40
0.0909090909090909
 40
0.1818181818181818
 40
0.1818181818181818
 40
0.1818181818181818
 40
0.1818181818181818
 40
0.2727272727272727
 40
0.2727272727272727
 40
0.2727272727272727
 40
0.2727272727272727
 40
0.3636363636363637
 40
0.3636363636363637
 40
0.3636363636363637
 40
0.3636363636363637
 40
0.4545454545454546
 40
0.4545454545454546
 40
0.4545454545454546
 40
0.4545454545454546
 40
0.5454545454545455
 40
0.5454545454545455
 40
0.5454545454545455
 40
0.5454545454545455
 40
0.6363636363636365
 40
0.6363636363636365
 40
0.6363636363636365
 40
0.6363636363636365
 40
0.7272727272727274
 40
0.7272727272727274
 40
0.7272727272727274
 40
0.7272727272727274
 40
0.8181818181818183
 40
0.8181818181818183
 40
0.8181818181818183
 40
0.8181818181818183
 40
0.9090909090909093
 40
0.9090909090909093
 40
0.9090909090909093
 40
0.9090909090909093
 40
1.0
 40
1.0
 40
1.0
 40
1.0
 10
1.978744094488189
 20
1.842062992125984
 30
0.0
 10
1.984909448818898
 20
1.846728346456693
 30
0.0
 10
1.988937007874016
 20
1.84998031496063
 30
0.0
 10
1.990771653543307
 20
1.851838582677166
 30
0.0
 10
1.990771653543307
 20
1.851838582677166
 30
0.0
 10
1.992633858267717
 20
1.853673228346457
 30
0.0
 10
1.994051181102362
 20
1.855783464566929
 30
0.0
 10
1.995051181102362
 20
1.858145669291339
 30
0.0
 10
1.995051181102362
 20
1.858145669291339
 30
0.0
 10
1.996051181102362
 20
1.860507874015748
 30
0.0
 10
1.996551181102362
 20
1.862783464566929
 30
0.0
 10
1.996551181102362
 20
1.865007874015748
 30
0.0
 10
1.996551181102362
 20
1.865007874015748
 30
0.0
 10
1.996551181102362
 20
1.868200787401575
 30
0.0
 10
1.995606299212599
 20
1.871255905511811
 30
0.0
 10
1.993716535433071
 20
1.874173228346457
 30
0.0
 10
1.993716535433071
 20
1.874173228346457
 30
0.0
 10
1.991799212598425
 20
1.877062992125984
 30
0.0
 10
1.989023622047244
 20
1.879425196850394
 30
0.0
 10
1.985354330708661
 20
1.881200787401575
 30
0.0
 10
1.985354330708661
 20
1.881200787401575
 30
0.0
 10
1.981716535433071
 20
1.883007874015748
 30
0.0
 10
1.977606299212599
 20
1.883893700787402
 30
0.0
 10
1.973051181102362
 20
1.883893700787402
 30
0.0
 10
1.973051181102362
 20
1.883893700787402
 30
0.0
 10
1.966299212598425
 20
1.883893700787402
 30
0.0
 10
1.960716535433071
 20
1.882035433070866
 30
0.0
 10
1.956271653543307
 20
1.878311023622047
 30
0.0
 10
1.956271653543307
 20
1.878311023622047
 30
0.0
 10
1.951826771653543
 20
1.874590551181103
 30
0.0
 10
1.949606299212598
 20
1.870311023622047
 30
0.0
 10
1.949606299212598
 20
1.865425196850394
 30
0.0
 10
1.949606299212598
 20
1.865425196850394
 30
0.0
 10
1.949606299212598
 20
1.861507874015748
 30
0.0
 10
1.950996062992126
 20
1.858007874015748
 30
0.0
 10
1.953744094488189
 20
1.854925196850394
 30
0.0
 10
1.953744094488189
 20
1.854925196850394
 30
0.0
 10
1.956523622047244
 20
1.851838582677166
 30
0.0
 10
1.961661417322835
 20
1.848783464566929
 30
0.0
 10
1.969216535433071
 20
1.845811023622047
 30
0.0
 10
1.969216535433071
 20
1.845811023622047
 30
0.0
 10
1.969216535433071
 20
1.845811023622047
 30
0.0
 10
1.978744094488189
 20
1.842062992125984
 30
0.0
 10
1.978744094488189
 20
1.842062992125984
 30
0.0
  0
SPLINE
  5
39
330
1F
100
AcDbEntity
  8
Layer 1
 62
   250
100
AcDbSpline
210
0.0
220
0.0
230
1.0
 70
    11
 71
     3
 72
    40
 73
    36
 74
     0
 42
0.0000000001
 43
0.0000000001
 40
0.0
 40
0.0
 40
0.0
 40
0.0
 40
0.1111111111111111
 40
0.1111111111111111
 40
0.1111111111111111
 40
0.1111111111111111
 40
0.2222222222222222
 40
0.2222222222222222
 40
0.2222222222222222
 40
0.2222222222222222
 40
0.3333333333333333
 40
0.3333333333333333
 40
0.3333333333333333
 40
0.3333333333333333
 40
0.4444444444444444
 40
0.4444444444444444
 40
0.4444444444444444
 40
0.4444444444444444
 40
0.5555555555555556
 40
0.5555555555555556
 40
0.5555555555555556
 40
0.5555555555555556
 40
0.6666666666666667
 40
0.6666666666666667
 40
0.6666666666666667
 40
0.6666666666666667
 40
0.7777777777777779
 40
0.7777777777777779
 40
0.7777777777777779
 40
0.7777777777777779
 40
0.8888888888888891
 40
0.8888888888888891
 40
0.8888888888888891
 40
0.8888888888888891
 40
1.0
 40
1.0
 40
1.0
 40
1.0
 10
1.967271653543307
 20
1.831645669291339
 30
0.0
 10
1.959606299212598
 20
1.828283464566929
 30
0.0
 10
1.953551181102362
 20
1.823925196850394
 30
0.0
 10
1.949106299212599
 20
1.818535433070866
 30
0.0
 10
1.949106299212599
 20
1.818535433070866
 30
0.0
 10
1.945633858267717
 20
1.814311023622047
 30
0.0
 10
1.943909448818898
 20
1.809925196850394
 30
0.0
 10
1.943909448818898
 20
1.805370078740158
 30
0.0
 10
1.943909448818898
 20
1.805370078740158
 30
0.0
 10
1.943909448818898
 20
1.799173228346457
 30
0.0
 10
1.946633858267717
 20
1.793673228346457
 30
0.0
 10
1.952133858267717
 20
1.788870078740158
 30
0.0
 10
1.952133858267717
 20
1.788870078740158
 30
0.0
 10
1.957606299212598
 20
1.784090551181103
 30
0.0
 10
1.964688976377953
 20
1.781673228346457
 30
0.0
 10
1.973354330708661
 20
1.781673228346457
 30
0.0
 10
1.973354330708661
 20
1.781673228346457
 30
0.0
 10
1.982216535433071
 20
1.781673228346457
 30
0.0
 10
1.989578740157481
 20
1.784425196850394
 30
0.0
 10
1.995492125984252
 20
1.789897637795276
 30
0.0
 10
1.995492125984252
 20
1.789897637795276
 30
0.0
 10
2.000326771653544
 20
1.794342519685039
 30
0.0
 10
2.002744094488189
 20
1.799118110236221
 30
0.0
 10
2.002744094488189
 20
1.804228346456693
 30
0.0
 10
2.002744094488189
 20
1.804228346456693
 30
0.0
 10
2.002744094488189
 20
1.808228346456693
 30
0.0
 10
2.001161417322835
 20
1.812062992125984
 30
0.0
 10
1.997992125984252
 20
1.815728346456693
 30
0.0
 10
1.997992125984252
 20
1.815728346456693
 30
0.0
 10
1.994799212598425
 20
1.819397637795276
 30
0.0
 10
1.988909448818898
 20
1.822952755905512
 30
0.0
 10
1.980271653543307
 20
1.826425196850394
 30
0.0
 10
1.980271653543307
 20
1.826425196850394
 30
0.0
 10
1.980271653543307
 20
1.826425196850394
 30
0.0
 10
1.967271653543307
 20
1.831645669291339
 30
0.0
 10
1.967271653543307
 20
1.831645669291339
 30
0.0
  0
SPLINE
  5
3A
330
1F
100
AcDbEntity
  8
Layer 1
 62
   250
100
AcDbSpline
210
0.0
220
0.0
230
1.0
 70
    11
 71
     3
 72
   136
 73
   132
 74
     0
 42
0.0000000001
 43
0.0000000001
 40
0.0
 40
0.0
 40
0.0
 40
0.0
 40
0.0303030303030303
 40
0.0303030303030303
 40
0.0303030303030303
 40
0.0303030303030303
 40
0.0606060606060606
 40
0.0606060606060606
 40
0.0606060606060606
 40
0.0606060606060606
 40
0.0909090909090909
 40
0.0909090909090909
 40
0.0909090909090909
 40
0.0909090909090909
 40
0.1212121212121212
 40
0.1212121212121212
 40
0.1212121212121212
 40
0.1212121212121212
 40
0.1515151515151515
 40
0.1515151515151515
 40
0.1515151515151515
 40
0.1515151515151515
 40
0.1818181818181818
 40
0.1818181818181818
 40
0.1818181818181818
 40
0.1818181818181818
 40
0.2121212121212121
 40
0.2121212121212121
 40
0.2121212121212121
 40
0.2121212121212121
 40
0.2424242424242424
 40
0.2424242424242424
 40
0.2424242424242424
 40
0.2424242424242424
 40
0.2727272727272727
 40
0.2727272727272727
 40
0.2727272727272727
 40
0.2727272727272727
 40
0.303030303030303
 40
0.303030303030303
 40
0.303030303030303
 40
0.303030303030303
 40
0.3333333333333333
 40
0.3333333333333333
 40
0.3333333333333333
 40
0.3333333333333333
 40
0.3636363636363635
 40
0.3636363636363635
 40
0.3636363636363635
 40
0.3636363636363635
 40
0.3939393939393938
 40
0.3939393939393938
 40
0.3939393939393938
 40
0.3939393939393938
 40
0.4242424242424241
 40
0.4242424242424241
 40
0.4242424242424241
 40
0.4242424242424241
 40
0.4545454545454544
 40
0.4545454545454544
 40
0.4545454545454544
 40
0.4545454545454544
 40
0.4848484848484846
 40
0.4848484848484846
 40
0.4848484848484846
 40
0.4848484848484846
 40
0.5151515151515149
 40
0.5151515151515149
 40
0.5151515151515149
 40
0.5151515151515149
 40
0.5454545454545452
 40
0.5454545454545452
 40
0.5454545454545452
 40
0.5454545454545452
 40
0.5757575757575755
 40
0.5757575757575755
 40
0.5757575757575755
 40
0.5757575757575755
 40
0.6060606060606057
 40
0.6060606060606057
 40
0.6060606060606057
 40
0.6060606060606057
 40
0.636363636363636
 40
0.636363636363636
 40
0.636363636363636
 40
0.636363636363636
 40
0.6666666666666663
 40
0.6666666666666663
 40
0.6666666666666663
 40
0.6666666666666663
 40
0.6969696969696966
 40
0.6969696969696966
 40
0.6969696969696966
 40
0.6969696969696966
 40
0.7272727272727269
 40
0.7272727272727269
 40
0.7272727272727269
 40
0.7272727272727269
 40
0.7575757575757571
 40
0.7575757575757571
 40
0.7575757575757571
 40
0.7575757575757571
 40
0.7878787878787874
 40
0.7878787878787874
 40
0.7878787878787874
 40
0.7878787878787874
 40
0.8181818181818177
 40
0.8181818181818177
 40
0.8181818181818177
 40
0.8181818181818177
 40
0.848484848484848
 40
0.848484848484848
 40
0.848484848484848
 40
0.848484848484848
 40
0.8787878787878782
 40
0.8787878787878782
 40
0.8787878787878782
 40
0.8787878787878782
 40
0.9090909090909085
 40
0.9090909090909085
 40
0.9090909090909085
 40
0.9090909090909085
 40
0.9393939393939388
 40
0.9393939393939388
 40
0.9393939393939388
 40
0.9393939393939388
 40
0.9696969696969691
 40
0.9696969696969691
 40
0.9696969696969691
 40
0.9696969696969691
 40
1.0
 40
1.0
 40
1.0
 40
1.0
 10
1.208925196850394
 20
1.659283464566929
 30
0.0
 10
1.208925196850394
 20
1.659283464566929
 30
0.0
 10
1.201035433070866
 20
1.658311023622047
 30
0.0
 10
1.201035433070866
 20
1.658311023622047
 30
0.0
 10
1.201035433070866
 20
1.658311023622047
 30
0.0
 10
1.200590551181102
 20
1.662145669291339
 30
0.0
 10
1.200370078740157
 20
1.665311023622047
 30
0.0
 10
1.200370078740157
 20
1.667755905511811
 30
0.0
 10
1.200370078740157
 20
1.667755905511811
 30
0.0
 10
1.200370078740157
 20
1.674145669291339
 30
0.0
 10
1.202118110236221
 20
1.680200787401575
 30
0.0
 10
1.205590551181103
 20
1.685893700787402
 30
0.0
 10
1.205590551181103
 20
1.685893700787402
 30
0.0
 10
1.209062992125984
 20
1.691590551181103
 30
0.0
 10
1.213897637795276
 20
1.696035433070866
 30
0.0
 10
1.22011811023622
 20
1.699228346456693
 30
0.0
 10
1.22011811023622
 20
1.699228346456693
 30
0.0
 10
1.226311023622047
 20
1.702452755905512
 30
0.0
 10
1.233452755905512
 20
1.704035433070866
 30
0.0
 10
1.24148031496063
 20
1.704035433070866
 30
0.0
 10
1.24148031496063
 20
1.704035433070866
 30
0.0
 10
1.249228346456693
 20
1.704035433070866
 30
0.0
 10
1.256035433070866
 20
1.702535433070866
 30
0.0
 10
1.261897637795276
 20
1.699535433070866
 30
0.0
 10
1.261897637795276
 20
1.699535433070866
 30
0.0
 10
1.267755905511811
 20
1.696507874015748
 30
0.0
 10
1.272228346456693
 20
1.692393700787402
 30
0.0
 10
1.275366141732284
 20
1.687145669291339
 30
0.0
 10
1.275366141732284
 20
1.687145669291339
 30
0.0
 10
1.27848031496063
 20
1.681925196850394
 30
0.0
 10
1.280035433070866
 20
1.675952755905512
 30
0.0
 10
1.280035433070866
 20
1.669200787401575
 30
0.0
 10
1.280035433070866
 20
1.669200787401575
 30
0.0
 10
1.280035433070866
 20
1.663507874015748
 30
0.0
 10
1.279035433070866
 20
1.658228346456693
 30
0.0
 10
1.27698031496063
 20
1.653397637795276
 30
0.0
 10
1.27698031496063
 20
1.653397637795276
 30
0.0
 10
1.274952755905512
 20
1.648535433070866
 30
0.0
 10
1.271673228346457
 20
1.643618110236221
 30
0.0
 10
1.267173228346457
 20
1.638700787401575
 30
0.0
 10
1.267173228346457
 20
1.638700787401575
 30
0.0
 10
1.263811023622047
 20
1.635007874015748
 30
0.0
 10
1.257007874015748
 20
1.629370078740158
 30
0.0
 10
1.246755905511811
 20
1.621755905511811
 30
0.0
 10
1.246755905511811
 20
1.621755905511811
 30
0.0
 10
1.233842519685039
 20
1.612118110236221
 30
0.0
 10
1.223952755905512
 20
1.605118110236221
 30
0.0
 10
1.217062992125984
 20
1.600755905511811
 30
0.0
 10
1.217062992125984
 20
1.600755905511811
 30
0.0
 10
1.217062992125984
 20
1.600755905511811
 30
0.0
 10
1.259370078740158
 20
1.600755905511811
 30
0.0
 10
1.259370078740158
 20
1.600755905511811
 30
0.0
 10
1.259370078740158
 20
1.600755905511811
 30
0.0
 10
1.264370078740158
 20
1.600755905511811
 30
0.0
 10
1.267618110236221
 20
1.601228346456693
 30
0.0
 10
1.269145669291339
 20
1.602145669291339
 30
0.0
 10
1.269145669291339
 20
1.602145669291339
 30
0.0
 10
1.271255905511811
 20
1.60334251968504
 30
0.0
 10
1.272700787401575
 20
1.606118110236221
 30
0.0
 10
1.273452755905512
 20
1.610452755905512
 30
0.0
 10
1.273452755905512
 20
1.610452755905512
 30
0.0
 10
1.273452755905512
 20
1.610452755905512
 30
0.0
 10
1.274173228346457
 20
1.615090551181103
 30
0.0
 10
1.274173228346457
 20
1.615090551181103
 30
0.0
 10
1.274173228346457
 20
1.615090551181103
 30
0.0
 10
1.274173228346457
 20
1.615090551181103
 30
0.0
 10
1.281090551181102
 20
1.615090551181103
 30
0.0
 10
1.281090551181102
 20
1.615090551181103
 30
0.0
 10
1.281090551181102
 20
1.615090551181103
 30
0.0
 10
1.281090551181102
 20
1.615090551181103
 30
0.0
 10
1.275562992125984
 20
1.584507874015748
 30
0.0
 10
1.275562992125984
 20
1.584507874015748
 30
0.0
 10
1.275562992125984
 20
1.584507874015748
 30
0.0
 10
1.275562992125984
 20
1.584507874015748
 30
0.0
 10
1.270370078740158
 20
1.584507874015748
 30
0.0
 10
1.270370078740158
 20
1.584507874015748
 30
0.0
 10
1.270370078740158
 20
1.584507874015748
 30
0.0
 10
1.270370078740158
 20
1.584507874015748
 30
0.0
 10
1.269452755905512
 20
1.588562992125984
 30
0.0
 10
1.269452755905512
 20
1.588562992125984
 30
0.0
 10
1.269452755905512
 20
1.588562992125984
 30
0.0
 10
1.269452755905512
 20
1.588562992125984
 30
0.0
 10
1.19834251968504
 20
1.588562992125984
 30
0.0
 10
1.19834251968504
 20
1.588562992125984
 30
0.0
 10
1.19834251968504
 20
1.588562992125984
 30
0.0
 10
1.19834251968504
 20
1.588562992125984
 30
0.0
 10
1.19834251968504
 20
1.595397637795276
 30
0.0
 10
1.19834251968504
 20
1.595397637795276
 30
0.0
 10
1.19834251968504
 20
1.595397637795276
 30
0.0
 10
1.19834251968504
 20
1.595397637795276
 30
0.0
 10
1.211370078740158
 20
1.605255905511811
 30
0.0
 10
1.211370078740158
 20
1.605255905511811
 30
0.0
 10
1.211370078740158
 20
1.605255905511811
 30
0.0
 10
1.221228346456693
 20
1.612562992125984
 30
0.0
 10
1.22848031496063
 20
1.618173228346457
 30
0.0
 10
1.233090551181102
 20
1.622090551181102
 30
0.0
 10
1.233090551181102
 20
1.622090551181102
 30
0.0
 10
1.241811023622047
 20
1.62948031496063
 30
0.0
 10
1.248397637795276
 20
1.635783464566929
 30
0.0
 10
1.252811023622047
 20
1.641007874015748
 30
0.0
 10
1.252811023622047
 20
1.641007874015748
 30
0.0
 10
1.257228346456693
 20
1.646255905511811
 30
0.0
 10
1.260283464566929
 20
1.65098031496063
 30
0.0
 10
1.261925196850394
 20
1.655173228346457
 30
0.0
 10
1.261925196850394
 20
1.655173228346457
 30
0.0
 10
1.263590551181102
 20
1.659366141732284
 30
0.0
 10
1.264425196850394
 20
1.663783464566929
 30
0.0
 10
1.264425196850394
 20
1.668397637795276
 30
0.0
 10
1.264425196850394
 20
1.668397637795276
 30
0.0
 10
1.264425196850394
 20
1.676035433070866
 30
0.0
 10
1.261952755905512
 20
1.682311023622047
 30
0.0
 10
1.257062992125984
 20
1.687200787401575
 30
0.0
 10
1.257062992125984
 20
1.687200787401575
 30
0.0
 10
1.252145669291339
 20
1.692090551181102
 30
0.0
 10
1.245755905511811
 20
1.694507874015748
 30
0.0
 10
1.237897637795276
 20
1.694507874015748
 30
0.0
 10
1.237897637795276
 20
1.694507874015748
 30
0.0
 10
1.232255905511811
 20
1.694507874015748
 30
0.0
 10
1.227200787401575
 20
1.693311023622047
 30
0.0
 10
1.222783464566929
 20
1.690866141732283
 30
0.0
 10
1.222783464566929
 20
1.690866141732283
 30
0.0
 10
1.218370078740158
 20
1.688425196850394
 30
0.0
 10
1.214897637795276
 20
1.685007874015748
 30
0.0
 10
1.21234251968504
 20
1.680590551181102
 30
0.0
 10
1.21234251968504
 20
1.680590551181102
 30
0.0
 10
1.209783464566929
 20
1.676200787401575
 30
0.0
 10
1.208507874015748
 20
1.671452755905512
 30
0.0
 10
1.208507874015748
 20
1.666366141732284
 30
0.0
 10
1.208507874015748
 20
1.666366141732284
 30
0.0
 10
1.208507874015748
 20
1.664452755905512
 30
0.0
 10
1.208645669291339
 20
1.662090551181102
 30
0.0
 10
1.208925196850394
 20
1.659283464566929
 30
0.0
  0
SPLINE
  5
3B
330
1F
100
AcDbEntity
  8
Layer 1
 62
   250
100
AcDbSpline
210
0.0
220
0.0
230
1.0
 70
    11
 71
     3
 72
    60
 73
    56
 74
     0
 42
0.0000000001
 43
0.0000000001
 40
0.0
 40
0.0
 40
0.0
 40
0.0
 40
0.0714285714285714
 40
0.0714285714285714
 40
0.0714285714285714
 40
0.0714285714285714
 40
0.1428571428571429
 40
0.1428571428571429
 40
0.1428571428571429
 40
0.1428571428571429
 40
0.2142857142857143
 40
0.2142857142857143
 40
0.2142857142857143
 40
0.2142857142857143
 40
0.2857142857142857
 40
0.2857142857142857
 40
0.2857142857142857
 40
0.2857142857142857
 40
0.3571428571428571
 40
0.3571428571428571
 40
0.3571428571428571
 40
0.3571428571428571
 40
0.4285714285714285
 40
0.4285714285714285
 40
0.4285714285714285
 40
0.4285714285714285
 40
0.4999999999999999
 40
0.4999999999999999
 40
0.4999999999999999
 40
0.4999999999999999
 40
0.5714285714285713
 40
0.5714285714285713
 40
0.5714285714285713
 40
0.5714285714285713
 40
0.6428571428571427
 40
0.6428571428571427
 40
0.6428571428571427
 40
0.6428571428571427
 40
0.7142857142857141
 40
0.7142857142857141
 40
0.7142857142857141
 40
0.7142857142857141
 40
0.7857142857142855
 40
0.7857142857142855
 40
0.7857142857142855
 40
0.7857142857142855
 40
0.8571428571428569
 40
0.8571428571428569
 40
0.8571428571428569
 40
0.8571428571428569
 40
0.9285714285714283
 40
0.9285714285714283
 40
0.9285714285714283
 40
0.9285714285714283
 40
1.0
 40
1.0
 40
1.0
 40
1.0
 10
1.30348031496063
 20
1.660007874015748
 30
0.0
 10
1.30348031496063
 20
1.660007874015748
 30
0.0
 10
1.299090551181102
 20
1.665397637795276
 30
0.0
 10
1.299090551181102
 20
1.665397637795276
 30
0.0
 10
1.299090551181102
 20
1.665397637795276
 30
0.0
 10
1.310204724409449
 20
1.674452755905512
 30
0.0
 10
1.315787401574803
 20
1.682007874015748
 30
0.0
 10
1.315787401574803
 20
1.688090551181102
 30
0.0
 10
1.315787401574803
 20
1.688090551181102
 30
0.0
 10
1.315787401574803
 20
1.688783464566929
 30
0.0
 10
1.315732283464567
 20
1.689673228346457
 30
0.0
 10
1.315618110236221
 20
1.690700787401575
 30
0.0
 10
1.315618110236221
 20
1.690700787401575
 30
0.0
 10
1.314704724409449
 20
1.690311023622047
 30
0.0
 10
1.313787401574803
 20
1.690007874015748
 30
0.0
 10
1.312925196850394
 20
1.689811023622047
 30
0.0
 10
1.312925196850394
 20
1.689811023622047
 30
0.0
 10
1.312062992125984
 20
1.689590551181103
 30
0.0
 10
1.311259842519685
 20
1.68948031496063
 30
0.0
 10
1.31048031496063
 20
1.68948031496063
 30
0.0
 10
1.31048031496063
 20
1.68948031496063
 30
0.0
 10
1.307870078740158
 20
1.68948031496063
 30
0.0
 10
1.305787401574803
 20
1.690311023622047
 30
0.0
 10
1.304232283464567
 20
1.692007874015748
 30
0.0
 10
1.304232283464567
 20
1.692007874015748
 30
0.0
 10
1.302645669291339
 20
1.693673228346457
 30
0.0
 10
1.301870078740158
 20
1.695811023622047
 30
0.0
 10
1.301870078740158
 20
1.698425196850394
 30
0.0
 10
1.301870078740158
 20
1.698425196850394
 30
0.0
 10
1.301870078740158
 20
1.70098031496063
 30
0.0
 10
1.302814960629921
 20
1.703200787401575
 30
0.0
 10
1.304704724409449
 20
1.705090551181103
 30
0.0
 10
1.304704724409449
 20
1.705090551181103
 30
0.0
 10
1.30661811023622
 20
1.707007874015748
 30
0.0
 10
1.308897637795276
 20
1.707952755905512
 30
0.0
 10
1.311535433070866
 20
1.707952755905512
 30
0.0
 10
1.311535433070866
 20
1.707952755905512
 30
0.0
 10
1.315232283464567
 20
1.707952755905512
 30
0.0
 10
1.318397637795276
 20
1.70648031496063
 30
0.0
 10
1.321035433070866
 20
1.703507874015748
 30
0.0
 10
1.321035433070866
 20
1.703507874015748
 30
0.0
 10
1.323645669291339
 20
1.700562992125984
 30
0.0
 10
1.32498031496063
 20
1.696755905511811
 30
0.0
 10
1.32498031496063
 20
1.692090551181102
 30
0.0
 10
1.32498031496063
 20
1.692090551181102
 30
0.0
 10
1.32498031496063
 20
1.689035433070866
 30
0.0
 10
1.324342519685039
 20
1.685838582677165
 30
0.0
 10
1.323090551181102
 20
1.682507874015748
 30
0.0
 10
1.323090551181102
 20
1.682507874015748
 30
0.0
 10
1.321842519685039
 20
1.679173228346457
 30
0.0
 10
1.320035433070866
 20
1.676090551181102
 30
0.0
 10
1.317645669291339
 20
1.673228346456693
 30
0.0
 10
1.317645669291339
 20
1.673228346456693
 30
0.0
 10
1.315259842519685
 20
1.670397637795276
 30
0.0
 10
1.310535433070866
 20
1.66598031496063
 30
0.0
 10
1.30348031496063
 20
1.660007874015748
 30
0.0
  0
SPLINE
  5
3C
330
1F
100
AcDbEntity
  8
Layer 1
 62
   250
100
AcDbSpline
210
0.0
220
0.0
230
1.0
 70
    11
 71
     3
 72
    60
 73
    56
 74
     0
 42
0.0000000001
 43
0.0000000001
 40
0.0
 40
0.0
 40
0.0
 40
0.0
 40
0.0714285714285714
 40
0.0714285714285714
 40
0.0714285714285714
 40
0.0714285714285714
 40
0.1428571428571429
 40
0.1428571428571429
 40
0.1428571428571429
 40
0.1428571428571429
 40
0.2142857142857143
 40
0.2142857142857143
 40
0.2142857142857143
 40
0.2142857142857143
 40
0.2857142857142857
 40
0.2857142857142857
 40
0.2857142857142857
 40
0.2857142857142857
 40
0.3571428571428571
 40
0.3571428571428571
 40
0.3571428571428571
 40
0.3571428571428571
 40
0.4285714285714285
 40
0.4285714285714285
 40
0.4285714285714285
 40
0.4285714285714285
 40
0.4999999999999999
 40
0.4999999999999999
 40
0.4999999999999999
 40
0.4999999999999999
 40
0.5714285714285713
 40
0.5714285714285713
 40
0.5714285714285713
 40
0.5714285714285713
 40
0.6428571428571427
 40
0.6428571428571427
 40
0.6428571428571427
 40
0.6428571428571427
 40
0.7142857142857141
 40
0.7142857142857141
 40
0.7142857142857141
 40
0.7142857142857141
 40
0.7857142857142855
 40
0.7857142857142855
 40
0.7857142857142855
 40
0.7857142857142855
 40
0.8571428571428569
 40
0.8571428571428569
 40
0.8571428571428569
 40
0.8571428571428569
 40
0.9285714285714283
 40
0.9285714285714283
 40
0.9285714285714283
 40
0.9285714285714283
 40
1.0
 40
1.0
 40
1.0
 40
1.0
 10
1.332535433070866
 20
1.660007874015748
 30
0.0
 10
1.332535433070866
 20
1.660007874015748
 30
0.0
 10
1.328145669291339
 20
1.665397637795276
 30
0.0
 10
1.328145669291339
 20
1.665397637795276
 30
0.0
 10
1.328145669291339
 20
1.665397637795276
 30
0.0
 10
1.339259842519685
 20
1.674452755905512
 30
0.0
 10
1.344842519685039
 20
1.682007874015748
 30
0.0
 10
1.344842519685039
 20
1.688090551181102
 30
0.0
 10
1.344842519685039
 20
1.688090551181102
 30
0.0
 10
1.344842519685039
 20
1.688783464566929
 30
0.0
 10
1.344787401574803
 20
1.689673228346457
 30
0.0
 10
1.344673228346457
 20
1.690700787401575
 30
0.0
 10
1.344673228346457
 20
1.690700787401575
 30
0.0
 10
1.343759842519685
 20
1.690311023622047
 30
0.0
 10
1.342842519685039
 20
1.690007874015748
 30
0.0
 10
1.34198031496063
 20
1.689811023622047
 30
0.0
 10
1.34198031496063
 20
1.689811023622047
 30
0.0
 10
1.341118110236221
 20
1.689590551181103
 30
0.0
 10
1.340287401574803
 20
1.68948031496063
 30
0.0
 10
1.339452755905512
 20
1.68948031496063
 30
0.0
 10
1.339452755905512
 20
1.68948031496063
 30
0.0
 10
1.336897637795276
 20
1.68948031496063
 30
0.0
 10
1.33484251968504
 20
1.690311023622047
 30
0.0
 10
1.333287401574803
 20
1.692007874015748
 30
0.0
 10
1.333287401574803
 20
1.692007874015748
 30
0.0
 10
1.331704724409449
 20
1.693673228346457
 30
0.0
 10
1.330925196850394
 20
1.695811023622047
 30
0.0
 10
1.330925196850394
 20
1.698425196850394
 30
0.0
 10
1.330925196850394
 20
1.698425196850394
 30
0.0
 10
1.330925196850394
 20
1.70098031496063
 30
0.0
 10
1.331870078740158
 20
1.703200787401575
 30
0.0
 10
1.333759842519685
 20
1.705090551181103
 30
0.0
 10
1.333759842519685
 20
1.705090551181103
 30
0.0
 10
1.335645669291339
 20
1.707007874015748
 30
0.0
 10
1.337952755905512
 20
1.707952755905512
 30
0.0
 10
1.340590551181103
 20
1.707952755905512
 30
0.0
 10
1.340590551181103
 20
1.707952755905512
 30
0.0
 10
1.344287401574803
 20
1.707952755905512
 30
0.0
 10
1.347452755905512
 20
1.70648031496063
 30
0.0
 10
1.350090551181102
 20
1.703507874015748
 30
0.0
 10
1.350090551181102
 20
1.703507874015748
 30
0.0
 10
1.352700787401575
 20
1.700562992125984
 30
0.0
 10
1.354035433070866
 20
1.696755905511811
 30
0.0
 10
1.354035433070866
 20
1.692090551181102
 30
0.0
 10
1.354035433070866
 20
1.692090551181102
 30
0.0
 10
1.354035433070866
 20
1.689035433070866
 30
0.0
 10
1.353397637795276
 20
1.685838582677165
 30
0.0
 10
1.352145669291339
 20
1.682507874015748
 30
0.0
 10
1.352145669291339
 20
1.682507874015748
 30
0.0
 10
1.350897637795276
 20
1.679173228346457
 30
0.0
 10
1.349090551181102
 20
1.676090551181102
 30
0.0
 10
1.346704724409449
 20
1.673228346456693
 30
0.0
 10
1.346704724409449
 20
1.673228346456693
 30
0.0
 10
1.344314960629921
 20
1.670397637795276
 30
0.0
 10
1.339590551181102
 20
1.66598031496063
 30
0.0
 10
1.332535433070866
 20
1.660007874015748
 30
0.0
  0
SPLINE
  5
3D
330
1F
100
AcDbEntity
  8
Layer 1
 62
   250
100
AcDbSpline
210
0.0
220
0.0
230
1.0
 70
    11
 71
     3
 72
   204
 73
   200
 74
     0
 42
0.0000000001
 43
0.0000000001
 40
0.0
 40
0.0
 40
0.0
 40
0.0
 40
0.02
 40
0.02
 40
0.02
 40
0.02
 40
0.04
 40
0.04
 40
0.04
 40
0.04
 40
0.06
 40
0.06
 40
0.06
 40
0.06
 40
0.08
 40
0.08
 40
0.08
 40
0.08
 40
0.1
 40
0.1
 40
0.1
 40
0.1
 40
0.12
 40
0.12
 40
0.12
 40
0.12
 40
0.14
 40
0.14
 40
0.14
 40
0.14
 40
0.16
 40
0.16
 40
0.16
 40
0.16
 40
0.18
 40
0.18
 40
0.18
 40
0.18
 40
0.2
 40
0.2
 40
0.2
 40
0.2
 40
0.22
 40
0.22
 40
0.22
 40
0.22
 40
0.24
 40
0.24
 40
0.24
 40
0.24
 40
0.26
 40
0.26
 40
0.26
 40
0.26
 40
0.28
 40
0.28
 40
0.28
 40
0.28
 40
0.3
 40
0.3
 40
0.3
 40
0.3
 40
0.32
 40
0.32
 40
0.32
 40
0.32
 40
0.34
 40
0.34
 40
0.34
 40
0.34
 40
0.36
 40
0.36
 40
0.36
 40
0.36
 40
0.3800000000000001
 40
0.3800000000000001
 40
0.3800000000000001
 40
0.3800000000000001
 40
0.4000000000000001
 40
0.4000000000000001
 40
0.4000000000000001
 40
0.4000000000000001
 40
0.4200000000000001
 40
0.4200000000000001
 40
0.4200000000000001
 40
0.4200000000000001
 40
0.4400000000000001
 40
0.4400000000000001
 40
0.4400000000000001
 40
0.4400000000000001
 40
0.4600000000000001
 40
0.4600000000000001
 40
0.4600000000000001
 40
0.4600000000000001
 40
0.4800000000000002
 40
0.4800000000000002
 40
0.4800000000000002
 40
0.4800000000000002
 40
0.5000000000000001
 40
0.5000000000000001
 40
0.5000000000000001
 40
0.5000000000000001
 40
0.5200000000000001
 40
0.5200000000000001
 40
0.5200000000000001
 40
0.5200000000000001
 40
0.5400000000000002
 40
0.5400000000000002
 40
0.5400000000000002
 40
0.5400000000000002
 40
0.5600000000000002
 40
0.5600000000000002
 40
0.5600000000000002
 40
0.5600000000000002
 40
0.5800000000000002
 40
0.5800000000000002
 40
0.5800000000000002
 40
0.5800000000000002
 40
0.6000000000000002
 40
0.6000000000000002
 40
0.6000000000000002
 40
0.6000000000000002
 40
0.6200000000000002
 40
0.6200000000000002
 40
0.6200000000000002
 40
0.6200000000000002
 40
0.6400000000000002
 40
0.6400000000000002
 40
0.6400000000000002
 40
0.6400000000000002
 40
0.6600000000000003
 40
0.6600000000000003
 40
0.6600000000000003
 40
0.6600000000000003
 40
0.6800000000000003
 40
0.6800000000000003
 40
0.6800000000000003
 40
0.6800000000000003
 40
0.7000000000000003
 40
0.7000000000000003
 40
0.7000000000000003
 40
0.7000000000000003
 40
0.7200000000000003
 40
0.7200000000000003
 40
0.7200000000000003
 40
0.7200000000000003
 40
0.7400000000000003
 40
0.7400000000000003
 40
0.7400000000000003
 40
0.7400000000000003
 40
0.7600000000000003
 40
0.7600000000000003
 40
0.7600000000000003
 40
0.7600000000000003
 40
0.7800000000000004
 40
0.7800000000000004
 40
0.7800000000000004
 40
0.7800000000000004
 40
0.8000000000000004
 40
0.8000000000000004
 40
0.8000000000000004
 40
0.8000000000000004
 40
0.8200000000000004
 40
0.8200000000000004
 40
0.8200000000000004
 40
0.8200000000000004
 40
0.8400000000000004
 40
0.8400000000000004
 40
0.8400000000000004
 40
0.8400000000000004
 40
0.8600000000000004
 40
0.8600000000000004
 40
0.8600000000000004
 40
0.8600000000000004
 40
0.8800000000000005
 40
0.8800000000000005
 40
0.8800000000000005
 40
0.8800000000000005
 40
0.9000000000000005
 40
0.9000000000000005
 40
0.9000000000000005
 40
0.9000000000000005
 40
0.9200000000000005
 40
0.9200000000000005
 40
0.9200000000000005
 40
0.9200000000000005
 40
0.9400000000000005
 40
0.9400000000000005
 40
0.9400000000000005
 40
0.9400000000000005
 40
0.9600000000000005
 40
0.9600000000000005
 40
0.9600000000000005
 40
0.9600000000000005
 40
0.9800000000000005
 40
0.9800000000000005
 40
0.9800000000000005
 40
0.9800000000000005
 40
1.0
 40
1.0
 40
1.0
 40
1.0
 10
1.416342519685039
 20
1.667090551181103
 30
0.0
 10
1.416342519685039
 20
1.667090551181103
 30
0.0
 10
1.457287401574803
 20
1.667090551181103
 30
0.0
 10
1.457287401574803
 20
1.667090551181103
 30
0.0
 10
1.457287401574803
 20
1.667090551181103
 30
0.0
 10
1.457287401574803
 20
1.667090551181103
 30
0.0
 10
1.457287401574803
 20
1.660255905511811
 30
0.0
 10
1.457287401574803
 20
1.660255905511811
 30
0.0
 10
1.457287401574803
 20
1.660255905511811
 30
0.0
 10
1.457287401574803
 20
1.660255905511811
 30
0.0
 10
1.454452755905512
 20
1.660255905511811
 30
0.0
 10
1.454452755905512
 20
1.660255905511811
 30
0.0
 10
1.454452755905512
 20
1.660255905511811
 30
0.0
 10
1.452814960629921
 20
1.660255905511811
 30
0.0
 10
1.451314960629921
 20
1.660062992125984
 30
0.0
 10
1.449952755905512
 20
1.659700787401575
 30
0.0
 10
1.449952755905512
 20
1.659700787401575
 30
0.0
 10
1.449149606299213
 20
1.65948031496063
 30
0.0
 10
1.44848031496063
 20
1.659062992125984
 30
0.0
 10
1.44798031496063
 20
1.658425196850394
 30
0.0
 10
1.44798031496063
 20
1.658425196850394
 30
0.0
 10
1.447452755905512
 20
1.657811023622047
 30
0.0
 10
1.447204724409449
 20
1.657228346456693
 30
0.0
 10
1.447204724409449
 20
1.656673228346457
 30
0.0
 10
1.447204724409449
 20
1.656673228346457
 30
0.0
 10
1.447204724409449
 20
1.655425196850394
 30
0.0
 10
1.448232283464567
 20
1.653562992125984
 30
0.0
 10
1.450287401574803
 20
1.651062992125984
 30
0.0
 10
1.450287401574803
 20
1.651062992125984
 30
0.0
 10
1.450287401574803
 20
1.651062992125984
 30
0.0
 10
1.461925196850394
 20
1.636425196850394
 30
0.0
 10
1.461925196850394
 20
1.636425196850394
 30
0.0
 10
1.461925196850394
 20
1.636425196850394
 30
0.0
 10
1.461925196850394
 20
1.636425196850394
 30
0.0
 10
1.475507874015748
 20
1.651062992125984
 30
0.0
 10
1.475507874015748
 20
1.651062992125984
 30
0.0
 10
1.475507874015748
 20
1.651062992125984
 30
0.0
 10
1.478007874015748
 20
1.653783464566929
 30
0.0
 10
1.479259842519685
 20
1.655811023622047
 30
0.0
 10
1.479259842519685
 20
1.657173228346457
 30
0.0
 10
1.479259842519685
 20
1.657173228346457
 30
0.0
 10
1.479259842519685
 20
1.658145669291339
 30
0.0
 10
1.478814960629921
 20
1.658897637795276
 30
0.0
 10
1.477952755905512
 20
1.659452755905512
 30
0.0
 10
1.477952755905512
 20
1.659452755905512
 30
0.0
 10
1.477090551181102
 20
1.65998031496063
 30
0.0
 10
1.475232283464567
 20
1.660255905511811
 30
0.0
 10
1.47234251968504
 20
1.660255905511811
 30
0.0
 10
1.47234251968504
 20
1.660255905511811
 30
0.0
 10
1.47234251968504
 20
1.660255905511811
 30
0.0
 10
1.469259842519685
 20
1.660255905511811
 30
0.0
 10
1.469259842519685
 20
1.660255905511811
 30
0.0
 10
1.469259842519685
 20
1.660255905511811
 30
0.0
 10
1.469259842519685
 20
1.660255905511811
 30
0.0
 10
1.469259842519685
 20
1.667090551181103
 30
0.0
 10
1.469259842519685
 20
1.667090551181103
 30
0.0
 10
1.469259842519685
 20
1.667090551181103
 30
0.0
 10
1.469259842519685
 20
1.667090551181103
 30
0.0
 10
1.504007874015748
 20
1.667090551181103
 30
0.0
 10
1.504007874015748
 20
1.667090551181103
 30
0.0
 10
1.504007874015748
 20
1.667090551181103
 30
0.0
 10
1.504007874015748
 20
1.667090551181103
 30
0.0
 10
1.504007874015748
 20
1.660255905511811
 30
0.0
 10
1.504007874015748
 20
1.660255905511811
 30
0.0
 10
1.504007874015748
 20
1.660255905511811
 30
0.0
 10
1.500590551181102
 20
1.660090551181102
 30
0.0
 10
1.497645669291339
 20
1.659397637795276
 30
0.0
 10
1.495177165354331
 20
1.658145669291339
 30
0.0
 10
1.495177165354331
 20
1.658145669291339
 30
0.0
 10
1.492704724409449
 20
1.656897637795276
 30
0.0
 10
1.489787401574803
 20
1.654535433070866
 30
0.0
 10
1.486425196850394
 20
1.651062992125984
 30
0.0
 10
1.486425196850394
 20
1.651062992125984
 30
0.0
 10
1.486425196850394
 20
1.651062992125984
 30
0.0
 10
1.467787401574803
 20
1.631700787401575
 30
0.0
 10
1.467787401574803
 20
1.631700787401575
 30
0.0
 10
1.467787401574803
 20
1.631700787401575
 30
0.0
 10
1.467787401574803
 20
1.631700787401575
 30
0.0
 10
1.49098031496063
 20
1.605255905511811
 30
0.0
 10
1.49098031496063
 20
1.605255905511811
 30
0.0
 10
1.49098031496063
 20
1.605255905511811
 30
0.0
 10
1.49098031496063
 20
1.605255905511811
 30
0.0
 10
1.491870078740158
 20
1.604118110236221
 30
0.0
 10
1.491870078740158
 20
1.604118110236221
 30
0.0
 10
1.491870078740158
 20
1.604118110236221
 30
0.0
 10
1.494145669291339
 20
1.601173228346457
 30
0.0
 10
1.496704724409449
 20
1.598811023622047
 30
0.0
 10
1.499535433070866
 20
1.597035433070866
 30
0.0
 10
1.499535433070866
 20
1.597035433070866
 30
0.0
 10
1.501090551181102
 20
1.596007874015748
 30
0.0
 10
1.503535433070866
 20
1.595452755905512
 30
0.0
 10
1.50684251968504
 20
1.595397637795276
 30
0.0
 10
1.50684251968504
 20
1.595397637795276
 30
0.0
 10
1.50684251968504
 20
1.595397637795276
 30
0.0
 10
1.50684251968504
 20
1.588562992125984
 30
0.0
 10
1.50684251968504
 20
1.588562992125984
 30
0.0
 10
1.50684251968504
 20
1.588562992125984
 30
0.0
 10
1.50684251968504
 20
1.588562992125984
 30
0.0
 10
1.466897637795276
 20
1.588562992125984
 30
0.0
 10
1.466897637795276
 20
1.588562992125984
 30
0.0
 10
1.466897637795276
 20
1.588562992125984
 30
0.0
 10
1.466897637795276
 20
1.588562992125984
 30
0.0
 10
1.466897637795276
 20
1.595397637795276
 30
0.0
 10
1.466897637795276
 20
1.595397637795276
 30
0.0
 10
1.466897637795276
 20
1.595397637795276
 30
0.0
 10
1.466897637795276
 20
1.595397637795276
 30
0.0
 10
1.470314960629921
 20
1.595397637795276
 30
0.0
 10
1.470314960629921
 20
1.595397637795276
 30
0.0
 10
1.470314960629921
 20
1.595397637795276
 30
0.0
 10
1.472925196850394
 20
1.595397637795276
 30
0.0
 10
1.474562992125984
 20
1.595562992125984
 30
0.0
 10
1.475287401574803
 20
1.595897637795276
 30
0.0
 10
1.475287401574803
 20
1.595897637795276
 30
0.0
 10
1.476452755905512
 20
1.596425196850394
 30
0.0
 10
1.477062992125984
 20
1.59734251968504
 30
0.0
 10
1.477062992125984
 20
1.598645669291339
 30
0.0
 10
1.477062992125984
 20
1.598645669291339
 30
0.0
 10
1.477062992125984
 20
1.599842519685039
 30
0.0
 10
1.475759842519685
 20
1.602035433070866
 30
0.0
 10
1.473145669291339
 20
1.605255905511811
 30
0.0
 10
1.473145669291339
 20
1.605255905511811
 30
0.0
 10
1.473145669291339
 20
1.605255905511811
 30
0.0
 10
1.45834251968504
 20
1.623397637795276
 30
0.0
 10
1.45834251968504
 20
1.623397637795276
 30
0.0
 10
1.45834251968504
 20
1.623397637795276
 30
0.0
 10
1.45834251968504
 20
1.623397637795276
 30
0.0
 10
1.441814960629921
 20
1.605255905511811
 30
0.0
 10
1.441814960629921
 20
1.605255905511811
 30
0.0
 10
1.441814960629921
 20
1.605255905511811
 30
0.0
 10
1.441814960629921
 20
1.605255905511811
 30
0.0
 10
1.440204724409449
 20
1.603283464566929
 30
0.0
 10
1.440204724409449
 20
1.603283464566929
 30
0.0
 10
1.440204724409449
 20
1.603283464566929
 30
0.0
 10
1.440204724409449
 20
1.603283464566929
 30
0.0
 10
1.439314960629921
 20
1.602311023622047
 30
0.0
 10
1.439314960629921
 20
1.602311023622047
 30
0.0
 10
1.439314960629921
 20
1.602311023622047
 30
0.0
 10
1.437952755905512
 20
1.600842519685039
 30
0.0
 10
1.437259842519685
 20
1.599562992125984
 30
0.0
 10
1.437259842519685
 20
1.598425196850394
 30
0.0
 10
1.437259842519685
 20
1.598425196850394
 30
0.0
 10
1.437259842519685
 20
1.597370078740158
 30
0.0
 10
1.437677165354331
 20
1.596618110236221
 30
0.0
 10
1.438535433070866
 20
1.596118110236221
 30
0.0
 10
1.438535433070866
 20
1.596118110236221
 30
0.0
 10
1.439370078740158
 20
1.595645669291339
 30
0.0
 10
1.441259842519685
 20
1.595397637795276
 30
0.0
 10
1.444177165354331
 20
1.595397637795276
 30
0.0
 10
1.444177165354331
 20
1.595397637795276
 30
0.0
 10
1.444177165354331
 20
1.595397637795276
 30
0.0
 10
1.447452755905512
 20
1.595397637795276
 30
0.0
 10
1.447452755905512
 20
1.595397637795276
 30
0.0
 10
1.447452755905512
 20
1.595397637795276
 30
0.0
 10
1.447452755905512
 20
1.595397637795276
 30
0.0
 10
1.447452755905512
 20
1.588562992125984
 30
0.0
 10
1.447452755905512
 20
1.588562992125984
 30
0.0
 10
1.447452755905512
 20
1.588562992125984
 30
0.0
 10
1.447452755905512
 20
1.588562992125984
 30
0.0
 10
1.413177165354331
 20
1.588562992125984
 30
0.0
 10
1.413177165354331
 20
1.588562992125984
 30
0.0
 10
1.413177165354331
 20
1.588562992125984
 30
0.0
 10
1.413177165354331
 20
1.588562992125984
 30
0.0
 10
1.413177165354331
 20
1.595397637795276
 30
0.0
 10
1.413177165354331
 20
1.595397637795276
 30
0.0
 10
1.413177165354331
 20
1.595397637795276
 30
0.0
 10
1.41584251968504
 20
1.595452755905512
 30
0.0
 10
1.417925196850394
 20
1.595728346456693
 30
0.0
 10
1.419452755905512
 20
1.596255905511811
 30
0.0
 10
1.419452755905512
 20
1.596255905511811
 30
0.0
 10
1.420952755905512
 20
1.596755905511811
 30
0.0
 10
1.422425196850394
 20
1.597562992125984
 30
0.0
 10
1.42384251968504
 20
1.598645669291339
 30
0.0
 10
1.42384251968504
 20
1.598645669291339
 30
0.0
 10
1.426287401574803
 20
1.600618110236221
 30
0.0
 10
1.428035433070866
 20
1.602145669291339
 30
0.0
 10
1.429122047244095
 20
1.603283464566929
 30
0.0
 10
1.429122047244095
 20
1.603283464566929
 30
0.0
 10
1.429122047244095
 20
1.603283464566929
 30
0.0
 10
1.45298031496063
 20
1.627783464566929
 30
0.0
 10
1.45298031496063
 20
1.627783464566929
 30
0.0
 10
1.45298031496063
 20
1.627783464566929
 30
0.0
 10
1.45298031496063
 20
1.627783464566929
 30
0.0
 10
1.432704724409449
 20
1.651062992125984
 30
0.0
 10
1.432704724409449
 20
1.651062992125984
 30
0.0
 10
1.432704724409449
 20
1.651062992125984
 30
0.0
 10
1.430149606299213
 20
1.653952755905512
 30
0.0
 10
1.428149606299213
 20
1.655952755905512
 30
0.0
 10
1.426649606299213
 20
1.657118110236221
 30
0.0
 10
1.426649606299213
 20
1.657118110236221
 30
0.0
 10
1.425149606299213
 20
1.658283464566929
 30
0.0
 10
1.423704724409449
 20
1.659118110236221
 30
0.0
 10
1.422287401574803
 20
1.659562992125984
 30
0.0
 10
1.422287401574803
 20
1.659562992125984
 30
0.0
 10
1.420870078740158
 20
1.660035433070866
 30
0.0
 10
1.418897637795276
 20
1.660255905511811
 30
0.0
 10
1.416342519685039
 20
1.660255905511811
 30
0.0
 10
1.416342519685039
 20
1.660255905511811
 30
0.0
 10
1.416342519685039
 20
1.660255905511811
 30
0.0
 10
1.416342519685039
 20
1.667090551181103
 30
0.0
 10
1.416342519685039
 20
1.667090551181103
 30
0.0
  0
SPLINE
  5
3E
330
1F
100
AcDbEntity
  8
Layer 1
 62
   250
100
AcDbSpline
210
0.0
220
0.0
230
1.0
 70
    11
 71
     3
 72
   172
 73
   168
 74
     0
 42
0.0000000001
 43
0.0000000001
 40
0.0
 40
0.0
 40
0.0
 40
0.0
 40
0.0238095238095238
 40
0.0238095238095238
 40
0.0238095238095238
 40
0.0238095238095238
 40
0.0476190476190476
 40
0.0476190476190476
 40
0.0476190476190476
 40
0.0476190476190476
 40
0.0714285714285714
 40
0.0714285714285714
 40
0.0714285714285714
 40
0.0714285714285714
 40
0.0952380952380952
 40
0.0952380952380952
 40
0.0952380952380952
 40
0.0952380952380952
 40
0.119047619047619
 40
0.119047619047619
 40
0.119047619047619
 40
0.119047619047619
 40
0.1428571428571429
 40
0.1428571428571429
 40
0.1428571428571429
 40
0.1428571428571429
 40
0.1666666666666667
 40
0.1666666666666667
 40
0.1666666666666667
 40
0.1666666666666667
 40
0.1904761904761905
 40
0.1904761904761905
 40
0.1904761904761905
 40
0.1904761904761905
 40
0.2142857142857143
 40
0.2142857142857143
 40
0.2142857142857143
 40
0.2142857142857143
 40
0.2380952380952381
 40
0.2380952380952381
 40
0.2380952380952381
 40
0.2380952380952381
 40
0.2619047619047619
 40
0.2619047619047619
 40
0.2619047619047619
 40
0.2619047619047619
 40
0.2857142857142857
 40
0.2857142857142857
 40
0.2857142857142857
 40
0.2857142857142857
 40
0.3095238095238095
 40
0.3095238095238095
 40
0.3095238095238095
 40
0.3095238095238095
 40
0.3333333333333334
 40
0.3333333333333334
 40
0.3333333333333334
 40
0.3333333333333334
 40
0.3571428571428572
 40
0.3571428571428572
 40
0.3571428571428572
 40
0.3571428571428572
 40
0.380952380952381
 40
0.380952380952381
 40
0.380952380952381
 40
0.380952380952381
 40
0.4047619047619049
 40
0.4047619047619049
 40
0.4047619047619049
 40
0.4047619047619049
 40
0.4285714285714287
 40
0.4285714285714287
 40
0.4285714285714287
 40
0.4285714285714287
 40
0.4523809523809526
 40
0.4523809523809526
 40
0.4523809523809526
 40
0.4523809523809526
 40
0.4761904761904764
 40
0.4761904761904764
 40
0.4761904761904764
 40
0.4761904761904764
 40
0.5000000000000002
 40
0.5000000000000002
 40
0.5000000000000002
 40
0.5000000000000002
 40
0.5238095238095241
 40
0.5238095238095241
 40
0.5238095238095241
 40
0.5238095238095241
 40
0.5476190476190479
 40
0.5476190476190479
 40
0.5476190476190479
 40
0.5476190476190479
 40
0.5714285714285717
 40
0.5714285714285717
 40
0.5714285714285717
 40
0.5714285714285717
 40
0.5952380952380956
 40
0.5952380952380956
 40
0.5952380952380956
 40
0.5952380952380956
 40
0.6190476190476194
 40
0.6190476190476194
 40
0.6190476190476194
 40
0.6190476190476194
 40
0.6428571428571432
 40
0.6428571428571432
 40
0.6428571428571432
 40
0.6428571428571432
 40
0.6666666666666671
 40
0.6666666666666671
 40
0.6666666666666671
 40
0.6666666666666671
 40
0.6904761904761909
 40
0.6904761904761909
 40
0.6904761904761909
 40
0.6904761904761909
 40
0.7142857142857148
 40
0.7142857142857148
 40
0.7142857142857148
 40
0.7142857142857148
 40
0.7380952380952386
 40
0.7380952380952386
 40
0.7380952380952386
 40
0.7380952380952386
 40
0.7619047619047624
 40
0.7619047619047624
 40
0.7619047619047624
 40
0.7619047619047624
 40
0.7857142857142863
 40
0.7857142857142863
 40
0.7857142857142863
 40
0.7857142857142863
 40
0.8095238095238101
 40
0.8095238095238101
 40
0.8095238095238101
 40
0.8095238095238101
 40
0.8333333333333339
 40
0.8333333333333339
 40
0.8333333333333339
 40
0.8333333333333339
 40
0.8571428571428578
 40
0.8571428571428578
 40
0.8571428571428578
 40
0.8571428571428578
 40
0.8809523809523816
 40
0.8809523809523816
 40
0.8809523809523816
 40
0.8809523809523816
 40
0.9047619047619054
 40
0.9047619047619054
 40
0.9047619047619054
 40
0.9047619047619054
 40
0.9285714285714293
 40
0.9285714285714293
 40
0.9285714285714293
 40
0.9285714285714293
 40
0.9523809523809531
 40
0.9523809523809531
 40
0.9523809523809531
 40
0.9523809523809531
 40
0.9761904761904769
 40
0.9761904761904769
 40
0.9761904761904769
 40
0.9761904761904769
 40
1.0
 40
1.0
 40
1.0
 40
1.0
 10
1.582035433070866
 20
1.671728346456693
 30
0.0
 10
1.582035433070866
 20
1.671728346456693
 30
0.0
 10
1.574228346456693
 20
1.672952755905512
 30
0.0
 10
1.574228346456693
 20
1.672952755905512
 30
0.0
 10
1.574228346456693
 20
1.672952755905512
 30
0.0
 10
1.574925196850394
 20
1.678811023622047
 30
0.0
 10
1.576452755905512
 20
1.683673228346457
 30
0.0
 10
1.578787401574803
 20
1.687535433070866
 30
0.0
 10
1.578787401574803
 20
1.687535433070866
 30
0.0
 10
1.581870078740158
 20
1.692728346456693
 30
0.0
 10
1.586228346456693
 20
1.696783464566929
 30
0.0
 10
1.591870078740158
 20
1.699673228346457
 30
0.0
 10
1.591870078740158
 20
1.699673228346457
 30
0.0
 10
1.597535433070866
 20
1.702590551181102
 30
0.0
 10
1.604007874015748
 20
1.704035433070866
 30
0.0
 10
1.61134251968504
 20
1.704035433070866
 30
0.0
 10
1.61134251968504
 20
1.704035433070866
 30
0.0
 10
1.618535433070866
 20
1.704035433070866
 30
0.0
 10
1.624897637795276
 20
1.702755905511811
 30
0.0
 10
1.630370078740158
 20
1.700173228346457
 30
0.0
 10
1.630370078740158
 20
1.700173228346457
 30
0.0
 10
1.63584251968504
 20
1.697590551181103
 30
0.0
 10
1.63998031496063
 20
1.694173228346457
 30
0.0
 10
1.642783464566929
 20
1.689925196850394
 30
0.0
 10
1.642783464566929
 20
1.689925196850394
 30
0.0
 10
1.645590551181102
 20
1.685673228346457
 30
0.0
 10
1.64698031496063
 20
1.681062992125984
 30
0.0
 10
1.64698031496063
 20
1.676118110236221
 30
0.0
 10
1.64698031496063
 20
1.676118110236221
 30
0.0
 10
1.64698031496063
 20
1.671783464566929
 30
0.0
 10
1.645925196850394
 20
1.667897637795276
 30
0.0
 10
1.643811023622047
 20
1.66448031496063
 30
0.0
 10
1.643811023622047
 20
1.66448031496063
 30
0.0
 10
1.641673228346457
 20
1.661062992125984
 30
0.0
 10
1.638535433070866
 20
1.658007874015748
 30
0.0
 10
1.634370078740158
 20
1.655283464566929
 30
0.0
 10
1.634370078740158
 20
1.655283464566929
 30
0.0
 10
1.631425196850394
 20
1.653397637795276
 30
0.0
 10
1.627618110236221
 20
1.651728346456693
 30
0.0
 10
1.622897637795276
 20
1.650338582677166
 30
0.0
 10
1.622897637795276
 20
1.650338582677166
 30
0.0
 10
1.627925196850394
 20
1.649618110236221
 30
0.0
 10
1.632062992125984
 20
1.648452755905512
 30
0.0
 10
1.635255905511811
 20
1.646838582677165
 30
0.0
 10
1.635255905511811
 20
1.646838582677165
 30
0.0
 10
1.640452755905512
 20
1.644173228346457
 30
0.0
 10
1.644562992125984
 20
1.640507874015748
 30
0.0
 10
1.647535433070866
 20
1.635838582677165
 30
0.0
 10
1.647535433070866
 20
1.635838582677165
 30
0.0
 10
1.650535433070866
 20
1.631173228346457
 30
0.0
 10
1.652007874015748
 20
1.626062992125984
 30
0.0
 10
1.652007874015748
 20
1.620452755905512
 30
0.0
 10
1.652007874015748
 20
1.620452755905512
 30
0.0
 10
1.652007874015748
 20
1.611507874015748
 30
0.0
 10
1.648090551181102
 20
1.603618110236221
 30
0.0
 10
1.640228346456693
 20
1.596811023622047
 30
0.0
 10
1.640228346456693
 20
1.596811023622047
 30
0.0
 10
1.632342519685039
 20
1.590007874015748
 30
0.0
 10
1.622173228346457
 20
1.586618110236221
 30
0.0
 10
1.609700787401575
 20
1.586618110236221
 30
0.0
 10
1.609700787401575
 20
1.586618110236221
 30
0.0
 10
1.597397637795276
 20
1.586618110236221
 30
0.0
 10
1.587035433070866
 20
1.589897637795276
 30
0.0
 10
1.578618110236221
 20
1.596452755905512
 30
0.0
 10
1.578618110236221
 20
1.596452755905512
 30
0.0
 10
1.571562992125984
 20
1.602035433070866
 30
0.0
 10
1.568035433070866
 20
1.607673228346457
 30
0.0
 10
1.568035433070866
 20
1.613311023622047
 30
0.0
 10
1.568035433070866
 20
1.613311023622047
 30
0.0
 10
1.568035433070866
 20
1.615535433070866
 30
0.0
 10
1.568759842519685
 20
1.617397637795276
 30
0.0
 10
1.570200787401575
 20
1.618870078740158
 30
0.0
 10
1.570200787401575
 20
1.618870078740158
 30
0.0
 10
1.571618110236221
 20
1.620370078740158
 30
0.0
 10
1.573425196850394
 20
1.62111811023622
 30
0.0
 10
1.575618110236221
 20
1.62111811023622
 30
0.0
 10
1.575618110236221
 20
1.62111811023622
 30
0.0
 10
1.57798031496063
 20
1.62111811023622
 30
0.0
 10
1.580035433070866
 20
1.620200787401575
 30
0.0
 10
1.581700787401575
 20
1.618338582677166
 30
0.0
 10
1.581700787401575
 20
1.618338582677166
 30
0.0
 10
1.582618110236221
 20
1.617311023622047
 30
0.0
 10
1.583700787401575
 20
1.614842519685039
 30
0.0
 10
1.584870078740158
 20
1.610952755905512
 30
0.0
 10
1.584870078740158
 20
1.610952755905512
 30
0.0
 10
1.586562992125984
 20
1.605452755905512
 30
0.0
 10
1.589425196850394
 20
1.601283464566929
 30
0.0
 10
1.593425196850394
 20
1.598425196850394
 30
0.0
 10
1.593425196850394
 20
1.598425196850394
 30
0.0
 10
1.597452755905512
 20
1.595535433070866
 30
0.0
 10
1.602425196850394
 20
1.594090551181102
 30
0.0
 10
1.608397637795276
 20
1.594090551181102
 30
0.0
 10
1.608397637795276
 20
1.594090551181102
 30
0.0
 10
1.613728346456693
 20
1.594090551181102
 30
0.0
 10
1.61848031496063
 20
1.595255905511811
 30
0.0
 10
1.622673228346457
 20
1.597590551181102
 30
0.0
 10
1.622673228346457
 20
1.597590551181102
 30
0.0
 10
1.626897637795276
 20
1.599925196850394
 30
0.0
 10
1.630200787401575
 20
1.603228346456693
 30
0.0
 10
1.632645669291339
 20
1.607535433070866
 30
0.0
 10
1.632645669291339
 20
1.607535433070866
 30
0.0
 10
1.635090551181103
 20
1.611811023622047
 30
0.0
 10
1.636314960629921
 20
1.616507874015748
 30
0.0
 10
1.636314960629921
 20
1.621590551181102
 30
0.0
 10
1.636314960629921
 20
1.621590551181102
 30
0.0
 10
1.636314960629921
 20
1.625728346456693
 30
0.0
 10
1.635425196850394
 20
1.629425196850394
 30
0.0
 10
1.633673228346457
 20
1.632700787401575
 30
0.0
 10
1.633673228346457
 20
1.632700787401575
 30
0.0
 10
1.631897637795276
 20
1.636007874015748
 30
0.0
 10
1.629397637795276
 20
1.638783464566929
 30
0.0
 10
1.626145669291339
 20
1.641062992125984
 30
0.0
 10
1.626145669291339
 20
1.641062992125984
 30
0.0
 10
1.623645669291339
 20
1.642838582677165
 30
0.0
 10
1.620452755905512
 20
1.644090551181102
 30
0.0
 10
1.616590551181103
 20
1.644783464566929
 30
0.0
 10
1.616590551181103
 20
1.644783464566929
 30
0.0
 10
1.612700787401575
 20
1.645507874015748
 30
0.0
 10
1.609200787401575
 20
1.645866141732284
 30
0.0
 10
1.606118110236221
 20
1.645866141732284
 30
0.0
 10
1.606118110236221
 20
1.645866141732284
 30
0.0
 10
1.606118110236221
 20
1.645866141732284
 30
0.0
 10
1.598562992125984
 20
1.645866141732284
 30
0.0
 10
1.598562992125984
 20
1.645866141732284
 30
0.0
 10
1.598562992125984
 20
1.645866141732284
 30
0.0
 10
1.598562992125984
 20
1.645866141732284
 30
0.0
 10
1.598562992125984
 20
1.653755905511811
 30
0.0
 10
1.598562992125984
 20
1.653755905511811
 30
0.0
 10
1.598562992125984
 20
1.653755905511811
 30
0.0
 10
1.598562992125984
 20
1.653755905511811
 30
0.0
 10
1.603370078740158
 20
1.653755905511811
 30
0.0
 10
1.603370078740158
 20
1.653755905511811
 30
0.0
 10
1.603370078740158
 20
1.653755905511811
 30
0.0
 10
1.608118110236221
 20
1.653755905511811
 30
0.0
 10
1.612673228346457
 20
1.654311023622047
 30
0.0
 10
1.617035433070866
 20
1.655425196850394
 30
0.0
 10
1.617035433070866
 20
1.655425196850394
 30
0.0
 10
1.621370078740158
 20
1.656535433070866
 30
0.0
 10
1.624842519685039
 20
1.658811023622047
 30
0.0
 10
1.627452755905512
 20
1.662283464566929
 30
0.0
 10
1.627452755905512
 20
1.662283464566929
 30
0.0
 10
1.630035433070866
 20
1.665755905511811
 30
0.0
 10
1.63134251968504
 20
1.669700787401575
 30
0.0
 10
1.63134251968504
 20
1.674090551181102
 30
0.0
 10
1.63134251968504
 20
1.674090551181102
 30
0.0
 10
1.63134251968504
 20
1.677893700787402
 30
0.0
 10
1.630452755905512
 20
1.681311023622047
 30
0.0
 10
1.628618110236221
 20
1.684338582677166
 30
0.0
 10
1.628618110236221
 20
1.684338582677166
 30
0.0
 10
1.626814960629921
 20
1.687393700787402
 30
0.0
 10
1.624145669291339
 20
1.689811023622047
 30
0.0
 10
1.620618110236221
 20
1.691590551181103
 30
0.0
 10
1.620618110236221
 20
1.691590551181103
 30
0.0
 10
1.617090551181103
 20
1.693366141732284
 30
0.0
 10
1.613007874015748
 20
1.694283464566929
 30
0.0
 10
1.608397637795276
 20
1.694283464566929
 30
0.0
 10
1.608397637795276
 20
1.694283464566929
 30
0.0
 10
1.603897637795276
 20
1.694283464566929
 30
0.0
 10
1.599755905511811
 20
1.693338582677165
 30
0.0
 10
1.59598031496063
 20
1.691507874015748
 30
0.0
 10
1.59598031496063
 20
1.691507874015748
 30
0.0
 10
1.592228346456693
 20
1.689673228346457
 30
0.0
 10
1.589200787401575
 20
1.687200787401575
 30
0.0
 10
1.586925196850394
 20
1.684090551181102
 30
0.0
 10
1.586925196850394
 20
1.684090551181102
 30
0.0
 10
1.584645669291339
 20
1.681007874015748
 30
0.0
 10
1.583007874015748
 20
1.676893700787402
 30
0.0
 10
1.582035433070866
 20
1.671728346456693
 30
0.0
  0
SPLINE
  5
3F
330
1F
100
AcDbEntity
  8
Layer 1
 62
   250
100
AcDbSpline
210
0.0
220
0.0
230
1.0
 70
    11
 71
     3
 72
    20
 73
    16
 74
     0
 42
0.0000000001
 43
0.0000000001
 40
0.0
 40
0.0
 40
0.0
 40
0.0
 40
0.25
 40
0.25
 40
0.25
 40
0.25
 40
0.5
 40
0.5
 40
0.5
 40
0.5
 40
0.75
 40
0.75
 40
0.75
 40
0.75
 40
1.0
 40
1.0
 40
1.0
 40
1.0
 10
1.672452755905512
 20
1.635035433070866
 30
0.0
 10
1.672452755905512
 20
1.635035433070866
 30
0.0
 10
1.720787401574803
 20
1.635035433070866
 30
0.0
 10
1.720787401574803
 20
1.635035433070866
 30
0.0
 10
1.720787401574803
 20
1.635035433070866
 30
0.0
 10
1.720787401574803
 20
1.635035433070866
 30
0.0
 10
1.720787401574803
 20
1.624952755905512
 30
0.0
 10
1.720787401574803
 20
1.624952755905512
 30
0.0
 10
1.720787401574803
 20
1.624952755905512
 30
0.0
 10
1.720787401574803
 20
1.624952755905512
 30
0.0
 10
1.672452755905512
 20
1.624952755905512
 30
0.0
 10
1.672452755905512
 20
1.624952755905512
 30
0.0
 10
1.672452755905512
 20
1.624952755905512
 30
0.0
 10
1.672452755905512
 20
1.624952755905512
 30
0.0
 10
1.672452755905512
 20
1.635035433070866
 30
0.0
 10
1.672452755905512
 20
1.635035433070866
 30
0.0
  0
SPLINE
  5
40
330
1F
100
AcDbEntity
  8
Layer 1
 62
   250
100
AcDbSpline
210
0.0
220
0.0
230
1.0
 70
    11
 71
     3
 72
   172
 73
   168
 74
     0
 42
0.0000000001
 43
0.0000000001
 40
0.0
 40
0.0
 40
0.0
 40
0.0
 40
0.0238095238095238
 40
0.0238095238095238
 40
0.0238095238095238
 40
0.0238095238095238
 40
0.0476190476190476
 40
0.0476190476190476
 40
0.0476190476190476
 40
0.0476190476190476
 40
0.0714285714285714
 40
0.0714285714285714
 40
0.0714285714285714
 40
0.0714285714285714
 40
0.0952380952380952
 40
0.0952380952380952
 40
0.0952380952380952
 40
0.0952380952380952
 40
0.119047619047619
 40
0.119047619047619
 40
0.119047619047619
 40
0.119047619047619
 40
0.1428571428571429
 40
0.1428571428571429
 40
0.1428571428571429
 40
0.1428571428571429
 40
0.1666666666666667
 40
0.1666666666666667
 40
0.1666666666666667
 40
0.1666666666666667
 40
0.1904761904761905
 40
0.1904761904761905
 40
0.1904761904761905
 40
0.1904761904761905
 40
0.2142857142857143
 40
0.2142857142857143
 40
0.2142857142857143
 40
0.2142857142857143
 40
0.2380952380952381
 40
0.2380952380952381
 40
0.2380952380952381
 40
0.2380952380952381
 40
0.2619047619047619
 40
0.2619047619047619
 40
0.2619047619047619
 40
0.2619047619047619
 40
0.2857142857142857
 40
0.2857142857142857
 40
0.2857142857142857
 40
0.2857142857142857
 40
0.3095238095238095
 40
0.3095238095238095
 40
0.3095238095238095
 40
0.3095238095238095
 40
0.3333333333333334
 40
0.3333333333333334
 40
0.3333333333333334
 40
0.3333333333333334
 40
0.3571428571428572
 40
0.3571428571428572
 40
0.3571428571428572
 40
0.3571428571428572
 40
0.380952380952381
 40
0.380952380952381
 40
0.380952380952381
 40
0.380952380952381
 40
0.4047619047619049
 40
0.4047619047619049
 40
0.4047619047619049
 40
0.4047619047619049
 40
0.4285714285714287
 40
0.4285714285714287
 40
0.4285714285714287
 40
0.4285714285714287
 40
0.4523809523809526
 40
0.4523809523809526
 40
0.4523809523809526
 40
0.4523809523809526
 40
0.4761904761904764
 40
0.4761904761904764
 40
0.4761904761904764
 40
0.4761904761904764
 40
0.5000000000000002
 40
0.5000000000000002
 40
0.5000000000000002
 40
0.5000000000000002
 40
0.5238095238095241
 40
0.5238095238095241
 40
0.5238095238095241
 40
0.5238095238095241
 40
0.5476190476190479
 40
0.5476190476190479
 40
0.5476190476190479
 40
0.5476190476190479
 40
0.5714285714285717
 40
0.5714285714285717
 40
0.5714285714285717
 40
0.5714285714285717
 40
0.5952380952380956
 40
0.5952380952380956
 40
0.5952380952380956
 40
0.5952380952380956
 40
0.6190476190476194
 40
0.6190476190476194
 40
0.6190476190476194
 40
0.6190476190476194
 40
0.6428571428571432
 40
0.6428571428571432
 40
0.6428571428571432
 40
0.6428571428571432
 40
0.6666666666666671
 40
0.6666666666666671
 40
0.6666666666666671
 40
0.6666666666666671
 40
0.6904761904761909
 40
0.6904761904761909
 40
0.6904761904761909
 40
0.6904761904761909
 40
0.7142857142857148
 40
0.7142857142857148
 40
0.7142857142857148
 40
0.7142857142857148
 40
0.7380952380952386
 40
0.7380952380952386
 40
0.7380952380952386
 40
0.7380952380952386
 40
0.7619047619047624
 40
0.7619047619047624
 40
0.7619047619047624
 40
0.7619047619047624
 40
0.7857142857142863
 40
0.7857142857142863
 40
0.7857142857142863
 40
0.7857142857142863
 40
0.8095238095238101
 40
0.8095238095238101
 40
0.8095238095238101
 40
0.8095238095238101
 40
0.8333333333333339
 40
0.8333333333333339
 40
0.8333333333333339
 40
0.8333333333333339
 40
0.8571428571428578
 40
0.8571428571428578
 40
0.8571428571428578
 40
0.8571428571428578
 40
0.8809523809523816
 40
0.8809523809523816
 40
0.8809523809523816
 40
0.8809523809523816
 40
0.9047619047619054
 40
0.9047619047619054
 40
0.9047619047619054
 40
0.9047619047619054
 40
0.9285714285714293
 40
0.9285714285714293
 40
0.9285714285714293
 40
0.9285714285714293
 40
0.9523809523809531
 40
0.9523809523809531
 40
0.9523809523809531
 40
0.9523809523809531
 40
0.9761904761904769
 40
0.9761904761904769
 40
0.9761904761904769
 40
0.9761904761904769
 40
1.0
 40
1.0
 40
1.0
 40
1.0
 10
1.752035433070866
 20
1.671728346456693
 30
0.0
 10
1.752035433070866
 20
1.671728346456693
 30
0.0
 10
1.744228346456693
 20
1.672952755905512
 30
0.0
 10
1.744228346456693
 20
1.672952755905512
 30
0.0
 10
1.744228346456693
 20
1.672952755905512
 30
0.0
 10
1.744925196850394
 20
1.678811023622047
 30
0.0
 10
1.746452755905512
 20
1.683673228346457
 30
0.0
 10
1.748787401574803
 20
1.687535433070866
 30
0.0
 10
1.748787401574803
 20
1.687535433070866
 30
0.0
 10
1.751870078740158
 20
1.692728346456693
 30
0.0
 10
1.756228346456693
 20
1.696783464566929
 30
0.0
 10
1.761870078740158
 20
1.699673228346457
 30
0.0
 10
1.761870078740158
 20
1.699673228346457
 30
0.0
 10
1.767535433070866
 20
1.702590551181102
 30
0.0
 10
1.774007874015748
 20
1.704035433070866
 30
0.0
 10
1.781342519685039
 20
1.704035433070866
 30
0.0
 10
1.781342519685039
 20
1.704035433070866
 30
0.0
 10
1.788535433070866
 20
1.704035433070866
 30
0.0
 10
1.794897637795276
 20
1.702755905511811
 30
0.0
 10
1.800370078740158
 20
1.700173228346457
 30
0.0
 10
1.800370078740158
 20
1.700173228346457
 30
0.0
 10
1.805842519685039
 20
1.697590551181103
 30
0.0
 10
1.80998031496063
 20
1.694173228346457
 30
0.0
 10
1.812783464566929
 20
1.689925196850394
 30
0.0
 10
1.812783464566929
 20
1.689925196850394
 30
0.0
 10
1.815590551181102
 20
1.685673228346457
 30
0.0
 10
1.81698031496063
 20
1.681062992125984
 30
0.0
 10
1.81698031496063
 20
1.676118110236221
 30
0.0
 10
1.81698031496063
 20
1.676118110236221
 30
0.0
 10
1.81698031496063
 20
1.671783464566929
 30
0.0
 10
1.815925196850394
 20
1.667897637795276
 30
0.0
 10
1.813811023622047
 20
1.66448031496063
 30
0.0
 10
1.813811023622047
 20
1.66448031496063
 30
0.0
 10
1.811673228346457
 20
1.661062992125984
 30
0.0
 10
1.808535433070866
 20
1.658007874015748
 30
0.0
 10
1.804370078740158
 20
1.655283464566929
 30
0.0
 10
1.804370078740158
 20
1.655283464566929
 30
0.0
 10
1.801425196850394
 20
1.653397637795276
 30
0.0
 10
1.797618110236221
 20
1.651728346456693
 30
0.0
 10
1.792897637795276
 20
1.650338582677166
 30
0.0
 10
1.792897637795276
 20
1.650338582677166
 30
0.0
 10
1.797925196850394
 20
1.649618110236221
 30
0.0
 10
1.802062992125984
 20
1.648452755905512
 30
0.0
 10
1.805255905511811
 20
1.646838582677165
 30
0.0
 10
1.805255905511811
 20
1.646838582677165
 30
0.0
 10
1.810452755905512
 20
1.644173228346457
 30
0.0
 10
1.814562992125984
 20
1.640507874015748
 30
0.0
 10
1.817535433070866
 20
1.635838582677165
 30
0.0
 10
1.817535433070866
 20
1.635838582677165
 30
0.0
 10
1.820535433070866
 20
1.631173228346457
 30
0.0
 10
1.822007874015748
 20
1.626062992125984
 30
0.0
 10
1.822007874015748
 20
1.620452755905512
 30
0.0
 10
1.822007874015748
 20
1.620452755905512
 30
0.0
 10
1.822007874015748
 20
1.611507874015748
 30
0.0
 10
1.818090551181103
 20
1.603618110236221
 30
0.0
 10
1.810228346456693
 20
1.596811023622047
 30
0.0
 10
1.810228346456693
 20
1.596811023622047
 30
0.0
 10
1.802342519685039
 20
1.590007874015748
 30
0.0
 10
1.792173228346457
 20
1.586618110236221
 30
0.0
 10
1.779700787401575
 20
1.586618110236221
 30
0.0
 10
1.779700787401575
 20
1.586618110236221
 30
0.0
 10
1.767397637795276
 20
1.586618110236221
 30
0.0
 10
1.757035433070866
 20
1.589897637795276
 30
0.0
 10
1.748618110236221
 20
1.596452755905512
 30
0.0
 10
1.748618110236221
 20
1.596452755905512
 30
0.0
 10
1.741562992125984
 20
1.602035433070866
 30
0.0
 10
1.738035433070866
 20
1.607673228346457
 30
0.0
 10
1.738035433070866
 20
1.613311023622047
 30
0.0
 10
1.738035433070866
 20
1.613311023622047
 30
0.0
 10
1.738035433070866
 20
1.615535433070866
 30
0.0
 10
1.738759842519685
 20
1.617397637795276
 30
0.0
 10
1.740200787401575
 20
1.618870078740158
 30
0.0
 10
1.740200787401575
 20
1.618870078740158
 30
0.0
 10
1.741618110236221
 20
1.620370078740158
 30
0.0
 10
1.743425196850394
 20
1.62111811023622
 30
0.0
 10
1.745618110236221
 20
1.62111811023622
 30
0.0
 10
1.745618110236221
 20
1.62111811023622
 30
0.0
 10
1.74798031496063
 20
1.62111811023622
 30
0.0
 10
1.750035433070866
 20
1.620200787401575
 30
0.0
 10
1.751700787401575
 20
1.618338582677166
 30
0.0
 10
1.751700787401575
 20
1.618338582677166
 30
0.0
 10
1.752618110236221
 20
1.617311023622047
 30
0.0
 10
1.753700787401575
 20
1.614842519685039
 30
0.0
 10
1.754870078740158
 20
1.610952755905512
 30
0.0
 10
1.754870078740158
 20
1.610952755905512
 30
0.0
 10
1.756562992125984
 20
1.605452755905512
 30
0.0
 10
1.759425196850394
 20
1.601283464566929
 30
0.0
 10
1.763425196850394
 20
1.598425196850394
 30
0.0
 10
1.763425196850394
 20
1.598425196850394
 30
0.0
 10
1.767452755905512
 20
1.595535433070866
 30
0.0
 10
1.772425196850394
 20
1.594090551181102
 30
0.0
 10
1.778397637795276
 20
1.594090551181102
 30
0.0
 10
1.778397637795276
 20
1.594090551181102
 30
0.0
 10
1.783728346456693
 20
1.594090551181102
 30
0.0
 10
1.78848031496063
 20
1.595255905511811
 30
0.0
 10
1.792673228346457
 20
1.597590551181102
 30
0.0
 10
1.792673228346457
 20
1.597590551181102
 30
0.0
 10
1.796897637795276
 20
1.599925196850394
 30
0.0
 10
1.800200787401575
 20
1.603228346456693
 30
0.0
 10
1.802645669291339
 20
1.607535433070866
 30
0.0
 10
1.802645669291339
 20
1.607535433070866
 30
0.0
 10
1.805090551181102
 20
1.611811023622047
 30
0.0
 10
1.806314960629921
 20
1.616507874015748
 30
0.0
 10
1.806314960629921
 20
1.621590551181102
 30
0.0
 10
1.806314960629921
 20
1.621590551181102
 30
0.0
 10
1.806314960629921
 20
1.625728346456693
 30
0.0
 10
1.805425196850394
 20
1.629425196850394
 30
0.0
 10
1.803673228346457
 20
1.632700787401575
 30
0.0
 10
1.803673228346457
 20
1.632700787401575
 30
0.0
 10
1.801897637795276
 20
1.636007874015748
 30
0.0
 10
1.799397637795276
 20
1.638783464566929
 30
0.0
 10
1.796145669291339
 20
1.641062992125984
 30
0.0
 10
1.796145669291339
 20
1.641062992125984
 30
0.0
 10
1.793645669291339
 20
1.642838582677165
 30
0.0
 10
1.790452755905512
 20
1.644090551181102
 30
0.0
 10
1.786590551181102
 20
1.644783464566929
 30
0.0
 10
1.786590551181102
 20
1.644783464566929
 30
0.0
 10
1.782700787401575
 20
1.645507874015748
 30
0.0
 10
1.779200787401575
 20
1.645866141732284
 30
0.0
 10
1.776118110236221
 20
1.645866141732284
 30
0.0
 10
1.776118110236221
 20
1.645866141732284
 30
0.0
 10
1.776118110236221
 20
1.645866141732284
 30
0.0
 10
1.768562992125984
 20
1.645866141732284
 30
0.0
 10
1.768562992125984
 20
1.645866141732284
 30
0.0
 10
1.768562992125984
 20
1.645866141732284
 30
0.0
 10
1.768562992125984
 20
1.645866141732284
 30
0.0
 10
1.768562992125984
 20
1.653755905511811
 30
0.0
 10
1.768562992125984
 20
1.653755905511811
 30
0.0
 10
1.768562992125984
 20
1.653755905511811
 30
0.0
 10
1.768562992125984
 20
1.653755905511811
 30
0.0
 10
1.773370078740158
 20
1.653755905511811
 30
0.0
 10
1.773370078740158
 20
1.653755905511811
 30
0.0
 10
1.773370078740158
 20
1.653755905511811
 30
0.0
 10
1.778118110236221
 20
1.653755905511811
 30
0.0
 10
1.782673228346457
 20
1.654311023622047
 30
0.0
 10
1.787035433070866
 20
1.655425196850394
 30
0.0
 10
1.787035433070866
 20
1.655425196850394
 30
0.0
 10
1.791370078740158
 20
1.656535433070866
 30
0.0
 10
1.79484251968504
 20
1.658811023622047
 30
0.0
 10
1.797452755905512
 20
1.662283464566929
 30
0.0
 10
1.797452755905512
 20
1.662283464566929
 30
0.0
 10
1.800035433070866
 20
1.665755905511811
 30
0.0
 10
1.801342519685039
 20
1.669700787401575
 30
0.0
 10
1.801342519685039
 20
1.674090551181102
 30
0.0
 10
1.801342519685039
 20
1.674090551181102
 30
0.0
 10
1.801342519685039
 20
1.677893700787402
 30
0.0
 10
1.800452755905512
 20
1.681311023622047
 30
0.0
 10
1.798618110236221
 20
1.684338582677166
 30
0.0
 10
1.798618110236221
 20
1.684338582677166
 30
0.0
 10
1.796814960629921
 20
1.687393700787402
 30
0.0
 10
1.794145669291339
 20
1.689811023622047
 30
0.0
 10
1.790618110236221
 20
1.691590551181103
 30
0.0
 10
1.790618110236221
 20
1.691590551181103
 30
0.0
 10
1.787090551181102
 20
1.693366141732284
 30
0.0
 10
1.783007874015748
 20
1.694283464566929
 30
0.0
 10
1.778397637795276
 20
1.694283464566929
 30
0.0
 10
1.778397637795276
 20
1.694283464566929
 30
0.0
 10
1.773897637795276
 20
1.694283464566929
 30
0.0
 10
1.769755905511811
 20
1.693338582677165
 30
0.0
 10
1.76598031496063
 20
1.691507874015748
 30
0.0
 10
1.76598031496063
 20
1.691507874015748
 30
0.0
 10
1.762228346456693
 20
1.689673228346457
 30
0.0
 10
1.759200787401575
 20
1.687200787401575
 30
0.0
 10
1.756925196850394
 20
1.684090551181102
 30
0.0
 10
1.756925196850394
 20
1.684090551181102
 30
0.0
 10
1.754645669291339
 20
1.681007874015748
 30
0.0
 10
1.753007874015748
 20
1.676893700787402
 30
0.0
 10
1.752035433070866
 20
1.671728346456693
 30
0.0
  0
SPLINE
  5
41
330
1F
100
AcDbEntity
  8
Layer 1
 62
   250
100
AcDbSpline
210
0.0
220
0.0
230
1.0
 70
    11
 71
     3
 72
    20
 73
    16
 74
     0
 42
0.0000000001
 43
0.0000000001
 40
0.0
 40
0.0
 40
0.0
 40
0.0
 40
0.25
 40
0.25
 40
0.25
 40
0.25
 40
0.5
 40
0.5
 40
0.5
 40
0.5
 40
0.75
 40
0.75
 40
0.75
 40
0.75
 40
1.0
 40
1.0
 40
1.0
 40
1.0
 10
1.914814960629921
 20
1.707952755905512
 30
0.0
 10
1.914814960629921
 20
1.707952755905512
 30
0.0
 10
1.859232283464567
 20
1.552255905511811
 30
0.0
 10
1.859232283464567
 20
1.552255905511811
 30
0.0
 10
1.859232283464567
 20
1.552255905511811
 30
0.0
 10
1.859232283464567
 20
1.552255905511811
 30
0.0
 10
1.847177165354331
 20
1.552255905511811
 30
0.0
 10
1.847177165354331
 20
1.552255905511811
 30
0.0
 10
1.847177165354331
 20
1.552255905511811
 30
0.0
 10
1.847177165354331
 20
1.552255905511811
 30
0.0
 10
1.902425196850394
 20
1.707952755905512
 30
0.0
 10
1.902425196850394
 20
1.707952755905512
 30
0.0
 10
1.902425196850394
 20
1.707952755905512
 30
0.0
 10
1.902425196850394
 20
1.707952755905512
 30
0.0
 10
1.914814960629921
 20
1.707952755905512
 30
0.0
 10
1.914814960629921
 20
1.707952755905512
 30
0.0
  0
SPLINE
  5
42
330
1F
100
AcDbEntity
  8
Layer 1
 62
   250
100
AcDbSpline
210
0.0
220
0.0
230
1.0
 70
    11
 71
     3
 72
    48
 73
    44
 74
     0
 42
0.0000000001
 43
0.0000000001
 40
0.0
 40
0.0
 40
0.0
 40
0.0
 40
0.0909090909090909
 40
0.0909090909090909
 40
0.0909090909090909
 40
0.0909090909090909
 40
0.1818181818181818
 40
0.1818181818181818
 40
0.1818181818181818
 40
0.1818181818181818
 40
0.2727272727272727
 40
0.2727272727272727
 40
0.2727272727272727
 40
0.2727272727272727
 40
0.3636363636363637
 40
0.3636363636363637
 40
0.3636363636363637
 40
0.3636363636363637
 40
0.4545454545454546
 40
0.4545454545454546
 40
0.4545454545454546
 40
0.4545454545454546
 40
0.5454545454545455
 40
0.5454545454545455
 40
0.5454545454545455
 40
0.5454545454545455
 40
0.6363636363636365
 40
0.6363636363636365
 40
0.6363636363636365
 40
0.6363636363636365
 40
0.7272727272727274
 40
0.7272727272727274
 40
0.7272727272727274
 40
0.7272727272727274
 40
0.8181818181818183
 40
0.8181818181818183
 40
0.8181818181818183
 40
0.8181818181818183
 40
0.9090909090909093
 40
0.9090909090909093
 40
0.9090909090909093
 40
0.9090909090909093
 40
1.0
 40
1.0
 40
1.0
 40
1.0
 10
1.993759842519685
 20
1.702090551181102
 30
0.0
 10
1.993759842519685
 20
1.702090551181102
 30
0.0
 10
2.007507874015748
 20
1.702090551181102
 30
0.0
 10
2.007507874015748
 20
1.702090551181102
 30
0.0
 10
2.007507874015748
 20
1.702090551181102
 30
0.0
 10
2.007507874015748
 20
1.702090551181102
 30
0.0
 10
2.007507874015748
 20
1.636090551181102
 30
0.0
 10
2.007507874015748
 20
1.636090551181102
 30
0.0
 10
2.007507874015748
 20
1.636090551181102
 30
0.0
 10
2.007507874015748
 20
1.636090551181102
 30
0.0
 10
2.02884251968504
 20
1.636090551181102
 30
0.0
 10
2.02884251968504
 20
1.636090551181102
 30
0.0
 10
2.02884251968504
 20
1.636090551181102
 30
0.0
 10
2.02884251968504
 20
1.636090551181102
 30
0.0
 10
2.02884251968504
 20
1.625925196850394
 30
0.0
 10
2.02884251968504
 20
1.625925196850394
 30
0.0
 10
2.02884251968504
 20
1.625925196850394
 30
0.0
 10
2.02884251968504
 20
1.625925196850394
 30
0.0
 10
2.007507874015748
 20
1.625925196850394
 30
0.0
 10
2.007507874015748
 20
1.625925196850394
 30
0.0
 10
2.007507874015748
 20
1.625925196850394
 30
0.0
 10
2.007507874015748
 20
1.625925196850394
 30
0.0
 10
2.007507874015748
 20
1.588562992125984
 30
0.0
 10
2.007507874015748
 20
1.588562992125984
 30
0.0
 10
2.007507874015748
 20
1.588562992125984
 30
0.0
 10
2.007507874015748
 20
1.588562992125984
 30
0.0
 10
1.993759842519685
 20
1.588562992125984
 30
0.0
 10
1.993759842519685
 20
1.588562992125984
 30
0.0
 10
1.993759842519685
 20
1.588562992125984
 30
0.0
 10
1.993759842519685
 20
1.588562992125984
 30
0.0
 10
1.993759842519685
 20
1.625925196850394
 30
0.0
 10
1.993759842519685
 20
1.625925196850394
 30
0.0
 10
1.993759842519685
 20
1.625925196850394
 30
0.0
 10
1.993759842519685
 20
1.625925196850394
 30
0.0
 10
1.940287401574803
 20
1.625925196850394
 30
0.0
 10
1.940287401574803
 20
1.625925196850394
 30
0.0
 10
1.940287401574803
 20
1.625925196850394
 30
0.0
 10
1.940287401574803
 20
1.625925196850394
 30
0.0
 10
1.940287401574803
 20
1.640228346456693
 30
0.0
 10
1.940287401574803
 20
1.640228346456693
 30
0.0
 10
1.940287401574803
 20
1.640228346456693
 30
0.0
 10
1.940287401574803
 20
1.640228346456693
 30
0.0
 10
1.993759842519685
 20
1.702090551181102
 30
0.0
 10
1.993759842519685
 20
1.702090551181102
 30
0.0
  0
SPLINE
  5
43
330
1F
100
AcDbEntity
  8
Layer 1
 62
   250
100
AcDbSpline
210
0.0
220
0.0
230
1.0
 70
    11
 71
     3
 72
    16
 73
    12
 74
     0
 42
0.0000000001
 43
0.0000000001
 40
0.0
 40
0.0
 40
0.0
 40
0.0
 40
0.3333333333333333
 40
0.3333333333333333
 40
0.3333333333333333
 40
0.3333333333333333
 40
0.6666666666666666
 40
0.6666666666666666
 40
0.6666666666666666
 40
0.6666666666666666
 40
1.0
 40
1.0
 40
1.0
 40
1.0
 10
1.993759842519685
 20
1.636090551181102
 30
0.0
 10
1.993759842519685
 20
1.636090551181102
 30
0.0
 10
1.993759842519685
 20
1.68948031496063
 30
0.0
 10
1.993759842519685
 20
1.68948031496063
 30
0.0
 10
1.993759842519685
 20
1.68948031496063
 30
0.0
 10
1.993759842519685
 20
1.68948031496063
 30
0.0
 10
1.947704724409449
 20
1.636090551181102
 30
0.0
 10
1.947704724409449
 20
1.636090551181102
 30
0.0
 10
1.947704724409449
 20
1.636090551181102
 30
0.0
 10
1.947704724409449
 20
1.636090551181102
 30
0.0
 10
1.993759842519685
 20
1.636090551181102
 30
0.0
 10
1.993759842519685
 20
1.636090551181102
 30
0.0
  0
SPLINE
  5
44
330
1F
100
AcDbEntity
  8
Layer 1
 62
   250
100
AcDbSpline
210
0.0
220
0.0
230
1.0
 70
    11
 71
     3
 72
    60
 73
    56
 74
     0
 42
0.0000000001
 43
0.0000000001
 40
0.0
 40
0.0
 40
0.0
 40
0.0
 40
0.0714285714285714
 40
0.0714285714285714
 40
0.0714285714285714
 40
0.0714285714285714
 40
0.1428571428571429
 40
0.1428571428571429
 40
0.1428571428571429
 40
0.1428571428571429
 40
0.2142857142857143
 40
0.2142857142857143
 40
0.2142857142857143
 40
0.2142857142857143
 40
0.2857142857142857
 40
0.2857142857142857
 40
0.2857142857142857
 40
0.2857142857142857
 40
0.3571428571428571
 40
0.3571428571428571
 40
0.3571428571428571
 40
0.3571428571428571
 40
0.4285714285714285
 40
0.4285714285714285
 40
0.4285714285714285
 40
0.4285714285714285
 40
0.4999999999999999
 40
0.4999999999999999
 40
0.4999999999999999
 40
0.4999999999999999
 40
0.5714285714285713
 40
0.5714285714285713
 40
0.5714285714285713
 40
0.5714285714285713
 40
0.6428571428571427
 40
0.6428571428571427
 40
0.6428571428571427
 40
0.6428571428571427
 40
0.7142857142857141
 40
0.7142857142857141
 40
0.7142857142857141
 40
0.7142857142857141
 40
0.7857142857142855
 40
0.7857142857142855
 40
0.7857142857142855
 40
0.7857142857142855
 40
0.8571428571428569
 40
0.8571428571428569
 40
0.8571428571428569
 40
0.8571428571428569
 40
0.9285714285714283
 40
0.9285714285714283
 40
0.9285714285714283
 40
0.9285714285714283
 40
1.0
 40
1.0
 40
1.0
 40
1.0
 10
2.046814960629921
 20
1.660007874015748
 30
0.0
 10
2.046814960629921
 20
1.660007874015748
 30
0.0
 10
2.042425196850394
 20
1.665397637795276
 30
0.0
 10
2.042425196850394
 20
1.665397637795276
 30
0.0
 10
2.042425196850394
 20
1.665397637795276
 30
0.0
 10
2.05353937007874
 20
1.674452755905512
 30
0.0
 10
2.059122047244095
 20
1.682007874015748
 30
0.0
 10
2.059122047244095
 20
1.688090551181102
 30
0.0
 10
2.059122047244095
 20
1.688090551181102
 30
0.0
 10
2.059122047244095
 20
1.688783464566929
 30
0.0
 10
2.059066929133858
 20
1.689673228346457
 30
0.0
 10
2.058952755905512
 20
1.690700787401575
 30
0.0
 10
2.058952755905512
 20
1.690700787401575
 30
0.0
 10
2.05803937007874
 20
1.690311023622047
 30
0.0
 10
2.057122047244095
 20
1.690007874015748
 30
0.0
 10
2.056259842519685
 20
1.689811023622047
 30
0.0
 10
2.056259842519685
 20
1.689811023622047
 30
0.0
 10
2.055397637795276
 20
1.689590551181103
 30
0.0
 10
2.054594488188977
 20
1.68948031496063
 30
0.0
 10
2.053814960629921
 20
1.68948031496063
 30
0.0
 10
2.053814960629921
 20
1.68948031496063
 30
0.0
 10
2.051204724409449
 20
1.68948031496063
 30
0.0
 10
2.049122047244095
 20
1.690311023622047
 30
0.0
 10
2.047566929133859
 20
1.692007874015748
 30
0.0
 10
2.047566929133859
 20
1.692007874015748
 30
0.0
 10
2.04598031496063
 20
1.693673228346457
 30
0.0
 10
2.045204724409449
 20
1.695811023622047
 30
0.0
 10
2.045204724409449
 20
1.698425196850394
 30
0.0
 10
2.045204724409449
 20
1.698425196850394
 30
0.0
 10
2.045204724409449
 20
1.70098031496063
 30
0.0
 10
2.046149606299213
 20
1.703200787401575
 30
0.0
 10
2.04803937007874
 20
1.705090551181103
 30
0.0
 10
2.04803937007874
 20
1.705090551181103
 30
0.0
 10
2.049952755905512
 20
1.707007874015748
 30
0.0
 10
2.052232283464567
 20
1.707952755905512
 30
0.0
 10
2.054870078740158
 20
1.707952755905512
 30
0.0
 10
2.054870078740158
 20
1.707952755905512
 30
0.0
 10
2.058566929133858
 20
1.707952755905512
 30
0.0
 10
2.061732283464567
 20
1.70648031496063
 30
0.0
 10
2.064370078740158
 20
1.703507874015748
 30
0.0
 10
2.064370078740158
 20
1.703507874015748
 30
0.0
 10
2.06698031496063
 20
1.700562992125984
 30
0.0
 10
2.068314960629921
 20
1.696755905511811
 30
0.0
 10
2.068314960629921
 20
1.692090551181102
 30
0.0
 10
2.068314960629921
 20
1.692090551181102
 30
0.0
 10
2.068314960629921
 20
1.689035433070866
 30
0.0
 10
2.067677165354331
 20
1.685838582677165
 30
0.0
 10
2.066425196850394
 20
1.682507874015748
 30
0.0
 10
2.066425196850394
 20
1.682507874015748
 30
0.0
 10
2.065177165354331
 20
1.679173228346457
 30
0.0
 10
2.063370078740157
 20
1.676090551181102
 30
0.0
 10
2.06098031496063
 20
1.673228346456693
 30
0.0
 10
2.06098031496063
 20
1.673228346456693
 30
0.0
 10
2.058594488188977
 20
1.670397637795276
 30
0.0
 10
2.053870078740157
 20
1.66598031496063
 30
0.0
 10
2.046814960629921
 20
1.660007874015748
 30
0.0
  0
SPLINE
  5
45
330
1F
100
AcDbEntity
  8
Layer 1
 62
   250
100
AcDbSpline
210
0.0
220
0.0
230
1.0
 70
    11
 71
     3
 72
    60
 73
    56
 74
     0
 42
0.0000000001
 43
0.0000000001
 40
0.0
 40
0.0
 40
0.0
 40
0.0
 40
0.0714285714285714
 40
0.0714285714285714
 40
0.0714285714285714
 40
0.0714285714285714
 40
0.1428571428571429
 40
0.1428571428571429
 40
0.1428571428571429
 40
0.1428571428571429
 40
0.2142857142857143
 40
0.2142857142857143
 40
0.2142857142857143
 40
0.2142857142857143
 40
0.2857142857142857
 40
0.2857142857142857
 40
0.2857142857142857
 40
0.2857142857142857
 40
0.3571428571428571
 40
0.3571428571428571
 40
0.3571428571428571
 40
0.3571428571428571
 40
0.4285714285714285
 40
0.4285714285714285
 40
0.4285714285714285
 40
0.4285714285714285
 40
0.4999999999999999
 40
0.4999999999999999
 40
0.4999999999999999
 40
0.4999999999999999
 40
0.5714285714285713
 40
0.5714285714285713
 40
0.5714285714285713
 40
0.5714285714285713
 40
0.6428571428571427
 40
0.6428571428571427
 40
0.6428571428571427
 40
0.6428571428571427
 40
0.7142857142857141
 40
0.7142857142857141
 40
0.7142857142857141
 40
0.7142857142857141
 40
0.7857142857142855
 40
0.7857142857142855
 40
0.7857142857142855
 40
0.7857142857142855
 40
0.8571428571428569
 40
0.8571428571428569
 40
0.8571428571428569
 40
0.8571428571428569
 40
0.9285714285714283
 40
0.9285714285714283
 40
0.9285714285714283
 40
0.9285714285714283
 40
1.0
 40
1.0
 40
1.0
 40
1.0
 10
2.075870078740158
 20
1.660007874015748
 30
0.0
 10
2.075870078740158
 20
1.660007874015748
 30
0.0
 10
2.07148031496063
 20
1.665397637795276
 30
0.0
 10
2.07148031496063
 20
1.665397637795276
 30
0.0
 10
2.07148031496063
 20
1.665397637795276
 30
0.0
 10
2.082594488188977
 20
1.674452755905512
 30
0.0
 10
2.088177165354331
 20
1.682007874015748
 30
0.0
 10
2.088177165354331
 20
1.688090551181102
 30
0.0
 10
2.088177165354331
 20
1.688090551181102
 30
0.0
 10
2.088177165354331
 20
1.688783464566929
 30
0.0
 10
2.088122047244095
 20
1.689673228346457
 30
0.0
 10
2.088007874015748
 20
1.690700787401575
 30
0.0
 10
2.088007874015748
 20
1.690700787401575
 30
0.0
 10
2.087094488188976
 20
1.690311023622047
 30
0.0
 10
2.086177165354331
 20
1.690007874015748
 30
0.0
 10
2.085314960629921
 20
1.689811023622047
 30
0.0
 10
2.085314960629921
 20
1.689811023622047
 30
0.0
 10
2.084452755905512
 20
1.689590551181103
 30
0.0
 10
2.083622047244095
 20
1.68948031496063
 30
0.0
 10
2.082787401574803
 20
1.68948031496063
 30
0.0
 10
2.082787401574803
 20
1.68948031496063
 30
0.0
 10
2.080232283464567
 20
1.68948031496063
 30
0.0
 10
2.078177165354331
 20
1.690311023622047
 30
0.0
 10
2.076622047244094
 20
1.692007874015748
 30
0.0
 10
2.076622047244094
 20
1.692007874015748
 30
0.0
 10
2.07503937007874
 20
1.693673228346457
 30
0.0
 10
2.074259842519685
 20
1.695811023622047
 30
0.0
 10
2.074259842519685
 20
1.698425196850394
 30
0.0
 10
2.074259842519685
 20
1.698425196850394
 30
0.0
 10
2.074259842519685
 20
1.70098031496063
 30
0.0
 10
2.075204724409449
 20
1.703200787401575
 30
0.0
 10
2.077094488188977
 20
1.705090551181103
 30
0.0
 10
2.077094488188977
 20
1.705090551181103
 30
0.0
 10
2.07898031496063
 20
1.707007874015748
 30
0.0
 10
2.081287401574803
 20
1.707952755905512
 30
0.0
 10
2.083925196850394
 20
1.707952755905512
 30
0.0
 10
2.083925196850394
 20
1.707952755905512
 30
0.0
 10
2.087622047244095
 20
1.707952755905512
 30
0.0
 10
2.090787401574803
 20
1.70648031496063
 30
0.0
 10
2.093425196850394
 20
1.703507874015748
 30
0.0
 10
2.093425196850394
 20
1.703507874015748
 30
0.0
 10
2.096035433070866
 20
1.700562992125984
 30
0.0
 10
2.097370078740158
 20
1.696755905511811
 30
0.0
 10
2.097370078740158
 20
1.692090551181102
 30
0.0
 10
2.097370078740158
 20
1.692090551181102
 30
0.0
 10
2.097370078740158
 20
1.689035433070866
 30
0.0
 10
2.096732283464567
 20
1.685838582677165
 30
0.0
 10
2.09548031496063
 20
1.682507874015748
 30
0.0
 10
2.09548031496063
 20
1.682507874015748
 30
0.0
 10
2.094232283464567
 20
1.679173228346457
 30
0.0
 10
2.092425196850394
 20
1.676090551181102
 30
0.0
 10
2.09003937007874
 20
1.673228346456693
 30
0.0
 10
2.09003937007874
 20
1.673228346456693
 30
0.0
 10
2.087649606299213
 20
1.670397637795276
 30
0.0
 10
2.082925196850394
 20
1.66598031496063
 30
0.0
 10
2.075870078740158
 20
1.660007874015748
 30
0.0
  0
SPLINE
  5
46
330
1F
100
AcDbEntity
  8
Layer 1
 62
   252
100
AcDbSpline
210
0.0
220
0.0
230
1.0
 70
    11
 71
     3
 72
    20
 73
    16
 74
     0
 42
0.0000000001
 43
0.0000000001
 40
0.0
 40
0.0
 40
0.0
 40
0.0
 40
0.25
 40
0.25
 40
0.25
 40
0.25
 40
0.5
 40
0.5
 40
0.5
 40
0.5
 40
0.75
 40
0.75
 40
0.75
 40
0.75
 40
1.0
 40
1.0
 40
1.0
 40
1.0
 10
1.30846062992126
 20
-1.567988188976378
 30
0.0
 10
1.30846062992126
 20
-1.567988188976378
 30
0.0
 10
1.954811023622047
 20
-1.207291338582677
 30
0.0
 10
1.954811023622047
 20
-1.207291338582677
 30
0.0
 10
1.954811023622047
 20
-1.207291338582677
 30
0.0
 10
1.954811023622047
 20
-1.207291338582677
 30
0.0
 10
2.048665354330709
 20
-1.129570866141732
 30
0.0
 10
2.048665354330709
 20
-1.129570866141732
 30
0.0
 10
2.048665354330709
 20
-1.129570866141732
 30
0.0
 10
2.048665354330709
 20
-1.129570866141732
 30
0.0
 10
1.402314960629921
 20
-1.490267716535433
 30
0.0
 10
1.402314960629921
 20
-1.490267716535433
 30
0.0
 10
1.402314960629921
 20
-1.490267716535433
 30
0.0
 10
1.402314960629921
 20
-1.490267716535433
 30
0.0
 10
1.30846062992126
 20
-1.567988188976378
 30
0.0
 10
1.30846062992126
 20
-1.567988188976378
 30
0.0
  0
SPLINE
  5
47
330
1F
100
AcDbEntity
  8
Layer 1
 62
   253
100
AcDbSpline
210
0.0
220
0.0
230
1.0
 70
    11
 71
     3
 72
    20
 73
    16
 74
     0
 42
0.0000000001
 43
0.0000000001
 40
0.0
 40
0.0
 40
0.0
 40
0.0
 40
0.25
 40
0.25
 40
0.25
 40
0.25
 40
0.5
 40
0.5
 40
0.5
 40
0.5
 40
0.75
 40
0.75
 40
0.75
 40
0.75
 40
1.0
 40
1.0
 40
1.0
 40
1.0
 10
1.402314960629921
 20
-1.490267716535433
 30
0.0
 10
1.402314960629921
 20
-1.490267716535433
 30
0.0
 10
2.048665354330709
 20
-1.129570866141732
 30
0.0
 10
2.048665354330709
 20
-1.129570866141732
 30
0.0
 10
2.048665354330709
 20
-1.129570866141732
 30
0.0
 10
2.048665354330709
 20
-1.129570866141732
 30
0.0
 10
2.123614173228347
 20
-1.048255905511811
 30
0.0
 10
2.123614173228347
 20
-1.048255905511811
 30
0.0
 10
2.123614173228347
 20
-1.048255905511811
 30
0.0
 10
2.123614173228347
 20
-1.048255905511811
 30
0.0
 10
1.477263779527559
 20
-1.408952755905512
 30
0.0
 10
1.477263779527559
 20
-1.408952755905512
 30
0.0
 10
1.477263779527559
 20
-1.408952755905512
 30
0.0
 10
1.477263779527559
 20
-1.408952755905512
 30
0.0
 10
1.402314960629921
 20
-1.490267716535433
 30
0.0
 10
1.402314960629921
 20
-1.490267716535433
 30
0.0
  0
SPLINE
  5
48
330
1F
100
AcDbEntity
  8
Layer 1
 62
   253
100
AcDbSpline
210
0.0
220
0.0
230
1.0
 70
    11
 71
     3
 72
    20
 73
    16
 74
     0
 42
0.0000000001
 43
0.0000000001
 40
0.0
 40
0.0
 40
0.0
 40
0.0
 40
0.25
 40
0.25
 40
0.25
 40
0.25
 40
0.5
 40
0.5
 40
0.5
 40
0.5
 40
0.75
 40
0.75
 40
0.75
 40
0.75
 40
1.0
 40
1.0
 40
1.0
 40
1.0
 10
1.477263779527559
 20
-1.408952755905512
 30
0.0
 10
1.477263779527559
 20
-1.408952755905512
 30
0.0
 10
2.123614173228347
 20
-1.048255905511811
 30
0.0
 10
2.123614173228347
 20
-1.048255905511811
 30
0.0
 10
2.123614173228347
 20
-1.048255905511811
 30
0.0
 10
2.123614173228347
 20
-1.048255905511811
 30
0.0
 10
2.180409448818898
 20
-0.963996062992126
 30
0.0
 10
2.180409448818898
 20
-0.963996062992126
 30
0.0
 10
2.180409448818898
 20
-0.963996062992126
 30
0.0
 10
2.180409448818898
 20
-0.963996062992126
 30
0.0
 10
1.53405905511811
 20
-1.324692913385827
 30
0.0
 10
1.53405905511811
 20
-1.324692913385827
 30
0.0
 10
1.53405905511811
 20
-1.324692913385827
 30
0.0
 10
1.53405905511811
 20
-1.324692913385827
 30
0.0
 10
1.477263779527559
 20
-1.408952755905512
 30
0.0
 10
1.477263779527559
 20
-1.408952755905512
 30
0.0
  0
SPLINE
  5
49
330
1F
100
AcDbEntity
  8
Layer 1
 62
   253
100
AcDbSpline
210
0.0
220
0.0
230
1.0
 70
    11
 71
     3
 72
    20
 73
    16
 74
     0
 42
0.0000000001
 43
0.0000000001
 40
0.0
 40
0.0
 40
0.0
 40
0.0
 40
0.25
 40
0.25
 40
0.25
 40
0.25
 40
0.5
 40
0.5
 40
0.5
 40
0.5
 40
0.75
 40
0.75
 40
0.75
 40
0.75
 40
1.0
 40
1.0
 40
1.0
 40
1.0
 10
1.53405905511811
 20
-1.324692913385827
 30
0.0
 10
1.53405905511811
 20
-1.324692913385827
 30
0.0
 10
2.180409448818898
 20
-0.963996062992126
 30
0.0
 10
2.180409448818898
 20
-0.963996062992126
 30
0.0
 10
2.180409448818898
 20
-0.963996062992126
 30
0.0
 10
2.180409448818898
 20
-0.963996062992126
 30
0.0
 10
2.219830708661418
 20
-0.8774685039370079
 30
0.0
 10
2.219830708661418
 20
-0.8774685039370079
 30
0.0
 10
2.219830708661418
 20
-0.8774685039370079
 30
0.0
 10
2.219830708661418
 20
-0.8774685039370079
 30
0.0
 10
1.57348031496063
 20
-1.238165354330709
 30
0.0
 10
1.57348031496063
 20
-1.238165354330709
 30
0.0
 10
1.57348031496063
 20
-1.238165354330709
 30
0.0
 10
1.57348031496063
 20
-1.238165354330709
 30
0.0
 10
1.53405905511811
 20
-1.324692913385827
 30
0.0
 10
1.53405905511811
 20
-1.324692913385827
 30
0.0
  0
SPLINE
  5
4A
330
1F
100
AcDbEntity
  8
Layer 1
 62
   253
100
AcDbSpline
210
0.0
220
0.0
230
1.0
 70
    11
 71
     3
 72
    20
 73
    16
 74
     0
 42
0.0000000001
 43
0.0000000001
 40
0.0
 40
0.0
 40
0.0
 40
0.0
 40
0.25
 40
0.25
 40
0.25
 40
0.25
 40
0.5
 40
0.5
 40
0.5
 40
0.5
 40
0.75
 40
0.75
 40
0.75
 40
0.75
 40
1.0
 40
1.0
 40
1.0
 40
1.0
 10
1.57348031496063
 20
-1.238165354330709
 30
0.0
 10
1.57348031496063
 20
-1.238165354330709
 30
0.0
 10
2.219830708661418
 20
-0.8774685039370079
 30
0.0
 10
2.219830708661418
 20
-0.8774685039370079
 30
0.0
 10
2.219830708661418
 20
-0.8774685039370079
 30
0.0
 10
2.219830708661418
 20
-0.8774685039370079
 30
0.0
 10
2.242641732283465
 20
-0.7893267716535434
 30
0.0
 10
2.242641732283465
 20
-0.7893267716535434
 30
0.0
 10
2.242641732283465
 20
-0.7893267716535434
 30
0.0
 10
2.242641732283465
 20
-0.7893267716535434
 30
0.0
 10
1.596291338582677
 20
-1.150023622047244
 30
0.0
 10
1.596291338582677
 20
-1.150023622047244
 30
0.0
 10
1.596291338582677
 20
-1.150023622047244
 30
0.0
 10
1.596291338582677
 20
-1.150023622047244
 30
0.0
 10
1.57348031496063
 20
-1.238165354330709
 30
0.0
 10
1.57348031496063
 20
-1.238165354330709
 30
0.0
  0
SPLINE
  5
4B
330
1F
100
AcDbEntity
  8
Layer 1
 62
   253
100
AcDbSpline
210
0.0
220
0.0
230
1.0
 70
    11
 71
     3
 72
    20
 73
    16
 74
     0
 42
0.0000000001
 43
0.0000000001
 40
0.0
 40
0.0
 40
0.0
 40
0.0
 40
0.25
 40
0.25
 40
0.25
 40
0.25
 40
0.5
 40
0.5
 40
0.5
 40
0.5
 40
0.75
 40
0.75
 40
0.75
 40
0.75
 40
1.0
 40
1.0
 40
1.0
 40
1.0
 10
1.596291338582677
 20
-1.150023622047244
 30
0.0
 10
1.596291338582677
 20
-1.150023622047244
 30
0.0
 10
2.242641732283465
 20
-0.7893267716535434
 30
0.0
 10
2.242641732283465
 20
-0.7893267716535434
 30
0.0
 10
2.242641732283465
 20
-0.7893267716535434
 30
0.0
 10
2.242641732283465
 20
-0.7893267716535434
 30
0.0
 10
2.249622047244094
 20
-0.700240157480315
 30
0.0
 10
2.249622047244094
 20
-0.700240157480315
 30
0.0
 10
2.249622047244094
 20
-0.700240157480315
 30
0.0
 10
2.249622047244094
 20
-0.700240157480315
 30
0.0
 10
1.603271653543307
 20
-1.060937007874016
 30
0.0
 10
1.603271653543307
 20
-1.060937007874016
 30
0.0
 10
1.603271653543307
 20
-1.060937007874016
 30
0.0
 10
1.603271653543307
 20
-1.060937007874016
 30
0.0
 10
1.596291338582677
 20
-1.150023622047244
 30
0.0
 10
1.596291338582677
 20
-1.150023622047244
 30
0.0
  0
SPLINE
  5
4C
330
1F
100
AcDbEntity
  8
Layer 1
 62
   253
100
AcDbSpline
210
0.0
220
0.0
230
1.0
 70
    11
 71
     3
 72
    20
 73
    16
 74
     0
 42
0.0000000001
 43
0.0000000001
 40
0.0
 40
0.0
 40
0.0
 40
0.0
 40
0.25
 40
0.25
 40
0.25
 40
0.25
 40
0.5
 40
0.5
 40
0.5
 40
0.5
 40
0.75
 40
0.75
 40
0.75
 40
0.75
 40
1.0
 40
1.0
 40
1.0
 40
1.0
 10
1.603271653543307
 20
-1.060937007874016
 30
0.0
 10
1.603271653543307
 20
-1.060937007874016
 30
0.0
 10
2.249622047244094
 20
-0.700240157480315
 30
0.0
 10
2.249622047244094
 20
-0.700240157480315
 30
0.0
 10
2.249622047244094
 20
-0.700240157480315
 30
0.0
 10
2.249622047244094
 20
-0.700240157480315
 30
0.0
 10
2.24151968503937
 20
-0.6108503937007874
 30
0.0
 10
2.24151968503937
 20
-0.6108503937007874
 30
0.0
 10
2.24151968503937
 20
-0.6108503937007874
 30
0.0
 10
2.24151968503937
 20
-0.6108503937007874
 30
0.0
 10
1.595169291338583
 20
-0.9715472440944882
 30
0.0
 10
1.595169291338583
 20
-0.9715472440944882
 30
0.0
 10
1.595169291338583
 20
-0.9715472440944882
 30
0.0
 10
1.595169291338583
 20
-0.9715472440944882
 30
0.0
 10
1.603271653543307
 20
-1.060937007874016
 30
0.0
 10
1.603271653543307
 20
-1.060937007874016
 30
0.0
  0
SPLINE
  5
4D
330
1F
100
AcDbEntity
  8
Layer 1
 62
   253
100
AcDbSpline
210
0.0
220
0.0
230
1.0
 70
    11
 71
     3
 72
    20
 73
    16
 74
     0
 42
0.0000000001
 43
0.0000000001
 40
0.0
 40
0.0
 40
0.0
 40
0.0
 40
0.25
 40
0.25
 40
0.25
 40
0.25
 40
0.5
 40
0.5
 40
0.5
 40
0.5
 40
0.75
 40
0.75
 40
0.75
 40
0.75
 40
1.0
 40
1.0
 40
1.0
 40
1.0
 10
1.595169291338583
 20
-0.9715472440944882
 30
0.0
 10
1.595169291338583
 20
-0.9715472440944882
 30
0.0
 10
2.24151968503937
 20
-0.6108503937007874
 30
0.0
 10
2.24151968503937
 20
-0.6108503937007874
 30
0.0
 10
2.24151968503937
 20
-0.6108503937007874
 30
0.0
 10
2.24151968503937
 20
-0.6108503937007874
 30
0.0
 10
2.219122047244095
 20
-0.5218425196850394
 30
0.0
 10
2.219122047244095
 20
-0.5218425196850394
 30
0.0
 10
2.219122047244095
 20
-0.5218425196850394
 30
0.0
 10
2.219122047244095
 20
-0.5218425196850394
 30
0.0
 10
1.572771653543307
 20
-0.8825393700787402
 30
0.0
 10
1.572771653543307
 20
-0.8825393700787402
 30
0.0
 10
1.572771653543307
 20
-0.8825393700787402
 30
0.0
 10
1.572771653543307
 20
-0.8825393700787402
 30
0.0
 10
1.595169291338583
 20
-0.9715472440944882
 30
0.0
 10
1.595169291338583
 20
-0.9715472440944882
 30
0.0
  0
SPLINE
  5
4E
330
1F
100
AcDbEntity
  8
Layer 1
 62
   253
100
AcDbSpline
210
0.0
220
0.0
230
1.0
 70
    11
 71
     3
 72
    20
 73
    16
 74
     0
 42
0.0000000001
 43
0.0000000001
 40
0.0
 40
0.0
 40
0.0
 40
0.0
 40
0.25
 40
0.25
 40
0.25
 40
0.25
 40
0.5
 40
0.5
 40
0.5
 40
0.5
 40
0.75
 40
0.75
 40
0.75
 40
0.75
 40
1.0
 40
1.0
 40
1.0
 40
1.0
 10
1.572771653543307
 20
-0.8825393700787402
 30
0.0
 10
1.572771653543307
 20
-0.8825393700787402
 30
0.0
 10
2.219122047244095
 20
-0.5218425196850394
 30
0.0
 10
2.219122047244095
 20
-0.5218425196850394
 30
0.0
 10
2.219122047244095
 20
-0.5218425196850394
 30
0.0
 10
2.219122047244095
 20
-0.5218425196850394
 30
0.0
 10
2.183188976377953
 20
-0.4338622047244095
 30
0.0
 10
2.183188976377953
 20
-0.4338622047244095
 30
0.0
 10
2.183188976377953
 20
-0.4338622047244095
 30
0.0
 10
2.183188976377953
 20
-0.4338622047244095
 30
0.0
 10
1.536838582677165
 20
-0.7945590551181103
 30
0.0
 10
1.536838582677165
 20
-0.7945590551181103
 30
0.0
 10
1.536838582677165
 20
-0.7945590551181103
 30
0.0
 10
1.536838582677165
 20
-0.7945590551181103
 30
0.0
 10
1.572771653543307
 20
-0.8825393700787402
 30
0.0
 10
1.572771653543307
 20
-0.8825393700787402
 30
0.0
  0
SPLINE
  5
4F
330
1F
100
AcDbEntity
  8
Layer 1
 62
   253
100
AcDbSpline
210
0.0
220
0.0
230
1.0
 70
    11
 71
     3
 72
    20
 73
    16
 74
     0
 42
0.0000000001
 43
0.0000000001
 40
0.0
 40
0.0
 40
0.0
 40
0.0
 40
0.25
 40
0.25
 40
0.25
 40
0.25
 40
0.5
 40
0.5
 40
0.5
 40
0.5
 40
0.75
 40
0.75
 40
0.75
 40
0.75
 40
1.0
 40
1.0
 40
1.0
 40
1.0
 10
1.536838582677165
 20
-0.7945590551181103
 30
0.0
 10
1.536838582677165
 20
-0.7945590551181103
 30
0.0
 10
2.183188976377953
 20
-0.4338622047244095
 30
0.0
 10
2.183188976377953
 20
-0.4338622047244095
 30
0.0
 10
2.183188976377953
 20
-0.4338622047244095
 30
0.0
 10
2.183188976377953
 20
-0.4338622047244095
 30
0.0
 10
2.1345
 20
-0.3475866141732283
 30
0.0
 10
2.1345
 20
-0.3475866141732283
 30
0.0
 10
2.1345
 20
-0.3475866141732283
 30
0.0
 10
2.1345
 20
-0.3475866141732283
 30
0.0
 10
1.488149606299213
 20
-0.7082834645669291
 30
0.0
 10
1.488149606299213
 20
-0.7082834645669291
 30
0.0
 10
1.488149606299213
 20
-0.7082834645669291
 30
0.0
 10
1.488149606299213
 20
-0.7082834645669291
 30
0.0
 10
1.536838582677165
 20
-0.7945590551181103
 30
0.0
 10
1.536838582677165
 20
-0.7945590551181103
 30
0.0
  0
SPLINE
  5
50
330
1F
100
AcDbEntity
  8
Layer 1
 62
   253
100
AcDbSpline
210
0.0
220
0.0
230
1.0
 70
    11
 71
     3
 72
    20
 73
    16
 74
     0
 42
0.0000000001
 43
0.0000000001
 40
0.0
 40
0.0
 40
0.0
 40
0.0
 40
0.25
 40
0.25
 40
0.25
 40
0.25
 40
0.5
 40
0.5
 40
0.5
 40
0.5
 40
0.75
 40
0.75
 40
0.75
 40
0.75
 40
1.0
 40
1.0
 40
1.0
 40
1.0
 10
1.488149606299213
 20
-0.7082834645669291
 30
0.0
 10
1.488149606299213
 20
-0.7082834645669291
 30
0.0
 10
2.1345
 20
-0.3475866141732283
 30
0.0
 10
2.1345
 20
-0.3475866141732283
 30
0.0
 10
2.1345
 20
-0.3475866141732283
 30
0.0
 10
2.1345
 20
-0.3475866141732283
 30
0.0
 10
2.073807086614173
 20
-0.2636614173228347
 30
0.0
 10
2.073807086614173
 20
-0.2636614173228347
 30
0.0
 10
2.073807086614173
 20
-0.2636614173228347
 30
0.0
 10
2.073807086614173
 20
-0.2636614173228347
 30
0.0
 10
1.427456692913386
 20
-0.6243582677165355
 30
0.0
 10
1.427456692913386
 20
-0.6243582677165355
 30
0.0
 10
1.427456692913386
 20
-0.6243582677165355
 30
0.0
 10
1.427456692913386
 20
-0.6243582677165355
 30
0.0
 10
1.488149606299213
 20
-0.7082834645669291
 30
0.0
 10
1.488149606299213
 20
-0.7082834645669291
 30
0.0
  0
SPLINE
  5
51
330
1F
100
AcDbEntity
  8
Layer 1
 62
   253
100
AcDbSpline
210
0.0
220
0.0
230
1.0
 70
    11
 71
     3
 72
    20
 73
    16
 74
     0
 42
0.0000000001
 43
0.0000000001
 40
0.0
 40
0.0
 40
0.0
 40
0.0
 40
0.25
 40
0.25
 40
0.25
 40
0.25
 40
0.5
 40
0.5
 40
0.5
 40
0.5
 40
0.75
 40
0.75
 40
0.75
 40
0.75
 40
1.0
 40
1.0
 40
1.0
 40
1.0
 10
1.427456692913386
 20
-0.6243582677165355
 30
0.0
 10
1.427456692913386
 20
-0.6243582677165355
 30
0.0
 10
2.073807086614173
 20
-0.2636614173228347
 30
0.0
 10
2.073807086614173
 20
-0.2636614173228347
 30
0.0
 10
2.073807086614173
 20
-0.2636614173228347
 30
0.0
 10
2.073807086614173
 20
-0.2636614173228347
 30
0.0
 10
2.001897637795276
 20
-0.1827598425196851
 30
0.0
 10
2.001897637795276
 20
-0.1827598425196851
 30
0.0
 10
2.001897637795276
 20
-0.1827598425196851
 30
0.0
 10
2.001897637795276
 20
-0.1827598425196851
 30
0.0
 10
1.355547244094488
 20
-0.5434566929133858
 30
0.0
 10
1.355547244094488
 20
-0.5434566929133858
 30
0.0
 10
1.355547244094488
 20
-0.5434566929133858
 30
0.0
 10
1.355547244094488
 20
-0.5434566929133858
 30
0.0
 10
1.427456692913386
 20
-0.6243582677165355
 30
0.0
 10
1.427456692913386
 20
-0.6243582677165355
 30
0.0
  0
SPLINE
  5
52
330
1F
100
AcDbEntity
  8
Layer 1
 62
   252
100
AcDbSpline
210
0.0
220
0.0
230
1.0
 70
    11
 71
     3
 72
    20
 73
    16
 74
     0
 42
0.0000000001
 43
0.0000000001
 40
0.0
 40
0.0
 40
0.0
 40
0.0
 40
0.25
 40
0.25
 40
0.25
 40
0.25
 40
0.5
 40
0.5
 40
0.5
 40
0.5
 40
0.75
 40
0.75
 40
0.75
 40
0.75
 40
1.0
 40
1.0
 40
1.0
 40
1.0
 10
1.355547244094488
 20
-0.5434566929133858
 30
0.0
 10
1.355547244094488
 20
-0.5434566929133858
 30
0.0
 10
2.001897637795276
 20
-0.1827598425196851
 30
0.0
 10
2.001897637795276
 20
-0.1827598425196851
 30
0.0
 10
2.001897637795276
 20
-0.1827598425196851
 30
0.0
 10
2.001897637795276
 20
-0.1827598425196851
 30
0.0
 10
1.919527559055118
 20
-0.1055393700787402
 30
0.0
 10
1.919527559055118
 20
-0.1055393700787402
 30
0.0
 10
1.919527559055118
 20
-0.1055393700787402
 30
0.0
 10
1.919527559055118
 20
-0.1055393700787402
 30
0.0
 10
1.273177165354331
 20
-0.466236220472441
 30
0.0
 10
1.273177165354331
 20
-0.466236220472441
 30
0.0
 10
1.273177165354331
 20
-0.466236220472441
 30
0.0
 10
1.273177165354331
 20
-0.466236220472441
 30
0.0
 10
1.355547244094488
 20
-0.5434566929133858
 30
0.0
 10
1.355547244094488
 20
-0.5434566929133858
 30
0.0
  0
SPLINE
  5
53
330
1F
100
AcDbEntity
  8
Layer 1
 62
   252
100
AcDbSpline
210
0.0
220
0.0
230
1.0
 70
    11
 71
     3
 72
    20
 73
    16
 74
     0
 42
0.0000000001
 43
0.0000000001
 40
0.0
 40
0.0
 40
0.0
 40
0.0
 40
0.25
 40
0.25
 40
0.25
 40
0.25
 40
0.5
 40
0.5
 40
0.5
 40
0.5
 40
0.75
 40
0.75
 40
0.75
 40
0.75
 40
1.0
 40
1.0
 40
1.0
 40
1.0
 10
1.273177165354331
 20
-0.466236220472441
 30
0.0
 10
1.273177165354331
 20
-0.466236220472441
 30
0.0
 10
1.919527559055118
 20
-0.1055393700787402
 30
0.0
 10
1.919527559055118
 20
-0.1055393700787402
 30
0.0
 10
1.919527559055118
 20
-0.1055393700787402
 30
0.0
 10
1.919527559055118
 20
-0.1055393700787402
 30
0.0
 10
1.827476377952756
 20
-0.0326692913385827
 30
0.0
 10
1.827476377952756
 20
-0.0326692913385827
 30
0.0
 10
1.827476377952756
 20
-0.0326692913385827
 30
0.0
 10
1.827476377952756
 20
-0.0326692913385827
 30
0.0
 10
1.181125984251969
 20
-0.3933661417322835
 30
0.0
 10
1.181125984251969
 20
-0.3933661417322835
 30
0.0
 10
1.181125984251969
 20
-0.3933661417322835
 30
0.0
 10
1.181125984251969
 20
-0.3933661417322835
 30
0.0
 10
1.273177165354331
 20
-0.466236220472441
 30
0.0
 10
1.273177165354331
 20
-0.466236220472441
 30
0.0
  0
SPLINE
  5
54
330
1F
100
AcDbEntity
  8
Layer 1
 62
   252
100
AcDbSpline
210
0.0
220
0.0
230
1.0
 70
    11
 71
     3
 72
    20
 73
    16
 74
     0
 42
0.0000000001
 43
0.0000000001
 40
0.0
 40
0.0
 40
0.0
 40
0.0
 40
0.25
 40
0.25
 40
0.25
 40
0.25
 40
0.5
 40
0.5
 40
0.5
 40
0.5
 40
0.75
 40
0.75
 40
0.75
 40
0.75
 40
1.0
 40
1.0
 40
1.0
 40
1.0
 10
1.181125984251969
 20
-0.3933661417322835
 30
0.0
 10
1.181125984251969
 20
-0.3933661417322835
 30
0.0
 10
1.827476377952756
 20
-0.0326692913385827
 30
0.0
 10
1.827476377952756
 20
-0.0326692913385827
 30
0.0
 10
1.827476377952756
 20
-0.0326692913385827
 30
0.0
 10
1.827476377952756
 20
-0.0326692913385827
 30
0.0
 10
1.726496062992126
 20
0.0352047244094488
 30
0.0
 10
1.726496062992126
 20
0.0352047244094488
 30
0.0
 10
1.726496062992126
 20
0.0352047244094488
 30
0.0
 10
1.726496062992126
 20
0.0352047244094488
 30
0.0
 10
1.080145669291339
 20
-0.325492125984252
 30
0.0
 10
1.080145669291339
 20
-0.325492125984252
 30
0.0
 10
1.080145669291339
 20
-0.325492125984252
 30
0.0
 10
1.080145669291339
 20
-0.325492125984252
 30
0.0
 10
1.181125984251969
 20
-0.3933661417322835
 30
0.0
 10
1.181125984251969
 20
-0.3933661417322835
 30
0.0
  0
SPLINE
  5
55
330
1F
100
AcDbEntity
  8
Layer 1
 62
   252
100
AcDbSpline
210
0.0
220
0.0
230
1.0
 70
    11
 71
     3
 72
    20
 73
    16
 74
     0
 42
0.0000000001
 43
0.0000000001
 40
0.0
 40
0.0
 40
0.0
 40
0.0
 40
0.25
 40
0.25
 40
0.25
 40
0.25
 40
0.5
 40
0.5
 40
0.5
 40
0.5
 40
0.75
 40
0.75
 40
0.75
 40
0.75
 40
1.0
 40
1.0
 40
1.0
 40
1.0
 10
1.080145669291339
 20
-0.325492125984252
 30
0.0
 10
1.080145669291339
 20
-0.325492125984252
 30
0.0
 10
1.726496062992126
 20
0.0352047244094488
 30
0.0
 10
1.726496062992126
 20
0.0352047244094488
 30
0.0
 10
1.726496062992126
 20
0.0352047244094488
 30
0.0
 10
1.726496062992126
 20
0.0352047244094488
 30
0.0
 10
1.617374015748032
 20
0.0974055118110236
 30
0.0
 10
1.617374015748032
 20
0.0974055118110236
 30
0.0
 10
1.617374015748032
 20
0.0974055118110236
 30
0.0
 10
1.617374015748032
 20
0.0974055118110236
 30
0.0
 10
0.9710236220472441
 20
-0.2632913385826772
 30
0.0
 10
0.9710236220472441
 20
-0.2632913385826772
 30
0.0
 10
0.9710236220472441
 20
-0.2632913385826772
 30
0.0
 10
0.9710236220472441
 20
-0.2632913385826772
 30
0.0
 10
1.080145669291339
 20
-0.325492125984252
 30
0.0
 10
1.080145669291339
 20
-0.325492125984252
 30
0.0
  0
SPLINE
  5
56
330
1F
100
AcDbEntity
  8
Layer 1
 62
   252
100
AcDbSpline
210
0.0
220
0.0
230
1.0
 70
    11
 71
     3
 72
    20
 73
    16
 74
     0
 42
0.0000000001
 43
0.0000000001
 40
0.0
 40
0.0
 40
0.0
 40
0.0
 40
0.25
 40
0.25
 40
0.25
 40
0.25
 40
0.5
 40
0.5
 40
0.5
 40
0.5
 40
0.75
 40
0.75
 40
0.75
 40
0.75
 40
1.0
 40
1.0
 40
1.0
 40
1.0
 10
0.9710236220472441
 20
-0.2632913385826772
 30
0.0
 10
0.9710236220472441
 20
-0.2632913385826772
 30
0.0
 10
1.617374015748032
 20
0.0974055118110236
 30
0.0
 10
1.617374015748032
 20
0.0974055118110236
 30
0.0
 10
1.617374015748032
 20
0.0974055118110236
 30
0.0
 10
1.617374015748032
 20
0.0974055118110236
 30
0.0
 10
1.500866141732284
 20
0.1532795275590551
 30
0.0
 10
1.500866141732284
 20
0.1532795275590551
 30
0.0
 10
1.500866141732284
 20
0.1532795275590551
 30
0.0
 10
1.500866141732284
 20
0.1532795275590551
 30
0.0
 10
0.8545157480314961
 20
-0.2074173228346457
 30
0.0
 10
0.8545157480314961
 20
-0.2074173228346457
 30
0.0
 10
0.8545157480314961
 20
-0.2074173228346457
 30
0.0
 10
0.8545157480314961
 20
-0.2074173228346457
 30
0.0
 10
0.9710236220472441
 20
-0.2632913385826772
 30
0.0
 10
0.9710236220472441
 20
-0.2632913385826772
 30
0.0
  0
SPLINE
  5
57
330
1F
100
AcDbEntity
  8
Layer 1
 62
   252
100
AcDbSpline
210
0.0
220
0.0
230
1.0
 70
    11
 71
     3
 72
    20
 73
    16
 74
     0
 42
0.0000000001
 43
0.0000000001
 40
0.0
 40
0.0
 40
0.0
 40
0.0
 40
0.25
 40
0.25
 40
0.25
 40
0.25
 40
0.5
 40
0.5
 40
0.5
 40
0.5
 40
0.75
 40
0.75
 40
0.75
 40
0.75
 40
1.0
 40
1.0
 40
1.0
 40
1.0
 10
0.8545157480314961
 20
-0.2074173228346457
 30
0.0
 10
0.8545157480314961
 20
-0.2074173228346457
 30
0.0
 10
1.500866141732284
 20
0.1532795275590551
 30
0.0
 10
1.500866141732284
 20
0.1532795275590551
 30
0.0
 10
1.500866141732284
 20
0.1532795275590551
 30
0.0
 10
1.500866141732284
 20
0.1532795275590551
 30
0.0
 10
1.377755905511811
 20
0.2021574803149606
 30
0.0
 10
1.377755905511811
 20
0.2021574803149606
 30
0.0
 10
1.377755905511811
 20
0.2021574803149606
 30
0.0
 10
1.377755905511811
 20
0.2021574803149606
 30
0.0
 10
0.7314055118110237
 20
-0.1585393700787402
 30
0.0
 10
0.7314055118110237
 20
-0.1585393700787402
 30
0.0
 10
0.7314055118110237
 20
-0.1585393700787402
 30
0.0
 10
0.7314055118110237
 20
-0.1585393700787402
 30
0.0
 10
0.8545157480314961
 20
-0.2074173228346457
 30
0.0
 10
0.8545157480314961
 20
-0.2074173228346457
 30
0.0
  0
SPLINE
  5
58
330
1F
100
AcDbEntity
  8
Layer 1
 62
   252
100
AcDbSpline
210
0.0
220
0.0
230
1.0
 70
    11
 71
     3
 72
    20
 73
    16
 74
     0
 42
0.0000000001
 43
0.0000000001
 40
0.0
 40
0.0
 40
0.0
 40
0.0
 40
0.25
 40
0.25
 40
0.25
 40
0.25
 40
0.5
 40
0.5
 40
0.5
 40
0.5
 40
0.75
 40
0.75
 40
0.75
 40
0.75
 40
1.0
 40
1.0
 40
1.0
 40
1.0
 10
0.7314055118110237
 20
-0.1585393700787402
 30
0.0
 10
0.7314055118110237
 20
-0.1585393700787402
 30
0.0
 10
1.377755905511811
 20
0.2021574803149606
 30
0.0
 10
1.377755905511811
 20
0.2021574803149606
 30
0.0
 10
1.377755905511811
 20
0.2021574803149606
 30
0.0
 10
1.377755905511811
 20
0.2021574803149606
 30
0.0
 10
1.248795275590551
 20
0.2433858267716536
 30
0.0
 10
1.248795275590551
 20
0.2433858267716536
 30
0.0
 10
1.248795275590551
 20
0.2433858267716536
 30
0.0
 10
1.248795275590551
 20
0.2433858267716536
 30
0.0
 10
0.6024448818897638
 20
-0.1173110236220473
 30
0.0
 10
0.6024448818897638
 20
-0.1173110236220473
 30
0.0
 10
0.6024448818897638
 20
-0.1173110236220473
 30
0.0
 10
0.6024448818897638
 20
-0.1173110236220473
 30
0.0
 10
0.7314055118110237
 20
-0.1585393700787402
 30
0.0
 10
0.7314055118110237
 20
-0.1585393700787402
 30
0.0
  0
SPLINE
  5
59
330
1F
100
AcDbEntity
  8
Layer 1
 62
   252
100
AcDbSpline
210
0.0
220
0.0
230
1.0
 70
    11
 71
     3
 72
    20
 73
    16
 74
     0
 42
0.0000000001
 43
0.0000000001
 40
0.0
 40
0.0
 40
0.0
 40
0.0
 40
0.25
 40
0.25
 40
0.25
 40
0.25
 40
0.5
 40
0.5
 40
0.5
 40
0.5
 40
0.75
 40
0.75
 40
0.75
 40
0.75
 40
1.0
 40
1.0
 40
1.0
 40
1.0
 10
0.6024448818897638
 20
-0.1173110236220473
 30
0.0
 10
0.6024448818897638
 20
-0.1173110236220473
 30
0.0
 10
1.248795275590551
 20
0.2433858267716536
 30
0.0
 10
1.248795275590551
 20
0.2433858267716536
 30
0.0
 10
1.248795275590551
 20
0.2433858267716536
 30
0.0
 10
1.248795275590551
 20
0.2433858267716536
 30
0.0
 10
1.114767716535433
 20
0.2762992125984252
 30
0.0
 10
1.114767716535433
 20
0.2762992125984252
 30
0.0
 10
1.114767716535433
 20
0.2762992125984252
 30
0.0
 10
1.114767716535433
 20
0.2762992125984252
 30
0.0
 10
0.4684173228346457
 20
-0.0843976377952756
 30
0.0
 10
0.4684173228346457
 20
-0.0843976377952756
 30
0.0
 10
0.4684173228346457
 20
-0.0843976377952756
 30
0.0
 10
0.4684173228346457
 20
-0.0843976377952756
 30
0.0
 10
0.6024448818897638
 20
-0.1173110236220473
 30
0.0
 10
0.6024448818897638
 20
-0.1173110236220473
 30
0.0
  0
SPLINE
  5
5A
330
1F
100
AcDbEntity
  8
Layer 1
 62
   252
100
AcDbSpline
210
0.0
220
0.0
230
1.0
 70
    11
 71
     3
 72
    20
 73
    16
 74
     0
 42
0.0000000001
 43
0.0000000001
 40
0.0
 40
0.0
 40
0.0
 40
0.0
 40
0.25
 40
0.25
 40
0.25
 40
0.25
 40
0.5
 40
0.5
 40
0.5
 40
0.5
 40
0.75
 40
0.75
 40
0.75
 40
0.75
 40
1.0
 40
1.0
 40
1.0
 40
1.0
 10
0.4684173228346457
 20
-0.0843976377952756
 30
0.0
 10
0.4684173228346457
 20
-0.0843976377952756
 30
0.0
 10
1.114767716535433
 20
0.2762992125984252
 30
0.0
 10
1.114767716535433
 20
0.2762992125984252
 30
0.0
 10
1.114767716535433
 20
0.2762992125984252
 30
0.0
 10
1.114767716535433
 20
0.2762992125984252
 30
0.0
 10
0.9764330708661417
 20
0.300236220472441
 30
0.0
 10
0.9764330708661417
 20
0.300236220472441
 30
0.0
 10
0.9764330708661417
 20
0.300236220472441
 30
0.0
 10
0.9764330708661417
 20
0.300236220472441
 30
0.0
 10
0.3300826771653543
 20
-0.0604606299212598
 30
0.0
 10
0.3300826771653543
 20
-0.0604606299212598
 30
0.0
 10
0.3300826771653543
 20
-0.0604606299212598
 30
0.0
 10
0.3300826771653543
 20
-0.0604606299212598
 30
0.0
 10
0.4684173228346457
 20
-0.0843976377952756
 30
0.0
 10
0.4684173228346457
 20
-0.0843976377952756
 30
0.0
  0
SPLINE
  5
5B
330
1F
100
AcDbEntity
  8
Layer 1
 62
   252
100
AcDbSpline
210
0.0
220
0.0
230
1.0
 70
    11
 71
     3
 72
    20
 73
    16
 74
     0
 42
0.0000000001
 43
0.0000000001
 40
0.0
 40
0.0
 40
0.0
 40
0.0
 40
0.25
 40
0.25
 40
0.25
 40
0.25
 40
0.5
 40
0.5
 40
0.5
 40
0.5
 40
0.75
 40
0.75
 40
0.75
 40
0.75
 40
1.0
 40
1.0
 40
1.0
 40
1.0
 10
0.3300826771653543
 20
-0.0604606299212598
 30
0.0
 10
0.3300826771653543
 20
-0.0604606299212598
 30
0.0
 10
0.9764330708661417
 20
0.300236220472441
 30
0.0
 10
0.9764330708661417
 20
0.300236220472441
 30
0.0
 10
0.9764330708661417
 20
0.300236220472441
 30
0.0
 10
0.9764330708661417
 20
0.300236220472441
 30
0.0
 10
0.8345669291338583
 20
0.3145275590551181
 30
0.0
 10
0.8345669291338583
 20
0.3145275590551181
 30
0.0
 10
0.8345669291338583
 20
0.3145275590551181
 30
0.0
 10
0.8345669291338583
 20
0.3145275590551181
 30
0.0
 10
0.1882165354330709
 20
-0.0461692913385827
 30
0.0
 10
0.1882165354330709
 20
-0.0461692913385827
 30
0.0
 10
0.1882165354330709
 20
-0.0461692913385827
 30
0.0
 10
0.1882165354330709
 20
-0.0461692913385827
 30
0.0
 10
0.3300826771653543
 20
-0.0604606299212598
 30
0.0
 10
0.3300826771653543
 20
-0.0604606299212598
 30
0.0
  0
SPLINE
  5
5C
330
1F
100
AcDbEntity
  8
Layer 1
 62
   250
370
     5
100
AcDbSpline
210
0.0
220
0.0
230
1.0
 70
    11
 71
     3
 72
   188
 73
   184
 74
     0
 42
0.0000000001
 43
0.0000000001
 40
0.0
 40
0.0
 40
0.0
 40
0.0
 40
0.0217391304347826
 40
0.0217391304347826
 40
0.0217391304347826
 40
0.0217391304347826
 40
0.0434782608695652
 40
0.0434782608695652
 40
0.0434782608695652
 40
0.0434782608695652
 40
0.0652173913043478
 40
0.0652173913043478
 40
0.0652173913043478
 40
0.0652173913043478
 40
0.0869565217391304
 40
0.0869565217391304
 40
0.0869565217391304
 40
0.0869565217391304
 40
0.108695652173913
 40
0.108695652173913
 40
0.108695652173913
 40
0.108695652173913
 40
0.1304347826086957
 40
0.1304347826086957
 40
0.1304347826086957
 40
0.1304347826086957
 40
0.1521739130434783
 40
0.1521739130434783
 40
0.1521739130434783
 40
0.1521739130434783
 40
0.1739130434782609
 40
0.1739130434782609
 40
0.1739130434782609
 40
0.1739130434782609
 40
0.1956521739130435
 40
0.1956521739130435
 40
0.1956521739130435
 40
0.1956521739130435
 40
0.2173913043478261
 40
0.2173913043478261
 40
0.2173913043478261
 40
0.2173913043478261
 40
0.2391304347826087
 40
0.2391304347826087
 40
0.2391304347826087
 40
0.2391304347826087
 40
0.2608695652173912
 40
0.2608695652173912
 40
0.2608695652173912
 40
0.2608695652173912
 40
0.2826086956521738
 40
0.2826086956521738
 40
0.2826086956521738
 40
0.2826086956521738
 40
0.3043478260869564
 40
0.3043478260869564
 40
0.3043478260869564
 40
0.3043478260869564
 40
0.326086956521739
 40
0.326086956521739
 40
0.326086956521739
 40
0.326086956521739
 40
0.3478260869565216
 40
0.3478260869565216
 40
0.3478260869565216
 40
0.3478260869565216
 40
0.3695652173913042
 40
0.3695652173913042
 40
0.3695652173913042
 40
0.3695652173913042
 40
0.3913043478260868
 40
0.3913043478260868
 40
0.3913043478260868
 40
0.3913043478260868
 40
0.4130434782608694
 40
0.4130434782608694
 40
0.4130434782608694
 40
0.4130434782608694
 40
0.434782608695652
 40
0.434782608695652
 40
0.434782608695652
 40
0.434782608695652
 40
0.4565217391304346
 40
0.4565217391304346
 40
0.4565217391304346
 40
0.4565217391304346
 40
0.4782608695652172
 40
0.4782608695652172
 40
0.4782608695652172
 40
0.4782608695652172
 40
0.4999999999999998
 40
0.4999999999999998
 40
0.4999999999999998
 40
0.4999999999999998
 40
0.5217391304347824
 40
0.5217391304347824
 40
0.5217391304347824
 40
0.5217391304347824
 40
0.543478260869565
 40
0.543478260869565
 40
0.543478260869565
 40
0.543478260869565
 40
0.5652173913043476
 40
0.5652173913043476
 40
0.5652173913043476
 40
0.5652173913043476
 40
0.5869565217391302
 40
0.5869565217391302
 40
0.5869565217391302
 40
0.5869565217391302
 40
0.6086956521739128
 40
0.6086956521739128
 40
0.6086956521739128
 40
0.6086956521739128
 40
0.6304347826086953
 40
0.6304347826086953
 40
0.6304347826086953
 40
0.6304347826086953
 40
0.6521739130434779
 40
0.6521739130434779
 40
0.6521739130434779
 40
0.6521739130434779
 40
0.6739130434782605
 40
0.6739130434782605
 40
0.6739130434782605
 40
0.6739130434782605
 40
0.6956521739130431
 40
0.6956521739130431
 40
0.6956521739130431
 40
0.6956521739130431
 40
0.7173913043478257
 40
0.7173913043478257
 40
0.7173913043478257
 40
0.7173913043478257
 40
0.7391304347826083
 40
0.7391304347826083
 40
0.7391304347826083
 40
0.7391304347826083
 40
0.7608695652173909
 40
0.7608695652173909
 40
0.7608695652173909
 40
0.7608695652173909
 40
0.7826086956521735
 40
0.7826086956521735
 40
0.7826086956521735
 40
0.7826086956521735
 40
0.8043478260869561
 40
0.8043478260869561
 40
0.8043478260869561
 40
0.8043478260869561
 40
0.8260869565217387
 40
0.8260869565217387
 40
0.8260869565217387
 40
0.8260869565217387
 40
0.8478260869565213
 40
0.8478260869565213
 40
0.8478260869565213
 40
0.8478260869565213
 40
0.8695652173913039
 40
0.8695652173913039
 40
0.8695652173913039
 40
0.8695652173913039
 40
0.8913043478260865
 40
0.8913043478260865
 40
0.8913043478260865
 40
0.8913043478260865
 40
0.9130434782608691
 40
0.9130434782608691
 40
0.9130434782608691
 40
0.9130434782608691
 40
0.9347826086956517
 40
0.9347826086956517
 40
0.9347826086956517
 40
0.9347826086956517
 40
0.9565217391304343
 40
0.9565217391304343
 40
0.9565217391304343
 40
0.9565217391304343
 40
0.9782608695652169
 40
0.9782608695652169
 40
0.9782608695652169
 40
0.9782608695652169
 40
1.0
 40
1.0
 40
1.0
 40
1.0
 10
1.30846062992126
 20
-1.567988188976378
 30
0.0
 10
1.30846062992126
 20
-1.567988188976378
 30
0.0
 10
1.954811023622047
 20
-1.207291338582677
 30
0.0
 10
1.954811023622047
 20
-1.207291338582677
 30
0.0
 10
1.954811023622047
 20
-1.207291338582677
 30
0.0
 10
1.954811023622047
 20
-1.207291338582677
 30
0.0
 10
2.048665354330709
 20
-1.129570866141732
 30
0.0
 10
2.048665354330709
 20
-1.129570866141732
 30
0.0
 10
2.048665354330709
 20
-1.129570866141732
 30
0.0
 10
2.048665354330709
 20
-1.129570866141732
 30
0.0
 10
2.123614173228347
 20
-1.048255905511811
 30
0.0
 10
2.123614173228347
 20
-1.048255905511811
 30
0.0
 10
2.123614173228347
 20
-1.048255905511811
 30
0.0
 10
2.123614173228347
 20
-1.048255905511811
 30
0.0
 10
2.180409448818898
 20
-0.963996062992126
 30
0.0
 10
2.180409448818898
 20
-0.963996062992126
 30
0.0
 10
2.180409448818898
 20
-0.963996062992126
 30
0.0
 10
2.180409448818898
 20
-0.963996062992126
 30
0.0
 10
2.219830708661418
 20
-0.8774685039370079
 30
0.0
 10
2.219830708661418
 20
-0.8774685039370079
 30
0.0
 10
2.219830708661418
 20
-0.8774685039370079
 30
0.0
 10
2.219830708661418
 20
-0.8774685039370079
 30
0.0
 10
2.242641732283465
 20
-0.7893267716535434
 30
0.0
 10
2.242641732283465
 20
-0.7893267716535434
 30
0.0
 10
2.242641732283465
 20
-0.7893267716535434
 30
0.0
 10
2.242641732283465
 20
-0.7893267716535434
 30
0.0
 10
2.249622047244094
 20
-0.700240157480315
 30
0.0
 10
2.249622047244094
 20
-0.700240157480315
 30
0.0
 10
2.249622047244094
 20
-0.700240157480315
 30
0.0
 10
2.249622047244094
 20
-0.700240157480315
 30
0.0
 10
2.24151968503937
 20
-0.6108503937007874
 30
0.0
 10
2.24151968503937
 20
-0.6108503937007874
 30
0.0
 10
2.24151968503937
 20
-0.6108503937007874
 30
0.0
 10
2.24151968503937
 20
-0.6108503937007874
 30
0.0
 10
2.219122047244095
 20
-0.5218425196850394
 30
0.0
 10
2.219122047244095
 20
-0.5218425196850394
 30
0.0
 10
2.219122047244095
 20
-0.5218425196850394
 30
0.0
 10
2.219122047244095
 20
-0.5218425196850394
 30
0.0
 10
2.183188976377953
 20
-0.4338622047244095
 30
0.0
 10
2.183188976377953
 20
-0.4338622047244095
 30
0.0
 10
2.183188976377953
 20
-0.4338622047244095
 30
0.0
 10
2.183188976377953
 20
-0.4338622047244095
 30
0.0
 10
2.1345
 20
-0.3475866141732283
 30
0.0
 10
2.1345
 20
-0.3475866141732283
 30
0.0
 10
2.1345
 20
-0.3475866141732283
 30
0.0
 10
2.1345
 20
-0.3475866141732283
 30
0.0
 10
2.073807086614173
 20
-0.2636614173228347
 30
0.0
 10
2.073807086614173
 20
-0.2636614173228347
 30
0.0
 10
2.073807086614173
 20
-0.2636614173228347
 30
0.0
 10
2.073807086614173
 20
-0.2636614173228347
 30
0.0
 10
2.001897637795276
 20
-0.1827598425196851
 30
0.0
 10
2.001897637795276
 20
-0.1827598425196851
 30
0.0
 10
2.001897637795276
 20
-0.1827598425196851
 30
0.0
 10
2.001897637795276
 20
-0.1827598425196851
 30
0.0
 10
1.919527559055118
 20
-0.1055393700787402
 30
0.0
 10
1.919527559055118
 20
-0.1055393700787402
 30
0.0
 10
1.919527559055118
 20
-0.1055393700787402
 30
0.0
 10
1.919527559055118
 20
-0.1055393700787402
 30
0.0
 10
1.827476377952756
 20
-0.0326692913385827
 30
0.0
 10
1.827476377952756
 20
-0.0326692913385827
 30
0.0
 10
1.827476377952756
 20
-0.0326692913385827
 30
0.0
 10
1.827476377952756
 20
-0.0326692913385827
 30
0.0
 10
1.726496062992126
 20
0.0352047244094488
 30
0.0
 10
1.726496062992126
 20
0.0352047244094488
 30
0.0
 10
1.726496062992126
 20
0.0352047244094488
 30
0.0
 10
1.726496062992126
 20
0.0352047244094488
 30
0.0
 10
1.617374015748032
 20
0.0974055118110236
 30
0.0
 10
1.617374015748032
 20
0.0974055118110236
 30
0.0
 10
1.617374015748032
 20
0.0974055118110236
 30
0.0
 10
1.617374015748032
 20
0.0974055118110236
 30
0.0
 10
1.500866141732284
 20
0.1532795275590551
 30
0.0
 10
1.500866141732284
 20
0.1532795275590551
 30
0.0
 10
1.500866141732284
 20
0.1532795275590551
 30
0.0
 10
1.500866141732284
 20
0.1532795275590551
 30
0.0
 10
1.377755905511811
 20
0.2021574803149606
 30
0.0
 10
1.377755905511811
 20
0.2021574803149606
 30
0.0
 10
1.377755905511811
 20
0.2021574803149606
 30
0.0
 10
1.377755905511811
 20
0.2021574803149606
 30
0.0
 10
1.248795275590551
 20
0.2433858267716536
 30
0.0
 10
1.248795275590551
 20
0.2433858267716536
 30
0.0
 10
1.248795275590551
 20
0.2433858267716536
 30
0.0
 10
1.248795275590551
 20
0.2433858267716536
 30
0.0
 10
1.114767716535433
 20
0.2762992125984252
 30
0.0
 10
1.114767716535433
 20
0.2762992125984252
 30
0.0
 10
1.114767716535433
 20
0.2762992125984252
 30
0.0
 10
1.114767716535433
 20
0.2762992125984252
 30
0.0
 10
0.9764330708661417
 20
0.300236220472441
 30
0.0
 10
0.9764330708661417
 20
0.300236220472441
 30
0.0
 10
0.9764330708661417
 20
0.300236220472441
 30
0.0
 10
0.9764330708661417
 20
0.300236220472441
 30
0.0
 10
0.8345669291338583
 20
0.3145275590551181
 30
0.0
 10
0.8345669291338583
 20
0.3145275590551181
 30
0.0
 10
0.8345669291338583
 20
0.3145275590551181
 30
0.0
 10
0.8345669291338583
 20
0.3145275590551181
 30
0.0
 10
0.1882165354330709
 20
-0.0461692913385827
 30
0.0
 10
0.1882165354330709
 20
-0.0461692913385827
 30
0.0
 10
0.1882165354330709
 20
-0.0461692913385827
 30
0.0
 10
0.1882165354330709
 20
-0.0461692913385827
 30
0.0
 10
0.3300826771653543
 20
-0.0604606299212598
 30
0.0
 10
0.3300826771653543
 20
-0.0604606299212598
 30
0.0
 10
0.3300826771653543
 20
-0.0604606299212598
 30
0.0
 10
0.3300826771653543
 20
-0.0604606299212598
 30
0.0
 10
0.4684173228346457
 20
-0.0843976377952756
 30
0.0
 10
0.4684173228346457
 20
-0.0843976377952756
 30
0.0
 10
0.4684173228346457
 20
-0.0843976377952756
 30
0.0
 10
0.4684173228346457
 20
-0.0843976377952756
 30
0.0
 10
0.6024448818897638
 20
-0.1173110236220473
 30
0.0
 10
0.6024448818897638
 20
-0.1173110236220473
 30
0.0
 10
0.6024448818897638
 20
-0.1173110236220473
 30
0.0
 10
0.6024448818897638
 20
-0.1173110236220473
 30
0.0
 10
0.7314055118110237
 20
-0.1585393700787402
 30
0.0
 10
0.7314055118110237
 20
-0.1585393700787402
 30
0.0
 10
0.7314055118110237
 20
-0.1585393700787402
 30
0.0
 10
0.7314055118110237
 20
-0.1585393700787402
 30
0.0
 10
0.8545157480314961
 20
-0.2074173228346457
 30
0.0
 10
0.8545157480314961
 20
-0.2074173228346457
 30
0.0
 10
0.8545157480314961
 20
-0.2074173228346457
 30
0.0
 10
0.8545157480314961
 20
-0.2074173228346457
 30
0.0
 10
0.9710236220472441
 20
-0.2632913385826772
 30
0.0
 10
0.9710236220472441
 20
-0.2632913385826772
 30
0.0
 10
0.9710236220472441
 20
-0.2632913385826772
 30
0.0
 10
0.9710236220472441
 20
-0.2632913385826772
 30
0.0
 10
1.080145669291339
 20
-0.325492125984252
 30
0.0
 10
1.080145669291339
 20
-0.325492125984252
 30
0.0
 10
1.080145669291339
 20
-0.325492125984252
 30
0.0
 10
1.080145669291339
 20
-0.325492125984252
 30
0.0
 10
1.181125984251969
 20
-0.3933661417322835
 30
0.0
 10
1.181125984251969
 20
-0.3933661417322835
 30
0.0
 10
1.181125984251969
 20
-0.3933661417322835
 30
0.0
 10
1.181125984251969
 20
-0.3933661417322835
 30
0.0
 10
1.273177165354331
 20
-0.466236220472441
 30
0.0
 10
1.273177165354331
 20
-0.466236220472441
 30
0.0
 10
1.273177165354331
 20
-0.466236220472441
 30
0.0
 10
1.273177165354331
 20
-0.466236220472441
 30
0.0
 10
1.355547244094488
 20
-0.5434566929133858
 30
0.0
 10
1.355547244094488
 20
-0.5434566929133858
 30
0.0
 10
1.355547244094488
 20
-0.5434566929133858
 30
0.0
 10
1.355547244094488
 20
-0.5434566929133858
 30
0.0
 10
1.427456692913386
 20
-0.6243582677165355
 30
0.0
 10
1.427456692913386
 20
-0.6243582677165355
 30
0.0
 10
1.427456692913386
 20
-0.6243582677165355
 30
0.0
 10
1.427456692913386
 20
-0.6243582677165355
 30
0.0
 10
1.488149606299213
 20
-0.7082834645669291
 30
0.0
 10
1.488149606299213
 20
-0.7082834645669291
 30
0.0
 10
1.488149606299213
 20
-0.7082834645669291
 30
0.0
 10
1.488149606299213
 20
-0.7082834645669291
 30
0.0
 10
1.536838582677165
 20
-0.7945590551181103
 30
0.0
 10
1.536838582677165
 20
-0.7945590551181103
 30
0.0
 10
1.536838582677165
 20
-0.7945590551181103
 30
0.0
 10
1.536838582677165
 20
-0.7945590551181103
 30
0.0
 10
1.572771653543307
 20
-0.8825393700787402
 30
0.0
 10
1.572771653543307
 20
-0.8825393700787402
 30
0.0
 10
1.572771653543307
 20
-0.8825393700787402
 30
0.0
 10
1.572771653543307
 20
-0.8825393700787402
 30
0.0
 10
1.595169291338583
 20
-0.9715472440944882
 30
0.0
 10
1.595169291338583
 20
-0.9715472440944882
 30
0.0
 10
1.595169291338583
 20
-0.9715472440944882
 30
0.0
 10
1.595169291338583
 20
-0.9715472440944882
 30
0.0
 10
1.603271653543307
 20
-1.060937007874016
 30
0.0
 10
1.603271653543307
 20
-1.060937007874016
 30
0.0
 10
1.603271653543307
 20
-1.060937007874016
 30
0.0
 10
1.603271653543307
 20
-1.060937007874016
 30
0.0
 10
1.596291338582677
 20
-1.150023622047244
 30
0.0
 10
1.596291338582677
 20
-1.150023622047244
 30
0.0
 10
1.596291338582677
 20
-1.150023622047244
 30
0.0
 10
1.596291338582677
 20
-1.150023622047244
 30
0.0
 10
1.57348031496063
 20
-1.238165354330709
 30
0.0
 10
1.57348031496063
 20
-1.238165354330709
 30
0.0
 10
1.57348031496063
 20
-1.238165354330709
 30
0.0
 10
1.57348031496063
 20
-1.238165354330709
 30
0.0
 10
1.53405905511811
 20
-1.324692913385827
 30
0.0
 10
1.53405905511811
 20
-1.324692913385827
 30
0.0
 10
1.53405905511811
 20
-1.324692913385827
 30
0.0
 10
1.53405905511811
 20
-1.324692913385827
 30
0.0
 10
1.477263779527559
 20
-1.408952755905512
 30
0.0
 10
1.477263779527559
 20
-1.408952755905512
 30
0.0
 10
1.477263779527559
 20
-1.408952755905512
 30
0.0
 10
1.477263779527559
 20
-1.408952755905512
 30
0.0
 10
1.402314960629921
 20
-1.490267716535433
 30
0.0
 10
1.402314960629921
 20
-1.490267716535433
 30
0.0
 10
1.402314960629921
 20
-1.490267716535433
 30
0.0
 10
1.402314960629921
 20
-1.490267716535433
 30
0.0
 10
1.30846062992126
 20
-1.567988188976378
 30
0.0
 10
1.30846062992126
 20
-1.567988188976378
 30
0.0
  0
SPLINE
  5
5D
330
1F
100
AcDbEntity
  8
Layer 1
 62
   252
100
AcDbSpline
210
0.0
220
0.0
230
1.0
 70
    11
 71
     3
 72
    20
 73
    16
 74
     0
 42
0.0000000001
 43
0.0000000001
 40
0.0
 40
0.0
 40
0.0
 40
0.0
 40
0.25
 40
0.25
 40
0.25
 40
0.25
 40
0.5
 40
0.5
 40
0.5
 40
0.5
 40
0.75
 40
0.75
 40
0.75
 40
0.75
 40
1.0
 40
1.0
 40
1.0
 40
1.0
 10
0.1882165354330709
 20
-0.0461692913385827
 30
0.0
 10
0.1882165354330709
 20
-0.0461692913385827
 30
0.0
 10
0.8345669291338583
 20
0.3145275590551181
 30
0.0
 10
0.8345669291338583
 20
0.3145275590551181
 30
0.0
 10
0.8345669291338583
 20
0.3145275590551181
 30
0.0
 10
0.8345669291338583
 20
0.3145275590551181
 30
0.0
 10
-1.443271653543307
 20
0.4726889763779528
 30
0.0
 10
-1.443271653543307
 20
0.4726889763779528
 30
0.0
 10
-1.443271653543307
 20
0.4726889763779528
 30
0.0
 10
-1.443271653543307
 20
0.4726889763779528
 30
0.0
 10
-2.089622047244095
 20
0.111992125984252
 30
0.0
 10
-2.089622047244095
 20
0.111992125984252
 30
0.0
 10
-2.089622047244095
 20
0.111992125984252
 30
0.0
 10
-2.089622047244095
 20
0.111992125984252
 30
0.0
 10
0.1882165354330709
 20
-0.0461692913385827
 30
0.0
 10
0.1882165354330709
 20
-0.0461692913385827
 30
0.0
  0
SPLINE
  5
5E
330
1F
100
AcDbEntity
  8
Layer 1
 62
   250
370
     5
100
AcDbSpline
210
0.0
220
0.0
230
1.0
 70
    11
 71
     3
 72
    20
 73
    16
 74
     0
 42
0.0000000001
 43
0.0000000001
 40
0.0
 40
0.0
 40
0.0
 40
0.0
 40
0.25
 40
0.25
 40
0.25
 40
0.25
 40
0.5
 40
0.5
 40
0.5
 40
0.5
 40
0.75
 40
0.75
 40
0.75
 40
0.75
 40
1.0
 40
1.0
 40
1.0
 40
1.0
 10
0.1882165354330709
 20
-0.0461692913385827
 30
0.0
 10
0.1882165354330709
 20
-0.0461692913385827
 30
0.0
 10
0.8345669291338583
 20
0.3145275590551181
 30
0.0
 10
0.8345669291338583
 20
0.3145275590551181
 30
0.0
 10
0.8345669291338583
 20
0.3145275590551181
 30
0.0
 10
0.8345669291338583
 20
0.3145275590551181
 30
0.0
 10
-1.443271653543307
 20
0.4726889763779528
 30
0.0
 10
-1.443271653543307
 20
0.4726889763779528
 30
0.0
 10
-1.443271653543307
 20
0.4726889763779528
 30
0.0
 10
-1.443271653543307
 20
0.4726889763779528
 30
0.0
 10
-2.089622047244095
 20
0.111992125984252
 30
0.0
 10
-2.089622047244095
 20
0.111992125984252
 30
0.0
 10
-2.089622047244095
 20
0.111992125984252
 30
0.0
 10
-2.089622047244095
 20
0.111992125984252
 30
0.0
 10
0.1882165354330709
 20
-0.0461692913385827
 30
0.0
 10
0.1882165354330709
 20
-0.0461692913385827
 30
0.0
  0
SPLINE
  5
5F
330
1F
100
AcDbEntity
  8
Layer 1
 62
   252
100
AcDbSpline
210
0.0
220
0.0
230
1.0
 70
    11
 71
     3
 72
    20
 73
    16
 74
     0
 42
0.0000000001
 43
0.0000000001
 40
0.0
 40
0.0
 40
0.0
 40
0.0
 40
0.25
 40
0.25
 40
0.25
 40
0.25
 40
0.5
 40
0.5
 40
0.5
 40
0.5
 40
0.75
 40
0.75
 40
0.75
 40
0.75
 40
1.0
 40
1.0
 40
1.0
 40
1.0
 10
1.30846062992126
 20
-1.567988188976378
 30
0.0
 10
1.30846062992126
 20
-1.567988188976378
 30
0.0
 10
1.954811023622047
 20
-1.207291338582677
 30
0.0
 10
1.954811023622047
 20
-1.207291338582677
 30
0.0
 10
1.954811023622047
 20
-1.207291338582677
 30
0.0
 10
1.954811023622047
 20
-1.207291338582677
 30
0.0
 10
2.048665354330709
 20
-1.129570866141732
 30
0.0
 10
2.048665354330709
 20
-1.129570866141732
 30
0.0
 10
2.048665354330709
 20
-1.129570866141732
 30
0.0
 10
2.048665354330709
 20
-1.129570866141732
 30
0.0
 10
1.402314960629921
 20
-1.490267716535433
 30
0.0
 10
1.402314960629921
 20
-1.490267716535433
 30
0.0
 10
1.402314960629921
 20
-1.490267716535433
 30
0.0
 10
1.402314960629921
 20
-1.490267716535433
 30
0.0
 10
1.30846062992126
 20
-1.567988188976378
 30
0.0
 10
1.30846062992126
 20
-1.567988188976378
 30
0.0
  0
SPLINE
  5
60
330
1F
100
AcDbEntity
  8
Layer 1
 62
   253
100
AcDbSpline
210
0.0
220
0.0
230
1.0
 70
    11
 71
     3
 72
    20
 73
    16
 74
     0
 42
0.0000000001
 43
0.0000000001
 40
0.0
 40
0.0
 40
0.0
 40
0.0
 40
0.25
 40
0.25
 40
0.25
 40
0.25
 40
0.5
 40
0.5
 40
0.5
 40
0.5
 40
0.75
 40
0.75
 40
0.75
 40
0.75
 40
1.0
 40
1.0
 40
1.0
 40
1.0
 10
1.402314960629921
 20
-1.490267716535433
 30
0.0
 10
1.402314960629921
 20
-1.490267716535433
 30
0.0
 10
2.048665354330709
 20
-1.129570866141732
 30
0.0
 10
2.048665354330709
 20
-1.129570866141732
 30
0.0
 10
2.048665354330709
 20
-1.129570866141732
 30
0.0
 10
2.048665354330709
 20
-1.129570866141732
 30
0.0
 10
2.123614173228347
 20
-1.048255905511811
 30
0.0
 10
2.123614173228347
 20
-1.048255905511811
 30
0.0
 10
2.123614173228347
 20
-1.048255905511811
 30
0.0
 10
2.123614173228347
 20
-1.048255905511811
 30
0.0
 10
1.477263779527559
 20
-1.408952755905512
 30
0.0
 10
1.477263779527559
 20
-1.408952755905512
 30
0.0
 10
1.477263779527559
 20
-1.408952755905512
 30
0.0
 10
1.477263779527559
 20
-1.408952755905512
 30
0.0
 10
1.402314960629921
 20
-1.490267716535433
 30
0.0
 10
1.402314960629921
 20
-1.490267716535433
 30
0.0
  0
SPLINE
  5
61
330
1F
100
AcDbEntity
  8
Layer 1
 62
   253
100
AcDbSpline
210
0.0
220
0.0
230
1.0
 70
    11
 71
     3
 72
    20
 73
    16
 74
     0
 42
0.0000000001
 43
0.0000000001
 40
0.0
 40
0.0
 40
0.0
 40
0.0
 40
0.25
 40
0.25
 40
0.25
 40
0.25
 40
0.5
 40
0.5
 40
0.5
 40
0.5
 40
0.75
 40
0.75
 40
0.75
 40
0.75
 40
1.0
 40
1.0
 40
1.0
 40
1.0
 10
1.477263779527559
 20
-1.408952755905512
 30
0.0
 10
1.477263779527559
 20
-1.408952755905512
 30
0.0
 10
2.123614173228347
 20
-1.048255905511811
 30
0.0
 10
2.123614173228347
 20
-1.048255905511811
 30
0.0
 10
2.123614173228347
 20
-1.048255905511811
 30
0.0
 10
2.123614173228347
 20
-1.048255905511811
 30
0.0
 10
2.180409448818898
 20
-0.963996062992126
 30
0.0
 10
2.180409448818898
 20
-0.963996062992126
 30
0.0
 10
2.180409448818898
 20
-0.963996062992126
 30
0.0
 10
2.180409448818898
 20
-0.963996062992126
 30
0.0
 10
1.53405905511811
 20
-1.324692913385827
 30
0.0
 10
1.53405905511811
 20
-1.324692913385827
 30
0.0
 10
1.53405905511811
 20
-1.324692913385827
 30
0.0
 10
1.53405905511811
 20
-1.324692913385827
 30
0.0
 10
1.477263779527559
 20
-1.408952755905512
 30
0.0
 10
1.477263779527559
 20
-1.408952755905512
 30
0.0
  0
SPLINE
  5
62
330
1F
100
AcDbEntity
  8
Layer 1
 62
   253
100
AcDbSpline
210
0.0
220
0.0
230
1.0
 70
    11
 71
     3
 72
    20
 73
    16
 74
     0
 42
0.0000000001
 43
0.0000000001
 40
0.0
 40
0.0
 40
0.0
 40
0.0
 40
0.25
 40
0.25
 40
0.25
 40
0.25
 40
0.5
 40
0.5
 40
0.5
 40
0.5
 40
0.75
 40
0.75
 40
0.75
 40
0.75
 40
1.0
 40
1.0
 40
1.0
 40
1.0
 10
1.53405905511811
 20
-1.324692913385827
 30
0.0
 10
1.53405905511811
 20
-1.324692913385827
 30
0.0
 10
2.180409448818898
 20
-0.963996062992126
 30
0.0
 10
2.180409448818898
 20
-0.963996062992126
 30
0.0
 10
2.180409448818898
 20
-0.963996062992126
 30
0.0
 10
2.180409448818898
 20
-0.963996062992126
 30
0.0
 10
2.219830708661418
 20
-0.8774685039370079
 30
0.0
 10
2.219830708661418
 20
-0.8774685039370079
 30
0.0
 10
2.219830708661418
 20
-0.8774685039370079
 30
0.0
 10
2.219830708661418
 20
-0.8774685039370079
 30
0.0
 10
1.57348031496063
 20
-1.238165354330709
 30
0.0
 10
1.57348031496063
 20
-1.238165354330709
 30
0.0
 10
1.57348031496063
 20
-1.238165354330709
 30
0.0
 10
1.57348031496063
 20
-1.238165354330709
 30
0.0
 10
1.53405905511811
 20
-1.324692913385827
 30
0.0
 10
1.53405905511811
 20
-1.324692913385827
 30
0.0
  0
SPLINE
  5
63
330
1F
100
AcDbEntity
  8
Layer 1
 62
   253
100
AcDbSpline
210
0.0
220
0.0
230
1.0
 70
    11
 71
     3
 72
    20
 73
    16
 74
     0
 42
0.0000000001
 43
0.0000000001
 40
0.0
 40
0.0
 40
0.0
 40
0.0
 40
0.25
 40
0.25
 40
0.25
 40
0.25
 40
0.5
 40
0.5
 40
0.5
 40
0.5
 40
0.75
 40
0.75
 40
0.75
 40
0.75
 40
1.0
 40
1.0
 40
1.0
 40
1.0
 10
1.57348031496063
 20
-1.238165354330709
 30
0.0
 10
1.57348031496063
 20
-1.238165354330709
 30
0.0
 10
2.219830708661418
 20
-0.8774685039370079
 30
0.0
 10
2.219830708661418
 20
-0.8774685039370079
 30
0.0
 10
2.219830708661418
 20
-0.8774685039370079
 30
0.0
 10
2.219830708661418
 20
-0.8774685039370079
 30
0.0
 10
2.242641732283465
 20
-0.7893267716535434
 30
0.0
 10
2.242641732283465
 20
-0.7893267716535434
 30
0.0
 10
2.242641732283465
 20
-0.7893267716535434
 30
0.0
 10
2.242641732283465
 20
-0.7893267716535434
 30
0.0
 10
1.596291338582677
 20
-1.150023622047244
 30
0.0
 10
1.596291338582677
 20
-1.150023622047244
 30
0.0
 10
1.596291338582677
 20
-1.150023622047244
 30
0.0
 10
1.596291338582677
 20
-1.150023622047244
 30
0.0
 10
1.57348031496063
 20
-1.238165354330709
 30
0.0
 10
1.57348031496063
 20
-1.238165354330709
 30
0.0
  0
SPLINE
  5
64
330
1F
100
AcDbEntity
  8
Layer 1
 62
   253
100
AcDbSpline
210
0.0
220
0.0
230
1.0
 70
    11
 71
     3
 72
    20
 73
    16
 74
     0
 42
0.0000000001
 43
0.0000000001
 40
0.0
 40
0.0
 40
0.0
 40
0.0
 40
0.25
 40
0.25
 40
0.25
 40
0.25
 40
0.5
 40
0.5
 40
0.5
 40
0.5
 40
0.75
 40
0.75
 40
0.75
 40
0.75
 40
1.0
 40
1.0
 40
1.0
 40
1.0
 10
1.596291338582677
 20
-1.150023622047244
 30
0.0
 10
1.596291338582677
 20
-1.150023622047244
 30
0.0
 10
2.242641732283465
 20
-0.7893267716535434
 30
0.0
 10
2.242641732283465
 20
-0.7893267716535434
 30
0.0
 10
2.242641732283465
 20
-0.7893267716535434
 30
0.0
 10
2.242641732283465
 20
-0.7893267716535434
 30
0.0
 10
2.249622047244094
 20
-0.700240157480315
 30
0.0
 10
2.249622047244094
 20
-0.700240157480315
 30
0.0
 10
2.249622047244094
 20
-0.700240157480315
 30
0.0
 10
2.249622047244094
 20
-0.700240157480315
 30
0.0
 10
1.603271653543307
 20
-1.060937007874016
 30
0.0
 10
1.603271653543307
 20
-1.060937007874016
 30
0.0
 10
1.603271653543307
 20
-1.060937007874016
 30
0.0
 10
1.603271653543307
 20
-1.060937007874016
 30
0.0
 10
1.596291338582677
 20
-1.150023622047244
 30
0.0
 10
1.596291338582677
 20
-1.150023622047244
 30
0.0
  0
SPLINE
  5
65
330
1F
100
AcDbEntity
  8
Layer 1
 62
   253
100
AcDbSpline
210
0.0
220
0.0
230
1.0
 70
    11
 71
     3
 72
    20
 73
    16
 74
     0
 42
0.0000000001
 43
0.0000000001
 40
0.0
 40
0.0
 40
0.0
 40
0.0
 40
0.25
 40
0.25
 40
0.25
 40
0.25
 40
0.5
 40
0.5
 40
0.5
 40
0.5
 40
0.75
 40
0.75
 40
0.75
 40
0.75
 40
1.0
 40
1.0
 40
1.0
 40
1.0
 10
1.603271653543307
 20
-1.060937007874016
 30
0.0
 10
1.603271653543307
 20
-1.060937007874016
 30
0.0
 10
2.249622047244094
 20
-0.700240157480315
 30
0.0
 10
2.249622047244094
 20
-0.700240157480315
 30
0.0
 10
2.249622047244094
 20
-0.700240157480315
 30
0.0
 10
2.249622047244094
 20
-0.700240157480315
 30
0.0
 10
2.24151968503937
 20
-0.6108503937007874
 30
0.0
 10
2.24151968503937
 20
-0.6108503937007874
 30
0.0
 10
2.24151968503937
 20
-0.6108503937007874
 30
0.0
 10
2.24151968503937
 20
-0.6108503937007874
 30
0.0
 10
1.595169291338583
 20
-0.9715472440944882
 30
0.0
 10
1.595169291338583
 20
-0.9715472440944882
 30
0.0
 10
1.595169291338583
 20
-0.9715472440944882
 30
0.0
 10
1.595169291338583
 20
-0.9715472440944882
 30
0.0
 10
1.603271653543307
 20
-1.060937007874016
 30
0.0
 10
1.603271653543307
 20
-1.060937007874016
 30
0.0
  0
SPLINE
  5
66
330
1F
100
AcDbEntity
  8
Layer 1
 62
   253
100
AcDbSpline
210
0.0
220
0.0
230
1.0
 70
    11
 71
     3
 72
    20
 73
    16
 74
     0
 42
0.0000000001
 43
0.0000000001
 40
0.0
 40
0.0
 40
0.0
 40
0.0
 40
0.25
 40
0.25
 40
0.25
 40
0.25
 40
0.5
 40
0.5
 40
0.5
 40
0.5
 40
0.75
 40
0.75
 40
0.75
 40
0.75
 40
1.0
 40
1.0
 40
1.0
 40
1.0
 10
1.595169291338583
 20
-0.9715472440944882
 30
0.0
 10
1.595169291338583
 20
-0.9715472440944882
 30
0.0
 10
2.24151968503937
 20
-0.6108503937007874
 30
0.0
 10
2.24151968503937
 20
-0.6108503937007874
 30
0.0
 10
2.24151968503937
 20
-0.6108503937007874
 30
0.0
 10
2.24151968503937
 20
-0.6108503937007874
 30
0.0
 10
2.219122047244095
 20
-0.5218425196850394
 30
0.0
 10
2.219122047244095
 20
-0.5218425196850394
 30
0.0
 10
2.219122047244095
 20
-0.5218425196850394
 30
0.0
 10
2.219122047244095
 20
-0.5218425196850394
 30
0.0
 10
1.572771653543307
 20
-0.8825393700787402
 30
0.0
 10
1.572771653543307
 20
-0.8825393700787402
 30
0.0
 10
1.572771653543307
 20
-0.8825393700787402
 30
0.0
 10
1.572771653543307
 20
-0.8825393700787402
 30
0.0
 10
1.595169291338583
 20
-0.9715472440944882
 30
0.0
 10
1.595169291338583
 20
-0.9715472440944882
 30
0.0
  0
SPLINE
  5
67
330
1F
100
AcDbEntity
  8
Layer 1
 62
   253
100
AcDbSpline
210
0.0
220
0.0
230
1.0
 70
    11
 71
     3
 72
    20
 73
    16
 74
     0
 42
0.0000000001
 43
0.0000000001
 40
0.0
 40
0.0
 40
0.0
 40
0.0
 40
0.25
 40
0.25
 40
0.25
 40
0.25
 40
0.5
 40
0.5
 40
0.5
 40
0.5
 40
0.75
 40
0.75
 40
0.75
 40
0.75
 40
1.0
 40
1.0
 40
1.0
 40
1.0
 10
1.572771653543307
 20
-0.8825393700787402
 30
0.0
 10
1.572771653543307
 20
-0.8825393700787402
 30
0.0
 10
2.219122047244095
 20
-0.5218425196850394
 30
0.0
 10
2.219122047244095
 20
-0.5218425196850394
 30
0.0
 10
2.219122047244095
 20
-0.5218425196850394
 30
0.0
 10
2.219122047244095
 20
-0.5218425196850394
 30
0.0
 10
2.183188976377953
 20
-0.4338622047244095
 30
0.0
 10
2.183188976377953
 20
-0.4338622047244095
 30
0.0
 10
2.183188976377953
 20
-0.4338622047244095
 30
0.0
 10
2.183188976377953
 20
-0.4338622047244095
 30
0.0
 10
1.536838582677165
 20
-0.7945590551181103
 30
0.0
 10
1.536838582677165
 20
-0.7945590551181103
 30
0.0
 10
1.536838582677165
 20
-0.7945590551181103
 30
0.0
 10
1.536838582677165
 20
-0.7945590551181103
 30
0.0
 10
1.572771653543307
 20
-0.8825393700787402
 30
0.0
 10
1.572771653543307
 20
-0.8825393700787402
 30
0.0
  0
SPLINE
  5
68
330
1F
100
AcDbEntity
  8
Layer 1
 62
   253
100
AcDbSpline
210
0.0
220
0.0
230
1.0
 70
    11
 71
     3
 72
    20
 73
    16
 74
     0
 42
0.0000000001
 43
0.0000000001
 40
0.0
 40
0.0
 40
0.0
 40
0.0
 40
0.25
 40
0.25
 40
0.25
 40
0.25
 40
0.5
 40
0.5
 40
0.5
 40
0.5
 40
0.75
 40
0.75
 40
0.75
 40
0.75
 40
1.0
 40
1.0
 40
1.0
 40
1.0
 10
1.536838582677165
 20
-0.7945590551181103
 30
0.0
 10
1.536838582677165
 20
-0.7945590551181103
 30
0.0
 10
2.183188976377953
 20
-0.4338622047244095
 30
0.0
 10
2.183188976377953
 20
-0.4338622047244095
 30
0.0
 10
2.183188976377953
 20
-0.4338622047244095
 30
0.0
 10
2.183188976377953
 20
-0.4338622047244095
 30
0.0
 10
2.1345
 20
-0.3475866141732283
 30
0.0
 10
2.1345
 20
-0.3475866141732283
 30
0.0
 10
2.1345
 20
-0.3475866141732283
 30
0.0
 10
2.1345
 20
-0.3475866141732283
 30
0.0
 10
1.488149606299213
 20
-0.7082834645669291
 30
0.0
 10
1.488149606299213
 20
-0.7082834645669291
 30
0.0
 10
1.488149606299213
 20
-0.7082834645669291
 30
0.0
 10
1.488149606299213
 20
-0.7082834645669291
 30
0.0
 10
1.536838582677165
 20
-0.7945590551181103
 30
0.0
 10
1.536838582677165
 20
-0.7945590551181103
 30
0.0
  0
SPLINE
  5
69
330
1F
100
AcDbEntity
  8
Layer 1
 62
   253
100
AcDbSpline
210
0.0
220
0.0
230
1.0
 70
    11
 71
     3
 72
    20
 73
    16
 74
     0
 42
0.0000000001
 43
0.0000000001
 40
0.0
 40
0.0
 40
0.0
 40
0.0
 40
0.25
 40
0.25
 40
0.25
 40
0.25
 40
0.5
 40
0.5
 40
0.5
 40
0.5
 40
0.75
 40
0.75
 40
0.75
 40
0.75
 40
1.0
 40
1.0
 40
1.0
 40
1.0
 10
1.488149606299213
 20
-0.7082834645669291
 30
0.0
 10
1.488149606299213
 20
-0.7082834645669291
 30
0.0
 10
2.1345
 20
-0.3475866141732283
 30
0.0
 10
2.1345
 20
-0.3475866141732283
 30
0.0
 10
2.1345
 20
-0.3475866141732283
 30
0.0
 10
2.1345
 20
-0.3475866141732283
 30
0.0
 10
2.073807086614173
 20
-0.2636614173228347
 30
0.0
 10
2.073807086614173
 20
-0.2636614173228347
 30
0.0
 10
2.073807086614173
 20
-0.2636614173228347
 30
0.0
 10
2.073807086614173
 20
-0.2636614173228347
 30
0.0
 10
1.427456692913386
 20
-0.6243582677165355
 30
0.0
 10
1.427456692913386
 20
-0.6243582677165355
 30
0.0
 10
1.427456692913386
 20
-0.6243582677165355
 30
0.0
 10
1.427456692913386
 20
-0.6243582677165355
 30
0.0
 10
1.488149606299213
 20
-0.7082834645669291
 30
0.0
 10
1.488149606299213
 20
-0.7082834645669291
 30
0.0
  0
SPLINE
  5
6A
330
1F
100
AcDbEntity
  8
Layer 1
 62
   253
100
AcDbSpline
210
0.0
220
0.0
230
1.0
 70
    11
 71
     3
 72
    20
 73
    16
 74
     0
 42
0.0000000001
 43
0.0000000001
 40
0.0
 40
0.0
 40
0.0
 40
0.0
 40
0.25
 40
0.25
 40
0.25
 40
0.25
 40
0.5
 40
0.5
 40
0.5
 40
0.5
 40
0.75
 40
0.75
 40
0.75
 40
0.75
 40
1.0
 40
1.0
 40
1.0
 40
1.0
 10
1.427456692913386
 20
-0.6243582677165355
 30
0.0
 10
1.427456692913386
 20
-0.6243582677165355
 30
0.0
 10
2.073807086614173
 20
-0.2636614173228347
 30
0.0
 10
2.073807086614173
 20
-0.2636614173228347
 30
0.0
 10
2.073807086614173
 20
-0.2636614173228347
 30
0.0
 10
2.073807086614173
 20
-0.2636614173228347
 30
0.0
 10
2.001897637795276
 20
-0.1827598425196851
 30
0.0
 10
2.001897637795276
 20
-0.1827598425196851
 30
0.0
 10
2.001897637795276
 20
-0.1827598425196851
 30
0.0
 10
2.001897637795276
 20
-0.1827598425196851
 30
0.0
 10
1.355547244094488
 20
-0.5434566929133858
 30
0.0
 10
1.355547244094488
 20
-0.5434566929133858
 30
0.0
 10
1.355547244094488
 20
-0.5434566929133858
 30
0.0
 10
1.355547244094488
 20
-0.5434566929133858
 30
0.0
 10
1.427456692913386
 20
-0.6243582677165355
 30
0.0
 10
1.427456692913386
 20
-0.6243582677165355
 30
0.0
  0
SPLINE
  5
6B
330
1F
100
AcDbEntity
  8
Layer 1
 62
   252
100
AcDbSpline
210
0.0
220
0.0
230
1.0
 70
    11
 71
     3
 72
    20
 73
    16
 74
     0
 42
0.0000000001
 43
0.0000000001
 40
0.0
 40
0.0
 40
0.0
 40
0.0
 40
0.25
 40
0.25
 40
0.25
 40
0.25
 40
0.5
 40
0.5
 40
0.5
 40
0.5
 40
0.75
 40
0.75
 40
0.75
 40
0.75
 40
1.0
 40
1.0
 40
1.0
 40
1.0
 10
1.355547244094488
 20
-0.5434566929133858
 30
0.0
 10
1.355547244094488
 20
-0.5434566929133858
 30
0.0
 10
2.001897637795276
 20
-0.1827598425196851
 30
0.0
 10
2.001897637795276
 20
-0.1827598425196851
 30
0.0
 10
2.001897637795276
 20
-0.1827598425196851
 30
0.0
 10
2.001897637795276
 20
-0.1827598425196851
 30
0.0
 10
1.919527559055118
 20
-0.1055393700787402
 30
0.0
 10
1.919527559055118
 20
-0.1055393700787402
 30
0.0
 10
1.919527559055118
 20
-0.1055393700787402
 30
0.0
 10
1.919527559055118
 20
-0.1055393700787402
 30
0.0
 10
1.273177165354331
 20
-0.466236220472441
 30
0.0
 10
1.273177165354331
 20
-0.466236220472441
 30
0.0
 10
1.273177165354331
 20
-0.466236220472441
 30
0.0
 10
1.273177165354331
 20
-0.466236220472441
 30
0.0
 10
1.355547244094488
 20
-0.5434566929133858
 30
0.0
 10
1.355547244094488
 20
-0.5434566929133858
 30
0.0
  0
SPLINE
  5
6C
330
1F
100
AcDbEntity
  8
Layer 1
 62
   252
100
AcDbSpline
210
0.0
220
0.0
230
1.0
 70
    11
 71
     3
 72
    20
 73
    16
 74
     0
 42
0.0000000001
 43
0.0000000001
 40
0.0
 40
0.0
 40
0.0
 40
0.0
 40
0.25
 40
0.25
 40
0.25
 40
0.25
 40
0.5
 40
0.5
 40
0.5
 40
0.5
 40
0.75
 40
0.75
 40
0.75
 40
0.75
 40
1.0
 40
1.0
 40
1.0
 40
1.0
 10
1.273177165354331
 20
-0.466236220472441
 30
0.0
 10
1.273177165354331
 20
-0.466236220472441
 30
0.0
 10
1.919527559055118
 20
-0.1055393700787402
 30
0.0
 10
1.919527559055118
 20
-0.1055393700787402
 30
0.0
 10
1.919527559055118
 20
-0.1055393700787402
 30
0.0
 10
1.919527559055118
 20
-0.1055393700787402
 30
0.0
 10
1.827476377952756
 20
-0.0326692913385827
 30
0.0
 10
1.827476377952756
 20
-0.0326692913385827
 30
0.0
 10
1.827476377952756
 20
-0.0326692913385827
 30
0.0
 10
1.827476377952756
 20
-0.0326692913385827
 30
0.0
 10
1.181125984251969
 20
-0.3933661417322835
 30
0.0
 10
1.181125984251969
 20
-0.3933661417322835
 30
0.0
 10
1.181125984251969
 20
-0.3933661417322835
 30
0.0
 10
1.181125984251969
 20
-0.3933661417322835
 30
0.0
 10
1.273177165354331
 20
-0.466236220472441
 30
0.0
 10
1.273177165354331
 20
-0.466236220472441
 30
0.0
  0
SPLINE
  5
6D
330
1F
100
AcDbEntity
  8
Layer 1
 62
   252
100
AcDbSpline
210
0.0
220
0.0
230
1.0
 70
    11
 71
     3
 72
    20
 73
    16
 74
     0
 42
0.0000000001
 43
0.0000000001
 40
0.0
 40
0.0
 40
0.0
 40
0.0
 40
0.25
 40
0.25
 40
0.25
 40
0.25
 40
0.5
 40
0.5
 40
0.5
 40
0.5
 40
0.75
 40
0.75
 40
0.75
 40
0.75
 40
1.0
 40
1.0
 40
1.0
 40
1.0
 10
1.181125984251969
 20
-0.3933661417322835
 30
0.0
 10
1.181125984251969
 20
-0.3933661417322835
 30
0.0
 10
1.827476377952756
 20
-0.0326692913385827
 30
0.0
 10
1.827476377952756
 20
-0.0326692913385827
 30
0.0
 10
1.827476377952756
 20
-0.0326692913385827
 30
0.0
 10
1.827476377952756
 20
-0.0326692913385827
 30
0.0
 10
1.726496062992126
 20
0.0352047244094488
 30
0.0
 10
1.726496062992126
 20
0.0352047244094488
 30
0.0
 10
1.726496062992126
 20
0.0352047244094488
 30
0.0
 10
1.726496062992126
 20
0.0352047244094488
 30
0.0
 10
1.080145669291339
 20
-0.325492125984252
 30
0.0
 10
1.080145669291339
 20
-0.325492125984252
 30
0.0
 10
1.080145669291339
 20
-0.325492125984252
 30
0.0
 10
1.080145669291339
 20
-0.325492125984252
 30
0.0
 10
1.181125984251969
 20
-0.3933661417322835
 30
0.0
 10
1.181125984251969
 20
-0.3933661417322835
 30
0.0
  0
SPLINE
  5
6E
330
1F
100
AcDbEntity
  8
Layer 1
 62
   252
100
AcDbSpline
210
0.0
220
0.0
230
1.0
 70
    11
 71
     3
 72
    20
 73
    16
 74
     0
 42
0.0000000001
 43
0.0000000001
 40
0.0
 40
0.0
 40
0.0
 40
0.0
 40
0.25
 40
0.25
 40
0.25
 40
0.25
 40
0.5
 40
0.5
 40
0.5
 40
0.5
 40
0.75
 40
0.75
 40
0.75
 40
0.75
 40
1.0
 40
1.0
 40
1.0
 40
1.0
 10
1.080145669291339
 20
-0.325492125984252
 30
0.0
 10
1.080145669291339
 20
-0.325492125984252
 30
0.0
 10
1.726496062992126
 20
0.0352047244094488
 30
0.0
 10
1.726496062992126
 20
0.0352047244094488
 30
0.0
 10
1.726496062992126
 20
0.0352047244094488
 30
0.0
 10
1.726496062992126
 20
0.0352047244094488
 30
0.0
 10
1.617374015748032
 20
0.0974055118110236
 30
0.0
 10
1.617374015748032
 20
0.0974055118110236
 30
0.0
 10
1.617374015748032
 20
0.0974055118110236
 30
0.0
 10
1.617374015748032
 20
0.0974055118110236
 30
0.0
 10
0.9710236220472441
 20
-0.2632913385826772
 30
0.0
 10
0.9710236220472441
 20
-0.2632913385826772
 30
0.0
 10
0.9710236220472441
 20
-0.2632913385826772
 30
0.0
 10
0.9710236220472441
 20
-0.2632913385826772
 30
0.0
 10
1.080145669291339
 20
-0.325492125984252
 30
0.0
 10
1.080145669291339
 20
-0.325492125984252
 30
0.0
  0
SPLINE
  5
6F
330
1F
100
AcDbEntity
  8
Layer 1
 62
   252
100
AcDbSpline
210
0.0
220
0.0
230
1.0
 70
    11
 71
     3
 72
    20
 73
    16
 74
     0
 42
0.0000000001
 43
0.0000000001
 40
0.0
 40
0.0
 40
0.0
 40
0.0
 40
0.25
 40
0.25
 40
0.25
 40
0.25
 40
0.5
 40
0.5
 40
0.5
 40
0.5
 40
0.75
 40
0.75
 40
0.75
 40
0.75
 40
1.0
 40
1.0
 40
1.0
 40
1.0
 10
0.9710236220472441
 20
-0.2632913385826772
 30
0.0
 10
0.9710236220472441
 20
-0.2632913385826772
 30
0.0
 10
1.617374015748032
 20
0.0974055118110236
 30
0.0
 10
1.617374015748032
 20
0.0974055118110236
 30
0.0
 10
1.617374015748032
 20
0.0974055118110236
 30
0.0
 10
1.617374015748032
 20
0.0974055118110236
 30
0.0
 10
1.500866141732284
 20
0.1532795275590551
 30
0.0
 10
1.500866141732284
 20
0.1532795275590551
 30
0.0
 10
1.500866141732284
 20
0.1532795275590551
 30
0.0
 10
1.500866141732284
 20
0.1532795275590551
 30
0.0
 10
0.8545157480314961
 20
-0.2074173228346457
 30
0.0
 10
0.8545157480314961
 20
-0.2074173228346457
 30
0.0
 10
0.8545157480314961
 20
-0.2074173228346457
 30
0.0
 10
0.8545157480314961
 20
-0.2074173228346457
 30
0.0
 10
0.9710236220472441
 20
-0.2632913385826772
 30
0.0
 10
0.9710236220472441
 20
-0.2632913385826772
 30
0.0
  0
SPLINE
  5
70
330
1F
100
AcDbEntity
  8
Layer 1
 62
   252
100
AcDbSpline
210
0.0
220
0.0
230
1.0
 70
    11
 71
     3
 72
    20
 73
    16
 74
     0
 42
0.0000000001
 43
0.0000000001
 40
0.0
 40
0.0
 40
0.0
 40
0.0
 40
0.25
 40
0.25
 40
0.25
 40
0.25
 40
0.5
 40
0.5
 40
0.5
 40
0.5
 40
0.75
 40
0.75
 40
0.75
 40
0.75
 40
1.0
 40
1.0
 40
1.0
 40
1.0
 10
0.8545157480314961
 20
-0.2074173228346457
 30
0.0
 10
0.8545157480314961
 20
-0.2074173228346457
 30
0.0
 10
1.500866141732284
 20
0.1532795275590551
 30
0.0
 10
1.500866141732284
 20
0.1532795275590551
 30
0.0
 10
1.500866141732284
 20
0.1532795275590551
 30
0.0
 10
1.500866141732284
 20
0.1532795275590551
 30
0.0
 10
1.377755905511811
 20
0.2021574803149606
 30
0.0
 10
1.377755905511811
 20
0.2021574803149606
 30
0.0
 10
1.377755905511811
 20
0.2021574803149606
 30
0.0
 10
1.377755905511811
 20
0.2021574803149606
 30
0.0
 10
0.7314055118110237
 20
-0.1585393700787402
 30
0.0
 10
0.7314055118110237
 20
-0.1585393700787402
 30
0.0
 10
0.7314055118110237
 20
-0.1585393700787402
 30
0.0
 10
0.7314055118110237
 20
-0.1585393700787402
 30
0.0
 10
0.8545157480314961
 20
-0.2074173228346457
 30
0.0
 10
0.8545157480314961
 20
-0.2074173228346457
 30
0.0
  0
SPLINE
  5
71
330
1F
100
AcDbEntity
  8
Layer 1
 62
   252
100
AcDbSpline
210
0.0
220
0.0
230
1.0
 70
    11
 71
     3
 72
    20
 73
    16
 74
     0
 42
0.0000000001
 43
0.0000000001
 40
0.0
 40
0.0
 40
0.0
 40
0.0
 40
0.25
 40
0.25
 40
0.25
 40
0.25
 40
0.5
 40
0.5
 40
0.5
 40
0.5
 40
0.75
 40
0.75
 40
0.75
 40
0.75
 40
1.0
 40
1.0
 40
1.0
 40
1.0
 10
0.7314055118110237
 20
-0.1585393700787402
 30
0.0
 10
0.7314055118110237
 20
-0.1585393700787402
 30
0.0
 10
1.377755905511811
 20
0.2021574803149606
 30
0.0
 10
1.377755905511811
 20
0.2021574803149606
 30
0.0
 10
1.377755905511811
 20
0.2021574803149606
 30
0.0
 10
1.377755905511811
 20
0.2021574803149606
 30
0.0
 10
1.248795275590551
 20
0.2433858267716536
 30
0.0
 10
1.248795275590551
 20
0.2433858267716536
 30
0.0
 10
1.248795275590551
 20
0.2433858267716536
 30
0.0
 10
1.248795275590551
 20
0.2433858267716536
 30
0.0
 10
0.6024448818897638
 20
-0.1173110236220473
 30
0.0
 10
0.6024448818897638
 20
-0.1173110236220473
 30
0.0
 10
0.6024448818897638
 20
-0.1173110236220473
 30
0.0
 10
0.6024448818897638
 20
-0.1173110236220473
 30
0.0
 10
0.7314055118110237
 20
-0.1585393700787402
 30
0.0
 10
0.7314055118110237
 20
-0.1585393700787402
 30
0.0
  0
SPLINE
  5
72
330
1F
100
AcDbEntity
  8
Layer 1
 62
   252
100
AcDbSpline
210
0.0
220
0.0
230
1.0
 70
    11
 71
     3
 72
    20
 73
    16
 74
     0
 42
0.0000000001
 43
0.0000000001
 40
0.0
 40
0.0
 40
0.0
 40
0.0
 40
0.25
 40
0.25
 40
0.25
 40
0.25
 40
0.5
 40
0.5
 40
0.5
 40
0.5
 40
0.75
 40
0.75
 40
0.75
 40
0.75
 40
1.0
 40
1.0
 40
1.0
 40
1.0
 10
0.6024448818897638
 20
-0.1173110236220473
 30
0.0
 10
0.6024448818897638
 20
-0.1173110236220473
 30
0.0
 10
1.248795275590551
 20
0.2433858267716536
 30
0.0
 10
1.248795275590551
 20
0.2433858267716536
 30
0.0
 10
1.248795275590551
 20
0.2433858267716536
 30
0.0
 10
1.248795275590551
 20
0.2433858267716536
 30
0.0
 10
1.114767716535433
 20
0.2762992125984252
 30
0.0
 10
1.114767716535433
 20
0.2762992125984252
 30
0.0
 10
1.114767716535433
 20
0.2762992125984252
 30
0.0
 10
1.114767716535433
 20
0.2762992125984252
 30
0.0
 10
0.4684173228346457
 20
-0.0843976377952756
 30
0.0
 10
0.4684173228346457
 20
-0.0843976377952756
 30
0.0
 10
0.4684173228346457
 20
-0.0843976377952756
 30
0.0
 10
0.4684173228346457
 20
-0.0843976377952756
 30
0.0
 10
0.6024448818897638
 20
-0.1173110236220473
 30
0.0
 10
0.6024448818897638
 20
-0.1173110236220473
 30
0.0
  0
SPLINE
  5
73
330
1F
100
AcDbEntity
  8
Layer 1
 62
   252
100
AcDbSpline
210
0.0
220
0.0
230
1.0
 70
    11
 71
     3
 72
    20
 73
    16
 74
     0
 42
0.0000000001
 43
0.0000000001
 40
0.0
 40
0.0
 40
0.0
 40
0.0
 40
0.25
 40
0.25
 40
0.25
 40
0.25
 40
0.5
 40
0.5
 40
0.5
 40
0.5
 40
0.75
 40
0.75
 40
0.75
 40
0.75
 40
1.0
 40
1.0
 40
1.0
 40
1.0
 10
0.4684173228346457
 20
-0.0843976377952756
 30
0.0
 10
0.4684173228346457
 20
-0.0843976377952756
 30
0.0
 10
1.114767716535433
 20
0.2762992125984252
 30
0.0
 10
1.114767716535433
 20
0.2762992125984252
 30
0.0
 10
1.114767716535433
 20
0.2762992125984252
 30
0.0
 10
1.114767716535433
 20
0.2762992125984252
 30
0.0
 10
0.9764330708661417
 20
0.300236220472441
 30
0.0
 10
0.9764330708661417
 20
0.300236220472441
 30
0.0
 10
0.9764330708661417
 20
0.300236220472441
 30
0.0
 10
0.9764330708661417
 20
0.300236220472441
 30
0.0
 10
0.3300826771653543
 20
-0.0604606299212598
 30
0.0
 10
0.3300826771653543
 20
-0.0604606299212598
 30
0.0
 10
0.3300826771653543
 20
-0.0604606299212598
 30
0.0
 10
0.3300826771653543
 20
-0.0604606299212598
 30
0.0
 10
0.4684173228346457
 20
-0.0843976377952756
 30
0.0
 10
0.4684173228346457
 20
-0.0843976377952756
 30
0.0
  0
SPLINE
  5
74
330
1F
100
AcDbEntity
  8
Layer 1
 62
   252
100
AcDbSpline
210
0.0
220
0.0
230
1.0
 70
    11
 71
     3
 72
    20
 73
    16
 74
     0
 42
0.0000000001
 43
0.0000000001
 40
0.0
 40
0.0
 40
0.0
 40
0.0
 40
0.25
 40
0.25
 40
0.25
 40
0.25
 40
0.5
 40
0.5
 40
0.5
 40
0.5
 40
0.75
 40
0.75
 40
0.75
 40
0.75
 40
1.0
 40
1.0
 40
1.0
 40
1.0
 10
0.3300826771653543
 20
-0.0604606299212598
 30
0.0
 10
0.3300826771653543
 20
-0.0604606299212598
 30
0.0
 10
0.9764330708661417
 20
0.300236220472441
 30
0.0
 10
0.9764330708661417
 20
0.300236220472441
 30
0.0
 10
0.9764330708661417
 20
0.300236220472441
 30
0.0
 10
0.9764330708661417
 20
0.300236220472441
 30
0.0
 10
0.8345669291338583
 20
0.3145275590551181
 30
0.0
 10
0.8345669291338583
 20
0.3145275590551181
 30
0.0
 10
0.8345669291338583
 20
0.3145275590551181
 30
0.0
 10
0.8345669291338583
 20
0.3145275590551181
 30
0.0
 10
0.1882165354330709
 20
-0.0461692913385827
 30
0.0
 10
0.1882165354330709
 20
-0.0461692913385827
 30
0.0
 10
0.1882165354330709
 20
-0.0461692913385827
 30
0.0
 10
0.1882165354330709
 20
-0.0461692913385827
 30
0.0
 10
0.3300826771653543
 20
-0.0604606299212598
 30
0.0
 10
0.3300826771653543
 20
-0.0604606299212598
 30
0.0
  0
SPLINE
  5
75
330
1F
100
AcDbEntity
  8
Layer 1
 62
   250
370
     5
100
AcDbSpline
210
0.0
220
0.0
230
1.0
 70
    11
 71
     3
 72
   188
 73
   184
 74
     0
 42
0.0000000001
 43
0.0000000001
 40
0.0
 40
0.0
 40
0.0
 40
0.0
 40
0.0217391304347826
 40
0.0217391304347826
 40
0.0217391304347826
 40
0.0217391304347826
 40
0.0434782608695652
 40
0.0434782608695652
 40
0.0434782608695652
 40
0.0434782608695652
 40
0.0652173913043478
 40
0.0652173913043478
 40
0.0652173913043478
 40
0.0652173913043478
 40
0.0869565217391304
 40
0.0869565217391304
 40
0.0869565217391304
 40
0.0869565217391304
 40
0.108695652173913
 40
0.108695652173913
 40
0.108695652173913
 40
0.108695652173913
 40
0.1304347826086957
 40
0.1304347826086957
 40
0.1304347826086957
 40
0.1304347826086957
 40
0.1521739130434783
 40
0.1521739130434783
 40
0.1521739130434783
 40
0.1521739130434783
 40
0.1739130434782609
 40
0.1739130434782609
 40
0.1739130434782609
 40
0.1739130434782609
 40
0.1956521739130435
 40
0.1956521739130435
 40
0.1956521739130435
 40
0.1956521739130435
 40
0.2173913043478261
 40
0.2173913043478261
 40
0.2173913043478261
 40
0.2173913043478261
 40
0.2391304347826087
 40
0.2391304347826087
 40
0.2391304347826087
 40
0.2391304347826087
 40
0.2608695652173912
 40
0.2608695652173912
 40
0.2608695652173912
 40
0.2608695652173912
 40
0.2826086956521738
 40
0.2826086956521738
 40
0.2826086956521738
 40
0.2826086956521738
 40
0.3043478260869564
 40
0.3043478260869564
 40
0.3043478260869564
 40
0.3043478260869564
 40
0.326086956521739
 40
0.326086956521739
 40
0.326086956521739
 40
0.326086956521739
 40
0.3478260869565216
 40
0.3478260869565216
 40
0.3478260869565216
 40
0.3478260869565216
 40
0.3695652173913042
 40
0.3695652173913042
 40
0.3695652173913042
 40
0.3695652173913042
 40
0.3913043478260868
 40
0.3913043478260868
 40
0.3913043478260868
 40
0.3913043478260868
 40
0.4130434782608694
 40
0.4130434782608694
 40
0.4130434782608694
 40
0.4130434782608694
 40
0.434782608695652
 40
0.434782608695652
 40
0.434782608695652
 40
0.434782608695652
 40
0.4565217391304346
 40
0.4565217391304346
 40
0.4565217391304346
 40
0.4565217391304346
 40
0.4782608695652172
 40
0.4782608695652172
 40
0.4782608695652172
 40
0.4782608695652172
 40
0.4999999999999998
 40
0.4999999999999998
 40
0.4999999999999998
 40
0.4999999999999998
 40
0.5217391304347824
 40
0.5217391304347824
 40
0.5217391304347824
 40
0.5217391304347824
 40
0.543478260869565
 40
0.543478260869565
 40
0.543478260869565
 40
0.543478260869565
 40
0.5652173913043476
 40
0.5652173913043476
 40
0.5652173913043476
 40
0.5652173913043476
 40
0.5869565217391302
 40
0.5869565217391302
 40
0.5869565217391302
 40
0.5869565217391302
 40
0.6086956521739128
 40
0.6086956521739128
 40
0.6086956521739128
 40
0.6086956521739128
 40
0.6304347826086953
 40
0.6304347826086953
 40
0.6304347826086953
 40
0.6304347826086953
 40
0.6521739130434779
 40
0.6521739130434779
 40
0.6521739130434779
 40
0.6521739130434779
 40
0.6739130434782605
 40
0.6739130434782605
 40
0.6739130434782605
 40
0.6739130434782605
 40
0.6956521739130431
 40
0.6956521739130431
 40
0.6956521739130431
 40
0.6956521739130431
 40
0.7173913043478257
 40
0.7173913043478257
 40
0.7173913043478257
 40
0.7173913043478257
 40
0.7391304347826083
 40
0.7391304347826083
 40
0.7391304347826083
 40
0.7391304347826083
 40
0.7608695652173909
 40
0.7608695652173909
 40
0.7608695652173909
 40
0.7608695652173909
 40
0.7826086956521735
 40
0.7826086956521735
 40
0.7826086956521735
 40
0.7826086956521735
 40
0.8043478260869561
 40
0.8043478260869561
 40
0.8043478260869561
 40
0.8043478260869561
 40
0.8260869565217387
 40
0.8260869565217387
 40
0.8260869565217387
 40
0.8260869565217387
 40
0.8478260869565213
 40
0.8478260869565213
 40
0.8478260869565213
 40
0.8478260869565213
 40
0.8695652173913039
 40
0.8695652173913039
 40
0.8695652173913039
 40
0.8695652173913039
 40
0.8913043478260865
 40
0.8913043478260865
 40
0.8913043478260865
 40
0.8913043478260865
 40
0.9130434782608691
 40
0.9130434782608691
 40
0.9130434782608691
 40
0.9130434782608691
 40
0.9347826086956517
 40
0.9347826086956517
 40
0.9347826086956517
 40
0.9347826086956517
 40
0.9565217391304343
 40
0.9565217391304343
 40
0.9565217391304343
 40
0.9565217391304343
 40
0.9782608695652169
 40
0.9782608695652169
 40
0.9782608695652169
 40
0.9782608695652169
 40
1.0
 40
1.0
 40
1.0
 40
1.0
 10
1.30846062992126
 20
-1.567988188976378
 30
0.0
 10
1.30846062992126
 20
-1.567988188976378
 30
0.0
 10
1.954811023622047
 20
-1.207291338582677
 30
0.0
 10
1.954811023622047
 20
-1.207291338582677
 30
0.0
 10
1.954811023622047
 20
-1.207291338582677
 30
0.0
 10
1.954811023622047
 20
-1.207291338582677
 30
0.0
 10
2.048665354330709
 20
-1.129570866141732
 30
0.0
 10
2.048665354330709
 20
-1.129570866141732
 30
0.0
 10
2.048665354330709
 20
-1.129570866141732
 30
0.0
 10
2.048665354330709
 20
-1.129570866141732
 30
0.0
 10
2.123614173228347
 20
-1.048255905511811
 30
0.0
 10
2.123614173228347
 20
-1.048255905511811
 30
0.0
 10
2.123614173228347
 20
-1.048255905511811
 30
0.0
 10
2.123614173228347
 20
-1.048255905511811
 30
0.0
 10
2.180409448818898
 20
-0.963996062992126
 30
0.0
 10
2.180409448818898
 20
-0.963996062992126
 30
0.0
 10
2.180409448818898
 20
-0.963996062992126
 30
0.0
 10
2.180409448818898
 20
-0.963996062992126
 30
0.0
 10
2.219830708661418
 20
-0.8774685039370079
 30
0.0
 10
2.219830708661418
 20
-0.8774685039370079
 30
0.0
 10
2.219830708661418
 20
-0.8774685039370079
 30
0.0
 10
2.219830708661418
 20
-0.8774685039370079
 30
0.0
 10
2.242641732283465
 20
-0.7893267716535434
 30
0.0
 10
2.242641732283465
 20
-0.7893267716535434
 30
0.0
 10
2.242641732283465
 20
-0.7893267716535434
 30
0.0
 10
2.242641732283465
 20
-0.7893267716535434
 30
0.0
 10
2.249622047244094
 20
-0.700240157480315
 30
0.0
 10
2.249622047244094
 20
-0.700240157480315
 30
0.0
 10
2.249622047244094
 20
-0.700240157480315
 30
0.0
 10
2.249622047244094
 20
-0.700240157480315
 30
0.0
 10
2.24151968503937
 20
-0.6108503937007874
 30
0.0
 10
2.24151968503937
 20
-0.6108503937007874
 30
0.0
 10
2.24151968503937
 20
-0.6108503937007874
 30
0.0
 10
2.24151968503937
 20
-0.6108503937007874
 30
0.0
 10
2.219122047244095
 20
-0.5218425196850394
 30
0.0
 10
2.219122047244095
 20
-0.5218425196850394
 30
0.0
 10
2.219122047244095
 20
-0.5218425196850394
 30
0.0
 10
2.219122047244095
 20
-0.5218425196850394
 30
0.0
 10
2.183188976377953
 20
-0.4338622047244095
 30
0.0
 10
2.183188976377953
 20
-0.4338622047244095
 30
0.0
 10
2.183188976377953
 20
-0.4338622047244095
 30
0.0
 10
2.183188976377953
 20
-0.4338622047244095
 30
0.0
 10
2.1345
 20
-0.3475866141732283
 30
0.0
 10
2.1345
 20
-0.3475866141732283
 30
0.0
 10
2.1345
 20
-0.3475866141732283
 30
0.0
 10
2.1345
 20
-0.3475866141732283
 30
0.0
 10
2.073807086614173
 20
-0.2636614173228347
 30
0.0
 10
2.073807086614173
 20
-0.2636614173228347
 30
0.0
 10
2.073807086614173
 20
-0.2636614173228347
 30
0.0
 10
2.073807086614173
 20
-0.2636614173228347
 30
0.0
 10
2.001897637795276
 20
-0.1827598425196851
 30
0.0
 10
2.001897637795276
 20
-0.1827598425196851
 30
0.0
 10
2.001897637795276
 20
-0.1827598425196851
 30
0.0
 10
2.001897637795276
 20
-0.1827598425196851
 30
0.0
 10
1.919527559055118
 20
-0.1055393700787402
 30
0.0
 10
1.919527559055118
 20
-0.1055393700787402
 30
0.0
 10
1.919527559055118
 20
-0.1055393700787402
 30
0.0
 10
1.919527559055118
 20
-0.1055393700787402
 30
0.0
 10
1.827476377952756
 20
-0.0326692913385827
 30
0.0
 10
1.827476377952756
 20
-0.0326692913385827
 30
0.0
 10
1.827476377952756
 20
-0.0326692913385827
 30
0.0
 10
1.827476377952756
 20
-0.0326692913385827
 30
0.0
 10
1.726496062992126
 20
0.0352047244094488
 30
0.0
 10
1.726496062992126
 20
0.0352047244094488
 30
0.0
 10
1.726496062992126
 20
0.0352047244094488
 30
0.0
 10
1.726496062992126
 20
0.0352047244094488
 30
0.0
 10
1.617374015748032
 20
0.0974055118110236
 30
0.0
 10
1.617374015748032
 20
0.0974055118110236
 30
0.0
 10
1.617374015748032
 20
0.0974055118110236
 30
0.0
 10
1.617374015748032
 20
0.0974055118110236
 30
0.0
 10
1.500866141732284
 20
0.1532795275590551
 30
0.0
 10
1.500866141732284
 20
0.1532795275590551
 30
0.0
 10
1.500866141732284
 20
0.1532795275590551
 30
0.0
 10
1.500866141732284
 20
0.1532795275590551
 30
0.0
 10
1.377755905511811
 20
0.2021574803149606
 30
0.0
 10
1.377755905511811
 20
0.2021574803149606
 30
0.0
 10
1.377755905511811
 20
0.2021574803149606
 30
0.0
 10
1.377755905511811
 20
0.2021574803149606
 30
0.0
 10
1.248795275590551
 20
0.2433858267716536
 30
0.0
 10
1.248795275590551
 20
0.2433858267716536
 30
0.0
 10
1.248795275590551
 20
0.2433858267716536
 30
0.0
 10
1.248795275590551
 20
0.2433858267716536
 30
0.0
 10
1.114767716535433
 20
0.2762992125984252
 30
0.0
 10
1.114767716535433
 20
0.2762992125984252
 30
0.0
 10
1.114767716535433
 20
0.2762992125984252
 30
0.0
 10
1.114767716535433
 20
0.2762992125984252
 30
0.0
 10
0.9764330708661417
 20
0.300236220472441
 30
0.0
 10
0.9764330708661417
 20
0.300236220472441
 30
0.0
 10
0.9764330708661417
 20
0.300236220472441
 30
0.0
 10
0.9764330708661417
 20
0.300236220472441
 30
0.0
 10
0.8345669291338583
 20
0.3145275590551181
 30
0.0
 10
0.8345669291338583
 20
0.3145275590551181
 30
0.0
 10
0.8345669291338583
 20
0.3145275590551181
 30
0.0
 10
0.8345669291338583
 20
0.3145275590551181
 30
0.0
 10
0.1882165354330709
 20
-0.0461692913385827
 30
0.0
 10
0.1882165354330709
 20
-0.0461692913385827
 30
0.0
 10
0.1882165354330709
 20
-0.0461692913385827
 30
0.0
 10
0.1882165354330709
 20
-0.0461692913385827
 30
0.0
 10
0.3300826771653543
 20
-0.0604606299212598
 30
0.0
 10
0.3300826771653543
 20
-0.0604606299212598
 30
0.0
 10
0.3300826771653543
 20
-0.0604606299212598
 30
0.0
 10
0.3300826771653543
 20
-0.0604606299212598
 30
0.0
 10
0.4684173228346457
 20
-0.0843976377952756
 30
0.0
 10
0.4684173228346457
 20
-0.0843976377952756
 30
0.0
 10
0.4684173228346457
 20
-0.0843976377952756
 30
0.0
 10
0.4684173228346457
 20
-0.0843976377952756
 30
0.0
 10
0.6024448818897638
 20
-0.1173110236220473
 30
0.0
 10
0.6024448818897638
 20
-0.1173110236220473
 30
0.0
 10
0.6024448818897638
 20
-0.1173110236220473
 30
0.0
 10
0.6024448818897638
 20
-0.1173110236220473
 30
0.0
 10
0.7314055118110237
 20
-0.1585393700787402
 30
0.0
 10
0.7314055118110237
 20
-0.1585393700787402
 30
0.0
 10
0.7314055118110237
 20
-0.1585393700787402
 30
0.0
 10
0.7314055118110237
 20
-0.1585393700787402
 30
0.0
 10
0.8545157480314961
 20
-0.2074173228346457
 30
0.0
 10
0.8545157480314961
 20
-0.2074173228346457
 30
0.0
 10
0.8545157480314961
 20
-0.2074173228346457
 30
0.0
 10
0.8545157480314961
 20
-0.2074173228346457
 30
0.0
 10
0.9710236220472441
 20
-0.2632913385826772
 30
0.0
 10
0.9710236220472441
 20
-0.2632913385826772
 30
0.0
 10
0.9710236220472441
 20
-0.2632913385826772
 30
0.0
 10
0.9710236220472441
 20
-0.2632913385826772
 30
0.0
 10
1.080145669291339
 20
-0.325492125984252
 30
0.0
 10
1.080145669291339
 20
-0.325492125984252
 30
0.0
 10
1.080145669291339
 20
-0.325492125984252
 30
0.0
 10
1.080145669291339
 20
-0.325492125984252
 30
0.0
 10
1.181125984251969
 20
-0.3933661417322835
 30
0.0
 10
1.181125984251969
 20
-0.3933661417322835
 30
0.0
 10
1.181125984251969
 20
-0.3933661417322835
 30
0.0
 10
1.181125984251969
 20
-0.3933661417322835
 30
0.0
 10
1.273177165354331
 20
-0.466236220472441
 30
0.0
 10
1.273177165354331
 20
-0.466236220472441
 30
0.0
 10
1.273177165354331
 20
-0.466236220472441
 30
0.0
 10
1.273177165354331
 20
-0.466236220472441
 30
0.0
 10
1.355547244094488
 20
-0.5434566929133858
 30
0.0
 10
1.355547244094488
 20
-0.5434566929133858
 30
0.0
 10
1.355547244094488
 20
-0.5434566929133858
 30
0.0
 10
1.355547244094488
 20
-0.5434566929133858
 30
0.0
 10
1.427456692913386
 20
-0.6243582677165355
 30
0.0
 10
1.427456692913386
 20
-0.6243582677165355
 30
0.0
 10
1.427456692913386
 20
-0.6243582677165355
 30
0.0
 10
1.427456692913386
 20
-0.6243582677165355
 30
0.0
 10
1.488149606299213
 20
-0.7082834645669291
 30
0.0
 10
1.488149606299213
 20
-0.7082834645669291
 30
0.0
 10
1.488149606299213
 20
-0.7082834645669291
 30
0.0
 10
1.488149606299213
 20
-0.7082834645669291
 30
0.0
 10
1.536838582677165
 20
-0.7945590551181103
 30
0.0
 10
1.536838582677165
 20
-0.7945590551181103
 30
0.0
 10
1.536838582677165
 20
-0.7945590551181103
 30
0.0
 10
1.536838582677165
 20
-0.7945590551181103
 30
0.0
 10
1.572771653543307
 20
-0.8825393700787402
 30
0.0
 10
1.572771653543307
 20
-0.8825393700787402
 30
0.0
 10
1.572771653543307
 20
-0.8825393700787402
 30
0.0
 10
1.572771653543307
 20
-0.8825393700787402
 30
0.0
 10
1.595169291338583
 20
-0.9715472440944882
 30
0.0
 10
1.595169291338583
 20
-0.9715472440944882
 30
0.0
 10
1.595169291338583
 20
-0.9715472440944882
 30
0.0
 10
1.595169291338583
 20
-0.9715472440944882
 30
0.0
 10
1.603271653543307
 20
-1.060937007874016
 30
0.0
 10
1.603271653543307
 20
-1.060937007874016
 30
0.0
 10
1.603271653543307
 20
-1.060937007874016
 30
0.0
 10
1.603271653543307
 20
-1.060937007874016
 30
0.0
 10
1.596291338582677
 20
-1.150023622047244
 30
0.0
 10
1.596291338582677
 20
-1.150023622047244
 30
0.0
 10
1.596291338582677
 20
-1.150023622047244
 30
0.0
 10
1.596291338582677
 20
-1.150023622047244
 30
0.0
 10
1.57348031496063
 20
-1.238165354330709
 30
0.0
 10
1.57348031496063
 20
-1.238165354330709
 30
0.0
 10
1.57348031496063
 20
-1.238165354330709
 30
0.0
 10
1.57348031496063
 20
-1.238165354330709
 30
0.0
 10
1.53405905511811
 20
-1.324692913385827
 30
0.0
 10
1.53405905511811
 20
-1.324692913385827
 30
0.0
 10
1.53405905511811
 20
-1.324692913385827
 30
0.0
 10
1.53405905511811
 20
-1.324692913385827
 30
0.0
 10
1.477263779527559
 20
-1.408952755905512
 30
0.0
 10
1.477263779527559
 20
-1.408952755905512
 30
0.0
 10
1.477263779527559
 20
-1.408952755905512
 30
0.0
 10
1.477263779527559
 20
-1.408952755905512
 30
0.0
 10
1.402314960629921
 20
-1.490267716535433
 30
0.0
 10
1.402314960629921
 20
-1.490267716535433
 30
0.0
 10
1.402314960629921
 20
-1.490267716535433
 30
0.0
 10
1.402314960629921
 20
-1.490267716535433
 30
0.0
 10
1.30846062992126
 20
-1.567988188976378
 30
0.0
 10
1.30846062992126
 20
-1.567988188976378
 30
0.0
  0
SPLINE
  5
76
330
1F
100
AcDbEntity
  8
Layer 1
 62
   252
100
AcDbSpline
210
0.0
220
0.0
230
1.0
 70
    11
 71
     3
 72
    20
 73
    16
 74
     0
 42
0.0000000001
 43
0.0000000001
 40
0.0
 40
0.0
 40
0.0
 40
0.0
 40
0.25
 40
0.25
 40
0.25
 40
0.25
 40
0.5
 40
0.5
 40
0.5
 40
0.5
 40
0.75
 40
0.75
 40
0.75
 40
0.75
 40
1.0
 40
1.0
 40
1.0
 40
1.0
 10
0.1882165354330709
 20
-0.0461692913385827
 30
0.0
 10
0.1882165354330709
 20
-0.0461692913385827
 30
0.0
 10
0.8345669291338583
 20
0.3145275590551181
 30
0.0
 10
0.8345669291338583
 20
0.3145275590551181
 30
0.0
 10
0.8345669291338583
 20
0.3145275590551181
 30
0.0
 10
0.8345669291338583
 20
0.3145275590551181
 30
0.0
 10
-1.443271653543307
 20
0.4726889763779528
 30
0.0
 10
-1.443271653543307
 20
0.4726889763779528
 30
0.0
 10
-1.443271653543307
 20
0.4726889763779528
 30
0.0
 10
-1.443271653543307
 20
0.4726889763779528
 30
0.0
 10
-2.089622047244095
 20
0.111992125984252
 30
0.0
 10
-2.089622047244095
 20
0.111992125984252
 30
0.0
 10
-2.089622047244095
 20
0.111992125984252
 30
0.0
 10
-2.089622047244095
 20
0.111992125984252
 30
0.0
 10
0.1882165354330709
 20
-0.0461692913385827
 30
0.0
 10
0.1882165354330709
 20
-0.0461692913385827
 30
0.0
  0
SPLINE
  5
77
330
1F
100
AcDbEntity
  8
Layer 1
 62
   250
370
     5
100
AcDbSpline
210
0.0
220
0.0
230
1.0
 70
    11
 71
     3
 72
    20
 73
    16
 74
     0
 42
0.0000000001
 43
0.0000000001
 40
0.0
 40
0.0
 40
0.0
 40
0.0
 40
0.25
 40
0.25
 40
0.25
 40
0.25
 40
0.5
 40
0.5
 40
0.5
 40
0.5
 40
0.75
 40
0.75
 40
0.75
 40
0.75
 40
1.0
 40
1.0
 40
1.0
 40
1.0
 10
0.1882165354330709
 20
-0.0461692913385827
 30
0.0
 10
0.1882165354330709
 20
-0.0461692913385827
 30
0.0
 10
0.8345669291338583
 20
0.3145275590551181
 30
0.0
 10
0.8345669291338583
 20
0.3145275590551181
 30
0.0
 10
0.8345669291338583
 20
0.3145275590551181
 30
0.0
 10
0.8345669291338583
 20
0.3145275590551181
 30
0.0
 10
-1.443271653543307
 20
0.4726889763779528
 30
0.0
 10
-1.443271653543307
 20
0.4726889763779528
 30
0.0
 10
-1.443271653543307
 20
0.4726889763779528
 30
0.0
 10
-1.443271653543307
 20
0.4726889763779528
 30
0.0
 10
-2.089622047244095
 20
0.111992125984252
 30
0.0
 10
-2.089622047244095
 20
0.111992125984252
 30
0.0
 10
-2.089622047244095
 20
0.111992125984252
 30
0.0
 10
-2.089622047244095
 20
0.111992125984252
 30
0.0
 10
0.1882165354330709
 20
-0.0461692913385827
 30
0.0
 10
0.1882165354330709
 20
-0.0461692913385827
 30
0.0
  0
SPLINE
  5
78
330
1F
100
AcDbEntity
  8
Layer 1
 62
     7
370
     5
100
AcDbSpline
210
0.0
220
0.0
230
1.0
 70
    11
 71
     3
 72
    32
 73
    28
 74
     0
 42
0.0000000001
 43
0.0000000001
 40
0.0
 40
0.0
 40
0.0
 40
0.0
 40
0.1428571428571429
 40
0.1428571428571429
 40
0.1428571428571429
 40
0.1428571428571429
 40
0.2857142857142857
 40
0.2857142857142857
 40
0.2857142857142857
 40
0.2857142857142857
 40
0.4285714285714286
 40
0.4285714285714286
 40
0.4285714285714286
 40
0.4285714285714286
 40
0.5714285714285714
 40
0.5714285714285714
 40
0.5714285714285714
 40
0.5714285714285714
 40
0.7142857142857142
 40
0.7142857142857142
 40
0.7142857142857142
 40
0.7142857142857142
 40
0.857142857142857
 40
0.857142857142857
 40
0.857142857142857
 40
0.857142857142857
 40
1.0
 40
1.0
 40
1.0
 40
1.0
 10
-2.089622047244095
 20
0.111992125984252
 30
0.0
 10
-2.089622047244095
 20
0.111992125984252
 30
0.0
 10
-2.089625984251969
 20
-1.501649606299213
 30
0.0
 10
-2.089625984251969
 20
-1.501649606299213
 30
0.0
 10
-2.089625984251969
 20
-1.501649606299213
 30
0.0
 10
-2.089625984251969
 20
-1.501649606299213
 30
0.0
 10
-1.464625984251969
 20
-1.501649606299213
 30
0.0
 10
-1.464625984251969
 20
-1.501649606299213
 30
0.0
 10
-1.464625984251969
 20
-1.501649606299213
 30
0.0
 10
-1.464625984251969
 20
-1.501649606299213
 30
0.0
 10
-1.464625984251969
 20
-1.751649606299213
 30
0.0
 10
-1.464625984251969
 20
-1.751649606299213
 30
0.0
 10
-1.464625984251969
 20
-1.751649606299213
 30
0.0
 10
-1.464625984251969
 20
-1.751649606299213
 30
0.0
 10
-0.8396259842519686
 20
-1.751649606299213
 30
0.0
 10
-0.8396259842519686
 20
-1.751649606299213
 30
0.0
 10
-0.8396259842519686
 20
-1.751649606299213
 30
0.0
 10
-0.8396259842519686
 20
-1.751649606299213
 30
0.0
 10
-0.8396259842519686
 20
-2.001649606299213
 30
0.0
 10
-0.8396259842519686
 20
-2.001649606299213
 30
0.0
 10
-0.8396259842519686
 20
-2.001649606299213
 30
0.0
 10
2.774909448818898
 20
-2.001649606299213
 30
0.0
 10
1.717629921259843
 20
-0.1449133858267717
 30
0.0
 10
0.1882165354330709
 20
-0.0461692913385827
 30
0.0
 10
0.1882165354330709
 20
-0.0461692913385827
 30
0.0
 10
0.1882165354330709
 20
-0.0461692913385827
 30
0.0
 10
-2.089622047244095
 20
0.111992125984252
 30
0.0
 10
-2.089622047244095
 20
0.111992125984252
 30
0.0
  0
SPLINE
  5
79
330
1F
100
AcDbEntity
  8
Layer 1
 62
   250
100
AcDbSpline
210
0.0
220
0.0
230
1.0
 70
    11
 71
     3
 72
   104
 73
   100
 74
     0
 42
0.0000000001
 43
0.0000000001
 40
0.0
 40
0.0
 40
0.0
 40
0.0
 40
0.04
 40
0.04
 40
0.04
 40
0.04
 40
0.08
 40
0.08
 40
0.08
 40
0.08
 40
0.12
 40
0.12
 40
0.12
 40
0.12
 40
0.16
 40
0.16
 40
0.16
 40
0.16
 40
0.2
 40
0.2
 40
0.2
 40
0.2
 40
0.24
 40
0.24
 40
0.24
 40
0.24
 40
0.28
 40
0.28
 40
0.28
 40
0.28
 40
0.32
 40
0.32
 40
0.32
 40
0.32
 40
0.36
 40
0.36
 40
0.36
 40
0.36
 40
0.4
 40
0.4
 40
0.4
 40
0.4
 40
0.44
 40
0.44
 40
0.44
 40
0.44
 40
0.4799999999999999
 40
0.4799999999999999
 40
0.4799999999999999
 40
0.4799999999999999
 40
0.5199999999999999
 40
0.5199999999999999
 40
0.5199999999999999
 40
0.5199999999999999
 40
0.5599999999999999
 40
0.5599999999999999
 40
0.5599999999999999
 40
0.5599999999999999
 40
0.6
 40
0.6
 40
0.6
 40
0.6
 40
0.64
 40
0.64
 40
0.64
 40
0.64
 40
0.6800000000000001
 40
0.6800000000000001
 40
0.6800000000000001
 40
0.6800000000000001
 40
0.7200000000000001
 40
0.7200000000000001
 40
0.7200000000000001
 40
0.7200000000000001
 40
0.7600000000000001
 40
0.7600000000000001
 40
0.7600000000000001
 40
0.7600000000000001
 40
0.8000000000000002
 40
0.8000000000000002
 40
0.8000000000000002
 40
0.8000000000000002
 40
0.8400000000000002
 40
0.8400000000000002
 40
0.8400000000000002
 40
0.8400000000000002
 40
0.8800000000000002
 40
0.8800000000000002
 40
0.8800000000000002
 40
0.8800000000000002
 40
0.9200000000000003
 40
0.9200000000000003
 40
0.9200000000000003
 40
0.9200000000000003
 40
0.9600000000000003
 40
0.9600000000000003
 40
0.9600000000000003
 40
0.9600000000000003
 40
1.0
 40
1.0
 40
1.0
 40
1.0
 10
-0.2886023622047244
 20
-2.125291338582677
 30
0.0
 10
-0.2886023622047244
 20
-2.125291338582677
 30
0.0
 10
-0.2346299212598425
 20
-2.125291338582677
 30
0.0
 10
-0.2346299212598425
 20
-2.125291338582677
 30
0.0
 10
-0.2346299212598425
 20
-2.125291338582677
 30
0.0
 10
-0.2214606299212598
 20
-2.125291338582677
 30
0.0
 10
-0.2124330708661417
 20
-2.12590157480315
 30
0.0
 10
-0.2075472440944882
 20
-2.12709842519685
 30
0.0
 10
-0.2075472440944882
 20
-2.12709842519685
 30
0.0
 10
-0.2003228346456693
 20
-2.128818897637796
 30
0.0
 10
-0.1946299212598425
 20
-2.131956692913386
 30
0.0
 10
-0.1904055118110236
 20
-2.136515748031496
 30
0.0
 10
-0.1904055118110236
 20
-2.136515748031496
 30
0.0
 10
-0.1862125984251969
 20
-2.141070866141732
 30
0.0
 10
-0.1841023622047244
 20
-2.146570866141732
 30
0.0
 10
-0.1841023622047244
 20
-2.152956692913386
 30
0.0
 10
-0.1841023622047244
 20
-2.152956692913386
 30
0.0
 10
-0.1841023622047244
 20
-2.157570866141732
 30
0.0
 10
-0.1852125984251969
 20
-2.161708661417323
 30
0.0
 10
-0.1874330708661418
 20
-2.165374015748032
 30
0.0
 10
-0.1874330708661418
 20
-2.165374015748032
 30
0.0
 10
-0.1896574803149606
 20
-2.169043307086614
 30
0.0
 10
-0.1929055118110236
 20
-2.172181102362205
 30
0.0
 10
-0.1971299212598425
 20
-2.174763779527559
 30
0.0
 10
-0.1971299212598425
 20
-2.174763779527559
 30
0.0
 10
-0.1998503937007874
 20
-2.176456692913386
 30
0.0
 10
-0.2035196850393701
 20
-2.17790157480315
 30
0.0
 10
-0.2081850393700788
 20
-2.17909842519685
 30
0.0
 10
-0.2081850393700788
 20
-2.17909842519685
 30
0.0
 10
-0.2022677165354331
 20
-2.180181102362205
 30
0.0
 10
-0.1977677165354331
 20
-2.181484251968504
 30
0.0
 10
-0.1946850393700788
 20
-2.182984251968504
 30
0.0
 10
-0.1946850393700788
 20
-2.182984251968504
 30
0.0
 10
-0.1900196850393701
 20
-2.185263779527559
 30
0.0
 10
-0.1863228346456693
 20
-2.188511811023622
 30
0.0
 10
-0.1836299212598425
 20
-2.192763779527559
 30
0.0
 10
-0.1836299212598425
 20
-2.192763779527559
 30
0.0
 10
-0.1809055118110236
 20
-2.196984251968504
 30
0.0
 10
-0.1795472440944882
 20
-2.201763779527559
 30
0.0
 10
-0.1795472440944882
 20
-2.207070866141732
 30
0.0
 10
-0.1795472440944882
 20
-2.207070866141732
 30
0.0
 10
-0.1795472440944882
 20
-2.212236220472441
 30
0.0
 10
-0.1808779527559055
 20
-2.217011811023622
 30
0.0
 10
-0.1835472440944882
 20
-2.22140157480315
 30
0.0
 10
-0.1835472440944882
 20
-2.22140157480315
 30
0.0
 10
-0.1861850393700787
 20
-2.225791338582677
 30
0.0
 10
-0.1899606299212598
 20
-2.22940157480315
 30
0.0
 10
-0.1947952755905512
 20
-2.232236220472441
 30
0.0
 10
-0.1947952755905512
 20
-2.232236220472441
 30
0.0
 10
-0.1996574803149606
 20
-2.23503937007874
 30
0.0
 10
-0.2053228346456693
 20
-2.236846456692914
 30
0.0
 10
-0.2117677165354331
 20
-2.237653543307087
 30
0.0
 10
-0.2117677165354331
 20
-2.237653543307087
 30
0.0
 10
-0.218240157480315
 20
-2.238429133858268
 30
0.0
 10
-0.2248779527559055
 20
-2.238818897637795
 30
0.0
 10
-0.2317125984251969
 20
-2.238818897637795
 30
0.0
 10
-0.2317125984251969
 20
-2.238818897637795
 30
0.0
 10
-0.2317125984251969
 20
-2.238818897637795
 30
0.0
 10
-0.2886023622047244
 20
-2.238818897637795
 30
0.0
 10
-0.2886023622047244
 20
-2.238818897637795
 30
0.0
 10
-0.2886023622047244
 20
-2.238818897637795
 30
0.0
 10
-0.2886023622047244
 20
-2.238818897637795
 30
0.0
 10
-0.2886023622047244
 20
-2.231984251968504
 30
0.0
 10
-0.2886023622047244
 20
-2.231984251968504
 30
0.0
 10
-0.2886023622047244
 20
-2.231984251968504
 30
0.0
 10
-0.2886023622047244
 20
-2.231984251968504
 30
0.0
 10
-0.2847677165354331
 20
-2.231984251968504
 30
0.0
 10
-0.2847677165354331
 20
-2.231984251968504
 30
0.0
 10
-0.2847677165354331
 20
-2.231984251968504
 30
0.0
 10
-0.2810708661417323
 20
-2.231984251968504
 30
0.0
 10
-0.2785708661417323
 20
-2.23140157480315
 30
0.0
 10
-0.2772125984251969
 20
-2.230263779527559
 30
0.0
 10
-0.2772125984251969
 20
-2.230263779527559
 30
0.0
 10
-0.275240157480315
 20
-2.228708661417323
 30
0.0
 10
-0.2742677165354331
 20
-2.226098425196851
 30
0.0
 10
-0.2742677165354331
 20
-2.222456692913386
 30
0.0
 10
-0.2742677165354331
 20
-2.222456692913386
 30
0.0
 10
-0.2742677165354331
 20
-2.222456692913386
 30
0.0
 10
-0.2742677165354331
 20
-2.143598425196851
 30
0.0
 10
-0.2742677165354331
 20
-2.143598425196851
 30
0.0
 10
-0.2742677165354331
 20
-2.143598425196851
 30
0.0
 10
-0.2742677165354331
 20
-2.13990157480315
 30
0.0
 10
-0.2745708661417323
 20
-2.13740157480315
 30
0.0
 10
-0.2751574803149606
 20
-2.136043307086614
 30
0.0
 10
-0.2751574803149606
 20
-2.136043307086614
 30
0.0
 10
-0.2757677165354331
 20
-2.134681102362205
 30
0.0
 10
-0.2766574803149606
 20
-2.133708661417323
 30
0.0
 10
-0.2778503937007874
 20
-2.133098425196851
 30
0.0
 10
-0.2778503937007874
 20
-2.133098425196851
 30
0.0
 10
-0.2790433070866142
 20
-2.132515748031496
 30
0.0
 10
-0.2813503937007874
 20
-2.132208661417323
 30
0.0
 10
-0.2847677165354331
 20
-2.132208661417323
 30
0.0
 10
-0.2847677165354331
 20
-2.132208661417323
 30
0.0
 10
-0.2847677165354331
 20
-2.132208661417323
 30
0.0
 10
-0.2886023622047244
 20
-2.132208661417323
 30
0.0
 10
-0.2886023622047244
 20
-2.132208661417323
 30
0.0
 10
-0.2886023622047244
 20
-2.132208661417323
 30
0.0
 10
-0.2886023622047244
 20
-2.132208661417323
 30
0.0
 10
-0.2886023622047244
 20
-2.125291338582677
 30
0.0
 10
-0.2886023622047244
 20
-2.125291338582677
 30
0.0
  0
SPLINE
  5
7A
330
1F
100
AcDbEntity
  8
Layer 1
 62
   250
100
AcDbSpline
210
0.0
220
0.0
230
1.0
 70
    11
 71
     3
 72
    40
 73
    36
 74
     0
 42
0.0000000001
 43
0.0000000001
 40
0.0
 40
0.0
 40
0.0
 40
0.0
 40
0.1111111111111111
 40
0.1111111111111111
 40
0.1111111111111111
 40
0.1111111111111111
 40
0.2222222222222222
 40
0.2222222222222222
 40
0.2222222222222222
 40
0.2222222222222222
 40
0.3333333333333333
 40
0.3333333333333333
 40
0.3333333333333333
 40
0.3333333333333333
 40
0.4444444444444444
 40
0.4444444444444444
 40
0.4444444444444444
 40
0.4444444444444444
 40
0.5555555555555556
 40
0.5555555555555556
 40
0.5555555555555556
 40
0.5555555555555556
 40
0.6666666666666667
 40
0.6666666666666667
 40
0.6666666666666667
 40
0.6666666666666667
 40
0.7777777777777779
 40
0.7777777777777779
 40
0.7777777777777779
 40
0.7777777777777779
 40
0.8888888888888891
 40
0.8888888888888891
 40
0.8888888888888891
 40
0.8888888888888891
 40
1.0
 40
1.0
 40
1.0
 40
1.0
 10
-0.2590433070866142
 20
-2.134318897637795
 30
0.0
 10
-0.2590433070866142
 20
-2.134318897637795
 30
0.0
 10
-0.2590433070866142
 20
-2.17590157480315
 30
0.0
 10
-0.2590433070866142
 20
-2.17590157480315
 30
0.0
 10
-0.2590433070866142
 20
-2.17590157480315
 30
0.0
 10
-0.2590433070866142
 20
-2.17590157480315
 30
0.0
 10
-0.2382952755905512
 20
-2.17590157480315
 30
0.0
 10
-0.2382952755905512
 20
-2.17590157480315
 30
0.0
 10
-0.2382952755905512
 20
-2.17590157480315
 30
0.0
 10
-0.2286023622047244
 20
-2.17590157480315
 30
0.0
 10
-0.2219330708661418
 20
-2.175456692913386
 30
0.0
 10
-0.2183779527559055
 20
-2.174543307086614
 30
0.0
 10
-0.2183779527559055
 20
-2.174543307086614
 30
0.0
 10
-0.2127677165354331
 20
-2.173070866141732
 30
0.0
 10
-0.2085196850393701
 20
-2.170570866141732
 30
0.0
 10
-0.2055472440944882
 20
-2.167043307086614
 30
0.0
 10
-0.2055472440944882
 20
-2.167043307086614
 30
0.0
 10
-0.2026023622047244
 20
-2.163515748031496
 30
0.0
 10
-0.2011023622047244
 20
-2.158984251968504
 30
0.0
 10
-0.2011023622047244
 20
-2.153456692913386
 30
0.0
 10
-0.2011023622047244
 20
-2.153456692913386
 30
0.0
 10
-0.2011023622047244
 20
-2.148791338582677
 30
0.0
 10
-0.2024606299212599
 20
-2.14490157480315
 30
0.0
 10
-0.2051299212598425
 20
-2.141763779527559
 30
0.0
 10
-0.2051299212598425
 20
-2.141763779527559
 30
0.0
 10
-0.2078228346456693
 20
-2.138653543307087
 30
0.0
 10
-0.2114330708661417
 20
-2.136515748031496
 30
0.0
 10
-0.2159330708661418
 20
-2.135374015748031
 30
0.0
 10
-0.2159330708661418
 20
-2.135374015748031
 30
0.0
 10
-0.2188503937007874
 20
-2.134681102362205
 30
0.0
 10
-0.2249330708661418
 20
-2.134318897637795
 30
0.0
 10
-0.2341574803149606
 20
-2.134318897637795
 30
0.0
 10
-0.2341574803149606
 20
-2.134318897637795
 30
0.0
 10
-0.2341574803149606
 20
-2.134318897637795
 30
0.0
 10
-0.2590433070866142
 20
-2.134318897637795
 30
0.0
 10
-0.2590433070866142
 20
-2.134318897637795
 30
0.0
  0
SPLINE
  5
7B
330
1F
100
AcDbEntity
  8
Layer 1
 62
   250
100
AcDbSpline
210
0.0
220
0.0
230
1.0
 70
    11
 71
     3
 72
    52
 73
    48
 74
     0
 42
0.0000000001
 43
0.0000000001
 40
0.0
 40
0.0
 40
0.0
 40
0.0
 40
0.0833333333333333
 40
0.0833333333333333
 40
0.0833333333333333
 40
0.0833333333333333
 40
0.1666666666666667
 40
0.1666666666666667
 40
0.1666666666666667
 40
0.1666666666666667
 40
0.25
 40
0.25
 40
0.25
 40
0.25
 40
0.3333333333333333
 40
0.3333333333333333
 40
0.3333333333333333
 40
0.3333333333333333
 40
0.4166666666666666
 40
0.4166666666666666
 40
0.4166666666666666
 40
0.4166666666666666
 40
0.4999999999999999
 40
0.4999999999999999
 40
0.4999999999999999
 40
0.4999999999999999
 40
0.5833333333333333
 40
0.5833333333333333
 40
0.5833333333333333
 40
0.5833333333333333
 40
0.6666666666666666
 40
0.6666666666666666
 40
0.6666666666666666
 40
0.6666666666666666
 40
0.75
 40
0.75
 40
0.75
 40
0.75
 40
0.8333333333333334
 40
0.8333333333333334
 40
0.8333333333333334
 40
0.8333333333333334
 40
0.9166666666666667
 40
0.9166666666666667
 40
0.9166666666666667
 40
0.9166666666666667
 40
1.0
 40
1.0
 40
1.0
 40
1.0
 10
-0.2590433070866142
 20
-2.183736220472441
 30
0.0
 10
-0.2590433070866142
 20
-2.183736220472441
 30
0.0
 10
-0.2590433070866142
 20
-2.220984251968504
 30
0.0
 10
-0.2590433070866142
 20
-2.220984251968504
 30
0.0
 10
-0.2590433070866142
 20
-2.220984251968504
 30
0.0
 10
-0.2590433070866142
 20
-2.224736220472441
 30
0.0
 10
-0.2588779527559055
 20
-2.226956692913386
 30
0.0
 10
-0.2585748031496063
 20
-2.227681102362205
 30
0.0
 10
-0.2585748031496063
 20
-2.227681102362205
 30
0.0
 10
-0.2581299212598425
 20
-2.228653543307087
 30
0.0
 10
-0.2572677165354331
 20
-2.229318897637795
 30
0.0
 10
-0.2559606299212598
 20
-2.229708661417323
 30
0.0
 10
-0.2559606299212598
 20
-2.229708661417323
 30
0.0
 10
-0.2550433070866142
 20
-2.229984251968504
 30
0.0
 10
-0.2524330708661418
 20
-2.230125984251969
 30
0.0
 10
-0.2481574803149606
 20
-2.230125984251969
 30
0.0
 10
-0.2481574803149606
 20
-2.230125984251969
 30
0.0
 10
-0.2481574803149606
 20
-2.230125984251969
 30
0.0
 10
-0.2370748031496063
 20
-2.230125984251969
 30
0.0
 10
-0.2370748031496063
 20
-2.230125984251969
 30
0.0
 10
-0.2370748031496063
 20
-2.230125984251969
 30
0.0
 10
-0.2261299212598425
 20
-2.230125984251969
 30
0.0
 10
-0.2182952755905512
 20
-2.229511811023622
 30
0.0
 10
-0.2136023622047244
 20
-2.228291338582677
 30
0.0
 10
-0.2136023622047244
 20
-2.228291338582677
 30
0.0
 10
-0.2089055118110236
 20
-2.227070866141732
 30
0.0
 10
-0.2049055118110236
 20
-2.224484251968504
 30
0.0
 10
-0.2016023622047244
 20
-2.22053937007874
 30
0.0
 10
-0.2016023622047244
 20
-2.22053937007874
 30
0.0
 10
-0.1982952755905512
 20
-2.216625984251968
 30
0.0
 10
-0.1966299212598425
 20
-2.211874015748032
 30
0.0
 10
-0.1966299212598425
 20
-2.206346456692914
 30
0.0
 10
-0.1966299212598425
 20
-2.206346456692914
 30
0.0
 10
-0.1966299212598425
 20
-2.201681102362205
 30
0.0
 10
-0.197988188976378
 20
-2.197543307086614
 30
0.0
 10
-0.2006574803149606
 20
-2.193929133858268
 30
0.0
 10
-0.2006574803149606
 20
-2.193929133858268
 30
0.0
 10
-0.2033503937007874
 20
-2.190318897637795
 30
0.0
 10
-0.2070748031496063
 20
-2.187736220472441
 30
0.0
 10
-0.2118228346456693
 20
-2.186125984251969
 30
0.0
 10
-0.2118228346456693
 20
-2.186125984251969
 30
0.0
 10
-0.2165748031496063
 20
-2.184511811023622
 30
0.0
 10
-0.224988188976378
 20
-2.183736220472441
 30
0.0
 10
-0.2370748031496063
 20
-2.183736220472441
 30
0.0
 10
-0.2370748031496063
 20
-2.183736220472441
 30
0.0
 10
-0.2370748031496063
 20
-2.183736220472441
 30
0.0
 10
-0.2590433070866142
 20
-2.183736220472441
 30
0.0
 10
-0.2590433070866142
 20
-2.183736220472441
 30
0.0
  0
SPLINE
  5
7C
330
1F
100
AcDbEntity
  8
Layer 1
 62
   250
100
AcDbSpline
210
0.0
220
0.0
230
1.0
 70
    11
 71
     3
 72
   112
 73
   108
 74
     0
 42
0.0000000001
 43
0.0000000001
 40
0.0
 40
0.0
 40
0.0
 40
0.0
 40
0.037037037037037
 40
0.037037037037037
 40
0.037037037037037
 40
0.037037037037037
 40
0.0740740740740741
 40
0.0740740740740741
 40
0.0740740740740741
 40
0.0740740740740741
 40
0.1111111111111111
 40
0.1111111111111111
 40
0.1111111111111111
 40
0.1111111111111111
 40
0.1481481481481481
 40
0.1481481481481481
 40
0.1481481481481481
 40
0.1481481481481481
 40
0.1851851851851852
 40
0.1851851851851852
 40
0.1851851851851852
 40
0.1851851851851852
 40
0.2222222222222222
 40
0.2222222222222222
 40
0.2222222222222222
 40
0.2222222222222222
 40
0.2592592592592592
 40
0.2592592592592592
 40
0.2592592592592592
 40
0.2592592592592592
 40
0.2962962962962963
 40
0.2962962962962963
 40
0.2962962962962963
 40
0.2962962962962963
 40
0.3333333333333333
 40
0.3333333333333333
 40
0.3333333333333333
 40
0.3333333333333333
 40
0.3703703703703704
 40
0.3703703703703704
 40
0.3703703703703704
 40
0.3703703703703704
 40
0.4074074074074074
 40
0.4074074074074074
 40
0.4074074074074074
 40
0.4074074074074074
 40
0.4444444444444444
 40
0.4444444444444444
 40
0.4444444444444444
 40
0.4444444444444444
 40
0.4814814814814815
 40
0.4814814814814815
 40
0.4814814814814815
 40
0.4814814814814815
 40
0.5185185185185185
 40
0.5185185185185185
 40
0.5185185185185185
 40
0.5185185185185185
 40
0.5555555555555556
 40
0.5555555555555556
 40
0.5555555555555556
 40
0.5555555555555556
 40
0.5925925925925926
 40
0.5925925925925926
 40
0.5925925925925926
 40
0.5925925925925926
 40
0.6296296296296295
 40
0.6296296296296295
 40
0.6296296296296295
 40
0.6296296296296295
 40
0.6666666666666665
 40
0.6666666666666665
 40
0.6666666666666665
 40
0.6666666666666665
 40
0.7037037037037035
 40
0.7037037037037035
 40
0.7037037037037035
 40
0.7037037037037035
 40
0.7407407407407405
 40
0.7407407407407405
 40
0.7407407407407405
 40
0.7407407407407405
 40
0.7777777777777775
 40
0.7777777777777775
 40
0.7777777777777775
 40
0.7777777777777775
 40
0.8148148148148144
 40
0.8148148148148144
 40
0.8148148148148144
 40
0.8148148148148144
 40
0.8518518518518514
 40
0.8518518518518514
 40
0.8518518518518514
 40
0.8518518518518514
 40
0.8888888888888884
 40
0.8888888888888884
 40
0.8888888888888884
 40
0.8888888888888884
 40
0.9259259259259254
 40
0.9259259259259254
 40
0.9259259259259254
 40
0.9259259259259254
 40
0.9629629629629624
 40
0.9629629629629624
 40
0.9629629629629624
 40
0.9629629629629624
 40
1.0
 40
1.0
 40
1.0
 40
1.0
 10
-0.1219370078740158
 20
-2.125291338582677
 30
0.0
 10
-0.1219370078740158
 20
-2.125291338582677
 30
0.0
 10
-0.1085196850393701
 20
-2.125291338582677
 30
0.0
 10
-0.1085196850393701
 20
-2.125291338582677
 30
0.0
 10
-0.1085196850393701
 20
-2.125291338582677
 30
0.0
 10
-0.1085196850393701
 20
-2.125291338582677
 30
0.0
 10
-0.0732716535433071
 20
-2.220181102362205
 30
0.0
 10
-0.0732716535433071
 20
-2.220181102362205
 30
0.0
 10
-0.0732716535433071
 20
-2.220181102362205
 30
0.0
 10
-0.0715472440944882
 20
-2.224956692913386
 30
0.0
 10
-0.0697992125984252
 20
-2.228125984251969
 30
0.0
 10
-0.0680196850393701
 20
-2.229653543307087
 30
0.0
 10
-0.0680196850393701
 20
-2.229653543307087
 30
0.0
 10
-0.0662716535433071
 20
-2.231208661417323
 30
0.0
 10
-0.0638818897637795
 20
-2.231984251968504
 30
0.0
 10
-0.0609094488188976
 20
-2.231984251968504
 30
0.0
 10
-0.0609094488188976
 20
-2.231984251968504
 30
0.0
 10
-0.0609094488188976
 20
-2.231984251968504
 30
0.0
 10
-0.0591299212598425
 20
-2.231984251968504
 30
0.0
 10
-0.0591299212598425
 20
-2.231984251968504
 30
0.0
 10
-0.0591299212598425
 20
-2.231984251968504
 30
0.0
 10
-0.0591299212598425
 20
-2.231984251968504
 30
0.0
 10
-0.0591299212598425
 20
-2.238818897637795
 30
0.0
 10
-0.0591299212598425
 20
-2.238818897637795
 30
0.0
 10
-0.0591299212598425
 20
-2.238818897637795
 30
0.0
 10
-0.0591299212598425
 20
-2.238818897637795
 30
0.0
 10
-0.0995748031496063
 20
-2.238818897637795
 30
0.0
 10
-0.0995748031496063
 20
-2.238818897637795
 30
0.0
 10
-0.0995748031496063
 20
-2.238818897637795
 30
0.0
 10
-0.0995748031496063
 20
-2.238818897637795
 30
0.0
 10
-0.0995748031496063
 20
-2.231984251968504
 30
0.0
 10
-0.0995748031496063
 20
-2.231984251968504
 30
0.0
 10
-0.0995748031496063
 20
-2.231984251968504
 30
0.0
 10
-0.0982716535433071
 20
-2.231874015748032
 30
0.0
 10
-0.096992125984252
 20
-2.231818897637795
 30
0.0
 10
-0.095740157480315
 20
-2.231818897637795
 30
0.0
 10
-0.095740157480315
 20
-2.231818897637795
 30
0.0
 10
-0.0931299212598425
 20
-2.231818897637795
 30
0.0
 10
-0.0914370078740157
 20
-2.23153937007874
 30
0.0
 10
-0.0906023622047244
 20
-2.231011811023622
 30
0.0
 10
-0.0906023622047244
 20
-2.231011811023622
 30
0.0
 10
-0.0890472440944882
 20
-2.229984251968504
 30
0.0
 10
-0.088244094488189
 20
-2.228681102362205
 30
0.0
 10
-0.088244094488189
 20
-2.22709842519685
 30
0.0
 10
-0.088244094488189
 20
-2.22709842519685
 30
0.0
 10
-0.088244094488189
 20
-2.225956692913386
 30
0.0
 10
-0.0890196850393701
 20
-2.223181102362205
 30
0.0
 10
-0.0905196850393701
 20
-2.218708661417323
 30
0.0
 10
-0.0905196850393701
 20
-2.218708661417323
 30
0.0
 10
-0.0905196850393701
 20
-2.218708661417323
 30
0.0
 10
-0.0980196850393701
 20
-2.196736220472441
 30
0.0
 10
-0.0980196850393701
 20
-2.196736220472441
 30
0.0
 10
-0.0980196850393701
 20
-2.196736220472441
 30
0.0
 10
-0.0980196850393701
 20
-2.196736220472441
 30
0.0
 10
-0.1391850393700788
 20
-2.196736220472441
 30
0.0
 10
-0.1391850393700788
 20
-2.196736220472441
 30
0.0
 10
-0.1391850393700788
 20
-2.196736220472441
 30
0.0
 10
-0.1391850393700788
 20
-2.196736220472441
 30
0.0
 10
-0.147992125984252
 20
-2.221318897637795
 30
0.0
 10
-0.147992125984252
 20
-2.221318897637795
 30
0.0
 10
-0.147992125984252
 20
-2.221318897637795
 30
0.0
 10
-0.1489094488188976
 20
-2.223874015748032
 30
0.0
 10
-0.1493818897637795
 20
-2.225625984251969
 30
0.0
 10
-0.1493818897637795
 20
-2.226625984251969
 30
0.0
 10
-0.1493818897637795
 20
-2.226625984251969
 30
0.0
 10
-0.1493818897637795
 20
-2.227708661417323
 30
0.0
 10
-0.1490748031496063
 20
-2.228653543307087
 30
0.0
 10
-0.1485196850393701
 20
-2.229456692913386
 30
0.0
 10
-0.1485196850393701
 20
-2.229456692913386
 30
0.0
 10
-0.1479370078740158
 20
-2.230263779527559
 30
0.0
 10
-0.1471850393700787
 20
-2.230874015748032
 30
0.0
 10
-0.1461850393700787
 20
-2.231291338582677
 30
0.0
 10
-0.1461850393700787
 20
-2.231291338582677
 30
0.0
 10
-0.1452125984251969
 20
-2.231708661417323
 30
0.0
 10
-0.1436574803149606
 20
-2.23190157480315
 30
0.0
 10
-0.1414645669291339
 20
-2.23190157480315
 30
0.0
 10
-0.1414645669291339
 20
-2.23190157480315
 30
0.0
 10
-0.1400196850393701
 20
-2.23190157480315
 30
0.0
 10
-0.1388267716535433
 20
-2.231929133858268
 30
0.0
 10
-0.1379094488188976
 20
-2.231984251968504
 30
0.0
 10
-0.1379094488188976
 20
-2.231984251968504
 30
0.0
 10
-0.1379094488188976
 20
-2.231984251968504
 30
0.0
 10
-0.1379094488188976
 20
-2.238818897637795
 30
0.0
 10
-0.1379094488188976
 20
-2.238818897637795
 30
0.0
 10
-0.1379094488188976
 20
-2.238818897637795
 30
0.0
 10
-0.1379094488188976
 20
-2.238818897637795
 30
0.0
 10
-0.1718267716535433
 20
-2.238818897637795
 30
0.0
 10
-0.1718267716535433
 20
-2.238818897637795
 30
0.0
 10
-0.1718267716535433
 20
-2.238818897637795
 30
0.0
 10
-0.1718267716535433
 20
-2.238818897637795
 30
0.0
 10
-0.1718267716535433
 20
-2.231984251968504
 30
0.0
 10
-0.1718267716535433
 20
-2.231984251968504
 30
0.0
 10
-0.1718267716535433
 20
-2.231984251968504
 30
0.0
 10
-0.1686850393700788
 20
-2.231984251968504
 30
0.0
 10
-0.1664094488188976
 20
-2.231681102362205
 30
0.0
 10
-0.1650472440944882
 20
-2.23103937007874
 30
0.0
 10
-0.1650472440944882
 20
-2.23103937007874
 30
0.0
 10
-0.1636574803149606
 20
-2.230429133858268
 30
0.0
 10
-0.1624370078740157
 20
-2.229429133858268
 30
0.0
 10
-0.1614094488188977
 20
-2.22803937007874
 30
0.0
 10
-0.1614094488188977
 20
-2.22803937007874
 30
0.0
 10
-0.1603818897637795
 20
-2.226653543307087
 30
0.0
 10
-0.1590196850393701
 20
-2.223736220472441
 30
0.0
 10
-0.1573543307086614
 20
-2.219291338582677
 30
0.0
 10
-0.1573543307086614
 20
-2.219291338582677
 30
0.0
 10
-0.1573543307086614
 20
-2.219291338582677
 30
0.0
 10
-0.1219370078740158
 20
-2.125291338582677
 30
0.0
 10
-0.1219370078740158
 20
-2.125291338582677
 30
0.0
  0
SPLINE
  5
7D
330
1F
100
AcDbEntity
  8
Layer 1
 62
   250
100
AcDbSpline
210
0.0
220
0.0
230
1.0
 70
    11
 71
     3
 72
    16
 73
    12
 74
     0
 42
0.0000000001
 43
0.0000000001
 40
0.0
 40
0.0
 40
0.0
 40
0.0
 40
0.3333333333333333
 40
0.3333333333333333
 40
0.3333333333333333
 40
0.3333333333333333
 40
0.6666666666666666
 40
0.6666666666666666
 40
0.6666666666666666
 40
0.6666666666666666
 40
1.0
 40
1.0
 40
1.0
 40
1.0
 10
-0.1361850393700788
 20
-2.188763779527559
 30
0.0
 10
-0.1361850393700788
 20
-2.188763779527559
 30
0.0
 10
-0.1011023622047244
 20
-2.188763779527559
 30
0.0
 10
-0.1011023622047244
 20
-2.188763779527559
 30
0.0
 10
-0.1011023622047244
 20
-2.188763779527559
 30
0.0
 10
-0.1011023622047244
 20
-2.188763779527559
 30
0.0
 10
-0.1186850393700788
 20
-2.139929133858268
 30
0.0
 10
-0.1186850393700788
 20
-2.139929133858268
 30
0.0
 10
-0.1186850393700788
 20
-2.139929133858268
 30
0.0
 10
-0.1186850393700788
 20
-2.139929133858268
 30
0.0
 10
-0.1361850393700788
 20
-2.188763779527559
 30
0.0
 10
-0.1361850393700788
 20
-2.188763779527559
 30
0.0
  0
SPLINE
  5
7E
330
1F
100
AcDbEntity
  8
Layer 1
 62
   250
100
AcDbSpline
210
0.0
220
0.0
230
1.0
 70
    11
 71
     3
 72
    72
 73
    68
 74
     0
 42
0.0000000001
 43
0.0000000001
 40
0.0
 40
0.0
 40
0.0
 40
0.0
 40
0.0588235294117647
 40
0.0588235294117647
 40
0.0588235294117647
 40
0.0588235294117647
 40
0.1176470588235294
 40
0.1176470588235294
 40
0.1176470588235294
 40
0.1176470588235294
 40
0.1764705882352941
 40
0.1764705882352941
 40
0.1764705882352941
 40
0.1764705882352941
 40
0.2352941176470588
 40
0.2352941176470588
 40
0.2352941176470588
 40
0.2352941176470588
 40
0.2941176470588235
 40
0.2941176470588235
 40
0.2941176470588235
 40
0.2941176470588235
 40
0.3529411764705883
 40
0.3529411764705883
 40
0.3529411764705883
 40
0.3529411764705883
 40
0.411764705882353
 40
0.411764705882353
 40
0.411764705882353
 40
0.411764705882353
 40
0.4705882352941177
 40
0.4705882352941177
 40
0.4705882352941177
 40
0.4705882352941177
 40
0.5294117647058824
 40
0.5294117647058824
 40
0.5294117647058824
 40
0.5294117647058824
 40
0.5882352941176471
 40
0.5882352941176471
 40
0.5882352941176471
 40
0.5882352941176471
 40
0.6470588235294118
 40
0.6470588235294118
 40
0.6470588235294118
 40
0.6470588235294118
 40
0.7058823529411765
 40
0.7058823529411765
 40
0.7058823529411765
 40
0.7058823529411765
 40
0.7647058823529412
 40
0.7647058823529412
 40
0.7647058823529412
 40
0.7647058823529412
 40
0.823529411764706
 40
0.823529411764706
 40
0.823529411764706
 40
0.823529411764706
 40
0.8823529411764707
 40
0.8823529411764707
 40
0.8823529411764707
 40
0.8823529411764707
 40
0.9411764705882354
 40
0.9411764705882354
 40
0.9411764705882354
 40
0.9411764705882354
 40
1.0
 40
1.0
 40
1.0
 40
1.0
 10
0.1038976377952756
 20
-2.125291338582677
 30
0.0
 10
0.1038976377952756
 20
-2.125291338582677
 30
0.0
 10
0.1099803149606299
 20
-2.125291338582677
 30
0.0
 10
0.1099803149606299
 20
-2.125291338582677
 30
0.0
 10
0.1099803149606299
 20
-2.125291338582677
 30
0.0
 10
0.1099803149606299
 20
-2.125291338582677
 30
0.0
 10
0.1099803149606299
 20
-2.21953937007874
 30
0.0
 10
0.1099803149606299
 20
-2.21953937007874
 30
0.0
 10
0.1099803149606299
 20
-2.21953937007874
 30
0.0
 10
0.1099803149606299
 20
-2.223984251968504
 30
0.0
 10
0.1102874015748032
 20
-2.226846456692913
 30
0.0
 10
0.1108425196850394
 20
-2.228125984251969
 30
0.0
 10
0.1108425196850394
 20
-2.228125984251969
 30
0.0
 10
0.1114251968503937
 20
-2.22940157480315
 30
0.0
 10
0.1123425196850394
 20
-2.230346456692914
 30
0.0
 10
0.1136456692913386
 20
-2.231011811023622
 30
0.0
 10
0.1136456692913386
 20
-2.231011811023622
 30
0.0
 10
0.1149527559055118
 20
-2.231653543307087
 30
0.0
 10
0.1175354330708661
 20
-2.231984251968504
 30
0.0
 10
0.1213976377952756
 20
-2.231984251968504
 30
0.0
 10
0.1213976377952756
 20
-2.231984251968504
 30
0.0
 10
0.1213976377952756
 20
-2.231984251968504
 30
0.0
 10
0.1293700787401575
 20
-2.231984251968504
 30
0.0
 10
0.1293700787401575
 20
-2.231984251968504
 30
0.0
 10
0.1293700787401575
 20
-2.231984251968504
 30
0.0
 10
0.1293700787401575
 20
-2.231984251968504
 30
0.0
 10
0.1293700787401575
 20
-2.238818897637795
 30
0.0
 10
0.1293700787401575
 20
-2.238818897637795
 30
0.0
 10
0.1293700787401575
 20
-2.238818897637795
 30
0.0
 10
0.1293700787401575
 20
-2.238818897637795
 30
0.0
 10
0.0757322834645669
 20
-2.238818897637795
 30
0.0
 10
0.0757322834645669
 20
-2.238818897637795
 30
0.0
 10
0.0757322834645669
 20
-2.238818897637795
 30
0.0
 10
0.0757322834645669
 20
-2.238818897637795
 30
0.0
 10
0.0757322834645669
 20
-2.231984251968504
 30
0.0
 10
0.0757322834645669
 20
-2.231984251968504
 30
0.0
 10
0.0757322834645669
 20
-2.231984251968504
 30
0.0
 10
0.0757322834645669
 20
-2.231984251968504
 30
0.0
 10
0.0845905511811024
 20
-2.231984251968504
 30
0.0
 10
0.0845905511811024
 20
-2.231984251968504
 30
0.0
 10
0.0845905511811024
 20
-2.231984251968504
 30
0.0
 10
0.0884527559055118
 20
-2.231984251968504
 30
0.0
 10
0.091007874015748
 20
-2.231653543307087
 30
0.0
 10
0.0922874015748032
 20
-2.230956692913386
 30
0.0
 10
0.0922874015748032
 20
-2.230956692913386
 30
0.0
 10
0.0935629921259843
 20
-2.230291338582677
 30
0.0
 10
0.0945629921259842
 20
-2.229208661417323
 30
0.0
 10
0.095259842519685
 20
-2.227708661417323
 30
0.0
 10
0.095259842519685
 20
-2.227708661417323
 30
0.0
 10
0.0959527559055118
 20
-2.226208661417323
 30
0.0
 10
0.0963149606299213
 20
-2.223484251968504
 30
0.0
 10
0.0963149606299213
 20
-2.21953937007874
 30
0.0
 10
0.0963149606299213
 20
-2.21953937007874
 30
0.0
 10
0.0963149606299213
 20
-2.21953937007874
 30
0.0
 10
0.0963149606299213
 20
-2.142070866141733
 30
0.0
 10
0.0963149606299213
 20
-2.142070866141733
 30
0.0
 10
0.0963149606299213
 20
-2.142070866141733
 30
0.0
 10
0.0963149606299213
 20
-2.142070866141733
 30
0.0
 10
0.0757322834645669
 20
-2.142070866141733
 30
0.0
 10
0.0757322834645669
 20
-2.142070866141733
 30
0.0
 10
0.0757322834645669
 20
-2.142070866141733
 30
0.0
 10
0.0757322834645669
 20
-2.142070866141733
 30
0.0
 10
0.0757322834645669
 20
-2.135070866141732
 30
0.0
 10
0.0757322834645669
 20
-2.135070866141732
 30
0.0
 10
0.0757322834645669
 20
-2.135070866141732
 30
0.0
 10
0.0869527559055118
 20
-2.133488188976378
 30
0.0
 10
0.0963425196850394
 20
-2.130236220472441
 30
0.0
 10
0.1038976377952756
 20
-2.125291338582677
 30
0.0
  0
SPLINE
  5
7F
330
1F
100
AcDbEntity
  8
Layer 1
 62
   250
100
AcDbSpline
210
0.0
220
0.0
230
1.0
 70
    11
 71
     3
 72
    84
 73
    80
 74
     0
 42
0.0000000001
 43
0.0000000001
 40
0.0
 40
0.0
 40
0.0
 40
0.0
 40
0.05
 40
0.05
 40
0.05
 40
0.05
 40
0.1
 40
0.1
 40
0.1
 40
0.1
 40
0.15
 40
0.15
 40
0.15
 40
0.15
 40
0.2
 40
0.2
 40
0.2
 40
0.2
 40
0.25
 40
0.25
 40
0.25
 40
0.25
 40
0.3
 40
0.3
 40
0.3
 40
0.3
 40
0.35
 40
0.35
 40
0.35
 40
0.35
 40
0.4
 40
0.4
 40
0.4
 40
0.4
 40
0.45
 40
0.45
 40
0.45
 40
0.45
 40
0.4999999999999999
 40
0.4999999999999999
 40
0.4999999999999999
 40
0.4999999999999999
 40
0.5499999999999999
 40
0.5499999999999999
 40
0.5499999999999999
 40
0.5499999999999999
 40
0.6
 40
0.6
 40
0.6
 40
0.6
 40
0.65
 40
0.65
 40
0.65
 40
0.65
 40
0.7000000000000001
 40
0.7000000000000001
 40
0.7000000000000001
 40
0.7000000000000001
 40
0.7500000000000001
 40
0.7500000000000001
 40
0.7500000000000001
 40
0.7500000000000001
 40
0.8000000000000002
 40
0.8000000000000002
 40
0.8000000000000002
 40
0.8000000000000002
 40
0.8500000000000002
 40
0.8500000000000002
 40
0.8500000000000002
 40
0.8500000000000002
 40
0.9000000000000002
 40
0.9000000000000002
 40
0.9000000000000002
 40
0.9000000000000002
 40
0.9500000000000003
 40
0.9500000000000003
 40
0.9500000000000003
 40
0.9500000000000003
 40
1.0
 40
1.0
 40
1.0
 40
1.0
 10
0.2355629921259843
 20
-2.123181102362205
 30
0.0
 10
0.2355629921259843
 20
-2.123181102362205
 30
0.0
 10
0.2355629921259843
 20
-2.130598425196851
 30
0.0
 10
0.2355629921259843
 20
-2.130598425196851
 30
0.0
 10
0.2355629921259843
 20
-2.130598425196851
 30
0.0
 10
0.2221771653543307
 20
-2.130736220472441
 30
0.0
 10
0.2113425196850394
 20
-2.132708661417323
 30
0.0
 10
0.2030669291338583
 20
-2.136429133858268
 30
0.0
 10
0.2030669291338583
 20
-2.136429133858268
 30
0.0
 10
0.1947874015748032
 20
-2.140181102362205
 30
0.0
 10
0.1887047244094488
 20
-2.145791338582678
 30
0.0
 10
0.1847874015748032
 20
-2.153236220472441
 30
0.0
 10
0.1847874015748032
 20
-2.153236220472441
 30
0.0
 10
0.1808700787401575
 20
-2.160708661417323
 30
0.0
 10
0.1786771653543307
 20
-2.16990157480315
 30
0.0
 10
0.1782047244094488
 20
-2.180791338582677
 30
0.0
 10
0.1782047244094488
 20
-2.180791338582677
 30
0.0
 10
0.1809527559055118
 20
-2.176570866141733
 30
0.0
 10
0.1837874015748032
 20
-2.173263779527559
 30
0.0
 10
0.1867047244094488
 20
-2.17090157480315
 30
0.0
 10
0.1867047244094488
 20
-2.17090157480315
 30
0.0
 10
0.1895944881889764
 20
-2.168543307086615
 30
0.0
 10
0.1929803149606299
 20
-2.166736220472441
 30
0.0
 10
0.1968700787401575
 20
-2.165456692913386
 30
0.0
 10
0.1968700787401575
 20
-2.165456692913386
 30
0.0
 10
0.200759842519685
 20
-2.164181102362205
 30
0.0
 10
0.2050078740157481
 20
-2.163543307086614
 30
0.0
 10
0.2096220472440945
 20
-2.163543307086614
 30
0.0
 10
0.2096220472440945
 20
-2.163543307086614
 30
0.0
 10
0.2169803149606299
 20
-2.163543307086614
 30
0.0
 10
0.2235629921259843
 20
-2.165181102362205
 30
0.0
 10
0.2293149606299213
 20
-2.168429133858268
 30
0.0
 10
0.2293149606299213
 20
-2.168429133858268
 30
0.0
 10
0.2350629921259843
 20
-2.171681102362205
 30
0.0
 10
0.2395354330708661
 20
-2.17609842519685
 30
0.0
 10
0.2427322834645669
 20
-2.181653543307087
 30
0.0
 10
0.2427322834645669
 20
-2.181653543307087
 30
0.0
 10
0.2459251968503937
 20
-2.187208661417323
 30
0.0
 10
0.2475354330708662
 20
-2.193763779527559
 30
0.0
 10
0.2475354330708662
 20
-2.201291338582677
 30
0.0
 10
0.2475354330708662
 20
-2.201291338582677
 30
0.0
 10
0.2475354330708662
 20
-2.213291338582677
 30
0.0
 10
0.2439251968503937
 20
-2.222708661417323
 30
0.0
 10
0.2367047244094488
 20
-2.22953937007874
 30
0.0
 10
0.2367047244094488
 20
-2.22953937007874
 30
0.0
 10
0.228732283464567
 20
-2.23703937007874
 30
0.0
 10
0.2183976377952756
 20
-2.240763779527559
 30
0.0
 10
0.2057047244094488
 20
-2.240763779527559
 30
0.0
 10
0.2057047244094488
 20
-2.240763779527559
 30
0.0
 10
0.1965354330708662
 20
-2.240763779527559
 30
0.0
 10
0.1888149606299213
 20
-2.238874015748032
 30
0.0
 10
0.182507874015748
 20
-2.235070866141732
 30
0.0
 10
0.182507874015748
 20
-2.235070866141732
 30
0.0
 10
0.1762047244094488
 20
-2.231291338582677
 30
0.0
 10
0.1712047244094488
 20
-2.225484251968504
 30
0.0
 10
0.1674803149606299
 20
-2.217653543307087
 30
0.0
 10
0.1674803149606299
 20
-2.217653543307087
 30
0.0
 10
0.1637874015748032
 20
-2.209846456692914
 30
0.0
 10
0.1619251968503937
 20
-2.200181102362205
 30
0.0
 10
0.1619251968503937
 20
-2.188681102362205
 30
0.0
 10
0.1619251968503937
 20
-2.188681102362205
 30
0.0
 10
0.1619251968503937
 20
-2.177125984251969
 30
0.0
 10
0.1638976377952756
 20
-2.166874015748032
 30
0.0
 10
0.1678149606299213
 20
-2.157929133858268
 30
0.0
 10
0.1678149606299213
 20
-2.157929133858268
 30
0.0
 10
0.171759842519685
 20
-2.148988188976378
 30
0.0
 10
0.1772047244094488
 20
-2.141791338582678
 30
0.0
 10
0.1841496062992126
 20
-2.136374015748032
 30
0.0
 10
0.1841496062992126
 20
-2.136374015748032
 30
0.0
 10
0.1910944881889764
 20
-2.130929133858268
 30
0.0
 10
0.1987047244094488
 20
-2.127374015748031
 30
0.0
 10
0.2069527559055118
 20
-2.125708661417323
 30
0.0
 10
0.2069527559055118
 20
-2.125708661417323
 30
0.0
 10
0.2152322834645669
 20
-2.124015748031496
 30
0.0
 10
0.2226496062992126
 20
-2.123181102362205
 30
0.0
 10
0.229232283464567
 20
-2.123181102362205
 30
0.0
 10
0.229232283464567
 20
-2.123181102362205
 30
0.0
 10
0.229232283464567
 20
-2.123181102362205
 30
0.0
 10
0.2355629921259843
 20
-2.123181102362205
 30
0.0
 10
0.2355629921259843
 20
-2.123181102362205
 30
0.0
  0
SPLINE
  5
80
330
1F
100
AcDbEntity
  8
Layer 1
 62
   250
100
AcDbSpline
210
0.0
220
0.0
230
1.0
 70
    11
 71
     3
 72
    40
 73
    36
 74
     0
 42
0.0000000001
 43
0.0000000001
 40
0.0
 40
0.0
 40
0.0
 40
0.0
 40
0.1111111111111111
 40
0.1111111111111111
 40
0.1111111111111111
 40
0.1111111111111111
 40
0.2222222222222222
 40
0.2222222222222222
 40
0.2222222222222222
 40
0.2222222222222222
 40
0.3333333333333333
 40
0.3333333333333333
 40
0.3333333333333333
 40
0.3333333333333333
 40
0.4444444444444444
 40
0.4444444444444444
 40
0.4444444444444444
 40
0.4444444444444444
 40
0.5555555555555556
 40
0.5555555555555556
 40
0.5555555555555556
 40
0.5555555555555556
 40
0.6666666666666667
 40
0.6666666666666667
 40
0.6666666666666667
 40
0.6666666666666667
 40
0.7777777777777779
 40
0.7777777777777779
 40
0.7777777777777779
 40
0.7777777777777779
 40
0.8888888888888891
 40
0.8888888888888891
 40
0.8888888888888891
 40
0.8888888888888891
 40
1.0
 40
1.0
 40
1.0
 40
1.0
 10
0.2058700787401575
 20
-2.172181102362205
 30
0.0
 10
0.1980669291338583
 20
-2.172181102362205
 30
0.0
 10
0.1916496062992126
 20
-2.175125984251969
 30
0.0
 10
0.1866220472440945
 20
-2.181043307086614
 30
0.0
 10
0.1866220472440945
 20
-2.181043307086614
 30
0.0
 10
0.1815944881889764
 20
-2.186956692913386
 30
0.0
 10
0.1790944881889764
 20
-2.194070866141733
 30
0.0
 10
0.1790944881889764
 20
-2.202346456692914
 30
0.0
 10
0.1790944881889764
 20
-2.202346456692914
 30
0.0
 10
0.1790944881889764
 20
-2.208208661417323
 30
0.0
 10
0.1803149606299213
 20
-2.213625984251969
 30
0.0
 10
0.1827598425196851
 20
-2.218598425196851
 30
0.0
 10
0.1827598425196851
 20
-2.218598425196851
 30
0.0
 10
0.1852047244094488
 20
-2.223570866141732
 30
0.0
 10
0.1883425196850394
 20
-2.227236220472441
 30
0.0
 10
0.1922047244094488
 20
-2.229653543307087
 30
0.0
 10
0.1922047244094488
 20
-2.229653543307087
 30
0.0
 10
0.1960354330708662
 20
-2.232070866141732
 30
0.0
 10
0.2003976377952756
 20
-2.233291338582677
 30
0.0
 10
0.2052047244094488
 20
-2.233291338582677
 30
0.0
 10
0.2052047244094488
 20
-2.233291338582677
 30
0.0
 10
0.2127047244094488
 20
-2.233291338582677
 30
0.0
 10
0.2189251968503937
 20
-2.230456692913386
 30
0.0
 10
0.2238976377952756
 20
-2.224791338582677
 30
0.0
 10
0.2238976377952756
 20
-2.224791338582677
 30
0.0
 10
0.2288425196850394
 20
-2.219125984251968
 30
0.0
 10
0.2313425196850394
 20
-2.211511811023622
 30
0.0
 10
0.2313425196850394
 20
-2.201956692913386
 30
0.0
 10
0.2313425196850394
 20
-2.201956692913386
 30
0.0
 10
0.2313425196850394
 20
-2.192846456692914
 30
0.0
 10
0.2289251968503937
 20
-2.18559842519685
 30
0.0
 10
0.2240944881889764
 20
-2.180236220472441
 30
0.0
 10
0.2240944881889764
 20
-2.180236220472441
 30
0.0
 10
0.2192598425196851
 20
-2.174846456692913
 30
0.0
 10
0.2131771653543307
 20
-2.172181102362205
 30
0.0
 10
0.2058700787401575
 20
-2.172181102362205
 30
0.0
  0
SPLINE
  5
81
330
1F
100
AcDbEntity
  8
Layer 1
 62
   250
100
AcDbSpline
210
0.0
220
0.0
230
1.0
 70
    11
 71
     3
 72
    48
 73
    44
 74
     0
 42
0.0000000001
 43
0.0000000001
 40
0.0
 40
0.0
 40
0.0
 40
0.0
 40
0.0909090909090909
 40
0.0909090909090909
 40
0.0909090909090909
 40
0.0909090909090909
 40
0.1818181818181818
 40
0.1818181818181818
 40
0.1818181818181818
 40
0.1818181818181818
 40
0.2727272727272727
 40
0.2727272727272727
 40
0.2727272727272727
 40
0.2727272727272727
 40
0.3636363636363637
 40
0.3636363636363637
 40
0.3636363636363637
 40
0.3636363636363637
 40
0.4545454545454546
 40
0.4545454545454546
 40
0.4545454545454546
 40
0.4545454545454546
 40
0.5454545454545455
 40
0.5454545454545455
 40
0.5454545454545455
 40
0.5454545454545455
 40
0.6363636363636365
 40
0.6363636363636365
 40
0.6363636363636365
 40
0.6363636363636365
 40
0.7272727272727274
 40
0.7272727272727274
 40
0.7272727272727274
 40
0.7272727272727274
 40
0.8181818181818183
 40
0.8181818181818183
 40
0.8181818181818183
 40
0.8181818181818183
 40
0.9090909090909093
 40
0.9090909090909093
 40
0.9090909090909093
 40
0.9090909090909093
 40
1.0
 40
1.0
 40
1.0
 40
1.0
 10
0.3150118110236221
 20
-2.125291338582677
 30
0.0
 10
0.3150118110236221
 20
-2.125291338582677
 30
0.0
 10
0.328759842519685
 20
-2.125291338582677
 30
0.0
 10
0.328759842519685
 20
-2.125291338582677
 30
0.0
 10
0.328759842519685
 20
-2.125291338582677
 30
0.0
 10
0.328759842519685
 20
-2.125291338582677
 30
0.0
 10
0.328759842519685
 20
-2.191291338582677
 30
0.0
 10
0.328759842519685
 20
-2.191291338582677
 30
0.0
 10
0.328759842519685
 20
-2.191291338582677
 30
0.0
 10
0.328759842519685
 20
-2.191291338582677
 30
0.0
 10
0.3500944881889764
 20
-2.191291338582677
 30
0.0
 10
0.3500944881889764
 20
-2.191291338582677
 30
0.0
 10
0.3500944881889764
 20
-2.191291338582677
 30
0.0
 10
0.3500944881889764
 20
-2.191291338582677
 30
0.0
 10
0.3500944881889764
 20
-2.201456692913386
 30
0.0
 10
0.3500944881889764
 20
-2.201456692913386
 30
0.0
 10
0.3500944881889764
 20
-2.201456692913386
 30
0.0
 10
0.3500944881889764
 20
-2.201456692913386
 30
0.0
 10
0.328759842519685
 20
-2.201456692913386
 30
0.0
 10
0.328759842519685
 20
-2.201456692913386
 30
0.0
 10
0.328759842519685
 20
-2.201456692913386
 30
0.0
 10
0.328759842519685
 20
-2.201456692913386
 30
0.0
 10
0.328759842519685
 20
-2.238818897637795
 30
0.0
 10
0.328759842519685
 20
-2.238818897637795
 30
0.0
 10
0.328759842519685
 20
-2.238818897637795
 30
0.0
 10
0.328759842519685
 20
-2.238818897637795
 30
0.0
 10
0.3150118110236221
 20
-2.238818897637795
 30
0.0
 10
0.3150118110236221
 20
-2.238818897637795
 30
0.0
 10
0.3150118110236221
 20
-2.238818897637795
 30
0.0
 10
0.3150118110236221
 20
-2.238818897637795
 30
0.0
 10
0.3150118110236221
 20
-2.201456692913386
 30
0.0
 10
0.3150118110236221
 20
-2.201456692913386
 30
0.0
 10
0.3150118110236221
 20
-2.201456692913386
 30
0.0
 10
0.3150118110236221
 20
-2.201456692913386
 30
0.0
 10
0.2615393700787402
 20
-2.201456692913386
 30
0.0
 10
0.2615393700787402
 20
-2.201456692913386
 30
0.0
 10
0.2615393700787402
 20
-2.201456692913386
 30
0.0
 10
0.2615393700787402
 20
-2.201456692913386
 30
0.0
 10
0.2615393700787402
 20
-2.187153543307087
 30
0.0
 10
0.2615393700787402
 20
-2.187153543307087
 30
0.0
 10
0.2615393700787402
 20
-2.187153543307087
 30
0.0
 10
0.2615393700787402
 20
-2.187153543307087
 30
0.0
 10
0.3150118110236221
 20
-2.125291338582677
 30
0.0
 10
0.3150118110236221
 20
-2.125291338582677
 30
0.0
  0
SPLINE
  5
82
330
1F
100
AcDbEntity
  8
Layer 1
 62
   250
100
AcDbSpline
210
0.0
220
0.0
230
1.0
 70
    11
 71
     3
 72
    16
 73
    12
 74
     0
 42
0.0000000001
 43
0.0000000001
 40
0.0
 40
0.0
 40
0.0
 40
0.0
 40
0.3333333333333333
 40
0.3333333333333333
 40
0.3333333333333333
 40
0.3333333333333333
 40
0.6666666666666666
 40
0.6666666666666666
 40
0.6666666666666666
 40
0.6666666666666666
 40
1.0
 40
1.0
 40
1.0
 40
1.0
 10
0.3150118110236221
 20
-2.191291338582677
 30
0.0
 10
0.3150118110236221
 20
-2.191291338582677
 30
0.0
 10
0.3150118110236221
 20
-2.13790157480315
 30
0.0
 10
0.3150118110236221
 20
-2.13790157480315
 30
0.0
 10
0.3150118110236221
 20
-2.13790157480315
 30
0.0
 10
0.3150118110236221
 20
-2.13790157480315
 30
0.0
 10
0.2689566929133859
 20
-2.191291338582677
 30
0.0
 10
0.2689566929133859
 20
-2.191291338582677
 30
0.0
 10
0.2689566929133859
 20
-2.191291338582677
 30
0.0
 10
0.2689566929133859
 20
-2.191291338582677
 30
0.0
 10
0.3150118110236221
 20
-2.191291338582677
 30
0.0
 10
0.3150118110236221
 20
-2.191291338582677
 30
0.0
  0
SPLINE
  5
83
330
1F
100
AcDbEntity
  8
Layer 1
 62
   250
100
AcDbSpline
210
0.0
220
0.0
230
1.0
 70
    11
 71
     3
 72
    76
 73
    72
 74
     0
 42
0.0000000001
 43
0.0000000001
 40
0.0
 40
0.0
 40
0.0
 40
0.0
 40
0.0555555555555556
 40
0.0555555555555556
 40
0.0555555555555556
 40
0.0555555555555556
 40
0.1111111111111111
 40
0.1111111111111111
 40
0.1111111111111111
 40
0.1111111111111111
 40
0.1666666666666667
 40
0.1666666666666667
 40
0.1666666666666667
 40
0.1666666666666667
 40
0.2222222222222222
 40
0.2222222222222222
 40
0.2222222222222222
 40
0.2222222222222222
 40
0.2777777777777778
 40
0.2777777777777778
 40
0.2777777777777778
 40
0.2777777777777778
 40
0.3333333333333334
 40
0.3333333333333334
 40
0.3333333333333334
 40
0.3333333333333334
 40
0.388888888888889
 40
0.388888888888889
 40
0.388888888888889
 40
0.388888888888889
 40
0.4444444444444445
 40
0.4444444444444445
 40
0.4444444444444445
 40
0.4444444444444445
 40
0.5000000000000001
 40
0.5000000000000001
 40
0.5000000000000001
 40
0.5000000000000001
 40
0.5555555555555557
 40
0.5555555555555557
 40
0.5555555555555557
 40
0.5555555555555557
 40
0.6111111111111113
 40
0.6111111111111113
 40
0.6111111111111113
 40
0.6111111111111113
 40
0.6666666666666669
 40
0.6666666666666669
 40
0.6666666666666669
 40
0.6666666666666669
 40
0.7222222222222224
 40
0.7222222222222224
 40
0.7222222222222224
 40
0.7222222222222224
 40
0.777777777777778
 40
0.777777777777778
 40
0.777777777777778
 40
0.777777777777778
 40
0.8333333333333336
 40
0.8333333333333336
 40
0.8333333333333336
 40
0.8333333333333336
 40
0.8888888888888892
 40
0.8888888888888892
 40
0.8888888888888892
 40
0.8888888888888892
 40
0.9444444444444448
 40
0.9444444444444448
 40
0.9444444444444448
 40
0.9444444444444448
 40
1.0
 40
1.0
 40
1.0
 40
1.0
 10
0.4224291338582678
 20
-2.175818897637795
 30
0.0
 10
0.4288464566929134
 20
-2.178263779527559
 30
0.0
 10
0.4337322834645669
 20
-2.180570866141733
 30
0.0
 10
0.4370944881889764
 20
-2.182736220472441
 30
0.0
 10
0.4370944881889764
 20
-2.182736220472441
 30
0.0
 10
0.4420118110236221
 20
-2.18590157480315
 30
0.0
 10
0.445732283464567
 20
-2.18959842519685
 30
0.0
 10
0.448232283464567
 20
-2.193846456692913
 30
0.0
 10
0.448232283464567
 20
-2.193846456692913
 30
0.0
 10
0.450732283464567
 20
-2.198125984251969
 30
0.0
 10
0.451984251968504
 20
-2.202736220472441
 30
0.0
 10
0.451984251968504
 20
-2.207736220472441
 30
0.0
 10
0.451984251968504
 20
-2.207736220472441
 30
0.0
 10
0.451984251968504
 20
-2.216681102362205
 30
0.0
 10
0.4481220472440945
 20
-2.224429133858268
 30
0.0
 10
0.4404291338582677
 20
-2.230956692913386
 30
0.0
 10
0.4404291338582677
 20
-2.230956692913386
 30
0.0
 10
0.4327047244094489
 20
-2.237511811023622
 30
0.0
 10
0.4223188976377953
 20
-2.240763779527559
 30
0.0
 10
0.4092598425196851
 20
-2.240763779527559
 30
0.0
 10
0.4092598425196851
 20
-2.240763779527559
 30
0.0
 10
0.3954291338582677
 20
-2.240763779527559
 30
0.0
 10
0.3845669291338583
 20
-2.237070866141732
 30
0.0
 10
0.3767047244094489
 20
-2.229708661417323
 30
0.0
 10
0.3767047244094489
 20
-2.229708661417323
 30
0.0
 10
0.3704566929133858
 20
-2.223791338582677
 30
0.0
 10
0.3673464566929134
 20
-2.217098425196851
 30
0.0
 10
0.3673464566929134
 20
-2.20959842519685
 30
0.0
 10
0.3673464566929134
 20
-2.20959842519685
 30
0.0
 10
0.3673464566929134
 20
-2.203570866141733
 30
0.0
 10
0.3694566929133858
 20
-2.198181102362205
 30
0.0
 10
0.3736771653543307
 20
-2.19340157480315
 30
0.0
 10
0.3736771653543307
 20
-2.19340157480315
 30
0.0
 10
0.3787913385826772
 20
-2.187708661417323
 30
0.0
 10
0.3860669291338583
 20
-2.183263779527559
 30
0.0
 10
0.395511811023622
 20
-2.180070866141732
 30
0.0
 10
0.395511811023622
 20
-2.180070866141732
 30
0.0
 10
0.3881220472440945
 20
-2.17659842519685
 30
0.0
 10
0.3828188976377953
 20
-2.173070866141732
 30
0.0
 10
0.3795393700787402
 20
-2.169484251968504
 30
0.0
 10
0.3795393700787402
 20
-2.169484251968504
 30
0.0
 10
0.3753740157480315
 20
-2.164763779527559
 30
0.0
 10
0.3732913385826772
 20
-2.15909842519685
 30
0.0
 10
0.3732913385826772
 20
-2.152488188976378
 30
0.0
 10
0.3732913385826772
 20
-2.152488188976378
 30
0.0
 10
0.3732913385826772
 20
-2.144291338582677
 30
0.0
 10
0.3763740157480315
 20
-2.137653543307087
 30
0.0
 10
0.3825669291338583
 20
-2.132625984251968
 30
0.0
 10
0.3825669291338583
 20
-2.132625984251968
 30
0.0
 10
0.3901496062992126
 20
-2.126429133858268
 30
0.0
 10
0.3996496062992126
 20
-2.123346456692913
 30
0.0
 10
0.4110393700787402
 20
-2.123346456692913
 30
0.0
 10
0.4110393700787402
 20
-2.123346456692913
 30
0.0
 10
0.4214566929133858
 20
-2.123346456692913
 30
0.0
 10
0.4298740157480315
 20
-2.126015748031496
 30
0.0
 10
0.4363188976377953
 20
-2.131346456692913
 30
0.0
 10
0.4363188976377953
 20
-2.131346456692913
 30
0.0
 10
0.4427322834645669
 20
-2.136708661417323
 30
0.0
 10
0.4459566929133859
 20
-2.142818897637795
 30
0.0
 10
0.4459566929133859
 20
-2.149708661417323
 30
0.0
 10
0.4459566929133859
 20
-2.149708661417323
 30
0.0
 10
0.4459566929133859
 20
-2.153125984251969
 30
0.0
 10
0.4451496062992126
 20
-2.15640157480315
 30
0.0
 10
0.4435669291338583
 20
-2.159515748031496
 30
0.0
 10
0.4435669291338583
 20
-2.159515748031496
 30
0.0
 10
0.4419566929133859
 20
-2.162625984251969
 30
0.0
 10
0.4395118110236221
 20
-2.165543307086614
 30
0.0
 10
0.4361771653543307
 20
-2.168208661417323
 30
0.0
 10
0.4361771653543307
 20
-2.168208661417323
 30
0.0
 10
0.4328740157480315
 20
-2.17090157480315
 30
0.0
 10
0.4282874015748032
 20
-2.173429133858268
 30
0.0
 10
0.4224291338582678
 20
-2.175818897637795
 30
0.0
  0
SPLINE
  5
84
330
1F
100
AcDbEntity
  8
Layer 1
 62
   250
100
AcDbSpline
210
0.0
220
0.0
230
1.0
 70
    11
 71
     3
 72
    48
 73
    44
 74
     0
 42
0.0000000001
 43
0.0000000001
 40
0.0
 40
0.0
 40
0.0
 40
0.0
 40
0.0909090909090909
 40
0.0909090909090909
 40
0.0909090909090909
 40
0.0909090909090909
 40
0.1818181818181818
 40
0.1818181818181818
 40
0.1818181818181818
 40
0.1818181818181818
 40
0.2727272727272727
 40
0.2727272727272727
 40
0.2727272727272727
 40
0.2727272727272727
 40
0.3636363636363637
 40
0.3636363636363637
 40
0.3636363636363637
 40
0.3636363636363637
 40
0.4545454545454546
 40
0.4545454545454546
 40
0.4545454545454546
 40
0.4545454545454546
 40
0.5454545454545455
 40
0.5454545454545455
 40
0.5454545454545455
 40
0.5454545454545455
 40
0.6363636363636365
 40
0.6363636363636365
 40
0.6363636363636365
 40
0.6363636363636365
 40
0.7272727272727274
 40
0.7272727272727274
 40
0.7272727272727274
 40
0.7272727272727274
 40
0.8181818181818183
 40
0.8181818181818183
 40
0.8181818181818183
 40
0.8181818181818183
 40
0.9090909090909093
 40
0.9090909090909093
 40
0.9090909090909093
 40
0.9090909090909093
 40
1.0
 40
1.0
 40
1.0
 40
1.0
 10
0.4150393700787402
 20
-2.172818897637796
 30
0.0
 10
0.4212047244094488
 20
-2.168153543307087
 30
0.0
 10
0.4252322834645669
 20
-2.16490157480315
 30
0.0
 10
0.4270669291338583
 20
-2.163043307086614
 30
0.0
 10
0.4270669291338583
 20
-2.163043307086614
 30
0.0
 10
0.4289291338582678
 20
-2.161208661417323
 30
0.0
 10
0.4303464566929134
 20
-2.15909842519685
 30
0.0
 10
0.4313464566929134
 20
-2.156736220472441
 30
0.0
 10
0.4313464566929134
 20
-2.156736220472441
 30
0.0
 10
0.4323464566929134
 20
-2.154374015748032
 30
0.0
 10
0.4328464566929134
 20
-2.152098425196851
 30
0.0
 10
0.4328464566929134
 20
-2.149874015748031
 30
0.0
 10
0.4328464566929134
 20
-2.149874015748031
 30
0.0
 10
0.4328464566929134
 20
-2.146681102362205
 30
0.0
 10
0.4319015748031496
 20
-2.143625984251969
 30
0.0
 10
0.4300118110236221
 20
-2.140708661417323
 30
0.0
 10
0.4300118110236221
 20
-2.140708661417323
 30
0.0
 10
0.4280944881889764
 20
-2.137818897637795
 30
0.0
 10
0.4253188976377953
 20
-2.135456692913386
 30
0.0
 10
0.4216496062992126
 20
-2.133681102362205
 30
0.0
 10
0.4216496062992126
 20
-2.133681102362205
 30
0.0
 10
0.4180118110236221
 20
-2.131874015748032
 30
0.0
 10
0.4139015748031496
 20
-2.130988188976378
 30
0.0
 10
0.4093464566929134
 20
-2.130988188976378
 30
0.0
 10
0.4093464566929134
 20
-2.130988188976378
 30
0.0
 10
0.4025944881889764
 20
-2.130988188976378
 30
0.0
 10
0.397011811023622
 20
-2.132846456692914
 30
0.0
 10
0.3925669291338583
 20
-2.136570866141732
 30
0.0
 10
0.3925669291338583
 20
-2.136570866141732
 30
0.0
 10
0.3881220472440945
 20
-2.140291338582677
 30
0.0
 10
0.3859015748031496
 20
-2.144570866141732
 30
0.0
 10
0.3859015748031496
 20
-2.149456692913386
 30
0.0
 10
0.3859015748031496
 20
-2.149456692913386
 30
0.0
 10
0.3859015748031496
 20
-2.153374015748032
 30
0.0
 10
0.3872913385826772
 20
-2.156874015748032
 30
0.0
 10
0.3900393700787402
 20
-2.159956692913386
 30
0.0
 10
0.3900393700787402
 20
-2.159956692913386
 30
0.0
 10
0.3928188976377953
 20
-2.163043307086614
 30
0.0
 10
0.3979566929133859
 20
-2.166098425196851
 30
0.0
 10
0.4055118110236221
 20
-2.169070866141732
 30
0.0
 10
0.4055118110236221
 20
-2.169070866141732
 30
0.0
 10
0.4055118110236221
 20
-2.169070866141732
 30
0.0
 10
0.4150393700787402
 20
-2.172818897637796
 30
0.0
 10
0.4150393700787402
 20
-2.172818897637796
 30
0.0
  0
SPLINE
  5
85
330
1F
100
AcDbEntity
  8
Layer 1
 62
   250
100
AcDbSpline
210
0.0
220
0.0
230
1.0
 70
    11
 71
     3
 72
    40
 73
    36
 74
     0
 42
0.0000000001
 43
0.0000000001
 40
0.0
 40
0.0
 40
0.0
 40
0.0
 40
0.1111111111111111
 40
0.1111111111111111
 40
0.1111111111111111
 40
0.1111111111111111
 40
0.2222222222222222
 40
0.2222222222222222
 40
0.2222222222222222
 40
0.2222222222222222
 40
0.3333333333333333
 40
0.3333333333333333
 40
0.3333333333333333
 40
0.3333333333333333
 40
0.4444444444444444
 40
0.4444444444444444
 40
0.4444444444444444
 40
0.4444444444444444
 40
0.5555555555555556
 40
0.5555555555555556
 40
0.5555555555555556
 40
0.5555555555555556
 40
0.6666666666666667
 40
0.6666666666666667
 40
0.6666666666666667
 40
0.6666666666666667
 40
0.7777777777777779
 40
0.7777777777777779
 40
0.7777777777777779
 40
0.7777777777777779
 40
0.8888888888888891
 40
0.8888888888888891
 40
0.8888888888888891
 40
0.8888888888888891
 40
1.0
 40
1.0
 40
1.0
 40
1.0
 10
0.4035669291338583
 20
-2.183236220472441
 30
0.0
 10
0.3959015748031496
 20
-2.186598425196851
 30
0.0
 10
0.3898464566929134
 20
-2.190956692913386
 30
0.0
 10
0.3854015748031496
 20
-2.196346456692913
 30
0.0
 10
0.3854015748031496
 20
-2.196346456692913
 30
0.0
 10
0.3819291338582677
 20
-2.200570866141733
 30
0.0
 10
0.3802047244094489
 20
-2.204956692913386
 30
0.0
 10
0.3802047244094489
 20
-2.209511811023622
 30
0.0
 10
0.3802047244094489
 20
-2.209511811023622
 30
0.0
 10
0.3802047244094489
 20
-2.215708661417323
 30
0.0
 10
0.3829291338582677
 20
-2.221208661417323
 30
0.0
 10
0.3884291338582677
 20
-2.226011811023622
 30
0.0
 10
0.3884291338582677
 20
-2.226011811023622
 30
0.0
 10
0.3939015748031496
 20
-2.230791338582677
 30
0.0
 10
0.400984251968504
 20
-2.233208661417323
 30
0.0
 10
0.4096496062992126
 20
-2.233208661417323
 30
0.0
 10
0.4096496062992126
 20
-2.233208661417323
 30
0.0
 10
0.4185118110236221
 20
-2.233208661417323
 30
0.0
 10
0.4258740157480315
 20
-2.230456692913386
 30
0.0
 10
0.4317874015748032
 20
-2.224984251968504
 30
0.0
 10
0.4317874015748032
 20
-2.224984251968504
 30
0.0
 10
0.4366220472440945
 20
-2.22053937007874
 30
0.0
 10
0.4390393700787402
 20
-2.215763779527559
 30
0.0
 10
0.4390393700787402
 20
-2.210653543307087
 30
0.0
 10
0.4390393700787402
 20
-2.210653543307087
 30
0.0
 10
0.4390393700787402
 20
-2.206653543307087
 30
0.0
 10
0.4374566929133859
 20
-2.202818897637795
 30
0.0
 10
0.4342874015748032
 20
-2.199153543307087
 30
0.0
 10
0.4342874015748032
 20
-2.199153543307087
 30
0.0
 10
0.4310944881889764
 20
-2.195484251968504
 30
0.0
 10
0.4252047244094488
 20
-2.191929133858268
 30
0.0
 10
0.4165669291338583
 20
-2.188456692913386
 30
0.0
 10
0.4165669291338583
 20
-2.188456692913386
 30
0.0
 10
0.4165669291338583
 20
-2.188456692913386
 30
0.0
 10
0.4035669291338583
 20
-2.183236220472441
 30
0.0
 10
0.4035669291338583
 20
-2.183236220472441
 30
0.0
  0
SPLINE
  5
86
330
1F
100
AcDbEntity
  8
Layer 1
 62
   250
100
AcDbSpline
210
0.0
220
0.0
230
1.0
 70
    11
 71
     3
 72
   136
 73
   132
 74
     0
 42
0.0000000001
 43
0.0000000001
 40
0.0
 40
0.0
 40
0.0
 40
0.0
 40
0.0303030303030303
 40
0.0303030303030303
 40
0.0303030303030303
 40
0.0303030303030303
 40
0.0606060606060606
 40
0.0606060606060606
 40
0.0606060606060606
 40
0.0606060606060606
 40
0.0909090909090909
 40
0.0909090909090909
 40
0.0909090909090909
 40
0.0909090909090909
 40
0.1212121212121212
 40
0.1212121212121212
 40
0.1212121212121212
 40
0.1212121212121212
 40
0.1515151515151515
 40
0.1515151515151515
 40
0.1515151515151515
 40
0.1515151515151515
 40
0.1818181818181818
 40
0.1818181818181818
 40
0.1818181818181818
 40
0.1818181818181818
 40
0.2121212121212121
 40
0.2121212121212121
 40
0.2121212121212121
 40
0.2121212121212121
 40
0.2424242424242424
 40
0.2424242424242424
 40
0.2424242424242424
 40
0.2424242424242424
 40
0.2727272727272727
 40
0.2727272727272727
 40
0.2727272727272727
 40
0.2727272727272727
 40
0.303030303030303
 40
0.303030303030303
 40
0.303030303030303
 40
0.303030303030303
 40
0.3333333333333333
 40
0.3333333333333333
 40
0.3333333333333333
 40
0.3333333333333333
 40
0.3636363636363635
 40
0.3636363636363635
 40
0.3636363636363635
 40
0.3636363636363635
 40
0.3939393939393938
 40
0.3939393939393938
 40
0.3939393939393938
 40
0.3939393939393938
 40
0.4242424242424241
 40
0.4242424242424241
 40
0.4242424242424241
 40
0.4242424242424241
 40
0.4545454545454544
 40
0.4545454545454544
 40
0.4545454545454544
 40
0.4545454545454544
 40
0.4848484848484846
 40
0.4848484848484846
 40
0.4848484848484846
 40
0.4848484848484846
 40
0.5151515151515149
 40
0.5151515151515149
 40
0.5151515151515149
 40
0.5151515151515149
 40
0.5454545454545452
 40
0.5454545454545452
 40
0.5454545454545452
 40
0.5454545454545452
 40
0.5757575757575755
 40
0.5757575757575755
 40
0.5757575757575755
 40
0.5757575757575755
 40
0.6060606060606057
 40
0.6060606060606057
 40
0.6060606060606057
 40
0.6060606060606057
 40
0.636363636363636
 40
0.636363636363636
 40
0.636363636363636
 40
0.636363636363636
 40
0.6666666666666663
 40
0.6666666666666663
 40
0.6666666666666663
 40
0.6666666666666663
 40
0.6969696969696966
 40
0.6969696969696966
 40
0.6969696969696966
 40
0.6969696969696966
 40
0.7272727272727269
 40
0.7272727272727269
 40
0.7272727272727269
 40
0.7272727272727269
 40
0.7575757575757571
 40
0.7575757575757571
 40
0.7575757575757571
 40
0.7575757575757571
 40
0.7878787878787874
 40
0.7878787878787874
 40
0.7878787878787874
 40
0.7878787878787874
 40
0.8181818181818177
 40
0.8181818181818177
 40
0.8181818181818177
 40
0.8181818181818177
 40
0.848484848484848
 40
0.848484848484848
 40
0.848484848484848
 40
0.848484848484848
 40
0.8787878787878782
 40
0.8787878787878782
 40
0.8787878787878782
 40
0.8787878787878782
 40
0.9090909090909085
 40
0.9090909090909085
 40
0.9090909090909085
 40
0.9090909090909085
 40
0.9393939393939388
 40
0.9393939393939388
 40
0.9393939393939388
 40
0.9393939393939388
 40
0.9696969696969691
 40
0.9696969696969691
 40
0.9696969696969691
 40
0.9696969696969691
 40
1.0
 40
1.0
 40
1.0
 40
1.0
 10
-0.3547795275590551
 20
-2.355598425196851
 30
0.0
 10
-0.3547795275590551
 20
-2.355598425196851
 30
0.0
 10
-0.3626692913385827
 20
-2.356570866141732
 30
0.0
 10
-0.3626692913385827
 20
-2.356570866141732
 30
0.0
 10
-0.3626692913385827
 20
-2.356570866141732
 30
0.0
 10
-0.3631141732283465
 20
-2.352736220472441
 30
0.0
 10
-0.3633346456692914
 20
-2.349570866141733
 30
0.0
 10
-0.3633346456692914
 20
-2.347125984251969
 30
0.0
 10
-0.3633346456692914
 20
-2.347125984251969
 30
0.0
 10
-0.3633346456692914
 20
-2.340736220472441
 30
0.0
 10
-0.3615866141732284
 20
-2.334681102362205
 30
0.0
 10
-0.3581141732283465
 20
-2.328988188976378
 30
0.0
 10
-0.3581141732283465
 20
-2.328988188976378
 30
0.0
 10
-0.3546417322834646
 20
-2.323291338582677
 30
0.0
 10
-0.3498070866141733
 20
-2.318846456692913
 30
0.0
 10
-0.3435866141732283
 20
-2.315653543307087
 30
0.0
 10
-0.3435866141732283
 20
-2.315653543307087
 30
0.0
 10
-0.3373937007874016
 20
-2.312429133858268
 30
0.0
 10
-0.330251968503937
 20
-2.310846456692913
 30
0.0
 10
-0.3222244094488189
 20
-2.310846456692913
 30
0.0
 10
-0.3222244094488189
 20
-2.310846456692913
 30
0.0
 10
-0.3144763779527559
 20
-2.310846456692913
 30
0.0
 10
-0.3076692913385827
 20
-2.312346456692914
 30
0.0
 10
-0.3018070866141732
 20
-2.315346456692914
 30
0.0
 10
-0.3018070866141732
 20
-2.315346456692914
 30
0.0
 10
-0.2959488188976378
 20
-2.318374015748032
 30
0.0
 10
-0.2914763779527559
 20
-2.322488188976378
 30
0.0
 10
-0.2883385826771654
 20
-2.327736220472441
 30
0.0
 10
-0.2883385826771654
 20
-2.327736220472441
 30
0.0
 10
-0.2852244094488189
 20
-2.332956692913386
 30
0.0
 10
-0.2836692913385827
 20
-2.338929133858268
 30
0.0
 10
-0.2836692913385827
 20
-2.345681102362205
 30
0.0
 10
-0.2836692913385827
 20
-2.345681102362205
 30
0.0
 10
-0.2836692913385827
 20
-2.351374015748032
 30
0.0
 10
-0.2846692913385827
 20
-2.356653543307087
 30
0.0
 10
-0.2867244094488189
 20
-2.361484251968504
 30
0.0
 10
-0.2867244094488189
 20
-2.361484251968504
 30
0.0
 10
-0.288751968503937
 20
-2.366346456692913
 30
0.0
 10
-0.2920314960629921
 20
-2.371263779527559
 30
0.0
 10
-0.2965314960629921
 20
-2.376181102362205
 30
0.0
 10
-0.2965314960629921
 20
-2.376181102362205
 30
0.0
 10
-0.2998937007874016
 20
-2.379874015748031
 30
0.0
 10
-0.3066968503937008
 20
-2.385511811023622
 30
0.0
 10
-0.3169488188976378
 20
-2.393125984251969
 30
0.0
 10
-0.3169488188976378
 20
-2.393125984251969
 30
0.0
 10
-0.3298622047244095
 20
-2.402763779527559
 30
0.0
 10
-0.339751968503937
 20
-2.409763779527559
 30
0.0
 10
-0.3466417322834646
 20
-2.414125984251969
 30
0.0
 10
-0.3466417322834646
 20
-2.414125984251969
 30
0.0
 10
-0.3466417322834646
 20
-2.414125984251969
 30
0.0
 10
-0.3043346456692914
 20
-2.414125984251969
 30
0.0
 10
-0.3043346456692914
 20
-2.414125984251969
 30
0.0
 10
-0.3043346456692914
 20
-2.414125984251969
 30
0.0
 10
-0.2993346456692914
 20
-2.414125984251969
 30
0.0
 10
-0.2960866141732284
 20
-2.413653543307087
 30
0.0
 10
-0.2945590551181103
 20
-2.412736220472441
 30
0.0
 10
-0.2945590551181103
 20
-2.412736220472441
 30
0.0
 10
-0.2924488188976378
 20
-2.41153937007874
 30
0.0
 10
-0.291003937007874
 20
-2.408763779527559
 30
0.0
 10
-0.290251968503937
 20
-2.404429133858268
 30
0.0
 10
-0.290251968503937
 20
-2.404429133858268
 30
0.0
 10
-0.290251968503937
 20
-2.404429133858268
 30
0.0
 10
-0.2895314960629921
 20
-2.399791338582678
 30
0.0
 10
-0.2895314960629921
 20
-2.399791338582678
 30
0.0
 10
-0.2895314960629921
 20
-2.399791338582678
 30
0.0
 10
-0.2895314960629921
 20
-2.399791338582678
 30
0.0
 10
-0.2826141732283465
 20
-2.399791338582678
 30
0.0
 10
-0.2826141732283465
 20
-2.399791338582678
 30
0.0
 10
-0.2826141732283465
 20
-2.399791338582678
 30
0.0
 10
-0.2826141732283465
 20
-2.399791338582678
 30
0.0
 10
-0.2881417322834646
 20
-2.430374015748032
 30
0.0
 10
-0.2881417322834646
 20
-2.430374015748032
 30
0.0
 10
-0.2881417322834646
 20
-2.430374015748032
 30
0.0
 10
-0.2881417322834646
 20
-2.430374015748032
 30
0.0
 10
-0.2933346456692914
 20
-2.430374015748032
 30
0.0
 10
-0.2933346456692914
 20
-2.430374015748032
 30
0.0
 10
-0.2933346456692914
 20
-2.430374015748032
 30
0.0
 10
-0.2933346456692914
 20
-2.430374015748032
 30
0.0
 10
-0.294251968503937
 20
-2.426318897637795
 30
0.0
 10
-0.294251968503937
 20
-2.426318897637795
 30
0.0
 10
-0.294251968503937
 20
-2.426318897637795
 30
0.0
 10
-0.294251968503937
 20
-2.426318897637795
 30
0.0
 10
-0.3653622047244095
 20
-2.426318897637795
 30
0.0
 10
-0.3653622047244095
 20
-2.426318897637795
 30
0.0
 10
-0.3653622047244095
 20
-2.426318897637795
 30
0.0
 10
-0.3653622047244095
 20
-2.426318897637795
 30
0.0
 10
-0.3653622047244095
 20
-2.419484251968504
 30
0.0
 10
-0.3653622047244095
 20
-2.419484251968504
 30
0.0
 10
-0.3653622047244095
 20
-2.419484251968504
 30
0.0
 10
-0.3653622047244095
 20
-2.419484251968504
 30
0.0
 10
-0.3523346456692914
 20
-2.409625984251969
 30
0.0
 10
-0.3523346456692914
 20
-2.409625984251969
 30
0.0
 10
-0.3523346456692914
 20
-2.409625984251969
 30
0.0
 10
-0.3424763779527559
 20
-2.402318897637795
 30
0.0
 10
-0.3352244094488189
 20
-2.396708661417323
 30
0.0
 10
-0.3306141732283465
 20
-2.392791338582677
 30
0.0
 10
-0.3306141732283465
 20
-2.392791338582677
 30
0.0
 10
-0.3218937007874016
 20
-2.38540157480315
 30
0.0
 10
-0.3153070866141732
 20
-2.379098425196851
 30
0.0
 10
-0.3108937007874016
 20
-2.373874015748032
 30
0.0
 10
-0.3108937007874016
 20
-2.373874015748032
 30
0.0
 10
-0.3064763779527559
 20
-2.368625984251969
 30
0.0
 10
-0.3034212598425197
 20
-2.36390157480315
 30
0.0
 10
-0.3017795275590551
 20
-2.359708661417323
 30
0.0
 10
-0.3017795275590551
 20
-2.359708661417323
 30
0.0
 10
-0.3001141732283465
 20
-2.355515748031496
 30
0.0
 10
-0.2992795275590551
 20
-2.351098425196851
 30
0.0
 10
-0.2992795275590551
 20
-2.346484251968504
 30
0.0
 10
-0.2992795275590551
 20
-2.346484251968504
 30
0.0
 10
-0.2992795275590551
 20
-2.338846456692914
 30
0.0
 10
-0.301751968503937
 20
-2.332570866141733
 30
0.0
 10
-0.3066417322834646
 20
-2.327681102362205
 30
0.0
 10
-0.3066417322834646
 20
-2.327681102362205
 30
0.0
 10
-0.3115590551181103
 20
-2.322791338582677
 30
0.0
 10
-0.3179488188976378
 20
-2.320374015748032
 30
0.0
 10
-0.3258070866141732
 20
-2.320374015748032
 30
0.0
 10
-0.3258070866141732
 20
-2.320374015748032
 30
0.0
 10
-0.3314488188976378
 20
-2.320374015748032
 30
0.0
 10
-0.336503937007874
 20
-2.321570866141733
 30
0.0
 10
-0.3409212598425197
 20
-2.324015748031496
 30
0.0
 10
-0.3409212598425197
 20
-2.324015748031496
 30
0.0
 10
-0.3453346456692913
 20
-2.326456692913386
 30
0.0
 10
-0.3488070866141733
 20
-2.329874015748032
 30
0.0
 10
-0.3513622047244095
 20
-2.334291338582677
 30
0.0
 10
-0.3513622047244095
 20
-2.334291338582677
 30
0.0
 10
-0.3539212598425197
 20
-2.338681102362205
 30
0.0
 10
-0.3551968503937008
 20
-2.343429133858268
 30
0.0
 10
-0.3551968503937008
 20
-2.348515748031496
 30
0.0
 10
-0.3551968503937008
 20
-2.348515748031496
 30
0.0
 10
-0.3551968503937008
 20
-2.350429133858268
 30
0.0
 10
-0.3550590551181103
 20
-2.352791338582677
 30
0.0
 10
-0.3547795275590551
 20
-2.355598425196851
 30
0.0
  0
SPLINE
  5
87
330
1F
100
AcDbEntity
  8
Layer 1
 62
   250
100
AcDbSpline
210
0.0
220
0.0
230
1.0
 70
    11
 71
     3
 72
    60
 73
    56
 74
     0
 42
0.0000000001
 43
0.0000000001
 40
0.0
 40
0.0
 40
0.0
 40
0.0
 40
0.0714285714285714
 40
0.0714285714285714
 40
0.0714285714285714
 40
0.0714285714285714
 40
0.1428571428571429
 40
0.1428571428571429
 40
0.1428571428571429
 40
0.1428571428571429
 40
0.2142857142857143
 40
0.2142857142857143
 40
0.2142857142857143
 40
0.2142857142857143
 40
0.2857142857142857
 40
0.2857142857142857
 40
0.2857142857142857
 40
0.2857142857142857
 40
0.3571428571428571
 40
0.3571428571428571
 40
0.3571428571428571
 40
0.3571428571428571
 40
0.4285714285714285
 40
0.4285714285714285
 40
0.4285714285714285
 40
0.4285714285714285
 40
0.4999999999999999
 40
0.4999999999999999
 40
0.4999999999999999
 40
0.4999999999999999
 40
0.5714285714285713
 40
0.5714285714285713
 40
0.5714285714285713
 40
0.5714285714285713
 40
0.6428571428571427
 40
0.6428571428571427
 40
0.6428571428571427
 40
0.6428571428571427
 40
0.7142857142857141
 40
0.7142857142857141
 40
0.7142857142857141
 40
0.7142857142857141
 40
0.7857142857142855
 40
0.7857142857142855
 40
0.7857142857142855
 40
0.7857142857142855
 40
0.8571428571428569
 40
0.8571428571428569
 40
0.8571428571428569
 40
0.8571428571428569
 40
0.9285714285714283
 40
0.9285714285714283
 40
0.9285714285714283
 40
0.9285714285714283
 40
1.0
 40
1.0
 40
1.0
 40
1.0
 10
-0.2602244094488189
 20
-2.354874015748032
 30
0.0
 10
-0.2602244094488189
 20
-2.354874015748032
 30
0.0
 10
-0.2646141732283465
 20
-2.349484251968504
 30
0.0
 10
-0.2646141732283465
 20
-2.349484251968504
 30
0.0
 10
-0.2646141732283465
 20
-2.349484251968504
 30
0.0
 10
-0.2535
 20
-2.340429133858268
 30
0.0
 10
-0.2479173228346457
 20
-2.332874015748032
 30
0.0
 10
-0.2479173228346457
 20
-2.326791338582677
 30
0.0
 10
-0.2479173228346457
 20
-2.326791338582677
 30
0.0
 10
-0.2479173228346457
 20
-2.326098425196851
 30
0.0
 10
-0.2479724409448819
 20
-2.325208661417323
 30
0.0
 10
-0.2480866141732284
 20
-2.324181102362205
 30
0.0
 10
-0.2480866141732284
 20
-2.324181102362205
 30
0.0
 10
-0.249
 20
-2.324570866141733
 30
0.0
 10
-0.2499173228346457
 20
-2.324874015748032
 30
0.0
 10
-0.2507795275590551
 20
-2.325070866141732
 30
0.0
 10
-0.2507795275590551
 20
-2.325070866141732
 30
0.0
 10
-0.2516417322834646
 20
-2.325291338582677
 30
0.0
 10
-0.2524448818897638
 20
-2.32540157480315
 30
0.0
 10
-0.2532244094488189
 20
-2.32540157480315
 30
0.0
 10
-0.2532244094488189
 20
-2.32540157480315
 30
0.0
 10
-0.2558346456692914
 20
-2.32540157480315
 30
0.0
 10
-0.2579173228346457
 20
-2.324570866141733
 30
0.0
 10
-0.2594724409448819
 20
-2.322874015748031
 30
0.0
 10
-0.2594724409448819
 20
-2.322874015748031
 30
0.0
 10
-0.2610590551181102
 20
-2.321208661417323
 30
0.0
 10
-0.2618346456692913
 20
-2.319070866141733
 30
0.0
 10
-0.2618346456692913
 20
-2.316456692913386
 30
0.0
 10
-0.2618346456692913
 20
-2.316456692913386
 30
0.0
 10
-0.2618346456692913
 20
-2.31390157480315
 30
0.0
 10
-0.2608897637795276
 20
-2.311681102362205
 30
0.0
 10
-0.259
 20
-2.309791338582677
 30
0.0
 10
-0.259
 20
-2.309791338582677
 30
0.0
 10
-0.2570866141732284
 20
-2.307874015748032
 30
0.0
 10
-0.2548070866141732
 20
-2.306929133858268
 30
0.0
 10
-0.2521692913385827
 20
-2.306929133858268
 30
0.0
 10
-0.2521692913385827
 20
-2.306929133858268
 30
0.0
 10
-0.2484724409448819
 20
-2.306929133858268
 30
0.0
 10
-0.2453070866141733
 20
-2.30840157480315
 30
0.0
 10
-0.2426692913385827
 20
-2.311374015748032
 30
0.0
 10
-0.2426692913385827
 20
-2.311374015748032
 30
0.0
 10
-0.2400590551181102
 20
-2.314318897637795
 30
0.0
 10
-0.2387244094488189
 20
-2.318125984251969
 30
0.0
 10
-0.2387244094488189
 20
-2.322791338582677
 30
0.0
 10
-0.2387244094488189
 20
-2.322791338582677
 30
0.0
 10
-0.2387244094488189
 20
-2.325846456692914
 30
0.0
 10
-0.2393622047244094
 20
-2.329043307086614
 30
0.0
 10
-0.2406141732283465
 20
-2.332374015748032
 30
0.0
 10
-0.2406141732283465
 20
-2.332374015748032
 30
0.0
 10
-0.2418622047244095
 20
-2.335708661417323
 30
0.0
 10
-0.2436692913385827
 20
-2.338791338582677
 30
0.0
 10
-0.2460590551181102
 20
-2.341653543307087
 30
0.0
 10
-0.2460590551181102
 20
-2.341653543307087
 30
0.0
 10
-0.2484448818897638
 20
-2.344484251968504
 30
0.0
 10
-0.2531692913385827
 20
-2.34890157480315
 30
0.0
 10
-0.2602244094488189
 20
-2.354874015748032
 30
0.0
  0
SPLINE
  5
88
330
1F
100
AcDbEntity
  8
Layer 1
 62
   250
100
AcDbSpline
210
0.0
220
0.0
230
1.0
 70
    11
 71
     3
 72
    60
 73
    56
 74
     0
 42
0.0000000001
 43
0.0000000001
 40
0.0
 40
0.0
 40
0.0
 40
0.0
 40
0.0714285714285714
 40
0.0714285714285714
 40
0.0714285714285714
 40
0.0714285714285714
 40
0.1428571428571429
 40
0.1428571428571429
 40
0.1428571428571429
 40
0.1428571428571429
 40
0.2142857142857143
 40
0.2142857142857143
 40
0.2142857142857143
 40
0.2142857142857143
 40
0.2857142857142857
 40
0.2857142857142857
 40
0.2857142857142857
 40
0.2857142857142857
 40
0.3571428571428571
 40
0.3571428571428571
 40
0.3571428571428571
 40
0.3571428571428571
 40
0.4285714285714285
 40
0.4285714285714285
 40
0.4285714285714285
 40
0.4285714285714285
 40
0.4999999999999999
 40
0.4999999999999999
 40
0.4999999999999999
 40
0.4999999999999999
 40
0.5714285714285713
 40
0.5714285714285713
 40
0.5714285714285713
 40
0.5714285714285713
 40
0.6428571428571427
 40
0.6428571428571427
 40
0.6428571428571427
 40
0.6428571428571427
 40
0.7142857142857141
 40
0.7142857142857141
 40
0.7142857142857141
 40
0.7142857142857141
 40
0.7857142857142855
 40
0.7857142857142855
 40
0.7857142857142855
 40
0.7857142857142855
 40
0.8571428571428569
 40
0.8571428571428569
 40
0.8571428571428569
 40
0.8571428571428569
 40
0.9285714285714283
 40
0.9285714285714283
 40
0.9285714285714283
 40
0.9285714285714283
 40
1.0
 40
1.0
 40
1.0
 40
1.0
 10
-0.2311692913385827
 20
-2.354874015748032
 30
0.0
 10
-0.2311692913385827
 20
-2.354874015748032
 30
0.0
 10
-0.2355590551181102
 20
-2.349484251968504
 30
0.0
 10
-0.2355590551181102
 20
-2.349484251968504
 30
0.0
 10
-0.2355590551181102
 20
-2.349484251968504
 30
0.0
 10
-0.2244448818897638
 20
-2.340429133858268
 30
0.0
 10
-0.2188622047244095
 20
-2.332874015748032
 30
0.0
 10
-0.2188622047244095
 20
-2.326791338582677
 30
0.0
 10
-0.2188622047244095
 20
-2.326791338582677
 30
0.0
 10
-0.2188622047244095
 20
-2.326098425196851
 30
0.0
 10
-0.2189173228346457
 20
-2.325208661417323
 30
0.0
 10
-0.2190314960629921
 20
-2.324181102362205
 30
0.0
 10
-0.2190314960629921
 20
-2.324181102362205
 30
0.0
 10
-0.2199448818897638
 20
-2.324570866141733
 30
0.0
 10
-0.2208622047244095
 20
-2.324874015748032
 30
0.0
 10
-0.2217244094488189
 20
-2.325070866141732
 30
0.0
 10
-0.2217244094488189
 20
-2.325070866141732
 30
0.0
 10
-0.2225866141732284
 20
-2.325291338582677
 30
0.0
 10
-0.2234173228346457
 20
-2.32540157480315
 30
0.0
 10
-0.224251968503937
 20
-2.32540157480315
 30
0.0
 10
-0.224251968503937
 20
-2.32540157480315
 30
0.0
 10
-0.2268070866141732
 20
-2.32540157480315
 30
0.0
 10
-0.2288622047244095
 20
-2.324570866141733
 30
0.0
 10
-0.2304173228346457
 20
-2.322874015748031
 30
0.0
 10
-0.2304173228346457
 20
-2.322874015748031
 30
0.0
 10
-0.232
 20
-2.321208661417323
 30
0.0
 10
-0.2327795275590551
 20
-2.319070866141733
 30
0.0
 10
-0.2327795275590551
 20
-2.316456692913386
 30
0.0
 10
-0.2327795275590551
 20
-2.316456692913386
 30
0.0
 10
-0.2327795275590551
 20
-2.31390157480315
 30
0.0
 10
-0.2318346456692914
 20
-2.311681102362205
 30
0.0
 10
-0.2299448818897638
 20
-2.309791338582677
 30
0.0
 10
-0.2299448818897638
 20
-2.309791338582677
 30
0.0
 10
-0.2280590551181103
 20
-2.307874015748032
 30
0.0
 10
-0.225751968503937
 20
-2.306929133858268
 30
0.0
 10
-0.2231141732283465
 20
-2.306929133858268
 30
0.0
 10
-0.2231141732283465
 20
-2.306929133858268
 30
0.0
 10
-0.2194173228346457
 20
-2.306929133858268
 30
0.0
 10
-0.216251968503937
 20
-2.30840157480315
 30
0.0
 10
-0.2136141732283465
 20
-2.311374015748032
 30
0.0
 10
-0.2136141732283465
 20
-2.311374015748032
 30
0.0
 10
-0.211003937007874
 20
-2.314318897637795
 30
0.0
 10
-0.2096692913385827
 20
-2.318125984251969
 30
0.0
 10
-0.2096692913385827
 20
-2.322791338582677
 30
0.0
 10
-0.2096692913385827
 20
-2.322791338582677
 30
0.0
 10
-0.2096692913385827
 20
-2.325846456692914
 30
0.0
 10
-0.2103070866141732
 20
-2.329043307086614
 30
0.0
 10
-0.2115590551181102
 20
-2.332374015748032
 30
0.0
 10
-0.2115590551181102
 20
-2.332374015748032
 30
0.0
 10
-0.2128070866141733
 20
-2.335708661417323
 30
0.0
 10
-0.2146141732283465
 20
-2.338791338582677
 30
0.0
 10
-0.217
 20
-2.341653543307087
 30
0.0
 10
-0.217
 20
-2.341653543307087
 30
0.0
 10
-0.2193897637795276
 20
-2.344484251968504
 30
0.0
 10
-0.2241141732283465
 20
-2.34890157480315
 30
0.0
 10
-0.2311692913385827
 20
-2.354874015748032
 30
0.0
  0
SPLINE
  5
89
330
1F
100
AcDbEntity
  8
Layer 1
 62
   250
100
AcDbSpline
210
0.0
220
0.0
230
1.0
 70
    11
 71
     3
 72
   204
 73
   200
 74
     0
 42
0.0000000001
 43
0.0000000001
 40
0.0
 40
0.0
 40
0.0
 40
0.0
 40
0.02
 40
0.02
 40
0.02
 40
0.02
 40
0.04
 40
0.04
 40
0.04
 40
0.04
 40
0.06
 40
0.06
 40
0.06
 40
0.06
 40
0.08
 40
0.08
 40
0.08
 40
0.08
 40
0.1
 40
0.1
 40
0.1
 40
0.1
 40
0.12
 40
0.12
 40
0.12
 40
0.12
 40
0.14
 40
0.14
 40
0.14
 40
0.14
 40
0.16
 40
0.16
 40
0.16
 40
0.16
 40
0.18
 40
0.18
 40
0.18
 40
0.18
 40
0.2
 40
0.2
 40
0.2
 40
0.2
 40
0.22
 40
0.22
 40
0.22
 40
0.22
 40
0.24
 40
0.24
 40
0.24
 40
0.24
 40
0.26
 40
0.26
 40
0.26
 40
0.26
 40
0.28
 40
0.28
 40
0.28
 40
0.28
 40
0.3
 40
0.3
 40
0.3
 40
0.3
 40
0.32
 40
0.32
 40
0.32
 40
0.32
 40
0.34
 40
0.34
 40
0.34
 40
0.34
 40
0.36
 40
0.36
 40
0.36
 40
0.36
 40
0.3800000000000001
 40
0.3800000000000001
 40
0.3800000000000001
 40
0.3800000000000001
 40
0.4000000000000001
 40
0.4000000000000001
 40
0.4000000000000001
 40
0.4000000000000001
 40
0.4200000000000001
 40
0.4200000000000001
 40
0.4200000000000001
 40
0.4200000000000001
 40
0.4400000000000001
 40
0.4400000000000001
 40
0.4400000000000001
 40
0.4400000000000001
 40
0.4600000000000001
 40
0.4600000000000001
 40
0.4600000000000001
 40
0.4600000000000001
 40
0.4800000000000002
 40
0.4800000000000002
 40
0.4800000000000002
 40
0.4800000000000002
 40
0.5000000000000001
 40
0.5000000000000001
 40
0.5000000000000001
 40
0.5000000000000001
 40
0.5200000000000001
 40
0.5200000000000001
 40
0.5200000000000001
 40
0.5200000000000001
 40
0.5400000000000002
 40
0.5400000000000002
 40
0.5400000000000002
 40
0.5400000000000002
 40
0.5600000000000002
 40
0.5600000000000002
 40
0.5600000000000002
 40
0.5600000000000002
 40
0.5800000000000002
 40
0.5800000000000002
 40
0.5800000000000002
 40
0.5800000000000002
 40
0.6000000000000002
 40
0.6000000000000002
 40
0.6000000000000002
 40
0.6000000000000002
 40
0.6200000000000002
 40
0.6200000000000002
 40
0.6200000000000002
 40
0.6200000000000002
 40
0.6400000000000002
 40
0.6400000000000002
 40
0.6400000000000002
 40
0.6400000000000002
 40
0.6600000000000003
 40
0.6600000000000003
 40
0.6600000000000003
 40
0.6600000000000003
 40
0.6800000000000003
 40
0.6800000000000003
 40
0.6800000000000003
 40
0.6800000000000003
 40
0.7000000000000003
 40
0.7000000000000003
 40
0.7000000000000003
 40
0.7000000000000003
 40
0.7200000000000003
 40
0.7200000000000003
 40
0.7200000000000003
 40
0.7200000000000003
 40
0.7400000000000003
 40
0.7400000000000003
 40
0.7400000000000003
 40
0.7400000000000003
 40
0.7600000000000003
 40
0.7600000000000003
 40
0.7600000000000003
 40
0.7600000000000003
 40
0.7800000000000004
 40
0.7800000000000004
 40
0.7800000000000004
 40
0.7800000000000004
 40
0.8000000000000004
 40
0.8000000000000004
 40
0.8000000000000004
 40
0.8000000000000004
 40
0.8200000000000004
 40
0.8200000000000004
 40
0.8200000000000004
 40
0.8200000000000004
 40
0.8400000000000004
 40
0.8400000000000004
 40
0.8400000000000004
 40
0.8400000000000004
 40
0.8600000000000004
 40
0.8600000000000004
 40
0.8600000000000004
 40
0.8600000000000004
 40
0.8800000000000005
 40
0.8800000000000005
 40
0.8800000000000005
 40
0.8800000000000005
 40
0.9000000000000005
 40
0.9000000000000005
 40
0.9000000000000005
 40
0.9000000000000005
 40
0.9200000000000005
 40
0.9200000000000005
 40
0.9200000000000005
 40
0.9200000000000005
 40
0.9400000000000005
 40
0.9400000000000005
 40
0.9400000000000005
 40
0.9400000000000005
 40
0.9600000000000005
 40
0.9600000000000005
 40
0.9600000000000005
 40
0.9600000000000005
 40
0.9800000000000005
 40
0.9800000000000005
 40
0.9800000000000005
 40
0.9800000000000005
 40
1.0
 40
1.0
 40
1.0
 40
1.0
 10
-0.1473622047244095
 20
-2.347791338582677
 30
0.0
 10
-0.1473622047244095
 20
-2.347791338582677
 30
0.0
 10
-0.1064173228346457
 20
-2.347791338582677
 30
0.0
 10
-0.1064173228346457
 20
-2.347791338582677
 30
0.0
 10
-0.1064173228346457
 20
-2.347791338582677
 30
0.0
 10
-0.1064173228346457
 20
-2.347791338582677
 30
0.0
 10
-0.1064173228346457
 20
-2.354625984251969
 30
0.0
 10
-0.1064173228346457
 20
-2.354625984251969
 30
0.0
 10
-0.1064173228346457
 20
-2.354625984251969
 30
0.0
 10
-0.1064173228346457
 20
-2.354625984251969
 30
0.0
 10
-0.109251968503937
 20
-2.354625984251969
 30
0.0
 10
-0.109251968503937
 20
-2.354625984251969
 30
0.0
 10
-0.109251968503937
 20
-2.354625984251969
 30
0.0
 10
-0.1108897637795276
 20
-2.354625984251969
 30
0.0
 10
-0.1123897637795276
 20
-2.354818897637796
 30
0.0
 10
-0.113751968503937
 20
-2.355181102362205
 30
0.0
 10
-0.113751968503937
 20
-2.355181102362205
 30
0.0
 10
-0.1145551181102362
 20
-2.35540157480315
 30
0.0
 10
-0.1152244094488189
 20
-2.355818897637795
 30
0.0
 10
-0.1157244094488189
 20
-2.356456692913386
 30
0.0
 10
-0.1157244094488189
 20
-2.356456692913386
 30
0.0
 10
-0.116251968503937
 20
-2.357070866141732
 30
0.0
 10
-0.1165
 20
-2.357653543307087
 30
0.0
 10
-0.1165
 20
-2.358208661417323
 30
0.0
 10
-0.1165
 20
-2.358208661417323
 30
0.0
 10
-0.1165
 20
-2.359456692913386
 30
0.0
 10
-0.1154724409448819
 20
-2.361318897637796
 30
0.0
 10
-0.1134173228346457
 20
-2.363818897637795
 30
0.0
 10
-0.1134173228346457
 20
-2.363818897637795
 30
0.0
 10
-0.1134173228346457
 20
-2.363818897637795
 30
0.0
 10
-0.1017795275590551
 20
-2.378456692913386
 30
0.0
 10
-0.1017795275590551
 20
-2.378456692913386
 30
0.0
 10
-0.1017795275590551
 20
-2.378456692913386
 30
0.0
 10
-0.1017795275590551
 20
-2.378456692913386
 30
0.0
 10
-0.0881968503937008
 20
-2.363818897637795
 30
0.0
 10
-0.0881968503937008
 20
-2.363818897637795
 30
0.0
 10
-0.0881968503937008
 20
-2.363818897637795
 30
0.0
 10
-0.0856968503937008
 20
-2.36109842519685
 30
0.0
 10
-0.0844448818897638
 20
-2.359070866141733
 30
0.0
 10
-0.0844448818897638
 20
-2.357708661417323
 30
0.0
 10
-0.0844448818897638
 20
-2.357708661417323
 30
0.0
 10
-0.0844448818897638
 20
-2.356736220472441
 30
0.0
 10
-0.0848897637795276
 20
-2.355984251968504
 30
0.0
 10
-0.085751968503937
 20
-2.355429133858268
 30
0.0
 10
-0.085751968503937
 20
-2.355429133858268
 30
0.0
 10
-0.0866141732283465
 20
-2.35490157480315
 30
0.0
 10
-0.0884724409448819
 20
-2.354625984251969
 30
0.0
 10
-0.0913622047244095
 20
-2.354625984251969
 30
0.0
 10
-0.0913622047244095
 20
-2.354625984251969
 30
0.0
 10
-0.0913622047244095
 20
-2.354625984251969
 30
0.0
 10
-0.0944448818897638
 20
-2.354625984251969
 30
0.0
 10
-0.0944448818897638
 20
-2.354625984251969
 30
0.0
 10
-0.0944448818897638
 20
-2.354625984251969
 30
0.0
 10
-0.0944448818897638
 20
-2.354625984251969
 30
0.0
 10
-0.0944448818897638
 20
-2.347791338582677
 30
0.0
 10
-0.0944448818897638
 20
-2.347791338582677
 30
0.0
 10
-0.0944448818897638
 20
-2.347791338582677
 30
0.0
 10
-0.0944448818897638
 20
-2.347791338582677
 30
0.0
 10
-0.0596968503937008
 20
-2.347791338582677
 30
0.0
 10
-0.0596968503937008
 20
-2.347791338582677
 30
0.0
 10
-0.0596968503937008
 20
-2.347791338582677
 30
0.0
 10
-0.0596968503937008
 20
-2.347791338582677
 30
0.0
 10
-0.0596968503937008
 20
-2.354625984251969
 30
0.0
 10
-0.0596968503937008
 20
-2.354625984251969
 30
0.0
 10
-0.0596968503937008
 20
-2.354625984251969
 30
0.0
 10
-0.0631141732283465
 20
-2.354791338582677
 30
0.0
 10
-0.0660590551181102
 20
-2.355484251968504
 30
0.0
 10
-0.0685275590551181
 20
-2.356736220472441
 30
0.0
 10
-0.0685275590551181
 20
-2.356736220472441
 30
0.0
 10
-0.071
 20
-2.357984251968504
 30
0.0
 10
-0.0739173228346457
 20
-2.360346456692914
 30
0.0
 10
-0.0772795275590551
 20
-2.363818897637795
 30
0.0
 10
-0.0772795275590551
 20
-2.363818897637795
 30
0.0
 10
-0.0772795275590551
 20
-2.363818897637795
 30
0.0
 10
-0.0959173228346457
 20
-2.383181102362205
 30
0.0
 10
-0.0959173228346457
 20
-2.383181102362205
 30
0.0
 10
-0.0959173228346457
 20
-2.383181102362205
 30
0.0
 10
-0.0959173228346457
 20
-2.383181102362205
 30
0.0
 10
-0.0727244094488189
 20
-2.409625984251969
 30
0.0
 10
-0.0727244094488189
 20
-2.409625984251969
 30
0.0
 10
-0.0727244094488189
 20
-2.409625984251969
 30
0.0
 10
-0.0727244094488189
 20
-2.409625984251969
 30
0.0
 10
-0.0718346456692913
 20
-2.410763779527559
 30
0.0
 10
-0.0718346456692913
 20
-2.410763779527559
 30
0.0
 10
-0.0718346456692913
 20
-2.410763779527559
 30
0.0
 10
-0.0695590551181102
 20
-2.413708661417323
 30
0.0
 10
-0.067
 20
-2.416070866141733
 30
0.0
 10
-0.0641692913385827
 20
-2.417846456692914
 30
0.0
 10
-0.0641692913385827
 20
-2.417846456692914
 30
0.0
 10
-0.0626141732283465
 20
-2.418874015748032
 30
0.0
 10
-0.0601692913385827
 20
-2.419429133858268
 30
0.0
 10
-0.0568622047244094
 20
-2.419484251968504
 30
0.0
 10
-0.0568622047244094
 20
-2.419484251968504
 30
0.0
 10
-0.0568622047244094
 20
-2.419484251968504
 30
0.0
 10
-0.0568622047244094
 20
-2.426318897637795
 30
0.0
 10
-0.0568622047244094
 20
-2.426318897637795
 30
0.0
 10
-0.0568622047244094
 20
-2.426318897637795
 30
0.0
 10
-0.0568622047244094
 20
-2.426318897637795
 30
0.0
 10
-0.0968070866141732
 20
-2.426318897637795
 30
0.0
 10
-0.0968070866141732
 20
-2.426318897637795
 30
0.0
 10
-0.0968070866141732
 20
-2.426318897637795
 30
0.0
 10
-0.0968070866141732
 20
-2.426318897637795
 30
0.0
 10
-0.0968070866141732
 20
-2.419484251968504
 30
0.0
 10
-0.0968070866141732
 20
-2.419484251968504
 30
0.0
 10
-0.0968070866141732
 20
-2.419484251968504
 30
0.0
 10
-0.0968070866141732
 20
-2.419484251968504
 30
0.0
 10
-0.0933897637795276
 20
-2.419484251968504
 30
0.0
 10
-0.0933897637795276
 20
-2.419484251968504
 30
0.0
 10
-0.0933897637795276
 20
-2.419484251968504
 30
0.0
 10
-0.0907795275590551
 20
-2.419484251968504
 30
0.0
 10
-0.0891417322834646
 20
-2.419318897637795
 30
0.0
 10
-0.0884173228346457
 20
-2.418984251968504
 30
0.0
 10
-0.0884173228346457
 20
-2.418984251968504
 30
0.0
 10
-0.087251968503937
 20
-2.418456692913386
 30
0.0
 10
-0.0866417322834646
 20
-2.41753937007874
 30
0.0
 10
-0.0866417322834646
 20
-2.416236220472441
 30
0.0
 10
-0.0866417322834646
 20
-2.416236220472441
 30
0.0
 10
-0.0866417322834646
 20
-2.41503937007874
 30
0.0
 10
-0.0879448818897638
 20
-2.412846456692913
 30
0.0
 10
-0.0905590551181102
 20
-2.409625984251969
 30
0.0
 10
-0.0905590551181102
 20
-2.409625984251969
 30
0.0
 10
-0.0905590551181102
 20
-2.409625984251969
 30
0.0
 10
-0.1053622047244095
 20
-2.391484251968504
 30
0.0
 10
-0.1053622047244095
 20
-2.391484251968504
 30
0.0
 10
-0.1053622047244095
 20
-2.391484251968504
 30
0.0
 10
-0.1053622047244095
 20
-2.391484251968504
 30
0.0
 10
-0.1218897637795276
 20
-2.409625984251969
 30
0.0
 10
-0.1218897637795276
 20
-2.409625984251969
 30
0.0
 10
-0.1218897637795276
 20
-2.409625984251969
 30
0.0
 10
-0.1218897637795276
 20
-2.409625984251969
 30
0.0
 10
-0.1235
 20
-2.41159842519685
 30
0.0
 10
-0.1235
 20
-2.41159842519685
 30
0.0
 10
-0.1235
 20
-2.41159842519685
 30
0.0
 10
-0.1235
 20
-2.41159842519685
 30
0.0
 10
-0.1243897637795276
 20
-2.412570866141732
 30
0.0
 10
-0.1243897637795276
 20
-2.412570866141732
 30
0.0
 10
-0.1243897637795276
 20
-2.412570866141732
 30
0.0
 10
-0.125751968503937
 20
-2.41403937007874
 30
0.0
 10
-0.1264448818897638
 20
-2.415318897637795
 30
0.0
 10
-0.1264448818897638
 20
-2.416456692913386
 30
0.0
 10
-0.1264448818897638
 20
-2.416456692913386
 30
0.0
 10
-0.1264448818897638
 20
-2.417511811023622
 30
0.0
 10
-0.1260275590551181
 20
-2.418263779527559
 30
0.0
 10
-0.1251692913385827
 20
-2.418763779527559
 30
0.0
 10
-0.1251692913385827
 20
-2.418763779527559
 30
0.0
 10
-0.1243346456692913
 20
-2.419236220472441
 30
0.0
 10
-0.1224448818897638
 20
-2.419484251968504
 30
0.0
 10
-0.1195275590551181
 20
-2.419484251968504
 30
0.0
 10
-0.1195275590551181
 20
-2.419484251968504
 30
0.0
 10
-0.1195275590551181
 20
-2.419484251968504
 30
0.0
 10
-0.116251968503937
 20
-2.419484251968504
 30
0.0
 10
-0.116251968503937
 20
-2.419484251968504
 30
0.0
 10
-0.116251968503937
 20
-2.419484251968504
 30
0.0
 10
-0.116251968503937
 20
-2.419484251968504
 30
0.0
 10
-0.116251968503937
 20
-2.426318897637795
 30
0.0
 10
-0.116251968503937
 20
-2.426318897637795
 30
0.0
 10
-0.116251968503937
 20
-2.426318897637795
 30
0.0
 10
-0.116251968503937
 20
-2.426318897637795
 30
0.0
 10
-0.1505275590551181
 20
-2.426318897637795
 30
0.0
 10
-0.1505275590551181
 20
-2.426318897637795
 30
0.0
 10
-0.1505275590551181
 20
-2.426318897637795
 30
0.0
 10
-0.1505275590551181
 20
-2.426318897637795
 30
0.0
 10
-0.1505275590551181
 20
-2.419484251968504
 30
0.0
 10
-0.1505275590551181
 20
-2.419484251968504
 30
0.0
 10
-0.1505275590551181
 20
-2.419484251968504
 30
0.0
 10
-0.1478622047244095
 20
-2.419429133858268
 30
0.0
 10
-0.1457795275590551
 20
-2.419153543307087
 30
0.0
 10
-0.144251968503937
 20
-2.418625984251968
 30
0.0
 10
-0.144251968503937
 20
-2.418625984251968
 30
0.0
 10
-0.142751968503937
 20
-2.418125984251969
 30
0.0
 10
-0.1412795275590551
 20
-2.417318897637796
 30
0.0
 10
-0.1398622047244095
 20
-2.416236220472441
 30
0.0
 10
-0.1398622047244095
 20
-2.416236220472441
 30
0.0
 10
-0.1374173228346457
 20
-2.414263779527559
 30
0.0
 10
-0.1356692913385827
 20
-2.412736220472441
 30
0.0
 10
-0.1345826771653543
 20
-2.41159842519685
 30
0.0
 10
-0.1345826771653543
 20
-2.41159842519685
 30
0.0
 10
-0.1345826771653543
 20
-2.41159842519685
 30
0.0
 10
-0.1107244094488189
 20
-2.387098425196851
 30
0.0
 10
-0.1107244094488189
 20
-2.387098425196851
 30
0.0
 10
-0.1107244094488189
 20
-2.387098425196851
 30
0.0
 10
-0.1107244094488189
 20
-2.387098425196851
 30
0.0
 10
-0.131
 20
-2.363818897637795
 30
0.0
 10
-0.131
 20
-2.363818897637795
 30
0.0
 10
-0.131
 20
-2.363818897637795
 30
0.0
 10
-0.1335551181102362
 20
-2.360929133858268
 30
0.0
 10
-0.1355551181102362
 20
-2.358929133858268
 30
0.0
 10
-0.1370551181102362
 20
-2.357763779527559
 30
0.0
 10
-0.1370551181102362
 20
-2.357763779527559
 30
0.0
 10
-0.1385551181102362
 20
-2.356598425196851
 30
0.0
 10
-0.14
 20
-2.355763779527559
 30
0.0
 10
-0.1414173228346457
 20
-2.355318897637795
 30
0.0
 10
-0.1414173228346457
 20
-2.355318897637795
 30
0.0
 10
-0.1428346456692914
 20
-2.354846456692914
 30
0.0
 10
-0.1448070866141732
 20
-2.354625984251969
 30
0.0
 10
-0.1473622047244095
 20
-2.354625984251969
 30
0.0
 10
-0.1473622047244095
 20
-2.354625984251969
 30
0.0
 10
-0.1473622047244095
 20
-2.354625984251969
 30
0.0
 10
-0.1473622047244095
 20
-2.347791338582677
 30
0.0
 10
-0.1473622047244095
 20
-2.347791338582677
 30
0.0
  0
SPLINE
  5
8A
330
1F
100
AcDbEntity
  8
Layer 1
 62
   250
100
AcDbSpline
210
0.0
220
0.0
230
1.0
 70
    11
 71
     3
 72
   172
 73
   168
 74
     0
 42
0.0000000001
 43
0.0000000001
 40
0.0
 40
0.0
 40
0.0
 40
0.0
 40
0.0238095238095238
 40
0.0238095238095238
 40
0.0238095238095238
 40
0.0238095238095238
 40
0.0476190476190476
 40
0.0476190476190476
 40
0.0476190476190476
 40
0.0476190476190476
 40
0.0714285714285714
 40
0.0714285714285714
 40
0.0714285714285714
 40
0.0714285714285714
 40
0.0952380952380952
 40
0.0952380952380952
 40
0.0952380952380952
 40
0.0952380952380952
 40
0.119047619047619
 40
0.119047619047619
 40
0.119047619047619
 40
0.119047619047619
 40
0.1428571428571429
 40
0.1428571428571429
 40
0.1428571428571429
 40
0.1428571428571429
 40
0.1666666666666667
 40
0.1666666666666667
 40
0.1666666666666667
 40
0.1666666666666667
 40
0.1904761904761905
 40
0.1904761904761905
 40
0.1904761904761905
 40
0.1904761904761905
 40
0.2142857142857143
 40
0.2142857142857143
 40
0.2142857142857143
 40
0.2142857142857143
 40
0.2380952380952381
 40
0.2380952380952381
 40
0.2380952380952381
 40
0.2380952380952381
 40
0.2619047619047619
 40
0.2619047619047619
 40
0.2619047619047619
 40
0.2619047619047619
 40
0.2857142857142857
 40
0.2857142857142857
 40
0.2857142857142857
 40
0.2857142857142857
 40
0.3095238095238095
 40
0.3095238095238095
 40
0.3095238095238095
 40
0.3095238095238095
 40
0.3333333333333334
 40
0.3333333333333334
 40
0.3333333333333334
 40
0.3333333333333334
 40
0.3571428571428572
 40
0.3571428571428572
 40
0.3571428571428572
 40
0.3571428571428572
 40
0.380952380952381
 40
0.380952380952381
 40
0.380952380952381
 40
0.380952380952381
 40
0.4047619047619049
 40
0.4047619047619049
 40
0.4047619047619049
 40
0.4047619047619049
 40
0.4285714285714287
 40
0.4285714285714287
 40
0.4285714285714287
 40
0.4285714285714287
 40
0.4523809523809526
 40
0.4523809523809526
 40
0.4523809523809526
 40
0.4523809523809526
 40
0.4761904761904764
 40
0.4761904761904764
 40
0.4761904761904764
 40
0.4761904761904764
 40
0.5000000000000002
 40
0.5000000000000002
 40
0.5000000000000002
 40
0.5000000000000002
 40
0.5238095238095241
 40
0.5238095238095241
 40
0.5238095238095241
 40
0.5238095238095241
 40
0.5476190476190479
 40
0.5476190476190479
 40
0.5476190476190479
 40
0.5476190476190479
 40
0.5714285714285717
 40
0.5714285714285717
 40
0.5714285714285717
 40
0.5714285714285717
 40
0.5952380952380956
 40
0.5952380952380956
 40
0.5952380952380956
 40
0.5952380952380956
 40
0.6190476190476194
 40
0.6190476190476194
 40
0.6190476190476194
 40
0.6190476190476194
 40
0.6428571428571432
 40
0.6428571428571432
 40
0.6428571428571432
 40
0.6428571428571432
 40
0.6666666666666671
 40
0.6666666666666671
 40
0.6666666666666671
 40
0.6666666666666671
 40
0.6904761904761909
 40
0.6904761904761909
 40
0.6904761904761909
 40
0.6904761904761909
 40
0.7142857142857148
 40
0.7142857142857148
 40
0.7142857142857148
 40
0.7142857142857148
 40
0.7380952380952386
 40
0.7380952380952386
 40
0.7380952380952386
 40
0.7380952380952386
 40
0.7619047619047624
 40
0.7619047619047624
 40
0.7619047619047624
 40
0.7619047619047624
 40
0.7857142857142863
 40
0.7857142857142863
 40
0.7857142857142863
 40
0.7857142857142863
 40
0.8095238095238101
 40
0.8095238095238101
 40
0.8095238095238101
 40
0.8095238095238101
 40
0.8333333333333339
 40
0.8333333333333339
 40
0.8333333333333339
 40
0.8333333333333339
 40
0.8571428571428578
 40
0.8571428571428578
 40
0.8571428571428578
 40
0.8571428571428578
 40
0.8809523809523816
 40
0.8809523809523816
 40
0.8809523809523816
 40
0.8809523809523816
 40
0.9047619047619054
 40
0.9047619047619054
 40
0.9047619047619054
 40
0.9047619047619054
 40
0.9285714285714293
 40
0.9285714285714293
 40
0.9285714285714293
 40
0.9285714285714293
 40
0.9523809523809531
 40
0.9523809523809531
 40
0.9523809523809531
 40
0.9523809523809531
 40
0.9761904761904769
 40
0.9761904761904769
 40
0.9761904761904769
 40
0.9761904761904769
 40
1.0
 40
1.0
 40
1.0
 40
1.0
 10
0.0183307086614173
 20
-2.343153543307087
 30
0.0
 10
0.0183307086614173
 20
-2.343153543307087
 30
0.0
 10
0.0105236220472441
 20
-2.341929133858268
 30
0.0
 10
0.0105236220472441
 20
-2.341929133858268
 30
0.0
 10
0.0105236220472441
 20
-2.341929133858268
 30
0.0
 10
0.0112204724409449
 20
-2.336070866141732
 30
0.0
 10
0.012748031496063
 20
-2.331208661417323
 30
0.0
 10
0.0150826771653543
 20
-2.327346456692914
 30
0.0
 10
0.0150826771653543
 20
-2.327346456692914
 30
0.0
 10
0.0181653543307087
 20
-2.322153543307087
 30
0.0
 10
0.0225236220472441
 20
-2.318098425196851
 30
0.0
 10
0.0281653543307087
 20
-2.315208661417323
 30
0.0
 10
0.0281653543307087
 20
-2.315208661417323
 30
0.0
 10
0.0338307086614173
 20
-2.312291338582677
 30
0.0
 10
0.0403031496062992
 20
-2.310846456692913
 30
0.0
 10
0.0476377952755906
 20
-2.310846456692913
 30
0.0
 10
0.0476377952755906
 20
-2.310846456692913
 30
0.0
 10
0.0548307086614173
 20
-2.310846456692913
 30
0.0
 10
0.0611929133858268
 20
-2.312125984251969
 30
0.0
 10
0.0666653543307087
 20
-2.314708661417323
 30
0.0
 10
0.0666653543307087
 20
-2.314708661417323
 30
0.0
 10
0.0721377952755906
 20
-2.317291338582677
 30
0.0
 10
0.0762755905511811
 20
-2.320708661417323
 30
0.0
 10
0.0790787401574803
 20
-2.324956692913386
 30
0.0
 10
0.0790787401574803
 20
-2.324956692913386
 30
0.0
 10
0.0818858267716535
 20
-2.329208661417323
 30
0.0
 10
0.0832755905511811
 20
-2.333818897637795
 30
0.0
 10
0.0832755905511811
 20
-2.338763779527559
 30
0.0
 10
0.0832755905511811
 20
-2.338763779527559
 30
0.0
 10
0.0832755905511811
 20
-2.343098425196851
 30
0.0
 10
0.0822204724409449
 20
-2.346984251968504
 30
0.0
 10
0.0801062992125984
 20
-2.35040157480315
 30
0.0
 10
0.0801062992125984
 20
-2.35040157480315
 30
0.0
 10
0.0779685039370079
 20
-2.353818897637795
 30
0.0
 10
0.0748307086614173
 20
-2.356874015748032
 30
0.0
 10
0.0706653543307087
 20
-2.359598425196851
 30
0.0
 10
0.0706653543307087
 20
-2.359598425196851
 30
0.0
 10
0.0677204724409449
 20
-2.361484251968504
 30
0.0
 10
0.0639133858267717
 20
-2.363153543307087
 30
0.0
 10
0.0591929133858268
 20
-2.364543307086614
 30
0.0
 10
0.0591929133858268
 20
-2.364543307086614
 30
0.0
 10
0.0642204724409449
 20
-2.365263779527559
 30
0.0
 10
0.0683582677165354
 20
-2.366429133858268
 30
0.0
 10
0.0715511811023622
 20
-2.368043307086615
 30
0.0
 10
0.0715511811023622
 20
-2.368043307086615
 30
0.0
 10
0.076748031496063
 20
-2.370708661417323
 30
0.0
 10
0.0808582677165354
 20
-2.374374015748032
 30
0.0
 10
0.0838307086614173
 20
-2.379043307086614
 30
0.0
 10
0.0838307086614173
 20
-2.379043307086614
 30
0.0
 10
0.0868307086614173
 20
-2.383708661417323
 30
0.0
 10
0.0883031496062992
 20
-2.388818897637795
 30
0.0
 10
0.0883031496062992
 20
-2.394429133858268
 30
0.0
 10
0.0883031496062992
 20
-2.394429133858268
 30
0.0
 10
0.0883031496062992
 20
-2.403374015748032
 30
0.0
 10
0.0843858267716535
 20
-2.411263779527559
 30
0.0
 10
0.0765236220472441
 20
-2.418070866141732
 30
0.0
 10
0.0765236220472441
 20
-2.418070866141732
 30
0.0
 10
0.0686377952755906
 20
-2.424874015748032
 30
0.0
 10
0.0584685039370079
 20
-2.428263779527559
 30
0.0
 10
0.045996062992126
 20
-2.428263779527559
 30
0.0
 10
0.045996062992126
 20
-2.428263779527559
 30
0.0
 10
0.0336929133858268
 20
-2.428263779527559
 30
0.0
 10
0.0233307086614173
 20
-2.424984251968504
 30
0.0
 10
0.0149133858267717
 20
-2.418429133858268
 30
0.0
 10
0.0149133858267717
 20
-2.418429133858268
 30
0.0
 10
0.0078582677165354
 20
-2.412846456692913
 30
0.0
 10
0.0043307086614173
 20
-2.407208661417323
 30
0.0
 10
0.0043307086614173
 20
-2.401570866141733
 30
0.0
 10
0.0043307086614173
 20
-2.401570866141733
 30
0.0
 10
0.0043307086614173
 20
-2.399346456692914
 30
0.0
 10
0.0050551181102362
 20
-2.397484251968504
 30
0.0
 10
0.006496062992126
 20
-2.396011811023622
 30
0.0
 10
0.006496062992126
 20
-2.396011811023622
 30
0.0
 10
0.0079133858267717
 20
-2.394511811023622
 30
0.0
 10
0.0097204724409449
 20
-2.393763779527559
 30
0.0
 10
0.0119133858267717
 20
-2.393763779527559
 30
0.0
 10
0.0119133858267717
 20
-2.393763779527559
 30
0.0
 10
0.0142755905511811
 20
-2.393763779527559
 30
0.0
 10
0.0163307086614173
 20
-2.394681102362205
 30
0.0
 10
0.017996062992126
 20
-2.396543307086614
 30
0.0
 10
0.017996062992126
 20
-2.396543307086614
 30
0.0
 10
0.0189133858267717
 20
-2.397570866141733
 30
0.0
 10
0.019996062992126
 20
-2.40003937007874
 30
0.0
 10
0.0211653543307087
 20
-2.403929133858268
 30
0.0
 10
0.0211653543307087
 20
-2.403929133858268
 30
0.0
 10
0.0228582677165354
 20
-2.409429133858268
 30
0.0
 10
0.0257204724409449
 20
-2.413598425196851
 30
0.0
 10
0.0297204724409449
 20
-2.416456692913386
 30
0.0
 10
0.0297204724409449
 20
-2.416456692913386
 30
0.0
 10
0.033748031496063
 20
-2.419346456692913
 30
0.0
 10
0.0387204724409449
 20
-2.420791338582677
 30
0.0
 10
0.0446929133858268
 20
-2.420791338582677
 30
0.0
 10
0.0446929133858268
 20
-2.420791338582677
 30
0.0
 10
0.0500236220472441
 20
-2.420791338582677
 30
0.0
 10
0.0547755905511811
 20
-2.419625984251969
 30
0.0
 10
0.0589685039370079
 20
-2.417291338582677
 30
0.0
 10
0.0589685039370079
 20
-2.417291338582677
 30
0.0
 10
0.0631929133858268
 20
-2.414956692913386
 30
0.0
 10
0.066496062992126
 20
-2.411653543307087
 30
0.0
 10
0.0689409448818898
 20
-2.407346456692914
 30
0.0
 10
0.0689409448818898
 20
-2.407346456692914
 30
0.0
 10
0.0713858267716535
 20
-2.403070866141732
 30
0.0
 10
0.0726102362204724
 20
-2.398374015748032
 30
0.0
 10
0.0726102362204724
 20
-2.393291338582677
 30
0.0
 10
0.0726102362204724
 20
-2.393291338582677
 30
0.0
 10
0.0726102362204724
 20
-2.389153543307087
 30
0.0
 10
0.0717204724409449
 20
-2.385456692913386
 30
0.0
 10
0.0699685039370079
 20
-2.382181102362205
 30
0.0
 10
0.0699685039370079
 20
-2.382181102362205
 30
0.0
 10
0.0681929133858268
 20
-2.378874015748032
 30
0.0
 10
0.0656929133858268
 20
-2.37609842519685
 30
0.0
 10
0.0624409448818898
 20
-2.373818897637795
 30
0.0
 10
0.0624409448818898
 20
-2.373818897637795
 30
0.0
 10
0.0599409448818898
 20
-2.372043307086615
 30
0.0
 10
0.056748031496063
 20
-2.370791338582677
 30
0.0
 10
0.0528858267716535
 20
-2.370098425196851
 30
0.0
 10
0.0528858267716535
 20
-2.370098425196851
 30
0.0
 10
0.048996062992126
 20
-2.369374015748031
 30
0.0
 10
0.045496062992126
 20
-2.369015748031496
 30
0.0
 10
0.0424133858267717
 20
-2.369015748031496
 30
0.0
 10
0.0424133858267717
 20
-2.369015748031496
 30
0.0
 10
0.0424133858267717
 20
-2.369015748031496
 30
0.0
 10
0.0348582677165354
 20
-2.369015748031496
 30
0.0
 10
0.0348582677165354
 20
-2.369015748031496
 30
0.0
 10
0.0348582677165354
 20
-2.369015748031496
 30
0.0
 10
0.0348582677165354
 20
-2.369015748031496
 30
0.0
 10
0.0348582677165354
 20
-2.361125984251969
 30
0.0
 10
0.0348582677165354
 20
-2.361125984251969
 30
0.0
 10
0.0348582677165354
 20
-2.361125984251969
 30
0.0
 10
0.0348582677165354
 20
-2.361125984251969
 30
0.0
 10
0.0396653543307087
 20
-2.361125984251969
 30
0.0
 10
0.0396653543307087
 20
-2.361125984251969
 30
0.0
 10
0.0396653543307087
 20
-2.361125984251969
 30
0.0
 10
0.0444133858267717
 20
-2.361125984251969
 30
0.0
 10
0.0489685039370079
 20
-2.360570866141732
 30
0.0
 10
0.0533307086614173
 20
-2.359456692913386
 30
0.0
 10
0.0533307086614173
 20
-2.359456692913386
 30
0.0
 10
0.0576653543307087
 20
-2.358346456692913
 30
0.0
 10
0.0611377952755906
 20
-2.356070866141732
 30
0.0
 10
0.063748031496063
 20
-2.352598425196851
 30
0.0
 10
0.063748031496063
 20
-2.352598425196851
 30
0.0
 10
0.0663307086614173
 20
-2.349125984251969
 30
0.0
 10
0.0676377952755906
 20
-2.345181102362205
 30
0.0
 10
0.0676377952755906
 20
-2.340791338582677
 30
0.0
 10
0.0676377952755906
 20
-2.340791338582677
 30
0.0
 10
0.0676377952755906
 20
-2.336988188976378
 30
0.0
 10
0.066748031496063
 20
-2.333570866141733
 30
0.0
 10
0.0649133858267717
 20
-2.330543307086614
 30
0.0
 10
0.0649133858267717
 20
-2.330543307086614
 30
0.0
 10
0.0631102362204724
 20
-2.327488188976378
 30
0.0
 10
0.0604409448818898
 20
-2.325070866141732
 30
0.0
 10
0.0569133858267717
 20
-2.323291338582677
 30
0.0
 10
0.0569133858267717
 20
-2.323291338582677
 30
0.0
 10
0.0533858267716535
 20
-2.321515748031496
 30
0.0
 10
0.0493031496062992
 20
-2.320598425196851
 30
0.0
 10
0.0446929133858268
 20
-2.320598425196851
 30
0.0
 10
0.0446929133858268
 20
-2.320598425196851
 30
0.0
 10
0.0401929133858268
 20
-2.320598425196851
 30
0.0
 10
0.0360511811023622
 20
-2.321543307086614
 30
0.0
 10
0.0322755905511811
 20
-2.323374015748032
 30
0.0
 10
0.0322755905511811
 20
-2.323374015748032
 30
0.0
 10
0.0285236220472441
 20
-2.325208661417323
 30
0.0
 10
0.025496062992126
 20
-2.327681102362205
 30
0.0
 10
0.0232204724409449
 20
-2.330791338582677
 30
0.0
 10
0.0232204724409449
 20
-2.330791338582677
 30
0.0
 10
0.0209409448818898
 20
-2.333874015748032
 30
0.0
 10
0.0193031496062992
 20
-2.337988188976378
 30
0.0
 10
0.0183307086614173
 20
-2.343153543307087
 30
0.0
  0
SPLINE
  5
8B
330
1F
100
AcDbEntity
  8
Layer 1
 62
   250
100
AcDbSpline
210
0.0
220
0.0
230
1.0
 70
    11
 71
     3
 72
    20
 73
    16
 74
     0
 42
0.0000000001
 43
0.0000000001
 40
0.0
 40
0.0
 40
0.0
 40
0.0
 40
0.25
 40
0.25
 40
0.25
 40
0.25
 40
0.5
 40
0.5
 40
0.5
 40
0.5
 40
0.75
 40
0.75
 40
0.75
 40
0.75
 40
1.0
 40
1.0
 40
1.0
 40
1.0
 10
0.108748031496063
 20
-2.379846456692913
 30
0.0
 10
0.108748031496063
 20
-2.379846456692913
 30
0.0
 10
0.1570826771653544
 20
-2.379846456692913
 30
0.0
 10
0.1570826771653544
 20
-2.379846456692913
 30
0.0
 10
0.1570826771653544
 20
-2.379846456692913
 30
0.0
 10
0.1570826771653544
 20
-2.379846456692913
 30
0.0
 10
0.1570826771653544
 20
-2.389929133858268
 30
0.0
 10
0.1570826771653544
 20
-2.389929133858268
 30
0.0
 10
0.1570826771653544
 20
-2.389929133858268
 30
0.0
 10
0.1570826771653544
 20
-2.389929133858268
 30
0.0
 10
0.108748031496063
 20
-2.389929133858268
 30
0.0
 10
0.108748031496063
 20
-2.389929133858268
 30
0.0
 10
0.108748031496063
 20
-2.389929133858268
 30
0.0
 10
0.108748031496063
 20
-2.389929133858268
 30
0.0
 10
0.108748031496063
 20
-2.379846456692913
 30
0.0
 10
0.108748031496063
 20
-2.379846456692913
 30
0.0
  0
SPLINE
  5
8C
330
1F
100
AcDbEntity
  8
Layer 1
 62
   250
100
AcDbSpline
210
0.0
220
0.0
230
1.0
 70
    11
 71
     3
 72
   172
 73
   168
 74
     0
 42
0.0000000001
 43
0.0000000001
 40
0.0
 40
0.0
 40
0.0
 40
0.0
 40
0.0238095238095238
 40
0.0238095238095238
 40
0.0238095238095238
 40
0.0238095238095238
 40
0.0476190476190476
 40
0.0476190476190476
 40
0.0476190476190476
 40
0.0476190476190476
 40
0.0714285714285714
 40
0.0714285714285714
 40
0.0714285714285714
 40
0.0714285714285714
 40
0.0952380952380952
 40
0.0952380952380952
 40
0.0952380952380952
 40
0.0952380952380952
 40
0.119047619047619
 40
0.119047619047619
 40
0.119047619047619
 40
0.119047619047619
 40
0.1428571428571429
 40
0.1428571428571429
 40
0.1428571428571429
 40
0.1428571428571429
 40
0.1666666666666667
 40
0.1666666666666667
 40
0.1666666666666667
 40
0.1666666666666667
 40
0.1904761904761905
 40
0.1904761904761905
 40
0.1904761904761905
 40
0.1904761904761905
 40
0.2142857142857143
 40
0.2142857142857143
 40
0.2142857142857143
 40
0.2142857142857143
 40
0.2380952380952381
 40
0.2380952380952381
 40
0.2380952380952381
 40
0.2380952380952381
 40
0.2619047619047619
 40
0.2619047619047619
 40
0.2619047619047619
 40
0.2619047619047619
 40
0.2857142857142857
 40
0.2857142857142857
 40
0.2857142857142857
 40
0.2857142857142857
 40
0.3095238095238095
 40
0.3095238095238095
 40
0.3095238095238095
 40
0.3095238095238095
 40
0.3333333333333334
 40
0.3333333333333334
 40
0.3333333333333334
 40
0.3333333333333334
 40
0.3571428571428572
 40
0.3571428571428572
 40
0.3571428571428572
 40
0.3571428571428572
 40
0.380952380952381
 40
0.380952380952381
 40
0.380952380952381
 40
0.380952380952381
 40
0.4047619047619049
 40
0.4047619047619049
 40
0.4047619047619049
 40
0.4047619047619049
 40
0.4285714285714287
 40
0.4285714285714287
 40
0.4285714285714287
 40
0.4285714285714287
 40
0.4523809523809526
 40
0.4523809523809526
 40
0.4523809523809526
 40
0.4523809523809526
 40
0.4761904761904764
 40
0.4761904761904764
 40
0.4761904761904764
 40
0.4761904761904764
 40
0.5000000000000002
 40
0.5000000000000002
 40
0.5000000000000002
 40
0.5000000000000002
 40
0.5238095238095241
 40
0.5238095238095241
 40
0.5238095238095241
 40
0.5238095238095241
 40
0.5476190476190479
 40
0.5476190476190479
 40
0.5476190476190479
 40
0.5476190476190479
 40
0.5714285714285717
 40
0.5714285714285717
 40
0.5714285714285717
 40
0.5714285714285717
 40
0.5952380952380956
 40
0.5952380952380956
 40
0.5952380952380956
 40
0.5952380952380956
 40
0.6190476190476194
 40
0.6190476190476194
 40
0.6190476190476194
 40
0.6190476190476194
 40
0.6428571428571432
 40
0.6428571428571432
 40
0.6428571428571432
 40
0.6428571428571432
 40
0.6666666666666671
 40
0.6666666666666671
 40
0.6666666666666671
 40
0.6666666666666671
 40
0.6904761904761909
 40
0.6904761904761909
 40
0.6904761904761909
 40
0.6904761904761909
 40
0.7142857142857148
 40
0.7142857142857148
 40
0.7142857142857148
 40
0.7142857142857148
 40
0.7380952380952386
 40
0.7380952380952386
 40
0.7380952380952386
 40
0.7380952380952386
 40
0.7619047619047624
 40
0.7619047619047624
 40
0.7619047619047624
 40
0.7619047619047624
 40
0.7857142857142863
 40
0.7857142857142863
 40
0.7857142857142863
 40
0.7857142857142863
 40
0.8095238095238101
 40
0.8095238095238101
 40
0.8095238095238101
 40
0.8095238095238101
 40
0.8333333333333339
 40
0.8333333333333339
 40
0.8333333333333339
 40
0.8333333333333339
 40
0.8571428571428578
 40
0.8571428571428578
 40
0.8571428571428578
 40
0.8571428571428578
 40
0.8809523809523816
 40
0.8809523809523816
 40
0.8809523809523816
 40
0.8809523809523816
 40
0.9047619047619054
 40
0.9047619047619054
 40
0.9047619047619054
 40
0.9047619047619054
 40
0.9285714285714293
 40
0.9285714285714293
 40
0.9285714285714293
 40
0.9285714285714293
 40
0.9523809523809531
 40
0.9523809523809531
 40
0.9523809523809531
 40
0.9523809523809531
 40
0.9761904761904769
 40
0.9761904761904769
 40
0.9761904761904769
 40
0.9761904761904769
 40
1.0
 40
1.0
 40
1.0
 40
1.0
 10
0.1883307086614173
 20
-2.343153543307087
 30
0.0
 10
0.1883307086614173
 20
-2.343153543307087
 30
0.0
 10
0.1805236220472441
 20
-2.341929133858268
 30
0.0
 10
0.1805236220472441
 20
-2.341929133858268
 30
0.0
 10
0.1805236220472441
 20
-2.341929133858268
 30
0.0
 10
0.1812204724409449
 20
-2.336070866141732
 30
0.0
 10
0.182748031496063
 20
-2.331208661417323
 30
0.0
 10
0.1850826771653543
 20
-2.327346456692914
 30
0.0
 10
0.1850826771653543
 20
-2.327346456692914
 30
0.0
 10
0.1881653543307087
 20
-2.322153543307087
 30
0.0
 10
0.1925236220472441
 20
-2.318098425196851
 30
0.0
 10
0.1981653543307087
 20
-2.315208661417323
 30
0.0
 10
0.1981653543307087
 20
-2.315208661417323
 30
0.0
 10
0.2038307086614173
 20
-2.312291338582677
 30
0.0
 10
0.2103031496062992
 20
-2.310846456692913
 30
0.0
 10
0.2176377952755906
 20
-2.310846456692913
 30
0.0
 10
0.2176377952755906
 20
-2.310846456692913
 30
0.0
 10
0.2248307086614173
 20
-2.310846456692913
 30
0.0
 10
0.2311929133858268
 20
-2.312125984251969
 30
0.0
 10
0.2366653543307087
 20
-2.314708661417323
 30
0.0
 10
0.2366653543307087
 20
-2.314708661417323
 30
0.0
 10
0.2421377952755906
 20
-2.317291338582677
 30
0.0
 10
0.2462755905511811
 20
-2.320708661417323
 30
0.0
 10
0.2490787401574803
 20
-2.324956692913386
 30
0.0
 10
0.2490787401574803
 20
-2.324956692913386
 30
0.0
 10
0.2518858267716536
 20
-2.329208661417323
 30
0.0
 10
0.2532755905511811
 20
-2.333818897637795
 30
0.0
 10
0.2532755905511811
 20
-2.338763779527559
 30
0.0
 10
0.2532755905511811
 20
-2.338763779527559
 30
0.0
 10
0.2532755905511811
 20
-2.343098425196851
 30
0.0
 10
0.2522204724409449
 20
-2.346984251968504
 30
0.0
 10
0.2501062992125984
 20
-2.35040157480315
 30
0.0
 10
0.2501062992125984
 20
-2.35040157480315
 30
0.0
 10
0.2479685039370079
 20
-2.353818897637795
 30
0.0
 10
0.2448307086614174
 20
-2.356874015748032
 30
0.0
 10
0.2406653543307087
 20
-2.359598425196851
 30
0.0
 10
0.2406653543307087
 20
-2.359598425196851
 30
0.0
 10
0.2377204724409449
 20
-2.361484251968504
 30
0.0
 10
0.2339133858267717
 20
-2.363153543307087
 30
0.0
 10
0.2291929133858268
 20
-2.364543307086614
 30
0.0
 10
0.2291929133858268
 20
-2.364543307086614
 30
0.0
 10
0.2342204724409449
 20
-2.365263779527559
 30
0.0
 10
0.2383582677165355
 20
-2.366429133858268
 30
0.0
 10
0.2415511811023622
 20
-2.368043307086615
 30
0.0
 10
0.2415511811023622
 20
-2.368043307086615
 30
0.0
 10
0.246748031496063
 20
-2.370708661417323
 30
0.0
 10
0.2508582677165355
 20
-2.374374015748032
 30
0.0
 10
0.2538307086614173
 20
-2.379043307086614
 30
0.0
 10
0.2538307086614173
 20
-2.379043307086614
 30
0.0
 10
0.2568307086614173
 20
-2.383708661417323
 30
0.0
 10
0.2583031496062992
 20
-2.388818897637795
 30
0.0
 10
0.2583031496062992
 20
-2.394429133858268
 30
0.0
 10
0.2583031496062992
 20
-2.394429133858268
 30
0.0
 10
0.2583031496062992
 20
-2.403374015748032
 30
0.0
 10
0.2543858267716536
 20
-2.411263779527559
 30
0.0
 10
0.2465236220472441
 20
-2.418070866141732
 30
0.0
 10
0.2465236220472441
 20
-2.418070866141732
 30
0.0
 10
0.2386377952755906
 20
-2.424874015748032
 30
0.0
 10
0.2284685039370079
 20
-2.428263779527559
 30
0.0
 10
0.215996062992126
 20
-2.428263779527559
 30
0.0
 10
0.215996062992126
 20
-2.428263779527559
 30
0.0
 10
0.2036929133858268
 20
-2.428263779527559
 30
0.0
 10
0.1933307086614173
 20
-2.424984251968504
 30
0.0
 10
0.1849133858267717
 20
-2.418429133858268
 30
0.0
 10
0.1849133858267717
 20
-2.418429133858268
 30
0.0
 10
0.1778582677165354
 20
-2.412846456692913
 30
0.0
 10
0.1743307086614173
 20
-2.407208661417323
 30
0.0
 10
0.1743307086614173
 20
-2.401570866141733
 30
0.0
 10
0.1743307086614173
 20
-2.401570866141733
 30
0.0
 10
0.1743307086614173
 20
-2.399346456692914
 30
0.0
 10
0.1750551181102362
 20
-2.397484251968504
 30
0.0
 10
0.176496062992126
 20
-2.396011811023622
 30
0.0
 10
0.176496062992126
 20
-2.396011811023622
 30
0.0
 10
0.1779133858267717
 20
-2.394511811023622
 30
0.0
 10
0.1797204724409449
 20
-2.393763779527559
 30
0.0
 10
0.1819133858267717
 20
-2.393763779527559
 30
0.0
 10
0.1819133858267717
 20
-2.393763779527559
 30
0.0
 10
0.1842755905511811
 20
-2.393763779527559
 30
0.0
 10
0.1863307086614173
 20
-2.394681102362205
 30
0.0
 10
0.187996062992126
 20
-2.396543307086614
 30
0.0
 10
0.187996062992126
 20
-2.396543307086614
 30
0.0
 10
0.1889133858267717
 20
-2.397570866141733
 30
0.0
 10
0.189996062992126
 20
-2.40003937007874
 30
0.0
 10
0.1911653543307087
 20
-2.403929133858268
 30
0.0
 10
0.1911653543307087
 20
-2.403929133858268
 30
0.0
 10
0.1928582677165354
 20
-2.409429133858268
 30
0.0
 10
0.1957204724409449
 20
-2.413598425196851
 30
0.0
 10
0.1997204724409449
 20
-2.416456692913386
 30
0.0
 10
0.1997204724409449
 20
-2.416456692913386
 30
0.0
 10
0.203748031496063
 20
-2.419346456692913
 30
0.0
 10
0.2087204724409449
 20
-2.420791338582677
 30
0.0
 10
0.2146929133858268
 20
-2.420791338582677
 30
0.0
 10
0.2146929133858268
 20
-2.420791338582677
 30
0.0
 10
0.2200236220472441
 20
-2.420791338582677
 30
0.0
 10
0.2247755905511811
 20
-2.419625984251969
 30
0.0
 10
0.2289685039370079
 20
-2.417291338582677
 30
0.0
 10
0.2289685039370079
 20
-2.417291338582677
 30
0.0
 10
0.2331929133858268
 20
-2.414956692913386
 30
0.0
 10
0.236496062992126
 20
-2.411653543307087
 30
0.0
 10
0.2389409448818898
 20
-2.407346456692914
 30
0.0
 10
0.2389409448818898
 20
-2.407346456692914
 30
0.0
 10
0.2413858267716535
 20
-2.403070866141732
 30
0.0
 10
0.2426102362204725
 20
-2.398374015748032
 30
0.0
 10
0.2426102362204725
 20
-2.393291338582677
 30
0.0
 10
0.2426102362204725
 20
-2.393291338582677
 30
0.0
 10
0.2426102362204725
 20
-2.389153543307087
 30
0.0
 10
0.2417204724409449
 20
-2.385456692913386
 30
0.0
 10
0.2399685039370079
 20
-2.382181102362205
 30
0.0
 10
0.2399685039370079
 20
-2.382181102362205
 30
0.0
 10
0.2381929133858268
 20
-2.378874015748032
 30
0.0
 10
0.2356929133858268
 20
-2.37609842519685
 30
0.0
 10
0.2324409448818898
 20
-2.373818897637795
 30
0.0
 10
0.2324409448818898
 20
-2.373818897637795
 30
0.0
 10
0.2299409448818898
 20
-2.372043307086615
 30
0.0
 10
0.226748031496063
 20
-2.370791338582677
 30
0.0
 10
0.2228858267716536
 20
-2.370098425196851
 30
0.0
 10
0.2228858267716536
 20
-2.370098425196851
 30
0.0
 10
0.218996062992126
 20
-2.369374015748031
 30
0.0
 10
0.215496062992126
 20
-2.369015748031496
 30
0.0
 10
0.2124133858267717
 20
-2.369015748031496
 30
0.0
 10
0.2124133858267717
 20
-2.369015748031496
 30
0.0
 10
0.2124133858267717
 20
-2.369015748031496
 30
0.0
 10
0.2048582677165355
 20
-2.369015748031496
 30
0.0
 10
0.2048582677165355
 20
-2.369015748031496
 30
0.0
 10
0.2048582677165355
 20
-2.369015748031496
 30
0.0
 10
0.2048582677165355
 20
-2.369015748031496
 30
0.0
 10
0.2048582677165355
 20
-2.361125984251969
 30
0.0
 10
0.2048582677165355
 20
-2.361125984251969
 30
0.0
 10
0.2048582677165355
 20
-2.361125984251969
 30
0.0
 10
0.2048582677165355
 20
-2.361125984251969
 30
0.0
 10
0.2096653543307087
 20
-2.361125984251969
 30
0.0
 10
0.2096653543307087
 20
-2.361125984251969
 30
0.0
 10
0.2096653543307087
 20
-2.361125984251969
 30
0.0
 10
0.2144133858267717
 20
-2.361125984251969
 30
0.0
 10
0.2189685039370079
 20
-2.360570866141732
 30
0.0
 10
0.2233307086614173
 20
-2.359456692913386
 30
0.0
 10
0.2233307086614173
 20
-2.359456692913386
 30
0.0
 10
0.2276653543307087
 20
-2.358346456692913
 30
0.0
 10
0.2311377952755906
 20
-2.356070866141732
 30
0.0
 10
0.233748031496063
 20
-2.352598425196851
 30
0.0
 10
0.233748031496063
 20
-2.352598425196851
 30
0.0
 10
0.2363307086614173
 20
-2.349125984251969
 30
0.0
 10
0.2376377952755906
 20
-2.345181102362205
 30
0.0
 10
0.2376377952755906
 20
-2.340791338582677
 30
0.0
 10
0.2376377952755906
 20
-2.340791338582677
 30
0.0
 10
0.2376377952755906
 20
-2.336988188976378
 30
0.0
 10
0.236748031496063
 20
-2.333570866141733
 30
0.0
 10
0.2349133858267717
 20
-2.330543307086614
 30
0.0
 10
0.2349133858267717
 20
-2.330543307086614
 30
0.0
 10
0.2331102362204724
 20
-2.327488188976378
 30
0.0
 10
0.2304409448818898
 20
-2.325070866141732
 30
0.0
 10
0.2269133858267717
 20
-2.323291338582677
 30
0.0
 10
0.2269133858267717
 20
-2.323291338582677
 30
0.0
 10
0.2233858267716536
 20
-2.321515748031496
 30
0.0
 10
0.2193031496062992
 20
-2.320598425196851
 30
0.0
 10
0.2146929133858268
 20
-2.320598425196851
 30
0.0
 10
0.2146929133858268
 20
-2.320598425196851
 30
0.0
 10
0.2101929133858268
 20
-2.320598425196851
 30
0.0
 10
0.2060511811023622
 20
-2.321543307086614
 30
0.0
 10
0.2022755905511811
 20
-2.323374015748032
 30
0.0
 10
0.2022755905511811
 20
-2.323374015748032
 30
0.0
 10
0.1985236220472441
 20
-2.325208661417323
 30
0.0
 10
0.195496062992126
 20
-2.327681102362205
 30
0.0
 10
0.1932204724409449
 20
-2.330791338582677
 30
0.0
 10
0.1932204724409449
 20
-2.330791338582677
 30
0.0
 10
0.1909409448818898
 20
-2.333874015748032
 30
0.0
 10
0.1893031496062992
 20
-2.337988188976378
 30
0.0
 10
0.1883307086614173
 20
-2.343153543307087
 30
0.0
  0
SPLINE
  5
8D
330
1F
100
AcDbEntity
  8
Layer 1
 62
   250
100
AcDbSpline
210
0.0
220
0.0
230
1.0
 70
    11
 71
     3
 72
    20
 73
    16
 74
     0
 42
0.0000000001
 43
0.0000000001
 40
0.0
 40
0.0
 40
0.0
 40
0.0
 40
0.25
 40
0.25
 40
0.25
 40
0.25
 40
0.5
 40
0.5
 40
0.5
 40
0.5
 40
0.75
 40
0.75
 40
0.75
 40
0.75
 40
1.0
 40
1.0
 40
1.0
 40
1.0
 10
0.3511102362204724
 20
-2.306929133858268
 30
0.0
 10
0.3511102362204724
 20
-2.306929133858268
 30
0.0
 10
0.2955275590551181
 20
-2.462625984251968
 30
0.0
 10
0.2955275590551181
 20
-2.462625984251968
 30
0.0
 10
0.2955275590551181
 20
-2.462625984251968
 30
0.0
 10
0.2955275590551181
 20
-2.462625984251968
 30
0.0
 10
0.2834724409448819
 20
-2.462625984251968
 30
0.0
 10
0.2834724409448819
 20
-2.462625984251968
 30
0.0
 10
0.2834724409448819
 20
-2.462625984251968
 30
0.0
 10
0.2834724409448819
 20
-2.462625984251968
 30
0.0
 10
0.3387204724409449
 20
-2.306929133858268
 30
0.0
 10
0.3387204724409449
 20
-2.306929133858268
 30
0.0
 10
0.3387204724409449
 20
-2.306929133858268
 30
0.0
 10
0.3387204724409449
 20
-2.306929133858268
 30
0.0
 10
0.3511102362204724
 20
-2.306929133858268
 30
0.0
 10
0.3511102362204724
 20
-2.306929133858268
 30
0.0
  0
SPLINE
  5
8E
330
1F
100
AcDbEntity
  8
Layer 1
 62
   250
100
AcDbSpline
210
0.0
220
0.0
230
1.0
 70
    11
 71
     3
 72
    48
 73
    44
 74
     0
 42
0.0000000001
 43
0.0000000001
 40
0.0
 40
0.0
 40
0.0
 40
0.0
 40
0.0909090909090909
 40
0.0909090909090909
 40
0.0909090909090909
 40
0.0909090909090909
 40
0.1818181818181818
 40
0.1818181818181818
 40
0.1818181818181818
 40
0.1818181818181818
 40
0.2727272727272727
 40
0.2727272727272727
 40
0.2727272727272727
 40
0.2727272727272727
 40
0.3636363636363637
 40
0.3636363636363637
 40
0.3636363636363637
 40
0.3636363636363637
 40
0.4545454545454546
 40
0.4545454545454546
 40
0.4545454545454546
 40
0.4545454545454546
 40
0.5454545454545455
 40
0.5454545454545455
 40
0.5454545454545455
 40
0.5454545454545455
 40
0.6363636363636365
 40
0.6363636363636365
 40
0.6363636363636365
 40
0.6363636363636365
 40
0.7272727272727274
 40
0.7272727272727274
 40
0.7272727272727274
 40
0.7272727272727274
 40
0.8181818181818183
 40
0.8181818181818183
 40
0.8181818181818183
 40
0.8181818181818183
 40
0.9090909090909093
 40
0.9090909090909093
 40
0.9090909090909093
 40
0.9090909090909093
 40
1.0
 40
1.0
 40
1.0
 40
1.0
 10
0.4300551181102362
 20
-2.312791338582677
 30
0.0
 10
0.4300551181102362
 20
-2.312791338582677
 30
0.0
 10
0.4438031496062992
 20
-2.312791338582677
 30
0.0
 10
0.4438031496062992
 20
-2.312791338582677
 30
0.0
 10
0.4438031496062992
 20
-2.312791338582677
 30
0.0
 10
0.4438031496062992
 20
-2.312791338582677
 30
0.0
 10
0.4438031496062992
 20
-2.378791338582677
 30
0.0
 10
0.4438031496062992
 20
-2.378791338582677
 30
0.0
 10
0.4438031496062992
 20
-2.378791338582677
 30
0.0
 10
0.4438031496062992
 20
-2.378791338582677
 30
0.0
 10
0.4651377952755906
 20
-2.378791338582677
 30
0.0
 10
0.4651377952755906
 20
-2.378791338582677
 30
0.0
 10
0.4651377952755906
 20
-2.378791338582677
 30
0.0
 10
0.4651377952755906
 20
-2.378791338582677
 30
0.0
 10
0.4651377952755906
 20
-2.388956692913386
 30
0.0
 10
0.4651377952755906
 20
-2.388956692913386
 30
0.0
 10
0.4651377952755906
 20
-2.388956692913386
 30
0.0
 10
0.4651377952755906
 20
-2.388956692913386
 30
0.0
 10
0.4438031496062992
 20
-2.388956692913386
 30
0.0
 10
0.4438031496062992
 20
-2.388956692913386
 30
0.0
 10
0.4438031496062992
 20
-2.388956692913386
 30
0.0
 10
0.4438031496062992
 20
-2.388956692913386
 30
0.0
 10
0.4438031496062992
 20
-2.426318897637795
 30
0.0
 10
0.4438031496062992
 20
-2.426318897637795
 30
0.0
 10
0.4438031496062992
 20
-2.426318897637795
 30
0.0
 10
0.4438031496062992
 20
-2.426318897637795
 30
0.0
 10
0.4300551181102362
 20
-2.426318897637795
 30
0.0
 10
0.4300551181102362
 20
-2.426318897637795
 30
0.0
 10
0.4300551181102362
 20
-2.426318897637795
 30
0.0
 10
0.4300551181102362
 20
-2.426318897637795
 30
0.0
 10
0.4300551181102362
 20
-2.388956692913386
 30
0.0
 10
0.4300551181102362
 20
-2.388956692913386
 30
0.0
 10
0.4300551181102362
 20
-2.388956692913386
 30
0.0
 10
0.4300551181102362
 20
-2.388956692913386
 30
0.0
 10
0.3765826771653543
 20
-2.388956692913386
 30
0.0
 10
0.3765826771653543
 20
-2.388956692913386
 30
0.0
 10
0.3765826771653543
 20
-2.388956692913386
 30
0.0
 10
0.3765826771653543
 20
-2.388956692913386
 30
0.0
 10
0.3765826771653543
 20
-2.374653543307087
 30
0.0
 10
0.3765826771653543
 20
-2.374653543307087
 30
0.0
 10
0.3765826771653543
 20
-2.374653543307087
 30
0.0
 10
0.3765826771653543
 20
-2.374653543307087
 30
0.0
 10
0.4300551181102362
 20
-2.312791338582677
 30
0.0
 10
0.4300551181102362
 20
-2.312791338582677
 30
0.0
  0
SPLINE
  5
8F
330
1F
100
AcDbEntity
  8
Layer 1
 62
   250
100
AcDbSpline
210
0.0
220
0.0
230
1.0
 70
    11
 71
     3
 72
    16
 73
    12
 74
     0
 42
0.0000000001
 43
0.0000000001
 40
0.0
 40
0.0
 40
0.0
 40
0.0
 40
0.3333333333333333
 40
0.3333333333333333
 40
0.3333333333333333
 40
0.3333333333333333
 40
0.6666666666666666
 40
0.6666666666666666
 40
0.6666666666666666
 40
0.6666666666666666
 40
1.0
 40
1.0
 40
1.0
 40
1.0
 10
0.4300551181102362
 20
-2.378791338582677
 30
0.0
 10
0.4300551181102362
 20
-2.378791338582677
 30
0.0
 10
0.4300551181102362
 20
-2.32540157480315
 30
0.0
 10
0.4300551181102362
 20
-2.32540157480315
 30
0.0
 10
0.4300551181102362
 20
-2.32540157480315
 30
0.0
 10
0.4300551181102362
 20
-2.32540157480315
 30
0.0
 10
0.384
 20
-2.378791338582677
 30
0.0
 10
0.384
 20
-2.378791338582677
 30
0.0
 10
0.384
 20
-2.378791338582677
 30
0.0
 10
0.384
 20
-2.378791338582677
 30
0.0
 10
0.4300551181102362
 20
-2.378791338582677
 30
0.0
 10
0.4300551181102362
 20
-2.378791338582677
 30
0.0
  0
SPLINE
  5
90
330
1F
100
AcDbEntity
  8
Layer 1
 62
   250
100
AcDbSpline
210
0.0
220
0.0
230
1.0
 70
    11
 71
     3
 72
    60
 73
    56
 74
     0
 42
0.0000000001
 43
0.0000000001
 40
0.0
 40
0.0
 40
0.0
 40
0.0
 40
0.0714285714285714
 40
0.0714285714285714
 40
0.0714285714285714
 40
0.0714285714285714
 40
0.1428571428571429
 40
0.1428571428571429
 40
0.1428571428571429
 40
0.1428571428571429
 40
0.2142857142857143
 40
0.2142857142857143
 40
0.2142857142857143
 40
0.2142857142857143
 40
0.2857142857142857
 40
0.2857142857142857
 40
0.2857142857142857
 40
0.2857142857142857
 40
0.3571428571428571
 40
0.3571428571428571
 40
0.3571428571428571
 40
0.3571428571428571
 40
0.4285714285714285
 40
0.4285714285714285
 40
0.4285714285714285
 40
0.4285714285714285
 40
0.4999999999999999
 40
0.4999999999999999
 40
0.4999999999999999
 40
0.4999999999999999
 40
0.5714285714285713
 40
0.5714285714285713
 40
0.5714285714285713
 40
0.5714285714285713
 40
0.6428571428571427
 40
0.6428571428571427
 40
0.6428571428571427
 40
0.6428571428571427
 40
0.7142857142857141
 40
0.7142857142857141
 40
0.7142857142857141
 40
0.7142857142857141
 40
0.7857142857142855
 40
0.7857142857142855
 40
0.7857142857142855
 40
0.7857142857142855
 40
0.8571428571428569
 40
0.8571428571428569
 40
0.8571428571428569
 40
0.8571428571428569
 40
0.9285714285714283
 40
0.9285714285714283
 40
0.9285714285714283
 40
0.9285714285714283
 40
1.0
 40
1.0
 40
1.0
 40
1.0
 10
0.4831102362204724
 20
-2.354874015748032
 30
0.0
 10
0.4831102362204724
 20
-2.354874015748032
 30
0.0
 10
0.4787204724409449
 20
-2.349484251968504
 30
0.0
 10
0.4787204724409449
 20
-2.349484251968504
 30
0.0
 10
0.4787204724409449
 20
-2.349484251968504
 30
0.0
 10
0.4898346456692914
 20
-2.340429133858268
 30
0.0
 10
0.4954173228346457
 20
-2.332874015748032
 30
0.0
 10
0.4954173228346457
 20
-2.326791338582677
 30
0.0
 10
0.4954173228346457
 20
-2.326791338582677
 30
0.0
 10
0.4954173228346457
 20
-2.326098425196851
 30
0.0
 10
0.4953622047244095
 20
-2.325208661417323
 30
0.0
 10
0.495248031496063
 20
-2.324181102362205
 30
0.0
 10
0.495248031496063
 20
-2.324181102362205
 30
0.0
 10
0.4943346456692914
 20
-2.324570866141733
 30
0.0
 10
0.4934173228346457
 20
-2.324874015748032
 30
0.0
 10
0.4925551181102362
 20
-2.325070866141732
 30
0.0
 10
0.4925551181102362
 20
-2.325070866141732
 30
0.0
 10
0.4916929133858268
 20
-2.325291338582677
 30
0.0
 10
0.4908897637795276
 20
-2.32540157480315
 30
0.0
 10
0.4901102362204725
 20
-2.32540157480315
 30
0.0
 10
0.4901102362204725
 20
-2.32540157480315
 30
0.0
 10
0.4875
 20
-2.32540157480315
 30
0.0
 10
0.4854173228346457
 20
-2.324570866141733
 30
0.0
 10
0.4838622047244095
 20
-2.322874015748031
 30
0.0
 10
0.4838622047244095
 20
-2.322874015748031
 30
0.0
 10
0.4822755905511811
 20
-2.321208661417323
 30
0.0
 10
0.4815
 20
-2.319070866141733
 30
0.0
 10
0.4815
 20
-2.316456692913386
 30
0.0
 10
0.4815
 20
-2.316456692913386
 30
0.0
 10
0.4815
 20
-2.31390157480315
 30
0.0
 10
0.4824448818897638
 20
-2.311681102362205
 30
0.0
 10
0.4843346456692914
 20
-2.309791338582677
 30
0.0
 10
0.4843346456692914
 20
-2.309791338582677
 30
0.0
 10
0.486248031496063
 20
-2.307874015748032
 30
0.0
 10
0.4885275590551181
 20
-2.306929133858268
 30
0.0
 10
0.4911653543307087
 20
-2.306929133858268
 30
0.0
 10
0.4911653543307087
 20
-2.306929133858268
 30
0.0
 10
0.4948622047244095
 20
-2.306929133858268
 30
0.0
 10
0.4980275590551181
 20
-2.30840157480315
 30
0.0
 10
0.5006653543307087
 20
-2.311374015748032
 30
0.0
 10
0.5006653543307087
 20
-2.311374015748032
 30
0.0
 10
0.5032755905511811
 20
-2.314318897637795
 30
0.0
 10
0.5046102362204724
 20
-2.318125984251969
 30
0.0
 10
0.5046102362204724
 20
-2.322791338582677
 30
0.0
 10
0.5046102362204724
 20
-2.322791338582677
 30
0.0
 10
0.5046102362204724
 20
-2.325846456692914
 30
0.0
 10
0.5039724409448819
 20
-2.329043307086614
 30
0.0
 10
0.5027204724409449
 20
-2.332374015748032
 30
0.0
 10
0.5027204724409449
 20
-2.332374015748032
 30
0.0
 10
0.5014724409448819
 20
-2.335708661417323
 30
0.0
 10
0.4996653543307087
 20
-2.338791338582677
 30
0.0
 10
0.4972755905511812
 20
-2.341653543307087
 30
0.0
 10
0.4972755905511812
 20
-2.341653543307087
 30
0.0
 10
0.4948897637795276
 20
-2.344484251968504
 30
0.0
 10
0.4901653543307087
 20
-2.34890157480315
 30
0.0
 10
0.4831102362204724
 20
-2.354874015748032
 30
0.0
  0
SPLINE
  5
91
330
1F
100
AcDbEntity
  8
Layer 1
 62
   250
100
AcDbSpline
210
0.0
220
0.0
230
1.0
 70
    11
 71
     3
 72
    60
 73
    56
 74
     0
 42
0.0000000001
 43
0.0000000001
 40
0.0
 40
0.0
 40
0.0
 40
0.0
 40
0.0714285714285714
 40
0.0714285714285714
 40
0.0714285714285714
 40
0.0714285714285714
 40
0.1428571428571429
 40
0.1428571428571429
 40
0.1428571428571429
 40
0.1428571428571429
 40
0.2142857142857143
 40
0.2142857142857143
 40
0.2142857142857143
 40
0.2142857142857143
 40
0.2857142857142857
 40
0.2857142857142857
 40
0.2857142857142857
 40
0.2857142857142857
 40
0.3571428571428571
 40
0.3571428571428571
 40
0.3571428571428571
 40
0.3571428571428571
 40
0.4285714285714285
 40
0.4285714285714285
 40
0.4285714285714285
 40
0.4285714285714285
 40
0.4999999999999999
 40
0.4999999999999999
 40
0.4999999999999999
 40
0.4999999999999999
 40
0.5714285714285713
 40
0.5714285714285713
 40
0.5714285714285713
 40
0.5714285714285713
 40
0.6428571428571427
 40
0.6428571428571427
 40
0.6428571428571427
 40
0.6428571428571427
 40
0.7142857142857141
 40
0.7142857142857141
 40
0.7142857142857141
 40
0.7142857142857141
 40
0.7857142857142855
 40
0.7857142857142855
 40
0.7857142857142855
 40
0.7857142857142855
 40
0.8571428571428569
 40
0.8571428571428569
 40
0.8571428571428569
 40
0.8571428571428569
 40
0.9285714285714283
 40
0.9285714285714283
 40
0.9285714285714283
 40
0.9285714285714283
 40
1.0
 40
1.0
 40
1.0
 40
1.0
 10
0.5121653543307086
 20
-2.354874015748032
 30
0.0
 10
0.5121653543307086
 20
-2.354874015748032
 30
0.0
 10
0.5077755905511812
 20
-2.349484251968504
 30
0.0
 10
0.5077755905511812
 20
-2.349484251968504
 30
0.0
 10
0.5077755905511812
 20
-2.349484251968504
 30
0.0
 10
0.5188897637795276
 20
-2.340429133858268
 30
0.0
 10
0.5244724409448819
 20
-2.332874015748032
 30
0.0
 10
0.5244724409448819
 20
-2.326791338582677
 30
0.0
 10
0.5244724409448819
 20
-2.326791338582677
 30
0.0
 10
0.5244724409448819
 20
-2.326098425196851
 30
0.0
 10
0.5244173228346457
 20
-2.325208661417323
 30
0.0
 10
0.5243031496062992
 20
-2.324181102362205
 30
0.0
 10
0.5243031496062992
 20
-2.324181102362205
 30
0.0
 10
0.5233897637795276
 20
-2.324570866141733
 30
0.0
 10
0.5224724409448819
 20
-2.324874015748032
 30
0.0
 10
0.5216102362204724
 20
-2.325070866141732
 30
0.0
 10
0.5216102362204724
 20
-2.325070866141732
 30
0.0
 10
0.520748031496063
 20
-2.325291338582677
 30
0.0
 10
0.5199173228346457
 20
-2.32540157480315
 30
0.0
 10
0.5190826771653544
 20
-2.32540157480315
 30
0.0
 10
0.5190826771653544
 20
-2.32540157480315
 30
0.0
 10
0.5165275590551182
 20
-2.32540157480315
 30
0.0
 10
0.5144724409448819
 20
-2.324570866141733
 30
0.0
 10
0.5129173228346456
 20
-2.322874015748031
 30
0.0
 10
0.5129173228346456
 20
-2.322874015748031
 30
0.0
 10
0.5113346456692913
 20
-2.321208661417323
 30
0.0
 10
0.5105551181102362
 20
-2.319070866141733
 30
0.0
 10
0.5105551181102362
 20
-2.316456692913386
 30
0.0
 10
0.5105551181102362
 20
-2.316456692913386
 30
0.0
 10
0.5105551181102362
 20
-2.31390157480315
 30
0.0
 10
0.5115000000000001
 20
-2.311681102362205
 30
0.0
 10
0.5133897637795276
 20
-2.309791338582677
 30
0.0
 10
0.5133897637795276
 20
-2.309791338582677
 30
0.0
 10
0.5152755905511811
 20
-2.307874015748032
 30
0.0
 10
0.5175826771653543
 20
-2.306929133858268
 30
0.0
 10
0.5202204724409449
 20
-2.306929133858268
 30
0.0
 10
0.5202204724409449
 20
-2.306929133858268
 30
0.0
 10
0.5239173228346457
 20
-2.306929133858268
 30
0.0
 10
0.5270826771653544
 20
-2.30840157480315
 30
0.0
 10
0.5297204724409449
 20
-2.311374015748032
 30
0.0
 10
0.5297204724409449
 20
-2.311374015748032
 30
0.0
 10
0.5323307086614173
 20
-2.314318897637795
 30
0.0
 10
0.5336653543307087
 20
-2.318125984251969
 30
0.0
 10
0.5336653543307087
 20
-2.322791338582677
 30
0.0
 10
0.5336653543307087
 20
-2.322791338582677
 30
0.0
 10
0.5336653543307087
 20
-2.325846456692914
 30
0.0
 10
0.5330275590551181
 20
-2.329043307086614
 30
0.0
 10
0.5317755905511812
 20
-2.332374015748032
 30
0.0
 10
0.5317755905511812
 20
-2.332374015748032
 30
0.0
 10
0.5305275590551182
 20
-2.335708661417323
 30
0.0
 10
0.5287204724409449
 20
-2.338791338582677
 30
0.0
 10
0.5263346456692913
 20
-2.341653543307087
 30
0.0
 10
0.5263346456692913
 20
-2.341653543307087
 30
0.0
 10
0.5239448818897639
 20
-2.344484251968504
 30
0.0
 10
0.5192204724409449
 20
-2.34890157480315
 30
0.0
 10
0.5121653543307086
 20
-2.354874015748032
 30
0.0
  0
ENDSEC
  0
SECTION
  2
OBJECTS
  0
DICTIONARY
  5
C
330
0
100
AcDbDictionary
281
     1
  3
ACAD_GROUP
350
D
  3
ACAD_LAYOUT
350
1A
  3
ACAD_MLINESTYLE
350
17
  3
ACAD_PLOTSETTINGS
350
19
  3
ACAD_PLOTSTYLENAME
350
E
  0
DICTIONARY
  5
D
102
{ACAD_REACTORS
330
C
102
}
330
C
100
AcDbDictionary
281
     1
  0
DICTIONARY
  5
1A
102
{ACAD_REACTORS
330
C
102
}
330
C
100
AcDbDictionary
281
     1
  3
Layout1
350
1E
  3
Layout2
350
26
  3
Model
350
22
  0
DICTIONARY
  5
17
102
{ACAD_REACTORS
330
C
102
}
330
C
100
AcDbDictionary
281
     1
  3
Standard
350
18
  0
DICTIONARY
  5
19
102
{ACAD_REACTORS
330
C
102
}
330
C
100
AcDbDictionary
281
     1
  0
ACDBDICTIONARYWDFLT
  5
E
102
{ACAD_REACTORS
330
C
102
}
330
C
100
AcDbDictionary
281
     1
  3
Normal
350
F
100
AcDbDictionaryWithDefault
340
F
  0
LAYOUT
  5
1E
102
{ACAD_REACTORS
330
1A
102
}
330
1A
100
AcDbPlotSettings
  1

  2

  4

  6

 40
0.0
 41
0.0
 42
0.0
 43
0.0
 44
0.0
 45
0.0
 46
0.0
 47
0.0
 48
0.0
 49
0.0
140
0.0
141
0.0
142
1.0
143
1.0
 70
   688
 72
     0
 73
     0
 74
     5
  7

 75
    16
 76
     0
 77
     2
 78
   300
147
1.0
148
0.0
149
0.0
100
AcDbLayout
  1
Layout1
 70
     1
 71
     1
 10
0.0
 20
0.0
 11
12.0
 21
9.0
 12
0.0
 22
0.0
 32
0.0
 14
1.000000000000000E+20
 24
1.000000000000000E+20
 34
1.000000000000000E+20
 15
-1.000000000000000E+20
 25
-1.000000000000000E+20
 35
-1.000000000000000E+20
146
0.0
 13
0.0
 23
0.0
 33
0.0
 16
1.0
 26
0.0
 36
0.0
 17
0.0
 27
1.0
 37
0.0
 76
     0
330
1B
  0
LAYOUT
  5
26
102
{ACAD_REACTORS
330
1A
102
}
330
1A
100
AcDbPlotSettings
  1

  2

  4

  6

 40
0.0
 41
0.0
 42
0.0
 43
0.0
 44
0.0
 45
0.0
 46
0.0
 47
0.0
 48
0.0
 49
0.0
140
0.0
141
0.0
142
1.0
143
1.0
 70
   688
 72
     0
 73
     0
 74
     5
  7

 75
    16
 76
     0
 77
     2
 78
   300
147
1.0
148
0.0
149
0.0
100
AcDbLayout
  1
Layout2
 70
     1
 71
     2
 10
0.0
 20
0.0
 11
0.0
 21
0.0
 12
0.0
 22
0.0
 32
0.0
 14
0.0
 24
0.0
 34
0.0
 15
0.0
 25
0.0
 35
0.0
146
0.0
 13
0.0
 23
0.0
 33
0.0
 16
1.0
 26
0.0
 36
0.0
 17
0.0
 27
1.0
 37
0.0
 76
     0
330
23
  0
LAYOUT
  5
22
102
{ACAD_REACTORS
330
1A
102
}
330
1A
100
AcDbPlotSettings
  1

  2

  4

  6

 40
0.0
 41
0.0
 42
0.0
 43
0.0
 44
0.0
 45
0.0
 46
0.0
 47
0.0
 48
0.0
 49
0.0
140
0.0
141
0.0
142
1.0
143
1.0
 70
  1712
 72
     0
 73
     0
 74
     0
  7

 75
     0
 76
     0
 77
     2
 78
   300
147
1.0
148
0.0
149
0.0
100
AcDbLayout
  1
Model
 70
     1
 71
     0
 10
0.0
 20
0.0
 11
0.0
 21
0.0
 12
0.0
 22
0.0
 32
0.0
 14
-2.091122047244094
 24
-2.462625984251968
 34
0.0
 15
2.251118110236221
 25
4.116846456692914
 35
0.0
146
0.0
 13
0.0
 23
0.0
 33
0.0
 16
1.0
 26
0.0
 36
0.0
 17
0.0
 27
1.0
 37
0.0
 76
     0
330
1F
  0
MLINESTYLE
  5
18
102
{ACAD_REACTORS
330
17
102
}
330
17
100
AcDbMlineStyle
  2
Standard
 70
     0
  3

 62
   256
 51
90.0
 52
90.0
 71
     2
 49
0.5
 62
   256
  6
BYLAYER
 49
-0.5
 62
   256
  6
BYLAYER
  0
ACDBPLACEHOLDER
  5
F
102
{ACAD_REACTORS
330
E
102
}
330
E
  0
ENDSEC
  0
EOF
