  0
SECTION
  2
HEADER
  9
$ACADVER
  1
AC1018
  9
$ACADMAINTVER
 70
     0
  9
$DWGCODEPAGE
  3
ANSI_1252
  9
$INSBASE
 10
0.0
 20
0.0
 30
0.0
  9
$EXTMIN
 10
-2.173551181102362
 20
-0.6616692913385827
 30
0.0
  9
$EXTMAX
 10
1.964472440944882
 20
3.731968503937008
 30
0.0
  9
$LIMMIN
 10
0.0
 20
0.0
  9
$LIMMAX
 10
12.0
 20
9.0
  9
$ORTHOMODE
 70
     0
  9
$REGENMODE
 70
     1
  9
$FILLMODE
 70
     1
  9
$QTEXTMODE
 70
     0
  9
$MIRRTEXT
 70
     1
  9
$LTSCALE
 40
1.0
  9
$ATTMODE
 70
     1
  9
$TEXTSIZE
 40
0.2
  9
$TRACEWID
 40
0.05
  9
$TEXTSTYLE
  7
Standard
  9
$CLAYER
  8
0
  9
$CELTYPE
  6
ByLayer
  9
$CECOLOR
 62
   256
  9
$CELTSCALE
 40
1.0
  9
$DISPSILH
 70
     0
  9
$DIMSCALE
 40
1.0
  9
$DIMASZ
 40
0.18
  9
$DIMEXO
 40
0.0625
  9
$DIMDLI
 40
0.38
  9
$DIMRND
 40
0.0
  9
$DIMDLE
 40
0.0
  9
$DIMEXE
 40
0.18
  9
$DIMTP
 40
0.0
  9
$DIMTM
 40
0.0
  9
$DIMTXT
 40
0.18
  9
$DIMCEN
 40
0.09
  9
$DIMTSZ
 40
0.0
  9
$DIMTOL
 70
     0
  9
$DIMLIM
 70
     0
  9
$DIMTIH
 70
     1
  9
$DIMTOH
 70
     1
  9
$DIMSE1
 70
     0
  9
$DIMSE2
 70
     0
  9
$DIMTAD
 70
     0
  9
$DIMZIN
 70
     0
  9
$DIMBLK
  1

  9
$DIMASO
 70
     1
  9
$DIMSHO
 70
     1
  9
$DIMPOST
  1

  9
$DIMAPOST
  1

  9
$DIMALT
 70
     0
  9
$DIMALTD
 70
     2
  9
$DIMALTF
 40
25.4
  9
$DIMLFAC
 40
1.0
  9
$DIMTOFL
 70
     0
  9
$DIMTVP
 40
0.0
  9
$DIMTIX
 70
     0
  9
$DIMSOXD
 70
     0
  9
$DIMSAH
 70
     0
  9
$DIMBLK1
  1

  9
$DIMBLK2
  1

  9
$DIMSTYLE
  2
Standard
  9
$DIMCLRD
 70
     0
  9
$DIMCLRE
 70
     0
  9
$DIMCLRT
 70
     0
  9
$DIMTFAC
 40
1.0
  9
$DIMGAP
 40
0.09
  9
$DIMJUST
 70
     0
  9
$DIMSD1
 70
     0
  9
$DIMSD2
 70
     0
  9
$DIMTOLJ
 70
     1
  9
$DIMTZIN
 70
     0
  9
$DIMALTZ
 70
     0
  9
$DIMALTTZ
 70
     0
  9
$DIMUPT
 70
     0
  9
$DIMDEC
 70
     4
  9
$DIMTDEC
 70
     4
  9
$DIMALTU
 70
     2
  9
$DIMALTTD
 70
     2
  9
$DIMTXSTY
  7
Standard
  9
$DIMAUNIT
 70
     0
  9
$DIMADEC
 70
     0
  9
$DIMALTRND
 40
0.0
  9
$DIMAZIN
 70
     0
  9
$DIMDSEP
 70
    46
  9
$DIMATFIT
 70
     3
  9
$DIMFRAC
 70
     0
  9
$DIMLDRBLK
  1

  9
$DIMLUNIT
 70
     2
  9
$DIMLWD
 70
    -2
  9
$DIMLWE
 70
    -2
  9
$DIMTMOVE
 70
     0
  9
$LUNITS
 70
     2
  9
$LUPREC
 70
     4
  9
$SKETCHINC
 40
0.1
  9
$FILLETRAD
 40
0.5
  9
$AUNITS
 70
     0
  9
$AUPREC
 70
     0
  9
$MENU
  1
.
  9
$ELEVATION
 40
0.0
  9
$PELEVATION
 40
0.0
  9
$THICKNESS
 40
0.0
  9
$LIMCHECK
 70
     0
  9
$CHAMFERA
 40
0.5
  9
$CHAMFERB
 40
0.5
  9
$CHAMFERC
 40
1.0
  9
$CHAMFERD
 40
0.0
  9
$SKPOLY
 70
     0
  9
$TDCREATE
 40
2453769.643150671
  9
$TDUCREATE
 40
2453769.851484004
  9
$TDUPDATE
 40
2453769.643150683
  9
$TDUUPDATE
 40
2453769.851484016
  9
$TDINDWG
 40
0.0000000116
  9
$TDUSRTIMER
 40
0.0000000116
  9
$USRTIMER
 70
     1
  9
$ANGBASE
 50
0.0
  9
$ANGDIR
 70
     0
  9
$PDMODE
 70
     0
  9
$PDSIZE
 40
0.0
  9
$PLINEWID
 40
0.0
  9
$SPLFRAME
 70
     0
  9
$SPLINETYPE
 70
     6
  9
$SPLINESEGS
 70
     8
  9
$HANDSEED
  5
88
  9
$SURFTAB1
 70
     6
  9
$SURFTAB2
 70
     6
  9
$SURFTYPE
 70
     6
  9
$SURFU
 70
     6
  9
$SURFV
 70
     6
  9
$UCSBASE
  2

  9
$UCSNAME
  2

  9
$UCSORG
 10
0.0
 20
0.0
 30
0.0
  9
$UCSXDIR
 10
1.0
 20
0.0
 30
0.0
  9
$UCSYDIR
 10
0.0
 20
1.0
 30
0.0
  9
$UCSORTHOREF
  2

  9
$UCSORTHOVIEW
 70
     0
  9
$UCSORGTOP
 10
0.0
 20
0.0
 30
0.0
  9
$UCSORGBOTTOM
 10
0.0
 20
0.0
 30
0.0
  9
$UCSORGLEFT
 10
0.0
 20
0.0
 30
0.0
  9
$UCSORGRIGHT
 10
0.0
 20
0.0
 30
0.0
  9
$UCSORGFRONT
 10
0.0
 20
0.0
 30
0.0
  9
$UCSORGBACK
 10
0.0
 20
0.0
 30
0.0
  9
$PUCSBASE
  2

  9
$PUCSNAME
  2

  9
$PUCSORG
 10
0.0
 20
0.0
 30
0.0
  9
$PUCSXDIR
 10
1.0
 20
0.0
 30
0.0
  9
$PUCSYDIR
 10
0.0
 20
1.0
 30
0.0
  9
$PUCSORTHOREF
  2

  9
$PUCSORTHOVIEW
 70
     0
  9
$PUCSORGTOP
 10
0.0
 20
0.0
 30
0.0
  9
$PUCSORGBOTTOM
 10
0.0
 20
0.0
 30
0.0
  9
$PUCSORGLEFT
 10
0.0
 20
0.0
 30
0.0
  9
$PUCSORGRIGHT
 10
0.0
 20
0.0
 30
0.0
  9
$PUCSORGFRONT
 10
0.0
 20
0.0
 30
0.0
  9
$PUCSORGBACK
 10
0.0
 20
0.0
 30
0.0
  9
$USERI1
 70
     0
  9
$USERI2
 70
     0
  9
$USERI3
 70
     0
  9
$USERI4
 70
     0
  9
$USERI5
 70
     0
  9
$USERR1
 40
0.0
  9
$USERR2
 40
0.0
  9
$USERR3
 40
0.0
  9
$USERR4
 40
0.0
  9
$USERR5
 40
0.0
  9
$WORLDVIEW
 70
     1
  9
$SHADEDGE
 70
     3
  9
$SHADEDIF
 70
    70
  9
$TILEMODE
 70
     1
  9
$MAXACTVP
 70
    64
  9
$PINSBASE
 10
0.0
 20
0.0
 30
0.0
  9
$PLIMCHECK
 70
     0
  9
$PEXTMIN
 10
1.000000000000000E+20
 20
1.000000000000000E+20
 30
1.000000000000000E+20
  9
$PEXTMAX
 10
-1.000000000000000E+20
 20
-1.000000000000000E+20
 30
-1.000000000000000E+20
  9
$PLIMMIN
 10
0.0
 20
0.0
  9
$PLIMMAX
 10
12.0
 20
9.0
  9
$UNITMODE
 70
     0
  9
$VISRETAIN
 70
     1
  9
$PLINEGEN
 70
     0
  9
$PSLTSCALE
 70
     1
  9
$TREEDEPTH
 70
  3020
  9
$CMLSTYLE
  2
Standard
  9
$CMLJUST
 70
     0
  9
$CMLSCALE
 40
1.0
  9
$PROXYGRAPHICS
 70
     1
  9
$MEASUREMENT
 70
     0
  9
$CELWEIGHT
370
    -1
  9
$ENDCAPS
280
     0
  9
$JOINSTYLE
280
     0
  9
$LWDISPLAY
290
     0
  9
$INSUNITS
 70
     1
  9
$HYPERLINKBASE
  1

  9
$STYLESHEET
  1

  9
$XEDIT
290
     1
  9
$CEPSNTYPE
380
     0
  9
$PSTYLEMODE
290
     0
  9
$FINGERPRINTGUID
  2
{FAEB1C30-E019-11D5-929B-00C0DF256EC4}
  9
$VERSIONGUID
  2
{FAEB1C32-E019-11D5-929B-00C0DF256EC4}
  9
$EXTNAMES
290
     1
  9
$PSVPSCALE
 40
0.0
  9
$OLESTARTUP
290
     0
  9
$SORTENTS
280
   127
  9
$INDEXCTL
280
     0
  9
$HIDETEXT
280
     1
  9
$XCLIPFRAME
290
     0
  9
$HALOGAP
280
     0
  9
$OBSCOLOR
 70
   257
  9
$OBSLTYPE
280
     0
  9
$INTERSECTIONDISPLAY
280
     0
  9
$INTERSECTIONCOLOR
 70
   257
  9
$DIMASSOC
280
     2
  9
$PROJECTNAME
  1

  0
ENDSEC
  0
SECTION
  2
CLASSES
  0
CLASS
  1
ACDBDICTIONARYWDFLT
  2
AcDbDictionaryWithDefault
  3
ObjectDBX Classes
 90
        0
 91
        1
280
     0
281
     0
  0
ENDSEC
  0
SECTION
  2
TABLES
  0
TABLE
  2
VPORT
  5
8
330
0
100
AcDbSymbolTable
 70
     2
  0
VPORT
  5
29
330
8
100
AcDbSymbolTableRecord
100
AcDbViewportTableRecord
  2
*Active
 70
     0
 10
0.0
 20
0.0
 11
1.0
 21
1.0
 12
10.42990654205607
 22
4.5
 13
0.0
 23
0.0
 14
0.5
 24
0.5
 15
0.5
 25
0.5
 16
0.0
 26
0.0
 36
1.0
 17
0.0
 27
0.0
 37
0.0
 40
9.0
 41
1.972972972850329
 42
50.0
 43
0.0
 44
0.0
 50
0.0
 51
0.0
 71
     0
 72
   100
 73
     1
 74
     3
 75
     0
 76
     0
 77
     0
 78
     0
281
     0
 65
     1
110
0.0
120
0.0
130
0.0
111
1.0
121
0.0
131
0.0
112
0.0
122
1.0
132
0.0
 79
     0
146
0.0
  0
ENDTAB
  0
TABLE
  2
LTYPE
  5
5
330
0
100
AcDbSymbolTable
 70
     1
  0
LTYPE
  5
14
330
5
100
AcDbSymbolTableRecord
100
AcDbLinetypeTableRecord
  2
ByBlock
 70
     0
  3

 72
    65
 73
     0
 40
0.0
  0
LTYPE
  5
15
330
5
100
AcDbSymbolTableRecord
100
AcDbLinetypeTableRecord
  2
ByLayer
 70
     0
  3

 72
    65
 73
     0
 40
0.0
  0
LTYPE
  5
16
330
5
100
AcDbSymbolTableRecord
100
AcDbLinetypeTableRecord
  2
Continuous
 70
     0
  3
Solid line
 72
    65
 73
     0
 40
0.0
  0
ENDTAB
  0
TABLE
  2
LAYER
  5
2
330
0
100
AcDbSymbolTable
 70
     2
  0
LAYER
  5
10
330
2
100
AcDbSymbolTableRecord
100
AcDbLayerTableRecord
  2
0
 70
     0
 62
     7
  6
Continuous
370
    -3
390
F
  0
LAYER
  5
2B
330
2
100
AcDbSymbolTableRecord
100
AcDbLayerTableRecord
  2
Layer 1
 70
     0
 62
     7
  6
Continuous
370
    -3
390
F
  0
ENDTAB
  0
TABLE
  2
STYLE
  5
3
330
0
100
AcDbSymbolTable
 70
     1
  0
STYLE
  5
11
330
3
100
AcDbSymbolTableRecord
100
AcDbTextStyleTableRecord
  2
Standard
 70
     0
 40
0.0
 41
1.0
 50
0.0
 71
     0
 42
0.2
  3
txt
  4

  0
ENDTAB
  0
TABLE
  2
VIEW
  5
6
330
0
100
AcDbSymbolTable
 70
     0
  0
ENDTAB
  0
TABLE
  2
UCS
  5
7
330
0
100
AcDbSymbolTable
 70
     0
  0
ENDTAB
  0
TABLE
  2
APPID
  5
9
330
0
100
AcDbSymbolTable
 70
     2
  0
APPID
  5
12
330
9
100
AcDbSymbolTableRecord
100
AcDbRegAppTableRecord
  2
ACAD
 70
     0
  0
APPID
  5
2A
330
9
100
AcDbSymbolTableRecord
100
AcDbRegAppTableRecord
  2
ODA
 70
     0
  0
ENDTAB
  0
TABLE
  2
DIMSTYLE
  5
A
330
0
100
AcDbSymbolTable
 70
     1
100
AcDbDimStyleTable
  0
DIMSTYLE
105
27
330
A
100
AcDbSymbolTableRecord
100
AcDbDimStyleTableRecord
  2
Standard
 70
     0
340
11
  0
ENDTAB
  0
TABLE
  2
BLOCK_RECORD
  5
1
330
0
100
AcDbSymbolTable
 70
     1
  0
BLOCK_RECORD
  5
1F
330
1
100
AcDbSymbolTableRecord
100
AcDbBlockTableRecord
  2
*Model_Space
340
22
  0
BLOCK_RECORD
  5
1B
330
1
100
AcDbSymbolTableRecord
100
AcDbBlockTableRecord
  2
*Paper_Space
340
1E
  0
BLOCK_RECORD
  5
23
330
1
100
AcDbSymbolTableRecord
100
AcDbBlockTableRecord
  2
*Paper_Space0
340
26
  0
ENDTAB
  0
ENDSEC
  0
SECTION
  2
BLOCKS
  0
BLOCK
  5
20
330
1F
100
AcDbEntity
  8
0
100
AcDbBlockBegin
  2
*Model_Space
 70
     0
 71
     0
 10
0.0
 20
0.0
 30
0.0
  3
*Model_Space
  1

  0
ENDBLK
  5
21
330
1F
100
AcDbEntity
  8
0
100
AcDbBlockEnd
  0
BLOCK
  5
1C
330
1B
100
AcDbEntity
 67
     1
  8
0
100
AcDbBlockBegin
  2
*Paper_Space
 70
     0
 71
     0
 10
0.0
 20
0.0
 30
0.0
  3
*Paper_Space
  1

  0
ENDBLK
  5
1D
330
1B
100
AcDbEntity
 67
     1
  8
0
100
AcDbBlockEnd
  0
BLOCK
  5
24
330
23
100
AcDbEntity
  8
0
100
AcDbBlockBegin
  2
*Paper_Space0
 70
     0
 71
     0
 10
0.0
 20
0.0
 30
0.0
  3
*Paper_Space0
  1

  0
ENDBLK
  5
25
330
23
100
AcDbEntity
  8
0
100
AcDbBlockEnd
  0
ENDSEC
  0
SECTION
  2
ENTITIES
  0
SPLINE
  5
2C
330
1F
100
AcDbEntity
  8
Layer 1
 62
   250
370
    40
100
AcDbSpline
210
0.0
220
0.0
230
1.0
 70
    11
 71
     3
 72
    28
 73
    24
 74
     0
 42
0.0000000001
 43
0.0000000001
 40
0.0
 40
0.0
 40
0.0
 40
0.0
 40
0.1666666666666667
 40
0.1666666666666667
 40
0.1666666666666667
 40
0.1666666666666667
 40
0.3333333333333333
 40
0.3333333333333333
 40
0.3333333333333333
 40
0.3333333333333333
 40
0.5
 40
0.5
 40
0.5
 40
0.5
 40
0.6666666666666666
 40
0.6666666666666666
 40
0.6666666666666666
 40
0.6666666666666666
 40
0.8333333333333333
 40
0.8333333333333333
 40
0.8333333333333333
 40
0.8333333333333333
 40
1.0
 40
1.0
 40
1.0
 40
1.0
 10
1.333366141732284
 20
3.349704724409449
 30
0.0
 10
1.333366141732284
 20
3.556952755905512
 30
0.0
 10
1.165295275590551
 20
3.725023622047244
 30
0.0
 10
0.9580472440944883
 20
3.725023622047244
 30
0.0
 10
0.9580472440944883
 20
3.725023622047244
 30
0.0
 10
0.7508031496062992
 20
3.725023622047244
 30
0.0
 10
0.582732283464567
 20
3.556952755905512
 30
0.0
 10
0.582732283464567
 20
3.349704724409449
 30
0.0
 10
0.582732283464567
 20
3.349704724409449
 30
0.0
 10
0.582732283464567
 20
3.349704724409449
 30
0.0
 10
-2.166633858267717
 20
3.349704724409449
 30
0.0
 10
-2.166633858267717
 20
3.349704724409449
 30
0.0
 10
-2.166633858267717
 20
3.349704724409449
 30
0.0
 10
-2.166633858267717
 20
3.349704724409449
 30
0.0
 10
-2.166633858267717
 20
2.72144094488189
 30
0.0
 10
-2.166633858267717
 20
2.72144094488189
 30
0.0
 10
-2.166633858267717
 20
2.72144094488189
 30
0.0
 10
-2.166633858267717
 20
2.72144094488189
 30
0.0
 10
1.333366141732284
 20
2.722570866141732
 30
0.0
 10
1.333366141732284
 20
2.722570866141732
 30
0.0
 10
1.333366141732284
 20
2.722570866141732
 30
0.0
 10
1.333366141732284
 20
2.722570866141732
 30
0.0
 10
1.333366141732284
 20
3.349704724409449
 30
0.0
 10
1.333366141732284
 20
3.349704724409449
 30
0.0
  0
SPLINE
  5
2D
330
1F
100
AcDbEntity
  8
Layer 1
 62
   250
100
AcDbSpline
210
0.0
220
0.0
230
1.0
 70
    11
 71
     3
 72
   104
 73
   100
 74
     0
 42
0.0000000001
 43
0.0000000001
 40
0.0
 40
0.0
 40
0.0
 40
0.0
 40
0.04
 40
0.04
 40
0.04
 40
0.04
 40
0.08
 40
0.08
 40
0.08
 40
0.08
 40
0.12
 40
0.12
 40
0.12
 40
0.12
 40
0.16
 40
0.16
 40
0.16
 40
0.16
 40
0.2
 40
0.2
 40
0.2
 40
0.2
 40
0.24
 40
0.24
 40
0.24
 40
0.24
 40
0.28
 40
0.28
 40
0.28
 40
0.28
 40
0.32
 40
0.32
 40
0.32
 40
0.32
 40
0.36
 40
0.36
 40
0.36
 40
0.36
 40
0.4
 40
0.4
 40
0.4
 40
0.4
 40
0.44
 40
0.44
 40
0.44
 40
0.44
 40
0.4799999999999999
 40
0.4799999999999999
 40
0.4799999999999999
 40
0.4799999999999999
 40
0.5199999999999999
 40
0.5199999999999999
 40
0.5199999999999999
 40
0.5199999999999999
 40
0.5599999999999999
 40
0.5599999999999999
 40
0.5599999999999999
 40
0.5599999999999999
 40
0.6
 40
0.6
 40
0.6
 40
0.6
 40
0.64
 40
0.64
 40
0.64
 40
0.64
 40
0.6800000000000001
 40
0.6800000000000001
 40
0.6800000000000001
 40
0.6800000000000001
 40
0.7200000000000001
 40
0.7200000000000001
 40
0.7200000000000001
 40
0.7200000000000001
 40
0.7600000000000001
 40
0.7600000000000001
 40
0.7600000000000001
 40
0.7600000000000001
 40
0.8000000000000002
 40
0.8000000000000002
 40
0.8000000000000002
 40
0.8000000000000002
 40
0.8400000000000002
 40
0.8400000000000002
 40
0.8400000000000002
 40
0.8400000000000002
 40
0.8800000000000002
 40
0.8800000000000002
 40
0.8800000000000002
 40
0.8800000000000002
 40
0.9200000000000003
 40
0.9200000000000003
 40
0.9200000000000003
 40
0.9200000000000003
 40
0.9600000000000003
 40
0.9600000000000003
 40
0.9600000000000003
 40
0.9600000000000003
 40
1.0
 40
1.0
 40
1.0
 40
1.0
 10
-0.8158897637795276
 20
2.475976377952756
 30
0.0
 10
-0.8158897637795276
 20
2.475976377952756
 30
0.0
 10
-0.7619173228346458
 20
2.475976377952756
 30
0.0
 10
-0.7619173228346458
 20
2.475976377952756
 30
0.0
 10
-0.7619173228346458
 20
2.475976377952756
 30
0.0
 10
-0.7487480314960631
 20
2.475976377952756
 30
0.0
 10
-0.739720472440945
 20
2.475366141732283
 30
0.0
 10
-0.7348346456692914
 20
2.474169291338583
 30
0.0
 10
-0.7348346456692914
 20
2.474169291338583
 30
0.0
 10
-0.7276102362204725
 20
2.472448818897638
 30
0.0
 10
-0.7219173228346457
 20
2.469311023622047
 30
0.0
 10
-0.7176929133858268
 20
2.464751968503937
 30
0.0
 10
-0.7176929133858268
 20
2.464751968503937
 30
0.0
 10
-0.7135
 20
2.460196850393701
 30
0.0
 10
-0.7113897637795276
 20
2.454696850393701
 30
0.0
 10
-0.7113897637795276
 20
2.448311023622047
 30
0.0
 10
-0.7113897637795276
 20
2.448311023622047
 30
0.0
 10
-0.7113897637795276
 20
2.443696850393701
 30
0.0
 10
-0.7125
 20
2.43955905511811
 30
0.0
 10
-0.7147204724409449
 20
2.435893700787402
 30
0.0
 10
-0.7147204724409449
 20
2.435893700787402
 30
0.0
 10
-0.7169448818897638
 20
2.432224409448819
 30
0.0
 10
-0.7201929133858268
 20
2.429086614173229
 30
0.0
 10
-0.7244173228346457
 20
2.426503937007874
 30
0.0
 10
-0.7244173228346457
 20
2.426503937007874
 30
0.0
 10
-0.7271377952755905
 20
2.424811023622048
 30
0.0
 10
-0.7308070866141733
 20
2.423366141732283
 30
0.0
 10
-0.735472440944882
 20
2.422169291338583
 30
0.0
 10
-0.735472440944882
 20
2.422169291338583
 30
0.0
 10
-0.7295551181102362
 20
2.421086614173229
 30
0.0
 10
-0.7250551181102363
 20
2.419783464566929
 30
0.0
 10
-0.7219724409448819
 20
2.418283464566929
 30
0.0
 10
-0.7219724409448819
 20
2.418283464566929
 30
0.0
 10
-0.7173070866141733
 20
2.416003937007874
 30
0.0
 10
-0.7136102362204725
 20
2.412755905511811
 30
0.0
 10
-0.7109173228346457
 20
2.408503937007874
 30
0.0
 10
-0.7109173228346457
 20
2.408503937007874
 30
0.0
 10
-0.7081929133858268
 20
2.404283464566929
 30
0.0
 10
-0.7068346456692913
 20
2.399503937007874
 30
0.0
 10
-0.7068346456692913
 20
2.394196850393701
 30
0.0
 10
-0.7068346456692913
 20
2.394196850393701
 30
0.0
 10
-0.7068346456692913
 20
2.389031496062992
 30
0.0
 10
-0.7081653543307087
 20
2.384255905511811
 30
0.0
 10
-0.7108346456692913
 20
2.379866141732284
 30
0.0
 10
-0.7108346456692913
 20
2.379866141732284
 30
0.0
 10
-0.7134724409448819
 20
2.375476377952756
 30
0.0
 10
-0.717248031496063
 20
2.371866141732284
 30
0.0
 10
-0.7220826771653544
 20
2.369031496062992
 30
0.0
 10
-0.7220826771653544
 20
2.369031496062992
 30
0.0
 10
-0.7269448818897638
 20
2.366228346456693
 30
0.0
 10
-0.7326102362204725
 20
2.36442125984252
 30
0.0
 10
-0.7390551181102363
 20
2.363614173228346
 30
0.0
 10
-0.7390551181102363
 20
2.363614173228346
 30
0.0
 10
-0.7455275590551181
 20
2.362838582677166
 30
0.0
 10
-0.7521653543307086
 20
2.362448818897638
 30
0.0
 10
-0.759
 20
2.362448818897638
 30
0.0
 10
-0.759
 20
2.362448818897638
 30
0.0
 10
-0.759
 20
2.362448818897638
 30
0.0
 10
-0.8158897637795276
 20
2.362448818897638
 30
0.0
 10
-0.8158897637795276
 20
2.362448818897638
 30
0.0
 10
-0.8158897637795276
 20
2.362448818897638
 30
0.0
 10
-0.8158897637795276
 20
2.362448818897638
 30
0.0
 10
-0.8158897637795276
 20
2.369283464566929
 30
0.0
 10
-0.8158897637795276
 20
2.369283464566929
 30
0.0
 10
-0.8158897637795276
 20
2.369283464566929
 30
0.0
 10
-0.8158897637795276
 20
2.369283464566929
 30
0.0
 10
-0.8120551181102362
 20
2.369283464566929
 30
0.0
 10
-0.8120551181102362
 20
2.369283464566929
 30
0.0
 10
-0.8120551181102362
 20
2.369283464566929
 30
0.0
 10
-0.8083582677165355
 20
2.369283464566929
 30
0.0
 10
-0.8058582677165355
 20
2.369866141732284
 30
0.0
 10
-0.8045
 20
2.371003937007874
 30
0.0
 10
-0.8045
 20
2.371003937007874
 30
0.0
 10
-0.8025275590551182
 20
2.37255905511811
 30
0.0
 10
-0.8015551181102363
 20
2.375169291338583
 30
0.0
 10
-0.8015551181102363
 20
2.378811023622047
 30
0.0
 10
-0.8015551181102363
 20
2.378811023622047
 30
0.0
 10
-0.8015551181102363
 20
2.378811023622047
 30
0.0
 10
-0.8015551181102363
 20
2.457669291338583
 30
0.0
 10
-0.8015551181102363
 20
2.457669291338583
 30
0.0
 10
-0.8015551181102363
 20
2.457669291338583
 30
0.0
 10
-0.8015551181102363
 20
2.461366141732284
 30
0.0
 10
-0.8018582677165355
 20
2.463866141732284
 30
0.0
 10
-0.8024448818897638
 20
2.465224409448819
 30
0.0
 10
-0.8024448818897638
 20
2.465224409448819
 30
0.0
 10
-0.8030551181102362
 20
2.466586614173228
 30
0.0
 10
-0.8039448818897638
 20
2.46755905511811
 30
0.0
 10
-0.8051377952755906
 20
2.468169291338583
 30
0.0
 10
-0.8051377952755906
 20
2.468169291338583
 30
0.0
 10
-0.8063307086614173
 20
2.468751968503937
 30
0.0
 10
-0.8086377952755905
 20
2.46905905511811
 30
0.0
 10
-0.8120551181102362
 20
2.46905905511811
 30
0.0
 10
-0.8120551181102362
 20
2.46905905511811
 30
0.0
 10
-0.8120551181102362
 20
2.46905905511811
 30
0.0
 10
-0.8158897637795276
 20
2.46905905511811
 30
0.0
 10
-0.8158897637795276
 20
2.46905905511811
 30
0.0
 10
-0.8158897637795276
 20
2.46905905511811
 30
0.0
 10
-0.8158897637795276
 20
2.46905905511811
 30
0.0
 10
-0.8158897637795276
 20
2.475976377952756
 30
0.0
 10
-0.8158897637795276
 20
2.475976377952756
 30
0.0
  0
SPLINE
  5
2E
330
1F
100
AcDbEntity
  8
Layer 1
 62
   250
100
AcDbSpline
210
0.0
220
0.0
230
1.0
 70
    11
 71
     3
 72
    40
 73
    36
 74
     0
 42
0.0000000001
 43
0.0000000001
 40
0.0
 40
0.0
 40
0.0
 40
0.0
 40
0.1111111111111111
 40
0.1111111111111111
 40
0.1111111111111111
 40
0.1111111111111111
 40
0.2222222222222222
 40
0.2222222222222222
 40
0.2222222222222222
 40
0.2222222222222222
 40
0.3333333333333333
 40
0.3333333333333333
 40
0.3333333333333333
 40
0.3333333333333333
 40
0.4444444444444444
 40
0.4444444444444444
 40
0.4444444444444444
 40
0.4444444444444444
 40
0.5555555555555556
 40
0.5555555555555556
 40
0.5555555555555556
 40
0.5555555555555556
 40
0.6666666666666667
 40
0.6666666666666667
 40
0.6666666666666667
 40
0.6666666666666667
 40
0.7777777777777779
 40
0.7777777777777779
 40
0.7777777777777779
 40
0.7777777777777779
 40
0.8888888888888891
 40
0.8888888888888891
 40
0.8888888888888891
 40
0.8888888888888891
 40
1.0
 40
1.0
 40
1.0
 40
1.0
 10
-0.7863307086614173
 20
2.466948818897638
 30
0.0
 10
-0.7863307086614173
 20
2.466948818897638
 30
0.0
 10
-0.7863307086614173
 20
2.425366141732284
 30
0.0
 10
-0.7863307086614173
 20
2.425366141732284
 30
0.0
 10
-0.7863307086614173
 20
2.425366141732284
 30
0.0
 10
-0.7863307086614173
 20
2.425366141732284
 30
0.0
 10
-0.7655826771653543
 20
2.425366141732284
 30
0.0
 10
-0.7655826771653543
 20
2.425366141732284
 30
0.0
 10
-0.7655826771653543
 20
2.425366141732284
 30
0.0
 10
-0.7558897637795276
 20
2.425366141732284
 30
0.0
 10
-0.7492204724409449
 20
2.425811023622047
 30
0.0
 10
-0.7456653543307087
 20
2.426724409448819
 30
0.0
 10
-0.7456653543307087
 20
2.426724409448819
 30
0.0
 10
-0.7400551181102363
 20
2.428196850393701
 30
0.0
 10
-0.7358070866141733
 20
2.430696850393701
 30
0.0
 10
-0.7328346456692914
 20
2.434224409448819
 30
0.0
 10
-0.7328346456692914
 20
2.434224409448819
 30
0.0
 10
-0.7298897637795276
 20
2.437751968503937
 30
0.0
 10
-0.7283897637795276
 20
2.442283464566929
 30
0.0
 10
-0.7283897637795276
 20
2.447811023622047
 30
0.0
 10
-0.7283897637795276
 20
2.447811023622047
 30
0.0
 10
-0.7283897637795276
 20
2.452476377952756
 30
0.0
 10
-0.729748031496063
 20
2.456366141732284
 30
0.0
 10
-0.7324173228346457
 20
2.459503937007874
 30
0.0
 10
-0.7324173228346457
 20
2.459503937007874
 30
0.0
 10
-0.7351102362204725
 20
2.462614173228347
 30
0.0
 10
-0.738720472440945
 20
2.464751968503937
 30
0.0
 10
-0.7432204724409449
 20
2.465893700787402
 30
0.0
 10
-0.7432204724409449
 20
2.465893700787402
 30
0.0
 10
-0.7461377952755905
 20
2.466586614173228
 30
0.0
 10
-0.7522204724409449
 20
2.466948818897638
 30
0.0
 10
-0.7614448818897638
 20
2.466948818897638
 30
0.0
 10
-0.7614448818897638
 20
2.466948818897638
 30
0.0
 10
-0.7614448818897638
 20
2.466948818897638
 30
0.0
 10
-0.7863307086614173
 20
2.466948818897638
 30
0.0
 10
-0.7863307086614173
 20
2.466948818897638
 30
0.0
  0
SPLINE
  5
2F
330
1F
100
AcDbEntity
  8
Layer 1
 62
   250
100
AcDbSpline
210
0.0
220
0.0
230
1.0
 70
    11
 71
     3
 72
    52
 73
    48
 74
     0
 42
0.0000000001
 43
0.0000000001
 40
0.0
 40
0.0
 40
0.0
 40
0.0
 40
0.0833333333333333
 40
0.0833333333333333
 40
0.0833333333333333
 40
0.0833333333333333
 40
0.1666666666666667
 40
0.1666666666666667
 40
0.1666666666666667
 40
0.1666666666666667
 40
0.25
 40
0.25
 40
0.25
 40
0.25
 40
0.3333333333333333
 40
0.3333333333333333
 40
0.3333333333333333
 40
0.3333333333333333
 40
0.4166666666666666
 40
0.4166666666666666
 40
0.4166666666666666
 40
0.4166666666666666
 40
0.4999999999999999
 40
0.4999999999999999
 40
0.4999999999999999
 40
0.4999999999999999
 40
0.5833333333333333
 40
0.5833333333333333
 40
0.5833333333333333
 40
0.5833333333333333
 40
0.6666666666666666
 40
0.6666666666666666
 40
0.6666666666666666
 40
0.6666666666666666
 40
0.75
 40
0.75
 40
0.75
 40
0.75
 40
0.8333333333333334
 40
0.8333333333333334
 40
0.8333333333333334
 40
0.8333333333333334
 40
0.9166666666666667
 40
0.9166666666666667
 40
0.9166666666666667
 40
0.9166666666666667
 40
1.0
 40
1.0
 40
1.0
 40
1.0
 10
-0.7863307086614173
 20
2.417531496062992
 30
0.0
 10
-0.7863307086614173
 20
2.417531496062992
 30
0.0
 10
-0.7863307086614173
 20
2.380283464566929
 30
0.0
 10
-0.7863307086614173
 20
2.380283464566929
 30
0.0
 10
-0.7863307086614173
 20
2.380283464566929
 30
0.0
 10
-0.7863307086614173
 20
2.376531496062992
 30
0.0
 10
-0.7861653543307087
 20
2.374311023622048
 30
0.0
 10
-0.7858622047244095
 20
2.373586614173228
 30
0.0
 10
-0.7858622047244095
 20
2.373586614173228
 30
0.0
 10
-0.7854173228346457
 20
2.372614173228346
 30
0.0
 10
-0.7845551181102363
 20
2.371948818897638
 30
0.0
 10
-0.783248031496063
 20
2.371559055118111
 30
0.0
 10
-0.783248031496063
 20
2.371559055118111
 30
0.0
 10
-0.7823307086614174
 20
2.371283464566929
 30
0.0
 10
-0.7797204724409449
 20
2.371141732283465
 30
0.0
 10
-0.7754448818897638
 20
2.371141732283465
 30
0.0
 10
-0.7754448818897638
 20
2.371141732283465
 30
0.0
 10
-0.7754448818897638
 20
2.371141732283465
 30
0.0
 10
-0.7643622047244095
 20
2.371141732283465
 30
0.0
 10
-0.7643622047244095
 20
2.371141732283465
 30
0.0
 10
-0.7643622047244095
 20
2.371141732283465
 30
0.0
 10
-0.7534173228346457
 20
2.371141732283465
 30
0.0
 10
-0.7455826771653543
 20
2.371755905511811
 30
0.0
 10
-0.7408897637795275
 20
2.372976377952756
 30
0.0
 10
-0.7408897637795275
 20
2.372976377952756
 30
0.0
 10
-0.7361929133858268
 20
2.374196850393701
 30
0.0
 10
-0.7321929133858268
 20
2.376783464566929
 30
0.0
 10
-0.7288897637795276
 20
2.380728346456693
 30
0.0
 10
-0.7288897637795276
 20
2.380728346456693
 30
0.0
 10
-0.7255826771653544
 20
2.384641732283465
 30
0.0
 10
-0.7239173228346457
 20
2.389393700787402
 30
0.0
 10
-0.7239173228346457
 20
2.39492125984252
 30
0.0
 10
-0.7239173228346457
 20
2.39492125984252
 30
0.0
 10
-0.7239173228346457
 20
2.399586614173229
 30
0.0
 10
-0.7252755905511812
 20
2.403724409448819
 30
0.0
 10
-0.7279448818897638
 20
2.407338582677165
 30
0.0
 10
-0.7279448818897638
 20
2.407338582677165
 30
0.0
 10
-0.7306377952755906
 20
2.410948818897638
 30
0.0
 10
-0.7343622047244095
 20
2.413531496062992
 30
0.0
 10
-0.7391102362204725
 20
2.415141732283465
 30
0.0
 10
-0.7391102362204725
 20
2.415141732283465
 30
0.0
 10
-0.7438622047244095
 20
2.416755905511811
 30
0.0
 10
-0.7522755905511811
 20
2.417531496062992
 30
0.0
 10
-0.7643622047244095
 20
2.417531496062992
 30
0.0
 10
-0.7643622047244095
 20
2.417531496062992
 30
0.0
 10
-0.7643622047244095
 20
2.417531496062992
 30
0.0
 10
-0.7863307086614173
 20
2.417531496062992
 30
0.0
 10
-0.7863307086614173
 20
2.417531496062992
 30
0.0
  0
SPLINE
  5
30
330
1F
100
AcDbEntity
  8
Layer 1
 62
   250
100
AcDbSpline
210
0.0
220
0.0
230
1.0
 70
    11
 71
     3
 72
   112
 73
   108
 74
     0
 42
0.0000000001
 43
0.0000000001
 40
0.0
 40
0.0
 40
0.0
 40
0.0
 40
0.037037037037037
 40
0.037037037037037
 40
0.037037037037037
 40
0.037037037037037
 40
0.0740740740740741
 40
0.0740740740740741
 40
0.0740740740740741
 40
0.0740740740740741
 40
0.1111111111111111
 40
0.1111111111111111
 40
0.1111111111111111
 40
0.1111111111111111
 40
0.1481481481481481
 40
0.1481481481481481
 40
0.1481481481481481
 40
0.1481481481481481
 40
0.1851851851851852
 40
0.1851851851851852
 40
0.1851851851851852
 40
0.1851851851851852
 40
0.2222222222222222
 40
0.2222222222222222
 40
0.2222222222222222
 40
0.2222222222222222
 40
0.2592592592592592
 40
0.2592592592592592
 40
0.2592592592592592
 40
0.2592592592592592
 40
0.2962962962962963
 40
0.2962962962962963
 40
0.2962962962962963
 40
0.2962962962962963
 40
0.3333333333333333
 40
0.3333333333333333
 40
0.3333333333333333
 40
0.3333333333333333
 40
0.3703703703703704
 40
0.3703703703703704
 40
0.3703703703703704
 40
0.3703703703703704
 40
0.4074074074074074
 40
0.4074074074074074
 40
0.4074074074074074
 40
0.4074074074074074
 40
0.4444444444444444
 40
0.4444444444444444
 40
0.4444444444444444
 40
0.4444444444444444
 40
0.4814814814814815
 40
0.4814814814814815
 40
0.4814814814814815
 40
0.4814814814814815
 40
0.5185185185185185
 40
0.5185185185185185
 40
0.5185185185185185
 40
0.5185185185185185
 40
0.5555555555555556
 40
0.5555555555555556
 40
0.5555555555555556
 40
0.5555555555555556
 40
0.5925925925925926
 40
0.5925925925925926
 40
0.5925925925925926
 40
0.5925925925925926
 40
0.6296296296296295
 40
0.6296296296296295
 40
0.6296296296296295
 40
0.6296296296296295
 40
0.6666666666666665
 40
0.6666666666666665
 40
0.6666666666666665
 40
0.6666666666666665
 40
0.7037037037037035
 40
0.7037037037037035
 40
0.7037037037037035
 40
0.7037037037037035
 40
0.7407407407407405
 40
0.7407407407407405
 40
0.7407407407407405
 40
0.7407407407407405
 40
0.7777777777777775
 40
0.7777777777777775
 40
0.7777777777777775
 40
0.7777777777777775
 40
0.8148148148148144
 40
0.8148148148148144
 40
0.8148148148148144
 40
0.8148148148148144
 40
0.8518518518518514
 40
0.8518518518518514
 40
0.8518518518518514
 40
0.8518518518518514
 40
0.8888888888888884
 40
0.8888888888888884
 40
0.8888888888888884
 40
0.8888888888888884
 40
0.9259259259259254
 40
0.9259259259259254
 40
0.9259259259259254
 40
0.9259259259259254
 40
0.9629629629629624
 40
0.9629629629629624
 40
0.9629629629629624
 40
0.9629629629629624
 40
1.0
 40
1.0
 40
1.0
 40
1.0
 10
-0.6492244094488189
 20
2.475976377952756
 30
0.0
 10
-0.6492244094488189
 20
2.475976377952756
 30
0.0
 10
-0.6358070866141733
 20
2.475976377952756
 30
0.0
 10
-0.6358070866141733
 20
2.475976377952756
 30
0.0
 10
-0.6358070866141733
 20
2.475976377952756
 30
0.0
 10
-0.6358070866141733
 20
2.475976377952756
 30
0.0
 10
-0.6005590551181103
 20
2.381086614173229
 30
0.0
 10
-0.6005590551181103
 20
2.381086614173229
 30
0.0
 10
-0.6005590551181103
 20
2.381086614173229
 30
0.0
 10
-0.5988346456692913
 20
2.376311023622047
 30
0.0
 10
-0.5970866141732284
 20
2.373141732283465
 30
0.0
 10
-0.5953070866141732
 20
2.371614173228346
 30
0.0
 10
-0.5953070866141732
 20
2.371614173228346
 30
0.0
 10
-0.5935590551181103
 20
2.37005905511811
 30
0.0
 10
-0.5911692913385827
 20
2.369283464566929
 30
0.0
 10
-0.5881968503937008
 20
2.369283464566929
 30
0.0
 10
-0.5881968503937008
 20
2.369283464566929
 30
0.0
 10
-0.5881968503937008
 20
2.369283464566929
 30
0.0
 10
-0.5864173228346457
 20
2.369283464566929
 30
0.0
 10
-0.5864173228346457
 20
2.369283464566929
 30
0.0
 10
-0.5864173228346457
 20
2.369283464566929
 30
0.0
 10
-0.5864173228346457
 20
2.369283464566929
 30
0.0
 10
-0.5864173228346457
 20
2.362448818897638
 30
0.0
 10
-0.5864173228346457
 20
2.362448818897638
 30
0.0
 10
-0.5864173228346457
 20
2.362448818897638
 30
0.0
 10
-0.5864173228346457
 20
2.362448818897638
 30
0.0
 10
-0.6268622047244095
 20
2.362448818897638
 30
0.0
 10
-0.6268622047244095
 20
2.362448818897638
 30
0.0
 10
-0.6268622047244095
 20
2.362448818897638
 30
0.0
 10
-0.6268622047244095
 20
2.362448818897638
 30
0.0
 10
-0.6268622047244095
 20
2.369283464566929
 30
0.0
 10
-0.6268622047244095
 20
2.369283464566929
 30
0.0
 10
-0.6268622047244095
 20
2.369283464566929
 30
0.0
 10
-0.6255590551181103
 20
2.369393700787402
 30
0.0
 10
-0.6242795275590551
 20
2.369448818897638
 30
0.0
 10
-0.6230275590551181
 20
2.369448818897638
 30
0.0
 10
-0.6230275590551181
 20
2.369448818897638
 30
0.0
 10
-0.6204173228346457
 20
2.369448818897638
 30
0.0
 10
-0.6187244094488189
 20
2.369728346456693
 30
0.0
 10
-0.6178897637795275
 20
2.370255905511811
 30
0.0
 10
-0.6178897637795275
 20
2.370255905511811
 30
0.0
 10
-0.6163346456692914
 20
2.371283464566929
 30
0.0
 10
-0.6155314960629922
 20
2.372586614173228
 30
0.0
 10
-0.6155314960629922
 20
2.374169291338583
 30
0.0
 10
-0.6155314960629922
 20
2.374169291338583
 30
0.0
 10
-0.6155314960629922
 20
2.375311023622047
 30
0.0
 10
-0.6163070866141732
 20
2.378086614173228
 30
0.0
 10
-0.6178070866141733
 20
2.38255905511811
 30
0.0
 10
-0.6178070866141733
 20
2.38255905511811
 30
0.0
 10
-0.6178070866141733
 20
2.38255905511811
 30
0.0
 10
-0.6253070866141732
 20
2.404531496062992
 30
0.0
 10
-0.6253070866141732
 20
2.404531496062992
 30
0.0
 10
-0.6253070866141732
 20
2.404531496062992
 30
0.0
 10
-0.6253070866141732
 20
2.404531496062992
 30
0.0
 10
-0.6664724409448819
 20
2.404531496062992
 30
0.0
 10
-0.6664724409448819
 20
2.404531496062992
 30
0.0
 10
-0.6664724409448819
 20
2.404531496062992
 30
0.0
 10
-0.6664724409448819
 20
2.404531496062992
 30
0.0
 10
-0.6752795275590552
 20
2.379948818897638
 30
0.0
 10
-0.6752795275590552
 20
2.379948818897638
 30
0.0
 10
-0.6752795275590552
 20
2.379948818897638
 30
0.0
 10
-0.6761968503937008
 20
2.377393700787402
 30
0.0
 10
-0.6766692913385827
 20
2.375641732283465
 30
0.0
 10
-0.6766692913385827
 20
2.374641732283465
 30
0.0
 10
-0.6766692913385827
 20
2.374641732283465
 30
0.0
 10
-0.6766692913385827
 20
2.37355905511811
 30
0.0
 10
-0.6763622047244094
 20
2.372614173228346
 30
0.0
 10
-0.6758070866141732
 20
2.371811023622048
 30
0.0
 10
-0.6758070866141732
 20
2.371811023622048
 30
0.0
 10
-0.6752244094488189
 20
2.371003937007874
 30
0.0
 10
-0.6744724409448819
 20
2.370393700787402
 30
0.0
 10
-0.6734724409448819
 20
2.369976377952756
 30
0.0
 10
-0.6734724409448819
 20
2.369976377952756
 30
0.0
 10
-0.6725
 20
2.36955905511811
 30
0.0
 10
-0.6709448818897638
 20
2.369366141732284
 30
0.0
 10
-0.668751968503937
 20
2.369366141732284
 30
0.0
 10
-0.668751968503937
 20
2.369366141732284
 30
0.0
 10
-0.6673070866141733
 20
2.369366141732284
 30
0.0
 10
-0.6661141732283464
 20
2.369338582677166
 30
0.0
 10
-0.6651968503937008
 20
2.369283464566929
 30
0.0
 10
-0.6651968503937008
 20
2.369283464566929
 30
0.0
 10
-0.6651968503937008
 20
2.369283464566929
 30
0.0
 10
-0.6651968503937008
 20
2.362448818897638
 30
0.0
 10
-0.6651968503937008
 20
2.362448818897638
 30
0.0
 10
-0.6651968503937008
 20
2.362448818897638
 30
0.0
 10
-0.6651968503937008
 20
2.362448818897638
 30
0.0
 10
-0.6991141732283465
 20
2.362448818897638
 30
0.0
 10
-0.6991141732283465
 20
2.362448818897638
 30
0.0
 10
-0.6991141732283465
 20
2.362448818897638
 30
0.0
 10
-0.6991141732283465
 20
2.362448818897638
 30
0.0
 10
-0.6991141732283465
 20
2.369283464566929
 30
0.0
 10
-0.6991141732283465
 20
2.369283464566929
 30
0.0
 10
-0.6991141732283465
 20
2.369283464566929
 30
0.0
 10
-0.6959724409448819
 20
2.369283464566929
 30
0.0
 10
-0.6936968503937008
 20
2.369586614173228
 30
0.0
 10
-0.6923346456692914
 20
2.370228346456693
 30
0.0
 10
-0.6923346456692914
 20
2.370228346456693
 30
0.0
 10
-0.6909448818897638
 20
2.370838582677166
 30
0.0
 10
-0.689724409448819
 20
2.371838582677166
 30
0.0
 10
-0.6886968503937008
 20
2.373228346456693
 30
0.0
 10
-0.6886968503937008
 20
2.373228346456693
 30
0.0
 10
-0.6876692913385827
 20
2.374614173228347
 30
0.0
 10
-0.6863070866141733
 20
2.377531496062992
 30
0.0
 10
-0.6846417322834646
 20
2.381976377952756
 30
0.0
 10
-0.6846417322834646
 20
2.381976377952756
 30
0.0
 10
-0.6846417322834646
 20
2.381976377952756
 30
0.0
 10
-0.6492244094488189
 20
2.475976377952756
 30
0.0
 10
-0.6492244094488189
 20
2.475976377952756
 30
0.0
  0
SPLINE
  5
31
330
1F
100
AcDbEntity
  8
Layer 1
 62
   250
100
AcDbSpline
210
0.0
220
0.0
230
1.0
 70
    11
 71
     3
 72
    16
 73
    12
 74
     0
 42
0.0000000001
 43
0.0000000001
 40
0.0
 40
0.0
 40
0.0
 40
0.0
 40
0.3333333333333333
 40
0.3333333333333333
 40
0.3333333333333333
 40
0.3333333333333333
 40
0.6666666666666666
 40
0.6666666666666666
 40
0.6666666666666666
 40
0.6666666666666666
 40
1.0
 40
1.0
 40
1.0
 40
1.0
 10
-0.6634724409448819
 20
2.412503937007874
 30
0.0
 10
-0.6634724409448819
 20
2.412503937007874
 30
0.0
 10
-0.6283897637795276
 20
2.412503937007874
 30
0.0
 10
-0.6283897637795276
 20
2.412503937007874
 30
0.0
 10
-0.6283897637795276
 20
2.412503937007874
 30
0.0
 10
-0.6283897637795276
 20
2.412503937007874
 30
0.0
 10
-0.6459724409448819
 20
2.461338582677166
 30
0.0
 10
-0.6459724409448819
 20
2.461338582677166
 30
0.0
 10
-0.6459724409448819
 20
2.461338582677166
 30
0.0
 10
-0.6459724409448819
 20
2.461338582677166
 30
0.0
 10
-0.6634724409448819
 20
2.412503937007874
 30
0.0
 10
-0.6634724409448819
 20
2.412503937007874
 30
0.0
  0
SPLINE
  5
32
330
1F
100
AcDbEntity
  8
Layer 1
 62
   250
100
AcDbSpline
210
0.0
220
0.0
230
1.0
 70
    11
 71
     3
 72
    72
 73
    68
 74
     0
 42
0.0000000001
 43
0.0000000001
 40
0.0
 40
0.0
 40
0.0
 40
0.0
 40
0.0588235294117647
 40
0.0588235294117647
 40
0.0588235294117647
 40
0.0588235294117647
 40
0.1176470588235294
 40
0.1176470588235294
 40
0.1176470588235294
 40
0.1176470588235294
 40
0.1764705882352941
 40
0.1764705882352941
 40
0.1764705882352941
 40
0.1764705882352941
 40
0.2352941176470588
 40
0.2352941176470588
 40
0.2352941176470588
 40
0.2352941176470588
 40
0.2941176470588235
 40
0.2941176470588235
 40
0.2941176470588235
 40
0.2941176470588235
 40
0.3529411764705883
 40
0.3529411764705883
 40
0.3529411764705883
 40
0.3529411764705883
 40
0.411764705882353
 40
0.411764705882353
 40
0.411764705882353
 40
0.411764705882353
 40
0.4705882352941177
 40
0.4705882352941177
 40
0.4705882352941177
 40
0.4705882352941177
 40
0.5294117647058824
 40
0.5294117647058824
 40
0.5294117647058824
 40
0.5294117647058824
 40
0.5882352941176471
 40
0.5882352941176471
 40
0.5882352941176471
 40
0.5882352941176471
 40
0.6470588235294118
 40
0.6470588235294118
 40
0.6470588235294118
 40
0.6470588235294118
 40
0.7058823529411765
 40
0.7058823529411765
 40
0.7058823529411765
 40
0.7058823529411765
 40
0.7647058823529412
 40
0.7647058823529412
 40
0.7647058823529412
 40
0.7647058823529412
 40
0.823529411764706
 40
0.823529411764706
 40
0.823529411764706
 40
0.823529411764706
 40
0.8823529411764707
 40
0.8823529411764707
 40
0.8823529411764707
 40
0.8823529411764707
 40
0.9411764705882354
 40
0.9411764705882354
 40
0.9411764705882354
 40
0.9411764705882354
 40
1.0
 40
1.0
 40
1.0
 40
1.0
 10
-0.4233897637795276
 20
2.475976377952756
 30
0.0
 10
-0.4233897637795276
 20
2.475976377952756
 30
0.0
 10
-0.4173070866141733
 20
2.475976377952756
 30
0.0
 10
-0.4173070866141733
 20
2.475976377952756
 30
0.0
 10
-0.4173070866141733
 20
2.475976377952756
 30
0.0
 10
-0.4173070866141733
 20
2.475976377952756
 30
0.0
 10
-0.4173070866141733
 20
2.381728346456693
 30
0.0
 10
-0.4173070866141733
 20
2.381728346456693
 30
0.0
 10
-0.4173070866141733
 20
2.381728346456693
 30
0.0
 10
-0.4173070866141733
 20
2.377283464566929
 30
0.0
 10
-0.417
 20
2.37442125984252
 30
0.0
 10
-0.4164448818897638
 20
2.373141732283465
 30
0.0
 10
-0.4164448818897638
 20
2.373141732283465
 30
0.0
 10
-0.4158622047244095
 20
2.371866141732284
 30
0.0
 10
-0.4149448818897638
 20
2.37092125984252
 30
0.0
 10
-0.4136417322834646
 20
2.370255905511811
 30
0.0
 10
-0.4136417322834646
 20
2.370255905511811
 30
0.0
 10
-0.4123346456692913
 20
2.369614173228347
 30
0.0
 10
-0.409751968503937
 20
2.369283464566929
 30
0.0
 10
-0.4058897637795276
 20
2.369283464566929
 30
0.0
 10
-0.4058897637795276
 20
2.369283464566929
 30
0.0
 10
-0.4058897637795276
 20
2.369283464566929
 30
0.0
 10
-0.3979173228346457
 20
2.369283464566929
 30
0.0
 10
-0.3979173228346457
 20
2.369283464566929
 30
0.0
 10
-0.3979173228346457
 20
2.369283464566929
 30
0.0
 10
-0.3979173228346457
 20
2.369283464566929
 30
0.0
 10
-0.3979173228346457
 20
2.362448818897638
 30
0.0
 10
-0.3979173228346457
 20
2.362448818897638
 30
0.0
 10
-0.3979173228346457
 20
2.362448818897638
 30
0.0
 10
-0.3979173228346457
 20
2.362448818897638
 30
0.0
 10
-0.4515551181102362
 20
2.362448818897638
 30
0.0
 10
-0.4515551181102362
 20
2.362448818897638
 30
0.0
 10
-0.4515551181102362
 20
2.362448818897638
 30
0.0
 10
-0.4515551181102362
 20
2.362448818897638
 30
0.0
 10
-0.4515551181102362
 20
2.369283464566929
 30
0.0
 10
-0.4515551181102362
 20
2.369283464566929
 30
0.0
 10
-0.4515551181102362
 20
2.369283464566929
 30
0.0
 10
-0.4515551181102362
 20
2.369283464566929
 30
0.0
 10
-0.4426968503937008
 20
2.369283464566929
 30
0.0
 10
-0.4426968503937008
 20
2.369283464566929
 30
0.0
 10
-0.4426968503937008
 20
2.369283464566929
 30
0.0
 10
-0.4388346456692914
 20
2.369283464566929
 30
0.0
 10
-0.4362795275590551
 20
2.369614173228347
 30
0.0
 10
-0.435
 20
2.370311023622048
 30
0.0
 10
-0.435
 20
2.370311023622048
 30
0.0
 10
-0.4337244094488189
 20
2.370976377952756
 30
0.0
 10
-0.4327244094488189
 20
2.37205905511811
 30
0.0
 10
-0.4320275590551181
 20
2.37355905511811
 30
0.0
 10
-0.4320275590551181
 20
2.37355905511811
 30
0.0
 10
-0.4313346456692914
 20
2.37505905511811
 30
0.0
 10
-0.4309724409448819
 20
2.377783464566929
 30
0.0
 10
-0.4309724409448819
 20
2.381728346456693
 30
0.0
 10
-0.4309724409448819
 20
2.381728346456693
 30
0.0
 10
-0.4309724409448819
 20
2.381728346456693
 30
0.0
 10
-0.4309724409448819
 20
2.459196850393701
 30
0.0
 10
-0.4309724409448819
 20
2.459196850393701
 30
0.0
 10
-0.4309724409448819
 20
2.459196850393701
 30
0.0
 10
-0.4309724409448819
 20
2.459196850393701
 30
0.0
 10
-0.4515551181102362
 20
2.459196850393701
 30
0.0
 10
-0.4515551181102362
 20
2.459196850393701
 30
0.0
 10
-0.4515551181102362
 20
2.459196850393701
 30
0.0
 10
-0.4515551181102362
 20
2.459196850393701
 30
0.0
 10
-0.4515551181102362
 20
2.466196850393701
 30
0.0
 10
-0.4515551181102362
 20
2.466196850393701
 30
0.0
 10
-0.4515551181102362
 20
2.466196850393701
 30
0.0
 10
-0.4403346456692914
 20
2.467779527559055
 30
0.0
 10
-0.4309448818897638
 20
2.471031496062992
 30
0.0
 10
-0.4233897637795276
 20
2.475976377952756
 30
0.0
  0
SPLINE
  5
33
330
1F
100
AcDbEntity
  8
Layer 1
 62
   250
100
AcDbSpline
210
0.0
220
0.0
230
1.0
 70
    11
 71
     3
 72
    84
 73
    80
 74
     0
 42
0.0000000001
 43
0.0000000001
 40
0.0
 40
0.0
 40
0.0
 40
0.0
 40
0.05
 40
0.05
 40
0.05
 40
0.05
 40
0.1
 40
0.1
 40
0.1
 40
0.1
 40
0.15
 40
0.15
 40
0.15
 40
0.15
 40
0.2
 40
0.2
 40
0.2
 40
0.2
 40
0.25
 40
0.25
 40
0.25
 40
0.25
 40
0.3
 40
0.3
 40
0.3
 40
0.3
 40
0.35
 40
0.35
 40
0.35
 40
0.35
 40
0.4
 40
0.4
 40
0.4
 40
0.4
 40
0.45
 40
0.45
 40
0.45
 40
0.45
 40
0.4999999999999999
 40
0.4999999999999999
 40
0.4999999999999999
 40
0.4999999999999999
 40
0.5499999999999999
 40
0.5499999999999999
 40
0.5499999999999999
 40
0.5499999999999999
 40
0.6
 40
0.6
 40
0.6
 40
0.6
 40
0.65
 40
0.65
 40
0.65
 40
0.65
 40
0.7000000000000001
 40
0.7000000000000001
 40
0.7000000000000001
 40
0.7000000000000001
 40
0.7500000000000001
 40
0.7500000000000001
 40
0.7500000000000001
 40
0.7500000000000001
 40
0.8000000000000002
 40
0.8000000000000002
 40
0.8000000000000002
 40
0.8000000000000002
 40
0.8500000000000002
 40
0.8500000000000002
 40
0.8500000000000002
 40
0.8500000000000002
 40
0.9000000000000002
 40
0.9000000000000002
 40
0.9000000000000002
 40
0.9000000000000002
 40
0.9500000000000003
 40
0.9500000000000003
 40
0.9500000000000003
 40
0.9500000000000003
 40
1.0
 40
1.0
 40
1.0
 40
1.0
 10
-0.2917244094488189
 20
2.478086614173229
 30
0.0
 10
-0.2917244094488189
 20
2.478086614173229
 30
0.0
 10
-0.2917244094488189
 20
2.470669291338583
 30
0.0
 10
-0.2917244094488189
 20
2.470669291338583
 30
0.0
 10
-0.2917244094488189
 20
2.470669291338583
 30
0.0
 10
-0.3051102362204725
 20
2.470531496062992
 30
0.0
 10
-0.3159448818897638
 20
2.468559055118111
 30
0.0
 10
-0.3242204724409449
 20
2.464838582677166
 30
0.0
 10
-0.3242204724409449
 20
2.464838582677166
 30
0.0
 10
-0.3325
 20
2.461086614173229
 30
0.0
 10
-0.3385826771653543
 20
2.455476377952756
 30
0.0
 10
-0.3425
 20
2.448031496062992
 30
0.0
 10
-0.3425
 20
2.448031496062992
 30
0.0
 10
-0.3464173228346457
 20
2.44055905511811
 30
0.0
 10
-0.3486102362204724
 20
2.431366141732283
 30
0.0
 10
-0.3490826771653544
 20
2.420476377952756
 30
0.0
 10
-0.3490826771653544
 20
2.420476377952756
 30
0.0
 10
-0.3463346456692913
 20
2.424696850393701
 30
0.0
 10
-0.3435
 20
2.428003937007874
 30
0.0
 10
-0.3405826771653543
 20
2.430366141732284
 30
0.0
 10
-0.3405826771653543
 20
2.430366141732284
 30
0.0
 10
-0.3376929133858268
 20
2.432724409448819
 30
0.0
 10
-0.3343070866141732
 20
2.434531496062992
 30
0.0
 10
-0.3304173228346457
 20
2.435811023622047
 30
0.0
 10
-0.3304173228346457
 20
2.435811023622047
 30
0.0
 10
-0.3265275590551181
 20
2.437086614173229
 30
0.0
 10
-0.3222795275590552
 20
2.437724409448819
 30
0.0
 10
-0.3176653543307087
 20
2.437724409448819
 30
0.0
 10
-0.3176653543307087
 20
2.437724409448819
 30
0.0
 10
-0.3103070866141732
 20
2.437724409448819
 30
0.0
 10
-0.3037244094488189
 20
2.436086614173228
 30
0.0
 10
-0.2979724409448819
 20
2.432838582677166
 30
0.0
 10
-0.2979724409448819
 20
2.432838582677166
 30
0.0
 10
-0.2922244094488189
 20
2.429586614173228
 30
0.0
 10
-0.287751968503937
 20
2.425169291338583
 30
0.0
 10
-0.2845551181102362
 20
2.419614173228347
 30
0.0
 10
-0.2845551181102362
 20
2.419614173228347
 30
0.0
 10
-0.2813622047244095
 20
2.414059055118111
 30
0.0
 10
-0.279751968503937
 20
2.407503937007874
 30
0.0
 10
-0.279751968503937
 20
2.399976377952756
 30
0.0
 10
-0.279751968503937
 20
2.399976377952756
 30
0.0
 10
-0.279751968503937
 20
2.387976377952756
 30
0.0
 10
-0.2833622047244095
 20
2.37855905511811
 30
0.0
 10
-0.2905826771653544
 20
2.371728346456693
 30
0.0
 10
-0.2905826771653544
 20
2.371728346456693
 30
0.0
 10
-0.2985551181102362
 20
2.364228346456693
 30
0.0
 10
-0.3088897637795276
 20
2.360503937007874
 30
0.0
 10
-0.3215826771653543
 20
2.360503937007874
 30
0.0
 10
-0.3215826771653543
 20
2.360503937007874
 30
0.0
 10
-0.330751968503937
 20
2.360503937007874
 30
0.0
 10
-0.3384724409448819
 20
2.362393700787402
 30
0.0
 10
-0.3447795275590551
 20
2.366196850393701
 30
0.0
 10
-0.3447795275590551
 20
2.366196850393701
 30
0.0
 10
-0.3510826771653544
 20
2.369976377952756
 30
0.0
 10
-0.3560826771653544
 20
2.375783464566929
 30
0.0
 10
-0.3598070866141733
 20
2.383614173228347
 30
0.0
 10
-0.3598070866141733
 20
2.383614173228347
 30
0.0
 10
-0.3635
 20
2.39142125984252
 30
0.0
 10
-0.3653622047244095
 20
2.401086614173229
 30
0.0
 10
-0.3653622047244095
 20
2.412586614173228
 30
0.0
 10
-0.3653622047244095
 20
2.412586614173228
 30
0.0
 10
-0.3653622047244095
 20
2.424141732283465
 30
0.0
 10
-0.3633897637795276
 20
2.434393700787402
 30
0.0
 10
-0.3594724409448819
 20
2.443338582677165
 30
0.0
 10
-0.3594724409448819
 20
2.443338582677165
 30
0.0
 10
-0.3555275590551181
 20
2.452279527559055
 30
0.0
 10
-0.3500826771653544
 20
2.459476377952756
 30
0.0
 10
-0.3431377952755906
 20
2.464893700787402
 30
0.0
 10
-0.3431377952755906
 20
2.464893700787402
 30
0.0
 10
-0.3361929133858268
 20
2.470338582677166
 30
0.0
 10
-0.3285826771653543
 20
2.473893700787402
 30
0.0
 10
-0.3203346456692914
 20
2.47555905511811
 30
0.0
 10
-0.3203346456692914
 20
2.47555905511811
 30
0.0
 10
-0.3120551181102362
 20
2.477251968503937
 30
0.0
 10
-0.3046377952755905
 20
2.478086614173229
 30
0.0
 10
-0.2980551181102362
 20
2.478086614173229
 30
0.0
 10
-0.2980551181102362
 20
2.478086614173229
 30
0.0
 10
-0.2980551181102362
 20
2.478086614173229
 30
0.0
 10
-0.2917244094488189
 20
2.478086614173229
 30
0.0
 10
-0.2917244094488189
 20
2.478086614173229
 30
0.0
  0
SPLINE
  5
34
330
1F
100
AcDbEntity
  8
Layer 1
 62
   250
100
AcDbSpline
210
0.0
220
0.0
230
1.0
 70
    11
 71
     3
 72
    40
 73
    36
 74
     0
 42
0.0000000001
 43
0.0000000001
 40
0.0
 40
0.0
 40
0.0
 40
0.0
 40
0.1111111111111111
 40
0.1111111111111111
 40
0.1111111111111111
 40
0.1111111111111111
 40
0.2222222222222222
 40
0.2222222222222222
 40
0.2222222222222222
 40
0.2222222222222222
 40
0.3333333333333333
 40
0.3333333333333333
 40
0.3333333333333333
 40
0.3333333333333333
 40
0.4444444444444444
 40
0.4444444444444444
 40
0.4444444444444444
 40
0.4444444444444444
 40
0.5555555555555556
 40
0.5555555555555556
 40
0.5555555555555556
 40
0.5555555555555556
 40
0.6666666666666667
 40
0.6666666666666667
 40
0.6666666666666667
 40
0.6666666666666667
 40
0.7777777777777779
 40
0.7777777777777779
 40
0.7777777777777779
 40
0.7777777777777779
 40
0.8888888888888891
 40
0.8888888888888891
 40
0.8888888888888891
 40
0.8888888888888891
 40
1.0
 40
1.0
 40
1.0
 40
1.0
 10
-0.3214173228346457
 20
2.429086614173229
 30
0.0
 10
-0.3292204724409449
 20
2.429086614173229
 30
0.0
 10
-0.3356377952755906
 20
2.426141732283465
 30
0.0
 10
-0.3406653543307087
 20
2.420224409448819
 30
0.0
 10
-0.3406653543307087
 20
2.420224409448819
 30
0.0
 10
-0.3456929133858268
 20
2.414311023622048
 30
0.0
 10
-0.3481929133858268
 20
2.407196850393701
 30
0.0
 10
-0.3481929133858268
 20
2.39892125984252
 30
0.0
 10
-0.3481929133858268
 20
2.39892125984252
 30
0.0
 10
-0.3481929133858268
 20
2.39305905511811
 30
0.0
 10
-0.3469724409448819
 20
2.387641732283464
 30
0.0
 10
-0.3445275590551181
 20
2.382669291338583
 30
0.0
 10
-0.3445275590551181
 20
2.382669291338583
 30
0.0
 10
-0.3420826771653543
 20
2.377696850393701
 30
0.0
 10
-0.3389448818897638
 20
2.374031496062992
 30
0.0
 10
-0.3350826771653543
 20
2.371614173228346
 30
0.0
 10
-0.3350826771653543
 20
2.371614173228346
 30
0.0
 10
-0.331251968503937
 20
2.369196850393701
 30
0.0
 10
-0.3268897637795276
 20
2.367976377952756
 30
0.0
 10
-0.3220826771653543
 20
2.367976377952756
 30
0.0
 10
-0.3220826771653543
 20
2.367976377952756
 30
0.0
 10
-0.3145826771653543
 20
2.367976377952756
 30
0.0
 10
-0.3083622047244095
 20
2.370811023622047
 30
0.0
 10
-0.3033897637795276
 20
2.376476377952756
 30
0.0
 10
-0.3033897637795276
 20
2.376476377952756
 30
0.0
 10
-0.2984448818897638
 20
2.382141732283465
 30
0.0
 10
-0.2959448818897638
 20
2.389755905511811
 30
0.0
 10
-0.2959448818897638
 20
2.399311023622047
 30
0.0
 10
-0.2959448818897638
 20
2.399311023622047
 30
0.0
 10
-0.2959448818897638
 20
2.40842125984252
 30
0.0
 10
-0.2983622047244094
 20
2.415669291338583
 30
0.0
 10
-0.3031929133858268
 20
2.421031496062992
 30
0.0
 10
-0.3031929133858268
 20
2.421031496062992
 30
0.0
 10
-0.3080275590551181
 20
2.42642125984252
 30
0.0
 10
-0.3141102362204725
 20
2.429086614173229
 30
0.0
 10
-0.3214173228346457
 20
2.429086614173229
 30
0.0
  0
SPLINE
  5
35
330
1F
100
AcDbEntity
  8
Layer 1
 62
   250
100
AcDbSpline
210
0.0
220
0.0
230
1.0
 70
    11
 71
     3
 72
    48
 73
    44
 74
     0
 42
0.0000000001
 43
0.0000000001
 40
0.0
 40
0.0
 40
0.0
 40
0.0
 40
0.0909090909090909
 40
0.0909090909090909
 40
0.0909090909090909
 40
0.0909090909090909
 40
0.1818181818181818
 40
0.1818181818181818
 40
0.1818181818181818
 40
0.1818181818181818
 40
0.2727272727272727
 40
0.2727272727272727
 40
0.2727272727272727
 40
0.2727272727272727
 40
0.3636363636363637
 40
0.3636363636363637
 40
0.3636363636363637
 40
0.3636363636363637
 40
0.4545454545454546
 40
0.4545454545454546
 40
0.4545454545454546
 40
0.4545454545454546
 40
0.5454545454545455
 40
0.5454545454545455
 40
0.5454545454545455
 40
0.5454545454545455
 40
0.6363636363636365
 40
0.6363636363636365
 40
0.6363636363636365
 40
0.6363636363636365
 40
0.7272727272727274
 40
0.7272727272727274
 40
0.7272727272727274
 40
0.7272727272727274
 40
0.8181818181818183
 40
0.8181818181818183
 40
0.8181818181818183
 40
0.8181818181818183
 40
0.9090909090909093
 40
0.9090909090909093
 40
0.9090909090909093
 40
0.9090909090909093
 40
1.0
 40
1.0
 40
1.0
 40
1.0
 10
-0.2122755905511811
 20
2.475976377952756
 30
0.0
 10
-0.2122755905511811
 20
2.475976377952756
 30
0.0
 10
-0.1985275590551181
 20
2.475976377952756
 30
0.0
 10
-0.1985275590551181
 20
2.475976377952756
 30
0.0
 10
-0.1985275590551181
 20
2.475976377952756
 30
0.0
 10
-0.1985275590551181
 20
2.475976377952756
 30
0.0
 10
-0.1985275590551181
 20
2.409976377952756
 30
0.0
 10
-0.1985275590551181
 20
2.409976377952756
 30
0.0
 10
-0.1985275590551181
 20
2.409976377952756
 30
0.0
 10
-0.1985275590551181
 20
2.409976377952756
 30
0.0
 10
-0.1771929133858268
 20
2.409976377952756
 30
0.0
 10
-0.1771929133858268
 20
2.409976377952756
 30
0.0
 10
-0.1771929133858268
 20
2.409976377952756
 30
0.0
 10
-0.1771929133858268
 20
2.409976377952756
 30
0.0
 10
-0.1771929133858268
 20
2.399811023622047
 30
0.0
 10
-0.1771929133858268
 20
2.399811023622047
 30
0.0
 10
-0.1771929133858268
 20
2.399811023622047
 30
0.0
 10
-0.1771929133858268
 20
2.399811023622047
 30
0.0
 10
-0.1985275590551181
 20
2.399811023622047
 30
0.0
 10
-0.1985275590551181
 20
2.399811023622047
 30
0.0
 10
-0.1985275590551181
 20
2.399811023622047
 30
0.0
 10
-0.1985275590551181
 20
2.399811023622047
 30
0.0
 10
-0.1985275590551181
 20
2.362448818897638
 30
0.0
 10
-0.1985275590551181
 20
2.362448818897638
 30
0.0
 10
-0.1985275590551181
 20
2.362448818897638
 30
0.0
 10
-0.1985275590551181
 20
2.362448818897638
 30
0.0
 10
-0.2122755905511811
 20
2.362448818897638
 30
0.0
 10
-0.2122755905511811
 20
2.362448818897638
 30
0.0
 10
-0.2122755905511811
 20
2.362448818897638
 30
0.0
 10
-0.2122755905511811
 20
2.362448818897638
 30
0.0
 10
-0.2122755905511811
 20
2.399811023622047
 30
0.0
 10
-0.2122755905511811
 20
2.399811023622047
 30
0.0
 10
-0.2122755905511811
 20
2.399811023622047
 30
0.0
 10
-0.2122755905511811
 20
2.399811023622047
 30
0.0
 10
-0.265748031496063
 20
2.399811023622047
 30
0.0
 10
-0.265748031496063
 20
2.399811023622047
 30
0.0
 10
-0.265748031496063
 20
2.399811023622047
 30
0.0
 10
-0.265748031496063
 20
2.399811023622047
 30
0.0
 10
-0.265748031496063
 20
2.414114173228346
 30
0.0
 10
-0.265748031496063
 20
2.414114173228346
 30
0.0
 10
-0.265748031496063
 20
2.414114173228346
 30
0.0
 10
-0.265748031496063
 20
2.414114173228346
 30
0.0
 10
-0.2122755905511811
 20
2.475976377952756
 30
0.0
 10
-0.2122755905511811
 20
2.475976377952756
 30
0.0
  0
SPLINE
  5
36
330
1F
100
AcDbEntity
  8
Layer 1
 62
   250
100
AcDbSpline
210
0.0
220
0.0
230
1.0
 70
    11
 71
     3
 72
    16
 73
    12
 74
     0
 42
0.0000000001
 43
0.0000000001
 40
0.0
 40
0.0
 40
0.0
 40
0.0
 40
0.3333333333333333
 40
0.3333333333333333
 40
0.3333333333333333
 40
0.3333333333333333
 40
0.6666666666666666
 40
0.6666666666666666
 40
0.6666666666666666
 40
0.6666666666666666
 40
1.0
 40
1.0
 40
1.0
 40
1.0
 10
-0.2122755905511811
 20
2.409976377952756
 30
0.0
 10
-0.2122755905511811
 20
2.409976377952756
 30
0.0
 10
-0.2122755905511811
 20
2.463366141732283
 30
0.0
 10
-0.2122755905511811
 20
2.463366141732283
 30
0.0
 10
-0.2122755905511811
 20
2.463366141732283
 30
0.0
 10
-0.2122755905511811
 20
2.463366141732283
 30
0.0
 10
-0.2583307086614173
 20
2.409976377952756
 30
0.0
 10
-0.2583307086614173
 20
2.409976377952756
 30
0.0
 10
-0.2583307086614173
 20
2.409976377952756
 30
0.0
 10
-0.2583307086614173
 20
2.409976377952756
 30
0.0
 10
-0.2122755905511811
 20
2.409976377952756
 30
0.0
 10
-0.2122755905511811
 20
2.409976377952756
 30
0.0
  0
SPLINE
  5
37
330
1F
100
AcDbEntity
  8
Layer 1
 62
   250
100
AcDbSpline
210
0.0
220
0.0
230
1.0
 70
    11
 71
     3
 72
    80
 73
    76
 74
     0
 42
0.0000000001
 43
0.0000000001
 40
0.0
 40
0.0
 40
0.0
 40
0.0
 40
0.0526315789473684
 40
0.0526315789473684
 40
0.0526315789473684
 40
0.0526315789473684
 40
0.1052631578947368
 40
0.1052631578947368
 40
0.1052631578947368
 40
0.1052631578947368
 40
0.1578947368421053
 40
0.1578947368421053
 40
0.1578947368421053
 40
0.1578947368421053
 40
0.2105263157894737
 40
0.2105263157894737
 40
0.2105263157894737
 40
0.2105263157894737
 40
0.2631578947368421
 40
0.2631578947368421
 40
0.2631578947368421
 40
0.2631578947368421
 40
0.3157894736842105
 40
0.3157894736842105
 40
0.3157894736842105
 40
0.3157894736842105
 40
0.3684210526315789
 40
0.3684210526315789
 40
0.3684210526315789
 40
0.3684210526315789
 40
0.4210526315789474
 40
0.4210526315789474
 40
0.4210526315789474
 40
0.4210526315789474
 40
0.4736842105263158
 40
0.4736842105263158
 40
0.4736842105263158
 40
0.4736842105263158
 40
0.5263157894736842
 40
0.5263157894736842
 40
0.5263157894736842
 40
0.5263157894736842
 40
0.5789473684210527
 40
0.5789473684210527
 40
0.5789473684210527
 40
0.5789473684210527
 40
0.631578947368421
 40
0.631578947368421
 40
0.631578947368421
 40
0.631578947368421
 40
0.6842105263157894
 40
0.6842105263157894
 40
0.6842105263157894
 40
0.6842105263157894
 40
0.7368421052631577
 40
0.7368421052631577
 40
0.7368421052631577
 40
0.7368421052631577
 40
0.7894736842105261
 40
0.7894736842105261
 40
0.7894736842105261
 40
0.7894736842105261
 40
0.8421052631578945
 40
0.8421052631578945
 40
0.8421052631578945
 40
0.8421052631578945
 40
0.8947368421052628
 40
0.8947368421052628
 40
0.8947368421052628
 40
0.8947368421052628
 40
0.9473684210526312
 40
0.9473684210526312
 40
0.9473684210526312
 40
0.9473684210526312
 40
1.0
 40
1.0
 40
1.0
 40
1.0
 10
-0.151248031496063
 20
2.480114173228347
 30
0.0
 10
-0.151248031496063
 20
2.480114173228347
 30
0.0
 10
-0.1458582677165354
 20
2.480114173228347
 30
0.0
 10
-0.1458582677165354
 20
2.480114173228347
 30
0.0
 10
-0.1458582677165354
 20
2.480114173228347
 30
0.0
 10
-0.1458582677165354
 20
2.480114173228347
 30
0.0
 10
-0.1448858267716535
 20
2.475976377952756
 30
0.0
 10
-0.1448858267716535
 20
2.475976377952756
 30
0.0
 10
-0.1448858267716535
 20
2.475976377952756
 30
0.0
 10
-0.1448858267716535
 20
2.475976377952756
 30
0.0
 10
-0.0737755905511811
 20
2.475976377952756
 30
0.0
 10
-0.0737755905511811
 20
2.475976377952756
 30
0.0
 10
-0.0737755905511811
 20
2.475976377952756
 30
0.0
 10
-0.0737755905511811
 20
2.475976377952756
 30
0.0
 10
-0.0737755905511811
 20
2.46905905511811
 30
0.0
 10
-0.0737755905511811
 20
2.46905905511811
 30
0.0
 10
-0.0737755905511811
 20
2.46905905511811
 30
0.0
 10
-0.0822755905511811
 20
2.459224409448819
 30
0.0
 10
-0.09
 20
2.44805905511811
 30
0.0
 10
-0.0969133858267717
 20
2.435476377952756
 30
0.0
 10
-0.0969133858267717
 20
2.435476377952756
 30
0.0
 10
-0.1038307086614173
 20
2.42292125984252
 30
0.0
 10
-0.1091929133858268
 20
2.410141732283465
 30
0.0
 10
-0.113
 20
2.397114173228347
 30
0.0
 10
-0.113
 20
2.397114173228347
 30
0.0
 10
-0.115748031496063
 20
2.387728346456693
 30
0.0
 10
-0.117996062992126
 20
2.376169291338583
 30
0.0
 10
-0.119748031496063
 20
2.362448818897638
 30
0.0
 10
-0.119748031496063
 20
2.362448818897638
 30
0.0
 10
-0.119748031496063
 20
2.362448818897638
 30
0.0
 10
-0.1364133858267717
 20
2.362448818897638
 30
0.0
 10
-0.1364133858267717
 20
2.362448818897638
 30
0.0
 10
-0.1364133858267717
 20
2.362448818897638
 30
0.0
 10
-0.1348031496062992
 20
2.37455905511811
 30
0.0
 10
-0.1321377952755906
 20
2.385866141732284
 30
0.0
 10
-0.1284133858267717
 20
2.396393700787402
 30
0.0
 10
-0.1284133858267717
 20
2.396393700787402
 30
0.0
 10
-0.1246929133858268
 20
2.40692125984252
 30
0.0
 10
-0.1193307086614173
 20
2.41792125984252
 30
0.0
 10
-0.1123031496062992
 20
2.429393700787402
 30
0.0
 10
-0.1123031496062992
 20
2.429393700787402
 30
0.0
 10
-0.1052755905511811
 20
2.440866141732283
 30
0.0
 10
-0.096748031496063
 20
2.452311023622047
 30
0.0
 10
-0.0866929133858268
 20
2.463751968503937
 30
0.0
 10
-0.0866929133858268
 20
2.463751968503937
 30
0.0
 10
-0.0866929133858268
 20
2.463751968503937
 30
0.0
 10
-0.1374133858267717
 20
2.463751968503937
 30
0.0
 10
-0.1374133858267717
 20
2.463751968503937
 30
0.0
 10
-0.1374133858267717
 20
2.463751968503937
 30
0.0
 10
-0.1410826771653543
 20
2.463751968503937
 30
0.0
 10
-0.1436102362204725
 20
2.463586614173229
 30
0.0
 10
-0.1449685039370079
 20
2.463196850393701
 30
0.0
 10
-0.1449685039370079
 20
2.463196850393701
 30
0.0
 10
-0.1463307086614173
 20
2.462811023622047
 30
0.0
 10
-0.1473858267716535
 20
2.462224409448819
 30
0.0
 10
-0.1481377952755906
 20
2.46142125984252
 30
0.0
 10
-0.1481377952755906
 20
2.46142125984252
 30
0.0
 10
-0.1489133858267717
 20
2.460586614173228
 30
0.0
 10
-0.1495551181102362
 20
2.459141732283465
 30
0.0
 10
-0.1501102362204725
 20
2.457086614173229
 30
0.0
 10
-0.1501102362204725
 20
2.457086614173229
 30
0.0
 10
-0.1501102362204725
 20
2.457086614173229
 30
0.0
 10
-0.150496062992126
 20
2.45555905511811
 30
0.0
 10
-0.150496062992126
 20
2.45555905511811
 30
0.0
 10
-0.150496062992126
 20
2.45555905511811
 30
0.0
 10
-0.150496062992126
 20
2.45555905511811
 30
0.0
 10
-0.1532755905511811
 20
2.445948818897638
 30
0.0
 10
-0.1532755905511811
 20
2.445948818897638
 30
0.0
 10
-0.1532755905511811
 20
2.445948818897638
 30
0.0
 10
-0.1532755905511811
 20
2.445948818897638
 30
0.0
 10
-0.1601929133858268
 20
2.44742125984252
 30
0.0
 10
-0.1601929133858268
 20
2.44742125984252
 30
0.0
 10
-0.1601929133858268
 20
2.44742125984252
 30
0.0
 10
-0.1601929133858268
 20
2.44742125984252
 30
0.0
 10
-0.151248031496063
 20
2.480114173228347
 30
0.0
 10
-0.151248031496063
 20
2.480114173228347
 30
0.0
  0
SPLINE
  5
38
330
1F
100
AcDbEntity
  8
Layer 1
 62
   250
100
AcDbSpline
210
0.0
220
0.0
230
1.0
 70
    11
 71
     3
 72
    72
 73
    68
 74
     0
 42
0.0000000001
 43
0.0000000001
 40
0.0
 40
0.0
 40
0.0
 40
0.0
 40
0.0588235294117647
 40
0.0588235294117647
 40
0.0588235294117647
 40
0.0588235294117647
 40
0.1176470588235294
 40
0.1176470588235294
 40
0.1176470588235294
 40
0.1176470588235294
 40
0.1764705882352941
 40
0.1764705882352941
 40
0.1764705882352941
 40
0.1764705882352941
 40
0.2352941176470588
 40
0.2352941176470588
 40
0.2352941176470588
 40
0.2352941176470588
 40
0.2941176470588235
 40
0.2941176470588235
 40
0.2941176470588235
 40
0.2941176470588235
 40
0.3529411764705883
 40
0.3529411764705883
 40
0.3529411764705883
 40
0.3529411764705883
 40
0.411764705882353
 40
0.411764705882353
 40
0.411764705882353
 40
0.411764705882353
 40
0.4705882352941177
 40
0.4705882352941177
 40
0.4705882352941177
 40
0.4705882352941177
 40
0.5294117647058824
 40
0.5294117647058824
 40
0.5294117647058824
 40
0.5294117647058824
 40
0.5882352941176471
 40
0.5882352941176471
 40
0.5882352941176471
 40
0.5882352941176471
 40
0.6470588235294118
 40
0.6470588235294118
 40
0.6470588235294118
 40
0.6470588235294118
 40
0.7058823529411765
 40
0.7058823529411765
 40
0.7058823529411765
 40
0.7058823529411765
 40
0.7647058823529412
 40
0.7647058823529412
 40
0.7647058823529412
 40
0.7647058823529412
 40
0.823529411764706
 40
0.823529411764706
 40
0.823529411764706
 40
0.823529411764706
 40
0.8823529411764707
 40
0.8823529411764707
 40
0.8823529411764707
 40
0.8823529411764707
 40
0.9411764705882354
 40
0.9411764705882354
 40
0.9411764705882354
 40
0.9411764705882354
 40
1.0
 40
1.0
 40
1.0
 40
1.0
 10
-0.6582598425196851
 20
2.288476377952756
 30
0.0
 10
-0.6582598425196851
 20
2.288476377952756
 30
0.0
 10
-0.6521771653543307
 20
2.288476377952756
 30
0.0
 10
-0.6521771653543307
 20
2.288476377952756
 30
0.0
 10
-0.6521771653543307
 20
2.288476377952756
 30
0.0
 10
-0.6521771653543307
 20
2.288476377952756
 30
0.0
 10
-0.6521771653543307
 20
2.194228346456693
 30
0.0
 10
-0.6521771653543307
 20
2.194228346456693
 30
0.0
 10
-0.6521771653543307
 20
2.194228346456693
 30
0.0
 10
-0.6521771653543307
 20
2.189783464566929
 30
0.0
 10
-0.6518700787401575
 20
2.18692125984252
 30
0.0
 10
-0.6513149606299213
 20
2.185641732283465
 30
0.0
 10
-0.6513149606299213
 20
2.185641732283465
 30
0.0
 10
-0.6507322834645669
 20
2.184366141732284
 30
0.0
 10
-0.6498149606299213
 20
2.18342125984252
 30
0.0
 10
-0.6485118110236221
 20
2.182755905511811
 30
0.0
 10
-0.6485118110236221
 20
2.182755905511811
 30
0.0
 10
-0.6472047244094489
 20
2.182114173228347
 30
0.0
 10
-0.6446220472440946
 20
2.181783464566929
 30
0.0
 10
-0.6407598425196851
 20
2.181783464566929
 30
0.0
 10
-0.6407598425196851
 20
2.181783464566929
 30
0.0
 10
-0.6407598425196851
 20
2.181783464566929
 30
0.0
 10
-0.6327874015748032
 20
2.181783464566929
 30
0.0
 10
-0.6327874015748032
 20
2.181783464566929
 30
0.0
 10
-0.6327874015748032
 20
2.181783464566929
 30
0.0
 10
-0.6327874015748032
 20
2.181783464566929
 30
0.0
 10
-0.6327874015748032
 20
2.174948818897638
 30
0.0
 10
-0.6327874015748032
 20
2.174948818897638
 30
0.0
 10
-0.6327874015748032
 20
2.174948818897638
 30
0.0
 10
-0.6327874015748032
 20
2.174948818897638
 30
0.0
 10
-0.6864251968503937
 20
2.174948818897638
 30
0.0
 10
-0.6864251968503937
 20
2.174948818897638
 30
0.0
 10
-0.6864251968503937
 20
2.174948818897638
 30
0.0
 10
-0.6864251968503937
 20
2.174948818897638
 30
0.0
 10
-0.6864251968503937
 20
2.181783464566929
 30
0.0
 10
-0.6864251968503937
 20
2.181783464566929
 30
0.0
 10
-0.6864251968503937
 20
2.181783464566929
 30
0.0
 10
-0.6864251968503937
 20
2.181783464566929
 30
0.0
 10
-0.6775669291338583
 20
2.181783464566929
 30
0.0
 10
-0.6775669291338583
 20
2.181783464566929
 30
0.0
 10
-0.6775669291338583
 20
2.181783464566929
 30
0.0
 10
-0.6737047244094488
 20
2.181783464566929
 30
0.0
 10
-0.6711496062992126
 20
2.182114173228347
 30
0.0
 10
-0.6698700787401575
 20
2.182811023622048
 30
0.0
 10
-0.6698700787401575
 20
2.182811023622048
 30
0.0
 10
-0.6685944881889764
 20
2.183476377952756
 30
0.0
 10
-0.6675944881889764
 20
2.18455905511811
 30
0.0
 10
-0.6668976377952757
 20
2.18605905511811
 30
0.0
 10
-0.6668976377952757
 20
2.18605905511811
 30
0.0
 10
-0.6662047244094489
 20
2.18755905511811
 30
0.0
 10
-0.6658425196850394
 20
2.190283464566929
 30
0.0
 10
-0.6658425196850394
 20
2.194228346456693
 30
0.0
 10
-0.6658425196850394
 20
2.194228346456693
 30
0.0
 10
-0.6658425196850394
 20
2.194228346456693
 30
0.0
 10
-0.6658425196850394
 20
2.271696850393701
 30
0.0
 10
-0.6658425196850394
 20
2.271696850393701
 30
0.0
 10
-0.6658425196850394
 20
2.271696850393701
 30
0.0
 10
-0.6658425196850394
 20
2.271696850393701
 30
0.0
 10
-0.6864251968503937
 20
2.271696850393701
 30
0.0
 10
-0.6864251968503937
 20
2.271696850393701
 30
0.0
 10
-0.6864251968503937
 20
2.271696850393701
 30
0.0
 10
-0.6864251968503937
 20
2.271696850393701
 30
0.0
 10
-0.6864251968503937
 20
2.278696850393701
 30
0.0
 10
-0.6864251968503937
 20
2.278696850393701
 30
0.0
 10
-0.6864251968503937
 20
2.278696850393701
 30
0.0
 10
-0.6752047244094489
 20
2.280279527559055
 30
0.0
 10
-0.6658149606299213
 20
2.283531496062992
 30
0.0
 10
-0.6582598425196851
 20
2.288476377952756
 30
0.0
  0
SPLINE
  5
39
330
1F
100
AcDbEntity
  8
Layer 1
 62
   250
100
AcDbSpline
210
0.0
220
0.0
230
1.0
 70
    11
 71
     3
 72
    60
 73
    56
 74
     0
 42
0.0000000001
 43
0.0000000001
 40
0.0
 40
0.0
 40
0.0
 40
0.0
 40
0.0714285714285714
 40
0.0714285714285714
 40
0.0714285714285714
 40
0.0714285714285714
 40
0.1428571428571429
 40
0.1428571428571429
 40
0.1428571428571429
 40
0.1428571428571429
 40
0.2142857142857143
 40
0.2142857142857143
 40
0.2142857142857143
 40
0.2142857142857143
 40
0.2857142857142857
 40
0.2857142857142857
 40
0.2857142857142857
 40
0.2857142857142857
 40
0.3571428571428571
 40
0.3571428571428571
 40
0.3571428571428571
 40
0.3571428571428571
 40
0.4285714285714285
 40
0.4285714285714285
 40
0.4285714285714285
 40
0.4285714285714285
 40
0.4999999999999999
 40
0.4999999999999999
 40
0.4999999999999999
 40
0.4999999999999999
 40
0.5714285714285713
 40
0.5714285714285713
 40
0.5714285714285713
 40
0.5714285714285713
 40
0.6428571428571427
 40
0.6428571428571427
 40
0.6428571428571427
 40
0.6428571428571427
 40
0.7142857142857141
 40
0.7142857142857141
 40
0.7142857142857141
 40
0.7142857142857141
 40
0.7857142857142855
 40
0.7857142857142855
 40
0.7857142857142855
 40
0.7857142857142855
 40
0.8571428571428569
 40
0.8571428571428569
 40
0.8571428571428569
 40
0.8571428571428569
 40
0.9285714285714283
 40
0.9285714285714283
 40
0.9285714285714283
 40
0.9285714285714283
 40
1.0
 40
1.0
 40
1.0
 40
1.0
 10
-0.6008149606299212
 20
2.246393700787402
 30
0.0
 10
-0.6008149606299212
 20
2.246393700787402
 30
0.0
 10
-0.6052047244094488
 20
2.251783464566929
 30
0.0
 10
-0.6052047244094488
 20
2.251783464566929
 30
0.0
 10
-0.6052047244094488
 20
2.251783464566929
 30
0.0
 10
-0.5940905511811024
 20
2.260838582677165
 30
0.0
 10
-0.588507874015748
 20
2.268393700787402
 30
0.0
 10
-0.588507874015748
 20
2.274476377952756
 30
0.0
 10
-0.588507874015748
 20
2.274476377952756
 30
0.0
 10
-0.588507874015748
 20
2.275169291338583
 30
0.0
 10
-0.5885629921259843
 20
2.27605905511811
 30
0.0
 10
-0.5886771653543307
 20
2.277086614173228
 30
0.0
 10
-0.5886771653543307
 20
2.277086614173228
 30
0.0
 10
-0.5895905511811024
 20
2.276696850393701
 30
0.0
 10
-0.590507874015748
 20
2.276393700787402
 30
0.0
 10
-0.5913700787401575
 20
2.276196850393701
 30
0.0
 10
-0.5913700787401575
 20
2.276196850393701
 30
0.0
 10
-0.5922322834645669
 20
2.275976377952756
 30
0.0
 10
-0.5930354330708662
 20
2.275866141732283
 30
0.0
 10
-0.5938149606299212
 20
2.275866141732283
 30
0.0
 10
-0.5938149606299212
 20
2.275866141732283
 30
0.0
 10
-0.5964251968503938
 20
2.275866141732283
 30
0.0
 10
-0.598507874015748
 20
2.276696850393701
 30
0.0
 10
-0.6000629921259842
 20
2.278393700787402
 30
0.0
 10
-0.6000629921259842
 20
2.278393700787402
 30
0.0
 10
-0.6016496062992126
 20
2.28005905511811
 30
0.0
 10
-0.6024251968503938
 20
2.282196850393701
 30
0.0
 10
-0.6024251968503938
 20
2.284811023622047
 30
0.0
 10
-0.6024251968503938
 20
2.284811023622047
 30
0.0
 10
-0.6024251968503938
 20
2.287366141732284
 30
0.0
 10
-0.6014803149606299
 20
2.289586614173229
 30
0.0
 10
-0.5995905511811024
 20
2.291476377952756
 30
0.0
 10
-0.5995905511811024
 20
2.291476377952756
 30
0.0
 10
-0.5976771653543307
 20
2.293393700787402
 30
0.0
 10
-0.5953976377952757
 20
2.294338582677165
 30
0.0
 10
-0.5927598425196851
 20
2.294338582677165
 30
0.0
 10
-0.5927598425196851
 20
2.294338582677165
 30
0.0
 10
-0.5890629921259842
 20
2.294338582677165
 30
0.0
 10
-0.5858976377952756
 20
2.292866141732284
 30
0.0
 10
-0.5832598425196851
 20
2.289893700787402
 30
0.0
 10
-0.5832598425196851
 20
2.289893700787402
 30
0.0
 10
-0.5806496062992126
 20
2.286948818897638
 30
0.0
 10
-0.5793149606299213
 20
2.283141732283465
 30
0.0
 10
-0.5793149606299213
 20
2.278476377952756
 30
0.0
 10
-0.5793149606299213
 20
2.278476377952756
 30
0.0
 10
-0.5793149606299213
 20
2.27542125984252
 30
0.0
 10
-0.5799527559055119
 20
2.272224409448819
 30
0.0
 10
-0.5812047244094488
 20
2.268893700787402
 30
0.0
 10
-0.5812047244094488
 20
2.268893700787402
 30
0.0
 10
-0.5824527559055118
 20
2.26555905511811
 30
0.0
 10
-0.5842598425196851
 20
2.262476377952756
 30
0.0
 10
-0.5866496062992126
 20
2.259614173228346
 30
0.0
 10
-0.5866496062992126
 20
2.259614173228346
 30
0.0
 10
-0.5890354330708661
 20
2.256783464566929
 30
0.0
 10
-0.5937598425196851
 20
2.252366141732284
 30
0.0
 10
-0.6008149606299212
 20
2.246393700787402
 30
0.0
  0
SPLINE
  5
3A
330
1F
100
AcDbEntity
  8
Layer 1
 62
   250
100
AcDbSpline
210
0.0
220
0.0
230
1.0
 70
    11
 71
     3
 72
    60
 73
    56
 74
     0
 42
0.0000000001
 43
0.0000000001
 40
0.0
 40
0.0
 40
0.0
 40
0.0
 40
0.0714285714285714
 40
0.0714285714285714
 40
0.0714285714285714
 40
0.0714285714285714
 40
0.1428571428571429
 40
0.1428571428571429
 40
0.1428571428571429
 40
0.1428571428571429
 40
0.2142857142857143
 40
0.2142857142857143
 40
0.2142857142857143
 40
0.2142857142857143
 40
0.2857142857142857
 40
0.2857142857142857
 40
0.2857142857142857
 40
0.2857142857142857
 40
0.3571428571428571
 40
0.3571428571428571
 40
0.3571428571428571
 40
0.3571428571428571
 40
0.4285714285714285
 40
0.4285714285714285
 40
0.4285714285714285
 40
0.4285714285714285
 40
0.4999999999999999
 40
0.4999999999999999
 40
0.4999999999999999
 40
0.4999999999999999
 40
0.5714285714285713
 40
0.5714285714285713
 40
0.5714285714285713
 40
0.5714285714285713
 40
0.6428571428571427
 40
0.6428571428571427
 40
0.6428571428571427
 40
0.6428571428571427
 40
0.7142857142857141
 40
0.7142857142857141
 40
0.7142857142857141
 40
0.7142857142857141
 40
0.7857142857142855
 40
0.7857142857142855
 40
0.7857142857142855
 40
0.7857142857142855
 40
0.8571428571428569
 40
0.8571428571428569
 40
0.8571428571428569
 40
0.8571428571428569
 40
0.9285714285714283
 40
0.9285714285714283
 40
0.9285714285714283
 40
0.9285714285714283
 40
1.0
 40
1.0
 40
1.0
 40
1.0
 10
-0.571759842519685
 20
2.246393700787402
 30
0.0
 10
-0.571759842519685
 20
2.246393700787402
 30
0.0
 10
-0.5761496062992126
 20
2.251783464566929
 30
0.0
 10
-0.5761496062992126
 20
2.251783464566929
 30
0.0
 10
-0.5761496062992126
 20
2.251783464566929
 30
0.0
 10
-0.5650354330708661
 20
2.260838582677165
 30
0.0
 10
-0.5594527559055118
 20
2.268393700787402
 30
0.0
 10
-0.5594527559055118
 20
2.274476377952756
 30
0.0
 10
-0.5594527559055118
 20
2.274476377952756
 30
0.0
 10
-0.5594527559055118
 20
2.275169291338583
 30
0.0
 10
-0.5595078740157481
 20
2.27605905511811
 30
0.0
 10
-0.5596220472440945
 20
2.277086614173228
 30
0.0
 10
-0.5596220472440945
 20
2.277086614173228
 30
0.0
 10
-0.5605354330708662
 20
2.276696850393701
 30
0.0
 10
-0.5614527559055118
 20
2.276393700787402
 30
0.0
 10
-0.5623149606299213
 20
2.276196850393701
 30
0.0
 10
-0.5623149606299213
 20
2.276196850393701
 30
0.0
 10
-0.5631771653543307
 20
2.275976377952756
 30
0.0
 10
-0.564007874015748
 20
2.275866141732283
 30
0.0
 10
-0.5648425196850394
 20
2.275866141732283
 30
0.0
 10
-0.5648425196850394
 20
2.275866141732283
 30
0.0
 10
-0.5673976377952756
 20
2.275866141732283
 30
0.0
 10
-0.5694527559055118
 20
2.276696850393701
 30
0.0
 10
-0.571007874015748
 20
2.278393700787402
 30
0.0
 10
-0.571007874015748
 20
2.278393700787402
 30
0.0
 10
-0.5725905511811024
 20
2.28005905511811
 30
0.0
 10
-0.5733700787401576
 20
2.282196850393701
 30
0.0
 10
-0.5733700787401576
 20
2.284811023622047
 30
0.0
 10
-0.5733700787401576
 20
2.284811023622047
 30
0.0
 10
-0.5733700787401576
 20
2.287366141732284
 30
0.0
 10
-0.5724251968503937
 20
2.289586614173229
 30
0.0
 10
-0.5705354330708662
 20
2.291476377952756
 30
0.0
 10
-0.5705354330708662
 20
2.291476377952756
 30
0.0
 10
-0.5686496062992126
 20
2.293393700787402
 30
0.0
 10
-0.5663425196850394
 20
2.294338582677165
 30
0.0
 10
-0.5637047244094489
 20
2.294338582677165
 30
0.0
 10
-0.5637047244094489
 20
2.294338582677165
 30
0.0
 10
-0.560007874015748
 20
2.294338582677165
 30
0.0
 10
-0.5568425196850394
 20
2.292866141732284
 30
0.0
 10
-0.5542047244094488
 20
2.289893700787402
 30
0.0
 10
-0.5542047244094488
 20
2.289893700787402
 30
0.0
 10
-0.5515944881889764
 20
2.286948818897638
 30
0.0
 10
-0.5502598425196851
 20
2.283141732283465
 30
0.0
 10
-0.5502598425196851
 20
2.278476377952756
 30
0.0
 10
-0.5502598425196851
 20
2.278476377952756
 30
0.0
 10
-0.5502598425196851
 20
2.27542125984252
 30
0.0
 10
-0.5508976377952756
 20
2.272224409448819
 30
0.0
 10
-0.5521496062992126
 20
2.268893700787402
 30
0.0
 10
-0.5521496062992126
 20
2.268893700787402
 30
0.0
 10
-0.5533976377952756
 20
2.26555905511811
 30
0.0
 10
-0.5552047244094488
 20
2.262476377952756
 30
0.0
 10
-0.5575905511811024
 20
2.259614173228346
 30
0.0
 10
-0.5575905511811024
 20
2.259614173228346
 30
0.0
 10
-0.5599803149606299
 20
2.256783464566929
 30
0.0
 10
-0.5647047244094489
 20
2.252366141732284
 30
0.0
 10
-0.571759842519685
 20
2.246393700787402
 30
0.0
  0
SPLINE
  5
3B
330
1F
100
AcDbEntity
  8
Layer 1
 62
   250
100
AcDbSpline
210
0.0
220
0.0
230
1.0
 70
    11
 71
     3
 72
   204
 73
   200
 74
     0
 42
0.0000000001
 43
0.0000000001
 40
0.0
 40
0.0
 40
0.0
 40
0.0
 40
0.02
 40
0.02
 40
0.02
 40
0.02
 40
0.04
 40
0.04
 40
0.04
 40
0.04
 40
0.06
 40
0.06
 40
0.06
 40
0.06
 40
0.08
 40
0.08
 40
0.08
 40
0.08
 40
0.1
 40
0.1
 40
0.1
 40
0.1
 40
0.12
 40
0.12
 40
0.12
 40
0.12
 40
0.14
 40
0.14
 40
0.14
 40
0.14
 40
0.16
 40
0.16
 40
0.16
 40
0.16
 40
0.18
 40
0.18
 40
0.18
 40
0.18
 40
0.2
 40
0.2
 40
0.2
 40
0.2
 40
0.22
 40
0.22
 40
0.22
 40
0.22
 40
0.24
 40
0.24
 40
0.24
 40
0.24
 40
0.26
 40
0.26
 40
0.26
 40
0.26
 40
0.28
 40
0.28
 40
0.28
 40
0.28
 40
0.3
 40
0.3
 40
0.3
 40
0.3
 40
0.32
 40
0.32
 40
0.32
 40
0.32
 40
0.34
 40
0.34
 40
0.34
 40
0.34
 40
0.36
 40
0.36
 40
0.36
 40
0.36
 40
0.3800000000000001
 40
0.3800000000000001
 40
0.3800000000000001
 40
0.3800000000000001
 40
0.4000000000000001
 40
0.4000000000000001
 40
0.4000000000000001
 40
0.4000000000000001
 40
0.4200000000000001
 40
0.4200000000000001
 40
0.4200000000000001
 40
0.4200000000000001
 40
0.4400000000000001
 40
0.4400000000000001
 40
0.4400000000000001
 40
0.4400000000000001
 40
0.4600000000000001
 40
0.4600000000000001
 40
0.4600000000000001
 40
0.4600000000000001
 40
0.4800000000000002
 40
0.4800000000000002
 40
0.4800000000000002
 40
0.4800000000000002
 40
0.5000000000000001
 40
0.5000000000000001
 40
0.5000000000000001
 40
0.5000000000000001
 40
0.5200000000000001
 40
0.5200000000000001
 40
0.5200000000000001
 40
0.5200000000000001
 40
0.5400000000000002
 40
0.5400000000000002
 40
0.5400000000000002
 40
0.5400000000000002
 40
0.5600000000000002
 40
0.5600000000000002
 40
0.5600000000000002
 40
0.5600000000000002
 40
0.5800000000000002
 40
0.5800000000000002
 40
0.5800000000000002
 40
0.5800000000000002
 40
0.6000000000000002
 40
0.6000000000000002
 40
0.6000000000000002
 40
0.6000000000000002
 40
0.6200000000000002
 40
0.6200000000000002
 40
0.6200000000000002
 40
0.6200000000000002
 40
0.6400000000000002
 40
0.6400000000000002
 40
0.6400000000000002
 40
0.6400000000000002
 40
0.6600000000000003
 40
0.6600000000000003
 40
0.6600000000000003
 40
0.6600000000000003
 40
0.6800000000000003
 40
0.6800000000000003
 40
0.6800000000000003
 40
0.6800000000000003
 40
0.7000000000000003
 40
0.7000000000000003
 40
0.7000000000000003
 40
0.7000000000000003
 40
0.7200000000000003
 40
0.7200000000000003
 40
0.7200000000000003
 40
0.7200000000000003
 40
0.7400000000000003
 40
0.7400000000000003
 40
0.7400000000000003
 40
0.7400000000000003
 40
0.7600000000000003
 40
0.7600000000000003
 40
0.7600000000000003
 40
0.7600000000000003
 40
0.7800000000000004
 40
0.7800000000000004
 40
0.7800000000000004
 40
0.7800000000000004
 40
0.8000000000000004
 40
0.8000000000000004
 40
0.8000000000000004
 40
0.8000000000000004
 40
0.8200000000000004
 40
0.8200000000000004
 40
0.8200000000000004
 40
0.8200000000000004
 40
0.8400000000000004
 40
0.8400000000000004
 40
0.8400000000000004
 40
0.8400000000000004
 40
0.8600000000000004
 40
0.8600000000000004
 40
0.8600000000000004
 40
0.8600000000000004
 40
0.8800000000000005
 40
0.8800000000000005
 40
0.8800000000000005
 40
0.8800000000000005
 40
0.9000000000000005
 40
0.9000000000000005
 40
0.9000000000000005
 40
0.9000000000000005
 40
0.9200000000000005
 40
0.9200000000000005
 40
0.9200000000000005
 40
0.9200000000000005
 40
0.9400000000000005
 40
0.9400000000000005
 40
0.9400000000000005
 40
0.9400000000000005
 40
0.9600000000000005
 40
0.9600000000000005
 40
0.9600000000000005
 40
0.9600000000000005
 40
0.9800000000000005
 40
0.9800000000000005
 40
0.9800000000000005
 40
0.9800000000000005
 40
1.0
 40
1.0
 40
1.0
 40
1.0
 10
-0.4879527559055119
 20
2.253476377952756
 30
0.0
 10
-0.4879527559055119
 20
2.253476377952756
 30
0.0
 10
-0.447007874015748
 20
2.253476377952756
 30
0.0
 10
-0.447007874015748
 20
2.253476377952756
 30
0.0
 10
-0.447007874015748
 20
2.253476377952756
 30
0.0
 10
-0.447007874015748
 20
2.253476377952756
 30
0.0
 10
-0.447007874015748
 20
2.246641732283465
 30
0.0
 10
-0.447007874015748
 20
2.246641732283465
 30
0.0
 10
-0.447007874015748
 20
2.246641732283465
 30
0.0
 10
-0.447007874015748
 20
2.246641732283465
 30
0.0
 10
-0.4498425196850394
 20
2.246641732283465
 30
0.0
 10
-0.4498425196850394
 20
2.246641732283465
 30
0.0
 10
-0.4498425196850394
 20
2.246641732283465
 30
0.0
 10
-0.45148031496063
 20
2.246641732283465
 30
0.0
 10
-0.45298031496063
 20
2.246448818897638
 30
0.0
 10
-0.4543425196850394
 20
2.246086614173228
 30
0.0
 10
-0.4543425196850394
 20
2.246086614173228
 30
0.0
 10
-0.4551456692913386
 20
2.245866141732284
 30
0.0
 10
-0.4558149606299213
 20
2.245448818897638
 30
0.0
 10
-0.4563149606299213
 20
2.244811023622047
 30
0.0
 10
-0.4563149606299213
 20
2.244811023622047
 30
0.0
 10
-0.4568425196850394
 20
2.244196850393701
 30
0.0
 10
-0.4570905511811024
 20
2.243614173228346
 30
0.0
 10
-0.4570905511811024
 20
2.24305905511811
 30
0.0
 10
-0.4570905511811024
 20
2.24305905511811
 30
0.0
 10
-0.4570905511811024
 20
2.241811023622047
 30
0.0
 10
-0.4560629921259843
 20
2.239948818897638
 30
0.0
 10
-0.4540078740157481
 20
2.237448818897638
 30
0.0
 10
-0.4540078740157481
 20
2.237448818897638
 30
0.0
 10
-0.4540078740157481
 20
2.237448818897638
 30
0.0
 10
-0.4423700787401575
 20
2.222811023622048
 30
0.0
 10
-0.4423700787401575
 20
2.222811023622048
 30
0.0
 10
-0.4423700787401575
 20
2.222811023622048
 30
0.0
 10
-0.4423700787401575
 20
2.222811023622048
 30
0.0
 10
-0.4287874015748032
 20
2.237448818897638
 30
0.0
 10
-0.4287874015748032
 20
2.237448818897638
 30
0.0
 10
-0.4287874015748032
 20
2.237448818897638
 30
0.0
 10
-0.4262874015748032
 20
2.240169291338583
 30
0.0
 10
-0.4250354330708662
 20
2.242196850393701
 30
0.0
 10
-0.4250354330708662
 20
2.24355905511811
 30
0.0
 10
-0.4250354330708662
 20
2.24355905511811
 30
0.0
 10
-0.4250354330708662
 20
2.244531496062992
 30
0.0
 10
-0.4254803149606299
 20
2.245283464566929
 30
0.0
 10
-0.4263425196850394
 20
2.245838582677166
 30
0.0
 10
-0.4263425196850394
 20
2.245838582677166
 30
0.0
 10
-0.4272047244094488
 20
2.246366141732283
 30
0.0
 10
-0.4290629921259843
 20
2.246641732283465
 30
0.0
 10
-0.4319527559055119
 20
2.246641732283465
 30
0.0
 10
-0.4319527559055119
 20
2.246641732283465
 30
0.0
 10
-0.4319527559055119
 20
2.246641732283465
 30
0.0
 10
-0.4350354330708662
 20
2.246641732283465
 30
0.0
 10
-0.4350354330708662
 20
2.246641732283465
 30
0.0
 10
-0.4350354330708662
 20
2.246641732283465
 30
0.0
 10
-0.4350354330708662
 20
2.246641732283465
 30
0.0
 10
-0.4350354330708662
 20
2.253476377952756
 30
0.0
 10
-0.4350354330708662
 20
2.253476377952756
 30
0.0
 10
-0.4350354330708662
 20
2.253476377952756
 30
0.0
 10
-0.4350354330708662
 20
2.253476377952756
 30
0.0
 10
-0.4002874015748032
 20
2.253476377952756
 30
0.0
 10
-0.4002874015748032
 20
2.253476377952756
 30
0.0
 10
-0.4002874015748032
 20
2.253476377952756
 30
0.0
 10
-0.4002874015748032
 20
2.253476377952756
 30
0.0
 10
-0.4002874015748032
 20
2.246641732283465
 30
0.0
 10
-0.4002874015748032
 20
2.246641732283465
 30
0.0
 10
-0.4002874015748032
 20
2.246641732283465
 30
0.0
 10
-0.4037047244094488
 20
2.246476377952756
 30
0.0
 10
-0.4066496062992126
 20
2.245783464566929
 30
0.0
 10
-0.4091181102362205
 20
2.244531496062992
 30
0.0
 10
-0.4091181102362205
 20
2.244531496062992
 30
0.0
 10
-0.4115905511811024
 20
2.243283464566929
 30
0.0
 10
-0.4145078740157481
 20
2.24092125984252
 30
0.0
 10
-0.4178700787401575
 20
2.237448818897638
 30
0.0
 10
-0.4178700787401575
 20
2.237448818897638
 30
0.0
 10
-0.4178700787401575
 20
2.237448818897638
 30
0.0
 10
-0.436507874015748
 20
2.218086614173228
 30
0.0
 10
-0.436507874015748
 20
2.218086614173228
 30
0.0
 10
-0.436507874015748
 20
2.218086614173228
 30
0.0
 10
-0.436507874015748
 20
2.218086614173228
 30
0.0
 10
-0.4133149606299213
 20
2.191641732283465
 30
0.0
 10
-0.4133149606299213
 20
2.191641732283465
 30
0.0
 10
-0.4133149606299213
 20
2.191641732283465
 30
0.0
 10
-0.4133149606299213
 20
2.191641732283465
 30
0.0
 10
-0.4124251968503937
 20
2.190503937007874
 30
0.0
 10
-0.4124251968503937
 20
2.190503937007874
 30
0.0
 10
-0.4124251968503937
 20
2.190503937007874
 30
0.0
 10
-0.4101496062992126
 20
2.18755905511811
 30
0.0
 10
-0.4075905511811024
 20
2.185196850393701
 30
0.0
 10
-0.4047598425196851
 20
2.18342125984252
 30
0.0
 10
-0.4047598425196851
 20
2.18342125984252
 30
0.0
 10
-0.4032047244094488
 20
2.182393700787402
 30
0.0
 10
-0.4007598425196851
 20
2.181838582677166
 30
0.0
 10
-0.3974527559055118
 20
2.181783464566929
 30
0.0
 10
-0.3974527559055118
 20
2.181783464566929
 30
0.0
 10
-0.3974527559055118
 20
2.181783464566929
 30
0.0
 10
-0.3974527559055118
 20
2.174948818897638
 30
0.0
 10
-0.3974527559055118
 20
2.174948818897638
 30
0.0
 10
-0.3974527559055118
 20
2.174948818897638
 30
0.0
 10
-0.3974527559055118
 20
2.174948818897638
 30
0.0
 10
-0.4373976377952756
 20
2.174948818897638
 30
0.0
 10
-0.4373976377952756
 20
2.174948818897638
 30
0.0
 10
-0.4373976377952756
 20
2.174948818897638
 30
0.0
 10
-0.4373976377952756
 20
2.174948818897638
 30
0.0
 10
-0.4373976377952756
 20
2.181783464566929
 30
0.0
 10
-0.4373976377952756
 20
2.181783464566929
 30
0.0
 10
-0.4373976377952756
 20
2.181783464566929
 30
0.0
 10
-0.4373976377952756
 20
2.181783464566929
 30
0.0
 10
-0.4339803149606299
 20
2.181783464566929
 30
0.0
 10
-0.4339803149606299
 20
2.181783464566929
 30
0.0
 10
-0.4339803149606299
 20
2.181783464566929
 30
0.0
 10
-0.4313700787401575
 20
2.181783464566929
 30
0.0
 10
-0.4297322834645669
 20
2.181948818897638
 30
0.0
 10
-0.429007874015748
 20
2.182283464566929
 30
0.0
 10
-0.429007874015748
 20
2.182283464566929
 30
0.0
 10
-0.4278425196850394
 20
2.182811023622048
 30
0.0
 10
-0.4272322834645669
 20
2.183728346456693
 30
0.0
 10
-0.4272322834645669
 20
2.185031496062992
 30
0.0
 10
-0.4272322834645669
 20
2.185031496062992
 30
0.0
 10
-0.4272322834645669
 20
2.186228346456693
 30
0.0
 10
-0.4285354330708662
 20
2.18842125984252
 30
0.0
 10
-0.4311496062992126
 20
2.191641732283465
 30
0.0
 10
-0.4311496062992126
 20
2.191641732283465
 30
0.0
 10
-0.4311496062992126
 20
2.191641732283465
 30
0.0
 10
-0.4459527559055118
 20
2.209783464566929
 30
0.0
 10
-0.4459527559055118
 20
2.209783464566929
 30
0.0
 10
-0.4459527559055118
 20
2.209783464566929
 30
0.0
 10
-0.4459527559055118
 20
2.209783464566929
 30
0.0
 10
-0.4624803149606299
 20
2.191641732283465
 30
0.0
 10
-0.4624803149606299
 20
2.191641732283465
 30
0.0
 10
-0.4624803149606299
 20
2.191641732283465
 30
0.0
 10
-0.4624803149606299
 20
2.191641732283465
 30
0.0
 10
-0.4640905511811024
 20
2.189669291338583
 30
0.0
 10
-0.4640905511811024
 20
2.189669291338583
 30
0.0
 10
-0.4640905511811024
 20
2.189669291338583
 30
0.0
 10
-0.4640905511811024
 20
2.189669291338583
 30
0.0
 10
-0.4649803149606299
 20
2.188696850393701
 30
0.0
 10
-0.4649803149606299
 20
2.188696850393701
 30
0.0
 10
-0.4649803149606299
 20
2.188696850393701
 30
0.0
 10
-0.4663425196850394
 20
2.187228346456693
 30
0.0
 10
-0.4670354330708662
 20
2.185948818897638
 30
0.0
 10
-0.4670354330708662
 20
2.184811023622047
 30
0.0
 10
-0.4670354330708662
 20
2.184811023622047
 30
0.0
 10
-0.4670354330708662
 20
2.183755905511811
 30
0.0
 10
-0.4666181102362205
 20
2.183003937007874
 30
0.0
 10
-0.4657598425196851
 20
2.182503937007874
 30
0.0
 10
-0.4657598425196851
 20
2.182503937007874
 30
0.0
 10
-0.4649251968503937
 20
2.182031496062992
 30
0.0
 10
-0.4630354330708661
 20
2.181783464566929
 30
0.0
 10
-0.4601181102362205
 20
2.181783464566929
 30
0.0
 10
-0.4601181102362205
 20
2.181783464566929
 30
0.0
 10
-0.4601181102362205
 20
2.181783464566929
 30
0.0
 10
-0.4568425196850394
 20
2.181783464566929
 30
0.0
 10
-0.4568425196850394
 20
2.181783464566929
 30
0.0
 10
-0.4568425196850394
 20
2.181783464566929
 30
0.0
 10
-0.4568425196850394
 20
2.181783464566929
 30
0.0
 10
-0.4568425196850394
 20
2.174948818897638
 30
0.0
 10
-0.4568425196850394
 20
2.174948818897638
 30
0.0
 10
-0.4568425196850394
 20
2.174948818897638
 30
0.0
 10
-0.4568425196850394
 20
2.174948818897638
 30
0.0
 10
-0.4911181102362205
 20
2.174948818897638
 30
0.0
 10
-0.4911181102362205
 20
2.174948818897638
 30
0.0
 10
-0.4911181102362205
 20
2.174948818897638
 30
0.0
 10
-0.4911181102362205
 20
2.174948818897638
 30
0.0
 10
-0.4911181102362205
 20
2.181783464566929
 30
0.0
 10
-0.4911181102362205
 20
2.181783464566929
 30
0.0
 10
-0.4911181102362205
 20
2.181783464566929
 30
0.0
 10
-0.4884527559055119
 20
2.181838582677166
 30
0.0
 10
-0.4863700787401575
 20
2.182114173228347
 30
0.0
 10
-0.4848425196850394
 20
2.182641732283465
 30
0.0
 10
-0.4848425196850394
 20
2.182641732283465
 30
0.0
 10
-0.4833425196850394
 20
2.183141732283465
 30
0.0
 10
-0.4818700787401575
 20
2.183948818897638
 30
0.0
 10
-0.4804527559055118
 20
2.185031496062992
 30
0.0
 10
-0.4804527559055118
 20
2.185031496062992
 30
0.0
 10
-0.4780078740157481
 20
2.187003937007874
 30
0.0
 10
-0.4762598425196851
 20
2.188531496062992
 30
0.0
 10
-0.4751732283464567
 20
2.189669291338583
 30
0.0
 10
-0.4751732283464567
 20
2.189669291338583
 30
0.0
 10
-0.4751732283464567
 20
2.189669291338583
 30
0.0
 10
-0.4513149606299213
 20
2.214169291338583
 30
0.0
 10
-0.4513149606299213
 20
2.214169291338583
 30
0.0
 10
-0.4513149606299213
 20
2.214169291338583
 30
0.0
 10
-0.4513149606299213
 20
2.214169291338583
 30
0.0
 10
-0.4715905511811024
 20
2.237448818897638
 30
0.0
 10
-0.4715905511811024
 20
2.237448818897638
 30
0.0
 10
-0.4715905511811024
 20
2.237448818897638
 30
0.0
 10
-0.4741456692913386
 20
2.240338582677166
 30
0.0
 10
-0.4761456692913386
 20
2.242338582677165
 30
0.0
 10
-0.4776456692913386
 20
2.243503937007874
 30
0.0
 10
-0.4776456692913386
 20
2.243503937007874
 30
0.0
 10
-0.4791456692913386
 20
2.244669291338583
 30
0.0
 10
-0.4805905511811024
 20
2.245503937007874
 30
0.0
 10
-0.4820078740157481
 20
2.245948818897638
 30
0.0
 10
-0.4820078740157481
 20
2.245948818897638
 30
0.0
 10
-0.4834251968503937
 20
2.24642125984252
 30
0.0
 10
-0.4853976377952756
 20
2.246641732283465
 30
0.0
 10
-0.4879527559055119
 20
2.246641732283465
 30
0.0
 10
-0.4879527559055119
 20
2.246641732283465
 30
0.0
 10
-0.4879527559055119
 20
2.246641732283465
 30
0.0
 10
-0.4879527559055119
 20
2.253476377952756
 30
0.0
 10
-0.4879527559055119
 20
2.253476377952756
 30
0.0
  0
SPLINE
  5
3C
330
1F
100
AcDbEntity
  8
Layer 1
 62
   250
100
AcDbSpline
210
0.0
220
0.0
230
1.0
 70
    11
 71
     3
 72
   172
 73
   168
 74
     0
 42
0.0000000001
 43
0.0000000001
 40
0.0
 40
0.0
 40
0.0
 40
0.0
 40
0.0238095238095238
 40
0.0238095238095238
 40
0.0238095238095238
 40
0.0238095238095238
 40
0.0476190476190476
 40
0.0476190476190476
 40
0.0476190476190476
 40
0.0476190476190476
 40
0.0714285714285714
 40
0.0714285714285714
 40
0.0714285714285714
 40
0.0714285714285714
 40
0.0952380952380952
 40
0.0952380952380952
 40
0.0952380952380952
 40
0.0952380952380952
 40
0.119047619047619
 40
0.119047619047619
 40
0.119047619047619
 40
0.119047619047619
 40
0.1428571428571429
 40
0.1428571428571429
 40
0.1428571428571429
 40
0.1428571428571429
 40
0.1666666666666667
 40
0.1666666666666667
 40
0.1666666666666667
 40
0.1666666666666667
 40
0.1904761904761905
 40
0.1904761904761905
 40
0.1904761904761905
 40
0.1904761904761905
 40
0.2142857142857143
 40
0.2142857142857143
 40
0.2142857142857143
 40
0.2142857142857143
 40
0.2380952380952381
 40
0.2380952380952381
 40
0.2380952380952381
 40
0.2380952380952381
 40
0.2619047619047619
 40
0.2619047619047619
 40
0.2619047619047619
 40
0.2619047619047619
 40
0.2857142857142857
 40
0.2857142857142857
 40
0.2857142857142857
 40
0.2857142857142857
 40
0.3095238095238095
 40
0.3095238095238095
 40
0.3095238095238095
 40
0.3095238095238095
 40
0.3333333333333334
 40
0.3333333333333334
 40
0.3333333333333334
 40
0.3333333333333334
 40
0.3571428571428572
 40
0.3571428571428572
 40
0.3571428571428572
 40
0.3571428571428572
 40
0.380952380952381
 40
0.380952380952381
 40
0.380952380952381
 40
0.380952380952381
 40
0.4047619047619049
 40
0.4047619047619049
 40
0.4047619047619049
 40
0.4047619047619049
 40
0.4285714285714287
 40
0.4285714285714287
 40
0.4285714285714287
 40
0.4285714285714287
 40
0.4523809523809526
 40
0.4523809523809526
 40
0.4523809523809526
 40
0.4523809523809526
 40
0.4761904761904764
 40
0.4761904761904764
 40
0.4761904761904764
 40
0.4761904761904764
 40
0.5000000000000002
 40
0.5000000000000002
 40
0.5000000000000002
 40
0.5000000000000002
 40
0.5238095238095241
 40
0.5238095238095241
 40
0.5238095238095241
 40
0.5238095238095241
 40
0.5476190476190479
 40
0.5476190476190479
 40
0.5476190476190479
 40
0.5476190476190479
 40
0.5714285714285717
 40
0.5714285714285717
 40
0.5714285714285717
 40
0.5714285714285717
 40
0.5952380952380956
 40
0.5952380952380956
 40
0.5952380952380956
 40
0.5952380952380956
 40
0.6190476190476194
 40
0.6190476190476194
 40
0.6190476190476194
 40
0.6190476190476194
 40
0.6428571428571432
 40
0.6428571428571432
 40
0.6428571428571432
 40
0.6428571428571432
 40
0.6666666666666671
 40
0.6666666666666671
 40
0.6666666666666671
 40
0.6666666666666671
 40
0.6904761904761909
 40
0.6904761904761909
 40
0.6904761904761909
 40
0.6904761904761909
 40
0.7142857142857148
 40
0.7142857142857148
 40
0.7142857142857148
 40
0.7142857142857148
 40
0.7380952380952386
 40
0.7380952380952386
 40
0.7380952380952386
 40
0.7380952380952386
 40
0.7619047619047624
 40
0.7619047619047624
 40
0.7619047619047624
 40
0.7619047619047624
 40
0.7857142857142863
 40
0.7857142857142863
 40
0.7857142857142863
 40
0.7857142857142863
 40
0.8095238095238101
 40
0.8095238095238101
 40
0.8095238095238101
 40
0.8095238095238101
 40
0.8333333333333339
 40
0.8333333333333339
 40
0.8333333333333339
 40
0.8333333333333339
 40
0.8571428571428578
 40
0.8571428571428578
 40
0.8571428571428578
 40
0.8571428571428578
 40
0.8809523809523816
 40
0.8809523809523816
 40
0.8809523809523816
 40
0.8809523809523816
 40
0.9047619047619054
 40
0.9047619047619054
 40
0.9047619047619054
 40
0.9047619047619054
 40
0.9285714285714293
 40
0.9285714285714293
 40
0.9285714285714293
 40
0.9285714285714293
 40
0.9523809523809531
 40
0.9523809523809531
 40
0.9523809523809531
 40
0.9523809523809531
 40
0.9761904761904769
 40
0.9761904761904769
 40
0.9761904761904769
 40
0.9761904761904769
 40
1.0
 40
1.0
 40
1.0
 40
1.0
 10
-0.322259842519685
 20
2.258114173228347
 30
0.0
 10
-0.322259842519685
 20
2.258114173228347
 30
0.0
 10
-0.3300669291338583
 20
2.259338582677165
 30
0.0
 10
-0.3300669291338583
 20
2.259338582677165
 30
0.0
 10
-0.3300669291338583
 20
2.259338582677165
 30
0.0
 10
-0.3293700787401575
 20
2.265196850393701
 30
0.0
 10
-0.3278425196850394
 20
2.27005905511811
 30
0.0
 10
-0.325507874015748
 20
2.27392125984252
 30
0.0
 10
-0.325507874015748
 20
2.27392125984252
 30
0.0
 10
-0.3224251968503937
 20
2.279114173228347
 30
0.0
 10
-0.3180669291338583
 20
2.283169291338583
 30
0.0
 10
-0.3124251968503937
 20
2.28605905511811
 30
0.0
 10
-0.3124251968503937
 20
2.28605905511811
 30
0.0
 10
-0.3067598425196851
 20
2.288976377952756
 30
0.0
 10
-0.3002874015748032
 20
2.29042125984252
 30
0.0
 10
-0.2929527559055118
 20
2.29042125984252
 30
0.0
 10
-0.2929527559055118
 20
2.29042125984252
 30
0.0
 10
-0.2857598425196851
 20
2.29042125984252
 30
0.0
 10
-0.2793976377952756
 20
2.289141732283465
 30
0.0
 10
-0.2739251968503937
 20
2.286559055118111
 30
0.0
 10
-0.2739251968503937
 20
2.286559055118111
 30
0.0
 10
-0.2684527559055118
 20
2.283976377952756
 30
0.0
 10
-0.2643149606299213
 20
2.28055905511811
 30
0.0
 10
-0.261511811023622
 20
2.276311023622047
 30
0.0
 10
-0.261511811023622
 20
2.276311023622047
 30
0.0
 10
-0.2587047244094488
 20
2.27205905511811
 30
0.0
 10
-0.2573149606299213
 20
2.267448818897638
 30
0.0
 10
-0.2573149606299213
 20
2.262503937007874
 30
0.0
 10
-0.2573149606299213
 20
2.262503937007874
 30
0.0
 10
-0.2573149606299213
 20
2.258169291338583
 30
0.0
 10
-0.2583700787401575
 20
2.254283464566929
 30
0.0
 10
-0.2604842519685039
 20
2.250866141732284
 30
0.0
 10
-0.2604842519685039
 20
2.250866141732284
 30
0.0
 10
-0.2626220472440945
 20
2.247448818897638
 30
0.0
 10
-0.265759842519685
 20
2.244393700787402
 30
0.0
 10
-0.2699251968503937
 20
2.241669291338583
 30
0.0
 10
-0.2699251968503937
 20
2.241669291338583
 30
0.0
 10
-0.2728700787401575
 20
2.239783464566929
 30
0.0
 10
-0.2766771653543307
 20
2.238114173228347
 30
0.0
 10
-0.2813976377952756
 20
2.236724409448819
 30
0.0
 10
-0.2813976377952756
 20
2.236724409448819
 30
0.0
 10
-0.2763700787401575
 20
2.236003937007874
 30
0.0
 10
-0.272232283464567
 20
2.234838582677166
 30
0.0
 10
-0.2690393700787402
 20
2.233224409448819
 30
0.0
 10
-0.2690393700787402
 20
2.233224409448819
 30
0.0
 10
-0.2638425196850394
 20
2.230559055118111
 30
0.0
 10
-0.259732283464567
 20
2.226893700787402
 30
0.0
 10
-0.256759842519685
 20
2.222224409448819
 30
0.0
 10
-0.256759842519685
 20
2.222224409448819
 30
0.0
 10
-0.253759842519685
 20
2.21755905511811
 30
0.0
 10
-0.2522874015748032
 20
2.212448818897638
 30
0.0
 10
-0.2522874015748032
 20
2.206838582677166
 30
0.0
 10
-0.2522874015748032
 20
2.206838582677166
 30
0.0
 10
-0.2522874015748032
 20
2.197893700787402
 30
0.0
 10
-0.2562047244094488
 20
2.190003937007874
 30
0.0
 10
-0.2640669291338583
 20
2.183196850393701
 30
0.0
 10
-0.2640669291338583
 20
2.183196850393701
 30
0.0
 10
-0.2719527559055118
 20
2.176393700787402
 30
0.0
 10
-0.2821220472440945
 20
2.173003937007874
 30
0.0
 10
-0.2945944881889764
 20
2.173003937007874
 30
0.0
 10
-0.2945944881889764
 20
2.173003937007874
 30
0.0
 10
-0.3068976377952756
 20
2.173003937007874
 30
0.0
 10
-0.317259842519685
 20
2.176283464566929
 30
0.0
 10
-0.3256771653543307
 20
2.182838582677166
 30
0.0
 10
-0.3256771653543307
 20
2.182838582677166
 30
0.0
 10
-0.332732283464567
 20
2.18842125984252
 30
0.0
 10
-0.3362598425196851
 20
2.19405905511811
 30
0.0
 10
-0.3362598425196851
 20
2.199696850393701
 30
0.0
 10
-0.3362598425196851
 20
2.199696850393701
 30
0.0
 10
-0.3362598425196851
 20
2.20192125984252
 30
0.0
 10
-0.3355354330708661
 20
2.203783464566929
 30
0.0
 10
-0.3340944881889764
 20
2.205255905511811
 30
0.0
 10
-0.3340944881889764
 20
2.205255905511811
 30
0.0
 10
-0.3326771653543307
 20
2.206755905511811
 30
0.0
 10
-0.3308700787401575
 20
2.207503937007874
 30
0.0
 10
-0.3286771653543307
 20
2.207503937007874
 30
0.0
 10
-0.3286771653543307
 20
2.207503937007874
 30
0.0
 10
-0.3263149606299213
 20
2.207503937007874
 30
0.0
 10
-0.324259842519685
 20
2.206586614173228
 30
0.0
 10
-0.3225944881889764
 20
2.204724409448819
 30
0.0
 10
-0.3225944881889764
 20
2.204724409448819
 30
0.0
 10
-0.3216771653543307
 20
2.203696850393701
 30
0.0
 10
-0.3205944881889764
 20
2.201228346456693
 30
0.0
 10
-0.3194251968503937
 20
2.197338582677165
 30
0.0
 10
-0.3194251968503937
 20
2.197338582677165
 30
0.0
 10
-0.3177322834645669
 20
2.191838582677165
 30
0.0
 10
-0.3148700787401575
 20
2.187669291338583
 30
0.0
 10
-0.3108700787401575
 20
2.184811023622047
 30
0.0
 10
-0.3108700787401575
 20
2.184811023622047
 30
0.0
 10
-0.3068425196850394
 20
2.18192125984252
 30
0.0
 10
-0.3018700787401575
 20
2.180476377952756
 30
0.0
 10
-0.2958976377952756
 20
2.180476377952756
 30
0.0
 10
-0.2958976377952756
 20
2.180476377952756
 30
0.0
 10
-0.2905669291338583
 20
2.180476377952756
 30
0.0
 10
-0.2858149606299213
 20
2.181641732283465
 30
0.0
 10
-0.2816220472440945
 20
2.183976377952756
 30
0.0
 10
-0.2816220472440945
 20
2.183976377952756
 30
0.0
 10
-0.2773976377952756
 20
2.186311023622047
 30
0.0
 10
-0.2740944881889764
 20
2.189614173228347
 30
0.0
 10
-0.2716496062992126
 20
2.19392125984252
 30
0.0
 10
-0.2716496062992126
 20
2.19392125984252
 30
0.0
 10
-0.2692047244094488
 20
2.198196850393701
 30
0.0
 10
-0.2679803149606299
 20
2.202893700787402
 30
0.0
 10
-0.2679803149606299
 20
2.207976377952756
 30
0.0
 10
-0.2679803149606299
 20
2.207976377952756
 30
0.0
 10
-0.2679803149606299
 20
2.212114173228347
 30
0.0
 10
-0.2688700787401575
 20
2.215811023622047
 30
0.0
 10
-0.2706220472440945
 20
2.219086614173229
 30
0.0
 10
-0.2706220472440945
 20
2.219086614173229
 30
0.0
 10
-0.2723976377952756
 20
2.222393700787402
 30
0.0
 10
-0.2748976377952756
 20
2.225169291338583
 30
0.0
 10
-0.2781496062992126
 20
2.227448818897638
 30
0.0
 10
-0.2781496062992126
 20
2.227448818897638
 30
0.0
 10
-0.2806496062992126
 20
2.229224409448819
 30
0.0
 10
-0.2838425196850394
 20
2.230476377952756
 30
0.0
 10
-0.2877047244094488
 20
2.231169291338583
 30
0.0
 10
-0.2877047244094488
 20
2.231169291338583
 30
0.0
 10
-0.2915944881889764
 20
2.231893700787402
 30
0.0
 10
-0.2950944881889764
 20
2.232251968503937
 30
0.0
 10
-0.2981771653543307
 20
2.232251968503937
 30
0.0
 10
-0.2981771653543307
 20
2.232251968503937
 30
0.0
 10
-0.2981771653543307
 20
2.232251968503937
 30
0.0
 10
-0.3057322834645669
 20
2.232251968503937
 30
0.0
 10
-0.3057322834645669
 20
2.232251968503937
 30
0.0
 10
-0.3057322834645669
 20
2.232251968503937
 30
0.0
 10
-0.3057322834645669
 20
2.232251968503937
 30
0.0
 10
-0.3057322834645669
 20
2.240141732283465
 30
0.0
 10
-0.3057322834645669
 20
2.240141732283465
 30
0.0
 10
-0.3057322834645669
 20
2.240141732283465
 30
0.0
 10
-0.3057322834645669
 20
2.240141732283465
 30
0.0
 10
-0.3009251968503937
 20
2.240141732283465
 30
0.0
 10
-0.3009251968503937
 20
2.240141732283465
 30
0.0
 10
-0.3009251968503937
 20
2.240141732283465
 30
0.0
 10
-0.2961771653543307
 20
2.240141732283465
 30
0.0
 10
-0.2916220472440945
 20
2.240696850393701
 30
0.0
 10
-0.2872598425196851
 20
2.241811023622047
 30
0.0
 10
-0.2872598425196851
 20
2.241811023622047
 30
0.0
 10
-0.2829251968503937
 20
2.24292125984252
 30
0.0
 10
-0.2794527559055118
 20
2.245196850393701
 30
0.0
 10
-0.2768425196850394
 20
2.248669291338583
 30
0.0
 10
-0.2768425196850394
 20
2.248669291338583
 30
0.0
 10
-0.2742598425196851
 20
2.252141732283465
 30
0.0
 10
-0.2729527559055118
 20
2.256086614173229
 30
0.0
 10
-0.2729527559055118
 20
2.260476377952756
 30
0.0
 10
-0.2729527559055118
 20
2.260476377952756
 30
0.0
 10
-0.2729527559055118
 20
2.264279527559055
 30
0.0
 10
-0.2738425196850394
 20
2.267696850393701
 30
0.0
 10
-0.2756771653543307
 20
2.270724409448819
 30
0.0
 10
-0.2756771653543307
 20
2.270724409448819
 30
0.0
 10
-0.2774803149606299
 20
2.273779527559055
 30
0.0
 10
-0.2801496062992126
 20
2.276196850393701
 30
0.0
 10
-0.2836771653543307
 20
2.277976377952756
 30
0.0
 10
-0.2836771653543307
 20
2.277976377952756
 30
0.0
 10
-0.2872047244094488
 20
2.279751968503937
 30
0.0
 10
-0.2912874015748032
 20
2.280669291338583
 30
0.0
 10
-0.2958976377952756
 20
2.280669291338583
 30
0.0
 10
-0.2958976377952756
 20
2.280669291338583
 30
0.0
 10
-0.3003976377952756
 20
2.280669291338583
 30
0.0
 10
-0.3045393700787402
 20
2.279724409448819
 30
0.0
 10
-0.3083149606299213
 20
2.277893700787402
 30
0.0
 10
-0.3083149606299213
 20
2.277893700787402
 30
0.0
 10
-0.3120669291338583
 20
2.27605905511811
 30
0.0
 10
-0.3150944881889764
 20
2.273586614173229
 30
0.0
 10
-0.3173700787401575
 20
2.270476377952756
 30
0.0
 10
-0.3173700787401575
 20
2.270476377952756
 30
0.0
 10
-0.3196496062992126
 20
2.267393700787402
 30
0.0
 10
-0.3212874015748032
 20
2.263279527559055
 30
0.0
 10
-0.322259842519685
 20
2.258114173228347
 30
0.0
  0
SPLINE
  5
3D
330
1F
100
AcDbEntity
  8
Layer 1
 62
   250
100
AcDbSpline
210
0.0
220
0.0
230
1.0
 70
    11
 71
     3
 72
    60
 73
    56
 74
     0
 42
0.0000000001
 43
0.0000000001
 40
0.0
 40
0.0
 40
0.0
 40
0.0
 40
0.0714285714285714
 40
0.0714285714285714
 40
0.0714285714285714
 40
0.0714285714285714
 40
0.1428571428571429
 40
0.1428571428571429
 40
0.1428571428571429
 40
0.1428571428571429
 40
0.2142857142857143
 40
0.2142857142857143
 40
0.2142857142857143
 40
0.2142857142857143
 40
0.2857142857142857
 40
0.2857142857142857
 40
0.2857142857142857
 40
0.2857142857142857
 40
0.3571428571428571
 40
0.3571428571428571
 40
0.3571428571428571
 40
0.3571428571428571
 40
0.4285714285714285
 40
0.4285714285714285
 40
0.4285714285714285
 40
0.4285714285714285
 40
0.4999999999999999
 40
0.4999999999999999
 40
0.4999999999999999
 40
0.4999999999999999
 40
0.5714285714285713
 40
0.5714285714285713
 40
0.5714285714285713
 40
0.5714285714285713
 40
0.6428571428571427
 40
0.6428571428571427
 40
0.6428571428571427
 40
0.6428571428571427
 40
0.7142857142857141
 40
0.7142857142857141
 40
0.7142857142857141
 40
0.7142857142857141
 40
0.7857142857142855
 40
0.7857142857142855
 40
0.7857142857142855
 40
0.7857142857142855
 40
0.8571428571428569
 40
0.8571428571428569
 40
0.8571428571428569
 40
0.8571428571428569
 40
0.9285714285714283
 40
0.9285714285714283
 40
0.9285714285714283
 40
0.9285714285714283
 40
1.0
 40
1.0
 40
1.0
 40
1.0
 10
-0.2308700787401575
 20
2.246393700787402
 30
0.0
 10
-0.2308700787401575
 20
2.246393700787402
 30
0.0
 10
-0.235259842519685
 20
2.251783464566929
 30
0.0
 10
-0.235259842519685
 20
2.251783464566929
 30
0.0
 10
-0.235259842519685
 20
2.251783464566929
 30
0.0
 10
-0.2241456692913386
 20
2.260838582677165
 30
0.0
 10
-0.2185629921259843
 20
2.268393700787402
 30
0.0
 10
-0.2185629921259843
 20
2.274476377952756
 30
0.0
 10
-0.2185629921259843
 20
2.274476377952756
 30
0.0
 10
-0.2185629921259843
 20
2.275169291338583
 30
0.0
 10
-0.2186181102362205
 20
2.27605905511811
 30
0.0
 10
-0.2187322834645669
 20
2.277086614173228
 30
0.0
 10
-0.2187322834645669
 20
2.277086614173228
 30
0.0
 10
-0.2196456692913386
 20
2.276696850393701
 30
0.0
 10
-0.2205629921259843
 20
2.276393700787402
 30
0.0
 10
-0.2214251968503937
 20
2.276196850393701
 30
0.0
 10
-0.2214251968503937
 20
2.276196850393701
 30
0.0
 10
-0.2222874015748032
 20
2.275976377952756
 30
0.0
 10
-0.2230905511811024
 20
2.275866141732283
 30
0.0
 10
-0.2238700787401575
 20
2.275866141732283
 30
0.0
 10
-0.2238700787401575
 20
2.275866141732283
 30
0.0
 10
-0.2264803149606299
 20
2.275866141732283
 30
0.0
 10
-0.2285629921259843
 20
2.276696850393701
 30
0.0
 10
-0.2301181102362205
 20
2.278393700787402
 30
0.0
 10
-0.2301181102362205
 20
2.278393700787402
 30
0.0
 10
-0.2317047244094488
 20
2.28005905511811
 30
0.0
 10
-0.2324803149606299
 20
2.282196850393701
 30
0.0
 10
-0.2324803149606299
 20
2.284811023622047
 30
0.0
 10
-0.2324803149606299
 20
2.284811023622047
 30
0.0
 10
-0.2324803149606299
 20
2.287366141732284
 30
0.0
 10
-0.2315354330708662
 20
2.289586614173229
 30
0.0
 10
-0.2296456692913386
 20
2.291476377952756
 30
0.0
 10
-0.2296456692913386
 20
2.291476377952756
 30
0.0
 10
-0.227732283464567
 20
2.293393700787402
 30
0.0
 10
-0.2254527559055118
 20
2.294338582677165
 30
0.0
 10
-0.2228149606299213
 20
2.294338582677165
 30
0.0
 10
-0.2228149606299213
 20
2.294338582677165
 30
0.0
 10
-0.2191181102362205
 20
2.294338582677165
 30
0.0
 10
-0.2159527559055118
 20
2.292866141732284
 30
0.0
 10
-0.2133149606299213
 20
2.289893700787402
 30
0.0
 10
-0.2133149606299213
 20
2.289893700787402
 30
0.0
 10
-0.2107047244094488
 20
2.286948818897638
 30
0.0
 10
-0.2093700787401575
 20
2.283141732283465
 30
0.0
 10
-0.2093700787401575
 20
2.278476377952756
 30
0.0
 10
-0.2093700787401575
 20
2.278476377952756
 30
0.0
 10
-0.2093700787401575
 20
2.27542125984252
 30
0.0
 10
-0.2100078740157481
 20
2.272224409448819
 30
0.0
 10
-0.2112598425196851
 20
2.268893700787402
 30
0.0
 10
-0.2112598425196851
 20
2.268893700787402
 30
0.0
 10
-0.212507874015748
 20
2.26555905511811
 30
0.0
 10
-0.2143149606299213
 20
2.262476377952756
 30
0.0
 10
-0.2167047244094488
 20
2.259614173228346
 30
0.0
 10
-0.2167047244094488
 20
2.259614173228346
 30
0.0
 10
-0.2190905511811024
 20
2.256783464566929
 30
0.0
 10
-0.2238149606299213
 20
2.252366141732284
 30
0.0
 10
-0.2308700787401575
 20
2.246393700787402
 30
0.0
  0
SPLINE
  5
3E
330
1F
100
AcDbEntity
  8
Layer 1
 62
   250
100
AcDbSpline
210
0.0
220
0.0
230
1.0
 70
    11
 71
     3
 72
    60
 73
    56
 74
     0
 42
0.0000000001
 43
0.0000000001
 40
0.0
 40
0.0
 40
0.0
 40
0.0
 40
0.0714285714285714
 40
0.0714285714285714
 40
0.0714285714285714
 40
0.0714285714285714
 40
0.1428571428571429
 40
0.1428571428571429
 40
0.1428571428571429
 40
0.1428571428571429
 40
0.2142857142857143
 40
0.2142857142857143
 40
0.2142857142857143
 40
0.2142857142857143
 40
0.2857142857142857
 40
0.2857142857142857
 40
0.2857142857142857
 40
0.2857142857142857
 40
0.3571428571428571
 40
0.3571428571428571
 40
0.3571428571428571
 40
0.3571428571428571
 40
0.4285714285714285
 40
0.4285714285714285
 40
0.4285714285714285
 40
0.4285714285714285
 40
0.4999999999999999
 40
0.4999999999999999
 40
0.4999999999999999
 40
0.4999999999999999
 40
0.5714285714285713
 40
0.5714285714285713
 40
0.5714285714285713
 40
0.5714285714285713
 40
0.6428571428571427
 40
0.6428571428571427
 40
0.6428571428571427
 40
0.6428571428571427
 40
0.7142857142857141
 40
0.7142857142857141
 40
0.7142857142857141
 40
0.7142857142857141
 40
0.7857142857142855
 40
0.7857142857142855
 40
0.7857142857142855
 40
0.7857142857142855
 40
0.8571428571428569
 40
0.8571428571428569
 40
0.8571428571428569
 40
0.8571428571428569
 40
0.9285714285714283
 40
0.9285714285714283
 40
0.9285714285714283
 40
0.9285714285714283
 40
1.0
 40
1.0
 40
1.0
 40
1.0
 10
-0.2018149606299213
 20
2.246393700787402
 30
0.0
 10
-0.2018149606299213
 20
2.246393700787402
 30
0.0
 10
-0.2062047244094488
 20
2.251783464566929
 30
0.0
 10
-0.2062047244094488
 20
2.251783464566929
 30
0.0
 10
-0.2062047244094488
 20
2.251783464566929
 30
0.0
 10
-0.1950905511811024
 20
2.260838582677165
 30
0.0
 10
-0.189507874015748
 20
2.268393700787402
 30
0.0
 10
-0.189507874015748
 20
2.274476377952756
 30
0.0
 10
-0.189507874015748
 20
2.274476377952756
 30
0.0
 10
-0.189507874015748
 20
2.275169291338583
 30
0.0
 10
-0.1895629921259843
 20
2.27605905511811
 30
0.0
 10
-0.1896771653543307
 20
2.277086614173228
 30
0.0
 10
-0.1896771653543307
 20
2.277086614173228
 30
0.0
 10
-0.1905905511811024
 20
2.276696850393701
 30
0.0
 10
-0.191507874015748
 20
2.276393700787402
 30
0.0
 10
-0.1923700787401575
 20
2.276196850393701
 30
0.0
 10
-0.1923700787401575
 20
2.276196850393701
 30
0.0
 10
-0.193232283464567
 20
2.275976377952756
 30
0.0
 10
-0.1940629921259843
 20
2.275866141732283
 30
0.0
 10
-0.1948976377952756
 20
2.275866141732283
 30
0.0
 10
-0.1948976377952756
 20
2.275866141732283
 30
0.0
 10
-0.1974527559055118
 20
2.275866141732283
 30
0.0
 10
-0.199507874015748
 20
2.276696850393701
 30
0.0
 10
-0.2010629921259843
 20
2.278393700787402
 30
0.0
 10
-0.2010629921259843
 20
2.278393700787402
 30
0.0
 10
-0.2026456692913386
 20
2.28005905511811
 30
0.0
 10
-0.2034251968503937
 20
2.282196850393701
 30
0.0
 10
-0.2034251968503937
 20
2.284811023622047
 30
0.0
 10
-0.2034251968503937
 20
2.284811023622047
 30
0.0
 10
-0.2034251968503937
 20
2.287366141732284
 30
0.0
 10
-0.2024803149606299
 20
2.289586614173229
 30
0.0
 10
-0.2005905511811024
 20
2.291476377952756
 30
0.0
 10
-0.2005905511811024
 20
2.291476377952756
 30
0.0
 10
-0.1987047244094488
 20
2.293393700787402
 30
0.0
 10
-0.1963976377952756
 20
2.294338582677165
 30
0.0
 10
-0.1937598425196851
 20
2.294338582677165
 30
0.0
 10
-0.1937598425196851
 20
2.294338582677165
 30
0.0
 10
-0.1900629921259843
 20
2.294338582677165
 30
0.0
 10
-0.1868976377952756
 20
2.292866141732284
 30
0.0
 10
-0.1842598425196851
 20
2.289893700787402
 30
0.0
 10
-0.1842598425196851
 20
2.289893700787402
 30
0.0
 10
-0.1816496062992126
 20
2.286948818897638
 30
0.0
 10
-0.1803149606299213
 20
2.283141732283465
 30
0.0
 10
-0.1803149606299213
 20
2.278476377952756
 30
0.0
 10
-0.1803149606299213
 20
2.278476377952756
 30
0.0
 10
-0.1803149606299213
 20
2.27542125984252
 30
0.0
 10
-0.1809527559055118
 20
2.272224409448819
 30
0.0
 10
-0.1822047244094488
 20
2.268893700787402
 30
0.0
 10
-0.1822047244094488
 20
2.268893700787402
 30
0.0
 10
-0.1834527559055118
 20
2.26555905511811
 30
0.0
 10
-0.1852598425196851
 20
2.262476377952756
 30
0.0
 10
-0.1876456692913386
 20
2.259614173228346
 30
0.0
 10
-0.1876456692913386
 20
2.259614173228346
 30
0.0
 10
-0.1900354330708662
 20
2.256783464566929
 30
0.0
 10
-0.194759842519685
 20
2.252366141732284
 30
0.0
 10
-0.2018149606299213
 20
2.246393700787402
 30
0.0
  0
SPLINE
  5
3F
330
1F
100
AcDbEntity
  8
Layer 1
 62
   252
100
AcDbSpline
210
0.0
220
0.0
230
1.0
 70
    11
 71
     3
 72
    20
 73
    16
 74
     0
 42
0.0000000001
 43
0.0000000001
 40
0.0
 40
0.0
 40
0.0
 40
0.0
 40
0.25
 40
0.25
 40
0.25
 40
0.25
 40
0.5
 40
0.5
 40
0.5
 40
0.5
 40
0.75
 40
0.75
 40
0.75
 40
0.75
 40
1.0
 40
1.0
 40
1.0
 40
1.0
 10
0.5846850393700788
 20
0.3900314960629921
 30
0.0
 10
0.5846850393700788
 20
0.3900314960629921
 30
0.0
 10
1.212338582677165
 20
0.7438385826771654
 30
0.0
 10
1.212338582677165
 20
0.7438385826771654
 30
0.0
 10
1.212338582677165
 20
0.7438385826771654
 30
0.0
 10
1.212338582677165
 20
0.7438385826771654
 30
0.0
 10
-1.537027559055118
 20
0.7438385826771654
 30
0.0
 10
-1.537027559055118
 20
0.7438385826771654
 30
0.0
 10
-1.537027559055118
 20
0.7438385826771654
 30
0.0
 10
-1.537027559055118
 20
0.7438385826771654
 30
0.0
 10
-2.164681102362205
 20
0.3900314960629921
 30
0.0
 10
-2.164681102362205
 20
0.3900314960629921
 30
0.0
 10
-2.164681102362205
 20
0.3900314960629921
 30
0.0
 10
-2.164681102362205
 20
0.3900314960629921
 30
0.0
 10
0.5846850393700788
 20
0.3900314960629921
 30
0.0
 10
0.5846850393700788
 20
0.3900314960629921
 30
0.0
  0
SPLINE
  5
40
330
1F
100
AcDbEntity
  8
Layer 1
 62
   250
370
     5
100
AcDbSpline
210
0.0
220
0.0
230
1.0
 70
    11
 71
     3
 72
    20
 73
    16
 74
     0
 42
0.0000000001
 43
0.0000000001
 40
0.0
 40
0.0
 40
0.0
 40
0.0
 40
0.25
 40
0.25
 40
0.25
 40
0.25
 40
0.5
 40
0.5
 40
0.5
 40
0.5
 40
0.75
 40
0.75
 40
0.75
 40
0.75
 40
1.0
 40
1.0
 40
1.0
 40
1.0
 10
0.5846850393700788
 20
0.3900314960629921
 30
0.0
 10
0.5846850393700788
 20
0.3900314960629921
 30
0.0
 10
1.212338582677165
 20
0.7438385826771654
 30
0.0
 10
1.212338582677165
 20
0.7438385826771654
 30
0.0
 10
1.212338582677165
 20
0.7438385826771654
 30
0.0
 10
1.212338582677165
 20
0.7438385826771654
 30
0.0
 10
-1.537027559055118
 20
0.7438385826771654
 30
0.0
 10
-1.537027559055118
 20
0.7438385826771654
 30
0.0
 10
-1.537027559055118
 20
0.7438385826771654
 30
0.0
 10
-1.537027559055118
 20
0.7438385826771654
 30
0.0
 10
-2.164681102362205
 20
0.3900314960629921
 30
0.0
 10
-2.164681102362205
 20
0.3900314960629921
 30
0.0
 10
-2.164681102362205
 20
0.3900314960629921
 30
0.0
 10
-2.164681102362205
 20
0.3900314960629921
 30
0.0
 10
0.5846850393700788
 20
0.3900314960629921
 30
0.0
 10
0.5846850393700788
 20
0.3900314960629921
 30
0.0
  0
SPLINE
  5
41
330
1F
100
AcDbEntity
  8
Layer 1
 62
   253
100
AcDbSpline
210
0.0
220
0.0
230
1.0
 70
    11
 71
     3
 72
    28
 73
    24
 74
     0
 42
0.0000000001
 43
0.0000000001
 40
0.0
 40
0.0
 40
0.0
 40
0.0
 40
0.1666666666666667
 40
0.1666666666666667
 40
0.1666666666666667
 40
0.1666666666666667
 40
0.3333333333333333
 40
0.3333333333333333
 40
0.3333333333333333
 40
0.3333333333333333
 40
0.5
 40
0.5
 40
0.5
 40
0.5
 40
0.6666666666666666
 40
0.6666666666666666
 40
0.6666666666666666
 40
0.6666666666666666
 40
0.8333333333333333
 40
0.8333333333333333
 40
0.8333333333333333
 40
0.8333333333333333
 40
1.0
 40
1.0
 40
1.0
 40
1.0
 10
1.335318897637795
 20
0.3900314960629921
 30
0.0
 10
1.335318897637795
 20
0.3900314960629921
 30
0.0
 10
1.962972440944882
 20
0.7438385826771654
 30
0.0
 10
1.962972440944882
 20
0.7438385826771654
 30
0.0
 10
1.962972440944882
 20
0.7438385826771654
 30
0.0
 10
1.962972440944882
 20
0.7438385826771654
 30
0.0
 10
1.96248031496063
 20
0.7631456692913387
 30
0.0
 10
1.96248031496063
 20
0.7631456692913387
 30
0.0
 10
1.96248031496063
 20
0.7631456692913387
 30
0.0
 10
1.96248031496063
 20
0.7631456692913387
 30
0.0
 10
1.961031496062992
 20
0.7822047244094489
 30
0.0
 10
1.961031496062992
 20
0.7822047244094489
 30
0.0
 10
1.961031496062992
 20
0.7822047244094489
 30
0.0
 10
1.961031496062992
 20
0.7822047244094489
 30
0.0
 10
1.333377952755906
 20
0.4283976377952756
 30
0.0
 10
1.333377952755906
 20
0.4283976377952756
 30
0.0
 10
1.333377952755906
 20
0.4283976377952756
 30
0.0
 10
1.333377952755906
 20
0.4283976377952756
 30
0.0
 10
1.334826771653543
 20
0.4093385826771654
 30
0.0
 10
1.334826771653543
 20
0.4093385826771654
 30
0.0
 10
1.334826771653543
 20
0.4093385826771654
 30
0.0
 10
1.334826771653543
 20
0.4093385826771654
 30
0.0
 10
1.335318897637795
 20
0.3900314960629921
 30
0.0
 10
1.335318897637795
 20
0.3900314960629921
 30
0.0
  0
SPLINE
  5
42
330
1F
100
AcDbEntity
  8
Layer 1
 62
   253
100
AcDbSpline
210
0.0
220
0.0
230
1.0
 70
    11
 71
     3
 72
    28
 73
    24
 74
     0
 42
0.0000000001
 43
0.0000000001
 40
0.0
 40
0.0
 40
0.0
 40
0.0
 40
0.1666666666666667
 40
0.1666666666666667
 40
0.1666666666666667
 40
0.1666666666666667
 40
0.3333333333333333
 40
0.3333333333333333
 40
0.3333333333333333
 40
0.3333333333333333
 40
0.5
 40
0.5
 40
0.5
 40
0.5
 40
0.6666666666666666
 40
0.6666666666666666
 40
0.6666666666666666
 40
0.6666666666666666
 40
0.8333333333333333
 40
0.8333333333333333
 40
0.8333333333333333
 40
0.8333333333333333
 40
1.0
 40
1.0
 40
1.0
 40
1.0
 10
1.333377952755906
 20
0.4283976377952756
 30
0.0
 10
1.333377952755906
 20
0.4283976377952756
 30
0.0
 10
1.961031496062992
 20
0.7822047244094489
 30
0.0
 10
1.961031496062992
 20
0.7822047244094489
 30
0.0
 10
1.961031496062992
 20
0.7822047244094489
 30
0.0
 10
1.961031496062992
 20
0.7822047244094489
 30
0.0
 10
1.958637795275591
 20
0.8009803149606299
 30
0.0
 10
1.958637795275591
 20
0.8009803149606299
 30
0.0
 10
1.958637795275591
 20
0.8009803149606299
 30
0.0
 10
1.958637795275591
 20
0.8009803149606299
 30
0.0
 10
1.955338582677165
 20
0.8194645669291339
 30
0.0
 10
1.955338582677165
 20
0.8194645669291339
 30
0.0
 10
1.955338582677165
 20
0.8194645669291339
 30
0.0
 10
1.955338582677165
 20
0.8194645669291339
 30
0.0
 10
1.327685039370079
 20
0.4656574803149606
 30
0.0
 10
1.327685039370079
 20
0.4656574803149606
 30
0.0
 10
1.327685039370079
 20
0.4656574803149606
 30
0.0
 10
1.327685039370079
 20
0.4656574803149606
 30
0.0
 10
1.330984251968504
 20
0.4471732283464567
 30
0.0
 10
1.330984251968504
 20
0.4471732283464567
 30
0.0
 10
1.330984251968504
 20
0.4471732283464567
 30
0.0
 10
1.330984251968504
 20
0.4471732283464567
 30
0.0
 10
1.333377952755906
 20
0.4283976377952756
 30
0.0
 10
1.333377952755906
 20
0.4283976377952756
 30
0.0
  0
SPLINE
  5
43
330
1F
100
AcDbEntity
  8
Layer 1
 62
   253
100
AcDbSpline
210
0.0
220
0.0
230
1.0
 70
    11
 71
     3
 72
    28
 73
    24
 74
     0
 42
0.0000000001
 43
0.0000000001
 40
0.0
 40
0.0
 40
0.0
 40
0.0
 40
0.1666666666666667
 40
0.1666666666666667
 40
0.1666666666666667
 40
0.1666666666666667
 40
0.3333333333333333
 40
0.3333333333333333
 40
0.3333333333333333
 40
0.3333333333333333
 40
0.5
 40
0.5
 40
0.5
 40
0.5
 40
0.6666666666666666
 40
0.6666666666666666
 40
0.6666666666666666
 40
0.6666666666666666
 40
0.8333333333333333
 40
0.8333333333333333
 40
0.8333333333333333
 40
0.8333333333333333
 40
1.0
 40
1.0
 40
1.0
 40
1.0
 10
1.327685039370079
 20
0.4656574803149606
 30
0.0
 10
1.327685039370079
 20
0.4656574803149606
 30
0.0
 10
1.955338582677165
 20
0.8194645669291339
 30
0.0
 10
1.955338582677165
 20
0.8194645669291339
 30
0.0
 10
1.955338582677165
 20
0.8194645669291339
 30
0.0
 10
1.955338582677165
 20
0.8194645669291339
 30
0.0
 10
1.951145669291339
 20
0.8376181102362205
 30
0.0
 10
1.951145669291339
 20
0.8376181102362205
 30
0.0
 10
1.951145669291339
 20
0.8376181102362205
 30
0.0
 10
1.951145669291339
 20
0.8376181102362205
 30
0.0
 10
1.946086614173229
 20
0.8554291338582678
 30
0.0
 10
1.946086614173229
 20
0.8554291338582678
 30
0.0
 10
1.946086614173229
 20
0.8554291338582678
 30
0.0
 10
1.946086614173229
 20
0.8554291338582678
 30
0.0
 10
1.318433070866142
 20
0.5016220472440945
 30
0.0
 10
1.318433070866142
 20
0.5016220472440945
 30
0.0
 10
1.318433070866142
 20
0.5016220472440945
 30
0.0
 10
1.318433070866142
 20
0.5016220472440945
 30
0.0
 10
1.323492125984252
 20
0.4838110236220473
 30
0.0
 10
1.323492125984252
 20
0.4838110236220473
 30
0.0
 10
1.323492125984252
 20
0.4838110236220473
 30
0.0
 10
1.323492125984252
 20
0.4838110236220473
 30
0.0
 10
1.327685039370079
 20
0.4656574803149606
 30
0.0
 10
1.327685039370079
 20
0.4656574803149606
 30
0.0
  0
SPLINE
  5
44
330
1F
100
AcDbEntity
  8
Layer 1
 62
   253
100
AcDbSpline
210
0.0
220
0.0
230
1.0
 70
    11
 71
     3
 72
    28
 73
    24
 74
     0
 42
0.0000000001
 43
0.0000000001
 40
0.0
 40
0.0
 40
0.0
 40
0.0
 40
0.1666666666666667
 40
0.1666666666666667
 40
0.1666666666666667
 40
0.1666666666666667
 40
0.3333333333333333
 40
0.3333333333333333
 40
0.3333333333333333
 40
0.3333333333333333
 40
0.5
 40
0.5
 40
0.5
 40
0.5
 40
0.6666666666666666
 40
0.6666666666666666
 40
0.6666666666666666
 40
0.6666666666666666
 40
0.8333333333333333
 40
0.8333333333333333
 40
0.8333333333333333
 40
0.8333333333333333
 40
1.0
 40
1.0
 40
1.0
 40
1.0
 10
1.318433070866142
 20
0.5016220472440945
 30
0.0
 10
1.318433070866142
 20
0.5016220472440945
 30
0.0
 10
1.946086614173229
 20
0.8554291338582678
 30
0.0
 10
1.946086614173229
 20
0.8554291338582678
 30
0.0
 10
1.946086614173229
 20
0.8554291338582678
 30
0.0
 10
1.946086614173229
 20
0.8554291338582678
 30
0.0
 10
1.940185039370079
 20
0.8728661417322835
 30
0.0
 10
1.940185039370079
 20
0.8728661417322835
 30
0.0
 10
1.940185039370079
 20
0.8728661417322835
 30
0.0
 10
1.940185039370079
 20
0.8728661417322835
 30
0.0
 10
1.933468503937008
 20
0.8899094488188977
 30
0.0
 10
1.933468503937008
 20
0.8899094488188977
 30
0.0
 10
1.933468503937008
 20
0.8899094488188977
 30
0.0
 10
1.933468503937008
 20
0.8899094488188977
 30
0.0
 10
1.305814960629921
 20
0.5361023622047244
 30
0.0
 10
1.305814960629921
 20
0.5361023622047244
 30
0.0
 10
1.305814960629921
 20
0.5361023622047244
 30
0.0
 10
1.305814960629921
 20
0.5361023622047244
 30
0.0
 10
1.312531496062992
 20
0.5190590551181102
 30
0.0
 10
1.312531496062992
 20
0.5190590551181102
 30
0.0
 10
1.312531496062992
 20
0.5190590551181102
 30
0.0
 10
1.312531496062992
 20
0.5190590551181102
 30
0.0
 10
1.318433070866142
 20
0.5016220472440945
 30
0.0
 10
1.318433070866142
 20
0.5016220472440945
 30
0.0
  0
SPLINE
  5
45
330
1F
100
AcDbEntity
  8
Layer 1
 62
   253
100
AcDbSpline
210
0.0
220
0.0
230
1.0
 70
    11
 71
     3
 72
    28
 73
    24
 74
     0
 42
0.0000000001
 43
0.0000000001
 40
0.0
 40
0.0
 40
0.0
 40
0.0
 40
0.1666666666666667
 40
0.1666666666666667
 40
0.1666666666666667
 40
0.1666666666666667
 40
0.3333333333333333
 40
0.3333333333333333
 40
0.3333333333333333
 40
0.3333333333333333
 40
0.5
 40
0.5
 40
0.5
 40
0.5
 40
0.6666666666666666
 40
0.6666666666666666
 40
0.6666666666666666
 40
0.6666666666666666
 40
0.8333333333333333
 40
0.8333333333333333
 40
0.8333333333333333
 40
0.8333333333333333
 40
1.0
 40
1.0
 40
1.0
 40
1.0
 10
1.305814960629921
 20
0.5361023622047244
 30
0.0
 10
1.305814960629921
 20
0.5361023622047244
 30
0.0
 10
1.933468503937008
 20
0.8899094488188977
 30
0.0
 10
1.933468503937008
 20
0.8899094488188977
 30
0.0
 10
1.933468503937008
 20
0.8899094488188977
 30
0.0
 10
1.933468503937008
 20
0.8899094488188977
 30
0.0
 10
1.925944881889764
 20
0.9065314960629922
 30
0.0
 10
1.925944881889764
 20
0.9065314960629922
 30
0.0
 10
1.925944881889764
 20
0.9065314960629922
 30
0.0
 10
1.925944881889764
 20
0.9065314960629922
 30
0.0
 10
1.917657480314961
 20
0.9227125984251969
 30
0.0
 10
1.917657480314961
 20
0.9227125984251969
 30
0.0
 10
1.917657480314961
 20
0.9227125984251969
 30
0.0
 10
1.917657480314961
 20
0.9227125984251969
 30
0.0
 10
1.290003937007874
 20
0.5689055118110237
 30
0.0
 10
1.290003937007874
 20
0.5689055118110237
 30
0.0
 10
1.290003937007874
 20
0.5689055118110237
 30
0.0
 10
1.290003937007874
 20
0.5689055118110237
 30
0.0
 10
1.298291338582677
 20
0.552724409448819
 30
0.0
 10
1.298291338582677
 20
0.552724409448819
 30
0.0
 10
1.298291338582677
 20
0.552724409448819
 30
0.0
 10
1.298291338582677
 20
0.552724409448819
 30
0.0
 10
1.305814960629921
 20
0.5361023622047244
 30
0.0
 10
1.305814960629921
 20
0.5361023622047244
 30
0.0
  0
SPLINE
  5
46
330
1F
100
AcDbEntity
  8
Layer 1
 62
   253
100
AcDbSpline
210
0.0
220
0.0
230
1.0
 70
    11
 71
     3
 72
    28
 73
    24
 74
     0
 42
0.0000000001
 43
0.0000000001
 40
0.0
 40
0.0
 40
0.0
 40
0.0
 40
0.1666666666666667
 40
0.1666666666666667
 40
0.1666666666666667
 40
0.1666666666666667
 40
0.3333333333333333
 40
0.3333333333333333
 40
0.3333333333333333
 40
0.3333333333333333
 40
0.5
 40
0.5
 40
0.5
 40
0.5
 40
0.6666666666666666
 40
0.6666666666666666
 40
0.6666666666666666
 40
0.6666666666666666
 40
0.8333333333333333
 40
0.8333333333333333
 40
0.8333333333333333
 40
0.8333333333333333
 40
1.0
 40
1.0
 40
1.0
 40
1.0
 10
1.290003937007874
 20
0.5689055118110237
 30
0.0
 10
1.290003937007874
 20
0.5689055118110237
 30
0.0
 10
1.917657480314961
 20
0.9227125984251969
 30
0.0
 10
1.917657480314961
 20
0.9227125984251969
 30
0.0
 10
1.917657480314961
 20
0.9227125984251969
 30
0.0
 10
1.917657480314961
 20
0.9227125984251969
 30
0.0
 10
1.908614173228347
 20
0.9384291338582678
 30
0.0
 10
1.908614173228347
 20
0.9384291338582678
 30
0.0
 10
1.908614173228347
 20
0.9384291338582678
 30
0.0
 10
1.908614173228347
 20
0.9384291338582678
 30
0.0
 10
1.898854330708661
 20
0.9536614173228347
 30
0.0
 10
1.898854330708661
 20
0.9536614173228347
 30
0.0
 10
1.898854330708661
 20
0.9536614173228347
 30
0.0
 10
1.898854330708661
 20
0.9536614173228347
 30
0.0
 10
1.271200787401575
 20
0.5998543307086615
 30
0.0
 10
1.271200787401575
 20
0.5998543307086615
 30
0.0
 10
1.271200787401575
 20
0.5998543307086615
 30
0.0
 10
1.271200787401575
 20
0.5998543307086615
 30
0.0
 10
1.28096062992126
 20
0.5846220472440945
 30
0.0
 10
1.28096062992126
 20
0.5846220472440945
 30
0.0
 10
1.28096062992126
 20
0.5846220472440945
 30
0.0
 10
1.28096062992126
 20
0.5846220472440945
 30
0.0
 10
1.290003937007874
 20
0.5689055118110237
 30
0.0
 10
1.290003937007874
 20
0.5689055118110237
 30
0.0
  0
SPLINE
  5
47
330
1F
100
AcDbEntity
  8
Layer 1
 62
   253
100
AcDbSpline
210
0.0
220
0.0
230
1.0
 70
    11
 71
     3
 72
    28
 73
    24
 74
     0
 42
0.0000000001
 43
0.0000000001
 40
0.0
 40
0.0
 40
0.0
 40
0.0
 40
0.1666666666666667
 40
0.1666666666666667
 40
0.1666666666666667
 40
0.1666666666666667
 40
0.3333333333333333
 40
0.3333333333333333
 40
0.3333333333333333
 40
0.3333333333333333
 40
0.5
 40
0.5
 40
0.5
 40
0.5
 40
0.6666666666666666
 40
0.6666666666666666
 40
0.6666666666666666
 40
0.6666666666666666
 40
0.8333333333333333
 40
0.8333333333333333
 40
0.8333333333333333
 40
0.8333333333333333
 40
1.0
 40
1.0
 40
1.0
 40
1.0
 10
1.271200787401575
 20
0.5998543307086615
 30
0.0
 10
1.271200787401575
 20
0.5998543307086615
 30
0.0
 10
1.898854330708661
 20
0.9536614173228347
 30
0.0
 10
1.898854330708661
 20
0.9536614173228347
 30
0.0
 10
1.898854330708661
 20
0.9536614173228347
 30
0.0
 10
1.898854330708661
 20
0.9536614173228347
 30
0.0
 10
1.888389763779528
 20
0.9683740157480315
 30
0.0
 10
1.888389763779528
 20
0.9683740157480315
 30
0.0
 10
1.888389763779528
 20
0.9683740157480315
 30
0.0
 10
1.888389763779528
 20
0.9683740157480315
 30
0.0
 10
1.877248031496063
 20
0.9825551181102362
 30
0.0
 10
1.877248031496063
 20
0.9825551181102362
 30
0.0
 10
1.877248031496063
 20
0.9825551181102362
 30
0.0
 10
1.877248031496063
 20
0.9825551181102362
 30
0.0
 10
1.249594488188976
 20
0.6287480314960631
 30
0.0
 10
1.249594488188976
 20
0.6287480314960631
 30
0.0
 10
1.249594488188976
 20
0.6287480314960631
 30
0.0
 10
1.249594488188976
 20
0.6287480314960631
 30
0.0
 10
1.260736220472441
 20
0.6145669291338582
 30
0.0
 10
1.260736220472441
 20
0.6145669291338582
 30
0.0
 10
1.260736220472441
 20
0.6145669291338582
 30
0.0
 10
1.260736220472441
 20
0.6145669291338582
 30
0.0
 10
1.271200787401575
 20
0.5998543307086615
 30
0.0
 10
1.271200787401575
 20
0.5998543307086615
 30
0.0
  0
SPLINE
  5
48
330
1F
100
AcDbEntity
  8
Layer 1
 62
   253
100
AcDbSpline
210
0.0
220
0.0
230
1.0
 70
    11
 71
     3
 72
    28
 73
    24
 74
     0
 42
0.0000000001
 43
0.0000000001
 40
0.0
 40
0.0
 40
0.0
 40
0.0
 40
0.1666666666666667
 40
0.1666666666666667
 40
0.1666666666666667
 40
0.1666666666666667
 40
0.3333333333333333
 40
0.3333333333333333
 40
0.3333333333333333
 40
0.3333333333333333
 40
0.5
 40
0.5
 40
0.5
 40
0.5
 40
0.6666666666666666
 40
0.6666666666666666
 40
0.6666666666666666
 40
0.6666666666666666
 40
0.8333333333333333
 40
0.8333333333333333
 40
0.8333333333333333
 40
0.8333333333333333
 40
1.0
 40
1.0
 40
1.0
 40
1.0
 10
1.249594488188976
 20
0.6287480314960631
 30
0.0
 10
1.249594488188976
 20
0.6287480314960631
 30
0.0
 10
1.877248031496063
 20
0.9825551181102362
 30
0.0
 10
1.877248031496063
 20
0.9825551181102362
 30
0.0
 10
1.877248031496063
 20
0.9825551181102362
 30
0.0
 10
1.877248031496063
 20
0.9825551181102362
 30
0.0
 10
1.865448818897638
 20
0.9961732283464567
 30
0.0
 10
1.865448818897638
 20
0.9961732283464567
 30
0.0
 10
1.865448818897638
 20
0.9961732283464567
 30
0.0
 10
1.865448818897638
 20
0.9961732283464567
 30
0.0
 10
1.853027559055118
 20
1.009212598425197
 30
0.0
 10
1.853027559055118
 20
1.009212598425197
 30
0.0
 10
1.853027559055118
 20
1.009212598425197
 30
0.0
 10
1.853027559055118
 20
1.009212598425197
 30
0.0
 10
1.225374015748032
 20
0.6554055118110237
 30
0.0
 10
1.225374015748032
 20
0.6554055118110237
 30
0.0
 10
1.225374015748032
 20
0.6554055118110237
 30
0.0
 10
1.225374015748032
 20
0.6554055118110237
 30
0.0
 10
1.237795275590551
 20
0.6423661417322835
 30
0.0
 10
1.237795275590551
 20
0.6423661417322835
 30
0.0
 10
1.237795275590551
 20
0.6423661417322835
 30
0.0
 10
1.237795275590551
 20
0.6423661417322835
 30
0.0
 10
1.249594488188976
 20
0.6287480314960631
 30
0.0
 10
1.249594488188976
 20
0.6287480314960631
 30
0.0
  0
SPLINE
  5
49
330
1F
100
AcDbEntity
  8
Layer 1
 62
   253
100
AcDbSpline
210
0.0
220
0.0
230
1.0
 70
    11
 71
     3
 72
    28
 73
    24
 74
     0
 42
0.0000000001
 43
0.0000000001
 40
0.0
 40
0.0
 40
0.0
 40
0.0
 40
0.1666666666666667
 40
0.1666666666666667
 40
0.1666666666666667
 40
0.1666666666666667
 40
0.3333333333333333
 40
0.3333333333333333
 40
0.3333333333333333
 40
0.3333333333333333
 40
0.5
 40
0.5
 40
0.5
 40
0.5
 40
0.6666666666666666
 40
0.6666666666666666
 40
0.6666666666666666
 40
0.6666666666666666
 40
0.8333333333333333
 40
0.8333333333333333
 40
0.8333333333333333
 40
0.8333333333333333
 40
1.0
 40
1.0
 40
1.0
 40
1.0
 10
1.225374015748032
 20
0.6554055118110237
 30
0.0
 10
1.225374015748032
 20
0.6554055118110237
 30
0.0
 10
1.853027559055118
 20
1.009212598425197
 30
0.0
 10
1.853027559055118
 20
1.009212598425197
 30
0.0
 10
1.853027559055118
 20
1.009212598425197
 30
0.0
 10
1.853027559055118
 20
1.009212598425197
 30
0.0
 10
1.839988188976378
 20
1.021633858267717
 30
0.0
 10
1.839988188976378
 20
1.021633858267717
 30
0.0
 10
1.839988188976378
 20
1.021633858267717
 30
0.0
 10
1.839988188976378
 20
1.021633858267717
 30
0.0
 10
1.826370078740158
 20
1.033433070866142
 30
0.0
 10
1.826370078740158
 20
1.033433070866142
 30
0.0
 10
1.826370078740158
 20
1.033433070866142
 30
0.0
 10
1.826370078740158
 20
1.033433070866142
 30
0.0
 10
1.198716535433071
 20
0.6796259842519685
 30
0.0
 10
1.198716535433071
 20
0.6796259842519685
 30
0.0
 10
1.198716535433071
 20
0.6796259842519685
 30
0.0
 10
1.198716535433071
 20
0.6796259842519685
 30
0.0
 10
1.212334645669291
 20
0.6678267716535433
 30
0.0
 10
1.212334645669291
 20
0.6678267716535433
 30
0.0
 10
1.212334645669291
 20
0.6678267716535433
 30
0.0
 10
1.212334645669291
 20
0.6678267716535433
 30
0.0
 10
1.225374015748032
 20
0.6554055118110237
 30
0.0
 10
1.225374015748032
 20
0.6554055118110237
 30
0.0
  0
SPLINE
  5
4A
330
1F
100
AcDbEntity
  8
Layer 1
 62
   252
100
AcDbSpline
210
0.0
220
0.0
230
1.0
 70
    11
 71
     3
 72
    28
 73
    24
 74
     0
 42
0.0000000001
 43
0.0000000001
 40
0.0
 40
0.0
 40
0.0
 40
0.0
 40
0.1666666666666667
 40
0.1666666666666667
 40
0.1666666666666667
 40
0.1666666666666667
 40
0.3333333333333333
 40
0.3333333333333333
 40
0.3333333333333333
 40
0.3333333333333333
 40
0.5
 40
0.5
 40
0.5
 40
0.5
 40
0.6666666666666666
 40
0.6666666666666666
 40
0.6666666666666666
 40
0.6666666666666666
 40
0.8333333333333333
 40
0.8333333333333333
 40
0.8333333333333333
 40
0.8333333333333333
 40
1.0
 40
1.0
 40
1.0
 40
1.0
 10
1.198716535433071
 20
0.6796259842519685
 30
0.0
 10
1.198716535433071
 20
0.6796259842519685
 30
0.0
 10
1.826370078740158
 20
1.033433070866142
 30
0.0
 10
1.826370078740158
 20
1.033433070866142
 30
0.0
 10
1.826370078740158
 20
1.033433070866142
 30
0.0
 10
1.826370078740158
 20
1.033433070866142
 30
0.0
 10
1.812188976377953
 20
1.044574803149606
 30
0.0
 10
1.812188976377953
 20
1.044574803149606
 30
0.0
 10
1.812188976377953
 20
1.044574803149606
 30
0.0
 10
1.812188976377953
 20
1.044574803149606
 30
0.0
 10
1.797476377952756
 20
1.05503937007874
 30
0.0
 10
1.797476377952756
 20
1.05503937007874
 30
0.0
 10
1.797476377952756
 20
1.05503937007874
 30
0.0
 10
1.797476377952756
 20
1.05503937007874
 30
0.0
 10
1.169822834645669
 20
0.701232283464567
 30
0.0
 10
1.169822834645669
 20
0.701232283464567
 30
0.0
 10
1.169822834645669
 20
0.701232283464567
 30
0.0
 10
1.169822834645669
 20
0.701232283464567
 30
0.0
 10
1.184535433070866
 20
0.6907677165354331
 30
0.0
 10
1.184535433070866
 20
0.6907677165354331
 30
0.0
 10
1.184535433070866
 20
0.6907677165354331
 30
0.0
 10
1.184535433070866
 20
0.6907677165354331
 30
0.0
 10
1.198716535433071
 20
0.6796259842519685
 30
0.0
 10
1.198716535433071
 20
0.6796259842519685
 30
0.0
  0
SPLINE
  5
4B
330
1F
100
AcDbEntity
  8
Layer 1
 62
   252
100
AcDbSpline
210
0.0
220
0.0
230
1.0
 70
    11
 71
     3
 72
    28
 73
    24
 74
     0
 42
0.0000000001
 43
0.0000000001
 40
0.0
 40
0.0
 40
0.0
 40
0.0
 40
0.1666666666666667
 40
0.1666666666666667
 40
0.1666666666666667
 40
0.1666666666666667
 40
0.3333333333333333
 40
0.3333333333333333
 40
0.3333333333333333
 40
0.3333333333333333
 40
0.5
 40
0.5
 40
0.5
 40
0.5
 40
0.6666666666666666
 40
0.6666666666666666
 40
0.6666666666666666
 40
0.6666666666666666
 40
0.8333333333333333
 40
0.8333333333333333
 40
0.8333333333333333
 40
0.8333333333333333
 40
1.0
 40
1.0
 40
1.0
 40
1.0
 10
1.169822834645669
 20
0.701232283464567
 30
0.0
 10
1.169822834645669
 20
0.701232283464567
 30
0.0
 10
1.797476377952756
 20
1.05503937007874
 30
0.0
 10
1.797476377952756
 20
1.05503937007874
 30
0.0
 10
1.797476377952756
 20
1.05503937007874
 30
0.0
 10
1.797476377952756
 20
1.05503937007874
 30
0.0
 10
1.782244094488189
 20
1.064799212598425
 30
0.0
 10
1.782244094488189
 20
1.064799212598425
 30
0.0
 10
1.782244094488189
 20
1.064799212598425
 30
0.0
 10
1.782244094488189
 20
1.064799212598425
 30
0.0
 10
1.766527559055118
 20
1.073842519685039
 30
0.0
 10
1.766527559055118
 20
1.073842519685039
 30
0.0
 10
1.766527559055118
 20
1.073842519685039
 30
0.0
 10
1.766527559055118
 20
1.073842519685039
 30
0.0
 10
1.138874015748032
 20
0.7200354330708662
 30
0.0
 10
1.138874015748032
 20
0.7200354330708662
 30
0.0
 10
1.138874015748032
 20
0.7200354330708662
 30
0.0
 10
1.138874015748032
 20
0.7200354330708662
 30
0.0
 10
1.154590551181102
 20
0.710992125984252
 30
0.0
 10
1.154590551181102
 20
0.710992125984252
 30
0.0
 10
1.154590551181102
 20
0.710992125984252
 30
0.0
 10
1.154590551181102
 20
0.710992125984252
 30
0.0
 10
1.169822834645669
 20
0.701232283464567
 30
0.0
 10
1.169822834645669
 20
0.701232283464567
 30
0.0
  0
SPLINE
  5
4C
330
1F
100
AcDbEntity
  8
Layer 1
 62
   252
100
AcDbSpline
210
0.0
220
0.0
230
1.0
 70
    11
 71
     3
 72
    28
 73
    24
 74
     0
 42
0.0000000001
 43
0.0000000001
 40
0.0
 40
0.0
 40
0.0
 40
0.0
 40
0.1666666666666667
 40
0.1666666666666667
 40
0.1666666666666667
 40
0.1666666666666667
 40
0.3333333333333333
 40
0.3333333333333333
 40
0.3333333333333333
 40
0.3333333333333333
 40
0.5
 40
0.5
 40
0.5
 40
0.5
 40
0.6666666666666666
 40
0.6666666666666666
 40
0.6666666666666666
 40
0.6666666666666666
 40
0.8333333333333333
 40
0.8333333333333333
 40
0.8333333333333333
 40
0.8333333333333333
 40
1.0
 40
1.0
 40
1.0
 40
1.0
 10
1.138874015748032
 20
0.7200354330708662
 30
0.0
 10
1.138874015748032
 20
0.7200354330708662
 30
0.0
 10
1.766527559055118
 20
1.073842519685039
 30
0.0
 10
1.766527559055118
 20
1.073842519685039
 30
0.0
 10
1.766527559055118
 20
1.073842519685039
 30
0.0
 10
1.766527559055118
 20
1.073842519685039
 30
0.0
 10
1.750346456692913
 20
1.082129921259843
 30
0.0
 10
1.750346456692913
 20
1.082129921259843
 30
0.0
 10
1.750346456692913
 20
1.082129921259843
 30
0.0
 10
1.750346456692913
 20
1.082129921259843
 30
0.0
 10
1.733724409448819
 20
1.089653543307087
 30
0.0
 10
1.733724409448819
 20
1.089653543307087
 30
0.0
 10
1.733724409448819
 20
1.089653543307087
 30
0.0
 10
1.733724409448819
 20
1.089653543307087
 30
0.0
 10
1.106070866141732
 20
0.7358464566929134
 30
0.0
 10
1.106070866141732
 20
0.7358464566929134
 30
0.0
 10
1.106070866141732
 20
0.7358464566929134
 30
0.0
 10
1.106070866141732
 20
0.7358464566929134
 30
0.0
 10
1.122692913385827
 20
0.7283228346456693
 30
0.0
 10
1.122692913385827
 20
0.7283228346456693
 30
0.0
 10
1.122692913385827
 20
0.7283228346456693
 30
0.0
 10
1.122692913385827
 20
0.7283228346456693
 30
0.0
 10
1.138874015748032
 20
0.7200354330708662
 30
0.0
 10
1.138874015748032
 20
0.7200354330708662
 30
0.0
  0
SPLINE
  5
4D
330
1F
100
AcDbEntity
  8
Layer 1
 62
   252
100
AcDbSpline
210
0.0
220
0.0
230
1.0
 70
    11
 71
     3
 72
    28
 73
    24
 74
     0
 42
0.0000000001
 43
0.0000000001
 40
0.0
 40
0.0
 40
0.0
 40
0.0
 40
0.1666666666666667
 40
0.1666666666666667
 40
0.1666666666666667
 40
0.1666666666666667
 40
0.3333333333333333
 40
0.3333333333333333
 40
0.3333333333333333
 40
0.3333333333333333
 40
0.5
 40
0.5
 40
0.5
 40
0.5
 40
0.6666666666666666
 40
0.6666666666666666
 40
0.6666666666666666
 40
0.6666666666666666
 40
0.8333333333333333
 40
0.8333333333333333
 40
0.8333333333333333
 40
0.8333333333333333
 40
1.0
 40
1.0
 40
1.0
 40
1.0
 10
1.106070866141732
 20
0.7358464566929134
 30
0.0
 10
1.106070866141732
 20
0.7358464566929134
 30
0.0
 10
1.733724409448819
 20
1.089653543307087
 30
0.0
 10
1.733724409448819
 20
1.089653543307087
 30
0.0
 10
1.733724409448819
 20
1.089653543307087
 30
0.0
 10
1.733724409448819
 20
1.089653543307087
 30
0.0
 10
1.716681102362205
 20
1.096370078740158
 30
0.0
 10
1.716681102362205
 20
1.096370078740158
 30
0.0
 10
1.716681102362205
 20
1.096370078740158
 30
0.0
 10
1.716681102362205
 20
1.096370078740158
 30
0.0
 10
1.699244094488189
 20
1.102271653543307
 30
0.0
 10
1.699244094488189
 20
1.102271653543307
 30
0.0
 10
1.699244094488189
 20
1.102271653543307
 30
0.0
 10
1.699244094488189
 20
1.102271653543307
 30
0.0
 10
1.071590551181102
 20
0.7484645669291339
 30
0.0
 10
1.071590551181102
 20
0.7484645669291339
 30
0.0
 10
1.071590551181102
 20
0.7484645669291339
 30
0.0
 10
1.071590551181102
 20
0.7484645669291339
 30
0.0
 10
1.089027559055118
 20
0.7425629921259843
 30
0.0
 10
1.089027559055118
 20
0.7425629921259843
 30
0.0
 10
1.089027559055118
 20
0.7425629921259843
 30
0.0
 10
1.089027559055118
 20
0.7425629921259843
 30
0.0
 10
1.106070866141732
 20
0.7358464566929134
 30
0.0
 10
1.106070866141732
 20
0.7358464566929134
 30
0.0
  0
SPLINE
  5
4E
330
1F
100
AcDbEntity
  8
Layer 1
 62
   252
100
AcDbSpline
210
0.0
220
0.0
230
1.0
 70
    11
 71
     3
 72
    28
 73
    24
 74
     0
 42
0.0000000001
 43
0.0000000001
 40
0.0
 40
0.0
 40
0.0
 40
0.0
 40
0.1666666666666667
 40
0.1666666666666667
 40
0.1666666666666667
 40
0.1666666666666667
 40
0.3333333333333333
 40
0.3333333333333333
 40
0.3333333333333333
 40
0.3333333333333333
 40
0.5
 40
0.5
 40
0.5
 40
0.5
 40
0.6666666666666666
 40
0.6666666666666666
 40
0.6666666666666666
 40
0.6666666666666666
 40
0.8333333333333333
 40
0.8333333333333333
 40
0.8333333333333333
 40
0.8333333333333333
 40
1.0
 40
1.0
 40
1.0
 40
1.0
 10
1.071590551181102
 20
0.7484645669291339
 30
0.0
 10
1.071590551181102
 20
0.7484645669291339
 30
0.0
 10
1.699244094488189
 20
1.102271653543307
 30
0.0
 10
1.699244094488189
 20
1.102271653543307
 30
0.0
 10
1.699244094488189
 20
1.102271653543307
 30
0.0
 10
1.699244094488189
 20
1.102271653543307
 30
0.0
 10
1.681433070866142
 20
1.107330708661418
 30
0.0
 10
1.681433070866142
 20
1.107330708661418
 30
0.0
 10
1.681433070866142
 20
1.107330708661418
 30
0.0
 10
1.681433070866142
 20
1.107330708661418
 30
0.0
 10
1.663279527559055
 20
1.111523622047244
 30
0.0
 10
1.663279527559055
 20
1.111523622047244
 30
0.0
 10
1.663279527559055
 20
1.111523622047244
 30
0.0
 10
1.663279527559055
 20
1.111523622047244
 30
0.0
 10
1.035625984251969
 20
0.7577165354330709
 30
0.0
 10
1.035625984251969
 20
0.7577165354330709
 30
0.0
 10
1.035625984251969
 20
0.7577165354330709
 30
0.0
 10
1.035625984251969
 20
0.7577165354330709
 30
0.0
 10
1.053779527559055
 20
0.7535236220472441
 30
0.0
 10
1.053779527559055
 20
0.7535236220472441
 30
0.0
 10
1.053779527559055
 20
0.7535236220472441
 30
0.0
 10
1.053779527559055
 20
0.7535236220472441
 30
0.0
 10
1.071590551181102
 20
0.7484645669291339
 30
0.0
 10
1.071590551181102
 20
0.7484645669291339
 30
0.0
  0
SPLINE
  5
4F
330
1F
100
AcDbEntity
  8
Layer 1
 62
   252
100
AcDbSpline
210
0.0
220
0.0
230
1.0
 70
    11
 71
     3
 72
    28
 73
    24
 74
     0
 42
0.0000000001
 43
0.0000000001
 40
0.0
 40
0.0
 40
0.0
 40
0.0
 40
0.1666666666666667
 40
0.1666666666666667
 40
0.1666666666666667
 40
0.1666666666666667
 40
0.3333333333333333
 40
0.3333333333333333
 40
0.3333333333333333
 40
0.3333333333333333
 40
0.5
 40
0.5
 40
0.5
 40
0.5
 40
0.6666666666666666
 40
0.6666666666666666
 40
0.6666666666666666
 40
0.6666666666666666
 40
0.8333333333333333
 40
0.8333333333333333
 40
0.8333333333333333
 40
0.8333333333333333
 40
1.0
 40
1.0
 40
1.0
 40
1.0
 10
1.035625984251969
 20
0.7577165354330709
 30
0.0
 10
1.035625984251969
 20
0.7577165354330709
 30
0.0
 10
1.663279527559055
 20
1.111523622047244
 30
0.0
 10
1.663279527559055
 20
1.111523622047244
 30
0.0
 10
1.663279527559055
 20
1.111523622047244
 30
0.0
 10
1.663279527559055
 20
1.111523622047244
 30
0.0
 10
1.644795275590551
 20
1.114822834645669
 30
0.0
 10
1.644795275590551
 20
1.114822834645669
 30
0.0
 10
1.644795275590551
 20
1.114822834645669
 30
0.0
 10
1.644795275590551
 20
1.114822834645669
 30
0.0
 10
1.62601968503937
 20
1.117216535433071
 30
0.0
 10
1.62601968503937
 20
1.117216535433071
 30
0.0
 10
1.62601968503937
 20
1.117216535433071
 30
0.0
 10
1.62601968503937
 20
1.117216535433071
 30
0.0
 10
0.9983661417322836
 20
0.7634094488188977
 30
0.0
 10
0.9983661417322836
 20
0.7634094488188977
 30
0.0
 10
0.9983661417322836
 20
0.7634094488188977
 30
0.0
 10
0.9983661417322836
 20
0.7634094488188977
 30
0.0
 10
1.017141732283465
 20
0.7610157480314961
 30
0.0
 10
1.017141732283465
 20
0.7610157480314961
 30
0.0
 10
1.017141732283465
 20
0.7610157480314961
 30
0.0
 10
1.017141732283465
 20
0.7610157480314961
 30
0.0
 10
1.035625984251969
 20
0.7577165354330709
 30
0.0
 10
1.035625984251969
 20
0.7577165354330709
 30
0.0
  0
SPLINE
  5
50
330
1F
100
AcDbEntity
  8
Layer 1
 62
   252
100
AcDbSpline
210
0.0
220
0.0
230
1.0
 70
    11
 71
     3
 72
    28
 73
    24
 74
     0
 42
0.0000000001
 43
0.0000000001
 40
0.0
 40
0.0
 40
0.0
 40
0.0
 40
0.1666666666666667
 40
0.1666666666666667
 40
0.1666666666666667
 40
0.1666666666666667
 40
0.3333333333333333
 40
0.3333333333333333
 40
0.3333333333333333
 40
0.3333333333333333
 40
0.5
 40
0.5
 40
0.5
 40
0.5
 40
0.6666666666666666
 40
0.6666666666666666
 40
0.6666666666666666
 40
0.6666666666666666
 40
0.8333333333333333
 40
0.8333333333333333
 40
0.8333333333333333
 40
0.8333333333333333
 40
1.0
 40
1.0
 40
1.0
 40
1.0
 10
0.9983661417322836
 20
0.7634094488188977
 30
0.0
 10
0.9983661417322836
 20
0.7634094488188977
 30
0.0
 10
1.62601968503937
 20
1.117216535433071
 30
0.0
 10
1.62601968503937
 20
1.117216535433071
 30
0.0
 10
1.62601968503937
 20
1.117216535433071
 30
0.0
 10
1.62601968503937
 20
1.117216535433071
 30
0.0
 10
1.60696062992126
 20
1.118665354330709
 30
0.0
 10
1.60696062992126
 20
1.118665354330709
 30
0.0
 10
1.60696062992126
 20
1.118665354330709
 30
0.0
 10
1.60696062992126
 20
1.118665354330709
 30
0.0
 10
1.587653543307087
 20
1.119157480314961
 30
0.0
 10
1.587653543307087
 20
1.119157480314961
 30
0.0
 10
1.587653543307087
 20
1.119157480314961
 30
0.0
 10
1.587653543307087
 20
1.119157480314961
 30
0.0
 10
0.9600000000000001
 20
0.7653503937007874
 30
0.0
 10
0.9600000000000001
 20
0.7653503937007874
 30
0.0
 10
0.9600000000000001
 20
0.7653503937007874
 30
0.0
 10
0.9600000000000001
 20
0.7653503937007874
 30
0.0
 10
0.9793070866141733
 20
0.7648582677165354
 30
0.0
 10
0.9793070866141733
 20
0.7648582677165354
 30
0.0
 10
0.9793070866141733
 20
0.7648582677165354
 30
0.0
 10
0.9793070866141733
 20
0.7648582677165354
 30
0.0
 10
0.9983661417322836
 20
0.7634094488188977
 30
0.0
 10
0.9983661417322836
 20
0.7634094488188977
 30
0.0
  0
SPLINE
  5
51
330
1F
100
AcDbEntity
  8
Layer 1
 62
   252
100
AcDbSpline
210
0.0
220
0.0
230
1.0
 70
    11
 71
     3
 72
    28
 73
    24
 74
     0
 42
0.0000000001
 43
0.0000000001
 40
0.0
 40
0.0
 40
0.0
 40
0.0
 40
0.1666666666666667
 40
0.1666666666666667
 40
0.1666666666666667
 40
0.1666666666666667
 40
0.3333333333333333
 40
0.3333333333333333
 40
0.3333333333333333
 40
0.3333333333333333
 40
0.5
 40
0.5
 40
0.5
 40
0.5
 40
0.6666666666666666
 40
0.6666666666666666
 40
0.6666666666666666
 40
0.6666666666666666
 40
0.8333333333333333
 40
0.8333333333333333
 40
0.8333333333333333
 40
0.8333333333333333
 40
1.0
 40
1.0
 40
1.0
 40
1.0
 10
0.9600000000000001
 20
0.7653503937007874
 30
0.0
 10
0.9600000000000001
 20
0.7653503937007874
 30
0.0
 10
1.587653543307087
 20
1.119157480314961
 30
0.0
 10
1.587653543307087
 20
1.119157480314961
 30
0.0
 10
1.587653543307087
 20
1.119157480314961
 30
0.0
 10
1.587653543307087
 20
1.119157480314961
 30
0.0
 10
1.568338582677165
 20
1.118665354330709
 30
0.0
 10
1.568338582677165
 20
1.118665354330709
 30
0.0
 10
1.568338582677165
 20
1.118665354330709
 30
0.0
 10
1.568338582677165
 20
1.118665354330709
 30
0.0
 10
1.549279527559055
 20
1.117216535433071
 30
0.0
 10
1.549279527559055
 20
1.117216535433071
 30
0.0
 10
1.549279527559055
 20
1.117216535433071
 30
0.0
 10
1.549279527559055
 20
1.117216535433071
 30
0.0
 10
0.9216259842519685
 20
0.7634094488188977
 30
0.0
 10
0.9216259842519685
 20
0.7634094488188977
 30
0.0
 10
0.9216259842519685
 20
0.7634094488188977
 30
0.0
 10
0.9216259842519685
 20
0.7634094488188977
 30
0.0
 10
0.9406850393700788
 20
0.7648582677165354
 30
0.0
 10
0.9406850393700788
 20
0.7648582677165354
 30
0.0
 10
0.9406850393700788
 20
0.7648582677165354
 30
0.0
 10
0.9406850393700788
 20
0.7648582677165354
 30
0.0
 10
0.9600000000000001
 20
0.7653503937007874
 30
0.0
 10
0.9600000000000001
 20
0.7653503937007874
 30
0.0
  0
SPLINE
  5
52
330
1F
100
AcDbEntity
  8
Layer 1
 62
     8
100
AcDbSpline
210
0.0
220
0.0
230
1.0
 70
    11
 71
     3
 72
    28
 73
    24
 74
     0
 42
0.0000000001
 43
0.0000000001
 40
0.0
 40
0.0
 40
0.0
 40
0.0
 40
0.1666666666666667
 40
0.1666666666666667
 40
0.1666666666666667
 40
0.1666666666666667
 40
0.3333333333333333
 40
0.3333333333333333
 40
0.3333333333333333
 40
0.3333333333333333
 40
0.5
 40
0.5
 40
0.5
 40
0.5
 40
0.6666666666666666
 40
0.6666666666666666
 40
0.6666666666666666
 40
0.6666666666666666
 40
0.8333333333333333
 40
0.8333333333333333
 40
0.8333333333333333
 40
0.8333333333333333
 40
1.0
 40
1.0
 40
1.0
 40
1.0
 10
0.9216259842519685
 20
0.7634094488188977
 30
0.0
 10
0.9216259842519685
 20
0.7634094488188977
 30
0.0
 10
1.549279527559055
 20
1.117216535433071
 30
0.0
 10
1.549279527559055
 20
1.117216535433071
 30
0.0
 10
1.549279527559055
 20
1.117216535433071
 30
0.0
 10
1.549279527559055
 20
1.117216535433071
 30
0.0
 10
1.530496062992126
 20
1.114822834645669
 30
0.0
 10
1.530496062992126
 20
1.114822834645669
 30
0.0
 10
1.530496062992126
 20
1.114822834645669
 30
0.0
 10
1.530496062992126
 20
1.114822834645669
 30
0.0
 10
1.51201968503937
 20
1.111523622047244
 30
0.0
 10
1.51201968503937
 20
1.111523622047244
 30
0.0
 10
1.51201968503937
 20
1.111523622047244
 30
0.0
 10
1.51201968503937
 20
1.111523622047244
 30
0.0
 10
0.8843661417322835
 20
0.7577165354330709
 30
0.0
 10
0.8843661417322835
 20
0.7577165354330709
 30
0.0
 10
0.8843661417322835
 20
0.7577165354330709
 30
0.0
 10
0.8843661417322835
 20
0.7577165354330709
 30
0.0
 10
0.9028425196850394
 20
0.7610157480314961
 30
0.0
 10
0.9028425196850394
 20
0.7610157480314961
 30
0.0
 10
0.9028425196850394
 20
0.7610157480314961
 30
0.0
 10
0.9028425196850394
 20
0.7610157480314961
 30
0.0
 10
0.9216259842519685
 20
0.7634094488188977
 30
0.0
 10
0.9216259842519685
 20
0.7634094488188977
 30
0.0
  0
SPLINE
  5
53
330
1F
100
AcDbEntity
  8
Layer 1
 62
   251
100
AcDbSpline
210
0.0
220
0.0
230
1.0
 70
    11
 71
     3
 72
    28
 73
    24
 74
     0
 42
0.0000000001
 43
0.0000000001
 40
0.0
 40
0.0
 40
0.0
 40
0.0
 40
0.1666666666666667
 40
0.1666666666666667
 40
0.1666666666666667
 40
0.1666666666666667
 40
0.3333333333333333
 40
0.3333333333333333
 40
0.3333333333333333
 40
0.3333333333333333
 40
0.5
 40
0.5
 40
0.5
 40
0.5
 40
0.6666666666666666
 40
0.6666666666666666
 40
0.6666666666666666
 40
0.6666666666666666
 40
0.8333333333333333
 40
0.8333333333333333
 40
0.8333333333333333
 40
0.8333333333333333
 40
1.0
 40
1.0
 40
1.0
 40
1.0
 10
0.8843661417322835
 20
0.7577165354330709
 30
0.0
 10
0.8843661417322835
 20
0.7577165354330709
 30
0.0
 10
1.51201968503937
 20
1.111523622047244
 30
0.0
 10
1.51201968503937
 20
1.111523622047244
 30
0.0
 10
1.51201968503937
 20
1.111523622047244
 30
0.0
 10
1.51201968503937
 20
1.111523622047244
 30
0.0
 10
1.493858267716536
 20
1.107330708661418
 30
0.0
 10
1.493858267716536
 20
1.107330708661418
 30
0.0
 10
1.493858267716536
 20
1.107330708661418
 30
0.0
 10
1.493858267716536
 20
1.107330708661418
 30
0.0
 10
1.476051181102362
 20
1.102271653543307
 30
0.0
 10
1.476051181102362
 20
1.102271653543307
 30
0.0
 10
1.476051181102362
 20
1.102271653543307
 30
0.0
 10
1.476051181102362
 20
1.102271653543307
 30
0.0
 10
0.8483976377952757
 20
0.7484645669291339
 30
0.0
 10
0.8483976377952757
 20
0.7484645669291339
 30
0.0
 10
0.8483976377952757
 20
0.7484645669291339
 30
0.0
 10
0.8483976377952757
 20
0.7484645669291339
 30
0.0
 10
0.8662047244094489
 20
0.7535236220472441
 30
0.0
 10
0.8662047244094489
 20
0.7535236220472441
 30
0.0
 10
0.8662047244094489
 20
0.7535236220472441
 30
0.0
 10
0.8662047244094489
 20
0.7535236220472441
 30
0.0
 10
0.8843661417322835
 20
0.7577165354330709
 30
0.0
 10
0.8843661417322835
 20
0.7577165354330709
 30
0.0
  0
SPLINE
  5
54
330
1F
100
AcDbEntity
  8
Layer 1
 62
   251
100
AcDbSpline
210
0.0
220
0.0
230
1.0
 70
    11
 71
     3
 72
    28
 73
    24
 74
     0
 42
0.0000000001
 43
0.0000000001
 40
0.0
 40
0.0
 40
0.0
 40
0.0
 40
0.1666666666666667
 40
0.1666666666666667
 40
0.1666666666666667
 40
0.1666666666666667
 40
0.3333333333333333
 40
0.3333333333333333
 40
0.3333333333333333
 40
0.3333333333333333
 40
0.5
 40
0.5
 40
0.5
 40
0.5
 40
0.6666666666666666
 40
0.6666666666666666
 40
0.6666666666666666
 40
0.6666666666666666
 40
0.8333333333333333
 40
0.8333333333333333
 40
0.8333333333333333
 40
0.8333333333333333
 40
1.0
 40
1.0
 40
1.0
 40
1.0
 10
0.8483976377952757
 20
0.7484645669291339
 30
0.0
 10
0.8483976377952757
 20
0.7484645669291339
 30
0.0
 10
1.476051181102362
 20
1.102271653543307
 30
0.0
 10
1.476051181102362
 20
1.102271653543307
 30
0.0
 10
1.476051181102362
 20
1.102271653543307
 30
0.0
 10
1.476051181102362
 20
1.102271653543307
 30
0.0
 10
1.458614173228346
 20
1.096370078740158
 30
0.0
 10
1.458614173228346
 20
1.096370078740158
 30
0.0
 10
1.458614173228346
 20
1.096370078740158
 30
0.0
 10
1.458614173228346
 20
1.096370078740158
 30
0.0
 10
1.441574803149606
 20
1.089653543307087
 30
0.0
 10
1.441574803149606
 20
1.089653543307087
 30
0.0
 10
1.441574803149606
 20
1.089653543307087
 30
0.0
 10
1.441574803149606
 20
1.089653543307087
 30
0.0
 10
0.8139212598425197
 20
0.7358464566929134
 30
0.0
 10
0.8139212598425197
 20
0.7358464566929134
 30
0.0
 10
0.8139212598425197
 20
0.7358464566929134
 30
0.0
 10
0.8139212598425197
 20
0.7358464566929134
 30
0.0
 10
0.8309606299212599
 20
0.7425629921259843
 30
0.0
 10
0.8309606299212599
 20
0.7425629921259843
 30
0.0
 10
0.8309606299212599
 20
0.7425629921259843
 30
0.0
 10
0.8309606299212599
 20
0.7425629921259843
 30
0.0
 10
0.8483976377952757
 20
0.7484645669291339
 30
0.0
 10
0.8483976377952757
 20
0.7484645669291339
 30
0.0
  0
SPLINE
  5
55
330
1F
100
AcDbEntity
  8
Layer 1
 62
   251
100
AcDbSpline
210
0.0
220
0.0
230
1.0
 70
    11
 71
     3
 72
    28
 73
    24
 74
     0
 42
0.0000000001
 43
0.0000000001
 40
0.0
 40
0.0
 40
0.0
 40
0.0
 40
0.1666666666666667
 40
0.1666666666666667
 40
0.1666666666666667
 40
0.1666666666666667
 40
0.3333333333333333
 40
0.3333333333333333
 40
0.3333333333333333
 40
0.3333333333333333
 40
0.5
 40
0.5
 40
0.5
 40
0.5
 40
0.6666666666666666
 40
0.6666666666666666
 40
0.6666666666666666
 40
0.6666666666666666
 40
0.8333333333333333
 40
0.8333333333333333
 40
0.8333333333333333
 40
0.8333333333333333
 40
1.0
 40
1.0
 40
1.0
 40
1.0
 10
0.8139212598425197
 20
0.7358464566929134
 30
0.0
 10
0.8139212598425197
 20
0.7358464566929134
 30
0.0
 10
1.441574803149606
 20
1.089653543307087
 30
0.0
 10
1.441574803149606
 20
1.089653543307087
 30
0.0
 10
1.441574803149606
 20
1.089653543307087
 30
0.0
 10
1.441574803149606
 20
1.089653543307087
 30
0.0
 10
1.42494094488189
 20
1.082129921259843
 30
0.0
 10
1.42494094488189
 20
1.082129921259843
 30
0.0
 10
1.42494094488189
 20
1.082129921259843
 30
0.0
 10
1.42494094488189
 20
1.082129921259843
 30
0.0
 10
1.408759842519685
 20
1.073842519685039
 30
0.0
 10
1.408759842519685
 20
1.073842519685039
 30
0.0
 10
1.408759842519685
 20
1.073842519685039
 30
0.0
 10
1.408759842519685
 20
1.073842519685039
 30
0.0
 10
0.7811062992125984
 20
0.7200354330708662
 30
0.0
 10
0.7811062992125984
 20
0.7200354330708662
 30
0.0
 10
0.7811062992125984
 20
0.7200354330708662
 30
0.0
 10
0.7811062992125984
 20
0.7200354330708662
 30
0.0
 10
0.7972874015748032
 20
0.7283228346456693
 30
0.0
 10
0.7972874015748032
 20
0.7283228346456693
 30
0.0
 10
0.7972874015748032
 20
0.7283228346456693
 30
0.0
 10
0.7972874015748032
 20
0.7283228346456693
 30
0.0
 10
0.8139212598425197
 20
0.7358464566929134
 30
0.0
 10
0.8139212598425197
 20
0.7358464566929134
 30
0.0
  0
SPLINE
  5
56
330
1F
100
AcDbEntity
  8
Layer 1
 62
   139
100
AcDbSpline
210
0.0
220
0.0
230
1.0
 70
    11
 71
     3
 72
    20
 73
    16
 74
     0
 42
0.0000000001
 43
0.0000000001
 40
0.0
 40
0.0
 40
0.0
 40
0.0
 40
0.25
 40
0.25
 40
0.25
 40
0.25
 40
0.5
 40
0.5
 40
0.5
 40
0.5
 40
0.75
 40
0.75
 40
0.75
 40
0.75
 40
1.0
 40
1.0
 40
1.0
 40
1.0
 10
0.7811062992125984
 20
0.7200354330708662
 30
0.0
 10
0.7811062992125984
 20
0.7200354330708662
 30
0.0
 10
1.408759842519685
 20
1.073842519685039
 30
0.0
 10
1.408759842519685
 20
1.073842519685039
 30
0.0
 10
1.408759842519685
 20
1.073842519685039
 30
0.0
 10
1.408759842519685
 20
1.073842519685039
 30
0.0
 10
1.393043307086614
 20
1.064799212598425
 30
0.0
 10
1.393043307086614
 20
1.064799212598425
 30
0.0
 10
1.393043307086614
 20
1.064799212598425
 30
0.0
 10
1.393043307086614
 20
1.064799212598425
 30
0.0
 10
0.7653897637795276
 20
0.710992125984252
 30
0.0
 10
0.7653897637795276
 20
0.710992125984252
 30
0.0
 10
0.7653897637795276
 20
0.710992125984252
 30
0.0
 10
0.7653897637795276
 20
0.710992125984252
 30
0.0
 10
0.7811062992125984
 20
0.7200354330708662
 30
0.0
 10
0.7811062992125984
 20
0.7200354330708662
 30
0.0
  0
SPLINE
  5
57
330
1F
100
AcDbEntity
  8
Layer 1
 62
   250
370
     5
100
AcDbSpline
210
0.0
220
0.0
230
1.0
 70
    11
 71
     3
 72
   356
 73
   352
 74
     0
 42
0.0000000001
 43
0.0000000001
 40
0.0
 40
0.0
 40
0.0
 40
0.0
 40
0.0113636363636364
 40
0.0113636363636364
 40
0.0113636363636364
 40
0.0113636363636364
 40
0.0227272727272727
 40
0.0227272727272727
 40
0.0227272727272727
 40
0.0227272727272727
 40
0.0340909090909091
 40
0.0340909090909091
 40
0.0340909090909091
 40
0.0340909090909091
 40
0.0454545454545455
 40
0.0454545454545455
 40
0.0454545454545455
 40
0.0454545454545455
 40
0.0568181818181818
 40
0.0568181818181818
 40
0.0568181818181818
 40
0.0568181818181818
 40
0.0681818181818182
 40
0.0681818181818182
 40
0.0681818181818182
 40
0.0681818181818182
 40
0.0795454545454546
 40
0.0795454545454546
 40
0.0795454545454546
 40
0.0795454545454546
 40
0.0909090909090909
 40
0.0909090909090909
 40
0.0909090909090909
 40
0.0909090909090909
 40
0.1022727272727273
 40
0.1022727272727273
 40
0.1022727272727273
 40
0.1022727272727273
 40
0.1136363636363637
 40
0.1136363636363637
 40
0.1136363636363637
 40
0.1136363636363637
 40
0.125
 40
0.125
 40
0.125
 40
0.125
 40
0.1363636363636364
 40
0.1363636363636364
 40
0.1363636363636364
 40
0.1363636363636364
 40
0.1477272727272727
 40
0.1477272727272727
 40
0.1477272727272727
 40
0.1477272727272727
 40
0.1590909090909091
 40
0.1590909090909091
 40
0.1590909090909091
 40
0.1590909090909091
 40
0.1704545454545454
 40
0.1704545454545454
 40
0.1704545454545454
 40
0.1704545454545454
 40
0.1818181818181818
 40
0.1818181818181818
 40
0.1818181818181818
 40
0.1818181818181818
 40
0.1931818181818182
 40
0.1931818181818182
 40
0.1931818181818182
 40
0.1931818181818182
 40
0.2045454545454545
 40
0.2045454545454545
 40
0.2045454545454545
 40
0.2045454545454545
 40
0.2159090909090909
 40
0.2159090909090909
 40
0.2159090909090909
 40
0.2159090909090909
 40
0.2272727272727272
 40
0.2272727272727272
 40
0.2272727272727272
 40
0.2272727272727272
 40
0.2386363636363636
 40
0.2386363636363636
 40
0.2386363636363636
 40
0.2386363636363636
 40
0.2499999999999999
 40
0.2499999999999999
 40
0.2499999999999999
 40
0.2499999999999999
 40
0.2613636363636363
 40
0.2613636363636363
 40
0.2613636363636363
 40
0.2613636363636363
 40
0.2727272727272727
 40
0.2727272727272727
 40
0.2727272727272727
 40
0.2727272727272727
 40
0.284090909090909
 40
0.284090909090909
 40
0.284090909090909
 40
0.284090909090909
 40
0.2954545454545454
 40
0.2954545454545454
 40
0.2954545454545454
 40
0.2954545454545454
 40
0.3068181818181817
 40
0.3068181818181817
 40
0.3068181818181817
 40
0.3068181818181817
 40
0.3181818181818181
 40
0.3181818181818181
 40
0.3181818181818181
 40
0.3181818181818181
 40
0.3295454545454544
 40
0.3295454545454544
 40
0.3295454545454544
 40
0.3295454545454544
 40
0.3409090909090908
 40
0.3409090909090908
 40
0.3409090909090908
 40
0.3409090909090908
 40
0.3522727272727271
 40
0.3522727272727271
 40
0.3522727272727271
 40
0.3522727272727271
 40
0.3636363636363635
 40
0.3636363636363635
 40
0.3636363636363635
 40
0.3636363636363635
 40
0.3749999999999998
 40
0.3749999999999998
 40
0.3749999999999998
 40
0.3749999999999998
 40
0.3863636363636362
 40
0.3863636363636362
 40
0.3863636363636362
 40
0.3863636363636362
 40
0.3977272727272725
 40
0.3977272727272725
 40
0.3977272727272725
 40
0.3977272727272725
 40
0.4090909090909089
 40
0.4090909090909089
 40
0.4090909090909089
 40
0.4090909090909089
 40
0.4204545454545453
 40
0.4204545454545453
 40
0.4204545454545453
 40
0.4204545454545453
 40
0.4318181818181816
 40
0.4318181818181816
 40
0.4318181818181816
 40
0.4318181818181816
 40
0.443181818181818
 40
0.443181818181818
 40
0.443181818181818
 40
0.443181818181818
 40
0.4545454545454543
 40
0.4545454545454543
 40
0.4545454545454543
 40
0.4545454545454543
 40
0.4659090909090907
 40
0.4659090909090907
 40
0.4659090909090907
 40
0.4659090909090907
 40
0.477272727272727
 40
0.477272727272727
 40
0.477272727272727
 40
0.477272727272727
 40
0.4886363636363634
 40
0.4886363636363634
 40
0.4886363636363634
 40
0.4886363636363634
 40
0.4999999999999997
 40
0.4999999999999997
 40
0.4999999999999997
 40
0.4999999999999997
 40
0.5113636363636361
 40
0.5113636363636361
 40
0.5113636363636361
 40
0.5113636363636361
 40
0.5227272727272725
 40
0.5227272727272725
 40
0.5227272727272725
 40
0.5227272727272725
 40
0.5340909090909088
 40
0.5340909090909088
 40
0.5340909090909088
 40
0.5340909090909088
 40
0.5454545454545452
 40
0.5454545454545452
 40
0.5454545454545452
 40
0.5454545454545452
 40
0.5568181818181816
 40
0.5568181818181816
 40
0.5568181818181816
 40
0.5568181818181816
 40
0.5681818181818179
 40
0.5681818181818179
 40
0.5681818181818179
 40
0.5681818181818179
 40
0.5795454545454543
 40
0.5795454545454543
 40
0.5795454545454543
 40
0.5795454545454543
 40
0.5909090909090906
 40
0.5909090909090906
 40
0.5909090909090906
 40
0.5909090909090906
 40
0.602272727272727
 40
0.602272727272727
 40
0.602272727272727
 40
0.602272727272727
 40
0.6136363636363633
 40
0.6136363636363633
 40
0.6136363636363633
 40
0.6136363636363633
 40
0.6249999999999997
 40
0.6249999999999997
 40
0.6249999999999997
 40
0.6249999999999997
 40
0.636363636363636
 40
0.636363636363636
 40
0.636363636363636
 40
0.636363636363636
 40
0.6477272727272724
 40
0.6477272727272724
 40
0.6477272727272724
 40
0.6477272727272724
 40
0.6590909090909087
 40
0.6590909090909087
 40
0.6590909090909087
 40
0.6590909090909087
 40
0.6704545454545451
 40
0.6704545454545451
 40
0.6704545454545451
 40
0.6704545454545451
 40
0.6818181818181814
 40
0.6818181818181814
 40
0.6818181818181814
 40
0.6818181818181814
 40
0.6931818181818178
 40
0.6931818181818178
 40
0.6931818181818178
 40
0.6931818181818178
 40
0.7045454545454541
 40
0.7045454545454541
 40
0.7045454545454541
 40
0.7045454545454541
 40
0.7159090909090905
 40
0.7159090909090905
 40
0.7159090909090905
 40
0.7159090909090905
 40
0.7272727272727269
 40
0.7272727272727269
 40
0.7272727272727269
 40
0.7272727272727269
 40
0.7386363636363632
 40
0.7386363636363632
 40
0.7386363636363632
 40
0.7386363636363632
 40
0.7499999999999996
 40
0.7499999999999996
 40
0.7499999999999996
 40
0.7499999999999996
 40
0.7613636363636359
 40
0.7613636363636359
 40
0.7613636363636359
 40
0.7613636363636359
 40
0.7727272727272723
 40
0.7727272727272723
 40
0.7727272727272723
 40
0.7727272727272723
 40
0.7840909090909086
 40
0.7840909090909086
 40
0.7840909090909086
 40
0.7840909090909086
 40
0.795454545454545
 40
0.795454545454545
 40
0.795454545454545
 40
0.795454545454545
 40
0.8068181818181813
 40
0.8068181818181813
 40
0.8068181818181813
 40
0.8068181818181813
 40
0.8181818181818177
 40
0.8181818181818177
 40
0.8181818181818177
 40
0.8181818181818177
 40
0.829545454545454
 40
0.829545454545454
 40
0.829545454545454
 40
0.829545454545454
 40
0.8409090909090904
 40
0.8409090909090904
 40
0.8409090909090904
 40
0.8409090909090904
 40
0.8522727272727267
 40
0.8522727272727267
 40
0.8522727272727267
 40
0.8522727272727267
 40
0.8636363636363631
 40
0.8636363636363631
 40
0.8636363636363631
 40
0.8636363636363631
 40
0.8749999999999994
 40
0.8749999999999994
 40
0.8749999999999994
 40
0.8749999999999994
 40
0.8863636363636358
 40
0.8863636363636358
 40
0.8863636363636358
 40
0.8863636363636358
 40
0.8977272727272722
 40
0.8977272727272722
 40
0.8977272727272722
 40
0.8977272727272722
 40
0.9090909090909085
 40
0.9090909090909085
 40
0.9090909090909085
 40
0.9090909090909085
 40
0.9204545454545449
 40
0.9204545454545449
 40
0.9204545454545449
 40
0.9204545454545449
 40
0.9318181818181812
 40
0.9318181818181812
 40
0.9318181818181812
 40
0.9318181818181812
 40
0.9431818181818176
 40
0.9431818181818176
 40
0.9431818181818176
 40
0.9431818181818176
 40
0.9545454545454539
 40
0.9545454545454539
 40
0.9545454545454539
 40
0.9545454545454539
 40
0.9659090909090903
 40
0.9659090909090903
 40
0.9659090909090903
 40
0.9659090909090903
 40
0.9772727272727266
 40
0.9772727272727266
 40
0.9772727272727266
 40
0.9772727272727266
 40
0.988636363636363
 40
0.988636363636363
 40
0.988636363636363
 40
0.988636363636363
 40
1.0
 40
1.0
 40
1.0
 40
1.0
 10
1.335318897637795
 20
0.3900314960629921
 30
0.0
 10
1.335318897637795
 20
0.3900314960629921
 30
0.0
 10
1.962972440944882
 20
0.7438385826771654
 30
0.0
 10
1.962972440944882
 20
0.7438385826771654
 30
0.0
 10
1.962972440944882
 20
0.7438385826771654
 30
0.0
 10
1.962972440944882
 20
0.7438385826771654
 30
0.0
 10
1.96248031496063
 20
0.7631456692913387
 30
0.0
 10
1.96248031496063
 20
0.7631456692913387
 30
0.0
 10
1.96248031496063
 20
0.7631456692913387
 30
0.0
 10
1.96248031496063
 20
0.7631456692913387
 30
0.0
 10
1.961031496062992
 20
0.7822047244094489
 30
0.0
 10
1.961031496062992
 20
0.7822047244094489
 30
0.0
 10
1.961031496062992
 20
0.7822047244094489
 30
0.0
 10
1.961031496062992
 20
0.7822047244094489
 30
0.0
 10
1.958637795275591
 20
0.8009803149606299
 30
0.0
 10
1.958637795275591
 20
0.8009803149606299
 30
0.0
 10
1.958637795275591
 20
0.8009803149606299
 30
0.0
 10
1.958637795275591
 20
0.8009803149606299
 30
0.0
 10
1.955338582677165
 20
0.8194645669291339
 30
0.0
 10
1.955338582677165
 20
0.8194645669291339
 30
0.0
 10
1.955338582677165
 20
0.8194645669291339
 30
0.0
 10
1.955338582677165
 20
0.8194645669291339
 30
0.0
 10
1.951145669291339
 20
0.8376181102362205
 30
0.0
 10
1.951145669291339
 20
0.8376181102362205
 30
0.0
 10
1.951145669291339
 20
0.8376181102362205
 30
0.0
 10
1.951145669291339
 20
0.8376181102362205
 30
0.0
 10
1.946086614173229
 20
0.8554291338582678
 30
0.0
 10
1.946086614173229
 20
0.8554291338582678
 30
0.0
 10
1.946086614173229
 20
0.8554291338582678
 30
0.0
 10
1.946086614173229
 20
0.8554291338582678
 30
0.0
 10
1.940185039370079
 20
0.8728661417322835
 30
0.0
 10
1.940185039370079
 20
0.8728661417322835
 30
0.0
 10
1.940185039370079
 20
0.8728661417322835
 30
0.0
 10
1.940185039370079
 20
0.8728661417322835
 30
0.0
 10
1.933468503937008
 20
0.8899094488188977
 30
0.0
 10
1.933468503937008
 20
0.8899094488188977
 30
0.0
 10
1.933468503937008
 20
0.8899094488188977
 30
0.0
 10
1.933468503937008
 20
0.8899094488188977
 30
0.0
 10
1.925944881889764
 20
0.9065314960629922
 30
0.0
 10
1.925944881889764
 20
0.9065314960629922
 30
0.0
 10
1.925944881889764
 20
0.9065314960629922
 30
0.0
 10
1.925944881889764
 20
0.9065314960629922
 30
0.0
 10
1.917657480314961
 20
0.9227125984251969
 30
0.0
 10
1.917657480314961
 20
0.9227125984251969
 30
0.0
 10
1.917657480314961
 20
0.9227125984251969
 30
0.0
 10
1.917657480314961
 20
0.9227125984251969
 30
0.0
 10
1.908614173228347
 20
0.9384291338582678
 30
0.0
 10
1.908614173228347
 20
0.9384291338582678
 30
0.0
 10
1.908614173228347
 20
0.9384291338582678
 30
0.0
 10
1.908614173228347
 20
0.9384291338582678
 30
0.0
 10
1.898854330708661
 20
0.9536614173228347
 30
0.0
 10
1.898854330708661
 20
0.9536614173228347
 30
0.0
 10
1.898854330708661
 20
0.9536614173228347
 30
0.0
 10
1.898854330708661
 20
0.9536614173228347
 30
0.0
 10
1.888389763779528
 20
0.9683740157480315
 30
0.0
 10
1.888389763779528
 20
0.9683740157480315
 30
0.0
 10
1.888389763779528
 20
0.9683740157480315
 30
0.0
 10
1.888389763779528
 20
0.9683740157480315
 30
0.0
 10
1.877248031496063
 20
0.9825551181102362
 30
0.0
 10
1.877248031496063
 20
0.9825551181102362
 30
0.0
 10
1.877248031496063
 20
0.9825551181102362
 30
0.0
 10
1.877248031496063
 20
0.9825551181102362
 30
0.0
 10
1.865448818897638
 20
0.9961732283464567
 30
0.0
 10
1.865448818897638
 20
0.9961732283464567
 30
0.0
 10
1.865448818897638
 20
0.9961732283464567
 30
0.0
 10
1.865448818897638
 20
0.9961732283464567
 30
0.0
 10
1.853027559055118
 20
1.009212598425197
 30
0.0
 10
1.853027559055118
 20
1.009212598425197
 30
0.0
 10
1.853027559055118
 20
1.009212598425197
 30
0.0
 10
1.853027559055118
 20
1.009212598425197
 30
0.0
 10
1.839988188976378
 20
1.021633858267717
 30
0.0
 10
1.839988188976378
 20
1.021633858267717
 30
0.0
 10
1.839988188976378
 20
1.021633858267717
 30
0.0
 10
1.839988188976378
 20
1.021633858267717
 30
0.0
 10
1.826370078740158
 20
1.033433070866142
 30
0.0
 10
1.826370078740158
 20
1.033433070866142
 30
0.0
 10
1.826370078740158
 20
1.033433070866142
 30
0.0
 10
1.826370078740158
 20
1.033433070866142
 30
0.0
 10
1.812188976377953
 20
1.044574803149606
 30
0.0
 10
1.812188976377953
 20
1.044574803149606
 30
0.0
 10
1.812188976377953
 20
1.044574803149606
 30
0.0
 10
1.812188976377953
 20
1.044574803149606
 30
0.0
 10
1.797476377952756
 20
1.05503937007874
 30
0.0
 10
1.797476377952756
 20
1.05503937007874
 30
0.0
 10
1.797476377952756
 20
1.05503937007874
 30
0.0
 10
1.797476377952756
 20
1.05503937007874
 30
0.0
 10
1.782244094488189
 20
1.064799212598425
 30
0.0
 10
1.782244094488189
 20
1.064799212598425
 30
0.0
 10
1.782244094488189
 20
1.064799212598425
 30
0.0
 10
1.782244094488189
 20
1.064799212598425
 30
0.0
 10
1.766527559055118
 20
1.073842519685039
 30
0.0
 10
1.766527559055118
 20
1.073842519685039
 30
0.0
 10
1.766527559055118
 20
1.073842519685039
 30
0.0
 10
1.766527559055118
 20
1.073842519685039
 30
0.0
 10
1.750346456692913
 20
1.082129921259843
 30
0.0
 10
1.750346456692913
 20
1.082129921259843
 30
0.0
 10
1.750346456692913
 20
1.082129921259843
 30
0.0
 10
1.750346456692913
 20
1.082129921259843
 30
0.0
 10
1.733724409448819
 20
1.089653543307087
 30
0.0
 10
1.733724409448819
 20
1.089653543307087
 30
0.0
 10
1.733724409448819
 20
1.089653543307087
 30
0.0
 10
1.733724409448819
 20
1.089653543307087
 30
0.0
 10
1.716681102362205
 20
1.096370078740158
 30
0.0
 10
1.716681102362205
 20
1.096370078740158
 30
0.0
 10
1.716681102362205
 20
1.096370078740158
 30
0.0
 10
1.716681102362205
 20
1.096370078740158
 30
0.0
 10
1.699244094488189
 20
1.102271653543307
 30
0.0
 10
1.699244094488189
 20
1.102271653543307
 30
0.0
 10
1.699244094488189
 20
1.102271653543307
 30
0.0
 10
1.699244094488189
 20
1.102271653543307
 30
0.0
 10
1.681433070866142
 20
1.107330708661418
 30
0.0
 10
1.681433070866142
 20
1.107330708661418
 30
0.0
 10
1.681433070866142
 20
1.107330708661418
 30
0.0
 10
1.681433070866142
 20
1.107330708661418
 30
0.0
 10
1.663279527559055
 20
1.111523622047244
 30
0.0
 10
1.663279527559055
 20
1.111523622047244
 30
0.0
 10
1.663279527559055
 20
1.111523622047244
 30
0.0
 10
1.663279527559055
 20
1.111523622047244
 30
0.0
 10
1.644795275590551
 20
1.114822834645669
 30
0.0
 10
1.644795275590551
 20
1.114822834645669
 30
0.0
 10
1.644795275590551
 20
1.114822834645669
 30
0.0
 10
1.644795275590551
 20
1.114822834645669
 30
0.0
 10
1.62601968503937
 20
1.117216535433071
 30
0.0
 10
1.62601968503937
 20
1.117216535433071
 30
0.0
 10
1.62601968503937
 20
1.117216535433071
 30
0.0
 10
1.62601968503937
 20
1.117216535433071
 30
0.0
 10
1.60696062992126
 20
1.118665354330709
 30
0.0
 10
1.60696062992126
 20
1.118665354330709
 30
0.0
 10
1.60696062992126
 20
1.118665354330709
 30
0.0
 10
1.60696062992126
 20
1.118665354330709
 30
0.0
 10
1.587653543307087
 20
1.119157480314961
 30
0.0
 10
1.587653543307087
 20
1.119157480314961
 30
0.0
 10
1.587653543307087
 20
1.119157480314961
 30
0.0
 10
1.587653543307087
 20
1.119157480314961
 30
0.0
 10
1.568338582677165
 20
1.118665354330709
 30
0.0
 10
1.568338582677165
 20
1.118665354330709
 30
0.0
 10
1.568338582677165
 20
1.118665354330709
 30
0.0
 10
1.568338582677165
 20
1.118665354330709
 30
0.0
 10
1.549279527559055
 20
1.117216535433071
 30
0.0
 10
1.549279527559055
 20
1.117216535433071
 30
0.0
 10
1.549279527559055
 20
1.117216535433071
 30
0.0
 10
1.549279527559055
 20
1.117216535433071
 30
0.0
 10
1.530496062992126
 20
1.114822834645669
 30
0.0
 10
1.530496062992126
 20
1.114822834645669
 30
0.0
 10
1.530496062992126
 20
1.114822834645669
 30
0.0
 10
1.530496062992126
 20
1.114822834645669
 30
0.0
 10
1.51201968503937
 20
1.111523622047244
 30
0.0
 10
1.51201968503937
 20
1.111523622047244
 30
0.0
 10
1.51201968503937
 20
1.111523622047244
 30
0.0
 10
1.51201968503937
 20
1.111523622047244
 30
0.0
 10
1.493858267716536
 20
1.107330708661418
 30
0.0
 10
1.493858267716536
 20
1.107330708661418
 30
0.0
 10
1.493858267716536
 20
1.107330708661418
 30
0.0
 10
1.493858267716536
 20
1.107330708661418
 30
0.0
 10
1.476051181102362
 20
1.102271653543307
 30
0.0
 10
1.476051181102362
 20
1.102271653543307
 30
0.0
 10
1.476051181102362
 20
1.102271653543307
 30
0.0
 10
1.476051181102362
 20
1.102271653543307
 30
0.0
 10
1.458614173228346
 20
1.096370078740158
 30
0.0
 10
1.458614173228346
 20
1.096370078740158
 30
0.0
 10
1.458614173228346
 20
1.096370078740158
 30
0.0
 10
1.458614173228346
 20
1.096370078740158
 30
0.0
 10
1.441574803149606
 20
1.089653543307087
 30
0.0
 10
1.441574803149606
 20
1.089653543307087
 30
0.0
 10
1.441574803149606
 20
1.089653543307087
 30
0.0
 10
1.441574803149606
 20
1.089653543307087
 30
0.0
 10
1.42494094488189
 20
1.082129921259843
 30
0.0
 10
1.42494094488189
 20
1.082129921259843
 30
0.0
 10
1.42494094488189
 20
1.082129921259843
 30
0.0
 10
1.42494094488189
 20
1.082129921259843
 30
0.0
 10
1.408759842519685
 20
1.073842519685039
 30
0.0
 10
1.408759842519685
 20
1.073842519685039
 30
0.0
 10
1.408759842519685
 20
1.073842519685039
 30
0.0
 10
1.408759842519685
 20
1.073842519685039
 30
0.0
 10
1.393043307086614
 20
1.064799212598425
 30
0.0
 10
1.393043307086614
 20
1.064799212598425
 30
0.0
 10
1.393043307086614
 20
1.064799212598425
 30
0.0
 10
1.393043307086614
 20
1.064799212598425
 30
0.0
 10
0.7653897637795276
 20
0.710992125984252
 30
0.0
 10
0.7653897637795276
 20
0.710992125984252
 30
0.0
 10
0.7653897637795276
 20
0.710992125984252
 30
0.0
 10
0.7653897637795276
 20
0.710992125984252
 30
0.0
 10
0.7811062992125984
 20
0.7200354330708662
 30
0.0
 10
0.7811062992125984
 20
0.7200354330708662
 30
0.0
 10
0.7811062992125984
 20
0.7200354330708662
 30
0.0
 10
0.7811062992125984
 20
0.7200354330708662
 30
0.0
 10
0.7972874015748032
 20
0.7283228346456693
 30
0.0
 10
0.7972874015748032
 20
0.7283228346456693
 30
0.0
 10
0.7972874015748032
 20
0.7283228346456693
 30
0.0
 10
0.7972874015748032
 20
0.7283228346456693
 30
0.0
 10
0.8139212598425197
 20
0.7358464566929134
 30
0.0
 10
0.8139212598425197
 20
0.7358464566929134
 30
0.0
 10
0.8139212598425197
 20
0.7358464566929134
 30
0.0
 10
0.8139212598425197
 20
0.7358464566929134
 30
0.0
 10
0.8309606299212599
 20
0.7425629921259843
 30
0.0
 10
0.8309606299212599
 20
0.7425629921259843
 30
0.0
 10
0.8309606299212599
 20
0.7425629921259843
 30
0.0
 10
0.8309606299212599
 20
0.7425629921259843
 30
0.0
 10
0.8483976377952757
 20
0.7484645669291339
 30
0.0
 10
0.8483976377952757
 20
0.7484645669291339
 30
0.0
 10
0.8483976377952757
 20
0.7484645669291339
 30
0.0
 10
0.8483976377952757
 20
0.7484645669291339
 30
0.0
 10
0.8662047244094489
 20
0.7535236220472441
 30
0.0
 10
0.8662047244094489
 20
0.7535236220472441
 30
0.0
 10
0.8662047244094489
 20
0.7535236220472441
 30
0.0
 10
0.8662047244094489
 20
0.7535236220472441
 30
0.0
 10
0.8843661417322835
 20
0.7577165354330709
 30
0.0
 10
0.8843661417322835
 20
0.7577165354330709
 30
0.0
 10
0.8843661417322835
 20
0.7577165354330709
 30
0.0
 10
0.8843661417322835
 20
0.7577165354330709
 30
0.0
 10
0.9028425196850394
 20
0.7610157480314961
 30
0.0
 10
0.9028425196850394
 20
0.7610157480314961
 30
0.0
 10
0.9028425196850394
 20
0.7610157480314961
 30
0.0
 10
0.9028425196850394
 20
0.7610157480314961
 30
0.0
 10
0.9216259842519685
 20
0.7634094488188977
 30
0.0
 10
0.9216259842519685
 20
0.7634094488188977
 30
0.0
 10
0.9216259842519685
 20
0.7634094488188977
 30
0.0
 10
0.9216259842519685
 20
0.7634094488188977
 30
0.0
 10
0.9406850393700788
 20
0.7648582677165354
 30
0.0
 10
0.9406850393700788
 20
0.7648582677165354
 30
0.0
 10
0.9406850393700788
 20
0.7648582677165354
 30
0.0
 10
0.9406850393700788
 20
0.7648582677165354
 30
0.0
 10
0.9600000000000001
 20
0.7653503937007874
 30
0.0
 10
0.9600000000000001
 20
0.7653503937007874
 30
0.0
 10
0.9600000000000001
 20
0.7653503937007874
 30
0.0
 10
0.9600000000000001
 20
0.7653503937007874
 30
0.0
 10
0.9793070866141733
 20
0.7648582677165354
 30
0.0
 10
0.9793070866141733
 20
0.7648582677165354
 30
0.0
 10
0.9793070866141733
 20
0.7648582677165354
 30
0.0
 10
0.9793070866141733
 20
0.7648582677165354
 30
0.0
 10
0.9983661417322836
 20
0.7634094488188977
 30
0.0
 10
0.9983661417322836
 20
0.7634094488188977
 30
0.0
 10
0.9983661417322836
 20
0.7634094488188977
 30
0.0
 10
0.9983661417322836
 20
0.7634094488188977
 30
0.0
 10
1.017141732283465
 20
0.7610157480314961
 30
0.0
 10
1.017141732283465
 20
0.7610157480314961
 30
0.0
 10
1.017141732283465
 20
0.7610157480314961
 30
0.0
 10
1.017141732283465
 20
0.7610157480314961
 30
0.0
 10
1.035625984251969
 20
0.7577165354330709
 30
0.0
 10
1.035625984251969
 20
0.7577165354330709
 30
0.0
 10
1.035625984251969
 20
0.7577165354330709
 30
0.0
 10
1.035625984251969
 20
0.7577165354330709
 30
0.0
 10
1.053779527559055
 20
0.7535236220472441
 30
0.0
 10
1.053779527559055
 20
0.7535236220472441
 30
0.0
 10
1.053779527559055
 20
0.7535236220472441
 30
0.0
 10
1.053779527559055
 20
0.7535236220472441
 30
0.0
 10
1.071590551181102
 20
0.7484645669291339
 30
0.0
 10
1.071590551181102
 20
0.7484645669291339
 30
0.0
 10
1.071590551181102
 20
0.7484645669291339
 30
0.0
 10
1.071590551181102
 20
0.7484645669291339
 30
0.0
 10
1.089027559055118
 20
0.7425629921259843
 30
0.0
 10
1.089027559055118
 20
0.7425629921259843
 30
0.0
 10
1.089027559055118
 20
0.7425629921259843
 30
0.0
 10
1.089027559055118
 20
0.7425629921259843
 30
0.0
 10
1.106070866141732
 20
0.7358464566929134
 30
0.0
 10
1.106070866141732
 20
0.7358464566929134
 30
0.0
 10
1.106070866141732
 20
0.7358464566929134
 30
0.0
 10
1.106070866141732
 20
0.7358464566929134
 30
0.0
 10
1.122692913385827
 20
0.7283228346456693
 30
0.0
 10
1.122692913385827
 20
0.7283228346456693
 30
0.0
 10
1.122692913385827
 20
0.7283228346456693
 30
0.0
 10
1.122692913385827
 20
0.7283228346456693
 30
0.0
 10
1.138874015748032
 20
0.7200354330708662
 30
0.0
 10
1.138874015748032
 20
0.7200354330708662
 30
0.0
 10
1.138874015748032
 20
0.7200354330708662
 30
0.0
 10
1.138874015748032
 20
0.7200354330708662
 30
0.0
 10
1.154590551181102
 20
0.710992125984252
 30
0.0
 10
1.154590551181102
 20
0.710992125984252
 30
0.0
 10
1.154590551181102
 20
0.710992125984252
 30
0.0
 10
1.154590551181102
 20
0.710992125984252
 30
0.0
 10
1.169822834645669
 20
0.701232283464567
 30
0.0
 10
1.169822834645669
 20
0.701232283464567
 30
0.0
 10
1.169822834645669
 20
0.701232283464567
 30
0.0
 10
1.169822834645669
 20
0.701232283464567
 30
0.0
 10
1.184535433070866
 20
0.6907677165354331
 30
0.0
 10
1.184535433070866
 20
0.6907677165354331
 30
0.0
 10
1.184535433070866
 20
0.6907677165354331
 30
0.0
 10
1.184535433070866
 20
0.6907677165354331
 30
0.0
 10
1.198716535433071
 20
0.6796259842519685
 30
0.0
 10
1.198716535433071
 20
0.6796259842519685
 30
0.0
 10
1.198716535433071
 20
0.6796259842519685
 30
0.0
 10
1.198716535433071
 20
0.6796259842519685
 30
0.0
 10
1.212334645669291
 20
0.6678267716535433
 30
0.0
 10
1.212334645669291
 20
0.6678267716535433
 30
0.0
 10
1.212334645669291
 20
0.6678267716535433
 30
0.0
 10
1.212334645669291
 20
0.6678267716535433
 30
0.0
 10
1.225374015748032
 20
0.6554055118110237
 30
0.0
 10
1.225374015748032
 20
0.6554055118110237
 30
0.0
 10
1.225374015748032
 20
0.6554055118110237
 30
0.0
 10
1.225374015748032
 20
0.6554055118110237
 30
0.0
 10
1.237795275590551
 20
0.6423661417322835
 30
0.0
 10
1.237795275590551
 20
0.6423661417322835
 30
0.0
 10
1.237795275590551
 20
0.6423661417322835
 30
0.0
 10
1.237795275590551
 20
0.6423661417322835
 30
0.0
 10
1.249594488188976
 20
0.6287480314960631
 30
0.0
 10
1.249594488188976
 20
0.6287480314960631
 30
0.0
 10
1.249594488188976
 20
0.6287480314960631
 30
0.0
 10
1.249594488188976
 20
0.6287480314960631
 30
0.0
 10
1.260736220472441
 20
0.6145669291338582
 30
0.0
 10
1.260736220472441
 20
0.6145669291338582
 30
0.0
 10
1.260736220472441
 20
0.6145669291338582
 30
0.0
 10
1.260736220472441
 20
0.6145669291338582
 30
0.0
 10
1.271200787401575
 20
0.5998543307086615
 30
0.0
 10
1.271200787401575
 20
0.5998543307086615
 30
0.0
 10
1.271200787401575
 20
0.5998543307086615
 30
0.0
 10
1.271200787401575
 20
0.5998543307086615
 30
0.0
 10
1.28096062992126
 20
0.5846220472440945
 30
0.0
 10
1.28096062992126
 20
0.5846220472440945
 30
0.0
 10
1.28096062992126
 20
0.5846220472440945
 30
0.0
 10
1.28096062992126
 20
0.5846220472440945
 30
0.0
 10
1.290003937007874
 20
0.5689055118110237
 30
0.0
 10
1.290003937007874
 20
0.5689055118110237
 30
0.0
 10
1.290003937007874
 20
0.5689055118110237
 30
0.0
 10
1.290003937007874
 20
0.5689055118110237
 30
0.0
 10
1.298291338582677
 20
0.552724409448819
 30
0.0
 10
1.298291338582677
 20
0.552724409448819
 30
0.0
 10
1.298291338582677
 20
0.552724409448819
 30
0.0
 10
1.298291338582677
 20
0.552724409448819
 30
0.0
 10
1.305814960629921
 20
0.5361023622047244
 30
0.0
 10
1.305814960629921
 20
0.5361023622047244
 30
0.0
 10
1.305814960629921
 20
0.5361023622047244
 30
0.0
 10
1.305814960629921
 20
0.5361023622047244
 30
0.0
 10
1.312531496062992
 20
0.5190590551181102
 30
0.0
 10
1.312531496062992
 20
0.5190590551181102
 30
0.0
 10
1.312531496062992
 20
0.5190590551181102
 30
0.0
 10
1.312531496062992
 20
0.5190590551181102
 30
0.0
 10
1.318433070866142
 20
0.5016220472440945
 30
0.0
 10
1.318433070866142
 20
0.5016220472440945
 30
0.0
 10
1.318433070866142
 20
0.5016220472440945
 30
0.0
 10
1.318433070866142
 20
0.5016220472440945
 30
0.0
 10
1.323492125984252
 20
0.4838110236220473
 30
0.0
 10
1.323492125984252
 20
0.4838110236220473
 30
0.0
 10
1.323492125984252
 20
0.4838110236220473
 30
0.0
 10
1.323492125984252
 20
0.4838110236220473
 30
0.0
 10
1.327685039370079
 20
0.4656574803149606
 30
0.0
 10
1.327685039370079
 20
0.4656574803149606
 30
0.0
 10
1.327685039370079
 20
0.4656574803149606
 30
0.0
 10
1.327685039370079
 20
0.4656574803149606
 30
0.0
 10
1.330984251968504
 20
0.4471732283464567
 30
0.0
 10
1.330984251968504
 20
0.4471732283464567
 30
0.0
 10
1.330984251968504
 20
0.4471732283464567
 30
0.0
 10
1.330984251968504
 20
0.4471732283464567
 30
0.0
 10
1.333377952755906
 20
0.4283976377952756
 30
0.0
 10
1.333377952755906
 20
0.4283976377952756
 30
0.0
 10
1.333377952755906
 20
0.4283976377952756
 30
0.0
 10
1.333377952755906
 20
0.4283976377952756
 30
0.0
 10
1.334826771653543
 20
0.4093385826771654
 30
0.0
 10
1.334826771653543
 20
0.4093385826771654
 30
0.0
 10
1.334826771653543
 20
0.4093385826771654
 30
0.0
 10
1.334826771653543
 20
0.4093385826771654
 30
0.0
 10
1.335318897637795
 20
0.3900314960629921
 30
0.0
 10
1.335318897637795
 20
0.3900314960629921
 30
0.0
  0
SPLINE
  5
58
330
1F
100
AcDbEntity
  8
Layer 1
 62
   253
100
AcDbSpline
210
0.0
220
0.0
230
1.0
 70
    11
 71
     3
 72
    20
 73
    16
 74
     0
 42
0.0000000001
 43
0.0000000001
 40
0.0
 40
0.0
 40
0.0
 40
0.0
 40
0.25
 40
0.25
 40
0.25
 40
0.25
 40
0.5
 40
0.5
 40
0.5
 40
0.5
 40
0.75
 40
0.75
 40
0.75
 40
0.75
 40
1.0
 40
1.0
 40
1.0
 40
1.0
 10
1.335318897637795
 20
-0.2371023622047244
 30
0.0
 10
1.335318897637795
 20
-0.2371023622047244
 30
0.0
 10
1.962972440944882
 20
0.1167047244094488
 30
0.0
 10
1.962972440944882
 20
0.1167047244094488
 30
0.0
 10
1.962972440944882
 20
0.1167047244094488
 30
0.0
 10
1.962972440944882
 20
0.1167047244094488
 30
0.0
 10
1.962972440944882
 20
0.7438385826771654
 30
0.0
 10
1.962972440944882
 20
0.7438385826771654
 30
0.0
 10
1.962972440944882
 20
0.7438385826771654
 30
0.0
 10
1.962972440944882
 20
0.7438385826771654
 30
0.0
 10
1.335318897637795
 20
0.3900314960629921
 30
0.0
 10
1.335318897637795
 20
0.3900314960629921
 30
0.0
 10
1.335318897637795
 20
0.3900314960629921
 30
0.0
 10
1.335318897637795
 20
0.3900314960629921
 30
0.0
 10
1.335318897637795
 20
-0.2371023622047244
 30
0.0
 10
1.335318897637795
 20
-0.2371023622047244
 30
0.0
  0
SPLINE
  5
59
330
1F
100
AcDbEntity
  8
Layer 1
 62
   250
370
     5
100
AcDbSpline
210
0.0
220
0.0
230
1.0
 70
    11
 71
     3
 72
    20
 73
    16
 74
     0
 42
0.0000000001
 43
0.0000000001
 40
0.0
 40
0.0
 40
0.0
 40
0.0
 40
0.25
 40
0.25
 40
0.25
 40
0.25
 40
0.5
 40
0.5
 40
0.5
 40
0.5
 40
0.75
 40
0.75
 40
0.75
 40
0.75
 40
1.0
 40
1.0
 40
1.0
 40
1.0
 10
1.335318897637795
 20
-0.2371023622047244
 30
0.0
 10
1.335318897637795
 20
-0.2371023622047244
 30
0.0
 10
1.962972440944882
 20
0.1167047244094488
 30
0.0
 10
1.962972440944882
 20
0.1167047244094488
 30
0.0
 10
1.962972440944882
 20
0.1167047244094488
 30
0.0
 10
1.962972440944882
 20
0.1167047244094488
 30
0.0
 10
1.962972440944882
 20
0.7438385826771654
 30
0.0
 10
1.962972440944882
 20
0.7438385826771654
 30
0.0
 10
1.962972440944882
 20
0.7438385826771654
 30
0.0
 10
1.962972440944882
 20
0.7438385826771654
 30
0.0
 10
1.335318897637795
 20
0.3900314960629921
 30
0.0
 10
1.335318897637795
 20
0.3900314960629921
 30
0.0
 10
1.335318897637795
 20
0.3900314960629921
 30
0.0
 10
1.335318897637795
 20
0.3900314960629921
 30
0.0
 10
1.335318897637795
 20
-0.2371023622047244
 30
0.0
 10
1.335318897637795
 20
-0.2371023622047244
 30
0.0
  0
SPLINE
  5
5A
330
1F
100
AcDbEntity
  8
Layer 1
 62
   252
100
AcDbSpline
210
0.0
220
0.0
230
1.0
 70
    11
 71
     3
 72
    20
 73
    16
 74
     0
 42
0.0000000001
 43
0.0000000001
 40
0.0
 40
0.0
 40
0.0
 40
0.0
 40
0.25
 40
0.25
 40
0.25
 40
0.25
 40
0.5
 40
0.5
 40
0.5
 40
0.5
 40
0.75
 40
0.75
 40
0.75
 40
0.75
 40
1.0
 40
1.0
 40
1.0
 40
1.0
 10
0.5846850393700788
 20
0.3900314960629921
 30
0.0
 10
0.5846850393700788
 20
0.3900314960629921
 30
0.0
 10
1.212338582677165
 20
0.7438385826771654
 30
0.0
 10
1.212338582677165
 20
0.7438385826771654
 30
0.0
 10
1.212338582677165
 20
0.7438385826771654
 30
0.0
 10
1.212338582677165
 20
0.7438385826771654
 30
0.0
 10
-1.537027559055118
 20
0.7438385826771654
 30
0.0
 10
-1.537027559055118
 20
0.7438385826771654
 30
0.0
 10
-1.537027559055118
 20
0.7438385826771654
 30
0.0
 10
-1.537027559055118
 20
0.7438385826771654
 30
0.0
 10
-2.164681102362205
 20
0.3900314960629921
 30
0.0
 10
-2.164681102362205
 20
0.3900314960629921
 30
0.0
 10
-2.164681102362205
 20
0.3900314960629921
 30
0.0
 10
-2.164681102362205
 20
0.3900314960629921
 30
0.0
 10
0.5846850393700788
 20
0.3900314960629921
 30
0.0
 10
0.5846850393700788
 20
0.3900314960629921
 30
0.0
  0
SPLINE
  5
5B
330
1F
100
AcDbEntity
  8
Layer 1
 62
   250
370
     5
100
AcDbSpline
210
0.0
220
0.0
230
1.0
 70
    11
 71
     3
 72
    20
 73
    16
 74
     0
 42
0.0000000001
 43
0.0000000001
 40
0.0
 40
0.0
 40
0.0
 40
0.0
 40
0.25
 40
0.25
 40
0.25
 40
0.25
 40
0.5
 40
0.5
 40
0.5
 40
0.5
 40
0.75
 40
0.75
 40
0.75
 40
0.75
 40
1.0
 40
1.0
 40
1.0
 40
1.0
 10
0.5846850393700788
 20
0.3900314960629921
 30
0.0
 10
0.5846850393700788
 20
0.3900314960629921
 30
0.0
 10
1.212338582677165
 20
0.7438385826771654
 30
0.0
 10
1.212338582677165
 20
0.7438385826771654
 30
0.0
 10
1.212338582677165
 20
0.7438385826771654
 30
0.0
 10
1.212338582677165
 20
0.7438385826771654
 30
0.0
 10
-1.537027559055118
 20
0.7438385826771654
 30
0.0
 10
-1.537027559055118
 20
0.7438385826771654
 30
0.0
 10
-1.537027559055118
 20
0.7438385826771654
 30
0.0
 10
-1.537027559055118
 20
0.7438385826771654
 30
0.0
 10
-2.164681102362205
 20
0.3900314960629921
 30
0.0
 10
-2.164681102362205
 20
0.3900314960629921
 30
0.0
 10
-2.164681102362205
 20
0.3900314960629921
 30
0.0
 10
-2.164681102362205
 20
0.3900314960629921
 30
0.0
 10
0.5846850393700788
 20
0.3900314960629921
 30
0.0
 10
0.5846850393700788
 20
0.3900314960629921
 30
0.0
  0
SPLINE
  5
5C
330
1F
100
AcDbEntity
  8
Layer 1
 62
   253
100
AcDbSpline
210
0.0
220
0.0
230
1.0
 70
    11
 71
     3
 72
    28
 73
    24
 74
     0
 42
0.0000000001
 43
0.0000000001
 40
0.0
 40
0.0
 40
0.0
 40
0.0
 40
0.1666666666666667
 40
0.1666666666666667
 40
0.1666666666666667
 40
0.1666666666666667
 40
0.3333333333333333
 40
0.3333333333333333
 40
0.3333333333333333
 40
0.3333333333333333
 40
0.5
 40
0.5
 40
0.5
 40
0.5
 40
0.6666666666666666
 40
0.6666666666666666
 40
0.6666666666666666
 40
0.6666666666666666
 40
0.8333333333333333
 40
0.8333333333333333
 40
0.8333333333333333
 40
0.8333333333333333
 40
1.0
 40
1.0
 40
1.0
 40
1.0
 10
1.335318897637795
 20
0.3900314960629921
 30
0.0
 10
1.335318897637795
 20
0.3900314960629921
 30
0.0
 10
1.962972440944882
 20
0.7438385826771654
 30
0.0
 10
1.962972440944882
 20
0.7438385826771654
 30
0.0
 10
1.962972440944882
 20
0.7438385826771654
 30
0.0
 10
1.962972440944882
 20
0.7438385826771654
 30
0.0
 10
1.96248031496063
 20
0.7631456692913387
 30
0.0
 10
1.96248031496063
 20
0.7631456692913387
 30
0.0
 10
1.96248031496063
 20
0.7631456692913387
 30
0.0
 10
1.96248031496063
 20
0.7631456692913387
 30
0.0
 10
1.961031496062992
 20
0.7822047244094489
 30
0.0
 10
1.961031496062992
 20
0.7822047244094489
 30
0.0
 10
1.961031496062992
 20
0.7822047244094489
 30
0.0
 10
1.961031496062992
 20
0.7822047244094489
 30
0.0
 10
1.333377952755906
 20
0.4283976377952756
 30
0.0
 10
1.333377952755906
 20
0.4283976377952756
 30
0.0
 10
1.333377952755906
 20
0.4283976377952756
 30
0.0
 10
1.333377952755906
 20
0.4283976377952756
 30
0.0
 10
1.334826771653543
 20
0.4093385826771654
 30
0.0
 10
1.334826771653543
 20
0.4093385826771654
 30
0.0
 10
1.334826771653543
 20
0.4093385826771654
 30
0.0
 10
1.334826771653543
 20
0.4093385826771654
 30
0.0
 10
1.335318897637795
 20
0.3900314960629921
 30
0.0
 10
1.335318897637795
 20
0.3900314960629921
 30
0.0
  0
SPLINE
  5
5D
330
1F
100
AcDbEntity
  8
Layer 1
 62
   253
100
AcDbSpline
210
0.0
220
0.0
230
1.0
 70
    11
 71
     3
 72
    28
 73
    24
 74
     0
 42
0.0000000001
 43
0.0000000001
 40
0.0
 40
0.0
 40
0.0
 40
0.0
 40
0.1666666666666667
 40
0.1666666666666667
 40
0.1666666666666667
 40
0.1666666666666667
 40
0.3333333333333333
 40
0.3333333333333333
 40
0.3333333333333333
 40
0.3333333333333333
 40
0.5
 40
0.5
 40
0.5
 40
0.5
 40
0.6666666666666666
 40
0.6666666666666666
 40
0.6666666666666666
 40
0.6666666666666666
 40
0.8333333333333333
 40
0.8333333333333333
 40
0.8333333333333333
 40
0.8333333333333333
 40
1.0
 40
1.0
 40
1.0
 40
1.0
 10
1.333377952755906
 20
0.4283976377952756
 30
0.0
 10
1.333377952755906
 20
0.4283976377952756
 30
0.0
 10
1.961031496062992
 20
0.7822047244094489
 30
0.0
 10
1.961031496062992
 20
0.7822047244094489
 30
0.0
 10
1.961031496062992
 20
0.7822047244094489
 30
0.0
 10
1.961031496062992
 20
0.7822047244094489
 30
0.0
 10
1.958637795275591
 20
0.8009803149606299
 30
0.0
 10
1.958637795275591
 20
0.8009803149606299
 30
0.0
 10
1.958637795275591
 20
0.8009803149606299
 30
0.0
 10
1.958637795275591
 20
0.8009803149606299
 30
0.0
 10
1.955338582677165
 20
0.8194645669291339
 30
0.0
 10
1.955338582677165
 20
0.8194645669291339
 30
0.0
 10
1.955338582677165
 20
0.8194645669291339
 30
0.0
 10
1.955338582677165
 20
0.8194645669291339
 30
0.0
 10
1.327685039370079
 20
0.4656574803149606
 30
0.0
 10
1.327685039370079
 20
0.4656574803149606
 30
0.0
 10
1.327685039370079
 20
0.4656574803149606
 30
0.0
 10
1.327685039370079
 20
0.4656574803149606
 30
0.0
 10
1.330984251968504
 20
0.4471732283464567
 30
0.0
 10
1.330984251968504
 20
0.4471732283464567
 30
0.0
 10
1.330984251968504
 20
0.4471732283464567
 30
0.0
 10
1.330984251968504
 20
0.4471732283464567
 30
0.0
 10
1.333377952755906
 20
0.4283976377952756
 30
0.0
 10
1.333377952755906
 20
0.4283976377952756
 30
0.0
  0
SPLINE
  5
5E
330
1F
100
AcDbEntity
  8
Layer 1
 62
   253
100
AcDbSpline
210
0.0
220
0.0
230
1.0
 70
    11
 71
     3
 72
    28
 73
    24
 74
     0
 42
0.0000000001
 43
0.0000000001
 40
0.0
 40
0.0
 40
0.0
 40
0.0
 40
0.1666666666666667
 40
0.1666666666666667
 40
0.1666666666666667
 40
0.1666666666666667
 40
0.3333333333333333
 40
0.3333333333333333
 40
0.3333333333333333
 40
0.3333333333333333
 40
0.5
 40
0.5
 40
0.5
 40
0.5
 40
0.6666666666666666
 40
0.6666666666666666
 40
0.6666666666666666
 40
0.6666666666666666
 40
0.8333333333333333
 40
0.8333333333333333
 40
0.8333333333333333
 40
0.8333333333333333
 40
1.0
 40
1.0
 40
1.0
 40
1.0
 10
1.327685039370079
 20
0.4656574803149606
 30
0.0
 10
1.327685039370079
 20
0.4656574803149606
 30
0.0
 10
1.955338582677165
 20
0.8194645669291339
 30
0.0
 10
1.955338582677165
 20
0.8194645669291339
 30
0.0
 10
1.955338582677165
 20
0.8194645669291339
 30
0.0
 10
1.955338582677165
 20
0.8194645669291339
 30
0.0
 10
1.951145669291339
 20
0.8376181102362205
 30
0.0
 10
1.951145669291339
 20
0.8376181102362205
 30
0.0
 10
1.951145669291339
 20
0.8376181102362205
 30
0.0
 10
1.951145669291339
 20
0.8376181102362205
 30
0.0
 10
1.946086614173229
 20
0.8554291338582678
 30
0.0
 10
1.946086614173229
 20
0.8554291338582678
 30
0.0
 10
1.946086614173229
 20
0.8554291338582678
 30
0.0
 10
1.946086614173229
 20
0.8554291338582678
 30
0.0
 10
1.318433070866142
 20
0.5016220472440945
 30
0.0
 10
1.318433070866142
 20
0.5016220472440945
 30
0.0
 10
1.318433070866142
 20
0.5016220472440945
 30
0.0
 10
1.318433070866142
 20
0.5016220472440945
 30
0.0
 10
1.323492125984252
 20
0.4838110236220473
 30
0.0
 10
1.323492125984252
 20
0.4838110236220473
 30
0.0
 10
1.323492125984252
 20
0.4838110236220473
 30
0.0
 10
1.323492125984252
 20
0.4838110236220473
 30
0.0
 10
1.327685039370079
 20
0.4656574803149606
 30
0.0
 10
1.327685039370079
 20
0.4656574803149606
 30
0.0
  0
SPLINE
  5
5F
330
1F
100
AcDbEntity
  8
Layer 1
 62
   253
100
AcDbSpline
210
0.0
220
0.0
230
1.0
 70
    11
 71
     3
 72
    28
 73
    24
 74
     0
 42
0.0000000001
 43
0.0000000001
 40
0.0
 40
0.0
 40
0.0
 40
0.0
 40
0.1666666666666667
 40
0.1666666666666667
 40
0.1666666666666667
 40
0.1666666666666667
 40
0.3333333333333333
 40
0.3333333333333333
 40
0.3333333333333333
 40
0.3333333333333333
 40
0.5
 40
0.5
 40
0.5
 40
0.5
 40
0.6666666666666666
 40
0.6666666666666666
 40
0.6666666666666666
 40
0.6666666666666666
 40
0.8333333333333333
 40
0.8333333333333333
 40
0.8333333333333333
 40
0.8333333333333333
 40
1.0
 40
1.0
 40
1.0
 40
1.0
 10
1.318433070866142
 20
0.5016220472440945
 30
0.0
 10
1.318433070866142
 20
0.5016220472440945
 30
0.0
 10
1.946086614173229
 20
0.8554291338582678
 30
0.0
 10
1.946086614173229
 20
0.8554291338582678
 30
0.0
 10
1.946086614173229
 20
0.8554291338582678
 30
0.0
 10
1.946086614173229
 20
0.8554291338582678
 30
0.0
 10
1.940185039370079
 20
0.8728661417322835
 30
0.0
 10
1.940185039370079
 20
0.8728661417322835
 30
0.0
 10
1.940185039370079
 20
0.8728661417322835
 30
0.0
 10
1.940185039370079
 20
0.8728661417322835
 30
0.0
 10
1.933468503937008
 20
0.8899094488188977
 30
0.0
 10
1.933468503937008
 20
0.8899094488188977
 30
0.0
 10
1.933468503937008
 20
0.8899094488188977
 30
0.0
 10
1.933468503937008
 20
0.8899094488188977
 30
0.0
 10
1.305814960629921
 20
0.5361023622047244
 30
0.0
 10
1.305814960629921
 20
0.5361023622047244
 30
0.0
 10
1.305814960629921
 20
0.5361023622047244
 30
0.0
 10
1.305814960629921
 20
0.5361023622047244
 30
0.0
 10
1.312531496062992
 20
0.5190590551181102
 30
0.0
 10
1.312531496062992
 20
0.5190590551181102
 30
0.0
 10
1.312531496062992
 20
0.5190590551181102
 30
0.0
 10
1.312531496062992
 20
0.5190590551181102
 30
0.0
 10
1.318433070866142
 20
0.5016220472440945
 30
0.0
 10
1.318433070866142
 20
0.5016220472440945
 30
0.0
  0
SPLINE
  5
60
330
1F
100
AcDbEntity
  8
Layer 1
 62
   253
100
AcDbSpline
210
0.0
220
0.0
230
1.0
 70
    11
 71
     3
 72
    28
 73
    24
 74
     0
 42
0.0000000001
 43
0.0000000001
 40
0.0
 40
0.0
 40
0.0
 40
0.0
 40
0.1666666666666667
 40
0.1666666666666667
 40
0.1666666666666667
 40
0.1666666666666667
 40
0.3333333333333333
 40
0.3333333333333333
 40
0.3333333333333333
 40
0.3333333333333333
 40
0.5
 40
0.5
 40
0.5
 40
0.5
 40
0.6666666666666666
 40
0.6666666666666666
 40
0.6666666666666666
 40
0.6666666666666666
 40
0.8333333333333333
 40
0.8333333333333333
 40
0.8333333333333333
 40
0.8333333333333333
 40
1.0
 40
1.0
 40
1.0
 40
1.0
 10
1.305814960629921
 20
0.5361023622047244
 30
0.0
 10
1.305814960629921
 20
0.5361023622047244
 30
0.0
 10
1.933468503937008
 20
0.8899094488188977
 30
0.0
 10
1.933468503937008
 20
0.8899094488188977
 30
0.0
 10
1.933468503937008
 20
0.8899094488188977
 30
0.0
 10
1.933468503937008
 20
0.8899094488188977
 30
0.0
 10
1.925944881889764
 20
0.9065314960629922
 30
0.0
 10
1.925944881889764
 20
0.9065314960629922
 30
0.0
 10
1.925944881889764
 20
0.9065314960629922
 30
0.0
 10
1.925944881889764
 20
0.9065314960629922
 30
0.0
 10
1.917657480314961
 20
0.9227125984251969
 30
0.0
 10
1.917657480314961
 20
0.9227125984251969
 30
0.0
 10
1.917657480314961
 20
0.9227125984251969
 30
0.0
 10
1.917657480314961
 20
0.9227125984251969
 30
0.0
 10
1.290003937007874
 20
0.5689055118110237
 30
0.0
 10
1.290003937007874
 20
0.5689055118110237
 30
0.0
 10
1.290003937007874
 20
0.5689055118110237
 30
0.0
 10
1.290003937007874
 20
0.5689055118110237
 30
0.0
 10
1.298291338582677
 20
0.552724409448819
 30
0.0
 10
1.298291338582677
 20
0.552724409448819
 30
0.0
 10
1.298291338582677
 20
0.552724409448819
 30
0.0
 10
1.298291338582677
 20
0.552724409448819
 30
0.0
 10
1.305814960629921
 20
0.5361023622047244
 30
0.0
 10
1.305814960629921
 20
0.5361023622047244
 30
0.0
  0
SPLINE
  5
61
330
1F
100
AcDbEntity
  8
Layer 1
 62
   253
100
AcDbSpline
210
0.0
220
0.0
230
1.0
 70
    11
 71
     3
 72
    28
 73
    24
 74
     0
 42
0.0000000001
 43
0.0000000001
 40
0.0
 40
0.0
 40
0.0
 40
0.0
 40
0.1666666666666667
 40
0.1666666666666667
 40
0.1666666666666667
 40
0.1666666666666667
 40
0.3333333333333333
 40
0.3333333333333333
 40
0.3333333333333333
 40
0.3333333333333333
 40
0.5
 40
0.5
 40
0.5
 40
0.5
 40
0.6666666666666666
 40
0.6666666666666666
 40
0.6666666666666666
 40
0.6666666666666666
 40
0.8333333333333333
 40
0.8333333333333333
 40
0.8333333333333333
 40
0.8333333333333333
 40
1.0
 40
1.0
 40
1.0
 40
1.0
 10
1.290003937007874
 20
0.5689055118110237
 30
0.0
 10
1.290003937007874
 20
0.5689055118110237
 30
0.0
 10
1.917657480314961
 20
0.9227125984251969
 30
0.0
 10
1.917657480314961
 20
0.9227125984251969
 30
0.0
 10
1.917657480314961
 20
0.9227125984251969
 30
0.0
 10
1.917657480314961
 20
0.9227125984251969
 30
0.0
 10
1.908614173228347
 20
0.9384291338582678
 30
0.0
 10
1.908614173228347
 20
0.9384291338582678
 30
0.0
 10
1.908614173228347
 20
0.9384291338582678
 30
0.0
 10
1.908614173228347
 20
0.9384291338582678
 30
0.0
 10
1.898854330708661
 20
0.9536614173228347
 30
0.0
 10
1.898854330708661
 20
0.9536614173228347
 30
0.0
 10
1.898854330708661
 20
0.9536614173228347
 30
0.0
 10
1.898854330708661
 20
0.9536614173228347
 30
0.0
 10
1.271200787401575
 20
0.5998543307086615
 30
0.0
 10
1.271200787401575
 20
0.5998543307086615
 30
0.0
 10
1.271200787401575
 20
0.5998543307086615
 30
0.0
 10
1.271200787401575
 20
0.5998543307086615
 30
0.0
 10
1.28096062992126
 20
0.5846220472440945
 30
0.0
 10
1.28096062992126
 20
0.5846220472440945
 30
0.0
 10
1.28096062992126
 20
0.5846220472440945
 30
0.0
 10
1.28096062992126
 20
0.5846220472440945
 30
0.0
 10
1.290003937007874
 20
0.5689055118110237
 30
0.0
 10
1.290003937007874
 20
0.5689055118110237
 30
0.0
  0
SPLINE
  5
62
330
1F
100
AcDbEntity
  8
Layer 1
 62
   253
100
AcDbSpline
210
0.0
220
0.0
230
1.0
 70
    11
 71
     3
 72
    28
 73
    24
 74
     0
 42
0.0000000001
 43
0.0000000001
 40
0.0
 40
0.0
 40
0.0
 40
0.0
 40
0.1666666666666667
 40
0.1666666666666667
 40
0.1666666666666667
 40
0.1666666666666667
 40
0.3333333333333333
 40
0.3333333333333333
 40
0.3333333333333333
 40
0.3333333333333333
 40
0.5
 40
0.5
 40
0.5
 40
0.5
 40
0.6666666666666666
 40
0.6666666666666666
 40
0.6666666666666666
 40
0.6666666666666666
 40
0.8333333333333333
 40
0.8333333333333333
 40
0.8333333333333333
 40
0.8333333333333333
 40
1.0
 40
1.0
 40
1.0
 40
1.0
 10
1.271200787401575
 20
0.5998543307086615
 30
0.0
 10
1.271200787401575
 20
0.5998543307086615
 30
0.0
 10
1.898854330708661
 20
0.9536614173228347
 30
0.0
 10
1.898854330708661
 20
0.9536614173228347
 30
0.0
 10
1.898854330708661
 20
0.9536614173228347
 30
0.0
 10
1.898854330708661
 20
0.9536614173228347
 30
0.0
 10
1.888389763779528
 20
0.9683740157480315
 30
0.0
 10
1.888389763779528
 20
0.9683740157480315
 30
0.0
 10
1.888389763779528
 20
0.9683740157480315
 30
0.0
 10
1.888389763779528
 20
0.9683740157480315
 30
0.0
 10
1.877248031496063
 20
0.9825551181102362
 30
0.0
 10
1.877248031496063
 20
0.9825551181102362
 30
0.0
 10
1.877248031496063
 20
0.9825551181102362
 30
0.0
 10
1.877248031496063
 20
0.9825551181102362
 30
0.0
 10
1.249594488188976
 20
0.6287480314960631
 30
0.0
 10
1.249594488188976
 20
0.6287480314960631
 30
0.0
 10
1.249594488188976
 20
0.6287480314960631
 30
0.0
 10
1.249594488188976
 20
0.6287480314960631
 30
0.0
 10
1.260736220472441
 20
0.6145669291338582
 30
0.0
 10
1.260736220472441
 20
0.6145669291338582
 30
0.0
 10
1.260736220472441
 20
0.6145669291338582
 30
0.0
 10
1.260736220472441
 20
0.6145669291338582
 30
0.0
 10
1.271200787401575
 20
0.5998543307086615
 30
0.0
 10
1.271200787401575
 20
0.5998543307086615
 30
0.0
  0
SPLINE
  5
63
330
1F
100
AcDbEntity
  8
Layer 1
 62
   253
100
AcDbSpline
210
0.0
220
0.0
230
1.0
 70
    11
 71
     3
 72
    28
 73
    24
 74
     0
 42
0.0000000001
 43
0.0000000001
 40
0.0
 40
0.0
 40
0.0
 40
0.0
 40
0.1666666666666667
 40
0.1666666666666667
 40
0.1666666666666667
 40
0.1666666666666667
 40
0.3333333333333333
 40
0.3333333333333333
 40
0.3333333333333333
 40
0.3333333333333333
 40
0.5
 40
0.5
 40
0.5
 40
0.5
 40
0.6666666666666666
 40
0.6666666666666666
 40
0.6666666666666666
 40
0.6666666666666666
 40
0.8333333333333333
 40
0.8333333333333333
 40
0.8333333333333333
 40
0.8333333333333333
 40
1.0
 40
1.0
 40
1.0
 40
1.0
 10
1.249594488188976
 20
0.6287480314960631
 30
0.0
 10
1.249594488188976
 20
0.6287480314960631
 30
0.0
 10
1.877248031496063
 20
0.9825551181102362
 30
0.0
 10
1.877248031496063
 20
0.9825551181102362
 30
0.0
 10
1.877248031496063
 20
0.9825551181102362
 30
0.0
 10
1.877248031496063
 20
0.9825551181102362
 30
0.0
 10
1.865448818897638
 20
0.9961732283464567
 30
0.0
 10
1.865448818897638
 20
0.9961732283464567
 30
0.0
 10
1.865448818897638
 20
0.9961732283464567
 30
0.0
 10
1.865448818897638
 20
0.9961732283464567
 30
0.0
 10
1.853027559055118
 20
1.009212598425197
 30
0.0
 10
1.853027559055118
 20
1.009212598425197
 30
0.0
 10
1.853027559055118
 20
1.009212598425197
 30
0.0
 10
1.853027559055118
 20
1.009212598425197
 30
0.0
 10
1.225374015748032
 20
0.6554055118110237
 30
0.0
 10
1.225374015748032
 20
0.6554055118110237
 30
0.0
 10
1.225374015748032
 20
0.6554055118110237
 30
0.0
 10
1.225374015748032
 20
0.6554055118110237
 30
0.0
 10
1.237795275590551
 20
0.6423661417322835
 30
0.0
 10
1.237795275590551
 20
0.6423661417322835
 30
0.0
 10
1.237795275590551
 20
0.6423661417322835
 30
0.0
 10
1.237795275590551
 20
0.6423661417322835
 30
0.0
 10
1.249594488188976
 20
0.6287480314960631
 30
0.0
 10
1.249594488188976
 20
0.6287480314960631
 30
0.0
  0
SPLINE
  5
64
330
1F
100
AcDbEntity
  8
Layer 1
 62
   253
100
AcDbSpline
210
0.0
220
0.0
230
1.0
 70
    11
 71
     3
 72
    28
 73
    24
 74
     0
 42
0.0000000001
 43
0.0000000001
 40
0.0
 40
0.0
 40
0.0
 40
0.0
 40
0.1666666666666667
 40
0.1666666666666667
 40
0.1666666666666667
 40
0.1666666666666667
 40
0.3333333333333333
 40
0.3333333333333333
 40
0.3333333333333333
 40
0.3333333333333333
 40
0.5
 40
0.5
 40
0.5
 40
0.5
 40
0.6666666666666666
 40
0.6666666666666666
 40
0.6666666666666666
 40
0.6666666666666666
 40
0.8333333333333333
 40
0.8333333333333333
 40
0.8333333333333333
 40
0.8333333333333333
 40
1.0
 40
1.0
 40
1.0
 40
1.0
 10
1.225374015748032
 20
0.6554055118110237
 30
0.0
 10
1.225374015748032
 20
0.6554055118110237
 30
0.0
 10
1.853027559055118
 20
1.009212598425197
 30
0.0
 10
1.853027559055118
 20
1.009212598425197
 30
0.0
 10
1.853027559055118
 20
1.009212598425197
 30
0.0
 10
1.853027559055118
 20
1.009212598425197
 30
0.0
 10
1.839988188976378
 20
1.021633858267717
 30
0.0
 10
1.839988188976378
 20
1.021633858267717
 30
0.0
 10
1.839988188976378
 20
1.021633858267717
 30
0.0
 10
1.839988188976378
 20
1.021633858267717
 30
0.0
 10
1.826370078740158
 20
1.033433070866142
 30
0.0
 10
1.826370078740158
 20
1.033433070866142
 30
0.0
 10
1.826370078740158
 20
1.033433070866142
 30
0.0
 10
1.826370078740158
 20
1.033433070866142
 30
0.0
 10
1.198716535433071
 20
0.6796259842519685
 30
0.0
 10
1.198716535433071
 20
0.6796259842519685
 30
0.0
 10
1.198716535433071
 20
0.6796259842519685
 30
0.0
 10
1.198716535433071
 20
0.6796259842519685
 30
0.0
 10
1.212334645669291
 20
0.6678267716535433
 30
0.0
 10
1.212334645669291
 20
0.6678267716535433
 30
0.0
 10
1.212334645669291
 20
0.6678267716535433
 30
0.0
 10
1.212334645669291
 20
0.6678267716535433
 30
0.0
 10
1.225374015748032
 20
0.6554055118110237
 30
0.0
 10
1.225374015748032
 20
0.6554055118110237
 30
0.0
  0
SPLINE
  5
65
330
1F
100
AcDbEntity
  8
Layer 1
 62
   252
100
AcDbSpline
210
0.0
220
0.0
230
1.0
 70
    11
 71
     3
 72
    28
 73
    24
 74
     0
 42
0.0000000001
 43
0.0000000001
 40
0.0
 40
0.0
 40
0.0
 40
0.0
 40
0.1666666666666667
 40
0.1666666666666667
 40
0.1666666666666667
 40
0.1666666666666667
 40
0.3333333333333333
 40
0.3333333333333333
 40
0.3333333333333333
 40
0.3333333333333333
 40
0.5
 40
0.5
 40
0.5
 40
0.5
 40
0.6666666666666666
 40
0.6666666666666666
 40
0.6666666666666666
 40
0.6666666666666666
 40
0.8333333333333333
 40
0.8333333333333333
 40
0.8333333333333333
 40
0.8333333333333333
 40
1.0
 40
1.0
 40
1.0
 40
1.0
 10
1.198716535433071
 20
0.6796259842519685
 30
0.0
 10
1.198716535433071
 20
0.6796259842519685
 30
0.0
 10
1.826370078740158
 20
1.033433070866142
 30
0.0
 10
1.826370078740158
 20
1.033433070866142
 30
0.0
 10
1.826370078740158
 20
1.033433070866142
 30
0.0
 10
1.826370078740158
 20
1.033433070866142
 30
0.0
 10
1.812188976377953
 20
1.044574803149606
 30
0.0
 10
1.812188976377953
 20
1.044574803149606
 30
0.0
 10
1.812188976377953
 20
1.044574803149606
 30
0.0
 10
1.812188976377953
 20
1.044574803149606
 30
0.0
 10
1.797476377952756
 20
1.05503937007874
 30
0.0
 10
1.797476377952756
 20
1.05503937007874
 30
0.0
 10
1.797476377952756
 20
1.05503937007874
 30
0.0
 10
1.797476377952756
 20
1.05503937007874
 30
0.0
 10
1.169822834645669
 20
0.701232283464567
 30
0.0
 10
1.169822834645669
 20
0.701232283464567
 30
0.0
 10
1.169822834645669
 20
0.701232283464567
 30
0.0
 10
1.169822834645669
 20
0.701232283464567
 30
0.0
 10
1.184535433070866
 20
0.6907677165354331
 30
0.0
 10
1.184535433070866
 20
0.6907677165354331
 30
0.0
 10
1.184535433070866
 20
0.6907677165354331
 30
0.0
 10
1.184535433070866
 20
0.6907677165354331
 30
0.0
 10
1.198716535433071
 20
0.6796259842519685
 30
0.0
 10
1.198716535433071
 20
0.6796259842519685
 30
0.0
  0
SPLINE
  5
66
330
1F
100
AcDbEntity
  8
Layer 1
 62
   252
100
AcDbSpline
210
0.0
220
0.0
230
1.0
 70
    11
 71
     3
 72
    28
 73
    24
 74
     0
 42
0.0000000001
 43
0.0000000001
 40
0.0
 40
0.0
 40
0.0
 40
0.0
 40
0.1666666666666667
 40
0.1666666666666667
 40
0.1666666666666667
 40
0.1666666666666667
 40
0.3333333333333333
 40
0.3333333333333333
 40
0.3333333333333333
 40
0.3333333333333333
 40
0.5
 40
0.5
 40
0.5
 40
0.5
 40
0.6666666666666666
 40
0.6666666666666666
 40
0.6666666666666666
 40
0.6666666666666666
 40
0.8333333333333333
 40
0.8333333333333333
 40
0.8333333333333333
 40
0.8333333333333333
 40
1.0
 40
1.0
 40
1.0
 40
1.0
 10
1.169822834645669
 20
0.701232283464567
 30
0.0
 10
1.169822834645669
 20
0.701232283464567
 30
0.0
 10
1.797476377952756
 20
1.05503937007874
 30
0.0
 10
1.797476377952756
 20
1.05503937007874
 30
0.0
 10
1.797476377952756
 20
1.05503937007874
 30
0.0
 10
1.797476377952756
 20
1.05503937007874
 30
0.0
 10
1.782244094488189
 20
1.064799212598425
 30
0.0
 10
1.782244094488189
 20
1.064799212598425
 30
0.0
 10
1.782244094488189
 20
1.064799212598425
 30
0.0
 10
1.782244094488189
 20
1.064799212598425
 30
0.0
 10
1.766527559055118
 20
1.073842519685039
 30
0.0
 10
1.766527559055118
 20
1.073842519685039
 30
0.0
 10
1.766527559055118
 20
1.073842519685039
 30
0.0
 10
1.766527559055118
 20
1.073842519685039
 30
0.0
 10
1.138874015748032
 20
0.7200354330708662
 30
0.0
 10
1.138874015748032
 20
0.7200354330708662
 30
0.0
 10
1.138874015748032
 20
0.7200354330708662
 30
0.0
 10
1.138874015748032
 20
0.7200354330708662
 30
0.0
 10
1.154590551181102
 20
0.710992125984252
 30
0.0
 10
1.154590551181102
 20
0.710992125984252
 30
0.0
 10
1.154590551181102
 20
0.710992125984252
 30
0.0
 10
1.154590551181102
 20
0.710992125984252
 30
0.0
 10
1.169822834645669
 20
0.701232283464567
 30
0.0
 10
1.169822834645669
 20
0.701232283464567
 30
0.0
  0
SPLINE
  5
67
330
1F
100
AcDbEntity
  8
Layer 1
 62
   252
100
AcDbSpline
210
0.0
220
0.0
230
1.0
 70
    11
 71
     3
 72
    28
 73
    24
 74
     0
 42
0.0000000001
 43
0.0000000001
 40
0.0
 40
0.0
 40
0.0
 40
0.0
 40
0.1666666666666667
 40
0.1666666666666667
 40
0.1666666666666667
 40
0.1666666666666667
 40
0.3333333333333333
 40
0.3333333333333333
 40
0.3333333333333333
 40
0.3333333333333333
 40
0.5
 40
0.5
 40
0.5
 40
0.5
 40
0.6666666666666666
 40
0.6666666666666666
 40
0.6666666666666666
 40
0.6666666666666666
 40
0.8333333333333333
 40
0.8333333333333333
 40
0.8333333333333333
 40
0.8333333333333333
 40
1.0
 40
1.0
 40
1.0
 40
1.0
 10
1.138874015748032
 20
0.7200354330708662
 30
0.0
 10
1.138874015748032
 20
0.7200354330708662
 30
0.0
 10
1.766527559055118
 20
1.073842519685039
 30
0.0
 10
1.766527559055118
 20
1.073842519685039
 30
0.0
 10
1.766527559055118
 20
1.073842519685039
 30
0.0
 10
1.766527559055118
 20
1.073842519685039
 30
0.0
 10
1.750346456692913
 20
1.082129921259843
 30
0.0
 10
1.750346456692913
 20
1.082129921259843
 30
0.0
 10
1.750346456692913
 20
1.082129921259843
 30
0.0
 10
1.750346456692913
 20
1.082129921259843
 30
0.0
 10
1.733724409448819
 20
1.089653543307087
 30
0.0
 10
1.733724409448819
 20
1.089653543307087
 30
0.0
 10
1.733724409448819
 20
1.089653543307087
 30
0.0
 10
1.733724409448819
 20
1.089653543307087
 30
0.0
 10
1.106070866141732
 20
0.7358464566929134
 30
0.0
 10
1.106070866141732
 20
0.7358464566929134
 30
0.0
 10
1.106070866141732
 20
0.7358464566929134
 30
0.0
 10
1.106070866141732
 20
0.7358464566929134
 30
0.0
 10
1.122692913385827
 20
0.7283228346456693
 30
0.0
 10
1.122692913385827
 20
0.7283228346456693
 30
0.0
 10
1.122692913385827
 20
0.7283228346456693
 30
0.0
 10
1.122692913385827
 20
0.7283228346456693
 30
0.0
 10
1.138874015748032
 20
0.7200354330708662
 30
0.0
 10
1.138874015748032
 20
0.7200354330708662
 30
0.0
  0
SPLINE
  5
68
330
1F
100
AcDbEntity
  8
Layer 1
 62
   252
100
AcDbSpline
210
0.0
220
0.0
230
1.0
 70
    11
 71
     3
 72
    28
 73
    24
 74
     0
 42
0.0000000001
 43
0.0000000001
 40
0.0
 40
0.0
 40
0.0
 40
0.0
 40
0.1666666666666667
 40
0.1666666666666667
 40
0.1666666666666667
 40
0.1666666666666667
 40
0.3333333333333333
 40
0.3333333333333333
 40
0.3333333333333333
 40
0.3333333333333333
 40
0.5
 40
0.5
 40
0.5
 40
0.5
 40
0.6666666666666666
 40
0.6666666666666666
 40
0.6666666666666666
 40
0.6666666666666666
 40
0.8333333333333333
 40
0.8333333333333333
 40
0.8333333333333333
 40
0.8333333333333333
 40
1.0
 40
1.0
 40
1.0
 40
1.0
 10
1.106070866141732
 20
0.7358464566929134
 30
0.0
 10
1.106070866141732
 20
0.7358464566929134
 30
0.0
 10
1.733724409448819
 20
1.089653543307087
 30
0.0
 10
1.733724409448819
 20
1.089653543307087
 30
0.0
 10
1.733724409448819
 20
1.089653543307087
 30
0.0
 10
1.733724409448819
 20
1.089653543307087
 30
0.0
 10
1.716681102362205
 20
1.096370078740158
 30
0.0
 10
1.716681102362205
 20
1.096370078740158
 30
0.0
 10
1.716681102362205
 20
1.096370078740158
 30
0.0
 10
1.716681102362205
 20
1.096370078740158
 30
0.0
 10
1.699244094488189
 20
1.102271653543307
 30
0.0
 10
1.699244094488189
 20
1.102271653543307
 30
0.0
 10
1.699244094488189
 20
1.102271653543307
 30
0.0
 10
1.699244094488189
 20
1.102271653543307
 30
0.0
 10
1.071590551181102
 20
0.7484645669291339
 30
0.0
 10
1.071590551181102
 20
0.7484645669291339
 30
0.0
 10
1.071590551181102
 20
0.7484645669291339
 30
0.0
 10
1.071590551181102
 20
0.7484645669291339
 30
0.0
 10
1.089027559055118
 20
0.7425629921259843
 30
0.0
 10
1.089027559055118
 20
0.7425629921259843
 30
0.0
 10
1.089027559055118
 20
0.7425629921259843
 30
0.0
 10
1.089027559055118
 20
0.7425629921259843
 30
0.0
 10
1.106070866141732
 20
0.7358464566929134
 30
0.0
 10
1.106070866141732
 20
0.7358464566929134
 30
0.0
  0
SPLINE
  5
69
330
1F
100
AcDbEntity
  8
Layer 1
 62
   252
100
AcDbSpline
210
0.0
220
0.0
230
1.0
 70
    11
 71
     3
 72
    28
 73
    24
 74
     0
 42
0.0000000001
 43
0.0000000001
 40
0.0
 40
0.0
 40
0.0
 40
0.0
 40
0.1666666666666667
 40
0.1666666666666667
 40
0.1666666666666667
 40
0.1666666666666667
 40
0.3333333333333333
 40
0.3333333333333333
 40
0.3333333333333333
 40
0.3333333333333333
 40
0.5
 40
0.5
 40
0.5
 40
0.5
 40
0.6666666666666666
 40
0.6666666666666666
 40
0.6666666666666666
 40
0.6666666666666666
 40
0.8333333333333333
 40
0.8333333333333333
 40
0.8333333333333333
 40
0.8333333333333333
 40
1.0
 40
1.0
 40
1.0
 40
1.0
 10
1.071590551181102
 20
0.7484645669291339
 30
0.0
 10
1.071590551181102
 20
0.7484645669291339
 30
0.0
 10
1.699244094488189
 20
1.102271653543307
 30
0.0
 10
1.699244094488189
 20
1.102271653543307
 30
0.0
 10
1.699244094488189
 20
1.102271653543307
 30
0.0
 10
1.699244094488189
 20
1.102271653543307
 30
0.0
 10
1.681433070866142
 20
1.107330708661418
 30
0.0
 10
1.681433070866142
 20
1.107330708661418
 30
0.0
 10
1.681433070866142
 20
1.107330708661418
 30
0.0
 10
1.681433070866142
 20
1.107330708661418
 30
0.0
 10
1.663279527559055
 20
1.111523622047244
 30
0.0
 10
1.663279527559055
 20
1.111523622047244
 30
0.0
 10
1.663279527559055
 20
1.111523622047244
 30
0.0
 10
1.663279527559055
 20
1.111523622047244
 30
0.0
 10
1.035625984251969
 20
0.7577165354330709
 30
0.0
 10
1.035625984251969
 20
0.7577165354330709
 30
0.0
 10
1.035625984251969
 20
0.7577165354330709
 30
0.0
 10
1.035625984251969
 20
0.7577165354330709
 30
0.0
 10
1.053779527559055
 20
0.7535236220472441
 30
0.0
 10
1.053779527559055
 20
0.7535236220472441
 30
0.0
 10
1.053779527559055
 20
0.7535236220472441
 30
0.0
 10
1.053779527559055
 20
0.7535236220472441
 30
0.0
 10
1.071590551181102
 20
0.7484645669291339
 30
0.0
 10
1.071590551181102
 20
0.7484645669291339
 30
0.0
  0
SPLINE
  5
6A
330
1F
100
AcDbEntity
  8
Layer 1
 62
   252
100
AcDbSpline
210
0.0
220
0.0
230
1.0
 70
    11
 71
     3
 72
    28
 73
    24
 74
     0
 42
0.0000000001
 43
0.0000000001
 40
0.0
 40
0.0
 40
0.0
 40
0.0
 40
0.1666666666666667
 40
0.1666666666666667
 40
0.1666666666666667
 40
0.1666666666666667
 40
0.3333333333333333
 40
0.3333333333333333
 40
0.3333333333333333
 40
0.3333333333333333
 40
0.5
 40
0.5
 40
0.5
 40
0.5
 40
0.6666666666666666
 40
0.6666666666666666
 40
0.6666666666666666
 40
0.6666666666666666
 40
0.8333333333333333
 40
0.8333333333333333
 40
0.8333333333333333
 40
0.8333333333333333
 40
1.0
 40
1.0
 40
1.0
 40
1.0
 10
1.035625984251969
 20
0.7577165354330709
 30
0.0
 10
1.035625984251969
 20
0.7577165354330709
 30
0.0
 10
1.663279527559055
 20
1.111523622047244
 30
0.0
 10
1.663279527559055
 20
1.111523622047244
 30
0.0
 10
1.663279527559055
 20
1.111523622047244
 30
0.0
 10
1.663279527559055
 20
1.111523622047244
 30
0.0
 10
1.644795275590551
 20
1.114822834645669
 30
0.0
 10
1.644795275590551
 20
1.114822834645669
 30
0.0
 10
1.644795275590551
 20
1.114822834645669
 30
0.0
 10
1.644795275590551
 20
1.114822834645669
 30
0.0
 10
1.62601968503937
 20
1.117216535433071
 30
0.0
 10
1.62601968503937
 20
1.117216535433071
 30
0.0
 10
1.62601968503937
 20
1.117216535433071
 30
0.0
 10
1.62601968503937
 20
1.117216535433071
 30
0.0
 10
0.9983661417322836
 20
0.7634094488188977
 30
0.0
 10
0.9983661417322836
 20
0.7634094488188977
 30
0.0
 10
0.9983661417322836
 20
0.7634094488188977
 30
0.0
 10
0.9983661417322836
 20
0.7634094488188977
 30
0.0
 10
1.017141732283465
 20
0.7610157480314961
 30
0.0
 10
1.017141732283465
 20
0.7610157480314961
 30
0.0
 10
1.017141732283465
 20
0.7610157480314961
 30
0.0
 10
1.017141732283465
 20
0.7610157480314961
 30
0.0
 10
1.035625984251969
 20
0.7577165354330709
 30
0.0
 10
1.035625984251969
 20
0.7577165354330709
 30
0.0
  0
SPLINE
  5
6B
330
1F
100
AcDbEntity
  8
Layer 1
 62
   252
100
AcDbSpline
210
0.0
220
0.0
230
1.0
 70
    11
 71
     3
 72
    28
 73
    24
 74
     0
 42
0.0000000001
 43
0.0000000001
 40
0.0
 40
0.0
 40
0.0
 40
0.0
 40
0.1666666666666667
 40
0.1666666666666667
 40
0.1666666666666667
 40
0.1666666666666667
 40
0.3333333333333333
 40
0.3333333333333333
 40
0.3333333333333333
 40
0.3333333333333333
 40
0.5
 40
0.5
 40
0.5
 40
0.5
 40
0.6666666666666666
 40
0.6666666666666666
 40
0.6666666666666666
 40
0.6666666666666666
 40
0.8333333333333333
 40
0.8333333333333333
 40
0.8333333333333333
 40
0.8333333333333333
 40
1.0
 40
1.0
 40
1.0
 40
1.0
 10
0.9983661417322836
 20
0.7634094488188977
 30
0.0
 10
0.9983661417322836
 20
0.7634094488188977
 30
0.0
 10
1.62601968503937
 20
1.117216535433071
 30
0.0
 10
1.62601968503937
 20
1.117216535433071
 30
0.0
 10
1.62601968503937
 20
1.117216535433071
 30
0.0
 10
1.62601968503937
 20
1.117216535433071
 30
0.0
 10
1.60696062992126
 20
1.118665354330709
 30
0.0
 10
1.60696062992126
 20
1.118665354330709
 30
0.0
 10
1.60696062992126
 20
1.118665354330709
 30
0.0
 10
1.60696062992126
 20
1.118665354330709
 30
0.0
 10
1.587653543307087
 20
1.119157480314961
 30
0.0
 10
1.587653543307087
 20
1.119157480314961
 30
0.0
 10
1.587653543307087
 20
1.119157480314961
 30
0.0
 10
1.587653543307087
 20
1.119157480314961
 30
0.0
 10
0.9600000000000001
 20
0.7653503937007874
 30
0.0
 10
0.9600000000000001
 20
0.7653503937007874
 30
0.0
 10
0.9600000000000001
 20
0.7653503937007874
 30
0.0
 10
0.9600000000000001
 20
0.7653503937007874
 30
0.0
 10
0.9793070866141733
 20
0.7648582677165354
 30
0.0
 10
0.9793070866141733
 20
0.7648582677165354
 30
0.0
 10
0.9793070866141733
 20
0.7648582677165354
 30
0.0
 10
0.9793070866141733
 20
0.7648582677165354
 30
0.0
 10
0.9983661417322836
 20
0.7634094488188977
 30
0.0
 10
0.9983661417322836
 20
0.7634094488188977
 30
0.0
  0
SPLINE
  5
6C
330
1F
100
AcDbEntity
  8
Layer 1
 62
   252
100
AcDbSpline
210
0.0
220
0.0
230
1.0
 70
    11
 71
     3
 72
    28
 73
    24
 74
     0
 42
0.0000000001
 43
0.0000000001
 40
0.0
 40
0.0
 40
0.0
 40
0.0
 40
0.1666666666666667
 40
0.1666666666666667
 40
0.1666666666666667
 40
0.1666666666666667
 40
0.3333333333333333
 40
0.3333333333333333
 40
0.3333333333333333
 40
0.3333333333333333
 40
0.5
 40
0.5
 40
0.5
 40
0.5
 40
0.6666666666666666
 40
0.6666666666666666
 40
0.6666666666666666
 40
0.6666666666666666
 40
0.8333333333333333
 40
0.8333333333333333
 40
0.8333333333333333
 40
0.8333333333333333
 40
1.0
 40
1.0
 40
1.0
 40
1.0
 10
0.9600000000000001
 20
0.7653503937007874
 30
0.0
 10
0.9600000000000001
 20
0.7653503937007874
 30
0.0
 10
1.587653543307087
 20
1.119157480314961
 30
0.0
 10
1.587653543307087
 20
1.119157480314961
 30
0.0
 10
1.587653543307087
 20
1.119157480314961
 30
0.0
 10
1.587653543307087
 20
1.119157480314961
 30
0.0
 10
1.568338582677165
 20
1.118665354330709
 30
0.0
 10
1.568338582677165
 20
1.118665354330709
 30
0.0
 10
1.568338582677165
 20
1.118665354330709
 30
0.0
 10
1.568338582677165
 20
1.118665354330709
 30
0.0
 10
1.549279527559055
 20
1.117216535433071
 30
0.0
 10
1.549279527559055
 20
1.117216535433071
 30
0.0
 10
1.549279527559055
 20
1.117216535433071
 30
0.0
 10
1.549279527559055
 20
1.117216535433071
 30
0.0
 10
0.9216259842519685
 20
0.7634094488188977
 30
0.0
 10
0.9216259842519685
 20
0.7634094488188977
 30
0.0
 10
0.9216259842519685
 20
0.7634094488188977
 30
0.0
 10
0.9216259842519685
 20
0.7634094488188977
 30
0.0
 10
0.9406850393700788
 20
0.7648582677165354
 30
0.0
 10
0.9406850393700788
 20
0.7648582677165354
 30
0.0
 10
0.9406850393700788
 20
0.7648582677165354
 30
0.0
 10
0.9406850393700788
 20
0.7648582677165354
 30
0.0
 10
0.9600000000000001
 20
0.7653503937007874
 30
0.0
 10
0.9600000000000001
 20
0.7653503937007874
 30
0.0
  0
SPLINE
  5
6D
330
1F
100
AcDbEntity
  8
Layer 1
 62
     8
100
AcDbSpline
210
0.0
220
0.0
230
1.0
 70
    11
 71
     3
 72
    28
 73
    24
 74
     0
 42
0.0000000001
 43
0.0000000001
 40
0.0
 40
0.0
 40
0.0
 40
0.0
 40
0.1666666666666667
 40
0.1666666666666667
 40
0.1666666666666667
 40
0.1666666666666667
 40
0.3333333333333333
 40
0.3333333333333333
 40
0.3333333333333333
 40
0.3333333333333333
 40
0.5
 40
0.5
 40
0.5
 40
0.5
 40
0.6666666666666666
 40
0.6666666666666666
 40
0.6666666666666666
 40
0.6666666666666666
 40
0.8333333333333333
 40
0.8333333333333333
 40
0.8333333333333333
 40
0.8333333333333333
 40
1.0
 40
1.0
 40
1.0
 40
1.0
 10
0.9216259842519685
 20
0.7634094488188977
 30
0.0
 10
0.9216259842519685
 20
0.7634094488188977
 30
0.0
 10
1.549279527559055
 20
1.117216535433071
 30
0.0
 10
1.549279527559055
 20
1.117216535433071
 30
0.0
 10
1.549279527559055
 20
1.117216535433071
 30
0.0
 10
1.549279527559055
 20
1.117216535433071
 30
0.0
 10
1.530496062992126
 20
1.114822834645669
 30
0.0
 10
1.530496062992126
 20
1.114822834645669
 30
0.0
 10
1.530496062992126
 20
1.114822834645669
 30
0.0
 10
1.530496062992126
 20
1.114822834645669
 30
0.0
 10
1.51201968503937
 20
1.111523622047244
 30
0.0
 10
1.51201968503937
 20
1.111523622047244
 30
0.0
 10
1.51201968503937
 20
1.111523622047244
 30
0.0
 10
1.51201968503937
 20
1.111523622047244
 30
0.0
 10
0.8843661417322835
 20
0.7577165354330709
 30
0.0
 10
0.8843661417322835
 20
0.7577165354330709
 30
0.0
 10
0.8843661417322835
 20
0.7577165354330709
 30
0.0
 10
0.8843661417322835
 20
0.7577165354330709
 30
0.0
 10
0.9028425196850394
 20
0.7610157480314961
 30
0.0
 10
0.9028425196850394
 20
0.7610157480314961
 30
0.0
 10
0.9028425196850394
 20
0.7610157480314961
 30
0.0
 10
0.9028425196850394
 20
0.7610157480314961
 30
0.0
 10
0.9216259842519685
 20
0.7634094488188977
 30
0.0
 10
0.9216259842519685
 20
0.7634094488188977
 30
0.0
  0
SPLINE
  5
6E
330
1F
100
AcDbEntity
  8
Layer 1
 62
   251
100
AcDbSpline
210
0.0
220
0.0
230
1.0
 70
    11
 71
     3
 72
    28
 73
    24
 74
     0
 42
0.0000000001
 43
0.0000000001
 40
0.0
 40
0.0
 40
0.0
 40
0.0
 40
0.1666666666666667
 40
0.1666666666666667
 40
0.1666666666666667
 40
0.1666666666666667
 40
0.3333333333333333
 40
0.3333333333333333
 40
0.3333333333333333
 40
0.3333333333333333
 40
0.5
 40
0.5
 40
0.5
 40
0.5
 40
0.6666666666666666
 40
0.6666666666666666
 40
0.6666666666666666
 40
0.6666666666666666
 40
0.8333333333333333
 40
0.8333333333333333
 40
0.8333333333333333
 40
0.8333333333333333
 40
1.0
 40
1.0
 40
1.0
 40
1.0
 10
0.8843661417322835
 20
0.7577165354330709
 30
0.0
 10
0.8843661417322835
 20
0.7577165354330709
 30
0.0
 10
1.51201968503937
 20
1.111523622047244
 30
0.0
 10
1.51201968503937
 20
1.111523622047244
 30
0.0
 10
1.51201968503937
 20
1.111523622047244
 30
0.0
 10
1.51201968503937
 20
1.111523622047244
 30
0.0
 10
1.493858267716536
 20
1.107330708661418
 30
0.0
 10
1.493858267716536
 20
1.107330708661418
 30
0.0
 10
1.493858267716536
 20
1.107330708661418
 30
0.0
 10
1.493858267716536
 20
1.107330708661418
 30
0.0
 10
1.476051181102362
 20
1.102271653543307
 30
0.0
 10
1.476051181102362
 20
1.102271653543307
 30
0.0
 10
1.476051181102362
 20
1.102271653543307
 30
0.0
 10
1.476051181102362
 20
1.102271653543307
 30
0.0
 10
0.8483976377952757
 20
0.7484645669291339
 30
0.0
 10
0.8483976377952757
 20
0.7484645669291339
 30
0.0
 10
0.8483976377952757
 20
0.7484645669291339
 30
0.0
 10
0.8483976377952757
 20
0.7484645669291339
 30
0.0
 10
0.8662047244094489
 20
0.7535236220472441
 30
0.0
 10
0.8662047244094489
 20
0.7535236220472441
 30
0.0
 10
0.8662047244094489
 20
0.7535236220472441
 30
0.0
 10
0.8662047244094489
 20
0.7535236220472441
 30
0.0
 10
0.8843661417322835
 20
0.7577165354330709
 30
0.0
 10
0.8843661417322835
 20
0.7577165354330709
 30
0.0
  0
SPLINE
  5
6F
330
1F
100
AcDbEntity
  8
Layer 1
 62
   251
100
AcDbSpline
210
0.0
220
0.0
230
1.0
 70
    11
 71
     3
 72
    28
 73
    24
 74
     0
 42
0.0000000001
 43
0.0000000001
 40
0.0
 40
0.0
 40
0.0
 40
0.0
 40
0.1666666666666667
 40
0.1666666666666667
 40
0.1666666666666667
 40
0.1666666666666667
 40
0.3333333333333333
 40
0.3333333333333333
 40
0.3333333333333333
 40
0.3333333333333333
 40
0.5
 40
0.5
 40
0.5
 40
0.5
 40
0.6666666666666666
 40
0.6666666666666666
 40
0.6666666666666666
 40
0.6666666666666666
 40
0.8333333333333333
 40
0.8333333333333333
 40
0.8333333333333333
 40
0.8333333333333333
 40
1.0
 40
1.0
 40
1.0
 40
1.0
 10
0.8483976377952757
 20
0.7484645669291339
 30
0.0
 10
0.8483976377952757
 20
0.7484645669291339
 30
0.0
 10
1.476051181102362
 20
1.102271653543307
 30
0.0
 10
1.476051181102362
 20
1.102271653543307
 30
0.0
 10
1.476051181102362
 20
1.102271653543307
 30
0.0
 10
1.476051181102362
 20
1.102271653543307
 30
0.0
 10
1.458614173228346
 20
1.096370078740158
 30
0.0
 10
1.458614173228346
 20
1.096370078740158
 30
0.0
 10
1.458614173228346
 20
1.096370078740158
 30
0.0
 10
1.458614173228346
 20
1.096370078740158
 30
0.0
 10
1.441574803149606
 20
1.089653543307087
 30
0.0
 10
1.441574803149606
 20
1.089653543307087
 30
0.0
 10
1.441574803149606
 20
1.089653543307087
 30
0.0
 10
1.441574803149606
 20
1.089653543307087
 30
0.0
 10
0.8139212598425197
 20
0.7358464566929134
 30
0.0
 10
0.8139212598425197
 20
0.7358464566929134
 30
0.0
 10
0.8139212598425197
 20
0.7358464566929134
 30
0.0
 10
0.8139212598425197
 20
0.7358464566929134
 30
0.0
 10
0.8309606299212599
 20
0.7425629921259843
 30
0.0
 10
0.8309606299212599
 20
0.7425629921259843
 30
0.0
 10
0.8309606299212599
 20
0.7425629921259843
 30
0.0
 10
0.8309606299212599
 20
0.7425629921259843
 30
0.0
 10
0.8483976377952757
 20
0.7484645669291339
 30
0.0
 10
0.8483976377952757
 20
0.7484645669291339
 30
0.0
  0
SPLINE
  5
70
330
1F
100
AcDbEntity
  8
Layer 1
 62
   251
100
AcDbSpline
210
0.0
220
0.0
230
1.0
 70
    11
 71
     3
 72
    28
 73
    24
 74
     0
 42
0.0000000001
 43
0.0000000001
 40
0.0
 40
0.0
 40
0.0
 40
0.0
 40
0.1666666666666667
 40
0.1666666666666667
 40
0.1666666666666667
 40
0.1666666666666667
 40
0.3333333333333333
 40
0.3333333333333333
 40
0.3333333333333333
 40
0.3333333333333333
 40
0.5
 40
0.5
 40
0.5
 40
0.5
 40
0.6666666666666666
 40
0.6666666666666666
 40
0.6666666666666666
 40
0.6666666666666666
 40
0.8333333333333333
 40
0.8333333333333333
 40
0.8333333333333333
 40
0.8333333333333333
 40
1.0
 40
1.0
 40
1.0
 40
1.0
 10
0.8139212598425197
 20
0.7358464566929134
 30
0.0
 10
0.8139212598425197
 20
0.7358464566929134
 30
0.0
 10
1.441574803149606
 20
1.089653543307087
 30
0.0
 10
1.441574803149606
 20
1.089653543307087
 30
0.0
 10
1.441574803149606
 20
1.089653543307087
 30
0.0
 10
1.441574803149606
 20
1.089653543307087
 30
0.0
 10
1.42494094488189
 20
1.082129921259843
 30
0.0
 10
1.42494094488189
 20
1.082129921259843
 30
0.0
 10
1.42494094488189
 20
1.082129921259843
 30
0.0
 10
1.42494094488189
 20
1.082129921259843
 30
0.0
 10
1.408759842519685
 20
1.073842519685039
 30
0.0
 10
1.408759842519685
 20
1.073842519685039
 30
0.0
 10
1.408759842519685
 20
1.073842519685039
 30
0.0
 10
1.408759842519685
 20
1.073842519685039
 30
0.0
 10
0.7811062992125984
 20
0.7200354330708662
 30
0.0
 10
0.7811062992125984
 20
0.7200354330708662
 30
0.0
 10
0.7811062992125984
 20
0.7200354330708662
 30
0.0
 10
0.7811062992125984
 20
0.7200354330708662
 30
0.0
 10
0.7972874015748032
 20
0.7283228346456693
 30
0.0
 10
0.7972874015748032
 20
0.7283228346456693
 30
0.0
 10
0.7972874015748032
 20
0.7283228346456693
 30
0.0
 10
0.7972874015748032
 20
0.7283228346456693
 30
0.0
 10
0.8139212598425197
 20
0.7358464566929134
 30
0.0
 10
0.8139212598425197
 20
0.7358464566929134
 30
0.0
  0
SPLINE
  5
71
330
1F
100
AcDbEntity
  8
Layer 1
 62
   139
100
AcDbSpline
210
0.0
220
0.0
230
1.0
 70
    11
 71
     3
 72
    20
 73
    16
 74
     0
 42
0.0000000001
 43
0.0000000001
 40
0.0
 40
0.0
 40
0.0
 40
0.0
 40
0.25
 40
0.25
 40
0.25
 40
0.25
 40
0.5
 40
0.5
 40
0.5
 40
0.5
 40
0.75
 40
0.75
 40
0.75
 40
0.75
 40
1.0
 40
1.0
 40
1.0
 40
1.0
 10
0.7811062992125984
 20
0.7200354330708662
 30
0.0
 10
0.7811062992125984
 20
0.7200354330708662
 30
0.0
 10
1.408759842519685
 20
1.073842519685039
 30
0.0
 10
1.408759842519685
 20
1.073842519685039
 30
0.0
 10
1.408759842519685
 20
1.073842519685039
 30
0.0
 10
1.408759842519685
 20
1.073842519685039
 30
0.0
 10
1.393043307086614
 20
1.064799212598425
 30
0.0
 10
1.393043307086614
 20
1.064799212598425
 30
0.0
 10
1.393043307086614
 20
1.064799212598425
 30
0.0
 10
1.393043307086614
 20
1.064799212598425
 30
0.0
 10
0.7653897637795276
 20
0.710992125984252
 30
0.0
 10
0.7653897637795276
 20
0.710992125984252
 30
0.0
 10
0.7653897637795276
 20
0.710992125984252
 30
0.0
 10
0.7653897637795276
 20
0.710992125984252
 30
0.0
 10
0.7811062992125984
 20
0.7200354330708662
 30
0.0
 10
0.7811062992125984
 20
0.7200354330708662
 30
0.0
  0
SPLINE
  5
72
330
1F
100
AcDbEntity
  8
Layer 1
 62
   250
370
     5
100
AcDbSpline
210
0.0
220
0.0
230
1.0
 70
    11
 71
     3
 72
   356
 73
   352
 74
     0
 42
0.0000000001
 43
0.0000000001
 40
0.0
 40
0.0
 40
0.0
 40
0.0
 40
0.0113636363636364
 40
0.0113636363636364
 40
0.0113636363636364
 40
0.0113636363636364
 40
0.0227272727272727
 40
0.0227272727272727
 40
0.0227272727272727
 40
0.0227272727272727
 40
0.0340909090909091
 40
0.0340909090909091
 40
0.0340909090909091
 40
0.0340909090909091
 40
0.0454545454545455
 40
0.0454545454545455
 40
0.0454545454545455
 40
0.0454545454545455
 40
0.0568181818181818
 40
0.0568181818181818
 40
0.0568181818181818
 40
0.0568181818181818
 40
0.0681818181818182
 40
0.0681818181818182
 40
0.0681818181818182
 40
0.0681818181818182
 40
0.0795454545454546
 40
0.0795454545454546
 40
0.0795454545454546
 40
0.0795454545454546
 40
0.0909090909090909
 40
0.0909090909090909
 40
0.0909090909090909
 40
0.0909090909090909
 40
0.1022727272727273
 40
0.1022727272727273
 40
0.1022727272727273
 40
0.1022727272727273
 40
0.1136363636363637
 40
0.1136363636363637
 40
0.1136363636363637
 40
0.1136363636363637
 40
0.125
 40
0.125
 40
0.125
 40
0.125
 40
0.1363636363636364
 40
0.1363636363636364
 40
0.1363636363636364
 40
0.1363636363636364
 40
0.1477272727272727
 40
0.1477272727272727
 40
0.1477272727272727
 40
0.1477272727272727
 40
0.1590909090909091
 40
0.1590909090909091
 40
0.1590909090909091
 40
0.1590909090909091
 40
0.1704545454545454
 40
0.1704545454545454
 40
0.1704545454545454
 40
0.1704545454545454
 40
0.1818181818181818
 40
0.1818181818181818
 40
0.1818181818181818
 40
0.1818181818181818
 40
0.1931818181818182
 40
0.1931818181818182
 40
0.1931818181818182
 40
0.1931818181818182
 40
0.2045454545454545
 40
0.2045454545454545
 40
0.2045454545454545
 40
0.2045454545454545
 40
0.2159090909090909
 40
0.2159090909090909
 40
0.2159090909090909
 40
0.2159090909090909
 40
0.2272727272727272
 40
0.2272727272727272
 40
0.2272727272727272
 40
0.2272727272727272
 40
0.2386363636363636
 40
0.2386363636363636
 40
0.2386363636363636
 40
0.2386363636363636
 40
0.2499999999999999
 40
0.2499999999999999
 40
0.2499999999999999
 40
0.2499999999999999
 40
0.2613636363636363
 40
0.2613636363636363
 40
0.2613636363636363
 40
0.2613636363636363
 40
0.2727272727272727
 40
0.2727272727272727
 40
0.2727272727272727
 40
0.2727272727272727
 40
0.284090909090909
 40
0.284090909090909
 40
0.284090909090909
 40
0.284090909090909
 40
0.2954545454545454
 40
0.2954545454545454
 40
0.2954545454545454
 40
0.2954545454545454
 40
0.3068181818181817
 40
0.3068181818181817
 40
0.3068181818181817
 40
0.3068181818181817
 40
0.3181818181818181
 40
0.3181818181818181
 40
0.3181818181818181
 40
0.3181818181818181
 40
0.3295454545454544
 40
0.3295454545454544
 40
0.3295454545454544
 40
0.3295454545454544
 40
0.3409090909090908
 40
0.3409090909090908
 40
0.3409090909090908
 40
0.3409090909090908
 40
0.3522727272727271
 40
0.3522727272727271
 40
0.3522727272727271
 40
0.3522727272727271
 40
0.3636363636363635
 40
0.3636363636363635
 40
0.3636363636363635
 40
0.3636363636363635
 40
0.3749999999999998
 40
0.3749999999999998
 40
0.3749999999999998
 40
0.3749999999999998
 40
0.3863636363636362
 40
0.3863636363636362
 40
0.3863636363636362
 40
0.3863636363636362
 40
0.3977272727272725
 40
0.3977272727272725
 40
0.3977272727272725
 40
0.3977272727272725
 40
0.4090909090909089
 40
0.4090909090909089
 40
0.4090909090909089
 40
0.4090909090909089
 40
0.4204545454545453
 40
0.4204545454545453
 40
0.4204545454545453
 40
0.4204545454545453
 40
0.4318181818181816
 40
0.4318181818181816
 40
0.4318181818181816
 40
0.4318181818181816
 40
0.443181818181818
 40
0.443181818181818
 40
0.443181818181818
 40
0.443181818181818
 40
0.4545454545454543
 40
0.4545454545454543
 40
0.4545454545454543
 40
0.4545454545454543
 40
0.4659090909090907
 40
0.4659090909090907
 40
0.4659090909090907
 40
0.4659090909090907
 40
0.477272727272727
 40
0.477272727272727
 40
0.477272727272727
 40
0.477272727272727
 40
0.4886363636363634
 40
0.4886363636363634
 40
0.4886363636363634
 40
0.4886363636363634
 40
0.4999999999999997
 40
0.4999999999999997
 40
0.4999999999999997
 40
0.4999999999999997
 40
0.5113636363636361
 40
0.5113636363636361
 40
0.5113636363636361
 40
0.5113636363636361
 40
0.5227272727272725
 40
0.5227272727272725
 40
0.5227272727272725
 40
0.5227272727272725
 40
0.5340909090909088
 40
0.5340909090909088
 40
0.5340909090909088
 40
0.5340909090909088
 40
0.5454545454545452
 40
0.5454545454545452
 40
0.5454545454545452
 40
0.5454545454545452
 40
0.5568181818181816
 40
0.5568181818181816
 40
0.5568181818181816
 40
0.5568181818181816
 40
0.5681818181818179
 40
0.5681818181818179
 40
0.5681818181818179
 40
0.5681818181818179
 40
0.5795454545454543
 40
0.5795454545454543
 40
0.5795454545454543
 40
0.5795454545454543
 40
0.5909090909090906
 40
0.5909090909090906
 40
0.5909090909090906
 40
0.5909090909090906
 40
0.602272727272727
 40
0.602272727272727
 40
0.602272727272727
 40
0.602272727272727
 40
0.6136363636363633
 40
0.6136363636363633
 40
0.6136363636363633
 40
0.6136363636363633
 40
0.6249999999999997
 40
0.6249999999999997
 40
0.6249999999999997
 40
0.6249999999999997
 40
0.636363636363636
 40
0.636363636363636
 40
0.636363636363636
 40
0.636363636363636
 40
0.6477272727272724
 40
0.6477272727272724
 40
0.6477272727272724
 40
0.6477272727272724
 40
0.6590909090909087
 40
0.6590909090909087
 40
0.6590909090909087
 40
0.6590909090909087
 40
0.6704545454545451
 40
0.6704545454545451
 40
0.6704545454545451
 40
0.6704545454545451
 40
0.6818181818181814
 40
0.6818181818181814
 40
0.6818181818181814
 40
0.6818181818181814
 40
0.6931818181818178
 40
0.6931818181818178
 40
0.6931818181818178
 40
0.6931818181818178
 40
0.7045454545454541
 40
0.7045454545454541
 40
0.7045454545454541
 40
0.7045454545454541
 40
0.7159090909090905
 40
0.7159090909090905
 40
0.7159090909090905
 40
0.7159090909090905
 40
0.7272727272727269
 40
0.7272727272727269
 40
0.7272727272727269
 40
0.7272727272727269
 40
0.7386363636363632
 40
0.7386363636363632
 40
0.7386363636363632
 40
0.7386363636363632
 40
0.7499999999999996
 40
0.7499999999999996
 40
0.7499999999999996
 40
0.7499999999999996
 40
0.7613636363636359
 40
0.7613636363636359
 40
0.7613636363636359
 40
0.7613636363636359
 40
0.7727272727272723
 40
0.7727272727272723
 40
0.7727272727272723
 40
0.7727272727272723
 40
0.7840909090909086
 40
0.7840909090909086
 40
0.7840909090909086
 40
0.7840909090909086
 40
0.795454545454545
 40
0.795454545454545
 40
0.795454545454545
 40
0.795454545454545
 40
0.8068181818181813
 40
0.8068181818181813
 40
0.8068181818181813
 40
0.8068181818181813
 40
0.8181818181818177
 40
0.8181818181818177
 40
0.8181818181818177
 40
0.8181818181818177
 40
0.829545454545454
 40
0.829545454545454
 40
0.829545454545454
 40
0.829545454545454
 40
0.8409090909090904
 40
0.8409090909090904
 40
0.8409090909090904
 40
0.8409090909090904
 40
0.8522727272727267
 40
0.8522727272727267
 40
0.8522727272727267
 40
0.8522727272727267
 40
0.8636363636363631
 40
0.8636363636363631
 40
0.8636363636363631
 40
0.8636363636363631
 40
0.8749999999999994
 40
0.8749999999999994
 40
0.8749999999999994
 40
0.8749999999999994
 40
0.8863636363636358
 40
0.8863636363636358
 40
0.8863636363636358
 40
0.8863636363636358
 40
0.8977272727272722
 40
0.8977272727272722
 40
0.8977272727272722
 40
0.8977272727272722
 40
0.9090909090909085
 40
0.9090909090909085
 40
0.9090909090909085
 40
0.9090909090909085
 40
0.9204545454545449
 40
0.9204545454545449
 40
0.9204545454545449
 40
0.9204545454545449
 40
0.9318181818181812
 40
0.9318181818181812
 40
0.9318181818181812
 40
0.9318181818181812
 40
0.9431818181818176
 40
0.9431818181818176
 40
0.9431818181818176
 40
0.9431818181818176
 40
0.9545454545454539
 40
0.9545454545454539
 40
0.9545454545454539
 40
0.9545454545454539
 40
0.9659090909090903
 40
0.9659090909090903
 40
0.9659090909090903
 40
0.9659090909090903
 40
0.9772727272727266
 40
0.9772727272727266
 40
0.9772727272727266
 40
0.9772727272727266
 40
0.988636363636363
 40
0.988636363636363
 40
0.988636363636363
 40
0.988636363636363
 40
1.0
 40
1.0
 40
1.0
 40
1.0
 10
1.335318897637795
 20
0.3900314960629921
 30
0.0
 10
1.335318897637795
 20
0.3900314960629921
 30
0.0
 10
1.962972440944882
 20
0.7438385826771654
 30
0.0
 10
1.962972440944882
 20
0.7438385826771654
 30
0.0
 10
1.962972440944882
 20
0.7438385826771654
 30
0.0
 10
1.962972440944882
 20
0.7438385826771654
 30
0.0
 10
1.96248031496063
 20
0.7631456692913387
 30
0.0
 10
1.96248031496063
 20
0.7631456692913387
 30
0.0
 10
1.96248031496063
 20
0.7631456692913387
 30
0.0
 10
1.96248031496063
 20
0.7631456692913387
 30
0.0
 10
1.961031496062992
 20
0.7822047244094489
 30
0.0
 10
1.961031496062992
 20
0.7822047244094489
 30
0.0
 10
1.961031496062992
 20
0.7822047244094489
 30
0.0
 10
1.961031496062992
 20
0.7822047244094489
 30
0.0
 10
1.958637795275591
 20
0.8009803149606299
 30
0.0
 10
1.958637795275591
 20
0.8009803149606299
 30
0.0
 10
1.958637795275591
 20
0.8009803149606299
 30
0.0
 10
1.958637795275591
 20
0.8009803149606299
 30
0.0
 10
1.955338582677165
 20
0.8194645669291339
 30
0.0
 10
1.955338582677165
 20
0.8194645669291339
 30
0.0
 10
1.955338582677165
 20
0.8194645669291339
 30
0.0
 10
1.955338582677165
 20
0.8194645669291339
 30
0.0
 10
1.951145669291339
 20
0.8376181102362205
 30
0.0
 10
1.951145669291339
 20
0.8376181102362205
 30
0.0
 10
1.951145669291339
 20
0.8376181102362205
 30
0.0
 10
1.951145669291339
 20
0.8376181102362205
 30
0.0
 10
1.946086614173229
 20
0.8554291338582678
 30
0.0
 10
1.946086614173229
 20
0.8554291338582678
 30
0.0
 10
1.946086614173229
 20
0.8554291338582678
 30
0.0
 10
1.946086614173229
 20
0.8554291338582678
 30
0.0
 10
1.940185039370079
 20
0.8728661417322835
 30
0.0
 10
1.940185039370079
 20
0.8728661417322835
 30
0.0
 10
1.940185039370079
 20
0.8728661417322835
 30
0.0
 10
1.940185039370079
 20
0.8728661417322835
 30
0.0
 10
1.933468503937008
 20
0.8899094488188977
 30
0.0
 10
1.933468503937008
 20
0.8899094488188977
 30
0.0
 10
1.933468503937008
 20
0.8899094488188977
 30
0.0
 10
1.933468503937008
 20
0.8899094488188977
 30
0.0
 10
1.925944881889764
 20
0.9065314960629922
 30
0.0
 10
1.925944881889764
 20
0.9065314960629922
 30
0.0
 10
1.925944881889764
 20
0.9065314960629922
 30
0.0
 10
1.925944881889764
 20
0.9065314960629922
 30
0.0
 10
1.917657480314961
 20
0.9227125984251969
 30
0.0
 10
1.917657480314961
 20
0.9227125984251969
 30
0.0
 10
1.917657480314961
 20
0.9227125984251969
 30
0.0
 10
1.917657480314961
 20
0.9227125984251969
 30
0.0
 10
1.908614173228347
 20
0.9384291338582678
 30
0.0
 10
1.908614173228347
 20
0.9384291338582678
 30
0.0
 10
1.908614173228347
 20
0.9384291338582678
 30
0.0
 10
1.908614173228347
 20
0.9384291338582678
 30
0.0
 10
1.898854330708661
 20
0.9536614173228347
 30
0.0
 10
1.898854330708661
 20
0.9536614173228347
 30
0.0
 10
1.898854330708661
 20
0.9536614173228347
 30
0.0
 10
1.898854330708661
 20
0.9536614173228347
 30
0.0
 10
1.888389763779528
 20
0.9683740157480315
 30
0.0
 10
1.888389763779528
 20
0.9683740157480315
 30
0.0
 10
1.888389763779528
 20
0.9683740157480315
 30
0.0
 10
1.888389763779528
 20
0.9683740157480315
 30
0.0
 10
1.877248031496063
 20
0.9825551181102362
 30
0.0
 10
1.877248031496063
 20
0.9825551181102362
 30
0.0
 10
1.877248031496063
 20
0.9825551181102362
 30
0.0
 10
1.877248031496063
 20
0.9825551181102362
 30
0.0
 10
1.865448818897638
 20
0.9961732283464567
 30
0.0
 10
1.865448818897638
 20
0.9961732283464567
 30
0.0
 10
1.865448818897638
 20
0.9961732283464567
 30
0.0
 10
1.865448818897638
 20
0.9961732283464567
 30
0.0
 10
1.853027559055118
 20
1.009212598425197
 30
0.0
 10
1.853027559055118
 20
1.009212598425197
 30
0.0
 10
1.853027559055118
 20
1.009212598425197
 30
0.0
 10
1.853027559055118
 20
1.009212598425197
 30
0.0
 10
1.839988188976378
 20
1.021633858267717
 30
0.0
 10
1.839988188976378
 20
1.021633858267717
 30
0.0
 10
1.839988188976378
 20
1.021633858267717
 30
0.0
 10
1.839988188976378
 20
1.021633858267717
 30
0.0
 10
1.826370078740158
 20
1.033433070866142
 30
0.0
 10
1.826370078740158
 20
1.033433070866142
 30
0.0
 10
1.826370078740158
 20
1.033433070866142
 30
0.0
 10
1.826370078740158
 20
1.033433070866142
 30
0.0
 10
1.812188976377953
 20
1.044574803149606
 30
0.0
 10
1.812188976377953
 20
1.044574803149606
 30
0.0
 10
1.812188976377953
 20
1.044574803149606
 30
0.0
 10
1.812188976377953
 20
1.044574803149606
 30
0.0
 10
1.797476377952756
 20
1.05503937007874
 30
0.0
 10
1.797476377952756
 20
1.05503937007874
 30
0.0
 10
1.797476377952756
 20
1.05503937007874
 30
0.0
 10
1.797476377952756
 20
1.05503937007874
 30
0.0
 10
1.782244094488189
 20
1.064799212598425
 30
0.0
 10
1.782244094488189
 20
1.064799212598425
 30
0.0
 10
1.782244094488189
 20
1.064799212598425
 30
0.0
 10
1.782244094488189
 20
1.064799212598425
 30
0.0
 10
1.766527559055118
 20
1.073842519685039
 30
0.0
 10
1.766527559055118
 20
1.073842519685039
 30
0.0
 10
1.766527559055118
 20
1.073842519685039
 30
0.0
 10
1.766527559055118
 20
1.073842519685039
 30
0.0
 10
1.750346456692913
 20
1.082129921259843
 30
0.0
 10
1.750346456692913
 20
1.082129921259843
 30
0.0
 10
1.750346456692913
 20
1.082129921259843
 30
0.0
 10
1.750346456692913
 20
1.082129921259843
 30
0.0
 10
1.733724409448819
 20
1.089653543307087
 30
0.0
 10
1.733724409448819
 20
1.089653543307087
 30
0.0
 10
1.733724409448819
 20
1.089653543307087
 30
0.0
 10
1.733724409448819
 20
1.089653543307087
 30
0.0
 10
1.716681102362205
 20
1.096370078740158
 30
0.0
 10
1.716681102362205
 20
1.096370078740158
 30
0.0
 10
1.716681102362205
 20
1.096370078740158
 30
0.0
 10
1.716681102362205
 20
1.096370078740158
 30
0.0
 10
1.699244094488189
 20
1.102271653543307
 30
0.0
 10
1.699244094488189
 20
1.102271653543307
 30
0.0
 10
1.699244094488189
 20
1.102271653543307
 30
0.0
 10
1.699244094488189
 20
1.102271653543307
 30
0.0
 10
1.681433070866142
 20
1.107330708661418
 30
0.0
 10
1.681433070866142
 20
1.107330708661418
 30
0.0
 10
1.681433070866142
 20
1.107330708661418
 30
0.0
 10
1.681433070866142
 20
1.107330708661418
 30
0.0
 10
1.663279527559055
 20
1.111523622047244
 30
0.0
 10
1.663279527559055
 20
1.111523622047244
 30
0.0
 10
1.663279527559055
 20
1.111523622047244
 30
0.0
 10
1.663279527559055
 20
1.111523622047244
 30
0.0
 10
1.644795275590551
 20
1.114822834645669
 30
0.0
 10
1.644795275590551
 20
1.114822834645669
 30
0.0
 10
1.644795275590551
 20
1.114822834645669
 30
0.0
 10
1.644795275590551
 20
1.114822834645669
 30
0.0
 10
1.62601968503937
 20
1.117216535433071
 30
0.0
 10
1.62601968503937
 20
1.117216535433071
 30
0.0
 10
1.62601968503937
 20
1.117216535433071
 30
0.0
 10
1.62601968503937
 20
1.117216535433071
 30
0.0
 10
1.60696062992126
 20
1.118665354330709
 30
0.0
 10
1.60696062992126
 20
1.118665354330709
 30
0.0
 10
1.60696062992126
 20
1.118665354330709
 30
0.0
 10
1.60696062992126
 20
1.118665354330709
 30
0.0
 10
1.587653543307087
 20
1.119157480314961
 30
0.0
 10
1.587653543307087
 20
1.119157480314961
 30
0.0
 10
1.587653543307087
 20
1.119157480314961
 30
0.0
 10
1.587653543307087
 20
1.119157480314961
 30
0.0
 10
1.568338582677165
 20
1.118665354330709
 30
0.0
 10
1.568338582677165
 20
1.118665354330709
 30
0.0
 10
1.568338582677165
 20
1.118665354330709
 30
0.0
 10
1.568338582677165
 20
1.118665354330709
 30
0.0
 10
1.549279527559055
 20
1.117216535433071
 30
0.0
 10
1.549279527559055
 20
1.117216535433071
 30
0.0
 10
1.549279527559055
 20
1.117216535433071
 30
0.0
 10
1.549279527559055
 20
1.117216535433071
 30
0.0
 10
1.530496062992126
 20
1.114822834645669
 30
0.0
 10
1.530496062992126
 20
1.114822834645669
 30
0.0
 10
1.530496062992126
 20
1.114822834645669
 30
0.0
 10
1.530496062992126
 20
1.114822834645669
 30
0.0
 10
1.51201968503937
 20
1.111523622047244
 30
0.0
 10
1.51201968503937
 20
1.111523622047244
 30
0.0
 10
1.51201968503937
 20
1.111523622047244
 30
0.0
 10
1.51201968503937
 20
1.111523622047244
 30
0.0
 10
1.493858267716536
 20
1.107330708661418
 30
0.0
 10
1.493858267716536
 20
1.107330708661418
 30
0.0
 10
1.493858267716536
 20
1.107330708661418
 30
0.0
 10
1.493858267716536
 20
1.107330708661418
 30
0.0
 10
1.476051181102362
 20
1.102271653543307
 30
0.0
 10
1.476051181102362
 20
1.102271653543307
 30
0.0
 10
1.476051181102362
 20
1.102271653543307
 30
0.0
 10
1.476051181102362
 20
1.102271653543307
 30
0.0
 10
1.458614173228346
 20
1.096370078740158
 30
0.0
 10
1.458614173228346
 20
1.096370078740158
 30
0.0
 10
1.458614173228346
 20
1.096370078740158
 30
0.0
 10
1.458614173228346
 20
1.096370078740158
 30
0.0
 10
1.441574803149606
 20
1.089653543307087
 30
0.0
 10
1.441574803149606
 20
1.089653543307087
 30
0.0
 10
1.441574803149606
 20
1.089653543307087
 30
0.0
 10
1.441574803149606
 20
1.089653543307087
 30
0.0
 10
1.42494094488189
 20
1.082129921259843
 30
0.0
 10
1.42494094488189
 20
1.082129921259843
 30
0.0
 10
1.42494094488189
 20
1.082129921259843
 30
0.0
 10
1.42494094488189
 20
1.082129921259843
 30
0.0
 10
1.408759842519685
 20
1.073842519685039
 30
0.0
 10
1.408759842519685
 20
1.073842519685039
 30
0.0
 10
1.408759842519685
 20
1.073842519685039
 30
0.0
 10
1.408759842519685
 20
1.073842519685039
 30
0.0
 10
1.393043307086614
 20
1.064799212598425
 30
0.0
 10
1.393043307086614
 20
1.064799212598425
 30
0.0
 10
1.393043307086614
 20
1.064799212598425
 30
0.0
 10
1.393043307086614
 20
1.064799212598425
 30
0.0
 10
0.7653897637795276
 20
0.710992125984252
 30
0.0
 10
0.7653897637795276
 20
0.710992125984252
 30
0.0
 10
0.7653897637795276
 20
0.710992125984252
 30
0.0
 10
0.7653897637795276
 20
0.710992125984252
 30
0.0
 10
0.7811062992125984
 20
0.7200354330708662
 30
0.0
 10
0.7811062992125984
 20
0.7200354330708662
 30
0.0
 10
0.7811062992125984
 20
0.7200354330708662
 30
0.0
 10
0.7811062992125984
 20
0.7200354330708662
 30
0.0
 10
0.7972874015748032
 20
0.7283228346456693
 30
0.0
 10
0.7972874015748032
 20
0.7283228346456693
 30
0.0
 10
0.7972874015748032
 20
0.7283228346456693
 30
0.0
 10
0.7972874015748032
 20
0.7283228346456693
 30
0.0
 10
0.8139212598425197
 20
0.7358464566929134
 30
0.0
 10
0.8139212598425197
 20
0.7358464566929134
 30
0.0
 10
0.8139212598425197
 20
0.7358464566929134
 30
0.0
 10
0.8139212598425197
 20
0.7358464566929134
 30
0.0
 10
0.8309606299212599
 20
0.7425629921259843
 30
0.0
 10
0.8309606299212599
 20
0.7425629921259843
 30
0.0
 10
0.8309606299212599
 20
0.7425629921259843
 30
0.0
 10
0.8309606299212599
 20
0.7425629921259843
 30
0.0
 10
0.8483976377952757
 20
0.7484645669291339
 30
0.0
 10
0.8483976377952757
 20
0.7484645669291339
 30
0.0
 10
0.8483976377952757
 20
0.7484645669291339
 30
0.0
 10
0.8483976377952757
 20
0.7484645669291339
 30
0.0
 10
0.8662047244094489
 20
0.7535236220472441
 30
0.0
 10
0.8662047244094489
 20
0.7535236220472441
 30
0.0
 10
0.8662047244094489
 20
0.7535236220472441
 30
0.0
 10
0.8662047244094489
 20
0.7535236220472441
 30
0.0
 10
0.8843661417322835
 20
0.7577165354330709
 30
0.0
 10
0.8843661417322835
 20
0.7577165354330709
 30
0.0
 10
0.8843661417322835
 20
0.7577165354330709
 30
0.0
 10
0.8843661417322835
 20
0.7577165354330709
 30
0.0
 10
0.9028425196850394
 20
0.7610157480314961
 30
0.0
 10
0.9028425196850394
 20
0.7610157480314961
 30
0.0
 10
0.9028425196850394
 20
0.7610157480314961
 30
0.0
 10
0.9028425196850394
 20
0.7610157480314961
 30
0.0
 10
0.9216259842519685
 20
0.7634094488188977
 30
0.0
 10
0.9216259842519685
 20
0.7634094488188977
 30
0.0
 10
0.9216259842519685
 20
0.7634094488188977
 30
0.0
 10
0.9216259842519685
 20
0.7634094488188977
 30
0.0
 10
0.9406850393700788
 20
0.7648582677165354
 30
0.0
 10
0.9406850393700788
 20
0.7648582677165354
 30
0.0
 10
0.9406850393700788
 20
0.7648582677165354
 30
0.0
 10
0.9406850393700788
 20
0.7648582677165354
 30
0.0
 10
0.9600000000000001
 20
0.7653503937007874
 30
0.0
 10
0.9600000000000001
 20
0.7653503937007874
 30
0.0
 10
0.9600000000000001
 20
0.7653503937007874
 30
0.0
 10
0.9600000000000001
 20
0.7653503937007874
 30
0.0
 10
0.9793070866141733
 20
0.7648582677165354
 30
0.0
 10
0.9793070866141733
 20
0.7648582677165354
 30
0.0
 10
0.9793070866141733
 20
0.7648582677165354
 30
0.0
 10
0.9793070866141733
 20
0.7648582677165354
 30
0.0
 10
0.9983661417322836
 20
0.7634094488188977
 30
0.0
 10
0.9983661417322836
 20
0.7634094488188977
 30
0.0
 10
0.9983661417322836
 20
0.7634094488188977
 30
0.0
 10
0.9983661417322836
 20
0.7634094488188977
 30
0.0
 10
1.017141732283465
 20
0.7610157480314961
 30
0.0
 10
1.017141732283465
 20
0.7610157480314961
 30
0.0
 10
1.017141732283465
 20
0.7610157480314961
 30
0.0
 10
1.017141732283465
 20
0.7610157480314961
 30
0.0
 10
1.035625984251969
 20
0.7577165354330709
 30
0.0
 10
1.035625984251969
 20
0.7577165354330709
 30
0.0
 10
1.035625984251969
 20
0.7577165354330709
 30
0.0
 10
1.035625984251969
 20
0.7577165354330709
 30
0.0
 10
1.053779527559055
 20
0.7535236220472441
 30
0.0
 10
1.053779527559055
 20
0.7535236220472441
 30
0.0
 10
1.053779527559055
 20
0.7535236220472441
 30
0.0
 10
1.053779527559055
 20
0.7535236220472441
 30
0.0
 10
1.071590551181102
 20
0.7484645669291339
 30
0.0
 10
1.071590551181102
 20
0.7484645669291339
 30
0.0
 10
1.071590551181102
 20
0.7484645669291339
 30
0.0
 10
1.071590551181102
 20
0.7484645669291339
 30
0.0
 10
1.089027559055118
 20
0.7425629921259843
 30
0.0
 10
1.089027559055118
 20
0.7425629921259843
 30
0.0
 10
1.089027559055118
 20
0.7425629921259843
 30
0.0
 10
1.089027559055118
 20
0.7425629921259843
 30
0.0
 10
1.106070866141732
 20
0.7358464566929134
 30
0.0
 10
1.106070866141732
 20
0.7358464566929134
 30
0.0
 10
1.106070866141732
 20
0.7358464566929134
 30
0.0
 10
1.106070866141732
 20
0.7358464566929134
 30
0.0
 10
1.122692913385827
 20
0.7283228346456693
 30
0.0
 10
1.122692913385827
 20
0.7283228346456693
 30
0.0
 10
1.122692913385827
 20
0.7283228346456693
 30
0.0
 10
1.122692913385827
 20
0.7283228346456693
 30
0.0
 10
1.138874015748032
 20
0.7200354330708662
 30
0.0
 10
1.138874015748032
 20
0.7200354330708662
 30
0.0
 10
1.138874015748032
 20
0.7200354330708662
 30
0.0
 10
1.138874015748032
 20
0.7200354330708662
 30
0.0
 10
1.154590551181102
 20
0.710992125984252
 30
0.0
 10
1.154590551181102
 20
0.710992125984252
 30
0.0
 10
1.154590551181102
 20
0.710992125984252
 30
0.0
 10
1.154590551181102
 20
0.710992125984252
 30
0.0
 10
1.169822834645669
 20
0.701232283464567
 30
0.0
 10
1.169822834645669
 20
0.701232283464567
 30
0.0
 10
1.169822834645669
 20
0.701232283464567
 30
0.0
 10
1.169822834645669
 20
0.701232283464567
 30
0.0
 10
1.184535433070866
 20
0.6907677165354331
 30
0.0
 10
1.184535433070866
 20
0.6907677165354331
 30
0.0
 10
1.184535433070866
 20
0.6907677165354331
 30
0.0
 10
1.184535433070866
 20
0.6907677165354331
 30
0.0
 10
1.198716535433071
 20
0.6796259842519685
 30
0.0
 10
1.198716535433071
 20
0.6796259842519685
 30
0.0
 10
1.198716535433071
 20
0.6796259842519685
 30
0.0
 10
1.198716535433071
 20
0.6796259842519685
 30
0.0
 10
1.212334645669291
 20
0.6678267716535433
 30
0.0
 10
1.212334645669291
 20
0.6678267716535433
 30
0.0
 10
1.212334645669291
 20
0.6678267716535433
 30
0.0
 10
1.212334645669291
 20
0.6678267716535433
 30
0.0
 10
1.225374015748032
 20
0.6554055118110237
 30
0.0
 10
1.225374015748032
 20
0.6554055118110237
 30
0.0
 10
1.225374015748032
 20
0.6554055118110237
 30
0.0
 10
1.225374015748032
 20
0.6554055118110237
 30
0.0
 10
1.237795275590551
 20
0.6423661417322835
 30
0.0
 10
1.237795275590551
 20
0.6423661417322835
 30
0.0
 10
1.237795275590551
 20
0.6423661417322835
 30
0.0
 10
1.237795275590551
 20
0.6423661417322835
 30
0.0
 10
1.249594488188976
 20
0.6287480314960631
 30
0.0
 10
1.249594488188976
 20
0.6287480314960631
 30
0.0
 10
1.249594488188976
 20
0.6287480314960631
 30
0.0
 10
1.249594488188976
 20
0.6287480314960631
 30
0.0
 10
1.260736220472441
 20
0.6145669291338582
 30
0.0
 10
1.260736220472441
 20
0.6145669291338582
 30
0.0
 10
1.260736220472441
 20
0.6145669291338582
 30
0.0
 10
1.260736220472441
 20
0.6145669291338582
 30
0.0
 10
1.271200787401575
 20
0.5998543307086615
 30
0.0
 10
1.271200787401575
 20
0.5998543307086615
 30
0.0
 10
1.271200787401575
 20
0.5998543307086615
 30
0.0
 10
1.271200787401575
 20
0.5998543307086615
 30
0.0
 10
1.28096062992126
 20
0.5846220472440945
 30
0.0
 10
1.28096062992126
 20
0.5846220472440945
 30
0.0
 10
1.28096062992126
 20
0.5846220472440945
 30
0.0
 10
1.28096062992126
 20
0.5846220472440945
 30
0.0
 10
1.290003937007874
 20
0.5689055118110237
 30
0.0
 10
1.290003937007874
 20
0.5689055118110237
 30
0.0
 10
1.290003937007874
 20
0.5689055118110237
 30
0.0
 10
1.290003937007874
 20
0.5689055118110237
 30
0.0
 10
1.298291338582677
 20
0.552724409448819
 30
0.0
 10
1.298291338582677
 20
0.552724409448819
 30
0.0
 10
1.298291338582677
 20
0.552724409448819
 30
0.0
 10
1.298291338582677
 20
0.552724409448819
 30
0.0
 10
1.305814960629921
 20
0.5361023622047244
 30
0.0
 10
1.305814960629921
 20
0.5361023622047244
 30
0.0
 10
1.305814960629921
 20
0.5361023622047244
 30
0.0
 10
1.305814960629921
 20
0.5361023622047244
 30
0.0
 10
1.312531496062992
 20
0.5190590551181102
 30
0.0
 10
1.312531496062992
 20
0.5190590551181102
 30
0.0
 10
1.312531496062992
 20
0.5190590551181102
 30
0.0
 10
1.312531496062992
 20
0.5190590551181102
 30
0.0
 10
1.318433070866142
 20
0.5016220472440945
 30
0.0
 10
1.318433070866142
 20
0.5016220472440945
 30
0.0
 10
1.318433070866142
 20
0.5016220472440945
 30
0.0
 10
1.318433070866142
 20
0.5016220472440945
 30
0.0
 10
1.323492125984252
 20
0.4838110236220473
 30
0.0
 10
1.323492125984252
 20
0.4838110236220473
 30
0.0
 10
1.323492125984252
 20
0.4838110236220473
 30
0.0
 10
1.323492125984252
 20
0.4838110236220473
 30
0.0
 10
1.327685039370079
 20
0.4656574803149606
 30
0.0
 10
1.327685039370079
 20
0.4656574803149606
 30
0.0
 10
1.327685039370079
 20
0.4656574803149606
 30
0.0
 10
1.327685039370079
 20
0.4656574803149606
 30
0.0
 10
1.330984251968504
 20
0.4471732283464567
 30
0.0
 10
1.330984251968504
 20
0.4471732283464567
 30
0.0
 10
1.330984251968504
 20
0.4471732283464567
 30
0.0
 10
1.330984251968504
 20
0.4471732283464567
 30
0.0
 10
1.333377952755906
 20
0.4283976377952756
 30
0.0
 10
1.333377952755906
 20
0.4283976377952756
 30
0.0
 10
1.333377952755906
 20
0.4283976377952756
 30
0.0
 10
1.333377952755906
 20
0.4283976377952756
 30
0.0
 10
1.334826771653543
 20
0.4093385826771654
 30
0.0
 10
1.334826771653543
 20
0.4093385826771654
 30
0.0
 10
1.334826771653543
 20
0.4093385826771654
 30
0.0
 10
1.334826771653543
 20
0.4093385826771654
 30
0.0
 10
1.335318897637795
 20
0.3900314960629921
 30
0.0
 10
1.335318897637795
 20
0.3900314960629921
 30
0.0
  0
SPLINE
  5
73
330
1F
100
AcDbEntity
  8
Layer 1
 62
   253
100
AcDbSpline
210
0.0
220
0.0
230
1.0
 70
    11
 71
     3
 72
    20
 73
    16
 74
     0
 42
0.0000000001
 43
0.0000000001
 40
0.0
 40
0.0
 40
0.0
 40
0.0
 40
0.25
 40
0.25
 40
0.25
 40
0.25
 40
0.5
 40
0.5
 40
0.5
 40
0.5
 40
0.75
 40
0.75
 40
0.75
 40
0.75
 40
1.0
 40
1.0
 40
1.0
 40
1.0
 10
1.335318897637795
 20
-0.2371023622047244
 30
0.0
 10
1.335318897637795
 20
-0.2371023622047244
 30
0.0
 10
1.962972440944882
 20
0.1167047244094488
 30
0.0
 10
1.962972440944882
 20
0.1167047244094488
 30
0.0
 10
1.962972440944882
 20
0.1167047244094488
 30
0.0
 10
1.962972440944882
 20
0.1167047244094488
 30
0.0
 10
1.962972440944882
 20
0.7438385826771654
 30
0.0
 10
1.962972440944882
 20
0.7438385826771654
 30
0.0
 10
1.962972440944882
 20
0.7438385826771654
 30
0.0
 10
1.962972440944882
 20
0.7438385826771654
 30
0.0
 10
1.335318897637795
 20
0.3900314960629921
 30
0.0
 10
1.335318897637795
 20
0.3900314960629921
 30
0.0
 10
1.335318897637795
 20
0.3900314960629921
 30
0.0
 10
1.335318897637795
 20
0.3900314960629921
 30
0.0
 10
1.335318897637795
 20
-0.2371023622047244
 30
0.0
 10
1.335318897637795
 20
-0.2371023622047244
 30
0.0
  0
SPLINE
  5
74
330
1F
100
AcDbEntity
  8
Layer 1
 62
   250
370
     5
100
AcDbSpline
210
0.0
220
0.0
230
1.0
 70
    11
 71
     3
 72
    20
 73
    16
 74
     0
 42
0.0000000001
 43
0.0000000001
 40
0.0
 40
0.0
 40
0.0
 40
0.0
 40
0.25
 40
0.25
 40
0.25
 40
0.25
 40
0.5
 40
0.5
 40
0.5
 40
0.5
 40
0.75
 40
0.75
 40
0.75
 40
0.75
 40
1.0
 40
1.0
 40
1.0
 40
1.0
 10
1.335318897637795
 20
-0.2371023622047244
 30
0.0
 10
1.335318897637795
 20
-0.2371023622047244
 30
0.0
 10
1.962972440944882
 20
0.1167047244094488
 30
0.0
 10
1.962972440944882
 20
0.1167047244094488
 30
0.0
 10
1.962972440944882
 20
0.1167047244094488
 30
0.0
 10
1.962972440944882
 20
0.1167047244094488
 30
0.0
 10
1.962972440944882
 20
0.7438385826771654
 30
0.0
 10
1.962972440944882
 20
0.7438385826771654
 30
0.0
 10
1.962972440944882
 20
0.7438385826771654
 30
0.0
 10
1.962972440944882
 20
0.7438385826771654
 30
0.0
 10
1.335318897637795
 20
0.3900314960629921
 30
0.0
 10
1.335318897637795
 20
0.3900314960629921
 30
0.0
 10
1.335318897637795
 20
0.3900314960629921
 30
0.0
 10
1.335318897637795
 20
0.3900314960629921
 30
0.0
 10
1.335318897637795
 20
-0.2371023622047244
 30
0.0
 10
1.335318897637795
 20
-0.2371023622047244
 30
0.0
  0
SPLINE
  5
75
330
1F
100
AcDbEntity
  8
Layer 1
 62
     7
370
     5
100
AcDbSpline
210
0.0
220
0.0
230
1.0
 70
    11
 71
     3
 72
    28
 73
    24
 74
     0
 42
0.0000000001
 43
0.0000000001
 40
0.0
 40
0.0
 40
0.0
 40
0.0
 40
0.1666666666666667
 40
0.1666666666666667
 40
0.1666666666666667
 40
0.1666666666666667
 40
0.3333333333333333
 40
0.3333333333333333
 40
0.3333333333333333
 40
0.3333333333333333
 40
0.5
 40
0.5
 40
0.5
 40
0.5
 40
0.6666666666666666
 40
0.6666666666666666
 40
0.6666666666666666
 40
0.6666666666666666
 40
0.8333333333333333
 40
0.8333333333333333
 40
0.8333333333333333
 40
0.8333333333333333
 40
1.0
 40
1.0
 40
1.0
 40
1.0
 10
1.335318897637795
 20
0.3900314960629921
 30
0.0
 10
1.335318897637795
 20
0.5972795275590551
 30
0.0
 10
1.167248031496063
 20
0.7653503937007874
 30
0.0
 10
0.9600000000000001
 20
0.7653503937007874
 30
0.0
 10
0.9600000000000001
 20
0.7653503937007874
 30
0.0
 10
0.752755905511811
 20
0.7653503937007874
 30
0.0
 10
0.5846850393700788
 20
0.5972795275590551
 30
0.0
 10
0.5846850393700788
 20
0.3900314960629921
 30
0.0
 10
0.5846850393700788
 20
0.3900314960629921
 30
0.0
 10
0.5846850393700788
 20
0.3900314960629921
 30
0.0
 10
-2.164681102362205
 20
0.3900314960629921
 30
0.0
 10
-2.164681102362205
 20
0.3900314960629921
 30
0.0
 10
-2.164681102362205
 20
0.3900314960629921
 30
0.0
 10
-2.164681102362205
 20
0.3900314960629921
 30
0.0
 10
-2.164681102362205
 20
-0.2382322834645669
 30
0.0
 10
-2.164681102362205
 20
-0.2382322834645669
 30
0.0
 10
-2.164681102362205
 20
-0.2382322834645669
 30
0.0
 10
-2.164681102362205
 20
-0.2382322834645669
 30
0.0
 10
1.335318897637795
 20
-0.2371023622047244
 30
0.0
 10
1.335318897637795
 20
-0.2371023622047244
 30
0.0
 10
1.335318897637795
 20
-0.2371023622047244
 30
0.0
 10
1.335318897637795
 20
-0.2371023622047244
 30
0.0
 10
1.335318897637795
 20
0.3900314960629921
 30
0.0
 10
1.335318897637795
 20
0.3900314960629921
 30
0.0
  0
SPLINE
  5
76
330
1F
100
AcDbEntity
  8
Layer 1
 62
   250
100
AcDbSpline
210
0.0
220
0.0
230
1.0
 70
    11
 71
     3
 72
   104
 73
   100
 74
     0
 42
0.0000000001
 43
0.0000000001
 40
0.0
 40
0.0
 40
0.0
 40
0.0
 40
0.04
 40
0.04
 40
0.04
 40
0.04
 40
0.08
 40
0.08
 40
0.08
 40
0.08
 40
0.12
 40
0.12
 40
0.12
 40
0.12
 40
0.16
 40
0.16
 40
0.16
 40
0.16
 40
0.2
 40
0.2
 40
0.2
 40
0.2
 40
0.24
 40
0.24
 40
0.24
 40
0.24
 40
0.28
 40
0.28
 40
0.28
 40
0.28
 40
0.32
 40
0.32
 40
0.32
 40
0.32
 40
0.36
 40
0.36
 40
0.36
 40
0.36
 40
0.4
 40
0.4
 40
0.4
 40
0.4
 40
0.44
 40
0.44
 40
0.44
 40
0.44
 40
0.4799999999999999
 40
0.4799999999999999
 40
0.4799999999999999
 40
0.4799999999999999
 40
0.5199999999999999
 40
0.5199999999999999
 40
0.5199999999999999
 40
0.5199999999999999
 40
0.5599999999999999
 40
0.5599999999999999
 40
0.5599999999999999
 40
0.5599999999999999
 40
0.6
 40
0.6
 40
0.6
 40
0.6
 40
0.64
 40
0.64
 40
0.64
 40
0.64
 40
0.6800000000000001
 40
0.6800000000000001
 40
0.6800000000000001
 40
0.6800000000000001
 40
0.7200000000000001
 40
0.7200000000000001
 40
0.7200000000000001
 40
0.7200000000000001
 40
0.7600000000000001
 40
0.7600000000000001
 40
0.7600000000000001
 40
0.7600000000000001
 40
0.8000000000000002
 40
0.8000000000000002
 40
0.8000000000000002
 40
0.8000000000000002
 40
0.8400000000000002
 40
0.8400000000000002
 40
0.8400000000000002
 40
0.8400000000000002
 40
0.8800000000000002
 40
0.8800000000000002
 40
0.8800000000000002
 40
0.8800000000000002
 40
0.9200000000000003
 40
0.9200000000000003
 40
0.9200000000000003
 40
0.9200000000000003
 40
0.9600000000000003
 40
0.9600000000000003
 40
0.9600000000000003
 40
0.9600000000000003
 40
1.0
 40
1.0
 40
1.0
 40
1.0
 10
-0.4685354330708662
 20
-0.3586968503937008
 30
0.0
 10
-0.4685354330708662
 20
-0.3586968503937008
 30
0.0
 10
-0.4145629921259842
 20
-0.3586968503937008
 30
0.0
 10
-0.4145629921259842
 20
-0.3586968503937008
 30
0.0
 10
-0.4145629921259842
 20
-0.3586968503937008
 30
0.0
 10
-0.4013937007874016
 20
-0.3586968503937008
 30
0.0
 10
-0.3923661417322835
 20
-0.3593070866141733
 30
0.0
 10
-0.38748031496063
 20
-0.360503937007874
 30
0.0
 10
-0.38748031496063
 20
-0.360503937007874
 30
0.0
 10
-0.380255905511811
 20
-0.3622244094488189
 30
0.0
 10
-0.3745629921259843
 20
-0.3653622047244095
 30
0.0
 10
-0.3703385826771654
 20
-0.3699212598425197
 30
0.0
 10
-0.3703385826771654
 20
-0.3699212598425197
 30
0.0
 10
-0.3661456692913386
 20
-0.3744763779527559
 30
0.0
 10
-0.3640354330708662
 20
-0.3799763779527559
 30
0.0
 10
-0.3640354330708662
 20
-0.3863622047244095
 30
0.0
 10
-0.3640354330708662
 20
-0.3863622047244095
 30
0.0
 10
-0.3640354330708662
 20
-0.3909763779527559
 30
0.0
 10
-0.3651456692913386
 20
-0.3951141732283465
 30
0.0
 10
-0.3673661417322835
 20
-0.3987795275590552
 30
0.0
 10
-0.3673661417322835
 20
-0.3987795275590552
 30
0.0
 10
-0.3695905511811024
 20
-0.4024488188976378
 30
0.0
 10
-0.3728385826771654
 20
-0.4055866141732284
 30
0.0
 10
-0.3770629921259843
 20
-0.4081692913385827
 30
0.0
 10
-0.3770629921259843
 20
-0.4081692913385827
 30
0.0
 10
-0.3797834645669291
 20
-0.4098622047244095
 30
0.0
 10
-0.3834527559055118
 20
-0.4113070866141733
 30
0.0
 10
-0.3881181102362205
 20
-0.412503937007874
 30
0.0
 10
-0.3881181102362205
 20
-0.412503937007874
 30
0.0
 10
-0.3822007874015748
 20
-0.4135866141732283
 30
0.0
 10
-0.3777007874015748
 20
-0.4148897637795276
 30
0.0
 10
-0.3746181102362205
 20
-0.4163897637795276
 30
0.0
 10
-0.3746181102362205
 20
-0.4163897637795276
 30
0.0
 10
-0.3699527559055118
 20
-0.4186692913385827
 30
0.0
 10
-0.366255905511811
 20
-0.4219173228346457
 30
0.0
 10
-0.3635629921259843
 20
-0.4261692913385827
 30
0.0
 10
-0.3635629921259843
 20
-0.4261692913385827
 30
0.0
 10
-0.3608385826771653
 20
-0.4303897637795276
 30
0.0
 10
-0.3594803149606299
 20
-0.4351692913385827
 30
0.0
 10
-0.3594803149606299
 20
-0.4404763779527559
 30
0.0
 10
-0.3594803149606299
 20
-0.4404763779527559
 30
0.0
 10
-0.3594803149606299
 20
-0.4456417322834646
 30
0.0
 10
-0.3608110236220473
 20
-0.4504173228346457
 30
0.0
 10
-0.3634803149606299
 20
-0.4548070866141732
 30
0.0
 10
-0.3634803149606299
 20
-0.4548070866141732
 30
0.0
 10
-0.3661181102362205
 20
-0.4591968503937008
 30
0.0
 10
-0.3698937007874016
 20
-0.4628070866141733
 30
0.0
 10
-0.374728346456693
 20
-0.4656417322834646
 30
0.0
 10
-0.374728346456693
 20
-0.4656417322834646
 30
0.0
 10
-0.3795905511811024
 20
-0.4684448818897638
 30
0.0
 10
-0.3852559055118111
 20
-0.470251968503937
 30
0.0
 10
-0.3917007874015748
 20
-0.4710590551181103
 30
0.0
 10
-0.3917007874015748
 20
-0.4710590551181103
 30
0.0
 10
-0.3981732283464567
 20
-0.4718346456692913
 30
0.0
 10
-0.4048110236220472
 20
-0.4722244094488189
 30
0.0
 10
-0.4116456692913386
 20
-0.4722244094488189
 30
0.0
 10
-0.4116456692913386
 20
-0.4722244094488189
 30
0.0
 10
-0.4116456692913386
 20
-0.4722244094488189
 30
0.0
 10
-0.4685354330708662
 20
-0.4722244094488189
 30
0.0
 10
-0.4685354330708662
 20
-0.4722244094488189
 30
0.0
 10
-0.4685354330708662
 20
-0.4722244094488189
 30
0.0
 10
-0.4685354330708662
 20
-0.4722244094488189
 30
0.0
 10
-0.4685354330708662
 20
-0.4653897637795276
 30
0.0
 10
-0.4685354330708662
 20
-0.4653897637795276
 30
0.0
 10
-0.4685354330708662
 20
-0.4653897637795276
 30
0.0
 10
-0.4685354330708662
 20
-0.4653897637795276
 30
0.0
 10
-0.4647007874015748
 20
-0.4653897637795276
 30
0.0
 10
-0.4647007874015748
 20
-0.4653897637795276
 30
0.0
 10
-0.4647007874015748
 20
-0.4653897637795276
 30
0.0
 10
-0.461003937007874
 20
-0.4653897637795276
 30
0.0
 10
-0.458503937007874
 20
-0.4648070866141733
 30
0.0
 10
-0.4571456692913386
 20
-0.4636692913385827
 30
0.0
 10
-0.4571456692913386
 20
-0.4636692913385827
 30
0.0
 10
-0.4551732283464567
 20
-0.4621141732283465
 30
0.0
 10
-0.4542007874015748
 20
-0.459503937007874
 30
0.0
 10
-0.4542007874015748
 20
-0.4558622047244095
 30
0.0
 10
-0.4542007874015748
 20
-0.4558622047244095
 30
0.0
 10
-0.4542007874015748
 20
-0.4558622047244095
 30
0.0
 10
-0.4542007874015748
 20
-0.3770039370078741
 30
0.0
 10
-0.4542007874015748
 20
-0.3770039370078741
 30
0.0
 10
-0.4542007874015748
 20
-0.3770039370078741
 30
0.0
 10
-0.4542007874015748
 20
-0.3733070866141732
 30
0.0
 10
-0.4545039370078741
 20
-0.3708070866141732
 30
0.0
 10
-0.4550905511811024
 20
-0.3694488188976378
 30
0.0
 10
-0.4550905511811024
 20
-0.3694488188976378
 30
0.0
 10
-0.4557007874015748
 20
-0.3680866141732284
 30
0.0
 10
-0.4565905511811024
 20
-0.3671141732283465
 30
0.0
 10
-0.4577834645669291
 20
-0.366503937007874
 30
0.0
 10
-0.4577834645669291
 20
-0.366503937007874
 30
0.0
 10
-0.4589763779527559
 20
-0.3659212598425197
 30
0.0
 10
-0.4612834645669292
 20
-0.3656141732283465
 30
0.0
 10
-0.4647007874015748
 20
-0.3656141732283465
 30
0.0
 10
-0.4647007874015748
 20
-0.3656141732283465
 30
0.0
 10
-0.4647007874015748
 20
-0.3656141732283465
 30
0.0
 10
-0.4685354330708662
 20
-0.3656141732283465
 30
0.0
 10
-0.4685354330708662
 20
-0.3656141732283465
 30
0.0
 10
-0.4685354330708662
 20
-0.3656141732283465
 30
0.0
 10
-0.4685354330708662
 20
-0.3656141732283465
 30
0.0
 10
-0.4685354330708662
 20
-0.3586968503937008
 30
0.0
 10
-0.4685354330708662
 20
-0.3586968503937008
 30
0.0
  0
SPLINE
  5
77
330
1F
100
AcDbEntity
  8
Layer 1
 62
   250
100
AcDbSpline
210
0.0
220
0.0
230
1.0
 70
    11
 71
     3
 72
    40
 73
    36
 74
     0
 42
0.0000000001
 43
0.0000000001
 40
0.0
 40
0.0
 40
0.0
 40
0.0
 40
0.1111111111111111
 40
0.1111111111111111
 40
0.1111111111111111
 40
0.1111111111111111
 40
0.2222222222222222
 40
0.2222222222222222
 40
0.2222222222222222
 40
0.2222222222222222
 40
0.3333333333333333
 40
0.3333333333333333
 40
0.3333333333333333
 40
0.3333333333333333
 40
0.4444444444444444
 40
0.4444444444444444
 40
0.4444444444444444
 40
0.4444444444444444
 40
0.5555555555555556
 40
0.5555555555555556
 40
0.5555555555555556
 40
0.5555555555555556
 40
0.6666666666666667
 40
0.6666666666666667
 40
0.6666666666666667
 40
0.6666666666666667
 40
0.7777777777777779
 40
0.7777777777777779
 40
0.7777777777777779
 40
0.7777777777777779
 40
0.8888888888888891
 40
0.8888888888888891
 40
0.8888888888888891
 40
0.8888888888888891
 40
1.0
 40
1.0
 40
1.0
 40
1.0
 10
-0.4389763779527559
 20
-0.3677244094488189
 30
0.0
 10
-0.4389763779527559
 20
-0.3677244094488189
 30
0.0
 10
-0.4389763779527559
 20
-0.4093070866141733
 30
0.0
 10
-0.4389763779527559
 20
-0.4093070866141733
 30
0.0
 10
-0.4389763779527559
 20
-0.4093070866141733
 30
0.0
 10
-0.4389763779527559
 20
-0.4093070866141733
 30
0.0
 10
-0.4182283464566929
 20
-0.4093070866141733
 30
0.0
 10
-0.4182283464566929
 20
-0.4093070866141733
 30
0.0
 10
-0.4182283464566929
 20
-0.4093070866141733
 30
0.0
 10
-0.4085354330708662
 20
-0.4093070866141733
 30
0.0
 10
-0.4018661417322835
 20
-0.4088622047244095
 30
0.0
 10
-0.3983110236220472
 20
-0.4079488188976378
 30
0.0
 10
-0.3983110236220472
 20
-0.4079488188976378
 30
0.0
 10
-0.3927007874015748
 20
-0.4064763779527559
 30
0.0
 10
-0.3884527559055118
 20
-0.4039763779527559
 30
0.0
 10
-0.38548031496063
 20
-0.4004488188976378
 30
0.0
 10
-0.38548031496063
 20
-0.4004488188976378
 30
0.0
 10
-0.3825354330708662
 20
-0.3969212598425197
 30
0.0
 10
-0.3810354330708662
 20
-0.3923897637795276
 30
0.0
 10
-0.3810354330708662
 20
-0.3868622047244095
 30
0.0
 10
-0.3810354330708662
 20
-0.3868622047244095
 30
0.0
 10
-0.3810354330708662
 20
-0.3821968503937008
 30
0.0
 10
-0.3823937007874016
 20
-0.3783070866141732
 30
0.0
 10
-0.3850629921259843
 20
-0.3751692913385827
 30
0.0
 10
-0.3850629921259843
 20
-0.3751692913385827
 30
0.0
 10
-0.3877559055118111
 20
-0.3720590551181103
 30
0.0
 10
-0.3913661417322835
 20
-0.3699212598425197
 30
0.0
 10
-0.3958661417322835
 20
-0.3687795275590551
 30
0.0
 10
-0.3958661417322835
 20
-0.3687795275590551
 30
0.0
 10
-0.3987834645669292
 20
-0.3680866141732284
 30
0.0
 10
-0.4048661417322835
 20
-0.3677244094488189
 30
0.0
 10
-0.4140905511811024
 20
-0.3677244094488189
 30
0.0
 10
-0.4140905511811024
 20
-0.3677244094488189
 30
0.0
 10
-0.4140905511811024
 20
-0.3677244094488189
 30
0.0
 10
-0.4389763779527559
 20
-0.3677244094488189
 30
0.0
 10
-0.4389763779527559
 20
-0.3677244094488189
 30
0.0
  0
SPLINE
  5
78
330
1F
100
AcDbEntity
  8
Layer 1
 62
   250
100
AcDbSpline
210
0.0
220
0.0
230
1.0
 70
    11
 71
     3
 72
    52
 73
    48
 74
     0
 42
0.0000000001
 43
0.0000000001
 40
0.0
 40
0.0
 40
0.0
 40
0.0
 40
0.0833333333333333
 40
0.0833333333333333
 40
0.0833333333333333
 40
0.0833333333333333
 40
0.1666666666666667
 40
0.1666666666666667
 40
0.1666666666666667
 40
0.1666666666666667
 40
0.25
 40
0.25
 40
0.25
 40
0.25
 40
0.3333333333333333
 40
0.3333333333333333
 40
0.3333333333333333
 40
0.3333333333333333
 40
0.4166666666666666
 40
0.4166666666666666
 40
0.4166666666666666
 40
0.4166666666666666
 40
0.4999999999999999
 40
0.4999999999999999
 40
0.4999999999999999
 40
0.4999999999999999
 40
0.5833333333333333
 40
0.5833333333333333
 40
0.5833333333333333
 40
0.5833333333333333
 40
0.6666666666666666
 40
0.6666666666666666
 40
0.6666666666666666
 40
0.6666666666666666
 40
0.75
 40
0.75
 40
0.75
 40
0.75
 40
0.8333333333333334
 40
0.8333333333333334
 40
0.8333333333333334
 40
0.8333333333333334
 40
0.9166666666666667
 40
0.9166666666666667
 40
0.9166666666666667
 40
0.9166666666666667
 40
1.0
 40
1.0
 40
1.0
 40
1.0
 10
-0.4389763779527559
 20
-0.4171417322834646
 30
0.0
 10
-0.4389763779527559
 20
-0.4171417322834646
 30
0.0
 10
-0.4389763779527559
 20
-0.4543897637795276
 30
0.0
 10
-0.4389763779527559
 20
-0.4543897637795276
 30
0.0
 10
-0.4389763779527559
 20
-0.4543897637795276
 30
0.0
 10
-0.4389763779527559
 20
-0.4581417322834646
 30
0.0
 10
-0.4388110236220473
 20
-0.4603622047244095
 30
0.0
 10
-0.438507874015748
 20
-0.4610866141732284
 30
0.0
 10
-0.438507874015748
 20
-0.4610866141732284
 30
0.0
 10
-0.4380629921259843
 20
-0.4620590551181102
 30
0.0
 10
-0.4372007874015748
 20
-0.4627244094488189
 30
0.0
 10
-0.4358937007874016
 20
-0.4631141732283465
 30
0.0
 10
-0.4358937007874016
 20
-0.4631141732283465
 30
0.0
 10
-0.4349763779527559
 20
-0.4633897637795276
 30
0.0
 10
-0.4323661417322835
 20
-0.4635314960629922
 30
0.0
 10
-0.4280905511811024
 20
-0.4635314960629922
 30
0.0
 10
-0.4280905511811024
 20
-0.4635314960629922
 30
0.0
 10
-0.4280905511811024
 20
-0.4635314960629922
 30
0.0
 10
-0.4170078740157481
 20
-0.4635314960629922
 30
0.0
 10
-0.4170078740157481
 20
-0.4635314960629922
 30
0.0
 10
-0.4170078740157481
 20
-0.4635314960629922
 30
0.0
 10
-0.4060629921259843
 20
-0.4635314960629922
 30
0.0
 10
-0.3982283464566929
 20
-0.4629173228346457
 30
0.0
 10
-0.3935354330708661
 20
-0.4616968503937008
 30
0.0
 10
-0.3935354330708661
 20
-0.4616968503937008
 30
0.0
 10
-0.3888385826771654
 20
-0.4604763779527559
 30
0.0
 10
-0.3848385826771654
 20
-0.4578897637795276
 30
0.0
 10
-0.3815354330708662
 20
-0.4539448818897638
 30
0.0
 10
-0.3815354330708662
 20
-0.4539448818897638
 30
0.0
 10
-0.378228346456693
 20
-0.4500314960629921
 30
0.0
 10
-0.3765629921259843
 20
-0.4452795275590551
 30
0.0
 10
-0.3765629921259843
 20
-0.4397519685039371
 30
0.0
 10
-0.3765629921259843
 20
-0.4397519685039371
 30
0.0
 10
-0.3765629921259843
 20
-0.4350866141732284
 30
0.0
 10
-0.3779212598425197
 20
-0.4309488188976378
 30
0.0
 10
-0.3805905511811024
 20
-0.4273346456692914
 30
0.0
 10
-0.3805905511811024
 20
-0.4273346456692914
 30
0.0
 10
-0.3832834645669291
 20
-0.4237244094488189
 30
0.0
 10
-0.387007874015748
 20
-0.4211417322834646
 30
0.0
 10
-0.3917559055118111
 20
-0.4195314960629921
 30
0.0
 10
-0.3917559055118111
 20
-0.4195314960629921
 30
0.0
 10
-0.3965078740157481
 20
-0.4179173228346457
 30
0.0
 10
-0.4049212598425197
 20
-0.4171417322834646
 30
0.0
 10
-0.4170078740157481
 20
-0.4171417322834646
 30
0.0
 10
-0.4170078740157481
 20
-0.4171417322834646
 30
0.0
 10
-0.4170078740157481
 20
-0.4171417322834646
 30
0.0
 10
-0.4389763779527559
 20
-0.4171417322834646
 30
0.0
 10
-0.4389763779527559
 20
-0.4171417322834646
 30
0.0
  0
SPLINE
  5
79
330
1F
100
AcDbEntity
  8
Layer 1
 62
   250
100
AcDbSpline
210
0.0
220
0.0
230
1.0
 70
    11
 71
     3
 72
   112
 73
   108
 74
     0
 42
0.0000000001
 43
0.0000000001
 40
0.0
 40
0.0
 40
0.0
 40
0.0
 40
0.037037037037037
 40
0.037037037037037
 40
0.037037037037037
 40
0.037037037037037
 40
0.0740740740740741
 40
0.0740740740740741
 40
0.0740740740740741
 40
0.0740740740740741
 40
0.1111111111111111
 40
0.1111111111111111
 40
0.1111111111111111
 40
0.1111111111111111
 40
0.1481481481481481
 40
0.1481481481481481
 40
0.1481481481481481
 40
0.1481481481481481
 40
0.1851851851851852
 40
0.1851851851851852
 40
0.1851851851851852
 40
0.1851851851851852
 40
0.2222222222222222
 40
0.2222222222222222
 40
0.2222222222222222
 40
0.2222222222222222
 40
0.2592592592592592
 40
0.2592592592592592
 40
0.2592592592592592
 40
0.2592592592592592
 40
0.2962962962962963
 40
0.2962962962962963
 40
0.2962962962962963
 40
0.2962962962962963
 40
0.3333333333333333
 40
0.3333333333333333
 40
0.3333333333333333
 40
0.3333333333333333
 40
0.3703703703703704
 40
0.3703703703703704
 40
0.3703703703703704
 40
0.3703703703703704
 40
0.4074074074074074
 40
0.4074074074074074
 40
0.4074074074074074
 40
0.4074074074074074
 40
0.4444444444444444
 40
0.4444444444444444
 40
0.4444444444444444
 40
0.4444444444444444
 40
0.4814814814814815
 40
0.4814814814814815
 40
0.4814814814814815
 40
0.4814814814814815
 40
0.5185185185185185
 40
0.5185185185185185
 40
0.5185185185185185
 40
0.5185185185185185
 40
0.5555555555555556
 40
0.5555555555555556
 40
0.5555555555555556
 40
0.5555555555555556
 40
0.5925925925925926
 40
0.5925925925925926
 40
0.5925925925925926
 40
0.5925925925925926
 40
0.6296296296296295
 40
0.6296296296296295
 40
0.6296296296296295
 40
0.6296296296296295
 40
0.6666666666666665
 40
0.6666666666666665
 40
0.6666666666666665
 40
0.6666666666666665
 40
0.7037037037037035
 40
0.7037037037037035
 40
0.7037037037037035
 40
0.7037037037037035
 40
0.7407407407407405
 40
0.7407407407407405
 40
0.7407407407407405
 40
0.7407407407407405
 40
0.7777777777777775
 40
0.7777777777777775
 40
0.7777777777777775
 40
0.7777777777777775
 40
0.8148148148148144
 40
0.8148148148148144
 40
0.8148148148148144
 40
0.8148148148148144
 40
0.8518518518518514
 40
0.8518518518518514
 40
0.8518518518518514
 40
0.8518518518518514
 40
0.8888888888888884
 40
0.8888888888888884
 40
0.8888888888888884
 40
0.8888888888888884
 40
0.9259259259259254
 40
0.9259259259259254
 40
0.9259259259259254
 40
0.9259259259259254
 40
0.9629629629629624
 40
0.9629629629629624
 40
0.9629629629629624
 40
0.9629629629629624
 40
1.0
 40
1.0
 40
1.0
 40
1.0
 10
-0.3018700787401575
 20
-0.3586968503937008
 30
0.0
 10
-0.3018700787401575
 20
-0.3586968503937008
 30
0.0
 10
-0.2884527559055118
 20
-0.3586968503937008
 30
0.0
 10
-0.2884527559055118
 20
-0.3586968503937008
 30
0.0
 10
-0.2884527559055118
 20
-0.3586968503937008
 30
0.0
 10
-0.2884527559055118
 20
-0.3586968503937008
 30
0.0
 10
-0.2532047244094489
 20
-0.4535866141732284
 30
0.0
 10
-0.2532047244094489
 20
-0.4535866141732284
 30
0.0
 10
-0.2532047244094489
 20
-0.4535866141732284
 30
0.0
 10
-0.25148031496063
 20
-0.4583622047244095
 30
0.0
 10
-0.2497322834645669
 20
-0.4615314960629922
 30
0.0
 10
-0.2479527559055118
 20
-0.4630590551181102
 30
0.0
 10
-0.2479527559055118
 20
-0.4630590551181102
 30
0.0
 10
-0.2462047244094488
 20
-0.4646141732283465
 30
0.0
 10
-0.2438149606299213
 20
-0.4653897637795276
 30
0.0
 10
-0.2408425196850394
 20
-0.4653897637795276
 30
0.0
 10
-0.2408425196850394
 20
-0.4653897637795276
 30
0.0
 10
-0.2408425196850394
 20
-0.4653897637795276
 30
0.0
 10
-0.2390629921259843
 20
-0.4653897637795276
 30
0.0
 10
-0.2390629921259843
 20
-0.4653897637795276
 30
0.0
 10
-0.2390629921259843
 20
-0.4653897637795276
 30
0.0
 10
-0.2390629921259843
 20
-0.4653897637795276
 30
0.0
 10
-0.2390629921259843
 20
-0.4722244094488189
 30
0.0
 10
-0.2390629921259843
 20
-0.4722244094488189
 30
0.0
 10
-0.2390629921259843
 20
-0.4722244094488189
 30
0.0
 10
-0.2390629921259843
 20
-0.4722244094488189
 30
0.0
 10
-0.2795078740157481
 20
-0.4722244094488189
 30
0.0
 10
-0.2795078740157481
 20
-0.4722244094488189
 30
0.0
 10
-0.2795078740157481
 20
-0.4722244094488189
 30
0.0
 10
-0.2795078740157481
 20
-0.4722244094488189
 30
0.0
 10
-0.2795078740157481
 20
-0.4653897637795276
 30
0.0
 10
-0.2795078740157481
 20
-0.4653897637795276
 30
0.0
 10
-0.2795078740157481
 20
-0.4653897637795276
 30
0.0
 10
-0.2782047244094488
 20
-0.4652795275590552
 30
0.0
 10
-0.2769251968503937
 20
-0.4652244094488189
 30
0.0
 10
-0.2756732283464567
 20
-0.4652244094488189
 30
0.0
 10
-0.2756732283464567
 20
-0.4652244094488189
 30
0.0
 10
-0.2730629921259843
 20
-0.4652244094488189
 30
0.0
 10
-0.2713700787401575
 20
-0.4649448818897638
 30
0.0
 10
-0.2705354330708661
 20
-0.4644173228346457
 30
0.0
 10
-0.2705354330708661
 20
-0.4644173228346457
 30
0.0
 10
-0.2689803149606299
 20
-0.4633897637795276
 30
0.0
 10
-0.2681771653543307
 20
-0.4620866141732284
 30
0.0
 10
-0.2681771653543307
 20
-0.460503937007874
 30
0.0
 10
-0.2681771653543307
 20
-0.460503937007874
 30
0.0
 10
-0.2681771653543307
 20
-0.4593622047244095
 30
0.0
 10
-0.2689527559055118
 20
-0.4565866141732284
 30
0.0
 10
-0.2704527559055118
 20
-0.4521141732283465
 30
0.0
 10
-0.2704527559055118
 20
-0.4521141732283465
 30
0.0
 10
-0.2704527559055118
 20
-0.4521141732283465
 30
0.0
 10
-0.2779527559055118
 20
-0.4301417322834646
 30
0.0
 10
-0.2779527559055118
 20
-0.4301417322834646
 30
0.0
 10
-0.2779527559055118
 20
-0.4301417322834646
 30
0.0
 10
-0.2779527559055118
 20
-0.4301417322834646
 30
0.0
 10
-0.3191181102362205
 20
-0.4301417322834646
 30
0.0
 10
-0.3191181102362205
 20
-0.4301417322834646
 30
0.0
 10
-0.3191181102362205
 20
-0.4301417322834646
 30
0.0
 10
-0.3191181102362205
 20
-0.4301417322834646
 30
0.0
 10
-0.3279251968503937
 20
-0.4547244094488189
 30
0.0
 10
-0.3279251968503937
 20
-0.4547244094488189
 30
0.0
 10
-0.3279251968503937
 20
-0.4547244094488189
 30
0.0
 10
-0.3288425196850394
 20
-0.4572795275590552
 30
0.0
 10
-0.3293149606299213
 20
-0.4590314960629922
 30
0.0
 10
-0.3293149606299213
 20
-0.4600314960629922
 30
0.0
 10
-0.3293149606299213
 20
-0.4600314960629922
 30
0.0
 10
-0.3293149606299213
 20
-0.4611141732283465
 30
0.0
 10
-0.3290078740157481
 20
-0.4620590551181102
 30
0.0
 10
-0.3284527559055118
 20
-0.4628622047244095
 30
0.0
 10
-0.3284527559055118
 20
-0.4628622047244095
 30
0.0
 10
-0.3278700787401575
 20
-0.4636692913385827
 30
0.0
 10
-0.3271181102362205
 20
-0.4642795275590552
 30
0.0
 10
-0.3261181102362205
 20
-0.4646968503937008
 30
0.0
 10
-0.3261181102362205
 20
-0.4646968503937008
 30
0.0
 10
-0.3251456692913386
 20
-0.4651141732283465
 30
0.0
 10
-0.3235905511811024
 20
-0.4653070866141733
 30
0.0
 10
-0.3213976377952756
 20
-0.4653070866141733
 30
0.0
 10
-0.3213976377952756
 20
-0.4653070866141733
 30
0.0
 10
-0.3199527559055118
 20
-0.4653070866141733
 30
0.0
 10
-0.318759842519685
 20
-0.4653346456692913
 30
0.0
 10
-0.3178425196850394
 20
-0.4653897637795276
 30
0.0
 10
-0.3178425196850394
 20
-0.4653897637795276
 30
0.0
 10
-0.3178425196850394
 20
-0.4653897637795276
 30
0.0
 10
-0.3178425196850394
 20
-0.4722244094488189
 30
0.0
 10
-0.3178425196850394
 20
-0.4722244094488189
 30
0.0
 10
-0.3178425196850394
 20
-0.4722244094488189
 30
0.0
 10
-0.3178425196850394
 20
-0.4722244094488189
 30
0.0
 10
-0.3517598425196851
 20
-0.4722244094488189
 30
0.0
 10
-0.3517598425196851
 20
-0.4722244094488189
 30
0.0
 10
-0.3517598425196851
 20
-0.4722244094488189
 30
0.0
 10
-0.3517598425196851
 20
-0.4722244094488189
 30
0.0
 10
-0.3517598425196851
 20
-0.4653897637795276
 30
0.0
 10
-0.3517598425196851
 20
-0.4653897637795276
 30
0.0
 10
-0.3517598425196851
 20
-0.4653897637795276
 30
0.0
 10
-0.3486181102362205
 20
-0.4653897637795276
 30
0.0
 10
-0.3463425196850394
 20
-0.4650866141732284
 30
0.0
 10
-0.3449803149606299
 20
-0.4644448818897638
 30
0.0
 10
-0.3449803149606299
 20
-0.4644448818897638
 30
0.0
 10
-0.3435905511811024
 20
-0.4638346456692913
 30
0.0
 10
-0.3423700787401575
 20
-0.4628346456692913
 30
0.0
 10
-0.3413425196850394
 20
-0.4614448818897638
 30
0.0
 10
-0.3413425196850394
 20
-0.4614448818897638
 30
0.0
 10
-0.3403149606299213
 20
-0.4600590551181102
 30
0.0
 10
-0.3389527559055118
 20
-0.4571417322834646
 30
0.0
 10
-0.3372874015748031
 20
-0.4526968503937008
 30
0.0
 10
-0.3372874015748031
 20
-0.4526968503937008
 30
0.0
 10
-0.3372874015748031
 20
-0.4526968503937008
 30
0.0
 10
-0.3018700787401575
 20
-0.3586968503937008
 30
0.0
 10
-0.3018700787401575
 20
-0.3586968503937008
 30
0.0
  0
SPLINE
  5
7A
330
1F
100
AcDbEntity
  8
Layer 1
 62
   250
100
AcDbSpline
210
0.0
220
0.0
230
1.0
 70
    11
 71
     3
 72
    16
 73
    12
 74
     0
 42
0.0000000001
 43
0.0000000001
 40
0.0
 40
0.0
 40
0.0
 40
0.0
 40
0.3333333333333333
 40
0.3333333333333333
 40
0.3333333333333333
 40
0.3333333333333333
 40
0.6666666666666666
 40
0.6666666666666666
 40
0.6666666666666666
 40
0.6666666666666666
 40
1.0
 40
1.0
 40
1.0
 40
1.0
 10
-0.3161181102362205
 20
-0.4221692913385827
 30
0.0
 10
-0.3161181102362205
 20
-0.4221692913385827
 30
0.0
 10
-0.2810354330708662
 20
-0.4221692913385827
 30
0.0
 10
-0.2810354330708662
 20
-0.4221692913385827
 30
0.0
 10
-0.2810354330708662
 20
-0.4221692913385827
 30
0.0
 10
-0.2810354330708662
 20
-0.4221692913385827
 30
0.0
 10
-0.2986181102362205
 20
-0.3733346456692914
 30
0.0
 10
-0.2986181102362205
 20
-0.3733346456692914
 30
0.0
 10
-0.2986181102362205
 20
-0.3733346456692914
 30
0.0
 10
-0.2986181102362205
 20
-0.3733346456692914
 30
0.0
 10
-0.3161181102362205
 20
-0.4221692913385827
 30
0.0
 10
-0.3161181102362205
 20
-0.4221692913385827
 30
0.0
  0
SPLINE
  5
7B
330
1F
100
AcDbEntity
  8
Layer 1
 62
   250
100
AcDbSpline
210
0.0
220
0.0
230
1.0
 70
    11
 71
     3
 72
    72
 73
    68
 74
     0
 42
0.0000000001
 43
0.0000000001
 40
0.0
 40
0.0
 40
0.0
 40
0.0
 40
0.0588235294117647
 40
0.0588235294117647
 40
0.0588235294117647
 40
0.0588235294117647
 40
0.1176470588235294
 40
0.1176470588235294
 40
0.1176470588235294
 40
0.1176470588235294
 40
0.1764705882352941
 40
0.1764705882352941
 40
0.1764705882352941
 40
0.1764705882352941
 40
0.2352941176470588
 40
0.2352941176470588
 40
0.2352941176470588
 40
0.2352941176470588
 40
0.2941176470588235
 40
0.2941176470588235
 40
0.2941176470588235
 40
0.2941176470588235
 40
0.3529411764705883
 40
0.3529411764705883
 40
0.3529411764705883
 40
0.3529411764705883
 40
0.411764705882353
 40
0.411764705882353
 40
0.411764705882353
 40
0.411764705882353
 40
0.4705882352941177
 40
0.4705882352941177
 40
0.4705882352941177
 40
0.4705882352941177
 40
0.5294117647058824
 40
0.5294117647058824
 40
0.5294117647058824
 40
0.5294117647058824
 40
0.5882352941176471
 40
0.5882352941176471
 40
0.5882352941176471
 40
0.5882352941176471
 40
0.6470588235294118
 40
0.6470588235294118
 40
0.6470588235294118
 40
0.6470588235294118
 40
0.7058823529411765
 40
0.7058823529411765
 40
0.7058823529411765
 40
0.7058823529411765
 40
0.7647058823529412
 40
0.7647058823529412
 40
0.7647058823529412
 40
0.7647058823529412
 40
0.823529411764706
 40
0.823529411764706
 40
0.823529411764706
 40
0.823529411764706
 40
0.8823529411764707
 40
0.8823529411764707
 40
0.8823529411764707
 40
0.8823529411764707
 40
0.9411764705882354
 40
0.9411764705882354
 40
0.9411764705882354
 40
0.9411764705882354
 40
1.0
 40
1.0
 40
1.0
 40
1.0
 10
-0.0760354330708661
 20
-0.3586968503937008
 30
0.0
 10
-0.0760354330708661
 20
-0.3586968503937008
 30
0.0
 10
-0.0699527559055118
 20
-0.3586968503937008
 30
0.0
 10
-0.0699527559055118
 20
-0.3586968503937008
 30
0.0
 10
-0.0699527559055118
 20
-0.3586968503937008
 30
0.0
 10
-0.0699527559055118
 20
-0.3586968503937008
 30
0.0
 10
-0.0699527559055118
 20
-0.4529448818897638
 30
0.0
 10
-0.0699527559055118
 20
-0.4529448818897638
 30
0.0
 10
-0.0699527559055118
 20
-0.4529448818897638
 30
0.0
 10
-0.0699527559055118
 20
-0.4573897637795276
 30
0.0
 10
-0.0696456692913386
 20
-0.460251968503937
 30
0.0
 10
-0.0690905511811024
 20
-0.4615314960629922
 30
0.0
 10
-0.0690905511811024
 20
-0.4615314960629922
 30
0.0
 10
-0.068507874015748
 20
-0.4628070866141733
 30
0.0
 10
-0.0675905511811024
 20
-0.463751968503937
 30
0.0
 10
-0.0662874015748031
 20
-0.4644173228346457
 30
0.0
 10
-0.0662874015748031
 20
-0.4644173228346457
 30
0.0
 10
-0.0649803149606299
 20
-0.4650590551181102
 30
0.0
 10
-0.0623976377952756
 20
-0.4653897637795276
 30
0.0
 10
-0.0585354330708661
 20
-0.4653897637795276
 30
0.0
 10
-0.0585354330708661
 20
-0.4653897637795276
 30
0.0
 10
-0.0585354330708661
 20
-0.4653897637795276
 30
0.0
 10
-0.0505629921259843
 20
-0.4653897637795276
 30
0.0
 10
-0.0505629921259843
 20
-0.4653897637795276
 30
0.0
 10
-0.0505629921259843
 20
-0.4653897637795276
 30
0.0
 10
-0.0505629921259843
 20
-0.4653897637795276
 30
0.0
 10
-0.0505629921259843
 20
-0.4722244094488189
 30
0.0
 10
-0.0505629921259843
 20
-0.4722244094488189
 30
0.0
 10
-0.0505629921259843
 20
-0.4722244094488189
 30
0.0
 10
-0.0505629921259843
 20
-0.4722244094488189
 30
0.0
 10
-0.1042007874015748
 20
-0.4722244094488189
 30
0.0
 10
-0.1042007874015748
 20
-0.4722244094488189
 30
0.0
 10
-0.1042007874015748
 20
-0.4722244094488189
 30
0.0
 10
-0.1042007874015748
 20
-0.4722244094488189
 30
0.0
 10
-0.1042007874015748
 20
-0.4653897637795276
 30
0.0
 10
-0.1042007874015748
 20
-0.4653897637795276
 30
0.0
 10
-0.1042007874015748
 20
-0.4653897637795276
 30
0.0
 10
-0.1042007874015748
 20
-0.4653897637795276
 30
0.0
 10
-0.0953425196850394
 20
-0.4653897637795276
 30
0.0
 10
-0.0953425196850394
 20
-0.4653897637795276
 30
0.0
 10
-0.0953425196850394
 20
-0.4653897637795276
 30
0.0
 10
-0.0914803149606299
 20
-0.4653897637795276
 30
0.0
 10
-0.0889251968503937
 20
-0.4650590551181102
 30
0.0
 10
-0.0876456692913386
 20
-0.4643622047244095
 30
0.0
 10
-0.0876456692913386
 20
-0.4643622047244095
 30
0.0
 10
-0.0863700787401575
 20
-0.4636968503937008
 30
0.0
 10
-0.0853700787401575
 20
-0.4626141732283465
 30
0.0
 10
-0.0846732283464567
 20
-0.4611141732283465
 30
0.0
 10
-0.0846732283464567
 20
-0.4611141732283465
 30
0.0
 10
-0.0839803149606299
 20
-0.4596141732283465
 30
0.0
 10
-0.0836181102362205
 20
-0.4568897637795276
 30
0.0
 10
-0.0836181102362205
 20
-0.4529448818897638
 30
0.0
 10
-0.0836181102362205
 20
-0.4529448818897638
 30
0.0
 10
-0.0836181102362205
 20
-0.4529448818897638
 30
0.0
 10
-0.0836181102362205
 20
-0.3754763779527559
 30
0.0
 10
-0.0836181102362205
 20
-0.3754763779527559
 30
0.0
 10
-0.0836181102362205
 20
-0.3754763779527559
 30
0.0
 10
-0.0836181102362205
 20
-0.3754763779527559
 30
0.0
 10
-0.1042007874015748
 20
-0.3754763779527559
 30
0.0
 10
-0.1042007874015748
 20
-0.3754763779527559
 30
0.0
 10
-0.1042007874015748
 20
-0.3754763779527559
 30
0.0
 10
-0.1042007874015748
 20
-0.3754763779527559
 30
0.0
 10
-0.1042007874015748
 20
-0.3684763779527559
 30
0.0
 10
-0.1042007874015748
 20
-0.3684763779527559
 30
0.0
 10
-0.1042007874015748
 20
-0.3684763779527559
 30
0.0
 10
-0.0929803149606299
 20
-0.3668937007874016
 30
0.0
 10
-0.0835905511811024
 20
-0.3636417322834646
 30
0.0
 10
-0.0760354330708661
 20
-0.3586968503937008
 30
0.0
  0
SPLINE
  5
7C
330
1F
100
AcDbEntity
  8
Layer 1
 62
   250
100
AcDbSpline
210
0.0
220
0.0
230
1.0
 70
    11
 71
     3
 72
    84
 73
    80
 74
     0
 42
0.0000000001
 43
0.0000000001
 40
0.0
 40
0.0
 40
0.0
 40
0.0
 40
0.05
 40
0.05
 40
0.05
 40
0.05
 40
0.1
 40
0.1
 40
0.1
 40
0.1
 40
0.15
 40
0.15
 40
0.15
 40
0.15
 40
0.2
 40
0.2
 40
0.2
 40
0.2
 40
0.25
 40
0.25
 40
0.25
 40
0.25
 40
0.3
 40
0.3
 40
0.3
 40
0.3
 40
0.35
 40
0.35
 40
0.35
 40
0.35
 40
0.4
 40
0.4
 40
0.4
 40
0.4
 40
0.45
 40
0.45
 40
0.45
 40
0.45
 40
0.4999999999999999
 40
0.4999999999999999
 40
0.4999999999999999
 40
0.4999999999999999
 40
0.5499999999999999
 40
0.5499999999999999
 40
0.5499999999999999
 40
0.5499999999999999
 40
0.6
 40
0.6
 40
0.6
 40
0.6
 40
0.65
 40
0.65
 40
0.65
 40
0.65
 40
0.7000000000000001
 40
0.7000000000000001
 40
0.7000000000000001
 40
0.7000000000000001
 40
0.7500000000000001
 40
0.7500000000000001
 40
0.7500000000000001
 40
0.7500000000000001
 40
0.8000000000000002
 40
0.8000000000000002
 40
0.8000000000000002
 40
0.8000000000000002
 40
0.8500000000000002
 40
0.8500000000000002
 40
0.8500000000000002
 40
0.8500000000000002
 40
0.9000000000000002
 40
0.9000000000000002
 40
0.9000000000000002
 40
0.9000000000000002
 40
0.9500000000000003
 40
0.9500000000000003
 40
0.9500000000000003
 40
0.9500000000000003
 40
1.0
 40
1.0
 40
1.0
 40
1.0
 10
0.0556299212598425
 20
-0.3565866141732283
 30
0.0
 10
0.0556299212598425
 20
-0.3565866141732283
 30
0.0
 10
0.0556299212598425
 20
-0.364003937007874
 30
0.0
 10
0.0556299212598425
 20
-0.364003937007874
 30
0.0
 10
0.0556299212598425
 20
-0.364003937007874
 30
0.0
 10
0.042244094488189
 20
-0.3641417322834646
 30
0.0
 10
0.0314094488188976
 20
-0.3661141732283465
 30
0.0
 10
0.0231338582677165
 20
-0.3698346456692914
 30
0.0
 10
0.0231338582677165
 20
-0.3698346456692914
 30
0.0
 10
0.0148543307086614
 20
-0.3735866141732284
 30
0.0
 10
0.0087716535433071
 20
-0.3791968503937008
 30
0.0
 10
0.0048543307086614
 20
-0.3866417322834646
 30
0.0
 10
0.0048543307086614
 20
-0.3866417322834646
 30
0.0
 10
0.0009370078740157
 20
-0.3941141732283465
 30
0.0
 10
-0.001255905511811
 20
-0.4033070866141733
 30
0.0
 10
-0.0017283464566929
 20
-0.4141968503937008
 30
0.0
 10
-0.0017283464566929
 20
-0.4141968503937008
 30
0.0
 10
0.0010196850393701
 20
-0.4099763779527559
 30
0.0
 10
0.0038543307086614
 20
-0.4066692913385827
 30
0.0
 10
0.0067716535433071
 20
-0.4043070866141733
 30
0.0
 10
0.0067716535433071
 20
-0.4043070866141733
 30
0.0
 10
0.0096614173228346
 20
-0.4019488188976378
 30
0.0
 10
0.0130472440944882
 20
-0.4001417322834646
 30
0.0
 10
0.0169370078740157
 20
-0.3988622047244095
 30
0.0
 10
0.0169370078740157
 20
-0.3988622047244095
 30
0.0
 10
0.0208267716535433
 20
-0.3975866141732284
 30
0.0
 10
0.0250748031496063
 20
-0.3969488188976378
 30
0.0
 10
0.0296889763779528
 20
-0.3969488188976378
 30
0.0
 10
0.0296889763779528
 20
-0.3969488188976378
 30
0.0
 10
0.0370472440944882
 20
-0.3969488188976378
 30
0.0
 10
0.0436299212598425
 20
-0.3985866141732284
 30
0.0
 10
0.0493818897637795
 20
-0.4018346456692913
 30
0.0
 10
0.0493818897637795
 20
-0.4018346456692913
 30
0.0
 10
0.0551299212598425
 20
-0.4050866141732284
 30
0.0
 10
0.0596023622047244
 20
-0.409503937007874
 30
0.0
 10
0.0627992125984252
 20
-0.4150590551181103
 30
0.0
 10
0.0627992125984252
 20
-0.4150590551181103
 30
0.0
 10
0.065992125984252
 20
-0.4206141732283465
 30
0.0
 10
0.0676023622047244
 20
-0.4271692913385827
 30
0.0
 10
0.0676023622047244
 20
-0.4346968503937008
 30
0.0
 10
0.0676023622047244
 20
-0.4346968503937008
 30
0.0
 10
0.0676023622047244
 20
-0.4466968503937008
 30
0.0
 10
0.063992125984252
 20
-0.4561141732283465
 30
0.0
 10
0.0567716535433071
 20
-0.4629448818897638
 30
0.0
 10
0.0567716535433071
 20
-0.4629448818897638
 30
0.0
 10
0.0487992125984252
 20
-0.4704448818897638
 30
0.0
 10
0.0384645669291339
 20
-0.4741692913385827
 30
0.0
 10
0.0257716535433071
 20
-0.4741692913385827
 30
0.0
 10
0.0257716535433071
 20
-0.4741692913385827
 30
0.0
 10
0.0166023622047244
 20
-0.4741692913385827
 30
0.0
 10
0.0088818897637795
 20
-0.4722795275590551
 30
0.0
 10
0.0025748031496063
 20
-0.4684763779527559
 30
0.0
 10
0.0025748031496063
 20
-0.4684763779527559
 30
0.0
 10
-0.0037283464566929
 20
-0.4646968503937008
 30
0.0
 10
-0.0087283464566929
 20
-0.4588897637795276
 30
0.0
 10
-0.0124527559055118
 20
-0.4510590551181102
 30
0.0
 10
-0.0124527559055118
 20
-0.4510590551181102
 30
0.0
 10
-0.0161456692913386
 20
-0.443251968503937
 30
0.0
 10
-0.018007874015748
 20
-0.4335866141732284
 30
0.0
 10
-0.018007874015748
 20
-0.4220866141732284
 30
0.0
 10
-0.018007874015748
 20
-0.4220866141732284
 30
0.0
 10
-0.018007874015748
 20
-0.4105314960629922
 30
0.0
 10
-0.0160354330708661
 20
-0.4002795275590552
 30
0.0
 10
-0.0121181102362205
 20
-0.3913346456692914
 30
0.0
 10
-0.0121181102362205
 20
-0.3913346456692914
 30
0.0
 10
-0.0081732283464567
 20
-0.3823937007874016
 30
0.0
 10
-0.0027283464566929
 20
-0.3751968503937008
 30
0.0
 10
0.0042165354330709
 20
-0.3697795275590551
 30
0.0
 10
0.0042165354330709
 20
-0.3697795275590551
 30
0.0
 10
0.0111614173228346
 20
-0.3643346456692914
 30
0.0
 10
0.0187716535433071
 20
-0.3607795275590551
 30
0.0
 10
0.0270196850393701
 20
-0.3591141732283465
 30
0.0
 10
0.0270196850393701
 20
-0.3591141732283465
 30
0.0
 10
0.0352992125984252
 20
-0.3574212598425197
 30
0.0
 10
0.0427165354330709
 20
-0.3565866141732283
 30
0.0
 10
0.0492992125984252
 20
-0.3565866141732283
 30
0.0
 10
0.0492992125984252
 20
-0.3565866141732283
 30
0.0
 10
0.0492992125984252
 20
-0.3565866141732283
 30
0.0
 10
0.0556299212598425
 20
-0.3565866141732283
 30
0.0
 10
0.0556299212598425
 20
-0.3565866141732283
 30
0.0
  0
SPLINE
  5
7D
330
1F
100
AcDbEntity
  8
Layer 1
 62
   250
100
AcDbSpline
210
0.0
220
0.0
230
1.0
 70
    11
 71
     3
 72
    40
 73
    36
 74
     0
 42
0.0000000001
 43
0.0000000001
 40
0.0
 40
0.0
 40
0.0
 40
0.0
 40
0.1111111111111111
 40
0.1111111111111111
 40
0.1111111111111111
 40
0.1111111111111111
 40
0.2222222222222222
 40
0.2222222222222222
 40
0.2222222222222222
 40
0.2222222222222222
 40
0.3333333333333333
 40
0.3333333333333333
 40
0.3333333333333333
 40
0.3333333333333333
 40
0.4444444444444444
 40
0.4444444444444444
 40
0.4444444444444444
 40
0.4444444444444444
 40
0.5555555555555556
 40
0.5555555555555556
 40
0.5555555555555556
 40
0.5555555555555556
 40
0.6666666666666667
 40
0.6666666666666667
 40
0.6666666666666667
 40
0.6666666666666667
 40
0.7777777777777779
 40
0.7777777777777779
 40
0.7777777777777779
 40
0.7777777777777779
 40
0.8888888888888891
 40
0.8888888888888891
 40
0.8888888888888891
 40
0.8888888888888891
 40
1.0
 40
1.0
 40
1.0
 40
1.0
 10
0.0259370078740158
 20
-0.4055866141732284
 30
0.0
 10
0.0181338582677165
 20
-0.4055866141732284
 30
0.0
 10
0.0117165354330709
 20
-0.4085314960629922
 30
0.0
 10
0.0066889763779528
 20
-0.4144488188976378
 30
0.0
 10
0.0066889763779528
 20
-0.4144488188976378
 30
0.0
 10
0.0016614173228346
 20
-0.4203622047244094
 30
0.0
 10
-0.0008385826771654
 20
-0.427476377952756
 30
0.0
 10
-0.0008385826771654
 20
-0.4357519685039371
 30
0.0
 10
-0.0008385826771654
 20
-0.4357519685039371
 30
0.0
 10
-0.0008385826771654
 20
-0.4416141732283465
 30
0.0
 10
0.0003818897637795
 20
-0.4470314960629921
 30
0.0
 10
0.0028267716535433
 20
-0.4520039370078741
 30
0.0
 10
0.0028267716535433
 20
-0.4520039370078741
 30
0.0
 10
0.0052716535433071
 20
-0.4569763779527559
 30
0.0
 10
0.0084094488188976
 20
-0.4606417322834646
 30
0.0
 10
0.0122716535433071
 20
-0.4630590551181102
 30
0.0
 10
0.0122716535433071
 20
-0.4630590551181102
 30
0.0
 10
0.0161023622047244
 20
-0.4654763779527559
 30
0.0
 10
0.0204645669291339
 20
-0.4666968503937008
 30
0.0
 10
0.0252716535433071
 20
-0.4666968503937008
 30
0.0
 10
0.0252716535433071
 20
-0.4666968503937008
 30
0.0
 10
0.0327716535433071
 20
-0.4666968503937008
 30
0.0
 10
0.038992125984252
 20
-0.4638622047244095
 30
0.0
 10
0.0439645669291339
 20
-0.4581968503937008
 30
0.0
 10
0.0439645669291339
 20
-0.4581968503937008
 30
0.0
 10
0.0489094488188976
 20
-0.4525314960629921
 30
0.0
 10
0.0514094488188976
 20
-0.4449173228346457
 30
0.0
 10
0.0514094488188976
 20
-0.4353622047244095
 30
0.0
 10
0.0514094488188976
 20
-0.4353622047244095
 30
0.0
 10
0.0514094488188976
 20
-0.426251968503937
 30
0.0
 10
0.048992125984252
 20
-0.419003937007874
 30
0.0
 10
0.0441614173228346
 20
-0.4136417322834646
 30
0.0
 10
0.0441614173228346
 20
-0.4136417322834646
 30
0.0
 10
0.0393267716535433
 20
-0.408251968503937
 30
0.0
 10
0.033244094488189
 20
-0.4055866141732284
 30
0.0
 10
0.0259370078740158
 20
-0.4055866141732284
 30
0.0
  0
SPLINE
  5
7E
330
1F
100
AcDbEntity
  8
Layer 1
 62
   250
100
AcDbSpline
210
0.0
220
0.0
230
1.0
 70
    11
 71
     3
 72
    48
 73
    44
 74
     0
 42
0.0000000001
 43
0.0000000001
 40
0.0
 40
0.0
 40
0.0
 40
0.0
 40
0.0909090909090909
 40
0.0909090909090909
 40
0.0909090909090909
 40
0.0909090909090909
 40
0.1818181818181818
 40
0.1818181818181818
 40
0.1818181818181818
 40
0.1818181818181818
 40
0.2727272727272727
 40
0.2727272727272727
 40
0.2727272727272727
 40
0.2727272727272727
 40
0.3636363636363637
 40
0.3636363636363637
 40
0.3636363636363637
 40
0.3636363636363637
 40
0.4545454545454546
 40
0.4545454545454546
 40
0.4545454545454546
 40
0.4545454545454546
 40
0.5454545454545455
 40
0.5454545454545455
 40
0.5454545454545455
 40
0.5454545454545455
 40
0.6363636363636365
 40
0.6363636363636365
 40
0.6363636363636365
 40
0.6363636363636365
 40
0.7272727272727274
 40
0.7272727272727274
 40
0.7272727272727274
 40
0.7272727272727274
 40
0.8181818181818183
 40
0.8181818181818183
 40
0.8181818181818183
 40
0.8181818181818183
 40
0.9090909090909093
 40
0.9090909090909093
 40
0.9090909090909093
 40
0.9090909090909093
 40
1.0
 40
1.0
 40
1.0
 40
1.0
 10
0.1350787401574803
 20
-0.3586968503937008
 30
0.0
 10
0.1350787401574803
 20
-0.3586968503937008
 30
0.0
 10
0.1488267716535433
 20
-0.3586968503937008
 30
0.0
 10
0.1488267716535433
 20
-0.3586968503937008
 30
0.0
 10
0.1488267716535433
 20
-0.3586968503937008
 30
0.0
 10
0.1488267716535433
 20
-0.3586968503937008
 30
0.0
 10
0.1488267716535433
 20
-0.4246968503937008
 30
0.0
 10
0.1488267716535433
 20
-0.4246968503937008
 30
0.0
 10
0.1488267716535433
 20
-0.4246968503937008
 30
0.0
 10
0.1488267716535433
 20
-0.4246968503937008
 30
0.0
 10
0.1701614173228347
 20
-0.4246968503937008
 30
0.0
 10
0.1701614173228347
 20
-0.4246968503937008
 30
0.0
 10
0.1701614173228347
 20
-0.4246968503937008
 30
0.0
 10
0.1701614173228347
 20
-0.4246968503937008
 30
0.0
 10
0.1701614173228347
 20
-0.4348622047244095
 30
0.0
 10
0.1701614173228347
 20
-0.4348622047244095
 30
0.0
 10
0.1701614173228347
 20
-0.4348622047244095
 30
0.0
 10
0.1701614173228347
 20
-0.4348622047244095
 30
0.0
 10
0.1488267716535433
 20
-0.4348622047244095
 30
0.0
 10
0.1488267716535433
 20
-0.4348622047244095
 30
0.0
 10
0.1488267716535433
 20
-0.4348622047244095
 30
0.0
 10
0.1488267716535433
 20
-0.4348622047244095
 30
0.0
 10
0.1488267716535433
 20
-0.4722244094488189
 30
0.0
 10
0.1488267716535433
 20
-0.4722244094488189
 30
0.0
 10
0.1488267716535433
 20
-0.4722244094488189
 30
0.0
 10
0.1488267716535433
 20
-0.4722244094488189
 30
0.0
 10
0.1350787401574803
 20
-0.4722244094488189
 30
0.0
 10
0.1350787401574803
 20
-0.4722244094488189
 30
0.0
 10
0.1350787401574803
 20
-0.4722244094488189
 30
0.0
 10
0.1350787401574803
 20
-0.4722244094488189
 30
0.0
 10
0.1350787401574803
 20
-0.4348622047244095
 30
0.0
 10
0.1350787401574803
 20
-0.4348622047244095
 30
0.0
 10
0.1350787401574803
 20
-0.4348622047244095
 30
0.0
 10
0.1350787401574803
 20
-0.4348622047244095
 30
0.0
 10
0.0816062992125984
 20
-0.4348622047244095
 30
0.0
 10
0.0816062992125984
 20
-0.4348622047244095
 30
0.0
 10
0.0816062992125984
 20
-0.4348622047244095
 30
0.0
 10
0.0816062992125984
 20
-0.4348622047244095
 30
0.0
 10
0.0816062992125984
 20
-0.4205590551181103
 30
0.0
 10
0.0816062992125984
 20
-0.4205590551181103
 30
0.0
 10
0.0816062992125984
 20
-0.4205590551181103
 30
0.0
 10
0.0816062992125984
 20
-0.4205590551181103
 30
0.0
 10
0.1350787401574803
 20
-0.3586968503937008
 30
0.0
 10
0.1350787401574803
 20
-0.3586968503937008
 30
0.0
  0
SPLINE
  5
7F
330
1F
100
AcDbEntity
  8
Layer 1
 62
   250
100
AcDbSpline
210
0.0
220
0.0
230
1.0
 70
    11
 71
     3
 72
    16
 73
    12
 74
     0
 42
0.0000000001
 43
0.0000000001
 40
0.0
 40
0.0
 40
0.0
 40
0.0
 40
0.3333333333333333
 40
0.3333333333333333
 40
0.3333333333333333
 40
0.3333333333333333
 40
0.6666666666666666
 40
0.6666666666666666
 40
0.6666666666666666
 40
0.6666666666666666
 40
1.0
 40
1.0
 40
1.0
 40
1.0
 10
0.1350787401574803
 20
-0.4246968503937008
 30
0.0
 10
0.1350787401574803
 20
-0.4246968503937008
 30
0.0
 10
0.1350787401574803
 20
-0.3713070866141732
 30
0.0
 10
0.1350787401574803
 20
-0.3713070866141732
 30
0.0
 10
0.1350787401574803
 20
-0.3713070866141732
 30
0.0
 10
0.1350787401574803
 20
-0.3713070866141732
 30
0.0
 10
0.0890236220472441
 20
-0.4246968503937008
 30
0.0
 10
0.0890236220472441
 20
-0.4246968503937008
 30
0.0
 10
0.0890236220472441
 20
-0.4246968503937008
 30
0.0
 10
0.0890236220472441
 20
-0.4246968503937008
 30
0.0
 10
0.1350787401574803
 20
-0.4246968503937008
 30
0.0
 10
0.1350787401574803
 20
-0.4246968503937008
 30
0.0
  0
SPLINE
  5
80
330
1F
100
AcDbEntity
  8
Layer 1
 62
   250
100
AcDbSpline
210
0.0
220
0.0
230
1.0
 70
    11
 71
     3
 72
    80
 73
    76
 74
     0
 42
0.0000000001
 43
0.0000000001
 40
0.0
 40
0.0
 40
0.0
 40
0.0
 40
0.0526315789473684
 40
0.0526315789473684
 40
0.0526315789473684
 40
0.0526315789473684
 40
0.1052631578947368
 40
0.1052631578947368
 40
0.1052631578947368
 40
0.1052631578947368
 40
0.1578947368421053
 40
0.1578947368421053
 40
0.1578947368421053
 40
0.1578947368421053
 40
0.2105263157894737
 40
0.2105263157894737
 40
0.2105263157894737
 40
0.2105263157894737
 40
0.2631578947368421
 40
0.2631578947368421
 40
0.2631578947368421
 40
0.2631578947368421
 40
0.3157894736842105
 40
0.3157894736842105
 40
0.3157894736842105
 40
0.3157894736842105
 40
0.3684210526315789
 40
0.3684210526315789
 40
0.3684210526315789
 40
0.3684210526315789
 40
0.4210526315789474
 40
0.4210526315789474
 40
0.4210526315789474
 40
0.4210526315789474
 40
0.4736842105263158
 40
0.4736842105263158
 40
0.4736842105263158
 40
0.4736842105263158
 40
0.5263157894736842
 40
0.5263157894736842
 40
0.5263157894736842
 40
0.5263157894736842
 40
0.5789473684210527
 40
0.5789473684210527
 40
0.5789473684210527
 40
0.5789473684210527
 40
0.631578947368421
 40
0.631578947368421
 40
0.631578947368421
 40
0.631578947368421
 40
0.6842105263157894
 40
0.6842105263157894
 40
0.6842105263157894
 40
0.6842105263157894
 40
0.7368421052631577
 40
0.7368421052631577
 40
0.7368421052631577
 40
0.7368421052631577
 40
0.7894736842105261
 40
0.7894736842105261
 40
0.7894736842105261
 40
0.7894736842105261
 40
0.8421052631578945
 40
0.8421052631578945
 40
0.8421052631578945
 40
0.8421052631578945
 40
0.8947368421052628
 40
0.8947368421052628
 40
0.8947368421052628
 40
0.8947368421052628
 40
0.9473684210526312
 40
0.9473684210526312
 40
0.9473684210526312
 40
0.9473684210526312
 40
1.0
 40
1.0
 40
1.0
 40
1.0
 10
0.1961062992125984
 20
-0.3545590551181103
 30
0.0
 10
0.1961062992125984
 20
-0.3545590551181103
 30
0.0
 10
0.201496062992126
 20
-0.3545590551181103
 30
0.0
 10
0.201496062992126
 20
-0.3545590551181103
 30
0.0
 10
0.201496062992126
 20
-0.3545590551181103
 30
0.0
 10
0.201496062992126
 20
-0.3545590551181103
 30
0.0
 10
0.2024685039370079
 20
-0.3586968503937008
 30
0.0
 10
0.2024685039370079
 20
-0.3586968503937008
 30
0.0
 10
0.2024685039370079
 20
-0.3586968503937008
 30
0.0
 10
0.2024685039370079
 20
-0.3586968503937008
 30
0.0
 10
0.2735787401574804
 20
-0.3586968503937008
 30
0.0
 10
0.2735787401574804
 20
-0.3586968503937008
 30
0.0
 10
0.2735787401574804
 20
-0.3586968503937008
 30
0.0
 10
0.2735787401574804
 20
-0.3586968503937008
 30
0.0
 10
0.2735787401574804
 20
-0.3656141732283465
 30
0.0
 10
0.2735787401574804
 20
-0.3656141732283465
 30
0.0
 10
0.2735787401574804
 20
-0.3656141732283465
 30
0.0
 10
0.2650787401574803
 20
-0.3754488188976378
 30
0.0
 10
0.2573543307086614
 20
-0.3866141732283465
 30
0.0
 10
0.2504409448818898
 20
-0.3991968503937008
 30
0.0
 10
0.2504409448818898
 20
-0.3991968503937008
 30
0.0
 10
0.2435236220472441
 20
-0.411751968503937
 30
0.0
 10
0.2381614173228347
 20
-0.4245314960629921
 30
0.0
 10
0.2343543307086614
 20
-0.4375590551181103
 30
0.0
 10
0.2343543307086614
 20
-0.4375590551181103
 30
0.0
 10
0.2316062992125984
 20
-0.4469448818897638
 30
0.0
 10
0.2293582677165355
 20
-0.458503937007874
 30
0.0
 10
0.2276062992125984
 20
-0.4722244094488189
 30
0.0
 10
0.2276062992125984
 20
-0.4722244094488189
 30
0.0
 10
0.2276062992125984
 20
-0.4722244094488189
 30
0.0
 10
0.2109409448818898
 20
-0.4722244094488189
 30
0.0
 10
0.2109409448818898
 20
-0.4722244094488189
 30
0.0
 10
0.2109409448818898
 20
-0.4722244094488189
 30
0.0
 10
0.2125511811023622
 20
-0.4601141732283465
 30
0.0
 10
0.2152165354330709
 20
-0.4488070866141732
 30
0.0
 10
0.2189409448818898
 20
-0.4382795275590551
 30
0.0
 10
0.2189409448818898
 20
-0.4382795275590551
 30
0.0
 10
0.2226614173228347
 20
-0.427751968503937
 30
0.0
 10
0.2280236220472441
 20
-0.416751968503937
 30
0.0
 10
0.2350511811023622
 20
-0.4052795275590551
 30
0.0
 10
0.2350511811023622
 20
-0.4052795275590551
 30
0.0
 10
0.2420787401574803
 20
-0.3938070866141732
 30
0.0
 10
0.2506062992125984
 20
-0.3823622047244095
 30
0.0
 10
0.2606614173228347
 20
-0.3709212598425197
 30
0.0
 10
0.2606614173228347
 20
-0.3709212598425197
 30
0.0
 10
0.2606614173228347
 20
-0.3709212598425197
 30
0.0
 10
0.2099409448818898
 20
-0.3709212598425197
 30
0.0
 10
0.2099409448818898
 20
-0.3709212598425197
 30
0.0
 10
0.2099409448818898
 20
-0.3709212598425197
 30
0.0
 10
0.2062716535433071
 20
-0.3709212598425197
 30
0.0
 10
0.203744094488189
 20
-0.3710866141732284
 30
0.0
 10
0.2023858267716535
 20
-0.3714763779527559
 30
0.0
 10
0.2023858267716535
 20
-0.3714763779527559
 30
0.0
 10
0.2010236220472441
 20
-0.3718622047244095
 30
0.0
 10
0.1999685039370079
 20
-0.3724488188976378
 30
0.0
 10
0.1992165354330709
 20
-0.3732519685039371
 30
0.0
 10
0.1992165354330709
 20
-0.3732519685039371
 30
0.0
 10
0.1984409448818898
 20
-0.3740866141732284
 30
0.0
 10
0.1977992125984252
 20
-0.3755314960629921
 30
0.0
 10
0.197244094488189
 20
-0.3775866141732284
 30
0.0
 10
0.197244094488189
 20
-0.3775866141732284
 30
0.0
 10
0.197244094488189
 20
-0.3775866141732284
 30
0.0
 10
0.1968582677165355
 20
-0.3791141732283465
 30
0.0
 10
0.1968582677165355
 20
-0.3791141732283465
 30
0.0
 10
0.1968582677165355
 20
-0.3791141732283465
 30
0.0
 10
0.1968582677165355
 20
-0.3791141732283465
 30
0.0
 10
0.1940787401574803
 20
-0.3887244094488189
 30
0.0
 10
0.1940787401574803
 20
-0.3887244094488189
 30
0.0
 10
0.1940787401574803
 20
-0.3887244094488189
 30
0.0
 10
0.1940787401574803
 20
-0.3887244094488189
 30
0.0
 10
0.1871614173228346
 20
-0.387251968503937
 30
0.0
 10
0.1871614173228346
 20
-0.387251968503937
 30
0.0
 10
0.1871614173228346
 20
-0.387251968503937
 30
0.0
 10
0.1871614173228346
 20
-0.387251968503937
 30
0.0
 10
0.1961062992125984
 20
-0.3545590551181103
 30
0.0
 10
0.1961062992125984
 20
-0.3545590551181103
 30
0.0
  0
SPLINE
  5
81
330
1F
100
AcDbEntity
  8
Layer 1
 62
   250
100
AcDbSpline
210
0.0
220
0.0
230
1.0
 70
    11
 71
     3
 72
    72
 73
    68
 74
     0
 42
0.0000000001
 43
0.0000000001
 40
0.0
 40
0.0
 40
0.0
 40
0.0
 40
0.0588235294117647
 40
0.0588235294117647
 40
0.0588235294117647
 40
0.0588235294117647
 40
0.1176470588235294
 40
0.1176470588235294
 40
0.1176470588235294
 40
0.1176470588235294
 40
0.1764705882352941
 40
0.1764705882352941
 40
0.1764705882352941
 40
0.1764705882352941
 40
0.2352941176470588
 40
0.2352941176470588
 40
0.2352941176470588
 40
0.2352941176470588
 40
0.2941176470588235
 40
0.2941176470588235
 40
0.2941176470588235
 40
0.2941176470588235
 40
0.3529411764705883
 40
0.3529411764705883
 40
0.3529411764705883
 40
0.3529411764705883
 40
0.411764705882353
 40
0.411764705882353
 40
0.411764705882353
 40
0.411764705882353
 40
0.4705882352941177
 40
0.4705882352941177
 40
0.4705882352941177
 40
0.4705882352941177
 40
0.5294117647058824
 40
0.5294117647058824
 40
0.5294117647058824
 40
0.5294117647058824
 40
0.5882352941176471
 40
0.5882352941176471
 40
0.5882352941176471
 40
0.5882352941176471
 40
0.6470588235294118
 40
0.6470588235294118
 40
0.6470588235294118
 40
0.6470588235294118
 40
0.7058823529411765
 40
0.7058823529411765
 40
0.7058823529411765
 40
0.7058823529411765
 40
0.7647058823529412
 40
0.7647058823529412
 40
0.7647058823529412
 40
0.7647058823529412
 40
0.823529411764706
 40
0.823529411764706
 40
0.823529411764706
 40
0.823529411764706
 40
0.8823529411764707
 40
0.8823529411764707
 40
0.8823529411764707
 40
0.8823529411764707
 40
0.9411764705882354
 40
0.9411764705882354
 40
0.9411764705882354
 40
0.9411764705882354
 40
1.0
 40
1.0
 40
1.0
 40
1.0
 10
-0.3109055118110237
 20
-0.5461968503937008
 30
0.0
 10
-0.3109055118110237
 20
-0.5461968503937008
 30
0.0
 10
-0.3048228346456693
 20
-0.5461968503937008
 30
0.0
 10
-0.3048228346456693
 20
-0.5461968503937008
 30
0.0
 10
-0.3048228346456693
 20
-0.5461968503937008
 30
0.0
 10
-0.3048228346456693
 20
-0.5461968503937008
 30
0.0
 10
-0.3048228346456693
 20
-0.6404448818897638
 30
0.0
 10
-0.3048228346456693
 20
-0.6404448818897638
 30
0.0
 10
-0.3048228346456693
 20
-0.6404448818897638
 30
0.0
 10
-0.3048228346456693
 20
-0.6448897637795276
 30
0.0
 10
-0.3045157480314961
 20
-0.647751968503937
 30
0.0
 10
-0.3039606299212598
 20
-0.6490314960629922
 30
0.0
 10
-0.3039606299212598
 20
-0.6490314960629922
 30
0.0
 10
-0.3033779527559055
 20
-0.6503070866141733
 30
0.0
 10
-0.3024606299212598
 20
-0.6512519685039371
 30
0.0
 10
-0.3011574803149607
 20
-0.6519173228346457
 30
0.0
 10
-0.3011574803149607
 20
-0.6519173228346457
 30
0.0
 10
-0.2998503937007874
 20
-0.6525590551181103
 30
0.0
 10
-0.2972677165354331
 20
-0.6528897637795276
 30
0.0
 10
-0.2934055118110236
 20
-0.6528897637795276
 30
0.0
 10
-0.2934055118110236
 20
-0.6528897637795276
 30
0.0
 10
-0.2934055118110236
 20
-0.6528897637795276
 30
0.0
 10
-0.2854330708661417
 20
-0.6528897637795276
 30
0.0
 10
-0.2854330708661417
 20
-0.6528897637795276
 30
0.0
 10
-0.2854330708661417
 20
-0.6528897637795276
 30
0.0
 10
-0.2854330708661417
 20
-0.6528897637795276
 30
0.0
 10
-0.2854330708661417
 20
-0.6597244094488189
 30
0.0
 10
-0.2854330708661417
 20
-0.6597244094488189
 30
0.0
 10
-0.2854330708661417
 20
-0.6597244094488189
 30
0.0
 10
-0.2854330708661417
 20
-0.6597244094488189
 30
0.0
 10
-0.3390708661417323
 20
-0.6597244094488189
 30
0.0
 10
-0.3390708661417323
 20
-0.6597244094488189
 30
0.0
 10
-0.3390708661417323
 20
-0.6597244094488189
 30
0.0
 10
-0.3390708661417323
 20
-0.6597244094488189
 30
0.0
 10
-0.3390708661417323
 20
-0.6528897637795276
 30
0.0
 10
-0.3390708661417323
 20
-0.6528897637795276
 30
0.0
 10
-0.3390708661417323
 20
-0.6528897637795276
 30
0.0
 10
-0.3390708661417323
 20
-0.6528897637795276
 30
0.0
 10
-0.3302125984251969
 20
-0.6528897637795276
 30
0.0
 10
-0.3302125984251969
 20
-0.6528897637795276
 30
0.0
 10
-0.3302125984251969
 20
-0.6528897637795276
 30
0.0
 10
-0.3263503937007874
 20
-0.6528897637795276
 30
0.0
 10
-0.3237952755905512
 20
-0.6525590551181103
 30
0.0
 10
-0.3225157480314961
 20
-0.6518622047244095
 30
0.0
 10
-0.3225157480314961
 20
-0.6518622047244095
 30
0.0
 10
-0.321240157480315
 20
-0.6511968503937008
 30
0.0
 10
-0.320240157480315
 20
-0.6501141732283465
 30
0.0
 10
-0.3195433070866142
 20
-0.6486141732283465
 30
0.0
 10
-0.3195433070866142
 20
-0.6486141732283465
 30
0.0
 10
-0.3188503937007874
 20
-0.6471141732283465
 30
0.0
 10
-0.318488188976378
 20
-0.6443897637795276
 30
0.0
 10
-0.318488188976378
 20
-0.6404448818897638
 30
0.0
 10
-0.318488188976378
 20
-0.6404448818897638
 30
0.0
 10
-0.318488188976378
 20
-0.6404448818897638
 30
0.0
 10
-0.318488188976378
 20
-0.5629763779527559
 30
0.0
 10
-0.318488188976378
 20
-0.5629763779527559
 30
0.0
 10
-0.318488188976378
 20
-0.5629763779527559
 30
0.0
 10
-0.318488188976378
 20
-0.5629763779527559
 30
0.0
 10
-0.3390708661417323
 20
-0.5629763779527559
 30
0.0
 10
-0.3390708661417323
 20
-0.5629763779527559
 30
0.0
 10
-0.3390708661417323
 20
-0.5629763779527559
 30
0.0
 10
-0.3390708661417323
 20
-0.5629763779527559
 30
0.0
 10
-0.3390708661417323
 20
-0.5559763779527559
 30
0.0
 10
-0.3390708661417323
 20
-0.5559763779527559
 30
0.0
 10
-0.3390708661417323
 20
-0.5559763779527559
 30
0.0
 10
-0.3278503937007874
 20
-0.5543937007874016
 30
0.0
 10
-0.3184606299212598
 20
-0.5511417322834646
 30
0.0
 10
-0.3109055118110237
 20
-0.5461968503937008
 30
0.0
  0
SPLINE
  5
82
330
1F
100
AcDbEntity
  8
Layer 1
 62
   250
100
AcDbSpline
210
0.0
220
0.0
230
1.0
 70
    11
 71
     3
 72
    60
 73
    56
 74
     0
 42
0.0000000001
 43
0.0000000001
 40
0.0
 40
0.0
 40
0.0
 40
0.0
 40
0.0714285714285714
 40
0.0714285714285714
 40
0.0714285714285714
 40
0.0714285714285714
 40
0.1428571428571429
 40
0.1428571428571429
 40
0.1428571428571429
 40
0.1428571428571429
 40
0.2142857142857143
 40
0.2142857142857143
 40
0.2142857142857143
 40
0.2142857142857143
 40
0.2857142857142857
 40
0.2857142857142857
 40
0.2857142857142857
 40
0.2857142857142857
 40
0.3571428571428571
 40
0.3571428571428571
 40
0.3571428571428571
 40
0.3571428571428571
 40
0.4285714285714285
 40
0.4285714285714285
 40
0.4285714285714285
 40
0.4285714285714285
 40
0.4999999999999999
 40
0.4999999999999999
 40
0.4999999999999999
 40
0.4999999999999999
 40
0.5714285714285713
 40
0.5714285714285713
 40
0.5714285714285713
 40
0.5714285714285713
 40
0.6428571428571427
 40
0.6428571428571427
 40
0.6428571428571427
 40
0.6428571428571427
 40
0.7142857142857141
 40
0.7142857142857141
 40
0.7142857142857141
 40
0.7142857142857141
 40
0.7857142857142855
 40
0.7857142857142855
 40
0.7857142857142855
 40
0.7857142857142855
 40
0.8571428571428569
 40
0.8571428571428569
 40
0.8571428571428569
 40
0.8571428571428569
 40
0.9285714285714283
 40
0.9285714285714283
 40
0.9285714285714283
 40
0.9285714285714283
 40
1.0
 40
1.0
 40
1.0
 40
1.0
 10
-0.2534606299212598
 20
-0.5882795275590551
 30
0.0
 10
-0.2534606299212598
 20
-0.5882795275590551
 30
0.0
 10
-0.2578503937007874
 20
-0.5828897637795276
 30
0.0
 10
-0.2578503937007874
 20
-0.5828897637795276
 30
0.0
 10
-0.2578503937007874
 20
-0.5828897637795276
 30
0.0
 10
-0.246736220472441
 20
-0.5738346456692913
 30
0.0
 10
-0.2411535433070866
 20
-0.5662795275590551
 30
0.0
 10
-0.2411535433070866
 20
-0.5601968503937008
 30
0.0
 10
-0.2411535433070866
 20
-0.5601968503937008
 30
0.0
 10
-0.2411535433070866
 20
-0.559503937007874
 30
0.0
 10
-0.2412086614173228
 20
-0.5586141732283465
 30
0.0
 10
-0.2413228346456693
 20
-0.5575866141732284
 30
0.0
 10
-0.2413228346456693
 20
-0.5575866141732284
 30
0.0
 10
-0.242236220472441
 20
-0.5579763779527559
 30
0.0
 10
-0.2431535433070866
 20
-0.5582795275590552
 30
0.0
 10
-0.2440157480314961
 20
-0.558476377952756
 30
0.0
 10
-0.2440157480314961
 20
-0.558476377952756
 30
0.0
 10
-0.2448779527559055
 20
-0.5586968503937008
 30
0.0
 10
-0.2456811023622047
 20
-0.5588070866141732
 30
0.0
 10
-0.2464606299212599
 20
-0.5588070866141732
 30
0.0
 10
-0.2464606299212599
 20
-0.5588070866141732
 30
0.0
 10
-0.2490708661417323
 20
-0.5588070866141732
 30
0.0
 10
-0.2511535433070866
 20
-0.5579763779527559
 30
0.0
 10
-0.2527086614173228
 20
-0.5562795275590552
 30
0.0
 10
-0.2527086614173228
 20
-0.5562795275590552
 30
0.0
 10
-0.2542952755905512
 20
-0.5546141732283465
 30
0.0
 10
-0.2550708661417323
 20
-0.552476377952756
 30
0.0
 10
-0.2550708661417323
 20
-0.5498622047244095
 30
0.0
 10
-0.2550708661417323
 20
-0.5498622047244095
 30
0.0
 10
-0.2550708661417323
 20
-0.5473070866141733
 30
0.0
 10
-0.2541259842519685
 20
-0.5450866141732284
 30
0.0
 10
-0.2522362204724409
 20
-0.5431968503937008
 30
0.0
 10
-0.2522362204724409
 20
-0.5431968503937008
 30
0.0
 10
-0.2503228346456693
 20
-0.5412795275590552
 30
0.0
 10
-0.2480433070866142
 20
-0.5403346456692914
 30
0.0
 10
-0.2454055118110236
 20
-0.5403346456692914
 30
0.0
 10
-0.2454055118110236
 20
-0.5403346456692914
 30
0.0
 10
-0.2417086614173228
 20
-0.5403346456692914
 30
0.0
 10
-0.2385433070866142
 20
-0.5418070866141732
 30
0.0
 10
-0.2359055118110236
 20
-0.5447795275590551
 30
0.0
 10
-0.2359055118110236
 20
-0.5447795275590551
 30
0.0
 10
-0.2332952755905512
 20
-0.547724409448819
 30
0.0
 10
-0.2319606299212599
 20
-0.5515314960629921
 30
0.0
 10
-0.2319606299212599
 20
-0.5561968503937008
 30
0.0
 10
-0.2319606299212599
 20
-0.5561968503937008
 30
0.0
 10
-0.2319606299212599
 20
-0.559251968503937
 30
0.0
 10
-0.2325984251968504
 20
-0.5624488188976379
 30
0.0
 10
-0.2338503937007874
 20
-0.5657795275590551
 30
0.0
 10
-0.2338503937007874
 20
-0.5657795275590551
 30
0.0
 10
-0.2350984251968504
 20
-0.5691141732283465
 30
0.0
 10
-0.2369055118110236
 20
-0.5721968503937008
 30
0.0
 10
-0.2392952755905512
 20
-0.5750590551181103
 30
0.0
 10
-0.2392952755905512
 20
-0.5750590551181103
 30
0.0
 10
-0.2416811023622048
 20
-0.5778897637795276
 30
0.0
 10
-0.2464055118110236
 20
-0.5823070866141733
 30
0.0
 10
-0.2534606299212598
 20
-0.5882795275590551
 30
0.0
  0
SPLINE
  5
83
330
1F
100
AcDbEntity
  8
Layer 1
 62
   250
100
AcDbSpline
210
0.0
220
0.0
230
1.0
 70
    11
 71
     3
 72
    60
 73
    56
 74
     0
 42
0.0000000001
 43
0.0000000001
 40
0.0
 40
0.0
 40
0.0
 40
0.0
 40
0.0714285714285714
 40
0.0714285714285714
 40
0.0714285714285714
 40
0.0714285714285714
 40
0.1428571428571429
 40
0.1428571428571429
 40
0.1428571428571429
 40
0.1428571428571429
 40
0.2142857142857143
 40
0.2142857142857143
 40
0.2142857142857143
 40
0.2142857142857143
 40
0.2857142857142857
 40
0.2857142857142857
 40
0.2857142857142857
 40
0.2857142857142857
 40
0.3571428571428571
 40
0.3571428571428571
 40
0.3571428571428571
 40
0.3571428571428571
 40
0.4285714285714285
 40
0.4285714285714285
 40
0.4285714285714285
 40
0.4285714285714285
 40
0.4999999999999999
 40
0.4999999999999999
 40
0.4999999999999999
 40
0.4999999999999999
 40
0.5714285714285713
 40
0.5714285714285713
 40
0.5714285714285713
 40
0.5714285714285713
 40
0.6428571428571427
 40
0.6428571428571427
 40
0.6428571428571427
 40
0.6428571428571427
 40
0.7142857142857141
 40
0.7142857142857141
 40
0.7142857142857141
 40
0.7142857142857141
 40
0.7857142857142855
 40
0.7857142857142855
 40
0.7857142857142855
 40
0.7857142857142855
 40
0.8571428571428569
 40
0.8571428571428569
 40
0.8571428571428569
 40
0.8571428571428569
 40
0.9285714285714283
 40
0.9285714285714283
 40
0.9285714285714283
 40
0.9285714285714283
 40
1.0
 40
1.0
 40
1.0
 40
1.0
 10
-0.2244055118110236
 20
-0.5882795275590551
 30
0.0
 10
-0.2244055118110236
 20
-0.5882795275590551
 30
0.0
 10
-0.2287952755905512
 20
-0.5828897637795276
 30
0.0
 10
-0.2287952755905512
 20
-0.5828897637795276
 30
0.0
 10
-0.2287952755905512
 20
-0.5828897637795276
 30
0.0
 10
-0.2176811023622047
 20
-0.5738346456692913
 30
0.0
 10
-0.2120984251968504
 20
-0.5662795275590551
 30
0.0
 10
-0.2120984251968504
 20
-0.5601968503937008
 30
0.0
 10
-0.2120984251968504
 20
-0.5601968503937008
 30
0.0
 10
-0.2120984251968504
 20
-0.559503937007874
 30
0.0
 10
-0.2121535433070866
 20
-0.5586141732283465
 30
0.0
 10
-0.2122677165354331
 20
-0.5575866141732284
 30
0.0
 10
-0.2122677165354331
 20
-0.5575866141732284
 30
0.0
 10
-0.2131811023622047
 20
-0.5579763779527559
 30
0.0
 10
-0.2140984251968504
 20
-0.5582795275590552
 30
0.0
 10
-0.2149606299212599
 20
-0.558476377952756
 30
0.0
 10
-0.2149606299212599
 20
-0.558476377952756
 30
0.0
 10
-0.2158228346456693
 20
-0.5586968503937008
 30
0.0
 10
-0.2166535433070866
 20
-0.5588070866141732
 30
0.0
 10
-0.217488188976378
 20
-0.5588070866141732
 30
0.0
 10
-0.217488188976378
 20
-0.5588070866141732
 30
0.0
 10
-0.2200433070866142
 20
-0.5588070866141732
 30
0.0
 10
-0.2220984251968504
 20
-0.5579763779527559
 30
0.0
 10
-0.2236535433070866
 20
-0.5562795275590552
 30
0.0
 10
-0.2236535433070866
 20
-0.5562795275590552
 30
0.0
 10
-0.225236220472441
 20
-0.5546141732283465
 30
0.0
 10
-0.2260157480314961
 20
-0.552476377952756
 30
0.0
 10
-0.2260157480314961
 20
-0.5498622047244095
 30
0.0
 10
-0.2260157480314961
 20
-0.5498622047244095
 30
0.0
 10
-0.2260157480314961
 20
-0.5473070866141733
 30
0.0
 10
-0.2250708661417323
 20
-0.5450866141732284
 30
0.0
 10
-0.2231811023622047
 20
-0.5431968503937008
 30
0.0
 10
-0.2231811023622047
 20
-0.5431968503937008
 30
0.0
 10
-0.2212952755905512
 20
-0.5412795275590552
 30
0.0
 10
-0.218988188976378
 20
-0.5403346456692914
 30
0.0
 10
-0.2163503937007874
 20
-0.5403346456692914
 30
0.0
 10
-0.2163503937007874
 20
-0.5403346456692914
 30
0.0
 10
-0.2126535433070866
 20
-0.5403346456692914
 30
0.0
 10
-0.209488188976378
 20
-0.5418070866141732
 30
0.0
 10
-0.2068503937007874
 20
-0.5447795275590551
 30
0.0
 10
-0.2068503937007874
 20
-0.5447795275590551
 30
0.0
 10
-0.204240157480315
 20
-0.547724409448819
 30
0.0
 10
-0.2029055118110236
 20
-0.5515314960629921
 30
0.0
 10
-0.2029055118110236
 20
-0.5561968503937008
 30
0.0
 10
-0.2029055118110236
 20
-0.5561968503937008
 30
0.0
 10
-0.2029055118110236
 20
-0.559251968503937
 30
0.0
 10
-0.2035433070866142
 20
-0.5624488188976379
 30
0.0
 10
-0.2047952755905512
 20
-0.5657795275590551
 30
0.0
 10
-0.2047952755905512
 20
-0.5657795275590551
 30
0.0
 10
-0.2060433070866142
 20
-0.5691141732283465
 30
0.0
 10
-0.2078503937007874
 20
-0.5721968503937008
 30
0.0
 10
-0.210236220472441
 20
-0.5750590551181103
 30
0.0
 10
-0.210236220472441
 20
-0.5750590551181103
 30
0.0
 10
-0.2126259842519685
 20
-0.5778897637795276
 30
0.0
 10
-0.2173503937007874
 20
-0.5823070866141733
 30
0.0
 10
-0.2244055118110236
 20
-0.5882795275590551
 30
0.0
  0
SPLINE
  5
84
330
1F
100
AcDbEntity
  8
Layer 1
 62
   250
100
AcDbSpline
210
0.0
220
0.0
230
1.0
 70
    11
 71
     3
 72
   204
 73
   200
 74
     0
 42
0.0000000001
 43
0.0000000001
 40
0.0
 40
0.0
 40
0.0
 40
0.0
 40
0.02
 40
0.02
 40
0.02
 40
0.02
 40
0.04
 40
0.04
 40
0.04
 40
0.04
 40
0.06
 40
0.06
 40
0.06
 40
0.06
 40
0.08
 40
0.08
 40
0.08
 40
0.08
 40
0.1
 40
0.1
 40
0.1
 40
0.1
 40
0.12
 40
0.12
 40
0.12
 40
0.12
 40
0.14
 40
0.14
 40
0.14
 40
0.14
 40
0.16
 40
0.16
 40
0.16
 40
0.16
 40
0.18
 40
0.18
 40
0.18
 40
0.18
 40
0.2
 40
0.2
 40
0.2
 40
0.2
 40
0.22
 40
0.22
 40
0.22
 40
0.22
 40
0.24
 40
0.24
 40
0.24
 40
0.24
 40
0.26
 40
0.26
 40
0.26
 40
0.26
 40
0.28
 40
0.28
 40
0.28
 40
0.28
 40
0.3
 40
0.3
 40
0.3
 40
0.3
 40
0.32
 40
0.32
 40
0.32
 40
0.32
 40
0.34
 40
0.34
 40
0.34
 40
0.34
 40
0.36
 40
0.36
 40
0.36
 40
0.36
 40
0.3800000000000001
 40
0.3800000000000001
 40
0.3800000000000001
 40
0.3800000000000001
 40
0.4000000000000001
 40
0.4000000000000001
 40
0.4000000000000001
 40
0.4000000000000001
 40
0.4200000000000001
 40
0.4200000000000001
 40
0.4200000000000001
 40
0.4200000000000001
 40
0.4400000000000001
 40
0.4400000000000001
 40
0.4400000000000001
 40
0.4400000000000001
 40
0.4600000000000001
 40
0.4600000000000001
 40
0.4600000000000001
 40
0.4600000000000001
 40
0.4800000000000002
 40
0.4800000000000002
 40
0.4800000000000002
 40
0.4800000000000002
 40
0.5000000000000001
 40
0.5000000000000001
 40
0.5000000000000001
 40
0.5000000000000001
 40
0.5200000000000001
 40
0.5200000000000001
 40
0.5200000000000001
 40
0.5200000000000001
 40
0.5400000000000002
 40
0.5400000000000002
 40
0.5400000000000002
 40
0.5400000000000002
 40
0.5600000000000002
 40
0.5600000000000002
 40
0.5600000000000002
 40
0.5600000000000002
 40
0.5800000000000002
 40
0.5800000000000002
 40
0.5800000000000002
 40
0.5800000000000002
 40
0.6000000000000002
 40
0.6000000000000002
 40
0.6000000000000002
 40
0.6000000000000002
 40
0.6200000000000002
 40
0.6200000000000002
 40
0.6200000000000002
 40
0.6200000000000002
 40
0.6400000000000002
 40
0.6400000000000002
 40
0.6400000000000002
 40
0.6400000000000002
 40
0.6600000000000003
 40
0.6600000000000003
 40
0.6600000000000003
 40
0.6600000000000003
 40
0.6800000000000003
 40
0.6800000000000003
 40
0.6800000000000003
 40
0.6800000000000003
 40
0.7000000000000003
 40
0.7000000000000003
 40
0.7000000000000003
 40
0.7000000000000003
 40
0.7200000000000003
 40
0.7200000000000003
 40
0.7200000000000003
 40
0.7200000000000003
 40
0.7400000000000003
 40
0.7400000000000003
 40
0.7400000000000003
 40
0.7400000000000003
 40
0.7600000000000003
 40
0.7600000000000003
 40
0.7600000000000003
 40
0.7600000000000003
 40
0.7800000000000004
 40
0.7800000000000004
 40
0.7800000000000004
 40
0.7800000000000004
 40
0.8000000000000004
 40
0.8000000000000004
 40
0.8000000000000004
 40
0.8000000000000004
 40
0.8200000000000004
 40
0.8200000000000004
 40
0.8200000000000004
 40
0.8200000000000004
 40
0.8400000000000004
 40
0.8400000000000004
 40
0.8400000000000004
 40
0.8400000000000004
 40
0.8600000000000004
 40
0.8600000000000004
 40
0.8600000000000004
 40
0.8600000000000004
 40
0.8800000000000005
 40
0.8800000000000005
 40
0.8800000000000005
 40
0.8800000000000005
 40
0.9000000000000005
 40
0.9000000000000005
 40
0.9000000000000005
 40
0.9000000000000005
 40
0.9200000000000005
 40
0.9200000000000005
 40
0.9200000000000005
 40
0.9200000000000005
 40
0.9400000000000005
 40
0.9400000000000005
 40
0.9400000000000005
 40
0.9400000000000005
 40
0.9600000000000005
 40
0.9600000000000005
 40
0.9600000000000005
 40
0.9600000000000005
 40
0.9800000000000005
 40
0.9800000000000005
 40
0.9800000000000005
 40
0.9800000000000005
 40
1.0
 40
1.0
 40
1.0
 40
1.0
 10
-0.1405984251968504
 20
-0.5811968503937008
 30
0.0
 10
-0.1405984251968504
 20
-0.5811968503937008
 30
0.0
 10
-0.0996535433070866
 20
-0.5811968503937008
 30
0.0
 10
-0.0996535433070866
 20
-0.5811968503937008
 30
0.0
 10
-0.0996535433070866
 20
-0.5811968503937008
 30
0.0
 10
-0.0996535433070866
 20
-0.5811968503937008
 30
0.0
 10
-0.0996535433070866
 20
-0.5880314960629921
 30
0.0
 10
-0.0996535433070866
 20
-0.5880314960629921
 30
0.0
 10
-0.0996535433070866
 20
-0.5880314960629921
 30
0.0
 10
-0.0996535433070866
 20
-0.5880314960629921
 30
0.0
 10
-0.102488188976378
 20
-0.5880314960629921
 30
0.0
 10
-0.102488188976378
 20
-0.5880314960629921
 30
0.0
 10
-0.102488188976378
 20
-0.5880314960629921
 30
0.0
 10
-0.1041259842519685
 20
-0.5880314960629921
 30
0.0
 10
-0.1056259842519685
 20
-0.5882244094488189
 30
0.0
 10
-0.106988188976378
 20
-0.5885866141732283
 30
0.0
 10
-0.106988188976378
 20
-0.5885866141732283
 30
0.0
 10
-0.1077913385826772
 20
-0.5888070866141733
 30
0.0
 10
-0.1084606299212599
 20
-0.5892244094488189
 30
0.0
 10
-0.1089606299212599
 20
-0.5898622047244094
 30
0.0
 10
-0.1089606299212599
 20
-0.5898622047244094
 30
0.0
 10
-0.109488188976378
 20
-0.590476377952756
 30
0.0
 10
-0.1097362204724409
 20
-0.5910590551181103
 30
0.0
 10
-0.1097362204724409
 20
-0.5916141732283465
 30
0.0
 10
-0.1097362204724409
 20
-0.5916141732283465
 30
0.0
 10
-0.1097362204724409
 20
-0.5928622047244094
 30
0.0
 10
-0.1087086614173228
 20
-0.5947244094488189
 30
0.0
 10
-0.1066535433070866
 20
-0.5972244094488189
 30
0.0
 10
-0.1066535433070866
 20
-0.5972244094488189
 30
0.0
 10
-0.1066535433070866
 20
-0.5972244094488189
 30
0.0
 10
-0.0950157480314961
 20
-0.6118622047244094
 30
0.0
 10
-0.0950157480314961
 20
-0.6118622047244094
 30
0.0
 10
-0.0950157480314961
 20
-0.6118622047244094
 30
0.0
 10
-0.0950157480314961
 20
-0.6118622047244094
 30
0.0
 10
-0.0814330708661417
 20
-0.5972244094488189
 30
0.0
 10
-0.0814330708661417
 20
-0.5972244094488189
 30
0.0
 10
-0.0814330708661417
 20
-0.5972244094488189
 30
0.0
 10
-0.0789330708661417
 20
-0.5945039370078741
 30
0.0
 10
-0.0776811023622047
 20
-0.5924763779527559
 30
0.0
 10
-0.0776811023622047
 20
-0.5911141732283465
 30
0.0
 10
-0.0776811023622047
 20
-0.5911141732283465
 30
0.0
 10
-0.0776811023622047
 20
-0.5901417322834646
 30
0.0
 10
-0.0781259842519685
 20
-0.5893897637795276
 30
0.0
 10
-0.078988188976378
 20
-0.5888346456692913
 30
0.0
 10
-0.078988188976378
 20
-0.5888346456692913
 30
0.0
 10
-0.0798503937007874
 20
-0.5883070866141733
 30
0.0
 10
-0.0817086614173228
 20
-0.5880314960629921
 30
0.0
 10
-0.0845984251968504
 20
-0.5880314960629921
 30
0.0
 10
-0.0845984251968504
 20
-0.5880314960629921
 30
0.0
 10
-0.0845984251968504
 20
-0.5880314960629921
 30
0.0
 10
-0.0876811023622047
 20
-0.5880314960629921
 30
0.0
 10
-0.0876811023622047
 20
-0.5880314960629921
 30
0.0
 10
-0.0876811023622047
 20
-0.5880314960629921
 30
0.0
 10
-0.0876811023622047
 20
-0.5880314960629921
 30
0.0
 10
-0.0876811023622047
 20
-0.5811968503937008
 30
0.0
 10
-0.0876811023622047
 20
-0.5811968503937008
 30
0.0
 10
-0.0876811023622047
 20
-0.5811968503937008
 30
0.0
 10
-0.0876811023622047
 20
-0.5811968503937008
 30
0.0
 10
-0.0529330708661417
 20
-0.5811968503937008
 30
0.0
 10
-0.0529330708661417
 20
-0.5811968503937008
 30
0.0
 10
-0.0529330708661417
 20
-0.5811968503937008
 30
0.0
 10
-0.0529330708661417
 20
-0.5811968503937008
 30
0.0
 10
-0.0529330708661417
 20
-0.5880314960629921
 30
0.0
 10
-0.0529330708661417
 20
-0.5880314960629921
 30
0.0
 10
-0.0529330708661417
 20
-0.5880314960629921
 30
0.0
 10
-0.0563503937007874
 20
-0.5881968503937008
 30
0.0
 10
-0.0592952755905512
 20
-0.5888897637795276
 30
0.0
 10
-0.0617637795275591
 20
-0.5901417322834646
 30
0.0
 10
-0.0617637795275591
 20
-0.5901417322834646
 30
0.0
 10
-0.0642362204724409
 20
-0.5913897637795276
 30
0.0
 10
-0.0671535433070866
 20
-0.5937519685039371
 30
0.0
 10
-0.0705157480314961
 20
-0.5972244094488189
 30
0.0
 10
-0.0705157480314961
 20
-0.5972244094488189
 30
0.0
 10
-0.0705157480314961
 20
-0.5972244094488189
 30
0.0
 10
-0.0891535433070866
 20
-0.6165866141732284
 30
0.0
 10
-0.0891535433070866
 20
-0.6165866141732284
 30
0.0
 10
-0.0891535433070866
 20
-0.6165866141732284
 30
0.0
 10
-0.0891535433070866
 20
-0.6165866141732284
 30
0.0
 10
-0.0659606299212598
 20
-0.6430314960629922
 30
0.0
 10
-0.0659606299212598
 20
-0.6430314960629922
 30
0.0
 10
-0.0659606299212598
 20
-0.6430314960629922
 30
0.0
 10
-0.0659606299212598
 20
-0.6430314960629922
 30
0.0
 10
-0.0650708661417323
 20
-0.6441692913385827
 30
0.0
 10
-0.0650708661417323
 20
-0.6441692913385827
 30
0.0
 10
-0.0650708661417323
 20
-0.6441692913385827
 30
0.0
 10
-0.0627952755905512
 20
-0.6471141732283465
 30
0.0
 10
-0.0602362204724409
 20
-0.6494763779527559
 30
0.0
 10
-0.0574055118110236
 20
-0.6512519685039371
 30
0.0
 10
-0.0574055118110236
 20
-0.6512519685039371
 30
0.0
 10
-0.0558503937007874
 20
-0.6522795275590552
 30
0.0
 10
-0.0534055118110236
 20
-0.6528346456692914
 30
0.0
 10
-0.0500984251968504
 20
-0.6528897637795276
 30
0.0
 10
-0.0500984251968504
 20
-0.6528897637795276
 30
0.0
 10
-0.0500984251968504
 20
-0.6528897637795276
 30
0.0
 10
-0.0500984251968504
 20
-0.6597244094488189
 30
0.0
 10
-0.0500984251968504
 20
-0.6597244094488189
 30
0.0
 10
-0.0500984251968504
 20
-0.6597244094488189
 30
0.0
 10
-0.0500984251968504
 20
-0.6597244094488189
 30
0.0
 10
-0.0900433070866142
 20
-0.6597244094488189
 30
0.0
 10
-0.0900433070866142
 20
-0.6597244094488189
 30
0.0
 10
-0.0900433070866142
 20
-0.6597244094488189
 30
0.0
 10
-0.0900433070866142
 20
-0.6597244094488189
 30
0.0
 10
-0.0900433070866142
 20
-0.6528897637795276
 30
0.0
 10
-0.0900433070866142
 20
-0.6528897637795276
 30
0.0
 10
-0.0900433070866142
 20
-0.6528897637795276
 30
0.0
 10
-0.0900433070866142
 20
-0.6528897637795276
 30
0.0
 10
-0.0866259842519685
 20
-0.6528897637795276
 30
0.0
 10
-0.0866259842519685
 20
-0.6528897637795276
 30
0.0
 10
-0.0866259842519685
 20
-0.6528897637795276
 30
0.0
 10
-0.0840157480314961
 20
-0.6528897637795276
 30
0.0
 10
-0.0823779527559055
 20
-0.6527244094488189
 30
0.0
 10
-0.0816535433070866
 20
-0.6523897637795276
 30
0.0
 10
-0.0816535433070866
 20
-0.6523897637795276
 30
0.0
 10
-0.080488188976378
 20
-0.6518622047244095
 30
0.0
 10
-0.0798779527559055
 20
-0.6509448818897639
 30
0.0
 10
-0.0798779527559055
 20
-0.6496417322834646
 30
0.0
 10
-0.0798779527559055
 20
-0.6496417322834646
 30
0.0
 10
-0.0798779527559055
 20
-0.6484448818897638
 30
0.0
 10
-0.0811811023622047
 20
-0.6462519685039371
 30
0.0
 10
-0.0837952755905512
 20
-0.6430314960629922
 30
0.0
 10
-0.0837952755905512
 20
-0.6430314960629922
 30
0.0
 10
-0.0837952755905512
 20
-0.6430314960629922
 30
0.0
 10
-0.0985984251968504
 20
-0.6248897637795275
 30
0.0
 10
-0.0985984251968504
 20
-0.6248897637795275
 30
0.0
 10
-0.0985984251968504
 20
-0.6248897637795275
 30
0.0
 10
-0.0985984251968504
 20
-0.6248897637795275
 30
0.0
 10
-0.1151259842519685
 20
-0.6430314960629922
 30
0.0
 10
-0.1151259842519685
 20
-0.6430314960629922
 30
0.0
 10
-0.1151259842519685
 20
-0.6430314960629922
 30
0.0
 10
-0.1151259842519685
 20
-0.6430314960629922
 30
0.0
 10
-0.116736220472441
 20
-0.6450039370078741
 30
0.0
 10
-0.116736220472441
 20
-0.6450039370078741
 30
0.0
 10
-0.116736220472441
 20
-0.6450039370078741
 30
0.0
 10
-0.116736220472441
 20
-0.6450039370078741
 30
0.0
 10
-0.1176259842519685
 20
-0.645976377952756
 30
0.0
 10
-0.1176259842519685
 20
-0.645976377952756
 30
0.0
 10
-0.1176259842519685
 20
-0.645976377952756
 30
0.0
 10
-0.118988188976378
 20
-0.6474448818897638
 30
0.0
 10
-0.1196811023622047
 20
-0.6487244094488189
 30
0.0
 10
-0.1196811023622047
 20
-0.6498622047244095
 30
0.0
 10
-0.1196811023622047
 20
-0.6498622047244095
 30
0.0
 10
-0.1196811023622047
 20
-0.6509173228346457
 30
0.0
 10
-0.1192637795275591
 20
-0.6516692913385828
 30
0.0
 10
-0.1184055118110236
 20
-0.6521692913385827
 30
0.0
 10
-0.1184055118110236
 20
-0.6521692913385827
 30
0.0
 10
-0.1175708661417323
 20
-0.6526417322834646
 30
0.0
 10
-0.1156811023622047
 20
-0.6528897637795276
 30
0.0
 10
-0.1127637795275591
 20
-0.6528897637795276
 30
0.0
 10
-0.1127637795275591
 20
-0.6528897637795276
 30
0.0
 10
-0.1127637795275591
 20
-0.6528897637795276
 30
0.0
 10
-0.109488188976378
 20
-0.6528897637795276
 30
0.0
 10
-0.109488188976378
 20
-0.6528897637795276
 30
0.0
 10
-0.109488188976378
 20
-0.6528897637795276
 30
0.0
 10
-0.109488188976378
 20
-0.6528897637795276
 30
0.0
 10
-0.109488188976378
 20
-0.6597244094488189
 30
0.0
 10
-0.109488188976378
 20
-0.6597244094488189
 30
0.0
 10
-0.109488188976378
 20
-0.6597244094488189
 30
0.0
 10
-0.109488188976378
 20
-0.6597244094488189
 30
0.0
 10
-0.1437637795275591
 20
-0.6597244094488189
 30
0.0
 10
-0.1437637795275591
 20
-0.6597244094488189
 30
0.0
 10
-0.1437637795275591
 20
-0.6597244094488189
 30
0.0
 10
-0.1437637795275591
 20
-0.6597244094488189
 30
0.0
 10
-0.1437637795275591
 20
-0.6528897637795276
 30
0.0
 10
-0.1437637795275591
 20
-0.6528897637795276
 30
0.0
 10
-0.1437637795275591
 20
-0.6528897637795276
 30
0.0
 10
-0.1410984251968504
 20
-0.6528346456692914
 30
0.0
 10
-0.1390157480314961
 20
-0.6525590551181103
 30
0.0
 10
-0.137488188976378
 20
-0.6520314960629922
 30
0.0
 10
-0.137488188976378
 20
-0.6520314960629922
 30
0.0
 10
-0.135988188976378
 20
-0.6515314960629921
 30
0.0
 10
-0.1345157480314961
 20
-0.6507244094488189
 30
0.0
 10
-0.1330984251968504
 20
-0.6496417322834646
 30
0.0
 10
-0.1330984251968504
 20
-0.6496417322834646
 30
0.0
 10
-0.1306535433070866
 20
-0.6476692913385828
 30
0.0
 10
-0.1289055118110236
 20
-0.6461417322834646
 30
0.0
 10
-0.1278188976377953
 20
-0.6450039370078741
 30
0.0
 10
-0.1278188976377953
 20
-0.6450039370078741
 30
0.0
 10
-0.1278188976377953
 20
-0.6450039370078741
 30
0.0
 10
-0.1039606299212599
 20
-0.620503937007874
 30
0.0
 10
-0.1039606299212599
 20
-0.620503937007874
 30
0.0
 10
-0.1039606299212599
 20
-0.620503937007874
 30
0.0
 10
-0.1039606299212599
 20
-0.620503937007874
 30
0.0
 10
-0.124236220472441
 20
-0.5972244094488189
 30
0.0
 10
-0.124236220472441
 20
-0.5972244094488189
 30
0.0
 10
-0.124236220472441
 20
-0.5972244094488189
 30
0.0
 10
-0.1267913385826772
 20
-0.5943346456692914
 30
0.0
 10
-0.1287913385826772
 20
-0.5923346456692914
 30
0.0
 10
-0.1302913385826772
 20
-0.5911692913385827
 30
0.0
 10
-0.1302913385826772
 20
-0.5911692913385827
 30
0.0
 10
-0.1317913385826772
 20
-0.590003937007874
 30
0.0
 10
-0.133236220472441
 20
-0.5891692913385827
 30
0.0
 10
-0.1346535433070866
 20
-0.5887244094488189
 30
0.0
 10
-0.1346535433070866
 20
-0.5887244094488189
 30
0.0
 10
-0.1360708661417323
 20
-0.588251968503937
 30
0.0
 10
-0.1380433070866142
 20
-0.5880314960629921
 30
0.0
 10
-0.1405984251968504
 20
-0.5880314960629921
 30
0.0
 10
-0.1405984251968504
 20
-0.5880314960629921
 30
0.0
 10
-0.1405984251968504
 20
-0.5880314960629921
 30
0.0
 10
-0.1405984251968504
 20
-0.5811968503937008
 30
0.0
 10
-0.1405984251968504
 20
-0.5811968503937008
 30
0.0
  0
SPLINE
  5
85
330
1F
100
AcDbEntity
  8
Layer 1
 62
   250
100
AcDbSpline
210
0.0
220
0.0
230
1.0
 70
    11
 71
     3
 72
   172
 73
   168
 74
     0
 42
0.0000000001
 43
0.0000000001
 40
0.0
 40
0.0
 40
0.0
 40
0.0
 40
0.0238095238095238
 40
0.0238095238095238
 40
0.0238095238095238
 40
0.0238095238095238
 40
0.0476190476190476
 40
0.0476190476190476
 40
0.0476190476190476
 40
0.0476190476190476
 40
0.0714285714285714
 40
0.0714285714285714
 40
0.0714285714285714
 40
0.0714285714285714
 40
0.0952380952380952
 40
0.0952380952380952
 40
0.0952380952380952
 40
0.0952380952380952
 40
0.119047619047619
 40
0.119047619047619
 40
0.119047619047619
 40
0.119047619047619
 40
0.1428571428571429
 40
0.1428571428571429
 40
0.1428571428571429
 40
0.1428571428571429
 40
0.1666666666666667
 40
0.1666666666666667
 40
0.1666666666666667
 40
0.1666666666666667
 40
0.1904761904761905
 40
0.1904761904761905
 40
0.1904761904761905
 40
0.1904761904761905
 40
0.2142857142857143
 40
0.2142857142857143
 40
0.2142857142857143
 40
0.2142857142857143
 40
0.2380952380952381
 40
0.2380952380952381
 40
0.2380952380952381
 40
0.2380952380952381
 40
0.2619047619047619
 40
0.2619047619047619
 40
0.2619047619047619
 40
0.2619047619047619
 40
0.2857142857142857
 40
0.2857142857142857
 40
0.2857142857142857
 40
0.2857142857142857
 40
0.3095238095238095
 40
0.3095238095238095
 40
0.3095238095238095
 40
0.3095238095238095
 40
0.3333333333333334
 40
0.3333333333333334
 40
0.3333333333333334
 40
0.3333333333333334
 40
0.3571428571428572
 40
0.3571428571428572
 40
0.3571428571428572
 40
0.3571428571428572
 40
0.380952380952381
 40
0.380952380952381
 40
0.380952380952381
 40
0.380952380952381
 40
0.4047619047619049
 40
0.4047619047619049
 40
0.4047619047619049
 40
0.4047619047619049
 40
0.4285714285714287
 40
0.4285714285714287
 40
0.4285714285714287
 40
0.4285714285714287
 40
0.4523809523809526
 40
0.4523809523809526
 40
0.4523809523809526
 40
0.4523809523809526
 40
0.4761904761904764
 40
0.4761904761904764
 40
0.4761904761904764
 40
0.4761904761904764
 40
0.5000000000000002
 40
0.5000000000000002
 40
0.5000000000000002
 40
0.5000000000000002
 40
0.5238095238095241
 40
0.5238095238095241
 40
0.5238095238095241
 40
0.5238095238095241
 40
0.5476190476190479
 40
0.5476190476190479
 40
0.5476190476190479
 40
0.5476190476190479
 40
0.5714285714285717
 40
0.5714285714285717
 40
0.5714285714285717
 40
0.5714285714285717
 40
0.5952380952380956
 40
0.5952380952380956
 40
0.5952380952380956
 40
0.5952380952380956
 40
0.6190476190476194
 40
0.6190476190476194
 40
0.6190476190476194
 40
0.6190476190476194
 40
0.6428571428571432
 40
0.6428571428571432
 40
0.6428571428571432
 40
0.6428571428571432
 40
0.6666666666666671
 40
0.6666666666666671
 40
0.6666666666666671
 40
0.6666666666666671
 40
0.6904761904761909
 40
0.6904761904761909
 40
0.6904761904761909
 40
0.6904761904761909
 40
0.7142857142857148
 40
0.7142857142857148
 40
0.7142857142857148
 40
0.7142857142857148
 40
0.7380952380952386
 40
0.7380952380952386
 40
0.7380952380952386
 40
0.7380952380952386
 40
0.7619047619047624
 40
0.7619047619047624
 40
0.7619047619047624
 40
0.7619047619047624
 40
0.7857142857142863
 40
0.7857142857142863
 40
0.7857142857142863
 40
0.7857142857142863
 40
0.8095238095238101
 40
0.8095238095238101
 40
0.8095238095238101
 40
0.8095238095238101
 40
0.8333333333333339
 40
0.8333333333333339
 40
0.8333333333333339
 40
0.8333333333333339
 40
0.8571428571428578
 40
0.8571428571428578
 40
0.8571428571428578
 40
0.8571428571428578
 40
0.8809523809523816
 40
0.8809523809523816
 40
0.8809523809523816
 40
0.8809523809523816
 40
0.9047619047619054
 40
0.9047619047619054
 40
0.9047619047619054
 40
0.9047619047619054
 40
0.9285714285714293
 40
0.9285714285714293
 40
0.9285714285714293
 40
0.9285714285714293
 40
0.9523809523809531
 40
0.9523809523809531
 40
0.9523809523809531
 40
0.9523809523809531
 40
0.9761904761904769
 40
0.9761904761904769
 40
0.9761904761904769
 40
0.9761904761904769
 40
1.0
 40
1.0
 40
1.0
 40
1.0
 10
0.0250944881889764
 20
-0.5765590551181102
 30
0.0
 10
0.0250944881889764
 20
-0.5765590551181102
 30
0.0
 10
0.0172874015748032
 20
-0.5753346456692914
 30
0.0
 10
0.0172874015748032
 20
-0.5753346456692914
 30
0.0
 10
0.0172874015748032
 20
-0.5753346456692914
 30
0.0
 10
0.0179842519685039
 20
-0.569476377952756
 30
0.0
 10
0.019511811023622
 20
-0.5646141732283465
 30
0.0
 10
0.0218464566929134
 20
-0.5607519685039371
 30
0.0
 10
0.0218464566929134
 20
-0.5607519685039371
 30
0.0
 10
0.0249291338582677
 20
-0.5555590551181102
 30
0.0
 10
0.0292874015748032
 20
-0.551503937007874
 30
0.0
 10
0.0349291338582677
 20
-0.5486141732283465
 30
0.0
 10
0.0349291338582677
 20
-0.5486141732283465
 30
0.0
 10
0.0405944881889764
 20
-0.5456968503937009
 30
0.0
 10
0.0470669291338583
 20
-0.544251968503937
 30
0.0
 10
0.0544015748031496
 20
-0.544251968503937
 30
0.0
 10
0.0544015748031496
 20
-0.544251968503937
 30
0.0
 10
0.0615944881889764
 20
-0.544251968503937
 30
0.0
 10
0.0679566929133858
 20
-0.5455314960629921
 30
0.0
 10
0.0734291338582677
 20
-0.5481141732283464
 30
0.0
 10
0.0734291338582677
 20
-0.5481141732283464
 30
0.0
 10
0.0789015748031496
 20
-0.5506968503937008
 30
0.0
 10
0.0830393700787402
 20
-0.5541141732283464
 30
0.0
 10
0.0858425196850394
 20
-0.5583622047244095
 30
0.0
 10
0.0858425196850394
 20
-0.5583622047244095
 30
0.0
 10
0.0886496062992126
 20
-0.5626141732283465
 30
0.0
 10
0.0900393700787402
 20
-0.5672244094488189
 30
0.0
 10
0.0900393700787402
 20
-0.5721692913385827
 30
0.0
 10
0.0900393700787402
 20
-0.5721692913385827
 30
0.0
 10
0.0900393700787402
 20
-0.5765039370078741
 30
0.0
 10
0.0889842519685039
 20
-0.5803897637795276
 30
0.0
 10
0.0868700787401575
 20
-0.5838070866141732
 30
0.0
 10
0.0868700787401575
 20
-0.5838070866141732
 30
0.0
 10
0.0847322834645669
 20
-0.5872244094488189
 30
0.0
 10
0.0815944881889764
 20
-0.5902795275590551
 30
0.0
 10
0.0774291338582677
 20
-0.593003937007874
 30
0.0
 10
0.0774291338582677
 20
-0.593003937007874
 30
0.0
 10
0.0744842519685039
 20
-0.5948897637795276
 30
0.0
 10
0.0706771653543307
 20
-0.5965590551181103
 30
0.0
 10
0.0659566929133858
 20
-0.5979488188976379
 30
0.0
 10
0.0659566929133858
 20
-0.5979488188976379
 30
0.0
 10
0.0709842519685039
 20
-0.5986692913385827
 30
0.0
 10
0.0751220472440945
 20
-0.5998346456692913
 30
0.0
 10
0.0783149606299213
 20
-0.6014488188976378
 30
0.0
 10
0.0783149606299213
 20
-0.6014488188976378
 30
0.0
 10
0.0835118110236221
 20
-0.6041141732283465
 30
0.0
 10
0.0876220472440945
 20
-0.6077795275590552
 30
0.0
 10
0.0905944881889764
 20
-0.6124488188976378
 30
0.0
 10
0.0905944881889764
 20
-0.6124488188976378
 30
0.0
 10
0.0935944881889764
 20
-0.6171141732283465
 30
0.0
 10
0.0950669291338583
 20
-0.622224409448819
 30
0.0
 10
0.0950669291338583
 20
-0.6278346456692914
 30
0.0
 10
0.0950669291338583
 20
-0.6278346456692914
 30
0.0
 10
0.0950669291338583
 20
-0.6367795275590551
 30
0.0
 10
0.0911496062992126
 20
-0.6446692913385828
 30
0.0
 10
0.0832874015748031
 20
-0.6514763779527559
 30
0.0
 10
0.0832874015748031
 20
-0.6514763779527559
 30
0.0
 10
0.0754015748031496
 20
-0.6582795275590552
 30
0.0
 10
0.0652322834645669
 20
-0.6616692913385827
 30
0.0
 10
0.052759842519685
 20
-0.6616692913385827
 30
0.0
 10
0.052759842519685
 20
-0.6616692913385827
 30
0.0
 10
0.0404566929133858
 20
-0.6616692913385827
 30
0.0
 10
0.0300944881889764
 20
-0.6583897637795276
 30
0.0
 10
0.0216771653543307
 20
-0.6518346456692914
 30
0.0
 10
0.0216771653543307
 20
-0.6518346456692914
 30
0.0
 10
0.0146220472440945
 20
-0.6462519685039371
 30
0.0
 10
0.0110944881889764
 20
-0.6406141732283465
 30
0.0
 10
0.0110944881889764
 20
-0.634976377952756
 30
0.0
 10
0.0110944881889764
 20
-0.634976377952756
 30
0.0
 10
0.0110944881889764
 20
-0.632751968503937
 30
0.0
 10
0.0118188976377953
 20
-0.6308897637795276
 30
0.0
 10
0.013259842519685
 20
-0.6294173228346457
 30
0.0
 10
0.013259842519685
 20
-0.6294173228346457
 30
0.0
 10
0.0146771653543307
 20
-0.6279173228346457
 30
0.0
 10
0.0164842519685039
 20
-0.6271692913385827
 30
0.0
 10
0.0186771653543307
 20
-0.6271692913385827
 30
0.0
 10
0.0186771653543307
 20
-0.6271692913385827
 30
0.0
 10
0.0210393700787402
 20
-0.6271692913385827
 30
0.0
 10
0.0230944881889764
 20
-0.6280866141732284
 30
0.0
 10
0.024759842519685
 20
-0.6299488188976379
 30
0.0
 10
0.024759842519685
 20
-0.6299488188976379
 30
0.0
 10
0.0256771653543307
 20
-0.630976377952756
 30
0.0
 10
0.026759842519685
 20
-0.6334448818897638
 30
0.0
 10
0.0279291338582677
 20
-0.6373346456692913
 30
0.0
 10
0.0279291338582677
 20
-0.6373346456692913
 30
0.0
 10
0.0296220472440945
 20
-0.6428346456692914
 30
0.0
 10
0.0324842519685039
 20
-0.6470039370078741
 30
0.0
 10
0.0364842519685039
 20
-0.6498622047244095
 30
0.0
 10
0.0364842519685039
 20
-0.6498622047244095
 30
0.0
 10
0.0405118110236221
 20
-0.652751968503937
 30
0.0
 10
0.0454842519685039
 20
-0.6541968503937008
 30
0.0
 10
0.0514566929133858
 20
-0.6541968503937008
 30
0.0
 10
0.0514566929133858
 20
-0.6541968503937008
 30
0.0
 10
0.0567874015748032
 20
-0.6541968503937008
 30
0.0
 10
0.0615393700787402
 20
-0.6530314960629922
 30
0.0
 10
0.0657322834645669
 20
-0.6506968503937008
 30
0.0
 10
0.0657322834645669
 20
-0.6506968503937008
 30
0.0
 10
0.0699566929133858
 20
-0.6483622047244094
 30
0.0
 10
0.073259842519685
 20
-0.6450590551181102
 30
0.0
 10
0.0757047244094488
 20
-0.640751968503937
 30
0.0
 10
0.0757047244094488
 20
-0.640751968503937
 30
0.0
 10
0.0781496062992126
 20
-0.6364763779527559
 30
0.0
 10
0.0793740157480315
 20
-0.6317795275590551
 30
0.0
 10
0.0793740157480315
 20
-0.6266968503937008
 30
0.0
 10
0.0793740157480315
 20
-0.6266968503937008
 30
0.0
 10
0.0793740157480315
 20
-0.6225590551181103
 30
0.0
 10
0.0784842519685039
 20
-0.6188622047244095
 30
0.0
 10
0.0767322834645669
 20
-0.6155866141732284
 30
0.0
 10
0.0767322834645669
 20
-0.6155866141732284
 30
0.0
 10
0.0749566929133858
 20
-0.6122795275590551
 30
0.0
 10
0.0724566929133858
 20
-0.6095039370078741
 30
0.0
 10
0.0692047244094488
 20
-0.607224409448819
 30
0.0
 10
0.0692047244094488
 20
-0.607224409448819
 30
0.0
 10
0.0667047244094488
 20
-0.6054488188976378
 30
0.0
 10
0.0635118110236221
 20
-0.6041968503937009
 30
0.0
 10
0.0596496062992126
 20
-0.6035039370078741
 30
0.0
 10
0.0596496062992126
 20
-0.6035039370078741
 30
0.0
 10
0.055759842519685
 20
-0.6027795275590552
 30
0.0
 10
0.052259842519685
 20
-0.6024212598425197
 30
0.0
 10
0.0491771653543307
 20
-0.6024212598425197
 30
0.0
 10
0.0491771653543307
 20
-0.6024212598425197
 30
0.0
 10
0.0491771653543307
 20
-0.6024212598425197
 30
0.0
 10
0.0416220472440945
 20
-0.6024212598425197
 30
0.0
 10
0.0416220472440945
 20
-0.6024212598425197
 30
0.0
 10
0.0416220472440945
 20
-0.6024212598425197
 30
0.0
 10
0.0416220472440945
 20
-0.6024212598425197
 30
0.0
 10
0.0416220472440945
 20
-0.5945314960629922
 30
0.0
 10
0.0416220472440945
 20
-0.5945314960629922
 30
0.0
 10
0.0416220472440945
 20
-0.5945314960629922
 30
0.0
 10
0.0416220472440945
 20
-0.5945314960629922
 30
0.0
 10
0.0464291338582677
 20
-0.5945314960629922
 30
0.0
 10
0.0464291338582677
 20
-0.5945314960629922
 30
0.0
 10
0.0464291338582677
 20
-0.5945314960629922
 30
0.0
 10
0.0511771653543307
 20
-0.5945314960629922
 30
0.0
 10
0.0557322834645669
 20
-0.5939763779527559
 30
0.0
 10
0.0600944881889764
 20
-0.5928622047244094
 30
0.0
 10
0.0600944881889764
 20
-0.5928622047244094
 30
0.0
 10
0.0644291338582677
 20
-0.5917519685039371
 30
0.0
 10
0.0679015748031496
 20
-0.589476377952756
 30
0.0
 10
0.0705118110236221
 20
-0.586003937007874
 30
0.0
 10
0.0705118110236221
 20
-0.586003937007874
 30
0.0
 10
0.0730944881889764
 20
-0.5825314960629922
 30
0.0
 10
0.0744015748031496
 20
-0.5785866141732283
 30
0.0
 10
0.0744015748031496
 20
-0.5741968503937008
 30
0.0
 10
0.0744015748031496
 20
-0.5741968503937008
 30
0.0
 10
0.0744015748031496
 20
-0.5703937007874016
 30
0.0
 10
0.073511811023622
 20
-0.5669763779527559
 30
0.0
 10
0.0716771653543307
 20
-0.5639488188976378
 30
0.0
 10
0.0716771653543307
 20
-0.5639488188976378
 30
0.0
 10
0.0698740157480315
 20
-0.5608937007874016
 30
0.0
 10
0.0672047244094488
 20
-0.558476377952756
 30
0.0
 10
0.0636771653543307
 20
-0.5566968503937008
 30
0.0
 10
0.0636771653543307
 20
-0.5566968503937008
 30
0.0
 10
0.0601496062992126
 20
-0.5549212598425197
 30
0.0
 10
0.0560669291338583
 20
-0.5540039370078741
 30
0.0
 10
0.0514566929133858
 20
-0.5540039370078741
 30
0.0
 10
0.0514566929133858
 20
-0.5540039370078741
 30
0.0
 10
0.0469566929133858
 20
-0.5540039370078741
 30
0.0
 10
0.0428149606299213
 20
-0.5549488188976378
 30
0.0
 10
0.0390393700787402
 20
-0.5567795275590551
 30
0.0
 10
0.0390393700787402
 20
-0.5567795275590551
 30
0.0
 10
0.0352874015748032
 20
-0.5586141732283465
 30
0.0
 10
0.032259842519685
 20
-0.5610866141732284
 30
0.0
 10
0.0299842519685039
 20
-0.5641968503937008
 30
0.0
 10
0.0299842519685039
 20
-0.5641968503937008
 30
0.0
 10
0.0277047244094488
 20
-0.5672795275590551
 30
0.0
 10
0.0260669291338583
 20
-0.5713937007874016
 30
0.0
 10
0.0250944881889764
 20
-0.5765590551181102
 30
0.0
  0
SPLINE
  5
86
330
1F
100
AcDbEntity
  8
Layer 1
 62
   250
100
AcDbSpline
210
0.0
220
0.0
230
1.0
 70
    11
 71
     3
 72
    60
 73
    56
 74
     0
 42
0.0000000001
 43
0.0000000001
 40
0.0
 40
0.0
 40
0.0
 40
0.0
 40
0.0714285714285714
 40
0.0714285714285714
 40
0.0714285714285714
 40
0.0714285714285714
 40
0.1428571428571429
 40
0.1428571428571429
 40
0.1428571428571429
 40
0.1428571428571429
 40
0.2142857142857143
 40
0.2142857142857143
 40
0.2142857142857143
 40
0.2142857142857143
 40
0.2857142857142857
 40
0.2857142857142857
 40
0.2857142857142857
 40
0.2857142857142857
 40
0.3571428571428571
 40
0.3571428571428571
 40
0.3571428571428571
 40
0.3571428571428571
 40
0.4285714285714285
 40
0.4285714285714285
 40
0.4285714285714285
 40
0.4285714285714285
 40
0.4999999999999999
 40
0.4999999999999999
 40
0.4999999999999999
 40
0.4999999999999999
 40
0.5714285714285713
 40
0.5714285714285713
 40
0.5714285714285713
 40
0.5714285714285713
 40
0.6428571428571427
 40
0.6428571428571427
 40
0.6428571428571427
 40
0.6428571428571427
 40
0.7142857142857141
 40
0.7142857142857141
 40
0.7142857142857141
 40
0.7142857142857141
 40
0.7857142857142855
 40
0.7857142857142855
 40
0.7857142857142855
 40
0.7857142857142855
 40
0.8571428571428569
 40
0.8571428571428569
 40
0.8571428571428569
 40
0.8571428571428569
 40
0.9285714285714283
 40
0.9285714285714283
 40
0.9285714285714283
 40
0.9285714285714283
 40
1.0
 40
1.0
 40
1.0
 40
1.0
 10
0.1164842519685039
 20
-0.5882795275590551
 30
0.0
 10
0.1164842519685039
 20
-0.5882795275590551
 30
0.0
 10
0.1120944881889764
 20
-0.5828897637795276
 30
0.0
 10
0.1120944881889764
 20
-0.5828897637795276
 30
0.0
 10
0.1120944881889764
 20
-0.5828897637795276
 30
0.0
 10
0.1232086614173228
 20
-0.5738346456692913
 30
0.0
 10
0.1287913385826772
 20
-0.5662795275590551
 30
0.0
 10
0.1287913385826772
 20
-0.5601968503937008
 30
0.0
 10
0.1287913385826772
 20
-0.5601968503937008
 30
0.0
 10
0.1287913385826772
 20
-0.559503937007874
 30
0.0
 10
0.128736220472441
 20
-0.5586141732283465
 30
0.0
 10
0.1286220472440945
 20
-0.5575866141732284
 30
0.0
 10
0.1286220472440945
 20
-0.5575866141732284
 30
0.0
 10
0.1277086614173228
 20
-0.5579763779527559
 30
0.0
 10
0.1267913385826772
 20
-0.5582795275590552
 30
0.0
 10
0.1259291338582677
 20
-0.558476377952756
 30
0.0
 10
0.1259291338582677
 20
-0.558476377952756
 30
0.0
 10
0.1250669291338583
 20
-0.5586968503937008
 30
0.0
 10
0.1242637795275591
 20
-0.5588070866141732
 30
0.0
 10
0.123484251968504
 20
-0.5588070866141732
 30
0.0
 10
0.123484251968504
 20
-0.5588070866141732
 30
0.0
 10
0.1208740157480315
 20
-0.5588070866141732
 30
0.0
 10
0.1187913385826772
 20
-0.5579763779527559
 30
0.0
 10
0.117236220472441
 20
-0.5562795275590552
 30
0.0
 10
0.117236220472441
 20
-0.5562795275590552
 30
0.0
 10
0.1156496062992126
 20
-0.5546141732283465
 30
0.0
 10
0.1148740157480315
 20
-0.552476377952756
 30
0.0
 10
0.1148740157480315
 20
-0.5498622047244095
 30
0.0
 10
0.1148740157480315
 20
-0.5498622047244095
 30
0.0
 10
0.1148740157480315
 20
-0.5473070866141733
 30
0.0
 10
0.1158188976377953
 20
-0.5450866141732284
 30
0.0
 10
0.1177086614173228
 20
-0.5431968503937008
 30
0.0
 10
0.1177086614173228
 20
-0.5431968503937008
 30
0.0
 10
0.1196220472440945
 20
-0.5412795275590552
 30
0.0
 10
0.1219015748031496
 20
-0.5403346456692914
 30
0.0
 10
0.1245393700787402
 20
-0.5403346456692914
 30
0.0
 10
0.1245393700787402
 20
-0.5403346456692914
 30
0.0
 10
0.128236220472441
 20
-0.5403346456692914
 30
0.0
 10
0.1314015748031496
 20
-0.5418070866141732
 30
0.0
 10
0.1340393700787402
 20
-0.5447795275590551
 30
0.0
 10
0.1340393700787402
 20
-0.5447795275590551
 30
0.0
 10
0.1366496062992126
 20
-0.547724409448819
 30
0.0
 10
0.137984251968504
 20
-0.5515314960629921
 30
0.0
 10
0.137984251968504
 20
-0.5561968503937008
 30
0.0
 10
0.137984251968504
 20
-0.5561968503937008
 30
0.0
 10
0.137984251968504
 20
-0.559251968503937
 30
0.0
 10
0.1373464566929134
 20
-0.5624488188976379
 30
0.0
 10
0.1360944881889764
 20
-0.5657795275590551
 30
0.0
 10
0.1360944881889764
 20
-0.5657795275590551
 30
0.0
 10
0.1348464566929134
 20
-0.5691141732283465
 30
0.0
 10
0.1330393700787402
 20
-0.5721968503937008
 30
0.0
 10
0.1306496062992126
 20
-0.5750590551181103
 30
0.0
 10
0.1306496062992126
 20
-0.5750590551181103
 30
0.0
 10
0.1282637795275591
 20
-0.5778897637795276
 30
0.0
 10
0.1235393700787402
 20
-0.5823070866141733
 30
0.0
 10
0.1164842519685039
 20
-0.5882795275590551
 30
0.0
  0
SPLINE
  5
87
330
1F
100
AcDbEntity
  8
Layer 1
 62
   250
100
AcDbSpline
210
0.0
220
0.0
230
1.0
 70
    11
 71
     3
 72
    60
 73
    56
 74
     0
 42
0.0000000001
 43
0.0000000001
 40
0.0
 40
0.0
 40
0.0
 40
0.0
 40
0.0714285714285714
 40
0.0714285714285714
 40
0.0714285714285714
 40
0.0714285714285714
 40
0.1428571428571429
 40
0.1428571428571429
 40
0.1428571428571429
 40
0.1428571428571429
 40
0.2142857142857143
 40
0.2142857142857143
 40
0.2142857142857143
 40
0.2142857142857143
 40
0.2857142857142857
 40
0.2857142857142857
 40
0.2857142857142857
 40
0.2857142857142857
 40
0.3571428571428571
 40
0.3571428571428571
 40
0.3571428571428571
 40
0.3571428571428571
 40
0.4285714285714285
 40
0.4285714285714285
 40
0.4285714285714285
 40
0.4285714285714285
 40
0.4999999999999999
 40
0.4999999999999999
 40
0.4999999999999999
 40
0.4999999999999999
 40
0.5714285714285713
 40
0.5714285714285713
 40
0.5714285714285713
 40
0.5714285714285713
 40
0.6428571428571427
 40
0.6428571428571427
 40
0.6428571428571427
 40
0.6428571428571427
 40
0.7142857142857141
 40
0.7142857142857141
 40
0.7142857142857141
 40
0.7142857142857141
 40
0.7857142857142855
 40
0.7857142857142855
 40
0.7857142857142855
 40
0.7857142857142855
 40
0.8571428571428569
 40
0.8571428571428569
 40
0.8571428571428569
 40
0.8571428571428569
 40
0.9285714285714283
 40
0.9285714285714283
 40
0.9285714285714283
 40
0.9285714285714283
 40
1.0
 40
1.0
 40
1.0
 40
1.0
 10
0.1455393700787402
 20
-0.5882795275590551
 30
0.0
 10
0.1455393700787402
 20
-0.5882795275590551
 30
0.0
 10
0.1411496062992126
 20
-0.5828897637795276
 30
0.0
 10
0.1411496062992126
 20
-0.5828897637795276
 30
0.0
 10
0.1411496062992126
 20
-0.5828897637795276
 30
0.0
 10
0.1522637795275591
 20
-0.5738346456692913
 30
0.0
 10
0.1578464566929134
 20
-0.5662795275590551
 30
0.0
 10
0.1578464566929134
 20
-0.5601968503937008
 30
0.0
 10
0.1578464566929134
 20
-0.5601968503937008
 30
0.0
 10
0.1578464566929134
 20
-0.559503937007874
 30
0.0
 10
0.1577913385826772
 20
-0.5586141732283465
 30
0.0
 10
0.1576771653543307
 20
-0.5575866141732284
 30
0.0
 10
0.1576771653543307
 20
-0.5575866141732284
 30
0.0
 10
0.1567637795275591
 20
-0.5579763779527559
 30
0.0
 10
0.1558464566929134
 20
-0.5582795275590552
 30
0.0
 10
0.1549842519685039
 20
-0.558476377952756
 30
0.0
 10
0.1549842519685039
 20
-0.558476377952756
 30
0.0
 10
0.1541220472440945
 20
-0.5586968503937008
 30
0.0
 10
0.1532913385826772
 20
-0.5588070866141732
 30
0.0
 10
0.1524566929133858
 20
-0.5588070866141732
 30
0.0
 10
0.1524566929133858
 20
-0.5588070866141732
 30
0.0
 10
0.1499015748031496
 20
-0.5588070866141732
 30
0.0
 10
0.1478464566929134
 20
-0.5579763779527559
 30
0.0
 10
0.1462913385826772
 20
-0.5562795275590552
 30
0.0
 10
0.1462913385826772
 20
-0.5562795275590552
 30
0.0
 10
0.1447086614173228
 20
-0.5546141732283465
 30
0.0
 10
0.1439291338582677
 20
-0.552476377952756
 30
0.0
 10
0.1439291338582677
 20
-0.5498622047244095
 30
0.0
 10
0.1439291338582677
 20
-0.5498622047244095
 30
0.0
 10
0.1439291338582677
 20
-0.5473070866141733
 30
0.0
 10
0.1448740157480315
 20
-0.5450866141732284
 30
0.0
 10
0.1467637795275591
 20
-0.5431968503937008
 30
0.0
 10
0.1467637795275591
 20
-0.5431968503937008
 30
0.0
 10
0.1486496062992126
 20
-0.5412795275590552
 30
0.0
 10
0.1509566929133858
 20
-0.5403346456692914
 30
0.0
 10
0.1535944881889764
 20
-0.5403346456692914
 30
0.0
 10
0.1535944881889764
 20
-0.5403346456692914
 30
0.0
 10
0.1572913385826772
 20
-0.5403346456692914
 30
0.0
 10
0.1604566929133858
 20
-0.5418070866141732
 30
0.0
 10
0.1630944881889764
 20
-0.5447795275590551
 30
0.0
 10
0.1630944881889764
 20
-0.5447795275590551
 30
0.0
 10
0.1657047244094488
 20
-0.547724409448819
 30
0.0
 10
0.1670393700787402
 20
-0.5515314960629921
 30
0.0
 10
0.1670393700787402
 20
-0.5561968503937008
 30
0.0
 10
0.1670393700787402
 20
-0.5561968503937008
 30
0.0
 10
0.1670393700787402
 20
-0.559251968503937
 30
0.0
 10
0.1664015748031496
 20
-0.5624488188976379
 30
0.0
 10
0.1651496062992126
 20
-0.5657795275590551
 30
0.0
 10
0.1651496062992126
 20
-0.5657795275590551
 30
0.0
 10
0.1639015748031496
 20
-0.5691141732283465
 30
0.0
 10
0.1620944881889764
 20
-0.5721968503937008
 30
0.0
 10
0.1597086614173228
 20
-0.5750590551181103
 30
0.0
 10
0.1597086614173228
 20
-0.5750590551181103
 30
0.0
 10
0.1573188976377953
 20
-0.5778897637795276
 30
0.0
 10
0.1525944881889764
 20
-0.5823070866141733
 30
0.0
 10
0.1455393700787402
 20
-0.5882795275590551
 30
0.0
  0
ENDSEC
  0
SECTION
  2
OBJECTS
  0
DICTIONARY
  5
C
330
0
100
AcDbDictionary
281
     1
  3
ACAD_GROUP
350
D
  3
ACAD_LAYOUT
350
1A
  3
ACAD_MLINESTYLE
350
17
  3
ACAD_PLOTSETTINGS
350
19
  3
ACAD_PLOTSTYLENAME
350
E
  0
DICTIONARY
  5
D
102
{ACAD_REACTORS
330
C
102
}
330
C
100
AcDbDictionary
281
     1
  0
DICTIONARY
  5
1A
102
{ACAD_REACTORS
330
C
102
}
330
C
100
AcDbDictionary
281
     1
  3
Layout1
350
1E
  3
Layout2
350
26
  3
Model
350
22
  0
DICTIONARY
  5
17
102
{ACAD_REACTORS
330
C
102
}
330
C
100
AcDbDictionary
281
     1
  3
Standard
350
18
  0
DICTIONARY
  5
19
102
{ACAD_REACTORS
330
C
102
}
330
C
100
AcDbDictionary
281
     1
  0
ACDBDICTIONARYWDFLT
  5
E
102
{ACAD_REACTORS
330
C
102
}
330
C
100
AcDbDictionary
281
     1
  3
Normal
350
F
100
AcDbDictionaryWithDefault
340
F
  0
LAYOUT
  5
1E
102
{ACAD_REACTORS
330
1A
102
}
330
1A
100
AcDbPlotSettings
  1

  2

  4

  6

 40
0.0
 41
0.0
 42
0.0
 43
0.0
 44
0.0
 45
0.0
 46
0.0
 47
0.0
 48
0.0
 49
0.0
140
0.0
141
0.0
142
1.0
143
1.0
 70
   688
 72
     0
 73
     0
 74
     5
  7

 75
    16
 76
     0
 77
     2
 78
   300
147
1.0
148
0.0
149
0.0
100
AcDbLayout
  1
Layout1
 70
     1
 71
     1
 10
0.0
 20
0.0
 11
12.0
 21
9.0
 12
0.0
 22
0.0
 32
0.0
 14
1.000000000000000E+20
 24
1.000000000000000E+20
 34
1.000000000000000E+20
 15
-1.000000000000000E+20
 25
-1.000000000000000E+20
 35
-1.000000000000000E+20
146
0.0
 13
0.0
 23
0.0
 33
0.0
 16
1.0
 26
0.0
 36
0.0
 17
0.0
 27
1.0
 37
0.0
 76
     0
330
1B
  0
LAYOUT
  5
26
102
{ACAD_REACTORS
330
1A
102
}
330
1A
100
AcDbPlotSettings
  1

  2

  4

  6

 40
0.0
 41
0.0
 42
0.0
 43
0.0
 44
0.0
 45
0.0
 46
0.0
 47
0.0
 48
0.0
 49
0.0
140
0.0
141
0.0
142
1.0
143
1.0
 70
   688
 72
     0
 73
     0
 74
     5
  7

 75
    16
 76
     0
 77
     2
 78
   300
147
1.0
148
0.0
149
0.0
100
AcDbLayout
  1
Layout2
 70
     1
 71
     2
 10
0.0
 20
0.0
 11
0.0
 21
0.0
 12
0.0
 22
0.0
 32
0.0
 14
0.0
 24
0.0
 34
0.0
 15
0.0
 25
0.0
 35
0.0
146
0.0
 13
0.0
 23
0.0
 33
0.0
 16
1.0
 26
0.0
 36
0.0
 17
0.0
 27
1.0
 37
0.0
 76
     0
330
23
  0
LAYOUT
  5
22
102
{ACAD_REACTORS
330
1A
102
}
330
1A
100
AcDbPlotSettings
  1

  2

  4

  6

 40
0.0
 41
0.0
 42
0.0
 43
0.0
 44
0.0
 45
0.0
 46
0.0
 47
0.0
 48
0.0
 49
0.0
140
0.0
141
0.0
142
1.0
143
1.0
 70
  1712
 72
     0
 73
     0
 74
     0
  7

 75
     0
 76
     0
 77
     2
 78
   300
147
1.0
148
0.0
149
0.0
100
AcDbLayout
  1
Model
 70
     1
 71
     0
 10
0.0
 20
0.0
 11
0.0
 21
0.0
 12
0.0
 22
0.0
 32
0.0
 14
-2.173551181102362
 24
-0.6616692913385827
 34
0.0
 15
1.964472440944882
 25
3.731968503937008
 35
0.0
146
0.0
 13
0.0
 23
0.0
 33
0.0
 16
1.0
 26
0.0
 36
0.0
 17
0.0
 27
1.0
 37
0.0
 76
     0
330
1F
  0
MLINESTYLE
  5
18
102
{ACAD_REACTORS
330
17
102
}
330
17
100
AcDbMlineStyle
  2
Standard
 70
     0
  3

 62
   256
 51
90.0
 52
90.0
 71
     2
 49
0.5
 62
   256
  6
BYLAYER
 49
-0.5
 62
   256
  6
BYLAYER
  0
ACDBPLACEHOLDER
  5
F
102
{ACAD_REACTORS
330
E
102
}
330
E
  0
ENDSEC
  0
EOF
