  0
SECTION
  2
HEADER
  9
$ACADVER
  1
AC1018
  9
$ACADMAINTVER
 70
     0
  9
$DWGCODEPAGE
  3
ANSI_1252
  9
$INSBASE
 10
0.0
 20
0.0
 30
0.0
  9
$EXTMIN
 10
-1.995531496062992
 20
-2.824740157480315
 30
0.0
  9
$EXTMAX
 10
1.679362204724409
 20
3.476248031496063
 30
0.0
  9
$LIMMIN
 10
0.0
 20
0.0
  9
$LIMMAX
 10
12.0
 20
9.0
  9
$ORTHOMODE
 70
     0
  9
$REGENMODE
 70
     1
  9
$FILLMODE
 70
     1
  9
$QTEXTMODE
 70
     0
  9
$MIRRTEXT
 70
     1
  9
$LTSCALE
 40
1.0
  9
$ATTMODE
 70
     1
  9
$TEXTSIZE
 40
0.2
  9
$TRACEWID
 40
0.05
  9
$TEXTSTYLE
  7
Standard
  9
$CLAYER
  8
0
  9
$CELTYPE
  6
ByLayer
  9
$CECOLOR
 62
   256
  9
$CELTSCALE
 40
1.0
  9
$DISPSILH
 70
     0
  9
$DIMSCALE
 40
1.0
  9
$DIMASZ
 40
0.18
  9
$DIMEXO
 40
0.0625
  9
$DIMDLI
 40
0.38
  9
$DIMRND
 40
0.0
  9
$DIMDLE
 40
0.0
  9
$DIMEXE
 40
0.18
  9
$DIMTP
 40
0.0
  9
$DIMTM
 40
0.0
  9
$DIMTXT
 40
0.18
  9
$DIMCEN
 40
0.09
  9
$DIMTSZ
 40
0.0
  9
$DIMTOL
 70
     0
  9
$DIMLIM
 70
     0
  9
$DIMTIH
 70
     1
  9
$DIMTOH
 70
     1
  9
$DIMSE1
 70
     0
  9
$DIMSE2
 70
     0
  9
$DIMTAD
 70
     0
  9
$DIMZIN
 70
     0
  9
$DIMBLK
  1

  9
$DIMASO
 70
     1
  9
$DIMSHO
 70
     1
  9
$DIMPOST
  1

  9
$DIMAPOST
  1

  9
$DIMALT
 70
     0
  9
$DIMALTD
 70
     2
  9
$DIMALTF
 40
25.4
  9
$DIMLFAC
 40
1.0
  9
$DIMTOFL
 70
     0
  9
$DIMTVP
 40
0.0
  9
$DIMTIX
 70
     0
  9
$DIMSOXD
 70
     0
  9
$DIMSAH
 70
     0
  9
$DIMBLK1
  1

  9
$DIMBLK2
  1

  9
$DIMSTYLE
  2
Standard
  9
$DIMCLRD
 70
     0
  9
$DIMCLRE
 70
     0
  9
$DIMCLRT
 70
     0
  9
$DIMTFAC
 40
1.0
  9
$DIMGAP
 40
0.09
  9
$DIMJUST
 70
     0
  9
$DIMSD1
 70
     0
  9
$DIMSD2
 70
     0
  9
$DIMTOLJ
 70
     1
  9
$DIMTZIN
 70
     0
  9
$DIMALTZ
 70
     0
  9
$DIMALTTZ
 70
     0
  9
$DIMUPT
 70
     0
  9
$DIMDEC
 70
     4
  9
$DIMTDEC
 70
     4
  9
$DIMALTU
 70
     2
  9
$DIMALTTD
 70
     2
  9
$DIMTXSTY
  7
Standard
  9
$DIMAUNIT
 70
     0
  9
$DIMADEC
 70
     0
  9
$DIMALTRND
 40
0.0
  9
$DIMAZIN
 70
     0
  9
$DIMDSEP
 70
    46
  9
$DIMATFIT
 70
     3
  9
$DIMFRAC
 70
     0
  9
$DIMLDRBLK
  1

  9
$DIMLUNIT
 70
     2
  9
$DIMLWD
 70
    -2
  9
$DIMLWE
 70
    -2
  9
$DIMTMOVE
 70
     0
  9
$LUNITS
 70
     2
  9
$LUPREC
 70
     4
  9
$SKETCHINC
 40
0.1
  9
$FILLETRAD
 40
0.5
  9
$AUNITS
 70
     0
  9
$AUPREC
 70
     0
  9
$MENU
  1
.
  9
$ELEVATION
 40
0.0
  9
$PELEVATION
 40
0.0
  9
$THICKNESS
 40
0.0
  9
$LIMCHECK
 70
     0
  9
$CHAMFERA
 40
0.5
  9
$CHAMFERB
 40
0.5
  9
$CHAMFERC
 40
1.0
  9
$CHAMFERD
 40
0.0
  9
$SKPOLY
 70
     0
  9
$TDCREATE
 40
2453769.643217593
  9
$TDUCREATE
 40
2453769.851550926
  9
$TDUPDATE
 40
2453769.643217604
  9
$TDUUPDATE
 40
2453769.851550938
  9
$TDINDWG
 40
0.0000000116
  9
$TDUSRTIMER
 40
0.0000000116
  9
$USRTIMER
 70
     1
  9
$ANGBASE
 50
0.0
  9
$ANGDIR
 70
     0
  9
$PDMODE
 70
     0
  9
$PDSIZE
 40
0.0
  9
$PLINEWID
 40
0.0
  9
$SPLFRAME
 70
     0
  9
$SPLINETYPE
 70
     6
  9
$SPLINESEGS
 70
     8
  9
$HANDSEED
  5
92
  9
$SURFTAB1
 70
     6
  9
$SURFTAB2
 70
     6
  9
$SURFTYPE
 70
     6
  9
$SURFU
 70
     6
  9
$SURFV
 70
     6
  9
$UCSBASE
  2

  9
$UCSNAME
  2

  9
$UCSORG
 10
0.0
 20
0.0
 30
0.0
  9
$UCSXDIR
 10
1.0
 20
0.0
 30
0.0
  9
$UCSYDIR
 10
0.0
 20
1.0
 30
0.0
  9
$UCSORTHOREF
  2

  9
$UCSORTHOVIEW
 70
     0
  9
$UCSORGTOP
 10
0.0
 20
0.0
 30
0.0
  9
$UCSORGBOTTOM
 10
0.0
 20
0.0
 30
0.0
  9
$UCSORGLEFT
 10
0.0
 20
0.0
 30
0.0
  9
$UCSORGRIGHT
 10
0.0
 20
0.0
 30
0.0
  9
$UCSORGFRONT
 10
0.0
 20
0.0
 30
0.0
  9
$UCSORGBACK
 10
0.0
 20
0.0
 30
0.0
  9
$PUCSBASE
  2

  9
$PUCSNAME
  2

  9
$PUCSORG
 10
0.0
 20
0.0
 30
0.0
  9
$PUCSXDIR
 10
1.0
 20
0.0
 30
0.0
  9
$PUCSYDIR
 10
0.0
 20
1.0
 30
0.0
  9
$PUCSORTHOREF
  2

  9
$PUCSORTHOVIEW
 70
     0
  9
$PUCSORGTOP
 10
0.0
 20
0.0
 30
0.0
  9
$PUCSORGBOTTOM
 10
0.0
 20
0.0
 30
0.0
  9
$PUCSORGLEFT
 10
0.0
 20
0.0
 30
0.0
  9
$PUCSORGRIGHT
 10
0.0
 20
0.0
 30
0.0
  9
$PUCSORGFRONT
 10
0.0
 20
0.0
 30
0.0
  9
$PUCSORGBACK
 10
0.0
 20
0.0
 30
0.0
  9
$USERI1
 70
     0
  9
$USERI2
 70
     0
  9
$USERI3
 70
     0
  9
$USERI4
 70
     0
  9
$USERI5
 70
     0
  9
$USERR1
 40
0.0
  9
$USERR2
 40
0.0
  9
$USERR3
 40
0.0
  9
$USERR4
 40
0.0
  9
$USERR5
 40
0.0
  9
$WORLDVIEW
 70
     1
  9
$SHADEDGE
 70
     3
  9
$SHADEDIF
 70
    70
  9
$TILEMODE
 70
     1
  9
$MAXACTVP
 70
    64
  9
$PINSBASE
 10
0.0
 20
0.0
 30
0.0
  9
$PLIMCHECK
 70
     0
  9
$PEXTMIN
 10
1.000000000000000E+20
 20
1.000000000000000E+20
 30
1.000000000000000E+20
  9
$PEXTMAX
 10
-1.000000000000000E+20
 20
-1.000000000000000E+20
 30
-1.000000000000000E+20
  9
$PLIMMIN
 10
0.0
 20
0.0
  9
$PLIMMAX
 10
12.0
 20
9.0
  9
$UNITMODE
 70
     0
  9
$VISRETAIN
 70
     1
  9
$PLINEGEN
 70
     0
  9
$PSLTSCALE
 70
     1
  9
$TREEDEPTH
 70
  3020
  9
$CMLSTYLE
  2
Standard
  9
$CMLJUST
 70
     0
  9
$CMLSCALE
 40
1.0
  9
$PROXYGRAPHICS
 70
     1
  9
$MEASUREMENT
 70
     0
  9
$CELWEIGHT
370
    -1
  9
$ENDCAPS
280
     0
  9
$JOINSTYLE
280
     0
  9
$LWDISPLAY
290
     0
  9
$INSUNITS
 70
     1
  9
$HYPERLINKBASE
  1

  9
$STYLESHEET
  1

  9
$XEDIT
290
     1
  9
$CEPSNTYPE
380
     0
  9
$PSTYLEMODE
290
     0
  9
$FINGERPRINTGUID
  2
{FAEB1C30-E019-11D5-929B-00C0DF256EC4}
  9
$VERSIONGUID
  2
{FAEB1C32-E019-11D5-929B-00C0DF256EC4}
  9
$EXTNAMES
290
     1
  9
$PSVPSCALE
 40
0.0
  9
$OLESTARTUP
290
     0
  9
$SORTENTS
280
   127
  9
$INDEXCTL
280
     0
  9
$HIDETEXT
280
     1
  9
$XCLIPFRAME
290
     0
  9
$HALOGAP
280
     0
  9
$OBSCOLOR
 70
   257
  9
$OBSLTYPE
280
     0
  9
$INTERSECTIONDISPLAY
280
     0
  9
$INTERSECTIONCOLOR
 70
   257
  9
$DIMASSOC
280
     2
  9
$PROJECTNAME
  1

  0
ENDSEC
  0
SECTION
  2
CLASSES
  0
CLASS
  1
ACDBDICTIONARYWDFLT
  2
AcDbDictionaryWithDefault
  3
ObjectDBX Classes
 90
        0
 91
        1
280
     0
281
     0
  0
ENDSEC
  0
SECTION
  2
TABLES
  0
TABLE
  2
VPORT
  5
8
330
0
100
AcDbSymbolTable
 70
     2
  0
VPORT
  5
29
330
8
100
AcDbSymbolTableRecord
100
AcDbViewportTableRecord
  2
*Active
 70
     0
 10
0.0
 20
0.0
 11
1.0
 21
1.0
 12
10.42990654205607
 22
4.5
 13
0.0
 23
0.0
 14
0.5
 24
0.5
 15
0.5
 25
0.5
 16
0.0
 26
0.0
 36
1.0
 17
0.0
 27
0.0
 37
0.0
 40
9.0
 41
1.972972972850329
 42
50.0
 43
0.0
 44
0.0
 50
0.0
 51
0.0
 71
     0
 72
   100
 73
     1
 74
     3
 75
     0
 76
     0
 77
     0
 78
     0
281
     0
 65
     1
110
0.0
120
0.0
130
0.0
111
1.0
121
0.0
131
0.0
112
0.0
122
1.0
132
0.0
 79
     0
146
0.0
  0
ENDTAB
  0
TABLE
  2
LTYPE
  5
5
330
0
100
AcDbSymbolTable
 70
     1
  0
LTYPE
  5
14
330
5
100
AcDbSymbolTableRecord
100
AcDbLinetypeTableRecord
  2
ByBlock
 70
     0
  3

 72
    65
 73
     0
 40
0.0
  0
LTYPE
  5
15
330
5
100
AcDbSymbolTableRecord
100
AcDbLinetypeTableRecord
  2
ByLayer
 70
     0
  3

 72
    65
 73
     0
 40
0.0
  0
LTYPE
  5
16
330
5
100
AcDbSymbolTableRecord
100
AcDbLinetypeTableRecord
  2
Continuous
 70
     0
  3
Solid line
 72
    65
 73
     0
 40
0.0
  0
ENDTAB
  0
TABLE
  2
LAYER
  5
2
330
0
100
AcDbSymbolTable
 70
     2
  0
LAYER
  5
10
330
2
100
AcDbSymbolTableRecord
100
AcDbLayerTableRecord
  2
0
 70
     0
 62
     7
  6
Continuous
370
    -3
390
F
  0
LAYER
  5
2B
330
2
100
AcDbSymbolTableRecord
100
AcDbLayerTableRecord
  2
Layer 1
 70
     0
 62
     7
  6
Continuous
370
    -3
390
F
  0
ENDTAB
  0
TABLE
  2
STYLE
  5
3
330
0
100
AcDbSymbolTable
 70
     1
  0
STYLE
  5
11
330
3
100
AcDbSymbolTableRecord
100
AcDbTextStyleTableRecord
  2
Standard
 70
     0
 40
0.0
 41
1.0
 50
0.0
 71
     0
 42
0.2
  3
txt
  4

  0
ENDTAB
  0
TABLE
  2
VIEW
  5
6
330
0
100
AcDbSymbolTable
 70
     0
  0
ENDTAB
  0
TABLE
  2
UCS
  5
7
330
0
100
AcDbSymbolTable
 70
     0
  0
ENDTAB
  0
TABLE
  2
APPID
  5
9
330
0
100
AcDbSymbolTable
 70
     2
  0
APPID
  5
12
330
9
100
AcDbSymbolTableRecord
100
AcDbRegAppTableRecord
  2
ACAD
 70
     0
  0
APPID
  5
2A
330
9
100
AcDbSymbolTableRecord
100
AcDbRegAppTableRecord
  2
ODA
 70
     0
  0
ENDTAB
  0
TABLE
  2
DIMSTYLE
  5
A
330
0
100
AcDbSymbolTable
 70
     1
100
AcDbDimStyleTable
  0
DIMSTYLE
105
27
330
A
100
AcDbSymbolTableRecord
100
AcDbDimStyleTableRecord
  2
Standard
 70
     0
340
11
  0
ENDTAB
  0
TABLE
  2
BLOCK_RECORD
  5
1
330
0
100
AcDbSymbolTable
 70
     1
  0
BLOCK_RECORD
  5
1F
330
1
100
AcDbSymbolTableRecord
100
AcDbBlockTableRecord
  2
*Model_Space
340
22
  0
BLOCK_RECORD
  5
1B
330
1
100
AcDbSymbolTableRecord
100
AcDbBlockTableRecord
  2
*Paper_Space
340
1E
  0
BLOCK_RECORD
  5
23
330
1
100
AcDbSymbolTableRecord
100
AcDbBlockTableRecord
  2
*Paper_Space0
340
26
  0
ENDTAB
  0
ENDSEC
  0
SECTION
  2
BLOCKS
  0
BLOCK
  5
20
330
1F
100
AcDbEntity
  8
0
100
AcDbBlockBegin
  2
*Model_Space
 70
     0
 71
     0
 10
0.0
 20
0.0
 30
0.0
  3
*Model_Space
  1

  0
ENDBLK
  5
21
330
1F
100
AcDbEntity
  8
0
100
AcDbBlockEnd
  0
BLOCK
  5
1C
330
1B
100
AcDbEntity
 67
     1
  8
0
100
AcDbBlockBegin
  2
*Paper_Space
 70
     0
 71
     0
 10
0.0
 20
0.0
 30
0.0
  3
*Paper_Space
  1

  0
ENDBLK
  5
1D
330
1B
100
AcDbEntity
 67
     1
  8
0
100
AcDbBlockEnd
  0
BLOCK
  5
24
330
23
100
AcDbEntity
  8
0
100
AcDbBlockBegin
  2
*Paper_Space0
 70
     0
 71
     0
 10
0.0
 20
0.0
 30
0.0
  3
*Paper_Space0
  1

  0
ENDBLK
  5
25
330
23
100
AcDbEntity
  8
0
100
AcDbBlockEnd
  0
ENDSEC
  0
SECTION
  2
ENTITIES
  0
SPLINE
  5
2C
330
1F
100
AcDbEntity
  8
Layer 1
 62
   252
100
AcDbSpline
210
0.0
220
0.0
230
1.0
 70
    11
 71
     3
 72
    20
 73
    16
 74
     0
 42
0.0000000001
 43
0.0000000001
 40
0.0
 40
0.0
 40
0.0
 40
0.0
 40
0.25
 40
0.25
 40
0.25
 40
0.25
 40
0.5
 40
0.5
 40
0.5
 40
0.5
 40
0.75
 40
0.75
 40
0.75
 40
0.75
 40
1.0
 40
1.0
 40
1.0
 40
1.0
 10
0.7986732283464567
 20
-1.911090551181103
 30
0.0
 10
0.7986732283464567
 20
-1.911090551181103
 30
0.0
 10
1.47057874015748
 20
-1.523913385826772
 30
0.0
 10
1.47057874015748
 20
-1.523913385826772
 30
0.0
 10
1.47057874015748
 20
-1.523913385826772
 30
0.0
 10
1.47057874015748
 20
-1.523913385826772
 30
0.0
 10
1.541586614173228
 20
-1.463232283464567
 30
0.0
 10
1.541586614173228
 20
-1.463232283464567
 30
0.0
 10
1.541586614173228
 20
-1.463232283464567
 30
0.0
 10
1.541586614173228
 20
-1.463232283464567
 30
0.0
 10
0.8696811023622048
 20
-1.850409448818898
 30
0.0
 10
0.8696811023622048
 20
-1.850409448818898
 30
0.0
 10
0.8696811023622048
 20
-1.850409448818898
 30
0.0
 10
0.8696811023622048
 20
-1.850409448818898
 30
0.0
 10
0.7986732283464567
 20
-1.911090551181103
 30
0.0
 10
0.7986732283464567
 20
-1.911090551181103
 30
0.0
  0
SPLINE
  5
2D
330
1F
100
AcDbEntity
  8
Layer 1
 62
   253
100
AcDbSpline
210
0.0
220
0.0
230
1.0
 70
    11
 71
     3
 72
    20
 73
    16
 74
     0
 42
0.0000000001
 43
0.0000000001
 40
0.0
 40
0.0
 40
0.0
 40
0.0
 40
0.25
 40
0.25
 40
0.25
 40
0.25
 40
0.5
 40
0.5
 40
0.5
 40
0.5
 40
0.75
 40
0.75
 40
0.75
 40
0.75
 40
1.0
 40
1.0
 40
1.0
 40
1.0
 10
0.8696811023622048
 20
-1.850409448818898
 30
0.0
 10
0.8696811023622048
 20
-1.850409448818898
 30
0.0
 10
1.541586614173228
 20
-1.463232283464567
 30
0.0
 10
1.541586614173228
 20
-1.463232283464567
 30
0.0
 10
1.541586614173228
 20
-1.463232283464567
 30
0.0
 10
1.541586614173228
 20
-1.463232283464567
 30
0.0
 10
1.597271653543307
 20
-1.399220472440945
 30
0.0
 10
1.597271653543307
 20
-1.399220472440945
 30
0.0
 10
1.597271653543307
 20
-1.399220472440945
 30
0.0
 10
1.597271653543307
 20
-1.399220472440945
 30
0.0
 10
0.9253661417322835
 20
-1.786397637795276
 30
0.0
 10
0.9253661417322835
 20
-1.786397637795276
 30
0.0
 10
0.9253661417322835
 20
-1.786397637795276
 30
0.0
 10
0.9253661417322835
 20
-1.786397637795276
 30
0.0
 10
0.8696811023622048
 20
-1.850409448818898
 30
0.0
 10
0.8696811023622048
 20
-1.850409448818898
 30
0.0
  0
SPLINE
  5
2E
330
1F
100
AcDbEntity
  8
Layer 1
 62
   253
100
AcDbSpline
210
0.0
220
0.0
230
1.0
 70
    11
 71
     3
 72
    20
 73
    16
 74
     0
 42
0.0000000001
 43
0.0000000001
 40
0.0
 40
0.0
 40
0.0
 40
0.0
 40
0.25
 40
0.25
 40
0.25
 40
0.25
 40
0.5
 40
0.5
 40
0.5
 40
0.5
 40
0.75
 40
0.75
 40
0.75
 40
0.75
 40
1.0
 40
1.0
 40
1.0
 40
1.0
 10
0.9253661417322835
 20
-1.786397637795276
 30
0.0
 10
0.9253661417322835
 20
-1.786397637795276
 30
0.0
 10
1.597271653543307
 20
-1.399220472440945
 30
0.0
 10
1.597271653543307
 20
-1.399220472440945
 30
0.0
 10
1.597271653543307
 20
-1.399220472440945
 30
0.0
 10
1.597271653543307
 20
-1.399220472440945
 30
0.0
 10
1.638188976377953
 20
-1.332385826771654
 30
0.0
 10
1.638188976377953
 20
-1.332385826771654
 30
0.0
 10
1.638188976377953
 20
-1.332385826771654
 30
0.0
 10
1.638188976377953
 20
-1.332385826771654
 30
0.0
 10
0.9662834645669292
 20
-1.719562992125984
 30
0.0
 10
0.9662834645669292
 20
-1.719562992125984
 30
0.0
 10
0.9662834645669292
 20
-1.719562992125984
 30
0.0
 10
0.9662834645669292
 20
-1.719562992125984
 30
0.0
 10
0.9253661417322835
 20
-1.786397637795276
 30
0.0
 10
0.9253661417322835
 20
-1.786397637795276
 30
0.0
  0
SPLINE
  5
2F
330
1F
100
AcDbEntity
  8
Layer 1
 62
   253
100
AcDbSpline
210
0.0
220
0.0
230
1.0
 70
    11
 71
     3
 72
    20
 73
    16
 74
     0
 42
0.0000000001
 43
0.0000000001
 40
0.0
 40
0.0
 40
0.0
 40
0.0
 40
0.25
 40
0.25
 40
0.25
 40
0.25
 40
0.5
 40
0.5
 40
0.5
 40
0.5
 40
0.75
 40
0.75
 40
0.75
 40
0.75
 40
1.0
 40
1.0
 40
1.0
 40
1.0
 10
0.9662834645669292
 20
-1.719562992125984
 30
0.0
 10
0.9662834645669292
 20
-1.719562992125984
 30
0.0
 10
1.638188976377953
 20
-1.332385826771654
 30
0.0
 10
1.638188976377953
 20
-1.332385826771654
 30
0.0
 10
1.638188976377953
 20
-1.332385826771654
 30
0.0
 10
1.638188976377953
 20
-1.332385826771654
 30
0.0
 10
1.664866141732283
 20
-1.263251968503937
 30
0.0
 10
1.664866141732283
 20
-1.263251968503937
 30
0.0
 10
1.664866141732283
 20
-1.263251968503937
 30
0.0
 10
1.664866141732283
 20
-1.263251968503937
 30
0.0
 10
0.9929606299212599
 20
-1.650429133858268
 30
0.0
 10
0.9929606299212599
 20
-1.650429133858268
 30
0.0
 10
0.9929606299212599
 20
-1.650429133858268
 30
0.0
 10
0.9929606299212599
 20
-1.650429133858268
 30
0.0
 10
0.9662834645669292
 20
-1.719562992125984
 30
0.0
 10
0.9662834645669292
 20
-1.719562992125984
 30
0.0
  0
SPLINE
  5
30
330
1F
100
AcDbEntity
  8
Layer 1
 62
   253
100
AcDbSpline
210
0.0
220
0.0
230
1.0
 70
    11
 71
     3
 72
    20
 73
    16
 74
     0
 42
0.0000000001
 43
0.0000000001
 40
0.0
 40
0.0
 40
0.0
 40
0.0
 40
0.25
 40
0.25
 40
0.25
 40
0.25
 40
0.5
 40
0.5
 40
0.5
 40
0.5
 40
0.75
 40
0.75
 40
0.75
 40
0.75
 40
1.0
 40
1.0
 40
1.0
 40
1.0
 10
0.9929606299212599
 20
-1.650429133858268
 30
0.0
 10
0.9929606299212599
 20
-1.650429133858268
 30
0.0
 10
1.664866141732283
 20
-1.263251968503937
 30
0.0
 10
1.664866141732283
 20
-1.263251968503937
 30
0.0
 10
1.664866141732283
 20
-1.263251968503937
 30
0.0
 10
1.664866141732283
 20
-1.263251968503937
 30
0.0
 10
1.677866141732284
 20
-1.192318897637795
 30
0.0
 10
1.677866141732284
 20
-1.192318897637795
 30
0.0
 10
1.677866141732284
 20
-1.192318897637795
 30
0.0
 10
1.677866141732284
 20
-1.192318897637795
 30
0.0
 10
1.00596062992126
 20
-1.579496062992126
 30
0.0
 10
1.00596062992126
 20
-1.579496062992126
 30
0.0
 10
1.00596062992126
 20
-1.579496062992126
 30
0.0
 10
1.00596062992126
 20
-1.579496062992126
 30
0.0
 10
0.9929606299212599
 20
-1.650429133858268
 30
0.0
 10
0.9929606299212599
 20
-1.650429133858268
 30
0.0
  0
SPLINE
  5
31
330
1F
100
AcDbEntity
  8
Layer 1
 62
   253
100
AcDbSpline
210
0.0
220
0.0
230
1.0
 70
    11
 71
     3
 72
    20
 73
    16
 74
     0
 42
0.0000000001
 43
0.0000000001
 40
0.0
 40
0.0
 40
0.0
 40
0.0
 40
0.25
 40
0.25
 40
0.25
 40
0.25
 40
0.5
 40
0.5
 40
0.5
 40
0.5
 40
0.75
 40
0.75
 40
0.75
 40
0.75
 40
1.0
 40
1.0
 40
1.0
 40
1.0
 10
1.00596062992126
 20
-1.579496062992126
 30
0.0
 10
1.00596062992126
 20
-1.579496062992126
 30
0.0
 10
1.677866141732284
 20
-1.192318897637795
 30
0.0
 10
1.677866141732284
 20
-1.192318897637795
 30
0.0
 10
1.677866141732284
 20
-1.192318897637795
 30
0.0
 10
1.677866141732284
 20
-1.192318897637795
 30
0.0
 10
1.677720472440945
 20
-1.120110236220473
 30
0.0
 10
1.677720472440945
 20
-1.120110236220473
 30
0.0
 10
1.677720472440945
 20
-1.120110236220473
 30
0.0
 10
1.677720472440945
 20
-1.120110236220473
 30
0.0
 10
1.005814960629921
 20
-1.507287401574803
 30
0.0
 10
1.005814960629921
 20
-1.507287401574803
 30
0.0
 10
1.005814960629921
 20
-1.507287401574803
 30
0.0
 10
1.005814960629921
 20
-1.507287401574803
 30
0.0
 10
1.00596062992126
 20
-1.579496062992126
 30
0.0
 10
1.00596062992126
 20
-1.579496062992126
 30
0.0
  0
SPLINE
  5
32
330
1F
100
AcDbEntity
  8
Layer 1
 62
   253
100
AcDbSpline
210
0.0
220
0.0
230
1.0
 70
    11
 71
     3
 72
    20
 73
    16
 74
     0
 42
0.0000000001
 43
0.0000000001
 40
0.0
 40
0.0
 40
0.0
 40
0.0
 40
0.25
 40
0.25
 40
0.25
 40
0.25
 40
0.5
 40
0.5
 40
0.5
 40
0.5
 40
0.75
 40
0.75
 40
0.75
 40
0.75
 40
1.0
 40
1.0
 40
1.0
 40
1.0
 10
1.005814960629921
 20
-1.507287401574803
 30
0.0
 10
1.005814960629921
 20
-1.507287401574803
 30
0.0
 10
1.677720472440945
 20
-1.120110236220473
 30
0.0
 10
1.677720472440945
 20
-1.120110236220473
 30
0.0
 10
1.677720472440945
 20
-1.120110236220473
 30
0.0
 10
1.677720472440945
 20
-1.120110236220473
 30
0.0
 10
1.664992125984252
 20
-1.047125984251969
 30
0.0
 10
1.664992125984252
 20
-1.047125984251969
 30
0.0
 10
1.664992125984252
 20
-1.047125984251969
 30
0.0
 10
1.664992125984252
 20
-1.047125984251969
 30
0.0
 10
0.9930866141732284
 20
-1.434303149606299
 30
0.0
 10
0.9930866141732284
 20
-1.434303149606299
 30
0.0
 10
0.9930866141732284
 20
-1.434303149606299
 30
0.0
 10
0.9930866141732284
 20
-1.434303149606299
 30
0.0
 10
1.005814960629921
 20
-1.507287401574803
 30
0.0
 10
1.005814960629921
 20
-1.507287401574803
 30
0.0
  0
SPLINE
  5
33
330
1F
100
AcDbEntity
  8
Layer 1
 62
   253
100
AcDbSpline
210
0.0
220
0.0
230
1.0
 70
    11
 71
     3
 72
    20
 73
    16
 74
     0
 42
0.0000000001
 43
0.0000000001
 40
0.0
 40
0.0
 40
0.0
 40
0.0
 40
0.25
 40
0.25
 40
0.25
 40
0.25
 40
0.5
 40
0.5
 40
0.5
 40
0.5
 40
0.75
 40
0.75
 40
0.75
 40
0.75
 40
1.0
 40
1.0
 40
1.0
 40
1.0
 10
0.9930866141732284
 20
-1.434303149606299
 30
0.0
 10
0.9930866141732284
 20
-1.434303149606299
 30
0.0
 10
1.664992125984252
 20
-1.047125984251969
 30
0.0
 10
1.664992125984252
 20
-1.047125984251969
 30
0.0
 10
1.664992125984252
 20
-1.047125984251969
 30
0.0
 10
1.664992125984252
 20
-1.047125984251969
 30
0.0
 10
1.640200787401575
 20
-0.9738937007874016
 30
0.0
 10
1.640200787401575
 20
-0.9738937007874016
 30
0.0
 10
1.640200787401575
 20
-0.9738937007874016
 30
0.0
 10
1.640200787401575
 20
-0.9738937007874016
 30
0.0
 10
0.9682952755905512
 20
-1.361070866141732
 30
0.0
 10
0.9682952755905512
 20
-1.361070866141732
 30
0.0
 10
0.9682952755905512
 20
-1.361070866141732
 30
0.0
 10
0.9682952755905512
 20
-1.361070866141732
 30
0.0
 10
0.9930866141732284
 20
-1.434303149606299
 30
0.0
 10
0.9930866141732284
 20
-1.434303149606299
 30
0.0
  0
SPLINE
  5
34
330
1F
100
AcDbEntity
  8
Layer 1
 62
   253
100
AcDbSpline
210
0.0
220
0.0
230
1.0
 70
    11
 71
     3
 72
    20
 73
    16
 74
     0
 42
0.0000000001
 43
0.0000000001
 40
0.0
 40
0.0
 40
0.0
 40
0.0
 40
0.25
 40
0.25
 40
0.25
 40
0.25
 40
0.5
 40
0.5
 40
0.5
 40
0.5
 40
0.75
 40
0.75
 40
0.75
 40
0.75
 40
1.0
 40
1.0
 40
1.0
 40
1.0
 10
0.9682952755905512
 20
-1.361070866141732
 30
0.0
 10
0.9682952755905512
 20
-1.361070866141732
 30
0.0
 10
1.640200787401575
 20
-0.9738937007874016
 30
0.0
 10
1.640200787401575
 20
-0.9738937007874016
 30
0.0
 10
1.640200787401575
 20
-0.9738937007874016
 30
0.0
 10
1.640200787401575
 20
-0.9738937007874016
 30
0.0
 10
1.603913385826772
 20
-0.9009173228346457
 30
0.0
 10
1.603913385826772
 20
-0.9009173228346457
 30
0.0
 10
1.603913385826772
 20
-0.9009173228346457
 30
0.0
 10
1.603913385826772
 20
-0.9009173228346457
 30
0.0
 10
0.932007874015748
 20
-1.288094488188976
 30
0.0
 10
0.932007874015748
 20
-1.288094488188976
 30
0.0
 10
0.932007874015748
 20
-1.288094488188976
 30
0.0
 10
0.932007874015748
 20
-1.288094488188976
 30
0.0
 10
0.9682952755905512
 20
-1.361070866141732
 30
0.0
 10
0.9682952755905512
 20
-1.361070866141732
 30
0.0
  0
SPLINE
  5
35
330
1F
100
AcDbEntity
  8
Layer 1
 62
   253
100
AcDbSpline
210
0.0
220
0.0
230
1.0
 70
    11
 71
     3
 72
    20
 73
    16
 74
     0
 42
0.0000000001
 43
0.0000000001
 40
0.0
 40
0.0
 40
0.0
 40
0.0
 40
0.25
 40
0.25
 40
0.25
 40
0.25
 40
0.5
 40
0.5
 40
0.5
 40
0.5
 40
0.75
 40
0.75
 40
0.75
 40
0.75
 40
1.0
 40
1.0
 40
1.0
 40
1.0
 10
0.932007874015748
 20
-1.288094488188976
 30
0.0
 10
0.932007874015748
 20
-1.288094488188976
 30
0.0
 10
1.603913385826772
 20
-0.9009173228346457
 30
0.0
 10
1.603913385826772
 20
-0.9009173228346457
 30
0.0
 10
1.603913385826772
 20
-0.9009173228346457
 30
0.0
 10
1.603913385826772
 20
-0.9009173228346457
 30
0.0
 10
1.556665354330709
 20
-0.8287125984251968
 30
0.0
 10
1.556665354330709
 20
-0.8287125984251968
 30
0.0
 10
1.556665354330709
 20
-0.8287125984251968
 30
0.0
 10
1.556665354330709
 20
-0.8287125984251968
 30
0.0
 10
0.8847598425196851
 20
-1.215889763779528
 30
0.0
 10
0.8847598425196851
 20
-1.215889763779528
 30
0.0
 10
0.8847598425196851
 20
-1.215889763779528
 30
0.0
 10
0.8847598425196851
 20
-1.215889763779528
 30
0.0
 10
0.932007874015748
 20
-1.288094488188976
 30
0.0
 10
0.932007874015748
 20
-1.288094488188976
 30
0.0
  0
SPLINE
  5
36
330
1F
100
AcDbEntity
  8
Layer 1
 62
   253
100
AcDbSpline
210
0.0
220
0.0
230
1.0
 70
    11
 71
     3
 72
    20
 73
    16
 74
     0
 42
0.0000000001
 43
0.0000000001
 40
0.0
 40
0.0
 40
0.0
 40
0.0
 40
0.25
 40
0.25
 40
0.25
 40
0.25
 40
0.5
 40
0.5
 40
0.5
 40
0.5
 40
0.75
 40
0.75
 40
0.75
 40
0.75
 40
1.0
 40
1.0
 40
1.0
 40
1.0
 10
0.8847598425196851
 20
-1.215889763779528
 30
0.0
 10
0.8847598425196851
 20
-1.215889763779528
 30
0.0
 10
1.556665354330709
 20
-0.8287125984251968
 30
0.0
 10
1.556665354330709
 20
-0.8287125984251968
 30
0.0
 10
1.556665354330709
 20
-0.8287125984251968
 30
0.0
 10
1.556665354330709
 20
-0.8287125984251968
 30
0.0
 10
1.499003937007874
 20
-0.7577795275590552
 30
0.0
 10
1.499003937007874
 20
-0.7577795275590552
 30
0.0
 10
1.499003937007874
 20
-0.7577795275590552
 30
0.0
 10
1.499003937007874
 20
-0.7577795275590552
 30
0.0
 10
0.8270984251968504
 20
-1.144956692913386
 30
0.0
 10
0.8270984251968504
 20
-1.144956692913386
 30
0.0
 10
0.8270984251968504
 20
-1.144956692913386
 30
0.0
 10
0.8270984251968504
 20
-1.144956692913386
 30
0.0
 10
0.8847598425196851
 20
-1.215889763779528
 30
0.0
 10
0.8847598425196851
 20
-1.215889763779528
 30
0.0
  0
SPLINE
  5
37
330
1F
100
AcDbEntity
  8
Layer 1
 62
   253
100
AcDbSpline
210
0.0
220
0.0
230
1.0
 70
    11
 71
     3
 72
    20
 73
    16
 74
     0
 42
0.0000000001
 43
0.0000000001
 40
0.0
 40
0.0
 40
0.0
 40
0.0
 40
0.25
 40
0.25
 40
0.25
 40
0.25
 40
0.5
 40
0.5
 40
0.5
 40
0.5
 40
0.75
 40
0.75
 40
0.75
 40
0.75
 40
1.0
 40
1.0
 40
1.0
 40
1.0
 10
0.8270984251968504
 20
-1.144956692913386
 30
0.0
 10
0.8270984251968504
 20
-1.144956692913386
 30
0.0
 10
1.499003937007874
 20
-0.7577795275590552
 30
0.0
 10
1.499003937007874
 20
-0.7577795275590552
 30
0.0
 10
1.499003937007874
 20
-0.7577795275590552
 30
0.0
 10
1.499003937007874
 20
-0.7577795275590552
 30
0.0
 10
1.431472440944882
 20
-0.6886535433070866
 30
0.0
 10
1.431472440944882
 20
-0.6886535433070866
 30
0.0
 10
1.431472440944882
 20
-0.6886535433070866
 30
0.0
 10
1.431472440944882
 20
-0.6886535433070866
 30
0.0
 10
0.7595669291338583
 20
-1.075830708661417
 30
0.0
 10
0.7595669291338583
 20
-1.075830708661417
 30
0.0
 10
0.7595669291338583
 20
-1.075830708661417
 30
0.0
 10
0.7595669291338583
 20
-1.075830708661417
 30
0.0
 10
0.8270984251968504
 20
-1.144956692913386
 30
0.0
 10
0.8270984251968504
 20
-1.144956692913386
 30
0.0
  0
SPLINE
  5
38
330
1F
100
AcDbEntity
  8
Layer 1
 62
   252
100
AcDbSpline
210
0.0
220
0.0
230
1.0
 70
    11
 71
     3
 72
    20
 73
    16
 74
     0
 42
0.0000000001
 43
0.0000000001
 40
0.0
 40
0.0
 40
0.0
 40
0.0
 40
0.25
 40
0.25
 40
0.25
 40
0.25
 40
0.5
 40
0.5
 40
0.5
 40
0.5
 40
0.75
 40
0.75
 40
0.75
 40
0.75
 40
1.0
 40
1.0
 40
1.0
 40
1.0
 10
0.7595669291338583
 20
-1.075830708661417
 30
0.0
 10
0.7595669291338583
 20
-1.075830708661417
 30
0.0
 10
1.431472440944882
 20
-0.6886535433070866
 30
0.0
 10
1.431472440944882
 20
-0.6886535433070866
 30
0.0
 10
1.431472440944882
 20
-0.6886535433070866
 30
0.0
 10
1.431472440944882
 20
-0.6886535433070866
 30
0.0
 10
1.354622047244095
 20
-0.6218267716535433
 30
0.0
 10
1.354622047244095
 20
-0.6218267716535433
 30
0.0
 10
1.354622047244095
 20
-0.6218267716535433
 30
0.0
 10
1.354622047244095
 20
-0.6218267716535433
 30
0.0
 10
0.6827165354330709
 20
-1.009003937007874
 30
0.0
 10
0.6827165354330709
 20
-1.009003937007874
 30
0.0
 10
0.6827165354330709
 20
-1.009003937007874
 30
0.0
 10
0.6827165354330709
 20
-1.009003937007874
 30
0.0
 10
0.7595669291338583
 20
-1.075830708661417
 30
0.0
 10
0.7595669291338583
 20
-1.075830708661417
 30
0.0
  0
SPLINE
  5
39
330
1F
100
AcDbEntity
  8
Layer 1
 62
   252
100
AcDbSpline
210
0.0
220
0.0
230
1.0
 70
    11
 71
     3
 72
    20
 73
    16
 74
     0
 42
0.0000000001
 43
0.0000000001
 40
0.0
 40
0.0
 40
0.0
 40
0.0
 40
0.25
 40
0.25
 40
0.25
 40
0.25
 40
0.5
 40
0.5
 40
0.5
 40
0.5
 40
0.75
 40
0.75
 40
0.75
 40
0.75
 40
1.0
 40
1.0
 40
1.0
 40
1.0
 10
0.6827165354330709
 20
-1.009003937007874
 30
0.0
 10
0.6827165354330709
 20
-1.009003937007874
 30
0.0
 10
1.354622047244095
 20
-0.6218267716535433
 30
0.0
 10
1.354622047244095
 20
-0.6218267716535433
 30
0.0
 10
1.354622047244095
 20
-0.6218267716535433
 30
0.0
 10
1.354622047244095
 20
-0.6218267716535433
 30
0.0
 10
1.268996062992126
 20
-0.5578228346456693
 30
0.0
 10
1.268996062992126
 20
-0.5578228346456693
 30
0.0
 10
1.268996062992126
 20
-0.5578228346456693
 30
0.0
 10
1.268996062992126
 20
-0.5578228346456693
 30
0.0
 10
0.5970905511811024
 20
-0.9450000000000001
 30
0.0
 10
0.5970905511811024
 20
-0.9450000000000001
 30
0.0
 10
0.5970905511811024
 20
-0.9450000000000001
 30
0.0
 10
0.5970905511811024
 20
-0.9450000000000001
 30
0.0
 10
0.6827165354330709
 20
-1.009003937007874
 30
0.0
 10
0.6827165354330709
 20
-1.009003937007874
 30
0.0
  0
SPLINE
  5
3A
330
1F
100
AcDbEntity
  8
Layer 1
 62
   252
100
AcDbSpline
210
0.0
220
0.0
230
1.0
 70
    11
 71
     3
 72
    20
 73
    16
 74
     0
 42
0.0000000001
 43
0.0000000001
 40
0.0
 40
0.0
 40
0.0
 40
0.0
 40
0.25
 40
0.25
 40
0.25
 40
0.25
 40
0.5
 40
0.5
 40
0.5
 40
0.5
 40
0.75
 40
0.75
 40
0.75
 40
0.75
 40
1.0
 40
1.0
 40
1.0
 40
1.0
 10
0.5970905511811024
 20
-0.9450000000000001
 30
0.0
 10
0.5970905511811024
 20
-0.9450000000000001
 30
0.0
 10
1.268996062992126
 20
-0.5578228346456693
 30
0.0
 10
1.268996062992126
 20
-0.5578228346456693
 30
0.0
 10
1.268996062992126
 20
-0.5578228346456693
 30
0.0
 10
1.268996062992126
 20
-0.5578228346456693
 30
0.0
 10
1.175141732283465
 20
-0.4971456692913386
 30
0.0
 10
1.175141732283465
 20
-0.4971456692913386
 30
0.0
 10
1.175141732283465
 20
-0.4971456692913386
 30
0.0
 10
1.175141732283465
 20
-0.4971456692913386
 30
0.0
 10
0.503236220472441
 20
-0.8843228346456693
 30
0.0
 10
0.503236220472441
 20
-0.8843228346456693
 30
0.0
 10
0.503236220472441
 20
-0.8843228346456693
 30
0.0
 10
0.503236220472441
 20
-0.8843228346456693
 30
0.0
 10
0.5970905511811024
 20
-0.9450000000000001
 30
0.0
 10
0.5970905511811024
 20
-0.9450000000000001
 30
0.0
  0
SPLINE
  5
3B
330
1F
100
AcDbEntity
  8
Layer 1
 62
   252
100
AcDbSpline
210
0.0
220
0.0
230
1.0
 70
    11
 71
     3
 72
    20
 73
    16
 74
     0
 42
0.0000000001
 43
0.0000000001
 40
0.0
 40
0.0
 40
0.0
 40
0.0
 40
0.25
 40
0.25
 40
0.25
 40
0.25
 40
0.5
 40
0.5
 40
0.5
 40
0.5
 40
0.75
 40
0.75
 40
0.75
 40
0.75
 40
1.0
 40
1.0
 40
1.0
 40
1.0
 10
0.503236220472441
 20
-0.8843228346456693
 30
0.0
 10
0.503236220472441
 20
-0.8843228346456693
 30
0.0
 10
1.175141732283465
 20
-0.4971456692913386
 30
0.0
 10
1.175141732283465
 20
-0.4971456692913386
 30
0.0
 10
1.175141732283465
 20
-0.4971456692913386
 30
0.0
 10
1.175141732283465
 20
-0.4971456692913386
 30
0.0
 10
1.073590551181102
 20
-0.4403228346456693
 30
0.0
 10
1.073590551181102
 20
-0.4403228346456693
 30
0.0
 10
1.073590551181102
 20
-0.4403228346456693
 30
0.0
 10
1.073590551181102
 20
-0.4403228346456693
 30
0.0
 10
0.4016850393700788
 20
-0.8275
 30
0.0
 10
0.4016850393700788
 20
-0.8275
 30
0.0
 10
0.4016850393700788
 20
-0.8275
 30
0.0
 10
0.4016850393700788
 20
-0.8275
 30
0.0
 10
0.503236220472441
 20
-0.8843228346456693
 30
0.0
 10
0.503236220472441
 20
-0.8843228346456693
 30
0.0
  0
SPLINE
  5
3C
330
1F
100
AcDbEntity
  8
Layer 1
 62
   252
100
AcDbSpline
210
0.0
220
0.0
230
1.0
 70
    11
 71
     3
 72
    20
 73
    16
 74
     0
 42
0.0000000001
 43
0.0000000001
 40
0.0
 40
0.0
 40
0.0
 40
0.0
 40
0.25
 40
0.25
 40
0.25
 40
0.25
 40
0.5
 40
0.5
 40
0.5
 40
0.5
 40
0.75
 40
0.75
 40
0.75
 40
0.75
 40
1.0
 40
1.0
 40
1.0
 40
1.0
 10
0.4016850393700788
 20
-0.8275
 30
0.0
 10
0.4016850393700788
 20
-0.8275
 30
0.0
 10
1.073590551181102
 20
-0.4403228346456693
 30
0.0
 10
1.073590551181102
 20
-0.4403228346456693
 30
0.0
 10
1.073590551181102
 20
-0.4403228346456693
 30
0.0
 10
1.073590551181102
 20
-0.4403228346456693
 30
0.0
 10
0.9649055118110237
 20
-0.3878503937007874
 30
0.0
 10
0.9649055118110237
 20
-0.3878503937007874
 30
0.0
 10
0.9649055118110237
 20
-0.3878503937007874
 30
0.0
 10
0.9649055118110237
 20
-0.3878503937007874
 30
0.0
 10
0.293
 20
-0.7750275590551181
 30
0.0
 10
0.293
 20
-0.7750275590551181
 30
0.0
 10
0.293
 20
-0.7750275590551181
 30
0.0
 10
0.293
 20
-0.7750275590551181
 30
0.0
 10
0.4016850393700788
 20
-0.8275
 30
0.0
 10
0.4016850393700788
 20
-0.8275
 30
0.0
  0
SPLINE
  5
3D
330
1F
100
AcDbEntity
  8
Layer 1
 62
   252
100
AcDbSpline
210
0.0
220
0.0
230
1.0
 70
    11
 71
     3
 72
    20
 73
    16
 74
     0
 42
0.0000000001
 43
0.0000000001
 40
0.0
 40
0.0
 40
0.0
 40
0.0
 40
0.25
 40
0.25
 40
0.25
 40
0.25
 40
0.5
 40
0.5
 40
0.5
 40
0.5
 40
0.75
 40
0.75
 40
0.75
 40
0.75
 40
1.0
 40
1.0
 40
1.0
 40
1.0
 10
0.293
 20
-0.7750275590551181
 30
0.0
 10
0.293
 20
-0.7750275590551181
 30
0.0
 10
0.9649055118110237
 20
-0.3878503937007874
 30
0.0
 10
0.9649055118110237
 20
-0.3878503937007874
 30
0.0
 10
0.9649055118110237
 20
-0.3878503937007874
 30
0.0
 10
0.9649055118110237
 20
-0.3878503937007874
 30
0.0
 10
0.8496181102362205
 20
-0.340251968503937
 30
0.0
 10
0.8496181102362205
 20
-0.340251968503937
 30
0.0
 10
0.8496181102362205
 20
-0.340251968503937
 30
0.0
 10
0.8496181102362205
 20
-0.340251968503937
 30
0.0
 10
0.1777125984251969
 20
-0.7274291338582678
 30
0.0
 10
0.1777125984251969
 20
-0.7274291338582678
 30
0.0
 10
0.1777125984251969
 20
-0.7274291338582678
 30
0.0
 10
0.1777125984251969
 20
-0.7274291338582678
 30
0.0
 10
0.293
 20
-0.7750275590551181
 30
0.0
 10
0.293
 20
-0.7750275590551181
 30
0.0
  0
SPLINE
  5
3E
330
1F
100
AcDbEntity
  8
Layer 1
 62
   252
100
AcDbSpline
210
0.0
220
0.0
230
1.0
 70
    11
 71
     3
 72
    20
 73
    16
 74
     0
 42
0.0000000001
 43
0.0000000001
 40
0.0
 40
0.0
 40
0.0
 40
0.0
 40
0.25
 40
0.25
 40
0.25
 40
0.25
 40
0.5
 40
0.5
 40
0.5
 40
0.5
 40
0.75
 40
0.75
 40
0.75
 40
0.75
 40
1.0
 40
1.0
 40
1.0
 40
1.0
 10
0.1777125984251969
 20
-0.7274291338582678
 30
0.0
 10
0.1777125984251969
 20
-0.7274291338582678
 30
0.0
 10
0.8496181102362205
 20
-0.340251968503937
 30
0.0
 10
0.8496181102362205
 20
-0.340251968503937
 30
0.0
 10
0.8496181102362205
 20
-0.340251968503937
 30
0.0
 10
0.8496181102362205
 20
-0.340251968503937
 30
0.0
 10
0.7282913385826771
 20
-0.2980275590551181
 30
0.0
 10
0.7282913385826771
 20
-0.2980275590551181
 30
0.0
 10
0.7282913385826771
 20
-0.2980275590551181
 30
0.0
 10
0.7282913385826771
 20
-0.2980275590551181
 30
0.0
 10
0.0563858267716535
 20
-0.6852047244094488
 30
0.0
 10
0.0563858267716535
 20
-0.6852047244094488
 30
0.0
 10
0.0563858267716535
 20
-0.6852047244094488
 30
0.0
 10
0.0563858267716535
 20
-0.6852047244094488
 30
0.0
 10
0.1777125984251969
 20
-0.7274291338582678
 30
0.0
 10
0.1777125984251969
 20
-0.7274291338582678
 30
0.0
  0
SPLINE
  5
3F
330
1F
100
AcDbEntity
  8
Layer 1
 62
   252
100
AcDbSpline
210
0.0
220
0.0
230
1.0
 70
    11
 71
     3
 72
    20
 73
    16
 74
     0
 42
0.0000000001
 43
0.0000000001
 40
0.0
 40
0.0
 40
0.0
 40
0.0
 40
0.25
 40
0.25
 40
0.25
 40
0.25
 40
0.5
 40
0.5
 40
0.5
 40
0.5
 40
0.75
 40
0.75
 40
0.75
 40
0.75
 40
1.0
 40
1.0
 40
1.0
 40
1.0
 10
0.0563858267716535
 20
-0.6852047244094488
 30
0.0
 10
0.0563858267716535
 20
-0.6852047244094488
 30
0.0
 10
0.7282913385826771
 20
-0.2980275590551181
 30
0.0
 10
0.7282913385826771
 20
-0.2980275590551181
 30
0.0
 10
0.7282913385826771
 20
-0.2980275590551181
 30
0.0
 10
0.7282913385826771
 20
-0.2980275590551181
 30
0.0
 10
0.6014606299212598
 20
-0.2617086614173229
 30
0.0
 10
0.6014606299212598
 20
-0.2617086614173229
 30
0.0
 10
0.6014606299212598
 20
-0.2617086614173229
 30
0.0
 10
0.6014606299212598
 20
-0.2617086614173229
 30
0.0
 10
-0.0704448818897638
 20
-0.6488858267716535
 30
0.0
 10
-0.0704448818897638
 20
-0.6488858267716535
 30
0.0
 10
-0.0704448818897638
 20
-0.6488858267716535
 30
0.0
 10
-0.0704448818897638
 20
-0.6488858267716535
 30
0.0
 10
0.0563858267716535
 20
-0.6852047244094488
 30
0.0
 10
0.0563858267716535
 20
-0.6852047244094488
 30
0.0
  0
SPLINE
  5
40
330
1F
100
AcDbEntity
  8
Layer 1
 62
   252
100
AcDbSpline
210
0.0
220
0.0
230
1.0
 70
    11
 71
     3
 72
    20
 73
    16
 74
     0
 42
0.0000000001
 43
0.0000000001
 40
0.0
 40
0.0
 40
0.0
 40
0.0
 40
0.25
 40
0.25
 40
0.25
 40
0.25
 40
0.5
 40
0.5
 40
0.5
 40
0.5
 40
0.75
 40
0.75
 40
0.75
 40
0.75
 40
1.0
 40
1.0
 40
1.0
 40
1.0
 10
-0.0704448818897638
 20
-0.6488858267716535
 30
0.0
 10
-0.0704448818897638
 20
-0.6488858267716535
 30
0.0
 10
0.6014606299212598
 20
-0.2617086614173229
 30
0.0
 10
0.6014606299212598
 20
-0.2617086614173229
 30
0.0
 10
0.6014606299212598
 20
-0.2617086614173229
 30
0.0
 10
0.6014606299212598
 20
-0.2617086614173229
 30
0.0
 10
0.4696574803149606
 20
-0.2317913385826772
 30
0.0
 10
0.4696574803149606
 20
-0.2317913385826772
 30
0.0
 10
0.4696574803149606
 20
-0.2317913385826772
 30
0.0
 10
0.4696574803149606
 20
-0.2317913385826772
 30
0.0
 10
-0.202248031496063
 20
-0.6189685039370079
 30
0.0
 10
-0.202248031496063
 20
-0.6189685039370079
 30
0.0
 10
-0.202248031496063
 20
-0.6189685039370079
 30
0.0
 10
-0.202248031496063
 20
-0.6189685039370079
 30
0.0
 10
-0.0704448818897638
 20
-0.6488858267716535
 30
0.0
 10
-0.0704448818897638
 20
-0.6488858267716535
 30
0.0
  0
SPLINE
  5
41
330
1F
100
AcDbEntity
  8
Layer 1
 62
   252
100
AcDbSpline
210
0.0
220
0.0
230
1.0
 70
    11
 71
     3
 72
    20
 73
    16
 74
     0
 42
0.0000000001
 43
0.0000000001
 40
0.0
 40
0.0
 40
0.0
 40
0.0
 40
0.25
 40
0.25
 40
0.25
 40
0.25
 40
0.5
 40
0.5
 40
0.5
 40
0.5
 40
0.75
 40
0.75
 40
0.75
 40
0.75
 40
1.0
 40
1.0
 40
1.0
 40
1.0
 10
-0.202248031496063
 20
-0.6189685039370079
 30
0.0
 10
-0.202248031496063
 20
-0.6189685039370079
 30
0.0
 10
0.4696574803149606
 20
-0.2317913385826772
 30
0.0
 10
0.4696574803149606
 20
-0.2317913385826772
 30
0.0
 10
0.4696574803149606
 20
-0.2317913385826772
 30
0.0
 10
0.4696574803149606
 20
-0.2317913385826772
 30
0.0
 10
0.3334448818897638
 20
-0.2087952755905512
 30
0.0
 10
0.3334448818897638
 20
-0.2087952755905512
 30
0.0
 10
0.3334448818897638
 20
-0.2087952755905512
 30
0.0
 10
0.3334448818897638
 20
-0.2087952755905512
 30
0.0
 10
-0.3384606299212599
 20
-0.5959724409448819
 30
0.0
 10
-0.3384606299212599
 20
-0.5959724409448819
 30
0.0
 10
-0.3384606299212599
 20
-0.5959724409448819
 30
0.0
 10
-0.3384606299212599
 20
-0.5959724409448819
 30
0.0
 10
-0.202248031496063
 20
-0.6189685039370079
 30
0.0
 10
-0.202248031496063
 20
-0.6189685039370079
 30
0.0
  0
SPLINE
  5
42
330
1F
100
AcDbEntity
  8
Layer 1
 62
   252
100
AcDbSpline
210
0.0
220
0.0
230
1.0
 70
    11
 71
     3
 72
    20
 73
    16
 74
     0
 42
0.0000000001
 43
0.0000000001
 40
0.0
 40
0.0
 40
0.0
 40
0.0
 40
0.25
 40
0.25
 40
0.25
 40
0.25
 40
0.5
 40
0.5
 40
0.5
 40
0.5
 40
0.75
 40
0.75
 40
0.75
 40
0.75
 40
1.0
 40
1.0
 40
1.0
 40
1.0
 10
-0.3384606299212599
 20
-0.5959724409448819
 30
0.0
 10
-0.3384606299212599
 20
-0.5959724409448819
 30
0.0
 10
0.3334448818897638
 20
-0.2087952755905512
 30
0.0
 10
0.3334448818897638
 20
-0.2087952755905512
 30
0.0
 10
0.3334448818897638
 20
-0.2087952755905512
 30
0.0
 10
0.3334448818897638
 20
-0.2087952755905512
 30
0.0
 10
0.1933543307086614
 20
-0.1932283464566929
 30
0.0
 10
0.1933543307086614
 20
-0.1932283464566929
 30
0.0
 10
0.1933543307086614
 20
-0.1932283464566929
 30
0.0
 10
0.1933543307086614
 20
-0.1932283464566929
 30
0.0
 10
-0.4785511811023622
 20
-0.5804055118110236
 30
0.0
 10
-0.4785511811023622
 20
-0.5804055118110236
 30
0.0
 10
-0.4785511811023622
 20
-0.5804055118110236
 30
0.0
 10
-0.4785511811023622
 20
-0.5804055118110236
 30
0.0
 10
-0.3384606299212599
 20
-0.5959724409448819
 30
0.0
 10
-0.3384606299212599
 20
-0.5959724409448819
 30
0.0
  0
SPLINE
  5
43
330
1F
100
AcDbEntity
  8
Layer 1
 62
   250
370
     5
100
AcDbSpline
210
0.0
220
0.0
230
1.0
 70
    11
 71
     3
 72
   196
 73
   192
 74
     0
 42
0.0000000001
 43
0.0000000001
 40
0.0
 40
0.0
 40
0.0
 40
0.0
 40
0.0208333333333333
 40
0.0208333333333333
 40
0.0208333333333333
 40
0.0208333333333333
 40
0.0416666666666667
 40
0.0416666666666667
 40
0.0416666666666667
 40
0.0416666666666667
 40
0.0625
 40
0.0625
 40
0.0625
 40
0.0625
 40
0.0833333333333333
 40
0.0833333333333333
 40
0.0833333333333333
 40
0.0833333333333333
 40
0.1041666666666667
 40
0.1041666666666667
 40
0.1041666666666667
 40
0.1041666666666667
 40
0.125
 40
0.125
 40
0.125
 40
0.125
 40
0.1458333333333333
 40
0.1458333333333333
 40
0.1458333333333333
 40
0.1458333333333333
 40
0.1666666666666667
 40
0.1666666666666667
 40
0.1666666666666667
 40
0.1666666666666667
 40
0.1875
 40
0.1875
 40
0.1875
 40
0.1875
 40
0.2083333333333333
 40
0.2083333333333333
 40
0.2083333333333333
 40
0.2083333333333333
 40
0.2291666666666667
 40
0.2291666666666667
 40
0.2291666666666667
 40
0.2291666666666667
 40
0.25
 40
0.25
 40
0.25
 40
0.25
 40
0.2708333333333333
 40
0.2708333333333333
 40
0.2708333333333333
 40
0.2708333333333333
 40
0.2916666666666666
 40
0.2916666666666666
 40
0.2916666666666666
 40
0.2916666666666666
 40
0.3124999999999999
 40
0.3124999999999999
 40
0.3124999999999999
 40
0.3124999999999999
 40
0.3333333333333333
 40
0.3333333333333333
 40
0.3333333333333333
 40
0.3333333333333333
 40
0.3541666666666666
 40
0.3541666666666666
 40
0.3541666666666666
 40
0.3541666666666666
 40
0.3749999999999999
 40
0.3749999999999999
 40
0.3749999999999999
 40
0.3749999999999999
 40
0.3958333333333332
 40
0.3958333333333332
 40
0.3958333333333332
 40
0.3958333333333332
 40
0.4166666666666665
 40
0.4166666666666665
 40
0.4166666666666665
 40
0.4166666666666665
 40
0.4374999999999998
 40
0.4374999999999998
 40
0.4374999999999998
 40
0.4374999999999998
 40
0.4583333333333332
 40
0.4583333333333332
 40
0.4583333333333332
 40
0.4583333333333332
 40
0.4791666666666665
 40
0.4791666666666665
 40
0.4791666666666665
 40
0.4791666666666665
 40
0.4999999999999998
 40
0.4999999999999998
 40
0.4999999999999998
 40
0.4999999999999998
 40
0.5208333333333332
 40
0.5208333333333332
 40
0.5208333333333332
 40
0.5208333333333332
 40
0.5416666666666665
 40
0.5416666666666665
 40
0.5416666666666665
 40
0.5416666666666665
 40
0.5624999999999999
 40
0.5624999999999999
 40
0.5624999999999999
 40
0.5624999999999999
 40
0.5833333333333333
 40
0.5833333333333333
 40
0.5833333333333333
 40
0.5833333333333333
 40
0.6041666666666666
 40
0.6041666666666666
 40
0.6041666666666666
 40
0.6041666666666666
 40
0.625
 40
0.625
 40
0.625
 40
0.625
 40
0.6458333333333334
 40
0.6458333333333334
 40
0.6458333333333334
 40
0.6458333333333334
 40
0.6666666666666667
 40
0.6666666666666667
 40
0.6666666666666667
 40
0.6666666666666667
 40
0.6875000000000001
 40
0.6875000000000001
 40
0.6875000000000001
 40
0.6875000000000001
 40
0.7083333333333335
 40
0.7083333333333335
 40
0.7083333333333335
 40
0.7083333333333335
 40
0.7291666666666669
 40
0.7291666666666669
 40
0.7291666666666669
 40
0.7291666666666669
 40
0.7500000000000002
 40
0.7500000000000002
 40
0.7500000000000002
 40
0.7500000000000002
 40
0.7708333333333336
 40
0.7708333333333336
 40
0.7708333333333336
 40
0.7708333333333336
 40
0.791666666666667
 40
0.791666666666667
 40
0.791666666666667
 40
0.791666666666667
 40
0.8125000000000003
 40
0.8125000000000003
 40
0.8125000000000003
 40
0.8125000000000003
 40
0.8333333333333337
 40
0.8333333333333337
 40
0.8333333333333337
 40
0.8333333333333337
 40
0.8541666666666671
 40
0.8541666666666671
 40
0.8541666666666671
 40
0.8541666666666671
 40
0.8750000000000004
 40
0.8750000000000004
 40
0.8750000000000004
 40
0.8750000000000004
 40
0.8958333333333338
 40
0.8958333333333338
 40
0.8958333333333338
 40
0.8958333333333338
 40
0.9166666666666672
 40
0.9166666666666672
 40
0.9166666666666672
 40
0.9166666666666672
 40
0.9375000000000006
 40
0.9375000000000006
 40
0.9375000000000006
 40
0.9375000000000006
 40
0.9583333333333339
 40
0.9583333333333339
 40
0.9583333333333339
 40
0.9583333333333339
 40
0.9791666666666673
 40
0.9791666666666673
 40
0.9791666666666673
 40
0.9791666666666673
 40
1.0
 40
1.0
 40
1.0
 40
1.0
 10
0.7986732283464567
 20
-1.911090551181103
 30
0.0
 10
0.7986732283464567
 20
-1.911090551181103
 30
0.0
 10
1.47057874015748
 20
-1.523913385826772
 30
0.0
 10
1.47057874015748
 20
-1.523913385826772
 30
0.0
 10
1.47057874015748
 20
-1.523913385826772
 30
0.0
 10
1.47057874015748
 20
-1.523913385826772
 30
0.0
 10
1.541586614173228
 20
-1.463232283464567
 30
0.0
 10
1.541586614173228
 20
-1.463232283464567
 30
0.0
 10
1.541586614173228
 20
-1.463232283464567
 30
0.0
 10
1.541586614173228
 20
-1.463232283464567
 30
0.0
 10
1.597271653543307
 20
-1.399220472440945
 30
0.0
 10
1.597271653543307
 20
-1.399220472440945
 30
0.0
 10
1.597271653543307
 20
-1.399220472440945
 30
0.0
 10
1.597271653543307
 20
-1.399220472440945
 30
0.0
 10
1.638188976377953
 20
-1.332385826771654
 30
0.0
 10
1.638188976377953
 20
-1.332385826771654
 30
0.0
 10
1.638188976377953
 20
-1.332385826771654
 30
0.0
 10
1.638188976377953
 20
-1.332385826771654
 30
0.0
 10
1.664866141732283
 20
-1.263251968503937
 30
0.0
 10
1.664866141732283
 20
-1.263251968503937
 30
0.0
 10
1.664866141732283
 20
-1.263251968503937
 30
0.0
 10
1.664866141732283
 20
-1.263251968503937
 30
0.0
 10
1.677866141732284
 20
-1.192318897637795
 30
0.0
 10
1.677866141732284
 20
-1.192318897637795
 30
0.0
 10
1.677866141732284
 20
-1.192318897637795
 30
0.0
 10
1.677866141732284
 20
-1.192318897637795
 30
0.0
 10
1.677720472440945
 20
-1.120110236220473
 30
0.0
 10
1.677720472440945
 20
-1.120110236220473
 30
0.0
 10
1.677720472440945
 20
-1.120110236220473
 30
0.0
 10
1.677720472440945
 20
-1.120110236220473
 30
0.0
 10
1.664992125984252
 20
-1.047125984251969
 30
0.0
 10
1.664992125984252
 20
-1.047125984251969
 30
0.0
 10
1.664992125984252
 20
-1.047125984251969
 30
0.0
 10
1.664992125984252
 20
-1.047125984251969
 30
0.0
 10
1.640200787401575
 20
-0.9738937007874016
 30
0.0
 10
1.640200787401575
 20
-0.9738937007874016
 30
0.0
 10
1.640200787401575
 20
-0.9738937007874016
 30
0.0
 10
1.640200787401575
 20
-0.9738937007874016
 30
0.0
 10
1.603913385826772
 20
-0.9009173228346457
 30
0.0
 10
1.603913385826772
 20
-0.9009173228346457
 30
0.0
 10
1.603913385826772
 20
-0.9009173228346457
 30
0.0
 10
1.603913385826772
 20
-0.9009173228346457
 30
0.0
 10
1.556665354330709
 20
-0.8287125984251968
 30
0.0
 10
1.556665354330709
 20
-0.8287125984251968
 30
0.0
 10
1.556665354330709
 20
-0.8287125984251968
 30
0.0
 10
1.556665354330709
 20
-0.8287125984251968
 30
0.0
 10
1.499003937007874
 20
-0.7577795275590552
 30
0.0
 10
1.499003937007874
 20
-0.7577795275590552
 30
0.0
 10
1.499003937007874
 20
-0.7577795275590552
 30
0.0
 10
1.499003937007874
 20
-0.7577795275590552
 30
0.0
 10
1.431472440944882
 20
-0.6886535433070866
 30
0.0
 10
1.431472440944882
 20
-0.6886535433070866
 30
0.0
 10
1.431472440944882
 20
-0.6886535433070866
 30
0.0
 10
1.431472440944882
 20
-0.6886535433070866
 30
0.0
 10
1.354622047244095
 20
-0.6218267716535433
 30
0.0
 10
1.354622047244095
 20
-0.6218267716535433
 30
0.0
 10
1.354622047244095
 20
-0.6218267716535433
 30
0.0
 10
1.354622047244095
 20
-0.6218267716535433
 30
0.0
 10
1.268996062992126
 20
-0.5578228346456693
 30
0.0
 10
1.268996062992126
 20
-0.5578228346456693
 30
0.0
 10
1.268996062992126
 20
-0.5578228346456693
 30
0.0
 10
1.268996062992126
 20
-0.5578228346456693
 30
0.0
 10
1.175141732283465
 20
-0.4971456692913386
 30
0.0
 10
1.175141732283465
 20
-0.4971456692913386
 30
0.0
 10
1.175141732283465
 20
-0.4971456692913386
 30
0.0
 10
1.175141732283465
 20
-0.4971456692913386
 30
0.0
 10
1.073590551181102
 20
-0.4403228346456693
 30
0.0
 10
1.073590551181102
 20
-0.4403228346456693
 30
0.0
 10
1.073590551181102
 20
-0.4403228346456693
 30
0.0
 10
1.073590551181102
 20
-0.4403228346456693
 30
0.0
 10
0.9649055118110237
 20
-0.3878503937007874
 30
0.0
 10
0.9649055118110237
 20
-0.3878503937007874
 30
0.0
 10
0.9649055118110237
 20
-0.3878503937007874
 30
0.0
 10
0.9649055118110237
 20
-0.3878503937007874
 30
0.0
 10
0.8496181102362205
 20
-0.340251968503937
 30
0.0
 10
0.8496181102362205
 20
-0.340251968503937
 30
0.0
 10
0.8496181102362205
 20
-0.340251968503937
 30
0.0
 10
0.8496181102362205
 20
-0.340251968503937
 30
0.0
 10
0.7282913385826771
 20
-0.2980275590551181
 30
0.0
 10
0.7282913385826771
 20
-0.2980275590551181
 30
0.0
 10
0.7282913385826771
 20
-0.2980275590551181
 30
0.0
 10
0.7282913385826771
 20
-0.2980275590551181
 30
0.0
 10
0.6014606299212598
 20
-0.2617086614173229
 30
0.0
 10
0.6014606299212598
 20
-0.2617086614173229
 30
0.0
 10
0.6014606299212598
 20
-0.2617086614173229
 30
0.0
 10
0.6014606299212598
 20
-0.2617086614173229
 30
0.0
 10
0.4696574803149606
 20
-0.2317913385826772
 30
0.0
 10
0.4696574803149606
 20
-0.2317913385826772
 30
0.0
 10
0.4696574803149606
 20
-0.2317913385826772
 30
0.0
 10
0.4696574803149606
 20
-0.2317913385826772
 30
0.0
 10
0.3334448818897638
 20
-0.2087952755905512
 30
0.0
 10
0.3334448818897638
 20
-0.2087952755905512
 30
0.0
 10
0.3334448818897638
 20
-0.2087952755905512
 30
0.0
 10
0.3334448818897638
 20
-0.2087952755905512
 30
0.0
 10
0.1933543307086614
 20
-0.1932283464566929
 30
0.0
 10
0.1933543307086614
 20
-0.1932283464566929
 30
0.0
 10
0.1933543307086614
 20
-0.1932283464566929
 30
0.0
 10
0.1933543307086614
 20
-0.1932283464566929
 30
0.0
 10
-0.4785511811023622
 20
-0.5804055118110236
 30
0.0
 10
-0.4785511811023622
 20
-0.5804055118110236
 30
0.0
 10
-0.4785511811023622
 20
-0.5804055118110236
 30
0.0
 10
-0.4785511811023622
 20
-0.5804055118110236
 30
0.0
 10
-0.3384606299212599
 20
-0.5959724409448819
 30
0.0
 10
-0.3384606299212599
 20
-0.5959724409448819
 30
0.0
 10
-0.3384606299212599
 20
-0.5959724409448819
 30
0.0
 10
-0.3384606299212599
 20
-0.5959724409448819
 30
0.0
 10
-0.202248031496063
 20
-0.6189685039370079
 30
0.0
 10
-0.202248031496063
 20
-0.6189685039370079
 30
0.0
 10
-0.202248031496063
 20
-0.6189685039370079
 30
0.0
 10
-0.202248031496063
 20
-0.6189685039370079
 30
0.0
 10
-0.0704448818897638
 20
-0.6488858267716535
 30
0.0
 10
-0.0704448818897638
 20
-0.6488858267716535
 30
0.0
 10
-0.0704448818897638
 20
-0.6488858267716535
 30
0.0
 10
-0.0704448818897638
 20
-0.6488858267716535
 30
0.0
 10
0.0563858267716535
 20
-0.6852047244094488
 30
0.0
 10
0.0563858267716535
 20
-0.6852047244094488
 30
0.0
 10
0.0563858267716535
 20
-0.6852047244094488
 30
0.0
 10
0.0563858267716535
 20
-0.6852047244094488
 30
0.0
 10
0.1777125984251969
 20
-0.7274291338582678
 30
0.0
 10
0.1777125984251969
 20
-0.7274291338582678
 30
0.0
 10
0.1777125984251969
 20
-0.7274291338582678
 30
0.0
 10
0.1777125984251969
 20
-0.7274291338582678
 30
0.0
 10
0.293
 20
-0.7750275590551181
 30
0.0
 10
0.293
 20
-0.7750275590551181
 30
0.0
 10
0.293
 20
-0.7750275590551181
 30
0.0
 10
0.293
 20
-0.7750275590551181
 30
0.0
 10
0.4016850393700788
 20
-0.8275
 30
0.0
 10
0.4016850393700788
 20
-0.8275
 30
0.0
 10
0.4016850393700788
 20
-0.8275
 30
0.0
 10
0.4016850393700788
 20
-0.8275
 30
0.0
 10
0.503236220472441
 20
-0.8843228346456693
 30
0.0
 10
0.503236220472441
 20
-0.8843228346456693
 30
0.0
 10
0.503236220472441
 20
-0.8843228346456693
 30
0.0
 10
0.503236220472441
 20
-0.8843228346456693
 30
0.0
 10
0.5970905511811024
 20
-0.9450000000000001
 30
0.0
 10
0.5970905511811024
 20
-0.9450000000000001
 30
0.0
 10
0.5970905511811024
 20
-0.9450000000000001
 30
0.0
 10
0.5970905511811024
 20
-0.9450000000000001
 30
0.0
 10
0.6827165354330709
 20
-1.009003937007874
 30
0.0
 10
0.6827165354330709
 20
-1.009003937007874
 30
0.0
 10
0.6827165354330709
 20
-1.009003937007874
 30
0.0
 10
0.6827165354330709
 20
-1.009003937007874
 30
0.0
 10
0.7595669291338583
 20
-1.075830708661417
 30
0.0
 10
0.7595669291338583
 20
-1.075830708661417
 30
0.0
 10
0.7595669291338583
 20
-1.075830708661417
 30
0.0
 10
0.7595669291338583
 20
-1.075830708661417
 30
0.0
 10
0.8270984251968504
 20
-1.144956692913386
 30
0.0
 10
0.8270984251968504
 20
-1.144956692913386
 30
0.0
 10
0.8270984251968504
 20
-1.144956692913386
 30
0.0
 10
0.8270984251968504
 20
-1.144956692913386
 30
0.0
 10
0.8847598425196851
 20
-1.215889763779528
 30
0.0
 10
0.8847598425196851
 20
-1.215889763779528
 30
0.0
 10
0.8847598425196851
 20
-1.215889763779528
 30
0.0
 10
0.8847598425196851
 20
-1.215889763779528
 30
0.0
 10
0.932007874015748
 20
-1.288094488188976
 30
0.0
 10
0.932007874015748
 20
-1.288094488188976
 30
0.0
 10
0.932007874015748
 20
-1.288094488188976
 30
0.0
 10
0.932007874015748
 20
-1.288094488188976
 30
0.0
 10
0.9682952755905512
 20
-1.361070866141732
 30
0.0
 10
0.9682952755905512
 20
-1.361070866141732
 30
0.0
 10
0.9682952755905512
 20
-1.361070866141732
 30
0.0
 10
0.9682952755905512
 20
-1.361070866141732
 30
0.0
 10
0.9930866141732284
 20
-1.434303149606299
 30
0.0
 10
0.9930866141732284
 20
-1.434303149606299
 30
0.0
 10
0.9930866141732284
 20
-1.434303149606299
 30
0.0
 10
0.9930866141732284
 20
-1.434303149606299
 30
0.0
 10
1.005814960629921
 20
-1.507287401574803
 30
0.0
 10
1.005814960629921
 20
-1.507287401574803
 30
0.0
 10
1.005814960629921
 20
-1.507287401574803
 30
0.0
 10
1.005814960629921
 20
-1.507287401574803
 30
0.0
 10
1.00596062992126
 20
-1.579496062992126
 30
0.0
 10
1.00596062992126
 20
-1.579496062992126
 30
0.0
 10
1.00596062992126
 20
-1.579496062992126
 30
0.0
 10
1.00596062992126
 20
-1.579496062992126
 30
0.0
 10
0.9929606299212599
 20
-1.650429133858268
 30
0.0
 10
0.9929606299212599
 20
-1.650429133858268
 30
0.0
 10
0.9929606299212599
 20
-1.650429133858268
 30
0.0
 10
0.9929606299212599
 20
-1.650429133858268
 30
0.0
 10
0.9662834645669292
 20
-1.719562992125984
 30
0.0
 10
0.9662834645669292
 20
-1.719562992125984
 30
0.0
 10
0.9662834645669292
 20
-1.719562992125984
 30
0.0
 10
0.9662834645669292
 20
-1.719562992125984
 30
0.0
 10
0.9253661417322835
 20
-1.786397637795276
 30
0.0
 10
0.9253661417322835
 20
-1.786397637795276
 30
0.0
 10
0.9253661417322835
 20
-1.786397637795276
 30
0.0
 10
0.9253661417322835
 20
-1.786397637795276
 30
0.0
 10
0.8696811023622048
 20
-1.850409448818898
 30
0.0
 10
0.8696811023622048
 20
-1.850409448818898
 30
0.0
 10
0.8696811023622048
 20
-1.850409448818898
 30
0.0
 10
0.8696811023622048
 20
-1.850409448818898
 30
0.0
 10
0.7986732283464567
 20
-1.911090551181103
 30
0.0
 10
0.7986732283464567
 20
-1.911090551181103
 30
0.0
  0
SPLINE
  5
44
330
1F
100
AcDbEntity
  8
Layer 1
 62
   252
100
AcDbSpline
210
0.0
220
0.0
230
1.0
 70
    11
 71
     3
 72
    20
 73
    16
 74
     0
 42
0.0000000001
 43
0.0000000001
 40
0.0
 40
0.0
 40
0.0
 40
0.0
 40
0.25
 40
0.25
 40
0.25
 40
0.25
 40
0.5
 40
0.5
 40
0.5
 40
0.5
 40
0.75
 40
0.75
 40
0.75
 40
0.75
 40
1.0
 40
1.0
 40
1.0
 40
1.0
 10
-0.4785511811023622
 20
-0.5804055118110236
 30
0.0
 10
-0.4785511811023622
 20
-0.5804055118110236
 30
0.0
 10
0.1933543307086614
 20
-0.1932283464566929
 30
0.0
 10
0.1933543307086614
 20
-0.1932283464566929
 30
0.0
 10
0.1933543307086614
 20
-0.1932283464566929
 30
0.0
 10
0.1933543307086614
 20
-0.1932283464566929
 30
0.0
 10
-1.319937007874016
 20
-0.0881535433070866
 30
0.0
 10
-1.319937007874016
 20
-0.0881535433070866
 30
0.0
 10
-1.319937007874016
 20
-0.0881535433070866
 30
0.0
 10
-1.319937007874016
 20
-0.0881535433070866
 30
0.0
 10
-1.991842519685039
 20
-0.4753307086614174
 30
0.0
 10
-1.991842519685039
 20
-0.4753307086614174
 30
0.0
 10
-1.991842519685039
 20
-0.4753307086614174
 30
0.0
 10
-1.991842519685039
 20
-0.4753307086614174
 30
0.0
 10
-0.4785511811023622
 20
-0.5804055118110236
 30
0.0
 10
-0.4785511811023622
 20
-0.5804055118110236
 30
0.0
  0
SPLINE
  5
45
330
1F
100
AcDbEntity
  8
Layer 1
 62
   250
370
     5
100
AcDbSpline
210
0.0
220
0.0
230
1.0
 70
    11
 71
     3
 72
    20
 73
    16
 74
     0
 42
0.0000000001
 43
0.0000000001
 40
0.0
 40
0.0
 40
0.0
 40
0.0
 40
0.25
 40
0.25
 40
0.25
 40
0.25
 40
0.5
 40
0.5
 40
0.5
 40
0.5
 40
0.75
 40
0.75
 40
0.75
 40
0.75
 40
1.0
 40
1.0
 40
1.0
 40
1.0
 10
-0.4785511811023622
 20
-0.5804055118110236
 30
0.0
 10
-0.4785511811023622
 20
-0.5804055118110236
 30
0.0
 10
0.1933543307086614
 20
-0.1932283464566929
 30
0.0
 10
0.1933543307086614
 20
-0.1932283464566929
 30
0.0
 10
0.1933543307086614
 20
-0.1932283464566929
 30
0.0
 10
0.1933543307086614
 20
-0.1932283464566929
 30
0.0
 10
-1.319937007874016
 20
-0.0881535433070866
 30
0.0
 10
-1.319937007874016
 20
-0.0881535433070866
 30
0.0
 10
-1.319937007874016
 20
-0.0881535433070866
 30
0.0
 10
-1.319937007874016
 20
-0.0881535433070866
 30
0.0
 10
-1.991842519685039
 20
-0.4753307086614174
 30
0.0
 10
-1.991842519685039
 20
-0.4753307086614174
 30
0.0
 10
-1.991842519685039
 20
-0.4753307086614174
 30
0.0
 10
-1.991842519685039
 20
-0.4753307086614174
 30
0.0
 10
-0.4785511811023622
 20
-0.5804055118110236
 30
0.0
 10
-0.4785511811023622
 20
-0.5804055118110236
 30
0.0
  0
SPLINE
  5
46
330
1F
100
AcDbEntity
  8
Layer 1
 62
   252
100
AcDbSpline
210
0.0
220
0.0
230
1.0
 70
    11
 71
     3
 72
    20
 73
    16
 74
     0
 42
0.0000000001
 43
0.0000000001
 40
0.0
 40
0.0
 40
0.0
 40
0.0
 40
0.25
 40
0.25
 40
0.25
 40
0.25
 40
0.5
 40
0.5
 40
0.5
 40
0.5
 40
0.75
 40
0.75
 40
0.75
 40
0.75
 40
1.0
 40
1.0
 40
1.0
 40
1.0
 10
0.7986732283464567
 20
-1.911090551181103
 30
0.0
 10
0.7986732283464567
 20
-1.911090551181103
 30
0.0
 10
1.47057874015748
 20
-1.523913385826772
 30
0.0
 10
1.47057874015748
 20
-1.523913385826772
 30
0.0
 10
1.47057874015748
 20
-1.523913385826772
 30
0.0
 10
1.47057874015748
 20
-1.523913385826772
 30
0.0
 10
1.541586614173228
 20
-1.463232283464567
 30
0.0
 10
1.541586614173228
 20
-1.463232283464567
 30
0.0
 10
1.541586614173228
 20
-1.463232283464567
 30
0.0
 10
1.541586614173228
 20
-1.463232283464567
 30
0.0
 10
0.8696811023622048
 20
-1.850409448818898
 30
0.0
 10
0.8696811023622048
 20
-1.850409448818898
 30
0.0
 10
0.8696811023622048
 20
-1.850409448818898
 30
0.0
 10
0.8696811023622048
 20
-1.850409448818898
 30
0.0
 10
0.7986732283464567
 20
-1.911090551181103
 30
0.0
 10
0.7986732283464567
 20
-1.911090551181103
 30
0.0
  0
SPLINE
  5
47
330
1F
100
AcDbEntity
  8
Layer 1
 62
   253
100
AcDbSpline
210
0.0
220
0.0
230
1.0
 70
    11
 71
     3
 72
    20
 73
    16
 74
     0
 42
0.0000000001
 43
0.0000000001
 40
0.0
 40
0.0
 40
0.0
 40
0.0
 40
0.25
 40
0.25
 40
0.25
 40
0.25
 40
0.5
 40
0.5
 40
0.5
 40
0.5
 40
0.75
 40
0.75
 40
0.75
 40
0.75
 40
1.0
 40
1.0
 40
1.0
 40
1.0
 10
0.8696811023622048
 20
-1.850409448818898
 30
0.0
 10
0.8696811023622048
 20
-1.850409448818898
 30
0.0
 10
1.541586614173228
 20
-1.463232283464567
 30
0.0
 10
1.541586614173228
 20
-1.463232283464567
 30
0.0
 10
1.541586614173228
 20
-1.463232283464567
 30
0.0
 10
1.541586614173228
 20
-1.463232283464567
 30
0.0
 10
1.597271653543307
 20
-1.399220472440945
 30
0.0
 10
1.597271653543307
 20
-1.399220472440945
 30
0.0
 10
1.597271653543307
 20
-1.399220472440945
 30
0.0
 10
1.597271653543307
 20
-1.399220472440945
 30
0.0
 10
0.9253661417322835
 20
-1.786397637795276
 30
0.0
 10
0.9253661417322835
 20
-1.786397637795276
 30
0.0
 10
0.9253661417322835
 20
-1.786397637795276
 30
0.0
 10
0.9253661417322835
 20
-1.786397637795276
 30
0.0
 10
0.8696811023622048
 20
-1.850409448818898
 30
0.0
 10
0.8696811023622048
 20
-1.850409448818898
 30
0.0
  0
SPLINE
  5
48
330
1F
100
AcDbEntity
  8
Layer 1
 62
   253
100
AcDbSpline
210
0.0
220
0.0
230
1.0
 70
    11
 71
     3
 72
    20
 73
    16
 74
     0
 42
0.0000000001
 43
0.0000000001
 40
0.0
 40
0.0
 40
0.0
 40
0.0
 40
0.25
 40
0.25
 40
0.25
 40
0.25
 40
0.5
 40
0.5
 40
0.5
 40
0.5
 40
0.75
 40
0.75
 40
0.75
 40
0.75
 40
1.0
 40
1.0
 40
1.0
 40
1.0
 10
0.9253661417322835
 20
-1.786397637795276
 30
0.0
 10
0.9253661417322835
 20
-1.786397637795276
 30
0.0
 10
1.597271653543307
 20
-1.399220472440945
 30
0.0
 10
1.597271653543307
 20
-1.399220472440945
 30
0.0
 10
1.597271653543307
 20
-1.399220472440945
 30
0.0
 10
1.597271653543307
 20
-1.399220472440945
 30
0.0
 10
1.638188976377953
 20
-1.332385826771654
 30
0.0
 10
1.638188976377953
 20
-1.332385826771654
 30
0.0
 10
1.638188976377953
 20
-1.332385826771654
 30
0.0
 10
1.638188976377953
 20
-1.332385826771654
 30
0.0
 10
0.9662834645669292
 20
-1.719562992125984
 30
0.0
 10
0.9662834645669292
 20
-1.719562992125984
 30
0.0
 10
0.9662834645669292
 20
-1.719562992125984
 30
0.0
 10
0.9662834645669292
 20
-1.719562992125984
 30
0.0
 10
0.9253661417322835
 20
-1.786397637795276
 30
0.0
 10
0.9253661417322835
 20
-1.786397637795276
 30
0.0
  0
SPLINE
  5
49
330
1F
100
AcDbEntity
  8
Layer 1
 62
   253
100
AcDbSpline
210
0.0
220
0.0
230
1.0
 70
    11
 71
     3
 72
    20
 73
    16
 74
     0
 42
0.0000000001
 43
0.0000000001
 40
0.0
 40
0.0
 40
0.0
 40
0.0
 40
0.25
 40
0.25
 40
0.25
 40
0.25
 40
0.5
 40
0.5
 40
0.5
 40
0.5
 40
0.75
 40
0.75
 40
0.75
 40
0.75
 40
1.0
 40
1.0
 40
1.0
 40
1.0
 10
0.9662834645669292
 20
-1.719562992125984
 30
0.0
 10
0.9662834645669292
 20
-1.719562992125984
 30
0.0
 10
1.638188976377953
 20
-1.332385826771654
 30
0.0
 10
1.638188976377953
 20
-1.332385826771654
 30
0.0
 10
1.638188976377953
 20
-1.332385826771654
 30
0.0
 10
1.638188976377953
 20
-1.332385826771654
 30
0.0
 10
1.664866141732283
 20
-1.263251968503937
 30
0.0
 10
1.664866141732283
 20
-1.263251968503937
 30
0.0
 10
1.664866141732283
 20
-1.263251968503937
 30
0.0
 10
1.664866141732283
 20
-1.263251968503937
 30
0.0
 10
0.9929606299212599
 20
-1.650429133858268
 30
0.0
 10
0.9929606299212599
 20
-1.650429133858268
 30
0.0
 10
0.9929606299212599
 20
-1.650429133858268
 30
0.0
 10
0.9929606299212599
 20
-1.650429133858268
 30
0.0
 10
0.9662834645669292
 20
-1.719562992125984
 30
0.0
 10
0.9662834645669292
 20
-1.719562992125984
 30
0.0
  0
SPLINE
  5
4A
330
1F
100
AcDbEntity
  8
Layer 1
 62
   253
100
AcDbSpline
210
0.0
220
0.0
230
1.0
 70
    11
 71
     3
 72
    20
 73
    16
 74
     0
 42
0.0000000001
 43
0.0000000001
 40
0.0
 40
0.0
 40
0.0
 40
0.0
 40
0.25
 40
0.25
 40
0.25
 40
0.25
 40
0.5
 40
0.5
 40
0.5
 40
0.5
 40
0.75
 40
0.75
 40
0.75
 40
0.75
 40
1.0
 40
1.0
 40
1.0
 40
1.0
 10
0.9929606299212599
 20
-1.650429133858268
 30
0.0
 10
0.9929606299212599
 20
-1.650429133858268
 30
0.0
 10
1.664866141732283
 20
-1.263251968503937
 30
0.0
 10
1.664866141732283
 20
-1.263251968503937
 30
0.0
 10
1.664866141732283
 20
-1.263251968503937
 30
0.0
 10
1.664866141732283
 20
-1.263251968503937
 30
0.0
 10
1.677866141732284
 20
-1.192318897637795
 30
0.0
 10
1.677866141732284
 20
-1.192318897637795
 30
0.0
 10
1.677866141732284
 20
-1.192318897637795
 30
0.0
 10
1.677866141732284
 20
-1.192318897637795
 30
0.0
 10
1.00596062992126
 20
-1.579496062992126
 30
0.0
 10
1.00596062992126
 20
-1.579496062992126
 30
0.0
 10
1.00596062992126
 20
-1.579496062992126
 30
0.0
 10
1.00596062992126
 20
-1.579496062992126
 30
0.0
 10
0.9929606299212599
 20
-1.650429133858268
 30
0.0
 10
0.9929606299212599
 20
-1.650429133858268
 30
0.0
  0
SPLINE
  5
4B
330
1F
100
AcDbEntity
  8
Layer 1
 62
   253
100
AcDbSpline
210
0.0
220
0.0
230
1.0
 70
    11
 71
     3
 72
    20
 73
    16
 74
     0
 42
0.0000000001
 43
0.0000000001
 40
0.0
 40
0.0
 40
0.0
 40
0.0
 40
0.25
 40
0.25
 40
0.25
 40
0.25
 40
0.5
 40
0.5
 40
0.5
 40
0.5
 40
0.75
 40
0.75
 40
0.75
 40
0.75
 40
1.0
 40
1.0
 40
1.0
 40
1.0
 10
1.00596062992126
 20
-1.579496062992126
 30
0.0
 10
1.00596062992126
 20
-1.579496062992126
 30
0.0
 10
1.677866141732284
 20
-1.192318897637795
 30
0.0
 10
1.677866141732284
 20
-1.192318897637795
 30
0.0
 10
1.677866141732284
 20
-1.192318897637795
 30
0.0
 10
1.677866141732284
 20
-1.192318897637795
 30
0.0
 10
1.677720472440945
 20
-1.120110236220473
 30
0.0
 10
1.677720472440945
 20
-1.120110236220473
 30
0.0
 10
1.677720472440945
 20
-1.120110236220473
 30
0.0
 10
1.677720472440945
 20
-1.120110236220473
 30
0.0
 10
1.005814960629921
 20
-1.507287401574803
 30
0.0
 10
1.005814960629921
 20
-1.507287401574803
 30
0.0
 10
1.005814960629921
 20
-1.507287401574803
 30
0.0
 10
1.005814960629921
 20
-1.507287401574803
 30
0.0
 10
1.00596062992126
 20
-1.579496062992126
 30
0.0
 10
1.00596062992126
 20
-1.579496062992126
 30
0.0
  0
SPLINE
  5
4C
330
1F
100
AcDbEntity
  8
Layer 1
 62
   253
100
AcDbSpline
210
0.0
220
0.0
230
1.0
 70
    11
 71
     3
 72
    20
 73
    16
 74
     0
 42
0.0000000001
 43
0.0000000001
 40
0.0
 40
0.0
 40
0.0
 40
0.0
 40
0.25
 40
0.25
 40
0.25
 40
0.25
 40
0.5
 40
0.5
 40
0.5
 40
0.5
 40
0.75
 40
0.75
 40
0.75
 40
0.75
 40
1.0
 40
1.0
 40
1.0
 40
1.0
 10
1.005814960629921
 20
-1.507287401574803
 30
0.0
 10
1.005814960629921
 20
-1.507287401574803
 30
0.0
 10
1.677720472440945
 20
-1.120110236220473
 30
0.0
 10
1.677720472440945
 20
-1.120110236220473
 30
0.0
 10
1.677720472440945
 20
-1.120110236220473
 30
0.0
 10
1.677720472440945
 20
-1.120110236220473
 30
0.0
 10
1.664992125984252
 20
-1.047125984251969
 30
0.0
 10
1.664992125984252
 20
-1.047125984251969
 30
0.0
 10
1.664992125984252
 20
-1.047125984251969
 30
0.0
 10
1.664992125984252
 20
-1.047125984251969
 30
0.0
 10
0.9930866141732284
 20
-1.434303149606299
 30
0.0
 10
0.9930866141732284
 20
-1.434303149606299
 30
0.0
 10
0.9930866141732284
 20
-1.434303149606299
 30
0.0
 10
0.9930866141732284
 20
-1.434303149606299
 30
0.0
 10
1.005814960629921
 20
-1.507287401574803
 30
0.0
 10
1.005814960629921
 20
-1.507287401574803
 30
0.0
  0
SPLINE
  5
4D
330
1F
100
AcDbEntity
  8
Layer 1
 62
   253
100
AcDbSpline
210
0.0
220
0.0
230
1.0
 70
    11
 71
     3
 72
    20
 73
    16
 74
     0
 42
0.0000000001
 43
0.0000000001
 40
0.0
 40
0.0
 40
0.0
 40
0.0
 40
0.25
 40
0.25
 40
0.25
 40
0.25
 40
0.5
 40
0.5
 40
0.5
 40
0.5
 40
0.75
 40
0.75
 40
0.75
 40
0.75
 40
1.0
 40
1.0
 40
1.0
 40
1.0
 10
0.9930866141732284
 20
-1.434303149606299
 30
0.0
 10
0.9930866141732284
 20
-1.434303149606299
 30
0.0
 10
1.664992125984252
 20
-1.047125984251969
 30
0.0
 10
1.664992125984252
 20
-1.047125984251969
 30
0.0
 10
1.664992125984252
 20
-1.047125984251969
 30
0.0
 10
1.664992125984252
 20
-1.047125984251969
 30
0.0
 10
1.640200787401575
 20
-0.9738937007874016
 30
0.0
 10
1.640200787401575
 20
-0.9738937007874016
 30
0.0
 10
1.640200787401575
 20
-0.9738937007874016
 30
0.0
 10
1.640200787401575
 20
-0.9738937007874016
 30
0.0
 10
0.9682952755905512
 20
-1.361070866141732
 30
0.0
 10
0.9682952755905512
 20
-1.361070866141732
 30
0.0
 10
0.9682952755905512
 20
-1.361070866141732
 30
0.0
 10
0.9682952755905512
 20
-1.361070866141732
 30
0.0
 10
0.9930866141732284
 20
-1.434303149606299
 30
0.0
 10
0.9930866141732284
 20
-1.434303149606299
 30
0.0
  0
SPLINE
  5
4E
330
1F
100
AcDbEntity
  8
Layer 1
 62
   253
100
AcDbSpline
210
0.0
220
0.0
230
1.0
 70
    11
 71
     3
 72
    20
 73
    16
 74
     0
 42
0.0000000001
 43
0.0000000001
 40
0.0
 40
0.0
 40
0.0
 40
0.0
 40
0.25
 40
0.25
 40
0.25
 40
0.25
 40
0.5
 40
0.5
 40
0.5
 40
0.5
 40
0.75
 40
0.75
 40
0.75
 40
0.75
 40
1.0
 40
1.0
 40
1.0
 40
1.0
 10
0.9682952755905512
 20
-1.361070866141732
 30
0.0
 10
0.9682952755905512
 20
-1.361070866141732
 30
0.0
 10
1.640200787401575
 20
-0.9738937007874016
 30
0.0
 10
1.640200787401575
 20
-0.9738937007874016
 30
0.0
 10
1.640200787401575
 20
-0.9738937007874016
 30
0.0
 10
1.640200787401575
 20
-0.9738937007874016
 30
0.0
 10
1.603913385826772
 20
-0.9009173228346457
 30
0.0
 10
1.603913385826772
 20
-0.9009173228346457
 30
0.0
 10
1.603913385826772
 20
-0.9009173228346457
 30
0.0
 10
1.603913385826772
 20
-0.9009173228346457
 30
0.0
 10
0.932007874015748
 20
-1.288094488188976
 30
0.0
 10
0.932007874015748
 20
-1.288094488188976
 30
0.0
 10
0.932007874015748
 20
-1.288094488188976
 30
0.0
 10
0.932007874015748
 20
-1.288094488188976
 30
0.0
 10
0.9682952755905512
 20
-1.361070866141732
 30
0.0
 10
0.9682952755905512
 20
-1.361070866141732
 30
0.0
  0
SPLINE
  5
4F
330
1F
100
AcDbEntity
  8
Layer 1
 62
   253
100
AcDbSpline
210
0.0
220
0.0
230
1.0
 70
    11
 71
     3
 72
    20
 73
    16
 74
     0
 42
0.0000000001
 43
0.0000000001
 40
0.0
 40
0.0
 40
0.0
 40
0.0
 40
0.25
 40
0.25
 40
0.25
 40
0.25
 40
0.5
 40
0.5
 40
0.5
 40
0.5
 40
0.75
 40
0.75
 40
0.75
 40
0.75
 40
1.0
 40
1.0
 40
1.0
 40
1.0
 10
0.932007874015748
 20
-1.288094488188976
 30
0.0
 10
0.932007874015748
 20
-1.288094488188976
 30
0.0
 10
1.603913385826772
 20
-0.9009173228346457
 30
0.0
 10
1.603913385826772
 20
-0.9009173228346457
 30
0.0
 10
1.603913385826772
 20
-0.9009173228346457
 30
0.0
 10
1.603913385826772
 20
-0.9009173228346457
 30
0.0
 10
1.556665354330709
 20
-0.8287125984251968
 30
0.0
 10
1.556665354330709
 20
-0.8287125984251968
 30
0.0
 10
1.556665354330709
 20
-0.8287125984251968
 30
0.0
 10
1.556665354330709
 20
-0.8287125984251968
 30
0.0
 10
0.8847598425196851
 20
-1.215889763779528
 30
0.0
 10
0.8847598425196851
 20
-1.215889763779528
 30
0.0
 10
0.8847598425196851
 20
-1.215889763779528
 30
0.0
 10
0.8847598425196851
 20
-1.215889763779528
 30
0.0
 10
0.932007874015748
 20
-1.288094488188976
 30
0.0
 10
0.932007874015748
 20
-1.288094488188976
 30
0.0
  0
SPLINE
  5
50
330
1F
100
AcDbEntity
  8
Layer 1
 62
   253
100
AcDbSpline
210
0.0
220
0.0
230
1.0
 70
    11
 71
     3
 72
    20
 73
    16
 74
     0
 42
0.0000000001
 43
0.0000000001
 40
0.0
 40
0.0
 40
0.0
 40
0.0
 40
0.25
 40
0.25
 40
0.25
 40
0.25
 40
0.5
 40
0.5
 40
0.5
 40
0.5
 40
0.75
 40
0.75
 40
0.75
 40
0.75
 40
1.0
 40
1.0
 40
1.0
 40
1.0
 10
0.8847598425196851
 20
-1.215889763779528
 30
0.0
 10
0.8847598425196851
 20
-1.215889763779528
 30
0.0
 10
1.556665354330709
 20
-0.8287125984251968
 30
0.0
 10
1.556665354330709
 20
-0.8287125984251968
 30
0.0
 10
1.556665354330709
 20
-0.8287125984251968
 30
0.0
 10
1.556665354330709
 20
-0.8287125984251968
 30
0.0
 10
1.499003937007874
 20
-0.7577795275590552
 30
0.0
 10
1.499003937007874
 20
-0.7577795275590552
 30
0.0
 10
1.499003937007874
 20
-0.7577795275590552
 30
0.0
 10
1.499003937007874
 20
-0.7577795275590552
 30
0.0
 10
0.8270984251968504
 20
-1.144956692913386
 30
0.0
 10
0.8270984251968504
 20
-1.144956692913386
 30
0.0
 10
0.8270984251968504
 20
-1.144956692913386
 30
0.0
 10
0.8270984251968504
 20
-1.144956692913386
 30
0.0
 10
0.8847598425196851
 20
-1.215889763779528
 30
0.0
 10
0.8847598425196851
 20
-1.215889763779528
 30
0.0
  0
SPLINE
  5
51
330
1F
100
AcDbEntity
  8
Layer 1
 62
   253
100
AcDbSpline
210
0.0
220
0.0
230
1.0
 70
    11
 71
     3
 72
    20
 73
    16
 74
     0
 42
0.0000000001
 43
0.0000000001
 40
0.0
 40
0.0
 40
0.0
 40
0.0
 40
0.25
 40
0.25
 40
0.25
 40
0.25
 40
0.5
 40
0.5
 40
0.5
 40
0.5
 40
0.75
 40
0.75
 40
0.75
 40
0.75
 40
1.0
 40
1.0
 40
1.0
 40
1.0
 10
0.8270984251968504
 20
-1.144956692913386
 30
0.0
 10
0.8270984251968504
 20
-1.144956692913386
 30
0.0
 10
1.499003937007874
 20
-0.7577795275590552
 30
0.0
 10
1.499003937007874
 20
-0.7577795275590552
 30
0.0
 10
1.499003937007874
 20
-0.7577795275590552
 30
0.0
 10
1.499003937007874
 20
-0.7577795275590552
 30
0.0
 10
1.431472440944882
 20
-0.6886535433070866
 30
0.0
 10
1.431472440944882
 20
-0.6886535433070866
 30
0.0
 10
1.431472440944882
 20
-0.6886535433070866
 30
0.0
 10
1.431472440944882
 20
-0.6886535433070866
 30
0.0
 10
0.7595669291338583
 20
-1.075830708661417
 30
0.0
 10
0.7595669291338583
 20
-1.075830708661417
 30
0.0
 10
0.7595669291338583
 20
-1.075830708661417
 30
0.0
 10
0.7595669291338583
 20
-1.075830708661417
 30
0.0
 10
0.8270984251968504
 20
-1.144956692913386
 30
0.0
 10
0.8270984251968504
 20
-1.144956692913386
 30
0.0
  0
SPLINE
  5
52
330
1F
100
AcDbEntity
  8
Layer 1
 62
   252
100
AcDbSpline
210
0.0
220
0.0
230
1.0
 70
    11
 71
     3
 72
    20
 73
    16
 74
     0
 42
0.0000000001
 43
0.0000000001
 40
0.0
 40
0.0
 40
0.0
 40
0.0
 40
0.25
 40
0.25
 40
0.25
 40
0.25
 40
0.5
 40
0.5
 40
0.5
 40
0.5
 40
0.75
 40
0.75
 40
0.75
 40
0.75
 40
1.0
 40
1.0
 40
1.0
 40
1.0
 10
0.7595669291338583
 20
-1.075830708661417
 30
0.0
 10
0.7595669291338583
 20
-1.075830708661417
 30
0.0
 10
1.431472440944882
 20
-0.6886535433070866
 30
0.0
 10
1.431472440944882
 20
-0.6886535433070866
 30
0.0
 10
1.431472440944882
 20
-0.6886535433070866
 30
0.0
 10
1.431472440944882
 20
-0.6886535433070866
 30
0.0
 10
1.354622047244095
 20
-0.6218267716535433
 30
0.0
 10
1.354622047244095
 20
-0.6218267716535433
 30
0.0
 10
1.354622047244095
 20
-0.6218267716535433
 30
0.0
 10
1.354622047244095
 20
-0.6218267716535433
 30
0.0
 10
0.6827165354330709
 20
-1.009003937007874
 30
0.0
 10
0.6827165354330709
 20
-1.009003937007874
 30
0.0
 10
0.6827165354330709
 20
-1.009003937007874
 30
0.0
 10
0.6827165354330709
 20
-1.009003937007874
 30
0.0
 10
0.7595669291338583
 20
-1.075830708661417
 30
0.0
 10
0.7595669291338583
 20
-1.075830708661417
 30
0.0
  0
SPLINE
  5
53
330
1F
100
AcDbEntity
  8
Layer 1
 62
   252
100
AcDbSpline
210
0.0
220
0.0
230
1.0
 70
    11
 71
     3
 72
    20
 73
    16
 74
     0
 42
0.0000000001
 43
0.0000000001
 40
0.0
 40
0.0
 40
0.0
 40
0.0
 40
0.25
 40
0.25
 40
0.25
 40
0.25
 40
0.5
 40
0.5
 40
0.5
 40
0.5
 40
0.75
 40
0.75
 40
0.75
 40
0.75
 40
1.0
 40
1.0
 40
1.0
 40
1.0
 10
0.6827165354330709
 20
-1.009003937007874
 30
0.0
 10
0.6827165354330709
 20
-1.009003937007874
 30
0.0
 10
1.354622047244095
 20
-0.6218267716535433
 30
0.0
 10
1.354622047244095
 20
-0.6218267716535433
 30
0.0
 10
1.354622047244095
 20
-0.6218267716535433
 30
0.0
 10
1.354622047244095
 20
-0.6218267716535433
 30
0.0
 10
1.268996062992126
 20
-0.5578228346456693
 30
0.0
 10
1.268996062992126
 20
-0.5578228346456693
 30
0.0
 10
1.268996062992126
 20
-0.5578228346456693
 30
0.0
 10
1.268996062992126
 20
-0.5578228346456693
 30
0.0
 10
0.5970905511811024
 20
-0.9450000000000001
 30
0.0
 10
0.5970905511811024
 20
-0.9450000000000001
 30
0.0
 10
0.5970905511811024
 20
-0.9450000000000001
 30
0.0
 10
0.5970905511811024
 20
-0.9450000000000001
 30
0.0
 10
0.6827165354330709
 20
-1.009003937007874
 30
0.0
 10
0.6827165354330709
 20
-1.009003937007874
 30
0.0
  0
SPLINE
  5
54
330
1F
100
AcDbEntity
  8
Layer 1
 62
   252
100
AcDbSpline
210
0.0
220
0.0
230
1.0
 70
    11
 71
     3
 72
    20
 73
    16
 74
     0
 42
0.0000000001
 43
0.0000000001
 40
0.0
 40
0.0
 40
0.0
 40
0.0
 40
0.25
 40
0.25
 40
0.25
 40
0.25
 40
0.5
 40
0.5
 40
0.5
 40
0.5
 40
0.75
 40
0.75
 40
0.75
 40
0.75
 40
1.0
 40
1.0
 40
1.0
 40
1.0
 10
0.5970905511811024
 20
-0.9450000000000001
 30
0.0
 10
0.5970905511811024
 20
-0.9450000000000001
 30
0.0
 10
1.268996062992126
 20
-0.5578228346456693
 30
0.0
 10
1.268996062992126
 20
-0.5578228346456693
 30
0.0
 10
1.268996062992126
 20
-0.5578228346456693
 30
0.0
 10
1.268996062992126
 20
-0.5578228346456693
 30
0.0
 10
1.175141732283465
 20
-0.4971456692913386
 30
0.0
 10
1.175141732283465
 20
-0.4971456692913386
 30
0.0
 10
1.175141732283465
 20
-0.4971456692913386
 30
0.0
 10
1.175141732283465
 20
-0.4971456692913386
 30
0.0
 10
0.503236220472441
 20
-0.8843228346456693
 30
0.0
 10
0.503236220472441
 20
-0.8843228346456693
 30
0.0
 10
0.503236220472441
 20
-0.8843228346456693
 30
0.0
 10
0.503236220472441
 20
-0.8843228346456693
 30
0.0
 10
0.5970905511811024
 20
-0.9450000000000001
 30
0.0
 10
0.5970905511811024
 20
-0.9450000000000001
 30
0.0
  0
SPLINE
  5
55
330
1F
100
AcDbEntity
  8
Layer 1
 62
   252
100
AcDbSpline
210
0.0
220
0.0
230
1.0
 70
    11
 71
     3
 72
    20
 73
    16
 74
     0
 42
0.0000000001
 43
0.0000000001
 40
0.0
 40
0.0
 40
0.0
 40
0.0
 40
0.25
 40
0.25
 40
0.25
 40
0.25
 40
0.5
 40
0.5
 40
0.5
 40
0.5
 40
0.75
 40
0.75
 40
0.75
 40
0.75
 40
1.0
 40
1.0
 40
1.0
 40
1.0
 10
0.503236220472441
 20
-0.8843228346456693
 30
0.0
 10
0.503236220472441
 20
-0.8843228346456693
 30
0.0
 10
1.175141732283465
 20
-0.4971456692913386
 30
0.0
 10
1.175141732283465
 20
-0.4971456692913386
 30
0.0
 10
1.175141732283465
 20
-0.4971456692913386
 30
0.0
 10
1.175141732283465
 20
-0.4971456692913386
 30
0.0
 10
1.073590551181102
 20
-0.4403228346456693
 30
0.0
 10
1.073590551181102
 20
-0.4403228346456693
 30
0.0
 10
1.073590551181102
 20
-0.4403228346456693
 30
0.0
 10
1.073590551181102
 20
-0.4403228346456693
 30
0.0
 10
0.4016850393700788
 20
-0.8275
 30
0.0
 10
0.4016850393700788
 20
-0.8275
 30
0.0
 10
0.4016850393700788
 20
-0.8275
 30
0.0
 10
0.4016850393700788
 20
-0.8275
 30
0.0
 10
0.503236220472441
 20
-0.8843228346456693
 30
0.0
 10
0.503236220472441
 20
-0.8843228346456693
 30
0.0
  0
SPLINE
  5
56
330
1F
100
AcDbEntity
  8
Layer 1
 62
   252
100
AcDbSpline
210
0.0
220
0.0
230
1.0
 70
    11
 71
     3
 72
    20
 73
    16
 74
     0
 42
0.0000000001
 43
0.0000000001
 40
0.0
 40
0.0
 40
0.0
 40
0.0
 40
0.25
 40
0.25
 40
0.25
 40
0.25
 40
0.5
 40
0.5
 40
0.5
 40
0.5
 40
0.75
 40
0.75
 40
0.75
 40
0.75
 40
1.0
 40
1.0
 40
1.0
 40
1.0
 10
0.4016850393700788
 20
-0.8275
 30
0.0
 10
0.4016850393700788
 20
-0.8275
 30
0.0
 10
1.073590551181102
 20
-0.4403228346456693
 30
0.0
 10
1.073590551181102
 20
-0.4403228346456693
 30
0.0
 10
1.073590551181102
 20
-0.4403228346456693
 30
0.0
 10
1.073590551181102
 20
-0.4403228346456693
 30
0.0
 10
0.9649055118110237
 20
-0.3878503937007874
 30
0.0
 10
0.9649055118110237
 20
-0.3878503937007874
 30
0.0
 10
0.9649055118110237
 20
-0.3878503937007874
 30
0.0
 10
0.9649055118110237
 20
-0.3878503937007874
 30
0.0
 10
0.293
 20
-0.7750275590551181
 30
0.0
 10
0.293
 20
-0.7750275590551181
 30
0.0
 10
0.293
 20
-0.7750275590551181
 30
0.0
 10
0.293
 20
-0.7750275590551181
 30
0.0
 10
0.4016850393700788
 20
-0.8275
 30
0.0
 10
0.4016850393700788
 20
-0.8275
 30
0.0
  0
SPLINE
  5
57
330
1F
100
AcDbEntity
  8
Layer 1
 62
   252
100
AcDbSpline
210
0.0
220
0.0
230
1.0
 70
    11
 71
     3
 72
    20
 73
    16
 74
     0
 42
0.0000000001
 43
0.0000000001
 40
0.0
 40
0.0
 40
0.0
 40
0.0
 40
0.25
 40
0.25
 40
0.25
 40
0.25
 40
0.5
 40
0.5
 40
0.5
 40
0.5
 40
0.75
 40
0.75
 40
0.75
 40
0.75
 40
1.0
 40
1.0
 40
1.0
 40
1.0
 10
0.293
 20
-0.7750275590551181
 30
0.0
 10
0.293
 20
-0.7750275590551181
 30
0.0
 10
0.9649055118110237
 20
-0.3878503937007874
 30
0.0
 10
0.9649055118110237
 20
-0.3878503937007874
 30
0.0
 10
0.9649055118110237
 20
-0.3878503937007874
 30
0.0
 10
0.9649055118110237
 20
-0.3878503937007874
 30
0.0
 10
0.8496181102362205
 20
-0.340251968503937
 30
0.0
 10
0.8496181102362205
 20
-0.340251968503937
 30
0.0
 10
0.8496181102362205
 20
-0.340251968503937
 30
0.0
 10
0.8496181102362205
 20
-0.340251968503937
 30
0.0
 10
0.1777125984251969
 20
-0.7274291338582678
 30
0.0
 10
0.1777125984251969
 20
-0.7274291338582678
 30
0.0
 10
0.1777125984251969
 20
-0.7274291338582678
 30
0.0
 10
0.1777125984251969
 20
-0.7274291338582678
 30
0.0
 10
0.293
 20
-0.7750275590551181
 30
0.0
 10
0.293
 20
-0.7750275590551181
 30
0.0
  0
SPLINE
  5
58
330
1F
100
AcDbEntity
  8
Layer 1
 62
   252
100
AcDbSpline
210
0.0
220
0.0
230
1.0
 70
    11
 71
     3
 72
    20
 73
    16
 74
     0
 42
0.0000000001
 43
0.0000000001
 40
0.0
 40
0.0
 40
0.0
 40
0.0
 40
0.25
 40
0.25
 40
0.25
 40
0.25
 40
0.5
 40
0.5
 40
0.5
 40
0.5
 40
0.75
 40
0.75
 40
0.75
 40
0.75
 40
1.0
 40
1.0
 40
1.0
 40
1.0
 10
0.1777125984251969
 20
-0.7274291338582678
 30
0.0
 10
0.1777125984251969
 20
-0.7274291338582678
 30
0.0
 10
0.8496181102362205
 20
-0.340251968503937
 30
0.0
 10
0.8496181102362205
 20
-0.340251968503937
 30
0.0
 10
0.8496181102362205
 20
-0.340251968503937
 30
0.0
 10
0.8496181102362205
 20
-0.340251968503937
 30
0.0
 10
0.7282913385826771
 20
-0.2980275590551181
 30
0.0
 10
0.7282913385826771
 20
-0.2980275590551181
 30
0.0
 10
0.7282913385826771
 20
-0.2980275590551181
 30
0.0
 10
0.7282913385826771
 20
-0.2980275590551181
 30
0.0
 10
0.0563858267716535
 20
-0.6852047244094488
 30
0.0
 10
0.0563858267716535
 20
-0.6852047244094488
 30
0.0
 10
0.0563858267716535
 20
-0.6852047244094488
 30
0.0
 10
0.0563858267716535
 20
-0.6852047244094488
 30
0.0
 10
0.1777125984251969
 20
-0.7274291338582678
 30
0.0
 10
0.1777125984251969
 20
-0.7274291338582678
 30
0.0
  0
SPLINE
  5
59
330
1F
100
AcDbEntity
  8
Layer 1
 62
   252
100
AcDbSpline
210
0.0
220
0.0
230
1.0
 70
    11
 71
     3
 72
    20
 73
    16
 74
     0
 42
0.0000000001
 43
0.0000000001
 40
0.0
 40
0.0
 40
0.0
 40
0.0
 40
0.25
 40
0.25
 40
0.25
 40
0.25
 40
0.5
 40
0.5
 40
0.5
 40
0.5
 40
0.75
 40
0.75
 40
0.75
 40
0.75
 40
1.0
 40
1.0
 40
1.0
 40
1.0
 10
0.0563858267716535
 20
-0.6852047244094488
 30
0.0
 10
0.0563858267716535
 20
-0.6852047244094488
 30
0.0
 10
0.7282913385826771
 20
-0.2980275590551181
 30
0.0
 10
0.7282913385826771
 20
-0.2980275590551181
 30
0.0
 10
0.7282913385826771
 20
-0.2980275590551181
 30
0.0
 10
0.7282913385826771
 20
-0.2980275590551181
 30
0.0
 10
0.6014606299212598
 20
-0.2617086614173229
 30
0.0
 10
0.6014606299212598
 20
-0.2617086614173229
 30
0.0
 10
0.6014606299212598
 20
-0.2617086614173229
 30
0.0
 10
0.6014606299212598
 20
-0.2617086614173229
 30
0.0
 10
-0.0704448818897638
 20
-0.6488858267716535
 30
0.0
 10
-0.0704448818897638
 20
-0.6488858267716535
 30
0.0
 10
-0.0704448818897638
 20
-0.6488858267716535
 30
0.0
 10
-0.0704448818897638
 20
-0.6488858267716535
 30
0.0
 10
0.0563858267716535
 20
-0.6852047244094488
 30
0.0
 10
0.0563858267716535
 20
-0.6852047244094488
 30
0.0
  0
SPLINE
  5
5A
330
1F
100
AcDbEntity
  8
Layer 1
 62
   252
100
AcDbSpline
210
0.0
220
0.0
230
1.0
 70
    11
 71
     3
 72
    20
 73
    16
 74
     0
 42
0.0000000001
 43
0.0000000001
 40
0.0
 40
0.0
 40
0.0
 40
0.0
 40
0.25
 40
0.25
 40
0.25
 40
0.25
 40
0.5
 40
0.5
 40
0.5
 40
0.5
 40
0.75
 40
0.75
 40
0.75
 40
0.75
 40
1.0
 40
1.0
 40
1.0
 40
1.0
 10
-0.0704448818897638
 20
-0.6488858267716535
 30
0.0
 10
-0.0704448818897638
 20
-0.6488858267716535
 30
0.0
 10
0.6014606299212598
 20
-0.2617086614173229
 30
0.0
 10
0.6014606299212598
 20
-0.2617086614173229
 30
0.0
 10
0.6014606299212598
 20
-0.2617086614173229
 30
0.0
 10
0.6014606299212598
 20
-0.2617086614173229
 30
0.0
 10
0.4696574803149606
 20
-0.2317913385826772
 30
0.0
 10
0.4696574803149606
 20
-0.2317913385826772
 30
0.0
 10
0.4696574803149606
 20
-0.2317913385826772
 30
0.0
 10
0.4696574803149606
 20
-0.2317913385826772
 30
0.0
 10
-0.202248031496063
 20
-0.6189685039370079
 30
0.0
 10
-0.202248031496063
 20
-0.6189685039370079
 30
0.0
 10
-0.202248031496063
 20
-0.6189685039370079
 30
0.0
 10
-0.202248031496063
 20
-0.6189685039370079
 30
0.0
 10
-0.0704448818897638
 20
-0.6488858267716535
 30
0.0
 10
-0.0704448818897638
 20
-0.6488858267716535
 30
0.0
  0
SPLINE
  5
5B
330
1F
100
AcDbEntity
  8
Layer 1
 62
   252
100
AcDbSpline
210
0.0
220
0.0
230
1.0
 70
    11
 71
     3
 72
    20
 73
    16
 74
     0
 42
0.0000000001
 43
0.0000000001
 40
0.0
 40
0.0
 40
0.0
 40
0.0
 40
0.25
 40
0.25
 40
0.25
 40
0.25
 40
0.5
 40
0.5
 40
0.5
 40
0.5
 40
0.75
 40
0.75
 40
0.75
 40
0.75
 40
1.0
 40
1.0
 40
1.0
 40
1.0
 10
-0.202248031496063
 20
-0.6189685039370079
 30
0.0
 10
-0.202248031496063
 20
-0.6189685039370079
 30
0.0
 10
0.4696574803149606
 20
-0.2317913385826772
 30
0.0
 10
0.4696574803149606
 20
-0.2317913385826772
 30
0.0
 10
0.4696574803149606
 20
-0.2317913385826772
 30
0.0
 10
0.4696574803149606
 20
-0.2317913385826772
 30
0.0
 10
0.3334448818897638
 20
-0.2087952755905512
 30
0.0
 10
0.3334448818897638
 20
-0.2087952755905512
 30
0.0
 10
0.3334448818897638
 20
-0.2087952755905512
 30
0.0
 10
0.3334448818897638
 20
-0.2087952755905512
 30
0.0
 10
-0.3384606299212599
 20
-0.5959724409448819
 30
0.0
 10
-0.3384606299212599
 20
-0.5959724409448819
 30
0.0
 10
-0.3384606299212599
 20
-0.5959724409448819
 30
0.0
 10
-0.3384606299212599
 20
-0.5959724409448819
 30
0.0
 10
-0.202248031496063
 20
-0.6189685039370079
 30
0.0
 10
-0.202248031496063
 20
-0.6189685039370079
 30
0.0
  0
SPLINE
  5
5C
330
1F
100
AcDbEntity
  8
Layer 1
 62
   252
100
AcDbSpline
210
0.0
220
0.0
230
1.0
 70
    11
 71
     3
 72
    20
 73
    16
 74
     0
 42
0.0000000001
 43
0.0000000001
 40
0.0
 40
0.0
 40
0.0
 40
0.0
 40
0.25
 40
0.25
 40
0.25
 40
0.25
 40
0.5
 40
0.5
 40
0.5
 40
0.5
 40
0.75
 40
0.75
 40
0.75
 40
0.75
 40
1.0
 40
1.0
 40
1.0
 40
1.0
 10
-0.3384606299212599
 20
-0.5959724409448819
 30
0.0
 10
-0.3384606299212599
 20
-0.5959724409448819
 30
0.0
 10
0.3334448818897638
 20
-0.2087952755905512
 30
0.0
 10
0.3334448818897638
 20
-0.2087952755905512
 30
0.0
 10
0.3334448818897638
 20
-0.2087952755905512
 30
0.0
 10
0.3334448818897638
 20
-0.2087952755905512
 30
0.0
 10
0.1933543307086614
 20
-0.1932283464566929
 30
0.0
 10
0.1933543307086614
 20
-0.1932283464566929
 30
0.0
 10
0.1933543307086614
 20
-0.1932283464566929
 30
0.0
 10
0.1933543307086614
 20
-0.1932283464566929
 30
0.0
 10
-0.4785511811023622
 20
-0.5804055118110236
 30
0.0
 10
-0.4785511811023622
 20
-0.5804055118110236
 30
0.0
 10
-0.4785511811023622
 20
-0.5804055118110236
 30
0.0
 10
-0.4785511811023622
 20
-0.5804055118110236
 30
0.0
 10
-0.3384606299212599
 20
-0.5959724409448819
 30
0.0
 10
-0.3384606299212599
 20
-0.5959724409448819
 30
0.0
  0
SPLINE
  5
5D
330
1F
100
AcDbEntity
  8
Layer 1
 62
   250
370
     5
100
AcDbSpline
210
0.0
220
0.0
230
1.0
 70
    11
 71
     3
 72
   196
 73
   192
 74
     0
 42
0.0000000001
 43
0.0000000001
 40
0.0
 40
0.0
 40
0.0
 40
0.0
 40
0.0208333333333333
 40
0.0208333333333333
 40
0.0208333333333333
 40
0.0208333333333333
 40
0.0416666666666667
 40
0.0416666666666667
 40
0.0416666666666667
 40
0.0416666666666667
 40
0.0625
 40
0.0625
 40
0.0625
 40
0.0625
 40
0.0833333333333333
 40
0.0833333333333333
 40
0.0833333333333333
 40
0.0833333333333333
 40
0.1041666666666667
 40
0.1041666666666667
 40
0.1041666666666667
 40
0.1041666666666667
 40
0.125
 40
0.125
 40
0.125
 40
0.125
 40
0.1458333333333333
 40
0.1458333333333333
 40
0.1458333333333333
 40
0.1458333333333333
 40
0.1666666666666667
 40
0.1666666666666667
 40
0.1666666666666667
 40
0.1666666666666667
 40
0.1875
 40
0.1875
 40
0.1875
 40
0.1875
 40
0.2083333333333333
 40
0.2083333333333333
 40
0.2083333333333333
 40
0.2083333333333333
 40
0.2291666666666667
 40
0.2291666666666667
 40
0.2291666666666667
 40
0.2291666666666667
 40
0.25
 40
0.25
 40
0.25
 40
0.25
 40
0.2708333333333333
 40
0.2708333333333333
 40
0.2708333333333333
 40
0.2708333333333333
 40
0.2916666666666666
 40
0.2916666666666666
 40
0.2916666666666666
 40
0.2916666666666666
 40
0.3124999999999999
 40
0.3124999999999999
 40
0.3124999999999999
 40
0.3124999999999999
 40
0.3333333333333333
 40
0.3333333333333333
 40
0.3333333333333333
 40
0.3333333333333333
 40
0.3541666666666666
 40
0.3541666666666666
 40
0.3541666666666666
 40
0.3541666666666666
 40
0.3749999999999999
 40
0.3749999999999999
 40
0.3749999999999999
 40
0.3749999999999999
 40
0.3958333333333332
 40
0.3958333333333332
 40
0.3958333333333332
 40
0.3958333333333332
 40
0.4166666666666665
 40
0.4166666666666665
 40
0.4166666666666665
 40
0.4166666666666665
 40
0.4374999999999998
 40
0.4374999999999998
 40
0.4374999999999998
 40
0.4374999999999998
 40
0.4583333333333332
 40
0.4583333333333332
 40
0.4583333333333332
 40
0.4583333333333332
 40
0.4791666666666665
 40
0.4791666666666665
 40
0.4791666666666665
 40
0.4791666666666665
 40
0.4999999999999998
 40
0.4999999999999998
 40
0.4999999999999998
 40
0.4999999999999998
 40
0.5208333333333332
 40
0.5208333333333332
 40
0.5208333333333332
 40
0.5208333333333332
 40
0.5416666666666665
 40
0.5416666666666665
 40
0.5416666666666665
 40
0.5416666666666665
 40
0.5624999999999999
 40
0.5624999999999999
 40
0.5624999999999999
 40
0.5624999999999999
 40
0.5833333333333333
 40
0.5833333333333333
 40
0.5833333333333333
 40
0.5833333333333333
 40
0.6041666666666666
 40
0.6041666666666666
 40
0.6041666666666666
 40
0.6041666666666666
 40
0.625
 40
0.625
 40
0.625
 40
0.625
 40
0.6458333333333334
 40
0.6458333333333334
 40
0.6458333333333334
 40
0.6458333333333334
 40
0.6666666666666667
 40
0.6666666666666667
 40
0.6666666666666667
 40
0.6666666666666667
 40
0.6875000000000001
 40
0.6875000000000001
 40
0.6875000000000001
 40
0.6875000000000001
 40
0.7083333333333335
 40
0.7083333333333335
 40
0.7083333333333335
 40
0.7083333333333335
 40
0.7291666666666669
 40
0.7291666666666669
 40
0.7291666666666669
 40
0.7291666666666669
 40
0.7500000000000002
 40
0.7500000000000002
 40
0.7500000000000002
 40
0.7500000000000002
 40
0.7708333333333336
 40
0.7708333333333336
 40
0.7708333333333336
 40
0.7708333333333336
 40
0.791666666666667
 40
0.791666666666667
 40
0.791666666666667
 40
0.791666666666667
 40
0.8125000000000003
 40
0.8125000000000003
 40
0.8125000000000003
 40
0.8125000000000003
 40
0.8333333333333337
 40
0.8333333333333337
 40
0.8333333333333337
 40
0.8333333333333337
 40
0.8541666666666671
 40
0.8541666666666671
 40
0.8541666666666671
 40
0.8541666666666671
 40
0.8750000000000004
 40
0.8750000000000004
 40
0.8750000000000004
 40
0.8750000000000004
 40
0.8958333333333338
 40
0.8958333333333338
 40
0.8958333333333338
 40
0.8958333333333338
 40
0.9166666666666672
 40
0.9166666666666672
 40
0.9166666666666672
 40
0.9166666666666672
 40
0.9375000000000006
 40
0.9375000000000006
 40
0.9375000000000006
 40
0.9375000000000006
 40
0.9583333333333339
 40
0.9583333333333339
 40
0.9583333333333339
 40
0.9583333333333339
 40
0.9791666666666673
 40
0.9791666666666673
 40
0.9791666666666673
 40
0.9791666666666673
 40
1.0
 40
1.0
 40
1.0
 40
1.0
 10
0.7986732283464567
 20
-1.911090551181103
 30
0.0
 10
0.7986732283464567
 20
-1.911090551181103
 30
0.0
 10
1.47057874015748
 20
-1.523913385826772
 30
0.0
 10
1.47057874015748
 20
-1.523913385826772
 30
0.0
 10
1.47057874015748
 20
-1.523913385826772
 30
0.0
 10
1.47057874015748
 20
-1.523913385826772
 30
0.0
 10
1.541586614173228
 20
-1.463232283464567
 30
0.0
 10
1.541586614173228
 20
-1.463232283464567
 30
0.0
 10
1.541586614173228
 20
-1.463232283464567
 30
0.0
 10
1.541586614173228
 20
-1.463232283464567
 30
0.0
 10
1.597271653543307
 20
-1.399220472440945
 30
0.0
 10
1.597271653543307
 20
-1.399220472440945
 30
0.0
 10
1.597271653543307
 20
-1.399220472440945
 30
0.0
 10
1.597271653543307
 20
-1.399220472440945
 30
0.0
 10
1.638188976377953
 20
-1.332385826771654
 30
0.0
 10
1.638188976377953
 20
-1.332385826771654
 30
0.0
 10
1.638188976377953
 20
-1.332385826771654
 30
0.0
 10
1.638188976377953
 20
-1.332385826771654
 30
0.0
 10
1.664866141732283
 20
-1.263251968503937
 30
0.0
 10
1.664866141732283
 20
-1.263251968503937
 30
0.0
 10
1.664866141732283
 20
-1.263251968503937
 30
0.0
 10
1.664866141732283
 20
-1.263251968503937
 30
0.0
 10
1.677866141732284
 20
-1.192318897637795
 30
0.0
 10
1.677866141732284
 20
-1.192318897637795
 30
0.0
 10
1.677866141732284
 20
-1.192318897637795
 30
0.0
 10
1.677866141732284
 20
-1.192318897637795
 30
0.0
 10
1.677720472440945
 20
-1.120110236220473
 30
0.0
 10
1.677720472440945
 20
-1.120110236220473
 30
0.0
 10
1.677720472440945
 20
-1.120110236220473
 30
0.0
 10
1.677720472440945
 20
-1.120110236220473
 30
0.0
 10
1.664992125984252
 20
-1.047125984251969
 30
0.0
 10
1.664992125984252
 20
-1.047125984251969
 30
0.0
 10
1.664992125984252
 20
-1.047125984251969
 30
0.0
 10
1.664992125984252
 20
-1.047125984251969
 30
0.0
 10
1.640200787401575
 20
-0.9738937007874016
 30
0.0
 10
1.640200787401575
 20
-0.9738937007874016
 30
0.0
 10
1.640200787401575
 20
-0.9738937007874016
 30
0.0
 10
1.640200787401575
 20
-0.9738937007874016
 30
0.0
 10
1.603913385826772
 20
-0.9009173228346457
 30
0.0
 10
1.603913385826772
 20
-0.9009173228346457
 30
0.0
 10
1.603913385826772
 20
-0.9009173228346457
 30
0.0
 10
1.603913385826772
 20
-0.9009173228346457
 30
0.0
 10
1.556665354330709
 20
-0.8287125984251968
 30
0.0
 10
1.556665354330709
 20
-0.8287125984251968
 30
0.0
 10
1.556665354330709
 20
-0.8287125984251968
 30
0.0
 10
1.556665354330709
 20
-0.8287125984251968
 30
0.0
 10
1.499003937007874
 20
-0.7577795275590552
 30
0.0
 10
1.499003937007874
 20
-0.7577795275590552
 30
0.0
 10
1.499003937007874
 20
-0.7577795275590552
 30
0.0
 10
1.499003937007874
 20
-0.7577795275590552
 30
0.0
 10
1.431472440944882
 20
-0.6886535433070866
 30
0.0
 10
1.431472440944882
 20
-0.6886535433070866
 30
0.0
 10
1.431472440944882
 20
-0.6886535433070866
 30
0.0
 10
1.431472440944882
 20
-0.6886535433070866
 30
0.0
 10
1.354622047244095
 20
-0.6218267716535433
 30
0.0
 10
1.354622047244095
 20
-0.6218267716535433
 30
0.0
 10
1.354622047244095
 20
-0.6218267716535433
 30
0.0
 10
1.354622047244095
 20
-0.6218267716535433
 30
0.0
 10
1.268996062992126
 20
-0.5578228346456693
 30
0.0
 10
1.268996062992126
 20
-0.5578228346456693
 30
0.0
 10
1.268996062992126
 20
-0.5578228346456693
 30
0.0
 10
1.268996062992126
 20
-0.5578228346456693
 30
0.0
 10
1.175141732283465
 20
-0.4971456692913386
 30
0.0
 10
1.175141732283465
 20
-0.4971456692913386
 30
0.0
 10
1.175141732283465
 20
-0.4971456692913386
 30
0.0
 10
1.175141732283465
 20
-0.4971456692913386
 30
0.0
 10
1.073590551181102
 20
-0.4403228346456693
 30
0.0
 10
1.073590551181102
 20
-0.4403228346456693
 30
0.0
 10
1.073590551181102
 20
-0.4403228346456693
 30
0.0
 10
1.073590551181102
 20
-0.4403228346456693
 30
0.0
 10
0.9649055118110237
 20
-0.3878503937007874
 30
0.0
 10
0.9649055118110237
 20
-0.3878503937007874
 30
0.0
 10
0.9649055118110237
 20
-0.3878503937007874
 30
0.0
 10
0.9649055118110237
 20
-0.3878503937007874
 30
0.0
 10
0.8496181102362205
 20
-0.340251968503937
 30
0.0
 10
0.8496181102362205
 20
-0.340251968503937
 30
0.0
 10
0.8496181102362205
 20
-0.340251968503937
 30
0.0
 10
0.8496181102362205
 20
-0.340251968503937
 30
0.0
 10
0.7282913385826771
 20
-0.2980275590551181
 30
0.0
 10
0.7282913385826771
 20
-0.2980275590551181
 30
0.0
 10
0.7282913385826771
 20
-0.2980275590551181
 30
0.0
 10
0.7282913385826771
 20
-0.2980275590551181
 30
0.0
 10
0.6014606299212598
 20
-0.2617086614173229
 30
0.0
 10
0.6014606299212598
 20
-0.2617086614173229
 30
0.0
 10
0.6014606299212598
 20
-0.2617086614173229
 30
0.0
 10
0.6014606299212598
 20
-0.2617086614173229
 30
0.0
 10
0.4696574803149606
 20
-0.2317913385826772
 30
0.0
 10
0.4696574803149606
 20
-0.2317913385826772
 30
0.0
 10
0.4696574803149606
 20
-0.2317913385826772
 30
0.0
 10
0.4696574803149606
 20
-0.2317913385826772
 30
0.0
 10
0.3334448818897638
 20
-0.2087952755905512
 30
0.0
 10
0.3334448818897638
 20
-0.2087952755905512
 30
0.0
 10
0.3334448818897638
 20
-0.2087952755905512
 30
0.0
 10
0.3334448818897638
 20
-0.2087952755905512
 30
0.0
 10
0.1933543307086614
 20
-0.1932283464566929
 30
0.0
 10
0.1933543307086614
 20
-0.1932283464566929
 30
0.0
 10
0.1933543307086614
 20
-0.1932283464566929
 30
0.0
 10
0.1933543307086614
 20
-0.1932283464566929
 30
0.0
 10
-0.4785511811023622
 20
-0.5804055118110236
 30
0.0
 10
-0.4785511811023622
 20
-0.5804055118110236
 30
0.0
 10
-0.4785511811023622
 20
-0.5804055118110236
 30
0.0
 10
-0.4785511811023622
 20
-0.5804055118110236
 30
0.0
 10
-0.3384606299212599
 20
-0.5959724409448819
 30
0.0
 10
-0.3384606299212599
 20
-0.5959724409448819
 30
0.0
 10
-0.3384606299212599
 20
-0.5959724409448819
 30
0.0
 10
-0.3384606299212599
 20
-0.5959724409448819
 30
0.0
 10
-0.202248031496063
 20
-0.6189685039370079
 30
0.0
 10
-0.202248031496063
 20
-0.6189685039370079
 30
0.0
 10
-0.202248031496063
 20
-0.6189685039370079
 30
0.0
 10
-0.202248031496063
 20
-0.6189685039370079
 30
0.0
 10
-0.0704448818897638
 20
-0.6488858267716535
 30
0.0
 10
-0.0704448818897638
 20
-0.6488858267716535
 30
0.0
 10
-0.0704448818897638
 20
-0.6488858267716535
 30
0.0
 10
-0.0704448818897638
 20
-0.6488858267716535
 30
0.0
 10
0.0563858267716535
 20
-0.6852047244094488
 30
0.0
 10
0.0563858267716535
 20
-0.6852047244094488
 30
0.0
 10
0.0563858267716535
 20
-0.6852047244094488
 30
0.0
 10
0.0563858267716535
 20
-0.6852047244094488
 30
0.0
 10
0.1777125984251969
 20
-0.7274291338582678
 30
0.0
 10
0.1777125984251969
 20
-0.7274291338582678
 30
0.0
 10
0.1777125984251969
 20
-0.7274291338582678
 30
0.0
 10
0.1777125984251969
 20
-0.7274291338582678
 30
0.0
 10
0.293
 20
-0.7750275590551181
 30
0.0
 10
0.293
 20
-0.7750275590551181
 30
0.0
 10
0.293
 20
-0.7750275590551181
 30
0.0
 10
0.293
 20
-0.7750275590551181
 30
0.0
 10
0.4016850393700788
 20
-0.8275
 30
0.0
 10
0.4016850393700788
 20
-0.8275
 30
0.0
 10
0.4016850393700788
 20
-0.8275
 30
0.0
 10
0.4016850393700788
 20
-0.8275
 30
0.0
 10
0.503236220472441
 20
-0.8843228346456693
 30
0.0
 10
0.503236220472441
 20
-0.8843228346456693
 30
0.0
 10
0.503236220472441
 20
-0.8843228346456693
 30
0.0
 10
0.503236220472441
 20
-0.8843228346456693
 30
0.0
 10
0.5970905511811024
 20
-0.9450000000000001
 30
0.0
 10
0.5970905511811024
 20
-0.9450000000000001
 30
0.0
 10
0.5970905511811024
 20
-0.9450000000000001
 30
0.0
 10
0.5970905511811024
 20
-0.9450000000000001
 30
0.0
 10
0.6827165354330709
 20
-1.009003937007874
 30
0.0
 10
0.6827165354330709
 20
-1.009003937007874
 30
0.0
 10
0.6827165354330709
 20
-1.009003937007874
 30
0.0
 10
0.6827165354330709
 20
-1.009003937007874
 30
0.0
 10
0.7595669291338583
 20
-1.075830708661417
 30
0.0
 10
0.7595669291338583
 20
-1.075830708661417
 30
0.0
 10
0.7595669291338583
 20
-1.075830708661417
 30
0.0
 10
0.7595669291338583
 20
-1.075830708661417
 30
0.0
 10
0.8270984251968504
 20
-1.144956692913386
 30
0.0
 10
0.8270984251968504
 20
-1.144956692913386
 30
0.0
 10
0.8270984251968504
 20
-1.144956692913386
 30
0.0
 10
0.8270984251968504
 20
-1.144956692913386
 30
0.0
 10
0.8847598425196851
 20
-1.215889763779528
 30
0.0
 10
0.8847598425196851
 20
-1.215889763779528
 30
0.0
 10
0.8847598425196851
 20
-1.215889763779528
 30
0.0
 10
0.8847598425196851
 20
-1.215889763779528
 30
0.0
 10
0.932007874015748
 20
-1.288094488188976
 30
0.0
 10
0.932007874015748
 20
-1.288094488188976
 30
0.0
 10
0.932007874015748
 20
-1.288094488188976
 30
0.0
 10
0.932007874015748
 20
-1.288094488188976
 30
0.0
 10
0.9682952755905512
 20
-1.361070866141732
 30
0.0
 10
0.9682952755905512
 20
-1.361070866141732
 30
0.0
 10
0.9682952755905512
 20
-1.361070866141732
 30
0.0
 10
0.9682952755905512
 20
-1.361070866141732
 30
0.0
 10
0.9930866141732284
 20
-1.434303149606299
 30
0.0
 10
0.9930866141732284
 20
-1.434303149606299
 30
0.0
 10
0.9930866141732284
 20
-1.434303149606299
 30
0.0
 10
0.9930866141732284
 20
-1.434303149606299
 30
0.0
 10
1.005814960629921
 20
-1.507287401574803
 30
0.0
 10
1.005814960629921
 20
-1.507287401574803
 30
0.0
 10
1.005814960629921
 20
-1.507287401574803
 30
0.0
 10
1.005814960629921
 20
-1.507287401574803
 30
0.0
 10
1.00596062992126
 20
-1.579496062992126
 30
0.0
 10
1.00596062992126
 20
-1.579496062992126
 30
0.0
 10
1.00596062992126
 20
-1.579496062992126
 30
0.0
 10
1.00596062992126
 20
-1.579496062992126
 30
0.0
 10
0.9929606299212599
 20
-1.650429133858268
 30
0.0
 10
0.9929606299212599
 20
-1.650429133858268
 30
0.0
 10
0.9929606299212599
 20
-1.650429133858268
 30
0.0
 10
0.9929606299212599
 20
-1.650429133858268
 30
0.0
 10
0.9662834645669292
 20
-1.719562992125984
 30
0.0
 10
0.9662834645669292
 20
-1.719562992125984
 30
0.0
 10
0.9662834645669292
 20
-1.719562992125984
 30
0.0
 10
0.9662834645669292
 20
-1.719562992125984
 30
0.0
 10
0.9253661417322835
 20
-1.786397637795276
 30
0.0
 10
0.9253661417322835
 20
-1.786397637795276
 30
0.0
 10
0.9253661417322835
 20
-1.786397637795276
 30
0.0
 10
0.9253661417322835
 20
-1.786397637795276
 30
0.0
 10
0.8696811023622048
 20
-1.850409448818898
 30
0.0
 10
0.8696811023622048
 20
-1.850409448818898
 30
0.0
 10
0.8696811023622048
 20
-1.850409448818898
 30
0.0
 10
0.8696811023622048
 20
-1.850409448818898
 30
0.0
 10
0.7986732283464567
 20
-1.911090551181103
 30
0.0
 10
0.7986732283464567
 20
-1.911090551181103
 30
0.0
  0
SPLINE
  5
5E
330
1F
100
AcDbEntity
  8
Layer 1
 62
   252
100
AcDbSpline
210
0.0
220
0.0
230
1.0
 70
    11
 71
     3
 72
    20
 73
    16
 74
     0
 42
0.0000000001
 43
0.0000000001
 40
0.0
 40
0.0
 40
0.0
 40
0.0
 40
0.25
 40
0.25
 40
0.25
 40
0.25
 40
0.5
 40
0.5
 40
0.5
 40
0.5
 40
0.75
 40
0.75
 40
0.75
 40
0.75
 40
1.0
 40
1.0
 40
1.0
 40
1.0
 10
-0.4785511811023622
 20
-0.5804055118110236
 30
0.0
 10
-0.4785511811023622
 20
-0.5804055118110236
 30
0.0
 10
0.1933543307086614
 20
-0.1932283464566929
 30
0.0
 10
0.1933543307086614
 20
-0.1932283464566929
 30
0.0
 10
0.1933543307086614
 20
-0.1932283464566929
 30
0.0
 10
0.1933543307086614
 20
-0.1932283464566929
 30
0.0
 10
-1.319937007874016
 20
-0.0881535433070866
 30
0.0
 10
-1.319937007874016
 20
-0.0881535433070866
 30
0.0
 10
-1.319937007874016
 20
-0.0881535433070866
 30
0.0
 10
-1.319937007874016
 20
-0.0881535433070866
 30
0.0
 10
-1.991842519685039
 20
-0.4753307086614174
 30
0.0
 10
-1.991842519685039
 20
-0.4753307086614174
 30
0.0
 10
-1.991842519685039
 20
-0.4753307086614174
 30
0.0
 10
-1.991842519685039
 20
-0.4753307086614174
 30
0.0
 10
-0.4785511811023622
 20
-0.5804055118110236
 30
0.0
 10
-0.4785511811023622
 20
-0.5804055118110236
 30
0.0
  0
SPLINE
  5
5F
330
1F
100
AcDbEntity
  8
Layer 1
 62
   250
370
     5
100
AcDbSpline
210
0.0
220
0.0
230
1.0
 70
    11
 71
     3
 72
    20
 73
    16
 74
     0
 42
0.0000000001
 43
0.0000000001
 40
0.0
 40
0.0
 40
0.0
 40
0.0
 40
0.25
 40
0.25
 40
0.25
 40
0.25
 40
0.5
 40
0.5
 40
0.5
 40
0.5
 40
0.75
 40
0.75
 40
0.75
 40
0.75
 40
1.0
 40
1.0
 40
1.0
 40
1.0
 10
-0.4785511811023622
 20
-0.5804055118110236
 30
0.0
 10
-0.4785511811023622
 20
-0.5804055118110236
 30
0.0
 10
0.1933543307086614
 20
-0.1932283464566929
 30
0.0
 10
0.1933543307086614
 20
-0.1932283464566929
 30
0.0
 10
0.1933543307086614
 20
-0.1932283464566929
 30
0.0
 10
0.1933543307086614
 20
-0.1932283464566929
 30
0.0
 10
-1.319937007874016
 20
-0.0881535433070866
 30
0.0
 10
-1.319937007874016
 20
-0.0881535433070866
 30
0.0
 10
-1.319937007874016
 20
-0.0881535433070866
 30
0.0
 10
-1.319937007874016
 20
-0.0881535433070866
 30
0.0
 10
-1.991842519685039
 20
-0.4753307086614174
 30
0.0
 10
-1.991842519685039
 20
-0.4753307086614174
 30
0.0
 10
-1.991842519685039
 20
-0.4753307086614174
 30
0.0
 10
-1.991842519685039
 20
-0.4753307086614174
 30
0.0
 10
-0.4785511811023622
 20
-0.5804055118110236
 30
0.0
 10
-0.4785511811023622
 20
-0.5804055118110236
 30
0.0
  0
SPLINE
  5
60
330
1F
100
AcDbEntity
  8
Layer 1
 62
     7
370
     5
100
AcDbSpline
210
0.0
220
0.0
230
1.0
 70
    11
 71
     3
 72
    32
 73
    28
 74
     0
 42
0.0000000001
 43
0.0000000001
 40
0.0
 40
0.0
 40
0.0
 40
0.0
 40
0.1428571428571429
 40
0.1428571428571429
 40
0.1428571428571429
 40
0.1428571428571429
 40
0.2857142857142857
 40
0.2857142857142857
 40
0.2857142857142857
 40
0.2857142857142857
 40
0.4285714285714286
 40
0.4285714285714286
 40
0.4285714285714286
 40
0.4285714285714286
 40
0.5714285714285714
 40
0.5714285714285714
 40
0.5714285714285714
 40
0.5714285714285714
 40
0.7142857142857142
 40
0.7142857142857142
 40
0.7142857142857142
 40
0.7142857142857142
 40
0.857142857142857
 40
0.857142857142857
 40
0.857142857142857
 40
0.857142857142857
 40
1.0
 40
1.0
 40
1.0
 40
1.0
 10
-1.991842519685039
 20
-0.4753307086614174
 30
0.0
 10
-1.991842519685039
 20
-0.4753307086614174
 30
0.0
 10
-1.994035433070866
 20
-1.724322834645669
 30
0.0
 10
-1.994035433070866
 20
-1.724322834645669
 30
0.0
 10
-1.994035433070866
 20
-1.724322834645669
 30
0.0
 10
-1.994035433070866
 20
-1.724322834645669
 30
0.0
 10
-1.243740157480315
 20
-1.724322834645669
 30
0.0
 10
-1.243740157480315
 20
-1.724322834645669
 30
0.0
 10
-1.243740157480315
 20
-1.724322834645669
 30
0.0
 10
-1.243740157480315
 20
-1.724322834645669
 30
0.0
 10
-1.243740157480315
 20
-1.973531496062992
 30
0.0
 10
-1.243740157480315
 20
-1.973531496062992
 30
0.0
 10
-1.243740157480315
 20
-1.973531496062992
 30
0.0
 10
-1.243740157480315
 20
-1.973531496062992
 30
0.0
 10
-0.6197992125984252
 20
-1.973531496062992
 30
0.0
 10
-0.6197992125984252
 20
-1.973531496062992
 30
0.0
 10
-0.6197992125984252
 20
-1.973531496062992
 30
0.0
 10
-0.6197992125984252
 20
-1.973531496062992
 30
0.0
 10
-0.6197992125984252
 20
-2.222740157480315
 30
0.0
 10
-0.6197992125984252
 20
-2.222740157480315
 30
0.0
 10
-0.6197992125984252
 20
-2.222740157480315
 30
0.0
 10
1.979972440944882
 20
-2.185488188976378
 30
0.0
 10
1.034377952755906
 20
-0.7049291338582677
 30
0.0
 10
-0.4785511811023622
 20
-0.5804055118110236
 30
0.0
 10
-0.4785511811023622
 20
-0.5804055118110236
 30
0.0
 10
-0.4785511811023622
 20
-0.5804055118110236
 30
0.0
 10
-1.991842519685039
 20
-0.4753307086614174
 30
0.0
 10
-1.991842519685039
 20
-0.4753307086614174
 30
0.0
  0
SPLINE
  5
61
330
1F
100
AcDbEntity
  8
Layer 1
 62
   250
100
AcDbSpline
210
0.0
220
0.0
230
1.0
 70
    11
 71
     3
 72
   104
 73
   100
 74
     0
 42
0.0000000001
 43
0.0000000001
 40
0.0
 40
0.0
 40
0.0
 40
0.0
 40
0.04
 40
0.04
 40
0.04
 40
0.04
 40
0.08
 40
0.08
 40
0.08
 40
0.08
 40
0.12
 40
0.12
 40
0.12
 40
0.12
 40
0.16
 40
0.16
 40
0.16
 40
0.16
 40
0.2
 40
0.2
 40
0.2
 40
0.2
 40
0.24
 40
0.24
 40
0.24
 40
0.24
 40
0.28
 40
0.28
 40
0.28
 40
0.28
 40
0.32
 40
0.32
 40
0.32
 40
0.32
 40
0.36
 40
0.36
 40
0.36
 40
0.36
 40
0.4
 40
0.4
 40
0.4
 40
0.4
 40
0.44
 40
0.44
 40
0.44
 40
0.44
 40
0.4799999999999999
 40
0.4799999999999999
 40
0.4799999999999999
 40
0.4799999999999999
 40
0.5199999999999999
 40
0.5199999999999999
 40
0.5199999999999999
 40
0.5199999999999999
 40
0.5599999999999999
 40
0.5599999999999999
 40
0.5599999999999999
 40
0.5599999999999999
 40
0.6
 40
0.6
 40
0.6
 40
0.6
 40
0.64
 40
0.64
 40
0.64
 40
0.64
 40
0.6800000000000001
 40
0.6800000000000001
 40
0.6800000000000001
 40
0.6800000000000001
 40
0.7200000000000001
 40
0.7200000000000001
 40
0.7200000000000001
 40
0.7200000000000001
 40
0.7600000000000001
 40
0.7600000000000001
 40
0.7600000000000001
 40
0.7600000000000001
 40
0.8000000000000002
 40
0.8000000000000002
 40
0.8000000000000002
 40
0.8000000000000002
 40
0.8400000000000002
 40
0.8400000000000002
 40
0.8400000000000002
 40
0.8400000000000002
 40
0.8800000000000002
 40
0.8800000000000002
 40
0.8800000000000002
 40
0.8800000000000002
 40
0.9200000000000003
 40
0.9200000000000003
 40
0.9200000000000003
 40
0.9200000000000003
 40
0.9600000000000003
 40
0.9600000000000003
 40
0.9600000000000003
 40
0.9600000000000003
 40
1.0
 40
1.0
 40
1.0
 40
1.0
 10
-0.5266850393700787
 20
-2.487405511811024
 30
0.0
 10
-0.5266850393700787
 20
-2.487405511811024
 30
0.0
 10
-0.4727125984251969
 20
-2.487405511811024
 30
0.0
 10
-0.4727125984251969
 20
-2.487405511811024
 30
0.0
 10
-0.4727125984251969
 20
-2.487405511811024
 30
0.0
 10
-0.4595433070866142
 20
-2.487405511811024
 30
0.0
 10
-0.4505157480314961
 20
-2.488015748031496
 30
0.0
 10
-0.4456299212598425
 20
-2.489212598425197
 30
0.0
 10
-0.4456299212598425
 20
-2.489212598425197
 30
0.0
 10
-0.4384055118110237
 20
-2.490933070866142
 30
0.0
 10
-0.4327125984251969
 20
-2.494070866141732
 30
0.0
 10
-0.428488188976378
 20
-2.498629921259842
 30
0.0
 10
-0.428488188976378
 20
-2.498629921259842
 30
0.0
 10
-0.4242952755905512
 20
-2.503185039370079
 30
0.0
 10
-0.4221850393700787
 20
-2.508685039370079
 30
0.0
 10
-0.4221850393700787
 20
-2.515070866141732
 30
0.0
 10
-0.4221850393700787
 20
-2.515070866141732
 30
0.0
 10
-0.4221850393700787
 20
-2.519685039370079
 30
0.0
 10
-0.4232952755905512
 20
-2.52382283464567
 30
0.0
 10
-0.4255157480314961
 20
-2.527488188976378
 30
0.0
 10
-0.4255157480314961
 20
-2.527488188976378
 30
0.0
 10
-0.427740157480315
 20
-2.531157480314961
 30
0.0
 10
-0.430988188976378
 20
-2.534295275590552
 30
0.0
 10
-0.4352125984251969
 20
-2.536877952755906
 30
0.0
 10
-0.4352125984251969
 20
-2.536877952755906
 30
0.0
 10
-0.4379330708661418
 20
-2.538570866141733
 30
0.0
 10
-0.4416023622047244
 20
-2.540015748031496
 30
0.0
 10
-0.4462677165354331
 20
-2.541212598425197
 30
0.0
 10
-0.4462677165354331
 20
-2.541212598425197
 30
0.0
 10
-0.4403503937007874
 20
-2.542295275590552
 30
0.0
 10
-0.4358503937007874
 20
-2.54359842519685
 30
0.0
 10
-0.4327677165354331
 20
-2.545098425196851
 30
0.0
 10
-0.4327677165354331
 20
-2.545098425196851
 30
0.0
 10
-0.4281023622047244
 20
-2.547377952755906
 30
0.0
 10
-0.4244055118110237
 20
-2.550625984251969
 30
0.0
 10
-0.4217125984251969
 20
-2.554877952755906
 30
0.0
 10
-0.4217125984251969
 20
-2.554877952755906
 30
0.0
 10
-0.418988188976378
 20
-2.55909842519685
 30
0.0
 10
-0.4176299212598426
 20
-2.563877952755906
 30
0.0
 10
-0.4176299212598426
 20
-2.569185039370079
 30
0.0
 10
-0.4176299212598426
 20
-2.569185039370079
 30
0.0
 10
-0.4176299212598426
 20
-2.574350393700787
 30
0.0
 10
-0.4189606299212599
 20
-2.579125984251969
 30
0.0
 10
-0.4216299212598426
 20
-2.583515748031496
 30
0.0
 10
-0.4216299212598426
 20
-2.583515748031496
 30
0.0
 10
-0.4242677165354331
 20
-2.587905511811024
 30
0.0
 10
-0.4280433070866142
 20
-2.591515748031496
 30
0.0
 10
-0.4328779527559055
 20
-2.594350393700788
 30
0.0
 10
-0.4328779527559055
 20
-2.594350393700788
 30
0.0
 10
-0.437740157480315
 20
-2.597153543307087
 30
0.0
 10
-0.4434055118110236
 20
-2.59896062992126
 30
0.0
 10
-0.4498503937007874
 20
-2.599767716535433
 30
0.0
 10
-0.4498503937007874
 20
-2.599767716535433
 30
0.0
 10
-0.4563228346456693
 20
-2.600543307086614
 30
0.0
 10
-0.4629606299212599
 20
-2.600933070866142
 30
0.0
 10
-0.4697952755905512
 20
-2.600933070866142
 30
0.0
 10
-0.4697952755905512
 20
-2.600933070866142
 30
0.0
 10
-0.4697952755905512
 20
-2.600933070866142
 30
0.0
 10
-0.5266850393700787
 20
-2.600933070866142
 30
0.0
 10
-0.5266850393700787
 20
-2.600933070866142
 30
0.0
 10
-0.5266850393700787
 20
-2.600933070866142
 30
0.0
 10
-0.5266850393700787
 20
-2.600933070866142
 30
0.0
 10
-0.5266850393700787
 20
-2.59409842519685
 30
0.0
 10
-0.5266850393700787
 20
-2.59409842519685
 30
0.0
 10
-0.5266850393700787
 20
-2.59409842519685
 30
0.0
 10
-0.5266850393700787
 20
-2.59409842519685
 30
0.0
 10
-0.5228503937007875
 20
-2.59409842519685
 30
0.0
 10
-0.5228503937007875
 20
-2.59409842519685
 30
0.0
 10
-0.5228503937007875
 20
-2.59409842519685
 30
0.0
 10
-0.5191535433070866
 20
-2.59409842519685
 30
0.0
 10
-0.5166535433070867
 20
-2.593515748031496
 30
0.0
 10
-0.5152952755905512
 20
-2.592377952755906
 30
0.0
 10
-0.5152952755905512
 20
-2.592377952755906
 30
0.0
 10
-0.5133228346456693
 20
-2.590822834645669
 30
0.0
 10
-0.5123503937007874
 20
-2.588212598425197
 30
0.0
 10
-0.5123503937007874
 20
-2.584570866141732
 30
0.0
 10
-0.5123503937007874
 20
-2.584570866141732
 30
0.0
 10
-0.5123503937007874
 20
-2.584570866141732
 30
0.0
 10
-0.5123503937007874
 20
-2.505712598425197
 30
0.0
 10
-0.5123503937007874
 20
-2.505712598425197
 30
0.0
 10
-0.5123503937007874
 20
-2.505712598425197
 30
0.0
 10
-0.5123503937007874
 20
-2.502015748031496
 30
0.0
 10
-0.5126535433070867
 20
-2.499515748031496
 30
0.0
 10
-0.5132401574803149
 20
-2.498157480314961
 30
0.0
 10
-0.5132401574803149
 20
-2.498157480314961
 30
0.0
 10
-0.5138503937007874
 20
-2.496795275590551
 30
0.0
 10
-0.514740157480315
 20
-2.49582283464567
 30
0.0
 10
-0.5159330708661417
 20
-2.495212598425197
 30
0.0
 10
-0.5159330708661417
 20
-2.495212598425197
 30
0.0
 10
-0.5171259842519685
 20
-2.494629921259842
 30
0.0
 10
-0.5194330708661418
 20
-2.494322834645669
 30
0.0
 10
-0.5228503937007875
 20
-2.494322834645669
 30
0.0
 10
-0.5228503937007875
 20
-2.494322834645669
 30
0.0
 10
-0.5228503937007875
 20
-2.494322834645669
 30
0.0
 10
-0.5266850393700787
 20
-2.494322834645669
 30
0.0
 10
-0.5266850393700787
 20
-2.494322834645669
 30
0.0
 10
-0.5266850393700787
 20
-2.494322834645669
 30
0.0
 10
-0.5266850393700787
 20
-2.494322834645669
 30
0.0
 10
-0.5266850393700787
 20
-2.487405511811024
 30
0.0
 10
-0.5266850393700787
 20
-2.487405511811024
 30
0.0
  0
SPLINE
  5
62
330
1F
100
AcDbEntity
  8
Layer 1
 62
   250
100
AcDbSpline
210
0.0
220
0.0
230
1.0
 70
    11
 71
     3
 72
    40
 73
    36
 74
     0
 42
0.0000000001
 43
0.0000000001
 40
0.0
 40
0.0
 40
0.0
 40
0.0
 40
0.1111111111111111
 40
0.1111111111111111
 40
0.1111111111111111
 40
0.1111111111111111
 40
0.2222222222222222
 40
0.2222222222222222
 40
0.2222222222222222
 40
0.2222222222222222
 40
0.3333333333333333
 40
0.3333333333333333
 40
0.3333333333333333
 40
0.3333333333333333
 40
0.4444444444444444
 40
0.4444444444444444
 40
0.4444444444444444
 40
0.4444444444444444
 40
0.5555555555555556
 40
0.5555555555555556
 40
0.5555555555555556
 40
0.5555555555555556
 40
0.6666666666666667
 40
0.6666666666666667
 40
0.6666666666666667
 40
0.6666666666666667
 40
0.7777777777777779
 40
0.7777777777777779
 40
0.7777777777777779
 40
0.7777777777777779
 40
0.8888888888888891
 40
0.8888888888888891
 40
0.8888888888888891
 40
0.8888888888888891
 40
1.0
 40
1.0
 40
1.0
 40
1.0
 10
-0.4971259842519685
 20
-2.496433070866142
 30
0.0
 10
-0.4971259842519685
 20
-2.496433070866142
 30
0.0
 10
-0.4971259842519685
 20
-2.538015748031496
 30
0.0
 10
-0.4971259842519685
 20
-2.538015748031496
 30
0.0
 10
-0.4971259842519685
 20
-2.538015748031496
 30
0.0
 10
-0.4971259842519685
 20
-2.538015748031496
 30
0.0
 10
-0.4763779527559056
 20
-2.538015748031496
 30
0.0
 10
-0.4763779527559056
 20
-2.538015748031496
 30
0.0
 10
-0.4763779527559056
 20
-2.538015748031496
 30
0.0
 10
-0.4666850393700788
 20
-2.538015748031496
 30
0.0
 10
-0.4600157480314961
 20
-2.537570866141732
 30
0.0
 10
-0.4564606299212599
 20
-2.536657480314961
 30
0.0
 10
-0.4564606299212599
 20
-2.536657480314961
 30
0.0
 10
-0.4508503937007874
 20
-2.535185039370079
 30
0.0
 10
-0.4466023622047244
 20
-2.532685039370079
 30
0.0
 10
-0.4436299212598425
 20
-2.529157480314961
 30
0.0
 10
-0.4436299212598425
 20
-2.529157480314961
 30
0.0
 10
-0.4406850393700788
 20
-2.525629921259843
 30
0.0
 10
-0.4391850393700787
 20
-2.521098425196851
 30
0.0
 10
-0.4391850393700787
 20
-2.515570866141732
 30
0.0
 10
-0.4391850393700787
 20
-2.515570866141732
 30
0.0
 10
-0.4391850393700787
 20
-2.510905511811024
 30
0.0
 10
-0.4405433070866142
 20
-2.507015748031496
 30
0.0
 10
-0.4432125984251969
 20
-2.503877952755905
 30
0.0
 10
-0.4432125984251969
 20
-2.503877952755905
 30
0.0
 10
-0.4459055118110236
 20
-2.500767716535433
 30
0.0
 10
-0.4495157480314961
 20
-2.498629921259842
 30
0.0
 10
-0.4540157480314961
 20
-2.497488188976378
 30
0.0
 10
-0.4540157480314961
 20
-2.497488188976378
 30
0.0
 10
-0.4569330708661418
 20
-2.496795275590551
 30
0.0
 10
-0.4630157480314961
 20
-2.496433070866142
 30
0.0
 10
-0.472240157480315
 20
-2.496433070866142
 30
0.0
 10
-0.472240157480315
 20
-2.496433070866142
 30
0.0
 10
-0.472240157480315
 20
-2.496433070866142
 30
0.0
 10
-0.4971259842519685
 20
-2.496433070866142
 30
0.0
 10
-0.4971259842519685
 20
-2.496433070866142
 30
0.0
  0
SPLINE
  5
63
330
1F
100
AcDbEntity
  8
Layer 1
 62
   250
100
AcDbSpline
210
0.0
220
0.0
230
1.0
 70
    11
 71
     3
 72
    52
 73
    48
 74
     0
 42
0.0000000001
 43
0.0000000001
 40
0.0
 40
0.0
 40
0.0
 40
0.0
 40
0.0833333333333333
 40
0.0833333333333333
 40
0.0833333333333333
 40
0.0833333333333333
 40
0.1666666666666667
 40
0.1666666666666667
 40
0.1666666666666667
 40
0.1666666666666667
 40
0.25
 40
0.25
 40
0.25
 40
0.25
 40
0.3333333333333333
 40
0.3333333333333333
 40
0.3333333333333333
 40
0.3333333333333333
 40
0.4166666666666666
 40
0.4166666666666666
 40
0.4166666666666666
 40
0.4166666666666666
 40
0.4999999999999999
 40
0.4999999999999999
 40
0.4999999999999999
 40
0.4999999999999999
 40
0.5833333333333333
 40
0.5833333333333333
 40
0.5833333333333333
 40
0.5833333333333333
 40
0.6666666666666666
 40
0.6666666666666666
 40
0.6666666666666666
 40
0.6666666666666666
 40
0.75
 40
0.75
 40
0.75
 40
0.75
 40
0.8333333333333334
 40
0.8333333333333334
 40
0.8333333333333334
 40
0.8333333333333334
 40
0.9166666666666667
 40
0.9166666666666667
 40
0.9166666666666667
 40
0.9166666666666667
 40
1.0
 40
1.0
 40
1.0
 40
1.0
 10
-0.4971259842519685
 20
-2.545850393700788
 30
0.0
 10
-0.4971259842519685
 20
-2.545850393700788
 30
0.0
 10
-0.4971259842519685
 20
-2.58309842519685
 30
0.0
 10
-0.4971259842519685
 20
-2.58309842519685
 30
0.0
 10
-0.4971259842519685
 20
-2.58309842519685
 30
0.0
 10
-0.4971259842519685
 20
-2.586850393700788
 30
0.0
 10
-0.4969606299212599
 20
-2.589070866141733
 30
0.0
 10
-0.4966574803149607
 20
-2.589795275590551
 30
0.0
 10
-0.4966574803149607
 20
-2.589795275590551
 30
0.0
 10
-0.4962125984251969
 20
-2.590767716535433
 30
0.0
 10
-0.4953503937007874
 20
-2.591433070866142
 30
0.0
 10
-0.4940433070866142
 20
-2.59182283464567
 30
0.0
 10
-0.4940433070866142
 20
-2.59182283464567
 30
0.0
 10
-0.4931259842519685
 20
-2.592098425196851
 30
0.0
 10
-0.4905157480314961
 20
-2.592240157480315
 30
0.0
 10
-0.486240157480315
 20
-2.592240157480315
 30
0.0
 10
-0.486240157480315
 20
-2.592240157480315
 30
0.0
 10
-0.486240157480315
 20
-2.592240157480315
 30
0.0
 10
-0.4751574803149606
 20
-2.592240157480315
 30
0.0
 10
-0.4751574803149606
 20
-2.592240157480315
 30
0.0
 10
-0.4751574803149606
 20
-2.592240157480315
 30
0.0
 10
-0.4642125984251969
 20
-2.592240157480315
 30
0.0
 10
-0.4563779527559055
 20
-2.591625984251968
 30
0.0
 10
-0.4516850393700788
 20
-2.590405511811024
 30
0.0
 10
-0.4516850393700788
 20
-2.590405511811024
 30
0.0
 10
-0.446988188976378
 20
-2.589185039370079
 30
0.0
 10
-0.442988188976378
 20
-2.586598425196851
 30
0.0
 10
-0.4396850393700788
 20
-2.582653543307087
 30
0.0
 10
-0.4396850393700788
 20
-2.582653543307087
 30
0.0
 10
-0.4363779527559055
 20
-2.578740157480315
 30
0.0
 10
-0.4347125984251969
 20
-2.573988188976378
 30
0.0
 10
-0.4347125984251969
 20
-2.56846062992126
 30
0.0
 10
-0.4347125984251969
 20
-2.56846062992126
 30
0.0
 10
-0.4347125984251969
 20
-2.563795275590551
 30
0.0
 10
-0.4360708661417323
 20
-2.559657480314961
 30
0.0
 10
-0.438740157480315
 20
-2.556043307086614
 30
0.0
 10
-0.438740157480315
 20
-2.556043307086614
 30
0.0
 10
-0.4414330708661418
 20
-2.552433070866142
 30
0.0
 10
-0.4451574803149607
 20
-2.549850393700788
 30
0.0
 10
-0.4499055118110236
 20
-2.548240157480315
 30
0.0
 10
-0.4499055118110236
 20
-2.548240157480315
 30
0.0
 10
-0.4546574803149607
 20
-2.546625984251969
 30
0.0
 10
-0.4630708661417323
 20
-2.545850393700788
 30
0.0
 10
-0.4751574803149606
 20
-2.545850393700788
 30
0.0
 10
-0.4751574803149606
 20
-2.545850393700788
 30
0.0
 10
-0.4751574803149606
 20
-2.545850393700788
 30
0.0
 10
-0.4971259842519685
 20
-2.545850393700788
 30
0.0
 10
-0.4971259842519685
 20
-2.545850393700788
 30
0.0
  0
SPLINE
  5
64
330
1F
100
AcDbEntity
  8
Layer 1
 62
   250
100
AcDbSpline
210
0.0
220
0.0
230
1.0
 70
    11
 71
     3
 72
   112
 73
   108
 74
     0
 42
0.0000000001
 43
0.0000000001
 40
0.0
 40
0.0
 40
0.0
 40
0.0
 40
0.037037037037037
 40
0.037037037037037
 40
0.037037037037037
 40
0.037037037037037
 40
0.0740740740740741
 40
0.0740740740740741
 40
0.0740740740740741
 40
0.0740740740740741
 40
0.1111111111111111
 40
0.1111111111111111
 40
0.1111111111111111
 40
0.1111111111111111
 40
0.1481481481481481
 40
0.1481481481481481
 40
0.1481481481481481
 40
0.1481481481481481
 40
0.1851851851851852
 40
0.1851851851851852
 40
0.1851851851851852
 40
0.1851851851851852
 40
0.2222222222222222
 40
0.2222222222222222
 40
0.2222222222222222
 40
0.2222222222222222
 40
0.2592592592592592
 40
0.2592592592592592
 40
0.2592592592592592
 40
0.2592592592592592
 40
0.2962962962962963
 40
0.2962962962962963
 40
0.2962962962962963
 40
0.2962962962962963
 40
0.3333333333333333
 40
0.3333333333333333
 40
0.3333333333333333
 40
0.3333333333333333
 40
0.3703703703703704
 40
0.3703703703703704
 40
0.3703703703703704
 40
0.3703703703703704
 40
0.4074074074074074
 40
0.4074074074074074
 40
0.4074074074074074
 40
0.4074074074074074
 40
0.4444444444444444
 40
0.4444444444444444
 40
0.4444444444444444
 40
0.4444444444444444
 40
0.4814814814814815
 40
0.4814814814814815
 40
0.4814814814814815
 40
0.4814814814814815
 40
0.5185185185185185
 40
0.5185185185185185
 40
0.5185185185185185
 40
0.5185185185185185
 40
0.5555555555555556
 40
0.5555555555555556
 40
0.5555555555555556
 40
0.5555555555555556
 40
0.5925925925925926
 40
0.5925925925925926
 40
0.5925925925925926
 40
0.5925925925925926
 40
0.6296296296296295
 40
0.6296296296296295
 40
0.6296296296296295
 40
0.6296296296296295
 40
0.6666666666666665
 40
0.6666666666666665
 40
0.6666666666666665
 40
0.6666666666666665
 40
0.7037037037037035
 40
0.7037037037037035
 40
0.7037037037037035
 40
0.7037037037037035
 40
0.7407407407407405
 40
0.7407407407407405
 40
0.7407407407407405
 40
0.7407407407407405
 40
0.7777777777777775
 40
0.7777777777777775
 40
0.7777777777777775
 40
0.7777777777777775
 40
0.8148148148148144
 40
0.8148148148148144
 40
0.8148148148148144
 40
0.8148148148148144
 40
0.8518518518518514
 40
0.8518518518518514
 40
0.8518518518518514
 40
0.8518518518518514
 40
0.8888888888888884
 40
0.8888888888888884
 40
0.8888888888888884
 40
0.8888888888888884
 40
0.9259259259259254
 40
0.9259259259259254
 40
0.9259259259259254
 40
0.9259259259259254
 40
0.9629629629629624
 40
0.9629629629629624
 40
0.9629629629629624
 40
0.9629629629629624
 40
1.0
 40
1.0
 40
1.0
 40
1.0
 10
-0.3600196850393701
 20
-2.487405511811024
 30
0.0
 10
-0.3600196850393701
 20
-2.487405511811024
 30
0.0
 10
-0.3466023622047244
 20
-2.487405511811024
 30
0.0
 10
-0.3466023622047244
 20
-2.487405511811024
 30
0.0
 10
-0.3466023622047244
 20
-2.487405511811024
 30
0.0
 10
-0.3466023622047244
 20
-2.487405511811024
 30
0.0
 10
-0.3113543307086614
 20
-2.582295275590552
 30
0.0
 10
-0.3113543307086614
 20
-2.582295275590552
 30
0.0
 10
-0.3113543307086614
 20
-2.582295275590552
 30
0.0
 10
-0.3096299212598425
 20
-2.587070866141732
 30
0.0
 10
-0.3078818897637796
 20
-2.590240157480315
 30
0.0
 10
-0.3061023622047244
 20
-2.591767716535433
 30
0.0
 10
-0.3061023622047244
 20
-2.591767716535433
 30
0.0
 10
-0.3043543307086614
 20
-2.59332283464567
 30
0.0
 10
-0.3019645669291339
 20
-2.59409842519685
 30
0.0
 10
-0.298992125984252
 20
-2.59409842519685
 30
0.0
 10
-0.298992125984252
 20
-2.59409842519685
 30
0.0
 10
-0.298992125984252
 20
-2.59409842519685
 30
0.0
 10
-0.2972125984251969
 20
-2.59409842519685
 30
0.0
 10
-0.2972125984251969
 20
-2.59409842519685
 30
0.0
 10
-0.2972125984251969
 20
-2.59409842519685
 30
0.0
 10
-0.2972125984251969
 20
-2.59409842519685
 30
0.0
 10
-0.2972125984251969
 20
-2.600933070866142
 30
0.0
 10
-0.2972125984251969
 20
-2.600933070866142
 30
0.0
 10
-0.2972125984251969
 20
-2.600933070866142
 30
0.0
 10
-0.2972125984251969
 20
-2.600933070866142
 30
0.0
 10
-0.3376574803149606
 20
-2.600933070866142
 30
0.0
 10
-0.3376574803149606
 20
-2.600933070866142
 30
0.0
 10
-0.3376574803149606
 20
-2.600933070866142
 30
0.0
 10
-0.3376574803149606
 20
-2.600933070866142
 30
0.0
 10
-0.3376574803149606
 20
-2.59409842519685
 30
0.0
 10
-0.3376574803149606
 20
-2.59409842519685
 30
0.0
 10
-0.3376574803149606
 20
-2.59409842519685
 30
0.0
 10
-0.3363543307086614
 20
-2.593988188976378
 30
0.0
 10
-0.3350748031496063
 20
-2.593933070866142
 30
0.0
 10
-0.3338228346456693
 20
-2.593933070866142
 30
0.0
 10
-0.3338228346456693
 20
-2.593933070866142
 30
0.0
 10
-0.3312125984251969
 20
-2.593933070866142
 30
0.0
 10
-0.3295196850393701
 20
-2.593653543307087
 30
0.0
 10
-0.3286850393700788
 20
-2.593125984251969
 30
0.0
 10
-0.3286850393700788
 20
-2.593125984251969
 30
0.0
 10
-0.3271299212598425
 20
-2.592098425196851
 30
0.0
 10
-0.3263267716535434
 20
-2.590795275590551
 30
0.0
 10
-0.3263267716535434
 20
-2.589212598425197
 30
0.0
 10
-0.3263267716535434
 20
-2.589212598425197
 30
0.0
 10
-0.3263267716535434
 20
-2.588070866141732
 30
0.0
 10
-0.3271023622047244
 20
-2.585295275590551
 30
0.0
 10
-0.3286023622047244
 20
-2.580822834645669
 30
0.0
 10
-0.3286023622047244
 20
-2.580822834645669
 30
0.0
 10
-0.3286023622047244
 20
-2.580822834645669
 30
0.0
 10
-0.3361023622047245
 20
-2.558850393700788
 30
0.0
 10
-0.3361023622047245
 20
-2.558850393700788
 30
0.0
 10
-0.3361023622047245
 20
-2.558850393700788
 30
0.0
 10
-0.3361023622047245
 20
-2.558850393700788
 30
0.0
 10
-0.3772677165354331
 20
-2.558850393700788
 30
0.0
 10
-0.3772677165354331
 20
-2.558850393700788
 30
0.0
 10
-0.3772677165354331
 20
-2.558850393700788
 30
0.0
 10
-0.3772677165354331
 20
-2.558850393700788
 30
0.0
 10
-0.3860748031496063
 20
-2.583433070866142
 30
0.0
 10
-0.3860748031496063
 20
-2.583433070866142
 30
0.0
 10
-0.3860748031496063
 20
-2.583433070866142
 30
0.0
 10
-0.386992125984252
 20
-2.585988188976378
 30
0.0
 10
-0.3874645669291339
 20
-2.587740157480315
 30
0.0
 10
-0.3874645669291339
 20
-2.588740157480315
 30
0.0
 10
-0.3874645669291339
 20
-2.588740157480315
 30
0.0
 10
-0.3874645669291339
 20
-2.589822834645669
 30
0.0
 10
-0.3871574803149607
 20
-2.590767716535433
 30
0.0
 10
-0.3866023622047244
 20
-2.591570866141733
 30
0.0
 10
-0.3866023622047244
 20
-2.591570866141733
 30
0.0
 10
-0.3860196850393701
 20
-2.592377952755906
 30
0.0
 10
-0.3852677165354331
 20
-2.592988188976378
 30
0.0
 10
-0.3842677165354331
 20
-2.593405511811024
 30
0.0
 10
-0.3842677165354331
 20
-2.593405511811024
 30
0.0
 10
-0.3832952755905512
 20
-2.593822834645669
 30
0.0
 10
-0.381740157480315
 20
-2.594015748031496
 30
0.0
 10
-0.3795472440944882
 20
-2.594015748031496
 30
0.0
 10
-0.3795472440944882
 20
-2.594015748031496
 30
0.0
 10
-0.3781023622047244
 20
-2.594015748031496
 30
0.0
 10
-0.3769094488188977
 20
-2.594043307086615
 30
0.0
 10
-0.375992125984252
 20
-2.59409842519685
 30
0.0
 10
-0.375992125984252
 20
-2.59409842519685
 30
0.0
 10
-0.375992125984252
 20
-2.59409842519685
 30
0.0
 10
-0.375992125984252
 20
-2.600933070866142
 30
0.0
 10
-0.375992125984252
 20
-2.600933070866142
 30
0.0
 10
-0.375992125984252
 20
-2.600933070866142
 30
0.0
 10
-0.375992125984252
 20
-2.600933070866142
 30
0.0
 10
-0.4099094488188976
 20
-2.600933070866142
 30
0.0
 10
-0.4099094488188976
 20
-2.600933070866142
 30
0.0
 10
-0.4099094488188976
 20
-2.600933070866142
 30
0.0
 10
-0.4099094488188976
 20
-2.600933070866142
 30
0.0
 10
-0.4099094488188976
 20
-2.59409842519685
 30
0.0
 10
-0.4099094488188976
 20
-2.59409842519685
 30
0.0
 10
-0.4099094488188976
 20
-2.59409842519685
 30
0.0
 10
-0.4067677165354331
 20
-2.59409842519685
 30
0.0
 10
-0.404492125984252
 20
-2.593795275590551
 30
0.0
 10
-0.4031299212598425
 20
-2.593153543307087
 30
0.0
 10
-0.4031299212598425
 20
-2.593153543307087
 30
0.0
 10
-0.401740157480315
 20
-2.592543307086614
 30
0.0
 10
-0.4005196850393701
 20
-2.591543307086614
 30
0.0
 10
-0.399492125984252
 20
-2.590153543307087
 30
0.0
 10
-0.399492125984252
 20
-2.590153543307087
 30
0.0
 10
-0.3984645669291339
 20
-2.588767716535433
 30
0.0
 10
-0.3971023622047245
 20
-2.585850393700787
 30
0.0
 10
-0.3954370078740158
 20
-2.581405511811024
 30
0.0
 10
-0.3954370078740158
 20
-2.581405511811024
 30
0.0
 10
-0.3954370078740158
 20
-2.581405511811024
 30
0.0
 10
-0.3600196850393701
 20
-2.487405511811024
 30
0.0
 10
-0.3600196850393701
 20
-2.487405511811024
 30
0.0
  0
SPLINE
  5
65
330
1F
100
AcDbEntity
  8
Layer 1
 62
   250
100
AcDbSpline
210
0.0
220
0.0
230
1.0
 70
    11
 71
     3
 72
    16
 73
    12
 74
     0
 42
0.0000000001
 43
0.0000000001
 40
0.0
 40
0.0
 40
0.0
 40
0.0
 40
0.3333333333333333
 40
0.3333333333333333
 40
0.3333333333333333
 40
0.3333333333333333
 40
0.6666666666666666
 40
0.6666666666666666
 40
0.6666666666666666
 40
0.6666666666666666
 40
1.0
 40
1.0
 40
1.0
 40
1.0
 10
-0.3742677165354331
 20
-2.550877952755906
 30
0.0
 10
-0.3742677165354331
 20
-2.550877952755906
 30
0.0
 10
-0.3391850393700788
 20
-2.550877952755906
 30
0.0
 10
-0.3391850393700788
 20
-2.550877952755906
 30
0.0
 10
-0.3391850393700788
 20
-2.550877952755906
 30
0.0
 10
-0.3391850393700788
 20
-2.550877952755906
 30
0.0
 10
-0.3567677165354331
 20
-2.502043307086614
 30
0.0
 10
-0.3567677165354331
 20
-2.502043307086614
 30
0.0
 10
-0.3567677165354331
 20
-2.502043307086614
 30
0.0
 10
-0.3567677165354331
 20
-2.502043307086614
 30
0.0
 10
-0.3742677165354331
 20
-2.550877952755906
 30
0.0
 10
-0.3742677165354331
 20
-2.550877952755906
 30
0.0
  0
SPLINE
  5
66
330
1F
100
AcDbEntity
  8
Layer 1
 62
   250
100
AcDbSpline
210
0.0
220
0.0
230
1.0
 70
    11
 71
     3
 72
    72
 73
    68
 74
     0
 42
0.0000000001
 43
0.0000000001
 40
0.0
 40
0.0
 40
0.0
 40
0.0
 40
0.0588235294117647
 40
0.0588235294117647
 40
0.0588235294117647
 40
0.0588235294117647
 40
0.1176470588235294
 40
0.1176470588235294
 40
0.1176470588235294
 40
0.1176470588235294
 40
0.1764705882352941
 40
0.1764705882352941
 40
0.1764705882352941
 40
0.1764705882352941
 40
0.2352941176470588
 40
0.2352941176470588
 40
0.2352941176470588
 40
0.2352941176470588
 40
0.2941176470588235
 40
0.2941176470588235
 40
0.2941176470588235
 40
0.2941176470588235
 40
0.3529411764705883
 40
0.3529411764705883
 40
0.3529411764705883
 40
0.3529411764705883
 40
0.411764705882353
 40
0.411764705882353
 40
0.411764705882353
 40
0.411764705882353
 40
0.4705882352941177
 40
0.4705882352941177
 40
0.4705882352941177
 40
0.4705882352941177
 40
0.5294117647058824
 40
0.5294117647058824
 40
0.5294117647058824
 40
0.5294117647058824
 40
0.5882352941176471
 40
0.5882352941176471
 40
0.5882352941176471
 40
0.5882352941176471
 40
0.6470588235294118
 40
0.6470588235294118
 40
0.6470588235294118
 40
0.6470588235294118
 40
0.7058823529411765
 40
0.7058823529411765
 40
0.7058823529411765
 40
0.7058823529411765
 40
0.7647058823529412
 40
0.7647058823529412
 40
0.7647058823529412
 40
0.7647058823529412
 40
0.823529411764706
 40
0.823529411764706
 40
0.823529411764706
 40
0.823529411764706
 40
0.8823529411764707
 40
0.8823529411764707
 40
0.8823529411764707
 40
0.8823529411764707
 40
0.9411764705882354
 40
0.9411764705882354
 40
0.9411764705882354
 40
0.9411764705882354
 40
1.0
 40
1.0
 40
1.0
 40
1.0
 10
-0.1341850393700788
 20
-2.487405511811024
 30
0.0
 10
-0.1341850393700788
 20
-2.487405511811024
 30
0.0
 10
-0.1281023622047244
 20
-2.487405511811024
 30
0.0
 10
-0.1281023622047244
 20
-2.487405511811024
 30
0.0
 10
-0.1281023622047244
 20
-2.487405511811024
 30
0.0
 10
-0.1281023622047244
 20
-2.487405511811024
 30
0.0
 10
-0.1281023622047244
 20
-2.581653543307087
 30
0.0
 10
-0.1281023622047244
 20
-2.581653543307087
 30
0.0
 10
-0.1281023622047244
 20
-2.581653543307087
 30
0.0
 10
-0.1281023622047244
 20
-2.58609842519685
 30
0.0
 10
-0.1277952755905512
 20
-2.58896062992126
 30
0.0
 10
-0.127240157480315
 20
-2.590240157480315
 30
0.0
 10
-0.127240157480315
 20
-2.590240157480315
 30
0.0
 10
-0.1266574803149606
 20
-2.591515748031496
 30
0.0
 10
-0.125740157480315
 20
-2.59246062992126
 30
0.0
 10
-0.1244370078740158
 20
-2.593125984251969
 30
0.0
 10
-0.1244370078740158
 20
-2.593125984251969
 30
0.0
 10
-0.1231299212598425
 20
-2.593767716535433
 30
0.0
 10
-0.1205472440944882
 20
-2.59409842519685
 30
0.0
 10
-0.1166850393700788
 20
-2.59409842519685
 30
0.0
 10
-0.1166850393700788
 20
-2.59409842519685
 30
0.0
 10
-0.1166850393700788
 20
-2.59409842519685
 30
0.0
 10
-0.1087125984251969
 20
-2.59409842519685
 30
0.0
 10
-0.1087125984251969
 20
-2.59409842519685
 30
0.0
 10
-0.1087125984251969
 20
-2.59409842519685
 30
0.0
 10
-0.1087125984251969
 20
-2.59409842519685
 30
0.0
 10
-0.1087125984251969
 20
-2.600933070866142
 30
0.0
 10
-0.1087125984251969
 20
-2.600933070866142
 30
0.0
 10
-0.1087125984251969
 20
-2.600933070866142
 30
0.0
 10
-0.1087125984251969
 20
-2.600933070866142
 30
0.0
 10
-0.1623503937007874
 20
-2.600933070866142
 30
0.0
 10
-0.1623503937007874
 20
-2.600933070866142
 30
0.0
 10
-0.1623503937007874
 20
-2.600933070866142
 30
0.0
 10
-0.1623503937007874
 20
-2.600933070866142
 30
0.0
 10
-0.1623503937007874
 20
-2.59409842519685
 30
0.0
 10
-0.1623503937007874
 20
-2.59409842519685
 30
0.0
 10
-0.1623503937007874
 20
-2.59409842519685
 30
0.0
 10
-0.1623503937007874
 20
-2.59409842519685
 30
0.0
 10
-0.153492125984252
 20
-2.59409842519685
 30
0.0
 10
-0.153492125984252
 20
-2.59409842519685
 30
0.0
 10
-0.153492125984252
 20
-2.59409842519685
 30
0.0
 10
-0.1496299212598425
 20
-2.59409842519685
 30
0.0
 10
-0.1470748031496063
 20
-2.593767716535433
 30
0.0
 10
-0.1457952755905512
 20
-2.593070866141733
 30
0.0
 10
-0.1457952755905512
 20
-2.593070866141733
 30
0.0
 10
-0.1445196850393701
 20
-2.592405511811024
 30
0.0
 10
-0.1435196850393701
 20
-2.591322834645669
 30
0.0
 10
-0.1428228346456693
 20
-2.589822834645669
 30
0.0
 10
-0.1428228346456693
 20
-2.589822834645669
 30
0.0
 10
-0.1421299212598425
 20
-2.588322834645669
 30
0.0
 10
-0.1417677165354331
 20
-2.585598425196851
 30
0.0
 10
-0.1417677165354331
 20
-2.581653543307087
 30
0.0
 10
-0.1417677165354331
 20
-2.581653543307087
 30
0.0
 10
-0.1417677165354331
 20
-2.581653543307087
 30
0.0
 10
-0.1417677165354331
 20
-2.504185039370079
 30
0.0
 10
-0.1417677165354331
 20
-2.504185039370079
 30
0.0
 10
-0.1417677165354331
 20
-2.504185039370079
 30
0.0
 10
-0.1417677165354331
 20
-2.504185039370079
 30
0.0
 10
-0.1623503937007874
 20
-2.504185039370079
 30
0.0
 10
-0.1623503937007874
 20
-2.504185039370079
 30
0.0
 10
-0.1623503937007874
 20
-2.504185039370079
 30
0.0
 10
-0.1623503937007874
 20
-2.504185039370079
 30
0.0
 10
-0.1623503937007874
 20
-2.497185039370079
 30
0.0
 10
-0.1623503937007874
 20
-2.497185039370079
 30
0.0
 10
-0.1623503937007874
 20
-2.497185039370079
 30
0.0
 10
-0.1511299212598425
 20
-2.495602362204724
 30
0.0
 10
-0.141740157480315
 20
-2.492350393700788
 30
0.0
 10
-0.1341850393700788
 20
-2.487405511811024
 30
0.0
  0
SPLINE
  5
67
330
1F
100
AcDbEntity
  8
Layer 1
 62
   250
100
AcDbSpline
210
0.0
220
0.0
230
1.0
 70
    11
 71
     3
 72
    84
 73
    80
 74
     0
 42
0.0000000001
 43
0.0000000001
 40
0.0
 40
0.0
 40
0.0
 40
0.0
 40
0.05
 40
0.05
 40
0.05
 40
0.05
 40
0.1
 40
0.1
 40
0.1
 40
0.1
 40
0.15
 40
0.15
 40
0.15
 40
0.15
 40
0.2
 40
0.2
 40
0.2
 40
0.2
 40
0.25
 40
0.25
 40
0.25
 40
0.25
 40
0.3
 40
0.3
 40
0.3
 40
0.3
 40
0.35
 40
0.35
 40
0.35
 40
0.35
 40
0.4
 40
0.4
 40
0.4
 40
0.4
 40
0.45
 40
0.45
 40
0.45
 40
0.45
 40
0.4999999999999999
 40
0.4999999999999999
 40
0.4999999999999999
 40
0.4999999999999999
 40
0.5499999999999999
 40
0.5499999999999999
 40
0.5499999999999999
 40
0.5499999999999999
 40
0.6
 40
0.6
 40
0.6
 40
0.6
 40
0.65
 40
0.65
 40
0.65
 40
0.65
 40
0.7000000000000001
 40
0.7000000000000001
 40
0.7000000000000001
 40
0.7000000000000001
 40
0.7500000000000001
 40
0.7500000000000001
 40
0.7500000000000001
 40
0.7500000000000001
 40
0.8000000000000002
 40
0.8000000000000002
 40
0.8000000000000002
 40
0.8000000000000002
 40
0.8500000000000002
 40
0.8500000000000002
 40
0.8500000000000002
 40
0.8500000000000002
 40
0.9000000000000002
 40
0.9000000000000002
 40
0.9000000000000002
 40
0.9000000000000002
 40
0.9500000000000003
 40
0.9500000000000003
 40
0.9500000000000003
 40
0.9500000000000003
 40
1.0
 40
1.0
 40
1.0
 40
1.0
 10
-0.0025196850393701
 20
-2.485295275590551
 30
0.0
 10
-0.0025196850393701
 20
-2.485295275590551
 30
0.0
 10
-0.0025196850393701
 20
-2.492712598425197
 30
0.0
 10
-0.0025196850393701
 20
-2.492712598425197
 30
0.0
 10
-0.0025196850393701
 20
-2.492712598425197
 30
0.0
 10
-0.0159055118110236
 20
-2.492850393700787
 30
0.0
 10
-0.026740157480315
 20
-2.49482283464567
 30
0.0
 10
-0.0350157480314961
 20
-2.498543307086614
 30
0.0
 10
-0.0350157480314961
 20
-2.498543307086614
 30
0.0
 10
-0.0432952755905512
 20
-2.502295275590551
 30
0.0
 10
-0.0493779527559055
 20
-2.507905511811024
 30
0.0
 10
-0.0532952755905512
 20
-2.515350393700787
 30
0.0
 10
-0.0532952755905512
 20
-2.515350393700787
 30
0.0
 10
-0.0572125984251969
 20
-2.52282283464567
 30
0.0
 10
-0.0594055118110236
 20
-2.532015748031496
 30
0.0
 10
-0.0598779527559055
 20
-2.542905511811024
 30
0.0
 10
-0.0598779527559055
 20
-2.542905511811024
 30
0.0
 10
-0.0571299212598425
 20
-2.538685039370079
 30
0.0
 10
-0.0542952755905512
 20
-2.535377952755906
 30
0.0
 10
-0.0513779527559055
 20
-2.533015748031496
 30
0.0
 10
-0.0513779527559055
 20
-2.533015748031496
 30
0.0
 10
-0.048488188976378
 20
-2.530657480314961
 30
0.0
 10
-0.0451023622047244
 20
-2.528850393700787
 30
0.0
 10
-0.0412125984251969
 20
-2.527570866141732
 30
0.0
 10
-0.0412125984251969
 20
-2.527570866141732
 30
0.0
 10
-0.0373228346456693
 20
-2.526295275590551
 30
0.0
 10
-0.0330748031496063
 20
-2.525657480314961
 30
0.0
 10
-0.0284606299212598
 20
-2.525657480314961
 30
0.0
 10
-0.0284606299212598
 20
-2.525657480314961
 30
0.0
 10
-0.0211023622047244
 20
-2.525657480314961
 30
0.0
 10
-0.0145196850393701
 20
-2.527295275590551
 30
0.0
 10
-0.0087677165354331
 20
-2.530543307086614
 30
0.0
 10
-0.0087677165354331
 20
-2.530543307086614
 30
0.0
 10
-0.0030196850393701
 20
-2.533795275590551
 30
0.0
 10
0.0014527559055118
 20
-2.538212598425197
 30
0.0
 10
0.0046496062992126
 20
-2.543767716535433
 30
0.0
 10
0.0046496062992126
 20
-2.543767716535433
 30
0.0
 10
0.0078425196850394
 20
-2.54932283464567
 30
0.0
 10
0.0094527559055118
 20
-2.555877952755906
 30
0.0
 10
0.0094527559055118
 20
-2.563405511811024
 30
0.0
 10
0.0094527559055118
 20
-2.563405511811024
 30
0.0
 10
0.0094527559055118
 20
-2.575405511811024
 30
0.0
 10
0.0058425196850394
 20
-2.584822834645669
 30
0.0
 10
-0.0013779527559055
 20
-2.591653543307087
 30
0.0
 10
-0.0013779527559055
 20
-2.591653543307087
 30
0.0
 10
-0.0093503937007874
 20
-2.599153543307087
 30
0.0
 10
-0.0196850393700787
 20
-2.602877952755906
 30
0.0
 10
-0.0323779527559055
 20
-2.602877952755906
 30
0.0
 10
-0.0323779527559055
 20
-2.602877952755906
 30
0.0
 10
-0.0415472440944882
 20
-2.602877952755906
 30
0.0
 10
-0.0492677165354331
 20
-2.600988188976378
 30
0.0
 10
-0.0555748031496063
 20
-2.597185039370079
 30
0.0
 10
-0.0555748031496063
 20
-2.597185039370079
 30
0.0
 10
-0.0618779527559055
 20
-2.593405511811024
 30
0.0
 10
-0.0668779527559055
 20
-2.587598425196851
 30
0.0
 10
-0.0706023622047244
 20
-2.579767716535433
 30
0.0
 10
-0.0706023622047244
 20
-2.579767716535433
 30
0.0
 10
-0.0742952755905512
 20
-2.57196062992126
 30
0.0
 10
-0.0761574803149606
 20
-2.562295275590552
 30
0.0
 10
-0.0761574803149606
 20
-2.550795275590551
 30
0.0
 10
-0.0761574803149606
 20
-2.550795275590551
 30
0.0
 10
-0.0761574803149606
 20
-2.539240157480315
 30
0.0
 10
-0.0741850393700787
 20
-2.528988188976378
 30
0.0
 10
-0.0702677165354331
 20
-2.520043307086614
 30
0.0
 10
-0.0702677165354331
 20
-2.520043307086614
 30
0.0
 10
-0.0663228346456693
 20
-2.511102362204725
 30
0.0
 10
-0.0608779527559055
 20
-2.503905511811024
 30
0.0
 10
-0.0539330708661417
 20
-2.498488188976378
 30
0.0
 10
-0.0539330708661417
 20
-2.498488188976378
 30
0.0
 10
-0.046988188976378
 20
-2.493043307086615
 30
0.0
 10
-0.0393779527559055
 20
-2.489488188976378
 30
0.0
 10
-0.0311299212598425
 20
-2.487822834645669
 30
0.0
 10
-0.0311299212598425
 20
-2.487822834645669
 30
0.0
 10
-0.0228503937007874
 20
-2.486129921259843
 30
0.0
 10
-0.0154330708661417
 20
-2.485295275590551
 30
0.0
 10
-0.0088503937007874
 20
-2.485295275590551
 30
0.0
 10
-0.0088503937007874
 20
-2.485295275590551
 30
0.0
 10
-0.0088503937007874
 20
-2.485295275590551
 30
0.0
 10
-0.0025196850393701
 20
-2.485295275590551
 30
0.0
 10
-0.0025196850393701
 20
-2.485295275590551
 30
0.0
  0
SPLINE
  5
68
330
1F
100
AcDbEntity
  8
Layer 1
 62
   250
100
AcDbSpline
210
0.0
220
0.0
230
1.0
 70
    11
 71
     3
 72
    40
 73
    36
 74
     0
 42
0.0000000001
 43
0.0000000001
 40
0.0
 40
0.0
 40
0.0
 40
0.0
 40
0.1111111111111111
 40
0.1111111111111111
 40
0.1111111111111111
 40
0.1111111111111111
 40
0.2222222222222222
 40
0.2222222222222222
 40
0.2222222222222222
 40
0.2222222222222222
 40
0.3333333333333333
 40
0.3333333333333333
 40
0.3333333333333333
 40
0.3333333333333333
 40
0.4444444444444444
 40
0.4444444444444444
 40
0.4444444444444444
 40
0.4444444444444444
 40
0.5555555555555556
 40
0.5555555555555556
 40
0.5555555555555556
 40
0.5555555555555556
 40
0.6666666666666667
 40
0.6666666666666667
 40
0.6666666666666667
 40
0.6666666666666667
 40
0.7777777777777779
 40
0.7777777777777779
 40
0.7777777777777779
 40
0.7777777777777779
 40
0.8888888888888891
 40
0.8888888888888891
 40
0.8888888888888891
 40
0.8888888888888891
 40
1.0
 40
1.0
 40
1.0
 40
1.0
 10
-0.0322125984251969
 20
-2.534295275590552
 30
0.0
 10
-0.0400157480314961
 20
-2.534295275590552
 30
0.0
 10
-0.0464330708661417
 20
-2.537240157480315
 30
0.0
 10
-0.0514606299212598
 20
-2.543157480314961
 30
0.0
 10
-0.0514606299212598
 20
-2.543157480314961
 30
0.0
 10
-0.056488188976378
 20
-2.549070866141733
 30
0.0
 10
-0.058988188976378
 20
-2.556185039370079
 30
0.0
 10
-0.058988188976378
 20
-2.56446062992126
 30
0.0
 10
-0.058988188976378
 20
-2.56446062992126
 30
0.0
 10
-0.058988188976378
 20
-2.57032283464567
 30
0.0
 10
-0.0577677165354331
 20
-2.575740157480315
 30
0.0
 10
-0.0553228346456693
 20
-2.580712598425197
 30
0.0
 10
-0.0553228346456693
 20
-2.580712598425197
 30
0.0
 10
-0.0528779527559055
 20
-2.585685039370079
 30
0.0
 10
-0.049740157480315
 20
-2.589350393700788
 30
0.0
 10
-0.0458779527559055
 20
-2.591767716535433
 30
0.0
 10
-0.0458779527559055
 20
-2.591767716535433
 30
0.0
 10
-0.0420472440944882
 20
-2.594185039370079
 30
0.0
 10
-0.0376850393700787
 20
-2.595405511811024
 30
0.0
 10
-0.0328779527559055
 20
-2.595405511811024
 30
0.0
 10
-0.0328779527559055
 20
-2.595405511811024
 30
0.0
 10
-0.0253779527559055
 20
-2.595405511811024
 30
0.0
 10
-0.0191574803149606
 20
-2.592570866141732
 30
0.0
 10
-0.0141850393700787
 20
-2.586905511811024
 30
0.0
 10
-0.0141850393700787
 20
-2.586905511811024
 30
0.0
 10
-0.009240157480315
 20
-2.581240157480315
 30
0.0
 10
-0.006740157480315
 20
-2.573625984251969
 30
0.0
 10
-0.006740157480315
 20
-2.564070866141732
 30
0.0
 10
-0.006740157480315
 20
-2.564070866141732
 30
0.0
 10
-0.006740157480315
 20
-2.55496062992126
 30
0.0
 10
-0.0091574803149606
 20
-2.547712598425197
 30
0.0
 10
-0.013988188976378
 20
-2.542350393700787
 30
0.0
 10
-0.013988188976378
 20
-2.542350393700787
 30
0.0
 10
-0.0188228346456693
 20
-2.53696062992126
 30
0.0
 10
-0.0249055118110236
 20
-2.534295275590552
 30
0.0
 10
-0.0322125984251969
 20
-2.534295275590552
 30
0.0
  0
SPLINE
  5
69
330
1F
100
AcDbEntity
  8
Layer 1
 62
   250
100
AcDbSpline
210
0.0
220
0.0
230
1.0
 70
    11
 71
     3
 72
    48
 73
    44
 74
     0
 42
0.0000000001
 43
0.0000000001
 40
0.0
 40
0.0
 40
0.0
 40
0.0
 40
0.0909090909090909
 40
0.0909090909090909
 40
0.0909090909090909
 40
0.0909090909090909
 40
0.1818181818181818
 40
0.1818181818181818
 40
0.1818181818181818
 40
0.1818181818181818
 40
0.2727272727272727
 40
0.2727272727272727
 40
0.2727272727272727
 40
0.2727272727272727
 40
0.3636363636363637
 40
0.3636363636363637
 40
0.3636363636363637
 40
0.3636363636363637
 40
0.4545454545454546
 40
0.4545454545454546
 40
0.4545454545454546
 40
0.4545454545454546
 40
0.5454545454545455
 40
0.5454545454545455
 40
0.5454545454545455
 40
0.5454545454545455
 40
0.6363636363636365
 40
0.6363636363636365
 40
0.6363636363636365
 40
0.6363636363636365
 40
0.7272727272727274
 40
0.7272727272727274
 40
0.7272727272727274
 40
0.7272727272727274
 40
0.8181818181818183
 40
0.8181818181818183
 40
0.8181818181818183
 40
0.8181818181818183
 40
0.9090909090909093
 40
0.9090909090909093
 40
0.9090909090909093
 40
0.9090909090909093
 40
1.0
 40
1.0
 40
1.0
 40
1.0
 10
0.0769291338582677
 20
-2.487405511811024
 30
0.0
 10
0.0769291338582677
 20
-2.487405511811024
 30
0.0
 10
0.0906771653543307
 20
-2.487405511811024
 30
0.0
 10
0.0906771653543307
 20
-2.487405511811024
 30
0.0
 10
0.0906771653543307
 20
-2.487405511811024
 30
0.0
 10
0.0906771653543307
 20
-2.487405511811024
 30
0.0
 10
0.0906771653543307
 20
-2.553405511811024
 30
0.0
 10
0.0906771653543307
 20
-2.553405511811024
 30
0.0
 10
0.0906771653543307
 20
-2.553405511811024
 30
0.0
 10
0.0906771653543307
 20
-2.553405511811024
 30
0.0
 10
0.1120118110236221
 20
-2.553405511811024
 30
0.0
 10
0.1120118110236221
 20
-2.553405511811024
 30
0.0
 10
0.1120118110236221
 20
-2.553405511811024
 30
0.0
 10
0.1120118110236221
 20
-2.553405511811024
 30
0.0
 10
0.1120118110236221
 20
-2.563570866141733
 30
0.0
 10
0.1120118110236221
 20
-2.563570866141733
 30
0.0
 10
0.1120118110236221
 20
-2.563570866141733
 30
0.0
 10
0.1120118110236221
 20
-2.563570866141733
 30
0.0
 10
0.0906771653543307
 20
-2.563570866141733
 30
0.0
 10
0.0906771653543307
 20
-2.563570866141733
 30
0.0
 10
0.0906771653543307
 20
-2.563570866141733
 30
0.0
 10
0.0906771653543307
 20
-2.563570866141733
 30
0.0
 10
0.0906771653543307
 20
-2.600933070866142
 30
0.0
 10
0.0906771653543307
 20
-2.600933070866142
 30
0.0
 10
0.0906771653543307
 20
-2.600933070866142
 30
0.0
 10
0.0906771653543307
 20
-2.600933070866142
 30
0.0
 10
0.0769291338582677
 20
-2.600933070866142
 30
0.0
 10
0.0769291338582677
 20
-2.600933070866142
 30
0.0
 10
0.0769291338582677
 20
-2.600933070866142
 30
0.0
 10
0.0769291338582677
 20
-2.600933070866142
 30
0.0
 10
0.0769291338582677
 20
-2.563570866141733
 30
0.0
 10
0.0769291338582677
 20
-2.563570866141733
 30
0.0
 10
0.0769291338582677
 20
-2.563570866141733
 30
0.0
 10
0.0769291338582677
 20
-2.563570866141733
 30
0.0
 10
0.0234566929133858
 20
-2.563570866141733
 30
0.0
 10
0.0234566929133858
 20
-2.563570866141733
 30
0.0
 10
0.0234566929133858
 20
-2.563570866141733
 30
0.0
 10
0.0234566929133858
 20
-2.563570866141733
 30
0.0
 10
0.0234566929133858
 20
-2.549267716535433
 30
0.0
 10
0.0234566929133858
 20
-2.549267716535433
 30
0.0
 10
0.0234566929133858
 20
-2.549267716535433
 30
0.0
 10
0.0234566929133858
 20
-2.549267716535433
 30
0.0
 10
0.0769291338582677
 20
-2.487405511811024
 30
0.0
 10
0.0769291338582677
 20
-2.487405511811024
 30
0.0
  0
SPLINE
  5
6A
330
1F
100
AcDbEntity
  8
Layer 1
 62
   250
100
AcDbSpline
210
0.0
220
0.0
230
1.0
 70
    11
 71
     3
 72
    16
 73
    12
 74
     0
 42
0.0000000001
 43
0.0000000001
 40
0.0
 40
0.0
 40
0.0
 40
0.0
 40
0.3333333333333333
 40
0.3333333333333333
 40
0.3333333333333333
 40
0.3333333333333333
 40
0.6666666666666666
 40
0.6666666666666666
 40
0.6666666666666666
 40
0.6666666666666666
 40
1.0
 40
1.0
 40
1.0
 40
1.0
 10
0.0769291338582677
 20
-2.553405511811024
 30
0.0
 10
0.0769291338582677
 20
-2.553405511811024
 30
0.0
 10
0.0769291338582677
 20
-2.500015748031496
 30
0.0
 10
0.0769291338582677
 20
-2.500015748031496
 30
0.0
 10
0.0769291338582677
 20
-2.500015748031496
 30
0.0
 10
0.0769291338582677
 20
-2.500015748031496
 30
0.0
 10
0.0308740157480315
 20
-2.553405511811024
 30
0.0
 10
0.0308740157480315
 20
-2.553405511811024
 30
0.0
 10
0.0308740157480315
 20
-2.553405511811024
 30
0.0
 10
0.0308740157480315
 20
-2.553405511811024
 30
0.0
 10
0.0769291338582677
 20
-2.553405511811024
 30
0.0
 10
0.0769291338582677
 20
-2.553405511811024
 30
0.0
  0
SPLINE
  5
6B
330
1F
100
AcDbEntity
  8
Layer 1
 62
   250
100
AcDbSpline
210
0.0
220
0.0
230
1.0
 70
    11
 71
     3
 72
    84
 73
    80
 74
     0
 42
0.0000000001
 43
0.0000000001
 40
0.0
 40
0.0
 40
0.0
 40
0.0
 40
0.05
 40
0.05
 40
0.05
 40
0.05
 40
0.1
 40
0.1
 40
0.1
 40
0.1
 40
0.15
 40
0.15
 40
0.15
 40
0.15
 40
0.2
 40
0.2
 40
0.2
 40
0.2
 40
0.25
 40
0.25
 40
0.25
 40
0.25
 40
0.3
 40
0.3
 40
0.3
 40
0.3
 40
0.35
 40
0.35
 40
0.35
 40
0.35
 40
0.4
 40
0.4
 40
0.4
 40
0.4
 40
0.45
 40
0.45
 40
0.45
 40
0.45
 40
0.4999999999999999
 40
0.4999999999999999
 40
0.4999999999999999
 40
0.4999999999999999
 40
0.5499999999999999
 40
0.5499999999999999
 40
0.5499999999999999
 40
0.5499999999999999
 40
0.6
 40
0.6
 40
0.6
 40
0.6
 40
0.65
 40
0.65
 40
0.65
 40
0.65
 40
0.7000000000000001
 40
0.7000000000000001
 40
0.7000000000000001
 40
0.7000000000000001
 40
0.7500000000000001
 40
0.7500000000000001
 40
0.7500000000000001
 40
0.7500000000000001
 40
0.8000000000000002
 40
0.8000000000000002
 40
0.8000000000000002
 40
0.8000000000000002
 40
0.8500000000000002
 40
0.8500000000000002
 40
0.8500000000000002
 40
0.8500000000000002
 40
0.9000000000000002
 40
0.9000000000000002
 40
0.9000000000000002
 40
0.9000000000000002
 40
0.9500000000000003
 40
0.9500000000000003
 40
0.9500000000000003
 40
0.9500000000000003
 40
1.0
 40
1.0
 40
1.0
 40
1.0
 10
0.2042047244094488
 20
-2.485295275590551
 30
0.0
 10
0.2042047244094488
 20
-2.485295275590551
 30
0.0
 10
0.2042047244094488
 20
-2.492712598425197
 30
0.0
 10
0.2042047244094488
 20
-2.492712598425197
 30
0.0
 10
0.2042047244094488
 20
-2.492712598425197
 30
0.0
 10
0.1908188976377953
 20
-2.492850393700787
 30
0.0
 10
0.179984251968504
 20
-2.49482283464567
 30
0.0
 10
0.1717086614173228
 20
-2.498543307086614
 30
0.0
 10
0.1717086614173228
 20
-2.498543307086614
 30
0.0
 10
0.1634291338582677
 20
-2.502295275590551
 30
0.0
 10
0.1573464566929134
 20
-2.507905511811024
 30
0.0
 10
0.1534291338582677
 20
-2.515350393700787
 30
0.0
 10
0.1534291338582677
 20
-2.515350393700787
 30
0.0
 10
0.149511811023622
 20
-2.52282283464567
 30
0.0
 10
0.1473188976377953
 20
-2.532015748031496
 30
0.0
 10
0.1468464566929134
 20
-2.542905511811024
 30
0.0
 10
0.1468464566929134
 20
-2.542905511811024
 30
0.0
 10
0.1495944881889764
 20
-2.538685039370079
 30
0.0
 10
0.1524291338582677
 20
-2.535377952755906
 30
0.0
 10
0.1553464566929134
 20
-2.533015748031496
 30
0.0
 10
0.1553464566929134
 20
-2.533015748031496
 30
0.0
 10
0.158236220472441
 20
-2.530657480314961
 30
0.0
 10
0.1616220472440945
 20
-2.528850393700787
 30
0.0
 10
0.1655118110236221
 20
-2.527570866141732
 30
0.0
 10
0.1655118110236221
 20
-2.527570866141732
 30
0.0
 10
0.1694015748031496
 20
-2.526295275590551
 30
0.0
 10
0.1736496062992126
 20
-2.525657480314961
 30
0.0
 10
0.1782637795275591
 20
-2.525657480314961
 30
0.0
 10
0.1782637795275591
 20
-2.525657480314961
 30
0.0
 10
0.1856220472440945
 20
-2.525657480314961
 30
0.0
 10
0.1922047244094488
 20
-2.527295275590551
 30
0.0
 10
0.1979566929133858
 20
-2.530543307086614
 30
0.0
 10
0.1979566929133858
 20
-2.530543307086614
 30
0.0
 10
0.2037047244094488
 20
-2.533795275590551
 30
0.0
 10
0.2081771653543307
 20
-2.538212598425197
 30
0.0
 10
0.2113740157480315
 20
-2.543767716535433
 30
0.0
 10
0.2113740157480315
 20
-2.543767716535433
 30
0.0
 10
0.2145669291338583
 20
-2.54932283464567
 30
0.0
 10
0.2161771653543307
 20
-2.555877952755906
 30
0.0
 10
0.2161771653543307
 20
-2.563405511811024
 30
0.0
 10
0.2161771653543307
 20
-2.563405511811024
 30
0.0
 10
0.2161771653543307
 20
-2.575405511811024
 30
0.0
 10
0.2125669291338583
 20
-2.584822834645669
 30
0.0
 10
0.2053464566929134
 20
-2.591653543307087
 30
0.0
 10
0.2053464566929134
 20
-2.591653543307087
 30
0.0
 10
0.1973740157480315
 20
-2.599153543307087
 30
0.0
 10
0.1870393700787402
 20
-2.602877952755906
 30
0.0
 10
0.1743464566929134
 20
-2.602877952755906
 30
0.0
 10
0.1743464566929134
 20
-2.602877952755906
 30
0.0
 10
0.1651771653543307
 20
-2.602877952755906
 30
0.0
 10
0.1574566929133858
 20
-2.600988188976378
 30
0.0
 10
0.1511496062992126
 20
-2.597185039370079
 30
0.0
 10
0.1511496062992126
 20
-2.597185039370079
 30
0.0
 10
0.1448464566929134
 20
-2.593405511811024
 30
0.0
 10
0.1398464566929134
 20
-2.587598425196851
 30
0.0
 10
0.1361220472440945
 20
-2.579767716535433
 30
0.0
 10
0.1361220472440945
 20
-2.579767716535433
 30
0.0
 10
0.1324291338582677
 20
-2.57196062992126
 30
0.0
 10
0.1305669291338583
 20
-2.562295275590552
 30
0.0
 10
0.1305669291338583
 20
-2.550795275590551
 30
0.0
 10
0.1305669291338583
 20
-2.550795275590551
 30
0.0
 10
0.1305669291338583
 20
-2.539240157480315
 30
0.0
 10
0.1325393700787402
 20
-2.528988188976378
 30
0.0
 10
0.1364566929133858
 20
-2.520043307086614
 30
0.0
 10
0.1364566929133858
 20
-2.520043307086614
 30
0.0
 10
0.1404015748031496
 20
-2.511102362204725
 30
0.0
 10
0.1458464566929134
 20
-2.503905511811024
 30
0.0
 10
0.1527913385826772
 20
-2.498488188976378
 30
0.0
 10
0.1527913385826772
 20
-2.498488188976378
 30
0.0
 10
0.159736220472441
 20
-2.493043307086615
 30
0.0
 10
0.1673464566929134
 20
-2.489488188976378
 30
0.0
 10
0.1755944881889764
 20
-2.487822834645669
 30
0.0
 10
0.1755944881889764
 20
-2.487822834645669
 30
0.0
 10
0.1838740157480315
 20
-2.486129921259843
 30
0.0
 10
0.1912913385826772
 20
-2.485295275590551
 30
0.0
 10
0.1978740157480315
 20
-2.485295275590551
 30
0.0
 10
0.1978740157480315
 20
-2.485295275590551
 30
0.0
 10
0.1978740157480315
 20
-2.485295275590551
 30
0.0
 10
0.2042047244094488
 20
-2.485295275590551
 30
0.0
 10
0.2042047244094488
 20
-2.485295275590551
 30
0.0
  0
SPLINE
  5
6C
330
1F
100
AcDbEntity
  8
Layer 1
 62
   250
100
AcDbSpline
210
0.0
220
0.0
230
1.0
 70
    11
 71
     3
 72
    40
 73
    36
 74
     0
 42
0.0000000001
 43
0.0000000001
 40
0.0
 40
0.0
 40
0.0
 40
0.0
 40
0.1111111111111111
 40
0.1111111111111111
 40
0.1111111111111111
 40
0.1111111111111111
 40
0.2222222222222222
 40
0.2222222222222222
 40
0.2222222222222222
 40
0.2222222222222222
 40
0.3333333333333333
 40
0.3333333333333333
 40
0.3333333333333333
 40
0.3333333333333333
 40
0.4444444444444444
 40
0.4444444444444444
 40
0.4444444444444444
 40
0.4444444444444444
 40
0.5555555555555556
 40
0.5555555555555556
 40
0.5555555555555556
 40
0.5555555555555556
 40
0.6666666666666667
 40
0.6666666666666667
 40
0.6666666666666667
 40
0.6666666666666667
 40
0.7777777777777779
 40
0.7777777777777779
 40
0.7777777777777779
 40
0.7777777777777779
 40
0.8888888888888891
 40
0.8888888888888891
 40
0.8888888888888891
 40
0.8888888888888891
 40
1.0
 40
1.0
 40
1.0
 40
1.0
 10
0.1745118110236221
 20
-2.534295275590552
 30
0.0
 10
0.1667086614173229
 20
-2.534295275590552
 30
0.0
 10
0.1602913385826772
 20
-2.537240157480315
 30
0.0
 10
0.1552637795275591
 20
-2.543157480314961
 30
0.0
 10
0.1552637795275591
 20
-2.543157480314961
 30
0.0
 10
0.150236220472441
 20
-2.549070866141733
 30
0.0
 10
0.147736220472441
 20
-2.556185039370079
 30
0.0
 10
0.147736220472441
 20
-2.56446062992126
 30
0.0
 10
0.147736220472441
 20
-2.56446062992126
 30
0.0
 10
0.147736220472441
 20
-2.57032283464567
 30
0.0
 10
0.1489566929133858
 20
-2.575740157480315
 30
0.0
 10
0.1514015748031496
 20
-2.580712598425197
 30
0.0
 10
0.1514015748031496
 20
-2.580712598425197
 30
0.0
 10
0.1538464566929134
 20
-2.585685039370079
 30
0.0
 10
0.1569842519685039
 20
-2.589350393700788
 30
0.0
 10
0.1608464566929134
 20
-2.591767716535433
 30
0.0
 10
0.1608464566929134
 20
-2.591767716535433
 30
0.0
 10
0.1646771653543307
 20
-2.594185039370079
 30
0.0
 10
0.1690393700787402
 20
-2.595405511811024
 30
0.0
 10
0.1738464566929134
 20
-2.595405511811024
 30
0.0
 10
0.1738464566929134
 20
-2.595405511811024
 30
0.0
 10
0.1813464566929134
 20
-2.595405511811024
 30
0.0
 10
0.1875669291338583
 20
-2.592570866141732
 30
0.0
 10
0.1925393700787402
 20
-2.586905511811024
 30
0.0
 10
0.1925393700787402
 20
-2.586905511811024
 30
0.0
 10
0.1974842519685039
 20
-2.581240157480315
 30
0.0
 10
0.199984251968504
 20
-2.573625984251969
 30
0.0
 10
0.199984251968504
 20
-2.564070866141732
 30
0.0
 10
0.199984251968504
 20
-2.564070866141732
 30
0.0
 10
0.199984251968504
 20
-2.55496062992126
 30
0.0
 10
0.1975669291338583
 20
-2.547712598425197
 30
0.0
 10
0.192736220472441
 20
-2.542350393700787
 30
0.0
 10
0.192736220472441
 20
-2.542350393700787
 30
0.0
 10
0.1879015748031496
 20
-2.53696062992126
 30
0.0
 10
0.1818188976377953
 20
-2.534295275590552
 30
0.0
 10
0.1745118110236221
 20
-2.534295275590552
 30
0.0
  0
SPLINE
  5
6D
330
1F
100
AcDbEntity
  8
Layer 1
 62
   250
100
AcDbSpline
210
0.0
220
0.0
230
1.0
 70
    11
 71
     3
 72
    72
 73
    68
 74
     0
 42
0.0000000001
 43
0.0000000001
 40
0.0
 40
0.0
 40
0.0
 40
0.0
 40
0.0588235294117647
 40
0.0588235294117647
 40
0.0588235294117647
 40
0.0588235294117647
 40
0.1176470588235294
 40
0.1176470588235294
 40
0.1176470588235294
 40
0.1176470588235294
 40
0.1764705882352941
 40
0.1764705882352941
 40
0.1764705882352941
 40
0.1764705882352941
 40
0.2352941176470588
 40
0.2352941176470588
 40
0.2352941176470588
 40
0.2352941176470588
 40
0.2941176470588235
 40
0.2941176470588235
 40
0.2941176470588235
 40
0.2941176470588235
 40
0.3529411764705883
 40
0.3529411764705883
 40
0.3529411764705883
 40
0.3529411764705883
 40
0.411764705882353
 40
0.411764705882353
 40
0.411764705882353
 40
0.411764705882353
 40
0.4705882352941177
 40
0.4705882352941177
 40
0.4705882352941177
 40
0.4705882352941177
 40
0.5294117647058824
 40
0.5294117647058824
 40
0.5294117647058824
 40
0.5294117647058824
 40
0.5882352941176471
 40
0.5882352941176471
 40
0.5882352941176471
 40
0.5882352941176471
 40
0.6470588235294118
 40
0.6470588235294118
 40
0.6470588235294118
 40
0.6470588235294118
 40
0.7058823529411765
 40
0.7058823529411765
 40
0.7058823529411765
 40
0.7058823529411765
 40
0.7647058823529412
 40
0.7647058823529412
 40
0.7647058823529412
 40
0.7647058823529412
 40
0.823529411764706
 40
0.823529411764706
 40
0.823529411764706
 40
0.823529411764706
 40
0.8823529411764707
 40
0.8823529411764707
 40
0.8823529411764707
 40
0.8823529411764707
 40
0.9411764705882354
 40
0.9411764705882354
 40
0.9411764705882354
 40
0.9411764705882354
 40
1.0
 40
1.0
 40
1.0
 40
1.0
 10
-0.555751968503937
 20
-2.674905511811024
 30
0.0
 10
-0.555751968503937
 20
-2.674905511811024
 30
0.0
 10
-0.5496692913385827
 20
-2.674905511811024
 30
0.0
 10
-0.5496692913385827
 20
-2.674905511811024
 30
0.0
 10
-0.5496692913385827
 20
-2.674905511811024
 30
0.0
 10
-0.5496692913385827
 20
-2.674905511811024
 30
0.0
 10
-0.5496692913385827
 20
-2.769153543307087
 30
0.0
 10
-0.5496692913385827
 20
-2.769153543307087
 30
0.0
 10
-0.5496692913385827
 20
-2.769153543307087
 30
0.0
 10
-0.5496692913385827
 20
-2.77359842519685
 30
0.0
 10
-0.5493622047244094
 20
-2.77646062992126
 30
0.0
 10
-0.5488070866141732
 20
-2.777740157480315
 30
0.0
 10
-0.5488070866141732
 20
-2.777740157480315
 30
0.0
 10
-0.5482244094488189
 20
-2.779015748031496
 30
0.0
 10
-0.5473070866141733
 20
-2.77996062992126
 30
0.0
 10
-0.5460039370078741
 20
-2.780625984251969
 30
0.0
 10
-0.5460039370078741
 20
-2.780625984251969
 30
0.0
 10
-0.5446968503937009
 20
-2.781267716535433
 30
0.0
 10
-0.5421141732283464
 20
-2.78159842519685
 30
0.0
 10
-0.538251968503937
 20
-2.78159842519685
 30
0.0
 10
-0.538251968503937
 20
-2.78159842519685
 30
0.0
 10
-0.538251968503937
 20
-2.78159842519685
 30
0.0
 10
-0.5302795275590552
 20
-2.78159842519685
 30
0.0
 10
-0.5302795275590552
 20
-2.78159842519685
 30
0.0
 10
-0.5302795275590552
 20
-2.78159842519685
 30
0.0
 10
-0.5302795275590552
 20
-2.78159842519685
 30
0.0
 10
-0.5302795275590552
 20
-2.788433070866142
 30
0.0
 10
-0.5302795275590552
 20
-2.788433070866142
 30
0.0
 10
-0.5302795275590552
 20
-2.788433070866142
 30
0.0
 10
-0.5302795275590552
 20
-2.788433070866142
 30
0.0
 10
-0.5839173228346457
 20
-2.788433070866142
 30
0.0
 10
-0.5839173228346457
 20
-2.788433070866142
 30
0.0
 10
-0.5839173228346457
 20
-2.788433070866142
 30
0.0
 10
-0.5839173228346457
 20
-2.788433070866142
 30
0.0
 10
-0.5839173228346457
 20
-2.78159842519685
 30
0.0
 10
-0.5839173228346457
 20
-2.78159842519685
 30
0.0
 10
-0.5839173228346457
 20
-2.78159842519685
 30
0.0
 10
-0.5839173228346457
 20
-2.78159842519685
 30
0.0
 10
-0.5750590551181103
 20
-2.78159842519685
 30
0.0
 10
-0.5750590551181103
 20
-2.78159842519685
 30
0.0
 10
-0.5750590551181103
 20
-2.78159842519685
 30
0.0
 10
-0.5711968503937008
 20
-2.78159842519685
 30
0.0
 10
-0.5686417322834646
 20
-2.781267716535433
 30
0.0
 10
-0.5673622047244095
 20
-2.780570866141733
 30
0.0
 10
-0.5673622047244095
 20
-2.780570866141733
 30
0.0
 10
-0.5660866141732284
 20
-2.779905511811024
 30
0.0
 10
-0.5650866141732284
 20
-2.778822834645669
 30
0.0
 10
-0.5643897637795275
 20
-2.777322834645669
 30
0.0
 10
-0.5643897637795275
 20
-2.777322834645669
 30
0.0
 10
-0.5636968503937008
 20
-2.775822834645669
 30
0.0
 10
-0.5633346456692914
 20
-2.773098425196851
 30
0.0
 10
-0.5633346456692914
 20
-2.769153543307087
 30
0.0
 10
-0.5633346456692914
 20
-2.769153543307087
 30
0.0
 10
-0.5633346456692914
 20
-2.769153543307087
 30
0.0
 10
-0.5633346456692914
 20
-2.691685039370079
 30
0.0
 10
-0.5633346456692914
 20
-2.691685039370079
 30
0.0
 10
-0.5633346456692914
 20
-2.691685039370079
 30
0.0
 10
-0.5633346456692914
 20
-2.691685039370079
 30
0.0
 10
-0.5839173228346457
 20
-2.691685039370079
 30
0.0
 10
-0.5839173228346457
 20
-2.691685039370079
 30
0.0
 10
-0.5839173228346457
 20
-2.691685039370079
 30
0.0
 10
-0.5839173228346457
 20
-2.691685039370079
 30
0.0
 10
-0.5839173228346457
 20
-2.684685039370079
 30
0.0
 10
-0.5839173228346457
 20
-2.684685039370079
 30
0.0
 10
-0.5839173228346457
 20
-2.684685039370079
 30
0.0
 10
-0.5726968503937008
 20
-2.683102362204724
 30
0.0
 10
-0.5633070866141733
 20
-2.679850393700788
 30
0.0
 10
-0.555751968503937
 20
-2.674905511811024
 30
0.0
  0
SPLINE
  5
6E
330
1F
100
AcDbEntity
  8
Layer 1
 62
   250
100
AcDbSpline
210
0.0
220
0.0
230
1.0
 70
    11
 71
     3
 72
    20
 73
    16
 74
     0
 42
0.0000000001
 43
0.0000000001
 40
0.0
 40
0.0
 40
0.0
 40
0.0
 40
0.25
 40
0.25
 40
0.25
 40
0.25
 40
0.5
 40
0.5
 40
0.5
 40
0.5
 40
0.75
 40
0.75
 40
0.75
 40
0.75
 40
1.0
 40
1.0
 40
1.0
 40
1.0
 10
-0.4992795275590551
 20
-2.74196062992126
 30
0.0
 10
-0.4992795275590551
 20
-2.74196062992126
 30
0.0
 10
-0.4509448818897638
 20
-2.74196062992126
 30
0.0
 10
-0.4509448818897638
 20
-2.74196062992126
 30
0.0
 10
-0.4509448818897638
 20
-2.74196062992126
 30
0.0
 10
-0.4509448818897638
 20
-2.74196062992126
 30
0.0
 10
-0.4509448818897638
 20
-2.752043307086614
 30
0.0
 10
-0.4509448818897638
 20
-2.752043307086614
 30
0.0
 10
-0.4509448818897638
 20
-2.752043307086614
 30
0.0
 10
-0.4509448818897638
 20
-2.752043307086614
 30
0.0
 10
-0.4992795275590551
 20
-2.752043307086614
 30
0.0
 10
-0.4992795275590551
 20
-2.752043307086614
 30
0.0
 10
-0.4992795275590551
 20
-2.752043307086614
 30
0.0
 10
-0.4992795275590551
 20
-2.752043307086614
 30
0.0
 10
-0.4992795275590551
 20
-2.74196062992126
 30
0.0
 10
-0.4992795275590551
 20
-2.74196062992126
 30
0.0
  0
SPLINE
  5
6F
330
1F
100
AcDbEntity
  8
Layer 1
 62
   250
100
AcDbSpline
210
0.0
220
0.0
230
1.0
 70
    11
 71
     3
 72
   172
 73
   168
 74
     0
 42
0.0000000001
 43
0.0000000001
 40
0.0
 40
0.0
 40
0.0
 40
0.0
 40
0.0238095238095238
 40
0.0238095238095238
 40
0.0238095238095238
 40
0.0238095238095238
 40
0.0476190476190476
 40
0.0476190476190476
 40
0.0476190476190476
 40
0.0476190476190476
 40
0.0714285714285714
 40
0.0714285714285714
 40
0.0714285714285714
 40
0.0714285714285714
 40
0.0952380952380952
 40
0.0952380952380952
 40
0.0952380952380952
 40
0.0952380952380952
 40
0.119047619047619
 40
0.119047619047619
 40
0.119047619047619
 40
0.119047619047619
 40
0.1428571428571429
 40
0.1428571428571429
 40
0.1428571428571429
 40
0.1428571428571429
 40
0.1666666666666667
 40
0.1666666666666667
 40
0.1666666666666667
 40
0.1666666666666667
 40
0.1904761904761905
 40
0.1904761904761905
 40
0.1904761904761905
 40
0.1904761904761905
 40
0.2142857142857143
 40
0.2142857142857143
 40
0.2142857142857143
 40
0.2142857142857143
 40
0.2380952380952381
 40
0.2380952380952381
 40
0.2380952380952381
 40
0.2380952380952381
 40
0.2619047619047619
 40
0.2619047619047619
 40
0.2619047619047619
 40
0.2619047619047619
 40
0.2857142857142857
 40
0.2857142857142857
 40
0.2857142857142857
 40
0.2857142857142857
 40
0.3095238095238095
 40
0.3095238095238095
 40
0.3095238095238095
 40
0.3095238095238095
 40
0.3333333333333334
 40
0.3333333333333334
 40
0.3333333333333334
 40
0.3333333333333334
 40
0.3571428571428572
 40
0.3571428571428572
 40
0.3571428571428572
 40
0.3571428571428572
 40
0.380952380952381
 40
0.380952380952381
 40
0.380952380952381
 40
0.380952380952381
 40
0.4047619047619049
 40
0.4047619047619049
 40
0.4047619047619049
 40
0.4047619047619049
 40
0.4285714285714287
 40
0.4285714285714287
 40
0.4285714285714287
 40
0.4285714285714287
 40
0.4523809523809526
 40
0.4523809523809526
 40
0.4523809523809526
 40
0.4523809523809526
 40
0.4761904761904764
 40
0.4761904761904764
 40
0.4761904761904764
 40
0.4761904761904764
 40
0.5000000000000002
 40
0.5000000000000002
 40
0.5000000000000002
 40
0.5000000000000002
 40
0.5238095238095241
 40
0.5238095238095241
 40
0.5238095238095241
 40
0.5238095238095241
 40
0.5476190476190479
 40
0.5476190476190479
 40
0.5476190476190479
 40
0.5476190476190479
 40
0.5714285714285717
 40
0.5714285714285717
 40
0.5714285714285717
 40
0.5714285714285717
 40
0.5952380952380956
 40
0.5952380952380956
 40
0.5952380952380956
 40
0.5952380952380956
 40
0.6190476190476194
 40
0.6190476190476194
 40
0.6190476190476194
 40
0.6190476190476194
 40
0.6428571428571432
 40
0.6428571428571432
 40
0.6428571428571432
 40
0.6428571428571432
 40
0.6666666666666671
 40
0.6666666666666671
 40
0.6666666666666671
 40
0.6666666666666671
 40
0.6904761904761909
 40
0.6904761904761909
 40
0.6904761904761909
 40
0.6904761904761909
 40
0.7142857142857148
 40
0.7142857142857148
 40
0.7142857142857148
 40
0.7142857142857148
 40
0.7380952380952386
 40
0.7380952380952386
 40
0.7380952380952386
 40
0.7380952380952386
 40
0.7619047619047624
 40
0.7619047619047624
 40
0.7619047619047624
 40
0.7619047619047624
 40
0.7857142857142863
 40
0.7857142857142863
 40
0.7857142857142863
 40
0.7857142857142863
 40
0.8095238095238101
 40
0.8095238095238101
 40
0.8095238095238101
 40
0.8095238095238101
 40
0.8333333333333339
 40
0.8333333333333339
 40
0.8333333333333339
 40
0.8333333333333339
 40
0.8571428571428578
 40
0.8571428571428578
 40
0.8571428571428578
 40
0.8571428571428578
 40
0.8809523809523816
 40
0.8809523809523816
 40
0.8809523809523816
 40
0.8809523809523816
 40
0.9047619047619054
 40
0.9047619047619054
 40
0.9047619047619054
 40
0.9047619047619054
 40
0.9285714285714293
 40
0.9285714285714293
 40
0.9285714285714293
 40
0.9285714285714293
 40
0.9523809523809531
 40
0.9523809523809531
 40
0.9523809523809531
 40
0.9523809523809531
 40
0.9761904761904769
 40
0.9761904761904769
 40
0.9761904761904769
 40
0.9761904761904769
 40
1.0
 40
1.0
 40
1.0
 40
1.0
 10
-0.4196968503937008
 20
-2.705267716535433
 30
0.0
 10
-0.4196968503937008
 20
-2.705267716535433
 30
0.0
 10
-0.427503937007874
 20
-2.704043307086614
 30
0.0
 10
-0.427503937007874
 20
-2.704043307086614
 30
0.0
 10
-0.427503937007874
 20
-2.704043307086614
 30
0.0
 10
-0.4268070866141733
 20
-2.698185039370079
 30
0.0
 10
-0.4252795275590551
 20
-2.693322834645669
 30
0.0
 10
-0.4229448818897638
 20
-2.68946062992126
 30
0.0
 10
-0.4229448818897638
 20
-2.68946062992126
 30
0.0
 10
-0.4198622047244094
 20
-2.684267716535433
 30
0.0
 10
-0.415503937007874
 20
-2.680212598425197
 30
0.0
 10
-0.4098622047244095
 20
-2.677322834645669
 30
0.0
 10
-0.4098622047244095
 20
-2.677322834645669
 30
0.0
 10
-0.4041968503937008
 20
-2.674405511811024
 30
0.0
 10
-0.3977244094488189
 20
-2.67296062992126
 30
0.0
 10
-0.3903897637795276
 20
-2.67296062992126
 30
0.0
 10
-0.3903897637795276
 20
-2.67296062992126
 30
0.0
 10
-0.3831968503937008
 20
-2.67296062992126
 30
0.0
 10
-0.3768346456692914
 20
-2.674240157480315
 30
0.0
 10
-0.3713622047244095
 20
-2.67682283464567
 30
0.0
 10
-0.3713622047244095
 20
-2.67682283464567
 30
0.0
 10
-0.3658897637795276
 20
-2.679405511811024
 30
0.0
 10
-0.361751968503937
 20
-2.682822834645669
 30
0.0
 10
-0.3589488188976378
 20
-2.687070866141732
 30
0.0
 10
-0.3589488188976378
 20
-2.687070866141732
 30
0.0
 10
-0.3561417322834646
 20
-2.69132283464567
 30
0.0
 10
-0.354751968503937
 20
-2.695933070866142
 30
0.0
 10
-0.354751968503937
 20
-2.700877952755906
 30
0.0
 10
-0.354751968503937
 20
-2.700877952755906
 30
0.0
 10
-0.354751968503937
 20
-2.705212598425197
 30
0.0
 10
-0.3558070866141733
 20
-2.709098425196851
 30
0.0
 10
-0.3579212598425197
 20
-2.712515748031496
 30
0.0
 10
-0.3579212598425197
 20
-2.712515748031496
 30
0.0
 10
-0.3600590551181103
 20
-2.715933070866142
 30
0.0
 10
-0.3631968503937008
 20
-2.718988188976378
 30
0.0
 10
-0.3673622047244095
 20
-2.721712598425197
 30
0.0
 10
-0.3673622047244095
 20
-2.721712598425197
 30
0.0
 10
-0.3703070866141732
 20
-2.723598425196851
 30
0.0
 10
-0.3741141732283465
 20
-2.725267716535433
 30
0.0
 10
-0.3788346456692914
 20
-2.726657480314961
 30
0.0
 10
-0.3788346456692914
 20
-2.726657480314961
 30
0.0
 10
-0.3738070866141732
 20
-2.727377952755905
 30
0.0
 10
-0.3696692913385827
 20
-2.728543307086614
 30
0.0
 10
-0.3664763779527559
 20
-2.730157480314961
 30
0.0
 10
-0.3664763779527559
 20
-2.730157480314961
 30
0.0
 10
-0.3612795275590551
 20
-2.73282283464567
 30
0.0
 10
-0.3571692913385827
 20
-2.736488188976378
 30
0.0
 10
-0.3541968503937008
 20
-2.741157480314961
 30
0.0
 10
-0.3541968503937008
 20
-2.741157480314961
 30
0.0
 10
-0.3511968503937008
 20
-2.74582283464567
 30
0.0
 10
-0.3497244094488189
 20
-2.750933070866142
 30
0.0
 10
-0.3497244094488189
 20
-2.756543307086614
 30
0.0
 10
-0.3497244094488189
 20
-2.756543307086614
 30
0.0
 10
-0.3497244094488189
 20
-2.765488188976378
 30
0.0
 10
-0.3536417322834646
 20
-2.773377952755906
 30
0.0
 10
-0.361503937007874
 20
-2.780185039370079
 30
0.0
 10
-0.361503937007874
 20
-2.780185039370079
 30
0.0
 10
-0.3693897637795276
 20
-2.786988188976378
 30
0.0
 10
-0.3795590551181103
 20
-2.790377952755906
 30
0.0
 10
-0.3920314960629922
 20
-2.790377952755906
 30
0.0
 10
-0.3920314960629922
 20
-2.790377952755906
 30
0.0
 10
-0.4043346456692913
 20
-2.790377952755906
 30
0.0
 10
-0.4146968503937008
 20
-2.787098425196851
 30
0.0
 10
-0.4231141732283465
 20
-2.780543307086614
 30
0.0
 10
-0.4231141732283465
 20
-2.780543307086614
 30
0.0
 10
-0.4301692913385827
 20
-2.77496062992126
 30
0.0
 10
-0.4336968503937008
 20
-2.769322834645669
 30
0.0
 10
-0.4336968503937008
 20
-2.763685039370079
 30
0.0
 10
-0.4336968503937008
 20
-2.763685039370079
 30
0.0
 10
-0.4336968503937008
 20
-2.76146062992126
 30
0.0
 10
-0.4329724409448819
 20
-2.759598425196851
 30
0.0
 10
-0.4315314960629921
 20
-2.758125984251969
 30
0.0
 10
-0.4315314960629921
 20
-2.758125984251969
 30
0.0
 10
-0.4301141732283465
 20
-2.756625984251969
 30
0.0
 10
-0.4283070866141733
 20
-2.755877952755906
 30
0.0
 10
-0.4261141732283465
 20
-2.755877952755906
 30
0.0
 10
-0.4261141732283465
 20
-2.755877952755906
 30
0.0
 10
-0.423751968503937
 20
-2.755877952755906
 30
0.0
 10
-0.4216968503937008
 20
-2.756795275590551
 30
0.0
 10
-0.4200314960629921
 20
-2.758657480314961
 30
0.0
 10
-0.4200314960629921
 20
-2.758657480314961
 30
0.0
 10
-0.4191141732283465
 20
-2.759685039370079
 30
0.0
 10
-0.4180314960629922
 20
-2.762153543307087
 30
0.0
 10
-0.4168622047244095
 20
-2.766043307086614
 30
0.0
 10
-0.4168622047244095
 20
-2.766043307086614
 30
0.0
 10
-0.4151692913385827
 20
-2.771543307086614
 30
0.0
 10
-0.4123070866141733
 20
-2.775712598425197
 30
0.0
 10
-0.4083070866141733
 20
-2.778570866141732
 30
0.0
 10
-0.4083070866141733
 20
-2.778570866141732
 30
0.0
 10
-0.4042795275590551
 20
-2.78146062992126
 30
0.0
 10
-0.3993070866141733
 20
-2.782905511811024
 30
0.0
 10
-0.3933346456692913
 20
-2.782905511811024
 30
0.0
 10
-0.3933346456692913
 20
-2.782905511811024
 30
0.0
 10
-0.3880039370078741
 20
-2.782905511811024
 30
0.0
 10
-0.383251968503937
 20
-2.781740157480315
 30
0.0
 10
-0.3790590551181103
 20
-2.779405511811024
 30
0.0
 10
-0.3790590551181103
 20
-2.779405511811024
 30
0.0
 10
-0.3748346456692914
 20
-2.777070866141732
 30
0.0
 10
-0.3715314960629921
 20
-2.773767716535433
 30
0.0
 10
-0.3690866141732284
 20
-2.76946062992126
 30
0.0
 10
-0.3690866141732284
 20
-2.76946062992126
 30
0.0
 10
-0.3666417322834646
 20
-2.765185039370079
 30
0.0
 10
-0.3654173228346457
 20
-2.760488188976378
 30
0.0
 10
-0.3654173228346457
 20
-2.755405511811024
 30
0.0
 10
-0.3654173228346457
 20
-2.755405511811024
 30
0.0
 10
-0.3654173228346457
 20
-2.751267716535433
 30
0.0
 10
-0.3663070866141732
 20
-2.747570866141732
 30
0.0
 10
-0.3680590551181103
 20
-2.744295275590551
 30
0.0
 10
-0.3680590551181103
 20
-2.744295275590551
 30
0.0
 10
-0.3698346456692914
 20
-2.740988188976378
 30
0.0
 10
-0.3723346456692914
 20
-2.738212598425197
 30
0.0
 10
-0.3755866141732284
 20
-2.735933070866142
 30
0.0
 10
-0.3755866141732284
 20
-2.735933070866142
 30
0.0
 10
-0.3780866141732284
 20
-2.734157480314961
 30
0.0
 10
-0.3812795275590551
 20
-2.732905511811024
 30
0.0
 10
-0.3851417322834646
 20
-2.732212598425197
 30
0.0
 10
-0.3851417322834646
 20
-2.732212598425197
 30
0.0
 10
-0.3890314960629921
 20
-2.731488188976378
 30
0.0
 10
-0.3925314960629922
 20
-2.731129921259843
 30
0.0
 10
-0.3956141732283465
 20
-2.731129921259843
 30
0.0
 10
-0.3956141732283465
 20
-2.731129921259843
 30
0.0
 10
-0.3956141732283465
 20
-2.731129921259843
 30
0.0
 10
-0.4031692913385827
 20
-2.731129921259843
 30
0.0
 10
-0.4031692913385827
 20
-2.731129921259843
 30
0.0
 10
-0.4031692913385827
 20
-2.731129921259843
 30
0.0
 10
-0.4031692913385827
 20
-2.731129921259843
 30
0.0
 10
-0.4031692913385827
 20
-2.723240157480315
 30
0.0
 10
-0.4031692913385827
 20
-2.723240157480315
 30
0.0
 10
-0.4031692913385827
 20
-2.723240157480315
 30
0.0
 10
-0.4031692913385827
 20
-2.723240157480315
 30
0.0
 10
-0.3983622047244095
 20
-2.723240157480315
 30
0.0
 10
-0.3983622047244095
 20
-2.723240157480315
 30
0.0
 10
-0.3983622047244095
 20
-2.723240157480315
 30
0.0
 10
-0.3936141732283465
 20
-2.723240157480315
 30
0.0
 10
-0.3890590551181102
 20
-2.722685039370079
 30
0.0
 10
-0.3846968503937008
 20
-2.721570866141732
 30
0.0
 10
-0.3846968503937008
 20
-2.721570866141732
 30
0.0
 10
-0.3803622047244095
 20
-2.72046062992126
 30
0.0
 10
-0.3768897637795276
 20
-2.718185039370079
 30
0.0
 10
-0.3742795275590551
 20
-2.714712598425197
 30
0.0
 10
-0.3742795275590551
 20
-2.714712598425197
 30
0.0
 10
-0.3716968503937008
 20
-2.711240157480315
 30
0.0
 10
-0.3703897637795276
 20
-2.707295275590552
 30
0.0
 10
-0.3703897637795276
 20
-2.702905511811024
 30
0.0
 10
-0.3703897637795276
 20
-2.702905511811024
 30
0.0
 10
-0.3703897637795276
 20
-2.699102362204724
 30
0.0
 10
-0.3712795275590551
 20
-2.695685039370079
 30
0.0
 10
-0.3731141732283465
 20
-2.692657480314961
 30
0.0
 10
-0.3731141732283465
 20
-2.692657480314961
 30
0.0
 10
-0.3749173228346457
 20
-2.689602362204725
 30
0.0
 10
-0.3775866141732284
 20
-2.687185039370079
 30
0.0
 10
-0.3811141732283465
 20
-2.685405511811024
 30
0.0
 10
-0.3811141732283465
 20
-2.685405511811024
 30
0.0
 10
-0.3846417322834646
 20
-2.683629921259843
 30
0.0
 10
-0.3887244094488189
 20
-2.682712598425197
 30
0.0
 10
-0.3933346456692913
 20
-2.682712598425197
 30
0.0
 10
-0.3933346456692913
 20
-2.682712598425197
 30
0.0
 10
-0.3978346456692913
 20
-2.682712598425197
 30
0.0
 10
-0.4019763779527559
 20
-2.683657480314961
 30
0.0
 10
-0.405751968503937
 20
-2.685488188976378
 30
0.0
 10
-0.405751968503937
 20
-2.685488188976378
 30
0.0
 10
-0.409503937007874
 20
-2.68732283464567
 30
0.0
 10
-0.4125314960629922
 20
-2.689795275590551
 30
0.0
 10
-0.4148070866141733
 20
-2.692905511811024
 30
0.0
 10
-0.4148070866141733
 20
-2.692905511811024
 30
0.0
 10
-0.4170866141732283
 20
-2.695988188976378
 30
0.0
 10
-0.4187244094488189
 20
-2.700102362204725
 30
0.0
 10
-0.4196968503937008
 20
-2.705267716535433
 30
0.0
  0
SPLINE
  5
70
330
1F
100
AcDbEntity
  8
Layer 1
 62
   250
100
AcDbSpline
210
0.0
220
0.0
230
1.0
 70
    11
 71
     3
 72
    20
 73
    16
 74
     0
 42
0.0000000001
 43
0.0000000001
 40
0.0
 40
0.0
 40
0.0
 40
0.0
 40
0.25
 40
0.25
 40
0.25
 40
0.25
 40
0.5
 40
0.5
 40
0.5
 40
0.5
 40
0.75
 40
0.75
 40
0.75
 40
0.75
 40
1.0
 40
1.0
 40
1.0
 40
1.0
 10
-0.2569173228346457
 20
-2.669043307086614
 30
0.0
 10
-0.2569173228346457
 20
-2.669043307086614
 30
0.0
 10
-0.3125
 20
-2.824740157480315
 30
0.0
 10
-0.3125
 20
-2.824740157480315
 30
0.0
 10
-0.3125
 20
-2.824740157480315
 30
0.0
 10
-0.3125
 20
-2.824740157480315
 30
0.0
 10
-0.3245551181102362
 20
-2.824740157480315
 30
0.0
 10
-0.3245551181102362
 20
-2.824740157480315
 30
0.0
 10
-0.3245551181102362
 20
-2.824740157480315
 30
0.0
 10
-0.3245551181102362
 20
-2.824740157480315
 30
0.0
 10
-0.2693070866141732
 20
-2.669043307086614
 30
0.0
 10
-0.2693070866141732
 20
-2.669043307086614
 30
0.0
 10
-0.2693070866141732
 20
-2.669043307086614
 30
0.0
 10
-0.2693070866141732
 20
-2.669043307086614
 30
0.0
 10
-0.2569173228346457
 20
-2.669043307086614
 30
0.0
 10
-0.2569173228346457
 20
-2.669043307086614
 30
0.0
  0
SPLINE
  5
71
330
1F
100
AcDbEntity
  8
Layer 1
 62
   250
100
AcDbSpline
210
0.0
220
0.0
230
1.0
 70
    11
 71
     3
 72
    48
 73
    44
 74
     0
 42
0.0000000001
 43
0.0000000001
 40
0.0
 40
0.0
 40
0.0
 40
0.0
 40
0.0909090909090909
 40
0.0909090909090909
 40
0.0909090909090909
 40
0.0909090909090909
 40
0.1818181818181818
 40
0.1818181818181818
 40
0.1818181818181818
 40
0.1818181818181818
 40
0.2727272727272727
 40
0.2727272727272727
 40
0.2727272727272727
 40
0.2727272727272727
 40
0.3636363636363637
 40
0.3636363636363637
 40
0.3636363636363637
 40
0.3636363636363637
 40
0.4545454545454546
 40
0.4545454545454546
 40
0.4545454545454546
 40
0.4545454545454546
 40
0.5454545454545455
 40
0.5454545454545455
 40
0.5454545454545455
 40
0.5454545454545455
 40
0.6363636363636365
 40
0.6363636363636365
 40
0.6363636363636365
 40
0.6363636363636365
 40
0.7272727272727274
 40
0.7272727272727274
 40
0.7272727272727274
 40
0.7272727272727274
 40
0.8181818181818183
 40
0.8181818181818183
 40
0.8181818181818183
 40
0.8181818181818183
 40
0.9090909090909093
 40
0.9090909090909093
 40
0.9090909090909093
 40
0.9090909090909093
 40
1.0
 40
1.0
 40
1.0
 40
1.0
 10
-0.1779724409448819
 20
-2.674905511811024
 30
0.0
 10
-0.1779724409448819
 20
-2.674905511811024
 30
0.0
 10
-0.1642244094488189
 20
-2.674905511811024
 30
0.0
 10
-0.1642244094488189
 20
-2.674905511811024
 30
0.0
 10
-0.1642244094488189
 20
-2.674905511811024
 30
0.0
 10
-0.1642244094488189
 20
-2.674905511811024
 30
0.0
 10
-0.1642244094488189
 20
-2.740905511811024
 30
0.0
 10
-0.1642244094488189
 20
-2.740905511811024
 30
0.0
 10
-0.1642244094488189
 20
-2.740905511811024
 30
0.0
 10
-0.1642244094488189
 20
-2.740905511811024
 30
0.0
 10
-0.1428897637795276
 20
-2.740905511811024
 30
0.0
 10
-0.1428897637795276
 20
-2.740905511811024
 30
0.0
 10
-0.1428897637795276
 20
-2.740905511811024
 30
0.0
 10
-0.1428897637795276
 20
-2.740905511811024
 30
0.0
 10
-0.1428897637795276
 20
-2.751070866141733
 30
0.0
 10
-0.1428897637795276
 20
-2.751070866141733
 30
0.0
 10
-0.1428897637795276
 20
-2.751070866141733
 30
0.0
 10
-0.1428897637795276
 20
-2.751070866141733
 30
0.0
 10
-0.1642244094488189
 20
-2.751070866141733
 30
0.0
 10
-0.1642244094488189
 20
-2.751070866141733
 30
0.0
 10
-0.1642244094488189
 20
-2.751070866141733
 30
0.0
 10
-0.1642244094488189
 20
-2.751070866141733
 30
0.0
 10
-0.1642244094488189
 20
-2.788433070866142
 30
0.0
 10
-0.1642244094488189
 20
-2.788433070866142
 30
0.0
 10
-0.1642244094488189
 20
-2.788433070866142
 30
0.0
 10
-0.1642244094488189
 20
-2.788433070866142
 30
0.0
 10
-0.1779724409448819
 20
-2.788433070866142
 30
0.0
 10
-0.1779724409448819
 20
-2.788433070866142
 30
0.0
 10
-0.1779724409448819
 20
-2.788433070866142
 30
0.0
 10
-0.1779724409448819
 20
-2.788433070866142
 30
0.0
 10
-0.1779724409448819
 20
-2.751070866141733
 30
0.0
 10
-0.1779724409448819
 20
-2.751070866141733
 30
0.0
 10
-0.1779724409448819
 20
-2.751070866141733
 30
0.0
 10
-0.1779724409448819
 20
-2.751070866141733
 30
0.0
 10
-0.2314448818897638
 20
-2.751070866141733
 30
0.0
 10
-0.2314448818897638
 20
-2.751070866141733
 30
0.0
 10
-0.2314448818897638
 20
-2.751070866141733
 30
0.0
 10
-0.2314448818897638
 20
-2.751070866141733
 30
0.0
 10
-0.2314448818897638
 20
-2.736767716535433
 30
0.0
 10
-0.2314448818897638
 20
-2.736767716535433
 30
0.0
 10
-0.2314448818897638
 20
-2.736767716535433
 30
0.0
 10
-0.2314448818897638
 20
-2.736767716535433
 30
0.0
 10
-0.1779724409448819
 20
-2.674905511811024
 30
0.0
 10
-0.1779724409448819
 20
-2.674905511811024
 30
0.0
  0
SPLINE
  5
72
330
1F
100
AcDbEntity
  8
Layer 1
 62
   250
100
AcDbSpline
210
0.0
220
0.0
230
1.0
 70
    11
 71
     3
 72
    16
 73
    12
 74
     0
 42
0.0000000001
 43
0.0000000001
 40
0.0
 40
0.0
 40
0.0
 40
0.0
 40
0.3333333333333333
 40
0.3333333333333333
 40
0.3333333333333333
 40
0.3333333333333333
 40
0.6666666666666666
 40
0.6666666666666666
 40
0.6666666666666666
 40
0.6666666666666666
 40
1.0
 40
1.0
 40
1.0
 40
1.0
 10
-0.1779724409448819
 20
-2.740905511811024
 30
0.0
 10
-0.1779724409448819
 20
-2.740905511811024
 30
0.0
 10
-0.1779724409448819
 20
-2.687515748031496
 30
0.0
 10
-0.1779724409448819
 20
-2.687515748031496
 30
0.0
 10
-0.1779724409448819
 20
-2.687515748031496
 30
0.0
 10
-0.1779724409448819
 20
-2.687515748031496
 30
0.0
 10
-0.2240275590551181
 20
-2.740905511811024
 30
0.0
 10
-0.2240275590551181
 20
-2.740905511811024
 30
0.0
 10
-0.2240275590551181
 20
-2.740905511811024
 30
0.0
 10
-0.2240275590551181
 20
-2.740905511811024
 30
0.0
 10
-0.1779724409448819
 20
-2.740905511811024
 30
0.0
 10
-0.1779724409448819
 20
-2.740905511811024
 30
0.0
  0
SPLINE
  5
73
330
1F
100
AcDbEntity
  8
Layer 1
 62
   250
100
AcDbSpline
210
0.0
220
0.0
230
1.0
 70
    11
 71
     3
 72
    60
 73
    56
 74
     0
 42
0.0000000001
 43
0.0000000001
 40
0.0
 40
0.0
 40
0.0
 40
0.0
 40
0.0714285714285714
 40
0.0714285714285714
 40
0.0714285714285714
 40
0.0714285714285714
 40
0.1428571428571429
 40
0.1428571428571429
 40
0.1428571428571429
 40
0.1428571428571429
 40
0.2142857142857143
 40
0.2142857142857143
 40
0.2142857142857143
 40
0.2142857142857143
 40
0.2857142857142857
 40
0.2857142857142857
 40
0.2857142857142857
 40
0.2857142857142857
 40
0.3571428571428571
 40
0.3571428571428571
 40
0.3571428571428571
 40
0.3571428571428571
 40
0.4285714285714285
 40
0.4285714285714285
 40
0.4285714285714285
 40
0.4285714285714285
 40
0.4999999999999999
 40
0.4999999999999999
 40
0.4999999999999999
 40
0.4999999999999999
 40
0.5714285714285713
 40
0.5714285714285713
 40
0.5714285714285713
 40
0.5714285714285713
 40
0.6428571428571427
 40
0.6428571428571427
 40
0.6428571428571427
 40
0.6428571428571427
 40
0.7142857142857141
 40
0.7142857142857141
 40
0.7142857142857141
 40
0.7142857142857141
 40
0.7857142857142855
 40
0.7857142857142855
 40
0.7857142857142855
 40
0.7857142857142855
 40
0.8571428571428569
 40
0.8571428571428569
 40
0.8571428571428569
 40
0.8571428571428569
 40
0.9285714285714283
 40
0.9285714285714283
 40
0.9285714285714283
 40
0.9285714285714283
 40
1.0
 40
1.0
 40
1.0
 40
1.0
 10
-0.1249173228346457
 20
-2.716988188976378
 30
0.0
 10
-0.1249173228346457
 20
-2.716988188976378
 30
0.0
 10
-0.1293070866141732
 20
-2.711598425196851
 30
0.0
 10
-0.1293070866141732
 20
-2.711598425196851
 30
0.0
 10
-0.1293070866141732
 20
-2.711598425196851
 30
0.0
 10
-0.1181929133858268
 20
-2.702543307086614
 30
0.0
 10
-0.1126102362204725
 20
-2.694988188976378
 30
0.0
 10
-0.1126102362204725
 20
-2.688905511811024
 30
0.0
 10
-0.1126102362204725
 20
-2.688905511811024
 30
0.0
 10
-0.1126102362204725
 20
-2.688212598425197
 30
0.0
 10
-0.1126653543307087
 20
-2.68732283464567
 30
0.0
 10
-0.1127795275590551
 20
-2.686295275590551
 30
0.0
 10
-0.1127795275590551
 20
-2.686295275590551
 30
0.0
 10
-0.1136929133858268
 20
-2.686685039370079
 30
0.0
 10
-0.1146102362204725
 20
-2.686988188976378
 30
0.0
 10
-0.1154724409448819
 20
-2.687185039370079
 30
0.0
 10
-0.1154724409448819
 20
-2.687185039370079
 30
0.0
 10
-0.1163346456692913
 20
-2.687405511811024
 30
0.0
 10
-0.1171377952755906
 20
-2.687515748031496
 30
0.0
 10
-0.1179173228346457
 20
-2.687515748031496
 30
0.0
 10
-0.1179173228346457
 20
-2.687515748031496
 30
0.0
 10
-0.1205275590551181
 20
-2.687515748031496
 30
0.0
 10
-0.1226102362204724
 20
-2.686685039370079
 30
0.0
 10
-0.1241653543307087
 20
-2.684988188976378
 30
0.0
 10
-0.1241653543307087
 20
-2.684988188976378
 30
0.0
 10
-0.125751968503937
 20
-2.68332283464567
 30
0.0
 10
-0.1265275590551181
 20
-2.681185039370079
 30
0.0
 10
-0.1265275590551181
 20
-2.678570866141732
 30
0.0
 10
-0.1265275590551181
 20
-2.678570866141732
 30
0.0
 10
-0.1265275590551181
 20
-2.676015748031496
 30
0.0
 10
-0.1255826771653543
 20
-2.673795275590551
 30
0.0
 10
-0.1236929133858268
 20
-2.671905511811024
 30
0.0
 10
-0.1236929133858268
 20
-2.671905511811024
 30
0.0
 10
-0.1217795275590551
 20
-2.669988188976378
 30
0.0
 10
-0.1195
 20
-2.669043307086614
 30
0.0
 10
-0.1168622047244095
 20
-2.669043307086614
 30
0.0
 10
-0.1168622047244095
 20
-2.669043307086614
 30
0.0
 10
-0.1131653543307087
 20
-2.669043307086614
 30
0.0
 10
-0.11
 20
-2.670515748031496
 30
0.0
 10
-0.1073622047244095
 20
-2.673488188976378
 30
0.0
 10
-0.1073622047244095
 20
-2.673488188976378
 30
0.0
 10
-0.104751968503937
 20
-2.676433070866142
 30
0.0
 10
-0.1034173228346457
 20
-2.680240157480315
 30
0.0
 10
-0.1034173228346457
 20
-2.684905511811024
 30
0.0
 10
-0.1034173228346457
 20
-2.684905511811024
 30
0.0
 10
-0.1034173228346457
 20
-2.68796062992126
 30
0.0
 10
-0.1040551181102362
 20
-2.691157480314961
 30
0.0
 10
-0.1053070866141732
 20
-2.694488188976378
 30
0.0
 10
-0.1053070866141732
 20
-2.694488188976378
 30
0.0
 10
-0.1065551181102362
 20
-2.697822834645669
 30
0.0
 10
-0.1083622047244095
 20
-2.700905511811024
 30
0.0
 10
-0.110751968503937
 20
-2.703767716535433
 30
0.0
 10
-0.110751968503937
 20
-2.703767716535433
 30
0.0
 10
-0.1131377952755906
 20
-2.706598425196851
 30
0.0
 10
-0.1178622047244095
 20
-2.711015748031496
 30
0.0
 10
-0.1249173228346457
 20
-2.716988188976378
 30
0.0
  0
SPLINE
  5
74
330
1F
100
AcDbEntity
  8
Layer 1
 62
   250
100
AcDbSpline
210
0.0
220
0.0
230
1.0
 70
    11
 71
     3
 72
    60
 73
    56
 74
     0
 42
0.0000000001
 43
0.0000000001
 40
0.0
 40
0.0
 40
0.0
 40
0.0
 40
0.0714285714285714
 40
0.0714285714285714
 40
0.0714285714285714
 40
0.0714285714285714
 40
0.1428571428571429
 40
0.1428571428571429
 40
0.1428571428571429
 40
0.1428571428571429
 40
0.2142857142857143
 40
0.2142857142857143
 40
0.2142857142857143
 40
0.2142857142857143
 40
0.2857142857142857
 40
0.2857142857142857
 40
0.2857142857142857
 40
0.2857142857142857
 40
0.3571428571428571
 40
0.3571428571428571
 40
0.3571428571428571
 40
0.3571428571428571
 40
0.4285714285714285
 40
0.4285714285714285
 40
0.4285714285714285
 40
0.4285714285714285
 40
0.4999999999999999
 40
0.4999999999999999
 40
0.4999999999999999
 40
0.4999999999999999
 40
0.5714285714285713
 40
0.5714285714285713
 40
0.5714285714285713
 40
0.5714285714285713
 40
0.6428571428571427
 40
0.6428571428571427
 40
0.6428571428571427
 40
0.6428571428571427
 40
0.7142857142857141
 40
0.7142857142857141
 40
0.7142857142857141
 40
0.7142857142857141
 40
0.7857142857142855
 40
0.7857142857142855
 40
0.7857142857142855
 40
0.7857142857142855
 40
0.8571428571428569
 40
0.8571428571428569
 40
0.8571428571428569
 40
0.8571428571428569
 40
0.9285714285714283
 40
0.9285714285714283
 40
0.9285714285714283
 40
0.9285714285714283
 40
1.0
 40
1.0
 40
1.0
 40
1.0
 10
-0.0958622047244095
 20
-2.716988188976378
 30
0.0
 10
-0.0958622047244095
 20
-2.716988188976378
 30
0.0
 10
-0.100251968503937
 20
-2.711598425196851
 30
0.0
 10
-0.100251968503937
 20
-2.711598425196851
 30
0.0
 10
-0.100251968503937
 20
-2.711598425196851
 30
0.0
 10
-0.0891377952755906
 20
-2.702543307086614
 30
0.0
 10
-0.0835551181102362
 20
-2.694988188976378
 30
0.0
 10
-0.0835551181102362
 20
-2.688905511811024
 30
0.0
 10
-0.0835551181102362
 20
-2.688905511811024
 30
0.0
 10
-0.0835551181102362
 20
-2.688212598425197
 30
0.0
 10
-0.0836102362204725
 20
-2.68732283464567
 30
0.0
 10
-0.0837244094488189
 20
-2.686295275590551
 30
0.0
 10
-0.0837244094488189
 20
-2.686295275590551
 30
0.0
 10
-0.0846377952755906
 20
-2.686685039370079
 30
0.0
 10
-0.0855551181102362
 20
-2.686988188976378
 30
0.0
 10
-0.0864173228346457
 20
-2.687185039370079
 30
0.0
 10
-0.0864173228346457
 20
-2.687185039370079
 30
0.0
 10
-0.0872795275590551
 20
-2.687405511811024
 30
0.0
 10
-0.0881102362204724
 20
-2.687515748031496
 30
0.0
 10
-0.0889448818897638
 20
-2.687515748031496
 30
0.0
 10
-0.0889448818897638
 20
-2.687515748031496
 30
0.0
 10
-0.0915
 20
-2.687515748031496
 30
0.0
 10
-0.0935551181102362
 20
-2.686685039370079
 30
0.0
 10
-0.0951102362204724
 20
-2.684988188976378
 30
0.0
 10
-0.0951102362204724
 20
-2.684988188976378
 30
0.0
 10
-0.0966929133858268
 20
-2.68332283464567
 30
0.0
 10
-0.0974724409448819
 20
-2.681185039370079
 30
0.0
 10
-0.0974724409448819
 20
-2.678570866141732
 30
0.0
 10
-0.0974724409448819
 20
-2.678570866141732
 30
0.0
 10
-0.0974724409448819
 20
-2.676015748031496
 30
0.0
 10
-0.0965275590551181
 20
-2.673795275590551
 30
0.0
 10
-0.0946377952755906
 20
-2.671905511811024
 30
0.0
 10
-0.0946377952755906
 20
-2.671905511811024
 30
0.0
 10
-0.092751968503937
 20
-2.669988188976378
 30
0.0
 10
-0.0904448818897638
 20
-2.669043307086614
 30
0.0
 10
-0.0878070866141732
 20
-2.669043307086614
 30
0.0
 10
-0.0878070866141732
 20
-2.669043307086614
 30
0.0
 10
-0.0841102362204725
 20
-2.669043307086614
 30
0.0
 10
-0.0809448818897638
 20
-2.670515748031496
 30
0.0
 10
-0.0783070866141732
 20
-2.673488188976378
 30
0.0
 10
-0.0783070866141732
 20
-2.673488188976378
 30
0.0
 10
-0.0756968503937008
 20
-2.676433070866142
 30
0.0
 10
-0.0743622047244095
 20
-2.680240157480315
 30
0.0
 10
-0.0743622047244095
 20
-2.684905511811024
 30
0.0
 10
-0.0743622047244095
 20
-2.684905511811024
 30
0.0
 10
-0.0743622047244095
 20
-2.68796062992126
 30
0.0
 10
-0.075
 20
-2.691157480314961
 30
0.0
 10
-0.076251968503937
 20
-2.694488188976378
 30
0.0
 10
-0.076251968503937
 20
-2.694488188976378
 30
0.0
 10
-0.0775
 20
-2.697822834645669
 30
0.0
 10
-0.0793070866141732
 20
-2.700905511811024
 30
0.0
 10
-0.0816929133858268
 20
-2.703767716535433
 30
0.0
 10
-0.0816929133858268
 20
-2.703767716535433
 30
0.0
 10
-0.0840826771653543
 20
-2.706598425196851
 30
0.0
 10
-0.0888070866141732
 20
-2.711015748031496
 30
0.0
 10
-0.0958622047244095
 20
-2.716988188976378
 30
0.0
  0
SPLINE
  5
75
330
1F
100
AcDbEntity
  8
Layer 1
 62
   250
100
AcDbSpline
210
0.0
220
0.0
230
1.0
 70
    11
 71
     3
 72
   204
 73
   200
 74
     0
 42
0.0000000001
 43
0.0000000001
 40
0.0
 40
0.0
 40
0.0
 40
0.0
 40
0.02
 40
0.02
 40
0.02
 40
0.02
 40
0.04
 40
0.04
 40
0.04
 40
0.04
 40
0.06
 40
0.06
 40
0.06
 40
0.06
 40
0.08
 40
0.08
 40
0.08
 40
0.08
 40
0.1
 40
0.1
 40
0.1
 40
0.1
 40
0.12
 40
0.12
 40
0.12
 40
0.12
 40
0.14
 40
0.14
 40
0.14
 40
0.14
 40
0.16
 40
0.16
 40
0.16
 40
0.16
 40
0.18
 40
0.18
 40
0.18
 40
0.18
 40
0.2
 40
0.2
 40
0.2
 40
0.2
 40
0.22
 40
0.22
 40
0.22
 40
0.22
 40
0.24
 40
0.24
 40
0.24
 40
0.24
 40
0.26
 40
0.26
 40
0.26
 40
0.26
 40
0.28
 40
0.28
 40
0.28
 40
0.28
 40
0.3
 40
0.3
 40
0.3
 40
0.3
 40
0.32
 40
0.32
 40
0.32
 40
0.32
 40
0.34
 40
0.34
 40
0.34
 40
0.34
 40
0.36
 40
0.36
 40
0.36
 40
0.36
 40
0.3800000000000001
 40
0.3800000000000001
 40
0.3800000000000001
 40
0.3800000000000001
 40
0.4000000000000001
 40
0.4000000000000001
 40
0.4000000000000001
 40
0.4000000000000001
 40
0.4200000000000001
 40
0.4200000000000001
 40
0.4200000000000001
 40
0.4200000000000001
 40
0.4400000000000001
 40
0.4400000000000001
 40
0.4400000000000001
 40
0.4400000000000001
 40
0.4600000000000001
 40
0.4600000000000001
 40
0.4600000000000001
 40
0.4600000000000001
 40
0.4800000000000002
 40
0.4800000000000002
 40
0.4800000000000002
 40
0.4800000000000002
 40
0.5000000000000001
 40
0.5000000000000001
 40
0.5000000000000001
 40
0.5000000000000001
 40
0.5200000000000001
 40
0.5200000000000001
 40
0.5200000000000001
 40
0.5200000000000001
 40
0.5400000000000002
 40
0.5400000000000002
 40
0.5400000000000002
 40
0.5400000000000002
 40
0.5600000000000002
 40
0.5600000000000002
 40
0.5600000000000002
 40
0.5600000000000002
 40
0.5800000000000002
 40
0.5800000000000002
 40
0.5800000000000002
 40
0.5800000000000002
 40
0.6000000000000002
 40
0.6000000000000002
 40
0.6000000000000002
 40
0.6000000000000002
 40
0.6200000000000002
 40
0.6200000000000002
 40
0.6200000000000002
 40
0.6200000000000002
 40
0.6400000000000002
 40
0.6400000000000002
 40
0.6400000000000002
 40
0.6400000000000002
 40
0.6600000000000003
 40
0.6600000000000003
 40
0.6600000000000003
 40
0.6600000000000003
 40
0.6800000000000003
 40
0.6800000000000003
 40
0.6800000000000003
 40
0.6800000000000003
 40
0.7000000000000003
 40
0.7000000000000003
 40
0.7000000000000003
 40
0.7000000000000003
 40
0.7200000000000003
 40
0.7200000000000003
 40
0.7200000000000003
 40
0.7200000000000003
 40
0.7400000000000003
 40
0.7400000000000003
 40
0.7400000000000003
 40
0.7400000000000003
 40
0.7600000000000003
 40
0.7600000000000003
 40
0.7600000000000003
 40
0.7600000000000003
 40
0.7800000000000004
 40
0.7800000000000004
 40
0.7800000000000004
 40
0.7800000000000004
 40
0.8000000000000004
 40
0.8000000000000004
 40
0.8000000000000004
 40
0.8000000000000004
 40
0.8200000000000004
 40
0.8200000000000004
 40
0.8200000000000004
 40
0.8200000000000004
 40
0.8400000000000004
 40
0.8400000000000004
 40
0.8400000000000004
 40
0.8400000000000004
 40
0.8600000000000004
 40
0.8600000000000004
 40
0.8600000000000004
 40
0.8600000000000004
 40
0.8800000000000005
 40
0.8800000000000005
 40
0.8800000000000005
 40
0.8800000000000005
 40
0.9000000000000005
 40
0.9000000000000005
 40
0.9000000000000005
 40
0.9000000000000005
 40
0.9200000000000005
 40
0.9200000000000005
 40
0.9200000000000005
 40
0.9200000000000005
 40
0.9400000000000005
 40
0.9400000000000005
 40
0.9400000000000005
 40
0.9400000000000005
 40
0.9600000000000005
 40
0.9600000000000005
 40
0.9600000000000005
 40
0.9600000000000005
 40
0.9800000000000005
 40
0.9800000000000005
 40
0.9800000000000005
 40
0.9800000000000005
 40
1.0
 40
1.0
 40
1.0
 40
1.0
 10
-0.0120551181102362
 20
-2.709905511811024
 30
0.0
 10
-0.0120551181102362
 20
-2.709905511811024
 30
0.0
 10
0.0288897637795276
 20
-2.709905511811024
 30
0.0
 10
0.0288897637795276
 20
-2.709905511811024
 30
0.0
 10
0.0288897637795276
 20
-2.709905511811024
 30
0.0
 10
0.0288897637795276
 20
-2.709905511811024
 30
0.0
 10
0.0288897637795276
 20
-2.716740157480315
 30
0.0
 10
0.0288897637795276
 20
-2.716740157480315
 30
0.0
 10
0.0288897637795276
 20
-2.716740157480315
 30
0.0
 10
0.0288897637795276
 20
-2.716740157480315
 30
0.0
 10
0.0260551181102362
 20
-2.716740157480315
 30
0.0
 10
0.0260551181102362
 20
-2.716740157480315
 30
0.0
 10
0.0260551181102362
 20
-2.716740157480315
 30
0.0
 10
0.0244173228346457
 20
-2.716740157480315
 30
0.0
 10
0.0229173228346457
 20
-2.716933070866142
 30
0.0
 10
0.0215551181102362
 20
-2.717295275590551
 30
0.0
 10
0.0215551181102362
 20
-2.717295275590551
 30
0.0
 10
0.020751968503937
 20
-2.717515748031496
 30
0.0
 10
0.0200826771653543
 20
-2.717933070866142
 30
0.0
 10
0.0195826771653543
 20
-2.718570866141732
 30
0.0
 10
0.0195826771653543
 20
-2.718570866141732
 30
0.0
 10
0.0190551181102362
 20
-2.719185039370079
 30
0.0
 10
0.0188070866141732
 20
-2.719767716535433
 30
0.0
 10
0.0188070866141732
 20
-2.720322834645669
 30
0.0
 10
0.0188070866141732
 20
-2.720322834645669
 30
0.0
 10
0.0188070866141732
 20
-2.721570866141732
 30
0.0
 10
0.0198346456692913
 20
-2.723433070866142
 30
0.0
 10
0.0218897637795276
 20
-2.725933070866142
 30
0.0
 10
0.0218897637795276
 20
-2.725933070866142
 30
0.0
 10
0.0218897637795276
 20
-2.725933070866142
 30
0.0
 10
0.0335275590551181
 20
-2.740570866141733
 30
0.0
 10
0.0335275590551181
 20
-2.740570866141733
 30
0.0
 10
0.0335275590551181
 20
-2.740570866141733
 30
0.0
 10
0.0335275590551181
 20
-2.740570866141733
 30
0.0
 10
0.0471102362204724
 20
-2.725933070866142
 30
0.0
 10
0.0471102362204724
 20
-2.725933070866142
 30
0.0
 10
0.0471102362204724
 20
-2.725933070866142
 30
0.0
 10
0.0496102362204724
 20
-2.723212598425197
 30
0.0
 10
0.0508622047244095
 20
-2.721185039370079
 30
0.0
 10
0.0508622047244095
 20
-2.719822834645669
 30
0.0
 10
0.0508622047244095
 20
-2.719822834645669
 30
0.0
 10
0.0508622047244095
 20
-2.718850393700787
 30
0.0
 10
0.0504173228346457
 20
-2.718098425196851
 30
0.0
 10
0.0495551181102362
 20
-2.717543307086614
 30
0.0
 10
0.0495551181102362
 20
-2.717543307086614
 30
0.0
 10
0.0486929133858268
 20
-2.717015748031496
 30
0.0
 10
0.0468346456692913
 20
-2.716740157480315
 30
0.0
 10
0.0439448818897638
 20
-2.716740157480315
 30
0.0
 10
0.0439448818897638
 20
-2.716740157480315
 30
0.0
 10
0.0439448818897638
 20
-2.716740157480315
 30
0.0
 10
0.0408622047244094
 20
-2.716740157480315
 30
0.0
 10
0.0408622047244094
 20
-2.716740157480315
 30
0.0
 10
0.0408622047244094
 20
-2.716740157480315
 30
0.0
 10
0.0408622047244094
 20
-2.716740157480315
 30
0.0
 10
0.0408622047244094
 20
-2.709905511811024
 30
0.0
 10
0.0408622047244094
 20
-2.709905511811024
 30
0.0
 10
0.0408622047244094
 20
-2.709905511811024
 30
0.0
 10
0.0408622047244094
 20
-2.709905511811024
 30
0.0
 10
0.0756102362204724
 20
-2.709905511811024
 30
0.0
 10
0.0756102362204724
 20
-2.709905511811024
 30
0.0
 10
0.0756102362204724
 20
-2.709905511811024
 30
0.0
 10
0.0756102362204724
 20
-2.709905511811024
 30
0.0
 10
0.0756102362204724
 20
-2.716740157480315
 30
0.0
 10
0.0756102362204724
 20
-2.716740157480315
 30
0.0
 10
0.0756102362204724
 20
-2.716740157480315
 30
0.0
 10
0.0721929133858268
 20
-2.716905511811024
 30
0.0
 10
0.069248031496063
 20
-2.71759842519685
 30
0.0
 10
0.0667795275590551
 20
-2.718850393700787
 30
0.0
 10
0.0667795275590551
 20
-2.718850393700787
 30
0.0
 10
0.0643070866141732
 20
-2.72009842519685
 30
0.0
 10
0.0613897637795276
 20
-2.72246062992126
 30
0.0
 10
0.0580275590551181
 20
-2.725933070866142
 30
0.0
 10
0.0580275590551181
 20
-2.725933070866142
 30
0.0
 10
0.0580275590551181
 20
-2.725933070866142
 30
0.0
 10
0.0393897637795276
 20
-2.745295275590551
 30
0.0
 10
0.0393897637795276
 20
-2.745295275590551
 30
0.0
 10
0.0393897637795276
 20
-2.745295275590551
 30
0.0
 10
0.0393897637795276
 20
-2.745295275590551
 30
0.0
 10
0.0625826771653543
 20
-2.771740157480315
 30
0.0
 10
0.0625826771653543
 20
-2.771740157480315
 30
0.0
 10
0.0625826771653543
 20
-2.771740157480315
 30
0.0
 10
0.0625826771653543
 20
-2.771740157480315
 30
0.0
 10
0.0634724409448819
 20
-2.772877952755906
 30
0.0
 10
0.0634724409448819
 20
-2.772877952755906
 30
0.0
 10
0.0634724409448819
 20
-2.772877952755906
 30
0.0
 10
0.065748031496063
 20
-2.775822834645669
 30
0.0
 10
0.0683070866141732
 20
-2.778185039370079
 30
0.0
 10
0.0711377952755906
 20
-2.77996062992126
 30
0.0
 10
0.0711377952755906
 20
-2.77996062992126
 30
0.0
 10
0.0726929133858268
 20
-2.780988188976378
 30
0.0
 10
0.0751377952755906
 20
-2.781543307086615
 30
0.0
 10
0.0784448818897638
 20
-2.78159842519685
 30
0.0
 10
0.0784448818897638
 20
-2.78159842519685
 30
0.0
 10
0.0784448818897638
 20
-2.78159842519685
 30
0.0
 10
0.0784448818897638
 20
-2.788433070866142
 30
0.0
 10
0.0784448818897638
 20
-2.788433070866142
 30
0.0
 10
0.0784448818897638
 20
-2.788433070866142
 30
0.0
 10
0.0784448818897638
 20
-2.788433070866142
 30
0.0
 10
0.0385
 20
-2.788433070866142
 30
0.0
 10
0.0385
 20
-2.788433070866142
 30
0.0
 10
0.0385
 20
-2.788433070866142
 30
0.0
 10
0.0385
 20
-2.788433070866142
 30
0.0
 10
0.0385
 20
-2.78159842519685
 30
0.0
 10
0.0385
 20
-2.78159842519685
 30
0.0
 10
0.0385
 20
-2.78159842519685
 30
0.0
 10
0.0385
 20
-2.78159842519685
 30
0.0
 10
0.0419173228346457
 20
-2.78159842519685
 30
0.0
 10
0.0419173228346457
 20
-2.78159842519685
 30
0.0
 10
0.0419173228346457
 20
-2.78159842519685
 30
0.0
 10
0.0445275590551181
 20
-2.78159842519685
 30
0.0
 10
0.0461653543307087
 20
-2.781433070866142
 30
0.0
 10
0.0468897637795276
 20
-2.781098425196851
 30
0.0
 10
0.0468897637795276
 20
-2.781098425196851
 30
0.0
 10
0.0480551181102362
 20
-2.780570866141733
 30
0.0
 10
0.0486653543307087
 20
-2.779653543307087
 30
0.0
 10
0.0486653543307087
 20
-2.778350393700788
 30
0.0
 10
0.0486653543307087
 20
-2.778350393700788
 30
0.0
 10
0.0486653543307087
 20
-2.777153543307087
 30
0.0
 10
0.0473622047244095
 20
-2.77496062992126
 30
0.0
 10
0.044748031496063
 20
-2.771740157480315
 30
0.0
 10
0.044748031496063
 20
-2.771740157480315
 30
0.0
 10
0.044748031496063
 20
-2.771740157480315
 30
0.0
 10
0.0299448818897638
 20
-2.75359842519685
 30
0.0
 10
0.0299448818897638
 20
-2.75359842519685
 30
0.0
 10
0.0299448818897638
 20
-2.75359842519685
 30
0.0
 10
0.0299448818897638
 20
-2.75359842519685
 30
0.0
 10
0.0134173228346457
 20
-2.771740157480315
 30
0.0
 10
0.0134173228346457
 20
-2.771740157480315
 30
0.0
 10
0.0134173228346457
 20
-2.771740157480315
 30
0.0
 10
0.0134173228346457
 20
-2.771740157480315
 30
0.0
 10
0.0118070866141732
 20
-2.773712598425197
 30
0.0
 10
0.0118070866141732
 20
-2.773712598425197
 30
0.0
 10
0.0118070866141732
 20
-2.773712598425197
 30
0.0
 10
0.0118070866141732
 20
-2.773712598425197
 30
0.0
 10
0.0109173228346457
 20
-2.774685039370079
 30
0.0
 10
0.0109173228346457
 20
-2.774685039370079
 30
0.0
 10
0.0109173228346457
 20
-2.774685039370079
 30
0.0
 10
0.0095551181102362
 20
-2.776153543307087
 30
0.0
 10
0.0088622047244094
 20
-2.777433070866142
 30
0.0
 10
0.0088622047244094
 20
-2.778570866141732
 30
0.0
 10
0.0088622047244094
 20
-2.778570866141732
 30
0.0
 10
0.0088622047244094
 20
-2.779625984251969
 30
0.0
 10
0.0092795275590551
 20
-2.780377952755906
 30
0.0
 10
0.0101377952755906
 20
-2.780877952755906
 30
0.0
 10
0.0101377952755906
 20
-2.780877952755906
 30
0.0
 10
0.0109724409448819
 20
-2.781350393700787
 30
0.0
 10
0.0128622047244094
 20
-2.78159842519685
 30
0.0
 10
0.0157795275590551
 20
-2.78159842519685
 30
0.0
 10
0.0157795275590551
 20
-2.78159842519685
 30
0.0
 10
0.0157795275590551
 20
-2.78159842519685
 30
0.0
 10
0.0190551181102362
 20
-2.78159842519685
 30
0.0
 10
0.0190551181102362
 20
-2.78159842519685
 30
0.0
 10
0.0190551181102362
 20
-2.78159842519685
 30
0.0
 10
0.0190551181102362
 20
-2.78159842519685
 30
0.0
 10
0.0190551181102362
 20
-2.788433070866142
 30
0.0
 10
0.0190551181102362
 20
-2.788433070866142
 30
0.0
 10
0.0190551181102362
 20
-2.788433070866142
 30
0.0
 10
0.0190551181102362
 20
-2.788433070866142
 30
0.0
 10
-0.0152204724409449
 20
-2.788433070866142
 30
0.0
 10
-0.0152204724409449
 20
-2.788433070866142
 30
0.0
 10
-0.0152204724409449
 20
-2.788433070866142
 30
0.0
 10
-0.0152204724409449
 20
-2.788433070866142
 30
0.0
 10
-0.0152204724409449
 20
-2.78159842519685
 30
0.0
 10
-0.0152204724409449
 20
-2.78159842519685
 30
0.0
 10
-0.0152204724409449
 20
-2.78159842519685
 30
0.0
 10
-0.0125551181102362
 20
-2.781543307086615
 30
0.0
 10
-0.0104724409448819
 20
-2.781267716535433
 30
0.0
 10
-0.0089448818897638
 20
-2.780740157480315
 30
0.0
 10
-0.0089448818897638
 20
-2.780740157480315
 30
0.0
 10
-0.0074448818897638
 20
-2.780240157480315
 30
0.0
 10
-0.0059724409448819
 20
-2.779433070866142
 30
0.0
 10
-0.0045551181102362
 20
-2.778350393700788
 30
0.0
 10
-0.0045551181102362
 20
-2.778350393700788
 30
0.0
 10
-0.0021102362204724
 20
-2.776377952755906
 30
0.0
 10
-0.0003622047244094
 20
-2.774850393700787
 30
0.0
 10
0.0007244094488189
 20
-2.773712598425197
 30
0.0
 10
0.0007244094488189
 20
-2.773712598425197
 30
0.0
 10
0.0007244094488189
 20
-2.773712598425197
 30
0.0
 10
0.0245826771653543
 20
-2.749212598425197
 30
0.0
 10
0.0245826771653543
 20
-2.749212598425197
 30
0.0
 10
0.0245826771653543
 20
-2.749212598425197
 30
0.0
 10
0.0245826771653543
 20
-2.749212598425197
 30
0.0
 10
0.0043070866141732
 20
-2.725933070866142
 30
0.0
 10
0.0043070866141732
 20
-2.725933070866142
 30
0.0
 10
0.0043070866141732
 20
-2.725933070866142
 30
0.0
 10
0.001751968503937
 20
-2.723043307086615
 30
0.0
 10
-0.000248031496063
 20
-2.721043307086614
 30
0.0
 10
-0.001748031496063
 20
-2.719877952755906
 30
0.0
 10
-0.001748031496063
 20
-2.719877952755906
 30
0.0
 10
-0.003248031496063
 20
-2.718712598425197
 30
0.0
 10
-0.0046929133858268
 20
-2.717877952755906
 30
0.0
 10
-0.0061102362204724
 20
-2.717433070866142
 30
0.0
 10
-0.0061102362204724
 20
-2.717433070866142
 30
0.0
 10
-0.0075275590551181
 20
-2.71696062992126
 30
0.0
 10
-0.0095
 20
-2.716740157480315
 30
0.0
 10
-0.0120551181102362
 20
-2.716740157480315
 30
0.0
 10
-0.0120551181102362
 20
-2.716740157480315
 30
0.0
 10
-0.0120551181102362
 20
-2.716740157480315
 30
0.0
 10
-0.0120551181102362
 20
-2.709905511811024
 30
0.0
 10
-0.0120551181102362
 20
-2.709905511811024
 30
0.0
  0
SPLINE
  5
76
330
1F
100
AcDbEntity
  8
Layer 1
 62
   250
100
AcDbSpline
210
0.0
220
0.0
230
1.0
 70
    11
 71
     3
 72
   172
 73
   168
 74
     0
 42
0.0000000001
 43
0.0000000001
 40
0.0
 40
0.0
 40
0.0
 40
0.0
 40
0.0238095238095238
 40
0.0238095238095238
 40
0.0238095238095238
 40
0.0238095238095238
 40
0.0476190476190476
 40
0.0476190476190476
 40
0.0476190476190476
 40
0.0476190476190476
 40
0.0714285714285714
 40
0.0714285714285714
 40
0.0714285714285714
 40
0.0714285714285714
 40
0.0952380952380952
 40
0.0952380952380952
 40
0.0952380952380952
 40
0.0952380952380952
 40
0.119047619047619
 40
0.119047619047619
 40
0.119047619047619
 40
0.119047619047619
 40
0.1428571428571429
 40
0.1428571428571429
 40
0.1428571428571429
 40
0.1428571428571429
 40
0.1666666666666667
 40
0.1666666666666667
 40
0.1666666666666667
 40
0.1666666666666667
 40
0.1904761904761905
 40
0.1904761904761905
 40
0.1904761904761905
 40
0.1904761904761905
 40
0.2142857142857143
 40
0.2142857142857143
 40
0.2142857142857143
 40
0.2142857142857143
 40
0.2380952380952381
 40
0.2380952380952381
 40
0.2380952380952381
 40
0.2380952380952381
 40
0.2619047619047619
 40
0.2619047619047619
 40
0.2619047619047619
 40
0.2619047619047619
 40
0.2857142857142857
 40
0.2857142857142857
 40
0.2857142857142857
 40
0.2857142857142857
 40
0.3095238095238095
 40
0.3095238095238095
 40
0.3095238095238095
 40
0.3095238095238095
 40
0.3333333333333334
 40
0.3333333333333334
 40
0.3333333333333334
 40
0.3333333333333334
 40
0.3571428571428572
 40
0.3571428571428572
 40
0.3571428571428572
 40
0.3571428571428572
 40
0.380952380952381
 40
0.380952380952381
 40
0.380952380952381
 40
0.380952380952381
 40
0.4047619047619049
 40
0.4047619047619049
 40
0.4047619047619049
 40
0.4047619047619049
 40
0.4285714285714287
 40
0.4285714285714287
 40
0.4285714285714287
 40
0.4285714285714287
 40
0.4523809523809526
 40
0.4523809523809526
 40
0.4523809523809526
 40
0.4523809523809526
 40
0.4761904761904764
 40
0.4761904761904764
 40
0.4761904761904764
 40
0.4761904761904764
 40
0.5000000000000002
 40
0.5000000000000002
 40
0.5000000000000002
 40
0.5000000000000002
 40
0.5238095238095241
 40
0.5238095238095241
 40
0.5238095238095241
 40
0.5238095238095241
 40
0.5476190476190479
 40
0.5476190476190479
 40
0.5476190476190479
 40
0.5476190476190479
 40
0.5714285714285717
 40
0.5714285714285717
 40
0.5714285714285717
 40
0.5714285714285717
 40
0.5952380952380956
 40
0.5952380952380956
 40
0.5952380952380956
 40
0.5952380952380956
 40
0.6190476190476194
 40
0.6190476190476194
 40
0.6190476190476194
 40
0.6190476190476194
 40
0.6428571428571432
 40
0.6428571428571432
 40
0.6428571428571432
 40
0.6428571428571432
 40
0.6666666666666671
 40
0.6666666666666671
 40
0.6666666666666671
 40
0.6666666666666671
 40
0.6904761904761909
 40
0.6904761904761909
 40
0.6904761904761909
 40
0.6904761904761909
 40
0.7142857142857148
 40
0.7142857142857148
 40
0.7142857142857148
 40
0.7142857142857148
 40
0.7380952380952386
 40
0.7380952380952386
 40
0.7380952380952386
 40
0.7380952380952386
 40
0.7619047619047624
 40
0.7619047619047624
 40
0.7619047619047624
 40
0.7619047619047624
 40
0.7857142857142863
 40
0.7857142857142863
 40
0.7857142857142863
 40
0.7857142857142863
 40
0.8095238095238101
 40
0.8095238095238101
 40
0.8095238095238101
 40
0.8095238095238101
 40
0.8333333333333339
 40
0.8333333333333339
 40
0.8333333333333339
 40
0.8333333333333339
 40
0.8571428571428578
 40
0.8571428571428578
 40
0.8571428571428578
 40
0.8571428571428578
 40
0.8809523809523816
 40
0.8809523809523816
 40
0.8809523809523816
 40
0.8809523809523816
 40
0.9047619047619054
 40
0.9047619047619054
 40
0.9047619047619054
 40
0.9047619047619054
 40
0.9285714285714293
 40
0.9285714285714293
 40
0.9285714285714293
 40
0.9285714285714293
 40
0.9523809523809531
 40
0.9523809523809531
 40
0.9523809523809531
 40
0.9523809523809531
 40
0.9761904761904769
 40
0.9761904761904769
 40
0.9761904761904769
 40
0.9761904761904769
 40
1.0
 40
1.0
 40
1.0
 40
1.0
 10
0.1536377952755905
 20
-2.705267716535433
 30
0.0
 10
0.1536377952755905
 20
-2.705267716535433
 30
0.0
 10
0.1458307086614173
 20
-2.704043307086614
 30
0.0
 10
0.1458307086614173
 20
-2.704043307086614
 30
0.0
 10
0.1458307086614173
 20
-2.704043307086614
 30
0.0
 10
0.1465275590551181
 20
-2.698185039370079
 30
0.0
 10
0.1480551181102362
 20
-2.693322834645669
 30
0.0
 10
0.1503897637795276
 20
-2.68946062992126
 30
0.0
 10
0.1503897637795276
 20
-2.68946062992126
 30
0.0
 10
0.1534724409448819
 20
-2.684267716535433
 30
0.0
 10
0.1578307086614173
 20
-2.680212598425197
 30
0.0
 10
0.1634724409448819
 20
-2.677322834645669
 30
0.0
 10
0.1634724409448819
 20
-2.677322834645669
 30
0.0
 10
0.1691377952755906
 20
-2.674405511811024
 30
0.0
 10
0.1756102362204725
 20
-2.67296062992126
 30
0.0
 10
0.1829448818897638
 20
-2.67296062992126
 30
0.0
 10
0.1829448818897638
 20
-2.67296062992126
 30
0.0
 10
0.1901377952755906
 20
-2.67296062992126
 30
0.0
 10
0.1965
 20
-2.674240157480315
 30
0.0
 10
0.2019724409448819
 20
-2.67682283464567
 30
0.0
 10
0.2019724409448819
 20
-2.67682283464567
 30
0.0
 10
0.2074448818897638
 20
-2.679405511811024
 30
0.0
 10
0.2115826771653543
 20
-2.682822834645669
 30
0.0
 10
0.2143858267716536
 20
-2.687070866141732
 30
0.0
 10
0.2143858267716536
 20
-2.687070866141732
 30
0.0
 10
0.2171929133858268
 20
-2.69132283464567
 30
0.0
 10
0.2185826771653543
 20
-2.695933070866142
 30
0.0
 10
0.2185826771653543
 20
-2.700877952755906
 30
0.0
 10
0.2185826771653543
 20
-2.700877952755906
 30
0.0
 10
0.2185826771653543
 20
-2.705212598425197
 30
0.0
 10
0.2175275590551181
 20
-2.709098425196851
 30
0.0
 10
0.2154133858267717
 20
-2.712515748031496
 30
0.0
 10
0.2154133858267717
 20
-2.712515748031496
 30
0.0
 10
0.2132755905511811
 20
-2.715933070866142
 30
0.0
 10
0.2101377952755906
 20
-2.718988188976378
 30
0.0
 10
0.2059724409448819
 20
-2.721712598425197
 30
0.0
 10
0.2059724409448819
 20
-2.721712598425197
 30
0.0
 10
0.2030275590551181
 20
-2.723598425196851
 30
0.0
 10
0.1992204724409449
 20
-2.725267716535433
 30
0.0
 10
0.1945
 20
-2.726657480314961
 30
0.0
 10
0.1945
 20
-2.726657480314961
 30
0.0
 10
0.1995275590551181
 20
-2.727377952755905
 30
0.0
 10
0.2036653543307087
 20
-2.728543307086614
 30
0.0
 10
0.2068582677165355
 20
-2.730157480314961
 30
0.0
 10
0.2068582677165355
 20
-2.730157480314961
 30
0.0
 10
0.2120551181102362
 20
-2.73282283464567
 30
0.0
 10
0.2161653543307087
 20
-2.736488188976378
 30
0.0
 10
0.2191377952755906
 20
-2.741157480314961
 30
0.0
 10
0.2191377952755906
 20
-2.741157480314961
 30
0.0
 10
0.2221377952755906
 20
-2.74582283464567
 30
0.0
 10
0.2236102362204724
 20
-2.750933070866142
 30
0.0
 10
0.2236102362204724
 20
-2.756543307086614
 30
0.0
 10
0.2236102362204724
 20
-2.756543307086614
 30
0.0
 10
0.2236102362204724
 20
-2.765488188976378
 30
0.0
 10
0.2196929133858268
 20
-2.773377952755906
 30
0.0
 10
0.2118307086614173
 20
-2.780185039370079
 30
0.0
 10
0.2118307086614173
 20
-2.780185039370079
 30
0.0
 10
0.2039448818897638
 20
-2.786988188976378
 30
0.0
 10
0.1937755905511811
 20
-2.790377952755906
 30
0.0
 10
0.1813031496062992
 20
-2.790377952755906
 30
0.0
 10
0.1813031496062992
 20
-2.790377952755906
 30
0.0
 10
0.169
 20
-2.790377952755906
 30
0.0
 10
0.1586377952755906
 20
-2.787098425196851
 30
0.0
 10
0.1502204724409449
 20
-2.780543307086614
 30
0.0
 10
0.1502204724409449
 20
-2.780543307086614
 30
0.0
 10
0.1431653543307087
 20
-2.77496062992126
 30
0.0
 10
0.1396377952755906
 20
-2.769322834645669
 30
0.0
 10
0.1396377952755906
 20
-2.763685039370079
 30
0.0
 10
0.1396377952755906
 20
-2.763685039370079
 30
0.0
 10
0.1396377952755906
 20
-2.76146062992126
 30
0.0
 10
0.1403622047244095
 20
-2.759598425196851
 30
0.0
 10
0.1418031496062992
 20
-2.758125984251969
 30
0.0
 10
0.1418031496062992
 20
-2.758125984251969
 30
0.0
 10
0.1432204724409449
 20
-2.756625984251969
 30
0.0
 10
0.1450275590551181
 20
-2.755877952755906
 30
0.0
 10
0.1472204724409449
 20
-2.755877952755906
 30
0.0
 10
0.1472204724409449
 20
-2.755877952755906
 30
0.0
 10
0.1495826771653543
 20
-2.755877952755906
 30
0.0
 10
0.1516377952755906
 20
-2.756795275590551
 30
0.0
 10
0.1533031496062992
 20
-2.758657480314961
 30
0.0
 10
0.1533031496062992
 20
-2.758657480314961
 30
0.0
 10
0.1542204724409449
 20
-2.759685039370079
 30
0.0
 10
0.1553031496062992
 20
-2.762153543307087
 30
0.0
 10
0.1564724409448819
 20
-2.766043307086614
 30
0.0
 10
0.1564724409448819
 20
-2.766043307086614
 30
0.0
 10
0.1581653543307087
 20
-2.771543307086614
 30
0.0
 10
0.1610275590551181
 20
-2.775712598425197
 30
0.0
 10
0.1650275590551181
 20
-2.778570866141732
 30
0.0
 10
0.1650275590551181
 20
-2.778570866141732
 30
0.0
 10
0.1690551181102362
 20
-2.78146062992126
 30
0.0
 10
0.1740275590551181
 20
-2.782905511811024
 30
0.0
 10
0.18
 20
-2.782905511811024
 30
0.0
 10
0.18
 20
-2.782905511811024
 30
0.0
 10
0.1853307086614173
 20
-2.782905511811024
 30
0.0
 10
0.1900826771653544
 20
-2.781740157480315
 30
0.0
 10
0.1942755905511811
 20
-2.779405511811024
 30
0.0
 10
0.1942755905511811
 20
-2.779405511811024
 30
0.0
 10
0.1985
 20
-2.777070866141732
 30
0.0
 10
0.2018031496062992
 20
-2.773767716535433
 30
0.0
 10
0.204248031496063
 20
-2.76946062992126
 30
0.0
 10
0.204248031496063
 20
-2.76946062992126
 30
0.0
 10
0.2066929133858268
 20
-2.765185039370079
 30
0.0
 10
0.2079173228346457
 20
-2.760488188976378
 30
0.0
 10
0.2079173228346457
 20
-2.755405511811024
 30
0.0
 10
0.2079173228346457
 20
-2.755405511811024
 30
0.0
 10
0.2079173228346457
 20
-2.751267716535433
 30
0.0
 10
0.2070275590551181
 20
-2.747570866141732
 30
0.0
 10
0.2052755905511811
 20
-2.744295275590551
 30
0.0
 10
0.2052755905511811
 20
-2.744295275590551
 30
0.0
 10
0.2035
 20
-2.740988188976378
 30
0.0
 10
0.201
 20
-2.738212598425197
 30
0.0
 10
0.197748031496063
 20
-2.735933070866142
 30
0.0
 10
0.197748031496063
 20
-2.735933070866142
 30
0.0
 10
0.195248031496063
 20
-2.734157480314961
 30
0.0
 10
0.1920551181102362
 20
-2.732905511811024
 30
0.0
 10
0.1881929133858268
 20
-2.732212598425197
 30
0.0
 10
0.1881929133858268
 20
-2.732212598425197
 30
0.0
 10
0.1843031496062992
 20
-2.731488188976378
 30
0.0
 10
0.1808031496062992
 20
-2.731129921259843
 30
0.0
 10
0.1777204724409449
 20
-2.731129921259843
 30
0.0
 10
0.1777204724409449
 20
-2.731129921259843
 30
0.0
 10
0.1777204724409449
 20
-2.731129921259843
 30
0.0
 10
0.1701653543307087
 20
-2.731129921259843
 30
0.0
 10
0.1701653543307087
 20
-2.731129921259843
 30
0.0
 10
0.1701653543307087
 20
-2.731129921259843
 30
0.0
 10
0.1701653543307087
 20
-2.731129921259843
 30
0.0
 10
0.1701653543307087
 20
-2.723240157480315
 30
0.0
 10
0.1701653543307087
 20
-2.723240157480315
 30
0.0
 10
0.1701653543307087
 20
-2.723240157480315
 30
0.0
 10
0.1701653543307087
 20
-2.723240157480315
 30
0.0
 10
0.1749724409448819
 20
-2.723240157480315
 30
0.0
 10
0.1749724409448819
 20
-2.723240157480315
 30
0.0
 10
0.1749724409448819
 20
-2.723240157480315
 30
0.0
 10
0.1797204724409449
 20
-2.723240157480315
 30
0.0
 10
0.1842755905511811
 20
-2.722685039370079
 30
0.0
 10
0.1886377952755906
 20
-2.721570866141732
 30
0.0
 10
0.1886377952755906
 20
-2.721570866141732
 30
0.0
 10
0.1929724409448819
 20
-2.72046062992126
 30
0.0
 10
0.1964448818897638
 20
-2.718185039370079
 30
0.0
 10
0.1990551181102362
 20
-2.714712598425197
 30
0.0
 10
0.1990551181102362
 20
-2.714712598425197
 30
0.0
 10
0.2016377952755906
 20
-2.711240157480315
 30
0.0
 10
0.2029448818897638
 20
-2.707295275590552
 30
0.0
 10
0.2029448818897638
 20
-2.702905511811024
 30
0.0
 10
0.2029448818897638
 20
-2.702905511811024
 30
0.0
 10
0.2029448818897638
 20
-2.699102362204724
 30
0.0
 10
0.2020551181102362
 20
-2.695685039370079
 30
0.0
 10
0.2002204724409449
 20
-2.692657480314961
 30
0.0
 10
0.2002204724409449
 20
-2.692657480314961
 30
0.0
 10
0.1984173228346457
 20
-2.689602362204725
 30
0.0
 10
0.195748031496063
 20
-2.687185039370079
 30
0.0
 10
0.1922204724409449
 20
-2.685405511811024
 30
0.0
 10
0.1922204724409449
 20
-2.685405511811024
 30
0.0
 10
0.1886929133858268
 20
-2.683629921259843
 30
0.0
 10
0.1846102362204725
 20
-2.682712598425197
 30
0.0
 10
0.18
 20
-2.682712598425197
 30
0.0
 10
0.18
 20
-2.682712598425197
 30
0.0
 10
0.1755
 20
-2.682712598425197
 30
0.0
 10
0.1713582677165355
 20
-2.683657480314961
 30
0.0
 10
0.1675826771653543
 20
-2.685488188976378
 30
0.0
 10
0.1675826771653543
 20
-2.685488188976378
 30
0.0
 10
0.1638307086614173
 20
-2.68732283464567
 30
0.0
 10
0.1608031496062992
 20
-2.689795275590551
 30
0.0
 10
0.1585275590551181
 20
-2.692905511811024
 30
0.0
 10
0.1585275590551181
 20
-2.692905511811024
 30
0.0
 10
0.156248031496063
 20
-2.695988188976378
 30
0.0
 10
0.1546102362204725
 20
-2.700102362204725
 30
0.0
 10
0.1536377952755905
 20
-2.705267716535433
 30
0.0
  0
SPLINE
  5
77
330
1F
100
AcDbEntity
  8
Layer 1
 62
   250
100
AcDbSpline
210
0.0
220
0.0
230
1.0
 70
    11
 71
     3
 72
    60
 73
    56
 74
     0
 42
0.0000000001
 43
0.0000000001
 40
0.0
 40
0.0
 40
0.0
 40
0.0
 40
0.0714285714285714
 40
0.0714285714285714
 40
0.0714285714285714
 40
0.0714285714285714
 40
0.1428571428571429
 40
0.1428571428571429
 40
0.1428571428571429
 40
0.1428571428571429
 40
0.2142857142857143
 40
0.2142857142857143
 40
0.2142857142857143
 40
0.2142857142857143
 40
0.2857142857142857
 40
0.2857142857142857
 40
0.2857142857142857
 40
0.2857142857142857
 40
0.3571428571428571
 40
0.3571428571428571
 40
0.3571428571428571
 40
0.3571428571428571
 40
0.4285714285714285
 40
0.4285714285714285
 40
0.4285714285714285
 40
0.4285714285714285
 40
0.4999999999999999
 40
0.4999999999999999
 40
0.4999999999999999
 40
0.4999999999999999
 40
0.5714285714285713
 40
0.5714285714285713
 40
0.5714285714285713
 40
0.5714285714285713
 40
0.6428571428571427
 40
0.6428571428571427
 40
0.6428571428571427
 40
0.6428571428571427
 40
0.7142857142857141
 40
0.7142857142857141
 40
0.7142857142857141
 40
0.7142857142857141
 40
0.7857142857142855
 40
0.7857142857142855
 40
0.7857142857142855
 40
0.7857142857142855
 40
0.8571428571428569
 40
0.8571428571428569
 40
0.8571428571428569
 40
0.8571428571428569
 40
0.9285714285714283
 40
0.9285714285714283
 40
0.9285714285714283
 40
0.9285714285714283
 40
1.0
 40
1.0
 40
1.0
 40
1.0
 10
0.2450275590551181
 20
-2.716988188976378
 30
0.0
 10
0.2450275590551181
 20
-2.716988188976378
 30
0.0
 10
0.2406377952755906
 20
-2.711598425196851
 30
0.0
 10
0.2406377952755906
 20
-2.711598425196851
 30
0.0
 10
0.2406377952755906
 20
-2.711598425196851
 30
0.0
 10
0.251751968503937
 20
-2.702543307086614
 30
0.0
 10
0.2573346456692914
 20
-2.694988188976378
 30
0.0
 10
0.2573346456692914
 20
-2.688905511811024
 30
0.0
 10
0.2573346456692914
 20
-2.688905511811024
 30
0.0
 10
0.2573346456692914
 20
-2.688212598425197
 30
0.0
 10
0.2572795275590551
 20
-2.68732283464567
 30
0.0
 10
0.2571653543307087
 20
-2.686295275590551
 30
0.0
 10
0.2571653543307087
 20
-2.686295275590551
 30
0.0
 10
0.256251968503937
 20
-2.686685039370079
 30
0.0
 10
0.2553346456692914
 20
-2.686988188976378
 30
0.0
 10
0.2544724409448819
 20
-2.687185039370079
 30
0.0
 10
0.2544724409448819
 20
-2.687185039370079
 30
0.0
 10
0.2536102362204725
 20
-2.687405511811024
 30
0.0
 10
0.2528070866141732
 20
-2.687515748031496
 30
0.0
 10
0.2520275590551181
 20
-2.687515748031496
 30
0.0
 10
0.2520275590551181
 20
-2.687515748031496
 30
0.0
 10
0.2494173228346457
 20
-2.687515748031496
 30
0.0
 10
0.2473346456692913
 20
-2.686685039370079
 30
0.0
 10
0.2457795275590551
 20
-2.684988188976378
 30
0.0
 10
0.2457795275590551
 20
-2.684988188976378
 30
0.0
 10
0.2441929133858268
 20
-2.68332283464567
 30
0.0
 10
0.2434173228346457
 20
-2.681185039370079
 30
0.0
 10
0.2434173228346457
 20
-2.678570866141732
 30
0.0
 10
0.2434173228346457
 20
-2.678570866141732
 30
0.0
 10
0.2434173228346457
 20
-2.676015748031496
 30
0.0
 10
0.2443622047244095
 20
-2.673795275590551
 30
0.0
 10
0.246251968503937
 20
-2.671905511811024
 30
0.0
 10
0.246251968503937
 20
-2.671905511811024
 30
0.0
 10
0.2481653543307087
 20
-2.669988188976378
 30
0.0
 10
0.2504448818897638
 20
-2.669043307086614
 30
0.0
 10
0.2530826771653543
 20
-2.669043307086614
 30
0.0
 10
0.2530826771653543
 20
-2.669043307086614
 30
0.0
 10
0.2567795275590551
 20
-2.669043307086614
 30
0.0
 10
0.2599448818897638
 20
-2.670515748031496
 30
0.0
 10
0.2625826771653543
 20
-2.673488188976378
 30
0.0
 10
0.2625826771653543
 20
-2.673488188976378
 30
0.0
 10
0.2651929133858268
 20
-2.676433070866142
 30
0.0
 10
0.2665275590551181
 20
-2.680240157480315
 30
0.0
 10
0.2665275590551181
 20
-2.684905511811024
 30
0.0
 10
0.2665275590551181
 20
-2.684905511811024
 30
0.0
 10
0.2665275590551181
 20
-2.68796062992126
 30
0.0
 10
0.2658897637795276
 20
-2.691157480314961
 30
0.0
 10
0.2646377952755906
 20
-2.694488188976378
 30
0.0
 10
0.2646377952755906
 20
-2.694488188976378
 30
0.0
 10
0.2633897637795276
 20
-2.697822834645669
 30
0.0
 10
0.2615826771653543
 20
-2.700905511811024
 30
0.0
 10
0.2591929133858268
 20
-2.703767716535433
 30
0.0
 10
0.2591929133858268
 20
-2.703767716535433
 30
0.0
 10
0.2568070866141732
 20
-2.706598425196851
 30
0.0
 10
0.2520826771653543
 20
-2.711015748031496
 30
0.0
 10
0.2450275590551181
 20
-2.716988188976378
 30
0.0
  0
SPLINE
  5
78
330
1F
100
AcDbEntity
  8
Layer 1
 62
   250
100
AcDbSpline
210
0.0
220
0.0
230
1.0
 70
    11
 71
     3
 72
    60
 73
    56
 74
     0
 42
0.0000000001
 43
0.0000000001
 40
0.0
 40
0.0
 40
0.0
 40
0.0
 40
0.0714285714285714
 40
0.0714285714285714
 40
0.0714285714285714
 40
0.0714285714285714
 40
0.1428571428571429
 40
0.1428571428571429
 40
0.1428571428571429
 40
0.1428571428571429
 40
0.2142857142857143
 40
0.2142857142857143
 40
0.2142857142857143
 40
0.2142857142857143
 40
0.2857142857142857
 40
0.2857142857142857
 40
0.2857142857142857
 40
0.2857142857142857
 40
0.3571428571428571
 40
0.3571428571428571
 40
0.3571428571428571
 40
0.3571428571428571
 40
0.4285714285714285
 40
0.4285714285714285
 40
0.4285714285714285
 40
0.4285714285714285
 40
0.4999999999999999
 40
0.4999999999999999
 40
0.4999999999999999
 40
0.4999999999999999
 40
0.5714285714285713
 40
0.5714285714285713
 40
0.5714285714285713
 40
0.5714285714285713
 40
0.6428571428571427
 40
0.6428571428571427
 40
0.6428571428571427
 40
0.6428571428571427
 40
0.7142857142857141
 40
0.7142857142857141
 40
0.7142857142857141
 40
0.7142857142857141
 40
0.7857142857142855
 40
0.7857142857142855
 40
0.7857142857142855
 40
0.7857142857142855
 40
0.8571428571428569
 40
0.8571428571428569
 40
0.8571428571428569
 40
0.8571428571428569
 40
0.9285714285714283
 40
0.9285714285714283
 40
0.9285714285714283
 40
0.9285714285714283
 40
1.0
 40
1.0
 40
1.0
 40
1.0
 10
0.2740826771653543
 20
-2.716988188976378
 30
0.0
 10
0.2740826771653543
 20
-2.716988188976378
 30
0.0
 10
0.2696929133858268
 20
-2.711598425196851
 30
0.0
 10
0.2696929133858268
 20
-2.711598425196851
 30
0.0
 10
0.2696929133858268
 20
-2.711598425196851
 30
0.0
 10
0.2808070866141733
 20
-2.702543307086614
 30
0.0
 10
0.2863897637795276
 20
-2.694988188976378
 30
0.0
 10
0.2863897637795276
 20
-2.688905511811024
 30
0.0
 10
0.2863897637795276
 20
-2.688905511811024
 30
0.0
 10
0.2863897637795276
 20
-2.688212598425197
 30
0.0
 10
0.2863346456692913
 20
-2.68732283464567
 30
0.0
 10
0.2862204724409449
 20
-2.686295275590551
 30
0.0
 10
0.2862204724409449
 20
-2.686295275590551
 30
0.0
 10
0.2853070866141733
 20
-2.686685039370079
 30
0.0
 10
0.2843897637795276
 20
-2.686988188976378
 30
0.0
 10
0.2835275590551181
 20
-2.687185039370079
 30
0.0
 10
0.2835275590551181
 20
-2.687185039370079
 30
0.0
 10
0.2826653543307087
 20
-2.687405511811024
 30
0.0
 10
0.2818346456692913
 20
-2.687515748031496
 30
0.0
 10
0.281
 20
-2.687515748031496
 30
0.0
 10
0.281
 20
-2.687515748031496
 30
0.0
 10
0.2784448818897638
 20
-2.687515748031496
 30
0.0
 10
0.2763897637795276
 20
-2.686685039370079
 30
0.0
 10
0.2748346456692913
 20
-2.684988188976378
 30
0.0
 10
0.2748346456692913
 20
-2.684988188976378
 30
0.0
 10
0.273251968503937
 20
-2.68332283464567
 30
0.0
 10
0.2724724409448819
 20
-2.681185039370079
 30
0.0
 10
0.2724724409448819
 20
-2.678570866141732
 30
0.0
 10
0.2724724409448819
 20
-2.678570866141732
 30
0.0
 10
0.2724724409448819
 20
-2.676015748031496
 30
0.0
 10
0.2734173228346457
 20
-2.673795275590551
 30
0.0
 10
0.2753070866141733
 20
-2.671905511811024
 30
0.0
 10
0.2753070866141733
 20
-2.671905511811024
 30
0.0
 10
0.2771929133858268
 20
-2.669988188976378
 30
0.0
 10
0.2795
 20
-2.669043307086614
 30
0.0
 10
0.2821377952755906
 20
-2.669043307086614
 30
0.0
 10
0.2821377952755906
 20
-2.669043307086614
 30
0.0
 10
0.2858346456692913
 20
-2.669043307086614
 30
0.0
 10
0.289
 20
-2.670515748031496
 30
0.0
 10
0.2916377952755906
 20
-2.673488188976378
 30
0.0
 10
0.2916377952755906
 20
-2.673488188976378
 30
0.0
 10
0.294248031496063
 20
-2.676433070866142
 30
0.0
 10
0.2955826771653544
 20
-2.680240157480315
 30
0.0
 10
0.2955826771653544
 20
-2.684905511811024
 30
0.0
 10
0.2955826771653544
 20
-2.684905511811024
 30
0.0
 10
0.2955826771653544
 20
-2.68796062992126
 30
0.0
 10
0.2949448818897638
 20
-2.691157480314961
 30
0.0
 10
0.2936929133858268
 20
-2.694488188976378
 30
0.0
 10
0.2936929133858268
 20
-2.694488188976378
 30
0.0
 10
0.2924448818897638
 20
-2.697822834645669
 30
0.0
 10
0.2906377952755906
 20
-2.700905511811024
 30
0.0
 10
0.288251968503937
 20
-2.703767716535433
 30
0.0
 10
0.288251968503937
 20
-2.703767716535433
 30
0.0
 10
0.2858622047244095
 20
-2.706598425196851
 30
0.0
 10
0.2811377952755906
 20
-2.711015748031496
 30
0.0
 10
0.2740826771653543
 20
-2.716988188976378
 30
0.0
  0
SPLINE
  5
79
330
1F
100
AcDbEntity
  8
Layer 1
 62
     7
370
    40
100
AcDbSpline
210
0.0
220
0.0
230
1.0
 70
    11
 71
     3
 72
    32
 73
    28
 74
     0
 42
0.0000000001
 43
0.0000000001
 40
0.0
 40
0.0
 40
0.0
 40
0.0
 40
0.1428571428571429
 40
0.1428571428571429
 40
0.1428571428571429
 40
0.1428571428571429
 40
0.2857142857142857
 40
0.2857142857142857
 40
0.2857142857142857
 40
0.2857142857142857
 40
0.4285714285714286
 40
0.4285714285714286
 40
0.4285714285714286
 40
0.4285714285714286
 40
0.5714285714285714
 40
0.5714285714285714
 40
0.5714285714285714
 40
0.5714285714285714
 40
0.7142857142857142
 40
0.7142857142857142
 40
0.7142857142857142
 40
0.7142857142857142
 40
0.857142857142857
 40
0.857142857142857
 40
0.857142857142857
 40
0.857142857142857
 40
1.0
 40
1.0
 40
1.0
 40
1.0
 10
-1.936271653543307
 20
3.468822834645669
 30
0.0
 10
-1.936271653543307
 20
3.468822834645669
 30
0.0
 10
-1.938464566929134
 20
2.219830708661418
 30
0.0
 10
-1.938464566929134
 20
2.219830708661418
 30
0.0
 10
-1.938464566929134
 20
2.219830708661418
 30
0.0
 10
-1.938464566929134
 20
2.219830708661418
 30
0.0
 10
-1.188169291338583
 20
2.219830708661418
 30
0.0
 10
-1.188169291338583
 20
2.219830708661418
 30
0.0
 10
-1.188169291338583
 20
2.219830708661418
 30
0.0
 10
-1.188169291338583
 20
2.219830708661418
 30
0.0
 10
-1.188169291338583
 20
1.970622047244095
 30
0.0
 10
-1.188169291338583
 20
1.970622047244095
 30
0.0
 10
-1.188169291338583
 20
1.970622047244095
 30
0.0
 10
-1.188169291338583
 20
1.970622047244095
 30
0.0
 10
-0.564228346456693
 20
1.970622047244095
 30
0.0
 10
-0.564228346456693
 20
1.970622047244095
 30
0.0
 10
-0.564228346456693
 20
1.970622047244095
 30
0.0
 10
-0.564228346456693
 20
1.970622047244095
 30
0.0
 10
-0.564228346456693
 20
1.721413385826772
 30
0.0
 10
-0.564228346456693
 20
1.721413385826772
 30
0.0
 10
-0.564228346456693
 20
1.721413385826772
 30
0.0
 10
2.035543307086615
 20
1.758665354330709
 30
0.0
 10
1.089948818897638
 20
3.239224409448819
 30
0.0
 10
-0.4229803149606299
 20
3.363748031496063
 30
0.0
 10
-0.4229803149606299
 20
3.363748031496063
 30
0.0
 10
-0.4229803149606299
 20
3.363748031496063
 30
0.0
 10
-1.936271653543307
 20
3.468822834645669
 30
0.0
 10
-1.936271653543307
 20
3.468822834645669
 30
0.0
  0
SPLINE
  5
7A
330
1F
100
AcDbEntity
  8
Layer 1
 62
   250
100
AcDbSpline
210
0.0
220
0.0
230
1.0
 70
    11
 71
     3
 72
   104
 73
   100
 74
     0
 42
0.0000000001
 43
0.0000000001
 40
0.0
 40
0.0
 40
0.0
 40
0.0
 40
0.04
 40
0.04
 40
0.04
 40
0.04
 40
0.08
 40
0.08
 40
0.08
 40
0.08
 40
0.12
 40
0.12
 40
0.12
 40
0.12
 40
0.16
 40
0.16
 40
0.16
 40
0.16
 40
0.2
 40
0.2
 40
0.2
 40
0.2
 40
0.24
 40
0.24
 40
0.24
 40
0.24
 40
0.28
 40
0.28
 40
0.28
 40
0.28
 40
0.32
 40
0.32
 40
0.32
 40
0.32
 40
0.36
 40
0.36
 40
0.36
 40
0.36
 40
0.4
 40
0.4
 40
0.4
 40
0.4
 40
0.44
 40
0.44
 40
0.44
 40
0.44
 40
0.4799999999999999
 40
0.4799999999999999
 40
0.4799999999999999
 40
0.4799999999999999
 40
0.5199999999999999
 40
0.5199999999999999
 40
0.5199999999999999
 40
0.5199999999999999
 40
0.5599999999999999
 40
0.5599999999999999
 40
0.5599999999999999
 40
0.5599999999999999
 40
0.6
 40
0.6
 40
0.6
 40
0.6
 40
0.64
 40
0.64
 40
0.64
 40
0.64
 40
0.6800000000000001
 40
0.6800000000000001
 40
0.6800000000000001
 40
0.6800000000000001
 40
0.7200000000000001
 40
0.7200000000000001
 40
0.7200000000000001
 40
0.7200000000000001
 40
0.7600000000000001
 40
0.7600000000000001
 40
0.7600000000000001
 40
0.7600000000000001
 40
0.8000000000000002
 40
0.8000000000000002
 40
0.8000000000000002
 40
0.8000000000000002
 40
0.8400000000000002
 40
0.8400000000000002
 40
0.8400000000000002
 40
0.8400000000000002
 40
0.8800000000000002
 40
0.8800000000000002
 40
0.8800000000000002
 40
0.8800000000000002
 40
0.9200000000000003
 40
0.9200000000000003
 40
0.9200000000000003
 40
0.9200000000000003
 40
0.9600000000000003
 40
0.9600000000000003
 40
0.9600000000000003
 40
0.9600000000000003
 40
1.0
 40
1.0
 40
1.0
 40
1.0
 10
-0.4711141732283465
 20
1.456748031496063
 30
0.0
 10
-0.4711141732283465
 20
1.456748031496063
 30
0.0
 10
-0.4171417322834646
 20
1.456748031496063
 30
0.0
 10
-0.4171417322834646
 20
1.456748031496063
 30
0.0
 10
-0.4171417322834646
 20
1.456748031496063
 30
0.0
 10
-0.4039724409448819
 20
1.456748031496063
 30
0.0
 10
-0.3949448818897638
 20
1.456137795275591
 30
0.0
 10
-0.3900590551181102
 20
1.45494094488189
 30
0.0
 10
-0.3900590551181102
 20
1.45494094488189
 30
0.0
 10
-0.3828346456692914
 20
1.453220472440945
 30
0.0
 10
-0.3771417322834646
 20
1.450082677165354
 30
0.0
 10
-0.3729173228346457
 20
1.445523622047244
 30
0.0
 10
-0.3729173228346457
 20
1.445523622047244
 30
0.0
 10
-0.3687244094488189
 20
1.440968503937008
 30
0.0
 10
-0.3666141732283465
 20
1.435468503937008
 30
0.0
 10
-0.3666141732283465
 20
1.429082677165354
 30
0.0
 10
-0.3666141732283465
 20
1.429082677165354
 30
0.0
 10
-0.3666141732283465
 20
1.424468503937008
 30
0.0
 10
-0.3677244094488189
 20
1.420330708661417
 30
0.0
 10
-0.3699448818897638
 20
1.416665354330709
 30
0.0
 10
-0.3699448818897638
 20
1.416665354330709
 30
0.0
 10
-0.3721692913385827
 20
1.412996062992126
 30
0.0
 10
-0.3754173228346457
 20
1.409858267716535
 30
0.0
 10
-0.3796417322834646
 20
1.407275590551181
 30
0.0
 10
-0.3796417322834646
 20
1.407275590551181
 30
0.0
 10
-0.3823622047244095
 20
1.405582677165354
 30
0.0
 10
-0.3860314960629921
 20
1.404137795275591
 30
0.0
 10
-0.3906968503937008
 20
1.40294094488189
 30
0.0
 10
-0.3906968503937008
 20
1.40294094488189
 30
0.0
 10
-0.3847795275590552
 20
1.401858267716535
 30
0.0
 10
-0.3802795275590551
 20
1.400555118110236
 30
0.0
 10
-0.3771968503937008
 20
1.399055118110236
 30
0.0
 10
-0.3771968503937008
 20
1.399055118110236
 30
0.0
 10
-0.3725314960629921
 20
1.396775590551181
 30
0.0
 10
-0.3688346456692914
 20
1.393527559055118
 30
0.0
 10
-0.3661417322834646
 20
1.389275590551181
 30
0.0
 10
-0.3661417322834646
 20
1.389275590551181
 30
0.0
 10
-0.3634173228346457
 20
1.385055118110236
 30
0.0
 10
-0.3620590551181103
 20
1.380275590551181
 30
0.0
 10
-0.3620590551181103
 20
1.374968503937008
 30
0.0
 10
-0.3620590551181103
 20
1.374968503937008
 30
0.0
 10
-0.3620590551181103
 20
1.369803149606299
 30
0.0
 10
-0.3633897637795276
 20
1.365027559055118
 30
0.0
 10
-0.3660590551181103
 20
1.360637795275591
 30
0.0
 10
-0.3660590551181103
 20
1.360637795275591
 30
0.0
 10
-0.3686968503937008
 20
1.356248031496063
 30
0.0
 10
-0.3724724409448819
 20
1.352637795275591
 30
0.0
 10
-0.3773070866141732
 20
1.349803149606299
 30
0.0
 10
-0.3773070866141732
 20
1.349803149606299
 30
0.0
 10
-0.3821692913385827
 20
1.347
 30
0.0
 10
-0.3878346456692914
 20
1.345192913385827
 30
0.0
 10
-0.3942795275590552
 20
1.344385826771654
 30
0.0
 10
-0.3942795275590552
 20
1.344385826771654
 30
0.0
 10
-0.400751968503937
 20
1.343610236220473
 30
0.0
 10
-0.4073897637795276
 20
1.343220472440945
 30
0.0
 10
-0.4142244094488189
 20
1.343220472440945
 30
0.0
 10
-0.4142244094488189
 20
1.343220472440945
 30
0.0
 10
-0.4142244094488189
 20
1.343220472440945
 30
0.0
 10
-0.4711141732283465
 20
1.343220472440945
 30
0.0
 10
-0.4711141732283465
 20
1.343220472440945
 30
0.0
 10
-0.4711141732283465
 20
1.343220472440945
 30
0.0
 10
-0.4711141732283465
 20
1.343220472440945
 30
0.0
 10
-0.4711141732283465
 20
1.350055118110236
 30
0.0
 10
-0.4711141732283465
 20
1.350055118110236
 30
0.0
 10
-0.4711141732283465
 20
1.350055118110236
 30
0.0
 10
-0.4711141732283465
 20
1.350055118110236
 30
0.0
 10
-0.4672795275590552
 20
1.350055118110236
 30
0.0
 10
-0.4672795275590552
 20
1.350055118110236
 30
0.0
 10
-0.4672795275590552
 20
1.350055118110236
 30
0.0
 10
-0.4635826771653543
 20
1.350055118110236
 30
0.0
 10
-0.4610826771653543
 20
1.350637795275591
 30
0.0
 10
-0.4597244094488189
 20
1.351775590551181
 30
0.0
 10
-0.4597244094488189
 20
1.351775590551181
 30
0.0
 10
-0.457751968503937
 20
1.353330708661418
 30
0.0
 10
-0.4567795275590552
 20
1.35594094488189
 30
0.0
 10
-0.4567795275590552
 20
1.359582677165354
 30
0.0
 10
-0.4567795275590552
 20
1.359582677165354
 30
0.0
 10
-0.4567795275590552
 20
1.359582677165354
 30
0.0
 10
-0.4567795275590552
 20
1.43844094488189
 30
0.0
 10
-0.4567795275590552
 20
1.43844094488189
 30
0.0
 10
-0.4567795275590552
 20
1.43844094488189
 30
0.0
 10
-0.4567795275590552
 20
1.442137795275591
 30
0.0
 10
-0.4570826771653543
 20
1.444637795275591
 30
0.0
 10
-0.4576692913385827
 20
1.445996062992126
 30
0.0
 10
-0.4576692913385827
 20
1.445996062992126
 30
0.0
 10
-0.4582795275590552
 20
1.447358267716536
 30
0.0
 10
-0.4591692913385827
 20
1.448330708661417
 30
0.0
 10
-0.4603622047244095
 20
1.44894094488189
 30
0.0
 10
-0.4603622047244095
 20
1.44894094488189
 30
0.0
 10
-0.4615551181102363
 20
1.449523622047244
 30
0.0
 10
-0.4638622047244095
 20
1.449830708661417
 30
0.0
 10
-0.4672795275590552
 20
1.449830708661417
 30
0.0
 10
-0.4672795275590552
 20
1.449830708661417
 30
0.0
 10
-0.4672795275590552
 20
1.449830708661417
 30
0.0
 10
-0.4711141732283465
 20
1.449830708661417
 30
0.0
 10
-0.4711141732283465
 20
1.449830708661417
 30
0.0
 10
-0.4711141732283465
 20
1.449830708661417
 30
0.0
 10
-0.4711141732283465
 20
1.449830708661417
 30
0.0
 10
-0.4711141732283465
 20
1.456748031496063
 30
0.0
 10
-0.4711141732283465
 20
1.456748031496063
 30
0.0
  0
SPLINE
  5
7B
330
1F
100
AcDbEntity
  8
Layer 1
 62
   250
100
AcDbSpline
210
0.0
220
0.0
230
1.0
 70
    11
 71
     3
 72
    40
 73
    36
 74
     0
 42
0.0000000001
 43
0.0000000001
 40
0.0
 40
0.0
 40
0.0
 40
0.0
 40
0.1111111111111111
 40
0.1111111111111111
 40
0.1111111111111111
 40
0.1111111111111111
 40
0.2222222222222222
 40
0.2222222222222222
 40
0.2222222222222222
 40
0.2222222222222222
 40
0.3333333333333333
 40
0.3333333333333333
 40
0.3333333333333333
 40
0.3333333333333333
 40
0.4444444444444444
 40
0.4444444444444444
 40
0.4444444444444444
 40
0.4444444444444444
 40
0.5555555555555556
 40
0.5555555555555556
 40
0.5555555555555556
 40
0.5555555555555556
 40
0.6666666666666667
 40
0.6666666666666667
 40
0.6666666666666667
 40
0.6666666666666667
 40
0.7777777777777779
 40
0.7777777777777779
 40
0.7777777777777779
 40
0.7777777777777779
 40
0.8888888888888891
 40
0.8888888888888891
 40
0.8888888888888891
 40
0.8888888888888891
 40
1.0
 40
1.0
 40
1.0
 40
1.0
 10
-0.4415551181102362
 20
1.447720472440945
 30
0.0
 10
-0.4415551181102362
 20
1.447720472440945
 30
0.0
 10
-0.4415551181102362
 20
1.406137795275591
 30
0.0
 10
-0.4415551181102362
 20
1.406137795275591
 30
0.0
 10
-0.4415551181102362
 20
1.406137795275591
 30
0.0
 10
-0.4415551181102362
 20
1.406137795275591
 30
0.0
 10
-0.4208070866141733
 20
1.406137795275591
 30
0.0
 10
-0.4208070866141733
 20
1.406137795275591
 30
0.0
 10
-0.4208070866141733
 20
1.406137795275591
 30
0.0
 10
-0.4111141732283465
 20
1.406137795275591
 30
0.0
 10
-0.4044448818897638
 20
1.406582677165355
 30
0.0
 10
-0.4008897637795276
 20
1.407496062992126
 30
0.0
 10
-0.4008897637795276
 20
1.407496062992126
 30
0.0
 10
-0.3952795275590552
 20
1.408968503937008
 30
0.0
 10
-0.3910314960629922
 20
1.411468503937008
 30
0.0
 10
-0.3880590551181102
 20
1.414996062992126
 30
0.0
 10
-0.3880590551181102
 20
1.414996062992126
 30
0.0
 10
-0.3851141732283465
 20
1.418523622047244
 30
0.0
 10
-0.3836141732283465
 20
1.423055118110236
 30
0.0
 10
-0.3836141732283465
 20
1.428582677165355
 30
0.0
 10
-0.3836141732283465
 20
1.428582677165355
 30
0.0
 10
-0.3836141732283465
 20
1.433248031496063
 30
0.0
 10
-0.3849724409448819
 20
1.437137795275591
 30
0.0
 10
-0.3876417322834646
 20
1.440275590551181
 30
0.0
 10
-0.3876417322834646
 20
1.440275590551181
 30
0.0
 10
-0.3903346456692914
 20
1.443385826771654
 30
0.0
 10
-0.3939448818897638
 20
1.445523622047244
 30
0.0
 10
-0.3984448818897638
 20
1.446665354330709
 30
0.0
 10
-0.3984448818897638
 20
1.446665354330709
 30
0.0
 10
-0.4013622047244095
 20
1.447358267716536
 30
0.0
 10
-0.4074448818897638
 20
1.447720472440945
 30
0.0
 10
-0.4166692913385827
 20
1.447720472440945
 30
0.0
 10
-0.4166692913385827
 20
1.447720472440945
 30
0.0
 10
-0.4166692913385827
 20
1.447720472440945
 30
0.0
 10
-0.4415551181102362
 20
1.447720472440945
 30
0.0
 10
-0.4415551181102362
 20
1.447720472440945
 30
0.0
  0
SPLINE
  5
7C
330
1F
100
AcDbEntity
  8
Layer 1
 62
   250
100
AcDbSpline
210
0.0
220
0.0
230
1.0
 70
    11
 71
     3
 72
    52
 73
    48
 74
     0
 42
0.0000000001
 43
0.0000000001
 40
0.0
 40
0.0
 40
0.0
 40
0.0
 40
0.0833333333333333
 40
0.0833333333333333
 40
0.0833333333333333
 40
0.0833333333333333
 40
0.1666666666666667
 40
0.1666666666666667
 40
0.1666666666666667
 40
0.1666666666666667
 40
0.25
 40
0.25
 40
0.25
 40
0.25
 40
0.3333333333333333
 40
0.3333333333333333
 40
0.3333333333333333
 40
0.3333333333333333
 40
0.4166666666666666
 40
0.4166666666666666
 40
0.4166666666666666
 40
0.4166666666666666
 40
0.4999999999999999
 40
0.4999999999999999
 40
0.4999999999999999
 40
0.4999999999999999
 40
0.5833333333333333
 40
0.5833333333333333
 40
0.5833333333333333
 40
0.5833333333333333
 40
0.6666666666666666
 40
0.6666666666666666
 40
0.6666666666666666
 40
0.6666666666666666
 40
0.75
 40
0.75
 40
0.75
 40
0.75
 40
0.8333333333333334
 40
0.8333333333333334
 40
0.8333333333333334
 40
0.8333333333333334
 40
0.9166666666666667
 40
0.9166666666666667
 40
0.9166666666666667
 40
0.9166666666666667
 40
1.0
 40
1.0
 40
1.0
 40
1.0
 10
-0.4415551181102362
 20
1.398303149606299
 30
0.0
 10
-0.4415551181102362
 20
1.398303149606299
 30
0.0
 10
-0.4415551181102362
 20
1.361055118110236
 30
0.0
 10
-0.4415551181102362
 20
1.361055118110236
 30
0.0
 10
-0.4415551181102362
 20
1.361055118110236
 30
0.0
 10
-0.4415551181102362
 20
1.357303149606299
 30
0.0
 10
-0.4413897637795276
 20
1.355082677165354
 30
0.0
 10
-0.4410866141732284
 20
1.354358267716536
 30
0.0
 10
-0.4410866141732284
 20
1.354358267716536
 30
0.0
 10
-0.4406417322834646
 20
1.353385826771654
 30
0.0
 10
-0.4397795275590551
 20
1.352720472440945
 30
0.0
 10
-0.4384724409448819
 20
1.352330708661417
 30
0.0
 10
-0.4384724409448819
 20
1.352330708661417
 30
0.0
 10
-0.4375551181102362
 20
1.352055118110236
 30
0.0
 10
-0.4349448818897638
 20
1.351913385826772
 30
0.0
 10
-0.4306692913385827
 20
1.351913385826772
 30
0.0
 10
-0.4306692913385827
 20
1.351913385826772
 30
0.0
 10
-0.4306692913385827
 20
1.351913385826772
 30
0.0
 10
-0.4195866141732283
 20
1.351913385826772
 30
0.0
 10
-0.4195866141732283
 20
1.351913385826772
 30
0.0
 10
-0.4195866141732283
 20
1.351913385826772
 30
0.0
 10
-0.4086417322834646
 20
1.351913385826772
 30
0.0
 10
-0.4008070866141733
 20
1.352527559055118
 30
0.0
 10
-0.3961141732283465
 20
1.353748031496063
 30
0.0
 10
-0.3961141732283465
 20
1.353748031496063
 30
0.0
 10
-0.3914173228346457
 20
1.354968503937008
 30
0.0
 10
-0.3874173228346457
 20
1.357555118110236
 30
0.0
 10
-0.3841141732283465
 20
1.3615
 30
0.0
 10
-0.3841141732283465
 20
1.3615
 30
0.0
 10
-0.3808070866141732
 20
1.365413385826772
 30
0.0
 10
-0.3791417322834646
 20
1.370165354330709
 30
0.0
 10
-0.3791417322834646
 20
1.375692913385827
 30
0.0
 10
-0.3791417322834646
 20
1.375692913385827
 30
0.0
 10
-0.3791417322834646
 20
1.380358267716536
 30
0.0
 10
-0.3805
 20
1.384496062992126
 30
0.0
 10
-0.3831692913385827
 20
1.388110236220473
 30
0.0
 10
-0.3831692913385827
 20
1.388110236220473
 30
0.0
 10
-0.3858622047244095
 20
1.391720472440945
 30
0.0
 10
-0.3895866141732284
 20
1.394303149606299
 30
0.0
 10
-0.3943346456692913
 20
1.395913385826772
 30
0.0
 10
-0.3943346456692913
 20
1.395913385826772
 30
0.0
 10
-0.3990866141732284
 20
1.397527559055118
 30
0.0
 10
-0.4075
 20
1.398303149606299
 30
0.0
 10
-0.4195866141732283
 20
1.398303149606299
 30
0.0
 10
-0.4195866141732283
 20
1.398303149606299
 30
0.0
 10
-0.4195866141732283
 20
1.398303149606299
 30
0.0
 10
-0.4415551181102362
 20
1.398303149606299
 30
0.0
 10
-0.4415551181102362
 20
1.398303149606299
 30
0.0
  0
SPLINE
  5
7D
330
1F
100
AcDbEntity
  8
Layer 1
 62
   250
100
AcDbSpline
210
0.0
220
0.0
230
1.0
 70
    11
 71
     3
 72
   112
 73
   108
 74
     0
 42
0.0000000001
 43
0.0000000001
 40
0.0
 40
0.0
 40
0.0
 40
0.0
 40
0.037037037037037
 40
0.037037037037037
 40
0.037037037037037
 40
0.037037037037037
 40
0.0740740740740741
 40
0.0740740740740741
 40
0.0740740740740741
 40
0.0740740740740741
 40
0.1111111111111111
 40
0.1111111111111111
 40
0.1111111111111111
 40
0.1111111111111111
 40
0.1481481481481481
 40
0.1481481481481481
 40
0.1481481481481481
 40
0.1481481481481481
 40
0.1851851851851852
 40
0.1851851851851852
 40
0.1851851851851852
 40
0.1851851851851852
 40
0.2222222222222222
 40
0.2222222222222222
 40
0.2222222222222222
 40
0.2222222222222222
 40
0.2592592592592592
 40
0.2592592592592592
 40
0.2592592592592592
 40
0.2592592592592592
 40
0.2962962962962963
 40
0.2962962962962963
 40
0.2962962962962963
 40
0.2962962962962963
 40
0.3333333333333333
 40
0.3333333333333333
 40
0.3333333333333333
 40
0.3333333333333333
 40
0.3703703703703704
 40
0.3703703703703704
 40
0.3703703703703704
 40
0.3703703703703704
 40
0.4074074074074074
 40
0.4074074074074074
 40
0.4074074074074074
 40
0.4074074074074074
 40
0.4444444444444444
 40
0.4444444444444444
 40
0.4444444444444444
 40
0.4444444444444444
 40
0.4814814814814815
 40
0.4814814814814815
 40
0.4814814814814815
 40
0.4814814814814815
 40
0.5185185185185185
 40
0.5185185185185185
 40
0.5185185185185185
 40
0.5185185185185185
 40
0.5555555555555556
 40
0.5555555555555556
 40
0.5555555555555556
 40
0.5555555555555556
 40
0.5925925925925926
 40
0.5925925925925926
 40
0.5925925925925926
 40
0.5925925925925926
 40
0.6296296296296295
 40
0.6296296296296295
 40
0.6296296296296295
 40
0.6296296296296295
 40
0.6666666666666665
 40
0.6666666666666665
 40
0.6666666666666665
 40
0.6666666666666665
 40
0.7037037037037035
 40
0.7037037037037035
 40
0.7037037037037035
 40
0.7037037037037035
 40
0.7407407407407405
 40
0.7407407407407405
 40
0.7407407407407405
 40
0.7407407407407405
 40
0.7777777777777775
 40
0.7777777777777775
 40
0.7777777777777775
 40
0.7777777777777775
 40
0.8148148148148144
 40
0.8148148148148144
 40
0.8148148148148144
 40
0.8148148148148144
 40
0.8518518518518514
 40
0.8518518518518514
 40
0.8518518518518514
 40
0.8518518518518514
 40
0.8888888888888884
 40
0.8888888888888884
 40
0.8888888888888884
 40
0.8888888888888884
 40
0.9259259259259254
 40
0.9259259259259254
 40
0.9259259259259254
 40
0.9259259259259254
 40
0.9629629629629624
 40
0.9629629629629624
 40
0.9629629629629624
 40
0.9629629629629624
 40
1.0
 40
1.0
 40
1.0
 40
1.0
 10
-0.3044488188976378
 20
1.456748031496063
 30
0.0
 10
-0.3044488188976378
 20
1.456748031496063
 30
0.0
 10
-0.2910314960629921
 20
1.456748031496063
 30
0.0
 10
-0.2910314960629921
 20
1.456748031496063
 30
0.0
 10
-0.2910314960629921
 20
1.456748031496063
 30
0.0
 10
-0.2910314960629921
 20
1.456748031496063
 30
0.0
 10
-0.2557834645669291
 20
1.361858267716535
 30
0.0
 10
-0.2557834645669291
 20
1.361858267716535
 30
0.0
 10
-0.2557834645669291
 20
1.361858267716535
 30
0.0
 10
-0.2540590551181102
 20
1.357082677165354
 30
0.0
 10
-0.2523110236220473
 20
1.353913385826772
 30
0.0
 10
-0.2505314960629921
 20
1.352385826771654
 30
0.0
 10
-0.2505314960629921
 20
1.352385826771654
 30
0.0
 10
-0.2487834645669292
 20
1.350830708661417
 30
0.0
 10
-0.2463937007874016
 20
1.350055118110236
 30
0.0
 10
-0.2434212598425197
 20
1.350055118110236
 30
0.0
 10
-0.2434212598425197
 20
1.350055118110236
 30
0.0
 10
-0.2434212598425197
 20
1.350055118110236
 30
0.0
 10
-0.2416417322834646
 20
1.350055118110236
 30
0.0
 10
-0.2416417322834646
 20
1.350055118110236
 30
0.0
 10
-0.2416417322834646
 20
1.350055118110236
 30
0.0
 10
-0.2416417322834646
 20
1.350055118110236
 30
0.0
 10
-0.2416417322834646
 20
1.343220472440945
 30
0.0
 10
-0.2416417322834646
 20
1.343220472440945
 30
0.0
 10
-0.2416417322834646
 20
1.343220472440945
 30
0.0
 10
-0.2416417322834646
 20
1.343220472440945
 30
0.0
 10
-0.2820866141732283
 20
1.343220472440945
 30
0.0
 10
-0.2820866141732283
 20
1.343220472440945
 30
0.0
 10
-0.2820866141732283
 20
1.343220472440945
 30
0.0
 10
-0.2820866141732283
 20
1.343220472440945
 30
0.0
 10
-0.2820866141732283
 20
1.350055118110236
 30
0.0
 10
-0.2820866141732283
 20
1.350055118110236
 30
0.0
 10
-0.2820866141732283
 20
1.350055118110236
 30
0.0
 10
-0.2807834645669292
 20
1.350165354330709
 30
0.0
 10
-0.279503937007874
 20
1.350220472440945
 30
0.0
 10
-0.278251968503937
 20
1.350220472440945
 30
0.0
 10
-0.278251968503937
 20
1.350220472440945
 30
0.0
 10
-0.2756417322834646
 20
1.350220472440945
 30
0.0
 10
-0.2739488188976378
 20
1.3505
 30
0.0
 10
-0.2731141732283465
 20
1.351027559055118
 30
0.0
 10
-0.2731141732283465
 20
1.351027559055118
 30
0.0
 10
-0.2715590551181102
 20
1.352055118110236
 30
0.0
 10
-0.2707559055118111
 20
1.353358267716535
 30
0.0
 10
-0.2707559055118111
 20
1.35494094488189
 30
0.0
 10
-0.2707559055118111
 20
1.35494094488189
 30
0.0
 10
-0.2707559055118111
 20
1.356082677165355
 30
0.0
 10
-0.2715314960629922
 20
1.358858267716536
 30
0.0
 10
-0.2730314960629922
 20
1.363330708661418
 30
0.0
 10
-0.2730314960629922
 20
1.363330708661418
 30
0.0
 10
-0.2730314960629922
 20
1.363330708661418
 30
0.0
 10
-0.2805314960629922
 20
1.385303149606299
 30
0.0
 10
-0.2805314960629922
 20
1.385303149606299
 30
0.0
 10
-0.2805314960629922
 20
1.385303149606299
 30
0.0
 10
-0.2805314960629922
 20
1.385303149606299
 30
0.0
 10
-0.3216968503937008
 20
1.385303149606299
 30
0.0
 10
-0.3216968503937008
 20
1.385303149606299
 30
0.0
 10
-0.3216968503937008
 20
1.385303149606299
 30
0.0
 10
-0.3216968503937008
 20
1.385303149606299
 30
0.0
 10
-0.330503937007874
 20
1.360720472440945
 30
0.0
 10
-0.330503937007874
 20
1.360720472440945
 30
0.0
 10
-0.330503937007874
 20
1.360720472440945
 30
0.0
 10
-0.3314212598425197
 20
1.358165354330709
 30
0.0
 10
-0.3318937007874016
 20
1.356413385826772
 30
0.0
 10
-0.3318937007874016
 20
1.355413385826772
 30
0.0
 10
-0.3318937007874016
 20
1.355413385826772
 30
0.0
 10
-0.3318937007874016
 20
1.354330708661417
 30
0.0
 10
-0.3315866141732284
 20
1.353385826771654
 30
0.0
 10
-0.3310314960629922
 20
1.352582677165354
 30
0.0
 10
-0.3310314960629922
 20
1.352582677165354
 30
0.0
 10
-0.3304488188976378
 20
1.351775590551181
 30
0.0
 10
-0.3296968503937008
 20
1.351165354330709
 30
0.0
 10
-0.3286968503937008
 20
1.350748031496063
 30
0.0
 10
-0.3286968503937008
 20
1.350748031496063
 30
0.0
 10
-0.3277244094488189
 20
1.350330708661417
 30
0.0
 10
-0.3261692913385827
 20
1.350137795275591
 30
0.0
 10
-0.3239763779527559
 20
1.350137795275591
 30
0.0
 10
-0.3239763779527559
 20
1.350137795275591
 30
0.0
 10
-0.3225314960629921
 20
1.350137795275591
 30
0.0
 10
-0.3213385826771654
 20
1.350110236220472
 30
0.0
 10
-0.3204212598425197
 20
1.350055118110236
 30
0.0
 10
-0.3204212598425197
 20
1.350055118110236
 30
0.0
 10
-0.3204212598425197
 20
1.350055118110236
 30
0.0
 10
-0.3204212598425197
 20
1.343220472440945
 30
0.0
 10
-0.3204212598425197
 20
1.343220472440945
 30
0.0
 10
-0.3204212598425197
 20
1.343220472440945
 30
0.0
 10
-0.3204212598425197
 20
1.343220472440945
 30
0.0
 10
-0.3543385826771654
 20
1.343220472440945
 30
0.0
 10
-0.3543385826771654
 20
1.343220472440945
 30
0.0
 10
-0.3543385826771654
 20
1.343220472440945
 30
0.0
 10
-0.3543385826771654
 20
1.343220472440945
 30
0.0
 10
-0.3543385826771654
 20
1.350055118110236
 30
0.0
 10
-0.3543385826771654
 20
1.350055118110236
 30
0.0
 10
-0.3543385826771654
 20
1.350055118110236
 30
0.0
 10
-0.3511968503937008
 20
1.350055118110236
 30
0.0
 10
-0.3489212598425197
 20
1.350358267716536
 30
0.0
 10
-0.3475590551181103
 20
1.351
 30
0.0
 10
-0.3475590551181103
 20
1.351
 30
0.0
 10
-0.3461692913385827
 20
1.351610236220473
 30
0.0
 10
-0.3449488188976378
 20
1.352610236220472
 30
0.0
 10
-0.3439212598425197
 20
1.354
 30
0.0
 10
-0.3439212598425197
 20
1.354
 30
0.0
 10
-0.3428937007874016
 20
1.355385826771654
 30
0.0
 10
-0.3415314960629922
 20
1.358303149606299
 30
0.0
 10
-0.3398661417322835
 20
1.362748031496063
 30
0.0
 10
-0.3398661417322835
 20
1.362748031496063
 30
0.0
 10
-0.3398661417322835
 20
1.362748031496063
 30
0.0
 10
-0.3044488188976378
 20
1.456748031496063
 30
0.0
 10
-0.3044488188976378
 20
1.456748031496063
 30
0.0
  0
SPLINE
  5
7E
330
1F
100
AcDbEntity
  8
Layer 1
 62
   250
100
AcDbSpline
210
0.0
220
0.0
230
1.0
 70
    11
 71
     3
 72
    16
 73
    12
 74
     0
 42
0.0000000001
 43
0.0000000001
 40
0.0
 40
0.0
 40
0.0
 40
0.0
 40
0.3333333333333333
 40
0.3333333333333333
 40
0.3333333333333333
 40
0.3333333333333333
 40
0.6666666666666666
 40
0.6666666666666666
 40
0.6666666666666666
 40
0.6666666666666666
 40
1.0
 40
1.0
 40
1.0
 40
1.0
 10
-0.3186968503937008
 20
1.393275590551181
 30
0.0
 10
-0.3186968503937008
 20
1.393275590551181
 30
0.0
 10
-0.2836141732283465
 20
1.393275590551181
 30
0.0
 10
-0.2836141732283465
 20
1.393275590551181
 30
0.0
 10
-0.2836141732283465
 20
1.393275590551181
 30
0.0
 10
-0.2836141732283465
 20
1.393275590551181
 30
0.0
 10
-0.3011968503937008
 20
1.442110236220473
 30
0.0
 10
-0.3011968503937008
 20
1.442110236220473
 30
0.0
 10
-0.3011968503937008
 20
1.442110236220473
 30
0.0
 10
-0.3011968503937008
 20
1.442110236220473
 30
0.0
 10
-0.3186968503937008
 20
1.393275590551181
 30
0.0
 10
-0.3186968503937008
 20
1.393275590551181
 30
0.0
  0
SPLINE
  5
7F
330
1F
100
AcDbEntity
  8
Layer 1
 62
   250
100
AcDbSpline
210
0.0
220
0.0
230
1.0
 70
    11
 71
     3
 72
    72
 73
    68
 74
     0
 42
0.0000000001
 43
0.0000000001
 40
0.0
 40
0.0
 40
0.0
 40
0.0
 40
0.0588235294117647
 40
0.0588235294117647
 40
0.0588235294117647
 40
0.0588235294117647
 40
0.1176470588235294
 40
0.1176470588235294
 40
0.1176470588235294
 40
0.1176470588235294
 40
0.1764705882352941
 40
0.1764705882352941
 40
0.1764705882352941
 40
0.1764705882352941
 40
0.2352941176470588
 40
0.2352941176470588
 40
0.2352941176470588
 40
0.2352941176470588
 40
0.2941176470588235
 40
0.2941176470588235
 40
0.2941176470588235
 40
0.2941176470588235
 40
0.3529411764705883
 40
0.3529411764705883
 40
0.3529411764705883
 40
0.3529411764705883
 40
0.411764705882353
 40
0.411764705882353
 40
0.411764705882353
 40
0.411764705882353
 40
0.4705882352941177
 40
0.4705882352941177
 40
0.4705882352941177
 40
0.4705882352941177
 40
0.5294117647058824
 40
0.5294117647058824
 40
0.5294117647058824
 40
0.5294117647058824
 40
0.5882352941176471
 40
0.5882352941176471
 40
0.5882352941176471
 40
0.5882352941176471
 40
0.6470588235294118
 40
0.6470588235294118
 40
0.6470588235294118
 40
0.6470588235294118
 40
0.7058823529411765
 40
0.7058823529411765
 40
0.7058823529411765
 40
0.7058823529411765
 40
0.7647058823529412
 40
0.7647058823529412
 40
0.7647058823529412
 40
0.7647058823529412
 40
0.823529411764706
 40
0.823529411764706
 40
0.823529411764706
 40
0.823529411764706
 40
0.8823529411764707
 40
0.8823529411764707
 40
0.8823529411764707
 40
0.8823529411764707
 40
0.9411764705882354
 40
0.9411764705882354
 40
0.9411764705882354
 40
0.9411764705882354
 40
1.0
 40
1.0
 40
1.0
 40
1.0
 10
-0.0786141732283465
 20
1.456748031496063
 30
0.0
 10
-0.0786141732283465
 20
1.456748031496063
 30
0.0
 10
-0.0725314960629921
 20
1.456748031496063
 30
0.0
 10
-0.0725314960629921
 20
1.456748031496063
 30
0.0
 10
-0.0725314960629921
 20
1.456748031496063
 30
0.0
 10
-0.0725314960629921
 20
1.456748031496063
 30
0.0
 10
-0.0725314960629921
 20
1.3625
 30
0.0
 10
-0.0725314960629921
 20
1.3625
 30
0.0
 10
-0.0725314960629921
 20
1.3625
 30
0.0
 10
-0.0725314960629921
 20
1.358055118110236
 30
0.0
 10
-0.0722244094488189
 20
1.355192913385827
 30
0.0
 10
-0.0716692913385827
 20
1.353913385826772
 30
0.0
 10
-0.0716692913385827
 20
1.353913385826772
 30
0.0
 10
-0.0710866141732284
 20
1.352637795275591
 30
0.0
 10
-0.0701692913385827
 20
1.351692913385827
 30
0.0
 10
-0.0688661417322835
 20
1.351027559055118
 30
0.0
 10
-0.0688661417322835
 20
1.351027559055118
 30
0.0
 10
-0.0675590551181102
 20
1.350385826771654
 30
0.0
 10
-0.0649763779527559
 20
1.350055118110236
 30
0.0
 10
-0.0611141732283465
 20
1.350055118110236
 30
0.0
 10
-0.0611141732283465
 20
1.350055118110236
 30
0.0
 10
-0.0611141732283465
 20
1.350055118110236
 30
0.0
 10
-0.0531417322834646
 20
1.350055118110236
 30
0.0
 10
-0.0531417322834646
 20
1.350055118110236
 30
0.0
 10
-0.0531417322834646
 20
1.350055118110236
 30
0.0
 10
-0.0531417322834646
 20
1.350055118110236
 30
0.0
 10
-0.0531417322834646
 20
1.343220472440945
 30
0.0
 10
-0.0531417322834646
 20
1.343220472440945
 30
0.0
 10
-0.0531417322834646
 20
1.343220472440945
 30
0.0
 10
-0.0531417322834646
 20
1.343220472440945
 30
0.0
 10
-0.1067795275590551
 20
1.343220472440945
 30
0.0
 10
-0.1067795275590551
 20
1.343220472440945
 30
0.0
 10
-0.1067795275590551
 20
1.343220472440945
 30
0.0
 10
-0.1067795275590551
 20
1.343220472440945
 30
0.0
 10
-0.1067795275590551
 20
1.350055118110236
 30
0.0
 10
-0.1067795275590551
 20
1.350055118110236
 30
0.0
 10
-0.1067795275590551
 20
1.350055118110236
 30
0.0
 10
-0.1067795275590551
 20
1.350055118110236
 30
0.0
 10
-0.0979212598425197
 20
1.350055118110236
 30
0.0
 10
-0.0979212598425197
 20
1.350055118110236
 30
0.0
 10
-0.0979212598425197
 20
1.350055118110236
 30
0.0
 10
-0.0940590551181102
 20
1.350055118110236
 30
0.0
 10
-0.091503937007874
 20
1.350385826771654
 30
0.0
 10
-0.0902244094488189
 20
1.351082677165354
 30
0.0
 10
-0.0902244094488189
 20
1.351082677165354
 30
0.0
 10
-0.0889488188976378
 20
1.351748031496063
 30
0.0
 10
-0.0879488188976378
 20
1.352830708661417
 30
0.0
 10
-0.087251968503937
 20
1.354330708661417
 30
0.0
 10
-0.087251968503937
 20
1.354330708661417
 30
0.0
 10
-0.0865590551181102
 20
1.355830708661417
 30
0.0
 10
-0.0861968503937008
 20
1.358555118110236
 30
0.0
 10
-0.0861968503937008
 20
1.3625
 30
0.0
 10
-0.0861968503937008
 20
1.3625
 30
0.0
 10
-0.0861968503937008
 20
1.3625
 30
0.0
 10
-0.0861968503937008
 20
1.439968503937008
 30
0.0
 10
-0.0861968503937008
 20
1.439968503937008
 30
0.0
 10
-0.0861968503937008
 20
1.439968503937008
 30
0.0
 10
-0.0861968503937008
 20
1.439968503937008
 30
0.0
 10
-0.1067795275590551
 20
1.439968503937008
 30
0.0
 10
-0.1067795275590551
 20
1.439968503937008
 30
0.0
 10
-0.1067795275590551
 20
1.439968503937008
 30
0.0
 10
-0.1067795275590551
 20
1.439968503937008
 30
0.0
 10
-0.1067795275590551
 20
1.446968503937008
 30
0.0
 10
-0.1067795275590551
 20
1.446968503937008
 30
0.0
 10
-0.1067795275590551
 20
1.446968503937008
 30
0.0
 10
-0.0955590551181102
 20
1.448551181102362
 30
0.0
 10
-0.0861692913385827
 20
1.451803149606299
 30
0.0
 10
-0.0786141732283465
 20
1.456748031496063
 30
0.0
  0
SPLINE
  5
80
330
1F
100
AcDbEntity
  8
Layer 1
 62
   250
100
AcDbSpline
210
0.0
220
0.0
230
1.0
 70
    11
 71
     3
 72
    84
 73
    80
 74
     0
 42
0.0000000001
 43
0.0000000001
 40
0.0
 40
0.0
 40
0.0
 40
0.0
 40
0.05
 40
0.05
 40
0.05
 40
0.05
 40
0.1
 40
0.1
 40
0.1
 40
0.1
 40
0.15
 40
0.15
 40
0.15
 40
0.15
 40
0.2
 40
0.2
 40
0.2
 40
0.2
 40
0.25
 40
0.25
 40
0.25
 40
0.25
 40
0.3
 40
0.3
 40
0.3
 40
0.3
 40
0.35
 40
0.35
 40
0.35
 40
0.35
 40
0.4
 40
0.4
 40
0.4
 40
0.4
 40
0.45
 40
0.45
 40
0.45
 40
0.45
 40
0.4999999999999999
 40
0.4999999999999999
 40
0.4999999999999999
 40
0.4999999999999999
 40
0.5499999999999999
 40
0.5499999999999999
 40
0.5499999999999999
 40
0.5499999999999999
 40
0.6
 40
0.6
 40
0.6
 40
0.6
 40
0.65
 40
0.65
 40
0.65
 40
0.65
 40
0.7000000000000001
 40
0.7000000000000001
 40
0.7000000000000001
 40
0.7000000000000001
 40
0.7500000000000001
 40
0.7500000000000001
 40
0.7500000000000001
 40
0.7500000000000001
 40
0.8000000000000002
 40
0.8000000000000002
 40
0.8000000000000002
 40
0.8000000000000002
 40
0.8500000000000002
 40
0.8500000000000002
 40
0.8500000000000002
 40
0.8500000000000002
 40
0.9000000000000002
 40
0.9000000000000002
 40
0.9000000000000002
 40
0.9000000000000002
 40
0.9500000000000003
 40
0.9500000000000003
 40
0.9500000000000003
 40
0.9500000000000003
 40
1.0
 40
1.0
 40
1.0
 40
1.0
 10
0.0530511811023622
 20
1.458858267716536
 30
0.0
 10
0.0530511811023622
 20
1.458858267716536
 30
0.0
 10
0.0530511811023622
 20
1.45144094488189
 30
0.0
 10
0.0530511811023622
 20
1.45144094488189
 30
0.0
 10
0.0530511811023622
 20
1.45144094488189
 30
0.0
 10
0.0396653543307087
 20
1.451303149606299
 30
0.0
 10
0.0288307086614173
 20
1.449330708661417
 30
0.0
 10
0.0205551181102362
 20
1.445610236220473
 30
0.0
 10
0.0205551181102362
 20
1.445610236220473
 30
0.0
 10
0.0122755905511811
 20
1.441858267716536
 30
0.0
 10
0.0061929133858268
 20
1.436248031496063
 30
0.0
 10
0.0022755905511811
 20
1.428803149606299
 30
0.0
 10
0.0022755905511811
 20
1.428803149606299
 30
0.0
 10
-0.0016417322834646
 20
1.421330708661417
 30
0.0
 10
-0.0038346456692913
 20
1.412137795275591
 30
0.0
 10
-0.0043070866141732
 20
1.401248031496063
 30
0.0
 10
-0.0043070866141732
 20
1.401248031496063
 30
0.0
 10
-0.0015590551181102
 20
1.405468503937008
 30
0.0
 10
0.0012755905511811
 20
1.408775590551181
 30
0.0
 10
0.0041929133858268
 20
1.411137795275591
 30
0.0
 10
0.0041929133858268
 20
1.411137795275591
 30
0.0
 10
0.0070826771653543
 20
1.413496062992126
 30
0.0
 10
0.0104685039370079
 20
1.415303149606299
 30
0.0
 10
0.0143582677165354
 20
1.416582677165355
 30
0.0
 10
0.0143582677165354
 20
1.416582677165355
 30
0.0
 10
0.018248031496063
 20
1.417858267716535
 30
0.0
 10
0.022496062992126
 20
1.418496062992126
 30
0.0
 10
0.0271102362204724
 20
1.418496062992126
 30
0.0
 10
0.0271102362204724
 20
1.418496062992126
 30
0.0
 10
0.0344685039370079
 20
1.418496062992126
 30
0.0
 10
0.0410511811023622
 20
1.416858267716536
 30
0.0
 10
0.0468031496062992
 20
1.413610236220473
 30
0.0
 10
0.0468031496062992
 20
1.413610236220473
 30
0.0
 10
0.0525511811023622
 20
1.410358267716535
 30
0.0
 10
0.0570236220472441
 20
1.40594094488189
 30
0.0
 10
0.0602204724409449
 20
1.400385826771654
 30
0.0
 10
0.0602204724409449
 20
1.400385826771654
 30
0.0
 10
0.0634133858267717
 20
1.394830708661417
 30
0.0
 10
0.0650236220472441
 20
1.388275590551181
 30
0.0
 10
0.0650236220472441
 20
1.380748031496063
 30
0.0
 10
0.0650236220472441
 20
1.380748031496063
 30
0.0
 10
0.0650236220472441
 20
1.368748031496063
 30
0.0
 10
0.0614133858267717
 20
1.359330708661418
 30
0.0
 10
0.0541929133858268
 20
1.3525
 30
0.0
 10
0.0541929133858268
 20
1.3525
 30
0.0
 10
0.0462204724409449
 20
1.345
 30
0.0
 10
0.0358858267716535
 20
1.341275590551181
 30
0.0
 10
0.0231929133858268
 20
1.341275590551181
 30
0.0
 10
0.0231929133858268
 20
1.341275590551181
 30
0.0
 10
0.0140236220472441
 20
1.341275590551181
 30
0.0
 10
0.0063031496062992
 20
1.343165354330709
 30
0.0
 10
-0.000003937007874
 20
1.346968503937008
 30
0.0
 10
-0.000003937007874
 20
1.346968503937008
 30
0.0
 10
-0.0063070866141732
 20
1.350748031496063
 30
0.0
 10
-0.0113070866141732
 20
1.356555118110236
 30
0.0
 10
-0.0150314960629921
 20
1.364385826771654
 30
0.0
 10
-0.0150314960629921
 20
1.364385826771654
 30
0.0
 10
-0.0187244094488189
 20
1.372192913385827
 30
0.0
 10
-0.0205866141732283
 20
1.381858267716535
 30
0.0
 10
-0.0205866141732283
 20
1.393358267716536
 30
0.0
 10
-0.0205866141732283
 20
1.393358267716536
 30
0.0
 10
-0.0205866141732283
 20
1.404913385826772
 30
0.0
 10
-0.0186141732283465
 20
1.415165354330709
 30
0.0
 10
-0.0146968503937008
 20
1.424110236220473
 30
0.0
 10
-0.0146968503937008
 20
1.424110236220473
 30
0.0
 10
-0.010751968503937
 20
1.433051181102362
 30
0.0
 10
-0.0053070866141732
 20
1.440248031496063
 30
0.0
 10
0.0016377952755906
 20
1.445665354330709
 30
0.0
 10
0.0016377952755906
 20
1.445665354330709
 30
0.0
 10
0.0085826771653543
 20
1.451110236220472
 30
0.0
 10
0.0161929133858268
 20
1.454665354330709
 30
0.0
 10
0.0244409448818898
 20
1.456330708661418
 30
0.0
 10
0.0244409448818898
 20
1.456330708661418
 30
0.0
 10
0.0327204724409449
 20
1.458023622047244
 30
0.0
 10
0.0401377952755906
 20
1.458858267716536
 30
0.0
 10
0.0467204724409449
 20
1.458858267716536
 30
0.0
 10
0.0467204724409449
 20
1.458858267716536
 30
0.0
 10
0.0467204724409449
 20
1.458858267716536
 30
0.0
 10
0.0530511811023622
 20
1.458858267716536
 30
0.0
 10
0.0530511811023622
 20
1.458858267716536
 30
0.0
  0
SPLINE
  5
81
330
1F
100
AcDbEntity
  8
Layer 1
 62
   250
100
AcDbSpline
210
0.0
220
0.0
230
1.0
 70
    11
 71
     3
 72
    40
 73
    36
 74
     0
 42
0.0000000001
 43
0.0000000001
 40
0.0
 40
0.0
 40
0.0
 40
0.0
 40
0.1111111111111111
 40
0.1111111111111111
 40
0.1111111111111111
 40
0.1111111111111111
 40
0.2222222222222222
 40
0.2222222222222222
 40
0.2222222222222222
 40
0.2222222222222222
 40
0.3333333333333333
 40
0.3333333333333333
 40
0.3333333333333333
 40
0.3333333333333333
 40
0.4444444444444444
 40
0.4444444444444444
 40
0.4444444444444444
 40
0.4444444444444444
 40
0.5555555555555556
 40
0.5555555555555556
 40
0.5555555555555556
 40
0.5555555555555556
 40
0.6666666666666667
 40
0.6666666666666667
 40
0.6666666666666667
 40
0.6666666666666667
 40
0.7777777777777779
 40
0.7777777777777779
 40
0.7777777777777779
 40
0.7777777777777779
 40
0.8888888888888891
 40
0.8888888888888891
 40
0.8888888888888891
 40
0.8888888888888891
 40
1.0
 40
1.0
 40
1.0
 40
1.0
 10
0.0233582677165354
 20
1.409858267716535
 30
0.0
 10
0.0155551181102362
 20
1.409858267716535
 30
0.0
 10
0.0091377952755906
 20
1.406913385826772
 30
0.0
 10
0.0041102362204724
 20
1.400996062992126
 30
0.0
 10
0.0041102362204724
 20
1.400996062992126
 30
0.0
 10
-0.0009173228346457
 20
1.395082677165354
 30
0.0
 10
-0.0034173228346457
 20
1.387968503937008
 30
0.0
 10
-0.0034173228346457
 20
1.379692913385827
 30
0.0
 10
-0.0034173228346457
 20
1.379692913385827
 30
0.0
 10
-0.0034173228346457
 20
1.373830708661417
 30
0.0
 10
-0.0021968503937008
 20
1.368413385826772
 30
0.0
 10
0.000248031496063
 20
1.36344094488189
 30
0.0
 10
0.000248031496063
 20
1.36344094488189
 30
0.0
 10
0.0026929133858268
 20
1.358468503937008
 30
0.0
 10
0.0058307086614173
 20
1.354803149606299
 30
0.0
 10
0.0096929133858268
 20
1.352385826771654
 30
0.0
 10
0.0096929133858268
 20
1.352385826771654
 30
0.0
 10
0.0135236220472441
 20
1.349968503937008
 30
0.0
 10
0.0178858267716535
 20
1.348748031496063
 30
0.0
 10
0.0226929133858268
 20
1.348748031496063
 30
0.0
 10
0.0226929133858268
 20
1.348748031496063
 30
0.0
 10
0.0301929133858268
 20
1.348748031496063
 30
0.0
 10
0.0364133858267717
 20
1.351582677165354
 30
0.0
 10
0.0413858267716535
 20
1.357248031496063
 30
0.0
 10
0.0413858267716535
 20
1.357248031496063
 30
0.0
 10
0.0463307086614173
 20
1.362913385826772
 30
0.0
 10
0.0488307086614173
 20
1.370527559055118
 30
0.0
 10
0.0488307086614173
 20
1.380082677165355
 30
0.0
 10
0.0488307086614173
 20
1.380082677165355
 30
0.0
 10
0.0488307086614173
 20
1.389192913385827
 30
0.0
 10
0.0464133858267717
 20
1.39644094488189
 30
0.0
 10
0.0415826771653543
 20
1.401803149606299
 30
0.0
 10
0.0415826771653543
 20
1.401803149606299
 30
0.0
 10
0.036748031496063
 20
1.407192913385827
 30
0.0
 10
0.0306653543307087
 20
1.409858267716535
 30
0.0
 10
0.0233582677165354
 20
1.409858267716535
 30
0.0
  0
SPLINE
  5
82
330
1F
100
AcDbEntity
  8
Layer 1
 62
   250
100
AcDbSpline
210
0.0
220
0.0
230
1.0
 70
    11
 71
     3
 72
    48
 73
    44
 74
     0
 42
0.0000000001
 43
0.0000000001
 40
0.0
 40
0.0
 40
0.0
 40
0.0
 40
0.0909090909090909
 40
0.0909090909090909
 40
0.0909090909090909
 40
0.0909090909090909
 40
0.1818181818181818
 40
0.1818181818181818
 40
0.1818181818181818
 40
0.1818181818181818
 40
0.2727272727272727
 40
0.2727272727272727
 40
0.2727272727272727
 40
0.2727272727272727
 40
0.3636363636363637
 40
0.3636363636363637
 40
0.3636363636363637
 40
0.3636363636363637
 40
0.4545454545454546
 40
0.4545454545454546
 40
0.4545454545454546
 40
0.4545454545454546
 40
0.5454545454545455
 40
0.5454545454545455
 40
0.5454545454545455
 40
0.5454545454545455
 40
0.6363636363636365
 40
0.6363636363636365
 40
0.6363636363636365
 40
0.6363636363636365
 40
0.7272727272727274
 40
0.7272727272727274
 40
0.7272727272727274
 40
0.7272727272727274
 40
0.8181818181818183
 40
0.8181818181818183
 40
0.8181818181818183
 40
0.8181818181818183
 40
0.9090909090909093
 40
0.9090909090909093
 40
0.9090909090909093
 40
0.9090909090909093
 40
1.0
 40
1.0
 40
1.0
 40
1.0
 10
0.1325
 20
1.456748031496063
 30
0.0
 10
0.1325
 20
1.456748031496063
 30
0.0
 10
0.146248031496063
 20
1.456748031496063
 30
0.0
 10
0.146248031496063
 20
1.456748031496063
 30
0.0
 10
0.146248031496063
 20
1.456748031496063
 30
0.0
 10
0.146248031496063
 20
1.456748031496063
 30
0.0
 10
0.146248031496063
 20
1.390748031496063
 30
0.0
 10
0.146248031496063
 20
1.390748031496063
 30
0.0
 10
0.146248031496063
 20
1.390748031496063
 30
0.0
 10
0.146248031496063
 20
1.390748031496063
 30
0.0
 10
0.1675826771653543
 20
1.390748031496063
 30
0.0
 10
0.1675826771653543
 20
1.390748031496063
 30
0.0
 10
0.1675826771653543
 20
1.390748031496063
 30
0.0
 10
0.1675826771653543
 20
1.390748031496063
 30
0.0
 10
0.1675826771653543
 20
1.380582677165354
 30
0.0
 10
0.1675826771653543
 20
1.380582677165354
 30
0.0
 10
0.1675826771653543
 20
1.380582677165354
 30
0.0
 10
0.1675826771653543
 20
1.380582677165354
 30
0.0
 10
0.146248031496063
 20
1.380582677165354
 30
0.0
 10
0.146248031496063
 20
1.380582677165354
 30
0.0
 10
0.146248031496063
 20
1.380582677165354
 30
0.0
 10
0.146248031496063
 20
1.380582677165354
 30
0.0
 10
0.146248031496063
 20
1.343220472440945
 30
0.0
 10
0.146248031496063
 20
1.343220472440945
 30
0.0
 10
0.146248031496063
 20
1.343220472440945
 30
0.0
 10
0.146248031496063
 20
1.343220472440945
 30
0.0
 10
0.1325
 20
1.343220472440945
 30
0.0
 10
0.1325
 20
1.343220472440945
 30
0.0
 10
0.1325
 20
1.343220472440945
 30
0.0
 10
0.1325
 20
1.343220472440945
 30
0.0
 10
0.1325
 20
1.380582677165354
 30
0.0
 10
0.1325
 20
1.380582677165354
 30
0.0
 10
0.1325
 20
1.380582677165354
 30
0.0
 10
0.1325
 20
1.380582677165354
 30
0.0
 10
0.0790275590551181
 20
1.380582677165354
 30
0.0
 10
0.0790275590551181
 20
1.380582677165354
 30
0.0
 10
0.0790275590551181
 20
1.380582677165354
 30
0.0
 10
0.0790275590551181
 20
1.380582677165354
 30
0.0
 10
0.0790275590551181
 20
1.394885826771654
 30
0.0
 10
0.0790275590551181
 20
1.394885826771654
 30
0.0
 10
0.0790275590551181
 20
1.394885826771654
 30
0.0
 10
0.0790275590551181
 20
1.394885826771654
 30
0.0
 10
0.1325
 20
1.456748031496063
 30
0.0
 10
0.1325
 20
1.456748031496063
 30
0.0
  0
SPLINE
  5
83
330
1F
100
AcDbEntity
  8
Layer 1
 62
   250
100
AcDbSpline
210
0.0
220
0.0
230
1.0
 70
    11
 71
     3
 72
    16
 73
    12
 74
     0
 42
0.0000000001
 43
0.0000000001
 40
0.0
 40
0.0
 40
0.0
 40
0.0
 40
0.3333333333333333
 40
0.3333333333333333
 40
0.3333333333333333
 40
0.3333333333333333
 40
0.6666666666666666
 40
0.6666666666666666
 40
0.6666666666666666
 40
0.6666666666666666
 40
1.0
 40
1.0
 40
1.0
 40
1.0
 10
0.1325
 20
1.390748031496063
 30
0.0
 10
0.1325
 20
1.390748031496063
 30
0.0
 10
0.1325
 20
1.444137795275591
 30
0.0
 10
0.1325
 20
1.444137795275591
 30
0.0
 10
0.1325
 20
1.444137795275591
 30
0.0
 10
0.1325
 20
1.444137795275591
 30
0.0
 10
0.0864448818897638
 20
1.390748031496063
 30
0.0
 10
0.0864448818897638
 20
1.390748031496063
 30
0.0
 10
0.0864448818897638
 20
1.390748031496063
 30
0.0
 10
0.0864448818897638
 20
1.390748031496063
 30
0.0
 10
0.1325
 20
1.390748031496063
 30
0.0
 10
0.1325
 20
1.390748031496063
 30
0.0
  0
SPLINE
  5
84
330
1F
100
AcDbEntity
  8
Layer 1
 62
   250
100
AcDbSpline
210
0.0
220
0.0
230
1.0
 70
    11
 71
     3
 72
    84
 73
    80
 74
     0
 42
0.0000000001
 43
0.0000000001
 40
0.0
 40
0.0
 40
0.0
 40
0.0
 40
0.05
 40
0.05
 40
0.05
 40
0.05
 40
0.1
 40
0.1
 40
0.1
 40
0.1
 40
0.15
 40
0.15
 40
0.15
 40
0.15
 40
0.2
 40
0.2
 40
0.2
 40
0.2
 40
0.25
 40
0.25
 40
0.25
 40
0.25
 40
0.3
 40
0.3
 40
0.3
 40
0.3
 40
0.35
 40
0.35
 40
0.35
 40
0.35
 40
0.4
 40
0.4
 40
0.4
 40
0.4
 40
0.45
 40
0.45
 40
0.45
 40
0.45
 40
0.4999999999999999
 40
0.4999999999999999
 40
0.4999999999999999
 40
0.4999999999999999
 40
0.5499999999999999
 40
0.5499999999999999
 40
0.5499999999999999
 40
0.5499999999999999
 40
0.6
 40
0.6
 40
0.6
 40
0.6
 40
0.65
 40
0.65
 40
0.65
 40
0.65
 40
0.7000000000000001
 40
0.7000000000000001
 40
0.7000000000000001
 40
0.7000000000000001
 40
0.7500000000000001
 40
0.7500000000000001
 40
0.7500000000000001
 40
0.7500000000000001
 40
0.8000000000000002
 40
0.8000000000000002
 40
0.8000000000000002
 40
0.8000000000000002
 40
0.8500000000000002
 40
0.8500000000000002
 40
0.8500000000000002
 40
0.8500000000000002
 40
0.9000000000000002
 40
0.9000000000000002
 40
0.9000000000000002
 40
0.9000000000000002
 40
0.9500000000000003
 40
0.9500000000000003
 40
0.9500000000000003
 40
0.9500000000000003
 40
1.0
 40
1.0
 40
1.0
 40
1.0
 10
0.2597755905511811
 20
1.458858267716536
 30
0.0
 10
0.2597755905511811
 20
1.458858267716536
 30
0.0
 10
0.2597755905511811
 20
1.45144094488189
 30
0.0
 10
0.2597755905511811
 20
1.45144094488189
 30
0.0
 10
0.2597755905511811
 20
1.45144094488189
 30
0.0
 10
0.2463897637795276
 20
1.451303149606299
 30
0.0
 10
0.2355551181102362
 20
1.449330708661417
 30
0.0
 10
0.2272795275590551
 20
1.445610236220473
 30
0.0
 10
0.2272795275590551
 20
1.445610236220473
 30
0.0
 10
0.219
 20
1.441858267716536
 30
0.0
 10
0.2129173228346457
 20
1.436248031496063
 30
0.0
 10
0.209
 20
1.428803149606299
 30
0.0
 10
0.209
 20
1.428803149606299
 30
0.0
 10
0.2050826771653543
 20
1.421330708661417
 30
0.0
 10
0.2028897637795276
 20
1.412137795275591
 30
0.0
 10
0.2024173228346457
 20
1.401248031496063
 30
0.0
 10
0.2024173228346457
 20
1.401248031496063
 30
0.0
 10
0.2051653543307087
 20
1.405468503937008
 30
0.0
 10
0.208
 20
1.408775590551181
 30
0.0
 10
0.2109173228346457
 20
1.411137795275591
 30
0.0
 10
0.2109173228346457
 20
1.411137795275591
 30
0.0
 10
0.2138070866141733
 20
1.413496062992126
 30
0.0
 10
0.2171929133858268
 20
1.415303149606299
 30
0.0
 10
0.2210826771653544
 20
1.416582677165355
 30
0.0
 10
0.2210826771653544
 20
1.416582677165355
 30
0.0
 10
0.2249724409448819
 20
1.417858267716535
 30
0.0
 10
0.2292204724409449
 20
1.418496062992126
 30
0.0
 10
0.2338346456692914
 20
1.418496062992126
 30
0.0
 10
0.2338346456692914
 20
1.418496062992126
 30
0.0
 10
0.2411929133858268
 20
1.418496062992126
 30
0.0
 10
0.2477755905511811
 20
1.416858267716536
 30
0.0
 10
0.2535275590551182
 20
1.413610236220473
 30
0.0
 10
0.2535275590551182
 20
1.413610236220473
 30
0.0
 10
0.2592755905511811
 20
1.410358267716535
 30
0.0
 10
0.263748031496063
 20
1.40594094488189
 30
0.0
 10
0.2669448818897638
 20
1.400385826771654
 30
0.0
 10
0.2669448818897638
 20
1.400385826771654
 30
0.0
 10
0.2701377952755906
 20
1.394830708661417
 30
0.0
 10
0.271748031496063
 20
1.388275590551181
 30
0.0
 10
0.271748031496063
 20
1.380748031496063
 30
0.0
 10
0.271748031496063
 20
1.380748031496063
 30
0.0
 10
0.271748031496063
 20
1.368748031496063
 30
0.0
 10
0.2681377952755906
 20
1.359330708661418
 30
0.0
 10
0.2609173228346457
 20
1.3525
 30
0.0
 10
0.2609173228346457
 20
1.3525
 30
0.0
 10
0.2529448818897638
 20
1.345
 30
0.0
 10
0.2426102362204725
 20
1.341275590551181
 30
0.0
 10
0.2299173228346457
 20
1.341275590551181
 30
0.0
 10
0.2299173228346457
 20
1.341275590551181
 30
0.0
 10
0.220748031496063
 20
1.341275590551181
 30
0.0
 10
0.2130275590551181
 20
1.343165354330709
 30
0.0
 10
0.2067204724409449
 20
1.346968503937008
 30
0.0
 10
0.2067204724409449
 20
1.346968503937008
 30
0.0
 10
0.2004173228346457
 20
1.350748031496063
 30
0.0
 10
0.1954173228346457
 20
1.356555118110236
 30
0.0
 10
0.1916929133858268
 20
1.364385826771654
 30
0.0
 10
0.1916929133858268
 20
1.364385826771654
 30
0.0
 10
0.188
 20
1.372192913385827
 30
0.0
 10
0.1861377952755906
 20
1.381858267716535
 30
0.0
 10
0.1861377952755906
 20
1.393358267716536
 30
0.0
 10
0.1861377952755906
 20
1.393358267716536
 30
0.0
 10
0.1861377952755906
 20
1.404913385826772
 30
0.0
 10
0.1881102362204725
 20
1.415165354330709
 30
0.0
 10
0.1920275590551181
 20
1.424110236220473
 30
0.0
 10
0.1920275590551181
 20
1.424110236220473
 30
0.0
 10
0.1959724409448819
 20
1.433051181102362
 30
0.0
 10
0.2014173228346457
 20
1.440248031496063
 30
0.0
 10
0.2083622047244094
 20
1.445665354330709
 30
0.0
 10
0.2083622047244094
 20
1.445665354330709
 30
0.0
 10
0.2153070866141733
 20
1.451110236220472
 30
0.0
 10
0.2229173228346457
 20
1.454665354330709
 30
0.0
 10
0.2311653543307087
 20
1.456330708661418
 30
0.0
 10
0.2311653543307087
 20
1.456330708661418
 30
0.0
 10
0.2394448818897638
 20
1.458023622047244
 30
0.0
 10
0.2468622047244095
 20
1.458858267716536
 30
0.0
 10
0.2534448818897638
 20
1.458858267716536
 30
0.0
 10
0.2534448818897638
 20
1.458858267716536
 30
0.0
 10
0.2534448818897638
 20
1.458858267716536
 30
0.0
 10
0.2597755905511811
 20
1.458858267716536
 30
0.0
 10
0.2597755905511811
 20
1.458858267716536
 30
0.0
  0
SPLINE
  5
85
330
1F
100
AcDbEntity
  8
Layer 1
 62
   250
100
AcDbSpline
210
0.0
220
0.0
230
1.0
 70
    11
 71
     3
 72
    40
 73
    36
 74
     0
 42
0.0000000001
 43
0.0000000001
 40
0.0
 40
0.0
 40
0.0
 40
0.0
 40
0.1111111111111111
 40
0.1111111111111111
 40
0.1111111111111111
 40
0.1111111111111111
 40
0.2222222222222222
 40
0.2222222222222222
 40
0.2222222222222222
 40
0.2222222222222222
 40
0.3333333333333333
 40
0.3333333333333333
 40
0.3333333333333333
 40
0.3333333333333333
 40
0.4444444444444444
 40
0.4444444444444444
 40
0.4444444444444444
 40
0.4444444444444444
 40
0.5555555555555556
 40
0.5555555555555556
 40
0.5555555555555556
 40
0.5555555555555556
 40
0.6666666666666667
 40
0.6666666666666667
 40
0.6666666666666667
 40
0.6666666666666667
 40
0.7777777777777779
 40
0.7777777777777779
 40
0.7777777777777779
 40
0.7777777777777779
 40
0.8888888888888891
 40
0.8888888888888891
 40
0.8888888888888891
 40
0.8888888888888891
 40
1.0
 40
1.0
 40
1.0
 40
1.0
 10
0.2300826771653543
 20
1.409858267716535
 30
0.0
 10
0.2222795275590551
 20
1.409858267716535
 30
0.0
 10
0.2158622047244095
 20
1.406913385826772
 30
0.0
 10
0.2108346456692914
 20
1.400996062992126
 30
0.0
 10
0.2108346456692914
 20
1.400996062992126
 30
0.0
 10
0.2058070866141732
 20
1.395082677165354
 30
0.0
 10
0.2033070866141732
 20
1.387968503937008
 30
0.0
 10
0.2033070866141732
 20
1.379692913385827
 30
0.0
 10
0.2033070866141732
 20
1.379692913385827
 30
0.0
 10
0.2033070866141732
 20
1.373830708661417
 30
0.0
 10
0.2045275590551181
 20
1.368413385826772
 30
0.0
 10
0.2069724409448819
 20
1.36344094488189
 30
0.0
 10
0.2069724409448819
 20
1.36344094488189
 30
0.0
 10
0.2094173228346457
 20
1.358468503937008
 30
0.0
 10
0.2125551181102362
 20
1.354803149606299
 30
0.0
 10
0.2164173228346457
 20
1.352385826771654
 30
0.0
 10
0.2164173228346457
 20
1.352385826771654
 30
0.0
 10
0.220248031496063
 20
1.349968503937008
 30
0.0
 10
0.2246102362204724
 20
1.348748031496063
 30
0.0
 10
0.2294173228346457
 20
1.348748031496063
 30
0.0
 10
0.2294173228346457
 20
1.348748031496063
 30
0.0
 10
0.2369173228346457
 20
1.348748031496063
 30
0.0
 10
0.2431377952755906
 20
1.351582677165354
 30
0.0
 10
0.2481102362204725
 20
1.357248031496063
 30
0.0
 10
0.2481102362204725
 20
1.357248031496063
 30
0.0
 10
0.2530551181102362
 20
1.362913385826772
 30
0.0
 10
0.2555551181102362
 20
1.370527559055118
 30
0.0
 10
0.2555551181102362
 20
1.380082677165355
 30
0.0
 10
0.2555551181102362
 20
1.380082677165355
 30
0.0
 10
0.2555551181102362
 20
1.389192913385827
 30
0.0
 10
0.2531377952755906
 20
1.39644094488189
 30
0.0
 10
0.2483070866141733
 20
1.401803149606299
 30
0.0
 10
0.2483070866141733
 20
1.401803149606299
 30
0.0
 10
0.2434724409448819
 20
1.407192913385827
 30
0.0
 10
0.2373897637795276
 20
1.409858267716535
 30
0.0
 10
0.2300826771653543
 20
1.409858267716535
 30
0.0
  0
SPLINE
  5
86
330
1F
100
AcDbEntity
  8
Layer 1
 62
   250
100
AcDbSpline
210
0.0
220
0.0
230
1.0
 70
    11
 71
     3
 72
    72
 73
    68
 74
     0
 42
0.0000000001
 43
0.0000000001
 40
0.0
 40
0.0
 40
0.0
 40
0.0
 40
0.0588235294117647
 40
0.0588235294117647
 40
0.0588235294117647
 40
0.0588235294117647
 40
0.1176470588235294
 40
0.1176470588235294
 40
0.1176470588235294
 40
0.1176470588235294
 40
0.1764705882352941
 40
0.1764705882352941
 40
0.1764705882352941
 40
0.1764705882352941
 40
0.2352941176470588
 40
0.2352941176470588
 40
0.2352941176470588
 40
0.2352941176470588
 40
0.2941176470588235
 40
0.2941176470588235
 40
0.2941176470588235
 40
0.2941176470588235
 40
0.3529411764705883
 40
0.3529411764705883
 40
0.3529411764705883
 40
0.3529411764705883
 40
0.411764705882353
 40
0.411764705882353
 40
0.411764705882353
 40
0.411764705882353
 40
0.4705882352941177
 40
0.4705882352941177
 40
0.4705882352941177
 40
0.4705882352941177
 40
0.5294117647058824
 40
0.5294117647058824
 40
0.5294117647058824
 40
0.5294117647058824
 40
0.5882352941176471
 40
0.5882352941176471
 40
0.5882352941176471
 40
0.5882352941176471
 40
0.6470588235294118
 40
0.6470588235294118
 40
0.6470588235294118
 40
0.6470588235294118
 40
0.7058823529411765
 40
0.7058823529411765
 40
0.7058823529411765
 40
0.7058823529411765
 40
0.7647058823529412
 40
0.7647058823529412
 40
0.7647058823529412
 40
0.7647058823529412
 40
0.823529411764706
 40
0.823529411764706
 40
0.823529411764706
 40
0.823529411764706
 40
0.8823529411764707
 40
0.8823529411764707
 40
0.8823529411764707
 40
0.8823529411764707
 40
0.9411764705882354
 40
0.9411764705882354
 40
0.9411764705882354
 40
0.9411764705882354
 40
1.0
 40
1.0
 40
1.0
 40
1.0
 10
-0.5001811023622047
 20
1.269248031496063
 30
0.0
 10
-0.5001811023622047
 20
1.269248031496063
 30
0.0
 10
-0.4940984251968504
 20
1.269248031496063
 30
0.0
 10
-0.4940984251968504
 20
1.269248031496063
 30
0.0
 10
-0.4940984251968504
 20
1.269248031496063
 30
0.0
 10
-0.4940984251968504
 20
1.269248031496063
 30
0.0
 10
-0.4940984251968504
 20
1.175
 30
0.0
 10
-0.4940984251968504
 20
1.175
 30
0.0
 10
-0.4940984251968504
 20
1.175
 30
0.0
 10
-0.4940984251968504
 20
1.170555118110236
 30
0.0
 10
-0.4937913385826772
 20
1.167692913385827
 30
0.0
 10
-0.493236220472441
 20
1.166413385826772
 30
0.0
 10
-0.493236220472441
 20
1.166413385826772
 30
0.0
 10
-0.4926535433070866
 20
1.165137795275591
 30
0.0
 10
-0.491736220472441
 20
1.164192913385827
 30
0.0
 10
-0.4904330708661417
 20
1.163527559055118
 30
0.0
 10
-0.4904330708661417
 20
1.163527559055118
 30
0.0
 10
-0.4891259842519685
 20
1.162885826771654
 30
0.0
 10
-0.4865433070866142
 20
1.162555118110236
 30
0.0
 10
-0.4826811023622047
 20
1.162555118110236
 30
0.0
 10
-0.4826811023622047
 20
1.162555118110236
 30
0.0
 10
-0.4826811023622047
 20
1.162555118110236
 30
0.0
 10
-0.4747086614173229
 20
1.162555118110236
 30
0.0
 10
-0.4747086614173229
 20
1.162555118110236
 30
0.0
 10
-0.4747086614173229
 20
1.162555118110236
 30
0.0
 10
-0.4747086614173229
 20
1.162555118110236
 30
0.0
 10
-0.4747086614173229
 20
1.155720472440945
 30
0.0
 10
-0.4747086614173229
 20
1.155720472440945
 30
0.0
 10
-0.4747086614173229
 20
1.155720472440945
 30
0.0
 10
-0.4747086614173229
 20
1.155720472440945
 30
0.0
 10
-0.5283464566929134
 20
1.155720472440945
 30
0.0
 10
-0.5283464566929134
 20
1.155720472440945
 30
0.0
 10
-0.5283464566929134
 20
1.155720472440945
 30
0.0
 10
-0.5283464566929134
 20
1.155720472440945
 30
0.0
 10
-0.5283464566929134
 20
1.162555118110236
 30
0.0
 10
-0.5283464566929134
 20
1.162555118110236
 30
0.0
 10
-0.5283464566929134
 20
1.162555118110236
 30
0.0
 10
-0.5283464566929134
 20
1.162555118110236
 30
0.0
 10
-0.5194881889763779
 20
1.162555118110236
 30
0.0
 10
-0.5194881889763779
 20
1.162555118110236
 30
0.0
 10
-0.5194881889763779
 20
1.162555118110236
 30
0.0
 10
-0.5156259842519685
 20
1.162555118110236
 30
0.0
 10
-0.5130708661417323
 20
1.162885826771654
 30
0.0
 10
-0.5117913385826772
 20
1.163582677165354
 30
0.0
 10
-0.5117913385826772
 20
1.163582677165354
 30
0.0
 10
-0.5105157480314961
 20
1.164248031496063
 30
0.0
 10
-0.5095157480314961
 20
1.165330708661417
 30
0.0
 10
-0.5088188976377953
 20
1.166830708661417
 30
0.0
 10
-0.5088188976377953
 20
1.166830708661417
 30
0.0
 10
-0.5081259842519685
 20
1.168330708661417
 30
0.0
 10
-0.507763779527559
 20
1.171055118110236
 30
0.0
 10
-0.507763779527559
 20
1.175
 30
0.0
 10
-0.507763779527559
 20
1.175
 30
0.0
 10
-0.507763779527559
 20
1.175
 30
0.0
 10
-0.507763779527559
 20
1.252468503937008
 30
0.0
 10
-0.507763779527559
 20
1.252468503937008
 30
0.0
 10
-0.507763779527559
 20
1.252468503937008
 30
0.0
 10
-0.507763779527559
 20
1.252468503937008
 30
0.0
 10
-0.5283464566929134
 20
1.252468503937008
 30
0.0
 10
-0.5283464566929134
 20
1.252468503937008
 30
0.0
 10
-0.5283464566929134
 20
1.252468503937008
 30
0.0
 10
-0.5283464566929134
 20
1.252468503937008
 30
0.0
 10
-0.5283464566929134
 20
1.259468503937008
 30
0.0
 10
-0.5283464566929134
 20
1.259468503937008
 30
0.0
 10
-0.5283464566929134
 20
1.259468503937008
 30
0.0
 10
-0.5171259842519685
 20
1.261051181102362
 30
0.0
 10
-0.5077362204724409
 20
1.264303149606299
 30
0.0
 10
-0.5001811023622047
 20
1.269248031496063
 30
0.0
  0
SPLINE
  5
87
330
1F
100
AcDbEntity
  8
Layer 1
 62
   250
100
AcDbSpline
210
0.0
220
0.0
230
1.0
 70
    11
 71
     3
 72
    20
 73
    16
 74
     0
 42
0.0000000001
 43
0.0000000001
 40
0.0
 40
0.0
 40
0.0
 40
0.0
 40
0.25
 40
0.25
 40
0.25
 40
0.25
 40
0.5
 40
0.5
 40
0.5
 40
0.5
 40
0.75
 40
0.75
 40
0.75
 40
0.75
 40
1.0
 40
1.0
 40
1.0
 40
1.0
 10
-0.4437086614173229
 20
1.202192913385827
 30
0.0
 10
-0.4437086614173229
 20
1.202192913385827
 30
0.0
 10
-0.3953740157480315
 20
1.202192913385827
 30
0.0
 10
-0.3953740157480315
 20
1.202192913385827
 30
0.0
 10
-0.3953740157480315
 20
1.202192913385827
 30
0.0
 10
-0.3953740157480315
 20
1.202192913385827
 30
0.0
 10
-0.3953740157480315
 20
1.192110236220473
 30
0.0
 10
-0.3953740157480315
 20
1.192110236220473
 30
0.0
 10
-0.3953740157480315
 20
1.192110236220473
 30
0.0
 10
-0.3953740157480315
 20
1.192110236220473
 30
0.0
 10
-0.4437086614173229
 20
1.192110236220473
 30
0.0
 10
-0.4437086614173229
 20
1.192110236220473
 30
0.0
 10
-0.4437086614173229
 20
1.192110236220473
 30
0.0
 10
-0.4437086614173229
 20
1.192110236220473
 30
0.0
 10
-0.4437086614173229
 20
1.202192913385827
 30
0.0
 10
-0.4437086614173229
 20
1.202192913385827
 30
0.0
  0
SPLINE
  5
88
330
1F
100
AcDbEntity
  8
Layer 1
 62
   250
100
AcDbSpline
210
0.0
220
0.0
230
1.0
 70
    11
 71
     3
 72
   172
 73
   168
 74
     0
 42
0.0000000001
 43
0.0000000001
 40
0.0
 40
0.0
 40
0.0
 40
0.0
 40
0.0238095238095238
 40
0.0238095238095238
 40
0.0238095238095238
 40
0.0238095238095238
 40
0.0476190476190476
 40
0.0476190476190476
 40
0.0476190476190476
 40
0.0476190476190476
 40
0.0714285714285714
 40
0.0714285714285714
 40
0.0714285714285714
 40
0.0714285714285714
 40
0.0952380952380952
 40
0.0952380952380952
 40
0.0952380952380952
 40
0.0952380952380952
 40
0.119047619047619
 40
0.119047619047619
 40
0.119047619047619
 40
0.119047619047619
 40
0.1428571428571429
 40
0.1428571428571429
 40
0.1428571428571429
 40
0.1428571428571429
 40
0.1666666666666667
 40
0.1666666666666667
 40
0.1666666666666667
 40
0.1666666666666667
 40
0.1904761904761905
 40
0.1904761904761905
 40
0.1904761904761905
 40
0.1904761904761905
 40
0.2142857142857143
 40
0.2142857142857143
 40
0.2142857142857143
 40
0.2142857142857143
 40
0.2380952380952381
 40
0.2380952380952381
 40
0.2380952380952381
 40
0.2380952380952381
 40
0.2619047619047619
 40
0.2619047619047619
 40
0.2619047619047619
 40
0.2619047619047619
 40
0.2857142857142857
 40
0.2857142857142857
 40
0.2857142857142857
 40
0.2857142857142857
 40
0.3095238095238095
 40
0.3095238095238095
 40
0.3095238095238095
 40
0.3095238095238095
 40
0.3333333333333334
 40
0.3333333333333334
 40
0.3333333333333334
 40
0.3333333333333334
 40
0.3571428571428572
 40
0.3571428571428572
 40
0.3571428571428572
 40
0.3571428571428572
 40
0.380952380952381
 40
0.380952380952381
 40
0.380952380952381
 40
0.380952380952381
 40
0.4047619047619049
 40
0.4047619047619049
 40
0.4047619047619049
 40
0.4047619047619049
 40
0.4285714285714287
 40
0.4285714285714287
 40
0.4285714285714287
 40
0.4285714285714287
 40
0.4523809523809526
 40
0.4523809523809526
 40
0.4523809523809526
 40
0.4523809523809526
 40
0.4761904761904764
 40
0.4761904761904764
 40
0.4761904761904764
 40
0.4761904761904764
 40
0.5000000000000002
 40
0.5000000000000002
 40
0.5000000000000002
 40
0.5000000000000002
 40
0.5238095238095241
 40
0.5238095238095241
 40
0.5238095238095241
 40
0.5238095238095241
 40
0.5476190476190479
 40
0.5476190476190479
 40
0.5476190476190479
 40
0.5476190476190479
 40
0.5714285714285717
 40
0.5714285714285717
 40
0.5714285714285717
 40
0.5714285714285717
 40
0.5952380952380956
 40
0.5952380952380956
 40
0.5952380952380956
 40
0.5952380952380956
 40
0.6190476190476194
 40
0.6190476190476194
 40
0.6190476190476194
 40
0.6190476190476194
 40
0.6428571428571432
 40
0.6428571428571432
 40
0.6428571428571432
 40
0.6428571428571432
 40
0.6666666666666671
 40
0.6666666666666671
 40
0.6666666666666671
 40
0.6666666666666671
 40
0.6904761904761909
 40
0.6904761904761909
 40
0.6904761904761909
 40
0.6904761904761909
 40
0.7142857142857148
 40
0.7142857142857148
 40
0.7142857142857148
 40
0.7142857142857148
 40
0.7380952380952386
 40
0.7380952380952386
 40
0.7380952380952386
 40
0.7380952380952386
 40
0.7619047619047624
 40
0.7619047619047624
 40
0.7619047619047624
 40
0.7619047619047624
 40
0.7857142857142863
 40
0.7857142857142863
 40
0.7857142857142863
 40
0.7857142857142863
 40
0.8095238095238101
 40
0.8095238095238101
 40
0.8095238095238101
 40
0.8095238095238101
 40
0.8333333333333339
 40
0.8333333333333339
 40
0.8333333333333339
 40
0.8333333333333339
 40
0.8571428571428578
 40
0.8571428571428578
 40
0.8571428571428578
 40
0.8571428571428578
 40
0.8809523809523816
 40
0.8809523809523816
 40
0.8809523809523816
 40
0.8809523809523816
 40
0.9047619047619054
 40
0.9047619047619054
 40
0.9047619047619054
 40
0.9047619047619054
 40
0.9285714285714293
 40
0.9285714285714293
 40
0.9285714285714293
 40
0.9285714285714293
 40
0.9523809523809531
 40
0.9523809523809531
 40
0.9523809523809531
 40
0.9523809523809531
 40
0.9761904761904769
 40
0.9761904761904769
 40
0.9761904761904769
 40
0.9761904761904769
 40
1.0
 40
1.0
 40
1.0
 40
1.0
 10
-0.3641259842519685
 20
1.238885826771654
 30
0.0
 10
-0.3641259842519685
 20
1.238885826771654
 30
0.0
 10
-0.3719330708661418
 20
1.240110236220473
 30
0.0
 10
-0.3719330708661418
 20
1.240110236220473
 30
0.0
 10
-0.3719330708661418
 20
1.240110236220473
 30
0.0
 10
-0.371236220472441
 20
1.245968503937008
 30
0.0
 10
-0.3697086614173228
 20
1.250830708661417
 30
0.0
 10
-0.3673740157480315
 20
1.254692913385827
 30
0.0
 10
-0.3673740157480315
 20
1.254692913385827
 30
0.0
 10
-0.3642913385826772
 20
1.259885826771654
 30
0.0
 10
-0.3599330708661417
 20
1.26394094488189
 30
0.0
 10
-0.3542913385826772
 20
1.266830708661417
 30
0.0
 10
-0.3542913385826772
 20
1.266830708661417
 30
0.0
 10
-0.3486259842519685
 20
1.269748031496063
 30
0.0
 10
-0.3421535433070866
 20
1.271192913385827
 30
0.0
 10
-0.3348188976377953
 20
1.271192913385827
 30
0.0
 10
-0.3348188976377953
 20
1.271192913385827
 30
0.0
 10
-0.3276259842519685
 20
1.271192913385827
 30
0.0
 10
-0.3212637795275591
 20
1.269913385826772
 30
0.0
 10
-0.3157913385826772
 20
1.267330708661417
 30
0.0
 10
-0.3157913385826772
 20
1.267330708661417
 30
0.0
 10
-0.3103188976377953
 20
1.264748031496063
 30
0.0
 10
-0.3061811023622048
 20
1.261330708661417
 30
0.0
 10
-0.3033779527559055
 20
1.257082677165354
 30
0.0
 10
-0.3033779527559055
 20
1.257082677165354
 30
0.0
 10
-0.3005708661417323
 20
1.252830708661417
 30
0.0
 10
-0.2991811023622047
 20
1.248220472440945
 30
0.0
 10
-0.2991811023622047
 20
1.243275590551181
 30
0.0
 10
-0.2991811023622047
 20
1.243275590551181
 30
0.0
 10
-0.2991811023622047
 20
1.23894094488189
 30
0.0
 10
-0.300236220472441
 20
1.235055118110236
 30
0.0
 10
-0.3023503937007874
 20
1.231637795275591
 30
0.0
 10
-0.3023503937007874
 20
1.231637795275591
 30
0.0
 10
-0.304488188976378
 20
1.228220472440945
 30
0.0
 10
-0.3076259842519685
 20
1.225165354330709
 30
0.0
 10
-0.3117913385826772
 20
1.22244094488189
 30
0.0
 10
-0.3117913385826772
 20
1.22244094488189
 30
0.0
 10
-0.3147362204724409
 20
1.220555118110236
 30
0.0
 10
-0.3185433070866142
 20
1.218885826771654
 30
0.0
 10
-0.3232637795275591
 20
1.217496062992126
 30
0.0
 10
-0.3232637795275591
 20
1.217496062992126
 30
0.0
 10
-0.3182362204724409
 20
1.216775590551181
 30
0.0
 10
-0.3140984251968504
 20
1.215610236220473
 30
0.0
 10
-0.3109055118110237
 20
1.213996062992126
 30
0.0
 10
-0.3109055118110237
 20
1.213996062992126
 30
0.0
 10
-0.3057086614173228
 20
1.211330708661417
 30
0.0
 10
-0.3015984251968504
 20
1.207665354330709
 30
0.0
 10
-0.2986259842519685
 20
1.202996062992126
 30
0.0
 10
-0.2986259842519685
 20
1.202996062992126
 30
0.0
 10
-0.2956259842519685
 20
1.198330708661417
 30
0.0
 10
-0.2941535433070867
 20
1.193220472440945
 30
0.0
 10
-0.2941535433070867
 20
1.187610236220473
 30
0.0
 10
-0.2941535433070867
 20
1.187610236220473
 30
0.0
 10
-0.2941535433070867
 20
1.178665354330709
 30
0.0
 10
-0.2980708661417323
 20
1.170775590551181
 30
0.0
 10
-0.3059330708661417
 20
1.163968503937008
 30
0.0
 10
-0.3059330708661417
 20
1.163968503937008
 30
0.0
 10
-0.3138188976377953
 20
1.157165354330709
 30
0.0
 10
-0.323988188976378
 20
1.153775590551181
 30
0.0
 10
-0.3364606299212599
 20
1.153775590551181
 30
0.0
 10
-0.3364606299212599
 20
1.153775590551181
 30
0.0
 10
-0.3487637795275591
 20
1.153775590551181
 30
0.0
 10
-0.3591259842519685
 20
1.157055118110236
 30
0.0
 10
-0.3675433070866142
 20
1.163610236220473
 30
0.0
 10
-0.3675433070866142
 20
1.163610236220473
 30
0.0
 10
-0.3745984251968504
 20
1.169192913385827
 30
0.0
 10
-0.3781259842519685
 20
1.174830708661417
 30
0.0
 10
-0.3781259842519685
 20
1.180468503937008
 30
0.0
 10
-0.3781259842519685
 20
1.180468503937008
 30
0.0
 10
-0.3781259842519685
 20
1.182692913385827
 30
0.0
 10
-0.3774015748031496
 20
1.184555118110236
 30
0.0
 10
-0.3759606299212598
 20
1.186027559055118
 30
0.0
 10
-0.3759606299212598
 20
1.186027559055118
 30
0.0
 10
-0.3745433070866142
 20
1.187527559055118
 30
0.0
 10
-0.372736220472441
 20
1.188275590551181
 30
0.0
 10
-0.3705433070866142
 20
1.188275590551181
 30
0.0
 10
-0.3705433070866142
 20
1.188275590551181
 30
0.0
 10
-0.3681811023622048
 20
1.188275590551181
 30
0.0
 10
-0.3661259842519685
 20
1.187358267716536
 30
0.0
 10
-0.3644606299212599
 20
1.185496062992126
 30
0.0
 10
-0.3644606299212599
 20
1.185496062992126
 30
0.0
 10
-0.3635433070866142
 20
1.184468503937008
 30
0.0
 10
-0.3624606299212599
 20
1.182
 30
0.0
 10
-0.3612913385826772
 20
1.178110236220473
 30
0.0
 10
-0.3612913385826772
 20
1.178110236220473
 30
0.0
 10
-0.3595984251968504
 20
1.172610236220472
 30
0.0
 10
-0.356736220472441
 20
1.16844094488189
 30
0.0
 10
-0.352736220472441
 20
1.165582677165354
 30
0.0
 10
-0.352736220472441
 20
1.165582677165354
 30
0.0
 10
-0.3487086614173229
 20
1.162692913385827
 30
0.0
 10
-0.343736220472441
 20
1.161248031496063
 30
0.0
 10
-0.3377637795275591
 20
1.161248031496063
 30
0.0
 10
-0.3377637795275591
 20
1.161248031496063
 30
0.0
 10
-0.3324330708661418
 20
1.161248031496063
 30
0.0
 10
-0.3276811023622047
 20
1.162413385826772
 30
0.0
 10
-0.323488188976378
 20
1.164748031496063
 30
0.0
 10
-0.323488188976378
 20
1.164748031496063
 30
0.0
 10
-0.3192637795275591
 20
1.167082677165354
 30
0.0
 10
-0.3159606299212598
 20
1.170385826771654
 30
0.0
 10
-0.3135157480314961
 20
1.174692913385827
 30
0.0
 10
-0.3135157480314961
 20
1.174692913385827
 30
0.0
 10
-0.3110708661417323
 20
1.178968503937008
 30
0.0
 10
-0.3098464566929134
 20
1.183665354330709
 30
0.0
 10
-0.3098464566929134
 20
1.188748031496063
 30
0.0
 10
-0.3098464566929134
 20
1.188748031496063
 30
0.0
 10
-0.3098464566929134
 20
1.192885826771654
 30
0.0
 10
-0.310736220472441
 20
1.196582677165354
 30
0.0
 10
-0.312488188976378
 20
1.199858267716536
 30
0.0
 10
-0.312488188976378
 20
1.199858267716536
 30
0.0
 10
-0.3142637795275591
 20
1.203165354330709
 30
0.0
 10
-0.3167637795275591
 20
1.20594094488189
 30
0.0
 10
-0.3200157480314961
 20
1.208220472440945
 30
0.0
 10
-0.3200157480314961
 20
1.208220472440945
 30
0.0
 10
-0.3225157480314961
 20
1.209996062992126
 30
0.0
 10
-0.3257086614173229
 20
1.211248031496063
 30
0.0
 10
-0.3295708661417323
 20
1.21194094488189
 30
0.0
 10
-0.3295708661417323
 20
1.21194094488189
 30
0.0
 10
-0.3334606299212599
 20
1.212665354330709
 30
0.0
 10
-0.3369606299212599
 20
1.213023622047244
 30
0.0
 10
-0.3400433070866142
 20
1.213023622047244
 30
0.0
 10
-0.3400433070866142
 20
1.213023622047244
 30
0.0
 10
-0.3400433070866142
 20
1.213023622047244
 30
0.0
 10
-0.3475984251968504
 20
1.213023622047244
 30
0.0
 10
-0.3475984251968504
 20
1.213023622047244
 30
0.0
 10
-0.3475984251968504
 20
1.213023622047244
 30
0.0
 10
-0.3475984251968504
 20
1.213023622047244
 30
0.0
 10
-0.3475984251968504
 20
1.220913385826772
 30
0.0
 10
-0.3475984251968504
 20
1.220913385826772
 30
0.0
 10
-0.3475984251968504
 20
1.220913385826772
 30
0.0
 10
-0.3475984251968504
 20
1.220913385826772
 30
0.0
 10
-0.3427913385826772
 20
1.220913385826772
 30
0.0
 10
-0.3427913385826772
 20
1.220913385826772
 30
0.0
 10
-0.3427913385826772
 20
1.220913385826772
 30
0.0
 10
-0.3380433070866142
 20
1.220913385826772
 30
0.0
 10
-0.3334881889763779
 20
1.221468503937008
 30
0.0
 10
-0.3291259842519685
 20
1.222582677165354
 30
0.0
 10
-0.3291259842519685
 20
1.222582677165354
 30
0.0
 10
-0.3247913385826772
 20
1.223692913385827
 30
0.0
 10
-0.3213188976377953
 20
1.225968503937008
 30
0.0
 10
-0.3187086614173229
 20
1.22944094488189
 30
0.0
 10
-0.3187086614173229
 20
1.22944094488189
 30
0.0
 10
-0.3161259842519685
 20
1.232913385826772
 30
0.0
 10
-0.3148188976377953
 20
1.236858267716535
 30
0.0
 10
-0.3148188976377953
 20
1.241248031496063
 30
0.0
 10
-0.3148188976377953
 20
1.241248031496063
 30
0.0
 10
-0.3148188976377953
 20
1.245051181102362
 30
0.0
 10
-0.3157086614173228
 20
1.248468503937008
 30
0.0
 10
-0.3175433070866142
 20
1.251496062992126
 30
0.0
 10
-0.3175433070866142
 20
1.251496062992126
 30
0.0
 10
-0.3193464566929134
 20
1.254551181102362
 30
0.0
 10
-0.3220157480314961
 20
1.256968503937008
 30
0.0
 10
-0.3255433070866142
 20
1.258748031496063
 30
0.0
 10
-0.3255433070866142
 20
1.258748031496063
 30
0.0
 10
-0.3290708661417323
 20
1.260523622047244
 30
0.0
 10
-0.3331535433070866
 20
1.26144094488189
 30
0.0
 10
-0.3377637795275591
 20
1.26144094488189
 30
0.0
 10
-0.3377637795275591
 20
1.26144094488189
 30
0.0
 10
-0.342263779527559
 20
1.26144094488189
 30
0.0
 10
-0.3464055118110236
 20
1.260496062992126
 30
0.0
 10
-0.3501811023622047
 20
1.258665354330709
 30
0.0
 10
-0.3501811023622047
 20
1.258665354330709
 30
0.0
 10
-0.3539330708661417
 20
1.256830708661417
 30
0.0
 10
-0.3569606299212599
 20
1.254358267716536
 30
0.0
 10
-0.359236220472441
 20
1.251248031496063
 30
0.0
 10
-0.359236220472441
 20
1.251248031496063
 30
0.0
 10
-0.3615157480314961
 20
1.248165354330709
 30
0.0
 10
-0.3631535433070866
 20
1.244051181102362
 30
0.0
 10
-0.3641259842519685
 20
1.238885826771654
 30
0.0
  0
SPLINE
  5
89
330
1F
100
AcDbEntity
  8
Layer 1
 62
   250
100
AcDbSpline
210
0.0
220
0.0
230
1.0
 70
    11
 71
     3
 72
    20
 73
    16
 74
     0
 42
0.0000000001
 43
0.0000000001
 40
0.0
 40
0.0
 40
0.0
 40
0.0
 40
0.25
 40
0.25
 40
0.25
 40
0.25
 40
0.5
 40
0.5
 40
0.5
 40
0.5
 40
0.75
 40
0.75
 40
0.75
 40
0.75
 40
1.0
 40
1.0
 40
1.0
 40
1.0
 10
-0.2013464566929134
 20
1.275110236220473
 30
0.0
 10
-0.2013464566929134
 20
1.275110236220473
 30
0.0
 10
-0.2569291338582677
 20
1.119413385826772
 30
0.0
 10
-0.2569291338582677
 20
1.119413385826772
 30
0.0
 10
-0.2569291338582677
 20
1.119413385826772
 30
0.0
 10
-0.2569291338582677
 20
1.119413385826772
 30
0.0
 10
-0.268984251968504
 20
1.119413385826772
 30
0.0
 10
-0.268984251968504
 20
1.119413385826772
 30
0.0
 10
-0.268984251968504
 20
1.119413385826772
 30
0.0
 10
-0.268984251968504
 20
1.119413385826772
 30
0.0
 10
-0.213736220472441
 20
1.275110236220473
 30
0.0
 10
-0.213736220472441
 20
1.275110236220473
 30
0.0
 10
-0.213736220472441
 20
1.275110236220473
 30
0.0
 10
-0.213736220472441
 20
1.275110236220473
 30
0.0
 10
-0.2013464566929134
 20
1.275110236220473
 30
0.0
 10
-0.2013464566929134
 20
1.275110236220473
 30
0.0
  0
SPLINE
  5
8A
330
1F
100
AcDbEntity
  8
Layer 1
 62
   250
100
AcDbSpline
210
0.0
220
0.0
230
1.0
 70
    11
 71
     3
 72
    48
 73
    44
 74
     0
 42
0.0000000001
 43
0.0000000001
 40
0.0
 40
0.0
 40
0.0
 40
0.0
 40
0.0909090909090909
 40
0.0909090909090909
 40
0.0909090909090909
 40
0.0909090909090909
 40
0.1818181818181818
 40
0.1818181818181818
 40
0.1818181818181818
 40
0.1818181818181818
 40
0.2727272727272727
 40
0.2727272727272727
 40
0.2727272727272727
 40
0.2727272727272727
 40
0.3636363636363637
 40
0.3636363636363637
 40
0.3636363636363637
 40
0.3636363636363637
 40
0.4545454545454546
 40
0.4545454545454546
 40
0.4545454545454546
 40
0.4545454545454546
 40
0.5454545454545455
 40
0.5454545454545455
 40
0.5454545454545455
 40
0.5454545454545455
 40
0.6363636363636365
 40
0.6363636363636365
 40
0.6363636363636365
 40
0.6363636363636365
 40
0.7272727272727274
 40
0.7272727272727274
 40
0.7272727272727274
 40
0.7272727272727274
 40
0.8181818181818183
 40
0.8181818181818183
 40
0.8181818181818183
 40
0.8181818181818183
 40
0.9090909090909093
 40
0.9090909090909093
 40
0.9090909090909093
 40
0.9090909090909093
 40
1.0
 40
1.0
 40
1.0
 40
1.0
 10
-0.1224015748031496
 20
1.269248031496063
 30
0.0
 10
-0.1224015748031496
 20
1.269248031496063
 30
0.0
 10
-0.1086535433070866
 20
1.269248031496063
 30
0.0
 10
-0.1086535433070866
 20
1.269248031496063
 30
0.0
 10
-0.1086535433070866
 20
1.269248031496063
 30
0.0
 10
-0.1086535433070866
 20
1.269248031496063
 30
0.0
 10
-0.1086535433070866
 20
1.203248031496063
 30
0.0
 10
-0.1086535433070866
 20
1.203248031496063
 30
0.0
 10
-0.1086535433070866
 20
1.203248031496063
 30
0.0
 10
-0.1086535433070866
 20
1.203248031496063
 30
0.0
 10
-0.0873188976377953
 20
1.203248031496063
 30
0.0
 10
-0.0873188976377953
 20
1.203248031496063
 30
0.0
 10
-0.0873188976377953
 20
1.203248031496063
 30
0.0
 10
-0.0873188976377953
 20
1.203248031496063
 30
0.0
 10
-0.0873188976377953
 20
1.193082677165354
 30
0.0
 10
-0.0873188976377953
 20
1.193082677165354
 30
0.0
 10
-0.0873188976377953
 20
1.193082677165354
 30
0.0
 10
-0.0873188976377953
 20
1.193082677165354
 30
0.0
 10
-0.1086535433070866
 20
1.193082677165354
 30
0.0
 10
-0.1086535433070866
 20
1.193082677165354
 30
0.0
 10
-0.1086535433070866
 20
1.193082677165354
 30
0.0
 10
-0.1086535433070866
 20
1.193082677165354
 30
0.0
 10
-0.1086535433070866
 20
1.155720472440945
 30
0.0
 10
-0.1086535433070866
 20
1.155720472440945
 30
0.0
 10
-0.1086535433070866
 20
1.155720472440945
 30
0.0
 10
-0.1086535433070866
 20
1.155720472440945
 30
0.0
 10
-0.1224015748031496
 20
1.155720472440945
 30
0.0
 10
-0.1224015748031496
 20
1.155720472440945
 30
0.0
 10
-0.1224015748031496
 20
1.155720472440945
 30
0.0
 10
-0.1224015748031496
 20
1.155720472440945
 30
0.0
 10
-0.1224015748031496
 20
1.193082677165354
 30
0.0
 10
-0.1224015748031496
 20
1.193082677165354
 30
0.0
 10
-0.1224015748031496
 20
1.193082677165354
 30
0.0
 10
-0.1224015748031496
 20
1.193082677165354
 30
0.0
 10
-0.1758740157480315
 20
1.193082677165354
 30
0.0
 10
-0.1758740157480315
 20
1.193082677165354
 30
0.0
 10
-0.1758740157480315
 20
1.193082677165354
 30
0.0
 10
-0.1758740157480315
 20
1.193082677165354
 30
0.0
 10
-0.1758740157480315
 20
1.207385826771654
 30
0.0
 10
-0.1758740157480315
 20
1.207385826771654
 30
0.0
 10
-0.1758740157480315
 20
1.207385826771654
 30
0.0
 10
-0.1758740157480315
 20
1.207385826771654
 30
0.0
 10
-0.1224015748031496
 20
1.269248031496063
 30
0.0
 10
-0.1224015748031496
 20
1.269248031496063
 30
0.0
  0
SPLINE
  5
8B
330
1F
100
AcDbEntity
  8
Layer 1
 62
   250
100
AcDbSpline
210
0.0
220
0.0
230
1.0
 70
    11
 71
     3
 72
    16
 73
    12
 74
     0
 42
0.0000000001
 43
0.0000000001
 40
0.0
 40
0.0
 40
0.0
 40
0.0
 40
0.3333333333333333
 40
0.3333333333333333
 40
0.3333333333333333
 40
0.3333333333333333
 40
0.6666666666666666
 40
0.6666666666666666
 40
0.6666666666666666
 40
0.6666666666666666
 40
1.0
 40
1.0
 40
1.0
 40
1.0
 10
-0.1224015748031496
 20
1.203248031496063
 30
0.0
 10
-0.1224015748031496
 20
1.203248031496063
 30
0.0
 10
-0.1224015748031496
 20
1.256637795275591
 30
0.0
 10
-0.1224015748031496
 20
1.256637795275591
 30
0.0
 10
-0.1224015748031496
 20
1.256637795275591
 30
0.0
 10
-0.1224015748031496
 20
1.256637795275591
 30
0.0
 10
-0.1684566929133858
 20
1.203248031496063
 30
0.0
 10
-0.1684566929133858
 20
1.203248031496063
 30
0.0
 10
-0.1684566929133858
 20
1.203248031496063
 30
0.0
 10
-0.1684566929133858
 20
1.203248031496063
 30
0.0
 10
-0.1224015748031496
 20
1.203248031496063
 30
0.0
 10
-0.1224015748031496
 20
1.203248031496063
 30
0.0
  0
SPLINE
  5
8C
330
1F
100
AcDbEntity
  8
Layer 1
 62
   250
100
AcDbSpline
210
0.0
220
0.0
230
1.0
 70
    11
 71
     3
 72
    60
 73
    56
 74
     0
 42
0.0000000001
 43
0.0000000001
 40
0.0
 40
0.0
 40
0.0
 40
0.0
 40
0.0714285714285714
 40
0.0714285714285714
 40
0.0714285714285714
 40
0.0714285714285714
 40
0.1428571428571429
 40
0.1428571428571429
 40
0.1428571428571429
 40
0.1428571428571429
 40
0.2142857142857143
 40
0.2142857142857143
 40
0.2142857142857143
 40
0.2142857142857143
 40
0.2857142857142857
 40
0.2857142857142857
 40
0.2857142857142857
 40
0.2857142857142857
 40
0.3571428571428571
 40
0.3571428571428571
 40
0.3571428571428571
 40
0.3571428571428571
 40
0.4285714285714285
 40
0.4285714285714285
 40
0.4285714285714285
 40
0.4285714285714285
 40
0.4999999999999999
 40
0.4999999999999999
 40
0.4999999999999999
 40
0.4999999999999999
 40
0.5714285714285713
 40
0.5714285714285713
 40
0.5714285714285713
 40
0.5714285714285713
 40
0.6428571428571427
 40
0.6428571428571427
 40
0.6428571428571427
 40
0.6428571428571427
 40
0.7142857142857141
 40
0.7142857142857141
 40
0.7142857142857141
 40
0.7142857142857141
 40
0.7857142857142855
 40
0.7857142857142855
 40
0.7857142857142855
 40
0.7857142857142855
 40
0.8571428571428569
 40
0.8571428571428569
 40
0.8571428571428569
 40
0.8571428571428569
 40
0.9285714285714283
 40
0.9285714285714283
 40
0.9285714285714283
 40
0.9285714285714283
 40
1.0
 40
1.0
 40
1.0
 40
1.0
 10
-0.0693464566929134
 20
1.227165354330709
 30
0.0
 10
-0.0693464566929134
 20
1.227165354330709
 30
0.0
 10
-0.073736220472441
 20
1.232555118110236
 30
0.0
 10
-0.073736220472441
 20
1.232555118110236
 30
0.0
 10
-0.073736220472441
 20
1.232555118110236
 30
0.0
 10
-0.0626220472440945
 20
1.241610236220472
 30
0.0
 10
-0.0570393700787402
 20
1.249165354330709
 30
0.0
 10
-0.0570393700787402
 20
1.255248031496063
 30
0.0
 10
-0.0570393700787402
 20
1.255248031496063
 30
0.0
 10
-0.0570393700787402
 20
1.25594094488189
 30
0.0
 10
-0.0570944881889764
 20
1.256830708661417
 30
0.0
 10
-0.0572086614173228
 20
1.257858267716536
 30
0.0
 10
-0.0572086614173228
 20
1.257858267716536
 30
0.0
 10
-0.0581220472440945
 20
1.257468503937008
 30
0.0
 10
-0.0590393700787402
 20
1.257165354330709
 30
0.0
 10
-0.0599015748031496
 20
1.256968503937008
 30
0.0
 10
-0.0599015748031496
 20
1.256968503937008
 30
0.0
 10
-0.0607637795275591
 20
1.256748031496063
 30
0.0
 10
-0.0615669291338583
 20
1.256637795275591
 30
0.0
 10
-0.0623464566929134
 20
1.256637795275591
 30
0.0
 10
-0.0623464566929134
 20
1.256637795275591
 30
0.0
 10
-0.0649566929133858
 20
1.256637795275591
 30
0.0
 10
-0.0670393700787402
 20
1.257468503937008
 30
0.0
 10
-0.0685944881889764
 20
1.259165354330709
 30
0.0
 10
-0.0685944881889764
 20
1.259165354330709
 30
0.0
 10
-0.0701811023622047
 20
1.260830708661417
 30
0.0
 10
-0.0709566929133858
 20
1.262968503937008
 30
0.0
 10
-0.0709566929133858
 20
1.265582677165354
 30
0.0
 10
-0.0709566929133858
 20
1.265582677165354
 30
0.0
 10
-0.0709566929133858
 20
1.268137795275591
 30
0.0
 10
-0.0700118110236221
 20
1.270358267716536
 30
0.0
 10
-0.0681220472440945
 20
1.272248031496063
 30
0.0
 10
-0.0681220472440945
 20
1.272248031496063
 30
0.0
 10
-0.0662086614173228
 20
1.274165354330709
 30
0.0
 10
-0.0639291338582677
 20
1.275110236220473
 30
0.0
 10
-0.0612913385826772
 20
1.275110236220473
 30
0.0
 10
-0.0612913385826772
 20
1.275110236220473
 30
0.0
 10
-0.0575944881889764
 20
1.275110236220473
 30
0.0
 10
-0.0544291338582677
 20
1.273637795275591
 30
0.0
 10
-0.0517913385826772
 20
1.270665354330709
 30
0.0
 10
-0.0517913385826772
 20
1.270665354330709
 30
0.0
 10
-0.0491811023622047
 20
1.267720472440945
 30
0.0
 10
-0.0478464566929134
 20
1.263913385826772
 30
0.0
 10
-0.0478464566929134
 20
1.259248031496063
 30
0.0
 10
-0.0478464566929134
 20
1.259248031496063
 30
0.0
 10
-0.0478464566929134
 20
1.256192913385827
 30
0.0
 10
-0.0484842519685039
 20
1.252996062992126
 30
0.0
 10
-0.0497362204724409
 20
1.249665354330709
 30
0.0
 10
-0.0497362204724409
 20
1.249665354330709
 30
0.0
 10
-0.0509842519685039
 20
1.246330708661417
 30
0.0
 10
-0.0527913385826772
 20
1.243248031496063
 30
0.0
 10
-0.0551811023622047
 20
1.240385826771654
 30
0.0
 10
-0.0551811023622047
 20
1.240385826771654
 30
0.0
 10
-0.0575669291338583
 20
1.237555118110236
 30
0.0
 10
-0.0622913385826772
 20
1.233137795275591
 30
0.0
 10
-0.0693464566929134
 20
1.227165354330709
 30
0.0
  0
SPLINE
  5
8D
330
1F
100
AcDbEntity
  8
Layer 1
 62
   250
100
AcDbSpline
210
0.0
220
0.0
230
1.0
 70
    11
 71
     3
 72
    60
 73
    56
 74
     0
 42
0.0000000001
 43
0.0000000001
 40
0.0
 40
0.0
 40
0.0
 40
0.0
 40
0.0714285714285714
 40
0.0714285714285714
 40
0.0714285714285714
 40
0.0714285714285714
 40
0.1428571428571429
 40
0.1428571428571429
 40
0.1428571428571429
 40
0.1428571428571429
 40
0.2142857142857143
 40
0.2142857142857143
 40
0.2142857142857143
 40
0.2142857142857143
 40
0.2857142857142857
 40
0.2857142857142857
 40
0.2857142857142857
 40
0.2857142857142857
 40
0.3571428571428571
 40
0.3571428571428571
 40
0.3571428571428571
 40
0.3571428571428571
 40
0.4285714285714285
 40
0.4285714285714285
 40
0.4285714285714285
 40
0.4285714285714285
 40
0.4999999999999999
 40
0.4999999999999999
 40
0.4999999999999999
 40
0.4999999999999999
 40
0.5714285714285713
 40
0.5714285714285713
 40
0.5714285714285713
 40
0.5714285714285713
 40
0.6428571428571427
 40
0.6428571428571427
 40
0.6428571428571427
 40
0.6428571428571427
 40
0.7142857142857141
 40
0.7142857142857141
 40
0.7142857142857141
 40
0.7142857142857141
 40
0.7857142857142855
 40
0.7857142857142855
 40
0.7857142857142855
 40
0.7857142857142855
 40
0.8571428571428569
 40
0.8571428571428569
 40
0.8571428571428569
 40
0.8571428571428569
 40
0.9285714285714283
 40
0.9285714285714283
 40
0.9285714285714283
 40
0.9285714285714283
 40
1.0
 40
1.0
 40
1.0
 40
1.0
 10
-0.0402913385826772
 20
1.227165354330709
 30
0.0
 10
-0.0402913385826772
 20
1.227165354330709
 30
0.0
 10
-0.0446811023622047
 20
1.232555118110236
 30
0.0
 10
-0.0446811023622047
 20
1.232555118110236
 30
0.0
 10
-0.0446811023622047
 20
1.232555118110236
 30
0.0
 10
-0.0335669291338583
 20
1.241610236220472
 30
0.0
 10
-0.0279842519685039
 20
1.249165354330709
 30
0.0
 10
-0.0279842519685039
 20
1.255248031496063
 30
0.0
 10
-0.0279842519685039
 20
1.255248031496063
 30
0.0
 10
-0.0279842519685039
 20
1.25594094488189
 30
0.0
 10
-0.0280393700787402
 20
1.256830708661417
 30
0.0
 10
-0.0281535433070866
 20
1.257858267716536
 30
0.0
 10
-0.0281535433070866
 20
1.257858267716536
 30
0.0
 10
-0.0290669291338583
 20
1.257468503937008
 30
0.0
 10
-0.0299842519685039
 20
1.257165354330709
 30
0.0
 10
-0.0308464566929134
 20
1.256968503937008
 30
0.0
 10
-0.0308464566929134
 20
1.256968503937008
 30
0.0
 10
-0.0317086614173228
 20
1.256748031496063
 30
0.0
 10
-0.0325393700787402
 20
1.256637795275591
 30
0.0
 10
-0.0333740157480315
 20
1.256637795275591
 30
0.0
 10
-0.0333740157480315
 20
1.256637795275591
 30
0.0
 10
-0.0359291338582677
 20
1.256637795275591
 30
0.0
 10
-0.0379842519685039
 20
1.257468503937008
 30
0.0
 10
-0.0395393700787402
 20
1.259165354330709
 30
0.0
 10
-0.0395393700787402
 20
1.259165354330709
 30
0.0
 10
-0.0411220472440945
 20
1.260830708661417
 30
0.0
 10
-0.0419015748031496
 20
1.262968503937008
 30
0.0
 10
-0.0419015748031496
 20
1.265582677165354
 30
0.0
 10
-0.0419015748031496
 20
1.265582677165354
 30
0.0
 10
-0.0419015748031496
 20
1.268137795275591
 30
0.0
 10
-0.0409566929133858
 20
1.270358267716536
 30
0.0
 10
-0.0390669291338583
 20
1.272248031496063
 30
0.0
 10
-0.0390669291338583
 20
1.272248031496063
 30
0.0
 10
-0.0371811023622047
 20
1.274165354330709
 30
0.0
 10
-0.0348740157480315
 20
1.275110236220473
 30
0.0
 10
-0.0322362204724409
 20
1.275110236220473
 30
0.0
 10
-0.0322362204724409
 20
1.275110236220473
 30
0.0
 10
-0.0285393700787402
 20
1.275110236220473
 30
0.0
 10
-0.0253740157480315
 20
1.273637795275591
 30
0.0
 10
-0.0227362204724409
 20
1.270665354330709
 30
0.0
 10
-0.0227362204724409
 20
1.270665354330709
 30
0.0
 10
-0.0201259842519685
 20
1.267720472440945
 30
0.0
 10
-0.0187913385826772
 20
1.263913385826772
 30
0.0
 10
-0.0187913385826772
 20
1.259248031496063
 30
0.0
 10
-0.0187913385826772
 20
1.259248031496063
 30
0.0
 10
-0.0187913385826772
 20
1.256192913385827
 30
0.0
 10
-0.0194291338582677
 20
1.252996062992126
 30
0.0
 10
-0.0206811023622047
 20
1.249665354330709
 30
0.0
 10
-0.0206811023622047
 20
1.249665354330709
 30
0.0
 10
-0.0219291338582677
 20
1.246330708661417
 30
0.0
 10
-0.0237362204724409
 20
1.243248031496063
 30
0.0
 10
-0.0261220472440945
 20
1.240385826771654
 30
0.0
 10
-0.0261220472440945
 20
1.240385826771654
 30
0.0
 10
-0.028511811023622
 20
1.237555118110236
 30
0.0
 10
-0.0332362204724409
 20
1.233137795275591
 30
0.0
 10
-0.0402913385826772
 20
1.227165354330709
 30
0.0
  0
SPLINE
  5
8E
330
1F
100
AcDbEntity
  8
Layer 1
 62
   250
100
AcDbSpline
210
0.0
220
0.0
230
1.0
 70
    11
 71
     3
 72
   204
 73
   200
 74
     0
 42
0.0000000001
 43
0.0000000001
 40
0.0
 40
0.0
 40
0.0
 40
0.0
 40
0.02
 40
0.02
 40
0.02
 40
0.02
 40
0.04
 40
0.04
 40
0.04
 40
0.04
 40
0.06
 40
0.06
 40
0.06
 40
0.06
 40
0.08
 40
0.08
 40
0.08
 40
0.08
 40
0.1
 40
0.1
 40
0.1
 40
0.1
 40
0.12
 40
0.12
 40
0.12
 40
0.12
 40
0.14
 40
0.14
 40
0.14
 40
0.14
 40
0.16
 40
0.16
 40
0.16
 40
0.16
 40
0.18
 40
0.18
 40
0.18
 40
0.18
 40
0.2
 40
0.2
 40
0.2
 40
0.2
 40
0.22
 40
0.22
 40
0.22
 40
0.22
 40
0.24
 40
0.24
 40
0.24
 40
0.24
 40
0.26
 40
0.26
 40
0.26
 40
0.26
 40
0.28
 40
0.28
 40
0.28
 40
0.28
 40
0.3
 40
0.3
 40
0.3
 40
0.3
 40
0.32
 40
0.32
 40
0.32
 40
0.32
 40
0.34
 40
0.34
 40
0.34
 40
0.34
 40
0.36
 40
0.36
 40
0.36
 40
0.36
 40
0.3800000000000001
 40
0.3800000000000001
 40
0.3800000000000001
 40
0.3800000000000001
 40
0.4000000000000001
 40
0.4000000000000001
 40
0.4000000000000001
 40
0.4000000000000001
 40
0.4200000000000001
 40
0.4200000000000001
 40
0.4200000000000001
 40
0.4200000000000001
 40
0.4400000000000001
 40
0.4400000000000001
 40
0.4400000000000001
 40
0.4400000000000001
 40
0.4600000000000001
 40
0.4600000000000001
 40
0.4600000000000001
 40
0.4600000000000001
 40
0.4800000000000002
 40
0.4800000000000002
 40
0.4800000000000002
 40
0.4800000000000002
 40
0.5000000000000001
 40
0.5000000000000001
 40
0.5000000000000001
 40
0.5000000000000001
 40
0.5200000000000001
 40
0.5200000000000001
 40
0.5200000000000001
 40
0.5200000000000001
 40
0.5400000000000002
 40
0.5400000000000002
 40
0.5400000000000002
 40
0.5400000000000002
 40
0.5600000000000002
 40
0.5600000000000002
 40
0.5600000000000002
 40
0.5600000000000002
 40
0.5800000000000002
 40
0.5800000000000002
 40
0.5800000000000002
 40
0.5800000000000002
 40
0.6000000000000002
 40
0.6000000000000002
 40
0.6000000000000002
 40
0.6000000000000002
 40
0.6200000000000002
 40
0.6200000000000002
 40
0.6200000000000002
 40
0.6200000000000002
 40
0.6400000000000002
 40
0.6400000000000002
 40
0.6400000000000002
 40
0.6400000000000002
 40
0.6600000000000003
 40
0.6600000000000003
 40
0.6600000000000003
 40
0.6600000000000003
 40
0.6800000000000003
 40
0.6800000000000003
 40
0.6800000000000003
 40
0.6800000000000003
 40
0.7000000000000003
 40
0.7000000000000003
 40
0.7000000000000003
 40
0.7000000000000003
 40
0.7200000000000003
 40
0.7200000000000003
 40
0.7200000000000003
 40
0.7200000000000003
 40
0.7400000000000003
 40
0.7400000000000003
 40
0.7400000000000003
 40
0.7400000000000003
 40
0.7600000000000003
 40
0.7600000000000003
 40
0.7600000000000003
 40
0.7600000000000003
 40
0.7800000000000004
 40
0.7800000000000004
 40
0.7800000000000004
 40
0.7800000000000004
 40
0.8000000000000004
 40
0.8000000000000004
 40
0.8000000000000004
 40
0.8000000000000004
 40
0.8200000000000004
 40
0.8200000000000004
 40
0.8200000000000004
 40
0.8200000000000004
 40
0.8400000000000004
 40
0.8400000000000004
 40
0.8400000000000004
 40
0.8400000000000004
 40
0.8600000000000004
 40
0.8600000000000004
 40
0.8600000000000004
 40
0.8600000000000004
 40
0.8800000000000005
 40
0.8800000000000005
 40
0.8800000000000005
 40
0.8800000000000005
 40
0.9000000000000005
 40
0.9000000000000005
 40
0.9000000000000005
 40
0.9000000000000005
 40
0.9200000000000005
 40
0.9200000000000005
 40
0.9200000000000005
 40
0.9200000000000005
 40
0.9400000000000005
 40
0.9400000000000005
 40
0.9400000000000005
 40
0.9400000000000005
 40
0.9600000000000005
 40
0.9600000000000005
 40
0.9600000000000005
 40
0.9600000000000005
 40
0.9800000000000005
 40
0.9800000000000005
 40
0.9800000000000005
 40
0.9800000000000005
 40
1.0
 40
1.0
 40
1.0
 40
1.0
 10
0.0435157480314961
 20
1.234248031496063
 30
0.0
 10
0.0435157480314961
 20
1.234248031496063
 30
0.0
 10
0.0844606299212598
 20
1.234248031496063
 30
0.0
 10
0.0844606299212598
 20
1.234248031496063
 30
0.0
 10
0.0844606299212598
 20
1.234248031496063
 30
0.0
 10
0.0844606299212598
 20
1.234248031496063
 30
0.0
 10
0.0844606299212598
 20
1.227413385826772
 30
0.0
 10
0.0844606299212598
 20
1.227413385826772
 30
0.0
 10
0.0844606299212598
 20
1.227413385826772
 30
0.0
 10
0.0844606299212598
 20
1.227413385826772
 30
0.0
 10
0.0816259842519685
 20
1.227413385826772
 30
0.0
 10
0.0816259842519685
 20
1.227413385826772
 30
0.0
 10
0.0816259842519685
 20
1.227413385826772
 30
0.0
 10
0.079988188976378
 20
1.227413385826772
 30
0.0
 10
0.078488188976378
 20
1.227220472440945
 30
0.0
 10
0.0771259842519685
 20
1.226858267716535
 30
0.0
 10
0.0771259842519685
 20
1.226858267716535
 30
0.0
 10
0.0763228346456693
 20
1.226637795275591
 30
0.0
 10
0.0756535433070866
 20
1.226220472440945
 30
0.0
 10
0.0751535433070866
 20
1.225582677165354
 30
0.0
 10
0.0751535433070866
 20
1.225582677165354
 30
0.0
 10
0.0746259842519685
 20
1.224968503937008
 30
0.0
 10
0.0743779527559055
 20
1.224385826771654
 30
0.0
 10
0.0743779527559055
 20
1.223830708661417
 30
0.0
 10
0.0743779527559055
 20
1.223830708661417
 30
0.0
 10
0.0743779527559055
 20
1.222582677165354
 30
0.0
 10
0.0754055118110236
 20
1.220720472440945
 30
0.0
 10
0.0774606299212598
 20
1.218220472440945
 30
0.0
 10
0.0774606299212598
 20
1.218220472440945
 30
0.0
 10
0.0774606299212598
 20
1.218220472440945
 30
0.0
 10
0.0890984251968504
 20
1.203582677165354
 30
0.0
 10
0.0890984251968504
 20
1.203582677165354
 30
0.0
 10
0.0890984251968504
 20
1.203582677165354
 30
0.0
 10
0.0890984251968504
 20
1.203582677165354
 30
0.0
 10
0.1026811023622047
 20
1.218220472440945
 30
0.0
 10
0.1026811023622047
 20
1.218220472440945
 30
0.0
 10
0.1026811023622047
 20
1.218220472440945
 30
0.0
 10
0.1051811023622047
 20
1.22094094488189
 30
0.0
 10
0.1064330708661417
 20
1.222968503937008
 30
0.0
 10
0.1064330708661417
 20
1.224330708661418
 30
0.0
 10
0.1064330708661417
 20
1.224330708661418
 30
0.0
 10
0.1064330708661417
 20
1.225303149606299
 30
0.0
 10
0.105988188976378
 20
1.226055118110236
 30
0.0
 10
0.1051259842519685
 20
1.226610236220473
 30
0.0
 10
0.1051259842519685
 20
1.226610236220473
 30
0.0
 10
0.1042637795275591
 20
1.227137795275591
 30
0.0
 10
0.1024055118110236
 20
1.227413385826772
 30
0.0
 10
0.0995157480314961
 20
1.227413385826772
 30
0.0
 10
0.0995157480314961
 20
1.227413385826772
 30
0.0
 10
0.0995157480314961
 20
1.227413385826772
 30
0.0
 10
0.0964330708661417
 20
1.227413385826772
 30
0.0
 10
0.0964330708661417
 20
1.227413385826772
 30
0.0
 10
0.0964330708661417
 20
1.227413385826772
 30
0.0
 10
0.0964330708661417
 20
1.227413385826772
 30
0.0
 10
0.0964330708661417
 20
1.234248031496063
 30
0.0
 10
0.0964330708661417
 20
1.234248031496063
 30
0.0
 10
0.0964330708661417
 20
1.234248031496063
 30
0.0
 10
0.0964330708661417
 20
1.234248031496063
 30
0.0
 10
0.1311811023622047
 20
1.234248031496063
 30
0.0
 10
0.1311811023622047
 20
1.234248031496063
 30
0.0
 10
0.1311811023622047
 20
1.234248031496063
 30
0.0
 10
0.1311811023622047
 20
1.234248031496063
 30
0.0
 10
0.1311811023622047
 20
1.227413385826772
 30
0.0
 10
0.1311811023622047
 20
1.227413385826772
 30
0.0
 10
0.1311811023622047
 20
1.227413385826772
 30
0.0
 10
0.1277637795275591
 20
1.227248031496063
 30
0.0
 10
0.1248188976377953
 20
1.226555118110236
 30
0.0
 10
0.1223503937007874
 20
1.225303149606299
 30
0.0
 10
0.1223503937007874
 20
1.225303149606299
 30
0.0
 10
0.1198779527559055
 20
1.224055118110236
 30
0.0
 10
0.1169606299212598
 20
1.221692913385827
 30
0.0
 10
0.1135984251968504
 20
1.218220472440945
 30
0.0
 10
0.1135984251968504
 20
1.218220472440945
 30
0.0
 10
0.1135984251968504
 20
1.218220472440945
 30
0.0
 10
0.0949606299212599
 20
1.198858267716536
 30
0.0
 10
0.0949606299212599
 20
1.198858267716536
 30
0.0
 10
0.0949606299212599
 20
1.198858267716536
 30
0.0
 10
0.0949606299212599
 20
1.198858267716536
 30
0.0
 10
0.1181535433070866
 20
1.172413385826772
 30
0.0
 10
0.1181535433070866
 20
1.172413385826772
 30
0.0
 10
0.1181535433070866
 20
1.172413385826772
 30
0.0
 10
0.1181535433070866
 20
1.172413385826772
 30
0.0
 10
0.1190433070866142
 20
1.171275590551181
 30
0.0
 10
0.1190433070866142
 20
1.171275590551181
 30
0.0
 10
0.1190433070866142
 20
1.171275590551181
 30
0.0
 10
0.1213188976377953
 20
1.168330708661417
 30
0.0
 10
0.1238779527559055
 20
1.165968503937008
 30
0.0
 10
0.1267086614173228
 20
1.164192913385827
 30
0.0
 10
0.1267086614173228
 20
1.164192913385827
 30
0.0
 10
0.1282637795275591
 20
1.163165354330709
 30
0.0
 10
0.1307086614173229
 20
1.162610236220472
 30
0.0
 10
0.1340157480314961
 20
1.162555118110236
 30
0.0
 10
0.1340157480314961
 20
1.162555118110236
 30
0.0
 10
0.1340157480314961
 20
1.162555118110236
 30
0.0
 10
0.1340157480314961
 20
1.155720472440945
 30
0.0
 10
0.1340157480314961
 20
1.155720472440945
 30
0.0
 10
0.1340157480314961
 20
1.155720472440945
 30
0.0
 10
0.1340157480314961
 20
1.155720472440945
 30
0.0
 10
0.0940708661417323
 20
1.155720472440945
 30
0.0
 10
0.0940708661417323
 20
1.155720472440945
 30
0.0
 10
0.0940708661417323
 20
1.155720472440945
 30
0.0
 10
0.0940708661417323
 20
1.155720472440945
 30
0.0
 10
0.0940708661417323
 20
1.162555118110236
 30
0.0
 10
0.0940708661417323
 20
1.162555118110236
 30
0.0
 10
0.0940708661417323
 20
1.162555118110236
 30
0.0
 10
0.0940708661417323
 20
1.162555118110236
 30
0.0
 10
0.097488188976378
 20
1.162555118110236
 30
0.0
 10
0.097488188976378
 20
1.162555118110236
 30
0.0
 10
0.097488188976378
 20
1.162555118110236
 30
0.0
 10
0.1000984251968504
 20
1.162555118110236
 30
0.0
 10
0.101736220472441
 20
1.162720472440945
 30
0.0
 10
0.1024606299212598
 20
1.163055118110236
 30
0.0
 10
0.1024606299212598
 20
1.163055118110236
 30
0.0
 10
0.1036259842519685
 20
1.163582677165354
 30
0.0
 10
0.104236220472441
 20
1.1645
 30
0.0
 10
0.104236220472441
 20
1.165803149606299
 30
0.0
 10
0.104236220472441
 20
1.165803149606299
 30
0.0
 10
0.104236220472441
 20
1.167
 30
0.0
 10
0.1029330708661417
 20
1.169192913385827
 30
0.0
 10
0.1003188976377953
 20
1.172413385826772
 30
0.0
 10
0.1003188976377953
 20
1.172413385826772
 30
0.0
 10
0.1003188976377953
 20
1.172413385826772
 30
0.0
 10
0.0855157480314961
 20
1.190555118110236
 30
0.0
 10
0.0855157480314961
 20
1.190555118110236
 30
0.0
 10
0.0855157480314961
 20
1.190555118110236
 30
0.0
 10
0.0855157480314961
 20
1.190555118110236
 30
0.0
 10
0.068988188976378
 20
1.172413385826772
 30
0.0
 10
0.068988188976378
 20
1.172413385826772
 30
0.0
 10
0.068988188976378
 20
1.172413385826772
 30
0.0
 10
0.068988188976378
 20
1.172413385826772
 30
0.0
 10
0.0673779527559055
 20
1.17044094488189
 30
0.0
 10
0.0673779527559055
 20
1.17044094488189
 30
0.0
 10
0.0673779527559055
 20
1.17044094488189
 30
0.0
 10
0.0673779527559055
 20
1.17044094488189
 30
0.0
 10
0.066488188976378
 20
1.169468503937008
 30
0.0
 10
0.066488188976378
 20
1.169468503937008
 30
0.0
 10
0.066488188976378
 20
1.169468503937008
 30
0.0
 10
0.0651259842519685
 20
1.168
 30
0.0
 10
0.0644330708661417
 20
1.166720472440945
 30
0.0
 10
0.0644330708661417
 20
1.165582677165354
 30
0.0
 10
0.0644330708661417
 20
1.165582677165354
 30
0.0
 10
0.0644330708661417
 20
1.164527559055118
 30
0.0
 10
0.0648503937007874
 20
1.163775590551181
 30
0.0
 10
0.0657086614173228
 20
1.163275590551181
 30
0.0
 10
0.0657086614173228
 20
1.163275590551181
 30
0.0
 10
0.0665433070866142
 20
1.162803149606299
 30
0.0
 10
0.0684330708661417
 20
1.162555118110236
 30
0.0
 10
0.0713503937007874
 20
1.162555118110236
 30
0.0
 10
0.0713503937007874
 20
1.162555118110236
 30
0.0
 10
0.0713503937007874
 20
1.162555118110236
 30
0.0
 10
0.0746259842519685
 20
1.162555118110236
 30
0.0
 10
0.0746259842519685
 20
1.162555118110236
 30
0.0
 10
0.0746259842519685
 20
1.162555118110236
 30
0.0
 10
0.0746259842519685
 20
1.162555118110236
 30
0.0
 10
0.0746259842519685
 20
1.155720472440945
 30
0.0
 10
0.0746259842519685
 20
1.155720472440945
 30
0.0
 10
0.0746259842519685
 20
1.155720472440945
 30
0.0
 10
0.0746259842519685
 20
1.155720472440945
 30
0.0
 10
0.0403503937007874
 20
1.155720472440945
 30
0.0
 10
0.0403503937007874
 20
1.155720472440945
 30
0.0
 10
0.0403503937007874
 20
1.155720472440945
 30
0.0
 10
0.0403503937007874
 20
1.155720472440945
 30
0.0
 10
0.0403503937007874
 20
1.162555118110236
 30
0.0
 10
0.0403503937007874
 20
1.162555118110236
 30
0.0
 10
0.0403503937007874
 20
1.162555118110236
 30
0.0
 10
0.0430157480314961
 20
1.162610236220472
 30
0.0
 10
0.0450984251968504
 20
1.162885826771654
 30
0.0
 10
0.0466259842519685
 20
1.163413385826772
 30
0.0
 10
0.0466259842519685
 20
1.163413385826772
 30
0.0
 10
0.0481259842519685
 20
1.163913385826772
 30
0.0
 10
0.0495984251968504
 20
1.164720472440945
 30
0.0
 10
0.0510157480314961
 20
1.165803149606299
 30
0.0
 10
0.0510157480314961
 20
1.165803149606299
 30
0.0
 10
0.0534606299212598
 20
1.167775590551181
 30
0.0
 10
0.0552086614173228
 20
1.169303149606299
 30
0.0
 10
0.0562952755905512
 20
1.17044094488189
 30
0.0
 10
0.0562952755905512
 20
1.17044094488189
 30
0.0
 10
0.0562952755905512
 20
1.17044094488189
 30
0.0
 10
0.0801535433070866
 20
1.19494094488189
 30
0.0
 10
0.0801535433070866
 20
1.19494094488189
 30
0.0
 10
0.0801535433070866
 20
1.19494094488189
 30
0.0
 10
0.0801535433070866
 20
1.19494094488189
 30
0.0
 10
0.0598779527559055
 20
1.218220472440945
 30
0.0
 10
0.0598779527559055
 20
1.218220472440945
 30
0.0
 10
0.0598779527559055
 20
1.218220472440945
 30
0.0
 10
0.0573228346456693
 20
1.221110236220472
 30
0.0
 10
0.0553228346456693
 20
1.223110236220472
 30
0.0
 10
0.0538228346456693
 20
1.224275590551181
 30
0.0
 10
0.0538228346456693
 20
1.224275590551181
 30
0.0
 10
0.0523228346456693
 20
1.22544094488189
 30
0.0
 10
0.0508779527559055
 20
1.226275590551181
 30
0.0
 10
0.0494606299212598
 20
1.226720472440945
 30
0.0
 10
0.0494606299212598
 20
1.226720472440945
 30
0.0
 10
0.0480433070866142
 20
1.227192913385827
 30
0.0
 10
0.0460708661417323
 20
1.227413385826772
 30
0.0
 10
0.0435157480314961
 20
1.227413385826772
 30
0.0
 10
0.0435157480314961
 20
1.227413385826772
 30
0.0
 10
0.0435157480314961
 20
1.227413385826772
 30
0.0
 10
0.0435157480314961
 20
1.234248031496063
 30
0.0
 10
0.0435157480314961
 20
1.234248031496063
 30
0.0
  0
SPLINE
  5
8F
330
1F
100
AcDbEntity
  8
Layer 1
 62
   250
100
AcDbSpline
210
0.0
220
0.0
230
1.0
 70
    11
 71
     3
 72
   172
 73
   168
 74
     0
 42
0.0000000001
 43
0.0000000001
 40
0.0
 40
0.0
 40
0.0
 40
0.0
 40
0.0238095238095238
 40
0.0238095238095238
 40
0.0238095238095238
 40
0.0238095238095238
 40
0.0476190476190476
 40
0.0476190476190476
 40
0.0476190476190476
 40
0.0476190476190476
 40
0.0714285714285714
 40
0.0714285714285714
 40
0.0714285714285714
 40
0.0714285714285714
 40
0.0952380952380952
 40
0.0952380952380952
 40
0.0952380952380952
 40
0.0952380952380952
 40
0.119047619047619
 40
0.119047619047619
 40
0.119047619047619
 40
0.119047619047619
 40
0.1428571428571429
 40
0.1428571428571429
 40
0.1428571428571429
 40
0.1428571428571429
 40
0.1666666666666667
 40
0.1666666666666667
 40
0.1666666666666667
 40
0.1666666666666667
 40
0.1904761904761905
 40
0.1904761904761905
 40
0.1904761904761905
 40
0.1904761904761905
 40
0.2142857142857143
 40
0.2142857142857143
 40
0.2142857142857143
 40
0.2142857142857143
 40
0.2380952380952381
 40
0.2380952380952381
 40
0.2380952380952381
 40
0.2380952380952381
 40
0.2619047619047619
 40
0.2619047619047619
 40
0.2619047619047619
 40
0.2619047619047619
 40
0.2857142857142857
 40
0.2857142857142857
 40
0.2857142857142857
 40
0.2857142857142857
 40
0.3095238095238095
 40
0.3095238095238095
 40
0.3095238095238095
 40
0.3095238095238095
 40
0.3333333333333334
 40
0.3333333333333334
 40
0.3333333333333334
 40
0.3333333333333334
 40
0.3571428571428572
 40
0.3571428571428572
 40
0.3571428571428572
 40
0.3571428571428572
 40
0.380952380952381
 40
0.380952380952381
 40
0.380952380952381
 40
0.380952380952381
 40
0.4047619047619049
 40
0.4047619047619049
 40
0.4047619047619049
 40
0.4047619047619049
 40
0.4285714285714287
 40
0.4285714285714287
 40
0.4285714285714287
 40
0.4285714285714287
 40
0.4523809523809526
 40
0.4523809523809526
 40
0.4523809523809526
 40
0.4523809523809526
 40
0.4761904761904764
 40
0.4761904761904764
 40
0.4761904761904764
 40
0.4761904761904764
 40
0.5000000000000002
 40
0.5000000000000002
 40
0.5000000000000002
 40
0.5000000000000002
 40
0.5238095238095241
 40
0.5238095238095241
 40
0.5238095238095241
 40
0.5238095238095241
 40
0.5476190476190479
 40
0.5476190476190479
 40
0.5476190476190479
 40
0.5476190476190479
 40
0.5714285714285717
 40
0.5714285714285717
 40
0.5714285714285717
 40
0.5714285714285717
 40
0.5952380952380956
 40
0.5952380952380956
 40
0.5952380952380956
 40
0.5952380952380956
 40
0.6190476190476194
 40
0.6190476190476194
 40
0.6190476190476194
 40
0.6190476190476194
 40
0.6428571428571432
 40
0.6428571428571432
 40
0.6428571428571432
 40
0.6428571428571432
 40
0.6666666666666671
 40
0.6666666666666671
 40
0.6666666666666671
 40
0.6666666666666671
 40
0.6904761904761909
 40
0.6904761904761909
 40
0.6904761904761909
 40
0.6904761904761909
 40
0.7142857142857148
 40
0.7142857142857148
 40
0.7142857142857148
 40
0.7142857142857148
 40
0.7380952380952386
 40
0.7380952380952386
 40
0.7380952380952386
 40
0.7380952380952386
 40
0.7619047619047624
 40
0.7619047619047624
 40
0.7619047619047624
 40
0.7619047619047624
 40
0.7857142857142863
 40
0.7857142857142863
 40
0.7857142857142863
 40
0.7857142857142863
 40
0.8095238095238101
 40
0.8095238095238101
 40
0.8095238095238101
 40
0.8095238095238101
 40
0.8333333333333339
 40
0.8333333333333339
 40
0.8333333333333339
 40
0.8333333333333339
 40
0.8571428571428578
 40
0.8571428571428578
 40
0.8571428571428578
 40
0.8571428571428578
 40
0.8809523809523816
 40
0.8809523809523816
 40
0.8809523809523816
 40
0.8809523809523816
 40
0.9047619047619054
 40
0.9047619047619054
 40
0.9047619047619054
 40
0.9047619047619054
 40
0.9285714285714293
 40
0.9285714285714293
 40
0.9285714285714293
 40
0.9285714285714293
 40
0.9523809523809531
 40
0.9523809523809531
 40
0.9523809523809531
 40
0.9523809523809531
 40
0.9761904761904769
 40
0.9761904761904769
 40
0.9761904761904769
 40
0.9761904761904769
 40
1.0
 40
1.0
 40
1.0
 40
1.0
 10
0.2092086614173228
 20
1.238885826771654
 30
0.0
 10
0.2092086614173228
 20
1.238885826771654
 30
0.0
 10
0.2014015748031496
 20
1.240110236220473
 30
0.0
 10
0.2014015748031496
 20
1.240110236220473
 30
0.0
 10
0.2014015748031496
 20
1.240110236220473
 30
0.0
 10
0.2020984251968504
 20
1.245968503937008
 30
0.0
 10
0.2036259842519685
 20
1.250830708661417
 30
0.0
 10
0.2059606299212599
 20
1.254692913385827
 30
0.0
 10
0.2059606299212599
 20
1.254692913385827
 30
0.0
 10
0.2090433070866142
 20
1.259885826771654
 30
0.0
 10
0.2134015748031496
 20
1.26394094488189
 30
0.0
 10
0.2190433070866142
 20
1.266830708661417
 30
0.0
 10
0.2190433070866142
 20
1.266830708661417
 30
0.0
 10
0.2247086614173229
 20
1.269748031496063
 30
0.0
 10
0.2311811023622047
 20
1.271192913385827
 30
0.0
 10
0.2385157480314961
 20
1.271192913385827
 30
0.0
 10
0.2385157480314961
 20
1.271192913385827
 30
0.0
 10
0.2457086614173228
 20
1.271192913385827
 30
0.0
 10
0.2520708661417323
 20
1.269913385826772
 30
0.0
 10
0.2575433070866142
 20
1.267330708661417
 30
0.0
 10
0.2575433070866142
 20
1.267330708661417
 30
0.0
 10
0.2630157480314961
 20
1.264748031496063
 30
0.0
 10
0.2671535433070866
 20
1.261330708661417
 30
0.0
 10
0.2699566929133858
 20
1.257082677165354
 30
0.0
 10
0.2699566929133858
 20
1.257082677165354
 30
0.0
 10
0.2727637795275591
 20
1.252830708661417
 30
0.0
 10
0.2741535433070866
 20
1.248220472440945
 30
0.0
 10
0.2741535433070866
 20
1.243275590551181
 30
0.0
 10
0.2741535433070866
 20
1.243275590551181
 30
0.0
 10
0.2741535433070866
 20
1.23894094488189
 30
0.0
 10
0.2730984251968504
 20
1.235055118110236
 30
0.0
 10
0.270984251968504
 20
1.231637795275591
 30
0.0
 10
0.270984251968504
 20
1.231637795275591
 30
0.0
 10
0.2688464566929134
 20
1.228220472440945
 30
0.0
 10
0.2657086614173229
 20
1.225165354330709
 30
0.0
 10
0.2615433070866142
 20
1.22244094488189
 30
0.0
 10
0.2615433070866142
 20
1.22244094488189
 30
0.0
 10
0.2585984251968504
 20
1.220555118110236
 30
0.0
 10
0.2547913385826772
 20
1.218885826771654
 30
0.0
 10
0.2500708661417323
 20
1.217496062992126
 30
0.0
 10
0.2500708661417323
 20
1.217496062992126
 30
0.0
 10
0.2550984251968504
 20
1.216775590551181
 30
0.0
 10
0.2592362204724409
 20
1.215610236220473
 30
0.0
 10
0.2624291338582677
 20
1.213996062992126
 30
0.0
 10
0.2624291338582677
 20
1.213996062992126
 30
0.0
 10
0.2676259842519685
 20
1.211330708661417
 30
0.0
 10
0.271736220472441
 20
1.207665354330709
 30
0.0
 10
0.2747086614173229
 20
1.202996062992126
 30
0.0
 10
0.2747086614173229
 20
1.202996062992126
 30
0.0
 10
0.2777086614173229
 20
1.198330708661417
 30
0.0
 10
0.2791811023622047
 20
1.193220472440945
 30
0.0
 10
0.2791811023622047
 20
1.187610236220473
 30
0.0
 10
0.2791811023622047
 20
1.187610236220473
 30
0.0
 10
0.2791811023622047
 20
1.178665354330709
 30
0.0
 10
0.275263779527559
 20
1.170775590551181
 30
0.0
 10
0.2674015748031496
 20
1.163968503937008
 30
0.0
 10
0.2674015748031496
 20
1.163968503937008
 30
0.0
 10
0.2595157480314961
 20
1.157165354330709
 30
0.0
 10
0.2493464566929134
 20
1.153775590551181
 30
0.0
 10
0.2368740157480315
 20
1.153775590551181
 30
0.0
 10
0.2368740157480315
 20
1.153775590551181
 30
0.0
 10
0.2245708661417323
 20
1.153775590551181
 30
0.0
 10
0.2142086614173228
 20
1.157055118110236
 30
0.0
 10
0.2057913385826772
 20
1.163610236220473
 30
0.0
 10
0.2057913385826772
 20
1.163610236220473
 30
0.0
 10
0.1987362204724409
 20
1.169192913385827
 30
0.0
 10
0.1952086614173229
 20
1.174830708661417
 30
0.0
 10
0.1952086614173229
 20
1.180468503937008
 30
0.0
 10
0.1952086614173229
 20
1.180468503937008
 30
0.0
 10
0.1952086614173229
 20
1.182692913385827
 30
0.0
 10
0.1959330708661417
 20
1.184555118110236
 30
0.0
 10
0.1973740157480315
 20
1.186027559055118
 30
0.0
 10
0.1973740157480315
 20
1.186027559055118
 30
0.0
 10
0.1987913385826772
 20
1.187527559055118
 30
0.0
 10
0.2005984251968504
 20
1.188275590551181
 30
0.0
 10
0.2027913385826772
 20
1.188275590551181
 30
0.0
 10
0.2027913385826772
 20
1.188275590551181
 30
0.0
 10
0.2051535433070866
 20
1.188275590551181
 30
0.0
 10
0.2072086614173228
 20
1.187358267716536
 30
0.0
 10
0.2088740157480315
 20
1.185496062992126
 30
0.0
 10
0.2088740157480315
 20
1.185496062992126
 30
0.0
 10
0.2097913385826772
 20
1.184468503937008
 30
0.0
 10
0.2108740157480315
 20
1.182
 30
0.0
 10
0.2120433070866142
 20
1.178110236220473
 30
0.0
 10
0.2120433070866142
 20
1.178110236220473
 30
0.0
 10
0.213736220472441
 20
1.172610236220472
 30
0.0
 10
0.2165984251968504
 20
1.16844094488189
 30
0.0
 10
0.2205984251968504
 20
1.165582677165354
 30
0.0
 10
0.2205984251968504
 20
1.165582677165354
 30
0.0
 10
0.2246259842519685
 20
1.162692913385827
 30
0.0
 10
0.2295984251968504
 20
1.161248031496063
 30
0.0
 10
0.2355708661417323
 20
1.161248031496063
 30
0.0
 10
0.2355708661417323
 20
1.161248031496063
 30
0.0
 10
0.2409015748031496
 20
1.161248031496063
 30
0.0
 10
0.2456535433070866
 20
1.162413385826772
 30
0.0
 10
0.2498464566929134
 20
1.164748031496063
 30
0.0
 10
0.2498464566929134
 20
1.164748031496063
 30
0.0
 10
0.2540708661417323
 20
1.167082677165354
 30
0.0
 10
0.2573740157480315
 20
1.170385826771654
 30
0.0
 10
0.2598188976377953
 20
1.174692913385827
 30
0.0
 10
0.2598188976377953
 20
1.174692913385827
 30
0.0
 10
0.2622637795275591
 20
1.178968503937008
 30
0.0
 10
0.2634881889763779
 20
1.183665354330709
 30
0.0
 10
0.2634881889763779
 20
1.188748031496063
 30
0.0
 10
0.2634881889763779
 20
1.188748031496063
 30
0.0
 10
0.2634881889763779
 20
1.192885826771654
 30
0.0
 10
0.2625984251968504
 20
1.196582677165354
 30
0.0
 10
0.2608464566929134
 20
1.199858267716536
 30
0.0
 10
0.2608464566929134
 20
1.199858267716536
 30
0.0
 10
0.2590708661417323
 20
1.203165354330709
 30
0.0
 10
0.2565708661417323
 20
1.20594094488189
 30
0.0
 10
0.2533188976377953
 20
1.208220472440945
 30
0.0
 10
0.2533188976377953
 20
1.208220472440945
 30
0.0
 10
0.2508188976377953
 20
1.209996062992126
 30
0.0
 10
0.2476259842519685
 20
1.211248031496063
 30
0.0
 10
0.2437637795275591
 20
1.21194094488189
 30
0.0
 10
0.2437637795275591
 20
1.21194094488189
 30
0.0
 10
0.2398740157480315
 20
1.212665354330709
 30
0.0
 10
0.2363740157480315
 20
1.213023622047244
 30
0.0
 10
0.2332913385826772
 20
1.213023622047244
 30
0.0
 10
0.2332913385826772
 20
1.213023622047244
 30
0.0
 10
0.2332913385826772
 20
1.213023622047244
 30
0.0
 10
0.225736220472441
 20
1.213023622047244
 30
0.0
 10
0.225736220472441
 20
1.213023622047244
 30
0.0
 10
0.225736220472441
 20
1.213023622047244
 30
0.0
 10
0.225736220472441
 20
1.213023622047244
 30
0.0
 10
0.225736220472441
 20
1.220913385826772
 30
0.0
 10
0.225736220472441
 20
1.220913385826772
 30
0.0
 10
0.225736220472441
 20
1.220913385826772
 30
0.0
 10
0.225736220472441
 20
1.220913385826772
 30
0.0
 10
0.2305433070866142
 20
1.220913385826772
 30
0.0
 10
0.2305433070866142
 20
1.220913385826772
 30
0.0
 10
0.2305433070866142
 20
1.220913385826772
 30
0.0
 10
0.2352913385826772
 20
1.220913385826772
 30
0.0
 10
0.2398464566929134
 20
1.221468503937008
 30
0.0
 10
0.2442086614173228
 20
1.222582677165354
 30
0.0
 10
0.2442086614173228
 20
1.222582677165354
 30
0.0
 10
0.2485433070866142
 20
1.223692913385827
 30
0.0
 10
0.2520157480314961
 20
1.225968503937008
 30
0.0
 10
0.2546259842519685
 20
1.22944094488189
 30
0.0
 10
0.2546259842519685
 20
1.22944094488189
 30
0.0
 10
0.2572086614173229
 20
1.232913385826772
 30
0.0
 10
0.2585157480314961
 20
1.236858267716535
 30
0.0
 10
0.2585157480314961
 20
1.241248031496063
 30
0.0
 10
0.2585157480314961
 20
1.241248031496063
 30
0.0
 10
0.2585157480314961
 20
1.245051181102362
 30
0.0
 10
0.2576259842519685
 20
1.248468503937008
 30
0.0
 10
0.2557913385826772
 20
1.251496062992126
 30
0.0
 10
0.2557913385826772
 20
1.251496062992126
 30
0.0
 10
0.253988188976378
 20
1.254551181102362
 30
0.0
 10
0.2513188976377953
 20
1.256968503937008
 30
0.0
 10
0.2477913385826772
 20
1.258748031496063
 30
0.0
 10
0.2477913385826772
 20
1.258748031496063
 30
0.0
 10
0.2442637795275591
 20
1.260523622047244
 30
0.0
 10
0.2401811023622048
 20
1.26144094488189
 30
0.0
 10
0.2355708661417323
 20
1.26144094488189
 30
0.0
 10
0.2355708661417323
 20
1.26144094488189
 30
0.0
 10
0.2310708661417323
 20
1.26144094488189
 30
0.0
 10
0.2269291338582677
 20
1.260496062992126
 30
0.0
 10
0.2231535433070866
 20
1.258665354330709
 30
0.0
 10
0.2231535433070866
 20
1.258665354330709
 30
0.0
 10
0.2194015748031496
 20
1.256830708661417
 30
0.0
 10
0.2163740157480315
 20
1.254358267716536
 30
0.0
 10
0.2140984251968504
 20
1.251248031496063
 30
0.0
 10
0.2140984251968504
 20
1.251248031496063
 30
0.0
 10
0.2118188976377953
 20
1.248165354330709
 30
0.0
 10
0.2101811023622047
 20
1.244051181102362
 30
0.0
 10
0.2092086614173228
 20
1.238885826771654
 30
0.0
  0
SPLINE
  5
90
330
1F
100
AcDbEntity
  8
Layer 1
 62
   250
100
AcDbSpline
210
0.0
220
0.0
230
1.0
 70
    11
 71
     3
 72
    60
 73
    56
 74
     0
 42
0.0000000001
 43
0.0000000001
 40
0.0
 40
0.0
 40
0.0
 40
0.0
 40
0.0714285714285714
 40
0.0714285714285714
 40
0.0714285714285714
 40
0.0714285714285714
 40
0.1428571428571429
 40
0.1428571428571429
 40
0.1428571428571429
 40
0.1428571428571429
 40
0.2142857142857143
 40
0.2142857142857143
 40
0.2142857142857143
 40
0.2142857142857143
 40
0.2857142857142857
 40
0.2857142857142857
 40
0.2857142857142857
 40
0.2857142857142857
 40
0.3571428571428571
 40
0.3571428571428571
 40
0.3571428571428571
 40
0.3571428571428571
 40
0.4285714285714285
 40
0.4285714285714285
 40
0.4285714285714285
 40
0.4285714285714285
 40
0.4999999999999999
 40
0.4999999999999999
 40
0.4999999999999999
 40
0.4999999999999999
 40
0.5714285714285713
 40
0.5714285714285713
 40
0.5714285714285713
 40
0.5714285714285713
 40
0.6428571428571427
 40
0.6428571428571427
 40
0.6428571428571427
 40
0.6428571428571427
 40
0.7142857142857141
 40
0.7142857142857141
 40
0.7142857142857141
 40
0.7142857142857141
 40
0.7857142857142855
 40
0.7857142857142855
 40
0.7857142857142855
 40
0.7857142857142855
 40
0.8571428571428569
 40
0.8571428571428569
 40
0.8571428571428569
 40
0.8571428571428569
 40
0.9285714285714283
 40
0.9285714285714283
 40
0.9285714285714283
 40
0.9285714285714283
 40
1.0
 40
1.0
 40
1.0
 40
1.0
 10
0.3005984251968504
 20
1.227165354330709
 30
0.0
 10
0.3005984251968504
 20
1.227165354330709
 30
0.0
 10
0.2962086614173228
 20
1.232555118110236
 30
0.0
 10
0.2962086614173228
 20
1.232555118110236
 30
0.0
 10
0.2962086614173228
 20
1.232555118110236
 30
0.0
 10
0.3073228346456693
 20
1.241610236220472
 30
0.0
 10
0.3129055118110236
 20
1.249165354330709
 30
0.0
 10
0.3129055118110236
 20
1.255248031496063
 30
0.0
 10
0.3129055118110236
 20
1.255248031496063
 30
0.0
 10
0.3129055118110236
 20
1.25594094488189
 30
0.0
 10
0.3128503937007874
 20
1.256830708661417
 30
0.0
 10
0.312736220472441
 20
1.257858267716536
 30
0.0
 10
0.312736220472441
 20
1.257858267716536
 30
0.0
 10
0.3118228346456693
 20
1.257468503937008
 30
0.0
 10
0.3109055118110237
 20
1.257165354330709
 30
0.0
 10
0.3100433070866142
 20
1.256968503937008
 30
0.0
 10
0.3100433070866142
 20
1.256968503937008
 30
0.0
 10
0.3091811023622048
 20
1.256748031496063
 30
0.0
 10
0.3083779527559055
 20
1.256637795275591
 30
0.0
 10
0.3075984251968504
 20
1.256637795275591
 30
0.0
 10
0.3075984251968504
 20
1.256637795275591
 30
0.0
 10
0.304988188976378
 20
1.256637795275591
 30
0.0
 10
0.3029055118110237
 20
1.257468503937008
 30
0.0
 10
0.3013503937007874
 20
1.259165354330709
 30
0.0
 10
0.3013503937007874
 20
1.259165354330709
 30
0.0
 10
0.2997637795275591
 20
1.260830708661417
 30
0.0
 10
0.298988188976378
 20
1.262968503937008
 30
0.0
 10
0.298988188976378
 20
1.265582677165354
 30
0.0
 10
0.298988188976378
 20
1.265582677165354
 30
0.0
 10
0.298988188976378
 20
1.268137795275591
 30
0.0
 10
0.2999330708661417
 20
1.270358267716536
 30
0.0
 10
0.3018228346456693
 20
1.272248031496063
 30
0.0
 10
0.3018228346456693
 20
1.272248031496063
 30
0.0
 10
0.303736220472441
 20
1.274165354330709
 30
0.0
 10
0.3060157480314961
 20
1.275110236220473
 30
0.0
 10
0.3086535433070866
 20
1.275110236220473
 30
0.0
 10
0.3086535433070866
 20
1.275110236220473
 30
0.0
 10
0.3123503937007874
 20
1.275110236220473
 30
0.0
 10
0.3155157480314961
 20
1.273637795275591
 30
0.0
 10
0.3181535433070866
 20
1.270665354330709
 30
0.0
 10
0.3181535433070866
 20
1.270665354330709
 30
0.0
 10
0.3207637795275591
 20
1.267720472440945
 30
0.0
 10
0.3220984251968504
 20
1.263913385826772
 30
0.0
 10
0.3220984251968504
 20
1.259248031496063
 30
0.0
 10
0.3220984251968504
 20
1.259248031496063
 30
0.0
 10
0.3220984251968504
 20
1.256192913385827
 30
0.0
 10
0.3214606299212598
 20
1.252996062992126
 30
0.0
 10
0.3202086614173229
 20
1.249665354330709
 30
0.0
 10
0.3202086614173229
 20
1.249665354330709
 30
0.0
 10
0.3189606299212598
 20
1.246330708661417
 30
0.0
 10
0.3171535433070866
 20
1.243248031496063
 30
0.0
 10
0.3147637795275591
 20
1.240385826771654
 30
0.0
 10
0.3147637795275591
 20
1.240385826771654
 30
0.0
 10
0.3123779527559055
 20
1.237555118110236
 30
0.0
 10
0.3076535433070866
 20
1.233137795275591
 30
0.0
 10
0.3005984251968504
 20
1.227165354330709
 30
0.0
  0
SPLINE
  5
91
330
1F
100
AcDbEntity
  8
Layer 1
 62
   250
100
AcDbSpline
210
0.0
220
0.0
230
1.0
 70
    11
 71
     3
 72
    60
 73
    56
 74
     0
 42
0.0000000001
 43
0.0000000001
 40
0.0
 40
0.0
 40
0.0
 40
0.0
 40
0.0714285714285714
 40
0.0714285714285714
 40
0.0714285714285714
 40
0.0714285714285714
 40
0.1428571428571429
 40
0.1428571428571429
 40
0.1428571428571429
 40
0.1428571428571429
 40
0.2142857142857143
 40
0.2142857142857143
 40
0.2142857142857143
 40
0.2142857142857143
 40
0.2857142857142857
 40
0.2857142857142857
 40
0.2857142857142857
 40
0.2857142857142857
 40
0.3571428571428571
 40
0.3571428571428571
 40
0.3571428571428571
 40
0.3571428571428571
 40
0.4285714285714285
 40
0.4285714285714285
 40
0.4285714285714285
 40
0.4285714285714285
 40
0.4999999999999999
 40
0.4999999999999999
 40
0.4999999999999999
 40
0.4999999999999999
 40
0.5714285714285713
 40
0.5714285714285713
 40
0.5714285714285713
 40
0.5714285714285713
 40
0.6428571428571427
 40
0.6428571428571427
 40
0.6428571428571427
 40
0.6428571428571427
 40
0.7142857142857141
 40
0.7142857142857141
 40
0.7142857142857141
 40
0.7142857142857141
 40
0.7857142857142855
 40
0.7857142857142855
 40
0.7857142857142855
 40
0.7857142857142855
 40
0.8571428571428569
 40
0.8571428571428569
 40
0.8571428571428569
 40
0.8571428571428569
 40
0.9285714285714283
 40
0.9285714285714283
 40
0.9285714285714283
 40
0.9285714285714283
 40
1.0
 40
1.0
 40
1.0
 40
1.0
 10
0.3296535433070866
 20
1.227165354330709
 30
0.0
 10
0.3296535433070866
 20
1.227165354330709
 30
0.0
 10
0.3252637795275591
 20
1.232555118110236
 30
0.0
 10
0.3252637795275591
 20
1.232555118110236
 30
0.0
 10
0.3252637795275591
 20
1.232555118110236
 30
0.0
 10
0.3363779527559055
 20
1.241610236220472
 30
0.0
 10
0.3419606299212599
 20
1.249165354330709
 30
0.0
 10
0.3419606299212599
 20
1.255248031496063
 30
0.0
 10
0.3419606299212599
 20
1.255248031496063
 30
0.0
 10
0.3419606299212599
 20
1.25594094488189
 30
0.0
 10
0.3419055118110236
 20
1.256830708661417
 30
0.0
 10
0.3417913385826772
 20
1.257858267716536
 30
0.0
 10
0.3417913385826772
 20
1.257858267716536
 30
0.0
 10
0.3408779527559055
 20
1.257468503937008
 30
0.0
 10
0.3399606299212599
 20
1.257165354330709
 30
0.0
 10
0.3390984251968504
 20
1.256968503937008
 30
0.0
 10
0.3390984251968504
 20
1.256968503937008
 30
0.0
 10
0.338236220472441
 20
1.256748031496063
 30
0.0
 10
0.3374055118110236
 20
1.256637795275591
 30
0.0
 10
0.3365708661417323
 20
1.256637795275591
 30
0.0
 10
0.3365708661417323
 20
1.256637795275591
 30
0.0
 10
0.3340157480314961
 20
1.256637795275591
 30
0.0
 10
0.3319606299212599
 20
1.257468503937008
 30
0.0
 10
0.3304055118110236
 20
1.259165354330709
 30
0.0
 10
0.3304055118110236
 20
1.259165354330709
 30
0.0
 10
0.3288228346456693
 20
1.260830708661417
 30
0.0
 10
0.3280433070866142
 20
1.262968503937008
 30
0.0
 10
0.3280433070866142
 20
1.265582677165354
 30
0.0
 10
0.3280433070866142
 20
1.265582677165354
 30
0.0
 10
0.3280433070866142
 20
1.268137795275591
 30
0.0
 10
0.3289881889763779
 20
1.270358267716536
 30
0.0
 10
0.3308779527559055
 20
1.272248031496063
 30
0.0
 10
0.3308779527559055
 20
1.272248031496063
 30
0.0
 10
0.3327637795275591
 20
1.274165354330709
 30
0.0
 10
0.3350708661417323
 20
1.275110236220473
 30
0.0
 10
0.3377086614173229
 20
1.275110236220473
 30
0.0
 10
0.3377086614173229
 20
1.275110236220473
 30
0.0
 10
0.3414055118110236
 20
1.275110236220473
 30
0.0
 10
0.3445708661417323
 20
1.273637795275591
 30
0.0
 10
0.3472086614173229
 20
1.270665354330709
 30
0.0
 10
0.3472086614173229
 20
1.270665354330709
 30
0.0
 10
0.3498188976377953
 20
1.267720472440945
 30
0.0
 10
0.3511535433070867
 20
1.263913385826772
 30
0.0
 10
0.3511535433070867
 20
1.259248031496063
 30
0.0
 10
0.3511535433070867
 20
1.259248031496063
 30
0.0
 10
0.3511535433070867
 20
1.256192913385827
 30
0.0
 10
0.3505157480314961
 20
1.252996062992126
 30
0.0
 10
0.3492637795275591
 20
1.249665354330709
 30
0.0
 10
0.3492637795275591
 20
1.249665354330709
 30
0.0
 10
0.3480157480314961
 20
1.246330708661417
 30
0.0
 10
0.3462086614173229
 20
1.243248031496063
 30
0.0
 10
0.3438228346456693
 20
1.240385826771654
 30
0.0
 10
0.3438228346456693
 20
1.240385826771654
 30
0.0
 10
0.3414330708661417
 20
1.237555118110236
 30
0.0
 10
0.3367086614173229
 20
1.233137795275591
 30
0.0
 10
0.3296535433070866
 20
1.227165354330709
 30
0.0
  0
ENDSEC
  0
SECTION
  2
OBJECTS
  0
DICTIONARY
  5
C
330
0
100
AcDbDictionary
281
     1
  3
ACAD_GROUP
350
D
  3
ACAD_LAYOUT
350
1A
  3
ACAD_MLINESTYLE
350
17
  3
ACAD_PLOTSETTINGS
350
19
  3
ACAD_PLOTSTYLENAME
350
E
  0
DICTIONARY
  5
D
102
{ACAD_REACTORS
330
C
102
}
330
C
100
AcDbDictionary
281
     1
  0
DICTIONARY
  5
1A
102
{ACAD_REACTORS
330
C
102
}
330
C
100
AcDbDictionary
281
     1
  3
Layout1
350
1E
  3
Layout2
350
26
  3
Model
350
22
  0
DICTIONARY
  5
17
102
{ACAD_REACTORS
330
C
102
}
330
C
100
AcDbDictionary
281
     1
  3
Standard
350
18
  0
DICTIONARY
  5
19
102
{ACAD_REACTORS
330
C
102
}
330
C
100
AcDbDictionary
281
     1
  0
ACDBDICTIONARYWDFLT
  5
E
102
{ACAD_REACTORS
330
C
102
}
330
C
100
AcDbDictionary
281
     1
  3
Normal
350
F
100
AcDbDictionaryWithDefault
340
F
  0
LAYOUT
  5
1E
102
{ACAD_REACTORS
330
1A
102
}
330
1A
100
AcDbPlotSettings
  1

  2

  4

  6

 40
0.0
 41
0.0
 42
0.0
 43
0.0
 44
0.0
 45
0.0
 46
0.0
 47
0.0
 48
0.0
 49
0.0
140
0.0
141
0.0
142
1.0
143
1.0
 70
   688
 72
     0
 73
     0
 74
     5
  7

 75
    16
 76
     0
 77
     2
 78
   300
147
1.0
148
0.0
149
0.0
100
AcDbLayout
  1
Layout1
 70
     1
 71
     1
 10
0.0
 20
0.0
 11
12.0
 21
9.0
 12
0.0
 22
0.0
 32
0.0
 14
1.000000000000000E+20
 24
1.000000000000000E+20
 34
1.000000000000000E+20
 15
-1.000000000000000E+20
 25
-1.000000000000000E+20
 35
-1.000000000000000E+20
146
0.0
 13
0.0
 23
0.0
 33
0.0
 16
1.0
 26
0.0
 36
0.0
 17
0.0
 27
1.0
 37
0.0
 76
     0
330
1B
  0
LAYOUT
  5
26
102
{ACAD_REACTORS
330
1A
102
}
330
1A
100
AcDbPlotSettings
  1

  2

  4

  6

 40
0.0
 41
0.0
 42
0.0
 43
0.0
 44
0.0
 45
0.0
 46
0.0
 47
0.0
 48
0.0
 49
0.0
140
0.0
141
0.0
142
1.0
143
1.0
 70
   688
 72
     0
 73
     0
 74
     5
  7

 75
    16
 76
     0
 77
     2
 78
   300
147
1.0
148
0.0
149
0.0
100
AcDbLayout
  1
Layout2
 70
     1
 71
     2
 10
0.0
 20
0.0
 11
0.0
 21
0.0
 12
0.0
 22
0.0
 32
0.0
 14
0.0
 24
0.0
 34
0.0
 15
0.0
 25
0.0
 35
0.0
146
0.0
 13
0.0
 23
0.0
 33
0.0
 16
1.0
 26
0.0
 36
0.0
 17
0.0
 27
1.0
 37
0.0
 76
     0
330
23
  0
LAYOUT
  5
22
102
{ACAD_REACTORS
330
1A
102
}
330
1A
100
AcDbPlotSettings
  1

  2

  4

  6

 40
0.0
 41
0.0
 42
0.0
 43
0.0
 44
0.0
 45
0.0
 46
0.0
 47
0.0
 48
0.0
 49
0.0
140
0.0
141
0.0
142
1.0
143
1.0
 70
  1712
 72
     0
 73
     0
 74
     0
  7

 75
     0
 76
     0
 77
     2
 78
   300
147
1.0
148
0.0
149
0.0
100
AcDbLayout
  1
Model
 70
     1
 71
     0
 10
0.0
 20
0.0
 11
0.0
 21
0.0
 12
0.0
 22
0.0
 32
0.0
 14
-1.995531496062992
 24
-2.824740157480315
 34
0.0
 15
1.679362204724409
 25
3.476248031496063
 35
0.0
146
0.0
 13
0.0
 23
0.0
 33
0.0
 16
1.0
 26
0.0
 36
0.0
 17
0.0
 27
1.0
 37
0.0
 76
     0
330
1F
  0
MLINESTYLE
  5
18
102
{ACAD_REACTORS
330
17
102
}
330
17
100
AcDbMlineStyle
  2
Standard
 70
     0
  3

 62
   256
 51
90.0
 52
90.0
 71
     2
 49
0.5
 62
   256
  6
BYLAYER
 49
-0.5
 62
   256
  6
BYLAYER
  0
ACDBPLACEHOLDER
  5
F
102
{ACAD_REACTORS
330
E
102
}
330
E
  0
ENDSEC
  0
EOF
