  0
SECTION
  2
HEADER
  9
$ACADVER
  1
AC1014
  9
$ACADMAINTVER
 70
     0
  9
$DWGCODEPAGE
  3
DOS850
  9
$INSBASE
 10
0.0
 20
0.0
 30
0.0
  9
$EXTMIN
 10
-1.169205
 20
-1.686024
 30
1.000000E+20
  9
$EXTMAX
 10
1.954894
 20
4.497126
 30
-1.000000E+20
  9
$LIMMIN
 10
0.0
 20
0.0
  9
$LIMMAX
 10
0.0
 20
0.0
  9
$ORTHOMODE
 70
     0
  9
$REGENMODE
 70
     1
  9
$FILLMODE
 70
     1
  9
$QTEXTMODE
 70
     0
  9
$MIRRTEXT
 70
     1
  9
$DRAGMODE
 70
     2
  9
$LTSCALE
 40
1.0
  9
$OSMODE
 70
     0
  9
$ATTMODE
 70
     1
  9
$TEXTSIZE
 40
0.2
  9
$TRACEWID
 40
0.05
  9
$TEXTSTYLE
  7
STANDARD
  9
$CLAYER
  8
0
  9
$CELTYPE
  6
CONTINUOUS
  9
$CECOLOR
 62
   256
  9
$CELTSCALE
 40
1.0
  9
$DELOBJ
 70
     1
  9
$DISPSILH
 70
     0
  9
$DIMSCALE
 40
1.0
  9
$DIMASZ
 40
0.18
  9
$DIMEXO
 40
0.0625
  9
$DIMDLI
 40
0.38
  9
$DIMRND
 40
0.0
  9
$DIMDLE
 40
0.0
  9
$DIMEXE
 40
0.18
  9
$DIMTP
 40
0.0
  9
$DIMTM
 40
0.0
  9
$DIMTXT
 40
0.18
  9
$DIMCEN
 40
0.09
  9
$DIMTSZ
 40
0.0
  9
$DIMTOL
 70
     0
  9
$DIMLIM
 70
     0
  9
$DIMTIH
 70
     1
  9
$DIMTOH
 70
     1
  9
$DIMSE1
 70
     0
  9
$DIMSE2
 70
     0
  9
$DIMTAD
 70
     0
  9
$DIMZIN
 70
     0
  9
$DIMBLK
  1

  9
$DIMASO
 70
     1
  9
$DIMSHO
 70
     1
  9
$DIMPOST
  1

  9
$DIMAPOST
  1

  9
$DIMALT
 70
     0
  9
$DIMALTD
 70
     2
  9
$DIMALTF
 40
25.4
  9
$DIMLFAC
 40
1.0
  9
$DIMTOFL
 70
     0
  9
$DIMTVP
 40
0.0
  9
$DIMTIX
 70
     0
  9
$DIMSOXD
 70
     0
  9
$DIMSAH
 70
     0
  9
$DIMBLK1
  1

  9
$DIMBLK2
  1

  9
$DIMSTYLE
  2
STANDARD
  9
$DIMCLRD
 70
     0
  9
$DIMCLRE
 70
     0
  9
$DIMCLRT
 70
     0
  9
$DIMTFAC
 40
1.0
  9
$DIMGAP
 40
0.09
  9
$DIMJUST
 70
     0
  9
$DIMSD1
 70
     0
  9
$DIMSD2
 70
     0
  9
$DIMTOLJ
 70
     1
  9
$DIMTZIN
 70
     0
  9
$DIMALTZ
 70
     0
  9
$DIMALTTZ
 70
     0
  9
$DIMFIT
 70
     3
  9
$DIMUPT
 70
     0
  9
$DIMUNIT
 70
     2
  9
$DIMDEC
 70
     4
  9
$DIMTDEC
 70
     4
  9
$DIMALTU
 70
     2
  9
$DIMALTTD
 70
     2
  9
$DIMTXSTY
  7
STANDARD
  9
$DIMAUNIT
 70
     0
  9
$LUNITS
 70
     2
  9
$LUPREC
 70
     4
  9
$SKETCHINC
 40
0.1
  9
$FILLETRAD
 40
0.0
  9
$AUNITS
 70
     0
  9
$AUPREC
 70
     0
  9
$MENU
  1
acad
  9
$ELEVATION
 40
0.0
  9
$PELEVATION
 40
0.0
  9
$THICKNESS
 40
0.0
  9
$LIMCHECK
 70
     0
  9
$BLIPMODE
 70
     1
  9
$CHAMFERA
 40
0.0
  9
$CHAMFERB
 40
0.0
  9
$CHAMFERC
 40
0.0
  9
$CHAMFERD
 40
0.0
  9
$SKPOLY
 70
     0
  9
$TDCREATE
 40
0.000000000
  9
$TDUPDATE
 40
0.000000000
  9
$TDINDWG
 40
0.0000000000
  9
$TDUSRTIMER
 40
0.0000000000
  9
$USRTIMER
 70
     1
  9
$ANGBASE
 50
0.0
  9
$ANGDIR
 70
     0
  9
$PDMODE
 70
     0
  9
$PDSIZE
 40
0.0
  9
$PLINEWID
 40
0.0
  9
$COORDS
 70
     0
  9
$SPLFRAME
 70
     0
  9
$SPLINETYPE
 70
     6
  9
$SPLINESEGS
 70
     8
  9
$ATTDIA
 70
     0
  9
$ATTREQ
 70
     1
  9
$HANDLING
 70
     1
  9
$HANDSEED
  5
B0
  9
$SURFTAB1
 70
     6
  9
$SURFTAB2
 70
     6
  9
$SURFTYPE
 70
     6
  9
$SURFU
 70
     6
  9
$SURFV
 70
     6
  9
$UCSNAME
  2

  9
$UCSORG
 10
0.0
 20
0.0
 30
0.0
  9
$UCSXDIR
 10
1.0
 20
0.0
 30
0.0
  9
$UCSYDIR
 10
0.0
 20
1.0
 30
0.0
  9
$PUCSNAME
  2

  9
$PUCSORG
 10
0.0
 20
0.0
 30
0.0
  9
$PUCSXDIR
 10
1.0
 20
0.0
 30
0.0
  9
$PUCSYDIR
 10
0.0
 20
1.0
 30
0.0
  9
$USERI1
 70
     0
  9
$USERI2
 70
     0
  9
$USERI3
 70
     0
  9
$USERI4
 70
     0
  9
$USERI5
 70
     0
  9
$USERR1
 40
0.0
  9
$USERR2
 40
0.0
  9
$USERR3
 40
0.0
  9
$USERR4
 40
0.0
  9
$USERR5
 40
0.0
  9
$WORLDVIEW
 70
     1
  9
$SHADEDGE
 70
     3
  9
$SHADEDIF
 70
    70
  9
$TILEMODE
 70
     1
  9
$MAXACTVP
 70
    16
  9
$PINSBASE
 10
0.0
 20
0.0
 30
0.0
  9
$PLIMCHECK
 70
     0
  9
$PEXTMIN
 10
1.000000E+20
 20
1.000000E+20
 30
1.000000E+20
  9
$PEXTMAX
 10
-1.000000E+20
 20
-1.000000E+20
 30
-1.000000E+20
  9
$PLIMMIN
 10
0.0
 20
0.0
  9
$PLIMMAX
 10
12.0
 20
9.0
  9
$UNITMODE
 70
     0
  9
$VISRETAIN
 70
     0
  9
$PLINEGEN
 70
     1
  9
$PSLTSCALE
 70
     0
  9
$TREEDEPTH
 70
  3020
  9
$PICKSTYLE
 70
     1
  9
$CMLSTYLE
  2
STANDARD
  9
$CMLJUST
 70
     0
  9
$CMLSCALE
 40
1.0
  9
$PROXYGRAPHICS
 70
     0
  9
$MEASUREMENT
 70
     0
  0
ENDSEC
  0
SECTION
  2
CLASSES
  0
CLASS
  1
LWPOLYLINE
  2
AcDbPolyline
  3
"AutoCAD"
 90
        0
280
     0
281
     1
  0
CLASS
  1
IMAGE
  2
AcDbRasterImage
  3
ISM
 90
      127
280
     0
281
     1
  0
CLASS
  1
OLE2FRAME
  2
AcDbOle2Frame
  3
""
 90
        0
280
     0
281
     1
  0
CLASS
  1
HATCH
  2
AcDbHatch
  3
"ACAD_SEDONA"
 90
        0
280
     0
281
     1
  0
CLASS
  1
DICTIONARYVAR
  2
AcDbDictionaryVar
  3
"AutoCAD"
 90
        0
280
     0
281
     0
  0
CLASS
  1
RASTERVARIABLES
  2
AcDbRasterVariables
  3
ISM
 90
        0
280
     0
281
     0
  0
CLASS
  1
IMAGEDEF
  2
AcDbRasterImageDef
  3
ISM
 90
        0
280
     0
281
     0
  0
CLASS
  1
IMAGEDEF_REACTOR
  2
AcDbRasterImageDefReactor
  3
ISM
 90
        1
280
     0
281
     0
  0
CLASS
  1
IDBUFFER
  2
AcDbIdBuffer
  3
"Acad"
 90
        0
280
     0
281
     0
  0
CLASS
  1
SPATIAL_FILTER
  2
AcDbSpatialFilter
  3
"Acad"
 90
        0
280
     0
281
     0
  0
CLASS
  1
XRECORD
  2
AcDbXrecord
  3
"<Built In>"
 90
        0
280
     0
281
     0
  0
CLASS
  1
SORTENTSTABLE
  2
AcDbSortentsTable
  3
"AutoCAD"
 90
        0
280
     0
281
     0
  0
CLASS
  1
LAYER_INDEX
  2
AcDbLayerIndex
  3
"Acad"
 90
        0
280
     0
281
     0
  0
CLASS
  1
SPATIAL_INDEX
  2
AcDbSpatialIndex
  3
"Acad"
 90
        0
280
     0
281
     0
  0
CLASS
  1
OBJECT_PTR
  2
CAseDLPNTableRecord
  3
"ASE-LPNTableRecord"
 90
        1
280
     0
281
     0
  0
CLASS
  1
LAYOUT
  2
AcDbLayout
  3
"AutoCAD 2000"
 90
        1
280
     0
281
     0
  0
CLASS
  1
PLOTSETTINGS
  2
AcDbPlotSettings
  3
"AutoCAD 2000"
 90
        1
280
     0
281
     0
  0
CLASS
  1
ACDBDICTIONARYWDFLT
  2
AcDbDictionaryWithDefault
  3
"AutoCAD 2000"
 90
        1
280
     0
281
     0
  0
CLASS
  1
ACDBPLACEHOLDER
  2
AcDbPlaceHolder
  3
"AutoCAD 2000"
 90
        1
280
     0
281
     0
  0
CLASS
  1
VBA_PROJECT
  2
AcDbVbaProject
  3
"acadvba"
 90
        1
280
     0
281
     0
  0
CLASS
  1
WIPEOUT
  2
AcDbWipeout
  3
WipeOut|AutoCAD Express Tool|expresstools@autodesk.com
 90
      127
280
     0
281
     1
  0
CLASS
  1
WIPEOUTVARIABLES
  2
AcDbWipeoutVariables
  3
WipeOut|AutoCAD Express Tool|expresstools@autodesk.com
 90
        0
280
     0
281
     0
  0
CLASS
  1
RTEXT
  2
RText
  3
RText|AutoCAD Express Tool|expresstools@autodesk.com
 90
        0
280
     0
281
     1
  0
CLASS
  1
ARCALIGNEDTEXT
  2
AcDbArcAlignedText
  3
ATEXT|AutoCAD Express Tool|expresstools@autodesk.com
 90
        0
280
     0
281
     1
  0
ENDSEC
  0
SECTION
  2
TABLES
  0
TABLE
  2
VPORT
  5
7
100
AcDbSymbolTable
 70
     1
  0
VPORT
  5
15
100
AcDbSymbolTableRecord
100
AcDbViewportTableRecord
  2
*ACTIVE
 70
     0
 10
0.0
 20
0.0
 11
1.0
 21
1.0
 12
6.591288
 22
4.579184
 13
0.0
 23
0.0
 14
1.0
 24
1.0
 15
0.0
 25
0.0
 16
0.0
 26
0.0
 36
1.0
 17
0.0
 27
0.0
 37
0.0
 40
9.158369
 41
0.688564
 42
50.0
 43
0.0
 44
0.0
 50
0.0
 51
0.0
 71
     0
 72
   100
 73
     1
 74
     1
 75
     0
 76
     0
 77
     0
 78
     0
  0
ENDTAB
  0
TABLE
  2
LTYPE
  5
4
100
AcDbSymbolTable
 70
     3
  0
LTYPE
  5
11
100
AcDbSymbolTableRecord
100
AcDbLinetypeTableRecord
  2
BYBLOCK
 70
    64
  3

 72
    65
 73
     0
 40
0.0
  0
LTYPE
  5
12
100
AcDbSymbolTableRecord
100
AcDbLinetypeTableRecord
  2
BYLAYER
 70
    64
  3

 72
    65
 73
     0
 40
0.0
  0
LTYPE
  5
13
100
AcDbSymbolTableRecord
100
AcDbLinetypeTableRecord
  2
CONTINUOUS
 70
    64
  3
Solid line
 72
    65
 73
     0
 40
0.0
  0
ENDTAB
  0
TABLE
  2
LAYER
  5
2
100
AcDbSymbolTable
 70
     2
  0
LAYER
  5
14
100
AcDbSymbolTableRecord
100
AcDbLayerTableRecord
  2
0
 70
     0
 62
     7
  6
CONTINUOUS
  0
LAYER
  5
24
100
AcDbSymbolTableRecord
100
AcDbLayerTableRecord
  2
LAYER_1
 70
     0
 62
     7
  6
CONTINUOUS
  0
ENDTAB
  0
TABLE
  2
STYLE
  5
3
100
AcDbSymbolTable
 70
     2
  0
STYLE
  5
17
100
AcDbSymbolTableRecord
100
AcDbTextStyleTableRecord
  2
STANDARD
 70
     0
 40
0.0
 41
1.0
 50
0.0
 71
     0
 42
0.0
  3
txt
  4

  0
STYLE
  5
26
100
AcDbSymbolTableRecord
100
AcDbTextStyleTableRecord
  2
BOOKMAN_OLD_STYLE
 70
     0
 40
1.0
 41
1.0
 50
0.0
 71
     0
 42
1.0
  3
Bookman Old Style
  4

  0
ENDTAB
  0
TABLE
  2
VIEW
  5
5
100
AcDbSymbolTable
 70
     0
  0
ENDTAB
  0
TABLE
  2
UCS
  5
6
100
AcDbSymbolTable
 70
     0
  0
ENDTAB
  0
TABLE
  2
APPID
  5
8
100
AcDbSymbolTable
 70
     1
  0
APPID
  5
16
100
AcDbSymbolTableRecord
100
AcDbRegAppTableRecord
  2
ACAD
 70
     0
  0
ENDTAB
  0
TABLE
  2
DIMSTYLE
  5
9
100
AcDbSymbolTable
 70
     1
  0
DIMSTYLE
105
18
100
AcDbSymbolTableRecord
100
AcDbDimStyleTableRecord
  2
STANDARD
 70
     0
  3

  4

  5

  6

  7

 40
1.0
 41
0.18
 42
0.0625
 43
0.38
 44
0.18
 45
0.0
 46
0.0
 47
0.0
 48
0.0
 71
     0
 72
     0
 73
     1
 74
     1
 75
     0
 76
     0
 77
     0
 78
     0
140
0.18
141
0.09
142
0.0
143
25.4
144
1.0
145
0.0
146
1.0
147
0.09
170
     0
171
     2
172
     0
173
     0
174
     0
175
     0
176
     0
177
     0
178
     0
270
     2
271
     4
272
     4
273
     2
274
     2
275
     0
280
     0
281
     0
282
     0
283
     1
284
     0
285
     0
286
     0
287
     0
288
     0
340
17
  0
ENDTAB
  0
TABLE
  2
BLOCK_RECORD
  5
1
100
AcDbSymbolTable
 70
     0
  0
BLOCK_RECORD
  5
A
100
AcDbSymbolTableRecord
100
AcDbBlockTableRecord
  2
*MODEL_SPACE
  0
BLOCK_RECORD
  5
B
100
AcDbSymbolTableRecord
100
AcDbBlockTableRecord
  2
*PAPER_SPACE
  0
ENDTAB
  0
ENDSEC
  0
SECTION
  2
BLOCKS
  0
BLOCK
  5
D
100
AcDbEntity
  8
0
100
AcDbBlockBegin
  2
*MODEL_SPACE
 70
     0
 10
0.0
 20
0.0
 30
0.0
  3
*MODEL_SPACE
  1

  0
ENDBLK
  5
E
100
AcDbEntity
  8
0
100
AcDbBlockEnd
  0
BLOCK
  5
F
100
AcDbEntity
 67
     1
  8
0
100
AcDbBlockBegin
  2
*PAPER_SPACE
 70
     0
 10
0.0
 20
0.0
 30
0.0
  3
*PAPER_SPACE
  1

  0
ENDBLK
  5
10
100
AcDbEntity
 67
     1
  8
0
100
AcDbBlockEnd
  0
ENDSEC
  0
SECTION
  2
ENTITIES
  0
SPLINE
  5
25
100
AcDbEntity
  8
LAYER_1
100
AcDbSpline
210
0.0
220
0.0
230
1.0
 70
     1
 71
     3
 72
    40
 73
    36
 74
     0
 42
0.0000000001
 43
0.0000000001
 40
0.0
 40
0.0
 40
0.0
 40
0.0
 40
0.1111111111111111
 40
0.1111111111111111
 40
0.1111111111111111
 40
0.1111111111111111
 40
0.2222222222222222
 40
0.2222222222222222
 40
0.2222222222222222
 40
0.2222222222222222
 40
0.3333333333333333
 40
0.3333333333333333
 40
0.3333333333333333
 40
0.3333333333333333
 40
0.4444444444444444
 40
0.4444444444444444
 40
0.4444444444444444
 40
0.4444444444444444
 40
0.5555555555555556
 40
0.5555555555555556
 40
0.5555555555555556
 40
0.5555555555555556
 40
0.6666666666666667
 40
0.6666666666666667
 40
0.6666666666666667
 40
0.6666666666666667
 40
0.7777777777777779
 40
0.7777777777777779
 40
0.7777777777777779
 40
0.7777777777777779
 40
0.8888888888888891
 40
0.8888888888888891
 40
0.8888888888888891
 40
0.8888888888888891
 40
1.0
 40
1.0
 40
1.0
 40
1.0
 10
-0.7894488188976379
 20
3.9013700787401575
 30
0.0
 10
-0.7894488188976379
 20
3.9013700787401575
 30
0.0
 10
-1.166976377952756
 20
4.2406771653543309
 30
0.0
 10
-1.166976377952756
 20
4.2406771653543309
 30
0.0
 10
-1.166976377952756
 20
4.2406771653543309
 30
0.0
 10
-1.166976377952756
 20
4.2406771653543309
 30
0.0
 10
-0.936232283464567
 20
4.4514212598425198
 30
0.0
 10
-0.936232283464567
 20
4.4514212598425198
 30
0.0
 10
-0.936232283464567
 20
4.4514212598425198
 30
0.0
 10
-0.8964055118110237
 20
4.4904921259842521
 30
0.0
 10
-0.8223346456692914
 20
4.5120708661417321
 30
0.0
 10
-0.7847007874015748
 20
4.4686850393700785
 30
0.0
 10
-0.7847007874015748
 20
4.4686850393700785
 30
0.0
 10
-0.2841614173228347
 20
3.9946220472440945
 30
0.0
 10
-0.2211220472440945
 20
4.7354763779527564
 30
0.0
 10
0.6383937007874017
 20
4.3978661417322833
 30
0.0
 10
0.6383937007874017
 20
4.3978661417322833
 30
0.0
 10
0.6697322834645669
 20
4.4465157480314961
 30
0.0
 10
0.7287283464566929
 20
4.5344448818897636
 30
0.0
 10
0.8542086614173229
 20
4.4347834645669293
 30
0.0
 10
0.8542086614173229
 20
4.4347834645669293
 30
0.0
 10
0.9796929133858268
 20
4.335122047244095
 30
0.0
 10
1.1350157480314962
 20
4.2566299212598429
 30
0.0
 10
1.3828582677165355
 20
4.4949842519685044
 30
0.0
 10
1.3828582677165355
 20
4.4949842519685044
 30
0.0
 10
1.3828582677165355
 20
4.4949842519685044
 30
0.0
 10
1.6235472440944883
 20
4.2314527559055124
 30
0.0
 10
1.6235472440944883
 20
4.2314527559055124
 30
0.0
 10
1.6235472440944883
 20
4.2314527559055124
 30
0.0
 10
1.6235472440944883
 20
4.2314527559055124
 30
0.0
 10
1.2541102362204726
 20
3.9006377952755908
 30
0.0
 10
1.2541102362204726
 20
3.9006377952755908
 30
0.0
 10
1.2541102362204726
 20
3.9006377952755908
 30
0.0
 10
1.2541102362204726
 20
3.9006377952755908
 30
0.0
 10
-0.7894488188976379
 20
3.9013700787401575
 30
0.0
 10
-0.7894488188976379
 20
3.9013700787401575
 30
0.0
  0
TEXT
  5
27
100
AcDbEntity
  8
LAYER_1
100
AcDbText
 10
-0.092402
 20
3.545602
 30
0.0
 40
0.119999
  1
BA  1624
 51
-0.000002
  7
BOOKMAN_OLD_STYLE
100
AcDbText
  0
TEXT
  5
28
100
AcDbEntity
  8
LAYER_1
100
AcDbText
 10
-0.375776
 20
3.358102
 30
0.0
 40
0.119999
  1
11/16\u+201d x 2-3/4\u+201d
 51
-0.000002
  7
BOOKMAN_OLD_STYLE
100
AcDbText
  0
SPLINE
  5
29
100
AcDbEntity
  8
LAYER_1
 62
     9
100
AcDbSpline
210
0.0
220
0.0
230
1.0
 70
     1
 71
     3
 72
    20
 73
    16
 74
     0
 42
0.0000000001
 43
0.0000000001
 40
0.0
 40
0.0
 40
0.0
 40
0.0
 40
0.25
 40
0.25
 40
0.25
 40
0.25
 40
0.5
 40
0.5
 40
0.5
 40
0.5
 40
0.75
 40
0.75
 40
0.75
 40
0.75
 40
1.0
 40
1.0
 40
1.0
 40
1.0
 10
1.2929370078740159
 20
1.6874094488188978
 30
0.0
 10
1.2929370078740159
 20
1.6874094488188978
 30
0.0
 10
1.9533976377952758
 20
1.306704724409449
 30
0.0
 10
1.9533976377952758
 20
1.306704724409449
 30
0.0
 10
1.9533976377952758
 20
1.306704724409449
 30
0.0
 10
1.9533976377952758
 20
1.306704724409449
 30
0.0
 10
1.9405433070866143
 20
0.9944685039370079
 30
0.0
 10
1.9405433070866143
 20
0.9944685039370079
 30
0.0
 10
1.9405433070866143
 20
0.9944685039370079
 30
0.0
 10
1.9405433070866143
 20
0.9944685039370079
 30
0.0
 10
1.2800826771653544
 20
1.3751732283464568
 30
0.0
 10
1.2800826771653544
 20
1.3751732283464568
 30
0.0
 10
1.2800826771653544
 20
1.3751732283464568
 30
0.0
 10
1.2800826771653544
 20
1.3751732283464568
 30
0.0
 10
1.2929370078740159
 20
1.6874094488188978
 30
0.0
 10
1.2929370078740159
 20
1.6874094488188978
 30
0.0
  0
SPLINE
  5
2A
100
AcDbEntity
  8
LAYER_1
100
AcDbSpline
210
0.0
220
0.0
230
1.0
 70
     1
 71
     3
 72
    20
 73
    16
 74
     0
 42
0.0000000001
 43
0.0000000001
 40
0.0
 40
0.0
 40
0.0
 40
0.0
 40
0.25
 40
0.25
 40
0.25
 40
0.25
 40
0.5
 40
0.5
 40
0.5
 40
0.5
 40
0.75
 40
0.75
 40
0.75
 40
0.75
 40
1.0
 40
1.0
 40
1.0
 40
1.0
 10
1.2929370078740159
 20
1.6874094488188978
 30
0.0
 10
1.2929370078740159
 20
1.6874094488188978
 30
0.0
 10
1.9533976377952758
 20
1.306704724409449
 30
0.0
 10
1.9533976377952758
 20
1.306704724409449
 30
0.0
 10
1.9533976377952758
 20
1.306704724409449
 30
0.0
 10
1.9533976377952758
 20
1.306704724409449
 30
0.0
 10
1.9405433070866143
 20
0.9944685039370079
 30
0.0
 10
1.9405433070866143
 20
0.9944685039370079
 30
0.0
 10
1.9405433070866143
 20
0.9944685039370079
 30
0.0
 10
1.9405433070866143
 20
0.9944685039370079
 30
0.0
 10
1.2800826771653544
 20
1.3751732283464568
 30
0.0
 10
1.2800826771653544
 20
1.3751732283464568
 30
0.0
 10
1.2800826771653544
 20
1.3751732283464568
 30
0.0
 10
1.2800826771653544
 20
1.3751732283464568
 30
0.0
 10
1.2929370078740159
 20
1.6874094488188978
 30
0.0
 10
1.2929370078740159
 20
1.6874094488188978
 30
0.0
  0
SPLINE
  5
2B
100
AcDbEntity
  8
LAYER_1
 62
     9
100
AcDbSpline
210
0.0
220
0.0
230
1.0
 70
     1
 71
     3
 72
    44
 73
    40
 74
     0
 42
0.0000000001
 43
0.0000000001
 40
0.0
 40
0.0
 40
0.0
 40
0.0
 40
0.1
 40
0.1
 40
0.1
 40
0.1
 40
0.2
 40
0.2
 40
0.2
 40
0.2
 40
0.3
 40
0.3
 40
0.3
 40
0.3
 40
0.4
 40
0.4
 40
0.4
 40
0.4
 40
0.5
 40
0.5
 40
0.5
 40
0.5
 40
0.6
 40
0.6
 40
0.6
 40
0.6
 40
0.7
 40
0.7
 40
0.7
 40
0.7
 40
0.7999999999999999
 40
0.7999999999999999
 40
0.7999999999999999
 40
0.7999999999999999
 40
0.8999999999999999
 40
0.8999999999999999
 40
0.8999999999999999
 40
0.8999999999999999
 40
1.0
 40
1.0
 40
1.0
 40
1.0
 10
1.2800826771653544
 20
1.3751732283464568
 30
0.0
 10
1.2800826771653544
 20
1.3751732283464568
 30
0.0
 10
1.9405433070866143
 20
0.9944685039370079
 30
0.0
 10
1.9405433070866143
 20
0.9944685039370079
 30
0.0
 10
1.9405433070866143
 20
0.9944685039370079
 30
0.0
 10
1.9405433070866143
 20
0.9944685039370079
 30
0.0
 10
1.9400551181102363
 20
0.9838818897637796
 30
0.0
 10
1.9400551181102363
 20
0.9838818897637796
 30
0.0
 10
1.9400551181102363
 20
0.9838818897637796
 30
0.0
 10
1.9400551181102363
 20
0.9838818897637796
 30
0.0
 10
1.9387440944881891
 20
0.9731417322834646
 30
0.0
 10
1.9387440944881891
 20
0.9731417322834646
 30
0.0
 10
1.9387440944881891
 20
0.9731417322834646
 30
0.0
 10
1.9387440944881891
 20
0.9731417322834646
 30
0.0
 10
1.9366141732283466
 20
0.9623622047244095
 30
0.0
 10
1.9366141732283466
 20
0.9623622047244095
 30
0.0
 10
1.9366141732283466
 20
0.9623622047244095
 30
0.0
 10
1.9366141732283466
 20
0.9623622047244095
 30
0.0
 10
1.9337086614173229
 20
0.9516771653543308
 30
0.0
 10
1.9337086614173229
 20
0.9516771653543308
 30
0.0
 10
1.9337086614173229
 20
0.9516771653543308
 30
0.0
 10
1.9337086614173229
 20
0.9516771653543308
 30
0.0
 10
1.273248031496063
 20
1.3323818897637796
 30
0.0
 10
1.273248031496063
 20
1.3323818897637796
 30
0.0
 10
1.273248031496063
 20
1.3323818897637796
 30
0.0
 10
1.273248031496063
 20
1.3323818897637796
 30
0.0
 10
1.2761535433070867
 20
1.3430669291338584
 30
0.0
 10
1.2761535433070867
 20
1.3430669291338584
 30
0.0
 10
1.2761535433070867
 20
1.3430669291338584
 30
0.0
 10
1.2761535433070867
 20
1.3430669291338584
 30
0.0
 10
1.2782834645669292
 20
1.3538464566929134
 30
0.0
 10
1.2782834645669292
 20
1.3538464566929134
 30
0.0
 10
1.2782834645669292
 20
1.3538464566929134
 30
0.0
 10
1.2782834645669292
 20
1.3538464566929134
 30
0.0
 10
1.2795944881889765
 20
1.3645866141732284
 30
0.0
 10
1.2795944881889765
 20
1.3645866141732284
 30
0.0
 10
1.2795944881889765
 20
1.3645866141732284
 30
0.0
 10
1.2795944881889765
 20
1.3645866141732284
 30
0.0
 10
1.2800826771653544
 20
1.3751732283464568
 30
0.0
 10
1.2800826771653544
 20
1.3751732283464568
 30
0.0
  0
SPLINE
  5
2C
100
AcDbEntity
  8
LAYER_1
 62
     9
100
AcDbSpline
210
0.0
220
0.0
230
1.0
 70
     1
 71
     3
 72
    44
 73
    40
 74
     0
 42
0.0000000001
 43
0.0000000001
 40
0.0
 40
0.0
 40
0.0
 40
0.0
 40
0.1
 40
0.1
 40
0.1
 40
0.1
 40
0.2
 40
0.2
 40
0.2
 40
0.2
 40
0.3
 40
0.3
 40
0.3
 40
0.3
 40
0.4
 40
0.4
 40
0.4
 40
0.4
 40
0.5
 40
0.5
 40
0.5
 40
0.5
 40
0.6
 40
0.6
 40
0.6
 40
0.6
 40
0.7
 40
0.7
 40
0.7
 40
0.7
 40
0.7999999999999999
 40
0.7999999999999999
 40
0.7999999999999999
 40
0.7999999999999999
 40
0.8999999999999999
 40
0.8999999999999999
 40
0.8999999999999999
 40
0.8999999999999999
 40
1.0
 40
1.0
 40
1.0
 40
1.0
 10
1.273248031496063
 20
1.3323818897637796
 30
0.0
 10
1.273248031496063
 20
1.3323818897637796
 30
0.0
 10
1.9337086614173229
 20
0.9516771653543308
 30
0.0
 10
1.9337086614173229
 20
0.9516771653543308
 30
0.0
 10
1.9337086614173229
 20
0.9516771653543308
 30
0.0
 10
1.9337086614173229
 20
0.9516771653543308
 30
0.0
 10
1.9300314960629923
 20
0.9411968503937008
 30
0.0
 10
1.9300314960629923
 20
0.9411968503937008
 30
0.0
 10
1.9300314960629923
 20
0.9411968503937008
 30
0.0
 10
1.9300314960629923
 20
0.9411968503937008
 30
0.0
 10
1.9256259842519685
 20
0.9310472440944883
 30
0.0
 10
1.9256259842519685
 20
0.9310472440944883
 30
0.0
 10
1.9256259842519685
 20
0.9310472440944883
 30
0.0
 10
1.9256259842519685
 20
0.9310472440944883
 30
0.0
 10
1.9205000000000001
 20
0.9213503937007874
 30
0.0
 10
1.9205000000000001
 20
0.9213503937007874
 30
0.0
 10
1.9205000000000001
 20
0.9213503937007874
 30
0.0
 10
1.9205000000000001
 20
0.9213503937007874
 30
0.0
 10
1.9146889763779529
 20
0.912236220472441
 30
0.0
 10
1.9146889763779529
 20
0.912236220472441
 30
0.0
 10
1.9146889763779529
 20
0.912236220472441
 30
0.0
 10
1.9146889763779529
 20
0.912236220472441
 30
0.0
 10
1.254228346456693
 20
1.2929409448818898
 30
0.0
 10
1.254228346456693
 20
1.2929409448818898
 30
0.0
 10
1.254228346456693
 20
1.2929409448818898
 30
0.0
 10
1.254228346456693
 20
1.2929409448818898
 30
0.0
 10
1.2600393700787402
 20
1.3020551181102362
 30
0.0
 10
1.2600393700787402
 20
1.3020551181102362
 30
0.0
 10
1.2600393700787402
 20
1.3020551181102362
 30
0.0
 10
1.2600393700787402
 20
1.3020551181102362
 30
0.0
 10
1.2651653543307086
 20
1.3117519685039372
 30
0.0
 10
1.2651653543307086
 20
1.3117519685039372
 30
0.0
 10
1.2651653543307086
 20
1.3117519685039372
 30
0.0
 10
1.2651653543307086
 20
1.3117519685039372
 30
0.0
 10
1.2695708661417324
 20
1.3219015748031497
 30
0.0
 10
1.2695708661417324
 20
1.3219015748031497
 30
0.0
 10
1.2695708661417324
 20
1.3219015748031497
 30
0.0
 10
1.2695708661417324
 20
1.3219015748031497
 30
0.0
 10
1.273248031496063
 20
1.3323818897637796
 30
0.0
 10
1.273248031496063
 20
1.3323818897637796
 30
0.0
  0
SPLINE
  5
2D
100
AcDbEntity
  8
LAYER_1
 62
     9
100
AcDbSpline
210
0.0
220
0.0
230
1.0
 70
     1
 71
     3
 72
    44
 73
    40
 74
     0
 42
0.0000000001
 43
0.0000000001
 40
0.0
 40
0.0
 40
0.0
 40
0.0
 40
0.1
 40
0.1
 40
0.1
 40
0.1
 40
0.2
 40
0.2
 40
0.2
 40
0.2
 40
0.3
 40
0.3
 40
0.3
 40
0.3
 40
0.4
 40
0.4
 40
0.4
 40
0.4
 40
0.5
 40
0.5
 40
0.5
 40
0.5
 40
0.6
 40
0.6
 40
0.6
 40
0.6
 40
0.7
 40
0.7
 40
0.7
 40
0.7
 40
0.7999999999999999
 40
0.7999999999999999
 40
0.7999999999999999
 40
0.7999999999999999
 40
0.8999999999999999
 40
0.8999999999999999
 40
0.8999999999999999
 40
0.8999999999999999
 40
1.0
 40
1.0
 40
1.0
 40
1.0
 10
1.254228346456693
 20
1.2929409448818898
 30
0.0
 10
1.254228346456693
 20
1.2929409448818898
 30
0.0
 10
1.9146889763779529
 20
0.912236220472441
 30
0.0
 10
1.9146889763779529
 20
0.912236220472441
 30
0.0
 10
1.9146889763779529
 20
0.912236220472441
 30
0.0
 10
1.9146889763779529
 20
0.912236220472441
 30
0.0
 10
1.9082007874015749
 20
0.9038110236220472
 30
0.0
 10
1.9082007874015749
 20
0.9038110236220472
 30
0.0
 10
1.9082007874015749
 20
0.9038110236220472
 30
0.0
 10
1.9082007874015749
 20
0.9038110236220472
 30
0.0
 10
1.9010708661417324
 20
0.8962125984251969
 30
0.0
 10
1.9010708661417324
 20
0.8962125984251969
 30
0.0
 10
1.9010708661417324
 20
0.8962125984251969
 30
0.0
 10
1.9010708661417324
 20
0.8962125984251969
 30
0.0
 10
1.8933188976377953
 20
0.8895551181102362
 30
0.0
 10
1.8933188976377953
 20
0.8895551181102362
 30
0.0
 10
1.8933188976377953
 20
0.8895551181102362
 30
0.0
 10
1.8933188976377953
 20
0.8895551181102362
 30
0.0
 10
1.8849803149606299
 20
0.8839685039370079
 30
0.0
 10
1.8849803149606299
 20
0.8839685039370079
 30
0.0
 10
1.8849803149606299
 20
0.8839685039370079
 30
0.0
 10
1.8849803149606299
 20
0.8839685039370079
 30
0.0
 10
1.22451968503937
 20
1.2646732283464568
 30
0.0
 10
1.22451968503937
 20
1.2646732283464568
 30
0.0
 10
1.22451968503937
 20
1.2646732283464568
 30
0.0
 10
1.22451968503937
 20
1.2646732283464568
 30
0.0
 10
1.2328582677165354
 20
1.2702598425196852
 30
0.0
 10
1.2328582677165354
 20
1.2702598425196852
 30
0.0
 10
1.2328582677165354
 20
1.2702598425196852
 30
0.0
 10
1.2328582677165354
 20
1.2702598425196852
 30
0.0
 10
1.2406102362204725
 20
1.2769173228346458
 30
0.0
 10
1.2406102362204725
 20
1.2769173228346458
 30
0.0
 10
1.2406102362204725
 20
1.2769173228346458
 30
0.0
 10
1.2406102362204725
 20
1.2769173228346458
 30
0.0
 10
1.2477401574803151
 20
1.2845157480314962
 30
0.0
 10
1.2477401574803151
 20
1.2845157480314962
 30
0.0
 10
1.2477401574803151
 20
1.2845157480314962
 30
0.0
 10
1.2477401574803151
 20
1.2845157480314962
 30
0.0
 10
1.254228346456693
 20
1.2929409448818898
 30
0.0
 10
1.254228346456693
 20
1.2929409448818898
 30
0.0
  0
SPLINE
  5
2E
100
AcDbEntity
  8
LAYER_1
 62
   253
100
AcDbSpline
210
0.0
220
0.0
230
1.0
 70
     1
 71
     3
 72
    44
 73
    40
 74
     0
 42
0.0000000001
 43
0.0000000001
 40
0.0
 40
0.0
 40
0.0
 40
0.0
 40
0.1
 40
0.1
 40
0.1
 40
0.1
 40
0.2
 40
0.2
 40
0.2
 40
0.2
 40
0.3
 40
0.3
 40
0.3
 40
0.3
 40
0.4
 40
0.4
 40
0.4
 40
0.4
 40
0.5
 40
0.5
 40
0.5
 40
0.5
 40
0.6
 40
0.6
 40
0.6
 40
0.6
 40
0.7
 40
0.7
 40
0.7
 40
0.7
 40
0.7999999999999999
 40
0.7999999999999999
 40
0.7999999999999999
 40
0.7999999999999999
 40
0.8999999999999999
 40
0.8999999999999999
 40
0.8999999999999999
 40
0.8999999999999999
 40
1.0
 40
1.0
 40
1.0
 40
1.0
 10
1.22451968503937
 20
1.2646732283464568
 30
0.0
 10
1.22451968503937
 20
1.2646732283464568
 30
0.0
 10
1.8849803149606299
 20
0.8839685039370079
 30
0.0
 10
1.8849803149606299
 20
0.8839685039370079
 30
0.0
 10
1.8849803149606299
 20
0.8839685039370079
 30
0.0
 10
1.8849803149606299
 20
0.8839685039370079
 30
0.0
 10
1.8760551181102363
 20
0.8795629921259843
 30
0.0
 10
1.8760551181102363
 20
0.8795629921259843
 30
0.0
 10
1.8760551181102363
 20
0.8795629921259843
 30
0.0
 10
1.8760551181102363
 20
0.8795629921259843
 30
0.0
 10
1.8665866141732284
 20
0.8764763779527559
 30
0.0
 10
1.8665866141732284
 20
0.8764763779527559
 30
0.0
 10
1.8665866141732284
 20
0.8764763779527559
 30
0.0
 10
1.8665866141732284
 20
0.8764763779527559
 30
0.0
 10
1.8565905511811025
 20
0.8748188976377953
 30
0.0
 10
1.8565905511811025
 20
0.8748188976377953
 30
0.0
 10
1.8565905511811025
 20
0.8748188976377953
 30
0.0
 10
1.8565905511811025
 20
0.8748188976377953
 30
0.0
 10
1.8460944881889765
 20
0.8747244094488189
 30
0.0
 10
1.8460944881889765
 20
0.8747244094488189
 30
0.0
 10
1.8460944881889765
 20
0.8747244094488189
 30
0.0
 10
1.8460944881889765
 20
0.8747244094488189
 30
0.0
 10
1.1856338582677166
 20
1.2554291338582677
 30
0.0
 10
1.1856338582677166
 20
1.2554291338582677
 30
0.0
 10
1.1856338582677166
 20
1.2554291338582677
 30
0.0
 10
1.1856338582677166
 20
1.2554291338582677
 30
0.0
 10
1.1961299212598426
 20
1.2555236220472441
 30
0.0
 10
1.1961299212598426
 20
1.2555236220472441
 30
0.0
 10
1.1961299212598426
 20
1.2555236220472441
 30
0.0
 10
1.1961299212598426
 20
1.2555236220472441
 30
0.0
 10
1.2061259842519685
 20
1.2571811023622048
 30
0.0
 10
1.2061259842519685
 20
1.2571811023622048
 30
0.0
 10
1.2061259842519685
 20
1.2571811023622048
 30
0.0
 10
1.2061259842519685
 20
1.2571811023622048
 30
0.0
 10
1.2155944881889764
 20
1.260267716535433
 30
0.0
 10
1.2155944881889764
 20
1.260267716535433
 30
0.0
 10
1.2155944881889764
 20
1.260267716535433
 30
0.0
 10
1.2155944881889764
 20
1.260267716535433
 30
0.0
 10
1.22451968503937
 20
1.2646732283464568
 30
0.0
 10
1.22451968503937
 20
1.2646732283464568
 30
0.0
  0
SPLINE
  5
2F
100
AcDbEntity
  8
LAYER_1
100
AcDbSpline
210
0.0
220
0.0
230
1.0
 70
     1
 71
     3
 72
   140
 73
   136
 74
     0
 42
0.0000000001
 43
0.0000000001
 40
0.0
 40
0.0
 40
0.0
 40
0.0
 40
0.0294117647058824
 40
0.0294117647058824
 40
0.0294117647058824
 40
0.0294117647058824
 40
0.0588235294117647
 40
0.0588235294117647
 40
0.0588235294117647
 40
0.0588235294117647
 40
0.0882352941176471
 40
0.0882352941176471
 40
0.0882352941176471
 40
0.0882352941176471
 40
0.1176470588235294
 40
0.1176470588235294
 40
0.1176470588235294
 40
0.1176470588235294
 40
0.1470588235294118
 40
0.1470588235294118
 40
0.1470588235294118
 40
0.1470588235294118
 40
0.1764705882352941
 40
0.1764705882352941
 40
0.1764705882352941
 40
0.1764705882352941
 40
0.2058823529411765
 40
0.2058823529411765
 40
0.2058823529411765
 40
0.2058823529411765
 40
0.2352941176470589
 40
0.2352941176470589
 40
0.2352941176470589
 40
0.2352941176470589
 40
0.2647058823529412
 40
0.2647058823529412
 40
0.2647058823529412
 40
0.2647058823529412
 40
0.2941176470588235
 40
0.2941176470588235
 40
0.2941176470588235
 40
0.2941176470588235
 40
0.3235294117647059
 40
0.3235294117647059
 40
0.3235294117647059
 40
0.3235294117647059
 40
0.3529411764705883
 40
0.3529411764705883
 40
0.3529411764705883
 40
0.3529411764705883
 40
0.3823529411764706
 40
0.3823529411764706
 40
0.3823529411764706
 40
0.3823529411764706
 40
0.411764705882353
 40
0.411764705882353
 40
0.411764705882353
 40
0.411764705882353
 40
0.4411764705882353
 40
0.4411764705882353
 40
0.4411764705882353
 40
0.4411764705882353
 40
0.4705882352941177
 40
0.4705882352941177
 40
0.4705882352941177
 40
0.4705882352941177
 40
0.5
 40
0.5
 40
0.5
 40
0.5
 40
0.5294117647058824
 40
0.5294117647058824
 40
0.5294117647058824
 40
0.5294117647058824
 40
0.5588235294117647
 40
0.5588235294117647
 40
0.5588235294117647
 40
0.5588235294117647
 40
0.5882352941176471
 40
0.5882352941176471
 40
0.5882352941176471
 40
0.5882352941176471
 40
0.6176470588235294
 40
0.6176470588235294
 40
0.6176470588235294
 40
0.6176470588235294
 40
0.6470588235294118
 40
0.6470588235294118
 40
0.6470588235294118
 40
0.6470588235294118
 40
0.6764705882352942
 40
0.6764705882352942
 40
0.6764705882352942
 40
0.6764705882352942
 40
0.7058823529411765
 40
0.7058823529411765
 40
0.7058823529411765
 40
0.7058823529411765
 40
0.7352941176470589
 40
0.7352941176470589
 40
0.7352941176470589
 40
0.7352941176470589
 40
0.7647058823529412
 40
0.7647058823529412
 40
0.7647058823529412
 40
0.7647058823529412
 40
0.7941176470588236
 40
0.7941176470588236
 40
0.7941176470588236
 40
0.7941176470588236
 40
0.823529411764706
 40
0.823529411764706
 40
0.823529411764706
 40
0.823529411764706
 40
0.8529411764705883
 40
0.8529411764705883
 40
0.8529411764705883
 40
0.8529411764705883
 40
0.8823529411764707
 40
0.8823529411764707
 40
0.8823529411764707
 40
0.8823529411764707
 40
0.911764705882353
 40
0.911764705882353
 40
0.911764705882353
 40
0.911764705882353
 40
0.9411764705882354
 40
0.9411764705882354
 40
0.9411764705882354
 40
0.9411764705882354
 40
0.9705882352941178
 40
0.9705882352941178
 40
0.9705882352941178
 40
0.9705882352941178
 40
1.0
 40
1.0
 40
1.0
 40
1.0
 10
1.2800826771653544
 20
1.3751732283464568
 30
0.0
 10
1.2800826771653544
 20
1.3751732283464568
 30
0.0
 10
1.9405433070866143
 20
0.9944685039370079
 30
0.0
 10
1.9405433070866143
 20
0.9944685039370079
 30
0.0
 10
1.9405433070866143
 20
0.9944685039370079
 30
0.0
 10
1.9405433070866143
 20
0.9944685039370079
 30
0.0
 10
1.9400551181102363
 20
0.9838818897637796
 30
0.0
 10
1.9400551181102363
 20
0.9838818897637796
 30
0.0
 10
1.9400551181102363
 20
0.9838818897637796
 30
0.0
 10
1.9400551181102363
 20
0.9838818897637796
 30
0.0
 10
1.9387440944881891
 20
0.9731417322834646
 30
0.0
 10
1.9387440944881891
 20
0.9731417322834646
 30
0.0
 10
1.9387440944881891
 20
0.9731417322834646
 30
0.0
 10
1.9387440944881891
 20
0.9731417322834646
 30
0.0
 10
1.9366141732283466
 20
0.9623622047244095
 30
0.0
 10
1.9366141732283466
 20
0.9623622047244095
 30
0.0
 10
1.9366141732283466
 20
0.9623622047244095
 30
0.0
 10
1.9366141732283466
 20
0.9623622047244095
 30
0.0
 10
1.9337086614173229
 20
0.9516771653543308
 30
0.0
 10
1.9337086614173229
 20
0.9516771653543308
 30
0.0
 10
1.9337086614173229
 20
0.9516771653543308
 30
0.0
 10
1.9337086614173229
 20
0.9516771653543308
 30
0.0
 10
1.9300314960629923
 20
0.9411968503937008
 30
0.0
 10
1.9300314960629923
 20
0.9411968503937008
 30
0.0
 10
1.9300314960629923
 20
0.9411968503937008
 30
0.0
 10
1.9300314960629923
 20
0.9411968503937008
 30
0.0
 10
1.9256259842519685
 20
0.9310472440944883
 30
0.0
 10
1.9256259842519685
 20
0.9310472440944883
 30
0.0
 10
1.9256259842519685
 20
0.9310472440944883
 30
0.0
 10
1.9256259842519685
 20
0.9310472440944883
 30
0.0
 10
1.9205000000000001
 20
0.9213503937007874
 30
0.0
 10
1.9205000000000001
 20
0.9213503937007874
 30
0.0
 10
1.9205000000000001
 20
0.9213503937007874
 30
0.0
 10
1.9205000000000001
 20
0.9213503937007874
 30
0.0
 10
1.9146889763779529
 20
0.912236220472441
 30
0.0
 10
1.9146889763779529
 20
0.912236220472441
 30
0.0
 10
1.9146889763779529
 20
0.912236220472441
 30
0.0
 10
1.9146889763779529
 20
0.912236220472441
 30
0.0
 10
1.9082007874015749
 20
0.9038110236220472
 30
0.0
 10
1.9082007874015749
 20
0.9038110236220472
 30
0.0
 10
1.9082007874015749
 20
0.9038110236220472
 30
0.0
 10
1.9082007874015749
 20
0.9038110236220472
 30
0.0
 10
1.9010708661417324
 20
0.8962125984251969
 30
0.0
 10
1.9010708661417324
 20
0.8962125984251969
 30
0.0
 10
1.9010708661417324
 20
0.8962125984251969
 30
0.0
 10
1.9010708661417324
 20
0.8962125984251969
 30
0.0
 10
1.8933188976377953
 20
0.8895551181102362
 30
0.0
 10
1.8933188976377953
 20
0.8895551181102362
 30
0.0
 10
1.8933188976377953
 20
0.8895551181102362
 30
0.0
 10
1.8933188976377953
 20
0.8895551181102362
 30
0.0
 10
1.8849803149606299
 20
0.8839685039370079
 30
0.0
 10
1.8849803149606299
 20
0.8839685039370079
 30
0.0
 10
1.8849803149606299
 20
0.8839685039370079
 30
0.0
 10
1.8849803149606299
 20
0.8839685039370079
 30
0.0
 10
1.8760551181102363
 20
0.8795629921259843
 30
0.0
 10
1.8760551181102363
 20
0.8795629921259843
 30
0.0
 10
1.8760551181102363
 20
0.8795629921259843
 30
0.0
 10
1.8760551181102363
 20
0.8795629921259843
 30
0.0
 10
1.8665866141732284
 20
0.8764763779527559
 30
0.0
 10
1.8665866141732284
 20
0.8764763779527559
 30
0.0
 10
1.8665866141732284
 20
0.8764763779527559
 30
0.0
 10
1.8665866141732284
 20
0.8764763779527559
 30
0.0
 10
1.8565905511811025
 20
0.8748188976377953
 30
0.0
 10
1.8565905511811025
 20
0.8748188976377953
 30
0.0
 10
1.8565905511811025
 20
0.8748188976377953
 30
0.0
 10
1.8565905511811025
 20
0.8748188976377953
 30
0.0
 10
1.8460944881889765
 20
0.8747244094488189
 30
0.0
 10
1.8460944881889765
 20
0.8747244094488189
 30
0.0
 10
1.8460944881889765
 20
0.8747244094488189
 30
0.0
 10
1.8460944881889765
 20
0.8747244094488189
 30
0.0
 10
1.1856338582677166
 20
1.2554291338582677
 30
0.0
 10
1.1856338582677166
 20
1.2554291338582677
 30
0.0
 10
1.1856338582677166
 20
1.2554291338582677
 30
0.0
 10
1.1856338582677166
 20
1.2554291338582677
 30
0.0
 10
1.1961299212598426
 20
1.2555236220472441
 30
0.0
 10
1.1961299212598426
 20
1.2555236220472441
 30
0.0
 10
1.1961299212598426
 20
1.2555236220472441
 30
0.0
 10
1.1961299212598426
 20
1.2555236220472441
 30
0.0
 10
1.2061259842519685
 20
1.2571811023622048
 30
0.0
 10
1.2061259842519685
 20
1.2571811023622048
 30
0.0
 10
1.2061259842519685
 20
1.2571811023622048
 30
0.0
 10
1.2061259842519685
 20
1.2571811023622048
 30
0.0
 10
1.2155944881889764
 20
1.260267716535433
 30
0.0
 10
1.2155944881889764
 20
1.260267716535433
 30
0.0
 10
1.2155944881889764
 20
1.260267716535433
 30
0.0
 10
1.2155944881889764
 20
1.260267716535433
 30
0.0
 10
1.22451968503937
 20
1.2646732283464568
 30
0.0
 10
1.22451968503937
 20
1.2646732283464568
 30
0.0
 10
1.22451968503937
 20
1.2646732283464568
 30
0.0
 10
1.22451968503937
 20
1.2646732283464568
 30
0.0
 10
1.2328582677165354
 20
1.2702598425196852
 30
0.0
 10
1.2328582677165354
 20
1.2702598425196852
 30
0.0
 10
1.2328582677165354
 20
1.2702598425196852
 30
0.0
 10
1.2328582677165354
 20
1.2702598425196852
 30
0.0
 10
1.2406102362204725
 20
1.2769173228346458
 30
0.0
 10
1.2406102362204725
 20
1.2769173228346458
 30
0.0
 10
1.2406102362204725
 20
1.2769173228346458
 30
0.0
 10
1.2406102362204725
 20
1.2769173228346458
 30
0.0
 10
1.2477401574803151
 20
1.2845157480314962
 30
0.0
 10
1.2477401574803151
 20
1.2845157480314962
 30
0.0
 10
1.2477401574803151
 20
1.2845157480314962
 30
0.0
 10
1.2477401574803151
 20
1.2845157480314962
 30
0.0
 10
1.254228346456693
 20
1.2929409448818898
 30
0.0
 10
1.254228346456693
 20
1.2929409448818898
 30
0.0
 10
1.254228346456693
 20
1.2929409448818898
 30
0.0
 10
1.254228346456693
 20
1.2929409448818898
 30
0.0
 10
1.2600393700787402
 20
1.3020551181102362
 30
0.0
 10
1.2600393700787402
 20
1.3020551181102362
 30
0.0
 10
1.2600393700787402
 20
1.3020551181102362
 30
0.0
 10
1.2600393700787402
 20
1.3020551181102362
 30
0.0
 10
1.2651653543307086
 20
1.3117519685039372
 30
0.0
 10
1.2651653543307086
 20
1.3117519685039372
 30
0.0
 10
1.2651653543307086
 20
1.3117519685039372
 30
0.0
 10
1.2651653543307086
 20
1.3117519685039372
 30
0.0
 10
1.2695708661417324
 20
1.3219015748031497
 30
0.0
 10
1.2695708661417324
 20
1.3219015748031497
 30
0.0
 10
1.2695708661417324
 20
1.3219015748031497
 30
0.0
 10
1.2695708661417324
 20
1.3219015748031497
 30
0.0
 10
1.273248031496063
 20
1.3323818897637796
 30
0.0
 10
1.273248031496063
 20
1.3323818897637796
 30
0.0
 10
1.273248031496063
 20
1.3323818897637796
 30
0.0
 10
1.273248031496063
 20
1.3323818897637796
 30
0.0
 10
1.2761535433070867
 20
1.3430669291338584
 30
0.0
 10
1.2761535433070867
 20
1.3430669291338584
 30
0.0
 10
1.2761535433070867
 20
1.3430669291338584
 30
0.0
 10
1.2761535433070867
 20
1.3430669291338584
 30
0.0
 10
1.2782834645669292
 20
1.3538464566929134
 30
0.0
 10
1.2782834645669292
 20
1.3538464566929134
 30
0.0
 10
1.2782834645669292
 20
1.3538464566929134
 30
0.0
 10
1.2782834645669292
 20
1.3538464566929134
 30
0.0
 10
1.2795944881889765
 20
1.3645866141732284
 30
0.0
 10
1.2795944881889765
 20
1.3645866141732284
 30
0.0
 10
1.2795944881889765
 20
1.3645866141732284
 30
0.0
 10
1.2795944881889765
 20
1.3645866141732284
 30
0.0
 10
1.2800826771653544
 20
1.3751732283464568
 30
0.0
 10
1.2800826771653544
 20
1.3751732283464568
 30
0.0
  0
SPLINE
  5
30
100
AcDbEntity
  8
LAYER_1
 62
   253
100
AcDbSpline
210
0.0
220
0.0
230
1.0
 70
     1
 71
     3
 72
    20
 73
    16
 74
     0
 42
0.0000000001
 43
0.0000000001
 40
0.0
 40
0.0
 40
0.0
 40
0.0
 40
0.25
 40
0.25
 40
0.25
 40
0.25
 40
0.5
 40
0.5
 40
0.5
 40
0.5
 40
0.75
 40
0.75
 40
0.75
 40
0.75
 40
1.0
 40
1.0
 40
1.0
 40
1.0
 10
1.1856338582677166
 20
1.2554291338582677
 30
0.0
 10
1.1856338582677166
 20
1.2554291338582677
 30
0.0
 10
1.8460944881889765
 20
0.8747244094488189
 30
0.0
 10
1.8460944881889765
 20
0.8747244094488189
 30
0.0
 10
1.8460944881889765
 20
0.8747244094488189
 30
0.0
 10
1.8460944881889765
 20
0.8747244094488189
 30
0.0
 10
1.7848425196850395
 20
0.8711220472440945
 30
0.0
 10
1.7848425196850395
 20
0.8711220472440945
 30
0.0
 10
1.7848425196850395
 20
0.8711220472440945
 30
0.0
 10
1.7848425196850395
 20
0.8711220472440945
 30
0.0
 10
1.1243818897637796
 20
1.2518267716535434
 30
0.0
 10
1.1243818897637796
 20
1.2518267716535434
 30
0.0
 10
1.1243818897637796
 20
1.2518267716535434
 30
0.0
 10
1.1243818897637796
 20
1.2518267716535434
 30
0.0
 10
1.1856338582677166
 20
1.2554291338582677
 30
0.0
 10
1.1856338582677166
 20
1.2554291338582677
 30
0.0
  0
SPLINE
  5
31
100
AcDbEntity
  8
LAYER_1
 62
   253
100
AcDbSpline
210
0.0
220
0.0
230
1.0
 70
     1
 71
     3
 72
    20
 73
    16
 74
     0
 42
0.0000000001
 43
0.0000000001
 40
0.0
 40
0.0
 40
0.0
 40
0.0
 40
0.25
 40
0.25
 40
0.25
 40
0.25
 40
0.5
 40
0.5
 40
0.5
 40
0.5
 40
0.75
 40
0.75
 40
0.75
 40
0.75
 40
1.0
 40
1.0
 40
1.0
 40
1.0
 10
1.1243818897637796
 20
1.2518267716535434
 30
0.0
 10
1.1243818897637796
 20
1.2518267716535434
 30
0.0
 10
1.7848425196850395
 20
0.8711220472440945
 30
0.0
 10
1.7848425196850395
 20
0.8711220472440945
 30
0.0
 10
1.7848425196850395
 20
0.8711220472440945
 30
0.0
 10
1.7848425196850395
 20
0.8711220472440945
 30
0.0
 10
1.73
 20
0.864472440944882
 30
0.0
 10
1.73
 20
0.864472440944882
 30
0.0
 10
1.73
 20
0.864472440944882
 30
0.0
 10
1.73
 20
0.864472440944882
 30
0.0
 10
1.0695393700787401
 20
1.2451771653543307
 30
0.0
 10
1.0695393700787401
 20
1.2451771653543307
 30
0.0
 10
1.0695393700787401
 20
1.2451771653543307
 30
0.0
 10
1.0695393700787401
 20
1.2451771653543307
 30
0.0
 10
1.1243818897637796
 20
1.2518267716535434
 30
0.0
 10
1.1243818897637796
 20
1.2518267716535434
 30
0.0
  0
SPLINE
  5
32
100
AcDbEntity
  8
LAYER_1
 62
   253
100
AcDbSpline
210
0.0
220
0.0
230
1.0
 70
     1
 71
     3
 72
    20
 73
    16
 74
     0
 42
0.0000000001
 43
0.0000000001
 40
0.0
 40
0.0
 40
0.0
 40
0.0
 40
0.25
 40
0.25
 40
0.25
 40
0.25
 40
0.5
 40
0.5
 40
0.5
 40
0.5
 40
0.75
 40
0.75
 40
0.75
 40
0.75
 40
1.0
 40
1.0
 40
1.0
 40
1.0
 10
1.0695393700787401
 20
1.2451771653543307
 30
0.0
 10
1.0695393700787401
 20
1.2451771653543307
 30
0.0
 10
1.73
 20
0.864472440944882
 30
0.0
 10
1.73
 20
0.864472440944882
 30
0.0
 10
1.73
 20
0.864472440944882
 30
0.0
 10
1.73
 20
0.864472440944882
 30
0.0
 10
1.6810984251968504
 20
0.8548937007874016
 30
0.0
 10
1.6810984251968504
 20
0.8548937007874016
 30
0.0
 10
1.6810984251968504
 20
0.8548937007874016
 30
0.0
 10
1.6810984251968504
 20
0.8548937007874016
 30
0.0
 10
1.0206377952755905
 20
1.2355984251968504
 30
0.0
 10
1.0206377952755905
 20
1.2355984251968504
 30
0.0
 10
1.0206377952755905
 20
1.2355984251968504
 30
0.0
 10
1.0206377952755905
 20
1.2355984251968504
 30
0.0
 10
1.0695393700787401
 20
1.2451771653543307
 30
0.0
 10
1.0695393700787401
 20
1.2451771653543307
 30
0.0
  0
SPLINE
  5
33
100
AcDbEntity
  8
LAYER_1
 62
   253
100
AcDbSpline
210
0.0
220
0.0
230
1.0
 70
     1
 71
     3
 72
    20
 73
    16
 74
     0
 42
0.0000000001
 43
0.0000000001
 40
0.0
 40
0.0
 40
0.0
 40
0.0
 40
0.25
 40
0.25
 40
0.25
 40
0.25
 40
0.5
 40
0.5
 40
0.5
 40
0.5
 40
0.75
 40
0.75
 40
0.75
 40
0.75
 40
1.0
 40
1.0
 40
1.0
 40
1.0
 10
1.0206377952755905
 20
1.2355984251968504
 30
0.0
 10
1.0206377952755905
 20
1.2355984251968504
 30
0.0
 10
1.6810984251968504
 20
0.8548937007874016
 30
0.0
 10
1.6810984251968504
 20
0.8548937007874016
 30
0.0
 10
1.6810984251968504
 20
0.8548937007874016
 30
0.0
 10
1.6810984251968504
 20
0.8548937007874016
 30
0.0
 10
1.6376889763779527
 20
0.8425354330708662
 30
0.0
 10
1.6376889763779527
 20
0.8425354330708662
 30
0.0
 10
1.6376889763779527
 20
0.8425354330708662
 30
0.0
 10
1.6376889763779527
 20
0.8425354330708662
 30
0.0
 10
0.977228346456693
 20
1.2232401574803151
 30
0.0
 10
0.977228346456693
 20
1.2232401574803151
 30
0.0
 10
0.977228346456693
 20
1.2232401574803151
 30
0.0
 10
0.977228346456693
 20
1.2232401574803151
 30
0.0
 10
1.0206377952755905
 20
1.2355984251968504
 30
0.0
 10
1.0206377952755905
 20
1.2355984251968504
 30
0.0
  0
SPLINE
  5
34
100
AcDbEntity
  8
LAYER_1
 62
   253
100
AcDbSpline
210
0.0
220
0.0
230
1.0
 70
     1
 71
     3
 72
    20
 73
    16
 74
     0
 42
0.0000000001
 43
0.0000000001
 40
0.0
 40
0.0
 40
0.0
 40
0.0
 40
0.25
 40
0.25
 40
0.25
 40
0.25
 40
0.5
 40
0.5
 40
0.5
 40
0.5
 40
0.75
 40
0.75
 40
0.75
 40
0.75
 40
1.0
 40
1.0
 40
1.0
 40
1.0
 10
0.977228346456693
 20
1.2232401574803151
 30
0.0
 10
0.977228346456693
 20
1.2232401574803151
 30
0.0
 10
1.6376889763779527
 20
0.8425354330708662
 30
0.0
 10
1.6376889763779527
 20
0.8425354330708662
 30
0.0
 10
1.6376889763779527
 20
0.8425354330708662
 30
0.0
 10
1.6376889763779527
 20
0.8425354330708662
 30
0.0
 10
1.5992992125984253
 20
0.8275157480314961
 30
0.0
 10
1.5992992125984253
 20
0.8275157480314961
 30
0.0
 10
1.5992992125984253
 20
0.8275157480314961
 30
0.0
 10
1.5992992125984253
 20
0.8275157480314961
 30
0.0
 10
0.9388385826771654
 20
1.2082204724409449
 30
0.0
 10
0.9388385826771654
 20
1.2082204724409449
 30
0.0
 10
0.9388385826771654
 20
1.2082204724409449
 30
0.0
 10
0.9388385826771654
 20
1.2082204724409449
 30
0.0
 10
0.977228346456693
 20
1.2232401574803151
 30
0.0
 10
0.977228346456693
 20
1.2232401574803151
 30
0.0
  0
SPLINE
  5
35
100
AcDbEntity
  8
LAYER_1
 62
   253
100
AcDbSpline
210
0.0
220
0.0
230
1.0
 70
     1
 71
     3
 72
    20
 73
    16
 74
     0
 42
0.0000000001
 43
0.0000000001
 40
0.0
 40
0.0
 40
0.0
 40
0.0
 40
0.25
 40
0.25
 40
0.25
 40
0.25
 40
0.5
 40
0.5
 40
0.5
 40
0.5
 40
0.75
 40
0.75
 40
0.75
 40
0.75
 40
1.0
 40
1.0
 40
1.0
 40
1.0
 10
0.9388385826771654
 20
1.2082204724409449
 30
0.0
 10
0.9388385826771654
 20
1.2082204724409449
 30
0.0
 10
1.5992992125984253
 20
0.8275157480314961
 30
0.0
 10
1.5992992125984253
 20
0.8275157480314961
 30
0.0
 10
1.5992992125984253
 20
0.8275157480314961
 30
0.0
 10
1.5992992125984253
 20
0.8275157480314961
 30
0.0
 10
1.565492125984252
 20
0.809988188976378
 30
0.0
 10
1.565492125984252
 20
0.809988188976378
 30
0.0
 10
1.565492125984252
 20
0.809988188976378
 30
0.0
 10
1.565492125984252
 20
0.809988188976378
 30
0.0
 10
0.9050314960629922
 20
1.1906929133858268
 30
0.0
 10
0.9050314960629922
 20
1.1906929133858268
 30
0.0
 10
0.9050314960629922
 20
1.1906929133858268
 30
0.0
 10
0.9050314960629922
 20
1.1906929133858268
 30
0.0
 10
0.9388385826771654
 20
1.2082204724409449
 30
0.0
 10
0.9388385826771654
 20
1.2082204724409449
 30
0.0
  0
SPLINE
  5
36
100
AcDbEntity
  8
LAYER_1
 62
   253
100
AcDbSpline
210
0.0
220
0.0
230
1.0
 70
     1
 71
     3
 72
    20
 73
    16
 74
     0
 42
0.0000000001
 43
0.0000000001
 40
0.0
 40
0.0
 40
0.0
 40
0.0
 40
0.25
 40
0.25
 40
0.25
 40
0.25
 40
0.5
 40
0.5
 40
0.5
 40
0.5
 40
0.75
 40
0.75
 40
0.75
 40
0.75
 40
1.0
 40
1.0
 40
1.0
 40
1.0
 10
0.9050314960629922
 20
1.1906929133858268
 30
0.0
 10
0.9050314960629922
 20
1.1906929133858268
 30
0.0
 10
1.565492125984252
 20
0.809988188976378
 30
0.0
 10
1.565492125984252
 20
0.809988188976378
 30
0.0
 10
1.565492125984252
 20
0.809988188976378
 30
0.0
 10
1.565492125984252
 20
0.809988188976378
 30
0.0
 10
1.5357992125984252
 20
0.7900748031496063
 30
0.0
 10
1.5357992125984252
 20
0.7900748031496063
 30
0.0
 10
1.5357992125984252
 20
0.7900748031496063
 30
0.0
 10
1.5357992125984252
 20
0.7900748031496063
 30
0.0
 10
0.8753385826771654
 20
1.1707795275590551
 30
0.0
 10
0.8753385826771654
 20
1.1707795275590551
 30
0.0
 10
0.8753385826771654
 20
1.1707795275590551
 30
0.0
 10
0.8753385826771654
 20
1.1707795275590551
 30
0.0
 10
0.9050314960629922
 20
1.1906929133858268
 30
0.0
 10
0.9050314960629922
 20
1.1906929133858268
 30
0.0
  0
SPLINE
  5
37
100
AcDbEntity
  8
LAYER_1
 62
     9
100
AcDbSpline
210
0.0
220
0.0
230
1.0
 70
     1
 71
     3
 72
    20
 73
    16
 74
     0
 42
0.0000000001
 43
0.0000000001
 40
0.0
 40
0.0
 40
0.0
 40
0.0
 40
0.25
 40
0.25
 40
0.25
 40
0.25
 40
0.5
 40
0.5
 40
0.5
 40
0.5
 40
0.75
 40
0.75
 40
0.75
 40
0.75
 40
1.0
 40
1.0
 40
1.0
 40
1.0
 10
0.8753385826771654
 20
1.1707795275590551
 30
0.0
 10
0.8753385826771654
 20
1.1707795275590551
 30
0.0
 10
1.5357992125984252
 20
0.7900748031496063
 30
0.0
 10
1.5357992125984252
 20
0.7900748031496063
 30
0.0
 10
1.5357992125984252
 20
0.7900748031496063
 30
0.0
 10
1.5357992125984252
 20
0.7900748031496063
 30
0.0
 10
1.5097716535433072
 20
0.7679251968503937
 30
0.0
 10
1.5097716535433072
 20
0.7679251968503937
 30
0.0
 10
1.5097716535433072
 20
0.7679251968503937
 30
0.0
 10
1.5097716535433072
 20
0.7679251968503937
 30
0.0
 10
0.8493110236220473
 20
1.1486299212598425
 30
0.0
 10
0.8493110236220473
 20
1.1486299212598425
 30
0.0
 10
0.8493110236220473
 20
1.1486299212598425
 30
0.0
 10
0.8493110236220473
 20
1.1486299212598425
 30
0.0
 10
0.8753385826771654
 20
1.1707795275590551
 30
0.0
 10
0.8753385826771654
 20
1.1707795275590551
 30
0.0
  0
SPLINE
  5
38
100
AcDbEntity
  8
LAYER_1
 62
     9
100
AcDbSpline
210
0.0
220
0.0
230
1.0
 70
     1
 71
     3
 72
    20
 73
    16
 74
     0
 42
0.0000000001
 43
0.0000000001
 40
0.0
 40
0.0
 40
0.0
 40
0.0
 40
0.25
 40
0.25
 40
0.25
 40
0.25
 40
0.5
 40
0.5
 40
0.5
 40
0.5
 40
0.75
 40
0.75
 40
0.75
 40
0.75
 40
1.0
 40
1.0
 40
1.0
 40
1.0
 10
0.8493110236220473
 20
1.1486299212598425
 30
0.0
 10
0.8493110236220473
 20
1.1486299212598425
 30
0.0
 10
1.5097716535433072
 20
0.7679251968503937
 30
0.0
 10
1.5097716535433072
 20
0.7679251968503937
 30
0.0
 10
1.5097716535433072
 20
0.7679251968503937
 30
0.0
 10
1.5097716535433072
 20
0.7679251968503937
 30
0.0
 10
1.4869330708661417
 20
0.7436535433070867
 30
0.0
 10
1.4869330708661417
 20
0.7436535433070867
 30
0.0
 10
1.4869330708661417
 20
0.7436535433070867
 30
0.0
 10
1.4869330708661417
 20
0.7436535433070867
 30
0.0
 10
0.8264724409448819
 20
1.1243582677165356
 30
0.0
 10
0.8264724409448819
 20
1.1243582677165356
 30
0.0
 10
0.8264724409448819
 20
1.1243582677165356
 30
0.0
 10
0.8264724409448819
 20
1.1243582677165356
 30
0.0
 10
0.8493110236220473
 20
1.1486299212598425
 30
0.0
 10
0.8493110236220473
 20
1.1486299212598425
 30
0.0
  0
SPLINE
  5
39
100
AcDbEntity
  8
LAYER_1
 62
     9
100
AcDbSpline
210
0.0
220
0.0
230
1.0
 70
     1
 71
     3
 72
    20
 73
    16
 74
     0
 42
0.0000000001
 43
0.0000000001
 40
0.0
 40
0.0
 40
0.0
 40
0.0
 40
0.25
 40
0.25
 40
0.25
 40
0.25
 40
0.5
 40
0.5
 40
0.5
 40
0.5
 40
0.75
 40
0.75
 40
0.75
 40
0.75
 40
1.0
 40
1.0
 40
1.0
 40
1.0
 10
0.8264724409448819
 20
1.1243582677165356
 30
0.0
 10
0.8264724409448819
 20
1.1243582677165356
 30
0.0
 10
1.4869330708661417
 20
0.7436535433070867
 30
0.0
 10
1.4869330708661417
 20
0.7436535433070867
 30
0.0
 10
1.4869330708661417
 20
0.7436535433070867
 30
0.0
 10
1.4869330708661417
 20
0.7436535433070867
 30
0.0
 10
1.4668503937007875
 20
0.7174133858267717
 30
0.0
 10
1.4668503937007875
 20
0.7174133858267717
 30
0.0
 10
1.4668503937007875
 20
0.7174133858267717
 30
0.0
 10
1.4668503937007875
 20
0.7174133858267717
 30
0.0
 10
0.8063897637795275
 20
1.0981181102362205
 30
0.0
 10
0.8063897637795275
 20
1.0981181102362205
 30
0.0
 10
0.8063897637795275
 20
1.0981181102362205
 30
0.0
 10
0.8063897637795275
 20
1.0981181102362205
 30
0.0
 10
0.8264724409448819
 20
1.1243582677165356
 30
0.0
 10
0.8264724409448819
 20
1.1243582677165356
 30
0.0
  0
SPLINE
  5
3A
100
AcDbEntity
  8
LAYER_1
 62
     9
100
AcDbSpline
210
0.0
220
0.0
230
1.0
 70
     1
 71
     3
 72
    20
 73
    16
 74
     0
 42
0.0000000001
 43
0.0000000001
 40
0.0
 40
0.0
 40
0.0
 40
0.0
 40
0.25
 40
0.25
 40
0.25
 40
0.25
 40
0.5
 40
0.5
 40
0.5
 40
0.5
 40
0.75
 40
0.75
 40
0.75
 40
0.75
 40
1.0
 40
1.0
 40
1.0
 40
1.0
 10
0.8063897637795275
 20
1.0981181102362205
 30
0.0
 10
0.8063897637795275
 20
1.0981181102362205
 30
0.0
 10
1.4668503937007875
 20
0.7174133858267717
 30
0.0
 10
1.4668503937007875
 20
0.7174133858267717
 30
0.0
 10
1.4668503937007875
 20
0.7174133858267717
 30
0.0
 10
1.4668503937007875
 20
0.7174133858267717
 30
0.0
 10
1.4490472440944882
 20
0.6893267716535433
 30
0.0
 10
1.4490472440944882
 20
0.6893267716535433
 30
0.0
 10
1.4490472440944882
 20
0.6893267716535433
 30
0.0
 10
1.4490472440944882
 20
0.6893267716535433
 30
0.0
 10
0.7885866141732284
 20
1.0700314960629922
 30
0.0
 10
0.7885866141732284
 20
1.0700314960629922
 30
0.0
 10
0.7885866141732284
 20
1.0700314960629922
 30
0.0
 10
0.7885866141732284
 20
1.0700314960629922
 30
0.0
 10
0.8063897637795275
 20
1.0981181102362205
 30
0.0
 10
0.8063897637795275
 20
1.0981181102362205
 30
0.0
  0
SPLINE
  5
3B
100
AcDbEntity
  8
LAYER_1
 62
     9
100
AcDbSpline
210
0.0
220
0.0
230
1.0
 70
     1
 71
     3
 72
    20
 73
    16
 74
     0
 42
0.0000000001
 43
0.0000000001
 40
0.0
 40
0.0
 40
0.0
 40
0.0
 40
0.25
 40
0.25
 40
0.25
 40
0.25
 40
0.5
 40
0.5
 40
0.5
 40
0.5
 40
0.75
 40
0.75
 40
0.75
 40
0.75
 40
1.0
 40
1.0
 40
1.0
 40
1.0
 10
0.7885866141732284
 20
1.0700314960629922
 30
0.0
 10
0.7885866141732284
 20
1.0700314960629922
 30
0.0
 10
1.4490472440944882
 20
0.6893267716535433
 30
0.0
 10
1.4490472440944882
 20
0.6893267716535433
 30
0.0
 10
1.4490472440944882
 20
0.6893267716535433
 30
0.0
 10
1.4490472440944882
 20
0.6893267716535433
 30
0.0
 10
1.4330787401574803
 20
0.6595433070866142
 30
0.0
 10
1.4330787401574803
 20
0.6595433070866142
 30
0.0
 10
1.4330787401574803
 20
0.6595433070866142
 30
0.0
 10
1.4330787401574803
 20
0.6595433070866142
 30
0.0
 10
0.7726181102362205
 20
1.0402480314960629
 30
0.0
 10
0.7726181102362205
 20
1.0402480314960629
 30
0.0
 10
0.7726181102362205
 20
1.0402480314960629
 30
0.0
 10
0.7726181102362205
 20
1.0402480314960629
 30
0.0
 10
0.7885866141732284
 20
1.0700314960629922
 30
0.0
 10
0.7885866141732284
 20
1.0700314960629922
 30
0.0
  0
SPLINE
  5
3C
100
AcDbEntity
  8
LAYER_1
 62
     9
100
AcDbSpline
210
0.0
220
0.0
230
1.0
 70
     1
 71
     3
 72
    20
 73
    16
 74
     0
 42
0.0000000001
 43
0.0000000001
 40
0.0
 40
0.0
 40
0.0
 40
0.0
 40
0.25
 40
0.25
 40
0.25
 40
0.25
 40
0.5
 40
0.5
 40
0.5
 40
0.5
 40
0.75
 40
0.75
 40
0.75
 40
0.75
 40
1.0
 40
1.0
 40
1.0
 40
1.0
 10
0.7726181102362205
 20
1.0402480314960629
 30
0.0
 10
0.7726181102362205
 20
1.0402480314960629
 30
0.0
 10
1.4330787401574803
 20
0.6595433070866142
 30
0.0
 10
1.4330787401574803
 20
0.6595433070866142
 30
0.0
 10
1.4330787401574803
 20
0.6595433070866142
 30
0.0
 10
1.4330787401574803
 20
0.6595433070866142
 30
0.0
 10
1.4184763779527561
 20
0.6281850393700788
 30
0.0
 10
1.4184763779527561
 20
0.6281850393700788
 30
0.0
 10
1.4184763779527561
 20
0.6281850393700788
 30
0.0
 10
1.4184763779527561
 20
0.6281850393700788
 30
0.0
 10
0.7580157480314961
 20
1.0088897637795275
 30
0.0
 10
0.7580157480314961
 20
1.0088897637795275
 30
0.0
 10
0.7580157480314961
 20
1.0088897637795275
 30
0.0
 10
0.7580157480314961
 20
1.0088897637795275
 30
0.0
 10
0.7726181102362205
 20
1.0402480314960629
 30
0.0
 10
0.7726181102362205
 20
1.0402480314960629
 30
0.0
  0
SPLINE
  5
3D
100
AcDbEntity
  8
LAYER_1
 62
     9
100
AcDbSpline
210
0.0
220
0.0
230
1.0
 70
     1
 71
     3
 72
    20
 73
    16
 74
     0
 42
0.0000000001
 43
0.0000000001
 40
0.0
 40
0.0
 40
0.0
 40
0.0
 40
0.25
 40
0.25
 40
0.25
 40
0.25
 40
0.5
 40
0.5
 40
0.5
 40
0.5
 40
0.75
 40
0.75
 40
0.75
 40
0.75
 40
1.0
 40
1.0
 40
1.0
 40
1.0
 10
0.7580157480314961
 20
1.0088897637795275
 30
0.0
 10
0.7580157480314961
 20
1.0088897637795275
 30
0.0
 10
1.4184763779527561
 20
0.6281850393700788
 30
0.0
 10
1.4184763779527561
 20
0.6281850393700788
 30
0.0
 10
1.4184763779527561
 20
0.6281850393700788
 30
0.0
 10
1.4184763779527561
 20
0.6281850393700788
 30
0.0
 10
1.4047913385826771
 20
0.5953976377952757
 30
0.0
 10
1.4047913385826771
 20
0.5953976377952757
 30
0.0
 10
1.4047913385826771
 20
0.5953976377952757
 30
0.0
 10
1.4047913385826771
 20
0.5953976377952757
 30
0.0
 10
0.7443307086614174
 20
0.9761023622047245
 30
0.0
 10
0.7443307086614174
 20
0.9761023622047245
 30
0.0
 10
0.7443307086614174
 20
0.9761023622047245
 30
0.0
 10
0.7443307086614174
 20
0.9761023622047245
 30
0.0
 10
0.7580157480314961
 20
1.0088897637795275
 30
0.0
 10
0.7580157480314961
 20
1.0088897637795275
 30
0.0
  0
SPLINE
  5
3E
100
AcDbEntity
  8
LAYER_1
 62
     9
100
AcDbSpline
210
0.0
220
0.0
230
1.0
 70
     1
 71
     3
 72
    20
 73
    16
 74
     0
 42
0.0000000001
 43
0.0000000001
 40
0.0
 40
0.0
 40
0.0
 40
0.0
 40
0.25
 40
0.25
 40
0.25
 40
0.25
 40
0.5
 40
0.5
 40
0.5
 40
0.5
 40
0.75
 40
0.75
 40
0.75
 40
0.75
 40
1.0
 40
1.0
 40
1.0
 40
1.0
 10
0.7443307086614174
 20
0.9761023622047245
 30
0.0
 10
0.7443307086614174
 20
0.9761023622047245
 30
0.0
 10
1.4047913385826771
 20
0.5953976377952757
 30
0.0
 10
1.4047913385826771
 20
0.5953976377952757
 30
0.0
 10
1.4047913385826771
 20
0.5953976377952757
 30
0.0
 10
1.4047913385826771
 20
0.5953976377952757
 30
0.0
 10
1.3915669291338584
 20
0.5613070866141733
 30
0.0
 10
1.3915669291338584
 20
0.5613070866141733
 30
0.0
 10
1.3915669291338584
 20
0.5613070866141733
 30
0.0
 10
1.3915669291338584
 20
0.5613070866141733
 30
0.0
 10
0.7311062992125984
 20
0.9420118110236221
 30
0.0
 10
0.7311062992125984
 20
0.9420118110236221
 30
0.0
 10
0.7311062992125984
 20
0.9420118110236221
 30
0.0
 10
0.7311062992125984
 20
0.9420118110236221
 30
0.0
 10
0.7443307086614174
 20
0.9761023622047245
 30
0.0
 10
0.7443307086614174
 20
0.9761023622047245
 30
0.0
  0
SPLINE
  5
3F
100
AcDbEntity
  8
LAYER_1
 62
     9
100
AcDbSpline
210
0.0
220
0.0
230
1.0
 70
     1
 71
     3
 72
    20
 73
    16
 74
     0
 42
0.0000000001
 43
0.0000000001
 40
0.0
 40
0.0
 40
0.0
 40
0.0
 40
0.25
 40
0.25
 40
0.25
 40
0.25
 40
0.5
 40
0.5
 40
0.5
 40
0.5
 40
0.75
 40
0.75
 40
0.75
 40
0.75
 40
1.0
 40
1.0
 40
1.0
 40
1.0
 10
0.7311062992125984
 20
0.9420118110236221
 30
0.0
 10
0.7311062992125984
 20
0.9420118110236221
 30
0.0
 10
1.3915669291338584
 20
0.5613070866141733
 30
0.0
 10
1.3915669291338584
 20
0.5613070866141733
 30
0.0
 10
1.3915669291338584
 20
0.5613070866141733
 30
0.0
 10
1.3915669291338584
 20
0.5613070866141733
 30
0.0
 10
1.3783464566929133
 20
0.5260590551181102
 30
0.0
 10
1.3783464566929133
 20
0.5260590551181102
 30
0.0
 10
1.3783464566929133
 20
0.5260590551181102
 30
0.0
 10
1.3783464566929133
 20
0.5260590551181102
 30
0.0
 10
0.7178858267716536
 20
0.906763779527559
 30
0.0
 10
0.7178858267716536
 20
0.906763779527559
 30
0.0
 10
0.7178858267716536
 20
0.906763779527559
 30
0.0
 10
0.7178858267716536
 20
0.906763779527559
 30
0.0
 10
0.7311062992125984
 20
0.9420118110236221
 30
0.0
 10
0.7311062992125984
 20
0.9420118110236221
 30
0.0
  0
SPLINE
  5
40
100
AcDbEntity
  8
LAYER_1
 62
     9
100
AcDbSpline
210
0.0
220
0.0
230
1.0
 70
     1
 71
     3
 72
    20
 73
    16
 74
     0
 42
0.0000000001
 43
0.0000000001
 40
0.0
 40
0.0
 40
0.0
 40
0.0
 40
0.25
 40
0.25
 40
0.25
 40
0.25
 40
0.5
 40
0.5
 40
0.5
 40
0.5
 40
0.75
 40
0.75
 40
0.75
 40
0.75
 40
1.0
 40
1.0
 40
1.0
 40
1.0
 10
0.7178858267716536
 20
0.906763779527559
 30
0.0
 10
0.7178858267716536
 20
0.906763779527559
 30
0.0
 10
1.3783464566929133
 20
0.5260590551181102
 30
0.0
 10
1.3783464566929133
 20
0.5260590551181102
 30
0.0
 10
1.3783464566929133
 20
0.5260590551181102
 30
0.0
 10
1.3783464566929133
 20
0.5260590551181102
 30
0.0
 10
1.3646574803149607
 20
0.4897716535433071
 30
0.0
 10
1.3646574803149607
 20
0.4897716535433071
 30
0.0
 10
1.3646574803149607
 20
0.4897716535433071
 30
0.0
 10
1.3646574803149607
 20
0.4897716535433071
 30
0.0
 10
0.7041968503937008
 20
0.8704763779527559
 30
0.0
 10
0.7041968503937008
 20
0.8704763779527559
 30
0.0
 10
0.7041968503937008
 20
0.8704763779527559
 30
0.0
 10
0.7041968503937008
 20
0.8704763779527559
 30
0.0
 10
0.7178858267716536
 20
0.906763779527559
 30
0.0
 10
0.7178858267716536
 20
0.906763779527559
 30
0.0
  0
SPLINE
  5
41
100
AcDbEntity
  8
LAYER_1
 62
     9
100
AcDbSpline
210
0.0
220
0.0
230
1.0
 70
     1
 71
     3
 72
    20
 73
    16
 74
     0
 42
0.0000000001
 43
0.0000000001
 40
0.0
 40
0.0
 40
0.0
 40
0.0
 40
0.25
 40
0.25
 40
0.25
 40
0.25
 40
0.5
 40
0.5
 40
0.5
 40
0.5
 40
0.75
 40
0.75
 40
0.75
 40
0.75
 40
1.0
 40
1.0
 40
1.0
 40
1.0
 10
0.7041968503937008
 20
0.8704763779527559
 30
0.0
 10
0.7041968503937008
 20
0.8704763779527559
 30
0.0
 10
1.3646574803149607
 20
0.4897716535433071
 30
0.0
 10
1.3646574803149607
 20
0.4897716535433071
 30
0.0
 10
1.3646574803149607
 20
0.4897716535433071
 30
0.0
 10
1.3646574803149607
 20
0.4897716535433071
 30
0.0
 10
1.3500629921259844
 20
0.4525984251968504
 30
0.0
 10
1.3500629921259844
 20
0.4525984251968504
 30
0.0
 10
1.3500629921259844
 20
0.4525984251968504
 30
0.0
 10
1.3500629921259844
 20
0.4525984251968504
 30
0.0
 10
0.6896023622047245
 20
0.8333031496062993
 30
0.0
 10
0.6896023622047245
 20
0.8333031496062993
 30
0.0
 10
0.6896023622047245
 20
0.8333031496062993
 30
0.0
 10
0.6896023622047245
 20
0.8333031496062993
 30
0.0
 10
0.7041968503937008
 20
0.8704763779527559
 30
0.0
 10
0.7041968503937008
 20
0.8704763779527559
 30
0.0
  0
SPLINE
  5
42
100
AcDbEntity
  8
LAYER_1
 62
     9
100
AcDbSpline
210
0.0
220
0.0
230
1.0
 70
     1
 71
     3
 72
    20
 73
    16
 74
     0
 42
0.0000000001
 43
0.0000000001
 40
0.0
 40
0.0
 40
0.0
 40
0.0
 40
0.25
 40
0.25
 40
0.25
 40
0.25
 40
0.5
 40
0.5
 40
0.5
 40
0.5
 40
0.75
 40
0.75
 40
0.75
 40
0.75
 40
1.0
 40
1.0
 40
1.0
 40
1.0
 10
0.6896023622047245
 20
0.8333031496062993
 30
0.0
 10
0.6896023622047245
 20
0.8333031496062993
 30
0.0
 10
1.3500629921259844
 20
0.4525984251968504
 30
0.0
 10
1.3500629921259844
 20
0.4525984251968504
 30
0.0
 10
1.3500629921259844
 20
0.4525984251968504
 30
0.0
 10
1.3500629921259844
 20
0.4525984251968504
 30
0.0
 10
1.3340905511811023
 20
0.4146653543307087
 30
0.0
 10
1.3340905511811023
 20
0.4146653543307087
 30
0.0
 10
1.3340905511811023
 20
0.4146653543307087
 30
0.0
 10
1.3340905511811023
 20
0.4146653543307087
 30
0.0
 10
0.6736299212598426
 20
0.7953700787401575
 30
0.0
 10
0.6736299212598426
 20
0.7953700787401575
 30
0.0
 10
0.6736299212598426
 20
0.7953700787401575
 30
0.0
 10
0.6736299212598426
 20
0.7953700787401575
 30
0.0
 10
0.6896023622047245
 20
0.8333031496062993
 30
0.0
 10
0.6896023622047245
 20
0.8333031496062993
 30
0.0
  0
SPLINE
  5
43
100
AcDbEntity
  8
LAYER_1
 62
     9
100
AcDbSpline
210
0.0
220
0.0
230
1.0
 70
     1
 71
     3
 72
    20
 73
    16
 74
     0
 42
0.0000000001
 43
0.0000000001
 40
0.0
 40
0.0
 40
0.0
 40
0.0
 40
0.25
 40
0.25
 40
0.25
 40
0.25
 40
0.5
 40
0.5
 40
0.5
 40
0.5
 40
0.75
 40
0.75
 40
0.75
 40
0.75
 40
1.0
 40
1.0
 40
1.0
 40
1.0
 10
0.6736299212598426
 20
0.7953700787401575
 30
0.0
 10
0.6736299212598426
 20
0.7953700787401575
 30
0.0
 10
1.3340905511811023
 20
0.4146653543307087
 30
0.0
 10
1.3340905511811023
 20
0.4146653543307087
 30
0.0
 10
1.3340905511811023
 20
0.4146653543307087
 30
0.0
 10
1.3340905511811023
 20
0.4146653543307087
 30
0.0
 10
1.3162992125984252
 20
0.3761181102362205
 30
0.0
 10
1.3162992125984252
 20
0.3761181102362205
 30
0.0
 10
1.3162992125984252
 20
0.3761181102362205
 30
0.0
 10
1.3162992125984252
 20
0.3761181102362205
 30
0.0
 10
0.6558385826771653
 20
0.7568228346456694
 30
0.0
 10
0.6558385826771653
 20
0.7568228346456694
 30
0.0
 10
0.6558385826771653
 20
0.7568228346456694
 30
0.0
 10
0.6558385826771653
 20
0.7568228346456694
 30
0.0
 10
0.6736299212598426
 20
0.7953700787401575
 30
0.0
 10
0.6736299212598426
 20
0.7953700787401575
 30
0.0
  0
SPLINE
  5
44
100
AcDbEntity
  8
LAYER_1
 62
     9
100
AcDbSpline
210
0.0
220
0.0
230
1.0
 70
     1
 71
     3
 72
    20
 73
    16
 74
     0
 42
0.0000000001
 43
0.0000000001
 40
0.0
 40
0.0
 40
0.0
 40
0.0
 40
0.25
 40
0.25
 40
0.25
 40
0.25
 40
0.5
 40
0.5
 40
0.5
 40
0.5
 40
0.75
 40
0.75
 40
0.75
 40
0.75
 40
1.0
 40
1.0
 40
1.0
 40
1.0
 10
0.6558385826771653
 20
0.7568228346456694
 30
0.0
 10
0.6558385826771653
 20
0.7568228346456694
 30
0.0
 10
1.3162992125984252
 20
0.3761181102362205
 30
0.0
 10
1.3162992125984252
 20
0.3761181102362205
 30
0.0
 10
1.3162992125984252
 20
0.3761181102362205
 30
0.0
 10
1.3162992125984252
 20
0.3761181102362205
 30
0.0
 10
1.2962165354330708
 20
0.3370708661417323
 30
0.0
 10
1.2962165354330708
 20
0.3370708661417323
 30
0.0
 10
1.2962165354330708
 20
0.3370708661417323
 30
0.0
 10
1.2962165354330708
 20
0.3370708661417323
 30
0.0
 10
0.6357559055118111
 20
0.7177755905511811
 30
0.0
 10
0.6357559055118111
 20
0.7177755905511811
 30
0.0
 10
0.6357559055118111
 20
0.7177755905511811
 30
0.0
 10
0.6357559055118111
 20
0.7177755905511811
 30
0.0
 10
0.6558385826771653
 20
0.7568228346456694
 30
0.0
 10
0.6558385826771653
 20
0.7568228346456694
 30
0.0
  0
SPLINE
  5
45
100
AcDbEntity
  8
LAYER_1
 62
     9
100
AcDbSpline
210
0.0
220
0.0
230
1.0
 70
     1
 71
     3
 72
    20
 73
    16
 74
     0
 42
0.0000000001
 43
0.0000000001
 40
0.0
 40
0.0
 40
0.0
 40
0.0
 40
0.25
 40
0.25
 40
0.25
 40
0.25
 40
0.5
 40
0.5
 40
0.5
 40
0.5
 40
0.75
 40
0.75
 40
0.75
 40
0.75
 40
1.0
 40
1.0
 40
1.0
 40
1.0
 10
0.6357559055118111
 20
0.7177755905511811
 30
0.0
 10
0.6357559055118111
 20
0.7177755905511811
 30
0.0
 10
1.2962165354330708
 20
0.3370708661417323
 30
0.0
 10
1.2962165354330708
 20
0.3370708661417323
 30
0.0
 10
1.2962165354330708
 20
0.3370708661417323
 30
0.0
 10
1.2962165354330708
 20
0.3370708661417323
 30
0.0
 10
1.2733937007874017
 20
0.2976811023622047
 30
0.0
 10
1.2733937007874017
 20
0.2976811023622047
 30
0.0
 10
1.2733937007874017
 20
0.2976811023622047
 30
0.0
 10
1.2733937007874017
 20
0.2976811023622047
 30
0.0
 10
0.6129330708661418
 20
0.6783858267716536
 30
0.0
 10
0.6129330708661418
 20
0.6783858267716536
 30
0.0
 10
0.6129330708661418
 20
0.6783858267716536
 30
0.0
 10
0.6129330708661418
 20
0.6783858267716536
 30
0.0
 10
0.6357559055118111
 20
0.7177755905511811
 30
0.0
 10
0.6357559055118111
 20
0.7177755905511811
 30
0.0
  0
SPLINE
  5
46
100
AcDbEntity
  8
LAYER_1
 62
     9
100
AcDbSpline
210
0.0
220
0.0
230
1.0
 70
     1
 71
     3
 72
    20
 73
    16
 74
     0
 42
0.0000000001
 43
0.0000000001
 40
0.0
 40
0.0
 40
0.0
 40
0.0
 40
0.25
 40
0.25
 40
0.25
 40
0.25
 40
0.5
 40
0.5
 40
0.5
 40
0.5
 40
0.75
 40
0.75
 40
0.75
 40
0.75
 40
1.0
 40
1.0
 40
1.0
 40
1.0
 10
0.6129330708661418
 20
0.6783858267716536
 30
0.0
 10
0.6129330708661418
 20
0.6783858267716536
 30
0.0
 10
1.2733937007874017
 20
0.2976811023622047
 30
0.0
 10
1.2733937007874017
 20
0.2976811023622047
 30
0.0
 10
1.2733937007874017
 20
0.2976811023622047
 30
0.0
 10
1.2733937007874017
 20
0.2976811023622047
 30
0.0
 10
1.2473661417322834
 20
0.2580708661417323
 30
0.0
 10
1.2473661417322834
 20
0.2580708661417323
 30
0.0
 10
1.2473661417322834
 20
0.2580708661417323
 30
0.0
 10
1.2473661417322834
 20
0.2580708661417323
 30
0.0
 10
0.5869055118110237
 20
0.6387755905511812
 30
0.0
 10
0.5869055118110237
 20
0.6387755905511812
 30
0.0
 10
0.5869055118110237
 20
0.6387755905511812
 30
0.0
 10
0.5869055118110237
 20
0.6387755905511812
 30
0.0
 10
0.6129330708661418
 20
0.6783858267716536
 30
0.0
 10
0.6129330708661418
 20
0.6783858267716536
 30
0.0
  0
SPLINE
  5
47
100
AcDbEntity
  8
LAYER_1
 62
     9
100
AcDbSpline
210
0.0
220
0.0
230
1.0
 70
     1
 71
     3
 72
    20
 73
    16
 74
     0
 42
0.0000000001
 43
0.0000000001
 40
0.0
 40
0.0
 40
0.0
 40
0.0
 40
0.25
 40
0.25
 40
0.25
 40
0.25
 40
0.5
 40
0.5
 40
0.5
 40
0.5
 40
0.75
 40
0.75
 40
0.75
 40
0.75
 40
1.0
 40
1.0
 40
1.0
 40
1.0
 10
0.5869055118110237
 20
0.6387755905511812
 30
0.0
 10
0.5869055118110237
 20
0.6387755905511812
 30
0.0
 10
1.2473661417322834
 20
0.2580708661417323
 30
0.0
 10
1.2473661417322834
 20
0.2580708661417323
 30
0.0
 10
1.2473661417322834
 20
0.2580708661417323
 30
0.0
 10
1.2473661417322834
 20
0.2580708661417323
 30
0.0
 10
1.2176889763779528
 20
0.2183858267716536
 30
0.0
 10
1.2176889763779528
 20
0.2183858267716536
 30
0.0
 10
1.2176889763779528
 20
0.2183858267716536
 30
0.0
 10
1.2176889763779528
 20
0.2183858267716536
 30
0.0
 10
0.557228346456693
 20
0.5990905511811024
 30
0.0
 10
0.557228346456693
 20
0.5990905511811024
 30
0.0
 10
0.557228346456693
 20
0.5990905511811024
 30
0.0
 10
0.557228346456693
 20
0.5990905511811024
 30
0.0
 10
0.5869055118110237
 20
0.6387755905511812
 30
0.0
 10
0.5869055118110237
 20
0.6387755905511812
 30
0.0
  0
SPLINE
  5
48
100
AcDbEntity
  8
LAYER_1
 62
     9
100
AcDbSpline
210
0.0
220
0.0
230
1.0
 70
     1
 71
     3
 72
    20
 73
    16
 74
     0
 42
0.0000000001
 43
0.0000000001
 40
0.0
 40
0.0
 40
0.0
 40
0.0
 40
0.25
 40
0.25
 40
0.25
 40
0.25
 40
0.5
 40
0.5
 40
0.5
 40
0.5
 40
0.75
 40
0.75
 40
0.75
 40
0.75
 40
1.0
 40
1.0
 40
1.0
 40
1.0
 10
0.557228346456693
 20
0.5990905511811024
 30
0.0
 10
0.557228346456693
 20
0.5990905511811024
 30
0.0
 10
1.2176889763779528
 20
0.2183858267716536
 30
0.0
 10
1.2176889763779528
 20
0.2183858267716536
 30
0.0
 10
1.2176889763779528
 20
0.2183858267716536
 30
0.0
 10
1.2176889763779528
 20
0.2183858267716536
 30
0.0
 10
1.1838858267716537
 20
0.178748031496063
 30
0.0
 10
1.1838858267716537
 20
0.178748031496063
 30
0.0
 10
1.1838858267716537
 20
0.178748031496063
 30
0.0
 10
1.1838858267716537
 20
0.178748031496063
 30
0.0
 10
0.5234251968503937
 20
0.5594527559055118
 30
0.0
 10
0.5234251968503937
 20
0.5594527559055118
 30
0.0
 10
0.5234251968503937
 20
0.5594527559055118
 30
0.0
 10
0.5234251968503937
 20
0.5594527559055118
 30
0.0
 10
0.557228346456693
 20
0.5990905511811024
 30
0.0
 10
0.557228346456693
 20
0.5990905511811024
 30
0.0
  0
SPLINE
  5
49
100
AcDbEntity
  8
LAYER_1
 62
     9
100
AcDbSpline
210
0.0
220
0.0
230
1.0
 70
     1
 71
     3
 72
    20
 73
    16
 74
     0
 42
0.0000000001
 43
0.0000000001
 40
0.0
 40
0.0
 40
0.0
 40
0.0
 40
0.25
 40
0.25
 40
0.25
 40
0.25
 40
0.5
 40
0.5
 40
0.5
 40
0.5
 40
0.75
 40
0.75
 40
0.75
 40
0.75
 40
1.0
 40
1.0
 40
1.0
 40
1.0
 10
0.5234251968503937
 20
0.5594527559055118
 30
0.0
 10
0.5234251968503937
 20
0.5594527559055118
 30
0.0
 10
1.1838858267716537
 20
0.178748031496063
 30
0.0
 10
1.1838858267716537
 20
0.178748031496063
 30
0.0
 10
1.1838858267716537
 20
0.178748031496063
 30
0.0
 10
1.1838858267716537
 20
0.178748031496063
 30
0.0
 10
1.1455157480314961
 20
0.1393031496062992
 30
0.0
 10
1.1455157480314961
 20
0.1393031496062992
 30
0.0
 10
1.1455157480314961
 20
0.1393031496062992
 30
0.0
 10
1.1455157480314961
 20
0.1393031496062992
 30
0.0
 10
0.4850551181102362
 20
0.5200078740157481
 30
0.0
 10
0.4850551181102362
 20
0.5200078740157481
 30
0.0
 10
0.4850551181102362
 20
0.5200078740157481
 30
0.0
 10
0.4850551181102362
 20
0.5200078740157481
 30
0.0
 10
0.5234251968503937
 20
0.5594527559055118
 30
0.0
 10
0.5234251968503937
 20
0.5594527559055118
 30
0.0
  0
SPLINE
  5
4A
100
AcDbEntity
  8
LAYER_1
 62
     9
100
AcDbSpline
210
0.0
220
0.0
230
1.0
 70
     1
 71
     3
 72
    20
 73
    16
 74
     0
 42
0.0000000001
 43
0.0000000001
 40
0.0
 40
0.0
 40
0.0
 40
0.0
 40
0.25
 40
0.25
 40
0.25
 40
0.25
 40
0.5
 40
0.5
 40
0.5
 40
0.5
 40
0.75
 40
0.75
 40
0.75
 40
0.75
 40
1.0
 40
1.0
 40
1.0
 40
1.0
 10
0.4850551181102362
 20
0.5200078740157481
 30
0.0
 10
0.4850551181102362
 20
0.5200078740157481
 30
0.0
 10
1.1455157480314961
 20
0.1393031496062992
 30
0.0
 10
1.1455157480314961
 20
0.1393031496062992
 30
0.0
 10
1.1455157480314961
 20
0.1393031496062992
 30
0.0
 10
1.1455157480314961
 20
0.1393031496062992
 30
0.0
 10
1.1021141732283466
 20
0.1001771653543307
 30
0.0
 10
1.1021141732283466
 20
0.1001771653543307
 30
0.0
 10
1.1021141732283466
 20
0.1001771653543307
 30
0.0
 10
1.1021141732283466
 20
0.1001771653543307
 30
0.0
 10
0.4416535433070866
 20
0.4808818897637796
 30
0.0
 10
0.4416535433070866
 20
0.4808818897637796
 30
0.0
 10
0.4416535433070866
 20
0.4808818897637796
 30
0.0
 10
0.4416535433070866
 20
0.4808818897637796
 30
0.0
 10
0.4850551181102362
 20
0.5200078740157481
 30
0.0
 10
0.4850551181102362
 20
0.5200078740157481
 30
0.0
  0
SPLINE
  5
4B
100
AcDbEntity
  8
LAYER_1
 62
     9
100
AcDbSpline
210
0.0
220
0.0
230
1.0
 70
     1
 71
     3
 72
    20
 73
    16
 74
     0
 42
0.0000000001
 43
0.0000000001
 40
0.0
 40
0.0
 40
0.0
 40
0.0
 40
0.25
 40
0.25
 40
0.25
 40
0.25
 40
0.5
 40
0.5
 40
0.5
 40
0.5
 40
0.75
 40
0.75
 40
0.75
 40
0.75
 40
1.0
 40
1.0
 40
1.0
 40
1.0
 10
0.4416535433070866
 20
0.4808818897637796
 30
0.0
 10
0.4416535433070866
 20
0.4808818897637796
 30
0.0
 10
1.1021141732283466
 20
0.1001771653543307
 30
0.0
 10
1.1021141732283466
 20
0.1001771653543307
 30
0.0
 10
1.1021141732283466
 20
0.1001771653543307
 30
0.0
 10
1.1021141732283466
 20
0.1001771653543307
 30
0.0
 10
1.0532322834645669
 20
0.0615196850393701
 30
0.0
 10
1.0532322834645669
 20
0.0615196850393701
 30
0.0
 10
1.0532322834645669
 20
0.0615196850393701
 30
0.0
 10
1.0532322834645669
 20
0.0615196850393701
 30
0.0
 10
0.3927716535433071
 20
0.4422244094488189
 30
0.0
 10
0.3927716535433071
 20
0.4422244094488189
 30
0.0
 10
0.3927716535433071
 20
0.4422244094488189
 30
0.0
 10
0.3927716535433071
 20
0.4422244094488189
 30
0.0
 10
0.4416535433070866
 20
0.4808818897637796
 30
0.0
 10
0.4416535433070866
 20
0.4808818897637796
 30
0.0
  0
SPLINE
  5
4C
100
AcDbEntity
  8
LAYER_1
 62
     9
100
AcDbSpline
210
0.0
220
0.0
230
1.0
 70
     1
 71
     3
 72
    20
 73
    16
 74
     0
 42
0.0000000001
 43
0.0000000001
 40
0.0
 40
0.0
 40
0.0
 40
0.0
 40
0.25
 40
0.25
 40
0.25
 40
0.25
 40
0.5
 40
0.5
 40
0.5
 40
0.5
 40
0.75
 40
0.75
 40
0.75
 40
0.75
 40
1.0
 40
1.0
 40
1.0
 40
1.0
 10
0.3927716535433071
 20
0.4422244094488189
 30
0.0
 10
0.3927716535433071
 20
0.4422244094488189
 30
0.0
 10
1.0532322834645669
 20
0.0615196850393701
 30
0.0
 10
1.0532322834645669
 20
0.0615196850393701
 30
0.0
 10
1.0532322834645669
 20
0.0615196850393701
 30
0.0
 10
1.0532322834645669
 20
0.0615196850393701
 30
0.0
 10
0.9984015748031496
 20
0.0234488188976378
 30
0.0
 10
0.9984015748031496
 20
0.0234488188976378
 30
0.0
 10
0.9984015748031496
 20
0.0234488188976378
 30
0.0
 10
0.9984015748031496
 20
0.0234488188976378
 30
0.0
 10
0.3379409448818898
 20
0.4041535433070866
 30
0.0
 10
0.3379409448818898
 20
0.4041535433070866
 30
0.0
 10
0.3379409448818898
 20
0.4041535433070866
 30
0.0
 10
0.3379409448818898
 20
0.4041535433070866
 30
0.0
 10
0.3927716535433071
 20
0.4422244094488189
 30
0.0
 10
0.3927716535433071
 20
0.4422244094488189
 30
0.0
  0
SPLINE
  5
4D
100
AcDbEntity
  8
LAYER_1
 62
   253
100
AcDbSpline
210
0.0
220
0.0
230
1.0
 70
     1
 71
     3
 72
    20
 73
    16
 74
     0
 42
0.0000000001
 43
0.0000000001
 40
0.0
 40
0.0
 40
0.0
 40
0.0
 40
0.25
 40
0.25
 40
0.25
 40
0.25
 40
0.5
 40
0.5
 40
0.5
 40
0.5
 40
0.75
 40
0.75
 40
0.75
 40
0.75
 40
1.0
 40
1.0
 40
1.0
 40
1.0
 10
0.3379409448818898
 20
0.4041535433070866
 30
0.0
 10
0.3379409448818898
 20
0.4041535433070866
 30
0.0
 10
0.9984015748031496
 20
0.0234488188976378
 30
0.0
 10
0.9984015748031496
 20
0.0234488188976378
 30
0.0
 10
0.9984015748031496
 20
0.0234488188976378
 30
0.0
 10
0.9984015748031496
 20
0.0234488188976378
 30
0.0
 10
0.9371692913385827
 20
-0.0138858267716535
 30
0.0
 10
0.9371692913385827
 20
-0.0138858267716535
 30
0.0
 10
0.9371692913385827
 20
-0.0138858267716535
 30
0.0
 10
0.9371692913385827
 20
-0.0138858267716535
 30
0.0
 10
0.2767086614173229
 20
0.3668188976377953
 30
0.0
 10
0.2767086614173229
 20
0.3668188976377953
 30
0.0
 10
0.2767086614173229
 20
0.3668188976377953
 30
0.0
 10
0.2767086614173229
 20
0.3668188976377953
 30
0.0
 10
0.3379409448818898
 20
0.4041535433070866
 30
0.0
 10
0.3379409448818898
 20
0.4041535433070866
 30
0.0
  0
SPLINE
  5
4E
100
AcDbEntity
  8
LAYER_1
 62
   253
100
AcDbSpline
210
0.0
220
0.0
230
1.0
 70
     1
 71
     3
 72
    20
 73
    16
 74
     0
 42
0.0000000001
 43
0.0000000001
 40
0.0
 40
0.0
 40
0.0
 40
0.0
 40
0.25
 40
0.25
 40
0.25
 40
0.25
 40
0.5
 40
0.5
 40
0.5
 40
0.5
 40
0.75
 40
0.75
 40
0.75
 40
0.75
 40
1.0
 40
1.0
 40
1.0
 40
1.0
 10
0.2767086614173229
 20
0.3668188976377953
 30
0.0
 10
0.2767086614173229
 20
0.3668188976377953
 30
0.0
 10
0.9371692913385827
 20
-0.0138858267716535
 30
0.0
 10
0.9371692913385827
 20
-0.0138858267716535
 30
0.0
 10
0.9371692913385827
 20
-0.0138858267716535
 30
0.0
 10
0.9371692913385827
 20
-0.0138858267716535
 30
0.0
 10
0.8690787401574803
 20
-0.0503543307086614
 30
0.0
 10
0.8690787401574803
 20
-0.0503543307086614
 30
0.0
 10
0.8690787401574803
 20
-0.0503543307086614
 30
0.0
 10
0.8690787401574803
 20
-0.0503543307086614
 30
0.0
 10
0.2086181102362205
 20
0.3303503937007874
 30
0.0
 10
0.2086181102362205
 20
0.3303503937007874
 30
0.0
 10
0.2086181102362205
 20
0.3303503937007874
 30
0.0
 10
0.2086181102362205
 20
0.3303503937007874
 30
0.0
 10
0.2767086614173229
 20
0.3668188976377953
 30
0.0
 10
0.2767086614173229
 20
0.3668188976377953
 30
0.0
  0
SPLINE
  5
4F
100
AcDbEntity
  8
LAYER_1
 62
   253
100
AcDbSpline
210
0.0
220
0.0
230
1.0
 70
     1
 71
     3
 72
    20
 73
    16
 74
     0
 42
0.0000000001
 43
0.0000000001
 40
0.0
 40
0.0
 40
0.0
 40
0.0
 40
0.25
 40
0.25
 40
0.25
 40
0.25
 40
0.5
 40
0.5
 40
0.5
 40
0.5
 40
0.75
 40
0.75
 40
0.75
 40
0.75
 40
1.0
 40
1.0
 40
1.0
 40
1.0
 10
0.2086181102362205
 20
0.3303503937007874
 30
0.0
 10
0.2086181102362205
 20
0.3303503937007874
 30
0.0
 10
0.8690787401574803
 20
-0.0503543307086614
 30
0.0
 10
0.8690787401574803
 20
-0.0503543307086614
 30
0.0
 10
0.8690787401574803
 20
-0.0503543307086614
 30
0.0
 10
0.8690787401574803
 20
-0.0503543307086614
 30
0.0
 10
0.7936811023622048
 20
-0.0858188976377953
 30
0.0
 10
0.7936811023622048
 20
-0.0858188976377953
 30
0.0
 10
0.7936811023622048
 20
-0.0858188976377953
 30
0.0
 10
0.7936811023622048
 20
-0.0858188976377953
 30
0.0
 10
0.1332204724409449
 20
0.2948858267716535
 30
0.0
 10
0.1332204724409449
 20
0.2948858267716535
 30
0.0
 10
0.1332204724409449
 20
0.2948858267716535
 30
0.0
 10
0.1332204724409449
 20
0.2948858267716535
 30
0.0
 10
0.2086181102362205
 20
0.3303503937007874
 30
0.0
 10
0.2086181102362205
 20
0.3303503937007874
 30
0.0
  0
SPLINE
  5
50
100
AcDbEntity
  8
LAYER_1
100
AcDbSpline
210
0.0
220
0.0
230
1.0
 70
     1
 71
     3
 72
   268
 73
   264
 74
     0
 42
0.0000000001
 43
0.0000000001
 40
0.0
 40
0.0
 40
0.0
 40
0.0
 40
0.0151515151515152
 40
0.0151515151515152
 40
0.0151515151515152
 40
0.0151515151515152
 40
0.0303030303030303
 40
0.0303030303030303
 40
0.0303030303030303
 40
0.0303030303030303
 40
0.0454545454545455
 40
0.0454545454545455
 40
0.0454545454545455
 40
0.0454545454545455
 40
0.0606060606060606
 40
0.0606060606060606
 40
0.0606060606060606
 40
0.0606060606060606
 40
0.0757575757575758
 40
0.0757575757575758
 40
0.0757575757575758
 40
0.0757575757575758
 40
0.0909090909090909
 40
0.0909090909090909
 40
0.0909090909090909
 40
0.0909090909090909
 40
0.1060606060606061
 40
0.1060606060606061
 40
0.1060606060606061
 40
0.1060606060606061
 40
0.1212121212121212
 40
0.1212121212121212
 40
0.1212121212121212
 40
0.1212121212121212
 40
0.1363636363636364
 40
0.1363636363636364
 40
0.1363636363636364
 40
0.1363636363636364
 40
0.1515151515151515
 40
0.1515151515151515
 40
0.1515151515151515
 40
0.1515151515151515
 40
0.1666666666666666
 40
0.1666666666666666
 40
0.1666666666666666
 40
0.1666666666666666
 40
0.1818181818181818
 40
0.1818181818181818
 40
0.1818181818181818
 40
0.1818181818181818
 40
0.1969696969696969
 40
0.1969696969696969
 40
0.1969696969696969
 40
0.1969696969696969
 40
0.212121212121212
 40
0.212121212121212
 40
0.212121212121212
 40
0.212121212121212
 40
0.2272727272727272
 40
0.2272727272727272
 40
0.2272727272727272
 40
0.2272727272727272
 40
0.2424242424242423
 40
0.2424242424242423
 40
0.2424242424242423
 40
0.2424242424242423
 40
0.2575757575757575
 40
0.2575757575757575
 40
0.2575757575757575
 40
0.2575757575757575
 40
0.2727272727272726
 40
0.2727272727272726
 40
0.2727272727272726
 40
0.2727272727272726
 40
0.2878787878787877
 40
0.2878787878787877
 40
0.2878787878787877
 40
0.2878787878787877
 40
0.3030303030303029
 40
0.3030303030303029
 40
0.3030303030303029
 40
0.3030303030303029
 40
0.318181818181818
 40
0.318181818181818
 40
0.318181818181818
 40
0.318181818181818
 40
0.3333333333333332
 40
0.3333333333333332
 40
0.3333333333333332
 40
0.3333333333333332
 40
0.3484848484848483
 40
0.3484848484848483
 40
0.3484848484848483
 40
0.3484848484848483
 40
0.3636363636363634
 40
0.3636363636363634
 40
0.3636363636363634
 40
0.3636363636363634
 40
0.3787878787878786
 40
0.3787878787878786
 40
0.3787878787878786
 40
0.3787878787878786
 40
0.3939393939393937
 40
0.3939393939393937
 40
0.3939393939393937
 40
0.3939393939393937
 40
0.4090909090909088
 40
0.4090909090909088
 40
0.4090909090909088
 40
0.4090909090909088
 40
0.424242424242424
 40
0.424242424242424
 40
0.424242424242424
 40
0.424242424242424
 40
0.4393939393939391
 40
0.4393939393939391
 40
0.4393939393939391
 40
0.4393939393939391
 40
0.4545454545454543
 40
0.4545454545454543
 40
0.4545454545454543
 40
0.4545454545454543
 40
0.4696969696969694
 40
0.4696969696969694
 40
0.4696969696969694
 40
0.4696969696969694
 40
0.4848484848484845
 40
0.4848484848484845
 40
0.4848484848484845
 40
0.4848484848484845
 40
0.4999999999999997
 40
0.4999999999999997
 40
0.4999999999999997
 40
0.4999999999999997
 40
0.5151515151515148
 40
0.5151515151515148
 40
0.5151515151515148
 40
0.5151515151515148
 40
0.5303030303030299
 40
0.5303030303030299
 40
0.5303030303030299
 40
0.5303030303030299
 40
0.5454545454545451
 40
0.5454545454545451
 40
0.5454545454545451
 40
0.5454545454545451
 40
0.5606060606060602
 40
0.5606060606060602
 40
0.5606060606060602
 40
0.5606060606060602
 40
0.5757575757575754
 40
0.5757575757575754
 40
0.5757575757575754
 40
0.5757575757575754
 40
0.5909090909090905
 40
0.5909090909090905
 40
0.5909090909090905
 40
0.5909090909090905
 40
0.6060606060606056
 40
0.6060606060606056
 40
0.6060606060606056
 40
0.6060606060606056
 40
0.6212121212121208
 40
0.6212121212121208
 40
0.6212121212121208
 40
0.6212121212121208
 40
0.6363636363636359
 40
0.6363636363636359
 40
0.6363636363636359
 40
0.6363636363636359
 40
0.6515151515151511
 40
0.6515151515151511
 40
0.6515151515151511
 40
0.6515151515151511
 40
0.6666666666666662
 40
0.6666666666666662
 40
0.6666666666666662
 40
0.6666666666666662
 40
0.6818181818181813
 40
0.6818181818181813
 40
0.6818181818181813
 40
0.6818181818181813
 40
0.6969696969696965
 40
0.6969696969696965
 40
0.6969696969696965
 40
0.6969696969696965
 40
0.7121212121212116
 40
0.7121212121212116
 40
0.7121212121212116
 40
0.7121212121212116
 40
0.7272727272727267
 40
0.7272727272727267
 40
0.7272727272727267
 40
0.7272727272727267
 40
0.7424242424242419
 40
0.7424242424242419
 40
0.7424242424242419
 40
0.7424242424242419
 40
0.757575757575757
 40
0.757575757575757
 40
0.757575757575757
 40
0.757575757575757
 40
0.7727272727272722
 40
0.7727272727272722
 40
0.7727272727272722
 40
0.7727272727272722
 40
0.7878787878787873
 40
0.7878787878787873
 40
0.7878787878787873
 40
0.7878787878787873
 40
0.8030303030303024
 40
0.8030303030303024
 40
0.8030303030303024
 40
0.8030303030303024
 40
0.8181818181818176
 40
0.8181818181818176
 40
0.8181818181818176
 40
0.8181818181818176
 40
0.8333333333333327
 40
0.8333333333333327
 40
0.8333333333333327
 40
0.8333333333333327
 40
0.8484848484848478
 40
0.8484848484848478
 40
0.8484848484848478
 40
0.8484848484848478
 40
0.863636363636363
 40
0.863636363636363
 40
0.863636363636363
 40
0.863636363636363
 40
0.8787878787878781
 40
0.8787878787878781
 40
0.8787878787878781
 40
0.8787878787878781
 40
0.8939393939393933
 40
0.8939393939393933
 40
0.8939393939393933
 40
0.8939393939393933
 40
0.9090909090909084
 40
0.9090909090909084
 40
0.9090909090909084
 40
0.9090909090909084
 40
0.9242424242424235
 40
0.9242424242424235
 40
0.9242424242424235
 40
0.9242424242424235
 40
0.9393939393939387
 40
0.9393939393939387
 40
0.9393939393939387
 40
0.9393939393939387
 40
0.9545454545454538
 40
0.9545454545454538
 40
0.9545454545454538
 40
0.9545454545454538
 40
0.969696969696969
 40
0.969696969696969
 40
0.969696969696969
 40
0.969696969696969
 40
0.9848484848484841
 40
0.9848484848484841
 40
0.9848484848484841
 40
0.9848484848484841
 40
1.0
 40
1.0
 40
1.0
 40
1.0
 10
1.1856338582677166
 20
1.2554291338582677
 30
0.0
 10
1.1856338582677166
 20
1.2554291338582677
 30
0.0
 10
1.8460944881889765
 20
0.8747244094488189
 30
0.0
 10
1.8460944881889765
 20
0.8747244094488189
 30
0.0
 10
1.8460944881889765
 20
0.8747244094488189
 30
0.0
 10
1.8460944881889765
 20
0.8747244094488189
 30
0.0
 10
1.7848425196850395
 20
0.8711220472440945
 30
0.0
 10
1.7848425196850395
 20
0.8711220472440945
 30
0.0
 10
1.7848425196850395
 20
0.8711220472440945
 30
0.0
 10
1.7848425196850395
 20
0.8711220472440945
 30
0.0
 10
1.73
 20
0.864472440944882
 30
0.0
 10
1.73
 20
0.864472440944882
 30
0.0
 10
1.73
 20
0.864472440944882
 30
0.0
 10
1.73
 20
0.864472440944882
 30
0.0
 10
1.6810984251968504
 20
0.8548937007874016
 30
0.0
 10
1.6810984251968504
 20
0.8548937007874016
 30
0.0
 10
1.6810984251968504
 20
0.8548937007874016
 30
0.0
 10
1.6810984251968504
 20
0.8548937007874016
 30
0.0
 10
1.6376889763779527
 20
0.8425354330708662
 30
0.0
 10
1.6376889763779527
 20
0.8425354330708662
 30
0.0
 10
1.6376889763779527
 20
0.8425354330708662
 30
0.0
 10
1.6376889763779527
 20
0.8425354330708662
 30
0.0
 10
1.5992992125984253
 20
0.8275157480314961
 30
0.0
 10
1.5992992125984253
 20
0.8275157480314961
 30
0.0
 10
1.5992992125984253
 20
0.8275157480314961
 30
0.0
 10
1.5992992125984253
 20
0.8275157480314961
 30
0.0
 10
1.565492125984252
 20
0.809988188976378
 30
0.0
 10
1.565492125984252
 20
0.809988188976378
 30
0.0
 10
1.565492125984252
 20
0.809988188976378
 30
0.0
 10
1.565492125984252
 20
0.809988188976378
 30
0.0
 10
1.5357992125984252
 20
0.7900748031496063
 30
0.0
 10
1.5357992125984252
 20
0.7900748031496063
 30
0.0
 10
1.5357992125984252
 20
0.7900748031496063
 30
0.0
 10
1.5357992125984252
 20
0.7900748031496063
 30
0.0
 10
1.5097716535433072
 20
0.7679251968503937
 30
0.0
 10
1.5097716535433072
 20
0.7679251968503937
 30
0.0
 10
1.5097716535433072
 20
0.7679251968503937
 30
0.0
 10
1.5097716535433072
 20
0.7679251968503937
 30
0.0
 10
1.4869330708661417
 20
0.7436535433070867
 30
0.0
 10
1.4869330708661417
 20
0.7436535433070867
 30
0.0
 10
1.4869330708661417
 20
0.7436535433070867
 30
0.0
 10
1.4869330708661417
 20
0.7436535433070867
 30
0.0
 10
1.4668503937007875
 20
0.7174133858267717
 30
0.0
 10
1.4668503937007875
 20
0.7174133858267717
 30
0.0
 10
1.4668503937007875
 20
0.7174133858267717
 30
0.0
 10
1.4668503937007875
 20
0.7174133858267717
 30
0.0
 10
1.4490472440944882
 20
0.6893267716535433
 30
0.0
 10
1.4490472440944882
 20
0.6893267716535433
 30
0.0
 10
1.4490472440944882
 20
0.6893267716535433
 30
0.0
 10
1.4490472440944882
 20
0.6893267716535433
 30
0.0
 10
1.4330787401574803
 20
0.6595433070866142
 30
0.0
 10
1.4330787401574803
 20
0.6595433070866142
 30
0.0
 10
1.4330787401574803
 20
0.6595433070866142
 30
0.0
 10
1.4330787401574803
 20
0.6595433070866142
 30
0.0
 10
1.4184763779527561
 20
0.6281850393700788
 30
0.0
 10
1.4184763779527561
 20
0.6281850393700788
 30
0.0
 10
1.4184763779527561
 20
0.6281850393700788
 30
0.0
 10
1.4184763779527561
 20
0.6281850393700788
 30
0.0
 10
1.4047913385826771
 20
0.5953976377952757
 30
0.0
 10
1.4047913385826771
 20
0.5953976377952757
 30
0.0
 10
1.4047913385826771
 20
0.5953976377952757
 30
0.0
 10
1.4047913385826771
 20
0.5953976377952757
 30
0.0
 10
1.3915669291338584
 20
0.5613070866141733
 30
0.0
 10
1.3915669291338584
 20
0.5613070866141733
 30
0.0
 10
1.3915669291338584
 20
0.5613070866141733
 30
0.0
 10
1.3915669291338584
 20
0.5613070866141733
 30
0.0
 10
1.3783464566929133
 20
0.5260590551181102
 30
0.0
 10
1.3783464566929133
 20
0.5260590551181102
 30
0.0
 10
1.3783464566929133
 20
0.5260590551181102
 30
0.0
 10
1.3783464566929133
 20
0.5260590551181102
 30
0.0
 10
1.3646574803149607
 20
0.4897716535433071
 30
0.0
 10
1.3646574803149607
 20
0.4897716535433071
 30
0.0
 10
1.3646574803149607
 20
0.4897716535433071
 30
0.0
 10
1.3646574803149607
 20
0.4897716535433071
 30
0.0
 10
1.3500629921259844
 20
0.4525984251968504
 30
0.0
 10
1.3500629921259844
 20
0.4525984251968504
 30
0.0
 10
1.3500629921259844
 20
0.4525984251968504
 30
0.0
 10
1.3500629921259844
 20
0.4525984251968504
 30
0.0
 10
1.3340905511811023
 20
0.4146653543307087
 30
0.0
 10
1.3340905511811023
 20
0.4146653543307087
 30
0.0
 10
1.3340905511811023
 20
0.4146653543307087
 30
0.0
 10
1.3340905511811023
 20
0.4146653543307087
 30
0.0
 10
1.3162992125984252
 20
0.3761181102362205
 30
0.0
 10
1.3162992125984252
 20
0.3761181102362205
 30
0.0
 10
1.3162992125984252
 20
0.3761181102362205
 30
0.0
 10
1.3162992125984252
 20
0.3761181102362205
 30
0.0
 10
1.2962165354330708
 20
0.3370708661417323
 30
0.0
 10
1.2962165354330708
 20
0.3370708661417323
 30
0.0
 10
1.2962165354330708
 20
0.3370708661417323
 30
0.0
 10
1.2962165354330708
 20
0.3370708661417323
 30
0.0
 10
1.2733937007874017
 20
0.2976811023622047
 30
0.0
 10
1.2733937007874017
 20
0.2976811023622047
 30
0.0
 10
1.2733937007874017
 20
0.2976811023622047
 30
0.0
 10
1.2733937007874017
 20
0.2976811023622047
 30
0.0
 10
1.2473661417322834
 20
0.2580708661417323
 30
0.0
 10
1.2473661417322834
 20
0.2580708661417323
 30
0.0
 10
1.2473661417322834
 20
0.2580708661417323
 30
0.0
 10
1.2473661417322834
 20
0.2580708661417323
 30
0.0
 10
1.2176889763779528
 20
0.2183858267716536
 30
0.0
 10
1.2176889763779528
 20
0.2183858267716536
 30
0.0
 10
1.2176889763779528
 20
0.2183858267716536
 30
0.0
 10
1.2176889763779528
 20
0.2183858267716536
 30
0.0
 10
1.1838858267716537
 20
0.178748031496063
 30
0.0
 10
1.1838858267716537
 20
0.178748031496063
 30
0.0
 10
1.1838858267716537
 20
0.178748031496063
 30
0.0
 10
1.1838858267716537
 20
0.178748031496063
 30
0.0
 10
1.1455157480314961
 20
0.1393031496062992
 30
0.0
 10
1.1455157480314961
 20
0.1393031496062992
 30
0.0
 10
1.1455157480314961
 20
0.1393031496062992
 30
0.0
 10
1.1455157480314961
 20
0.1393031496062992
 30
0.0
 10
1.1021141732283466
 20
0.1001771653543307
 30
0.0
 10
1.1021141732283466
 20
0.1001771653543307
 30
0.0
 10
1.1021141732283466
 20
0.1001771653543307
 30
0.0
 10
1.1021141732283466
 20
0.1001771653543307
 30
0.0
 10
1.0532322834645669
 20
0.0615196850393701
 30
0.0
 10
1.0532322834645669
 20
0.0615196850393701
 30
0.0
 10
1.0532322834645669
 20
0.0615196850393701
 30
0.0
 10
1.0532322834645669
 20
0.0615196850393701
 30
0.0
 10
0.9984015748031496
 20
0.0234488188976378
 30
0.0
 10
0.9984015748031496
 20
0.0234488188976378
 30
0.0
 10
0.9984015748031496
 20
0.0234488188976378
 30
0.0
 10
0.9984015748031496
 20
0.0234488188976378
 30
0.0
 10
0.9371692913385827
 20
-0.0138858267716535
 30
0.0
 10
0.9371692913385827
 20
-0.0138858267716535
 30
0.0
 10
0.9371692913385827
 20
-0.0138858267716535
 30
0.0
 10
0.9371692913385827
 20
-0.0138858267716535
 30
0.0
 10
0.8690787401574803
 20
-0.0503543307086614
 30
0.0
 10
0.8690787401574803
 20
-0.0503543307086614
 30
0.0
 10
0.8690787401574803
 20
-0.0503543307086614
 30
0.0
 10
0.8690787401574803
 20
-0.0503543307086614
 30
0.0
 10
0.7936811023622048
 20
-0.0858188976377953
 30
0.0
 10
0.7936811023622048
 20
-0.0858188976377953
 30
0.0
 10
0.7936811023622048
 20
-0.0858188976377953
 30
0.0
 10
0.7936811023622048
 20
-0.0858188976377953
 30
0.0
 10
0.1332204724409449
 20
0.2948858267716535
 30
0.0
 10
0.1332204724409449
 20
0.2948858267716535
 30
0.0
 10
0.1332204724409449
 20
0.2948858267716535
 30
0.0
 10
0.1332204724409449
 20
0.2948858267716535
 30
0.0
 10
0.2086181102362205
 20
0.3303503937007874
 30
0.0
 10
0.2086181102362205
 20
0.3303503937007874
 30
0.0
 10
0.2086181102362205
 20
0.3303503937007874
 30
0.0
 10
0.2086181102362205
 20
0.3303503937007874
 30
0.0
 10
0.2767086614173229
 20
0.3668188976377953
 30
0.0
 10
0.2767086614173229
 20
0.3668188976377953
 30
0.0
 10
0.2767086614173229
 20
0.3668188976377953
 30
0.0
 10
0.2767086614173229
 20
0.3668188976377953
 30
0.0
 10
0.3379409448818898
 20
0.4041535433070866
 30
0.0
 10
0.3379409448818898
 20
0.4041535433070866
 30
0.0
 10
0.3379409448818898
 20
0.4041535433070866
 30
0.0
 10
0.3379409448818898
 20
0.4041535433070866
 30
0.0
 10
0.3927716535433071
 20
0.4422244094488189
 30
0.0
 10
0.3927716535433071
 20
0.4422244094488189
 30
0.0
 10
0.3927716535433071
 20
0.4422244094488189
 30
0.0
 10
0.3927716535433071
 20
0.4422244094488189
 30
0.0
 10
0.4416535433070866
 20
0.4808818897637796
 30
0.0
 10
0.4416535433070866
 20
0.4808818897637796
 30
0.0
 10
0.4416535433070866
 20
0.4808818897637796
 30
0.0
 10
0.4416535433070866
 20
0.4808818897637796
 30
0.0
 10
0.4850551181102362
 20
0.5200078740157481
 30
0.0
 10
0.4850551181102362
 20
0.5200078740157481
 30
0.0
 10
0.4850551181102362
 20
0.5200078740157481
 30
0.0
 10
0.4850551181102362
 20
0.5200078740157481
 30
0.0
 10
0.5234251968503937
 20
0.5594527559055118
 30
0.0
 10
0.5234251968503937
 20
0.5594527559055118
 30
0.0
 10
0.5234251968503937
 20
0.5594527559055118
 30
0.0
 10
0.5234251968503937
 20
0.5594527559055118
 30
0.0
 10
0.557228346456693
 20
0.5990905511811024
 30
0.0
 10
0.557228346456693
 20
0.5990905511811024
 30
0.0
 10
0.557228346456693
 20
0.5990905511811024
 30
0.0
 10
0.557228346456693
 20
0.5990905511811024
 30
0.0
 10
0.5869055118110237
 20
0.6387755905511812
 30
0.0
 10
0.5869055118110237
 20
0.6387755905511812
 30
0.0
 10
0.5869055118110237
 20
0.6387755905511812
 30
0.0
 10
0.5869055118110237
 20
0.6387755905511812
 30
0.0
 10
0.6129330708661418
 20
0.6783858267716536
 30
0.0
 10
0.6129330708661418
 20
0.6783858267716536
 30
0.0
 10
0.6129330708661418
 20
0.6783858267716536
 30
0.0
 10
0.6129330708661418
 20
0.6783858267716536
 30
0.0
 10
0.6357559055118111
 20
0.7177755905511811
 30
0.0
 10
0.6357559055118111
 20
0.7177755905511811
 30
0.0
 10
0.6357559055118111
 20
0.7177755905511811
 30
0.0
 10
0.6357559055118111
 20
0.7177755905511811
 30
0.0
 10
0.6558385826771653
 20
0.7568228346456694
 30
0.0
 10
0.6558385826771653
 20
0.7568228346456694
 30
0.0
 10
0.6558385826771653
 20
0.7568228346456694
 30
0.0
 10
0.6558385826771653
 20
0.7568228346456694
 30
0.0
 10
0.6736299212598426
 20
0.7953700787401575
 30
0.0
 10
0.6736299212598426
 20
0.7953700787401575
 30
0.0
 10
0.6736299212598426
 20
0.7953700787401575
 30
0.0
 10
0.6736299212598426
 20
0.7953700787401575
 30
0.0
 10
0.6896023622047245
 20
0.8333031496062993
 30
0.0
 10
0.6896023622047245
 20
0.8333031496062993
 30
0.0
 10
0.6896023622047245
 20
0.8333031496062993
 30
0.0
 10
0.6896023622047245
 20
0.8333031496062993
 30
0.0
 10
0.7041968503937008
 20
0.8704763779527559
 30
0.0
 10
0.7041968503937008
 20
0.8704763779527559
 30
0.0
 10
0.7041968503937008
 20
0.8704763779527559
 30
0.0
 10
0.7041968503937008
 20
0.8704763779527559
 30
0.0
 10
0.7178858267716536
 20
0.906763779527559
 30
0.0
 10
0.7178858267716536
 20
0.906763779527559
 30
0.0
 10
0.7178858267716536
 20
0.906763779527559
 30
0.0
 10
0.7178858267716536
 20
0.906763779527559
 30
0.0
 10
0.7311062992125984
 20
0.9420118110236221
 30
0.0
 10
0.7311062992125984
 20
0.9420118110236221
 30
0.0
 10
0.7311062992125984
 20
0.9420118110236221
 30
0.0
 10
0.7311062992125984
 20
0.9420118110236221
 30
0.0
 10
0.7443307086614174
 20
0.9761023622047245
 30
0.0
 10
0.7443307086614174
 20
0.9761023622047245
 30
0.0
 10
0.7443307086614174
 20
0.9761023622047245
 30
0.0
 10
0.7443307086614174
 20
0.9761023622047245
 30
0.0
 10
0.7580157480314961
 20
1.0088897637795275
 30
0.0
 10
0.7580157480314961
 20
1.0088897637795275
 30
0.0
 10
0.7580157480314961
 20
1.0088897637795275
 30
0.0
 10
0.7580157480314961
 20
1.0088897637795275
 30
0.0
 10
0.7726181102362205
 20
1.0402480314960629
 30
0.0
 10
0.7726181102362205
 20
1.0402480314960629
 30
0.0
 10
0.7726181102362205
 20
1.0402480314960629
 30
0.0
 10
0.7726181102362205
 20
1.0402480314960629
 30
0.0
 10
0.7885866141732284
 20
1.0700314960629922
 30
0.0
 10
0.7885866141732284
 20
1.0700314960629922
 30
0.0
 10
0.7885866141732284
 20
1.0700314960629922
 30
0.0
 10
0.7885866141732284
 20
1.0700314960629922
 30
0.0
 10
0.8063897637795275
 20
1.0981181102362205
 30
0.0
 10
0.8063897637795275
 20
1.0981181102362205
 30
0.0
 10
0.8063897637795275
 20
1.0981181102362205
 30
0.0
 10
0.8063897637795275
 20
1.0981181102362205
 30
0.0
 10
0.8264724409448819
 20
1.1243582677165356
 30
0.0
 10
0.8264724409448819
 20
1.1243582677165356
 30
0.0
 10
0.8264724409448819
 20
1.1243582677165356
 30
0.0
 10
0.8264724409448819
 20
1.1243582677165356
 30
0.0
 10
0.8493110236220473
 20
1.1486299212598425
 30
0.0
 10
0.8493110236220473
 20
1.1486299212598425
 30
0.0
 10
0.8493110236220473
 20
1.1486299212598425
 30
0.0
 10
0.8493110236220473
 20
1.1486299212598425
 30
0.0
 10
0.8753385826771654
 20
1.1707795275590551
 30
0.0
 10
0.8753385826771654
 20
1.1707795275590551
 30
0.0
 10
0.8753385826771654
 20
1.1707795275590551
 30
0.0
 10
0.8753385826771654
 20
1.1707795275590551
 30
0.0
 10
0.9050314960629922
 20
1.1906929133858268
 30
0.0
 10
0.9050314960629922
 20
1.1906929133858268
 30
0.0
 10
0.9050314960629922
 20
1.1906929133858268
 30
0.0
 10
0.9050314960629922
 20
1.1906929133858268
 30
0.0
 10
0.9388385826771654
 20
1.2082204724409449
 30
0.0
 10
0.9388385826771654
 20
1.2082204724409449
 30
0.0
 10
0.9388385826771654
 20
1.2082204724409449
 30
0.0
 10
0.9388385826771654
 20
1.2082204724409449
 30
0.0
 10
0.977228346456693
 20
1.2232401574803151
 30
0.0
 10
0.977228346456693
 20
1.2232401574803151
 30
0.0
 10
0.977228346456693
 20
1.2232401574803151
 30
0.0
 10
0.977228346456693
 20
1.2232401574803151
 30
0.0
 10
1.0206377952755905
 20
1.2355984251968504
 30
0.0
 10
1.0206377952755905
 20
1.2355984251968504
 30
0.0
 10
1.0206377952755905
 20
1.2355984251968504
 30
0.0
 10
1.0206377952755905
 20
1.2355984251968504
 30
0.0
 10
1.0695393700787401
 20
1.2451771653543307
 30
0.0
 10
1.0695393700787401
 20
1.2451771653543307
 30
0.0
 10
1.0695393700787401
 20
1.2451771653543307
 30
0.0
 10
1.0695393700787401
 20
1.2451771653543307
 30
0.0
 10
1.1243818897637796
 20
1.2518267716535434
 30
0.0
 10
1.1243818897637796
 20
1.2518267716535434
 30
0.0
 10
1.1243818897637796
 20
1.2518267716535434
 30
0.0
 10
1.1243818897637796
 20
1.2518267716535434
 30
0.0
 10
1.1856338582677166
 20
1.2554291338582677
 30
0.0
 10
1.1856338582677166
 20
1.2554291338582677
 30
0.0
  0
SPLINE
  5
51
100
AcDbEntity
  8
LAYER_1
 62
   253
100
AcDbSpline
210
0.0
220
0.0
230
1.0
 70
     1
 71
     3
 72
    76
 73
    72
 74
     0
 42
0.0000000001
 43
0.0000000001
 40
0.0
 40
0.0
 40
0.0
 40
0.0
 40
0.0555555555555556
 40
0.0555555555555556
 40
0.0555555555555556
 40
0.0555555555555556
 40
0.1111111111111111
 40
0.1111111111111111
 40
0.1111111111111111
 40
0.1111111111111111
 40
0.1666666666666667
 40
0.1666666666666667
 40
0.1666666666666667
 40
0.1666666666666667
 40
0.2222222222222222
 40
0.2222222222222222
 40
0.2222222222222222
 40
0.2222222222222222
 40
0.2777777777777778
 40
0.2777777777777778
 40
0.2777777777777778
 40
0.2777777777777778
 40
0.3333333333333334
 40
0.3333333333333334
 40
0.3333333333333334
 40
0.3333333333333334
 40
0.388888888888889
 40
0.388888888888889
 40
0.388888888888889
 40
0.388888888888889
 40
0.4444444444444445
 40
0.4444444444444445
 40
0.4444444444444445
 40
0.4444444444444445
 40
0.5000000000000001
 40
0.5000000000000001
 40
0.5000000000000001
 40
0.5000000000000001
 40
0.5555555555555557
 40
0.5555555555555557
 40
0.5555555555555557
 40
0.5555555555555557
 40
0.6111111111111113
 40
0.6111111111111113
 40
0.6111111111111113
 40
0.6111111111111113
 40
0.6666666666666669
 40
0.6666666666666669
 40
0.6666666666666669
 40
0.6666666666666669
 40
0.7222222222222224
 40
0.7222222222222224
 40
0.7222222222222224
 40
0.7222222222222224
 40
0.777777777777778
 40
0.777777777777778
 40
0.777777777777778
 40
0.777777777777778
 40
0.8333333333333336
 40
0.8333333333333336
 40
0.8333333333333336
 40
0.8333333333333336
 40
0.8888888888888892
 40
0.8888888888888892
 40
0.8888888888888892
 40
0.8888888888888892
 40
0.9444444444444448
 40
0.9444444444444448
 40
0.9444444444444448
 40
0.9444444444444448
 40
1.0
 40
1.0
 40
1.0
 40
1.0
 10
0.1332204724409449
 20
0.2948858267716535
 30
0.0
 10
0.1332204724409449
 20
0.2948858267716535
 30
0.0
 10
0.7936811023622048
 20
-0.0858188976377953
 30
0.0
 10
0.7936811023622048
 20
-0.0858188976377953
 30
0.0
 10
0.7936811023622048
 20
-0.0858188976377953
 30
0.0
 10
0.7936811023622048
 20
-0.0858188976377953
 30
0.0
 10
0.7948661417322835
 20
-0.091255905511811
 30
0.0
 10
0.7948661417322835
 20
-0.091255905511811
 30
0.0
 10
0.7948661417322835
 20
-0.091255905511811
 30
0.0
 10
0.7948661417322835
 20
-0.091255905511811
 30
0.0
 10
0.7960669291338584
 20
-0.0969409448818898
 30
0.0
 10
0.7960669291338584
 20
-0.0969409448818898
 30
0.0
 10
0.7960669291338584
 20
-0.0969409448818898
 30
0.0
 10
0.7960669291338584
 20
-0.0969409448818898
 30
0.0
 10
0.7972480314960631
 20
-0.1028582677165354
 30
0.0
 10
0.7972480314960631
 20
-0.1028582677165354
 30
0.0
 10
0.7972480314960631
 20
-0.1028582677165354
 30
0.0
 10
0.7972480314960631
 20
-0.1028582677165354
 30
0.0
 10
0.7983818897637796
 20
-0.1089763779527559
 30
0.0
 10
0.7983818897637796
 20
-0.1089763779527559
 30
0.0
 10
0.7983818897637796
 20
-0.1089763779527559
 30
0.0
 10
0.7983818897637796
 20
-0.1089763779527559
 30
0.0
 10
0.7994173228346457
 20
-0.1152795275590551
 30
0.0
 10
0.7994173228346457
 20
-0.1152795275590551
 30
0.0
 10
0.7994173228346457
 20
-0.1152795275590551
 30
0.0
 10
0.7994173228346457
 20
-0.1152795275590551
 30
0.0
 10
0.8003346456692914
 20
-0.1217322834645669
 30
0.0
 10
0.8003346456692914
 20
-0.1217322834645669
 30
0.0
 10
0.8003346456692914
 20
-0.1217322834645669
 30
0.0
 10
0.8003346456692914
 20
-0.1217322834645669
 30
0.0
 10
0.8010944881889764
 20
-0.1283228346456693
 30
0.0
 10
0.8010944881889764
 20
-0.1283228346456693
 30
0.0
 10
0.8010944881889764
 20
-0.1283228346456693
 30
0.0
 10
0.8010944881889764
 20
-0.1283228346456693
 30
0.0
 10
0.8016653543307087
 20
-0.1350118110236221
 30
0.0
 10
0.8016653543307087
 20
-0.1350118110236221
 30
0.0
 10
0.8016653543307087
 20
-0.1350118110236221
 30
0.0
 10
0.8016653543307087
 20
-0.1350118110236221
 30
0.0
 10
0.1412047244094488
 20
0.2456929133858268
 30
0.0
 10
0.1412047244094488
 20
0.2456929133858268
 30
0.0
 10
0.1412047244094488
 20
0.2456929133858268
 30
0.0
 10
0.1412047244094488
 20
0.2456929133858268
 30
0.0
 10
0.1406338582677165
 20
0.2523818897637795
 30
0.0
 10
0.1406338582677165
 20
0.2523818897637795
 30
0.0
 10
0.1406338582677165
 20
0.2523818897637795
 30
0.0
 10
0.1406338582677165
 20
0.2523818897637795
 30
0.0
 10
0.1398740157480315
 20
0.2589724409448819
 30
0.0
 10
0.1398740157480315
 20
0.2589724409448819
 30
0.0
 10
0.1398740157480315
 20
0.2589724409448819
 30
0.0
 10
0.1398740157480315
 20
0.2589724409448819
 30
0.0
 10
0.1389566929133858
 20
0.2654251968503937
 30
0.0
 10
0.1389566929133858
 20
0.2654251968503937
 30
0.0
 10
0.1389566929133858
 20
0.2654251968503937
 30
0.0
 10
0.1389566929133858
 20
0.2654251968503937
 30
0.0
 10
0.1379212598425197
 20
0.2717283464566929
 30
0.0
 10
0.1379212598425197
 20
0.2717283464566929
 30
0.0
 10
0.1379212598425197
 20
0.2717283464566929
 30
0.0
 10
0.1379212598425197
 20
0.2717283464566929
 30
0.0
 10
0.1367874015748032
 20
0.2778464566929134
 30
0.0
 10
0.1367874015748032
 20
0.2778464566929134
 30
0.0
 10
0.1367874015748032
 20
0.2778464566929134
 30
0.0
 10
0.1367874015748032
 20
0.2778464566929134
 30
0.0
 10
0.1356062992125984
 20
0.2837637795275591
 30
0.0
 10
0.1356062992125984
 20
0.2837637795275591
 30
0.0
 10
0.1356062992125984
 20
0.2837637795275591
 30
0.0
 10
0.1356062992125984
 20
0.2837637795275591
 30
0.0
 10
0.1344055118110236
 20
0.2894488188976378
 30
0.0
 10
0.1344055118110236
 20
0.2894488188976378
 30
0.0
 10
0.1344055118110236
 20
0.2894488188976378
 30
0.0
 10
0.1344055118110236
 20
0.2894488188976378
 30
0.0
 10
0.1332204724409449
 20
0.2948858267716535
 30
0.0
 10
0.1332204724409449
 20
0.2948858267716535
 30
0.0
  0
SPLINE
  5
52
100
AcDbEntity
  8
LAYER_1
 62
     9
100
AcDbSpline
210
0.0
220
0.0
230
1.0
 70
     1
 71
     3
 72
    68
 73
    64
 74
     0
 42
0.0000000001
 43
0.0000000001
 40
0.0
 40
0.0
 40
0.0
 40
0.0
 40
0.0625
 40
0.0625
 40
0.0625
 40
0.0625
 40
0.125
 40
0.125
 40
0.125
 40
0.125
 40
0.1875
 40
0.1875
 40
0.1875
 40
0.1875
 40
0.25
 40
0.25
 40
0.25
 40
0.25
 40
0.3125
 40
0.3125
 40
0.3125
 40
0.3125
 40
0.375
 40
0.375
 40
0.375
 40
0.375
 40
0.4375
 40
0.4375
 40
0.4375
 40
0.4375
 40
0.5
 40
0.5
 40
0.5
 40
0.5
 40
0.5625
 40
0.5625
 40
0.5625
 40
0.5625
 40
0.625
 40
0.625
 40
0.625
 40
0.625
 40
0.6875
 40
0.6875
 40
0.6875
 40
0.6875
 40
0.75
 40
0.75
 40
0.75
 40
0.75
 40
0.8125
 40
0.8125
 40
0.8125
 40
0.8125
 40
0.875
 40
0.875
 40
0.875
 40
0.875
 40
0.9375
 40
0.9375
 40
0.9375
 40
0.9375
 40
1.0
 40
1.0
 40
1.0
 40
1.0
 10
0.1412047244094488
 20
0.2456929133858268
 30
0.0
 10
0.1412047244094488
 20
0.2456929133858268
 30
0.0
 10
0.8016653543307087
 20
-0.1350118110236221
 30
0.0
 10
0.8016653543307087
 20
-0.1350118110236221
 30
0.0
 10
0.8016653543307087
 20
-0.1350118110236221
 30
0.0
 10
0.8016653543307087
 20
-0.1350118110236221
 30
0.0
 10
0.8020039370078741
 20
-0.1417952755905512
 30
0.0
 10
0.8020039370078741
 20
-0.1417952755905512
 30
0.0
 10
0.8020039370078741
 20
-0.1417952755905512
 30
0.0
 10
0.8020039370078741
 20
-0.1417952755905512
 30
0.0
 10
0.8020826771653543
 20
-0.1486338582677166
 30
0.0
 10
0.8020826771653543
 20
-0.1486338582677166
 30
0.0
 10
0.8020826771653543
 20
-0.1486338582677166
 30
0.0
 10
0.8020826771653543
 20
-0.1486338582677166
 30
0.0
 10
0.8018661417322835
 20
-0.155507874015748
 30
0.0
 10
0.8018661417322835
 20
-0.155507874015748
 30
0.0
 10
0.8018661417322835
 20
-0.155507874015748
 30
0.0
 10
0.8018661417322835
 20
-0.155507874015748
 30
0.0
 10
0.8013228346456693
 20
-0.1623858267716536
 30
0.0
 10
0.8013228346456693
 20
-0.1623858267716536
 30
0.0
 10
0.8013228346456693
 20
-0.1623858267716536
 30
0.0
 10
0.8013228346456693
 20
-0.1623858267716536
 30
0.0
 10
0.8004055118110237
 20
-0.169259842519685
 30
0.0
 10
0.8004055118110237
 20
-0.169259842519685
 30
0.0
 10
0.8004055118110237
 20
-0.169259842519685
 30
0.0
 10
0.8004055118110237
 20
-0.169259842519685
 30
0.0
 10
0.7990984251968504
 20
-0.1760905511811024
 30
0.0
 10
0.7990984251968504
 20
-0.1760905511811024
 30
0.0
 10
0.7990984251968504
 20
-0.1760905511811024
 30
0.0
 10
0.7990984251968504
 20
-0.1760905511811024
 30
0.0
 10
0.7973543307086615
 20
-0.1828622047244095
 30
0.0
 10
0.7973543307086615
 20
-0.1828622047244095
 30
0.0
 10
0.7973543307086615
 20
-0.1828622047244095
 30
0.0
 10
0.7973543307086615
 20
-0.1828622047244095
 30
0.0
 10
0.1368937007874016
 20
0.1978425196850394
 30
0.0
 10
0.1368937007874016
 20
0.1978425196850394
 30
0.0
 10
0.1368937007874016
 20
0.1978425196850394
 30
0.0
 10
0.1368937007874016
 20
0.1978425196850394
 30
0.0
 10
0.1386377952755906
 20
0.2046141732283465
 30
0.0
 10
0.1386377952755906
 20
0.2046141732283465
 30
0.0
 10
0.1386377952755906
 20
0.2046141732283465
 30
0.0
 10
0.1386377952755906
 20
0.2046141732283465
 30
0.0
 10
0.1399448818897638
 20
0.2114448818897638
 30
0.0
 10
0.1399448818897638
 20
0.2114448818897638
 30
0.0
 10
0.1399448818897638
 20
0.2114448818897638
 30
0.0
 10
0.1399448818897638
 20
0.2114448818897638
 30
0.0
 10
0.1408622047244095
 20
0.2183188976377953
 30
0.0
 10
0.1408622047244095
 20
0.2183188976377953
 30
0.0
 10
0.1408622047244095
 20
0.2183188976377953
 30
0.0
 10
0.1408622047244095
 20
0.2183188976377953
 30
0.0
 10
0.1414055118110236
 20
0.2251968503937008
 30
0.0
 10
0.1414055118110236
 20
0.2251968503937008
 30
0.0
 10
0.1414055118110236
 20
0.2251968503937008
 30
0.0
 10
0.1414055118110236
 20
0.2251968503937008
 30
0.0
 10
0.1416220472440945
 20
0.2320708661417323
 30
0.0
 10
0.1416220472440945
 20
0.2320708661417323
 30
0.0
 10
0.1416220472440945
 20
0.2320708661417323
 30
0.0
 10
0.1416220472440945
 20
0.2320708661417323
 30
0.0
 10
0.1415433070866142
 20
0.2389094488188976
 30
0.0
 10
0.1415433070866142
 20
0.2389094488188976
 30
0.0
 10
0.1415433070866142
 20
0.2389094488188976
 30
0.0
 10
0.1415433070866142
 20
0.2389094488188976
 30
0.0
 10
0.1412047244094488
 20
0.2456929133858268
 30
0.0
 10
0.1412047244094488
 20
0.2456929133858268
 30
0.0
  0
SPLINE
  5
53
100
AcDbEntity
  8
LAYER_1
 62
     9
100
AcDbSpline
210
0.0
220
0.0
230
1.0
 70
     1
 71
     3
 72
    60
 73
    56
 74
     0
 42
0.0000000001
 43
0.0000000001
 40
0.0
 40
0.0
 40
0.0
 40
0.0
 40
0.0714285714285714
 40
0.0714285714285714
 40
0.0714285714285714
 40
0.0714285714285714
 40
0.1428571428571429
 40
0.1428571428571429
 40
0.1428571428571429
 40
0.1428571428571429
 40
0.2142857142857143
 40
0.2142857142857143
 40
0.2142857142857143
 40
0.2142857142857143
 40
0.2857142857142857
 40
0.2857142857142857
 40
0.2857142857142857
 40
0.2857142857142857
 40
0.3571428571428571
 40
0.3571428571428571
 40
0.3571428571428571
 40
0.3571428571428571
 40
0.4285714285714285
 40
0.4285714285714285
 40
0.4285714285714285
 40
0.4285714285714285
 40
0.4999999999999999
 40
0.4999999999999999
 40
0.4999999999999999
 40
0.4999999999999999
 40
0.5714285714285713
 40
0.5714285714285713
 40
0.5714285714285713
 40
0.5714285714285713
 40
0.6428571428571427
 40
0.6428571428571427
 40
0.6428571428571427
 40
0.6428571428571427
 40
0.7142857142857141
 40
0.7142857142857141
 40
0.7142857142857141
 40
0.7142857142857141
 40
0.7857142857142855
 40
0.7857142857142855
 40
0.7857142857142855
 40
0.7857142857142855
 40
0.8571428571428569
 40
0.8571428571428569
 40
0.8571428571428569
 40
0.8571428571428569
 40
0.9285714285714283
 40
0.9285714285714283
 40
0.9285714285714283
 40
0.9285714285714283
 40
1.0
 40
1.0
 40
1.0
 40
1.0
 10
0.1368937007874016
 20
0.1978425196850394
 30
0.0
 10
0.1368937007874016
 20
0.1978425196850394
 30
0.0
 10
0.7973543307086615
 20
-0.1828622047244095
 30
0.0
 10
0.7973543307086615
 20
-0.1828622047244095
 30
0.0
 10
0.7973543307086615
 20
-0.1828622047244095
 30
0.0
 10
0.7973543307086615
 20
-0.1828622047244095
 30
0.0
 10
0.7951456692913386
 20
-0.1895393700787402
 30
0.0
 10
0.7951456692913386
 20
-0.1895393700787402
 30
0.0
 10
0.7951456692913386
 20
-0.1895393700787402
 30
0.0
 10
0.7951456692913386
 20
-0.1895393700787402
 30
0.0
 10
0.7924251968503937
 20
-0.1961220472440945
 30
0.0
 10
0.7924251968503937
 20
-0.1961220472440945
 30
0.0
 10
0.7924251968503937
 20
-0.1961220472440945
 30
0.0
 10
0.7924251968503937
 20
-0.1961220472440945
 30
0.0
 10
0.7891732283464568
 20
-0.2025590551181102
 30
0.0
 10
0.7891732283464568
 20
-0.2025590551181102
 30
0.0
 10
0.7891732283464568
 20
-0.2025590551181102
 30
0.0
 10
0.7891732283464568
 20
-0.2025590551181102
 30
0.0
 10
0.7853464566929134
 20
-0.2088425196850394
 30
0.0
 10
0.7853464566929134
 20
-0.2088425196850394
 30
0.0
 10
0.7853464566929134
 20
-0.2088425196850394
 30
0.0
 10
0.7853464566929134
 20
-0.2088425196850394
 30
0.0
 10
0.7809212598425197
 20
-0.2149370078740158
 30
0.0
 10
0.7809212598425197
 20
-0.2149370078740158
 30
0.0
 10
0.7809212598425197
 20
-0.2149370078740158
 30
0.0
 10
0.7809212598425197
 20
-0.2149370078740158
 30
0.0
 10
0.7758464566929134
 20
-0.2208346456692913
 30
0.0
 10
0.7758464566929134
 20
-0.2208346456692913
 30
0.0
 10
0.7758464566929134
 20
-0.2208346456692913
 30
0.0
 10
0.7758464566929134
 20
-0.2208346456692913
 30
0.0
 10
0.1153858267716535
 20
0.1598700787401575
 30
0.0
 10
0.1153858267716535
 20
0.1598700787401575
 30
0.0
 10
0.1153858267716535
 20
0.1598700787401575
 30
0.0
 10
0.1153858267716535
 20
0.1598700787401575
 30
0.0
 10
0.1204606299212599
 20
0.1657677165354331
 30
0.0
 10
0.1204606299212599
 20
0.1657677165354331
 30
0.0
 10
0.1204606299212599
 20
0.1657677165354331
 30
0.0
 10
0.1204606299212599
 20
0.1657677165354331
 30
0.0
 10
0.1248858267716536
 20
0.1718622047244095
 30
0.0
 10
0.1248858267716536
 20
0.1718622047244095
 30
0.0
 10
0.1248858267716536
 20
0.1718622047244095
 30
0.0
 10
0.1248858267716536
 20
0.1718622047244095
 30
0.0
 10
0.1287125984251969
 20
0.1781456692913386
 30
0.0
 10
0.1287125984251969
 20
0.1781456692913386
 30
0.0
 10
0.1287125984251969
 20
0.1781456692913386
 30
0.0
 10
0.1287125984251969
 20
0.1781456692913386
 30
0.0
 10
0.1319645669291339
 20
0.1845826771653543
 30
0.0
 10
0.1319645669291339
 20
0.1845826771653543
 30
0.0
 10
0.1319645669291339
 20
0.1845826771653543
 30
0.0
 10
0.1319645669291339
 20
0.1845826771653543
 30
0.0
 10
0.1346850393700788
 20
0.1911653543307087
 30
0.0
 10
0.1346850393700788
 20
0.1911653543307087
 30
0.0
 10
0.1346850393700788
 20
0.1911653543307087
 30
0.0
 10
0.1346850393700788
 20
0.1911653543307087
 30
0.0
 10
0.1368937007874016
 20
0.1978425196850394
 30
0.0
 10
0.1368937007874016
 20
0.1978425196850394
 30
0.0
  0
SPLINE
  5
54
100
AcDbEntity
  8
LAYER_1
 62
     9
100
AcDbSpline
210
0.0
220
0.0
230
1.0
 70
     1
 71
     3
 72
    52
 73
    48
 74
     0
 42
0.0000000001
 43
0.0000000001
 40
0.0
 40
0.0
 40
0.0
 40
0.0
 40
0.0833333333333333
 40
0.0833333333333333
 40
0.0833333333333333
 40
0.0833333333333333
 40
0.1666666666666667
 40
0.1666666666666667
 40
0.1666666666666667
 40
0.1666666666666667
 40
0.25
 40
0.25
 40
0.25
 40
0.25
 40
0.3333333333333333
 40
0.3333333333333333
 40
0.3333333333333333
 40
0.3333333333333333
 40
0.4166666666666666
 40
0.4166666666666666
 40
0.4166666666666666
 40
0.4166666666666666
 40
0.4999999999999999
 40
0.4999999999999999
 40
0.4999999999999999
 40
0.4999999999999999
 40
0.5833333333333333
 40
0.5833333333333333
 40
0.5833333333333333
 40
0.5833333333333333
 40
0.6666666666666666
 40
0.6666666666666666
 40
0.6666666666666666
 40
0.6666666666666666
 40
0.75
 40
0.75
 40
0.75
 40
0.75
 40
0.8333333333333334
 40
0.8333333333333334
 40
0.8333333333333334
 40
0.8333333333333334
 40
0.9166666666666667
 40
0.9166666666666667
 40
0.9166666666666667
 40
0.9166666666666667
 40
1.0
 40
1.0
 40
1.0
 40
1.0
 10
0.1153858267716535
 20
0.1598700787401575
 30
0.0
 10
0.1153858267716535
 20
0.1598700787401575
 30
0.0
 10
0.7758464566929134
 20
-0.2208346456692913
 30
0.0
 10
0.7758464566929134
 20
-0.2208346456692913
 30
0.0
 10
0.7758464566929134
 20
-0.2208346456692913
 30
0.0
 10
0.7758464566929134
 20
-0.2208346456692913
 30
0.0
 10
0.7701023622047244
 20
-0.226492125984252
 30
0.0
 10
0.7701023622047244
 20
-0.226492125984252
 30
0.0
 10
0.7701023622047244
 20
-0.226492125984252
 30
0.0
 10
0.7701023622047244
 20
-0.226492125984252
 30
0.0
 10
0.7636456692913386
 20
-0.2318976377952756
 30
0.0
 10
0.7636456692913386
 20
-0.2318976377952756
 30
0.0
 10
0.7636456692913386
 20
-0.2318976377952756
 30
0.0
 10
0.7636456692913386
 20
-0.2318976377952756
 30
0.0
 10
0.7564488188976378
 20
-0.2370196850393701
 30
0.0
 10
0.7564488188976378
 20
-0.2370196850393701
 30
0.0
 10
0.7564488188976378
 20
-0.2370196850393701
 30
0.0
 10
0.7564488188976378
 20
-0.2370196850393701
 30
0.0
 10
0.7484645669291339
 20
-0.2418464566929134
 30
0.0
 10
0.7484645669291339
 20
-0.2418464566929134
 30
0.0
 10
0.7484645669291339
 20
-0.2418464566929134
 30
0.0
 10
0.7484645669291339
 20
-0.2418464566929134
 30
0.0
 10
0.7396732283464568
 20
-0.2463385826771654
 30
0.0
 10
0.7396732283464568
 20
-0.2463385826771654
 30
0.0
 10
0.7396732283464568
 20
-0.2463385826771654
 30
0.0
 10
0.7396732283464568
 20
-0.2463385826771654
 30
0.0
 10
0.0792125984251969
 20
0.1343661417322835
 30
0.0
 10
0.0792125984251969
 20
0.1343661417322835
 30
0.0
 10
0.0792125984251969
 20
0.1343661417322835
 30
0.0
 10
0.0792125984251969
 20
0.1343661417322835
 30
0.0
 10
0.088003937007874
 20
0.1388582677165355
 30
0.0
 10
0.088003937007874
 20
0.1388582677165355
 30
0.0
 10
0.088003937007874
 20
0.1388582677165355
 30
0.0
 10
0.088003937007874
 20
0.1388582677165355
 30
0.0
 10
0.095988188976378
 20
0.1436850393700787
 30
0.0
 10
0.095988188976378
 20
0.1436850393700787
 30
0.0
 10
0.095988188976378
 20
0.1436850393700787
 30
0.0
 10
0.095988188976378
 20
0.1436850393700787
 30
0.0
 10
0.1031850393700787
 20
0.1488070866141733
 30
0.0
 10
0.1031850393700787
 20
0.1488070866141733
 30
0.0
 10
0.1031850393700787
 20
0.1488070866141733
 30
0.0
 10
0.1031850393700787
 20
0.1488070866141733
 30
0.0
 10
0.1096417322834646
 20
0.1542125984251969
 30
0.0
 10
0.1096417322834646
 20
0.1542125984251969
 30
0.0
 10
0.1096417322834646
 20
0.1542125984251969
 30
0.0
 10
0.1096417322834646
 20
0.1542125984251969
 30
0.0
 10
0.1153858267716535
 20
0.1598700787401575
 30
0.0
 10
0.1153858267716535
 20
0.1598700787401575
 30
0.0
  0
SPLINE
  5
55
100
AcDbEntity
  8
LAYER_1
 62
   253
100
AcDbSpline
210
0.0
220
0.0
230
1.0
 70
     1
 71
     3
 72
    44
 73
    40
 74
     0
 42
0.0000000001
 43
0.0000000001
 40
0.0
 40
0.0
 40
0.0
 40
0.0
 40
0.1
 40
0.1
 40
0.1
 40
0.1
 40
0.2
 40
0.2
 40
0.2
 40
0.2
 40
0.3
 40
0.3
 40
0.3
 40
0.3
 40
0.4
 40
0.4
 40
0.4
 40
0.4
 40
0.5
 40
0.5
 40
0.5
 40
0.5
 40
0.6
 40
0.6
 40
0.6
 40
0.6
 40
0.7
 40
0.7
 40
0.7
 40
0.7
 40
0.7999999999999999
 40
0.7999999999999999
 40
0.7999999999999999
 40
0.7999999999999999
 40
0.8999999999999999
 40
0.8999999999999999
 40
0.8999999999999999
 40
0.8999999999999999
 40
1.0
 40
1.0
 40
1.0
 40
1.0
 10
0.0792125984251969
 20
0.1343661417322835
 30
0.0
 10
0.0792125984251969
 20
0.1343661417322835
 30
0.0
 10
0.7396732283464568
 20
-0.2463385826771654
 30
0.0
 10
0.7396732283464568
 20
-0.2463385826771654
 30
0.0
 10
0.7396732283464568
 20
-0.2463385826771654
 30
0.0
 10
0.7396732283464568
 20
-0.2463385826771654
 30
0.0
 10
0.7300314960629921
 20
-0.25048031496063
 30
0.0
 10
0.7300314960629921
 20
-0.25048031496063
 30
0.0
 10
0.7300314960629921
 20
-0.25048031496063
 30
0.0
 10
0.7300314960629921
 20
-0.25048031496063
 30
0.0
 10
0.7195118110236221
 20
-0.254240157480315
 30
0.0
 10
0.7195118110236221
 20
-0.254240157480315
 30
0.0
 10
0.7195118110236221
 20
-0.254240157480315
 30
0.0
 10
0.7195118110236221
 20
-0.254240157480315
 30
0.0
 10
0.7080708661417323
 20
-0.2576062992125984
 30
0.0
 10
0.7080708661417323
 20
-0.2576062992125984
 30
0.0
 10
0.7080708661417323
 20
-0.2576062992125984
 30
0.0
 10
0.7080708661417323
 20
-0.2576062992125984
 30
0.0
 10
0.6956850393700788
 20
-0.2605433070866142
 30
0.0
 10
0.6956850393700788
 20
-0.2605433070866142
 30
0.0
 10
0.6956850393700788
 20
-0.2605433070866142
 30
0.0
 10
0.6956850393700788
 20
-0.2605433070866142
 30
0.0
 10
0.0352244094488189
 20
0.1201614173228347
 30
0.0
 10
0.0352244094488189
 20
0.1201614173228347
 30
0.0
 10
0.0352244094488189
 20
0.1201614173228347
 30
0.0
 10
0.0352244094488189
 20
0.1201614173228347
 30
0.0
 10
0.0476102362204724
 20
0.1230984251968504
 30
0.0
 10
0.0476102362204724
 20
0.1230984251968504
 30
0.0
 10
0.0476102362204724
 20
0.1230984251968504
 30
0.0
 10
0.0476102362204724
 20
0.1230984251968504
 30
0.0
 10
0.0590511811023622
 20
0.1264645669291339
 30
0.0
 10
0.0590511811023622
 20
0.1264645669291339
 30
0.0
 10
0.0590511811023622
 20
0.1264645669291339
 30
0.0
 10
0.0590511811023622
 20
0.1264645669291339
 30
0.0
 10
0.0695708661417323
 20
0.1302244094488189
 30
0.0
 10
0.0695708661417323
 20
0.1302244094488189
 30
0.0
 10
0.0695708661417323
 20
0.1302244094488189
 30
0.0
 10
0.0695708661417323
 20
0.1302244094488189
 30
0.0
 10
0.0792125984251969
 20
0.1343661417322835
 30
0.0
 10
0.0792125984251969
 20
0.1343661417322835
 30
0.0
  0
SPLINE
  5
56
100
AcDbEntity
  8
LAYER_1
 62
   253
100
AcDbSpline
210
0.0
220
0.0
230
1.0
 70
     1
 71
     3
 72
    36
 73
    32
 74
     0
 42
0.0000000001
 43
0.0000000001
 40
0.0
 40
0.0
 40
0.0
 40
0.0
 40
0.125
 40
0.125
 40
0.125
 40
0.125
 40
0.25
 40
0.25
 40
0.25
 40
0.25
 40
0.375
 40
0.375
 40
0.375
 40
0.375
 40
0.5
 40
0.5
 40
0.5
 40
0.5
 40
0.625
 40
0.625
 40
0.625
 40
0.625
 40
0.75
 40
0.75
 40
0.75
 40
0.75
 40
0.875
 40
0.875
 40
0.875
 40
0.875
 40
1.0
 40
1.0
 40
1.0
 40
1.0
 10
0.0352244094488189
 20
0.1201614173228347
 30
0.0
 10
0.0352244094488189
 20
0.1201614173228347
 30
0.0
 10
0.6956850393700788
 20
-0.2605433070866142
 30
0.0
 10
0.6956850393700788
 20
-0.2605433070866142
 30
0.0
 10
0.6956850393700788
 20
-0.2605433070866142
 30
0.0
 10
0.6956850393700788
 20
-0.2605433070866142
 30
0.0
 10
0.6823110236220473
 20
-0.2630314960629921
 30
0.0
 10
0.6823110236220473
 20
-0.2630314960629921
 30
0.0
 10
0.6823110236220473
 20
-0.2630314960629921
 30
0.0
 10
0.6823110236220473
 20
-0.2630314960629921
 30
0.0
 10
0.6679173228346457
 20
-0.2650472440944882
 30
0.0
 10
0.6679173228346457
 20
-0.2650472440944882
 30
0.0
 10
0.6679173228346457
 20
-0.2650472440944882
 30
0.0
 10
0.6679173228346457
 20
-0.2650472440944882
 30
0.0
 10
0.6529921259842521
 20
-0.2669370078740158
 30
0.0
 10
0.6529921259842521
 20
-0.2669370078740158
 30
0.0
 10
0.6529921259842521
 20
-0.2669370078740158
 30
0.0
 10
0.6529921259842521
 20
-0.2669370078740158
 30
0.0
 10
-0.0074685039370079
 20
0.1137677165354331
 30
0.0
 10
-0.0074685039370079
 20
0.1137677165354331
 30
0.0
 10
-0.0074685039370079
 20
0.1137677165354331
 30
0.0
 10
-0.0074685039370079
 20
0.1137677165354331
 30
0.0
 10
0.0074566929133858
 20
0.1156574803149606
 30
0.0
 10
0.0074566929133858
 20
0.1156574803149606
 30
0.0
 10
0.0074566929133858
 20
0.1156574803149606
 30
0.0
 10
0.0074566929133858
 20
0.1156574803149606
 30
0.0
 10
0.0218503937007874
 20
0.1176732283464567
 30
0.0
 10
0.0218503937007874
 20
0.1176732283464567
 30
0.0
 10
0.0218503937007874
 20
0.1176732283464567
 30
0.0
 10
0.0218503937007874
 20
0.1176732283464567
 30
0.0
 10
0.0352244094488189
 20
0.1201614173228347
 30
0.0
 10
0.0352244094488189
 20
0.1201614173228347
 30
0.0
  0
SPLINE
  5
57
100
AcDbEntity
  8
LAYER_1
 62
   253
100
AcDbSpline
210
0.0
220
0.0
230
1.0
 70
     1
 71
     3
 72
    36
 73
    32
 74
     0
 42
0.0000000001
 43
0.0000000001
 40
0.0
 40
0.0
 40
0.0
 40
0.0
 40
0.125
 40
0.125
 40
0.125
 40
0.125
 40
0.25
 40
0.25
 40
0.25
 40
0.25
 40
0.375
 40
0.375
 40
0.375
 40
0.375
 40
0.5
 40
0.5
 40
0.5
 40
0.5
 40
0.625
 40
0.625
 40
0.625
 40
0.625
 40
0.75
 40
0.75
 40
0.75
 40
0.75
 40
0.875
 40
0.875
 40
0.875
 40
0.875
 40
1.0
 40
1.0
 40
1.0
 40
1.0
 10
-0.0074685039370079
 20
0.1137677165354331
 30
0.0
 10
-0.0074685039370079
 20
0.1137677165354331
 30
0.0
 10
0.6529921259842521
 20
-0.2669370078740158
 30
0.0
 10
0.6529921259842521
 20
-0.2669370078740158
 30
0.0
 10
0.6529921259842521
 20
-0.2669370078740158
 30
0.0
 10
0.6529921259842521
 20
-0.2669370078740158
 30
0.0
 10
0.6380590551181102
 20
-0.2690826771653543
 30
0.0
 10
0.6380590551181102
 20
-0.2690826771653543
 30
0.0
 10
0.6380590551181102
 20
-0.2690826771653543
 30
0.0
 10
0.6380590551181102
 20
-0.2690826771653543
 30
0.0
 10
0.6231535433070866
 20
-0.2715354330708661
 30
0.0
 10
0.6231535433070866
 20
-0.2715354330708661
 30
0.0
 10
0.6231535433070866
 20
-0.2715354330708661
 30
0.0
 10
0.6231535433070866
 20
-0.2715354330708661
 30
0.0
 10
0.6082952755905512
 20
-0.2743307086614173
 30
0.0
 10
0.6082952755905512
 20
-0.2743307086614173
 30
0.0
 10
0.6082952755905512
 20
-0.2743307086614173
 30
0.0
 10
0.6082952755905512
 20
-0.2743307086614173
 30
0.0
 10
-0.0521653543307087
 20
0.1063740157480315
 30
0.0
 10
-0.0521653543307087
 20
0.1063740157480315
 30
0.0
 10
-0.0521653543307087
 20
0.1063740157480315
 30
0.0
 10
-0.0521653543307087
 20
0.1063740157480315
 30
0.0
 10
-0.0373070866141732
 20
0.1091692913385827
 30
0.0
 10
-0.0373070866141732
 20
0.1091692913385827
 30
0.0
 10
-0.0373070866141732
 20
0.1091692913385827
 30
0.0
 10
-0.0373070866141732
 20
0.1091692913385827
 30
0.0
 10
-0.0224015748031496
 20
0.1116220472440945
 30
0.0
 10
-0.0224015748031496
 20
0.1116220472440945
 30
0.0
 10
-0.0224015748031496
 20
0.1116220472440945
 30
0.0
 10
-0.0224015748031496
 20
0.1116220472440945
 30
0.0
 10
-0.0074685039370079
 20
0.1137677165354331
 30
0.0
 10
-0.0074685039370079
 20
0.1137677165354331
 30
0.0
  0
SPLINE
  5
58
100
AcDbEntity
  8
LAYER_1
 62
   253
100
AcDbSpline
210
0.0
220
0.0
230
1.0
 70
     1
 71
     3
 72
    36
 73
    32
 74
     0
 42
0.0000000001
 43
0.0000000001
 40
0.0
 40
0.0
 40
0.0
 40
0.0
 40
0.125
 40
0.125
 40
0.125
 40
0.125
 40
0.25
 40
0.25
 40
0.25
 40
0.25
 40
0.375
 40
0.375
 40
0.375
 40
0.375
 40
0.5
 40
0.5
 40
0.5
 40
0.5
 40
0.625
 40
0.625
 40
0.625
 40
0.625
 40
0.75
 40
0.75
 40
0.75
 40
0.75
 40
0.875
 40
0.875
 40
0.875
 40
0.875
 40
1.0
 40
1.0
 40
1.0
 40
1.0
 10
-0.0521653543307087
 20
0.1063740157480315
 30
0.0
 10
-0.0521653543307087
 20
0.1063740157480315
 30
0.0
 10
0.6082952755905512
 20
-0.2743307086614173
 30
0.0
 10
0.6082952755905512
 20
-0.2743307086614173
 30
0.0
 10
0.6082952755905512
 20
-0.2743307086614173
 30
0.0
 10
0.6082952755905512
 20
-0.2743307086614173
 30
0.0
 10
0.5935314960629922
 20
-0.2775275590551181
 30
0.0
 10
0.5935314960629922
 20
-0.2775275590551181
 30
0.0
 10
0.5935314960629922
 20
-0.2775275590551181
 30
0.0
 10
0.5935314960629922
 20
-0.2775275590551181
 30
0.0
 10
0.5788779527559055
 20
-0.2811653543307087
 30
0.0
 10
0.5788779527559055
 20
-0.2811653543307087
 30
0.0
 10
0.5788779527559055
 20
-0.2811653543307087
 30
0.0
 10
0.5788779527559055
 20
-0.2811653543307087
 30
0.0
 10
0.5643779527559055
 20
-0.2852952755905512
 30
0.0
 10
0.5643779527559055
 20
-0.2852952755905512
 30
0.0
 10
0.5643779527559055
 20
-0.2852952755905512
 30
0.0
 10
0.5643779527559055
 20
-0.2852952755905512
 30
0.0
 10
-0.0960826771653543
 20
0.0954094488188976
 30
0.0
 10
-0.0960826771653543
 20
0.0954094488188976
 30
0.0
 10
-0.0960826771653543
 20
0.0954094488188976
 30
0.0
 10
-0.0960826771653543
 20
0.0954094488188976
 30
0.0
 10
-0.0815826771653543
 20
0.0995393700787402
 30
0.0
 10
-0.0815826771653543
 20
0.0995393700787402
 30
0.0
 10
-0.0815826771653543
 20
0.0995393700787402
 30
0.0
 10
-0.0815826771653543
 20
0.0995393700787402
 30
0.0
 10
-0.0669291338582677
 20
0.1031771653543307
 30
0.0
 10
-0.0669291338582677
 20
0.1031771653543307
 30
0.0
 10
-0.0669291338582677
 20
0.1031771653543307
 30
0.0
 10
-0.0669291338582677
 20
0.1031771653543307
 30
0.0
 10
-0.0521653543307087
 20
0.1063740157480315
 30
0.0
 10
-0.0521653543307087
 20
0.1063740157480315
 30
0.0
  0
SPLINE
  5
59
100
AcDbEntity
  8
LAYER_1
 62
   253
100
AcDbSpline
210
0.0
220
0.0
230
1.0
 70
     1
 71
     3
 72
    36
 73
    32
 74
     0
 42
0.0000000001
 43
0.0000000001
 40
0.0
 40
0.0
 40
0.0
 40
0.0
 40
0.125
 40
0.125
 40
0.125
 40
0.125
 40
0.25
 40
0.25
 40
0.25
 40
0.25
 40
0.375
 40
0.375
 40
0.375
 40
0.375
 40
0.5
 40
0.5
 40
0.5
 40
0.5
 40
0.625
 40
0.625
 40
0.625
 40
0.625
 40
0.75
 40
0.75
 40
0.75
 40
0.75
 40
0.875
 40
0.875
 40
0.875
 40
0.875
 40
1.0
 40
1.0
 40
1.0
 40
1.0
 10
-0.0960826771653543
 20
0.0954094488188976
 30
0.0
 10
-0.0960826771653543
 20
0.0954094488188976
 30
0.0
 10
0.5643779527559055
 20
-0.2852952755905512
 30
0.0
 10
0.5643779527559055
 20
-0.2852952755905512
 30
0.0
 10
0.5643779527559055
 20
-0.2852952755905512
 30
0.0
 10
0.5643779527559055
 20
-0.2852952755905512
 30
0.0
 10
0.5500472440944882
 20
-0.2899527559055118
 30
0.0
 10
0.5500472440944882
 20
-0.2899527559055118
 30
0.0
 10
0.5500472440944882
 20
-0.2899527559055118
 30
0.0
 10
0.5500472440944882
 20
-0.2899527559055118
 30
0.0
 10
0.5359370078740158
 20
-0.2952007874015748
 30
0.0
 10
0.5359370078740158
 20
-0.2952007874015748
 30
0.0
 10
0.5359370078740158
 20
-0.2952007874015748
 30
0.0
 10
0.5359370078740158
 20
-0.2952007874015748
 30
0.0
 10
0.5220551181102362
 20
-0.3010748031496063
 30
0.0
 10
0.5220551181102362
 20
-0.3010748031496063
 30
0.0
 10
0.5220551181102362
 20
-0.3010748031496063
 30
0.0
 10
0.5220551181102362
 20
-0.3010748031496063
 30
0.0
 10
-0.1384055118110236
 20
0.0796299212598425
 30
0.0
 10
-0.1384055118110236
 20
0.0796299212598425
 30
0.0
 10
-0.1384055118110236
 20
0.0796299212598425
 30
0.0
 10
-0.1384055118110236
 20
0.0796299212598425
 30
0.0
 10
-0.1245236220472441
 20
0.085503937007874
 30
0.0
 10
-0.1245236220472441
 20
0.085503937007874
 30
0.0
 10
-0.1245236220472441
 20
0.085503937007874
 30
0.0
 10
-0.1245236220472441
 20
0.085503937007874
 30
0.0
 10
-0.1104133858267717
 20
0.090751968503937
 30
0.0
 10
-0.1104133858267717
 20
0.090751968503937
 30
0.0
 10
-0.1104133858267717
 20
0.090751968503937
 30
0.0
 10
-0.1104133858267717
 20
0.090751968503937
 30
0.0
 10
-0.0960826771653543
 20
0.0954094488188976
 30
0.0
 10
-0.0960826771653543
 20
0.0954094488188976
 30
0.0
  0
SPLINE
  5
5A
100
AcDbEntity
  8
LAYER_1
 62
   253
100
AcDbSpline
210
0.0
220
0.0
230
1.0
 70
     1
 71
     3
 72
    36
 73
    32
 74
     0
 42
0.0000000001
 43
0.0000000001
 40
0.0
 40
0.0
 40
0.0
 40
0.0
 40
0.125
 40
0.125
 40
0.125
 40
0.125
 40
0.25
 40
0.25
 40
0.25
 40
0.25
 40
0.375
 40
0.375
 40
0.375
 40
0.375
 40
0.5
 40
0.5
 40
0.5
 40
0.5
 40
0.625
 40
0.625
 40
0.625
 40
0.625
 40
0.75
 40
0.75
 40
0.75
 40
0.75
 40
0.875
 40
0.875
 40
0.875
 40
0.875
 40
1.0
 40
1.0
 40
1.0
 40
1.0
 10
-0.1384055118110236
 20
0.0796299212598425
 30
0.0
 10
-0.1384055118110236
 20
0.0796299212598425
 30
0.0
 10
0.5220551181102362
 20
-0.3010748031496063
 30
0.0
 10
0.5220551181102362
 20
-0.3010748031496063
 30
0.0
 10
0.5220551181102362
 20
-0.3010748031496063
 30
0.0
 10
0.5220551181102362
 20
-0.3010748031496063
 30
0.0
 10
0.5084448818897638
 20
-0.3076220472440945
 30
0.0
 10
0.5084448818897638
 20
-0.3076220472440945
 30
0.0
 10
0.5084448818897638
 20
-0.3076220472440945
 30
0.0
 10
0.5084448818897638
 20
-0.3076220472440945
 30
0.0
 10
0.4951299212598426
 20
-0.3148858267716536
 30
0.0
 10
0.4951299212598426
 20
-0.3148858267716536
 30
0.0
 10
0.4951299212598426
 20
-0.3148858267716536
 30
0.0
 10
0.4951299212598426
 20
-0.3148858267716536
 30
0.0
 10
0.4821496062992126
 20
-0.3229212598425197
 30
0.0
 10
0.4821496062992126
 20
-0.3229212598425197
 30
0.0
 10
0.4821496062992126
 20
-0.3229212598425197
 30
0.0
 10
0.4821496062992126
 20
-0.3229212598425197
 30
0.0
 10
-0.1783110236220473
 20
0.0577834645669291
 30
0.0
 10
-0.1783110236220473
 20
0.0577834645669291
 30
0.0
 10
-0.1783110236220473
 20
0.0577834645669291
 30
0.0
 10
-0.1783110236220473
 20
0.0577834645669291
 30
0.0
 10
-0.1653307086614173
 20
0.0658188976377953
 30
0.0
 10
-0.1653307086614173
 20
0.0658188976377953
 30
0.0
 10
-0.1653307086614173
 20
0.0658188976377953
 30
0.0
 10
-0.1653307086614173
 20
0.0658188976377953
 30
0.0
 10
-0.1520157480314961
 20
0.0730826771653543
 30
0.0
 10
-0.1520157480314961
 20
0.0730826771653543
 30
0.0
 10
-0.1520157480314961
 20
0.0730826771653543
 30
0.0
 10
-0.1520157480314961
 20
0.0730826771653543
 30
0.0
 10
-0.1384055118110236
 20
0.0796299212598425
 30
0.0
 10
-0.1384055118110236
 20
0.0796299212598425
 30
0.0
  0
SPLINE
  5
5B
100
AcDbEntity
  8
LAYER_1
 62
     9
100
AcDbSpline
210
0.0
220
0.0
230
1.0
 70
     1
 71
     3
 72
    36
 73
    32
 74
     0
 42
0.0000000001
 43
0.0000000001
 40
0.0
 40
0.0
 40
0.0
 40
0.0
 40
0.125
 40
0.125
 40
0.125
 40
0.125
 40
0.25
 40
0.25
 40
0.25
 40
0.25
 40
0.375
 40
0.375
 40
0.375
 40
0.375
 40
0.5
 40
0.5
 40
0.5
 40
0.5
 40
0.625
 40
0.625
 40
0.625
 40
0.625
 40
0.75
 40
0.75
 40
0.75
 40
0.75
 40
0.875
 40
0.875
 40
0.875
 40
0.875
 40
1.0
 40
1.0
 40
1.0
 40
1.0
 10
-0.1783110236220473
 20
0.0577834645669291
 30
0.0
 10
-0.1783110236220473
 20
0.0577834645669291
 30
0.0
 10
0.4821496062992126
 20
-0.3229212598425197
 30
0.0
 10
0.4821496062992126
 20
-0.3229212598425197
 30
0.0
 10
0.4821496062992126
 20
-0.3229212598425197
 30
0.0
 10
0.4821496062992126
 20
-0.3229212598425197
 30
0.0
 10
0.4695236220472441
 20
-0.3317677165354331
 30
0.0
 10
0.4695236220472441
 20
-0.3317677165354331
 30
0.0
 10
0.4695236220472441
 20
-0.3317677165354331
 30
0.0
 10
0.4695236220472441
 20
-0.3317677165354331
 30
0.0
 10
0.4572913385826772
 20
-0.3414763779527559
 30
0.0
 10
0.4572913385826772
 20
-0.3414763779527559
 30
0.0
 10
0.4572913385826772
 20
-0.3414763779527559
 30
0.0
 10
0.4572913385826772
 20
-0.3414763779527559
 30
0.0
 10
0.4454724409448819
 20
-0.3520826771653544
 30
0.0
 10
0.4454724409448819
 20
-0.3520826771653544
 30
0.0
 10
0.4454724409448819
 20
-0.3520826771653544
 30
0.0
 10
0.4454724409448819
 20
-0.3520826771653544
 30
0.0
 10
-0.214988188976378
 20
0.0286220472440945
 30
0.0
 10
-0.214988188976378
 20
0.0286220472440945
 30
0.0
 10
-0.214988188976378
 20
0.0286220472440945
 30
0.0
 10
-0.214988188976378
 20
0.0286220472440945
 30
0.0
 10
-0.2031692913385827
 20
0.0392283464566929
 30
0.0
 10
-0.2031692913385827
 20
0.0392283464566929
 30
0.0
 10
-0.2031692913385827
 20
0.0392283464566929
 30
0.0
 10
-0.2031692913385827
 20
0.0392283464566929
 30
0.0
 10
-0.1909370078740158
 20
0.0489370078740158
 30
0.0
 10
-0.1909370078740158
 20
0.0489370078740158
 30
0.0
 10
-0.1909370078740158
 20
0.0489370078740158
 30
0.0
 10
-0.1909370078740158
 20
0.0489370078740158
 30
0.0
 10
-0.1783110236220473
 20
0.0577834645669291
 30
0.0
 10
-0.1783110236220473
 20
0.0577834645669291
 30
0.0
  0
SPLINE
  5
5C
100
AcDbEntity
  8
LAYER_1
 62
     9
100
AcDbSpline
210
0.0
220
0.0
230
1.0
 70
     1
 71
     3
 72
    36
 73
    32
 74
     0
 42
0.0000000001
 43
0.0000000001
 40
0.0
 40
0.0
 40
0.0
 40
0.0
 40
0.125
 40
0.125
 40
0.125
 40
0.125
 40
0.25
 40
0.25
 40
0.25
 40
0.25
 40
0.375
 40
0.375
 40
0.375
 40
0.375
 40
0.5
 40
0.5
 40
0.5
 40
0.5
 40
0.625
 40
0.625
 40
0.625
 40
0.625
 40
0.75
 40
0.75
 40
0.75
 40
0.75
 40
0.875
 40
0.875
 40
0.875
 40
0.875
 40
1.0
 40
1.0
 40
1.0
 40
1.0
 10
-0.214988188976378
 20
0.0286220472440945
 30
0.0
 10
-0.214988188976378
 20
0.0286220472440945
 30
0.0
 10
0.4454724409448819
 20
-0.3520826771653544
 30
0.0
 10
0.4454724409448819
 20
-0.3520826771653544
 30
0.0
 10
0.4454724409448819
 20
-0.3520826771653544
 30
0.0
 10
0.4454724409448819
 20
-0.3520826771653544
 30
0.0
 10
0.4341141732283465
 20
-0.3636496062992126
 30
0.0
 10
0.4341141732283465
 20
-0.3636496062992126
 30
0.0
 10
0.4341141732283465
 20
-0.3636496062992126
 30
0.0
 10
0.4341141732283465
 20
-0.3636496062992126
 30
0.0
 10
0.4232322834645669
 20
-0.3762047244094489
 30
0.0
 10
0.4232322834645669
 20
-0.3762047244094489
 30
0.0
 10
0.4232322834645669
 20
-0.3762047244094489
 30
0.0
 10
0.4232322834645669
 20
-0.3762047244094489
 30
0.0
 10
0.4128661417322835
 20
-0.3898031496062993
 30
0.0
 10
0.4128661417322835
 20
-0.3898031496062993
 30
0.0
 10
0.4128661417322835
 20
-0.3898031496062993
 30
0.0
 10
0.4128661417322835
 20
-0.3898031496062993
 30
0.0
 10
-0.2475944881889764
 20
-0.0090984251968504
 30
0.0
 10
-0.2475944881889764
 20
-0.0090984251968504
 30
0.0
 10
-0.2475944881889764
 20
-0.0090984251968504
 30
0.0
 10
-0.2475944881889764
 20
-0.0090984251968504
 30
0.0
 10
-0.2372283464566929
 20
0.0045
 30
0.0
 10
-0.2372283464566929
 20
0.0045
 30
0.0
 10
-0.2372283464566929
 20
0.0045
 30
0.0
 10
-0.2372283464566929
 20
0.0045
 30
0.0
 10
-0.2263464566929134
 20
0.0170551181102362
 30
0.0
 10
-0.2263464566929134
 20
0.0170551181102362
 30
0.0
 10
-0.2263464566929134
 20
0.0170551181102362
 30
0.0
 10
-0.2263464566929134
 20
0.0170551181102362
 30
0.0
 10
-0.214988188976378
 20
0.0286220472440945
 30
0.0
 10
-0.214988188976378
 20
0.0286220472440945
 30
0.0
  0
SPLINE
  5
5D
100
AcDbEntity
  8
LAYER_1
 62
     9
100
AcDbSpline
210
0.0
220
0.0
230
1.0
 70
     1
 71
     3
 72
    28
 73
    24
 74
     0
 42
0.0000000001
 43
0.0000000001
 40
0.0
 40
0.0
 40
0.0
 40
0.0
 40
0.1666666666666667
 40
0.1666666666666667
 40
0.1666666666666667
 40
0.1666666666666667
 40
0.3333333333333333
 40
0.3333333333333333
 40
0.3333333333333333
 40
0.3333333333333333
 40
0.5
 40
0.5
 40
0.5
 40
0.5
 40
0.6666666666666666
 40
0.6666666666666666
 40
0.6666666666666666
 40
0.6666666666666666
 40
0.8333333333333333
 40
0.8333333333333333
 40
0.8333333333333333
 40
0.8333333333333333
 40
1.0
 40
1.0
 40
1.0
 40
1.0
 10
-0.2475944881889764
 20
-0.0090984251968504
 30
0.0
 10
-0.2475944881889764
 20
-0.0090984251968504
 30
0.0
 10
0.4128661417322835
 20
-0.3898031496062993
 30
0.0
 10
0.4128661417322835
 20
-0.3898031496062993
 30
0.0
 10
0.4128661417322835
 20
-0.3898031496062993
 30
0.0
 10
0.4128661417322835
 20
-0.3898031496062993
 30
0.0
 10
0.4030354330708661
 20
-0.404503937007874
 30
0.0
 10
0.4030354330708661
 20
-0.404503937007874
 30
0.0
 10
0.4030354330708661
 20
-0.404503937007874
 30
0.0
 10
0.4030354330708661
 20
-0.404503937007874
 30
0.0
 10
0.3937795275590552
 20
-0.4203346456692914
 30
0.0
 10
0.3937795275590552
 20
-0.4203346456692914
 30
0.0
 10
0.3937795275590552
 20
-0.4203346456692914
 30
0.0
 10
0.3937795275590552
 20
-0.4203346456692914
 30
0.0
 10
-0.2666811023622047
 20
-0.0396299212598425
 30
0.0
 10
-0.2666811023622047
 20
-0.0396299212598425
 30
0.0
 10
-0.2666811023622047
 20
-0.0396299212598425
 30
0.0
 10
-0.2666811023622047
 20
-0.0396299212598425
 30
0.0
 10
-0.2574251968503937
 20
-0.0237992125984252
 30
0.0
 10
-0.2574251968503937
 20
-0.0237992125984252
 30
0.0
 10
-0.2574251968503937
 20
-0.0237992125984252
 30
0.0
 10
-0.2574251968503937
 20
-0.0237992125984252
 30
0.0
 10
-0.2475944881889764
 20
-0.0090984251968504
 30
0.0
 10
-0.2475944881889764
 20
-0.0090984251968504
 30
0.0
  0
SPLINE
  5
5E
100
AcDbEntity
  8
LAYER_1
 62
     9
100
AcDbSpline
210
0.0
220
0.0
230
1.0
 70
     1
 71
     3
 72
    28
 73
    24
 74
     0
 42
0.0000000001
 43
0.0000000001
 40
0.0
 40
0.0
 40
0.0
 40
0.0
 40
0.1666666666666667
 40
0.1666666666666667
 40
0.1666666666666667
 40
0.1666666666666667
 40
0.3333333333333333
 40
0.3333333333333333
 40
0.3333333333333333
 40
0.3333333333333333
 40
0.5
 40
0.5
 40
0.5
 40
0.5
 40
0.6666666666666666
 40
0.6666666666666666
 40
0.6666666666666666
 40
0.6666666666666666
 40
0.8333333333333333
 40
0.8333333333333333
 40
0.8333333333333333
 40
0.8333333333333333
 40
1.0
 40
1.0
 40
1.0
 40
1.0
 10
-0.2666811023622047
 20
-0.0396299212598425
 30
0.0
 10
-0.2666811023622047
 20
-0.0396299212598425
 30
0.0
 10
0.3937795275590552
 20
-0.4203346456692914
 30
0.0
 10
0.3937795275590552
 20
-0.4203346456692914
 30
0.0
 10
0.3937795275590552
 20
-0.4203346456692914
 30
0.0
 10
0.3937795275590552
 20
-0.4203346456692914
 30
0.0
 10
0.3851259842519685
 20
-0.4373503937007874
 30
0.0
 10
0.3851259842519685
 20
-0.4373503937007874
 30
0.0
 10
0.3851259842519685
 20
-0.4373503937007874
 30
0.0
 10
0.3851259842519685
 20
-0.4373503937007874
 30
0.0
 10
0.3771062992125984
 20
-0.4555944881889764
 30
0.0
 10
0.3771062992125984
 20
-0.4555944881889764
 30
0.0
 10
0.3771062992125984
 20
-0.4555944881889764
 30
0.0
 10
0.3771062992125984
 20
-0.4555944881889764
 30
0.0
 10
-0.2833543307086615
 20
-0.0748897637795276
 30
0.0
 10
-0.2833543307086615
 20
-0.0748897637795276
 30
0.0
 10
-0.2833543307086615
 20
-0.0748897637795276
 30
0.0
 10
-0.2833543307086615
 20
-0.0748897637795276
 30
0.0
 10
-0.2753346456692913
 20
-0.0566456692913386
 30
0.0
 10
-0.2753346456692913
 20
-0.0566456692913386
 30
0.0
 10
-0.2753346456692913
 20
-0.0566456692913386
 30
0.0
 10
-0.2753346456692913
 20
-0.0566456692913386
 30
0.0
 10
-0.2666811023622047
 20
-0.0396299212598425
 30
0.0
 10
-0.2666811023622047
 20
-0.0396299212598425
 30
0.0
  0
SPLINE
  5
5F
100
AcDbEntity
  8
LAYER_1
 62
     9
100
AcDbSpline
210
0.0
220
0.0
230
1.0
 70
     1
 71
     3
 72
    28
 73
    24
 74
     0
 42
0.0000000001
 43
0.0000000001
 40
0.0
 40
0.0
 40
0.0
 40
0.0
 40
0.1666666666666667
 40
0.1666666666666667
 40
0.1666666666666667
 40
0.1666666666666667
 40
0.3333333333333333
 40
0.3333333333333333
 40
0.3333333333333333
 40
0.3333333333333333
 40
0.5
 40
0.5
 40
0.5
 40
0.5
 40
0.6666666666666666
 40
0.6666666666666666
 40
0.6666666666666666
 40
0.6666666666666666
 40
0.8333333333333333
 40
0.8333333333333333
 40
0.8333333333333333
 40
0.8333333333333333
 40
1.0
 40
1.0
 40
1.0
 40
1.0
 10
-0.2833543307086615
 20
-0.0748897637795276
 30
0.0
 10
-0.2833543307086615
 20
-0.0748897637795276
 30
0.0
 10
0.3771062992125984
 20
-0.4555944881889764
 30
0.0
 10
0.3771062992125984
 20
-0.4555944881889764
 30
0.0
 10
0.3771062992125984
 20
-0.4555944881889764
 30
0.0
 10
0.3771062992125984
 20
-0.4555944881889764
 30
0.0
 10
0.369744094488189
 20
-0.4751220472440945
 30
0.0
 10
0.369744094488189
 20
-0.4751220472440945
 30
0.0
 10
0.369744094488189
 20
-0.4751220472440945
 30
0.0
 10
0.369744094488189
 20
-0.4751220472440945
 30
0.0
 10
0.3630826771653544
 20
-0.4959645669291339
 30
0.0
 10
0.3630826771653544
 20
-0.4959645669291339
 30
0.0
 10
0.3630826771653544
 20
-0.4959645669291339
 30
0.0
 10
0.3630826771653544
 20
-0.4959645669291339
 30
0.0
 10
-0.2973779527559055
 20
-0.1152598425196851
 30
0.0
 10
-0.2973779527559055
 20
-0.1152598425196851
 30
0.0
 10
-0.2973779527559055
 20
-0.1152598425196851
 30
0.0
 10
-0.2973779527559055
 20
-0.1152598425196851
 30
0.0
 10
-0.2907165354330709
 20
-0.0944173228346457
 30
0.0
 10
-0.2907165354330709
 20
-0.0944173228346457
 30
0.0
 10
-0.2907165354330709
 20
-0.0944173228346457
 30
0.0
 10
-0.2907165354330709
 20
-0.0944173228346457
 30
0.0
 10
-0.2833543307086615
 20
-0.0748897637795276
 30
0.0
 10
-0.2833543307086615
 20
-0.0748897637795276
 30
0.0
  0
SPLINE
  5
60
100
AcDbEntity
  8
LAYER_1
 62
     9
100
AcDbSpline
210
0.0
220
0.0
230
1.0
 70
     1
 71
     3
 72
    28
 73
    24
 74
     0
 42
0.0000000001
 43
0.0000000001
 40
0.0
 40
0.0
 40
0.0
 40
0.0
 40
0.1666666666666667
 40
0.1666666666666667
 40
0.1666666666666667
 40
0.1666666666666667
 40
0.3333333333333333
 40
0.3333333333333333
 40
0.3333333333333333
 40
0.3333333333333333
 40
0.5
 40
0.5
 40
0.5
 40
0.5
 40
0.6666666666666666
 40
0.6666666666666666
 40
0.6666666666666666
 40
0.6666666666666666
 40
0.8333333333333333
 40
0.8333333333333333
 40
0.8333333333333333
 40
0.8333333333333333
 40
1.0
 40
1.0
 40
1.0
 40
1.0
 10
-0.2973779527559055
 20
-0.1152598425196851
 30
0.0
 10
-0.2973779527559055
 20
-0.1152598425196851
 30
0.0
 10
0.3630826771653544
 20
-0.4959645669291339
 30
0.0
 10
0.3630826771653544
 20
-0.4959645669291339
 30
0.0
 10
0.3630826771653544
 20
-0.4959645669291339
 30
0.0
 10
0.3630826771653544
 20
-0.4959645669291339
 30
0.0
 10
0.3571417322834646
 20
-0.5181771653543308
 30
0.0
 10
0.3571417322834646
 20
-0.5181771653543308
 30
0.0
 10
0.3571417322834646
 20
-0.5181771653543308
 30
0.0
 10
0.3571417322834646
 20
-0.5181771653543308
 30
0.0
 10
0.3519566929133858
 20
-0.5417992125984252
 30
0.0
 10
0.3519566929133858
 20
-0.5417992125984252
 30
0.0
 10
0.3519566929133858
 20
-0.5417992125984252
 30
0.0
 10
0.3519566929133858
 20
-0.5417992125984252
 30
0.0
 10
-0.308503937007874
 20
-0.1610944881889764
 30
0.0
 10
-0.308503937007874
 20
-0.1610944881889764
 30
0.0
 10
-0.308503937007874
 20
-0.1610944881889764
 30
0.0
 10
-0.308503937007874
 20
-0.1610944881889764
 30
0.0
 10
-0.3033188976377953
 20
-0.1374724409448819
 30
0.0
 10
-0.3033188976377953
 20
-0.1374724409448819
 30
0.0
 10
-0.3033188976377953
 20
-0.1374724409448819
 30
0.0
 10
-0.3033188976377953
 20
-0.1374724409448819
 30
0.0
 10
-0.2973779527559055
 20
-0.1152598425196851
 30
0.0
 10
-0.2973779527559055
 20
-0.1152598425196851
 30
0.0
  0
SPLINE
  5
61
100
AcDbEntity
  8
LAYER_1
 62
     9
100
AcDbSpline
210
0.0
220
0.0
230
1.0
 70
     1
 71
     3
 72
    20
 73
    16
 74
     0
 42
0.0000000001
 43
0.0000000001
 40
0.0
 40
0.0
 40
0.0
 40
0.0
 40
0.25
 40
0.25
 40
0.25
 40
0.25
 40
0.5
 40
0.5
 40
0.5
 40
0.5
 40
0.75
 40
0.75
 40
0.75
 40
0.75
 40
1.0
 40
1.0
 40
1.0
 40
1.0
 10
-0.308503937007874
 20
-0.1610944881889764
 30
0.0
 10
-0.308503937007874
 20
-0.1610944881889764
 30
0.0
 10
0.3519566929133858
 20
-0.5417992125984252
 30
0.0
 10
0.3519566929133858
 20
-0.5417992125984252
 30
0.0
 10
0.3519566929133858
 20
-0.5417992125984252
 30
0.0
 10
0.3519566929133858
 20
-0.5417992125984252
 30
0.0
 10
0.3475511811023622
 20
-0.5668937007874016
 30
0.0
 10
0.3475511811023622
 20
-0.5668937007874016
 30
0.0
 10
0.3475511811023622
 20
-0.5668937007874016
 30
0.0
 10
0.3475511811023622
 20
-0.5668937007874016
 30
0.0
 10
-0.3129094488188977
 20
-0.1861889763779528
 30
0.0
 10
-0.3129094488188977
 20
-0.1861889763779528
 30
0.0
 10
-0.3129094488188977
 20
-0.1861889763779528
 30
0.0
 10
-0.3129094488188977
 20
-0.1861889763779528
 30
0.0
 10
-0.308503937007874
 20
-0.1610944881889764
 30
0.0
 10
-0.308503937007874
 20
-0.1610944881889764
 30
0.0
  0
SPLINE
  5
62
100
AcDbEntity
  8
LAYER_1
 62
     9
100
AcDbSpline
210
0.0
220
0.0
230
1.0
 70
     1
 71
     3
 72
    20
 73
    16
 74
     0
 42
0.0000000001
 43
0.0000000001
 40
0.0
 40
0.0
 40
0.0
 40
0.0
 40
0.25
 40
0.25
 40
0.25
 40
0.25
 40
0.5
 40
0.5
 40
0.5
 40
0.5
 40
0.75
 40
0.75
 40
0.75
 40
0.75
 40
1.0
 40
1.0
 40
1.0
 40
1.0
 10
-0.3129094488188977
 20
-0.1861889763779528
 30
0.0
 10
-0.3129094488188977
 20
-0.1861889763779528
 30
0.0
 10
0.3475511811023622
 20
-0.5668937007874016
 30
0.0
 10
0.3475511811023622
 20
-0.5668937007874016
 30
0.0
 10
0.3475511811023622
 20
-0.5668937007874016
 30
0.0
 10
0.3475511811023622
 20
-0.5668937007874016
 30
0.0
 10
0.3439685039370079
 20
-0.593488188976378
 30
0.0
 10
0.3439685039370079
 20
-0.593488188976378
 30
0.0
 10
0.3439685039370079
 20
-0.593488188976378
 30
0.0
 10
0.3439685039370079
 20
-0.593488188976378
 30
0.0
 10
-0.316492125984252
 20
-0.2127834645669292
 30
0.0
 10
-0.316492125984252
 20
-0.2127834645669292
 30
0.0
 10
-0.316492125984252
 20
-0.2127834645669292
 30
0.0
 10
-0.316492125984252
 20
-0.2127834645669292
 30
0.0
 10
-0.3129094488188977
 20
-0.1861889763779528
 30
0.0
 10
-0.3129094488188977
 20
-0.1861889763779528
 30
0.0
  0
SPLINE
  5
63
100
AcDbEntity
  8
LAYER_1
 62
     9
100
AcDbSpline
210
0.0
220
0.0
230
1.0
 70
     1
 71
     3
 72
    20
 73
    16
 74
     0
 42
0.0000000001
 43
0.0000000001
 40
0.0
 40
0.0
 40
0.0
 40
0.0
 40
0.25
 40
0.25
 40
0.25
 40
0.25
 40
0.5
 40
0.5
 40
0.5
 40
0.5
 40
0.75
 40
0.75
 40
0.75
 40
0.75
 40
1.0
 40
1.0
 40
1.0
 40
1.0
 10
-0.316492125984252
 20
-0.2127834645669292
 30
0.0
 10
-0.316492125984252
 20
-0.2127834645669292
 30
0.0
 10
0.3439685039370079
 20
-0.593488188976378
 30
0.0
 10
0.3439685039370079
 20
-0.593488188976378
 30
0.0
 10
0.3439685039370079
 20
-0.593488188976378
 30
0.0
 10
0.3439685039370079
 20
-0.593488188976378
 30
0.0
 10
0.3412244094488189
 20
-0.6216377952755906
 30
0.0
 10
0.3412244094488189
 20
-0.6216377952755906
 30
0.0
 10
0.3412244094488189
 20
-0.6216377952755906
 30
0.0
 10
0.3412244094488189
 20
-0.6216377952755906
 30
0.0
 10
-0.3192362204724409
 20
-0.2409330708661417
 30
0.0
 10
-0.3192362204724409
 20
-0.2409330708661417
 30
0.0
 10
-0.3192362204724409
 20
-0.2409330708661417
 30
0.0
 10
-0.3192362204724409
 20
-0.2409330708661417
 30
0.0
 10
-0.316492125984252
 20
-0.2127834645669292
 30
0.0
 10
-0.316492125984252
 20
-0.2127834645669292
 30
0.0
  0
SPLINE
  5
64
100
AcDbEntity
  8
LAYER_1
 62
     9
100
AcDbSpline
210
0.0
220
0.0
230
1.0
 70
     1
 71
     3
 72
    20
 73
    16
 74
     0
 42
0.0000000001
 43
0.0000000001
 40
0.0
 40
0.0
 40
0.0
 40
0.0
 40
0.25
 40
0.25
 40
0.25
 40
0.25
 40
0.5
 40
0.5
 40
0.5
 40
0.5
 40
0.75
 40
0.75
 40
0.75
 40
0.75
 40
1.0
 40
1.0
 40
1.0
 40
1.0
 10
-0.3192362204724409
 20
-0.2409330708661417
 30
0.0
 10
-0.3192362204724409
 20
-0.2409330708661417
 30
0.0
 10
0.3412244094488189
 20
-0.6216377952755906
 30
0.0
 10
0.3412244094488189
 20
-0.6216377952755906
 30
0.0
 10
0.3412244094488189
 20
-0.6216377952755906
 30
0.0
 10
0.3412244094488189
 20
-0.6216377952755906
 30
0.0
 10
0.3393582677165354
 20
-0.6513858267716536
 30
0.0
 10
0.3393582677165354
 20
-0.6513858267716536
 30
0.0
 10
0.3393582677165354
 20
-0.6513858267716536
 30
0.0
 10
0.3393582677165354
 20
-0.6513858267716536
 30
0.0
 10
-0.3211023622047244
 20
-0.2706811023622047
 30
0.0
 10
-0.3211023622047244
 20
-0.2706811023622047
 30
0.0
 10
-0.3211023622047244
 20
-0.2706811023622047
 30
0.0
 10
-0.3211023622047244
 20
-0.2706811023622047
 30
0.0
 10
-0.3192362204724409
 20
-0.2409330708661417
 30
0.0
 10
-0.3192362204724409
 20
-0.2409330708661417
 30
0.0
  0
SPLINE
  5
65
100
AcDbEntity
  8
LAYER_1
 62
     9
100
AcDbSpline
210
0.0
220
0.0
230
1.0
 70
     1
 71
     3
 72
    20
 73
    16
 74
     0
 42
0.0000000001
 43
0.0000000001
 40
0.0
 40
0.0
 40
0.0
 40
0.0
 40
0.25
 40
0.25
 40
0.25
 40
0.25
 40
0.5
 40
0.5
 40
0.5
 40
0.5
 40
0.75
 40
0.75
 40
0.75
 40
0.75
 40
1.0
 40
1.0
 40
1.0
 40
1.0
 10
-0.3211023622047244
 20
-0.2706811023622047
 30
0.0
 10
-0.3211023622047244
 20
-0.2706811023622047
 30
0.0
 10
0.3393582677165354
 20
-0.6513858267716536
 30
0.0
 10
0.3393582677165354
 20
-0.6513858267716536
 30
0.0
 10
0.3393582677165354
 20
-0.6513858267716536
 30
0.0
 10
0.3393582677165354
 20
-0.6513858267716536
 30
0.0
 10
0.3383897637795276
 20
-0.6827874015748032
 30
0.0
 10
0.3383897637795276
 20
-0.6827874015748032
 30
0.0
 10
0.3383897637795276
 20
-0.6827874015748032
 30
0.0
 10
0.3383897637795276
 20
-0.6827874015748032
 30
0.0
 10
-0.3220708661417323
 20
-0.3020826771653544
 30
0.0
 10
-0.3220708661417323
 20
-0.3020826771653544
 30
0.0
 10
-0.3220708661417323
 20
-0.3020826771653544
 30
0.0
 10
-0.3220708661417323
 20
-0.3020826771653544
 30
0.0
 10
-0.3211023622047244
 20
-0.2706811023622047
 30
0.0
 10
-0.3211023622047244
 20
-0.2706811023622047
 30
0.0
  0
SPLINE
  5
66
100
AcDbEntity
  8
LAYER_1
100
AcDbSpline
210
0.0
220
0.0
230
1.0
 70
     1
 71
     3
 72
   524
 73
   520
 74
     0
 42
0.0000000001
 43
0.0000000001
 40
0.0
 40
0.0
 40
0.0
 40
0.0
 40
0.0076923076923077
 40
0.0076923076923077
 40
0.0076923076923077
 40
0.0076923076923077
 40
0.0153846153846154
 40
0.0153846153846154
 40
0.0153846153846154
 40
0.0153846153846154
 40
0.0230769230769231
 40
0.0230769230769231
 40
0.0230769230769231
 40
0.0230769230769231
 40
0.0307692307692308
 40
0.0307692307692308
 40
0.0307692307692308
 40
0.0307692307692308
 40
0.0384615384615385
 40
0.0384615384615385
 40
0.0384615384615385
 40
0.0384615384615385
 40
0.0461538461538462
 40
0.0461538461538462
 40
0.0461538461538462
 40
0.0461538461538462
 40
0.0538461538461538
 40
0.0538461538461538
 40
0.0538461538461538
 40
0.0538461538461538
 40
0.0615384615384615
 40
0.0615384615384615
 40
0.0615384615384615
 40
0.0615384615384615
 40
0.0692307692307692
 40
0.0692307692307692
 40
0.0692307692307692
 40
0.0692307692307692
 40
0.0769230769230769
 40
0.0769230769230769
 40
0.0769230769230769
 40
0.0769230769230769
 40
0.0846153846153846
 40
0.0846153846153846
 40
0.0846153846153846
 40
0.0846153846153846
 40
0.0923076923076923
 40
0.0923076923076923
 40
0.0923076923076923
 40
0.0923076923076923
 40
0.1
 40
0.1
 40
0.1
 40
0.1
 40
0.1076923076923077
 40
0.1076923076923077
 40
0.1076923076923077
 40
0.1076923076923077
 40
0.1153846153846154
 40
0.1153846153846154
 40
0.1153846153846154
 40
0.1153846153846154
 40
0.1230769230769231
 40
0.1230769230769231
 40
0.1230769230769231
 40
0.1230769230769231
 40
0.1307692307692308
 40
0.1307692307692308
 40
0.1307692307692308
 40
0.1307692307692308
 40
0.1384615384615385
 40
0.1384615384615385
 40
0.1384615384615385
 40
0.1384615384615385
 40
0.1461538461538462
 40
0.1461538461538462
 40
0.1461538461538462
 40
0.1461538461538462
 40
0.1538461538461539
 40
0.1538461538461539
 40
0.1538461538461539
 40
0.1538461538461539
 40
0.1615384615384616
 40
0.1615384615384616
 40
0.1615384615384616
 40
0.1615384615384616
 40
0.1692307692307692
 40
0.1692307692307692
 40
0.1692307692307692
 40
0.1692307692307692
 40
0.1769230769230769
 40
0.1769230769230769
 40
0.1769230769230769
 40
0.1769230769230769
 40
0.1846153846153846
 40
0.1846153846153846
 40
0.1846153846153846
 40
0.1846153846153846
 40
0.1923076923076923
 40
0.1923076923076923
 40
0.1923076923076923
 40
0.1923076923076923
 40
0.2
 40
0.2
 40
0.2
 40
0.2
 40
0.2076923076923077
 40
0.2076923076923077
 40
0.2076923076923077
 40
0.2076923076923077
 40
0.2153846153846154
 40
0.2153846153846154
 40
0.2153846153846154
 40
0.2153846153846154
 40
0.2230769230769231
 40
0.2230769230769231
 40
0.2230769230769231
 40
0.2230769230769231
 40
0.2307692307692308
 40
0.2307692307692308
 40
0.2307692307692308
 40
0.2307692307692308
 40
0.2384615384615385
 40
0.2384615384615385
 40
0.2384615384615385
 40
0.2384615384615385
 40
0.2461538461538462
 40
0.2461538461538462
 40
0.2461538461538462
 40
0.2461538461538462
 40
0.2538461538461538
 40
0.2538461538461538
 40
0.2538461538461538
 40
0.2538461538461538
 40
0.2615384615384615
 40
0.2615384615384615
 40
0.2615384615384615
 40
0.2615384615384615
 40
0.2692307692307692
 40
0.2692307692307692
 40
0.2692307692307692
 40
0.2692307692307692
 40
0.2769230769230768
 40
0.2769230769230768
 40
0.2769230769230768
 40
0.2769230769230768
 40
0.2846153846153845
 40
0.2846153846153845
 40
0.2846153846153845
 40
0.2846153846153845
 40
0.2923076923076922
 40
0.2923076923076922
 40
0.2923076923076922
 40
0.2923076923076922
 40
0.2999999999999998
 40
0.2999999999999998
 40
0.2999999999999998
 40
0.2999999999999998
 40
0.3076923076923075
 40
0.3076923076923075
 40
0.3076923076923075
 40
0.3076923076923075
 40
0.3153846153846152
 40
0.3153846153846152
 40
0.3153846153846152
 40
0.3153846153846152
 40
0.3230769230769228
 40
0.3230769230769228
 40
0.3230769230769228
 40
0.3230769230769228
 40
0.3307692307692305
 40
0.3307692307692305
 40
0.3307692307692305
 40
0.3307692307692305
 40
0.3384615384615382
 40
0.3384615384615382
 40
0.3384615384615382
 40
0.3384615384615382
 40
0.3461538461538458
 40
0.3461538461538458
 40
0.3461538461538458
 40
0.3461538461538458
 40
0.3538461538461535
 40
0.3538461538461535
 40
0.3538461538461535
 40
0.3538461538461535
 40
0.3615384615384611
 40
0.3615384615384611
 40
0.3615384615384611
 40
0.3615384615384611
 40
0.3692307692307688
 40
0.3692307692307688
 40
0.3692307692307688
 40
0.3692307692307688
 40
0.3769230769230765
 40
0.3769230769230765
 40
0.3769230769230765
 40
0.3769230769230765
 40
0.3846153846153841
 40
0.3846153846153841
 40
0.3846153846153841
 40
0.3846153846153841
 40
0.3923076923076918
 40
0.3923076923076918
 40
0.3923076923076918
 40
0.3923076923076918
 40
0.3999999999999995
 40
0.3999999999999995
 40
0.3999999999999995
 40
0.3999999999999995
 40
0.4076923076923071
 40
0.4076923076923071
 40
0.4076923076923071
 40
0.4076923076923071
 40
0.4153846153846148
 40
0.4153846153846148
 40
0.4153846153846148
 40
0.4153846153846148
 40
0.4230769230769225
 40
0.4230769230769225
 40
0.4230769230769225
 40
0.4230769230769225
 40
0.4307692307692301
 40
0.4307692307692301
 40
0.4307692307692301
 40
0.4307692307692301
 40
0.4384615384615378
 40
0.4384615384615378
 40
0.4384615384615378
 40
0.4384615384615378
 40
0.4461538461538455
 40
0.4461538461538455
 40
0.4461538461538455
 40
0.4461538461538455
 40
0.4538461538461531
 40
0.4538461538461531
 40
0.4538461538461531
 40
0.4538461538461531
 40
0.4615384615384608
 40
0.4615384615384608
 40
0.4615384615384608
 40
0.4615384615384608
 40
0.4692307692307685
 40
0.4692307692307685
 40
0.4692307692307685
 40
0.4692307692307685
 40
0.4769230769230761
 40
0.4769230769230761
 40
0.4769230769230761
 40
0.4769230769230761
 40
0.4846153846153838
 40
0.4846153846153838
 40
0.4846153846153838
 40
0.4846153846153838
 40
0.4923076923076915
 40
0.4923076923076915
 40
0.4923076923076915
 40
0.4923076923076915
 40
0.4999999999999991
 40
0.4999999999999991
 40
0.4999999999999991
 40
0.4999999999999991
 40
0.5076923076923068
 40
0.5076923076923068
 40
0.5076923076923068
 40
0.5076923076923068
 40
0.5153846153846144
 40
0.5153846153846144
 40
0.5153846153846144
 40
0.5153846153846144
 40
0.5230769230769221
 40
0.5230769230769221
 40
0.5230769230769221
 40
0.5230769230769221
 40
0.5307692307692298
 40
0.5307692307692298
 40
0.5307692307692298
 40
0.5307692307692298
 40
0.5384615384615374
 40
0.5384615384615374
 40
0.5384615384615374
 40
0.5384615384615374
 40
0.5461538461538451
 40
0.5461538461538451
 40
0.5461538461538451
 40
0.5461538461538451
 40
0.5538461538461528
 40
0.5538461538461528
 40
0.5538461538461528
 40
0.5538461538461528
 40
0.5615384615384604
 40
0.5615384615384604
 40
0.5615384615384604
 40
0.5615384615384604
 40
0.5692307692307681
 40
0.5692307692307681
 40
0.5692307692307681
 40
0.5692307692307681
 40
0.5769230769230758
 40
0.5769230769230758
 40
0.5769230769230758
 40
0.5769230769230758
 40
0.5846153846153834
 40
0.5846153846153834
 40
0.5846153846153834
 40
0.5846153846153834
 40
0.5923076923076911
 40
0.5923076923076911
 40
0.5923076923076911
 40
0.5923076923076911
 40
0.5999999999999988
 40
0.5999999999999988
 40
0.5999999999999988
 40
0.5999999999999988
 40
0.6076923076923064
 40
0.6076923076923064
 40
0.6076923076923064
 40
0.6076923076923064
 40
0.6153846153846141
 40
0.6153846153846141
 40
0.6153846153846141
 40
0.6153846153846141
 40
0.6230769230769218
 40
0.6230769230769218
 40
0.6230769230769218
 40
0.6230769230769218
 40
0.6307692307692294
 40
0.6307692307692294
 40
0.6307692307692294
 40
0.6307692307692294
 40
0.6384615384615371
 40
0.6384615384615371
 40
0.6384615384615371
 40
0.6384615384615371
 40
0.6461538461538448
 40
0.6461538461538448
 40
0.6461538461538448
 40
0.6461538461538448
 40
0.6538461538461524
 40
0.6538461538461524
 40
0.6538461538461524
 40
0.6538461538461524
 40
0.6615384615384601
 40
0.6615384615384601
 40
0.6615384615384601
 40
0.6615384615384601
 40
0.6692307692307677
 40
0.6692307692307677
 40
0.6692307692307677
 40
0.6692307692307677
 40
0.6769230769230754
 40
0.6769230769230754
 40
0.6769230769230754
 40
0.6769230769230754
 40
0.6846153846153831
 40
0.6846153846153831
 40
0.6846153846153831
 40
0.6846153846153831
 40
0.6923076923076907
 40
0.6923076923076907
 40
0.6923076923076907
 40
0.6923076923076907
 40
0.6999999999999984
 40
0.6999999999999984
 40
0.6999999999999984
 40
0.6999999999999984
 40
0.7076923076923061
 40
0.7076923076923061
 40
0.7076923076923061
 40
0.7076923076923061
 40
0.7153846153846137
 40
0.7153846153846137
 40
0.7153846153846137
 40
0.7153846153846137
 40
0.7230769230769214
 40
0.7230769230769214
 40
0.7230769230769214
 40
0.7230769230769214
 40
0.7307692307692291
 40
0.7307692307692291
 40
0.7307692307692291
 40
0.7307692307692291
 40
0.7384615384615367
 40
0.7384615384615367
 40
0.7384615384615367
 40
0.7384615384615367
 40
0.7461538461538444
 40
0.7461538461538444
 40
0.7461538461538444
 40
0.7461538461538444
 40
0.7538461538461521
 40
0.7538461538461521
 40
0.7538461538461521
 40
0.7538461538461521
 40
0.7615384615384597
 40
0.7615384615384597
 40
0.7615384615384597
 40
0.7615384615384597
 40
0.7692307692307674
 40
0.7692307692307674
 40
0.7692307692307674
 40
0.7692307692307674
 40
0.7769230769230751
 40
0.7769230769230751
 40
0.7769230769230751
 40
0.7769230769230751
 40
0.7846153846153827
 40
0.7846153846153827
 40
0.7846153846153827
 40
0.7846153846153827
 40
0.7923076923076904
 40
0.7923076923076904
 40
0.7923076923076904
 40
0.7923076923076904
 40
0.7999999999999981
 40
0.7999999999999981
 40
0.7999999999999981
 40
0.7999999999999981
 40
0.8076923076923057
 40
0.8076923076923057
 40
0.8076923076923057
 40
0.8076923076923057
 40
0.8153846153846134
 40
0.8153846153846134
 40
0.8153846153846134
 40
0.8153846153846134
 40
0.823076923076921
 40
0.823076923076921
 40
0.823076923076921
 40
0.823076923076921
 40
0.8307692307692287
 40
0.8307692307692287
 40
0.8307692307692287
 40
0.8307692307692287
 40
0.8384615384615364
 40
0.8384615384615364
 40
0.8384615384615364
 40
0.8384615384615364
 40
0.846153846153844
 40
0.846153846153844
 40
0.846153846153844
 40
0.846153846153844
 40
0.8538461538461517
 40
0.8538461538461517
 40
0.8538461538461517
 40
0.8538461538461517
 40
0.8615384615384594
 40
0.8615384615384594
 40
0.8615384615384594
 40
0.8615384615384594
 40
0.869230769230767
 40
0.869230769230767
 40
0.869230769230767
 40
0.869230769230767
 40
0.8769230769230747
 40
0.8769230769230747
 40
0.8769230769230747
 40
0.8769230769230747
 40
0.8846153846153824
 40
0.8846153846153824
 40
0.8846153846153824
 40
0.8846153846153824
 40
0.89230769230769
 40
0.89230769230769
 40
0.89230769230769
 40
0.89230769230769
 40
0.8999999999999977
 40
0.8999999999999977
 40
0.8999999999999977
 40
0.8999999999999977
 40
0.9076923076923054
 40
0.9076923076923054
 40
0.9076923076923054
 40
0.9076923076923054
 40
0.915384615384613
 40
0.915384615384613
 40
0.915384615384613
 40
0.915384615384613
 40
0.9230769230769207
 40
0.9230769230769207
 40
0.9230769230769207
 40
0.9230769230769207
 40
0.9307692307692284
 40
0.9307692307692284
 40
0.9307692307692284
 40
0.9307692307692284
 40
0.938461538461536
 40
0.938461538461536
 40
0.938461538461536
 40
0.938461538461536
 40
0.9461538461538437
 40
0.9461538461538437
 40
0.9461538461538437
 40
0.9461538461538437
 40
0.9538461538461514
 40
0.9538461538461514
 40
0.9538461538461514
 40
0.9538461538461514
 40
0.961538461538459
 40
0.961538461538459
 40
0.961538461538459
 40
0.961538461538459
 40
0.9692307692307667
 40
0.9692307692307667
 40
0.9692307692307667
 40
0.9692307692307667
 40
0.9769230769230743
 40
0.9769230769230743
 40
0.9769230769230743
 40
0.9769230769230743
 40
0.984615384615382
 40
0.984615384615382
 40
0.984615384615382
 40
0.984615384615382
 40
0.9923076923076897
 40
0.9923076923076897
 40
0.9923076923076897
 40
0.9923076923076897
 40
1.0
 40
1.0
 40
1.0
 40
1.0
 10
0.1332204724409449
 20
0.2948858267716535
 30
0.0
 10
0.1332204724409449
 20
0.2948858267716535
 30
0.0
 10
0.7936811023622048
 20
-0.0858188976377953
 30
0.0
 10
0.7936811023622048
 20
-0.0858188976377953
 30
0.0
 10
0.7936811023622048
 20
-0.0858188976377953
 30
0.0
 10
0.7936811023622048
 20
-0.0858188976377953
 30
0.0
 10
0.7948661417322835
 20
-0.091255905511811
 30
0.0
 10
0.7948661417322835
 20
-0.091255905511811
 30
0.0
 10
0.7948661417322835
 20
-0.091255905511811
 30
0.0
 10
0.7948661417322835
 20
-0.091255905511811
 30
0.0
 10
0.7960669291338584
 20
-0.0969409448818898
 30
0.0
 10
0.7960669291338584
 20
-0.0969409448818898
 30
0.0
 10
0.7960669291338584
 20
-0.0969409448818898
 30
0.0
 10
0.7960669291338584
 20
-0.0969409448818898
 30
0.0
 10
0.7972480314960631
 20
-0.1028582677165354
 30
0.0
 10
0.7972480314960631
 20
-0.1028582677165354
 30
0.0
 10
0.7972480314960631
 20
-0.1028582677165354
 30
0.0
 10
0.7972480314960631
 20
-0.1028582677165354
 30
0.0
 10
0.7983818897637796
 20
-0.1089763779527559
 30
0.0
 10
0.7983818897637796
 20
-0.1089763779527559
 30
0.0
 10
0.7983818897637796
 20
-0.1089763779527559
 30
0.0
 10
0.7983818897637796
 20
-0.1089763779527559
 30
0.0
 10
0.7994173228346457
 20
-0.1152795275590551
 30
0.0
 10
0.7994173228346457
 20
-0.1152795275590551
 30
0.0
 10
0.7994173228346457
 20
-0.1152795275590551
 30
0.0
 10
0.7994173228346457
 20
-0.1152795275590551
 30
0.0
 10
0.8003346456692914
 20
-0.1217322834645669
 30
0.0
 10
0.8003346456692914
 20
-0.1217322834645669
 30
0.0
 10
0.8003346456692914
 20
-0.1217322834645669
 30
0.0
 10
0.8003346456692914
 20
-0.1217322834645669
 30
0.0
 10
0.8010944881889764
 20
-0.1283228346456693
 30
0.0
 10
0.8010944881889764
 20
-0.1283228346456693
 30
0.0
 10
0.8010944881889764
 20
-0.1283228346456693
 30
0.0
 10
0.8010944881889764
 20
-0.1283228346456693
 30
0.0
 10
0.8016653543307087
 20
-0.1350118110236221
 30
0.0
 10
0.8016653543307087
 20
-0.1350118110236221
 30
0.0
 10
0.8016653543307087
 20
-0.1350118110236221
 30
0.0
 10
0.8016653543307087
 20
-0.1350118110236221
 30
0.0
 10
0.8020039370078741
 20
-0.1417952755905512
 30
0.0
 10
0.8020039370078741
 20
-0.1417952755905512
 30
0.0
 10
0.8020039370078741
 20
-0.1417952755905512
 30
0.0
 10
0.8020039370078741
 20
-0.1417952755905512
 30
0.0
 10
0.8020826771653543
 20
-0.1486338582677166
 30
0.0
 10
0.8020826771653543
 20
-0.1486338582677166
 30
0.0
 10
0.8020826771653543
 20
-0.1486338582677166
 30
0.0
 10
0.8020826771653543
 20
-0.1486338582677166
 30
0.0
 10
0.8018661417322835
 20
-0.155507874015748
 30
0.0
 10
0.8018661417322835
 20
-0.155507874015748
 30
0.0
 10
0.8018661417322835
 20
-0.155507874015748
 30
0.0
 10
0.8018661417322835
 20
-0.155507874015748
 30
0.0
 10
0.8013228346456693
 20
-0.1623858267716536
 30
0.0
 10
0.8013228346456693
 20
-0.1623858267716536
 30
0.0
 10
0.8013228346456693
 20
-0.1623858267716536
 30
0.0
 10
0.8013228346456693
 20
-0.1623858267716536
 30
0.0
 10
0.8004055118110237
 20
-0.169259842519685
 30
0.0
 10
0.8004055118110237
 20
-0.169259842519685
 30
0.0
 10
0.8004055118110237
 20
-0.169259842519685
 30
0.0
 10
0.8004055118110237
 20
-0.169259842519685
 30
0.0
 10
0.7990984251968504
 20
-0.1760905511811024
 30
0.0
 10
0.7990984251968504
 20
-0.1760905511811024
 30
0.0
 10
0.7990984251968504
 20
-0.1760905511811024
 30
0.0
 10
0.7990984251968504
 20
-0.1760905511811024
 30
0.0
 10
0.7973543307086615
 20
-0.1828622047244095
 30
0.0
 10
0.7973543307086615
 20
-0.1828622047244095
 30
0.0
 10
0.7973543307086615
 20
-0.1828622047244095
 30
0.0
 10
0.7973543307086615
 20
-0.1828622047244095
 30
0.0
 10
0.7951456692913386
 20
-0.1895393700787402
 30
0.0
 10
0.7951456692913386
 20
-0.1895393700787402
 30
0.0
 10
0.7951456692913386
 20
-0.1895393700787402
 30
0.0
 10
0.7951456692913386
 20
-0.1895393700787402
 30
0.0
 10
0.7924251968503937
 20
-0.1961220472440945
 30
0.0
 10
0.7924251968503937
 20
-0.1961220472440945
 30
0.0
 10
0.7924251968503937
 20
-0.1961220472440945
 30
0.0
 10
0.7924251968503937
 20
-0.1961220472440945
 30
0.0
 10
0.7891732283464568
 20
-0.2025590551181102
 30
0.0
 10
0.7891732283464568
 20
-0.2025590551181102
 30
0.0
 10
0.7891732283464568
 20
-0.2025590551181102
 30
0.0
 10
0.7891732283464568
 20
-0.2025590551181102
 30
0.0
 10
0.7853464566929134
 20
-0.2088425196850394
 30
0.0
 10
0.7853464566929134
 20
-0.2088425196850394
 30
0.0
 10
0.7853464566929134
 20
-0.2088425196850394
 30
0.0
 10
0.7853464566929134
 20
-0.2088425196850394
 30
0.0
 10
0.7809212598425197
 20
-0.2149370078740158
 30
0.0
 10
0.7809212598425197
 20
-0.2149370078740158
 30
0.0
 10
0.7809212598425197
 20
-0.2149370078740158
 30
0.0
 10
0.7809212598425197
 20
-0.2149370078740158
 30
0.0
 10
0.7758464566929134
 20
-0.2208346456692913
 30
0.0
 10
0.7758464566929134
 20
-0.2208346456692913
 30
0.0
 10
0.7758464566929134
 20
-0.2208346456692913
 30
0.0
 10
0.7758464566929134
 20
-0.2208346456692913
 30
0.0
 10
0.7701023622047244
 20
-0.226492125984252
 30
0.0
 10
0.7701023622047244
 20
-0.226492125984252
 30
0.0
 10
0.7701023622047244
 20
-0.226492125984252
 30
0.0
 10
0.7701023622047244
 20
-0.226492125984252
 30
0.0
 10
0.7636456692913386
 20
-0.2318976377952756
 30
0.0
 10
0.7636456692913386
 20
-0.2318976377952756
 30
0.0
 10
0.7636456692913386
 20
-0.2318976377952756
 30
0.0
 10
0.7636456692913386
 20
-0.2318976377952756
 30
0.0
 10
0.7564488188976378
 20
-0.2370196850393701
 30
0.0
 10
0.7564488188976378
 20
-0.2370196850393701
 30
0.0
 10
0.7564488188976378
 20
-0.2370196850393701
 30
0.0
 10
0.7564488188976378
 20
-0.2370196850393701
 30
0.0
 10
0.7484645669291339
 20
-0.2418464566929134
 30
0.0
 10
0.7484645669291339
 20
-0.2418464566929134
 30
0.0
 10
0.7484645669291339
 20
-0.2418464566929134
 30
0.0
 10
0.7484645669291339
 20
-0.2418464566929134
 30
0.0
 10
0.7396732283464568
 20
-0.2463385826771654
 30
0.0
 10
0.7396732283464568
 20
-0.2463385826771654
 30
0.0
 10
0.7396732283464568
 20
-0.2463385826771654
 30
0.0
 10
0.7396732283464568
 20
-0.2463385826771654
 30
0.0
 10
0.7300314960629921
 20
-0.25048031496063
 30
0.0
 10
0.7300314960629921
 20
-0.25048031496063
 30
0.0
 10
0.7300314960629921
 20
-0.25048031496063
 30
0.0
 10
0.7300314960629921
 20
-0.25048031496063
 30
0.0
 10
0.7195118110236221
 20
-0.254240157480315
 30
0.0
 10
0.7195118110236221
 20
-0.254240157480315
 30
0.0
 10
0.7195118110236221
 20
-0.254240157480315
 30
0.0
 10
0.7195118110236221
 20
-0.254240157480315
 30
0.0
 10
0.7080708661417323
 20
-0.2576062992125984
 30
0.0
 10
0.7080708661417323
 20
-0.2576062992125984
 30
0.0
 10
0.7080708661417323
 20
-0.2576062992125984
 30
0.0
 10
0.7080708661417323
 20
-0.2576062992125984
 30
0.0
 10
0.6956850393700788
 20
-0.2605433070866142
 30
0.0
 10
0.6956850393700788
 20
-0.2605433070866142
 30
0.0
 10
0.6956850393700788
 20
-0.2605433070866142
 30
0.0
 10
0.6956850393700788
 20
-0.2605433070866142
 30
0.0
 10
0.6823110236220473
 20
-0.2630314960629921
 30
0.0
 10
0.6823110236220473
 20
-0.2630314960629921
 30
0.0
 10
0.6823110236220473
 20
-0.2630314960629921
 30
0.0
 10
0.6823110236220473
 20
-0.2630314960629921
 30
0.0
 10
0.6679173228346457
 20
-0.2650472440944882
 30
0.0
 10
0.6679173228346457
 20
-0.2650472440944882
 30
0.0
 10
0.6679173228346457
 20
-0.2650472440944882
 30
0.0
 10
0.6679173228346457
 20
-0.2650472440944882
 30
0.0
 10
0.6529921259842521
 20
-0.2669370078740158
 30
0.0
 10
0.6529921259842521
 20
-0.2669370078740158
 30
0.0
 10
0.6529921259842521
 20
-0.2669370078740158
 30
0.0
 10
0.6529921259842521
 20
-0.2669370078740158
 30
0.0
 10
0.6380590551181102
 20
-0.2690826771653543
 30
0.0
 10
0.6380590551181102
 20
-0.2690826771653543
 30
0.0
 10
0.6380590551181102
 20
-0.2690826771653543
 30
0.0
 10
0.6380590551181102
 20
-0.2690826771653543
 30
0.0
 10
0.6231535433070866
 20
-0.2715354330708661
 30
0.0
 10
0.6231535433070866
 20
-0.2715354330708661
 30
0.0
 10
0.6231535433070866
 20
-0.2715354330708661
 30
0.0
 10
0.6231535433070866
 20
-0.2715354330708661
 30
0.0
 10
0.6082952755905512
 20
-0.2743307086614173
 30
0.0
 10
0.6082952755905512
 20
-0.2743307086614173
 30
0.0
 10
0.6082952755905512
 20
-0.2743307086614173
 30
0.0
 10
0.6082952755905512
 20
-0.2743307086614173
 30
0.0
 10
0.5935314960629922
 20
-0.2775275590551181
 30
0.0
 10
0.5935314960629922
 20
-0.2775275590551181
 30
0.0
 10
0.5935314960629922
 20
-0.2775275590551181
 30
0.0
 10
0.5935314960629922
 20
-0.2775275590551181
 30
0.0
 10
0.5788779527559055
 20
-0.2811653543307087
 30
0.0
 10
0.5788779527559055
 20
-0.2811653543307087
 30
0.0
 10
0.5788779527559055
 20
-0.2811653543307087
 30
0.0
 10
0.5788779527559055
 20
-0.2811653543307087
 30
0.0
 10
0.5643779527559055
 20
-0.2852952755905512
 30
0.0
 10
0.5643779527559055
 20
-0.2852952755905512
 30
0.0
 10
0.5643779527559055
 20
-0.2852952755905512
 30
0.0
 10
0.5643779527559055
 20
-0.2852952755905512
 30
0.0
 10
0.5500472440944882
 20
-0.2899527559055118
 30
0.0
 10
0.5500472440944882
 20
-0.2899527559055118
 30
0.0
 10
0.5500472440944882
 20
-0.2899527559055118
 30
0.0
 10
0.5500472440944882
 20
-0.2899527559055118
 30
0.0
 10
0.5359370078740158
 20
-0.2952007874015748
 30
0.0
 10
0.5359370078740158
 20
-0.2952007874015748
 30
0.0
 10
0.5359370078740158
 20
-0.2952007874015748
 30
0.0
 10
0.5359370078740158
 20
-0.2952007874015748
 30
0.0
 10
0.5220551181102362
 20
-0.3010748031496063
 30
0.0
 10
0.5220551181102362
 20
-0.3010748031496063
 30
0.0
 10
0.5220551181102362
 20
-0.3010748031496063
 30
0.0
 10
0.5220551181102362
 20
-0.3010748031496063
 30
0.0
 10
0.5084448818897638
 20
-0.3076220472440945
 30
0.0
 10
0.5084448818897638
 20
-0.3076220472440945
 30
0.0
 10
0.5084448818897638
 20
-0.3076220472440945
 30
0.0
 10
0.5084448818897638
 20
-0.3076220472440945
 30
0.0
 10
0.4951299212598426
 20
-0.3148858267716536
 30
0.0
 10
0.4951299212598426
 20
-0.3148858267716536
 30
0.0
 10
0.4951299212598426
 20
-0.3148858267716536
 30
0.0
 10
0.4951299212598426
 20
-0.3148858267716536
 30
0.0
 10
0.4821496062992126
 20
-0.3229212598425197
 30
0.0
 10
0.4821496062992126
 20
-0.3229212598425197
 30
0.0
 10
0.4821496062992126
 20
-0.3229212598425197
 30
0.0
 10
0.4821496062992126
 20
-0.3229212598425197
 30
0.0
 10
0.4695236220472441
 20
-0.3317677165354331
 30
0.0
 10
0.4695236220472441
 20
-0.3317677165354331
 30
0.0
 10
0.4695236220472441
 20
-0.3317677165354331
 30
0.0
 10
0.4695236220472441
 20
-0.3317677165354331
 30
0.0
 10
0.4572913385826772
 20
-0.3414763779527559
 30
0.0
 10
0.4572913385826772
 20
-0.3414763779527559
 30
0.0
 10
0.4572913385826772
 20
-0.3414763779527559
 30
0.0
 10
0.4572913385826772
 20
-0.3414763779527559
 30
0.0
 10
0.4454724409448819
 20
-0.3520826771653544
 30
0.0
 10
0.4454724409448819
 20
-0.3520826771653544
 30
0.0
 10
0.4454724409448819
 20
-0.3520826771653544
 30
0.0
 10
0.4454724409448819
 20
-0.3520826771653544
 30
0.0
 10
0.4341141732283465
 20
-0.3636496062992126
 30
0.0
 10
0.4341141732283465
 20
-0.3636496062992126
 30
0.0
 10
0.4341141732283465
 20
-0.3636496062992126
 30
0.0
 10
0.4341141732283465
 20
-0.3636496062992126
 30
0.0
 10
0.4232322834645669
 20
-0.3762047244094489
 30
0.0
 10
0.4232322834645669
 20
-0.3762047244094489
 30
0.0
 10
0.4232322834645669
 20
-0.3762047244094489
 30
0.0
 10
0.4232322834645669
 20
-0.3762047244094489
 30
0.0
 10
0.4128661417322835
 20
-0.3898031496062993
 30
0.0
 10
0.4128661417322835
 20
-0.3898031496062993
 30
0.0
 10
0.4128661417322835
 20
-0.3898031496062993
 30
0.0
 10
0.4128661417322835
 20
-0.3898031496062993
 30
0.0
 10
0.4030354330708661
 20
-0.404503937007874
 30
0.0
 10
0.4030354330708661
 20
-0.404503937007874
 30
0.0
 10
0.4030354330708661
 20
-0.404503937007874
 30
0.0
 10
0.4030354330708661
 20
-0.404503937007874
 30
0.0
 10
0.3937795275590552
 20
-0.4203346456692914
 30
0.0
 10
0.3937795275590552
 20
-0.4203346456692914
 30
0.0
 10
0.3937795275590552
 20
-0.4203346456692914
 30
0.0
 10
0.3937795275590552
 20
-0.4203346456692914
 30
0.0
 10
0.3851259842519685
 20
-0.4373503937007874
 30
0.0
 10
0.3851259842519685
 20
-0.4373503937007874
 30
0.0
 10
0.3851259842519685
 20
-0.4373503937007874
 30
0.0
 10
0.3851259842519685
 20
-0.4373503937007874
 30
0.0
 10
0.3771062992125984
 20
-0.4555944881889764
 30
0.0
 10
0.3771062992125984
 20
-0.4555944881889764
 30
0.0
 10
0.3771062992125984
 20
-0.4555944881889764
 30
0.0
 10
0.3771062992125984
 20
-0.4555944881889764
 30
0.0
 10
0.369744094488189
 20
-0.4751220472440945
 30
0.0
 10
0.369744094488189
 20
-0.4751220472440945
 30
0.0
 10
0.369744094488189
 20
-0.4751220472440945
 30
0.0
 10
0.369744094488189
 20
-0.4751220472440945
 30
0.0
 10
0.3630826771653544
 20
-0.4959645669291339
 30
0.0
 10
0.3630826771653544
 20
-0.4959645669291339
 30
0.0
 10
0.3630826771653544
 20
-0.4959645669291339
 30
0.0
 10
0.3630826771653544
 20
-0.4959645669291339
 30
0.0
 10
0.3571417322834646
 20
-0.5181771653543308
 30
0.0
 10
0.3571417322834646
 20
-0.5181771653543308
 30
0.0
 10
0.3571417322834646
 20
-0.5181771653543308
 30
0.0
 10
0.3571417322834646
 20
-0.5181771653543308
 30
0.0
 10
0.3519566929133858
 20
-0.5417992125984252
 30
0.0
 10
0.3519566929133858
 20
-0.5417992125984252
 30
0.0
 10
0.3519566929133858
 20
-0.5417992125984252
 30
0.0
 10
0.3519566929133858
 20
-0.5417992125984252
 30
0.0
 10
0.3475511811023622
 20
-0.5668937007874016
 30
0.0
 10
0.3475511811023622
 20
-0.5668937007874016
 30
0.0
 10
0.3475511811023622
 20
-0.5668937007874016
 30
0.0
 10
0.3475511811023622
 20
-0.5668937007874016
 30
0.0
 10
0.3439685039370079
 20
-0.593488188976378
 30
0.0
 10
0.3439685039370079
 20
-0.593488188976378
 30
0.0
 10
0.3439685039370079
 20
-0.593488188976378
 30
0.0
 10
0.3439685039370079
 20
-0.593488188976378
 30
0.0
 10
0.3412244094488189
 20
-0.6216377952755906
 30
0.0
 10
0.3412244094488189
 20
-0.6216377952755906
 30
0.0
 10
0.3412244094488189
 20
-0.6216377952755906
 30
0.0
 10
0.3412244094488189
 20
-0.6216377952755906
 30
0.0
 10
0.3393582677165354
 20
-0.6513858267716536
 30
0.0
 10
0.3393582677165354
 20
-0.6513858267716536
 30
0.0
 10
0.3393582677165354
 20
-0.6513858267716536
 30
0.0
 10
0.3393582677165354
 20
-0.6513858267716536
 30
0.0
 10
0.3383897637795276
 20
-0.6827874015748032
 30
0.0
 10
0.3383897637795276
 20
-0.6827874015748032
 30
0.0
 10
0.3383897637795276
 20
-0.6827874015748032
 30
0.0
 10
0.3383897637795276
 20
-0.6827874015748032
 30
0.0
 10
-0.3220708661417323
 20
-0.3020826771653544
 30
0.0
 10
-0.3220708661417323
 20
-0.3020826771653544
 30
0.0
 10
-0.3220708661417323
 20
-0.3020826771653544
 30
0.0
 10
-0.3220708661417323
 20
-0.3020826771653544
 30
0.0
 10
-0.3211023622047244
 20
-0.2706811023622047
 30
0.0
 10
-0.3211023622047244
 20
-0.2706811023622047
 30
0.0
 10
-0.3211023622047244
 20
-0.2706811023622047
 30
0.0
 10
-0.3211023622047244
 20
-0.2706811023622047
 30
0.0
 10
-0.3192362204724409
 20
-0.2409330708661417
 30
0.0
 10
-0.3192362204724409
 20
-0.2409330708661417
 30
0.0
 10
-0.3192362204724409
 20
-0.2409330708661417
 30
0.0
 10
-0.3192362204724409
 20
-0.2409330708661417
 30
0.0
 10
-0.316492125984252
 20
-0.2127834645669292
 30
0.0
 10
-0.316492125984252
 20
-0.2127834645669292
 30
0.0
 10
-0.316492125984252
 20
-0.2127834645669292
 30
0.0
 10
-0.316492125984252
 20
-0.2127834645669292
 30
0.0
 10
-0.3129094488188977
 20
-0.1861889763779528
 30
0.0
 10
-0.3129094488188977
 20
-0.1861889763779528
 30
0.0
 10
-0.3129094488188977
 20
-0.1861889763779528
 30
0.0
 10
-0.3129094488188977
 20
-0.1861889763779528
 30
0.0
 10
-0.308503937007874
 20
-0.1610944881889764
 30
0.0
 10
-0.308503937007874
 20
-0.1610944881889764
 30
0.0
 10
-0.308503937007874
 20
-0.1610944881889764
 30
0.0
 10
-0.308503937007874
 20
-0.1610944881889764
 30
0.0
 10
-0.3033188976377953
 20
-0.1374724409448819
 30
0.0
 10
-0.3033188976377953
 20
-0.1374724409448819
 30
0.0
 10
-0.3033188976377953
 20
-0.1374724409448819
 30
0.0
 10
-0.3033188976377953
 20
-0.1374724409448819
 30
0.0
 10
-0.2973779527559055
 20
-0.1152598425196851
 30
0.0
 10
-0.2973779527559055
 20
-0.1152598425196851
 30
0.0
 10
-0.2973779527559055
 20
-0.1152598425196851
 30
0.0
 10
-0.2973779527559055
 20
-0.1152598425196851
 30
0.0
 10
-0.2907165354330709
 20
-0.0944173228346457
 30
0.0
 10
-0.2907165354330709
 20
-0.0944173228346457
 30
0.0
 10
-0.2907165354330709
 20
-0.0944173228346457
 30
0.0
 10
-0.2907165354330709
 20
-0.0944173228346457
 30
0.0
 10
-0.2833543307086615
 20
-0.0748897637795276
 30
0.0
 10
-0.2833543307086615
 20
-0.0748897637795276
 30
0.0
 10
-0.2833543307086615
 20
-0.0748897637795276
 30
0.0
 10
-0.2833543307086615
 20
-0.0748897637795276
 30
0.0
 10
-0.2753346456692913
 20
-0.0566456692913386
 30
0.0
 10
-0.2753346456692913
 20
-0.0566456692913386
 30
0.0
 10
-0.2753346456692913
 20
-0.0566456692913386
 30
0.0
 10
-0.2753346456692913
 20
-0.0566456692913386
 30
0.0
 10
-0.2666811023622047
 20
-0.0396299212598425
 30
0.0
 10
-0.2666811023622047
 20
-0.0396299212598425
 30
0.0
 10
-0.2666811023622047
 20
-0.0396299212598425
 30
0.0
 10
-0.2666811023622047
 20
-0.0396299212598425
 30
0.0
 10
-0.2574251968503937
 20
-0.0237992125984252
 30
0.0
 10
-0.2574251968503937
 20
-0.0237992125984252
 30
0.0
 10
-0.2574251968503937
 20
-0.0237992125984252
 30
0.0
 10
-0.2574251968503937
 20
-0.0237992125984252
 30
0.0
 10
-0.2475944881889764
 20
-0.0090984251968504
 30
0.0
 10
-0.2475944881889764
 20
-0.0090984251968504
 30
0.0
 10
-0.2475944881889764
 20
-0.0090984251968504
 30
0.0
 10
-0.2475944881889764
 20
-0.0090984251968504
 30
0.0
 10
-0.2372283464566929
 20
0.0045
 30
0.0
 10
-0.2372283464566929
 20
0.0045
 30
0.0
 10
-0.2372283464566929
 20
0.0045
 30
0.0
 10
-0.2372283464566929
 20
0.0045
 30
0.0
 10
-0.2263464566929134
 20
0.0170551181102362
 30
0.0
 10
-0.2263464566929134
 20
0.0170551181102362
 30
0.0
 10
-0.2263464566929134
 20
0.0170551181102362
 30
0.0
 10
-0.2263464566929134
 20
0.0170551181102362
 30
0.0
 10
-0.214988188976378
 20
0.0286220472440945
 30
0.0
 10
-0.214988188976378
 20
0.0286220472440945
 30
0.0
 10
-0.214988188976378
 20
0.0286220472440945
 30
0.0
 10
-0.214988188976378
 20
0.0286220472440945
 30
0.0
 10
-0.2031692913385827
 20
0.0392283464566929
 30
0.0
 10
-0.2031692913385827
 20
0.0392283464566929
 30
0.0
 10
-0.2031692913385827
 20
0.0392283464566929
 30
0.0
 10
-0.2031692913385827
 20
0.0392283464566929
 30
0.0
 10
-0.1909370078740158
 20
0.0489370078740158
 30
0.0
 10
-0.1909370078740158
 20
0.0489370078740158
 30
0.0
 10
-0.1909370078740158
 20
0.0489370078740158
 30
0.0
 10
-0.1909370078740158
 20
0.0489370078740158
 30
0.0
 10
-0.1783110236220473
 20
0.0577834645669291
 30
0.0
 10
-0.1783110236220473
 20
0.0577834645669291
 30
0.0
 10
-0.1783110236220473
 20
0.0577834645669291
 30
0.0
 10
-0.1783110236220473
 20
0.0577834645669291
 30
0.0
 10
-0.1653307086614173
 20
0.0658188976377953
 30
0.0
 10
-0.1653307086614173
 20
0.0658188976377953
 30
0.0
 10
-0.1653307086614173
 20
0.0658188976377953
 30
0.0
 10
-0.1653307086614173
 20
0.0658188976377953
 30
0.0
 10
-0.1520157480314961
 20
0.0730826771653543
 30
0.0
 10
-0.1520157480314961
 20
0.0730826771653543
 30
0.0
 10
-0.1520157480314961
 20
0.0730826771653543
 30
0.0
 10
-0.1520157480314961
 20
0.0730826771653543
 30
0.0
 10
-0.1384055118110236
 20
0.0796299212598425
 30
0.0
 10
-0.1384055118110236
 20
0.0796299212598425
 30
0.0
 10
-0.1384055118110236
 20
0.0796299212598425
 30
0.0
 10
-0.1384055118110236
 20
0.0796299212598425
 30
0.0
 10
-0.1245236220472441
 20
0.085503937007874
 30
0.0
 10
-0.1245236220472441
 20
0.085503937007874
 30
0.0
 10
-0.1245236220472441
 20
0.085503937007874
 30
0.0
 10
-0.1245236220472441
 20
0.085503937007874
 30
0.0
 10
-0.1104133858267717
 20
0.090751968503937
 30
0.0
 10
-0.1104133858267717
 20
0.090751968503937
 30
0.0
 10
-0.1104133858267717
 20
0.090751968503937
 30
0.0
 10
-0.1104133858267717
 20
0.090751968503937
 30
0.0
 10
-0.0960826771653543
 20
0.0954094488188976
 30
0.0
 10
-0.0960826771653543
 20
0.0954094488188976
 30
0.0
 10
-0.0960826771653543
 20
0.0954094488188976
 30
0.0
 10
-0.0960826771653543
 20
0.0954094488188976
 30
0.0
 10
-0.0815826771653543
 20
0.0995393700787402
 30
0.0
 10
-0.0815826771653543
 20
0.0995393700787402
 30
0.0
 10
-0.0815826771653543
 20
0.0995393700787402
 30
0.0
 10
-0.0815826771653543
 20
0.0995393700787402
 30
0.0
 10
-0.0669291338582677
 20
0.1031771653543307
 30
0.0
 10
-0.0669291338582677
 20
0.1031771653543307
 30
0.0
 10
-0.0669291338582677
 20
0.1031771653543307
 30
0.0
 10
-0.0669291338582677
 20
0.1031771653543307
 30
0.0
 10
-0.0521653543307087
 20
0.1063740157480315
 30
0.0
 10
-0.0521653543307087
 20
0.1063740157480315
 30
0.0
 10
-0.0521653543307087
 20
0.1063740157480315
 30
0.0
 10
-0.0521653543307087
 20
0.1063740157480315
 30
0.0
 10
-0.0373070866141732
 20
0.1091692913385827
 30
0.0
 10
-0.0373070866141732
 20
0.1091692913385827
 30
0.0
 10
-0.0373070866141732
 20
0.1091692913385827
 30
0.0
 10
-0.0373070866141732
 20
0.1091692913385827
 30
0.0
 10
-0.0224015748031496
 20
0.1116220472440945
 30
0.0
 10
-0.0224015748031496
 20
0.1116220472440945
 30
0.0
 10
-0.0224015748031496
 20
0.1116220472440945
 30
0.0
 10
-0.0224015748031496
 20
0.1116220472440945
 30
0.0
 10
-0.0074685039370079
 20
0.1137677165354331
 30
0.0
 10
-0.0074685039370079
 20
0.1137677165354331
 30
0.0
 10
-0.0074685039370079
 20
0.1137677165354331
 30
0.0
 10
-0.0074685039370079
 20
0.1137677165354331
 30
0.0
 10
0.0074566929133858
 20
0.1156574803149606
 30
0.0
 10
0.0074566929133858
 20
0.1156574803149606
 30
0.0
 10
0.0074566929133858
 20
0.1156574803149606
 30
0.0
 10
0.0074566929133858
 20
0.1156574803149606
 30
0.0
 10
0.0218503937007874
 20
0.1176732283464567
 30
0.0
 10
0.0218503937007874
 20
0.1176732283464567
 30
0.0
 10
0.0218503937007874
 20
0.1176732283464567
 30
0.0
 10
0.0218503937007874
 20
0.1176732283464567
 30
0.0
 10
0.0352244094488189
 20
0.1201614173228347
 30
0.0
 10
0.0352244094488189
 20
0.1201614173228347
 30
0.0
 10
0.0352244094488189
 20
0.1201614173228347
 30
0.0
 10
0.0352244094488189
 20
0.1201614173228347
 30
0.0
 10
0.0476102362204724
 20
0.1230984251968504
 30
0.0
 10
0.0476102362204724
 20
0.1230984251968504
 30
0.0
 10
0.0476102362204724
 20
0.1230984251968504
 30
0.0
 10
0.0476102362204724
 20
0.1230984251968504
 30
0.0
 10
0.0590511811023622
 20
0.1264645669291339
 30
0.0
 10
0.0590511811023622
 20
0.1264645669291339
 30
0.0
 10
0.0590511811023622
 20
0.1264645669291339
 30
0.0
 10
0.0590511811023622
 20
0.1264645669291339
 30
0.0
 10
0.0695708661417323
 20
0.1302244094488189
 30
0.0
 10
0.0695708661417323
 20
0.1302244094488189
 30
0.0
 10
0.0695708661417323
 20
0.1302244094488189
 30
0.0
 10
0.0695708661417323
 20
0.1302244094488189
 30
0.0
 10
0.0792125984251969
 20
0.1343661417322835
 30
0.0
 10
0.0792125984251969
 20
0.1343661417322835
 30
0.0
 10
0.0792125984251969
 20
0.1343661417322835
 30
0.0
 10
0.0792125984251969
 20
0.1343661417322835
 30
0.0
 10
0.088003937007874
 20
0.1388582677165355
 30
0.0
 10
0.088003937007874
 20
0.1388582677165355
 30
0.0
 10
0.088003937007874
 20
0.1388582677165355
 30
0.0
 10
0.088003937007874
 20
0.1388582677165355
 30
0.0
 10
0.095988188976378
 20
0.1436850393700787
 30
0.0
 10
0.095988188976378
 20
0.1436850393700787
 30
0.0
 10
0.095988188976378
 20
0.1436850393700787
 30
0.0
 10
0.095988188976378
 20
0.1436850393700787
 30
0.0
 10
0.1031850393700787
 20
0.1488070866141733
 30
0.0
 10
0.1031850393700787
 20
0.1488070866141733
 30
0.0
 10
0.1031850393700787
 20
0.1488070866141733
 30
0.0
 10
0.1031850393700787
 20
0.1488070866141733
 30
0.0
 10
0.1096417322834646
 20
0.1542125984251969
 30
0.0
 10
0.1096417322834646
 20
0.1542125984251969
 30
0.0
 10
0.1096417322834646
 20
0.1542125984251969
 30
0.0
 10
0.1096417322834646
 20
0.1542125984251969
 30
0.0
 10
0.1153858267716535
 20
0.1598700787401575
 30
0.0
 10
0.1153858267716535
 20
0.1598700787401575
 30
0.0
 10
0.1153858267716535
 20
0.1598700787401575
 30
0.0
 10
0.1153858267716535
 20
0.1598700787401575
 30
0.0
 10
0.1204606299212599
 20
0.1657677165354331
 30
0.0
 10
0.1204606299212599
 20
0.1657677165354331
 30
0.0
 10
0.1204606299212599
 20
0.1657677165354331
 30
0.0
 10
0.1204606299212599
 20
0.1657677165354331
 30
0.0
 10
0.1248858267716536
 20
0.1718622047244095
 30
0.0
 10
0.1248858267716536
 20
0.1718622047244095
 30
0.0
 10
0.1248858267716536
 20
0.1718622047244095
 30
0.0
 10
0.1248858267716536
 20
0.1718622047244095
 30
0.0
 10
0.1287125984251969
 20
0.1781456692913386
 30
0.0
 10
0.1287125984251969
 20
0.1781456692913386
 30
0.0
 10
0.1287125984251969
 20
0.1781456692913386
 30
0.0
 10
0.1287125984251969
 20
0.1781456692913386
 30
0.0
 10
0.1319645669291339
 20
0.1845826771653543
 30
0.0
 10
0.1319645669291339
 20
0.1845826771653543
 30
0.0
 10
0.1319645669291339
 20
0.1845826771653543
 30
0.0
 10
0.1319645669291339
 20
0.1845826771653543
 30
0.0
 10
0.1346850393700788
 20
0.1911653543307087
 30
0.0
 10
0.1346850393700788
 20
0.1911653543307087
 30
0.0
 10
0.1346850393700788
 20
0.1911653543307087
 30
0.0
 10
0.1346850393700788
 20
0.1911653543307087
 30
0.0
 10
0.1368937007874016
 20
0.1978425196850394
 30
0.0
 10
0.1368937007874016
 20
0.1978425196850394
 30
0.0
 10
0.1368937007874016
 20
0.1978425196850394
 30
0.0
 10
0.1368937007874016
 20
0.1978425196850394
 30
0.0
 10
0.1386377952755906
 20
0.2046141732283465
 30
0.0
 10
0.1386377952755906
 20
0.2046141732283465
 30
0.0
 10
0.1386377952755906
 20
0.2046141732283465
 30
0.0
 10
0.1386377952755906
 20
0.2046141732283465
 30
0.0
 10
0.1399448818897638
 20
0.2114448818897638
 30
0.0
 10
0.1399448818897638
 20
0.2114448818897638
 30
0.0
 10
0.1399448818897638
 20
0.2114448818897638
 30
0.0
 10
0.1399448818897638
 20
0.2114448818897638
 30
0.0
 10
0.1408622047244095
 20
0.2183188976377953
 30
0.0
 10
0.1408622047244095
 20
0.2183188976377953
 30
0.0
 10
0.1408622047244095
 20
0.2183188976377953
 30
0.0
 10
0.1408622047244095
 20
0.2183188976377953
 30
0.0
 10
0.1414055118110236
 20
0.2251968503937008
 30
0.0
 10
0.1414055118110236
 20
0.2251968503937008
 30
0.0
 10
0.1414055118110236
 20
0.2251968503937008
 30
0.0
 10
0.1414055118110236
 20
0.2251968503937008
 30
0.0
 10
0.1416220472440945
 20
0.2320708661417323
 30
0.0
 10
0.1416220472440945
 20
0.2320708661417323
 30
0.0
 10
0.1416220472440945
 20
0.2320708661417323
 30
0.0
 10
0.1416220472440945
 20
0.2320708661417323
 30
0.0
 10
0.1415433070866142
 20
0.2389094488188976
 30
0.0
 10
0.1415433070866142
 20
0.2389094488188976
 30
0.0
 10
0.1415433070866142
 20
0.2389094488188976
 30
0.0
 10
0.1415433070866142
 20
0.2389094488188976
 30
0.0
 10
0.1412047244094488
 20
0.2456929133858268
 30
0.0
 10
0.1412047244094488
 20
0.2456929133858268
 30
0.0
 10
0.1412047244094488
 20
0.2456929133858268
 30
0.0
 10
0.1412047244094488
 20
0.2456929133858268
 30
0.0
 10
0.1406338582677165
 20
0.2523818897637795
 30
0.0
 10
0.1406338582677165
 20
0.2523818897637795
 30
0.0
 10
0.1406338582677165
 20
0.2523818897637795
 30
0.0
 10
0.1406338582677165
 20
0.2523818897637795
 30
0.0
 10
0.1398740157480315
 20
0.2589724409448819
 30
0.0
 10
0.1398740157480315
 20
0.2589724409448819
 30
0.0
 10
0.1398740157480315
 20
0.2589724409448819
 30
0.0
 10
0.1398740157480315
 20
0.2589724409448819
 30
0.0
 10
0.1389566929133858
 20
0.2654251968503937
 30
0.0
 10
0.1389566929133858
 20
0.2654251968503937
 30
0.0
 10
0.1389566929133858
 20
0.2654251968503937
 30
0.0
 10
0.1389566929133858
 20
0.2654251968503937
 30
0.0
 10
0.1379212598425197
 20
0.2717283464566929
 30
0.0
 10
0.1379212598425197
 20
0.2717283464566929
 30
0.0
 10
0.1379212598425197
 20
0.2717283464566929
 30
0.0
 10
0.1379212598425197
 20
0.2717283464566929
 30
0.0
 10
0.1367874015748032
 20
0.2778464566929134
 30
0.0
 10
0.1367874015748032
 20
0.2778464566929134
 30
0.0
 10
0.1367874015748032
 20
0.2778464566929134
 30
0.0
 10
0.1367874015748032
 20
0.2778464566929134
 30
0.0
 10
0.1356062992125984
 20
0.2837637795275591
 30
0.0
 10
0.1356062992125984
 20
0.2837637795275591
 30
0.0
 10
0.1356062992125984
 20
0.2837637795275591
 30
0.0
 10
0.1356062992125984
 20
0.2837637795275591
 30
0.0
 10
0.1344055118110236
 20
0.2894488188976378
 30
0.0
 10
0.1344055118110236
 20
0.2894488188976378
 30
0.0
 10
0.1344055118110236
 20
0.2894488188976378
 30
0.0
 10
0.1344055118110236
 20
0.2894488188976378
 30
0.0
 10
0.1332204724409449
 20
0.2948858267716535
 30
0.0
 10
0.1332204724409449
 20
0.2948858267716535
 30
0.0
  0
SPLINE
  5
67
100
AcDbEntity
  8
LAYER_1
 62
   253
100
AcDbSpline
210
0.0
220
0.0
230
1.0
 70
     1
 71
     3
 72
    20
 73
    16
 74
     0
 42
0.0000000001
 43
0.0000000001
 40
0.0
 40
0.0
 40
0.0
 40
0.0
 40
0.25
 40
0.25
 40
0.25
 40
0.25
 40
0.5
 40
0.5
 40
0.5
 40
0.5
 40
0.75
 40
0.75
 40
0.75
 40
0.75
 40
1.0
 40
1.0
 40
1.0
 40
1.0
 10
-0.3220708661417323
 20
-0.3020826771653544
 30
0.0
 10
-0.3220708661417323
 20
-0.3020826771653544
 30
0.0
 10
0.3383897637795276
 20
-0.6827874015748032
 30
0.0
 10
0.3383897637795276
 20
-0.6827874015748032
 30
0.0
 10
0.3383897637795276
 20
-0.6827874015748032
 30
0.0
 10
0.3383897637795276
 20
-0.6827874015748032
 30
0.0
 10
-0.0182086614173228
 20
-0.6681023622047244
 30
0.0
 10
-0.0182086614173228
 20
-0.6681023622047244
 30
0.0
 10
-0.0182086614173228
 20
-0.6681023622047244
 30
0.0
 10
-0.0182086614173228
 20
-0.6681023622047244
 30
0.0
 10
-0.6786692913385827
 20
-0.2873976377952756
 30
0.0
 10
-0.6786692913385827
 20
-0.2873976377952756
 30
0.0
 10
-0.6786692913385827
 20
-0.2873976377952756
 30
0.0
 10
-0.6786692913385827
 20
-0.2873976377952756
 30
0.0
 10
-0.3220708661417323
 20
-0.3020826771653544
 30
0.0
 10
-0.3220708661417323
 20
-0.3020826771653544
 30
0.0
  0
SPLINE
  5
68
100
AcDbEntity
  8
LAYER_1
100
AcDbSpline
210
0.0
220
0.0
230
1.0
 70
     1
 71
     3
 72
    20
 73
    16
 74
     0
 42
0.0000000001
 43
0.0000000001
 40
0.0
 40
0.0
 40
0.0
 40
0.0
 40
0.25
 40
0.25
 40
0.25
 40
0.25
 40
0.5
 40
0.5
 40
0.5
 40
0.5
 40
0.75
 40
0.75
 40
0.75
 40
0.75
 40
1.0
 40
1.0
 40
1.0
 40
1.0
 10
-0.3220708661417323
 20
-0.3020826771653544
 30
0.0
 10
-0.3220708661417323
 20
-0.3020826771653544
 30
0.0
 10
0.3383897637795276
 20
-0.6827874015748032
 30
0.0
 10
0.3383897637795276
 20
-0.6827874015748032
 30
0.0
 10
0.3383897637795276
 20
-0.6827874015748032
 30
0.0
 10
0.3383897637795276
 20
-0.6827874015748032
 30
0.0
 10
-0.0182086614173228
 20
-0.6681023622047244
 30
0.0
 10
-0.0182086614173228
 20
-0.6681023622047244
 30
0.0
 10
-0.0182086614173228
 20
-0.6681023622047244
 30
0.0
 10
-0.0182086614173228
 20
-0.6681023622047244
 30
0.0
 10
-0.6786692913385827
 20
-0.2873976377952756
 30
0.0
 10
-0.6786692913385827
 20
-0.2873976377952756
 30
0.0
 10
-0.6786692913385827
 20
-0.2873976377952756
 30
0.0
 10
-0.6786692913385827
 20
-0.2873976377952756
 30
0.0
 10
-0.3220708661417323
 20
-0.3020826771653544
 30
0.0
 10
-0.3220708661417323
 20
-0.3020826771653544
 30
0.0
  0
SPLINE
  5
69
100
AcDbEntity
  8
LAYER_1
 62
     9
100
AcDbSpline
210
0.0
220
0.0
230
1.0
 70
     1
 71
     3
 72
    20
 73
    16
 74
     0
 42
0.0000000001
 43
0.0000000001
 40
0.0
 40
0.0
 40
0.0
 40
0.0
 40
0.25
 40
0.25
 40
0.25
 40
0.25
 40
0.5
 40
0.5
 40
0.5
 40
0.5
 40
0.75
 40
0.75
 40
0.75
 40
0.75
 40
1.0
 40
1.0
 40
1.0
 40
1.0
 10
1.2929370078740159
 20
1.6874094488188978
 30
0.0
 10
1.2929370078740159
 20
1.6874094488188978
 30
0.0
 10
1.9533976377952758
 20
1.306704724409449
 30
0.0
 10
1.9533976377952758
 20
1.306704724409449
 30
0.0
 10
1.9533976377952758
 20
1.306704724409449
 30
0.0
 10
1.9533976377952758
 20
1.306704724409449
 30
0.0
 10
1.9405433070866143
 20
0.9944685039370079
 30
0.0
 10
1.9405433070866143
 20
0.9944685039370079
 30
0.0
 10
1.9405433070866143
 20
0.9944685039370079
 30
0.0
 10
1.9405433070866143
 20
0.9944685039370079
 30
0.0
 10
1.2800826771653544
 20
1.3751732283464568
 30
0.0
 10
1.2800826771653544
 20
1.3751732283464568
 30
0.0
 10
1.2800826771653544
 20
1.3751732283464568
 30
0.0
 10
1.2800826771653544
 20
1.3751732283464568
 30
0.0
 10
1.2929370078740159
 20
1.6874094488188978
 30
0.0
 10
1.2929370078740159
 20
1.6874094488188978
 30
0.0
  0
SPLINE
  5
6A
100
AcDbEntity
  8
LAYER_1
100
AcDbSpline
210
0.0
220
0.0
230
1.0
 70
     1
 71
     3
 72
    20
 73
    16
 74
     0
 42
0.0000000001
 43
0.0000000001
 40
0.0
 40
0.0
 40
0.0
 40
0.0
 40
0.25
 40
0.25
 40
0.25
 40
0.25
 40
0.5
 40
0.5
 40
0.5
 40
0.5
 40
0.75
 40
0.75
 40
0.75
 40
0.75
 40
1.0
 40
1.0
 40
1.0
 40
1.0
 10
1.2929370078740159
 20
1.6874094488188978
 30
0.0
 10
1.2929370078740159
 20
1.6874094488188978
 30
0.0
 10
1.9533976377952758
 20
1.306704724409449
 30
0.0
 10
1.9533976377952758
 20
1.306704724409449
 30
0.0
 10
1.9533976377952758
 20
1.306704724409449
 30
0.0
 10
1.9533976377952758
 20
1.306704724409449
 30
0.0
 10
1.9405433070866143
 20
0.9944685039370079
 30
0.0
 10
1.9405433070866143
 20
0.9944685039370079
 30
0.0
 10
1.9405433070866143
 20
0.9944685039370079
 30
0.0
 10
1.9405433070866143
 20
0.9944685039370079
 30
0.0
 10
1.2800826771653544
 20
1.3751732283464568
 30
0.0
 10
1.2800826771653544
 20
1.3751732283464568
 30
0.0
 10
1.2800826771653544
 20
1.3751732283464568
 30
0.0
 10
1.2800826771653544
 20
1.3751732283464568
 30
0.0
 10
1.2929370078740159
 20
1.6874094488188978
 30
0.0
 10
1.2929370078740159
 20
1.6874094488188978
 30
0.0
  0
SPLINE
  5
6B
100
AcDbEntity
  8
LAYER_1
 62
     9
100
AcDbSpline
210
0.0
220
0.0
230
1.0
 70
     1
 71
     3
 72
    44
 73
    40
 74
     0
 42
0.0000000001
 43
0.0000000001
 40
0.0
 40
0.0
 40
0.0
 40
0.0
 40
0.1
 40
0.1
 40
0.1
 40
0.1
 40
0.2
 40
0.2
 40
0.2
 40
0.2
 40
0.3
 40
0.3
 40
0.3
 40
0.3
 40
0.4
 40
0.4
 40
0.4
 40
0.4
 40
0.5
 40
0.5
 40
0.5
 40
0.5
 40
0.6
 40
0.6
 40
0.6
 40
0.6
 40
0.7
 40
0.7
 40
0.7
 40
0.7
 40
0.7999999999999999
 40
0.7999999999999999
 40
0.7999999999999999
 40
0.7999999999999999
 40
0.8999999999999999
 40
0.8999999999999999
 40
0.8999999999999999
 40
0.8999999999999999
 40
1.0
 40
1.0
 40
1.0
 40
1.0
 10
1.2800826771653544
 20
1.3751732283464568
 30
0.0
 10
1.2800826771653544
 20
1.3751732283464568
 30
0.0
 10
1.9405433070866143
 20
0.9944685039370079
 30
0.0
 10
1.9405433070866143
 20
0.9944685039370079
 30
0.0
 10
1.9405433070866143
 20
0.9944685039370079
 30
0.0
 10
1.9405433070866143
 20
0.9944685039370079
 30
0.0
 10
1.9400551181102363
 20
0.9838818897637796
 30
0.0
 10
1.9400551181102363
 20
0.9838818897637796
 30
0.0
 10
1.9400551181102363
 20
0.9838818897637796
 30
0.0
 10
1.9400551181102363
 20
0.9838818897637796
 30
0.0
 10
1.9387440944881891
 20
0.9731417322834646
 30
0.0
 10
1.9387440944881891
 20
0.9731417322834646
 30
0.0
 10
1.9387440944881891
 20
0.9731417322834646
 30
0.0
 10
1.9387440944881891
 20
0.9731417322834646
 30
0.0
 10
1.9366141732283466
 20
0.9623622047244095
 30
0.0
 10
1.9366141732283466
 20
0.9623622047244095
 30
0.0
 10
1.9366141732283466
 20
0.9623622047244095
 30
0.0
 10
1.9366141732283466
 20
0.9623622047244095
 30
0.0
 10
1.9337086614173229
 20
0.9516771653543308
 30
0.0
 10
1.9337086614173229
 20
0.9516771653543308
 30
0.0
 10
1.9337086614173229
 20
0.9516771653543308
 30
0.0
 10
1.9337086614173229
 20
0.9516771653543308
 30
0.0
 10
1.273248031496063
 20
1.3323818897637796
 30
0.0
 10
1.273248031496063
 20
1.3323818897637796
 30
0.0
 10
1.273248031496063
 20
1.3323818897637796
 30
0.0
 10
1.273248031496063
 20
1.3323818897637796
 30
0.0
 10
1.2761535433070867
 20
1.3430669291338584
 30
0.0
 10
1.2761535433070867
 20
1.3430669291338584
 30
0.0
 10
1.2761535433070867
 20
1.3430669291338584
 30
0.0
 10
1.2761535433070867
 20
1.3430669291338584
 30
0.0
 10
1.2782834645669292
 20
1.3538464566929134
 30
0.0
 10
1.2782834645669292
 20
1.3538464566929134
 30
0.0
 10
1.2782834645669292
 20
1.3538464566929134
 30
0.0
 10
1.2782834645669292
 20
1.3538464566929134
 30
0.0
 10
1.2795944881889765
 20
1.3645866141732284
 30
0.0
 10
1.2795944881889765
 20
1.3645866141732284
 30
0.0
 10
1.2795944881889765
 20
1.3645866141732284
 30
0.0
 10
1.2795944881889765
 20
1.3645866141732284
 30
0.0
 10
1.2800826771653544
 20
1.3751732283464568
 30
0.0
 10
1.2800826771653544
 20
1.3751732283464568
 30
0.0
  0
SPLINE
  5
6C
100
AcDbEntity
  8
LAYER_1
 62
     9
100
AcDbSpline
210
0.0
220
0.0
230
1.0
 70
     1
 71
     3
 72
    44
 73
    40
 74
     0
 42
0.0000000001
 43
0.0000000001
 40
0.0
 40
0.0
 40
0.0
 40
0.0
 40
0.1
 40
0.1
 40
0.1
 40
0.1
 40
0.2
 40
0.2
 40
0.2
 40
0.2
 40
0.3
 40
0.3
 40
0.3
 40
0.3
 40
0.4
 40
0.4
 40
0.4
 40
0.4
 40
0.5
 40
0.5
 40
0.5
 40
0.5
 40
0.6
 40
0.6
 40
0.6
 40
0.6
 40
0.7
 40
0.7
 40
0.7
 40
0.7
 40
0.7999999999999999
 40
0.7999999999999999
 40
0.7999999999999999
 40
0.7999999999999999
 40
0.8999999999999999
 40
0.8999999999999999
 40
0.8999999999999999
 40
0.8999999999999999
 40
1.0
 40
1.0
 40
1.0
 40
1.0
 10
1.273248031496063
 20
1.3323818897637796
 30
0.0
 10
1.273248031496063
 20
1.3323818897637796
 30
0.0
 10
1.9337086614173229
 20
0.9516771653543308
 30
0.0
 10
1.9337086614173229
 20
0.9516771653543308
 30
0.0
 10
1.9337086614173229
 20
0.9516771653543308
 30
0.0
 10
1.9337086614173229
 20
0.9516771653543308
 30
0.0
 10
1.9300314960629923
 20
0.9411968503937008
 30
0.0
 10
1.9300314960629923
 20
0.9411968503937008
 30
0.0
 10
1.9300314960629923
 20
0.9411968503937008
 30
0.0
 10
1.9300314960629923
 20
0.9411968503937008
 30
0.0
 10
1.9256259842519685
 20
0.9310472440944883
 30
0.0
 10
1.9256259842519685
 20
0.9310472440944883
 30
0.0
 10
1.9256259842519685
 20
0.9310472440944883
 30
0.0
 10
1.9256259842519685
 20
0.9310472440944883
 30
0.0
 10
1.9205000000000001
 20
0.9213503937007874
 30
0.0
 10
1.9205000000000001
 20
0.9213503937007874
 30
0.0
 10
1.9205000000000001
 20
0.9213503937007874
 30
0.0
 10
1.9205000000000001
 20
0.9213503937007874
 30
0.0
 10
1.9146889763779529
 20
0.912236220472441
 30
0.0
 10
1.9146889763779529
 20
0.912236220472441
 30
0.0
 10
1.9146889763779529
 20
0.912236220472441
 30
0.0
 10
1.9146889763779529
 20
0.912236220472441
 30
0.0
 10
1.254228346456693
 20
1.2929409448818898
 30
0.0
 10
1.254228346456693
 20
1.2929409448818898
 30
0.0
 10
1.254228346456693
 20
1.2929409448818898
 30
0.0
 10
1.254228346456693
 20
1.2929409448818898
 30
0.0
 10
1.2600393700787402
 20
1.3020551181102362
 30
0.0
 10
1.2600393700787402
 20
1.3020551181102362
 30
0.0
 10
1.2600393700787402
 20
1.3020551181102362
 30
0.0
 10
1.2600393700787402
 20
1.3020551181102362
 30
0.0
 10
1.2651653543307086
 20
1.3117519685039372
 30
0.0
 10
1.2651653543307086
 20
1.3117519685039372
 30
0.0
 10
1.2651653543307086
 20
1.3117519685039372
 30
0.0
 10
1.2651653543307086
 20
1.3117519685039372
 30
0.0
 10
1.2695708661417324
 20
1.3219015748031497
 30
0.0
 10
1.2695708661417324
 20
1.3219015748031497
 30
0.0
 10
1.2695708661417324
 20
1.3219015748031497
 30
0.0
 10
1.2695708661417324
 20
1.3219015748031497
 30
0.0
 10
1.273248031496063
 20
1.3323818897637796
 30
0.0
 10
1.273248031496063
 20
1.3323818897637796
 30
0.0
  0
SPLINE
  5
6D
100
AcDbEntity
  8
LAYER_1
 62
     9
100
AcDbSpline
210
0.0
220
0.0
230
1.0
 70
     1
 71
     3
 72
    44
 73
    40
 74
     0
 42
0.0000000001
 43
0.0000000001
 40
0.0
 40
0.0
 40
0.0
 40
0.0
 40
0.1
 40
0.1
 40
0.1
 40
0.1
 40
0.2
 40
0.2
 40
0.2
 40
0.2
 40
0.3
 40
0.3
 40
0.3
 40
0.3
 40
0.4
 40
0.4
 40
0.4
 40
0.4
 40
0.5
 40
0.5
 40
0.5
 40
0.5
 40
0.6
 40
0.6
 40
0.6
 40
0.6
 40
0.7
 40
0.7
 40
0.7
 40
0.7
 40
0.7999999999999999
 40
0.7999999999999999
 40
0.7999999999999999
 40
0.7999999999999999
 40
0.8999999999999999
 40
0.8999999999999999
 40
0.8999999999999999
 40
0.8999999999999999
 40
1.0
 40
1.0
 40
1.0
 40
1.0
 10
1.254228346456693
 20
1.2929409448818898
 30
0.0
 10
1.254228346456693
 20
1.2929409448818898
 30
0.0
 10
1.9146889763779529
 20
0.912236220472441
 30
0.0
 10
1.9146889763779529
 20
0.912236220472441
 30
0.0
 10
1.9146889763779529
 20
0.912236220472441
 30
0.0
 10
1.9146889763779529
 20
0.912236220472441
 30
0.0
 10
1.9082007874015749
 20
0.9038110236220472
 30
0.0
 10
1.9082007874015749
 20
0.9038110236220472
 30
0.0
 10
1.9082007874015749
 20
0.9038110236220472
 30
0.0
 10
1.9082007874015749
 20
0.9038110236220472
 30
0.0
 10
1.9010708661417324
 20
0.8962125984251969
 30
0.0
 10
1.9010708661417324
 20
0.8962125984251969
 30
0.0
 10
1.9010708661417324
 20
0.8962125984251969
 30
0.0
 10
1.9010708661417324
 20
0.8962125984251969
 30
0.0
 10
1.8933188976377953
 20
0.8895551181102362
 30
0.0
 10
1.8933188976377953
 20
0.8895551181102362
 30
0.0
 10
1.8933188976377953
 20
0.8895551181102362
 30
0.0
 10
1.8933188976377953
 20
0.8895551181102362
 30
0.0
 10
1.8849803149606299
 20
0.8839685039370079
 30
0.0
 10
1.8849803149606299
 20
0.8839685039370079
 30
0.0
 10
1.8849803149606299
 20
0.8839685039370079
 30
0.0
 10
1.8849803149606299
 20
0.8839685039370079
 30
0.0
 10
1.22451968503937
 20
1.2646732283464568
 30
0.0
 10
1.22451968503937
 20
1.2646732283464568
 30
0.0
 10
1.22451968503937
 20
1.2646732283464568
 30
0.0
 10
1.22451968503937
 20
1.2646732283464568
 30
0.0
 10
1.2328582677165354
 20
1.2702598425196852
 30
0.0
 10
1.2328582677165354
 20
1.2702598425196852
 30
0.0
 10
1.2328582677165354
 20
1.2702598425196852
 30
0.0
 10
1.2328582677165354
 20
1.2702598425196852
 30
0.0
 10
1.2406102362204725
 20
1.2769173228346458
 30
0.0
 10
1.2406102362204725
 20
1.2769173228346458
 30
0.0
 10
1.2406102362204725
 20
1.2769173228346458
 30
0.0
 10
1.2406102362204725
 20
1.2769173228346458
 30
0.0
 10
1.2477401574803151
 20
1.2845157480314962
 30
0.0
 10
1.2477401574803151
 20
1.2845157480314962
 30
0.0
 10
1.2477401574803151
 20
1.2845157480314962
 30
0.0
 10
1.2477401574803151
 20
1.2845157480314962
 30
0.0
 10
1.254228346456693
 20
1.2929409448818898
 30
0.0
 10
1.254228346456693
 20
1.2929409448818898
 30
0.0
  0
SPLINE
  5
6E
100
AcDbEntity
  8
LAYER_1
 62
   253
100
AcDbSpline
210
0.0
220
0.0
230
1.0
 70
     1
 71
     3
 72
    44
 73
    40
 74
     0
 42
0.0000000001
 43
0.0000000001
 40
0.0
 40
0.0
 40
0.0
 40
0.0
 40
0.1
 40
0.1
 40
0.1
 40
0.1
 40
0.2
 40
0.2
 40
0.2
 40
0.2
 40
0.3
 40
0.3
 40
0.3
 40
0.3
 40
0.4
 40
0.4
 40
0.4
 40
0.4
 40
0.5
 40
0.5
 40
0.5
 40
0.5
 40
0.6
 40
0.6
 40
0.6
 40
0.6
 40
0.7
 40
0.7
 40
0.7
 40
0.7
 40
0.7999999999999999
 40
0.7999999999999999
 40
0.7999999999999999
 40
0.7999999999999999
 40
0.8999999999999999
 40
0.8999999999999999
 40
0.8999999999999999
 40
0.8999999999999999
 40
1.0
 40
1.0
 40
1.0
 40
1.0
 10
1.22451968503937
 20
1.2646732283464568
 30
0.0
 10
1.22451968503937
 20
1.2646732283464568
 30
0.0
 10
1.8849803149606299
 20
0.8839685039370079
 30
0.0
 10
1.8849803149606299
 20
0.8839685039370079
 30
0.0
 10
1.8849803149606299
 20
0.8839685039370079
 30
0.0
 10
1.8849803149606299
 20
0.8839685039370079
 30
0.0
 10
1.8760551181102363
 20
0.8795629921259843
 30
0.0
 10
1.8760551181102363
 20
0.8795629921259843
 30
0.0
 10
1.8760551181102363
 20
0.8795629921259843
 30
0.0
 10
1.8760551181102363
 20
0.8795629921259843
 30
0.0
 10
1.8665866141732284
 20
0.8764763779527559
 30
0.0
 10
1.8665866141732284
 20
0.8764763779527559
 30
0.0
 10
1.8665866141732284
 20
0.8764763779527559
 30
0.0
 10
1.8665866141732284
 20
0.8764763779527559
 30
0.0
 10
1.8565905511811025
 20
0.8748188976377953
 30
0.0
 10
1.8565905511811025
 20
0.8748188976377953
 30
0.0
 10
1.8565905511811025
 20
0.8748188976377953
 30
0.0
 10
1.8565905511811025
 20
0.8748188976377953
 30
0.0
 10
1.8460944881889765
 20
0.8747244094488189
 30
0.0
 10
1.8460944881889765
 20
0.8747244094488189
 30
0.0
 10
1.8460944881889765
 20
0.8747244094488189
 30
0.0
 10
1.8460944881889765
 20
0.8747244094488189
 30
0.0
 10
1.1856338582677166
 20
1.2554291338582677
 30
0.0
 10
1.1856338582677166
 20
1.2554291338582677
 30
0.0
 10
1.1856338582677166
 20
1.2554291338582677
 30
0.0
 10
1.1856338582677166
 20
1.2554291338582677
 30
0.0
 10
1.1961299212598426
 20
1.2555236220472441
 30
0.0
 10
1.1961299212598426
 20
1.2555236220472441
 30
0.0
 10
1.1961299212598426
 20
1.2555236220472441
 30
0.0
 10
1.1961299212598426
 20
1.2555236220472441
 30
0.0
 10
1.2061259842519685
 20
1.2571811023622048
 30
0.0
 10
1.2061259842519685
 20
1.2571811023622048
 30
0.0
 10
1.2061259842519685
 20
1.2571811023622048
 30
0.0
 10
1.2061259842519685
 20
1.2571811023622048
 30
0.0
 10
1.2155944881889764
 20
1.260267716535433
 30
0.0
 10
1.2155944881889764
 20
1.260267716535433
 30
0.0
 10
1.2155944881889764
 20
1.260267716535433
 30
0.0
 10
1.2155944881889764
 20
1.260267716535433
 30
0.0
 10
1.22451968503937
 20
1.2646732283464568
 30
0.0
 10
1.22451968503937
 20
1.2646732283464568
 30
0.0
  0
SPLINE
  5
6F
100
AcDbEntity
  8
LAYER_1
100
AcDbSpline
210
0.0
220
0.0
230
1.0
 70
     1
 71
     3
 72
   140
 73
   136
 74
     0
 42
0.0000000001
 43
0.0000000001
 40
0.0
 40
0.0
 40
0.0
 40
0.0
 40
0.0294117647058824
 40
0.0294117647058824
 40
0.0294117647058824
 40
0.0294117647058824
 40
0.0588235294117647
 40
0.0588235294117647
 40
0.0588235294117647
 40
0.0588235294117647
 40
0.0882352941176471
 40
0.0882352941176471
 40
0.0882352941176471
 40
0.0882352941176471
 40
0.1176470588235294
 40
0.1176470588235294
 40
0.1176470588235294
 40
0.1176470588235294
 40
0.1470588235294118
 40
0.1470588235294118
 40
0.1470588235294118
 40
0.1470588235294118
 40
0.1764705882352941
 40
0.1764705882352941
 40
0.1764705882352941
 40
0.1764705882352941
 40
0.2058823529411765
 40
0.2058823529411765
 40
0.2058823529411765
 40
0.2058823529411765
 40
0.2352941176470589
 40
0.2352941176470589
 40
0.2352941176470589
 40
0.2352941176470589
 40
0.2647058823529412
 40
0.2647058823529412
 40
0.2647058823529412
 40
0.2647058823529412
 40
0.2941176470588235
 40
0.2941176470588235
 40
0.2941176470588235
 40
0.2941176470588235
 40
0.3235294117647059
 40
0.3235294117647059
 40
0.3235294117647059
 40
0.3235294117647059
 40
0.3529411764705883
 40
0.3529411764705883
 40
0.3529411764705883
 40
0.3529411764705883
 40
0.3823529411764706
 40
0.3823529411764706
 40
0.3823529411764706
 40
0.3823529411764706
 40
0.411764705882353
 40
0.411764705882353
 40
0.411764705882353
 40
0.411764705882353
 40
0.4411764705882353
 40
0.4411764705882353
 40
0.4411764705882353
 40
0.4411764705882353
 40
0.4705882352941177
 40
0.4705882352941177
 40
0.4705882352941177
 40
0.4705882352941177
 40
0.5
 40
0.5
 40
0.5
 40
0.5
 40
0.5294117647058824
 40
0.5294117647058824
 40
0.5294117647058824
 40
0.5294117647058824
 40
0.5588235294117647
 40
0.5588235294117647
 40
0.5588235294117647
 40
0.5588235294117647
 40
0.5882352941176471
 40
0.5882352941176471
 40
0.5882352941176471
 40
0.5882352941176471
 40
0.6176470588235294
 40
0.6176470588235294
 40
0.6176470588235294
 40
0.6176470588235294
 40
0.6470588235294118
 40
0.6470588235294118
 40
0.6470588235294118
 40
0.6470588235294118
 40
0.6764705882352942
 40
0.6764705882352942
 40
0.6764705882352942
 40
0.6764705882352942
 40
0.7058823529411765
 40
0.7058823529411765
 40
0.7058823529411765
 40
0.7058823529411765
 40
0.7352941176470589
 40
0.7352941176470589
 40
0.7352941176470589
 40
0.7352941176470589
 40
0.7647058823529412
 40
0.7647058823529412
 40
0.7647058823529412
 40
0.7647058823529412
 40
0.7941176470588236
 40
0.7941176470588236
 40
0.7941176470588236
 40
0.7941176470588236
 40
0.823529411764706
 40
0.823529411764706
 40
0.823529411764706
 40
0.823529411764706
 40
0.8529411764705883
 40
0.8529411764705883
 40
0.8529411764705883
 40
0.8529411764705883
 40
0.8823529411764707
 40
0.8823529411764707
 40
0.8823529411764707
 40
0.8823529411764707
 40
0.911764705882353
 40
0.911764705882353
 40
0.911764705882353
 40
0.911764705882353
 40
0.9411764705882354
 40
0.9411764705882354
 40
0.9411764705882354
 40
0.9411764705882354
 40
0.9705882352941178
 40
0.9705882352941178
 40
0.9705882352941178
 40
0.9705882352941178
 40
1.0
 40
1.0
 40
1.0
 40
1.0
 10
1.2800826771653544
 20
1.3751732283464568
 30
0.0
 10
1.2800826771653544
 20
1.3751732283464568
 30
0.0
 10
1.9405433070866143
 20
0.9944685039370079
 30
0.0
 10
1.9405433070866143
 20
0.9944685039370079
 30
0.0
 10
1.9405433070866143
 20
0.9944685039370079
 30
0.0
 10
1.9405433070866143
 20
0.9944685039370079
 30
0.0
 10
1.9400551181102363
 20
0.9838818897637796
 30
0.0
 10
1.9400551181102363
 20
0.9838818897637796
 30
0.0
 10
1.9400551181102363
 20
0.9838818897637796
 30
0.0
 10
1.9400551181102363
 20
0.9838818897637796
 30
0.0
 10
1.9387440944881891
 20
0.9731417322834646
 30
0.0
 10
1.9387440944881891
 20
0.9731417322834646
 30
0.0
 10
1.9387440944881891
 20
0.9731417322834646
 30
0.0
 10
1.9387440944881891
 20
0.9731417322834646
 30
0.0
 10
1.9366141732283466
 20
0.9623622047244095
 30
0.0
 10
1.9366141732283466
 20
0.9623622047244095
 30
0.0
 10
1.9366141732283466
 20
0.9623622047244095
 30
0.0
 10
1.9366141732283466
 20
0.9623622047244095
 30
0.0
 10
1.9337086614173229
 20
0.9516771653543308
 30
0.0
 10
1.9337086614173229
 20
0.9516771653543308
 30
0.0
 10
1.9337086614173229
 20
0.9516771653543308
 30
0.0
 10
1.9337086614173229
 20
0.9516771653543308
 30
0.0
 10
1.9300314960629923
 20
0.9411968503937008
 30
0.0
 10
1.9300314960629923
 20
0.9411968503937008
 30
0.0
 10
1.9300314960629923
 20
0.9411968503937008
 30
0.0
 10
1.9300314960629923
 20
0.9411968503937008
 30
0.0
 10
1.9256259842519685
 20
0.9310472440944883
 30
0.0
 10
1.9256259842519685
 20
0.9310472440944883
 30
0.0
 10
1.9256259842519685
 20
0.9310472440944883
 30
0.0
 10
1.9256259842519685
 20
0.9310472440944883
 30
0.0
 10
1.9205000000000001
 20
0.9213503937007874
 30
0.0
 10
1.9205000000000001
 20
0.9213503937007874
 30
0.0
 10
1.9205000000000001
 20
0.9213503937007874
 30
0.0
 10
1.9205000000000001
 20
0.9213503937007874
 30
0.0
 10
1.9146889763779529
 20
0.912236220472441
 30
0.0
 10
1.9146889763779529
 20
0.912236220472441
 30
0.0
 10
1.9146889763779529
 20
0.912236220472441
 30
0.0
 10
1.9146889763779529
 20
0.912236220472441
 30
0.0
 10
1.9082007874015749
 20
0.9038110236220472
 30
0.0
 10
1.9082007874015749
 20
0.9038110236220472
 30
0.0
 10
1.9082007874015749
 20
0.9038110236220472
 30
0.0
 10
1.9082007874015749
 20
0.9038110236220472
 30
0.0
 10
1.9010708661417324
 20
0.8962125984251969
 30
0.0
 10
1.9010708661417324
 20
0.8962125984251969
 30
0.0
 10
1.9010708661417324
 20
0.8962125984251969
 30
0.0
 10
1.9010708661417324
 20
0.8962125984251969
 30
0.0
 10
1.8933188976377953
 20
0.8895551181102362
 30
0.0
 10
1.8933188976377953
 20
0.8895551181102362
 30
0.0
 10
1.8933188976377953
 20
0.8895551181102362
 30
0.0
 10
1.8933188976377953
 20
0.8895551181102362
 30
0.0
 10
1.8849803149606299
 20
0.8839685039370079
 30
0.0
 10
1.8849803149606299
 20
0.8839685039370079
 30
0.0
 10
1.8849803149606299
 20
0.8839685039370079
 30
0.0
 10
1.8849803149606299
 20
0.8839685039370079
 30
0.0
 10
1.8760551181102363
 20
0.8795629921259843
 30
0.0
 10
1.8760551181102363
 20
0.8795629921259843
 30
0.0
 10
1.8760551181102363
 20
0.8795629921259843
 30
0.0
 10
1.8760551181102363
 20
0.8795629921259843
 30
0.0
 10
1.8665866141732284
 20
0.8764763779527559
 30
0.0
 10
1.8665866141732284
 20
0.8764763779527559
 30
0.0
 10
1.8665866141732284
 20
0.8764763779527559
 30
0.0
 10
1.8665866141732284
 20
0.8764763779527559
 30
0.0
 10
1.8565905511811025
 20
0.8748188976377953
 30
0.0
 10
1.8565905511811025
 20
0.8748188976377953
 30
0.0
 10
1.8565905511811025
 20
0.8748188976377953
 30
0.0
 10
1.8565905511811025
 20
0.8748188976377953
 30
0.0
 10
1.8460944881889765
 20
0.8747244094488189
 30
0.0
 10
1.8460944881889765
 20
0.8747244094488189
 30
0.0
 10
1.8460944881889765
 20
0.8747244094488189
 30
0.0
 10
1.8460944881889765
 20
0.8747244094488189
 30
0.0
 10
1.1856338582677166
 20
1.2554291338582677
 30
0.0
 10
1.1856338582677166
 20
1.2554291338582677
 30
0.0
 10
1.1856338582677166
 20
1.2554291338582677
 30
0.0
 10
1.1856338582677166
 20
1.2554291338582677
 30
0.0
 10
1.1961299212598426
 20
1.2555236220472441
 30
0.0
 10
1.1961299212598426
 20
1.2555236220472441
 30
0.0
 10
1.1961299212598426
 20
1.2555236220472441
 30
0.0
 10
1.1961299212598426
 20
1.2555236220472441
 30
0.0
 10
1.2061259842519685
 20
1.2571811023622048
 30
0.0
 10
1.2061259842519685
 20
1.2571811023622048
 30
0.0
 10
1.2061259842519685
 20
1.2571811023622048
 30
0.0
 10
1.2061259842519685
 20
1.2571811023622048
 30
0.0
 10
1.2155944881889764
 20
1.260267716535433
 30
0.0
 10
1.2155944881889764
 20
1.260267716535433
 30
0.0
 10
1.2155944881889764
 20
1.260267716535433
 30
0.0
 10
1.2155944881889764
 20
1.260267716535433
 30
0.0
 10
1.22451968503937
 20
1.2646732283464568
 30
0.0
 10
1.22451968503937
 20
1.2646732283464568
 30
0.0
 10
1.22451968503937
 20
1.2646732283464568
 30
0.0
 10
1.22451968503937
 20
1.2646732283464568
 30
0.0
 10
1.2328582677165354
 20
1.2702598425196852
 30
0.0
 10
1.2328582677165354
 20
1.2702598425196852
 30
0.0
 10
1.2328582677165354
 20
1.2702598425196852
 30
0.0
 10
1.2328582677165354
 20
1.2702598425196852
 30
0.0
 10
1.2406102362204725
 20
1.2769173228346458
 30
0.0
 10
1.2406102362204725
 20
1.2769173228346458
 30
0.0
 10
1.2406102362204725
 20
1.2769173228346458
 30
0.0
 10
1.2406102362204725
 20
1.2769173228346458
 30
0.0
 10
1.2477401574803151
 20
1.2845157480314962
 30
0.0
 10
1.2477401574803151
 20
1.2845157480314962
 30
0.0
 10
1.2477401574803151
 20
1.2845157480314962
 30
0.0
 10
1.2477401574803151
 20
1.2845157480314962
 30
0.0
 10
1.254228346456693
 20
1.2929409448818898
 30
0.0
 10
1.254228346456693
 20
1.2929409448818898
 30
0.0
 10
1.254228346456693
 20
1.2929409448818898
 30
0.0
 10
1.254228346456693
 20
1.2929409448818898
 30
0.0
 10
1.2600393700787402
 20
1.3020551181102362
 30
0.0
 10
1.2600393700787402
 20
1.3020551181102362
 30
0.0
 10
1.2600393700787402
 20
1.3020551181102362
 30
0.0
 10
1.2600393700787402
 20
1.3020551181102362
 30
0.0
 10
1.2651653543307086
 20
1.3117519685039372
 30
0.0
 10
1.2651653543307086
 20
1.3117519685039372
 30
0.0
 10
1.2651653543307086
 20
1.3117519685039372
 30
0.0
 10
1.2651653543307086
 20
1.3117519685039372
 30
0.0
 10
1.2695708661417324
 20
1.3219015748031497
 30
0.0
 10
1.2695708661417324
 20
1.3219015748031497
 30
0.0
 10
1.2695708661417324
 20
1.3219015748031497
 30
0.0
 10
1.2695708661417324
 20
1.3219015748031497
 30
0.0
 10
1.273248031496063
 20
1.3323818897637796
 30
0.0
 10
1.273248031496063
 20
1.3323818897637796
 30
0.0
 10
1.273248031496063
 20
1.3323818897637796
 30
0.0
 10
1.273248031496063
 20
1.3323818897637796
 30
0.0
 10
1.2761535433070867
 20
1.3430669291338584
 30
0.0
 10
1.2761535433070867
 20
1.3430669291338584
 30
0.0
 10
1.2761535433070867
 20
1.3430669291338584
 30
0.0
 10
1.2761535433070867
 20
1.3430669291338584
 30
0.0
 10
1.2782834645669292
 20
1.3538464566929134
 30
0.0
 10
1.2782834645669292
 20
1.3538464566929134
 30
0.0
 10
1.2782834645669292
 20
1.3538464566929134
 30
0.0
 10
1.2782834645669292
 20
1.3538464566929134
 30
0.0
 10
1.2795944881889765
 20
1.3645866141732284
 30
0.0
 10
1.2795944881889765
 20
1.3645866141732284
 30
0.0
 10
1.2795944881889765
 20
1.3645866141732284
 30
0.0
 10
1.2795944881889765
 20
1.3645866141732284
 30
0.0
 10
1.2800826771653544
 20
1.3751732283464568
 30
0.0
 10
1.2800826771653544
 20
1.3751732283464568
 30
0.0
  0
SPLINE
  5
70
100
AcDbEntity
  8
LAYER_1
 62
   253
100
AcDbSpline
210
0.0
220
0.0
230
1.0
 70
     1
 71
     3
 72
    20
 73
    16
 74
     0
 42
0.0000000001
 43
0.0000000001
 40
0.0
 40
0.0
 40
0.0
 40
0.0
 40
0.25
 40
0.25
 40
0.25
 40
0.25
 40
0.5
 40
0.5
 40
0.5
 40
0.5
 40
0.75
 40
0.75
 40
0.75
 40
0.75
 40
1.0
 40
1.0
 40
1.0
 40
1.0
 10
1.1856338582677166
 20
1.2554291338582677
 30
0.0
 10
1.1856338582677166
 20
1.2554291338582677
 30
0.0
 10
1.8460944881889765
 20
0.8747244094488189
 30
0.0
 10
1.8460944881889765
 20
0.8747244094488189
 30
0.0
 10
1.8460944881889765
 20
0.8747244094488189
 30
0.0
 10
1.8460944881889765
 20
0.8747244094488189
 30
0.0
 10
1.7848425196850395
 20
0.8711220472440945
 30
0.0
 10
1.7848425196850395
 20
0.8711220472440945
 30
0.0
 10
1.7848425196850395
 20
0.8711220472440945
 30
0.0
 10
1.7848425196850395
 20
0.8711220472440945
 30
0.0
 10
1.1243818897637796
 20
1.2518267716535434
 30
0.0
 10
1.1243818897637796
 20
1.2518267716535434
 30
0.0
 10
1.1243818897637796
 20
1.2518267716535434
 30
0.0
 10
1.1243818897637796
 20
1.2518267716535434
 30
0.0
 10
1.1856338582677166
 20
1.2554291338582677
 30
0.0
 10
1.1856338582677166
 20
1.2554291338582677
 30
0.0
  0
SPLINE
  5
71
100
AcDbEntity
  8
LAYER_1
 62
   253
100
AcDbSpline
210
0.0
220
0.0
230
1.0
 70
     1
 71
     3
 72
    20
 73
    16
 74
     0
 42
0.0000000001
 43
0.0000000001
 40
0.0
 40
0.0
 40
0.0
 40
0.0
 40
0.25
 40
0.25
 40
0.25
 40
0.25
 40
0.5
 40
0.5
 40
0.5
 40
0.5
 40
0.75
 40
0.75
 40
0.75
 40
0.75
 40
1.0
 40
1.0
 40
1.0
 40
1.0
 10
1.1243818897637796
 20
1.2518267716535434
 30
0.0
 10
1.1243818897637796
 20
1.2518267716535434
 30
0.0
 10
1.7848425196850395
 20
0.8711220472440945
 30
0.0
 10
1.7848425196850395
 20
0.8711220472440945
 30
0.0
 10
1.7848425196850395
 20
0.8711220472440945
 30
0.0
 10
1.7848425196850395
 20
0.8711220472440945
 30
0.0
 10
1.73
 20
0.864472440944882
 30
0.0
 10
1.73
 20
0.864472440944882
 30
0.0
 10
1.73
 20
0.864472440944882
 30
0.0
 10
1.73
 20
0.864472440944882
 30
0.0
 10
1.0695393700787401
 20
1.2451771653543307
 30
0.0
 10
1.0695393700787401
 20
1.2451771653543307
 30
0.0
 10
1.0695393700787401
 20
1.2451771653543307
 30
0.0
 10
1.0695393700787401
 20
1.2451771653543307
 30
0.0
 10
1.1243818897637796
 20
1.2518267716535434
 30
0.0
 10
1.1243818897637796
 20
1.2518267716535434
 30
0.0
  0
SPLINE
  5
72
100
AcDbEntity
  8
LAYER_1
 62
   253
100
AcDbSpline
210
0.0
220
0.0
230
1.0
 70
     1
 71
     3
 72
    20
 73
    16
 74
     0
 42
0.0000000001
 43
0.0000000001
 40
0.0
 40
0.0
 40
0.0
 40
0.0
 40
0.25
 40
0.25
 40
0.25
 40
0.25
 40
0.5
 40
0.5
 40
0.5
 40
0.5
 40
0.75
 40
0.75
 40
0.75
 40
0.75
 40
1.0
 40
1.0
 40
1.0
 40
1.0
 10
1.0695393700787401
 20
1.2451771653543307
 30
0.0
 10
1.0695393700787401
 20
1.2451771653543307
 30
0.0
 10
1.73
 20
0.864472440944882
 30
0.0
 10
1.73
 20
0.864472440944882
 30
0.0
 10
1.73
 20
0.864472440944882
 30
0.0
 10
1.73
 20
0.864472440944882
 30
0.0
 10
1.6810984251968504
 20
0.8548937007874016
 30
0.0
 10
1.6810984251968504
 20
0.8548937007874016
 30
0.0
 10
1.6810984251968504
 20
0.8548937007874016
 30
0.0
 10
1.6810984251968504
 20
0.8548937007874016
 30
0.0
 10
1.0206377952755905
 20
1.2355984251968504
 30
0.0
 10
1.0206377952755905
 20
1.2355984251968504
 30
0.0
 10
1.0206377952755905
 20
1.2355984251968504
 30
0.0
 10
1.0206377952755905
 20
1.2355984251968504
 30
0.0
 10
1.0695393700787401
 20
1.2451771653543307
 30
0.0
 10
1.0695393700787401
 20
1.2451771653543307
 30
0.0
  0
SPLINE
  5
73
100
AcDbEntity
  8
LAYER_1
 62
   253
100
AcDbSpline
210
0.0
220
0.0
230
1.0
 70
     1
 71
     3
 72
    20
 73
    16
 74
     0
 42
0.0000000001
 43
0.0000000001
 40
0.0
 40
0.0
 40
0.0
 40
0.0
 40
0.25
 40
0.25
 40
0.25
 40
0.25
 40
0.5
 40
0.5
 40
0.5
 40
0.5
 40
0.75
 40
0.75
 40
0.75
 40
0.75
 40
1.0
 40
1.0
 40
1.0
 40
1.0
 10
1.0206377952755905
 20
1.2355984251968504
 30
0.0
 10
1.0206377952755905
 20
1.2355984251968504
 30
0.0
 10
1.6810984251968504
 20
0.8548937007874016
 30
0.0
 10
1.6810984251968504
 20
0.8548937007874016
 30
0.0
 10
1.6810984251968504
 20
0.8548937007874016
 30
0.0
 10
1.6810984251968504
 20
0.8548937007874016
 30
0.0
 10
1.6376889763779527
 20
0.8425354330708662
 30
0.0
 10
1.6376889763779527
 20
0.8425354330708662
 30
0.0
 10
1.6376889763779527
 20
0.8425354330708662
 30
0.0
 10
1.6376889763779527
 20
0.8425354330708662
 30
0.0
 10
0.977228346456693
 20
1.2232401574803151
 30
0.0
 10
0.977228346456693
 20
1.2232401574803151
 30
0.0
 10
0.977228346456693
 20
1.2232401574803151
 30
0.0
 10
0.977228346456693
 20
1.2232401574803151
 30
0.0
 10
1.0206377952755905
 20
1.2355984251968504
 30
0.0
 10
1.0206377952755905
 20
1.2355984251968504
 30
0.0
  0
SPLINE
  5
74
100
AcDbEntity
  8
LAYER_1
 62
   253
100
AcDbSpline
210
0.0
220
0.0
230
1.0
 70
     1
 71
     3
 72
    20
 73
    16
 74
     0
 42
0.0000000001
 43
0.0000000001
 40
0.0
 40
0.0
 40
0.0
 40
0.0
 40
0.25
 40
0.25
 40
0.25
 40
0.25
 40
0.5
 40
0.5
 40
0.5
 40
0.5
 40
0.75
 40
0.75
 40
0.75
 40
0.75
 40
1.0
 40
1.0
 40
1.0
 40
1.0
 10
0.977228346456693
 20
1.2232401574803151
 30
0.0
 10
0.977228346456693
 20
1.2232401574803151
 30
0.0
 10
1.6376889763779527
 20
0.8425354330708662
 30
0.0
 10
1.6376889763779527
 20
0.8425354330708662
 30
0.0
 10
1.6376889763779527
 20
0.8425354330708662
 30
0.0
 10
1.6376889763779527
 20
0.8425354330708662
 30
0.0
 10
1.5992992125984253
 20
0.8275157480314961
 30
0.0
 10
1.5992992125984253
 20
0.8275157480314961
 30
0.0
 10
1.5992992125984253
 20
0.8275157480314961
 30
0.0
 10
1.5992992125984253
 20
0.8275157480314961
 30
0.0
 10
0.9388385826771654
 20
1.2082204724409449
 30
0.0
 10
0.9388385826771654
 20
1.2082204724409449
 30
0.0
 10
0.9388385826771654
 20
1.2082204724409449
 30
0.0
 10
0.9388385826771654
 20
1.2082204724409449
 30
0.0
 10
0.977228346456693
 20
1.2232401574803151
 30
0.0
 10
0.977228346456693
 20
1.2232401574803151
 30
0.0
  0
SPLINE
  5
75
100
AcDbEntity
  8
LAYER_1
 62
   253
100
AcDbSpline
210
0.0
220
0.0
230
1.0
 70
     1
 71
     3
 72
    20
 73
    16
 74
     0
 42
0.0000000001
 43
0.0000000001
 40
0.0
 40
0.0
 40
0.0
 40
0.0
 40
0.25
 40
0.25
 40
0.25
 40
0.25
 40
0.5
 40
0.5
 40
0.5
 40
0.5
 40
0.75
 40
0.75
 40
0.75
 40
0.75
 40
1.0
 40
1.0
 40
1.0
 40
1.0
 10
0.9388385826771654
 20
1.2082204724409449
 30
0.0
 10
0.9388385826771654
 20
1.2082204724409449
 30
0.0
 10
1.5992992125984253
 20
0.8275157480314961
 30
0.0
 10
1.5992992125984253
 20
0.8275157480314961
 30
0.0
 10
1.5992992125984253
 20
0.8275157480314961
 30
0.0
 10
1.5992992125984253
 20
0.8275157480314961
 30
0.0
 10
1.565492125984252
 20
0.809988188976378
 30
0.0
 10
1.565492125984252
 20
0.809988188976378
 30
0.0
 10
1.565492125984252
 20
0.809988188976378
 30
0.0
 10
1.565492125984252
 20
0.809988188976378
 30
0.0
 10
0.9050314960629922
 20
1.1906929133858268
 30
0.0
 10
0.9050314960629922
 20
1.1906929133858268
 30
0.0
 10
0.9050314960629922
 20
1.1906929133858268
 30
0.0
 10
0.9050314960629922
 20
1.1906929133858268
 30
0.0
 10
0.9388385826771654
 20
1.2082204724409449
 30
0.0
 10
0.9388385826771654
 20
1.2082204724409449
 30
0.0
  0
SPLINE
  5
76
100
AcDbEntity
  8
LAYER_1
 62
   253
100
AcDbSpline
210
0.0
220
0.0
230
1.0
 70
     1
 71
     3
 72
    20
 73
    16
 74
     0
 42
0.0000000001
 43
0.0000000001
 40
0.0
 40
0.0
 40
0.0
 40
0.0
 40
0.25
 40
0.25
 40
0.25
 40
0.25
 40
0.5
 40
0.5
 40
0.5
 40
0.5
 40
0.75
 40
0.75
 40
0.75
 40
0.75
 40
1.0
 40
1.0
 40
1.0
 40
1.0
 10
0.9050314960629922
 20
1.1906929133858268
 30
0.0
 10
0.9050314960629922
 20
1.1906929133858268
 30
0.0
 10
1.565492125984252
 20
0.809988188976378
 30
0.0
 10
1.565492125984252
 20
0.809988188976378
 30
0.0
 10
1.565492125984252
 20
0.809988188976378
 30
0.0
 10
1.565492125984252
 20
0.809988188976378
 30
0.0
 10
1.5357992125984252
 20
0.7900748031496063
 30
0.0
 10
1.5357992125984252
 20
0.7900748031496063
 30
0.0
 10
1.5357992125984252
 20
0.7900748031496063
 30
0.0
 10
1.5357992125984252
 20
0.7900748031496063
 30
0.0
 10
0.8753385826771654
 20
1.1707795275590551
 30
0.0
 10
0.8753385826771654
 20
1.1707795275590551
 30
0.0
 10
0.8753385826771654
 20
1.1707795275590551
 30
0.0
 10
0.8753385826771654
 20
1.1707795275590551
 30
0.0
 10
0.9050314960629922
 20
1.1906929133858268
 30
0.0
 10
0.9050314960629922
 20
1.1906929133858268
 30
0.0
  0
SPLINE
  5
77
100
AcDbEntity
  8
LAYER_1
 62
     9
100
AcDbSpline
210
0.0
220
0.0
230
1.0
 70
     1
 71
     3
 72
    20
 73
    16
 74
     0
 42
0.0000000001
 43
0.0000000001
 40
0.0
 40
0.0
 40
0.0
 40
0.0
 40
0.25
 40
0.25
 40
0.25
 40
0.25
 40
0.5
 40
0.5
 40
0.5
 40
0.5
 40
0.75
 40
0.75
 40
0.75
 40
0.75
 40
1.0
 40
1.0
 40
1.0
 40
1.0
 10
0.8753385826771654
 20
1.1707795275590551
 30
0.0
 10
0.8753385826771654
 20
1.1707795275590551
 30
0.0
 10
1.5357992125984252
 20
0.7900748031496063
 30
0.0
 10
1.5357992125984252
 20
0.7900748031496063
 30
0.0
 10
1.5357992125984252
 20
0.7900748031496063
 30
0.0
 10
1.5357992125984252
 20
0.7900748031496063
 30
0.0
 10
1.5097716535433072
 20
0.7679251968503937
 30
0.0
 10
1.5097716535433072
 20
0.7679251968503937
 30
0.0
 10
1.5097716535433072
 20
0.7679251968503937
 30
0.0
 10
1.5097716535433072
 20
0.7679251968503937
 30
0.0
 10
0.8493110236220473
 20
1.1486299212598425
 30
0.0
 10
0.8493110236220473
 20
1.1486299212598425
 30
0.0
 10
0.8493110236220473
 20
1.1486299212598425
 30
0.0
 10
0.8493110236220473
 20
1.1486299212598425
 30
0.0
 10
0.8753385826771654
 20
1.1707795275590551
 30
0.0
 10
0.8753385826771654
 20
1.1707795275590551
 30
0.0
  0
SPLINE
  5
78
100
AcDbEntity
  8
LAYER_1
 62
     9
100
AcDbSpline
210
0.0
220
0.0
230
1.0
 70
     1
 71
     3
 72
    20
 73
    16
 74
     0
 42
0.0000000001
 43
0.0000000001
 40
0.0
 40
0.0
 40
0.0
 40
0.0
 40
0.25
 40
0.25
 40
0.25
 40
0.25
 40
0.5
 40
0.5
 40
0.5
 40
0.5
 40
0.75
 40
0.75
 40
0.75
 40
0.75
 40
1.0
 40
1.0
 40
1.0
 40
1.0
 10
0.8493110236220473
 20
1.1486299212598425
 30
0.0
 10
0.8493110236220473
 20
1.1486299212598425
 30
0.0
 10
1.5097716535433072
 20
0.7679251968503937
 30
0.0
 10
1.5097716535433072
 20
0.7679251968503937
 30
0.0
 10
1.5097716535433072
 20
0.7679251968503937
 30
0.0
 10
1.5097716535433072
 20
0.7679251968503937
 30
0.0
 10
1.4869330708661417
 20
0.7436535433070867
 30
0.0
 10
1.4869330708661417
 20
0.7436535433070867
 30
0.0
 10
1.4869330708661417
 20
0.7436535433070867
 30
0.0
 10
1.4869330708661417
 20
0.7436535433070867
 30
0.0
 10
0.8264724409448819
 20
1.1243582677165356
 30
0.0
 10
0.8264724409448819
 20
1.1243582677165356
 30
0.0
 10
0.8264724409448819
 20
1.1243582677165356
 30
0.0
 10
0.8264724409448819
 20
1.1243582677165356
 30
0.0
 10
0.8493110236220473
 20
1.1486299212598425
 30
0.0
 10
0.8493110236220473
 20
1.1486299212598425
 30
0.0
  0
SPLINE
  5
79
100
AcDbEntity
  8
LAYER_1
 62
     9
100
AcDbSpline
210
0.0
220
0.0
230
1.0
 70
     1
 71
     3
 72
    20
 73
    16
 74
     0
 42
0.0000000001
 43
0.0000000001
 40
0.0
 40
0.0
 40
0.0
 40
0.0
 40
0.25
 40
0.25
 40
0.25
 40
0.25
 40
0.5
 40
0.5
 40
0.5
 40
0.5
 40
0.75
 40
0.75
 40
0.75
 40
0.75
 40
1.0
 40
1.0
 40
1.0
 40
1.0
 10
0.8264724409448819
 20
1.1243582677165356
 30
0.0
 10
0.8264724409448819
 20
1.1243582677165356
 30
0.0
 10
1.4869330708661417
 20
0.7436535433070867
 30
0.0
 10
1.4869330708661417
 20
0.7436535433070867
 30
0.0
 10
1.4869330708661417
 20
0.7436535433070867
 30
0.0
 10
1.4869330708661417
 20
0.7436535433070867
 30
0.0
 10
1.4668503937007875
 20
0.7174133858267717
 30
0.0
 10
1.4668503937007875
 20
0.7174133858267717
 30
0.0
 10
1.4668503937007875
 20
0.7174133858267717
 30
0.0
 10
1.4668503937007875
 20
0.7174133858267717
 30
0.0
 10
0.8063897637795275
 20
1.0981181102362205
 30
0.0
 10
0.8063897637795275
 20
1.0981181102362205
 30
0.0
 10
0.8063897637795275
 20
1.0981181102362205
 30
0.0
 10
0.8063897637795275
 20
1.0981181102362205
 30
0.0
 10
0.8264724409448819
 20
1.1243582677165356
 30
0.0
 10
0.8264724409448819
 20
1.1243582677165356
 30
0.0
  0
SPLINE
  5
7A
100
AcDbEntity
  8
LAYER_1
 62
     9
100
AcDbSpline
210
0.0
220
0.0
230
1.0
 70
     1
 71
     3
 72
    20
 73
    16
 74
     0
 42
0.0000000001
 43
0.0000000001
 40
0.0
 40
0.0
 40
0.0
 40
0.0
 40
0.25
 40
0.25
 40
0.25
 40
0.25
 40
0.5
 40
0.5
 40
0.5
 40
0.5
 40
0.75
 40
0.75
 40
0.75
 40
0.75
 40
1.0
 40
1.0
 40
1.0
 40
1.0
 10
0.8063897637795275
 20
1.0981181102362205
 30
0.0
 10
0.8063897637795275
 20
1.0981181102362205
 30
0.0
 10
1.4668503937007875
 20
0.7174133858267717
 30
0.0
 10
1.4668503937007875
 20
0.7174133858267717
 30
0.0
 10
1.4668503937007875
 20
0.7174133858267717
 30
0.0
 10
1.4668503937007875
 20
0.7174133858267717
 30
0.0
 10
1.4490472440944882
 20
0.6893267716535433
 30
0.0
 10
1.4490472440944882
 20
0.6893267716535433
 30
0.0
 10
1.4490472440944882
 20
0.6893267716535433
 30
0.0
 10
1.4490472440944882
 20
0.6893267716535433
 30
0.0
 10
0.7885866141732284
 20
1.0700314960629922
 30
0.0
 10
0.7885866141732284
 20
1.0700314960629922
 30
0.0
 10
0.7885866141732284
 20
1.0700314960629922
 30
0.0
 10
0.7885866141732284
 20
1.0700314960629922
 30
0.0
 10
0.8063897637795275
 20
1.0981181102362205
 30
0.0
 10
0.8063897637795275
 20
1.0981181102362205
 30
0.0
  0
SPLINE
  5
7B
100
AcDbEntity
  8
LAYER_1
 62
     9
100
AcDbSpline
210
0.0
220
0.0
230
1.0
 70
     1
 71
     3
 72
    20
 73
    16
 74
     0
 42
0.0000000001
 43
0.0000000001
 40
0.0
 40
0.0
 40
0.0
 40
0.0
 40
0.25
 40
0.25
 40
0.25
 40
0.25
 40
0.5
 40
0.5
 40
0.5
 40
0.5
 40
0.75
 40
0.75
 40
0.75
 40
0.75
 40
1.0
 40
1.0
 40
1.0
 40
1.0
 10
0.7885866141732284
 20
1.0700314960629922
 30
0.0
 10
0.7885866141732284
 20
1.0700314960629922
 30
0.0
 10
1.4490472440944882
 20
0.6893267716535433
 30
0.0
 10
1.4490472440944882
 20
0.6893267716535433
 30
0.0
 10
1.4490472440944882
 20
0.6893267716535433
 30
0.0
 10
1.4490472440944882
 20
0.6893267716535433
 30
0.0
 10
1.4330787401574803
 20
0.6595433070866142
 30
0.0
 10
1.4330787401574803
 20
0.6595433070866142
 30
0.0
 10
1.4330787401574803
 20
0.6595433070866142
 30
0.0
 10
1.4330787401574803
 20
0.6595433070866142
 30
0.0
 10
0.7726181102362205
 20
1.0402480314960629
 30
0.0
 10
0.7726181102362205
 20
1.0402480314960629
 30
0.0
 10
0.7726181102362205
 20
1.0402480314960629
 30
0.0
 10
0.7726181102362205
 20
1.0402480314960629
 30
0.0
 10
0.7885866141732284
 20
1.0700314960629922
 30
0.0
 10
0.7885866141732284
 20
1.0700314960629922
 30
0.0
  0
SPLINE
  5
7C
100
AcDbEntity
  8
LAYER_1
 62
     9
100
AcDbSpline
210
0.0
220
0.0
230
1.0
 70
     1
 71
     3
 72
    20
 73
    16
 74
     0
 42
0.0000000001
 43
0.0000000001
 40
0.0
 40
0.0
 40
0.0
 40
0.0
 40
0.25
 40
0.25
 40
0.25
 40
0.25
 40
0.5
 40
0.5
 40
0.5
 40
0.5
 40
0.75
 40
0.75
 40
0.75
 40
0.75
 40
1.0
 40
1.0
 40
1.0
 40
1.0
 10
0.7726181102362205
 20
1.0402480314960629
 30
0.0
 10
0.7726181102362205
 20
1.0402480314960629
 30
0.0
 10
1.4330787401574803
 20
0.6595433070866142
 30
0.0
 10
1.4330787401574803
 20
0.6595433070866142
 30
0.0
 10
1.4330787401574803
 20
0.6595433070866142
 30
0.0
 10
1.4330787401574803
 20
0.6595433070866142
 30
0.0
 10
1.4184763779527561
 20
0.6281850393700788
 30
0.0
 10
1.4184763779527561
 20
0.6281850393700788
 30
0.0
 10
1.4184763779527561
 20
0.6281850393700788
 30
0.0
 10
1.4184763779527561
 20
0.6281850393700788
 30
0.0
 10
0.7580157480314961
 20
1.0088897637795275
 30
0.0
 10
0.7580157480314961
 20
1.0088897637795275
 30
0.0
 10
0.7580157480314961
 20
1.0088897637795275
 30
0.0
 10
0.7580157480314961
 20
1.0088897637795275
 30
0.0
 10
0.7726181102362205
 20
1.0402480314960629
 30
0.0
 10
0.7726181102362205
 20
1.0402480314960629
 30
0.0
  0
SPLINE
  5
7D
100
AcDbEntity
  8
LAYER_1
 62
     9
100
AcDbSpline
210
0.0
220
0.0
230
1.0
 70
     1
 71
     3
 72
    20
 73
    16
 74
     0
 42
0.0000000001
 43
0.0000000001
 40
0.0
 40
0.0
 40
0.0
 40
0.0
 40
0.25
 40
0.25
 40
0.25
 40
0.25
 40
0.5
 40
0.5
 40
0.5
 40
0.5
 40
0.75
 40
0.75
 40
0.75
 40
0.75
 40
1.0
 40
1.0
 40
1.0
 40
1.0
 10
0.7580157480314961
 20
1.0088897637795275
 30
0.0
 10
0.7580157480314961
 20
1.0088897637795275
 30
0.0
 10
1.4184763779527561
 20
0.6281850393700788
 30
0.0
 10
1.4184763779527561
 20
0.6281850393700788
 30
0.0
 10
1.4184763779527561
 20
0.6281850393700788
 30
0.0
 10
1.4184763779527561
 20
0.6281850393700788
 30
0.0
 10
1.4047913385826771
 20
0.5953976377952757
 30
0.0
 10
1.4047913385826771
 20
0.5953976377952757
 30
0.0
 10
1.4047913385826771
 20
0.5953976377952757
 30
0.0
 10
1.4047913385826771
 20
0.5953976377952757
 30
0.0
 10
0.7443307086614174
 20
0.9761023622047245
 30
0.0
 10
0.7443307086614174
 20
0.9761023622047245
 30
0.0
 10
0.7443307086614174
 20
0.9761023622047245
 30
0.0
 10
0.7443307086614174
 20
0.9761023622047245
 30
0.0
 10
0.7580157480314961
 20
1.0088897637795275
 30
0.0
 10
0.7580157480314961
 20
1.0088897637795275
 30
0.0
  0
SPLINE
  5
7E
100
AcDbEntity
  8
LAYER_1
 62
     9
100
AcDbSpline
210
0.0
220
0.0
230
1.0
 70
     1
 71
     3
 72
    20
 73
    16
 74
     0
 42
0.0000000001
 43
0.0000000001
 40
0.0
 40
0.0
 40
0.0
 40
0.0
 40
0.25
 40
0.25
 40
0.25
 40
0.25
 40
0.5
 40
0.5
 40
0.5
 40
0.5
 40
0.75
 40
0.75
 40
0.75
 40
0.75
 40
1.0
 40
1.0
 40
1.0
 40
1.0
 10
0.7443307086614174
 20
0.9761023622047245
 30
0.0
 10
0.7443307086614174
 20
0.9761023622047245
 30
0.0
 10
1.4047913385826771
 20
0.5953976377952757
 30
0.0
 10
1.4047913385826771
 20
0.5953976377952757
 30
0.0
 10
1.4047913385826771
 20
0.5953976377952757
 30
0.0
 10
1.4047913385826771
 20
0.5953976377952757
 30
0.0
 10
1.3915669291338584
 20
0.5613070866141733
 30
0.0
 10
1.3915669291338584
 20
0.5613070866141733
 30
0.0
 10
1.3915669291338584
 20
0.5613070866141733
 30
0.0
 10
1.3915669291338584
 20
0.5613070866141733
 30
0.0
 10
0.7311062992125984
 20
0.9420118110236221
 30
0.0
 10
0.7311062992125984
 20
0.9420118110236221
 30
0.0
 10
0.7311062992125984
 20
0.9420118110236221
 30
0.0
 10
0.7311062992125984
 20
0.9420118110236221
 30
0.0
 10
0.7443307086614174
 20
0.9761023622047245
 30
0.0
 10
0.7443307086614174
 20
0.9761023622047245
 30
0.0
  0
SPLINE
  5
7F
100
AcDbEntity
  8
LAYER_1
 62
     9
100
AcDbSpline
210
0.0
220
0.0
230
1.0
 70
     1
 71
     3
 72
    20
 73
    16
 74
     0
 42
0.0000000001
 43
0.0000000001
 40
0.0
 40
0.0
 40
0.0
 40
0.0
 40
0.25
 40
0.25
 40
0.25
 40
0.25
 40
0.5
 40
0.5
 40
0.5
 40
0.5
 40
0.75
 40
0.75
 40
0.75
 40
0.75
 40
1.0
 40
1.0
 40
1.0
 40
1.0
 10
0.7311062992125984
 20
0.9420118110236221
 30
0.0
 10
0.7311062992125984
 20
0.9420118110236221
 30
0.0
 10
1.3915669291338584
 20
0.5613070866141733
 30
0.0
 10
1.3915669291338584
 20
0.5613070866141733
 30
0.0
 10
1.3915669291338584
 20
0.5613070866141733
 30
0.0
 10
1.3915669291338584
 20
0.5613070866141733
 30
0.0
 10
1.3783464566929133
 20
0.5260590551181102
 30
0.0
 10
1.3783464566929133
 20
0.5260590551181102
 30
0.0
 10
1.3783464566929133
 20
0.5260590551181102
 30
0.0
 10
1.3783464566929133
 20
0.5260590551181102
 30
0.0
 10
0.7178858267716536
 20
0.906763779527559
 30
0.0
 10
0.7178858267716536
 20
0.906763779527559
 30
0.0
 10
0.7178858267716536
 20
0.906763779527559
 30
0.0
 10
0.7178858267716536
 20
0.906763779527559
 30
0.0
 10
0.7311062992125984
 20
0.9420118110236221
 30
0.0
 10
0.7311062992125984
 20
0.9420118110236221
 30
0.0
  0
SPLINE
  5
80
100
AcDbEntity
  8
LAYER_1
 62
     9
100
AcDbSpline
210
0.0
220
0.0
230
1.0
 70
     1
 71
     3
 72
    20
 73
    16
 74
     0
 42
0.0000000001
 43
0.0000000001
 40
0.0
 40
0.0
 40
0.0
 40
0.0
 40
0.25
 40
0.25
 40
0.25
 40
0.25
 40
0.5
 40
0.5
 40
0.5
 40
0.5
 40
0.75
 40
0.75
 40
0.75
 40
0.75
 40
1.0
 40
1.0
 40
1.0
 40
1.0
 10
0.7178858267716536
 20
0.906763779527559
 30
0.0
 10
0.7178858267716536
 20
0.906763779527559
 30
0.0
 10
1.3783464566929133
 20
0.5260590551181102
 30
0.0
 10
1.3783464566929133
 20
0.5260590551181102
 30
0.0
 10
1.3783464566929133
 20
0.5260590551181102
 30
0.0
 10
1.3783464566929133
 20
0.5260590551181102
 30
0.0
 10
1.3646574803149607
 20
0.4897716535433071
 30
0.0
 10
1.3646574803149607
 20
0.4897716535433071
 30
0.0
 10
1.3646574803149607
 20
0.4897716535433071
 30
0.0
 10
1.3646574803149607
 20
0.4897716535433071
 30
0.0
 10
0.7041968503937008
 20
0.8704763779527559
 30
0.0
 10
0.7041968503937008
 20
0.8704763779527559
 30
0.0
 10
0.7041968503937008
 20
0.8704763779527559
 30
0.0
 10
0.7041968503937008
 20
0.8704763779527559
 30
0.0
 10
0.7178858267716536
 20
0.906763779527559
 30
0.0
 10
0.7178858267716536
 20
0.906763779527559
 30
0.0
  0
SPLINE
  5
81
100
AcDbEntity
  8
LAYER_1
 62
     9
100
AcDbSpline
210
0.0
220
0.0
230
1.0
 70
     1
 71
     3
 72
    20
 73
    16
 74
     0
 42
0.0000000001
 43
0.0000000001
 40
0.0
 40
0.0
 40
0.0
 40
0.0
 40
0.25
 40
0.25
 40
0.25
 40
0.25
 40
0.5
 40
0.5
 40
0.5
 40
0.5
 40
0.75
 40
0.75
 40
0.75
 40
0.75
 40
1.0
 40
1.0
 40
1.0
 40
1.0
 10
0.7041968503937008
 20
0.8704763779527559
 30
0.0
 10
0.7041968503937008
 20
0.8704763779527559
 30
0.0
 10
1.3646574803149607
 20
0.4897716535433071
 30
0.0
 10
1.3646574803149607
 20
0.4897716535433071
 30
0.0
 10
1.3646574803149607
 20
0.4897716535433071
 30
0.0
 10
1.3646574803149607
 20
0.4897716535433071
 30
0.0
 10
1.3500629921259844
 20
0.4525984251968504
 30
0.0
 10
1.3500629921259844
 20
0.4525984251968504
 30
0.0
 10
1.3500629921259844
 20
0.4525984251968504
 30
0.0
 10
1.3500629921259844
 20
0.4525984251968504
 30
0.0
 10
0.6896023622047245
 20
0.8333031496062993
 30
0.0
 10
0.6896023622047245
 20
0.8333031496062993
 30
0.0
 10
0.6896023622047245
 20
0.8333031496062993
 30
0.0
 10
0.6896023622047245
 20
0.8333031496062993
 30
0.0
 10
0.7041968503937008
 20
0.8704763779527559
 30
0.0
 10
0.7041968503937008
 20
0.8704763779527559
 30
0.0
  0
SPLINE
  5
82
100
AcDbEntity
  8
LAYER_1
 62
     9
100
AcDbSpline
210
0.0
220
0.0
230
1.0
 70
     1
 71
     3
 72
    20
 73
    16
 74
     0
 42
0.0000000001
 43
0.0000000001
 40
0.0
 40
0.0
 40
0.0
 40
0.0
 40
0.25
 40
0.25
 40
0.25
 40
0.25
 40
0.5
 40
0.5
 40
0.5
 40
0.5
 40
0.75
 40
0.75
 40
0.75
 40
0.75
 40
1.0
 40
1.0
 40
1.0
 40
1.0
 10
0.6896023622047245
 20
0.8333031496062993
 30
0.0
 10
0.6896023622047245
 20
0.8333031496062993
 30
0.0
 10
1.3500629921259844
 20
0.4525984251968504
 30
0.0
 10
1.3500629921259844
 20
0.4525984251968504
 30
0.0
 10
1.3500629921259844
 20
0.4525984251968504
 30
0.0
 10
1.3500629921259844
 20
0.4525984251968504
 30
0.0
 10
1.3340905511811023
 20
0.4146653543307087
 30
0.0
 10
1.3340905511811023
 20
0.4146653543307087
 30
0.0
 10
1.3340905511811023
 20
0.4146653543307087
 30
0.0
 10
1.3340905511811023
 20
0.4146653543307087
 30
0.0
 10
0.6736299212598426
 20
0.7953700787401575
 30
0.0
 10
0.6736299212598426
 20
0.7953700787401575
 30
0.0
 10
0.6736299212598426
 20
0.7953700787401575
 30
0.0
 10
0.6736299212598426
 20
0.7953700787401575
 30
0.0
 10
0.6896023622047245
 20
0.8333031496062993
 30
0.0
 10
0.6896023622047245
 20
0.8333031496062993
 30
0.0
  0
SPLINE
  5
83
100
AcDbEntity
  8
LAYER_1
 62
     9
100
AcDbSpline
210
0.0
220
0.0
230
1.0
 70
     1
 71
     3
 72
    20
 73
    16
 74
     0
 42
0.0000000001
 43
0.0000000001
 40
0.0
 40
0.0
 40
0.0
 40
0.0
 40
0.25
 40
0.25
 40
0.25
 40
0.25
 40
0.5
 40
0.5
 40
0.5
 40
0.5
 40
0.75
 40
0.75
 40
0.75
 40
0.75
 40
1.0
 40
1.0
 40
1.0
 40
1.0
 10
0.6736299212598426
 20
0.7953700787401575
 30
0.0
 10
0.6736299212598426
 20
0.7953700787401575
 30
0.0
 10
1.3340905511811023
 20
0.4146653543307087
 30
0.0
 10
1.3340905511811023
 20
0.4146653543307087
 30
0.0
 10
1.3340905511811023
 20
0.4146653543307087
 30
0.0
 10
1.3340905511811023
 20
0.4146653543307087
 30
0.0
 10
1.3162992125984252
 20
0.3761181102362205
 30
0.0
 10
1.3162992125984252
 20
0.3761181102362205
 30
0.0
 10
1.3162992125984252
 20
0.3761181102362205
 30
0.0
 10
1.3162992125984252
 20
0.3761181102362205
 30
0.0
 10
0.6558385826771653
 20
0.7568228346456694
 30
0.0
 10
0.6558385826771653
 20
0.7568228346456694
 30
0.0
 10
0.6558385826771653
 20
0.7568228346456694
 30
0.0
 10
0.6558385826771653
 20
0.7568228346456694
 30
0.0
 10
0.6736299212598426
 20
0.7953700787401575
 30
0.0
 10
0.6736299212598426
 20
0.7953700787401575
 30
0.0
  0
SPLINE
  5
84
100
AcDbEntity
  8
LAYER_1
 62
     9
100
AcDbSpline
210
0.0
220
0.0
230
1.0
 70
     1
 71
     3
 72
    20
 73
    16
 74
     0
 42
0.0000000001
 43
0.0000000001
 40
0.0
 40
0.0
 40
0.0
 40
0.0
 40
0.25
 40
0.25
 40
0.25
 40
0.25
 40
0.5
 40
0.5
 40
0.5
 40
0.5
 40
0.75
 40
0.75
 40
0.75
 40
0.75
 40
1.0
 40
1.0
 40
1.0
 40
1.0
 10
0.6558385826771653
 20
0.7568228346456694
 30
0.0
 10
0.6558385826771653
 20
0.7568228346456694
 30
0.0
 10
1.3162992125984252
 20
0.3761181102362205
 30
0.0
 10
1.3162992125984252
 20
0.3761181102362205
 30
0.0
 10
1.3162992125984252
 20
0.3761181102362205
 30
0.0
 10
1.3162992125984252
 20
0.3761181102362205
 30
0.0
 10
1.2962165354330708
 20
0.3370708661417323
 30
0.0
 10
1.2962165354330708
 20
0.3370708661417323
 30
0.0
 10
1.2962165354330708
 20
0.3370708661417323
 30
0.0
 10
1.2962165354330708
 20
0.3370708661417323
 30
0.0
 10
0.6357559055118111
 20
0.7177755905511811
 30
0.0
 10
0.6357559055118111
 20
0.7177755905511811
 30
0.0
 10
0.6357559055118111
 20
0.7177755905511811
 30
0.0
 10
0.6357559055118111
 20
0.7177755905511811
 30
0.0
 10
0.6558385826771653
 20
0.7568228346456694
 30
0.0
 10
0.6558385826771653
 20
0.7568228346456694
 30
0.0
  0
SPLINE
  5
85
100
AcDbEntity
  8
LAYER_1
 62
     9
100
AcDbSpline
210
0.0
220
0.0
230
1.0
 70
     1
 71
     3
 72
    20
 73
    16
 74
     0
 42
0.0000000001
 43
0.0000000001
 40
0.0
 40
0.0
 40
0.0
 40
0.0
 40
0.25
 40
0.25
 40
0.25
 40
0.25
 40
0.5
 40
0.5
 40
0.5
 40
0.5
 40
0.75
 40
0.75
 40
0.75
 40
0.75
 40
1.0
 40
1.0
 40
1.0
 40
1.0
 10
0.6357559055118111
 20
0.7177755905511811
 30
0.0
 10
0.6357559055118111
 20
0.7177755905511811
 30
0.0
 10
1.2962165354330708
 20
0.3370708661417323
 30
0.0
 10
1.2962165354330708
 20
0.3370708661417323
 30
0.0
 10
1.2962165354330708
 20
0.3370708661417323
 30
0.0
 10
1.2962165354330708
 20
0.3370708661417323
 30
0.0
 10
1.2733937007874017
 20
0.2976811023622047
 30
0.0
 10
1.2733937007874017
 20
0.2976811023622047
 30
0.0
 10
1.2733937007874017
 20
0.2976811023622047
 30
0.0
 10
1.2733937007874017
 20
0.2976811023622047
 30
0.0
 10
0.6129330708661418
 20
0.6783858267716536
 30
0.0
 10
0.6129330708661418
 20
0.6783858267716536
 30
0.0
 10
0.6129330708661418
 20
0.6783858267716536
 30
0.0
 10
0.6129330708661418
 20
0.6783858267716536
 30
0.0
 10
0.6357559055118111
 20
0.7177755905511811
 30
0.0
 10
0.6357559055118111
 20
0.7177755905511811
 30
0.0
  0
SPLINE
  5
86
100
AcDbEntity
  8
LAYER_1
 62
     9
100
AcDbSpline
210
0.0
220
0.0
230
1.0
 70
     1
 71
     3
 72
    20
 73
    16
 74
     0
 42
0.0000000001
 43
0.0000000001
 40
0.0
 40
0.0
 40
0.0
 40
0.0
 40
0.25
 40
0.25
 40
0.25
 40
0.25
 40
0.5
 40
0.5
 40
0.5
 40
0.5
 40
0.75
 40
0.75
 40
0.75
 40
0.75
 40
1.0
 40
1.0
 40
1.0
 40
1.0
 10
0.6129330708661418
 20
0.6783858267716536
 30
0.0
 10
0.6129330708661418
 20
0.6783858267716536
 30
0.0
 10
1.2733937007874017
 20
0.2976811023622047
 30
0.0
 10
1.2733937007874017
 20
0.2976811023622047
 30
0.0
 10
1.2733937007874017
 20
0.2976811023622047
 30
0.0
 10
1.2733937007874017
 20
0.2976811023622047
 30
0.0
 10
1.2473661417322834
 20
0.2580708661417323
 30
0.0
 10
1.2473661417322834
 20
0.2580708661417323
 30
0.0
 10
1.2473661417322834
 20
0.2580708661417323
 30
0.0
 10
1.2473661417322834
 20
0.2580708661417323
 30
0.0
 10
0.5869055118110237
 20
0.6387755905511812
 30
0.0
 10
0.5869055118110237
 20
0.6387755905511812
 30
0.0
 10
0.5869055118110237
 20
0.6387755905511812
 30
0.0
 10
0.5869055118110237
 20
0.6387755905511812
 30
0.0
 10
0.6129330708661418
 20
0.6783858267716536
 30
0.0
 10
0.6129330708661418
 20
0.6783858267716536
 30
0.0
  0
SPLINE
  5
87
100
AcDbEntity
  8
LAYER_1
 62
     9
100
AcDbSpline
210
0.0
220
0.0
230
1.0
 70
     1
 71
     3
 72
    20
 73
    16
 74
     0
 42
0.0000000001
 43
0.0000000001
 40
0.0
 40
0.0
 40
0.0
 40
0.0
 40
0.25
 40
0.25
 40
0.25
 40
0.25
 40
0.5
 40
0.5
 40
0.5
 40
0.5
 40
0.75
 40
0.75
 40
0.75
 40
0.75
 40
1.0
 40
1.0
 40
1.0
 40
1.0
 10
0.5869055118110237
 20
0.6387755905511812
 30
0.0
 10
0.5869055118110237
 20
0.6387755905511812
 30
0.0
 10
1.2473661417322834
 20
0.2580708661417323
 30
0.0
 10
1.2473661417322834
 20
0.2580708661417323
 30
0.0
 10
1.2473661417322834
 20
0.2580708661417323
 30
0.0
 10
1.2473661417322834
 20
0.2580708661417323
 30
0.0
 10
1.2176889763779528
 20
0.2183858267716536
 30
0.0
 10
1.2176889763779528
 20
0.2183858267716536
 30
0.0
 10
1.2176889763779528
 20
0.2183858267716536
 30
0.0
 10
1.2176889763779528
 20
0.2183858267716536
 30
0.0
 10
0.557228346456693
 20
0.5990905511811024
 30
0.0
 10
0.557228346456693
 20
0.5990905511811024
 30
0.0
 10
0.557228346456693
 20
0.5990905511811024
 30
0.0
 10
0.557228346456693
 20
0.5990905511811024
 30
0.0
 10
0.5869055118110237
 20
0.6387755905511812
 30
0.0
 10
0.5869055118110237
 20
0.6387755905511812
 30
0.0
  0
SPLINE
  5
88
100
AcDbEntity
  8
LAYER_1
 62
     9
100
AcDbSpline
210
0.0
220
0.0
230
1.0
 70
     1
 71
     3
 72
    20
 73
    16
 74
     0
 42
0.0000000001
 43
0.0000000001
 40
0.0
 40
0.0
 40
0.0
 40
0.0
 40
0.25
 40
0.25
 40
0.25
 40
0.25
 40
0.5
 40
0.5
 40
0.5
 40
0.5
 40
0.75
 40
0.75
 40
0.75
 40
0.75
 40
1.0
 40
1.0
 40
1.0
 40
1.0
 10
0.557228346456693
 20
0.5990905511811024
 30
0.0
 10
0.557228346456693
 20
0.5990905511811024
 30
0.0
 10
1.2176889763779528
 20
0.2183858267716536
 30
0.0
 10
1.2176889763779528
 20
0.2183858267716536
 30
0.0
 10
1.2176889763779528
 20
0.2183858267716536
 30
0.0
 10
1.2176889763779528
 20
0.2183858267716536
 30
0.0
 10
1.1838858267716537
 20
0.178748031496063
 30
0.0
 10
1.1838858267716537
 20
0.178748031496063
 30
0.0
 10
1.1838858267716537
 20
0.178748031496063
 30
0.0
 10
1.1838858267716537
 20
0.178748031496063
 30
0.0
 10
0.5234251968503937
 20
0.5594527559055118
 30
0.0
 10
0.5234251968503937
 20
0.5594527559055118
 30
0.0
 10
0.5234251968503937
 20
0.5594527559055118
 30
0.0
 10
0.5234251968503937
 20
0.5594527559055118
 30
0.0
 10
0.557228346456693
 20
0.5990905511811024
 30
0.0
 10
0.557228346456693
 20
0.5990905511811024
 30
0.0
  0
SPLINE
  5
89
100
AcDbEntity
  8
LAYER_1
 62
     9
100
AcDbSpline
210
0.0
220
0.0
230
1.0
 70
     1
 71
     3
 72
    20
 73
    16
 74
     0
 42
0.0000000001
 43
0.0000000001
 40
0.0
 40
0.0
 40
0.0
 40
0.0
 40
0.25
 40
0.25
 40
0.25
 40
0.25
 40
0.5
 40
0.5
 40
0.5
 40
0.5
 40
0.75
 40
0.75
 40
0.75
 40
0.75
 40
1.0
 40
1.0
 40
1.0
 40
1.0
 10
0.5234251968503937
 20
0.5594527559055118
 30
0.0
 10
0.5234251968503937
 20
0.5594527559055118
 30
0.0
 10
1.1838858267716537
 20
0.178748031496063
 30
0.0
 10
1.1838858267716537
 20
0.178748031496063
 30
0.0
 10
1.1838858267716537
 20
0.178748031496063
 30
0.0
 10
1.1838858267716537
 20
0.178748031496063
 30
0.0
 10
1.1455157480314961
 20
0.1393031496062992
 30
0.0
 10
1.1455157480314961
 20
0.1393031496062992
 30
0.0
 10
1.1455157480314961
 20
0.1393031496062992
 30
0.0
 10
1.1455157480314961
 20
0.1393031496062992
 30
0.0
 10
0.4850551181102362
 20
0.5200078740157481
 30
0.0
 10
0.4850551181102362
 20
0.5200078740157481
 30
0.0
 10
0.4850551181102362
 20
0.5200078740157481
 30
0.0
 10
0.4850551181102362
 20
0.5200078740157481
 30
0.0
 10
0.5234251968503937
 20
0.5594527559055118
 30
0.0
 10
0.5234251968503937
 20
0.5594527559055118
 30
0.0
  0
SPLINE
  5
8A
100
AcDbEntity
  8
LAYER_1
 62
     9
100
AcDbSpline
210
0.0
220
0.0
230
1.0
 70
     1
 71
     3
 72
    20
 73
    16
 74
     0
 42
0.0000000001
 43
0.0000000001
 40
0.0
 40
0.0
 40
0.0
 40
0.0
 40
0.25
 40
0.25
 40
0.25
 40
0.25
 40
0.5
 40
0.5
 40
0.5
 40
0.5
 40
0.75
 40
0.75
 40
0.75
 40
0.75
 40
1.0
 40
1.0
 40
1.0
 40
1.0
 10
0.4850551181102362
 20
0.5200078740157481
 30
0.0
 10
0.4850551181102362
 20
0.5200078740157481
 30
0.0
 10
1.1455157480314961
 20
0.1393031496062992
 30
0.0
 10
1.1455157480314961
 20
0.1393031496062992
 30
0.0
 10
1.1455157480314961
 20
0.1393031496062992
 30
0.0
 10
1.1455157480314961
 20
0.1393031496062992
 30
0.0
 10
1.1021141732283466
 20
0.1001771653543307
 30
0.0
 10
1.1021141732283466
 20
0.1001771653543307
 30
0.0
 10
1.1021141732283466
 20
0.1001771653543307
 30
0.0
 10
1.1021141732283466
 20
0.1001771653543307
 30
0.0
 10
0.4416535433070866
 20
0.4808818897637796
 30
0.0
 10
0.4416535433070866
 20
0.4808818897637796
 30
0.0
 10
0.4416535433070866
 20
0.4808818897637796
 30
0.0
 10
0.4416535433070866
 20
0.4808818897637796
 30
0.0
 10
0.4850551181102362
 20
0.5200078740157481
 30
0.0
 10
0.4850551181102362
 20
0.5200078740157481
 30
0.0
  0
SPLINE
  5
8B
100
AcDbEntity
  8
LAYER_1
 62
     9
100
AcDbSpline
210
0.0
220
0.0
230
1.0
 70
     1
 71
     3
 72
    20
 73
    16
 74
     0
 42
0.0000000001
 43
0.0000000001
 40
0.0
 40
0.0
 40
0.0
 40
0.0
 40
0.25
 40
0.25
 40
0.25
 40
0.25
 40
0.5
 40
0.5
 40
0.5
 40
0.5
 40
0.75
 40
0.75
 40
0.75
 40
0.75
 40
1.0
 40
1.0
 40
1.0
 40
1.0
 10
0.4416535433070866
 20
0.4808818897637796
 30
0.0
 10
0.4416535433070866
 20
0.4808818897637796
 30
0.0
 10
1.1021141732283466
 20
0.1001771653543307
 30
0.0
 10
1.1021141732283466
 20
0.1001771653543307
 30
0.0
 10
1.1021141732283466
 20
0.1001771653543307
 30
0.0
 10
1.1021141732283466
 20
0.1001771653543307
 30
0.0
 10
1.0532322834645669
 20
0.0615196850393701
 30
0.0
 10
1.0532322834645669
 20
0.0615196850393701
 30
0.0
 10
1.0532322834645669
 20
0.0615196850393701
 30
0.0
 10
1.0532322834645669
 20
0.0615196850393701
 30
0.0
 10
0.3927716535433071
 20
0.4422244094488189
 30
0.0
 10
0.3927716535433071
 20
0.4422244094488189
 30
0.0
 10
0.3927716535433071
 20
0.4422244094488189
 30
0.0
 10
0.3927716535433071
 20
0.4422244094488189
 30
0.0
 10
0.4416535433070866
 20
0.4808818897637796
 30
0.0
 10
0.4416535433070866
 20
0.4808818897637796
 30
0.0
  0
SPLINE
  5
8C
100
AcDbEntity
  8
LAYER_1
 62
     9
100
AcDbSpline
210
0.0
220
0.0
230
1.0
 70
     1
 71
     3
 72
    20
 73
    16
 74
     0
 42
0.0000000001
 43
0.0000000001
 40
0.0
 40
0.0
 40
0.0
 40
0.0
 40
0.25
 40
0.25
 40
0.25
 40
0.25
 40
0.5
 40
0.5
 40
0.5
 40
0.5
 40
0.75
 40
0.75
 40
0.75
 40
0.75
 40
1.0
 40
1.0
 40
1.0
 40
1.0
 10
0.3927716535433071
 20
0.4422244094488189
 30
0.0
 10
0.3927716535433071
 20
0.4422244094488189
 30
0.0
 10
1.0532322834645669
 20
0.0615196850393701
 30
0.0
 10
1.0532322834645669
 20
0.0615196850393701
 30
0.0
 10
1.0532322834645669
 20
0.0615196850393701
 30
0.0
 10
1.0532322834645669
 20
0.0615196850393701
 30
0.0
 10
0.9984015748031496
 20
0.0234488188976378
 30
0.0
 10
0.9984015748031496
 20
0.0234488188976378
 30
0.0
 10
0.9984015748031496
 20
0.0234488188976378
 30
0.0
 10
0.9984015748031496
 20
0.0234488188976378
 30
0.0
 10
0.3379409448818898
 20
0.4041535433070866
 30
0.0
 10
0.3379409448818898
 20
0.4041535433070866
 30
0.0
 10
0.3379409448818898
 20
0.4041535433070866
 30
0.0
 10
0.3379409448818898
 20
0.4041535433070866
 30
0.0
 10
0.3927716535433071
 20
0.4422244094488189
 30
0.0
 10
0.3927716535433071
 20
0.4422244094488189
 30
0.0
  0
SPLINE
  5
8D
100
AcDbEntity
  8
LAYER_1
 62
   253
100
AcDbSpline
210
0.0
220
0.0
230
1.0
 70
     1
 71
     3
 72
    20
 73
    16
 74
     0
 42
0.0000000001
 43
0.0000000001
 40
0.0
 40
0.0
 40
0.0
 40
0.0
 40
0.25
 40
0.25
 40
0.25
 40
0.25
 40
0.5
 40
0.5
 40
0.5
 40
0.5
 40
0.75
 40
0.75
 40
0.75
 40
0.75
 40
1.0
 40
1.0
 40
1.0
 40
1.0
 10
0.3379409448818898
 20
0.4041535433070866
 30
0.0
 10
0.3379409448818898
 20
0.4041535433070866
 30
0.0
 10
0.9984015748031496
 20
0.0234488188976378
 30
0.0
 10
0.9984015748031496
 20
0.0234488188976378
 30
0.0
 10
0.9984015748031496
 20
0.0234488188976378
 30
0.0
 10
0.9984015748031496
 20
0.0234488188976378
 30
0.0
 10
0.9371692913385827
 20
-0.0138858267716535
 30
0.0
 10
0.9371692913385827
 20
-0.0138858267716535
 30
0.0
 10
0.9371692913385827
 20
-0.0138858267716535
 30
0.0
 10
0.9371692913385827
 20
-0.0138858267716535
 30
0.0
 10
0.2767086614173229
 20
0.3668188976377953
 30
0.0
 10
0.2767086614173229
 20
0.3668188976377953
 30
0.0
 10
0.2767086614173229
 20
0.3668188976377953
 30
0.0
 10
0.2767086614173229
 20
0.3668188976377953
 30
0.0
 10
0.3379409448818898
 20
0.4041535433070866
 30
0.0
 10
0.3379409448818898
 20
0.4041535433070866
 30
0.0
  0
SPLINE
  5
8E
100
AcDbEntity
  8
LAYER_1
 62
   253
100
AcDbSpline
210
0.0
220
0.0
230
1.0
 70
     1
 71
     3
 72
    20
 73
    16
 74
     0
 42
0.0000000001
 43
0.0000000001
 40
0.0
 40
0.0
 40
0.0
 40
0.0
 40
0.25
 40
0.25
 40
0.25
 40
0.25
 40
0.5
 40
0.5
 40
0.5
 40
0.5
 40
0.75
 40
0.75
 40
0.75
 40
0.75
 40
1.0
 40
1.0
 40
1.0
 40
1.0
 10
0.2767086614173229
 20
0.3668188976377953
 30
0.0
 10
0.2767086614173229
 20
0.3668188976377953
 30
0.0
 10
0.9371692913385827
 20
-0.0138858267716535
 30
0.0
 10
0.9371692913385827
 20
-0.0138858267716535
 30
0.0
 10
0.9371692913385827
 20
-0.0138858267716535
 30
0.0
 10
0.9371692913385827
 20
-0.0138858267716535
 30
0.0
 10
0.8690787401574803
 20
-0.0503543307086614
 30
0.0
 10
0.8690787401574803
 20
-0.0503543307086614
 30
0.0
 10
0.8690787401574803
 20
-0.0503543307086614
 30
0.0
 10
0.8690787401574803
 20
-0.0503543307086614
 30
0.0
 10
0.2086181102362205
 20
0.3303503937007874
 30
0.0
 10
0.2086181102362205
 20
0.3303503937007874
 30
0.0
 10
0.2086181102362205
 20
0.3303503937007874
 30
0.0
 10
0.2086181102362205
 20
0.3303503937007874
 30
0.0
 10
0.2767086614173229
 20
0.3668188976377953
 30
0.0
 10
0.2767086614173229
 20
0.3668188976377953
 30
0.0
  0
SPLINE
  5
8F
100
AcDbEntity
  8
LAYER_1
 62
   253
100
AcDbSpline
210
0.0
220
0.0
230
1.0
 70
     1
 71
     3
 72
    20
 73
    16
 74
     0
 42
0.0000000001
 43
0.0000000001
 40
0.0
 40
0.0
 40
0.0
 40
0.0
 40
0.25
 40
0.25
 40
0.25
 40
0.25
 40
0.5
 40
0.5
 40
0.5
 40
0.5
 40
0.75
 40
0.75
 40
0.75
 40
0.75
 40
1.0
 40
1.0
 40
1.0
 40
1.0
 10
0.2086181102362205
 20
0.3303503937007874
 30
0.0
 10
0.2086181102362205
 20
0.3303503937007874
 30
0.0
 10
0.8690787401574803
 20
-0.0503543307086614
 30
0.0
 10
0.8690787401574803
 20
-0.0503543307086614
 30
0.0
 10
0.8690787401574803
 20
-0.0503543307086614
 30
0.0
 10
0.8690787401574803
 20
-0.0503543307086614
 30
0.0
 10
0.7936811023622048
 20
-0.0858188976377953
 30
0.0
 10
0.7936811023622048
 20
-0.0858188976377953
 30
0.0
 10
0.7936811023622048
 20
-0.0858188976377953
 30
0.0
 10
0.7936811023622048
 20
-0.0858188976377953
 30
0.0
 10
0.1332204724409449
 20
0.2948858267716535
 30
0.0
 10
0.1332204724409449
 20
0.2948858267716535
 30
0.0
 10
0.1332204724409449
 20
0.2948858267716535
 30
0.0
 10
0.1332204724409449
 20
0.2948858267716535
 30
0.0
 10
0.2086181102362205
 20
0.3303503937007874
 30
0.0
 10
0.2086181102362205
 20
0.3303503937007874
 30
0.0
  0
SPLINE
  5
90
100
AcDbEntity
  8
LAYER_1
100
AcDbSpline
210
0.0
220
0.0
230
1.0
 70
     1
 71
     3
 72
   268
 73
   264
 74
     0
 42
0.0000000001
 43
0.0000000001
 40
0.0
 40
0.0
 40
0.0
 40
0.0
 40
0.0151515151515152
 40
0.0151515151515152
 40
0.0151515151515152
 40
0.0151515151515152
 40
0.0303030303030303
 40
0.0303030303030303
 40
0.0303030303030303
 40
0.0303030303030303
 40
0.0454545454545455
 40
0.0454545454545455
 40
0.0454545454545455
 40
0.0454545454545455
 40
0.0606060606060606
 40
0.0606060606060606
 40
0.0606060606060606
 40
0.0606060606060606
 40
0.0757575757575758
 40
0.0757575757575758
 40
0.0757575757575758
 40
0.0757575757575758
 40
0.0909090909090909
 40
0.0909090909090909
 40
0.0909090909090909
 40
0.0909090909090909
 40
0.1060606060606061
 40
0.1060606060606061
 40
0.1060606060606061
 40
0.1060606060606061
 40
0.1212121212121212
 40
0.1212121212121212
 40
0.1212121212121212
 40
0.1212121212121212
 40
0.1363636363636364
 40
0.1363636363636364
 40
0.1363636363636364
 40
0.1363636363636364
 40
0.1515151515151515
 40
0.1515151515151515
 40
0.1515151515151515
 40
0.1515151515151515
 40
0.1666666666666666
 40
0.1666666666666666
 40
0.1666666666666666
 40
0.1666666666666666
 40
0.1818181818181818
 40
0.1818181818181818
 40
0.1818181818181818
 40
0.1818181818181818
 40
0.1969696969696969
 40
0.1969696969696969
 40
0.1969696969696969
 40
0.1969696969696969
 40
0.212121212121212
 40
0.212121212121212
 40
0.212121212121212
 40
0.212121212121212
 40
0.2272727272727272
 40
0.2272727272727272
 40
0.2272727272727272
 40
0.2272727272727272
 40
0.2424242424242423
 40
0.2424242424242423
 40
0.2424242424242423
 40
0.2424242424242423
 40
0.2575757575757575
 40
0.2575757575757575
 40
0.2575757575757575
 40
0.2575757575757575
 40
0.2727272727272726
 40
0.2727272727272726
 40
0.2727272727272726
 40
0.2727272727272726
 40
0.2878787878787877
 40
0.2878787878787877
 40
0.2878787878787877
 40
0.2878787878787877
 40
0.3030303030303029
 40
0.3030303030303029
 40
0.3030303030303029
 40
0.3030303030303029
 40
0.318181818181818
 40
0.318181818181818
 40
0.318181818181818
 40
0.318181818181818
 40
0.3333333333333332
 40
0.3333333333333332
 40
0.3333333333333332
 40
0.3333333333333332
 40
0.3484848484848483
 40
0.3484848484848483
 40
0.3484848484848483
 40
0.3484848484848483
 40
0.3636363636363634
 40
0.3636363636363634
 40
0.3636363636363634
 40
0.3636363636363634
 40
0.3787878787878786
 40
0.3787878787878786
 40
0.3787878787878786
 40
0.3787878787878786
 40
0.3939393939393937
 40
0.3939393939393937
 40
0.3939393939393937
 40
0.3939393939393937
 40
0.4090909090909088
 40
0.4090909090909088
 40
0.4090909090909088
 40
0.4090909090909088
 40
0.424242424242424
 40
0.424242424242424
 40
0.424242424242424
 40
0.424242424242424
 40
0.4393939393939391
 40
0.4393939393939391
 40
0.4393939393939391
 40
0.4393939393939391
 40
0.4545454545454543
 40
0.4545454545454543
 40
0.4545454545454543
 40
0.4545454545454543
 40
0.4696969696969694
 40
0.4696969696969694
 40
0.4696969696969694
 40
0.4696969696969694
 40
0.4848484848484845
 40
0.4848484848484845
 40
0.4848484848484845
 40
0.4848484848484845
 40
0.4999999999999997
 40
0.4999999999999997
 40
0.4999999999999997
 40
0.4999999999999997
 40
0.5151515151515148
 40
0.5151515151515148
 40
0.5151515151515148
 40
0.5151515151515148
 40
0.5303030303030299
 40
0.5303030303030299
 40
0.5303030303030299
 40
0.5303030303030299
 40
0.5454545454545451
 40
0.5454545454545451
 40
0.5454545454545451
 40
0.5454545454545451
 40
0.5606060606060602
 40
0.5606060606060602
 40
0.5606060606060602
 40
0.5606060606060602
 40
0.5757575757575754
 40
0.5757575757575754
 40
0.5757575757575754
 40
0.5757575757575754
 40
0.5909090909090905
 40
0.5909090909090905
 40
0.5909090909090905
 40
0.5909090909090905
 40
0.6060606060606056
 40
0.6060606060606056
 40
0.6060606060606056
 40
0.6060606060606056
 40
0.6212121212121208
 40
0.6212121212121208
 40
0.6212121212121208
 40
0.6212121212121208
 40
0.6363636363636359
 40
0.6363636363636359
 40
0.6363636363636359
 40
0.6363636363636359
 40
0.6515151515151511
 40
0.6515151515151511
 40
0.6515151515151511
 40
0.6515151515151511
 40
0.6666666666666662
 40
0.6666666666666662
 40
0.6666666666666662
 40
0.6666666666666662
 40
0.6818181818181813
 40
0.6818181818181813
 40
0.6818181818181813
 40
0.6818181818181813
 40
0.6969696969696965
 40
0.6969696969696965
 40
0.6969696969696965
 40
0.6969696969696965
 40
0.7121212121212116
 40
0.7121212121212116
 40
0.7121212121212116
 40
0.7121212121212116
 40
0.7272727272727267
 40
0.7272727272727267
 40
0.7272727272727267
 40
0.7272727272727267
 40
0.7424242424242419
 40
0.7424242424242419
 40
0.7424242424242419
 40
0.7424242424242419
 40
0.757575757575757
 40
0.757575757575757
 40
0.757575757575757
 40
0.757575757575757
 40
0.7727272727272722
 40
0.7727272727272722
 40
0.7727272727272722
 40
0.7727272727272722
 40
0.7878787878787873
 40
0.7878787878787873
 40
0.7878787878787873
 40
0.7878787878787873
 40
0.8030303030303024
 40
0.8030303030303024
 40
0.8030303030303024
 40
0.8030303030303024
 40
0.8181818181818176
 40
0.8181818181818176
 40
0.8181818181818176
 40
0.8181818181818176
 40
0.8333333333333327
 40
0.8333333333333327
 40
0.8333333333333327
 40
0.8333333333333327
 40
0.8484848484848478
 40
0.8484848484848478
 40
0.8484848484848478
 40
0.8484848484848478
 40
0.863636363636363
 40
0.863636363636363
 40
0.863636363636363
 40
0.863636363636363
 40
0.8787878787878781
 40
0.8787878787878781
 40
0.8787878787878781
 40
0.8787878787878781
 40
0.8939393939393933
 40
0.8939393939393933
 40
0.8939393939393933
 40
0.8939393939393933
 40
0.9090909090909084
 40
0.9090909090909084
 40
0.9090909090909084
 40
0.9090909090909084
 40
0.9242424242424235
 40
0.9242424242424235
 40
0.9242424242424235
 40
0.9242424242424235
 40
0.9393939393939387
 40
0.9393939393939387
 40
0.9393939393939387
 40
0.9393939393939387
 40
0.9545454545454538
 40
0.9545454545454538
 40
0.9545454545454538
 40
0.9545454545454538
 40
0.969696969696969
 40
0.969696969696969
 40
0.969696969696969
 40
0.969696969696969
 40
0.9848484848484841
 40
0.9848484848484841
 40
0.9848484848484841
 40
0.9848484848484841
 40
1.0
 40
1.0
 40
1.0
 40
1.0
 10
1.1856338582677166
 20
1.2554291338582677
 30
0.0
 10
1.1856338582677166
 20
1.2554291338582677
 30
0.0
 10
1.8460944881889765
 20
0.8747244094488189
 30
0.0
 10
1.8460944881889765
 20
0.8747244094488189
 30
0.0
 10
1.8460944881889765
 20
0.8747244094488189
 30
0.0
 10
1.8460944881889765
 20
0.8747244094488189
 30
0.0
 10
1.7848425196850395
 20
0.8711220472440945
 30
0.0
 10
1.7848425196850395
 20
0.8711220472440945
 30
0.0
 10
1.7848425196850395
 20
0.8711220472440945
 30
0.0
 10
1.7848425196850395
 20
0.8711220472440945
 30
0.0
 10
1.73
 20
0.864472440944882
 30
0.0
 10
1.73
 20
0.864472440944882
 30
0.0
 10
1.73
 20
0.864472440944882
 30
0.0
 10
1.73
 20
0.864472440944882
 30
0.0
 10
1.6810984251968504
 20
0.8548937007874016
 30
0.0
 10
1.6810984251968504
 20
0.8548937007874016
 30
0.0
 10
1.6810984251968504
 20
0.8548937007874016
 30
0.0
 10
1.6810984251968504
 20
0.8548937007874016
 30
0.0
 10
1.6376889763779527
 20
0.8425354330708662
 30
0.0
 10
1.6376889763779527
 20
0.8425354330708662
 30
0.0
 10
1.6376889763779527
 20
0.8425354330708662
 30
0.0
 10
1.6376889763779527
 20
0.8425354330708662
 30
0.0
 10
1.5992992125984253
 20
0.8275157480314961
 30
0.0
 10
1.5992992125984253
 20
0.8275157480314961
 30
0.0
 10
1.5992992125984253
 20
0.8275157480314961
 30
0.0
 10
1.5992992125984253
 20
0.8275157480314961
 30
0.0
 10
1.565492125984252
 20
0.809988188976378
 30
0.0
 10
1.565492125984252
 20
0.809988188976378
 30
0.0
 10
1.565492125984252
 20
0.809988188976378
 30
0.0
 10
1.565492125984252
 20
0.809988188976378
 30
0.0
 10
1.5357992125984252
 20
0.7900748031496063
 30
0.0
 10
1.5357992125984252
 20
0.7900748031496063
 30
0.0
 10
1.5357992125984252
 20
0.7900748031496063
 30
0.0
 10
1.5357992125984252
 20
0.7900748031496063
 30
0.0
 10
1.5097716535433072
 20
0.7679251968503937
 30
0.0
 10
1.5097716535433072
 20
0.7679251968503937
 30
0.0
 10
1.5097716535433072
 20
0.7679251968503937
 30
0.0
 10
1.5097716535433072
 20
0.7679251968503937
 30
0.0
 10
1.4869330708661417
 20
0.7436535433070867
 30
0.0
 10
1.4869330708661417
 20
0.7436535433070867
 30
0.0
 10
1.4869330708661417
 20
0.7436535433070867
 30
0.0
 10
1.4869330708661417
 20
0.7436535433070867
 30
0.0
 10
1.4668503937007875
 20
0.7174133858267717
 30
0.0
 10
1.4668503937007875
 20
0.7174133858267717
 30
0.0
 10
1.4668503937007875
 20
0.7174133858267717
 30
0.0
 10
1.4668503937007875
 20
0.7174133858267717
 30
0.0
 10
1.4490472440944882
 20
0.6893267716535433
 30
0.0
 10
1.4490472440944882
 20
0.6893267716535433
 30
0.0
 10
1.4490472440944882
 20
0.6893267716535433
 30
0.0
 10
1.4490472440944882
 20
0.6893267716535433
 30
0.0
 10
1.4330787401574803
 20
0.6595433070866142
 30
0.0
 10
1.4330787401574803
 20
0.6595433070866142
 30
0.0
 10
1.4330787401574803
 20
0.6595433070866142
 30
0.0
 10
1.4330787401574803
 20
0.6595433070866142
 30
0.0
 10
1.4184763779527561
 20
0.6281850393700788
 30
0.0
 10
1.4184763779527561
 20
0.6281850393700788
 30
0.0
 10
1.4184763779527561
 20
0.6281850393700788
 30
0.0
 10
1.4184763779527561
 20
0.6281850393700788
 30
0.0
 10
1.4047913385826771
 20
0.5953976377952757
 30
0.0
 10
1.4047913385826771
 20
0.5953976377952757
 30
0.0
 10
1.4047913385826771
 20
0.5953976377952757
 30
0.0
 10
1.4047913385826771
 20
0.5953976377952757
 30
0.0
 10
1.3915669291338584
 20
0.5613070866141733
 30
0.0
 10
1.3915669291338584
 20
0.5613070866141733
 30
0.0
 10
1.3915669291338584
 20
0.5613070866141733
 30
0.0
 10
1.3915669291338584
 20
0.5613070866141733
 30
0.0
 10
1.3783464566929133
 20
0.5260590551181102
 30
0.0
 10
1.3783464566929133
 20
0.5260590551181102
 30
0.0
 10
1.3783464566929133
 20
0.5260590551181102
 30
0.0
 10
1.3783464566929133
 20
0.5260590551181102
 30
0.0
 10
1.3646574803149607
 20
0.4897716535433071
 30
0.0
 10
1.3646574803149607
 20
0.4897716535433071
 30
0.0
 10
1.3646574803149607
 20
0.4897716535433071
 30
0.0
 10
1.3646574803149607
 20
0.4897716535433071
 30
0.0
 10
1.3500629921259844
 20
0.4525984251968504
 30
0.0
 10
1.3500629921259844
 20
0.4525984251968504
 30
0.0
 10
1.3500629921259844
 20
0.4525984251968504
 30
0.0
 10
1.3500629921259844
 20
0.4525984251968504
 30
0.0
 10
1.3340905511811023
 20
0.4146653543307087
 30
0.0
 10
1.3340905511811023
 20
0.4146653543307087
 30
0.0
 10
1.3340905511811023
 20
0.4146653543307087
 30
0.0
 10
1.3340905511811023
 20
0.4146653543307087
 30
0.0
 10
1.3162992125984252
 20
0.3761181102362205
 30
0.0
 10
1.3162992125984252
 20
0.3761181102362205
 30
0.0
 10
1.3162992125984252
 20
0.3761181102362205
 30
0.0
 10
1.3162992125984252
 20
0.3761181102362205
 30
0.0
 10
1.2962165354330708
 20
0.3370708661417323
 30
0.0
 10
1.2962165354330708
 20
0.3370708661417323
 30
0.0
 10
1.2962165354330708
 20
0.3370708661417323
 30
0.0
 10
1.2962165354330708
 20
0.3370708661417323
 30
0.0
 10
1.2733937007874017
 20
0.2976811023622047
 30
0.0
 10
1.2733937007874017
 20
0.2976811023622047
 30
0.0
 10
1.2733937007874017
 20
0.2976811023622047
 30
0.0
 10
1.2733937007874017
 20
0.2976811023622047
 30
0.0
 10
1.2473661417322834
 20
0.2580708661417323
 30
0.0
 10
1.2473661417322834
 20
0.2580708661417323
 30
0.0
 10
1.2473661417322834
 20
0.2580708661417323
 30
0.0
 10
1.2473661417322834
 20
0.2580708661417323
 30
0.0
 10
1.2176889763779528
 20
0.2183858267716536
 30
0.0
 10
1.2176889763779528
 20
0.2183858267716536
 30
0.0
 10
1.2176889763779528
 20
0.2183858267716536
 30
0.0
 10
1.2176889763779528
 20
0.2183858267716536
 30
0.0
 10
1.1838858267716537
 20
0.178748031496063
 30
0.0
 10
1.1838858267716537
 20
0.178748031496063
 30
0.0
 10
1.1838858267716537
 20
0.178748031496063
 30
0.0
 10
1.1838858267716537
 20
0.178748031496063
 30
0.0
 10
1.1455157480314961
 20
0.1393031496062992
 30
0.0
 10
1.1455157480314961
 20
0.1393031496062992
 30
0.0
 10
1.1455157480314961
 20
0.1393031496062992
 30
0.0
 10
1.1455157480314961
 20
0.1393031496062992
 30
0.0
 10
1.1021141732283466
 20
0.1001771653543307
 30
0.0
 10
1.1021141732283466
 20
0.1001771653543307
 30
0.0
 10
1.1021141732283466
 20
0.1001771653543307
 30
0.0
 10
1.1021141732283466
 20
0.1001771653543307
 30
0.0
 10
1.0532322834645669
 20
0.0615196850393701
 30
0.0
 10
1.0532322834645669
 20
0.0615196850393701
 30
0.0
 10
1.0532322834645669
 20
0.0615196850393701
 30
0.0
 10
1.0532322834645669
 20
0.0615196850393701
 30
0.0
 10
0.9984015748031496
 20
0.0234488188976378
 30
0.0
 10
0.9984015748031496
 20
0.0234488188976378
 30
0.0
 10
0.9984015748031496
 20
0.0234488188976378
 30
0.0
 10
0.9984015748031496
 20
0.0234488188976378
 30
0.0
 10
0.9371692913385827
 20
-0.0138858267716535
 30
0.0
 10
0.9371692913385827
 20
-0.0138858267716535
 30
0.0
 10
0.9371692913385827
 20
-0.0138858267716535
 30
0.0
 10
0.9371692913385827
 20
-0.0138858267716535
 30
0.0
 10
0.8690787401574803
 20
-0.0503543307086614
 30
0.0
 10
0.8690787401574803
 20
-0.0503543307086614
 30
0.0
 10
0.8690787401574803
 20
-0.0503543307086614
 30
0.0
 10
0.8690787401574803
 20
-0.0503543307086614
 30
0.0
 10
0.7936811023622048
 20
-0.0858188976377953
 30
0.0
 10
0.7936811023622048
 20
-0.0858188976377953
 30
0.0
 10
0.7936811023622048
 20
-0.0858188976377953
 30
0.0
 10
0.7936811023622048
 20
-0.0858188976377953
 30
0.0
 10
0.1332204724409449
 20
0.2948858267716535
 30
0.0
 10
0.1332204724409449
 20
0.2948858267716535
 30
0.0
 10
0.1332204724409449
 20
0.2948858267716535
 30
0.0
 10
0.1332204724409449
 20
0.2948858267716535
 30
0.0
 10
0.2086181102362205
 20
0.3303503937007874
 30
0.0
 10
0.2086181102362205
 20
0.3303503937007874
 30
0.0
 10
0.2086181102362205
 20
0.3303503937007874
 30
0.0
 10
0.2086181102362205
 20
0.3303503937007874
 30
0.0
 10
0.2767086614173229
 20
0.3668188976377953
 30
0.0
 10
0.2767086614173229
 20
0.3668188976377953
 30
0.0
 10
0.2767086614173229
 20
0.3668188976377953
 30
0.0
 10
0.2767086614173229
 20
0.3668188976377953
 30
0.0
 10
0.3379409448818898
 20
0.4041535433070866
 30
0.0
 10
0.3379409448818898
 20
0.4041535433070866
 30
0.0
 10
0.3379409448818898
 20
0.4041535433070866
 30
0.0
 10
0.3379409448818898
 20
0.4041535433070866
 30
0.0
 10
0.3927716535433071
 20
0.4422244094488189
 30
0.0
 10
0.3927716535433071
 20
0.4422244094488189
 30
0.0
 10
0.3927716535433071
 20
0.4422244094488189
 30
0.0
 10
0.3927716535433071
 20
0.4422244094488189
 30
0.0
 10
0.4416535433070866
 20
0.4808818897637796
 30
0.0
 10
0.4416535433070866
 20
0.4808818897637796
 30
0.0
 10
0.4416535433070866
 20
0.4808818897637796
 30
0.0
 10
0.4416535433070866
 20
0.4808818897637796
 30
0.0
 10
0.4850551181102362
 20
0.5200078740157481
 30
0.0
 10
0.4850551181102362
 20
0.5200078740157481
 30
0.0
 10
0.4850551181102362
 20
0.5200078740157481
 30
0.0
 10
0.4850551181102362
 20
0.5200078740157481
 30
0.0
 10
0.5234251968503937
 20
0.5594527559055118
 30
0.0
 10
0.5234251968503937
 20
0.5594527559055118
 30
0.0
 10
0.5234251968503937
 20
0.5594527559055118
 30
0.0
 10
0.5234251968503937
 20
0.5594527559055118
 30
0.0
 10
0.557228346456693
 20
0.5990905511811024
 30
0.0
 10
0.557228346456693
 20
0.5990905511811024
 30
0.0
 10
0.557228346456693
 20
0.5990905511811024
 30
0.0
 10
0.557228346456693
 20
0.5990905511811024
 30
0.0
 10
0.5869055118110237
 20
0.6387755905511812
 30
0.0
 10
0.5869055118110237
 20
0.6387755905511812
 30
0.0
 10
0.5869055118110237
 20
0.6387755905511812
 30
0.0
 10
0.5869055118110237
 20
0.6387755905511812
 30
0.0
 10
0.6129330708661418
 20
0.6783858267716536
 30
0.0
 10
0.6129330708661418
 20
0.6783858267716536
 30
0.0
 10
0.6129330708661418
 20
0.6783858267716536
 30
0.0
 10
0.6129330708661418
 20
0.6783858267716536
 30
0.0
 10
0.6357559055118111
 20
0.7177755905511811
 30
0.0
 10
0.6357559055118111
 20
0.7177755905511811
 30
0.0
 10
0.6357559055118111
 20
0.7177755905511811
 30
0.0
 10
0.6357559055118111
 20
0.7177755905511811
 30
0.0
 10
0.6558385826771653
 20
0.7568228346456694
 30
0.0
 10
0.6558385826771653
 20
0.7568228346456694
 30
0.0
 10
0.6558385826771653
 20
0.7568228346456694
 30
0.0
 10
0.6558385826771653
 20
0.7568228346456694
 30
0.0
 10
0.6736299212598426
 20
0.7953700787401575
 30
0.0
 10
0.6736299212598426
 20
0.7953700787401575
 30
0.0
 10
0.6736299212598426
 20
0.7953700787401575
 30
0.0
 10
0.6736299212598426
 20
0.7953700787401575
 30
0.0
 10
0.6896023622047245
 20
0.8333031496062993
 30
0.0
 10
0.6896023622047245
 20
0.8333031496062993
 30
0.0
 10
0.6896023622047245
 20
0.8333031496062993
 30
0.0
 10
0.6896023622047245
 20
0.8333031496062993
 30
0.0
 10
0.7041968503937008
 20
0.8704763779527559
 30
0.0
 10
0.7041968503937008
 20
0.8704763779527559
 30
0.0
 10
0.7041968503937008
 20
0.8704763779527559
 30
0.0
 10
0.7041968503937008
 20
0.8704763779527559
 30
0.0
 10
0.7178858267716536
 20
0.906763779527559
 30
0.0
 10
0.7178858267716536
 20
0.906763779527559
 30
0.0
 10
0.7178858267716536
 20
0.906763779527559
 30
0.0
 10
0.7178858267716536
 20
0.906763779527559
 30
0.0
 10
0.7311062992125984
 20
0.9420118110236221
 30
0.0
 10
0.7311062992125984
 20
0.9420118110236221
 30
0.0
 10
0.7311062992125984
 20
0.9420118110236221
 30
0.0
 10
0.7311062992125984
 20
0.9420118110236221
 30
0.0
 10
0.7443307086614174
 20
0.9761023622047245
 30
0.0
 10
0.7443307086614174
 20
0.9761023622047245
 30
0.0
 10
0.7443307086614174
 20
0.9761023622047245
 30
0.0
 10
0.7443307086614174
 20
0.9761023622047245
 30
0.0
 10
0.7580157480314961
 20
1.0088897637795275
 30
0.0
 10
0.7580157480314961
 20
1.0088897637795275
 30
0.0
 10
0.7580157480314961
 20
1.0088897637795275
 30
0.0
 10
0.7580157480314961
 20
1.0088897637795275
 30
0.0
 10
0.7726181102362205
 20
1.0402480314960629
 30
0.0
 10
0.7726181102362205
 20
1.0402480314960629
 30
0.0
 10
0.7726181102362205
 20
1.0402480314960629
 30
0.0
 10
0.7726181102362205
 20
1.0402480314960629
 30
0.0
 10
0.7885866141732284
 20
1.0700314960629922
 30
0.0
 10
0.7885866141732284
 20
1.0700314960629922
 30
0.0
 10
0.7885866141732284
 20
1.0700314960629922
 30
0.0
 10
0.7885866141732284
 20
1.0700314960629922
 30
0.0
 10
0.8063897637795275
 20
1.0981181102362205
 30
0.0
 10
0.8063897637795275
 20
1.0981181102362205
 30
0.0
 10
0.8063897637795275
 20
1.0981181102362205
 30
0.0
 10
0.8063897637795275
 20
1.0981181102362205
 30
0.0
 10
0.8264724409448819
 20
1.1243582677165356
 30
0.0
 10
0.8264724409448819
 20
1.1243582677165356
 30
0.0
 10
0.8264724409448819
 20
1.1243582677165356
 30
0.0
 10
0.8264724409448819
 20
1.1243582677165356
 30
0.0
 10
0.8493110236220473
 20
1.1486299212598425
 30
0.0
 10
0.8493110236220473
 20
1.1486299212598425
 30
0.0
 10
0.8493110236220473
 20
1.1486299212598425
 30
0.0
 10
0.8493110236220473
 20
1.1486299212598425
 30
0.0
 10
0.8753385826771654
 20
1.1707795275590551
 30
0.0
 10
0.8753385826771654
 20
1.1707795275590551
 30
0.0
 10
0.8753385826771654
 20
1.1707795275590551
 30
0.0
 10
0.8753385826771654
 20
1.1707795275590551
 30
0.0
 10
0.9050314960629922
 20
1.1906929133858268
 30
0.0
 10
0.9050314960629922
 20
1.1906929133858268
 30
0.0
 10
0.9050314960629922
 20
1.1906929133858268
 30
0.0
 10
0.9050314960629922
 20
1.1906929133858268
 30
0.0
 10
0.9388385826771654
 20
1.2082204724409449
 30
0.0
 10
0.9388385826771654
 20
1.2082204724409449
 30
0.0
 10
0.9388385826771654
 20
1.2082204724409449
 30
0.0
 10
0.9388385826771654
 20
1.2082204724409449
 30
0.0
 10
0.977228346456693
 20
1.2232401574803151
 30
0.0
 10
0.977228346456693
 20
1.2232401574803151
 30
0.0
 10
0.977228346456693
 20
1.2232401574803151
 30
0.0
 10
0.977228346456693
 20
1.2232401574803151
 30
0.0
 10
1.0206377952755905
 20
1.2355984251968504
 30
0.0
 10
1.0206377952755905
 20
1.2355984251968504
 30
0.0
 10
1.0206377952755905
 20
1.2355984251968504
 30
0.0
 10
1.0206377952755905
 20
1.2355984251968504
 30
0.0
 10
1.0695393700787401
 20
1.2451771653543307
 30
0.0
 10
1.0695393700787401
 20
1.2451771653543307
 30
0.0
 10
1.0695393700787401
 20
1.2451771653543307
 30
0.0
 10
1.0695393700787401
 20
1.2451771653543307
 30
0.0
 10
1.1243818897637796
 20
1.2518267716535434
 30
0.0
 10
1.1243818897637796
 20
1.2518267716535434
 30
0.0
 10
1.1243818897637796
 20
1.2518267716535434
 30
0.0
 10
1.1243818897637796
 20
1.2518267716535434
 30
0.0
 10
1.1856338582677166
 20
1.2554291338582677
 30
0.0
 10
1.1856338582677166
 20
1.2554291338582677
 30
0.0
  0
SPLINE
  5
91
100
AcDbEntity
  8
LAYER_1
 62
   253
100
AcDbSpline
210
0.0
220
0.0
230
1.0
 70
     1
 71
     3
 72
    76
 73
    72
 74
     0
 42
0.0000000001
 43
0.0000000001
 40
0.0
 40
0.0
 40
0.0
 40
0.0
 40
0.0555555555555556
 40
0.0555555555555556
 40
0.0555555555555556
 40
0.0555555555555556
 40
0.1111111111111111
 40
0.1111111111111111
 40
0.1111111111111111
 40
0.1111111111111111
 40
0.1666666666666667
 40
0.1666666666666667
 40
0.1666666666666667
 40
0.1666666666666667
 40
0.2222222222222222
 40
0.2222222222222222
 40
0.2222222222222222
 40
0.2222222222222222
 40
0.2777777777777778
 40
0.2777777777777778
 40
0.2777777777777778
 40
0.2777777777777778
 40
0.3333333333333334
 40
0.3333333333333334
 40
0.3333333333333334
 40
0.3333333333333334
 40
0.388888888888889
 40
0.388888888888889
 40
0.388888888888889
 40
0.388888888888889
 40
0.4444444444444445
 40
0.4444444444444445
 40
0.4444444444444445
 40
0.4444444444444445
 40
0.5000000000000001
 40
0.5000000000000001
 40
0.5000000000000001
 40
0.5000000000000001
 40
0.5555555555555557
 40
0.5555555555555557
 40
0.5555555555555557
 40
0.5555555555555557
 40
0.6111111111111113
 40
0.6111111111111113
 40
0.6111111111111113
 40
0.6111111111111113
 40
0.6666666666666669
 40
0.6666666666666669
 40
0.6666666666666669
 40
0.6666666666666669
 40
0.7222222222222224
 40
0.7222222222222224
 40
0.7222222222222224
 40
0.7222222222222224
 40
0.777777777777778
 40
0.777777777777778
 40
0.777777777777778
 40
0.777777777777778
 40
0.8333333333333336
 40
0.8333333333333336
 40
0.8333333333333336
 40
0.8333333333333336
 40
0.8888888888888892
 40
0.8888888888888892
 40
0.8888888888888892
 40
0.8888888888888892
 40
0.9444444444444448
 40
0.9444444444444448
 40
0.9444444444444448
 40
0.9444444444444448
 40
1.0
 40
1.0
 40
1.0
 40
1.0
 10
0.1332204724409449
 20
0.2948858267716535
 30
0.0
 10
0.1332204724409449
 20
0.2948858267716535
 30
0.0
 10
0.7936811023622048
 20
-0.0858188976377953
 30
0.0
 10
0.7936811023622048
 20
-0.0858188976377953
 30
0.0
 10
0.7936811023622048
 20
-0.0858188976377953
 30
0.0
 10
0.7936811023622048
 20
-0.0858188976377953
 30
0.0
 10
0.7948661417322835
 20
-0.091255905511811
 30
0.0
 10
0.7948661417322835
 20
-0.091255905511811
 30
0.0
 10
0.7948661417322835
 20
-0.091255905511811
 30
0.0
 10
0.7948661417322835
 20
-0.091255905511811
 30
0.0
 10
0.7960669291338584
 20
-0.0969409448818898
 30
0.0
 10
0.7960669291338584
 20
-0.0969409448818898
 30
0.0
 10
0.7960669291338584
 20
-0.0969409448818898
 30
0.0
 10
0.7960669291338584
 20
-0.0969409448818898
 30
0.0
 10
0.7972480314960631
 20
-0.1028582677165354
 30
0.0
 10
0.7972480314960631
 20
-0.1028582677165354
 30
0.0
 10
0.7972480314960631
 20
-0.1028582677165354
 30
0.0
 10
0.7972480314960631
 20
-0.1028582677165354
 30
0.0
 10
0.7983818897637796
 20
-0.1089763779527559
 30
0.0
 10
0.7983818897637796
 20
-0.1089763779527559
 30
0.0
 10
0.7983818897637796
 20
-0.1089763779527559
 30
0.0
 10
0.7983818897637796
 20
-0.1089763779527559
 30
0.0
 10
0.7994173228346457
 20
-0.1152795275590551
 30
0.0
 10
0.7994173228346457
 20
-0.1152795275590551
 30
0.0
 10
0.7994173228346457
 20
-0.1152795275590551
 30
0.0
 10
0.7994173228346457
 20
-0.1152795275590551
 30
0.0
 10
0.8003346456692914
 20
-0.1217322834645669
 30
0.0
 10
0.8003346456692914
 20
-0.1217322834645669
 30
0.0
 10
0.8003346456692914
 20
-0.1217322834645669
 30
0.0
 10
0.8003346456692914
 20
-0.1217322834645669
 30
0.0
 10
0.8010944881889764
 20
-0.1283228346456693
 30
0.0
 10
0.8010944881889764
 20
-0.1283228346456693
 30
0.0
 10
0.8010944881889764
 20
-0.1283228346456693
 30
0.0
 10
0.8010944881889764
 20
-0.1283228346456693
 30
0.0
 10
0.8016653543307087
 20
-0.1350118110236221
 30
0.0
 10
0.8016653543307087
 20
-0.1350118110236221
 30
0.0
 10
0.8016653543307087
 20
-0.1350118110236221
 30
0.0
 10
0.8016653543307087
 20
-0.1350118110236221
 30
0.0
 10
0.1412047244094488
 20
0.2456929133858268
 30
0.0
 10
0.1412047244094488
 20
0.2456929133858268
 30
0.0
 10
0.1412047244094488
 20
0.2456929133858268
 30
0.0
 10
0.1412047244094488
 20
0.2456929133858268
 30
0.0
 10
0.1406338582677165
 20
0.2523818897637795
 30
0.0
 10
0.1406338582677165
 20
0.2523818897637795
 30
0.0
 10
0.1406338582677165
 20
0.2523818897637795
 30
0.0
 10
0.1406338582677165
 20
0.2523818897637795
 30
0.0
 10
0.1398740157480315
 20
0.2589724409448819
 30
0.0
 10
0.1398740157480315
 20
0.2589724409448819
 30
0.0
 10
0.1398740157480315
 20
0.2589724409448819
 30
0.0
 10
0.1398740157480315
 20
0.2589724409448819
 30
0.0
 10
0.1389566929133858
 20
0.2654251968503937
 30
0.0
 10
0.1389566929133858
 20
0.2654251968503937
 30
0.0
 10
0.1389566929133858
 20
0.2654251968503937
 30
0.0
 10
0.1389566929133858
 20
0.2654251968503937
 30
0.0
 10
0.1379212598425197
 20
0.2717283464566929
 30
0.0
 10
0.1379212598425197
 20
0.2717283464566929
 30
0.0
 10
0.1379212598425197
 20
0.2717283464566929
 30
0.0
 10
0.1379212598425197
 20
0.2717283464566929
 30
0.0
 10
0.1367874015748032
 20
0.2778464566929134
 30
0.0
 10
0.1367874015748032
 20
0.2778464566929134
 30
0.0
 10
0.1367874015748032
 20
0.2778464566929134
 30
0.0
 10
0.1367874015748032
 20
0.2778464566929134
 30
0.0
 10
0.1356062992125984
 20
0.2837637795275591
 30
0.0
 10
0.1356062992125984
 20
0.2837637795275591
 30
0.0
 10
0.1356062992125984
 20
0.2837637795275591
 30
0.0
 10
0.1356062992125984
 20
0.2837637795275591
 30
0.0
 10
0.1344055118110236
 20
0.2894488188976378
 30
0.0
 10
0.1344055118110236
 20
0.2894488188976378
 30
0.0
 10
0.1344055118110236
 20
0.2894488188976378
 30
0.0
 10
0.1344055118110236
 20
0.2894488188976378
 30
0.0
 10
0.1332204724409449
 20
0.2948858267716535
 30
0.0
 10
0.1332204724409449
 20
0.2948858267716535
 30
0.0
  0
SPLINE
  5
92
100
AcDbEntity
  8
LAYER_1
 62
     9
100
AcDbSpline
210
0.0
220
0.0
230
1.0
 70
     1
 71
     3
 72
    68
 73
    64
 74
     0
 42
0.0000000001
 43
0.0000000001
 40
0.0
 40
0.0
 40
0.0
 40
0.0
 40
0.0625
 40
0.0625
 40
0.0625
 40
0.0625
 40
0.125
 40
0.125
 40
0.125
 40
0.125
 40
0.1875
 40
0.1875
 40
0.1875
 40
0.1875
 40
0.25
 40
0.25
 40
0.25
 40
0.25
 40
0.3125
 40
0.3125
 40
0.3125
 40
0.3125
 40
0.375
 40
0.375
 40
0.375
 40
0.375
 40
0.4375
 40
0.4375
 40
0.4375
 40
0.4375
 40
0.5
 40
0.5
 40
0.5
 40
0.5
 40
0.5625
 40
0.5625
 40
0.5625
 40
0.5625
 40
0.625
 40
0.625
 40
0.625
 40
0.625
 40
0.6875
 40
0.6875
 40
0.6875
 40
0.6875
 40
0.75
 40
0.75
 40
0.75
 40
0.75
 40
0.8125
 40
0.8125
 40
0.8125
 40
0.8125
 40
0.875
 40
0.875
 40
0.875
 40
0.875
 40
0.9375
 40
0.9375
 40
0.9375
 40
0.9375
 40
1.0
 40
1.0
 40
1.0
 40
1.0
 10
0.1412047244094488
 20
0.2456929133858268
 30
0.0
 10
0.1412047244094488
 20
0.2456929133858268
 30
0.0
 10
0.8016653543307087
 20
-0.1350118110236221
 30
0.0
 10
0.8016653543307087
 20
-0.1350118110236221
 30
0.0
 10
0.8016653543307087
 20
-0.1350118110236221
 30
0.0
 10
0.8016653543307087
 20
-0.1350118110236221
 30
0.0
 10
0.8020039370078741
 20
-0.1417952755905512
 30
0.0
 10
0.8020039370078741
 20
-0.1417952755905512
 30
0.0
 10
0.8020039370078741
 20
-0.1417952755905512
 30
0.0
 10
0.8020039370078741
 20
-0.1417952755905512
 30
0.0
 10
0.8020826771653543
 20
-0.1486338582677166
 30
0.0
 10
0.8020826771653543
 20
-0.1486338582677166
 30
0.0
 10
0.8020826771653543
 20
-0.1486338582677166
 30
0.0
 10
0.8020826771653543
 20
-0.1486338582677166
 30
0.0
 10
0.8018661417322835
 20
-0.155507874015748
 30
0.0
 10
0.8018661417322835
 20
-0.155507874015748
 30
0.0
 10
0.8018661417322835
 20
-0.155507874015748
 30
0.0
 10
0.8018661417322835
 20
-0.155507874015748
 30
0.0
 10
0.8013228346456693
 20
-0.1623858267716536
 30
0.0
 10
0.8013228346456693
 20
-0.1623858267716536
 30
0.0
 10
0.8013228346456693
 20
-0.1623858267716536
 30
0.0
 10
0.8013228346456693
 20
-0.1623858267716536
 30
0.0
 10
0.8004055118110237
 20
-0.169259842519685
 30
0.0
 10
0.8004055118110237
 20
-0.169259842519685
 30
0.0
 10
0.8004055118110237
 20
-0.169259842519685
 30
0.0
 10
0.8004055118110237
 20
-0.169259842519685
 30
0.0
 10
0.7990984251968504
 20
-0.1760905511811024
 30
0.0
 10
0.7990984251968504
 20
-0.1760905511811024
 30
0.0
 10
0.7990984251968504
 20
-0.1760905511811024
 30
0.0
 10
0.7990984251968504
 20
-0.1760905511811024
 30
0.0
 10
0.7973543307086615
 20
-0.1828622047244095
 30
0.0
 10
0.7973543307086615
 20
-0.1828622047244095
 30
0.0
 10
0.7973543307086615
 20
-0.1828622047244095
 30
0.0
 10
0.7973543307086615
 20
-0.1828622047244095
 30
0.0
 10
0.1368937007874016
 20
0.1978425196850394
 30
0.0
 10
0.1368937007874016
 20
0.1978425196850394
 30
0.0
 10
0.1368937007874016
 20
0.1978425196850394
 30
0.0
 10
0.1368937007874016
 20
0.1978425196850394
 30
0.0
 10
0.1386377952755906
 20
0.2046141732283465
 30
0.0
 10
0.1386377952755906
 20
0.2046141732283465
 30
0.0
 10
0.1386377952755906
 20
0.2046141732283465
 30
0.0
 10
0.1386377952755906
 20
0.2046141732283465
 30
0.0
 10
0.1399448818897638
 20
0.2114448818897638
 30
0.0
 10
0.1399448818897638
 20
0.2114448818897638
 30
0.0
 10
0.1399448818897638
 20
0.2114448818897638
 30
0.0
 10
0.1399448818897638
 20
0.2114448818897638
 30
0.0
 10
0.1408622047244095
 20
0.2183188976377953
 30
0.0
 10
0.1408622047244095
 20
0.2183188976377953
 30
0.0
 10
0.1408622047244095
 20
0.2183188976377953
 30
0.0
 10
0.1408622047244095
 20
0.2183188976377953
 30
0.0
 10
0.1414055118110236
 20
0.2251968503937008
 30
0.0
 10
0.1414055118110236
 20
0.2251968503937008
 30
0.0
 10
0.1414055118110236
 20
0.2251968503937008
 30
0.0
 10
0.1414055118110236
 20
0.2251968503937008
 30
0.0
 10
0.1416220472440945
 20
0.2320708661417323
 30
0.0
 10
0.1416220472440945
 20
0.2320708661417323
 30
0.0
 10
0.1416220472440945
 20
0.2320708661417323
 30
0.0
 10
0.1416220472440945
 20
0.2320708661417323
 30
0.0
 10
0.1415433070866142
 20
0.2389094488188976
 30
0.0
 10
0.1415433070866142
 20
0.2389094488188976
 30
0.0
 10
0.1415433070866142
 20
0.2389094488188976
 30
0.0
 10
0.1415433070866142
 20
0.2389094488188976
 30
0.0
 10
0.1412047244094488
 20
0.2456929133858268
 30
0.0
 10
0.1412047244094488
 20
0.2456929133858268
 30
0.0
  0
SPLINE
  5
93
100
AcDbEntity
  8
LAYER_1
 62
     9
100
AcDbSpline
210
0.0
220
0.0
230
1.0
 70
     1
 71
     3
 72
    60
 73
    56
 74
     0
 42
0.0000000001
 43
0.0000000001
 40
0.0
 40
0.0
 40
0.0
 40
0.0
 40
0.0714285714285714
 40
0.0714285714285714
 40
0.0714285714285714
 40
0.0714285714285714
 40
0.1428571428571429
 40
0.1428571428571429
 40
0.1428571428571429
 40
0.1428571428571429
 40
0.2142857142857143
 40
0.2142857142857143
 40
0.2142857142857143
 40
0.2142857142857143
 40
0.2857142857142857
 40
0.2857142857142857
 40
0.2857142857142857
 40
0.2857142857142857
 40
0.3571428571428571
 40
0.3571428571428571
 40
0.3571428571428571
 40
0.3571428571428571
 40
0.4285714285714285
 40
0.4285714285714285
 40
0.4285714285714285
 40
0.4285714285714285
 40
0.4999999999999999
 40
0.4999999999999999
 40
0.4999999999999999
 40
0.4999999999999999
 40
0.5714285714285713
 40
0.5714285714285713
 40
0.5714285714285713
 40
0.5714285714285713
 40
0.6428571428571427
 40
0.6428571428571427
 40
0.6428571428571427
 40
0.6428571428571427
 40
0.7142857142857141
 40
0.7142857142857141
 40
0.7142857142857141
 40
0.7142857142857141
 40
0.7857142857142855
 40
0.7857142857142855
 40
0.7857142857142855
 40
0.7857142857142855
 40
0.8571428571428569
 40
0.8571428571428569
 40
0.8571428571428569
 40
0.8571428571428569
 40
0.9285714285714283
 40
0.9285714285714283
 40
0.9285714285714283
 40
0.9285714285714283
 40
1.0
 40
1.0
 40
1.0
 40
1.0
 10
0.1368937007874016
 20
0.1978425196850394
 30
0.0
 10
0.1368937007874016
 20
0.1978425196850394
 30
0.0
 10
0.7973543307086615
 20
-0.1828622047244095
 30
0.0
 10
0.7973543307086615
 20
-0.1828622047244095
 30
0.0
 10
0.7973543307086615
 20
-0.1828622047244095
 30
0.0
 10
0.7973543307086615
 20
-0.1828622047244095
 30
0.0
 10
0.7951456692913386
 20
-0.1895393700787402
 30
0.0
 10
0.7951456692913386
 20
-0.1895393700787402
 30
0.0
 10
0.7951456692913386
 20
-0.1895393700787402
 30
0.0
 10
0.7951456692913386
 20
-0.1895393700787402
 30
0.0
 10
0.7924251968503937
 20
-0.1961220472440945
 30
0.0
 10
0.7924251968503937
 20
-0.1961220472440945
 30
0.0
 10
0.7924251968503937
 20
-0.1961220472440945
 30
0.0
 10
0.7924251968503937
 20
-0.1961220472440945
 30
0.0
 10
0.7891732283464568
 20
-0.2025590551181102
 30
0.0
 10
0.7891732283464568
 20
-0.2025590551181102
 30
0.0
 10
0.7891732283464568
 20
-0.2025590551181102
 30
0.0
 10
0.7891732283464568
 20
-0.2025590551181102
 30
0.0
 10
0.7853464566929134
 20
-0.2088425196850394
 30
0.0
 10
0.7853464566929134
 20
-0.2088425196850394
 30
0.0
 10
0.7853464566929134
 20
-0.2088425196850394
 30
0.0
 10
0.7853464566929134
 20
-0.2088425196850394
 30
0.0
 10
0.7809212598425197
 20
-0.2149370078740158
 30
0.0
 10
0.7809212598425197
 20
-0.2149370078740158
 30
0.0
 10
0.7809212598425197
 20
-0.2149370078740158
 30
0.0
 10
0.7809212598425197
 20
-0.2149370078740158
 30
0.0
 10
0.7758464566929134
 20
-0.2208346456692913
 30
0.0
 10
0.7758464566929134
 20
-0.2208346456692913
 30
0.0
 10
0.7758464566929134
 20
-0.2208346456692913
 30
0.0
 10
0.7758464566929134
 20
-0.2208346456692913
 30
0.0
 10
0.1153858267716535
 20
0.1598700787401575
 30
0.0
 10
0.1153858267716535
 20
0.1598700787401575
 30
0.0
 10
0.1153858267716535
 20
0.1598700787401575
 30
0.0
 10
0.1153858267716535
 20
0.1598700787401575
 30
0.0
 10
0.1204606299212599
 20
0.1657677165354331
 30
0.0
 10
0.1204606299212599
 20
0.1657677165354331
 30
0.0
 10
0.1204606299212599
 20
0.1657677165354331
 30
0.0
 10
0.1204606299212599
 20
0.1657677165354331
 30
0.0
 10
0.1248858267716536
 20
0.1718622047244095
 30
0.0
 10
0.1248858267716536
 20
0.1718622047244095
 30
0.0
 10
0.1248858267716536
 20
0.1718622047244095
 30
0.0
 10
0.1248858267716536
 20
0.1718622047244095
 30
0.0
 10
0.1287125984251969
 20
0.1781456692913386
 30
0.0
 10
0.1287125984251969
 20
0.1781456692913386
 30
0.0
 10
0.1287125984251969
 20
0.1781456692913386
 30
0.0
 10
0.1287125984251969
 20
0.1781456692913386
 30
0.0
 10
0.1319645669291339
 20
0.1845826771653543
 30
0.0
 10
0.1319645669291339
 20
0.1845826771653543
 30
0.0
 10
0.1319645669291339
 20
0.1845826771653543
 30
0.0
 10
0.1319645669291339
 20
0.1845826771653543
 30
0.0
 10
0.1346850393700788
 20
0.1911653543307087
 30
0.0
 10
0.1346850393700788
 20
0.1911653543307087
 30
0.0
 10
0.1346850393700788
 20
0.1911653543307087
 30
0.0
 10
0.1346850393700788
 20
0.1911653543307087
 30
0.0
 10
0.1368937007874016
 20
0.1978425196850394
 30
0.0
 10
0.1368937007874016
 20
0.1978425196850394
 30
0.0
  0
SPLINE
  5
94
100
AcDbEntity
  8
LAYER_1
 62
     9
100
AcDbSpline
210
0.0
220
0.0
230
1.0
 70
     1
 71
     3
 72
    52
 73
    48
 74
     0
 42
0.0000000001
 43
0.0000000001
 40
0.0
 40
0.0
 40
0.0
 40
0.0
 40
0.0833333333333333
 40
0.0833333333333333
 40
0.0833333333333333
 40
0.0833333333333333
 40
0.1666666666666667
 40
0.1666666666666667
 40
0.1666666666666667
 40
0.1666666666666667
 40
0.25
 40
0.25
 40
0.25
 40
0.25
 40
0.3333333333333333
 40
0.3333333333333333
 40
0.3333333333333333
 40
0.3333333333333333
 40
0.4166666666666666
 40
0.4166666666666666
 40
0.4166666666666666
 40
0.4166666666666666
 40
0.4999999999999999
 40
0.4999999999999999
 40
0.4999999999999999
 40
0.4999999999999999
 40
0.5833333333333333
 40
0.5833333333333333
 40
0.5833333333333333
 40
0.5833333333333333
 40
0.6666666666666666
 40
0.6666666666666666
 40
0.6666666666666666
 40
0.6666666666666666
 40
0.75
 40
0.75
 40
0.75
 40
0.75
 40
0.8333333333333334
 40
0.8333333333333334
 40
0.8333333333333334
 40
0.8333333333333334
 40
0.9166666666666667
 40
0.9166666666666667
 40
0.9166666666666667
 40
0.9166666666666667
 40
1.0
 40
1.0
 40
1.0
 40
1.0
 10
0.1153858267716535
 20
0.1598700787401575
 30
0.0
 10
0.1153858267716535
 20
0.1598700787401575
 30
0.0
 10
0.7758464566929134
 20
-0.2208346456692913
 30
0.0
 10
0.7758464566929134
 20
-0.2208346456692913
 30
0.0
 10
0.7758464566929134
 20
-0.2208346456692913
 30
0.0
 10
0.7758464566929134
 20
-0.2208346456692913
 30
0.0
 10
0.7701023622047244
 20
-0.226492125984252
 30
0.0
 10
0.7701023622047244
 20
-0.226492125984252
 30
0.0
 10
0.7701023622047244
 20
-0.226492125984252
 30
0.0
 10
0.7701023622047244
 20
-0.226492125984252
 30
0.0
 10
0.7636456692913386
 20
-0.2318976377952756
 30
0.0
 10
0.7636456692913386
 20
-0.2318976377952756
 30
0.0
 10
0.7636456692913386
 20
-0.2318976377952756
 30
0.0
 10
0.7636456692913386
 20
-0.2318976377952756
 30
0.0
 10
0.7564488188976378
 20
-0.2370196850393701
 30
0.0
 10
0.7564488188976378
 20
-0.2370196850393701
 30
0.0
 10
0.7564488188976378
 20
-0.2370196850393701
 30
0.0
 10
0.7564488188976378
 20
-0.2370196850393701
 30
0.0
 10
0.7484645669291339
 20
-0.2418464566929134
 30
0.0
 10
0.7484645669291339
 20
-0.2418464566929134
 30
0.0
 10
0.7484645669291339
 20
-0.2418464566929134
 30
0.0
 10
0.7484645669291339
 20
-0.2418464566929134
 30
0.0
 10
0.7396732283464568
 20
-0.2463385826771654
 30
0.0
 10
0.7396732283464568
 20
-0.2463385826771654
 30
0.0
 10
0.7396732283464568
 20
-0.2463385826771654
 30
0.0
 10
0.7396732283464568
 20
-0.2463385826771654
 30
0.0
 10
0.0792125984251969
 20
0.1343661417322835
 30
0.0
 10
0.0792125984251969
 20
0.1343661417322835
 30
0.0
 10
0.0792125984251969
 20
0.1343661417322835
 30
0.0
 10
0.0792125984251969
 20
0.1343661417322835
 30
0.0
 10
0.088003937007874
 20
0.1388582677165355
 30
0.0
 10
0.088003937007874
 20
0.1388582677165355
 30
0.0
 10
0.088003937007874
 20
0.1388582677165355
 30
0.0
 10
0.088003937007874
 20
0.1388582677165355
 30
0.0
 10
0.095988188976378
 20
0.1436850393700787
 30
0.0
 10
0.095988188976378
 20
0.1436850393700787
 30
0.0
 10
0.095988188976378
 20
0.1436850393700787
 30
0.0
 10
0.095988188976378
 20
0.1436850393700787
 30
0.0
 10
0.1031850393700787
 20
0.1488070866141733
 30
0.0
 10
0.1031850393700787
 20
0.1488070866141733
 30
0.0
 10
0.1031850393700787
 20
0.1488070866141733
 30
0.0
 10
0.1031850393700787
 20
0.1488070866141733
 30
0.0
 10
0.1096417322834646
 20
0.1542125984251969
 30
0.0
 10
0.1096417322834646
 20
0.1542125984251969
 30
0.0
 10
0.1096417322834646
 20
0.1542125984251969
 30
0.0
 10
0.1096417322834646
 20
0.1542125984251969
 30
0.0
 10
0.1153858267716535
 20
0.1598700787401575
 30
0.0
 10
0.1153858267716535
 20
0.1598700787401575
 30
0.0
  0
SPLINE
  5
95
100
AcDbEntity
  8
LAYER_1
 62
   253
100
AcDbSpline
210
0.0
220
0.0
230
1.0
 70
     1
 71
     3
 72
    44
 73
    40
 74
     0
 42
0.0000000001
 43
0.0000000001
 40
0.0
 40
0.0
 40
0.0
 40
0.0
 40
0.1
 40
0.1
 40
0.1
 40
0.1
 40
0.2
 40
0.2
 40
0.2
 40
0.2
 40
0.3
 40
0.3
 40
0.3
 40
0.3
 40
0.4
 40
0.4
 40
0.4
 40
0.4
 40
0.5
 40
0.5
 40
0.5
 40
0.5
 40
0.6
 40
0.6
 40
0.6
 40
0.6
 40
0.7
 40
0.7
 40
0.7
 40
0.7
 40
0.7999999999999999
 40
0.7999999999999999
 40
0.7999999999999999
 40
0.7999999999999999
 40
0.8999999999999999
 40
0.8999999999999999
 40
0.8999999999999999
 40
0.8999999999999999
 40
1.0
 40
1.0
 40
1.0
 40
1.0
 10
0.0792125984251969
 20
0.1343661417322835
 30
0.0
 10
0.0792125984251969
 20
0.1343661417322835
 30
0.0
 10
0.7396732283464568
 20
-0.2463385826771654
 30
0.0
 10
0.7396732283464568
 20
-0.2463385826771654
 30
0.0
 10
0.7396732283464568
 20
-0.2463385826771654
 30
0.0
 10
0.7396732283464568
 20
-0.2463385826771654
 30
0.0
 10
0.7300314960629921
 20
-0.25048031496063
 30
0.0
 10
0.7300314960629921
 20
-0.25048031496063
 30
0.0
 10
0.7300314960629921
 20
-0.25048031496063
 30
0.0
 10
0.7300314960629921
 20
-0.25048031496063
 30
0.0
 10
0.7195118110236221
 20
-0.254240157480315
 30
0.0
 10
0.7195118110236221
 20
-0.254240157480315
 30
0.0
 10
0.7195118110236221
 20
-0.254240157480315
 30
0.0
 10
0.7195118110236221
 20
-0.254240157480315
 30
0.0
 10
0.7080708661417323
 20
-0.2576062992125984
 30
0.0
 10
0.7080708661417323
 20
-0.2576062992125984
 30
0.0
 10
0.7080708661417323
 20
-0.2576062992125984
 30
0.0
 10
0.7080708661417323
 20
-0.2576062992125984
 30
0.0
 10
0.6956850393700788
 20
-0.2605433070866142
 30
0.0
 10
0.6956850393700788
 20
-0.2605433070866142
 30
0.0
 10
0.6956850393700788
 20
-0.2605433070866142
 30
0.0
 10
0.6956850393700788
 20
-0.2605433070866142
 30
0.0
 10
0.0352244094488189
 20
0.1201614173228347
 30
0.0
 10
0.0352244094488189
 20
0.1201614173228347
 30
0.0
 10
0.0352244094488189
 20
0.1201614173228347
 30
0.0
 10
0.0352244094488189
 20
0.1201614173228347
 30
0.0
 10
0.0476102362204724
 20
0.1230984251968504
 30
0.0
 10
0.0476102362204724
 20
0.1230984251968504
 30
0.0
 10
0.0476102362204724
 20
0.1230984251968504
 30
0.0
 10
0.0476102362204724
 20
0.1230984251968504
 30
0.0
 10
0.0590511811023622
 20
0.1264645669291339
 30
0.0
 10
0.0590511811023622
 20
0.1264645669291339
 30
0.0
 10
0.0590511811023622
 20
0.1264645669291339
 30
0.0
 10
0.0590511811023622
 20
0.1264645669291339
 30
0.0
 10
0.0695708661417323
 20
0.1302244094488189
 30
0.0
 10
0.0695708661417323
 20
0.1302244094488189
 30
0.0
 10
0.0695708661417323
 20
0.1302244094488189
 30
0.0
 10
0.0695708661417323
 20
0.1302244094488189
 30
0.0
 10
0.0792125984251969
 20
0.1343661417322835
 30
0.0
 10
0.0792125984251969
 20
0.1343661417322835
 30
0.0
  0
SPLINE
  5
96
100
AcDbEntity
  8
LAYER_1
 62
   253
100
AcDbSpline
210
0.0
220
0.0
230
1.0
 70
     1
 71
     3
 72
    36
 73
    32
 74
     0
 42
0.0000000001
 43
0.0000000001
 40
0.0
 40
0.0
 40
0.0
 40
0.0
 40
0.125
 40
0.125
 40
0.125
 40
0.125
 40
0.25
 40
0.25
 40
0.25
 40
0.25
 40
0.375
 40
0.375
 40
0.375
 40
0.375
 40
0.5
 40
0.5
 40
0.5
 40
0.5
 40
0.625
 40
0.625
 40
0.625
 40
0.625
 40
0.75
 40
0.75
 40
0.75
 40
0.75
 40
0.875
 40
0.875
 40
0.875
 40
0.875
 40
1.0
 40
1.0
 40
1.0
 40
1.0
 10
0.0352244094488189
 20
0.1201614173228347
 30
0.0
 10
0.0352244094488189
 20
0.1201614173228347
 30
0.0
 10
0.6956850393700788
 20
-0.2605433070866142
 30
0.0
 10
0.6956850393700788
 20
-0.2605433070866142
 30
0.0
 10
0.6956850393700788
 20
-0.2605433070866142
 30
0.0
 10
0.6956850393700788
 20
-0.2605433070866142
 30
0.0
 10
0.6823110236220473
 20
-0.2630314960629921
 30
0.0
 10
0.6823110236220473
 20
-0.2630314960629921
 30
0.0
 10
0.6823110236220473
 20
-0.2630314960629921
 30
0.0
 10
0.6823110236220473
 20
-0.2630314960629921
 30
0.0
 10
0.6679173228346457
 20
-0.2650472440944882
 30
0.0
 10
0.6679173228346457
 20
-0.2650472440944882
 30
0.0
 10
0.6679173228346457
 20
-0.2650472440944882
 30
0.0
 10
0.6679173228346457
 20
-0.2650472440944882
 30
0.0
 10
0.6529921259842521
 20
-0.2669370078740158
 30
0.0
 10
0.6529921259842521
 20
-0.2669370078740158
 30
0.0
 10
0.6529921259842521
 20
-0.2669370078740158
 30
0.0
 10
0.6529921259842521
 20
-0.2669370078740158
 30
0.0
 10
-0.0074685039370079
 20
0.1137677165354331
 30
0.0
 10
-0.0074685039370079
 20
0.1137677165354331
 30
0.0
 10
-0.0074685039370079
 20
0.1137677165354331
 30
0.0
 10
-0.0074685039370079
 20
0.1137677165354331
 30
0.0
 10
0.0074566929133858
 20
0.1156574803149606
 30
0.0
 10
0.0074566929133858
 20
0.1156574803149606
 30
0.0
 10
0.0074566929133858
 20
0.1156574803149606
 30
0.0
 10
0.0074566929133858
 20
0.1156574803149606
 30
0.0
 10
0.0218503937007874
 20
0.1176732283464567
 30
0.0
 10
0.0218503937007874
 20
0.1176732283464567
 30
0.0
 10
0.0218503937007874
 20
0.1176732283464567
 30
0.0
 10
0.0218503937007874
 20
0.1176732283464567
 30
0.0
 10
0.0352244094488189
 20
0.1201614173228347
 30
0.0
 10
0.0352244094488189
 20
0.1201614173228347
 30
0.0
  0
SPLINE
  5
97
100
AcDbEntity
  8
LAYER_1
 62
   253
100
AcDbSpline
210
0.0
220
0.0
230
1.0
 70
     1
 71
     3
 72
    36
 73
    32
 74
     0
 42
0.0000000001
 43
0.0000000001
 40
0.0
 40
0.0
 40
0.0
 40
0.0
 40
0.125
 40
0.125
 40
0.125
 40
0.125
 40
0.25
 40
0.25
 40
0.25
 40
0.25
 40
0.375
 40
0.375
 40
0.375
 40
0.375
 40
0.5
 40
0.5
 40
0.5
 40
0.5
 40
0.625
 40
0.625
 40
0.625
 40
0.625
 40
0.75
 40
0.75
 40
0.75
 40
0.75
 40
0.875
 40
0.875
 40
0.875
 40
0.875
 40
1.0
 40
1.0
 40
1.0
 40
1.0
 10
-0.0074685039370079
 20
0.1137677165354331
 30
0.0
 10
-0.0074685039370079
 20
0.1137677165354331
 30
0.0
 10
0.6529921259842521
 20
-0.2669370078740158
 30
0.0
 10
0.6529921259842521
 20
-0.2669370078740158
 30
0.0
 10
0.6529921259842521
 20
-0.2669370078740158
 30
0.0
 10
0.6529921259842521
 20
-0.2669370078740158
 30
0.0
 10
0.6380590551181102
 20
-0.2690826771653543
 30
0.0
 10
0.6380590551181102
 20
-0.2690826771653543
 30
0.0
 10
0.6380590551181102
 20
-0.2690826771653543
 30
0.0
 10
0.6380590551181102
 20
-0.2690826771653543
 30
0.0
 10
0.6231535433070866
 20
-0.2715354330708661
 30
0.0
 10
0.6231535433070866
 20
-0.2715354330708661
 30
0.0
 10
0.6231535433070866
 20
-0.2715354330708661
 30
0.0
 10
0.6231535433070866
 20
-0.2715354330708661
 30
0.0
 10
0.6082952755905512
 20
-0.2743307086614173
 30
0.0
 10
0.6082952755905512
 20
-0.2743307086614173
 30
0.0
 10
0.6082952755905512
 20
-0.2743307086614173
 30
0.0
 10
0.6082952755905512
 20
-0.2743307086614173
 30
0.0
 10
-0.0521653543307087
 20
0.1063740157480315
 30
0.0
 10
-0.0521653543307087
 20
0.1063740157480315
 30
0.0
 10
-0.0521653543307087
 20
0.1063740157480315
 30
0.0
 10
-0.0521653543307087
 20
0.1063740157480315
 30
0.0
 10
-0.0373070866141732
 20
0.1091692913385827
 30
0.0
 10
-0.0373070866141732
 20
0.1091692913385827
 30
0.0
 10
-0.0373070866141732
 20
0.1091692913385827
 30
0.0
 10
-0.0373070866141732
 20
0.1091692913385827
 30
0.0
 10
-0.0224015748031496
 20
0.1116220472440945
 30
0.0
 10
-0.0224015748031496
 20
0.1116220472440945
 30
0.0
 10
-0.0224015748031496
 20
0.1116220472440945
 30
0.0
 10
-0.0224015748031496
 20
0.1116220472440945
 30
0.0
 10
-0.0074685039370079
 20
0.1137677165354331
 30
0.0
 10
-0.0074685039370079
 20
0.1137677165354331
 30
0.0
  0
SPLINE
  5
98
100
AcDbEntity
  8
LAYER_1
 62
   253
100
AcDbSpline
210
0.0
220
0.0
230
1.0
 70
     1
 71
     3
 72
    36
 73
    32
 74
     0
 42
0.0000000001
 43
0.0000000001
 40
0.0
 40
0.0
 40
0.0
 40
0.0
 40
0.125
 40
0.125
 40
0.125
 40
0.125
 40
0.25
 40
0.25
 40
0.25
 40
0.25
 40
0.375
 40
0.375
 40
0.375
 40
0.375
 40
0.5
 40
0.5
 40
0.5
 40
0.5
 40
0.625
 40
0.625
 40
0.625
 40
0.625
 40
0.75
 40
0.75
 40
0.75
 40
0.75
 40
0.875
 40
0.875
 40
0.875
 40
0.875
 40
1.0
 40
1.0
 40
1.0
 40
1.0
 10
-0.0521653543307087
 20
0.1063740157480315
 30
0.0
 10
-0.0521653543307087
 20
0.1063740157480315
 30
0.0
 10
0.6082952755905512
 20
-0.2743307086614173
 30
0.0
 10
0.6082952755905512
 20
-0.2743307086614173
 30
0.0
 10
0.6082952755905512
 20
-0.2743307086614173
 30
0.0
 10
0.6082952755905512
 20
-0.2743307086614173
 30
0.0
 10
0.5935314960629922
 20
-0.2775275590551181
 30
0.0
 10
0.5935314960629922
 20
-0.2775275590551181
 30
0.0
 10
0.5935314960629922
 20
-0.2775275590551181
 30
0.0
 10
0.5935314960629922
 20
-0.2775275590551181
 30
0.0
 10
0.5788779527559055
 20
-0.2811653543307087
 30
0.0
 10
0.5788779527559055
 20
-0.2811653543307087
 30
0.0
 10
0.5788779527559055
 20
-0.2811653543307087
 30
0.0
 10
0.5788779527559055
 20
-0.2811653543307087
 30
0.0
 10
0.5643779527559055
 20
-0.2852952755905512
 30
0.0
 10
0.5643779527559055
 20
-0.2852952755905512
 30
0.0
 10
0.5643779527559055
 20
-0.2852952755905512
 30
0.0
 10
0.5643779527559055
 20
-0.2852952755905512
 30
0.0
 10
-0.0960826771653543
 20
0.0954094488188976
 30
0.0
 10
-0.0960826771653543
 20
0.0954094488188976
 30
0.0
 10
-0.0960826771653543
 20
0.0954094488188976
 30
0.0
 10
-0.0960826771653543
 20
0.0954094488188976
 30
0.0
 10
-0.0815826771653543
 20
0.0995393700787402
 30
0.0
 10
-0.0815826771653543
 20
0.0995393700787402
 30
0.0
 10
-0.0815826771653543
 20
0.0995393700787402
 30
0.0
 10
-0.0815826771653543
 20
0.0995393700787402
 30
0.0
 10
-0.0669291338582677
 20
0.1031771653543307
 30
0.0
 10
-0.0669291338582677
 20
0.1031771653543307
 30
0.0
 10
-0.0669291338582677
 20
0.1031771653543307
 30
0.0
 10
-0.0669291338582677
 20
0.1031771653543307
 30
0.0
 10
-0.0521653543307087
 20
0.1063740157480315
 30
0.0
 10
-0.0521653543307087
 20
0.1063740157480315
 30
0.0
  0
SPLINE
  5
99
100
AcDbEntity
  8
LAYER_1
 62
   253
100
AcDbSpline
210
0.0
220
0.0
230
1.0
 70
     1
 71
     3
 72
    36
 73
    32
 74
     0
 42
0.0000000001
 43
0.0000000001
 40
0.0
 40
0.0
 40
0.0
 40
0.0
 40
0.125
 40
0.125
 40
0.125
 40
0.125
 40
0.25
 40
0.25
 40
0.25
 40
0.25
 40
0.375
 40
0.375
 40
0.375
 40
0.375
 40
0.5
 40
0.5
 40
0.5
 40
0.5
 40
0.625
 40
0.625
 40
0.625
 40
0.625
 40
0.75
 40
0.75
 40
0.75
 40
0.75
 40
0.875
 40
0.875
 40
0.875
 40
0.875
 40
1.0
 40
1.0
 40
1.0
 40
1.0
 10
-0.0960826771653543
 20
0.0954094488188976
 30
0.0
 10
-0.0960826771653543
 20
0.0954094488188976
 30
0.0
 10
0.5643779527559055
 20
-0.2852952755905512
 30
0.0
 10
0.5643779527559055
 20
-0.2852952755905512
 30
0.0
 10
0.5643779527559055
 20
-0.2852952755905512
 30
0.0
 10
0.5643779527559055
 20
-0.2852952755905512
 30
0.0
 10
0.5500472440944882
 20
-0.2899527559055118
 30
0.0
 10
0.5500472440944882
 20
-0.2899527559055118
 30
0.0
 10
0.5500472440944882
 20
-0.2899527559055118
 30
0.0
 10
0.5500472440944882
 20
-0.2899527559055118
 30
0.0
 10
0.5359370078740158
 20
-0.2952007874015748
 30
0.0
 10
0.5359370078740158
 20
-0.2952007874015748
 30
0.0
 10
0.5359370078740158
 20
-0.2952007874015748
 30
0.0
 10
0.5359370078740158
 20
-0.2952007874015748
 30
0.0
 10
0.5220551181102362
 20
-0.3010748031496063
 30
0.0
 10
0.5220551181102362
 20
-0.3010748031496063
 30
0.0
 10
0.5220551181102362
 20
-0.3010748031496063
 30
0.0
 10
0.5220551181102362
 20
-0.3010748031496063
 30
0.0
 10
-0.1384055118110236
 20
0.0796299212598425
 30
0.0
 10
-0.1384055118110236
 20
0.0796299212598425
 30
0.0
 10
-0.1384055118110236
 20
0.0796299212598425
 30
0.0
 10
-0.1384055118110236
 20
0.0796299212598425
 30
0.0
 10
-0.1245236220472441
 20
0.085503937007874
 30
0.0
 10
-0.1245236220472441
 20
0.085503937007874
 30
0.0
 10
-0.1245236220472441
 20
0.085503937007874
 30
0.0
 10
-0.1245236220472441
 20
0.085503937007874
 30
0.0
 10
-0.1104133858267717
 20
0.090751968503937
 30
0.0
 10
-0.1104133858267717
 20
0.090751968503937
 30
0.0
 10
-0.1104133858267717
 20
0.090751968503937
 30
0.0
 10
-0.1104133858267717
 20
0.090751968503937
 30
0.0
 10
-0.0960826771653543
 20
0.0954094488188976
 30
0.0
 10
-0.0960826771653543
 20
0.0954094488188976
 30
0.0
  0
SPLINE
  5
9A
100
AcDbEntity
  8
LAYER_1
 62
   253
100
AcDbSpline
210
0.0
220
0.0
230
1.0
 70
     1
 71
     3
 72
    36
 73
    32
 74
     0
 42
0.0000000001
 43
0.0000000001
 40
0.0
 40
0.0
 40
0.0
 40
0.0
 40
0.125
 40
0.125
 40
0.125
 40
0.125
 40
0.25
 40
0.25
 40
0.25
 40
0.25
 40
0.375
 40
0.375
 40
0.375
 40
0.375
 40
0.5
 40
0.5
 40
0.5
 40
0.5
 40
0.625
 40
0.625
 40
0.625
 40
0.625
 40
0.75
 40
0.75
 40
0.75
 40
0.75
 40
0.875
 40
0.875
 40
0.875
 40
0.875
 40
1.0
 40
1.0
 40
1.0
 40
1.0
 10
-0.1384055118110236
 20
0.0796299212598425
 30
0.0
 10
-0.1384055118110236
 20
0.0796299212598425
 30
0.0
 10
0.5220551181102362
 20
-0.3010748031496063
 30
0.0
 10
0.5220551181102362
 20
-0.3010748031496063
 30
0.0
 10
0.5220551181102362
 20
-0.3010748031496063
 30
0.0
 10
0.5220551181102362
 20
-0.3010748031496063
 30
0.0
 10
0.5084448818897638
 20
-0.3076220472440945
 30
0.0
 10
0.5084448818897638
 20
-0.3076220472440945
 30
0.0
 10
0.5084448818897638
 20
-0.3076220472440945
 30
0.0
 10
0.5084448818897638
 20
-0.3076220472440945
 30
0.0
 10
0.4951299212598426
 20
-0.3148858267716536
 30
0.0
 10
0.4951299212598426
 20
-0.3148858267716536
 30
0.0
 10
0.4951299212598426
 20
-0.3148858267716536
 30
0.0
 10
0.4951299212598426
 20
-0.3148858267716536
 30
0.0
 10
0.4821496062992126
 20
-0.3229212598425197
 30
0.0
 10
0.4821496062992126
 20
-0.3229212598425197
 30
0.0
 10
0.4821496062992126
 20
-0.3229212598425197
 30
0.0
 10
0.4821496062992126
 20
-0.3229212598425197
 30
0.0
 10
-0.1783110236220473
 20
0.0577834645669291
 30
0.0
 10
-0.1783110236220473
 20
0.0577834645669291
 30
0.0
 10
-0.1783110236220473
 20
0.0577834645669291
 30
0.0
 10
-0.1783110236220473
 20
0.0577834645669291
 30
0.0
 10
-0.1653307086614173
 20
0.0658188976377953
 30
0.0
 10
-0.1653307086614173
 20
0.0658188976377953
 30
0.0
 10
-0.1653307086614173
 20
0.0658188976377953
 30
0.0
 10
-0.1653307086614173
 20
0.0658188976377953
 30
0.0
 10
-0.1520157480314961
 20
0.0730826771653543
 30
0.0
 10
-0.1520157480314961
 20
0.0730826771653543
 30
0.0
 10
-0.1520157480314961
 20
0.0730826771653543
 30
0.0
 10
-0.1520157480314961
 20
0.0730826771653543
 30
0.0
 10
-0.1384055118110236
 20
0.0796299212598425
 30
0.0
 10
-0.1384055118110236
 20
0.0796299212598425
 30
0.0
  0
SPLINE
  5
9B
100
AcDbEntity
  8
LAYER_1
 62
     9
100
AcDbSpline
210
0.0
220
0.0
230
1.0
 70
     1
 71
     3
 72
    36
 73
    32
 74
     0
 42
0.0000000001
 43
0.0000000001
 40
0.0
 40
0.0
 40
0.0
 40
0.0
 40
0.125
 40
0.125
 40
0.125
 40
0.125
 40
0.25
 40
0.25
 40
0.25
 40
0.25
 40
0.375
 40
0.375
 40
0.375
 40
0.375
 40
0.5
 40
0.5
 40
0.5
 40
0.5
 40
0.625
 40
0.625
 40
0.625
 40
0.625
 40
0.75
 40
0.75
 40
0.75
 40
0.75
 40
0.875
 40
0.875
 40
0.875
 40
0.875
 40
1.0
 40
1.0
 40
1.0
 40
1.0
 10
-0.1783110236220473
 20
0.0577834645669291
 30
0.0
 10
-0.1783110236220473
 20
0.0577834645669291
 30
0.0
 10
0.4821496062992126
 20
-0.3229212598425197
 30
0.0
 10
0.4821496062992126
 20
-0.3229212598425197
 30
0.0
 10
0.4821496062992126
 20
-0.3229212598425197
 30
0.0
 10
0.4821496062992126
 20
-0.3229212598425197
 30
0.0
 10
0.4695236220472441
 20
-0.3317677165354331
 30
0.0
 10
0.4695236220472441
 20
-0.3317677165354331
 30
0.0
 10
0.4695236220472441
 20
-0.3317677165354331
 30
0.0
 10
0.4695236220472441
 20
-0.3317677165354331
 30
0.0
 10
0.4572913385826772
 20
-0.3414763779527559
 30
0.0
 10
0.4572913385826772
 20
-0.3414763779527559
 30
0.0
 10
0.4572913385826772
 20
-0.3414763779527559
 30
0.0
 10
0.4572913385826772
 20
-0.3414763779527559
 30
0.0
 10
0.4454724409448819
 20
-0.3520826771653544
 30
0.0
 10
0.4454724409448819
 20
-0.3520826771653544
 30
0.0
 10
0.4454724409448819
 20
-0.3520826771653544
 30
0.0
 10
0.4454724409448819
 20
-0.3520826771653544
 30
0.0
 10
-0.214988188976378
 20
0.0286220472440945
 30
0.0
 10
-0.214988188976378
 20
0.0286220472440945
 30
0.0
 10
-0.214988188976378
 20
0.0286220472440945
 30
0.0
 10
-0.214988188976378
 20
0.0286220472440945
 30
0.0
 10
-0.2031692913385827
 20
0.0392283464566929
 30
0.0
 10
-0.2031692913385827
 20
0.0392283464566929
 30
0.0
 10
-0.2031692913385827
 20
0.0392283464566929
 30
0.0
 10
-0.2031692913385827
 20
0.0392283464566929
 30
0.0
 10
-0.1909370078740158
 20
0.0489370078740158
 30
0.0
 10
-0.1909370078740158
 20
0.0489370078740158
 30
0.0
 10
-0.1909370078740158
 20
0.0489370078740158
 30
0.0
 10
-0.1909370078740158
 20
0.0489370078740158
 30
0.0
 10
-0.1783110236220473
 20
0.0577834645669291
 30
0.0
 10
-0.1783110236220473
 20
0.0577834645669291
 30
0.0
  0
SPLINE
  5
9C
100
AcDbEntity
  8
LAYER_1
 62
     9
100
AcDbSpline
210
0.0
220
0.0
230
1.0
 70
     1
 71
     3
 72
    36
 73
    32
 74
     0
 42
0.0000000001
 43
0.0000000001
 40
0.0
 40
0.0
 40
0.0
 40
0.0
 40
0.125
 40
0.125
 40
0.125
 40
0.125
 40
0.25
 40
0.25
 40
0.25
 40
0.25
 40
0.375
 40
0.375
 40
0.375
 40
0.375
 40
0.5
 40
0.5
 40
0.5
 40
0.5
 40
0.625
 40
0.625
 40
0.625
 40
0.625
 40
0.75
 40
0.75
 40
0.75
 40
0.75
 40
0.875
 40
0.875
 40
0.875
 40
0.875
 40
1.0
 40
1.0
 40
1.0
 40
1.0
 10
-0.214988188976378
 20
0.0286220472440945
 30
0.0
 10
-0.214988188976378
 20
0.0286220472440945
 30
0.0
 10
0.4454724409448819
 20
-0.3520826771653544
 30
0.0
 10
0.4454724409448819
 20
-0.3520826771653544
 30
0.0
 10
0.4454724409448819
 20
-0.3520826771653544
 30
0.0
 10
0.4454724409448819
 20
-0.3520826771653544
 30
0.0
 10
0.4341141732283465
 20
-0.3636496062992126
 30
0.0
 10
0.4341141732283465
 20
-0.3636496062992126
 30
0.0
 10
0.4341141732283465
 20
-0.3636496062992126
 30
0.0
 10
0.4341141732283465
 20
-0.3636496062992126
 30
0.0
 10
0.4232322834645669
 20
-0.3762047244094489
 30
0.0
 10
0.4232322834645669
 20
-0.3762047244094489
 30
0.0
 10
0.4232322834645669
 20
-0.3762047244094489
 30
0.0
 10
0.4232322834645669
 20
-0.3762047244094489
 30
0.0
 10
0.4128661417322835
 20
-0.3898031496062993
 30
0.0
 10
0.4128661417322835
 20
-0.3898031496062993
 30
0.0
 10
0.4128661417322835
 20
-0.3898031496062993
 30
0.0
 10
0.4128661417322835
 20
-0.3898031496062993
 30
0.0
 10
-0.2475944881889764
 20
-0.0090984251968504
 30
0.0
 10
-0.2475944881889764
 20
-0.0090984251968504
 30
0.0
 10
-0.2475944881889764
 20
-0.0090984251968504
 30
0.0
 10
-0.2475944881889764
 20
-0.0090984251968504
 30
0.0
 10
-0.2372283464566929
 20
0.0045
 30
0.0
 10
-0.2372283464566929
 20
0.0045
 30
0.0
 10
-0.2372283464566929
 20
0.0045
 30
0.0
 10
-0.2372283464566929
 20
0.0045
 30
0.0
 10
-0.2263464566929134
 20
0.0170551181102362
 30
0.0
 10
-0.2263464566929134
 20
0.0170551181102362
 30
0.0
 10
-0.2263464566929134
 20
0.0170551181102362
 30
0.0
 10
-0.2263464566929134
 20
0.0170551181102362
 30
0.0
 10
-0.214988188976378
 20
0.0286220472440945
 30
0.0
 10
-0.214988188976378
 20
0.0286220472440945
 30
0.0
  0
SPLINE
  5
9D
100
AcDbEntity
  8
LAYER_1
 62
     9
100
AcDbSpline
210
0.0
220
0.0
230
1.0
 70
     1
 71
     3
 72
    28
 73
    24
 74
     0
 42
0.0000000001
 43
0.0000000001
 40
0.0
 40
0.0
 40
0.0
 40
0.0
 40
0.1666666666666667
 40
0.1666666666666667
 40
0.1666666666666667
 40
0.1666666666666667
 40
0.3333333333333333
 40
0.3333333333333333
 40
0.3333333333333333
 40
0.3333333333333333
 40
0.5
 40
0.5
 40
0.5
 40
0.5
 40
0.6666666666666666
 40
0.6666666666666666
 40
0.6666666666666666
 40
0.6666666666666666
 40
0.8333333333333333
 40
0.8333333333333333
 40
0.8333333333333333
 40
0.8333333333333333
 40
1.0
 40
1.0
 40
1.0
 40
1.0
 10
-0.2475944881889764
 20
-0.0090984251968504
 30
0.0
 10
-0.2475944881889764
 20
-0.0090984251968504
 30
0.0
 10
0.4128661417322835
 20
-0.3898031496062993
 30
0.0
 10
0.4128661417322835
 20
-0.3898031496062993
 30
0.0
 10
0.4128661417322835
 20
-0.3898031496062993
 30
0.0
 10
0.4128661417322835
 20
-0.3898031496062993
 30
0.0
 10
0.4030354330708661
 20
-0.404503937007874
 30
0.0
 10
0.4030354330708661
 20
-0.404503937007874
 30
0.0
 10
0.4030354330708661
 20
-0.404503937007874
 30
0.0
 10
0.4030354330708661
 20
-0.404503937007874
 30
0.0
 10
0.3937795275590552
 20
-0.4203346456692914
 30
0.0
 10
0.3937795275590552
 20
-0.4203346456692914
 30
0.0
 10
0.3937795275590552
 20
-0.4203346456692914
 30
0.0
 10
0.3937795275590552
 20
-0.4203346456692914
 30
0.0
 10
-0.2666811023622047
 20
-0.0396299212598425
 30
0.0
 10
-0.2666811023622047
 20
-0.0396299212598425
 30
0.0
 10
-0.2666811023622047
 20
-0.0396299212598425
 30
0.0
 10
-0.2666811023622047
 20
-0.0396299212598425
 30
0.0
 10
-0.2574251968503937
 20
-0.0237992125984252
 30
0.0
 10
-0.2574251968503937
 20
-0.0237992125984252
 30
0.0
 10
-0.2574251968503937
 20
-0.0237992125984252
 30
0.0
 10
-0.2574251968503937
 20
-0.0237992125984252
 30
0.0
 10
-0.2475944881889764
 20
-0.0090984251968504
 30
0.0
 10
-0.2475944881889764
 20
-0.0090984251968504
 30
0.0
  0
SPLINE
  5
9E
100
AcDbEntity
  8
LAYER_1
 62
     9
100
AcDbSpline
210
0.0
220
0.0
230
1.0
 70
     1
 71
     3
 72
    28
 73
    24
 74
     0
 42
0.0000000001
 43
0.0000000001
 40
0.0
 40
0.0
 40
0.0
 40
0.0
 40
0.1666666666666667
 40
0.1666666666666667
 40
0.1666666666666667
 40
0.1666666666666667
 40
0.3333333333333333
 40
0.3333333333333333
 40
0.3333333333333333
 40
0.3333333333333333
 40
0.5
 40
0.5
 40
0.5
 40
0.5
 40
0.6666666666666666
 40
0.6666666666666666
 40
0.6666666666666666
 40
0.6666666666666666
 40
0.8333333333333333
 40
0.8333333333333333
 40
0.8333333333333333
 40
0.8333333333333333
 40
1.0
 40
1.0
 40
1.0
 40
1.0
 10
-0.2666811023622047
 20
-0.0396299212598425
 30
0.0
 10
-0.2666811023622047
 20
-0.0396299212598425
 30
0.0
 10
0.3937795275590552
 20
-0.4203346456692914
 30
0.0
 10
0.3937795275590552
 20
-0.4203346456692914
 30
0.0
 10
0.3937795275590552
 20
-0.4203346456692914
 30
0.0
 10
0.3937795275590552
 20
-0.4203346456692914
 30
0.0
 10
0.3851259842519685
 20
-0.4373503937007874
 30
0.0
 10
0.3851259842519685
 20
-0.4373503937007874
 30
0.0
 10
0.3851259842519685
 20
-0.4373503937007874
 30
0.0
 10
0.3851259842519685
 20
-0.4373503937007874
 30
0.0
 10
0.3771062992125984
 20
-0.4555944881889764
 30
0.0
 10
0.3771062992125984
 20
-0.4555944881889764
 30
0.0
 10
0.3771062992125984
 20
-0.4555944881889764
 30
0.0
 10
0.3771062992125984
 20
-0.4555944881889764
 30
0.0
 10
-0.2833543307086615
 20
-0.0748897637795276
 30
0.0
 10
-0.2833543307086615
 20
-0.0748897637795276
 30
0.0
 10
-0.2833543307086615
 20
-0.0748897637795276
 30
0.0
 10
-0.2833543307086615
 20
-0.0748897637795276
 30
0.0
 10
-0.2753346456692913
 20
-0.0566456692913386
 30
0.0
 10
-0.2753346456692913
 20
-0.0566456692913386
 30
0.0
 10
-0.2753346456692913
 20
-0.0566456692913386
 30
0.0
 10
-0.2753346456692913
 20
-0.0566456692913386
 30
0.0
 10
-0.2666811023622047
 20
-0.0396299212598425
 30
0.0
 10
-0.2666811023622047
 20
-0.0396299212598425
 30
0.0
  0
SPLINE
  5
9F
100
AcDbEntity
  8
LAYER_1
 62
     9
100
AcDbSpline
210
0.0
220
0.0
230
1.0
 70
     1
 71
     3
 72
    28
 73
    24
 74
     0
 42
0.0000000001
 43
0.0000000001
 40
0.0
 40
0.0
 40
0.0
 40
0.0
 40
0.1666666666666667
 40
0.1666666666666667
 40
0.1666666666666667
 40
0.1666666666666667
 40
0.3333333333333333
 40
0.3333333333333333
 40
0.3333333333333333
 40
0.3333333333333333
 40
0.5
 40
0.5
 40
0.5
 40
0.5
 40
0.6666666666666666
 40
0.6666666666666666
 40
0.6666666666666666
 40
0.6666666666666666
 40
0.8333333333333333
 40
0.8333333333333333
 40
0.8333333333333333
 40
0.8333333333333333
 40
1.0
 40
1.0
 40
1.0
 40
1.0
 10
-0.2833543307086615
 20
-0.0748897637795276
 30
0.0
 10
-0.2833543307086615
 20
-0.0748897637795276
 30
0.0
 10
0.3771062992125984
 20
-0.4555944881889764
 30
0.0
 10
0.3771062992125984
 20
-0.4555944881889764
 30
0.0
 10
0.3771062992125984
 20
-0.4555944881889764
 30
0.0
 10
0.3771062992125984
 20
-0.4555944881889764
 30
0.0
 10
0.369744094488189
 20
-0.4751220472440945
 30
0.0
 10
0.369744094488189
 20
-0.4751220472440945
 30
0.0
 10
0.369744094488189
 20
-0.4751220472440945
 30
0.0
 10
0.369744094488189
 20
-0.4751220472440945
 30
0.0
 10
0.3630826771653544
 20
-0.4959645669291339
 30
0.0
 10
0.3630826771653544
 20
-0.4959645669291339
 30
0.0
 10
0.3630826771653544
 20
-0.4959645669291339
 30
0.0
 10
0.3630826771653544
 20
-0.4959645669291339
 30
0.0
 10
-0.2973779527559055
 20
-0.1152598425196851
 30
0.0
 10
-0.2973779527559055
 20
-0.1152598425196851
 30
0.0
 10
-0.2973779527559055
 20
-0.1152598425196851
 30
0.0
 10
-0.2973779527559055
 20
-0.1152598425196851
 30
0.0
 10
-0.2907165354330709
 20
-0.0944173228346457
 30
0.0
 10
-0.2907165354330709
 20
-0.0944173228346457
 30
0.0
 10
-0.2907165354330709
 20
-0.0944173228346457
 30
0.0
 10
-0.2907165354330709
 20
-0.0944173228346457
 30
0.0
 10
-0.2833543307086615
 20
-0.0748897637795276
 30
0.0
 10
-0.2833543307086615
 20
-0.0748897637795276
 30
0.0
  0
SPLINE
  5
A0
100
AcDbEntity
  8
LAYER_1
 62
     9
100
AcDbSpline
210
0.0
220
0.0
230
1.0
 70
     1
 71
     3
 72
    28
 73
    24
 74
     0
 42
0.0000000001
 43
0.0000000001
 40
0.0
 40
0.0
 40
0.0
 40
0.0
 40
0.1666666666666667
 40
0.1666666666666667
 40
0.1666666666666667
 40
0.1666666666666667
 40
0.3333333333333333
 40
0.3333333333333333
 40
0.3333333333333333
 40
0.3333333333333333
 40
0.5
 40
0.5
 40
0.5
 40
0.5
 40
0.6666666666666666
 40
0.6666666666666666
 40
0.6666666666666666
 40
0.6666666666666666
 40
0.8333333333333333
 40
0.8333333333333333
 40
0.8333333333333333
 40
0.8333333333333333
 40
1.0
 40
1.0
 40
1.0
 40
1.0
 10
-0.2973779527559055
 20
-0.1152598425196851
 30
0.0
 10
-0.2973779527559055
 20
-0.1152598425196851
 30
0.0
 10
0.3630826771653544
 20
-0.4959645669291339
 30
0.0
 10
0.3630826771653544
 20
-0.4959645669291339
 30
0.0
 10
0.3630826771653544
 20
-0.4959645669291339
 30
0.0
 10
0.3630826771653544
 20
-0.4959645669291339
 30
0.0
 10
0.3571417322834646
 20
-0.5181771653543308
 30
0.0
 10
0.3571417322834646
 20
-0.5181771653543308
 30
0.0
 10
0.3571417322834646
 20
-0.5181771653543308
 30
0.0
 10
0.3571417322834646
 20
-0.5181771653543308
 30
0.0
 10
0.3519566929133858
 20
-0.5417992125984252
 30
0.0
 10
0.3519566929133858
 20
-0.5417992125984252
 30
0.0
 10
0.3519566929133858
 20
-0.5417992125984252
 30
0.0
 10
0.3519566929133858
 20
-0.5417992125984252
 30
0.0
 10
-0.308503937007874
 20
-0.1610944881889764
 30
0.0
 10
-0.308503937007874
 20
-0.1610944881889764
 30
0.0
 10
-0.308503937007874
 20
-0.1610944881889764
 30
0.0
 10
-0.308503937007874
 20
-0.1610944881889764
 30
0.0
 10
-0.3033188976377953
 20
-0.1374724409448819
 30
0.0
 10
-0.3033188976377953
 20
-0.1374724409448819
 30
0.0
 10
-0.3033188976377953
 20
-0.1374724409448819
 30
0.0
 10
-0.3033188976377953
 20
-0.1374724409448819
 30
0.0
 10
-0.2973779527559055
 20
-0.1152598425196851
 30
0.0
 10
-0.2973779527559055
 20
-0.1152598425196851
 30
0.0
  0
SPLINE
  5
A1
100
AcDbEntity
  8
LAYER_1
 62
     9
100
AcDbSpline
210
0.0
220
0.0
230
1.0
 70
     1
 71
     3
 72
    20
 73
    16
 74
     0
 42
0.0000000001
 43
0.0000000001
 40
0.0
 40
0.0
 40
0.0
 40
0.0
 40
0.25
 40
0.25
 40
0.25
 40
0.25
 40
0.5
 40
0.5
 40
0.5
 40
0.5
 40
0.75
 40
0.75
 40
0.75
 40
0.75
 40
1.0
 40
1.0
 40
1.0
 40
1.0
 10
-0.308503937007874
 20
-0.1610944881889764
 30
0.0
 10
-0.308503937007874
 20
-0.1610944881889764
 30
0.0
 10
0.3519566929133858
 20
-0.5417992125984252
 30
0.0
 10
0.3519566929133858
 20
-0.5417992125984252
 30
0.0
 10
0.3519566929133858
 20
-0.5417992125984252
 30
0.0
 10
0.3519566929133858
 20
-0.5417992125984252
 30
0.0
 10
0.3475511811023622
 20
-0.5668937007874016
 30
0.0
 10
0.3475511811023622
 20
-0.5668937007874016
 30
0.0
 10
0.3475511811023622
 20
-0.5668937007874016
 30
0.0
 10
0.3475511811023622
 20
-0.5668937007874016
 30
0.0
 10
-0.3129094488188977
 20
-0.1861889763779528
 30
0.0
 10
-0.3129094488188977
 20
-0.1861889763779528
 30
0.0
 10
-0.3129094488188977
 20
-0.1861889763779528
 30
0.0
 10
-0.3129094488188977
 20
-0.1861889763779528
 30
0.0
 10
-0.308503937007874
 20
-0.1610944881889764
 30
0.0
 10
-0.308503937007874
 20
-0.1610944881889764
 30
0.0
  0
SPLINE
  5
A2
100
AcDbEntity
  8
LAYER_1
 62
     9
100
AcDbSpline
210
0.0
220
0.0
230
1.0
 70
     1
 71
     3
 72
    20
 73
    16
 74
     0
 42
0.0000000001
 43
0.0000000001
 40
0.0
 40
0.0
 40
0.0
 40
0.0
 40
0.25
 40
0.25
 40
0.25
 40
0.25
 40
0.5
 40
0.5
 40
0.5
 40
0.5
 40
0.75
 40
0.75
 40
0.75
 40
0.75
 40
1.0
 40
1.0
 40
1.0
 40
1.0
 10
-0.3129094488188977
 20
-0.1861889763779528
 30
0.0
 10
-0.3129094488188977
 20
-0.1861889763779528
 30
0.0
 10
0.3475511811023622
 20
-0.5668937007874016
 30
0.0
 10
0.3475511811023622
 20
-0.5668937007874016
 30
0.0
 10
0.3475511811023622
 20
-0.5668937007874016
 30
0.0
 10
0.3475511811023622
 20
-0.5668937007874016
 30
0.0
 10
0.3439685039370079
 20
-0.593488188976378
 30
0.0
 10
0.3439685039370079
 20
-0.593488188976378
 30
0.0
 10
0.3439685039370079
 20
-0.593488188976378
 30
0.0
 10
0.3439685039370079
 20
-0.593488188976378
 30
0.0
 10
-0.316492125984252
 20
-0.2127834645669292
 30
0.0
 10
-0.316492125984252
 20
-0.2127834645669292
 30
0.0
 10
-0.316492125984252
 20
-0.2127834645669292
 30
0.0
 10
-0.316492125984252
 20
-0.2127834645669292
 30
0.0
 10
-0.3129094488188977
 20
-0.1861889763779528
 30
0.0
 10
-0.3129094488188977
 20
-0.1861889763779528
 30
0.0
  0
SPLINE
  5
A3
100
AcDbEntity
  8
LAYER_1
 62
     9
100
AcDbSpline
210
0.0
220
0.0
230
1.0
 70
     1
 71
     3
 72
    20
 73
    16
 74
     0
 42
0.0000000001
 43
0.0000000001
 40
0.0
 40
0.0
 40
0.0
 40
0.0
 40
0.25
 40
0.25
 40
0.25
 40
0.25
 40
0.5
 40
0.5
 40
0.5
 40
0.5
 40
0.75
 40
0.75
 40
0.75
 40
0.75
 40
1.0
 40
1.0
 40
1.0
 40
1.0
 10
-0.316492125984252
 20
-0.2127834645669292
 30
0.0
 10
-0.316492125984252
 20
-0.2127834645669292
 30
0.0
 10
0.3439685039370079
 20
-0.593488188976378
 30
0.0
 10
0.3439685039370079
 20
-0.593488188976378
 30
0.0
 10
0.3439685039370079
 20
-0.593488188976378
 30
0.0
 10
0.3439685039370079
 20
-0.593488188976378
 30
0.0
 10
0.3412244094488189
 20
-0.6216377952755906
 30
0.0
 10
0.3412244094488189
 20
-0.6216377952755906
 30
0.0
 10
0.3412244094488189
 20
-0.6216377952755906
 30
0.0
 10
0.3412244094488189
 20
-0.6216377952755906
 30
0.0
 10
-0.3192362204724409
 20
-0.2409330708661417
 30
0.0
 10
-0.3192362204724409
 20
-0.2409330708661417
 30
0.0
 10
-0.3192362204724409
 20
-0.2409330708661417
 30
0.0
 10
-0.3192362204724409
 20
-0.2409330708661417
 30
0.0
 10
-0.316492125984252
 20
-0.2127834645669292
 30
0.0
 10
-0.316492125984252
 20
-0.2127834645669292
 30
0.0
  0
SPLINE
  5
A4
100
AcDbEntity
  8
LAYER_1
 62
     9
100
AcDbSpline
210
0.0
220
0.0
230
1.0
 70
     1
 71
     3
 72
    20
 73
    16
 74
     0
 42
0.0000000001
 43
0.0000000001
 40
0.0
 40
0.0
 40
0.0
 40
0.0
 40
0.25
 40
0.25
 40
0.25
 40
0.25
 40
0.5
 40
0.5
 40
0.5
 40
0.5
 40
0.75
 40
0.75
 40
0.75
 40
0.75
 40
1.0
 40
1.0
 40
1.0
 40
1.0
 10
-0.3192362204724409
 20
-0.2409330708661417
 30
0.0
 10
-0.3192362204724409
 20
-0.2409330708661417
 30
0.0
 10
0.3412244094488189
 20
-0.6216377952755906
 30
0.0
 10
0.3412244094488189
 20
-0.6216377952755906
 30
0.0
 10
0.3412244094488189
 20
-0.6216377952755906
 30
0.0
 10
0.3412244094488189
 20
-0.6216377952755906
 30
0.0
 10
0.3393582677165354
 20
-0.6513858267716536
 30
0.0
 10
0.3393582677165354
 20
-0.6513858267716536
 30
0.0
 10
0.3393582677165354
 20
-0.6513858267716536
 30
0.0
 10
0.3393582677165354
 20
-0.6513858267716536
 30
0.0
 10
-0.3211023622047244
 20
-0.2706811023622047
 30
0.0
 10
-0.3211023622047244
 20
-0.2706811023622047
 30
0.0
 10
-0.3211023622047244
 20
-0.2706811023622047
 30
0.0
 10
-0.3211023622047244
 20
-0.2706811023622047
 30
0.0
 10
-0.3192362204724409
 20
-0.2409330708661417
 30
0.0
 10
-0.3192362204724409
 20
-0.2409330708661417
 30
0.0
  0
SPLINE
  5
A5
100
AcDbEntity
  8
LAYER_1
 62
     9
100
AcDbSpline
210
0.0
220
0.0
230
1.0
 70
     1
 71
     3
 72
    20
 73
    16
 74
     0
 42
0.0000000001
 43
0.0000000001
 40
0.0
 40
0.0
 40
0.0
 40
0.0
 40
0.25
 40
0.25
 40
0.25
 40
0.25
 40
0.5
 40
0.5
 40
0.5
 40
0.5
 40
0.75
 40
0.75
 40
0.75
 40
0.75
 40
1.0
 40
1.0
 40
1.0
 40
1.0
 10
-0.3211023622047244
 20
-0.2706811023622047
 30
0.0
 10
-0.3211023622047244
 20
-0.2706811023622047
 30
0.0
 10
0.3393582677165354
 20
-0.6513858267716536
 30
0.0
 10
0.3393582677165354
 20
-0.6513858267716536
 30
0.0
 10
0.3393582677165354
 20
-0.6513858267716536
 30
0.0
 10
0.3393582677165354
 20
-0.6513858267716536
 30
0.0
 10
0.3383897637795276
 20
-0.6827874015748032
 30
0.0
 10
0.3383897637795276
 20
-0.6827874015748032
 30
0.0
 10
0.3383897637795276
 20
-0.6827874015748032
 30
0.0
 10
0.3383897637795276
 20
-0.6827874015748032
 30
0.0
 10
-0.3220708661417323
 20
-0.3020826771653544
 30
0.0
 10
-0.3220708661417323
 20
-0.3020826771653544
 30
0.0
 10
-0.3220708661417323
 20
-0.3020826771653544
 30
0.0
 10
-0.3220708661417323
 20
-0.3020826771653544
 30
0.0
 10
-0.3211023622047244
 20
-0.2706811023622047
 30
0.0
 10
-0.3211023622047244
 20
-0.2706811023622047
 30
0.0
  0
SPLINE
  5
A6
100
AcDbEntity
  8
LAYER_1
100
AcDbSpline
210
0.0
220
0.0
230
1.0
 70
     1
 71
     3
 72
   524
 73
   520
 74
     0
 42
0.0000000001
 43
0.0000000001
 40
0.0
 40
0.0
 40
0.0
 40
0.0
 40
0.0076923076923077
 40
0.0076923076923077
 40
0.0076923076923077
 40
0.0076923076923077
 40
0.0153846153846154
 40
0.0153846153846154
 40
0.0153846153846154
 40
0.0153846153846154
 40
0.0230769230769231
 40
0.0230769230769231
 40
0.0230769230769231
 40
0.0230769230769231
 40
0.0307692307692308
 40
0.0307692307692308
 40
0.0307692307692308
 40
0.0307692307692308
 40
0.0384615384615385
 40
0.0384615384615385
 40
0.0384615384615385
 40
0.0384615384615385
 40
0.0461538461538462
 40
0.0461538461538462
 40
0.0461538461538462
 40
0.0461538461538462
 40
0.0538461538461538
 40
0.0538461538461538
 40
0.0538461538461538
 40
0.0538461538461538
 40
0.0615384615384615
 40
0.0615384615384615
 40
0.0615384615384615
 40
0.0615384615384615
 40
0.0692307692307692
 40
0.0692307692307692
 40
0.0692307692307692
 40
0.0692307692307692
 40
0.0769230769230769
 40
0.0769230769230769
 40
0.0769230769230769
 40
0.0769230769230769
 40
0.0846153846153846
 40
0.0846153846153846
 40
0.0846153846153846
 40
0.0846153846153846
 40
0.0923076923076923
 40
0.0923076923076923
 40
0.0923076923076923
 40
0.0923076923076923
 40
0.1
 40
0.1
 40
0.1
 40
0.1
 40
0.1076923076923077
 40
0.1076923076923077
 40
0.1076923076923077
 40
0.1076923076923077
 40
0.1153846153846154
 40
0.1153846153846154
 40
0.1153846153846154
 40
0.1153846153846154
 40
0.1230769230769231
 40
0.1230769230769231
 40
0.1230769230769231
 40
0.1230769230769231
 40
0.1307692307692308
 40
0.1307692307692308
 40
0.1307692307692308
 40
0.1307692307692308
 40
0.1384615384615385
 40
0.1384615384615385
 40
0.1384615384615385
 40
0.1384615384615385
 40
0.1461538461538462
 40
0.1461538461538462
 40
0.1461538461538462
 40
0.1461538461538462
 40
0.1538461538461539
 40
0.1538461538461539
 40
0.1538461538461539
 40
0.1538461538461539
 40
0.1615384615384616
 40
0.1615384615384616
 40
0.1615384615384616
 40
0.1615384615384616
 40
0.1692307692307692
 40
0.1692307692307692
 40
0.1692307692307692
 40
0.1692307692307692
 40
0.1769230769230769
 40
0.1769230769230769
 40
0.1769230769230769
 40
0.1769230769230769
 40
0.1846153846153846
 40
0.1846153846153846
 40
0.1846153846153846
 40
0.1846153846153846
 40
0.1923076923076923
 40
0.1923076923076923
 40
0.1923076923076923
 40
0.1923076923076923
 40
0.2
 40
0.2
 40
0.2
 40
0.2
 40
0.2076923076923077
 40
0.2076923076923077
 40
0.2076923076923077
 40
0.2076923076923077
 40
0.2153846153846154
 40
0.2153846153846154
 40
0.2153846153846154
 40
0.2153846153846154
 40
0.2230769230769231
 40
0.2230769230769231
 40
0.2230769230769231
 40
0.2230769230769231
 40
0.2307692307692308
 40
0.2307692307692308
 40
0.2307692307692308
 40
0.2307692307692308
 40
0.2384615384615385
 40
0.2384615384615385
 40
0.2384615384615385
 40
0.2384615384615385
 40
0.2461538461538462
 40
0.2461538461538462
 40
0.2461538461538462
 40
0.2461538461538462
 40
0.2538461538461538
 40
0.2538461538461538
 40
0.2538461538461538
 40
0.2538461538461538
 40
0.2615384615384615
 40
0.2615384615384615
 40
0.2615384615384615
 40
0.2615384615384615
 40
0.2692307692307692
 40
0.2692307692307692
 40
0.2692307692307692
 40
0.2692307692307692
 40
0.2769230769230768
 40
0.2769230769230768
 40
0.2769230769230768
 40
0.2769230769230768
 40
0.2846153846153845
 40
0.2846153846153845
 40
0.2846153846153845
 40
0.2846153846153845
 40
0.2923076923076922
 40
0.2923076923076922
 40
0.2923076923076922
 40
0.2923076923076922
 40
0.2999999999999998
 40
0.2999999999999998
 40
0.2999999999999998
 40
0.2999999999999998
 40
0.3076923076923075
 40
0.3076923076923075
 40
0.3076923076923075
 40
0.3076923076923075
 40
0.3153846153846152
 40
0.3153846153846152
 40
0.3153846153846152
 40
0.3153846153846152
 40
0.3230769230769228
 40
0.3230769230769228
 40
0.3230769230769228
 40
0.3230769230769228
 40
0.3307692307692305
 40
0.3307692307692305
 40
0.3307692307692305
 40
0.3307692307692305
 40
0.3384615384615382
 40
0.3384615384615382
 40
0.3384615384615382
 40
0.3384615384615382
 40
0.3461538461538458
 40
0.3461538461538458
 40
0.3461538461538458
 40
0.3461538461538458
 40
0.3538461538461535
 40
0.3538461538461535
 40
0.3538461538461535
 40
0.3538461538461535
 40
0.3615384615384611
 40
0.3615384615384611
 40
0.3615384615384611
 40
0.3615384615384611
 40
0.3692307692307688
 40
0.3692307692307688
 40
0.3692307692307688
 40
0.3692307692307688
 40
0.3769230769230765
 40
0.3769230769230765
 40
0.3769230769230765
 40
0.3769230769230765
 40
0.3846153846153841
 40
0.3846153846153841
 40
0.3846153846153841
 40
0.3846153846153841
 40
0.3923076923076918
 40
0.3923076923076918
 40
0.3923076923076918
 40
0.3923076923076918
 40
0.3999999999999995
 40
0.3999999999999995
 40
0.3999999999999995
 40
0.3999999999999995
 40
0.4076923076923071
 40
0.4076923076923071
 40
0.4076923076923071
 40
0.4076923076923071
 40
0.4153846153846148
 40
0.4153846153846148
 40
0.4153846153846148
 40
0.4153846153846148
 40
0.4230769230769225
 40
0.4230769230769225
 40
0.4230769230769225
 40
0.4230769230769225
 40
0.4307692307692301
 40
0.4307692307692301
 40
0.4307692307692301
 40
0.4307692307692301
 40
0.4384615384615378
 40
0.4384615384615378
 40
0.4384615384615378
 40
0.4384615384615378
 40
0.4461538461538455
 40
0.4461538461538455
 40
0.4461538461538455
 40
0.4461538461538455
 40
0.4538461538461531
 40
0.4538461538461531
 40
0.4538461538461531
 40
0.4538461538461531
 40
0.4615384615384608
 40
0.4615384615384608
 40
0.4615384615384608
 40
0.4615384615384608
 40
0.4692307692307685
 40
0.4692307692307685
 40
0.4692307692307685
 40
0.4692307692307685
 40
0.4769230769230761
 40
0.4769230769230761
 40
0.4769230769230761
 40
0.4769230769230761
 40
0.4846153846153838
 40
0.4846153846153838
 40
0.4846153846153838
 40
0.4846153846153838
 40
0.4923076923076915
 40
0.4923076923076915
 40
0.4923076923076915
 40
0.4923076923076915
 40
0.4999999999999991
 40
0.4999999999999991
 40
0.4999999999999991
 40
0.4999999999999991
 40
0.5076923076923068
 40
0.5076923076923068
 40
0.5076923076923068
 40
0.5076923076923068
 40
0.5153846153846144
 40
0.5153846153846144
 40
0.5153846153846144
 40
0.5153846153846144
 40
0.5230769230769221
 40
0.5230769230769221
 40
0.5230769230769221
 40
0.5230769230769221
 40
0.5307692307692298
 40
0.5307692307692298
 40
0.5307692307692298
 40
0.5307692307692298
 40
0.5384615384615374
 40
0.5384615384615374
 40
0.5384615384615374
 40
0.5384615384615374
 40
0.5461538461538451
 40
0.5461538461538451
 40
0.5461538461538451
 40
0.5461538461538451
 40
0.5538461538461528
 40
0.5538461538461528
 40
0.5538461538461528
 40
0.5538461538461528
 40
0.5615384615384604
 40
0.5615384615384604
 40
0.5615384615384604
 40
0.5615384615384604
 40
0.5692307692307681
 40
0.5692307692307681
 40
0.5692307692307681
 40
0.5692307692307681
 40
0.5769230769230758
 40
0.5769230769230758
 40
0.5769230769230758
 40
0.5769230769230758
 40
0.5846153846153834
 40
0.5846153846153834
 40
0.5846153846153834
 40
0.5846153846153834
 40
0.5923076923076911
 40
0.5923076923076911
 40
0.5923076923076911
 40
0.5923076923076911
 40
0.5999999999999988
 40
0.5999999999999988
 40
0.5999999999999988
 40
0.5999999999999988
 40
0.6076923076923064
 40
0.6076923076923064
 40
0.6076923076923064
 40
0.6076923076923064
 40
0.6153846153846141
 40
0.6153846153846141
 40
0.6153846153846141
 40
0.6153846153846141
 40
0.6230769230769218
 40
0.6230769230769218
 40
0.6230769230769218
 40
0.6230769230769218
 40
0.6307692307692294
 40
0.6307692307692294
 40
0.6307692307692294
 40
0.6307692307692294
 40
0.6384615384615371
 40
0.6384615384615371
 40
0.6384615384615371
 40
0.6384615384615371
 40
0.6461538461538448
 40
0.6461538461538448
 40
0.6461538461538448
 40
0.6461538461538448
 40
0.6538461538461524
 40
0.6538461538461524
 40
0.6538461538461524
 40
0.6538461538461524
 40
0.6615384615384601
 40
0.6615384615384601
 40
0.6615384615384601
 40
0.6615384615384601
 40
0.6692307692307677
 40
0.6692307692307677
 40
0.6692307692307677
 40
0.6692307692307677
 40
0.6769230769230754
 40
0.6769230769230754
 40
0.6769230769230754
 40
0.6769230769230754
 40
0.6846153846153831
 40
0.6846153846153831
 40
0.6846153846153831
 40
0.6846153846153831
 40
0.6923076923076907
 40
0.6923076923076907
 40
0.6923076923076907
 40
0.6923076923076907
 40
0.6999999999999984
 40
0.6999999999999984
 40
0.6999999999999984
 40
0.6999999999999984
 40
0.7076923076923061
 40
0.7076923076923061
 40
0.7076923076923061
 40
0.7076923076923061
 40
0.7153846153846137
 40
0.7153846153846137
 40
0.7153846153846137
 40
0.7153846153846137
 40
0.7230769230769214
 40
0.7230769230769214
 40
0.7230769230769214
 40
0.7230769230769214
 40
0.7307692307692291
 40
0.7307692307692291
 40
0.7307692307692291
 40
0.7307692307692291
 40
0.7384615384615367
 40
0.7384615384615367
 40
0.7384615384615367
 40
0.7384615384615367
 40
0.7461538461538444
 40
0.7461538461538444
 40
0.7461538461538444
 40
0.7461538461538444
 40
0.7538461538461521
 40
0.7538461538461521
 40
0.7538461538461521
 40
0.7538461538461521
 40
0.7615384615384597
 40
0.7615384615384597
 40
0.7615384615384597
 40
0.7615384615384597
 40
0.7692307692307674
 40
0.7692307692307674
 40
0.7692307692307674
 40
0.7692307692307674
 40
0.7769230769230751
 40
0.7769230769230751
 40
0.7769230769230751
 40
0.7769230769230751
 40
0.7846153846153827
 40
0.7846153846153827
 40
0.7846153846153827
 40
0.7846153846153827
 40
0.7923076923076904
 40
0.7923076923076904
 40
0.7923076923076904
 40
0.7923076923076904
 40
0.7999999999999981
 40
0.7999999999999981
 40
0.7999999999999981
 40
0.7999999999999981
 40
0.8076923076923057
 40
0.8076923076923057
 40
0.8076923076923057
 40
0.8076923076923057
 40
0.8153846153846134
 40
0.8153846153846134
 40
0.8153846153846134
 40
0.8153846153846134
 40
0.823076923076921
 40
0.823076923076921
 40
0.823076923076921
 40
0.823076923076921
 40
0.8307692307692287
 40
0.8307692307692287
 40
0.8307692307692287
 40
0.8307692307692287
 40
0.8384615384615364
 40
0.8384615384615364
 40
0.8384615384615364
 40
0.8384615384615364
 40
0.846153846153844
 40
0.846153846153844
 40
0.846153846153844
 40
0.846153846153844
 40
0.8538461538461517
 40
0.8538461538461517
 40
0.8538461538461517
 40
0.8538461538461517
 40
0.8615384615384594
 40
0.8615384615384594
 40
0.8615384615384594
 40
0.8615384615384594
 40
0.869230769230767
 40
0.869230769230767
 40
0.869230769230767
 40
0.869230769230767
 40
0.8769230769230747
 40
0.8769230769230747
 40
0.8769230769230747
 40
0.8769230769230747
 40
0.8846153846153824
 40
0.8846153846153824
 40
0.8846153846153824
 40
0.8846153846153824
 40
0.89230769230769
 40
0.89230769230769
 40
0.89230769230769
 40
0.89230769230769
 40
0.8999999999999977
 40
0.8999999999999977
 40
0.8999999999999977
 40
0.8999999999999977
 40
0.9076923076923054
 40
0.9076923076923054
 40
0.9076923076923054
 40
0.9076923076923054
 40
0.915384615384613
 40
0.915384615384613
 40
0.915384615384613
 40
0.915384615384613
 40
0.9230769230769207
 40
0.9230769230769207
 40
0.9230769230769207
 40
0.9230769230769207
 40
0.9307692307692284
 40
0.9307692307692284
 40
0.9307692307692284
 40
0.9307692307692284
 40
0.938461538461536
 40
0.938461538461536
 40
0.938461538461536
 40
0.938461538461536
 40
0.9461538461538437
 40
0.9461538461538437
 40
0.9461538461538437
 40
0.9461538461538437
 40
0.9538461538461514
 40
0.9538461538461514
 40
0.9538461538461514
 40
0.9538461538461514
 40
0.961538461538459
 40
0.961538461538459
 40
0.961538461538459
 40
0.961538461538459
 40
0.9692307692307667
 40
0.9692307692307667
 40
0.9692307692307667
 40
0.9692307692307667
 40
0.9769230769230743
 40
0.9769230769230743
 40
0.9769230769230743
 40
0.9769230769230743
 40
0.984615384615382
 40
0.984615384615382
 40
0.984615384615382
 40
0.984615384615382
 40
0.9923076923076897
 40
0.9923076923076897
 40
0.9923076923076897
 40
0.9923076923076897
 40
1.0
 40
1.0
 40
1.0
 40
1.0
 10
0.1332204724409449
 20
0.2948858267716535
 30
0.0
 10
0.1332204724409449
 20
0.2948858267716535
 30
0.0
 10
0.7936811023622048
 20
-0.0858188976377953
 30
0.0
 10
0.7936811023622048
 20
-0.0858188976377953
 30
0.0
 10
0.7936811023622048
 20
-0.0858188976377953
 30
0.0
 10
0.7936811023622048
 20
-0.0858188976377953
 30
0.0
 10
0.7948661417322835
 20
-0.091255905511811
 30
0.0
 10
0.7948661417322835
 20
-0.091255905511811
 30
0.0
 10
0.7948661417322835
 20
-0.091255905511811
 30
0.0
 10
0.7948661417322835
 20
-0.091255905511811
 30
0.0
 10
0.7960669291338584
 20
-0.0969409448818898
 30
0.0
 10
0.7960669291338584
 20
-0.0969409448818898
 30
0.0
 10
0.7960669291338584
 20
-0.0969409448818898
 30
0.0
 10
0.7960669291338584
 20
-0.0969409448818898
 30
0.0
 10
0.7972480314960631
 20
-0.1028582677165354
 30
0.0
 10
0.7972480314960631
 20
-0.1028582677165354
 30
0.0
 10
0.7972480314960631
 20
-0.1028582677165354
 30
0.0
 10
0.7972480314960631
 20
-0.1028582677165354
 30
0.0
 10
0.7983818897637796
 20
-0.1089763779527559
 30
0.0
 10
0.7983818897637796
 20
-0.1089763779527559
 30
0.0
 10
0.7983818897637796
 20
-0.1089763779527559
 30
0.0
 10
0.7983818897637796
 20
-0.1089763779527559
 30
0.0
 10
0.7994173228346457
 20
-0.1152795275590551
 30
0.0
 10
0.7994173228346457
 20
-0.1152795275590551
 30
0.0
 10
0.7994173228346457
 20
-0.1152795275590551
 30
0.0
 10
0.7994173228346457
 20
-0.1152795275590551
 30
0.0
 10
0.8003346456692914
 20
-0.1217322834645669
 30
0.0
 10
0.8003346456692914
 20
-0.1217322834645669
 30
0.0
 10
0.8003346456692914
 20
-0.1217322834645669
 30
0.0
 10
0.8003346456692914
 20
-0.1217322834645669
 30
0.0
 10
0.8010944881889764
 20
-0.1283228346456693
 30
0.0
 10
0.8010944881889764
 20
-0.1283228346456693
 30
0.0
 10
0.8010944881889764
 20
-0.1283228346456693
 30
0.0
 10
0.8010944881889764
 20
-0.1283228346456693
 30
0.0
 10
0.8016653543307087
 20
-0.1350118110236221
 30
0.0
 10
0.8016653543307087
 20
-0.1350118110236221
 30
0.0
 10
0.8016653543307087
 20
-0.1350118110236221
 30
0.0
 10
0.8016653543307087
 20
-0.1350118110236221
 30
0.0
 10
0.8020039370078741
 20
-0.1417952755905512
 30
0.0
 10
0.8020039370078741
 20
-0.1417952755905512
 30
0.0
 10
0.8020039370078741
 20
-0.1417952755905512
 30
0.0
 10
0.8020039370078741
 20
-0.1417952755905512
 30
0.0
 10
0.8020826771653543
 20
-0.1486338582677166
 30
0.0
 10
0.8020826771653543
 20
-0.1486338582677166
 30
0.0
 10
0.8020826771653543
 20
-0.1486338582677166
 30
0.0
 10
0.8020826771653543
 20
-0.1486338582677166
 30
0.0
 10
0.8018661417322835
 20
-0.155507874015748
 30
0.0
 10
0.8018661417322835
 20
-0.155507874015748
 30
0.0
 10
0.8018661417322835
 20
-0.155507874015748
 30
0.0
 10
0.8018661417322835
 20
-0.155507874015748
 30
0.0
 10
0.8013228346456693
 20
-0.1623858267716536
 30
0.0
 10
0.8013228346456693
 20
-0.1623858267716536
 30
0.0
 10
0.8013228346456693
 20
-0.1623858267716536
 30
0.0
 10
0.8013228346456693
 20
-0.1623858267716536
 30
0.0
 10
0.8004055118110237
 20
-0.169259842519685
 30
0.0
 10
0.8004055118110237
 20
-0.169259842519685
 30
0.0
 10
0.8004055118110237
 20
-0.169259842519685
 30
0.0
 10
0.8004055118110237
 20
-0.169259842519685
 30
0.0
 10
0.7990984251968504
 20
-0.1760905511811024
 30
0.0
 10
0.7990984251968504
 20
-0.1760905511811024
 30
0.0
 10
0.7990984251968504
 20
-0.1760905511811024
 30
0.0
 10
0.7990984251968504
 20
-0.1760905511811024
 30
0.0
 10
0.7973543307086615
 20
-0.1828622047244095
 30
0.0
 10
0.7973543307086615
 20
-0.1828622047244095
 30
0.0
 10
0.7973543307086615
 20
-0.1828622047244095
 30
0.0
 10
0.7973543307086615
 20
-0.1828622047244095
 30
0.0
 10
0.7951456692913386
 20
-0.1895393700787402
 30
0.0
 10
0.7951456692913386
 20
-0.1895393700787402
 30
0.0
 10
0.7951456692913386
 20
-0.1895393700787402
 30
0.0
 10
0.7951456692913386
 20
-0.1895393700787402
 30
0.0
 10
0.7924251968503937
 20
-0.1961220472440945
 30
0.0
 10
0.7924251968503937
 20
-0.1961220472440945
 30
0.0
 10
0.7924251968503937
 20
-0.1961220472440945
 30
0.0
 10
0.7924251968503937
 20
-0.1961220472440945
 30
0.0
 10
0.7891732283464568
 20
-0.2025590551181102
 30
0.0
 10
0.7891732283464568
 20
-0.2025590551181102
 30
0.0
 10
0.7891732283464568
 20
-0.2025590551181102
 30
0.0
 10
0.7891732283464568
 20
-0.2025590551181102
 30
0.0
 10
0.7853464566929134
 20
-0.2088425196850394
 30
0.0
 10
0.7853464566929134
 20
-0.2088425196850394
 30
0.0
 10
0.7853464566929134
 20
-0.2088425196850394
 30
0.0
 10
0.7853464566929134
 20
-0.2088425196850394
 30
0.0
 10
0.7809212598425197
 20
-0.2149370078740158
 30
0.0
 10
0.7809212598425197
 20
-0.2149370078740158
 30
0.0
 10
0.7809212598425197
 20
-0.2149370078740158
 30
0.0
 10
0.7809212598425197
 20
-0.2149370078740158
 30
0.0
 10
0.7758464566929134
 20
-0.2208346456692913
 30
0.0
 10
0.7758464566929134
 20
-0.2208346456692913
 30
0.0
 10
0.7758464566929134
 20
-0.2208346456692913
 30
0.0
 10
0.7758464566929134
 20
-0.2208346456692913
 30
0.0
 10
0.7701023622047244
 20
-0.226492125984252
 30
0.0
 10
0.7701023622047244
 20
-0.226492125984252
 30
0.0
 10
0.7701023622047244
 20
-0.226492125984252
 30
0.0
 10
0.7701023622047244
 20
-0.226492125984252
 30
0.0
 10
0.7636456692913386
 20
-0.2318976377952756
 30
0.0
 10
0.7636456692913386
 20
-0.2318976377952756
 30
0.0
 10
0.7636456692913386
 20
-0.2318976377952756
 30
0.0
 10
0.7636456692913386
 20
-0.2318976377952756
 30
0.0
 10
0.7564488188976378
 20
-0.2370196850393701
 30
0.0
 10
0.7564488188976378
 20
-0.2370196850393701
 30
0.0
 10
0.7564488188976378
 20
-0.2370196850393701
 30
0.0
 10
0.7564488188976378
 20
-0.2370196850393701
 30
0.0
 10
0.7484645669291339
 20
-0.2418464566929134
 30
0.0
 10
0.7484645669291339
 20
-0.2418464566929134
 30
0.0
 10
0.7484645669291339
 20
-0.2418464566929134
 30
0.0
 10
0.7484645669291339
 20
-0.2418464566929134
 30
0.0
 10
0.7396732283464568
 20
-0.2463385826771654
 30
0.0
 10
0.7396732283464568
 20
-0.2463385826771654
 30
0.0
 10
0.7396732283464568
 20
-0.2463385826771654
 30
0.0
 10
0.7396732283464568
 20
-0.2463385826771654
 30
0.0
 10
0.7300314960629921
 20
-0.25048031496063
 30
0.0
 10
0.7300314960629921
 20
-0.25048031496063
 30
0.0
 10
0.7300314960629921
 20
-0.25048031496063
 30
0.0
 10
0.7300314960629921
 20
-0.25048031496063
 30
0.0
 10
0.7195118110236221
 20
-0.254240157480315
 30
0.0
 10
0.7195118110236221
 20
-0.254240157480315
 30
0.0
 10
0.7195118110236221
 20
-0.254240157480315
 30
0.0
 10
0.7195118110236221
 20
-0.254240157480315
 30
0.0
 10
0.7080708661417323
 20
-0.2576062992125984
 30
0.0
 10
0.7080708661417323
 20
-0.2576062992125984
 30
0.0
 10
0.7080708661417323
 20
-0.2576062992125984
 30
0.0
 10
0.7080708661417323
 20
-0.2576062992125984
 30
0.0
 10
0.6956850393700788
 20
-0.2605433070866142
 30
0.0
 10
0.6956850393700788
 20
-0.2605433070866142
 30
0.0
 10
0.6956850393700788
 20
-0.2605433070866142
 30
0.0
 10
0.6956850393700788
 20
-0.2605433070866142
 30
0.0
 10
0.6823110236220473
 20
-0.2630314960629921
 30
0.0
 10
0.6823110236220473
 20
-0.2630314960629921
 30
0.0
 10
0.6823110236220473
 20
-0.2630314960629921
 30
0.0
 10
0.6823110236220473
 20
-0.2630314960629921
 30
0.0
 10
0.6679173228346457
 20
-0.2650472440944882
 30
0.0
 10
0.6679173228346457
 20
-0.2650472440944882
 30
0.0
 10
0.6679173228346457
 20
-0.2650472440944882
 30
0.0
 10
0.6679173228346457
 20
-0.2650472440944882
 30
0.0
 10
0.6529921259842521
 20
-0.2669370078740158
 30
0.0
 10
0.6529921259842521
 20
-0.2669370078740158
 30
0.0
 10
0.6529921259842521
 20
-0.2669370078740158
 30
0.0
 10
0.6529921259842521
 20
-0.2669370078740158
 30
0.0
 10
0.6380590551181102
 20
-0.2690826771653543
 30
0.0
 10
0.6380590551181102
 20
-0.2690826771653543
 30
0.0
 10
0.6380590551181102
 20
-0.2690826771653543
 30
0.0
 10
0.6380590551181102
 20
-0.2690826771653543
 30
0.0
 10
0.6231535433070866
 20
-0.2715354330708661
 30
0.0
 10
0.6231535433070866
 20
-0.2715354330708661
 30
0.0
 10
0.6231535433070866
 20
-0.2715354330708661
 30
0.0
 10
0.6231535433070866
 20
-0.2715354330708661
 30
0.0
 10
0.6082952755905512
 20
-0.2743307086614173
 30
0.0
 10
0.6082952755905512
 20
-0.2743307086614173
 30
0.0
 10
0.6082952755905512
 20
-0.2743307086614173
 30
0.0
 10
0.6082952755905512
 20
-0.2743307086614173
 30
0.0
 10
0.5935314960629922
 20
-0.2775275590551181
 30
0.0
 10
0.5935314960629922
 20
-0.2775275590551181
 30
0.0
 10
0.5935314960629922
 20
-0.2775275590551181
 30
0.0
 10
0.5935314960629922
 20
-0.2775275590551181
 30
0.0
 10
0.5788779527559055
 20
-0.2811653543307087
 30
0.0
 10
0.5788779527559055
 20
-0.2811653543307087
 30
0.0
 10
0.5788779527559055
 20
-0.2811653543307087
 30
0.0
 10
0.5788779527559055
 20
-0.2811653543307087
 30
0.0
 10
0.5643779527559055
 20
-0.2852952755905512
 30
0.0
 10
0.5643779527559055
 20
-0.2852952755905512
 30
0.0
 10
0.5643779527559055
 20
-0.2852952755905512
 30
0.0
 10
0.5643779527559055
 20
-0.2852952755905512
 30
0.0
 10
0.5500472440944882
 20
-0.2899527559055118
 30
0.0
 10
0.5500472440944882
 20
-0.2899527559055118
 30
0.0
 10
0.5500472440944882
 20
-0.2899527559055118
 30
0.0
 10
0.5500472440944882
 20
-0.2899527559055118
 30
0.0
 10
0.5359370078740158
 20
-0.2952007874015748
 30
0.0
 10
0.5359370078740158
 20
-0.2952007874015748
 30
0.0
 10
0.5359370078740158
 20
-0.2952007874015748
 30
0.0
 10
0.5359370078740158
 20
-0.2952007874015748
 30
0.0
 10
0.5220551181102362
 20
-0.3010748031496063
 30
0.0
 10
0.5220551181102362
 20
-0.3010748031496063
 30
0.0
 10
0.5220551181102362
 20
-0.3010748031496063
 30
0.0
 10
0.5220551181102362
 20
-0.3010748031496063
 30
0.0
 10
0.5084448818897638
 20
-0.3076220472440945
 30
0.0
 10
0.5084448818897638
 20
-0.3076220472440945
 30
0.0
 10
0.5084448818897638
 20
-0.3076220472440945
 30
0.0
 10
0.5084448818897638
 20
-0.3076220472440945
 30
0.0
 10
0.4951299212598426
 20
-0.3148858267716536
 30
0.0
 10
0.4951299212598426
 20
-0.3148858267716536
 30
0.0
 10
0.4951299212598426
 20
-0.3148858267716536
 30
0.0
 10
0.4951299212598426
 20
-0.3148858267716536
 30
0.0
 10
0.4821496062992126
 20
-0.3229212598425197
 30
0.0
 10
0.4821496062992126
 20
-0.3229212598425197
 30
0.0
 10
0.4821496062992126
 20
-0.3229212598425197
 30
0.0
 10
0.4821496062992126
 20
-0.3229212598425197
 30
0.0
 10
0.4695236220472441
 20
-0.3317677165354331
 30
0.0
 10
0.4695236220472441
 20
-0.3317677165354331
 30
0.0
 10
0.4695236220472441
 20
-0.3317677165354331
 30
0.0
 10
0.4695236220472441
 20
-0.3317677165354331
 30
0.0
 10
0.4572913385826772
 20
-0.3414763779527559
 30
0.0
 10
0.4572913385826772
 20
-0.3414763779527559
 30
0.0
 10
0.4572913385826772
 20
-0.3414763779527559
 30
0.0
 10
0.4572913385826772
 20
-0.3414763779527559
 30
0.0
 10
0.4454724409448819
 20
-0.3520826771653544
 30
0.0
 10
0.4454724409448819
 20
-0.3520826771653544
 30
0.0
 10
0.4454724409448819
 20
-0.3520826771653544
 30
0.0
 10
0.4454724409448819
 20
-0.3520826771653544
 30
0.0
 10
0.4341141732283465
 20
-0.3636496062992126
 30
0.0
 10
0.4341141732283465
 20
-0.3636496062992126
 30
0.0
 10
0.4341141732283465
 20
-0.3636496062992126
 30
0.0
 10
0.4341141732283465
 20
-0.3636496062992126
 30
0.0
 10
0.4232322834645669
 20
-0.3762047244094489
 30
0.0
 10
0.4232322834645669
 20
-0.3762047244094489
 30
0.0
 10
0.4232322834645669
 20
-0.3762047244094489
 30
0.0
 10
0.4232322834645669
 20
-0.3762047244094489
 30
0.0
 10
0.4128661417322835
 20
-0.3898031496062993
 30
0.0
 10
0.4128661417322835
 20
-0.3898031496062993
 30
0.0
 10
0.4128661417322835
 20
-0.3898031496062993
 30
0.0
 10
0.4128661417322835
 20
-0.3898031496062993
 30
0.0
 10
0.4030354330708661
 20
-0.404503937007874
 30
0.0
 10
0.4030354330708661
 20
-0.404503937007874
 30
0.0
 10
0.4030354330708661
 20
-0.404503937007874
 30
0.0
 10
0.4030354330708661
 20
-0.404503937007874
 30
0.0
 10
0.3937795275590552
 20
-0.4203346456692914
 30
0.0
 10
0.3937795275590552
 20
-0.4203346456692914
 30
0.0
 10
0.3937795275590552
 20
-0.4203346456692914
 30
0.0
 10
0.3937795275590552
 20
-0.4203346456692914
 30
0.0
 10
0.3851259842519685
 20
-0.4373503937007874
 30
0.0
 10
0.3851259842519685
 20
-0.4373503937007874
 30
0.0
 10
0.3851259842519685
 20
-0.4373503937007874
 30
0.0
 10
0.3851259842519685
 20
-0.4373503937007874
 30
0.0
 10
0.3771062992125984
 20
-0.4555944881889764
 30
0.0
 10
0.3771062992125984
 20
-0.4555944881889764
 30
0.0
 10
0.3771062992125984
 20
-0.4555944881889764
 30
0.0
 10
0.3771062992125984
 20
-0.4555944881889764
 30
0.0
 10
0.369744094488189
 20
-0.4751220472440945
 30
0.0
 10
0.369744094488189
 20
-0.4751220472440945
 30
0.0
 10
0.369744094488189
 20
-0.4751220472440945
 30
0.0
 10
0.369744094488189
 20
-0.4751220472440945
 30
0.0
 10
0.3630826771653544
 20
-0.4959645669291339
 30
0.0
 10
0.3630826771653544
 20
-0.4959645669291339
 30
0.0
 10
0.3630826771653544
 20
-0.4959645669291339
 30
0.0
 10
0.3630826771653544
 20
-0.4959645669291339
 30
0.0
 10
0.3571417322834646
 20
-0.5181771653543308
 30
0.0
 10
0.3571417322834646
 20
-0.5181771653543308
 30
0.0
 10
0.3571417322834646
 20
-0.5181771653543308
 30
0.0
 10
0.3571417322834646
 20
-0.5181771653543308
 30
0.0
 10
0.3519566929133858
 20
-0.5417992125984252
 30
0.0
 10
0.3519566929133858
 20
-0.5417992125984252
 30
0.0
 10
0.3519566929133858
 20
-0.5417992125984252
 30
0.0
 10
0.3519566929133858
 20
-0.5417992125984252
 30
0.0
 10
0.3475511811023622
 20
-0.5668937007874016
 30
0.0
 10
0.3475511811023622
 20
-0.5668937007874016
 30
0.0
 10
0.3475511811023622
 20
-0.5668937007874016
 30
0.0
 10
0.3475511811023622
 20
-0.5668937007874016
 30
0.0
 10
0.3439685039370079
 20
-0.593488188976378
 30
0.0
 10
0.3439685039370079
 20
-0.593488188976378
 30
0.0
 10
0.3439685039370079
 20
-0.593488188976378
 30
0.0
 10
0.3439685039370079
 20
-0.593488188976378
 30
0.0
 10
0.3412244094488189
 20
-0.6216377952755906
 30
0.0
 10
0.3412244094488189
 20
-0.6216377952755906
 30
0.0
 10
0.3412244094488189
 20
-0.6216377952755906
 30
0.0
 10
0.3412244094488189
 20
-0.6216377952755906
 30
0.0
 10
0.3393582677165354
 20
-0.6513858267716536
 30
0.0
 10
0.3393582677165354
 20
-0.6513858267716536
 30
0.0
 10
0.3393582677165354
 20
-0.6513858267716536
 30
0.0
 10
0.3393582677165354
 20
-0.6513858267716536
 30
0.0
 10
0.3383897637795276
 20
-0.6827874015748032
 30
0.0
 10
0.3383897637795276
 20
-0.6827874015748032
 30
0.0
 10
0.3383897637795276
 20
-0.6827874015748032
 30
0.0
 10
0.3383897637795276
 20
-0.6827874015748032
 30
0.0
 10
-0.3220708661417323
 20
-0.3020826771653544
 30
0.0
 10
-0.3220708661417323
 20
-0.3020826771653544
 30
0.0
 10
-0.3220708661417323
 20
-0.3020826771653544
 30
0.0
 10
-0.3220708661417323
 20
-0.3020826771653544
 30
0.0
 10
-0.3211023622047244
 20
-0.2706811023622047
 30
0.0
 10
-0.3211023622047244
 20
-0.2706811023622047
 30
0.0
 10
-0.3211023622047244
 20
-0.2706811023622047
 30
0.0
 10
-0.3211023622047244
 20
-0.2706811023622047
 30
0.0
 10
-0.3192362204724409
 20
-0.2409330708661417
 30
0.0
 10
-0.3192362204724409
 20
-0.2409330708661417
 30
0.0
 10
-0.3192362204724409
 20
-0.2409330708661417
 30
0.0
 10
-0.3192362204724409
 20
-0.2409330708661417
 30
0.0
 10
-0.316492125984252
 20
-0.2127834645669292
 30
0.0
 10
-0.316492125984252
 20
-0.2127834645669292
 30
0.0
 10
-0.316492125984252
 20
-0.2127834645669292
 30
0.0
 10
-0.316492125984252
 20
-0.2127834645669292
 30
0.0
 10
-0.3129094488188977
 20
-0.1861889763779528
 30
0.0
 10
-0.3129094488188977
 20
-0.1861889763779528
 30
0.0
 10
-0.3129094488188977
 20
-0.1861889763779528
 30
0.0
 10
-0.3129094488188977
 20
-0.1861889763779528
 30
0.0
 10
-0.308503937007874
 20
-0.1610944881889764
 30
0.0
 10
-0.308503937007874
 20
-0.1610944881889764
 30
0.0
 10
-0.308503937007874
 20
-0.1610944881889764
 30
0.0
 10
-0.308503937007874
 20
-0.1610944881889764
 30
0.0
 10
-0.3033188976377953
 20
-0.1374724409448819
 30
0.0
 10
-0.3033188976377953
 20
-0.1374724409448819
 30
0.0
 10
-0.3033188976377953
 20
-0.1374724409448819
 30
0.0
 10
-0.3033188976377953
 20
-0.1374724409448819
 30
0.0
 10
-0.2973779527559055
 20
-0.1152598425196851
 30
0.0
 10
-0.2973779527559055
 20
-0.1152598425196851
 30
0.0
 10
-0.2973779527559055
 20
-0.1152598425196851
 30
0.0
 10
-0.2973779527559055
 20
-0.1152598425196851
 30
0.0
 10
-0.2907165354330709
 20
-0.0944173228346457
 30
0.0
 10
-0.2907165354330709
 20
-0.0944173228346457
 30
0.0
 10
-0.2907165354330709
 20
-0.0944173228346457
 30
0.0
 10
-0.2907165354330709
 20
-0.0944173228346457
 30
0.0
 10
-0.2833543307086615
 20
-0.0748897637795276
 30
0.0
 10
-0.2833543307086615
 20
-0.0748897637795276
 30
0.0
 10
-0.2833543307086615
 20
-0.0748897637795276
 30
0.0
 10
-0.2833543307086615
 20
-0.0748897637795276
 30
0.0
 10
-0.2753346456692913
 20
-0.0566456692913386
 30
0.0
 10
-0.2753346456692913
 20
-0.0566456692913386
 30
0.0
 10
-0.2753346456692913
 20
-0.0566456692913386
 30
0.0
 10
-0.2753346456692913
 20
-0.0566456692913386
 30
0.0
 10
-0.2666811023622047
 20
-0.0396299212598425
 30
0.0
 10
-0.2666811023622047
 20
-0.0396299212598425
 30
0.0
 10
-0.2666811023622047
 20
-0.0396299212598425
 30
0.0
 10
-0.2666811023622047
 20
-0.0396299212598425
 30
0.0
 10
-0.2574251968503937
 20
-0.0237992125984252
 30
0.0
 10
-0.2574251968503937
 20
-0.0237992125984252
 30
0.0
 10
-0.2574251968503937
 20
-0.0237992125984252
 30
0.0
 10
-0.2574251968503937
 20
-0.0237992125984252
 30
0.0
 10
-0.2475944881889764
 20
-0.0090984251968504
 30
0.0
 10
-0.2475944881889764
 20
-0.0090984251968504
 30
0.0
 10
-0.2475944881889764
 20
-0.0090984251968504
 30
0.0
 10
-0.2475944881889764
 20
-0.0090984251968504
 30
0.0
 10
-0.2372283464566929
 20
0.0045
 30
0.0
 10
-0.2372283464566929
 20
0.0045
 30
0.0
 10
-0.2372283464566929
 20
0.0045
 30
0.0
 10
-0.2372283464566929
 20
0.0045
 30
0.0
 10
-0.2263464566929134
 20
0.0170551181102362
 30
0.0
 10
-0.2263464566929134
 20
0.0170551181102362
 30
0.0
 10
-0.2263464566929134
 20
0.0170551181102362
 30
0.0
 10
-0.2263464566929134
 20
0.0170551181102362
 30
0.0
 10
-0.214988188976378
 20
0.0286220472440945
 30
0.0
 10
-0.214988188976378
 20
0.0286220472440945
 30
0.0
 10
-0.214988188976378
 20
0.0286220472440945
 30
0.0
 10
-0.214988188976378
 20
0.0286220472440945
 30
0.0
 10
-0.2031692913385827
 20
0.0392283464566929
 30
0.0
 10
-0.2031692913385827
 20
0.0392283464566929
 30
0.0
 10
-0.2031692913385827
 20
0.0392283464566929
 30
0.0
 10
-0.2031692913385827
 20
0.0392283464566929
 30
0.0
 10
-0.1909370078740158
 20
0.0489370078740158
 30
0.0
 10
-0.1909370078740158
 20
0.0489370078740158
 30
0.0
 10
-0.1909370078740158
 20
0.0489370078740158
 30
0.0
 10
-0.1909370078740158
 20
0.0489370078740158
 30
0.0
 10
-0.1783110236220473
 20
0.0577834645669291
 30
0.0
 10
-0.1783110236220473
 20
0.0577834645669291
 30
0.0
 10
-0.1783110236220473
 20
0.0577834645669291
 30
0.0
 10
-0.1783110236220473
 20
0.0577834645669291
 30
0.0
 10
-0.1653307086614173
 20
0.0658188976377953
 30
0.0
 10
-0.1653307086614173
 20
0.0658188976377953
 30
0.0
 10
-0.1653307086614173
 20
0.0658188976377953
 30
0.0
 10
-0.1653307086614173
 20
0.0658188976377953
 30
0.0
 10
-0.1520157480314961
 20
0.0730826771653543
 30
0.0
 10
-0.1520157480314961
 20
0.0730826771653543
 30
0.0
 10
-0.1520157480314961
 20
0.0730826771653543
 30
0.0
 10
-0.1520157480314961
 20
0.0730826771653543
 30
0.0
 10
-0.1384055118110236
 20
0.0796299212598425
 30
0.0
 10
-0.1384055118110236
 20
0.0796299212598425
 30
0.0
 10
-0.1384055118110236
 20
0.0796299212598425
 30
0.0
 10
-0.1384055118110236
 20
0.0796299212598425
 30
0.0
 10
-0.1245236220472441
 20
0.085503937007874
 30
0.0
 10
-0.1245236220472441
 20
0.085503937007874
 30
0.0
 10
-0.1245236220472441
 20
0.085503937007874
 30
0.0
 10
-0.1245236220472441
 20
0.085503937007874
 30
0.0
 10
-0.1104133858267717
 20
0.090751968503937
 30
0.0
 10
-0.1104133858267717
 20
0.090751968503937
 30
0.0
 10
-0.1104133858267717
 20
0.090751968503937
 30
0.0
 10
-0.1104133858267717
 20
0.090751968503937
 30
0.0
 10
-0.0960826771653543
 20
0.0954094488188976
 30
0.0
 10
-0.0960826771653543
 20
0.0954094488188976
 30
0.0
 10
-0.0960826771653543
 20
0.0954094488188976
 30
0.0
 10
-0.0960826771653543
 20
0.0954094488188976
 30
0.0
 10
-0.0815826771653543
 20
0.0995393700787402
 30
0.0
 10
-0.0815826771653543
 20
0.0995393700787402
 30
0.0
 10
-0.0815826771653543
 20
0.0995393700787402
 30
0.0
 10
-0.0815826771653543
 20
0.0995393700787402
 30
0.0
 10
-0.0669291338582677
 20
0.1031771653543307
 30
0.0
 10
-0.0669291338582677
 20
0.1031771653543307
 30
0.0
 10
-0.0669291338582677
 20
0.1031771653543307
 30
0.0
 10
-0.0669291338582677
 20
0.1031771653543307
 30
0.0
 10
-0.0521653543307087
 20
0.1063740157480315
 30
0.0
 10
-0.0521653543307087
 20
0.1063740157480315
 30
0.0
 10
-0.0521653543307087
 20
0.1063740157480315
 30
0.0
 10
-0.0521653543307087
 20
0.1063740157480315
 30
0.0
 10
-0.0373070866141732
 20
0.1091692913385827
 30
0.0
 10
-0.0373070866141732
 20
0.1091692913385827
 30
0.0
 10
-0.0373070866141732
 20
0.1091692913385827
 30
0.0
 10
-0.0373070866141732
 20
0.1091692913385827
 30
0.0
 10
-0.0224015748031496
 20
0.1116220472440945
 30
0.0
 10
-0.0224015748031496
 20
0.1116220472440945
 30
0.0
 10
-0.0224015748031496
 20
0.1116220472440945
 30
0.0
 10
-0.0224015748031496
 20
0.1116220472440945
 30
0.0
 10
-0.0074685039370079
 20
0.1137677165354331
 30
0.0
 10
-0.0074685039370079
 20
0.1137677165354331
 30
0.0
 10
-0.0074685039370079
 20
0.1137677165354331
 30
0.0
 10
-0.0074685039370079
 20
0.1137677165354331
 30
0.0
 10
0.0074566929133858
 20
0.1156574803149606
 30
0.0
 10
0.0074566929133858
 20
0.1156574803149606
 30
0.0
 10
0.0074566929133858
 20
0.1156574803149606
 30
0.0
 10
0.0074566929133858
 20
0.1156574803149606
 30
0.0
 10
0.0218503937007874
 20
0.1176732283464567
 30
0.0
 10
0.0218503937007874
 20
0.1176732283464567
 30
0.0
 10
0.0218503937007874
 20
0.1176732283464567
 30
0.0
 10
0.0218503937007874
 20
0.1176732283464567
 30
0.0
 10
0.0352244094488189
 20
0.1201614173228347
 30
0.0
 10
0.0352244094488189
 20
0.1201614173228347
 30
0.0
 10
0.0352244094488189
 20
0.1201614173228347
 30
0.0
 10
0.0352244094488189
 20
0.1201614173228347
 30
0.0
 10
0.0476102362204724
 20
0.1230984251968504
 30
0.0
 10
0.0476102362204724
 20
0.1230984251968504
 30
0.0
 10
0.0476102362204724
 20
0.1230984251968504
 30
0.0
 10
0.0476102362204724
 20
0.1230984251968504
 30
0.0
 10
0.0590511811023622
 20
0.1264645669291339
 30
0.0
 10
0.0590511811023622
 20
0.1264645669291339
 30
0.0
 10
0.0590511811023622
 20
0.1264645669291339
 30
0.0
 10
0.0590511811023622
 20
0.1264645669291339
 30
0.0
 10
0.0695708661417323
 20
0.1302244094488189
 30
0.0
 10
0.0695708661417323
 20
0.1302244094488189
 30
0.0
 10
0.0695708661417323
 20
0.1302244094488189
 30
0.0
 10
0.0695708661417323
 20
0.1302244094488189
 30
0.0
 10
0.0792125984251969
 20
0.1343661417322835
 30
0.0
 10
0.0792125984251969
 20
0.1343661417322835
 30
0.0
 10
0.0792125984251969
 20
0.1343661417322835
 30
0.0
 10
0.0792125984251969
 20
0.1343661417322835
 30
0.0
 10
0.088003937007874
 20
0.1388582677165355
 30
0.0
 10
0.088003937007874
 20
0.1388582677165355
 30
0.0
 10
0.088003937007874
 20
0.1388582677165355
 30
0.0
 10
0.088003937007874
 20
0.1388582677165355
 30
0.0
 10
0.095988188976378
 20
0.1436850393700787
 30
0.0
 10
0.095988188976378
 20
0.1436850393700787
 30
0.0
 10
0.095988188976378
 20
0.1436850393700787
 30
0.0
 10
0.095988188976378
 20
0.1436850393700787
 30
0.0
 10
0.1031850393700787
 20
0.1488070866141733
 30
0.0
 10
0.1031850393700787
 20
0.1488070866141733
 30
0.0
 10
0.1031850393700787
 20
0.1488070866141733
 30
0.0
 10
0.1031850393700787
 20
0.1488070866141733
 30
0.0
 10
0.1096417322834646
 20
0.1542125984251969
 30
0.0
 10
0.1096417322834646
 20
0.1542125984251969
 30
0.0
 10
0.1096417322834646
 20
0.1542125984251969
 30
0.0
 10
0.1096417322834646
 20
0.1542125984251969
 30
0.0
 10
0.1153858267716535
 20
0.1598700787401575
 30
0.0
 10
0.1153858267716535
 20
0.1598700787401575
 30
0.0
 10
0.1153858267716535
 20
0.1598700787401575
 30
0.0
 10
0.1153858267716535
 20
0.1598700787401575
 30
0.0
 10
0.1204606299212599
 20
0.1657677165354331
 30
0.0
 10
0.1204606299212599
 20
0.1657677165354331
 30
0.0
 10
0.1204606299212599
 20
0.1657677165354331
 30
0.0
 10
0.1204606299212599
 20
0.1657677165354331
 30
0.0
 10
0.1248858267716536
 20
0.1718622047244095
 30
0.0
 10
0.1248858267716536
 20
0.1718622047244095
 30
0.0
 10
0.1248858267716536
 20
0.1718622047244095
 30
0.0
 10
0.1248858267716536
 20
0.1718622047244095
 30
0.0
 10
0.1287125984251969
 20
0.1781456692913386
 30
0.0
 10
0.1287125984251969
 20
0.1781456692913386
 30
0.0
 10
0.1287125984251969
 20
0.1781456692913386
 30
0.0
 10
0.1287125984251969
 20
0.1781456692913386
 30
0.0
 10
0.1319645669291339
 20
0.1845826771653543
 30
0.0
 10
0.1319645669291339
 20
0.1845826771653543
 30
0.0
 10
0.1319645669291339
 20
0.1845826771653543
 30
0.0
 10
0.1319645669291339
 20
0.1845826771653543
 30
0.0
 10
0.1346850393700788
 20
0.1911653543307087
 30
0.0
 10
0.1346850393700788
 20
0.1911653543307087
 30
0.0
 10
0.1346850393700788
 20
0.1911653543307087
 30
0.0
 10
0.1346850393700788
 20
0.1911653543307087
 30
0.0
 10
0.1368937007874016
 20
0.1978425196850394
 30
0.0
 10
0.1368937007874016
 20
0.1978425196850394
 30
0.0
 10
0.1368937007874016
 20
0.1978425196850394
 30
0.0
 10
0.1368937007874016
 20
0.1978425196850394
 30
0.0
 10
0.1386377952755906
 20
0.2046141732283465
 30
0.0
 10
0.1386377952755906
 20
0.2046141732283465
 30
0.0
 10
0.1386377952755906
 20
0.2046141732283465
 30
0.0
 10
0.1386377952755906
 20
0.2046141732283465
 30
0.0
 10
0.1399448818897638
 20
0.2114448818897638
 30
0.0
 10
0.1399448818897638
 20
0.2114448818897638
 30
0.0
 10
0.1399448818897638
 20
0.2114448818897638
 30
0.0
 10
0.1399448818897638
 20
0.2114448818897638
 30
0.0
 10
0.1408622047244095
 20
0.2183188976377953
 30
0.0
 10
0.1408622047244095
 20
0.2183188976377953
 30
0.0
 10
0.1408622047244095
 20
0.2183188976377953
 30
0.0
 10
0.1408622047244095
 20
0.2183188976377953
 30
0.0
 10
0.1414055118110236
 20
0.2251968503937008
 30
0.0
 10
0.1414055118110236
 20
0.2251968503937008
 30
0.0
 10
0.1414055118110236
 20
0.2251968503937008
 30
0.0
 10
0.1414055118110236
 20
0.2251968503937008
 30
0.0
 10
0.1416220472440945
 20
0.2320708661417323
 30
0.0
 10
0.1416220472440945
 20
0.2320708661417323
 30
0.0
 10
0.1416220472440945
 20
0.2320708661417323
 30
0.0
 10
0.1416220472440945
 20
0.2320708661417323
 30
0.0
 10
0.1415433070866142
 20
0.2389094488188976
 30
0.0
 10
0.1415433070866142
 20
0.2389094488188976
 30
0.0
 10
0.1415433070866142
 20
0.2389094488188976
 30
0.0
 10
0.1415433070866142
 20
0.2389094488188976
 30
0.0
 10
0.1412047244094488
 20
0.2456929133858268
 30
0.0
 10
0.1412047244094488
 20
0.2456929133858268
 30
0.0
 10
0.1412047244094488
 20
0.2456929133858268
 30
0.0
 10
0.1412047244094488
 20
0.2456929133858268
 30
0.0
 10
0.1406338582677165
 20
0.2523818897637795
 30
0.0
 10
0.1406338582677165
 20
0.2523818897637795
 30
0.0
 10
0.1406338582677165
 20
0.2523818897637795
 30
0.0
 10
0.1406338582677165
 20
0.2523818897637795
 30
0.0
 10
0.1398740157480315
 20
0.2589724409448819
 30
0.0
 10
0.1398740157480315
 20
0.2589724409448819
 30
0.0
 10
0.1398740157480315
 20
0.2589724409448819
 30
0.0
 10
0.1398740157480315
 20
0.2589724409448819
 30
0.0
 10
0.1389566929133858
 20
0.2654251968503937
 30
0.0
 10
0.1389566929133858
 20
0.2654251968503937
 30
0.0
 10
0.1389566929133858
 20
0.2654251968503937
 30
0.0
 10
0.1389566929133858
 20
0.2654251968503937
 30
0.0
 10
0.1379212598425197
 20
0.2717283464566929
 30
0.0
 10
0.1379212598425197
 20
0.2717283464566929
 30
0.0
 10
0.1379212598425197
 20
0.2717283464566929
 30
0.0
 10
0.1379212598425197
 20
0.2717283464566929
 30
0.0
 10
0.1367874015748032
 20
0.2778464566929134
 30
0.0
 10
0.1367874015748032
 20
0.2778464566929134
 30
0.0
 10
0.1367874015748032
 20
0.2778464566929134
 30
0.0
 10
0.1367874015748032
 20
0.2778464566929134
 30
0.0
 10
0.1356062992125984
 20
0.2837637795275591
 30
0.0
 10
0.1356062992125984
 20
0.2837637795275591
 30
0.0
 10
0.1356062992125984
 20
0.2837637795275591
 30
0.0
 10
0.1356062992125984
 20
0.2837637795275591
 30
0.0
 10
0.1344055118110236
 20
0.2894488188976378
 30
0.0
 10
0.1344055118110236
 20
0.2894488188976378
 30
0.0
 10
0.1344055118110236
 20
0.2894488188976378
 30
0.0
 10
0.1344055118110236
 20
0.2894488188976378
 30
0.0
 10
0.1332204724409449
 20
0.2948858267716535
 30
0.0
 10
0.1332204724409449
 20
0.2948858267716535
 30
0.0
  0
SPLINE
  5
A7
100
AcDbEntity
  8
LAYER_1
 62
   253
100
AcDbSpline
210
0.0
220
0.0
230
1.0
 70
     1
 71
     3
 72
    20
 73
    16
 74
     0
 42
0.0000000001
 43
0.0000000001
 40
0.0
 40
0.0
 40
0.0
 40
0.0
 40
0.25
 40
0.25
 40
0.25
 40
0.25
 40
0.5
 40
0.5
 40
0.5
 40
0.5
 40
0.75
 40
0.75
 40
0.75
 40
0.75
 40
1.0
 40
1.0
 40
1.0
 40
1.0
 10
-0.3220708661417323
 20
-0.3020826771653544
 30
0.0
 10
-0.3220708661417323
 20
-0.3020826771653544
 30
0.0
 10
0.3383897637795276
 20
-0.6827874015748032
 30
0.0
 10
0.3383897637795276
 20
-0.6827874015748032
 30
0.0
 10
0.3383897637795276
 20
-0.6827874015748032
 30
0.0
 10
0.3383897637795276
 20
-0.6827874015748032
 30
0.0
 10
-0.0182086614173228
 20
-0.6681023622047244
 30
0.0
 10
-0.0182086614173228
 20
-0.6681023622047244
 30
0.0
 10
-0.0182086614173228
 20
-0.6681023622047244
 30
0.0
 10
-0.0182086614173228
 20
-0.6681023622047244
 30
0.0
 10
-0.6786692913385827
 20
-0.2873976377952756
 30
0.0
 10
-0.6786692913385827
 20
-0.2873976377952756
 30
0.0
 10
-0.6786692913385827
 20
-0.2873976377952756
 30
0.0
 10
-0.6786692913385827
 20
-0.2873976377952756
 30
0.0
 10
-0.3220708661417323
 20
-0.3020826771653544
 30
0.0
 10
-0.3220708661417323
 20
-0.3020826771653544
 30
0.0
  0
SPLINE
  5
A8
100
AcDbEntity
  8
LAYER_1
100
AcDbSpline
210
0.0
220
0.0
230
1.0
 70
     1
 71
     3
 72
    20
 73
    16
 74
     0
 42
0.0000000001
 43
0.0000000001
 40
0.0
 40
0.0
 40
0.0
 40
0.0
 40
0.25
 40
0.25
 40
0.25
 40
0.25
 40
0.5
 40
0.5
 40
0.5
 40
0.5
 40
0.75
 40
0.75
 40
0.75
 40
0.75
 40
1.0
 40
1.0
 40
1.0
 40
1.0
 10
-0.3220708661417323
 20
-0.3020826771653544
 30
0.0
 10
-0.3220708661417323
 20
-0.3020826771653544
 30
0.0
 10
0.3383897637795276
 20
-0.6827874015748032
 30
0.0
 10
0.3383897637795276
 20
-0.6827874015748032
 30
0.0
 10
0.3383897637795276
 20
-0.6827874015748032
 30
0.0
 10
0.3383897637795276
 20
-0.6827874015748032
 30
0.0
 10
-0.0182086614173228
 20
-0.6681023622047244
 30
0.0
 10
-0.0182086614173228
 20
-0.6681023622047244
 30
0.0
 10
-0.0182086614173228
 20
-0.6681023622047244
 30
0.0
 10
-0.0182086614173228
 20
-0.6681023622047244
 30
0.0
 10
-0.6786692913385827
 20
-0.2873976377952756
 30
0.0
 10
-0.6786692913385827
 20
-0.2873976377952756
 30
0.0
 10
-0.6786692913385827
 20
-0.2873976377952756
 30
0.0
 10
-0.6786692913385827
 20
-0.2873976377952756
 30
0.0
 10
-0.3220708661417323
 20
-0.3020826771653544
 30
0.0
 10
-0.3220708661417323
 20
-0.3020826771653544
 30
0.0
  0
SPLINE
  5
A9
100
AcDbEntity
  8
LAYER_1
 62
     7
100
AcDbSpline
210
0.0
220
0.0
230
1.0
 70
     1
 71
     3
 72
    40
 73
    36
 74
     0
 42
0.0000000001
 43
0.0000000001
 40
0.0
 40
0.0
 40
0.0
 40
0.0
 40
0.1111111111111111
 40
0.1111111111111111
 40
0.1111111111111111
 40
0.1111111111111111
 40
0.2222222222222222
 40
0.2222222222222222
 40
0.2222222222222222
 40
0.2222222222222222
 40
0.3333333333333333
 40
0.3333333333333333
 40
0.3333333333333333
 40
0.3333333333333333
 40
0.4444444444444444
 40
0.4444444444444444
 40
0.4444444444444444
 40
0.4444444444444444
 40
0.5555555555555556
 40
0.5555555555555556
 40
0.5555555555555556
 40
0.5555555555555556
 40
0.6666666666666667
 40
0.6666666666666667
 40
0.6666666666666667
 40
0.6666666666666667
 40
0.7777777777777779
 40
0.7777777777777779
 40
0.7777777777777779
 40
0.7777777777777779
 40
0.8888888888888891
 40
0.8888888888888891
 40
0.8888888888888891
 40
0.8888888888888891
 40
1.0
 40
1.0
 40
1.0
 40
1.0
 10
0.7861771653543307
 20
1.6582952755905513
 30
0.0
 10
0.7861771653543307
 20
1.6582952755905513
 30
0.0
 10
1.2929370078740159
 20
1.6874094488188978
 30
0.0
 10
1.2929370078740159
 20
1.6874094488188978
 30
0.0
 10
1.2929370078740159
 20
1.6874094488188978
 30
0.0
 10
1.2929370078740159
 20
1.6874094488188978
 30
0.0
 10
1.2800826771653544
 20
1.3751732283464568
 30
0.0
 10
1.2800826771653544
 20
1.3751732283464568
 30
0.0
 10
1.2800826771653544
 20
1.3751732283464568
 30
0.0
 10
1.2797755905511812
 20
1.3193818897637797
 30
0.0
 10
1.2429370078740158
 20
1.2515944881889765
 30
0.0
 10
1.1856338582677166
 20
1.2554291338582677
 30
0.0
 10
1.1856338582677166
 20
1.2554291338582677
 30
0.0
 10
0.4965669291338583
 20
1.2338700787401575
 30
0.0
 10
0.9781889763779528
 20
0.6674094488188976
 30
0.0
 10
0.1332204724409449
 20
0.2948858267716535
 30
0.0
 10
0.1332204724409449
 20
0.2948858267716535
 30
0.0
 10
0.1456929133858268
 20
0.2383740157480315
 30
0.0
 10
0.1665787401574803
 20
0.1345669291338583
 30
0.0
 10
0.0074566929133858
 20
0.1156574803149606
 30
0.0
 10
0.0074566929133858
 20
0.1156574803149606
 30
0.0
 10
-0.1516692913385827
 20
0.096740157480315
 30
0.0
 10
-0.3167755905511811
 20
0.0417322834645669
 30
0.0
 10
-0.3220708661417323
 20
-0.3020826771653544
 30
0.0
 10
-0.3220708661417323
 20
-0.3020826771653544
 30
0.0
 10
-0.3220708661417323
 20
-0.3020826771653544
 30
0.0
 10
-0.6786692913385827
 20
-0.2873976377952756
 30
0.0
 10
-0.6786692913385827
 20
-0.2873976377952756
 30
0.0
 10
-0.6786692913385827
 20
-0.2873976377952756
 30
0.0
 10
-0.6786692913385827
 20
-0.2873976377952756
 30
0.0
 10
-0.6533976377952756
 20
0.2078622047244094
 30
0.0
 10
-0.6533976377952756
 20
0.2078622047244094
 30
0.0
 10
-0.6533976377952756
 20
0.2078622047244094
 30
0.0
 10
-0.6533976377952756
 20
0.2078622047244094
 30
0.0
 10
0.7861771653543307
 20
1.6582952755905513
 30
0.0
 10
0.7861771653543307
 20
1.6582952755905513
 30
0.0
  0
TEXT
  5
AA
100
AcDbEntity
  8
LAYER_1
100
AcDbText
 10
0.852205
 20
-0.45898
 30
0.0
 40
0.119999
  1
BA  1624
 51
-0.000002
  7
BOOKMAN_OLD_STYLE
100
AcDbText
  0
TEXT
  5
AB
100
AcDbEntity
  8
LAYER_1
100
AcDbText
 10
0.568831
 20
-0.64648
 30
0.0
 40
0.119999
  1
11/16\u+201d x 2-3/4\u+201d
 51
-0.000002
  7
BOOKMAN_OLD_STYLE
100
AcDbText
  0
TEXT
  5
AC
100
AcDbEntity
  8
LAYER_1
100
AcDbText
 10
-0.39528
 20
2.97752
 30
0.0
 40
0.119999
  1
44 Degrees
 51
-0.000002
  7
BOOKMAN_OLD_STYLE
100
AcDbText
  0
TEXT
  5
AD
100
AcDbEntity
  8
LAYER_1
100
AcDbText
 10
-0.39528
 20
2.79002
 30
0.0
 40
0.119999
  1
Knives 1626A & B
 51
-0.000002
  7
BOOKMAN_OLD_STYLE
100
AcDbText
  0
TEXT
  5
AE
100
AcDbEntity
  8
LAYER_1
100
AcDbText
 10
-0.344661
 20
-1.494469
 30
0.0
 40
0.119999
  1
44 Degrees
 51
-0.000002
  7
BOOKMAN_OLD_STYLE
100
AcDbText
  0
TEXT
  5
AF
100
AcDbEntity
  8
LAYER_1
100
AcDbText
 10
-0.344661
 20
-1.681969
 30
0.0
 40
0.119999
  1
Knives 1626A & B
 51
-0.000002
  7
BOOKMAN_OLD_STYLE
100
AcDbText
  0
ENDSEC
  0
SECTION
  2
OBJECTS
  0
DICTIONARY
  5
19
100
AcDbDictionary
  3
ACAD_GROUP
350
1A
  3
ACAD_MLINESTYLE
350
1B
  0
DICTIONARY
  5
1A
102
{ACAD_REACTORS
330
19
102
}
100
AcDbDictionary
  0
DICTIONARY
  5
1B
102
{ACAD_REACTORS
330
19
102
}
100
AcDbDictionary
  3
STANDARD
350
1C
  0
MLINESTYLE
  5
1C
102
{ACAD_REACTORS
330
1B
102
}
100
AcDbMlineStyle
  2
STANDARD
 70
     0
  3

 62
     0
 51
90.0
 52
90.0
 71
     2
 49
0.5
 62
   256
  6
BYLAYER
 49
-0.5
 62
   256
  6
BYLAYER
  0
DICTIONARY
  5
22
102
{ACAD_REACTORS
330
19
102
}
100
AcDbDictionary
  0
ENDSEC
  0
EOF
