  0
SECTION
  2
HEADER
  9
$ACADVER
  1
AC1015
  9
$ACADMAINTVER
 70
     6
  9
$DWGCODEPAGE
  3
DOS850
  9
$INSBASE
 10
0.0
 20
0.0
 30
0.0
  9
$EXTMIN
 10
-1.518988
 20
-1.962091
 30
1.000000E+20
  9
$EXTMAX
 10
2.129181
 20
4.396835
 30
-1.000000E+20
  9
$LIMMIN
 10
0.0
 20
0.0
  9
$LIMMAX
 10
0.0
 20
0.0
  9
$ORTHOMODE
 70
     0
  9
$REGENMODE
 70
     1
  9
$FILLMODE
 70
     1
  9
$QTEXTMODE
 70
     0
  9
$MIRRTEXT
 70
     1
  9
$LTSCALE
 40
1.0
  9
$ATTMODE
 70
     1
  9
$TEXTSIZE
 40
0.2
  9
$TRACEWID
 40
0.05
  9
$TEXTSTYLE
  7
Standard
  9
$CLAYER
  8
0
  9
$CELTYPE
  6
Continuous
  9
$CECOLOR
 62
   256
  9
$CELTSCALE
 40
1.0
  9
$DISPSILH
 70
     0
  9
$DIMSCALE
 40
1.0
  9
$DIMASZ
 40
0.18
  9
$DIMEXO
 40
0.0625
  9
$DIMDLI
 40
0.38
  9
$DIMRND
 40
0.0
  9
$DIMDLE
 40
0.0
  9
$DIMEXE
 40
0.18
  9
$DIMTP
 40
0.0
  9
$DIMTM
 40
0.0
  9
$DIMTXT
 40
0.18
  9
$DIMCEN
 40
0.09
  9
$DIMTSZ
 40
0.0
  9
$DIMTOL
 70
     0
  9
$DIMLIM
 70
     0
  9
$DIMTIH
 70
     1
  9
$DIMTOH
 70
     1
  9
$DIMSE1
 70
     0
  9
$DIMSE2
 70
     0
  9
$DIMTAD
 70
     0
  9
$DIMZIN
 70
     0
  9
$DIMBLK
  1

  9
$DIMASO
 70
     1
  9
$DIMSHO
 70
     1
  9
$DIMPOST
  1

  9
$DIMAPOST
  1

  9
$DIMALT
 70
     0
  9
$DIMALTD
 70
     2
  9
$DIMALTF
 40
25.4
  9
$DIMLFAC
 40
1.0
  9
$DIMTOFL
 70
     0
  9
$DIMTVP
 40
0.0
  9
$DIMTIX
 70
     0
  9
$DIMSOXD
 70
     0
  9
$DIMSAH
 70
     0
  9
$DIMBLK1
  1

  9
$DIMBLK2
  1

  9
$DIMSTYLE
  2
Standard
  9
$DIMCLRD
 70
     0
  9
$DIMCLRE
 70
     0
  9
$DIMCLRT
 70
     0
  9
$DIMTFAC
 40
1.0
  9
$DIMGAP
 40
0.09
  9
$DIMJUST
 70
     0
  9
$DIMSD1
 70
     0
  9
$DIMSD2
 70
     0
  9
$DIMTOLJ
 70
     1
  9
$DIMTZIN
 70
     0
  9
$DIMALTZ
 70
     0
  9
$DIMALTTZ
 70
     0
  9
$DIMUPT
 70
     0
  9
$DIMDEC
 70
     4
  9
$DIMTDEC
 70
     4
  9
$DIMALTU
 70
     2
  9
$DIMALTTD
 70
     2
  9
$DIMTXSTY
  7
Standard
  9
$DIMAUNIT
 70
     0
  9
$DIMADEC
 70
     0
  9
$DIMALTRND
 40
0.0
  9
$DIMAZIN
 70
     0
  9
$DIMDSEP
 70
     0
  9
$DIMATFIT
 70
     3
  9
$DIMFRAC
 70
     0
  9
$DIMLDRBLK
  1

  9
$DIMLUNIT
 70
     2
  9
$DIMLWD
 70
     0
  9
$DIMLWE
 70
     0
  9
$DIMTMOVE
 70
     0
  9
$LUNITS
 70
     2
  9
$LUPREC
 70
     4
  9
$SKETCHINC
 40
0.1
  9
$FILLETRAD
 40
0.0
  9
$AUNITS
 70
     0
  9
$AUPREC
 70
     0
  9
$MENU
  1
acad
  9
$ELEVATION
 40
0.0
  9
$PELEVATION
 40
0.0
  9
$THICKNESS
 40
0.0
  9
$LIMCHECK
 70
     0
  9
$CHAMFERA
 40
0.0
  9
$CHAMFERB
 40
0.0
  9
$CHAMFERC
 40
0.0
  9
$CHAMFERD
 40
0.0
  9
$SKPOLY
 70
     0
  9
$TDCREATE
 40
0.000000000
  9
$TDUCREATE
 40
0.000000000
  9
$TDUPDATE
 40
0.000000000
  9
$TDUUPDATE
 40
0.000000000
  9
$TDINDWG
 40
0.0000000000
  9
$TDUSRTIMER
 40
0.0000000000
  9
$USRTIMER
 70
     1
  9
$ANGBASE
 50
0.0
  9
$ANGDIR
 70
     0
  9
$PDMODE
 70
     0
  9
$PDSIZE
 40
0.0
  9
$PLINEWID
 40
0.0
  9
$SPLFRAME
 70
     0
  9
$SPLINETYPE
 70
     6
  9
$SPLINESEGS
 70
     8
  9
$HANDSEED
  5
8E
  9
$SURFTAB1
 70
     6
  9
$SURFTAB2
 70
     6
  9
$SURFTYPE
 70
     6
  9
$SURFU
 70
     6
  9
$SURFV
 70
     6
  9
$UCSBASE
  2

  9
$UCSNAME
  2

  9
$UCSORG
 10
0.0
 20
0.0
 30
0.0
  9
$UCSXDIR
 10
1.0
 20
0.0
 30
0.0
  9
$UCSYDIR
 10
0.0
 20
1.0
 30
0.0
  9
$UCSORTHOREF
  2

  9
$UCSORTHOVIEW
 70
     0
  9
$UCSORGTOP
 10
0.0
 20
0.0
 30
0.0
  9
$UCSORGBOTTOM
 10
0.0
 20
0.0
 30
0.0
  9
$UCSORGLEFT
 10
0.0
 20
0.0
 30
0.0
  9
$UCSORGRIGHT
 10
0.0
 20
0.0
 30
0.0
  9
$UCSORGFRONT
 10
0.0
 20
0.0
 30
0.0
  9
$UCSORGBACK
 10
0.0
 20
0.0
 30
0.0
  9
$PUCSBASE
  2

  9
$PUCSNAME
  2

  9
$PUCSORG
 10
0.0
 20
0.0
 30
0.0
  9
$PUCSXDIR
 10
1.0
 20
0.0
 30
0.0
  9
$PUCSYDIR
 10
0.0
 20
1.0
 30
0.0
  9
$PUCSORTHOREF
  2

  9
$PUCSORTHOVIEW
 70
     0
  9
$PUCSORGTOP
 10
0.0
 20
0.0
 30
0.0
  9
$PUCSORGBOTTOM
 10
0.0
 20
0.0
 30
0.0
  9
$PUCSORGLEFT
 10
0.0
 20
0.0
 30
0.0
  9
$PUCSORGRIGHT
 10
0.0
 20
0.0
 30
0.0
  9
$PUCSORGFRONT
 10
0.0
 20
0.0
 30
0.0
  9
$PUCSORGBACK
 10
0.0
 20
0.0
 30
0.0
  9
$USERI1
 70
     0
  9
$USERI2
 70
     0
  9
$USERI3
 70
     0
  9
$USERI4
 70
     0
  9
$USERI5
 70
     0
  9
$USERR1
 40
0.0
  9
$USERR2
 40
0.0
  9
$USERR3
 40
0.0
  9
$USERR4
 40
0.0
  9
$USERR5
 40
0.0
  9
$WORLDVIEW
 70
     1
  9
$SHADEDGE
 70
     3
  9
$SHADEDIF
 70
    70
  9
$TILEMODE
 70
     1
  9
$MAXACTVP
 70
    16
  9
$PINSBASE
 10
0.0
 20
0.0
 30
0.0
  9
$PLIMCHECK
 70
     0
  9
$PEXTMIN
 10
1.000000E+20
 20
1.000000E+20
 30
1.000000E+20
  9
$PEXTMAX
 10
-1.000000E+20
 20
-1.000000E+20
 30
-1.000000E+20
  9
$PLIMMIN
 10
0.0
 20
0.0
  9
$PLIMMAX
 10
12.0
 20
9.0
  9
$UNITMODE
 70
     0
  9
$VISRETAIN
 70
     0
  9
$PLINEGEN
 70
     1
  9
$PSLTSCALE
 70
     0
  9
$TREEDEPTH
 70
  3020
  9
$CMLSTYLE
  2
Standard
  9
$CMLJUST
 70
     0
  9
$CMLSCALE
 40
1.0
  9
$PROXYGRAPHICS
 70
     0
  9
$MEASUREMENT
 70
     0
  9
$CELWEIGHT
370
     0
  9
$ENDCAPS
280
     0
  9
$JOINSTYLE
280
     0
  9
$LWDISPLAY
290
     0
  9
$INSUNITS
 70
     1
  9
$HYPERLINKBASE
  1

  9
$XEDIT
290
     1
  9
$CEPSNTYPE
380
     0
  9
$PSTYLEMODE
290
     1
  9
$FINGERPRINTGUID
  2

  9
$VERSIONGUID
  2

  9
$EXTNAMES
290
     1
  9
$PSVPSCALE
 40
0.0
  0
ENDSEC
  0
SECTION
  2
CLASSES
  0
CLASS
  1
LWPOLYLINE
  2
AcDbPolyline
  3
AutoCAD 2000
 90
    32768
280
     0
281
     1
  0
CLASS
  1
IMAGE
  2
AcDbRasterImage
  3
ISM
 90
    32895
280
     0
281
     1
  0
CLASS
  1
OLE2FRAME
  2
AcDbOle2Frame
  3
AutoCAD 2000
 90
    32768
280
     0
281
     1
  0
CLASS
  1
HATCH
  2
AcDbHatch
  3
AutoCAD 2000
 90
    32768
280
     0
281
     1
  0
CLASS
  1
DICTIONARYVAR
  2
AcDbDictionaryVar
  3
AutoCAD 2000
 90
    32768
280
     0
281
     0
  0
CLASS
  1
RASTERVARIABLES
  2
AcDbRasterVariables
  3
ISM
 90
    32768
280
     0
281
     0
  0
CLASS
  1
IMAGEDEF
  2
AcDbRasterImageDef
  3
ISM
 90
    32768
280
     0
281
     0
  0
CLASS
  1
IMAGEDEF_REACTOR
  2
AcDbRasterImageDefReactor
  3
ISM
 90
    32769
280
     0
281
     0
  0
CLASS
  1
IDBUFFER
  2
AcDbIdBuffer
  3
AutoCAD 2000
 90
    32768
280
     0
281
     0
  0
CLASS
  1
SPATIAL_FILTER
  2
AcDbSpatialFilter
  3
AutoCAD 2000
 90
    32768
280
     0
281
     0
  0
CLASS
  1
XRECORD
  2
AcDbXrecord
  3
AutoCAD 2000
 90
    32768
280
     0
281
     0
  0
CLASS
  1
SORTENTSTABLE
  2
AcDbSortentsTable
  3
AutoCAD 2000
 90
    32768
280
     0
281
     0
  0
CLASS
  1
LAYER_INDEX
  2
AcDbLayerIndex
  3
AutoCAD 2000
 90
    32768
280
     0
281
     0
  0
CLASS
  1
SPATIAL_INDEX
  2
AcDbSpatialIndex
  3
AutoCAD 2000
 90
    32768
280
     0
281
     0
  0
CLASS
  1
OBJECT_PTR
  2
CAseDLPNTableRecord
  3
"ASE-LPNTableRecord"
 90
    32769
280
     0
281
     0
  0
CLASS
  1
LAYOUT
  2
AcDbLayout
  3
AutoCAD 2000
 90
        0
280
     0
281
     0
  0
CLASS
  1
PLOTSETTINGS
  2
AcDbPlotSettings
  3
AutoCAD 2000
 90
    32768
280
     0
281
     0
  0
CLASS
  1
ACDBDICTIONARYWDFLT
  2
AcDbDictionaryWithDefault
  3
AutoCAD 2000
 90
        0
280
     0
281
     0
  0
CLASS
  1
ACDBPLACEHOLDER
  2
AcDbPlaceHolder
  3
AutoCAD 2000
 90
        0
280
     0
281
     0
  0
CLASS
  1
VBA_PROJECT
  2
AcDbVbaProject
  3
acadvba
 90
    32768
280
     0
281
     0
  0
CLASS
  1
WIPEOUT
  2
AcDbWipeout
  3
WipeOut|AutoCAD Express Tool|expresstools@autodesk.com
 90
    32895
280
     0
281
     1
  0
CLASS
  1
WIPEOUTVARIABLES
  2
AcDbWipeoutVariables
  3
WipeOut|AutoCAD Express Tool|expresstools@autodesk.com
 90
        0
280
     0
281
     0
  0
CLASS
  1
RTEXT
  2
RText
  3
RText|AutoCAD Express Tool|expresstools@autodesk.com
 90
    32768
280
     0
281
     1
  0
CLASS
  1
ARCALIGNEDTEXT
  2
AcDbArcAlignedText
  3
ATEXT|AutoCAD Express Tool|expresstools@autodesk.com
 90
    32768
280
     0
281
     1
  0
ENDSEC
  0
SECTION
  2
TABLES
  0
TABLE
  2
VPORT
  5
7
100
AcDbSymbolTable
 70
     1
  0
VPORT
  5
15
100
AcDbSymbolTableRecord
100
AcDbViewportTableRecord
  2
*ACTIVE
 70
     0
 10
0.0
 20
0.0
 11
1.0
 21
1.0
 12
6.591288
 22
4.579184
 13
0.0
 23
0.0
 14
1.0
 24
1.0
 15
0.0
 25
0.0
 16
0.0
 26
0.0
 36
1.0
 17
0.0
 27
0.0
 37
0.0
 40
9.158369
 41
0.688564
 42
50.0
 43
0.0
 44
0.0
 50
0.0
 51
0.0
 71
     0
 72
   100
 73
     1
 74
     1
 75
     0
 76
     0
 77
     0
 78
     0
281
     0
 65
     0
110
0.0
120
0.0
130
0.0
111
1.0
121
0.0
131
0.0
112
0.0
122
1.0
132
0.0
345
0
346
0
 79
     0
146
0.0
  0
ENDTAB
  0
TABLE
  2
LTYPE
  5
4
100
AcDbSymbolTable
 70
     3
  0
LTYPE
  5
11
100
AcDbSymbolTableRecord
100
AcDbLinetypeTableRecord
  2
ByBlock
 70
    64
  3

 72
    65
 73
     0
 40
0.0
  0
LTYPE
  5
12
100
AcDbSymbolTableRecord
100
AcDbLinetypeTableRecord
  2
ByLayer
 70
    64
  3

 72
    65
 73
     0
 40
0.0
  0
LTYPE
  5
13
100
AcDbSymbolTableRecord
100
AcDbLinetypeTableRecord
  2
Continuous
 70
    64
  3
Solid line
 72
    65
 73
     0
 40
0.0
  0
ENDTAB
  0
TABLE
  2
LAYER
  5
2
100
AcDbSymbolTable
 70
     2
  0
LAYER
  5
14
100
AcDbSymbolTableRecord
100
AcDbLayerTableRecord
  2
0
 70
     0
 62
     7
  6
Continuous
290
     1
370
    -3
390
1D
  0
LAYER
  5
24
100
AcDbSymbolTableRecord
100
AcDbLayerTableRecord
  2
Layer 1
 70
     0
 62
     7
  6
Continuous
290
     1
370
    -3
390
1F
  0
ENDTAB
  0
TABLE
  2
STYLE
  5
3
100
AcDbSymbolTable
 70
     2
  0
STYLE
  5
17
100
AcDbSymbolTableRecord
100
AcDbTextStyleTableRecord
  2
Standard
 70
     0
 40
0.0
 41
1.0
 50
0.0
 71
     0
 42
0.0
  3
txt
  4

  0
STYLE
  5
26
100
AcDbSymbolTableRecord
100
AcDbTextStyleTableRecord
  2
Bookman Old Style
 70
     0
 40
1.0
 41
1.0
 50
0.0
 71
     0
 42
1.0
  3
Bookman Old Style
  4

  0
ENDTAB
  0
TABLE
  2
VIEW
  5
5
100
AcDbSymbolTable
 70
     0
  0
ENDTAB
  0
TABLE
  2
UCS
  5
6
100
AcDbSymbolTable
 70
     0
  0
ENDTAB
  0
TABLE
  2
APPID
  5
8
100
AcDbSymbolTable
 70
     1
  0
APPID
  5
16
100
AcDbSymbolTableRecord
100
AcDbRegAppTableRecord
  2
ACAD
 70
     0
  0
ENDTAB
  0
TABLE
  2
DIMSTYLE
  5
9
100
AcDbSymbolTable
 70
     1
100
AcDbDimStyleTable
 71
     0
  0
DIMSTYLE
105
18
100
AcDbSymbolTableRecord
100
AcDbDimStyleTableRecord
  2
Standard
 70
     0
  3

  4

 40
1.0
 41
0.18
 42
0.0625
 43
0.38
 44
0.18
 45
0.0
 46
0.0
 47
0.0
 48
0.0
 71
     0
 72
     0
 73
     1
 74
     1
 75
     0
 76
     0
 77
     0
 78
     0
 79
     0
140
0.18
141
0.09
142
0.0
143
25.4
144
1.0
145
0.0
146
1.0
147
0.09
148
0.0
170
     0
171
     2
172
     0
173
     0
174
     0
175
     0
176
     0
177
     0
178
     0
179
     0
271
     4
272
     4
273
     2
274
     2
275
     0
276
     0
277
     2
278
    46
279
     0
280
     0
281
     0
282
     0
283
     1
284
     0
285
     0
286
     0
288
     0
340
17
341
0
342
0
343
0
344
0
371
    -2
372
    -2
  0
ENDTAB
  0
TABLE
  2
BLOCK_RECORD
  5
1
100
AcDbSymbolTable
 70
     0
  0
BLOCK_RECORD
  5
A
100
AcDbSymbolTableRecord
100
AcDbBlockTableRecord
  2
*MODEL_SPACE
340
20
  0
BLOCK_RECORD
  5
B
100
AcDbSymbolTableRecord
100
AcDbBlockTableRecord
  2
*PAPER_SPACE
340
21
  0
ENDTAB
  0
ENDSEC
  0
SECTION
  2
BLOCKS
  0
BLOCK
  5
D
100
AcDbEntity
  8
0
100
AcDbBlockBegin
  2
*MODEL_SPACE
 70
     0
 10
0.0
 20
0.0
 30
0.0
  3
*MODEL_SPACE
  1

  0
ENDBLK
  5
E
100
AcDbEntity
  8
0
100
AcDbBlockEnd
  0
BLOCK
  5
F
100
AcDbEntity
 67
     1
  8
0
100
AcDbBlockBegin
  2
*PAPER_SPACE
 70
     0
 10
0.0
 20
0.0
 30
0.0
  3
*PAPER_SPACE
  1

  0
ENDBLK
  5
10
100
AcDbEntity
 67
     1
  8
0
100
AcDbBlockEnd
  0
ENDSEC
  0
SECTION
  2
ENTITIES
  0
SPLINE
  5
25
100
AcDbEntity
  8
Layer 1
370
     5
100
AcDbSpline
210
0.0
220
0.0
230
1.0
 70
     1
 71
     3
 72
    36
 73
    32
 74
     0
 42
0.0000000001
 43
0.0000000001
 40
0.0
 40
0.0
 40
0.0
 40
0.0
 40
0.125
 40
0.125
 40
0.125
 40
0.125
 40
0.25
 40
0.25
 40
0.25
 40
0.25
 40
0.375
 40
0.375
 40
0.375
 40
0.375
 40
0.5
 40
0.5
 40
0.5
 40
0.5
 40
0.625
 40
0.625
 40
0.625
 40
0.625
 40
0.75
 40
0.75
 40
0.75
 40
0.75
 40
0.875
 40
0.875
 40
0.875
 40
0.875
 40
1.0
 40
1.0
 40
1.0
 40
1.0
 10
-1.469220472440945
 20
2.5203346456692914
 30
0.0
 10
-1.469220472440945
 20
2.5203346456692914
 30
0.0
 10
-1.469220472440945
 20
3.0203346456692914
 30
0.0
 10
-1.469220472440945
 20
3.0203346456692914
 30
0.0
 10
-1.469220472440945
 20
3.0203346456692914
 30
0.0
 10
-1.469220472440945
 20
3.0203346456692914
 30
0.0
 10
-0.9692244094488189
 20
3.0203346456692914
 30
0.0
 10
-0.9692244094488189
 20
3.0203346456692914
 30
0.0
 10
-0.9692244094488189
 20
3.0203346456692914
 30
0.0
 10
-0.9692244094488189
 20
3.0203346456692914
 30
0.0
 10
-0.9692244094488189
 20
3.3328307086614175
 30
0.0
 10
-0.9692244094488189
 20
3.3328307086614175
 30
0.0
 10
-0.9692244094488189
 20
3.3328307086614175
 30
0.0
 10
-0.9692244094488189
 20
3.9195354330708665
 30
0.0
 10
-0.4934251968503937
 20
4.3953346456692914
 30
0.0
 10
0.0932795275590551
 20
4.3953346456692914
 30
0.0
 10
0.0932795275590551
 20
4.3953346456692914
 30
0.0
 10
0.6158031496062992
 20
4.3953346456692914
 30
0.0
 10
1.0503700787401575
 20
4.0179251968503937
 30
0.0
 10
1.1391811023622047
 20
3.5208818897637797
 30
0.0
 10
1.1391811023622047
 20
3.5208818897637797
 30
0.0
 10
1.1391811023622047
 20
3.5208818897637797
 30
0.0
 10
1.5307755905511811
 20
3.5203307086614175
 30
0.0
 10
1.5307755905511811
 20
3.5203307086614175
 30
0.0
 10
1.5307755905511811
 20
3.5203307086614175
 30
0.0
 10
1.5307755905511811
 20
3.5203307086614175
 30
0.0
 10
1.5307755905511811
 20
2.5203346456692914
 30
0.0
 10
1.5307755905511811
 20
2.5203346456692914
 30
0.0
 10
1.5307755905511811
 20
2.5203346456692914
 30
0.0
 10
1.5307755905511811
 20
2.5203346456692914
 30
0.0
 10
-1.469220472440945
 20
2.5203346456692914
 30
0.0
 10
-1.469220472440945
 20
2.5203346456692914
 30
0.0
  0
TEXT
  5
27
100
AcDbEntity
  8
Layer 1
100
AcDbText
 10
-0.218024
 20
1.734941
 30
0.0
 40
0.119999
  1
BA  1556
 51
-0.000002
  7
Bookman Old Style
100
AcDbText
  0
TEXT
  5
28
100
AcDbEntity
  8
Layer 1
100
AcDbText
 10
-0.296343
 20
1.547441
 30
0.0
 40
0.119999
  1
1-7/8\u+201d x 3\u+201d
 51
-0.000002
  7
Bookman Old Style
100
AcDbText
  0
SPLINE
  5
29
100
AcDbEntity
  8
Layer 1
 62
   253
100
AcDbSpline
210
0.0
220
0.0
230
1.0
 70
     1
 71
     3
 72
    20
 73
    16
 74
     0
 42
0.0000000001
 43
0.0000000001
 40
0.0
 40
0.0
 40
0.0
 40
0.0
 40
0.25
 40
0.25
 40
0.25
 40
0.25
 40
0.5
 40
0.5
 40
0.5
 40
0.5
 40
0.75
 40
0.75
 40
0.75
 40
0.75
 40
1.0
 40
1.0
 40
1.0
 40
1.0
 10
-1.517488188976378
 20
-1.028267716535433
 30
0.0
 10
-1.517488188976378
 20
-1.028267716535433
 30
0.0
 10
-0.8723149606299213
 20
-0.646728346456693
 30
0.0
 10
-0.8723149606299213
 20
-0.646728346456693
 30
0.0
 10
-0.8723149606299213
 20
-0.646728346456693
 30
0.0
 10
-0.8723149606299213
 20
-0.646728346456693
 30
0.0
 10
-0.3723188976377953
 20
-0.646728346456693
 30
0.0
 10
-0.3723188976377953
 20
-0.646728346456693
 30
0.0
 10
-0.3723188976377953
 20
-0.646728346456693
 30
0.0
 10
-0.3723188976377953
 20
-0.646728346456693
 30
0.0
 10
-1.017492125984252
 20
-1.028267716535433
 30
0.0
 10
-1.017492125984252
 20
-1.028267716535433
 30
0.0
 10
-1.017492125984252
 20
-1.028267716535433
 30
0.0
 10
-1.017492125984252
 20
-1.028267716535433
 30
0.0
 10
-1.517488188976378
 20
-1.028267716535433
 30
0.0
 10
-1.517488188976378
 20
-1.028267716535433
 30
0.0
  0
SPLINE
  5
2A
100
AcDbEntity
  8
Layer 1
370
     5
100
AcDbSpline
210
0.0
220
0.0
230
1.0
 70
     1
 71
     3
 72
    20
 73
    16
 74
     0
 42
0.0000000001
 43
0.0000000001
 40
0.0
 40
0.0
 40
0.0
 40
0.0
 40
0.25
 40
0.25
 40
0.25
 40
0.25
 40
0.5
 40
0.5
 40
0.5
 40
0.5
 40
0.75
 40
0.75
 40
0.75
 40
0.75
 40
1.0
 40
1.0
 40
1.0
 40
1.0
 10
-1.517488188976378
 20
-1.028267716535433
 30
0.0
 10
-1.517488188976378
 20
-1.028267716535433
 30
0.0
 10
-0.8723149606299213
 20
-0.646728346456693
 30
0.0
 10
-0.8723149606299213
 20
-0.646728346456693
 30
0.0
 10
-0.8723149606299213
 20
-0.646728346456693
 30
0.0
 10
-0.8723149606299213
 20
-0.646728346456693
 30
0.0
 10
-0.3723188976377953
 20
-0.646728346456693
 30
0.0
 10
-0.3723188976377953
 20
-0.646728346456693
 30
0.0
 10
-0.3723188976377953
 20
-0.646728346456693
 30
0.0
 10
-0.3723188976377953
 20
-0.646728346456693
 30
0.0
 10
-1.017492125984252
 20
-1.028267716535433
 30
0.0
 10
-1.017492125984252
 20
-1.028267716535433
 30
0.0
 10
-1.017492125984252
 20
-1.028267716535433
 30
0.0
 10
-1.017492125984252
 20
-1.028267716535433
 30
0.0
 10
-1.517488188976378
 20
-1.028267716535433
 30
0.0
 10
-1.517488188976378
 20
-1.028267716535433
 30
0.0
  0
SPLINE
  5
2B
100
AcDbEntity
  8
Layer 1
100
AcDbSpline
210
0.0
220
0.0
230
1.0
 70
     1
 71
     3
 72
    20
 73
    16
 74
     0
 42
0.0000000001
 43
0.0000000001
 40
0.0
 40
0.0
 40
0.0
 40
0.0
 40
0.25
 40
0.25
 40
0.25
 40
0.25
 40
0.5
 40
0.5
 40
0.5
 40
0.5
 40
0.75
 40
0.75
 40
0.75
 40
0.75
 40
1.0
 40
1.0
 40
1.0
 40
1.0
 10
-0.4613858267716536
 20
0.2184645669291339
 30
0.0
 10
-0.4613858267716536
 20
0.2184645669291339
 30
0.0
 10
0.1837874015748032
 20
0.600003937007874
 30
0.0
 10
0.1837874015748032
 20
0.600003937007874
 30
0.0
 10
0.1837874015748032
 20
0.600003937007874
 30
0.0
 10
0.1837874015748032
 20
0.600003937007874
 30
0.0
 10
0.2296023622047244
 20
0.623472440944882
 30
0.0
 10
0.2296023622047244
 20
0.623472440944882
 30
0.0
 10
0.2296023622047244
 20
0.623472440944882
 30
0.0
 10
0.2296023622047244
 20
0.623472440944882
 30
0.0
 10
-0.4155708661417323
 20
0.2419330708661417
 30
0.0
 10
-0.4155708661417323
 20
0.2419330708661417
 30
0.0
 10
-0.4155708661417323
 20
0.2419330708661417
 30
0.0
 10
-0.4155708661417323
 20
0.2419330708661417
 30
0.0
 10
-0.4613858267716536
 20
0.2184645669291339
 30
0.0
 10
-0.4613858267716536
 20
0.2184645669291339
 30
0.0
  0
SPLINE
  5
2C
100
AcDbEntity
  8
Layer 1
100
AcDbSpline
210
0.0
220
0.0
230
1.0
 70
     1
 71
     3
 72
    20
 73
    16
 74
     0
 42
0.0000000001
 43
0.0000000001
 40
0.0
 40
0.0
 40
0.0
 40
0.0
 40
0.25
 40
0.25
 40
0.25
 40
0.25
 40
0.5
 40
0.5
 40
0.5
 40
0.5
 40
0.75
 40
0.75
 40
0.75
 40
0.75
 40
1.0
 40
1.0
 40
1.0
 40
1.0
 10
-0.4155708661417323
 20
0.2419330708661417
 30
0.0
 10
-0.4155708661417323
 20
0.2419330708661417
 30
0.0
 10
0.2296023622047244
 20
0.623472440944882
 30
0.0
 10
0.2296023622047244
 20
0.623472440944882
 30
0.0
 10
0.2296023622047244
 20
0.623472440944882
 30
0.0
 10
0.2296023622047244
 20
0.623472440944882
 30
0.0
 10
0.2766574803149606
 20
0.6447559055118111
 30
0.0
 10
0.2766574803149606
 20
0.6447559055118111
 30
0.0
 10
0.2766574803149606
 20
0.6447559055118111
 30
0.0
 10
0.2766574803149606
 20
0.6447559055118111
 30
0.0
 10
-0.3685157480314961
 20
0.2632165354330709
 30
0.0
 10
-0.3685157480314961
 20
0.2632165354330709
 30
0.0
 10
-0.3685157480314961
 20
0.2632165354330709
 30
0.0
 10
-0.3685157480314961
 20
0.2632165354330709
 30
0.0
 10
-0.4155708661417323
 20
0.2419330708661417
 30
0.0
 10
-0.4155708661417323
 20
0.2419330708661417
 30
0.0
  0
SPLINE
  5
2D
100
AcDbEntity
  8
Layer 1
100
AcDbSpline
210
0.0
220
0.0
230
1.0
 70
     1
 71
     3
 72
    20
 73
    16
 74
     0
 42
0.0000000001
 43
0.0000000001
 40
0.0
 40
0.0
 40
0.0
 40
0.0
 40
0.25
 40
0.25
 40
0.25
 40
0.25
 40
0.5
 40
0.5
 40
0.5
 40
0.5
 40
0.75
 40
0.75
 40
0.75
 40
0.75
 40
1.0
 40
1.0
 40
1.0
 40
1.0
 10
-0.3685157480314961
 20
0.2632165354330709
 30
0.0
 10
-0.3685157480314961
 20
0.2632165354330709
 30
0.0
 10
0.2766574803149606
 20
0.6447559055118111
 30
0.0
 10
0.2766574803149606
 20
0.6447559055118111
 30
0.0
 10
0.2766574803149606
 20
0.6447559055118111
 30
0.0
 10
0.2766574803149606
 20
0.6447559055118111
 30
0.0
 10
0.3249094488188977
 20
0.6637755905511812
 30
0.0
 10
0.3249094488188977
 20
0.6637755905511812
 30
0.0
 10
0.3249094488188977
 20
0.6637755905511812
 30
0.0
 10
0.3249094488188977
 20
0.6637755905511812
 30
0.0
 10
-0.3202637795275591
 20
0.282236220472441
 30
0.0
 10
-0.3202637795275591
 20
0.282236220472441
 30
0.0
 10
-0.3202637795275591
 20
0.282236220472441
 30
0.0
 10
-0.3202637795275591
 20
0.282236220472441
 30
0.0
 10
-0.3685157480314961
 20
0.2632165354330709
 30
0.0
 10
-0.3685157480314961
 20
0.2632165354330709
 30
0.0
  0
SPLINE
  5
2E
100
AcDbEntity
  8
Layer 1
 62
   119
100
AcDbSpline
210
0.0
220
0.0
230
1.0
 70
     1
 71
     3
 72
    20
 73
    16
 74
     0
 42
0.0000000001
 43
0.0000000001
 40
0.0
 40
0.0
 40
0.0
 40
0.0
 40
0.25
 40
0.25
 40
0.25
 40
0.25
 40
0.5
 40
0.5
 40
0.5
 40
0.5
 40
0.75
 40
0.75
 40
0.75
 40
0.75
 40
1.0
 40
1.0
 40
1.0
 40
1.0
 10
-0.3202637795275591
 20
0.282236220472441
 30
0.0
 10
-0.3202637795275591
 20
0.282236220472441
 30
0.0
 10
0.3249094488188977
 20
0.6637755905511812
 30
0.0
 10
0.3249094488188977
 20
0.6637755905511812
 30
0.0
 10
0.3249094488188977
 20
0.6637755905511812
 30
0.0
 10
0.3249094488188977
 20
0.6637755905511812
 30
0.0
 10
0.3742755905511811
 20
0.680488188976378
 30
0.0
 10
0.3742755905511811
 20
0.680488188976378
 30
0.0
 10
0.3742755905511811
 20
0.680488188976378
 30
0.0
 10
0.3742755905511811
 20
0.680488188976378
 30
0.0
 10
-0.2708976377952756
 20
0.2989488188976378
 30
0.0
 10
-0.2708976377952756
 20
0.2989488188976378
 30
0.0
 10
-0.2708976377952756
 20
0.2989488188976378
 30
0.0
 10
-0.2708976377952756
 20
0.2989488188976378
 30
0.0
 10
-0.3202637795275591
 20
0.282236220472441
 30
0.0
 10
-0.3202637795275591
 20
0.282236220472441
 30
0.0
  0
SPLINE
  5
2F
100
AcDbEntity
  8
Layer 1
 62
   139
100
AcDbSpline
210
0.0
220
0.0
230
1.0
 70
     1
 71
     3
 72
    20
 73
    16
 74
     0
 42
0.0000000001
 43
0.0000000001
 40
0.0
 40
0.0
 40
0.0
 40
0.0
 40
0.25
 40
0.25
 40
0.25
 40
0.25
 40
0.5
 40
0.5
 40
0.5
 40
0.5
 40
0.75
 40
0.75
 40
0.75
 40
0.75
 40
1.0
 40
1.0
 40
1.0
 40
1.0
 10
-0.2708976377952756
 20
0.2989488188976378
 30
0.0
 10
-0.2708976377952756
 20
0.2989488188976378
 30
0.0
 10
0.3742755905511811
 20
0.680488188976378
 30
0.0
 10
0.3742755905511811
 20
0.680488188976378
 30
0.0
 10
0.3742755905511811
 20
0.680488188976378
 30
0.0
 10
0.3742755905511811
 20
0.680488188976378
 30
0.0
 10
0.4246929133858268
 20
0.6948070866141732
 30
0.0
 10
0.4246929133858268
 20
0.6948070866141732
 30
0.0
 10
0.4246929133858268
 20
0.6948070866141732
 30
0.0
 10
0.4246929133858268
 20
0.6948070866141732
 30
0.0
 10
-0.2204803149606299
 20
0.3132677165354331
 30
0.0
 10
-0.2204803149606299
 20
0.3132677165354331
 30
0.0
 10
-0.2204803149606299
 20
0.3132677165354331
 30
0.0
 10
-0.2204803149606299
 20
0.3132677165354331
 30
0.0
 10
-0.2708976377952756
 20
0.2989488188976378
 30
0.0
 10
-0.2708976377952756
 20
0.2989488188976378
 30
0.0
  0
SPLINE
  5
30
100
AcDbEntity
  8
Layer 1
 62
   251
100
AcDbSpline
210
0.0
220
0.0
230
1.0
 70
     1
 71
     3
 72
    20
 73
    16
 74
     0
 42
0.0000000001
 43
0.0000000001
 40
0.0
 40
0.0
 40
0.0
 40
0.0
 40
0.25
 40
0.25
 40
0.25
 40
0.25
 40
0.5
 40
0.5
 40
0.5
 40
0.5
 40
0.75
 40
0.75
 40
0.75
 40
0.75
 40
1.0
 40
1.0
 40
1.0
 40
1.0
 10
-0.2204803149606299
 20
0.3132677165354331
 30
0.0
 10
-0.2204803149606299
 20
0.3132677165354331
 30
0.0
 10
0.4246929133858268
 20
0.6948070866141732
 30
0.0
 10
0.4246929133858268
 20
0.6948070866141732
 30
0.0
 10
0.4246929133858268
 20
0.6948070866141732
 30
0.0
 10
0.4246929133858268
 20
0.6948070866141732
 30
0.0
 10
0.4760905511811024
 20
0.7066771653543308
 30
0.0
 10
0.4760905511811024
 20
0.7066771653543308
 30
0.0
 10
0.4760905511811024
 20
0.7066771653543308
 30
0.0
 10
0.4760905511811024
 20
0.7066771653543308
 30
0.0
 10
-0.1690826771653543
 20
0.3251377952755906
 30
0.0
 10
-0.1690826771653543
 20
0.3251377952755906
 30
0.0
 10
-0.1690826771653543
 20
0.3251377952755906
 30
0.0
 10
-0.1690826771653543
 20
0.3251377952755906
 30
0.0
 10
-0.2204803149606299
 20
0.3132677165354331
 30
0.0
 10
-0.2204803149606299
 20
0.3132677165354331
 30
0.0
  0
SPLINE
  5
31
100
AcDbEntity
  8
Layer 1
 62
     8
100
AcDbSpline
210
0.0
220
0.0
230
1.0
 70
     1
 71
     3
 72
    20
 73
    16
 74
     0
 42
0.0000000001
 43
0.0000000001
 40
0.0
 40
0.0
 40
0.0
 40
0.0
 40
0.25
 40
0.25
 40
0.25
 40
0.25
 40
0.5
 40
0.5
 40
0.5
 40
0.5
 40
0.75
 40
0.75
 40
0.75
 40
0.75
 40
1.0
 40
1.0
 40
1.0
 40
1.0
 10
-0.1690826771653543
 20
0.3251377952755906
 30
0.0
 10
-0.1690826771653543
 20
0.3251377952755906
 30
0.0
 10
0.4760905511811024
 20
0.7066771653543308
 30
0.0
 10
0.4760905511811024
 20
0.7066771653543308
 30
0.0
 10
0.4760905511811024
 20
0.7066771653543308
 30
0.0
 10
0.4760905511811024
 20
0.7066771653543308
 30
0.0
 10
0.5284133858267717
 20
0.7160196850393701
 30
0.0
 10
0.5284133858267717
 20
0.7160196850393701
 30
0.0
 10
0.5284133858267717
 20
0.7160196850393701
 30
0.0
 10
0.5284133858267717
 20
0.7160196850393701
 30
0.0
 10
-0.1167598425196851
 20
0.3344803149606299
 30
0.0
 10
-0.1167598425196851
 20
0.3344803149606299
 30
0.0
 10
-0.1167598425196851
 20
0.3344803149606299
 30
0.0
 10
-0.1167598425196851
 20
0.3344803149606299
 30
0.0
 10
-0.1690826771653543
 20
0.3251377952755906
 30
0.0
 10
-0.1690826771653543
 20
0.3251377952755906
 30
0.0
  0
SPLINE
  5
32
100
AcDbEntity
  8
Layer 1
 62
   252
100
AcDbSpline
210
0.0
220
0.0
230
1.0
 70
     1
 71
     3
 72
    20
 73
    16
 74
     0
 42
0.0000000001
 43
0.0000000001
 40
0.0
 40
0.0
 40
0.0
 40
0.0
 40
0.25
 40
0.25
 40
0.25
 40
0.25
 40
0.5
 40
0.5
 40
0.5
 40
0.5
 40
0.75
 40
0.75
 40
0.75
 40
0.75
 40
1.0
 40
1.0
 40
1.0
 40
1.0
 10
-0.1167598425196851
 20
0.3344803149606299
 30
0.0
 10
-0.1167598425196851
 20
0.3344803149606299
 30
0.0
 10
0.5284133858267717
 20
0.7160196850393701
 30
0.0
 10
0.5284133858267717
 20
0.7160196850393701
 30
0.0
 10
0.5284133858267717
 20
0.7160196850393701
 30
0.0
 10
0.5284133858267717
 20
0.7160196850393701
 30
0.0
 10
0.5815748031496063
 20
0.7227795275590552
 30
0.0
 10
0.5815748031496063
 20
0.7227795275590552
 30
0.0
 10
0.5815748031496063
 20
0.7227795275590552
 30
0.0
 10
0.5815748031496063
 20
0.7227795275590552
 30
0.0
 10
-0.0635984251968504
 20
0.341240157480315
 30
0.0
 10
-0.0635984251968504
 20
0.341240157480315
 30
0.0
 10
-0.0635984251968504
 20
0.341240157480315
 30
0.0
 10
-0.0635984251968504
 20
0.341240157480315
 30
0.0
 10
-0.1167598425196851
 20
0.3344803149606299
 30
0.0
 10
-0.1167598425196851
 20
0.3344803149606299
 30
0.0
  0
SPLINE
  5
33
100
AcDbEntity
  8
Layer 1
 62
   252
100
AcDbSpline
210
0.0
220
0.0
230
1.0
 70
     1
 71
     3
 72
    20
 73
    16
 74
     0
 42
0.0000000001
 43
0.0000000001
 40
0.0
 40
0.0
 40
0.0
 40
0.0
 40
0.25
 40
0.25
 40
0.25
 40
0.25
 40
0.5
 40
0.5
 40
0.5
 40
0.5
 40
0.75
 40
0.75
 40
0.75
 40
0.75
 40
1.0
 40
1.0
 40
1.0
 40
1.0
 10
-0.0635984251968504
 20
0.341240157480315
 30
0.0
 10
-0.0635984251968504
 20
0.341240157480315
 30
0.0
 10
0.5815748031496063
 20
0.7227795275590552
 30
0.0
 10
0.5815748031496063
 20
0.7227795275590552
 30
0.0
 10
0.5815748031496063
 20
0.7227795275590552
 30
0.0
 10
0.5815748031496063
 20
0.7227795275590552
 30
0.0
 10
0.6355236220472441
 20
0.7268818897637795
 30
0.0
 10
0.6355236220472441
 20
0.7268818897637795
 30
0.0
 10
0.6355236220472441
 20
0.7268818897637795
 30
0.0
 10
0.6355236220472441
 20
0.7268818897637795
 30
0.0
 10
-0.0096496062992126
 20
0.3453425196850394
 30
0.0
 10
-0.0096496062992126
 20
0.3453425196850394
 30
0.0
 10
-0.0096496062992126
 20
0.3453425196850394
 30
0.0
 10
-0.0096496062992126
 20
0.3453425196850394
 30
0.0
 10
-0.0635984251968504
 20
0.341240157480315
 30
0.0
 10
-0.0635984251968504
 20
0.341240157480315
 30
0.0
  0
SPLINE
  5
34
100
AcDbEntity
  8
Layer 1
 62
   253
100
AcDbSpline
210
0.0
220
0.0
230
1.0
 70
     1
 71
     3
 72
    20
 73
    16
 74
     0
 42
0.0000000001
 43
0.0000000001
 40
0.0
 40
0.0
 40
0.0
 40
0.0
 40
0.25
 40
0.25
 40
0.25
 40
0.25
 40
0.5
 40
0.5
 40
0.5
 40
0.5
 40
0.75
 40
0.75
 40
0.75
 40
0.75
 40
1.0
 40
1.0
 40
1.0
 40
1.0
 10
-0.0096496062992126
 20
0.3453425196850394
 30
0.0
 10
-0.0096496062992126
 20
0.3453425196850394
 30
0.0
 10
0.6355236220472441
 20
0.7268818897637795
 30
0.0
 10
0.6355236220472441
 20
0.7268818897637795
 30
0.0
 10
0.6355236220472441
 20
0.7268818897637795
 30
0.0
 10
0.6355236220472441
 20
0.7268818897637795
 30
0.0
 10
0.6901850393700788
 20
0.7282716535433071
 30
0.0
 10
0.6901850393700788
 20
0.7282716535433071
 30
0.0
 10
0.6901850393700788
 20
0.7282716535433071
 30
0.0
 10
0.6901850393700788
 20
0.7282716535433071
 30
0.0
 10
0.045011811023622
 20
0.3467322834645669
 30
0.0
 10
0.045011811023622
 20
0.3467322834645669
 30
0.0
 10
0.045011811023622
 20
0.3467322834645669
 30
0.0
 10
0.045011811023622
 20
0.3467322834645669
 30
0.0
 10
-0.0096496062992126
 20
0.3453425196850394
 30
0.0
 10
-0.0096496062992126
 20
0.3453425196850394
 30
0.0
  0
SPLINE
  5
35
100
AcDbEntity
  8
Layer 1
 62
   253
100
AcDbSpline
210
0.0
220
0.0
230
1.0
 70
     1
 71
     3
 72
    20
 73
    16
 74
     0
 42
0.0000000001
 43
0.0000000001
 40
0.0
 40
0.0
 40
0.0
 40
0.0
 40
0.25
 40
0.25
 40
0.25
 40
0.25
 40
0.5
 40
0.5
 40
0.5
 40
0.5
 40
0.75
 40
0.75
 40
0.75
 40
0.75
 40
1.0
 40
1.0
 40
1.0
 40
1.0
 10
0.045011811023622
 20
0.3467322834645669
 30
0.0
 10
0.045011811023622
 20
0.3467322834645669
 30
0.0
 10
0.6901850393700788
 20
0.7282716535433071
 30
0.0
 10
0.6901850393700788
 20
0.7282716535433071
 30
0.0
 10
0.6901850393700788
 20
0.7282716535433071
 30
0.0
 10
0.6901850393700788
 20
0.7282716535433071
 30
0.0
 10
0.7389015748031497
 20
0.7271692913385827
 30
0.0
 10
0.7389015748031497
 20
0.7271692913385827
 30
0.0
 10
0.7389015748031497
 20
0.7271692913385827
 30
0.0
 10
0.7389015748031497
 20
0.7271692913385827
 30
0.0
 10
0.0937283464566929
 20
0.3456299212598425
 30
0.0
 10
0.0937283464566929
 20
0.3456299212598425
 30
0.0
 10
0.0937283464566929
 20
0.3456299212598425
 30
0.0
 10
0.0937283464566929
 20
0.3456299212598425
 30
0.0
 10
0.045011811023622
 20
0.3467322834645669
 30
0.0
 10
0.045011811023622
 20
0.3467322834645669
 30
0.0
  0
SPLINE
  5
36
100
AcDbEntity
  8
Layer 1
 62
   253
100
AcDbSpline
210
0.0
220
0.0
230
1.0
 70
     1
 71
     3
 72
    20
 73
    16
 74
     0
 42
0.0000000001
 43
0.0000000001
 40
0.0
 40
0.0
 40
0.0
 40
0.0
 40
0.25
 40
0.25
 40
0.25
 40
0.25
 40
0.5
 40
0.5
 40
0.5
 40
0.5
 40
0.75
 40
0.75
 40
0.75
 40
0.75
 40
1.0
 40
1.0
 40
1.0
 40
1.0
 10
0.0937283464566929
 20
0.3456299212598425
 30
0.0
 10
0.0937283464566929
 20
0.3456299212598425
 30
0.0
 10
0.7389015748031497
 20
0.7271692913385827
 30
0.0
 10
0.7389015748031497
 20
0.7271692913385827
 30
0.0
 10
0.7389015748031497
 20
0.7271692913385827
 30
0.0
 10
0.7389015748031497
 20
0.7271692913385827
 30
0.0
 10
0.7870590551181103
 20
0.7239094488188976
 30
0.0
 10
0.7870590551181103
 20
0.7239094488188976
 30
0.0
 10
0.7870590551181103
 20
0.7239094488188976
 30
0.0
 10
0.7870590551181103
 20
0.7239094488188976
 30
0.0
 10
0.1418858267716535
 20
0.3423700787401575
 30
0.0
 10
0.1418858267716535
 20
0.3423700787401575
 30
0.0
 10
0.1418858267716535
 20
0.3423700787401575
 30
0.0
 10
0.1418858267716535
 20
0.3423700787401575
 30
0.0
 10
0.0937283464566929
 20
0.3456299212598425
 30
0.0
 10
0.0937283464566929
 20
0.3456299212598425
 30
0.0
  0
SPLINE
  5
37
100
AcDbEntity
  8
Layer 1
 62
   253
100
AcDbSpline
210
0.0
220
0.0
230
1.0
 70
     1
 71
     3
 72
    20
 73
    16
 74
     0
 42
0.0000000001
 43
0.0000000001
 40
0.0
 40
0.0
 40
0.0
 40
0.0
 40
0.25
 40
0.25
 40
0.25
 40
0.25
 40
0.5
 40
0.5
 40
0.5
 40
0.5
 40
0.75
 40
0.75
 40
0.75
 40
0.75
 40
1.0
 40
1.0
 40
1.0
 40
1.0
 10
0.1418858267716535
 20
0.3423700787401575
 30
0.0
 10
0.1418858267716535
 20
0.3423700787401575
 30
0.0
 10
0.7870590551181103
 20
0.7239094488188976
 30
0.0
 10
0.7870590551181103
 20
0.7239094488188976
 30
0.0
 10
0.7870590551181103
 20
0.7239094488188976
 30
0.0
 10
0.7870590551181103
 20
0.7239094488188976
 30
0.0
 10
0.8346062992125984
 20
0.7185275590551181
 30
0.0
 10
0.8346062992125984
 20
0.7185275590551181
 30
0.0
 10
0.8346062992125984
 20
0.7185275590551181
 30
0.0
 10
0.8346062992125984
 20
0.7185275590551181
 30
0.0
 10
0.1894330708661418
 20
0.3369881889763779
 30
0.0
 10
0.1894330708661418
 20
0.3369881889763779
 30
0.0
 10
0.1894330708661418
 20
0.3369881889763779
 30
0.0
 10
0.1894330708661418
 20
0.3369881889763779
 30
0.0
 10
0.1418858267716535
 20
0.3423700787401575
 30
0.0
 10
0.1418858267716535
 20
0.3423700787401575
 30
0.0
  0
SPLINE
  5
38
100
AcDbEntity
  8
Layer 1
 62
   253
100
AcDbSpline
210
0.0
220
0.0
230
1.0
 70
     1
 71
     3
 72
    20
 73
    16
 74
     0
 42
0.0000000001
 43
0.0000000001
 40
0.0
 40
0.0
 40
0.0
 40
0.0
 40
0.25
 40
0.25
 40
0.25
 40
0.25
 40
0.5
 40
0.5
 40
0.5
 40
0.5
 40
0.75
 40
0.75
 40
0.75
 40
0.75
 40
1.0
 40
1.0
 40
1.0
 40
1.0
 10
0.1894330708661418
 20
0.3369881889763779
 30
0.0
 10
0.1894330708661418
 20
0.3369881889763779
 30
0.0
 10
0.8346062992125984
 20
0.7185275590551181
 30
0.0
 10
0.8346062992125984
 20
0.7185275590551181
 30
0.0
 10
0.8346062992125984
 20
0.7185275590551181
 30
0.0
 10
0.8346062992125984
 20
0.7185275590551181
 30
0.0
 10
0.8815000000000001
 20
0.7110826771653543
 30
0.0
 10
0.8815000000000001
 20
0.7110826771653543
 30
0.0
 10
0.8815000000000001
 20
0.7110826771653543
 30
0.0
 10
0.8815000000000001
 20
0.7110826771653543
 30
0.0
 10
0.2363267716535433
 20
0.3295433070866142
 30
0.0
 10
0.2363267716535433
 20
0.3295433070866142
 30
0.0
 10
0.2363267716535433
 20
0.3295433070866142
 30
0.0
 10
0.2363267716535433
 20
0.3295433070866142
 30
0.0
 10
0.1894330708661418
 20
0.3369881889763779
 30
0.0
 10
0.1894330708661418
 20
0.3369881889763779
 30
0.0
  0
SPLINE
  5
39
100
AcDbEntity
  8
Layer 1
 62
   253
100
AcDbSpline
210
0.0
220
0.0
230
1.0
 70
     1
 71
     3
 72
    20
 73
    16
 74
     0
 42
0.0000000001
 43
0.0000000001
 40
0.0
 40
0.0
 40
0.0
 40
0.0
 40
0.25
 40
0.25
 40
0.25
 40
0.25
 40
0.5
 40
0.5
 40
0.5
 40
0.5
 40
0.75
 40
0.75
 40
0.75
 40
0.75
 40
1.0
 40
1.0
 40
1.0
 40
1.0
 10
0.2363267716535433
 20
0.3295433070866142
 30
0.0
 10
0.2363267716535433
 20
0.3295433070866142
 30
0.0
 10
0.8815000000000001
 20
0.7110826771653543
 30
0.0
 10
0.8815000000000001
 20
0.7110826771653543
 30
0.0
 10
0.8815000000000001
 20
0.7110826771653543
 30
0.0
 10
0.8815000000000001
 20
0.7110826771653543
 30
0.0
 10
0.9276850393700787
 20
0.7016062992125984
 30
0.0
 10
0.9276850393700787
 20
0.7016062992125984
 30
0.0
 10
0.9276850393700787
 20
0.7016062992125984
 30
0.0
 10
0.9276850393700787
 20
0.7016062992125984
 30
0.0
 10
0.2825118110236221
 20
0.3200669291338583
 30
0.0
 10
0.2825118110236221
 20
0.3200669291338583
 30
0.0
 10
0.2825118110236221
 20
0.3200669291338583
 30
0.0
 10
0.2825118110236221
 20
0.3200669291338583
 30
0.0
 10
0.2363267716535433
 20
0.3295433070866142
 30
0.0
 10
0.2363267716535433
 20
0.3295433070866142
 30
0.0
  0
SPLINE
  5
3A
100
AcDbEntity
  8
Layer 1
 62
   253
100
AcDbSpline
210
0.0
220
0.0
230
1.0
 70
     1
 71
     3
 72
    20
 73
    16
 74
     0
 42
0.0000000001
 43
0.0000000001
 40
0.0
 40
0.0
 40
0.0
 40
0.0
 40
0.25
 40
0.25
 40
0.25
 40
0.25
 40
0.5
 40
0.5
 40
0.5
 40
0.5
 40
0.75
 40
0.75
 40
0.75
 40
0.75
 40
1.0
 40
1.0
 40
1.0
 40
1.0
 10
0.2825118110236221
 20
0.3200669291338583
 30
0.0
 10
0.2825118110236221
 20
0.3200669291338583
 30
0.0
 10
0.9276850393700787
 20
0.7016062992125984
 30
0.0
 10
0.9276850393700787
 20
0.7016062992125984
 30
0.0
 10
0.9276850393700787
 20
0.7016062992125984
 30
0.0
 10
0.9276850393700787
 20
0.7016062992125984
 30
0.0
 10
0.9731181102362205
 20
0.6901614173228347
 30
0.0
 10
0.9731181102362205
 20
0.6901614173228347
 30
0.0
 10
0.9731181102362205
 20
0.6901614173228347
 30
0.0
 10
0.9731181102362205
 20
0.6901614173228347
 30
0.0
 10
0.3279448818897638
 20
0.3086220472440945
 30
0.0
 10
0.3279448818897638
 20
0.3086220472440945
 30
0.0
 10
0.3279448818897638
 20
0.3086220472440945
 30
0.0
 10
0.3279448818897638
 20
0.3086220472440945
 30
0.0
 10
0.2825118110236221
 20
0.3200669291338583
 30
0.0
 10
0.2825118110236221
 20
0.3200669291338583
 30
0.0
  0
SPLINE
  5
3B
100
AcDbEntity
  8
Layer 1
 62
   253
100
AcDbSpline
210
0.0
220
0.0
230
1.0
 70
     1
 71
     3
 72
    20
 73
    16
 74
     0
 42
0.0000000001
 43
0.0000000001
 40
0.0
 40
0.0
 40
0.0
 40
0.0
 40
0.25
 40
0.25
 40
0.25
 40
0.25
 40
0.5
 40
0.5
 40
0.5
 40
0.5
 40
0.75
 40
0.75
 40
0.75
 40
0.75
 40
1.0
 40
1.0
 40
1.0
 40
1.0
 10
0.3279448818897638
 20
0.3086220472440945
 30
0.0
 10
0.3279448818897638
 20
0.3086220472440945
 30
0.0
 10
0.9731181102362205
 20
0.6901614173228347
 30
0.0
 10
0.9731181102362205
 20
0.6901614173228347
 30
0.0
 10
0.9731181102362205
 20
0.6901614173228347
 30
0.0
 10
0.9731181102362205
 20
0.6901614173228347
 30
0.0
 10
1.0177559055118111
 20
0.6767834645669292
 30
0.0
 10
1.0177559055118111
 20
0.6767834645669292
 30
0.0
 10
1.0177559055118111
 20
0.6767834645669292
 30
0.0
 10
1.0177559055118111
 20
0.6767834645669292
 30
0.0
 10
0.3725826771653544
 20
0.295244094488189
 30
0.0
 10
0.3725826771653544
 20
0.295244094488189
 30
0.0
 10
0.3725826771653544
 20
0.295244094488189
 30
0.0
 10
0.3725826771653544
 20
0.295244094488189
 30
0.0
 10
0.3279448818897638
 20
0.3086220472440945
 30
0.0
 10
0.3279448818897638
 20
0.3086220472440945
 30
0.0
  0
SPLINE
  5
3C
100
AcDbEntity
  8
Layer 1
 62
   253
100
AcDbSpline
210
0.0
220
0.0
230
1.0
 70
     1
 71
     3
 72
    20
 73
    16
 74
     0
 42
0.0000000001
 43
0.0000000001
 40
0.0
 40
0.0
 40
0.0
 40
0.0
 40
0.25
 40
0.25
 40
0.25
 40
0.25
 40
0.5
 40
0.5
 40
0.5
 40
0.5
 40
0.75
 40
0.75
 40
0.75
 40
0.75
 40
1.0
 40
1.0
 40
1.0
 40
1.0
 10
0.3725826771653544
 20
0.295244094488189
 30
0.0
 10
0.3725826771653544
 20
0.295244094488189
 30
0.0
 10
1.0177559055118111
 20
0.6767834645669292
 30
0.0
 10
1.0177559055118111
 20
0.6767834645669292
 30
0.0
 10
1.0177559055118111
 20
0.6767834645669292
 30
0.0
 10
1.0177559055118111
 20
0.6767834645669292
 30
0.0
 10
1.0615511811023624
 20
0.6615314960629921
 30
0.0
 10
1.0615511811023624
 20
0.6615314960629921
 30
0.0
 10
1.0615511811023624
 20
0.6615314960629921
 30
0.0
 10
1.0615511811023624
 20
0.6615314960629921
 30
0.0
 10
0.4163779527559055
 20
0.279992125984252
 30
0.0
 10
0.4163779527559055
 20
0.279992125984252
 30
0.0
 10
0.4163779527559055
 20
0.279992125984252
 30
0.0
 10
0.4163779527559055
 20
0.279992125984252
 30
0.0
 10
0.3725826771653544
 20
0.295244094488189
 30
0.0
 10
0.3725826771653544
 20
0.295244094488189
 30
0.0
  0
SPLINE
  5
3D
100
AcDbEntity
  8
Layer 1
 62
   253
100
AcDbSpline
210
0.0
220
0.0
230
1.0
 70
     1
 71
     3
 72
    20
 73
    16
 74
     0
 42
0.0000000001
 43
0.0000000001
 40
0.0
 40
0.0
 40
0.0
 40
0.0
 40
0.25
 40
0.25
 40
0.25
 40
0.25
 40
0.5
 40
0.5
 40
0.5
 40
0.5
 40
0.75
 40
0.75
 40
0.75
 40
0.75
 40
1.0
 40
1.0
 40
1.0
 40
1.0
 10
0.4163779527559055
 20
0.279992125984252
 30
0.0
 10
0.4163779527559055
 20
0.279992125984252
 30
0.0
 10
1.0615511811023624
 20
0.6615314960629921
 30
0.0
 10
1.0615511811023624
 20
0.6615314960629921
 30
0.0
 10
1.0615511811023624
 20
0.6615314960629921
 30
0.0
 10
1.0615511811023624
 20
0.6615314960629921
 30
0.0
 10
1.1044448818897639
 20
0.6444370078740158
 30
0.0
 10
1.1044448818897639
 20
0.6444370078740158
 30
0.0
 10
1.1044448818897639
 20
0.6444370078740158
 30
0.0
 10
1.1044448818897639
 20
0.6444370078740158
 30
0.0
 10
0.4592716535433071
 20
0.2628976377952756
 30
0.0
 10
0.4592716535433071
 20
0.2628976377952756
 30
0.0
 10
0.4592716535433071
 20
0.2628976377952756
 30
0.0
 10
0.4592716535433071
 20
0.2628976377952756
 30
0.0
 10
0.4163779527559055
 20
0.279992125984252
 30
0.0
 10
0.4163779527559055
 20
0.279992125984252
 30
0.0
  0
SPLINE
  5
3E
100
AcDbEntity
  8
Layer 1
 62
   253
100
AcDbSpline
210
0.0
220
0.0
230
1.0
 70
     1
 71
     3
 72
    20
 73
    16
 74
     0
 42
0.0000000001
 43
0.0000000001
 40
0.0
 40
0.0
 40
0.0
 40
0.0
 40
0.25
 40
0.25
 40
0.25
 40
0.25
 40
0.5
 40
0.5
 40
0.5
 40
0.5
 40
0.75
 40
0.75
 40
0.75
 40
0.75
 40
1.0
 40
1.0
 40
1.0
 40
1.0
 10
0.4592716535433071
 20
0.2628976377952756
 30
0.0
 10
0.4592716535433071
 20
0.2628976377952756
 30
0.0
 10
1.1044448818897639
 20
0.6444370078740158
 30
0.0
 10
1.1044448818897639
 20
0.6444370078740158
 30
0.0
 10
1.1044448818897639
 20
0.6444370078740158
 30
0.0
 10
1.1044448818897639
 20
0.6444370078740158
 30
0.0
 10
1.1464015748031497
 20
0.6255629921259843
 30
0.0
 10
1.1464015748031497
 20
0.6255629921259843
 30
0.0
 10
1.1464015748031497
 20
0.6255629921259843
 30
0.0
 10
1.1464015748031497
 20
0.6255629921259843
 30
0.0
 10
0.5012283464566929
 20
0.2440236220472441
 30
0.0
 10
0.5012283464566929
 20
0.2440236220472441
 30
0.0
 10
0.5012283464566929
 20
0.2440236220472441
 30
0.0
 10
0.5012283464566929
 20
0.2440236220472441
 30
0.0
 10
0.4592716535433071
 20
0.2628976377952756
 30
0.0
 10
0.4592716535433071
 20
0.2628976377952756
 30
0.0
  0
SPLINE
  5
3F
100
AcDbEntity
  8
Layer 1
 62
   253
100
AcDbSpline
210
0.0
220
0.0
230
1.0
 70
     1
 71
     3
 72
    20
 73
    16
 74
     0
 42
0.0000000001
 43
0.0000000001
 40
0.0
 40
0.0
 40
0.0
 40
0.0
 40
0.25
 40
0.25
 40
0.25
 40
0.25
 40
0.5
 40
0.5
 40
0.5
 40
0.5
 40
0.75
 40
0.75
 40
0.75
 40
0.75
 40
1.0
 40
1.0
 40
1.0
 40
1.0
 10
0.5012283464566929
 20
0.2440236220472441
 30
0.0
 10
0.5012283464566929
 20
0.2440236220472441
 30
0.0
 10
1.1464015748031497
 20
0.6255629921259843
 30
0.0
 10
1.1464015748031497
 20
0.6255629921259843
 30
0.0
 10
1.1464015748031497
 20
0.6255629921259843
 30
0.0
 10
1.1464015748031497
 20
0.6255629921259843
 30
0.0
 10
1.1873740157480315
 20
0.6049448818897638
 30
0.0
 10
1.1873740157480315
 20
0.6049448818897638
 30
0.0
 10
1.1873740157480315
 20
0.6049448818897638
 30
0.0
 10
1.1873740157480315
 20
0.6049448818897638
 30
0.0
 10
0.5422007874015749
 20
0.2234055118110236
 30
0.0
 10
0.5422007874015749
 20
0.2234055118110236
 30
0.0
 10
0.5422007874015749
 20
0.2234055118110236
 30
0.0
 10
0.5422007874015749
 20
0.2234055118110236
 30
0.0
 10
0.5012283464566929
 20
0.2440236220472441
 30
0.0
 10
0.5012283464566929
 20
0.2440236220472441
 30
0.0
  0
SPLINE
  5
40
100
AcDbEntity
  8
Layer 1
 62
     9
100
AcDbSpline
210
0.0
220
0.0
230
1.0
 70
     1
 71
     3
 72
    20
 73
    16
 74
     0
 42
0.0000000001
 43
0.0000000001
 40
0.0
 40
0.0
 40
0.0
 40
0.0
 40
0.25
 40
0.25
 40
0.25
 40
0.25
 40
0.5
 40
0.5
 40
0.5
 40
0.5
 40
0.75
 40
0.75
 40
0.75
 40
0.75
 40
1.0
 40
1.0
 40
1.0
 40
1.0
 10
0.5422007874015749
 20
0.2234055118110236
 30
0.0
 10
0.5422007874015749
 20
0.2234055118110236
 30
0.0
 10
1.1873740157480315
 20
0.6049448818897638
 30
0.0
 10
1.1873740157480315
 20
0.6049448818897638
 30
0.0
 10
1.1873740157480315
 20
0.6049448818897638
 30
0.0
 10
1.1873740157480315
 20
0.6049448818897638
 30
0.0
 10
1.2273149606299214
 20
0.5826417322834646
 30
0.0
 10
1.2273149606299214
 20
0.5826417322834646
 30
0.0
 10
1.2273149606299214
 20
0.5826417322834646
 30
0.0
 10
1.2273149606299214
 20
0.5826417322834646
 30
0.0
 10
0.5821417322834646
 20
0.2011023622047244
 30
0.0
 10
0.5821417322834646
 20
0.2011023622047244
 30
0.0
 10
0.5821417322834646
 20
0.2011023622047244
 30
0.0
 10
0.5821417322834646
 20
0.2011023622047244
 30
0.0
 10
0.5422007874015749
 20
0.2234055118110236
 30
0.0
 10
0.5422007874015749
 20
0.2234055118110236
 30
0.0
  0
SPLINE
  5
41
100
AcDbEntity
  8
Layer 1
 62
     9
100
AcDbSpline
210
0.0
220
0.0
230
1.0
 70
     1
 71
     3
 72
    20
 73
    16
 74
     0
 42
0.0000000001
 43
0.0000000001
 40
0.0
 40
0.0
 40
0.0
 40
0.0
 40
0.25
 40
0.25
 40
0.25
 40
0.25
 40
0.5
 40
0.5
 40
0.5
 40
0.5
 40
0.75
 40
0.75
 40
0.75
 40
0.75
 40
1.0
 40
1.0
 40
1.0
 40
1.0
 10
0.5821417322834646
 20
0.2011023622047244
 30
0.0
 10
0.5821417322834646
 20
0.2011023622047244
 30
0.0
 10
1.2273149606299214
 20
0.5826417322834646
 30
0.0
 10
1.2273149606299214
 20
0.5826417322834646
 30
0.0
 10
1.2273149606299214
 20
0.5826417322834646
 30
0.0
 10
1.2273149606299214
 20
0.5826417322834646
 30
0.0
 10
1.2661653543307088
 20
0.5586850393700787
 30
0.0
 10
1.2661653543307088
 20
0.5586850393700787
 30
0.0
 10
1.2661653543307088
 20
0.5586850393700787
 30
0.0
 10
1.2661653543307088
 20
0.5586850393700787
 30
0.0
 10
0.620992125984252
 20
0.1771456692913386
 30
0.0
 10
0.620992125984252
 20
0.1771456692913386
 30
0.0
 10
0.620992125984252
 20
0.1771456692913386
 30
0.0
 10
0.620992125984252
 20
0.1771456692913386
 30
0.0
 10
0.5821417322834646
 20
0.2011023622047244
 30
0.0
 10
0.5821417322834646
 20
0.2011023622047244
 30
0.0
  0
SPLINE
  5
42
100
AcDbEntity
  8
Layer 1
 62
     9
100
AcDbSpline
210
0.0
220
0.0
230
1.0
 70
     1
 71
     3
 72
    20
 73
    16
 74
     0
 42
0.0000000001
 43
0.0000000001
 40
0.0
 40
0.0
 40
0.0
 40
0.0
 40
0.25
 40
0.25
 40
0.25
 40
0.25
 40
0.5
 40
0.5
 40
0.5
 40
0.5
 40
0.75
 40
0.75
 40
0.75
 40
0.75
 40
1.0
 40
1.0
 40
1.0
 40
1.0
 10
0.620992125984252
 20
0.1771456692913386
 30
0.0
 10
0.620992125984252
 20
0.1771456692913386
 30
0.0
 10
1.2661653543307088
 20
0.5586850393700787
 30
0.0
 10
1.2661653543307088
 20
0.5586850393700787
 30
0.0
 10
1.2661653543307088
 20
0.5586850393700787
 30
0.0
 10
1.2661653543307088
 20
0.5586850393700787
 30
0.0
 10
1.3038937007874016
 20
0.5331377952755906
 30
0.0
 10
1.3038937007874016
 20
0.5331377952755906
 30
0.0
 10
1.3038937007874016
 20
0.5331377952755906
 30
0.0
 10
1.3038937007874016
 20
0.5331377952755906
 30
0.0
 10
0.6587204724409449
 20
0.1515984251968504
 30
0.0
 10
0.6587204724409449
 20
0.1515984251968504
 30
0.0
 10
0.6587204724409449
 20
0.1515984251968504
 30
0.0
 10
0.6587204724409449
 20
0.1515984251968504
 30
0.0
 10
0.620992125984252
 20
0.1771456692913386
 30
0.0
 10
0.620992125984252
 20
0.1771456692913386
 30
0.0
  0
SPLINE
  5
43
100
AcDbEntity
  8
Layer 1
 62
     9
100
AcDbSpline
210
0.0
220
0.0
230
1.0
 70
     1
 71
     3
 72
    20
 73
    16
 74
     0
 42
0.0000000001
 43
0.0000000001
 40
0.0
 40
0.0
 40
0.0
 40
0.0
 40
0.25
 40
0.25
 40
0.25
 40
0.25
 40
0.5
 40
0.5
 40
0.5
 40
0.5
 40
0.75
 40
0.75
 40
0.75
 40
0.75
 40
1.0
 40
1.0
 40
1.0
 40
1.0
 10
0.6587204724409449
 20
0.1515984251968504
 30
0.0
 10
0.6587204724409449
 20
0.1515984251968504
 30
0.0
 10
1.3038937007874016
 20
0.5331377952755906
 30
0.0
 10
1.3038937007874016
 20
0.5331377952755906
 30
0.0
 10
1.3038937007874016
 20
0.5331377952755906
 30
0.0
 10
1.3038937007874016
 20
0.5331377952755906
 30
0.0
 10
1.3404448818897639
 20
0.5060354330708662
 30
0.0
 10
1.3404448818897639
 20
0.5060354330708662
 30
0.0
 10
1.3404448818897639
 20
0.5060354330708662
 30
0.0
 10
1.3404448818897639
 20
0.5060354330708662
 30
0.0
 10
0.6952716535433071
 20
0.124496062992126
 30
0.0
 10
0.6952716535433071
 20
0.124496062992126
 30
0.0
 10
0.6952716535433071
 20
0.124496062992126
 30
0.0
 10
0.6952716535433071
 20
0.124496062992126
 30
0.0
 10
0.6587204724409449
 20
0.1515984251968504
 30
0.0
 10
0.6587204724409449
 20
0.1515984251968504
 30
0.0
  0
SPLINE
  5
44
100
AcDbEntity
  8
Layer 1
 62
     9
100
AcDbSpline
210
0.0
220
0.0
230
1.0
 70
     1
 71
     3
 72
    20
 73
    16
 74
     0
 42
0.0000000001
 43
0.0000000001
 40
0.0
 40
0.0
 40
0.0
 40
0.0
 40
0.25
 40
0.25
 40
0.25
 40
0.25
 40
0.5
 40
0.5
 40
0.5
 40
0.5
 40
0.75
 40
0.75
 40
0.75
 40
0.75
 40
1.0
 40
1.0
 40
1.0
 40
1.0
 10
0.6952716535433071
 20
0.124496062992126
 30
0.0
 10
0.6952716535433071
 20
0.124496062992126
 30
0.0
 10
1.3404448818897639
 20
0.5060354330708662
 30
0.0
 10
1.3404448818897639
 20
0.5060354330708662
 30
0.0
 10
1.3404448818897639
 20
0.5060354330708662
 30
0.0
 10
1.3404448818897639
 20
0.5060354330708662
 30
0.0
 10
1.3757755905511813
 20
0.4774370078740158
 30
0.0
 10
1.3757755905511813
 20
0.4774370078740158
 30
0.0
 10
1.3757755905511813
 20
0.4774370078740158
 30
0.0
 10
1.3757755905511813
 20
0.4774370078740158
 30
0.0
 10
0.7306023622047244
 20
0.0958976377952756
 30
0.0
 10
0.7306023622047244
 20
0.0958976377952756
 30
0.0
 10
0.7306023622047244
 20
0.0958976377952756
 30
0.0
 10
0.7306023622047244
 20
0.0958976377952756
 30
0.0
 10
0.6952716535433071
 20
0.124496062992126
 30
0.0
 10
0.6952716535433071
 20
0.124496062992126
 30
0.0
  0
SPLINE
  5
45
100
AcDbEntity
  8
Layer 1
 62
     9
100
AcDbSpline
210
0.0
220
0.0
230
1.0
 70
     1
 71
     3
 72
    20
 73
    16
 74
     0
 42
0.0000000001
 43
0.0000000001
 40
0.0
 40
0.0
 40
0.0
 40
0.0
 40
0.25
 40
0.25
 40
0.25
 40
0.25
 40
0.5
 40
0.5
 40
0.5
 40
0.5
 40
0.75
 40
0.75
 40
0.75
 40
0.75
 40
1.0
 40
1.0
 40
1.0
 40
1.0
 10
0.7306023622047244
 20
0.0958976377952756
 30
0.0
 10
0.7306023622047244
 20
0.0958976377952756
 30
0.0
 10
1.3757755905511813
 20
0.4774370078740158
 30
0.0
 10
1.3757755905511813
 20
0.4774370078740158
 30
0.0
 10
1.3757755905511813
 20
0.4774370078740158
 30
0.0
 10
1.3757755905511813
 20
0.4774370078740158
 30
0.0
 10
1.4098267716535433
 20
0.4473700787401575
 30
0.0
 10
1.4098267716535433
 20
0.4473700787401575
 30
0.0
 10
1.4098267716535433
 20
0.4473700787401575
 30
0.0
 10
1.4098267716535433
 20
0.4473700787401575
 30
0.0
 10
0.7646535433070867
 20
0.0658307086614173
 30
0.0
 10
0.7646535433070867
 20
0.0658307086614173
 30
0.0
 10
0.7646535433070867
 20
0.0658307086614173
 30
0.0
 10
0.7646535433070867
 20
0.0658307086614173
 30
0.0
 10
0.7306023622047244
 20
0.0958976377952756
 30
0.0
 10
0.7306023622047244
 20
0.0958976377952756
 30
0.0
  0
SPLINE
  5
46
100
AcDbEntity
  8
Layer 1
 62
     9
100
AcDbSpline
210
0.0
220
0.0
230
1.0
 70
     1
 71
     3
 72
    20
 73
    16
 74
     0
 42
0.0000000001
 43
0.0000000001
 40
0.0
 40
0.0
 40
0.0
 40
0.0
 40
0.25
 40
0.25
 40
0.25
 40
0.25
 40
0.5
 40
0.5
 40
0.5
 40
0.5
 40
0.75
 40
0.75
 40
0.75
 40
0.75
 40
1.0
 40
1.0
 40
1.0
 40
1.0
 10
0.7646535433070867
 20
0.0658307086614173
 30
0.0
 10
0.7646535433070867
 20
0.0658307086614173
 30
0.0
 10
1.4098267716535433
 20
0.4473700787401575
 30
0.0
 10
1.4098267716535433
 20
0.4473700787401575
 30
0.0
 10
1.4098267716535433
 20
0.4473700787401575
 30
0.0
 10
1.4098267716535433
 20
0.4473700787401575
 30
0.0
 10
1.4425629921259844
 20
0.4159015748031496
 30
0.0
 10
1.4425629921259844
 20
0.4159015748031496
 30
0.0
 10
1.4425629921259844
 20
0.4159015748031496
 30
0.0
 10
1.4425629921259844
 20
0.4159015748031496
 30
0.0
 10
0.7973897637795276
 20
0.0343622047244094
 30
0.0
 10
0.7973897637795276
 20
0.0343622047244094
 30
0.0
 10
0.7973897637795276
 20
0.0343622047244094
 30
0.0
 10
0.7973897637795276
 20
0.0343622047244094
 30
0.0
 10
0.7646535433070867
 20
0.0658307086614173
 30
0.0
 10
0.7646535433070867
 20
0.0658307086614173
 30
0.0
  0
SPLINE
  5
47
100
AcDbEntity
  8
Layer 1
 62
     9
100
AcDbSpline
210
0.0
220
0.0
230
1.0
 70
     1
 71
     3
 72
    20
 73
    16
 74
     0
 42
0.0000000001
 43
0.0000000001
 40
0.0
 40
0.0
 40
0.0
 40
0.0
 40
0.25
 40
0.25
 40
0.25
 40
0.25
 40
0.5
 40
0.5
 40
0.5
 40
0.5
 40
0.75
 40
0.75
 40
0.75
 40
0.75
 40
1.0
 40
1.0
 40
1.0
 40
1.0
 10
0.7973897637795276
 20
0.0343622047244094
 30
0.0
 10
0.7973897637795276
 20
0.0343622047244094
 30
0.0
 10
1.4425629921259844
 20
0.4159015748031496
 30
0.0
 10
1.4425629921259844
 20
0.4159015748031496
 30
0.0
 10
1.4425629921259844
 20
0.4159015748031496
 30
0.0
 10
1.4425629921259844
 20
0.4159015748031496
 30
0.0
 10
1.4739370078740157
 20
0.3830708661417323
 30
0.0
 10
1.4739370078740157
 20
0.3830708661417323
 30
0.0
 10
1.4739370078740157
 20
0.3830708661417323
 30
0.0
 10
1.4739370078740157
 20
0.3830708661417323
 30
0.0
 10
0.8287637795275591
 20
0.0015314960629921
 30
0.0
 10
0.8287637795275591
 20
0.0015314960629921
 30
0.0
 10
0.8287637795275591
 20
0.0015314960629921
 30
0.0
 10
0.8287637795275591
 20
0.0015314960629921
 30
0.0
 10
0.7973897637795276
 20
0.0343622047244094
 30
0.0
 10
0.7973897637795276
 20
0.0343622047244094
 30
0.0
  0
SPLINE
  5
48
100
AcDbEntity
  8
Layer 1
 62
     9
100
AcDbSpline
210
0.0
220
0.0
230
1.0
 70
     1
 71
     3
 72
    20
 73
    16
 74
     0
 42
0.0000000001
 43
0.0000000001
 40
0.0
 40
0.0
 40
0.0
 40
0.0
 40
0.25
 40
0.25
 40
0.25
 40
0.25
 40
0.5
 40
0.5
 40
0.5
 40
0.5
 40
0.75
 40
0.75
 40
0.75
 40
0.75
 40
1.0
 40
1.0
 40
1.0
 40
1.0
 10
0.8287637795275591
 20
0.0015314960629921
 30
0.0
 10
0.8287637795275591
 20
0.0015314960629921
 30
0.0
 10
1.4739370078740157
 20
0.3830708661417323
 30
0.0
 10
1.4739370078740157
 20
0.3830708661417323
 30
0.0
 10
1.4739370078740157
 20
0.3830708661417323
 30
0.0
 10
1.4739370078740157
 20
0.3830708661417323
 30
0.0
 10
1.5038976377952757
 20
0.3489330708661417
 30
0.0
 10
1.5038976377952757
 20
0.3489330708661417
 30
0.0
 10
1.5038976377952757
 20
0.3489330708661417
 30
0.0
 10
1.5038976377952757
 20
0.3489330708661417
 30
0.0
 10
0.8587244094488189
 20
-0.0326062992125984
 30
0.0
 10
0.8587244094488189
 20
-0.0326062992125984
 30
0.0
 10
0.8587244094488189
 20
-0.0326062992125984
 30
0.0
 10
0.8587244094488189
 20
-0.0326062992125984
 30
0.0
 10
0.8287637795275591
 20
0.0015314960629921
 30
0.0
 10
0.8287637795275591
 20
0.0015314960629921
 30
0.0
  0
SPLINE
  5
49
100
AcDbEntity
  8
Layer 1
 62
     9
100
AcDbSpline
210
0.0
220
0.0
230
1.0
 70
     1
 71
     3
 72
    20
 73
    16
 74
     0
 42
0.0000000001
 43
0.0000000001
 40
0.0
 40
0.0
 40
0.0
 40
0.0
 40
0.25
 40
0.25
 40
0.25
 40
0.25
 40
0.5
 40
0.5
 40
0.5
 40
0.5
 40
0.75
 40
0.75
 40
0.75
 40
0.75
 40
1.0
 40
1.0
 40
1.0
 40
1.0
 10
0.8587244094488189
 20
-0.0326062992125984
 30
0.0
 10
0.8587244094488189
 20
-0.0326062992125984
 30
0.0
 10
1.5038976377952757
 20
0.3489330708661417
 30
0.0
 10
1.5038976377952757
 20
0.3489330708661417
 30
0.0
 10
1.5038976377952757
 20
0.3489330708661417
 30
0.0
 10
1.5038976377952757
 20
0.3489330708661417
 30
0.0
 10
1.5323976377952757
 20
0.3135275590551181
 30
0.0
 10
1.5323976377952757
 20
0.3135275590551181
 30
0.0
 10
1.5323976377952757
 20
0.3135275590551181
 30
0.0
 10
1.5323976377952757
 20
0.3135275590551181
 30
0.0
 10
0.887224409448819
 20
-0.0680118110236221
 30
0.0
 10
0.887224409448819
 20
-0.0680118110236221
 30
0.0
 10
0.887224409448819
 20
-0.0680118110236221
 30
0.0
 10
0.887224409448819
 20
-0.0680118110236221
 30
0.0
 10
0.8587244094488189
 20
-0.0326062992125984
 30
0.0
 10
0.8587244094488189
 20
-0.0326062992125984
 30
0.0
  0
SPLINE
  5
4A
100
AcDbEntity
  8
Layer 1
 62
     9
100
AcDbSpline
210
0.0
220
0.0
230
1.0
 70
     1
 71
     3
 72
    20
 73
    16
 74
     0
 42
0.0000000001
 43
0.0000000001
 40
0.0
 40
0.0
 40
0.0
 40
0.0
 40
0.25
 40
0.25
 40
0.25
 40
0.25
 40
0.5
 40
0.5
 40
0.5
 40
0.5
 40
0.75
 40
0.75
 40
0.75
 40
0.75
 40
1.0
 40
1.0
 40
1.0
 40
1.0
 10
0.887224409448819
 20
-0.0680118110236221
 30
0.0
 10
0.887224409448819
 20
-0.0680118110236221
 30
0.0
 10
1.5323976377952757
 20
0.3135275590551181
 30
0.0
 10
1.5323976377952757
 20
0.3135275590551181
 30
0.0
 10
1.5323976377952757
 20
0.3135275590551181
 30
0.0
 10
1.5323976377952757
 20
0.3135275590551181
 30
0.0
 10
1.5593897637795275
 20
0.2768897637795276
 30
0.0
 10
1.5593897637795275
 20
0.2768897637795276
 30
0.0
 10
1.5593897637795275
 20
0.2768897637795276
 30
0.0
 10
1.5593897637795275
 20
0.2768897637795276
 30
0.0
 10
0.9142165354330709
 20
-0.1046496062992126
 30
0.0
 10
0.9142165354330709
 20
-0.1046496062992126
 30
0.0
 10
0.9142165354330709
 20
-0.1046496062992126
 30
0.0
 10
0.9142165354330709
 20
-0.1046496062992126
 30
0.0
 10
0.887224409448819
 20
-0.0680118110236221
 30
0.0
 10
0.887224409448819
 20
-0.0680118110236221
 30
0.0
  0
SPLINE
  5
4B
100
AcDbEntity
  8
Layer 1
 62
     9
100
AcDbSpline
210
0.0
220
0.0
230
1.0
 70
     1
 71
     3
 72
    20
 73
    16
 74
     0
 42
0.0000000001
 43
0.0000000001
 40
0.0
 40
0.0
 40
0.0
 40
0.0
 40
0.25
 40
0.25
 40
0.25
 40
0.25
 40
0.5
 40
0.5
 40
0.5
 40
0.5
 40
0.75
 40
0.75
 40
0.75
 40
0.75
 40
1.0
 40
1.0
 40
1.0
 40
1.0
 10
0.9142165354330709
 20
-0.1046496062992126
 30
0.0
 10
0.9142165354330709
 20
-0.1046496062992126
 30
0.0
 10
1.5593897637795275
 20
0.2768897637795276
 30
0.0
 10
1.5593897637795275
 20
0.2768897637795276
 30
0.0
 10
1.5593897637795275
 20
0.2768897637795276
 30
0.0
 10
1.5593897637795275
 20
0.2768897637795276
 30
0.0
 10
1.5848307086614173
 20
0.2390866141732284
 30
0.0
 10
1.5848307086614173
 20
0.2390866141732284
 30
0.0
 10
1.5848307086614173
 20
0.2390866141732284
 30
0.0
 10
1.5848307086614173
 20
0.2390866141732284
 30
0.0
 10
0.9396574803149607
 20
-0.1424527559055118
 30
0.0
 10
0.9396574803149607
 20
-0.1424527559055118
 30
0.0
 10
0.9396574803149607
 20
-0.1424527559055118
 30
0.0
 10
0.9396574803149607
 20
-0.1424527559055118
 30
0.0
 10
0.9142165354330709
 20
-0.1046496062992126
 30
0.0
 10
0.9142165354330709
 20
-0.1046496062992126
 30
0.0
  0
SPLINE
  5
4C
100
AcDbEntity
  8
Layer 1
 62
     9
100
AcDbSpline
210
0.0
220
0.0
230
1.0
 70
     1
 71
     3
 72
    20
 73
    16
 74
     0
 42
0.0000000001
 43
0.0000000001
 40
0.0
 40
0.0
 40
0.0
 40
0.0
 40
0.25
 40
0.25
 40
0.25
 40
0.25
 40
0.5
 40
0.5
 40
0.5
 40
0.5
 40
0.75
 40
0.75
 40
0.75
 40
0.75
 40
1.0
 40
1.0
 40
1.0
 40
1.0
 10
0.9396574803149607
 20
-0.1424527559055118
 30
0.0
 10
0.9396574803149607
 20
-0.1424527559055118
 30
0.0
 10
1.5848307086614173
 20
0.2390866141732284
 30
0.0
 10
1.5848307086614173
 20
0.2390866141732284
 30
0.0
 10
1.5848307086614173
 20
0.2390866141732284
 30
0.0
 10
1.5848307086614173
 20
0.2390866141732284
 30
0.0
 10
1.6086732283464567
 20
0.2001456692913386
 30
0.0
 10
1.6086732283464567
 20
0.2001456692913386
 30
0.0
 10
1.6086732283464567
 20
0.2001456692913386
 30
0.0
 10
1.6086732283464567
 20
0.2001456692913386
 30
0.0
 10
0.9635
 20
-0.1813937007874016
 30
0.0
 10
0.9635
 20
-0.1813937007874016
 30
0.0
 10
0.9635
 20
-0.1813937007874016
 30
0.0
 10
0.9635
 20
-0.1813937007874016
 30
0.0
 10
0.9396574803149607
 20
-0.1424527559055118
 30
0.0
 10
0.9396574803149607
 20
-0.1424527559055118
 30
0.0
  0
SPLINE
  5
4D
100
AcDbEntity
  8
Layer 1
 62
     9
100
AcDbSpline
210
0.0
220
0.0
230
1.0
 70
     1
 71
     3
 72
    20
 73
    16
 74
     0
 42
0.0000000001
 43
0.0000000001
 40
0.0
 40
0.0
 40
0.0
 40
0.0
 40
0.25
 40
0.25
 40
0.25
 40
0.25
 40
0.5
 40
0.5
 40
0.5
 40
0.5
 40
0.75
 40
0.75
 40
0.75
 40
0.75
 40
1.0
 40
1.0
 40
1.0
 40
1.0
 10
0.9635
 20
-0.1813937007874016
 30
0.0
 10
0.9635
 20
-0.1813937007874016
 30
0.0
 10
1.6086732283464567
 20
0.2001456692913386
 30
0.0
 10
1.6086732283464567
 20
0.2001456692913386
 30
0.0
 10
1.6086732283464567
 20
0.2001456692913386
 30
0.0
 10
1.6086732283464567
 20
0.2001456692913386
 30
0.0
 10
1.6308582677165355
 20
0.1601417322834646
 30
0.0
 10
1.6308582677165355
 20
0.1601417322834646
 30
0.0
 10
1.6308582677165355
 20
0.1601417322834646
 30
0.0
 10
1.6308582677165355
 20
0.1601417322834646
 30
0.0
 10
0.9856850393700788
 20
-0.2213976377952756
 30
0.0
 10
0.9856850393700788
 20
-0.2213976377952756
 30
0.0
 10
0.9856850393700788
 20
-0.2213976377952756
 30
0.0
 10
0.9856850393700788
 20
-0.2213976377952756
 30
0.0
 10
0.9635
 20
-0.1813937007874016
 30
0.0
 10
0.9635
 20
-0.1813937007874016
 30
0.0
  0
SPLINE
  5
4E
100
AcDbEntity
  8
Layer 1
 62
     9
100
AcDbSpline
210
0.0
220
0.0
230
1.0
 70
     1
 71
     3
 72
    20
 73
    16
 74
     0
 42
0.0000000001
 43
0.0000000001
 40
0.0
 40
0.0
 40
0.0
 40
0.0
 40
0.25
 40
0.25
 40
0.25
 40
0.25
 40
0.5
 40
0.5
 40
0.5
 40
0.5
 40
0.75
 40
0.75
 40
0.75
 40
0.75
 40
1.0
 40
1.0
 40
1.0
 40
1.0
 10
0.9856850393700788
 20
-0.2213976377952756
 30
0.0
 10
0.9856850393700788
 20
-0.2213976377952756
 30
0.0
 10
1.6308582677165355
 20
0.1601417322834646
 30
0.0
 10
1.6308582677165355
 20
0.1601417322834646
 30
0.0
 10
1.6308582677165355
 20
0.1601417322834646
 30
0.0
 10
1.6308582677165355
 20
0.1601417322834646
 30
0.0
 10
1.6513543307086616
 20
0.1190984251968504
 30
0.0
 10
1.6513543307086616
 20
0.1190984251968504
 30
0.0
 10
1.6513543307086616
 20
0.1190984251968504
 30
0.0
 10
1.6513543307086616
 20
0.1190984251968504
 30
0.0
 10
1.0061811023622047
 20
-0.2624409448818898
 30
0.0
 10
1.0061811023622047
 20
-0.2624409448818898
 30
0.0
 10
1.0061811023622047
 20
-0.2624409448818898
 30
0.0
 10
1.0061811023622047
 20
-0.2624409448818898
 30
0.0
 10
0.9856850393700788
 20
-0.2213976377952756
 30
0.0
 10
0.9856850393700788
 20
-0.2213976377952756
 30
0.0
  0
SPLINE
  5
4F
100
AcDbEntity
  8
Layer 1
 62
     9
100
AcDbSpline
210
0.0
220
0.0
230
1.0
 70
     1
 71
     3
 72
    20
 73
    16
 74
     0
 42
0.0000000001
 43
0.0000000001
 40
0.0
 40
0.0
 40
0.0
 40
0.0
 40
0.25
 40
0.25
 40
0.25
 40
0.25
 40
0.5
 40
0.5
 40
0.5
 40
0.5
 40
0.75
 40
0.75
 40
0.75
 40
0.75
 40
1.0
 40
1.0
 40
1.0
 40
1.0
 10
1.0061811023622047
 20
-0.2624409448818898
 30
0.0
 10
1.0061811023622047
 20
-0.2624409448818898
 30
0.0
 10
1.6513543307086616
 20
0.1190984251968504
 30
0.0
 10
1.6513543307086616
 20
0.1190984251968504
 30
0.0
 10
1.6513543307086616
 20
0.1190984251968504
 30
0.0
 10
1.6513543307086616
 20
0.1190984251968504
 30
0.0
 10
1.6701062992125986
 20
0.0770748031496063
 30
0.0
 10
1.6701062992125986
 20
0.0770748031496063
 30
0.0
 10
1.6701062992125986
 20
0.0770748031496063
 30
0.0
 10
1.6701062992125986
 20
0.0770748031496063
 30
0.0
 10
1.0249330708661417
 20
-0.3044645669291339
 30
0.0
 10
1.0249330708661417
 20
-0.3044645669291339
 30
0.0
 10
1.0249330708661417
 20
-0.3044645669291339
 30
0.0
 10
1.0249330708661417
 20
-0.3044645669291339
 30
0.0
 10
1.0061811023622047
 20
-0.2624409448818898
 30
0.0
 10
1.0061811023622047
 20
-0.2624409448818898
 30
0.0
  0
SPLINE
  5
50
100
AcDbEntity
  8
Layer 1
 62
     9
100
AcDbSpline
210
0.0
220
0.0
230
1.0
 70
     1
 71
     3
 72
    20
 73
    16
 74
     0
 42
0.0000000001
 43
0.0000000001
 40
0.0
 40
0.0
 40
0.0
 40
0.0
 40
0.25
 40
0.25
 40
0.25
 40
0.25
 40
0.5
 40
0.5
 40
0.5
 40
0.5
 40
0.75
 40
0.75
 40
0.75
 40
0.75
 40
1.0
 40
1.0
 40
1.0
 40
1.0
 10
1.0249330708661417
 20
-0.3044645669291339
 30
0.0
 10
1.0249330708661417
 20
-0.3044645669291339
 30
0.0
 10
1.6701062992125986
 20
0.0770748031496063
 30
0.0
 10
1.6701062992125986
 20
0.0770748031496063
 30
0.0
 10
1.6701062992125986
 20
0.0770748031496063
 30
0.0
 10
1.6701062992125986
 20
0.0770748031496063
 30
0.0
 10
1.6870708661417324
 20
0.0341062992125984
 30
0.0
 10
1.6870708661417324
 20
0.0341062992125984
 30
0.0
 10
1.6870708661417324
 20
0.0341062992125984
 30
0.0
 10
1.6870708661417324
 20
0.0341062992125984
 30
0.0
 10
1.0418976377952756
 20
-0.3474330708661417
 30
0.0
 10
1.0418976377952756
 20
-0.3474330708661417
 30
0.0
 10
1.0418976377952756
 20
-0.3474330708661417
 30
0.0
 10
1.0418976377952756
 20
-0.3474330708661417
 30
0.0
 10
1.0249330708661417
 20
-0.3044645669291339
 30
0.0
 10
1.0249330708661417
 20
-0.3044645669291339
 30
0.0
  0
SPLINE
  5
51
100
AcDbEntity
  8
Layer 1
 62
     9
100
AcDbSpline
210
0.0
220
0.0
230
1.0
 70
     1
 71
     3
 72
    20
 73
    16
 74
     0
 42
0.0000000001
 43
0.0000000001
 40
0.0
 40
0.0
 40
0.0
 40
0.0
 40
0.25
 40
0.25
 40
0.25
 40
0.25
 40
0.5
 40
0.5
 40
0.5
 40
0.5
 40
0.75
 40
0.75
 40
0.75
 40
0.75
 40
1.0
 40
1.0
 40
1.0
 40
1.0
 10
1.0418976377952756
 20
-0.3474330708661417
 30
0.0
 10
1.0418976377952756
 20
-0.3474330708661417
 30
0.0
 10
1.6870708661417324
 20
0.0341062992125984
 30
0.0
 10
1.6870708661417324
 20
0.0341062992125984
 30
0.0
 10
1.6870708661417324
 20
0.0341062992125984
 30
0.0
 10
1.6870708661417324
 20
0.0341062992125984
 30
0.0
 10
1.7021929133858269
 20
-0.009744094488189
 30
0.0
 10
1.7021929133858269
 20
-0.009744094488189
 30
0.0
 10
1.7021929133858269
 20
-0.009744094488189
 30
0.0
 10
1.7021929133858269
 20
-0.009744094488189
 30
0.0
 10
1.05701968503937
 20
-0.3912834645669291
 30
0.0
 10
1.05701968503937
 20
-0.3912834645669291
 30
0.0
 10
1.05701968503937
 20
-0.3912834645669291
 30
0.0
 10
1.05701968503937
 20
-0.3912834645669291
 30
0.0
 10
1.0418976377952756
 20
-0.3474330708661417
 30
0.0
 10
1.0418976377952756
 20
-0.3474330708661417
 30
0.0
  0
SPLINE
  5
52
100
AcDbEntity
  8
Layer 1
 62
     9
100
AcDbSpline
210
0.0
220
0.0
230
1.0
 70
     1
 71
     3
 72
    20
 73
    16
 74
     0
 42
0.0000000001
 43
0.0000000001
 40
0.0
 40
0.0
 40
0.0
 40
0.0
 40
0.25
 40
0.25
 40
0.25
 40
0.25
 40
0.5
 40
0.5
 40
0.5
 40
0.5
 40
0.75
 40
0.75
 40
0.75
 40
0.75
 40
1.0
 40
1.0
 40
1.0
 40
1.0
 10
1.05701968503937
 20
-0.3912834645669291
 30
0.0
 10
1.05701968503937
 20
-0.3912834645669291
 30
0.0
 10
1.7021929133858269
 20
-0.009744094488189
 30
0.0
 10
1.7021929133858269
 20
-0.009744094488189
 30
0.0
 10
1.7021929133858269
 20
-0.009744094488189
 30
0.0
 10
1.7021929133858269
 20
-0.009744094488189
 30
0.0
 10
1.7154370078740158
 20
-0.0544409448818898
 30
0.0
 10
1.7154370078740158
 20
-0.0544409448818898
 30
0.0
 10
1.7154370078740158
 20
-0.0544409448818898
 30
0.0
 10
1.7154370078740158
 20
-0.0544409448818898
 30
0.0
 10
1.0702637795275591
 20
-0.4359803149606299
 30
0.0
 10
1.0702637795275591
 20
-0.4359803149606299
 30
0.0
 10
1.0702637795275591
 20
-0.4359803149606299
 30
0.0
 10
1.0702637795275591
 20
-0.4359803149606299
 30
0.0
 10
1.05701968503937
 20
-0.3912834645669291
 30
0.0
 10
1.05701968503937
 20
-0.3912834645669291
 30
0.0
  0
SPLINE
  5
53
100
AcDbEntity
  8
Layer 1
 62
     9
100
AcDbSpline
210
0.0
220
0.0
230
1.0
 70
     1
 71
     3
 72
    20
 73
    16
 74
     0
 42
0.0000000001
 43
0.0000000001
 40
0.0
 40
0.0
 40
0.0
 40
0.0
 40
0.25
 40
0.25
 40
0.25
 40
0.25
 40
0.5
 40
0.5
 40
0.5
 40
0.5
 40
0.75
 40
0.75
 40
0.75
 40
0.75
 40
1.0
 40
1.0
 40
1.0
 40
1.0
 10
1.0702637795275591
 20
-0.4359803149606299
 30
0.0
 10
1.0702637795275591
 20
-0.4359803149606299
 30
0.0
 10
1.7154370078740158
 20
-0.0544409448818898
 30
0.0
 10
1.7154370078740158
 20
-0.0544409448818898
 30
0.0
 10
1.7154370078740158
 20
-0.0544409448818898
 30
0.0
 10
1.7154370078740158
 20
-0.0544409448818898
 30
0.0
 10
1.726751968503937
 20
-0.0999330708661417
 30
0.0
 10
1.726751968503937
 20
-0.0999330708661417
 30
0.0
 10
1.726751968503937
 20
-0.0999330708661417
 30
0.0
 10
1.726751968503937
 20
-0.0999330708661417
 30
0.0
 10
1.0815787401574803
 20
-0.4814724409448819
 30
0.0
 10
1.0815787401574803
 20
-0.4814724409448819
 30
0.0
 10
1.0815787401574803
 20
-0.4814724409448819
 30
0.0
 10
1.0815787401574803
 20
-0.4814724409448819
 30
0.0
 10
1.0702637795275591
 20
-0.4359803149606299
 30
0.0
 10
1.0702637795275591
 20
-0.4359803149606299
 30
0.0
  0
SPLINE
  5
54
100
AcDbEntity
  8
Layer 1
 62
     9
100
AcDbSpline
210
0.0
220
0.0
230
1.0
 70
     1
 71
     3
 72
    20
 73
    16
 74
     0
 42
0.0000000001
 43
0.0000000001
 40
0.0
 40
0.0
 40
0.0
 40
0.0
 40
0.25
 40
0.25
 40
0.25
 40
0.25
 40
0.5
 40
0.5
 40
0.5
 40
0.5
 40
0.75
 40
0.75
 40
0.75
 40
0.75
 40
1.0
 40
1.0
 40
1.0
 40
1.0
 10
1.0815787401574803
 20
-0.4814724409448819
 30
0.0
 10
1.0815787401574803
 20
-0.4814724409448819
 30
0.0
 10
1.726751968503937
 20
-0.0999330708661417
 30
0.0
 10
1.726751968503937
 20
-0.0999330708661417
 30
0.0
 10
1.726751968503937
 20
-0.0999330708661417
 30
0.0
 10
1.726751968503937
 20
-0.0999330708661417
 30
0.0
 10
1.7360866141732285
 20
-0.1461811023622047
 30
0.0
 10
1.7360866141732285
 20
-0.1461811023622047
 30
0.0
 10
1.7360866141732285
 20
-0.1461811023622047
 30
0.0
 10
1.7360866141732285
 20
-0.1461811023622047
 30
0.0
 10
1.0909133858267717
 20
-0.5277204724409449
 30
0.0
 10
1.0909133858267717
 20
-0.5277204724409449
 30
0.0
 10
1.0909133858267717
 20
-0.5277204724409449
 30
0.0
 10
1.0909133858267717
 20
-0.5277204724409449
 30
0.0
 10
1.0815787401574803
 20
-0.4814724409448819
 30
0.0
 10
1.0815787401574803
 20
-0.4814724409448819
 30
0.0
  0
SPLINE
  5
55
100
AcDbEntity
  8
Layer 1
370
     5
100
AcDbSpline
210
0.0
220
0.0
230
1.0
 70
     1
 71
     3
 72
   348
 73
   344
 74
     0
 42
0.0000000001
 43
0.0000000001
 40
0.0
 40
0.0
 40
0.0
 40
0.0
 40
0.0116279069767442
 40
0.0116279069767442
 40
0.0116279069767442
 40
0.0116279069767442
 40
0.0232558139534884
 40
0.0232558139534884
 40
0.0232558139534884
 40
0.0232558139534884
 40
0.0348837209302326
 40
0.0348837209302326
 40
0.0348837209302326
 40
0.0348837209302326
 40
0.0465116279069767
 40
0.0465116279069767
 40
0.0465116279069767
 40
0.0465116279069767
 40
0.0581395348837209
 40
0.0581395348837209
 40
0.0581395348837209
 40
0.0581395348837209
 40
0.0697674418604651
 40
0.0697674418604651
 40
0.0697674418604651
 40
0.0697674418604651
 40
0.0813953488372093
 40
0.0813953488372093
 40
0.0813953488372093
 40
0.0813953488372093
 40
0.0930232558139535
 40
0.0930232558139535
 40
0.0930232558139535
 40
0.0930232558139535
 40
0.1046511627906977
 40
0.1046511627906977
 40
0.1046511627906977
 40
0.1046511627906977
 40
0.1162790697674418
 40
0.1162790697674418
 40
0.1162790697674418
 40
0.1162790697674418
 40
0.127906976744186
 40
0.127906976744186
 40
0.127906976744186
 40
0.127906976744186
 40
0.1395348837209302
 40
0.1395348837209302
 40
0.1395348837209302
 40
0.1395348837209302
 40
0.1511627906976744
 40
0.1511627906976744
 40
0.1511627906976744
 40
0.1511627906976744
 40
0.1627906976744186
 40
0.1627906976744186
 40
0.1627906976744186
 40
0.1627906976744186
 40
0.1744186046511627
 40
0.1744186046511627
 40
0.1744186046511627
 40
0.1744186046511627
 40
0.1860465116279069
 40
0.1860465116279069
 40
0.1860465116279069
 40
0.1860465116279069
 40
0.1976744186046511
 40
0.1976744186046511
 40
0.1976744186046511
 40
0.1976744186046511
 40
0.2093023255813953
 40
0.2093023255813953
 40
0.2093023255813953
 40
0.2093023255813953
 40
0.2209302325581395
 40
0.2209302325581395
 40
0.2209302325581395
 40
0.2209302325581395
 40
0.2325581395348836
 40
0.2325581395348836
 40
0.2325581395348836
 40
0.2325581395348836
 40
0.2441860465116278
 40
0.2441860465116278
 40
0.2441860465116278
 40
0.2441860465116278
 40
0.255813953488372
 40
0.255813953488372
 40
0.255813953488372
 40
0.255813953488372
 40
0.2674418604651162
 40
0.2674418604651162
 40
0.2674418604651162
 40
0.2674418604651162
 40
0.2790697674418604
 40
0.2790697674418604
 40
0.2790697674418604
 40
0.2790697674418604
 40
0.2906976744186046
 40
0.2906976744186046
 40
0.2906976744186046
 40
0.2906976744186046
 40
0.3023255813953488
 40
0.3023255813953488
 40
0.3023255813953488
 40
0.3023255813953488
 40
0.313953488372093
 40
0.313953488372093
 40
0.313953488372093
 40
0.313953488372093
 40
0.3255813953488372
 40
0.3255813953488372
 40
0.3255813953488372
 40
0.3255813953488372
 40
0.3372093023255814
 40
0.3372093023255814
 40
0.3372093023255814
 40
0.3372093023255814
 40
0.3488372093023257
 40
0.3488372093023257
 40
0.3488372093023257
 40
0.3488372093023257
 40
0.3604651162790699
 40
0.3604651162790699
 40
0.3604651162790699
 40
0.3604651162790699
 40
0.3720930232558141
 40
0.3720930232558141
 40
0.3720930232558141
 40
0.3720930232558141
 40
0.3837209302325583
 40
0.3837209302325583
 40
0.3837209302325583
 40
0.3837209302325583
 40
0.3953488372093025
 40
0.3953488372093025
 40
0.3953488372093025
 40
0.3953488372093025
 40
0.4069767441860467
 40
0.4069767441860467
 40
0.4069767441860467
 40
0.4069767441860467
 40
0.4186046511627909
 40
0.4186046511627909
 40
0.4186046511627909
 40
0.4186046511627909
 40
0.4302325581395351
 40
0.4302325581395351
 40
0.4302325581395351
 40
0.4302325581395351
 40
0.4418604651162793
 40
0.4418604651162793
 40
0.4418604651162793
 40
0.4418604651162793
 40
0.4534883720930235
 40
0.4534883720930235
 40
0.4534883720930235
 40
0.4534883720930235
 40
0.4651162790697677
 40
0.4651162790697677
 40
0.4651162790697677
 40
0.4651162790697677
 40
0.4767441860465119
 40
0.4767441860465119
 40
0.4767441860465119
 40
0.4767441860465119
 40
0.4883720930232561
 40
0.4883720930232561
 40
0.4883720930232561
 40
0.4883720930232561
 40
0.5000000000000003
 40
0.5000000000000003
 40
0.5000000000000003
 40
0.5000000000000003
 40
0.5116279069767445
 40
0.5116279069767445
 40
0.5116279069767445
 40
0.5116279069767445
 40
0.5232558139534888
 40
0.5232558139534888
 40
0.5232558139534888
 40
0.5232558139534888
 40
0.534883720930233
 40
0.534883720930233
 40
0.534883720930233
 40
0.534883720930233
 40
0.5465116279069772
 40
0.5465116279069772
 40
0.5465116279069772
 40
0.5465116279069772
 40
0.5581395348837214
 40
0.5581395348837214
 40
0.5581395348837214
 40
0.5581395348837214
 40
0.5697674418604656
 40
0.5697674418604656
 40
0.5697674418604656
 40
0.5697674418604656
 40
0.5813953488372098
 40
0.5813953488372098
 40
0.5813953488372098
 40
0.5813953488372098
 40
0.593023255813954
 40
0.593023255813954
 40
0.593023255813954
 40
0.593023255813954
 40
0.6046511627906982
 40
0.6046511627906982
 40
0.6046511627906982
 40
0.6046511627906982
 40
0.6162790697674424
 40
0.6162790697674424
 40
0.6162790697674424
 40
0.6162790697674424
 40
0.6279069767441866
 40
0.6279069767441866
 40
0.6279069767441866
 40
0.6279069767441866
 40
0.6395348837209308
 40
0.6395348837209308
 40
0.6395348837209308
 40
0.6395348837209308
 40
0.651162790697675
 40
0.651162790697675
 40
0.651162790697675
 40
0.651162790697675
 40
0.6627906976744192
 40
0.6627906976744192
 40
0.6627906976744192
 40
0.6627906976744192
 40
0.6744186046511634
 40
0.6744186046511634
 40
0.6744186046511634
 40
0.6744186046511634
 40
0.6860465116279076
 40
0.6860465116279076
 40
0.6860465116279076
 40
0.6860465116279076
 40
0.6976744186046519
 40
0.6976744186046519
 40
0.6976744186046519
 40
0.6976744186046519
 40
0.7093023255813961
 40
0.7093023255813961
 40
0.7093023255813961
 40
0.7093023255813961
 40
0.7209302325581403
 40
0.7209302325581403
 40
0.7209302325581403
 40
0.7209302325581403
 40
0.7325581395348845
 40
0.7325581395348845
 40
0.7325581395348845
 40
0.7325581395348845
 40
0.7441860465116287
 40
0.7441860465116287
 40
0.7441860465116287
 40
0.7441860465116287
 40
0.7558139534883729
 40
0.7558139534883729
 40
0.7558139534883729
 40
0.7558139534883729
 40
0.7674418604651171
 40
0.7674418604651171
 40
0.7674418604651171
 40
0.7674418604651171
 40
0.7790697674418613
 40
0.7790697674418613
 40
0.7790697674418613
 40
0.7790697674418613
 40
0.7906976744186055
 40
0.7906976744186055
 40
0.7906976744186055
 40
0.7906976744186055
 40
0.8023255813953497
 40
0.8023255813953497
 40
0.8023255813953497
 40
0.8023255813953497
 40
0.8139534883720939
 40
0.8139534883720939
 40
0.8139534883720939
 40
0.8139534883720939
 40
0.8255813953488381
 40
0.8255813953488381
 40
0.8255813953488381
 40
0.8255813953488381
 40
0.8372093023255823
 40
0.8372093023255823
 40
0.8372093023255823
 40
0.8372093023255823
 40
0.8488372093023265
 40
0.8488372093023265
 40
0.8488372093023265
 40
0.8488372093023265
 40
0.8604651162790707
 40
0.8604651162790707
 40
0.8604651162790707
 40
0.8604651162790707
 40
0.872093023255815
 40
0.872093023255815
 40
0.872093023255815
 40
0.872093023255815
 40
0.8837209302325592
 40
0.8837209302325592
 40
0.8837209302325592
 40
0.8837209302325592
 40
0.8953488372093034
 40
0.8953488372093034
 40
0.8953488372093034
 40
0.8953488372093034
 40
0.9069767441860476
 40
0.9069767441860476
 40
0.9069767441860476
 40
0.9069767441860476
 40
0.9186046511627918
 40
0.9186046511627918
 40
0.9186046511627918
 40
0.9186046511627918
 40
0.930232558139536
 40
0.930232558139536
 40
0.930232558139536
 40
0.930232558139536
 40
0.9418604651162802
 40
0.9418604651162802
 40
0.9418604651162802
 40
0.9418604651162802
 40
0.9534883720930244
 40
0.9534883720930244
 40
0.9534883720930244
 40
0.9534883720930244
 40
0.9651162790697686
 40
0.9651162790697686
 40
0.9651162790697686
 40
0.9651162790697686
 40
0.9767441860465128
 40
0.9767441860465128
 40
0.9767441860465128
 40
0.9767441860465128
 40
0.988372093023257
 40
0.988372093023257
 40
0.988372093023257
 40
0.988372093023257
 40
1.0
 40
1.0
 40
1.0
 40
1.0
 10
-0.4613858267716536
 20
0.2184645669291339
 30
0.0
 10
-0.4613858267716536
 20
0.2184645669291339
 30
0.0
 10
0.1837874015748032
 20
0.600003937007874
 30
0.0
 10
0.1837874015748032
 20
0.600003937007874
 30
0.0
 10
0.1837874015748032
 20
0.600003937007874
 30
0.0
 10
0.1837874015748032
 20
0.600003937007874
 30
0.0
 10
0.2296023622047244
 20
0.623472440944882
 30
0.0
 10
0.2296023622047244
 20
0.623472440944882
 30
0.0
 10
0.2296023622047244
 20
0.623472440944882
 30
0.0
 10
0.2296023622047244
 20
0.623472440944882
 30
0.0
 10
0.2766574803149606
 20
0.6447559055118111
 30
0.0
 10
0.2766574803149606
 20
0.6447559055118111
 30
0.0
 10
0.2766574803149606
 20
0.6447559055118111
 30
0.0
 10
0.2766574803149606
 20
0.6447559055118111
 30
0.0
 10
0.3249094488188977
 20
0.6637755905511812
 30
0.0
 10
0.3249094488188977
 20
0.6637755905511812
 30
0.0
 10
0.3249094488188977
 20
0.6637755905511812
 30
0.0
 10
0.3249094488188977
 20
0.6637755905511812
 30
0.0
 10
0.3742755905511811
 20
0.680488188976378
 30
0.0
 10
0.3742755905511811
 20
0.680488188976378
 30
0.0
 10
0.3742755905511811
 20
0.680488188976378
 30
0.0
 10
0.3742755905511811
 20
0.680488188976378
 30
0.0
 10
0.4246929133858268
 20
0.6948070866141732
 30
0.0
 10
0.4246929133858268
 20
0.6948070866141732
 30
0.0
 10
0.4246929133858268
 20
0.6948070866141732
 30
0.0
 10
0.4246929133858268
 20
0.6948070866141732
 30
0.0
 10
0.4760905511811024
 20
0.7066771653543308
 30
0.0
 10
0.4760905511811024
 20
0.7066771653543308
 30
0.0
 10
0.4760905511811024
 20
0.7066771653543308
 30
0.0
 10
0.4760905511811024
 20
0.7066771653543308
 30
0.0
 10
0.5284133858267717
 20
0.7160196850393701
 30
0.0
 10
0.5284133858267717
 20
0.7160196850393701
 30
0.0
 10
0.5284133858267717
 20
0.7160196850393701
 30
0.0
 10
0.5284133858267717
 20
0.7160196850393701
 30
0.0
 10
0.5815748031496063
 20
0.7227795275590552
 30
0.0
 10
0.5815748031496063
 20
0.7227795275590552
 30
0.0
 10
0.5815748031496063
 20
0.7227795275590552
 30
0.0
 10
0.5815748031496063
 20
0.7227795275590552
 30
0.0
 10
0.6355236220472441
 20
0.7268818897637795
 30
0.0
 10
0.6355236220472441
 20
0.7268818897637795
 30
0.0
 10
0.6355236220472441
 20
0.7268818897637795
 30
0.0
 10
0.6355236220472441
 20
0.7268818897637795
 30
0.0
 10
0.6901850393700788
 20
0.7282716535433071
 30
0.0
 10
0.6901850393700788
 20
0.7282716535433071
 30
0.0
 10
0.6901850393700788
 20
0.7282716535433071
 30
0.0
 10
0.6901850393700788
 20
0.7282716535433071
 30
0.0
 10
0.7389015748031497
 20
0.7271692913385827
 30
0.0
 10
0.7389015748031497
 20
0.7271692913385827
 30
0.0
 10
0.7389015748031497
 20
0.7271692913385827
 30
0.0
 10
0.7389015748031497
 20
0.7271692913385827
 30
0.0
 10
0.7870590551181103
 20
0.7239094488188976
 30
0.0
 10
0.7870590551181103
 20
0.7239094488188976
 30
0.0
 10
0.7870590551181103
 20
0.7239094488188976
 30
0.0
 10
0.7870590551181103
 20
0.7239094488188976
 30
0.0
 10
0.8346062992125984
 20
0.7185275590551181
 30
0.0
 10
0.8346062992125984
 20
0.7185275590551181
 30
0.0
 10
0.8346062992125984
 20
0.7185275590551181
 30
0.0
 10
0.8346062992125984
 20
0.7185275590551181
 30
0.0
 10
0.8815000000000001
 20
0.7110826771653543
 30
0.0
 10
0.8815000000000001
 20
0.7110826771653543
 30
0.0
 10
0.8815000000000001
 20
0.7110826771653543
 30
0.0
 10
0.8815000000000001
 20
0.7110826771653543
 30
0.0
 10
0.9276850393700787
 20
0.7016062992125984
 30
0.0
 10
0.9276850393700787
 20
0.7016062992125984
 30
0.0
 10
0.9276850393700787
 20
0.7016062992125984
 30
0.0
 10
0.9276850393700787
 20
0.7016062992125984
 30
0.0
 10
0.9731181102362205
 20
0.6901614173228347
 30
0.0
 10
0.9731181102362205
 20
0.6901614173228347
 30
0.0
 10
0.9731181102362205
 20
0.6901614173228347
 30
0.0
 10
0.9731181102362205
 20
0.6901614173228347
 30
0.0
 10
1.0177559055118111
 20
0.6767834645669292
 30
0.0
 10
1.0177559055118111
 20
0.6767834645669292
 30
0.0
 10
1.0177559055118111
 20
0.6767834645669292
 30
0.0
 10
1.0177559055118111
 20
0.6767834645669292
 30
0.0
 10
1.0615511811023624
 20
0.6615314960629921
 30
0.0
 10
1.0615511811023624
 20
0.6615314960629921
 30
0.0
 10
1.0615511811023624
 20
0.6615314960629921
 30
0.0
 10
1.0615511811023624
 20
0.6615314960629921
 30
0.0
 10
1.1044448818897639
 20
0.6444370078740158
 30
0.0
 10
1.1044448818897639
 20
0.6444370078740158
 30
0.0
 10
1.1044448818897639
 20
0.6444370078740158
 30
0.0
 10
1.1044448818897639
 20
0.6444370078740158
 30
0.0
 10
1.1464015748031497
 20
0.6255629921259843
 30
0.0
 10
1.1464015748031497
 20
0.6255629921259843
 30
0.0
 10
1.1464015748031497
 20
0.6255629921259843
 30
0.0
 10
1.1464015748031497
 20
0.6255629921259843
 30
0.0
 10
1.1873740157480315
 20
0.6049448818897638
 30
0.0
 10
1.1873740157480315
 20
0.6049448818897638
 30
0.0
 10
1.1873740157480315
 20
0.6049448818897638
 30
0.0
 10
1.1873740157480315
 20
0.6049448818897638
 30
0.0
 10
1.2273149606299214
 20
0.5826417322834646
 30
0.0
 10
1.2273149606299214
 20
0.5826417322834646
 30
0.0
 10
1.2273149606299214
 20
0.5826417322834646
 30
0.0
 10
1.2273149606299214
 20
0.5826417322834646
 30
0.0
 10
1.2661653543307088
 20
0.5586850393700787
 30
0.0
 10
1.2661653543307088
 20
0.5586850393700787
 30
0.0
 10
1.2661653543307088
 20
0.5586850393700787
 30
0.0
 10
1.2661653543307088
 20
0.5586850393700787
 30
0.0
 10
1.3038937007874016
 20
0.5331377952755906
 30
0.0
 10
1.3038937007874016
 20
0.5331377952755906
 30
0.0
 10
1.3038937007874016
 20
0.5331377952755906
 30
0.0
 10
1.3038937007874016
 20
0.5331377952755906
 30
0.0
 10
1.3404448818897639
 20
0.5060354330708662
 30
0.0
 10
1.3404448818897639
 20
0.5060354330708662
 30
0.0
 10
1.3404448818897639
 20
0.5060354330708662
 30
0.0
 10
1.3404448818897639
 20
0.5060354330708662
 30
0.0
 10
1.3757755905511813
 20
0.4774370078740158
 30
0.0
 10
1.3757755905511813
 20
0.4774370078740158
 30
0.0
 10
1.3757755905511813
 20
0.4774370078740158
 30
0.0
 10
1.3757755905511813
 20
0.4774370078740158
 30
0.0
 10
1.4098267716535433
 20
0.4473700787401575
 30
0.0
 10
1.4098267716535433
 20
0.4473700787401575
 30
0.0
 10
1.4098267716535433
 20
0.4473700787401575
 30
0.0
 10
1.4098267716535433
 20
0.4473700787401575
 30
0.0
 10
1.4425629921259844
 20
0.4159015748031496
 30
0.0
 10
1.4425629921259844
 20
0.4159015748031496
 30
0.0
 10
1.4425629921259844
 20
0.4159015748031496
 30
0.0
 10
1.4425629921259844
 20
0.4159015748031496
 30
0.0
 10
1.4739370078740157
 20
0.3830708661417323
 30
0.0
 10
1.4739370078740157
 20
0.3830708661417323
 30
0.0
 10
1.4739370078740157
 20
0.3830708661417323
 30
0.0
 10
1.4739370078740157
 20
0.3830708661417323
 30
0.0
 10
1.5038976377952757
 20
0.3489330708661417
 30
0.0
 10
1.5038976377952757
 20
0.3489330708661417
 30
0.0
 10
1.5038976377952757
 20
0.3489330708661417
 30
0.0
 10
1.5038976377952757
 20
0.3489330708661417
 30
0.0
 10
1.5323976377952757
 20
0.3135275590551181
 30
0.0
 10
1.5323976377952757
 20
0.3135275590551181
 30
0.0
 10
1.5323976377952757
 20
0.3135275590551181
 30
0.0
 10
1.5323976377952757
 20
0.3135275590551181
 30
0.0
 10
1.5593897637795275
 20
0.2768897637795276
 30
0.0
 10
1.5593897637795275
 20
0.2768897637795276
 30
0.0
 10
1.5593897637795275
 20
0.2768897637795276
 30
0.0
 10
1.5593897637795275
 20
0.2768897637795276
 30
0.0
 10
1.5848307086614173
 20
0.2390866141732284
 30
0.0
 10
1.5848307086614173
 20
0.2390866141732284
 30
0.0
 10
1.5848307086614173
 20
0.2390866141732284
 30
0.0
 10
1.5848307086614173
 20
0.2390866141732284
 30
0.0
 10
1.6086732283464567
 20
0.2001456692913386
 30
0.0
 10
1.6086732283464567
 20
0.2001456692913386
 30
0.0
 10
1.6086732283464567
 20
0.2001456692913386
 30
0.0
 10
1.6086732283464567
 20
0.2001456692913386
 30
0.0
 10
1.6308582677165355
 20
0.1601417322834646
 30
0.0
 10
1.6308582677165355
 20
0.1601417322834646
 30
0.0
 10
1.6308582677165355
 20
0.1601417322834646
 30
0.0
 10
1.6308582677165355
 20
0.1601417322834646
 30
0.0
 10
1.6513543307086616
 20
0.1190984251968504
 30
0.0
 10
1.6513543307086616
 20
0.1190984251968504
 30
0.0
 10
1.6513543307086616
 20
0.1190984251968504
 30
0.0
 10
1.6513543307086616
 20
0.1190984251968504
 30
0.0
 10
1.6701062992125986
 20
0.0770748031496063
 30
0.0
 10
1.6701062992125986
 20
0.0770748031496063
 30
0.0
 10
1.6701062992125986
 20
0.0770748031496063
 30
0.0
 10
1.6701062992125986
 20
0.0770748031496063
 30
0.0
 10
1.6870708661417324
 20
0.0341062992125984
 30
0.0
 10
1.6870708661417324
 20
0.0341062992125984
 30
0.0
 10
1.6870708661417324
 20
0.0341062992125984
 30
0.0
 10
1.6870708661417324
 20
0.0341062992125984
 30
0.0
 10
1.7021929133858269
 20
-0.009744094488189
 30
0.0
 10
1.7021929133858269
 20
-0.009744094488189
 30
0.0
 10
1.7021929133858269
 20
-0.009744094488189
 30
0.0
 10
1.7021929133858269
 20
-0.009744094488189
 30
0.0
 10
1.7154370078740158
 20
-0.0544409448818898
 30
0.0
 10
1.7154370078740158
 20
-0.0544409448818898
 30
0.0
 10
1.7154370078740158
 20
-0.0544409448818898
 30
0.0
 10
1.7154370078740158
 20
-0.0544409448818898
 30
0.0
 10
1.726751968503937
 20
-0.0999330708661417
 30
0.0
 10
1.726751968503937
 20
-0.0999330708661417
 30
0.0
 10
1.726751968503937
 20
-0.0999330708661417
 30
0.0
 10
1.726751968503937
 20
-0.0999330708661417
 30
0.0
 10
1.7360866141732285
 20
-0.1461811023622047
 30
0.0
 10
1.7360866141732285
 20
-0.1461811023622047
 30
0.0
 10
1.7360866141732285
 20
-0.1461811023622047
 30
0.0
 10
1.7360866141732285
 20
-0.1461811023622047
 30
0.0
 10
1.0909133858267717
 20
-0.5277204724409449
 30
0.0
 10
1.0909133858267717
 20
-0.5277204724409449
 30
0.0
 10
1.0909133858267717
 20
-0.5277204724409449
 30
0.0
 10
1.0909133858267717
 20
-0.5277204724409449
 30
0.0
 10
1.0815787401574803
 20
-0.4814724409448819
 30
0.0
 10
1.0815787401574803
 20
-0.4814724409448819
 30
0.0
 10
1.0815787401574803
 20
-0.4814724409448819
 30
0.0
 10
1.0815787401574803
 20
-0.4814724409448819
 30
0.0
 10
1.0702637795275591
 20
-0.4359803149606299
 30
0.0
 10
1.0702637795275591
 20
-0.4359803149606299
 30
0.0
 10
1.0702637795275591
 20
-0.4359803149606299
 30
0.0
 10
1.0702637795275591
 20
-0.4359803149606299
 30
0.0
 10
1.05701968503937
 20
-0.3912834645669291
 30
0.0
 10
1.05701968503937
 20
-0.3912834645669291
 30
0.0
 10
1.05701968503937
 20
-0.3912834645669291
 30
0.0
 10
1.05701968503937
 20
-0.3912834645669291
 30
0.0
 10
1.0418976377952756
 20
-0.3474330708661417
 30
0.0
 10
1.0418976377952756
 20
-0.3474330708661417
 30
0.0
 10
1.0418976377952756
 20
-0.3474330708661417
 30
0.0
 10
1.0418976377952756
 20
-0.3474330708661417
 30
0.0
 10
1.0249330708661417
 20
-0.3044645669291339
 30
0.0
 10
1.0249330708661417
 20
-0.3044645669291339
 30
0.0
 10
1.0249330708661417
 20
-0.3044645669291339
 30
0.0
 10
1.0249330708661417
 20
-0.3044645669291339
 30
0.0
 10
1.0061811023622047
 20
-0.2624409448818898
 30
0.0
 10
1.0061811023622047
 20
-0.2624409448818898
 30
0.0
 10
1.0061811023622047
 20
-0.2624409448818898
 30
0.0
 10
1.0061811023622047
 20
-0.2624409448818898
 30
0.0
 10
0.9856850393700788
 20
-0.2213976377952756
 30
0.0
 10
0.9856850393700788
 20
-0.2213976377952756
 30
0.0
 10
0.9856850393700788
 20
-0.2213976377952756
 30
0.0
 10
0.9856850393700788
 20
-0.2213976377952756
 30
0.0
 10
0.9635
 20
-0.1813937007874016
 30
0.0
 10
0.9635
 20
-0.1813937007874016
 30
0.0
 10
0.9635
 20
-0.1813937007874016
 30
0.0
 10
0.9635
 20
-0.1813937007874016
 30
0.0
 10
0.9396574803149607
 20
-0.1424527559055118
 30
0.0
 10
0.9396574803149607
 20
-0.1424527559055118
 30
0.0
 10
0.9396574803149607
 20
-0.1424527559055118
 30
0.0
 10
0.9396574803149607
 20
-0.1424527559055118
 30
0.0
 10
0.9142165354330709
 20
-0.1046496062992126
 30
0.0
 10
0.9142165354330709
 20
-0.1046496062992126
 30
0.0
 10
0.9142165354330709
 20
-0.1046496062992126
 30
0.0
 10
0.9142165354330709
 20
-0.1046496062992126
 30
0.0
 10
0.887224409448819
 20
-0.0680118110236221
 30
0.0
 10
0.887224409448819
 20
-0.0680118110236221
 30
0.0
 10
0.887224409448819
 20
-0.0680118110236221
 30
0.0
 10
0.887224409448819
 20
-0.0680118110236221
 30
0.0
 10
0.8587244094488189
 20
-0.0326062992125984
 30
0.0
 10
0.8587244094488189
 20
-0.0326062992125984
 30
0.0
 10
0.8587244094488189
 20
-0.0326062992125984
 30
0.0
 10
0.8587244094488189
 20
-0.0326062992125984
 30
0.0
 10
0.8287637795275591
 20
0.0015314960629921
 30
0.0
 10
0.8287637795275591
 20
0.0015314960629921
 30
0.0
 10
0.8287637795275591
 20
0.0015314960629921
 30
0.0
 10
0.8287637795275591
 20
0.0015314960629921
 30
0.0
 10
0.7973897637795276
 20
0.0343622047244094
 30
0.0
 10
0.7973897637795276
 20
0.0343622047244094
 30
0.0
 10
0.7973897637795276
 20
0.0343622047244094
 30
0.0
 10
0.7973897637795276
 20
0.0343622047244094
 30
0.0
 10
0.7646535433070867
 20
0.0658307086614173
 30
0.0
 10
0.7646535433070867
 20
0.0658307086614173
 30
0.0
 10
0.7646535433070867
 20
0.0658307086614173
 30
0.0
 10
0.7646535433070867
 20
0.0658307086614173
 30
0.0
 10
0.7306023622047244
 20
0.0958976377952756
 30
0.0
 10
0.7306023622047244
 20
0.0958976377952756
 30
0.0
 10
0.7306023622047244
 20
0.0958976377952756
 30
0.0
 10
0.7306023622047244
 20
0.0958976377952756
 30
0.0
 10
0.6952716535433071
 20
0.124496062992126
 30
0.0
 10
0.6952716535433071
 20
0.124496062992126
 30
0.0
 10
0.6952716535433071
 20
0.124496062992126
 30
0.0
 10
0.6952716535433071
 20
0.124496062992126
 30
0.0
 10
0.6587204724409449
 20
0.1515984251968504
 30
0.0
 10
0.6587204724409449
 20
0.1515984251968504
 30
0.0
 10
0.6587204724409449
 20
0.1515984251968504
 30
0.0
 10
0.6587204724409449
 20
0.1515984251968504
 30
0.0
 10
0.620992125984252
 20
0.1771456692913386
 30
0.0
 10
0.620992125984252
 20
0.1771456692913386
 30
0.0
 10
0.620992125984252
 20
0.1771456692913386
 30
0.0
 10
0.620992125984252
 20
0.1771456692913386
 30
0.0
 10
0.5821417322834646
 20
0.2011023622047244
 30
0.0
 10
0.5821417322834646
 20
0.2011023622047244
 30
0.0
 10
0.5821417322834646
 20
0.2011023622047244
 30
0.0
 10
0.5821417322834646
 20
0.2011023622047244
 30
0.0
 10
0.5422007874015749
 20
0.2234055118110236
 30
0.0
 10
0.5422007874015749
 20
0.2234055118110236
 30
0.0
 10
0.5422007874015749
 20
0.2234055118110236
 30
0.0
 10
0.5422007874015749
 20
0.2234055118110236
 30
0.0
 10
0.5012283464566929
 20
0.2440236220472441
 30
0.0
 10
0.5012283464566929
 20
0.2440236220472441
 30
0.0
 10
0.5012283464566929
 20
0.2440236220472441
 30
0.0
 10
0.5012283464566929
 20
0.2440236220472441
 30
0.0
 10
0.4592716535433071
 20
0.2628976377952756
 30
0.0
 10
0.4592716535433071
 20
0.2628976377952756
 30
0.0
 10
0.4592716535433071
 20
0.2628976377952756
 30
0.0
 10
0.4592716535433071
 20
0.2628976377952756
 30
0.0
 10
0.4163779527559055
 20
0.279992125984252
 30
0.0
 10
0.4163779527559055
 20
0.279992125984252
 30
0.0
 10
0.4163779527559055
 20
0.279992125984252
 30
0.0
 10
0.4163779527559055
 20
0.279992125984252
 30
0.0
 10
0.3725826771653544
 20
0.295244094488189
 30
0.0
 10
0.3725826771653544
 20
0.295244094488189
 30
0.0
 10
0.3725826771653544
 20
0.295244094488189
 30
0.0
 10
0.3725826771653544
 20
0.295244094488189
 30
0.0
 10
0.3279448818897638
 20
0.3086220472440945
 30
0.0
 10
0.3279448818897638
 20
0.3086220472440945
 30
0.0
 10
0.3279448818897638
 20
0.3086220472440945
 30
0.0
 10
0.3279448818897638
 20
0.3086220472440945
 30
0.0
 10
0.2825118110236221
 20
0.3200669291338583
 30
0.0
 10
0.2825118110236221
 20
0.3200669291338583
 30
0.0
 10
0.2825118110236221
 20
0.3200669291338583
 30
0.0
 10
0.2825118110236221
 20
0.3200669291338583
 30
0.0
 10
0.2363267716535433
 20
0.3295433070866142
 30
0.0
 10
0.2363267716535433
 20
0.3295433070866142
 30
0.0
 10
0.2363267716535433
 20
0.3295433070866142
 30
0.0
 10
0.2363267716535433
 20
0.3295433070866142
 30
0.0
 10
0.1894330708661418
 20
0.3369881889763779
 30
0.0
 10
0.1894330708661418
 20
0.3369881889763779
 30
0.0
 10
0.1894330708661418
 20
0.3369881889763779
 30
0.0
 10
0.1894330708661418
 20
0.3369881889763779
 30
0.0
 10
0.1418858267716535
 20
0.3423700787401575
 30
0.0
 10
0.1418858267716535
 20
0.3423700787401575
 30
0.0
 10
0.1418858267716535
 20
0.3423700787401575
 30
0.0
 10
0.1418858267716535
 20
0.3423700787401575
 30
0.0
 10
0.0937283464566929
 20
0.3456299212598425
 30
0.0
 10
0.0937283464566929
 20
0.3456299212598425
 30
0.0
 10
0.0937283464566929
 20
0.3456299212598425
 30
0.0
 10
0.0937283464566929
 20
0.3456299212598425
 30
0.0
 10
0.045011811023622
 20
0.3467322834645669
 30
0.0
 10
0.045011811023622
 20
0.3467322834645669
 30
0.0
 10
0.045011811023622
 20
0.3467322834645669
 30
0.0
 10
0.045011811023622
 20
0.3467322834645669
 30
0.0
 10
-0.0096496062992126
 20
0.3453425196850394
 30
0.0
 10
-0.0096496062992126
 20
0.3453425196850394
 30
0.0
 10
-0.0096496062992126
 20
0.3453425196850394
 30
0.0
 10
-0.0096496062992126
 20
0.3453425196850394
 30
0.0
 10
-0.0635984251968504
 20
0.341240157480315
 30
0.0
 10
-0.0635984251968504
 20
0.341240157480315
 30
0.0
 10
-0.0635984251968504
 20
0.341240157480315
 30
0.0
 10
-0.0635984251968504
 20
0.341240157480315
 30
0.0
 10
-0.1167598425196851
 20
0.3344803149606299
 30
0.0
 10
-0.1167598425196851
 20
0.3344803149606299
 30
0.0
 10
-0.1167598425196851
 20
0.3344803149606299
 30
0.0
 10
-0.1167598425196851
 20
0.3344803149606299
 30
0.0
 10
-0.1690826771653543
 20
0.3251377952755906
 30
0.0
 10
-0.1690826771653543
 20
0.3251377952755906
 30
0.0
 10
-0.1690826771653543
 20
0.3251377952755906
 30
0.0
 10
-0.1690826771653543
 20
0.3251377952755906
 30
0.0
 10
-0.2204803149606299
 20
0.3132677165354331
 30
0.0
 10
-0.2204803149606299
 20
0.3132677165354331
 30
0.0
 10
-0.2204803149606299
 20
0.3132677165354331
 30
0.0
 10
-0.2204803149606299
 20
0.3132677165354331
 30
0.0
 10
-0.2708976377952756
 20
0.2989488188976378
 30
0.0
 10
-0.2708976377952756
 20
0.2989488188976378
 30
0.0
 10
-0.2708976377952756
 20
0.2989488188976378
 30
0.0
 10
-0.2708976377952756
 20
0.2989488188976378
 30
0.0
 10
-0.3202637795275591
 20
0.282236220472441
 30
0.0
 10
-0.3202637795275591
 20
0.282236220472441
 30
0.0
 10
-0.3202637795275591
 20
0.282236220472441
 30
0.0
 10
-0.3202637795275591
 20
0.282236220472441
 30
0.0
 10
-0.3685157480314961
 20
0.2632165354330709
 30
0.0
 10
-0.3685157480314961
 20
0.2632165354330709
 30
0.0
 10
-0.3685157480314961
 20
0.2632165354330709
 30
0.0
 10
-0.3685157480314961
 20
0.2632165354330709
 30
0.0
 10
-0.4155708661417323
 20
0.2419330708661417
 30
0.0
 10
-0.4155708661417323
 20
0.2419330708661417
 30
0.0
 10
-0.4155708661417323
 20
0.2419330708661417
 30
0.0
 10
-0.4155708661417323
 20
0.2419330708661417
 30
0.0
 10
-0.4613858267716536
 20
0.2184645669291339
 30
0.0
 10
-0.4613858267716536
 20
0.2184645669291339
 30
0.0
  0
SPLINE
  5
56
100
AcDbEntity
  8
Layer 1
 62
   253
100
AcDbSpline
210
0.0
220
0.0
230
1.0
 70
     1
 71
     3
 72
    20
 73
    16
 74
     0
 42
0.0000000001
 43
0.0000000001
 40
0.0
 40
0.0
 40
0.0
 40
0.0
 40
0.25
 40
0.25
 40
0.25
 40
0.25
 40
0.5
 40
0.5
 40
0.5
 40
0.5
 40
0.75
 40
0.75
 40
0.75
 40
0.75
 40
1.0
 40
1.0
 40
1.0
 40
1.0
 10
1.0909133858267717
 20
-0.5277204724409449
 30
0.0
 10
1.0909133858267717
 20
-0.5277204724409449
 30
0.0
 10
1.7360866141732285
 20
-0.1461811023622047
 30
0.0
 10
1.7360866141732285
 20
-0.1461811023622047
 30
0.0
 10
1.7360866141732285
 20
-0.1461811023622047
 30
0.0
 10
1.7360866141732285
 20
-0.1461811023622047
 30
0.0
 10
2.1276811023622049
 20
-0.1467322834645669
 30
0.0
 10
2.1276811023622049
 20
-0.1467322834645669
 30
0.0
 10
2.1276811023622049
 20
-0.1467322834645669
 30
0.0
 10
2.1276811023622049
 20
-0.1467322834645669
 30
0.0
 10
1.482507874015748
 20
-0.5282716535433071
 30
0.0
 10
1.482507874015748
 20
-0.5282716535433071
 30
0.0
 10
1.482507874015748
 20
-0.5282716535433071
 30
0.0
 10
1.482507874015748
 20
-0.5282716535433071
 30
0.0
 10
1.0909133858267717
 20
-0.5277204724409449
 30
0.0
 10
1.0909133858267717
 20
-0.5277204724409449
 30
0.0
  0
SPLINE
  5
57
100
AcDbEntity
  8
Layer 1
370
     5
100
AcDbSpline
210
0.0
220
0.0
230
1.0
 70
     1
 71
     3
 72
    20
 73
    16
 74
     0
 42
0.0000000001
 43
0.0000000001
 40
0.0
 40
0.0
 40
0.0
 40
0.0
 40
0.25
 40
0.25
 40
0.25
 40
0.25
 40
0.5
 40
0.5
 40
0.5
 40
0.5
 40
0.75
 40
0.75
 40
0.75
 40
0.75
 40
1.0
 40
1.0
 40
1.0
 40
1.0
 10
1.0909133858267717
 20
-0.5277204724409449
 30
0.0
 10
1.0909133858267717
 20
-0.5277204724409449
 30
0.0
 10
1.7360866141732285
 20
-0.1461811023622047
 30
0.0
 10
1.7360866141732285
 20
-0.1461811023622047
 30
0.0
 10
1.7360866141732285
 20
-0.1461811023622047
 30
0.0
 10
1.7360866141732285
 20
-0.1461811023622047
 30
0.0
 10
2.1276811023622049
 20
-0.1467322834645669
 30
0.0
 10
2.1276811023622049
 20
-0.1467322834645669
 30
0.0
 10
2.1276811023622049
 20
-0.1467322834645669
 30
0.0
 10
2.1276811023622049
 20
-0.1467322834645669
 30
0.0
 10
1.482507874015748
 20
-0.5282716535433071
 30
0.0
 10
1.482507874015748
 20
-0.5282716535433071
 30
0.0
 10
1.482507874015748
 20
-0.5282716535433071
 30
0.0
 10
1.482507874015748
 20
-0.5282716535433071
 30
0.0
 10
1.0909133858267717
 20
-0.5277204724409449
 30
0.0
 10
1.0909133858267717
 20
-0.5277204724409449
 30
0.0
  0
SPLINE
  5
58
100
AcDbEntity
  8
Layer 1
 62
     9
100
AcDbSpline
210
0.0
220
0.0
230
1.0
 70
     1
 71
     3
 72
    20
 73
    16
 74
     0
 42
0.0000000001
 43
0.0000000001
 40
0.0
 40
0.0
 40
0.0
 40
0.0
 40
0.25
 40
0.25
 40
0.25
 40
0.25
 40
0.5
 40
0.5
 40
0.5
 40
0.5
 40
0.75
 40
0.75
 40
0.75
 40
0.75
 40
1.0
 40
1.0
 40
1.0
 40
1.0
 10
1.482507874015748
 20
-0.5282716535433071
 30
0.0
 10
1.482507874015748
 20
-0.5282716535433071
 30
0.0
 10
2.1276811023622049
 20
-0.1467322834645669
 30
0.0
 10
2.1276811023622049
 20
-0.1467322834645669
 30
0.0
 10
2.1276811023622049
 20
-0.1467322834645669
 30
0.0
 10
2.1276811023622049
 20
-0.1467322834645669
 30
0.0
 10
2.1276811023622049
 20
-1.1467283464566929
 30
0.0
 10
2.1276811023622049
 20
-1.1467283464566929
 30
0.0
 10
2.1276811023622049
 20
-1.1467283464566929
 30
0.0
 10
2.1276811023622049
 20
-1.1467283464566929
 30
0.0
 10
1.482507874015748
 20
-1.528267716535433
 30
0.0
 10
1.482507874015748
 20
-1.528267716535433
 30
0.0
 10
1.482507874015748
 20
-1.528267716535433
 30
0.0
 10
1.482507874015748
 20
-1.528267716535433
 30
0.0
 10
1.482507874015748
 20
-0.5282716535433071
 30
0.0
 10
1.482507874015748
 20
-0.5282716535433071
 30
0.0
  0
SPLINE
  5
59
100
AcDbEntity
  8
Layer 1
370
     5
100
AcDbSpline
210
0.0
220
0.0
230
1.0
 70
     1
 71
     3
 72
    20
 73
    16
 74
     0
 42
0.0000000001
 43
0.0000000001
 40
0.0
 40
0.0
 40
0.0
 40
0.0
 40
0.25
 40
0.25
 40
0.25
 40
0.25
 40
0.5
 40
0.5
 40
0.5
 40
0.5
 40
0.75
 40
0.75
 40
0.75
 40
0.75
 40
1.0
 40
1.0
 40
1.0
 40
1.0
 10
1.482507874015748
 20
-0.5282716535433071
 30
0.0
 10
1.482507874015748
 20
-0.5282716535433071
 30
0.0
 10
2.1276811023622049
 20
-0.1467322834645669
 30
0.0
 10
2.1276811023622049
 20
-0.1467322834645669
 30
0.0
 10
2.1276811023622049
 20
-0.1467322834645669
 30
0.0
 10
2.1276811023622049
 20
-0.1467322834645669
 30
0.0
 10
2.1276811023622049
 20
-1.1467283464566929
 30
0.0
 10
2.1276811023622049
 20
-1.1467283464566929
 30
0.0
 10
2.1276811023622049
 20
-1.1467283464566929
 30
0.0
 10
2.1276811023622049
 20
-1.1467283464566929
 30
0.0
 10
1.482507874015748
 20
-1.528267716535433
 30
0.0
 10
1.482507874015748
 20
-1.528267716535433
 30
0.0
 10
1.482507874015748
 20
-1.528267716535433
 30
0.0
 10
1.482507874015748
 20
-1.528267716535433
 30
0.0
 10
1.482507874015748
 20
-0.5282716535433071
 30
0.0
 10
1.482507874015748
 20
-0.5282716535433071
 30
0.0
  0
SPLINE
  5
5A
100
AcDbEntity
  8
Layer 1
 62
   253
100
AcDbSpline
210
0.0
220
0.0
230
1.0
 70
     1
 71
     3
 72
    20
 73
    16
 74
     0
 42
0.0000000001
 43
0.0000000001
 40
0.0
 40
0.0
 40
0.0
 40
0.0
 40
0.25
 40
0.25
 40
0.25
 40
0.25
 40
0.5
 40
0.5
 40
0.5
 40
0.5
 40
0.75
 40
0.75
 40
0.75
 40
0.75
 40
1.0
 40
1.0
 40
1.0
 40
1.0
 10
-1.517488188976378
 20
-1.028267716535433
 30
0.0
 10
-1.517488188976378
 20
-1.028267716535433
 30
0.0
 10
-0.8723149606299213
 20
-0.646728346456693
 30
0.0
 10
-0.8723149606299213
 20
-0.646728346456693
 30
0.0
 10
-0.8723149606299213
 20
-0.646728346456693
 30
0.0
 10
-0.8723149606299213
 20
-0.646728346456693
 30
0.0
 10
-0.3723188976377953
 20
-0.646728346456693
 30
0.0
 10
-0.3723188976377953
 20
-0.646728346456693
 30
0.0
 10
-0.3723188976377953
 20
-0.646728346456693
 30
0.0
 10
-0.3723188976377953
 20
-0.646728346456693
 30
0.0
 10
-1.017492125984252
 20
-1.028267716535433
 30
0.0
 10
-1.017492125984252
 20
-1.028267716535433
 30
0.0
 10
-1.017492125984252
 20
-1.028267716535433
 30
0.0
 10
-1.017492125984252
 20
-1.028267716535433
 30
0.0
 10
-1.517488188976378
 20
-1.028267716535433
 30
0.0
 10
-1.517488188976378
 20
-1.028267716535433
 30
0.0
  0
SPLINE
  5
5B
100
AcDbEntity
  8
Layer 1
370
     5
100
AcDbSpline
210
0.0
220
0.0
230
1.0
 70
     1
 71
     3
 72
    20
 73
    16
 74
     0
 42
0.0000000001
 43
0.0000000001
 40
0.0
 40
0.0
 40
0.0
 40
0.0
 40
0.25
 40
0.25
 40
0.25
 40
0.25
 40
0.5
 40
0.5
 40
0.5
 40
0.5
 40
0.75
 40
0.75
 40
0.75
 40
0.75
 40
1.0
 40
1.0
 40
1.0
 40
1.0
 10
-1.517488188976378
 20
-1.028267716535433
 30
0.0
 10
-1.517488188976378
 20
-1.028267716535433
 30
0.0
 10
-0.8723149606299213
 20
-0.646728346456693
 30
0.0
 10
-0.8723149606299213
 20
-0.646728346456693
 30
0.0
 10
-0.8723149606299213
 20
-0.646728346456693
 30
0.0
 10
-0.8723149606299213
 20
-0.646728346456693
 30
0.0
 10
-0.3723188976377953
 20
-0.646728346456693
 30
0.0
 10
-0.3723188976377953
 20
-0.646728346456693
 30
0.0
 10
-0.3723188976377953
 20
-0.646728346456693
 30
0.0
 10
-0.3723188976377953
 20
-0.646728346456693
 30
0.0
 10
-1.017492125984252
 20
-1.028267716535433
 30
0.0
 10
-1.017492125984252
 20
-1.028267716535433
 30
0.0
 10
-1.017492125984252
 20
-1.028267716535433
 30
0.0
 10
-1.017492125984252
 20
-1.028267716535433
 30
0.0
 10
-1.517488188976378
 20
-1.028267716535433
 30
0.0
 10
-1.517488188976378
 20
-1.028267716535433
 30
0.0
  0
SPLINE
  5
5C
100
AcDbEntity
  8
Layer 1
100
AcDbSpline
210
0.0
220
0.0
230
1.0
 70
     1
 71
     3
 72
    20
 73
    16
 74
     0
 42
0.0000000001
 43
0.0000000001
 40
0.0
 40
0.0
 40
0.0
 40
0.0
 40
0.25
 40
0.25
 40
0.25
 40
0.25
 40
0.5
 40
0.5
 40
0.5
 40
0.5
 40
0.75
 40
0.75
 40
0.75
 40
0.75
 40
1.0
 40
1.0
 40
1.0
 40
1.0
 10
-0.4613858267716536
 20
0.2184645669291339
 30
0.0
 10
-0.4613858267716536
 20
0.2184645669291339
 30
0.0
 10
0.1837874015748032
 20
0.600003937007874
 30
0.0
 10
0.1837874015748032
 20
0.600003937007874
 30
0.0
 10
0.1837874015748032
 20
0.600003937007874
 30
0.0
 10
0.1837874015748032
 20
0.600003937007874
 30
0.0
 10
0.2296023622047244
 20
0.623472440944882
 30
0.0
 10
0.2296023622047244
 20
0.623472440944882
 30
0.0
 10
0.2296023622047244
 20
0.623472440944882
 30
0.0
 10
0.2296023622047244
 20
0.623472440944882
 30
0.0
 10
-0.4155708661417323
 20
0.2419330708661417
 30
0.0
 10
-0.4155708661417323
 20
0.2419330708661417
 30
0.0
 10
-0.4155708661417323
 20
0.2419330708661417
 30
0.0
 10
-0.4155708661417323
 20
0.2419330708661417
 30
0.0
 10
-0.4613858267716536
 20
0.2184645669291339
 30
0.0
 10
-0.4613858267716536
 20
0.2184645669291339
 30
0.0
  0
SPLINE
  5
5D
100
AcDbEntity
  8
Layer 1
100
AcDbSpline
210
0.0
220
0.0
230
1.0
 70
     1
 71
     3
 72
    20
 73
    16
 74
     0
 42
0.0000000001
 43
0.0000000001
 40
0.0
 40
0.0
 40
0.0
 40
0.0
 40
0.25
 40
0.25
 40
0.25
 40
0.25
 40
0.5
 40
0.5
 40
0.5
 40
0.5
 40
0.75
 40
0.75
 40
0.75
 40
0.75
 40
1.0
 40
1.0
 40
1.0
 40
1.0
 10
-0.4155708661417323
 20
0.2419330708661417
 30
0.0
 10
-0.4155708661417323
 20
0.2419330708661417
 30
0.0
 10
0.2296023622047244
 20
0.623472440944882
 30
0.0
 10
0.2296023622047244
 20
0.623472440944882
 30
0.0
 10
0.2296023622047244
 20
0.623472440944882
 30
0.0
 10
0.2296023622047244
 20
0.623472440944882
 30
0.0
 10
0.2766574803149606
 20
0.6447559055118111
 30
0.0
 10
0.2766574803149606
 20
0.6447559055118111
 30
0.0
 10
0.2766574803149606
 20
0.6447559055118111
 30
0.0
 10
0.2766574803149606
 20
0.6447559055118111
 30
0.0
 10
-0.3685157480314961
 20
0.2632165354330709
 30
0.0
 10
-0.3685157480314961
 20
0.2632165354330709
 30
0.0
 10
-0.3685157480314961
 20
0.2632165354330709
 30
0.0
 10
-0.3685157480314961
 20
0.2632165354330709
 30
0.0
 10
-0.4155708661417323
 20
0.2419330708661417
 30
0.0
 10
-0.4155708661417323
 20
0.2419330708661417
 30
0.0
  0
SPLINE
  5
5E
100
AcDbEntity
  8
Layer 1
100
AcDbSpline
210
0.0
220
0.0
230
1.0
 70
     1
 71
     3
 72
    20
 73
    16
 74
     0
 42
0.0000000001
 43
0.0000000001
 40
0.0
 40
0.0
 40
0.0
 40
0.0
 40
0.25
 40
0.25
 40
0.25
 40
0.25
 40
0.5
 40
0.5
 40
0.5
 40
0.5
 40
0.75
 40
0.75
 40
0.75
 40
0.75
 40
1.0
 40
1.0
 40
1.0
 40
1.0
 10
-0.3685157480314961
 20
0.2632165354330709
 30
0.0
 10
-0.3685157480314961
 20
0.2632165354330709
 30
0.0
 10
0.2766574803149606
 20
0.6447559055118111
 30
0.0
 10
0.2766574803149606
 20
0.6447559055118111
 30
0.0
 10
0.2766574803149606
 20
0.6447559055118111
 30
0.0
 10
0.2766574803149606
 20
0.6447559055118111
 30
0.0
 10
0.3249094488188977
 20
0.6637755905511812
 30
0.0
 10
0.3249094488188977
 20
0.6637755905511812
 30
0.0
 10
0.3249094488188977
 20
0.6637755905511812
 30
0.0
 10
0.3249094488188977
 20
0.6637755905511812
 30
0.0
 10
-0.3202637795275591
 20
0.282236220472441
 30
0.0
 10
-0.3202637795275591
 20
0.282236220472441
 30
0.0
 10
-0.3202637795275591
 20
0.282236220472441
 30
0.0
 10
-0.3202637795275591
 20
0.282236220472441
 30
0.0
 10
-0.3685157480314961
 20
0.2632165354330709
 30
0.0
 10
-0.3685157480314961
 20
0.2632165354330709
 30
0.0
  0
SPLINE
  5
5F
100
AcDbEntity
  8
Layer 1
 62
   119
100
AcDbSpline
210
0.0
220
0.0
230
1.0
 70
     1
 71
     3
 72
    20
 73
    16
 74
     0
 42
0.0000000001
 43
0.0000000001
 40
0.0
 40
0.0
 40
0.0
 40
0.0
 40
0.25
 40
0.25
 40
0.25
 40
0.25
 40
0.5
 40
0.5
 40
0.5
 40
0.5
 40
0.75
 40
0.75
 40
0.75
 40
0.75
 40
1.0
 40
1.0
 40
1.0
 40
1.0
 10
-0.3202637795275591
 20
0.282236220472441
 30
0.0
 10
-0.3202637795275591
 20
0.282236220472441
 30
0.0
 10
0.3249094488188977
 20
0.6637755905511812
 30
0.0
 10
0.3249094488188977
 20
0.6637755905511812
 30
0.0
 10
0.3249094488188977
 20
0.6637755905511812
 30
0.0
 10
0.3249094488188977
 20
0.6637755905511812
 30
0.0
 10
0.3742755905511811
 20
0.680488188976378
 30
0.0
 10
0.3742755905511811
 20
0.680488188976378
 30
0.0
 10
0.3742755905511811
 20
0.680488188976378
 30
0.0
 10
0.3742755905511811
 20
0.680488188976378
 30
0.0
 10
-0.2708976377952756
 20
0.2989488188976378
 30
0.0
 10
-0.2708976377952756
 20
0.2989488188976378
 30
0.0
 10
-0.2708976377952756
 20
0.2989488188976378
 30
0.0
 10
-0.2708976377952756
 20
0.2989488188976378
 30
0.0
 10
-0.3202637795275591
 20
0.282236220472441
 30
0.0
 10
-0.3202637795275591
 20
0.282236220472441
 30
0.0
  0
SPLINE
  5
60
100
AcDbEntity
  8
Layer 1
 62
   139
100
AcDbSpline
210
0.0
220
0.0
230
1.0
 70
     1
 71
     3
 72
    20
 73
    16
 74
     0
 42
0.0000000001
 43
0.0000000001
 40
0.0
 40
0.0
 40
0.0
 40
0.0
 40
0.25
 40
0.25
 40
0.25
 40
0.25
 40
0.5
 40
0.5
 40
0.5
 40
0.5
 40
0.75
 40
0.75
 40
0.75
 40
0.75
 40
1.0
 40
1.0
 40
1.0
 40
1.0
 10
-0.2708976377952756
 20
0.2989488188976378
 30
0.0
 10
-0.2708976377952756
 20
0.2989488188976378
 30
0.0
 10
0.3742755905511811
 20
0.680488188976378
 30
0.0
 10
0.3742755905511811
 20
0.680488188976378
 30
0.0
 10
0.3742755905511811
 20
0.680488188976378
 30
0.0
 10
0.3742755905511811
 20
0.680488188976378
 30
0.0
 10
0.4246929133858268
 20
0.6948070866141732
 30
0.0
 10
0.4246929133858268
 20
0.6948070866141732
 30
0.0
 10
0.4246929133858268
 20
0.6948070866141732
 30
0.0
 10
0.4246929133858268
 20
0.6948070866141732
 30
0.0
 10
-0.2204803149606299
 20
0.3132677165354331
 30
0.0
 10
-0.2204803149606299
 20
0.3132677165354331
 30
0.0
 10
-0.2204803149606299
 20
0.3132677165354331
 30
0.0
 10
-0.2204803149606299
 20
0.3132677165354331
 30
0.0
 10
-0.2708976377952756
 20
0.2989488188976378
 30
0.0
 10
-0.2708976377952756
 20
0.2989488188976378
 30
0.0
  0
SPLINE
  5
61
100
AcDbEntity
  8
Layer 1
 62
   251
100
AcDbSpline
210
0.0
220
0.0
230
1.0
 70
     1
 71
     3
 72
    20
 73
    16
 74
     0
 42
0.0000000001
 43
0.0000000001
 40
0.0
 40
0.0
 40
0.0
 40
0.0
 40
0.25
 40
0.25
 40
0.25
 40
0.25
 40
0.5
 40
0.5
 40
0.5
 40
0.5
 40
0.75
 40
0.75
 40
0.75
 40
0.75
 40
1.0
 40
1.0
 40
1.0
 40
1.0
 10
-0.2204803149606299
 20
0.3132677165354331
 30
0.0
 10
-0.2204803149606299
 20
0.3132677165354331
 30
0.0
 10
0.4246929133858268
 20
0.6948070866141732
 30
0.0
 10
0.4246929133858268
 20
0.6948070866141732
 30
0.0
 10
0.4246929133858268
 20
0.6948070866141732
 30
0.0
 10
0.4246929133858268
 20
0.6948070866141732
 30
0.0
 10
0.4760905511811024
 20
0.7066771653543308
 30
0.0
 10
0.4760905511811024
 20
0.7066771653543308
 30
0.0
 10
0.4760905511811024
 20
0.7066771653543308
 30
0.0
 10
0.4760905511811024
 20
0.7066771653543308
 30
0.0
 10
-0.1690826771653543
 20
0.3251377952755906
 30
0.0
 10
-0.1690826771653543
 20
0.3251377952755906
 30
0.0
 10
-0.1690826771653543
 20
0.3251377952755906
 30
0.0
 10
-0.1690826771653543
 20
0.3251377952755906
 30
0.0
 10
-0.2204803149606299
 20
0.3132677165354331
 30
0.0
 10
-0.2204803149606299
 20
0.3132677165354331
 30
0.0
  0
SPLINE
  5
62
100
AcDbEntity
  8
Layer 1
 62
     8
100
AcDbSpline
210
0.0
220
0.0
230
1.0
 70
     1
 71
     3
 72
    20
 73
    16
 74
     0
 42
0.0000000001
 43
0.0000000001
 40
0.0
 40
0.0
 40
0.0
 40
0.0
 40
0.25
 40
0.25
 40
0.25
 40
0.25
 40
0.5
 40
0.5
 40
0.5
 40
0.5
 40
0.75
 40
0.75
 40
0.75
 40
0.75
 40
1.0
 40
1.0
 40
1.0
 40
1.0
 10
-0.1690826771653543
 20
0.3251377952755906
 30
0.0
 10
-0.1690826771653543
 20
0.3251377952755906
 30
0.0
 10
0.4760905511811024
 20
0.7066771653543308
 30
0.0
 10
0.4760905511811024
 20
0.7066771653543308
 30
0.0
 10
0.4760905511811024
 20
0.7066771653543308
 30
0.0
 10
0.4760905511811024
 20
0.7066771653543308
 30
0.0
 10
0.5284133858267717
 20
0.7160196850393701
 30
0.0
 10
0.5284133858267717
 20
0.7160196850393701
 30
0.0
 10
0.5284133858267717
 20
0.7160196850393701
 30
0.0
 10
0.5284133858267717
 20
0.7160196850393701
 30
0.0
 10
-0.1167598425196851
 20
0.3344803149606299
 30
0.0
 10
-0.1167598425196851
 20
0.3344803149606299
 30
0.0
 10
-0.1167598425196851
 20
0.3344803149606299
 30
0.0
 10
-0.1167598425196851
 20
0.3344803149606299
 30
0.0
 10
-0.1690826771653543
 20
0.3251377952755906
 30
0.0
 10
-0.1690826771653543
 20
0.3251377952755906
 30
0.0
  0
SPLINE
  5
63
100
AcDbEntity
  8
Layer 1
 62
   252
100
AcDbSpline
210
0.0
220
0.0
230
1.0
 70
     1
 71
     3
 72
    20
 73
    16
 74
     0
 42
0.0000000001
 43
0.0000000001
 40
0.0
 40
0.0
 40
0.0
 40
0.0
 40
0.25
 40
0.25
 40
0.25
 40
0.25
 40
0.5
 40
0.5
 40
0.5
 40
0.5
 40
0.75
 40
0.75
 40
0.75
 40
0.75
 40
1.0
 40
1.0
 40
1.0
 40
1.0
 10
-0.1167598425196851
 20
0.3344803149606299
 30
0.0
 10
-0.1167598425196851
 20
0.3344803149606299
 30
0.0
 10
0.5284133858267717
 20
0.7160196850393701
 30
0.0
 10
0.5284133858267717
 20
0.7160196850393701
 30
0.0
 10
0.5284133858267717
 20
0.7160196850393701
 30
0.0
 10
0.5284133858267717
 20
0.7160196850393701
 30
0.0
 10
0.5815748031496063
 20
0.7227795275590552
 30
0.0
 10
0.5815748031496063
 20
0.7227795275590552
 30
0.0
 10
0.5815748031496063
 20
0.7227795275590552
 30
0.0
 10
0.5815748031496063
 20
0.7227795275590552
 30
0.0
 10
-0.0635984251968504
 20
0.341240157480315
 30
0.0
 10
-0.0635984251968504
 20
0.341240157480315
 30
0.0
 10
-0.0635984251968504
 20
0.341240157480315
 30
0.0
 10
-0.0635984251968504
 20
0.341240157480315
 30
0.0
 10
-0.1167598425196851
 20
0.3344803149606299
 30
0.0
 10
-0.1167598425196851
 20
0.3344803149606299
 30
0.0
  0
SPLINE
  5
64
100
AcDbEntity
  8
Layer 1
 62
   252
100
AcDbSpline
210
0.0
220
0.0
230
1.0
 70
     1
 71
     3
 72
    20
 73
    16
 74
     0
 42
0.0000000001
 43
0.0000000001
 40
0.0
 40
0.0
 40
0.0
 40
0.0
 40
0.25
 40
0.25
 40
0.25
 40
0.25
 40
0.5
 40
0.5
 40
0.5
 40
0.5
 40
0.75
 40
0.75
 40
0.75
 40
0.75
 40
1.0
 40
1.0
 40
1.0
 40
1.0
 10
-0.0635984251968504
 20
0.341240157480315
 30
0.0
 10
-0.0635984251968504
 20
0.341240157480315
 30
0.0
 10
0.5815748031496063
 20
0.7227795275590552
 30
0.0
 10
0.5815748031496063
 20
0.7227795275590552
 30
0.0
 10
0.5815748031496063
 20
0.7227795275590552
 30
0.0
 10
0.5815748031496063
 20
0.7227795275590552
 30
0.0
 10
0.6355236220472441
 20
0.7268818897637795
 30
0.0
 10
0.6355236220472441
 20
0.7268818897637795
 30
0.0
 10
0.6355236220472441
 20
0.7268818897637795
 30
0.0
 10
0.6355236220472441
 20
0.7268818897637795
 30
0.0
 10
-0.0096496062992126
 20
0.3453425196850394
 30
0.0
 10
-0.0096496062992126
 20
0.3453425196850394
 30
0.0
 10
-0.0096496062992126
 20
0.3453425196850394
 30
0.0
 10
-0.0096496062992126
 20
0.3453425196850394
 30
0.0
 10
-0.0635984251968504
 20
0.341240157480315
 30
0.0
 10
-0.0635984251968504
 20
0.341240157480315
 30
0.0
  0
SPLINE
  5
65
100
AcDbEntity
  8
Layer 1
 62
   253
100
AcDbSpline
210
0.0
220
0.0
230
1.0
 70
     1
 71
     3
 72
    20
 73
    16
 74
     0
 42
0.0000000001
 43
0.0000000001
 40
0.0
 40
0.0
 40
0.0
 40
0.0
 40
0.25
 40
0.25
 40
0.25
 40
0.25
 40
0.5
 40
0.5
 40
0.5
 40
0.5
 40
0.75
 40
0.75
 40
0.75
 40
0.75
 40
1.0
 40
1.0
 40
1.0
 40
1.0
 10
-0.0096496062992126
 20
0.3453425196850394
 30
0.0
 10
-0.0096496062992126
 20
0.3453425196850394
 30
0.0
 10
0.6355236220472441
 20
0.7268818897637795
 30
0.0
 10
0.6355236220472441
 20
0.7268818897637795
 30
0.0
 10
0.6355236220472441
 20
0.7268818897637795
 30
0.0
 10
0.6355236220472441
 20
0.7268818897637795
 30
0.0
 10
0.6901850393700788
 20
0.7282716535433071
 30
0.0
 10
0.6901850393700788
 20
0.7282716535433071
 30
0.0
 10
0.6901850393700788
 20
0.7282716535433071
 30
0.0
 10
0.6901850393700788
 20
0.7282716535433071
 30
0.0
 10
0.045011811023622
 20
0.3467322834645669
 30
0.0
 10
0.045011811023622
 20
0.3467322834645669
 30
0.0
 10
0.045011811023622
 20
0.3467322834645669
 30
0.0
 10
0.045011811023622
 20
0.3467322834645669
 30
0.0
 10
-0.0096496062992126
 20
0.3453425196850394
 30
0.0
 10
-0.0096496062992126
 20
0.3453425196850394
 30
0.0
  0
SPLINE
  5
66
100
AcDbEntity
  8
Layer 1
 62
   253
100
AcDbSpline
210
0.0
220
0.0
230
1.0
 70
     1
 71
     3
 72
    20
 73
    16
 74
     0
 42
0.0000000001
 43
0.0000000001
 40
0.0
 40
0.0
 40
0.0
 40
0.0
 40
0.25
 40
0.25
 40
0.25
 40
0.25
 40
0.5
 40
0.5
 40
0.5
 40
0.5
 40
0.75
 40
0.75
 40
0.75
 40
0.75
 40
1.0
 40
1.0
 40
1.0
 40
1.0
 10
0.045011811023622
 20
0.3467322834645669
 30
0.0
 10
0.045011811023622
 20
0.3467322834645669
 30
0.0
 10
0.6901850393700788
 20
0.7282716535433071
 30
0.0
 10
0.6901850393700788
 20
0.7282716535433071
 30
0.0
 10
0.6901850393700788
 20
0.7282716535433071
 30
0.0
 10
0.6901850393700788
 20
0.7282716535433071
 30
0.0
 10
0.7389015748031497
 20
0.7271692913385827
 30
0.0
 10
0.7389015748031497
 20
0.7271692913385827
 30
0.0
 10
0.7389015748031497
 20
0.7271692913385827
 30
0.0
 10
0.7389015748031497
 20
0.7271692913385827
 30
0.0
 10
0.0937283464566929
 20
0.3456299212598425
 30
0.0
 10
0.0937283464566929
 20
0.3456299212598425
 30
0.0
 10
0.0937283464566929
 20
0.3456299212598425
 30
0.0
 10
0.0937283464566929
 20
0.3456299212598425
 30
0.0
 10
0.045011811023622
 20
0.3467322834645669
 30
0.0
 10
0.045011811023622
 20
0.3467322834645669
 30
0.0
  0
SPLINE
  5
67
100
AcDbEntity
  8
Layer 1
 62
   253
100
AcDbSpline
210
0.0
220
0.0
230
1.0
 70
     1
 71
     3
 72
    20
 73
    16
 74
     0
 42
0.0000000001
 43
0.0000000001
 40
0.0
 40
0.0
 40
0.0
 40
0.0
 40
0.25
 40
0.25
 40
0.25
 40
0.25
 40
0.5
 40
0.5
 40
0.5
 40
0.5
 40
0.75
 40
0.75
 40
0.75
 40
0.75
 40
1.0
 40
1.0
 40
1.0
 40
1.0
 10
0.0937283464566929
 20
0.3456299212598425
 30
0.0
 10
0.0937283464566929
 20
0.3456299212598425
 30
0.0
 10
0.7389015748031497
 20
0.7271692913385827
 30
0.0
 10
0.7389015748031497
 20
0.7271692913385827
 30
0.0
 10
0.7389015748031497
 20
0.7271692913385827
 30
0.0
 10
0.7389015748031497
 20
0.7271692913385827
 30
0.0
 10
0.7870590551181103
 20
0.7239094488188976
 30
0.0
 10
0.7870590551181103
 20
0.7239094488188976
 30
0.0
 10
0.7870590551181103
 20
0.7239094488188976
 30
0.0
 10
0.7870590551181103
 20
0.7239094488188976
 30
0.0
 10
0.1418858267716535
 20
0.3423700787401575
 30
0.0
 10
0.1418858267716535
 20
0.3423700787401575
 30
0.0
 10
0.1418858267716535
 20
0.3423700787401575
 30
0.0
 10
0.1418858267716535
 20
0.3423700787401575
 30
0.0
 10
0.0937283464566929
 20
0.3456299212598425
 30
0.0
 10
0.0937283464566929
 20
0.3456299212598425
 30
0.0
  0
SPLINE
  5
68
100
AcDbEntity
  8
Layer 1
 62
   253
100
AcDbSpline
210
0.0
220
0.0
230
1.0
 70
     1
 71
     3
 72
    20
 73
    16
 74
     0
 42
0.0000000001
 43
0.0000000001
 40
0.0
 40
0.0
 40
0.0
 40
0.0
 40
0.25
 40
0.25
 40
0.25
 40
0.25
 40
0.5
 40
0.5
 40
0.5
 40
0.5
 40
0.75
 40
0.75
 40
0.75
 40
0.75
 40
1.0
 40
1.0
 40
1.0
 40
1.0
 10
0.1418858267716535
 20
0.3423700787401575
 30
0.0
 10
0.1418858267716535
 20
0.3423700787401575
 30
0.0
 10
0.7870590551181103
 20
0.7239094488188976
 30
0.0
 10
0.7870590551181103
 20
0.7239094488188976
 30
0.0
 10
0.7870590551181103
 20
0.7239094488188976
 30
0.0
 10
0.7870590551181103
 20
0.7239094488188976
 30
0.0
 10
0.8346062992125984
 20
0.7185275590551181
 30
0.0
 10
0.8346062992125984
 20
0.7185275590551181
 30
0.0
 10
0.8346062992125984
 20
0.7185275590551181
 30
0.0
 10
0.8346062992125984
 20
0.7185275590551181
 30
0.0
 10
0.1894330708661418
 20
0.3369881889763779
 30
0.0
 10
0.1894330708661418
 20
0.3369881889763779
 30
0.0
 10
0.1894330708661418
 20
0.3369881889763779
 30
0.0
 10
0.1894330708661418
 20
0.3369881889763779
 30
0.0
 10
0.1418858267716535
 20
0.3423700787401575
 30
0.0
 10
0.1418858267716535
 20
0.3423700787401575
 30
0.0
  0
SPLINE
  5
69
100
AcDbEntity
  8
Layer 1
 62
   253
100
AcDbSpline
210
0.0
220
0.0
230
1.0
 70
     1
 71
     3
 72
    20
 73
    16
 74
     0
 42
0.0000000001
 43
0.0000000001
 40
0.0
 40
0.0
 40
0.0
 40
0.0
 40
0.25
 40
0.25
 40
0.25
 40
0.25
 40
0.5
 40
0.5
 40
0.5
 40
0.5
 40
0.75
 40
0.75
 40
0.75
 40
0.75
 40
1.0
 40
1.0
 40
1.0
 40
1.0
 10
0.1894330708661418
 20
0.3369881889763779
 30
0.0
 10
0.1894330708661418
 20
0.3369881889763779
 30
0.0
 10
0.8346062992125984
 20
0.7185275590551181
 30
0.0
 10
0.8346062992125984
 20
0.7185275590551181
 30
0.0
 10
0.8346062992125984
 20
0.7185275590551181
 30
0.0
 10
0.8346062992125984
 20
0.7185275590551181
 30
0.0
 10
0.8815000000000001
 20
0.7110826771653543
 30
0.0
 10
0.8815000000000001
 20
0.7110826771653543
 30
0.0
 10
0.8815000000000001
 20
0.7110826771653543
 30
0.0
 10
0.8815000000000001
 20
0.7110826771653543
 30
0.0
 10
0.2363267716535433
 20
0.3295433070866142
 30
0.0
 10
0.2363267716535433
 20
0.3295433070866142
 30
0.0
 10
0.2363267716535433
 20
0.3295433070866142
 30
0.0
 10
0.2363267716535433
 20
0.3295433070866142
 30
0.0
 10
0.1894330708661418
 20
0.3369881889763779
 30
0.0
 10
0.1894330708661418
 20
0.3369881889763779
 30
0.0
  0
SPLINE
  5
6A
100
AcDbEntity
  8
Layer 1
 62
   253
100
AcDbSpline
210
0.0
220
0.0
230
1.0
 70
     1
 71
     3
 72
    20
 73
    16
 74
     0
 42
0.0000000001
 43
0.0000000001
 40
0.0
 40
0.0
 40
0.0
 40
0.0
 40
0.25
 40
0.25
 40
0.25
 40
0.25
 40
0.5
 40
0.5
 40
0.5
 40
0.5
 40
0.75
 40
0.75
 40
0.75
 40
0.75
 40
1.0
 40
1.0
 40
1.0
 40
1.0
 10
0.2363267716535433
 20
0.3295433070866142
 30
0.0
 10
0.2363267716535433
 20
0.3295433070866142
 30
0.0
 10
0.8815000000000001
 20
0.7110826771653543
 30
0.0
 10
0.8815000000000001
 20
0.7110826771653543
 30
0.0
 10
0.8815000000000001
 20
0.7110826771653543
 30
0.0
 10
0.8815000000000001
 20
0.7110826771653543
 30
0.0
 10
0.9276850393700787
 20
0.7016062992125984
 30
0.0
 10
0.9276850393700787
 20
0.7016062992125984
 30
0.0
 10
0.9276850393700787
 20
0.7016062992125984
 30
0.0
 10
0.9276850393700787
 20
0.7016062992125984
 30
0.0
 10
0.2825118110236221
 20
0.3200669291338583
 30
0.0
 10
0.2825118110236221
 20
0.3200669291338583
 30
0.0
 10
0.2825118110236221
 20
0.3200669291338583
 30
0.0
 10
0.2825118110236221
 20
0.3200669291338583
 30
0.0
 10
0.2363267716535433
 20
0.3295433070866142
 30
0.0
 10
0.2363267716535433
 20
0.3295433070866142
 30
0.0
  0
SPLINE
  5
6B
100
AcDbEntity
  8
Layer 1
 62
   253
100
AcDbSpline
210
0.0
220
0.0
230
1.0
 70
     1
 71
     3
 72
    20
 73
    16
 74
     0
 42
0.0000000001
 43
0.0000000001
 40
0.0
 40
0.0
 40
0.0
 40
0.0
 40
0.25
 40
0.25
 40
0.25
 40
0.25
 40
0.5
 40
0.5
 40
0.5
 40
0.5
 40
0.75
 40
0.75
 40
0.75
 40
0.75
 40
1.0
 40
1.0
 40
1.0
 40
1.0
 10
0.2825118110236221
 20
0.3200669291338583
 30
0.0
 10
0.2825118110236221
 20
0.3200669291338583
 30
0.0
 10
0.9276850393700787
 20
0.7016062992125984
 30
0.0
 10
0.9276850393700787
 20
0.7016062992125984
 30
0.0
 10
0.9276850393700787
 20
0.7016062992125984
 30
0.0
 10
0.9276850393700787
 20
0.7016062992125984
 30
0.0
 10
0.9731181102362205
 20
0.6901614173228347
 30
0.0
 10
0.9731181102362205
 20
0.6901614173228347
 30
0.0
 10
0.9731181102362205
 20
0.6901614173228347
 30
0.0
 10
0.9731181102362205
 20
0.6901614173228347
 30
0.0
 10
0.3279448818897638
 20
0.3086220472440945
 30
0.0
 10
0.3279448818897638
 20
0.3086220472440945
 30
0.0
 10
0.3279448818897638
 20
0.3086220472440945
 30
0.0
 10
0.3279448818897638
 20
0.3086220472440945
 30
0.0
 10
0.2825118110236221
 20
0.3200669291338583
 30
0.0
 10
0.2825118110236221
 20
0.3200669291338583
 30
0.0
  0
SPLINE
  5
6C
100
AcDbEntity
  8
Layer 1
 62
   253
100
AcDbSpline
210
0.0
220
0.0
230
1.0
 70
     1
 71
     3
 72
    20
 73
    16
 74
     0
 42
0.0000000001
 43
0.0000000001
 40
0.0
 40
0.0
 40
0.0
 40
0.0
 40
0.25
 40
0.25
 40
0.25
 40
0.25
 40
0.5
 40
0.5
 40
0.5
 40
0.5
 40
0.75
 40
0.75
 40
0.75
 40
0.75
 40
1.0
 40
1.0
 40
1.0
 40
1.0
 10
0.3279448818897638
 20
0.3086220472440945
 30
0.0
 10
0.3279448818897638
 20
0.3086220472440945
 30
0.0
 10
0.9731181102362205
 20
0.6901614173228347
 30
0.0
 10
0.9731181102362205
 20
0.6901614173228347
 30
0.0
 10
0.9731181102362205
 20
0.6901614173228347
 30
0.0
 10
0.9731181102362205
 20
0.6901614173228347
 30
0.0
 10
1.0177559055118111
 20
0.6767834645669292
 30
0.0
 10
1.0177559055118111
 20
0.6767834645669292
 30
0.0
 10
1.0177559055118111
 20
0.6767834645669292
 30
0.0
 10
1.0177559055118111
 20
0.6767834645669292
 30
0.0
 10
0.3725826771653544
 20
0.295244094488189
 30
0.0
 10
0.3725826771653544
 20
0.295244094488189
 30
0.0
 10
0.3725826771653544
 20
0.295244094488189
 30
0.0
 10
0.3725826771653544
 20
0.295244094488189
 30
0.0
 10
0.3279448818897638
 20
0.3086220472440945
 30
0.0
 10
0.3279448818897638
 20
0.3086220472440945
 30
0.0
  0
SPLINE
  5
6D
100
AcDbEntity
  8
Layer 1
 62
   253
100
AcDbSpline
210
0.0
220
0.0
230
1.0
 70
     1
 71
     3
 72
    20
 73
    16
 74
     0
 42
0.0000000001
 43
0.0000000001
 40
0.0
 40
0.0
 40
0.0
 40
0.0
 40
0.25
 40
0.25
 40
0.25
 40
0.25
 40
0.5
 40
0.5
 40
0.5
 40
0.5
 40
0.75
 40
0.75
 40
0.75
 40
0.75
 40
1.0
 40
1.0
 40
1.0
 40
1.0
 10
0.3725826771653544
 20
0.295244094488189
 30
0.0
 10
0.3725826771653544
 20
0.295244094488189
 30
0.0
 10
1.0177559055118111
 20
0.6767834645669292
 30
0.0
 10
1.0177559055118111
 20
0.6767834645669292
 30
0.0
 10
1.0177559055118111
 20
0.6767834645669292
 30
0.0
 10
1.0177559055118111
 20
0.6767834645669292
 30
0.0
 10
1.0615511811023624
 20
0.6615314960629921
 30
0.0
 10
1.0615511811023624
 20
0.6615314960629921
 30
0.0
 10
1.0615511811023624
 20
0.6615314960629921
 30
0.0
 10
1.0615511811023624
 20
0.6615314960629921
 30
0.0
 10
0.4163779527559055
 20
0.279992125984252
 30
0.0
 10
0.4163779527559055
 20
0.279992125984252
 30
0.0
 10
0.4163779527559055
 20
0.279992125984252
 30
0.0
 10
0.4163779527559055
 20
0.279992125984252
 30
0.0
 10
0.3725826771653544
 20
0.295244094488189
 30
0.0
 10
0.3725826771653544
 20
0.295244094488189
 30
0.0
  0
SPLINE
  5
6E
100
AcDbEntity
  8
Layer 1
 62
   253
100
AcDbSpline
210
0.0
220
0.0
230
1.0
 70
     1
 71
     3
 72
    20
 73
    16
 74
     0
 42
0.0000000001
 43
0.0000000001
 40
0.0
 40
0.0
 40
0.0
 40
0.0
 40
0.25
 40
0.25
 40
0.25
 40
0.25
 40
0.5
 40
0.5
 40
0.5
 40
0.5
 40
0.75
 40
0.75
 40
0.75
 40
0.75
 40
1.0
 40
1.0
 40
1.0
 40
1.0
 10
0.4163779527559055
 20
0.279992125984252
 30
0.0
 10
0.4163779527559055
 20
0.279992125984252
 30
0.0
 10
1.0615511811023624
 20
0.6615314960629921
 30
0.0
 10
1.0615511811023624
 20
0.6615314960629921
 30
0.0
 10
1.0615511811023624
 20
0.6615314960629921
 30
0.0
 10
1.0615511811023624
 20
0.6615314960629921
 30
0.0
 10
1.1044448818897639
 20
0.6444370078740158
 30
0.0
 10
1.1044448818897639
 20
0.6444370078740158
 30
0.0
 10
1.1044448818897639
 20
0.6444370078740158
 30
0.0
 10
1.1044448818897639
 20
0.6444370078740158
 30
0.0
 10
0.4592716535433071
 20
0.2628976377952756
 30
0.0
 10
0.4592716535433071
 20
0.2628976377952756
 30
0.0
 10
0.4592716535433071
 20
0.2628976377952756
 30
0.0
 10
0.4592716535433071
 20
0.2628976377952756
 30
0.0
 10
0.4163779527559055
 20
0.279992125984252
 30
0.0
 10
0.4163779527559055
 20
0.279992125984252
 30
0.0
  0
SPLINE
  5
6F
100
AcDbEntity
  8
Layer 1
 62
   253
100
AcDbSpline
210
0.0
220
0.0
230
1.0
 70
     1
 71
     3
 72
    20
 73
    16
 74
     0
 42
0.0000000001
 43
0.0000000001
 40
0.0
 40
0.0
 40
0.0
 40
0.0
 40
0.25
 40
0.25
 40
0.25
 40
0.25
 40
0.5
 40
0.5
 40
0.5
 40
0.5
 40
0.75
 40
0.75
 40
0.75
 40
0.75
 40
1.0
 40
1.0
 40
1.0
 40
1.0
 10
0.4592716535433071
 20
0.2628976377952756
 30
0.0
 10
0.4592716535433071
 20
0.2628976377952756
 30
0.0
 10
1.1044448818897639
 20
0.6444370078740158
 30
0.0
 10
1.1044448818897639
 20
0.6444370078740158
 30
0.0
 10
1.1044448818897639
 20
0.6444370078740158
 30
0.0
 10
1.1044448818897639
 20
0.6444370078740158
 30
0.0
 10
1.1464015748031497
 20
0.6255629921259843
 30
0.0
 10
1.1464015748031497
 20
0.6255629921259843
 30
0.0
 10
1.1464015748031497
 20
0.6255629921259843
 30
0.0
 10
1.1464015748031497
 20
0.6255629921259843
 30
0.0
 10
0.5012283464566929
 20
0.2440236220472441
 30
0.0
 10
0.5012283464566929
 20
0.2440236220472441
 30
0.0
 10
0.5012283464566929
 20
0.2440236220472441
 30
0.0
 10
0.5012283464566929
 20
0.2440236220472441
 30
0.0
 10
0.4592716535433071
 20
0.2628976377952756
 30
0.0
 10
0.4592716535433071
 20
0.2628976377952756
 30
0.0
  0
SPLINE
  5
70
100
AcDbEntity
  8
Layer 1
 62
   253
100
AcDbSpline
210
0.0
220
0.0
230
1.0
 70
     1
 71
     3
 72
    20
 73
    16
 74
     0
 42
0.0000000001
 43
0.0000000001
 40
0.0
 40
0.0
 40
0.0
 40
0.0
 40
0.25
 40
0.25
 40
0.25
 40
0.25
 40
0.5
 40
0.5
 40
0.5
 40
0.5
 40
0.75
 40
0.75
 40
0.75
 40
0.75
 40
1.0
 40
1.0
 40
1.0
 40
1.0
 10
0.5012283464566929
 20
0.2440236220472441
 30
0.0
 10
0.5012283464566929
 20
0.2440236220472441
 30
0.0
 10
1.1464015748031497
 20
0.6255629921259843
 30
0.0
 10
1.1464015748031497
 20
0.6255629921259843
 30
0.0
 10
1.1464015748031497
 20
0.6255629921259843
 30
0.0
 10
1.1464015748031497
 20
0.6255629921259843
 30
0.0
 10
1.1873740157480315
 20
0.6049448818897638
 30
0.0
 10
1.1873740157480315
 20
0.6049448818897638
 30
0.0
 10
1.1873740157480315
 20
0.6049448818897638
 30
0.0
 10
1.1873740157480315
 20
0.6049448818897638
 30
0.0
 10
0.5422007874015749
 20
0.2234055118110236
 30
0.0
 10
0.5422007874015749
 20
0.2234055118110236
 30
0.0
 10
0.5422007874015749
 20
0.2234055118110236
 30
0.0
 10
0.5422007874015749
 20
0.2234055118110236
 30
0.0
 10
0.5012283464566929
 20
0.2440236220472441
 30
0.0
 10
0.5012283464566929
 20
0.2440236220472441
 30
0.0
  0
SPLINE
  5
71
100
AcDbEntity
  8
Layer 1
 62
     9
100
AcDbSpline
210
0.0
220
0.0
230
1.0
 70
     1
 71
     3
 72
    20
 73
    16
 74
     0
 42
0.0000000001
 43
0.0000000001
 40
0.0
 40
0.0
 40
0.0
 40
0.0
 40
0.25
 40
0.25
 40
0.25
 40
0.25
 40
0.5
 40
0.5
 40
0.5
 40
0.5
 40
0.75
 40
0.75
 40
0.75
 40
0.75
 40
1.0
 40
1.0
 40
1.0
 40
1.0
 10
0.5422007874015749
 20
0.2234055118110236
 30
0.0
 10
0.5422007874015749
 20
0.2234055118110236
 30
0.0
 10
1.1873740157480315
 20
0.6049448818897638
 30
0.0
 10
1.1873740157480315
 20
0.6049448818897638
 30
0.0
 10
1.1873740157480315
 20
0.6049448818897638
 30
0.0
 10
1.1873740157480315
 20
0.6049448818897638
 30
0.0
 10
1.2273149606299214
 20
0.5826417322834646
 30
0.0
 10
1.2273149606299214
 20
0.5826417322834646
 30
0.0
 10
1.2273149606299214
 20
0.5826417322834646
 30
0.0
 10
1.2273149606299214
 20
0.5826417322834646
 30
0.0
 10
0.5821417322834646
 20
0.2011023622047244
 30
0.0
 10
0.5821417322834646
 20
0.2011023622047244
 30
0.0
 10
0.5821417322834646
 20
0.2011023622047244
 30
0.0
 10
0.5821417322834646
 20
0.2011023622047244
 30
0.0
 10
0.5422007874015749
 20
0.2234055118110236
 30
0.0
 10
0.5422007874015749
 20
0.2234055118110236
 30
0.0
  0
SPLINE
  5
72
100
AcDbEntity
  8
Layer 1
 62
     9
100
AcDbSpline
210
0.0
220
0.0
230
1.0
 70
     1
 71
     3
 72
    20
 73
    16
 74
     0
 42
0.0000000001
 43
0.0000000001
 40
0.0
 40
0.0
 40
0.0
 40
0.0
 40
0.25
 40
0.25
 40
0.25
 40
0.25
 40
0.5
 40
0.5
 40
0.5
 40
0.5
 40
0.75
 40
0.75
 40
0.75
 40
0.75
 40
1.0
 40
1.0
 40
1.0
 40
1.0
 10
0.5821417322834646
 20
0.2011023622047244
 30
0.0
 10
0.5821417322834646
 20
0.2011023622047244
 30
0.0
 10
1.2273149606299214
 20
0.5826417322834646
 30
0.0
 10
1.2273149606299214
 20
0.5826417322834646
 30
0.0
 10
1.2273149606299214
 20
0.5826417322834646
 30
0.0
 10
1.2273149606299214
 20
0.5826417322834646
 30
0.0
 10
1.2661653543307088
 20
0.5586850393700787
 30
0.0
 10
1.2661653543307088
 20
0.5586850393700787
 30
0.0
 10
1.2661653543307088
 20
0.5586850393700787
 30
0.0
 10
1.2661653543307088
 20
0.5586850393700787
 30
0.0
 10
0.620992125984252
 20
0.1771456692913386
 30
0.0
 10
0.620992125984252
 20
0.1771456692913386
 30
0.0
 10
0.620992125984252
 20
0.1771456692913386
 30
0.0
 10
0.620992125984252
 20
0.1771456692913386
 30
0.0
 10
0.5821417322834646
 20
0.2011023622047244
 30
0.0
 10
0.5821417322834646
 20
0.2011023622047244
 30
0.0
  0
SPLINE
  5
73
100
AcDbEntity
  8
Layer 1
 62
     9
100
AcDbSpline
210
0.0
220
0.0
230
1.0
 70
     1
 71
     3
 72
    20
 73
    16
 74
     0
 42
0.0000000001
 43
0.0000000001
 40
0.0
 40
0.0
 40
0.0
 40
0.0
 40
0.25
 40
0.25
 40
0.25
 40
0.25
 40
0.5
 40
0.5
 40
0.5
 40
0.5
 40
0.75
 40
0.75
 40
0.75
 40
0.75
 40
1.0
 40
1.0
 40
1.0
 40
1.0
 10
0.620992125984252
 20
0.1771456692913386
 30
0.0
 10
0.620992125984252
 20
0.1771456692913386
 30
0.0
 10
1.2661653543307088
 20
0.5586850393700787
 30
0.0
 10
1.2661653543307088
 20
0.5586850393700787
 30
0.0
 10
1.2661653543307088
 20
0.5586850393700787
 30
0.0
 10
1.2661653543307088
 20
0.5586850393700787
 30
0.0
 10
1.3038937007874016
 20
0.5331377952755906
 30
0.0
 10
1.3038937007874016
 20
0.5331377952755906
 30
0.0
 10
1.3038937007874016
 20
0.5331377952755906
 30
0.0
 10
1.3038937007874016
 20
0.5331377952755906
 30
0.0
 10
0.6587204724409449
 20
0.1515984251968504
 30
0.0
 10
0.6587204724409449
 20
0.1515984251968504
 30
0.0
 10
0.6587204724409449
 20
0.1515984251968504
 30
0.0
 10
0.6587204724409449
 20
0.1515984251968504
 30
0.0
 10
0.620992125984252
 20
0.1771456692913386
 30
0.0
 10
0.620992125984252
 20
0.1771456692913386
 30
0.0
  0
SPLINE
  5
74
100
AcDbEntity
  8
Layer 1
 62
     9
100
AcDbSpline
210
0.0
220
0.0
230
1.0
 70
     1
 71
     3
 72
    20
 73
    16
 74
     0
 42
0.0000000001
 43
0.0000000001
 40
0.0
 40
0.0
 40
0.0
 40
0.0
 40
0.25
 40
0.25
 40
0.25
 40
0.25
 40
0.5
 40
0.5
 40
0.5
 40
0.5
 40
0.75
 40
0.75
 40
0.75
 40
0.75
 40
1.0
 40
1.0
 40
1.0
 40
1.0
 10
0.6587204724409449
 20
0.1515984251968504
 30
0.0
 10
0.6587204724409449
 20
0.1515984251968504
 30
0.0
 10
1.3038937007874016
 20
0.5331377952755906
 30
0.0
 10
1.3038937007874016
 20
0.5331377952755906
 30
0.0
 10
1.3038937007874016
 20
0.5331377952755906
 30
0.0
 10
1.3038937007874016
 20
0.5331377952755906
 30
0.0
 10
1.3404448818897639
 20
0.5060354330708662
 30
0.0
 10
1.3404448818897639
 20
0.5060354330708662
 30
0.0
 10
1.3404448818897639
 20
0.5060354330708662
 30
0.0
 10
1.3404448818897639
 20
0.5060354330708662
 30
0.0
 10
0.6952716535433071
 20
0.124496062992126
 30
0.0
 10
0.6952716535433071
 20
0.124496062992126
 30
0.0
 10
0.6952716535433071
 20
0.124496062992126
 30
0.0
 10
0.6952716535433071
 20
0.124496062992126
 30
0.0
 10
0.6587204724409449
 20
0.1515984251968504
 30
0.0
 10
0.6587204724409449
 20
0.1515984251968504
 30
0.0
  0
SPLINE
  5
75
100
AcDbEntity
  8
Layer 1
 62
     9
100
AcDbSpline
210
0.0
220
0.0
230
1.0
 70
     1
 71
     3
 72
    20
 73
    16
 74
     0
 42
0.0000000001
 43
0.0000000001
 40
0.0
 40
0.0
 40
0.0
 40
0.0
 40
0.25
 40
0.25
 40
0.25
 40
0.25
 40
0.5
 40
0.5
 40
0.5
 40
0.5
 40
0.75
 40
0.75
 40
0.75
 40
0.75
 40
1.0
 40
1.0
 40
1.0
 40
1.0
 10
0.6952716535433071
 20
0.124496062992126
 30
0.0
 10
0.6952716535433071
 20
0.124496062992126
 30
0.0
 10
1.3404448818897639
 20
0.5060354330708662
 30
0.0
 10
1.3404448818897639
 20
0.5060354330708662
 30
0.0
 10
1.3404448818897639
 20
0.5060354330708662
 30
0.0
 10
1.3404448818897639
 20
0.5060354330708662
 30
0.0
 10
1.3757755905511813
 20
0.4774370078740158
 30
0.0
 10
1.3757755905511813
 20
0.4774370078740158
 30
0.0
 10
1.3757755905511813
 20
0.4774370078740158
 30
0.0
 10
1.3757755905511813
 20
0.4774370078740158
 30
0.0
 10
0.7306023622047244
 20
0.0958976377952756
 30
0.0
 10
0.7306023622047244
 20
0.0958976377952756
 30
0.0
 10
0.7306023622047244
 20
0.0958976377952756
 30
0.0
 10
0.7306023622047244
 20
0.0958976377952756
 30
0.0
 10
0.6952716535433071
 20
0.124496062992126
 30
0.0
 10
0.6952716535433071
 20
0.124496062992126
 30
0.0
  0
SPLINE
  5
76
100
AcDbEntity
  8
Layer 1
 62
     9
100
AcDbSpline
210
0.0
220
0.0
230
1.0
 70
     1
 71
     3
 72
    20
 73
    16
 74
     0
 42
0.0000000001
 43
0.0000000001
 40
0.0
 40
0.0
 40
0.0
 40
0.0
 40
0.25
 40
0.25
 40
0.25
 40
0.25
 40
0.5
 40
0.5
 40
0.5
 40
0.5
 40
0.75
 40
0.75
 40
0.75
 40
0.75
 40
1.0
 40
1.0
 40
1.0
 40
1.0
 10
0.7306023622047244
 20
0.0958976377952756
 30
0.0
 10
0.7306023622047244
 20
0.0958976377952756
 30
0.0
 10
1.3757755905511813
 20
0.4774370078740158
 30
0.0
 10
1.3757755905511813
 20
0.4774370078740158
 30
0.0
 10
1.3757755905511813
 20
0.4774370078740158
 30
0.0
 10
1.3757755905511813
 20
0.4774370078740158
 30
0.0
 10
1.4098267716535433
 20
0.4473700787401575
 30
0.0
 10
1.4098267716535433
 20
0.4473700787401575
 30
0.0
 10
1.4098267716535433
 20
0.4473700787401575
 30
0.0
 10
1.4098267716535433
 20
0.4473700787401575
 30
0.0
 10
0.7646535433070867
 20
0.0658307086614173
 30
0.0
 10
0.7646535433070867
 20
0.0658307086614173
 30
0.0
 10
0.7646535433070867
 20
0.0658307086614173
 30
0.0
 10
0.7646535433070867
 20
0.0658307086614173
 30
0.0
 10
0.7306023622047244
 20
0.0958976377952756
 30
0.0
 10
0.7306023622047244
 20
0.0958976377952756
 30
0.0
  0
SPLINE
  5
77
100
AcDbEntity
  8
Layer 1
 62
     9
100
AcDbSpline
210
0.0
220
0.0
230
1.0
 70
     1
 71
     3
 72
    20
 73
    16
 74
     0
 42
0.0000000001
 43
0.0000000001
 40
0.0
 40
0.0
 40
0.0
 40
0.0
 40
0.25
 40
0.25
 40
0.25
 40
0.25
 40
0.5
 40
0.5
 40
0.5
 40
0.5
 40
0.75
 40
0.75
 40
0.75
 40
0.75
 40
1.0
 40
1.0
 40
1.0
 40
1.0
 10
0.7646535433070867
 20
0.0658307086614173
 30
0.0
 10
0.7646535433070867
 20
0.0658307086614173
 30
0.0
 10
1.4098267716535433
 20
0.4473700787401575
 30
0.0
 10
1.4098267716535433
 20
0.4473700787401575
 30
0.0
 10
1.4098267716535433
 20
0.4473700787401575
 30
0.0
 10
1.4098267716535433
 20
0.4473700787401575
 30
0.0
 10
1.4425629921259844
 20
0.4159015748031496
 30
0.0
 10
1.4425629921259844
 20
0.4159015748031496
 30
0.0
 10
1.4425629921259844
 20
0.4159015748031496
 30
0.0
 10
1.4425629921259844
 20
0.4159015748031496
 30
0.0
 10
0.7973897637795276
 20
0.0343622047244094
 30
0.0
 10
0.7973897637795276
 20
0.0343622047244094
 30
0.0
 10
0.7973897637795276
 20
0.0343622047244094
 30
0.0
 10
0.7973897637795276
 20
0.0343622047244094
 30
0.0
 10
0.7646535433070867
 20
0.0658307086614173
 30
0.0
 10
0.7646535433070867
 20
0.0658307086614173
 30
0.0
  0
SPLINE
  5
78
100
AcDbEntity
  8
Layer 1
 62
     9
100
AcDbSpline
210
0.0
220
0.0
230
1.0
 70
     1
 71
     3
 72
    20
 73
    16
 74
     0
 42
0.0000000001
 43
0.0000000001
 40
0.0
 40
0.0
 40
0.0
 40
0.0
 40
0.25
 40
0.25
 40
0.25
 40
0.25
 40
0.5
 40
0.5
 40
0.5
 40
0.5
 40
0.75
 40
0.75
 40
0.75
 40
0.75
 40
1.0
 40
1.0
 40
1.0
 40
1.0
 10
0.7973897637795276
 20
0.0343622047244094
 30
0.0
 10
0.7973897637795276
 20
0.0343622047244094
 30
0.0
 10
1.4425629921259844
 20
0.4159015748031496
 30
0.0
 10
1.4425629921259844
 20
0.4159015748031496
 30
0.0
 10
1.4425629921259844
 20
0.4159015748031496
 30
0.0
 10
1.4425629921259844
 20
0.4159015748031496
 30
0.0
 10
1.4739370078740157
 20
0.3830708661417323
 30
0.0
 10
1.4739370078740157
 20
0.3830708661417323
 30
0.0
 10
1.4739370078740157
 20
0.3830708661417323
 30
0.0
 10
1.4739370078740157
 20
0.3830708661417323
 30
0.0
 10
0.8287637795275591
 20
0.0015314960629921
 30
0.0
 10
0.8287637795275591
 20
0.0015314960629921
 30
0.0
 10
0.8287637795275591
 20
0.0015314960629921
 30
0.0
 10
0.8287637795275591
 20
0.0015314960629921
 30
0.0
 10
0.7973897637795276
 20
0.0343622047244094
 30
0.0
 10
0.7973897637795276
 20
0.0343622047244094
 30
0.0
  0
SPLINE
  5
79
100
AcDbEntity
  8
Layer 1
 62
     9
100
AcDbSpline
210
0.0
220
0.0
230
1.0
 70
     1
 71
     3
 72
    20
 73
    16
 74
     0
 42
0.0000000001
 43
0.0000000001
 40
0.0
 40
0.0
 40
0.0
 40
0.0
 40
0.25
 40
0.25
 40
0.25
 40
0.25
 40
0.5
 40
0.5
 40
0.5
 40
0.5
 40
0.75
 40
0.75
 40
0.75
 40
0.75
 40
1.0
 40
1.0
 40
1.0
 40
1.0
 10
0.8287637795275591
 20
0.0015314960629921
 30
0.0
 10
0.8287637795275591
 20
0.0015314960629921
 30
0.0
 10
1.4739370078740157
 20
0.3830708661417323
 30
0.0
 10
1.4739370078740157
 20
0.3830708661417323
 30
0.0
 10
1.4739370078740157
 20
0.3830708661417323
 30
0.0
 10
1.4739370078740157
 20
0.3830708661417323
 30
0.0
 10
1.5038976377952757
 20
0.3489330708661417
 30
0.0
 10
1.5038976377952757
 20
0.3489330708661417
 30
0.0
 10
1.5038976377952757
 20
0.3489330708661417
 30
0.0
 10
1.5038976377952757
 20
0.3489330708661417
 30
0.0
 10
0.8587244094488189
 20
-0.0326062992125984
 30
0.0
 10
0.8587244094488189
 20
-0.0326062992125984
 30
0.0
 10
0.8587244094488189
 20
-0.0326062992125984
 30
0.0
 10
0.8587244094488189
 20
-0.0326062992125984
 30
0.0
 10
0.8287637795275591
 20
0.0015314960629921
 30
0.0
 10
0.8287637795275591
 20
0.0015314960629921
 30
0.0
  0
SPLINE
  5
7A
100
AcDbEntity
  8
Layer 1
 62
     9
100
AcDbSpline
210
0.0
220
0.0
230
1.0
 70
     1
 71
     3
 72
    20
 73
    16
 74
     0
 42
0.0000000001
 43
0.0000000001
 40
0.0
 40
0.0
 40
0.0
 40
0.0
 40
0.25
 40
0.25
 40
0.25
 40
0.25
 40
0.5
 40
0.5
 40
0.5
 40
0.5
 40
0.75
 40
0.75
 40
0.75
 40
0.75
 40
1.0
 40
1.0
 40
1.0
 40
1.0
 10
0.8587244094488189
 20
-0.0326062992125984
 30
0.0
 10
0.8587244094488189
 20
-0.0326062992125984
 30
0.0
 10
1.5038976377952757
 20
0.3489330708661417
 30
0.0
 10
1.5038976377952757
 20
0.3489330708661417
 30
0.0
 10
1.5038976377952757
 20
0.3489330708661417
 30
0.0
 10
1.5038976377952757
 20
0.3489330708661417
 30
0.0
 10
1.5323976377952757
 20
0.3135275590551181
 30
0.0
 10
1.5323976377952757
 20
0.3135275590551181
 30
0.0
 10
1.5323976377952757
 20
0.3135275590551181
 30
0.0
 10
1.5323976377952757
 20
0.3135275590551181
 30
0.0
 10
0.887224409448819
 20
-0.0680118110236221
 30
0.0
 10
0.887224409448819
 20
-0.0680118110236221
 30
0.0
 10
0.887224409448819
 20
-0.0680118110236221
 30
0.0
 10
0.887224409448819
 20
-0.0680118110236221
 30
0.0
 10
0.8587244094488189
 20
-0.0326062992125984
 30
0.0
 10
0.8587244094488189
 20
-0.0326062992125984
 30
0.0
  0
SPLINE
  5
7B
100
AcDbEntity
  8
Layer 1
 62
     9
100
AcDbSpline
210
0.0
220
0.0
230
1.0
 70
     1
 71
     3
 72
    20
 73
    16
 74
     0
 42
0.0000000001
 43
0.0000000001
 40
0.0
 40
0.0
 40
0.0
 40
0.0
 40
0.25
 40
0.25
 40
0.25
 40
0.25
 40
0.5
 40
0.5
 40
0.5
 40
0.5
 40
0.75
 40
0.75
 40
0.75
 40
0.75
 40
1.0
 40
1.0
 40
1.0
 40
1.0
 10
0.887224409448819
 20
-0.0680118110236221
 30
0.0
 10
0.887224409448819
 20
-0.0680118110236221
 30
0.0
 10
1.5323976377952757
 20
0.3135275590551181
 30
0.0
 10
1.5323976377952757
 20
0.3135275590551181
 30
0.0
 10
1.5323976377952757
 20
0.3135275590551181
 30
0.0
 10
1.5323976377952757
 20
0.3135275590551181
 30
0.0
 10
1.5593897637795275
 20
0.2768897637795276
 30
0.0
 10
1.5593897637795275
 20
0.2768897637795276
 30
0.0
 10
1.5593897637795275
 20
0.2768897637795276
 30
0.0
 10
1.5593897637795275
 20
0.2768897637795276
 30
0.0
 10
0.9142165354330709
 20
-0.1046496062992126
 30
0.0
 10
0.9142165354330709
 20
-0.1046496062992126
 30
0.0
 10
0.9142165354330709
 20
-0.1046496062992126
 30
0.0
 10
0.9142165354330709
 20
-0.1046496062992126
 30
0.0
 10
0.887224409448819
 20
-0.0680118110236221
 30
0.0
 10
0.887224409448819
 20
-0.0680118110236221
 30
0.0
  0
SPLINE
  5
7C
100
AcDbEntity
  8
Layer 1
 62
     9
100
AcDbSpline
210
0.0
220
0.0
230
1.0
 70
     1
 71
     3
 72
    20
 73
    16
 74
     0
 42
0.0000000001
 43
0.0000000001
 40
0.0
 40
0.0
 40
0.0
 40
0.0
 40
0.25
 40
0.25
 40
0.25
 40
0.25
 40
0.5
 40
0.5
 40
0.5
 40
0.5
 40
0.75
 40
0.75
 40
0.75
 40
0.75
 40
1.0
 40
1.0
 40
1.0
 40
1.0
 10
0.9142165354330709
 20
-0.1046496062992126
 30
0.0
 10
0.9142165354330709
 20
-0.1046496062992126
 30
0.0
 10
1.5593897637795275
 20
0.2768897637795276
 30
0.0
 10
1.5593897637795275
 20
0.2768897637795276
 30
0.0
 10
1.5593897637795275
 20
0.2768897637795276
 30
0.0
 10
1.5593897637795275
 20
0.2768897637795276
 30
0.0
 10
1.5848307086614173
 20
0.2390866141732284
 30
0.0
 10
1.5848307086614173
 20
0.2390866141732284
 30
0.0
 10
1.5848307086614173
 20
0.2390866141732284
 30
0.0
 10
1.5848307086614173
 20
0.2390866141732284
 30
0.0
 10
0.9396574803149607
 20
-0.1424527559055118
 30
0.0
 10
0.9396574803149607
 20
-0.1424527559055118
 30
0.0
 10
0.9396574803149607
 20
-0.1424527559055118
 30
0.0
 10
0.9396574803149607
 20
-0.1424527559055118
 30
0.0
 10
0.9142165354330709
 20
-0.1046496062992126
 30
0.0
 10
0.9142165354330709
 20
-0.1046496062992126
 30
0.0
  0
SPLINE
  5
7D
100
AcDbEntity
  8
Layer 1
 62
     9
100
AcDbSpline
210
0.0
220
0.0
230
1.0
 70
     1
 71
     3
 72
    20
 73
    16
 74
     0
 42
0.0000000001
 43
0.0000000001
 40
0.0
 40
0.0
 40
0.0
 40
0.0
 40
0.25
 40
0.25
 40
0.25
 40
0.25
 40
0.5
 40
0.5
 40
0.5
 40
0.5
 40
0.75
 40
0.75
 40
0.75
 40
0.75
 40
1.0
 40
1.0
 40
1.0
 40
1.0
 10
0.9396574803149607
 20
-0.1424527559055118
 30
0.0
 10
0.9396574803149607
 20
-0.1424527559055118
 30
0.0
 10
1.5848307086614173
 20
0.2390866141732284
 30
0.0
 10
1.5848307086614173
 20
0.2390866141732284
 30
0.0
 10
1.5848307086614173
 20
0.2390866141732284
 30
0.0
 10
1.5848307086614173
 20
0.2390866141732284
 30
0.0
 10
1.6086732283464567
 20
0.2001456692913386
 30
0.0
 10
1.6086732283464567
 20
0.2001456692913386
 30
0.0
 10
1.6086732283464567
 20
0.2001456692913386
 30
0.0
 10
1.6086732283464567
 20
0.2001456692913386
 30
0.0
 10
0.9635
 20
-0.1813937007874016
 30
0.0
 10
0.9635
 20
-0.1813937007874016
 30
0.0
 10
0.9635
 20
-0.1813937007874016
 30
0.0
 10
0.9635
 20
-0.1813937007874016
 30
0.0
 10
0.9396574803149607
 20
-0.1424527559055118
 30
0.0
 10
0.9396574803149607
 20
-0.1424527559055118
 30
0.0
  0
SPLINE
  5
7E
100
AcDbEntity
  8
Layer 1
 62
     9
100
AcDbSpline
210
0.0
220
0.0
230
1.0
 70
     1
 71
     3
 72
    20
 73
    16
 74
     0
 42
0.0000000001
 43
0.0000000001
 40
0.0
 40
0.0
 40
0.0
 40
0.0
 40
0.25
 40
0.25
 40
0.25
 40
0.25
 40
0.5
 40
0.5
 40
0.5
 40
0.5
 40
0.75
 40
0.75
 40
0.75
 40
0.75
 40
1.0
 40
1.0
 40
1.0
 40
1.0
 10
0.9635
 20
-0.1813937007874016
 30
0.0
 10
0.9635
 20
-0.1813937007874016
 30
0.0
 10
1.6086732283464567
 20
0.2001456692913386
 30
0.0
 10
1.6086732283464567
 20
0.2001456692913386
 30
0.0
 10
1.6086732283464567
 20
0.2001456692913386
 30
0.0
 10
1.6086732283464567
 20
0.2001456692913386
 30
0.0
 10
1.6308582677165355
 20
0.1601417322834646
 30
0.0
 10
1.6308582677165355
 20
0.1601417322834646
 30
0.0
 10
1.6308582677165355
 20
0.1601417322834646
 30
0.0
 10
1.6308582677165355
 20
0.1601417322834646
 30
0.0
 10
0.9856850393700788
 20
-0.2213976377952756
 30
0.0
 10
0.9856850393700788
 20
-0.2213976377952756
 30
0.0
 10
0.9856850393700788
 20
-0.2213976377952756
 30
0.0
 10
0.9856850393700788
 20
-0.2213976377952756
 30
0.0
 10
0.9635
 20
-0.1813937007874016
 30
0.0
 10
0.9635
 20
-0.1813937007874016
 30
0.0
  0
SPLINE
  5
7F
100
AcDbEntity
  8
Layer 1
 62
     9
100
AcDbSpline
210
0.0
220
0.0
230
1.0
 70
     1
 71
     3
 72
    20
 73
    16
 74
     0
 42
0.0000000001
 43
0.0000000001
 40
0.0
 40
0.0
 40
0.0
 40
0.0
 40
0.25
 40
0.25
 40
0.25
 40
0.25
 40
0.5
 40
0.5
 40
0.5
 40
0.5
 40
0.75
 40
0.75
 40
0.75
 40
0.75
 40
1.0
 40
1.0
 40
1.0
 40
1.0
 10
0.9856850393700788
 20
-0.2213976377952756
 30
0.0
 10
0.9856850393700788
 20
-0.2213976377952756
 30
0.0
 10
1.6308582677165355
 20
0.1601417322834646
 30
0.0
 10
1.6308582677165355
 20
0.1601417322834646
 30
0.0
 10
1.6308582677165355
 20
0.1601417322834646
 30
0.0
 10
1.6308582677165355
 20
0.1601417322834646
 30
0.0
 10
1.6513543307086616
 20
0.1190984251968504
 30
0.0
 10
1.6513543307086616
 20
0.1190984251968504
 30
0.0
 10
1.6513543307086616
 20
0.1190984251968504
 30
0.0
 10
1.6513543307086616
 20
0.1190984251968504
 30
0.0
 10
1.0061811023622047
 20
-0.2624409448818898
 30
0.0
 10
1.0061811023622047
 20
-0.2624409448818898
 30
0.0
 10
1.0061811023622047
 20
-0.2624409448818898
 30
0.0
 10
1.0061811023622047
 20
-0.2624409448818898
 30
0.0
 10
0.9856850393700788
 20
-0.2213976377952756
 30
0.0
 10
0.9856850393700788
 20
-0.2213976377952756
 30
0.0
  0
SPLINE
  5
80
100
AcDbEntity
  8
Layer 1
 62
     9
100
AcDbSpline
210
0.0
220
0.0
230
1.0
 70
     1
 71
     3
 72
    20
 73
    16
 74
     0
 42
0.0000000001
 43
0.0000000001
 40
0.0
 40
0.0
 40
0.0
 40
0.0
 40
0.25
 40
0.25
 40
0.25
 40
0.25
 40
0.5
 40
0.5
 40
0.5
 40
0.5
 40
0.75
 40
0.75
 40
0.75
 40
0.75
 40
1.0
 40
1.0
 40
1.0
 40
1.0
 10
1.0061811023622047
 20
-0.2624409448818898
 30
0.0
 10
1.0061811023622047
 20
-0.2624409448818898
 30
0.0
 10
1.6513543307086616
 20
0.1190984251968504
 30
0.0
 10
1.6513543307086616
 20
0.1190984251968504
 30
0.0
 10
1.6513543307086616
 20
0.1190984251968504
 30
0.0
 10
1.6513543307086616
 20
0.1190984251968504
 30
0.0
 10
1.6701062992125986
 20
0.0770748031496063
 30
0.0
 10
1.6701062992125986
 20
0.0770748031496063
 30
0.0
 10
1.6701062992125986
 20
0.0770748031496063
 30
0.0
 10
1.6701062992125986
 20
0.0770748031496063
 30
0.0
 10
1.0249330708661417
 20
-0.3044645669291339
 30
0.0
 10
1.0249330708661417
 20
-0.3044645669291339
 30
0.0
 10
1.0249330708661417
 20
-0.3044645669291339
 30
0.0
 10
1.0249330708661417
 20
-0.3044645669291339
 30
0.0
 10
1.0061811023622047
 20
-0.2624409448818898
 30
0.0
 10
1.0061811023622047
 20
-0.2624409448818898
 30
0.0
  0
SPLINE
  5
81
100
AcDbEntity
  8
Layer 1
 62
     9
100
AcDbSpline
210
0.0
220
0.0
230
1.0
 70
     1
 71
     3
 72
    20
 73
    16
 74
     0
 42
0.0000000001
 43
0.0000000001
 40
0.0
 40
0.0
 40
0.0
 40
0.0
 40
0.25
 40
0.25
 40
0.25
 40
0.25
 40
0.5
 40
0.5
 40
0.5
 40
0.5
 40
0.75
 40
0.75
 40
0.75
 40
0.75
 40
1.0
 40
1.0
 40
1.0
 40
1.0
 10
1.0249330708661417
 20
-0.3044645669291339
 30
0.0
 10
1.0249330708661417
 20
-0.3044645669291339
 30
0.0
 10
1.6701062992125986
 20
0.0770748031496063
 30
0.0
 10
1.6701062992125986
 20
0.0770748031496063
 30
0.0
 10
1.6701062992125986
 20
0.0770748031496063
 30
0.0
 10
1.6701062992125986
 20
0.0770748031496063
 30
0.0
 10
1.6870708661417324
 20
0.0341062992125984
 30
0.0
 10
1.6870708661417324
 20
0.0341062992125984
 30
0.0
 10
1.6870708661417324
 20
0.0341062992125984
 30
0.0
 10
1.6870708661417324
 20
0.0341062992125984
 30
0.0
 10
1.0418976377952756
 20
-0.3474330708661417
 30
0.0
 10
1.0418976377952756
 20
-0.3474330708661417
 30
0.0
 10
1.0418976377952756
 20
-0.3474330708661417
 30
0.0
 10
1.0418976377952756
 20
-0.3474330708661417
 30
0.0
 10
1.0249330708661417
 20
-0.3044645669291339
 30
0.0
 10
1.0249330708661417
 20
-0.3044645669291339
 30
0.0
  0
SPLINE
  5
82
100
AcDbEntity
  8
Layer 1
 62
     9
100
AcDbSpline
210
0.0
220
0.0
230
1.0
 70
     1
 71
     3
 72
    20
 73
    16
 74
     0
 42
0.0000000001
 43
0.0000000001
 40
0.0
 40
0.0
 40
0.0
 40
0.0
 40
0.25
 40
0.25
 40
0.25
 40
0.25
 40
0.5
 40
0.5
 40
0.5
 40
0.5
 40
0.75
 40
0.75
 40
0.75
 40
0.75
 40
1.0
 40
1.0
 40
1.0
 40
1.0
 10
1.0418976377952756
 20
-0.3474330708661417
 30
0.0
 10
1.0418976377952756
 20
-0.3474330708661417
 30
0.0
 10
1.6870708661417324
 20
0.0341062992125984
 30
0.0
 10
1.6870708661417324
 20
0.0341062992125984
 30
0.0
 10
1.6870708661417324
 20
0.0341062992125984
 30
0.0
 10
1.6870708661417324
 20
0.0341062992125984
 30
0.0
 10
1.7021929133858269
 20
-0.009744094488189
 30
0.0
 10
1.7021929133858269
 20
-0.009744094488189
 30
0.0
 10
1.7021929133858269
 20
-0.009744094488189
 30
0.0
 10
1.7021929133858269
 20
-0.009744094488189
 30
0.0
 10
1.05701968503937
 20
-0.3912834645669291
 30
0.0
 10
1.05701968503937
 20
-0.3912834645669291
 30
0.0
 10
1.05701968503937
 20
-0.3912834645669291
 30
0.0
 10
1.05701968503937
 20
-0.3912834645669291
 30
0.0
 10
1.0418976377952756
 20
-0.3474330708661417
 30
0.0
 10
1.0418976377952756
 20
-0.3474330708661417
 30
0.0
  0
SPLINE
  5
83
100
AcDbEntity
  8
Layer 1
 62
     9
100
AcDbSpline
210
0.0
220
0.0
230
1.0
 70
     1
 71
     3
 72
    20
 73
    16
 74
     0
 42
0.0000000001
 43
0.0000000001
 40
0.0
 40
0.0
 40
0.0
 40
0.0
 40
0.25
 40
0.25
 40
0.25
 40
0.25
 40
0.5
 40
0.5
 40
0.5
 40
0.5
 40
0.75
 40
0.75
 40
0.75
 40
0.75
 40
1.0
 40
1.0
 40
1.0
 40
1.0
 10
1.05701968503937
 20
-0.3912834645669291
 30
0.0
 10
1.05701968503937
 20
-0.3912834645669291
 30
0.0
 10
1.7021929133858269
 20
-0.009744094488189
 30
0.0
 10
1.7021929133858269
 20
-0.009744094488189
 30
0.0
 10
1.7021929133858269
 20
-0.009744094488189
 30
0.0
 10
1.7021929133858269
 20
-0.009744094488189
 30
0.0
 10
1.7154370078740158
 20
-0.0544409448818898
 30
0.0
 10
1.7154370078740158
 20
-0.0544409448818898
 30
0.0
 10
1.7154370078740158
 20
-0.0544409448818898
 30
0.0
 10
1.7154370078740158
 20
-0.0544409448818898
 30
0.0
 10
1.0702637795275591
 20
-0.4359803149606299
 30
0.0
 10
1.0702637795275591
 20
-0.4359803149606299
 30
0.0
 10
1.0702637795275591
 20
-0.4359803149606299
 30
0.0
 10
1.0702637795275591
 20
-0.4359803149606299
 30
0.0
 10
1.05701968503937
 20
-0.3912834645669291
 30
0.0
 10
1.05701968503937
 20
-0.3912834645669291
 30
0.0
  0
SPLINE
  5
84
100
AcDbEntity
  8
Layer 1
 62
     9
100
AcDbSpline
210
0.0
220
0.0
230
1.0
 70
     1
 71
     3
 72
    20
 73
    16
 74
     0
 42
0.0000000001
 43
0.0000000001
 40
0.0
 40
0.0
 40
0.0
 40
0.0
 40
0.25
 40
0.25
 40
0.25
 40
0.25
 40
0.5
 40
0.5
 40
0.5
 40
0.5
 40
0.75
 40
0.75
 40
0.75
 40
0.75
 40
1.0
 40
1.0
 40
1.0
 40
1.0
 10
1.0702637795275591
 20
-0.4359803149606299
 30
0.0
 10
1.0702637795275591
 20
-0.4359803149606299
 30
0.0
 10
1.7154370078740158
 20
-0.0544409448818898
 30
0.0
 10
1.7154370078740158
 20
-0.0544409448818898
 30
0.0
 10
1.7154370078740158
 20
-0.0544409448818898
 30
0.0
 10
1.7154370078740158
 20
-0.0544409448818898
 30
0.0
 10
1.726751968503937
 20
-0.0999330708661417
 30
0.0
 10
1.726751968503937
 20
-0.0999330708661417
 30
0.0
 10
1.726751968503937
 20
-0.0999330708661417
 30
0.0
 10
1.726751968503937
 20
-0.0999330708661417
 30
0.0
 10
1.0815787401574803
 20
-0.4814724409448819
 30
0.0
 10
1.0815787401574803
 20
-0.4814724409448819
 30
0.0
 10
1.0815787401574803
 20
-0.4814724409448819
 30
0.0
 10
1.0815787401574803
 20
-0.4814724409448819
 30
0.0
 10
1.0702637795275591
 20
-0.4359803149606299
 30
0.0
 10
1.0702637795275591
 20
-0.4359803149606299
 30
0.0
  0
SPLINE
  5
85
100
AcDbEntity
  8
Layer 1
 62
     9
100
AcDbSpline
210
0.0
220
0.0
230
1.0
 70
     1
 71
     3
 72
    20
 73
    16
 74
     0
 42
0.0000000001
 43
0.0000000001
 40
0.0
 40
0.0
 40
0.0
 40
0.0
 40
0.25
 40
0.25
 40
0.25
 40
0.25
 40
0.5
 40
0.5
 40
0.5
 40
0.5
 40
0.75
 40
0.75
 40
0.75
 40
0.75
 40
1.0
 40
1.0
 40
1.0
 40
1.0
 10
1.0815787401574803
 20
-0.4814724409448819
 30
0.0
 10
1.0815787401574803
 20
-0.4814724409448819
 30
0.0
 10
1.726751968503937
 20
-0.0999330708661417
 30
0.0
 10
1.726751968503937
 20
-0.0999330708661417
 30
0.0
 10
1.726751968503937
 20
-0.0999330708661417
 30
0.0
 10
1.726751968503937
 20
-0.0999330708661417
 30
0.0
 10
1.7360866141732285
 20
-0.1461811023622047
 30
0.0
 10
1.7360866141732285
 20
-0.1461811023622047
 30
0.0
 10
1.7360866141732285
 20
-0.1461811023622047
 30
0.0
 10
1.7360866141732285
 20
-0.1461811023622047
 30
0.0
 10
1.0909133858267717
 20
-0.5277204724409449
 30
0.0
 10
1.0909133858267717
 20
-0.5277204724409449
 30
0.0
 10
1.0909133858267717
 20
-0.5277204724409449
 30
0.0
 10
1.0909133858267717
 20
-0.5277204724409449
 30
0.0
 10
1.0815787401574803
 20
-0.4814724409448819
 30
0.0
 10
1.0815787401574803
 20
-0.4814724409448819
 30
0.0
  0
SPLINE
  5
86
100
AcDbEntity
  8
Layer 1
370
     5
100
AcDbSpline
210
0.0
220
0.0
230
1.0
 70
     1
 71
     3
 72
   348
 73
   344
 74
     0
 42
0.0000000001
 43
0.0000000001
 40
0.0
 40
0.0
 40
0.0
 40
0.0
 40
0.0116279069767442
 40
0.0116279069767442
 40
0.0116279069767442
 40
0.0116279069767442
 40
0.0232558139534884
 40
0.0232558139534884
 40
0.0232558139534884
 40
0.0232558139534884
 40
0.0348837209302326
 40
0.0348837209302326
 40
0.0348837209302326
 40
0.0348837209302326
 40
0.0465116279069767
 40
0.0465116279069767
 40
0.0465116279069767
 40
0.0465116279069767
 40
0.0581395348837209
 40
0.0581395348837209
 40
0.0581395348837209
 40
0.0581395348837209
 40
0.0697674418604651
 40
0.0697674418604651
 40
0.0697674418604651
 40
0.0697674418604651
 40
0.0813953488372093
 40
0.0813953488372093
 40
0.0813953488372093
 40
0.0813953488372093
 40
0.0930232558139535
 40
0.0930232558139535
 40
0.0930232558139535
 40
0.0930232558139535
 40
0.1046511627906977
 40
0.1046511627906977
 40
0.1046511627906977
 40
0.1046511627906977
 40
0.1162790697674418
 40
0.1162790697674418
 40
0.1162790697674418
 40
0.1162790697674418
 40
0.127906976744186
 40
0.127906976744186
 40
0.127906976744186
 40
0.127906976744186
 40
0.1395348837209302
 40
0.1395348837209302
 40
0.1395348837209302
 40
0.1395348837209302
 40
0.1511627906976744
 40
0.1511627906976744
 40
0.1511627906976744
 40
0.1511627906976744
 40
0.1627906976744186
 40
0.1627906976744186
 40
0.1627906976744186
 40
0.1627906976744186
 40
0.1744186046511627
 40
0.1744186046511627
 40
0.1744186046511627
 40
0.1744186046511627
 40
0.1860465116279069
 40
0.1860465116279069
 40
0.1860465116279069
 40
0.1860465116279069
 40
0.1976744186046511
 40
0.1976744186046511
 40
0.1976744186046511
 40
0.1976744186046511
 40
0.2093023255813953
 40
0.2093023255813953
 40
0.2093023255813953
 40
0.2093023255813953
 40
0.2209302325581395
 40
0.2209302325581395
 40
0.2209302325581395
 40
0.2209302325581395
 40
0.2325581395348836
 40
0.2325581395348836
 40
0.2325581395348836
 40
0.2325581395348836
 40
0.2441860465116278
 40
0.2441860465116278
 40
0.2441860465116278
 40
0.2441860465116278
 40
0.255813953488372
 40
0.255813953488372
 40
0.255813953488372
 40
0.255813953488372
 40
0.2674418604651162
 40
0.2674418604651162
 40
0.2674418604651162
 40
0.2674418604651162
 40
0.2790697674418604
 40
0.2790697674418604
 40
0.2790697674418604
 40
0.2790697674418604
 40
0.2906976744186046
 40
0.2906976744186046
 40
0.2906976744186046
 40
0.2906976744186046
 40
0.3023255813953488
 40
0.3023255813953488
 40
0.3023255813953488
 40
0.3023255813953488
 40
0.313953488372093
 40
0.313953488372093
 40
0.313953488372093
 40
0.313953488372093
 40
0.3255813953488372
 40
0.3255813953488372
 40
0.3255813953488372
 40
0.3255813953488372
 40
0.3372093023255814
 40
0.3372093023255814
 40
0.3372093023255814
 40
0.3372093023255814
 40
0.3488372093023257
 40
0.3488372093023257
 40
0.3488372093023257
 40
0.3488372093023257
 40
0.3604651162790699
 40
0.3604651162790699
 40
0.3604651162790699
 40
0.3604651162790699
 40
0.3720930232558141
 40
0.3720930232558141
 40
0.3720930232558141
 40
0.3720930232558141
 40
0.3837209302325583
 40
0.3837209302325583
 40
0.3837209302325583
 40
0.3837209302325583
 40
0.3953488372093025
 40
0.3953488372093025
 40
0.3953488372093025
 40
0.3953488372093025
 40
0.4069767441860467
 40
0.4069767441860467
 40
0.4069767441860467
 40
0.4069767441860467
 40
0.4186046511627909
 40
0.4186046511627909
 40
0.4186046511627909
 40
0.4186046511627909
 40
0.4302325581395351
 40
0.4302325581395351
 40
0.4302325581395351
 40
0.4302325581395351
 40
0.4418604651162793
 40
0.4418604651162793
 40
0.4418604651162793
 40
0.4418604651162793
 40
0.4534883720930235
 40
0.4534883720930235
 40
0.4534883720930235
 40
0.4534883720930235
 40
0.4651162790697677
 40
0.4651162790697677
 40
0.4651162790697677
 40
0.4651162790697677
 40
0.4767441860465119
 40
0.4767441860465119
 40
0.4767441860465119
 40
0.4767441860465119
 40
0.4883720930232561
 40
0.4883720930232561
 40
0.4883720930232561
 40
0.4883720930232561
 40
0.5000000000000003
 40
0.5000000000000003
 40
0.5000000000000003
 40
0.5000000000000003
 40
0.5116279069767445
 40
0.5116279069767445
 40
0.5116279069767445
 40
0.5116279069767445
 40
0.5232558139534888
 40
0.5232558139534888
 40
0.5232558139534888
 40
0.5232558139534888
 40
0.534883720930233
 40
0.534883720930233
 40
0.534883720930233
 40
0.534883720930233
 40
0.5465116279069772
 40
0.5465116279069772
 40
0.5465116279069772
 40
0.5465116279069772
 40
0.5581395348837214
 40
0.5581395348837214
 40
0.5581395348837214
 40
0.5581395348837214
 40
0.5697674418604656
 40
0.5697674418604656
 40
0.5697674418604656
 40
0.5697674418604656
 40
0.5813953488372098
 40
0.5813953488372098
 40
0.5813953488372098
 40
0.5813953488372098
 40
0.593023255813954
 40
0.593023255813954
 40
0.593023255813954
 40
0.593023255813954
 40
0.6046511627906982
 40
0.6046511627906982
 40
0.6046511627906982
 40
0.6046511627906982
 40
0.6162790697674424
 40
0.6162790697674424
 40
0.6162790697674424
 40
0.6162790697674424
 40
0.6279069767441866
 40
0.6279069767441866
 40
0.6279069767441866
 40
0.6279069767441866
 40
0.6395348837209308
 40
0.6395348837209308
 40
0.6395348837209308
 40
0.6395348837209308
 40
0.651162790697675
 40
0.651162790697675
 40
0.651162790697675
 40
0.651162790697675
 40
0.6627906976744192
 40
0.6627906976744192
 40
0.6627906976744192
 40
0.6627906976744192
 40
0.6744186046511634
 40
0.6744186046511634
 40
0.6744186046511634
 40
0.6744186046511634
 40
0.6860465116279076
 40
0.6860465116279076
 40
0.6860465116279076
 40
0.6860465116279076
 40
0.6976744186046519
 40
0.6976744186046519
 40
0.6976744186046519
 40
0.6976744186046519
 40
0.7093023255813961
 40
0.7093023255813961
 40
0.7093023255813961
 40
0.7093023255813961
 40
0.7209302325581403
 40
0.7209302325581403
 40
0.7209302325581403
 40
0.7209302325581403
 40
0.7325581395348845
 40
0.7325581395348845
 40
0.7325581395348845
 40
0.7325581395348845
 40
0.7441860465116287
 40
0.7441860465116287
 40
0.7441860465116287
 40
0.7441860465116287
 40
0.7558139534883729
 40
0.7558139534883729
 40
0.7558139534883729
 40
0.7558139534883729
 40
0.7674418604651171
 40
0.7674418604651171
 40
0.7674418604651171
 40
0.7674418604651171
 40
0.7790697674418613
 40
0.7790697674418613
 40
0.7790697674418613
 40
0.7790697674418613
 40
0.7906976744186055
 40
0.7906976744186055
 40
0.7906976744186055
 40
0.7906976744186055
 40
0.8023255813953497
 40
0.8023255813953497
 40
0.8023255813953497
 40
0.8023255813953497
 40
0.8139534883720939
 40
0.8139534883720939
 40
0.8139534883720939
 40
0.8139534883720939
 40
0.8255813953488381
 40
0.8255813953488381
 40
0.8255813953488381
 40
0.8255813953488381
 40
0.8372093023255823
 40
0.8372093023255823
 40
0.8372093023255823
 40
0.8372093023255823
 40
0.8488372093023265
 40
0.8488372093023265
 40
0.8488372093023265
 40
0.8488372093023265
 40
0.8604651162790707
 40
0.8604651162790707
 40
0.8604651162790707
 40
0.8604651162790707
 40
0.872093023255815
 40
0.872093023255815
 40
0.872093023255815
 40
0.872093023255815
 40
0.8837209302325592
 40
0.8837209302325592
 40
0.8837209302325592
 40
0.8837209302325592
 40
0.8953488372093034
 40
0.8953488372093034
 40
0.8953488372093034
 40
0.8953488372093034
 40
0.9069767441860476
 40
0.9069767441860476
 40
0.9069767441860476
 40
0.9069767441860476
 40
0.9186046511627918
 40
0.9186046511627918
 40
0.9186046511627918
 40
0.9186046511627918
 40
0.930232558139536
 40
0.930232558139536
 40
0.930232558139536
 40
0.930232558139536
 40
0.9418604651162802
 40
0.9418604651162802
 40
0.9418604651162802
 40
0.9418604651162802
 40
0.9534883720930244
 40
0.9534883720930244
 40
0.9534883720930244
 40
0.9534883720930244
 40
0.9651162790697686
 40
0.9651162790697686
 40
0.9651162790697686
 40
0.9651162790697686
 40
0.9767441860465128
 40
0.9767441860465128
 40
0.9767441860465128
 40
0.9767441860465128
 40
0.988372093023257
 40
0.988372093023257
 40
0.988372093023257
 40
0.988372093023257
 40
1.0
 40
1.0
 40
1.0
 40
1.0
 10
-0.4613858267716536
 20
0.2184645669291339
 30
0.0
 10
-0.4613858267716536
 20
0.2184645669291339
 30
0.0
 10
0.1837874015748032
 20
0.600003937007874
 30
0.0
 10
0.1837874015748032
 20
0.600003937007874
 30
0.0
 10
0.1837874015748032
 20
0.600003937007874
 30
0.0
 10
0.1837874015748032
 20
0.600003937007874
 30
0.0
 10
0.2296023622047244
 20
0.623472440944882
 30
0.0
 10
0.2296023622047244
 20
0.623472440944882
 30
0.0
 10
0.2296023622047244
 20
0.623472440944882
 30
0.0
 10
0.2296023622047244
 20
0.623472440944882
 30
0.0
 10
0.2766574803149606
 20
0.6447559055118111
 30
0.0
 10
0.2766574803149606
 20
0.6447559055118111
 30
0.0
 10
0.2766574803149606
 20
0.6447559055118111
 30
0.0
 10
0.2766574803149606
 20
0.6447559055118111
 30
0.0
 10
0.3249094488188977
 20
0.6637755905511812
 30
0.0
 10
0.3249094488188977
 20
0.6637755905511812
 30
0.0
 10
0.3249094488188977
 20
0.6637755905511812
 30
0.0
 10
0.3249094488188977
 20
0.6637755905511812
 30
0.0
 10
0.3742755905511811
 20
0.680488188976378
 30
0.0
 10
0.3742755905511811
 20
0.680488188976378
 30
0.0
 10
0.3742755905511811
 20
0.680488188976378
 30
0.0
 10
0.3742755905511811
 20
0.680488188976378
 30
0.0
 10
0.4246929133858268
 20
0.6948070866141732
 30
0.0
 10
0.4246929133858268
 20
0.6948070866141732
 30
0.0
 10
0.4246929133858268
 20
0.6948070866141732
 30
0.0
 10
0.4246929133858268
 20
0.6948070866141732
 30
0.0
 10
0.4760905511811024
 20
0.7066771653543308
 30
0.0
 10
0.4760905511811024
 20
0.7066771653543308
 30
0.0
 10
0.4760905511811024
 20
0.7066771653543308
 30
0.0
 10
0.4760905511811024
 20
0.7066771653543308
 30
0.0
 10
0.5284133858267717
 20
0.7160196850393701
 30
0.0
 10
0.5284133858267717
 20
0.7160196850393701
 30
0.0
 10
0.5284133858267717
 20
0.7160196850393701
 30
0.0
 10
0.5284133858267717
 20
0.7160196850393701
 30
0.0
 10
0.5815748031496063
 20
0.7227795275590552
 30
0.0
 10
0.5815748031496063
 20
0.7227795275590552
 30
0.0
 10
0.5815748031496063
 20
0.7227795275590552
 30
0.0
 10
0.5815748031496063
 20
0.7227795275590552
 30
0.0
 10
0.6355236220472441
 20
0.7268818897637795
 30
0.0
 10
0.6355236220472441
 20
0.7268818897637795
 30
0.0
 10
0.6355236220472441
 20
0.7268818897637795
 30
0.0
 10
0.6355236220472441
 20
0.7268818897637795
 30
0.0
 10
0.6901850393700788
 20
0.7282716535433071
 30
0.0
 10
0.6901850393700788
 20
0.7282716535433071
 30
0.0
 10
0.6901850393700788
 20
0.7282716535433071
 30
0.0
 10
0.6901850393700788
 20
0.7282716535433071
 30
0.0
 10
0.7389015748031497
 20
0.7271692913385827
 30
0.0
 10
0.7389015748031497
 20
0.7271692913385827
 30
0.0
 10
0.7389015748031497
 20
0.7271692913385827
 30
0.0
 10
0.7389015748031497
 20
0.7271692913385827
 30
0.0
 10
0.7870590551181103
 20
0.7239094488188976
 30
0.0
 10
0.7870590551181103
 20
0.7239094488188976
 30
0.0
 10
0.7870590551181103
 20
0.7239094488188976
 30
0.0
 10
0.7870590551181103
 20
0.7239094488188976
 30
0.0
 10
0.8346062992125984
 20
0.7185275590551181
 30
0.0
 10
0.8346062992125984
 20
0.7185275590551181
 30
0.0
 10
0.8346062992125984
 20
0.7185275590551181
 30
0.0
 10
0.8346062992125984
 20
0.7185275590551181
 30
0.0
 10
0.8815000000000001
 20
0.7110826771653543
 30
0.0
 10
0.8815000000000001
 20
0.7110826771653543
 30
0.0
 10
0.8815000000000001
 20
0.7110826771653543
 30
0.0
 10
0.8815000000000001
 20
0.7110826771653543
 30
0.0
 10
0.9276850393700787
 20
0.7016062992125984
 30
0.0
 10
0.9276850393700787
 20
0.7016062992125984
 30
0.0
 10
0.9276850393700787
 20
0.7016062992125984
 30
0.0
 10
0.9276850393700787
 20
0.7016062992125984
 30
0.0
 10
0.9731181102362205
 20
0.6901614173228347
 30
0.0
 10
0.9731181102362205
 20
0.6901614173228347
 30
0.0
 10
0.9731181102362205
 20
0.6901614173228347
 30
0.0
 10
0.9731181102362205
 20
0.6901614173228347
 30
0.0
 10
1.0177559055118111
 20
0.6767834645669292
 30
0.0
 10
1.0177559055118111
 20
0.6767834645669292
 30
0.0
 10
1.0177559055118111
 20
0.6767834645669292
 30
0.0
 10
1.0177559055118111
 20
0.6767834645669292
 30
0.0
 10
1.0615511811023624
 20
0.6615314960629921
 30
0.0
 10
1.0615511811023624
 20
0.6615314960629921
 30
0.0
 10
1.0615511811023624
 20
0.6615314960629921
 30
0.0
 10
1.0615511811023624
 20
0.6615314960629921
 30
0.0
 10
1.1044448818897639
 20
0.6444370078740158
 30
0.0
 10
1.1044448818897639
 20
0.6444370078740158
 30
0.0
 10
1.1044448818897639
 20
0.6444370078740158
 30
0.0
 10
1.1044448818897639
 20
0.6444370078740158
 30
0.0
 10
1.1464015748031497
 20
0.6255629921259843
 30
0.0
 10
1.1464015748031497
 20
0.6255629921259843
 30
0.0
 10
1.1464015748031497
 20
0.6255629921259843
 30
0.0
 10
1.1464015748031497
 20
0.6255629921259843
 30
0.0
 10
1.1873740157480315
 20
0.6049448818897638
 30
0.0
 10
1.1873740157480315
 20
0.6049448818897638
 30
0.0
 10
1.1873740157480315
 20
0.6049448818897638
 30
0.0
 10
1.1873740157480315
 20
0.6049448818897638
 30
0.0
 10
1.2273149606299214
 20
0.5826417322834646
 30
0.0
 10
1.2273149606299214
 20
0.5826417322834646
 30
0.0
 10
1.2273149606299214
 20
0.5826417322834646
 30
0.0
 10
1.2273149606299214
 20
0.5826417322834646
 30
0.0
 10
1.2661653543307088
 20
0.5586850393700787
 30
0.0
 10
1.2661653543307088
 20
0.5586850393700787
 30
0.0
 10
1.2661653543307088
 20
0.5586850393700787
 30
0.0
 10
1.2661653543307088
 20
0.5586850393700787
 30
0.0
 10
1.3038937007874016
 20
0.5331377952755906
 30
0.0
 10
1.3038937007874016
 20
0.5331377952755906
 30
0.0
 10
1.3038937007874016
 20
0.5331377952755906
 30
0.0
 10
1.3038937007874016
 20
0.5331377952755906
 30
0.0
 10
1.3404448818897639
 20
0.5060354330708662
 30
0.0
 10
1.3404448818897639
 20
0.5060354330708662
 30
0.0
 10
1.3404448818897639
 20
0.5060354330708662
 30
0.0
 10
1.3404448818897639
 20
0.5060354330708662
 30
0.0
 10
1.3757755905511813
 20
0.4774370078740158
 30
0.0
 10
1.3757755905511813
 20
0.4774370078740158
 30
0.0
 10
1.3757755905511813
 20
0.4774370078740158
 30
0.0
 10
1.3757755905511813
 20
0.4774370078740158
 30
0.0
 10
1.4098267716535433
 20
0.4473700787401575
 30
0.0
 10
1.4098267716535433
 20
0.4473700787401575
 30
0.0
 10
1.4098267716535433
 20
0.4473700787401575
 30
0.0
 10
1.4098267716535433
 20
0.4473700787401575
 30
0.0
 10
1.4425629921259844
 20
0.4159015748031496
 30
0.0
 10
1.4425629921259844
 20
0.4159015748031496
 30
0.0
 10
1.4425629921259844
 20
0.4159015748031496
 30
0.0
 10
1.4425629921259844
 20
0.4159015748031496
 30
0.0
 10
1.4739370078740157
 20
0.3830708661417323
 30
0.0
 10
1.4739370078740157
 20
0.3830708661417323
 30
0.0
 10
1.4739370078740157
 20
0.3830708661417323
 30
0.0
 10
1.4739370078740157
 20
0.3830708661417323
 30
0.0
 10
1.5038976377952757
 20
0.3489330708661417
 30
0.0
 10
1.5038976377952757
 20
0.3489330708661417
 30
0.0
 10
1.5038976377952757
 20
0.3489330708661417
 30
0.0
 10
1.5038976377952757
 20
0.3489330708661417
 30
0.0
 10
1.5323976377952757
 20
0.3135275590551181
 30
0.0
 10
1.5323976377952757
 20
0.3135275590551181
 30
0.0
 10
1.5323976377952757
 20
0.3135275590551181
 30
0.0
 10
1.5323976377952757
 20
0.3135275590551181
 30
0.0
 10
1.5593897637795275
 20
0.2768897637795276
 30
0.0
 10
1.5593897637795275
 20
0.2768897637795276
 30
0.0
 10
1.5593897637795275
 20
0.2768897637795276
 30
0.0
 10
1.5593897637795275
 20
0.2768897637795276
 30
0.0
 10
1.5848307086614173
 20
0.2390866141732284
 30
0.0
 10
1.5848307086614173
 20
0.2390866141732284
 30
0.0
 10
1.5848307086614173
 20
0.2390866141732284
 30
0.0
 10
1.5848307086614173
 20
0.2390866141732284
 30
0.0
 10
1.6086732283464567
 20
0.2001456692913386
 30
0.0
 10
1.6086732283464567
 20
0.2001456692913386
 30
0.0
 10
1.6086732283464567
 20
0.2001456692913386
 30
0.0
 10
1.6086732283464567
 20
0.2001456692913386
 30
0.0
 10
1.6308582677165355
 20
0.1601417322834646
 30
0.0
 10
1.6308582677165355
 20
0.1601417322834646
 30
0.0
 10
1.6308582677165355
 20
0.1601417322834646
 30
0.0
 10
1.6308582677165355
 20
0.1601417322834646
 30
0.0
 10
1.6513543307086616
 20
0.1190984251968504
 30
0.0
 10
1.6513543307086616
 20
0.1190984251968504
 30
0.0
 10
1.6513543307086616
 20
0.1190984251968504
 30
0.0
 10
1.6513543307086616
 20
0.1190984251968504
 30
0.0
 10
1.6701062992125986
 20
0.0770748031496063
 30
0.0
 10
1.6701062992125986
 20
0.0770748031496063
 30
0.0
 10
1.6701062992125986
 20
0.0770748031496063
 30
0.0
 10
1.6701062992125986
 20
0.0770748031496063
 30
0.0
 10
1.6870708661417324
 20
0.0341062992125984
 30
0.0
 10
1.6870708661417324
 20
0.0341062992125984
 30
0.0
 10
1.6870708661417324
 20
0.0341062992125984
 30
0.0
 10
1.6870708661417324
 20
0.0341062992125984
 30
0.0
 10
1.7021929133858269
 20
-0.009744094488189
 30
0.0
 10
1.7021929133858269
 20
-0.009744094488189
 30
0.0
 10
1.7021929133858269
 20
-0.009744094488189
 30
0.0
 10
1.7021929133858269
 20
-0.009744094488189
 30
0.0
 10
1.7154370078740158
 20
-0.0544409448818898
 30
0.0
 10
1.7154370078740158
 20
-0.0544409448818898
 30
0.0
 10
1.7154370078740158
 20
-0.0544409448818898
 30
0.0
 10
1.7154370078740158
 20
-0.0544409448818898
 30
0.0
 10
1.726751968503937
 20
-0.0999330708661417
 30
0.0
 10
1.726751968503937
 20
-0.0999330708661417
 30
0.0
 10
1.726751968503937
 20
-0.0999330708661417
 30
0.0
 10
1.726751968503937
 20
-0.0999330708661417
 30
0.0
 10
1.7360866141732285
 20
-0.1461811023622047
 30
0.0
 10
1.7360866141732285
 20
-0.1461811023622047
 30
0.0
 10
1.7360866141732285
 20
-0.1461811023622047
 30
0.0
 10
1.7360866141732285
 20
-0.1461811023622047
 30
0.0
 10
1.0909133858267717
 20
-0.5277204724409449
 30
0.0
 10
1.0909133858267717
 20
-0.5277204724409449
 30
0.0
 10
1.0909133858267717
 20
-0.5277204724409449
 30
0.0
 10
1.0909133858267717
 20
-0.5277204724409449
 30
0.0
 10
1.0815787401574803
 20
-0.4814724409448819
 30
0.0
 10
1.0815787401574803
 20
-0.4814724409448819
 30
0.0
 10
1.0815787401574803
 20
-0.4814724409448819
 30
0.0
 10
1.0815787401574803
 20
-0.4814724409448819
 30
0.0
 10
1.0702637795275591
 20
-0.4359803149606299
 30
0.0
 10
1.0702637795275591
 20
-0.4359803149606299
 30
0.0
 10
1.0702637795275591
 20
-0.4359803149606299
 30
0.0
 10
1.0702637795275591
 20
-0.4359803149606299
 30
0.0
 10
1.05701968503937
 20
-0.3912834645669291
 30
0.0
 10
1.05701968503937
 20
-0.3912834645669291
 30
0.0
 10
1.05701968503937
 20
-0.3912834645669291
 30
0.0
 10
1.05701968503937
 20
-0.3912834645669291
 30
0.0
 10
1.0418976377952756
 20
-0.3474330708661417
 30
0.0
 10
1.0418976377952756
 20
-0.3474330708661417
 30
0.0
 10
1.0418976377952756
 20
-0.3474330708661417
 30
0.0
 10
1.0418976377952756
 20
-0.3474330708661417
 30
0.0
 10
1.0249330708661417
 20
-0.3044645669291339
 30
0.0
 10
1.0249330708661417
 20
-0.3044645669291339
 30
0.0
 10
1.0249330708661417
 20
-0.3044645669291339
 30
0.0
 10
1.0249330708661417
 20
-0.3044645669291339
 30
0.0
 10
1.0061811023622047
 20
-0.2624409448818898
 30
0.0
 10
1.0061811023622047
 20
-0.2624409448818898
 30
0.0
 10
1.0061811023622047
 20
-0.2624409448818898
 30
0.0
 10
1.0061811023622047
 20
-0.2624409448818898
 30
0.0
 10
0.9856850393700788
 20
-0.2213976377952756
 30
0.0
 10
0.9856850393700788
 20
-0.2213976377952756
 30
0.0
 10
0.9856850393700788
 20
-0.2213976377952756
 30
0.0
 10
0.9856850393700788
 20
-0.2213976377952756
 30
0.0
 10
0.9635
 20
-0.1813937007874016
 30
0.0
 10
0.9635
 20
-0.1813937007874016
 30
0.0
 10
0.9635
 20
-0.1813937007874016
 30
0.0
 10
0.9635
 20
-0.1813937007874016
 30
0.0
 10
0.9396574803149607
 20
-0.1424527559055118
 30
0.0
 10
0.9396574803149607
 20
-0.1424527559055118
 30
0.0
 10
0.9396574803149607
 20
-0.1424527559055118
 30
0.0
 10
0.9396574803149607
 20
-0.1424527559055118
 30
0.0
 10
0.9142165354330709
 20
-0.1046496062992126
 30
0.0
 10
0.9142165354330709
 20
-0.1046496062992126
 30
0.0
 10
0.9142165354330709
 20
-0.1046496062992126
 30
0.0
 10
0.9142165354330709
 20
-0.1046496062992126
 30
0.0
 10
0.887224409448819
 20
-0.0680118110236221
 30
0.0
 10
0.887224409448819
 20
-0.0680118110236221
 30
0.0
 10
0.887224409448819
 20
-0.0680118110236221
 30
0.0
 10
0.887224409448819
 20
-0.0680118110236221
 30
0.0
 10
0.8587244094488189
 20
-0.0326062992125984
 30
0.0
 10
0.8587244094488189
 20
-0.0326062992125984
 30
0.0
 10
0.8587244094488189
 20
-0.0326062992125984
 30
0.0
 10
0.8587244094488189
 20
-0.0326062992125984
 30
0.0
 10
0.8287637795275591
 20
0.0015314960629921
 30
0.0
 10
0.8287637795275591
 20
0.0015314960629921
 30
0.0
 10
0.8287637795275591
 20
0.0015314960629921
 30
0.0
 10
0.8287637795275591
 20
0.0015314960629921
 30
0.0
 10
0.7973897637795276
 20
0.0343622047244094
 30
0.0
 10
0.7973897637795276
 20
0.0343622047244094
 30
0.0
 10
0.7973897637795276
 20
0.0343622047244094
 30
0.0
 10
0.7973897637795276
 20
0.0343622047244094
 30
0.0
 10
0.7646535433070867
 20
0.0658307086614173
 30
0.0
 10
0.7646535433070867
 20
0.0658307086614173
 30
0.0
 10
0.7646535433070867
 20
0.0658307086614173
 30
0.0
 10
0.7646535433070867
 20
0.0658307086614173
 30
0.0
 10
0.7306023622047244
 20
0.0958976377952756
 30
0.0
 10
0.7306023622047244
 20
0.0958976377952756
 30
0.0
 10
0.7306023622047244
 20
0.0958976377952756
 30
0.0
 10
0.7306023622047244
 20
0.0958976377952756
 30
0.0
 10
0.6952716535433071
 20
0.124496062992126
 30
0.0
 10
0.6952716535433071
 20
0.124496062992126
 30
0.0
 10
0.6952716535433071
 20
0.124496062992126
 30
0.0
 10
0.6952716535433071
 20
0.124496062992126
 30
0.0
 10
0.6587204724409449
 20
0.1515984251968504
 30
0.0
 10
0.6587204724409449
 20
0.1515984251968504
 30
0.0
 10
0.6587204724409449
 20
0.1515984251968504
 30
0.0
 10
0.6587204724409449
 20
0.1515984251968504
 30
0.0
 10
0.620992125984252
 20
0.1771456692913386
 30
0.0
 10
0.620992125984252
 20
0.1771456692913386
 30
0.0
 10
0.620992125984252
 20
0.1771456692913386
 30
0.0
 10
0.620992125984252
 20
0.1771456692913386
 30
0.0
 10
0.5821417322834646
 20
0.2011023622047244
 30
0.0
 10
0.5821417322834646
 20
0.2011023622047244
 30
0.0
 10
0.5821417322834646
 20
0.2011023622047244
 30
0.0
 10
0.5821417322834646
 20
0.2011023622047244
 30
0.0
 10
0.5422007874015749
 20
0.2234055118110236
 30
0.0
 10
0.5422007874015749
 20
0.2234055118110236
 30
0.0
 10
0.5422007874015749
 20
0.2234055118110236
 30
0.0
 10
0.5422007874015749
 20
0.2234055118110236
 30
0.0
 10
0.5012283464566929
 20
0.2440236220472441
 30
0.0
 10
0.5012283464566929
 20
0.2440236220472441
 30
0.0
 10
0.5012283464566929
 20
0.2440236220472441
 30
0.0
 10
0.5012283464566929
 20
0.2440236220472441
 30
0.0
 10
0.4592716535433071
 20
0.2628976377952756
 30
0.0
 10
0.4592716535433071
 20
0.2628976377952756
 30
0.0
 10
0.4592716535433071
 20
0.2628976377952756
 30
0.0
 10
0.4592716535433071
 20
0.2628976377952756
 30
0.0
 10
0.4163779527559055
 20
0.279992125984252
 30
0.0
 10
0.4163779527559055
 20
0.279992125984252
 30
0.0
 10
0.4163779527559055
 20
0.279992125984252
 30
0.0
 10
0.4163779527559055
 20
0.279992125984252
 30
0.0
 10
0.3725826771653544
 20
0.295244094488189
 30
0.0
 10
0.3725826771653544
 20
0.295244094488189
 30
0.0
 10
0.3725826771653544
 20
0.295244094488189
 30
0.0
 10
0.3725826771653544
 20
0.295244094488189
 30
0.0
 10
0.3279448818897638
 20
0.3086220472440945
 30
0.0
 10
0.3279448818897638
 20
0.3086220472440945
 30
0.0
 10
0.3279448818897638
 20
0.3086220472440945
 30
0.0
 10
0.3279448818897638
 20
0.3086220472440945
 30
0.0
 10
0.2825118110236221
 20
0.3200669291338583
 30
0.0
 10
0.2825118110236221
 20
0.3200669291338583
 30
0.0
 10
0.2825118110236221
 20
0.3200669291338583
 30
0.0
 10
0.2825118110236221
 20
0.3200669291338583
 30
0.0
 10
0.2363267716535433
 20
0.3295433070866142
 30
0.0
 10
0.2363267716535433
 20
0.3295433070866142
 30
0.0
 10
0.2363267716535433
 20
0.3295433070866142
 30
0.0
 10
0.2363267716535433
 20
0.3295433070866142
 30
0.0
 10
0.1894330708661418
 20
0.3369881889763779
 30
0.0
 10
0.1894330708661418
 20
0.3369881889763779
 30
0.0
 10
0.1894330708661418
 20
0.3369881889763779
 30
0.0
 10
0.1894330708661418
 20
0.3369881889763779
 30
0.0
 10
0.1418858267716535
 20
0.3423700787401575
 30
0.0
 10
0.1418858267716535
 20
0.3423700787401575
 30
0.0
 10
0.1418858267716535
 20
0.3423700787401575
 30
0.0
 10
0.1418858267716535
 20
0.3423700787401575
 30
0.0
 10
0.0937283464566929
 20
0.3456299212598425
 30
0.0
 10
0.0937283464566929
 20
0.3456299212598425
 30
0.0
 10
0.0937283464566929
 20
0.3456299212598425
 30
0.0
 10
0.0937283464566929
 20
0.3456299212598425
 30
0.0
 10
0.045011811023622
 20
0.3467322834645669
 30
0.0
 10
0.045011811023622
 20
0.3467322834645669
 30
0.0
 10
0.045011811023622
 20
0.3467322834645669
 30
0.0
 10
0.045011811023622
 20
0.3467322834645669
 30
0.0
 10
-0.0096496062992126
 20
0.3453425196850394
 30
0.0
 10
-0.0096496062992126
 20
0.3453425196850394
 30
0.0
 10
-0.0096496062992126
 20
0.3453425196850394
 30
0.0
 10
-0.0096496062992126
 20
0.3453425196850394
 30
0.0
 10
-0.0635984251968504
 20
0.341240157480315
 30
0.0
 10
-0.0635984251968504
 20
0.341240157480315
 30
0.0
 10
-0.0635984251968504
 20
0.341240157480315
 30
0.0
 10
-0.0635984251968504
 20
0.341240157480315
 30
0.0
 10
-0.1167598425196851
 20
0.3344803149606299
 30
0.0
 10
-0.1167598425196851
 20
0.3344803149606299
 30
0.0
 10
-0.1167598425196851
 20
0.3344803149606299
 30
0.0
 10
-0.1167598425196851
 20
0.3344803149606299
 30
0.0
 10
-0.1690826771653543
 20
0.3251377952755906
 30
0.0
 10
-0.1690826771653543
 20
0.3251377952755906
 30
0.0
 10
-0.1690826771653543
 20
0.3251377952755906
 30
0.0
 10
-0.1690826771653543
 20
0.3251377952755906
 30
0.0
 10
-0.2204803149606299
 20
0.3132677165354331
 30
0.0
 10
-0.2204803149606299
 20
0.3132677165354331
 30
0.0
 10
-0.2204803149606299
 20
0.3132677165354331
 30
0.0
 10
-0.2204803149606299
 20
0.3132677165354331
 30
0.0
 10
-0.2708976377952756
 20
0.2989488188976378
 30
0.0
 10
-0.2708976377952756
 20
0.2989488188976378
 30
0.0
 10
-0.2708976377952756
 20
0.2989488188976378
 30
0.0
 10
-0.2708976377952756
 20
0.2989488188976378
 30
0.0
 10
-0.3202637795275591
 20
0.282236220472441
 30
0.0
 10
-0.3202637795275591
 20
0.282236220472441
 30
0.0
 10
-0.3202637795275591
 20
0.282236220472441
 30
0.0
 10
-0.3202637795275591
 20
0.282236220472441
 30
0.0
 10
-0.3685157480314961
 20
0.2632165354330709
 30
0.0
 10
-0.3685157480314961
 20
0.2632165354330709
 30
0.0
 10
-0.3685157480314961
 20
0.2632165354330709
 30
0.0
 10
-0.3685157480314961
 20
0.2632165354330709
 30
0.0
 10
-0.4155708661417323
 20
0.2419330708661417
 30
0.0
 10
-0.4155708661417323
 20
0.2419330708661417
 30
0.0
 10
-0.4155708661417323
 20
0.2419330708661417
 30
0.0
 10
-0.4155708661417323
 20
0.2419330708661417
 30
0.0
 10
-0.4613858267716536
 20
0.2184645669291339
 30
0.0
 10
-0.4613858267716536
 20
0.2184645669291339
 30
0.0
  0
SPLINE
  5
87
100
AcDbEntity
  8
Layer 1
 62
   253
100
AcDbSpline
210
0.0
220
0.0
230
1.0
 70
     1
 71
     3
 72
    20
 73
    16
 74
     0
 42
0.0000000001
 43
0.0000000001
 40
0.0
 40
0.0
 40
0.0
 40
0.0
 40
0.25
 40
0.25
 40
0.25
 40
0.25
 40
0.5
 40
0.5
 40
0.5
 40
0.5
 40
0.75
 40
0.75
 40
0.75
 40
0.75
 40
1.0
 40
1.0
 40
1.0
 40
1.0
 10
1.0909133858267717
 20
-0.5277204724409449
 30
0.0
 10
1.0909133858267717
 20
-0.5277204724409449
 30
0.0
 10
1.7360866141732285
 20
-0.1461811023622047
 30
0.0
 10
1.7360866141732285
 20
-0.1461811023622047
 30
0.0
 10
1.7360866141732285
 20
-0.1461811023622047
 30
0.0
 10
1.7360866141732285
 20
-0.1461811023622047
 30
0.0
 10
2.1276811023622049
 20
-0.1467322834645669
 30
0.0
 10
2.1276811023622049
 20
-0.1467322834645669
 30
0.0
 10
2.1276811023622049
 20
-0.1467322834645669
 30
0.0
 10
2.1276811023622049
 20
-0.1467322834645669
 30
0.0
 10
1.482507874015748
 20
-0.5282716535433071
 30
0.0
 10
1.482507874015748
 20
-0.5282716535433071
 30
0.0
 10
1.482507874015748
 20
-0.5282716535433071
 30
0.0
 10
1.482507874015748
 20
-0.5282716535433071
 30
0.0
 10
1.0909133858267717
 20
-0.5277204724409449
 30
0.0
 10
1.0909133858267717
 20
-0.5277204724409449
 30
0.0
  0
SPLINE
  5
88
100
AcDbEntity
  8
Layer 1
370
     5
100
AcDbSpline
210
0.0
220
0.0
230
1.0
 70
     1
 71
     3
 72
    20
 73
    16
 74
     0
 42
0.0000000001
 43
0.0000000001
 40
0.0
 40
0.0
 40
0.0
 40
0.0
 40
0.25
 40
0.25
 40
0.25
 40
0.25
 40
0.5
 40
0.5
 40
0.5
 40
0.5
 40
0.75
 40
0.75
 40
0.75
 40
0.75
 40
1.0
 40
1.0
 40
1.0
 40
1.0
 10
1.0909133858267717
 20
-0.5277204724409449
 30
0.0
 10
1.0909133858267717
 20
-0.5277204724409449
 30
0.0
 10
1.7360866141732285
 20
-0.1461811023622047
 30
0.0
 10
1.7360866141732285
 20
-0.1461811023622047
 30
0.0
 10
1.7360866141732285
 20
-0.1461811023622047
 30
0.0
 10
1.7360866141732285
 20
-0.1461811023622047
 30
0.0
 10
2.1276811023622049
 20
-0.1467322834645669
 30
0.0
 10
2.1276811023622049
 20
-0.1467322834645669
 30
0.0
 10
2.1276811023622049
 20
-0.1467322834645669
 30
0.0
 10
2.1276811023622049
 20
-0.1467322834645669
 30
0.0
 10
1.482507874015748
 20
-0.5282716535433071
 30
0.0
 10
1.482507874015748
 20
-0.5282716535433071
 30
0.0
 10
1.482507874015748
 20
-0.5282716535433071
 30
0.0
 10
1.482507874015748
 20
-0.5282716535433071
 30
0.0
 10
1.0909133858267717
 20
-0.5277204724409449
 30
0.0
 10
1.0909133858267717
 20
-0.5277204724409449
 30
0.0
  0
SPLINE
  5
89
100
AcDbEntity
  8
Layer 1
 62
     9
100
AcDbSpline
210
0.0
220
0.0
230
1.0
 70
     1
 71
     3
 72
    20
 73
    16
 74
     0
 42
0.0000000001
 43
0.0000000001
 40
0.0
 40
0.0
 40
0.0
 40
0.0
 40
0.25
 40
0.25
 40
0.25
 40
0.25
 40
0.5
 40
0.5
 40
0.5
 40
0.5
 40
0.75
 40
0.75
 40
0.75
 40
0.75
 40
1.0
 40
1.0
 40
1.0
 40
1.0
 10
1.482507874015748
 20
-0.5282716535433071
 30
0.0
 10
1.482507874015748
 20
-0.5282716535433071
 30
0.0
 10
2.1276811023622049
 20
-0.1467322834645669
 30
0.0
 10
2.1276811023622049
 20
-0.1467322834645669
 30
0.0
 10
2.1276811023622049
 20
-0.1467322834645669
 30
0.0
 10
2.1276811023622049
 20
-0.1467322834645669
 30
0.0
 10
2.1276811023622049
 20
-1.1467283464566929
 30
0.0
 10
2.1276811023622049
 20
-1.1467283464566929
 30
0.0
 10
2.1276811023622049
 20
-1.1467283464566929
 30
0.0
 10
2.1276811023622049
 20
-1.1467283464566929
 30
0.0
 10
1.482507874015748
 20
-1.528267716535433
 30
0.0
 10
1.482507874015748
 20
-1.528267716535433
 30
0.0
 10
1.482507874015748
 20
-1.528267716535433
 30
0.0
 10
1.482507874015748
 20
-1.528267716535433
 30
0.0
 10
1.482507874015748
 20
-0.5282716535433071
 30
0.0
 10
1.482507874015748
 20
-0.5282716535433071
 30
0.0
  0
SPLINE
  5
8A
100
AcDbEntity
  8
Layer 1
370
     5
100
AcDbSpline
210
0.0
220
0.0
230
1.0
 70
     1
 71
     3
 72
    20
 73
    16
 74
     0
 42
0.0000000001
 43
0.0000000001
 40
0.0
 40
0.0
 40
0.0
 40
0.0
 40
0.25
 40
0.25
 40
0.25
 40
0.25
 40
0.5
 40
0.5
 40
0.5
 40
0.5
 40
0.75
 40
0.75
 40
0.75
 40
0.75
 40
1.0
 40
1.0
 40
1.0
 40
1.0
 10
1.482507874015748
 20
-0.5282716535433071
 30
0.0
 10
1.482507874015748
 20
-0.5282716535433071
 30
0.0
 10
2.1276811023622049
 20
-0.1467322834645669
 30
0.0
 10
2.1276811023622049
 20
-0.1467322834645669
 30
0.0
 10
2.1276811023622049
 20
-0.1467322834645669
 30
0.0
 10
2.1276811023622049
 20
-0.1467322834645669
 30
0.0
 10
2.1276811023622049
 20
-1.1467283464566929
 30
0.0
 10
2.1276811023622049
 20
-1.1467283464566929
 30
0.0
 10
2.1276811023622049
 20
-1.1467283464566929
 30
0.0
 10
2.1276811023622049
 20
-1.1467283464566929
 30
0.0
 10
1.482507874015748
 20
-1.528267716535433
 30
0.0
 10
1.482507874015748
 20
-1.528267716535433
 30
0.0
 10
1.482507874015748
 20
-1.528267716535433
 30
0.0
 10
1.482507874015748
 20
-1.528267716535433
 30
0.0
 10
1.482507874015748
 20
-0.5282716535433071
 30
0.0
 10
1.482507874015748
 20
-0.5282716535433071
 30
0.0
  0
SPLINE
  5
8B
100
AcDbEntity
  8
Layer 1
370
     5
 62
     7
100
AcDbSpline
210
0.0
220
0.0
230
1.0
 70
     1
 71
     3
 72
    36
 73
    32
 74
     0
 42
0.0000000001
 43
0.0000000001
 40
0.0
 40
0.0
 40
0.0
 40
0.0
 40
0.125
 40
0.125
 40
0.125
 40
0.125
 40
0.25
 40
0.25
 40
0.25
 40
0.25
 40
0.375
 40
0.375
 40
0.375
 40
0.375
 40
0.5
 40
0.5
 40
0.5
 40
0.5
 40
0.625
 40
0.625
 40
0.625
 40
0.625
 40
0.75
 40
0.75
 40
0.75
 40
0.75
 40
0.875
 40
0.875
 40
0.875
 40
0.875
 40
1.0
 40
1.0
 40
1.0
 40
1.0
 10
-1.517488188976378
 20
-1.528267716535433
 30
0.0
 10
-1.517488188976378
 20
-1.528267716535433
 30
0.0
 10
-1.517488188976378
 20
-1.028267716535433
 30
0.0
 10
-1.517488188976378
 20
-1.028267716535433
 30
0.0
 10
-1.517488188976378
 20
-1.028267716535433
 30
0.0
 10
-1.517488188976378
 20
-1.028267716535433
 30
0.0
 10
-1.017492125984252
 20
-1.028267716535433
 30
0.0
 10
-1.017492125984252
 20
-1.028267716535433
 30
0.0
 10
-1.017492125984252
 20
-1.028267716535433
 30
0.0
 10
-1.017492125984252
 20
-1.028267716535433
 30
0.0
 10
-1.017492125984252
 20
-0.7157716535433071
 30
0.0
 10
-1.017492125984252
 20
-0.7157716535433071
 30
0.0
 10
-1.017492125984252
 20
-0.7157716535433071
 30
0.0
 10
-1.017492125984252
 20
-0.1290669291338583
 30
0.0
 10
-0.5416929133858268
 20
0.3467322834645669
 30
0.0
 10
0.045011811023622
 20
0.3467322834645669
 30
0.0
 10
0.045011811023622
 20
0.3467322834645669
 30
0.0
 10
0.5675354330708662
 20
0.3467322834645669
 30
0.0
 10
1.0021023622047245
 20
-0.0306771653543307
 30
0.0
 10
1.0909133858267717
 20
-0.5277204724409449
 30
0.0
 10
1.0909133858267717
 20
-0.5277204724409449
 30
0.0
 10
1.0909133858267717
 20
-0.5277204724409449
 30
0.0
 10
1.482507874015748
 20
-0.5282716535433071
 30
0.0
 10
1.482507874015748
 20
-0.5282716535433071
 30
0.0
 10
1.482507874015748
 20
-0.5282716535433071
 30
0.0
 10
1.482507874015748
 20
-0.5282716535433071
 30
0.0
 10
1.482507874015748
 20
-1.528267716535433
 30
0.0
 10
1.482507874015748
 20
-1.528267716535433
 30
0.0
 10
1.482507874015748
 20
-1.528267716535433
 30
0.0
 10
1.482507874015748
 20
-1.528267716535433
 30
0.0
 10
-1.517488188976378
 20
-1.528267716535433
 30
0.0
 10
-1.517488188976378
 20
-1.528267716535433
 30
0.0
  0
TEXT
  5
8C
100
AcDbEntity
  8
Layer 1
100
AcDbText
 10
-0.070252
 20
-1.738283
 30
0.0
 40
0.119999
  1
BA  1556
 51
-0.000002
  7
Bookman Old Style
100
AcDbText
  0
TEXT
  5
8D
100
AcDbEntity
  8
Layer 1
100
AcDbText
 10
-0.148571
 20
-1.925783
 30
0.0
 40
0.119999
  1
1-7/8\u+201d x 3\u+201d
 51
-0.000002
  7
Bookman Old Style
100
AcDbText
  0
ENDSEC
  0
SECTION
  2
OBJECTS
  0
DICTIONARY
  5
19
100
AcDbDictionary
280
     0
281
     1
  3
ACAD_GROUP
350
1A
  3
ACAD_MLINESTYLE
350
1B
  3
ACAD_LAYOUT
350
1E
  3
ACAD_PLOTSETTINGS
350
22
  3
ACAD_PLOTSTYLENAME
350
1F
  3
ACAD_WIPEOUT_VARS
350
23
  0
DICTIONARY
  5
1A
102
{ACAD_REACTORS
330
19
102
}
100
AcDbDictionary
280
     0
281
     1
  0
DICTIONARY
  5
1B
102
{ACAD_REACTORS
330
19
102
}
100
AcDbDictionary
280
     0
281
     1
  3
Standard
350
1C
  0
MLINESTYLE
  5
1C
102
{ACAD_REACTORS
330
1B
102
}
100
AcDbMlineStyle
  2
Standard
 70
     0
  3

 62
     0
 51
90.0
 52
90.0
 71
     2
 49
0.5
 62
   256
  6
BYLAYER
 49
-0.5
 62
   256
  6
BYLAYER
  0
ACDBDICTIONARYWDFLT
  5
1F
102
{ACAD_REACTORS
330
19
102
}
100
AcDbDictionary
281
     1
  3
Normal
350
1D
100
AcDbDictionaryWithDefault
340
1D
  0
ACDBPLACEHOLDER
  5
1D
102
{ACAD_REACTORS
330
1F
102
}
  0
LAYOUT
  5
20
102
{ACAD_REACTORS
330
1E
102
}
100
AcDbPlotSettings
  1

  2

  4

  6

 40
0.0
 41
0.0
 42
0.0
 43
0.0
 44
0.0
 45
0.0
 46
0.0
 47
0.0
 48
0.0
 49
0.0
140
0.0
141
0.0
142
1.0
143
1.0
 70
  1024
 72
     0
 73
     0
 74
     0
  7

 75
     0
147
1.0
148
0.0
149
0.0
100
AcDbLayout
  1
Model
 70
     0
 71
     0
 10
0.0
 20
0.0
 11
0.0
 21
0.0
 12
0.0
 22
0.0
 32
0.0
 14
0.0
 24
0.0
 34
0.0
 15
0.0
 25
0.0
 35
0.0
146
0.0
 13
0.0
 23
0.0
 33
0.0
 16
0.0
 26
0.0
 36
0.0
 17
0.0
 27
0.0
 37
0.0
 76
     0
330
A
331
0
345
0
346
0
  0
LAYOUT
  5
21
102
{ACAD_REACTORS
330
1E
102
}
100
AcDbPlotSettings
  1

  2

  4

  6

 40
0.0
 41
0.0
 42
0.0
 43
0.0
 44
0.0
 45
0.0
 46
0.0
 47
0.0
 48
0.0
 49
0.0
140
0.0
141
0.0
142
1.0
143
1.0
 70
     0
 72
     0
 73
     0
 74
     0
  7

 75
     0
147
1.0
148
0.0
149
0.0
100
AcDbLayout
  1
Layout1
 70
     0
 71
     0
 10
0.0
 20
0.0
 11
0.0
 21
0.0
 12
0.0
 22
0.0
 32
0.0
 14
0.0
 24
0.0
 34
0.0
 15
0.0
 25
0.0
 35
0.0
146
0.0
 13
0.0
 23
0.0
 33
0.0
 16
0.0
 26
0.0
 36
0.0
 17
0.0
 27
0.0
 37
0.0
 76
     0
330
B
331
0
345
0
346
0
  0
DICTIONARY
  5
1E
102
{ACAD_REACTORS
330
19
102
}
100
AcDbDictionary
280
     0
281
     1
  3
Layout1
350
21
  3
Model
350
20
  0
DICTIONARY
  5
22
102
{ACAD_REACTORS
330
19
102
}
100
AcDbDictionary
280
     0
281
     1
  0
WIPEOUTVARIABLES
  5
23
100
AcDbWipeoutVariables
 70
     1
  0
ENDSEC
  0
EOF
